999
DXF file: Y:\3D PRATIKA-KAEDRA_OLGA\TRAVAIL_PHASE_10\CAD3D\81178_3D-Simplified\81178_2D-isometric.dxf
999
Pro/ENGINEER 2018260 by Parametric Technology Corporation
  0
SECTION
  2
HEADER
  9
$ACADVER
  1
AC1027
  9
$DWGCODEPAGE
  3
ANSI_1252
  9
$EXTMAX
 10
558.8
 20
431.8
 30
0.0
  9
$EXTMIN
 10
0.0
 20
0.0
 30
0.0
  9
$LIMMIN
 10
0.0
 20
0.0
  9
$LIMMAX
 10
558.8
 20
431.8
  9
$VIEWCTR
 10
279.4
 20
215.9
  9
$VIEWSIZE
 40
431.8
  9
$CLAYER
  8
0
  9
$LTSCALE
 40
30.734
  9
$CELTYPE
  6
BYLAYER
  9
$DIMSCALE
 40
1.0
  9
$DIMASZ
 40
0.1875
  9
$DIMEXO
 40
0.0625
  9
$DIMDLI
 40
21.2344
  9
$DIMEXE
 40
0.125
  9
$DIMCEN
 40
5.0292
  9
$DIMLFAC
 40
1.0
  9
$DIMBLK
  1
_CLOSED
  9
$DIMALT
 70
0
  9
$DIMALTF
 40
0.0393700787
  9
$DIMTXT
 40
0.15625
  9
$DIMTOL
 70
0
  9
$DIMLIM
 70
0
  9
$DIMTFAC
 40
1.0
  9
$DIMGAP
 40
0.625
  9
$DIMDSEP
 70
46
  9
$AUNITS
 70
0
  9
$PDMODE
 70
3
  9
$PDSIZE
 40
0.3125
  9
$HANDSEED
  5
50D
  9
$TILEMODE
 70
1
  9
$MEASUREMENT
 70
1
  9
$INSUNITS
 70
4
  0
ENDSEC
  0
SECTION
  2
CLASSES
  0
CLASS
  1
ACDBDICTIONARYWDFLT
  2
AcDbDictionaryWithDefault
  3
AutoCAD 2000
 90
0
 91
1
280
0
281
0
  0
CLASS
  1
ACDBPLACEHOLDER
  2
AcDbPlaceHolder
  3
AutoCAD 2000
 90
0
 91
1
280
0
281
0
  0
CLASS
  1
LAYOUT
  2
AcDbLayout
  3
AutoCAD 2000
 90
0
 91
0
280
0
281
0
  0
ENDSEC
  0
SECTION
  2
TABLES
  0
TABLE
  2
VPORT
  5
8
100
AcDbSymbolTable
 70
2
  0
VPORT
  5
1F4
100
AcDbSymbolTableRecord
100
AcDbViewportTableRecord
  2
*ACTIVE
 70
0
 10
0.0
 20
0.0
 11
1.0
 21
1.0
 12
279.4
 22
215.9
 13
0.0
 23
0.0
 14
1.0
 24
1.0
 15
0.0
 25
0.0
 16
0.0
 26
0.0
 36
1.0
 17
0.0
 27
0.0
 37
0.0
 40
431.8
 41
1.2941176471
 42
50.0
 43
0.0
 44
0.0
 50
0.0
 51
0.0
 71
0
 72
100
 73
1
 74
1
 75
0
 76
0
 77
0
 78
0
  0
ENDTAB
  0
TABLE
  2
LTYPE
  5
5
100
AcDbSymbolTable
 70
6
  0
LTYPE
  5
14
100
AcDbSymbolTableRecord
100
AcDbLinetypeTableRecord
  2
BYBLOCK
 70
0
  3

 72
65
 73
0
 40
0.0
  0
LTYPE
  5
15
100
AcDbSymbolTableRecord
100
AcDbLinetypeTableRecord
  2
BYLAYER
 70
0
  3

 72
65
 73
0
 40
0.0
  0
LTYPE
  5
16
100
AcDbSymbolTableRecord
100
AcDbLinetypeTableRecord
  2
CONTINUOUS
 70
64
  3
Solid line
 72
65
 73
0
 40
0.0
  0
LTYPE
  5
1F5
100
AcDbSymbolTableRecord
100
AcDbLinetypeTableRecord
  2
CENTER
 70
64
  3
____ _ ____ _ ____ _ ____ _ ____ _ ____ _ ____
 72
65
 73
4
 40
0.6
 49
0.375
 74
0
 49
-0.075
 74
0
 49
0.075
 74
0
 49
-0.075
 74
0
  0
LTYPE
  5
1F6
100
AcDbSymbolTableRecord
100
AcDbLinetypeTableRecord
  2
HIDDEN
 70
64
  3
- - - - - - - - - - - - - - - - - - - -
 72
65
 73
2
 40
0.2
 49
0.1
 74
0
 49
-0.1
 74
0
  0
LTYPE
  5
1F7
100
AcDbSymbolTableRecord
100
AcDbLinetypeTableRecord
  2
PHANTOM
 70
64
  3
_____ _ _ _____ _ _ _____ _ _ _____
 72
65
 73
6
 40
0.8
 49
0.45
 74
0
 49
-0.05
 74
0
 49
0.1
 74
0
 49
-0.05
 74
0
 49
0.1
 74
0
 49
-0.05
 74
0
  0
LTYPE
  5
1F8
100
AcDbSymbolTableRecord
100
AcDbLinetypeTableRecord
  2
DOT
 70
64
  3
. . . . . . . . . . . . . . . . . . . .
 72
65
 73
2
 40
0.2
 49
0.1
 74
0
 49
-0.1
 74
0
  0
LTYPE
  5
1F9
100
AcDbSymbolTableRecord
100
AcDbLinetypeTableRecord
  2
DASHED
 70
64
  3
- - - - - - - - - - - - - - - - - - - -
 72
65
 73
2
 40
0.2
 49
0.1
 74
0
 49
-0.1
 74
0
  0
ENDTAB
  0
TABLE
  2
LAYER
  5
2
100
AcDbSymbolTable
 70
36
  0
LAYER
  5
10
100
AcDbSymbolTableRecord
100
AcDbLayerTableRecord
  2
0
 70
0
 62
7
  6
CONTINUOUS
370
-3
390
F
  0
LAYER
  5
1FA
100
AcDbSymbolTableRecord
100
AcDbLayerTableRecord
  2
DEFAULT_1
 70
0
 62
7
  6
CENTER
370
-3
390
F
  0
LAYER
  5
1FB
100
AcDbSymbolTableRecord
100
AcDbLayerTableRecord
  2
DEFAULT_2
 70
0
 62
8
  6
HIDDEN
370
-3
390
F
  0
LAYER
  5
1FC
100
AcDbSymbolTableRecord
100
AcDbLayerTableRecord
  2
DEFAULT_3
 70
0
 62
7
  6
PHANTOM
370
-3
390
F
  0
LAYER
  5
1FD
100
AcDbSymbolTableRecord
100
AcDbLayerTableRecord
  2
01_ALL_DTM_PLN
 70
0
 62
7
  6
CONTINUOUS
370
-3
390
F
  0
LAYER
  5
1FE
100
AcDbSymbolTableRecord
100
AcDbLayerTableRecord
  2
01__ASM_ALL_DTM_PLN
 70
0
 62
7
  6
CONTINUOUS
370
-3
390
F
  0
LAYER
  5
1FF
100
AcDbSymbolTableRecord
100
AcDbLayerTableRecord
  2
01__ASM_DEF_DTM_PLN
 70
0
 62
7
  6
CONTINUOUS
370
-3
390
F
  0
LAYER
  5
200
100
AcDbSymbolTableRecord
100
AcDbLayerTableRecord
  2
01___PRT_ALL_DTM_PLN
 70
0
 62
7
  6
CONTINUOUS
370
-3
390
F
  0
LAYER
  5
201
100
AcDbSymbolTableRecord
100
AcDbLayerTableRecord
  2
01___PRT_DEF_DTM_PLN
 70
0
 62
7
  6
CONTINUOUS
370
-3
390
F
  0
LAYER
  5
202
100
AcDbSymbolTableRecord
100
AcDbLayerTableRecord
  2
02_ALL_AXES
 70
0
 62
7
  6
CONTINUOUS
370
-3
390
F
  0
LAYER
  5
203
100
AcDbSymbolTableRecord
100
AcDbLayerTableRecord
  2
02__ASM_ALL_AXES
 70
0
 62
7
  6
CONTINUOUS
370
-3
390
F
  0
LAYER
  5
204
100
AcDbSymbolTableRecord
100
AcDbLayerTableRecord
  2
02___PRT_ALL_AXES
 70
0
 62
7
  6
CONTINUOUS
370
-3
390
F
  0
LAYER
  5
205
100
AcDbSymbolTableRecord
100
AcDbLayerTableRecord
  2
03_ALL_CURVES
 70
0
 62
7
  6
CONTINUOUS
370
-3
390
F
  0
LAYER
  5
206
100
AcDbSymbolTableRecord
100
AcDbLayerTableRecord
  2
03__ASM_ALL_CURVES
 70
0
 62
7
  6
CONTINUOUS
370
-3
390
F
  0
LAYER
  5
207
100
AcDbSymbolTableRecord
100
AcDbLayerTableRecord
  2
03___PRT_ALL_CURVES
 70
0
 62
7
  6
CONTINUOUS
370
-3
390
F
  0
LAYER
  5
208
100
AcDbSymbolTableRecord
100
AcDbLayerTableRecord
  2
04_ALL_DTM_PNT
 70
0
 62
7
  6
CONTINUOUS
370
-3
390
F
  0
LAYER
  5
209
100
AcDbSymbolTableRecord
100
AcDbLayerTableRecord
  2
04__ASM_ALL_DTM_PNT
 70
0
 62
7
  6
CONTINUOUS
370
-3
390
F
  0
LAYER
  5
20A
100
AcDbSymbolTableRecord
100
AcDbLayerTableRecord
  2
04___PRT_ALL_DTM_PNT
 70
0
 62
7
  6
CONTINUOUS
370
-3
390
F
  0
LAYER
  5
20B
100
AcDbSymbolTableRecord
100
AcDbLayerTableRecord
  2
05_ALL_DTM_CSYS
 70
0
 62
7
  6
CONTINUOUS
370
-3
390
F
  0
LAYER
  5
20C
100
AcDbSymbolTableRecord
100
AcDbLayerTableRecord
  2
05__ASM_ALL_DTM_CSYS
 70
0
 62
7
  6
CONTINUOUS
370
-3
390
F
  0
LAYER
  5
20D
100
AcDbSymbolTableRecord
100
AcDbLayerTableRecord
  2
05__ASM_DEF_DTM_CSYS
 70
0
 62
7
  6
CONTINUOUS
370
-3
390
F
  0
LAYER
  5
20E
100
AcDbSymbolTableRecord
100
AcDbLayerTableRecord
  2
05___PRT_ALL_DTM_CSYS
 70
0
 62
7
  6
CONTINUOUS
370
-3
390
F
  0
LAYER
  5
20F
100
AcDbSymbolTableRecord
100
AcDbLayerTableRecord
  2
05___PRT_DEF_DTM_CSYS
 70
0
 62
7
  6
CONTINUOUS
370
-3
390
F
  0
LAYER
  5
210
100
AcDbSymbolTableRecord
100
AcDbLayerTableRecord
  2
06_ALL_SURFS
 70
0
 62
7
  6
CONTINUOUS
370
-3
390
F
  0
LAYER
  5
211
100
AcDbSymbolTableRecord
100
AcDbLayerTableRecord
  2
06__ASM_ALL_SURFS
 70
0
 62
7
  6
CONTINUOUS
370
-3
390
F
  0
LAYER
  5
212
100
AcDbSymbolTableRecord
100
AcDbLayerTableRecord
  2
06___PRT_ALL_SURFS
 70
0
 62
7
  6
CONTINUOUS
370
-3
390
F
  0
LAYER
  5
213
100
AcDbSymbolTableRecord
100
AcDbLayerTableRecord
  2
07__ASM_ALL_SKELETONS
 70
0
 62
7
  6
CONTINUOUS
370
-3
390
F
  0
ENDTAB
  0
TABLE
  2
STYLE
  5
3
100
AcDbSymbolTable
 70
1
  0
STYLE
  5
11
100
AcDbSymbolTableRecord
100
AcDbTextStyleTableRecord
  2
STANDARD
 70
0
 40
0.0
 41
0.8
 50
0.0
 71
0
 42
0.2
  3
txt
  4

  0
STYLE
  5
214
100
AcDbSymbolTableRecord
100
AcDbTextStyleTableRecord
  2
TEXTSTYLE_1
 70
0
 40
0.0
 41
0.8
 50
0.0
 71
0
 42
0.2
  3
gdt
  4

  0
ENDTAB
  0
TABLE
  2
VIEW
  5
6
100
AcDbSymbolTable
 70
0
  0
ENDTAB
  0
TABLE
  2
UCS
  5
7
100
AcDbSymbolTable
 70
0
  0
ENDTAB
  0
TABLE
  2
APPID
  5
9
100
AcDbSymbolTable
 70
1
  0
APPID
  5
215
100
AcDbSymbolTableRecord
100
AcDbRegAppTableRecord
  2
ACAD
 70
0
  0
ENDTAB
  0
TABLE
  2
BLOCK_RECORD
  5
1
100
AcDbSymbolTable
 70
0
  0
BLOCK_RECORD
  5
216
100
AcDbSymbolTableRecord
100
AcDbBlockTableRecord
  2
*Model_Space
  0
BLOCK_RECORD
  5
217
100
AcDbSymbolTableRecord
100
AcDbBlockTableRecord
  2
*Paper_Space
  0
BLOCK_RECORD
  5
218
100
AcDbSymbolTableRecord
100
AcDbBlockTableRecord
  2
_CLOSED
  0
ENDTAB
  0
TABLE
  2
DIMSTYLE
  5
A
100
AcDbSymbolTable
 70
1
100
AcDbDimStyleTable
 71
0
  0
DIMSTYLE
105
219
100
AcDbSymbolTableRecord
100
AcDbDimStyleTableRecord
  2
STANDARD
 70
0
  3

  4

 40
1.0
 41
0.1875
 42
0.0625
 43
0.38
 44
0.125
 45
0.0
 46
0.0
 47
0.01
 48
0.01
140
0.15625
141
0.09
142
0.0
143
25.4
144
1.0
145
0.0
146
1.0
147
0.625
 71
0.0
 72
0.0
 73
1
 74
1
 75
0
 76
0
 77
0
 78
8
 79
2
170
0
171
1
172
0
173
0
174
0
175
0
176
0
177
0
178
0
270
2
179
2
271
2
272
2
273
2
274
2
275
0
280
0
281
0
282
0
283
1
284
8
285
0
286
0
287
3
288
0
340
11
278
46
341
218
342
218
343
218
344
218
  0
ENDTAB
  0
ENDSEC
  0
SECTION
  2
BLOCKS
  0
BLOCK
  5
20
100
AcDbEntity
  8
0
100
AcDbBlockBegin
  2
*Model_Space
 70
0
 10
0.0
 20
0.0
 30
0.0
  3
*Model_Space
  1

  0
ENDBLK
  5
21
100
AcDbEntity
  8
0
100
AcDbBlockEnd
  0
BLOCK
  5
1C
100
AcDbEntity
  8
0
100
AcDbBlockBegin
  2
*Paper_Space
 70
0
 10
0.0
 20
0.0
 30
0.0
  3
*Paper_Space
  1

  0
ENDBLK
  5
1D
100
AcDbEntity
  8
0
100
AcDbBlockEnd
  0
BLOCK
  5
21A
100
AcDbEntity
  8
0
100
AcDbBlockBegin
  2
_CLOSED
 70
64
 10
0.0
 20
0.0
  3
_CLOSED
  1

  0
LINE
  5
21B
100
AcDbEntity
  8
0
  6
BYBLOCK
 62
0
100
AcDbLine
 10
0.0
 20
0.0
 11
-1.0
 21
0.1666666667
  0
LINE
  5
21C
100
AcDbEntity
  8
0
  6
BYBLOCK
 62
0
100
AcDbLine
 10
-1.0
 20
0.1666666667
 11
-1.0
 21
-0.1666666667
  0
LINE
  5
21D
100
AcDbEntity
  8
0
  6
BYBLOCK
 62
0
100
AcDbLine
 10
-1.0
 20
-0.1666666667
 11
0.0
 21
0.0
  0
LINE
  5
21E
100
AcDbEntity
  8
0
  6
BYBLOCK
 62
0
100
AcDbLine
 10
-1.0
 20
0.0
 11
0.0
 21
0.0
  0
ENDBLK
  5
21F
100
AcDbEntity
  8
0
  6
BYBLOCK
 62
0
100
AcDbBlockEnd
  0
ENDSEC
  0
SECTION
  2
ENTITIES
  0
LINE
  5
220
100
AcDbEntity
  8
0
100
AcDbLine
 62
7
  6
CONTINUOUS
 10
-60.7374259065
 20
83.3157318556
 11
-62.80354168
 21
82.7618981947
  0
LINE
  5
221
100
AcDbEntity
  8
0
100
AcDbLine
 62
7
  6
CONTINUOUS
 10
21.0807587268
 20
105.2475448294
 11
23.1468745003
 21
105.8013784904
  0
LINE
  5
222
100
AcDbEntity
  8
0
100
AcDbLine
 62
7
  6
CONTINUOUS
 10
-60.6123515452
 20
83.5873120847
 11
20.7992509571
 21
105.4101384891
  0
LINE
  5
223
100
AcDbEntity
  8
0
100
AcDbLine
 62
7
  6
CONTINUOUS
 10
-63.5163496042
 20
83.5230395657
 11
-63.9295727589
 21
83.4122728335
  0
LINE
  5
224
100
AcDbEntity
  8
0
100
AcDbLine
 62
7
  6
CONTINUOUS
 10
-150.1147267519
 20
133.1912171742
 11
-63.9295727589
 21
83.4122728335
  0
LINE
  5
225
100
AcDbEntity
  8
0
100
AcDbLine
 62
7
  6
CONTINUOUS
 10
-63.5163496042
 20
83.5230395657
 11
-62.80354168
 21
83.1113349468
  0
LINE
  5
226
100
AcDbEntity
  8
0
100
AcDbLine
 62
7
  6
CONTINUOUS
 10
-41.7342354124
 20
128.5107388337
 11
16.0317979229
 21
143.9952407819
  0
LINE
  5
227
100
AcDbEntity
  8
0
100
AcDbLine
 62
7
  6
CONTINUOUS
 10
39.1695493535
 20
150.1974419097
 11
44.216180768
 21
151.5502191294
  0
LINE
  5
228
100
AcDbEntity
  8
0
100
AcDbLine
 62
7
  6
CONTINUOUS
 10
40.5547606363
 20
150.59374221
 11
39.2122188261
 21
150.2338665171
  0
LINE
  5
229
100
AcDbEntity
  8
0
100
AcDbLine
 62
7
  6
CONTINUOUS
 10
16.0281973158
 20
144.0192624407
 11
-28.8667293555
 21
131.9849312019
  0
LINE
  5
22A
100
AcDbEntity
  8
0
100
AcDbLine
 62
7
  6
CONTINUOUS
 10
-33.6591299014
 20
132.1921669389
 11
-33.6883510346
 21
132.1843340539
  0
LINE
  5
22B
100
AcDbEntity
  8
0
100
AcDbLine
 62
7
  6
CONTINUOUS
 10
-151.4163794312
 20
195.5288026436
 11
-151.4163794312
 21
134.8527181571
  0
LINE
  5
22C
100
AcDbEntity
  8
0
100
AcDbLine
 62
7
  6
CONTINUOUS
 10
-151.4163794312
 20
197.3674718704
 11
-151.4163794312
 21
202.883479551
  0
LINE
  5
22D
100
AcDbEntity
  8
0
100
AcDbLine
 62
7
  6
CONTINUOUS
 10
-150.7216485068
 20
195.476975716
 11
-150.7216485068
 21
196.1588325666
  0
LINE
  5
22E
100
AcDbEntity
  8
0
100
AcDbLine
 62
7
  6
CONTINUOUS
 10
-150.1147267518
 20
201.2219785681
 11
-150.1147267517
 21
195.7059708875
  0
LINE
  5
22F
100
AcDbEntity
  8
0
100
AcDbLine
 62
7
  6
CONTINUOUS
 10
-150.1147267519
 20
193.8673016607
 11
-150.1147267519
 21
133.1912171742
  0
LINE
  5
230
100
AcDbEntity
  8
0
100
AcDbLine
 62
7
  6
CONTINUOUS
 10
-149.4199958275
 20
195.304707208
 11
-149.4199958275
 21
193.8154747332
  0
LINE
  5
231
100
AcDbEntity
  8
0
100
AcDbLine
 62
7
  6
CONTINUOUS
 10
-137.1355523398
 20
200.8738148109
 11
-137.1584998792
 21
201.4229218324
  0
LINE
  5
232
100
AcDbEntity
  8
0
100
AcDbLine
 62
7
  6
CONTINUOUS
 10
-136.3320535697
 20
201.6444552968
 11
-136.299323925
 21
200.8612742562
  0
LINE
  5
233
100
AcDbEntity
  8
0
100
AcDbLine
 62
7
  6
CONTINUOUS
 10
-139.9654620336
 20
198.8374713292
 11
-139.9654620336
 21
200.3313279584
  0
LINE
  5
234
100
AcDbEntity
  8
0
100
AcDbLine
 62
7
  6
CONTINUOUS
 10
-136.2510895841
 20
215.8227652826
 11
-136.2510858758
 21
206.8426304012
  0
LINE
  5
235
100
AcDbEntity
  8
0
100
AcDbLine
 62
7
  6
CONTINUOUS
 10
-134.7464060675
 20
208.771736047
 11
-135.1679572124
 21
195.2303009382
  0
LINE
  5
236
100
AcDbEntity
  8
0
100
AcDbLine
 62
7
  6
CONTINUOUS
 10
-135.8140664826
 20
200.3728773617
 11
-135.7724241881
 21
201.3212237593
  0
LINE
  5
237
100
AcDbEntity
  8
0
100
AcDbLine
 62
7
  6
CONTINUOUS
 10
-134.9697231812
 20
201.5978425672
 11
-135.0551770602
 21
201.3862564033
  0
LINE
  5
238
100
AcDbEntity
  8
0
100
AcDbLine
 62
7
  6
CONTINUOUS
 10
-8.6285046225
 20
153.9421834509
 11
1.4678716115
 21
156.6485724556
  0
LINE
  5
239
100
AcDbEntity
  8
0
100
AcDbLine
 62
7
  6
CONTINUOUS
 10
-63.5163496042
 20
144.1991240522
 11
-63.9295727589
 21
144.08835732
  0
LINE
  5
23A
100
AcDbEntity
  8
0
100
AcDbLine
 62
7
  6
CONTINUOUS
 10
-63.1288259106
 20
145.4645300385
 11
-62.80354168
 21
145.5517242599
  0
LINE
  5
23B
100
AcDbEntity
  8
0
100
AcDbLine
 62
7
  6
CONTINUOUS
 10
-25.5810860511
 20
142.8919312844
 11
-26.9106235207
 21
143.020218667
  0
LINE
  5
23C
100
AcDbEntity
  8
0
100
AcDbLine
 62
7
  6
CONTINUOUS
 10
-34.2321822847
 20
132.2604995773
 11
-33.6883510346
 21
132.1843340539
  0
LINE
  5
23D
100
AcDbEntity
  8
0
100
AcDbLine
 62
7
  6
CONTINUOUS
 10
-31.1420817432
 20
131.8396452873
 11
-36.5803942445
 21
132.6013005215
  0
LINE
  5
23E
100
AcDbEntity
  8
0
100
AcDbLine
 62
7
  6
CONTINUOUS
 10
-41.9775768827
 20
138.7370324409
 11
-36.6440529852
 21
137.9900532277
  0
LINE
  5
23F
100
AcDbEntity
  8
0
100
AcDbLine
 62
7
  6
CONTINUOUS
 10
-28.0625275243
 20
139.9880386216
 11
-27.1788384885
 21
139.8642747924
  0
LINE
  5
240
100
AcDbEntity
  8
0
100
AcDbLine
 62
7
  6
CONTINUOUS
 10
-126.9613294752
 20
221.0753370524
 11
-126.9613294752
 21
224.177867475
  0
LWPOLYLINE
  5
241
100
AcDbEntity
  8
0
100
AcDbPolyline
 62
7
  6
CONTINUOUS
 90
4
 70
0
 10
-124.047297721
 20
227.7152268519
 10
-127.5321841956
 20
226.5250426992
 10
-131.2338367343
 20
224.66762119
 10
-133.9790518595
 20
222.8449883144
  0
LINE
  5
242
100
AcDbEntity
  8
0
100
AcDbLine
 62
7
  6
CONTINUOUS
 10
19.3052696729
 20
151.3968917557
 11
14.9496892005
 21
151.6537823512
  0
LINE
  5
243
100
AcDbEntity
  8
0
100
AcDbLine
 62
7
  6
CONTINUOUS
 10
-26.6577785465
 20
143.9413185472
 11
-25.7592588797
 21
143.8546201736
  0
LINE
  5
244
100
AcDbEntity
  8
0
100
AcDbLine
 62
7
  6
CONTINUOUS
 10
-29.5674064924
 20
141.9667070634
 11
-29.4450812067
 21
141.949574967
  0
LINE
  5
245
100
AcDbEntity
  8
0
100
AcDbLine
 62
7
  6
CONTINUOUS
 10
-29.6232540353
 20
142.9122638562
 11
-29.745579321
 21
142.9293959526
  0
LINE
  5
246
100
AcDbEntity
  8
0
100
AcDbLine
 62
7
  6
CONTINUOUS
 10
-23.7635236125
 20
143.7486269272
 11
-23.8858488981
 21
143.7657590236
  0
LINE
  5
247
100
AcDbEntity
  8
0
100
AcDbLine
 62
7
  6
CONTINUOUS
 10
-27.0916281952
 20
146.9203798202
 11
-26.2079391593
 21
146.796615991
  0
LINE
  5
248
100
AcDbEntity
  8
0
100
AcDbLine
 62
7
  6
CONTINUOUS
 10
16.2120137109
 20
142.7929207062
 11
18.1154230863
 21
142.5263413743
  0
LINE
  5
249
100
AcDbEntity
  8
0
100
AcDbLine
 62
7
  6
CONTINUOUS
 10
2.388338184
 20
149.018657904
 11
15.5552459191
 21
147.1745850978
  0
LINE
  5
24A
100
AcDbEntity
  8
0
100
AcDbLine
 62
7
  6
CONTINUOUS
 10
23.3258413141
 20
146.0862852522
 11
24.6854194395
 21
145.8958714436
  0
LINE
  5
24B
100
AcDbEntity
  8
0
100
AcDbLine
 62
7
  6
CONTINUOUS
 10
-27.4721124224
 20
142.8424245159
 11
-26.396216133
 21
142.6338222452
  0
LINE
  5
24C
100
AcDbEntity
  8
0
100
AcDbLine
 62
7
  6
CONTINUOUS
 10
-63.9295727589
 20
144.08835732
 11
-150.1147267519
 21
193.8673016607
  0
LINE
  5
24D
100
AcDbEntity
  8
0
100
AcDbLine
 62
7
  6
CONTINUOUS
 10
-149.4199958275
 20
193.8154747332
 11
-63.5163496042
 21
144.1991240522
  0
LINE
  5
24E
100
AcDbEntity
  8
0
100
AcDbLine
 62
7
  6
CONTINUOUS
 10
-63.1288259106
 20
145.4645300385
 11
-150.1147267517
 21
195.7059708875
  0
LINE
  5
24F
100
AcDbEntity
  8
0
100
AcDbLine
 62
7
  6
CONTINUOUS
 10
-76.5043070848
 20
164.2969552732
 11
-79.9924343486
 21
163.3619436359
  0
LINE
  5
250
100
AcDbEntity
  8
0
100
AcDbLine
 62
7
  6
CONTINUOUS
 10
15.0255012619
 20
161.0092912324
 11
-0.3051830978
 21
163.0429637686
  0
LINE
  5
251
100
AcDbEntity
  8
0
100
AcDbLine
 62
7
  6
CONTINUOUS
 10
-8.6285046225
 20
153.9421834509
 11
-10.7144049897
 21
154.2343179855
  0
LINE
  5
252
100
AcDbEntity
  8
0
100
AcDbLine
 62
7
  6
CONTINUOUS
 10
14.8280031427
 20
151.670877342
 11
-6.1442124236
 21
154.6081115954
  0
LINE
  5
253
100
AcDbEntity
  8
0
100
AcDbLine
 62
7
  6
CONTINUOUS
 10
9.9616896713
 20
156.1103258523
 11
21.3932220799
 21
154.5092986049
  0
LINE
  5
254
100
AcDbEntity
  8
0
100
AcDbLine
 62
7
  6
CONTINUOUS
 10
5.3791660333
 20
158.3642619415
 11
29.9272502199
 21
154.926214421
  0
LINE
  5
255
100
AcDbEntity
  8
0
100
AcDbLine
 62
7
  6
CONTINUOUS
 10
29.6576851742
 20
156.7246332487
 11
2.3824147259
 21
160.5446330183
  0
LINE
  5
256
100
AcDbEntity
  8
0
100
AcDbLine
 62
7
  6
CONTINUOUS
 10
-64.5363647591
 20
151.7935060176
 11
-150.1147267519
 21
201.2219785681
  0
LINE
  5
257
100
AcDbEntity
  8
0
100
AcDbLine
 62
7
  6
CONTINUOUS
 10
-64.5363647591
 20
152.6876211261
 11
-66.8571305577
 21
154.0280523508
  0
LINE
  5
258
100
AcDbEntity
  8
0
100
AcDbLine
 62
7
  6
CONTINUOUS
 10
-79.9924343486
 20
163.3619436359
 11
-135.1679572124
 21
195.2303009382
  0
LINE
  5
259
100
AcDbEntity
  8
0
100
AcDbLine
 62
7
  6
CONTINUOUS
 10
20.7992509571
 20
105.4101384891
 11
21.0807587268
 21
105.2475448294
  0
LINE
  5
25A
100
AcDbEntity
  8
0
100
AcDbLine
 62
7
  6
CONTINUOUS
 10
-135.1669428181
 20
199.7239759569
 11
-135.0305199628
 21
199.6451806493
  0
LINE
  5
25B
100
AcDbEntity
  8
0
100
AcDbLine
 62
7
  6
CONTINUOUS
 10
-36.2680261356
 20
226.3217180576
 11
-37.8265795736
 21
225.8719956149
  0
LINE
  5
25C
100
AcDbEntity
  8
0
100
AcDbLine
 62
7
  6
CONTINUOUS
 10
-40.4176037198
 20
225.1243525249
 11
-41.9761571577
 21
224.6746300821
  0
LINE
  5
25D
100
AcDbEntity
  8
0
100
AcDbLine
 62
7
  6
CONTINUOUS
 10
19.5016863504
 20
167.2211117266
 11
19.8720649812
 21
167.1869273957
  0
LINE
  5
25E
100
AcDbEntity
  8
0
100
AcDbLine
 62
7
  6
CONTINUOUS
 10
21.0689952674
 20
178.4118910899
 11
20.6986166117
 21
178.4460754219
  0
LINE
  5
25F
100
AcDbEntity
  8
0
100
AcDbLine
 62
7
  6
CONTINUOUS
 10
1.1093615927
 20
176.7633908582
 11
0.8472456626
 21
176.7882987363
  0
LINE
  5
260
100
AcDbEntity
  8
0
100
AcDbLine
 62
7
  6
CONTINUOUS
 10
6.8270280949
 20
169.7380986742
 11
6.6960158104
 21
169.7508744413
  0
LINE
  5
261
100
AcDbEntity
  8
0
100
AcDbLine
 62
7
  6
CONTINUOUS
 10
-2.5028558132
 20
174.2670767488
 11
-7.4765696336
 21
174.9182737673
  0
LINE
  5
262
100
AcDbEntity
  8
0
100
AcDbLine
 62
7
  6
CONTINUOUS
 10
6.5913077978
 20
164.0643162676
 11
-2.2331995626
 21
165.2399159963
  0
LINE
  5
263
100
AcDbEntity
  8
0
100
AcDbLine
 62
7
  6
CONTINUOUS
 10
7.9755910053
 20
166.7912917935
 11
-4.4297083799
 21
168.5286986099
  0
LINE
  5
264
100
AcDbEntity
  8
0
100
AcDbLine
 62
7
  6
CONTINUOUS
 10
5.1946901298
 20
168.853704881
 11
-5.4915914862
 21
170.3503570732
  0
LINE
  5
265
100
AcDbEntity
  8
0
100
AcDbLine
 62
7
  6
CONTINUOUS
 10
3.3228151547
 20
170.7123140794
 11
-6.260776596
 21
172.0545305882
  0
LINE
  5
266
100
AcDbEntity
  8
0
100
AcDbLine
 62
7
  6
CONTINUOUS
 10
-134.8319761478
 20
206.0229789776
 11
-136.2510858758
 21
206.8426304012
  0
LINE
  5
267
100
AcDbEntity
  8
0
100
AcDbLine
 62
7
  6
CONTINUOUS
 10
-79.9924343486
 20
163.3619436359
 11
-78.2250603102
 21
220.1350929083
  0
LINE
  5
268
100
AcDbEntity
  8
0
100
AcDbLine
 62
7
  6
CONTINUOUS
 10
6.7845286136
 20
251.3731344139
 11
6.7231280666
 21
251.3389200002
  0
LINE
  5
269
100
AcDbEntity
  8
0
100
AcDbLine
 62
7
  6
CONTINUOUS
 10
6.7858240254
 20
251.3584634292
 11
6.7241713753
 21
251.3268250325
  0
LINE
  5
26A
100
AcDbEntity
  8
0
100
AcDbLine
 62
7
  6
CONTINUOUS
 10
-15.1692343182
 20
240.4444964816
 11
-14.6285394289
 21
240.720668905
  0
LINE
  5
26B
100
AcDbEntity
  8
0
100
AcDbLine
 62
7
  6
CONTINUOUS
 10
46.5995936558
 20
226.7943324227
 11
37.2280523763
 21
224.2822394016
  0
LINE
  5
26C
100
AcDbEntity
  8
0
100
AcDbLine
 62
7
  6
CONTINUOUS
 10
2.5351494468
 20
182.5341518049
 11
3.0991499889
 21
182.481717531
  0
LINE
  5
26D
100
AcDbEntity
  8
0
100
AcDbLine
 62
7
  6
CONTINUOUS
 10
31.6725823993
 20
190.344600459
 11
32.2365829415
 21
190.2921661851
  0
LINE
  5
26E
100
AcDbEntity
  8
0
100
AcDbLine
 62
7
  6
CONTINUOUS
 10
-2.3546868195
 20
187.2119950597
 11
-2.0499108081
 21
187.1835112077
  0
LINE
  5
26F
100
AcDbEntity
  8
0
100
AcDbLine
 62
7
  6
CONTINUOUS
 10
40.5002083962
 20
179.6980995968
 11
40.7623743319
 21
179.6735474018
  0
LINE
  5
270
100
AcDbEntity
  8
0
100
AcDbLine
 62
7
  6
CONTINUOUS
 10
41.609706064
 20
187.6200488269
 11
41.3475436101
 21
187.6446256512
  0
LINE
  5
271
100
AcDbEntity
  8
0
100
AcDbLine
 62
7
  6
CONTINUOUS
 10
41.7312462562
 20
179.7970541585
 11
39.4022973819
 21
180.1310501335
  0
LINE
  5
272
100
AcDbEntity
  8
0
100
AcDbLine
 62
7
  6
CONTINUOUS
 10
-76.5043070224
 20
223.3383067354
 11
-76.5043070848
 21
164.2969552732
  0
LINE
  5
273
100
AcDbEntity
  8
0
100
AcDbLine
 62
7
  6
CONTINUOUS
 10
-67.8994729871
 20
157.2134944445
 11
-67.8994729871
 21
158.7073510737
  0
LINE
  5
274
100
AcDbEntity
  8
0
100
AcDbLine
 62
7
  6
CONTINUOUS
 10
-21.9654160574
 20
235.0580854739
 11
-15.1692343182
 21
240.4444964816
  0
LINE
  5
275
100
AcDbEntity
  8
0
100
AcDbLine
 62
7
  6
CONTINUOUS
 10
17.8681947819
 20
230.0896023555
 11
17.1693710385
 21
229.9022788196
  0
LINE
  5
276
100
AcDbEntity
  8
0
100
AcDbLine
 62
7
  6
CONTINUOUS
 10
-6.6996455301
 20
231.9754667552
 11
11.2305371325
 21
236.7817505234
  0
LINE
  5
277
100
AcDbEntity
  8
0
100
AcDbLine
 62
7
  6
CONTINUOUS
 10
-64.9911262538
 20
213.9694771932
 11
-64.5363647591
 21
214.0670739549
  0
LINE
  5
278
100
AcDbEntity
  8
0
100
AcDbLine
 62
7
  6
CONTINUOUS
 10
14.460337392
 20
204.686121333
 11
14.6996085417
 21
204.6640376503
  0
LINE
  5
279
100
AcDbEntity
  8
0
100
AcDbLine
 62
7
  6
CONTINUOUS
 10
4.9219132256
 20
199.575938607
 11
4.3579126834
 21
199.6283728809
  0
LINE
  5
27A
100
AcDbEntity
  8
0
100
AcDbLine
 62
7
  6
CONTINUOUS
 10
-1.0648755108
 20
196.4214058207
 11
-1.3696515222
 21
196.4498896727
  0
LINE
  5
27B
100
AcDbEntity
  8
0
100
AcDbLine
 62
7
  6
CONTINUOUS
 10
26.7827461331
 20
195.0224437138
 11
27.0875221444
 21
194.9939598619
  0
LINE
  5
27C
100
AcDbEntity
  8
0
100
AcDbLine
 62
7
  6
CONTINUOUS
 10
39.544175954
 20
187.1113952533
 11
43.4542543358
 21
186.5861320923
  0
LINE
  5
27D
100
AcDbEntity
  8
0
100
AcDbLine
 62
7
  6
CONTINUOUS
 10
-64.6938813694
 20
231.560166089
 11
-64.6938813695
 21
216.8080716276
  0
LINE
  5
27E
100
AcDbEntity
  8
0
100
AcDbLine
 62
7
  6
CONTINUOUS
 10
-64.5363647591
 20
227.9855365296
 11
-64.5363647591
 21
151.7935060176
  0
LINE
  5
27F
100
AcDbEntity
  8
0
100
AcDbLine
 62
7
  6
CONTINUOUS
 10
-63.9295727589
 20
144.08835732
 11
-63.9295727589
 21
83.4122728335
  0
LINE
  5
280
100
AcDbEntity
  8
0
100
AcDbLine
 62
7
  6
CONTINUOUS
 10
-63.5163496042
 20
83.5230395657
 11
-63.5163496042
 21
144.1991240522
  0
LINE
  5
281
100
AcDbEntity
  8
0
100
AcDbLine
 62
7
  6
CONTINUOUS
 10
-63.1288259106
 20
145.4645300385
 11
-63.1288259106
 21
227.7884056492
  0
LINE
  5
282
100
AcDbEntity
  8
0
100
AcDbLine
 62
7
  6
CONTINUOUS
 10
-62.80354168
 20
82.7618981947
 11
-62.80354168
 21
227.5898589275
  0
LINE
  5
283
100
AcDbEntity
  8
0
100
AcDbLine
 62
7
  6
CONTINUOUS
 10
-64.9911263072
 20
213.9694771821
 11
-66.8571305577
 21
154.0280523508
  0
LINE
  5
284
100
AcDbEntity
  8
0
100
AcDbLine
 62
7
  6
CONTINUOUS
 10
6.9202591751
 20
251.1295548863
 11
4.4428358687
 21
250.4623894677
  0
LINE
  5
285
100
AcDbEntity
  8
0
100
AcDbLine
 62
7
  6
CONTINUOUS
 10
16.0321335639
 20
242.3389911972
 11
12.9329599036
 21
241.5082407055
  0
LINE
  5
286
100
AcDbEntity
  8
0
100
AcDbLine
 62
7
  6
CONTINUOUS
 10
-7.3149746774
 20
236.0806708285
 11
-10.4141483378
 21
235.2499203371
  0
LINE
  5
287
100
AcDbEntity
  8
0
100
AcDbLine
 62
7
  6
CONTINUOUS
 10
-8.7142887581
 20
240.1887157942
 11
11.1204226681
 21
245.5055189394
  0
LINE
  5
288
100
AcDbEntity
  8
0
100
AcDbLine
 62
7
  6
CONTINUOUS
 10
-11.5293916102
 20
241.5515156407
 11
-14.6285652705
 21
240.7207651493
  0
LINE
  5
289
100
AcDbEntity
  8
0
100
AcDbLine
 62
7
  6
CONTINUOUS
 10
9.8028587875
 20
247.2697423177
 11
11.8177166311
 21
247.8098360095
  0
LINE
  5
28A
100
AcDbEntity
  8
0
100
AcDbLine
 62
7
  6
CONTINUOUS
 10
-148.1389959769
 20
205.3223844466
 11
-136.2510865639
 21
208.5090037423
  0
LINE
  5
28B
100
AcDbEntity
  8
0
100
AcDbLine
 62
7
  6
CONTINUOUS
 10
-44.4586777947
 20
236.0075189856
 11
-14.4967756707
 21
244.0389711215
  0
LINE
  5
28C
100
AcDbEntity
  8
0
100
AcDbLine
 62
7
  6
CONTINUOUS
 10
7.7600725861
 20
250.0050413239
 11
24.9628121971
 21
254.6163299937
  0
LINE
  5
28D
100
AcDbEntity
  8
0
100
AcDbLine
 62
7
  6
CONTINUOUS
 10
21.6998246963
 20
255.0733231342
 11
6.9247545492
 21
251.1127845743
  0
LINE
  5
28E
100
AcDbEntity
  8
0
100
AcDbLine
 62
7
  6
CONTINUOUS
 10
-21.9044921545
 20
243.3849469339
 11
-47.7216652955
 21
236.4645121261
  0
LINE
  5
28F
100
AcDbEntity
  8
0
100
AcDbLine
 62
7
  6
CONTINUOUS
 10
-10.4329133899
 20
246.4744064152
 11
-12.9144522512
 21
245.8127517412
  0
LINE
  5
290
100
AcDbEntity
  8
0
100
AcDbLine
 62
7
  6
CONTINUOUS
 10
15.4728466924
 20
211.9155628686
 11
15.2335755254
 21
211.9376465522
  0
LINE
  5
291
100
AcDbEntity
  8
0
100
AcDbLine
 62
7
  6
CONTINUOUS
 10
34.0593461781
 20
207.3863872612
 11
33.4953456359
 21
207.4388215351
  0
LINE
  5
292
100
AcDbEntity
  8
0
100
AcDbLine
 62
7
  6
CONTINUOUS
 10
28.0725574418
 20
204.2318544749
 11
27.7677814304
 21
204.2603383269
  0
LINE
  5
293
100
AcDbEntity
  8
0
100
AcDbLine
 62
7
  6
CONTINUOUS
 10
25.1782891128
 20
212.9941923505
 11
25.4404166927
 21
212.9693671852
  0
LINE
  5
294
100
AcDbEntity
  8
0
100
AcDbLine
 62
7
  6
CONTINUOUS
 10
31.7799197584
 20
210.5074987982
 11
31.9109257786
 21
210.4946792692
  0
LINE
  5
295
100
AcDbEntity
  8
0
100
AcDbLine
 62
7
  6
CONTINUOUS
 10
-56.4518689859
 20
226.7002843117
 11
-41.7342354124
 21
128.5107388337
  0
LINE
  5
296
100
AcDbEntity
  8
0
100
AcDbLine
 62
7
  6
CONTINUOUS
 10
-19.5050297154
 20
262.9591119362
 11
-21.2362020686
 21
257.8969332205
  0
LINE
  5
297
100
AcDbEntity
  8
0
100
AcDbLine
 62
7
  6
CONTINUOUS
 10
-19.0008669986
 20
262.2580184648
 11
-18.9947643413
 21
262.2758645591
  0
LINE
  5
298
100
AcDbEntity
  8
0
100
AcDbLine
 62
7
  6
CONTINUOUS
 10
-10.6187557058
 20
246.7232500296
 11
-9.3790862416
 21
247.0555502262
  0
LINE
  5
299
100
AcDbEntity
  8
0
100
AcDbLine
 62
7
  6
CONTINUOUS
 10
3.0176083998
 20
250.3785521919
 11
4.2572778639
 21
250.7108523885
  0
LINE
  5
29A
100
AcDbEntity
  8
0
100
AcDbLine
 62
7
  6
CONTINUOUS
 10
-13.8289002435
 20
246.3099183616
 11
-11.3495613152
 21
246.9745187547
  0
LINE
  5
29B
100
AcDbEntity
  8
0
100
AcDbLine
 62
7
  6
CONTINUOUS
 10
4.0464880599
 20
251.1015142013
 11
6.0058111828
 21
251.6267215067
  0
LINE
  5
29C
100
AcDbEntity
  8
0
100
AcDbLine
 62
7
  6
CONTINUOUS
 10
-49.8969902961
 20
236.7691742198
 11
-24.8069125828
 21
243.4947071117
  0
LINE
  5
29D
100
AcDbEntity
  8
0
100
AcDbLine
 62
7
  6
CONTINUOUS
 10
8.8242156307
 20
252.509715418
 11
19.5244996957
 21
255.3779852278
  0
LINE
  5
29E
100
AcDbEntity
  8
0
100
AcDbLine
 62
7
  6
CONTINUOUS
 10
-49.4260186182
 20
237.1790955552
 11
-25.535333889
 21
243.5831245818
  0
LINE
  5
29F
100
AcDbEntity
  8
0
100
AcDbLine
 62
7
  6
CONTINUOUS
 10
9.8051866101
 20
253.0563448623
 11
19.9954713737
 21
255.7879065633
  0
LINE
  5
2A0
100
AcDbEntity
  8
0
100
AcDbLine
 62
7
  6
CONTINUOUS
 10
19.7768926572
 20
257.2461671396
 11
14.4684045924
 21
255.8231978091
  0
LINE
  5
2A1
100
AcDbEntity
  8
0
100
AcDbLine
 62
7
  6
CONTINUOUS
 10
-29.1029983812
 20
244.143644354
 11
-49.6445973345
 21
238.6373561316
  0
LINE
  5
2A2
100
AcDbEntity
  8
0
100
AcDbLine
 62
7
  6
CONTINUOUS
 10
-32.5682663659
 20
245.2122425169
 11
-54.5390785859
 21
239.3228458424
  0
LINE
  5
2A3
100
AcDbEntity
  8
0
100
AcDbLine
 62
7
  6
CONTINUOUS
 10
-32.9541295588
 20
245.3945507156
 11
-54.8643628163
 21
239.5213925641
  0
LINE
  5
2A4
100
AcDbEntity
  8
0
100
AcDbLine
 62
7
  6
CONTINUOUS
 10
-56.2719016649
 20
239.7185234445
 11
-33.6456173721
 21
245.7836230018
  0
LINE
  5
2A5
100
AcDbEntity
  8
0
100
AcDbLine
 62
7
  6
CONTINUOUS
 10
-88.2644128191
 20
237.2768010559
 11
-123.6581207899
 21
227.7893228471
  0
LINE
  5
2A6
100
AcDbEntity
  8
0
100
AcDbLine
 62
7
  6
CONTINUOUS
 10
-124.0487291261
 20
227.7148436401
 11
-88.6537168098
 21
237.2026711003
  0
LINE
  5
2A7
100
AcDbEntity
  8
0
100
AcDbLine
 62
7
  6
CONTINUOUS
 10
-85.1753743395
 20
237.8867907524
 11
-88.2644438852
 21
237.2767949117
  0
LINE
  5
2A8
100
AcDbEntity
  8
0
100
AcDbLine
 62
7
  6
CONTINUOUS
 10
-124.0474306194
 20
227.7151920612
 11
-123.6581236743
 21
227.7893224411
  0
LINE
  5
2A9
100
AcDbEntity
  8
0
100
AcDbLine
 62
7
  6
CONTINUOUS
 10
-88.2644098647
 20
237.2768014802
 11
-88.6537168098
 21
237.2026711003
  0
LINE
  5
2AA
100
AcDbEntity
  8
0
100
AcDbLine
 62
7
  6
CONTINUOUS
 10
-14.2771995471
 20
243.9977610339
 11
-14.297069437
 21
243.9943594521
  0
LWPOLYLINE
  5
2AB
100
AcDbEntity
  8
0
100
AcDbPolyline
 62
7
  6
CONTINUOUS
 90
3
 70
0
 10
-85.1753743395
 20
237.8867907524
 10
-87.0211332037
 20
237.5853708225
 10
-88.6537018482
 20
237.2026729164
  0
LINE
  5
2AC
100
AcDbEntity
  8
0
100
AcDbLine
 62
7
  6
CONTINUOUS
 10
-14.2396124158
 20
244.0779615466
 11
-14.2592454062
 21
244.0749848436
  0
LINE
  5
2AD
100
AcDbEntity
  8
0
100
AcDbLine
 62
7
  6
CONTINUOUS
 10
-63.9328386376
 20
231.6671332551
 11
-64.6938813694
 21
231.560166089
  0
LINE
  5
2AE
100
AcDbEntity
  8
0
100
AcDbLine
 62
7
  6
CONTINUOUS
 10
-88.2644128191
 20
237.2768010559
 11
-44.9124135796
 21
242.7634965062
  0
LINE
  5
2AF
100
AcDbEntity
  8
0
100
AcDbLine
 62
7
  6
CONTINUOUS
 10
-43.620462398
 20
243.1098111038
 11
-85.1749478422
 21
237.8868449759
  0
LINE
  5
2B0
100
AcDbEntity
  8
0
100
AcDbLine
 62
7
  6
CONTINUOUS
 10
-62.9221733746
 20
234.0233065779
 11
-123.6581207899
 21
227.7893228471
  0
LINE
  5
2B1
100
AcDbEntity
  8
0
100
AcDbLine
 62
7
  6
CONTINUOUS
 10
-37.9746437646
 20
225.5129712143
 11
-39.3047743917
 21
225.644650653
  0
LINE
  5
2B2
100
AcDbEntity
  8
0
100
AcDbLine
 62
7
  6
CONTINUOUS
 10
-39.0245877244
 20
226.5694617108
 11
-38.13414322
 21
226.4813100434
  0
LINE
  5
2B3
100
AcDbEntity
  8
0
100
AcDbLine
 62
7
  6
CONTINUOUS
 10
30.4806666723
 20
211.7399868095
 11
33.3768618525
 21
211.3343642532
  0
LINE
  5
2B4
100
AcDbEntity
  8
0
100
AcDbLine
 62
7
  6
CONTINUOUS
 10
-40.4486547892
 20
222.622804618
 11
-39.5649657533
 21
222.4990407888
  0
LINE
  5
2B5
100
AcDbEntity
  8
0
100
AcDbLine
 62
7
  6
CONTINUOUS
 10
28.463989329
 20
214.7992871173
 11
22.5393794564
 21
215.6290500482
  0
LINE
  5
2B6
100
AcDbEntity
  8
0
100
AcDbLine
 62
7
  6
CONTINUOUS
 10
-62.80354168
 20
227.5898589275
 11
-56.4518689859
 21
226.7002843117
  0
LINE
  5
2B7
100
AcDbEntity
  8
0
100
AcDbLine
 62
7
  6
CONTINUOUS
 10
-41.9761571577
 20
224.6746300821
 11
-41.8538318721
 21
224.6574979857
  0
LINE
  5
2B8
100
AcDbEntity
  8
0
100
AcDbLine
 62
7
  6
CONTINUOUS
 10
-64.5363647591
 20
227.9855365296
 11
-63.1288259106
 21
227.7884056491
  0
LINE
  5
2B9
100
AcDbEntity
  8
0
100
AcDbLine
 62
7
  6
CONTINUOUS
 10
-49.9044951158
 20
226.4578615297
 11
-55.2210810028
 21
227.2024685135
  0
LINE
  5
2BA
100
AcDbEntity
  8
0
100
AcDbLine
 62
7
  6
CONTINUOUS
 10
-42.0133313275
 20
225.6258368149
 11
-42.1356566131
 21
225.6429689113
  0
LINE
  5
2BB
100
AcDbEntity
  8
0
100
AcDbLine
 62
7
  6
CONTINUOUS
 10
-36.14570085
 20
226.3045859612
 11
-36.2680261356
 21
226.3217180576
  0
LINE
  5
2BC
100
AcDbEntity
  8
0
100
AcDbLine
 62
7
  6
CONTINUOUS
 10
-12.1431236215
 20
223.4998276852
 11
-20.4064168101
 21
224.6571316297
  0
LINE
  5
2BD
100
AcDbEntity
  8
0
100
AcDbLine
 62
7
  6
CONTINUOUS
 10
-39.47775546
 20
229.5551458165
 11
-38.5940664241
 21
229.4313819873
  0
LINE
  5
2BE
100
AcDbEntity
  8
0
100
AcDbLine
 62
7
  6
CONTINUOUS
 10
22.515139991
 20
215.7080191652
 11
34.9983291615
 21
213.8782022964
  0
LINE
  5
2BF
100
AcDbEntity
  8
0
100
AcDbLine
 62
7
  6
CONTINUOUS
 10
7.9552924294
 20
221.9400292286
 11
23.3853763843
 21
219.6640732048
  0
LINE
  5
2C0
100
AcDbEntity
  8
0
100
AcDbLine
 62
7
  6
CONTINUOUS
 10
-39.8688894543
 20
225.4818745827
 11
-38.7935863223
 21
225.2766643681
  0
LINE
  5
2C1
100
AcDbEntity
  8
0
100
AcDbLine
 62
7
  6
CONTINUOUS
 10
-41.9517573912
 20
138.5647762063
 11
-55.2121995218
 21
227.0325845083
  0
LINE
  5
2C2
100
AcDbEntity
  8
0
100
AcDbLine
 62
7
  6
CONTINUOUS
 10
-53.1674826166
 20
226.9148546703
 11
-39.907040486
 21
138.4470463683
  0
LINE
  5
2C3
100
AcDbEntity
  8
0
100
AcDbLine
 62
7
  6
CONTINUOUS
 10
-36.6440529852
 20
137.9900532277
 11
-49.9044951158
 21
226.4578615297
  0
LINE
  5
2C4
100
AcDbEntity
  8
0
100
AcDbLine
 62
7
  6
CONTINUOUS
 10
4.5659902311
 20
312.9763479023
 11
4.5308476271
 21
312.8735862667
  0
LINE
  5
2C5
100
AcDbEntity
  8
0
100
AcDbLine
 62
7
  6
CONTINUOUS
 10
-6.5238397713
 20
264.6985968265
 11
-6.8860160172
 21
263.6395454409
  0
LINE
  5
2C6
100
AcDbEntity
  8
0
100
AcDbLine
 62
7
  6
CONTINUOUS
 10
-5.4336446655
 20
265.7111409127
 11
-5.6757739357
 21
265.0031228083
  0
LINE
  5
2C7
100
AcDbEntity
  8
0
100
AcDbLine
 62
7
  6
CONTINUOUS
 10
-4.1248334289
 20
266.2456208237
 11
-4.1187303518
 21
266.2634670307
  0
LINE
  5
2C8
100
AcDbEntity
  8
0
100
AcDbLine
 62
7
  6
CONTINUOUS
 10
12.1252005898
 20
305.1962509871
 11
12.4821115627
 21
306.2399060161
  0
LINE
  5
2C9
100
AcDbEntity
  8
0
100
AcDbLine
 62
7
  6
CONTINUOUS
 10
-6.8860160172
 20
263.6395454409
 11
-16.8816164769
 21
260.960169935
  0
LINE
  5
2CA
100
AcDbEntity
  8
0
100
AcDbLine
 62
7
  6
CONTINUOUS
 10
-19.0008669986
 20
262.2580184648
 11
-18.9084656874
 21
262.2827871429
  0
LINE
  5
2CB
100
AcDbEntity
  8
0
100
AcDbLine
 62
7
  6
CONTINUOUS
 10
-4.2172347401
 20
266.2208521456
 11
-4.1248334289
 21
266.2456208237
  0
LINE
  5
2CC
100
AcDbEntity
  8
0
100
AcDbLine
 62
7
  6
CONTINUOUS
 10
-24.0478887784
 20
261.5371253295
 11
-21.6472206614
 21
262.1806375803
  0
LINE
  5
2CD
100
AcDbEntity
  8
0
100
AcDbLine
 62
7
  6
CONTINUOUS
 10
-1.0025984688
 20
267.7145417469
 11
1.3980696481
 21
268.3580539977
  0
LINE
  5
2CE
100
AcDbEntity
  8
0
100
AcDbLine
 62
7
  6
CONTINUOUS
 10
27.2905412125
 20
242.3946654718
 11
25.7098062979
 21
242.4753015404
  0
LINE
  5
2CF
100
AcDbEntity
  8
0
100
AcDbLine
 62
7
  6
CONTINUOUS
 10
23.0819064561
 20
242.6093553339
 11
21.5011715414
 21
242.6899914025
  0
LINE
  5
2D0
100
AcDbEntity
  8
0
100
AcDbLine
 62
7
  6
CONTINUOUS
 10
24.2861732157
 20
239.5366455123
 11
24.0714000725
 21
239.5571175462
  0
LINE
  5
2D1
100
AcDbEntity
  8
0
100
AcDbLine
 62
7
  6
CONTINUOUS
 10
15.2717973734
 20
230.1680407676
 11
14.6202670183
 21
230.2512734865
  0
LINE
  5
2D2
100
AcDbEntity
  8
0
100
AcDbLine
 62
7
  6
CONTINUOUS
 10
-49.8969902961
 20
236.7691742198
 11
-44.4586777947
 21
236.0075189856
  0
LINE
  5
2D3
100
AcDbEntity
  8
0
100
AcDbLine
 62
7
  6
CONTINUOUS
 10
-54.5390785858
 20
239.3228458424
 11
-49.6445973345
 21
238.6373561316
  0
LINE
  5
2D4
100
AcDbEntity
  8
0
100
AcDbLine
 62
7
  6
CONTINUOUS
 10
-56.2719016649
 20
239.7185234445
 11
-54.8643628163
 21
239.5213925641
  0
LINE
  5
2D5
100
AcDbEntity
  8
0
100
AcDbLine
 62
7
  6
CONTINUOUS
 10
2.7919373279
 20
231.907873621
 11
14.6202670183
 21
230.2512734865
  0
LINE
  5
2D6
100
AcDbEntity
  8
0
100
AcDbLine
 62
7
  6
CONTINUOUS
 10
25.7405489484
 20
228.7018545121
 11
15.2717973833
 21
230.168040838
  0
LINE
  5
2D7
100
AcDbEntity
  8
0
100
AcDbLine
 62
7
  6
CONTINUOUS
 10
-1.3492266048
 20
233.2564635588
 11
2.0986742207
 21
232.7735726418
  0
LINE
  5
2D8
100
AcDbEntity
  8
0
100
AcDbLine
 62
7
  6
CONTINUOUS
 10
44.5875422785
 20
227.0761297026
 11
46.5995936558
 21
226.7943324227
  0
LINE
  5
2D9
100
AcDbEntity
  8
0
100
AcDbLine
 62
7
  6
CONTINUOUS
 10
-40.5024410209
 20
225.3420040563
 11
-40.4176037198
 21
225.1243525249
  0
LINE
  5
2DA
100
AcDbEntity
  8
0
100
AcDbLine
 62
7
  6
CONTINUOUS
 10
14.341615759
 20
306.738356311
 11
14.5795564076
 21
307.4341263304
  0
LINE
  5
2DB
100
AcDbEntity
  8
0
100
AcDbLine
 62
7
  6
CONTINUOUS
 10
15.5040354621
 20
307.0499492856
 11
15.7419761107
 21
307.745719305
  0
LINE
  5
2DC
100
AcDbEntity
  8
0
100
AcDbLine
 62
7
  6
CONTINUOUS
 10
17.3635396583
 20
307.5483995805
 11
17.0066286854
 21
306.5047445514
  0
LINE
  5
2DD
100
AcDbEntity
  8
0
100
AcDbLine
 62
7
  6
CONTINUOUS
 10
-41.7342354124
 20
128.5107388337
 11
-62.80354168
 21
82.7618981947
  0
LINE
  5
2DE
100
AcDbEntity
  8
0
100
AcDbLine
 62
7
  6
CONTINUOUS
 10
-60.7374259065
 20
83.3157318556
 11
-39.6681196388
 21
129.0645724946
  0
LINE
  5
2DF
100
AcDbEntity
  8
0
100
AcDbLine
 62
7
  6
CONTINUOUS
 10
24.8275262586
 20
246.5099307786
 11
25.0422994017
 21
246.4894587447
  0
LINE
  5
2E0
100
AcDbEntity
  8
0
100
AcDbLine
 62
7
  6
CONTINUOUS
 10
24.1586083473
 20
246.6132081486
 11
23.9438372227
 21
246.6336946078
  0
LINE
  5
2E1
100
AcDbEntity
  8
0
100
AcDbLine
 62
7
  6
CONTINUOUS
 10
25.5491318922
 20
242.4177870304
 11
24.2171879009
 21
242.5928239593
  0
LINE
  5
2E2
100
AcDbEntity
  8
0
100
AcDbLine
 62
7
  6
CONTINUOUS
 10
24.7980161959
 20
243.5228413339
 11
25.6264680411
 21
243.4139706399
  0
LINE
  5
2E3
100
AcDbEntity
  8
0
100
AcDbLine
 62
7
  6
CONTINUOUS
 10
23.1877110367
 20
239.6808813754
 11
24.0714000725
 21
239.5571175462
  0
LINE
  5
2E4
100
AcDbEntity
  8
0
100
AcDbLine
 62
7
  6
CONTINUOUS
 10
21.5011715414
 20
242.6899914025
 11
21.6234968271
 21
242.6728593061
  0
LINE
  5
2E5
100
AcDbEntity
  8
0
100
AcDbLine
 62
7
  6
CONTINUOUS
 10
27.4128664982
 20
242.3775333754
 11
27.2905412125
 21
242.3946654718
  0
LINE
  5
2E6
100
AcDbEntity
  8
0
100
AcDbLine
 62
7
  6
CONTINUOUS
 10
21.700832976
 20
243.6690429155
 11
21.5785076904
 21
243.686175012
  0
LINE
  5
2E7
100
AcDbEntity
  8
0
100
AcDbLine
 62
7
  6
CONTINUOUS
 10
24.1586103659
 20
246.6132225739
 11
25.0422994017
 21
246.4894587447
  0
LINE
  5
2E8
100
AcDbEntity
  8
0
100
AcDbLine
 62
7
  6
CONTINUOUS
 10
23.6450443004
 20
242.6220100108
 11
24.7185340682
 21
242.4601572865
  0
LINE
  5
2E9
100
AcDbEntity
  8
0
100
AcDbLine
 62
7
  6
CONTINUOUS
 10
-41.2104263224
 20
252.7951461529
 11
-39.7217588242
 21
250.7143062736
  0
LINE
  5
2EA
100
AcDbEntity
  8
0
100
AcDbLine
 62
7
  6
CONTINUOUS
 10
-20.4064168101
 20
224.6571316297
 11
-21.9654160574
 21
235.0580854739
  0
LINE
  5
2EB
100
AcDbEntity
  8
0
100
AcDbLine
 62
7
  6
CONTINUOUS
 10
-23.8858488981
 20
143.7657590236
 11
-25.4371467024
 21
143.2745441923
  0
LINE
  5
2EC
100
AcDbEntity
  8
0
100
AcDbLine
 62
7
  6
CONTINUOUS
 10
-28.0161086881
 20
142.4579218948
 11
-29.5674064924
 21
141.9667070634
  0
LINE
  5
2ED
100
AcDbEntity
  8
0
100
AcDbLine
 62
7
  6
CONTINUOUS
 10
12.1252005898
 20
305.1962509871
 11
17.0066286854
 21
306.5047445514
  0
LINE
  5
2EE
100
AcDbEntity
  8
0
100
AcDbLine
 62
7
  6
CONTINUOUS
 10
12.4821115627
 20
306.2399060161
 11
14.341615759
 21
306.738356311
  0
LINE
  5
2EF
100
AcDbEntity
  8
0
100
AcDbLine
 62
7
  6
CONTINUOUS
 10
15.5040354621
 20
307.0499492856
 11
17.3635396583
 21
307.5483995805
  0
LINE
  5
2F0
100
AcDbEntity
  8
0
100
AcDbLine
 62
7
  6
CONTINUOUS
 10
36.3068286297
 20
287.857205298
 11
41.478059841
 21
288.4882495525
  0
LINE
  5
2F1
100
AcDbEntity
  8
0
100
AcDbLine
 62
7
  6
CONTINUOUS
 10
37.0722266811
 20
286.8323342039
 11
42.2636295427
 21
287.4658285578
  0
LINE
  5
2F2
100
AcDbEntity
  8
0
100
AcDbLine
 62
7
  6
CONTINUOUS
 10
-29.0860284743
 20
279.1334806514
 11
-34.2774313359
 21
278.4999862975
  0
LINE
  5
2F3
100
AcDbEntity
  8
0
100
AcDbLine
 62
7
  6
CONTINUOUS
 10
24.9628121971
 20
254.6163299937
 11
19.5244996957
 21
255.3779852278
  0
LINE
  5
2F4
100
AcDbEntity
  8
0
100
AcDbLine
 62
7
  6
CONTINUOUS
 10
27.2381645848
 20
254.7616159083
 11
21.7998520834
 21
255.5232711425
  0
LINE
  5
2F5
100
AcDbEntity
  8
0
100
AcDbLine
 62
7
  6
CONTINUOUS
 10
19.7768926572
 20
257.2461671396
 11
17.1848642385
 21
257.6091900465
  0
LINE
  5
2F6
100
AcDbEntity
  8
0
100
AcDbLine
 62
7
  6
CONTINUOUS
 10
17.9120478614
 20
258.0872918682
 11
22.6210831419
 21
257.4277745329
  0
LINE
  5
2F7
100
AcDbEntity
  8
0
100
AcDbLine
 62
7
  6
CONTINUOUS
 10
-13.6295261579
 20
240.9885630608
 11
-14.3260973785
 21
244.5159102947
  0
LINE
  5
2F8
100
AcDbEntity
  8
0
100
AcDbLine
 62
7
  6
CONTINUOUS
 10
-10.4141483378
 20
235.2499203371
 11
-9.1614175579
 21
226.8922543257
  0
LINE
  5
2F9
100
AcDbEntity
  8
0
100
AcDbLine
 62
7
  6
CONTINUOUS
 10
-7.3149746774
 20
236.0806708285
 11
-6.3370496129
 21
229.5563870759
  0
LINE
  5
2FA
100
AcDbEntity
  8
0
100
AcDbLine
 62
7
  6
CONTINUOUS
 10
33.3768618526
 20
211.3343642534
 11
34.9983291615
 21
213.8782022964
  0
LINE
  5
2FB
100
AcDbEntity
  8
0
100
AcDbLine
 62
7
  6
CONTINUOUS
 10
15.7419761107
 20
307.745719305
 11
14.5795564076
 21
307.4341263304
  0
LINE
  5
2FC
100
AcDbEntity
  8
0
100
AcDbLine
 62
7
  6
CONTINUOUS
 10
-10.6187557058
 20
246.7232500296
 11
-10.4324125366
 21
246.4738617554
  0
LINE
  5
2FD
100
AcDbEntity
  8
0
100
AcDbLine
 62
7
  6
CONTINUOUS
 10
-8.7142887581
 20
240.1887157942
 11
-12.9144522512
 21
245.8127517412
  0
LINE
  5
2FE
100
AcDbEntity
  8
0
100
AcDbLine
 62
7
  6
CONTINUOUS
 10
-12.7900634416
 20
246.5883842619
 11
-21.2362020686
 21
257.8969332205
  0
LINE
  5
2FF
100
AcDbEntity
  8
0
100
AcDbLine
 62
7
  6
CONTINUOUS
 10
-30.4355165002
 20
271.4263319159
 11
-28.6495877136
 21
269.0349660295
  0
LINE
  5
300
100
AcDbEntity
  8
0
100
AcDbLine
 62
7
  6
CONTINUOUS
 10
-22.157486029
 20
262.8638849764
 11
-21.6472206614
 21
262.1806375803
  0
LINE
  5
301
100
AcDbEntity
  8
0
100
AcDbLine
 62
7
  6
CONTINUOUS
 10
-19.5050281723
 20
262.9591153336
 11
-18.9947639215
 21
262.2758646718
  0
LINE
  5
302
100
AcDbEntity
  8
0
100
AcDbLine
 62
7
  6
CONTINUOUS
 10
-17.8303393069
 20
262.3881389469
 11
-17.18808968
 21
261.5281640924
  0
LINE
  5
303
100
AcDbEntity
  8
0
100
AcDbLine
 62
7
  6
CONTINUOUS
 10
-19.0008669986
 20
262.2580184648
 11
-10.6187557058
 21
246.7232500296
  0
LINE
  5
304
100
AcDbEntity
  8
0
100
AcDbLine
 62
7
  6
CONTINUOUS
 10
-9.3790862416
 20
247.0555502262
 11
-17.18808968
 21
261.5281640924
  0
LINE
  5
305
100
AcDbEntity
  8
0
100
AcDbLine
 62
7
  6
CONTINUOUS
 10
3.4815058771
 20
223.5479310918
 11
2.0986742207
 21
232.7735726418
  0
LINE
  5
306
100
AcDbEntity
  8
0
100
AcDbLine
 62
7
  6
CONTINUOUS
 10
2.7919373279
 20
231.907873621
 11
2.4155670907
 21
234.4188494741
  0
LINE
  5
307
100
AcDbEntity
  8
0
100
AcDbLine
 62
7
  6
CONTINUOUS
 10
14.8853054355
 20
151.6441318669
 11
16.2120137109
 21
142.7929207062
  0
LINE
  5
308
100
AcDbEntity
  8
0
100
AcDbLine
 62
7
  6
CONTINUOUS
 10
16.7633442628
 20
151.5468136172
 11
18.1154230863
 21
142.5263413743
  0
LINE
  5
309
100
AcDbEntity
  8
0
100
AcDbLine
 62
7
  6
CONTINUOUS
 10
20.7992509571
 20
142.8323665421
 11
20.7992509571
 21
105.4101384891
  0
LINE
  5
30A
100
AcDbEntity
  8
0
100
AcDbLine
 62
7
  6
CONTINUOUS
 10
6.5913077978
 20
164.0643162676
 11
7.9755910051
 21
166.7912917931
  0
LINE
  5
30B
100
AcDbEntity
  8
0
100
AcDbLine
 62
7
  6
CONTINUOUS
 10
3.0176083998
 20
250.3785521919
 11
-6.8860160172
 21
263.6395454409
  0
LINE
  5
30C
100
AcDbEntity
  8
0
100
AcDbLine
 62
7
  6
CONTINUOUS
 10
4.2572778639
 20
250.7108523885
 11
4.4428358687
 21
250.4623894677
  0
LINE
  5
30D
100
AcDbEntity
  8
0
100
AcDbLine
 62
7
  6
CONTINUOUS
 10
-4.7913950386
 20
264.8511660581
 11
-5.4336446655
 21
265.7111409127
  0
LINE
  5
30E
100
AcDbEntity
  8
0
100
AcDbLine
 62
7
  6
CONTINUOUS
 10
11.1204226681
 20
245.5055189394
 11
6.9202591751
 21
251.1295548863
  0
LINE
  5
30F
100
AcDbEntity
  8
0
100
AcDbLine
 62
7
  6
CONTINUOUS
 10
-4.1187303518
 20
266.2634670307
 11
-4.628994574
 21
266.946717776
  0
LINE
  5
310
100
AcDbEntity
  8
0
100
AcDbLine
 62
7
  6
CONTINUOUS
 10
-1.0025984688
 20
267.7145417469
 11
-1.5128638364
 21
268.397789143
  0
LINE
  5
311
100
AcDbEntity
  8
0
100
AcDbLine
 62
7
  6
CONTINUOUS
 10
-4.7913950386
 20
264.8511660581
 11
3.0176083998
 21
250.3785521919
  0
LINE
  5
312
100
AcDbEntity
  8
0
100
AcDbLine
 62
7
  6
CONTINUOUS
 10
4.2572778639
 20
250.7108523885
 11
-4.1248334289
 21
266.2456208237
  0
LINE
  5
313
100
AcDbEntity
  8
0
100
AcDbLine
 62
7
  6
CONTINUOUS
 10
21.6627871257
 20
152.7108797772
 11
21.3932220799
 21
154.5092986049
  0
LINE
  5
314
100
AcDbEntity
  8
0
100
AcDbLine
 62
7
  6
CONTINUOUS
 10
14.6202670183
 20
230.2512734865
 11
12.9329599036
 21
241.5082407055
  0
LINE
  5
315
100
AcDbEntity
  8
0
100
AcDbLine
 62
7
  6
CONTINUOUS
 10
16.0321335639
 20
242.3389911972
 11
17.8681947819
 21
230.0896023555
  0
LINE
  5
316
100
AcDbEntity
  8
0
100
AcDbLine
 62
7
  6
CONTINUOUS
 10
29.6576851742
 20
156.7246332487
 11
29.9272502199
 21
154.926214421
  0
LINE
  5
317
100
AcDbEntity
  8
0
100
AcDbLine
 62
7
  6
CONTINUOUS
 10
-19.9470966013
 20
296.7652185609
 11
-16.735245977
 21
294.8756021991
  0
LINE
  5
318
100
AcDbEntity
  8
0
100
AcDbLine
 62
7
  6
CONTINUOUS
 10
27.9332948081
 20
269.2005962944
 11
24.7214441838
 21
271.0902126562
  0
LINE
  5
319
100
AcDbEntity
  8
0
100
AcDbLine
 62
7
  6
CONTINUOUS
 10
-18.2660420798
 20
296.9253443874
 11
-19.1766111984
 21
297.4610889943
  0
LINE
  5
31A
100
AcDbEntity
  8
0
100
AcDbLine
 62
7
  6
CONTINUOUS
 10
-16.735245977
 20
294.8756021991
 11
-18.2660420798
 21
296.9253443874
  0
LINE
  5
31B
100
AcDbEntity
  8
0
100
AcDbLine
 62
7
  6
CONTINUOUS
 10
44.216180768
 20
151.5502191294
 11
44.0097202908
 21
152.9276321698
  0
LINE
  5
31C
100
AcDbEntity
  8
0
100
AcDbLine
 62
7
  6
CONTINUOUS
 10
42.1500649944
 20
150.9963854685
 11
21.0807587268
 21
105.2475448294
  0
LINE
  5
31D
100
AcDbEntity
  8
0
100
AcDbLine
 62
7
  6
CONTINUOUS
 10
24.7214441838
 20
271.0902126562
 11
23.190648081
 21
273.1399548446
  0
LINE
  5
31E
100
AcDbEntity
  8
0
100
AcDbLine
 62
7
  6
CONTINUOUS
 10
36.3076110513
 20
224.810590223
 11
32.7401358269
 21
248.6112079678
  0
LINE
  5
31F
100
AcDbEntity
  8
0
100
AcDbLine
 62
7
  6
CONTINUOUS
 10
23.1468745003
 20
105.8013784904
 11
44.216180768
 21
151.5502191294
  0
LINE
  5
320
100
AcDbEntity
  8
0
100
AcDbLine
 62
7
  6
CONTINUOUS
 10
12.1252005898
 20
305.1962509871
 11
4.5659902311
 21
312.9763479023
  0
LINE
  5
321
100
AcDbEntity
  8
0
100
AcDbLine
 62
7
  6
CONTINUOUS
 10
12.4821115627
 20
306.2399060161
 11
6.4395276119
 21
314.2673719482
  0
LINE
  5
322
100
AcDbEntity
  8
0
100
AcDbLine
 62
7
  6
CONTINUOUS
 10
14.341615759
 20
306.738356311
 11
8.1148456737
 21
315.0105102658
  0
LINE
  5
323
100
AcDbEntity
  8
0
100
AcDbLine
 62
7
  6
CONTINUOUS
 10
14.5795564076
 20
307.4341263304
 11
8.8319655616
 21
315.2664087535
  0
LINE
  5
324
100
AcDbEntity
  8
0
100
AcDbLine
 62
7
  6
CONTINUOUS
 10
17.3635396583
 20
307.5483995805
 11
11.3138523845
 21
316.1520501858
  0
LINE
  5
325
100
AcDbEntity
  8
0
100
AcDbLine
 62
7
  6
CONTINUOUS
 10
10.2429848726
 20
315.769919692
 11
15.7419761107
 21
307.745719305
  0
LINE
  5
326
100
AcDbEntity
  8
0
100
AcDbLine
 62
7
  6
CONTINUOUS
 10
42.2636374609
 20
287.4658458936
 11
41.478059841
 21
288.4882495525
  0
LINE
  5
327
100
AcDbEntity
  8
0
100
AcDbLine
 62
7
  6
CONTINUOUS
 10
36.3068286297
 20
287.857205298
 11
37.0722266811
 21
286.8323342039
  0
LINE
  5
328
100
AcDbEntity
  8
0
100
AcDbLine
 62
7
  6
CONTINUOUS
 10
24.8486559287
 20
312.7138636761
 11
26.6345847153
 21
310.3224977897
  0
LINE
  5
329
100
AcDbEntity
  8
0
100
AcDbLine
 62
7
  6
CONTINUOUS
 10
45.7722687524
 20
317.7558867374
 11
43.646134806
 21
319.9721263092
  0
LINE
  5
32A
100
AcDbEntity
  8
0
100
AcDbLine
 62
7
  6
CONTINUOUS
 10
43.6461348061
 20
319.9721263116
 11
42.537382966
 21
321.3936312436
  0
LINE
  5
32B
100
AcDbEntity
  8
0
100
AcDbLine
 62
7
  6
CONTINUOUS
 10
45.7722726836
 20
317.7558897078
 11
47.3448474574
 21
315.7377137729
  0
LINE
  5
32C
100
AcDbEntity
  8
0
100
AcDbLine
 62
7
  6
CONTINUOUS
 10
34.7172767228
 20
330.6693232185
 11
33.6664681605
 21
332.0213661255
  0
ARC
  5
32D
100
AcDbEntity
  8
0
100
AcDbCircle
 62
7
  6
CONTINUOUS
 10
-100.4083689693
 20
195.0797200982
 40
36.9671758793
100
AcDbArc
 50
141.1559897543
 51
158.260756101
  0
ARC
  5
32E
100
AcDbEntity
  8
0
100
AcDbCircle
 62
7
  6
CONTINUOUS
 10
-52.7327026418
 20
208.5045009678
 40
28.0201885857
100
AcDbArc
 50
148.0352736049
 51
155.475708227
  0
ARC
  5
32F
100
AcDbEntity
  8
0
100
AcDbCircle
 62
7
  6
CONTINUOUS
 10
-117.3313011573
 20
204.0597723112
 40
24.5585100311
100
AcDbArc
 50
104.9290896952
 51
105.8337437562
  0
ARC
  5
330
100
AcDbEntity
  8
0
100
AcDbCircle
 62
7
  6
CONTINUOUS
 10
-51.380668502
 20
223.6783874543
 40
12.6898514074
100
AcDbArc
 50
11.6689939639
 51
19.3367282718
  0
ARC
  5
331
100
AcDbEntity
  8
0
100
AcDbCircle
 62
7
  6
CONTINUOUS
 10
-136.4654620336
 20
196.0794674889
 40
5.8
100
AcDbArc
 50
110.7907389647
 51
119.8457002033
  0
ARC
  5
332
100
AcDbEntity
  8
0
100
AcDbCircle
 62
7
  6
CONTINUOUS
 10
-136.4654620336
 20
196.0794674889
 40
5.8
100
AcDbArc
 50
75.0283751608
 51
99.2227855315
  0
ARC
  5
333
100
AcDbEntity
  8
0
100
AcDbCircle
 62
7
  6
CONTINUOUS
 10
-64.3994729871
 20
154.4554906042
 40
5.8
100
AcDbArc
 50
113.1304959726
 51
119.8457002033
  0
ARC
  5
334
100
AcDbEntity
  8
0
100
AcDbCircle
 62
7
  6
CONTINUOUS
 10
-149.5416215605
 20
195.477434142
 40
1.1799051649
100
AcDbArc
 50
180.0222702705
 51
190.6532679888
  0
ARC
  5
335
100
AcDbEntity
  8
0
100
AcDbCircle
 62
7
  6
CONTINUOUS
 10
-25.4701204448
 20
32.3294616059
 40
193.9365735307
100
AcDbArc
 50
93.6530130467
 51
93.8698279057
  0
ARC
  5
336
100
AcDbEntity
  8
0
100
AcDbCircle
 62
7
  6
CONTINUOUS
 10
-11.5118204752
 20
-38.3324807108
 40
182.1401279364
100
AcDbArc
 50
94.3847655078
 51
94.6153210853
  0
ARC
  5
337
100
AcDbEntity
  8
0
100
AcDbCircle
 62
7
  6
CONTINUOUS
 10
13.7008642905
 20
63.7488901846
 40
179.1528557135
100
AcDbArc
 50
86.3927782568
 51
86.6347869494
  0
ARC
  5
338
100
AcDbEntity
  8
0
100
AcDbCircle
 62
7
  6
CONTINUOUS
 10
-0.2663285516
 20
203.8390002836
 40
28.2520979924
100
AcDbArc
 50
96.0555793393
 51
102.9708912931
  0
ARC
  5
339
100
AcDbEntity
  8
0
100
AcDbCircle
 62
7
  6
CONTINUOUS
 10
-0.3227526807
 20
204.9362065822
 40
27.150913736
100
AcDbArc
 50
83.4126580914
 51
84.6106819414
  0
ARC
  5
33A
100
AcDbEntity
  8
0
100
AcDbCircle
 62
7
  6
CONTINUOUS
 10
-1.7028309811
 20
150.7716645743
 40
26.3726699136
100
AcDbArc
 50
197.0927661593
 51
197.7879244907
  0
ARC
  5
33B
100
AcDbEntity
  8
0
100
AcDbCircle
 62
7
  6
CONTINUOUS
 10
-39.0757478734
 20
140.7579210145
 40
12.819577548
100
AcDbArc
 50
12.7928133773
 51
20.3835677971
  0
ARC
  5
33C
100
AcDbEntity
  8
0
100
AcDbCircle
 62
7
  6
CONTINUOUS
 10
-35.6691028821
 20
141.4938655071
 40
10.1871571474
100
AcDbArc
 50
13.3994354448
 51
22.9545070262
  0
ARC
  5
33D
100
AcDbEntity
  8
0
100
AcDbCircle
 62
7
  6
CONTINUOUS
 10
-31.7093998321
 20
139.5804215591
 40
8.2681004665
100
AcDbArc
 50
199.2957401926
 51
202.9653162931
  0
ARC
  5
33E
100
AcDbEntity
  8
0
100
AcDbCircle
 62
7
  6
CONTINUOUS
 10
-32.1343375355
 20
139.3908933714
 40
7.8028987286
100
AcDbArc
 50
202.9013829623
 51
210.7322919429
  0
ARC
  5
33F
100
AcDbEntity
  8
0
100
AcDbCircle
 62
7
  6
CONTINUOUS
 10
-32.440451865
 20
139.2113773336
 40
7.4480364316
100
AcDbArc
 50
210.7486561722
 51
215.3697143789
  0
ARC
  5
340
100
AcDbEntity
  8
0
100
AcDbCircle
 62
7
  6
CONTINUOUS
 10
-32.845152411
 20
138.916928388
 40
6.9475905123
100
AcDbArc
 50
215.3215309372
 51
223.0622367282
  0
ARC
  5
341
100
AcDbEntity
  8
0
100
AcDbCircle
 62
7
  6
CONTINUOUS
 10
-33.0693709692
 20
138.7093755174
 40
6.6420582807
100
AcDbArc
 50
223.0747793202
 51
228.2897268485
  0
ARC
  5
342
100
AcDbEntity
  8
0
100
AcDbCircle
 62
7
  6
CONTINUOUS
 10
-35.8642391095
 20
138.3487806209
 40
6.3032353236
100
AcDbArc
 50
283.4813247607
 51
285.0062061389
  0
ARC
  5
343
100
AcDbEntity
  8
0
100
AcDbCircle
 62
7
  6
CONTINUOUS
 10
-35.3098030361
 20
138.2295794129
 40
6.258921476
100
AcDbArc
 50
278.5920078749
 51
285.0144429756
  0
ARC
  5
344
100
AcDbEntity
  8
0
100
AcDbCircle
 62
7
  6
CONTINUOUS
 10
-33.3376429131
 20
138.4028574991
 40
6.2347393206
100
AcDbArc
 50
228.2559448521
 51
236.3979003017
  0
ARC
  5
345
100
AcDbEntity
  8
0
100
AcDbCircle
 62
7
  6
CONTINUOUS
 10
-35.2779416397
 20
137.9983360102
 40
6.025514023
100
AcDbArc
 50
262.1019618935
 51
278.6209466217
  0
ARC
  5
346
100
AcDbEntity
  8
0
100
AcDbCircle
 62
7
  6
CONTINUOUS
 10
-33.4586599374
 20
138.2221266266
 40
6.0172349608
100
AcDbArc
 50
236.4052773497
 51
241.1555433415
  0
ARC
  5
347
100
AcDbEntity
  8
0
100
AcDbCircle
 62
7
  6
CONTINUOUS
 10
-35.8247987374
 20
138.00043265
 40
5.9517576781
100
AcDbArc
 50
264.6123436174
 51
269.9089024719
  0
ARC
  5
348
100
AcDbEntity
  8
0
100
AcDbCircle
 62
7
  6
CONTINUOUS
 10
-35.2802803738
 20
137.9222127843
 40
5.9497970954
100
AcDbArc
 50
254.5391371929
 51
262.0235401352
  0
ARC
  5
349
100
AcDbEntity
  8
0
100
AcDbCircle
 62
7
  6
CONTINUOUS
 10
-33.5099476144
 20
138.1315956586
 40
5.9131931732
100
AcDbArc
 50
241.1676491886
 51
242.0031580463
  0
ARC
  5
34A
100
AcDbEntity
  8
0
100
AcDbCircle
 62
7
  6
CONTINUOUS
 10
-33.579037898
 20
137.9934744274
 40
5.7588045049
100
AcDbArc
 50
241.9650287314
 51
250.7273213036
  0
ARC
  5
34B
100
AcDbEntity
  8
0
100
AcDbCircle
 62
7
  6
CONTINUOUS
 10
-33.615024449
 20
137.8914049712
 40
5.6505773103
100
AcDbArc
 50
250.7301637414
 51
257.3315414712
  0
ARC
  5
34C
100
AcDbEntity
  8
0
100
AcDbCircle
 62
7
  6
CONTINUOUS
 10
-33.6299130925
 20
137.8310061459
 40
5.5883838
100
AcDbArc
 50
257.3446666297
 51
262.0268892232
  0
ARC
  5
34D
100
AcDbEntity
  8
0
100
AcDbCircle
 62
7
  6
CONTINUOUS
 10
-1.8982294864
 20
190.4584412655
 40
3.2786623013
100
AcDbArc
 50
252.0971134392
 51
261.9965564549
  0
ARC
  5
34E
100
AcDbEntity
  8
0
100
AcDbCircle
 62
7
  6
CONTINUOUS
 10
-1.5159363505
 20
193.1896133696
 40
3.2635564686
100
AcDbArc
 50
87.4309277221
 51
91.8621093323
  0
ARC
  5
34F
100
AcDbEntity
  8
0
100
AcDbCircle
 62
7
  6
CONTINUOUS
 10
-26.9901857837
 20
143.2833621897
 40
1.2466704963
100
AcDbArc
 50
202.6636096711
 51
207.1143928393
  0
ARC
  5
350
100
AcDbEntity
  8
0
100
AcDbCircle
 62
7
  6
CONTINUOUS
 10
-27.0399635396
 20
143.2572244242
 40
1.190450768
100
AcDbArc
 50
207.0865716971
 51
212.2456726947
  0
ARC
  5
351
100
AcDbEntity
  8
0
100
AcDbCircle
 62
7
  6
CONTINUOUS
 10
-48.0133892101
 20
224.3322885081
 40
10.1102816425
100
AcDbArc
 50
12.2723015261
 51
21.901079712
  0
ARC
  5
352
100
AcDbEntity
  8
0
100
AcDbCircle
 62
7
  6
CONTINUOUS
 10
-45.6852875712
 20
228.4603949629
 40
9.6333116844
100
AcDbArc
 50
187.3866554495
 51
188.5235524502
  0
ARC
  5
353
100
AcDbEntity
  8
0
100
AcDbCircle
 62
7
  6
CONTINUOUS
 10
-43.7010768228
 20
228.2870951968
 40
9.5685629164
100
AcDbArc
 50
168.0237778454
 51
174.8423529528
  0
ARC
  5
354
100
AcDbEntity
  8
0
100
AcDbCircle
 62
7
  6
CONTINUOUS
 10
-43.7416376974
 20
228.290473409
 40
9.5278625829
100
AcDbArc
 50
174.8406586957
 51
178.179215974
  0
ARC
  5
355
100
AcDbEntity
  8
0
100
AcDbCircle
 62
7
  6
CONTINUOUS
 10
-43.7486726624
 20
228.2965471615
 40
9.5200417414
100
AcDbArc
 50
164.0921418967
 51
168.0199851548
  0
ARC
  5
356
100
AcDbEntity
  8
0
100
AcDbCircle
 62
7
  6
CONTINUOUS
 10
-43.9038039451
 20
228.3416187409
 40
9.3584977253
100
AcDbArc
 50
157.7702500145
 51
164.0971952593
  0
ARC
  5
357
100
AcDbEntity
  8
0
100
AcDbCircle
 62
7
  6
CONTINUOUS
 10
-43.9617014081
 20
228.2900273028
 40
9.3079271285
100
AcDbArc
 50
178.1334304634
 51
188.4961001204
  0
ARC
  5
358
100
AcDbEntity
  8
0
100
AcDbCircle
 62
7
  6
CONTINUOUS
 10
-44.1339815378
 20
228.4329304593
 40
9.110883424
100
AcDbArc
 50
153.5252857173
 51
157.7541746717
  0
ARC
  5
359
100
AcDbEntity
  8
0
100
AcDbCircle
 62
7
  6
CONTINUOUS
 10
-44.4078824077
 20
228.5700789068
 40
8.8045650727
100
AcDbArc
 50
147.0810795582
 51
153.5295811497
  0
ARC
  5
35A
100
AcDbEntity
  8
0
100
AcDbCircle
 62
7
  6
CONTINUOUS
 10
-44.7320184099
 20
228.775683197
 40
8.4207369562
100
AcDbArc
 50
142.59997485
 51
147.0568589132
  0
ARC
  5
35B
100
AcDbEntity
  8
0
100
AcDbCircle
 62
7
  6
CONTINUOUS
 10
-45.0466967136
 20
229.0169783022
 40
8.0241951131
100
AcDbArc
 50
135.5988051818
 51
142.603974792
  0
ARC
  5
35C
100
AcDbEntity
  8
0
100
AcDbCircle
 62
7
  6
CONTINUOUS
 10
-45.3451181887
 20
229.3010540952
 40
7.6122260647
100
AcDbArc
 50
131.0009065495
 51
135.5548579087
  0
ARC
  5
35D
100
AcDbEntity
  8
0
100
AcDbCircle
 62
7
  6
CONTINUOUS
 10
-45.6358829521
 20
229.635572902
 40
7.1690026685
100
AcDbArc
 50
122.749207634
 51
131.0011314797
  0
ARC
  5
35E
100
AcDbEntity
  8
0
100
AcDbCircle
 62
7
  6
CONTINUOUS
 10
-45.8778733052
 20
229.9981407063
 40
6.733162554
100
AcDbArc
 50
118.4784315094
 51
122.6863273501
  0
ARC
  5
35F
100
AcDbEntity
  8
0
100
AcDbCircle
 62
7
  6
CONTINUOUS
 10
-47.7492696914
 20
230.9329530846
 40
6.4672855763
100
AcDbArc
 50
105.0265289181
 51
110.210710643
  0
ARC
  5
360
100
AcDbEntity
  8
0
100
AcDbCircle
 62
7
  6
CONTINUOUS
 10
-39.3756564649
 20
225.9183969438
 40
1.2473777526
100
AcDbArc
 50
202.7674906787
 51
207.1332754638
  0
ARC
  5
361
100
AcDbEntity
  8
0
100
AcDbCircle
 62
7
  6
CONTINUOUS
 10
-39.4197189251
 20
225.8955132053
 40
1.197728081
100
AcDbArc
 50
207.1203531058
 51
210.9726175182
  0
ARC
  5
362
100
AcDbEntity
  8
0
100
AcDbCircle
 62
7
  6
CONTINUOUS
 10
-33.8663568651
 20
273.8785272714
 40
18.4063566399
100
AcDbArc
 50
188.552745011
 51
194.3141096632
  0
ARC
  5
363
100
AcDbEntity
  8
0
100
AcDbCircle
 62
7
  6
CONTINUOUS
 10
-14.8932974134
 20
232.6391136445
 40
25.3937535784
100
AcDbArc
 50
195.9882546155
 51
196.6617260569
  0
ARC
  5
364
100
AcDbEntity
  8
0
100
AcDbCircle
 62
7
  6
CONTINUOUS
 10
-16.3797075023
 20
234.7432520848
 40
9.3753465219
100
AcDbArc
 50
5.6505106254
 51
8.3789191003
  0
ARC
  5
365
100
AcDbEntity
  8
0
100
AcDbCircle
 62
7
  6
CONTINUOUS
 10
-10.550580013
 20
236.3783084548
 40
3.8497766977
100
AcDbArc
 50
189.7525344401
 51
196.8446733468
  0
ARC
  5
366
100
AcDbEntity
  8
0
100
AcDbCircle
 62
7
  6
CONTINUOUS
 10
-15.9853501476
 20
234.9219034868
 40
3.8471226385
100
AcDbArc
 50
9.7496785488
 51
16.8469457636
  0
ARC
  5
367
100
AcDbEntity
  8
0
100
AcDbCircle
 62
7
  6
CONTINUOUS
 10
-15.970770579
 20
234.9267411916
 40
3.8317667673
100
AcDbArc
 50
16.8408945242
 51
18.5960935884
  0
ARC
  5
368
100
AcDbEntity
  8
0
100
AcDbCircle
 62
7
  6
CONTINUOUS
 10
-10.5957757878
 20
236.3632283715
 40
3.8021504561
100
AcDbArc
 50
196.8245361095
 51
198.5935205676
  0
ARC
  5
369
100
AcDbEntity
  8
0
100
AcDbCircle
 62
7
  6
CONTINUOUS
 10
-15.8429613589
 20
234.9484953383
 40
3.7022877928
100
AcDbArc
 50
8.5054954429
 51
9.7172552125
  0
ARC
  5
36A
100
AcDbEntity
  8
0
100
AcDbCircle
 62
7
  6
CONTINUOUS
 10
-10.7365693832
 20
236.3449536205
 40
3.660825317
100
AcDbArc
 50
188.527359093
 51
189.7311317248
  0
ARC
  5
36B
100
AcDbEntity
  8
0
100
AcDbCircle
 62
7
  6
CONTINUOUS
 10
-15.789267156
 20
234.9566162534
 40
3.6479830188
100
AcDbArc
 50
7.9362938108
 51
8.5040819396
  0
ARC
  5
36C
100
AcDbEntity
  8
0
100
AcDbCircle
 62
7
  6
CONTINUOUS
 10
-10.7949899123
 20
236.3360323916
 40
3.6017277659
100
AcDbArc
 50
187.9275523338
 51
188.5248152129
  0
ARC
  5
36D
100
AcDbEntity
  8
0
100
AcDbCircle
 62
7
  6
CONTINUOUS
 10
-15.7349007959
 20
234.9641187587
 40
3.5931014841
100
AcDbArc
 50
6.934871905
 51
7.9375028678
  0
ARC
  5
36E
100
AcDbEntity
  8
0
100
AcDbCircle
 62
7
  6
CONTINUOUS
 10
-15.3499363309
 20
235.2010910901
 40
3.1521718858
100
AcDbArc
 50
27.1998999208
 51
29.2189981803
  0
ARC
  5
36F
100
AcDbEntity
  8
0
100
AcDbCircle
 62
7
  6
CONTINUOUS
 10
-11.1921668307
 20
236.096891463
 40
3.1482597256
100
AcDbArc
 50
207.2038303933
 51
209.2253898342
  0
ARC
  5
370
100
AcDbEntity
  8
0
100
AcDbCircle
 62
7
  6
CONTINUOUS
 10
-11.4600868559
 20
236.30148503
 40
2.9351718359
100
AcDbArc
 50
178.7480842993
 51
179.9253865403
  0
ARC
  5
371
100
AcDbEntity
  8
0
100
AcDbCircle
 62
7
  6
CONTINUOUS
 10
-15.0750388763
 20
234.9992315603
 40
2.9318075599
100
AcDbArc
 50
358.7242239851
 51
0.0035789906
  0
ARC
  5
372
100
AcDbEntity
  8
0
100
AcDbCircle
 62
7
  6
CONTINUOUS
 10
-11.5644699291
 20
236.3036493708
 40
2.8307663945
100
AcDbArc
 50
177.984942034
 51
178.7457208333
  0
ARC
  5
373
100
AcDbEntity
  8
0
100
AcDbCircle
 62
7
  6
CONTINUOUS
 10
-14.9492134144
 20
234.9963201577
 40
2.8059484694
100
AcDbArc
 50
356.5438600784
 51
358.7264542083
  0
ARC
  5
374
100
AcDbEntity
  8
0
100
AcDbCircle
 62
7
  6
CONTINUOUS
 10
-11.6646314487
 20
236.3073340404
 40
2.7305372565
100
AcDbArc
 50
176.5337257841
 51
177.9883097977
  0
ARC
  5
375
100
AcDbEntity
  8
0
100
AcDbCircle
 62
7
  6
CONTINUOUS
 10
-12.0007378213
 20
235.554884489
 40
2.1734395295
100
AcDbArc
 50
217.9490415515
 51
220.5755940248
  0
ARC
  5
376
100
AcDbEntity
  8
0
100
AcDbCircle
 62
7
  6
CONTINUOUS
 10
-14.5359800069
 20
235.7460585943
 40
2.1711858944
100
AcDbArc
 50
37.9502245998
 51
40.5793589604
  0
ARC
  5
377
100
AcDbEntity
  8
0
100
AcDbCircle
 62
7
  6
CONTINUOUS
 10
-13.9325778437
 20
234.8503888106
 40
1.7769328247
100
AcDbArc
 50
343.5509894685
 51
346.2363201615
  0
ARC
  5
378
100
AcDbEntity
  8
0
100
AcDbCircle
 62
7
  6
CONTINUOUS
 10
-12.6297020172
 20
236.4553901672
 40
1.7523800156
100
AcDbArc
 50
163.5257834751
 51
166.2485454279
  0
ARC
  5
379
100
AcDbEntity
  8
0
100
AcDbCircle
 62
7
  6
CONTINUOUS
 10
-12.6857184566
 20
234.8171958318
 40
1.1630597735
100
AcDbArc
 50
235.0371443068
 51
238.7423575389
  0
ARC
  5
37A
100
AcDbEntity
  8
0
100
AcDbCircle
 62
7
  6
CONTINUOUS
 10
-13.8508044423
 20
236.4855355228
 40
1.1593399558
100
AcDbArc
 50
55.0293128033
 51
58.7464257352
  0
ARC
  5
37B
100
AcDbEntity
  8
0
100
AcDbCircle
 62
7
  6
CONTINUOUS
 10
-13.1368866456
 20
234.5038625441
 40
0.9047175772
100
AcDbArc
 50
321.589301691
 51
326.3420635619
  0
ARC
  5
37C
100
AcDbEntity
  8
0
100
AcDbCircle
 62
7
  6
CONTINUOUS
 10
-13.4139861248
 20
236.8047615553
 40
0.8894092677
100
AcDbArc
 50
141.5520147994
 51
146.3868827309
  0
ARC
  5
37D
100
AcDbEntity
  8
0
100
AcDbCircle
 62
7
  6
CONTINUOUS
 10
-12.8883130229
 20
234.3463606049
 40
0.6471102248
100
AcDbArc
 50
257.7871050675
 51
264.2881196533
  0
ARC
  5
37E
100
AcDbEntity
  8
0
100
AcDbCircle
 62
7
  6
CONTINUOUS
 10
-12.8981707433
 20
234.2554287144
 40
0.5572641785
100
AcDbArc
 50
291.4055714575
 51
299.4361574288
  0
ARC
  5
37F
100
AcDbEntity
  8
0
100
AcDbCircle
 62
7
  6
CONTINUOUS
 10
-13.6417202693
 20
237.0468176336
 40
0.5542538348
100
AcDbArc
 50
111.3749370813
 51
119.449069806
  0
ARC
  5
380
100
AcDbEntity
  8
0
100
AcDbCircle
 62
7
  6
CONTINUOUS
 10
-13.6478010781
 20
237.0612863559
 40
0.5385642101
100
AcDbArc
 50
104.9873144041
 51
111.333538527
  0
ARC
  5
381
100
AcDbEntity
  8
0
100
AcDbCircle
 62
7
  6
CONTINUOUS
 10
-12.8906204871
 20
234.237266536
 40
0.5375993738
100
AcDbArc
 50
285.0049189779
 51
291.3628510372
  0
ARC
  5
382
100
AcDbEntity
  8
0
100
AcDbCircle
 62
7
  6
CONTINUOUS
 10
-12.5057842055
 20
271.2268675178
 40
40.1342444032
100
AcDbArc
 50
160.375728067
 51
163.7996670392
  0
ARC
  5
383
100
AcDbEntity
  8
0
100
AcDbCircle
 62
7
  6
CONTINUOUS
 10
-10.8115715755
 20
275.8886498016
 40
18.6011112097
100
AcDbArc
 50
169.9415187632
 51
170.2902519386
  0
ARC
  5
384
100
AcDbEntity
  8
0
100
AcDbCircle
 62
7
  6
CONTINUOUS
 10
-27.528803558
 20
259.4329727103
 40
14.9893879274
100
AcDbArc
 50
205.8313755733
 51
215.5669522692
  0
ARC
  5
385
100
AcDbEntity
  8
0
100
AcDbCircle
 62
7
  6
CONTINUOUS
 10
-27.6589756205
 20
259.3439671221
 40
14.8317311593
100
AcDbArc
 50
215.5797571402
 51
220.0725802397
  0
ARC
  5
386
100
AcDbEntity
  8
0
100
AcDbCircle
 62
7
  6
CONTINUOUS
 10
-26.0511276028
 20
274.70419705
 40
10.9742841417
100
AcDbArc
 50
221.2171038225
 51
221.5658396692
  0
ARC
  5
387
100
AcDbEntity
  8
0
100
AcDbCircle
 62
7
  6
CONTINUOUS
 10
-26.066386118
 20
274.6908989031
 40
10.9540440725
100
AcDbArc
 50
219.8191889479
 51
221.2173702734
  0
ARC
  5
388
100
AcDbEntity
  8
0
100
AcDbCircle
 62
7
  6
CONTINUOUS
 10
20.1269688389
 20
158.2682154336
 40
84.4271254665
100
AcDbArc
 50
87.6117953251
 51
87.9970356313
  0
ARC
  5
389
100
AcDbEntity
  8
0
100
AcDbCircle
 62
7
  6
CONTINUOUS
 10
3.0830849423
 20
197.2424937912
 40
35.7333022892
100
AcDbArc
 50
130.0164877193
 51
130.5422001888
  0
ARC
  5
38A
100
AcDbEntity
  8
0
100
AcDbCircle
 62
7
  6
CONTINUOUS
 10
8.4154051317
 20
191.8486221829
 40
35.4318325168
100
AcDbArc
 50
351.4585795171
 51
355.799588167
  0
ARC
  5
38B
100
AcDbEntity
  8
0
100
AcDbCircle
 62
7
  6
CONTINUOUS
 10
18.8593277826
 20
179.5996220432
 40
25.2179489759
100
AcDbArc
 50
262.037001036
 51
275.7667997619
  0
ARC
  5
38C
100
AcDbEntity
  8
0
100
AcDbCircle
 62
7
  6
CONTINUOUS
 10
19.6457449665
 20
185.2798260779
 40
21.878081348
100
AcDbArc
 50
221.7475384373
 51
228.6599528051
  0
ARC
  5
38D
100
AcDbEntity
  8
0
100
AcDbCircle
 62
7
  6
CONTINUOUS
 10
19.6362510081
 20
197.1640991854
 40
19.7212782866
100
AcDbArc
 50
56.0039650779
 51
63.4085881182
  0
ARC
  5
38E
100
AcDbEntity
  8
0
100
AcDbCircle
 62
7
  6
CONTINUOUS
 10
1.7283899334
 20
172.6915517384
 40
4.5150547756
100
AcDbArc
 50
150.8154037202
 51
159.5769395389
  0
ARC
  5
38F
100
AcDbEntity
  8
0
100
AcDbCircle
 62
7
  6
CONTINUOUS
 10
27.2392034662
 20
198.2688899196
 40
3.2786623013
100
AcDbArc
 50
252.0971134392
 51
261.9965564549
  0
ARC
  5
390
100
AcDbEntity
  8
0
100
AcDbCircle
 62
7
  6
CONTINUOUS
 10
27.6214966021
 20
201.0000620236
 40
3.2635564687
100
AcDbArc
 50
87.4309277221
 51
91.8621093323
  0
ARC
  5
391
100
AcDbEntity
  8
0
100
AcDbCircle
 62
7
  6
CONTINUOUS
 10
47.5725253637
 20
224.6333887853
 40
103.7387492905
100
AcDbArc
 50
125.3782806185
 51
130.3002055178
  0
ARC
  5
392
100
AcDbEntity
  8
0
100
AcDbCircle
 62
7
  6
CONTINUOUS
 10
48.3909595307
 20
223.4923113927
 40
102.612821279
100
AcDbArc
 50
125.3467451959
 51
132.8521652283
  0
ARC
  5
393
100
AcDbEntity
  8
0
100
AcDbCircle
 62
7
  6
CONTINUOUS
 10
46.3396829795
 20
226.4510664058
 40
101.5429402756
100
AcDbArc
 50
120.4040331791
 51
125.4049076311
  0
ARC
  5
394
100
AcDbEntity
  8
0
100
AcDbCircle
 62
7
  6
CONTINUOUS
 10
37.6188764111
 20
237.7609706017
 40
101.0128249632
100
AcDbArc
 50
130.3523469207
 51
132.2078451724
  0
ARC
  5
395
100
AcDbEntity
  8
0
100
AcDbCircle
 62
7
  6
CONTINUOUS
 10
35.5975541314
 20
241.6235420661
 40
96.684175228
100
AcDbArc
 50
118.442192108
 51
120.3554593774
  0
ARC
  5
396
100
AcDbEntity
  8
0
100
AcDbCircle
 62
7
  6
CONTINUOUS
 10
45.0097459333
 20
228.0698272213
 40
94.543366681
100
AcDbArc
 50
125.3714848601
 51
133.3977280388
  0
ARC
  5
397
100
AcDbEntity
  8
0
100
AcDbCircle
 62
7
  6
CONTINUOUS
 10
18.3913378602
 20
254.8803030297
 40
75.2200931038
100
AcDbArc
 50
143.1265887451
 51
145.3818205207
  0
ARC
  5
398
100
AcDbEntity
  8
0
100
AcDbCircle
 62
7
  6
CONTINUOUS
 10
24.0461597475
 20
270.1020128938
 40
65.8841715558
100
AcDbArc
 50
104.4692146562
 51
106.9436675923
  0
ARC
  5
399
100
AcDbEntity
  8
0
100
AcDbCircle
 62
7
  6
CONTINUOUS
 10
10.2062140286
 20
254.8153417922
 40
50.396002721
100
AcDbArc
 50
151.9676055943
 51
154.922876554
  0
ARC
  5
39A
100
AcDbEntity
  8
0
100
AcDbCircle
 62
7
  6
CONTINUOUS
 10
39.9113563399
 20
243.26188649
 40
15.708423462
100
AcDbArc
 50
182.4411144387
 51
182.6509167414
  0
ARC
  5
39B
100
AcDbEntity
  8
0
100
AcDbCircle
 62
7
  6
CONTINUOUS
 10
27.2588623056
 20
250.3125806312
 40
6.942718996
100
AcDbArc
 50
270.9002079887
 51
271.909522661
  0
ARC
  5
39C
100
AcDbEntity
  8
0
100
AcDbCircle
 62
7
  6
CONTINUOUS
 10
20.8913780804
 20
249.7698049624
 40
6.338595953
100
AcDbArc
 50
58.9546377112
 51
59.5413868252
  0
ARC
  5
39D
100
AcDbEntity
  8
0
100
AcDbCircle
 62
7
  6
CONTINUOUS
 10
20.9050062669
 20
249.7930073057
 40
6.3116872927
100
AcDbArc
 50
59.5412579272
 51
60.574229726
  0
ARC
  5
39E
100
AcDbEntity
  8
0
100
AcDbCircle
 62
7
  6
CONTINUOUS
 10
21.4731651501
 20
249.7591719716
 40
6.2628760344
100
AcDbArc
 50
58.9429531695
 51
65.4696862835
  0
ARC
  5
39F
100
AcDbEntity
  8
0
100
AcDbCircle
 62
7
  6
CONTINUOUS
 10
21.5697058513
 20
249.9763829683
 40
6.0251893348
100
AcDbArc
 50
65.4473070371
 51
81.9540813083
  0
ARC
  5
3A0
100
AcDbEntity
  8
0
100
AcDbCircle
 62
7
  6
CONTINUOUS
 10
21.0423426239
 20
250.1211153428
 40
5.9550193206
100
AcDbArc
 50
74.5392180934
 51
79.3036403412
  0
ARC
  5
3A1
100
AcDbEntity
  8
0
100
AcDbCircle
 62
7
  6
CONTINUOUS
 10
23.1977224951
 20
249.6588746229
 40
5.6138242446
100
AcDbArc
 50
82.0395689406
 51
90.6252149724
  0
ARC
  5
3A2
100
AcDbEntity
  8
0
100
AcDbCircle
 62
7
  6
CONTINUOUS
 10
23.1994462097
 20
243.2134079289
 40
4.1722173402
100
AcDbArc
 50
348.6830186537
 51
2.1619951619
  0
ARC
  5
3A3
100
AcDbEntity
  8
0
100
AcDbCircle
 62
7
  6
CONTINUOUS
 10
25.6685766923
 20
242.8675593373
 40
4.1711864095
100
AcDbArc
 50
168.6819606759
 51
182.4398258992
  0
ARC
  5
3A4
100
AcDbEntity
  8
0
100
AcDbCircle
 62
7
  6
CONTINUOUS
 10
26.5039600369
 20
217.1078405827
 40
4.0323552939
100
AcDbArc
 50
140.6593003722
 51
141.472689632
  0
ARC
  5
3A5
100
AcDbEntity
  8
0
100
AcDbCircle
 62
7
  6
CONTINUOUS
 10
8.29760537
 20
243.7414359993
 40
3.4841253747
100
AcDbArc
 50
52.2068691876
 51
53.9052430298
  0
ARC
  5
3A6
100
AcDbEntity
  8
0
100
AcDbCircle
 62
7
  6
CONTINUOUS
 10
25.0513308093
 20
243.5902135277
 40
1.5720958394
100
AcDbArc
 50
87.130310858
 51
101.657250488
  0
ARC
  5
3A7
100
AcDbEntity
  8
0
100
AcDbCircle
 62
7
  6
CONTINUOUS
 10
24.8681734799
 20
242.3435068694
 40
1.5720958092
100
AcDbArc
 50
267.1303107179
 51
281.6572506292
  0
ARC
  5
3A8
100
AcDbEntity
  8
0
100
AcDbCircle
 62
7
  6
CONTINUOUS
 10
24.8680301574
 20
242.3122971119
 40
1.5409186676
100
AcDbArc
 50
252.3543765168
 51
267.0775347985
  0
ARC
  5
3A9
100
AcDbEntity
  8
0
100
AcDbCircle
 62
7
  6
CONTINUOUS
 10
25.0514741423
 20
243.6214233874
 40
1.5409185952
100
AcDbArc
 50
72.3543828871
 51
87.077535137
  0
ARC
  5
3AA
100
AcDbEntity
  8
0
100
AcDbCircle
 62
7
  6
CONTINUOUS
 10
32.1141680442
 20
372.6987486489
 40
130.4484039073
100
AcDbArc
 50
265.3872875909
 51
266.7499338675
  0
ARC
  5
3AB
100
AcDbEntity
  8
0
100
AcDbCircle
 62
7
  6
CONTINUOUS
 10
32.1915038736
 20
373.6949276077
 40
130.4483992461
100
AcDbArc
 50
265.3872875666
 51
266.7499338918
  0
ARC
  5
3AC
100
AcDbEntity
  8
0
100
AcDbCircle
 62
7
  6
CONTINUOUS
 10
-37.0235477265
 20
337.895987634
 40
94.543366681
100
AcDbArc
 50
305.3714848601
 51
313.3977280388
  0
ARC
  5
3AD
100
AcDbEntity
  8
0
100
AcDbCircle
 62
7
  6
CONTINUOUS
 10
-36.833728652
 20
337.590923673
 40
94.1847335766
100
AcDbArc
 50
302.2341807127
 51
305.3847541592
  0
ARC
  5
3AE
100
AcDbEntity
  8
0
100
AcDbCircle
 62
7
  6
CONTINUOUS
 10
-32.5158793321
 20
330.6591340668
 40
69.5533035991
100
AcDbArc
 50
296.4709934288
 51
298.5369523257
  0
ARC
  5
3AF
100
AcDbEntity
  8
0
100
AcDbCircle
 62
7
  6
CONTINUOUS
 10
-22.5293329359
 20
299.3996739757
 40
37.9820544614
100
AcDbArc
 50
277.7540626856
 51
277.979321962
  0
ARC
  5
3B0
100
AcDbEntity
  8
0
100
AcDbCircle
 62
7
  6
CONTINUOUS
 10
-21.5842191295
 20
295.0980247154
 40
32.9241472695
100
AcDbArc
 50
274.5109206019
 51
274.6615830586
  0
ARC
  5
3B1
100
AcDbEntity
  8
0
100
AcDbCircle
 62
7
  6
CONTINUOUS
 10
20.1089949833
 20
302.9437925969
 40
32.6520965401
100
AcDbArc
 50
83.9099812234
 51
87.8659035679
  0
ARC
  5
3B2
100
AcDbEntity
  8
0
100
AcDbCircle
 62
7
  6
CONTINUOUS
 10
24.7501068072
 20
318.7446354589
 40
15.9929070832
100
AcDbArc
 50
49.7587205635
 51
56.1155560073
  0
ARC
  5
3B3
100
AcDbEntity
  8
0
100
AcDbCircle
 62
7
  6
CONTINUOUS
 10
35.4586567385
 20
306.4613439522
 40
15.077521742
100
AcDbArc
 50
37.9696371602
 51
47.5631586861
  0
ARC
  5
3B4
100
AcDbEntity
  8
0
100
AcDbCircle
 62
7
  6
CONTINUOUS
 10
183.0891346746
 20
36.1772199643
 40
261.6733503793
100
AcDbArc
 50
127.0251214866
 51
127.2267784546
  0
ARC
  5
3B5
100
AcDbEntity
  8
0
100
AcDbCircle
 62
7
  6
CONTINUOUS
 10
91.584858271
 20
92.7079221269
 40
187.8525701047
100
AcDbArc
 50
133.8832049083
 51
134.1554991848
  0
ARC
  5
3B6
100
AcDbEntity
  8
0
100
AcDbCircle
 62
7
  6
CONTINUOUS
 10
101.4587542966
 20
15.0260921356
 40
182.576516778
100
AcDbArc
 50
134.4023176137
 51
134.6821519378
  0
ARC
  5
3B7
100
AcDbEntity
  8
0
100
AcDbCircle
 62
7
  6
CONTINUOUS
 10
305.1852548528
 20
524.7604995634
 40
506.3497844936
100
AcDbArc
 50
229.1024564542
 51
229.2227258698
  0
ARC
  5
3B8
100
AcDbEntity
  8
0
100
AcDbCircle
 62
7
  6
CONTINUOUS
 10
288.6106605392
 20
594.0773684706
 40
493.6023424975
100
AcDbArc
 50
228.4575336376
 51
228.579548934
  0
ARC
  5
3B9
100
AcDbEntity
  8
0
100
AcDbCircle
 62
7
  6
CONTINUOUS
 10
302.2852313483
 20
480.1971464498
 40
366.1874389189
100
AcDbArc
 50
220.675918371
 51
220.8245797079
  0
ARC
  5
3BA
100
AcDbEntity
  8
0
100
AcDbCircle
 62
7
  6
CONTINUOUS
 10
3395.3766174739
 20
-17203.8357083356
 40
17766.8417726242
100
AcDbArc
 50
101.2745390177
 51
101.4604604362
  0
SPLINE
  5
3BB
100
AcDbEntity
  8
0
100
AcDbSpline
 62
7
  6
CONTINUOUS
 70
0
 71
3
 72
9
 73
5
 74
0
 42
0.0000001
 43
0.0000001
 44
0.0000000001
 40
0.0
 40
0.0
 40
0.0
 40
0.0
 40
0.255174431
 40
1.0
 40
1.0
 40
1.0
 40
1.0
 10
-135.7724241881
 20
201.3212237593
 30
0.0
 10
-135.7054377453
 20
201.3329543086
 30
0.0
 10
-135.4419532315
 20
201.3730823436
 30
0.0
 10
-135.1746725322
 20
201.389185242
 30
0.0
 10
-134.9761967047
 20
201.386004072
 30
0.0
  0
SPLINE
  5
3BC
100
AcDbEntity
  8
0
100
AcDbSpline
 62
7
  6
CONTINUOUS
 70
0
 71
3
 72
11
 73
7
 74
0
 42
0.0000001
 43
0.0000001
 44
0.0000000001
 40
0.0
 40
0.0
 40
0.0
 40
0.0
 40
0.2368398445
 40
0.4778252146
 40
0.7302581897
 40
1.0
 40
1.0
 40
1.0
 40
1.0
 10
-138.5242059917
 20
201.5017892435
 30
0.0
 10
-138.420755336
 20
201.5410811561
 30
0.0
 10
-138.2027884788
 20
201.5981238393
 30
0.0
 10
-137.8594613937
 20
201.6119608675
 30
0.0
 10
-137.5053793508
 20
201.5547175674
 30
0.0
 10
-137.2740045115
 20
201.4733531961
 30
0.0
 10
-137.1584998792
 20
201.4229218324
 30
0.0
  0
SPLINE
  5
3BD
100
AcDbEntity
  8
0
100
AcDbSpline
 62
7
  6
CONTINUOUS
 70
0
 71
3
 72
9
 73
5
 74
0
 42
0.0000001
 43
0.0000001
 44
0.0000000001
 40
0.0
 40
0.0
 40
0.0
 40
0.0
 40
0.497026804
 40
1.0
 40
1.0
 40
1.0
 40
1.0
 10
-137.3950497499
 20
201.8044885957
 30
0.0
 10
-137.4909839769
 20
201.7889130893
 30
0.0
 10
-137.6815029729
 20
201.7393173049
 30
0.0
 10
-137.8591866359
 20
201.6547266619
 30
0.0
 10
-137.9439166732
 20
201.6047850262
 30
0.0
  0
SPLINE
  5
3BE
100
AcDbEntity
  8
0
100
AcDbSpline
 62
7
  6
CONTINUOUS
 70
0
 71
3
 72
13
 73
9
 74
0
 42
0.0000001
 43
0.0000001
 44
0.0000000001
 40
0.0
 40
0.0
 40
0.0
 40
0.0
 40
0.1002640038
 40
0.2035354407
 40
0.3125095691
 40
0.4293702053
 40
0.6923048981
 40
1.0
 40
1.0
 40
1.0
 40
1.0
 10
-139.9654595401
 20
200.3313279584
 30
0.0
 10
-139.9654604201
 20
200.3659458283
 30
0.0
 10
-139.9586325519
 20
200.4363942051
 30
0.0
 10
-139.9282295451
 20
200.5404978575
 30
0.0
 10
-139.8780600592
 20
200.6430084102
 30
0.0
 10
-139.7816942267
 20
200.7821908605
 30
0.0
 10
-139.6091574875
 20
200.9483515625
 30
0.0
 10
-139.4440715467
 20
201.057336238
 30
0.0
 10
-139.3519246856
 20
201.1102064613
 30
0.0
  0
SPLINE
  5
3BF
100
AcDbEntity
  8
0
100
AcDbSpline
 62
7
  6
CONTINUOUS
 70
0
 71
3
 72
9
 73
5
 74
0
 42
0.0000001
 43
0.0000001
 44
0.0000000001
 40
0.0
 40
0.0
 40
0.0
 40
0.0
 40
0.2573414151
 40
1.0
 40
1.0
 40
1.0
 40
1.0
 10
-137.9789160855
 20
200.3831370584
 30
0.0
 10
-137.8688238448
 20
200.4588040392
 30
0.0
 10
-137.4325275039
 20
200.7401199807
 30
0.0
 10
-136.9615751045
 20
200.9690326992
 30
0.0
 10
-136.5988704975
 20
201.0996902949
 30
0.0
  0
SPLINE
  5
3C0
100
AcDbEntity
  8
0
100
AcDbSpline
 62
7
  6
CONTINUOUS
 70
0
 71
3
 72
11
 73
7
 74
0
 42
0.0000001
 43
0.0000001
 44
0.0000000001
 40
0.0
 40
0.0
 40
0.0
 40
0.0
 40
0.2229204638
 40
0.4647808236
 40
0.7244628097
 40
1.0
 40
1.0
 40
1.0
 40
1.0
 10
-136.5988704975
 20
201.0996902949
 30
0.0
 10
-136.4538832874
 20
200.9955104332
 30
0.0
 10
-136.1671046737
 20
200.7562896611
 30
0.0
 10
-135.7670450809
 20
200.3346388886
 30
0.0
 10
-135.3852680575
 20
199.8420008665
 30
0.0
 10
-135.1531121969
 20
199.4809796741
 30
0.0
 10
-135.0409971743
 20
199.2909065924
 30
0.0
  0
SPLINE
  5
3C1
100
AcDbEntity
  8
0
100
AcDbSpline
 62
7
  6
CONTINUOUS
 70
0
 71
3
 72
9
 73
5
 74
0
 42
0.0000001
 43
0.0000001
 44
0.0000000001
 40
0.0
 40
0.0
 40
0.0
 40
0.0
 40
0.4725187893
 40
1.0
 40
1.0
 40
1.0
 40
1.0
 10
-138.5077435095
 20
200.6885853518
 30
0.0
 10
-138.4765328304
 20
200.658111529
 30
0.0
 10
-138.4052167296
 20
200.5989482971
 30
0.0
 10
-138.3273648803
 20
200.5489897475
 30
0.0
 10
-138.2851984227
 20
200.5246351847
 30
0.0
  0
SPLINE
  5
3C2
100
AcDbEntity
  8
0
100
AcDbSpline
 62
7
  6
CONTINUOUS
 70
0
 71
3
 72
9
 73
5
 74
0
 42
0.0000001
 43
0.0000001
 44
0.0000000001
 40
0.0
 40
0.0
 40
0.0
 40
0.0
 40
0.4780448589
 40
1.0
 40
1.0
 40
1.0
 40
1.0
 10
-138.2851984227
 20
200.5246351847
 30
0.0
 10
-138.23860309
 20
200.4977225858
 30
0.0
 10
-138.1381836121
 20
200.4464713743
 30
0.0
 10
-138.0339698902
 20
200.4036408243
 30
0.0
 10
-137.9789113168
 20
200.3831394722
 30
0.0
  0
SPLINE
  5
3C3
100
AcDbEntity
  8
0
100
AcDbSpline
 62
7
  6
CONTINUOUS
 70
0
 71
3
 72
9
 73
5
 74
0
 42
0.0000001
 43
0.0000001
 44
0.0000000001
 40
0.0
 40
0.0
 40
0.0
 40
0.0
 40
0.2579423273
 40
1.0
 40
1.0
 40
1.0
 40
1.0
 10
-135.2796576408
 20
199.6730945665
 30
0.0
 10
-135.2698066917
 20
199.6771009946
 30
0.0
 10
-135.2317574108
 20
199.6929761148
 30
0.0
 10
-135.1942858927
 20
199.7102525509
 30
0.0
 10
-135.1669428181
 20
199.7239759569
 30
0.0
  0
SPLINE
  5
3C4
100
AcDbEntity
  8
0
100
AcDbSpline
 62
7
  6
CONTINUOUS
 70
0
 71
3
 72
9
 73
5
 74
0
 42
0.0000001
 43
0.0000001
 44
0.0000000001
 40
0.0
 40
0.0
 40
0.0
 40
0.0
 40
0.5193920985
 40
1.0
 40
1.0
 40
1.0
 40
1.0
 10
-135.0003628172
 20
200.6096513064
 30
0.0
 10
-135.1206930154
 20
200.7462854103
 30
0.0
 10
-135.3647529587
 20
200.9988191162
 30
0.0
 10
-135.6356096728
 20
201.2229163481
 30
0.0
 10
-135.7724241881
 20
201.3212237593
 30
0.0
  0
SPLINE
  5
3C5
100
AcDbEntity
  8
0
100
AcDbSpline
 62
7
  6
CONTINUOUS
 70
0
 71
3
 72
16
 73
12
 74
0
 42
0.0000001
 43
0.0000001
 44
0.0000000001
 40
0.0
 40
0.0
 40
0.0
 40
0.0
 40
0.1315174144
 40
0.2678733115
 40
0.4056445782
 40
0.5413250409
 40
0.6715046539
 40
0.793030206
 40
0.9031863215
 40
0.9533646117
 40
1.0
 40
1.0
 40
1.0
 40
1.0
 10
-135.0458432964
 20
199.0725312203
 30
0.0
 10
-135.236257724
 20
199.0392873025
 30
0.0
 10
-135.6269457269
 20
198.987230908
 30
0.0
 10
-136.2224501443
 20
198.950634532
 30
0.0
 10
-136.8252137133
 20
198.9545852376
 30
0.0
 10
-137.4172538878
 20
198.9989680905
 30
0.0
 10
-137.9810246196
 20
199.0824030575
 30
0.0
 10
-138.4997751659
 20
199.2023432008
 30
0.0
 10
-138.8936931445
 20
199.3334415765
 30
0.0
 10
-139.1724531034
 20
199.4556413344
 30
0.0
 10
-139.2986715819
 20
199.5216799112
 30
0.0
 10
-139.3580241166
 20
199.555960833
 30
0.0
  0
SPLINE
  5
3C6
100
AcDbEntity
  8
0
100
AcDbSpline
 62
7
  6
CONTINUOUS
 70
0
 71
3
 72
13
 73
9
 74
0
 42
0.0000001
 43
0.0000001
 44
0.0000000001
 40
0.0
 40
0.0
 40
0.0
 40
0.0
 40
0.307385416
 40
0.570201725
 40
0.6871006022
 40
0.796166256
 40
0.8995742423
 40
1.0
 40
1.0
 40
1.0
 40
1.0
 10
-139.3580241166
 20
199.555960833
 30
0.0
 10
-139.449303131
 20
199.6086818966
 30
0.0
 10
-139.6128348082
 20
199.7173231474
 30
0.0
 10
-139.7836056808
 20
199.8827707241
 30
0.0
 10
-139.8789721136
 20
200.0212503611
 30
0.0
 10
-139.9286179918
 20
200.1232534857
 30
0.0
 10
-139.9587079534
 20
200.2268173322
 30
0.0
 10
-139.9654586645
 20
200.296889346
 30
0.0
 10
-139.9654595401
 20
200.3313279584
 30
0.0
  0
SPLINE
  5
3C7
100
AcDbEntity
  8
0
100
AcDbSpline
 62
7
  6
CONTINUOUS
 70
0
 71
3
 72
9
 73
5
 74
0
 42
0.0000001
 43
0.0000001
 44
0.0000000001
 40
0.0
 40
0.0
 40
0.0
 40
0.0
 40
0.4914464276
 40
1.0
 40
1.0
 40
1.0
 40
1.0
 10
-137.1584998792
 20
201.4229218324
 30
0.0
 10
-137.3952378582
 20
201.3358077361
 30
0.0
 10
-137.863853245
 20
201.1212885171
 30
0.0
 10
-138.2974789302
 20
200.8433827991
 30
0.0
 10
-138.507688218
 20
200.6886150647
 30
0.0
  0
SPLINE
  5
3C8
100
AcDbEntity
  8
0
100
AcDbSpline
 62
7
  6
CONTINUOUS
 70
0
 71
3
 72
9
 73
5
 74
0
 42
0.0000001
 43
0.0000001
 44
0.0000000001
 40
0.0
 40
0.0
 40
0.0
 40
0.0
 40
0.4932956036
 40
1.0
 40
1.0
 40
1.0
 40
1.0
 10
-134.9681857482
 20
201.6446297862
 30
0.0
 10
-135.1897935545
 20
201.6841040476
 30
0.0
 10
-135.6471581229
 20
201.7231718097
 30
0.0
 10
-136.1040699317
 20
201.6829737269
 30
0.0
 10
-136.3320535697
 20
201.6444552968
 30
0.0
  0
SPLINE
  5
3C9
100
AcDbEntity
  8
0
100
AcDbSpline
 62
7
  6
CONTINUOUS
 70
0
 71
3
 72
11
 73
7
 74
0
 42
0.0000001
 43
0.0000001
 44
0.0000000001
 40
0.0
 40
0.0
 40
0.0
 40
0.0
 40
0.2676153437
 40
0.5213548691
 40
0.7642307069
 40
1.0
 40
1.0
 40
1.0
 40
1.0
 10
-136.3320535697
 20
201.6444552968
 30
0.0
 10
-136.4210859308
 20
201.683328399
 30
0.0
 10
-136.5990800072
 20
201.7492897117
 30
0.0
 10
-136.8704500693
 20
201.8109912115
 30
0.0
 10
-137.1364656414
 20
201.8319093301
 30
0.0
 10
-137.3105678467
 20
201.8182047476
 30
0.0
 10
-137.3950497499
 20
201.8044885957
 30
0.0
  0
SPLINE
  5
3CA
100
AcDbEntity
  8
0
100
AcDbSpline
 62
7
  6
CONTINUOUS
 70
0
 71
3
 72
13
 73
9
 74
0
 42
0.0000001
 43
0.0000001
 44
0.0000000001
 40
0.0
 40
0.0
 40
0.0
 40
0.0
 40
0.1002640038
 40
0.2035354407
 40
0.3125095691
 40
0.4293702053
 40
0.6923048981
 40
1.0
 40
1.0
 40
1.0
 40
1.0
 10
-67.8994704935
 20
158.7073510737
 30
0.0
 10
-67.8994713736
 20
158.7419689436
 30
0.0
 10
-67.8926435054
 20
158.8124173204
 30
0.0
 10
-67.8622404986
 20
158.9165209728
 30
0.0
 10
-67.8120710127
 20
159.0190315255
 30
0.0
 10
-67.7157051802
 20
159.1582139758
 30
0.0
 10
-67.543168441
 20
159.3243746778
 30
0.0
 10
-67.3780825002
 20
159.4333593533
 30
0.0
 10
-67.2859356391
 20
159.4862295767
 30
0.0
  0
SPLINE
  5
3CB
100
AcDbEntity
  8
0
100
AcDbSpline
 62
7
  6
CONTINUOUS
 70
0
 71
3
 72
9
 73
5
 74
0
 42
0.0000001
 43
0.0000001
 44
0.0000000001
 40
0.0
 40
0.0
 40
0.0
 40
0.0
 40
0.5239488175
 40
1.0
 40
1.0
 40
1.0
 40
1.0
 10
-66.7459726628
 20
157.6855276649
 30
0.0
 10
-66.844660543
 20
157.7206148322
 30
0.0
 10
-67.030710848
 20
157.7943558795
 30
0.0
 10
-67.2096282207
 20
157.8843872826
 30
0.0
 10
-67.2920350701
 20
157.9319839484
 30
0.0
  0
SPLINE
  5
3CC
100
AcDbEntity
  8
0
100
AcDbSpline
 62
7
  6
CONTINUOUS
 70
0
 71
3
 72
13
 73
9
 74
0
 42
0.0000001
 43
0.0000001
 44
0.0000000001
 40
0.0
 40
0.0
 40
0.0
 40
0.0
 40
0.307385416
 40
0.570201725
 40
0.6871006022
 40
0.796166256
 40
0.8995742423
 40
1.0
 40
1.0
 40
1.0
 40
1.0
 10
-67.2920350701
 20
157.9319839484
 30
0.0
 10
-67.3833140845
 20
157.9847050119
 30
0.0
 10
-67.5468457617
 20
158.0933462628
 30
0.0
 10
-67.7176166342
 20
158.2587938394
 30
0.0
 10
-67.8129830671
 20
158.3972734764
 30
0.0
 10
-67.8626289453
 20
158.499276601
 30
0.0
 10
-67.8927189069
 20
158.6028404476
 30
0.0
 10
-67.899469618
 20
158.6729124614
 30
0.0
 10
-67.8994704935
 20
158.7073510737
 30
0.0
  0
SPLINE
  5
3CD
100
AcDbEntity
  8
0
100
AcDbSpline
 62
7
  6
CONTINUOUS
 70
0
 71
3
 72
27
 73
23
 74
0
 42
0.0000001
 43
0.0000001
 44
0.0000000001
 40
0.0
 40
0.0
 40
0.0
 40
0.0
 40
0.0570006949
 40
0.1151596406
 40
0.1750914027
 40
0.2371085811
 40
0.3012065995
 40
0.3670931636
 40
0.4005797846
 40
0.4343042388
 40
0.5020559056
 40
0.5696637691
 40
0.6032126956
 40
0.6364609684
 40
0.7017102319
 40
0.7650278404
 40
0.8262262277
 40
0.8854221849
 40
0.9144372148
 40
0.9431383913
 40
0.971621419
 40
1.0
 40
1.0
 40
1.0
 40
1.0
 10
23.9438372227
 20
246.6336946078
 30
0.0
 10
23.7562686011
 20
246.6432628131
 30
0.0
 10
23.3737448091
 20
246.6185990974
 30
0.0
 10
22.816504149
 20
246.4531419628
 30
0.0
 10
22.2921443654
 20
246.1663475497
 30
0.0
 10
21.8199021047
 20
245.7696515892
 30
0.0
 10
21.4162778732
 20
245.2782132558
 30
0.0
 10
21.1500420343
 20
244.8068003642
 30
0.0
 10
20.9829019874
 20
244.4009141539
 30
0.0
 10
20.8474832199
 20
243.9768854082
 30
0.0
 10
20.7427384051
 20
243.4271272393
 30
0.0
 10
20.7267723281
 20
242.8682597245
 30
0.0
 10
20.7681378282
 20
242.4268935796
 30
0.0
 10
20.8443644952
 20
241.9981214919
 30
0.0
 10
21.0034667258
 20
241.4862648449
 30
0.0
 10
21.2931494594
 20
240.9282454265
 30
0.0
 10
21.6705710082
 20
240.4501479344
 30
0.0
 10
22.0505815772
 20
240.130918793
 30
0.0
 10
22.3825352121
 20
239.9341698362
 30
0.0
 10
22.6419466327
 20
239.8170083504
 30
0.0
 10
22.9108852642
 20
239.7305377557
 30
0.0
 10
23.0951107656
 20
239.6938576409
 30
0.0
 10
23.187712051
 20
239.6808886301
 30
0.0
  0
SPLINE
  5
3CE
100
AcDbEntity
  8
0
100
AcDbSpline
 62
7
  6
CONTINUOUS
 70
0
 71
3
 72
16
 73
12
 74
0
 42
0.0000001
 43
0.0000001
 44
0.0000000001
 40
0.0
 40
0.0
 40
0.0
 40
0.0
 40
0.1153286275
 40
0.173495585
 40
0.2321685113
 40
0.3514259016
 40
0.4740690524
 40
0.6004915383
 40
0.7306441964
 40
0.8640695913
 40
1.0
 40
1.0
 40
1.0
 40
1.0
 10
25.0422985897
 20
246.4894529466
 30
0.0
 10
25.205757302
 20
246.4665612728
 30
0.0
 10
25.4490387472
 20
246.4067892658
 30
0.0
 10
25.7565518979
 20
246.2799328509
 30
0.0
 10
26.0552107814
 20
246.1208226145
 30
0.0
 10
26.4036203912
 20
245.8637724658
 30
0.0
 10
26.7652087856
 20
245.4764663272
 30
0.0
 10
27.0631816683
 20
245.019796283
 30
0.0
 10
27.289353543
 20
244.5069541093
 30
0.0
 10
27.4377152989
 20
243.9526407605
 30
0.0
 10
27.4818113004
 20
243.5680742616
 30
0.0
 10
27.4902026472
 20
243.3737169848
 30
0.0
  0
SPLINE
  5
3CF
100
AcDbEntity
  8
0
100
AcDbSpline
 62
7
  6
CONTINUOUS
 70
0
 71
3
 72
11
 73
7
 74
0
 42
0.0000001
 43
0.0000001
 44
0.0000000001
 40
0.0
 40
0.0
 40
0.0
 40
0.0
 40
0.1871500619
 40
0.4186736903
 40
0.6910241634
 40
1.0
 40
1.0
 40
1.0
 40
1.0
 10
27.3679389955
 20
243.3707185372
 30
0.0
 10
27.2592682035
 20
243.3689143653
 30
0.0
 10
27.0160963324
 20
243.3690259477
 30
0.0
 10
26.6148512134
 20
243.3765708307
 30
0.0
 10
26.1430247874
 20
243.3916455698
 30
0.0
 10
25.8057158922
 20
243.4057769892
 30
0.0
 10
25.6264680411
 20
243.4139706399
 30
0.0
  0
SPLINE
  5
3D0
100
AcDbEntity
  8
0
100
AcDbSpline
 62
7
  6
CONTINUOUS
 70
0
 71
3
 72
9
 73
5
 74
0
 42
0.0000001
 43
0.0000001
 44
0.0000000001
 40
0.0
 40
0.0
 40
0.0
 40
0.0
 40
0.494764909
 40
1.0
 40
1.0
 40
1.0
 40
1.0
 10
24.7336785003
 20
245.1298885166
 30
0.0
 10
24.7647699883
 20
244.8552605228
 30
0.0
 10
24.8057217027
 20
244.2975464188
 30
0.0
 10
24.8058390008
 20
243.738395943
 30
0.0
 10
24.7958702172
 20
243.4563408959
 30
0.0
  0
SPLINE
  5
3D1
100
AcDbEntity
  8
0
100
AcDbSpline
 62
7
  6
CONTINUOUS
 70
0
 71
3
 72
15
 73
11
 74
0
 42
0.0000001
 43
0.0000001
 44
0.0000000001
 40
0.0
 40
0.0
 40
0.0
 40
0.0
 40
0.1353405239
 40
0.268926314
 40
0.3997016838
 40
0.5268944891
 40
0.6501433863
 40
0.7695727113
 40
0.8858193774
 40
1.0
 40
1.0
 40
1.0
 40
1.0
 10
27.4128664982
 20
242.3775333754
 30
0.0
 10
27.3722598045
 20
242.1744402321
 30
0.0
 10
27.2613985005
 20
241.7762194775
 30
0.0
 10
27.0094159997
 20
241.2163419027
 30
0.0
 10
26.6798648706
 20
240.7127954925
 30
0.0
 10
26.2827495843
 20
240.281624973
 30
0.0
 10
25.8301711411
 20
239.9365874769
 30
0.0
 10
25.3359319039
 20
239.6891148013
 30
0.0
 10
24.8158627344
 20
239.5477567287
 30
0.0
 10
24.4606779647
 20
239.5277437181
 30
0.0
 10
24.2861732157
 20
239.5366455123
 30
0.0
  0
SPLINE
  5
3D2
100
AcDbEntity
  8
0
100
AcDbSpline
 62
7
  6
CONTINUOUS
 70
0
 71
3
 72
9
 73
5
 74
0
 42
0.0000001
 43
0.0000001
 44
0.0000000001
 40
0.0
 40
0.0
 40
0.0
 40
0.0
 40
0.5078680622
 40
1.0
 40
1.0
 40
1.0
 40
1.0
 10
24.7185340682
 20
242.4601572865
 30
0.0
 10
24.6851613844
 20
242.1831165529
 30
0.0
 10
24.5998961668
 20
241.6397778241
 30
0.0
 10
24.473866103
 20
241.1043182994
 30
0.0
 10
24.4009616244
 20
240.8439344785
 30
0.0
  0
SPLINE
  5
3D3
100
AcDbEntity
  8
0
100
AcDbSpline
 62
7
  6
CONTINUOUS
 70
0
 71
3
 72
9
 73
5
 74
0
 42
0.0000001
 43
0.0000001
 44
0.0000000001
 40
0.0
 40
0.0
 40
0.0
 40
0.0
 40
0.5019394255
 40
1.0
 40
1.0
 40
1.0
 40
1.0
 10
23.1444557109
 20
243.5614814874
 30
0.0
 10
23.0951093391
 20
243.4083696694
 30
0.0
 10
23.0344420243
 20
243.0900064782
 30
0.0
 10
23.0526320641
 20
242.766272152
 30
0.0
 10
23.0819064561
 20
242.6093553339
 30
0.0
  0
SPLINE
  5
3D4
100
AcDbEntity
  8
0
100
AcDbSpline
 62
7
  6
CONTINUOUS
 70
0
 71
3
 72
16
 73
12
 74
0
 42
0.0000001
 43
0.0000001
 44
0.0000000001
 40
0.0
 40
0.0
 40
0.0
 40
0.0
 40
0.1153286275
 40
0.173495585
 40
0.2321685113
 40
0.3514259016
 40
0.4740690524
 40
0.6004915383
 40
0.7306441964
 40
0.8640695913
 40
1.0
 40
1.0
 40
1.0
 40
1.0
 10
24.0714008846
 20
239.5571233443
 30
0.0
 10
23.9079421722
 20
239.5800150182
 30
0.0
 10
23.664660727
 20
239.6397870251
 30
0.0
 10
23.3571475764
 20
239.76664344
 30
0.0
 10
23.0584886928
 20
239.9257536764
 30
0.0
 10
22.7100790831
 20
240.1828038251
 30
0.0
 10
22.3484906887
 20
240.5701099637
 30
0.0
 10
22.0505178059
 20
241.0267800079
 30
0.0
 10
21.8243459312
 20
241.5396221816
 30
0.0
 10
21.6759841753
 20
242.0939355304
 30
0.0
 10
21.6318881739
 20
242.4785020293
 30
0.0
 10
21.6234968271
 20
242.6728593061
 30
0.0
  0
SPLINE
  5
3D5
100
AcDbEntity
  8
0
100
AcDbSpline
 62
7
  6
CONTINUOUS
 70
0
 71
3
 72
9
 73
5
 74
0
 42
0.0000001
 43
0.0000001
 44
0.0000000001
 40
0.0
 40
0.0
 40
0.0
 40
0.0
 40
0.4934180794
 40
1.0
 40
1.0
 40
1.0
 40
1.0
 10
25.1858241167
 20
240.8038321449
 30
0.0
 10
25.2709410642
 20
241.0625837502
 30
0.0
 10
25.4169820858
 20
241.5959748415
 30
0.0
 10
25.5128828725
 20
242.1404873579
 30
0.0
 10
25.5491318922
 20
242.4177870304
 30
0.0
  0
SPLINE
  5
3D6
100
AcDbEntity
  8
0
100
AcDbSpline
 62
7
  6
CONTINUOUS
 70
0
 71
3
 72
11
 73
7
 74
0
 42
0.0000001
 43
0.0000001
 44
0.0000000001
 40
0.0
 40
0.0
 40
0.0
 40
0.0
 40
0.3197074561
 40
0.5963119193
 40
0.8245181485
 40
1.0
 40
1.0
 40
1.0
 40
1.0
 10
25.5491318922
 20
242.4177870304
 30
0.0
 10
25.7476242158
 20
242.40871369
 30
0.0
 10
26.1179215465
 20
242.3933480608
 30
0.0
 10
26.6301494972
 20
242.3778810818
 30
0.0
 10
27.0529188323
 20
242.3717528048
 30
0.0
 10
27.3038655331
 20
242.3738629947
 30
0.0
 10
27.4128664982
 20
242.3775333754
 30
0.0
  0
SPLINE
  5
3D7
100
AcDbEntity
  8
0
100
AcDbSpline
 62
7
  6
CONTINUOUS
 70
0
 71
3
 72
15
 73
11
 74
0
 42
0.0000001
 43
0.0000001
 44
0.0000000001
 40
0.0
 40
0.0
 40
0.0
 40
0.0
 40
0.1353405239
 40
0.268926314
 40
0.3997016838
 40
0.5268944891
 40
0.6501433863
 40
0.7695727113
 40
0.8858193774
 40
1.0
 40
1.0
 40
1.0
 40
1.0
 10
21.700832976
 20
243.6690429155
 30
0.0
 10
21.7414396698
 20
243.8721360588
 30
0.0
 10
21.8523009738
 20
244.2703568134
 30
0.0
 10
22.1042834746
 20
244.8302343882
 30
0.0
 10
22.4338346036
 20
245.3337807985
 30
0.0
 10
22.8309498899
 20
245.7649513179
 30
0.0
 10
23.2835283332
 20
246.109988814
 30
0.0
 10
23.7777675704
 20
246.3574614896
 30
0.0
 10
24.2978367399
 20
246.4988195622
 30
0.0
 10
24.6530215096
 20
246.5188325728
 30
0.0
 10
24.8275262586
 20
246.5099307786
 30
0.0
  0
SPLINE
  5
3D8
100
AcDbEntity
  8
0
100
AcDbSpline
 62
7
  6
CONTINUOUS
 70
0
 71
3
 72
9
 73
5
 74
0
 42
0.0000001
 43
0.0000001
 44
0.0000000001
 40
0.0
 40
0.0
 40
0.0
 40
0.0
 40
0.5042321464
 40
1.0
 40
1.0
 40
1.0
 40
1.0
 10
25.6264680411
 20
243.4139706399
 30
0.0
 10
25.6336046199
 20
243.6964208134
 30
0.0
 10
25.6230460622
 20
244.2574861254
 30
0.0
 10
25.5619924279
 20
244.8154000045
 30
0.0
 10
25.5185678474
 20
245.0897824599
 30
0.0
  0
LINE
  5
3D9
100
AcDbEntity
  8
0
100
AcDbLine
 62
7
  6
CONTINUOUS
 10
25.7098062979
 20
242.4753015404
 11
24.9725015267
 21
242.546809368
  0
SPLINE
  5
3DA
100
AcDbEntity
  8
0
100
AcDbSpline
 62
7
  6
CONTINUOUS
 70
0
 71
3
 72
9
 73
5
 74
0
 42
0.0000001
 43
0.0000001
 44
0.0000000001
 40
0.0
 40
0.0
 40
0.0
 40
0.0
 40
0.5011382092
 40
1.0
 40
1.0
 40
1.0
 40
1.0
 10
25.7098062979
 20
242.4753015404
 30
0.0
 10
25.7617289878
 20
242.6240288403
 30
0.0
 10
25.8292636283
 20
242.9345240415
 30
0.0
 10
25.8213038616
 20
243.2522611844
 30
0.0
 10
25.7979514363
 20
243.4073273014
 30
0.0
  0
SPLINE
  5
3DB
100
AcDbEntity
  8
0
100
AcDbSpline
 62
7
  6
CONTINUOUS
 70
0
 71
3
 72
9
 73
5
 74
0
 42
0.0000001
 43
0.0000001
 44
0.0000000001
 40
0.0
 40
0.0
 40
0.0
 40
0.0
 40
0.4985511435
 40
1.0
 40
1.0
 40
1.0
 40
1.0
 10
25.0638515693
 20
243.4893416777
 30
0.0
 10
25.1010170482
 20
243.3342475662
 30
0.0
 10
25.1217784879
 20
243.008451385
 30
0.0
 10
25.0385925645
 20
242.6929735416
 30
0.0
 10
24.9725015267
 20
242.546809368
 30
0.0
  0
SPLINE
  5
3DC
100
AcDbEntity
  8
0
100
AcDbSpline
 62
7
  6
CONTINUOUS
 70
0
 71
3
 72
24
 73
20
 74
0
 42
0.0000001
 43
0.0000001
 44
0.0000000001
 40
0.0
 40
0.0
 40
0.0
 40
0.0
 40
0.0585511384
 40
0.1188566366
 40
0.1810585756
 40
0.24506605
 40
0.3105931761
 40
0.377198896
 40
0.4443386159
 40
0.5114179548
 40
0.577847711
 40
0.6430997931
 40
0.7067606816
 40
0.7685806243
 40
0.8285148461
 40
0.8867473532
 40
0.9153807437
 40
0.9437590347
 40
1.0
 40
1.0
 40
1.0
 40
1.0
 10
-28.20068276
 20
146.8236203329
 30
0.0
 10
-28.3677710947
 20
146.7707122015
 30
0.0
 10
-28.6970574927
 20
146.629381752
 30
0.0
 10
-29.149567466
 20
146.3261554365
 30
0.0
 10
-29.5548007671
 20
145.9382339436
 30
0.0
 10
-29.9008999973
 20
145.4773902021
 30
0.0
 10
-30.1780810168
 20
144.9572765331
 30
0.0
 10
-30.3784257972
 20
144.3931710797
 30
0.0
 10
-30.49620443
 20
143.8015588887
 30
0.0
 10
-30.5280050347
 20
143.1996972471
 30
0.0
 10
-30.4728535492
 20
142.6051367559
 30
0.0
 10
-30.3322331494
 20
142.0352269883
 30
0.0
 10
-30.1100340461
 20
141.5066554756
 30
0.0
 10
-29.8123898494
 20
141.0350037997
 30
0.0
 10
-29.4477740779
 20
140.634462207
 30
0.0
 10
-29.0943058633
 20
140.3684381183
 30
0.0
 10
-28.7904991717
 20
140.2038960065
 30
0.0
 10
-28.4773861156
 20
140.0729037482
 30
0.0
 10
-28.2292504288
 20
140.0113859355
 30
0.0
 10
-28.0625271543
 20
139.9880413089
 30
0.0
  0
SPLINE
  5
3DD
100
AcDbEntity
  8
0
100
AcDbSpline
 62
7
  6
CONTINUOUS
 70
0
 71
3
 72
9
 73
5
 74
0
 42
0.0000001
 43
0.0000001
 44
0.0000000001
 40
0.0
 40
0.0
 40
0.0
 40
0.0
 40
0.2418216274
 40
1.0
 40
1.0
 40
1.0
 40
1.0
 10
-23.9416964411
 20
144.7113158164
 30
0.0
 10
-23.9493699242
 20
144.7054273589
 30
0.0
 10
-23.9812744858
 20
144.6813021451
 30
0.0
 10
-24.0138351237
 20
144.6580487457
 30
0.0
 10
-24.0388096372
 20
144.6408461384
 30
0.0
  0
SPLINE
  5
3DE
100
AcDbEntity
  8
0
100
AcDbSpline
 62
7
  6
CONTINUOUS
 70
0
 71
3
 72
12
 73
8
 74
0
 42
0.0000001
 43
0.0000001
 44
0.0000000001
 40
0.0
 40
0.0
 40
0.0
 40
0.0
 40
0.0929881752
 40
0.1957133695
 40
0.4294626513
 40
0.6987459787
 40
1.0
 40
1.0
 40
1.0
 40
1.0
 10
-24.0388096372
 20
144.6408461384
 30
0.0
 10
-24.0872183353
 20
144.6075019122
 30
0.0
 10
-24.1914081002
 20
144.5406419092
 30
0.0
 10
-24.4270506962
 20
144.4056693153
 30
0.0
 10
-24.7711851673
 20
144.236877941
 30
0.0
 10
-25.2402843415
 20
144.0403381588
 30
0.0
 10
-25.5792030906
 20
143.9166280235
 30
0.0
 10
-25.7592588797
 20
143.8546201736
 30
0.0
  0
SPLINE
  5
3DF
100
AcDbEntity
  8
0
100
AcDbSpline
 62
7
  6
CONTINUOUS
 70
0
 71
3
 72
11
 73
7
 74
0
 42
0.0000001
 43
0.0000001
 44
0.0000000001
 40
0.0
 40
0.0
 40
0.0
 40
0.0
 40
0.2383577754
 40
0.4875582421
 40
0.7430163785
 40
1.0
 40
1.0
 40
1.0
 40
1.0
 10
-26.5743889617
 20
143.5965111344
 30
0.0
 10
-26.8128383183
 20
143.5269035845
 30
0.0
 10
-27.3031557746
 20
143.3932311581
 30
0.0
 10
-28.0562836902
 20
143.2128279022
 30
0.0
 10
-28.8333282036
 20
143.0503968885
 30
0.0
 10
-29.3590181842
 20
142.9558847694
 30
0.0
 10
-29.6232540353
 20
142.9122638562
 30
0.0
  0
SPLINE
  5
3E0
100
AcDbEntity
  8
0
100
AcDbSpline
 62
7
  6
CONTINUOUS
 70
0
 71
3
 72
15
 73
11
 74
0
 42
0.0000001
 43
0.0000001
 44
0.0000000001
 40
0.0
 40
0.0
 40
0.0
 40
0.0
 40
0.1180061053
 40
0.2368683847
 40
0.3573677477
 40
0.4801449463
 40
0.6056553858
 40
0.7341458879
 40
0.8656494786
 40
1.0
 40
1.0
 40
1.0
 40
1.0
 10
-26.2079392101
 20
146.7966156286
 30
0.0
 10
-26.0814836789
 20
146.7789075976
 30
0.0
 10
-25.8300153824
 20
146.7232860151
 30
0.0
 10
-25.4686526243
 20
146.5815670848
 30
0.0
 10
-25.1285328241
 20
146.3839735547
 30
0.0
 10
-24.8156313686
 20
146.1340893254
 30
0.0
 10
-24.5352207524
 20
145.8363546843
 30
0.0
 10
-24.2920007635
 20
145.4959604677
 30
0.0
 10
-24.0900290292
 20
145.1188603452
 30
0.0
 10
-23.9860672417
 20
144.8497539368
 30
0.0
 10
-23.9416964411
 20
144.7113158164
 30
0.0
  0
SPLINE
  5
3E1
100
AcDbEntity
  8
0
100
AcDbSpline
 62
7
  6
CONTINUOUS
 70
0
 71
3
 72
9
 73
5
 74
0
 42
0.0000001
 43
0.0000001
 44
0.0000000001
 40
0.0
 40
0.0
 40
0.0
 40
0.0
 40
0.4962770358
 40
1.0
 40
1.0
 40
1.0
 40
1.0
 10
-27.0916285652
 20
146.9203771329
 30
0.0
 10
-27.2751584843
 20
146.9460750293
 30
0.0
 10
-27.6521119823
 20
146.9555307871
 30
0.0
 10
-28.0213573776
 20
146.880403297
 30
0.0
 10
-28.20068276
 20
146.8236203329
 30
0.0
  0
SPLINE
  5
3E2
100
AcDbEntity
  8
0
100
AcDbSpline
 62
7
  6
CONTINUOUS
 70
0
 71
3
 72
15
 73
11
 74
0
 42
0.0000001
 43
0.0000001
 44
0.0000000001
 40
0.0
 40
0.0
 40
0.0
 40
0.0
 40
0.1307599607
 40
0.2619220035
 40
0.3922488606
 40
0.5205725421
 40
0.6459342057
 40
0.7676938412
 40
0.8856258074
 40
1.0
 40
1.0
 40
1.0
 40
1.0
 10
-23.7635236125
 20
143.7486269272
 30
0.0
 10
-23.7511545331
 20
143.5417755202
 30
0.0
 10
-23.7579136538
 20
143.1249071582
 30
0.0
 10
-23.8603705426
 20
142.509588275
 30
0.0
 10
-24.0519570795
 20
141.9198064537
 30
0.0
 10
-24.3268580021
 20
141.3741333406
 30
0.0
 10
-24.6766744783
 20
140.889610244
 30
0.0
 10
-25.0908894006
 20
140.4815632909
 30
0.0
 10
-25.5565916953
 20
140.1632165331
 30
0.0
 10
-25.8969862044
 20
140.0157502744
 30
0.0
 10
-26.0697839236
 20
139.9610342797
 30
0.0
  0
SPLINE
  5
3E3
100
AcDbEntity
  8
0
100
AcDbSpline
 62
7
  6
CONTINUOUS
 70
0
 71
3
 72
9
 73
5
 74
0
 42
0.0000001
 43
0.0000001
 44
0.0000000001
 40
0.0
 40
0.0
 40
0.0
 40
0.0
 40
0.5037203558
 40
1.0
 40
1.0
 40
1.0
 40
1.0
 10
-26.0697839236
 20
139.9610342797
 30
0.0
 10
-26.2491084146
 20
139.9042515979
 30
0.0
 10
-26.6183536326
 20
139.8291265601
 30
0.0
 10
-26.9953078554
 20
139.8385746953
 30
0.0
 10
-27.1788384378
 20
139.8642751547
 30
0.0
  0
SPLINE
  5
3E4
100
AcDbEntity
  8
0
100
AcDbSpline
 62
7
  6
CONTINUOUS
 70
0
 71
3
 72
9
 73
5
 74
0
 42
0.0000001
 43
0.0000001
 44
0.0000000001
 40
0.0
 40
0.0
 40
0.0
 40
0.0
 40
0.513909898
 40
1.0
 40
1.0
 40
1.0
 40
1.0
 10
-26.396216133
 20
142.6338222452
 30
0.0
 10
-26.3585396533
 20
142.3697205385
 30
0.0
 10
-26.3031162722
 20
141.8530613676
 30
0.0
 10
-26.2880537207
 20
141.3334712394
 30
0.0
 10
-26.2923298964
 20
141.0811733863
 30
0.0
  0
SPLINE
  5
3E5
100
AcDbEntity
  8
0
100
AcDbSpline
 62
7
  6
CONTINUOUS
 70
0
 71
3
 72
9
 73
5
 74
0
 42
0.0000001
 43
0.0000001
 44
0.0000000001
 40
0.0
 40
0.0
 40
0.0
 40
0.0
 40
0.2475366593
 40
1.0
 40
1.0
 40
1.0
 40
1.0
 10
-24.0374439586
 20
144.641931043
 30
0.0
 10
-24.0167216671
 20
144.5714569046
 30
0.0
 10
-23.9413275994
 20
144.2843586102
 30
0.0
 10
-23.8991775533
 20
143.9886576722
 30
0.0
 10
-23.8858488981
 20
143.7657590236
 30
0.0
  0
SPLINE
  5
3E6
100
AcDbEntity
  8
0
100
AcDbSpline
 62
7
  6
CONTINUOUS
 70
0
 71
3
 72
9
 73
5
 74
0
 42
0.0000001
 43
0.0000001
 44
0.0000000001
 40
0.0
 40
0.0
 40
0.0
 40
0.0
 40
0.2530791576
 40
1.0
 40
1.0
 40
1.0
 40
1.0
 10
-28.1987112881
 20
143.1854869429
 30
0.0
 10
-28.1970103111
 20
143.1445174639
 30
0.0
 10
-28.1851471963
 20
142.9828993752
 30
0.0
 10
-28.1525180164
 20
142.82271435
 30
0.0
 10
-28.1163140727
 20
142.7072379031
 30
0.0
  0
SPLINE
  5
3E7
100
AcDbEntity
  8
0
100
AcDbSpline
 62
7
  6
CONTINUOUS
 70
0
 71
3
 72
9
 73
5
 74
0
 42
0.0000001
 43
0.0000001
 44
0.0000000001
 40
0.0
 40
0.0
 40
0.0
 40
0.0
 40
0.5076258492
 40
1.0
 40
1.0
 40
1.0
 40
1.0
 10
-27.4721124224
 20
142.8424245159
 30
0.0
 10
-27.5700501921
 20
142.8069935577
 30
0.0
 10
-27.7618442264
 20
142.7340679683
 30
0.0
 10
-27.952841136
 20
142.6591424942
 30
0.0
 10
-28.0468088487
 20
142.6220586548
 30
0.0
  0
SPLINE
  5
3E8
100
AcDbEntity
  8
0
100
AcDbSpline
 62
7
  6
CONTINUOUS
 70
0
 71
3
 72
9
 73
5
 74
0
 42
0.0000001
 43
0.0000001
 44
0.0000000001
 40
0.0
 40
0.0
 40
0.0
 40
0.0
 40
0.4970926467
 40
1.0
 40
1.0
 40
1.0
 40
1.0
 10
-26.2886297871
 20
145.4669188394
 30
0.0
 10
-26.355078052
 20
145.4630897478
 30
0.0
 10
-26.4883877781
 20
145.4468248235
 30
0.0
 10
-26.6186061593
 20
145.4140711828
 30
0.0
 10
-26.6828017757
 20
145.3937437906
 30
0.0
  0
SPLINE
  5
3E9
100
AcDbEntity
  8
0
100
AcDbSpline
 62
7
  6
CONTINUOUS
 70
0
 71
3
 72
9
 73
5
 74
0
 42
0.0000001
 43
0.0000001
 44
0.0000000001
 40
0.0
 40
0.0
 40
0.0
 40
0.0
 40
0.2470036779
 40
1.0
 40
1.0
 40
1.0
 40
1.0
 10
-26.6828017757
 20
145.3937437906
 30
0.0
 10
-26.715265118
 20
145.383464349
 30
0.0
 10
-26.8454086811
 20
145.337860716
 30
0.0
 10
-26.969948872
 20
145.2765199844
 30
0.0
 10
-27.05890634
 20
145.2230157652
 30
0.0
  0
SPLINE
  5
3EA
100
AcDbEntity
  8
0
100
AcDbSpline
 62
7
  6
CONTINUOUS
 70
0
 71
3
 72
15
 73
11
 74
0
 42
0.0000001
 43
0.0000001
 44
0.0000000001
 40
0.0
 40
0.0
 40
0.0
 40
0.0
 40
0.1180061053
 40
0.2368683847
 40
0.3573677477
 40
0.4801449463
 40
0.6056553858
 40
0.7341458879
 40
0.8656494786
 40
1.0
 40
1.0
 40
1.0
 40
1.0
 10
-27.1788384378
 20
139.8642751547
 30
0.0
 10
-27.3052939689
 20
139.8819831858
 30
0.0
 10
-27.5567622654
 20
139.9376047683
 30
0.0
 10
-27.9181250235
 20
140.0793236986
 30
0.0
 10
-28.2582448237
 20
140.2769172287
 30
0.0
 10
-28.5711462792
 20
140.526801458
 30
0.0
 10
-28.8515568954
 20
140.8245360991
 30
0.0
 10
-29.0947768843
 20
141.1649303157
 30
0.0
 10
-29.2967486186
 20
141.5420304382
 30
0.0
 10
-29.4007104061
 20
141.8111368466
 30
0.0
 10
-29.4450812067
 20
141.949574967
 30
0.0
  0
SPLINE
  5
3EB
100
AcDbEntity
  8
0
100
AcDbSpline
 62
7
  6
CONTINUOUS
 70
0
 71
3
 72
9
 73
5
 74
0
 42
0.0000001
 43
0.0000001
 44
0.0000000001
 40
0.0
 40
0.0
 40
0.0
 40
0.0
 40
0.4880132275
 40
1.0
 40
1.0
 40
1.0
 40
1.0
 10
-25.5220668476
 20
141.3250139463
 30
0.0
 10
-25.5054191955
 20
141.5798481037
 30
0.0
 10
-25.5003918411
 20
142.1041848166
 30
0.0
 10
-25.5460626647
 20
142.6263076016
 30
0.0
 10
-25.5810860511
 20
142.8919312844
 30
0.0
  0
SPLINE
  5
3EC
100
AcDbEntity
  8
0
100
AcDbSpline
 62
7
  6
CONTINUOUS
 70
0
 71
3
 72
13
 73
9
 74
0
 42
0.0000001
 43
0.0000001
 44
0.0000000001
 40
0.0
 40
0.0
 40
0.0
 40
0.0
 40
0.3083864432
 40
0.5804031301
 40
0.701424071
 40
0.8118728728
 40
0.9114506382
 40
1.0
 40
1.0
 40
1.0
 40
1.0
 10
-25.5810860511
 20
142.8919312844
 30
0.0
 10
-25.3851043907
 20
142.9594237069
 30
0.0
 10
-25.0187320856
 20
143.0938381301
 30
0.0
 10
-24.5848031791
 20
143.2789904085
 30
0.0
 10
-24.2810761731
 20
143.4284033731
 30
0.0
 10
-24.0856130186
 20
143.534895399
 30
0.0
 10
-23.9143631485
 20
143.6396983896
 30
0.0
 10
-23.8107406555
 20
143.7123936356
 30
0.0
 10
-23.7635236125
 20
143.7486269272
 30
0.0
  0
SPLINE
  5
3ED
100
AcDbEntity
  8
0
100
AcDbSpline
 62
7
  6
CONTINUOUS
 70
0
 71
3
 72
11
 73
7
 74
0
 42
0.0000001
 43
0.0000001
 44
0.0000000001
 40
0.0
 40
0.0
 40
0.0
 40
0.0
 40
0.2569833916
 40
0.5124414722
 40
0.761642089
 40
1.0
 40
1.0
 40
1.0
 40
1.0
 10
-29.4450812067
 20
141.949574967
 30
0.0
 10
-29.1808455921
 20
141.9931958412
 30
0.0
 10
-28.6551559033
 20
142.0877079002
 30
0.0
 10
-27.8781115238
 20
142.2501388637
 30
0.0
 10
-27.1249833702
 20
142.4305421559
 30
0.0
 10
-26.6346656252
 20
142.5642146557
 30
0.0
 10
-26.396216133
 20
142.6338222452
 30
0.0
  0
SPLINE
  5
3EE
100
AcDbEntity
  8
0
100
AcDbSpline
 62
7
  6
CONTINUOUS
 70
0
 71
3
 72
15
 73
11
 74
0
 42
0.0000001
 43
0.0000001
 44
0.0000000001
 40
0.0
 40
0.0
 40
0.0
 40
0.0
 40
0.1307599607
 40
0.2619220035
 40
0.3922488606
 40
0.5205725421
 40
0.6459342057
 40
0.7676938412
 40
0.8856258074
 40
1.0
 40
1.0
 40
1.0
 40
1.0
 10
-29.6232540353
 20
142.9122638562
 30
0.0
 10
-29.6356231148
 20
143.1191152632
 30
0.0
 10
-29.628863994
 20
143.5359836252
 30
0.0
 10
-29.5264071052
 20
144.1513025084
 30
0.0
 10
-29.3348205683
 20
144.7410843297
 30
0.0
 10
-29.0599196457
 20
145.2867574428
 30
0.0
 10
-28.7101031695
 20
145.7712805394
 30
0.0
 10
-28.2958882472
 20
146.1793274925
 30
0.0
 10
-27.8301859525
 20
146.4976742503
 30
0.0
 10
-27.4897914434
 20
146.645140509
 30
0.0
 10
-27.3169937242
 20
146.6998565037
 30
0.0
  0
SPLINE
  5
3EF
100
AcDbEntity
  8
0
100
AcDbSpline
 62
7
  6
CONTINUOUS
 70
0
 71
3
 72
9
 73
5
 74
0
 42
0.0000001
 43
0.0000001
 44
0.0000000001
 40
0.0
 40
0.0
 40
0.0
 40
0.0
 40
0.497092686
 40
1.0
 40
1.0
 40
1.0
 40
1.0
 10
-26.292343229
 20
141.0811160701
 30
0.0
 10
-26.2258949307
 20
141.0849451974
 30
0.0
 10
-26.0925851373
 20
141.1012100452
 30
0.0
 10
-25.9623666999
 20
141.1339637295
 30
0.0
 10
-25.8981710595
 20
141.1542911293
 30
0.0
  0
SPLINE
  5
3F0
100
AcDbEntity
  8
0
100
AcDbSpline
 62
7
  6
CONTINUOUS
 70
0
 71
3
 72
9
 73
5
 74
0
 42
0.0000001
 43
0.0000001
 44
0.0000000001
 40
0.0
 40
0.0
 40
0.0
 40
0.0
 40
0.247003677
 40
1.0
 40
1.0
 40
1.0
 40
1.0
 10
-25.8981710595
 20
141.1542911293
 30
0.0
 10
-25.8657077172
 20
141.1645705709
 30
0.0
 10
-25.7355641532
 20
141.2101742025
 30
0.0
 10
-25.6110239695
 20
141.2715149458
 30
0.0
 10
-25.5220664952
 20
141.3250191547
 30
0.0
  0
SPLINE
  5
3F1
100
AcDbEntity
  8
0
100
AcDbSpline
 62
7
  6
CONTINUOUS
 70
0
 71
3
 72
9
 73
5
 74
0
 42
0.0000001
 43
0.0000001
 44
0.0000000001
 40
0.0
 40
0.0
 40
0.0
 40
0.0
 40
0.4967273339
 40
1.0
 40
1.0
 40
1.0
 40
1.0
 10
-26.9106235207
 20
143.020218667
 30
0.0
 10
-26.788065943
 20
143.054408594
 30
0.0
 10
-26.5405352919
 20
143.1203481379
 30
0.0
 10
-26.2926211831
 20
143.1847744223
 30
0.0
 10
-26.167810292
 20
143.2170391651
 30
0.0
  0
SPLINE
  5
3F2
100
AcDbEntity
  8
0
100
AcDbSpline
 62
7
  6
CONTINUOUS
 70
0
 71
3
 72
9
 73
5
 74
0
 42
0.0000001
 43
0.0000001
 44
0.0000000001
 40
0.0
 40
0.0
 40
0.0
 40
0.0
 40
0.5037203558
 40
1.0
 40
1.0
 40
1.0
 40
1.0
 10
-27.3169937242
 20
146.6998565037
 30
0.0
 10
-27.1376692332
 20
146.7566391855
 30
0.0
 10
-26.7684240153
 20
146.8317642233
 30
0.0
 10
-26.3914697924
 20
146.822316088
 30
0.0
 10
-26.2079392101
 20
146.7966156286
 30
0.0
  0
SPLINE
  5
3F3
100
AcDbEntity
  8
0
100
AcDbSpline
 62
7
  6
CONTINUOUS
 70
0
 71
3
 72
9
 73
5
 74
0
 42
0.0000001
 43
0.0000001
 44
0.0000000001
 40
0.0
 40
0.0
 40
0.0
 40
0.0
 40
0.2526323852
 40
1.0
 40
1.0
 40
1.0
 40
1.0
 10
-28.1163140727
 20
142.7072379031
 30
0.0
 10
-28.1095408858
 20
142.6856340811
 30
0.0
 10
-28.0810804217
 20
142.6006475371
 30
0.0
 10
-28.0460012284
 20
142.5178597629
 30
0.0
 10
-28.0161086881
 20
142.4579218948
 30
0.0
  0
SPLINE
  5
3F4
100
AcDbEntity
  8
0
100
AcDbSpline
 62
7
  6
CONTINUOUS
 70
0
 71
3
 72
9
 73
5
 74
0
 42
0.0000001
 43
0.0000001
 44
0.0000000001
 40
0.0
 40
0.0
 40
0.0
 40
0.0
 40
0.5042855821
 40
1.0
 40
1.0
 40
1.0
 40
1.0
 10
-25.4371467024
 20
143.2745441923
 30
0.0
 10
-25.4281780378
 20
143.3880492026
 30
0.0
 10
-25.4298795084
 20
143.6151169866
 30
0.0
 10
-25.4717133286
 20
143.8384277588
 30
0.0
 10
-25.5025465415
 20
143.9460205061
 30
0.0
  0
SPLINE
  5
3F5
100
AcDbEntity
  8
0
100
AcDbSpline
 62
7
  6
CONTINUOUS
 70
0
 71
3
 72
8
 73
4
 74
0
 42
0.0000001
 43
0.0000001
 44
0.0000000001
 40
0.0
 40
0.0
 40
0.0
 40
0.0
 40
1.0
 40
1.0
 40
1.0
 40
1.0
 10
-28.0468088487
 20
142.6220586548
 30
0.0
 10
-28.0392710854
 20
142.5669103548
 30
0.0
 10
-28.0283120254
 20
142.5122287215
 30
0.0
 10
-28.0161086881
 20
142.4579218948
 30
0.0
  0
SPLINE
  5
3F6
100
AcDbEntity
  8
0
100
AcDbSpline
 62
7
  6
CONTINUOUS
 70
0
 71
3
 72
9
 73
5
 74
0
 42
0.0000001
 43
0.0000001
 44
0.0000000001
 40
0.0
 40
0.0
 40
0.0
 40
0.0
 40
0.4948900577
 40
1.0
 40
1.0
 40
1.0
 40
1.0
 10
-26.2157657399
 20
143.9006091826
 30
0.0
 10
-26.18045444
 20
143.7923699472
 30
0.0
 10
-26.1370923814
 20
143.5637731288
 30
0.0
 10
-26.1486654002
 20
143.3316559113
 30
0.0
 10
-26.167810292
 20
143.2170391651
 30
0.0
  0
SPLINE
  5
3F7
100
AcDbEntity
  8
0
100
AcDbSpline
 62
7
  6
CONTINUOUS
 70
0
 71
3
 72
9
 73
5
 74
0
 42
0.0000001
 43
0.0000001
 44
0.0000000001
 40
0.0
 40
0.0
 40
0.0
 40
0.0
 40
0.4961250069
 40
1.0
 40
1.0
 40
1.0
 40
1.0
 10
-29.5674064924
 20
141.9667070634
 30
0.0
 10
-29.6169203097
 20
142.1211915379
 30
0.0
 10
-29.6964540427
 20
142.4393870828
 30
0.0
 10
-29.7357447754
 20
142.7649302289
 30
0.0
 10
-29.745579321
 20
142.9293959526
 30
0.0
  0
SPLINE
  5
3F8
100
AcDbEntity
  8
0
100
AcDbSpline
 62
7
  6
CONTINUOUS
 70
0
 71
3
 72
21
 73
17
 74
0
 42
0.0000001
 43
0.0000001
 44
0.0000000001
 40
0.0
 40
0.0
 40
0.0
 40
0.0
 40
0.0584322135
 40
0.1186022655
 40
0.1806828891
 40
0.2446061805
 40
0.3763532371
 40
0.5104116658
 40
0.5769927785
 40
0.6424129941
 40
0.7062438315
 40
0.7682225679
 40
0.8282954707
 40
0.8866429665
 40
0.9436769111
 40
1.0
 40
1.0
 40
1.0
 40
1.0
 10
-40.5214532184
 20
229.4781611193
 30
0.0
 10
-40.6906426535
 20
229.4293413072
 30
0.0
 10
-41.0248766925
 20
229.2954115288
 30
0.0
 10
-41.4859768457
 20
229.0005239599
 30
0.0
 10
-41.9005078305
 20
228.6182428585
 30
0.0
 10
-42.3788916819
 20
228.0025251428
 30
0.0
 10
-42.7952015428
 20
227.0825046491
 30
0.0
 10
-42.9318077075
 20
226.0752155807
 30
0.0
 10
-42.8647484556
 20
225.2737207954
 30
0.0
 10
-42.7275193838
 20
224.6972666463
 30
0.0
 10
-42.5071048827
 20
224.162109488
 30
0.0
 10
-42.209711107
 20
223.6841553724
 30
0.0
 10
-41.8438314884
 20
223.277988241
 30
0.0
 10
-41.4199873903
 20
222.9562770787
 30
0.0
 10
-40.9511051691
 20
222.7294848777
 30
0.0
 10
-40.6167500549
 20
222.6463483499
 30
0.0
 10
-40.448654164
 20
222.6228090967
 30
0.0
  0
SPLINE
  5
3F9
100
AcDbEntity
  8
0
100
AcDbSpline
 62
7
  6
CONTINUOUS
 70
0
 71
3
 72
9
 73
5
 74
0
 42
0.0000001
 43
0.0000001
 44
0.0000000001
 40
0.0
 40
0.0
 40
0.0
 40
0.0
 40
0.2413899883
 40
1.0
 40
1.0
 40
1.0
 40
1.0
 10
-36.3052003054
 20
227.2729247904
 30
0.0
 10
-36.3131024164
 20
227.2673328061
 30
0.0
 10
-36.3460024365
 20
227.2443993288
 30
0.0
 10
-36.3795242814
 20
227.2223625074
 30
0.0
 10
-36.4052228968
 20
227.2060795546
 30
0.0
  0
SPLINE
  5
3FA
100
AcDbEntity
  8
0
100
AcDbSpline
 62
7
  6
CONTINUOUS
 70
0
 71
3
 72
12
 73
8
 74
0
 42
0.0000001
 43
0.0000001
 44
0.0000000001
 40
0.0
 40
0.0
 40
0.0
 40
0.0
 40
0.0924416654
 40
0.1947991476
 40
0.4282984497
 40
0.6979068079
 40
1.0
 40
1.0
 40
1.0
 40
1.0
 10
-36.4052228968
 20
227.2060795546
 30
0.0
 10
-36.4541326196
 20
227.175089764
 30
0.0
 10
-36.5592770028
 20
227.1130439407
 30
0.0
 10
-36.7967214931
 20
226.9880391209
 30
0.0
 10
-37.1428448157
 20
226.8322252741
 30
0.0
 10
-37.6138476502
 20
226.651437722
 30
0.0
 10
-37.9536401997
 20
226.538069247
 30
0.0
 10
-38.13414322
 20
226.4813100434
 30
0.0
  0
SPLINE
  5
3FB
100
AcDbEntity
  8
0
100
AcDbSpline
 62
7
  6
CONTINUOUS
 70
0
 71
3
 72
11
 73
7
 74
0
 42
0.0000001
 43
0.0000001
 44
0.0000000001
 40
0.0
 40
0.0
 40
0.0
 40
0.0
 40
0.2380947468
 40
0.4872231677
 40
0.7427772623
 40
1.0
 40
1.0
 40
1.0
 40
1.0
 10
-38.9530857777
 20
226.2450031972
 30
0.0
 10
-39.1927057749
 20
226.1813973416
 30
0.0
 10
-39.68527917
 20
226.0595371447
 30
0.0
 10
-40.4412910073
 20
225.8958941081
 30
0.0
 10
-41.2210763628
 20
225.7493630245
 30
0.0
 10
-41.748334304
 20
225.6647262392
 30
0.0
 10
-42.0133313275
 20
225.6258368149
 30
0.0
  0
SPLINE
  5
3FC
100
AcDbEntity
  8
0
100
AcDbSpline
 62
7
  6
CONTINUOUS
 70
0
 71
3
 72
15
 73
11
 74
0
 42
0.0000001
 43
0.0000001
 44
0.0000000001
 40
0.0
 40
0.0
 40
0.0
 40
0.0
 40
0.1177939327
 40
0.2364787364
 40
0.3568645829
 40
0.4796093978
 40
0.6051714959
 40
0.7337868385
 40
0.8654625332
 40
1.0
 40
1.0
 40
1.0
 40
1.0
 10
-38.5940667157
 20
229.4313799053
 30
0.0
 10
-38.4648670637
 20
229.4132886694
 30
0.0
 10
-38.2079460689
 20
229.35599926
 30
0.0
 10
-37.8392775118
 20
229.2092544503
 30
0.0
 10
-37.493077325
 20
229.0043148302
 30
0.0
 10
-37.1756909485
 20
228.7450644751
 30
0.0
 10
-36.8926903628
 20
228.4363139005
 30
0.0
 10
-36.6490195286
 20
228.0836785809
 30
0.0
 10
-36.4489073514
 20
227.6935898233
 30
0.0
 10
-36.347765389
 20
227.4157198293
 30
0.0
 10
-36.3052003054
 20
227.2729247904
 30
0.0
  0
SPLINE
  5
3FD
100
AcDbEntity
  8
0
100
AcDbSpline
 62
7
  6
CONTINUOUS
 70
0
 71
3
 72
9
 73
5
 74
0
 42
0.0000001
 43
0.0000001
 44
0.0000000001
 40
0.0
 40
0.0
 40
0.0
 40
0.0
 40
0.4966878392
 40
1.0
 40
1.0
 40
1.0
 40
1.0
 10
-39.4777560852
 20
229.5551413378
 30
0.0
 10
-39.6503047456
 20
229.5793041331
 30
0.0
 10
-40.0039424509
 20
229.5906083167
 30
0.0
 10
-40.3518181031
 20
229.527109533
 30
0.0
 10
-40.5214532184
 20
229.4781611193
 30
0.0
  0
SPLINE
  5
3FE
100
AcDbEntity
  8
0
100
AcDbSpline
 62
7
  6
CONTINUOUS
 70
0
 71
3
 72
15
 73
11
 74
0
 42
0.0000001
 43
0.0000001
 44
0.0000000001
 40
0.0
 40
0.0
 40
0.0
 40
0.0
 40
0.1311752736
 40
0.2625940361
 40
0.3930200032
 40
0.5213019955
 40
0.6465136035
 40
0.768061666
 40
0.8857790064
 40
1.0
 40
1.0
 40
1.0
 40
1.0
 10
-36.14570085
 20
226.3045859612
 30
0.0
 10
-36.1373131653
 20
226.0973428274
 30
0.0
 10
-36.1519957704
 20
225.6805534517
 30
0.0
 10
-36.2660339651
 20
225.0674504344
 30
0.0
 10
-36.4686053319
 20
224.4822803316
 30
0.0
 10
-36.7535610124
 20
223.9434771234
 30
0.0
 10
-37.1122011563
 20
223.4678811591
 30
0.0
 10
-37.5337407611
 20
223.0705662509
 30
0.0
 10
-38.0050282265
 20
222.764448855
 30
0.0
 10
-38.3477426969
 20
222.6260964165
 30
0.0
 10
-38.5212679949
 20
222.576025486
 30
0.0
  0
SPLINE
  5
3FF
100
AcDbEntity
  8
0
100
AcDbSpline
 62
7
  6
CONTINUOUS
 70
0
 71
3
 72
9
 73
5
 74
0
 42
0.0000001
 43
0.0000001
 44
0.0000000001
 40
0.0
 40
0.0
 40
0.0
 40
0.0
 40
0.5033101734
 40
1.0
 40
1.0
 40
1.0
 40
1.0
 10
-38.5212679949
 20
222.576025486
 30
0.0
 10
-38.6909024739
 20
222.5270772559
 30
0.0
 10
-39.0387782701
 20
222.4635792076
 30
0.0
 10
-39.3924158577
 20
222.4748815394
 30
0.0
 10
-39.5649654618
 20
222.4990428708
 30
0.0
  0
SPLINE
  5
400
100
AcDbEntity
  8
0
100
AcDbSpline
 62
7
  6
CONTINUOUS
 70
0
 71
3
 72
9
 73
5
 74
0
 42
0.0000001
 43
0.0000001
 44
0.0000000001
 40
0.0
 40
0.0
 40
0.0
 40
0.0
 40
0.5134268009
 40
1.0
 40
1.0
 40
1.0
 40
1.0
 10
-38.7935863223
 20
225.2766643681
 30
0.0
 10
-38.7610408025
 20
225.0107246828
 30
0.0
 10
-38.7157634639
 20
224.4903374109
 30
0.0
 10
-38.7110978458
 20
223.9678257402
 30
0.0
 10
-38.7204277594
 20
223.7140866091
 30
0.0
  0
SPLINE
  5
401
100
AcDbEntity
  8
0
100
AcDbSpline
 62
7
  6
CONTINUOUS
 70
0
 71
3
 72
9
 73
5
 74
0
 42
0.0000001
 43
0.0000001
 44
0.0000000001
 40
0.0
 40
0.0
 40
0.0
 40
0.0
 40
0.2476571309
 40
1.0
 40
1.0
 40
1.0
 40
1.0
 10
-36.4038248996
 20
227.2070890577
 30
0.0
 10
-36.3843028093
 20
227.1356757819
 30
0.0
 10
-36.3138955852
 20
226.8450693232
 30
0.0
 10
-36.2771210821
 20
226.5464362326
 30
0.0
 10
-36.2680261356
 20
226.3217180576
 30
0.0
  0
SPLINE
  5
402
100
AcDbEntity
  8
0
100
AcDbSpline
 62
7
  6
CONTINUOUS
 70
0
 71
3
 72
9
 73
5
 74
0
 42
0.0000001
 43
0.0000001
 44
0.0000000001
 40
0.0
 40
0.0
 40
0.0
 40
0.0
 40
0.2532694763
 40
1.0
 40
1.0
 40
1.0
 40
1.0
 10
-40.5862816824
 20
225.8710242851
 30
0.0
 10
-40.5855887282
 20
225.8257232972
 30
0.0
 10
-40.5766131426
 20
225.64702477
 30
0.0
 10
-40.5424076358
 20
225.4694643927
 30
0.0
 10
-40.5024408386
 20
225.3420041461
 30
0.0
  0
SPLINE
  5
403
100
AcDbEntity
  8
0
100
AcDbSpline
 62
7
  6
CONTINUOUS
 70
0
 71
3
 72
9
 73
5
 74
0
 42
0.0000001
 43
0.0000001
 44
0.0000000001
 40
0.0
 40
0.0
 40
0.0
 40
0.0
 40
0.5077483702
 40
1.0
 40
1.0
 40
1.0
 40
1.0
 10
-39.8688894543
 20
225.4818745827
 30
0.0
 10
-39.9672856216
 20
225.4493368237
 30
0.0
 10
-40.1600797131
 20
225.3822645204
 30
0.0
 10
-40.35217356
 20
225.3132736463
 30
0.0
 10
-40.4466669678
 20
225.2791283631
 30
0.0
  0
SPLINE
  5
404
100
AcDbEntity
  8
0
100
AcDbSpline
 62
7
  6
CONTINUOUS
 70
0
 71
3
 72
9
 73
5
 74
0
 42
0.0000001
 43
0.0000001
 44
0.0000000001
 40
0.0
 40
0.0
 40
0.0
 40
0.0
 40
0.4973007386
 40
1.0
 40
1.0
 40
1.0
 40
1.0
 10
-38.6327853239
 20
228.1035376455
 30
0.0
 10
-38.6991835777
 20
228.1015017329
 30
0.0
 10
-38.832568541
 20
228.0888377131
 30
0.0
 10
-38.963294161
 20
228.0595671242
 30
0.0
 10
-39.0278124955
 20
228.0409502823
 30
0.0
  0
SPLINE
  5
405
100
AcDbEntity
  8
0
100
AcDbSpline
 62
7
  6
CONTINUOUS
 70
0
 71
3
 72
9
 73
5
 74
0
 42
0.0000001
 43
0.0000001
 44
0.0000000001
 40
0.0
 40
0.0
 40
0.0
 40
0.0
 40
0.24709437
 40
1.0
 40
1.0
 40
1.0
 40
1.0
 10
-39.0278124955
 20
228.0409502823
 30
0.0
 10
-39.0604226109
 20
228.0315405948
 30
0.0
 10
-39.1912118935
 20
227.9894309802
 30
0.0
 10
-39.3167860035
 20
227.9313953345
 30
0.0
 10
-39.4066645051
 20
227.8802370748
 30
0.0
  0
SPLINE
  5
406
100
AcDbEntity
  8
0
100
AcDbSpline
 62
7
  6
CONTINUOUS
 70
0
 71
3
 72
15
 73
11
 74
0
 42
0.0000001
 43
0.0000001
 44
0.0000000001
 40
0.0
 40
0.0
 40
0.0
 40
0.0
 40
0.1177939327
 40
0.2364787364
 40
0.3568645829
 40
0.4796093978
 40
0.6051714959
 40
0.7337868385
 40
0.8654625332
 40
1.0
 40
1.0
 40
1.0
 40
1.0
 10
-39.5649654618
 20
222.4990428708
 30
0.0
 10
-39.6941651138
 20
222.5171341067
 30
0.0
 10
-39.9510861085
 20
222.5744235161
 30
0.0
 10
-40.3197546657
 20
222.7211683258
 30
0.0
 10
-40.6659548525
 20
222.9261079459
 30
0.0
 10
-40.9833412289
 20
223.185358301
 30
0.0
 10
-41.2663418147
 20
223.4941088756
 30
0.0
 10
-41.5100126488
 20
223.8467441952
 30
0.0
 10
-41.710124826
 20
224.2368329528
 30
0.0
 10
-41.8112667885
 20
224.5147029468
 30
0.0
 10
-41.8538318721
 20
224.6574979857
 30
0.0
  0
SPLINE
  5
407
100
AcDbEntity
  8
0
100
AcDbSpline
 62
7
  6
CONTINUOUS
 70
0
 71
3
 72
9
 73
5
 74
0
 42
0.0000001
 43
0.0000001
 44
0.0000000001
 40
0.0
 40
0.0
 40
0.0
 40
0.0
 40
0.4884486324
 40
1.0
 40
1.0
 40
1.0
 40
1.0
 10
-37.9465633148
 20
223.9373246118
 30
0.0
 10
-37.9248419084
 20
224.1932911304
 30
0.0
 10
-37.9093681515
 20
224.7200440713
 30
0.0
 10
-37.9447814677
 20
225.2455968899
 30
0.0
 10
-37.9746437646
 20
225.5129712143
 30
0.0
  0
SPLINE
  5
408
100
AcDbEntity
  8
0
100
AcDbSpline
 62
7
  6
CONTINUOUS
 70
0
 71
3
 72
13
 73
9
 74
0
 42
0.0000001
 43
0.0000001
 44
0.0000000001
 40
0.0
 40
0.0
 40
0.0
 40
0.0
 40
0.3095455686
 40
0.582018076
 40
0.7029722809
 40
0.8131408116
 40
0.9122087852
 40
1.0
 40
1.0
 40
1.0
 40
1.0
 10
-37.9746437646
 20
225.5129712143
 30
0.0
 10
-37.777845689
 20
225.5748544006
 30
0.0
 10
-37.4099718428
 20
225.69824371
 30
0.0
 10
-36.9733838425
 20
225.8690106331
 30
0.0
 10
-36.6674811888
 20
226.0072641436
 30
0.0
 10
-36.4706783948
 20
226.1058886359
 30
0.0
 10
-36.2981467356
 20
226.2031108822
 30
0.0
 10
-36.1934608086
 20
226.2707882919
 30
0.0
 10
-36.14570085
 20
226.3045859612
 30
0.0
  0
SPLINE
  5
409
100
AcDbEntity
  8
0
100
AcDbSpline
 62
7
  6
CONTINUOUS
 70
0
 71
3
 72
11
 73
7
 74
0
 42
0.0000001
 43
0.0000001
 44
0.0000000001
 40
0.0
 40
0.0
 40
0.0
 40
0.0
 40
0.2572225076
 40
0.5127765466
 40
0.7619051178
 40
1.0
 40
1.0
 40
1.0
 40
1.0
 10
-41.8538318721
 20
224.6574979857
 30
0.0
 10
-41.5888350857
 20
224.6963873752
 30
0.0
 10
-41.0615774372
 20
224.7810241064
 30
0.0
 10
-40.2817922166
 20
224.9275551438
 30
0.0
 10
-39.525780141
 20
225.0911982125
 30
0.0
 10
-39.0332064559
 20
225.2130584762
 30
0.0
 10
-38.7935863223
 20
225.2766643681
 30
0.0
  0
SPLINE
  5
40A
100
AcDbEntity
  8
0
100
AcDbSpline
 62
7
  6
CONTINUOUS
 70
0
 71
3
 72
15
 73
11
 74
0
 42
0.0000001
 43
0.0000001
 44
0.0000000001
 40
0.0
 40
0.0
 40
0.0
 40
0.0
 40
0.1311752736
 40
0.2625940361
 40
0.3930200032
 40
0.5213019955
 40
0.6465136035
 40
0.768061666
 40
0.8857790064
 40
1.0
 40
1.0
 40
1.0
 40
1.0
 10
-42.0133313275
 20
225.6258368149
 30
0.0
 10
-42.0217190122
 20
225.8330799487
 30
0.0
 10
-42.0070364071
 20
226.2498693244
 30
0.0
 10
-41.8929982124
 20
226.8629723417
 30
0.0
 10
-41.6904268456
 20
227.4481424445
 30
0.0
 10
-41.405471165
 20
227.9869456527
 30
0.0
 10
-41.0468310212
 20
228.462541617
 30
0.0
 10
-40.6252914164
 20
228.8598565252
 30
0.0
 10
-40.1540039509
 20
229.1659739211
 30
0.0
 10
-39.8112894806
 20
229.3043263596
 30
0.0
 10
-39.6377641825
 20
229.3543972901
 30
0.0
  0
SPLINE
  5
40B
100
AcDbEntity
  8
0
100
AcDbSpline
 62
7
  6
CONTINUOUS
 70
0
 71
3
 72
9
 73
5
 74
0
 42
0.0000001
 43
0.0000001
 44
0.0000000001
 40
0.0
 40
0.0
 40
0.0
 40
0.0
 40
0.4973007784
 40
1.0
 40
1.0
 40
1.0
 40
1.0
 10
-38.7204422218
 20
223.7140292615
 30
0.0
 10
-38.6540439335
 20
223.7160652036
 30
0.0
 10
-38.5206589055
 20
223.728729154
 30
0.0
 10
-38.3899332279
 20
223.7579997815
 30
0.0
 10
-38.3254148693
 20
223.7766166303
 30
0.0
  0
SPLINE
  5
40C
100
AcDbEntity
  8
0
100
AcDbSpline
 62
7
  6
CONTINUOUS
 70
0
 71
3
 72
9
 73
5
 74
0
 42
0.0000001
 43
0.0000001
 44
0.0000000001
 40
0.0
 40
0.0
 40
0.0
 40
0.0
 40
0.2470943692
 40
1.0
 40
1.0
 40
1.0
 40
1.0
 10
-38.3254148693
 20
223.7766166303
 30
0.0
 10
-38.2928047541
 20
223.7860263178
 30
0.0
 10
-38.1620154705
 20
223.828135931
 30
0.0
 10
-38.0364413672
 20
223.8861715883
 30
0.0
 10
-37.9465628597
 20
223.9373298378
 30
0.0
  0
SPLINE
  5
40D
100
AcDbEntity
  8
0
100
AcDbSpline
 62
7
  6
CONTINUOUS
 70
0
 71
3
 72
9
 73
5
 74
0
 42
0.0000001
 43
0.0000001
 44
0.0000000001
 40
0.0
 40
0.0
 40
0.0
 40
0.0
 40
0.4966712235
 40
1.0
 40
1.0
 40
1.0
 40
1.0
 10
-39.3047743917
 20
225.644650653
 30
0.0
 10
-39.1816608788
 20
225.6758405822
 30
0.0
 10
-38.9330923141
 20
225.7358891853
 30
0.0
 10
-38.6841942558
 20
225.7945015413
 30
0.0
 10
-38.5588800758
 20
225.8238515094
 30
0.0
  0
SPLINE
  5
40E
100
AcDbEntity
  8
0
100
AcDbSpline
 62
7
  6
CONTINUOUS
 70
0
 71
3
 72
9
 73
5
 74
0
 42
0.0000001
 43
0.0000001
 44
0.0000000001
 40
0.0
 40
0.0
 40
0.0
 40
0.0
 40
0.5033101734
 40
1.0
 40
1.0
 40
1.0
 40
1.0
 10
-39.6377641825
 20
229.3543972901
 30
0.0
 10
-39.4681297035
 20
229.4033455202
 30
0.0
 10
-39.1202539074
 20
229.4668435685
 30
0.0
 10
-38.7666163198
 20
229.4555412367
 30
0.0
 10
-38.5940667157
 20
229.4313799053
 30
0.0
  0
SPLINE
  5
40F
100
AcDbEntity
  8
0
100
AcDbSpline
 62
7
  6
CONTINUOUS
 70
0
 71
3
 72
9
 73
5
 74
0
 42
0.0000001
 43
0.0000001
 44
0.0000000001
 40
0.0
 40
0.0
 40
0.0
 40
0.0
 40
0.5041418614
 40
1.0
 40
1.0
 40
1.0
 40
1.0
 10
-37.8265795736
 20
225.8719956149
 30
0.0
 10
-37.8151520817
 20
225.9883987968
 30
0.0
 10
-37.8129847973
 20
226.2217854863
 30
0.0
 10
-37.853078341
 20
226.4518410343
 30
0.0
 10
-37.8836085534
 20
226.5627568459
 30
0.0
  0
SPLINE
  5
410
100
AcDbEntity
  8
0
100
AcDbSpline
 62
7
  6
CONTINUOUS
 70
0
 71
3
 72
8
 73
4
 74
0
 42
0.0000001
 43
0.0000001
 44
0.0000000001
 40
0.0
 40
0.0
 40
0.0
 40
0.0
 40
1.0
 40
1.0
 40
1.0
 40
1.0
 10
-40.4466669678
 20
225.2791283631
 30
0.0
 10
-40.4396770178
 20
225.2271021968
 30
0.0
 10
-40.4292586108
 20
225.1755359685
 30
0.0
 10
-40.4176037198
 20
225.1243525249
 30
0.0
  0
SPLINE
  5
411
100
AcDbEntity
  8
0
100
AcDbSpline
 62
7
  6
CONTINUOUS
 70
0
 71
3
 72
9
 73
5
 74
0
 42
0.0000001
 43
0.0000001
 44
0.0000000001
 40
0.0
 40
0.0
 40
0.0
 40
0.0
 40
0.4950160598
 40
1.0
 40
1.0
 40
1.0
 40
1.0
 10
-38.5999673513
 20
226.5294250813
 30
0.0
 10
-38.5640494109
 20
226.4175401241
 30
0.0
 10
-38.5212754973
 20
226.1811385693
 30
0.0
 10
-38.5368881722
 20
225.9416920798
 30
0.0
 10
-38.5588800758
 20
225.8238515094
 30
0.0
  0
SPLINE
  5
412
100
AcDbEntity
  8
0
100
AcDbSpline
 62
7
  6
CONTINUOUS
 70
0
 71
3
 72
9
 73
5
 74
0
 42
0.0000001
 43
0.0000001
 44
0.0000000001
 40
0.0
 40
0.0
 40
0.0
 40
0.0
 40
0.4963316717
 40
1.0
 40
1.0
 40
1.0
 40
1.0
 10
-41.9761571577
 20
224.6746300821
 30
0.0
 10
-42.0226287578
 20
224.8305304911
 30
0.0
 10
-42.0959444585
 20
225.1510050114
 30
0.0
 10
-42.1289806884
 20
225.4780199891
 30
0.0
 10
-42.1356566131
 20
225.6429689113
 30
0.0
  0
SPLINE
  5
413
100
AcDbEntity
  8
0
100
AcDbSpline
 62
7
  6
CONTINUOUS
 70
0
 71
3
 72
17
 73
13
 74
0
 42
0.0000001
 43
0.0000001
 44
0.0000000001
 40
0.0
 40
0.0
 40
0.0
 40
0.0
 40
0.039526728
 40
0.0807446027
 40
0.1250499691
 40
0.1734002555
 40
0.2836541659
 40
0.4117702495
 40
0.5538850971
 40
0.704002267
 40
0.8550805277
 40
1.0
 40
1.0
 40
1.0
 40
1.0
 10
-12.7514349495
 20
233.7179973642
 30
0.0
 10
-12.7943213159
 20
233.7065081321
 30
0.0
 10
-12.8852571413
 20
233.694046058
 30
0.0
 10
-13.02608862
 20
233.7088575477
 30
0.0
 10
-13.1699534649
 20
233.7558358996
 30
0.0
 10
-13.3714167522
 20
233.8644803666
 30
0.0
 10
-13.6158987281
 20
234.0800183052
 30
0.0
 10
-13.8731952535
 20
234.4237191593
 30
0.0
 10
-14.0930636607
 20
234.8435774673
 30
0.0
 10
-14.2616854154
 20
235.313664958
 30
0.0
 10
-14.3686341687
 20
235.8045794676
 30
0.0
 10
-14.3952934799
 20
236.137382136
 30
0.0
 10
-14.3952934799
 20
236.3001639738
 30
0.0
  0
SPLINE
  5
414
100
AcDbEntity
  8
0
100
AcDbSpline
 62
7
  6
CONTINUOUS
 70
0
 71
3
 72
13
 73
9
 74
0
 42
0.0000001
 43
0.0000001
 44
0.0000000001
 40
0.0
 40
0.0
 40
0.0
 40
0.0
 40
0.3134750243
 40
0.5830113503
 40
0.7004613307
 40
0.8073080269
 40
0.9059294608
 40
1.0
 40
1.0
 40
1.0
 40
1.0
 10
-14.3952934799
 20
236.3001639738
 30
0.0
 10
-14.3952934799
 20
236.4581334217
 30
0.0
 10
-14.3726803047
 20
236.7526271036
 30
0.0
 10
-14.2729522613
 20
237.0956661398
 30
0.0
 10
-14.1500204274
 20
237.3133115127
 30
0.0
 10
-14.044723682
 20
237.4388523494
 30
0.0
 10
-13.9236635826
 20
237.5312796143
 30
0.0
 10
-13.832880098
 20
237.5693141263
 30
0.0
 10
-13.7870898525
 20
237.5815813059
 30
0.0
  0
SPLINE
  5
415
100
AcDbEntity
  8
0
100
AcDbSpline
 62
7
  6
CONTINUOUS
 70
0
 71
3
 72
9
 73
5
 74
0
 42
0.0000001
 43
0.0000001
 44
0.0000000001
 40
0.0
 40
0.0
 40
0.0
 40
0.0
 40
0.246678951
 40
1.0
 40
1.0
 40
1.0
 40
1.0
 10
-13.7870898525
 20
237.5815813059
 30
0.0
 10
-13.7710053449
 20
237.5858903359
 30
0.0
 10
-13.7050091898
 20
237.6003386884
 30
0.0
 10
-13.6364127062
 20
237.6021651989
 30
0.0
 10
-13.5858101511
 20
237.5971362661
 30
0.0
  0
SPLINE
  5
416
100
AcDbEntity
  8
0
100
AcDbSpline
 62
7
  6
CONTINUOUS
 70
0
 71
3
 72
9
 73
5
 74
0
 42
0.0000001
 43
0.0000001
 44
0.0000000001
 40
0.0
 40
0.0
 40
0.0
 40
0.0
 40
0.2468463586
 40
1.0
 40
1.0
 40
1.0
 40
1.0
 10
-13.5858101511
 20
237.5971362661
 30
0.0
 10
-13.5797997476
 20
237.5965389461
 30
0.0
 10
-13.5554873491
 20
237.5937624541
 30
0.0
 10
-13.5313392045
 20
237.5895763457
 30
0.0
 10
-13.5133224942
 20
237.5857014224
 30
0.0
  0
SPLINE
  5
417
100
AcDbEntity
  8
0
100
AcDbSpline
 62
7
  6
CONTINUOUS
 70
0
 71
3
 72
9
 73
5
 74
0
 42
0.0000001
 43
0.0000001
 44
0.0000000001
 40
0.0
 40
0.0
 40
0.0
 40
0.0
 40
0.2358601439
 40
1.0
 40
1.0
 40
1.0
 40
1.0
 10
-13.5133224942
 20
237.5857014224
 30
0.0
 10
-13.4913067197
 20
237.580966405
 30
0.0
 10
-13.3989484984
 20
237.5563121565
 30
0.0
 10
-13.3116900706
 20
237.5144642254
 30
0.0
 10
-13.2493080477
 20
237.4766314922
 30
0.0
  0
SPLINE
  5
418
100
AcDbEntity
  8
0
100
AcDbSpline
 62
7
  6
CONTINUOUS
 70
0
 71
3
 72
9
 73
5
 74
0
 42
0.0000001
 43
0.0000001
 44
0.0000000001
 40
0.0
 40
0.0
 40
0.0
 40
0.0
 40
0.2339168549
 40
1.0
 40
1.0
 40
1.0
 40
1.0
 10
-13.1863203077
 20
237.4355512953
 30
0.0
 10
-13.1601975254
 20
237.4173156057
 30
0.0
 10
-13.0515439571
 20
237.3350361223
 30
0.0
 10
-12.9548378913
 20
237.2376472174
 30
0.0
 10
-12.8869519397
 20
237.1584164178
 30
0.0
  0
SPLINE
  5
419
100
AcDbEntity
  8
0
100
AcDbSpline
 62
7
  6
CONTINUOUS
 70
0
 71
3
 72
9
 73
5
 74
0
 42
0.0000001
 43
0.0000001
 44
0.0000000001
 40
0.0
 40
0.0
 40
0.0
 40
0.0
 40
0.2553922854
 40
1.0
 40
1.0
 40
1.0
 40
1.0
 10
-12.1680863013
 20
235.3979535616
 30
0.0
 10
-12.1639814828
 20
235.3641969681
 30
0.0
 10
-12.1498099022
 20
235.2318017836
 30
0.0
 10
-12.1432313222
 20
235.0985585395
 30
0.0
 10
-12.1432313222
 20
234.9994146962
 30
0.0
  0
SPLINE
  5
41A
100
AcDbEntity
  8
0
100
AcDbSpline
 62
7
  6
CONTINUOUS
 70
0
 71
3
 72
9
 73
5
 74
0
 42
0.0000001
 43
0.0000001
 44
0.0000000001
 40
0.0
 40
0.0
 40
0.0
 40
0.0
 40
0.2616006451
 40
1.0
 40
1.0
 40
1.0
 40
1.0
 10
-12.1483682953
 20
234.8271651066
 30
0.0
 10
-12.1505038688
 20
234.7919952856
 30
0.0
 10
-12.1613009184
 20
234.6577479762
 30
0.0
 10
-12.1829884864
 20
234.5242183703
 30
0.0
 10
-12.206669125
 20
234.4276248596
 30
0.0
  0
SPLINE
  5
41B
100
AcDbEntity
  8
0
100
AcDbSpline
 62
7
  6
CONTINUOUS
 70
0
 71
3
 72
9
 73
5
 74
0
 42
0.0000001
 43
0.0000001
 44
0.0000000001
 40
0.0
 40
0.0
 40
0.0
 40
0.0
 40
0.2681637262
 40
1.0
 40
1.0
 40
1.0
 40
1.0
 10
-12.22837113
 20
234.3472290541
 30
0.0
 10
-12.2379830346
 20
234.3147458567
 30
0.0
 10
-12.2774784264
 20
234.1948105594
 30
0.0
 10
-12.3325639091
 20
234.07936623
 30
0.0
 10
-12.3838348051
 20
234.002437754
 30
0.0
  0
SPLINE
  5
41C
100
AcDbEntity
  8
0
100
AcDbSpline
 62
7
  6
CONTINUOUS
 70
0
 71
3
 72
9
 73
5
 74
0
 42
0.0000001
 43
0.0000001
 44
0.0000000001
 40
0.0
 40
0.0
 40
0.0
 40
0.0
 40
0.263470322
 40
1.0
 40
1.0
 40
1.0
 40
1.0
 10
-12.4279703422
 20
233.9417668501
 30
0.0
 10
-12.4422724276
 20
233.9237774088
 30
0.0
 10
-12.499250113
 20
233.8577536481
 30
0.0
 10
-12.5683297986
 20
233.80164437
 30
0.0
 10
-12.6243013406
 20
233.7701051987
 30
0.0
  0
SPLINE
  5
41D
100
AcDbEntity
  8
0
100
AcDbSpline
 62
7
  6
CONTINUOUS
 70
0
 71
3
 72
17
 73
13
 74
0
 42
0.0000001
 43
0.0000001
 44
0.0000000001
 40
0.0
 40
0.0
 40
0.0
 40
0.0
 40
0.0571834453
 40
0.1155956101
 40
0.2374181126
 40
0.3673870527
 40
0.5023015822
 40
0.6366120199
 40
0.7650525173
 40
0.885196069
 40
0.9430141832
 40
1.0
 40
1.0
 40
1.0
 40
1.0
 10
41.3475436101
 20
187.6446256512
 30
0.0
 10
41.1334778051
 20
187.6542617226
 30
0.0
 10
40.6969386931
 20
187.623350459
 30
0.0
 10
39.8392748924
 20
187.3646896424
 30
0.0
 10
38.8619442175
 20
186.6746098785
 30
0.0
 10
38.0425250071
 20
185.446159942
 30
0.0
 10
37.6453927472
 20
183.9776360546
 30
0.0
 10
37.7223311547
 20
182.4637410398
 30
0.0
 10
38.2661915982
 20
181.1048546873
 30
0.0
 10
39.0817635305
 20
180.2470851199
 30
0.0
 10
39.8679475279
 20
179.8367994234
 30
0.0
 10
40.2887018166
 20
179.7275142387
 30
0.0
 10
40.5001695432
 20
179.6978226697
 30
0.0
  0
SPLINE
  5
41E
100
AcDbEntity
  8
0
100
AcDbSpline
 62
7
  6
CONTINUOUS
 70
0
 71
3
 72
15
 73
11
 74
0
 42
0.0000001
 43
0.0000001
 44
0.0000000001
 40
0.0
 40
0.0
 40
0.0
 40
0.0
 40
0.1358396657
 40
0.2690992274
 40
0.3990916798
 40
0.5254255694
 40
0.6480931781
 40
0.7674935193
 40
0.8844223431
 40
1.0
 40
1.0
 40
1.0
 40
1.0
 10
41.7312462562
 20
179.7970541585
 30
0.0
 10
41.1857109164
 20
178.2976352832
 30
0.0
 10
39.8968889755
 20
175.3978156404
 30
0.0
 10
37.388958967
 20
171.4182114116
 30
0.0
 10
34.3840932035
 20
167.9425050611
 30
0.0
 10
30.9605060792
 20
165.0659884346
 30
0.0
 10
27.2078052326
 20
162.8678584033
 30
0.0
 10
23.224848077
 20
161.4112554065
 30
0.0
 10
19.1216440592
 20
160.7396368913
 30
0.0
 10
16.3713038269
 20
160.8308653097
 30
0.0
 10
15.0255098738
 20
161.0093553847
 30
0.0
  0
SPLINE
  5
41F
100
AcDbEntity
  8
0
100
AcDbSpline
 62
7
  6
CONTINUOUS
 70
0
 71
3
 72
10
 73
6
 74
0
 42
0.0000001
 43
0.0000001
 44
0.0000000001
 40
0.0
 40
0.0
 40
0.0
 40
0.0
 40
0.2367048746
 40
0.481204193
 40
1.0
 40
1.0
 40
1.0
 40
1.0
 10
6.6960158104
 20
169.7508744413
 30
0.0
 10
6.5522215247
 20
169.7573472733
 30
0.0
 10
6.2559590035
 20
169.7243630694
 30
0.0
 10
5.6911102264
 20
169.4821026462
 30
0.0
 10
5.3558799224
 20
169.1248964103
 30
0.0
 10
5.1946901298
 20
168.853704881
 30
0.0
  0
SPLINE
  5
420
100
AcDbEntity
  8
0
100
AcDbSpline
 62
7
  6
CONTINUOUS
 70
0
 71
3
 72
11
 73
7
 74
0
 42
0.0000001
 43
0.0000001
 44
0.0000000001
 40
0.0
 40
0.0
 40
0.0
 40
0.0
 40
0.2352819513
 40
0.4786417155
 40
0.733516197
 40
1.0
 40
1.0
 40
1.0
 40
1.0
 10
0.8472456626
 20
176.7882987363
 30
0.0
 10
0.5512058889
 20
176.8016248272
 30
0.0
 10
-0.0591946698
 20
176.7312462441
 30
0.0
 10
-0.9143993773
 20
176.3497815887
 30
0.0
 10
-1.6620599233
 20
175.7253935644
 30
0.0
 10
-2.0497199448
 20
175.186175422
 30
0.0
 10
-2.2134931077
 20
174.8932051437
 30
0.0
  0
SPLINE
  5
421
100
AcDbEntity
  8
0
100
AcDbSpline
 62
7
  6
CONTINUOUS
 70
0
 71
3
 72
13
 73
9
 74
0
 42
0.0000001
 43
0.0000001
 44
0.0000000001
 40
0.0
 40
0.0
 40
0.0
 40
0.0
 40
0.2606116756
 40
0.5240829468
 40
0.6510091166
 40
0.7720779114
 40
0.8876648899
 40
1.0
 40
1.0
 40
1.0
 40
1.0
 10
23.3494027526
 20
219.6195446967
 30
0.0
 10
22.9088251627
 20
219.0662185691
 30
0.0
 10
22.3055815638
 20
217.7113376369
 30
0.0
 10
22.3570330111
 20
215.8800998973
 30
0.0
 10
22.8871788072
 20
214.5827825344
 30
0.0
 10
23.4943519869
 20
213.788279014
 30
0.0
 10
24.2736706656
 20
213.2251466678
 30
0.0
 10
24.8762918899
 20
213.0360154754
 30
0.0
 10
25.1782110801
 20
212.993636056
 30
0.0
  0
SPLINE
  5
422
100
AcDbEntity
  8
0
100
AcDbSpline
 62
7
  6
CONTINUOUS
 70
0
 71
3
 72
12
 73
8
 74
0
 42
0.0000001
 43
0.0000001
 44
0.0000000001
 40
0.0
 40
0.0
 40
0.0
 40
0.0
 40
0.2653682997
 40
0.5278086377
 40
0.7718261915
 40
0.8872729889
 40
1.0
 40
1.0
 40
1.0
 40
1.0
 10
30.6631183891
 20
213.5145430025
 30
0.0
 10
30.5059515988
 20
213.2270906427
 30
0.0
 10
30.3188861766
 20
212.5793997051
 30
0.0
 10
30.4389804627
 20
211.6079989605
 30
0.0
 10
30.8747035151
 20
210.9329668979
 30
0.0
 10
31.3672856964
 20
210.6080526432
 30
0.0
 10
31.6420137888
 20
210.5262112315
 30
0.0
 10
31.7798262441
 20
210.5068329538
 30
0.0
  0
SPLINE
  5
423
100
AcDbEntity
  8
0
100
AcDbSpline
 62
7
  6
CONTINUOUS
 70
0
 71
3
 72
11
 73
7
 74
0
 42
0.0000001
 43
0.0000001
 44
0.0000000001
 40
0.0
 40
0.0
 40
0.0
 40
0.0
 40
0.2365013678
 40
0.4832106356
 40
0.7387556435
 40
1.0
 40
1.0
 40
1.0
 40
1.0
 10
34.9983291615
 20
213.8782022964
 30
0.0
 10
36.5456132797
 20
212.4231572732
 30
0.0
 10
39.323689667
 20
209.0209434241
 30
0.0
 10
42.2212632702
 20
202.9926787731
 30
0.0
 10
43.8029563707
 20
196.2700046157
 30
0.0
 10
43.9238405254
 20
191.593288542
 30
0.0
 10
43.7520660022
 20
189.2534046541
 30
0.0
  0
SPLINE
  5
424
100
AcDbEntity
  8
0
100
AcDbSpline
 62
7
  6
CONTINUOUS
 70
0
 71
3
 72
19
 73
15
 74
0
 42
0.0000001
 43
0.0000001
 44
0.0000000001
 40
0.0
 40
0.0
 40
0.0
 40
0.0
 40
0.0571311065
 40
0.1154491939
 40
0.1755436013
 40
0.2377283813
 40
0.3675463629
 40
0.5023022028
 40
0.6364550872
 40
0.7647416271
 40
0.8260507119
 40
0.8853607444
 40
0.9430973525
 40
1.0
 40
1.0
 40
1.0
 40
1.0
 10
33.4953456359
 20
207.4388215351
 30
0.0
 10
33.034725464
 20
207.459556135
 30
0.0
 10
32.0958143602
 20
207.3935239288
 30
0.0
 10
30.7295464065
 20
206.9803035648
 30
0.0
 10
29.4448356092
 20
206.2698363261
 30
0.0
 10
27.8832602623
 20
204.9484108015
 30
0.0
 10
26.383259621
 20
202.7084398303
 30
0.0
 10
25.5327962852
 20
199.5502159638
 30
0.0
 10
25.6947862044
 20
196.295139182
 30
0.0
 10
26.6936491244
 20
193.8147561199
 30
0.0
 10
27.9478403418
 20
192.2306265232
 30
0.0
 10
29.0589722754
 20
191.2983971281
 30
0.0
 10
30.3129588215
 20
190.6430314075
 30
0.0
 10
31.2177462235
 20
190.4080675725
 30
0.0
 10
31.6725415056
 20
190.3443086748
 30
0.0
  0
SPLINE
  5
425
100
AcDbEntity
  8
0
100
AcDbSpline
 62
7
  6
CONTINUOUS
 70
0
 71
3
 72
19
 73
15
 74
0
 42
0.0000001
 43
0.0000001
 44
0.0000000001
 40
0.0
 40
0.0
 40
0.0
 40
0.0
 40
0.0571311065
 40
0.1154491939
 40
0.1755436013
 40
0.2377283813
 40
0.3675463629
 40
0.5023022028
 40
0.6364550872
 40
0.7647416271
 40
0.8260507119
 40
0.8853607444
 40
0.9430973525
 40
1.0
 40
1.0
 40
1.0
 40
1.0
 10
4.3579126834
 20
199.6283728809
 30
0.0
 10
3.8972925114
 20
199.6491074809
 30
0.0
 10
2.9583814077
 20
199.5830752747
 30
0.0
 10
1.5921134539
 20
199.1698549106
 30
0.0
 10
0.3074026566
 20
198.459387672
 30
0.0
 10
-1.2541726903
 20
197.1379621474
 30
0.0
 10
-2.7541733316
 20
194.8979911761
 30
0.0
 10
-3.6046366674
 20
191.7397673096
 30
0.0
 10
-3.4426467482
 20
188.4846905278
 30
0.0
 10
-2.4437838281
 20
186.0043074658
 30
0.0
 10
-1.1895926107
 20
184.4201778691
 30
0.0
 10
-0.0784606771
 20
183.4879484739
 30
0.0
 10
1.175525869
 20
182.8325827533
 30
0.0
 10
2.0803132709
 20
182.5976189184
 30
0.0
 10
2.535108553
 20
182.5338600207
 30
0.0
  0
SPLINE
  5
426
100
AcDbEntity
  8
0
100
AcDbSpline
 62
7
  6
CONTINUOUS
 70
0
 71
3
 72
13
 73
9
 74
0
 42
0.0000001
 43
0.0000001
 44
0.0000000001
 40
0.0
 40
0.0
 40
0.0
 40
0.0
 40
0.112621855
 40
0.2283394591
 40
0.3486162466
 40
0.4738743383
 40
0.7348530928
 40
1.0
 40
1.0
 40
1.0
 40
1.0
 10
20.6986166117
 20
178.4460754219
 30
0.0
 10
20.3363624586
 20
178.4623821221
 30
0.0
 10
19.5937116628
 20
178.3929647328
 30
0.0
 10
18.5318422057
 20
177.9944539596
 30
0.0
 10
17.5661969337
 20
177.3261142763
 30
0.0
 10
16.4598455679
 20
176.1120136441
 30
0.0
 10
15.5711298992
 20
174.1485028745
 30
0.0
 10
15.4893683573
 20
172.4091283544
 30
0.0
 10
15.6159191606
 20
171.5648373344
 30
0.0
  0
SPLINE
  5
427
100
AcDbEntity
  8
0
100
AcDbSpline
 62
7
  6
CONTINUOUS
 70
0
 71
3
 72
11
 73
7
 74
0
 42
0.0000001
 43
0.0000001
 44
0.0000000001
 40
0.0
 40
0.0
 40
0.0
 40
0.0
 40
0.2685585602
 40
0.5241133611
 40
0.7663074539
 40
1.0
 40
1.0
 40
1.0
 40
1.0
 10
15.6159191606
 20
171.5648373344
 30
0.0
 10
15.6984896178
 20
171.0139637434
 30
0.0
 10
16.0010802837
 20
169.9532047681
 30
0.0
 10
16.864955375
 20
168.5907267263
 30
0.0
 10
18.0616299719
 20
167.6125545905
 30
0.0
 10
19.0216799966
 20
167.2884780276
 30
0.0
 10
19.5016948077
 20
167.2211720622
 30
0.0
  0
SPLINE
  5
428
100
AcDbEntity
  8
0
100
AcDbSpline
 62
7
  6
CONTINUOUS
 70
0
 71
3
 72
14
 73
10
 74
0
 42
0.0000001
 43
0.0000001
 44
0.0000000001
 40
0.0
 40
0.0
 40
0.0
 40
0.0
 40
0.1124634472
 40
0.2280530233
 40
0.3481654948
 40
0.473262809
 40
0.6027415747
 40
0.7351843954
 40
1.0
 40
1.0
 40
1.0
 40
1.0
 10
15.2335755254
 20
211.9376465522
 30
0.0
 10
14.9995815699
 20
211.9481796799
 30
0.0
 10
14.5198194713
 20
211.9032823258
 30
0.0
 10
13.8337748542
 20
211.6459181903
 30
0.0
 10
13.2100857375
 20
211.2141167666
 30
0.0
 10
12.6803251877
 20
210.6329086285
 30
0.0
 10
12.2702598607
 20
209.9320655197
 30
0.0
 10
11.9096707624
 20
208.8911276259
 30
0.0
 10
11.8683061036
 20
208.0376909145
 30
0.0
 10
11.9500630128
 20
207.4922449558
 30
0.0
  0
SPLINE
  5
429
100
AcDbEntity
  8
0
100
AcDbSpline
 62
7
  6
CONTINUOUS
 70
0
 71
3
 72
11
 73
7
 74
0
 42
0.0000001
 43
0.0000001
 44
0.0000000001
 40
0.0
 40
0.0
 40
0.0
 40
0.0
 40
0.268553743
 40
0.5240913539
 40
0.7662647055
 40
1.0
 40
1.0
 40
1.0
 40
1.0
 10
11.9500630128
 20
207.4922449558
 30
0.0
 10
12.0034037845
 20
207.1363789059
 30
0.0
 10
12.1988231527
 20
206.4511107001
 30
0.0
 10
12.7569870652
 20
205.5710821923
 30
0.0
 10
13.5299196317
 20
204.9389736781
 30
0.0
 10
14.1502014889
 20
204.7297342434
 30
0.0
 10
14.4603468207
 20
204.6861885357
 30
0.0
  0
SPLINE
  5
42A
100
AcDbEntity
  8
0
100
AcDbSpline
 62
7
  6
CONTINUOUS
 70
0
 71
3
 72
13
 73
9
 74
0
 42
0.0000001
 43
0.0000001
 44
0.0000000001
 40
0.0
 40
0.0
 40
0.0
 40
0.0
 40
0.2688118675
 40
0.5236011113
 40
0.6460289694
 40
0.7655229406
 40
0.8831389142
 40
1.0
 40
1.0
 40
1.0
 40
1.0
 10
28.3804563561
 20
174.4315853344
 30
0.0
 10
28.2539534622
 20
175.2755567231
 30
0.0
 10
27.7784958119
 20
176.8964058207
 30
0.0
 10
26.6086937805
 20
178.6290032432
 30
0.0
 10
25.4107691329
 20
179.6662614983
 30
0.0
 10
24.4203066222
 20
180.2473899025
 30
0.0
 10
23.354085023
 20
180.623125713
 30
0.0
 10
22.6116847819
 20
180.7299400697
 30
0.0
 10
22.2410601364
 20
180.7466235663
 30
0.0
  0
SPLINE
  5
42B
100
AcDbEntity
  8
0
100
AcDbSpline
 62
7
  6
CONTINUOUS
 70
0
 71
3
 72
13
 73
9
 74
0
 42
0.0000001
 43
0.0000001
 44
0.0000000001
 40
0.0
 40
0.0
 40
0.0
 40
0.0
 40
0.1126272951
 40
0.2283393547
 40
0.348617847
 40
0.473874891
 40
0.7348540113
 40
1.0
 40
1.0
 40
1.0
 40
1.0
 10
22.2410601364
 20
180.7466235663
 30
0.0
 10
21.718493026
 20
180.7701466825
 30
0.0
 10
20.6472310669
 20
180.6700347346
 30
0.0
 10
19.1155427098
 20
180.0950985835
 30
0.0
 10
17.7226272414
 20
179.1310822527
 30
0.0
 10
16.126770227
 20
177.3797384168
 30
0.0
 10
14.844816239
 20
174.5474544753
 30
0.0
 10
14.7268360156
 20
172.0384527277
 30
0.0
 10
14.9093815124
 20
170.820589865
 30
0.0
  0
SPLINE
  5
42C
100
AcDbEntity
  8
0
100
AcDbSpline
 62
7
  6
CONTINUOUS
 70
0
 71
3
 72
13
 73
9
 74
0
 42
0.0000001
 43
0.0000001
 44
0.0000000001
 40
0.0
 40
0.0
 40
0.0
 40
0.0
 40
0.2688118675
 40
0.5236011113
 40
0.6460289694
 40
0.7655229406
 40
0.8831389142
 40
1.0
 40
1.0
 40
1.0
 40
1.0
 10
14.9093815124
 20
170.820589865
 30
0.0
 10
15.0358844062
 20
169.9766184763
 30
0.0
 10
15.5113420565
 20
168.3557693787
 30
0.0
 10
16.6811440879
 20
166.6231719562
 30
0.0
 10
17.8790687356
 20
165.5859137011
 30
0.0
 10
18.8695312462
 20
165.0047852968
 30
0.0
 10
19.9357528455
 20
164.6290494865
 30
0.0
 10
20.6781530866
 20
164.52223513
 30
0.0
 10
21.048777732
 20
164.505551633
 30
0.0
  0
SPLINE
  5
42D
100
AcDbEntity
  8
0
100
AcDbSpline
 62
7
  6
CONTINUOUS
 70
0
 71
3
 72
13
 73
9
 74
0
 42
0.0000001
 43
0.0000001
 44
0.0000000001
 40
0.0
 40
0.0
 40
0.0
 40
0.0
 40
0.1126229923
 40
0.228341102
 40
0.3486173666
 40
0.4738744913
 40
0.7348514042
 40
1.0
 40
1.0
 40
1.0
 40
1.0
 10
15.8763212849
 20
201.982661888
 30
0.0
 10
16.270636707
 20
201.9649119614
 30
0.0
 10
17.0790134623
 20
202.0404786276
 30
0.0
 10
18.2348522126
 20
202.4742653291
 30
0.0
 10
19.2859427363
 20
203.2017546284
 30
0.0
 10
20.4901884814
 20
204.5232889689
 30
0.0
 10
21.4575565688
 20
206.6605481175
 30
0.0
 10
21.5465656269
 20
208.55384761
 30
0.0
 10
21.4088149706
 20
209.4728590982
 30
0.0
  0
SPLINE
  5
42E
100
AcDbEntity
  8
0
100
AcDbSpline
 62
7
  6
CONTINUOUS
 70
0
 71
3
 72
11
 73
7
 74
0
 42
0.0000001
 43
0.0000001
 44
0.0000000001
 40
0.0
 40
0.0
 40
0.0
 40
0.0
 40
0.2693839062
 40
0.5247153483
 40
0.7661385714
 40
1.0
 40
1.0
 40
1.0
 40
1.0
 10
21.4088149706
 20
209.4728590982
 30
0.0
 10
21.3133557317
 20
210.1097209437
 30
0.0
 10
20.9538486578
 20
211.3333246052
 30
0.0
 10
19.9122899699
 20
212.8783757974
 30
0.0
 10
18.4712011841
 20
213.931959341
 30
0.0
 10
17.3345114603
 20
214.2130544193
 30
0.0
 10
16.7760190502
 20
214.2381946966
 30
0.0
  0
SPLINE
  5
42F
100
AcDbEntity
  8
0
100
AcDbSpline
 62
7
  6
CONTINUOUS
 70
0
 71
3
 72
13
 73
9
 74
0
 42
0.0000001
 43
0.0000001
 44
0.0000000001
 40
0.0
 40
0.0
 40
0.0
 40
0.0
 40
0.1126229923
 40
0.228341102
 40
0.3486173666
 40
0.4738744913
 40
0.7348514042
 40
1.0
 40
1.0
 40
1.0
 40
1.0
 10
16.7760190502
 20
214.2381946966
 30
0.0
 10
16.3817036281
 20
214.2559446228
 30
0.0
 10
15.5733268728
 20
214.1803779572
 30
0.0
 10
14.4174881226
 20
213.7465912554
 30
0.0
 10
13.3663975989
 20
213.0191019562
 30
0.0
 10
12.1621518537
 20
211.6975676156
 30
0.0
 10
11.1947837663
 20
209.5603084671
 30
0.0
 10
11.1057747083
 20
207.6670089745
 30
0.0
 10
11.2435253646
 20
206.7479974863
 30
0.0
  0
SPLINE
  5
430
100
AcDbEntity
  8
0
100
AcDbSpline
 62
7
  6
CONTINUOUS
 70
0
 71
3
 72
11
 73
7
 74
0
 42
0.0000001
 43
0.0000001
 44
0.0000000001
 40
0.0
 40
0.0
 40
0.0
 40
0.0
 40
0.2693839062
 40
0.5247153483
 40
0.7661385714
 40
1.0
 40
1.0
 40
1.0
 40
1.0
 10
11.2435253646
 20
206.7479974863
 30
0.0
 10
11.3389846035
 20
206.1111356409
 30
0.0
 10
11.6984916773
 20
204.8875319793
 30
0.0
 10
12.7400503653
 20
203.3424807872
 30
0.0
 10
14.181139151
 20
202.2888972431
 30
0.0
 10
15.3178288749
 20
202.0078021659
 30
0.0
 10
15.8763212849
 20
201.982661888
 30
0.0
  0
SPLINE
  5
431
100
AcDbEntity
  8
0
100
AcDbSpline
 62
7
  6
CONTINUOUS
 70
0
 71
3
 72
19
 73
15
 74
0
 42
0.0000001
 43
0.0000001
 44
0.0000000001
 40
0.0
 40
0.0
 40
0.0
 40
0.0
 40
0.0571311065
 40
0.1154491939
 40
0.1755436013
 40
0.2377283813
 40
0.3675463629
 40
0.5023022028
 40
0.6364550872
 40
0.7647416271
 40
0.8260507119
 40
0.8853607444
 40
0.9430973525
 40
1.0
 40
1.0
 40
1.0
 40
1.0
 10
3.0991499889
 20
182.481717531
 30
0.0
 10
3.5597701609
 20
182.460982931
 30
0.0
 10
4.4986812646
 20
182.5270151373
 30
0.0
 10
5.8649492184
 20
182.9402355013
 30
0.0
 10
7.1496600157
 20
183.65070274
 30
0.0
 10
8.7112353626
 20
184.9721282645
 30
0.0
 10
10.2112360039
 20
187.2120992358
 30
0.0
 10
11.0616993397
 20
190.3703231023
 30
0.0
 10
10.8997094205
 20
193.6253998841
 30
0.0
 10
9.9008465004
 20
196.1057829462
 30
0.0
 10
8.6466552831
 20
197.6899125429
 30
0.0
 10
7.5355233494
 20
198.622141938
 30
0.0
 10
6.2815368034
 20
199.2775076586
 30
0.0
 10
5.3767494014
 20
199.5124714935
 30
0.0
 10
4.9219541193
 20
199.5762303912
 30
0.0
  0
SPLINE
  5
432
100
AcDbEntity
  8
0
100
AcDbSpline
 62
7
  6
CONTINUOUS
 70
0
 71
3
 72
15
 73
11
 74
0
 42
0.0000001
 43
0.0000001
 44
0.0000000001
 40
0.0
 40
0.0
 40
0.0
 40
0.0
 40
0.1167115187
 40
0.2396873702
 40
0.3682734082
 40
0.5001032154
 40
0.6319139045
 40
0.7604482727
 40
0.8833557588
 40
1.0
 40
1.0
 40
1.0
 40
1.0
 10
2.1339419902
 20
199.2967161521
 30
0.0
 10
2.745503008
 20
198.876238924
 30
0.0
 10
3.8599072118
 20
197.7924882798
 30
0.0
 10
4.9948159588
 20
195.7102423719
 30
0.0
 10
5.5590648434
 20
193.3101763494
 30
0.0
 10
5.5114440034
 20
190.7914472606
 30
0.0
 10
4.8589436083
 20
188.3585598778
 30
0.0
 10
3.651408479
 20
186.2099840472
 30
0.0
 10
1.9838017259
 20
184.5255420338
 30
0.0
 10
0.6127879195
 20
183.7946048564
 30
0.0
 10
-0.0912112674
 20
183.5610277014
 30
0.0
  0
SPLINE
  5
433
100
AcDbEntity
  8
0
100
AcDbSpline
 62
7
  6
CONTINUOUS
 70
0
 71
3
 72
15
 73
11
 74
0
 42
0.0000001
 43
0.0000001
 44
0.0000000001
 40
0.0
 40
0.0
 40
0.0
 40
0.0
 40
0.1167115187
 40
0.2396873702
 40
0.3682734082
 40
0.5001032154
 40
0.6319139045
 40
0.7604482727
 40
0.8833557588
 40
1.0
 40
1.0
 40
1.0
 40
1.0
 10
31.2713749427
 20
207.1071648062
 30
0.0
 10
31.8829359606
 20
206.6866875781
 30
0.0
 10
32.9973401643
 20
205.6029369339
 30
0.0
 10
34.1322489114
 20
203.5206910261
 30
0.0
 10
34.696497796
 20
201.1206250035
 30
0.0
 10
34.648876956
 20
198.6018959148
 30
0.0
 10
33.9963765608
 20
196.169008532
 30
0.0
 10
32.7888414316
 20
194.0204327013
 30
0.0
 10
31.1212346785
 20
192.335990688
 30
0.0
 10
29.7502208721
 20
191.6050535106
 30
0.0
 10
29.0462216851
 20
191.3714763555
 30
0.0
  0
SPLINE
  5
434
100
AcDbEntity
  8
0
100
AcDbSpline
 62
7
  6
CONTINUOUS
 70
0
 71
3
 72
9
 73
5
 74
0
 42
0.0000001
 43
0.0000001
 44
0.0000000001
 40
0.0
 40
0.0
 40
0.0
 40
0.0
 40
0.5093364326
 40
1.0
 40
1.0
 40
1.0
 40
1.0
 10
43.4542543358
 20
186.5861320923
 30
0.0
 10
43.2152471196
 20
186.8619472042
 30
0.0
 10
42.6541643023
 20
187.3332934513
 30
0.0
 10
41.9579221608
 20
187.5715033496
 30
0.0
 10
41.6097500204
 20
187.62036225
 30
0.0
  0
SPLINE
  5
435
100
AcDbEntity
  8
0
100
AcDbSpline
 62
7
  6
CONTINUOUS
 70
0
 71
3
 72
9
 73
5
 74
0
 42
0.0000001
 43
0.0000001
 44
0.0000000001
 40
0.0
 40
0.0
 40
0.0
 40
0.0
 40
0.248215811
 40
1.0
 40
1.0
 40
1.0
 40
1.0
 10
40.7623743319
 20
179.6735474018
 30
0.0
 10
40.8433247186
 20
179.6699034582
 30
0.0
 10
41.1699836422
 20
179.6692758046
 30
0.0
 10
41.4963585082
 20
179.725905514
 30
0.0
 10
41.7312462562
 20
179.7970541585
 30
0.0
  0
SPLINE
  5
436
100
AcDbEntity
  8
0
100
AcDbSpline
 62
7
  6
CONTINUOUS
 70
0
 71
3
 72
17
 73
13
 74
0
 42
0.0000001
 43
0.0000001
 44
0.0000000001
 40
0.0
 40
0.0
 40
0.0
 40
0.0
 40
0.0571919163
 40
0.1155938779
 40
0.2374199422
 40
0.3673909665
 40
0.5023074962
 40
0.6366216376
 40
0.765061623
 40
0.885207063
 40
0.9430184441
 40
1.0
 40
1.0
 40
1.0
 40
1.0
 10
27.0875221444
 20
194.9939598619
 30
0.0
 10
27.3364111309
 20
194.9827562414
 30
0.0
 10
27.8438905882
 20
195.0186254776
 30
0.0
 10
28.840902381
 20
195.3194458329
 30
0.0
 10
29.9770424075
 20
196.1215960541
 30
0.0
 10
30.9296880064
 20
197.5497009263
 30
0.0
 10
31.3912287944
 20
199.2569193331
 30
0.0
 10
31.3019026035
 20
201.0168634671
 30
0.0
 10
30.6694899425
 20
202.596531384
 30
0.0
 10
29.7214137235
 20
203.5936830259
 30
0.0
 10
28.8074857575
 20
204.0705680535
 30
0.0
 10
28.3184134024
 20
204.1976435114
 30
0.0
 10
28.0725968411
 20
204.2321354241
 30
0.0
  0
SPLINE
  5
437
100
AcDbEntity
  8
0
100
AcDbSpline
 62
7
  6
CONTINUOUS
 70
0
 71
3
 72
13
 73
9
 74
0
 42
0.0000001
 43
0.0000001
 44
0.0000000001
 40
0.0
 40
0.0
 40
0.0
 40
0.0
 40
0.112621855
 40
0.228339459
 40
0.3486162465
 40
0.4738743382
 40
0.7348530927
 40
1.0
 40
1.0
 40
1.0
 40
1.0
 10
19.8720649812
 20
167.1869273957
 30
0.0
 10
20.2343191351
 20
167.1706206934
 30
0.0
 10
20.9769699331
 20
167.2400380782
 30
0.0
 10
22.0388393947
 20
167.6385488474
 30
0.0
 10
23.0044846713
 20
168.3068885287
 30
0.0
 10
24.1108360434
 20
169.5209891608
 30
0.0
 10
24.9995517178
 20
171.4844999346
 30
0.0
 10
25.0813132609
 20
173.2238744597
 30
0.0
 10
24.9547624572
 20
174.068165482
 30
0.0
  0
SPLINE
  5
438
100
AcDbEntity
  8
0
100
AcDbSpline
 62
7
  6
CONTINUOUS
 70
0
 71
3
 72
11
 73
7
 74
0
 42
0.0000001
 43
0.0000001
 44
0.0000000001
 40
0.0
 40
0.0
 40
0.0
 40
0.0
 40
0.2685585602
 40
0.5241133612
 40
0.766307454
 40
1.0
 40
1.0
 40
1.0
 40
1.0
 10
24.9547624572
 20
174.068165482
 30
0.0
 10
24.872192
 20
174.6190390731
 30
0.0
 10
24.5696013341
 20
175.6797980484
 30
0.0
 10
23.7057262428
 20
177.0422760902
 30
0.0
 10
22.5090516461
 20
178.0204482257
 30
0.0
 10
21.5490016218
 20
178.3445247888
 30
0.0
 10
21.0689868111
 20
178.4118307542
 30
0.0
  0
SPLINE
  5
439
100
AcDbEntity
  8
0
100
AcDbSpline
 62
7
  6
CONTINUOUS
 70
0
 71
3
 72
12
 73
8
 74
0
 42
0.0000001
 43
0.0000001
 44
0.0000000001
 40
0.0
 40
0.0
 40
0.0
 40
0.0
 40
0.2659991651
 40
0.5281289005
 40
0.7717980818
 40
0.8872151194
 40
1.0
 40
1.0
 40
1.0
 40
1.0
 10
7.9755910051
 20
166.7912917931
 30
0.0
 10
8.1215542695
 20
167.0788328452
 30
0.0
 10
8.289360686
 20
167.7186875554
 30
0.0
 10
8.1538534574
 20
168.6695916797
 30
0.0
 10
7.7179695353
 20
169.32508461
 30
0.0
 10
7.2323710214
 20
169.6400799566
 30
0.0
 10
6.9625120032
 20
169.7196888533
 30
0.0
 10
6.8271157848
 20
169.7387231454
 30
0.0
  0
SPLINE
  5
43A
100
AcDbEntity
  8
0
100
AcDbSpline
 62
7
  6
CONTINUOUS
 70
0
 71
3
 72
14
 73
10
 74
0
 42
0.0000001
 43
0.0000001
 44
0.0000000001
 40
0.0
 40
0.0
 40
0.0
 40
0.0
 40
0.1124634471
 40
0.2280530232
 40
0.3481654947
 40
0.4732628088
 40
0.6027415746
 40
0.7351843953
 40
1.0
 40
1.0
 40
1.0
 40
1.0
 10
14.6996085417
 20
204.6640376503
 30
0.0
 10
14.9336024974
 20
204.6535045211
 30
0.0
 10
15.4133645968
 20
204.698401872
 30
0.0
 10
16.0994092163
 20
204.9557660038
 30
0.0
 10
16.7230983357
 20
205.3875674251
 30
0.0
 10
17.2528588885
 20
205.9687755616
 30
0.0
 10
17.6629242184
 20
206.66961867
 30
0.0
 10
18.0235133204
 20
207.7105565645
 30
0.0
 10
18.0648779811
 20
208.5639932773
 30
0.0
 10
17.9831210729
 20
209.1094392373
 30
0.0
  0
SPLINE
  5
43B
100
AcDbEntity
  8
0
100
AcDbSpline
 62
7
  6
CONTINUOUS
 70
0
 71
3
 72
11
 73
7
 74
0
 42
0.0000001
 43
0.0000001
 44
0.0000000001
 40
0.0
 40
0.0
 40
0.0
 40
0.0
 40
0.2685537431
 40
0.5240913541
 40
0.7662647057
 40
1.0
 40
1.0
 40
1.0
 40
1.0
 10
17.9831210729
 20
209.1094392373
 30
0.0
 10
17.9297803019
 20
209.4653052881
 30
0.0
 10
17.7343609346
 20
210.1505734958
 30
0.0
 10
17.1761970222
 20
211.0306020065
 30
0.0
 10
16.4032644547
 20
211.6627105225
 30
0.0
 10
15.7829825966
 20
211.8719499581
 30
0.0
 10
15.4728372646
 20
211.9154956659
 30
0.0
  0
SPLINE
  5
43C
100
AcDbEntity
  8
0
100
AcDbSpline
 62
7
  6
CONTINUOUS
 70
0
 71
3
 72
13
 73
9
 74
0
 42
0.0000001
 43
0.0000001
 44
0.0000000001
 40
0.0
 40
0.0
 40
0.0
 40
0.0
 40
0.2646456415
 40
0.5267069436
 40
0.6522302672
 40
0.7722955927
 40
0.8875266183
 40
1.0
 40
1.0
 40
1.0
 40
1.0
 10
3.3228151547
 20
170.7123140793
 30
0.0
 10
3.6440211758
 20
171.2869126017
 30
0.0
 10
4.0319751305
 20
172.584783139
 30
0.0
 10
3.8299495992
 20
174.2477803713
 30
0.0
 10
3.2616803129
 20
175.3876200379
 30
0.0
 10
2.6687232611
 20
176.0753029491
 30
0.0
 10
1.9388450961
 20
176.5601992503
 30
0.0
 10
1.3865008944
 20
176.725125735
 30
0.0
 10
1.1094504508
 20
176.7640242147
 30
0.0
  0
SPLINE
  5
43D
100
AcDbEntity
  8
0
100
AcDbSpline
 62
7
  6
CONTINUOUS
 70
0
 71
3
 72
9
 73
5
 74
0
 42
0.0000001
 43
0.0000001
 44
0.0000000001
 40
0.0
 40
0.0
 40
0.0
 40
0.0
 40
0.4916517471
 40
1.0
 40
1.0
 40
1.0
 40
1.0
 10
-2.5028558133
 20
174.2670767488
 30
0.0
 10
-3.8090489057
 20
176.8542778168
 30
0.0
 10
-5.6864909779
 20
182.5344623548
 30
0.0
 10
-6.0003757001
 20
188.4944974044
 30
0.0
 10
-5.7809769004
 20
191.4831112379
 30
0.0
  0
SPLINE
  5
43E
100
AcDbEntity
  8
0
100
AcDbSpline
 62
7
  6
CONTINUOUS
 70
0
 71
3
 72
17
 73
13
 74
0
 42
0.0000001
 43
0.0000001
 44
0.0000000001
 40
0.0
 40
0.0
 40
0.0
 40
0.0
 40
0.0571919163
 40
0.1155938779
 40
0.2374199422
 40
0.3673909665
 40
0.5023074962
 40
0.6366216376
 40
0.765061623
 40
0.885207063
 40
0.9430184441
 40
1.0
 40
1.0
 40
1.0
 40
1.0
 10
-2.0499108081
 20
187.1835112077
 30
0.0
 10
-1.8010218216
 20
187.1723075873
 30
0.0
 10
-1.2935423644
 20
187.2081768235
 30
0.0
 10
-0.2965305716
 20
187.5089971788
 30
0.0
 10
0.8396094549
 20
188.3111474
 30
0.0
 10
1.7922550539
 20
189.7392522721
 30
0.0
 10
2.2537958418
 20
191.4464706789
 30
0.0
 10
2.1644696509
 20
193.206414813
 30
0.0
 10
1.5320569899
 20
194.7860827299
 30
0.0
 10
0.583980771
 20
195.7832343718
 30
0.0
 10
-0.329947195
 20
196.2601193993
 30
0.0
 10
-0.8190195501
 20
196.3871948573
 30
0.0
 10
-1.0648361114
 20
196.42168677
 30
0.0
  0
SPLINE
  5
43F
100
AcDbEntity
  8
0
100
AcDbSpline
 62
7
  6
CONTINUOUS
 70
0
 71
3
 72
15
 73
11
 74
0
 42
0.0000001
 43
0.0000001
 44
0.0000000001
 40
0.0
 40
0.0
 40
0.0
 40
0.0
 40
0.1353866636
 40
0.2696961471
 40
0.4013576712
 40
0.529148725
 40
0.652427787
 40
0.7712863756
 40
0.8866091159
 40
1.0
 40
1.0
 40
1.0
 40
1.0
 10
-5.7809769004
 20
191.4831112379
 30
0.0
 10
-5.6316265437
 20
193.5175368723
 30
0.0
 10
-4.9820966858
 20
197.5530713438
 30
0.0
 10
-2.9978430077
 20
203.296775496
 30
0.0
 10
-0.0832927272
 20
208.50253391
 30
0.0
 10
3.6447238713
 20
212.9492472739
 30
0.0
 10
8.0359384885
 20
216.4471187844
 30
0.0
 10
12.9128842019
 20
218.8391522669
 30
0.0
 10
18.0661574983
 20
220.0110650135
 30
0.0
 10
21.5531075095
 20
219.9347364535
 30
0.0
 10
23.2433189623
 20
219.6855245505
 30
0.0
  0
SPLINE
  5
440
100
AcDbEntity
  8
0
100
AcDbSpline
 62
7
  6
CONTINUOUS
 70
0
 71
3
 72
10
 73
6
 74
0
 42
0.0000001
 43
0.0000001
 44
0.0000000001
 40
0.0
 40
0.0
 40
0.0
 40
0.0
 40
0.2393478056
 40
0.4846628248
 40
1.0
 40
1.0
 40
1.0
 40
1.0
 10
25.4404166927
 20
212.9693671852
 30
0.0
 10
25.6815538263
 20
212.9585125107
 30
0.0
 10
26.1750439355
 20
213.0007216506
 30
0.0
 10
27.1349284763
 20
213.3342614777
 30
0.0
 10
27.7511577076
 20
213.8438007724
 30
0.0
 10
28.0806262794
 20
214.245739415
 30
0.0
  0
SPLINE
  5
441
100
AcDbEntity
  8
0
100
AcDbSpline
 62
7
  6
CONTINUOUS
 70
0
 71
3
 72
9
 73
5
 74
0
 42
0.0000001
 43
0.0000001
 44
0.0000000001
 40
0.0
 40
0.0
 40
0.0
 40
0.0
 40
0.2476693056
 40
1.0
 40
1.0
 40
1.0
 40
1.0
 10
28.0806262794
 20
214.245739415
 30
0.0
 10
28.1158871476
 20
214.2887562814
 30
0.0
 10
28.2546750576
 20
214.4653559697
 30
0.0
 10
28.3790388385
 20
214.6532372921
 30
0.0
 10
28.463989329
 20
214.7992871173
 30
0.0
  0
SPLINE
  5
442
100
AcDbEntity
  8
0
100
AcDbSpline
 62
7
  6
CONTINUOUS
 70
0
 71
3
 72
10
 73
6
 74
0
 42
0.0000001
 43
0.0000001
 44
0.0000000001
 40
0.0
 40
0.0
 40
0.0
 40
0.0
 40
0.2372479986
 40
0.4818929504
 40
1.0
 40
1.0
 40
1.0
 40
1.0
 10
31.9109257786
 20
210.4946792692
 30
0.0
 10
32.0498065404
 20
210.4884276171
 30
0.0
 10
32.3355275779
 20
210.5186704726
 30
0.0
 10
32.882872306
 20
210.7438389988
 30
0.0
 10
33.2136770551
 20
211.0783518789
 30
0.0
 10
33.3768618526
 20
211.3343642534
 30
0.0
  0
SPLINE
  5
443
100
AcDbEntity
  8
0
100
AcDbSpline
 62
7
  6
CONTINUOUS
 70
0
 71
3
 72
19
 73
15
 74
0
 42
0.0000001
 43
0.0000001
 44
0.0000000001
 40
0.0
 40
0.0
 40
0.0
 40
0.0
 40
0.0571311065
 40
0.1154491939
 40
0.1755436013
 40
0.2377283813
 40
0.3675463629
 40
0.5023022028
 40
0.6364550872
 40
0.7647416271
 40
0.8260507119
 40
0.8853607444
 40
0.9430973525
 40
1.0
 40
1.0
 40
1.0
 40
1.0
 10
32.2365829415
 20
190.2921661851
 30
0.0
 10
32.6972031134
 20
190.2714315852
 30
0.0
 10
33.6361142172
 20
190.3374637914
 30
0.0
 10
35.0023821709
 20
190.7506841554
 30
0.0
 10
36.2870929683
 20
191.4611513941
 30
0.0
 10
37.8486683151
 20
192.7825769187
 30
0.0
 10
39.3486689565
 20
195.0225478899
 30
0.0
 10
40.1991322923
 20
198.1807717564
 30
0.0
 10
40.0371423731
 20
201.4358485382
 30
0.0
 10
39.038279453
 20
203.9162316003
 30
0.0
 10
37.7840882356
 20
205.500361197
 30
0.0
 10
36.672956302
 20
206.4325905921
 30
0.0
 10
35.4189697559
 20
207.0879563127
 30
0.0
 10
34.514182354
 20
207.3229201477
 30
0.0
 10
34.0593870719
 20
207.3866790454
 30
0.0
  0
SPLINE
  5
444
100
AcDbEntity
  8
0
100
AcDbSpline
 62
7
  6
CONTINUOUS
 70
0
 71
3
 72
13
 73
9
 74
0
 42
0.0000001
 43
0.0000001
 44
0.0000000001
 40
0.0
 40
0.0
 40
0.0
 40
0.0
 40
0.1126272951
 40
0.2283393547
 40
0.348617847
 40
0.473874891
 40
0.7348540113
 40
1.0
 40
1.0
 40
1.0
 40
1.0
 10
21.048777732
 20
164.505551633
 30
0.0
 10
21.5713448424
 20
164.4820285163
 30
0.0
 10
22.6426068016
 20
164.5821404651
 30
0.0
 10
24.1742951587
 20
165.1570766158
 30
0.0
 10
25.5672106271
 20
166.1210929467
 30
0.0
 10
27.1630676415
 20
167.8724367826
 30
0.0
 10
28.4450216295
 20
170.7047207241
 30
0.0
 10
28.5630018528
 20
173.2137224717
 30
0.0
 10
28.3804563561
 20
174.4315853344
 30
0.0
  0
SPLINE
  5
445
100
AcDbEntity
  8
0
100
AcDbSpline
 62
7
  6
CONTINUOUS
 70
0
 71
3
 72
9
 73
5
 74
0
 42
0.0000001
 43
0.0000001
 44
0.0000000001
 40
0.0
 40
0.0
 40
0.0
 40
0.0
 40
0.4967075477
 40
1.0
 40
1.0
 40
1.0
 40
1.0
 10
15.0255098738
 20
161.0093553847
 30
0.0
 10
13.5447441521
 20
161.205746507
 30
0.0
 10
10.5980880594
 20
161.9283472295
 30
0.0
 10
7.8755560633
 20
163.2633826813
 30
0.0
 10
6.5913077978
 20
164.0643162676
 30
0.0
  0
SPLINE
  5
446
100
AcDbEntity
  8
0
100
AcDbSpline
 62
7
  6
CONTINUOUS
 70
0
 71
3
 72
23
 73
19
 74
0
 42
0.0000001
 43
0.0000001
 44
0.0000000001
 40
0.0
 40
0.0
 40
0.0
 40
0.0
 40
0.058378106
 40
0.1220279913
 40
0.190256476
 40
0.262096505
 40
0.3363980487
 40
0.4118929499
 40
0.4872599795
 40
0.5611837584
 40
0.6324143088
 40
0.6998302592
 40
0.7625109909
 40
0.8198246582
 40
0.8715423189
 40
0.9179864527
 40
0.9601954338
 40
1.0
 40
1.0
 40
1.0
 40
1.0
 10
27.5048961761
 20
297.3216364308
 30
0.0
 10
27.0582943912
 20
296.01571357
 30
0.0
 10
25.9109327765
 20
293.3569802715
 30
0.0
 10
23.6311897817
 20
289.4694067093
 30
0.0
 10
20.7671807811
 20
285.5871118307
 30
0.0
 10
17.3865645299
 20
281.80228317
 30
0.0
 10
13.5690814475
 20
278.203971123
 30
0.0
 10
9.4053562673
 20
274.8778541496
 30
0.0
 10
4.9944880008
 20
271.9030997
 30
0.0
 10
0.4414746299
 20
269.3504693378
 30
0.0
 10
-4.1455621181
 20
267.2804525517
 30
0.0
 10
-8.6583667338
 20
265.7418703326
 30
0.0
 10
-12.9916948978
 20
264.7709365983
 30
0.0
 10
-17.0466881861
 20
264.3914237702
 30
0.0
 10
-20.7333478031
 20
264.6159706432
 30
0.0
 10
-23.9715135573
 20
265.4515618395
 30
0.0
 10
-26.6794268062
 20
266.8985896674
 30
0.0
 10
-28.0864148419
 20
268.2810222334
 30
0.0
 10
-28.6495461778
 20
269.0349971046
 30
0.0
  0
SPLINE
  5
447
100
AcDbEntity
  8
0
100
AcDbSpline
 62
7
  6
CONTINUOUS
 70
0
 71
3
 72
12
 73
8
 74
0
 42
0.0000001
 43
0.0000001
 44
0.0000000001
 40
0.0
 40
0.0
 40
0.0
 40
0.0
 40
0.1077440202
 40
0.217524852
 40
0.449824542
 40
0.7087843693
 40
1.0
 40
1.0
 40
1.0
 40
1.0
 10
25.4327153683
 20
309.424913191
 30
0.0
 10
25.1396658442
 20
309.8172779026
 30
0.0
 10
24.4816644074
 20
310.5622188195
 30
0.0
 10
22.8944239863
 20
311.8628277625
 30
0.0
 10
20.4021924287
 20
313.0765893866
 30
0.0
 10
16.891120419
 20
313.7927472074
 30
0.0
 10
14.3755595093
 20
313.806063099
 30
0.0
 10
13.055010401
 20
313.7155855156
 30
0.0
  0
SPLINE
  5
448
100
AcDbEntity
  8
0
100
AcDbSpline
 62
7
  6
CONTINUOUS
 70
0
 71
3
 72
9
 73
5
 74
0
 42
0.0000001
 43
0.0000001
 44
0.0000000001
 40
0.0
 40
0.0
 40
0.0
 40
0.0
 40
0.4838772402
 40
1.0
 40
1.0
 40
1.0
 40
1.0
 10
5.3493991947
 20
312.2074649848
 30
0.0
 10
2.7901213464
 20
311.416513234
 30
0.0
 10
-2.3519340406
 20
309.2913526468
 30
0.0
 10
-7.122177639
 20
306.4443387244
 30
0.0
 10
-9.4716730894
 20
304.8184253398
 30
0.0
  0
SPLINE
  5
449
100
AcDbEntity
  8
0
100
AcDbSpline
 62
7
  6
CONTINUOUS
 70
0
 71
3
 72
9
 73
5
 74
0
 42
0.0000001
 43
0.0000001
 44
0.0000000001
 40
0.0
 40
0.0
 40
0.0
 40
0.0
 40
0.2521765063
 40
1.0
 40
1.0
 40
1.0
 40
1.0
 10
-9.4716730894
 20
304.8184253398
 30
0.0
 10
-10.2913829118
 20
304.2511643258
 30
0.0
 10
-13.4877903904
 20
301.9248013749
 30
0.0
 10
-16.4683398464
 20
299.2992633987
 30
0.0
 10
-18.531966183
 20
297.182620817
 30
0.0
  0
LINE
  5
44A
100
AcDbEntity
  8
0
100
AcDbLine
 62
7
  6
CONTINUOUS
 10
-18.531966183
 20
297.182620817
 11
-18.5969210655
 21
297.1158890625
  0
SPLINE
  5
44B
100
AcDbEntity
  8
0
100
AcDbSpline
 62
7
  6
CONTINUOUS
 70
0
 71
3
 72
11
 73
7
 74
0
 42
0.0000001
 43
0.0000001
 44
0.0000000001
 40
0.0
 40
0.0
 40
0.0
 40
0.0
 40
0.2774876831
 40
0.5326804081
 40
0.7709555061
 40
1.0
 40
1.0
 40
1.0
 40
1.0
 10
-29.1462179377
 20
279.025858913
 30
0.0
 10
-29.2943799484
 20
278.1599324726
 30
0.0
 10
-29.4617734852
 20
276.4733425927
 30
0.0
 10
-29.2716643915
 20
274.0251889641
 30
0.0
 10
-28.6240900613
 20
271.812638791
 30
0.0
 10
-27.8816427595
 20
270.5135330401
 30
0.0
 10
-27.4477183666
 20
269.9325506282
 30
0.0
  0
SPLINE
  5
44C
100
AcDbEntity
  8
0
100
AcDbSpline
 62
7
  6
CONTINUOUS
 70
0
 71
3
 72
12
 73
8
 74
0
 42
0.0000001
 43
0.0000001
 44
0.0000000001
 40
0.0
 40
0.0
 40
0.0
 40
0.0
 40
0.1087499012
 40
0.2193905879
 40
0.4525651727
 40
0.7108569217
 40
1.0
 40
1.0
 40
1.0
 40
1.0
 10
30.5668301204
 20
315.9200061722
 30
0.0
 10
30.9157243775
 20
315.4528007592
 30
0.0
 10
31.546423654
 20
314.4530482067
 30
0.0
 10
32.5138918158
 20
312.2187776851
 30
0.0
 10
33.1126425774
 20
309.0009392842
 30
0.0
 10
32.8505983346
 20
304.7929225293
 30
0.0
 10
32.102799378
 20
301.936659228
 30
0.0
 10
31.6011337684
 20
300.4697224395
 30
0.0
  0
SPLINE
  5
44D
100
AcDbEntity
  8
0
100
AcDbSpline
 62
7
  6
CONTINUOUS
 70
0
 71
3
 72
13
 73
9
 74
0
 42
0.0000001
 43
0.0000001
 44
0.0000000001
 40
0.0
 40
0.0
 40
0.0
 40
0.0
 40
0.1467317369
 40
0.2870196527
 40
0.4852324269
 40
0.6691863322
 40
0.8400600612
 40
1.0
 40
1.0
 40
1.0
 40
1.0
 10
-20.2807449007
 20
256.5849371746
 30
0.0
 10
-21.1867590196
 20
256.4478855474
 30
0.0
 10
-22.9675067124
 20
256.2315883834
 30
0.0
 10
-25.9949152366
 20
256.0627675444
 30
0.0
 10
-29.2632672138
 20
256.1684051927
 30
0.0
 10
-32.6851921928
 20
256.706985198
 30
0.0
 10
-35.7676503022
 20
257.6608072415
 30
0.0
 10
-37.6239131351
 20
258.5968557385
 30
0.0
 10
-38.4682159848
 20
259.1304884453
 30
0.0
  0
SPLINE
  5
44E
100
AcDbEntity
  8
0
100
AcDbSpline
 62
7
  6
CONTINUOUS
 70
0
 71
3
 72
11
 73
7
 74
0
 42
0.0000001
 43
0.0000001
 44
0.0000000001
 40
0.0
 40
0.0
 40
0.0
 40
0.0
 40
0.2279601332
 40
0.4726735599
 40
0.7312156367
 40
1.0
 40
1.0
 40
1.0
 40
1.0
 10
36.2704509993
 20
298.9223887856
 30
0.0
 10
35.4313020412
 20
297.112895931
 30
0.0
 10
33.4509475343
 20
293.4698802606
 30
0.0
 10
29.8202558453
 20
288.1904478435
 30
0.0
 10
25.4910135833
 20
282.9937406032
 30
0.0
 10
22.2461560929
 20
279.7051651222
 30
0.0
 10
20.5301857114
 20
278.0969266684
 30
0.0
  0
SPLINE
  5
44F
100
AcDbEntity
  8
0
100
AcDbSpline
 62
7
  6
CONTINUOUS
 70
0
 71
3
 72
9
 73
5
 74
0
 42
0.0000001
 43
0.0000001
 44
0.0000000001
 40
0.0
 40
0.0
 40
0.0
 40
0.0
 40
0.5037323831
 40
1.0
 40
1.0
 40
1.0
 40
1.0
 10
20.5301857114
 20
278.0969266684
 30
0.0
 10
17.1512267703
 20
274.9301052817
 30
0.0
 10
9.9555284227
 20
269.1490331265
 30
0.0
 10
1.9964358847
 20
264.4679597812
 30
0.0
 10
-2.1122669611
 20
262.4845850492
 30
0.0
  0
SPLINE
  5
450
100
AcDbEntity
  8
0
100
AcDbSpline
 62
7
  6
CONTINUOUS
 70
0
 71
3
 72
9
 73
5
 74
0
 42
0.0000001
 43
0.0000001
 44
0.0000000001
 40
0.0
 40
0.0
 40
0.0
 40
0.0
 40
0.4863312915
 40
1.0
 40
1.0
 40
1.0
 40
1.0
 10
29.7656049134
 20
315.3216321821
 30
0.0
 10
29.1376455198
 20
316.1625417679
 30
0.0
 10
27.5838472634
 20
317.7080753136
 30
0.0
 10
25.6742701642
 20
318.767599669
 30
0.0
 10
24.6513226174
 20
319.1946245573
 30
0.0
  0
SPLINE
  5
451
100
AcDbEntity
  8
0
100
AcDbSpline
 62
7
  6
CONTINUOUS
 70
0
 71
3
 72
17
 73
13
 74
0
 42
0.0000001
 43
0.0000001
 44
0.0000000001
 40
0.0
 40
0.0
 40
0.0
 40
0.0
 40
0.0393217461
 40
0.0806163923
 40
0.1254639849
 40
0.1748601046
 40
0.2884364716
 40
0.4204946143
 40
0.5655899778
 40
0.7160941471
 40
0.863553737
 40
1.0
 40
1.0
 40
1.0
 40
1.0
 10
11.2305291784
 20
236.7817802029
 30
0.0
 10
11.3530326275
 20
236.8145945433
 30
0.0
 10
11.5959539183
 20
236.9171677371
 30
0.0
 10
11.9188239143
 20
237.1672899005
 30
0.0
 10
12.1983156657
 20
237.5074147135
 30
0.0
 10
12.522940815
 20
238.0972430585
 30
0.0
 10
12.7804048193
 20
239.0254770941
 30
0.0
 10
12.8622408135
 20
240.2887911532
 30
0.0
 10
12.7267243284
 20
241.6669775246
 30
0.0
 10
12.3829825437
 20
243.0589565925
 30
0.0
 10
11.8568525031
 20
244.3623591014
 30
0.0
 10
11.3837488481
 20
245.1529241167
 30
0.0
 10
11.1204226681
 20
245.5055189394
 30
0.0
  0
SPLINE
  5
452
100
AcDbEntity
  8
0
100
AcDbSpline
 62
7
  6
CONTINUOUS
 70
0
 71
3
 72
12
 73
8
 74
0
 42
0.0000001
 43
0.0000001
 44
0.0000000001
 40
0.0
 40
0.0
 40
0.0
 40
0.0
 40
0.2156234455
 40
0.390781838
 40
0.5794180071
 40
0.7824657994
 40
1.0
 40
1.0
 40
1.0
 40
1.0
 10
38.9116724643
 20
316.9512370349
 30
0.0
 10
39.2775498569
 20
315.6668039015
 30
0.0
 10
39.6388549243
 20
313.2464584239
 30
0.0
 10
39.5115507567
 20
309.6500540637
 30
0.0
 10
38.9103464717
 20
306.1806645611
 30
0.0
 10
37.8318772296
 20
302.5573836887
 30
0.0
 10
36.8373000613
 20
300.1447097067
 30
0.0
 10
36.2704509993
 20
298.9223887856
 30
0.0
  0
SPLINE
  5
453
100
AcDbEntity
  8
0
100
AcDbSpline
 62
7
  6
CONTINUOUS
 70
0
 71
3
 72
12
 73
8
 74
0
 42
0.0000001
 43
0.0000001
 44
0.0000000001
 40
0.0
 40
0.0
 40
0.0
 40
0.0
 40
0.1087490536
 40
0.2193900346
 40
0.452564584
 40
0.710857733
 40
1.0
 40
1.0
 40
1.0
 40
1.0
 10
26.63453561
 20
310.3224610951
 30
0.0
 10
26.9281377212
 20
309.9293449076
 30
0.0
 10
27.4588714261
 20
309.0881030517
 30
0.0
 10
28.2729267247
 20
307.2080351423
 30
0.0
 10
28.7767935598
 20
304.500346192
 30
0.0
 10
28.5562718776
 20
300.9594478145
 30
0.0
 10
27.9270281813
 20
298.5560064099
 30
0.0
 10
27.5048961761
 20
297.3216364308
 30
0.0
  0
SPLINE
  5
454
100
AcDbEntity
  8
0
100
AcDbSpline
 62
7
  6
CONTINUOUS
 70
0
 71
3
 72
11
 73
7
 74
0
 42
0.0000001
 43
0.0000001
 44
0.0000000001
 40
0.0
 40
0.0
 40
0.0
 40
0.0
 40
0.3067972423
 40
0.5723528636
 40
0.7986410704
 40
1.0
 40
1.0
 40
1.0
 40
1.0
 10
6.9202591751
 20
251.1295548863
 30
0.0
 10
6.8530734616
 20
251.2195168291
 30
0.0
 10
6.7147151555
 20
251.3784913997
 30
0.0
 10
6.4799995105
 20
251.5570855893
 30
0.0
 10
6.2391466569
 20
251.6503542686
 30
0.0
 10
6.0769909896
 20
251.6458030452
 30
0.0
 10
6.0058156318
 20
251.6267050236
 30
0.0
  0
SPLINE
  5
455
100
AcDbEntity
  8
0
100
AcDbSpline
 62
7
  6
CONTINUOUS
 70
0
 71
3
 72
13
 73
9
 74
0
 42
0.0000001
 43
0.0000001
 44
0.0000000001
 40
0.0
 40
0.0
 40
0.0
 40
0.0
 40
0.3173660642
 40
0.5957932239
 40
0.7150862925
 40
0.8203100974
 40
0.9136587963
 40
1.0
 40
1.0
 40
1.0
 40
1.0
 10
-14.3260973785
 20
244.5159102947
 30
0.0
 10
-14.3672502231
 20
244.7243030165
 30
0.0
 10
-14.4097377255
 20
245.1232687006
 30
0.0
 10
-14.359249772
 20
245.6053041319
 30
0.0
 10
-14.2455292133
 20
245.9239064568
 30
0.0
 10
-14.1346611681
 20
246.1076335411
 30
0.0
 10
-13.9959505873
 20
246.2422481175
 30
0.0
 10
-13.8847107298
 20
246.2949253905
 30
0.0
 10
-13.8288957934
 20
246.3099018753
 30
0.0
  0
SPLINE
  5
456
100
AcDbEntity
  8
0
100
AcDbSpline
 62
7
  6
CONTINUOUS
 70
0
 71
3
 72
9
 73
5
 74
0
 42
0.0000001
 43
0.0000001
 44
0.0000000001
 40
0.0
 40
0.0
 40
0.0
 40
0.0
 40
0.5200630411
 40
1.0
 40
1.0
 40
1.0
 40
1.0
 10
-5.6757739357
 20
265.0031228083
 30
0.0
 10
-7.6118774005
 20
264.2226660725
 30
0.0
 10
-11.4134593732
 20
262.9078104556
 30
0.0
 10
-15.3490516671
 20
262.0527658003
 30
0.0
 10
-17.2568272946
 20
261.7853529614
 30
0.0
  0
SPLINE
  5
457
100
AcDbEntity
  8
0
100
AcDbSpline
 62
7
  6
CONTINUOUS
 70
0
 71
3
 72
14
 73
10
 74
0
 42
0.0000001
 43
0.0000001
 44
0.0000000001
 40
0.0
 40
0.0
 40
0.0
 40
0.0
 40
0.1040517206
 40
0.2171177486
 40
0.3381136383
 40
0.4655127223
 40
0.5974896825
 40
0.7320214166
 40
1.0
 40
1.0
 40
1.0
 40
1.0
 10
31.6011337684
 20
300.4697224395
 30
0.0
 10
31.096537267
 20
298.9942153348
 30
0.0
 10
29.8141436527
 20
295.9915967943
 30
0.0
 10
27.2834149643
 20
291.5910629218
 30
0.0
 10
24.115102022
 20
287.1865461021
 30
0.0
 10
20.3774001058
 20
282.8733039567
 30
0.0
 10
16.1498540039
 20
278.742808553
 30
0.0
 10
9.9939590728
 20
273.6096987471
 30
0.0
 10
4.9237609635
 20
270.2813101422
 30
0.0
 10
1.3980696481
 20
268.3580539977
 30
0.0
  0
SPLINE
  5
458
100
AcDbEntity
  8
0
100
AcDbSpline
 62
7
  6
CONTINUOUS
 70
0
 71
3
 72
11
 73
7
 74
0
 42
0.0000001
 43
0.0000001
 44
0.0000000001
 40
0.0
 40
0.0
 40
0.0
 40
0.0
 40
0.2800062038
 40
0.5358356354
 40
0.7730445511
 40
1.0
 40
1.0
 40
1.0
 40
1.0
 10
-24.0478887784
 20
261.5371253295
 30
0.0
 10
-25.2248261802
 20
261.6344035665
 30
0.0
 10
-27.4697005688
 20
261.9824637543
 30
0.0
 10
-30.5686696527
 20
263.0615057823
 30
0.0
 10
-33.1779975496
 20
264.6655265035
 30
0.0
 10
-34.5604206393
 20
266.0867459976
 30
0.0
 10
-35.1331675344
 20
266.8536889758
 30
0.0
  0
SPLINE
  5
459
100
AcDbEntity
  8
0
100
AcDbSpline
 62
7
  6
CONTINUOUS
 70
0
 71
3
 72
9
 73
5
 74
0
 42
0.0000001
 43
0.0000001
 44
0.0000000001
 40
0.0
 40
0.0
 40
0.0
 40
0.0
 40
0.5141836917
 40
1.0
 40
1.0
 40
1.0
 40
1.0
 10
-36.6080481644
 20
273.5960890097
 30
0.0
 10
-36.4969293407
 20
272.4679048713
 30
0.0
 10
-36.0307610047
 20
270.2851691876
 30
0.0
 10
-34.9728026264
 20
268.3102902363
 30
0.0
 10
-34.3319199186
 20
267.4520796841
 30
0.0
  0
SPLINE
  5
45A
100
AcDbEntity
  8
0
100
AcDbSpline
 62
7
  6
CONTINUOUS
 70
0
 71
3
 72
9
 73
5
 74
0
 42
0.0000001
 43
0.0000001
 44
0.0000000001
 40
0.0
 40
0.0
 40
0.0
 40
0.0
 40
0.4947657202
 40
1.0
 40
1.0
 40
1.0
 40
1.0
 10
30.0565647528
 20
316.6032535684
 30
0.0
 10
29.670730137
 20
317.1199259335
 30
0.0
 10
28.7981749076
 20
318.0979297988
 30
0.0
 10
27.7730312718
 20
318.9133885788
 30
0.0
 10
27.2271994126
 20
319.2817209293
 30
0.0
  0
SPLINE
  5
45B
100
AcDbEntity
  8
0
100
AcDbSpline
 62
7
  6
CONTINUOUS
 70
0
 71
3
 72
11
 73
7
 74
0
 42
0.0000001
 43
0.0000001
 44
0.0000000001
 40
0.0
 40
0.0
 40
0.0
 40
0.0
 40
0.2223745966
 40
0.4573333013
 40
0.7146148477
 40
1.0
 40
1.0
 40
1.0
 40
1.0
 10
-34.3319199186
 20
267.4520796841
 30
0.0
 10
-33.7017668763
 20
266.6082373023
 30
0.0
 10
-32.1403147684
 20
265.0571527201
 30
0.0
 10
-29.1477330713
 20
263.4021283893
 30
0.0
 10
-25.5743615754
 20
262.4057896224
 30
0.0
 10
-22.998745394
 20
262.1935616194
 30
0.0
 10
-21.6472206614
 20
262.1806375803
 30
0.0
  0
SPLINE
  5
45C
100
AcDbEntity
  8
0
100
AcDbSpline
 62
7
  6
CONTINUOUS
 70
0
 71
3
 72
9
 73
5
 74
0
 42
0.0000001
 43
0.0000001
 44
0.0000000001
 40
0.0
 40
0.0
 40
0.0
 40
0.0
 40
0.5271222617
 40
1.0
 40
1.0
 40
1.0
 40
1.0
 10
-4.6289953051
 20
266.9467145233
 30
0.0
 10
-7.1199437101
 20
265.866554609
 30
0.0
 10
-11.9832330612
 20
264.1161562001
 30
0.0
 10
-17.0769096613
 20
263.150671892
 30
0.0
 10
-19.5050297154
 20
262.9591119362
 30
0.0
  0
SPLINE
  5
45D
100
AcDbEntity
  8
0
100
AcDbSpline
 62
7
  6
CONTINUOUS
 70
0
 71
3
 72
11
 73
7
 74
0
 42
0.0000001
 43
0.0000001
 44
0.0000000001
 40
0.0
 40
0.0
 40
0.0
 40
0.0
 40
0.3069444476
 40
0.5725418863
 40
0.7988018892
 40
1.0
 40
1.0
 40
1.0
 40
1.0
 10
-10.4324125366
 20
246.4738617554
 30
0.0
 10
-10.4997487494
 20
246.5643391095
 30
0.0
 10
-10.6384078466
 20
246.7242602343
 30
0.0
 10
-10.8737752805
 20
246.9040368438
 30
0.0
 10
-11.1153818567
 20
246.9981090107
 30
0.0
 10
-11.2781528328
 20
246.9936576388
 30
0.0
 10
-11.3495542867
 20
246.9744929443
 30
0.0
  0
SPLINE
  5
45E
100
AcDbEntity
  8
0
100
AcDbSpline
 62
7
  6
CONTINUOUS
 70
0
 71
3
 72
10
 73
6
 74
0
 42
0.0000001
 43
0.0000001
 44
0.0000000001
 40
0.0
 40
0.0
 40
0.0
 40
0.0
 40
0.5218725887
 40
0.7640100107
 40
1.0
 40
1.0
 40
1.0
 40
1.0
 10
-32.4514924766
 20
278.698939122
 30
0.0
 10
-32.5053716412
 20
277.364617173
 30
0.0
 10
-32.3308841596
 20
275.3739444243
 30
0.0
 10
-31.435144083
 20
272.964647552
 30
0.0
 10
-30.7968305313
 20
271.9101823811
 30
0.0
 10
-30.4354751203
 20
271.4263628788
 30
0.0
  0
SPLINE
  5
45F
100
AcDbEntity
  8
0
100
AcDbSpline
 62
7
  6
CONTINUOUS
 70
0
 71
3
 72
9
 73
5
 74
0
 42
0.0000001
 43
0.0000001
 44
0.0000000001
 40
0.0
 40
0.0
 40
0.0
 40
0.0
 40
0.255845796
 40
1.0
 40
1.0
 40
1.0
 40
1.0
 10
-0.9023857391
 20
310.6806616115
 30
0.0
 10
-0.4498389457
 20
310.8928481596
 30
0.0
 10
1.3298701378
 20
311.6986479644
 30
0.0
 10
3.153271627
 20
312.4090746084
 30
0.0
 10
4.5308476271
 20
312.8735862667
 30
0.0
  0
SPLINE
  5
460
100
AcDbEntity
  8
0
100
AcDbSpline
 62
7
  6
CONTINUOUS
 70
0
 71
3
 72
11
 73
7
 74
0
 42
0.0000001
 43
0.0000001
 44
0.0000000001
 40
0.0
 40
0.0
 40
0.0
 40
0.0
 40
0.227772913
 40
0.465397233
 40
0.7209636728
 40
1.0
 40
1.0
 40
1.0
 40
1.0
 10
-28.6495461778
 20
269.0349971046
 30
0.0
 10
-29.1204122842
 20
269.6654383345
 30
0.0
 10
-29.9211835466
 20
271.0822058079
 30
0.0
 10
-30.5951262668
 20
273.5015192315
 30
0.0
 10
-30.7534674638
 20
276.1814071639
 30
0.0
 10
-30.5304488102
 20
278.0243089145
 30
0.0
 10
-30.3469242557
 20
278.9706486538
 30
0.0
  0
SPLINE
  5
461
100
AcDbEntity
  8
0
100
AcDbSpline
 62
7
  6
CONTINUOUS
 70
0
 71
3
 72
11
 73
7
 74
0
 42
0.0000001
 43
0.0000001
 44
0.0000000001
 40
0.0
 40
0.0
 40
0.0
 40
0.0
 40
0.2238833993
 40
0.4595691377
 40
0.7163717007
 40
1.0
 40
1.0
 40
1.0
 40
1.0
 10
24.8486068147
 20
312.7138269761
 30
0.0
 10
24.3252784313
 20
313.4145353146
 30
0.0
 10
23.0398533727
 20
314.706018532
 30
0.0
 10
20.5876924608
 20
316.1106695462
 30
0.0
 10
17.6640327988
 20
316.9902135749
 30
0.0
 10
15.5531266281
 20
317.212855637
 30
0.0
 10
14.4457707876
 20
317.249122959
 30
0.0
  0
SPLINE
  5
462
100
AcDbEntity
  8
0
100
AcDbSpline
 62
7
  6
CONTINUOUS
 70
0
 71
3
 72
11
 73
7
 74
0
 42
0.0000001
 43
0.0000001
 44
0.0000000001
 40
0.0
 40
0.0
 40
0.0
 40
0.0
 40
0.2189053585
 40
0.4534374637
 40
0.7122684001
 40
1.0
 40
1.0
 40
1.0
 40
1.0
 10
29.7346782522
 20
315.3083187061
 30
0.0
 10
30.3138534231
 20
314.3929359076
 30
0.0
 10
31.230670567
 20
312.3056473808
 30
0.0
 10
31.7370490124
 20
308.7832192816
 30
0.0
 10
31.4250016434
 20
304.905108603
 30
0.0
 10
30.7251392029
 20
302.2786343197
 30
0.0
 10
30.2644220913
 20
300.9314363713
 30
0.0
  0
SPLINE
  5
463
100
AcDbEntity
  8
0
100
AcDbSpline
 62
7
  6
CONTINUOUS
 70
0
 71
3
 72
19
 73
15
 74
0
 42
0.0000001
 43
0.0000001
 44
0.0000000001
 40
0.0
 40
0.0
 40
0.0
 40
0.0
 40
0.0558664905
 40
0.1163291972
 40
0.1808902422
 40
0.248851462
 40
0.3913864419
 40
0.5363008171
 40
0.6754994006
 40
0.7406909729
 40
0.8018901989
 40
0.8585591903
 40
0.9104180942
 40
1.0
 40
1.0
 40
1.0
 40
1.0
 10
21.1092445731
 20
303.8932172233
 30
0.0
 10
20.7280062067
 20
302.7784256686
 30
0.0
 10
19.7715833289
 20
300.5111153362
 30
0.0
 10
17.9004923596
 20
297.1795165145
 30
0.0
 10
15.5686457542
 20
293.8365300543
 30
0.0
 10
11.8458530918
 20
289.3805436368
 30
0.0
 10
6.3632471631
 20
284.2232932583
 30
0.0
 10
-1.0244461833
 20
279.0388472944
 30
0.0
 10
-7.6366553295
 20
275.7145019129
 30
0.0
 10
-12.930369919
 20
273.8630092838
 30
0.0
 10
-16.6850417923
 20
272.939948037
 30
0.0
 10
-20.2451882499
 20
272.4707493326
 30
0.0
 10
-24.4232100821
 20
272.4595044833
 30
0.0
 10
-27.4265072795
 20
273.1315878506
 30
0.0
 10
-29.1164789195
 20
273.9760415862
 30
0.0
  0
SPLINE
  5
464
100
AcDbEntity
  8
0
100
AcDbSpline
 62
7
  6
CONTINUOUS
 70
0
 71
3
 72
11
 73
7
 74
0
 42
0.0000001
 43
0.0000001
 44
0.0000000001
 40
0.0
 40
0.0
 40
0.0
 40
0.0
 40
0.2225441913
 40
0.4653851097
 40
0.7258049613
 40
1.0
 40
1.0
 40
1.0
 40
1.0
 10
30.2644220913
 20
300.9314363713
 30
0.0
 10
29.7400494652
 20
299.3981012544
 30
0.0
 10
28.3891987326
 20
296.2760902816
 30
0.0
 10
25.7004777731
 20
291.7138423585
 30
0.0
 10
22.3202762326
 20
287.1608633291
 30
0.0
 10
19.7117295642
 20
284.262891323
 30
0.0
 10
18.3140115451
 20
282.8370879226
 30
0.0
  0
SPLINE
  5
465
100
AcDbEntity
  8
0
100
AcDbSpline
 62
7
  6
CONTINUOUS
 70
0
 71
3
 72
9
 73
5
 74
0
 42
0.0000001
 43
0.0000001
 44
0.0000000001
 40
0.0
 40
0.0
 40
0.0
 40
0.0
 40
0.4824421237
 40
1.0
 40
1.0
 40
1.0
 40
1.0
 10
-8.7142887581
 20
240.1887157942
 30
0.0
 10
-8.2892833087
 20
239.6196317742
 30
0.0
 10
-7.598211378
 20
238.297702207
 30
0.0
 10
-7.2152975596
 20
236.8632810666
 30
0.0
 10
-7.1044332933
 20
236.1094185291
 30
0.0
  0
SPLINE
  5
466
100
AcDbEntity
  8
0
100
AcDbSpline
 62
7
  6
CONTINUOUS
 70
0
 71
3
 72
9
 73
5
 74
0
 42
0.0000001
 43
0.0000001
 44
0.0000000001
 40
0.0
 40
0.0
 40
0.0
 40
0.0
 40
0.2588257091
 40
1.0
 40
1.0
 40
1.0
 40
1.0
 10
-7.0499159162
 20
235.6663508693
 30
0.0
 10
-7.0379647991
 20
235.5452745072
 30
0.0
 10
-7.0012141203
 20
235.0766577384
 30
0.0
 10
-7.0022591636
 20
234.604639782
 30
0.0
 10
-7.0293812379
 20
234.2572973982
 30
0.0
  0
SPLINE
  5
467
100
AcDbEntity
  8
0
100
AcDbSpline
 62
7
  6
CONTINUOUS
 70
0
 71
3
 72
11
 73
7
 74
0
 42
0.0000001
 43
0.0000001
 44
0.0000000001
 40
0.0
 40
0.0
 40
0.0
 40
0.0
 40
0.201358965
 40
0.4276472081
 40
0.6932027419
 40
1.0
 40
1.0
 40
1.0
 40
1.0
 10
-13.8288957934
 20
246.3099018753
 30
0.0
 10
-13.7577204307
 20
246.3289999307
 30
0.0
 10
-13.5955647203
 20
246.3335511132
 30
0.0
 10
-13.3547118883
 20
246.2402824269
 30
0.0
 10
-13.1199962269
 20
246.0616882703
 30
0.0
 10
-12.9816379686
 20
245.9027136893
 30
0.0
 10
-12.9144522512
 20
245.8127517412
 30
0.0
  0
SPLINE
  5
468
100
AcDbEntity
  8
0
100
AcDbSpline
 62
7
  6
CONTINUOUS
 70
0
 71
3
 72
9
 73
5
 74
0
 42
0.0000001
 43
0.0000001
 44
0.0000000001
 40
0.0
 40
0.0
 40
0.0
 40
0.0
 40
0.5053196808
 40
1.0
 40
1.0
 40
1.0
 40
1.0
 10
-37.4184653766
 20
271.0423837929
 30
0.0
 10
-37.2201908745
 20
270.4084292544
 30
0.0
 10
-36.7277691638
 20
269.1823724406
 30
0.0
 10
-36.0325135681
 20
268.0579390694
 30
0.0
 10
-35.643432903
 20
267.5369363712
 30
0.0
  0
SPLINE
  5
469
100
AcDbEntity
  8
0
100
AcDbSpline
 62
7
  6
CONTINUOUS
 70
0
 71
3
 72
9
 73
5
 74
0
 42
0.0000001
 43
0.0000001
 44
0.0000000001
 40
0.0
 40
0.0
 40
0.0
 40
0.0
 40
0.2772831111
 40
1.0
 40
1.0
 40
1.0
 40
1.0
 10
21.1092445731
 20
303.8932172233
 30
0.0
 10
21.361616886
 20
304.6311873435
 30
0.0
 10
22.14771557
 20
307.3257939447
 30
0.0
 10
22.3842791748
 20
310.2352604969
 30
0.0
 10
22.0182282166
 20
312.2348599819
 30
0.0
  0
SPLINE
  5
46A
100
AcDbEntity
  8
0
100
AcDbSpline
 62
7
  6
CONTINUOUS
 70
0
 71
3
 72
11
 73
7
 74
0
 42
0.0000001
 43
0.0000001
 44
0.0000000001
 40
0.0
 40
0.0
 40
0.0
 40
0.0
 40
0.2812332482
 40
0.5400105745
 40
0.7782641226
 40
1.0
 40
1.0
 40
1.0
 40
1.0
 10
26.265226712
 20
296.9893362342
 30
0.0
 10
26.5693056219
 20
297.8785033028
 30
0.0
 10
27.0587786167
 20
299.6209345715
 30
0.0
 10
27.4158281801
 20
302.2064154951
 30
0.0
 10
27.3561543239
 20
304.6189878294
 30
0.0
 10
27.0242654243
 20
306.1328442207
 30
0.0
 10
26.7861487388
 20
306.8344560403
 30
0.0
  0
SPLINE
  5
46B
100
AcDbEntity
  8
0
100
AcDbSpline
 62
7
  6
CONTINUOUS
 70
0
 71
3
 72
9
 73
5
 74
0
 42
0.0000001
 43
0.0000001
 44
0.0000000001
 40
0.0
 40
0.0
 40
0.0
 40
0.0
 40
0.5045788049
 40
1.0
 40
1.0
 40
1.0
 40
1.0
 10
26.7861487388
 20
306.8344560403
 30
0.0
 10
26.6276712413
 20
307.3014106559
 30
0.0
 10
26.2444765254
 20
308.2051676633
 30
0.0
 10
25.7224391778
 20
309.0370012867
 30
0.0
 10
25.4327153683
 20
309.424913191
 30
0.0
  0
SPLINE
  5
46C
100
AcDbEntity
  8
0
100
AcDbSpline
 62
7
  6
CONTINUOUS
 70
0
 71
3
 72
11
 73
7
 74
0
 42
0.0000001
 43
0.0000001
 44
0.0000000001
 40
0.0
 40
0.0
 40
0.0
 40
0.0
 40
0.2837653541
 40
0.5414713162
 40
0.7776462821
 40
1.0
 40
1.0
 40
1.0
 40
1.0
 10
-22.157486029
 20
262.8638849764
 30
0.0
 10
-23.4150954749
 20
262.8759109448
 30
0.0
 10
-25.8190453485
 20
263.0621443191
 30
0.0
 10
-29.1779810178
 20
263.9219314471
 30
0.0
 10
-32.0453232011
 20
265.344619162
 30
0.0
 10
-33.6081684233
 20
266.6856411125
 30
0.0
 10
-34.262018926
 20
267.4229762664
 30
0.0
  0
SPLINE
  5
46D
100
AcDbEntity
  8
0
100
AcDbSpline
 62
7
  6
CONTINUOUS
 70
0
 71
3
 72
12
 73
8
 74
0
 42
0.0000001
 43
0.0000001
 44
0.0000000001
 40
0.0
 40
0.0
 40
0.0
 40
0.0
 40
0.2946940916
 40
0.5548172598
 40
0.7856717589
 40
0.8939836134
 40
1.0
 40
1.0
 40
1.0
 40
1.0
 10
12.4177711327
 20
314.6918532974
 30
0.0
 10
13.9338998324
 20
314.8633129989
 30
0.0
 10
16.8218615462
 20
314.9745413429
 30
0.0
 10
20.8690787414
 20
314.320092602
 30
0.0
 10
23.7465938115
 20
313.0305308719
 30
0.0
 10
25.5619851071
 20
311.5945414826
 30
0.0
 10
26.3060775062
 20
310.7622474338
 30
0.0
 10
26.63453561
 20
310.3224610951
 30
0.0
  0
SPLINE
  5
46E
100
AcDbEntity
  8
0
100
AcDbSpline
 62
7
  6
CONTINUOUS
 70
0
 71
3
 72
9
 73
5
 74
0
 42
0.0000001
 43
0.0000001
 44
0.0000000001
 40
0.0
 40
0.0
 40
0.0
 40
0.0
 40
0.4774412553
 40
1.0
 40
1.0
 40
1.0
 40
1.0
 10
-17.8303393069
 20
262.3881389469
 30
0.0
 10
-15.7962175294
 20
262.6192059331
 30
0.0
 10
-11.5747339426
 20
263.4696017599
 30
0.0
 10
-7.5094177961
 20
264.8675000538
 30
0.0
 10
-5.4336446655
 20
265.7111409127
 30
0.0
  0
LINE
  5
46F
100
AcDbEntity
  8
0
100
AcDbLine
 62
7
  6
CONTINUOUS
 10
-4.2172347401
 20
266.2208521456
 11
-4.118729932
 21
266.2634671432
  0
SPLINE
  5
470
100
AcDbEntity
  8
0
100
AcDbSpline
 62
7
  6
CONTINUOUS
 70
0
 71
3
 72
9
 73
5
 74
0
 42
0.0000001
 43
0.0000001
 44
0.0000000001
 40
0.0
 40
0.0
 40
0.0
 40
0.0
 40
0.5090478421
 40
1.0
 40
1.0
 40
1.0
 40
1.0
 10
26.5810244024
 20
319.2943939173
 30
0.0
 10
27.3671233068
 20
318.8737565486
 30
0.0
 10
28.8362836593
 20
317.8936658674
 30
0.0
 10
30.0523334886
 20
316.6089702536
 30
0.0
 10
30.5668301204
 20
315.9200061722
 30
0.0
  0
SPLINE
  5
471
100
AcDbEntity
  8
0
100
AcDbSpline
 62
7
  6
CONTINUOUS
 70
0
 71
3
 72
9
 73
5
 74
0
 42
0.0000001
 43
0.0000001
 44
0.0000000001
 40
0.0
 40
0.0
 40
0.0
 40
0.0
 40
0.4911515175
 40
1.0
 40
1.0
 40
1.0
 40
1.0
 10
-35.1331675344
 20
266.8536889758
 30
0.0
 10
-35.6415721121
 20
267.5344736722
 30
0.0
 10
-36.5192908412
 20
269.0448103462
 30
0.0
 10
-37.0419543303
 20
270.7087952224
 30
0.0
 10
-37.2238813106
 20
271.5700781992
 30
0.0
  0
SPLINE
  5
472
100
AcDbEntity
  8
0
100
AcDbSpline
 62
7
  6
CONTINUOUS
 70
0
 71
3
 72
21
 73
17
 74
0
 42
0.0000001
 43
0.0000001
 44
0.0000000001
 40
0.0
 40
0.0
 40
0.0
 40
0.0
 40
0.0398148131
 40
0.082034678
 40
0.1284906943
 40
0.1802215479
 40
0.2375498689
 40
0.3002466449
 40
0.3676798415
 40
0.438928624
 40
0.5881285988
 40
0.7378353111
 40
0.8096938837
 40
0.8779401933
 40
0.9416067656
 40
1.0
 40
1.0
 40
1.0
 40
1.0
 10
-27.4477183666
 20
269.9325506282
 30
0.0
 10
-26.9090719452
 20
269.211355641
 30
0.0
 10
-25.5632533906
 20
267.8890293714
 30
0.0
 10
-22.9730752276
 20
266.5049151631
 30
0.0
 10
-19.8756995332
 20
265.7056551995
 30
0.0
 10
-16.3493361461
 20
265.4908724717
 30
0.0
 10
-12.470638717
 20
265.8538799049
 30
0.0
 10
-8.3257703294
 20
266.7826147949
 30
0.0
 10
-4.0089649886
 20
268.2542287421
 30
0.0
 10
1.9304359697
 20
270.9354475067
 30
0.0
 10
9.0770463686
 20
275.3667733933
 30
0.0
 10
15.4499359876
 20
280.8729292307
 30
0.0
 10
19.8204203937
 20
285.7647908655
 30
0.0
 10
22.5599255246
 20
289.4785228564
 30
0.0
 10
24.740559321
 20
293.1970322035
 30
0.0
 10
25.8380413118
 20
295.7401894578
 30
0.0
 10
26.265226712
 20
296.9893362342
 30
0.0
  0
SPLINE
  5
473
100
AcDbEntity
  8
0
100
AcDbSpline
 62
7
  6
CONTINUOUS
 70
0
 71
3
 72
14
 73
10
 74
0
 42
0.0000001
 43
0.0000001
 44
0.0000000001
 40
0.0
 40
0.0
 40
0.0
 40
0.0
 40
0.2655284543
 40
0.4000886806
 40
0.5325865274
 40
0.6607296638
 40
0.7824329556
 40
0.8959409739
 40
1.0
 40
1.0
 40
1.0
 40
1.0
 10
-1.0025984688
 20
267.7145417469
 30
0.0
 10
2.6792976447
 20
269.5469233756
 30
0.0
 10
7.9918911933
 20
272.8111628296
 30
0.0
 10
14.457251871
 20
277.942766851
 30
0.0
 10
18.9281268994
 20
282.1352527267
 30
0.0
 10
22.887776588
 20
286.5490463148
 30
0.0
 10
26.242291385
 20
291.0798041969
 30
0.0
 10
28.9112261015
 20
295.6182282676
 30
0.0
 10
30.2531597554
 20
298.7231727894
 30
0.0
 10
30.7746874589
 20
300.2481889752
 30
0.0
  0
SPLINE
  5
474
100
AcDbEntity
  8
0
100
AcDbSpline
 62
7
  6
CONTINUOUS
 70
0
 71
3
 72
10
 73
6
 74
0
 42
0.0000001
 43
0.0000001
 44
0.0000000001
 40
0.0
 40
0.0
 40
0.0
 40
0.0
 40
0.2784760367
 40
0.537135255
 40
1.0
 40
1.0
 40
1.0
 40
1.0
 10
30.7746874589
 20
300.2481889752
 30
0.0
 10
31.1042622907
 20
301.2119095014
 30
0.0
 10
31.647635927
 20
303.106156928
 30
0.0
 10
32.2332397565
 20
306.7185306198
 30
0.0
 10
32.1220955689
 20
309.4147189682
 30
0.0
 10
31.7286241814
 20
311.0612709495
 30
0.0
  0
SPLINE
  5
475
100
AcDbEntity
  8
0
100
AcDbSpline
 62
7
  6
CONTINUOUS
 70
0
 71
3
 72
9
 73
5
 74
0
 42
0.0000001
 43
0.0000001
 44
0.0000000001
 40
0.0
 40
0.0
 40
0.0
 40
0.0
 40
0.507771698
 40
1.0
 40
1.0
 40
1.0
 40
1.0
 10
31.7286241814
 20
311.0612709495
 30
0.0
 10
31.5431177799
 20
311.837555942
 30
0.0
 10
31.0357791119
 20
313.3373895695
 30
0.0
 10
30.2285454327
 20
314.7017017785
 30
0.0
 10
29.7656049134
 20
315.3216321821
 30
0.0
  0
SPLINE
  5
476
100
AcDbEntity
  8
0
100
AcDbSpline
 62
7
  6
CONTINUOUS
 70
0
 71
3
 72
11
 73
7
 74
0
 42
0.0000001
 43
0.0000001
 44
0.0000000001
 40
0.0
 40
0.0
 40
0.0
 40
0.0
 40
0.2886194326
 40
0.5532157927
 40
0.7904561163
 40
1.0
 40
1.0
 40
1.0
 40
1.0
 10
21.324906734
 20
335.5732419805
 30
0.0
 10
20.0701155289
 20
335.066090941
 30
0.0
 10
17.6101316817
 20
334.2210573493
 30
0.0
 10
13.9677757655
 20
333.4709749276
 30
0.0
 10
10.6211508462
 20
333.3081227885
 30
0.0
 10
8.5277170267
 20
333.6215679647
 30
0.0
 10
7.5843553493
 20
333.8964723519
 30
0.0
  0
SPLINE
  5
477
100
AcDbEntity
  8
0
100
AcDbSpline
 62
7
  6
CONTINUOUS
 70
0
 71
3
 72
11
 73
7
 74
0
 42
0.0000001
 43
0.0000001
 44
0.0000000001
 40
0.0
 40
0.0
 40
0.0
 40
0.0
 40
0.2690727651
 40
0.5291056321
 40
0.774328008
 40
1.0
 40
1.0
 40
1.0
 40
1.0
 10
4.8454474697
 20
333.1262678249
 30
0.0
 10
3.60827592
 20
332.2749286388
 30
0.0
 10
1.0949207062
 20
330.7142719834
 30
0.0
 10
-2.7904413129
 20
328.804554663
 30
0.0
 10
-6.6320516733
 20
327.4074382813
 30
0.0
 10
-9.2041380532
 20
326.8202843034
 30
0.0
 10
-10.4503964374
 20
326.637752572
 30
0.0
  0
SPLINE
  5
478
100
AcDbEntity
  8
0
100
AcDbSpline
 62
7
  6
CONTINUOUS
 70
0
 71
3
 72
11
 73
7
 74
0
 42
0.0000001
 43
0.0000001
 44
0.0000000001
 40
0.0
 40
0.0
 40
0.0
 40
0.0
 40
0.2492476986
 40
0.5030339197
 40
0.7552798963
 40
1.0
 40
1.0
 40
1.0
 40
1.0
 10
-13.2630613463
 20
325.0529732919
 30
0.0
 10
-14.2871214342
 20
323.9727706255
 30
0.0
 10
-16.4680677307
 20
321.8985342166
 30
0.0
 10
-20.0230649715
 20
319.112166311
 30
0.0
 10
-23.8019620148
 20
316.6875413803
 30
0.0
 10
-26.4499294931
 20
315.3337506108
 30
0.0
 10
-27.785544198
 20
314.7405300434
 30
0.0
  0
SPLINE
  5
479
100
AcDbEntity
  8
0
100
AcDbSpline
 62
7
  6
CONTINUOUS
 70
0
 71
3
 72
11
 73
7
 74
0
 42
0.0000001
 43
0.0000001
 44
0.0000000001
 40
0.0
 40
0.0
 40
0.0
 40
0.0
 40
0.2300613745
 40
0.4770044642
 40
0.7356377009
 40
1.0
 40
1.0
 40
1.0
 40
1.0
 10
-30.2437634006
 20
312.5824442896
 30
0.0
 10
-30.8827097657
 20
311.4303676789
 30
0.0
 10
-32.3785381553
 20
309.1345239172
 30
0.0
 10
-35.0734793705
 20
305.8870833799
 30
0.0
 10
-38.2267328417
 20
302.7955691854
 30
0.0
 10
-40.5607332413
 20
300.9105956307
 30
0.0
 10
-41.7819688294
 20
300.0160490475
 30
0.0
  0
SPLINE
  5
47A
100
AcDbEntity
  8
0
100
AcDbSpline
 62
7
  6
CONTINUOUS
 70
0
 71
3
 72
11
 73
7
 74
0
 42
0.0000001
 43
0.0000001
 44
0.0000000001
 40
0.0
 40
0.0
 40
0.0
 40
0.0
 40
0.2125526576
 40
0.4517294132
 40
0.7156287859
 40
1.0
 40
1.0
 40
1.0
 40
1.0
 10
-43.5115007359
 20
297.613205813
 30
0.0
 10
-43.6431247168
 20
296.5743530417
 30
0.0
 10
-44.1865494981
 20
294.3978194821
 30
0.0
 10
-45.6247847402
 20
291.1653407158
 30
0.0
 10
-47.6844071766
 20
287.8653285712
 30
0.0
 10
-49.3781441231
 20
285.7531372105
 30
0.0
 10
-50.3088415594
 20
284.7059783383
 30
0.0
  0
SPLINE
  5
47B
100
AcDbEntity
  8
0
100
AcDbSpline
 62
7
  6
CONTINUOUS
 70
0
 71
3
 72
12
 73
8
 74
0
 42
0.0000001
 43
0.0000001
 44
0.0000000001
 40
0.0
 40
0.0
 40
0.0
 40
0.0
 40
0.1031757199
 40
0.2102330724
 40
0.4417684392
 40
0.704103647
 40
1.0
 40
1.0
 40
1.0
 40
1.0
 10
-51.0463806154
 20
282.4241887236
 30
0.0
 10
-50.8526322087
 20
282.0697899247
 30
0.0
 10
-50.5206193447
 20
281.3116269032
 30
0.0
 10
-50.0923827804
 20
279.6294867329
 30
0.0
 10
-50.045966934
 20
277.2455443355
 30
0.0
 10
-50.7078281113
 20
274.2059205205
 30
0.0
 10
-51.5512799006
 20
272.1778348208
 30
0.0
 10
-52.0680233113
 20
271.141137395
 30
0.0
  0
SPLINE
  5
47C
100
AcDbEntity
  8
0
100
AcDbSpline
 62
7
  6
CONTINUOUS
 70
0
 71
3
 72
9
 73
5
 74
0
 42
0.0000001
 43
0.0000001
 44
0.0000000001
 40
0.0
 40
0.0
 40
0.0
 40
0.0
 40
0.245471082
 40
1.0
 40
1.0
 40
1.0
 40
1.0
 10
-46.7899809279
 20
262.5238195168
 30
0.0
 10
-46.7850775526
 20
262.430876554
 30
0.0
 10
-46.7703901651
 20
262.0519779218
 30
0.0
 10
-46.7764961466
 20
261.6723316291
 30
0.0
 10
-46.7916946101
 20
261.3866502857
 30
0.0
  0
SPLINE
  5
47D
100
AcDbEntity
  8
0
100
AcDbSpline
 62
7
  6
CONTINUOUS
 70
0
 71
3
 72
20
 73
16
 74
0
 42
0.0000001
 43
0.0000001
 44
0.0000000001
 40
0.0
 40
0.0
 40
0.0
 40
0.0
 40
0.0417075034
 40
0.0844203487
 40
0.1291488655
 40
0.1766990754
 40
0.2276385283
 40
0.2823031837
 40
0.3408266001
 40
0.4031738009
 40
0.4691718215
 40
0.5385352144
 40
0.6857132773
 40
0.8410186361
 40
1.0
 40
1.0
 40
1.0
 40
1.0
 10
47.3448235089
 20
315.7376956805
 30
0.0
 10
47.9372352595
 20
314.9773785484
 30
0.0
 10
48.9874938737
 20
313.3159031684
 30
0.0
 10
50.0754881431
 20
310.5189826575
 30
0.0
 10
50.6756954836
 20
307.4422360528
 30
0.0
 10
50.7865157682
 20
304.1221393357
 30
0.0
 10
50.4119896537
 20
300.5926713646
 30
0.0
 10
49.559225681
 20
296.8886348908
 30
0.0
 10
48.2387170539
 20
293.046103564
 30
0.0
 10
46.4646343266
 20
289.1029511135
 30
0.0
 10
44.2552538548
 20
285.0983089584
 30
0.0
 10
40.6885391541
 20
279.6233534755
 30
0.0
 10
35.277503252
 20
272.9154945567
 30
0.0
 10
27.6597826592
 20
265.4244688023
 30
0.0
 10
21.9547775211
 20
260.9029318713
 30
0.0
 10
18.9591450259
 20
258.7757274245
 30
0.0
  0
SPLINE
  5
47E
100
AcDbEntity
  8
0
100
AcDbSpline
 62
7
  6
CONTINUOUS
 70
0
 71
3
 72
13
 73
9
 74
0
 42
0.0000001
 43
0.0000001
 44
0.0000000001
 40
0.0
 40
0.0
 40
0.0
 40
0.0
 40
0.1043630506
 40
0.2114437892
 40
0.3234090357
 40
0.4419974624
 40
0.703122562
 40
1.0
 40
1.0
 40
1.0
 40
1.0
 10
43.7127995144
 20
312.9934870302
 30
0.0
 10
43.2036260703
 20
313.6468952157
 30
0.0
 10
42.0472900777
 20
314.878311816
 30
0.0
 10
39.9757401831
 20
316.4147146138
 30
0.0
 10
37.5797342107
 20
317.6402353349
 30
0.0
 10
33.8684247043
 20
318.8861953723
 30
0.0
 10
28.485650662
 20
319.5490218244
 30
0.0
 10
24.0459605385
 20
319.210137287
 30
0.0
 10
21.7156819305
 20
318.8600022747
 30
0.0
  0
SPLINE
  5
47F
100
AcDbEntity
  8
0
100
AcDbSpline
 62
7
  6
CONTINUOUS
 70
0
 71
3
 72
11
 73
7
 74
0
 42
0.0000001
 43
0.0000001
 44
0.0000000001
 40
0.0
 40
0.0
 40
0.0
 40
0.0
 40
0.2256037161
 40
0.4710793942
 40
0.7312807911
 40
1.0
 40
1.0
 40
1.0
 40
1.0
 10
21.7156819305
 20
318.8600022747
 30
0.0
 10
19.1449844828
 20
318.4737432327
 30
0.0
 10
13.8390827214
 20
317.2295496534
 30
0.0
 10
5.9287691807
 20
314.2753137949
 30
0.0
 10
-2.0502279036
 20
310.2444888102
 30
0.0
 10
-7.1944886419
 20
306.954721708
 30
0.0
 10
-9.7190856642
 20
305.1620004644
 30
0.0
  0
SPLINE
  5
480
100
AcDbEntity
  8
0
100
AcDbSpline
 62
7
  6
CONTINUOUS
 70
0
 71
3
 72
12
 73
8
 74
0
 42
0.0000001
 43
0.0000001
 44
0.0000000001
 40
0.0
 40
0.0
 40
0.0
 40
0.0
 40
0.2927192446
 40
0.5525813643
 40
0.7845251486
 40
0.8935065978
 40
1.0
 40
1.0
 40
1.0
 40
1.0
 10
33.6664681605
 20
332.0213661255
 30
0.0
 10
32.6287332497
 20
331.920802632
 30
0.0
 10
30.6498348032
 20
331.8726986638
 30
0.0
 10
27.8748991112
 20
332.3426588387
 30
0.0
 10
25.8889973985
 20
333.2198931429
 30
0.0
 10
24.6154245306
 20
334.1876404828
 30
0.0
 10
24.0846074925
 20
334.7476975874
 30
0.0
 10
23.8476099441
 20
335.0438458109
 30
0.0
  0
LINE
  5
481
100
AcDbEntity
  8
0
100
AcDbLine
 62
7
  6
CONTINUOUS
 10
23.573083688
 20
335.4116150972
 11
32.0970558483
 21
324.4758752415
  0
SPLINE
  5
482
100
AcDbEntity
  8
0
100
AcDbSpline
 62
7
  6
CONTINUOUS
 70
0
 71
3
 72
9
 73
5
 74
0
 42
0.0000001
 43
0.0000001
 44
0.0000000001
 40
0.0
 40
0.0
 40
0.0
 40
0.0
 40
0.486778239
 40
1.0
 40
1.0
 40
1.0
 40
1.0
 10
13.1542038918
 20
322.1642650342
 30
0.0
 10
10.5810808516
 20
321.3788824823
 30
0.0
 10
5.3853106669
 20
319.4610088884
 30
0.0
 10
0.4043496945
 20
317.0461267332
 30
0.0
 10
-2.0908733112
 20
315.6972850776
 30
0.0
  0
SPLINE
  5
483
100
AcDbEntity
  8
0
100
AcDbSpline
 62
7
  6
CONTINUOUS
 70
0
 71
3
 72
9
 73
5
 74
0
 42
0.0000001
 43
0.0000001
 44
0.0000000001
 40
0.0
 40
0.0
 40
0.0
 40
0.0
 40
0.4753971574
 40
1.0
 40
1.0
 40
1.0
 40
1.0
 10
29.7313010826
 20
324.6459550784
 30
0.0
 10
27.5409348887
 20
324.7265670389
 30
0.0
 10
22.9148038039
 20
324.4731625311
 30
0.0
 10
18.3790707976
 20
323.5763005758
 30
0.0
 10
16.036354406
 20
322.974750626
 30
0.0
  0
SPLINE
  5
484
100
AcDbEntity
  8
0
100
AcDbSpline
 62
7
  6
CONTINUOUS
 70
0
 71
3
 72
9
 73
5
 74
0
 42
0.0000001
 43
0.0000001
 44
0.0000000001
 40
0.0
 40
0.0
 40
0.0
 40
0.0
 40
0.4818702403
 40
1.0
 40
1.0
 40
1.0
 40
1.0
 10
42.1569405095
 20
321.0968784614
 30
0.0
 10
41.1513331568
 20
321.7699487674
 30
0.0
 10
38.9086707262
 20
322.9418275952
 30
0.0
 10
36.493982619
 20
323.6778337795
 30
0.0
 10
35.2243772372
 20
323.9624881903
 30
0.0
  0
SPLINE
  5
485
100
AcDbEntity
  8
0
100
AcDbSpline
 62
7
  6
CONTINUOUS
 70
0
 71
3
 72
9
 73
5
 74
0
 42
0.0000001
 43
0.0000001
 44
0.0000000001
 40
0.0
 40
0.0
 40
0.0
 40
0.0
 40
0.2442631338
 40
1.0
 40
1.0
 40
1.0
 40
1.0
 10
35.2243772372
 20
323.9624881903
 30
0.0
 10
34.972514776
 20
324.0189575165
 30
0.0
 10
33.9379571751
 20
324.2346233282
 30
0.0
 10
32.890969395
 20
324.389535398
 30
0.0
 10
32.0970558465
 20
324.4758752418
 30
0.0
  0
LINE
  5
486
100
AcDbEntity
  8
0
100
AcDbLine
 62
7
  6
CONTINUOUS
 10
42.537382966
 20
321.3936312436
 11
35.0816496274
 21
330.9525140596
  0
SPLINE
  5
487
100
AcDbEntity
  8
0
100
AcDbSpline
 62
7
  6
CONTINUOUS
 70
0
 71
3
 72
9
 73
5
 74
0
 42
0.0000001
 43
0.0000001
 44
0.0000000001
 40
0.0
 40
0.0
 40
0.0
 40
0.0
 40
0.485626944
 40
1.0
 40
1.0
 40
1.0
 40
1.0
 10
33.096965853
 20
284.790700032
 30
0.0
 10
31.7290917929
 20
282.7226510053
 30
0.0
 10
28.6272959606
 20
278.6492757253
 30
0.0
 10
25.0960969463
 20
274.9473144098
 30
0.0
 10
23.190648081
 20
273.1399548446
 30
0.0
  0
SPLINE
  5
488
100
AcDbEntity
  8
0
100
AcDbSpline
 62
7
  6
CONTINUOUS
 70
0
 71
3
 72
10
 73
6
 74
0
 42
0.0000001
 43
0.0000001
 44
0.0000000001
 40
0.0
 40
0.0
 40
0.0
 40
0.0
 40
0.5221408444
 40
0.7678565823
 40
1.0
 40
1.0
 40
1.0
 40
1.0
 10
-16.735245977
 20
294.8756021991
 30
0.0
 10
-19.2710028326
 20
292.4703818379
 30
0.0
 10
-22.7756452161
 20
288.6768411779
 30
0.0
 10
-26.7065138759
 20
283.2524366844
 30
0.0
 10
-28.3551244976
 20
280.504731551
 30
0.0
 10
-29.0860284743
 20
279.1334806514
 30
0.0
  0
SPLINE
  5
489
100
AcDbEntity
  8
0
100
AcDbSpline
 62
7
  6
CONTINUOUS
 70
0
 71
3
 72
13
 73
9
 74
0
 42
0.0000001
 43
0.0000001
 44
0.0000000001
 40
0.0
 40
0.0
 40
0.0
 40
0.0
 40
0.2969007526
 40
0.5580147543
 40
0.6765988854
 40
0.7885609323
 40
0.8956393565
 40
1.0
 40
1.0
 40
1.0
 40
1.0
 10
-35.4393655941
 20
276.1750737933
 30
0.0
 10
-36.4367199457
 20
274.0399311341
 30
0.0
 10
-38.0222029968
 20
269.8791045353
 30
0.0
 10
-38.9146649809
 20
264.5295999123
 30
0.0
 10
-38.7736043935
 20
260.6174598249
 30
0.0
 10
-38.2787196483
 20
257.9722236742
 30
0.0
 10
-37.3936592342
 20
255.5498211982
 30
0.0
 10
-36.541250672
 20
254.0914948366
 30
0.0
 10
-36.0592932756
 20
253.4177953251
 30
0.0
  0
SPLINE
  5
48A
100
AcDbEntity
  8
0
100
AcDbSpline
 62
7
  6
CONTINUOUS
 70
0
 71
3
 72
9
 73
5
 74
0
 42
0.0000001
 43
0.0000001
 44
0.0000000001
 40
0.0
 40
0.0
 40
0.0
 40
0.0
 40
0.2528716265
 40
1.0
 40
1.0
 40
1.0
 40
1.0
 10
18.9591450259
 20
258.7757274245
 30
0.0
 10
17.9789957583
 20
258.0797215279
 30
0.0
 10
14.0553836175
 20
255.3951185586
 30
0.0
 10
9.9452113124
 20
252.9812526274
 30
0.0
 10
6.7858240254
 20
251.3584634292
 30
0.0
  0
SPLINE
  5
48B
100
AcDbEntity
  8
0
100
AcDbSpline
 62
7
  6
CONTINUOUS
 70
0
 71
3
 72
13
 73
9
 74
0
 42
0.0000001
 43
0.0000001
 44
0.0000000001
 40
0.0
 40
0.0
 40
0.0
 40
0.0
 40
0.2975309582
 40
0.5594151672
 40
0.6781719318
 40
0.7900250187
 40
0.8966062012
 40
1.0
 40
1.0
 40
1.0
 40
1.0
 10
-14.297069437
 20
243.9943594521
 30
0.0
 10
-16.8877310712
 20
243.5513556533
 30
0.0
 10
-21.8305867574
 20
243.0661675345
 30
0.0
 10
-27.8498772771
 20
243.6442651408
 30
0.0
 10
-32.0282921764
 20
244.9016201554
 30
0.0
 10
-34.736491396
 20
246.170509252
 30
0.0
 10
-37.0918319589
 20
247.785744404
 30
0.0
 10
-38.4206828461
 20
249.0970189048
 30
0.0
 10
-39.0086548542
 20
249.7959290789
 30
0.0
  0
LINE
  5
48C
100
AcDbEntity
  8
0
100
AcDbLine
 62
7
  6
CONTINUOUS
 10
-42.8191811778
 20
255.827525516
 11
-46.7916946101
 21
261.3866502857
  0
LINE
  5
48D
100
AcDbEntity
  8
0
100
AcDbLine
 62
7
  6
CONTINUOUS
 10
-51.7012858812
 20
269.3277831845
 11
-43.6148252113
 21
258.0079493077
  0
SPLINE
  5
48E
100
AcDbEntity
  8
0
100
AcDbSpline
 62
7
  6
CONTINUOUS
 70
0
 71
3
 72
9
 73
5
 74
0
 42
0.0000001
 43
0.0000001
 44
0.0000000001
 40
0.0
 40
0.0
 40
0.0
 40
0.0
 40
0.5070015989
 40
1.0
 40
1.0
 40
1.0
 40
1.0
 10
-43.6148252073
 20
258.0079493062
 30
0.0
 10
-43.3704547864
 20
257.0647764048
 30
0.0
 10
-42.7305274906
 20
255.240573897
 30
0.0
 10
-41.7616897191
 20
253.5656566295
 30
0.0
 10
-41.2104336982
 20
252.7951407036
 30
0.0
  0
SPLINE
  5
48F
100
AcDbEntity
  8
0
100
AcDbSpline
 62
7
  6
CONTINUOUS
 70
0
 71
3
 72
9
 73
5
 74
0
 42
0.0000001
 43
0.0000001
 44
0.0000000001
 40
0.0
 40
0.0
 40
0.0
 40
0.0
 40
0.5104289189
 40
1.0
 40
1.0
 40
1.0
 40
1.0
 10
-22.1117032605
 20
301.4804548878
 30
0.0
 10
-24.2553041869
 20
299.5329043065
 30
0.0
 10
-28.2925800152
 20
295.534171698
 30
0.0
 10
-31.9430169666
 20
291.1766338862
 30
0.0
 10
-33.6116135377
 20
288.9557673456
 30
0.0
  0
SPLINE
  5
490
100
AcDbEntity
  8
0
100
AcDbSpline
 62
7
  6
CONTINUOUS
 70
0
 71
3
 72
9
 73
5
 74
0
 42
0.0000001
 43
0.0000001
 44
0.0000000001
 40
0.0
 40
0.0
 40
0.0
 40
0.0
 40
0.2620663703
 40
1.0
 40
1.0
 40
1.0
 40
1.0
 10
-42.9824908268
 20
271.1617434844
 30
0.0
 10
-43.1425952206
 20
270.605721236
 30
0.0
 10
-43.7041556956
 20
268.4706187899
 30
0.0
 10
-44.0600233469
 20
266.2777077461
 30
0.0
 10
-44.1683335272
 20
264.652034758
 30
0.0
  0
SPLINE
  5
491
100
AcDbEntity
  8
0
100
AcDbSpline
 62
7
  6
CONTINUOUS
 70
0
 71
3
 72
9
 73
5
 74
0
 42
0.0000001
 43
0.0000001
 44
0.0000000001
 40
0.0
 40
0.0
 40
0.0
 40
0.0
 40
0.2592792565
 40
1.0
 40
1.0
 40
1.0
 40
1.0
 10
-44.1683335272
 20
264.652034758
 30
0.0
 10
-44.1955887187
 20
264.2429501412
 30
0.0
 10
-44.263005411
 20
262.6631302542
 30
0.0
 10
-44.1727721633
 20
261.0747208157
 30
0.0
 10
-44.000742704
 20
259.9161404543
 30
0.0
  0
SPLINE
  5
492
100
AcDbEntity
  8
0
100
AcDbSpline
 62
7
  6
CONTINUOUS
 70
0
 71
3
 72
9
 73
5
 74
0
 42
0.0000001
 43
0.0000001
 44
0.0000000001
 40
0.0
 40
0.0
 40
0.0
 40
0.0
 40
0.522174765
 40
1.0
 40
1.0
 40
1.0
 40
1.0
 10
-35.4315985442
 20
286.4272573811
 30
0.0
 10
-36.869509758
 20
284.3384231691
 30
0.0
 10
-39.4175064509
 20
280.1906397742
 30
0.0
 10
-41.4247121205
 20
275.7477792809
 30
0.0
 10
-42.2063790828
 20
273.5628688246
 30
0.0
  0
SPLINE
  5
493
100
AcDbEntity
  8
0
100
AcDbSpline
 62
7
  6
CONTINUOUS
 70
0
 71
3
 72
15
 73
11
 74
0
 42
0.0000001
 43
0.0000001
 44
0.0000000001
 40
0.0
 40
0.0
 40
0.0
 40
0.0
 40
0.0987378421
 40
0.20258056
 40
0.3134495848
 40
0.4326463226
 40
0.5608869385
 40
0.6983831184
 40
0.8449326256
 40
1.0
 40
1.0
 40
1.0
 40
1.0
 10
-41.0204563526
 20
252.9017358205
 30
0.0
 10
-41.4705084515
 20
253.8293391459
 30
0.0
 10
-42.2026440311
 20
255.8303531892
 30
0.0
 10
-42.7497539646
 20
259.0728789188
 30
0.0
 10
-42.7679198179
 20
262.5729703036
 30
0.0
 10
-42.2618808459
 20
266.2905855485
 30
0.0
 10
-41.240922706
 20
270.1869484753
 30
0.0
 10
-39.7179732351
 20
274.2209994353
 30
0.0
 10
-37.7106797986
 20
278.3495325208
 30
0.0
 10
-36.1064591836
 20
281.0640452707
 30
0.0
 10
-35.2334275041
 20
282.4277340314
 30
0.0
  0
SPLINE
  5
494
100
AcDbEntity
  8
0
100
AcDbSpline
 62
7
  6
CONTINUOUS
 70
0
 71
3
 72
9
 73
5
 74
0
 42
0.0000001
 43
0.0000001
 44
0.0000000001
 40
0.0
 40
0.0
 40
0.0
 40
0.0
 40
0.4840233297
 40
1.0
 40
1.0
 40
1.0
 40
1.0
 10
-35.2334275041
 20
282.4277340314
 30
0.0
 10
-33.3704373478
 20
285.3377529886
 30
0.0
 10
-29.0652011913
 20
291.0631577385
 30
0.0
 10
-24.0963511007
 20
296.2127972692
 30
0.0
 10
-21.3969489268
 20
298.7188952841
 30
0.0
  0
LINE
  5
495
100
AcDbEntity
  8
0
100
AcDbLine
 62
7
  6
CONTINUOUS
 10
7.5843553493
 20
333.8964723519
 11
16.0363544083
 21
322.9747506265
  0
LINE
  5
496
100
AcDbEntity
  8
0
100
AcDbLine
 62
7
  6
CONTINUOUS
 10
29.7313010794
 20
324.6459550785
 11
21.3249067341
 21
335.5732419805
  0
SPLINE
  5
497
100
AcDbEntity
  8
0
100
AcDbSpline
 62
7
  6
CONTINUOUS
 70
0
 71
3
 72
15
 73
11
 74
0
 42
0.0000001
 43
0.0000001
 44
0.0000000001
 40
0.0
 40
0.0
 40
0.0
 40
0.0
 40
0.155738162
 40
0.3018393778
 40
0.4380417201
 40
0.5646298584
 40
0.6823778756
 40
0.7927057522
 40
0.8976940822
 40
1.0
 40
1.0
 40
1.0
 40
1.0
 10
42.2636295427
 20
287.4658285578
 30
0.0
 10
42.9215775176
 20
288.7022065717
 30
0.0
 10
44.1024377621
 20
291.1507119303
 30
0.0
 10
45.48228667
 20
294.8469601639
 30
0.0
 10
46.4004856455
 20
298.4157423874
 30
0.0
 10
46.8454773474
 20
301.8187219192
 30
0.0
 10
46.8088375781
 20
305.0202003785
 30
0.0
 10
46.2854130019
 20
307.9849200392
 30
0.0
 10
45.2757583596
 20
310.6749552871
 30
0.0
 10
44.2783132977
 20
312.267778847
 30
0.0
 10
43.7127995144
 20
312.9934870302
 30
0.0
  0
SPLINE
  5
498
100
AcDbEntity
  8
0
100
AcDbSpline
 62
7
  6
CONTINUOUS
 70
0
 71
3
 72
10
 73
6
 74
0
 42
0.0000001
 43
0.0000001
 44
0.0000000001
 40
0.0
 40
0.0
 40
0.0
 40
0.0
 40
0.5221408444
 40
0.7678565823
 40
1.0
 40
1.0
 40
1.0
 40
1.0
 10
24.7214441838
 20
271.0902126562
 30
0.0
 10
27.2572010394
 20
273.4954330174
 30
0.0
 10
30.7618434229
 20
277.2889736774
 30
0.0
 10
34.6927120827
 20
282.7133781709
 30
0.0
 10
36.3413227044
 20
285.4610833043
 30
0.0
 10
37.0722266811
 20
286.8323342039
 30
0.0
  0
LINE
  5
499
100
AcDbEntity
  8
0
100
AcDbLine
 62
7
  6
CONTINUOUS
 10
42.1569405074
 20
321.0968784628
 11
34.7172865797
 21
330.669318233
  0
LINE
  5
49A
100
AcDbEntity
  8
0
100
AcDbLine
 62
7
  6
CONTINUOUS
 10
-2.0908733142
 20
315.6972850772
 11
-10.4503964374
 21
326.637752572
  0
LINE
  5
49B
100
AcDbEntity
  8
0
100
AcDbLine
 62
7
  6
CONTINUOUS
 10
4.8454474697
 20
333.1262678249
 11
13.1542038978
 21
322.1642650383
  0
SPLINE
  5
49C
100
AcDbEntity
  8
0
100
AcDbSpline
 62
7
  6
CONTINUOUS
 70
0
 71
3
 72
11
 73
7
 74
0
 42
0.0000001
 43
0.0000001
 44
0.0000000001
 40
0.0
 40
0.0
 40
0.0
 40
0.0
 40
0.2602832405
 40
0.5158828365
 40
0.7634675608
 40
1.0
 40
1.0
 40
1.0
 40
1.0
 10
-10.9729468191
 20
307.1900874308
 30
0.0
 10
-8.9674178264
 20
308.6142174595
 30
0.0
 10
-4.8908658823
 20
311.2969956405
 30
0.0
 10
1.4137190717
 20
314.8184896914
 30
0.0
 10
7.7649994795
 20
317.7551276224
 30
0.0
 10
12.0680459266
 20
319.3292302189
 30
0.0
 10
14.2010996101
 20
319.9974939618
 30
0.0
  0
SPLINE
  5
49D
100
AcDbEntity
  8
0
100
AcDbSpline
 62
7
  6
CONTINUOUS
 70
0
 71
3
 72
15
 73
11
 74
0
 42
0.0000001
 43
0.0000001
 44
0.0000000001
 40
0.0
 40
0.0
 40
0.0
 40
0.0
 40
0.1557811844
 40
0.3029972969
 40
0.4409996416
 40
0.5694931477
 40
0.6886241872
 40
0.7990830952
 40
0.9022017379
 40
1.0
 40
1.0
 40
1.0
 40
1.0
 10
14.2010996101
 20
319.9974939618
 30
0.0
 10
15.8299827932
 20
320.5078062812
 30
0.0
 10
19.0356348511
 20
321.3867036007
 30
0.0
 10
23.7905061632
 20
322.2798623889
 30
0.0
 10
28.3113543021
 20
322.7027131096
 30
0.0
 10
32.5455809575
 20
322.6490234734
 30
0.0
 10
36.4445204979
 20
322.117182267
 30
0.0
 10
39.9632643919
 20
321.1086450904
 30
0.0
 10
43.0570589676
 20
319.630219103
 30
0.0
 10
44.8420093198
 20
318.3122614953
 30
0.0
 10
45.6326227817
 20
317.5888808239
 30
0.0
  0
LINE
  5
49E
100
AcDbEntity
  8
0
100
AcDbLine
 62
7
  6
CONTINUOUS
 10
-13.2630613462
 20
325.0529732919
 11
-5.0506382826
 21
314.0296231466
  0
LINE
  5
49F
100
AcDbEntity
  8
0
100
AcDbLine
 62
7
  6
CONTINUOUS
 10
-19.5249212135
 20
303.7514067544
 11
-27.785544198
 21
314.7405300434
  0
LINE
  5
4A0
100
AcDbEntity
  8
0
100
AcDbLine
 62
7
  6
CONTINUOUS
 10
-44.0007427053
 20
259.9161404516
 11
-52.0680233113
 21
271.141137395
  0
LINE
  5
4A1
100
AcDbEntity
  8
0
100
AcDbLine
 62
7
  6
CONTINUOUS
 10
-51.0463806154
 20
282.4241887236
 11
-42.9824908287
 21
271.1617434878
  0
SPLINE
  5
4A2
100
AcDbEntity
  8
0
100
AcDbSpline
 62
7
  6
CONTINUOUS
 70
0
 71
3
 72
14
 73
10
 74
0
 42
0.0000001
 43
0.0000001
 44
0.0000000001
 40
0.0
 40
0.0
 40
0.0
 40
0.0
 40
0.1041793884
 40
0.2107412087
 40
0.3221005106
 40
0.4402067317
 40
0.5664559955
 40
0.7017044701
 40
1.0
 40
1.0
 40
1.0
 40
1.0
 10
-36.0592932756
 20
253.4177953251
 30
0.0
 10
-35.558404222
 20
252.7176323787
 30
0.0
 10
-34.4061900201
 20
251.3953397393
 30
0.0
 10
-32.302465007
 20
249.7420233249
 30
0.0
 10
-29.8428814099
 20
248.4256229118
 30
0.0
 10
-27.0565989712
 20
247.4568720862
 30
0.0
 10
-23.9718221099
 20
246.8408416779
 30
0.0
 10
-19.3516696909
 20
246.482917438
 30
0.0
 10
-15.7536036772
 20
246.781843991
 30
0.0
 10
-13.3192887306
 20
247.1692758163
 30
0.0
  0
SPLINE
  5
4A3
100
AcDbEntity
  8
0
100
AcDbSpline
 62
7
  6
CONTINUOUS
 70
0
 71
3
 72
9
 73
5
 74
0
 42
0.0000001
 43
0.0000001
 44
0.0000000001
 40
0.0
 40
0.0
 40
0.0
 40
0.0
 40
0.2453607589
 40
1.0
 40
1.0
 40
1.0
 40
1.0
 10
3.2928687788
 20
252.4218443162
 30
0.0
 10
4.1484469348
 20
252.8152513502
 30
0.0
 10
7.6072839926
 20
254.4794621521
 30
0.0
 10
10.9526199919
 20
256.3777190479
 30
0.0
 10
13.4026179056
 20
257.9224008837
 30
0.0
  0
LINE
  5
4A4
100
AcDbEntity
  8
0
100
AcDbLine
 62
7
  6
CONTINUOUS
 10
-42.2063790884
 20
273.5628688182
 11
-50.3088415595
 21
284.7059783383
  0
LINE
  5
4A5
100
AcDbEntity
  8
0
100
AcDbLine
 62
7
  6
CONTINUOUS
 10
-43.5115007359
 20
297.613205813
 11
-35.4315985433
 21
286.4272573884
  0
LINE
  5
4A6
100
AcDbEntity
  8
0
100
AcDbLine
 62
7
  6
CONTINUOUS
 10
-30.2437634005
 20
312.5824442896
 11
-22.1117032576
 21
301.480454893
  0
LINE
  5
4A7
100
AcDbEntity
  8
0
100
AcDbLine
 62
7
  6
CONTINUOUS
 10
-33.6116135408
 20
288.9557673433
 11
-41.7819688294
 21
300.0160490475
  0
SPLINE
  5
4A8
100
AcDbEntity
  8
0
100
AcDbSpline
 62
7
  6
CONTINUOUS
 70
0
 71
3
 72
9
 73
5
 74
0
 42
0.0000001
 43
0.0000001
 44
0.0000000001
 40
0.0
 40
0.0
 40
0.0
 40
0.0
 40
0.4898121497
 40
1.0
 40
1.0
 40
1.0
 40
1.0
 10
-49.8969902961
 20
236.7691742198
 30
0.0
 10
-50.4253775289
 20
236.627537125
 30
0.0
 10
-51.4679601789
 20
236.1879955496
 30
0.0
 10
-52.3659961079
 20
235.50426421
 30
0.0
 10
-52.7779933892
 20
235.1106558019
 30
0.0
  0
SPLINE
  5
4A9
100
AcDbEntity
  8
0
100
AcDbSpline
 62
7
  6
CONTINUOUS
 70
0
 71
3
 72
11
 73
7
 74
0
 42
0.0000001
 43
0.0000001
 44
0.0000000001
 40
0.0
 40
0.0
 40
0.0
 40
0.0
 40
0.2612202693
 40
0.5135060506
 40
0.7587206361
 40
1.0
 40
1.0
 40
1.0
 40
1.0
 10
-40.9705634074
 20
135.63147104
 30
0.0
 10
-40.7206763596
 20
135.222652532
 30
0.0
 10
-40.1508170685
 20
134.463350432
 30
0.0
 10
-39.0941895749
 20
133.5413505166
 30
0.0
 10
-37.8909340199
 20
132.8934249983
 30
0.0
 10
-37.0186812948
 20
132.6626839924
 30
0.0
 10
-36.5803935754
 20
132.6013058071
 30
0.0
  0
SPLINE
  5
4AA
100
AcDbEntity
  8
0
100
AcDbSpline
 62
7
  6
CONTINUOUS
 70
0
 71
3
 72
9
 73
5
 74
0
 42
0.0000001
 43
0.0000001
 44
0.0000000001
 40
0.0
 40
0.0
 40
0.0
 40
0.0
 40
0.4970398506
 40
1.0
 40
1.0
 40
1.0
 40
1.0
 10
21.7998514142
 20
255.5232658568
 30
0.0
 10
21.4238563592
 20
255.5759205244
 30
0.0
 10
20.6545383149
 20
255.6043234103
 30
0.0
 10
19.8955852814
 20
255.4774567536
 30
0.0
 10
19.5244996957
 20
255.3779852278
 30
0.0
  0
SPLINE
  5
4AB
100
AcDbEntity
  8
0
100
AcDbSpline
 62
7
  6
CONTINUOUS
 70
0
 71
3
 72
9
 73
5
 74
0
 42
0.0000001
 43
0.0000001
 44
0.0000000001
 40
0.0
 40
0.0
 40
0.0
 40
0.0
 40
0.2520369168
 40
1.0
 40
1.0
 40
1.0
 40
1.0
 10
21.6998246963
 20
255.0733231342
 30
0.0
 10
21.8176909995
 20
255.104917843
 30
0.0
 10
22.2890571994
 20
255.2159229339
 30
0.0
 10
22.7743494833
 20
255.268409214
 30
0.0
 10
23.1364653249
 20
255.2723646433
 30
0.0
  0
SPLINE
  5
4AC
100
AcDbEntity
  8
0
100
AcDbSpline
 62
7
  6
CONTINUOUS
 70
0
 71
3
 72
9
 73
5
 74
0
 42
0.0000001
 43
0.0000001
 44
0.0000000001
 40
0.0
 40
0.0
 40
0.0
 40
0.0
 40
0.2477030856
 40
1.0
 40
1.0
 40
1.0
 40
1.0
 10
-39.5130440704
 20
136.8482755297
 30
0.0
 10
-39.5580261454
 20
136.9766948186
 30
0.0
 10
-39.7269563178
 20
137.4995036082
 30
0.0
 10
-39.8457819462
 20
138.0383564687
 30
0.0
 10
-39.9070404861
 20
138.4470463682
 30
0.0
  0
SPLINE
  5
4AD
100
AcDbEntity
  8
0
100
AcDbSpline
 62
7
  6
CONTINUOUS
 70
0
 71
3
 72
9
 73
5
 74
0
 42
0.0000001
 43
0.0000001
 44
0.0000000001
 40
0.0
 40
0.0
 40
0.0
 40
0.0
 40
0.2534893013
 40
1.0
 40
1.0
 40
1.0
 40
1.0
 10
-49.0884330898
 20
235.9165681873
 30
0.0
 10
-48.9789109198
 20
235.9759441803
 30
0.0
 10
-48.5403324996
 20
236.1978844375
 30
0.0
 10
-48.0760403072
 20
236.3695199613
 30
0.0
 10
-47.7216652956
 20
236.4645121261
 30
0.0
  0
SPLINE
  5
4AE
100
AcDbEntity
  8
0
100
AcDbSpline
 62
7
  6
CONTINUOUS
 70
0
 71
3
 72
13
 73
9
 74
0
 42
0.0000001
 43
0.0000001
 44
0.0000000001
 40
0.0
 40
0.0
 40
0.0
 40
0.0
 40
0.2675486262
 40
0.5280506695
 40
0.6524556283
 40
0.7718860426
 40
0.8871401313
 40
1.0
 40
1.0
 40
1.0
 40
1.0
 10
32.4813326681
 20
154.9288076817
 30
0.0
 10
32.573406238
 20
153.7250543491
 30
0.0
 10
32.2930396388
 20
151.2931824022
 30
0.0
 10
30.8545250978
 20
148.6280841081
 30
0.0
 10
29.1824061992
 20
147.0589251801
 30
0.0
 10
27.7628343026
 20
146.2441729208
 30
0.0
 10
26.2342481456
 20
145.8237468299
 30
0.0
 10
25.1897704285
 20
145.8253200064
 30
0.0
 10
24.6854272028
 20
145.8959275215
 30
0.0
  0
SPLINE
  5
4AF
100
AcDbEntity
  8
0
100
AcDbSpline
 62
7
  6
CONTINUOUS
 70
0
 71
3
 72
23
 73
19
 74
0
 42
0.0000001
 43
0.0000001
 44
0.0000000001
 40
0.0
 40
0.0
 40
0.0
 40
0.0
 40
0.0582720559
 40
0.118264914
 40
0.1801746247
 40
0.243950416
 40
0.3093321539
 40
0.3758875745
 40
0.443068235
 40
0.5102654864
 40
0.5768692145
 40
0.6423263696
 40
0.7061980208
 40
0.7682123826
 40
0.8283088772
 40
0.8866643607
 40
0.9436928868
 40
1.0
 40
1.0
 40
1.0
 40
1.0
 10
15.1138053962
 20
225.0788805995
 30
0.0
 10
13.3631124899
 20
224.6095977674
 30
0.0
 10
9.8984443091
 20
223.2931495607
 30
0.0
 10
5.1046476159
 20
220.333007016
 30
0.0
 10
0.7835508056
 20
216.4574420587
 30
0.0
 10
-2.9346872411
 20
211.7879942241
 30
0.0
 10
-5.942135492
 20
206.4674369317
 30
0.0
 10
-8.1504309614
 20
200.656586196
 30
0.0
 10
-9.4946994818
 20
194.530188269
 30
0.0
 10
-9.9350865624
 20
188.2720355098
 30
0.0
 10
-9.4580209574
 20
182.0697275054
 30
0.0
 10
-8.076494155
 20
176.1093050628
 30
0.0
 10
-5.8296079368
 20
170.5700964772
 30
0.0
 10
-2.7813492334
 20
165.6200140457
 30
0.0
 10
0.9803788431
 20
161.4115658499
 30
0.0
 10
5.3461635466
 20
158.0776236155
 30
0.0
 10
10.1812808449
 20
155.7280301302
 30
0.0
 10
13.6313454426
 20
154.8677698232
 30
0.0
 10
15.365795362
 20
154.6248311177
 30
0.0
  0
SPLINE
  5
4B0
100
AcDbEntity
  8
0
100
AcDbSpline
 62
7
  6
CONTINUOUS
 70
0
 71
3
 72
11
 73
7
 74
0
 42
0.0000001
 43
0.0000001
 44
0.0000000001
 40
0.0
 40
0.0
 40
0.0
 40
0.0
 40
0.2685866006
 40
0.5241494212
 40
0.7663585922
 40
1.0
 40
1.0
 40
1.0
 40
1.0
 10
21.6627871257
 20
152.7108797772
 30
0.0
 10
21.7358656989
 20
152.22333184
 30
0.0
 10
22.0036440511
 20
151.2845332631
 30
0.0
 10
22.7683286099
 20
150.0787948572
 30
0.0
 10
23.8273086267
 20
149.2132951064
 30
0.0
 10
24.6768093915
 20
148.926336869
 30
0.0
 10
25.1015224211
 20
148.8668987618
 30
0.0
  0
SPLINE
  5
4B1
100
AcDbEntity
  8
0
100
AcDbSpline
 62
7
  6
CONTINUOUS
 70
0
 71
3
 72
12
 73
8
 74
0
 42
0.0000001
 43
0.0000001
 44
0.0000000001
 40
0.0
 40
0.0
 40
0.0
 40
0.0
 40
0.0880602522
 40
0.1825001668
 40
0.3451972006
 40
0.5383410724
 40
1.0
 40
1.0
 40
1.0
 40
1.0
 10
-12.7514482307
 20
233.7180483854
 30
0.0
 10
-12.6945263736
 20
233.7332799155
 30
0.0
 10
-12.5812452793
 20
233.7853230885
 30
0.0
 10
-12.4087834806
 20
233.943255506
 30
0.0
 10
-12.2589232661
 20
234.2111154239
 30
0.0
 10
-12.1210469628
 20
234.7438444149
 30
0.0
 10
-12.1358083511
 20
235.1919573108
 30
0.0
 10
-12.1815999007
 20
235.4974582882
 30
0.0
  0
SPLINE
  5
4B2
100
AcDbEntity
  8
0
100
AcDbSpline
 62
7
  6
CONTINUOUS
 70
0
 71
3
 72
11
 73
7
 74
0
 42
0.0000001
 43
0.0000001
 44
0.0000000001
 40
0.0
 40
0.0
 40
0.0
 40
0.0
 40
0.2400840752
 40
0.4871290025
 40
0.7407630649
 40
1.0
 40
1.0
 40
1.0
 40
1.0
 10
46.5995936558
 20
226.7943324224
 30
0.0
 10
48.1868717225
 20
225.1140632374
 30
0.0
 10
51.1194908119
 20
221.4220079901
 30
0.0
 10
54.6238209078
 20
215.1792941545
 30
0.0
 10
57.2165376326
 20
208.3104749707
 30
0.0
 10
58.284999299
 20
203.4701278897
 30
0.0
 10
58.6549674034
 20
201.0018642364
 30
0.0
  0
SPLINE
  5
4B3
100
AcDbEntity
  8
0
100
AcDbSpline
 62
7
  6
CONTINUOUS
 70
0
 71
3
 72
17
 73
13
 74
0
 42
0.0000001
 43
0.0000001
 44
0.0000000001
 40
0.0
 40
0.0
 40
0.0
 40
0.0
 40
0.1317334102
 40
0.2645064361
 40
0.3963968943
 40
0.5256091082
 40
0.6507709219
 40
0.771194592
 40
0.8297576096
 40
0.8872871621
 40
0.9439657139
 40
1.0
 40
1.0
 40
1.0
 40
1.0
 10
58.6549674034
 20
201.0018642364
 30
0.0
 10
59.1736323361
 20
197.5415610743
 30
0.0
 10
59.5476984254
 20
190.4771674816
 30
0.0
 10
58.1591919415
 20
179.9837343561
 30
0.0
 10
54.8947895188
 20
169.9800290981
 30
0.0
 10
49.9018481408
 20
160.9432328018
 30
0.0
 10
43.4111405986
 20
153.3045513673
 30
0.0
 10
36.9251727226
 20
148.3634211718
 30
0.0
 10
31.3251551915
 20
145.4882059313
 30
0.0
 10
27.0081713235
 20
143.8963740862
 30
0.0
 10
22.5919925181
 20
142.8725742448
 30
0.0
 10
19.6029260446
 20
142.5756910831
 30
0.0
 10
18.1154230863
 20
142.5263413743
 30
0.0
  0
SPLINE
  5
4B4
100
AcDbEntity
  8
0
100
AcDbSpline
 62
7
  6
CONTINUOUS
 70
0
 71
3
 72
9
 73
5
 74
0
 42
0.0000001
 43
0.0000001
 44
0.0000000001
 40
0.0
 40
0.0
 40
0.0
 40
0.0
 40
0.2495718271
 40
1.0
 40
1.0
 40
1.0
 40
1.0
 10
36.2991659816
 20
224.8086513065
 30
0.0
 10
36.9885001903
 20
224.9979443177
 30
0.0
 10
39.7507463382
 20
225.7557645621
 30
0.0
 10
42.5137862152
 20
226.5106897375
 30
0.0
 10
44.5875422785
 20
227.0761297026
 30
0.0
  0
SPLINE
  5
4B5
100
AcDbEntity
  8
0
100
AcDbSpline
 62
7
  6
CONTINUOUS
 70
0
 71
3
 72
10
 73
6
 74
0
 42
0.0000001
 43
0.0000001
 44
0.0000000001
 40
0.0
 40
0.0
 40
0.0
 40
0.0
 40
0.5144904113
 40
0.7619036842
 40
1.0
 40
1.0
 40
1.0
 40
1.0
 10
45.805908094
 20
156.4065547552
 30
0.0
 10
45.525759146
 20
155.3095961857
 30
0.0
 10
44.8085089047
 20
153.7348664586
 30
0.0
 10
43.3380868656
 20
152.0828380305
 30
0.0
 10
42.4659831041
 20
151.4466594182
 30
0.0
 10
42.0091668902
 20
151.1900713911
 30
0.0
  0
SPLINE
  5
4B6
100
AcDbEntity
  8
0
100
AcDbSpline
 62
7
  6
CONTINUOUS
 70
0
 71
3
 72
9
 73
5
 74
0
 42
0.0000001
 43
0.0000001
 44
0.0000000001
 40
0.0
 40
0.0
 40
0.0
 40
0.0
 40
0.2538173861
 40
1.0
 40
1.0
 40
1.0
 40
1.0
 10
42.0091668902
 20
151.1900713911
 30
0.0
 10
41.8930452809
 20
151.1248473169
 30
0.0
 10
41.4279600271
 20
150.8817002961
 30
0.0
 10
40.9329534866
 20
150.695118877
 30
0.0
 10
40.5547606363
 20
150.59374221
 30
0.0
  0
SPLINE
  5
4B7
100
AcDbEntity
  8
0
100
AcDbSpline
 62
7
  6
CONTINUOUS
 70
0
 71
3
 72
9
 73
5
 74
0
 42
0.0000001
 43
0.0000001
 44
0.0000000001
 40
0.0
 40
0.0
 40
0.0
 40
0.0
 40
0.5028715139
 40
1.0
 40
1.0
 40
1.0
 40
1.0
 10
-28.8667293555
 20
131.9849312019
 30
0.0
 10
-29.2377474865
 20
131.8854777577
 30
0.0
 10
-29.9967039872
 20
131.758720944
 30
0.0
 10
-30.7660219998
 20
131.7869791591
 30
0.0
 10
-31.142080207
 20
131.8396558525
 30
0.0
  0
SPLINE
  5
4B8
100
AcDbEntity
  8
0
100
AcDbSpline
 62
7
  6
CONTINUOUS
 70
0
 71
3
 72
12
 73
8
 74
0
 42
0.0000001
 43
0.0000001
 44
0.0000000001
 40
0.0
 40
0.0
 40
0.0
 40
0.0
 40
0.1141465032
 40
0.2321738583
 40
0.4794960043
 40
0.7389461754
 40
1.0
 40
1.0
 40
1.0
 40
1.0
 10
-47.7216652955
 20
236.4645121261
 30
0.0
 10
-48.1597509602
 20
236.3470808619
 30
0.0
 10
-49.026134042
 20
236.0051861912
 30
0.0
 10
-50.6219981712
 20
234.9438510237
 30
0.0
 10
-52.2339574971
 20
232.9736181099
 30
0.0
 10
-53.277270529
 20
230.0529457538
 30
0.0
 10
-53.3212422508
 20
227.9406709822
 30
0.0
 10
-53.1674826166
 20
226.9148546703
 30
0.0
  0
SPLINE
  5
4B9
100
AcDbEntity
  8
0
100
AcDbSpline
 62
7
  6
CONTINUOUS
 70
0
 71
3
 72
11
 73
7
 74
0
 42
0.0000001
 43
0.0000001
 44
0.0000000001
 40
0.0
 40
0.0
 40
0.0
 40
0.0
 40
0.2639930922
 40
0.5191554636
 40
0.7642347712
 40
1.0
 40
1.0
 40
1.0
 40
1.0
 10
-39.907040486
 20
138.4470463683
 30
0.0
 10
-39.819715697
 20
137.8644539764
 30
0.0
 10
-39.5358470776
 20
136.7317719241
 30
0.0
 10
-38.7826087316
 20
135.187309385
 30
0.0
 10
-37.7432739454
 20
133.8970602087
 30
0.0
 10
-36.8763575872
 20
133.241678833
 30
0.0
 10
-36.418224717
 20
132.9830166392
 30
0.0
  0
SPLINE
  5
4BA
100
AcDbEntity
  8
0
100
AcDbSpline
 62
7
  6
CONTINUOUS
 70
0
 71
3
 72
9
 73
5
 74
0
 42
0.0000001
 43
0.0000001
 44
0.0000000001
 40
0.0
 40
0.0
 40
0.0
 40
0.0
 40
0.502673014
 40
1.0
 40
1.0
 40
1.0
 40
1.0
 10
-36.418224717
 20
132.9830166392
 30
0.0
 10
-36.1065123961
 20
132.8070236075
 30
0.0
 10
-35.4531527439
 20
132.5123957321
 30
0.0
 10
-34.7558003483
 20
132.3457781847
 30
0.0
 10
-34.4050677078
 20
132.296648993
 30
0.0
  0
SPLINE
  5
4BB
100
AcDbEntity
  8
0
100
AcDbSpline
 62
7
  6
CONTINUOUS
 70
0
 71
3
 72
9
 73
5
 74
0
 42
0.0000001
 43
0.0000001
 44
0.0000000001
 40
0.0
 40
0.0
 40
0.0
 40
0.0
 40
0.4971284861
 40
1.0
 40
1.0
 40
1.0
 40
1.0
 10
23.9751755478
 20
255.2185984837
 30
0.0
 10
23.5991173406
 20
255.271275177
 30
0.0
 10
22.829799328
 20
255.2995333921
 30
0.0
 10
22.0708428273
 20
255.1727765784
 30
0.0
 10
21.6998246963
 20
255.0733231342
 30
0.0
  0
SPLINE
  5
4BC
100
AcDbEntity
  8
0
100
AcDbSpline
 62
7
  6
CONTINUOUS
 70
0
 71
3
 72
11
 73
7
 74
0
 42
0.0000001
 43
0.0000001
 44
0.0000000001
 40
0.0
 40
0.0
 40
0.0
 40
0.0
 40
0.233633584
 40
0.4758467542
 40
0.7314152315
 40
1.0
 40
1.0
 40
1.0
 40
1.0
 10
27.2381630486
 20
254.7616053431
 30
0.0
 10
27.9176706483
 20
254.6664227018
 30
0.0
 10
29.2768551726
 20
254.2073775928
 30
0.0
 10
30.971312998
 20
252.8226209309
 30
0.0
 10
32.1947212006
 20
250.8933527053
 30
0.0
 10
32.623210673
 20
249.3912809096
 30
0.0
 10
32.7401358268
 20
248.6112079679
 30
0.0
  0
SPLINE
  5
4BD
100
AcDbEntity
  8
0
100
AcDbSpline
 62
7
  6
CONTINUOUS
 70
0
 71
3
 72
23
 73
19
 74
0
 42
0.0000001
 43
0.0000001
 44
0.0000000001
 40
0.0
 40
0.0
 40
0.0
 40
0.0
 40
0.0560061501
 40
0.1126286184
 40
0.1704033399
 40
0.2297171046
 40
0.2907747437
 40
0.3535900456
 40
0.4179997147
 40
0.4836915286
 40
0.5502407177
 40
0.6171505761
 40
0.6838948912
 40
0.7499610123
 40
0.8148913196
 40
0.878328979
 40
0.9400486967
 40
1.0
 40
1.0
 40
1.0
 40
1.0
 10
25.7405403185
 20
228.7017938581
 30
0.0
 10
27.4814365202
 20
228.4579209996
 30
0.0
 10
30.9436856765
 20
227.623500286
 30
0.0
 10
35.8344881602
 20
225.3837810213
 30
0.0
 10
40.3104971179
 20
222.217038253
 30
0.0
 10
44.2523057998
 20
218.2122486315
 30
0.0
 10
47.5603559029
 20
213.4783778188
 30
0.0
 10
50.1517009193
 20
208.1412450511
 30
0.0
 10
51.9621667255
 20
202.3405114361
 30
0.0
 10
52.9471077852
 20
196.2267004983
 30
0.0
 10
53.0825101258
 20
189.9578309165
 30
0.0
 10
52.3655903548
 20
183.6956844742
 30
0.0
 10
50.8149817764
 20
177.601842311
 30
0.0
 10
48.4701628932
 20
171.8336985033
 30
0.0
 10
45.3908224455
 20
166.5405460868
 30
0.0
 10
41.6541318225
 20
161.8598638396
 30
0.0
 10
37.3567496052
 20
157.9153302756
 30
0.0
 10
34.1411793917
 20
155.8152563426
 30
0.0
 10
32.4813326681
 20
154.9288076817
 30
0.0
  0
SPLINE
  5
4BE
100
AcDbEntity
  8
0
100
AcDbSpline
 62
7
  6
CONTINUOUS
 70
0
 71
3
 72
9
 73
5
 74
0
 42
0.0000001
 43
0.0000001
 44
0.0000000001
 40
0.0
 40
0.0
 40
0.0
 40
0.0
 40
0.4969767544
 40
1.0
 40
1.0
 40
1.0
 40
1.0
 10
25.3244417868
 20
225.730798559
 30
0.0
 10
23.6373869012
 20
225.9671469237
 30
0.0
 10
20.1850540594
 20
226.0948240094
 30
0.0
 10
16.7792646886
 20
225.525316094
 30
0.0
 10
15.1138053962
 20
225.0788805995
 30
0.0
  0
SPLINE
  5
4BF
100
AcDbEntity
  8
0
100
AcDbSpline
 62
7
  6
CONTINUOUS
 70
0
 71
3
 72
15
 73
11
 74
0
 42
0.0000001
 43
0.0000001
 44
0.0000000001
 40
0.0
 40
0.0
 40
0.0
 40
0.0
 40
0.1158034889
 40
0.2353073875
 40
0.3583117241
 40
0.4842753283
 40
0.6124131805
 40
0.7417709365
 40
0.8713058716
 40
1.0
 40
1.0
 40
1.0
 40
1.0
 10
-1.3492266049
 20
233.2564635588
 30
0.0
 10
-3.3405420133
 20
232.0193910241
 30
0.0
 10
-7.1702704476
 20
229.1413060325
 30
0.0
 10
-12.1989087223
 20
223.87388907
 30
0.0
 10
-16.4758785196
 20
217.7277766959
 30
0.0
 10
-19.8850008593
 20
210.8679998247
 30
0.0
 10
-22.3358783897
 20
203.4760374862
 30
0.0
 10
-23.7613830737
 20
195.7466420494
 30
0.0
 10
-24.1221521073
 20
187.8854041583
 30
0.0
 10
-23.6392589498
 20
182.660041391
 30
0.0
 10
-23.216418956
 20
180.0893428901
 30
0.0
  0
SPLINE
  5
4C0
100
AcDbEntity
  8
0
100
AcDbSpline
 62
7
  6
CONTINUOUS
 70
0
 71
3
 72
13
 73
9
 74
0
 42
0.0000001
 43
0.0000001
 44
0.0000000001
 40
0.0
 40
0.0
 40
0.0
 40
0.0
 40
0.3092672185
 40
0.5958295358
 40
0.719425315
 40
0.8264624931
 40
0.918120517
 40
1.0
 40
1.0
 40
1.0
 40
1.0
 10
-12.1815999007
 20
235.4974582882
 30
0.0
 10
-12.2253863912
 20
235.7895823977
 30
0.0
 10
-12.3761286247
 20
236.3435718185
 30
0.0
 10
-12.7034556237
 20
236.9579838335
 30
0.0
 10
-13.0345802017
 20
237.3279402953
 30
0.0
 10
-13.2846025199
 20
237.5123349138
 30
0.0
 10
-13.5400945461
 20
237.6077700432
 30
0.0
 10
-13.7115297188
 20
237.6017456151
 30
0.0
 10
-13.7870765713
 20
237.5815302846
 30
0.0
  0
SPLINE
  5
4C1
100
AcDbEntity
  8
0
100
AcDbSpline
 62
7
  6
CONTINUOUS
 70
0
 71
3
 72
14
 73
10
 74
0
 42
0.0000001
 43
0.0000001
 44
0.0000000001
 40
0.0
 40
0.0
 40
0.0
 40
0.0
 40
0.3090117349
 40
0.4579174627
 40
0.5960759256
 40
0.7195992749
 40
0.8265725452
 40
0.9181602287
 40
1.0
 40
1.0
 40
1.0
 40
1.0
 10
-7.3149746774
 20
236.0806708285
 30
0.0
 10
-7.4298955042
 20
236.8473717858
 30
0.0
 10
-7.7342956335
 20
237.9695033837
 30
0.0
 10
-8.3733173682
 20
239.3244814986
 30
0.0
 10
-8.9335539101
 20
240.1933323259
 30
0.0
 10
-9.5540762338
 20
240.8856307464
 30
0.0
 10
-10.2102938441
 20
241.369818192
 30
0.0
 10
-10.8809734102
 20
241.6201430062
 30
0.0
 10
-11.3310861863
 20
241.6047414146
 30
0.0
 10
-11.5293801119
 20
241.5514728733
 30
0.0
  0
SPLINE
  5
4C2
100
AcDbEntity
  8
0
100
AcDbSpline
 62
7
  6
CONTINUOUS
 70
0
 71
3
 72
11
 73
7
 74
0
 42
0.0000001
 43
0.0000001
 44
0.0000000001
 40
0.0
 40
0.0
 40
0.0
 40
0.0
 40
0.2408412128
 40
0.4881969132
 40
0.7415931026
 40
1.0
 40
1.0
 40
1.0
 40
1.0
 10
-10.7157625426
 20
154.2345121369
 30
0.0
 10
-12.3387945227
 20
155.918014847
 30
0.0
 10
-15.3425567612
 20
159.6171259205
 30
0.0
 10
-18.9607487375
 20
165.8736337603
 30
0.0
 10
-21.6682849543
 20
172.7572818405
 30
0.0
 10
-22.8091962089
 20
177.6135910194
 30
0.0
 10
-23.216418956
 20
180.0893428901
 30
0.0
  0
SPLINE
  5
4C3
100
AcDbEntity
  8
0
100
AcDbSpline
 62
7
  6
CONTINUOUS
 70
0
 71
3
 72
14
 73
10
 74
0
 42
0.0000001
 43
0.0000001
 44
0.0000000001
 40
0.0
 40
0.0
 40
0.0
 40
0.0
 40
0.3090117349
 40
0.4579174627
 40
0.5960759256
 40
0.7195992749
 40
0.8265725452
 40
0.9181602287
 40
1.0
 40
1.0
 40
1.0
 40
1.0
 10
16.0321335639
 20
242.3389911973
 30
0.0
 10
15.9172127371
 20
243.1056921546
 30
0.0
 10
15.6128126078
 20
244.2278237525
 30
0.0
 10
14.9737908731
 20
245.5828018674
 30
0.0
 10
14.4135543312
 20
246.4516526947
 30
0.0
 10
13.7930320075
 20
247.1439511152
 30
0.0
 10
13.1368143972
 20
247.6281385608
 30
0.0
 10
12.4661348311
 20
247.878463375
 30
0.0
 10
12.016022055
 20
247.8630617834
 30
0.0
 10
11.8177281294
 20
247.8097932421
 30
0.0
  0
SPLINE
  5
4C4
100
AcDbEntity
  8
0
100
AcDbSpline
 62
7
  6
CONTINUOUS
 70
0
 71
3
 72
12
 73
8
 74
0
 42
0.0000001
 43
0.0000001
 44
0.0000000001
 40
0.0
 40
0.0
 40
0.0
 40
0.0
 40
0.2610538246
 40
0.5205039957
 40
0.7678261417
 40
0.8858534968
 40
1.0
 40
1.0
 40
1.0
 40
1.0
 10
-49.9044951158
 20
226.4578615297
 30
0.0
 10
-50.05825475
 20
227.4836778417
 30
0.0
 10
-50.0142830282
 20
229.5959526133
 30
0.0
 10
-48.9709699963
 20
232.5166249693
 30
0.0
 10
-47.3590106704
 20
234.4868578832
 30
0.0
 10
-45.7631465412
 20
235.5481930507
 30
0.0
 10
-44.8967634594
 20
235.8900877213
 30
0.0
 10
-44.4586777947
 20
236.0075189856
 30
0.0
  0
SPLINE
  5
4C5
100
AcDbEntity
  8
0
100
AcDbSpline
 62
7
  6
CONTINUOUS
 70
0
 71
3
 72
9
 73
5
 74
0
 42
0.0000001
 43
0.0000001
 44
0.0000000001
 40
0.0
 40
0.0
 40
0.0
 40
0.0
 40
0.5028715139
 40
1.0
 40
1.0
 40
1.0
 40
1.0
 10
24.9628121971
 20
254.6163299937
 30
0.0
 10
25.3338303281
 20
254.7157834379
 30
0.0
 10
26.0927868288
 20
254.8425402516
 30
0.0
 10
26.8621048414
 20
254.8142820365
 30
0.0
 10
27.2381630486
 20
254.7616053431
 30
0.0
  0
SPLINE
  5
4C6
100
AcDbEntity
  8
0
100
AcDbSpline
 62
7
  6
CONTINUOUS
 70
0
 71
3
 72
14
 73
10
 74
0
 42
0.0000001
 43
0.0000001
 44
0.0000000001
 40
0.0
 40
0.0
 40
0.0
 40
0.0
 40
0.0818398022
 40
0.1734275062
 40
0.2804007969
 40
0.4039241595
 40
0.5420826222
 40
0.6909883439
 40
1.0
 40
1.0
 40
1.0
 40
1.0
 10
-14.6285537627
 20
240.7207223472
 30
0.0
 10
-14.4302597689
 20
240.773990931
 30
0.0
 10
-13.9801468373
 20
240.789392489
 30
0.0
 10
-13.3094671629
 20
240.5390674631
 30
0.0
 10
-12.653249486
 20
240.0548798882
 30
0.0
 10
-12.0327271894
 20
239.3625813311
 30
0.0
 10
-11.4724906918
 20
238.4937304601
 30
0.0
 10
-10.8334691789
 20
237.1387524796
 30
0.0
 10
-10.529069135
 20
236.0166210969
 30
0.0
 10
-10.4141483378
 20
235.2499203371
 30
0.0
  0
SPLINE
  5
4C7
100
AcDbEntity
  8
0
100
AcDbSpline
 62
7
  6
CONTINUOUS
 70
0
 71
3
 72
19
 73
15
 74
0
 42
0.0000001
 43
0.0000001
 44
0.0000000001
 40
0.0
 40
0.0
 40
0.0
 40
0.0
 40
0.0615397516
 40
0.1245143646
 40
0.2537748401
 40
0.3857560819
 40
0.517478342
 40
0.6460251908
 40
0.7085291226
 40
0.7695537567
 40
0.8290671769
 40
0.8871559112
 40
0.944027675
 40
1.0
 40
1.0
 40
1.0
 40
1.0
 10
-20.143845112
 20
224.3972100067
 30
0.0
 10
-21.4192056963
 20
223.3063336196
 30
0.0
 10
-23.8478996803
 20
220.9150179017
 30
0.0
 10
-28.1072186853
 20
215.4403806686
 30
0.0
 10
-32.16265381
 20
207.4745201254
 30
0.0
 10
-34.6788623885
 20
196.9606224765
 30
0.0
 10
-34.7258679418
 20
186.1687577915
 30
0.0
 10
-32.6665463197
 20
177.5094598295
 30
0.0
 10
-29.8145179066
 20
171.2357940074
 30
0.0
 10
-27.1516480992
 20
166.9944496215
 30
0.0
 10
-23.9964581821
 20
163.2609497691
 30
0.0
 10
-20.4079139881
 20
160.1082600037
 30
0.0
 10
-16.4562384085
 20
157.6007104821
 30
0.0
 10
-13.61127576
 20
156.3852956541
 30
0.0
 10
-12.1625879843
 20
155.9043681769
 30
0.0
  0
SPLINE
  5
4C8
100
AcDbEntity
  8
0
100
AcDbSpline
 62
7
  6
CONTINUOUS
 70
0
 71
3
 72
11
 73
7
 74
0
 42
0.0000001
 43
0.0000001
 44
0.0000000001
 40
0.0
 40
0.0
 40
0.0
 40
0.0
 40
0.2668246015
 40
0.5212224654
 40
0.7641117412
 40
1.0
 40
1.0
 40
1.0
 40
1.0
 10
-2.896429849
 20
154.1380458296
 30
0.0
 10
-2.7138591651
 20
153.4718351711
 30
0.0
 10
-2.199659204
 20
152.2060379457
 30
0.0
 10
-0.9849549354
 20
150.6129569415
 30
0.0
 10
0.576213122
 20
149.4831019059
 30
0.0
 10
1.7835609254
 20
149.1033889054
 30
0.0
 10
2.3883459954
 20
149.0187144032
 30
0.0
  0
SPLINE
  5
4C9
100
AcDbEntity
  8
0
100
AcDbSpline
 62
7
  6
CONTINUOUS
 70
0
 71
3
 72
11
 73
7
 74
0
 42
0.0000001
 43
0.0000001
 44
0.0000000001
 40
0.0
 40
0.0
 40
0.0
 40
0.0
 40
0.233633584
 40
0.4758467542
 40
0.7314152315
 40
1.0
 40
1.0
 40
1.0
 40
1.0
 10
-31.142080207
 20
131.8396558525
 30
0.0
 10
-31.8215878067
 20
131.9348384939
 30
0.0
 10
-33.180772331
 20
132.3938836028
 30
0.0
 10
-34.8752301564
 20
133.7786402647
 30
0.0
 10
-36.098638359
 20
135.7079084904
 30
0.0
 10
-36.5271278313
 20
137.2099802861
 30
0.0
 10
-36.6440529852
 20
137.9900532277
 30
0.0
  0
SPLINE
  5
4CA
100
AcDbEntity
  8
0
100
AcDbSpline
 62
7
  6
CONTINUOUS
 70
0
 71
3
 72
23
 73
19
 74
0
 42
0.0000001
 43
0.0000001
 44
0.0000000001
 40
0.0
 40
0.0
 40
0.0
 40
0.0
 40
0.0593606695
 40
0.1205084466
 40
0.1834624631
 40
0.2480435231
 40
0.3139175885
 40
0.3806284856
 40
0.4476476848
 40
0.5144200721
 40
0.5804117985
 40
0.6451575
 40
0.7083057883
 40
0.7696605998
 40
0.8292140251
 40
0.8871638656
 40
0.9439059622
 40
1.0
 40
1.0
 40
1.0
 40
1.0
 10
29.6576851742
 20
156.7246332487
 30
0.0
 10
31.2667938402
 20
157.4399238763
 30
0.0
 10
34.4051121106
 20
159.1979761072
 30
0.0
 10
38.6457011822
 20
162.6472159993
 30
0.0
 10
42.3782742587
 20
166.8496452373
 30
0.0
 10
45.5013454454
 20
171.6879577975
 30
0.0
 10
47.9327625237
 20
177.0296511042
 30
0.0
 10
49.6076073034
 20
182.72923822
 30
0.0
 10
50.4811745977
 20
188.6319031208
 30
0.0
 10
50.5297853047
 20
194.5775407264
 30
0.0
 10
49.7515295876
 20
200.4048962279
 30
0.0
 10
48.1661973146
 20
205.9557305668
 30
0.0
 10
45.8147434977
 20
211.0787643902
 30
0.0
 10
42.7581873637
 20
215.6332407299
 30
0.0
 10
39.0768339765
 20
219.4920539737
 30
0.0
 10
34.8681155849
 20
222.544847541
 30
0.0
 10
30.2498927195
 20
224.7013047475
 30
0.0
 10
26.9723734342
 20
225.499931174
 30
0.0
 10
25.3244417868
 20
225.730798559
 30
0.0
  0
SPLINE
  5
4CB
100
AcDbEntity
  8
0
100
AcDbSpline
 62
7
  6
CONTINUOUS
 70
0
 71
3
 72
11
 73
7
 74
0
 42
0.0000001
 43
0.0000001
 44
0.0000000001
 40
0.0
 40
0.0
 40
0.0
 40
0.0
 40
0.2350306398
 40
0.4776441847
 40
0.732479416
 40
1.0
 40
1.0
 40
1.0
 40
1.0
 10
24.6854272028
 20
145.8959275215
 30
0.0
 10
24.0526007824
 20
145.9845225472
 30
0.0
 10
22.7883728027
 20
146.3930545848
 30
0.0
 10
21.17499842
 20
147.6159353881
 30
0.0
 10
19.9523439637
 20
149.3331554585
 30
0.0
 10
19.4657226126
 20
150.6874797306
 30
0.0
 10
19.3052696729
 20
151.3968917557
 30
0.0
  0
SPLINE
  5
4CC
100
AcDbEntity
  8
0
100
AcDbSpline
 62
7
  6
CONTINUOUS
 70
0
 71
3
 72
23
 73
19
 74
0
 42
0.0000001
 43
0.0000001
 44
0.0000000001
 40
0.0
 40
0.0
 40
0.0
 40
0.0
 40
0.0563099731
 40
0.1133386881
 40
0.1716941725
 40
0.2317912372
 40
0.2938061619
 40
0.3576782837
 40
0.4231356666
 40
0.4897392437
 40
0.55693592
 40
0.6241156361
 40
0.6906699446
 40
0.7560505657
 40
0.8198256464
 40
0.8817348241
 40
0.9417275752
 40
1.0
 40
1.0
 40
1.0
 40
1.0
 10
14.949699484
 20
151.6538558005
 30
0.0
 10
13.0701938443
 20
151.9169666289
 30
0.0
 10
9.3317148574
 20
152.8492284738
 30
0.0
 10
4.0925124766
 20
155.3953012636
 30
0.0
 10
-0.6380576526
 20
159.0079491371
 30
0.0
 10
-4.7141144394
 20
163.5681442501
 30
0.0
 10
-8.0171138248
 20
168.9319393431
 30
0.0
 10
-10.4517435171
 20
174.934091641
 30
0.0
 10
-11.9486300055
 20
181.392641586
 30
0.0
 10
-12.4654598535
 20
188.1132392994
 30
0.0
 10
-11.9881923953
 20
194.8942945713
 30
0.0
 10
-10.5315664614
 20
201.5325498623
 30
0.0
 10
-8.1387654441
 20
207.8288845459
 30
0.0
 10
-4.8800254233
 20
213.593959785
 30
0.0
 10
-0.8510977319
 20
218.6535310612
 30
0.0
 10
3.831060742
 20
222.8529265792
 30
0.0
 10
9.0254432017
 20
226.0604342524
 30
0.0
 10
12.7796453954
 20
227.4868998133
 30
0.0
 10
14.6766479633
 20
227.9954017523
 30
0.0
  0
SPLINE
  5
4CD
100
AcDbEntity
  8
0
100
AcDbSpline
 62
7
  6
CONTINUOUS
 70
0
 71
3
 72
13
 73
9
 74
0
 42
0.0000001
 43
0.0000001
 44
0.0000000001
 40
0.0
 40
0.0
 40
0.0
 40
0.0
 40
0.1126062992
 40
0.2278108473
 40
0.3474929826
 40
0.4723906927
 40
0.7336552341
 40
1.0
 40
1.0
 40
1.0
 40
1.0
 10
25.1015224211
 20
148.8668987618
 30
0.0
 10
25.4313142961
 20
148.8207447625
 30
0.0
 10
26.115848981
 20
148.8241120219
 30
0.0
 10
27.1131369772
 20
149.1184337907
 30
0.0
 10
28.0304130328
 20
149.6800736592
 30
0.0
 10
29.0919881939
 20
150.7511529396
 30
0.0
 10
29.9557868524
 20
152.5422154173
 30
0.0
 10
30.0440068038
 20
154.1472661039
 30
0.0
 10
29.9272502199
 20
154.926214421
 30
0.0
  0
SPLINE
  5
4CE
100
AcDbEntity
  8
0
100
AcDbSpline
 62
7
  6
CONTINUOUS
 70
0
 71
3
 72
16
 73
12
 74
0
 42
0.0000001
 43
0.0000001
 44
0.0000000001
 40
0.0
 40
0.0
 40
0.0
 40
0.0
 40
0.1208710512
 40
0.2469332305
 40
0.3766553845
 40
0.5076879295
 40
0.6374049343
 40
0.7634588427
 40
0.8843158199
 40
0.9427965584
 40
1.0
 40
1.0
 40
1.0
 40
1.0
 10
3.4815058771
 20
223.5479310918
 30
0.0
 10
0.9397249615
 20
221.7705680107
 30
0.0
 10
-3.7716244224
 20
217.4114758703
 30
0.0
 10
-9.1191515525
 20
209.261586855
 30
0.0
 10
-12.6032671988
 20
199.8801900802
 30
0.0
 10
-14.0015408437
 20
189.8804146733
 30
0.0
 10
-13.2247974993
 20
179.903984967
 30
0.0
 10
-10.3165995478
 20
170.5987022039
 30
0.0
 10
-6.1952996304
 20
163.8220557524
 30
0.0
 10
-2.0515338499
 20
159.3653457171
 30
0.0
 10
0.2630199318
 20
157.4869630698
 30
0.0
 10
1.4678716115
 20
156.6485724557
 30
0.0
  0
SPLINE
  5
4CF
100
AcDbEntity
  8
0
100
AcDbSpline
 62
7
  6
CONTINUOUS
 70
0
 71
3
 72
13
 73
9
 74
0
 42
0.0000001
 43
0.0000001
 44
0.0000000001
 40
0.0
 40
0.0
 40
0.0
 40
0.0
 40
0.2563531669
 40
0.5130183233
 40
0.6392709886
 40
0.7628280924
 40
0.8831429252
 40
1.0
 40
1.0
 40
1.0
 40
1.0
 10
-20.6838783015
 20
179.7346516557
 30
0.0
 10
-21.4551461641
 20
184.8802099064
 30
0.0
 10
-21.5288934003
 20
195.445093907
 30
0.0
 10
-18.0890530644
 20
208.1333769504
 30
0.0
 10
-13.3682976943
 20
217.2994959837
 30
0.0
 10
-8.97582956
 20
223.4298105429
 30
0.0
 10
-3.8321362877
 20
228.6800445556
 30
0.0
 10
0.0709895012
 20
231.5432023428
 30
0.0
 10
2.0986742207
 20
232.7735726418
 30
0.0
  0
SPLINE
  5
4D0
100
AcDbEntity
  8
0
100
AcDbSpline
 62
7
  6
CONTINUOUS
 70
0
 71
3
 72
9
 73
5
 74
0
 42
0.0000001
 43
0.0000001
 44
0.0000000001
 40
0.0
 40
0.0
 40
0.0
 40
0.0
 40
0.2335072214
 40
1.0
 40
1.0
 40
1.0
 40
1.0
 10
10.4327203157
 20
246.4946911265
 30
0.0
 10
10.5064187658
 20
246.4375563045
 30
0.0
 10
10.8124890457
 20
246.1805814384
 30
0.0
 10
11.0810759134
 20
245.8808463658
 30
0.0
 10
11.2680722341
 20
245.6385041068
 30
0.0
  0
SPLINE
  5
4D1
100
AcDbEntity
  8
0
100
AcDbSpline
 62
7
  6
CONTINUOUS
 70
0
 71
3
 72
10
 73
6
 74
0
 42
0.0000001
 43
0.0000001
 44
0.0000000001
 40
0.0
 40
0.0
 40
0.0
 40
0.0
 40
0.2317177465
 40
0.4815208184
 40
1.0
 40
1.0
 40
1.0
 40
1.0
 10
11.2680722341
 20
245.6385041068
 30
0.0
 10
11.4800024098
 20
245.3638482349
 30
0.0
 10
11.8728234188
 20
244.755449578
 30
0.0
 10
12.5128908675
 20
243.3995021891
 30
0.0
 10
12.8178948081
 20
242.2759041599
 30
0.0
 10
12.9329599036
 20
241.5082407054
 30
0.0
  0
SPLINE
  5
4D2
100
AcDbEntity
  8
0
100
AcDbSpline
 62
7
  6
CONTINUOUS
 70
0
 71
3
 72
11
 73
7
 74
0
 42
0.0000001
 43
0.0000001
 44
0.0000000001
 40
0.0
 40
0.0
 40
0.0
 40
0.0
 40
0.2400840752
 40
0.4871290026
 40
0.7407630649
 40
1.0
 40
1.0
 40
1.0
 40
1.0
 10
-8.62850463
 20
153.9421835618
 30
0.0
 10
-10.2157826618
 20
155.6224527664
 30
0.0
 10
-13.1484017801
 20
159.3145079615
 30
0.0
 10
-16.6527318233
 20
165.5572217997
 30
0.0
 10
-19.2454485407
 20
172.4260409506
 30
0.0
 10
-20.3139101987
 20
177.2663880129
 30
0.0
 10
-20.6838783015
 20
179.7346516557
 30
0.0
  0
SPLINE
  5
4D3
100
AcDbEntity
  8
0
100
AcDbSpline
 62
7
  6
CONTINUOUS
 70
0
 71
3
 72
11
 73
7
 74
0
 42
0.0000001
 43
0.0000001
 44
0.0000000001
 40
0.0
 40
0.0
 40
0.0
 40
0.0
 40
0.2673226298
 40
0.5220198928
 40
0.7647107466
 40
1.0
 40
1.0
 40
1.0
 40
1.0
 10
17.972820446
 20
151.4710432861
 30
0.0
 10
18.140328515
 20
150.7746497373
 30
0.0
 10
18.6358435376
 20
149.4471486259
 30
0.0
 10
19.8566979063
 20
147.7677925872
 30
0.0
 10
21.4545240568
 20
146.5734347978
 30
0.0
 10
22.7015116731
 20
146.1737537356
 30
0.0
 10
23.3258491255
 20
146.0863417514
 30
0.0
  0
SPLINE
  5
4D4
100
AcDbEntity
  8
0
100
AcDbSpline
 62
7
  6
CONTINUOUS
 70
0
 71
3
 72
9
 73
5
 74
0
 42
0.0000001
 43
0.0000001
 44
0.0000000001
 40
0.0
 40
0.0
 40
0.0
 40
0.0
 40
0.2663688002
 40
1.0
 40
1.0
 40
1.0
 40
1.0
 10
-13.6515704368
 20
234.1411691484
 30
0.0
 10
-13.6279662967
 20
234.1136275546
 30
0.0
 10
-13.5366808241
 20
234.0126280451
 30
0.0
 10
-13.4341109171
 20
233.9212388883
 30
0.0
 10
-13.3522043555
 20
233.864040764
 30
0.0
  0
SPLINE
  5
4D5
100
AcDbEntity
  8
0
100
AcDbSpline
 62
7
  6
CONTINUOUS
 70
0
 71
3
 72
9
 73
5
 74
0
 42
0.0000001
 43
0.0000001
 44
0.0000000001
 40
0.0
 40
0.0
 40
0.0
 40
0.0
 40
0.2658125643
 40
1.0
 40
1.0
 40
1.0
 40
1.0
 10
-13.289215387
 20
233.8229627144
 30
0.0
 10
-13.2675173946
 20
233.8098106995
 30
0.0
 10
-13.1842632405
 20
233.7631845575
 30
0.0
 10
-13.0937150405
 20
233.7286541809
 30
0.0
 10
-13.0252058048
 20
233.7138955788
 30
0.0
  0
SPLINE
  5
4D6
100
AcDbEntity
  8
0
100
AcDbSpline
 62
7
  6
CONTINUOUS
 70
0
 71
3
 72
9
 73
5
 74
0
 42
0.0000001
 43
0.0000001
 44
0.0000000001
 40
0.0
 40
0.0
 40
0.0
 40
0.0
 40
0.2557991514
 40
1.0
 40
1.0
 40
1.0
 40
1.0
 10
-12.9527173627
 20
233.7024633118
 30
0.0
 10
-12.9355360491
 20
233.7007632591
 30
0.0
 10
-12.8681302946
 20
233.6969138323
 30
0.0
 10
-12.7999710711
 20
233.7050643202
 30
0.0
 10
-12.7514482307
 20
233.7180483854
 30
0.0
  0
SPLINE
  5
4D7
100
AcDbEntity
  8
0
100
AcDbSpline
 62
7
  6
CONTINUOUS
 70
0
 71
3
 72
9
 73
5
 74
0
 42
0.0000001
 43
0.0000001
 44
0.0000000001
 40
0.0
 40
0.0
 40
0.0
 40
0.0
 40
0.5030222575
 40
1.0
 40
1.0
 40
1.0
 40
1.0
 10
14.6766479633
 20
227.9954017523
 30
0.0
 10
16.4812784865
 20
228.4791428582
 30
0.0
 10
20.171675348
 20
229.0962524505
 30
0.0
 10
23.9124997214
 20
228.9578743099
 30
0.0
 10
25.7405403185
 20
228.7017938581
 30
0.0
  0
SPLINE
  5
4D8
100
AcDbEntity
  8
0
100
AcDbSpline
 62
7
  6
CONTINUOUS
 70
0
 71
3
 72
9
 73
5
 74
0
 42
0.0000001
 43
0.0000001
 44
0.0000000001
 40
0.0
 40
0.0
 40
0.0
 40
0.0
 40
0.2392089577
 40
1.0
 40
1.0
 40
1.0
 40
1.0
 10
-13.9142190047
 20
237.5294580304
 30
0.0
 10
-13.9323981005
 20
237.51920799
 30
0.0
 10
-14.0060564815
 20
237.4722181965
 30
0.0
 10
-14.0692289397
 20
237.4097458415
 30
0.0
 10
-14.1105474238
 20
237.3577997115
 30
0.0
  0
SPLINE
  5
4D9
100
AcDbEntity
  8
0
100
AcDbSpline
 62
7
  6
CONTINUOUS
 70
0
 71
3
 72
9
 73
5
 74
0
 42
0.0000001
 43
0.0000001
 44
0.0000000001
 40
0.0
 40
0.0
 40
0.0
 40
0.0
 40
0.2382199588
 40
1.0
 40
1.0
 40
1.0
 40
1.0
 10
-14.331851874
 20
236.8719493877
 30
0.0
 10
-14.339491619
 20
236.8407862567
 30
0.0
 10
-14.3681446492
 20
236.7091382972
 30
0.0
 10
-14.3839603433
 20
236.574841173
 30
0.0
 10
-14.3901733518
 20
236.472425056
 30
0.0
  0
SPLINE
  5
4DA
100
AcDbEntity
  8
0
100
AcDbSpline
 62
7
  6
CONTINUOUS
 70
0
 71
3
 72
9
 73
5
 74
0
 42
0.0000001
 43
0.0000001
 44
0.0000000001
 40
0.0
 40
0.0
 40
0.0
 40
0.0
 40
0.235670209
 40
1.0
 40
1.0
 40
1.0
 40
1.0
 10
-14.3952588634
 20
236.3001639856
 30
0.0
 10
-14.3952465246
 20
236.2638501862
 30
0.0
 10
-14.3924001994
 20
236.1097694946
 30
0.0
 10
-14.3785399412
 20
235.9559276427
 30
0.0
 10
-14.3622968827
 20
235.8392790537
 30
0.0
  0
SPLINE
  5
4DB
100
AcDbEntity
  8
0
100
AcDbSpline
 62
7
  6
CONTINUOUS
 70
0
 71
3
 72
13
 73
9
 74
0
 42
0.0000001
 43
0.0000001
 44
0.0000000001
 40
0.0
 40
0.0
 40
0.0
 40
0.0
 40
0.083672979
 40
0.1736474593
 40
0.2747441703
 40
0.3898444162
 40
0.6656232473
 40
1.0
 40
1.0
 40
1.0
 40
1.0
 10
-151.4163017535
 20
202.8834796028
 30
0.0
 10
-151.4163298001
 20
203.0042153805
 30
0.0
 10
-151.3758102518
 20
203.2561859622
 30
0.0
 10
-151.2005475794
 20
203.6166468485
 30
0.0
 10
-150.9185952104
 20
203.9608294766
 30
0.0
 10
-150.3752235703
 20
204.4220791298
 30
0.0
 10
-149.4430555713
 20
204.9193071125
 30
0.0
 10
-148.605031558
 20
205.1974610539
 30
0.0
 10
-148.1389959769
 20
205.3223844466
 30
0.0
  0
SPLINE
  5
4DC
100
AcDbEntity
  8
0
100
AcDbSpline
 62
7
  6
CONTINUOUS
 70
0
 71
3
 72
9
 73
5
 74
0
 42
0.0000001
 43
0.0000001
 44
0.0000000001
 40
0.0
 40
0.0
 40
0.0
 40
0.0
 40
0.2456381704
 40
1.0
 40
1.0
 40
1.0
 40
1.0
 10
-151.4163017535
 20
197.3674719222
 30
0.0
 10
-151.4162928589
 20
197.3291824097
 30
0.0
 10
-151.408622898
 20
197.1733372719
 30
0.0
 10
-151.3693505532
 20
197.0195589291
 30
0.0
 10
-151.325832056
 20
196.9103200967
 30
0.0
  0
SPLINE
  5
4DD
100
AcDbEntity
  8
0
100
AcDbSpline
 62
7
  6
CONTINUOUS
 70
0
 71
3
 72
9
 73
5
 74
0
 42
0.0000001
 43
0.0000001
 44
0.0000000001
 40
0.0
 40
0.0
 40
0.0
 40
0.0
 40
0.441908795
 40
1.0
 40
1.0
 40
1.0
 40
1.0
 10
-151.325832056
 20
196.9103200967
 30
0.0
 10
-151.2314838975
 20
196.6734901663
 30
0.0
 10
-150.8714667532
 20
196.1984426037
 30
0.0
 10
-150.3935204344
 20
195.8669969409
 30
0.0
 10
-150.1147267519
 20
195.7059708876
 30
0.0
  0
SPLINE
  5
4DE
100
AcDbEntity
  8
0
100
AcDbSpline
 62
7
  6
CONTINUOUS
 70
0
 71
3
 72
12
 73
8
 74
0
 42
0.0000001
 43
0.0000001
 44
0.0000000001
 40
0.0
 40
0.0
 40
0.0
 40
0.0
 40
0.1973930664
 40
0.3097662472
 40
0.431601169
 40
0.7013827412
 40
1.0
 40
1.0
 40
1.0
 40
1.0
 10
-133.9790497235
 20
222.8449827492
 30
0.0
 10
-134.3810712048
 20
222.547119218
 30
0.0
 10
-134.8990969045
 20
221.9250730562
 30
0.0
 10
-135.3983222756
 20
220.9515757122
 30
0.0
 10
-135.8378079596
 20
219.7482405872
 30
0.0
 10
-136.1760032324
 20
218.0221443977
 30
0.0
 10
-136.2510860342
 20
216.579689038
 30
0.0
 10
-136.2510858758
 20
215.8227662766
 30
0.0
  0
SPLINE
  5
4DF
100
AcDbEntity
  8
0
100
AcDbSpline
 62
7
  6
CONTINUOUS
 70
0
 71
3
 72
13
 73
9
 74
0
 42
0.0000001
 43
0.0000001
 44
0.0000000001
 40
0.0
 40
0.0
 40
0.0
 40
0.0
 40
0.3313403567
 40
0.6294616402
 40
0.7553355117
 40
0.8599981753
 40
0.9411697662
 40
1.0
 40
1.0
 40
1.0
 40
1.0
 10
-129.2004912341
 20
218.2656163997
 30
0.0
 10
-128.7429033153
 20
218.8332491416
 30
0.0
 10
-127.8709677243
 20
219.9092582507
 30
0.0
 10
-126.8398245748
 20
221.2136669495
 30
0.0
 10
-126.1633264774
 20
222.1601569235
 30
0.0
 10
-125.7983979629
 20
222.7423941514
 30
0.0
 10
-125.5625101343
 20
223.2265764915
 30
0.0
 10
-125.4861211802
 20
223.5320185596
 30
0.0
 10
-125.4861267198
 20
223.6614727532
 30
0.0
  0
SPLINE
  5
4E0
100
AcDbEntity
  8
0
100
AcDbSpline
 62
7
  6
CONTINUOUS
 70
0
 71
3
 72
9
 73
5
 74
0
 42
0.0000001
 43
0.0000001
 44
0.0000000001
 40
0.0
 40
0.0
 40
0.0
 40
0.0
 40
0.2537745712
 40
1.0
 40
1.0
 40
1.0
 40
1.0
 10
-64.5690751454
 20
217.5360776017
 30
0.0
 10
-64.6291821952
 20
217.2380764633
 30
0.0
 10
-64.8426218739
 20
216.0592477544
 30
0.0
 10
-64.9613793098
 20
214.862903088
 30
0.0
 10
-64.9911263072
 20
213.9694771821
 30
0.0
  0
SPLINE
  5
4E1
100
AcDbEntity
  8
0
100
AcDbSpline
 62
7
  6
CONTINUOUS
 70
0
 71
3
 72
11
 73
7
 74
0
 42
0.0000001
 43
0.0000001
 44
0.0000000001
 40
0.0
 40
0.0
 40
0.0
 40
0.0
 40
0.2424125336
 40
0.504129221
 40
0.7637222709
 40
1.0
 40
1.0
 40
1.0
 40
1.0
 10
-76.5043070848
 20
164.2969552732
 30
0.0
 10
-75.7160622607
 20
164.50824862
 30
0.0
 10
-74.0377200232
 20
164.804875363
 30
0.0
 10
-71.4638593871
 20
164.928493186
 30
0.0
 10
-68.9143080826
 20
164.7453717761
 30
0.0
 10
-67.2713181171
 20
164.4081260608
 30
0.0
 10
-66.5105080426
 20
164.1760456743
 30
0.0
  0
SPLINE
  5
4E2
100
AcDbEntity
  8
0
100
AcDbSpline
 62
7
  6
CONTINUOUS
 70
0
 71
3
 72
11
 73
7
 74
0
 42
0.0000001
 43
0.0000001
 44
0.0000000001
 40
0.0
 40
0.0
 40
0.0
 40
0.0
 40
0.307716659
 40
0.5710984383
 40
0.7967334285
 40
1.0
 40
1.0
 40
1.0
 40
1.0
 10
-150.1147267519
 20
201.2219785681
 30
0.0
 10
-150.3102404661
 20
201.3349036584
 30
0.0
 10
-150.660792911
 20
201.5680115688
 30
0.0
 10
-151.0839146614
 20
201.9776339116
 30
0.0
 10
-151.352381946
 20
202.4174132531
 30
0.0
 10
-151.4162671078
 20
202.7343358691
 30
0.0
 10
-151.4163017535
 20
202.8834796028
 30
0.0
  0
SPLINE
  5
4E3
100
AcDbEntity
  8
0
100
AcDbSpline
 62
7
  6
CONTINUOUS
 70
0
 71
3
 72
13
 73
9
 74
0
 42
0.0000001
 43
0.0000001
 44
0.0000000001
 40
0.0
 40
0.0
 40
0.0
 40
0.0
 40
0.1000995364
 40
0.1901925207
 40
0.3850973375
 40
0.5077605422
 40
0.6508891115
 40
1.0
 40
1.0
 40
1.0
 40
1.0
 10
-125.4861267198
 20
223.6614727532
 30
0.0
 10
-125.486129248
 20
223.7205547195
 30
0.0
 10
-125.4997204607
 20
223.8341484121
 30
0.0
 10
-125.608852201
 20
224.0404205098
 30
0.0
 10
-125.8371775893
 20
224.1609703693
 30
0.0
 10
-126.1029626637
 20
224.2127957592
 30
0.0
 10
-126.4667653575
 20
224.2344557333
 30
0.0
 10
-126.7572912497
 20
224.2066367996
 30
0.0
 10
-126.9613294752
 20
224.177867475
 30
0.0
  0
SPLINE
  5
4E4
100
AcDbEntity
  8
0
100
AcDbSpline
 62
7
  6
CONTINUOUS
 70
0
 71
3
 72
13
 73
9
 74
0
 42
0.0000001
 43
0.0000001
 44
0.0000000001
 40
0.0
 40
0.0
 40
0.0
 40
0.0
 40
0.0851351677
 40
0.1899981567
 40
0.3098971513
 40
0.4402943362
 40
0.7170893634
 40
1.0
 40
1.0
 40
1.0
 40
1.0
 10
-64.6938813695
 20
231.560166089
 30
0.0
 10
-65.10873135
 20
231.5018233656
 30
0.0
 10
-66.0218053403
 20
231.2852534449
 30
0.0
 10
-67.4646154709
 20
230.787263331
 30
0.0
 10
-69.0614097436
 20
230.0702162282
 30
0.0
 10
-71.3234713589
 20
228.7953050908
 30
0.0
 10
-74.0215285397
 20
226.6889643058
 30
0.0
 10
-75.76734388
 20
224.5193875397
 30
0.0
 10
-76.5043070848
 20
223.3383070854
 30
0.0
  0
SPLINE
  5
4E5
100
AcDbEntity
  8
0
100
AcDbSpline
 62
7
  6
CONTINUOUS
 70
0
 71
3
 72
8
 73
4
 74
0
 42
0.0000001
 43
0.0000001
 44
0.0000000001
 40
0.0
 40
0.0
 40
0.0
 40
0.0
 40
1.0
 40
1.0
 40
1.0
 40
1.0
 10
-126.9613294752
 20
224.177867475
 30
0.0
 10
-128.8906486837
 20
223.9058340831
 30
0.0
 10
-130.8198964005
 20
223.6332932309
 30
0.0
 10
-132.7490765808
 20
223.3602756377
 30
0.0
  0
SPLINE
  5
4E6
100
AcDbEntity
  8
0
100
AcDbSpline
 62
7
  6
CONTINUOUS
 70
0
 71
3
 72
9
 73
5
 74
0
 42
0.0000001
 43
0.0000001
 44
0.0000000001
 40
0.0
 40
0.0
 40
0.0
 40
0.0
 40
0.5090227678
 40
1.0
 40
1.0
 40
1.0
 40
1.0
 10
-132.7490760755
 20
223.3602758435
 30
0.0
 10
-131.412444809
 20
224.3408712595
 30
0.0
 10
-128.6225807612
 20
226.0551890927
 30
0.0
 10
-125.5703355614
 20
227.2502128933
 30
0.0
 10
-124.0320141959
 20
227.6864703394
 30
0.0
  0
SPLINE
  5
4E7
100
AcDbEntity
  8
0
100
AcDbSpline
 62
7
  6
CONTINUOUS
 70
0
 71
3
 72
9
 73
5
 74
0
 42
0.0000001
 43
0.0000001
 44
0.0000000001
 40
0.0
 40
0.0
 40
0.0
 40
0.0
 40
0.493861465
 40
1.0
 40
1.0
 40
1.0
 40
1.0
 10
-132.7490765808
 20
223.3602756377
 30
0.0
 10
-132.9681667282
 20
223.3292681101
 30
0.0
 10
-133.4055268824
 20
223.2080908698
 30
0.0
 10
-133.7968388192
 20
222.9799854441
 30
0.0
 10
-133.9790497235
 20
222.8449827492
 30
0.0
  0
SPLINE
  5
4E8
100
AcDbEntity
  8
0
100
AcDbSpline
 62
7
  6
CONTINUOUS
 70
0
 71
3
 72
11
 73
7
 74
0
 42
0.0000001
 43
0.0000001
 44
0.0000000001
 40
0.0
 40
0.0
 40
0.0
 40
0.0
 40
0.2323283274
 40
0.4732845705
 40
0.728453703
 40
1.0
 40
1.0
 40
1.0
 40
1.0
 10
-11.4306255898
 20
136.6405950345
 30
0.0
 10
-10.5943112424
 20
136.1340345081
 30
0.0
 10
-9.0389572572
 20
134.8352278137
 30
0.0
 10
-7.3245561077
 20
132.2489149375
 30
0.0
 10
-6.2788679728
 20
129.1589226978
 30
0.0
 10
-6.0602540993
 20
126.9331555347
 30
0.0
 10
-6.0602540993
 20
125.7903392997
 30
0.0
  0
SPLINE
  5
4E9
100
AcDbEntity
  8
0
100
AcDbSpline
 62
7
  6
CONTINUOUS
 70
0
 71
3
 72
11
 73
7
 74
0
 42
0.0000001
 43
0.0000001
 44
0.0000000001
 40
0.0
 40
0.0
 40
0.0
 40
0.0
 40
0.271777447
 40
0.5268693558
 40
0.7676332594
 40
1.0
 40
1.0
 40
1.0
 40
1.0
 10
-35.8123212387
 20
117.8151345819
 30
0.0
 10
-35.8123212387
 20
116.5161976835
 30
0.0
 10
-35.5597831111
 20
113.9873451525
 30
0.0
 10
-34.3501882779
 20
110.4843748009
 30
0.0
 10
-32.368132339
 20
107.5697444479
 30
0.0
 10
-30.5743044279
 20
106.1270290146
 30
0.0
 10
-29.6126523187
 20
105.5715057497
 30
0.0
  0
SPLINE
  5
4EA
100
AcDbEntity
  8
0
100
AcDbSpline
 62
7
  6
CONTINUOUS
 70
0
 71
3
 72
9
 73
5
 74
0
 42
0.0000001
 43
0.0000001
 44
0.0000000001
 40
0.0
 40
0.0
 40
0.0
 40
0.0
 40
0.5104117975
 40
1.0
 40
1.0
 40
1.0
 40
1.0
 10
-31.2664978729
 20
131.3253171743
 30
0.0
 10
-32.6987823138
 20
129.3326656994
 30
0.0
 10
-34.9427873581
 20
124.994757077
 30
0.0
 10
-35.8123212387
 20
120.1690137853
 30
0.0
 10
-35.8123212387
 20
117.8151345819
 30
0.0
  0
SPLINE
  5
4EB
100
AcDbEntity
  8
0
100
AcDbSpline
 62
7
  6
CONTINUOUS
 70
0
 71
3
 72
9
 73
5
 74
0
 42
0.0000001
 43
0.0000001
 44
0.0000000001
 40
0.0
 40
0.0
 40
0.0
 40
0.0
 40
0.4904318816
 40
1.0
 40
1.0
 40
1.0
 40
1.0
 10
22.6210812216
 20
257.4277613265
 30
0.0
 10
23.5000298917
 20
257.3046417969
 30
0.0
 10
25.2580033411
 20
256.6986927465
 30
0.0
 10
26.6693392541
 20
255.5005288856
 30
0.0
 10
27.2686628382
 20
254.799678546
 30
0.0
  0
SPLINE
  5
4EC
100
AcDbEntity
  8
0
100
AcDbSpline
 62
7
  6
CONTINUOUS
 70
0
 71
3
 72
11
 73
7
 74
0
 42
0.0000001
 43
0.0000001
 44
0.0000000001
 40
0.0
 40
0.0
 40
0.0
 40
0.0
 40
0.2328182149
 40
0.4809036219
 40
0.7397283421
 40
1.0
 40
1.0
 40
1.0
 40
1.0
 10
-49.9835463227
 20
237.0020379135
 30
0.0
 10
-50.8493080501
 20
236.6836279537
 30
0.0
 10
-52.5087048431
 20
235.6371332041
 30
0.0
 10
-54.3074945609
 20
233.2567580958
 30
0.0
 10
-55.3119155979
 20
230.338756716
 30
0.0
 10
-55.3712518984
 20
228.2445634636
 30
0.0
 10
-55.2386536812
 20
227.2218918434
 30
0.0
  0
SPLINE
  5
4ED
100
AcDbEntity
  8
0
100
AcDbSpline
 62
7
  6
CONTINUOUS
 70
0
 71
3
 72
11
 73
7
 74
0
 42
0.0000001
 43
0.0000001
 44
0.0000000001
 40
0.0
 40
0.0
 40
0.0
 40
0.0
 40
0.267213811
 40
0.5228621472
 40
0.7661185614
 40
1.0
 40
1.0
 40
1.0
 40
1.0
 10
-41.9517573912
 20
138.5647762063
 30
0.0
 10
-41.8382842922
 20
137.8077338491
 30
0.0
 10
-41.4385204135
 20
136.3453267751
 30
0.0
 10
-40.3222590273
 20
134.4249136728
 30
0.0
 10
-38.775811294
 20
132.9600025032
 30
0.0
 10
-37.5123002533
 20
132.3663746489
 30
0.0
 10
-36.8665349812
 20
132.1877648796
 30
0.0
  0
SPLINE
  5
4EE
100
AcDbEntity
  8
0
100
AcDbSpline
 62
7
  6
CONTINUOUS
 70
0
 71
3
 72
9
 73
5
 74
0
 42
0.0000001
 43
0.0000001
 44
0.0000000001
 40
0.0
 40
0.0
 40
0.0
 40
0.0
 40
0.2487409505
 40
1.0
 40
1.0
 40
1.0
 40
1.0
 10
22.4130316534
 20
255.9422616221
 30
0.0
 10
22.2133552943
 20
255.9702314686
 30
0.0
 10
21.4052632445
 20
256.0421289712
 30
0.0
 10
20.5836655941
 20
255.9455752489
 30
0.0
 10
19.9954713738
 20
255.7879065633
 30
0.0
  0
SPLINE
  5
4EF
100
AcDbEntity
  8
0
100
AcDbSpline
 62
7
  6
CONTINUOUS
 70
0
 71
3
 72
11
 73
7
 74
0
 42
0.0000001
 43
0.0000001
 44
0.0000000001
 40
0.0
 40
0.0
 40
0.0
 40
0.0
 40
0.2032339246
 40
0.4288952144
 40
0.6924084714
 40
1.0
 40
1.0
 40
1.0
 40
1.0
 10
-151.4162575607
 20
134.8527179662
 30
0.0
 10
-151.4163155115
 20
134.7035999167
 30
0.0
 10
-151.3523345288
 20
134.3866871223
 30
0.0
 10
-151.0839341717
 20
133.9467800137
 30
0.0
 10
-150.6606183008
 20
133.5373106124
 30
0.0
 10
-150.3101587042
 20
133.3040950404
 30
0.0
 10
-150.1147267519
 20
133.1912171742
 30
0.0
  0
SPLINE
  5
4F0
100
AcDbEntity
  8
0
100
AcDbSpline
 62
7
  6
CONTINUOUS
 70
0
 71
3
 72
9
 73
5
 74
0
 42
0.0000001
 43
0.0000001
 44
0.0000000001
 40
0.0
 40
0.0
 40
0.0
 40
0.0
 40
0.2437369764
 40
1.0
 40
1.0
 40
1.0
 40
1.0
 10
-151.4162575526
 20
195.5288024526
 30
0.0
 10
-151.4162396317
 20
195.5749387257
 30
0.0
 10
-151.4050147044
 20
195.7642053381
 30
0.0
 10
-151.3472351509
 20
195.9494925308
 30
0.0
 10
-151.285101641
 20
196.078456085
 30
0.0
  0
SPLINE
  5
4F1
100
AcDbEntity
  8
0
100
AcDbSpline
 62
7
  6
CONTINUOUS
 70
0
 71
3
 72
9
 73
5
 74
0
 42
0.0000001
 43
0.0000001
 44
0.0000000001
 40
0.0
 40
0.0
 40
0.0
 40
0.0
 40
0.2390933734
 40
1.0
 40
1.0
 40
1.0
 40
1.0
 10
-151.285101641
 20
196.078456085
 30
0.0
 10
-151.2703607549
 20
196.109052088
 30
0.0
 10
-151.2043544043
 20
196.2349142803
 30
0.0
 10
-151.1220531796
 20
196.351903223
 30
0.0
 10
-151.0534898201
 20
196.4354550024
 30
0.0
  0
SPLINE
  5
4F2
100
AcDbEntity
  8
0
100
AcDbSpline
 62
7
  6
CONTINUOUS
 70
0
 71
3
 72
15
 73
11
 74
0
 42
0.0000001
 43
0.0000001
 44
0.0000000001
 40
0.0
 40
0.0
 40
0.0
 40
0.0
 40
0.2646709974
 40
0.4021377055
 40
0.5367264584
 40
0.6646710911
 40
0.7837862812
 40
0.8943546262
 40
0.9475377438
 40
1.0
 40
1.0
 40
1.0
 40
1.0
 10
-6.0602540993
 20
125.7903392997
 30
0.0
 10
-6.0602540993
 20
122.7726309389
 30
0.0
 10
-7.2553173419
 20
118.136511148
 30
0.0
 10
-10.5058668408
 20
112.9243038167
 30
0.0
 10
-13.6991978404
 20
109.6124645264
 30
0.0
 10
-17.3838691051
 20
107.2204515524
 30
0.0
 10
-21.3049904711
 20
105.9266172084
 30
0.0
 10
-24.5942315844
 20
105.8814267202
 30
0.0
 10
-26.9931198872
 20
106.4966113626
 30
0.0
 10
-28.0943477524
 20
107.0042728035
 30
0.0
 10
-28.6123359665
 20
107.3034122913
 30
0.0
  0
SPLINE
  5
4F3
100
AcDbEntity
  8
0
100
AcDbSpline
 62
7
  6
CONTINUOUS
 70
0
 71
3
 72
9
 73
5
 74
0
 42
0.0000001
 43
0.0000001
 44
0.0000000001
 40
0.0
 40
0.0
 40
0.0
 40
0.0
 40
0.2517696521
 40
1.0
 40
1.0
 40
1.0
 40
1.0
 10
-34.3947758623
 20
132.2192249021
 30
0.0
 10
-34.5132301991
 20
132.1908286574
 30
0.0
 10
-34.9868713646
 20
132.0916979742
 30
0.0
 10
-35.4722557079
 20
132.0481090573
 30
0.0
 10
-35.8342617413
 20
132.0486824948
 30
0.0
  0
SPLINE
  5
4F4
100
AcDbEntity
  8
0
100
AcDbSpline
 62
7
  6
CONTINUOUS
 70
0
 71
3
 72
9
 73
5
 74
0
 42
0.0000001
 43
0.0000001
 44
0.0000000001
 40
0.0
 40
0.0
 40
0.0
 40
0.0
 40
0.2486376119
 40
1.0
 40
1.0
 40
1.0
 40
1.0
 10
22.6298240702
 20
255.860641261
 30
0.0
 10
22.7489756682
 20
255.8276855721
 30
0.0
 10
23.2239903946
 20
255.6803040682
 30
0.0
 10
23.6805190596
 20
255.473980886
 30
0.0
 10
24.0059101791
 20
255.2904422901
 30
0.0
  0
SPLINE
  5
4F5
100
AcDbEntity
  8
0
100
AcDbSpline
 62
7
  6
CONTINUOUS
 70
0
 71
3
 72
11
 73
7
 74
0
 42
0.0000001
 43
0.0000001
 44
0.0000000001
 40
0.0
 40
0.0
 40
0.0
 40
0.0
 40
0.2693850615
 40
0.5247899305
 40
0.7672328179
 40
1.0
 40
1.0
 40
1.0
 40
1.0
 10
-4.4073614804
 20
126.2334062284
 30
0.0
 10
-4.4073614804
 20
127.3399051871
 30
0.0
 10
-4.5915490272
 20
129.5017418084
 30
0.0
 10
-5.4642089266
 20
132.5523465352
 30
0.0
 10
-6.9001362004
 20
135.2157538685
 30
0.0
 10
-8.2237978376
 20
136.6823842922
 30
0.0
 10
-8.9502297469
 20
137.3040005441
 30
0.0
  0
SPLINE
  5
4F6
100
AcDbEntity
  8
0
100
AcDbSpline
 62
7
  6
CONTINUOUS
 70
0
 71
3
 72
15
 73
11
 74
0
 42
0.0000001
 43
0.0000001
 44
0.0000000001
 40
0.0
 40
0.0
 40
0.0
 40
0.0
 40
0.0524622206
 40
0.1056451924
 40
0.2162149419
 40
0.335328751
 40
0.4632716211
 40
0.5978589477
 40
0.7353248364
 40
1.0
 40
1.0
 40
1.0
 40
1.0
 10
-29.6126523187
 20
105.5715057497
 30
0.0
 10
-29.0337678356
 20
105.2370981246
 30
0.0
 10
-27.8028509679
 20
104.6699979601
 30
0.0
 10
-25.121846463
 20
103.9820426775
 30
0.0
 10
-21.4455864995
 20
104.0329794546
 30
0.0
 10
-17.0631241221
 20
105.4786649774
 30
0.0
 10
-12.9450572509
 20
108.1522310677
 30
0.0
 10
-9.3761188614
 20
111.8536584601
 30
0.0
 10
-5.7429309859
 20
117.6789761024
 30
0.0
 10
-4.4073614804
 20
122.8606182122
 30
0.0
 10
-4.4073614804
 20
126.2334062284
 30
0.0
  0
SPLINE
  5
4F7
100
AcDbEntity
  8
0
100
AcDbSpline
 62
7
  6
CONTINUOUS
 70
0
 71
3
 72
11
 73
7
 74
0
 42
0.0000001
 43
0.0000001
 44
0.0000000001
 40
0.0
 40
0.0
 40
0.0
 40
0.0
 40
0.2330991379
 40
0.4759488717
 40
0.7313315051
 40
1.0
 40
1.0
 40
1.0
 40
1.0
 10
-9.1328766717
 20
137.288405876
 30
0.0
 10
-8.4631612986
 20
136.6605067989
 30
0.0
 10
-7.2488816578
 20
135.2059803977
 30
0.0
 10
-5.9360203197
 20
132.6185406852
 30
0.0
 10
-5.1390531428
 20
129.6860045777
 30
0.0
 10
-4.9703770199
 20
127.6167067598
 30
0.0
 10
-4.9703770199
 20
126.5585935478
 30
0.0
  0
SPLINE
  5
4F8
100
AcDbEntity
  8
0
100
AcDbSpline
 62
7
  6
CONTINUOUS
 70
0
 71
3
 72
9
 73
5
 74
0
 42
0.0000001
 43
0.0000001
 44
0.0000000001
 40
0.0
 40
0.0
 40
0.0
 40
0.0
 40
0.5097649139
 40
1.0
 40
1.0
 40
1.0
 40
1.0
 10
-29.8569302499
 20
131.7147728479
 30
0.0
 10
-31.3801925345
 20
129.8429454377
 30
0.0
 10
-33.7802041243
 20
125.6578120208
 30
0.0
 10
-34.7224441592
 20
120.9042415859
 30
0.0
 10
-34.7224441592
 20
118.5833888301
 30
0.0
  0
SPLINE
  5
4F9
100
AcDbEntity
  8
0
100
AcDbSpline
 62
7
  6
CONTINUOUS
 70
0
 71
3
 72
11
 73
7
 74
0
 42
0.0000001
 43
0.0000001
 44
0.0000000001
 40
0.0
 40
0.0
 40
0.0
 40
0.0
 40
0.3075915747
 40
0.5711047481
 40
0.7967660342
 40
1.0
 40
1.0
 40
1.0
 40
1.0
 10
-150.1147267519
 20
193.8673016607
 30
0.0
 10
-150.3101587351
 20
193.9801795447
 30
0.0
 10
-150.6606183781
 20
194.2133950236
 30
0.0
 10
-151.0839341241
 20
194.6228645005
 30
0.0
 10
-151.3523345694
 20
195.0627715312
 30
0.0
 10
-151.4163154753
 20
195.3796843716
 30
0.0
 10
-151.4162575526
 20
195.5288024526
 30
0.0
  0
SPLINE
  5
4FA
100
AcDbEntity
  8
0
100
AcDbSpline
 62
7
  6
CONTINUOUS
 70
0
 71
3
 72
11
 73
7
 74
0
 42
0.0000001
 43
0.0000001
 44
0.0000000001
 40
0.0
 40
0.0
 40
0.0
 40
0.0
 40
0.232362554
 40
0.4731275204
 40
0.7282243732
 40
1.0
 40
1.0
 40
1.0
 40
1.0
 10
-28.6123359665
 20
107.3034122913
 30
0.0
 10
-29.4728105961
 20
107.8003385398
 30
0.0
 10
-31.0777451542
 20
109.0912939762
 30
0.0
 10
-32.8512302014
 20
111.69905562
 30
0.0
 10
-33.933464398
 20
114.8333391075
 30
0.0
 10
-34.1594286198
 20
117.0960026848
 30
0.0
 10
-34.1594286198
 20
118.2582015107
 30
0.0
  0
SPLINE
  5
4FB
100
AcDbEntity
  8
0
100
AcDbSpline
 62
7
  6
CONTINUOUS
 70
0
 71
3
 72
12
 73
8
 74
0
 42
0.0000001
 43
0.0000001
 44
0.0000000001
 40
0.0
 40
0.0
 40
0.0
 40
0.0
 40
0.2610538246
 40
0.5205039957
 40
0.7678261417
 40
0.8858534968
 40
1.0
 40
1.0
 40
1.0
 40
1.0
 10
-56.4518689859
 20
226.7002843117
 30
0.0
 10
-56.6440685286
 20
227.9825547017
 30
0.0
 10
-56.5891038764
 20
230.6228981663
 30
0.0
 10
-55.2849625864
 20
234.2737386114
 30
0.0
 10
-53.270013429
 20
236.7365297537
 30
0.0
 10
-51.2751832674
 20
238.063198713
 30
0.0
 10
-50.1922044152
 20
238.4905670513
 30
0.0
 10
-49.6445973343
 20
238.6373561317
 30
0.0
  0
SPLINE
  5
4FC
100
AcDbEntity
  8
0
100
AcDbSpline
 62
7
  6
CONTINUOUS
 70
0
 71
3
 72
10
 73
6
 74
0
 42
0.0000001
 43
0.0000001
 44
0.0000000001
 40
0.0
 40
0.0
 40
0.0
 40
0.0
 40
0.2049606058
 40
0.5614655657
 40
1.0
 40
1.0
 40
1.0
 40
1.0
 10
-150.7011897673
 20
195.2593108466
 30
0.0
 10
-150.6762088026
 20
195.126233576
 30
0.0
 10
-150.5444188804
 20
194.7723343692
 30
0.0
 10
-150.106868866
 20
194.2600092616
 30
0.0
 10
-149.6708633484
 20
193.9603711542
 30
0.0
 10
-149.4199958275
 20
193.8154747332
 30
0.0
  0
SPLINE
  5
4FD
100
AcDbEntity
  8
0
100
AcDbSpline
 62
7
  6
CONTINUOUS
 70
0
 71
3
 72
9
 73
5
 74
0
 42
0.0000001
 43
0.0000001
 44
0.0000000001
 40
0.0
 40
0.0
 40
0.0
 40
0.0
 40
0.5028715139
 40
1.0
 40
1.0
 40
1.0
 40
1.0
 10
19.7768926569
 20
257.2461671396
 30
0.0
 10
20.2406653208
 20
257.3704839448
 30
0.0
 10
21.1893609468
 20
257.528929962
 30
0.0
 10
22.1510084626
 20
257.4936071932
 30
0.0
 10
22.6210812216
 20
257.4277613265
 30
0.0
  0
SPLINE
  5
4FE
100
AcDbEntity
  8
0
100
AcDbSpline
 62
7
  6
CONTINUOUS
 70
0
 71
3
 72
14
 73
10
 74
0
 42
0.0000001
 43
0.0000001
 44
0.0000000001
 40
0.0
 40
0.0
 40
0.0
 40
0.0
 40
0.1239381064
 40
0.2358141886
 40
0.3437429448
 40
0.4588607953
 40
0.5868786808
 40
0.7255277839
 40
1.0
 40
1.0
 40
1.0
 40
1.0
 10
-21.5412883572
 20
121.6405631893
 30
0.0
 10
-21.5412883572
 20
121.4437716151
 30
0.0
 10
-21.4790897166
 20
121.0634932855
 30
0.0
 10
-21.1583261859
 20
120.5951464741
 30
0.0
 10
-20.6538203432
 20
120.3582431305
 30
0.0
 10
-20.0780279044
 20
120.3994085546
 30
0.0
 10
-19.5269068387
 20
120.6831590266
 30
0.0
 10
-18.9207995754
 20
121.303218144
 30
0.0
 10
-18.6783943619
 20
121.9721647704
 30
0.0
 10
-18.6783943619
 20
122.4079776211
 30
0.0
  0
SPLINE
  5
4FF
100
AcDbEntity
  8
0
100
AcDbSpline
 62
7
  6
CONTINUOUS
 70
0
 71
3
 72
14
 73
10
 74
0
 42
0.0000001
 43
0.0000001
 44
0.0000000001
 40
0.0
 40
0.0
 40
0.0
 40
0.0
 40
0.1239381064
 40
0.2358141886
 40
0.3437429448
 40
0.4588607953
 40
0.5868786808
 40
0.7255277839
 40
1.0
 40
1.0
 40
1.0
 40
1.0
 10
-18.6783943619
 20
122.4079776211
 30
0.0
 10
-18.6783943619
 20
122.6047691952
 30
0.0
 10
-18.7405930025
 20
122.9850475249
 30
0.0
 10
-19.0613565333
 20
123.4533943362
 30
0.0
 10
-19.5658623759
 20
123.6902976798
 30
0.0
 10
-20.1416548148
 20
123.6491322558
 30
0.0
 10
-20.6927758804
 20
123.3653817837
 30
0.0
 10
-21.2988831437
 20
122.7453226664
 30
0.0
 10
-21.5412883572
 20
122.07637604
 30
0.0
 10
-21.5412883572
 20
121.6405631893
 30
0.0
  0
SPLINE
  5
500
100
AcDbEntity
  8
0
100
AcDbSpline
 62
7
  6
CONTINUOUS
 70
0
 71
3
 72
9
 73
5
 74
0
 42
0.0000001
 43
0.0000001
 44
0.0000000001
 40
0.0
 40
0.0
 40
0.0
 40
0.0
 40
0.4907384971
 40
1.0
 40
1.0
 40
1.0
 40
1.0
 10
-34.1594286198
 20
118.2582015107
 30
0.0
 10
-34.1594286198
 20
120.6997677777
 30
0.0
 10
-33.1186081246
 20
125.6964381162
 30
0.0
 10
-30.4859548656
 20
130.0412733319
 30
0.0
 10
-28.8209265758
 20
131.9510995083
 30
0.0
  0
SPLINE
  5
501
100
AcDbEntity
  8
0
100
AcDbSpline
 62
7
  6
CONTINUOUS
 70
0
 71
3
 72
11
 73
7
 74
0
 42
0.0000001
 43
0.0000001
 44
0.0000000001
 40
0.0
 40
0.0
 40
0.0
 40
0.0
 40
0.2717749833
 40
0.5268699245
 40
0.7676347946
 40
1.0
 40
1.0
 40
1.0
 40
1.0
 10
-34.7224441592
 20
118.5833888301
 30
0.0
 10
-34.7224441592
 20
117.4211927007
 30
0.0
 10
-34.4964839029
 20
115.1585392384
 30
0.0
 10
-33.4142539105
 20
112.0242680245
 30
0.0
 10
-31.6407807832
 20
109.416492822
 30
0.0
 10
-30.035832625
 20
108.1255372232
 30
0.0
 10
-29.175351754
 20
107.628599016
 30
0.0
  0
SPLINE
  5
502
100
AcDbEntity
  8
0
100
AcDbSpline
 62
7
  6
CONTINUOUS
 70
0
 71
3
 72
15
 73
11
 74
0
 42
0.0000001
 43
0.0000001
 44
0.0000000001
 40
0.0
 40
0.0
 40
0.0
 40
0.0
 40
0.2631990618
 40
0.4000304714
 40
0.5344310714
 40
0.6627604017
 40
0.7827204069
 40
0.8941673278
 40
0.9475707063
 40
1.0
 40
1.0
 40
1.0
 40
1.0
 10
-4.9703770199
 20
126.5585935478
 30
0.0
 10
-4.9703770199
 20
123.2835002507
 30
0.0
 10
-6.2302135527
 20
118.2526687029
 30
0.0
 10
-9.6774487908
 20
112.5381191515
 30
0.0
 10
-13.0791659468
 20
108.8565941004
 30
0.0
 10
-17.0275739592
 20
106.1207086787
 30
0.0
 10
-21.26259098
 20
104.5215126809
 30
0.0
 10
-24.8603978974
 20
104.257542485
 30
0.0
 10
-27.5322849249
 20
104.7389913296
 30
0.0
 10
-28.7764783753
 20
105.1949434972
 30
0.0
 10
-29.3665684459
 20
105.4731849042
 30
0.0
  0
ELLIPSE
  5
503
100
AcDbEntity
  8
0
100
AcDbEllipse
 62
7
  6
CONTINUOUS
 10
-88.4810479593
 20
406.8061652849
 30
0.0
 11
-80.4292841247
 21
145.5921720887
 31
0.0
 40
0.1999732484
 41
-3.0024680348
 42
-2.9670091357
  0
ELLIPSE
  5
504
100
AcDbEntity
  8
0
100
AcDbEllipse
 62
7
  6
CONTINUOUS
 10
-88.4810479593
 20
406.8061652849
 30
0.0
 11
-80.4292841247
 21
145.5921720887
 31
0.0
 40
0.1999732484
 41
-3.4151597063
 42
-3.3797008072
  0
ELLIPSE
  5
505
100
AcDbEntity
  8
0
100
AcDbEllipse
 62
7
  6
CONTINUOUS
 10
92.2140905419
 20
164.8546421959
 30
0.0
 11
-1036.9509071212
 21
1342.9503047008
 31
0.0
 40
0.0124762707
 41
-1.4699910329
 42
-1.4697009469
  0
ELLIPSE
  5
506
100
AcDbEntity
  8
0
100
AcDbEllipse
 62
7
  6
CONTINUOUS
 10
3.2654845955
 20
283.9571862039
 30
0.0
 11
39.4042339585
 21
19.0108491732
 31
0.0
 40
0.3566190548
 41
-0.8989957936
 42
-0.7685321638
  0
ELLIPSE
  5
507
100
AcDbEntity
  8
0
100
AcDbEllipse
 62
7
  6
CONTINUOUS
 10
-56.2719016649
 20
230.2008711734
 30
0.0
 11
4.5977905297
 21
9.1412482997
 31
0.0
 40
0.7512579716
 41
0.5899658367
 42
2.1607621635
  0
ELLIPSE
  5
508
100
AcDbEntity
  8
0
100
AcDbEllipse
 62
7
  6
CONTINUOUS
 10
14.5571271755
 20
248.612551301
 30
0.0
 11
4.5977905297
 21
9.1412482997
 31
0.0
 40
0.7512579716
 41
0.0951641008
 42
0.158262352
  0
ELLIPSE
  5
509
100
AcDbEntity
  8
0
100
AcDbEllipse
 62
7
  6
CONTINUOUS
 10
-54.8643628163
 20
230.003740293
 30
0.0
 11
4.5977905297
 21
9.1412482997
 31
0.0
 40
0.7512579716
 41
0.5899658367
 42
2.1607621635
  0
ELLIPSE
  5
50A
100
AcDbEntity
  8
0
100
AcDbEllipse
 62
7
  6
CONTINUOUS
 10
-54.5390785858
 20
229.8051935713
 30
0.0
 11
4.5977905297
 21
9.1412482997
 31
0.0
 40
0.7512579716
 41
0.5899658368
 42
2.1607621635
  0
ENDSEC
  0
SECTION
  2
OBJECTS
  0
DICTIONARY
  5
C
100
AcDbDictionary
280
0
281
1
  3
ACAD_GROUP
350
D
  3
ACAD_MLINESTYLE
350
17
  3
ACAD_LAYOUT
350
1A
  3
ACAD_PLOTSETTINGS
350
19
  3
ACAD_PLOTSTYLENAME
350
E
  0
DICTIONARY
  5
D
102
{ACAD_REACTORS
330
C
102
}
100
AcDbDictionary
280
0
281
1
  0
ACDBDICTIONARYWDFLT
  5
E
102
{ACAD_REACTORS
330
C
102
}
100
AcDbDictionary
281
1
  3
Normal
350
F
100
AcDbDictionaryWithDefault
340
F
  0
DICTIONARY
  5
17
102
{ACAD_REACTORS
330
C
102
}
100
AcDbDictionary
280
0
281
1
  3
Standard
350
18
  0
DICTIONARY
  5
19
102
{ACAD_REACTORS
330
C
102
}
100
AcDbDictionary
281
1
  0
DICTIONARY
  5
1A
102
{ACAD_REACTORS
330
C
102
}
100
AcDbDictionary
281
1
  3
Model
350
50B
  3
Layout1
350
50C
  0
ACDBPLACEHOLDER
  5
F
102
{ACAD_REACTORS
330
E
102
}
  0
MLINESTYLE
  5
18
102
{ACAD_REACTORS
330
17
102
}
100
AcDbMlineStyle
  2
STANDARD
 70
0
  3

 62
256
 51
90.0
 52
90.0
 71
2
 49
0.5
 62
256
  6
BYLAYER
 49
-0.5
 62
256
  6
BYLAYER
  0
LAYOUT
  5
50B
102
{ACAD_REACTORS
330
1A
102
}
100
AcDbPlotSettings
  1

  2
none_device
  4
ANSI_C_(22.00_x_17.00_Inches)
  6

 40
0.0
 41
0.0
 42
0.0
 43
0.0
 44
558.8
 45
431.8
 46
0.0
 47
0.0
 48
0.0
 49
0.0
140
0.0
141
0.0
142
1.0
143
1.0
 70
1024
 72
1
 73
0
 74
0
  7

 75
0
147
1.0
148
0.0
149
0.0
100
AcDbLayout
  1
Model
 70
0
 71
0
 10
0.0
 20
0.0
 11
558.8
 21
431.8
 12
0.0
 22
0.0
 32
0.0
 14
0.0
 24
0.0
 34
0.0
 15
0.0
 25
0.0
 35
0.0
146
0.0
 13
0.0
 23
0.0
 33
0.0
 16
1.0
 26
0.0
 36
0.0
 17
0.0
 27
1.0
 37
0.0
 76
0
330
216
345
0
346
0
  0
LAYOUT
  5
50C
102
{ACAD_REACTORS
330
1A
102
}
100
AcDbPlotSettings
  1

  2
none_device
  4
ANSI_C_(22.00_x_17.00_Inches)
  6

 40
0.0
 41
0.0
 42
0.0
 43
0.0
 44
558.8
 45
431.8
 46
0.0
 47
0.0
 48
0.0
 49
0.0
140
0.0
141
0.0
142
1.0
143
1.0
 70
0
 72
1
 73
0
 74
0
  7

 75
0
147
1.0
148
0.0
149
0.0
100
AcDbLayout
  1
Layout1
 70
0
 71
1
 10
0.0
 20
0.0
 11
558.8
 21
431.8
 12
0.0
 22
0.0
 32
0.0
 14
0.0
 24
0.0
 34
0.0
 15
0.0
 25
0.0
 35
0.0
146
0.0
 13
0.0
 23
0.0
 33
0.0
 16
1.0
 26
0.0
 36
0.0
 17
0.0
 27
1.0
 37
0.0
 76
0
330
217
345
0
346
0
  0
ENDSEC
  0
EOF
