999
DXF file: Y:\3D PRATIKA-KAEDRA_OLGA\TRAVAIL_PHASE_10\CAD3D\81182_3D-Simplified\81182_3D-isometric.dxf
999
Pro/ENGINEER 2018260 by Parametric Technology Corporation
  0
SECTION
  2
HEADER
  9
$ACADVER
  1
AC1027
  9
$DWGCODEPAGE
  3
ANSI_1252
  9
$EXTMAX
 10
558.8
 20
431.8
 30
0.0
  9
$EXTMIN
 10
0.0
 20
0.0
 30
0.0
  9
$LIMMIN
 10
0.0
 20
0.0
  9
$LIMMAX
 10
558.8
 20
431.8
  9
$VIEWCTR
 10
279.4
 20
215.9
  9
$VIEWSIZE
 40
431.8
  9
$CLAYER
  8
0
  9
$LTSCALE
 40
30.734
  9
$CELTYPE
  6
BYLAYER
  9
$DIMSCALE
 40
1.0
  9
$DIMASZ
 40
0.1875
  9
$DIMEXO
 40
0.0625
  9
$DIMDLI
 40
21.2344
  9
$DIMEXE
 40
0.125
  9
$DIMCEN
 40
5.0292
  9
$DIMLFAC
 40
1.0
  9
$DIMBLK
  1
_CLOSED
  9
$DIMALT
 70
0
  9
$DIMALTF
 40
0.0393700787
  9
$DIMTXT
 40
0.15625
  9
$DIMTOL
 70
0
  9
$DIMLIM
 70
0
  9
$DIMTFAC
 40
1.0
  9
$DIMGAP
 40
0.625
  9
$DIMDSEP
 70
46
  9
$AUNITS
 70
0
  9
$PDMODE
 70
3
  9
$PDSIZE
 40
0.3125
  9
$HANDSEED
  5
50C
  9
$TILEMODE
 70
1
  9
$MEASUREMENT
 70
1
  9
$INSUNITS
 70
4
  0
ENDSEC
  0
SECTION
  2
CLASSES
  0
CLASS
  1
ACDBDICTIONARYWDFLT
  2
AcDbDictionaryWithDefault
  3
AutoCAD 2000
 90
0
 91
1
280
0
281
0
  0
CLASS
  1
ACDBPLACEHOLDER
  2
AcDbPlaceHolder
  3
AutoCAD 2000
 90
0
 91
1
280
0
281
0
  0
CLASS
  1
LAYOUT
  2
AcDbLayout
  3
AutoCAD 2000
 90
0
 91
0
280
0
281
0
  0
ENDSEC
  0
SECTION
  2
TABLES
  0
TABLE
  2
VPORT
  5
8
100
AcDbSymbolTable
 70
2
  0
VPORT
  5
1F4
100
AcDbSymbolTableRecord
100
AcDbViewportTableRecord
  2
*ACTIVE
 70
0
 10
0.0
 20
0.0
 11
1.0
 21
1.0
 12
279.4
 22
215.9
 13
0.0
 23
0.0
 14
1.0
 24
1.0
 15
0.0
 25
0.0
 16
0.0
 26
0.0
 36
1.0
 17
0.0
 27
0.0
 37
0.0
 40
431.8
 41
1.2941176471
 42
50.0
 43
0.0
 44
0.0
 50
0.0
 51
0.0
 71
0
 72
100
 73
1
 74
1
 75
0
 76
0
 77
0
 78
0
  0
ENDTAB
  0
TABLE
  2
LTYPE
  5
5
100
AcDbSymbolTable
 70
6
  0
LTYPE
  5
14
100
AcDbSymbolTableRecord
100
AcDbLinetypeTableRecord
  2
BYBLOCK
 70
0
  3

 72
65
 73
0
 40
0.0
  0
LTYPE
  5
15
100
AcDbSymbolTableRecord
100
AcDbLinetypeTableRecord
  2
BYLAYER
 70
0
  3

 72
65
 73
0
 40
0.0
  0
LTYPE
  5
16
100
AcDbSymbolTableRecord
100
AcDbLinetypeTableRecord
  2
CONTINUOUS
 70
64
  3
Solid line
 72
65
 73
0
 40
0.0
  0
LTYPE
  5
1F5
100
AcDbSymbolTableRecord
100
AcDbLinetypeTableRecord
  2
CENTER
 70
64
  3
____ _ ____ _ ____ _ ____ _ ____ _ ____ _ ____
 72
65
 73
4
 40
0.6
 49
0.375
 74
0
 49
-0.075
 74
0
 49
0.075
 74
0
 49
-0.075
 74
0
  0
LTYPE
  5
1F6
100
AcDbSymbolTableRecord
100
AcDbLinetypeTableRecord
  2
HIDDEN
 70
64
  3
- - - - - - - - - - - - - - - - - - - -
 72
65
 73
2
 40
0.2
 49
0.1
 74
0
 49
-0.1
 74
0
  0
LTYPE
  5
1F7
100
AcDbSymbolTableRecord
100
AcDbLinetypeTableRecord
  2
PHANTOM
 70
64
  3
_____ _ _ _____ _ _ _____ _ _ _____
 72
65
 73
6
 40
0.8
 49
0.45
 74
0
 49
-0.05
 74
0
 49
0.1
 74
0
 49
-0.05
 74
0
 49
0.1
 74
0
 49
-0.05
 74
0
  0
LTYPE
  5
1F8
100
AcDbSymbolTableRecord
100
AcDbLinetypeTableRecord
  2
DOT
 70
64
  3
. . . . . . . . . . . . . . . . . . . .
 72
65
 73
2
 40
0.2
 49
0.1
 74
0
 49
-0.1
 74
0
  0
LTYPE
  5
1F9
100
AcDbSymbolTableRecord
100
AcDbLinetypeTableRecord
  2
DASHED
 70
64
  3
- - - - - - - - - - - - - - - - - - - -
 72
65
 73
2
 40
0.2
 49
0.1
 74
0
 49
-0.1
 74
0
  0
ENDTAB
  0
TABLE
  2
LAYER
  5
2
100
AcDbSymbolTable
 70
36
  0
LAYER
  5
10
100
AcDbSymbolTableRecord
100
AcDbLayerTableRecord
  2
0
 70
0
 62
7
  6
CONTINUOUS
370
-3
390
F
  0
LAYER
  5
1FA
100
AcDbSymbolTableRecord
100
AcDbLayerTableRecord
  2
DEFAULT_1
 70
0
 62
7
  6
CENTER
370
-3
390
F
  0
LAYER
  5
1FB
100
AcDbSymbolTableRecord
100
AcDbLayerTableRecord
  2
DEFAULT_2
 70
0
 62
8
  6
HIDDEN
370
-3
390
F
  0
LAYER
  5
1FC
100
AcDbSymbolTableRecord
100
AcDbLayerTableRecord
  2
DEFAULT_3
 70
0
 62
7
  6
PHANTOM
370
-3
390
F
  0
LAYER
  5
1FD
100
AcDbSymbolTableRecord
100
AcDbLayerTableRecord
  2
01_ALL_DTM_PLN
 70
0
 62
7
  6
CONTINUOUS
370
-3
390
F
  0
LAYER
  5
1FE
100
AcDbSymbolTableRecord
100
AcDbLayerTableRecord
  2
01__ASM_ALL_DTM_PLN
 70
0
 62
7
  6
CONTINUOUS
370
-3
390
F
  0
LAYER
  5
1FF
100
AcDbSymbolTableRecord
100
AcDbLayerTableRecord
  2
01__ASM_DEF_DTM_PLN
 70
0
 62
7
  6
CONTINUOUS
370
-3
390
F
  0
LAYER
  5
200
100
AcDbSymbolTableRecord
100
AcDbLayerTableRecord
  2
01___PRT_ALL_DTM_PLN
 70
0
 62
7
  6
CONTINUOUS
370
-3
390
F
  0
LAYER
  5
201
100
AcDbSymbolTableRecord
100
AcDbLayerTableRecord
  2
01___PRT_DEF_DTM_PLN
 70
0
 62
7
  6
CONTINUOUS
370
-3
390
F
  0
LAYER
  5
202
100
AcDbSymbolTableRecord
100
AcDbLayerTableRecord
  2
02_ALL_AXES
 70
0
 62
7
  6
CONTINUOUS
370
-3
390
F
  0
LAYER
  5
203
100
AcDbSymbolTableRecord
100
AcDbLayerTableRecord
  2
02__ASM_ALL_AXES
 70
0
 62
7
  6
CONTINUOUS
370
-3
390
F
  0
LAYER
  5
204
100
AcDbSymbolTableRecord
100
AcDbLayerTableRecord
  2
02___PRT_ALL_AXES
 70
0
 62
7
  6
CONTINUOUS
370
-3
390
F
  0
LAYER
  5
205
100
AcDbSymbolTableRecord
100
AcDbLayerTableRecord
  2
03_ALL_CURVES
 70
0
 62
7
  6
CONTINUOUS
370
-3
390
F
  0
LAYER
  5
206
100
AcDbSymbolTableRecord
100
AcDbLayerTableRecord
  2
03__ASM_ALL_CURVES
 70
0
 62
7
  6
CONTINUOUS
370
-3
390
F
  0
LAYER
  5
207
100
AcDbSymbolTableRecord
100
AcDbLayerTableRecord
  2
03___PRT_ALL_CURVES
 70
0
 62
7
  6
CONTINUOUS
370
-3
390
F
  0
LAYER
  5
208
100
AcDbSymbolTableRecord
100
AcDbLayerTableRecord
  2
04_ALL_DTM_PNT
 70
0
 62
7
  6
CONTINUOUS
370
-3
390
F
  0
LAYER
  5
209
100
AcDbSymbolTableRecord
100
AcDbLayerTableRecord
  2
04__ASM_ALL_DTM_PNT
 70
0
 62
7
  6
CONTINUOUS
370
-3
390
F
  0
LAYER
  5
20A
100
AcDbSymbolTableRecord
100
AcDbLayerTableRecord
  2
04___PRT_ALL_DTM_PNT
 70
0
 62
7
  6
CONTINUOUS
370
-3
390
F
  0
LAYER
  5
20B
100
AcDbSymbolTableRecord
100
AcDbLayerTableRecord
  2
05_ALL_DTM_CSYS
 70
0
 62
7
  6
CONTINUOUS
370
-3
390
F
  0
LAYER
  5
20C
100
AcDbSymbolTableRecord
100
AcDbLayerTableRecord
  2
05__ASM_ALL_DTM_CSYS
 70
0
 62
7
  6
CONTINUOUS
370
-3
390
F
  0
LAYER
  5
20D
100
AcDbSymbolTableRecord
100
AcDbLayerTableRecord
  2
05__ASM_DEF_DTM_CSYS
 70
0
 62
7
  6
CONTINUOUS
370
-3
390
F
  0
LAYER
  5
20E
100
AcDbSymbolTableRecord
100
AcDbLayerTableRecord
  2
05___PRT_ALL_DTM_CSYS
 70
0
 62
7
  6
CONTINUOUS
370
-3
390
F
  0
LAYER
  5
20F
100
AcDbSymbolTableRecord
100
AcDbLayerTableRecord
  2
05___PRT_DEF_DTM_CSYS
 70
0
 62
7
  6
CONTINUOUS
370
-3
390
F
  0
LAYER
  5
210
100
AcDbSymbolTableRecord
100
AcDbLayerTableRecord
  2
06_ALL_SURFS
 70
0
 62
7
  6
CONTINUOUS
370
-3
390
F
  0
LAYER
  5
211
100
AcDbSymbolTableRecord
100
AcDbLayerTableRecord
  2
06__ASM_ALL_SURFS
 70
0
 62
7
  6
CONTINUOUS
370
-3
390
F
  0
LAYER
  5
212
100
AcDbSymbolTableRecord
100
AcDbLayerTableRecord
  2
06___PRT_ALL_SURFS
 70
0
 62
7
  6
CONTINUOUS
370
-3
390
F
  0
LAYER
  5
213
100
AcDbSymbolTableRecord
100
AcDbLayerTableRecord
  2
07__ASM_ALL_SKELETONS
 70
0
 62
7
  6
CONTINUOUS
370
-3
390
F
  0
ENDTAB
  0
TABLE
  2
STYLE
  5
3
100
AcDbSymbolTable
 70
1
  0
STYLE
  5
11
100
AcDbSymbolTableRecord
100
AcDbTextStyleTableRecord
  2
STANDARD
 70
0
 40
0.0
 41
0.8
 50
0.0
 71
0
 42
0.2
  3
txt
  4

  0
STYLE
  5
214
100
AcDbSymbolTableRecord
100
AcDbTextStyleTableRecord
  2
TEXTSTYLE_1
 70
0
 40
0.0
 41
0.8
 50
0.0
 71
0
 42
0.2
  3
gdt
  4

  0
ENDTAB
  0
TABLE
  2
VIEW
  5
6
100
AcDbSymbolTable
 70
0
  0
ENDTAB
  0
TABLE
  2
UCS
  5
7
100
AcDbSymbolTable
 70
0
  0
ENDTAB
  0
TABLE
  2
APPID
  5
9
100
AcDbSymbolTable
 70
1
  0
APPID
  5
215
100
AcDbSymbolTableRecord
100
AcDbRegAppTableRecord
  2
ACAD
 70
0
  0
ENDTAB
  0
TABLE
  2
BLOCK_RECORD
  5
1
100
AcDbSymbolTable
 70
0
  0
BLOCK_RECORD
  5
216
100
AcDbSymbolTableRecord
100
AcDbBlockTableRecord
  2
*Model_Space
  0
BLOCK_RECORD
  5
217
100
AcDbSymbolTableRecord
100
AcDbBlockTableRecord
  2
*Paper_Space
  0
BLOCK_RECORD
  5
218
100
AcDbSymbolTableRecord
100
AcDbBlockTableRecord
  2
_CLOSED
  0
ENDTAB
  0
TABLE
  2
DIMSTYLE
  5
A
100
AcDbSymbolTable
 70
1
100
AcDbDimStyleTable
 71
0
  0
DIMSTYLE
105
219
100
AcDbSymbolTableRecord
100
AcDbDimStyleTableRecord
  2
STANDARD
 70
0
  3

  4

 40
1.0
 41
0.1875
 42
0.0625
 43
0.38
 44
0.125
 45
0.0
 46
0.0
 47
0.01
 48
0.01
140
0.15625
141
0.09
142
0.0
143
25.4
144
1.0
145
0.0
146
1.0
147
0.625
 71
0.0
 72
0.0
 73
1
 74
1
 75
0
 76
0
 77
0
 78
8
 79
2
170
0
171
1
172
0
173
0
174
0
175
0
176
0
177
0
178
0
270
2
179
2
271
2
272
2
273
2
274
2
275
0
280
0
281
0
282
0
283
1
284
8
285
0
286
0
287
3
288
0
340
11
278
46
341
218
342
218
343
218
344
218
  0
ENDTAB
  0
ENDSEC
  0
SECTION
  2
BLOCKS
  0
BLOCK
  5
20
100
AcDbEntity
  8
0
100
AcDbBlockBegin
  2
*Model_Space
 70
0
 10
0.0
 20
0.0
 30
0.0
  3
*Model_Space
  1

  0
ENDBLK
  5
21
100
AcDbEntity
  8
0
100
AcDbBlockEnd
  0
BLOCK
  5
1C
100
AcDbEntity
  8
0
100
AcDbBlockBegin
  2
*Paper_Space
 70
0
 10
0.0
 20
0.0
 30
0.0
  3
*Paper_Space
  1

  0
ENDBLK
  5
1D
100
AcDbEntity
  8
0
100
AcDbBlockEnd
  0
BLOCK
  5
21A
100
AcDbEntity
  8
0
100
AcDbBlockBegin
  2
_CLOSED
 70
64
 10
0.0
 20
0.0
  3
_CLOSED
  1

  0
LINE
  5
21B
100
AcDbEntity
  8
0
  6
BYBLOCK
 62
0
100
AcDbLine
 10
0.0
 20
0.0
 11
-1.0
 21
0.1666666667
  0
LINE
  5
21C
100
AcDbEntity
  8
0
  6
BYBLOCK
 62
0
100
AcDbLine
 10
-1.0
 20
0.1666666667
 11
-1.0
 21
-0.1666666667
  0
LINE
  5
21D
100
AcDbEntity
  8
0
  6
BYBLOCK
 62
0
100
AcDbLine
 10
-1.0
 20
-0.1666666667
 11
0.0
 21
0.0
  0
LINE
  5
21E
100
AcDbEntity
  8
0
  6
BYBLOCK
 62
0
100
AcDbLine
 10
-1.0
 20
0.0
 11
0.0
 21
0.0
  0
ENDBLK
  5
21F
100
AcDbEntity
  8
0
  6
BYBLOCK
 62
0
100
AcDbBlockEnd
  0
ENDSEC
  0
SECTION
  2
ENTITIES
  0
LINE
  5
220
100
AcDbEntity
  8
0
100
AcDbLine
 62
7
  6
CONTINUOUS
 10
-59.5612000085
 20
83.0562336512
 11
-61.6273157821
 21
82.5023999903
  0
LINE
  5
221
100
AcDbEntity
  8
0
100
AcDbLine
 62
7
  6
CONTINUOUS
 10
22.2569846247
 20
104.988046625
 11
24.3231003983
 21
105.541880286
  0
LINE
  5
222
100
AcDbEntity
  8
0
100
AcDbLine
 62
7
  6
CONTINUOUS
 10
-59.4361256472
 20
83.3278138803
 11
21.975476855
 21
105.1506402847
  0
LINE
  5
223
100
AcDbEntity
  8
0
100
AcDbLine
 62
7
  6
CONTINUOUS
 10
-62.3401237062
 20
83.2635413613
 11
-62.7533468609
 21
83.1527746291
  0
LINE
  5
224
100
AcDbEntity
  8
0
100
AcDbLine
 62
7
  6
CONTINUOUS
 10
-148.9385008539
 20
132.9317189698
 11
-62.7533468609
 21
83.1527746291
  0
LINE
  5
225
100
AcDbEntity
  8
0
100
AcDbLine
 62
7
  6
CONTINUOUS
 10
-62.3401237062
 20
83.2635413613
 11
-61.6273157821
 21
82.8518367423
  0
LINE
  5
226
100
AcDbEntity
  8
0
100
AcDbLine
 62
7
  6
CONTINUOUS
 10
-40.5580095144
 20
128.2512406293
 11
17.2080238208
 21
143.7357425774
  0
LINE
  5
227
100
AcDbEntity
  8
0
100
AcDbLine
 62
7
  6
CONTINUOUS
 10
40.3457752514
 20
149.9379437053
 11
45.3924066659
 21
151.290720925
  0
LINE
  5
228
100
AcDbEntity
  8
0
100
AcDbLine
 62
7
  6
CONTINUOUS
 10
41.7309865343
 20
150.3342440056
 11
40.3884447241
 21
149.9743683126
  0
LINE
  5
229
100
AcDbEntity
  8
0
100
AcDbLine
 62
7
  6
CONTINUOUS
 10
17.2044232138
 20
143.7597642362
 11
-27.6905034575
 21
131.7254329975
  0
LINE
  5
22A
100
AcDbEntity
  8
0
100
AcDbLine
 62
7
  6
CONTINUOUS
 10
-32.4829040034
 20
131.9326687344
 11
-32.5121251366
 21
131.9248358495
  0
LINE
  5
22B
100
AcDbEntity
  8
0
100
AcDbLine
 62
7
  6
CONTINUOUS
 10
-150.2401535332
 20
195.2693044391
 11
-150.2401535332
 21
134.5932199527
  0
LINE
  5
22C
100
AcDbEntity
  8
0
100
AcDbLine
 62
7
  6
CONTINUOUS
 10
-150.2401535332
 20
197.107973666
 11
-150.2401535332
 21
202.6239813466
  0
LINE
  5
22D
100
AcDbEntity
  8
0
100
AcDbLine
 62
7
  6
CONTINUOUS
 10
-149.5454226088
 20
195.2174775116
 11
-149.5454226088
 21
195.8993343622
  0
LINE
  5
22E
100
AcDbEntity
  8
0
100
AcDbLine
 62
7
  6
CONTINUOUS
 10
-148.9385008539
 20
200.9624803637
 11
-148.9385008538
 21
195.4464726831
  0
LINE
  5
22F
100
AcDbEntity
  8
0
100
AcDbLine
 62
7
  6
CONTINUOUS
 10
-148.9385008539
 20
193.6078034563
 11
-148.9385008539
 21
132.9317189698
  0
LINE
  5
230
100
AcDbEntity
  8
0
100
AcDbLine
 62
7
  6
CONTINUOUS
 10
-148.2437699295
 20
195.0452090035
 11
-148.2437699295
 21
193.5559765288
  0
LINE
  5
231
100
AcDbEntity
  8
0
100
AcDbLine
 62
7
  6
CONTINUOUS
 10
-135.9593264431
 20
200.6143166362
 11
-135.9822739812
 21
201.163423628
  0
LINE
  5
232
100
AcDbEntity
  8
0
100
AcDbLine
 62
7
  6
CONTINUOUS
 10
-135.1558276718
 20
201.3849570924
 11
-135.123098027
 21
200.6017760518
  0
LINE
  5
233
100
AcDbEntity
  8
0
100
AcDbLine
 62
7
  6
CONTINUOUS
 10
-138.7892361357
 20
198.5779731248
 11
-138.7892361357
 21
200.071829754
  0
LINE
  5
234
100
AcDbEntity
  8
0
100
AcDbLine
 62
7
  6
CONTINUOUS
 10
-135.0748615971
 20
215.5632662747
 11
-135.0748599778
 21
206.5831321968
  0
LINE
  5
235
100
AcDbEntity
  8
0
100
AcDbLine
 62
7
  6
CONTINUOUS
 10
-133.5701801691
 20
208.5122378403
 11
-133.9917313144
 21
194.9708027338
  0
LINE
  5
236
100
AcDbEntity
  8
0
100
AcDbLine
 62
7
  6
CONTINUOUS
 10
-134.6378405846
 20
200.1133791573
 11
-134.5961982901
 21
201.0617255548
  0
LINE
  5
237
100
AcDbEntity
  8
0
100
AcDbLine
 62
7
  6
CONTINUOUS
 10
-133.7934973039
 20
201.3383314528
 11
-133.8789479365
 21
201.1267579657
  0
LINE
  5
238
100
AcDbEntity
  8
0
100
AcDbLine
 62
7
  6
CONTINUOUS
 10
-7.4522791634
 20
153.6826851289
 11
2.644097427
 21
156.3890742291
  0
LINE
  5
239
100
AcDbEntity
  8
0
100
AcDbLine
 62
7
  6
CONTINUOUS
 10
-62.3401237062
 20
143.9396258477
 11
-62.7533468609
 21
143.8288591155
  0
LINE
  5
23A
100
AcDbEntity
  8
0
100
AcDbLine
 62
7
  6
CONTINUOUS
 10
-61.9526000126
 20
145.2050318341
 11
-61.6273157821
 21
145.2922260555
  0
LINE
  5
23B
100
AcDbEntity
  8
0
100
AcDbLine
 62
7
  6
CONTINUOUS
 10
-24.4048601531
 20
142.63243308
 11
-25.7343976227
 21
142.7607204626
  0
LINE
  5
23C
100
AcDbEntity
  8
0
100
AcDbLine
 62
7
  6
CONTINUOUS
 10
-33.0559563867
 20
132.0010013729
 11
-32.5121251366
 21
131.9248358495
  0
LINE
  5
23D
100
AcDbEntity
  8
0
100
AcDbLine
 62
7
  6
CONTINUOUS
 10
-29.9658558452
 20
131.5801470829
 11
-35.4041683466
 21
132.3418023171
  0
LINE
  5
23E
100
AcDbEntity
  8
0
100
AcDbLine
 62
7
  6
CONTINUOUS
 10
-40.8013509848
 20
138.4775342364
 11
-35.4678270873
 21
137.7305550233
  0
LINE
  5
23F
100
AcDbEntity
  8
0
100
AcDbLine
 62
7
  6
CONTINUOUS
 10
-26.8863016264
 20
139.7285404172
 11
-26.0026125905
 21
139.604776588
  0
LINE
  5
240
100
AcDbEntity
  8
0
100
AcDbLine
 62
7
  6
CONTINUOUS
 10
-125.7851035773
 20
220.8158388884
 11
-125.7851035773
 21
223.9183692706
  0
LWPOLYLINE
  5
241
100
AcDbEntity
  8
0
100
AcDbPolyline
 62
7
  6
CONTINUOUS
 90
4
 70
0
 10
-122.8710718232
 20
227.4557286474
 10
-126.3559573845
 20
226.2655448752
 10
-130.0576090978
 20
224.4081240129
 10
-132.8028259615
 20
222.58549011
  0
LINE
  5
242
100
AcDbEntity
  8
0
100
AcDbLine
 62
7
  6
CONTINUOUS
 10
20.4814955709
 20
151.1373935512
 11
16.1259150985
 21
151.3942841468
  0
LINE
  5
243
100
AcDbEntity
  8
0
100
AcDbLine
 62
7
  6
CONTINUOUS
 10
-25.4815526492
 20
143.6818203428
 11
-24.5830329817
 21
143.5951219692
  0
LINE
  5
244
100
AcDbEntity
  8
0
100
AcDbLine
 62
7
  6
CONTINUOUS
 10
-28.3911805944
 20
141.707208859
 11
-28.2688553087
 21
141.6900767626
  0
LINE
  5
245
100
AcDbEntity
  8
0
100
AcDbLine
 62
7
  6
CONTINUOUS
 10
-28.4470281374
 20
142.6527656517
 11
-28.569353423
 21
142.6698977482
  0
LINE
  5
246
100
AcDbEntity
  8
0
100
AcDbLine
 62
7
  6
CONTINUOUS
 10
-22.5872977145
 20
143.4891287228
 11
-22.7096230002
 21
143.5062608192
  0
LINE
  5
247
100
AcDbEntity
  8
0
100
AcDbLine
 62
7
  6
CONTINUOUS
 10
-25.9154022972
 20
146.6608816157
 11
-25.0317132614
 21
146.5371177865
  0
LINE
  5
248
100
AcDbEntity
  8
0
100
AcDbLine
 62
7
  6
CONTINUOUS
 10
17.3882396088
 20
142.5334225018
 11
19.2916489843
 21
142.2668431698
  0
LINE
  5
249
100
AcDbEntity
  8
0
100
AcDbLine
 62
7
  6
CONTINUOUS
 10
3.564564082
 20
148.7591596995
 11
16.7314718171
 21
146.9150868934
  0
LINE
  5
24A
100
AcDbEntity
  8
0
100
AcDbLine
 62
7
  6
CONTINUOUS
 10
24.5020672121
 20
145.8267870477
 11
25.8616453374
 21
145.6363732392
  0
LINE
  5
24B
100
AcDbEntity
  8
0
100
AcDbLine
 62
7
  6
CONTINUOUS
 10
-26.2958865244
 20
142.5829263115
 11
-25.2199902351
 21
142.3743240408
  0
LINE
  5
24C
100
AcDbEntity
  8
0
100
AcDbLine
 62
7
  6
CONTINUOUS
 10
-62.7533468609
 20
143.8288591155
 11
-148.9385008539
 21
193.6078034563
  0
LINE
  5
24D
100
AcDbEntity
  8
0
100
AcDbLine
 62
7
  6
CONTINUOUS
 10
-148.2437699295
 20
193.5559765288
 11
-62.3401237062
 21
143.9396258477
  0
LINE
  5
24E
100
AcDbEntity
  8
0
100
AcDbLine
 62
7
  6
CONTINUOUS
 10
-61.9526000126
 20
145.2050318341
 11
-148.9385008538
 21
195.4464726831
  0
LINE
  5
24F
100
AcDbEntity
  8
0
100
AcDbLine
 62
7
  6
CONTINUOUS
 10
-75.3280811868
 20
164.0374570688
 11
-78.8162084507
 21
163.1024454314
  0
LINE
  5
250
100
AcDbEntity
  8
0
100
AcDbLine
 62
7
  6
CONTINUOUS
 10
0.8674130321
 20
162.7875799349
 11
15.7619386155
 21
160.8129444827
  0
LINE
  5
251
100
AcDbEntity
  8
0
100
AcDbLine
 62
7
  6
CONTINUOUS
 10
-7.4522791634
 20
153.6826851289
 11
-9.5384011997
 21
153.9748500528
  0
LINE
  5
252
100
AcDbEntity
  8
0
100
AcDbLine
 62
7
  6
CONTINUOUS
 10
16.0042290407
 20
151.4113791376
 11
-4.9679865257
 21
154.348613391
  0
LINE
  5
253
100
AcDbEntity
  8
0
100
AcDbLine
 62
7
  6
CONTINUOUS
 10
11.1379155693
 20
155.8508276478
 11
22.5694479779
 21
154.2498004005
  0
LINE
  5
254
100
AcDbEntity
  8
0
100
AcDbLine
 62
7
  6
CONTINUOUS
 10
6.5553919313
 20
158.1047637371
 11
31.1034761179
 21
154.6667162165
  0
LINE
  5
255
100
AcDbEntity
  8
0
100
AcDbLine
 62
7
  6
CONTINUOUS
 10
30.8339110722
 20
156.4651350443
 11
3.5586406238
 21
160.2851348139
  0
LINE
  5
256
100
AcDbEntity
  8
0
100
AcDbLine
 62
7
  6
CONTINUOUS
 10
16.2017460006
 20
160.7499328399
 11
15.7619386155
 21
160.8129444827
  0
LINE
  5
257
100
AcDbEntity
  8
0
100
AcDbLine
 62
7
  6
CONTINUOUS
 10
-63.3601388612
 20
151.5340078132
 11
-148.9385008539
 21
200.9624803637
  0
LINE
  5
258
100
AcDbEntity
  8
0
100
AcDbLine
 62
7
  6
CONTINUOUS
 10
-63.3601388612
 20
152.4281229217
 11
-65.6809046598
 21
153.7685541464
  0
LINE
  5
259
100
AcDbEntity
  8
0
100
AcDbLine
 62
7
  6
CONTINUOUS
 10
-78.8162084507
 20
163.1024454314
 11
-133.9917313144
 21
194.9708027338
  0
LINE
  5
25A
100
AcDbEntity
  8
0
100
AcDbLine
 62
7
  6
CONTINUOUS
 10
21.975476855
 20
105.1506402847
 11
22.2569846247
 21
104.988046625
  0
LINE
  5
25B
100
AcDbEntity
  8
0
100
AcDbLine
 62
7
  6
CONTINUOUS
 10
-133.9907169201
 20
199.4644777525
 11
-133.8542940647
 21
199.3856824448
  0
LINE
  5
25C
100
AcDbEntity
  8
0
100
AcDbLine
 62
7
  6
CONTINUOUS
 10
-35.0918002377
 20
226.0622198532
 11
-36.6503536756
 21
225.6124974105
  0
LINE
  5
25D
100
AcDbEntity
  8
0
100
AcDbLine
 62
7
  6
CONTINUOUS
 10
-39.2413778219
 20
224.8648543204
 11
-40.7999312598
 21
224.4151318777
  0
LINE
  5
25E
100
AcDbEntity
  8
0
100
AcDbLine
 62
7
  6
CONTINUOUS
 10
-2.7778362864
 20
167.5240602689
 11
4.1489858383
 21
166.5988153912
  0
LINE
  5
25F
100
AcDbEntity
  8
0
100
AcDbLine
 62
7
  6
CONTINUOUS
 10
10.6833256708
 20
165.6777305703
 11
4.1481717076
 21
166.5930023979
  0
LINE
  5
260
100
AcDbEntity
  8
0
100
AcDbLine
 62
7
  6
CONTINUOUS
 10
8.4841966107
 20
166.962474685
 11
4.7170819519
 21
167.490072648
  0
LINE
  5
261
100
AcDbEntity
  8
0
100
AcDbLine
 62
7
  6
CONTINUOUS
 10
-133.6557502494
 20
205.763480773
 11
-135.0748599778
 21
206.5831321968
  0
LINE
  5
262
100
AcDbEntity
  8
0
100
AcDbLine
 62
7
  6
CONTINUOUS
 10
7.9811023266
 20
251.1087584832
 11
7.9053734852
 21
251.0698820766
  0
LINE
  5
263
100
AcDbEntity
  8
0
100
AcDbLine
 62
7
  6
CONTINUOUS
 10
-13.9930084203
 20
240.1849982772
 11
-13.4523135309
 21
240.4611707005
  0
LINE
  5
264
100
AcDbEntity
  8
0
100
AcDbLine
 62
7
  6
CONTINUOUS
 10
7.9811023266
 20
251.1087584832
 11
7.9050739869
 21
251.0733467875
  0
LINE
  5
265
100
AcDbEntity
  8
0
100
AcDbLine
 62
7
  6
CONTINUOUS
 10
47.7758197716
 20
226.5348342767
 11
38.4042782742
 21
224.0227411972
  0
LINE
  5
266
100
AcDbEntity
  8
0
100
AcDbLine
 62
7
  6
CONTINUOUS
 10
-75.3280810767
 20
223.0788088227
 11
-75.3280811868
 21
164.0374570688
  0
LINE
  5
267
100
AcDbEntity
  8
0
100
AcDbLine
 62
7
  6
CONTINUOUS
 10
-66.7232470892
 20
156.9539962401
 11
-66.7232470892
 21
158.4478528693
  0
LINE
  5
268
100
AcDbEntity
  8
0
100
AcDbLine
 62
7
  6
CONTINUOUS
 10
-78.8162084507
 20
163.1024454314
 11
-77.0488333658
 21
219.8756168579
  0
LINE
  5
269
100
AcDbEntity
  8
0
100
AcDbLine
 62
7
  6
CONTINUOUS
 10
-20.7891901595
 20
234.7985872694
 11
-13.9930084203
 21
240.1849982772
  0
LINE
  5
26A
100
AcDbEntity
  8
0
100
AcDbLine
 62
7
  6
CONTINUOUS
 10
19.0444206799
 20
229.830104151
 11
18.3455969364
 21
229.6427806152
  0
LINE
  5
26B
100
AcDbEntity
  8
0
100
AcDbLine
 62
7
  6
CONTINUOUS
 10
-5.5234196322
 20
231.7159685508
 11
12.4067630305
 21
236.522252319
  0
LINE
  5
26C
100
AcDbEntity
  8
0
100
AcDbLine
 62
7
  6
CONTINUOUS
 10
-63.814901118
 20
213.7099545053
 11
-63.3601388612
 21
213.8075711949
  0
LINE
  5
26D
100
AcDbEntity
  8
0
100
AcDbLine
 62
7
  6
CONTINUOUS
 10
-2.5839312564
 20
200.679963529
 11
-6.5071962699
 21
201.2156069942
  0
LINE
  5
26E
100
AcDbEntity
  8
0
100
AcDbLine
 62
7
  6
CONTINUOUS
 10
-8.1038162293
 20
194.443298993
 11
-4.306939336
 21
193.8908855952
  0
LINE
  5
26F
100
AcDbEntity
  8
0
100
AcDbLine
 62
7
  6
CONTINUOUS
 10
-63.5176554714
 20
231.3006678836
 11
-63.5176554714
 21
216.5484586349
  0
LINE
  5
270
100
AcDbEntity
  8
0
100
AcDbLine
 62
7
  6
CONTINUOUS
 10
-63.3601388612
 20
227.7260383251
 11
-63.3601388612
 21
151.5340078132
  0
LINE
  5
271
100
AcDbEntity
  8
0
100
AcDbLine
 62
7
  6
CONTINUOUS
 10
-62.7533468609
 20
143.8288591155
 11
-62.7533468609
 21
83.1527746291
  0
LINE
  5
272
100
AcDbEntity
  8
0
100
AcDbLine
 62
7
  6
CONTINUOUS
 10
-62.3401237062
 20
83.2635413613
 11
-62.3401237062
 21
143.9396258477
  0
LINE
  5
273
100
AcDbEntity
  8
0
100
AcDbLine
 62
7
  6
CONTINUOUS
 10
-61.9526000126
 20
145.2050318341
 11
-61.9526000126
 21
227.5289074447
  0
LINE
  5
274
100
AcDbEntity
  8
0
100
AcDbLine
 62
7
  6
CONTINUOUS
 10
-61.6273157821
 20
82.5023999903
 11
-61.6273157821
 21
227.330360723
  0
LINE
  5
275
100
AcDbEntity
  8
0
100
AcDbLine
 62
7
  6
CONTINUOUS
 10
-63.8149011866
 20
213.709954491
 11
-65.6809046597
 21
153.7685541464
  0
LINE
  5
276
100
AcDbEntity
  8
0
100
AcDbLine
 62
7
  6
CONTINUOUS
 10
8.096485073
 20
250.8700566819
 11
5.6181419543
 21
250.2041228957
  0
LINE
  5
277
100
AcDbEntity
  8
0
100
AcDbLine
 62
7
  6
CONTINUOUS
 10
17.2083594618
 20
242.0794929927
 11
14.1091858015
 21
241.2487425011
  0
LINE
  5
278
100
AcDbEntity
  8
0
100
AcDbLine
 62
7
  6
CONTINUOUS
 10
-6.1387487795
 20
235.8211726241
 11
-9.2379224398
 21
234.9904221326
  0
LINE
  5
279
100
AcDbEntity
  8
0
100
AcDbLine
 62
7
  6
CONTINUOUS
 10
-7.5380628601
 20
239.9292175898
 11
12.2966485661
 21
245.246020735
  0
LINE
  5
27A
100
AcDbEntity
  8
0
100
AcDbLine
 62
7
  6
CONTINUOUS
 10
-10.3531657122
 20
241.2920174363
 11
-13.4523393726
 21
240.4612669449
  0
LINE
  5
27B
100
AcDbEntity
  8
0
100
AcDbLine
 62
7
  6
CONTINUOUS
 10
10.9790846854
 20
247.0102441133
 11
12.9939425291
 21
247.5503378051
  0
LINE
  5
27C
100
AcDbEntity
  8
0
100
AcDbLine
 62
7
  6
CONTINUOUS
 10
-146.9627700789
 20
205.0628862422
 11
-135.0748602783
 21
208.2495056418
  0
LINE
  5
27D
100
AcDbEntity
  8
0
100
AcDbLine
 62
7
  6
CONTINUOUS
 10
-43.2824518968
 20
235.7480207812
 11
-13.2876900818
 21
243.7882811373
  0
LINE
  5
27E
100
AcDbEntity
  8
0
100
AcDbLine
 62
7
  6
CONTINUOUS
 10
8.9362984841
 20
249.7455431194
 11
26.1390380951
 21
254.3568317893
  0
LINE
  5
27F
100
AcDbEntity
  8
0
100
AcDbLine
 62
7
  6
CONTINUOUS
 10
22.8760505943
 20
254.8138249298
 11
8.1009804471
 21
250.8532863699
  0
LINE
  5
280
100
AcDbEntity
  8
0
100
AcDbLine
 62
7
  6
CONTINUOUS
 10
-20.7677009793
 20
243.1148780358
 11
-46.5454393976
 21
236.2050139217
  0
LINE
  5
281
100
AcDbEntity
  8
0
100
AcDbLine
 62
7
  6
CONTINUOUS
 10
-9.4425298078
 20
246.4637518252
 11
-8.2028603437
 21
246.7960520217
  0
LINE
  5
282
100
AcDbEntity
  8
0
100
AcDbLine
 62
7
  6
CONTINUOUS
 10
4.1938342977
 20
250.1190539875
 11
5.4335037619
 21
250.451354184
  0
LINE
  5
283
100
AcDbEntity
  8
0
100
AcDbLine
 62
7
  6
CONTINUOUS
 10
-12.6526743455
 20
246.0504201572
 11
-10.1733354172
 21
246.7150205503
  0
LINE
  5
284
100
AcDbEntity
  8
0
100
AcDbLine
 62
7
  6
CONTINUOUS
 10
5.2227139579
 20
250.8420159969
 11
7.1820370807
 21
251.3672233023
  0
LINE
  5
285
100
AcDbEntity
  8
0
100
AcDbLine
 62
7
  6
CONTINUOUS
 10
-9.2563681094
 20
246.2144805562
 11
-11.7382263532
 21
245.5532535367
  0
LINE
  5
286
100
AcDbEntity
  8
0
100
AcDbLine
 62
7
  6
CONTINUOUS
 10
41.650170813
 20
206.2099409388
 11
35.2725872272
 21
207.1617088495
  0
LINE
  5
287
100
AcDbEntity
  8
0
100
AcDbLine
 62
7
  6
CONTINUOUS
 10
-18.3288037259
 20
262.6996137621
 11
-20.0599761706
 21
257.637435016
  0
LINE
  5
288
100
AcDbEntity
  8
0
100
AcDbLine
 62
7
  6
CONTINUOUS
 10
-17.8246411006
 20
261.9985202604
 11
-17.8185383598
 21
262.0163663615
  0
LINE
  5
289
100
AcDbEntity
  8
0
100
AcDbLine
 62
7
  6
CONTINUOUS
 10
-48.7207643981
 20
236.5096760153
 11
-23.6051486841
 21
243.2420545084
  0
LINE
  5
28A
100
AcDbEntity
  8
0
100
AcDbLine
 62
7
  6
CONTINUOUS
 10
10.0185823895
 20
252.2550799708
 11
20.7007255937
 21
255.1184870234
  0
LINE
  5
28B
100
AcDbEntity
  8
0
100
AcDbLine
 62
7
  6
CONTINUOUS
 10
-48.2497927203
 20
236.9195973507
 11
-24.3509532673
 21
243.3258122958
  0
LINE
  5
28C
100
AcDbEntity
  8
0
100
AcDbLine
 62
7
  6
CONTINUOUS
 10
10.9816224007
 20
252.7969029208
 11
21.1716972718
 21
255.5284083589
  0
LINE
  5
28D
100
AcDbEntity
  8
0
100
AcDbLine
 62
7
  6
CONTINUOUS
 10
20.953118555
 20
256.9866689352
 11
15.6670231377
 21
255.5697020766
  0
LINE
  5
28E
100
AcDbEntity
  8
0
100
AcDbLine
 62
7
  6
CONTINUOUS
 10
-27.8988857909
 20
243.8916213304
 11
-48.4683714364
 21
238.3778579272
  0
LINE
  5
28F
100
AcDbEntity
  8
0
100
AcDbLine
 62
7
  6
CONTINUOUS
 10
-31.398347738
 20
244.9510536141
 11
-53.3628526881
 21
239.0633476379
  0
LINE
  5
290
100
AcDbEntity
  8
0
100
AcDbLine
 62
7
  6
CONTINUOUS
 10
-31.7491591109
 20
245.1427576453
 11
-53.6881369184
 21
239.2618943597
  0
LINE
  5
291
100
AcDbEntity
  8
0
100
AcDbLine
 62
7
  6
CONTINUOUS
 10
-55.0956757669
 20
239.4590252401
 11
-32.4544005764
 21
245.5281431897
  0
LINE
  5
292
100
AcDbEntity
  8
0
100
AcDbLine
 62
7
  6
CONTINUOUS
 10
-87.0881874515
 20
237.0173026206
 11
-122.4818947673
 21
227.5298248344
  0
LINE
  5
293
100
AcDbEntity
  8
0
100
AcDbLine
 62
7
  6
CONTINUOUS
 10
-122.8725027443
 20
227.4553455656
 11
-87.4774909118
 21
236.9431728958
  0
LINE
  5
294
100
AcDbEntity
  8
0
100
AcDbLine
 62
7
  6
CONTINUOUS
 10
-83.9991624523
 20
237.6272907868
 11
-87.0882175894
 21
237.0172967532
  0
LINE
  5
295
100
AcDbEntity
  8
0
100
AcDbLine
 62
7
  6
CONTINUOUS
 10
-122.8712047214
 20
227.4556938568
 11
-122.4818980049
 21
227.5298242103
  0
LINE
  5
296
100
AcDbEntity
  8
0
100
AcDbLine
 62
7
  6
CONTINUOUS
 10
-87.0881841953
 20
237.0173032493
 11
-87.4774909118
 21
236.9431728958
  0
LWPOLYLINE
  5
297
100
AcDbEntity
  8
0
100
AcDbPolyline
 62
7
  6
CONTINUOUS
 90
3
 70
0
 10
-83.9991624523
 20
237.6272907868
 10
-85.844906344
 20
237.3258728113
 10
-87.4774759502
 20
236.943174712
  0
LINE
  5
298
100
AcDbEntity
  8
0
100
AcDbLine
 62
7
  6
CONTINUOUS
 10
-62.7566127398
 20
231.40763505
 11
-63.5176554714
 21
231.3006678836
  0
LINE
  5
299
100
AcDbEntity
  8
0
100
AcDbLine
 62
7
  6
CONTINUOUS
 10
-87.0881874515
 20
237.0173026206
 11
-43.7361873323
 21
242.5039983954
  0
LINE
  5
29A
100
AcDbEntity
  8
0
100
AcDbLine
 62
7
  6
CONTINUOUS
 10
-42.4442364993
 20
242.8503128995
 11
-83.9987236654
 21
237.6273465553
  0
LINE
  5
29B
100
AcDbEntity
  8
0
100
AcDbLine
 62
7
  6
CONTINUOUS
 10
-61.7459474211
 20
233.7638084631
 11
-122.4818947673
 21
227.5298248344
  0
LINE
  5
29C
100
AcDbEntity
  8
0
100
AcDbLine
 62
7
  6
CONTINUOUS
 10
-36.7984178667
 20
225.2534730098
 11
-38.1285484937
 21
225.3851524486
  0
LINE
  5
29D
100
AcDbEntity
  8
0
100
AcDbLine
 62
7
  6
CONTINUOUS
 10
-37.8483618219
 20
226.3099635059
 11
-36.9579173221
 21
226.221811839
  0
LINE
  5
29E
100
AcDbEntity
  8
0
100
AcDbLine
 62
7
  6
CONTINUOUS
 10
33.9526248699
 20
211.6233128066
 11
31.0133546673
 21
212.0349681747
  0
LINE
  5
29F
100
AcDbEntity
  8
0
100
AcDbLine
 62
7
  6
CONTINUOUS
 10
-39.2724288912
 20
222.3633064136
 11
-38.3887398553
 21
222.2395425844
  0
LINE
  5
2A0
100
AcDbEntity
  8
0
100
AcDbLine
 62
7
  6
CONTINUOUS
 10
-61.6273157821
 20
227.330360723
 11
-55.2756430879
 21
226.4407861073
  0
LINE
  5
2A1
100
AcDbEntity
  8
0
100
AcDbLine
 62
7
  6
CONTINUOUS
 10
-40.7999312598
 20
224.4151318777
 11
-40.6776059741
 21
224.3979997813
  0
LINE
  5
2A2
100
AcDbEntity
  8
0
100
AcDbLine
 62
7
  6
CONTINUOUS
 10
-63.3601388612
 20
227.7260383251
 11
-61.9526000126
 21
227.5289074447
  0
LINE
  5
2A3
100
AcDbEntity
  8
0
100
AcDbLine
 62
7
  6
CONTINUOUS
 10
-48.7282692179
 20
226.1983633253
 11
-54.0448551049
 21
226.9429703091
  0
LINE
  5
2A4
100
AcDbEntity
  8
0
100
AcDbLine
 62
7
  6
CONTINUOUS
 10
-40.8371054295
 20
225.3663386104
 11
-40.9594307152
 21
225.3834707069
  0
LINE
  5
2A5
100
AcDbEntity
  8
0
100
AcDbLine
 62
7
  6
CONTINUOUS
 10
-34.969474952
 20
226.0450877568
 11
-35.0918002377
 21
226.0622198532
  0
LINE
  5
2A6
100
AcDbEntity
  8
0
100
AcDbLine
 62
7
  6
CONTINUOUS
 10
-11.0695579868
 20
223.2547074201
 11
-19.2301909122
 21
224.3976334253
  0
LINE
  5
2A7
100
AcDbEntity
  8
0
100
AcDbLine
 62
7
  6
CONTINUOUS
 10
-38.301529562
 20
229.2956476121
 11
-37.4178405262
 21
229.1718837829
  0
LINE
  5
2A8
100
AcDbEntity
  8
0
100
AcDbLine
 62
7
  6
CONTINUOUS
 10
24.4195450162
 20
219.4260281183
 11
9.1315183274
 21
221.6805310241
  0
LINE
  5
2A9
100
AcDbEntity
  8
0
100
AcDbLine
 62
7
  6
CONTINUOUS
 10
-38.6926635564
 20
225.2223763783
 11
-37.6173604244
 21
225.0171661637
  0
LINE
  5
2AA
100
AcDbEntity
  8
0
100
AcDbLine
 62
7
  6
CONTINUOUS
 10
-55.2756430879
 20
226.4407861073
 11
-40.5580095144
 21
128.2512406293
  0
LINE
  5
2AB
100
AcDbEntity
  8
0
100
AcDbLine
 62
7
  6
CONTINUOUS
 10
-40.7755314932
 20
138.3052780019
 11
-54.0359736238
 21
226.7730863039
  0
LINE
  5
2AC
100
AcDbEntity
  8
0
100
AcDbLine
 62
7
  6
CONTINUOUS
 10
-51.9912567187
 20
226.6553564658
 11
-38.7308145881
 21
138.1875481638
  0
LINE
  5
2AD
100
AcDbEntity
  8
0
100
AcDbLine
 62
7
  6
CONTINUOUS
 10
-35.4678270873
 20
137.7305550233
 11
-48.7282692179
 21
226.1983633253
  0
LINE
  5
2AE
100
AcDbEntity
  8
0
100
AcDbLine
 62
7
  6
CONTINUOUS
 10
-35.3243782804
 20
273.1377325551
 11
-35.3224495498
 21
273.1186295563
  0
LINE
  5
2AF
100
AcDbEntity
  8
0
100
AcDbLine
 62
7
  6
CONTINUOUS
 10
5.7422161291
 20
312.7168496979
 11
5.7070735251
 21
312.6140880623
  0
LINE
  5
2B0
100
AcDbEntity
  8
0
100
AcDbLine
 62
7
  6
CONTINUOUS
 10
-5.3476138734
 20
264.4390986221
 11
-5.7097901192
 21
263.3800472364
  0
LINE
  5
2B1
100
AcDbEntity
  8
0
100
AcDbLine
 62
7
  6
CONTINUOUS
 10
-4.2574187676
 20
265.4516427082
 11
-4.4995480377
 21
264.7436246038
  0
LINE
  5
2B2
100
AcDbEntity
  8
0
100
AcDbLine
 62
7
  6
CONTINUOUS
 10
-2.9486075309
 20
265.9861226193
 11
-2.942504447
 21
266.0039688462
  0
LINE
  5
2B3
100
AcDbEntity
  8
0
100
AcDbLine
 62
7
  6
CONTINUOUS
 10
-5.7097901192
 20
263.3800472364
 11
-15.705390579
 21
260.7006717306
  0
LINE
  5
2B4
100
AcDbEntity
  8
0
100
AcDbLine
 62
7
  6
CONTINUOUS
 10
-17.8246411006
 20
261.9985202604
 11
-17.7322397894
 21
262.0232889384
  0
LINE
  5
2B5
100
AcDbEntity
  8
0
100
AcDbLine
 62
7
  6
CONTINUOUS
 10
-3.0410088421
 20
265.9613539412
 11
-2.9486075309
 21
265.9861226193
  0
LINE
  5
2B6
100
AcDbEntity
  8
0
100
AcDbLine
 62
7
  6
CONTINUOUS
 10
-22.8716628804
 20
261.2776271251
 11
-20.4709947635
 21
261.9211393759
  0
LINE
  5
2B7
100
AcDbEntity
  8
0
100
AcDbLine
 62
7
  6
CONTINUOUS
 10
0.1736274291
 20
267.4550435425
 11
2.5742955461
 21
268.0985557933
  0
LINE
  5
2B8
100
AcDbEntity
  8
0
100
AcDbLine
 62
7
  6
CONTINUOUS
 10
28.4667671105
 20
242.1351672674
 11
26.8860321958
 21
242.2158033359
  0
LINE
  5
2B9
100
AcDbEntity
  8
0
100
AcDbLine
 62
7
  6
CONTINUOUS
 10
24.2581323541
 20
242.3498571295
 11
22.6773974394
 21
242.4304931981
  0
LINE
  5
2BA
100
AcDbEntity
  8
0
100
AcDbLine
 62
7
  6
CONTINUOUS
 10
25.4623991137
 20
239.2771473079
 11
25.2476259705
 21
239.2976193418
  0
LINE
  5
2BB
100
AcDbEntity
  8
0
100
AcDbLine
 62
7
  6
CONTINUOUS
 10
16.4480232714
 20
229.9085425632
 11
15.7964929163
 21
229.9917752821
  0
LINE
  5
2BC
100
AcDbEntity
  8
0
100
AcDbLine
 62
7
  6
CONTINUOUS
 10
-48.7207643981
 20
236.5096760153
 11
-43.2824518967
 21
235.7480207812
  0
LINE
  5
2BD
100
AcDbEntity
  8
0
100
AcDbLine
 62
7
  6
CONTINUOUS
 10
-53.3628526879
 20
239.063347638
 11
-48.4683714364
 21
238.3778579272
  0
LINE
  5
2BE
100
AcDbEntity
  8
0
100
AcDbLine
 62
7
  6
CONTINUOUS
 10
-55.0956757669
 20
239.4590252401
 11
-53.6881369184
 21
239.2618943597
  0
LINE
  5
2BF
100
AcDbEntity
  8
0
100
AcDbLine
 62
7
  6
CONTINUOUS
 10
3.9681632259
 20
231.6483754165
 11
15.7964929163
 21
229.9917752821
  0
LINE
  5
2C0
100
AcDbEntity
  8
0
100
AcDbLine
 62
7
  6
CONTINUOUS
 10
26.9167748463
 20
228.4423563076
 11
16.4480232812
 21
229.9085426335
  0
LINE
  5
2C1
100
AcDbEntity
  8
0
100
AcDbLine
 62
7
  6
CONTINUOUS
 10
-0.1730010339
 20
232.996965401
 11
3.2749001187
 21
232.5140744373
  0
LINE
  5
2C2
100
AcDbEntity
  8
0
100
AcDbLine
 62
7
  6
CONTINUOUS
 10
45.7634081573
 20
226.8166828474
 11
47.7758197716
 21
226.5348342767
  0
LINE
  5
2C3
100
AcDbEntity
  8
0
100
AcDbLine
 62
7
  6
CONTINUOUS
 10
-39.3262151229
 20
225.0825058519
 11
-39.2413778219
 21
224.8648543204
  0
LINE
  5
2C4
100
AcDbEntity
  8
0
100
AcDbLine
 62
7
  6
CONTINUOUS
 10
-35.4060287084
 20
273.0948059093
 11
-35.4038314304
 21
273.0757962926
  0
LINE
  5
2C5
100
AcDbEntity
  8
0
100
AcDbLine
 62
7
  6
CONTINUOUS
 10
13.3014264878
 20
304.9367527827
 11
13.6583374607
 21
305.9804078117
  0
LINE
  5
2C6
100
AcDbEntity
  8
0
100
AcDbLine
 62
7
  6
CONTINUOUS
 10
15.5178416569
 20
306.4788581066
 11
15.7557823055
 21
307.174628126
  0
LINE
  5
2C7
100
AcDbEntity
  8
0
100
AcDbLine
 62
7
  6
CONTINUOUS
 10
16.6802613601
 20
306.7904510812
 11
16.9182020087
 21
307.4862211006
  0
LINE
  5
2C8
100
AcDbEntity
  8
0
100
AcDbLine
 62
7
  6
CONTINUOUS
 10
18.5397655563
 20
307.288901376
 11
18.1828545834
 21
306.245246347
  0
LINE
  5
2C9
100
AcDbEntity
  8
0
100
AcDbLine
 62
7
  6
CONTINUOUS
 10
-40.5580095144
 20
128.2512406293
 11
-61.6273157821
 21
82.5023999903
  0
LINE
  5
2CA
100
AcDbEntity
  8
0
100
AcDbLine
 62
7
  6
CONTINUOUS
 10
40.2942677689
 20
291.0148061189
 11
45.8007597559
 21
292.3422896558
  0
LINE
  5
2CB
100
AcDbEntity
  8
0
100
AcDbLine
 62
7
  6
CONTINUOUS
 10
-29.9556177662
 20
274.4320123275
 11
-35.4621097532
 21
273.1045287907
  0
LINE
  5
2CC
100
AcDbEntity
  8
0
100
AcDbLine
 62
7
  6
CONTINUOUS
 10
39.5288697175
 20
292.0396772131
 11
45.0139690512
 21
293.3620146201
  0
LINE
  5
2CD
100
AcDbEntity
  8
0
100
AcDbLine
 62
7
  6
CONTINUOUS
 10
26.0037521565
 20
246.2504325741
 11
26.2185252997
 21
246.2299605403
  0
LINE
  5
2CE
100
AcDbEntity
  8
0
100
AcDbLine
 62
7
  6
CONTINUOUS
 10
25.3348342453
 20
246.3537099442
 11
25.1200631207
 21
246.3741964034
  0
LINE
  5
2CF
100
AcDbEntity
  8
0
100
AcDbLine
 62
7
  6
CONTINUOUS
 10
26.7253577901
 20
242.158288826
 11
25.3934137989
 21
242.3333257549
  0
LINE
  5
2D0
100
AcDbEntity
  8
0
100
AcDbLine
 62
7
  6
CONTINUOUS
 10
25.9742420923
 20
243.2633431297
 11
26.8026939391
 21
243.1544724354
  0
LINE
  5
2D1
100
AcDbEntity
  8
0
100
AcDbLine
 62
7
  6
CONTINUOUS
 10
24.3639369347
 20
239.421383171
 11
25.2476259705
 21
239.2976193418
  0
LINE
  5
2D2
100
AcDbEntity
  8
0
100
AcDbLine
 62
7
  6
CONTINUOUS
 10
22.6773974394
 20
242.4304931981
 11
22.799722725
 21
242.4133611016
  0
LINE
  5
2D3
100
AcDbEntity
  8
0
100
AcDbLine
 62
7
  6
CONTINUOUS
 10
28.5890923962
 20
242.1180351709
 11
28.4667671105
 21
242.1351672674
  0
LINE
  5
2D4
100
AcDbEntity
  8
0
100
AcDbLine
 62
7
  6
CONTINUOUS
 10
22.877058874
 20
243.4095447111
 11
22.7547335884
 21
243.4266768075
  0
LINE
  5
2D5
100
AcDbEntity
  8
0
100
AcDbLine
 62
7
  6
CONTINUOUS
 10
25.3348362638
 20
246.3537243695
 11
26.2185252997
 21
246.2299605403
  0
LINE
  5
2D6
100
AcDbEntity
  8
0
100
AcDbLine
 62
7
  6
CONTINUOUS
 10
24.8212701984
 20
242.3625118064
 11
25.8947599662
 21
242.200659082
  0
LINE
  5
2D7
100
AcDbEntity
  8
0
100
AcDbLine
 62
7
  6
CONTINUOUS
 10
-48.7501327457
 20
265.3658168141
 11
-49.7522630424
 21
266.7641986162
  0
LINE
  5
2D8
100
AcDbEntity
  8
0
100
AcDbLine
 62
7
  6
CONTINUOUS
 10
-40.0342004244
 20
252.5356479485
 11
-38.5455329262
 21
250.4548080692
  0
LINE
  5
2D9
100
AcDbEntity
  8
0
100
AcDbLine
 62
7
  6
CONTINUOUS
 10
-41.9344601026
 20
255.3359977103
 11
-40.8813365354
 21
253.8630696665
  0
LINE
  5
2DA
100
AcDbEntity
  8
0
100
AcDbLine
 62
7
  6
CONTINUOUS
 10
-40.8813365336
 20
253.8630696663
 11
-40.0340560768
 21
252.5357544907
  0
LINE
  5
2DB
100
AcDbEntity
  8
0
100
AcDbLine
 62
7
  6
CONTINUOUS
 10
-19.2301909122
 20
224.3976334253
 11
-20.7891901595
 21
234.7985872694
  0
LINE
  5
2DC
100
AcDbEntity
  8
0
100
AcDbLine
 62
7
  6
CONTINUOUS
 10
-59.5612000085
 20
83.0562336512
 11
-38.4918937409
 21
128.8050742902
  0
LINE
  5
2DD
100
AcDbEntity
  8
0
100
AcDbLine
 62
7
  6
CONTINUOUS
 10
-22.7096230002
 20
143.5062608192
 11
-24.2609208044
 21
143.0150459878
  0
LINE
  5
2DE
100
AcDbEntity
  8
0
100
AcDbLine
 62
7
  6
CONTINUOUS
 10
-26.8398827901
 20
142.1984236904
 11
-28.3911805944
 21
141.707208859
  0
LINE
  5
2DF
100
AcDbEntity
  8
0
100
AcDbLine
 62
7
  6
CONTINUOUS
 10
13.3014264878
 20
304.9367527827
 11
18.1828545834
 21
306.245246347
  0
LINE
  5
2E0
100
AcDbEntity
  8
0
100
AcDbLine
 62
7
  6
CONTINUOUS
 10
13.6583374607
 20
305.9804078117
 11
15.5178416569
 21
306.4788581066
  0
LINE
  5
2E1
100
AcDbEntity
  8
0
100
AcDbLine
 62
7
  6
CONTINUOUS
 10
16.6802613601
 20
306.7904510812
 11
18.5397655563
 21
307.288901376
  0
LINE
  5
2E2
100
AcDbEntity
  8
0
100
AcDbLine
 62
7
  6
CONTINUOUS
 10
16.9182020087
 20
307.4862211006
 11
15.7557823055
 21
307.174628126
  0
LINE
  5
2E3
100
AcDbEntity
  8
0
100
AcDbLine
 62
7
  6
CONTINUOUS
 10
26.139038095
 20
254.3568317893
 11
20.7007255937
 21
255.1184870234
  0
LINE
  5
2E4
100
AcDbEntity
  8
0
100
AcDbLine
 62
7
  6
CONTINUOUS
 10
28.4143904827
 20
254.5021177039
 11
22.9760779814
 21
255.263772938
  0
LINE
  5
2E5
100
AcDbEntity
  8
0
100
AcDbLine
 62
7
  6
CONTINUOUS
 10
20.953118555
 20
256.9866689352
 11
18.3529647374
 21
257.3508298334
  0
LINE
  5
2E6
100
AcDbEntity
  8
0
100
AcDbLine
 62
7
  6
CONTINUOUS
 10
19.0750246665
 20
257.829649247
 11
23.7973090398
 21
257.1682763285
  0
LINE
  5
2E7
100
AcDbEntity
  8
0
100
AcDbLine
 62
7
  6
CONTINUOUS
 10
-12.45330026
 20
240.7290648564
 11
-13.1498714805
 21
244.2564120902
  0
LINE
  5
2E8
100
AcDbEntity
  8
0
100
AcDbLine
 62
7
  6
CONTINUOUS
 10
-9.2379224398
 20
234.9904221326
 11
-7.9960444404
 21
226.7051610754
  0
LINE
  5
2E9
100
AcDbEntity
  8
0
100
AcDbLine
 62
7
  6
CONTINUOUS
 10
-6.1387487795
 20
235.8211726241
 11
-5.1674129736
 21
229.3408494928
  0
LINE
  5
2EA
100
AcDbEntity
  8
0
100
AcDbLine
 62
7
  6
CONTINUOUS
 10
32.556007202
 20
216.4127014199
 11
31.1717239944
 21
213.6857258937
  0
LINE
  5
2EB
100
AcDbEntity
  8
0
100
AcDbLine
 62
7
  6
CONTINUOUS
 10
5.7704531472
 20
169.1426534341
 11
4.1489858383
 21
166.5988153912
  0
LINE
  5
2EC
100
AcDbEntity
  8
0
100
AcDbLine
 62
7
  6
CONTINUOUS
 10
-7.5380628601
 20
239.9292175898
 11
-11.7382263532
 21
245.5532535367
  0
LINE
  5
2ED
100
AcDbEntity
  8
0
100
AcDbLine
 62
7
  6
CONTINUOUS
 10
-11.6142922683
 20
246.3287641661
 11
-20.0599761706
 21
257.637435016
  0
LINE
  5
2EE
100
AcDbEntity
  8
0
100
AcDbLine
 62
7
  6
CONTINUOUS
 10
-29.2592906022
 20
271.1668337115
 11
-27.4733618156
 21
268.7754678251
  0
LINE
  5
2EF
100
AcDbEntity
  8
0
100
AcDbLine
 62
7
  6
CONTINUOUS
 10
-9.4425298078
 20
246.4637518252
 11
-9.255968193
 21
246.2139565957
  0
LINE
  5
2F0
100
AcDbEntity
  8
0
100
AcDbLine
 62
7
  6
CONTINUOUS
 10
-20.9812601311
 20
262.604386772
 11
-20.4709947635
 21
261.9211393759
  0
LINE
  5
2F1
100
AcDbEntity
  8
0
100
AcDbLine
 62
7
  6
CONTINUOUS
 10
-18.3288032613
 20
262.6996142431
 11
-17.818538017
 21
262.0163664864
  0
LINE
  5
2F2
100
AcDbEntity
  8
0
100
AcDbLine
 62
7
  6
CONTINUOUS
 10
-16.654113409
 20
262.1286407425
 11
-16.011863782
 21
261.268665888
  0
LINE
  5
2F3
100
AcDbEntity
  8
0
100
AcDbLine
 62
7
  6
CONTINUOUS
 10
-17.8246411006
 20
261.9985202604
 11
-9.4425298078
 21
246.4637518252
  0
LINE
  5
2F4
100
AcDbEntity
  8
0
100
AcDbLine
 62
7
  6
CONTINUOUS
 10
-8.2028603437
 20
246.7960520217
 11
-16.011863782
 21
261.268665888
  0
LINE
  5
2F5
100
AcDbEntity
  8
0
100
AcDbLine
 62
7
  6
CONTINUOUS
 10
4.6577317751
 20
223.2884328874
 11
3.2749001187
 21
232.5140744373
  0
LINE
  5
2F6
100
AcDbEntity
  8
0
100
AcDbLine
 62
7
  6
CONTINUOUS
 10
3.9681632259
 20
231.6483754165
 11
3.5917929887
 21
234.1593512696
  0
LINE
  5
2F7
100
AcDbEntity
  8
0
100
AcDbLine
 62
7
  6
CONTINUOUS
 10
16.0615313334
 20
151.3846336625
 11
17.3882396088
 21
142.5334225018
  0
LINE
  5
2F8
100
AcDbEntity
  8
0
100
AcDbLine
 62
7
  6
CONTINUOUS
 10
17.9395701608
 20
151.2873154127
 11
19.2916489843
 21
142.2668431698
  0
LINE
  5
2F9
100
AcDbEntity
  8
0
100
AcDbLine
 62
7
  6
CONTINUOUS
 10
21.975476855
 20
142.5728683377
 11
21.975476855
 21
105.1506402847
  0
LINE
  5
2FA
100
AcDbEntity
  8
0
100
AcDbLine
 62
7
  6
CONTINUOUS
 10
-23.6220552301
 20
291.5303035078
 11
-19.7510987033
 21
290.3125202485
  0
LINE
  5
2FB
100
AcDbEntity
  8
0
100
AcDbLine
 62
7
  6
CONTINUOUS
 10
33.9607052328
 20
273.9165149387
 11
30.089748706
 21
275.1342981979
  0
LINE
  5
2FC
100
AcDbEntity
  8
0
100
AcDbLine
 62
7
  6
CONTINUOUS
 10
4.1938342977
 20
250.1190539875
 11
-5.7097901192
 21
263.3800472364
  0
LINE
  5
2FD
100
AcDbEntity
  8
0
100
AcDbLine
 62
7
  6
CONTINUOUS
 10
5.4335037619
 20
250.451354184
 11
5.6181419543
 21
250.2041228957
  0
LINE
  5
2FE
100
AcDbEntity
  8
0
100
AcDbLine
 62
7
  6
CONTINUOUS
 10
-3.6151691406
 20
264.5916678537
 11
-4.2574187676
 21
265.4516427082
  0
LINE
  5
2FF
100
AcDbEntity
  8
0
100
AcDbLine
 62
7
  6
CONTINUOUS
 10
12.2966485661
 20
245.246020735
 11
8.096485073
 21
250.8700566819
  0
LINE
  5
300
100
AcDbEntity
  8
0
100
AcDbLine
 62
7
  6
CONTINUOUS
 10
-2.942504447
 20
266.0039688462
 11
-3.452769688
 21
266.6872166125
  0
LINE
  5
301
100
AcDbEntity
  8
0
100
AcDbLine
 62
7
  6
CONTINUOUS
 10
-19.7510987033
 20
290.3125202485
 11
-21.2818948061
 21
292.3622624369
  0
LINE
  5
302
100
AcDbEntity
  8
0
100
AcDbLine
 62
7
  6
CONTINUOUS
 10
0.1736274291
 20
267.4550435425
 11
-0.3366379385
 21
268.1382909386
  0
LINE
  5
303
100
AcDbEntity
  8
0
100
AcDbLine
 62
7
  6
CONTINUOUS
 10
-3.6151691406
 20
264.5916678537
 11
4.1938342977
 21
250.1190539875
  0
LINE
  5
304
100
AcDbEntity
  8
0
100
AcDbLine
 62
7
  6
CONTINUOUS
 10
5.4335037619
 20
250.451354184
 11
-2.9486075309
 21
265.9861226193
  0
LINE
  5
305
100
AcDbEntity
  8
0
100
AcDbLine
 62
7
  6
CONTINUOUS
 10
22.8390130236
 20
152.4513815727
 11
22.5694479779
 21
154.2498004005
  0
LINE
  5
306
100
AcDbEntity
  8
0
100
AcDbLine
 62
7
  6
CONTINUOUS
 10
15.7964929163
 20
229.9917752821
 11
14.1091858015
 21
241.2487425011
  0
LINE
  5
307
100
AcDbEntity
  8
0
100
AcDbLine
 62
7
  6
CONTINUOUS
 10
17.2083594618
 20
242.0794929927
 11
19.0444206799
 21
229.830104151
  0
LINE
  5
308
100
AcDbEntity
  8
0
100
AcDbLine
 62
7
  6
CONTINUOUS
 10
30.8339110722
 20
156.4651350443
 11
31.1034761179
 21
154.6667162165
  0
LINE
  5
309
100
AcDbEntity
  8
0
100
AcDbLine
 62
7
  6
CONTINUOUS
 10
-21.2818948061
 20
292.3622624369
 11
-22.4793106057
 21
292.7390031449
  0
LINE
  5
30A
100
AcDbEntity
  8
0
100
AcDbLine
 62
7
  6
CONTINUOUS
 10
45.3924066659
 20
151.290720925
 11
45.1859461888
 21
152.6681339654
  0
LINE
  5
30B
100
AcDbEntity
  8
0
100
AcDbLine
 62
7
  6
CONTINUOUS
 10
37.4838390414
 20
224.5510780604
 11
33.9163617248
 21
248.3517097634
  0
LINE
  5
30C
100
AcDbEntity
  8
0
100
AcDbLine
 62
7
  6
CONTINUOUS
 10
43.3262908924
 20
150.736887264
 11
22.2569846247
 21
104.988046625
  0
LINE
  5
30D
100
AcDbEntity
  8
0
100
AcDbLine
 62
7
  6
CONTINUOUS
 10
24.3231003983
 20
105.541880286
 11
45.3924066659
 21
151.290720925
  0
LINE
  5
30E
100
AcDbEntity
  8
0
100
AcDbLine
 62
7
  6
CONTINUOUS
 10
13.3014264878
 20
304.9367527827
 11
5.7422161291
 21
312.7168496979
  0
LINE
  5
30F
100
AcDbEntity
  8
0
100
AcDbLine
 62
7
  6
CONTINUOUS
 10
13.6583374607
 20
305.9804078117
 11
7.6119223149
 21
314.0129634186
  0
LINE
  5
310
100
AcDbEntity
  8
0
100
AcDbLine
 62
7
  6
CONTINUOUS
 10
15.5178416569
 20
306.4788581066
 11
9.2975028432
 21
314.7424682308
  0
LINE
  5
311
100
AcDbEntity
  8
0
100
AcDbLine
 62
7
  6
CONTINUOUS
 10
30.089748706
 20
275.1342981979
 11
28.5589526032
 21
277.1840403862
  0
LINE
  5
312
100
AcDbEntity
  8
0
100
AcDbLine
 62
7
  6
CONTINUOUS
 10
15.7557823055
 20
307.174628126
 11
10.01283944
 21
315.0005767134
  0
LINE
  5
313
100
AcDbEntity
  8
0
100
AcDbLine
 62
7
  6
CONTINUOUS
 10
18.5397655563
 20
307.288901376
 11
12.4890325167
 21
315.8940392324
  0
LINE
  5
314
100
AcDbEntity
  8
0
100
AcDbLine
 62
7
  6
CONTINUOUS
 10
11.4205274667
 20
315.5085001472
 11
16.9182020087
 21
307.4862211006
  0
LINE
  5
315
100
AcDbEntity
  8
0
100
AcDbLine
 62
7
  6
CONTINUOUS
 10
45.8007691636
 20
292.3423142449
 11
45.0139690512
 21
293.3620146201
  0
LINE
  5
316
100
AcDbEntity
  8
0
100
AcDbLine
 62
7
  6
CONTINUOUS
 10
39.5288697175
 20
292.0396772131
 11
40.2942677689
 21
291.0148061189
  0
LINE
  5
317
100
AcDbEntity
  8
0
100
AcDbLine
 62
7
  6
CONTINUOUS
 10
26.0248818267
 20
312.4543654717
 11
27.8108106133
 21
310.0629995853
  0
LINE
  5
318
100
AcDbEntity
  8
0
100
AcDbLine
 62
7
  6
CONTINUOUS
 10
46.9484985816
 20
317.4963915033
 11
48.5210733554
 21
315.4782155685
  0
ARC
  5
319
100
AcDbEntity
  8
0
100
AcDbCircle
 62
7
  6
CONTINUOUS
 10
-99.2311478345
 20
194.8197097119
 40
36.9682900366
100
AcDbArc
 50
141.1563004757
 51
158.2605900576
  0
ARC
  5
31A
100
AcDbEntity
  8
0
100
AcDbCircle
 62
7
  6
CONTINUOUS
 10
-51.5565719624
 20
208.2449827997
 40
28.0201184875
100
AcDbArc
 50
148.0351353394
 51
155.4755481684
  0
ARC
  5
31B
100
AcDbEntity
  8
0
100
AcDbCircle
 62
7
  6
CONTINUOUS
 10
-116.1550771882
 20
203.8002776337
 40
24.5585063072
100
AcDbArc
 50
104.929087501
 51
105.8337417487
  0
ARC
  5
31C
100
AcDbEntity
  8
0
100
AcDbCircle
 62
7
  6
CONTINUOUS
 10
-50.2044194575
 20
223.4188948445
 40
12.6898276076
100
AcDbArc
 50
11.6689903635
 51
19.3367667624
  0
ARC
  5
31D
100
AcDbEntity
  8
0
100
AcDbCircle
 62
7
  6
CONTINUOUS
 10
-135.2892361357
 20
195.8199692845
 40
5.8
100
AcDbArc
 50
110.7907389647
 51
119.8457002033
  0
ARC
  5
31E
100
AcDbEntity
  8
0
100
AcDbCircle
 62
7
  6
CONTINUOUS
 10
-135.2892361357
 20
195.8199692845
 40
5.8
100
AcDbArc
 50
75.0283751586
 51
99.2227855315
  0
ARC
  5
31F
100
AcDbEntity
  8
0
100
AcDbCircle
 62
7
  6
CONTINUOUS
 10
-63.2232470892
 20
154.1959923998
 40
5.8
100
AcDbArc
 50
113.130495988
 51
119.8457002033
  0
ARC
  5
320
100
AcDbEntity
  8
0
100
AcDbCircle
 62
7
  6
CONTINUOUS
 10
-148.3653956626
 20
195.2179359376
 40
1.1799051649
100
AcDbArc
 50
180.0222702705
 51
190.6532679888
  0
ARC
  5
321
100
AcDbEntity
  8
0
100
AcDbCircle
 62
7
  6
CONTINUOUS
 10
-24.297331439
 20
32.1222405765
 40
193.8841835943
100
AcDbArc
 50
93.6529837536
 51
93.8698571987
  0
ARC
  5
322
100
AcDbEntity
  8
0
100
AcDbCircle
 62
7
  6
CONTINUOUS
 10
-10.3394550869
 20
-38.5429269631
 40
182.0909244026
100
AcDbArc
 50
94.3847343581
 51
94.615352235
  0
ARC
  5
323
100
AcDbEntity
  8
0
100
AcDbCircle
 62
7
  6
CONTINUOUS
 10
14.8770901036
 20
63.489390588
 40
179.1528571083
100
AcDbArc
 50
86.3927782577
 51
86.6347869484
  0
ARC
  5
324
100
AcDbEntity
  8
0
100
AcDbCircle
 62
7
  6
CONTINUOUS
 10
0.9148745875
 20
203.5514751805
 40
28.2805269713
100
AcDbArc
 50
96.4208420179
 51
102.9679727421
  0
ARC
  5
325
100
AcDbEntity
  8
0
100
AcDbCircle
 62
7
  6
CONTINUOUS
 10
0.8534732172
 20
204.6767083775
 40
27.1509137363
100
AcDbArc
 50
83.4126580914
 51
84.6106819414
  0
ARC
  5
326
100
AcDbEntity
  8
0
100
AcDbCircle
 62
7
  6
CONTINUOUS
 10
-0.5266849341
 20
150.5121414617
 40
26.3725862687
100
AcDbArc
 50
197.0927654245
 51
197.7879259631
  0
ARC
  5
327
100
AcDbEntity
  8
0
100
AcDbCircle
 62
7
  6
CONTINUOUS
 10
-37.8994989554
 20
140.498428843
 40
12.8195537635
100
AcDbArc
 50
12.7928098644
 51
20.3836058496
  0
ARC
  5
328
100
AcDbEntity
  8
0
100
AcDbCircle
 62
7
  6
CONTINUOUS
 10
-34.4928857361
 20
141.2343648317
 40
10.1871662338
100
AcDbArc
 50
13.3994375568
 51
22.9544772327
  0
ARC
  5
329
100
AcDbEntity
  8
0
100
AcDbCircle
 62
7
  6
CONTINUOUS
 10
-30.5331739341
 20
139.3209233547
 40
8.2681004665
100
AcDbArc
 50
199.2957401926
 51
202.9653162931
  0
ARC
  5
32A
100
AcDbEntity
  8
0
100
AcDbCircle
 62
7
  6
CONTINUOUS
 10
-30.9581116375
 20
139.131395167
 40
7.8028987286
100
AcDbArc
 50
202.9013829623
 51
210.7322919429
  0
ARC
  5
32B
100
AcDbEntity
  8
0
100
AcDbCircle
 62
7
  6
CONTINUOUS
 10
-31.264225967
 20
138.9518791292
 40
7.4480364316
100
AcDbArc
 50
210.7486561722
 51
215.3697143789
  0
ARC
  5
32C
100
AcDbEntity
  8
0
100
AcDbCircle
 62
7
  6
CONTINUOUS
 10
-31.668926513
 20
138.6574301836
 40
6.9475905123
100
AcDbArc
 50
215.3215309372
 51
223.0622367283
  0
ARC
  5
32D
100
AcDbEntity
  8
0
100
AcDbCircle
 62
7
  6
CONTINUOUS
 10
-31.8931450713
 20
138.4498773129
 40
6.6420582807
100
AcDbArc
 50
223.0747793202
 51
228.2897268485
  0
ARC
  5
32E
100
AcDbEntity
  8
0
100
AcDbCircle
 62
7
  6
CONTINUOUS
 10
-34.6880132115
 20
138.0892824163
 40
6.3032353234
100
AcDbArc
 50
283.4813247605
 51
285.0062061389
  0
ARC
  5
32F
100
AcDbEntity
  8
0
100
AcDbCircle
 62
7
  6
CONTINUOUS
 10
-34.1335771381
 20
137.9700812086
 40
6.2589214761
100
AcDbArc
 50
278.5920078749
 51
285.0144429756
  0
ARC
  5
330
100
AcDbEntity
  8
0
100
AcDbCircle
 62
7
  6
CONTINUOUS
 10
-32.1614170151
 20
138.1433592947
 40
6.2347393206
100
AcDbArc
 50
228.2559448521
 51
236.3979003017
  0
ARC
  5
331
100
AcDbEntity
  8
0
100
AcDbCircle
 62
7
  6
CONTINUOUS
 10
-34.1017157418
 20
137.7388378058
 40
6.025514023
100
AcDbArc
 50
262.1019618935
 51
278.6209466217
  0
ARC
  5
332
100
AcDbEntity
  8
0
100
AcDbCircle
 62
7
  6
CONTINUOUS
 10
-32.2824340395
 20
137.9626284222
 40
6.0172349608
100
AcDbArc
 50
236.4052773497
 51
241.1555433415
  0
ARC
  5
333
100
AcDbEntity
  8
0
100
AcDbCircle
 62
7
  6
CONTINUOUS
 10
-34.6485728395
 20
137.7409344455
 40
5.9517576781
100
AcDbArc
 50
264.6123436175
 51
269.9089024721
  0
ARC
  5
334
100
AcDbEntity
  8
0
100
AcDbCircle
 62
7
  6
CONTINUOUS
 10
-34.1040544758
 20
137.6627145799
 40
5.9497970954
100
AcDbArc
 50
254.539137193
 51
262.0235401352
  0
ARC
  5
335
100
AcDbEntity
  8
0
100
AcDbCircle
 62
7
  6
CONTINUOUS
 10
-32.3337217159
 20
137.8720974552
 40
5.9131931744
100
AcDbArc
 50
241.1676491887
 51
242.0031580462
  0
ARC
  5
336
100
AcDbEntity
  8
0
100
AcDbCircle
 62
7
  6
CONTINUOUS
 10
-32.4028120001
 20
137.733976223
 40
5.7588045049
100
AcDbArc
 50
241.9650287314
 51
250.7273213036
  0
ARC
  5
337
100
AcDbEntity
  8
0
100
AcDbCircle
 62
7
  6
CONTINUOUS
 10
-32.4387985511
 20
137.6319067668
 40
5.6505773103
100
AcDbArc
 50
250.7301637414
 51
257.3315414712
  0
ARC
  5
338
100
AcDbEntity
  8
0
100
AcDbCircle
 62
7
  6
CONTINUOUS
 10
-32.4536871945
 20
137.5715079414
 40
5.5883837999
100
AcDbArc
 50
257.3446666296
 51
262.0268892232
  0
ARC
  5
339
100
AcDbEntity
  8
0
100
AcDbCircle
 62
7
  6
CONTINUOUS
 10
-0.1664948315
 20
188.1912978481
 40
3.27256548
100
AcDbArc
 50
82.0564649527
 51
91.9290968313
  0
ARC
  5
33A
100
AcDbEntity
  8
0
100
AcDbCircle
 62
7
  6
CONTINUOUS
 10
-0.549014382
 20
185.4610409716
 40
3.2704674872
100
AcDbArc
 50
251.3776016078
 51
262.0006506059
  0
ARC
  5
33B
100
AcDbEntity
  8
0
100
AcDbCircle
 62
7
  6
CONTINUOUS
 10
-25.8139598857
 20
143.0238639852
 40
1.2466704963
100
AcDbArc
 50
202.6636096712
 51
207.1143928393
  0
ARC
  5
33C
100
AcDbEntity
  8
0
100
AcDbCircle
 62
7
  6
CONTINUOUS
 10
-25.8637376416
 20
142.9977262197
 40
1.190450768
100
AcDbArc
 50
207.0865716971
 51
212.2456726947
  0
ARC
  5
33D
100
AcDbEntity
  8
0
100
AcDbCircle
 62
7
  6
CONTINUOUS
 10
-46.837172158
 20
224.0727879883
 40
10.1102907784
100
AcDbArc
 50
12.2723036921
 51
21.9010496507
  0
ARC
  5
33E
100
AcDbEntity
  8
0
100
AcDbCircle
 62
7
  6
CONTINUOUS
 10
-44.5090616733
 20
228.2008967585
 40
9.6333116843
100
AcDbArc
 50
187.3866554495
 51
188.5235524502
  0
ARC
  5
33F
100
AcDbEntity
  8
0
100
AcDbCircle
 62
7
  6
CONTINUOUS
 10
-42.5248509249
 20
228.0275969924
 40
9.5685629164
100
AcDbArc
 50
168.0237778454
 51
174.8423529528
  0
ARC
  5
340
100
AcDbEntity
  8
0
100
AcDbCircle
 62
7
  6
CONTINUOUS
 10
-42.5654117994
 20
228.0309752046
 40
9.5278625829
100
AcDbArc
 50
174.8406586957
 51
178.179215974
  0
ARC
  5
341
100
AcDbEntity
  8
0
100
AcDbCircle
 62
7
  6
CONTINUOUS
 10
-42.5724467644
 20
228.0370489571
 40
9.5200417414
100
AcDbArc
 50
164.0921418967
 51
168.0199851548
  0
ARC
  5
342
100
AcDbEntity
  8
0
100
AcDbCircle
 62
7
  6
CONTINUOUS
 10
-42.7275780472
 20
228.0821205365
 40
9.3584977253
100
AcDbArc
 50
157.7702500145
 51
164.0971952593
  0
ARC
  5
343
100
AcDbEntity
  8
0
100
AcDbCircle
 62
7
  6
CONTINUOUS
 10
-42.7854755101
 20
228.0305290983
 40
9.3079271285
100
AcDbArc
 50
178.1334304634
 51
188.4961001204
  0
ARC
  5
344
100
AcDbEntity
  8
0
100
AcDbCircle
 62
7
  6
CONTINUOUS
 10
-42.9577556398
 20
228.1734322549
 40
9.110883424
100
AcDbArc
 50
153.5252857173
 51
157.7541746717
  0
ARC
  5
345
100
AcDbEntity
  8
0
100
AcDbCircle
 62
7
  6
CONTINUOUS
 10
-43.2316565097
 20
228.3105807023
 40
8.8045650727
100
AcDbArc
 50
147.0810795582
 51
153.5295811496
  0
ARC
  5
346
100
AcDbEntity
  8
0
100
AcDbCircle
 62
7
  6
CONTINUOUS
 10
-43.5557925119
 20
228.5161849926
 40
8.4207369562
100
AcDbArc
 50
142.59997485
 51
147.0568589132
  0
ARC
  5
347
100
AcDbEntity
  8
0
100
AcDbCircle
 62
7
  6
CONTINUOUS
 10
-43.8704708157
 20
228.7574800978
 40
8.0241951131
100
AcDbArc
 50
135.5988051818
 51
142.603974792
  0
ARC
  5
348
100
AcDbEntity
  8
0
100
AcDbCircle
 62
7
  6
CONTINUOUS
 10
-44.1688922907
 20
229.0415558907
 40
7.6122260648
100
AcDbArc
 50
131.0009065495
 51
135.5548579087
  0
ARC
  5
349
100
AcDbEntity
  8
0
100
AcDbCircle
 62
7
  6
CONTINUOUS
 10
-44.4596570542
 20
229.3760746976
 40
7.1690026685
100
AcDbArc
 50
122.749207634
 51
131.0011314797
  0
ARC
  5
34A
100
AcDbEntity
  8
0
100
AcDbCircle
 62
7
  6
CONTINUOUS
 10
-44.7016474072
 20
229.7386425019
 40
6.733162554
100
AcDbArc
 50
118.4784315094
 51
122.6863273502
  0
ARC
  5
34B
100
AcDbEntity
  8
0
100
AcDbCircle
 62
7
  6
CONTINUOUS
 10
-46.5730437936
 20
230.6734548807
 40
6.4672855758
100
AcDbArc
 50
105.0265289186
 51
110.210710643
  0
ARC
  5
34C
100
AcDbEntity
  8
0
100
AcDbCircle
 62
7
  6
CONTINUOUS
 10
-38.1994305669
 20
225.6588987393
 40
1.2473777526
100
AcDbArc
 50
202.7674906787
 51
207.1332754638
  0
ARC
  5
34D
100
AcDbEntity
  8
0
100
AcDbCircle
 62
7
  6
CONTINUOUS
 10
-38.2434930271
 20
225.6360150009
 40
1.197728081
100
AcDbArc
 50
207.1203531059
 51
210.9726175181
  0
ARC
  5
34E
100
AcDbEntity
  8
0
100
AcDbCircle
 62
7
  6
CONTINUOUS
 10
-35.5862054686
 20
272.7274589999
 40
15.3700247752
100
AcDbArc
 50
202.8288599643
 51
209.3355496774
  0
ARC
  5
34F
100
AcDbEntity
  8
0
100
AcDbCircle
 62
7
  6
CONTINUOUS
 10
-13.7171859381
 20
232.379582012
 40
25.3936343744
100
AcDbArc
 50
195.9882532202
 51
196.6617278452
  0
ARC
  5
350
100
AcDbEntity
  8
0
100
AcDbCircle
 62
7
  6
CONTINUOUS
 10
-9.374354115
 20
236.1188102504
 40
3.8497766977
100
AcDbArc
 50
189.7525344401
 51
196.8446733468
  0
ARC
  5
351
100
AcDbEntity
  8
0
100
AcDbCircle
 62
7
  6
CONTINUOUS
 10
-14.8091242497
 20
234.6624052824
 40
3.8471226385
100
AcDbArc
 50
9.7496785488
 51
16.8469457636
  0
ARC
  5
352
100
AcDbEntity
  8
0
100
AcDbCircle
 62
7
  6
CONTINUOUS
 10
-14.7945446811
 20
234.6672429872
 40
3.8317667674
100
AcDbArc
 50
16.8408945242
 51
18.5960935884
  0
ARC
  5
353
100
AcDbEntity
  8
0
100
AcDbCircle
 62
7
  6
CONTINUOUS
 10
-9.4195498898
 20
236.1037301671
 40
3.8021504561
100
AcDbArc
 50
196.8245361095
 51
198.5935205676
  0
ARC
  5
354
100
AcDbEntity
  8
0
100
AcDbCircle
 62
7
  6
CONTINUOUS
 10
-14.666735461
 20
234.6889971339
 40
3.7022877928
100
AcDbArc
 50
8.5054954429
 51
9.7172552125
  0
ARC
  5
355
100
AcDbEntity
  8
0
100
AcDbCircle
 62
7
  6
CONTINUOUS
 10
-9.5603434853
 20
236.085455416
 40
3.660825317
100
AcDbArc
 50
188.527359093
 51
189.7311317248
  0
ARC
  5
356
100
AcDbEntity
  8
0
100
AcDbCircle
 62
7
  6
CONTINUOUS
 10
-14.613041258
 20
234.697118049
 40
3.6479830188
100
AcDbArc
 50
7.9362938108
 51
8.5040819396
  0
ARC
  5
357
100
AcDbEntity
  8
0
100
AcDbCircle
 62
7
  6
CONTINUOUS
 10
-9.6187640145
 20
236.0765341872
 40
3.6017277657
100
AcDbArc
 50
187.9275523338
 51
188.524815213
  0
ARC
  5
358
100
AcDbEntity
  8
0
100
AcDbCircle
 62
7
  6
CONTINUOUS
 10
-14.5586748979
 20
234.7046205543
 40
3.593101484
100
AcDbArc
 50
6.934871905
 51
7.9375028678
  0
ARC
  5
359
100
AcDbEntity
  8
0
100
AcDbCircle
 62
7
  6
CONTINUOUS
 10
-14.1737104329
 20
234.9415928856
 40
3.1521718858
100
AcDbArc
 50
27.1998999208
 51
29.2189981803
  0
ARC
  5
35A
100
AcDbEntity
  8
0
100
AcDbCircle
 62
7
  6
CONTINUOUS
 10
-10.0159409327
 20
235.8373932585
 40
3.1482597256
100
AcDbArc
 50
207.2038303933
 51
209.2253898342
  0
ARC
  5
35B
100
AcDbEntity
  8
0
100
AcDbCircle
 62
7
  6
CONTINUOUS
 10
-10.2838609579
 20
236.0419868256
 40
2.9351718359
100
AcDbArc
 50
178.7480842993
 51
179.9253865403
  0
ARC
  5
35C
100
AcDbEntity
  8
0
100
AcDbCircle
 62
7
  6
CONTINUOUS
 10
-13.8988129783
 20
234.7397333559
 40
2.9318075599
100
AcDbArc
 50
358.7242239851
 51
0.0035789906
  0
ARC
  5
35D
100
AcDbEntity
  8
0
100
AcDbCircle
 62
7
  6
CONTINUOUS
 10
-10.3882440312
 20
236.0441511663
 40
2.8307663944
100
AcDbArc
 50
177.984942034
 51
178.7457208333
  0
ARC
  5
35E
100
AcDbEntity
  8
0
100
AcDbCircle
 62
7
  6
CONTINUOUS
 10
-13.7729875164
 20
234.7368219533
 40
2.8059484693
100
AcDbArc
 50
356.5438600784
 51
358.7264542083
  0
ARC
  5
35F
100
AcDbEntity
  8
0
100
AcDbCircle
 62
7
  6
CONTINUOUS
 10
-10.4884055507
 20
236.0478358359
 40
2.7305372565
100
AcDbArc
 50
176.5337257841
 51
177.9883097977
  0
ARC
  5
360
100
AcDbEntity
  8
0
100
AcDbCircle
 62
7
  6
CONTINUOUS
 10
-10.8245119233
 20
235.2953862846
 40
2.1734395296
100
AcDbArc
 50
217.9490415515
 51
220.5755940247
  0
ARC
  5
361
100
AcDbEntity
  8
0
100
AcDbCircle
 62
7
  6
CONTINUOUS
 10
-13.3597541088
 20
235.4865603899
 40
2.1711858943
100
AcDbArc
 50
37.9502245997
 51
40.5793589605
  0
ARC
  5
362
100
AcDbEntity
  8
0
100
AcDbCircle
 62
7
  6
CONTINUOUS
 10
-12.7563519457
 20
234.5908906061
 40
1.7769328246
100
AcDbArc
 50
343.5509894684
 51
346.2363201615
  0
ARC
  5
363
100
AcDbEntity
  8
0
100
AcDbCircle
 62
7
  6
CONTINUOUS
 10
-11.4534761193
 20
236.1958919628
 40
1.7523800156
100
AcDbArc
 50
163.525783475
 51
166.2485454279
  0
ARC
  5
364
100
AcDbEntity
  8
0
100
AcDbCircle
 62
7
  6
CONTINUOUS
 10
-11.5094925587
 20
234.5576976274
 40
1.1630597734
100
AcDbArc
 50
235.0371443067
 51
238.7423575391
  0
ARC
  5
365
100
AcDbEntity
  8
0
100
AcDbCircle
 62
7
  6
CONTINUOUS
 10
-12.6745785443
 20
236.2260373184
 40
1.1593399558
100
AcDbArc
 50
55.0293128033
 51
58.7464257352
  0
ARC
  5
366
100
AcDbEntity
  8
0
100
AcDbCircle
 62
7
  6
CONTINUOUS
 10
-11.9606607476
 20
234.2443643397
 40
0.9047175772
100
AcDbArc
 50
321.589301691
 51
326.3420635619
  0
ARC
  5
367
100
AcDbEntity
  8
0
100
AcDbCircle
 62
7
  6
CONTINUOUS
 10
-12.2377602268
 20
236.5452633508
 40
0.8894092677
100
AcDbArc
 50
141.5520147994
 51
146.3868827309
  0
ARC
  5
368
100
AcDbEntity
  8
0
100
AcDbCircle
 62
7
  6
CONTINUOUS
 10
-11.7120871249
 20
234.0868624005
 40
0.6471102248
100
AcDbArc
 50
257.7871050676
 51
264.2881196532
  0
ARC
  5
369
100
AcDbEntity
  8
0
100
AcDbCircle
 62
7
  6
CONTINUOUS
 10
-11.7219448454
 20
233.99593051
 40
0.5572641785
100
AcDbArc
 50
291.4055714574
 51
299.4361574289
  0
ARC
  5
36A
100
AcDbEntity
  8
0
100
AcDbCircle
 62
7
  6
CONTINUOUS
 10
-12.4654943714
 20
236.7873194291
 40
0.5542538348
100
AcDbArc
 50
111.3749370812
 51
119.4490698061
  0
ARC
  5
36B
100
AcDbEntity
  8
0
100
AcDbCircle
 62
7
  6
CONTINUOUS
 10
-12.4715751802
 20
236.8017881515
 40
0.5385642101
100
AcDbArc
 50
104.987314404
 51
111.3335385271
  0
ARC
  5
36C
100
AcDbEntity
  8
0
100
AcDbCircle
 62
7
  6
CONTINUOUS
 10
-11.7143945891
 20
233.9777683316
 40
0.5375993738
100
AcDbArc
 50
285.0049189781
 51
291.3628510371
  0
ARC
  5
36D
100
AcDbEntity
  8
0
100
AcDbCircle
 62
7
  6
CONTINUOUS
 10
-21.2386233599
 20
273.4454423796
 40
29.9117187758
100
AcDbArc
 50
169.0142882701
 51
173.1788509209
  0
ARC
  5
36E
100
AcDbEntity
  8
0
100
AcDbCircle
 62
7
  6
CONTINUOUS
 10
-16.1640660931
 20
262.5933609952
 40
26.8882500578
100
AcDbArc
 50
173.3399803685
 51
176.1965974986
  0
ARC
  5
36F
100
AcDbEntity
  8
0
100
AcDbCircle
 62
7
  6
CONTINUOUS
 10
-25.9527895188
 20
259.381732409
 40
15.4399841455
100
AcDbArc
 50
205.1440827073
 51
205.8695256993
  0
ARC
  5
370
100
AcDbEntity
  8
0
100
AcDbCircle
 62
7
  6
CONTINUOUS
 10
-26.3529717733
 20
259.1733510092
 40
14.9889880529
100
AcDbArc
 50
205.82025081
 51
215.5674441115
  0
ARC
  5
371
100
AcDbEntity
  8
0
100
AcDbCircle
 62
7
  6
CONTINUOUS
 10
-24.8749017118
 20
274.4446988394
 40
10.9742841323
100
AcDbArc
 50
221.2171038223
 51
221.5658396693
  0
ARC
  5
372
100
AcDbEntity
  8
0
100
AcDbCircle
 62
7
  6
CONTINUOUS
 10
-24.8901602201
 20
274.4314006986
 40
10.9540440725
100
AcDbArc
 50
219.8191889479
 51
221.2173702734
  0
ARC
  5
373
100
AcDbEntity
  8
0
100
AcDbCircle
 62
7
  6
CONTINUOUS
 10
21.3031947167
 20
158.0087167062
 40
84.4271259898
100
AcDbArc
 50
87.6117953262
 51
87.9970356303
  0
ARC
  5
374
100
AcDbEntity
  8
0
100
AcDbCircle
 62
7
  6
CONTINUOUS
 10
4.2593108404
 20
196.9829955866
 40
35.7333022894
100
AcDbArc
 50
130.0164877193
 51
130.5422001888
  0
ARC
  5
375
100
AcDbEntity
  8
0
100
AcDbCircle
 62
7
  6
CONTINUOUS
 10
20.0355536805
 20
179.3401238388
 40
25.2179489759
100
AcDbArc
 50
262.037001036
 51
275.7667997619
  0
ARC
  5
376
100
AcDbEntity
  8
0
100
AcDbCircle
 62
7
  6
CONTINUOUS
 10
19.5015700333
 20
195.1971916097
 40
21.8780813479
100
AcDbArc
 50
41.7475384373
 51
48.6599528052
  0
ARC
  5
377
100
AcDbEntity
  8
0
100
AcDbCircle
 62
7
  6
CONTINUOUS
 10
19.5104801689
 20
183.3119607902
 40
19.7201578343
100
AcDbArc
 50
236.0038155719
 51
243.4084927474
  0
ARC
  5
378
100
AcDbEntity
  8
0
100
AcDbCircle
 62
7
  6
CONTINUOUS
 10
14.3196401808
 20
163.5679436316
 40
4.2041699078
100
AcDbArc
 50
140.6913023706
 51
149.8777942752
  0
ARC
  5
379
100
AcDbEntity
  8
0
100
AcDbCircle
 62
7
  6
CONTINUOUS
 10
12.6050759611
 20
163.3999834166
 40
4.0814889763
100
AcDbArc
 50
320.665490082
 51
323.2384218757
  0
ARC
  5
37A
100
AcDbEntity
  8
0
100
AcDbCircle
 62
7
  6
CONTINUOUS
 10
29.9996906992
 20
196.284232306
 40
3.2855454691
100
AcDbArc
 50
82.0549691679
 51
91.6675751722
  0
ARC
  5
37B
100
AcDbEntity
  8
0
100
AcDbCircle
 62
7
  6
CONTINUOUS
 10
29.615102785
 20
193.5395495441
 40
3.282913878
100
AcDbArc
 50
251.6794184112
 51
262.0029629962
  0
ARC
  5
37C
100
AcDbEntity
  8
0
100
AcDbCircle
 62
7
  6
CONTINUOUS
 10
48.7217570255
 20
224.4069232236
 40
103.6962201477
100
AcDbArc
 50
124.770963659
 51
129.6968045457
  0
ARC
  5
37D
100
AcDbEntity
  8
0
100
AcDbCircle
 62
7
  6
CONTINUOUS
 10
39.6170525832
 20
236.6678360772
 40
102.1750540686
100
AcDbArc
 50
122.8890727994
 51
124.7321689594
  0
ARC
  5
37E
100
AcDbEntity
  8
0
100
AcDbCircle
 62
7
  6
CONTINUOUS
 10
46.7930825621
 20
226.7092218333
 40
100.6928590887
100
AcDbArc
 50
129.6891487194
 51
134.7026844106
  0
ARC
  5
37F
100
AcDbEntity
  8
0
100
AcDbCircle
 62
7
  6
CONTINUOUS
 10
34.1822893273
 20
242.3529273317
 40
94.3171224457
100
AcDbArc
 50
134.7880299032
 51
136.7293013062
  0
ARC
  5
380
100
AcDbEntity
  8
0
100
AcDbCircle
 62
7
  6
CONTINUOUS
 10
29.3070653683
 20
257.4645120736
 40
78.9226773361
100
AcDbArc
 50
110.0610296381
 51
112.2536206585
  0
ARC
  5
381
100
AcDbEntity
  8
0
100
AcDbCircle
 62
7
  6
CONTINUOUS
 10
8.4684648304
 20
261.8672049314
 40
61.9605298902
100
AcDbArc
 50
148.6759109915
 51
151.241057198
  0
ARC
  5
382
100
AcDbEntity
  8
0
100
AcDbCircle
 62
7
  6
CONTINUOUS
 10
20.2689645227
 20
259.4798440512
 40
53.8819505767
100
AcDbArc
 50
137.7571373059
 51
142.0071947531
  0
ARC
  5
383
100
AcDbEntity
  8
0
100
AcDbCircle
 62
7
  6
CONTINUOUS
 10
41.0875626485
 20
243.0023874124
 40
15.7084038533
100
AcDbArc
 50
182.4411142998
 51
182.650916891
  0
ARC
  5
384
100
AcDbEntity
  8
0
100
AcDbCircle
 62
7
  6
CONTINUOUS
 10
28.4350882036
 20
250.0530824268
 40
6.9427189959
100
AcDbArc
 50
270.9002079887
 51
271.909522661
  0
ARC
  5
385
100
AcDbEntity
  8
0
100
AcDbCircle
 62
7
  6
CONTINUOUS
 10
22.067603978
 20
249.5103067573
 40
6.3385959538
100
AcDbArc
 50
58.9546377111
 51
59.5413868247
  0
ARC
  5
386
100
AcDbEntity
  8
0
100
AcDbCircle
 62
7
  6
CONTINUOUS
 10
22.0812321649
 20
249.5335091013
 40
6.3116872927
100
AcDbArc
 50
59.5412579267
 51
60.574229726
  0
ARC
  5
387
100
AcDbEntity
  8
0
100
AcDbCircle
 62
7
  6
CONTINUOUS
 10
22.6493910481
 20
249.4996737672
 40
6.2628760344
100
AcDbArc
 50
58.9429531693
 51
65.4696862835
  0
ARC
  5
388
100
AcDbEntity
  8
0
100
AcDbCircle
 62
7
  6
CONTINUOUS
 10
22.7459317493
 20
249.7168847639
 40
6.0251893347
100
AcDbArc
 50
65.4473070371
 51
81.9540813084
  0
ARC
  5
389
100
AcDbEntity
  8
0
100
AcDbCircle
 62
7
  6
CONTINUOUS
 10
22.2185685219
 20
249.8616171384
 40
5.9550193206
100
AcDbArc
 50
74.5392180928
 51
79.3036403415
  0
ARC
  5
38A
100
AcDbEntity
  8
0
100
AcDbCircle
 62
7
  6
CONTINUOUS
 10
24.373948393
 20
249.3993764185
 40
5.6138242446
100
AcDbArc
 50
82.0395689406
 51
90.6252149724
  0
ARC
  5
38B
100
AcDbEntity
  8
0
100
AcDbCircle
 62
7
  6
CONTINUOUS
 10
37.4082360966
 20
207.7912726759
 40
4.5272183221
100
AcDbArc
 50
330.8172087857
 51
339.5536427208
  0
ARC
  5
38C
100
AcDbEntity
  8
0
100
AcDbCircle
 62
7
  6
CONTINUOUS
 10
24.3756721076
 20
242.9539097244
 40
4.1722173402
100
AcDbArc
 50
348.6830186537
 51
2.1619951619
  0
ARC
  5
38D
100
AcDbEntity
  8
0
100
AcDbCircle
 62
7
  6
CONTINUOUS
 10
26.8448025902
 20
242.6080611329
 40
4.1711864095
100
AcDbArc
 50
168.6819606759
 51
182.4398258992
  0
ARC
  5
38E
100
AcDbEntity
  8
0
100
AcDbCircle
 62
7
  6
CONTINUOUS
 10
9.4738312678
 20
243.4819377946
 40
3.484125375
100
AcDbArc
 50
52.2068691877
 51
53.9052430297
  0
ARC
  5
38F
100
AcDbEntity
  8
0
100
AcDbCircle
 62
7
  6
CONTINUOUS
 10
12.2583155959
 20
209.9923674648
 40
3.2765918268
100
AcDbArc
 50
82.0444960652
 51
89.399877894
  0
ARC
  5
390
100
AcDbEntity
  8
0
100
AcDbCircle
 62
7
  6
CONTINUOUS
 10
11.870480297
 20
207.2265106654
 40
3.2704472374
100
AcDbArc
 50
254.1433442819
 51
262.0183289223
  0
ARC
  5
391
100
AcDbEntity
  8
0
100
AcDbCircle
 62
7
  6
CONTINUOUS
 10
26.0443993633
 20
242.0840086882
 40
1.5720958317
100
AcDbArc
 50
267.1303112893
 51
281.6571498466
  0
ARC
  5
392
100
AcDbEntity
  8
0
100
AcDbCircle
 62
7
  6
CONTINUOUS
 10
26.2275567135
 20
243.3307154085
 40
1.5720957539
100
AcDbArc
 50
87.1303109281
 51
101.657150215
  0
ARC
  5
393
100
AcDbEntity
  8
0
100
AcDbCircle
 62
7
  6
CONTINUOUS
 10
26.0442560356
 20
242.0527988113
 40
1.5409185706
100
AcDbArc
 50
252.3543146603
 51
267.0775353516
  0
ARC
  5
394
100
AcDbEntity
  8
0
100
AcDbCircle
 62
7
  6
CONTINUOUS
 10
26.227700064
 20
243.3619252998
 40
1.5409184772
100
AcDbArc
 50
72.354314989
 51
87.0775357989
  0
ARC
  5
395
100
AcDbEntity
  8
0
100
AcDbCircle
 62
7
  6
CONTINUOUS
 10
33.2903939422
 20
372.4392504447
 40
130.4484039076
100
AcDbArc
 50
265.3872875909
 51
266.7499338675
  0
ARC
  5
396
100
AcDbEntity
  8
0
100
AcDbCircle
 62
7
  6
CONTINUOUS
 10
33.3677297715
 20
373.4354294033
 40
130.4483992461
100
AcDbArc
 50
265.3872875666
 51
266.7499338918
  0
ARC
  5
397
100
AcDbEntity
  8
0
100
AcDbCircle
 62
7
  6
CONTINUOUS
 10
-35.9959510451
 20
337.8447864462
 40
94.7995370676
100
AcDbArc
 50
302.24302691
 51
309.7056873917
  0
ARC
  5
398
100
AcDbEntity
  8
0
100
AcDbCircle
 62
7
  6
CONTINUOUS
 10
-31.0149706746
 20
332.0904534304
 40
70.7269377253
100
AcDbArc
 50
314.1998194127
 51
315.5684500778
  0
ARC
  5
399
100
AcDbEntity
  8
0
100
AcDbCircle
 62
7
  6
CONTINUOUS
 10
-31.3396534342
 20
330.3996358626
 40
69.5533035993
100
AcDbArc
 50
296.4709934288
 51
298.5369523257
  0
ARC
  5
39A
100
AcDbEntity
  8
0
100
AcDbCircle
 62
7
  6
CONTINUOUS
 10
-28.3528974065
 20
329.5297013568
 40
67.0333226058
100
AcDbArc
 50
315.5385329743
 51
318.8439037564
  0
ARC
  5
39B
100
AcDbEntity
  8
0
100
AcDbCircle
 62
7
  6
CONTINUOUS
 10
21.2967013837
 20
291.8039336848
 40
43.5403137255
100
AcDbArc
 50
92.6511034792
 51
95.9153657479
  0
ARC
  5
39C
100
AcDbEntity
  8
0
100
AcDbCircle
 62
7
  6
CONTINUOUS
 10
-21.3531070379
 20
299.1401757714
 40
37.9820544615
100
AcDbArc
 50
277.7540626856
 51
277.979321962
  0
ARC
  5
39D
100
AcDbEntity
  8
0
100
AcDbCircle
 62
7
  6
CONTINUOUS
 10
-20.4080036847
 20
294.8386578213
 40
32.924278995
100
AcDbArc
 50
274.5109209102
 51
274.6615826183
  0
ARC
  5
39E
100
AcDbEntity
  8
0
100
AcDbCircle
 62
7
  6
CONTINUOUS
 10
24.0530060121
 20
315.1912917051
 40
19.789543058
100
AcDbArc
 50
64.1463686213
 51
69.6680450151
  0
ARC
  5
39F
100
AcDbEntity
  8
0
100
AcDbCircle
 62
7
  6
CONTINUOUS
 10
36.6379203916
 20
306.2046727009
 40
15.0733812914
100
AcDbArc
 50
37.9682705539
 51
47.5391519362
  0
ARC
  5
3A0
100
AcDbEntity
  8
0
100
AcDbCircle
 62
7
  6
CONTINUOUS
 10
20.2591269357
 20
304.4230592743
 40
9.4252690951
100
AcDbArc
 50
34.2375843166
 51
36.7540457674
  0
ARC
  5
3A1
100
AcDbEntity
  8
0
100
AcDbCircle
 62
7
  6
CONTINUOUS
 10
182.6656261961
 20
38.0285081213
 40
259.0248507928
100
AcDbArc
 50
127.0237636263
 51
127.227481846
  0
ARC
  5
3A2
100
AcDbEntity
  8
0
100
AcDbCircle
 62
7
  6
CONTINUOUS
 10
91.2160124223
 20
94.0463567491
 40
185.6298201229
100
AcDbArc
 50
133.8813703552
 51
134.1569247042
  0
ARC
  5
3A3
100
AcDbEntity
  8
0
100
AcDbCircle
 62
7
  6
CONTINUOUS
 10
101.099000702
 20
16.3264835086
 40
180.3873457102
100
AcDbArc
 50
134.4004347823
 51
134.6836648022
  0
ARC
  5
3A4
100
AcDbEntity
  8
0
100
AcDbCircle
 62
7
  6
CONTINUOUS
 10
309.787802488
 20
528.4609103641
 40
511.5862468111
100
AcDbArc
 50
229.102757822
 51
229.2217967081
  0
ARC
  5
3A5
100
AcDbEntity
  8
0
100
AcDbCircle
 62
7
  6
CONTINUOUS
 10
293.1260653368
 20
597.5903175243
 40
498.6403433151
100
AcDbArc
 50
228.4578248689
 51
228.57860792
  0
ARC
  5
3A6
100
AcDbEntity
  8
0
100
AcDbCircle
 62
7
  6
CONTINUOUS
 10
306.1498892401
 20
482.2505371424
 40
369.7338602178
100
AcDbArc
 50
220.6762046385
 51
220.8234407268
  0
ARC
  5
3A7
100
AcDbEntity
  8
0
100
AcDbCircle
 62
7
  6
CONTINUOUS
 10
3396.5266340187
 20
-17203.9481287329
 40
17766.6924196647
100
AcDbArc
 50
101.2745488126
 51
101.4604718405
  0
SPLINE
  5
3A8
100
AcDbEntity
  8
0
100
AcDbSpline
 62
7
  6
CONTINUOUS
 70
0
 71
3
 72
9
 73
5
 74
0
 42
0.0000001
 43
0.0000001
 44
0.0000000001
 40
0.0
 40
0.0
 40
0.0
 40
0.0
 40
0.2551744311
 40
1.0
 40
1.0
 40
1.0
 40
1.0
 10
-134.5961982901
 20
201.0617255548
 30
0.0
 10
-134.5292118473
 20
201.0734561042
 30
0.0
 10
-134.2657273339
 20
201.113584139
 30
0.0
 10
-133.9984466349
 20
201.1296870384
 30
0.0
 10
-133.7999708077
 20
201.1265058668
 30
0.0
  0
SPLINE
  5
3A9
100
AcDbEntity
  8
0
100
AcDbSpline
 62
7
  6
CONTINUOUS
 70
0
 71
3
 72
11
 73
7
 74
0
 42
0.0000001
 43
0.0000001
 44
0.0000000001
 40
0.0
 40
0.0
 40
0.0
 40
0.0
 40
0.2368398445
 40
0.4778252146
 40
0.7302581897
 40
1.0
 40
1.0
 40
1.0
 40
1.0
 10
-137.3479800937
 20
201.242291039
 30
0.0
 10
-137.244529438
 20
201.2815829517
 30
0.0
 10
-137.0265625809
 20
201.3386256349
 30
0.0
 10
-136.6832354957
 20
201.352462663
 30
0.0
 10
-136.3291534528
 20
201.2952193629
 30
0.0
 10
-136.0977786136
 20
201.2138549917
 30
0.0
 10
-135.9822739812
 20
201.163423628
 30
0.0
  0
SPLINE
  5
3AA
100
AcDbEntity
  8
0
100
AcDbSpline
 62
7
  6
CONTINUOUS
 70
0
 71
3
 72
9
 73
5
 74
0
 42
0.0000001
 43
0.0000001
 44
0.0000000001
 40
0.0
 40
0.0
 40
0.0
 40
0.0
 40
0.497026804
 40
1.0
 40
1.0
 40
1.0
 40
1.0
 10
-136.218823852
 20
201.5449903913
 30
0.0
 10
-136.314758079
 20
201.5294148848
 30
0.0
 10
-136.5052770749
 20
201.4798191005
 30
0.0
 10
-136.6829607379
 20
201.3952284574
 30
0.0
 10
-136.7676907753
 20
201.3452868218
 30
0.0
  0
SPLINE
  5
3AB
100
AcDbEntity
  8
0
100
AcDbSpline
 62
7
  6
CONTINUOUS
 70
0
 71
3
 72
13
 73
9
 74
0
 42
0.0000001
 43
0.0000001
 44
0.0000000001
 40
0.0
 40
0.0
 40
0.0
 40
0.0
 40
0.1002640038
 40
0.2035354407
 40
0.3125095691
 40
0.4293702053
 40
0.6923048981
 40
1.0
 40
1.0
 40
1.0
 40
1.0
 10
-138.7892336421
 20
200.071829754
 30
0.0
 10
-138.7892345222
 20
200.1064476239
 30
0.0
 10
-138.782406654
 20
200.1768960006
 30
0.0
 10
-138.7520036472
 20
200.280999653
 30
0.0
 10
-138.7018341613
 20
200.3835102057
 30
0.0
 10
-138.6054683287
 20
200.5226926561
 30
0.0
 10
-138.4329315895
 20
200.688853358
 30
0.0
 10
-138.2678456487
 20
200.7978380336
 30
0.0
 10
-138.1756987877
 20
200.8507082569
 30
0.0
  0
SPLINE
  5
3AC
100
AcDbEntity
  8
0
100
AcDbSpline
 62
7
  6
CONTINUOUS
 70
0
 71
3
 72
9
 73
5
 74
0
 42
0.0000001
 43
0.0000001
 44
0.0000000001
 40
0.0
 40
0.0
 40
0.0
 40
0.0
 40
0.2573414583
 40
1.0
 40
1.0
 40
1.0
 40
1.0
 10
-136.8026950027
 20
200.1236353335
 30
0.0
 10
-136.6926023227
 20
200.1993026139
 30
0.0
 10
-136.256304939
 20
200.4806205748
 30
0.0
 10
-135.7853505683
 20
200.7095340043
 30
0.0
 10
-135.4226445996
 20
200.8401920904
 30
0.0
  0
SPLINE
  5
3AD
100
AcDbEntity
  8
0
100
AcDbSpline
 62
7
  6
CONTINUOUS
 70
0
 71
3
 72
11
 73
7
 74
0
 42
0.0000001
 43
0.0000001
 44
0.0000000001
 40
0.0
 40
0.0
 40
0.0
 40
0.0
 40
0.2229204638
 40
0.4647808236
 40
0.7244628097
 40
1.0
 40
1.0
 40
1.0
 40
1.0
 10
-135.4226445996
 20
200.8401920904
 30
0.0
 10
-135.2776573894
 20
200.7360122288
 30
0.0
 10
-134.9908787757
 20
200.4967914566
 30
0.0
 10
-134.5908191829
 20
200.0751406841
 30
0.0
 10
-134.2090421594
 20
199.5825026619
 30
0.0
 10
-133.9768862988
 20
199.2214814695
 30
0.0
 10
-133.8647712762
 20
199.0314083878
 30
0.0
  0
SPLINE
  5
3AE
100
AcDbEntity
  8
0
100
AcDbSpline
 62
7
  6
CONTINUOUS
 70
0
 71
3
 72
9
 73
5
 74
0
 42
0.0000001
 43
0.0000001
 44
0.0000000001
 40
0.0
 40
0.0
 40
0.0
 40
0.0
 40
0.4725186584
 40
1.0
 40
1.0
 40
1.0
 40
1.0
 10
-137.3315183478
 20
200.4290878662
 30
0.0
 10
-137.3003076054
 20
200.3986138942
 30
0.0
 10
-137.228991276
 20
200.3394503927
 30
0.0
 10
-137.151139149
 20
200.2894916393
 30
0.0
 10
-137.1089725248
 20
200.2651369803
 30
0.0
  0
SPLINE
  5
3AF
100
AcDbEntity
  8
0
100
AcDbSpline
 62
7
  6
CONTINUOUS
 70
0
 71
3
 72
9
 73
5
 74
0
 42
0.0000001
 43
0.0000001
 44
0.0000000001
 40
0.0
 40
0.0
 40
0.0
 40
0.0
 40
0.4780449958
 40
1.0
 40
1.0
 40
1.0
 40
1.0
 10
-137.1089725248
 20
200.2651369803
 30
0.0
 10
-137.0623775274
 20
200.2382245751
 30
0.0
 10
-136.9619588275
 20
200.1869736977
 30
0.0
 10
-136.8577459078
 20
200.1441434198
 30
0.0
 10
-136.8026877893
 20
200.1236421505
 30
0.0
  0
SPLINE
  5
3B0
100
AcDbEntity
  8
0
100
AcDbSpline
 62
7
  6
CONTINUOUS
 70
0
 71
3
 72
9
 73
5
 74
0
 42
0.0000001
 43
0.0000001
 44
0.0000000001
 40
0.0
 40
0.0
 40
0.0
 40
0.0
 40
0.2579423273
 40
1.0
 40
1.0
 40
1.0
 40
1.0
 10
-134.1034317429
 20
199.4135963621
 30
0.0
 10
-134.0935807938
 20
199.4176027902
 30
0.0
 10
-134.0555315129
 20
199.4334779103
 30
0.0
 10
-134.0180599947
 20
199.4507543465
 30
0.0
 10
-133.9907169201
 20
199.4644777525
 30
0.0
  0
SPLINE
  5
3B1
100
AcDbEntity
  8
0
100
AcDbSpline
 62
7
  6
CONTINUOUS
 70
0
 71
3
 72
9
 73
5
 74
0
 42
0.0000001
 43
0.0000001
 44
0.0000000001
 40
0.0
 40
0.0
 40
0.0
 40
0.0
 40
0.5193920985
 40
1.0
 40
1.0
 40
1.0
 40
1.0
 10
-133.8241369191
 20
200.3501531018
 30
0.0
 10
-133.9444671173
 20
200.4867872057
 30
0.0
 10
-134.1885270606
 20
200.7393209117
 30
0.0
 10
-134.4593837748
 20
200.9634181436
 30
0.0
 10
-134.5961982901
 20
201.0617255548
 30
0.0
  0
SPLINE
  5
3B2
100
AcDbEntity
  8
0
100
AcDbSpline
 62
7
  6
CONTINUOUS
 70
0
 71
3
 72
16
 73
12
 74
0
 42
0.0000001
 43
0.0000001
 44
0.0000000001
 40
0.0
 40
0.0
 40
0.0
 40
0.0
 40
0.1315174144
 40
0.2678733115
 40
0.4056445782
 40
0.5413250409
 40
0.6715046539
 40
0.793030206
 40
0.9031863215
 40
0.9533646117
 40
1.0
 40
1.0
 40
1.0
 40
1.0
 10
-133.8696173983
 20
198.8130330159
 30
0.0
 10
-134.060031826
 20
198.7797890981
 30
0.0
 10
-134.4507198288
 20
198.7277327036
 30
0.0
 10
-135.0462242462
 20
198.6911363275
 30
0.0
 10
-135.6489878152
 20
198.6950870332
 30
0.0
 10
-136.2410279897
 20
198.7394698861
 30
0.0
 10
-136.8047987216
 20
198.8229048531
 30
0.0
 10
-137.3235492679
 20
198.9428449963
 30
0.0
 10
-137.7174672465
 20
199.073943372
 30
0.0
 10
-137.9962272054
 20
199.19614313
 30
0.0
 10
-138.1224456839
 20
199.2621817068
 30
0.0
 10
-138.1817982187
 20
199.2964626286
 30
0.0
  0
SPLINE
  5
3B3
100
AcDbEntity
  8
0
100
AcDbSpline
 62
7
  6
CONTINUOUS
 70
0
 71
3
 72
13
 73
9
 74
0
 42
0.0000001
 43
0.0000001
 44
0.0000000001
 40
0.0
 40
0.0
 40
0.0
 40
0.0
 40
0.307385416
 40
0.570201725
 40
0.6871006022
 40
0.796166256
 40
0.8995742423
 40
1.0
 40
1.0
 40
1.0
 40
1.0
 10
-138.1817982187
 20
199.2964626286
 30
0.0
 10
-138.2730772331
 20
199.3491836921
 30
0.0
 10
-138.4366089102
 20
199.457824943
 30
0.0
 10
-138.6073797828
 20
199.6232725197
 30
0.0
 10
-138.7027462157
 20
199.7617521566
 30
0.0
 10
-138.7523920938
 20
199.8637552813
 30
0.0
 10
-138.7824820554
 20
199.9673191278
 30
0.0
 10
-138.7892327666
 20
200.0373911416
 30
0.0
 10
-138.7892336421
 20
200.071829754
 30
0.0
  0
SPLINE
  5
3B4
100
AcDbEntity
  8
0
100
AcDbSpline
 62
7
  6
CONTINUOUS
 70
0
 71
3
 72
9
 73
5
 74
0
 42
0.0000001
 43
0.0000001
 44
0.0000000001
 40
0.0
 40
0.0
 40
0.0
 40
0.0
 40
0.4914464519
 40
1.0
 40
1.0
 40
1.0
 40
1.0
 10
-135.9822739812
 20
201.163423628
 30
0.0
 10
-136.2190113724
 20
201.0763097479
 30
0.0
 10
-136.6876255311
 20
200.8617910612
 30
0.0
 10
-137.1212504781
 20
200.5838865929
 30
0.0
 10
-137.3314592222
 20
200.4291192561
 30
0.0
  0
SPLINE
  5
3B5
100
AcDbEntity
  8
0
100
AcDbSpline
 62
7
  6
CONTINUOUS
 70
0
 71
3
 72
9
 73
5
 74
0
 42
0.0000001
 43
0.0000001
 44
0.0000000001
 40
0.0
 40
0.0
 40
0.0
 40
0.0
 40
0.4932955879
 40
1.0
 40
1.0
 40
1.0
 40
1.0
 10
-133.7919598453
 20
201.3851313387
 30
0.0
 10
-134.0135676686
 20
201.4246054883
 30
0.0
 10
-134.4709321833
 20
201.4636737859
 30
0.0
 10
-134.9278440224
 20
201.4234755244
 30
0.0
 10
-135.1558276718
 20
201.3849570924
 30
0.0
  0
SPLINE
  5
3B6
100
AcDbEntity
  8
0
100
AcDbSpline
 62
7
  6
CONTINUOUS
 70
0
 71
3
 72
11
 73
7
 74
0
 42
0.0000001
 43
0.0000001
 44
0.0000000001
 40
0.0
 40
0.0
 40
0.0
 40
0.0
 40
0.2676153437
 40
0.5213548691
 40
0.7642307069
 40
1.0
 40
1.0
 40
1.0
 40
1.0
 10
-135.1558276718
 20
201.3849570924
 30
0.0
 10
-135.2448600328
 20
201.4238301946
 30
0.0
 10
-135.4228541093
 20
201.4897915073
 30
0.0
 10
-135.6942241713
 20
201.5514930071
 30
0.0
 10
-135.9602397435
 20
201.5724111257
 30
0.0
 10
-136.1343419487
 20
201.5587065432
 30
0.0
 10
-136.218823852
 20
201.5449903913
 30
0.0
  0
SPLINE
  5
3B7
100
AcDbEntity
  8
0
100
AcDbSpline
 62
7
  6
CONTINUOUS
 70
0
 71
3
 72
13
 73
9
 74
0
 42
0.0000001
 43
0.0000001
 44
0.0000000001
 40
0.0
 40
0.0
 40
0.0
 40
0.0
 40
0.1002640038
 40
0.2035354407
 40
0.3125095691
 40
0.4293702053
 40
0.6923048981
 40
1.0
 40
1.0
 40
1.0
 40
1.0
 10
-66.7232445956
 20
158.4478528693
 30
0.0
 10
-66.7232454757
 20
158.4824707392
 30
0.0
 10
-66.7164176074
 20
158.552919116
 30
0.0
 10
-66.6860146007
 20
158.6570227684
 30
0.0
 10
-66.6358451148
 20
158.7595333211
 30
0.0
 10
-66.5394792822
 20
158.8987157714
 30
0.0
 10
-66.366942543
 20
159.0648764734
 30
0.0
 10
-66.2018566022
 20
159.1738611489
 30
0.0
 10
-66.1097097412
 20
159.2267313722
 30
0.0
  0
SPLINE
  5
3B8
100
AcDbEntity
  8
0
100
AcDbSpline
 62
7
  6
CONTINUOUS
 70
0
 71
3
 72
9
 73
5
 74
0
 42
0.0000001
 43
0.0000001
 44
0.0000000001
 40
0.0
 40
0.0
 40
0.0
 40
0.0
 40
0.5239488175
 40
1.0
 40
1.0
 40
1.0
 40
1.0
 10
-65.5697467658
 20
157.4260294608
 30
0.0
 10
-65.6684346458
 20
157.4611166281
 30
0.0
 10
-65.8544849505
 20
157.5348576752
 30
0.0
 10
-66.0334023229
 20
157.6248890782
 30
0.0
 10
-66.1158091722
 20
157.6724857439
 30
0.0
  0
SPLINE
  5
3B9
100
AcDbEntity
  8
0
100
AcDbSpline
 62
7
  6
CONTINUOUS
 70
0
 71
3
 72
13
 73
9
 74
0
 42
0.0000001
 43
0.0000001
 44
0.0000000001
 40
0.0
 40
0.0
 40
0.0
 40
0.0
 40
0.307385416
 40
0.570201725
 40
0.6871006022
 40
0.796166256
 40
0.8995742423
 40
1.0
 40
1.0
 40
1.0
 40
1.0
 10
-66.1158091722
 20
157.6724857439
 30
0.0
 10
-66.2070881866
 20
157.7252068075
 30
0.0
 10
-66.3706198637
 20
157.8338480583
 30
0.0
 10
-66.5413907363
 20
157.999295635
 30
0.0
 10
-66.6367571692
 20
158.137775272
 30
0.0
 10
-66.6864030473
 20
158.2397783966
 30
0.0
 10
-66.7164930089
 20
158.3433422431
 30
0.0
 10
-66.7232437201
 20
158.4134142569
 30
0.0
 10
-66.7232445956
 20
158.4478528693
 30
0.0
  0
SPLINE
  5
3BA
100
AcDbEntity
  8
0
100
AcDbSpline
 62
7
  6
CONTINUOUS
 70
0
 71
3
 72
27
 73
23
 74
0
 42
0.0000001
 43
0.0000001
 44
0.0000000001
 40
0.0
 40
0.0
 40
0.0
 40
0.0
 40
0.0570006949
 40
0.1151596406
 40
0.1750914027
 40
0.2371085811
 40
0.3012065995
 40
0.3670931636
 40
0.4005797846
 40
0.4343042388
 40
0.5020559056
 40
0.5696637691
 40
0.6032126956
 40
0.6364609684
 40
0.7017102319
 40
0.7650278404
 40
0.8262262277
 40
0.8854221849
 40
0.9144372148
 40
0.9431383913
 40
0.971621419
 40
1.0
 40
1.0
 40
1.0
 40
1.0
 10
25.1200631207
 20
246.3741964034
 30
0.0
 10
24.932494499
 20
246.3837646087
 30
0.0
 10
24.5499707071
 20
246.359100893
 30
0.0
 10
23.992730047
 20
246.1936437583
 30
0.0
 10
23.4683702634
 20
245.9068493452
 30
0.0
 10
22.9961280027
 20
245.5101533848
 30
0.0
 10
22.5925037712
 20
245.0187150514
 30
0.0
 10
22.3262679322
 20
244.5473021597
 30
0.0
 10
22.1591278853
 20
244.1414159495
 30
0.0
 10
22.0237091178
 20
243.7173872038
 30
0.0
 10
21.918964303
 20
243.1676290348
 30
0.0
 10
21.9029982261
 20
242.6087615201
 30
0.0
 10
21.9443637262
 20
242.1673953752
 30
0.0
 10
22.0205903932
 20
241.7386232875
 30
0.0
 10
22.1796926238
 20
241.2267666405
 30
0.0
 10
22.4693753573
 20
240.668747222
 30
0.0
 10
22.8467969062
 20
240.1906497299
 30
0.0
 10
23.2268074751
 20
239.8714205886
 30
0.0
 10
23.55876111
 20
239.6746716318
 30
0.0
 10
23.8181725306
 20
239.5575101459
 30
0.0
 10
24.0871111621
 20
239.4710395512
 30
0.0
 10
24.2713366636
 20
239.4343594365
 30
0.0
 10
24.3639379489
 20
239.4213904257
 30
0.0
  0
SPLINE
  5
3BB
100
AcDbEntity
  8
0
100
AcDbSpline
 62
7
  6
CONTINUOUS
 70
0
 71
3
 72
16
 73
12
 74
0
 42
0.0000001
 43
0.0000001
 44
0.0000000001
 40
0.0
 40
0.0
 40
0.0
 40
0.0
 40
0.1153286275
 40
0.173495585
 40
0.2321685113
 40
0.3514259016
 40
0.4740690524
 40
0.6004915383
 40
0.7306441964
 40
0.8640695913
 40
1.0
 40
1.0
 40
1.0
 40
1.0
 10
26.2185244877
 20
246.2299547422
 30
0.0
 10
26.3819832
 20
246.2070630683
 30
0.0
 10
26.6252646452
 20
246.1472910614
 30
0.0
 10
26.9327777958
 20
246.0204346465
 30
0.0
 10
27.2314366794
 20
245.86132441
 30
0.0
 10
27.5798462891
 20
245.6042742614
 30
0.0
 10
27.9414346835
 20
245.2169681228
 30
0.0
 10
28.2394075663
 20
244.7602980786
 30
0.0
 10
28.465579441
 20
244.2474559049
 30
0.0
 10
28.6139411969
 20
243.693142556
 30
0.0
 10
28.6580371984
 20
243.3085760572
 30
0.0
 10
28.6664285451
 20
243.1142187804
 30
0.0
  0
SPLINE
  5
3BC
100
AcDbEntity
  8
0
100
AcDbSpline
 62
7
  6
CONTINUOUS
 70
0
 71
3
 72
11
 73
7
 74
0
 42
0.0000001
 43
0.0000001
 44
0.0000000001
 40
0.0
 40
0.0
 40
0.0
 40
0.0
 40
0.1871500619
 40
0.4186736903
 40
0.6910241634
 40
1.0
 40
1.0
 40
1.0
 40
1.0
 10
28.5441648934
 20
243.1112203328
 30
0.0
 10
28.4354941015
 20
243.1094161609
 30
0.0
 10
28.1923222304
 20
243.1095277433
 30
0.0
 10
27.7910771114
 20
243.1170726263
 30
0.0
 10
27.3192506853
 20
243.1321473654
 30
0.0
 10
26.9819417902
 20
243.1462787848
 30
0.0
 10
26.8026939391
 20
243.1544724354
 30
0.0
  0
SPLINE
  5
3BD
100
AcDbEntity
  8
0
100
AcDbSpline
 62
7
  6
CONTINUOUS
 70
0
 71
3
 72
9
 73
5
 74
0
 42
0.0000001
 43
0.0000001
 44
0.0000000001
 40
0.0
 40
0.0
 40
0.0
 40
0.0
 40
0.4947648577
 40
1.0
 40
1.0
 40
1.0
 40
1.0
 10
25.9099036181
 20
244.8703961797
 30
0.0
 10
25.9409952101
 20
244.5957672457
 30
0.0
 10
25.9819477037
 20
244.0380512267
 30
0.0
 10
25.982064935
 20
243.4788987618
 30
0.0
 10
25.9720961151
 20
243.1968426915
 30
0.0
  0
SPLINE
  5
3BE
100
AcDbEntity
  8
0
100
AcDbSpline
 62
7
  6
CONTINUOUS
 70
0
 71
3
 72
15
 73
11
 74
0
 42
0.0000001
 43
0.0000001
 44
0.0000000001
 40
0.0
 40
0.0
 40
0.0
 40
0.0
 40
0.1353405239
 40
0.268926314
 40
0.3997016838
 40
0.5268944891
 40
0.6501433863
 40
0.7695727113
 40
0.8858193774
 40
1.0
 40
1.0
 40
1.0
 40
1.0
 10
28.5890923962
 20
242.1180351709
 30
0.0
 10
28.5484857025
 20
241.9149420277
 30
0.0
 10
28.4376243984
 20
241.5167212731
 30
0.0
 10
28.1856418977
 20
240.9568436983
 30
0.0
 10
27.8560907686
 20
240.453297288
 30
0.0
 10
27.4589754823
 20
240.0221267685
 30
0.0
 10
27.0063970391
 20
239.6770892725
 30
0.0
 10
26.5121578018
 20
239.4296165969
 30
0.0
 10
25.9920886324
 20
239.2882585243
 30
0.0
 10
25.6369038626
 20
239.2682455137
 30
0.0
 10
25.4623991137
 20
239.2771473079
 30
0.0
  0
SPLINE
  5
3BF
100
AcDbEntity
  8
0
100
AcDbSpline
 62
7
  6
CONTINUOUS
 70
0
 71
3
 72
9
 73
5
 74
0
 42
0.0000001
 43
0.0000001
 44
0.0000000001
 40
0.0
 40
0.0
 40
0.0
 40
0.0
 40
0.5078680221
 40
1.0
 40
1.0
 40
1.0
 40
1.0
 10
25.8947599662
 20
242.200659082
 30
0.0
 10
25.8613873629
 20
241.9236190165
 30
0.0
 10
25.7761223079
 20
241.3802815725
 30
0.0
 10
25.6500929317
 20
240.8448232003
 30
0.0
 10
25.5771886159
 20
240.5844399659
 30
0.0
  0
SPLINE
  5
3C0
100
AcDbEntity
  8
0
100
AcDbSpline
 62
7
  6
CONTINUOUS
 70
0
 71
3
 72
9
 73
5
 74
0
 42
0.0000001
 43
0.0000001
 44
0.0000000001
 40
0.0
 40
0.0
 40
0.0
 40
0.0
 40
0.5019394255
 40
1.0
 40
1.0
 40
1.0
 40
1.0
 10
24.3206816089
 20
243.3019832829
 30
0.0
 10
24.271335237
 20
243.148871465
 30
0.0
 10
24.2106679223
 20
242.8305082738
 30
0.0
 10
24.228857962
 20
242.5067739475
 30
0.0
 10
24.2581323541
 20
242.3498571295
 30
0.0
  0
SPLINE
  5
3C1
100
AcDbEntity
  8
0
100
AcDbSpline
 62
7
  6
CONTINUOUS
 70
0
 71
3
 72
16
 73
12
 74
0
 42
0.0000001
 43
0.0000001
 44
0.0000000001
 40
0.0
 40
0.0
 40
0.0
 40
0.0
 40
0.1153286275
 40
0.173495585
 40
0.2321685113
 40
0.3514259016
 40
0.4740690524
 40
0.6004915383
 40
0.7306441964
 40
0.8640695913
 40
1.0
 40
1.0
 40
1.0
 40
1.0
 10
25.2476267825
 20
239.2976251399
 30
0.0
 10
25.0841680702
 20
239.3205168137
 30
0.0
 10
24.840886625
 20
239.3802888206
 30
0.0
 10
24.5333734744
 20
239.5071452356
 30
0.0
 10
24.2347145908
 20
239.666255472
 30
0.0
 10
23.886304981
 20
239.9233056207
 30
0.0
 10
23.5247165866
 20
240.3106117593
 30
0.0
 10
23.2267437039
 20
240.7672818035
 30
0.0
 10
23.0005718292
 20
241.2801239772
 30
0.0
 10
22.8522100733
 20
241.834437326
 30
0.0
 10
22.8081140718
 20
242.2190038249
 30
0.0
 10
22.799722725
 20
242.4133611016
 30
0.0
  0
SPLINE
  5
3C2
100
AcDbEntity
  8
0
100
AcDbSpline
 62
7
  6
CONTINUOUS
 70
0
 71
3
 72
9
 73
5
 74
0
 42
0.0000001
 43
0.0000001
 44
0.0000000001
 40
0.0
 40
0.0
 40
0.0
 40
0.0
 40
0.4934180243
 40
1.0
 40
1.0
 40
1.0
 40
1.0
 10
26.3620480577
 20
240.5443284549
 30
0.0
 10
26.4471652913
 20
240.8030809398
 30
0.0
 10
26.5932075975
 20
241.3364736821
 30
0.0
 10
26.6891086394
 20
241.8809881508
 30
0.0
 10
26.7253577901
 20
242.158288826
 30
0.0
  0
SPLINE
  5
3C3
100
AcDbEntity
  8
0
100
AcDbSpline
 62
7
  6
CONTINUOUS
 70
0
 71
3
 72
11
 73
7
 74
0
 42
0.0000001
 43
0.0000001
 44
0.0000000001
 40
0.0
 40
0.0
 40
0.0
 40
0.0
 40
0.3197074561
 40
0.5963119193
 40
0.8245181485
 40
1.0
 40
1.0
 40
1.0
 40
1.0
 10
26.7253577901
 20
242.158288826
 30
0.0
 10
26.9238501138
 20
242.1492154856
 30
0.0
 10
27.2941474445
 20
242.1338498564
 30
0.0
 10
27.8063753951
 20
242.1183828774
 30
0.0
 10
28.2291447303
 20
242.1122546004
 30
0.0
 10
28.4800914311
 20
242.1143647903
 30
0.0
 10
28.5890923962
 20
242.1180351709
 30
0.0
  0
SPLINE
  5
3C4
100
AcDbEntity
  8
0
100
AcDbSpline
 62
7
  6
CONTINUOUS
 70
0
 71
3
 72
15
 73
11
 74
0
 42
0.0000001
 43
0.0000001
 44
0.0000000001
 40
0.0
 40
0.0
 40
0.0
 40
0.0
 40
0.1353405239
 40
0.268926314
 40
0.3997016838
 40
0.5268944891
 40
0.6501433863
 40
0.7695727113
 40
0.8858193774
 40
1.0
 40
1.0
 40
1.0
 40
1.0
 10
22.877058874
 20
243.4095447111
 30
0.0
 10
22.9176655677
 20
243.6126378544
 30
0.0
 10
23.0285268717
 20
244.010858609
 30
0.0
 10
23.2805093725
 20
244.5707361837
 30
0.0
 10
23.6100605016
 20
245.074282594
 30
0.0
 10
24.0071757879
 20
245.5054531135
 30
0.0
 10
24.4597542311
 20
245.8504906096
 30
0.0
 10
24.9539934683
 20
246.0979632852
 30
0.0
 10
25.4740626378
 20
246.2393213578
 30
0.0
 10
25.8292474075
 20
246.2593343684
 30
0.0
 10
26.0037521565
 20
246.2504325741
 30
0.0
  0
SPLINE
  5
3C5
100
AcDbEntity
  8
0
100
AcDbSpline
 62
7
  6
CONTINUOUS
 70
0
 71
3
 72
9
 73
5
 74
0
 42
0.0000001
 43
0.0000001
 44
0.0000000001
 40
0.0
 40
0.0
 40
0.0
 40
0.0
 40
0.5042321205
 40
1.0
 40
1.0
 40
1.0
 40
1.0
 10
26.8026939391
 20
243.1544724354
 30
0.0
 10
26.8098305004
 20
243.4369219187
 30
0.0
 10
26.7992719275
 20
243.9979858712
 30
0.0
 10
26.7382189241
 20
244.5558984734
 30
0.0
 10
26.6947944435
 20
244.8302802864
 30
0.0
  0
LINE
  5
3C6
100
AcDbEntity
  8
0
100
AcDbLine
 62
7
  6
CONTINUOUS
 10
26.8860321958
 20
242.2158033359
 11
26.1487274247
 21
242.2873111636
  0
SPLINE
  5
3C7
100
AcDbEntity
  8
0
100
AcDbSpline
 62
7
  6
CONTINUOUS
 70
0
 71
3
 72
9
 73
5
 74
0
 42
0.0000001
 43
0.0000001
 44
0.0000000001
 40
0.0
 40
0.0
 40
0.0
 40
0.0
 40
0.5011382092
 40
1.0
 40
1.0
 40
1.0
 40
1.0
 10
26.8860321958
 20
242.2158033359
 30
0.0
 10
26.9379548858
 20
242.3645306359
 30
0.0
 10
27.0054895263
 20
242.6750258371
 30
0.0
 10
26.9975297595
 20
242.99276298
 30
0.0
 10
26.9741773343
 20
243.147829097
 30
0.0
  0
SPLINE
  5
3C8
100
AcDbEntity
  8
0
100
AcDbSpline
 62
7
  6
CONTINUOUS
 70
0
 71
3
 72
9
 73
5
 74
0
 42
0.0000001
 43
0.0000001
 44
0.0000000001
 40
0.0
 40
0.0
 40
0.0
 40
0.0
 40
0.4985511435
 40
1.0
 40
1.0
 40
1.0
 40
1.0
 10
26.2400774673
 20
243.2298434732
 30
0.0
 10
26.2772429461
 20
243.0747493617
 30
0.0
 10
26.2980043859
 20
242.7489531806
 30
0.0
 10
26.2148184625
 20
242.4334753371
 30
0.0
 10
26.1487274247
 20
242.2873111636
 30
0.0
  0
SPLINE
  5
3C9
100
AcDbEntity
  8
0
100
AcDbSpline
 62
7
  6
CONTINUOUS
 70
0
 71
3
 72
24
 73
20
 74
0
 42
0.0000001
 43
0.0000001
 44
0.0000000001
 40
0.0
 40
0.0
 40
0.0
 40
0.0
 40
0.0585511384
 40
0.1188566366
 40
0.1810585756
 40
0.24506605
 40
0.3105931761
 40
0.377198896
 40
0.4443386159
 40
0.5114179548
 40
0.577847711
 40
0.6430997931
 40
0.7067606816
 40
0.7685806243
 40
0.8285148461
 40
0.8867473532
 40
0.9153807437
 40
0.9437590347
 40
1.0
 40
1.0
 40
1.0
 40
1.0
 10
-27.0244568621
 20
146.5641221285
 30
0.0
 10
-27.1915451967
 20
146.5112139971
 30
0.0
 10
-27.5208315947
 20
146.3698835475
 30
0.0
 10
-27.973341568
 20
146.0666572321
 30
0.0
 10
-28.3785748691
 20
145.6787357392
 30
0.0
 10
-28.7246740994
 20
145.2178919977
 30
0.0
 10
-29.0018551188
 20
144.6977783287
 30
0.0
 10
-29.2021998993
 20
144.1336728753
 30
0.0
 10
-29.319978532
 20
143.5420606843
 30
0.0
 10
-29.3517791367
 20
142.9401990427
 30
0.0
 10
-29.2966276512
 20
142.3456385514
 30
0.0
 10
-29.1560072514
 20
141.7757287839
 30
0.0
 10
-28.9338081481
 20
141.2471572712
 30
0.0
 10
-28.6361639514
 20
140.7755055953
 30
0.0
 10
-28.2715481799
 20
140.3749640026
 30
0.0
 10
-27.9180799653
 20
140.1089399138
 30
0.0
 10
-27.6142732737
 20
139.9443978021
 30
0.0
 10
-27.3011602176
 20
139.8134055438
 30
0.0
 10
-27.0530245308
 20
139.751887731
 30
0.0
 10
-26.8863012563
 20
139.7285431044
 30
0.0
  0
SPLINE
  5
3CA
100
AcDbEntity
  8
0
100
AcDbSpline
 62
7
  6
CONTINUOUS
 70
0
 71
3
 72
9
 73
5
 74
0
 42
0.0000001
 43
0.0000001
 44
0.0000000001
 40
0.0
 40
0.0
 40
0.0
 40
0.0
 40
0.2418216274
 40
1.0
 40
1.0
 40
1.0
 40
1.0
 10
-22.7654705432
 20
144.4518176119
 30
0.0
 10
-22.7731440262
 20
144.4459291545
 30
0.0
 10
-22.8050485879
 20
144.4218039407
 30
0.0
 10
-22.8376092257
 20
144.3985505413
 30
0.0
 10
-22.8625837392
 20
144.3813479339
 30
0.0
  0
SPLINE
  5
3CB
100
AcDbEntity
  8
0
100
AcDbSpline
 62
7
  6
CONTINUOUS
 70
0
 71
3
 72
12
 73
8
 74
0
 42
0.0000001
 43
0.0000001
 44
0.0000000001
 40
0.0
 40
0.0
 40
0.0
 40
0.0
 40
0.0929881752
 40
0.1957133695
 40
0.4294626513
 40
0.6987459787
 40
1.0
 40
1.0
 40
1.0
 40
1.0
 10
-22.8625837392
 20
144.3813479339
 30
0.0
 10
-22.9109924374
 20
144.3480037077
 30
0.0
 10
-23.0151822022
 20
144.2811437048
 30
0.0
 10
-23.2508247982
 20
144.1461711109
 30
0.0
 10
-23.5949592694
 20
143.9773797366
 30
0.0
 10
-24.0640584435
 20
143.7808399544
 30
0.0
 10
-24.4029771926
 20
143.6571298191
 30
0.0
 10
-24.5830329817
 20
143.5951219692
 30
0.0
  0
SPLINE
  5
3CC
100
AcDbEntity
  8
0
100
AcDbSpline
 62
7
  6
CONTINUOUS
 70
0
 71
3
 72
11
 73
7
 74
0
 42
0.0000001
 43
0.0000001
 44
0.0000000001
 40
0.0
 40
0.0
 40
0.0
 40
0.0
 40
0.2383577754
 40
0.4875582421
 40
0.7430163785
 40
1.0
 40
1.0
 40
1.0
 40
1.0
 10
-25.3981630637
 20
143.33701293
 30
0.0
 10
-25.6366124203
 20
143.26740538
 30
0.0
 10
-26.1269298766
 20
143.1337329537
 30
0.0
 10
-26.8800577922
 20
142.9533296977
 30
0.0
 10
-27.6571023056
 20
142.790898684
 30
0.0
 10
-28.1827922863
 20
142.696386565
 30
0.0
 10
-28.4470281374
 20
142.6527656517
 30
0.0
  0
SPLINE
  5
3CD
100
AcDbEntity
  8
0
100
AcDbSpline
 62
7
  6
CONTINUOUS
 70
0
 71
3
 72
15
 73
11
 74
0
 42
0.0000001
 43
0.0000001
 44
0.0000000001
 40
0.0
 40
0.0
 40
0.0
 40
0.0
 40
0.1180061053
 40
0.2368683847
 40
0.3573677477
 40
0.4801449463
 40
0.6056553858
 40
0.7341458879
 40
0.8656494786
 40
1.0
 40
1.0
 40
1.0
 40
1.0
 10
-25.0317133121
 20
146.5371174242
 30
0.0
 10
-24.905257781
 20
146.5194093932
 30
0.0
 10
-24.6537894844
 20
146.4637878106
 30
0.0
 10
-24.2924267263
 20
146.3220688804
 30
0.0
 10
-23.9523069261
 20
146.1244753503
 30
0.0
 10
-23.6394054707
 20
145.874591121
 30
0.0
 10
-23.3589948544
 20
145.5768564799
 30
0.0
 10
-23.1157748655
 20
145.2364622633
 30
0.0
 10
-22.9138031312
 20
144.8593621408
 30
0.0
 10
-22.8098413437
 20
144.5902557324
 30
0.0
 10
-22.7654705432
 20
144.4518176119
 30
0.0
  0
SPLINE
  5
3CE
100
AcDbEntity
  8
0
100
AcDbSpline
 62
7
  6
CONTINUOUS
 70
0
 71
3
 72
9
 73
5
 74
0
 42
0.0000001
 43
0.0000001
 44
0.0000000001
 40
0.0
 40
0.0
 40
0.0
 40
0.0
 40
0.4962770358
 40
1.0
 40
1.0
 40
1.0
 40
1.0
 10
-25.9154026673
 20
146.6608789285
 30
0.0
 10
-26.0989325863
 20
146.6865768248
 30
0.0
 10
-26.4758860843
 20
146.6960325826
 30
0.0
 10
-26.8451314796
 20
146.6209050926
 30
0.0
 10
-27.0244568621
 20
146.5641221285
 30
0.0
  0
SPLINE
  5
3CF
100
AcDbEntity
  8
0
100
AcDbSpline
 62
7
  6
CONTINUOUS
 70
0
 71
3
 72
15
 73
11
 74
0
 42
0.0000001
 43
0.0000001
 44
0.0000000001
 40
0.0
 40
0.0
 40
0.0
 40
0.0
 40
0.1307599607
 40
0.2619220035
 40
0.3922488606
 40
0.5205725421
 40
0.6459342057
 40
0.7676938412
 40
0.8856258074
 40
1.0
 40
1.0
 40
1.0
 40
1.0
 10
-22.5872977145
 20
143.4891287228
 30
0.0
 10
-22.5749286351
 20
143.2822773158
 30
0.0
 10
-22.5816877559
 20
142.8654089538
 30
0.0
 10
-22.6841446446
 20
142.2500900706
 30
0.0
 10
-22.8757311816
 20
141.6603082493
 30
0.0
 10
-23.1506321042
 20
141.1146351362
 30
0.0
 10
-23.5004485803
 20
140.6301120395
 30
0.0
 10
-23.9146635027
 20
140.2220650864
 30
0.0
 10
-24.3803657974
 20
139.9037183287
 30
0.0
 10
-24.7207603064
 20
139.75625207
 30
0.0
 10
-24.8935580257
 20
139.7015360752
 30
0.0
  0
SPLINE
  5
3D0
100
AcDbEntity
  8
0
100
AcDbSpline
 62
7
  6
CONTINUOUS
 70
0
 71
3
 72
9
 73
5
 74
0
 42
0.0000001
 43
0.0000001
 44
0.0000000001
 40
0.0
 40
0.0
 40
0.0
 40
0.0
 40
0.5037203558
 40
1.0
 40
1.0
 40
1.0
 40
1.0
 10
-24.8935580257
 20
139.7015360752
 30
0.0
 10
-25.0728825166
 20
139.6447533934
 30
0.0
 10
-25.4421277346
 20
139.5696283557
 30
0.0
 10
-25.8190819574
 20
139.5790764909
 30
0.0
 10
-26.0026125398
 20
139.6047769503
 30
0.0
  0
SPLINE
  5
3D1
100
AcDbEntity
  8
0
100
AcDbSpline
 62
7
  6
CONTINUOUS
 70
0
 71
3
 72
9
 73
5
 74
0
 42
0.0000001
 43
0.0000001
 44
0.0000000001
 40
0.0
 40
0.0
 40
0.0
 40
0.0
 40
0.5139098366
 40
1.0
 40
1.0
 40
1.0
 40
1.0
 10
-25.219990235
 20
142.3743240408
 30
0.0
 10
-25.1823138451
 20
142.1102229633
 30
0.0
 10
-25.1268906362
 20
141.5935649691
 30
0.0
 10
-25.1118277129
 20
141.0739760247
 30
0.0
 10
-25.1161038808
 20
140.8216787108
 30
0.0
  0
SPLINE
  5
3D2
100
AcDbEntity
  8
0
100
AcDbSpline
 62
7
  6
CONTINUOUS
 70
0
 71
3
 72
9
 73
5
 74
0
 42
0.0000001
 43
0.0000001
 44
0.0000000001
 40
0.0
 40
0.0
 40
0.0
 40
0.0
 40
0.2475366593
 40
1.0
 40
1.0
 40
1.0
 40
1.0
 10
-22.8612180607
 20
144.3824328386
 30
0.0
 10
-22.8404957692
 20
144.3119587001
 30
0.0
 10
-22.7651017014
 20
144.0248604057
 30
0.0
 10
-22.7229516554
 20
143.7291594677
 30
0.0
 10
-22.7096230002
 20
143.5062608192
 30
0.0
  0
SPLINE
  5
3D3
100
AcDbEntity
  8
0
100
AcDbSpline
 62
7
  6
CONTINUOUS
 70
0
 71
3
 72
9
 73
5
 74
0
 42
0.0000001
 43
0.0000001
 44
0.0000000001
 40
0.0
 40
0.0
 40
0.0
 40
0.0
 40
0.2530791576
 40
1.0
 40
1.0
 40
1.0
 40
1.0
 10
-27.0224853901
 20
142.9259887385
 30
0.0
 10
-27.0207844131
 20
142.8850192595
 30
0.0
 10
-27.0089212983
 20
142.7234011708
 30
0.0
 10
-26.9762921184
 20
142.5632161456
 30
0.0
 10
-26.9400881747
 20
142.4477396987
 30
0.0
  0
SPLINE
  5
3D4
100
AcDbEntity
  8
0
100
AcDbSpline
 62
7
  6
CONTINUOUS
 70
0
 71
3
 72
9
 73
5
 74
0
 42
0.0000001
 43
0.0000001
 44
0.0000000001
 40
0.0
 40
0.0
 40
0.0
 40
0.0
 40
0.507625849
 40
1.0
 40
1.0
 40
1.0
 40
1.0
 10
-26.2958865244
 20
142.5829263115
 30
0.0
 10
-26.3938242941
 20
142.5474953533
 30
0.0
 10
-26.5856183284
 20
142.4745697639
 30
0.0
 10
-26.776615238
 20
142.3996442898
 30
0.0
 10
-26.8705829507
 20
142.3625604504
 30
0.0
  0
SPLINE
  5
3D5
100
AcDbEntity
  8
0
100
AcDbSpline
 62
7
  6
CONTINUOUS
 70
0
 71
3
 72
9
 73
5
 74
0
 42
0.0000001
 43
0.0000001
 44
0.0000000001
 40
0.0
 40
0.0
 40
0.0
 40
0.0
 40
0.4970926331
 40
1.0
 40
1.0
 40
1.0
 40
1.0
 10
-25.1124020761
 20
145.2074207395
 30
0.0
 10
-25.1788506427
 20
145.2035916946
 30
0.0
 10
-25.3121609895
 20
145.1873268328
 30
0.0
 10
-25.4423799699
 20
145.1545730706
 30
0.0
 10
-25.5065758777
 20
145.1342455862
 30
0.0
  0
SPLINE
  5
3D6
100
AcDbEntity
  8
0
100
AcDbSpline
 62
7
  6
CONTINUOUS
 70
0
 71
3
 72
9
 73
5
 74
0
 42
0.0000001
 43
0.0000001
 44
0.0000000001
 40
0.0
 40
0.0
 40
0.0
 40
0.0
 40
0.2470036979
 40
1.0
 40
1.0
 40
1.0
 40
1.0
 10
-25.5065758777
 20
145.1342455862
 30
0.0
 10
-25.5390389952
 20
145.1239662157
 30
0.0
 10
-25.6691816545
 20
145.0783629286
 30
0.0
 10
-25.793721032
 20
145.0170227733
 30
0.0
 10
-25.8826779514
 20
144.9635190588
 30
0.0
  0
SPLINE
  5
3D7
100
AcDbEntity
  8
0
100
AcDbSpline
 62
7
  6
CONTINUOUS
 70
0
 71
3
 72
15
 73
11
 74
0
 42
0.0000001
 43
0.0000001
 44
0.0000000001
 40
0.0
 40
0.0
 40
0.0
 40
0.0
 40
0.1180061053
 40
0.2368683847
 40
0.3573677477
 40
0.4801449463
 40
0.6056553858
 40
0.7341458879
 40
0.8656494786
 40
1.0
 40
1.0
 40
1.0
 40
1.0
 10
-26.0026125398
 20
139.6047769503
 30
0.0
 10
-26.1290680709
 20
139.6224849813
 30
0.0
 10
-26.3805363675
 20
139.6781065639
 30
0.0
 10
-26.7418991256
 20
139.8198254941
 30
0.0
 10
-27.0820189258
 20
140.0174190243
 30
0.0
 10
-27.3949203812
 20
140.2673032536
 30
0.0
 10
-27.6753309975
 20
140.5650378946
 30
0.0
 10
-27.9185509864
 20
140.9054321112
 30
0.0
 10
-28.1205227207
 20
141.2825322337
 30
0.0
 10
-28.2244845081
 20
141.5516386421
 30
0.0
 10
-28.2688553087
 20
141.6900767626
 30
0.0
  0
SPLINE
  5
3D8
100
AcDbEntity
  8
0
100
AcDbSpline
 62
7
  6
CONTINUOUS
 70
0
 71
3
 72
9
 73
5
 74
0
 42
0.0000001
 43
0.0000001
 44
0.0000000001
 40
0.0
 40
0.0
 40
0.0
 40
0.0
 40
0.488013142
 40
1.0
 40
1.0
 40
1.0
 40
1.0
 10
-24.3458414458
 20
141.0655103943
 30
0.0
 10
-24.329193743
 20
141.3203453763
 30
0.0
 10
-24.3241655596
 20
141.8446838604
 30
0.0
 10
-24.3698366414
 20
142.366808447
 30
0.0
 10
-24.4048601531
 20
142.63243308
 30
0.0
  0
SPLINE
  5
3D9
100
AcDbEntity
  8
0
100
AcDbSpline
 62
7
  6
CONTINUOUS
 70
0
 71
3
 72
13
 73
9
 74
0
 42
0.0000001
 43
0.0000001
 44
0.0000000001
 40
0.0
 40
0.0
 40
0.0
 40
0.0
 40
0.3083864432
 40
0.5804031301
 40
0.701424071
 40
0.8118728728
 40
0.9114506382
 40
1.0
 40
1.0
 40
1.0
 40
1.0
 10
-24.4048601531
 20
142.63243308
 30
0.0
 10
-24.2088784928
 20
142.6999255025
 30
0.0
 10
-23.8425061876
 20
142.8343399257
 30
0.0
 10
-23.4085772811
 20
143.0194922041
 30
0.0
 10
-23.1048502751
 20
143.1689051687
 30
0.0
 10
-22.9093871207
 20
143.2753971946
 30
0.0
 10
-22.7381372505
 20
143.3802001852
 30
0.0
 10
-22.6345147576
 20
143.4528954311
 30
0.0
 10
-22.5872977145
 20
143.4891287228
 30
0.0
  0
SPLINE
  5
3DA
100
AcDbEntity
  8
0
100
AcDbSpline
 62
7
  6
CONTINUOUS
 70
0
 71
3
 72
11
 73
7
 74
0
 42
0.0000001
 43
0.0000001
 44
0.0000000001
 40
0.0
 40
0.0
 40
0.0
 40
0.0
 40
0.2569833916
 40
0.5124414722
 40
0.761642089
 40
1.0
 40
1.0
 40
1.0
 40
1.0
 10
-28.2688553087
 20
141.6900767626
 30
0.0
 10
-28.0046196941
 20
141.7336976368
 30
0.0
 10
-27.4789300053
 20
141.8282096958
 30
0.0
 10
-26.7018856258
 20
141.9906406593
 30
0.0
 10
-25.9487574722
 20
142.1710439514
 30
0.0
 10
-25.4584397272
 20
142.3047164513
 30
0.0
 10
-25.2199902351
 20
142.3743240408
 30
0.0
  0
SPLINE
  5
3DB
100
AcDbEntity
  8
0
100
AcDbSpline
 62
7
  6
CONTINUOUS
 70
0
 71
3
 72
15
 73
11
 74
0
 42
0.0000001
 43
0.0000001
 44
0.0000000001
 40
0.0
 40
0.0
 40
0.0
 40
0.0
 40
0.1307599607
 40
0.2619220035
 40
0.3922488606
 40
0.5205725421
 40
0.6459342057
 40
0.7676938412
 40
0.8856258074
 40
1.0
 40
1.0
 40
1.0
 40
1.0
 10
-28.4470281374
 20
142.6527656517
 30
0.0
 10
-28.4593972168
 20
142.8596170588
 30
0.0
 10
-28.452638096
 20
143.2764854208
 30
0.0
 10
-28.3501812073
 20
143.891804304
 30
0.0
 10
-28.1585946703
 20
144.4815861253
 30
0.0
 10
-27.8836937477
 20
145.0272592383
 30
0.0
 10
-27.5338772716
 20
145.511782335
 30
0.0
 10
-27.1196623492
 20
145.9198292881
 30
0.0
 10
-26.6539600545
 20
146.2381760459
 30
0.0
 10
-26.3135655455
 20
146.3856423045
 30
0.0
 10
-26.1407678262
 20
146.4403582993
 30
0.0
  0
SPLINE
  5
3DC
100
AcDbEntity
  8
0
100
AcDbSpline
 62
7
  6
CONTINUOUS
 70
0
 71
3
 72
9
 73
5
 74
0
 42
0.0000001
 43
0.0000001
 44
0.0000000001
 40
0.0
 40
0.0
 40
0.0
 40
0.0
 40
0.497092679
 40
1.0
 40
1.0
 40
1.0
 40
1.0
 10
-25.1161189841
 20
140.8216177704
 30
0.0
 10
-25.0496704104
 20
140.8254468609
 30
0.0
 10
-24.9163600503
 20
140.8417116415
 30
0.0
 10
-24.7861410669
 20
140.8744654411
 30
0.0
 10
-24.7219451615
 20
140.8947929249
 30
0.0
  0
SPLINE
  5
3DD
100
AcDbEntity
  8
0
100
AcDbSpline
 62
7
  6
CONTINUOUS
 70
0
 71
3
 72
9
 73
5
 74
0
 42
0.0000001
 43
0.0000001
 44
0.0000000001
 40
0.0
 40
0.0
 40
0.0
 40
0.0
 40
0.2470036993
 40
1.0
 40
1.0
 40
1.0
 40
1.0
 10
-24.7219451615
 20
140.8947929249
 30
0.0
 10
-24.6894820438
 20
140.9050722954
 30
0.0
 10
-24.5593393871
 20
140.9506755863
 30
0.0
 10
-24.4347999903
 20
141.0120157096
 30
0.0
 10
-24.345843088
 20
141.0655194521
 30
0.0
  0
SPLINE
  5
3DE
100
AcDbEntity
  8
0
100
AcDbSpline
 62
7
  6
CONTINUOUS
 70
0
 71
3
 72
9
 73
5
 74
0
 42
0.0000001
 43
0.0000001
 44
0.0000000001
 40
0.0
 40
0.0
 40
0.0
 40
0.0
 40
0.4967273344
 40
1.0
 40
1.0
 40
1.0
 40
1.0
 10
-25.7343976227
 20
142.7607204626
 30
0.0
 10
-25.6118400449
 20
142.7949103897
 30
0.0
 10
-25.3643093938
 20
142.8608499335
 30
0.0
 10
-25.116395285
 20
142.9252762179
 30
0.0
 10
-24.991584394
 20
142.9575409606
 30
0.0
  0
SPLINE
  5
3DF
100
AcDbEntity
  8
0
100
AcDbSpline
 62
7
  6
CONTINUOUS
 70
0
 71
3
 72
9
 73
5
 74
0
 42
0.0000001
 43
0.0000001
 44
0.0000000001
 40
0.0
 40
0.0
 40
0.0
 40
0.0
 40
0.5037203558
 40
1.0
 40
1.0
 40
1.0
 40
1.0
 10
-26.1407678262
 20
146.4403582993
 30
0.0
 10
-25.9614433353
 20
146.4971409811
 30
0.0
 10
-25.5921981173
 20
146.5722660189
 30
0.0
 10
-25.2152438945
 20
146.5628178836
 30
0.0
 10
-25.0317133121
 20
146.5371174242
 30
0.0
  0
SPLINE
  5
3E0
100
AcDbEntity
  8
0
100
AcDbSpline
 62
7
  6
CONTINUOUS
 70
0
 71
3
 72
9
 73
5
 74
0
 42
0.0000001
 43
0.0000001
 44
0.0000000001
 40
0.0
 40
0.0
 40
0.0
 40
0.0
 40
0.2526323852
 40
1.0
 40
1.0
 40
1.0
 40
1.0
 10
-26.9400881747
 20
142.4477396987
 30
0.0
 10
-26.9333149878
 20
142.4261358767
 30
0.0
 10
-26.9048545238
 20
142.3411493327
 30
0.0
 10
-26.8697753304
 20
142.2583615585
 30
0.0
 10
-26.8398827901
 20
142.1984236904
 30
0.0
  0
SPLINE
  5
3E1
100
AcDbEntity
  8
0
100
AcDbSpline
 62
7
  6
CONTINUOUS
 70
0
 71
3
 72
9
 73
5
 74
0
 42
0.0000001
 43
0.0000001
 44
0.0000000001
 40
0.0
 40
0.0
 40
0.0
 40
0.0
 40
0.5042855821
 40
1.0
 40
1.0
 40
1.0
 40
1.0
 10
-24.2609208044
 20
143.0150459878
 30
0.0
 10
-24.2519521399
 20
143.1285509981
 30
0.0
 10
-24.2536536104
 20
143.3556187821
 30
0.0
 10
-24.2954874307
 20
143.5789295544
 30
0.0
 10
-24.3263206435
 20
143.6865223017
 30
0.0
  0
SPLINE
  5
3E2
100
AcDbEntity
  8
0
100
AcDbSpline
 62
7
  6
CONTINUOUS
 70
0
 71
3
 72
8
 73
4
 74
0
 42
0.0000001
 43
0.0000001
 44
0.0000000001
 40
0.0
 40
0.0
 40
0.0
 40
0.0
 40
1.0
 40
1.0
 40
1.0
 40
1.0
 10
-26.8705829507
 20
142.3625604504
 30
0.0
 10
-26.8630451875
 20
142.3074121503
 30
0.0
 10
-26.8520861275
 20
142.2527305171
 30
0.0
 10
-26.8398827901
 20
142.1984236904
 30
0.0
  0
SPLINE
  5
3E3
100
AcDbEntity
  8
0
100
AcDbSpline
 62
7
  6
CONTINUOUS
 70
0
 71
3
 72
9
 73
5
 74
0
 42
0.0000001
 43
0.0000001
 44
0.0000000001
 40
0.0
 40
0.0
 40
0.0
 40
0.0
 40
0.4948900577
 40
1.0
 40
1.0
 40
1.0
 40
1.0
 10
-25.039539842
 20
143.6411109782
 30
0.0
 10
-25.0042285421
 20
143.5328717427
 30
0.0
 10
-24.9608664834
 20
143.3042749244
 30
0.0
 10
-24.9724395023
 20
143.0721577069
 30
0.0
 10
-24.991584394
 20
142.9575409606
 30
0.0
  0
SPLINE
  5
3E4
100
AcDbEntity
  8
0
100
AcDbSpline
 62
7
  6
CONTINUOUS
 70
0
 71
3
 72
9
 73
5
 74
0
 42
0.0000001
 43
0.0000001
 44
0.0000000001
 40
0.0
 40
0.0
 40
0.0
 40
0.0
 40
0.4961250069
 40
1.0
 40
1.0
 40
1.0
 40
1.0
 10
-28.3911805944
 20
141.707208859
 30
0.0
 10
-28.4406944118
 20
141.8616933335
 30
0.0
 10
-28.5202281448
 20
142.1798888783
 30
0.0
 10
-28.5595188774
 20
142.5054320244
 30
0.0
 10
-28.569353423
 20
142.6698977482
 30
0.0
  0
SPLINE
  5
3E5
100
AcDbEntity
  8
0
100
AcDbSpline
 62
7
  6
CONTINUOUS
 70
0
 71
3
 72
21
 73
17
 74
0
 42
0.0000001
 43
0.0000001
 44
0.0000000001
 40
0.0
 40
0.0
 40
0.0
 40
0.0
 40
0.0584322135
 40
0.1186022655
 40
0.1806828891
 40
0.2446061805
 40
0.3763532371
 40
0.5104116658
 40
0.5769927785
 40
0.6424129941
 40
0.7062438315
 40
0.7682225679
 40
0.8282954707
 40
0.8866429665
 40
0.9436769111
 40
1.0
 40
1.0
 40
1.0
 40
1.0
 10
-39.3452273204
 20
229.2186629149
 30
0.0
 10
-39.5144167556
 20
229.1698431027
 30
0.0
 10
-39.8486507945
 20
229.0359133244
 30
0.0
 10
-40.3097509477
 20
228.7410257555
 30
0.0
 10
-40.7242819326
 20
228.3587446541
 30
0.0
 10
-41.2026657839
 20
227.7430269383
 30
0.0
 10
-41.6189756449
 20
226.8230064447
 30
0.0
 10
-41.7555818095
 20
225.8157173762
 30
0.0
 10
-41.6885225576
 20
225.014222591
 30
0.0
 10
-41.5512934858
 20
224.4377684419
 30
0.0
 10
-41.3308789847
 20
223.9026112836
 30
0.0
 10
-41.033485209
 20
223.424657168
 30
0.0
 10
-40.6676055904
 20
223.0184900366
 30
0.0
 10
-40.2437614923
 20
222.6967788743
 30
0.0
 10
-39.7748792712
 20
222.4699866732
 30
0.0
 10
-39.440524157
 20
222.3868501455
 30
0.0
 10
-39.272428266
 20
222.3633108923
 30
0.0
  0
SPLINE
  5
3E6
100
AcDbEntity
  8
0
100
AcDbSpline
 62
7
  6
CONTINUOUS
 70
0
 71
3
 72
9
 73
5
 74
0
 42
0.0000001
 43
0.0000001
 44
0.0000000001
 40
0.0
 40
0.0
 40
0.0
 40
0.0
 40
0.2413899883
 40
1.0
 40
1.0
 40
1.0
 40
1.0
 10
-35.1289744074
 20
227.013426586
 30
0.0
 10
-35.1368765185
 20
227.0078346017
 30
0.0
 10
-35.1697765385
 20
226.9849011243
 30
0.0
 10
-35.2032983835
 20
226.9628643029
 30
0.0
 10
-35.2289969988
 20
226.9465813502
 30
0.0
  0
SPLINE
  5
3E7
100
AcDbEntity
  8
0
100
AcDbSpline
 62
7
  6
CONTINUOUS
 70
0
 71
3
 72
12
 73
8
 74
0
 42
0.0000001
 43
0.0000001
 44
0.0000000001
 40
0.0
 40
0.0
 40
0.0
 40
0.0
 40
0.0924416654
 40
0.1947991476
 40
0.4282984497
 40
0.6979068079
 40
1.0
 40
1.0
 40
1.0
 40
1.0
 10
-35.2289969988
 20
226.9465813502
 30
0.0
 10
-35.2779067216
 20
226.9155915596
 30
0.0
 10
-35.3830511048
 20
226.8535457363
 30
0.0
 10
-35.6204955951
 20
226.7285409165
 30
0.0
 10
-35.9666189178
 20
226.5727270697
 30
0.0
 10
-36.4376217523
 20
226.3919395176
 30
0.0
 10
-36.7774143017
 20
226.2785710426
 30
0.0
 10
-36.9579173221
 20
226.221811839
 30
0.0
  0
SPLINE
  5
3E8
100
AcDbEntity
  8
0
100
AcDbSpline
 62
7
  6
CONTINUOUS
 70
0
 71
3
 72
11
 73
7
 74
0
 42
0.0000001
 43
0.0000001
 44
0.0000000001
 40
0.0
 40
0.0
 40
0.0
 40
0.0
 40
0.2380947468
 40
0.4872231677
 40
0.7427772623
 40
1.0
 40
1.0
 40
1.0
 40
1.0
 10
-37.7768598797
 20
225.9855049928
 30
0.0
 10
-38.016479877
 20
225.9218991371
 30
0.0
 10
-38.5090532721
 20
225.8000389403
 30
0.0
 10
-39.2650651093
 20
225.6363959037
 30
0.0
 10
-40.0448504648
 20
225.48986482
 30
0.0
 10
-40.5721084061
 20
225.4052280347
 30
0.0
 10
-40.8371054295
 20
225.3663386104
 30
0.0
  0
SPLINE
  5
3E9
100
AcDbEntity
  8
0
100
AcDbSpline
 62
7
  6
CONTINUOUS
 70
0
 71
3
 72
15
 73
11
 74
0
 42
0.0000001
 43
0.0000001
 44
0.0000000001
 40
0.0
 40
0.0
 40
0.0
 40
0.0
 40
0.1177939327
 40
0.2364787364
 40
0.3568645829
 40
0.4796093978
 40
0.6051714959
 40
0.7337868385
 40
0.8654625332
 40
1.0
 40
1.0
 40
1.0
 40
1.0
 10
-37.4178408177
 20
229.1718817009
 30
0.0
 10
-37.2886411657
 20
229.153790465
 30
0.0
 10
-37.031720171
 20
229.0965010556
 30
0.0
 10
-36.6630516138
 20
228.9497562458
 30
0.0
 10
-36.316851427
 20
228.7448166258
 30
0.0
 10
-35.9994650506
 20
228.4855662707
 30
0.0
 10
-35.7164644648
 20
228.1768156961
 30
0.0
 10
-35.4727936307
 20
227.8241803764
 30
0.0
 10
-35.2726814534
 20
227.4340916189
 30
0.0
 10
-35.171539491
 20
227.1562216249
 30
0.0
 10
-35.1289744074
 20
227.013426586
 30
0.0
  0
SPLINE
  5
3EA
100
AcDbEntity
  8
0
100
AcDbSpline
 62
7
  6
CONTINUOUS
 70
0
 71
3
 72
9
 73
5
 74
0
 42
0.0000001
 43
0.0000001
 44
0.0000000001
 40
0.0
 40
0.0
 40
0.0
 40
0.0
 40
0.4966878392
 40
1.0
 40
1.0
 40
1.0
 40
1.0
 10
-38.3015301872
 20
229.2956431334
 30
0.0
 10
-38.4740788476
 20
229.3198059287
 30
0.0
 10
-38.8277165529
 20
229.3311101123
 30
0.0
 10
-39.1755922051
 20
229.2676113286
 30
0.0
 10
-39.3452273204
 20
229.2186629149
 30
0.0
  0
SPLINE
  5
3EB
100
AcDbEntity
  8
0
100
AcDbSpline
 62
7
  6
CONTINUOUS
 70
0
 71
3
 72
15
 73
11
 74
0
 42
0.0000001
 43
0.0000001
 44
0.0000000001
 40
0.0
 40
0.0
 40
0.0
 40
0.0
 40
0.1311752736
 40
0.2625940361
 40
0.3930200032
 40
0.5213019955
 40
0.6465136035
 40
0.768061666
 40
0.8857790064
 40
1.0
 40
1.0
 40
1.0
 40
1.0
 10
-34.969474952
 20
226.0450877568
 30
0.0
 10
-34.9610872673
 20
225.837844623
 30
0.0
 10
-34.9757698724
 20
225.4210552473
 30
0.0
 10
-35.0898080671
 20
224.80795223
 30
0.0
 10
-35.2923794339
 20
224.2227821272
 30
0.0
 10
-35.5773351145
 20
223.683978919
 30
0.0
 10
-35.9359752583
 20
223.2083829547
 30
0.0
 10
-36.3575148631
 20
222.8110680464
 30
0.0
 10
-36.8288023285
 20
222.5049506506
 30
0.0
 10
-37.1715167989
 20
222.3665982121
 30
0.0
 10
-37.3450420969
 20
222.3165272816
 30
0.0
  0
SPLINE
  5
3EC
100
AcDbEntity
  8
0
100
AcDbSpline
 62
7
  6
CONTINUOUS
 70
0
 71
3
 72
9
 73
5
 74
0
 42
0.0000001
 43
0.0000001
 44
0.0000000001
 40
0.0
 40
0.0
 40
0.0
 40
0.0
 40
0.5033101734
 40
1.0
 40
1.0
 40
1.0
 40
1.0
 10
-37.3450420969
 20
222.3165272816
 30
0.0
 10
-37.5146765759
 20
222.2675790515
 30
0.0
 10
-37.8625523721
 20
222.2040810031
 30
0.0
 10
-38.2161899597
 20
222.215383335
 30
0.0
 10
-38.3887395638
 20
222.2395446663
 30
0.0
  0
SPLINE
  5
3ED
100
AcDbEntity
  8
0
100
AcDbSpline
 62
7
  6
CONTINUOUS
 70
0
 71
3
 72
9
 73
5
 74
0
 42
0.0000001
 43
0.0000001
 44
0.0000000001
 40
0.0
 40
0.0
 40
0.0
 40
0.0
 40
0.5134267413
 40
1.0
 40
1.0
 40
1.0
 40
1.0
 10
-37.6173604244
 20
225.0171661637
 30
0.0
 10
-37.5848149822
 20
224.7512271127
 30
0.0
 10
-37.5395377924
 20
224.2308410297
 30
0.0
 10
-37.5348717778
 20
223.7083305441
 30
0.0
 10
-37.5442016728
 20
223.4545919578
 30
0.0
  0
SPLINE
  5
3EE
100
AcDbEntity
  8
0
100
AcDbSpline
 62
7
  6
CONTINUOUS
 70
0
 71
3
 72
9
 73
5
 74
0
 42
0.0000001
 43
0.0000001
 44
0.0000000001
 40
0.0
 40
0.0
 40
0.0
 40
0.0
 40
0.2476571309
 40
1.0
 40
1.0
 40
1.0
 40
1.0
 10
-35.2275990016
 20
226.9475908533
 30
0.0
 10
-35.2080769113
 20
226.8761775775
 30
0.0
 10
-35.1376696873
 20
226.5855711187
 30
0.0
 10
-35.1008951841
 20
226.2869380282
 30
0.0
 10
-35.0918002377
 20
226.0622198532
 30
0.0
  0
SPLINE
  5
3EF
100
AcDbEntity
  8
0
100
AcDbSpline
 62
7
  6
CONTINUOUS
 70
0
 71
3
 72
9
 73
5
 74
0
 42
0.0000001
 43
0.0000001
 44
0.0000000001
 40
0.0
 40
0.0
 40
0.0
 40
0.0
 40
0.2532694763
 40
1.0
 40
1.0
 40
1.0
 40
1.0
 10
-39.4100557844
 20
225.6115260806
 30
0.0
 10
-39.4093628303
 20
225.5662250928
 30
0.0
 10
-39.4003872446
 20
225.3875265656
 30
0.0
 10
-39.3661817378
 20
225.2099661883
 30
0.0
 10
-39.3262149406
 20
225.0825059417
 30
0.0
  0
SPLINE
  5
3F0
100
AcDbEntity
  8
0
100
AcDbSpline
 62
7
  6
CONTINUOUS
 70
0
 71
3
 72
9
 73
5
 74
0
 42
0.0000001
 43
0.0000001
 44
0.0000000001
 40
0.0
 40
0.0
 40
0.0
 40
0.0
 40
0.50774837
 40
1.0
 40
1.0
 40
1.0
 40
1.0
 10
-38.6926635564
 20
225.2223763783
 30
0.0
 10
-38.7910597237
 20
225.1898386192
 30
0.0
 10
-38.9838538152
 20
225.122766316
 30
0.0
 10
-39.175947662
 20
225.0537754419
 30
0.0
 10
-39.2704410698
 20
225.0196301587
 30
0.0
  0
SPLINE
  5
3F1
100
AcDbEntity
  8
0
100
AcDbSpline
 62
7
  6
CONTINUOUS
 70
0
 71
3
 72
9
 73
5
 74
0
 42
0.0000001
 43
0.0000001
 44
0.0000000001
 40
0.0
 40
0.0
 40
0.0
 40
0.0
 40
0.4973007261
 40
1.0
 40
1.0
 40
1.0
 40
1.0
 10
-37.4565576133
 20
227.8440394967
 30
0.0
 10
-37.5229561673
 20
227.8420036386
 30
0.0
 10
-37.6563417486
 20
227.8293396989
 30
0.0
 10
-37.7870679701
 20
227.8000690043
 30
0.0
 10
-37.8515865976
 20
227.7814520778
 30
0.0
  0
SPLINE
  5
3F2
100
AcDbEntity
  8
0
100
AcDbSpline
 62
7
  6
CONTINUOUS
 70
0
 71
3
 72
9
 73
5
 74
0
 42
0.0000001
 43
0.0000001
 44
0.0000000001
 40
0.0
 40
0.0
 40
0.0
 40
0.0
 40
0.2470943896
 40
1.0
 40
1.0
 40
1.0
 40
1.0
 10
-37.8515865976
 20
227.7814520778
 30
0.0
 10
-37.8841964871
 20
227.7720424555
 30
0.0
 10
-38.014984861
 20
227.7299331624
 30
0.0
 10
-38.1405581477
 20
227.6718980724
 30
0.0
 10
-38.2304360913
 20
227.6207403024
 30
0.0
  0
SPLINE
  5
3F3
100
AcDbEntity
  8
0
100
AcDbSpline
 62
7
  6
CONTINUOUS
 70
0
 71
3
 72
15
 73
11
 74
0
 42
0.0000001
 43
0.0000001
 44
0.0000000001
 40
0.0
 40
0.0
 40
0.0
 40
0.0
 40
0.1177939327
 40
0.2364787364
 40
0.3568645829
 40
0.4796093978
 40
0.6051714959
 40
0.7337868385
 40
0.8654625332
 40
1.0
 40
1.0
 40
1.0
 40
1.0
 10
-38.3887395638
 20
222.2395446663
 30
0.0
 10
-38.5179392158
 20
222.2576359023
 30
0.0
 10
-38.7748602106
 20
222.3149253117
 30
0.0
 10
-39.1435287677
 20
222.4616701214
 30
0.0
 10
-39.4897289545
 20
222.6666097414
 30
0.0
 10
-39.807115331
 20
222.9258600966
 30
0.0
 10
-40.0901159167
 20
223.2346106712
 30
0.0
 10
-40.3337867509
 20
223.5872459908
 30
0.0
 10
-40.5338989281
 20
223.9773347483
 30
0.0
 10
-40.6350408905
 20
224.2552047423
 30
0.0
 10
-40.6776059741
 20
224.3979997813
 30
0.0
  0
SPLINE
  5
3F4
100
AcDbEntity
  8
0
100
AcDbSpline
 62
7
  6
CONTINUOUS
 70
0
 71
3
 72
9
 73
5
 74
0
 42
0.0000001
 43
0.0000001
 44
0.0000000001
 40
0.0
 40
0.0
 40
0.0
 40
0.0
 40
0.4884485494
 40
1.0
 40
1.0
 40
1.0
 40
1.0
 10
-36.7703380202
 20
223.6778210314
 30
0.0
 10
-36.7486165464
 20
223.9337883817
 30
0.0
 10
-36.7331419244
 20
224.4605430902
 30
0.0
 10
-36.7685554628
 20
224.9860977282
 30
0.0
 10
-36.7984178667
 20
225.2534730098
 30
0.0
  0
SPLINE
  5
3F5
100
AcDbEntity
  8
0
100
AcDbSpline
 62
7
  6
CONTINUOUS
 70
0
 71
3
 72
13
 73
9
 74
0
 42
0.0000001
 43
0.0000001
 44
0.0000000001
 40
0.0
 40
0.0
 40
0.0
 40
0.0
 40
0.3095455686
 40
0.582018076
 40
0.7029722809
 40
0.8131408116
 40
0.9122087852
 40
1.0
 40
1.0
 40
1.0
 40
1.0
 10
-36.7984178667
 20
225.2534730098
 30
0.0
 10
-36.601619791
 20
225.3153561962
 30
0.0
 10
-36.2337459449
 20
225.4387455055
 30
0.0
 10
-35.7971579445
 20
225.6095124286
 30
0.0
 10
-35.4912552909
 20
225.7477659392
 30
0.0
 10
-35.2944524969
 20
225.8463904315
 30
0.0
 10
-35.1219208376
 20
225.9436126778
 30
0.0
 10
-35.0172349107
 20
226.0112900875
 30
0.0
 10
-34.969474952
 20
226.0450877568
 30
0.0
  0
SPLINE
  5
3F6
100
AcDbEntity
  8
0
100
AcDbSpline
 62
7
  6
CONTINUOUS
 70
0
 71
3
 72
11
 73
7
 74
0
 42
0.0000001
 43
0.0000001
 44
0.0000000001
 40
0.0
 40
0.0
 40
0.0
 40
0.0
 40
0.2572225076
 40
0.5127765466
 40
0.7619051178
 40
1.0
 40
1.0
 40
1.0
 40
1.0
 10
-40.6776059741
 20
224.3979997813
 30
0.0
 10
-40.4126091878
 20
224.4368891708
 30
0.0
 10
-39.8853515393
 20
224.5215259019
 30
0.0
 10
-39.1055663187
 20
224.6680569394
 30
0.0
 10
-38.3495542431
 20
224.8317000081
 30
0.0
 10
-37.8569805579
 20
224.9535602718
 30
0.0
 10
-37.6173604244
 20
225.0171661637
 30
0.0
  0
SPLINE
  5
3F7
100
AcDbEntity
  8
0
100
AcDbSpline
 62
7
  6
CONTINUOUS
 70
0
 71
3
 72
15
 73
11
 74
0
 42
0.0000001
 43
0.0000001
 44
0.0000000001
 40
0.0
 40
0.0
 40
0.0
 40
0.0
 40
0.1311752736
 40
0.2625940361
 40
0.3930200032
 40
0.5213019955
 40
0.6465136035
 40
0.768061666
 40
0.8857790064
 40
1.0
 40
1.0
 40
1.0
 40
1.0
 10
-40.8371054295
 20
225.3663386104
 30
0.0
 10
-40.8454931142
 20
225.5735817443
 30
0.0
 10
-40.8308105091
 20
225.99037112
 30
0.0
 10
-40.7167723144
 20
226.6034741373
 30
0.0
 10
-40.5142009476
 20
227.18864424
 30
0.0
 10
-40.2292452671
 20
227.7274474483
 30
0.0
 10
-39.8706051232
 20
228.2030434126
 30
0.0
 10
-39.4490655184
 20
228.6003583208
 30
0.0
 10
-38.977778053
 20
228.9064757166
 30
0.0
 10
-38.6350635826
 20
229.0448281552
 30
0.0
 10
-38.4615382846
 20
229.0948990857
 30
0.0
  0
SPLINE
  5
3F8
100
AcDbEntity
  8
0
100
AcDbSpline
 62
7
  6
CONTINUOUS
 70
0
 71
3
 72
9
 73
5
 74
0
 42
0.0000001
 43
0.0000001
 44
0.0000000001
 40
0.0
 40
0.0
 40
0.0
 40
0.0
 40
0.4973007725
 40
1.0
 40
1.0
 40
1.0
 40
1.0
 10
-37.5442179765
 20
223.4545310064
 30
0.0
 10
-37.4778194139
 20
223.4565669038
 30
0.0
 10
-37.344433822
 20
223.4692307723
 30
0.0
 10
-37.2137075964
 20
223.4985015001
 30
0.0
 10
-37.1491889713
 20
223.5171184259
 30
0.0
  0
SPLINE
  5
3F9
100
AcDbEntity
  8
0
100
AcDbSpline
 62
7
  6
CONTINUOUS
 70
0
 71
3
 72
9
 73
5
 74
0
 42
0.0000001
 43
0.0000001
 44
0.0000000001
 40
0.0
 40
0.0
 40
0.0
 40
0.0
 40
0.2470943911
 40
1.0
 40
1.0
 40
1.0
 40
1.0
 10
-37.1491889713
 20
223.5171184259
 30
0.0
 10
-37.1165790816
 20
223.5265280483
 30
0.0
 10
-36.9857907101
 20
223.5686373452
 30
0.0
 10
-36.8602174054
 20
223.6266724037
 30
0.0
 10
-36.7703394777
 20
223.6778302013
 30
0.0
  0
SPLINE
  5
3FA
100
AcDbEntity
  8
0
100
AcDbSpline
 62
7
  6
CONTINUOUS
 70
0
 71
3
 72
9
 73
5
 74
0
 42
0.0000001
 43
0.0000001
 44
0.0000000001
 40
0.0
 40
0.0
 40
0.0
 40
0.0
 40
0.496671224
 40
1.0
 40
1.0
 40
1.0
 40
1.0
 10
-38.1285484937
 20
225.3851524486
 30
0.0
 10
-38.0054349807
 20
225.4163423778
 30
0.0
 10
-37.756866416
 20
225.4763909808
 30
0.0
 10
-37.5079683577
 20
225.5350033369
 30
0.0
 10
-37.3826541779
 20
225.564353305
 30
0.0
  0
SPLINE
  5
3FB
100
AcDbEntity
  8
0
100
AcDbSpline
 62
7
  6
CONTINUOUS
 70
0
 71
3
 72
9
 73
5
 74
0
 42
0.0000001
 43
0.0000001
 44
0.0000000001
 40
0.0
 40
0.0
 40
0.0
 40
0.0
 40
0.5033101734
 40
1.0
 40
1.0
 40
1.0
 40
1.0
 10
-38.4615382846
 20
229.0948990857
 30
0.0
 10
-38.2919038056
 20
229.1438473158
 30
0.0
 10
-37.9440280094
 20
229.2073453641
 30
0.0
 10
-37.5903904218
 20
229.1960430322
 30
0.0
 10
-37.4178408177
 20
229.1718817009
 30
0.0
  0
SPLINE
  5
3FC
100
AcDbEntity
  8
0
100
AcDbSpline
 62
7
  6
CONTINUOUS
 70
0
 71
3
 72
9
 73
5
 74
0
 42
0.0000001
 43
0.0000001
 44
0.0000000001
 40
0.0
 40
0.0
 40
0.0
 40
0.0
 40
0.5041418614
 40
1.0
 40
1.0
 40
1.0
 40
1.0
 10
-36.6503536756
 20
225.6124974105
 30
0.0
 10
-36.6389261838
 20
225.7289005924
 30
0.0
 10
-36.6367588993
 20
225.9622872819
 30
0.0
 10
-36.6768524431
 20
226.1923428299
 30
0.0
 10
-36.7073826554
 20
226.3032586414
 30
0.0
  0
SPLINE
  5
3FD
100
AcDbEntity
  8
0
100
AcDbSpline
 62
7
  6
CONTINUOUS
 70
0
 71
3
 72
8
 73
4
 74
0
 42
0.0000001
 43
0.0000001
 44
0.0000000001
 40
0.0
 40
0.0
 40
0.0
 40
0.0
 40
1.0
 40
1.0
 40
1.0
 40
1.0
 10
-39.2704410698
 20
225.0196301587
 30
0.0
 10
-39.2634511198
 20
224.9676039923
 30
0.0
 10
-39.2530327128
 20
224.9160377641
 30
0.0
 10
-39.2413778219
 20
224.8648543204
 30
0.0
  0
SPLINE
  5
3FE
100
AcDbEntity
  8
0
100
AcDbSpline
 62
7
  6
CONTINUOUS
 70
0
 71
3
 72
9
 73
5
 74
0
 42
0.0000001
 43
0.0000001
 44
0.0000000001
 40
0.0
 40
0.0
 40
0.0
 40
0.0
 40
0.4950160598
 40
1.0
 40
1.0
 40
1.0
 40
1.0
 10
-37.4237414533
 20
226.2699268769
 30
0.0
 10
-37.3878235129
 20
226.1580419197
 30
0.0
 10
-37.3450495993
 20
225.9216403649
 30
0.0
 10
-37.3606622743
 20
225.6821938754
 30
0.0
 10
-37.3826541779
 20
225.564353305
 30
0.0
  0
SPLINE
  5
3FF
100
AcDbEntity
  8
0
100
AcDbSpline
 62
7
  6
CONTINUOUS
 70
0
 71
3
 72
9
 73
5
 74
0
 42
0.0000001
 43
0.0000001
 44
0.0000000001
 40
0.0
 40
0.0
 40
0.0
 40
0.0
 40
0.4963316717
 40
1.0
 40
1.0
 40
1.0
 40
1.0
 10
-40.7999312598
 20
224.4151318777
 30
0.0
 10
-40.8464028598
 20
224.5710322867
 30
0.0
 10
-40.9197185605
 20
224.891506807
 30
0.0
 10
-40.9527547905
 20
225.2185217846
 30
0.0
 10
-40.9594307152
 20
225.3834707069
 30
0.0
  0
SPLINE
  5
400
100
AcDbEntity
  8
0
100
AcDbSpline
 62
7
  6
CONTINUOUS
 70
0
 71
3
 72
17
 73
13
 74
0
 42
0.0000001
 43
0.0000001
 44
0.0000000001
 40
0.0
 40
0.0
 40
0.0
 40
0.0
 40
0.039526728
 40
0.0807446027
 40
0.1250499691
 40
0.1734002555
 40
0.2836541659
 40
0.4117702495
 40
0.5538850971
 40
0.704002267
 40
0.8550805277
 40
1.0
 40
1.0
 40
1.0
 40
1.0
 10
-11.5752090515
 20
233.4584991597
 30
0.0
 10
-11.618095418
 20
233.4470099277
 30
0.0
 10
-11.7090312433
 20
233.4345478535
 30
0.0
 10
-11.849862722
 20
233.4493593433
 30
0.0
 10
-11.993727567
 20
233.4963376952
 30
0.0
 10
-12.1951908542
 20
233.6049821622
 30
0.0
 10
-12.4396728301
 20
233.8205201007
 30
0.0
 10
-12.6969693555
 20
234.1642209549
 30
0.0
 10
-12.9168377627
 20
234.5840792629
 30
0.0
 10
-13.0854595174
 20
235.0541667535
 30
0.0
 10
-13.1924082707
 20
235.5450812631
 30
0.0
 10
-13.2190675819
 20
235.8778839316
 30
0.0
 10
-13.2190675819
 20
236.0406657694
 30
0.0
  0
SPLINE
  5
401
100
AcDbEntity
  8
0
100
AcDbSpline
 62
7
  6
CONTINUOUS
 70
0
 71
3
 72
13
 73
9
 74
0
 42
0.0000001
 43
0.0000001
 44
0.0000000001
 40
0.0
 40
0.0
 40
0.0
 40
0.0
 40
0.3134750243
 40
0.5830113503
 40
0.7004613307
 40
0.8073080269
 40
0.9059294608
 40
1.0
 40
1.0
 40
1.0
 40
1.0
 10
-13.2190675819
 20
236.0406657694
 30
0.0
 10
-13.2190675819
 20
236.1986352173
 30
0.0
 10
-13.1964544067
 20
236.4931288992
 30
0.0
 10
-13.0967263633
 20
236.8361679353
 30
0.0
 10
-12.9737945294
 20
237.0538133083
 30
0.0
 10
-12.8684977841
 20
237.179354145
 30
0.0
 10
-12.7474376846
 20
237.2717814098
 30
0.0
 10
-12.6566542001
 20
237.3098159219
 30
0.0
 10
-12.6108639545
 20
237.3220831014
 30
0.0
  0
SPLINE
  5
402
100
AcDbEntity
  8
0
100
AcDbSpline
 62
7
  6
CONTINUOUS
 70
0
 71
3
 72
9
 73
5
 74
0
 42
0.0000001
 43
0.0000001
 44
0.0000000001
 40
0.0
 40
0.0
 40
0.0
 40
0.0
 40
0.246678951
 40
1.0
 40
1.0
 40
1.0
 40
1.0
 10
-12.6108639545
 20
237.3220831014
 30
0.0
 10
-12.5947794469
 20
237.3263921315
 30
0.0
 10
-12.5287832918
 20
237.3408404839
 30
0.0
 10
-12.4601868083
 20
237.3426669945
 30
0.0
 10
-12.4095842531
 20
237.3376380616
 30
0.0
  0
SPLINE
  5
403
100
AcDbEntity
  8
0
100
AcDbSpline
 62
7
  6
CONTINUOUS
 70
0
 71
3
 72
9
 73
5
 74
0
 42
0.0000001
 43
0.0000001
 44
0.0000000001
 40
0.0
 40
0.0
 40
0.0
 40
0.0
 40
0.2468463586
 40
1.0
 40
1.0
 40
1.0
 40
1.0
 10
-12.4095842531
 20
237.3376380616
 30
0.0
 10
-12.4035738496
 20
237.3370407417
 30
0.0
 10
-12.3792614511
 20
237.3342642497
 30
0.0
 10
-12.3551133065
 20
237.3300781413
 30
0.0
 10
-12.3370965962
 20
237.326203218
 30
0.0
  0
SPLINE
  5
404
100
AcDbEntity
  8
0
100
AcDbSpline
 62
7
  6
CONTINUOUS
 70
0
 71
3
 72
9
 73
5
 74
0
 42
0.0000001
 43
0.0000001
 44
0.0000000001
 40
0.0
 40
0.0
 40
0.0
 40
0.0
 40
0.2358601439
 40
1.0
 40
1.0
 40
1.0
 40
1.0
 10
-12.3370965962
 20
237.326203218
 30
0.0
 10
-12.3150808218
 20
237.3214682005
 30
0.0
 10
-12.2227226005
 20
237.2968139521
 30
0.0
 10
-12.1354641726
 20
237.254966021
 30
0.0
 10
-12.0730821497
 20
237.2171332877
 30
0.0
  0
SPLINE
  5
405
100
AcDbEntity
  8
0
100
AcDbSpline
 62
7
  6
CONTINUOUS
 70
0
 71
3
 72
9
 73
5
 74
0
 42
0.0000001
 43
0.0000001
 44
0.0000000001
 40
0.0
 40
0.0
 40
0.0
 40
0.0
 40
0.2339168549
 40
1.0
 40
1.0
 40
1.0
 40
1.0
 10
-12.0100944097
 20
237.1760530909
 30
0.0
 10
-11.9839716274
 20
237.1578174013
 30
0.0
 10
-11.8753180592
 20
237.0755379179
 30
0.0
 10
-11.7786119933
 20
236.978149013
 30
0.0
 10
-11.7107260417
 20
236.8989182133
 30
0.0
  0
SPLINE
  5
406
100
AcDbEntity
  8
0
100
AcDbSpline
 62
7
  6
CONTINUOUS
 70
0
 71
3
 72
9
 73
5
 74
0
 42
0.0000001
 43
0.0000001
 44
0.0000000001
 40
0.0
 40
0.0
 40
0.0
 40
0.0
 40
0.2553922854
 40
1.0
 40
1.0
 40
1.0
 40
1.0
 10
-10.9918604034
 20
235.1384553571
 30
0.0
 10
-10.9877555849
 20
235.1046987636
 30
0.0
 10
-10.9735840042
 20
234.9723035792
 30
0.0
 10
-10.9670054242
 20
234.8390603351
 30
0.0
 10
-10.9670054242
 20
234.7399164918
 30
0.0
  0
SPLINE
  5
407
100
AcDbEntity
  8
0
100
AcDbSpline
 62
7
  6
CONTINUOUS
 70
0
 71
3
 72
9
 73
5
 74
0
 42
0.0000001
 43
0.0000001
 44
0.0000000001
 40
0.0
 40
0.0
 40
0.0
 40
0.0
 40
0.2616006451
 40
1.0
 40
1.0
 40
1.0
 40
1.0
 10
-10.9721423973
 20
234.5676669021
 30
0.0
 10
-10.9742779708
 20
234.5324970812
 30
0.0
 10
-10.9850750204
 20
234.3982497718
 30
0.0
 10
-11.0067625885
 20
234.2647201658
 30
0.0
 10
-11.0304432271
 20
234.1681266552
 30
0.0
  0
SPLINE
  5
408
100
AcDbEntity
  8
0
100
AcDbSpline
 62
7
  6
CONTINUOUS
 70
0
 71
3
 72
9
 73
5
 74
0
 42
0.0000001
 43
0.0000001
 44
0.0000000001
 40
0.0
 40
0.0
 40
0.0
 40
0.0
 40
0.2681637262
 40
1.0
 40
1.0
 40
1.0
 40
1.0
 10
-11.0521452321
 20
234.0877308497
 30
0.0
 10
-11.0617571367
 20
234.0552476522
 30
0.0
 10
-11.1012525284
 20
233.935312355
 30
0.0
 10
-11.1563380111
 20
233.8198680256
 30
0.0
 10
-11.2076089072
 20
233.7429395496
 30
0.0
  0
SPLINE
  5
409
100
AcDbEntity
  8
0
100
AcDbSpline
 62
7
  6
CONTINUOUS
 70
0
 71
3
 72
9
 73
5
 74
0
 42
0.0000001
 43
0.0000001
 44
0.0000000001
 40
0.0
 40
0.0
 40
0.0
 40
0.0
 40
0.263470322
 40
1.0
 40
1.0
 40
1.0
 40
1.0
 10
-11.2517444442
 20
233.6822686457
 30
0.0
 10
-11.2660465296
 20
233.6642792043
 30
0.0
 10
-11.3230242151
 20
233.5982554437
 30
0.0
 10
-11.3921039006
 20
233.5421461655
 30
0.0
 10
-11.4480754426
 20
233.5106069943
 30
0.0
  0
SPLINE
  5
40A
100
AcDbEntity
  8
0
100
AcDbSpline
 62
7
  6
CONTINUOUS
 70
0
 71
3
 72
13
 73
9
 74
0
 42
0.0000001
 43
0.0000001
 44
0.0000000001
 40
0.0
 40
0.0
 40
0.0
 40
0.0
 40
0.1126084488
 40
0.2278154418
 40
0.3474996727
 40
0.4723998863
 40
0.7336631454
 40
1.0
 40
1.0
 40
1.0
 40
1.0
 10
6.2725557568
 20
194.5870155427
 30
0.0
 10
5.7050247569
 20
194.6665421253
 30
0.0
 10
4.5269732472
 20
194.660614117
 30
0.0
 10
2.8107366237
 20
194.1541366784
 30
0.0
 10
1.2321946073
 20
193.1875544759
 30
0.0
 10
-0.5946245758
 20
191.3442995498
 30
0.0
 10
-2.0810436503
 20
188.2620978736
 30
0.0
 10
-2.232896647
 20
185.500044906
 30
0.0
 10
-2.0319778966
 20
184.1596038163
 30
0.0
  0
SPLINE
  5
40B
100
AcDbEntity
  8
0
100
AcDbSpline
 62
7
  6
CONTINUOUS
 70
0
 71
3
 72
13
 73
9
 74
0
 42
0.0000001
 43
0.0000001
 44
0.0000000001
 40
0.0
 40
0.0
 40
0.0
 40
0.0
 40
0.1126085412
 40
0.2278165161
 40
0.3475019508
 40
0.4724028239
 40
0.7336657153
 40
1.0
 40
1.0
 40
1.0
 40
1.0
 10
22.2382854573
 20
178.1028710701
 30
0.0
 10
21.8689104943
 20
178.1545681756
 30
0.0
 10
21.1022090392
 20
178.1507930586
 30
0.0
 10
19.9852162677
 20
177.8211346896
 30
0.0
 10
18.9578444547
 20
177.192062426
 30
0.0
 10
17.7688908713
 20
175.9924119857
 30
0.0
 10
16.8014909094
 20
173.9864230179
 30
0.0
 10
16.7027047239
 20
172.1888064079
 30
0.0
 10
16.8334673722
 20
171.3164158156
 30
0.0
  0
SPLINE
  5
40C
100
AcDbEntity
  8
0
100
AcDbSpline
 62
7
  6
CONTINUOUS
 70
0
 71
3
 72
9
 73
5
 74
0
 42
0.0000001
 43
0.0000001
 44
0.0000000001
 40
0.0
 40
0.0
 40
0.0
 40
0.0
 40
0.5094467314
 40
1.0
 40
1.0
 40
1.0
 40
1.0
 10
-4.306939336
 20
193.8908855952
 30
0.0
 10
-4.0678810697
 20
193.6150115712
 30
0.0
 10
-3.5067562254
 20
193.1437469595
 30
0.0
 10
-2.8105403341
 20
192.905414121
 30
0.0
 10
-2.4624333016
 20
192.8566675764
 30
0.0
  0
SPLINE
  5
40D
100
AcDbEntity
  8
0
100
AcDbSpline
 62
7
  6
CONTINUOUS
 70
0
 71
3
 72
9
 73
5
 74
0
 42
0.0000001
 43
0.0000001
 44
0.0000000001
 40
0.0
 40
0.0
 40
0.0
 40
0.0
 40
0.4993330776
 40
1.0
 40
1.0
 40
1.0
 40
1.0
 10
31.1717239944
 20
213.6857258937
 30
0.0
 10
31.0628614209
 20
213.4712715307
 30
0.0
 10
30.9130452858
 20
213.0044562023
 30
0.0
 10
30.9089529028
 20
212.514327306
 30
0.0
 10
30.9446988901
 20
212.2758458799
 30
0.0
  0
SPLINE
  5
40E
100
AcDbEntity
  8
0
100
AcDbSpline
 62
7
  6
CONTINUOUS
 70
0
 71
3
 72
11
 73
7
 74
0
 42
0.0000001
 43
0.0000001
 44
0.0000000001
 40
0.0
 40
0.0
 40
0.0
 40
0.0
 40
0.2685774665
 40
0.5241486511
 40
0.7663615142
 40
1.0
 40
1.0
 40
1.0
 40
1.0
 10
30.9446988901
 20
212.2758458799
 30
0.0
 10
30.973929233
 20
212.0808339526
 30
0.0
 10
31.0810425763
 20
211.7053202438
 30
0.0
 10
31.38689683
 20
211.2230057241
 30
0.0
 10
31.8105152279
 20
210.8768353412
 30
0.0
 10
32.1503106552
 20
210.7620310039
 30
0.0
 10
32.3201960299
 20
210.7382763172
 30
0.0
  0
SPLINE
  5
40F
100
AcDbEntity
  8
0
100
AcDbSpline
 62
7
  6
CONTINUOUS
 70
0
 71
3
 72
9
 73
5
 74
0
 42
0.0000001
 43
0.0000001
 44
0.0000000001
 40
0.0
 40
0.0
 40
0.0
 40
0.0
 40
0.4986368571
 40
1.0
 40
1.0
 40
1.0
 40
1.0
 10
35.8244998451
 20
209.7647036082
 30
0.0
 10
35.5758979334
 20
209.319985011
 30
0.0
 10
35.2295042962
 20
208.3365950089
 30
0.0
 10
35.2109323976
 20
207.2947379191
 30
0.0
 10
35.2868687386
 20
206.7881242185
 30
0.0
  0
SPLINE
  5
410
100
AcDbEntity
  8
0
100
AcDbSpline
 62
7
  6
CONTINUOUS
 70
0
 71
3
 72
11
 73
7
 74
0
 42
0.0000001
 43
0.0000001
 44
0.0000000001
 40
0.0
 40
0.0
 40
0.0
 40
0.0
 40
0.268585027
 40
0.524143049
 40
0.7663588335
 40
1.0
 40
1.0
 40
1.0
 40
1.0
 10
35.2868687386
 20
206.7881242185
 30
0.0
 10
35.3453309025
 20
206.3980905033
 30
0.0
 10
35.5595394261
 20
205.6470585442
 30
0.0
 10
36.1712978183
 20
204.6824931315
 30
0.0
 10
37.0184874078
 20
203.9900641214
 30
0.0
 10
37.6981076221
 20
203.7606205161
 30
0.0
 10
38.0378635204
 20
203.7129837877
 30
0.0
  0
SPLINE
  5
411
100
AcDbEntity
  8
0
100
AcDbSpline
 62
7
  6
CONTINUOUS
 70
0
 71
3
 72
15
 73
11
 74
0
 42
0.0000001
 43
0.0000001
 44
0.0000000001
 40
0.0
 40
0.0
 40
0.0
 40
0.0
 40
0.1250153154
 40
0.2538379875
 40
0.3846164535
 40
0.5151278639
 40
0.6432043088
 40
0.7671259233
 40
0.8859861722
 40
1.0
 40
1.0
 40
1.0
 40
1.0
 10
41.6502381142
 20
206.2097782501
 30
0.0
 10
42.6692442727
 20
204.191413709
 30
0.0
 10
44.2645812815
 20
199.8394441446
 30
0.0
 10
45.2358819562
 20
192.9044122997
 30
0.0
 10
44.7899193477
 20
185.8149468242
 30
0.0
 10
42.9510081075
 20
178.9681488673
 30
0.0
 10
39.8190471851
 20
172.7434247294
 30
0.0
 10
35.5585996013
 20
167.4897724017
 30
0.0
 10
30.4012553819
 20
163.5116600442
 30
0.0
 10
26.4704240303
 20
161.8420058774
 30
0.0
 10
24.4787000985
 20
161.3081133575
 30
0.0
  0
SPLINE
  5
412
100
AcDbEntity
  8
0
100
AcDbSpline
 62
7
  6
CONTINUOUS
 70
0
 71
3
 72
9
 73
5
 74
0
 42
0.0000001
 43
0.0000001
 44
0.0000000001
 40
0.0
 40
0.0
 40
0.0
 40
0.0
 40
0.5029954046
 40
1.0
 40
1.0
 40
1.0
 40
1.0
 10
24.4787000985
 20
161.3081133575
 30
0.0
 10
23.1286454793
 20
160.9462238149
 30
0.0
 10
20.3692124671
 20
160.4799248949
 30
0.0
 10
17.570810671
 20
160.5682360591
 30
0.0
 10
16.2017283608
 20
160.7498020383
 30
0.0
  0
SPLINE
  5
413
100
AcDbEntity
  8
0
100
AcDbSpline
 62
7
  6
CONTINUOUS
 70
0
 71
3
 72
13
 73
9
 74
0
 42
0.0000001
 43
0.0000001
 44
0.0000000001
 40
0.0
 40
0.0
 40
0.0
 40
0.0
 40
0.2680788272
 40
0.5231820054
 40
0.6459688318
 40
0.7658126585
 40
0.8834849054
 40
1.0
 40
1.0
 40
1.0
 40
1.0
 10
10.4886739175
 20
205.9708634121
 30
0.0
 10
10.6127057382
 20
205.1433779304
 30
0.0
 10
11.066516217
 20
203.5505882136
 30
0.0
 10
12.1650495832
 20
201.8200579778
 30
0.0
 10
13.2941907518
 20
200.7436788087
 30
0.0
 10
14.2323077989
 20
200.1129622694
 30
0.0
 10
15.248939879
 20
199.6656000254
 30
0.0
 10
15.9651596968
 20
199.4968469067
 30
0.0
 10
16.3253087005
 20
199.4463802663
 30
0.0
  0
SPLINE
  5
414
100
AcDbEntity
  8
0
100
AcDbSpline
 62
7
  6
CONTINUOUS
 70
0
 71
3
 72
13
 73
9
 74
0
 42
0.0000001
 43
0.0000001
 44
0.0000000001
 40
0.0
 40
0.0
 40
0.0
 40
0.0
 40
0.2680786687
 40
0.5231818774
 40
0.6459687635
 40
0.7658126708
 40
0.8834849592
 40
1.0
 40
1.0
 40
1.0
 40
1.0
 10
28.1333123975
 20
192.2455752663
 30
0.0
 10
28.2590662459
 20
191.4066011774
 30
0.0
 10
28.7191774532
 20
189.7916970409
 30
0.0
 10
29.8329626905
 20
188.0371394021
 30
0.0
 10
30.9777816171
 20
186.9458149608
 30
0.0
 10
31.9289242804
 20
186.3063410179
 30
0.0
 10
32.9596717731
 20
185.8527671122
 30
0.0
 10
33.6858358777
 20
185.6816713181
 30
0.0
 10
34.0509851409
 20
185.6305039404
 30
0.0
  0
SPLINE
  5
415
100
AcDbEntity
  8
0
100
AcDbSpline
 62
7
  6
CONTINUOUS
 70
0
 71
3
 72
13
 73
9
 74
0
 42
0.0000001
 43
0.0000001
 44
0.0000000001
 40
0.0
 40
0.0
 40
0.0
 40
0.0
 40
0.2680786687
 40
0.5231818774
 40
0.6459687635
 40
0.7658126708
 40
0.8834849592
 40
1.0
 40
1.0
 40
1.0
 40
1.0
 10
-2.0319778966
 20
184.1596038163
 30
0.0
 10
-1.9062240482
 20
183.3206297274
 30
0.0
 10
-1.4461128408
 20
181.7057255909
 30
0.0
 10
-0.3323276036
 20
179.9511679522
 30
0.0
 10
0.812491323
 20
178.8598435109
 30
0.0
 10
1.7636339863
 20
178.2203695679
 30
0.0
 10
2.7943814791
 20
177.7667956622
 30
0.0
 10
3.5205455837
 20
177.5956998681
 30
0.0
 10
3.8856948468
 20
177.5445324904
 30
0.0
  0
SPLINE
  5
416
100
AcDbEntity
  8
0
100
AcDbSpline
 62
7
  6
CONTINUOUS
 70
0
 71
3
 72
14
 73
10
 74
0
 42
0.0000001
 43
0.0000001
 44
0.0000000001
 40
0.0
 40
0.0
 40
0.0
 40
0.0
 40
0.112448141
 40
0.2274916775
 40
0.3470062042
 40
0.4717279434
 40
0.6012146769
 40
0.7340369274
 40
1.0
 40
1.0
 40
1.0
 40
1.0
 10
19.3084423331
 20
193.9138612091
 30
0.0
 10
19.0676996787
 20
193.9476169223
 30
0.0
 10
18.5679721207
 20
193.9450620016
 30
0.0
 10
17.8399236282
 20
193.7302108918
 30
0.0
 10
17.1703986838
 20
193.3202674482
 30
0.0
 10
16.596688675
 20
192.7414469657
 30
0.0
 10
16.1488477886
 20
192.0266382099
 30
0.0
 10
15.7509734165
 20
190.9505302807
 30
0.0
 10
15.7004322257
 20
190.0592004228
 30
0.0
 10
15.7856632925
 20
189.4905764161
 30
0.0
  0
SPLINE
  5
417
100
AcDbEntity
  8
0
100
AcDbSpline
 62
7
  6
CONTINUOUS
 70
0
 71
3
 72
13
 73
9
 74
0
 42
0.0000001
 43
0.0000001
 44
0.0000000001
 40
0.0
 40
0.0
 40
0.0
 40
0.0
 40
0.1126084488
 40
0.2278154418
 40
0.3474996727
 40
0.4723998863
 40
0.7336631454
 40
1.0
 40
1.0
 40
1.0
 40
1.0
 10
36.4378460509
 20
202.6729869927
 30
0.0
 10
35.870315051
 20
202.7525135753
 30
0.0
 10
34.6922635413
 20
202.746585567
 30
0.0
 10
32.9760269177
 20
202.2401081283
 30
0.0
 10
31.3974849014
 20
201.2735259258
 30
0.0
 10
29.5706657183
 20
199.4302709997
 30
0.0
 10
28.0842466437
 20
196.3480693236
 30
0.0
 10
27.932393647
 20
193.586016356
 30
0.0
 10
28.1333123975
 20
192.2455752663
 30
0.0
  0
SPLINE
  5
418
100
AcDbEntity
  8
0
100
AcDbSpline
 62
7
  6
CONTINUOUS
 70
0
 71
3
 72
13
 73
9
 74
0
 42
0.0000001
 43
0.0000001
 44
0.0000000001
 40
0.0
 40
0.0
 40
0.0
 40
0.0
 40
0.1126084987
 40
0.2278155735
 40
0.3474998634
 40
0.4724000537
 40
0.7336631787
 40
1.0
 40
1.0
 40
1.0
 40
1.0
 10
18.6794834306
 20
216.2554799094
 30
0.0
 10
18.1197240644
 20
216.3339173737
 30
0.0
 10
16.9578043852
 20
216.3280704765
 30
0.0
 10
15.2650694398
 20
215.8285281635
 30
0.0
 10
13.7081441359
 20
214.8751817193
 30
0.0
 10
11.9063427027
 20
213.0571685706
 30
0.0
 10
10.4402800713
 20
210.0171759502
 30
0.0
 10
10.2905066176
 20
207.2929480397
 30
0.0
 10
10.4886739175
 20
205.9708634121
 30
0.0
  0
SPLINE
  5
419
100
AcDbEntity
  8
0
100
AcDbSpline
 62
7
  6
CONTINUOUS
 70
0
 71
3
 72
11
 73
7
 74
0
 42
0.0000001
 43
0.0000001
 44
0.0000000001
 40
0.0
 40
0.0
 40
0.0
 40
0.0
 40
0.2685799182
 40
0.5241375606
 40
0.766355607
 40
1.0
 40
1.0
 40
1.0
 40
1.0
 10
15.7856632925
 20
189.4905764161
 30
0.0
 10
15.8390092046
 20
189.1346760691
 30
0.0
 10
16.0344691931
 20
188.4493638791
 30
0.0
 10
16.5926863636
 20
187.5691906092
 30
0.0
 10
17.3657488231
 20
186.9373342451
 30
0.0
 10
17.9859098639
 20
186.7279570678
 30
0.0
 10
18.2959423141
 20
186.6844858911
 30
0.0
  0
SPLINE
  5
41A
100
AcDbEntity
  8
0
100
AcDbSpline
 62
7
  6
CONTINUOUS
 70
0
 71
3
 72
11
 73
7
 74
0
 42
0.0000001
 43
0.0000001
 44
0.0000000001
 40
0.0
 40
0.0
 40
0.0
 40
0.0
 40
0.2685787152
 40
0.5241388148
 40
0.7663550574
 40
1.0
 40
1.0
 40
1.0
 40
1.0
 10
16.8334673722
 20
171.3164158156
 30
0.0
 10
16.9153131425
 20
170.7703770122
 30
0.0
 10
17.2152165005
 20
169.7189431301
 30
0.0
 10
18.0716329248
 20
168.3685020603
 30
0.0
 10
19.2577015372
 20
167.3991208514
 30
0.0
 10
20.2091617872
 20
167.0777115827
 30
0.0
 10
20.6848479564
 20
167.0111353376
 30
0.0
  0
SPLINE
  5
41B
100
AcDbEntity
  8
0
100
AcDbSpline
 62
7
  6
CONTINUOUS
 70
0
 71
3
 72
11
 73
7
 74
0
 42
0.0000001
 43
0.0000001
 44
0.0000000001
 40
0.0
 40
0.0
 40
0.0
 40
0.0
 40
0.2363237497
 40
0.4793681027
 40
0.7336320076
 40
1.0
 40
1.0
 40
1.0
 40
1.0
 10
7.3674918027
 20
169.9702010185
 30
0.0
 10
7.2196626812
 20
169.9908759911
 30
0.0
 10
6.9108645076
 20
169.9839087356
 30
0.0
 10
6.4671740121
 20
169.8282491327
 30
0.0
 10
6.0712951324
 20
169.5424080005
 30
0.0
 10
5.8608851542
 20
169.2845276356
 30
0.0
 10
5.7704531472
 20
169.1426534341
 30
0.0
  0
SPLINE
  5
41C
100
AcDbEntity
  8
0
100
AcDbSpline
 62
7
  6
CONTINUOUS
 70
0
 71
3
 72
11
 73
7
 74
0
 42
0.0000001
 43
0.0000001
 44
0.0000000001
 40
0.0
 40
0.0
 40
0.0
 40
0.0
 40
0.2386452065
 40
0.482634015
 40
0.7358883456
 40
1.0
 40
1.0
 40
1.0
 40
1.0
 10
13.9691107132
 20
167.4834305938
 30
0.0
 10
13.7094560187
 20
167.5197742404
 30
0.0
 10
13.1709622499
 20
167.5183850752
 30
0.0
 10
12.3850094133
 20
167.2920543426
 30
0.0
 10
11.6599488182
 20
166.858323481
 30
0.0
 10
11.250635597
 20
166.4556861955
 30
0.0
 10
11.0666887204
 20
166.2312782725
 30
0.0
  0
SPLINE
  5
41D
100
AcDbEntity
  8
0
100
AcDbSpline
 62
7
  6
CONTINUOUS
 70
0
 71
3
 72
9
 73
5
 74
0
 42
0.0000001
 43
0.0000001
 44
0.0000000001
 40
0.0
 40
0.0
 40
0.0
 40
0.0
 40
0.4967175639
 40
1.0
 40
1.0
 40
1.0
 40
1.0
 10
24.4195355186
 20
219.425962738
 30
0.0
 10
25.8483446601
 20
219.2152549633
 30
0.0
 10
28.6878782886
 20
218.4860555546
 30
0.0
 10
31.3143411063
 20
217.187078233
 30
0.0
 10
32.556007202
 20
216.4127014199
 30
0.0
  0
SPLINE
  5
41E
100
AcDbEntity
  8
0
100
AcDbSpline
 62
7
  6
CONTINUOUS
 70
0
 71
3
 72
9
 73
5
 74
0
 42
0.0000001
 43
0.0000001
 44
0.0000000001
 40
0.0
 40
0.0
 40
0.0
 40
0.0
 40
0.4965985604
 40
1.0
 40
1.0
 40
1.0
 40
1.0
 10
-1.3528452314
 20
200.7792624494
 30
0.0
 10
-1.5565160081
 20
200.8077871751
 30
0.0
 10
-1.9742984043
 20
200.8195789531
 30
0.0
 10
-2.3844078156
 20
200.7404001524
 30
0.0
 10
-2.5839312564
 20
200.679963529
 30
0.0
  0
SPLINE
  5
41F
100
AcDbEntity
  8
0
100
AcDbSpline
 62
7
  6
CONTINUOUS
 70
0
 71
3
 72
13
 73
9
 74
0
 42
0.0000001
 43
0.0000001
 44
0.0000000001
 40
0.0
 40
0.0
 40
0.0
 40
0.0
 40
0.1126063869
 40
0.2278108618
 40
0.347493068
 40
0.4723910782
 40
0.7336559006
 40
1.0
 40
1.0
 40
1.0
 40
1.0
 10
29.1583776015
 20
190.2885611349
 30
0.0
 10
29.4664034386
 20
190.2454531306
 30
0.0
 10
30.1057589332
 20
190.2485983702
 30
0.0
 10
31.0372260876
 20
190.5234950576
 30
0.0
 10
31.8939626115
 20
191.0480672297
 30
0.0
 10
32.8854747443
 20
192.048457011
 30
0.0
 10
33.6922611586
 20
193.721310031
 30
0.0
 10
33.7746577377
 20
195.2204260605
 30
0.0
 10
33.6656073596
 20
195.9479619795
 30
0.0
  0
SPLINE
  5
420
100
AcDbEntity
  8
0
100
AcDbSpline
 62
7
  6
CONTINUOUS
 70
0
 71
3
 72
13
 73
9
 74
0
 42
0.0000001
 43
0.0000001
 44
0.0000000001
 40
0.0
 40
0.0
 40
0.0
 40
0.0
 40
0.1126063754
 40
0.2278108572
 40
0.3474930544
 40
0.4723910276
 40
0.733655818
 40
1.0
 40
1.0
 40
1.0
 40
1.0
 10
-1.0041387083
 20
182.222396281
 30
0.0
 10
-0.6974320691
 20
182.1794729161
 30
0.0
 10
-0.0608147341
 20
182.1826046548
 30
0.0
 10
0.8666632396
 20
182.4563240318
 30
0.0
 10
1.7197305695
 20
182.978649567
 30
0.0
 10
2.7069962935
 20
183.9747548102
 30
0.0
 10
3.5103277174
 20
185.6404435019
 30
0.0
 10
3.5923715257
 20
187.1331395038
 30
0.0
 10
3.4837881393
 20
187.8575598602
 30
0.0
  0
SPLINE
  5
421
100
AcDbEntity
  8
0
100
AcDbSpline
 62
7
  6
CONTINUOUS
 70
0
 71
3
 72
11
 73
7
 74
0
 42
0.0000001
 43
0.0000001
 44
0.0000000001
 40
0.0
 40
0.0
 40
0.0
 40
0.0
 40
0.2685856673
 40
0.5241520489
 40
0.76636524
 40
1.0
 40
1.0
 40
1.0
 40
1.0
 10
1.3981412665
 20
197.7040650186
 30
0.0
 10
1.339678503
 20
198.0941027338
 30
0.0
 10
1.1254386215
 20
198.8451399342
 30
0.0
 10
0.513719857
 20
199.809760157
 30
0.0
 10
-0.3334902229
 20
200.5021558241
 30
0.0
 10
-1.0130887105
 20
200.7316784921
 30
0.0
 10
-1.3528452314
 20
200.7792624494
 30
0.0
  0
SPLINE
  5
422
100
AcDbEntity
  8
0
100
AcDbSpline
 62
7
  6
CONTINUOUS
 70
0
 71
3
 72
13
 73
9
 74
0
 42
0.0000001
 43
0.0000001
 44
0.0000000001
 40
0.0
 40
0.0
 40
0.0
 40
0.0
 40
0.1126084488
 40
0.2278154418
 40
0.3474996727
 40
0.4723998863
 40
0.7336631454
 40
1.0
 40
1.0
 40
1.0
 40
1.0
 10
34.0509851409
 20
185.6305039404
 30
0.0
 10
34.6185161408
 20
185.5509773578
 30
0.0
 10
35.7965676505
 20
185.5569053661
 30
0.0
 10
37.5128042741
 20
186.0633828047
 30
0.0
 10
39.0913462904
 20
187.0299650072
 30
0.0
 10
40.9181654735
 20
188.8732199333
 30
0.0
 10
42.4045845481
 20
191.9554216095
 30
0.0
 10
42.5564375448
 20
194.7174745771
 30
0.0
 10
42.3555187943
 20
196.0579156668
 30
0.0
  0
SPLINE
  5
423
100
AcDbEntity
  8
0
100
AcDbSpline
 62
7
  6
CONTINUOUS
 70
0
 71
3
 72
12
 73
8
 74
0
 42
0.0000001
 43
0.0000001
 44
0.0000000001
 40
0.0
 40
0.0
 40
0.0
 40
0.0
 40
0.2641264027
 40
0.519695353
 40
0.7646839856
 40
0.8834894343
 40
1.0
 40
1.0
 40
1.0
 40
1.0
 10
-2.5839312564
 20
200.679963529
 30
0.0
 10
-1.7747819454
 20
202.9039326493
 30
0.0
 10
0.2753581728
 20
207.1313087797
 30
0.0
 10
4.5638828475
 20
212.5445106409
 30
0.0
 10
8.9849541012
 20
216.0036967927
 30
0.0
 10
12.8358796986
 20
217.948094197
 30
0.0
 10
14.8364955406
 20
218.6391136506
 30
0.0
 10
15.8448407992
 20
218.9094061256
 30
0.0
  0
SPLINE
  5
424
100
AcDbEntity
  8
0
100
AcDbSpline
 62
7
  6
CONTINUOUS
 70
0
 71
3
 72
9
 73
5
 74
0
 42
0.0000001
 43
0.0000001
 44
0.0000000001
 40
0.0
 40
0.0
 40
0.0
 40
0.0
 40
0.5030230424
 40
1.0
 40
1.0
 40
1.0
 40
1.0
 10
15.8448407992
 20
218.9094061256
 30
0.0
 10
17.243410115
 20
219.2843002986
 30
0.0
 10
20.105012334
 20
219.7578342323
 30
0.0
 10
23.0043013483
 20
219.6346685994
 30
0.0
 10
24.4195355186
 20
219.425962738
 30
0.0
  0
SPLINE
  5
425
100
AcDbEntity
  8
0
100
AcDbSpline
 62
7
  6
CONTINUOUS
 70
0
 71
3
 72
11
 73
7
 74
0
 42
0.0000001
 43
0.0000001
 44
0.0000000001
 40
0.0
 40
0.0
 40
0.0
 40
0.0
 40
0.2368653807
 40
0.4825714061
 40
0.7373695825
 40
1.0
 40
1.0
 40
1.0
 40
1.0
 10
33.6605819271
 20
202.3860483707
 30
0.0
 10
34.0906689342
 20
202.0891484496
 30
0.0
 10
34.8970790081
 20
201.3773710102
 30
0.0
 10
35.8603385213
 20
200.0520914816
 30
0.0
 10
36.5610990895
 20
198.5095914562
 30
0.0
 10
36.8313105257
 20
197.392629491
 30
0.0
 10
36.917206293
 20
196.819570901
 30
0.0
  0
SPLINE
  5
426
100
AcDbEntity
  8
0
100
AcDbSpline
 62
7
  6
CONTINUOUS
 70
0
 71
3
 72
13
 73
9
 74
0
 42
0.0000001
 43
0.0000001
 44
0.0000000001
 40
0.0
 40
0.0
 40
0.0
 40
0.0
 40
0.1126063869
 40
0.2278108618
 40
0.347493068
 40
0.4723910782
 40
0.7336559006
 40
1.0
 40
1.0
 40
1.0
 40
1.0
 10
11.4163580712
 20
203.9877457562
 30
0.0
 10
11.7243839082
 20
203.9446377519
 30
0.0
 10
12.3637394028
 20
203.9477829915
 30
0.0
 10
13.2952065572
 20
204.222679679
 30
0.0
 10
14.1519430812
 20
204.747251851
 30
0.0
 10
15.1434552139
 20
205.7476416323
 30
0.0
 10
15.9502416283
 20
207.4204946523
 30
0.0
 10
16.0326382074
 20
208.9196106819
 30
0.0
 10
15.9235878292
 20
209.6471466008
 30
0.0
  0
SPLINE
  5
427
100
AcDbEntity
  8
0
100
AcDbSpline
 62
7
  6
CONTINUOUS
 70
0
 71
3
 72
13
 73
9
 74
0
 42
0.0000001
 43
0.0000001
 44
0.0000000001
 40
0.0
 40
0.0
 40
0.0
 40
0.0
 40
0.1126084488
 40
0.2278154418
 40
0.3474996727
 40
0.4723998863
 40
0.7336631454
 40
1.0
 40
1.0
 40
1.0
 40
1.0
 10
3.8856948468
 20
177.5445324904
 30
0.0
 10
4.4532258468
 20
177.4650059078
 30
0.0
 10
5.6312773564
 20
177.4709339161
 30
0.0
 10
7.34751398
 20
177.9774113548
 30
0.0
 10
8.9260559963
 20
178.9439935573
 30
0.0
 10
10.7528751795
 20
180.7872484834
 30
0.0
 10
12.239294254
 20
183.8694501595
 30
0.0
 10
12.3911472507
 20
186.6315031271
 30
0.0
 10
12.1902285003
 20
187.9719442168
 30
0.0
  0
SPLINE
  5
428
100
AcDbEntity
  8
0
100
AcDbSpline
 62
7
  6
CONTINUOUS
 70
0
 71
3
 72
11
 73
7
 74
0
 42
0.0000001
 43
0.0000001
 44
0.0000000001
 40
0.0
 40
0.0
 40
0.0
 40
0.0
 40
0.2368653807
 40
0.4825714061
 40
0.7373695825
 40
1.0
 40
1.0
 40
1.0
 40
1.0
 10
3.495291633
 20
194.3000769207
 30
0.0
 10
3.9253786401
 20
194.0031769997
 30
0.0
 10
4.731788714
 20
193.2913995603
 30
0.0
 10
5.6950482272
 20
191.9661200316
 30
0.0
 10
6.3958087954
 20
190.4236200063
 30
0.0
 10
6.6660202317
 20
189.3066580411
 30
0.0
 10
6.7519159989
 20
188.7335994511
 30
0.0
  0
SPLINE
  5
429
100
AcDbEntity
  8
0
100
AcDbSpline
 62
7
  6
CONTINUOUS
 70
0
 71
3
 72
13
 73
9
 74
0
 42
0.0000001
 43
0.0000001
 44
0.0000000001
 40
0.0
 40
0.0
 40
0.0
 40
0.0
 40
0.1126084987
 40
0.2278155735
 40
0.3474998634
 40
0.4724000537
 40
0.7336631787
 40
1.0
 40
1.0
 40
1.0
 40
1.0
 10
16.3253087005
 20
199.4463802663
 30
0.0
 10
16.8850680667
 20
199.367942802
 30
0.0
 10
18.0469877458
 20
199.3737896992
 30
0.0
 10
19.7397226913
 20
199.8733320122
 30
0.0
 10
21.2966479951
 20
200.8266784564
 30
0.0
 10
23.0984494283
 20
202.6446916051
 30
0.0
 10
24.5645120598
 20
205.6846842255
 30
0.0
 10
24.7142855135
 20
208.408912136
 30
0.0
 10
24.5161182136
 20
209.7309967636
 30
0.0
  0
SPLINE
  5
42A
100
AcDbEntity
  8
0
100
AcDbSpline
 62
7
  6
CONTINUOUS
 70
0
 71
3
 72
13
 73
9
 74
0
 42
0.0000001
 43
0.0000001
 44
0.0000000001
 40
0.0
 40
0.0
 40
0.0
 40
0.0
 40
0.1126085411
 40
0.2278165161
 40
0.3475019508
 40
0.4724028239
 40
0.7336657153
 40
1.0
 40
1.0
 40
1.0
 40
1.0
 10
20.6848479564
 20
167.0111353376
 30
0.0
 10
21.0542229199
 20
166.9594382319
 30
0.0
 10
21.8209243759
 20
166.9632133491
 30
0.0
 10
22.9379171487
 20
167.2928717191
 30
0.0
 10
23.9652889625
 20
167.9219439842
 30
0.0
 10
25.1542425464
 20
169.1215944273
 30
0.0
 10
26.1216425064
 20
171.1275833987
 30
0.0
 10
26.2204286914
 20
172.9252000116
 30
0.0
 10
26.0896660397
 20
173.7975906044
 30
0.0
  0
SPLINE
  5
42B
100
AcDbEntity
  8
0
100
AcDbSpline
 62
7
  6
CONTINUOUS
 70
0
 71
3
 72
11
 73
7
 74
0
 42
0.0000001
 43
0.0000001
 44
0.0000000001
 40
0.0
 40
0.0
 40
0.0
 40
0.0
 40
0.2369367437
 40
0.4826783864
 40
0.7374529906
 40
1.0
 40
1.0
 40
1.0
 40
1.0
 10
15.8943538449
 20
215.9630612981
 30
0.0
 10
16.3148660332
 20
215.6694359306
 30
0.0
 10
17.102943139
 20
214.967531496
 30
0.0
 10
18.0441637605
 20
213.6645219207
 30
0.0
 10
18.7290758242
 20
212.1503413109
 30
0.0
 10
18.99356173
 20
211.0546906086
 30
0.0
 10
19.0778057123
 20
210.4926519979
 30
0.0
  0
SPLINE
  5
42C
100
AcDbEntity
  8
0
100
AcDbSpline
 62
7
  6
CONTINUOUS
 70
0
 71
3
 72
12
 73
8
 74
0
 42
0.0000001
 43
0.0000001
 44
0.0000000001
 40
0.0
 40
0.0
 40
0.0
 40
0.0
 40
0.2600827373
 40
0.5190245398
 40
0.7668455537
 40
0.8853496434
 40
1.0
 40
1.0
 40
1.0
 40
1.0
 10
19.0778057123
 20
210.4926519979
 30
0.0
 10
19.2353123421
 20
209.4418373875
 30
0.0
 10
19.2027065204
 20
207.2789660069
 30
0.0
 10
18.1822421885
 20
204.2659975857
 30
0.0
 10
16.5893034544
 20
202.1939058511
 30
0.0
 10
14.9954633061
 20
201.0268387058
 30
0.0
 10
14.1227734443
 20
200.6248206136
 30
0.0
 10
13.6786276668
 20
200.4760563103
 30
0.0
  0
SPLINE
  5
42D
100
AcDbEntity
  8
0
100
AcDbSpline
 62
7
  6
CONTINUOUS
 70
0
 71
3
 72
11
 73
7
 74
0
 42
0.0000001
 43
0.0000001
 44
0.0000000001
 40
0.0
 40
0.0
 40
0.0
 40
0.0
 40
0.2685853862
 40
0.5241481842
 40
0.7663579131
 40
1.0
 40
1.0
 40
1.0
 40
1.0
 10
15.9235878292
 20
209.6471466008
 30
0.0
 10
15.8553327499
 20
210.1025143188
 30
0.0
 10
15.6052285644
 20
210.9793499694
 30
0.0
 10
14.8910162402
 20
212.1055101715
 30
0.0
 10
13.9019278247
 20
212.9138892821
 30
0.0
 10
13.1084921588
 20
213.1819093605
 30
0.0
 10
12.7118090572
 20
213.237424888
 30
0.0
  0
SPLINE
  5
42E
100
AcDbEntity
  8
0
100
AcDbSpline
 62
7
  6
CONTINUOUS
 70
0
 71
3
 72
9
 73
5
 74
0
 42
0.0000001
 43
0.0000001
 44
0.0000000001
 40
0.0
 40
0.0
 40
0.0
 40
0.0
 40
0.495942125
 40
1.0
 40
1.0
 40
1.0
 40
1.0
 10
15.8748910164
 20
160.9572673528
 30
0.0
 10
16.2332352154
 20
161.4368311026
 30
0.0
 10
16.751015335
 20
162.5673759868
 30
0.0
 10
16.8102926909
 20
163.8065121686
 30
0.0
 10
16.7200989056
 20
164.4082452352
 30
0.0
  0
SPLINE
  5
42F
100
AcDbEntity
  8
0
100
AcDbSpline
 62
7
  6
CONTINUOUS
 70
0
 71
3
 72
13
 73
9
 74
0
 42
0.0000001
 43
0.0000001
 44
0.0000000001
 40
0.0
 40
0.0
 40
0.0
 40
0.0
 40
0.2599829269
 40
0.3906397789
 40
0.519620405
 40
0.7671718498
 40
0.8855126568
 40
1.0
 40
1.0
 40
1.0
 40
1.0
 10
36.917206293
 20
196.819570901
 30
0.0
 10
37.0776139267
 20
195.7494020747
 30
0.0
 10
37.0513862115
 20
194.0870565779
 30
0.0
 10
36.5090345763
 20
191.9862779102
 30
0.0
 10
35.6605895156
 20
190.0459408145
 30
0.0
 10
34.3672378269
 20
188.3769298538
 30
0.0
 10
32.7389945131
 20
187.1988573382
 30
0.0
 10
31.8481512322
 20
186.7959371926
 30
0.0
 10
31.3951487204
 20
186.6480558632
 30
0.0
  0
SPLINE
  5
430
100
AcDbEntity
  8
0
100
AcDbSpline
 62
7
  6
CONTINUOUS
 70
0
 71
3
 72
11
 73
7
 74
0
 42
0.0000001
 43
0.0000001
 44
0.0000000001
 40
0.0
 40
0.0
 40
0.0
 40
0.0
 40
0.2685853862
 40
0.5241481842
 40
0.7663579131
 40
1.0
 40
1.0
 40
1.0
 40
1.0
 10
33.6656073596
 20
195.9479619795
 30
0.0
 10
33.5973522803
 20
196.4033296975
 30
0.0
 10
33.3472480947
 20
197.280165348
 30
0.0
 10
32.6330357705
 20
198.4063255502
 30
0.0
 10
31.643947355
 20
199.2147046608
 30
0.0
 10
30.8505116892
 20
199.4827247391
 30
0.0
 10
30.4538285876
 20
199.5382402667
 30
0.0
  0
SPLINE
  5
431
100
AcDbEntity
  8
0
100
AcDbSpline
 62
7
  6
CONTINUOUS
 70
0
 71
3
 72
11
 73
7
 74
0
 42
0.0000001
 43
0.0000001
 44
0.0000000001
 40
0.0
 40
0.0
 40
0.0
 40
0.0
 40
0.2685825804
 40
0.5241427551
 40
0.7663572547
 40
1.0
 40
1.0
 40
1.0
 40
1.0
 10
16.7200989056
 20
164.4082452352
 30
0.0
 10
16.6616369554
 20
164.7982775249
 30
0.0
 10
16.4474154233
 20
165.5493053092
 30
0.0
 10
15.8356790026
 20
166.5138991201
 30
0.0
 10
14.988489806
 20
167.2063046735
 30
0.0
 10
14.3088819426
 20
167.4358731041
 30
0.0
 10
13.9691107132
 20
167.4834305938
 30
0.0
  0
SPLINE
  5
432
100
AcDbEntity
  8
0
100
AcDbSpline
 62
7
  6
CONTINUOUS
 70
0
 71
3
 72
11
 73
7
 74
0
 42
0.0000001
 43
0.0000001
 44
0.0000000001
 40
0.0
 40
0.0
 40
0.0
 40
0.0
 40
0.2685799181
 40
0.5241375606
 40
0.7663556069
 40
1.0
 40
1.0
 40
1.0
 40
1.0
 10
21.818721353
 20
191.1077706951
 30
0.0
 10
21.7653754392
 20
191.4636710409
 30
0.0
 10
21.569915451
 20
192.1489832286
 30
0.0
 10
21.0116982797
 20
193.0291564947
 30
0.0
 10
20.2386358217
 20
193.6610128561
 30
0.0
 10
19.6184747825
 20
193.8703900325
 30
0.0
 10
19.3084423331
 20
193.9138612091
 30
0.0
  0
SPLINE
  5
433
100
AcDbEntity
  8
0
100
AcDbSpline
 62
7
  6
CONTINUOUS
 70
0
 71
3
 72
11
 73
7
 74
0
 42
0.0000001
 43
0.0000001
 44
0.0000000001
 40
0.0
 40
0.0
 40
0.0
 40
0.0
 40
0.2357167424
 40
0.4785477612
 40
0.7330878072
 40
1.0
 40
1.0
 40
1.0
 40
1.0
 10
32.3201960299
 20
210.7382763172
 30
0.0
 10
32.4728526991
 20
210.7169306813
 30
0.0
 10
32.7923797465
 20
210.7258556049
 30
0.0
 10
33.249273201
 20
210.8940252835
 30
0.0
 10
33.6528765689
 20
211.1995929956
 30
0.0
 10
33.8634452734
 20
211.4732738323
 30
0.0
 10
33.9526248699
 20
211.6233128066
 30
0.0
  0
SPLINE
  5
434
100
AcDbEntity
  8
0
100
AcDbSpline
 62
7
  6
CONTINUOUS
 70
0
 71
3
 72
11
 73
7
 74
0
 42
0.0000001
 43
0.0000001
 44
0.0000000001
 40
0.0
 40
0.0
 40
0.0
 40
0.0
 40
0.2685787151
 40
0.5241388147
 40
0.7663550573
 40
1.0
 40
1.0
 40
1.0
 40
1.0
 10
26.0896660397
 20
173.7975906044
 30
0.0
 10
26.0078202675
 20
174.3436294063
 30
0.0
 10
25.7079169098
 20
175.3950632859
 30
0.0
 10
24.8515004847
 20
176.7455043515
 30
0.0
 10
23.665431874
 20
177.7148855573
 30
0.0
 10
22.7139716256
 20
178.036294825
 30
0.0
 10
22.2382854573
 20
178.1028710701
 30
0.0
  0
SPLINE
  5
435
100
AcDbEntity
  8
0
100
AcDbSpline
 62
7
  6
CONTINUOUS
 70
0
 71
3
 72
11
 73
7
 74
0
 42
0.0000001
 43
0.0000001
 44
0.0000000001
 40
0.0
 40
0.0
 40
0.0
 40
0.0
 40
0.2352021081
 40
0.4778778519
 40
0.7326246909
 40
1.0
 40
1.0
 40
1.0
 40
1.0
 10
38.0378635204
 20
203.7129837877
 30
0.0
 10
38.351440857
 20
203.669017521
 30
0.0
 10
39.0090389412
 20
203.6905543544
 30
0.0
 10
39.9451034675
 20
204.0491109388
 30
0.0
 10
40.7647688978
 20
204.6947727963
 30
0.0
 10
41.1851682684
 20
205.2696142245
 30
0.0
 10
41.3608081075
 20
205.5838125438
 30
0.0
  0
SPLINE
  5
436
100
AcDbEntity
  8
0
100
AcDbSpline
 62
7
  6
CONTINUOUS
 70
0
 71
3
 72
9
 73
5
 74
0
 42
0.0000001
 43
0.0000001
 44
0.0000000001
 40
0.0
 40
0.0
 40
0.0
 40
0.0
 40
0.4988060658
 40
1.0
 40
1.0
 40
1.0
 40
1.0
 10
8.4841966107
 20
166.962474685
 30
0.0
 10
8.6048175073
 20
167.1830859306
 30
0.0
 10
8.7724149823
 20
167.669049265
 30
0.0
 10
8.7804389339
 20
168.1827898524
 30
0.0
 10
8.7429895205
 20
168.4326357847
 30
0.0
  0
SPLINE
  5
437
100
AcDbEntity
  8
0
100
AcDbSpline
 62
7
  6
CONTINUOUS
 70
0
 71
3
 72
13
 73
9
 74
0
 42
0.0000001
 43
0.0000001
 44
0.0000000001
 40
0.0
 40
0.0
 40
0.0
 40
0.0
 40
0.2599829269
 40
0.3906397789
 40
0.519620405
 40
0.7671718498
 40
0.8855126568
 40
1.0
 40
1.0
 40
1.0
 40
1.0
 10
6.7519159989
 20
188.7335994511
 30
0.0
 10
6.9123236327
 20
187.6634306248
 30
0.0
 10
6.8860959174
 20
186.001085128
 30
0.0
 10
6.3437442822
 20
183.9003064603
 30
0.0
 10
5.4952992216
 20
181.9599693646
 30
0.0
 10
4.2019475328
 20
180.2909584039
 30
0.0
 10
2.573704219
 20
179.1128858882
 30
0.0
 10
1.6828609381
 20
178.7099657427
 30
0.0
 10
1.2298584263
 20
178.5620844133
 30
0.0
  0
SPLINE
  5
438
100
AcDbEntity
  8
0
100
AcDbSpline
 62
7
  6
CONTINUOUS
 70
0
 71
3
 72
11
 73
7
 74
0
 42
0.0000001
 43
0.0000001
 44
0.0000000001
 40
0.0
 40
0.0
 40
0.0
 40
0.0
 40
0.2685855382
 40
0.5241483399
 40
0.7663579987
 40
1.0
 40
1.0
 40
1.0
 40
1.0
 10
3.4837881393
 20
187.8575598602
 30
0.0
 10
3.4158253346
 20
188.3109776516
 30
0.0
 10
3.1667921613
 20
189.1840583962
 30
0.0
 10
2.4556381766
 20
190.3053955743
 30
0.0
 10
1.4707858228
 20
191.1103123856
 30
0.0
 10
0.6807484121
 20
191.3771844908
 30
0.0
 10
0.2857643093
 20
191.4324622207
 30
0.0
  0
SPLINE
  5
439
100
AcDbEntity
  8
0
100
AcDbSpline
 62
7
  6
CONTINUOUS
 70
0
 71
3
 72
11
 73
7
 74
0
 42
0.0000001
 43
0.0000001
 44
0.0000000001
 40
0.0
 40
0.0
 40
0.0
 40
0.0
 40
0.2685798177
 40
0.5241476876
 40
0.7663615879
 40
1.0
 40
1.0
 40
1.0
 40
1.0
 10
8.7429895205
 20
168.4326357847
 30
0.0
 10
8.7137589586
 20
168.6276491726
 30
0.0
 10
8.6066483799
 20
169.0031633112
 30
0.0
 10
8.3007876452
 20
169.4854717602
 30
0.0
 10
7.877173668
 20
169.8316457025
 30
0.0
 10
7.5373762213
 20
169.9464414529
 30
0.0
 10
7.3674918027
 20
169.9702010185
 30
0.0
  0
SPLINE
  5
43A
100
AcDbEntity
  8
0
100
AcDbSpline
 62
7
  6
CONTINUOUS
 70
0
 71
3
 72
11
 73
7
 74
0
 42
0.0000001
 43
0.0000001
 44
0.0000000001
 40
0.0
 40
0.0
 40
0.0
 40
0.0
 40
0.2359107186
 40
0.4828899298
 40
0.738958184
 40
1.0
 40
1.0
 40
1.0
 40
1.0
 10
4.1489858383
 20
166.5988153912
 30
0.0
 10
2.4527187964
 20
168.1939619373
 30
0.0
 10
-0.5578244019
 20
171.9774330628
 30
0.0
 10
-3.5278984745
 20
178.7146870276
 30
0.0
 10
-4.8987711681
 20
186.1950199306
 30
0.0
 10
-4.6896069267
 20
191.3429338854
 30
0.0
 10
-4.306939336
 20
193.8908855952
 30
0.0
  0
SPLINE
  5
43B
100
AcDbEntity
  8
0
100
AcDbSpline
 62
7
  6
CONTINUOUS
 70
0
 71
3
 72
13
 73
9
 74
0
 42
0.0000001
 43
0.0000001
 44
0.0000000001
 40
0.0
 40
0.0
 40
0.0
 40
0.0
 40
0.2680788272
 40
0.5231820054
 40
0.6459688318
 40
0.7658126585
 40
0.8834849054
 40
1.0
 40
1.0
 40
1.0
 40
1.0
 10
24.5161182136
 20
209.7309967636
 30
0.0
 10
24.3920863928
 20
210.5584822453
 30
0.0
 10
23.938275914
 20
212.1512719621
 30
0.0
 10
22.8397425479
 20
213.8818021978
 30
0.0
 10
21.7106013793
 20
214.958181367
 30
0.0
 10
20.7724843321
 20
215.5888979063
 30
0.0
 10
19.7558522521
 20
216.0362601503
 30
0.0
 10
19.0396324342
 20
216.205013269
 30
0.0
 10
18.6794834306
 20
216.2554799094
 30
0.0
  0
SPLINE
  5
43C
100
AcDbEntity
  8
0
100
AcDbSpline
 62
7
  6
CONTINUOUS
 70
0
 71
3
 72
13
 73
9
 74
0
 42
0.0000001
 43
0.0000001
 44
0.0000000001
 40
0.0
 40
0.0
 40
0.0
 40
0.0
 40
0.2680786687
 40
0.5231818774
 40
0.6459687635
 40
0.7658126708
 40
0.8834849592
 40
1.0
 40
1.0
 40
1.0
 40
1.0
 10
42.3555187943
 20
196.0579156668
 30
0.0
 10
42.2297649459
 20
196.8968897557
 30
0.0
 10
41.7696537386
 20
198.5117938922
 30
0.0
 10
40.6558685013
 20
200.2663515309
 30
0.0
 10
39.5110495747
 20
201.3576759722
 30
0.0
 10
38.5599069114
 20
201.9971499152
 30
0.0
 10
37.5291594187
 20
202.4507238209
 30
0.0
 10
36.8029953141
 20
202.621819615
 30
0.0
 10
36.4378460509
 20
202.6729869927
 30
0.0
  0
SPLINE
  5
43D
100
AcDbEntity
  8
0
100
AcDbSpline
 62
7
  6
CONTINUOUS
 70
0
 71
3
 72
18
 73
14
 74
0
 42
0.0000001
 43
0.0000001
 44
0.0000000001
 40
0.0
 40
0.0
 40
0.0
 40
0.0
 40
0.1301595459
 40
0.2519309599
 40
0.3102729739
 40
0.367490616
 40
0.4244598012
 40
0.4821067573
 40
0.5412263595
 40
0.602342371
 40
0.7304300896
 40
0.8648004808
 40
1.0
 40
1.0
 40
1.0
 40
1.0
 10
15.0791256459
 20
188.7463289357
 30
0.0
 10
15.1929238085
 20
187.9871178977
 30
0.0
 10
15.6575323438
 20
186.5386615451
 30
0.0
 10
16.857239526
 20
185.0848147681
 30
0.0
 10
18.0602801015
 20
184.3478686254
 30
0.0
 10
19.0351382637
 20
184.024683618
 30
0.0
 10
20.0545110459
 20
183.939300188
 30
0.0
 10
21.0765729123
 20
184.0945013935
 30
0.0
 10
22.0603865483
 20
184.4828579408
 30
0.0
 10
23.2876779154
 20
185.2989615932
 30
0.0
 10
24.5266688067
 20
186.8133937495
 30
0.0
 10
25.3288351721
 20
189.0587462018
 30
0.0
 10
25.3626198451
 20
190.6825817158
 30
0.0
 10
25.2444152518
 20
191.4711905476
 30
0.0
  0
SPLINE
  5
43E
100
AcDbEntity
  8
0
100
AcDbSpline
 62
7
  6
CONTINUOUS
 70
0
 71
3
 72
18
 73
14
 74
0
 42
0.0000001
 43
0.0000001
 44
0.0000000001
 40
0.0
 40
0.0
 40
0.0
 40
0.0
 40
0.1301595459
 40
0.2519309599
 40
0.3102729739
 40
0.367490616
 40
0.4244598012
 40
0.4821067572
 40
0.5412263595
 40
0.602342371
 40
0.7304300896
 40
0.8648004808
 40
1.0
 40
1.0
 40
1.0
 40
1.0
 10
25.2444152518
 20
191.4711905476
 30
0.0
 10
25.1306170943
 20
192.2304015863
 30
0.0
 10
24.6660085513
 20
193.6788579376
 30
0.0
 10
23.4663013719
 20
195.1327047151
 30
0.0
 10
22.2632607961
 20
195.8696508578
 30
0.0
 10
21.288402634
 20
196.1928358652
 30
0.0
 10
20.2690298518
 20
196.2782192951
 30
0.0
 10
19.2469679855
 20
196.1230180896
 30
0.0
 10
18.2631543494
 20
195.7346615423
 30
0.0
 10
17.0358629825
 20
194.91855789
 30
0.0
 10
15.7968720904
 20
193.4041257336
 30
0.0
 10
14.9947057284
 20
191.1587732818
 30
0.0
 10
14.9609210473
 20
189.5349377667
 30
0.0
 10
15.0791256459
 20
188.7463289357
 30
0.0
  0
SPLINE
  5
43F
100
AcDbEntity
  8
0
100
AcDbSpline
 62
7
  6
CONTINUOUS
 70
0
 71
3
 72
20
 73
16
 74
0
 42
0.0000001
 43
0.0000001
 44
0.0000000001
 40
0.0
 40
0.0
 40
0.0
 40
0.0
 40
0.130013733
 40
0.1922176575
 40
0.2522857245
 40
0.3105649812
 40
0.3677199496
 40
0.4246261255
 40
0.4822089846
 40
0.5412627321
 40
0.6023109077
 40
0.7302582721
 40
0.7971232753
 40
0.8649525325
 40
1.0
 40
1.0
 40
1.0
 40
1.0
 10
16.1269297259
 20
170.5721683336
 30
0.0
 10
16.2768076828
 20
169.5722488568
 30
0.0
 10
16.7497958939
 20
168.1094518506
 30
0.0
 10
17.8627407952
 20
166.4816811784
 30
0.0
 10
18.8801226365
 20
165.498244919
 30
0.0
 10
20.0533988827
 20
164.7788596317
 30
0.0
 10
21.3373141348
 20
164.353451302
 30
0.0
 10
22.6799266382
 20
164.2409772882
 30
0.0
 10
24.0260190498
 20
164.4454066691
 30
0.0
 10
25.3218318996
 20
164.956963524
 30
0.0
 10
26.9379167325
 20
166.0314023818
 30
0.0
 10
28.2320446141
 20
167.6130113477
 30
0.0
 10
29.0861003178
 20
169.4759400781
 30
0.0
 10
29.6374622917
 20
171.5072718241
 30
0.0
 10
29.671040707
 20
173.1223771519
 30
0.0
 10
29.5153599386
 20
174.1610104566
 30
0.0
  0
SPLINE
  5
440
100
AcDbEntity
  8
0
100
AcDbSpline
 62
7
  6
CONTINUOUS
 70
0
 71
3
 72
20
 73
16
 74
0
 42
0.0000001
 43
0.0000001
 44
0.0000000001
 40
0.0
 40
0.0
 40
0.0
 40
0.0
 40
0.130013733
 40
0.1922176575
 40
0.2522857245
 40
0.3105649812
 40
0.3677199496
 40
0.4246261255
 40
0.4822089846
 40
0.5412627321
 40
0.6023109077
 40
0.7302582721
 40
0.7971232753
 40
0.8649525325
 40
1.0
 40
1.0
 40
1.0
 40
1.0
 10
29.5153599386
 20
174.1610104566
 30
0.0
 10
29.3654819865
 20
175.1609299342
 30
0.0
 10
28.8924937694
 20
176.6237269394
 30
0.0
 10
27.7795488696
 20
178.2514976122
 30
0.0
 10
26.7621670279
 20
179.2349338714
 30
0.0
 10
25.5888907819
 20
179.9543191589
 30
0.0
 10
24.3049755297
 20
180.3797274886
 30
0.0
 10
22.9623630262
 20
180.4922015025
 30
0.0
 10
21.6162706146
 20
180.2877721215
 30
0.0
 10
20.3204577647
 20
179.7762152667
 30
0.0
 10
18.7043729318
 20
178.7017764088
 30
0.0
 10
17.4102450503
 20
177.1201674427
 30
0.0
 10
16.5561893462
 20
175.2572387123
 30
0.0
 10
16.0048273739
 20
173.2259069663
 30
0.0
 10
15.9712489524
 20
171.6108016376
 30
0.0
 10
16.1269297259
 20
170.5721683336
 30
0.0
  0
SPLINE
  5
441
100
AcDbEntity
  8
0
100
AcDbSpline
 62
7
  6
CONTINUOUS
 70
0
 71
3
 72
13
 73
9
 74
0
 42
0.0000001
 43
0.0000001
 44
0.0000000001
 40
0.0
 40
0.0
 40
0.0
 40
0.0
 40
0.2680786687
 40
0.5231818774
 40
0.6459687635
 40
0.7658126708
 40
0.8834849592
 40
1.0
 40
1.0
 40
1.0
 40
1.0
 10
12.1902285003
 20
187.9719442168
 30
0.0
 10
12.0644746518
 20
188.8109183058
 30
0.0
 10
11.6043634445
 20
190.4258224422
 30
0.0
 10
10.4905782073
 20
192.180380081
 30
0.0
 10
9.3457592807
 20
193.2717045223
 30
0.0
 10
8.3946166173
 20
193.9111784652
 30
0.0
 10
7.3638691246
 20
194.3647523709
 30
0.0
 10
6.63770502
 20
194.535848165
 30
0.0
 10
6.2725557568
 20
194.5870155427
 30
0.0
  0
SPLINE
  5
442
100
AcDbEntity
  8
0
100
AcDbSpline
 62
7
  6
CONTINUOUS
 70
0
 71
3
 72
14
 73
10
 74
0
 42
0.0000001
 43
0.0000001
 44
0.0000000001
 40
0.0
 40
0.0
 40
0.0
 40
0.0
 40
0.112448141
 40
0.2274916774
 40
0.3470062042
 40
0.4717279434
 40
0.6012146769
 40
0.7340369275
 40
1.0
 40
1.0
 40
1.0
 40
1.0
 10
18.2959423141
 20
186.6844858911
 30
0.0
 10
18.5366849688
 20
186.6507301778
 30
0.0
 10
19.0364125276
 20
186.6532850987
 30
0.0
 10
19.7644610212
 20
186.8681362093
 30
0.0
 10
20.4339859664
 20
187.2780796544
 30
0.0
 10
21.0076959755
 20
187.8569001386
 30
0.0
 10
21.4555368618
 20
188.5717088965
 30
0.0
 10
21.853411232
 20
189.6478168281
 30
0.0
 10
21.9039524229
 20
190.5391466879
 30
0.0
 10
21.8187213529
 20
191.1077706951
 30
0.0
  0
SPLINE
  5
443
100
AcDbEntity
  8
0
100
AcDbSpline
 62
7
  6
CONTINUOUS
 70
0
 71
3
 72
14
 73
10
 74
0
 42
0.0000001
 43
0.0000001
 44
0.0000000001
 40
0.0
 40
0.0
 40
0.0
 40
0.0
 40
0.112450047
 40
0.2274906691
 40
0.3470024974
 40
0.4717219054
 40
0.6012059255
 40
0.7340306918
 40
1.0
 40
1.0
 40
1.0
 40
1.0
 10
-2.4624333016
 20
192.8566675764
 30
0.0
 10
-2.1985951255
 20
192.8197214701
 30
0.0
 10
-1.650960354
 20
192.8224061461
 30
0.0
 10
-0.8531090646
 20
193.0579123933
 30
0.0
 10
-0.1193924965
 20
193.5071261312
 30
0.0
 10
0.5093149753
 20
194.1414412571
 30
0.0
 10
1.0001174375
 20
194.9247719597
 30
0.0
 10
1.4361371973
 20
196.1040851723
 30
0.0
 10
1.4915472062
 20
197.0809018775
 30
0.0
 10
1.3981412665
 20
197.7040650186
 30
0.0
  0
SPLINE
  5
444
100
AcDbEntity
  8
0
100
AcDbSpline
 62
7
  6
CONTINUOUS
 70
0
 71
3
 72
24
 73
20
 74
0
 42
0.0000001
 43
0.0000001
 44
0.0000000001
 40
0.0
 40
0.0
 40
0.0
 40
0.0
 40
0.0583718639
 40
0.1220149434
 40
0.1902361326
 40
0.26206848
 40
0.3363620789
 40
0.4118489078
 40
0.4872078787
 40
0.5611237532
 40
0.6323466872
 40
0.699755429
 40
0.7624294586
 40
0.8197369975
 40
0.8714491282
 40
0.9178882959
 40
0.9600927638
 40
0.9802033821
 40
1.0
 40
1.0
 40
1.0
 40
1.0
 10
28.6811220741
 20
297.0621382263
 30
0.0
 10
28.2345202892
 20
295.7562153656
 30
0.0
 10
27.0871586744
 20
293.0974820671
 30
0.0
 10
24.8074156798
 20
289.2099085046
 30
0.0
 10
21.9434066783
 20
285.3276136275
 30
0.0
 10
18.562790431
 20
281.5427849606
 30
0.0
 10
14.7453073333
 20
277.9444729381
 30
0.0
 10
10.5815822113
 20
274.6183558712
 30
0.0
 10
6.1707137286
 20
271.6436017688
 30
0.0
 10
1.6177011398
 20
269.0909701508
 30
0.0
 10
-2.9693383632
 20
267.0209577887
 30
0.0
 10
-7.4821335263
 20
265.4823603901
 30
0.0
 10
-11.8154932965
 20
264.5114774106
 30
0.0
 10
-15.8703833761
 20
264.1317988448
 30
0.0
 10
-19.5573741315
 20
264.3568774767
 30
0.0
 10
-22.7944816248
 20
265.1907692637
 30
0.0
 10
-25.0902137607
 20
266.4206748361
 30
0.0
 10
-26.5708324677
 20
267.6856859275
 30
0.0
 10
-27.1932195505
 20
268.4004728665
 30
0.0
 10
-27.4733202798
 20
268.7754989002
 30
0.0
  0
SPLINE
  5
445
100
AcDbEntity
  8
0
100
AcDbSpline
 62
7
  6
CONTINUOUS
 70
0
 71
3
 72
12
 73
8
 74
0
 42
0.0000001
 43
0.0000001
 44
0.0000000001
 40
0.0
 40
0.0
 40
0.0
 40
0.0
 40
0.1077440202
 40
0.217524852
 40
0.449824542
 40
0.7087843693
 40
1.0
 40
1.0
 40
1.0
 40
1.0
 10
26.6089412663
 20
309.1654149865
 30
0.0
 10
26.3158917422
 20
309.5577796982
 30
0.0
 10
25.6578903054
 20
310.3027206151
 30
0.0
 10
24.0706498843
 20
311.6033295581
 30
0.0
 10
21.5784183266
 20
312.8170911822
 30
0.0
 10
18.067346317
 20
313.533249003
 30
0.0
 10
15.5517854073
 20
313.5465648946
 30
0.0
 10
14.231236299
 20
313.4560873111
 30
0.0
  0
SPLINE
  5
446
100
AcDbEntity
  8
0
100
AcDbSpline
 62
7
  6
CONTINUOUS
 70
0
 71
3
 72
11
 73
7
 74
0
 42
0.0000001
 43
0.0000001
 44
0.0000000001
 40
0.0
 40
0.0
 40
0.0
 40
0.0
 40
0.2355719097
 40
0.4847715645
 40
0.7417134162
 40
1.0
 40
1.0
 40
1.0
 40
1.0
 10
6.5256250927
 20
311.9479667803
 30
0.0
 10
4.7429838828
 20
311.3970366861
 30
0.0
 10
1.1459907173
 20
310.0240651771
 30
0.0
 10
-4.0913825268
 20
307.3413084446
 30
0.0
 10
-9.1860236837
 20
304.0524755112
 30
0.0
 10
-12.3912579898
 20
301.5144540253
 30
0.0
 10
-13.930400063
 20
300.1668235313
 30
0.0
  0
SPLINE
  5
447
100
AcDbEntity
  8
0
100
AcDbSpline
 62
7
  6
CONTINUOUS
 70
0
 71
3
 72
9
 73
5
 74
0
 42
0.0000001
 43
0.0000001
 44
0.0000000001
 40
0.0
 40
0.0
 40
0.0
 40
0.0
 40
0.5098492221
 40
1.0
 40
1.0
 40
1.0
 40
1.0
 10
-13.930400063
 20
300.1668235313
 30
0.0
 10
-15.3052195076
 20
298.9630694144
 30
0.0
 10
-17.8987751242
 20
296.4814654308
 30
0.0
 10
-20.2476708914
 20
293.7653807286
 30
0.0
 10
-21.3238098921
 20
292.3768419403
 30
0.0
  0
SPLINE
  5
448
100
AcDbEntity
  8
0
100
AcDbSpline
 62
7
  6
CONTINUOUS
 70
0
 71
3
 72
11
 73
7
 74
0
 42
0.0000001
 43
0.0000001
 44
0.0000000001
 40
0.0
 40
0.0
 40
0.0
 40
0.0
 40
0.2772840041
 40
0.5324282984
 40
0.7707891301
 40
1.0
 40
1.0
 40
1.0
 40
1.0
 10
-27.979098133
 20
278.7126642831
 30
0.0
 10
-28.1237652654
 20
277.8518851897
 30
0.0
 10
-28.2853214973
 20
276.1752838677
 30
0.0
 10
-28.0903814469
 20
273.7421949999
 30
0.0
 10
-27.4425821114
 20
271.542914647
 30
0.0
 10
-26.7032516723
 20
270.2511358585
 30
0.0
 10
-26.2714924686
 20
269.6730524238
 30
0.0
  0
SPLINE
  5
449
100
AcDbEntity
  8
0
100
AcDbSpline
 62
7
  6
CONTINUOUS
 70
0
 71
3
 72
13
 73
9
 74
0
 42
0.0000001
 43
0.0000001
 44
0.0000000001
 40
0.0
 40
0.0
 40
0.0
 40
0.0
 40
0.1086921092
 40
0.2192739991
 40
0.3334951122
 40
0.4528560912
 40
0.7110105785
 40
1.0
 40
1.0
 40
1.0
 40
1.0
 10
31.7430560184
 20
315.6605079678
 30
0.0
 10
32.0919502755
 20
315.1933025548
 30
0.0
 10
32.7227137834
 20
314.193681552
 30
0.0
 10
33.4357233215
 20
312.5457658155
 30
0.0
 10
33.9154361444
 20
310.7563252936
 30
0.0
 10
34.2490550827
 20
308.1324696511
 30
0.0
 10
34.0275042865
 20
304.5316622259
 30
0.0
 10
33.2790252759
 20
301.6771610236
 30
0.0
 10
32.7773596663
 20
300.2102242351
 30
0.0
  0
SPLINE
  5
44A
100
AcDbEntity
  8
0
100
AcDbSpline
 62
7
  6
CONTINUOUS
 70
0
 71
3
 72
13
 73
9
 74
0
 42
0.0000001
 43
0.0000001
 44
0.0000000001
 40
0.0
 40
0.0
 40
0.0
 40
0.0
 40
0.1467544556
 40
0.2870571978
 40
0.4852774703
 40
0.669223458
 40
0.8400792315
 40
1.0
 40
1.0
 40
1.0
 40
1.0
 10
-19.1045787277
 20
256.3254299357
 30
0.0
 10
-20.0115059194
 20
256.188241386
 30
0.0
 10
-21.7940148092
 20
255.9717856498
 30
0.0
 10
-24.824307628
 20
255.80311959
 30
0.0
 10
-28.095533343
 20
255.9095364022
 30
0.0
 10
-31.5200863201
 20
256.4498691757
 30
0.0
 10
-34.6043631301
 20
257.4062951572
 30
0.0
 10
-36.4612117884
 20
258.3446926458
 30
0.0
 10
-37.305580544
 20
258.8795897819
 30
0.0
  0
SPLINE
  5
44B
100
AcDbEntity
  8
0
100
AcDbSpline
 62
7
  6
CONTINUOUS
 70
0
 71
3
 72
11
 73
7
 74
0
 42
0.0000001
 43
0.0000001
 44
0.0000000001
 40
0.0
 40
0.0
 40
0.0
 40
0.0
 40
0.2279601332
 40
0.4726735599
 40
0.7312156367
 40
1.0
 40
1.0
 40
1.0
 40
1.0
 10
37.4466768972
 20
298.6628905811
 30
0.0
 10
36.6075279392
 20
296.8533977266
 30
0.0
 10
34.6271734323
 20
293.2103820562
 30
0.0
 10
30.9964817432
 20
287.9309496391
 30
0.0
 10
26.6672394812
 20
282.7342423988
 30
0.0
 10
23.4223819908
 20
279.4456669178
 30
0.0
 10
21.7064116094
 20
277.837428464
 30
0.0
  0
SPLINE
  5
44C
100
AcDbEntity
  8
0
100
AcDbSpline
 62
7
  6
CONTINUOUS
 70
0
 71
3
 72
10
 73
6
 74
0
 42
0.0000001
 43
0.0000001
 44
0.0000000001
 40
0.0
 40
0.0
 40
0.0
 40
0.0
 40
0.5035487348
 40
0.7545232532
 40
1.0
 40
1.0
 40
1.0
 40
1.0
 10
21.7064116094
 20
277.837428464
 30
0.0
 10
18.3274526682
 20
274.6706070773
 30
0.0
 10
12.891414468
 20
270.3029068734
 30
0.0
 10
5.1292075318
 20
265.3613052197
 30
0.0
 10
1.0970532085
 20
263.2065128466
 30
0.0
 10
-0.936041063
 20
262.2250868449
 30
0.0
  0
SPLINE
  5
44D
100
AcDbEntity
  8
0
100
AcDbSpline
 62
7
  6
CONTINUOUS
 70
0
 71
3
 72
9
 73
5
 74
0
 42
0.0000001
 43
0.0000001
 44
0.0000000001
 40
0.0
 40
0.0
 40
0.0
 40
0.0
 40
0.4862747781
 40
1.0
 40
1.0
 40
1.0
 40
1.0
 10
30.9418308114
 20
315.0621339776
 30
0.0
 10
30.3124364591
 20
315.9049651375
 30
0.0
 10
28.7542639115
 20
317.4537766612
 30
0.0
 10
26.8390503479
 20
318.514136492
 30
0.0
 10
25.8130837906
 20
318.9411556595
 30
0.0
  0
SPLINE
  5
44E
100
AcDbEntity
  8
0
100
AcDbSpline
 62
7
  6
CONTINUOUS
 70
0
 71
3
 72
17
 73
13
 74
0
 42
0.0000001
 43
0.0000001
 44
0.0000000001
 40
0.0
 40
0.0
 40
0.0
 40
0.0
 40
0.0393217461
 40
0.0806163923
 40
0.1254639849
 40
0.1748601046
 40
0.2884364716
 40
0.4204946143
 40
0.5655899778
 40
0.7160941471
 40
0.863553737
 40
1.0
 40
1.0
 40
1.0
 40
1.0
 10
12.4067550764
 20
236.5222819985
 30
0.0
 10
12.5292585255
 20
236.5550963389
 30
0.0
 10
12.7721798163
 20
236.6576695327
 30
0.0
 10
13.0950498122
 20
236.9077916961
 30
0.0
 10
13.3745415637
 20
237.2479165091
 30
0.0
 10
13.699166713
 20
237.837744854
 30
0.0
 10
13.9566307173
 20
238.7659788897
 30
0.0
 10
14.0384667115
 20
240.0292929488
 30
0.0
 10
13.9029502264
 20
241.4074793202
 30
0.0
 10
13.5592084417
 20
242.7994583881
 30
0.0
 10
13.0330784011
 20
244.102860897
 30
0.0
 10
12.5599747461
 20
244.8934259123
 30
0.0
 10
12.2966485661
 20
245.246020735
 30
0.0
  0
SPLINE
  5
44F
100
AcDbEntity
  8
0
100
AcDbSpline
 62
7
  6
CONTINUOUS
 70
0
 71
3
 72
12
 73
8
 74
0
 42
0.0000001
 43
0.0000001
 44
0.0000000001
 40
0.0
 40
0.0
 40
0.0
 40
0.0
 40
0.1058453186
 40
0.2161121898
 40
0.5792496473
 40
0.7823860913
 40
1.0
 40
1.0
 40
1.0
 40
1.0
 10
40.0918306166
 20
316.6779101653
 30
0.0
 10
40.2706231147
 20
316.0480391145
 30
0.0
 10
40.5545205002
 20
314.7376560512
 30
0.0
 10
40.9048180829
 20
311.1654662605
 30
0.0
 10
40.3920402483
 20
306.9450405797
 30
0.0
 10
39.0071381873
 20
302.2959452318
 30
0.0
 10
38.0130163545
 20
299.8841126197
 30
0.0
 10
37.4466768972
 20
298.6628905811
 30
0.0
  0
SPLINE
  5
450
100
AcDbEntity
  8
0
100
AcDbSpline
 62
7
  6
CONTINUOUS
 70
0
 71
3
 72
12
 73
8
 74
0
 42
0.0000001
 43
0.0000001
 44
0.0000000001
 40
0.0
 40
0.0
 40
0.0
 40
0.0
 40
0.1085254941
 40
0.219299076
 40
0.4531714609
 40
0.7117182103
 40
1.0
 40
1.0
 40
1.0
 40
1.0
 10
28.0511070449
 20
309.7259588107
 30
0.0
 10
28.3182292599
 20
309.3334570349
 30
0.0
 10
28.7983702289
 20
308.4978954336
 30
0.0
 10
29.5255602042
 20
306.6470925701
 30
0.0
 10
29.9537257968
 20
304.0098556968
 30
0.0
 10
29.7039269437
 20
300.5808842475
 30
0.0
 10
29.0892155458
 20
298.2554576714
 30
0.0
 10
28.6811220741
 20
297.0621382263
 30
0.0
  0
SPLINE
  5
451
100
AcDbEntity
  8
0
100
AcDbSpline
 62
7
  6
CONTINUOUS
 70
0
 71
3
 72
11
 73
7
 74
0
 42
0.0000001
 43
0.0000001
 44
0.0000000001
 40
0.0
 40
0.0
 40
0.0
 40
0.0
 40
0.3067972423
 40
0.5723528636
 40
0.7986410704
 40
1.0
 40
1.0
 40
1.0
 40
1.0
 10
8.096485073
 20
250.8700566819
 30
0.0
 10
8.0292993595
 20
250.9600186247
 30
0.0
 10
7.8909410535
 20
251.1189931952
 30
0.0
 10
7.6562254085
 20
251.2975873849
 30
0.0
 10
7.4153725548
 20
251.3908560642
 30
0.0
 10
7.2532168875
 20
251.3863048407
 30
0.0
 10
7.1820415298
 20
251.3672068192
 30
0.0
  0
SPLINE
  5
452
100
AcDbEntity
  8
0
100
AcDbSpline
 62
7
  6
CONTINUOUS
 70
0
 71
3
 72
13
 73
9
 74
0
 42
0.0000001
 43
0.0000001
 44
0.0000000001
 40
0.0
 40
0.0
 40
0.0
 40
0.0
 40
0.3173660642
 40
0.5957932239
 40
0.7150862925
 40
0.8203100974
 40
0.9136587963
 40
1.0
 40
1.0
 40
1.0
 40
1.0
 10
-13.1498714805
 20
244.2564120902
 30
0.0
 10
-13.1910243251
 20
244.464804812
 30
0.0
 10
-13.2335118276
 20
244.8637704962
 30
0.0
 10
-13.183023874
 20
245.3458059275
 30
0.0
 10
-13.0693033154
 20
245.6644082524
 30
0.0
 10
-12.9584352701
 20
245.8481353366
 30
0.0
 10
-12.8197246893
 20
245.9827499131
 30
0.0
 10
-12.7084848319
 20
246.035427186
 30
0.0
 10
-12.6526698954
 20
246.0504036709
 30
0.0
  0
SPLINE
  5
453
100
AcDbEntity
  8
0
100
AcDbSpline
 62
7
  6
CONTINUOUS
 70
0
 71
3
 72
9
 73
5
 74
0
 42
0.0000001
 43
0.0000001
 44
0.0000000001
 40
0.0
 40
0.0
 40
0.0
 40
0.0
 40
0.5200630411
 40
1.0
 40
1.0
 40
1.0
 40
1.0
 10
-4.4995480377
 20
264.7436246038
 30
0.0
 10
-6.4356515026
 20
263.9631678681
 30
0.0
 10
-10.2372334753
 20
262.6483122511
 30
0.0
 10
-14.1728257692
 20
261.7932675959
 30
0.0
 10
-16.0806013967
 20
261.5258547569
 30
0.0
  0
SPLINE
  5
454
100
AcDbEntity
  8
0
100
AcDbSpline
 62
7
  6
CONTINUOUS
 70
0
 71
3
 72
14
 73
10
 74
0
 42
0.0000001
 43
0.0000001
 44
0.0000000001
 40
0.0
 40
0.0
 40
0.0
 40
0.0
 40
0.1040517206
 40
0.2171177486
 40
0.3381136383
 40
0.4655127223
 40
0.5974896825
 40
0.7320214166
 40
1.0
 40
1.0
 40
1.0
 40
1.0
 10
32.7773596663
 20
300.2102242351
 30
0.0
 10
32.272763165
 20
298.7347171303
 30
0.0
 10
30.9903695506
 20
295.7320985898
 30
0.0
 10
28.4596408623
 20
291.3315647174
 30
0.0
 10
25.2913279199
 20
286.9270478977
 30
0.0
 10
21.5536260037
 20
282.6138057523
 30
0.0
 10
17.3260799018
 20
278.4833103486
 30
0.0
 10
11.1701849707
 20
273.3502005427
 30
0.0
 10
6.0999868615
 20
270.0218119377
 30
0.0
 10
2.5742955461
 20
268.0985557933
 30
0.0
  0
SPLINE
  5
455
100
AcDbEntity
  8
0
100
AcDbSpline
 62
7
  6
CONTINUOUS
 70
0
 71
3
 72
11
 73
7
 74
0
 42
0.0000001
 43
0.0000001
 44
0.0000000001
 40
0.0
 40
0.0
 40
0.0
 40
0.0
 40
0.2800062038
 40
0.5358356354
 40
0.7730445511
 40
1.0
 40
1.0
 40
1.0
 40
1.0
 10
-22.8716628804
 20
261.2776271251
 30
0.0
 10
-24.0486002823
 20
261.3749053621
 30
0.0
 10
-26.2934746708
 20
261.7229655499
 30
0.0
 10
-29.3924437547
 20
262.8020075778
 30
0.0
 10
-32.0017716516
 20
264.4060282991
 30
0.0
 10
-33.3841947414
 20
265.8272477932
 30
0.0
 10
-33.9569416364
 20
266.5941907714
 30
0.0
  0
SPLINE
  5
456
100
AcDbEntity
  8
0
100
AcDbSpline
 62
7
  6
CONTINUOUS
 70
0
 71
3
 72
9
 73
5
 74
0
 42
0.0000001
 43
0.0000001
 44
0.0000000001
 40
0.0
 40
0.0
 40
0.0
 40
0.0
 40
0.5132379776
 40
1.0
 40
1.0
 40
1.0
 40
1.0
 10
-35.4038314304
 20
273.0757962926
 30
0.0
 10
-35.2783163159
 20
271.9960294802
 30
0.0
 10
-34.7986864935
 20
269.9077261263
 30
0.0
 10
-33.7725599624
 20
268.0186310113
 30
0.0
 10
-33.1556940207
 20
267.1925814796
 30
0.0
  0
SPLINE
  5
457
100
AcDbEntity
  8
0
100
AcDbSpline
 62
7
  6
CONTINUOUS
 70
0
 71
3
 72
19
 73
15
 74
0
 42
0.0000001
 43
0.0000001
 44
0.0000000001
 40
0.0
 40
0.0
 40
0.0
 40
0.0
 40
0.0398852511
 40
0.081373044
 40
0.1258015063
 40
0.1741020941
 40
0.2267890481
 40
0.2840171187
 40
0.3456539583
 40
0.4113444497
 40
0.5525513748
 40
0.7021933934
 40
0.853627631
 40
1.0
 40
1.0
 40
1.0
 40
1.0
 10
-26.2714924686
 20
269.6730524238
 30
0.0
 10
-25.8381558156
 20
269.0928569384
 30
0.0
 10
-24.805015544
 20
268.0134682578
 30
0.0
 10
-22.8709395856
 20
266.7653281043
 30
0.0
 10
-20.5813391523
 20
265.8879118081
 30
0.0
 10
-17.9774347958
 20
265.3878363792
 30
0.0
 10
-15.0987199876
 20
265.2661034021
 30
0.0
 10
-11.9877313167
 20
265.5213870017
 30
0.0
 10
-8.6904524399
 20
266.1481892137
 30
0.0
 10
-3.9999457587
 20
267.4990493997
 30
0.0
 10
1.9734877906
 20
270.063842623
 30
0.0
 10
8.8664747151
 20
274.2266952263
 30
0.0
 10
15.239503513
 20
279.2991629982
 30
0.0
 10
19.0055891539
 20
283.2082382869
 30
0.0
 10
20.6976488452
 20
285.2575059793
 30
0.0
  0
SPLINE
  5
458
100
AcDbEntity
  8
0
100
AcDbSpline
 62
7
  6
CONTINUOUS
 70
0
 71
3
 72
10
 73
6
 74
0
 42
0.0000001
 43
0.0000001
 44
0.0000000001
 40
0.0
 40
0.0
 40
0.0
 40
0.0
 40
0.5295420165
 40
0.7729922062
 40
1.0
 40
1.0
 40
1.0
 40
1.0
 10
20.6976488452
 20
285.2575059793
 30
0.0
 10
22.2000067397
 20
287.0770242336
 30
0.0
 10
24.2203890517
 20
289.8910477269
 30
0.0
 10
26.3162290128
 20
293.8287331906
 30
0.0
 10
27.1141382674
 20
295.7727274738
 30
0.0
 10
27.4414526099
 20
296.7298380298
 30
0.0
  0
SPLINE
  5
459
100
AcDbEntity
  8
0
100
AcDbSpline
 62
7
  6
CONTINUOUS
 70
0
 71
3
 72
10
 73
6
 74
0
 42
0.0000001
 43
0.0000001
 44
0.0000000001
 40
0.0
 40
0.0
 40
0.0
 40
0.0
 40
0.5268632364
 40
0.7709180397
 40
1.0
 40
1.0
 40
1.0
 40
1.0
 10
-3.4527694915
 20
266.6872162998
 30
0.0
 10
-5.943717879
 20
265.6070564184
 30
0.0
 10
-9.7000388866
 20
264.2547754634
 30
0.0
 10
-14.7303085356
 20
263.1147231538
 30
0.0
 10
-17.1519414685
 20
262.7924591382
 30
0.0
 10
-18.3288037259
 20
262.6996137621
 30
0.0
  0
SPLINE
  5
45A
100
AcDbEntity
  8
0
100
AcDbSpline
 62
7
  6
CONTINUOUS
 70
0
 71
3
 72
11
 73
7
 74
0
 42
0.0000001
 43
0.0000001
 44
0.0000000001
 40
0.0
 40
0.0
 40
0.0
 40
0.0
 40
0.3069813863
 40
0.5725820453
 40
0.7988264405
 40
1.0
 40
1.0
 40
1.0
 40
1.0
 10
-9.255968193
 20
246.2139565957
 30
0.0
 10
-9.3233179217
 20
246.3044977691
 30
0.0
 10
-9.461964972
 20
246.4645607151
 30
0.0
 10
-9.6973982979
 20
246.6444766327
 30
0.0
 10
-9.9390830993
 20
246.7385978242
 30
0.0
 10
-10.1019068262
 20
246.7341652382
 30
0.0
 10
-10.1733285164
 20
246.7149952182
 30
0.0
  0
SPLINE
  5
45B
100
AcDbEntity
  8
0
100
AcDbSpline
 62
7
  6
CONTINUOUS
 70
0
 71
3
 72
12
 73
8
 74
0
 42
0.0000001
 43
0.0000001
 44
0.0000000001
 40
0.0
 40
0.0
 40
0.0
 40
0.0
 40
0.110585261
 40
0.2228083443
 40
0.4576359925
 40
0.7147740312
 40
1.0
 40
1.0
 40
1.0
 40
1.0
 10
-33.1556940207
 20
267.1925814796
 30
0.0
 10
-32.8421486291
 20
266.7727106351
 30
0.0
 10
-32.1479549993
 20
265.9713929415
 30
0.0
 10
-30.5053400456
 20
264.5461762772
 30
0.0
 10
-27.970645266
 20
263.1413065863
 30
0.0
 10
-24.3984213908
 20
262.1467301772
 30
0.0
 10
-21.822519496
 20
261.934063415
 30
0.0
 10
-20.4709947635
 20
261.9211393759
 30
0.0
  0
SPLINE
  5
45C
100
AcDbEntity
  8
0
100
AcDbSpline
 62
7
  6
CONTINUOUS
 70
0
 71
3
 72
9
 73
5
 74
0
 42
0.0000001
 43
0.0000001
 44
0.0000000001
 40
0.0
 40
0.0
 40
0.0
 40
0.0
 40
0.5056547839
 40
1.0
 40
1.0
 40
1.0
 40
1.0
 10
-30.7850338909
 20
274.2210680641
 30
0.0
 10
-30.6182200716
 20
273.6680096737
 30
0.0
 10
-30.1988810634
 20
272.5986621231
 30
0.0
 10
-29.5971939447
 20
271.6193395576
 30
0.0
 10
-29.2592492223
 20
271.1668646744
 30
0.0
  0
SPLINE
  5
45D
100
AcDbEntity
  8
0
100
AcDbSpline
 62
7
  6
CONTINUOUS
 70
0
 71
3
 72
10
 73
6
 74
0
 42
0.0000001
 43
0.0000001
 44
0.0000000001
 40
0.0
 40
0.0
 40
0.0
 40
0.0
 40
0.2374952557
 40
0.4804416119
 40
1.0
 40
1.0
 40
1.0
 40
1.0
 10
-27.4733202798
 20
268.7754989002
 30
0.0
 10
-27.8118125245
 20
269.2287051602
 30
0.0
 10
-28.4144220217
 20
270.2103424993
 30
0.0
 10
-29.2873437038
 20
272.4364945415
 30
0.0
 10
-29.508330193
 20
274.2761705633
 30
0.0
 10
-29.5016476399
 20
275.5136263701
 30
0.0
  0
SPLINE
  5
45E
100
AcDbEntity
  8
0
100
AcDbSpline
 62
7
  6
CONTINUOUS
 70
0
 71
3
 72
11
 73
7
 74
0
 42
0.0000001
 43
0.0000001
 44
0.0000000001
 40
0.0
 40
0.0
 40
0.0
 40
0.0
 40
0.2239714416
 40
0.4597000955
 40
0.7164742175
 40
1.0
 40
1.0
 40
1.0
 40
1.0
 10
26.0248327127
 20
312.4543287717
 30
0.0
 10
25.5026870438
 20
313.1534535196
 30
0.0
 10
24.2208147767
 20
314.4422186574
 30
0.0
 10
21.7761256347
 20
315.845451097
 30
0.0
 10
18.8616517383
 20
316.726053516
 30
0.0
 10
16.757170042
 20
316.9509023743
 30
0.0
 10
15.6532011702
 20
316.9885812606
 30
0.0
  0
SPLINE
  5
45F
100
AcDbEntity
  8
0
100
AcDbSpline
 62
7
  6
CONTINUOUS
 70
0
 71
3
 72
9
 73
5
 74
0
 42
0.0000001
 43
0.0000001
 44
0.0000000001
 40
0.0
 40
0.0
 40
0.0
 40
0.0
 40
0.4947661362
 40
1.0
 40
1.0
 40
1.0
 40
1.0
 10
31.2327906508
 20
316.3437553639
 30
0.0
 10
30.8469719535
 20
316.8604064126
 30
0.0
 10
29.9744574048
 20
317.8383718153
 30
0.0
 10
28.9493658339
 20
318.6538066758
 30
0.0
 10
28.4035622107
 20
319.0221303421
 30
0.0
  0
SPLINE
  5
460
100
AcDbEntity
  8
0
100
AcDbSpline
 62
7
  6
CONTINUOUS
 70
0
 71
3
 72
21
 73
17
 74
0
 42
0.0000001
 43
0.0000001
 44
0.0000000001
 40
0.0
 40
0.0
 40
0.0
 40
0.0
 40
0.0558487895
 40
0.1162952626
 40
0.1808352616
 40
0.2487699101
 40
0.3912336805
 40
0.5360706653
 40
0.6068847032
 40
0.6753017763
 40
0.7404553004
 40
0.8016161104
 40
0.8582471528
 40
0.9100700636
 40
0.9571501839
 40
1.0
 40
1.0
 40
1.0
 40
1.0
 10
22.2854704711
 20
303.6337190189
 30
0.0
 10
21.9041233804
 20
302.51860954
 30
0.0
 10
20.9473454855
 20
300.2506182856
 30
0.0
 10
19.0755593517
 20
296.9180916824
 30
0.0
 10
16.7428551303
 20
293.5743892059
 30
0.0
 10
13.0189952898
 20
289.1177952826
 30
0.0
 10
7.5363036851
 20
283.9613802012
 30
0.0
 10
1.3279373823
 20
279.6042903387
 30
0.0
 10
-3.9360926687
 20
276.7262022628
 30
0.0
 10
-7.8758454751
 20
274.9592629079
 30
0.0
 10
-11.7601295284
 20
273.6017076268
 30
0.0
 10
-15.5157348614
 20
272.679445416
 30
0.0
 10
-19.0723770111
 20
272.2102160517
 30
0.0
 10
-22.3657038951
 20
272.2048210298
 30
0.0
 10
-25.3347635588
 20
272.6665038501
 30
0.0
 10
-27.1362602926
 20
273.3143548748
 30
0.0
 10
-27.9449341197
 20
273.718884818
 30
0.0
  0
SPLINE
  5
461
100
AcDbEntity
  8
0
100
AcDbSpline
 62
7
  6
CONTINUOUS
 70
0
 71
3
 72
11
 73
7
 74
0
 42
0.0000001
 43
0.0000001
 44
0.0000000001
 40
0.0
 40
0.0
 40
0.0
 40
0.0
 40
0.2253898284
 40
0.4684780781
 40
0.7274999913
 40
1.0
 40
1.0
 40
1.0
 40
1.0
 10
31.4406479893
 20
300.6719381668
 30
0.0
 10
31.0034801801
 20
299.3936015025
 30
0.0
 10
29.9186256578
 20
296.7950818092
 30
0.0
 10
27.8126570921
 20
292.9689324471
 30
0.0
 10
25.1997148217
 20
289.123574563
 30
0.0
 10
23.1925245511
 20
286.6442488244
 30
0.0
 10
22.1177928832
 20
285.4142192531
 30
0.0
  0
SPLINE
  5
462
100
AcDbEntity
  8
0
100
AcDbSpline
 62
7
  6
CONTINUOUS
 70
0
 71
3
 72
9
 73
5
 74
0
 42
0.0000001
 43
0.0000001
 44
0.0000000001
 40
0.0
 40
0.0
 40
0.0
 40
0.0
 40
0.4869695604
 40
1.0
 40
1.0
 40
1.0
 40
1.0
 10
30.9109041502
 20
315.0488205016
 30
0.0
 10
31.3954937585
 20
314.2829296036
 30
0.0
 10
32.1954309372
 20
312.5796649076
 30
0.0
 10
32.581640383
 20
310.742755085
 30
0.0
 10
32.6874809389
 20
309.7938163102
 30
0.0
  0
SPLINE
  5
463
100
AcDbEntity
  8
0
100
AcDbSpline
 62
7
  6
CONTINUOUS
 70
0
 71
3
 72
10
 73
6
 74
0
 42
0.0000001
 43
0.0000001
 44
0.0000000001
 40
0.0
 40
0.0
 40
0.0
 40
0.0
 40
0.2278735494
 40
0.5961995089
 40
1.0
 40
1.0
 40
1.0
 40
1.0
 10
32.6874809389
 20
309.7938163102
 30
0.0
 10
32.7655486783
 20
309.0938813526
 30
0.0
 10
32.8396625707
 20
307.2466829225
 30
0.0
 10
32.4802894587
 20
304.1618926335
 30
0.0
 10
31.8444803079
 20
301.8527974349
 30
0.0
 10
31.4406479893
 20
300.6719381668
 30
0.0
  0
SPLINE
  5
464
100
AcDbEntity
  8
0
100
AcDbSpline
 62
7
  6
CONTINUOUS
 70
0
 71
3
 72
10
 73
6
 74
0
 42
0.0000001
 43
0.0000001
 44
0.0000000001
 40
0.0
 40
0.0
 40
0.0
 40
0.0
 40
0.2329065323
 40
0.4829794079
 40
1.0
 40
1.0
 40
1.0
 40
1.0
 10
-7.5380628601
 20
239.9292175898
 30
0.0
 10
-7.3326715671
 20
239.6541978157
 30
0.0
 10
-6.9523678884
 20
239.0489252711
 30
0.0
 10
-6.3337013679
 20
237.7089534552
 30
0.0
 10
-6.0390716617
 20
236.6037828622
 30
0.0
 10
-5.9282073953
 20
235.8499203247
 30
0.0
  0
SPLINE
  5
465
100
AcDbEntity
  8
0
100
AcDbSpline
 62
7
  6
CONTINUOUS
 70
0
 71
3
 72
9
 73
5
 74
0
 42
0.0000001
 43
0.0000001
 44
0.0000000001
 40
0.0
 40
0.0
 40
0.0
 40
0.0
 40
0.2601729658
 40
1.0
 40
1.0
 40
1.0
 40
1.0
 10
-5.9282073953
 20
235.8499203247
 30
0.0
 10
-5.9047916528
 20
235.6906963323
 30
0.0
 10
-5.8302424341
 20
235.0766731417
 30
0.0
 10
-5.8175292715
 20
234.4540490884
 30
0.0
 10
-5.85315534
 20
233.9977991938
 30
0.0
  0
SPLINE
  5
466
100
AcDbEntity
  8
0
100
AcDbSpline
 62
7
  6
CONTINUOUS
 70
0
 71
3
 72
9
 73
5
 74
0
 42
0.0000001
 43
0.0000001
 44
0.0000000001
 40
0.0
 40
0.0
 40
0.0
 40
0.0
 40
0.2558583106
 40
1.0
 40
1.0
 40
1.0
 40
1.0
 10
0.2579278428
 20
310.4136995522
 30
0.0
 10
0.7117869369
 20
310.6266733568
 30
0.0
 10
2.4966059823
 20
311.4353815511
 30
0.0
 10
4.3253923727
 20
312.1481921674
 30
0.0
 10
5.7070735251
 20
312.6140880623
 30
0.0
  0
SPLINE
  5
467
100
AcDbEntity
  8
0
100
AcDbSpline
 62
7
  6
CONTINUOUS
 70
0
 71
3
 72
9
 73
5
 74
0
 42
0.0000001
 43
0.0000001
 44
0.0000000001
 40
0.0
 40
0.0
 40
0.0
 40
0.0
 40
0.5053207985
 40
1.0
 40
1.0
 40
1.0
 40
1.0
 10
-36.2423710278
 20
270.7833062239
 30
0.0
 10
-36.0440960305
 20
270.1492727831
 30
0.0
 10
-35.5516531671
 20
268.9230644462
 30
0.0
 10
-34.8563301274
 20
267.7984977179
 30
0.0
 10
-34.467207005
 20
267.2774381668
 30
0.0
  0
SPLINE
  5
468
100
AcDbEntity
  8
0
100
AcDbSpline
 62
7
  6
CONTINUOUS
 70
0
 71
3
 72
11
 73
7
 74
0
 42
0.0000001
 43
0.0000001
 44
0.0000000001
 40
0.0
 40
0.0
 40
0.0
 40
0.0
 40
0.201358965
 40
0.4276472081
 40
0.6932027419
 40
1.0
 40
1.0
 40
1.0
 40
1.0
 10
-12.6526698954
 20
246.0504036709
 30
0.0
 10
-12.5814945327
 20
246.0695017262
 30
0.0
 10
-12.4193388223
 20
246.0740529088
 30
0.0
 10
-12.1784859903
 20
245.9807842225
 30
0.0
 10
-11.9437703289
 20
245.8021900659
 30
0.0
 10
-11.8054120707
 20
245.6432154848
 30
0.0
 10
-11.7382263532
 20
245.5532535367
 30
0.0
  0
SPLINE
  5
469
100
AcDbEntity
  8
0
100
AcDbSpline
 62
7
  6
CONTINUOUS
 70
0
 71
3
 72
11
 73
7
 74
0
 42
0.0000001
 43
0.0000001
 44
0.0000000001
 40
0.0
 40
0.0
 40
0.0
 40
0.0
 40
0.2837653541
 40
0.5414713162
 40
0.7776462821
 40
1.0
 40
1.0
 40
1.0
 40
1.0
 10
-20.9812601311
 20
262.604386772
 30
0.0
 10
-22.2388695769
 20
262.6164127403
 30
0.0
 10
-24.6428194505
 20
262.8026461146
 30
0.0
 10
-28.0017551198
 20
263.6624332426
 30
0.0
 10
-30.8690973032
 20
265.0851209576
 30
0.0
 10
-32.4319425253
 20
266.4261429081
 30
0.0
 10
-33.085793028
 20
267.163478062
 30
0.0
  0
SPLINE
  5
46A
100
AcDbEntity
  8
0
100
AcDbSpline
 62
7
  6
CONTINUOUS
 70
0
 71
3
 72
12
 73
8
 74
0
 42
0.0000001
 43
0.0000001
 44
0.0000000001
 40
0.0
 40
0.0
 40
0.0
 40
0.0
 40
0.2891411925
 40
0.5474353604
 40
0.7806101932
 40
0.8912508584
 40
1.0
 40
1.0
 40
1.0
 40
1.0
 10
27.4414526099
 20
296.7298380298
 30
0.0
 10
27.8452297459
 20
297.9105359366
 30
0.0
 10
28.4471169462
 20
300.2094807401
 30
0.0
 10
28.6580555049
 20
303.5964267484
 30
0.0
 10
28.1761106853
 20
306.1864029232
 30
0.0
 10
27.3974262316
 20
307.9847183732
 30
0.0
 10
26.8897837595
 20
308.7893942979
 30
0.0
 10
26.6089412663
 20
309.1654149865
 30
0.0
  0
SPLINE
  5
46B
100
AcDbEntity
  8
0
100
AcDbSpline
 62
7
  6
CONTINUOUS
 70
0
 71
3
 72
9
 73
5
 74
0
 42
0.0000001
 43
0.0000001
 44
0.0000000001
 40
0.0
 40
0.0
 40
0.0
 40
0.0
 40
0.4774412553
 40
1.0
 40
1.0
 40
1.0
 40
1.0
 10
-16.654113409
 20
262.1286407425
 30
0.0
 10
-14.6199916315
 20
262.3597077287
 30
0.0
 10
-10.3985080446
 20
263.2101035555
 30
0.0
 10
-6.3331918981
 20
264.6080018494
 30
0.0
 10
-4.2574187676
 20
265.4516427082
 30
0.0
  0
LINE
  5
46C
100
AcDbEntity
  8
0
100
AcDbLine
 62
7
  6
CONTINUOUS
 10
-3.0410088421
 20
265.9613539412
 11
-2.9425041255
 21
266.0039688992
  0
SPLINE
  5
46D
100
AcDbEntity
  8
0
100
AcDbSpline
 62
7
  6
CONTINUOUS
 70
0
 71
3
 72
9
 73
5
 74
0
 42
0.0000001
 43
0.0000001
 44
0.0000000001
 40
0.0
 40
0.0
 40
0.0
 40
0.0
 40
0.5090252638
 40
1.0
 40
1.0
 40
1.0
 40
1.0
 10
27.7636745617
 20
319.0314559436
 30
0.0
 10
28.5484325739
 20
318.611003117
 30
0.0
 10
30.0151078905
 20
317.6316357537
 30
0.0
 10
31.2292453986
 20
316.3485534083
 30
0.0
 10
31.7430560184
 20
315.6605079678
 30
0.0
  0
SPLINE
  5
46E
100
AcDbEntity
  8
0
100
AcDbSpline
 62
7
  6
CONTINUOUS
 70
0
 71
3
 72
14
 73
10
 74
0
 42
0.0000001
 43
0.0000001
 44
0.0000000001
 40
0.0
 40
0.0
 40
0.0
 40
0.0
 40
0.2943856834
 40
0.4286321726
 40
0.5546671731
 40
0.6733262733
 40
0.7858960614
 40
0.8940945634
 40
1.0
 40
1.0
 40
1.0
 40
1.0
 10
13.5939970307
 20
314.432355093
 30
0.0
 10
15.1101257304
 20
314.6038147945
 30
0.0
 10
17.3464272087
 20
314.6905725142
 30
0.0
 10
20.2064636509
 20
314.3562830935
 30
0.0
 10
22.1232023845
 20
313.905304983
 30
0.0
 10
23.8607663731
 20
313.2486062363
 30
0.0
 10
25.4042102025
 20
312.3897545374
 30
0.0
 10
26.7383418356
 20
311.3350754622
 30
0.0
 10
27.4823034041
 20
310.5027492294
 30
0.0
 10
27.810761508
 20
310.0629628907
 30
0.0
  0
SPLINE
  5
46F
100
AcDbEntity
  8
0
100
AcDbSpline
 62
7
  6
CONTINUOUS
 70
0
 71
3
 72
9
 73
5
 74
0
 42
0.0000001
 43
0.0000001
 44
0.0000000001
 40
0.0
 40
0.0
 40
0.0
 40
0.0
 40
0.4911343597
 40
1.0
 40
1.0
 40
1.0
 40
1.0
 10
-33.9569416364
 20
266.5941907714
 30
0.0
 10
-34.4658717086
 20
267.2756791367
 30
0.0
 10
-35.3443622327
 20
268.7877663886
 30
0.0
 10
-35.8670291331
 20
270.4537294781
 30
0.0
 10
-36.048806661
 20
271.3160357374
 30
0.0
  0
SPLINE
  5
470
100
AcDbEntity
  8
0
100
AcDbSpline
 62
7
  6
CONTINUOUS
 70
0
 71
3
 72
10
 73
6
 74
0
 42
0.0000001
 43
0.0000001
 44
0.0000000001
 40
0.0
 40
0.0
 40
0.0
 40
0.0
 40
0.2254050546
 40
0.5925030317
 40
1.0
 40
1.0
 40
1.0
 40
1.0
 10
23.1817354395
 20
312.0431660392
 30
0.0
 10
23.3010762413
 20
311.4127501474
 30
0.0
 10
23.4734602064
 20
309.7270481269
 30
0.0
 10
23.232920663
 20
306.8714624073
 30
0.0
 10
22.6607420391
 20
304.7313338687
 30
0.0
 10
22.2854069017
 20
303.6338041386
 30
0.0
  0
SPLINE
  5
471
100
AcDbEntity
  8
0
100
AcDbSpline
 62
7
  6
CONTINUOUS
 70
0
 71
3
 72
15
 73
11
 74
0
 42
0.0000001
 43
0.0000001
 44
0.0000000001
 40
0.0
 40
0.0
 40
0.0
 40
0.0
 40
0.1315030101
 40
0.2656999886
 40
0.4002287886
 40
0.5326956908
 40
0.6608088997
 40
0.782483768
 40
0.8959652766
 40
1.0
 40
1.0
 40
1.0
 40
1.0
 10
0.1736274291
 20
267.4550435425
 30
0.0
 10
1.9975130408
 20
268.3627428324
 30
0.0
 10
5.6019469199
 20
270.3630522577
 30
0.0
 10
10.7604243974
 20
273.8150398116
 30
0.0
 10
15.6339046741
 20
277.6837264804
 30
0.0
 10
20.1042430935
 20
281.8756368705
 30
0.0
 10
24.0640299273
 20
286.2895775398
 30
0.0
 10
27.4185105759
 20
290.8202987994
 30
0.0
 10
30.0874536926
 20
295.358731879
 30
0.0
 10
31.4293856534
 20
298.4636745849
 30
0.0
 10
31.9509133569
 20
299.9886907707
 30
0.0
  0
SPLINE
  5
472
100
AcDbEntity
  8
0
100
AcDbSpline
 62
7
  6
CONTINUOUS
 70
0
 71
3
 72
9
 73
5
 74
0
 42
0.0000001
 43
0.0000001
 44
0.0000000001
 40
0.0
 40
0.0
 40
0.0
 40
0.0
 40
0.276352032
 40
1.0
 40
1.0
 40
1.0
 40
1.0
 10
31.9509133569
 20
299.9886907707
 30
0.0
 10
32.2474229446
 20
300.8557241372
 30
0.0
 10
33.178307833
 20
304.0318532892
 30
0.0
 10
33.4846491715
 20
307.448951918
 30
0.0
 10
33.1013313671
 20
309.8176193879
 30
0.0
  0
SPLINE
  5
473
100
AcDbEntity
  8
0
100
AcDbSpline
 62
7
  6
CONTINUOUS
 70
0
 71
3
 72
9
 73
5
 74
0
 42
0.0000001
 43
0.0000001
 44
0.0000000001
 40
0.0
 40
0.0
 40
0.0
 40
0.0
 40
0.5109912608
 40
1.0
 40
1.0
 40
1.0
 40
1.0
 10
33.1013313671
 20
309.8176193879
 30
0.0
 10
32.9458602099
 20
310.7783351912
 30
0.0
 10
32.4434417668
 20
312.6350406422
 30
0.0
 10
31.4990915667
 20
314.31589797
 30
0.0
 10
30.9418308114
 20
315.0621339776
 30
0.0
  0
SPLINE
  5
474
100
AcDbEntity
  8
0
100
AcDbSpline
 62
7
  6
CONTINUOUS
 70
0
 71
3
 72
11
 73
7
 74
0
 42
0.0000001
 43
0.0000001
 44
0.0000000001
 40
0.0
 40
0.0
 40
0.0
 40
0.0
 40
0.281798782
 40
0.5451594655
 40
0.7854290675
 40
1.0
 40
1.0
 40
1.0
 40
1.0
 10
16.8094673312
 20
335.1124045638
 30
0.0
 10
15.5382152848
 20
334.4688937679
 30
0.0
 10
13.014690197
 20
333.3449238938
 30
0.0
 10
9.2181616566
 20
332.1465494984
 30
0.0
 10
5.6302091788
 20
331.5170380405
 30
0.0
 10
3.3145442915
 20
331.4914627452
 30
0.0
 10
2.2349391571
 20
331.5987752743
 30
0.0
  0
SPLINE
  5
475
100
AcDbEntity
  8
0
100
AcDbSpline
 62
7
  6
CONTINUOUS
 70
0
 71
3
 72
11
 73
7
 74
0
 42
0.0000001
 43
0.0000001
 44
0.0000000001
 40
0.0
 40
0.0
 40
0.0
 40
0.0
 40
0.2616966944
 40
0.5195111879
 40
0.7674109391
 40
1.0
 40
1.0
 40
1.0
 40
1.0
 10
-0.5815131845
 20
330.5087580482
 30
0.0
 10
-1.7625337565
 20
329.5574035723
 30
0.0
 10
-4.1983476185
 20
327.7791091715
 30
0.0
 10
-8.0289331774
 20
325.5065001561
 30
0.0
 10
-11.9150054674
 20
323.6992934368
 30
0.0
 10
-14.5619020715
 20
322.8093295429
 30
0.0
 10
-15.8654640485
 20
322.4666240763
 30
0.0
  0
SPLINE
  5
476
100
AcDbEntity
  8
0
100
AcDbSpline
 62
7
  6
CONTINUOUS
 70
0
 71
3
 72
11
 73
7
 74
0
 42
0.0000001
 43
0.0000001
 44
0.0000000001
 40
0.0
 40
0.0
 40
0.0
 40
0.0
 40
0.2421514548
 40
0.4935055198
 40
0.7481569315
 40
1.0
 40
1.0
 40
1.0
 40
1.0
 10
-18.5962679573
 20
320.6377770416
 30
0.0
 10
-19.4968550979
 20
319.5113020534
 30
0.0
 10
-21.4636103606
 20
317.3183498838
 30
0.0
 10
-24.7590368643
 20
314.309357529
 30
0.0
 10
-28.3705647345
 20
311.5912577255
 30
0.0
 10
-30.9464443369
 20
310.0105368585
 30
0.0
 10
-32.2627985415
 20
309.2914803826
 30
0.0
  0
SPLINE
  5
477
100
AcDbEntity
  8
0
100
AcDbSpline
 62
7
  6
CONTINUOUS
 70
0
 71
3
 72
11
 73
7
 74
0
 42
0.0000001
 43
0.0000001
 44
0.0000000001
 40
0.0
 40
0.0
 40
0.0
 40
0.0
 40
0.2232108428
 40
0.4674265212
 40
0.7282290368
 40
1.0
 40
1.0
 40
1.0
 40
1.0
 10
-34.492213877
 20
307.0022289217
 30
0.0
 10
-34.9555503519
 20
305.8687980607
 30
0.0
 10
-36.1272361424
 20
303.5756458465
 30
0.0
 10
-38.3977295018
 20
300.2781614733
 30
0.0
 10
-41.1962202454
 20
297.0541764084
 30
0.0
 10
-43.3279232585
 20
295.0483962511
 30
0.0
 10
-44.4607187875
 20
294.0791403874
 30
0.0
  0
SPLINE
  5
478
100
AcDbEntity
  8
0
100
AcDbSpline
 62
7
  6
CONTINUOUS
 70
0
 71
3
 72
11
 73
7
 74
0
 42
0.0000001
 43
0.0000001
 44
0.0000000001
 40
0.0
 40
0.0
 40
0.0
 40
0.0
 40
0.2082511312
 40
0.444392611
 40
0.7091954251
 40
1.0
 40
1.0
 40
1.0
 40
1.0
 10
-45.8493372747
 20
291.6780022832
 30
0.0
 10
-45.7810638606
 20
290.7328071027
 30
0.0
 10
-45.9293520208
 20
288.6917629798
 30
0.0
 10
-46.8417888724
 20
285.5790217534
 30
0.0
 10
-48.4139529533
 20
282.3225369403
 30
0.0
 10
-49.8126617718
 20
280.207527109
 30
0.0
 10
-50.6022020034
 20
279.1455449549
 30
0.0
  0
SPLINE
  5
479
100
AcDbEntity
  8
0
100
AcDbSpline
 62
7
  6
CONTINUOUS
 70
0
 71
3
 72
11
 73
7
 74
0
 42
0.0000001
 43
0.0000001
 44
0.0000000001
 40
0.0
 40
0.0
 40
0.0
 40
0.0
 40
0.2189898336
 40
0.4546344281
 40
0.7137975655
 40
1.0
 40
1.0
 40
1.0
 40
1.0
 10
-49.7558855777
 20
275.3686709739
 30
0.0
 10
-49.4575384817
 20
274.797236724
 30
0.0
 10
-49.0031129485
 20
273.519410183
 30
0.0
 10
-48.7985582628
 20
271.4116674943
 30
0.0
 10
-49.0424674347
 20
269.1128678783
 30
0.0
 10
-49.4744968832
 20
267.5595726615
 30
0.0
 10
-49.7522630424
 20
266.7641986162
 30
0.0
  0
SPLINE
  5
47A
100
AcDbEntity
  8
0
100
AcDbSpline
 62
7
  6
CONTINUOUS
 70
0
 71
3
 72
18
 73
14
 74
0
 42
0.0000001
 43
0.0000001
 44
0.0000000001
 40
0.0
 40
0.0
 40
0.0
 40
0.0
 40
0.0428371713
 40
0.0865259993
 40
0.131948348
 40
0.1798358812
 40
0.2307365192
 40
0.2850126566
 40
0.4042020881
 40
0.5375130085
 40
0.6832414658
 40
0.8385736289
 40
1.0
 40
1.0
 40
1.0
 40
1.0
 10
48.5210442854
 20
315.4781936116
 30
0.0
 10
49.0607668699
 20
314.7854865224
 30
0.0
 10
50.0277704938
 20
313.2853443338
 30
0.0
 10
51.0772008451
 20
310.7786743507
 30
0.0
 10
51.724076165
 20
308.0336003518
 30
0.0
 10
51.9652441674
 20
305.0773628934
 30
0.0
 10
51.8023963184
 20
301.9355618882
 30
0.0
 10
51.0269378451
 20
297.3931128182
 30
0.0
 10
48.9947818872
 20
291.399863006
 30
0.0
 10
45.1696571875
 20
284.1593259957
 30
0.0
 10
40.009697964
 20
276.8750235217
 30
0.0
 10
33.6868336426
 20
269.7879514468
 30
0.0
 10
28.8859333848
 20
265.3971990492
 30
0.0
 10
26.3398576911
 20
263.2833831134
 30
0.0
  0
SPLINE
  5
47B
100
AcDbEntity
  8
0
100
AcDbSpline
 62
7
  6
CONTINUOUS
 70
0
 71
3
 72
9
 73
5
 74
0
 42
0.0000001
 43
0.0000001
 44
0.0000000001
 40
0.0
 40
0.0
 40
0.0
 40
0.0
 40
0.4893368961
 40
1.0
 40
1.0
 40
1.0
 40
1.0
 10
46.9484603128
 20
317.4963625928
 30
0.0
 10
46.2119635778
 20
318.4416152236
 30
0.0
 10
44.462891546
 20
320.1936448764
 30
0.0
 10
42.3603360712
 20
321.4909208012
 30
0.0
 10
41.2364797524
 20
322.0393415318
 30
0.0
  0
SPLINE
  5
47C
100
AcDbEntity
  8
0
100
AcDbSpline
 62
7
  6
CONTINUOUS
 70
0
 71
3
 72
13
 73
9
 74
0
 42
0.0000001
 43
0.0000001
 44
0.0000000001
 40
0.0
 40
0.0
 40
0.0
 40
0.0
 40
0.1043632964
 40
0.2114441892
 40
0.3234096336
 40
0.4419983417
 40
0.7031230569
 40
1.0
 40
1.0
 40
1.0
 40
1.0
 10
44.8890316911
 20
312.7339935699
 30
0.0
 10
44.3798684713
 20
313.3874022431
 30
0.0
 10
43.2235217033
 20
314.618792426
 30
0.0
 10
41.1520022909
 20
316.1551980421
 30
0.0
 10
38.7560184472
 20
317.380721506
 30
0.0
 10
35.0447409623
 20
318.6266605441
 30
0.0
 10
29.6620318918
 20
319.2895278663
 30
0.0
 10
25.2223865149
 20
318.9506618094
 30
0.0
 10
22.8921334433
 20
318.6005335813
 30
0.0
  0
SPLINE
  5
47D
100
AcDbEntity
  8
0
100
AcDbSpline
 62
7
  6
CONTINUOUS
 70
0
 71
3
 72
12
 73
8
 74
0
 42
0.0000001
 43
0.0000001
 44
0.0000000001
 40
0.0
 40
0.0
 40
0.0
 40
0.0
 40
0.1092082146
 40
0.2247588127
 40
0.4716203108
 40
0.7330871006
 40
1.0
 40
1.0
 40
1.0
 40
1.0
 10
22.8921334433
 20
318.6005335813
 30
0.0
 10
21.3897477582
 20
318.374795165
 30
0.0
 10
18.3187032477
 20
317.7617607835
 30
0.0
 10
12.0067914668
 20
315.9510963287
 30
0.0
 10
3.9577317167
 20
312.6232417569
 30
0.0
 10
-5.4340240282
 20
307.274915355
 30
0.0
 10
-11.3706423997
 20
302.9066039967
 30
0.0
 10
-14.2275322163
 20
300.534742376
 30
0.0
  0
SPLINE
  5
47E
100
AcDbEntity
  8
0
100
AcDbSpline
 62
7
  6
CONTINUOUS
 70
0
 71
3
 72
9
 73
5
 74
0
 42
0.0000001
 43
0.0000001
 44
0.0000000001
 40
0.0
 40
0.0
 40
0.0
 40
0.0
 40
0.2617110675
 40
1.0
 40
1.0
 40
1.0
 40
1.0
 10
39.6276690445
 20
326.6228443576
 30
0.0
 10
39.391286145
 20
326.6626534366
 30
0.0
 10
38.4927185893
 20
326.8397791761
 30
0.0
 10
37.612993583
 20
327.1226540373
 30
0.0
 10
36.9963972227
 20
327.4003111827
 30
0.0
  0
SPLINE
  5
47F
100
AcDbEntity
  8
0
100
AcDbSpline
 62
7
  6
CONTINUOUS
 70
0
 71
3
 72
11
 73
7
 74
0
 42
0.0000001
 43
0.0000001
 44
0.0000000001
 40
0.0
 40
0.0
 40
0.0
 40
0.0
 40
0.2959961218
 40
0.5595815468
 40
0.7920050973
 40
1.0
 40
1.0
 40
1.0
 40
1.0
 10
30.929054456
 20
333.7478531387
 30
0.0
 10
29.7613285084
 20
333.4922890489
 30
0.0
 10
27.517449325
 20
333.1511007665
 30
0.0
 10
24.300563581
 20
333.2081231273
 30
0.0
 10
21.508138499
 20
333.8696071134
 30
0.0
 10
19.9302854352
 20
334.7625686853
 30
0.0
 10
19.2827887679
 20
335.2976467397
 30
0.0
  0
SPLINE
  5
480
100
AcDbEntity
  8
0
100
AcDbSpline
 62
7
  6
CONTINUOUS
 70
0
 71
3
 72
9
 73
5
 74
0
 42
0.0000001
 43
0.0000001
 44
0.0000000001
 40
0.0
 40
0.0
 40
0.0
 40
0.0
 40
0.4911575685
 40
1.0
 40
1.0
 40
1.0
 40
1.0
 10
7.6909235442
 20
319.5269095733
 30
0.0
 10
5.0805382141
 20
318.457072526
 30
0.0
 10
-0.1254845504
 20
316.0070242019
 30
0.0
 10
-5.086820207
 20
313.0966255966
 30
0.0
 10
-7.5423000889
 20
311.5114673378
 30
0.0
  0
SPLINE
  5
481
100
AcDbEntity
  8
0
100
AcDbSpline
 62
7
  6
CONTINUOUS
 70
0
 71
3
 72
9
 73
5
 74
0
 42
0.0000001
 43
0.0000001
 44
0.0000000001
 40
0.0
 40
0.0
 40
0.0
 40
0.0
 40
0.4793134551
 40
1.0
 40
1.0
 40
1.0
 40
1.0
 10
25.1808295401
 20
324.1759014064
 30
0.0
 10
22.8019079076
 20
323.9283095328
 30
0.0
 10
17.8750046349
 20
323.0359016086
 30
0.0
 10
13.0961642813
 20
321.5626895911
 30
0.0
 10
10.6546740323
 20
320.673933806
 30
0.0
  0
SPLINE
  5
482
100
AcDbEntity
  8
0
100
AcDbSpline
 62
7
  6
CONTINUOUS
 70
0
 71
3
 72
9
 73
5
 74
0
 42
0.0000001
 43
0.0000001
 44
0.0000000001
 40
0.0
 40
0.0
 40
0.0
 40
0.0
 40
0.2442121118
 40
1.0
 40
1.0
 40
1.0
 40
1.0
 10
39.3911155448
 20
322.8261817396
 30
0.0
 10
39.155479385
 20
322.9132745081
 30
0.0
 10
38.1843144579
 20
323.2527861955
 30
0.0
 10
37.1899480356
 20
323.52495772
 30
0.0
 10
36.4315403386
 20
323.6960366142
 30
0.0
  0
SPLINE
  5
483
100
AcDbEntity
  8
0
100
AcDbSpline
 62
7
  6
CONTINUOUS
 70
0
 71
3
 72
9
 73
5
 74
0
 42
0.0000001
 43
0.0000001
 44
0.0000000001
 40
0.0
 40
0.0
 40
0.0
 40
0.0
 40
0.2352537047
 40
1.0
 40
1.0
 40
1.0
 40
1.0
 10
36.4315403386
 20
323.6960366142
 30
0.0
 10
35.7668493671
 20
323.8459752248
 30
0.0
 10
32.9160901727
 20
324.3706534072
 30
0.0
 10
29.9963221656
 20
324.4696288846
 30
0.0
 10
27.7835036585
 20
324.3708315961
 30
0.0
  0
LINE
  5
484
100
AcDbEntity
  8
0
100
AcDbLine
 62
7
  6
CONTINUOUS
 10
41.2364797523
 20
322.0393415325
 11
32.6827042197
 21
333.0001188222
  0
LINE
  5
485
100
AcDbEntity
  8
0
100
AcDbLine
 62
7
  6
CONTINUOUS
 10
39.6276690445
 20
326.6228443576
 11
45.7642971254
 21
318.7533385814
  0
SPLINE
  5
486
100
AcDbEntity
  8
0
100
AcDbSpline
 62
7
  6
CONTINUOUS
 70
0
 71
3
 72
9
 73
5
 74
0
 42
0.0000001
 43
0.0000001
 44
0.0000000001
 40
0.0
 40
0.0
 40
0.0
 40
0.0
 40
0.4805614081
 40
1.0
 40
1.0
 40
1.0
 40
1.0
 10
36.9422864004
 20
289.0494658226
 30
0.0
 10
35.867531425
 20
286.9801448932
 30
0.0
 10
33.2965935643
 20
282.8445952539
 30
0.0
 10
30.2425402898
 20
279.0596833195
 30
0.0
 10
28.5589526032
 20
277.1840403862
 30
0.0
  0
SPLINE
  5
487
100
AcDbEntity
  8
0
100
AcDbSpline
 62
7
  6
CONTINUOUS
 70
0
 71
3
 72
11
 73
7
 74
0
 42
0.0000001
 43
0.0000001
 44
0.0000000001
 40
0.0
 40
0.0
 40
0.0
 40
0.0
 40
0.2706265427
 40
0.528995204
 40
0.7727191903
 40
1.0
 40
1.0
 40
1.0
 40
1.0
 10
-19.7510987033
 20
290.3125202485
 30
0.0
 10
-20.8942328272
 20
289.0389831122
 30
0.0
 10
-23.0402925838
 20
286.4680919746
 30
0.0
 10
-25.8681407447
 20
282.476322474
 30
0.0
 10
-28.1970682222
 20
278.4880789088
 30
0.0
 10
-29.4380478105
 20
275.7728149375
 30
0.0
 10
-29.9556177662
 20
274.4320123275
 30
0.0
  0
SPLINE
  5
488
100
AcDbEntity
  8
0
100
AcDbSpline
 62
7
  6
CONTINUOUS
 70
0
 71
3
 72
9
 73
5
 74
0
 42
0.0000001
 43
0.0000001
 44
0.0000000001
 40
0.0
 40
0.0
 40
0.0
 40
0.0
 40
0.2539182848
 40
1.0
 40
1.0
 40
1.0
 40
1.0
 10
-14.2275322163
 20
300.534742376
 30
0.0
 10
-15.0753674778
 20
299.830848265
 30
0.0
 10
-18.3653534518
 20
297.0004525595
 30
0.0
 10
-21.4580502819
 20
293.9387509638
 30
0.0
 10
-23.6220552301
 20
291.5303035078
 30
0.0
  0
SPLINE
  5
489
100
AcDbEntity
  8
0
100
AcDbSpline
 62
7
  6
CONTINUOUS
 70
0
 71
3
 72
14
 73
10
 74
0
 42
0.0000001
 43
0.0000001
 44
0.0000000001
 40
0.0
 40
0.0
 40
0.0
 40
0.0
 40
0.2914168469
 40
0.4249897029
 40
0.5509272576
 40
0.670054115
 40
0.7835342989
 40
0.8929045512
 40
1.0
 40
1.0
 40
1.0
 40
1.0
 10
-35.4621097532
 20
273.1045287907
 30
0.0
 10
-36.1872102826
 20
271.2216499964
 30
0.0
 10
-37.0486055442
 20
268.3866230548
 30
0.0
 10
-37.6004199958
 20
264.6064923651
 30
0.0
 10
-37.6913169186
 20
261.9803480895
 30
0.0
 10
-37.4695742177
 20
259.5007982177
 30
0.0
 10
-36.9340497483
 20
257.1857947535
 30
0.0
 10
-36.0873879718
 20
255.0545572491
 30
0.0
 10
-35.3144847769
 20
253.761365088
 30
0.0
 10
-34.8830673651
 20
253.1582971219
 30
0.0
  0
SPLINE
  5
48A
100
AcDbEntity
  8
0
100
AcDbSpline
 62
7
  6
CONTINUOUS
 70
0
 71
3
 72
9
 73
5
 74
0
 42
0.0000001
 43
0.0000001
 44
0.0000000001
 40
0.0
 40
0.0
 40
0.0
 40
0.0
 40
0.5039932681
 40
1.0
 40
1.0
 40
1.0
 40
1.0
 10
26.3398576911
 20
263.2833831134
 30
0.0
 10
23.4883185573
 20
260.9159637638
 30
0.0
 10
17.5745468936
 20
256.5191903646
 30
0.0
 10
11.2252130084
 20
252.7760350432
 30
0.0
 10
7.9811023266
 20
251.1087584832
 30
0.0
  0
SPLINE
  5
48B
100
AcDbEntity
  8
0
100
AcDbSpline
 62
7
  6
CONTINUOUS
 70
0
 71
3
 72
15
 73
11
 74
0
 42
0.0000001
 43
0.0000001
 44
0.0000000001
 40
0.0
 40
0.0
 40
0.0
 40
0.0
 40
0.1544404309
 40
0.2994326596
 40
0.434908071
 40
0.5612138088
 40
0.679190725
 40
0.7902416262
 40
0.8963513314
 40
1.0
 40
1.0
 40
1.0
 40
1.0
 10
-13.1046743555
 20
243.7376357938
 30
0.0
 10
-14.5099301319
 20
243.4968914168
 30
0.0
 10
-17.2547311684
 20
243.1374490377
 30
0.0
 10
-21.2728085029
 20
242.9827992959
 30
0.0
 10
-25.0276228209
 20
243.2315064502
 30
0.0
 10
-28.4821694692
 20
243.8831959524
 30
0.0
 10
-31.6020049812
 20
244.9346417722
 30
0.0
 10
-34.3540894267
 20
246.3802481062
 30
0.0
 10
-36.7046280324
 20
248.2082105019
 30
0.0
 10
-37.9887772735
 20
249.6766273635
 30
0.0
 10
-38.5454852554
 20
250.4548432334
 30
0.0
  0
LINE
  5
48C
100
AcDbEntity
  8
0
100
AcDbLine
 62
7
  6
CONTINUOUS
 10
-48.9852622313
 20
265.1973235788
 11
-41.9344700657
 21
255.3360020029
  0
LINE
  5
48D
100
AcDbEntity
  8
0
100
AcDbLine
 62
7
  6
CONTINUOUS
 10
-50.9386190655
 20
276.9980717173
 11
-42.870869382
 21
265.7117979951
  0
SPLINE
  5
48E
100
AcDbEntity
  8
0
100
AcDbSpline
 62
7
  6
CONTINUOUS
 70
0
 71
3
 72
9
 73
5
 74
0
 42
0.0000001
 43
0.0000001
 44
0.0000000001
 40
0.0
 40
0.0
 40
0.0
 40
0.0
 40
0.5148151283
 40
1.0
 40
1.0
 40
1.0
 40
1.0
 10
-26.3831062798
 20
295.8693572194
 30
0.0
 10
-28.2970480002
 20
293.832265944
 30
0.0
 10
-31.838891235
 20
289.7052665658
 30
0.0
 10
-34.9470964707
 20
285.2382999797
 30
0.0
 10
-36.3185258542
 20
282.9891602451
 30
0.0
  0
SPLINE
  5
48F
100
AcDbEntity
  8
0
100
AcDbSpline
 62
7
  6
CONTINUOUS
 70
0
 71
3
 72
9
 73
5
 74
0
 42
0.0000001
 43
0.0000001
 44
0.0000000001
 40
0.0
 40
0.0
 40
0.0
 40
0.0
 40
0.5208697999
 40
1.0
 40
1.0
 40
1.0
 40
1.0
 10
-42.9930956101
 20
264.3769434425
 30
0.0
 10
-43.096223469
 20
262.8141014757
 30
0.0
 10
-43.0222224732
 20
259.7838723113
 30
0.0
 10
-42.2442662813
 20
256.8410919216
 30
0.0
 10
-41.6884508578
 20
255.5118909825
 30
0.0
  0
SPLINE
  5
490
100
AcDbEntity
  8
0
100
AcDbSpline
 62
7
  6
CONTINUOUS
 70
0
 71
3
 72
9
 73
5
 74
0
 42
0.0000001
 43
0.0000001
 44
0.0000000001
 40
0.0
 40
0.0
 40
0.0
 40
0.0
 40
0.5258268451
 40
1.0
 40
1.0
 40
1.0
 40
1.0
 10
-37.779767949
 20
280.4624445881
 30
0.0
 10
-38.9062601176
 20
278.401991992
 30
0.0
 10
-40.8200593628
 20
274.3513706865
 30
0.0
 10
-42.1106945772
 20
270.0498722861
 30
0.0
 10
-42.5168579824
 20
267.9715823202
 30
0.0
  0
LINE
  5
491
100
AcDbEntity
  8
0
100
AcDbLine
 62
7
  6
CONTINUOUS
 10
2.2349391571
 20
331.5987752743
 11
10.6546740331
 21
320.6739338063
  0
LINE
  5
492
100
AcDbEntity
  8
0
100
AcDbLine
 62
7
  6
CONTINUOUS
 10
25.1808295387
 20
324.1759014063
 11
16.8094673312
 21
335.1124045638
  0
SPLINE
  5
493
100
AcDbEntity
  8
0
100
AcDbSpline
 62
7
  6
CONTINUOUS
 70
0
 71
3
 72
14
 73
10
 74
0
 42
0.0000001
 43
0.0000001
 44
0.0000000001
 40
0.0
 40
0.0
 40
0.0
 40
0.0
 40
0.2922007531
 40
0.4257565127
 40
0.5514693067
 40
0.6702570244
 40
0.7834214895
 40
0.8926650998
 40
1.0
 40
1.0
 40
1.0
 40
1.0
 10
45.8007597559
 20
292.3422896558
 30
0.0
 10
46.5472002089
 20
294.2805821312
 30
0.0
 10
47.4276203893
 20
297.1997543292
 30
0.0
 10
47.9638203737
 20
301.089424301
 30
0.0
 10
48.0228468647
 20
303.783002669
 30
0.0
 10
47.7489565402
 20
306.3185085713
 30
0.0
 10
47.1412265288
 20
308.6762065053
 30
0.0
 10
46.2027294659
 20
310.8348047606
 30
0.0
 10
45.3579985009
 20
312.1321689113
 30
0.0
 10
44.8890316911
 20
312.7339935699
 30
0.0
  0
SPLINE
  5
494
100
AcDbEntity
  8
0
100
AcDbSpline
 62
7
  6
CONTINUOUS
 70
0
 71
3
 72
11
 73
7
 74
0
 42
0.0000001
 43
0.0000001
 44
0.0000000001
 40
0.0
 40
0.0
 40
0.0
 40
0.0
 40
0.2706265427
 40
0.528995204
 40
0.7727191903
 40
1.0
 40
1.0
 40
1.0
 40
1.0
 10
30.089748706
 20
275.1342981979
 30
0.0
 10
31.23288283
 20
276.4078353343
 30
0.0
 10
33.3789425865
 20
278.9787264719
 30
0.0
 10
36.2067907474
 20
282.9704959724
 30
0.0
 10
38.5357182249
 20
286.9587395376
 30
0.0
 10
39.7766978132
 20
289.6740035089
 30
0.0
 10
40.2942677689
 20
291.0148061189
 30
0.0
  0
LINE
  5
495
100
AcDbEntity
  8
0
100
AcDbLine
 62
7
  6
CONTINUOUS
 10
19.2827887679
 20
335.2976467397
 11
27.7835036592
 21
324.3708315961
  0
SPLINE
  5
496
100
AcDbEntity
  8
0
100
AcDbSpline
 62
7
  6
CONTINUOUS
 70
0
 71
3
 72
9
 73
5
 74
0
 42
0.0000001
 43
0.0000001
 44
0.0000000001
 40
0.0
 40
0.0
 40
0.0
 40
0.0
 40
0.2539182848
 40
1.0
 40
1.0
 40
1.0
 40
1.0
 10
24.566182219
 20
264.9120760705
 30
0.0
 10
25.4140174805
 20
265.6159701814
 30
0.0
 10
28.7040034545
 20
268.4463658869
 30
0.0
 10
31.7967002846
 20
271.5080674826
 30
0.0
 10
33.9607052328
 20
273.9165149387
 30
0.0
  0
LINE
  5
497
100
AcDbEntity
  8
0
100
AcDbLine
 62
7
  6
CONTINUOUS
 10
39.3911155439
 20
322.8261817399
 11
30.929054456
 21
333.7478531387
  0
LINE
  5
498
100
AcDbEntity
  8
0
100
AcDbLine
 62
7
  6
CONTINUOUS
 10
-7.54230009
 20
311.5114673376
 11
-15.8654640485
 21
322.4666240763
  0
LINE
  5
499
100
AcDbEntity
  8
0
100
AcDbLine
 62
7
  6
CONTINUOUS
 10
-0.5815131845
 20
330.5087580482
 11
7.6909235463
 21
319.5269095751
  0
SPLINE
  5
49A
100
AcDbEntity
  8
0
100
AcDbSpline
 62
7
  6
CONTINUOUS
 70
0
 71
3
 72
21
 73
17
 74
0
 42
0.0000001
 43
0.0000001
 44
0.0000000001
 40
0.0
 40
0.0
 40
0.0
 40
0.0
 40
0.1541820152
 40
0.3062124752
 40
0.380146084
 40
0.4520222574
 40
0.5214022626
 40
0.5878970257
 40
0.6511849265
 40
0.711026316
 40
0.7672814473
 40
0.8199342626
 40
0.8691193813
 40
0.9151486676
 40
0.9585349482
 40
1.0
 40
1.0
 40
1.0
 40
1.0
 10
-16.0012076884
 20
302.163435333
 30
0.0
 10
-13.2705762903
 20
304.4304740462
 30
0.0
 10
-7.6122086412
 20
308.6568869548
 30
0.0
 10
-0.090241533
 20
313.1610333604
 30
0.0
 10
6.0631142168
 20
316.1912723067
 30
0.0
 10
10.6273996657
 20
318.123192664
 30
0.0
 10
15.1394722207
 20
319.7170179189
 30
0.0
 10
19.556673387
 20
320.9574404071
 30
0.0
 10
23.8371654019
 20
321.8326865644
 30
0.0
 10
27.9407393482
 20
322.3343061087
 30
0.0
 10
31.8291213029
 20
322.457009092
 30
0.0
 10
35.4663109124
 20
322.1985558113
 30
0.0
 10
38.8185665202
 20
321.5597314156
 30
0.0
 10
41.8545525761
 20
320.543334571
 30
0.0
 10
44.5428350018
 20
319.1559006714
 30
0.0
 10
46.1098354033
 20
317.9694921097
 30
0.0
 10
46.813752783
 20
317.3248911653
 30
0.0
  0
LINE
  5
49B
100
AcDbEntity
  8
0
100
AcDbLine
 62
7
  6
CONTINUOUS
 10
-18.5962679572
 20
320.6377770416
 11
-10.4159227999
 21
309.5869731058
  0
LINE
  5
49C
100
AcDbEntity
  8
0
100
AcDbLine
 62
7
  6
CONTINUOUS
 10
-24.0370943526
 20
298.2783346527
 11
-32.2627985415
 21
309.2914803826
  0
LINE
  5
49D
100
AcDbEntity
  8
0
100
AcDbLine
 62
7
  6
CONTINUOUS
 10
-41.6884508581
 20
255.5118909816
 11
-48.7501327457
 21
265.3658168141
  0
SPLINE
  5
49E
100
AcDbEntity
  8
0
100
AcDbSpline
 62
7
  6
CONTINUOUS
 70
0
 71
3
 72
14
 73
10
 74
0
 42
0.0000001
 43
0.0000001
 44
0.0000000001
 40
0.0
 40
0.0
 40
0.0
 40
0.0
 40
0.104183425
 40
0.2107485893
 40
0.3221102418
 40
0.4402174211
 40
0.5664658258
 40
0.701711985
 40
1.0
 40
1.0
 40
1.0
 40
1.0
 10
-34.8830673651
 20
253.1582971219
 30
0.0
 10
-34.3822600004
 20
252.4582306187
 30
0.0
 10
-33.2302272789
 20
251.1361320565
 30
0.0
 10
-31.126908023
 20
249.4829791
 30
0.0
 10
-28.6678126275
 20
248.1666456306
 30
0.0
 10
-25.8820978549
 20
247.1978694038
 30
0.0
 10
-22.7979657886
 20
246.5816846376
 30
0.0
 10
-18.1787895653
 20
246.2234090085
 30
0.0
 10
-14.5814433039
 20
246.5219360692
 30
0.0
 10
-12.1476042671
 20
246.9090607592
 30
0.0
  0
SPLINE
  5
49F
100
AcDbEntity
  8
0
100
AcDbSpline
 62
7
  6
CONTINUOUS
 70
0
 71
3
 72
9
 73
5
 74
0
 42
0.0000001
 43
0.0000001
 44
0.0000000001
 40
0.0
 40
0.0
 40
0.0
 40
0.0
 40
0.2453752317
 40
1.0
 40
1.0
 40
1.0
 40
1.0
 10
4.4691556988
 20
252.1623569948
 30
0.0
 10
5.3249401739
 20
252.5558612254
 30
0.0
 10
8.7843886325
 20
254.2204249294
 30
0.0
 10
12.1303053432
 20
256.119081559
 30
0.0
 10
14.5807001412
 20
257.6640245203
 30
0.0
  0
SPLINE
  5
4A0
100
AcDbEntity
  8
0
100
AcDbSpline
 62
7
  6
CONTINUOUS
 70
0
 71
3
 72
15
 73
11
 74
0
 42
0.0000001
 43
0.0000001
 44
0.0000000001
 40
0.0
 40
0.0
 40
0.0
 40
0.0
 40
0.0988067749
 40
0.2027912606
 40
0.313807902
 40
0.433107416
 40
0.5613739114
 40
0.698802685
 40
0.8451881214
 40
1.0
 40
1.0
 40
1.0
 40
1.0
 10
-39.9297140692
 20
252.8213444232
 30
0.0
 10
-40.3652238082
 20
253.7491865559
 30
0.0
 10
-41.0699781314
 20
255.7470927056
 30
0.0
 10
-41.5849777849
 20
258.9763529527
 30
0.0
 10
-41.580121085
 20
262.4572209571
 30
0.0
 10
-41.0600978983
 20
266.1506714217
 30
0.0
 10
-40.034014814
 20
270.0188069627
 30
0.0
 10
-38.5145377441
 20
274.0214885944
 30
0.0
 10
-36.5189697749
 20
278.1164973473
 30
0.0
 10
-34.9270774019
 20
280.809137274
 30
0.0
 10
-34.0613555122
 20
282.1617467952
 30
0.0
  0
SPLINE
  5
4A1
100
AcDbEntity
  8
0
100
AcDbSpline
 62
7
  6
CONTINUOUS
 70
0
 71
3
 72
9
 73
5
 74
0
 42
0.0000001
 43
0.0000001
 44
0.0000000001
 40
0.0
 40
0.0
 40
0.0
 40
0.0
 40
0.4872257471
 40
1.0
 40
1.0
 40
1.0
 40
1.0
 10
-34.0613555122
 20
282.1617467952
 30
0.0
 10
-32.7933273667
 20
284.1429222317
 30
0.0
 10
-29.9794205942
 20
288.0761386197
 30
0.0
 10
-26.8282765533
 20
291.7420436515
 30
0.0
 10
-25.1405981284
 20
293.5531664509
 30
0.0
  0
SPLINE
  5
4A2
100
AcDbEntity
  8
0
100
AcDbSpline
 62
7
  6
CONTINUOUS
 70
0
 71
3
 72
9
 73
5
 74
0
 42
0.0000001
 43
0.0000001
 44
0.0000000001
 40
0.0
 40
0.0
 40
0.0
 40
0.0
 40
0.2462680197
 40
1.0
 40
1.0
 40
1.0
 40
1.0
 10
-25.1405981284
 20
293.5531664509
 30
0.0
 10
-24.4376280174
 20
294.3075549509
 30
0.0
 10
-21.5318338818
 20
297.3227369913
 30
0.0
 10
-18.4293854979
 20
300.1475011794
 30
0.0
 10
-16.0012076884
 20
302.163435333
 30
0.0
  0
LINE
  5
4A3
100
AcDbEntity
  8
0
100
AcDbLine
 62
7
  6
CONTINUOUS
 10
-42.516857984
 20
267.971582318
 11
-50.6022020034
 21
279.1455449549
  0
LINE
  5
4A4
100
AcDbEntity
  8
0
100
AcDbLine
 62
7
  6
CONTINUOUS
 10
-45.8493372747
 20
291.6780022832
 11
-37.7797679492
 21
280.4624445907
  0
LINE
  5
4A5
100
AcDbEntity
  8
0
100
AcDbLine
 62
7
  6
CONTINUOUS
 10
-34.492213877
 20
307.0022289217
 11
-26.383106279
 21
295.8693572213
  0
LINE
  5
4A6
100
AcDbEntity
  8
0
100
AcDbLine
 62
7
  6
CONTINUOUS
 10
-36.3185258552
 20
282.9891602443
 11
-44.4607187875
 21
294.0791403874
  0
SPLINE
  5
4A7
100
AcDbEntity
  8
0
100
AcDbSpline
 62
7
  6
CONTINUOUS
 70
0
 71
3
 72
9
 73
5
 74
0
 42
0.0000001
 43
0.0000001
 44
0.0000000001
 40
0.0
 40
0.0
 40
0.0
 40
0.0
 40
0.4898121497
 40
1.0
 40
1.0
 40
1.0
 40
1.0
 10
-48.7207643981
 20
236.5096760153
 30
0.0
 10
-49.249151631
 20
236.3680389206
 30
0.0
 10
-50.2917342809
 20
235.9284973451
 30
0.0
 10
-51.18977021
 20
235.2447660055
 30
0.0
 10
-51.6017674913
 20
234.8511575974
 30
0.0
  0
SPLINE
  5
4A8
100
AcDbEntity
  8
0
100
AcDbSpline
 62
7
  6
CONTINUOUS
 70
0
 71
3
 72
11
 73
7
 74
0
 42
0.0000001
 43
0.0000001
 44
0.0000000001
 40
0.0
 40
0.0
 40
0.0
 40
0.0
 40
0.2612202693
 40
0.5135060506
 40
0.7587206361
 40
1.0
 40
1.0
 40
1.0
 40
1.0
 10
-39.7943375094
 20
135.3719728356
 30
0.0
 10
-39.5444504616
 20
134.9631543276
 30
0.0
 10
-38.9745911706
 20
134.2038522276
 30
0.0
 10
-37.917963677
 20
133.2818523122
 30
0.0
 10
-36.714708122
 20
132.6339267939
 30
0.0
 10
-35.8424553968
 20
132.403185788
 30
0.0
 10
-35.4041676774
 20
132.3418076027
 30
0.0
  0
SPLINE
  5
4A9
100
AcDbEntity
  8
0
100
AcDbSpline
 62
7
  6
CONTINUOUS
 70
0
 71
3
 72
9
 73
5
 74
0
 42
0.0000001
 43
0.0000001
 44
0.0000000001
 40
0.0
 40
0.0
 40
0.0
 40
0.0
 40
0.4970398506
 40
1.0
 40
1.0
 40
1.0
 40
1.0
 10
22.9760773122
 20
255.2637676524
 30
0.0
 10
22.6000822571
 20
255.3164223199
 30
0.0
 10
21.8307642128
 20
255.3448252059
 30
0.0
 10
21.0718111794
 20
255.2179585492
 30
0.0
 10
20.7007255937
 20
255.1184870234
 30
0.0
  0
SPLINE
  5
4AA
100
AcDbEntity
  8
0
100
AcDbSpline
 62
7
  6
CONTINUOUS
 70
0
 71
3
 72
9
 73
5
 74
0
 42
0.0000001
 43
0.0000001
 44
0.0000000001
 40
0.0
 40
0.0
 40
0.0
 40
0.0
 40
0.2520369168
 40
1.0
 40
1.0
 40
1.0
 40
1.0
 10
22.8760505942
 20
254.8138249297
 30
0.0
 10
22.9939168975
 20
254.8454196385
 30
0.0
 10
23.4652830974
 20
254.9564247295
 30
0.0
 10
23.9505753812
 20
255.0089110096
 30
0.0
 10
24.3126912229
 20
255.0128664389
 30
0.0
  0
SPLINE
  5
4AB
100
AcDbEntity
  8
0
100
AcDbSpline
 62
7
  6
CONTINUOUS
 70
0
 71
3
 72
9
 73
5
 74
0
 42
0.0000001
 43
0.0000001
 44
0.0000000001
 40
0.0
 40
0.0
 40
0.0
 40
0.0
 40
0.2477030856
 40
1.0
 40
1.0
 40
1.0
 40
1.0
 10
-38.3368181724
 20
136.5887773253
 30
0.0
 10
-38.3818002474
 20
136.7171966141
 30
0.0
 10
-38.5507304198
 20
137.2400054038
 30
0.0
 10
-38.6695560483
 20
137.7788582643
 30
0.0
 10
-38.7308145881
 20
138.1875481638
 30
0.0
  0
SPLINE
  5
4AC
100
AcDbEntity
  8
0
100
AcDbSpline
 62
7
  6
CONTINUOUS
 70
0
 71
3
 72
9
 73
5
 74
0
 42
0.0000001
 43
0.0000001
 44
0.0000000001
 40
0.0
 40
0.0
 40
0.0
 40
0.0
 40
0.2534893013
 40
1.0
 40
1.0
 40
1.0
 40
1.0
 10
-47.9122071918
 20
235.6570699829
 30
0.0
 10
-47.8026850218
 20
235.7164459759
 30
0.0
 10
-47.3641066016
 20
235.9383862331
 30
0.0
 10
-46.8998144092
 20
236.1100217569
 30
0.0
 10
-46.5454393976
 20
236.2050139216
 30
0.0
  0
SPLINE
  5
4AD
100
AcDbEntity
  8
0
100
AcDbSpline
 62
7
  6
CONTINUOUS
 70
0
 71
3
 72
13
 73
9
 74
0
 42
0.0000001
 43
0.0000001
 44
0.0000000001
 40
0.0
 40
0.0
 40
0.0
 40
0.0
 40
0.2675486262
 40
0.5280506695
 40
0.6524556283
 40
0.7718860426
 40
0.8871401313
 40
1.0
 40
1.0
 40
1.0
 40
1.0
 10
33.6575585661
 20
154.6693094772
 30
0.0
 10
33.7496321359
 20
153.4655561446
 30
0.0
 10
33.4692655368
 20
151.0336841978
 30
0.0
 10
32.0307509958
 20
148.3685859037
 30
0.0
 10
30.3586320972
 20
146.7994269757
 30
0.0
 10
28.9390602005
 20
145.9846747163
 30
0.0
 10
27.4104740436
 20
145.5642486255
 30
0.0
 10
26.3659963264
 20
145.565821802
 30
0.0
 10
25.8616531007
 20
145.6364293171
 30
0.0
  0
SPLINE
  5
4AE
100
AcDbEntity
  8
0
100
AcDbSpline
 62
7
  6
CONTINUOUS
 70
0
 71
3
 72
23
 73
19
 74
0
 42
0.0000001
 43
0.0000001
 44
0.0000000001
 40
0.0
 40
0.0
 40
0.0
 40
0.0
 40
0.0582720559
 40
0.118264914
 40
0.1801746247
 40
0.243950416
 40
0.3093321539
 40
0.3758875745
 40
0.443068235
 40
0.5102654864
 40
0.5768692145
 40
0.6423263696
 40
0.7061980208
 40
0.7682123826
 40
0.8283088772
 40
0.8866643607
 40
0.9436928868
 40
1.0
 40
1.0
 40
1.0
 40
1.0
 10
16.2900312942
 20
224.819382395
 30
0.0
 10
14.5393383878
 20
224.350099563
 30
0.0
 10
11.0746702071
 20
223.0336513562
 30
0.0
 10
6.2808735139
 20
220.0735088116
 30
0.0
 10
1.9597767036
 20
216.1979438542
 30
0.0
 10
-1.7584613431
 20
211.5284960197
 30
0.0
 10
-4.7659095941
 20
206.2079387272
 30
0.0
 10
-6.9742050634
 20
200.3970879916
 30
0.0
 10
-8.3184735838
 20
194.2706900646
 30
0.0
 10
-8.7588606644
 20
188.0125373053
 30
0.0
 10
-8.2817950594
 20
181.810229301
 30
0.0
 10
-6.900268257
 20
175.8498068584
 30
0.0
 10
-4.6533820389
 20
170.3105982728
 30
0.0
 10
-1.6051233354
 20
165.3605158413
 30
0.0
 10
2.1566047411
 20
161.1520676455
 30
0.0
 10
6.5223894446
 20
157.818125411
 30
0.0
 10
11.3575067429
 20
155.4685319258
 30
0.0
 10
14.8075713405
 20
154.6082716188
 30
0.0
 10
16.5420212599
 20
154.3653329132
 30
0.0
  0
SPLINE
  5
4AF
100
AcDbEntity
  8
0
100
AcDbSpline
 62
7
  6
CONTINUOUS
 70
0
 71
3
 72
11
 73
7
 74
0
 42
0.0000001
 43
0.0000001
 44
0.0000000001
 40
0.0
 40
0.0
 40
0.0
 40
0.0
 40
0.2685866006
 40
0.5241494212
 40
0.7663585922
 40
1.0
 40
1.0
 40
1.0
 40
1.0
 10
22.8390130236
 20
152.4513815727
 30
0.0
 10
22.9120915968
 20
151.9638336356
 30
0.0
 10
23.179869949
 20
151.0250350587
 30
0.0
 10
23.9445545078
 20
149.8192966528
 30
0.0
 10
25.0035345247
 20
148.953796902
 30
0.0
 10
25.8530352895
 20
148.6668386646
 30
0.0
 10
26.277748319
 20
148.6074005573
 30
0.0
  0
SPLINE
  5
4B0
100
AcDbEntity
  8
0
100
AcDbSpline
 62
7
  6
CONTINUOUS
 70
0
 71
3
 72
12
 73
8
 74
0
 42
0.0000001
 43
0.0000001
 44
0.0000000001
 40
0.0
 40
0.0
 40
0.0
 40
0.0
 40
0.0880602522
 40
0.1825001668
 40
0.3451972006
 40
0.5383410724
 40
1.0
 40
1.0
 40
1.0
 40
1.0
 10
-11.5752223327
 20
233.458550181
 30
0.0
 10
-11.5183004756
 20
233.473781711
 30
0.0
 10
-11.4050193814
 20
233.5258248841
 30
0.0
 10
-11.2325575827
 20
233.6837573016
 30
0.0
 10
-11.0826973681
 20
233.9516172194
 30
0.0
 10
-10.9448210648
 20
234.4843462105
 30
0.0
 10
-10.9595824532
 20
234.9324591063
 30
0.0
 10
-11.0053740028
 20
235.2379600838
 30
0.0
  0
SPLINE
  5
4B1
100
AcDbEntity
  8
0
100
AcDbSpline
 62
7
  6
CONTINUOUS
 70
0
 71
3
 72
11
 73
7
 74
0
 42
0.0000001
 43
0.0000001
 44
0.0000000001
 40
0.0
 40
0.0
 40
0.0
 40
0.0
 40
0.2400840753
 40
0.4871290027
 40
0.740763065
 40
1.0
 40
1.0
 40
1.0
 40
1.0
 10
47.7758197807
 20
226.5348339561
 30
0.0
 10
49.3630977976
 20
224.8545647616
 30
0.0
 10
52.2957168739
 20
221.1625095783
 30
0.0
 10
55.8000468707
 20
214.919795779
 30
0.0
 10
58.3927635548
 20
208.050976678
 30
0.0
 10
59.4612252016
 20
203.2106296546
 30
0.0
 10
59.8311933014
 20
200.7423660319
 30
0.0
  0
SPLINE
  5
4B2
100
AcDbEntity
  8
0
100
AcDbSpline
 62
7
  6
CONTINUOUS
 70
0
 71
3
 72
17
 73
13
 74
0
 42
0.0000001
 43
0.0000001
 44
0.0000000001
 40
0.0
 40
0.0
 40
0.0
 40
0.0
 40
0.1317334102
 40
0.2645064361
 40
0.3963968943
 40
0.5256091082
 40
0.6507709219
 40
0.771194592
 40
0.8297576096
 40
0.8872871621
 40
0.9439657139
 40
1.0
 40
1.0
 40
1.0
 40
1.0
 10
59.8311933014
 20
200.7423660319
 30
0.0
 10
60.349858234
 20
197.2820628699
 30
0.0
 10
60.7239243234
 20
190.2176692772
 30
0.0
 10
59.3354178395
 20
179.7242361517
 30
0.0
 10
56.0710154168
 20
169.7205308937
 30
0.0
 10
51.0780740387
 20
160.6837345973
 30
0.0
 10
44.5873664965
 20
153.0450531629
 30
0.0
 10
38.1013986205
 20
148.1039229673
 30
0.0
 10
32.5013810895
 20
145.2287077269
 30
0.0
 10
28.1843972214
 20
143.6368758818
 30
0.0
 10
23.7682184161
 20
142.6130760404
 30
0.0
 10
20.7791519426
 20
142.3161928787
 30
0.0
 10
19.2916489843
 20
142.2668431698
 30
0.0
  0
SPLINE
  5
4B3
100
AcDbEntity
  8
0
100
AcDbSpline
 62
7
  6
CONTINUOUS
 70
0
 71
3
 72
9
 73
5
 74
0
 42
0.0000001
 43
0.0000001
 44
0.0000000001
 40
0.0
 40
0.0
 40
0.0
 40
0.0
 40
0.2495805892
 40
1.0
 40
1.0
 40
1.0
 40
1.0
 10
37.4754151337
 20
224.5491425441
 30
0.0
 10
38.164744815
 20
224.7384357974
 30
0.0
 10
40.9268792039
 20
225.4962180937
 30
0.0
 10
43.689761587
 20
226.2512727439
 30
0.0
 10
45.7634081573
 20
226.8166828474
 30
0.0
  0
SPLINE
  5
4B4
100
AcDbEntity
  8
0
100
AcDbSpline
 62
7
  6
CONTINUOUS
 70
0
 71
3
 72
10
 73
6
 74
0
 42
0.0000001
 43
0.0000001
 44
0.0000000001
 40
0.0
 40
0.0
 40
0.0
 40
0.0
 40
0.5144904113
 40
0.7619036842
 40
1.0
 40
1.0
 40
1.0
 40
1.0
 10
46.982133992
 20
156.1470565508
 30
0.0
 10
46.701985044
 20
155.0500979813
 30
0.0
 10
45.9847348027
 20
153.4753682542
 30
0.0
 10
44.5143127636
 20
151.8233398261
 30
0.0
 10
43.6422090021
 20
151.1871612138
 30
0.0
 10
43.1853927882
 20
150.9305731867
 30
0.0
  0
SPLINE
  5
4B5
100
AcDbEntity
  8
0
100
AcDbSpline
 62
7
  6
CONTINUOUS
 70
0
 71
3
 72
9
 73
5
 74
0
 42
0.0000001
 43
0.0000001
 44
0.0000000001
 40
0.0
 40
0.0
 40
0.0
 40
0.0
 40
0.2538173861
 40
1.0
 40
1.0
 40
1.0
 40
1.0
 10
43.1853927882
 20
150.9305731867
 30
0.0
 10
43.0692711788
 20
150.8653491125
 30
0.0
 10
42.6041859251
 20
150.6222020917
 30
0.0
 10
42.1091793845
 20
150.4356206726
 30
0.0
 10
41.7309865343
 20
150.3342440056
 30
0.0
  0
SPLINE
  5
4B6
100
AcDbEntity
  8
0
100
AcDbSpline
 62
7
  6
CONTINUOUS
 70
0
 71
3
 72
9
 73
5
 74
0
 42
0.0000001
 43
0.0000001
 44
0.0000000001
 40
0.0
 40
0.0
 40
0.0
 40
0.0
 40
0.5028715139
 40
1.0
 40
1.0
 40
1.0
 40
1.0
 10
-27.6905034575
 20
131.7254329975
 30
0.0
 10
-28.0615215886
 20
131.6259795533
 30
0.0
 10
-28.8204780893
 20
131.4992227396
 30
0.0
 10
-29.5897961018
 20
131.5274809547
 30
0.0
 10
-29.965854309
 20
131.5801576481
 30
0.0
  0
SPLINE
  5
4B7
100
AcDbEntity
  8
0
100
AcDbSpline
 62
7
  6
CONTINUOUS
 70
0
 71
3
 72
12
 73
8
 74
0
 42
0.0000001
 43
0.0000001
 44
0.0000000001
 40
0.0
 40
0.0
 40
0.0
 40
0.0
 40
0.1141465032
 40
0.2321738583
 40
0.4794960043
 40
0.7389461754
 40
1.0
 40
1.0
 40
1.0
 40
1.0
 10
-46.5454393976
 20
236.2050139217
 30
0.0
 10
-46.9835250623
 20
236.0875826574
 30
0.0
 10
-47.8499081441
 20
235.7456879868
 30
0.0
 10
-49.4457722732
 20
234.6843528193
 30
0.0
 10
-51.0577315991
 20
232.7141199054
 30
0.0
 10
-52.1010446311
 20
229.7934475494
 30
0.0
 10
-52.1450163528
 20
227.6811727778
 30
0.0
 10
-51.9912567187
 20
226.6553564658
 30
0.0
  0
SPLINE
  5
4B8
100
AcDbEntity
  8
0
100
AcDbSpline
 62
7
  6
CONTINUOUS
 70
0
 71
3
 72
11
 73
7
 74
0
 42
0.0000001
 43
0.0000001
 44
0.0000000001
 40
0.0
 40
0.0
 40
0.0
 40
0.0
 40
0.2639930922
 40
0.5191554636
 40
0.7642347712
 40
1.0
 40
1.0
 40
1.0
 40
1.0
 10
-38.7308145881
 20
138.1875481638
 30
0.0
 10
-38.643489799
 20
137.604955772
 30
0.0
 10
-38.3596211797
 20
136.4722737197
 30
0.0
 10
-37.6063828337
 20
134.9278111806
 30
0.0
 10
-36.5670480474
 20
133.6375620043
 30
0.0
 10
-35.7001316892
 20
132.9821806286
 30
0.0
 10
-35.241998819
 20
132.7235184348
 30
0.0
  0
SPLINE
  5
4B9
100
AcDbEntity
  8
0
100
AcDbSpline
 62
7
  6
CONTINUOUS
 70
0
 71
3
 72
9
 73
5
 74
0
 42
0.0000001
 43
0.0000001
 44
0.0000000001
 40
0.0
 40
0.0
 40
0.0
 40
0.0
 40
0.502673014
 40
1.0
 40
1.0
 40
1.0
 40
1.0
 10
-35.241998819
 20
132.7235184348
 30
0.0
 10
-34.9302864981
 20
132.5475254031
 30
0.0
 10
-34.276926846
 20
132.2528975276
 30
0.0
 10
-33.5795744503
 20
132.0862799803
 30
0.0
 10
-33.2288418098
 20
132.0371507886
 30
0.0
  0
SPLINE
  5
4BA
100
AcDbEntity
  8
0
100
AcDbSpline
 62
7
  6
CONTINUOUS
 70
0
 71
3
 72
9
 73
5
 74
0
 42
0.0000001
 43
0.0000001
 44
0.0000000001
 40
0.0
 40
0.0
 40
0.0
 40
0.0
 40
0.4971284861
 40
1.0
 40
1.0
 40
1.0
 40
1.0
 10
25.1514014457
 20
254.9591002793
 30
0.0
 10
24.7753432385
 20
255.0117769726
 30
0.0
 10
24.006025226
 20
255.0400351877
 30
0.0
 10
23.2470687253
 20
254.913278374
 30
0.0
 10
22.8760505943
 20
254.8138249298
 30
0.0
  0
SPLINE
  5
4BB
100
AcDbEntity
  8
0
100
AcDbSpline
 62
7
  6
CONTINUOUS
 70
0
 71
3
 72
11
 73
7
 74
0
 42
0.0000001
 43
0.0000001
 44
0.0000000001
 40
0.0
 40
0.0
 40
0.0
 40
0.0
 40
0.233633584
 40
0.4758467542
 40
0.7314152315
 40
1.0
 40
1.0
 40
1.0
 40
1.0
 10
28.4143889465
 20
254.5021071387
 30
0.0
 10
29.0938965462
 20
254.4069244974
 30
0.0
 10
30.4530810706
 20
253.9478793884
 30
0.0
 10
32.147538896
 20
252.5631227265
 30
0.0
 10
33.3709470985
 20
250.6338545009
 30
0.0
 10
33.7994365709
 20
249.1317827051
 30
0.0
 10
33.9163617248
 20
248.3517097635
 30
0.0
  0
SPLINE
  5
4BC
100
AcDbEntity
  8
0
100
AcDbSpline
 62
7
  6
CONTINUOUS
 70
0
 71
3
 72
23
 73
19
 74
0
 42
0.0000001
 43
0.0000001
 44
0.0000000001
 40
0.0
 40
0.0
 40
0.0
 40
0.0
 40
0.0560061501
 40
0.1126286184
 40
0.1704033399
 40
0.2297171046
 40
0.2907747437
 40
0.3535900456
 40
0.4179997147
 40
0.4836915286
 40
0.5502407177
 40
0.6171505761
 40
0.6838948912
 40
0.7499610123
 40
0.8148913196
 40
0.878328979
 40
0.9400486967
 40
1.0
 40
1.0
 40
1.0
 40
1.0
 10
26.9167662165
 20
228.4422956536
 30
0.0
 10
28.6576624181
 20
228.1984227952
 30
0.0
 10
32.1199115745
 20
227.3640020815
 30
0.0
 10
37.0107140582
 20
225.1242828169
 30
0.0
 10
41.4867230159
 20
221.9575400486
 30
0.0
 10
45.4285316978
 20
217.9527504271
 30
0.0
 10
48.7365818008
 20
213.2188796144
 30
0.0
 10
51.3279268173
 20
207.8817468467
 30
0.0
 10
53.1383926235
 20
202.0810132316
 30
0.0
 10
54.1233336832
 20
195.9672022939
 30
0.0
 10
54.2587360237
 20
189.6983327121
 30
0.0
 10
53.5418162528
 20
183.4361862698
 30
0.0
 10
51.9912076743
 20
177.3423441065
 30
0.0
 10
49.6463887912
 20
171.5742002989
 30
0.0
 10
46.5670483434
 20
166.2810478824
 30
0.0
 10
42.8303577204
 20
161.6003656352
 30
0.0
 10
38.5329755031
 20
157.6558320712
 30
0.0
 10
35.3174052897
 20
155.5557581381
 30
0.0
 10
33.6575585661
 20
154.6693094772
 30
0.0
  0
SPLINE
  5
4BD
100
AcDbEntity
  8
0
100
AcDbSpline
 62
7
  6
CONTINUOUS
 70
0
 71
3
 72
9
 73
5
 74
0
 42
0.0000001
 43
0.0000001
 44
0.0000000001
 40
0.0
 40
0.0
 40
0.0
 40
0.0
 40
0.4969767544
 40
1.0
 40
1.0
 40
1.0
 40
1.0
 10
26.5006676848
 20
225.4713003546
 30
0.0
 10
24.8136127992
 20
225.7076487192
 30
0.0
 10
21.3612799574
 20
225.8353258049
 30
0.0
 10
17.9554905866
 20
225.2658178895
 30
0.0
 10
16.2900312942
 20
224.819382395
 30
0.0
  0
SPLINE
  5
4BE
100
AcDbEntity
  8
0
100
AcDbSpline
 62
7
  6
CONTINUOUS
 70
0
 71
3
 72
34
 73
30
 74
0
 42
0.0000001
 43
0.0000001
 44
0.0000000001
 40
0.0
 40
0.0
 40
0.0
 40
0.0
 40
0.0008747734
 40
0.0017808196
 40
0.0035541096
 40
0.0053412373
 40
0.0071286348
 40
0.0107002686
 40
0.0142771468
 40
0.0214403173
 40
0.0286179297
 40
0.0358095961
 40
0.0430155501
 40
0.0574702285
 40
0.0719825071
 40
0.0865526895
 40
0.1158658897
 40
0.1454118436
 40
0.1751894398
 40
0.2051960969
 40
0.2354278224
 40
0.2965327153
 40
0.3584580446
 40
0.4211280845
 40
0.4844516579
 40
0.6125458045
 40
0.7418588181
 40
0.8713537801
 40
1.0
 40
1.0
 40
1.0
 40
1.0
 10
-0.1730047547
 20
232.9969659747
 30
0.0
 10
-0.1890348664
 20
232.9894232672
 30
0.0
 10
-0.2177342453
 20
232.9669474639
 30
0.0
 10
-0.2805561383
 20
232.9318471902
 30
0.0
 10
-0.3559339881
 20
232.8816920251
 30
0.0
 10
-0.4480383577
 20
232.8247394723
 30
0.0
 10
-0.5701985
 20
232.7471236413
 30
0.0
 10
-0.7225733268
 20
232.6494942653
 30
0.0
 10
-0.9658589053
 20
232.4919448902
 30
0.0
 10
-1.2687570079
 20
232.2921123094
 30
0.0
 10
-1.6302006789
 20
232.0481263696
 30
0.0
 10
-1.9896946933
 20
231.7997478293
 30
0.0
 10
-2.4668658726
 20
231.4624820852
 30
0.0
 10
-3.0582973149
 20
231.0300859133
 30
0.0
 10
-3.7589587328
 20
230.4947174575
 30
0.0
 10
-4.6834461016
 20
229.7570725699
 30
0.0
 10
-5.8166103209
 20
228.7933394507
 30
0.0
 10
-7.1355277893
 20
227.5749334259
 30
0.0
 10
-8.4140706743
 20
226.2943043119
 30
0.0
 10
-9.6500531059
 20
224.9535855867
 30
0.0
 10
-11.2439283983
 20
223.0824333413
 30
0.0
 10
-13.1177650645
 20
220.6038470986
 30
0.0
 10
-15.1554878642
 20
217.4389501614
 30
0.0
 10
-16.9768460505
 20
214.093324264
 30
0.0
 10
-19.1074389627
 20
209.4052960314
 30
0.0
 10
-21.1593452057
 20
203.2181515556
 30
0.0
 10
-22.5850955359
 20
195.4887751451
 30
0.0
 10
-22.9457819296
 20
187.6267837016
 30
0.0
 10
-22.4632725491
 20
182.4010239026
 30
0.0
 10
-22.0404298164
 20
179.8302084805
 30
0.0
  0
SPLINE
  5
4BF
100
AcDbEntity
  8
0
100
AcDbSpline
 62
7
  6
CONTINUOUS
 70
0
 71
3
 72
13
 73
9
 74
0
 42
0.0000001
 43
0.0000001
 44
0.0000000001
 40
0.0
 40
0.0
 40
0.0
 40
0.0
 40
0.3092672185
 40
0.5958295358
 40
0.719425315
 40
0.8264624931
 40
0.918120517
 40
1.0
 40
1.0
 40
1.0
 40
1.0
 10
-11.0053740028
 20
235.2379600838
 30
0.0
 10
-11.0491604933
 20
235.5300841933
 30
0.0
 10
-11.1999027267
 20
236.0840736141
 30
0.0
 10
-11.5272297257
 20
236.6984856291
 30
0.0
 10
-11.8583543037
 20
237.0684420909
 30
0.0
 10
-12.108376622
 20
237.2528367093
 30
0.0
 10
-12.3638686482
 20
237.3482718388
 30
0.0
 10
-12.5353038209
 20
237.3422474107
 30
0.0
 10
-12.6108506733
 20
237.3220320802
 30
0.0
  0
SPLINE
  5
4C0
100
AcDbEntity
  8
0
100
AcDbSpline
 62
7
  6
CONTINUOUS
 70
0
 71
3
 72
14
 73
10
 74
0
 42
0.0000001
 43
0.0000001
 44
0.0000000001
 40
0.0
 40
0.0
 40
0.0
 40
0.0
 40
0.3090117349
 40
0.4579174627
 40
0.5960759256
 40
0.7195992749
 40
0.8265725452
 40
0.9181602287
 40
1.0
 40
1.0
 40
1.0
 40
1.0
 10
-6.1387487795
 20
235.8211726241
 30
0.0
 10
-6.2536696063
 20
236.5878735814
 30
0.0
 10
-6.5580697355
 20
237.7100051793
 30
0.0
 10
-7.1970914702
 20
239.0649832942
 30
0.0
 10
-7.7573280121
 20
239.9338341215
 30
0.0
 10
-8.3778503358
 20
240.626132542
 30
0.0
 10
-9.0340679462
 20
241.1103199876
 30
0.0
 10
-9.7047475122
 20
241.3606448017
 30
0.0
 10
-10.1548602884
 20
241.3452432101
 30
0.0
 10
-10.3531542139
 20
241.2919746689
 30
0.0
  0
SPLINE
  5
4C1
100
AcDbEntity
  8
0
100
AcDbSpline
 62
7
  6
CONTINUOUS
 70
0
 71
3
 72
12
 73
8
 74
0
 42
0.0000001
 43
0.0000001
 44
0.0000000001
 40
0.0
 40
0.0
 40
0.0
 40
0.0
 40
0.2407961047
 40
0.4881093145
 40
0.6141717561
 40
0.7416342328
 40
1.0
 40
1.0
 40
1.0
 40
1.0
 10
-9.5397706128
 20
153.9750492747
 30
0.0
 10
-11.162788044
 20
155.6585372278
 30
0.0
 10
-14.1661679301
 20
159.357450948
 30
0.0
 10
-17.1640795172
 20
164.5411090903
 30
0.0
 10
-19.1159429563
 20
169.0004026498
 30
0.0
 10
-20.7724160842
 20
173.690958077
 30
0.0
 10
-21.633214687
 20
177.3544063595
 30
0.0
 10
-22.0404298164
 20
179.8302084805
 30
0.0
  0
SPLINE
  5
4C2
100
AcDbEntity
  8
0
100
AcDbSpline
 62
7
  6
CONTINUOUS
 70
0
 71
3
 72
14
 73
10
 74
0
 42
0.0000001
 43
0.0000001
 44
0.0000000001
 40
0.0
 40
0.0
 40
0.0
 40
0.0
 40
0.3090117349
 40
0.4579174627
 40
0.5960759256
 40
0.7195992749
 40
0.8265725452
 40
0.9181602287
 40
1.0
 40
1.0
 40
1.0
 40
1.0
 10
17.2083594618
 20
242.0794929929
 30
0.0
 10
17.093438635
 20
242.8461939502
 30
0.0
 10
16.7890385058
 20
243.9683255481
 30
0.0
 10
16.1500167711
 20
245.323303663
 30
0.0
 10
15.5897802292
 20
246.1921544903
 30
0.0
 10
14.9692579055
 20
246.8844529108
 30
0.0
 10
14.3130402951
 20
247.3686403564
 30
0.0
 10
13.6423607291
 20
247.6189651705
 30
0.0
 10
13.1922479529
 20
247.6035635789
 30
0.0
 10
12.9939540274
 20
247.5502950377
 30
0.0
  0
SPLINE
  5
4C3
100
AcDbEntity
  8
0
100
AcDbSpline
 62
7
  6
CONTINUOUS
 70
0
 71
3
 72
12
 73
8
 74
0
 42
0.0000001
 43
0.0000001
 44
0.0000000001
 40
0.0
 40
0.0
 40
0.0
 40
0.0
 40
0.2610538246
 40
0.5205039957
 40
0.7678261417
 40
0.8858534968
 40
1.0
 40
1.0
 40
1.0
 40
1.0
 10
-48.7282692179
 20
226.1983633253
 30
0.0
 10
-48.882028852
 20
227.2241796372
 30
0.0
 10
-48.8380571303
 20
229.3364544089
 30
0.0
 10
-47.7947440983
 20
232.2571267649
 30
0.0
 10
-46.1827847724
 20
234.2273596787
 30
0.0
 10
-44.5869206433
 20
235.2886948462
 30
0.0
 10
-43.7205375615
 20
235.6305895169
 30
0.0
 10
-43.2824518968
 20
235.7480207812
 30
0.0
  0
SPLINE
  5
4C4
100
AcDbEntity
  8
0
100
AcDbSpline
 62
7
  6
CONTINUOUS
 70
0
 71
3
 72
9
 73
5
 74
0
 42
0.0000001
 43
0.0000001
 44
0.0000000001
 40
0.0
 40
0.0
 40
0.0
 40
0.0
 40
0.5028715139
 40
1.0
 40
1.0
 40
1.0
 40
1.0
 10
26.1390380951
 20
254.3568317893
 30
0.0
 10
26.5100562261
 20
254.4562852335
 30
0.0
 10
27.2690127268
 20
254.5830420472
 30
0.0
 10
28.0383307393
 20
254.5547838321
 30
0.0
 10
28.4143889465
 20
254.5021071387
 30
0.0
  0
SPLINE
  5
4C5
100
AcDbEntity
  8
0
100
AcDbSpline
 62
7
  6
CONTINUOUS
 70
0
 71
3
 72
14
 73
10
 74
0
 42
0.0000001
 43
0.0000001
 44
0.0000000001
 40
0.0
 40
0.0
 40
0.0
 40
0.0
 40
0.0818398022
 40
0.1734275062
 40
0.2804007969
 40
0.4039241595
 40
0.5420826222
 40
0.6909883439
 40
1.0
 40
1.0
 40
1.0
 40
1.0
 10
-13.4523278647
 20
240.4612241428
 30
0.0
 10
-13.2540338709
 20
240.5144927266
 30
0.0
 10
-12.8039209394
 20
240.5298942846
 30
0.0
 10
-12.1332412649
 20
240.2795692587
 30
0.0
 10
-11.477023588
 20
239.7953816838
 30
0.0
 10
-10.8565012915
 20
239.1030831266
 30
0.0
 10
-10.2962647939
 20
238.2342322557
 30
0.0
 10
-9.6572432809
 20
236.8792542752
 30
0.0
 10
-9.352843237
 20
235.7571228925
 30
0.0
 10
-9.2379224398
 20
234.9904221326
 30
0.0
  0
SPLINE
  5
4C6
100
AcDbEntity
  8
0
100
AcDbSpline
 62
7
  6
CONTINUOUS
 70
0
 71
3
 72
19
 73
15
 74
0
 42
0.0000001
 43
0.0000001
 44
0.0000000001
 40
0.0
 40
0.0
 40
0.0
 40
0.0
 40
0.0615397314
 40
0.1245143203
 40
0.2537747431
 40
0.3857559391
 40
0.5174781783
 40
0.6460250432
 40
0.708528996
 40
0.769553658
 40
0.8290671095
 40
0.8871558744
 40
0.9440276624
 40
1.0
 40
1.0
 40
1.0
 40
1.0
 10
-18.9676192141
 20
224.1377118022
 30
0.0
 10
-20.2429763995
 20
223.0468383224
 30
0.0
 10
-22.6716642455
 20
220.655529541
 30
0.0
 10
-26.9309744577
 20
215.1809094552
 30
0.0
 10
-30.986406119
 20
207.215074894
 30
0.0
 10
-33.5026240653
 20
196.7012093171
 30
0.0
 10
-33.549652525
 20
185.9093718733
 30
0.0
 10
-31.4903607025
 20
177.2500884516
 30
0.0
 10
-28.6383609709
 20
170.9764254842
 30
0.0
 10
-25.9755139223
 20
166.7350781904
 30
0.0
 10
-22.8203476483
 20
163.0015702825
 30
0.0
 10
-19.2318272126
 20
159.8488670544
 30
0.0
 10
-15.2801746482
 20
157.3412985176
 30
0.0
 10
-12.4352259645
 20
156.1258671388
 30
0.0
 10
-10.9865446043
 20
155.6449305645
 30
0.0
  0
SPLINE
  5
4C7
100
AcDbEntity
  8
0
100
AcDbSpline
 62
7
  6
CONTINUOUS
 70
0
 71
3
 72
11
 73
7
 74
0
 42
0.0000001
 43
0.0000001
 44
0.0000000001
 40
0.0
 40
0.0
 40
0.0
 40
0.0
 40
0.2668246015
 40
0.5212224654
 40
0.7641117412
 40
1.0
 40
1.0
 40
1.0
 40
1.0
 10
-1.720203951
 20
153.8785476252
 30
0.0
 10
-1.5376332671
 20
153.2123369667
 30
0.0
 10
-1.0234333061
 20
151.9465397413
 30
0.0
 10
0.1912709625
 20
150.3534587371
 30
0.0
 10
1.7524390199
 20
149.2236037015
 30
0.0
 10
2.9597868234
 20
148.843890701
 30
0.0
 10
3.5645718934
 20
148.7592161988
 30
0.0
  0
SPLINE
  5
4C8
100
AcDbEntity
  8
0
100
AcDbSpline
 62
7
  6
CONTINUOUS
 70
0
 71
3
 72
11
 73
7
 74
0
 42
0.0000001
 43
0.0000001
 44
0.0000000001
 40
0.0
 40
0.0
 40
0.0
 40
0.0
 40
0.233633584
 40
0.4758467542
 40
0.7314152315
 40
1.0
 40
1.0
 40
1.0
 40
1.0
 10
-29.965854309
 20
131.5801576481
 30
0.0
 10
-30.6453619087
 20
131.6753402894
 30
0.0
 10
-32.0045464331
 20
132.1343853984
 30
0.0
 10
-33.6990042585
 20
133.5191420603
 30
0.0
 10
-34.922412461
 20
135.4484102859
 30
0.0
 10
-35.3509019334
 20
136.9504820816
 30
0.0
 10
-35.4678270873
 20
137.7305550233
 30
0.0
  0
SPLINE
  5
4C9
100
AcDbEntity
  8
0
100
AcDbSpline
 62
7
  6
CONTINUOUS
 70
0
 71
3
 72
23
 73
19
 74
0
 42
0.0000001
 43
0.0000001
 44
0.0000000001
 40
0.0
 40
0.0
 40
0.0
 40
0.0
 40
0.0593606695
 40
0.1205084466
 40
0.1834624631
 40
0.2480435231
 40
0.3139175885
 40
0.3806284856
 40
0.4476476848
 40
0.5144200721
 40
0.5804117985
 40
0.6451575
 40
0.7083057883
 40
0.7696605998
 40
0.8292140251
 40
0.8871638656
 40
0.9439059622
 40
1.0
 40
1.0
 40
1.0
 40
1.0
 10
30.8339110721
 20
156.4651350443
 30
0.0
 10
32.4430197381
 20
157.1804256719
 30
0.0
 10
35.5813380085
 20
158.9384779027
 30
0.0
 10
39.8219270802
 20
162.3877177949
 30
0.0
 10
43.5545001566
 20
166.5901470329
 30
0.0
 10
46.6775713433
 20
171.4284595931
 30
0.0
 10
49.1089884216
 20
176.7701528998
 30
0.0
 10
50.7838332013
 20
182.4697400155
 30
0.0
 10
51.6574004957
 20
188.3724049164
 30
0.0
 10
51.7060112027
 20
194.3180425219
 30
0.0
 10
50.9277554856
 20
200.1453980235
 30
0.0
 10
49.3424232126
 20
205.6962323623
 30
0.0
 10
46.9909693957
 20
210.8192661857
 30
0.0
 10
43.9344132616
 20
215.3737425255
 30
0.0
 10
40.2530598744
 20
219.2325557693
 30
0.0
 10
36.0443414829
 20
222.2853493365
 30
0.0
 10
31.4261186175
 20
224.4418065431
 30
0.0
 10
28.1485993322
 20
225.2404329695
 30
0.0
 10
26.5006676848
 20
225.4713003546
 30
0.0
  0
SPLINE
  5
4CA
100
AcDbEntity
  8
0
100
AcDbSpline
 62
7
  6
CONTINUOUS
 70
0
 71
3
 72
11
 73
7
 74
0
 42
0.0000001
 43
0.0000001
 44
0.0000000001
 40
0.0
 40
0.0
 40
0.0
 40
0.0
 40
0.2350306398
 40
0.4776441847
 40
0.732479416
 40
1.0
 40
1.0
 40
1.0
 40
1.0
 10
25.8616531007
 20
145.6364293171
 30
0.0
 10
25.2288266803
 20
145.7250243428
 30
0.0
 10
23.9645987007
 20
146.1335563804
 30
0.0
 10
22.351224318
 20
147.3564371837
 30
0.0
 10
21.1285698616
 20
149.0736572541
 30
0.0
 10
20.6419485105
 20
150.4279815262
 30
0.0
 10
20.4814955709
 20
151.1373935512
 30
0.0
  0
SPLINE
  5
4CB
100
AcDbEntity
  8
0
100
AcDbSpline
 62
7
  6
CONTINUOUS
 70
0
 71
3
 72
23
 73
19
 74
0
 42
0.0000001
 43
0.0000001
 44
0.0000000001
 40
0.0
 40
0.0
 40
0.0
 40
0.0
 40
0.0563099731
 40
0.1133386881
 40
0.1716941725
 40
0.2317912372
 40
0.2938061619
 40
0.3576782837
 40
0.4231356666
 40
0.4897392437
 40
0.55693592
 40
0.6241156361
 40
0.6906699446
 40
0.7560505657
 40
0.8198256464
 40
0.8817348241
 40
0.9417275752
 40
1.0
 40
1.0
 40
1.0
 40
1.0
 10
16.125925382
 20
151.3943575961
 30
0.0
 10
14.2464197423
 20
151.6574684245
 30
0.0
 10
10.5079407554
 20
152.5897302694
 30
0.0
 10
5.2687383746
 20
155.1358030591
 30
0.0
 10
0.5381682454
 20
158.7484509327
 30
0.0
 10
-3.5378885415
 20
163.3086460457
 30
0.0
 10
-6.8408879268
 20
168.6724411387
 30
0.0
 10
-9.2755176191
 20
174.6745934365
 30
0.0
 10
-10.7724041075
 20
181.1331433815
 30
0.0
 10
-11.2892339555
 20
187.853741095
 30
0.0
 10
-10.8119664973
 20
194.6347963669
 30
0.0
 10
-9.3553405635
 20
201.2730516578
 30
0.0
 10
-6.9625395461
 20
207.5693863415
 30
0.0
 10
-3.7037995253
 20
213.3344615805
 30
0.0
 10
0.3251281661
 20
218.3940328567
 30
0.0
 10
5.00728664
 20
222.5934283748
 30
0.0
 10
10.2016690996
 20
225.800936048
 30
0.0
 10
13.9558712934
 20
227.2274016089
 30
0.0
 10
15.8528738613
 20
227.7359035478
 30
0.0
  0
SPLINE
  5
4CC
100
AcDbEntity
  8
0
100
AcDbSpline
 62
7
  6
CONTINUOUS
 70
0
 71
3
 72
13
 73
9
 74
0
 42
0.0000001
 43
0.0000001
 44
0.0000000001
 40
0.0
 40
0.0
 40
0.0
 40
0.0
 40
0.1126062992
 40
0.2278108473
 40
0.3474929826
 40
0.4723906927
 40
0.7336552341
 40
1.0
 40
1.0
 40
1.0
 40
1.0
 10
26.277748319
 20
148.6074005573
 30
0.0
 10
26.607540194
 20
148.5612465581
 30
0.0
 10
27.2920748789
 20
148.5646138174
 30
0.0
 10
28.2893628752
 20
148.8589355863
 30
0.0
 10
29.2066389307
 20
149.4205754547
 30
0.0
 10
30.2682140919
 20
150.4916547352
 30
0.0
 10
31.1320127504
 20
152.2827172129
 30
0.0
 10
31.2202327018
 20
153.8877678995
 30
0.0
 10
31.1034761179
 20
154.6667162165
 30
0.0
  0
SPLINE
  5
4CD
100
AcDbEntity
  8
0
100
AcDbSpline
 62
7
  6
CONTINUOUS
 70
0
 71
3
 72
16
 73
12
 74
0
 42
0.0000001
 43
0.0000001
 44
0.0000000001
 40
0.0
 40
0.0
 40
0.0
 40
0.0
 40
0.1208710512
 40
0.2469332304
 40
0.3766553844
 40
0.5076879294
 40
0.6374049342
 40
0.7634588426
 40
0.8843158199
 40
0.9427965584
 40
1.0
 40
1.0
 40
1.0
 40
1.0
 10
4.6577317751
 20
223.2884328874
 30
0.0
 10
2.1159508637
 20
221.5110698093
 30
0.0
 10
-2.5953985128
 20
217.1519776777
 30
0.0
 10
-7.9429256384
 20
209.0020886799
 30
0.0
 10
-11.4270412873
 20
199.6206919246
 30
0.0
 10
-12.8253149424
 20
189.6209165361
 30
0.0
 10
-12.0485716156
 20
179.6444868439
 30
0.0
 10
-9.1403736877
 20
170.3392040868
 30
0.0
 10
-5.0190737951
 20
163.5625576339
 30
0.0
 10
-0.8753080347
 20
159.1058475866
 30
0.0
 10
1.4392457475
 20
157.2274649485
 30
0.0
 10
2.6440974138
 20
156.3890743178
 30
0.0
  0
SPLINE
  5
4CE
100
AcDbEntity
  8
0
100
AcDbSpline
 62
7
  6
CONTINUOUS
 70
0
 71
3
 72
13
 73
9
 74
0
 42
0.0000001
 43
0.0000001
 44
0.0000000001
 40
0.0
 40
0.0
 40
0.0
 40
0.0
 40
0.2563531669
 40
0.5130183233
 40
0.6392709886
 40
0.7628280924
 40
0.8831429252
 40
1.0
 40
1.0
 40
1.0
 40
1.0
 10
-19.5076524036
 20
179.4751534513
 30
0.0
 10
-20.2789202661
 20
184.620711702
 30
0.0
 10
-20.3526675023
 20
195.1855957025
 30
0.0
 10
-16.9128271665
 20
207.8738787461
 30
0.0
 10
-12.1920717962
 20
217.0399977791
 30
0.0
 10
-7.7996036628
 20
223.1703123393
 30
0.0
 10
-2.6559103879
 20
228.4205463484
 30
0.0
 10
1.2472153966
 20
231.2837041425
 30
0.0
 10
3.2749001187
 20
232.5140744373
 30
0.0
  0
SPLINE
  5
4CF
100
AcDbEntity
  8
0
100
AcDbSpline
 62
7
  6
CONTINUOUS
 70
0
 71
3
 72
9
 73
5
 74
0
 42
0.0000001
 43
0.0000001
 44
0.0000000001
 40
0.0
 40
0.0
 40
0.0
 40
0.0
 40
0.2335072214
 40
1.0
 40
1.0
 40
1.0
 40
1.0
 10
11.6089462137
 20
246.235192922
 30
0.0
 10
11.6826446637
 20
246.1780581
 30
0.0
 10
11.9887149437
 20
245.921083234
 30
0.0
 10
12.2573018113
 20
245.6213481613
 30
0.0
 10
12.4442981321
 20
245.3790059024
 30
0.0
  0
SPLINE
  5
4D0
100
AcDbEntity
  8
0
100
AcDbSpline
 62
7
  6
CONTINUOUS
 70
0
 71
3
 72
10
 73
6
 74
0
 42
0.0000001
 43
0.0000001
 44
0.0000000001
 40
0.0
 40
0.0
 40
0.0
 40
0.0
 40
0.2317177465
 40
0.4815208184
 40
1.0
 40
1.0
 40
1.0
 40
1.0
 10
12.4442981321
 20
245.3790059024
 30
0.0
 10
12.6562283077
 20
245.1043500305
 30
0.0
 10
13.0490493168
 20
244.4959513736
 30
0.0
 10
13.6891167655
 20
243.1400039847
 30
0.0
 10
13.994120706
 20
242.0164059555
 30
0.0
 10
14.1091858015
 20
241.2487425009
 30
0.0
  0
SPLINE
  5
4D1
100
AcDbEntity
  8
0
100
AcDbSpline
 62
7
  6
CONTINUOUS
 70
0
 71
3
 72
11
 73
7
 74
0
 42
0.0000001
 43
0.0000001
 44
0.0000000001
 40
0.0
 40
0.0
 40
0.0
 40
0.0
 40
0.2400840752
 40
0.487129003
 40
0.7407630651
 40
1.0
 40
1.0
 40
1.0
 40
1.0
 10
-7.452279164
 20
153.6826858403
 30
0.0
 10
-9.0395569907
 20
155.3629551673
 30
0.0
 10
-11.9721762594
 20
159.0550100827
 30
0.0
 10
-15.4765060214
 20
165.297723934
 30
0.0
 10
-18.0692226965
 20
172.1665429063
 30
0.0
 10
-19.1376843093
 20
177.0068898658
 30
0.0
 10
-19.5076524036
 20
179.4751534513
 30
0.0
  0
SPLINE
  5
4D2
100
AcDbEntity
  8
0
100
AcDbSpline
 62
7
  6
CONTINUOUS
 70
0
 71
3
 72
11
 73
7
 74
0
 42
0.0000001
 43
0.0000001
 44
0.0000000001
 40
0.0
 40
0.0
 40
0.0
 40
0.0
 40
0.2673226298
 40
0.5220198928
 40
0.7647107466
 40
1.0
 40
1.0
 40
1.0
 40
1.0
 10
19.149046344
 20
151.2115450817
 30
0.0
 10
19.3165544129
 20
150.5151515329
 30
0.0
 10
19.8120694356
 20
149.1876504215
 30
0.0
 10
21.0329238042
 20
147.5082943828
 30
0.0
 10
22.6307499547
 20
146.3139365933
 30
0.0
 10
23.877737571
 20
145.9142555312
 30
0.0
 10
24.5020750235
 20
145.826843547
 30
0.0
  0
SPLINE
  5
4D3
100
AcDbEntity
  8
0
100
AcDbSpline
 62
7
  6
CONTINUOUS
 70
0
 71
3
 72
9
 73
5
 74
0
 42
0.0000001
 43
0.0000001
 44
0.0000000001
 40
0.0
 40
0.0
 40
0.0
 40
0.0
 40
0.2663688002
 40
1.0
 40
1.0
 40
1.0
 40
1.0
 10
-12.4753445388
 20
233.881670944
 30
0.0
 10
-12.4517403987
 20
233.8541293502
 30
0.0
 10
-12.3604549261
 20
233.7531298407
 30
0.0
 10
-12.2578850191
 20
233.6617406839
 30
0.0
 10
-12.1759784575
 20
233.6045425596
 30
0.0
  0
SPLINE
  5
4D4
100
AcDbEntity
  8
0
100
AcDbSpline
 62
7
  6
CONTINUOUS
 70
0
 71
3
 72
9
 73
5
 74
0
 42
0.0000001
 43
0.0000001
 44
0.0000000001
 40
0.0
 40
0.0
 40
0.0
 40
0.0
 40
0.2658125643
 40
1.0
 40
1.0
 40
1.0
 40
1.0
 10
-12.112989489
 20
233.56346451
 30
0.0
 10
-12.0912914966
 20
233.5503124951
 30
0.0
 10
-12.0080373426
 20
233.5036863531
 30
0.0
 10
-11.9174891426
 20
233.4691559765
 30
0.0
 10
-11.8489799069
 20
233.4543973743
 30
0.0
  0
SPLINE
  5
4D5
100
AcDbEntity
  8
0
100
AcDbSpline
 62
7
  6
CONTINUOUS
 70
0
 71
3
 72
9
 73
5
 74
0
 42
0.0000001
 43
0.0000001
 44
0.0000000001
 40
0.0
 40
0.0
 40
0.0
 40
0.0
 40
0.2557991514
 40
1.0
 40
1.0
 40
1.0
 40
1.0
 10
-11.7764914647
 20
233.4429651074
 30
0.0
 10
-11.7593101512
 20
233.4412650547
 30
0.0
 10
-11.6919043967
 20
233.4374156279
 30
0.0
 10
-11.6237451732
 20
233.4455661158
 30
0.0
 10
-11.5752223327
 20
233.458550181
 30
0.0
  0
SPLINE
  5
4D6
100
AcDbEntity
  8
0
100
AcDbSpline
 62
7
  6
CONTINUOUS
 70
0
 71
3
 72
9
 73
5
 74
0
 42
0.0000001
 43
0.0000001
 44
0.0000000001
 40
0.0
 40
0.0
 40
0.0
 40
0.0
 40
0.5030222575
 40
1.0
 40
1.0
 40
1.0
 40
1.0
 10
15.8528738613
 20
227.7359035478
 30
0.0
 10
17.6575043845
 20
228.2196446538
 30
0.0
 10
21.347901246
 20
228.8367542461
 30
0.0
 10
25.0887256193
 20
228.6983761055
 30
0.0
 10
26.9167662165
 20
228.4422956536
 30
0.0
  0
SPLINE
  5
4D7
100
AcDbEntity
  8
0
100
AcDbSpline
 62
7
  6
CONTINUOUS
 70
0
 71
3
 72
9
 73
5
 74
0
 42
0.0000001
 43
0.0000001
 44
0.0000000001
 40
0.0
 40
0.0
 40
0.0
 40
0.0
 40
0.2392089577
 40
1.0
 40
1.0
 40
1.0
 40
1.0
 10
-12.7379931068
 20
237.2699598259
 30
0.0
 10
-12.7561722026
 20
237.2597097856
 30
0.0
 10
-12.8298305835
 20
237.2127199921
 30
0.0
 10
-12.8930030417
 20
237.150247637
 30
0.0
 10
-12.9343215258
 20
237.098301507
 30
0.0
  0
SPLINE
  5
4D8
100
AcDbEntity
  8
0
100
AcDbSpline
 62
7
  6
CONTINUOUS
 70
0
 71
3
 72
9
 73
5
 74
0
 42
0.0000001
 43
0.0000001
 44
0.0000000001
 40
0.0
 40
0.0
 40
0.0
 40
0.0
 40
0.2382199588
 40
1.0
 40
1.0
 40
1.0
 40
1.0
 10
-13.155625976
 20
236.6124511832
 30
0.0
 10
-13.1632657211
 20
236.5812880523
 30
0.0
 10
-13.1919187512
 20
236.4496400928
 30
0.0
 10
-13.2077344453
 20
236.3153429686
 30
0.0
 10
-13.2139474539
 20
236.2129268515
 30
0.0
  0
SPLINE
  5
4D9
100
AcDbEntity
  8
0
100
AcDbSpline
 62
7
  6
CONTINUOUS
 70
0
 71
3
 72
9
 73
5
 74
0
 42
0.0000001
 43
0.0000001
 44
0.0000000001
 40
0.0
 40
0.0
 40
0.0
 40
0.0
 40
0.235670209
 40
1.0
 40
1.0
 40
1.0
 40
1.0
 10
-13.2190329654
 20
236.0406657812
 30
0.0
 10
-13.2190206267
 20
236.0043519818
 30
0.0
 10
-13.2161743014
 20
235.8502712902
 30
0.0
 10
-13.2023140432
 20
235.6964294382
 30
0.0
 10
-13.1860709847
 20
235.5797808493
 30
0.0
  0
SPLINE
  5
4DA
100
AcDbEntity
  8
0
100
AcDbSpline
 62
7
  6
CONTINUOUS
 70
0
 71
3
 72
13
 73
9
 74
0
 42
0.0000001
 43
0.0000001
 44
0.0000000001
 40
0.0
 40
0.0
 40
0.0
 40
0.0
 40
0.083672979
 40
0.1736474593
 40
0.2747441703
 40
0.3898444162
 40
0.6656232473
 40
1.0
 40
1.0
 40
1.0
 40
1.0
 10
-150.2400758555
 20
202.6239813983
 30
0.0
 10
-150.2401039021
 20
202.7447171761
 30
0.0
 10
-150.1995843539
 20
202.9966877578
 30
0.0
 10
-150.0243216814
 20
203.3571486441
 30
0.0
 10
-149.7423693124
 20
203.7013312722
 30
0.0
 10
-149.1989976724
 20
204.1625809254
 30
0.0
 10
-148.2668296733
 20
204.659808908
 30
0.0
 10
-147.4288056601
 20
204.9379628495
 30
0.0
 10
-146.9627700789
 20
205.0628862422
 30
0.0
  0
SPLINE
  5
4DB
100
AcDbEntity
  8
0
100
AcDbSpline
 62
7
  6
CONTINUOUS
 70
0
 71
3
 72
9
 73
5
 74
0
 42
0.0000001
 43
0.0000001
 44
0.0000000001
 40
0.0
 40
0.0
 40
0.0
 40
0.0
 40
0.2456381704
 40
1.0
 40
1.0
 40
1.0
 40
1.0
 10
-150.2400758555
 20
197.1079737178
 30
0.0
 10
-150.240066961
 20
197.0696842052
 30
0.0
 10
-150.232397
 20
196.9138390675
 30
0.0
 10
-150.1931246552
 20
196.7600607246
 30
0.0
 10
-150.149606158
 20
196.6508218923
 30
0.0
  0
SPLINE
  5
4DC
100
AcDbEntity
  8
0
100
AcDbSpline
 62
7
  6
CONTINUOUS
 70
0
 71
3
 72
9
 73
5
 74
0
 42
0.0000001
 43
0.0000001
 44
0.0000000001
 40
0.0
 40
0.0
 40
0.0
 40
0.0
 40
0.441908795
 40
1.0
 40
1.0
 40
1.0
 40
1.0
 10
-150.149606158
 20
196.6508218923
 30
0.0
 10
-150.0552579996
 20
196.4139919619
 30
0.0
 10
-149.6952408552
 20
195.9389443992
 30
0.0
 10
-149.2172945364
 20
195.6074987365
 30
0.0
 10
-148.9385008539
 20
195.4464726831
 30
0.0
  0
SPLINE
  5
4DD
100
AcDbEntity
  8
0
100
AcDbSpline
 62
7
  6
CONTINUOUS
 70
0
 71
3
 72
12
 73
8
 74
0
 42
0.0000001
 43
0.0000001
 44
0.0000000001
 40
0.0
 40
0.0
 40
0.0
 40
0.0
 40
0.1973930623
 40
0.3097662428
 40
0.4316011651
 40
0.7013827395
 40
1.0
 40
1.0
 40
1.0
 40
1.0
 10
-132.8028238282
 20
222.585484552
 30
0.0
 10
-133.2048453712
 20
222.2876209706
 30
0.0
 10
-133.7228711341
 20
221.6655746817
 30
0.0
 10
-134.2220965403
 20
220.6920771469
 30
0.0
 10
-134.661582232
 20
219.4887417744
 30
0.0
 10
-134.9997774838
 20
217.7626452429
 30
0.0
 10
-135.0748601328
 20
216.32018961
 30
0.0
 10
-135.0748599778
 20
215.5632667088
 30
0.0
  0
SPLINE
  5
4DE
100
AcDbEntity
  8
0
100
AcDbSpline
 62
7
  6
CONTINUOUS
 70
0
 71
3
 72
13
 73
9
 74
0
 42
0.0000001
 43
0.0000001
 44
0.0000000001
 40
0.0
 40
0.0
 40
0.0
 40
0.0
 40
0.331340205
 40
0.6294615717
 40
0.7553354431
 40
0.8599981063
 40
0.9411697165
 40
1.0
 40
1.0
 40
1.0
 40
1.0
 10
-128.0242645463
 20
218.0061475698
 30
0.0
 10
-127.5666781567
 20
218.5737778003
 30
0.0
 10
-126.694726719
 20
219.6497676547
 30
0.0
 10
-125.6635935855
 20
220.9541766784
 30
0.0
 10
-124.9870974773
 20
221.9006631837
 30
0.0
 10
-124.6221706148
 20
222.4828986398
 30
0.0
 10
-124.3862838253
 20
222.9670795411
 30
0.0
 10
-124.3098952818
 20
223.272520702
 30
0.0
 10
-124.3099008215
 20
223.4019745467
 30
0.0
  0
SPLINE
  5
4DF
100
AcDbEntity
  8
0
100
AcDbSpline
 62
7
  6
CONTINUOUS
 70
0
 71
3
 72
9
 73
5
 74
0
 42
0.0000001
 43
0.0000001
 44
0.0000000001
 40
0.0
 40
0.0
 40
0.0
 40
0.0
 40
0.2537745384
 40
1.0
 40
1.0
 40
1.0
 40
1.0
 10
-63.392846369
 20
217.276512127
 30
0.0
 10
-63.4529527565
 20
216.9785145339
 30
0.0
 10
-63.6663914908
 20
215.7997000343
 30
0.0
 10
-63.7851542252
 20
214.603369943
 30
0.0
 10
-63.8149011866
 20
213.709954491
 30
0.0
  0
SPLINE
  5
4E0
100
AcDbEntity
  8
0
100
AcDbSpline
 62
7
  6
CONTINUOUS
 70
0
 71
3
 72
11
 73
7
 74
0
 42
0.0000001
 43
0.0000001
 44
0.0000000001
 40
0.0
 40
0.0
 40
0.0
 40
0.0
 40
0.2424125336
 40
0.504129221
 40
0.7637222709
 40
1.0
 40
1.0
 40
1.0
 40
1.0
 10
-75.3280811868
 20
164.0374570688
 30
0.0
 10
-74.539836363
 20
164.2487504155
 30
0.0
 10
-72.8614941261
 20
164.5453771584
 30
0.0
 10
-70.2876334907
 20
164.6689949815
 30
0.0
 10
-67.7380821868
 20
164.4858735719
 30
0.0
 10
-66.0950922216
 20
164.1486278569
 30
0.0
 10
-65.3342821472
 20
163.9165474706
 30
0.0
  0
SPLINE
  5
4E1
100
AcDbEntity
  8
0
100
AcDbSpline
 62
7
  6
CONTINUOUS
 70
0
 71
3
 72
11
 73
7
 74
0
 42
0.0000001
 43
0.0000001
 44
0.0000000001
 40
0.0
 40
0.0
 40
0.0
 40
0.0
 40
0.307716659
 40
0.5710984383
 40
0.7967334285
 40
1.0
 40
1.0
 40
1.0
 40
1.0
 10
-148.9385008539
 20
200.9624803637
 30
0.0
 10
-149.1340145681
 20
201.075405454
 30
0.0
 10
-149.4845670131
 20
201.3085133644
 30
0.0
 10
-149.9076887634
 20
201.7181357072
 30
0.0
 10
-150.176156048
 20
202.1579150487
 30
0.0
 10
-150.2400412098
 20
202.4748376646
 30
0.0
 10
-150.2400758555
 20
202.6239813983
 30
0.0
  0
SPLINE
  5
4E2
100
AcDbEntity
  8
0
100
AcDbSpline
 62
7
  6
CONTINUOUS
 70
0
 71
3
 72
13
 73
9
 74
0
 42
0.0000001
 43
0.0000001
 44
0.0000000001
 40
0.0
 40
0.0
 40
0.0
 40
0.0
 40
0.1000995365
 40
0.1901925211
 40
0.3850973377
 40
0.5077605428
 40
0.6508891119
 40
1.0
 40
1.0
 40
1.0
 40
1.0
 10
-124.3099008215
 20
223.4019745467
 30
0.0
 10
-124.3099033498
 20
223.4610565131
 30
0.0
 10
-124.3234945627
 20
223.574650206
 30
0.0
 10
-124.4326263034
 20
223.7809223037
 30
0.0
 10
-124.6609516914
 20
223.9014721642
 30
0.0
 10
-124.926736766
 20
223.9532975545
 30
0.0
 10
-125.2905394598
 20
223.974957529
 30
0.0
 10
-125.5810653519
 20
223.9471385951
 30
0.0
 10
-125.7851035773
 20
223.9183692706
 30
0.0
  0
SPLINE
  5
4E3
100
AcDbEntity
  8
0
100
AcDbSpline
 62
7
  6
CONTINUOUS
 70
0
 71
3
 72
13
 73
9
 74
0
 42
0.0000001
 43
0.0000001
 44
0.0000000001
 40
0.0
 40
0.0
 40
0.0
 40
0.0
 40
0.0851351678
 40
0.189998157
 40
0.3098971519
 40
0.4402943371
 40
0.7170893644
 40
1.0
 40
1.0
 40
1.0
 40
1.0
 10
-63.5176554714
 20
231.3006678836
 30
0.0
 10
-63.9325054574
 20
231.2423251594
 30
0.0
 10
-64.8455794608
 20
231.0257552369
 30
0.0
 10
-66.2883896098
 20
230.5277651103
 30
0.0
 10
-67.8851839051
 20
229.810717994
 30
0.0
 10
-70.1472455408
 20
228.5358068276
 30
0.0
 10
-72.8453027975
 20
226.4294660471
 30
0.0
 10
-74.5911179791
 20
224.2598891167
 30
0.0
 10
-75.3280811868
 20
223.0788086499
 30
0.0
  0
SPLINE
  5
4E4
100
AcDbEntity
  8
0
100
AcDbSpline
 62
7
  6
CONTINUOUS
 70
0
 71
3
 72
8
 73
4
 74
0
 42
0.0000001
 43
0.0000001
 44
0.0000000001
 40
0.0
 40
0.0
 40
0.0
 40
0.0
 40
1.0
 40
1.0
 40
1.0
 40
1.0
 10
-125.7851035773
 20
223.9183692706
 30
0.0
 10
-127.7144229623
 20
223.6463358538
 30
0.0
 10
-129.6436708663
 20
223.3737950531
 30
0.0
 10
-131.5728512233
 20
223.1007774352
 30
0.0
  0
SPLINE
  5
4E5
100
AcDbEntity
  8
0
100
AcDbSpline
 62
7
  6
CONTINUOUS
 70
0
 71
3
 72
9
 73
5
 74
0
 42
0.0000001
 43
0.0000001
 44
0.0000000001
 40
0.0
 40
0.0
 40
0.0
 40
0.0
 40
0.50902282
 40
1.0
 40
1.0
 40
1.0
 40
1.0
 10
-131.5728505958
 20
223.1007776468
 30
0.0
 10
-130.2362189718
 20
224.0813729648
 30
0.0
 10
-127.4463549402
 20
225.7956909577
 30
0.0
 10
-124.3941096562
 20
226.9907149522
 30
0.0
 10
-122.855788383
 20
227.4269723141
 30
0.0
  0
SPLINE
  5
4E6
100
AcDbEntity
  8
0
100
AcDbSpline
 62
7
  6
CONTINUOUS
 70
0
 71
3
 72
9
 73
5
 74
0
 42
0.0000001
 43
0.0000001
 44
0.0000000001
 40
0.0
 40
0.0
 40
0.0
 40
0.0
 40
0.4938614671
 40
1.0
 40
1.0
 40
1.0
 40
1.0
 10
-131.5728512233
 20
223.1007774352
 30
0.0
 10
-131.7919413017
 20
223.0697700344
 30
0.0
 10
-132.2293011768
 20
222.9485923696
 30
0.0
 10
-132.6206129973
 20
222.7204871947
 30
0.0
 10
-132.8028238282
 20
222.585484552
 30
0.0
  0
SPLINE
  5
4E7
100
AcDbEntity
  8
0
100
AcDbSpline
 62
7
  6
CONTINUOUS
 70
0
 71
3
 72
11
 73
7
 74
0
 42
0.0000001
 43
0.0000001
 44
0.0000000001
 40
0.0
 40
0.0
 40
0.0
 40
0.0
 40
0.2323283274
 40
0.4732845705
 40
0.728453703
 40
1.0
 40
1.0
 40
1.0
 40
1.0
 10
-10.2543996918
 20
136.38109683
 30
0.0
 10
-9.4180853445
 20
135.8745363037
 30
0.0
 10
-7.8627313592
 20
134.5757296092
 30
0.0
 10
-6.1483302097
 20
131.989416733
 30
0.0
 10
-5.1026420748
 20
128.8994244933
 30
0.0
 10
-4.8840282013
 20
126.6736573303
 30
0.0
 10
-4.8840282013
 20
125.5308410952
 30
0.0
  0
SPLINE
  5
4E8
100
AcDbEntity
  8
0
100
AcDbSpline
 62
7
  6
CONTINUOUS
 70
0
 71
3
 72
11
 73
7
 74
0
 42
0.0000001
 43
0.0000001
 44
0.0000000001
 40
0.0
 40
0.0
 40
0.0
 40
0.0
 40
0.271777447
 40
0.5268693558
 40
0.7676332594
 40
1.0
 40
1.0
 40
1.0
 40
1.0
 10
-34.6360953407
 20
117.5556363775
 30
0.0
 10
-34.6360953407
 20
116.2566994791
 30
0.0
 10
-34.3835572132
 20
113.7278469481
 30
0.0
 10
-33.17396238
 20
110.2248765965
 30
0.0
 10
-31.191906441
 20
107.3102462435
 30
0.0
 10
-29.39807853
 20
105.8675308102
 30
0.0
 10
-28.4364264207
 20
105.3120075453
 30
0.0
  0
SPLINE
  5
4E9
100
AcDbEntity
  8
0
100
AcDbSpline
 62
7
  6
CONTINUOUS
 70
0
 71
3
 72
9
 73
5
 74
0
 42
0.0000001
 43
0.0000001
 44
0.0000000001
 40
0.0
 40
0.0
 40
0.0
 40
0.0
 40
0.5104117975
 40
1.0
 40
1.0
 40
1.0
 40
1.0
 10
-30.0902719749
 20
131.0658189698
 30
0.0
 10
-31.5225564158
 20
129.073167495
 30
0.0
 10
-33.7665614601
 20
124.7352588726
 30
0.0
 10
-34.6360953407
 20
119.9095155808
 30
0.0
 10
-34.6360953407
 20
117.5556363775
 30
0.0
  0
SPLINE
  5
4EA
100
AcDbEntity
  8
0
100
AcDbSpline
 62
7
  6
CONTINUOUS
 70
0
 71
3
 72
9
 73
5
 74
0
 42
0.0000001
 43
0.0000001
 44
0.0000000001
 40
0.0
 40
0.0
 40
0.0
 40
0.0
 40
0.4904318816
 40
1.0
 40
1.0
 40
1.0
 40
1.0
 10
23.7973071196
 20
257.168263122
 30
0.0
 10
24.6762557897
 20
257.0451435924
 30
0.0
 10
26.434229239
 20
256.4391945421
 30
0.0
 10
27.8455651521
 20
255.2410306812
 30
0.0
 10
28.4448887362
 20
254.5401803416
 30
0.0
  0
SPLINE
  5
4EB
100
AcDbEntity
  8
0
100
AcDbSpline
 62
7
  6
CONTINUOUS
 70
0
 71
3
 72
11
 73
7
 74
0
 42
0.0000001
 43
0.0000001
 44
0.0000000001
 40
0.0
 40
0.0
 40
0.0
 40
0.0
 40
0.2328182149
 40
0.4809036219
 40
0.7397283421
 40
1.0
 40
1.0
 40
1.0
 40
1.0
 10
-48.8073204248
 20
236.7425397091
 30
0.0
 10
-49.6730821521
 20
236.4241297493
 30
0.0
 10
-51.3324789451
 20
235.3776349997
 30
0.0
 10
-53.1312686629
 20
232.9972598914
 30
0.0
 10
-54.1356896999
 20
230.0792585116
 30
0.0
 10
-54.1950260004
 20
227.9850652592
 30
0.0
 10
-54.0624277832
 20
226.962393639
 30
0.0
  0
SPLINE
  5
4EC
100
AcDbEntity
  8
0
100
AcDbSpline
 62
7
  6
CONTINUOUS
 70
0
 71
3
 72
11
 73
7
 74
0
 42
0.0000001
 43
0.0000001
 44
0.0000000001
 40
0.0
 40
0.0
 40
0.0
 40
0.0
 40
0.267213811
 40
0.5228621472
 40
0.7661185614
 40
1.0
 40
1.0
 40
1.0
 40
1.0
 10
-40.7755314932
 20
138.3052780019
 30
0.0
 10
-40.6620583942
 20
137.5482356447
 30
0.0
 10
-40.2622945155
 20
136.0858285706
 30
0.0
 10
-39.1460331293
 20
134.1654154684
 30
0.0
 10
-37.5995853961
 20
132.7005042988
 30
0.0
 10
-36.3360743553
 20
132.1068764445
 30
0.0
 10
-35.6903090833
 20
131.9282666752
 30
0.0
  0
SPLINE
  5
4ED
100
AcDbEntity
  8
0
100
AcDbSpline
 62
7
  6
CONTINUOUS
 70
0
 71
3
 72
9
 73
5
 74
0
 42
0.0000001
 43
0.0000001
 44
0.0000000001
 40
0.0
 40
0.0
 40
0.0
 40
0.0
 40
0.2487409505
 40
1.0
 40
1.0
 40
1.0
 40
1.0
 10
23.5892575514
 20
255.6827634176
 30
0.0
 10
23.3895811923
 20
255.7107332642
 30
0.0
 10
22.5814891425
 20
255.7826307668
 30
0.0
 10
21.7598914922
 20
255.6860770445
 30
0.0
 10
21.1716972719
 20
255.5284083589
 30
0.0
  0
SPLINE
  5
4EE
100
AcDbEntity
  8
0
100
AcDbSpline
 62
7
  6
CONTINUOUS
 70
0
 71
3
 72
11
 73
7
 74
0
 42
0.0000001
 43
0.0000001
 44
0.0000000001
 40
0.0
 40
0.0
 40
0.0
 40
0.0
 40
0.2032339246
 40
0.4288952144
 40
0.6924084714
 40
1.0
 40
1.0
 40
1.0
 40
1.0
 10
-150.2400316628
 20
134.5932197618
 30
0.0
 10
-150.2400896136
 20
134.4441017123
 30
0.0
 10
-150.1761086308
 20
134.1271889178
 30
0.0
 10
-149.9077082738
 20
133.6872818092
 30
0.0
 10
-149.4843924029
 20
133.2778124079
 30
0.0
 10
-149.1339328062
 20
133.0445968359
 30
0.0
 10
-148.9385008539
 20
132.9317189698
 30
0.0
  0
SPLINE
  5
4EF
100
AcDbEntity
  8
0
100
AcDbSpline
 62
7
  6
CONTINUOUS
 70
0
 71
3
 72
9
 73
5
 74
0
 42
0.0000001
 43
0.0000001
 44
0.0000000001
 40
0.0
 40
0.0
 40
0.0
 40
0.0
 40
0.2437369764
 40
1.0
 40
1.0
 40
1.0
 40
1.0
 10
-150.2400316547
 20
195.2693042482
 30
0.0
 10
-150.2400137338
 20
195.3154405213
 30
0.0
 10
-150.2287888064
 20
195.5047071337
 30
0.0
 10
-150.171009253
 20
195.6899943264
 30
0.0
 10
-150.108875743
 20
195.8189578806
 30
0.0
  0
SPLINE
  5
4F0
100
AcDbEntity
  8
0
100
AcDbSpline
 62
7
  6
CONTINUOUS
 70
0
 71
3
 72
9
 73
5
 74
0
 42
0.0000001
 43
0.0000001
 44
0.0000000001
 40
0.0
 40
0.0
 40
0.0
 40
0.0
 40
0.2390933734
 40
1.0
 40
1.0
 40
1.0
 40
1.0
 10
-150.108875743
 20
195.8189578806
 30
0.0
 10
-150.094134857
 20
195.8495538836
 30
0.0
 10
-150.0281285064
 20
195.9754160758
 30
0.0
 10
-149.9458272816
 20
196.0924050185
 30
0.0
 10
-149.8772639222
 20
196.175956798
 30
0.0
  0
SPLINE
  5
4F1
100
AcDbEntity
  8
0
100
AcDbSpline
 62
7
  6
CONTINUOUS
 70
0
 71
3
 72
15
 73
11
 74
0
 42
0.0000001
 43
0.0000001
 44
0.0000000001
 40
0.0
 40
0.0
 40
0.0
 40
0.0
 40
0.2646709974
 40
0.4021377055
 40
0.5367264584
 40
0.6646710911
 40
0.7837862812
 40
0.8943546262
 40
0.9475377438
 40
1.0
 40
1.0
 40
1.0
 40
1.0
 10
-4.8840282013
 20
125.5308410952
 30
0.0
 10
-4.8840282013
 20
122.5131327345
 30
0.0
 10
-6.0790914439
 20
117.8770129436
 30
0.0
 10
-9.3296409429
 20
112.6648056123
 30
0.0
 10
-12.5229719425
 20
109.3529663219
 30
0.0
 10
-16.2076432071
 20
106.960953348
 30
0.0
 10
-20.1287645731
 20
105.667119004
 30
0.0
 10
-23.4180056864
 20
105.6219285157
 30
0.0
 10
-25.8168939892
 20
106.2371131582
 30
0.0
 10
-26.9181218544
 20
106.7447745991
 30
0.0
 10
-27.4361100685
 20
107.0439140869
 30
0.0
  0
SPLINE
  5
4F2
100
AcDbEntity
  8
0
100
AcDbSpline
 62
7
  6
CONTINUOUS
 70
0
 71
3
 72
9
 73
5
 74
0
 42
0.0000001
 43
0.0000001
 44
0.0000000001
 40
0.0
 40
0.0
 40
0.0
 40
0.0
 40
0.2517696521
 40
1.0
 40
1.0
 40
1.0
 40
1.0
 10
-33.2185499643
 20
131.9597266977
 30
0.0
 10
-33.3370043011
 20
131.9313304529
 30
0.0
 10
-33.8106454666
 20
131.8321997697
 30
0.0
 10
-34.2960298099
 20
131.7886108529
 30
0.0
 10
-34.6580358433
 20
131.7891842903
 30
0.0
  0
SPLINE
  5
4F3
100
AcDbEntity
  8
0
100
AcDbSpline
 62
7
  6
CONTINUOUS
 70
0
 71
3
 72
9
 73
5
 74
0
 42
0.0000001
 43
0.0000001
 44
0.0000000001
 40
0.0
 40
0.0
 40
0.0
 40
0.0
 40
0.2486376119
 40
1.0
 40
1.0
 40
1.0
 40
1.0
 10
23.8060499683
 20
255.6011430566
 30
0.0
 10
23.9252015662
 20
255.5681873676
 30
0.0
 10
24.4002162926
 20
255.4208058638
 30
0.0
 10
24.8567449576
 20
255.2144826816
 30
0.0
 10
25.1821360771
 20
255.0309440857
 30
0.0
  0
SPLINE
  5
4F4
100
AcDbEntity
  8
0
100
AcDbSpline
 62
7
  6
CONTINUOUS
 70
0
 71
3
 72
11
 73
7
 74
0
 42
0.0000001
 43
0.0000001
 44
0.0000000001
 40
0.0
 40
0.0
 40
0.0
 40
0.0
 40
0.2693850615
 40
0.5247899305
 40
0.7672328179
 40
1.0
 40
1.0
 40
1.0
 40
1.0
 10
-3.2311355825
 20
125.973908024
 30
0.0
 10
-3.2311355825
 20
127.0804069827
 30
0.0
 10
-3.4153231293
 20
129.2422436039
 30
0.0
 10
-4.2879830286
 20
132.2928483307
 30
0.0
 10
-5.7239103024
 20
134.9562556641
 30
0.0
 10
-7.0475719396
 20
136.4228860878
 30
0.0
 10
-7.7740038489
 20
137.0445023397
 30
0.0
  0
SPLINE
  5
4F5
100
AcDbEntity
  8
0
100
AcDbSpline
 62
7
  6
CONTINUOUS
 70
0
 71
3
 72
15
 73
11
 74
0
 42
0.0000001
 43
0.0000001
 44
0.0000000001
 40
0.0
 40
0.0
 40
0.0
 40
0.0
 40
0.0524622206
 40
0.1056451924
 40
0.2162149419
 40
0.335328751
 40
0.4632716211
 40
0.5978589477
 40
0.7353248364
 40
1.0
 40
1.0
 40
1.0
 40
1.0
 10
-28.4364264207
 20
105.3120075453
 30
0.0
 10
-27.8575419376
 20
104.9775999201
 30
0.0
 10
-26.6266250699
 20
104.4104997556
 30
0.0
 10
-23.945620565
 20
103.722544473
 30
0.0
 10
-20.2693606015
 20
103.7734812502
 30
0.0
 10
-15.8868982242
 20
105.219166773
 30
0.0
 10
-11.7688313529
 20
107.8927328633
 30
0.0
 10
-8.1998929634
 20
111.5941602557
 30
0.0
 10
-4.5667050879
 20
117.419477898
 30
0.0
 10
-3.2311355825
 20
122.6011200077
 30
0.0
 10
-3.2311355825
 20
125.973908024
 30
0.0
  0
SPLINE
  5
4F6
100
AcDbEntity
  8
0
100
AcDbSpline
 62
7
  6
CONTINUOUS
 70
0
 71
3
 72
11
 73
7
 74
0
 42
0.0000001
 43
0.0000001
 44
0.0000000001
 40
0.0
 40
0.0
 40
0.0
 40
0.0
 40
0.2330991379
 40
0.4759488717
 40
0.7313315051
 40
1.0
 40
1.0
 40
1.0
 40
1.0
 10
-7.9566507737
 20
137.0289076716
 30
0.0
 10
-7.2869354006
 20
136.4010085945
 30
0.0
 10
-6.0726557598
 20
134.9464821933
 30
0.0
 10
-4.7597944218
 20
132.3590424808
 30
0.0
 10
-3.9628272448
 20
129.4265063732
 30
0.0
 10
-3.7941511219
 20
127.3572085554
 30
0.0
 10
-3.7941511219
 20
126.2990953434
 30
0.0
  0
SPLINE
  5
4F7
100
AcDbEntity
  8
0
100
AcDbSpline
 62
7
  6
CONTINUOUS
 70
0
 71
3
 72
9
 73
5
 74
0
 42
0.0000001
 43
0.0000001
 44
0.0000000001
 40
0.0
 40
0.0
 40
0.0
 40
0.0
 40
0.5097649139
 40
1.0
 40
1.0
 40
1.0
 40
1.0
 10
-28.6807043519
 20
131.4552746435
 30
0.0
 10
-30.2039666365
 20
129.5834472333
 30
0.0
 10
-32.6039782263
 20
125.3983138164
 30
0.0
 10
-33.5462182613
 20
120.6447433814
 30
0.0
 10
-33.5462182613
 20
118.3238906257
 30
0.0
  0
SPLINE
  5
4F8
100
AcDbEntity
  8
0
100
AcDbSpline
 62
7
  6
CONTINUOUS
 70
0
 71
3
 72
11
 73
7
 74
0
 42
0.0000001
 43
0.0000001
 44
0.0000000001
 40
0.0
 40
0.0
 40
0.0
 40
0.0
 40
0.3075915747
 40
0.5711047481
 40
0.7967660342
 40
1.0
 40
1.0
 40
1.0
 40
1.0
 10
-148.9385008539
 20
193.6078034563
 30
0.0
 10
-149.1339328371
 20
193.7206813403
 30
0.0
 10
-149.4843924801
 20
193.9538968192
 30
0.0
 10
-149.9077082261
 20
194.3633662961
 30
0.0
 10
-150.1761086715
 20
194.8032733268
 30
0.0
 10
-150.2400895773
 20
195.1201861672
 30
0.0
 10
-150.2400316547
 20
195.2693042482
 30
0.0
  0
SPLINE
  5
4F9
100
AcDbEntity
  8
0
100
AcDbSpline
 62
7
  6
CONTINUOUS
 70
0
 71
3
 72
11
 73
7
 74
0
 42
0.0000001
 43
0.0000001
 44
0.0000000001
 40
0.0
 40
0.0
 40
0.0
 40
0.0
 40
0.232362554
 40
0.4731275204
 40
0.7282243732
 40
1.0
 40
1.0
 40
1.0
 40
1.0
 10
-27.4361100685
 20
107.0439140869
 30
0.0
 10
-28.2965846981
 20
107.5408403354
 30
0.0
 10
-29.9015192563
 20
108.8317957718
 30
0.0
 10
-31.6750043034
 20
111.4395574155
 30
0.0
 10
-32.7572385
 20
114.5738409031
 30
0.0
 10
-32.9832027218
 20
116.8365044803
 30
0.0
 10
-32.9832027218
 20
117.9987033063
 30
0.0
  0
SPLINE
  5
4FA
100
AcDbEntity
  8
0
100
AcDbSpline
 62
7
  6
CONTINUOUS
 70
0
 71
3
 72
12
 73
8
 74
0
 42
0.0000001
 43
0.0000001
 44
0.0000000001
 40
0.0
 40
0.0
 40
0.0
 40
0.0
 40
0.2610538246
 40
0.5205039957
 40
0.7678261417
 40
0.8858534968
 40
1.0
 40
1.0
 40
1.0
 40
1.0
 10
-55.2756430879
 20
226.4407861073
 30
0.0
 10
-55.4678426307
 20
227.7230564973
 30
0.0
 10
-55.4128779784
 20
230.3633999619
 30
0.0
 10
-54.1087366884
 20
234.014240407
 30
0.0
 10
-52.0937875309
 20
236.4770315493
 30
0.0
 10
-50.0989573693
 20
237.8037005087
 30
0.0
 10
-49.015978517
 20
238.2310688469
 30
0.0
 10
-48.4683714362
 20
238.3778579273
 30
0.0
  0
SPLINE
  5
4FB
100
AcDbEntity
  8
0
100
AcDbSpline
 62
7
  6
CONTINUOUS
 70
0
 71
3
 72
10
 73
6
 74
0
 42
0.0000001
 43
0.0000001
 44
0.0000000001
 40
0.0
 40
0.0
 40
0.0
 40
0.0
 40
0.2049606058
 40
0.5614655657
 40
1.0
 40
1.0
 40
1.0
 40
1.0
 10
-149.5249638693
 20
194.9998126421
 30
0.0
 10
-149.4999829046
 20
194.8667353715
 30
0.0
 10
-149.3681929825
 20
194.5128361648
 30
0.0
 10
-148.930642968
 20
194.0005110572
 30
0.0
 10
-148.4946374505
 20
193.7008729498
 30
0.0
 10
-148.2437699295
 20
193.5559765288
 30
0.0
  0
SPLINE
  5
4FC
100
AcDbEntity
  8
0
100
AcDbSpline
 62
7
  6
CONTINUOUS
 70
0
 71
3
 72
9
 73
5
 74
0
 42
0.0000001
 43
0.0000001
 44
0.0000000001
 40
0.0
 40
0.0
 40
0.0
 40
0.0
 40
0.5028715139
 40
1.0
 40
1.0
 40
1.0
 40
1.0
 10
20.9531185545
 20
256.9866689351
 30
0.0
 10
21.4168912184
 20
257.1109857403
 30
0.0
 10
22.3655868445
 20
257.2694317576
 30
0.0
 10
23.3272343605
 20
257.2341089888
 30
0.0
 10
23.7973071196
 20
257.168263122
 30
0.0
  0
SPLINE
  5
4FD
100
AcDbEntity
  8
0
100
AcDbSpline
 62
7
  6
CONTINUOUS
 70
0
 71
3
 72
14
 73
10
 74
0
 42
0.0000001
 43
0.0000001
 44
0.0000000001
 40
0.0
 40
0.0
 40
0.0
 40
0.0
 40
0.1239381064
 40
0.2358141886
 40
0.3437429448
 40
0.4588607953
 40
0.5868786808
 40
0.7255277839
 40
1.0
 40
1.0
 40
1.0
 40
1.0
 10
-20.3650624592
 20
121.3810649849
 30
0.0
 10
-20.3650624592
 20
121.1842734107
 30
0.0
 10
-20.3028638187
 20
120.803995081
 30
0.0
 10
-19.9821002879
 20
120.3356482697
 30
0.0
 10
-19.4775944453
 20
120.0987449261
 30
0.0
 10
-18.9018020064
 20
120.1399103501
 30
0.0
 10
-18.3506809408
 20
120.4236608222
 30
0.0
 10
-17.7445736774
 20
121.0437199396
 30
0.0
 10
-17.5021684639
 20
121.7126665659
 30
0.0
 10
-17.5021684639
 20
122.1484794166
 30
0.0
  0
SPLINE
  5
4FE
100
AcDbEntity
  8
0
100
AcDbSpline
 62
7
  6
CONTINUOUS
 70
0
 71
3
 72
14
 73
10
 74
0
 42
0.0000001
 43
0.0000001
 44
0.0000000001
 40
0.0
 40
0.0
 40
0.0
 40
0.0
 40
0.1239381064
 40
0.2358141886
 40
0.3437429448
 40
0.4588607953
 40
0.5868786808
 40
0.7255277839
 40
1.0
 40
1.0
 40
1.0
 40
1.0
 10
-17.5021684639
 20
122.1484794166
 30
0.0
 10
-17.5021684639
 20
122.3452709908
 30
0.0
 10
-17.5643671045
 20
122.7255493205
 30
0.0
 10
-17.8851306353
 20
123.1938961318
 30
0.0
 10
-18.3896364779
 20
123.4307994754
 30
0.0
 10
-18.9654289168
 20
123.3896340513
 30
0.0
 10
-19.5165499824
 20
123.1058835793
 30
0.0
 10
-20.1226572458
 20
122.4858244619
 30
0.0
 10
-20.3650624592
 20
121.8168778356
 30
0.0
 10
-20.3650624592
 20
121.3810649849
 30
0.0
  0
SPLINE
  5
4FF
100
AcDbEntity
  8
0
100
AcDbSpline
 62
7
  6
CONTINUOUS
 70
0
 71
3
 72
9
 73
5
 74
0
 42
0.0000001
 43
0.0000001
 44
0.0000000001
 40
0.0
 40
0.0
 40
0.0
 40
0.0
 40
0.4907384971
 40
1.0
 40
1.0
 40
1.0
 40
1.0
 10
-32.9832027218
 20
117.9987033063
 30
0.0
 10
-32.9832027218
 20
120.4402695733
 30
0.0
 10
-31.9423822266
 20
125.4369399117
 30
0.0
 10
-29.3097289677
 20
129.7817751275
 30
0.0
 10
-27.6447006778
 20
131.6916013039
 30
0.0
  0
SPLINE
  5
500
100
AcDbEntity
  8
0
100
AcDbSpline
 62
7
  6
CONTINUOUS
 70
0
 71
3
 72
11
 73
7
 74
0
 42
0.0000001
 43
0.0000001
 44
0.0000000001
 40
0.0
 40
0.0
 40
0.0
 40
0.0
 40
0.2717749833
 40
0.5268699245
 40
0.7676347946
 40
1.0
 40
1.0
 40
1.0
 40
1.0
 10
-33.5462182613
 20
118.3238906257
 30
0.0
 10
-33.5462182613
 20
117.1616944962
 30
0.0
 10
-33.3202580049
 20
114.8990410339
 30
0.0
 10
-32.2380280125
 20
111.7647698201
 30
0.0
 10
-30.4645548852
 20
109.1569946176
 30
0.0
 10
-28.859606727
 20
107.8660390187
 30
0.0
 10
-27.999125856
 20
107.3691008116
 30
0.0
  0
SPLINE
  5
501
100
AcDbEntity
  8
0
100
AcDbSpline
 62
7
  6
CONTINUOUS
 70
0
 71
3
 72
15
 73
11
 74
0
 42
0.0000001
 43
0.0000001
 44
0.0000000001
 40
0.0
 40
0.0
 40
0.0
 40
0.0
 40
0.2631990618
 40
0.4000304714
 40
0.5344310714
 40
0.6627604017
 40
0.7827204069
 40
0.8941673278
 40
0.9475707063
 40
1.0
 40
1.0
 40
1.0
 40
1.0
 10
-3.7941511219
 20
126.2990953434
 30
0.0
 10
-3.7941511219
 20
123.0240020463
 30
0.0
 10
-5.0539876547
 20
117.9931704984
 30
0.0
 10
-8.5012228929
 20
112.278620947
 30
0.0
 10
-11.9029400489
 20
108.597095896
 30
0.0
 10
-15.8513480613
 20
105.8612104743
 30
0.0
 10
-20.0863650821
 20
104.2620144764
 30
0.0
 10
-23.6841719995
 20
103.9980442805
 30
0.0
 10
-26.3560590269
 20
104.4794931251
 30
0.0
 10
-27.6002524774
 20
104.9354452928
 30
0.0
 10
-28.190342548
 20
105.2136866998
 30
0.0
  0
ELLIPSE
  5
502
100
AcDbEntity
  8
0
100
AcDbEllipse
 62
7
  6
CONTINUOUS
 10
-87.3048220613
 20
406.5466670805
 30
0.0
 11
-80.4292841247
 21
145.5921720887
 31
0.0
 40
0.1999732484
 41
-3.0024680348
 42
-2.9670091357
  0
ELLIPSE
  5
503
100
AcDbEntity
  8
0
100
AcDbEllipse
 62
7
  6
CONTINUOUS
 10
-87.3048220613
 20
406.5466670805
 30
0.0
 11
-80.4292841247
 21
145.5921720887
 31
0.0
 40
0.1999732484
 41
-3.4151597063
 42
-3.3797008072
  0
ELLIPSE
  5
504
100
AcDbEntity
  8
0
100
AcDbEllipse
 62
7
  6
CONTINUOUS
 10
93.3903164398
 20
164.5951439914
 30
0.0
 11
-1036.9509071212
 21
1342.9503047008
 31
0.0
 40
0.0124762707
 41
-1.4699910329
 42
-1.4697018508
  0
ELLIPSE
  5
505
100
AcDbEntity
  8
0
100
AcDbEllipse
 62
7
  6
CONTINUOUS
 10
4.4417104934
 20
283.6976879995
 30
0.0
 11
38.6602727301
 21
20.0690189558
 31
0.0
 40
0.3376338231
 41
-0.7686854494
 42
-0.6382218196
  0
ELLIPSE
  5
506
100
AcDbEntity
  8
0
100
AcDbEllipse
 62
7
  6
CONTINUOUS
 10
-55.0956757669
 20
229.941372969
 30
0.0
 11
4.5977905297
 21
9.1412482997
 31
0.0
 40
0.7512579716
 41
0.5899658368
 42
2.1607621635
  0
ELLIPSE
  5
507
100
AcDbEntity
  8
0
100
AcDbEllipse
 62
7
  6
CONTINUOUS
 10
15.7333530735
 20
248.3530530966
 30
0.0
 11
4.5977905297
 21
9.1412482997
 31
0.0
 40
0.7512579716
 41
0.0951641008
 42
0.1598405558
  0
ELLIPSE
  5
508
100
AcDbEntity
  8
0
100
AcDbEllipse
 62
7
  6
CONTINUOUS
 10
-53.6881369183
 20
229.7442420885
 30
0.0
 11
4.5977905297
 21
9.1412482997
 31
0.0
 40
0.7512579716
 41
0.5899658367
 42
2.1607621635
  0
ELLIPSE
  5
509
100
AcDbEntity
  8
0
100
AcDbEllipse
 62
7
  6
CONTINUOUS
 10
-53.3628526878
 20
229.5456953669
 30
0.0
 11
4.5977905297
 21
9.1412482997
 31
0.0
 40
0.7512579716
 41
0.5899658368
 42
2.1607621635
  0
ENDSEC
  0
SECTION
  2
OBJECTS
  0
DICTIONARY
  5
C
100
AcDbDictionary
280
0
281
1
  3
ACAD_GROUP
350
D
  3
ACAD_MLINESTYLE
350
17
  3
ACAD_LAYOUT
350
1A
  3
ACAD_PLOTSETTINGS
350
19
  3
ACAD_PLOTSTYLENAME
350
E
  0
DICTIONARY
  5
D
102
{ACAD_REACTORS
330
C
102
}
100
AcDbDictionary
280
0
281
1
  0
ACDBDICTIONARYWDFLT
  5
E
102
{ACAD_REACTORS
330
C
102
}
100
AcDbDictionary
281
1
  3
Normal
350
F
100
AcDbDictionaryWithDefault
340
F
  0
DICTIONARY
  5
17
102
{ACAD_REACTORS
330
C
102
}
100
AcDbDictionary
280
0
281
1
  3
Standard
350
18
  0
DICTIONARY
  5
19
102
{ACAD_REACTORS
330
C
102
}
100
AcDbDictionary
281
1
  0
DICTIONARY
  5
1A
102
{ACAD_REACTORS
330
C
102
}
100
AcDbDictionary
281
1
  3
Model
350
50A
  3
Layout1
350
50B
  0
ACDBPLACEHOLDER
  5
F
102
{ACAD_REACTORS
330
E
102
}
  0
MLINESTYLE
  5
18
102
{ACAD_REACTORS
330
17
102
}
100
AcDbMlineStyle
  2
STANDARD
 70
0
  3

 62
256
 51
90.0
 52
90.0
 71
2
 49
0.5
 62
256
  6
BYLAYER
 49
-0.5
 62
256
  6
BYLAYER
  0
LAYOUT
  5
50A
102
{ACAD_REACTORS
330
1A
102
}
100
AcDbPlotSettings
  1

  2
none_device
  4
ANSI_C_(22.00_x_17.00_Inches)
  6

 40
0.0
 41
0.0
 42
0.0
 43
0.0
 44
558.8
 45
431.8
 46
0.0
 47
0.0
 48
0.0
 49
0.0
140
0.0
141
0.0
142
1.0
143
1.0
 70
1024
 72
1
 73
0
 74
0
  7

 75
0
147
1.0
148
0.0
149
0.0
100
AcDbLayout
  1
Model
 70
0
 71
0
 10
0.0
 20
0.0
 11
558.8
 21
431.8
 12
0.0
 22
0.0
 32
0.0
 14
0.0
 24
0.0
 34
0.0
 15
0.0
 25
0.0
 35
0.0
146
0.0
 13
0.0
 23
0.0
 33
0.0
 16
1.0
 26
0.0
 36
0.0
 17
0.0
 27
1.0
 37
0.0
 76
0
330
216
345
0
346
0
  0
LAYOUT
  5
50B
102
{ACAD_REACTORS
330
1A
102
}
100
AcDbPlotSettings
  1

  2
none_device
  4
ANSI_C_(22.00_x_17.00_Inches)
  6

 40
0.0
 41
0.0
 42
0.0
 43
0.0
 44
558.8
 45
431.8
 46
0.0
 47
0.0
 48
0.0
 49
0.0
140
0.0
141
0.0
142
1.0
143
1.0
 70
0
 72
1
 73
0
 74
0
  7

 75
0
147
1.0
148
0.0
149
0.0
100
AcDbLayout
  1
Layout1
 70
0
 71
1
 10
0.0
 20
0.0
 11
558.8
 21
431.8
 12
0.0
 22
0.0
 32
0.0
 14
0.0
 24
0.0
 34
0.0
 15
0.0
 25
0.0
 35
0.0
146
0.0
 13
0.0
 23
0.0
 33
0.0
 16
1.0
 26
0.0
 36
0.0
 17
0.0
 27
1.0
 37
0.0
 76
0
330
217
345
0
346
0
  0
ENDSEC
  0
EOF
