999
DXF file: Y:\3D PRATIKA-KAEDRA_OLGA\TRAVAIL_PHASE_10\CAD3D\81183_3D-Simplified\81183_2D-isometric.dxf
999
Pro/ENGINEER 2018260 by Parametric Technology Corporation
  0
SECTION
  2
HEADER
  9
$ACADVER
  1
AC1027
  9
$DWGCODEPAGE
  3
ANSI_1252
  9
$EXTMAX
 10
558.8
 20
431.8
 30
0.0
  9
$EXTMIN
 10
0.0
 20
0.0
 30
0.0
  9
$LIMMIN
 10
0.0
 20
0.0
  9
$LIMMAX
 10
558.8
 20
431.8
  9
$VIEWCTR
 10
279.4
 20
215.9
  9
$VIEWSIZE
 40
431.8
  9
$CLAYER
  8
0
  9
$LTSCALE
 40
30.734
  9
$CELTYPE
  6
BYLAYER
  9
$DIMSCALE
 40
1.0
  9
$DIMASZ
 40
0.1875
  9
$DIMEXO
 40
0.0625
  9
$DIMDLI
 40
21.2344
  9
$DIMEXE
 40
0.125
  9
$DIMCEN
 40
5.0292
  9
$DIMLFAC
 40
1.0
  9
$DIMBLK
  1
_CLOSED
  9
$DIMALT
 70
0
  9
$DIMALTF
 40
0.0393700787
  9
$DIMTXT
 40
0.15625
  9
$DIMTOL
 70
0
  9
$DIMLIM
 70
0
  9
$DIMTFAC
 40
1.0
  9
$DIMGAP
 40
0.625
  9
$DIMDSEP
 70
46
  9
$AUNITS
 70
0
  9
$PDMODE
 70
3
  9
$PDSIZE
 40
0.3125
  9
$HANDSEED
  5
523
  9
$TILEMODE
 70
1
  9
$MEASUREMENT
 70
1
  9
$INSUNITS
 70
4
  0
ENDSEC
  0
SECTION
  2
CLASSES
  0
CLASS
  1
ACDBDICTIONARYWDFLT
  2
AcDbDictionaryWithDefault
  3
AutoCAD 2000
 90
0
 91
1
280
0
281
0
  0
CLASS
  1
ACDBPLACEHOLDER
  2
AcDbPlaceHolder
  3
AutoCAD 2000
 90
0
 91
1
280
0
281
0
  0
CLASS
  1
LAYOUT
  2
AcDbLayout
  3
AutoCAD 2000
 90
0
 91
0
280
0
281
0
  0
ENDSEC
  0
SECTION
  2
TABLES
  0
TABLE
  2
VPORT
  5
8
100
AcDbSymbolTable
 70
2
  0
VPORT
  5
1F4
100
AcDbSymbolTableRecord
100
AcDbViewportTableRecord
  2
*ACTIVE
 70
0
 10
0.0
 20
0.0
 11
1.0
 21
1.0
 12
279.4
 22
215.9
 13
0.0
 23
0.0
 14
1.0
 24
1.0
 15
0.0
 25
0.0
 16
0.0
 26
0.0
 36
1.0
 17
0.0
 27
0.0
 37
0.0
 40
431.8
 41
1.2941176471
 42
50.0
 43
0.0
 44
0.0
 50
0.0
 51
0.0
 71
0
 72
100
 73
1
 74
1
 75
0
 76
0
 77
0
 78
0
  0
ENDTAB
  0
TABLE
  2
LTYPE
  5
5
100
AcDbSymbolTable
 70
6
  0
LTYPE
  5
14
100
AcDbSymbolTableRecord
100
AcDbLinetypeTableRecord
  2
BYBLOCK
 70
0
  3

 72
65
 73
0
 40
0.0
  0
LTYPE
  5
15
100
AcDbSymbolTableRecord
100
AcDbLinetypeTableRecord
  2
BYLAYER
 70
0
  3

 72
65
 73
0
 40
0.0
  0
LTYPE
  5
16
100
AcDbSymbolTableRecord
100
AcDbLinetypeTableRecord
  2
CONTINUOUS
 70
64
  3
Solid line
 72
65
 73
0
 40
0.0
  0
LTYPE
  5
1F5
100
AcDbSymbolTableRecord
100
AcDbLinetypeTableRecord
  2
CENTER
 70
64
  3
____ _ ____ _ ____ _ ____ _ ____ _ ____ _ ____
 72
65
 73
4
 40
0.6
 49
0.375
 74
0
 49
-0.075
 74
0
 49
0.075
 74
0
 49
-0.075
 74
0
  0
LTYPE
  5
1F6
100
AcDbSymbolTableRecord
100
AcDbLinetypeTableRecord
  2
HIDDEN
 70
64
  3
- - - - - - - - - - - - - - - - - - - -
 72
65
 73
2
 40
0.2
 49
0.1
 74
0
 49
-0.1
 74
0
  0
LTYPE
  5
1F7
100
AcDbSymbolTableRecord
100
AcDbLinetypeTableRecord
  2
PHANTOM
 70
64
  3
_____ _ _ _____ _ _ _____ _ _ _____
 72
65
 73
6
 40
0.8
 49
0.45
 74
0
 49
-0.05
 74
0
 49
0.1
 74
0
 49
-0.05
 74
0
 49
0.1
 74
0
 49
-0.05
 74
0
  0
LTYPE
  5
1F8
100
AcDbSymbolTableRecord
100
AcDbLinetypeTableRecord
  2
DOT
 70
64
  3
. . . . . . . . . . . . . . . . . . . .
 72
65
 73
2
 40
0.2
 49
0.1
 74
0
 49
-0.1
 74
0
  0
LTYPE
  5
1F9
100
AcDbSymbolTableRecord
100
AcDbLinetypeTableRecord
  2
DASHED
 70
64
  3
- - - - - - - - - - - - - - - - - - - -
 72
65
 73
2
 40
0.2
 49
0.1
 74
0
 49
-0.1
 74
0
  0
ENDTAB
  0
TABLE
  2
LAYER
  5
2
100
AcDbSymbolTable
 70
36
  0
LAYER
  5
10
100
AcDbSymbolTableRecord
100
AcDbLayerTableRecord
  2
0
 70
0
 62
7
  6
CONTINUOUS
370
-3
390
F
  0
LAYER
  5
1FA
100
AcDbSymbolTableRecord
100
AcDbLayerTableRecord
  2
DEFAULT_1
 70
0
 62
7
  6
CENTER
370
-3
390
F
  0
LAYER
  5
1FB
100
AcDbSymbolTableRecord
100
AcDbLayerTableRecord
  2
DEFAULT_2
 70
0
 62
8
  6
HIDDEN
370
-3
390
F
  0
LAYER
  5
1FC
100
AcDbSymbolTableRecord
100
AcDbLayerTableRecord
  2
DEFAULT_3
 70
0
 62
7
  6
PHANTOM
370
-3
390
F
  0
LAYER
  5
1FD
100
AcDbSymbolTableRecord
100
AcDbLayerTableRecord
  2
01_ALL_DTM_PLN
 70
0
 62
7
  6
CONTINUOUS
370
-3
390
F
  0
LAYER
  5
1FE
100
AcDbSymbolTableRecord
100
AcDbLayerTableRecord
  2
01__ASM_ALL_DTM_PLN
 70
0
 62
7
  6
CONTINUOUS
370
-3
390
F
  0
LAYER
  5
1FF
100
AcDbSymbolTableRecord
100
AcDbLayerTableRecord
  2
01__ASM_DEF_DTM_PLN
 70
0
 62
7
  6
CONTINUOUS
370
-3
390
F
  0
LAYER
  5
200
100
AcDbSymbolTableRecord
100
AcDbLayerTableRecord
  2
01___PRT_ALL_DTM_PLN
 70
0
 62
7
  6
CONTINUOUS
370
-3
390
F
  0
LAYER
  5
201
100
AcDbSymbolTableRecord
100
AcDbLayerTableRecord
  2
01___PRT_DEF_DTM_PLN
 70
0
 62
7
  6
CONTINUOUS
370
-3
390
F
  0
LAYER
  5
202
100
AcDbSymbolTableRecord
100
AcDbLayerTableRecord
  2
02_ALL_AXES
 70
0
 62
7
  6
CONTINUOUS
370
-3
390
F
  0
LAYER
  5
203
100
AcDbSymbolTableRecord
100
AcDbLayerTableRecord
  2
02__ASM_ALL_AXES
 70
0
 62
7
  6
CONTINUOUS
370
-3
390
F
  0
LAYER
  5
204
100
AcDbSymbolTableRecord
100
AcDbLayerTableRecord
  2
02___PRT_ALL_AXES
 70
0
 62
7
  6
CONTINUOUS
370
-3
390
F
  0
LAYER
  5
205
100
AcDbSymbolTableRecord
100
AcDbLayerTableRecord
  2
03_ALL_CURVES
 70
0
 62
7
  6
CONTINUOUS
370
-3
390
F
  0
LAYER
  5
206
100
AcDbSymbolTableRecord
100
AcDbLayerTableRecord
  2
03__ASM_ALL_CURVES
 70
0
 62
7
  6
CONTINUOUS
370
-3
390
F
  0
LAYER
  5
207
100
AcDbSymbolTableRecord
100
AcDbLayerTableRecord
  2
03___PRT_ALL_CURVES
 70
0
 62
7
  6
CONTINUOUS
370
-3
390
F
  0
LAYER
  5
208
100
AcDbSymbolTableRecord
100
AcDbLayerTableRecord
  2
04_ALL_DTM_PNT
 70
0
 62
7
  6
CONTINUOUS
370
-3
390
F
  0
LAYER
  5
209
100
AcDbSymbolTableRecord
100
AcDbLayerTableRecord
  2
04__ASM_ALL_DTM_PNT
 70
0
 62
7
  6
CONTINUOUS
370
-3
390
F
  0
LAYER
  5
20A
100
AcDbSymbolTableRecord
100
AcDbLayerTableRecord
  2
04___PRT_ALL_DTM_PNT
 70
0
 62
7
  6
CONTINUOUS
370
-3
390
F
  0
LAYER
  5
20B
100
AcDbSymbolTableRecord
100
AcDbLayerTableRecord
  2
05_ALL_DTM_CSYS
 70
0
 62
7
  6
CONTINUOUS
370
-3
390
F
  0
LAYER
  5
20C
100
AcDbSymbolTableRecord
100
AcDbLayerTableRecord
  2
05__ASM_ALL_DTM_CSYS
 70
0
 62
7
  6
CONTINUOUS
370
-3
390
F
  0
LAYER
  5
20D
100
AcDbSymbolTableRecord
100
AcDbLayerTableRecord
  2
05__ASM_DEF_DTM_CSYS
 70
0
 62
7
  6
CONTINUOUS
370
-3
390
F
  0
LAYER
  5
20E
100
AcDbSymbolTableRecord
100
AcDbLayerTableRecord
  2
05___PRT_ALL_DTM_CSYS
 70
0
 62
7
  6
CONTINUOUS
370
-3
390
F
  0
LAYER
  5
20F
100
AcDbSymbolTableRecord
100
AcDbLayerTableRecord
  2
05___PRT_DEF_DTM_CSYS
 70
0
 62
7
  6
CONTINUOUS
370
-3
390
F
  0
LAYER
  5
210
100
AcDbSymbolTableRecord
100
AcDbLayerTableRecord
  2
06_ALL_SURFS
 70
0
 62
7
  6
CONTINUOUS
370
-3
390
F
  0
LAYER
  5
211
100
AcDbSymbolTableRecord
100
AcDbLayerTableRecord
  2
06__ASM_ALL_SURFS
 70
0
 62
7
  6
CONTINUOUS
370
-3
390
F
  0
LAYER
  5
212
100
AcDbSymbolTableRecord
100
AcDbLayerTableRecord
  2
06___PRT_ALL_SURFS
 70
0
 62
7
  6
CONTINUOUS
370
-3
390
F
  0
LAYER
  5
213
100
AcDbSymbolTableRecord
100
AcDbLayerTableRecord
  2
07__ASM_ALL_SKELETONS
 70
0
 62
7
  6
CONTINUOUS
370
-3
390
F
  0
ENDTAB
  0
TABLE
  2
STYLE
  5
3
100
AcDbSymbolTable
 70
1
  0
STYLE
  5
11
100
AcDbSymbolTableRecord
100
AcDbTextStyleTableRecord
  2
STANDARD
 70
0
 40
0.0
 41
0.8
 50
0.0
 71
0
 42
0.2
  3
txt
  4

  0
STYLE
  5
214
100
AcDbSymbolTableRecord
100
AcDbTextStyleTableRecord
  2
TEXTSTYLE_1
 70
0
 40
0.0
 41
0.8
 50
0.0
 71
0
 42
0.2
  3
gdt
  4

  0
ENDTAB
  0
TABLE
  2
VIEW
  5
6
100
AcDbSymbolTable
 70
0
  0
ENDTAB
  0
TABLE
  2
UCS
  5
7
100
AcDbSymbolTable
 70
0
  0
ENDTAB
  0
TABLE
  2
APPID
  5
9
100
AcDbSymbolTable
 70
1
  0
APPID
  5
215
100
AcDbSymbolTableRecord
100
AcDbRegAppTableRecord
  2
ACAD
 70
0
  0
ENDTAB
  0
TABLE
  2
BLOCK_RECORD
  5
1
100
AcDbSymbolTable
 70
0
  0
BLOCK_RECORD
  5
216
100
AcDbSymbolTableRecord
100
AcDbBlockTableRecord
  2
*Model_Space
  0
BLOCK_RECORD
  5
217
100
AcDbSymbolTableRecord
100
AcDbBlockTableRecord
  2
*Paper_Space
  0
BLOCK_RECORD
  5
218
100
AcDbSymbolTableRecord
100
AcDbBlockTableRecord
  2
_CLOSED
  0
ENDTAB
  0
TABLE
  2
DIMSTYLE
  5
A
100
AcDbSymbolTable
 70
1
100
AcDbDimStyleTable
 71
0
  0
DIMSTYLE
105
219
100
AcDbSymbolTableRecord
100
AcDbDimStyleTableRecord
  2
STANDARD
 70
0
  3

  4

 40
1.0
 41
0.1875
 42
0.0625
 43
0.38
 44
0.125
 45
0.0
 46
0.0
 47
0.01
 48
0.01
140
0.15625
141
0.09
142
0.0
143
25.4
144
1.0
145
0.0
146
1.0
147
0.625
 71
0.0
 72
0.0
 73
1
 74
1
 75
0
 76
0
 77
0
 78
8
 79
2
170
0
171
1
172
0
173
0
174
0
175
0
176
0
177
0
178
0
270
2
179
2
271
2
272
2
273
2
274
2
275
0
280
0
281
0
282
0
283
1
284
8
285
0
286
0
287
3
288
0
340
11
278
46
341
218
342
218
343
218
344
218
  0
ENDTAB
  0
ENDSEC
  0
SECTION
  2
BLOCKS
  0
BLOCK
  5
20
100
AcDbEntity
  8
0
100
AcDbBlockBegin
  2
*Model_Space
 70
0
 10
0.0
 20
0.0
 30
0.0
  3
*Model_Space
  1

  0
ENDBLK
  5
21
100
AcDbEntity
  8
0
100
AcDbBlockEnd
  0
BLOCK
  5
1C
100
AcDbEntity
  8
0
100
AcDbBlockBegin
  2
*Paper_Space
 70
0
 10
0.0
 20
0.0
 30
0.0
  3
*Paper_Space
  1

  0
ENDBLK
  5
1D
100
AcDbEntity
  8
0
100
AcDbBlockEnd
  0
BLOCK
  5
21A
100
AcDbEntity
  8
0
100
AcDbBlockBegin
  2
_CLOSED
 70
64
 10
0.0
 20
0.0
  3
_CLOSED
  1

  0
LINE
  5
21B
100
AcDbEntity
  8
0
  6
BYBLOCK
 62
0
100
AcDbLine
 10
0.0
 20
0.0
 11
-1.0
 21
0.1666666667
  0
LINE
  5
21C
100
AcDbEntity
  8
0
  6
BYBLOCK
 62
0
100
AcDbLine
 10
-1.0
 20
0.1666666667
 11
-1.0
 21
-0.1666666667
  0
LINE
  5
21D
100
AcDbEntity
  8
0
  6
BYBLOCK
 62
0
100
AcDbLine
 10
-1.0
 20
-0.1666666667
 11
0.0
 21
0.0
  0
LINE
  5
21E
100
AcDbEntity
  8
0
  6
BYBLOCK
 62
0
100
AcDbLine
 10
-1.0
 20
0.0
 11
0.0
 21
0.0
  0
ENDBLK
  5
21F
100
AcDbEntity
  8
0
  6
BYBLOCK
 62
0
100
AcDbBlockEnd
  0
ENDSEC
  0
SECTION
  2
ENTITIES
  0
LINE
  5
220
100
AcDbEntity
  8
0
100
AcDbLine
 62
7
  6
CONTINUOUS
 10
-60.2504325944
 20
83.4543215926
 11
-62.3165483679
 21
82.9004879316
  0
LINE
  5
221
100
AcDbEntity
  8
0
100
AcDbLine
 62
7
  6
CONTINUOUS
 10
21.5677520389
 20
105.3861345664
 11
23.6338678124
 21
105.9399682273
  0
LINE
  5
222
100
AcDbEntity
  8
0
100
AcDbLine
 62
7
  6
CONTINUOUS
 10
-60.1253582331
 20
83.7259018217
 11
21.2862442692
 21
105.5487282261
  0
LINE
  5
223
100
AcDbEntity
  8
0
100
AcDbLine
 62
7
  6
CONTINUOUS
 10
-63.0293562921
 20
83.6616293026
 11
-63.4425794468
 21
83.5508625704
  0
LINE
  5
224
100
AcDbEntity
  8
0
100
AcDbLine
 62
7
  6
CONTINUOUS
 10
-149.6277334398
 20
133.3298069112
 11
-63.4425794468
 21
83.5508625704
  0
LINE
  5
225
100
AcDbEntity
  8
0
100
AcDbLine
 62
7
  6
CONTINUOUS
 10
-63.0293562921
 20
83.6616293026
 11
-62.3165483679
 21
83.2499246837
  0
LINE
  5
226
100
AcDbEntity
  8
0
100
AcDbLine
 62
7
  6
CONTINUOUS
 10
-41.2472421003
 20
128.6493285706
 11
16.518791235
 21
144.1338305188
  0
LINE
  5
227
100
AcDbEntity
  8
0
100
AcDbLine
 62
7
  6
CONTINUOUS
 10
39.6565426655
 20
150.3360316466
 11
44.7031740801
 21
151.6888088664
  0
LINE
  5
228
100
AcDbEntity
  8
0
100
AcDbLine
 62
7
  6
CONTINUOUS
 10
41.0417539484
 20
150.732331947
 11
39.6992121382
 21
150.372456254
  0
LINE
  5
229
100
AcDbEntity
  8
0
100
AcDbLine
 62
7
  6
CONTINUOUS
 10
16.5151906279
 20
144.1578521776
 11
-28.3797360434
 21
132.1235209389
  0
LINE
  5
22A
100
AcDbEntity
  8
0
100
AcDbLine
 62
7
  6
CONTINUOUS
 10
-33.1721365893
 20
132.3307566758
 11
-33.2013577225
 21
132.3229237909
  0
LINE
  5
22B
100
AcDbEntity
  8
0
100
AcDbLine
 62
7
  6
CONTINUOUS
 10
-150.9293861191
 20
195.6673923805
 11
-150.9293861191
 21
134.991307894
  0
LINE
  5
22C
100
AcDbEntity
  8
0
100
AcDbLine
 62
7
  6
CONTINUOUS
 10
-150.9293861191
 20
197.5060616074
 11
-150.9293861191
 21
203.022069288
  0
LINE
  5
22D
100
AcDbEntity
  8
0
100
AcDbLine
 62
7
  6
CONTINUOUS
 10
-150.2346551947
 20
195.615565453
 11
-150.2346551947
 21
196.2974223036
  0
LINE
  5
22E
100
AcDbEntity
  8
0
100
AcDbLine
 62
7
  6
CONTINUOUS
 10
-149.6277334397
 20
201.3605683051
 11
-149.6277334397
 21
195.8445606245
  0
LINE
  5
22F
100
AcDbEntity
  8
0
100
AcDbLine
 62
7
  6
CONTINUOUS
 10
-149.6277334398
 20
194.0058913976
 11
-149.6277334398
 21
133.3298069112
  0
LINE
  5
230
100
AcDbEntity
  8
0
100
AcDbLine
 62
7
  6
CONTINUOUS
 10
-148.9330025154
 20
195.4432969449
 11
-148.9330025154
 21
193.9540644701
  0
LINE
  5
231
100
AcDbEntity
  8
0
100
AcDbLine
 62
7
  6
CONTINUOUS
 10
-136.6485590291
 20
201.0124045819
 11
-136.6715065671
 21
201.5615115694
  0
LINE
  5
232
100
AcDbEntity
  8
0
100
AcDbLine
 62
7
  6
CONTINUOUS
 10
-135.8450602577
 20
201.7830450338
 11
-135.8123306129
 21
200.9998639931
  0
LINE
  5
233
100
AcDbEntity
  8
0
100
AcDbLine
 62
7
  6
CONTINUOUS
 10
-139.4784687216
 20
198.9760610662
 11
-139.4784687216
 21
200.4699176953
  0
LINE
  5
234
100
AcDbEntity
  8
0
100
AcDbLine
 62
7
  6
CONTINUOUS
 10
-135.7640932845
 20
215.9613544533
 11
-135.7640925637
 21
206.9812201382
  0
LINE
  5
235
100
AcDbEntity
  8
0
100
AcDbLine
 62
7
  6
CONTINUOUS
 10
-134.2594127552
 20
208.9103257795
 11
-134.6809639003
 21
195.3688906751
  0
LINE
  5
236
100
AcDbEntity
  8
0
100
AcDbLine
 62
7
  6
CONTINUOUS
 10
-135.3270731705
 20
200.5114670987
 11
-135.285430876
 21
201.4598134962
  0
LINE
  5
237
100
AcDbEntity
  8
0
100
AcDbLine
 62
7
  6
CONTINUOUS
 10
-134.4827298972
 20
201.7364174329
 11
-134.5681800167
 21
201.524845877
  0
LINE
  5
238
100
AcDbEntity
  8
0
100
AcDbLine
 62
7
  6
CONTINUOUS
 10
-8.1415132534
 20
154.0807726671
 11
1.9548646731
 21
156.7871621254
  0
LINE
  5
239
100
AcDbEntity
  8
0
100
AcDbLine
 62
7
  6
CONTINUOUS
 10
-63.0293562921
 20
144.3377137891
 11
-63.4425794468
 21
144.2269470569
  0
LINE
  5
23A
100
AcDbEntity
  8
0
100
AcDbLine
 62
7
  6
CONTINUOUS
 10
-62.6418325985
 20
145.6031197754
 11
-62.3165483679
 21
145.6903139969
  0
LINE
  5
23B
100
AcDbEntity
  8
0
100
AcDbLine
 62
7
  6
CONTINUOUS
 10
-25.094092739
 20
143.0305210214
 11
-26.4236302086
 21
143.158808404
  0
LINE
  5
23C
100
AcDbEntity
  8
0
100
AcDbLine
 62
7
  6
CONTINUOUS
 10
-33.7451889726
 20
132.3990893143
 11
-33.2013577225
 21
132.3229237909
  0
LINE
  5
23D
100
AcDbEntity
  8
0
100
AcDbLine
 62
7
  6
CONTINUOUS
 10
-30.6550884311
 20
131.9782350243
 11
-36.0934009324
 21
132.7398902584
  0
LINE
  5
23E
100
AcDbEntity
  8
0
100
AcDbLine
 62
7
  6
CONTINUOUS
 10
-41.4905835707
 20
138.8756221778
 11
-36.1570596732
 21
138.1286429647
  0
LINE
  5
23F
100
AcDbEntity
  8
0
100
AcDbLine
 62
7
  6
CONTINUOUS
 10
-27.5755342123
 20
140.1266283586
 11
-26.6918451764
 21
140.0028645294
  0
LINE
  5
240
100
AcDbEntity
  8
0
100
AcDbLine
 62
7
  6
CONTINUOUS
 10
-126.4743361631
 20
221.2139269146
 11
-126.4743361631
 21
224.3164572119
  0
LWPOLYLINE
  5
241
100
AcDbEntity
  8
0
100
AcDbPolyline
 62
7
  6
CONTINUOUS
 90
4
 70
0
 10
-123.5603044091
 20
227.8538165888
 10
-127.0451896307
 20
226.6636329581
 10
-130.7468410431
 20
224.8062123328
 10
-133.4920585474
 20
222.9835780514
  0
LINE
  5
242
100
AcDbEntity
  8
0
100
AcDbLine
 62
7
  6
CONTINUOUS
 10
19.792262985
 20
151.5354814926
 11
15.4366825126
 21
151.7923720881
  0
LINE
  5
243
100
AcDbEntity
  8
0
100
AcDbLine
 62
7
  6
CONTINUOUS
 10
-26.1707852352
 20
144.0799082842
 11
-25.2722655676
 21
143.9932099105
  0
LINE
  5
244
100
AcDbEntity
  8
0
100
AcDbLine
 62
7
  6
CONTINUOUS
 10
-29.0804131803
 20
142.1052968004
 11
-28.9580878946
 21
142.088164704
  0
LINE
  5
245
100
AcDbEntity
  8
0
100
AcDbLine
 62
7
  6
CONTINUOUS
 10
-29.1362607233
 20
143.0508535931
 11
-29.2585860089
 21
143.0679856895
  0
LINE
  5
246
100
AcDbEntity
  8
0
100
AcDbLine
 62
7
  6
CONTINUOUS
 10
-23.2765303004
 20
143.8872166642
 11
-23.398855586
 21
143.9043487606
  0
LINE
  5
247
100
AcDbEntity
  8
0
100
AcDbLine
 62
7
  6
CONTINUOUS
 10
-26.6046348831
 20
147.0589695571
 11
-25.7209458472
 21
146.9352057279
  0
LINE
  5
248
100
AcDbEntity
  8
0
100
AcDbLine
 62
7
  6
CONTINUOUS
 10
16.699007023
 20
142.9315104432
 11
18.6024163984
 21
142.6649311112
  0
LINE
  5
249
100
AcDbEntity
  8
0
100
AcDbLine
 62
7
  6
CONTINUOUS
 10
2.8753314961
 20
149.1572476409
 11
16.0422392312
 21
147.3131748348
  0
LINE
  5
24A
100
AcDbEntity
  8
0
100
AcDbLine
 62
7
  6
CONTINUOUS
 10
23.8128346262
 20
146.2248749891
 11
25.1724127516
 21
146.0344611806
  0
LINE
  5
24B
100
AcDbEntity
  8
0
100
AcDbLine
 62
7
  6
CONTINUOUS
 10
-26.9851191103
 20
142.9810142529
 11
-25.9092228209
 21
142.7724119822
  0
LINE
  5
24C
100
AcDbEntity
  8
0
100
AcDbLine
 62
7
  6
CONTINUOUS
 10
-63.4425794468
 20
144.2269470569
 11
-149.6277334398
 21
194.0058913976
  0
LINE
  5
24D
100
AcDbEntity
  8
0
100
AcDbLine
 62
7
  6
CONTINUOUS
 10
-148.9330025154
 20
193.9540644701
 11
-63.0293562921
 21
144.3377137891
  0
LINE
  5
24E
100
AcDbEntity
  8
0
100
AcDbLine
 62
7
  6
CONTINUOUS
 10
-62.6418325985
 20
145.6031197754
 11
-149.6277334397
 21
195.8445606245
  0
LINE
  5
24F
100
AcDbEntity
  8
0
100
AcDbLine
 62
7
  6
CONTINUOUS
 10
-76.0173137727
 20
164.4355450102
 11
-79.5054410366
 21
163.5005333728
  0
LINE
  5
250
100
AcDbEntity
  8
0
100
AcDbLine
 62
7
  6
CONTINUOUS
 10
0.1781804462
 20
163.1856678763
 11
15.0727060296
 21
161.2110324241
  0
LINE
  5
251
100
AcDbEntity
  8
0
100
AcDbLine
 62
7
  6
CONTINUOUS
 10
-8.1415132534
 20
154.0807726671
 11
-10.2277243687
 21
154.372948679
  0
LINE
  5
252
100
AcDbEntity
  8
0
100
AcDbLine
 62
7
  6
CONTINUOUS
 10
15.3149964548
 20
151.809467079
 11
-5.6572191116
 21
154.7467013324
  0
LINE
  5
253
100
AcDbEntity
  8
0
100
AcDbLine
 62
7
  6
CONTINUOUS
 10
10.4486829834
 20
156.2489155892
 11
21.880215392
 21
154.6478883418
  0
LINE
  5
254
100
AcDbEntity
  8
0
100
AcDbLine
 62
7
  6
CONTINUOUS
 10
5.8661593454
 20
158.5028516785
 11
30.414243532
 21
155.0648041579
  0
LINE
  5
255
100
AcDbEntity
  8
0
100
AcDbLine
 62
7
  6
CONTINUOUS
 10
30.1446784863
 20
156.8632229857
 11
2.8694080379
 21
160.6832227553
  0
LINE
  5
256
100
AcDbEntity
  8
0
100
AcDbLine
 62
7
  6
CONTINUOUS
 10
-64.0493714471
 20
151.9320957545
 11
-149.6277334398
 21
201.3605683051
  0
LINE
  5
257
100
AcDbEntity
  8
0
100
AcDbLine
 62
7
  6
CONTINUOUS
 10
-64.0493714471
 20
152.8262108631
 11
-66.3701372456
 21
154.1666420878
  0
LINE
  5
258
100
AcDbEntity
  8
0
100
AcDbLine
 62
7
  6
CONTINUOUS
 10
-79.5054410366
 20
163.5005333728
 11
-134.6809639003
 21
195.3688906751
  0
LINE
  5
259
100
AcDbEntity
  8
0
100
AcDbLine
 62
7
  6
CONTINUOUS
 10
21.2862442692
 20
105.5487282261
 11
21.5677520389
 21
105.3861345664
  0
LINE
  5
25A
100
AcDbEntity
  8
0
100
AcDbLine
 62
7
  6
CONTINUOUS
 10
-134.679949506
 20
199.8625656939
 11
-134.5435266506
 21
199.7837703862
  0
LINE
  5
25B
100
AcDbEntity
  8
0
100
AcDbLine
 62
7
  6
CONTINUOUS
 10
-35.7810328236
 20
226.4603077946
 11
-37.3395862615
 21
226.0105853518
  0
LINE
  5
25C
100
AcDbEntity
  8
0
100
AcDbLine
 62
7
  6
CONTINUOUS
 10
-39.9306104078
 20
225.2629422618
 11
-41.4891638457
 21
224.8132198191
  0
LINE
  5
25D
100
AcDbEntity
  8
0
100
AcDbLine
 62
7
  6
CONTINUOUS
 10
-3.424286338
 20
167.8551257392
 11
3.5348935311
 21
166.926542484
  0
LINE
  5
25E
100
AcDbEntity
  8
0
100
AcDbLine
 62
7
  6
CONTINUOUS
 10
9.9940930849
 20
166.0758185116
 11
3.5643172592
 21
166.976331752
  0
LINE
  5
25F
100
AcDbEntity
  8
0
100
AcDbLine
 62
7
  6
CONTINUOUS
 10
7.7949640248
 20
167.3605626264
 11
4.0974184225
 21
167.8784171927
  0
LINE
  5
260
100
AcDbEntity
  8
0
100
AcDbLine
 62
7
  6
CONTINUOUS
 10
15.5125288467
 20
161.1481355572
 11
15.0727060296
 21
161.2110324241
  0
LINE
  5
261
100
AcDbEntity
  8
0
100
AcDbLine
 62
7
  6
CONTINUOUS
 10
-134.3449828354
 20
206.1615687144
 11
-135.7640925637
 21
206.9812201382
  0
LINE
  5
262
100
AcDbEntity
  8
0
100
AcDbLine
 62
7
  6
CONTINUOUS
 10
7.2918697407
 20
251.5068464246
 11
7.2161408994
 21
251.467970018
  0
LINE
  5
263
100
AcDbEntity
  8
0
100
AcDbLine
 62
7
  6
CONTINUOUS
 10
-14.6822410062
 20
240.5830862185
 11
-14.1415461168
 21
240.8592586419
  0
LINE
  5
264
100
AcDbEntity
  8
0
100
AcDbLine
 62
7
  6
CONTINUOUS
 10
7.2918697407
 20
251.5068464246
 11
7.215841401
 21
251.4714347289
  0
LINE
  5
265
100
AcDbEntity
  8
0
100
AcDbLine
 62
7
  6
CONTINUOUS
 10
47.0865880854
 20
226.9329224592
 11
37.7150456884
 21
224.4208291385
  0
LINE
  5
266
100
AcDbEntity
  8
0
100
AcDbLine
 62
7
  6
CONTINUOUS
 10
-76.0173136624
 20
223.4768968625
 11
-76.0173137727
 21
164.4355450102
  0
LINE
  5
267
100
AcDbEntity
  8
0
100
AcDbLine
 62
7
  6
CONTINUOUS
 10
-67.412479675
 20
157.3520841815
 11
-67.412479675
 21
158.8459408107
  0
LINE
  5
268
100
AcDbEntity
  8
0
100
AcDbLine
 62
7
  6
CONTINUOUS
 10
-79.5054410366
 20
163.5005333728
 11
-77.7380631937
 21
220.273721276
  0
LINE
  5
269
100
AcDbEntity
  8
0
100
AcDbLine
 62
7
  6
CONTINUOUS
 10
-21.4784227453
 20
235.1966752108
 11
-14.6822410062
 21
240.5830862185
  0
LINE
  5
26A
100
AcDbEntity
  8
0
100
AcDbLine
 62
7
  6
CONTINUOUS
 10
18.355188094
 20
230.2281920924
 11
17.6563643506
 21
230.0408685566
  0
LINE
  5
26B
100
AcDbEntity
  8
0
100
AcDbLine
 62
7
  6
CONTINUOUS
 10
-6.212652218
 20
232.1140564922
 11
11.7175304446
 21
236.9203402604
  0
LINE
  5
26C
100
AcDbEntity
  8
0
100
AcDbLine
 62
7
  6
CONTINUOUS
 10
-64.5041339366
 20
214.1080349712
 11
-64.0493714471
 21
214.2056590797
  0
LINE
  5
26D
100
AcDbEntity
  8
0
100
AcDbLine
 62
7
  6
CONTINUOUS
 10
-3.2731638423
 20
201.0780514704
 11
-7.1964288557
 21
201.6136949356
  0
LINE
  5
26E
100
AcDbEntity
  8
0
100
AcDbLine
 62
7
  6
CONTINUOUS
 10
-8.7930488152
 20
194.8413869344
 11
-4.9961719219
 21
194.2889735366
  0
LINE
  5
26F
100
AcDbEntity
  8
0
100
AcDbLine
 62
7
  6
CONTINUOUS
 10
-64.2068880572
 20
231.6987558245
 11
-64.2068880573
 21
216.9464182195
  0
LINE
  5
270
100
AcDbEntity
  8
0
100
AcDbLine
 62
7
  6
CONTINUOUS
 10
-64.0493714471
 20
228.1241262665
 11
-64.0493714471
 21
151.9320957545
  0
LINE
  5
271
100
AcDbEntity
  8
0
100
AcDbLine
 62
7
  6
CONTINUOUS
 10
-63.4425794468
 20
144.2269470569
 11
-63.4425794468
 21
83.5508625704
  0
LINE
  5
272
100
AcDbEntity
  8
0
100
AcDbLine
 62
7
  6
CONTINUOUS
 10
-63.0293562921
 20
83.6616293026
 11
-63.0293562921
 21
144.3377137891
  0
LINE
  5
273
100
AcDbEntity
  8
0
100
AcDbLine
 62
7
  6
CONTINUOUS
 10
-62.6418325985
 20
145.6031197754
 11
-62.6418325985
 21
227.9269953861
  0
LINE
  5
274
100
AcDbEntity
  8
0
100
AcDbLine
 62
7
  6
CONTINUOUS
 10
-62.3165483679
 20
82.9004879316
 11
-62.3165483679
 21
227.7284486644
  0
LINE
  5
275
100
AcDbEntity
  8
0
100
AcDbLine
 62
7
  6
CONTINUOUS
 10
-64.5041340009
 20
214.108034958
 11
-66.3701372456
 21
154.1666420878
  0
LINE
  5
276
100
AcDbEntity
  8
0
100
AcDbLine
 62
7
  6
CONTINUOUS
 10
7.4072524872
 20
251.2681446233
 11
4.928370424
 21
250.602932486
  0
LINE
  5
277
100
AcDbEntity
  8
0
100
AcDbLine
 62
7
  6
CONTINUOUS
 10
16.519126876
 20
242.4775809341
 11
13.4199532157
 21
241.6468304424
  0
LINE
  5
278
100
AcDbEntity
  8
0
100
AcDbLine
 62
7
  6
CONTINUOUS
 10
-6.8279813654
 20
236.2192605654
 11
-9.9271550257
 21
235.388510074
  0
LINE
  5
279
100
AcDbEntity
  8
0
100
AcDbLine
 62
7
  6
CONTINUOUS
 10
-8.227295446
 20
240.3273055312
 11
11.6074159802
 21
245.6441086763
  0
LINE
  5
27A
100
AcDbEntity
  8
0
100
AcDbLine
 62
7
  6
CONTINUOUS
 10
-11.0423982981
 20
241.6901053777
 11
-14.1415719585
 21
240.8593548862
  0
LINE
  5
27B
100
AcDbEntity
  8
0
100
AcDbLine
 62
7
  6
CONTINUOUS
 10
10.2898520996
 20
247.4083320547
 11
12.3047099432
 21
247.9484257465
  0
LINE
  5
27C
100
AcDbEntity
  8
0
100
AcDbLine
 62
7
  6
CONTINUOUS
 10
-147.6520026648
 20
205.4609741835
 11
-135.7640926974
 21
208.6475936279
  0
LINE
  5
27D
100
AcDbEntity
  8
0
100
AcDbLine
 62
7
  6
CONTINUOUS
 10
-43.9716844827
 20
236.1461087226
 11
-13.9769226677
 21
244.1863690787
  0
LINE
  5
27E
100
AcDbEntity
  8
0
100
AcDbLine
 62
7
  6
CONTINUOUS
 10
8.2470658982
 20
250.1436310608
 11
25.4498055092
 21
254.7549197306
  0
LINE
  5
27F
100
AcDbEntity
  8
0
100
AcDbLine
 62
7
  6
CONTINUOUS
 10
22.1868180084
 20
255.2119128712
 11
7.4117478612
 21
251.2513743113
  0
LINE
  5
280
100
AcDbEntity
  8
0
100
AcDbLine
 62
7
  6
CONTINUOUS
 10
-21.4569335652
 20
243.5129659772
 11
-47.2346719835
 21
236.6031018631
  0
LINE
  5
281
100
AcDbEntity
  8
0
100
AcDbLine
 62
7
  6
CONTINUOUS
 10
-9.9453672655
 20
246.6122559342
 11
-12.4274589391
 21
245.9513414781
  0
LINE
  5
282
100
AcDbEntity
  8
0
100
AcDbLine
 62
7
  6
CONTINUOUS
 10
39.5486877802
 20
198.6588668292
 11
40.9857942953
 21
198.4575948907
  0
LINE
  5
283
100
AcDbEntity
  8
0
100
AcDbLine
 62
7
  6
CONTINUOUS
 10
38.9655763851
 20
204.3560031187
 11
35.9072616514
 21
204.7843311018
  0
LINE
  5
284
100
AcDbEntity
  8
0
100
AcDbLine
 62
7
  6
CONTINUOUS
 10
38.8286378216
 20
200.2864123605
 11
43.4717387031
 21
199.619578146
  0
LINE
  5
285
100
AcDbEntity
  8
0
100
AcDbLine
 62
7
  6
CONTINUOUS
 10
-19.0180361601
 20
263.0977017146
 11
-20.7492087565
 21
258.0355229574
  0
LINE
  5
286
100
AcDbEntity
  8
0
100
AcDbLine
 62
7
  6
CONTINUOUS
 10
-18.5138736865
 20
262.3966082018
 11
-18.5077707937
 21
262.4144543149
  0
LINE
  5
287
100
AcDbEntity
  8
0
100
AcDbLine
 62
7
  6
CONTINUOUS
 10
-10.1317623937
 20
246.8618397665
 11
-8.8920929296
 21
247.1941399631
  0
LINE
  5
288
100
AcDbEntity
  8
0
100
AcDbLine
 62
7
  6
CONTINUOUS
 10
3.5046017119
 20
250.5171419288
 11
4.744271176
 21
250.8494421254
  0
LINE
  5
289
100
AcDbEntity
  8
0
100
AcDbLine
 62
7
  6
CONTINUOUS
 10
-13.3419069314
 20
246.4485080985
 11
-10.8625680031
 21
247.1131084917
  0
LINE
  5
28A
100
AcDbEntity
  8
0
100
AcDbLine
 62
7
  6
CONTINUOUS
 10
4.533481372
 20
251.2401039383
 11
6.4928044948
 21
251.7653112437
  0
LINE
  5
28B
100
AcDbEntity
  8
0
100
AcDbLine
 62
7
  6
CONTINUOUS
 10
-49.409996984
 20
236.9077639567
 11
-24.29438127
 21
243.6401424497
  0
LINE
  5
28C
100
AcDbEntity
  8
0
100
AcDbLine
 62
7
  6
CONTINUOUS
 10
9.3293498036
 20
252.6531679121
 11
20.0114930078
 21
255.5165749648
  0
LINE
  5
28D
100
AcDbEntity
  8
0
100
AcDbLine
 62
7
  6
CONTINUOUS
 10
-48.9390253062
 20
237.3176852921
 11
-25.0401858532
 21
243.7239002371
  0
LINE
  5
28E
100
AcDbEntity
  8
0
100
AcDbLine
 62
7
  6
CONTINUOUS
 10
10.2923898148
 20
253.1949908621
 11
20.4824646859
 21
255.9264963002
  0
LINE
  5
28F
100
AcDbEntity
  8
0
100
AcDbLine
 62
7
  6
CONTINUOUS
 10
20.2638859688
 20
257.3847568765
 11
14.9777905518
 21
255.967790018
  0
LINE
  5
290
100
AcDbEntity
  8
0
100
AcDbLine
 62
7
  6
CONTINUOUS
 10
-28.5881183768
 20
244.2897092717
 11
-49.1576040222
 21
238.7759458686
  0
LINE
  5
291
100
AcDbEntity
  8
0
100
AcDbLine
 62
7
  6
CONTINUOUS
 10
-32.0875803238
 20
245.3491415555
 11
-54.0520852741
 21
239.4614355792
  0
LINE
  5
292
100
AcDbEntity
  8
0
100
AcDbLine
 62
7
  6
CONTINUOUS
 10
-32.4383916967
 20
245.5408455867
 11
-54.3773695042
 21
239.659982301
  0
LINE
  5
293
100
AcDbEntity
  8
0
100
AcDbLine
 62
7
  6
CONTINUOUS
 10
-55.7849083528
 20
239.8571131814
 11
-33.1436331623
 21
245.9262311311
  0
LINE
  5
294
100
AcDbEntity
  8
0
100
AcDbLine
 62
7
  6
CONTINUOUS
 10
-87.7774202021
 20
237.4153905005
 11
-123.1711279095
 21
227.9279127561
  0
LINE
  5
295
100
AcDbEntity
  8
0
100
AcDbLine
 62
7
  6
CONTINUOUS
 10
-123.5617350972
 20
227.8534335696
 11
-88.1667234977
 21
237.3412608372
  0
LINE
  5
296
100
AcDbEntity
  8
0
100
AcDbLine
 62
7
  6
CONTINUOUS
 10
-84.6884088682
 20
238.0253769896
 11
-87.7774500612
 21
237.4153847078
  0
LINE
  5
297
100
AcDbEntity
  8
0
100
AcDbLine
 62
7
  6
CONTINUOUS
 10
-123.5604373073
 20
227.8537817982
 11
-123.171130958
 21
227.9279121092
  0
LINE
  5
298
100
AcDbEntity
  8
0
100
AcDbLine
 62
7
  6
CONTINUOUS
 10
-87.7774171484
 20
237.4153911483
 11
-88.1667234977
 21
237.3412608372
  0
LINE
  5
299
100
AcDbEntity
  8
0
100
AcDbLine
 62
7
  6
CONTINUOUS
 10
-13.7939069414
 20
244.1357237352
 11
-13.810717289
 21
244.1328465722
  0
LWPOLYLINE
  5
29A
100
AcDbEntity
  8
0
100
AcDbPolyline
 62
7
  6
CONTINUOUS
 90
3
 70
0
 10
-84.6884088682
 20
238.0253769896
 10
-86.5341395611
 20
237.7239606259
 10
-88.1667085361
 20
237.3412626534
  0
LINE
  5
29B
100
AcDbEntity
  8
0
100
AcDbLine
 62
7
  6
CONTINUOUS
 10
-13.7536269453
 20
244.2216548641
 11
-13.7702886567
 21
244.2190219361
  0
LINE
  5
29C
100
AcDbEntity
  8
0
100
AcDbLine
 62
7
  6
CONTINUOUS
 10
-63.4458453257
 20
231.8057229909
 11
-64.2068880572
 21
231.6987558245
  0
LINE
  5
29D
100
AcDbEntity
  8
0
100
AcDbLine
 62
7
  6
CONTINUOUS
 10
-87.7774202021
 20
237.4153905005
 11
-44.425419034
 21
242.9020865738
  0
LINE
  5
29E
100
AcDbEntity
  8
0
100
AcDbLine
 62
7
  6
CONTINUOUS
 10
-43.1334690847
 20
243.2484008411
 11
-84.6879579501
 21
238.0254342832
  0
LINE
  5
29F
100
AcDbEntity
  8
0
100
AcDbLine
 62
7
  6
CONTINUOUS
 10
-62.4351799397
 20
234.1618965128
 11
-123.1711279095
 21
227.9279127561
  0
LINE
  5
2A0
100
AcDbEntity
  8
0
100
AcDbLine
 62
7
  6
CONTINUOUS
 10
-37.4876504526
 20
225.6515609512
 11
-38.8177810796
 21
225.7832403899
  0
LINE
  5
2A1
100
AcDbEntity
  8
0
100
AcDbLine
 62
7
  6
CONTINUOUS
 10
-38.5375944071
 20
226.7080514472
 11
-37.6471499079
 21
226.6198997804
  0
LINE
  5
2A2
100
AcDbEntity
  8
0
100
AcDbLine
 62
7
  6
CONTINUOUS
 10
-39.9616614771
 20
222.7613943549
 11
-39.0779724412
 21
222.6376305257
  0
LINE
  5
2A3
100
AcDbEntity
  8
0
100
AcDbLine
 62
7
  6
CONTINUOUS
 10
-62.3165483679
 20
227.7284486644
 11
-55.9648756738
 21
226.8388740487
  0
LINE
  5
2A4
100
AcDbEntity
  8
0
100
AcDbLine
 62
7
  6
CONTINUOUS
 10
-41.4891638457
 20
224.8132198191
 11
-41.36683856
 21
224.7960877227
  0
LINE
  5
2A5
100
AcDbEntity
  8
0
100
AcDbLine
 62
7
  6
CONTINUOUS
 10
-64.0493714471
 20
228.1241262665
 11
-62.6418325985
 21
227.9269953861
  0
LINE
  5
2A6
100
AcDbEntity
  8
0
100
AcDbLine
 62
7
  6
CONTINUOUS
 10
-49.4175018037
 20
226.5964512667
 11
-54.7340876907
 21
227.3410582505
  0
LINE
  5
2A7
100
AcDbEntity
  8
0
100
AcDbLine
 62
7
  6
CONTINUOUS
 10
-41.5263380154
 20
225.7644265518
 11
-41.648663301
 21
225.7815586482
  0
LINE
  5
2A8
100
AcDbEntity
  8
0
100
AcDbLine
 62
7
  6
CONTINUOUS
 10
-35.6587075379
 20
226.4431756982
 11
-35.7810328236
 21
226.4603077946
  0
LINE
  5
2A9
100
AcDbEntity
  8
0
100
AcDbLine
 62
7
  6
CONTINUOUS
 10
-11.7574460468
 20
223.6526070558
 11
-19.919423498
 21
224.7957213666
  0
LINE
  5
2AA
100
AcDbEntity
  8
0
100
AcDbLine
 62
7
  6
CONTINUOUS
 10
-38.9907621479
 20
229.6937355535
 11
-38.1070731121
 21
229.5699717243
  0
LINE
  5
2AB
100
AcDbEntity
  8
0
100
AcDbLine
 62
7
  6
CONTINUOUS
 10
23.7303124303
 20
219.8241160597
 11
8.4422857415
 21
222.0786189655
  0
LINE
  5
2AC
100
AcDbEntity
  8
0
100
AcDbLine
 62
7
  6
CONTINUOUS
 10
-39.3818961422
 20
225.6204643196
 11
-38.3065930102
 21
225.415254105
  0
LINE
  5
2AD
100
AcDbEntity
  8
0
100
AcDbLine
 62
7
  6
CONTINUOUS
 10
-55.9648756738
 20
226.8388740487
 11
-41.2472421003
 21
128.6493285706
  0
LINE
  5
2AE
100
AcDbEntity
  8
0
100
AcDbLine
 62
7
  6
CONTINUOUS
 10
-41.4647640791
 20
138.7033659433
 11
-54.7252062097
 21
227.1711742453
  0
LINE
  5
2AF
100
AcDbEntity
  8
0
100
AcDbLine
 62
7
  6
CONTINUOUS
 10
-52.6804893045
 20
227.0534444072
 11
-39.420047174
 21
138.5856361052
  0
LINE
  5
2B0
100
AcDbEntity
  8
0
100
AcDbLine
 62
7
  6
CONTINUOUS
 10
-36.1570596732
 20
138.1286429647
 11
-49.4175018037
 21
226.5964512667
  0
LINE
  5
2B1
100
AcDbEntity
  8
0
100
AcDbLine
 62
7
  6
CONTINUOUS
 10
-36.013610936
 20
273.5358211868
 11
-36.0116822144
 21
273.5167182778
  0
LINE
  5
2B2
100
AcDbEntity
  8
0
100
AcDbLine
 62
7
  6
CONTINUOUS
 10
5.0529835432
 20
313.1149376393
 11
5.0178409392
 21
313.0121760037
  0
LINE
  5
2B3
100
AcDbEntity
  8
0
100
AcDbLine
 62
7
  6
CONTINUOUS
 10
-6.0368464592
 20
264.8371865635
 11
-6.3990227051
 21
263.7781351778
  0
LINE
  5
2B4
100
AcDbEntity
  8
0
100
AcDbLine
 62
7
  6
CONTINUOUS
 10
-4.9466513534
 20
265.8497306496
 11
-5.1887806236
 21
265.1417125452
  0
LINE
  5
2B5
100
AcDbEntity
  8
0
100
AcDbLine
 62
7
  6
CONTINUOUS
 10
-3.6378401168
 20
266.3842105606
 11
-3.6317370471
 21
266.402056746
  0
LINE
  5
2B6
100
AcDbEntity
  8
0
100
AcDbLine
 62
7
  6
CONTINUOUS
 10
12.6121939019
 20
305.334840724
 11
12.9691048748
 21
306.3784957531
  0
LINE
  5
2B7
100
AcDbEntity
  8
0
100
AcDbLine
 62
7
  6
CONTINUOUS
 10
40.9857942954
 20
198.4575948908
 11
43.4717387031
 21
199.6195781459
  0
LINE
  5
2B8
100
AcDbEntity
  8
0
100
AcDbLine
 62
7
  6
CONTINUOUS
 10
-6.3990227051
 20
263.7781351778
 11
-16.3946231648
 21
261.0987596719
  0
LINE
  5
2B9
100
AcDbEntity
  8
0
100
AcDbLine
 62
7
  6
CONTINUOUS
 10
-18.5138736865
 20
262.3966082018
 11
-18.4214723753
 21
262.4213768798
  0
LINE
  5
2BA
100
AcDbEntity
  8
0
100
AcDbLine
 62
7
  6
CONTINUOUS
 10
-3.730241428
 20
266.3594418826
 11
-3.6378401168
 21
266.3842105606
  0
LINE
  5
2BB
100
AcDbEntity
  8
0
100
AcDbLine
 62
7
  6
CONTINUOUS
 10
-23.5608954663
 20
261.6757150664
 11
-21.1602273493
 21
262.3192273173
  0
LINE
  5
2BC
100
AcDbEntity
  8
0
100
AcDbLine
 62
7
  6
CONTINUOUS
 10
-0.5156051567
 20
267.8531314839
 11
1.8850629602
 21
268.4966437347
  0
LINE
  5
2BD
100
AcDbEntity
  8
0
100
AcDbLine
 62
7
  6
CONTINUOUS
 10
27.7775345246
 20
242.5332552087
 11
26.1967996099
 21
242.6138912773
  0
LINE
  5
2BE
100
AcDbEntity
  8
0
100
AcDbLine
 62
7
  6
CONTINUOUS
 10
23.5688997682
 20
242.7479450708
 11
21.9881648535
 21
242.8285811394
  0
LINE
  5
2BF
100
AcDbEntity
  8
0
100
AcDbLine
 62
7
  6
CONTINUOUS
 10
24.7731665278
 20
239.6752352493
 11
24.5583933846
 21
239.6957072831
  0
LINE
  5
2C0
100
AcDbEntity
  8
0
100
AcDbLine
 62
7
  6
CONTINUOUS
 10
15.7587906855
 20
230.3066305046
 11
15.1072603304
 21
230.3898632234
  0
LINE
  5
2C1
100
AcDbEntity
  8
0
100
AcDbLine
 62
7
  6
CONTINUOUS
 10
-49.409996984
 20
236.9077639567
 11
-43.9716844826
 21
236.1461087226
  0
LINE
  5
2C2
100
AcDbEntity
  8
0
100
AcDbLine
 62
7
  6
CONTINUOUS
 10
-54.0520852738
 20
239.4614355793
 11
-49.1576040222
 21
238.7759458686
  0
LINE
  5
2C3
100
AcDbEntity
  8
0
100
AcDbLine
 62
7
  6
CONTINUOUS
 10
-55.7849083528
 20
239.8571131814
 11
-54.3773695042
 21
239.659982301
  0
LINE
  5
2C4
100
AcDbEntity
  8
0
100
AcDbLine
 62
7
  6
CONTINUOUS
 10
3.27893064
 20
232.0464633579
 11
15.1072603304
 21
230.3898632234
  0
LINE
  5
2C5
100
AcDbEntity
  8
0
100
AcDbLine
 62
7
  6
CONTINUOUS
 10
26.2275422604
 20
228.840444249
 11
15.7587906954
 21
230.3066305749
  0
LINE
  5
2C6
100
AcDbEntity
  8
0
100
AcDbLine
 62
7
  6
CONTINUOUS
 10
-0.8614629048
 20
233.3947482999
 11
2.5856708793
 21
232.9121400525
  0
LINE
  5
2C7
100
AcDbEntity
  8
0
100
AcDbLine
 62
7
  6
CONTINUOUS
 10
45.0740458711
 20
227.2147915781
 11
47.0865880854
 21
226.9329224592
  0
LINE
  5
2C8
100
AcDbEntity
  8
0
100
AcDbLine
 62
7
  6
CONTINUOUS
 10
-40.0154477088
 20
225.4805937933
 11
-39.9306104078
 21
225.2629422618
  0
LINE
  5
2C9
100
AcDbEntity
  8
0
100
AcDbLine
 62
7
  6
CONTINUOUS
 10
-36.0952613733
 20
273.4928945379
 11
-36.0930641065
 21
273.4738850101
  0
LINE
  5
2CA
100
AcDbEntity
  8
0
100
AcDbLine
 62
7
  6
CONTINUOUS
 10
14.828609071
 20
306.876946048
 11
15.0665497196
 21
307.5727160673
  0
LINE
  5
2CB
100
AcDbEntity
  8
0
100
AcDbLine
 62
7
  6
CONTINUOUS
 10
15.9910287742
 20
307.1885390226
 11
16.2289694228
 21
307.8843090419
  0
LINE
  5
2CC
100
AcDbEntity
  8
0
100
AcDbLine
 62
7
  6
CONTINUOUS
 10
17.8505329704
 20
307.6869893174
 11
17.4936219975
 21
306.6433342884
  0
LINE
  5
2CD
100
AcDbEntity
  8
0
100
AcDbLine
 62
7
  6
CONTINUOUS
 10
-41.2472421003
 20
128.6493285706
 11
-62.3165483679
 21
82.9004879316
  0
LINE
  5
2CE
100
AcDbEntity
  8
0
100
AcDbLine
 62
7
  6
CONTINUOUS
 10
-60.2504325944
 20
83.4543215926
 11
-39.1811263268
 21
129.2031622316
  0
LINE
  5
2CF
100
AcDbEntity
  8
0
100
AcDbLine
 62
7
  6
CONTINUOUS
 10
39.605035183
 20
291.4128940603
 11
45.1115267224
 21
292.7403767639
  0
LINE
  5
2D0
100
AcDbEntity
  8
0
100
AcDbLine
 62
7
  6
CONTINUOUS
 10
-30.6448503521
 20
274.8301002689
 11
-36.1513418914
 21
273.5026175653
  0
LINE
  5
2D1
100
AcDbEntity
  8
0
100
AcDbLine
 62
7
  6
CONTINUOUS
 10
38.8396371316
 20
292.4377651545
 11
44.3247376747
 21
293.7601002202
  0
LINE
  5
2D2
100
AcDbEntity
  8
0
100
AcDbLine
 62
7
  6
CONTINUOUS
 10
25.3145195706
 20
246.6485205155
 11
25.5292927138
 21
246.6280484817
  0
LINE
  5
2D3
100
AcDbEntity
  8
0
100
AcDbLine
 62
7
  6
CONTINUOUS
 10
24.6456016594
 20
246.7517978855
 11
24.4308305348
 21
246.7722843447
  0
LINE
  5
2D4
100
AcDbEntity
  8
0
100
AcDbLine
 62
7
  6
CONTINUOUS
 10
26.0361252042
 20
242.5563767673
 11
24.704181213
 21
242.7314136963
  0
LINE
  5
2D5
100
AcDbEntity
  8
0
100
AcDbLine
 62
7
  6
CONTINUOUS
 10
25.2850095062
 20
243.6614310711
 11
26.1134613532
 21
243.5525603768
  0
LINE
  5
2D6
100
AcDbEntity
  8
0
100
AcDbLine
 62
7
  6
CONTINUOUS
 10
23.6747043488
 20
239.8194711124
 11
24.5583933846
 21
239.6957072831
  0
LINE
  5
2D7
100
AcDbEntity
  8
0
100
AcDbLine
 62
7
  6
CONTINUOUS
 10
21.9881648535
 20
242.8285811394
 11
22.1104901392
 21
242.811449043
  0
LINE
  5
2D8
100
AcDbEntity
  8
0
100
AcDbLine
 62
7
  6
CONTINUOUS
 10
27.8998598103
 20
242.5161231123
 11
27.7775345246
 21
242.5332552087
  0
LINE
  5
2D9
100
AcDbEntity
  8
0
100
AcDbLine
 62
7
  6
CONTINUOUS
 10
22.1878262881
 20
243.8076326525
 11
22.0655010025
 21
243.8247647489
  0
LINE
  5
2DA
100
AcDbEntity
  8
0
100
AcDbLine
 62
7
  6
CONTINUOUS
 10
24.6456036779
 20
246.7518123109
 11
25.5292927138
 21
246.6280484817
  0
LINE
  5
2DB
100
AcDbEntity
  8
0
100
AcDbLine
 62
7
  6
CONTINUOUS
 10
24.1320376125
 20
242.7605997478
 11
25.2055273803
 21
242.5987470234
  0
LINE
  5
2DC
100
AcDbEntity
  8
0
100
AcDbLine
 62
7
  6
CONTINUOUS
 10
-49.4393653315
 20
265.7639047555
 11
-50.4414956283
 21
267.1622865576
  0
LINE
  5
2DD
100
AcDbEntity
  8
0
100
AcDbLine
 62
7
  6
CONTINUOUS
 10
-40.7234330103
 20
252.9337358898
 11
-39.2347655121
 21
250.8528960106
  0
LINE
  5
2DE
100
AcDbEntity
  8
0
100
AcDbLine
 62
7
  6
CONTINUOUS
 10
-42.6236926878
 20
255.734085652
 11
-41.5705691202
 21
254.2611576077
  0
LINE
  5
2DF
100
AcDbEntity
  8
0
100
AcDbLine
 62
7
  6
CONTINUOUS
 10
-41.5705691195
 20
254.2611576076
 11
-40.7232886627
 21
252.9338424321
  0
LINE
  5
2E0
100
AcDbEntity
  8
0
100
AcDbLine
 62
7
  6
CONTINUOUS
 10
-19.919423498
 20
224.7957213666
 11
-21.4784227453
 21
235.1966752108
  0
LINE
  5
2E1
100
AcDbEntity
  8
0
100
AcDbLine
 62
7
  6
CONTINUOUS
 10
-23.398855586
 20
143.9043487606
 11
-24.9501533903
 21
143.4131339292
  0
LINE
  5
2E2
100
AcDbEntity
  8
0
100
AcDbLine
 62
7
  6
CONTINUOUS
 10
-27.529115376
 20
142.5965116318
 11
-29.0804131803
 21
142.1052968004
  0
LINE
  5
2E3
100
AcDbEntity
  8
0
100
AcDbLine
 62
7
  6
CONTINUOUS
 10
12.6121939019
 20
305.334840724
 11
17.4936219975
 21
306.6433342884
  0
LINE
  5
2E4
100
AcDbEntity
  8
0
100
AcDbLine
 62
7
  6
CONTINUOUS
 10
12.9691048748
 20
306.3784957531
 11
14.828609071
 21
306.876946048
  0
LINE
  5
2E5
100
AcDbEntity
  8
0
100
AcDbLine
 62
7
  6
CONTINUOUS
 10
15.9910287742
 20
307.1885390226
 11
17.8505329704
 21
307.6869893174
  0
LINE
  5
2E6
100
AcDbEntity
  8
0
100
AcDbLine
 62
7
  6
CONTINUOUS
 10
25.4498055092
 20
254.7549197306
 11
20.0114930078
 21
255.5165749648
  0
LINE
  5
2E7
100
AcDbEntity
  8
0
100
AcDbLine
 62
7
  6
CONTINUOUS
 10
27.7251578968
 20
254.9002056452
 11
22.2868453955
 21
255.6618608794
  0
LINE
  5
2E8
100
AcDbEntity
  8
0
100
AcDbLine
 62
7
  6
CONTINUOUS
 10
20.2638859688
 20
257.3847568765
 11
17.6637321514
 21
257.7489177747
  0
LINE
  5
2E9
100
AcDbEntity
  8
0
100
AcDbLine
 62
7
  6
CONTINUOUS
 10
18.3857920806
 20
258.2277371883
 11
23.108076454
 21
257.5663642699
  0
LINE
  5
2EA
100
AcDbEntity
  8
0
100
AcDbLine
 62
7
  6
CONTINUOUS
 10
-13.1425328459
 20
241.1271527978
 11
-13.8391040664
 21
244.6545000316
  0
LINE
  5
2EB
100
AcDbEntity
  8
0
100
AcDbLine
 62
7
  6
CONTINUOUS
 10
-9.9271550257
 20
235.388510074
 11
-8.6854101474
 21
227.1041371422
  0
LINE
  5
2EC
100
AcDbEntity
  8
0
100
AcDbLine
 62
7
  6
CONTINUOUS
 10
-6.8279813654
 20
236.2192605654
 11
-5.8566013125
 21
229.7386422376
  0
LINE
  5
2ED
100
AcDbEntity
  8
0
100
AcDbLine
 62
7
  6
CONTINUOUS
 10
5.0430254622
 20
169.4785231423
 11
3.5348935311
 21
166.926542484
  0
LINE
  5
2EE
100
AcDbEntity
  8
0
100
AcDbLine
 62
7
  6
CONTINUOUS
 10
16.2289694228
 20
307.8843090419
 11
15.0665497196
 21
307.5727160673
  0
LINE
  5
2EF
100
AcDbEntity
  8
0
100
AcDbLine
 62
7
  6
CONTINUOUS
 10
-8.227295446
 20
240.3273055312
 11
-12.4274589391
 21
245.9513414781
  0
LINE
  5
2F0
100
AcDbEntity
  8
0
100
AcDbLine
 62
7
  6
CONTINUOUS
 10
-12.3041111588
 20
246.7266949453
 11
-20.7492087565
 21
258.0355229574
  0
LINE
  5
2F1
100
AcDbEntity
  8
0
100
AcDbLine
 62
7
  6
CONTINUOUS
 10
-29.9485231881
 20
271.5649216528
 11
-28.1625944015
 21
269.1735557664
  0
LINE
  5
2F2
100
AcDbEntity
  8
0
100
AcDbLine
 62
7
  6
CONTINUOUS
 10
-10.1317623937
 20
246.8618397665
 11
-9.9451393065
 21
246.6119487485
  0
LINE
  5
2F3
100
AcDbEntity
  8
0
100
AcDbLine
 62
7
  6
CONTINUOUS
 10
-21.670492717
 20
263.0024747134
 11
-21.1602273493
 21
262.3192273173
  0
LINE
  5
2F4
100
AcDbEntity
  8
0
100
AcDbLine
 62
7
  6
CONTINUOUS
 10
-19.0180359702
 20
263.0977018246
 11
-18.507770617
 21
262.4144543864
  0
LINE
  5
2F5
100
AcDbEntity
  8
0
100
AcDbLine
 62
7
  6
CONTINUOUS
 10
-17.3433459948
 20
262.5267286839
 11
-16.7010963679
 21
261.6667538294
  0
LINE
  5
2F6
100
AcDbEntity
  8
0
100
AcDbLine
 62
7
  6
CONTINUOUS
 10
-18.5138736865
 20
262.3966082018
 11
-10.1317623937
 21
246.8618397665
  0
LINE
  5
2F7
100
AcDbEntity
  8
0
100
AcDbLine
 62
7
  6
CONTINUOUS
 10
-8.8920929296
 20
247.1941399631
 11
-16.7010963679
 21
261.6667538294
  0
LINE
  5
2F8
100
AcDbEntity
  8
0
100
AcDbLine
 62
7
  6
CONTINUOUS
 10
3.9684991863
 20
223.686520848
 11
2.5856708793
 21
232.9121400525
  0
LINE
  5
2F9
100
AcDbEntity
  8
0
100
AcDbLine
 62
7
  6
CONTINUOUS
 10
3.27893064
 20
232.0464633579
 11
2.9025604028
 21
234.557439211
  0
LINE
  5
2FA
100
AcDbEntity
  8
0
100
AcDbLine
 62
7
  6
CONTINUOUS
 10
15.3722987475
 20
151.7827216039
 11
16.699007023
 21
142.9315104432
  0
LINE
  5
2FB
100
AcDbEntity
  8
0
100
AcDbLine
 62
7
  6
CONTINUOUS
 10
17.2503375749
 20
151.6854033541
 11
18.6024163984
 21
142.6649311112
  0
LINE
  5
2FC
100
AcDbEntity
  8
0
100
AcDbLine
 62
7
  6
CONTINUOUS
 10
21.2862442692
 20
142.970956279
 11
21.2862442692
 21
105.5487282261
  0
LINE
  5
2FD
100
AcDbEntity
  8
0
100
AcDbLine
 62
7
  6
CONTINUOUS
 10
-24.3112903741
 20
291.9283886021
 11
-20.4403312892
 21
290.7106081899
  0
LINE
  5
2FE
100
AcDbEntity
  8
0
100
AcDbLine
 62
7
  6
CONTINUOUS
 10
33.271475205
 20
274.3146057271
 11
29.4005161202
 21
275.5323861393
  0
LINE
  5
2FF
100
AcDbEntity
  8
0
100
AcDbLine
 62
7
  6
CONTINUOUS
 10
3.5046017119
 20
250.5171419288
 11
-6.3990227051
 21
263.7781351778
  0
LINE
  5
300
100
AcDbEntity
  8
0
100
AcDbLine
 62
7
  6
CONTINUOUS
 10
4.744271176
 20
250.8494421254
 11
4.928370424
 21
250.602932486
  0
LINE
  5
301
100
AcDbEntity
  8
0
100
AcDbLine
 62
7
  6
CONTINUOUS
 10
-4.3044017265
 20
264.9897557951
 11
-4.9466513534
 21
265.8497306496
  0
LINE
  5
302
100
AcDbEntity
  8
0
100
AcDbLine
 62
7
  6
CONTINUOUS
 10
11.6074159802
 20
245.6441086763
 11
7.4072524872
 21
251.2681446233
  0
LINE
  5
303
100
AcDbEntity
  8
0
100
AcDbLine
 62
7
  6
CONTINUOUS
 10
-3.6317370471
 20
266.402056746
 11
-4.1420023999
 21
267.0853041853
  0
LINE
  5
304
100
AcDbEntity
  8
0
100
AcDbLine
 62
7
  6
CONTINUOUS
 10
-20.4403312892
 20
290.7106081899
 11
-21.971127392
 21
292.7603503783
  0
LINE
  5
305
100
AcDbEntity
  8
0
100
AcDbLine
 62
7
  6
CONTINUOUS
 10
-0.5156051567
 20
267.8531314839
 11
-1.0258705243
 21
268.53637888
  0
LINE
  5
306
100
AcDbEntity
  8
0
100
AcDbLine
 62
7
  6
CONTINUOUS
 10
-4.3044017265
 20
264.9897557951
 11
3.5046017119
 21
250.5171419288
  0
LINE
  5
307
100
AcDbEntity
  8
0
100
AcDbLine
 62
7
  6
CONTINUOUS
 10
4.744271176
 20
250.8494421254
 11
-3.6378401168
 21
266.3842105606
  0
LINE
  5
308
100
AcDbEntity
  8
0
100
AcDbLine
 62
7
  6
CONTINUOUS
 10
22.1497804378
 20
152.8494695141
 11
21.880215392
 21
154.6478883418
  0
LINE
  5
309
100
AcDbEntity
  8
0
100
AcDbLine
 62
7
  6
CONTINUOUS
 10
15.1072603304
 20
230.3898632234
 11
13.4199532157
 21
241.6468304424
  0
LINE
  5
30A
100
AcDbEntity
  8
0
100
AcDbLine
 62
7
  6
CONTINUOUS
 10
16.519126876
 20
242.4775809341
 11
18.355188094
 21
230.2281920924
  0
LINE
  5
30B
100
AcDbEntity
  8
0
100
AcDbLine
 62
7
  6
CONTINUOUS
 10
30.1446784863
 20
156.8632229857
 11
30.414243532
 21
155.0648041579
  0
LINE
  5
30C
100
AcDbEntity
  8
0
100
AcDbLine
 62
7
  6
CONTINUOUS
 10
-21.971127392
 20
292.7603503783
 11
-23.1685431641
 21
293.1370910658
  0
LINE
  5
30D
100
AcDbEntity
  8
0
100
AcDbLine
 62
7
  6
CONTINUOUS
 10
44.7031740801
 20
151.6888088664
 11
44.4967136029
 21
153.0662219068
  0
LINE
  5
30E
100
AcDbEntity
  8
0
100
AcDbLine
 62
7
  6
CONTINUOUS
 10
42.6370583065
 20
151.1349752054
 11
21.5677520389
 21
105.3861345664
  0
LINE
  5
30F
100
AcDbEntity
  8
0
100
AcDbLine
 62
7
  6
CONTINUOUS
 10
36.7946075952
 20
224.9491583988
 11
33.2271291389
 21
248.7497977048
  0
LINE
  5
310
100
AcDbEntity
  8
0
100
AcDbLine
 62
7
  6
CONTINUOUS
 10
23.6338678124
 20
105.9399682273
 11
44.7031740801
 21
151.6888088664
  0
LINE
  5
311
100
AcDbEntity
  8
0
100
AcDbLine
 62
7
  6
CONTINUOUS
 10
12.6121939019
 20
305.334840724
 11
5.0529835432
 21
313.1149376393
  0
LINE
  5
312
100
AcDbEntity
  8
0
100
AcDbLine
 62
7
  6
CONTINUOUS
 10
12.9691048748
 20
306.3784957531
 11
6.9226897416
 21
314.4110513432
  0
LINE
  5
313
100
AcDbEntity
  8
0
100
AcDbLine
 62
7
  6
CONTINUOUS
 10
14.828609071
 20
306.876946048
 11
8.6082702398
 21
315.1405561955
  0
LINE
  5
314
100
AcDbEntity
  8
0
100
AcDbLine
 62
7
  6
CONTINUOUS
 10
29.4005161202
 20
275.5323861393
 11
27.8697200173
 21
277.5821283276
  0
LINE
  5
315
100
AcDbEntity
  8
0
100
AcDbLine
 62
7
  6
CONTINUOUS
 10
15.0665497196
 20
307.5727160673
 11
9.3236068426
 21
315.3986646704
  0
LINE
  5
316
100
AcDbEntity
  8
0
100
AcDbLine
 62
7
  6
CONTINUOUS
 10
17.8505329704
 20
307.6869893174
 11
11.7997999389
 21
316.2921271623
  0
LINE
  5
317
100
AcDbEntity
  8
0
100
AcDbLine
 62
7
  6
CONTINUOUS
 10
10.7312948806
 20
315.9065880889
 11
16.2289694228
 21
307.8843090419
  0
LINE
  5
318
100
AcDbEntity
  8
0
100
AcDbLine
 62
7
  6
CONTINUOUS
 10
45.1115363171
 20
292.7404021234
 11
44.3247376747
 21
293.7601002202
  0
LINE
  5
319
100
AcDbEntity
  8
0
100
AcDbLine
 62
7
  6
CONTINUOUS
 10
38.8396371316
 20
292.4377651545
 11
39.605035183
 21
291.4128940603
  0
LINE
  5
31A
100
AcDbEntity
  8
0
100
AcDbLine
 62
7
  6
CONTINUOUS
 10
25.3356492408
 20
312.852453413
 11
27.1215780274
 21
310.4610875266
  0
LINE
  5
31B
100
AcDbEntity
  8
0
100
AcDbLine
 62
7
  6
CONTINUOUS
 10
46.2592659957
 20
317.8944794447
 11
47.8318407695
 21
315.8763035098
  0
ARC
  5
31C
100
AcDbEntity
  8
0
100
AcDbCircle
 62
7
  6
CONTINUOUS
 10
-99.9196238856
 20
195.2173860513
 40
36.9691452161
100
AcDbArc
 50
141.1565071893
 51
158.2604317952
  0
ARC
  5
31D
100
AcDbEntity
  8
0
100
AcDbCircle
 62
7
  6
CONTINUOUS
 10
-52.2458283681
 20
208.6430461137
 40
28.020111369
100
AcDbArc
 50
148.0350666603
 51
155.4754491427
  0
ARC
  5
31E
100
AcDbEntity
  8
0
100
AcDbCircle
 62
7
  6
CONTINUOUS
 10
-116.8443112479
 20
204.1983687218
 40
24.5585030115
100
AcDbArc
 50
104.9290873399
 51
105.8337404835
  0
ARC
  5
31F
100
AcDbEntity
  8
0
100
AcDbCircle
 62
7
  6
CONTINUOUS
 10
-50.8936487235
 20
223.8169835883
 40
12.6898241941
100
AcDbArc
 50
11.668989847
 51
19.3367724936
  0
ARC
  5
320
100
AcDbEntity
  8
0
100
AcDbCircle
 62
7
  6
CONTINUOUS
 10
-135.9784687216
 20
196.2180572259
 40
5.8
100
AcDbArc
 50
110.7907389647
 51
119.8457002033
  0
ARC
  5
321
100
AcDbEntity
  8
0
100
AcDbCircle
 62
7
  6
CONTINUOUS
 10
-135.9784687216
 20
196.2180572259
 40
5.8
100
AcDbArc
 50
75.0283751593
 51
99.2227855315
  0
ARC
  5
322
100
AcDbEntity
  8
0
100
AcDbCircle
 62
7
  6
CONTINUOUS
 10
-63.912479675
 20
154.5940803412
 40
5.8
100
AcDbArc
 50
113.1304959837
 51
119.8457002033
  0
ARC
  5
323
100
AcDbEntity
  8
0
100
AcDbCircle
 62
7
  6
CONTINUOUS
 10
-149.0546282484
 20
195.6160238789
 40
1.1799051649
100
AcDbArc
 50
180.0222702705
 51
190.6532679888
  0
ARC
  5
324
100
AcDbEntity
  8
0
100
AcDbCircle
 62
7
  6
CONTINUOUS
 10
-24.9844069772
 20
32.4875185385
 40
193.9170643445
100
AcDbArc
 50
93.6530021402
 51
93.8698388121
  0
ARC
  5
325
100
AcDbEntity
  8
0
100
AcDbCircle
 62
7
  6
CONTINUOUS
 10
-11.0262647557
 20
-38.175624805
 40
182.1218053209
100
AcDbArc
 50
94.3847539101
 51
94.6153326829
  0
ARC
  5
326
100
AcDbEntity
  8
0
100
AcDbCircle
 62
7
  6
CONTINUOUS
 10
14.1878575203
 20
63.8874785716
 40
179.152857066
100
AcDbArc
 50
86.3927782577
 51
86.6347869485
  0
ARC
  5
327
100
AcDbEntity
  8
0
100
AcDbCircle
 62
7
  6
CONTINUOUS
 10
0.2256413548
 20
203.949566736
 40
28.2805233042
100
AcDbArc
 50
96.4207957704
 51
102.9679731082
  0
ARC
  5
328
100
AcDbEntity
  8
0
100
AcDbCircle
 62
7
  6
CONTINUOUS
 10
0.1642406314
 20
205.0747963189
 40
27.1509137363
100
AcDbArc
 50
83.4126580914
 51
84.6106819414
  0
ARC
  5
329
100
AcDbEntity
  8
0
100
AcDbCircle
 62
7
  6
CONTINUOUS
 10
-1.2159601024
 20
150.9102161316
 40
26.3725416664
100
AcDbArc
 50
197.0927650564
 51
197.7879267708
  0
ARC
  5
32A
100
AcDbEntity
  8
0
100
AcDbCircle
 62
7
  6
CONTINUOUS
 10
-38.5887282411
 20
140.8965176493
 40
12.8195503537
100
AcDbArc
 50
12.7928093608
 51
20.3836115156
  0
ARC
  5
32B
100
AcDbEntity
  8
0
100
AcDbCircle
 62
7
  6
CONTINUOUS
 10
-35.1821197301
 20
141.6324523756
 40
10.1871676957
100
AcDbArc
 50
13.3994378964
 51
22.9544722229
  0
ARC
  5
32C
100
AcDbEntity
  8
0
100
AcDbCircle
 62
7
  6
CONTINUOUS
 10
-31.22240652
 20
139.7190112961
 40
8.2681004665
100
AcDbArc
 50
199.2957401926
 51
202.9653162931
  0
ARC
  5
32D
100
AcDbEntity
  8
0
100
AcDbCircle
 62
7
  6
CONTINUOUS
 10
-31.6473442234
 20
139.5294831083
 40
7.8028987286
100
AcDbArc
 50
202.9013829623
 51
210.7322919429
  0
ARC
  5
32E
100
AcDbEntity
  8
0
100
AcDbCircle
 62
7
  6
CONTINUOUS
 10
-31.9534585529
 20
139.3499670706
 40
7.4480364316
100
AcDbArc
 50
210.7486561722
 51
215.3697143789
  0
ARC
  5
32F
100
AcDbEntity
  8
0
100
AcDbCircle
 62
7
  6
CONTINUOUS
 10
-32.3581590989
 20
139.055518125
 40
6.9475905123
100
AcDbArc
 50
215.3215309372
 51
223.0622367282
  0
ARC
  5
330
100
AcDbEntity
  8
0
100
AcDbCircle
 62
7
  6
CONTINUOUS
 10
-32.5823776571
 20
138.8479652543
 40
6.6420582807
100
AcDbArc
 50
223.0747793202
 51
228.2897268486
  0
ARC
  5
331
100
AcDbEntity
  8
0
100
AcDbCircle
 62
7
  6
CONTINUOUS
 10
-35.3772457975
 20
138.4873703582
 40
6.3032353239
100
AcDbArc
 50
283.4813247604
 51
285.0062061389
  0
ARC
  5
332
100
AcDbEntity
  8
0
100
AcDbCircle
 62
7
  6
CONTINUOUS
 10
-34.822809724
 20
138.3681691499
 40
6.2589214761
100
AcDbArc
 50
278.5920078749
 51
285.0144429756
  0
ARC
  5
333
100
AcDbEntity
  8
0
100
AcDbCircle
 62
7
  6
CONTINUOUS
 10
-32.850649601
 20
138.5414472361
 40
6.2347393206
100
AcDbArc
 50
228.2559448521
 51
236.3979003017
  0
ARC
  5
334
100
AcDbEntity
  8
0
100
AcDbCircle
 62
7
  6
CONTINUOUS
 10
-34.7909483277
 20
138.1369257472
 40
6.025514023
100
AcDbArc
 50
262.1019618935
 51
278.6209466217
  0
ARC
  5
335
100
AcDbEntity
  8
0
100
AcDbCircle
 62
7
  6
CONTINUOUS
 10
-32.9716666253
 20
138.3607163636
 40
6.0172349608
100
AcDbArc
 50
236.4052773497
 51
241.1555433415
  0
ARC
  5
336
100
AcDbEntity
  8
0
100
AcDbCircle
 62
7
  6
CONTINUOUS
 10
-35.3378054254
 20
138.1390223868
 40
5.951757678
100
AcDbArc
 50
264.6123436174
 51
269.9089024724
  0
ARC
  5
337
100
AcDbEntity
  8
0
100
AcDbCircle
 62
7
  6
CONTINUOUS
 10
-34.7932870617
 20
138.0608025212
 40
5.9497970954
100
AcDbArc
 50
254.5391371929
 51
262.0235401352
  0
ARC
  5
338
100
AcDbEntity
  8
0
100
AcDbCircle
 62
7
  6
CONTINUOUS
 10
-33.0229543018
 20
138.2701853966
 40
5.9131931744
100
AcDbArc
 50
241.1676491887
 51
242.0031580462
  0
ARC
  5
339
100
AcDbEntity
  8
0
100
AcDbCircle
 62
7
  6
CONTINUOUS
 10
-33.0920445859
 20
138.1320641644
 40
5.7588045049
100
AcDbArc
 50
241.9650287314
 51
250.7273213036
  0
ARC
  5
33A
100
AcDbEntity
  8
0
100
AcDbCircle
 62
7
  6
CONTINUOUS
 10
-33.1280311369
 20
138.0299947082
 40
5.6505773103
100
AcDbArc
 50
250.7301637414
 51
257.3315414712
  0
ARC
  5
33B
100
AcDbEntity
  8
0
100
AcDbCircle
 62
7
  6
CONTINUOUS
 10
-33.1429197804
 20
137.9695958828
 40
5.5883837999
100
AcDbArc
 50
257.3446666296
 51
262.0268892232
  0
ARC
  5
33C
100
AcDbEntity
  8
0
100
AcDbCircle
 62
7
  6
CONTINUOUS
 10
-2.4119455122
 20
196.5281661904
 40
3.4193873541
100
AcDbArc
 50
220.9084289014
 51
222.6059370628
  0
ARC
  5
33D
100
AcDbEntity
  8
0
100
AcDbCircle
 62
7
  6
CONTINUOUS
 10
-26.5031924716
 20
143.4219519266
 40
1.2466704963
100
AcDbArc
 50
202.6636096714
 51
207.1143928393
  0
ARC
  5
33E
100
AcDbEntity
  8
0
100
AcDbCircle
 62
7
  6
CONTINUOUS
 10
-26.5529702275
 20
143.3958141611
 40
1.190450768
100
AcDbArc
 50
207.0865716971
 51
212.2456726946
  0
ARC
  5
33F
100
AcDbEntity
  8
0
100
AcDbCircle
 62
7
  6
CONTINUOUS
 10
-47.5264061679
 20
224.4708755569
 40
10.1102922492
100
AcDbArc
 50
12.2723040408
 51
21.9010445958
  0
ARC
  5
340
100
AcDbEntity
  8
0
100
AcDbCircle
 62
7
  6
CONTINUOUS
 10
-45.1982942591
 20
228.5989846998
 40
9.6333116844
100
AcDbArc
 50
187.3866554495
 51
188.5235524502
  0
ARC
  5
341
100
AcDbEntity
  8
0
100
AcDbCircle
 62
7
  6
CONTINUOUS
 10
-43.2140835107
 20
228.4256849338
 40
9.5685629164
100
AcDbArc
 50
168.0237778454
 51
174.8423529528
  0
ARC
  5
342
100
AcDbEntity
  8
0
100
AcDbCircle
 62
7
  6
CONTINUOUS
 10
-43.2546443853
 20
228.429063146
 40
9.5278625829
100
AcDbArc
 50
174.8406586957
 51
178.179215974
  0
ARC
  5
343
100
AcDbEntity
  8
0
100
AcDbCircle
 62
7
  6
CONTINUOUS
 10
-43.2616793503
 20
228.4351368985
 40
9.5200417414
100
AcDbArc
 50
164.0921418967
 51
168.0199851548
  0
ARC
  5
344
100
AcDbEntity
  8
0
100
AcDbCircle
 62
7
  6
CONTINUOUS
 10
-43.416810633
 20
228.4802084779
 40
9.3584977253
100
AcDbArc
 50
157.7702500145
 51
164.0971952593
  0
ARC
  5
345
100
AcDbEntity
  8
0
100
AcDbCircle
 62
7
  6
CONTINUOUS
 10
-43.474708096
 20
228.4286170397
 40
9.3079271285
100
AcDbArc
 50
178.1334304634
 51
188.4961001204
  0
ARC
  5
346
100
AcDbEntity
  8
0
100
AcDbCircle
 62
7
  6
CONTINUOUS
 10
-43.6469882257
 20
228.5715201962
 40
9.110883424
100
AcDbArc
 50
153.5252857173
 51
157.7541746717
  0
ARC
  5
347
100
AcDbEntity
  8
0
100
AcDbCircle
 62
7
  6
CONTINUOUS
 10
-43.9208890956
 20
228.7086686437
 40
8.8045650727
100
AcDbArc
 50
147.0810795582
 51
153.5295811497
  0
ARC
  5
348
100
AcDbEntity
  8
0
100
AcDbCircle
 62
7
  6
CONTINUOUS
 10
-44.2450250978
 20
228.914272934
 40
8.4207369562
100
AcDbArc
 50
142.59997485
 51
147.0568589132
  0
ARC
  5
349
100
AcDbEntity
  8
0
100
AcDbCircle
 62
7
  6
CONTINUOUS
 10
-44.5597034015
 20
229.1555680392
 40
8.024195113
100
AcDbArc
 50
135.5988051818
 51
142.603974792
  0
ARC
  5
34A
100
AcDbEntity
  8
0
100
AcDbCircle
 62
7
  6
CONTINUOUS
 10
-44.8581248766
 20
229.4396438321
 40
7.6122260648
100
AcDbArc
 50
131.0009065495
 51
135.5548579087
  0
ARC
  5
34B
100
AcDbEntity
  8
0
100
AcDbCircle
 62
7
  6
CONTINUOUS
 10
-45.1488896401
 20
229.774162639
 40
7.1690026685
100
AcDbArc
 50
122.749207634
 51
131.0011314797
  0
ARC
  5
34C
100
AcDbEntity
  8
0
100
AcDbCircle
 62
7
  6
CONTINUOUS
 10
-45.3908799931
 20
230.1367304432
 40
6.733162554
100
AcDbArc
 50
118.4784315094
 51
122.6863273502
  0
ARC
  5
34D
100
AcDbEntity
  8
0
100
AcDbCircle
 62
7
  6
CONTINUOUS
 10
-47.2622763796
 20
231.0715428223
 40
6.4672855756
100
AcDbArc
 50
105.0265289193
 51
110.210710643
  0
ARC
  5
34E
100
AcDbEntity
  8
0
100
AcDbCircle
 62
7
  6
CONTINUOUS
 10
-38.8886631528
 20
226.0569866807
 40
1.2473777526
100
AcDbArc
 50
202.7674906788
 51
207.1332754638
  0
ARC
  5
34F
100
AcDbEntity
  8
0
100
AcDbCircle
 62
7
  6
CONTINUOUS
 10
-38.932725613
 20
226.0341029422
 40
1.197728081
100
AcDbArc
 50
207.1203531058
 51
210.9726175182
  0
ARC
  5
350
100
AcDbEntity
  8
0
100
AcDbCircle
 62
7
  6
CONTINUOUS
 10
-36.2754380545
 20
273.1255469413
 40
15.3700247752
100
AcDbArc
 50
202.8288599643
 51
209.3355496774
  0
ARC
  5
351
100
AcDbEntity
  8
0
100
AcDbCircle
 62
7
  6
CONTINUOUS
 10
-14.4064862541
 20
232.7776501706
 40
25.3935638152
100
AcDbArc
 50
195.9882524037
 51
196.6617288999
  0
ARC
  5
352
100
AcDbEntity
  8
0
100
AcDbCircle
 62
7
  6
CONTINUOUS
 10
-15.8927141902
 20
234.8818418217
 40
9.3753465219
100
AcDbArc
 50
5.6505106254
 51
8.3789191003
  0
ARC
  5
353
100
AcDbEntity
  8
0
100
AcDbCircle
 62
7
  6
CONTINUOUS
 10
-10.0635867009
 20
236.5168981918
 40
3.8497766977
100
AcDbArc
 50
189.7525344401
 51
196.8446733468
  0
ARC
  5
354
100
AcDbEntity
  8
0
100
AcDbCircle
 62
7
  6
CONTINUOUS
 10
-15.4983568355
 20
235.0604932238
 40
3.8471226385
100
AcDbArc
 50
9.7496785489
 51
16.8469457636
  0
ARC
  5
355
100
AcDbEntity
  8
0
100
AcDbCircle
 62
7
  6
CONTINUOUS
 10
-15.483777267
 20
235.0653309286
 40
3.8317667674
100
AcDbArc
 50
16.8408945242
 51
18.5960935884
  0
ARC
  5
356
100
AcDbEntity
  8
0
100
AcDbCircle
 62
7
  6
CONTINUOUS
 10
-10.1087824757
 20
236.5018181085
 40
3.8021504562
100
AcDbArc
 50
196.8245361095
 51
198.5935205676
  0
ARC
  5
357
100
AcDbEntity
  8
0
100
AcDbCircle
 62
7
  6
CONTINUOUS
 10
-15.3559680468
 20
235.0870850753
 40
3.7022877927
100
AcDbArc
 50
8.5054954429
 51
9.7172552125
  0
ARC
  5
358
100
AcDbEntity
  8
0
100
AcDbCircle
 62
7
  6
CONTINUOUS
 10
-10.2495760712
 20
236.4835433574
 40
3.6608253169
100
AcDbArc
 50
188.527359093
 51
189.7311317248
  0
ARC
  5
359
100
AcDbEntity
  8
0
100
AcDbCircle
 62
7
  6
CONTINUOUS
 10
-15.3022738438
 20
235.0952059904
 40
3.6479830187
100
AcDbArc
 50
7.9362938108
 51
8.5040819396
  0
ARC
  5
35A
100
AcDbEntity
  8
0
100
AcDbCircle
 62
7
  6
CONTINUOUS
 10
-10.3079966004
 20
236.4746221285
 40
3.6017277657
100
AcDbArc
 50
187.9275523338
 51
188.524815213
  0
ARC
  5
35B
100
AcDbEntity
  8
0
100
AcDbCircle
 62
7
  6
CONTINUOUS
 10
-15.2479074839
 20
235.1027084957
 40
3.5931014841
100
AcDbArc
 50
6.934871905
 51
7.9375028678
  0
ARC
  5
35C
100
AcDbEntity
  8
0
100
AcDbCircle
 62
7
  6
CONTINUOUS
 10
-14.8629430188
 20
235.339680827
 40
3.1521718858
100
AcDbArc
 50
27.1998999208
 51
29.2189981803
  0
ARC
  5
35D
100
AcDbEntity
  8
0
100
AcDbCircle
 62
7
  6
CONTINUOUS
 10
-10.7051735185
 20
236.2354811999
 40
3.1482597256
100
AcDbArc
 50
207.2038303933
 51
209.2253898342
  0
ARC
  5
35E
100
AcDbEntity
  8
0
100
AcDbCircle
 62
7
  6
CONTINUOUS
 10
-10.9730935438
 20
236.4400747669
 40
2.9351718359
100
AcDbArc
 50
178.7480842993
 51
179.9253865403
  0
ARC
  5
35F
100
AcDbEntity
  8
0
100
AcDbCircle
 62
7
  6
CONTINUOUS
 10
-14.5880455642
 20
235.1378212973
 40
2.9318075598
100
AcDbArc
 50
358.7242239851
 51
0.0035789906
  0
ARC
  5
360
100
AcDbEntity
  8
0
100
AcDbCircle
 62
7
  6
CONTINUOUS
 10
-11.077476617
 20
236.4422391077
 40
2.8307663945
100
AcDbArc
 50
177.984942034
 51
178.7457208333
  0
ARC
  5
361
100
AcDbEntity
  8
0
100
AcDbCircle
 62
7
  6
CONTINUOUS
 10
-14.4622201023
 20
235.1349098946
 40
2.8059484693
100
AcDbArc
 50
356.5438600784
 51
358.7264542083
  0
ARC
  5
362
100
AcDbEntity
  8
0
100
AcDbCircle
 62
7
  6
CONTINUOUS
 10
-11.1776381366
 20
236.4459237773
 40
2.7305372565
100
AcDbArc
 50
176.5337257841
 51
177.9883097977
  0
ARC
  5
363
100
AcDbEntity
  8
0
100
AcDbCircle
 62
7
  6
CONTINUOUS
 10
-11.5137445093
 20
235.6934742259
 40
2.1734395295
100
AcDbArc
 50
217.9490415515
 51
220.5755940248
  0
ARC
  5
364
100
AcDbEntity
  8
0
100
AcDbCircle
 62
7
  6
CONTINUOUS
 10
-14.0489866948
 20
235.8846483312
 40
2.1711858944
100
AcDbArc
 50
37.9502245998
 51
40.5793589604
  0
ARC
  5
365
100
AcDbEntity
  8
0
100
AcDbCircle
 62
7
  6
CONTINUOUS
 10
-13.4455845316
 20
234.9889785475
 40
1.7769328247
100
AcDbArc
 50
343.5509894684
 51
346.2363201615
  0
ARC
  5
366
100
AcDbEntity
  8
0
100
AcDbCircle
 62
7
  6
CONTINUOUS
 10
-12.1427087052
 20
236.5939799042
 40
1.7523800156
100
AcDbArc
 50
163.525783475
 51
166.2485454279
  0
ARC
  5
367
100
AcDbEntity
  8
0
100
AcDbCircle
 62
7
  6
CONTINUOUS
 10
-12.1987251445
 20
234.9557855688
 40
1.1630597734
100
AcDbArc
 50
235.0371443068
 51
238.7423575391
  0
ARC
  5
368
100
AcDbEntity
  8
0
100
AcDbCircle
 62
7
  6
CONTINUOUS
 10
-13.3638111302
 20
236.6241252598
 40
1.1593399559
100
AcDbArc
 50
55.0293128034
 51
58.7464257352
  0
ARC
  5
369
100
AcDbEntity
  8
0
100
AcDbCircle
 62
7
  6
CONTINUOUS
 10
-12.6498933335
 20
234.642452281
 40
0.9047175771
100
AcDbArc
 50
321.5893016909
 51
326.342063562
  0
ARC
  5
36A
100
AcDbEntity
  8
0
100
AcDbCircle
 62
7
  6
CONTINUOUS
 10
-12.9269928127
 20
236.9433512922
 40
0.8894092677
100
AcDbArc
 50
141.5520147995
 51
146.3868827309
  0
ARC
  5
36B
100
AcDbEntity
  8
0
100
AcDbCircle
 62
7
  6
CONTINUOUS
 10
-12.4013197108
 20
234.4849503419
 40
0.6471102248
100
AcDbArc
 50
257.7871050676
 51
264.2881196532
  0
ARC
  5
36C
100
AcDbEntity
  8
0
100
AcDbCircle
 62
7
  6
CONTINUOUS
 10
-12.4111774312
 20
234.3940184514
 40
0.5572641785
100
AcDbArc
 50
291.4055714575
 51
299.4361574288
  0
ARC
  5
36D
100
AcDbEntity
  8
0
100
AcDbCircle
 62
7
  6
CONTINUOUS
 10
-13.1547269573
 20
237.1854073705
 40
0.5542538348
100
AcDbArc
 50
111.3749370812
 51
119.4490698061
  0
ARC
  5
36E
100
AcDbEntity
  8
0
100
AcDbCircle
 62
7
  6
CONTINUOUS
 10
-13.160807766
 20
237.1998760929
 40
0.5385642101
100
AcDbArc
 50
104.9873144041
 51
111.333538527
  0
ARC
  5
36F
100
AcDbEntity
  8
0
100
AcDbCircle
 62
7
  6
CONTINUOUS
 10
-12.403627175
 20
234.375856273
 40
0.5375993738
100
AcDbArc
 50
285.004918978
 51
291.3628510372
  0
ARC
  5
370
100
AcDbEntity
  8
0
100
AcDbCircle
 62
7
  6
CONTINUOUS
 10
-21.9278559458
 20
273.843530321
 40
29.9117187758
100
AcDbArc
 50
169.0142882701
 51
173.1788509209
  0
ARC
  5
371
100
AcDbEntity
  8
0
100
AcDbCircle
 62
7
  6
CONTINUOUS
 10
-16.853298658
 20
262.9914489351
 40
26.8882500788
100
AcDbArc
 50
173.3399803707
 51
176.1965974985
  0
ARC
  5
372
100
AcDbEntity
  8
0
100
AcDbCircle
 62
7
  6
CONTINUOUS
 10
-26.6420221054
 20
259.77982035
 40
15.4399841447
100
AcDbArc
 50
205.1440827073
 51
205.8695256993
  0
ARC
  5
373
100
AcDbEntity
  8
0
100
AcDbCircle
 62
7
  6
CONTINUOUS
 10
-27.0422043592
 20
259.5714389506
 40
14.9889880528
100
AcDbArc
 50
205.82025081
 51
215.5674441115
  0
ARC
  5
374
100
AcDbEntity
  8
0
100
AcDbCircle
 62
7
  6
CONTINUOUS
 10
-25.5641342977
 20
274.8427867807
 40
10.9742841323
100
AcDbArc
 50
221.2171038223
 51
221.5658396693
  0
ARC
  5
375
100
AcDbEntity
  8
0
100
AcDbCircle
 62
7
  6
CONTINUOUS
 10
-25.5793928062
 20
274.8294886398
 40
10.9540440722
100
AcDbArc
 50
219.8191889479
 51
221.2173702734
  0
ARC
  5
376
100
AcDbEntity
  8
0
100
AcDbCircle
 62
7
  6
CONTINUOUS
 10
20.6139621314
 20
158.406804661
 40
84.4271259764
100
AcDbArc
 50
87.6117953262
 51
87.9970356303
  0
ARC
  5
377
100
AcDbEntity
  8
0
100
AcDbCircle
 62
7
  6
CONTINUOUS
 10
3.5700782527
 20
197.3810835301
 40
35.7333022866
100
AcDbArc
 50
130.0164877193
 51
130.5422001888
  0
ARC
  5
378
100
AcDbEntity
  8
0
100
AcDbCircle
 62
7
  6
CONTINUOUS
 10
14.6909128883
 20
192.8140945736
 40
26.8788939644
100
AcDbArc
 50
20.3404917823
 51
25.4297517828
  0
ARC
  5
379
100
AcDbEntity
  8
0
100
AcDbCircle
 62
7
  6
CONTINUOUS
 10
19.3463210947
 20
179.7382117802
 40
25.2179489759
100
AcDbArc
 50
262.037001036
 51
275.7667997619
  0
ARC
  5
37A
100
AcDbEntity
  8
0
100
AcDbCircle
 62
7
  6
CONTINUOUS
 10
18.8218314058
 20
183.7110064436
 40
19.7212782866
100
AcDbArc
 50
236.003965078
 51
243.4085881182
  0
ARC
  5
37B
100
AcDbEntity
  8
0
100
AcDbCircle
 62
7
  6
CONTINUOUS
 10
11.9133920741
 20
163.8000709401
 40
4.0846523851
100
AcDbArc
 50
320.6655904543
 51
323.2730983027
  0
ARC
  5
37C
100
AcDbEntity
  8
0
100
AcDbCircle
 62
7
  6
CONTINUOUS
 10
0.3191584413
 20
180.5635182173
 40
3.2793104439
100
AcDbArc
 50
253.2257993712
 51
262.0191174079
  0
ARC
  5
37D
100
AcDbEntity
  8
0
100
AcDbCircle
 62
7
  6
CONTINUOUS
 10
29.0080543414
 20
188.2537340554
 40
3.2793104439
100
AcDbArc
 50
253.2257993713
 51
262.0191174079
  0
ARC
  5
37E
100
AcDbEntity
  8
0
100
AcDbCircle
 62
7
  6
CONTINUOUS
 10
29.3939521568
 20
191.0097896176
 40
3.2776100045
100
AcDbArc
 50
82.0339451762
 51
90.3192973103
  0
ARC
  5
37F
100
AcDbEntity
  8
0
100
AcDbCircle
 62
7
  6
CONTINUOUS
 10
0.7050562567
 20
183.3195737795
 40
3.2776100045
100
AcDbArc
 50
82.0339451762
 51
90.3192973103
  0
ARC
  5
380
100
AcDbEntity
  8
0
100
AcDbCircle
 62
7
  6
CONTINUOUS
 10
2.8251586506
 20
201.871654031
 40
3.2623915651
100
AcDbArc
 50
255.0062331807
 51
262.0234677056
  0
ARC
  5
381
100
AcDbEntity
  8
0
100
AcDbCircle
 62
7
  6
CONTINUOUS
 10
3.2101596193
 20
204.6207810761
 40
3.2615153162
100
AcDbArc
 50
82.0308622318
 51
88.7107746702
  0
ARC
  5
382
100
AcDbEntity
  8
0
100
AcDbCircle
 62
7
  6
CONTINUOUS
 10
48.03252444
 20
224.8050111645
 40
103.6962201483
100
AcDbArc
 50
124.770963659
 51
129.6968045457
  0
ARC
  5
383
100
AcDbEntity
  8
0
100
AcDbCircle
 62
7
  6
CONTINUOUS
 10
38.9278199973
 20
237.0659240186
 40
102.1750540686
100
AcDbArc
 50
122.8890727994
 51
124.7321689594
  0
ARC
  5
384
100
AcDbEntity
  8
0
100
AcDbCircle
 62
7
  6
CONTINUOUS
 10
46.1038499788
 20
227.1073097716
 40
100.6928590927
100
AcDbArc
 50
129.6891487195
 51
134.7026844104
  0
ARC
  5
385
100
AcDbEntity
  8
0
100
AcDbCircle
 62
7
  6
CONTINUOUS
 10
33.4930567414
 20
242.7510152731
 40
94.3171224457
100
AcDbArc
 50
134.7880299032
 51
136.7293013062
  0
ARC
  5
386
100
AcDbEntity
  8
0
100
AcDbCircle
 62
7
  6
CONTINUOUS
 10
28.6178327826
 20
257.8626000146
 40
78.9226773366
100
AcDbArc
 50
110.0610296381
 51
112.2536206585
  0
ARC
  5
387
100
AcDbEntity
  8
0
100
AcDbCircle
 62
7
  6
CONTINUOUS
 10
7.7792322445
 20
262.2652928728
 40
61.9605298902
100
AcDbArc
 50
148.6759109915
 51
151.241057198
  0
ARC
  5
388
100
AcDbEntity
  8
0
100
AcDbCircle
 62
7
  6
CONTINUOUS
 10
19.5797317708
 20
259.8779321267
 40
53.8819503633
100
AcDbArc
 50
137.7571376338
 51
142.0071947666
  0
ARC
  5
389
100
AcDbEntity
  8
0
100
AcDbCircle
 62
7
  6
CONTINUOUS
 10
40.3983313919
 20
243.4004754129
 40
15.7084051838
100
AcDbArc
 50
182.4411143087
 51
182.6509168824
  0
ARC
  5
38A
100
AcDbEntity
  8
0
100
AcDbCircle
 62
7
  6
CONTINUOUS
 10
27.7458556177
 20
250.4511703682
 40
6.9427189959
100
AcDbArc
 50
270.9002079887
 51
271.909522661
  0
ARC
  5
38B
100
AcDbEntity
  8
0
100
AcDbCircle
 62
7
  6
CONTINUOUS
 10
21.3783713911
 20
249.9083946969
 40
6.3385959558
100
AcDbArc
 50
58.9546377111
 51
59.541386824
  0
ARC
  5
38C
100
AcDbEntity
  8
0
100
AcDbCircle
 62
7
  6
CONTINUOUS
 10
21.391999579
 20
249.9315970427
 40
6.3116872926
100
AcDbArc
 50
59.5412579261
 51
60.5742297259
  0
ARC
  5
38D
100
AcDbEntity
  8
0
100
AcDbCircle
 62
7
  6
CONTINUOUS
 10
21.9601584622
 20
249.8977617085
 40
6.2628760344
100
AcDbArc
 50
58.9429531692
 51
65.4696862834
  0
ARC
  5
38E
100
AcDbEntity
  8
0
100
AcDbCircle
 62
7
  6
CONTINUOUS
 10
22.0566991634
 20
250.1149727053
 40
6.0251893347
100
AcDbArc
 50
65.4473070371
 51
81.9540813085
  0
ARC
  5
38F
100
AcDbEntity
  8
0
100
AcDbCircle
 62
7
  6
CONTINUOUS
 10
21.529335936
 20
250.2597050797
 40
5.9550193206
100
AcDbArc
 50
74.5392180922
 51
79.3036403419
  0
ARC
  5
390
100
AcDbEntity
  8
0
100
AcDbCircle
 62
7
  6
CONTINUOUS
 10
23.6847158071
 20
249.7974643599
 40
5.6138242446
100
AcDbArc
 50
82.0395689406
 51
90.6252149724
  0
ARC
  5
391
100
AcDbEntity
  8
0
100
AcDbCircle
 62
7
  6
CONTINUOUS
 10
23.6864395217
 20
243.3519976658
 40
4.1722173402
100
AcDbArc
 50
348.6830186537
 51
2.1619951619
  0
ARC
  5
392
100
AcDbEntity
  8
0
100
AcDbCircle
 62
7
  6
CONTINUOUS
 10
26.1555700044
 20
243.0061490743
 40
4.1711864095
100
AcDbArc
 50
168.6819606759
 51
182.4398258992
  0
ARC
  5
393
100
AcDbEntity
  8
0
100
AcDbCircle
 62
7
  6
CONTINUOUS
 10
8.784598682
 20
243.8800257361
 40
3.4841253749
100
AcDbArc
 50
52.2068691876
 51
53.9052430297
  0
ARC
  5
394
100
AcDbEntity
  8
0
100
AcDbCircle
 62
7
  6
CONTINUOUS
 10
20.5549746896
 20
206.618237643
 40
3.2760959919
100
AcDbArc
 50
255.2707852437
 51
262.0239003015
  0
ARC
  5
395
100
AcDbEntity
  8
0
100
AcDbCircle
 62
7
  6
CONTINUOUS
 10
20.9417193464
 20
209.3797842626
 40
3.2752689717
100
AcDbArc
 50
82.0305054826
 51
88.4711228394
  0
ARC
  5
396
100
AcDbEntity
  8
0
100
AcDbCircle
 62
7
  6
CONTINUOUS
 10
25.3551667746
 20
242.4820966323
 40
1.5720958342
100
AcDbArc
 50
267.1303113995
 51
281.6571286362
  0
ARC
  5
397
100
AcDbEntity
  8
0
100
AcDbCircle
 62
7
  6
CONTINUOUS
 10
25.5383241288
 20
243.7288033695
 40
1.5720957343
100
AcDbArc
 50
87.1303109355
 51
101.657129109
  0
ARC
  5
398
100
AcDbEntity
  8
0
100
AcDbCircle
 62
7
  6
CONTINUOUS
 10
25.3550234446
 20
242.450886728
 40
1.5409185457
100
AcDbArc
 50
252.3542977223
 51
267.0775354951
  0
ARC
  5
399
100
AcDbEntity
  8
0
100
AcDbCircle
 62
7
  6
CONTINUOUS
 10
25.538467484
 20
243.76001327
 40
1.5409184482
100
AcDbArc
 50
72.3542973546
 51
87.077535963
  0
ARC
  5
39A
100
AcDbEntity
  8
0
100
AcDbCircle
 62
7
  6
CONTINUOUS
 10
32.6011613563
 20
372.837338386
 40
130.4484039076
100
AcDbArc
 50
265.3872875909
 51
266.7499338675
  0
ARC
  5
39B
100
AcDbEntity
  8
0
100
AcDbCircle
 62
7
  6
CONTINUOUS
 10
32.6784971857
 20
373.8335173447
 40
130.4483992461
100
AcDbArc
 50
265.3872875666
 51
266.7499338918
  0
ARC
  5
39C
100
AcDbEntity
  8
0
100
AcDbCircle
 62
7
  6
CONTINUOUS
 10
-36.6851836298
 20
338.2428743859
 40
94.7995370656
100
AcDbArc
 50
302.2430269075
 51
309.7056873918
  0
ARC
  5
39D
100
AcDbEntity
  8
0
100
AcDbCircle
 62
7
  6
CONTINUOUS
 10
-32.0288860201
 20
330.797723804
 40
69.5533035993
100
AcDbArc
 50
296.4709934288
 51
298.5369523257
  0
ARC
  5
39E
100
AcDbEntity
  8
0
100
AcDbCircle
 62
7
  6
CONTINUOUS
 10
-29.0421613271
 20
329.9278185615
 40
67.0333654669
100
AcDbArc
 50
315.538533882
 51
318.8438574287
  0
ARC
  5
39F
100
AcDbEntity
  8
0
100
AcDbCircle
 62
7
  6
CONTINUOUS
 10
20.6074687979
 20
292.202021626
 40
43.5403137258
100
AcDbArc
 50
92.6511034792
 51
95.9153657479
  0
ARC
  5
3A0
100
AcDbEntity
  8
0
100
AcDbCircle
 62
7
  6
CONTINUOUS
 10
-22.0423396238
 20
299.5382637128
 40
37.9820544615
100
AcDbArc
 50
277.7540626856
 51
277.979321962
  0
ARC
  5
3A1
100
AcDbEntity
  8
0
100
AcDbCircle
 62
7
  6
CONTINUOUS
 10
-21.0972375407
 20
295.2367615574
 40
32.9242948407
100
AcDbArc
 50
274.5109212172
 51
274.6615825875
  0
ARC
  5
3A2
100
AcDbEntity
  8
0
100
AcDbCircle
 62
7
  6
CONTINUOUS
 10
23.3637734262
 20
315.5893796464
 40
19.7895430581
100
AcDbArc
 50
64.1463686213
 51
69.6680450151
  0
ARC
  5
3A3
100
AcDbEntity
  8
0
100
AcDbCircle
 62
7
  6
CONTINUOUS
 10
35.9486878057
 20
306.6027606422
 40
15.0733812914
100
AcDbArc
 50
37.9682705539
 51
47.5391519362
  0
ARC
  5
3A4
100
AcDbEntity
  8
0
100
AcDbCircle
 62
7
  6
CONTINUOUS
 10
19.5698943499
 20
304.8211472157
 40
9.4252690951
100
AcDbArc
 50
34.2375843165
 51
36.7540457674
  0
ARC
  5
3A5
100
AcDbEntity
  8
0
100
AcDbCircle
 62
7
  6
CONTINUOUS
 10
181.7163310714
 20
38.7698620176
 40
258.5941958358
100
AcDbArc
 50
127.0235567626
 51
127.2276141781
  0
ARC
  5
3A6
100
AcDbEntity
  8
0
100
AcDbCircle
 62
7
  6
CONTINUOUS
 10
90.2758610594
 20
94.7040450825
 40
185.2687768529
100
AcDbArc
 50
133.8810890684
 51
134.1571803881
  0
ARC
  5
3A7
100
AcDbEntity
  8
0
100
AcDbCircle
 62
7
  6
CONTINUOUS
 10
100.160317274
 20
16.9780007019
 40
180.0317451569
100
AcDbArc
 50
134.4001459011
 51
134.6839353519
  0
ARC
  5
3A8
100
AcDbEntity
  8
0
100
AcDbCircle
 62
7
  6
CONTINUOUS
 10
309.6736284227
 20
529.5238268859
 40
512.4652740992
100
AcDbArc
 50
229.1028235741
 51
229.2216583285
  0
ARC
  5
3A9
100
AcDbEntity
  8
0
100
AcDbCircle
 62
7
  6
CONTINUOUS
 10
292.9971680681
 20
598.6216564901
 40
499.4859094974
100
AcDbArc
 50
228.4578892063
 51
228.5784678441
  0
ARC
  5
3AA
100
AcDbEntity
  8
0
100
AcDbCircle
 62
7
  6
CONTINUOUS
 10
305.9116371351
 20
483.0367770229
 40
370.3288770549
100
AcDbArc
 50
220.6762718954
 51
220.8232714929
  0
ARC
  5
3AB
100
AcDbEntity
  8
0
100
AcDbCircle
 62
7
  6
CONTINUOUS
 10
3395.799248942
 20
-17203.3379328236
 40
17766.4769601122
100
AcDbArc
 50
101.2745618674
 51
101.4604871665
  0
SPLINE
  5
3AC
100
AcDbEntity
  8
0
100
AcDbSpline
 62
7
  6
CONTINUOUS
 70
0
 71
3
 72
9
 73
5
 74
0
 42
0.0000001
 43
0.0000001
 44
0.0000000001
 40
0.0
 40
0.0
 40
0.0
 40
0.0
 40
0.2551744311
 40
1.0
 40
1.0
 40
1.0
 40
1.0
 10
-135.285430876
 20
201.4598134962
 30
0.0
 10
-135.2184444332
 20
201.4715440455
 30
0.0
 10
-134.9549599199
 20
201.5116720803
 30
0.0
 10
-134.6876792209
 20
201.5277749799
 30
0.0
 10
-134.4892033938
 20
201.524593808
 30
0.0
  0
SPLINE
  5
3AD
100
AcDbEntity
  8
0
100
AcDbSpline
 62
7
  6
CONTINUOUS
 70
0
 71
3
 72
11
 73
7
 74
0
 42
0.0000001
 43
0.0000001
 44
0.0000000001
 40
0.0
 40
0.0
 40
0.0
 40
0.0
 40
0.2368398445
 40
0.4778252146
 40
0.7302581897
 40
1.0
 40
1.0
 40
1.0
 40
1.0
 10
-138.0372126796
 20
201.6403789804
 30
0.0
 10
-137.9337620239
 20
201.679670893
 30
0.0
 10
-137.7157951668
 20
201.7367135763
 30
0.0
 10
-137.3724680816
 20
201.7505506044
 30
0.0
 10
-137.0183860387
 20
201.6933073043
 30
0.0
 10
-136.7870111995
 20
201.611942933
 30
0.0
 10
-136.6715065671
 20
201.5615115694
 30
0.0
  0
SPLINE
  5
3AE
100
AcDbEntity
  8
0
100
AcDbSpline
 62
7
  6
CONTINUOUS
 70
0
 71
3
 72
9
 73
5
 74
0
 42
0.0000001
 43
0.0000001
 44
0.0000000001
 40
0.0
 40
0.0
 40
0.0
 40
0.0
 40
0.497026804
 40
1.0
 40
1.0
 40
1.0
 40
1.0
 10
-136.9080564378
 20
201.9430783327
 30
0.0
 10
-137.0039906648
 20
201.9275028262
 30
0.0
 10
-137.1945096608
 20
201.8779070419
 30
0.0
 10
-137.3721933238
 20
201.7933163988
 30
0.0
 10
-137.4569233611
 20
201.7433747631
 30
0.0
  0
SPLINE
  5
3AF
100
AcDbEntity
  8
0
100
AcDbSpline
 62
7
  6
CONTINUOUS
 70
0
 71
3
 72
13
 73
9
 74
0
 42
0.0000001
 43
0.0000001
 44
0.0000000001
 40
0.0
 40
0.0
 40
0.0
 40
0.0
 40
0.1002640038
 40
0.2035354407
 40
0.3125095691
 40
0.4293702053
 40
0.6923048981
 40
1.0
 40
1.0
 40
1.0
 40
1.0
 10
-139.478466228
 20
200.4699176953
 30
0.0
 10
-139.4784671081
 20
200.5045355653
 30
0.0
 10
-139.4716392398
 20
200.574983942
 30
0.0
 10
-139.4412362331
 20
200.6790875944
 30
0.0
 10
-139.3910667472
 20
200.7815981471
 30
0.0
 10
-139.2947009146
 20
200.9207805974
 30
0.0
 10
-139.1221641754
 20
201.0869412994
 30
0.0
 10
-138.9570782346
 20
201.1959259749
 30
0.0
 10
-138.8649313736
 20
201.2487961983
 30
0.0
  0
SPLINE
  5
3B0
100
AcDbEntity
  8
0
100
AcDbSpline
 62
7
  6
CONTINUOUS
 70
0
 71
3
 72
9
 73
5
 74
0
 42
0.0000001
 43
0.0000001
 44
0.0000000001
 40
0.0
 40
0.0
 40
0.0
 40
0.0
 40
0.2573414646
 40
1.0
 40
1.0
 40
1.0
 40
1.0
 10
-137.4919283159
 20
200.5217227447
 30
0.0
 10
-137.3818355697
 20
200.5973900704
 30
0.0
 10
-136.9455380268
 20
200.8787083332
 30
0.0
 10
-136.4745833597
 20
201.1076218716
 30
0.0
 10
-136.1118771855
 20
201.2382800318
 30
0.0
  0
SPLINE
  5
3B1
100
AcDbEntity
  8
0
100
AcDbSpline
 62
7
  6
CONTINUOUS
 70
0
 71
3
 72
11
 73
7
 74
0
 42
0.0000001
 43
0.0000001
 44
0.0000000001
 40
0.0
 40
0.0
 40
0.0
 40
0.0
 40
0.2229204638
 40
0.4647808236
 40
0.7244628097
 40
1.0
 40
1.0
 40
1.0
 40
1.0
 10
-136.1118771855
 20
201.2382800318
 30
0.0
 10
-135.9668899753
 20
201.1341001701
 30
0.0
 10
-135.6801113616
 20
200.894879398
 30
0.0
 10
-135.2800517688
 20
200.4732286255
 30
0.0
 10
-134.8982747454
 20
199.9805906033
 30
0.0
 10
-134.6661188847
 20
199.6195694109
 30
0.0
 10
-134.5540038621
 20
199.4294963292
 30
0.0
  0
SPLINE
  5
3B2
100
AcDbEntity
  8
0
100
AcDbSpline
 62
7
  6
CONTINUOUS
 70
0
 71
3
 72
9
 73
5
 74
0
 42
0.0000001
 43
0.0000001
 44
0.0000000001
 40
0.0
 40
0.0
 40
0.0
 40
0.0
 40
0.4725186227
 40
1.0
 40
1.0
 40
1.0
 40
1.0
 10
-138.0207511354
 20
200.8271760046
 30
0.0
 10
-137.9895403756
 20
200.7967019916
 30
0.0
 10
-137.9182239836
 20
200.7375384162
 30
0.0
 10
-137.8403717806
 20
200.6875796071
 30
0.0
 10
-137.7982051106
 20
200.6632249216
 30
0.0
  0
SPLINE
  5
3B3
100
AcDbEntity
  8
0
100
AcDbSpline
 62
7
  6
CONTINUOUS
 70
0
 71
3
 72
9
 73
5
 74
0
 42
0.0000001
 43
0.0000001
 44
0.0000000001
 40
0.0
 40
0.0
 40
0.0
 40
0.0
 40
0.4780450247
 40
1.0
 40
1.0
 40
1.0
 40
1.0
 10
-137.7982051106
 20
200.6632249216
 30
0.0
 10
-137.7516101839
 20
200.6363125573
 30
0.0
 10
-137.6511916477
 20
200.5850617503
 30
0.0
 10
-137.5469788971
 20
200.5422315295
 30
0.0
 10
-137.4919208743
 20
200.5217302777
 30
0.0
  0
SPLINE
  5
3B4
100
AcDbEntity
  8
0
100
AcDbSpline
 62
7
  6
CONTINUOUS
 70
0
 71
3
 72
9
 73
5
 74
0
 42
0.0000001
 43
0.0000001
 44
0.0000000001
 40
0.0
 40
0.0
 40
0.0
 40
0.0
 40
0.2579423273
 40
1.0
 40
1.0
 40
1.0
 40
1.0
 10
-134.7926643287
 20
199.8116843035
 30
0.0
 10
-134.7828133796
 20
199.8156907315
 30
0.0
 10
-134.7447640987
 20
199.8315658517
 30
0.0
 10
-134.7072925806
 20
199.8488422879
 30
0.0
 10
-134.679949506
 20
199.8625656939
 30
0.0
  0
SPLINE
  5
3B5
100
AcDbEntity
  8
0
100
AcDbSpline
 62
7
  6
CONTINUOUS
 70
0
 71
3
 72
9
 73
5
 74
0
 42
0.0000001
 43
0.0000001
 44
0.0000000001
 40
0.0
 40
0.0
 40
0.0
 40
0.0
 40
0.5193920985
 40
1.0
 40
1.0
 40
1.0
 40
1.0
 10
-134.513369505
 20
200.7482410432
 30
0.0
 10
-134.6336997032
 20
200.8848751472
 30
0.0
 10
-134.8777596465
 20
201.1374088531
 30
0.0
 10
-135.1486163607
 20
201.361506085
 30
0.0
 10
-135.285430876
 20
201.4598134962
 30
0.0
  0
SPLINE
  5
3B6
100
AcDbEntity
  8
0
100
AcDbSpline
 62
7
  6
CONTINUOUS
 70
0
 71
3
 72
16
 73
12
 74
0
 42
0.0000001
 43
0.0000001
 44
0.0000000001
 40
0.0
 40
0.0
 40
0.0
 40
0.0
 40
0.1315174144
 40
0.2678733115
 40
0.4056445782
 40
0.5413250409
 40
0.6715046539
 40
0.793030206
 40
0.9031863215
 40
0.9533646117
 40
1.0
 40
1.0
 40
1.0
 40
1.0
 10
-134.5588499842
 20
199.2111209573
 30
0.0
 10
-134.7492644119
 20
199.1778770395
 30
0.0
 10
-135.1399524147
 20
199.125820645
 30
0.0
 10
-135.7354568321
 20
199.0892242689
 30
0.0
 10
-136.3382204011
 20
199.0931749745
 30
0.0
 10
-136.9302605756
 20
199.1375578275
 30
0.0
 10
-137.4940313075
 20
199.2209927945
 30
0.0
 10
-138.0127818538
 20
199.3409329377
 30
0.0
 10
-138.4066998324
 20
199.4720313134
 30
0.0
 10
-138.6854597913
 20
199.5942310713
 30
0.0
 10
-138.8116782698
 20
199.6602696482
 30
0.0
 10
-138.8710308046
 20
199.69455057
 30
0.0
  0
SPLINE
  5
3B7
100
AcDbEntity
  8
0
100
AcDbSpline
 62
7
  6
CONTINUOUS
 70
0
 71
3
 72
13
 73
9
 74
0
 42
0.0000001
 43
0.0000001
 44
0.0000000001
 40
0.0
 40
0.0
 40
0.0
 40
0.0
 40
0.307385416
 40
0.570201725
 40
0.6871006022
 40
0.796166256
 40
0.8995742423
 40
1.0
 40
1.0
 40
1.0
 40
1.0
 10
-138.8710308046
 20
199.69455057
 30
0.0
 10
-138.962309819
 20
199.7472716335
 30
0.0
 10
-139.1258414961
 20
199.8559128844
 30
0.0
 10
-139.2966123687
 20
200.021360461
 30
0.0
 10
-139.3919788016
 20
200.159840098
 30
0.0
 10
-139.4416246797
 20
200.2618432226
 30
0.0
 10
-139.4717146413
 20
200.3654070692
 30
0.0
 10
-139.4784653524
 20
200.435479083
 30
0.0
 10
-139.478466228
 20
200.4699176953
 30
0.0
  0
SPLINE
  5
3B8
100
AcDbEntity
  8
0
100
AcDbSpline
 62
7
  6
CONTINUOUS
 70
0
 71
3
 72
9
 73
5
 74
0
 42
0.0000001
 43
0.0000001
 44
0.0000000001
 40
0.0
 40
0.0
 40
0.0
 40
0.0
 40
0.491446456
 40
1.0
 40
1.0
 40
1.0
 40
1.0
 10
-136.6715065671
 20
201.5615115694
 30
0.0
 10
-136.9082438591
 20
201.4743977258
 30
0.0
 10
-137.3768578111
 20
201.2598791292
 30
0.0
 10
-137.8104826328
 20
200.9819748704
 30
0.0
 10
-138.0206912853
 20
200.8272076006
 30
0.0
  0
SPLINE
  5
3B9
100
AcDbEntity
  8
0
100
AcDbSpline
 62
7
  6
CONTINUOUS
 70
0
 71
3
 72
9
 73
5
 74
0
 42
0.0000001
 43
0.0000001
 44
0.0000000001
 40
0.0
 40
0.0
 40
0.0
 40
0.0
 40
0.4932955857
 40
1.0
 40
1.0
 40
1.0
 40
1.0
 10
-134.4811924304
 20
201.7832192451
 30
0.0
 10
-134.7028002565
 20
201.822693377
 30
0.0
 10
-135.1601647631
 20
201.8617617541
 30
0.0
 10
-135.6170766066
 20
201.821563466
 30
0.0
 10
-135.8450602577
 20
201.7830450338
 30
0.0
  0
SPLINE
  5
3BA
100
AcDbEntity
  8
0
100
AcDbSpline
 62
7
  6
CONTINUOUS
 70
0
 71
3
 72
11
 73
7
 74
0
 42
0.0000001
 43
0.0000001
 44
0.0000000001
 40
0.0
 40
0.0
 40
0.0
 40
0.0
 40
0.2676153437
 40
0.5213548691
 40
0.7642307069
 40
1.0
 40
1.0
 40
1.0
 40
1.0
 10
-135.8450602577
 20
201.7830450338
 30
0.0
 10
-135.9340926187
 20
201.821918136
 30
0.0
 10
-136.1120866951
 20
201.8878794486
 30
0.0
 10
-136.3834567572
 20
201.9495809485
 30
0.0
 10
-136.6494723294
 20
201.9704990671
 30
0.0
 10
-136.8235745346
 20
201.9567944845
 30
0.0
 10
-136.9080564378
 20
201.9430783327
 30
0.0
  0
SPLINE
  5
3BB
100
AcDbEntity
  8
0
100
AcDbSpline
 62
7
  6
CONTINUOUS
 70
0
 71
3
 72
13
 73
9
 74
0
 42
0.0000001
 43
0.0000001
 44
0.0000000001
 40
0.0
 40
0.0
 40
0.0
 40
0.0
 40
0.1002640038
 40
0.2035354407
 40
0.3125095691
 40
0.4293702053
 40
0.6923048981
 40
1.0
 40
1.0
 40
1.0
 40
1.0
 10
-67.4124771815
 20
158.8459408107
 30
0.0
 10
-67.4124780615
 20
158.8805586806
 30
0.0
 10
-67.4056501933
 20
158.9510070573
 30
0.0
 10
-67.3752471865
 20
159.0551107097
 30
0.0
 10
-67.3250777006
 20
159.1576212624
 30
0.0
 10
-67.2287118681
 20
159.2968037128
 30
0.0
 10
-67.0561751289
 20
159.4629644147
 30
0.0
 10
-66.8910891881
 20
159.5719490903
 30
0.0
 10
-66.798942327
 20
159.6248193136
 30
0.0
  0
SPLINE
  5
3BC
100
AcDbEntity
  8
0
100
AcDbSpline
 62
7
  6
CONTINUOUS
 70
0
 71
3
 72
9
 73
5
 74
0
 42
0.0000001
 43
0.0000001
 44
0.0000000001
 40
0.0
 40
0.0
 40
0.0
 40
0.0
 40
0.5239488175
 40
1.0
 40
1.0
 40
1.0
 40
1.0
 10
-66.2589793514
 20
157.8241174021
 30
0.0
 10
-66.3576672315
 20
157.8592045694
 30
0.0
 10
-66.5437175362
 20
157.9329456166
 30
0.0
 10
-66.7226349087
 20
158.0229770196
 30
0.0
 10
-66.805041758
 20
158.0705736853
 30
0.0
  0
SPLINE
  5
3BD
100
AcDbEntity
  8
0
100
AcDbSpline
 62
7
  6
CONTINUOUS
 70
0
 71
3
 72
13
 73
9
 74
0
 42
0.0000001
 43
0.0000001
 44
0.0000000001
 40
0.0
 40
0.0
 40
0.0
 40
0.0
 40
0.307385416
 40
0.570201725
 40
0.6871006022
 40
0.796166256
 40
0.8995742423
 40
1.0
 40
1.0
 40
1.0
 40
1.0
 10
-66.805041758
 20
158.0705736853
 30
0.0
 10
-66.8963207724
 20
158.1232947488
 30
0.0
 10
-67.0598524496
 20
158.2319359997
 30
0.0
 10
-67.2306233222
 20
158.3973835764
 30
0.0
 10
-67.325989755
 20
158.5358632133
 30
0.0
 10
-67.3756356332
 20
158.637866338
 30
0.0
 10
-67.4057255948
 20
158.7414301845
 30
0.0
 10
-67.4124763059
 20
158.8115021983
 30
0.0
 10
-67.4124771815
 20
158.8459408107
 30
0.0
  0
SPLINE
  5
3BE
100
AcDbEntity
  8
0
100
AcDbSpline
 62
7
  6
CONTINUOUS
 70
0
 71
3
 72
27
 73
23
 74
0
 42
0.0000001
 43
0.0000001
 44
0.0000000001
 40
0.0
 40
0.0
 40
0.0
 40
0.0
 40
0.0570006949
 40
0.1151596406
 40
0.1750914027
 40
0.2371085811
 40
0.3012065995
 40
0.3670931636
 40
0.4005797846
 40
0.4343042388
 40
0.5020559056
 40
0.5696637691
 40
0.6032126956
 40
0.6364609684
 40
0.7017102319
 40
0.7650278404
 40
0.8262262277
 40
0.8854221849
 40
0.9144372148
 40
0.9431383913
 40
0.971621419
 40
1.0
 40
1.0
 40
1.0
 40
1.0
 10
24.4308305348
 20
246.7722843447
 30
0.0
 10
24.2432619132
 20
246.7818525501
 30
0.0
 10
23.8607381212
 20
246.7571888343
 30
0.0
 10
23.3034974611
 20
246.5917316997
 30
0.0
 10
22.7791376775
 20
246.3049372866
 30
0.0
 10
22.3068954168
 20
245.9082413262
 30
0.0
 10
21.9032711853
 20
245.4168029927
 30
0.0
 10
21.6370353464
 20
244.9453901011
 30
0.0
 10
21.4698952994
 20
244.5395038909
 30
0.0
 10
21.334476532
 20
244.1154751451
 30
0.0
 10
21.2297317172
 20
243.5657169762
 30
0.0
 10
21.2137656402
 20
243.0068494615
 30
0.0
 10
21.2551311403
 20
242.5654833165
 30
0.0
 10
21.3313578073
 20
242.1367112289
 30
0.0
 10
21.4904600379
 20
241.6248545819
 30
0.0
 10
21.7801427715
 20
241.0668351634
 30
0.0
 10
22.1575643203
 20
240.5887376713
 30
0.0
 10
22.5375748893
 20
240.26950853
 30
0.0
 10
22.8695285242
 20
240.0727595731
 30
0.0
 10
23.1289399447
 20
239.9555980873
 30
0.0
 10
23.3978785763
 20
239.8691274926
 30
0.0
 10
23.5821040777
 20
239.8324473778
 30
0.0
 10
23.674705363
 20
239.8194783671
 30
0.0
  0
SPLINE
  5
3BF
100
AcDbEntity
  8
0
100
AcDbSpline
 62
7
  6
CONTINUOUS
 70
0
 71
3
 72
16
 73
12
 74
0
 42
0.0000001
 43
0.0000001
 44
0.0000000001
 40
0.0
 40
0.0
 40
0.0
 40
0.0
 40
0.1153286275
 40
0.173495585
 40
0.2321685113
 40
0.3514259016
 40
0.4740690524
 40
0.6004915383
 40
0.7306441964
 40
0.8640695913
 40
1.0
 40
1.0
 40
1.0
 40
1.0
 10
25.5292919018
 20
246.6280426835
 30
0.0
 10
25.6927506141
 20
246.6051510097
 30
0.0
 10
25.9360320593
 20
246.5453790028
 30
0.0
 10
26.2435452099
 20
246.4185225879
 30
0.0
 10
26.5422040935
 20
246.2594123514
 30
0.0
 10
26.8906137033
 20
246.0023622027
 30
0.0
 10
27.2522020977
 20
245.6150560641
 30
0.0
 10
27.5501749804
 20
245.15838602
 30
0.0
 10
27.7763468551
 20
244.6455438462
 30
0.0
 10
27.924708611
 20
244.0912304974
 30
0.0
 10
27.9688046125
 20
243.7066639985
 30
0.0
 10
27.9771959593
 20
243.5123067218
 30
0.0
  0
SPLINE
  5
3C0
100
AcDbEntity
  8
0
100
AcDbSpline
 62
7
  6
CONTINUOUS
 70
0
 71
3
 72
11
 73
7
 74
0
 42
0.0000001
 43
0.0000001
 44
0.0000000001
 40
0.0
 40
0.0
 40
0.0
 40
0.0
 40
0.1871500619
 40
0.4186736903
 40
0.6910241634
 40
1.0
 40
1.0
 40
1.0
 40
1.0
 10
27.8549323076
 20
243.5093082741
 30
0.0
 10
27.7462615156
 20
243.5075041022
 30
0.0
 10
27.5030896445
 20
243.5076156847
 30
0.0
 10
27.1018445255
 20
243.5151605677
 30
0.0
 10
26.6300180995
 20
243.5302353068
 30
0.0
 10
26.2927092043
 20
243.5443667261
 30
0.0
 10
26.1134613532
 20
243.5525603768
 30
0.0
  0
SPLINE
  5
3C1
100
AcDbEntity
  8
0
100
AcDbSpline
 62
7
  6
CONTINUOUS
 70
0
 71
3
 72
9
 73
5
 74
0
 42
0.0000001
 43
0.0000001
 44
0.0000000001
 40
0.0
 40
0.0
 40
0.0
 40
0.0
 40
0.49476485
 40
1.0
 40
1.0
 40
1.0
 40
1.0
 10
25.2206709153
 20
245.2684850076
 30
0.0
 10
25.251762523
 20
244.9938559315
 30
0.0
 10
25.2927151329
 20
244.436139623
 30
0.0
 10
25.2928323545
 20
243.8769868577
 30
0.0
 10
25.2828635293
 20
243.5949306329
 30
0.0
  0
SPLINE
  5
3C2
100
AcDbEntity
  8
0
100
AcDbSpline
 62
7
  6
CONTINUOUS
 70
0
 71
3
 72
15
 73
11
 74
0
 42
0.0000001
 43
0.0000001
 44
0.0000000001
 40
0.0
 40
0.0
 40
0.0
 40
0.0
 40
0.1353405239
 40
0.268926314
 40
0.3997016838
 40
0.5268944891
 40
0.6501433863
 40
0.7695727113
 40
0.8858193774
 40
1.0
 40
1.0
 40
1.0
 40
1.0
 10
27.8998598103
 20
242.5161231123
 30
0.0
 10
27.8592531166
 20
242.3130299691
 30
0.0
 10
27.7483918126
 20
241.9148092144
 30
0.0
 10
27.4964093118
 20
241.3549316397
 30
0.0
 10
27.1668581827
 20
240.8513852294
 30
0.0
 10
26.7697428964
 20
240.4202147099
 30
0.0
 10
26.3171644532
 20
240.0751772139
 30
0.0
 10
25.822925216
 20
239.8277045383
 30
0.0
 10
25.3028560465
 20
239.6863464656
 30
0.0
 10
24.9476712768
 20
239.6663334551
 30
0.0
 10
24.7731665278
 20
239.6752352493
 30
0.0
  0
SPLINE
  5
3C3
100
AcDbEntity
  8
0
100
AcDbSpline
 62
7
  6
CONTINUOUS
 70
0
 71
3
 72
9
 73
5
 74
0
 42
0.0000001
 43
0.0000001
 44
0.0000000001
 40
0.0
 40
0.0
 40
0.0
 40
0.0
 40
0.5078680154
 40
1.0
 40
1.0
 40
1.0
 40
1.0
 10
25.2055273803
 20
242.5987470234
 30
0.0
 10
25.1721547906
 20
242.3217070705
 30
0.0
 10
25.0868897633
 20
241.7783698432
 30
0.0
 10
24.9608605023
 20
241.2429116656
 30
0.0
 10
24.887956214
 20
240.9825285303
 30
0.0
  0
SPLINE
  5
3C4
100
AcDbEntity
  8
0
100
AcDbSpline
 62
7
  6
CONTINUOUS
 70
0
 71
3
 72
9
 73
5
 74
0
 42
0.0000001
 43
0.0000001
 44
0.0000000001
 40
0.0
 40
0.0
 40
0.0
 40
0.0
 40
0.5019394255
 40
1.0
 40
1.0
 40
1.0
 40
1.0
 10
23.631449023
 20
243.7000712243
 30
0.0
 10
23.5821026512
 20
243.5469594064
 30
0.0
 10
23.5214353364
 20
243.2285962152
 30
0.0
 10
23.5396253761
 20
242.9048618889
 30
0.0
 10
23.5688997682
 20
242.7479450708
 30
0.0
  0
SPLINE
  5
3C5
100
AcDbEntity
  8
0
100
AcDbSpline
 62
7
  6
CONTINUOUS
 70
0
 71
3
 72
16
 73
12
 74
0
 42
0.0000001
 43
0.0000001
 44
0.0000000001
 40
0.0
 40
0.0
 40
0.0
 40
0.0
 40
0.1153286275
 40
0.173495585
 40
0.2321685113
 40
0.3514259016
 40
0.4740690524
 40
0.6004915383
 40
0.7306441964
 40
0.8640695913
 40
1.0
 40
1.0
 40
1.0
 40
1.0
 10
24.5583941966
 20
239.6957130813
 30
0.0
 10
24.3949354843
 20
239.7186047551
 30
0.0
 10
24.1516540391
 20
239.778376762
 30
0.0
 10
23.8441408885
 20
239.905233177
 30
0.0
 10
23.5454820049
 20
240.0643434134
 30
0.0
 10
23.1970723952
 20
240.3213935621
 30
0.0
 10
22.8354840008
 20
240.7086997007
 30
0.0
 10
22.537511118
 20
241.1653697448
 30
0.0
 10
22.3113392433
 20
241.6782119186
 30
0.0
 10
22.1629774874
 20
242.2325252674
 30
0.0
 10
22.1188814859
 20
242.6170917663
 30
0.0
 10
22.1104901392
 20
242.811449043
 30
0.0
  0
SPLINE
  5
3C6
100
AcDbEntity
  8
0
100
AcDbSpline
 62
7
  6
CONTINUOUS
 70
0
 71
3
 72
9
 73
5
 74
0
 42
0.0000001
 43
0.0000001
 44
0.0000000001
 40
0.0
 40
0.0
 40
0.0
 40
0.0
 40
0.4934180161
 40
1.0
 40
1.0
 40
1.0
 40
1.0
 10
25.6728151773
 20
240.9424155675
 30
0.0
 10
25.7579324541
 20
241.2011681853
 30
0.0
 10
25.9039749527
 20
241.7345611773
 30
0.0
 10
25.9998760337
 20
242.2790759408
 30
0.0
 10
26.0361252042
 20
242.5563767673
 30
0.0
  0
SPLINE
  5
3C7
100
AcDbEntity
  8
0
100
AcDbSpline
 62
7
  6
CONTINUOUS
 70
0
 71
3
 72
11
 73
7
 74
0
 42
0.0000001
 43
0.0000001
 44
0.0000000001
 40
0.0
 40
0.0
 40
0.0
 40
0.0
 40
0.3197074561
 40
0.5963119193
 40
0.8245181485
 40
1.0
 40
1.0
 40
1.0
 40
1.0
 10
26.0361252042
 20
242.5563767673
 30
0.0
 10
26.2346175279
 20
242.547303427
 30
0.0
 10
26.6049148586
 20
242.5319377978
 30
0.0
 10
27.1171428093
 20
242.5164708187
 30
0.0
 10
27.5399121444
 20
242.5103425418
 30
0.0
 10
27.7908588452
 20
242.5124527316
 30
0.0
 10
27.8998598103
 20
242.5161231123
 30
0.0
  0
SPLINE
  5
3C8
100
AcDbEntity
  8
0
100
AcDbSpline
 62
7
  6
CONTINUOUS
 70
0
 71
3
 72
15
 73
11
 74
0
 42
0.0000001
 43
0.0000001
 44
0.0000000001
 40
0.0
 40
0.0
 40
0.0
 40
0.0
 40
0.1353405239
 40
0.268926314
 40
0.3997016838
 40
0.5268944891
 40
0.6501433863
 40
0.7695727113
 40
0.8858193774
 40
1.0
 40
1.0
 40
1.0
 40
1.0
 10
22.1878262881
 20
243.8076326525
 30
0.0
 10
22.2284329818
 20
244.0107257958
 30
0.0
 10
22.3392942859
 20
244.4089465504
 30
0.0
 10
22.5912767866
 20
244.9688241251
 30
0.0
 10
22.9208279157
 20
245.4723705354
 30
0.0
 10
23.317943202
 20
245.9035410549
 30
0.0
 10
23.7705216452
 20
246.248578551
 30
0.0
 10
24.2647608825
 20
246.4960512266
 30
0.0
 10
24.7848300519
 20
246.6374092992
 30
0.0
 10
25.1400148217
 20
246.6574223097
 30
0.0
 10
25.3145195706
 20
246.6485205155
 30
0.0
  0
SPLINE
  5
3C9
100
AcDbEntity
  8
0
100
AcDbSpline
 62
7
  6
CONTINUOUS
 70
0
 71
3
 72
9
 73
5
 74
0
 42
0.0000001
 43
0.0000001
 44
0.0000000001
 40
0.0
 40
0.0
 40
0.0
 40
0.0
 40
0.5042321162
 40
1.0
 40
1.0
 40
1.0
 40
1.0
 10
26.1134613532
 20
243.5525603768
 30
0.0
 10
26.1205979116
 20
243.8350097426
 30
0.0
 10
26.1100393364
 20
244.3960734638
 30
0.0
 10
26.0489864393
 20
244.9539858486
 30
0.0
 10
26.0055619758
 20
245.2283675522
 30
0.0
  0
LINE
  5
3CA
100
AcDbEntity
  8
0
100
AcDbLine
 62
7
  6
CONTINUOUS
 10
26.1967996099
 20
242.6138912773
 11
25.4594948388
 21
242.685399105
  0
SPLINE
  5
3CB
100
AcDbEntity
  8
0
100
AcDbSpline
 62
7
  6
CONTINUOUS
 70
0
 71
3
 72
9
 73
5
 74
0
 42
0.0000001
 43
0.0000001
 44
0.0000000001
 40
0.0
 40
0.0
 40
0.0
 40
0.0
 40
0.5011382092
 40
1.0
 40
1.0
 40
1.0
 40
1.0
 10
26.1967996099
 20
242.6138912773
 30
0.0
 10
26.2487222999
 20
242.7626185773
 30
0.0
 10
26.3162569404
 20
243.0731137785
 30
0.0
 10
26.3082971737
 20
243.3908509214
 30
0.0
 10
26.2849447484
 20
243.5459170384
 30
0.0
  0
SPLINE
  5
3CC
100
AcDbEntity
  8
0
100
AcDbSpline
 62
7
  6
CONTINUOUS
 70
0
 71
3
 72
9
 73
5
 74
0
 42
0.0000001
 43
0.0000001
 44
0.0000000001
 40
0.0
 40
0.0
 40
0.0
 40
0.0
 40
0.4985511435
 40
1.0
 40
1.0
 40
1.0
 40
1.0
 10
25.5508448814
 20
243.6279314146
 30
0.0
 10
25.5880103603
 20
243.4728373031
 30
0.0
 10
25.6087718
 20
243.147041122
 30
0.0
 10
25.5255858766
 20
242.8315632785
 30
0.0
 10
25.4594948388
 20
242.685399105
 30
0.0
  0
SPLINE
  5
3CD
100
AcDbEntity
  8
0
100
AcDbSpline
 62
7
  6
CONTINUOUS
 70
0
 71
3
 72
24
 73
20
 74
0
 42
0.0000001
 43
0.0000001
 44
0.0000000001
 40
0.0
 40
0.0
 40
0.0
 40
0.0
 40
0.0585511384
 40
0.1188566366
 40
0.1810585756
 40
0.24506605
 40
0.3105931761
 40
0.377198896
 40
0.4443386159
 40
0.5114179548
 40
0.577847711
 40
0.6430997931
 40
0.7067606816
 40
0.7685806243
 40
0.8285148461
 40
0.8867473532
 40
0.9153807437
 40
0.9437590347
 40
1.0
 40
1.0
 40
1.0
 40
1.0
 10
-27.7136894479
 20
146.9622100699
 30
0.0
 10
-27.8807777826
 20
146.9093019385
 30
0.0
 10
-28.2100641806
 20
146.7679714889
 30
0.0
 10
-28.6625741539
 20
146.4647451734
 30
0.0
 10
-29.067807455
 20
146.0768236805
 30
0.0
 10
-29.4139066852
 20
145.615979939
 30
0.0
 10
-29.6910877047
 20
145.09586627
 30
0.0
 10
-29.8914324851
 20
144.5317608166
 30
0.0
 10
-30.0092111179
 20
143.9401486256
 30
0.0
 10
-30.0410117226
 20
143.3382869841
 30
0.0
 10
-29.9858602371
 20
142.7437264928
 30
0.0
 10
-29.8452398373
 20
142.1738167253
 30
0.0
 10
-29.623040734
 20
141.6452452126
 30
0.0
 10
-29.3253965373
 20
141.1735935367
 30
0.0
 10
-28.9607807658
 20
140.773051944
 30
0.0
 10
-28.6073125512
 20
140.5070278552
 30
0.0
 10
-28.3035058596
 20
140.3424857435
 30
0.0
 10
-27.9903928035
 20
140.2114934852
 30
0.0
 10
-27.7422571167
 20
140.1499756724
 30
0.0
 10
-27.5755338422
 20
140.1266310458
 30
0.0
  0
SPLINE
  5
3CE
100
AcDbEntity
  8
0
100
AcDbSpline
 62
7
  6
CONTINUOUS
 70
0
 71
3
 72
9
 73
5
 74
0
 42
0.0000001
 43
0.0000001
 44
0.0000000001
 40
0.0
 40
0.0
 40
0.0
 40
0.0
 40
0.2418216274
 40
1.0
 40
1.0
 40
1.0
 40
1.0
 10
-23.454703129
 20
144.8499055533
 30
0.0
 10
-23.4623766121
 20
144.8440170959
 30
0.0
 10
-23.4942811738
 20
144.8198918821
 30
0.0
 10
-23.5268418116
 20
144.7966384827
 30
0.0
 10
-23.5518163251
 20
144.7794358753
 30
0.0
  0
SPLINE
  5
3CF
100
AcDbEntity
  8
0
100
AcDbSpline
 62
7
  6
CONTINUOUS
 70
0
 71
3
 72
12
 73
8
 74
0
 42
0.0000001
 43
0.0000001
 44
0.0000000001
 40
0.0
 40
0.0
 40
0.0
 40
0.0
 40
0.0929881752
 40
0.1957133695
 40
0.4294626513
 40
0.6987459787
 40
1.0
 40
1.0
 40
1.0
 40
1.0
 10
-23.5518163251
 20
144.7794358753
 30
0.0
 10
-23.6002250232
 20
144.7460916491
 30
0.0
 10
-23.7044147881
 20
144.6792316462
 30
0.0
 10
-23.9400573841
 20
144.5442590522
 30
0.0
 10
-24.2841918552
 20
144.375467678
 30
0.0
 10
-24.7532910294
 20
144.1789278957
 30
0.0
 10
-25.0922097785
 20
144.0552177605
 30
0.0
 10
-25.2722655676
 20
143.9932099105
 30
0.0
  0
SPLINE
  5
3D0
100
AcDbEntity
  8
0
100
AcDbSpline
 62
7
  6
CONTINUOUS
 70
0
 71
3
 72
11
 73
7
 74
0
 42
0.0000001
 43
0.0000001
 44
0.0000000001
 40
0.0
 40
0.0
 40
0.0
 40
0.0
 40
0.2383577754
 40
0.4875582421
 40
0.7430163785
 40
1.0
 40
1.0
 40
1.0
 40
1.0
 10
-26.0873956496
 20
143.7351008713
 30
0.0
 10
-26.3258450062
 20
143.6654933214
 30
0.0
 10
-26.8161624625
 20
143.5318208951
 30
0.0
 10
-27.5692903781
 20
143.3514176391
 30
0.0
 10
-28.3463348915
 20
143.1889866254
 30
0.0
 10
-28.8720248722
 20
143.0944745064
 30
0.0
 10
-29.1362607233
 20
143.0508535931
 30
0.0
  0
SPLINE
  5
3D1
100
AcDbEntity
  8
0
100
AcDbSpline
 62
7
  6
CONTINUOUS
 70
0
 71
3
 72
15
 73
11
 74
0
 42
0.0000001
 43
0.0000001
 44
0.0000000001
 40
0.0
 40
0.0
 40
0.0
 40
0.0
 40
0.1180061053
 40
0.2368683847
 40
0.3573677477
 40
0.4801449463
 40
0.6056553858
 40
0.7341458879
 40
0.8656494786
 40
1.0
 40
1.0
 40
1.0
 40
1.0
 10
-25.720945898
 20
146.9352053656
 30
0.0
 10
-25.5944903668
 20
146.9174973346
 30
0.0
 10
-25.3430220703
 20
146.861875752
 30
0.0
 10
-24.9816593122
 20
146.7201568218
 30
0.0
 10
-24.641539512
 20
146.5225632917
 30
0.0
 10
-24.3286380565
 20
146.2726790623
 30
0.0
 10
-24.0482274403
 20
145.9749444213
 30
0.0
 10
-23.8050074514
 20
145.6345502047
 30
0.0
 10
-23.6030357171
 20
145.2574500822
 30
0.0
 10
-23.4990739296
 20
144.9883436738
 30
0.0
 10
-23.454703129
 20
144.8499055533
 30
0.0
  0
SPLINE
  5
3D2
100
AcDbEntity
  8
0
100
AcDbSpline
 62
7
  6
CONTINUOUS
 70
0
 71
3
 72
9
 73
5
 74
0
 42
0.0000001
 43
0.0000001
 44
0.0000000001
 40
0.0
 40
0.0
 40
0.0
 40
0.0
 40
0.4962770358
 40
1.0
 40
1.0
 40
1.0
 40
1.0
 10
-26.6046352532
 20
147.0589668699
 30
0.0
 10
-26.7881651722
 20
147.0846647662
 30
0.0
 10
-27.1651186702
 20
147.094120524
 30
0.0
 10
-27.5343640655
 20
147.018993034
 30
0.0
 10
-27.7136894479
 20
146.9622100699
 30
0.0
  0
SPLINE
  5
3D3
100
AcDbEntity
  8
0
100
AcDbSpline
 62
7
  6
CONTINUOUS
 70
0
 71
3
 72
15
 73
11
 74
0
 42
0.0000001
 43
0.0000001
 44
0.0000000001
 40
0.0
 40
0.0
 40
0.0
 40
0.0
 40
0.1307599607
 40
0.2619220035
 40
0.3922488606
 40
0.5205725421
 40
0.6459342057
 40
0.7676938412
 40
0.8856258074
 40
1.0
 40
1.0
 40
1.0
 40
1.0
 10
-23.2765303004
 20
143.8872166642
 30
0.0
 10
-23.264161221
 20
143.6803652572
 30
0.0
 10
-23.2709203418
 20
143.2634968951
 30
0.0
 10
-23.3733772305
 20
142.648178012
 30
0.0
 10
-23.5649637674
 20
142.0583961906
 30
0.0
 10
-23.83986469
 20
141.5127230776
 30
0.0
 10
-24.1896811662
 20
141.0281999809
 30
0.0
 10
-24.6038960886
 20
140.6201530278
 30
0.0
 10
-25.0695983832
 20
140.30180627
 30
0.0
 10
-25.4099928923
 20
140.1543400114
 30
0.0
 10
-25.5827906116
 20
140.0996240166
 30
0.0
  0
SPLINE
  5
3D4
100
AcDbEntity
  8
0
100
AcDbSpline
 62
7
  6
CONTINUOUS
 70
0
 71
3
 72
9
 73
5
 74
0
 42
0.0000001
 43
0.0000001
 44
0.0000000001
 40
0.0
 40
0.0
 40
0.0
 40
0.0
 40
0.5037203558
 40
1.0
 40
1.0
 40
1.0
 40
1.0
 10
-25.5827906116
 20
140.0996240166
 30
0.0
 10
-25.7621151025
 20
140.0428413348
 30
0.0
 10
-26.1313603205
 20
139.9677162971
 30
0.0
 10
-26.5083145433
 20
139.9771644323
 30
0.0
 10
-26.6918451257
 20
140.0028648917
 30
0.0
  0
SPLINE
  5
3D5
100
AcDbEntity
  8
0
100
AcDbSpline
 62
7
  6
CONTINUOUS
 70
0
 71
3
 72
9
 73
5
 74
0
 42
0.0000001
 43
0.0000001
 44
0.0000000001
 40
0.0
 40
0.0
 40
0.0
 40
0.0
 40
0.5139098264
 40
1.0
 40
1.0
 40
1.0
 40
1.0
 10
-25.9092228209
 20
142.7724119822
 30
0.0
 10
-25.8715464461
 20
142.5083110108
 30
0.0
 10
-25.8161232659
 20
141.9916532152
 30
0.0
 10
-25.8010602808
 20
141.4720644705
 30
0.0
 10
-25.8053364474
 20
141.2197672477
 30
0.0
  0
SPLINE
  5
3D6
100
AcDbEntity
  8
0
100
AcDbSpline
 62
7
  6
CONTINUOUS
 70
0
 71
3
 72
9
 73
5
 74
0
 42
0.0000001
 43
0.0000001
 44
0.0000000001
 40
0.0
 40
0.0
 40
0.0
 40
0.0
 40
0.2475366593
 40
1.0
 40
1.0
 40
1.0
 40
1.0
 10
-23.5504506466
 20
144.78052078
 30
0.0
 10
-23.529728355
 20
144.7100466415
 30
0.0
 10
-23.4543342873
 20
144.4229483471
 30
0.0
 10
-23.4121842413
 20
144.1272474091
 30
0.0
 10
-23.398855586
 20
143.9043487606
 30
0.0
  0
SPLINE
  5
3D7
100
AcDbEntity
  8
0
100
AcDbSpline
 62
7
  6
CONTINUOUS
 70
0
 71
3
 72
9
 73
5
 74
0
 42
0.0000001
 43
0.0000001
 44
0.0000000001
 40
0.0
 40
0.0
 40
0.0
 40
0.0
 40
0.2530791576
 40
1.0
 40
1.0
 40
1.0
 40
1.0
 10
-27.711717976
 20
143.3240766798
 30
0.0
 10
-27.710016999
 20
143.2831072009
 30
0.0
 10
-27.6981538842
 20
143.1214891122
 30
0.0
 10
-27.6655247043
 20
142.961304087
 30
0.0
 10
-27.6293207606
 20
142.84582764
 30
0.0
  0
SPLINE
  5
3D8
100
AcDbEntity
  8
0
100
AcDbSpline
 62
7
  6
CONTINUOUS
 70
0
 71
3
 72
9
 73
5
 74
0
 42
0.0000001
 43
0.0000001
 44
0.0000000001
 40
0.0
 40
0.0
 40
0.0
 40
0.0
 40
0.507625849
 40
1.0
 40
1.0
 40
1.0
 40
1.0
 10
-26.9851191103
 20
142.9810142529
 30
0.0
 10
-27.08305688
 20
142.9455832947
 30
0.0
 10
-27.2748509142
 20
142.8726577052
 30
0.0
 10
-27.4658478239
 20
142.7977322312
 30
0.0
 10
-27.5598155366
 20
142.7606483917
 30
0.0
  0
SPLINE
  5
3D9
100
AcDbEntity
  8
0
100
AcDbSpline
 62
7
  6
CONTINUOUS
 70
0
 71
3
 72
9
 73
5
 74
0
 42
0.0000001
 43
0.0000001
 44
0.0000000001
 40
0.0
 40
0.0
 40
0.0
 40
0.0
 40
0.4970926296
 40
1.0
 40
1.0
 40
1.0
 40
1.0
 10
-25.8016341909
 20
145.605508708
 30
0.0
 10
-25.8680828359
 20
145.6016796754
 30
0.0
 10
-26.001393344
 20
145.5854148297
 30
0.0
 10
-26.1316124801
 20
145.552661036
 30
0.0
 10
-26.1958084636
 20
145.5323335276
 30
0.0
  0
SPLINE
  5
3DA
100
AcDbEntity
  8
0
100
AcDbSpline
 62
7
  6
CONTINUOUS
 70
0
 71
3
 72
9
 73
5
 74
0
 42
0.0000001
 43
0.0000001
 44
0.0000000001
 40
0.0
 40
0.0
 40
0.0
 40
0.0
 40
0.2470037021
 40
1.0
 40
1.0
 40
1.0
 40
1.0
 10
-26.1958084636
 20
145.5323335276
 30
0.0
 10
-26.2282715338
 20
145.5220541721
 30
0.0
 10
-26.3584140027
 20
145.4764509578
 30
0.0
 10
-26.4829532089
 20
145.4151109238
 30
0.0
 10
-26.5719100129
 20
145.3616073156
 30
0.0
  0
SPLINE
  5
3DB
100
AcDbEntity
  8
0
100
AcDbSpline
 62
7
  6
CONTINUOUS
 70
0
 71
3
 72
15
 73
11
 74
0
 42
0.0000001
 43
0.0000001
 44
0.0000000001
 40
0.0
 40
0.0
 40
0.0
 40
0.0
 40
0.1180061053
 40
0.2368683847
 40
0.3573677477
 40
0.4801449463
 40
0.6056553858
 40
0.7341458879
 40
0.8656494786
 40
1.0
 40
1.0
 40
1.0
 40
1.0
 10
-26.6918451257
 20
140.0028648917
 30
0.0
 10
-26.8183006568
 20
140.0205729227
 30
0.0
 10
-27.0697689534
 20
140.0761945053
 30
0.0
 10
-27.4311317114
 20
140.2179134355
 30
0.0
 10
-27.7712515116
 20
140.4155069656
 30
0.0
 10
-28.0841529671
 20
140.6653911949
 30
0.0
 10
-28.3645635834
 20
140.963125836
 30
0.0
 10
-28.6077835723
 20
141.3035200526
 30
0.0
 10
-28.8097553065
 20
141.6806201751
 30
0.0
 10
-28.913717094
 20
141.9497265835
 30
0.0
 10
-28.9580878946
 20
142.088164704
 30
0.0
  0
SPLINE
  5
3DC
100
AcDbEntity
  8
0
100
AcDbSpline
 62
7
  6
CONTINUOUS
 70
0
 71
3
 72
9
 73
5
 74
0
 42
0.0000001
 43
0.0000001
 44
0.0000000001
 40
0.0
 40
0.0
 40
0.0
 40
0.0
 40
0.4880131293
 40
1.0
 40
1.0
 40
1.0
 40
1.0
 10
-25.0350741055
 20
141.4635975278
 30
0.0
 10
-25.018426395
 20
141.7184326344
 30
0.0
 10
-25.0133980881
 20
142.2427713862
 30
0.0
 10
-25.0590692084
 20
142.7648962449
 30
0.0
 10
-25.094092739
 20
143.0305210214
 30
0.0
  0
SPLINE
  5
3DD
100
AcDbEntity
  8
0
100
AcDbSpline
 62
7
  6
CONTINUOUS
 70
0
 71
3
 72
13
 73
9
 74
0
 42
0.0000001
 43
0.0000001
 44
0.0000000001
 40
0.0
 40
0.0
 40
0.0
 40
0.0
 40
0.3083864432
 40
0.5804031301
 40
0.701424071
 40
0.8118728728
 40
0.9114506382
 40
1.0
 40
1.0
 40
1.0
 40
1.0
 10
-25.094092739
 20
143.0305210214
 30
0.0
 10
-24.8981110786
 20
143.0980134439
 30
0.0
 10
-24.5317387735
 20
143.2324278671
 30
0.0
 10
-24.097809867
 20
143.4175801455
 30
0.0
 10
-23.794082861
 20
143.5669931101
 30
0.0
 10
-23.5986197065
 20
143.673485136
 30
0.0
 10
-23.4273698364
 20
143.7782881266
 30
0.0
 10
-23.3237473434
 20
143.8509833725
 30
0.0
 10
-23.2765303004
 20
143.8872166642
 30
0.0
  0
SPLINE
  5
3DE
100
AcDbEntity
  8
0
100
AcDbSpline
 62
7
  6
CONTINUOUS
 70
0
 71
3
 72
11
 73
7
 74
0
 42
0.0000001
 43
0.0000001
 44
0.0000000001
 40
0.0
 40
0.0
 40
0.0
 40
0.0
 40
0.2569833916
 40
0.5124414722
 40
0.761642089
 40
1.0
 40
1.0
 40
1.0
 40
1.0
 10
-28.9580878946
 20
142.088164704
 30
0.0
 10
-28.69385228
 20
142.1317855782
 30
0.0
 10
-28.1681625912
 20
142.2262976371
 30
0.0
 10
-27.3911182117
 20
142.3887286006
 30
0.0
 10
-26.6379900581
 20
142.5691318928
 30
0.0
 10
-26.1476723131
 20
142.7028043927
 30
0.0
 10
-25.9092228209
 20
142.7724119822
 30
0.0
  0
SPLINE
  5
3DF
100
AcDbEntity
  8
0
100
AcDbSpline
 62
7
  6
CONTINUOUS
 70
0
 71
3
 72
15
 73
11
 74
0
 42
0.0000001
 43
0.0000001
 44
0.0000000001
 40
0.0
 40
0.0
 40
0.0
 40
0.0
 40
0.1307599607
 40
0.2619220035
 40
0.3922488606
 40
0.5205725421
 40
0.6459342057
 40
0.7676938412
 40
0.8856258074
 40
1.0
 40
1.0
 40
1.0
 40
1.0
 10
-29.1362607233
 20
143.0508535931
 30
0.0
 10
-29.1486298027
 20
143.2577050001
 30
0.0
 10
-29.1418706819
 20
143.6745733622
 30
0.0
 10
-29.0394137931
 20
144.2898922453
 30
0.0
 10
-28.8478272562
 20
144.8796740667
 30
0.0
 10
-28.5729263336
 20
145.4253471797
 30
0.0
 10
-28.2231098575
 20
145.9098702764
 30
0.0
 10
-27.8088949351
 20
146.3179172295
 30
0.0
 10
-27.3431926404
 20
146.6362639873
 30
0.0
 10
-27.0027981314
 20
146.7837302459
 30
0.0
 10
-26.8300004121
 20
146.8384462407
 30
0.0
  0
SPLINE
  5
3E0
100
AcDbEntity
  8
0
100
AcDbSpline
 62
7
  6
CONTINUOUS
 70
0
 71
3
 72
9
 73
5
 74
0
 42
0.0000001
 43
0.0000001
 44
0.0000000001
 40
0.0
 40
0.0
 40
0.0
 40
0.0
 40
0.4970926771
 40
1.0
 40
1.0
 40
1.0
 40
1.0
 10
-25.8053520229
 20
141.2197056857
 30
0.0
 10
-25.7389033736
 20
141.2235347659
 30
0.0
 10
-25.6055928583
 20
141.2397995285
 30
0.0
 10
-25.4753737254
 20
141.2725533595
 30
0.0
 10
-25.4111777474
 20
141.2928808662
 30
0.0
  0
SPLINE
  5
3E1
100
AcDbEntity
  8
0
100
AcDbSpline
 62
7
  6
CONTINUOUS
 70
0
 71
3
 72
9
 73
5
 74
0
 42
0.0000001
 43
0.0000001
 44
0.0000000001
 40
0.0
 40
0.0
 40
0.0
 40
0.0
 40
0.247003704
 40
1.0
 40
1.0
 40
1.0
 40
1.0
 10
-25.4111777474
 20
141.2928808662
 30
0.0
 10
-25.378714677
 20
141.3031602218
 30
0.0
 10
-25.2485722113
 20
141.3487634409
 30
0.0
 10
-25.1240329804
 20
141.4101034341
 30
0.0
 10
-25.0350761983
 20
141.4636070781
 30
0.0
  0
SPLINE
  5
3E2
100
AcDbEntity
  8
0
100
AcDbSpline
 62
7
  6
CONTINUOUS
 70
0
 71
3
 72
9
 73
5
 74
0
 42
0.0000001
 43
0.0000001
 44
0.0000000001
 40
0.0
 40
0.0
 40
0.0
 40
0.0
 40
0.4967273344
 40
1.0
 40
1.0
 40
1.0
 40
1.0
 10
-26.4236302086
 20
143.158808404
 30
0.0
 10
-26.3010726308
 20
143.192998331
 30
0.0
 10
-26.0535419797
 20
143.2589378748
 30
0.0
 10
-25.8056278709
 20
143.3233641593
 30
0.0
 10
-25.6808169799
 20
143.355628902
 30
0.0
  0
SPLINE
  5
3E3
100
AcDbEntity
  8
0
100
AcDbSpline
 62
7
  6
CONTINUOUS
 70
0
 71
3
 72
9
 73
5
 74
0
 42
0.0000001
 43
0.0000001
 44
0.0000000001
 40
0.0
 40
0.0
 40
0.0
 40
0.0
 40
0.5037203558
 40
1.0
 40
1.0
 40
1.0
 40
1.0
 10
-26.8300004121
 20
146.8384462407
 30
0.0
 10
-26.6506759211
 20
146.8952289225
 30
0.0
 10
-26.2814307032
 20
146.9703539602
 30
0.0
 10
-25.9044764803
 20
146.960905825
 30
0.0
 10
-25.720945898
 20
146.9352053656
 30
0.0
  0
SPLINE
  5
3E4
100
AcDbEntity
  8
0
100
AcDbSpline
 62
7
  6
CONTINUOUS
 70
0
 71
3
 72
9
 73
5
 74
0
 42
0.0000001
 43
0.0000001
 44
0.0000000001
 40
0.0
 40
0.0
 40
0.0
 40
0.0
 40
0.2526323852
 40
1.0
 40
1.0
 40
1.0
 40
1.0
 10
-27.6293207606
 20
142.84582764
 30
0.0
 10
-27.6225475737
 20
142.8242238181
 30
0.0
 10
-27.5940871097
 20
142.7392372741
 30
0.0
 10
-27.5590079163
 20
142.6564494998
 30
0.0
 10
-27.529115376
 20
142.5965116318
 30
0.0
  0
SPLINE
  5
3E5
100
AcDbEntity
  8
0
100
AcDbSpline
 62
7
  6
CONTINUOUS
 70
0
 71
3
 72
9
 73
5
 74
0
 42
0.0000001
 43
0.0000001
 44
0.0000000001
 40
0.0
 40
0.0
 40
0.0
 40
0.0
 40
0.5042855821
 40
1.0
 40
1.0
 40
1.0
 40
1.0
 10
-24.9501533903
 20
143.4131339292
 30
0.0
 10
-24.9411847257
 20
143.5266389395
 30
0.0
 10
-24.9428861963
 20
143.7537067235
 30
0.0
 10
-24.9847200165
 20
143.9770174958
 30
0.0
 10
-25.0155532294
 20
144.084610243
 30
0.0
  0
SPLINE
  5
3E6
100
AcDbEntity
  8
0
100
AcDbSpline
 62
7
  6
CONTINUOUS
 70
0
 71
3
 72
8
 73
4
 74
0
 42
0.0000001
 43
0.0000001
 44
0.0000000001
 40
0.0
 40
0.0
 40
0.0
 40
0.0
 40
1.0
 40
1.0
 40
1.0
 40
1.0
 10
-27.5598155366
 20
142.7606483917
 30
0.0
 10
-27.5522777734
 20
142.7055000917
 30
0.0
 10
-27.5413187134
 20
142.6508184585
 30
0.0
 10
-27.529115376
 20
142.5965116318
 30
0.0
  0
SPLINE
  5
3E7
100
AcDbEntity
  8
0
100
AcDbSpline
 62
7
  6
CONTINUOUS
 70
0
 71
3
 72
9
 73
5
 74
0
 42
0.0000001
 43
0.0000001
 44
0.0000000001
 40
0.0
 40
0.0
 40
0.0
 40
0.0
 40
0.4948900577
 40
1.0
 40
1.0
 40
1.0
 40
1.0
 10
-25.7287724278
 20
144.0391989196
 30
0.0
 10
-25.6934611279
 20
143.9309596841
 30
0.0
 10
-25.6500990693
 20
143.7023628658
 30
0.0
 10
-25.6616720882
 20
143.4702456483
 30
0.0
 10
-25.6808169799
 20
143.355628902
 30
0.0
  0
SPLINE
  5
3E8
100
AcDbEntity
  8
0
100
AcDbSpline
 62
7
  6
CONTINUOUS
 70
0
 71
3
 72
9
 73
5
 74
0
 42
0.0000001
 43
0.0000001
 44
0.0000000001
 40
0.0
 40
0.0
 40
0.0
 40
0.0
 40
0.4961250069
 40
1.0
 40
1.0
 40
1.0
 40
1.0
 10
-29.0804131803
 20
142.1052968004
 30
0.0
 10
-29.1299269976
 20
142.2597812749
 30
0.0
 10
-29.2094607306
 20
142.5779768197
 30
0.0
 10
-29.2487514633
 20
142.9035199658
 30
0.0
 10
-29.2585860089
 20
143.0679856895
 30
0.0
  0
SPLINE
  5
3E9
100
AcDbEntity
  8
0
100
AcDbSpline
 62
7
  6
CONTINUOUS
 70
0
 71
3
 72
21
 73
17
 74
0
 42
0.0000001
 43
0.0000001
 44
0.0000000001
 40
0.0
 40
0.0
 40
0.0
 40
0.0
 40
0.0584322135
 40
0.1186022655
 40
0.1806828891
 40
0.2446061805
 40
0.3763532371
 40
0.5104116658
 40
0.5769927785
 40
0.6424129941
 40
0.7062438315
 40
0.7682225679
 40
0.8282954707
 40
0.8866429665
 40
0.9436769111
 40
1.0
 40
1.0
 40
1.0
 40
1.0
 10
-40.0344599063
 20
229.6167508563
 30
0.0
 10
-40.2036493415
 20
229.5679310441
 30
0.0
 10
-40.5378833804
 20
229.4340012657
 30
0.0
 10
-40.9989835336
 20
229.1391136969
 30
0.0
 10
-41.4135145184
 20
228.7568325954
 30
0.0
 10
-41.8918983698
 20
228.1411148797
 30
0.0
 10
-42.3082082307
 20
227.2210943861
 30
0.0
 10
-42.4448143954
 20
226.2138053176
 30
0.0
 10
-42.3777551435
 20
225.4123105324
 30
0.0
 10
-42.2405260717
 20
224.8358563832
 30
0.0
 10
-42.0201115706
 20
224.3006992249
 30
0.0
 10
-41.7227177949
 20
223.8227451093
 30
0.0
 10
-41.3568381763
 20
223.416577978
 30
0.0
 10
-40.9329940782
 20
223.0948668156
 30
0.0
 10
-40.4641118571
 20
222.8680746146
 30
0.0
 10
-40.1297567428
 20
222.7849380869
 30
0.0
 10
-39.9616608519
 20
222.7613988337
 30
0.0
  0
SPLINE
  5
3EA
100
AcDbEntity
  8
0
100
AcDbSpline
 62
7
  6
CONTINUOUS
 70
0
 71
3
 72
9
 73
5
 74
0
 42
0.0000001
 43
0.0000001
 44
0.0000000001
 40
0.0
 40
0.0
 40
0.0
 40
0.0
 40
0.2413899883
 40
1.0
 40
1.0
 40
1.0
 40
1.0
 10
-35.8182069933
 20
227.4115145273
 30
0.0
 10
-35.8261091043
 20
227.4059225431
 30
0.0
 10
-35.8590091244
 20
227.3829890657
 30
0.0
 10
-35.8925309694
 20
227.3609522443
 30
0.0
 10
-35.9182295847
 20
227.3446692915
 30
0.0
  0
SPLINE
  5
3EB
100
AcDbEntity
  8
0
100
AcDbSpline
 62
7
  6
CONTINUOUS
 70
0
 71
3
 72
12
 73
8
 74
0
 42
0.0000001
 43
0.0000001
 44
0.0000000001
 40
0.0
 40
0.0
 40
0.0
 40
0.0
 40
0.0924416654
 40
0.1947991476
 40
0.4282984497
 40
0.6979068079
 40
1.0
 40
1.0
 40
1.0
 40
1.0
 10
-35.9182295847
 20
227.3446692915
 30
0.0
 10
-35.9671393075
 20
227.313679501
 30
0.0
 10
-36.0722836907
 20
227.2516336777
 30
0.0
 10
-36.309728181
 20
227.1266288579
 30
0.0
 10
-36.6558515036
 20
226.9708150111
 30
0.0
 10
-37.1268543382
 20
226.790027459
 30
0.0
 10
-37.4666468876
 20
226.676658984
 30
0.0
 10
-37.6471499079
 20
226.6198997804
 30
0.0
  0
SPLINE
  5
3EC
100
AcDbEntity
  8
0
100
AcDbSpline
 62
7
  6
CONTINUOUS
 70
0
 71
3
 72
11
 73
7
 74
0
 42
0.0000001
 43
0.0000001
 44
0.0000000001
 40
0.0
 40
0.0
 40
0.0
 40
0.0
 40
0.2380947468
 40
0.4872231677
 40
0.7427772623
 40
1.0
 40
1.0
 40
1.0
 40
1.0
 10
-38.4660924656
 20
226.3835929342
 30
0.0
 10
-38.7057124629
 20
226.3199870785
 30
0.0
 10
-39.1982858579
 20
226.1981268816
 30
0.0
 10
-39.9542976952
 20
226.034483845
 30
0.0
 10
-40.7340830507
 20
225.8879527614
 30
0.0
 10
-41.2613409919
 20
225.8033159761
 30
0.0
 10
-41.5263380154
 20
225.7644265518
 30
0.0
  0
SPLINE
  5
3ED
100
AcDbEntity
  8
0
100
AcDbSpline
 62
7
  6
CONTINUOUS
 70
0
 71
3
 72
15
 73
11
 74
0
 42
0.0000001
 43
0.0000001
 44
0.0000000001
 40
0.0
 40
0.0
 40
0.0
 40
0.0
 40
0.1177939327
 40
0.2364787364
 40
0.3568645829
 40
0.4796093978
 40
0.6051714959
 40
0.7337868385
 40
0.8654625332
 40
1.0
 40
1.0
 40
1.0
 40
1.0
 10
-38.1070734036
 20
229.5699696423
 30
0.0
 10
-37.9778737516
 20
229.5518784063
 30
0.0
 10
-37.7209527568
 20
229.4945889969
 30
0.0
 10
-37.3522841997
 20
229.3478441872
 30
0.0
 10
-37.0060840129
 20
229.1429045672
 30
0.0
 10
-36.6886976364
 20
228.883654212
 30
0.0
 10
-36.4056970507
 20
228.5749036375
 30
0.0
 10
-36.1620262166
 20
228.2222683178
 30
0.0
 10
-35.9619140393
 20
227.8321795603
 30
0.0
 10
-35.8607720769
 20
227.5543095663
 30
0.0
 10
-35.8182069933
 20
227.4115145273
 30
0.0
  0
SPLINE
  5
3EE
100
AcDbEntity
  8
0
100
AcDbSpline
 62
7
  6
CONTINUOUS
 70
0
 71
3
 72
9
 73
5
 74
0
 42
0.0000001
 43
0.0000001
 44
0.0000000001
 40
0.0
 40
0.0
 40
0.0
 40
0.0
 40
0.4966878392
 40
1.0
 40
1.0
 40
1.0
 40
1.0
 10
-38.9907627731
 20
229.6937310747
 30
0.0
 10
-39.1633114335
 20
229.7178938701
 30
0.0
 10
-39.5169491388
 20
229.7291980537
 30
0.0
 10
-39.864824791
 20
229.66569927
 30
0.0
 10
-40.0344599063
 20
229.6167508563
 30
0.0
  0
SPLINE
  5
3EF
100
AcDbEntity
  8
0
100
AcDbSpline
 62
7
  6
CONTINUOUS
 70
0
 71
3
 72
15
 73
11
 74
0
 42
0.0000001
 43
0.0000001
 44
0.0000000001
 40
0.0
 40
0.0
 40
0.0
 40
0.0
 40
0.1311752736
 40
0.2625940361
 40
0.3930200032
 40
0.5213019955
 40
0.6465136035
 40
0.768061666
 40
0.8857790064
 40
1.0
 40
1.0
 40
1.0
 40
1.0
 10
-35.6587075379
 20
226.4431756982
 30
0.0
 10
-35.6503198532
 20
226.2359325643
 30
0.0
 10
-35.6650024583
 20
225.8191431886
 30
0.0
 10
-35.779040653
 20
225.2060401714
 30
0.0
 10
-35.9816120198
 20
224.6208700686
 30
0.0
 10
-36.2665677003
 20
224.0820668603
 30
0.0
 10
-36.6252078442
 20
223.606470896
 30
0.0
 10
-37.046747449
 20
223.2091559878
 30
0.0
 10
-37.5180349144
 20
222.903038592
 30
0.0
 10
-37.8607493848
 20
222.7646861535
 30
0.0
 10
-38.0342746828
 20
222.7146152229
 30
0.0
  0
SPLINE
  5
3F0
100
AcDbEntity
  8
0
100
AcDbSpline
 62
7
  6
CONTINUOUS
 70
0
 71
3
 72
9
 73
5
 74
0
 42
0.0000001
 43
0.0000001
 44
0.0000000001
 40
0.0
 40
0.0
 40
0.0
 40
0.0
 40
0.5033101734
 40
1.0
 40
1.0
 40
1.0
 40
1.0
 10
-38.0342746828
 20
222.7146152229
 30
0.0
 10
-38.2039091618
 20
222.6656669929
 30
0.0
 10
-38.551784958
 20
222.6021689445
 30
0.0
 10
-38.9054225456
 20
222.6134712764
 30
0.0
 10
-39.0779721497
 20
222.6376326077
 30
0.0
  0
SPLINE
  5
3F1
100
AcDbEntity
  8
0
100
AcDbSpline
 62
7
  6
CONTINUOUS
 70
0
 71
3
 72
9
 73
5
 74
0
 42
0.0000001
 43
0.0000001
 44
0.0000000001
 40
0.0
 40
0.0
 40
0.0
 40
0.0
 40
0.5134267314
 40
1.0
 40
1.0
 40
1.0
 40
1.0
 10
-38.3065930102
 20
225.415254105
 30
0.0
 10
-38.2740475811
 20
225.149315161
 30
0.0
 10
-38.2287704162
 20
224.6289292786
 30
0.0
 10
-38.2241043356
 20
224.1064189931
 30
0.0
 10
-38.2334342274
 20
223.8526804987
 30
0.0
  0
SPLINE
  5
3F2
100
AcDbEntity
  8
0
100
AcDbSpline
 62
7
  6
CONTINUOUS
 70
0
 71
3
 72
9
 73
5
 74
0
 42
0.0000001
 43
0.0000001
 44
0.0000000001
 40
0.0
 40
0.0
 40
0.0
 40
0.0
 40
0.2476571309
 40
1.0
 40
1.0
 40
1.0
 40
1.0
 10
-35.9168315875
 20
227.3456787946
 30
0.0
 10
-35.8973094972
 20
227.2742655189
 30
0.0
 10
-35.8269022731
 20
226.9836590601
 30
0.0
 10
-35.79012777
 20
226.6850259696
 30
0.0
 10
-35.7810328236
 20
226.4603077946
 30
0.0
  0
SPLINE
  5
3F3
100
AcDbEntity
  8
0
100
AcDbSpline
 62
7
  6
CONTINUOUS
 70
0
 71
3
 72
9
 73
5
 74
0
 42
0.0000001
 43
0.0000001
 44
0.0000000001
 40
0.0
 40
0.0
 40
0.0
 40
0.0
 40
0.2532694763
 40
1.0
 40
1.0
 40
1.0
 40
1.0
 10
-40.0992883703
 20
226.009614022
 30
0.0
 10
-40.0985954161
 20
225.9643130342
 30
0.0
 10
-40.0896198305
 20
225.7856145069
 30
0.0
 10
-40.0554143237
 20
225.6080541297
 30
0.0
 10
-40.0154475265
 20
225.480593883
 30
0.0
  0
SPLINE
  5
3F4
100
AcDbEntity
  8
0
100
AcDbSpline
 62
7
  6
CONTINUOUS
 70
0
 71
3
 72
9
 73
5
 74
0
 42
0.0000001
 43
0.0000001
 44
0.0000000001
 40
0.0
 40
0.0
 40
0.0
 40
0.0
 40
0.50774837
 40
1.0
 40
1.0
 40
1.0
 40
1.0
 10
-39.3818961422
 20
225.6204643196
 30
0.0
 10
-39.4802923095
 20
225.5879265606
 30
0.0
 10
-39.673086401
 20
225.5208542574
 30
0.0
 10
-39.8651802478
 20
225.4518633832
 30
0.0
 10
-39.9596736557
 20
225.4177181001
 30
0.0
  0
SPLINE
  5
3F5
100
AcDbEntity
  8
0
100
AcDbSpline
 62
7
  6
CONTINUOUS
 70
0
 71
3
 72
9
 73
5
 74
0
 42
0.0000001
 43
0.0000001
 44
0.0000000001
 40
0.0
 40
0.0
 40
0.0
 40
0.0
 40
0.4973007228
 40
1.0
 40
1.0
 40
1.0
 40
1.0
 10
-38.1457897283
 20
228.2421274525
 30
0.0
 10
-38.2121883602
 20
228.2400916087
 30
0.0
 10
-38.3455741021
 20
228.2274276897
 30
0.0
 10
-38.4763004798
 20
228.1981569677
 30
0.0
 10
-38.5408191835
 20
228.1795400192
 30
0.0
  0
SPLINE
  5
3F6
100
AcDbEntity
  8
0
100
AcDbSpline
 62
7
  6
CONTINUOUS
 70
0
 71
3
 72
9
 73
5
 74
0
 42
0.0000001
 43
0.0000001
 44
0.0000000001
 40
0.0
 40
0.0
 40
0.0
 40
0.0
 40
0.2470943937
 40
1.0
 40
1.0
 40
1.0
 40
1.0
 10
-38.5408191835
 20
228.1795400192
 30
0.0
 10
-38.5734290254
 20
228.1701304106
 30
0.0
 10
-38.704217208
 20
228.1280211852
 30
0.0
 10
-38.8297903213
 20
228.0699862121
 30
0.0
 10
-38.9196681475
 20
228.0188285453
 30
0.0
  0
SPLINE
  5
3F7
100
AcDbEntity
  8
0
100
AcDbSpline
 62
7
  6
CONTINUOUS
 70
0
 71
3
 72
15
 73
11
 74
0
 42
0.0000001
 43
0.0000001
 44
0.0000000001
 40
0.0
 40
0.0
 40
0.0
 40
0.0
 40
0.1177939327
 40
0.2364787364
 40
0.3568645829
 40
0.4796093978
 40
0.6051714959
 40
0.7337868385
 40
0.8654625332
 40
1.0
 40
1.0
 40
1.0
 40
1.0
 10
-39.0779721497
 20
222.6376326077
 30
0.0
 10
-39.2071718017
 20
222.6557238437
 30
0.0
 10
-39.4640927965
 20
222.713013253
 30
0.0
 10
-39.8327613536
 20
222.8597580628
 30
0.0
 10
-40.1789615404
 20
223.0646976828
 30
0.0
 10
-40.4963479169
 20
223.323948038
 30
0.0
 10
-40.7793485026
 20
223.6326986125
 30
0.0
 10
-41.0230193367
 20
223.9853339322
 30
0.0
 10
-41.223131514
 20
224.3754226897
 30
0.0
 10
-41.3242734764
 20
224.6532926837
 30
0.0
 10
-41.36683856
 20
224.7960877227
 30
0.0
  0
SPLINE
  5
3F8
100
AcDbEntity
  8
0
100
AcDbSpline
 62
7
  6
CONTINUOUS
 70
0
 71
3
 72
9
 73
5
 74
0
 42
0.0000001
 43
0.0000001
 44
0.0000000001
 40
0.0
 40
0.0
 40
0.0
 40
0.0
 40
0.4884485371
 40
1.0
 40
1.0
 40
1.0
 40
1.0
 10
-37.4595706961
 20
224.0759081605
 30
0.0
 10
-37.4378492121
 20
224.3318756366
 30
0.0
 10
-37.4223744611
 20
224.8586306122
 30
0.0
 10
-37.4577880325
 20
225.3841855251
 30
0.0
 10
-37.4876504526
 20
225.6515609512
 30
0.0
  0
SPLINE
  5
3F9
100
AcDbEntity
  8
0
100
AcDbSpline
 62
7
  6
CONTINUOUS
 70
0
 71
3
 72
13
 73
9
 74
0
 42
0.0000001
 43
0.0000001
 44
0.0000000001
 40
0.0
 40
0.0
 40
0.0
 40
0.0
 40
0.3095455686
 40
0.582018076
 40
0.7029722809
 40
0.8131408116
 40
0.9122087852
 40
1.0
 40
1.0
 40
1.0
 40
1.0
 10
-37.4876504526
 20
225.6515609512
 30
0.0
 10
-37.2908523769
 20
225.7134441375
 30
0.0
 10
-36.9229785307
 20
225.8368334469
 30
0.0
 10
-36.4863905304
 20
226.00760037
 30
0.0
 10
-36.1804878768
 20
226.1458538806
 30
0.0
 10
-35.9836850827
 20
226.2444783729
 30
0.0
 10
-35.8111534235
 20
226.3417006192
 30
0.0
 10
-35.7064674965
 20
226.4093780288
 30
0.0
 10
-35.6587075379
 20
226.4431756982
 30
0.0
  0
SPLINE
  5
3FA
100
AcDbEntity
  8
0
100
AcDbSpline
 62
7
  6
CONTINUOUS
 70
0
 71
3
 72
11
 73
7
 74
0
 42
0.0000001
 43
0.0000001
 44
0.0000000001
 40
0.0
 40
0.0
 40
0.0
 40
0.0
 40
0.2572225076
 40
0.5127765466
 40
0.7619051178
 40
1.0
 40
1.0
 40
1.0
 40
1.0
 10
-41.36683856
 20
224.7960877227
 30
0.0
 10
-41.1018417737
 20
224.8349771122
 30
0.0
 10
-40.5745841252
 20
224.9196138433
 30
0.0
 10
-39.7947989046
 20
225.0661448807
 30
0.0
 10
-39.0387868289
 20
225.2297879494
 30
0.0
 10
-38.5462131438
 20
225.3516482132
 30
0.0
 10
-38.3065930102
 20
225.415254105
 30
0.0
  0
SPLINE
  5
3FB
100
AcDbEntity
  8
0
100
AcDbSpline
 62
7
  6
CONTINUOUS
 70
0
 71
3
 72
15
 73
11
 74
0
 42
0.0000001
 43
0.0000001
 44
0.0000000001
 40
0.0
 40
0.0
 40
0.0
 40
0.0
 40
0.1311752736
 40
0.2625940361
 40
0.3930200032
 40
0.5213019955
 40
0.6465136035
 40
0.768061666
 40
0.8857790064
 40
1.0
 40
1.0
 40
1.0
 40
1.0
 10
-41.5263380154
 20
225.7644265518
 30
0.0
 10
-41.5347257001
 20
225.9716696857
 30
0.0
 10
-41.520043095
 20
226.3884590614
 30
0.0
 10
-41.4060049003
 20
227.0015620786
 30
0.0
 10
-41.2034335335
 20
227.5867321814
 30
0.0
 10
-40.9184778529
 20
228.1255353897
 30
0.0
 10
-40.5598377091
 20
228.601131354
 30
0.0
 10
-40.1382981043
 20
228.9984462622
 30
0.0
 10
-39.6670106389
 20
229.304563658
 30
0.0
 10
-39.3242961685
 20
229.4429160965
 30
0.0
 10
-39.1507708705
 20
229.4929870271
 30
0.0
  0
SPLINE
  5
3FC
100
AcDbEntity
  8
0
100
AcDbSpline
 62
7
  6
CONTINUOUS
 70
0
 71
3
 72
9
 73
5
 74
0
 42
0.0000001
 43
0.0000001
 44
0.0000000001
 40
0.0
 40
0.0
 40
0.0
 40
0.0
 40
0.4973007709
 40
1.0
 40
1.0
 40
1.0
 40
1.0
 10
-38.2334510151
 20
223.8526189339
 30
0.0
 10
-38.1670523774
 20
223.8546548189
 30
0.0
 10
-38.033666631
 20
223.8673186652
 30
0.0
 10
-37.9029402552
 20
223.8965894205
 30
0.0
 10
-37.8384215572
 20
223.9152063673
 30
0.0
  0
SPLINE
  5
3FD
100
AcDbEntity
  8
0
100
AcDbSpline
 62
7
  6
CONTINUOUS
 70
0
 71
3
 72
9
 73
5
 74
0
 42
0.0000001
 43
0.0000001
 44
0.0000000001
 40
0.0
 40
0.0
 40
0.0
 40
0.0
 40
0.2470943957
 40
1.0
 40
1.0
 40
1.0
 40
1.0
 10
-37.8384215572
 20
223.9152063673
 30
0.0
 10
-37.805811715
 20
223.9246159759
 30
0.0
 10
-37.6750235354
 20
223.9667252062
 30
0.0
 10
-37.5494503992
 20
224.0247601391
 30
0.0
 10
-37.4595725934
 20
224.0759178411
 30
0.0
  0
SPLINE
  5
3FE
100
AcDbEntity
  8
0
100
AcDbSpline
 62
7
  6
CONTINUOUS
 70
0
 71
3
 72
9
 73
5
 74
0
 42
0.0000001
 43
0.0000001
 44
0.0000000001
 40
0.0
 40
0.0
 40
0.0
 40
0.0
 40
0.496671224
 40
1.0
 40
1.0
 40
1.0
 40
1.0
 10
-38.8177810796
 20
225.7832403899
 30
0.0
 10
-38.6946675666
 20
225.8144303192
 30
0.0
 10
-38.4460990019
 20
225.8744789222
 30
0.0
 10
-38.1972009436
 20
225.9330912782
 30
0.0
 10
-38.0718867637
 20
225.9624412464
 30
0.0
  0
SPLINE
  5
3FF
100
AcDbEntity
  8
0
100
AcDbSpline
 62
7
  6
CONTINUOUS
 70
0
 71
3
 72
9
 73
5
 74
0
 42
0.0000001
 43
0.0000001
 44
0.0000000001
 40
0.0
 40
0.0
 40
0.0
 40
0.0
 40
0.5033101734
 40
1.0
 40
1.0
 40
1.0
 40
1.0
 10
-39.1507708705
 20
229.4929870271
 30
0.0
 10
-38.9811363915
 20
229.5419352571
 30
0.0
 10
-38.6332605953
 20
229.6054333055
 30
0.0
 10
-38.2796230077
 20
229.5941309736
 30
0.0
 10
-38.1070734036
 20
229.5699696423
 30
0.0
  0
SPLINE
  5
400
100
AcDbEntity
  8
0
100
AcDbSpline
 62
7
  6
CONTINUOUS
 70
0
 71
3
 72
9
 73
5
 74
0
 42
0.0000001
 43
0.0000001
 44
0.0000000001
 40
0.0
 40
0.0
 40
0.0
 40
0.0
 40
0.5041418614
 40
1.0
 40
1.0
 40
1.0
 40
1.0
 10
-37.3395862615
 20
226.0105853518
 30
0.0
 10
-37.3281587696
 20
226.1269885338
 30
0.0
 10
-37.3259914852
 20
226.3603752232
 30
0.0
 10
-37.3660850289
 20
226.5904307713
 30
0.0
 10
-37.3966152413
 20
226.7013465828
 30
0.0
  0
SPLINE
  5
401
100
AcDbEntity
  8
0
100
AcDbSpline
 62
7
  6
CONTINUOUS
 70
0
 71
3
 72
8
 73
4
 74
0
 42
0.0000001
 43
0.0000001
 44
0.0000000001
 40
0.0
 40
0.0
 40
0.0
 40
0.0
 40
1.0
 40
1.0
 40
1.0
 40
1.0
 10
-39.9596736557
 20
225.4177181001
 30
0.0
 10
-39.9526837057
 20
225.3656919337
 30
0.0
 10
-39.9422652987
 20
225.3141257055
 30
0.0
 10
-39.9306104078
 20
225.2629422618
 30
0.0
  0
SPLINE
  5
402
100
AcDbEntity
  8
0
100
AcDbSpline
 62
7
  6
CONTINUOUS
 70
0
 71
3
 72
9
 73
5
 74
0
 42
0.0000001
 43
0.0000001
 44
0.0000000001
 40
0.0
 40
0.0
 40
0.0
 40
0.0
 40
0.4950160598
 40
1.0
 40
1.0
 40
1.0
 40
1.0
 10
-38.1129740392
 20
226.6680148183
 30
0.0
 10
-38.0770560988
 20
226.556129861
 30
0.0
 10
-38.0342821852
 20
226.3197283063
 30
0.0
 10
-38.0498948601
 20
226.0802818168
 30
0.0
 10
-38.0718867637
 20
225.9624412464
 30
0.0
  0
SPLINE
  5
403
100
AcDbEntity
  8
0
100
AcDbSpline
 62
7
  6
CONTINUOUS
 70
0
 71
3
 72
9
 73
5
 74
0
 42
0.0000001
 43
0.0000001
 44
0.0000000001
 40
0.0
 40
0.0
 40
0.0
 40
0.0
 40
0.4963316717
 40
1.0
 40
1.0
 40
1.0
 40
1.0
 10
-41.4891638457
 20
224.8132198191
 30
0.0
 10
-41.5356354457
 20
224.9691202281
 30
0.0
 10
-41.6089511464
 20
225.2895947484
 30
0.0
 10
-41.6419873763
 20
225.616609726
 30
0.0
 10
-41.648663301
 20
225.7815586482
 30
0.0
  0
SPLINE
  5
404
100
AcDbEntity
  8
0
100
AcDbSpline
 62
7
  6
CONTINUOUS
 70
0
 71
3
 72
17
 73
13
 74
0
 42
0.0000001
 43
0.0000001
 44
0.0000000001
 40
0.0
 40
0.0
 40
0.0
 40
0.0
 40
0.039526728
 40
0.0807446027
 40
0.1250499691
 40
0.1734002555
 40
0.2836541659
 40
0.4117702495
 40
0.5538850971
 40
0.704002267
 40
0.8550805277
 40
1.0
 40
1.0
 40
1.0
 40
1.0
 10
-12.2644416374
 20
233.8565871011
 30
0.0
 10
-12.3073280039
 20
233.845097869
 30
0.0
 10
-12.3982638292
 20
233.8326357949
 30
0.0
 10
-12.5390953079
 20
233.8474472846
 30
0.0
 10
-12.6829601529
 20
233.8944256365
 30
0.0
 10
-12.8844234401
 20
234.0030701036
 30
0.0
 10
-13.128905416
 20
234.2186080421
 30
0.0
 10
-13.3862019414
 20
234.5623088962
 30
0.0
 10
-13.6060703486
 20
234.9821672043
 30
0.0
 10
-13.7746921033
 20
235.4522546949
 30
0.0
 10
-13.8816408566
 20
235.9431692045
 30
0.0
 10
-13.9083001678
 20
236.2759718729
 30
0.0
 10
-13.9083001678
 20
236.4387537108
 30
0.0
  0
SPLINE
  5
405
100
AcDbEntity
  8
0
100
AcDbSpline
 62
7
  6
CONTINUOUS
 70
0
 71
3
 72
13
 73
9
 74
0
 42
0.0000001
 43
0.0000001
 44
0.0000000001
 40
0.0
 40
0.0
 40
0.0
 40
0.0
 40
0.3134750243
 40
0.5830113503
 40
0.7004613307
 40
0.8073080269
 40
0.9059294608
 40
1.0
 40
1.0
 40
1.0
 40
1.0
 10
-13.9083001678
 20
236.4387537108
 30
0.0
 10
-13.9083001678
 20
236.5967231587
 30
0.0
 10
-13.8856869926
 20
236.8912168406
 30
0.0
 10
-13.7859589492
 20
237.2342558767
 30
0.0
 10
-13.6630271153
 20
237.4519012497
 30
0.0
 10
-13.55773037
 20
237.5774420864
 30
0.0
 10
-13.4366702705
 20
237.6698693512
 30
0.0
 10
-13.3458867859
 20
237.7079038633
 30
0.0
 10
-13.3000965404
 20
237.7201710428
 30
0.0
  0
SPLINE
  5
406
100
AcDbEntity
  8
0
100
AcDbSpline
 62
7
  6
CONTINUOUS
 70
0
 71
3
 72
9
 73
5
 74
0
 42
0.0000001
 43
0.0000001
 44
0.0000000001
 40
0.0
 40
0.0
 40
0.0
 40
0.0
 40
0.246678951
 40
1.0
 40
1.0
 40
1.0
 40
1.0
 10
-13.3000965404
 20
237.7201710428
 30
0.0
 10
-13.2840120328
 20
237.7244800729
 30
0.0
 10
-13.2180158777
 20
237.7389284253
 30
0.0
 10
-13.1494193942
 20
237.7407549359
 30
0.0
 10
-13.098816839
 20
237.735726003
 30
0.0
  0
SPLINE
  5
407
100
AcDbEntity
  8
0
100
AcDbSpline
 62
7
  6
CONTINUOUS
 70
0
 71
3
 72
9
 73
5
 74
0
 42
0.0000001
 43
0.0000001
 44
0.0000000001
 40
0.0
 40
0.0
 40
0.0
 40
0.0
 40
0.2468463586
 40
1.0
 40
1.0
 40
1.0
 40
1.0
 10
-13.098816839
 20
237.735726003
 30
0.0
 10
-13.0928064355
 20
237.7351286831
 30
0.0
 10
-13.068494037
 20
237.7323521911
 30
0.0
 10
-13.0443458924
 20
237.7281660827
 30
0.0
 10
-13.0263291821
 20
237.7242911594
 30
0.0
  0
SPLINE
  5
408
100
AcDbEntity
  8
0
100
AcDbSpline
 62
7
  6
CONTINUOUS
 70
0
 71
3
 72
9
 73
5
 74
0
 42
0.0000001
 43
0.0000001
 44
0.0000000001
 40
0.0
 40
0.0
 40
0.0
 40
0.0
 40
0.2358601439
 40
1.0
 40
1.0
 40
1.0
 40
1.0
 10
-13.0263291821
 20
237.7242911594
 30
0.0
 10
-13.0043134076
 20
237.7195561419
 30
0.0
 10
-12.9119551864
 20
237.6949018935
 30
0.0
 10
-12.8246967585
 20
237.6530539624
 30
0.0
 10
-12.7623147356
 20
237.6152212291
 30
0.0
  0
SPLINE
  5
409
100
AcDbEntity
  8
0
100
AcDbSpline
 62
7
  6
CONTINUOUS
 70
0
 71
3
 72
9
 73
5
 74
0
 42
0.0000001
 43
0.0000001
 44
0.0000000001
 40
0.0
 40
0.0
 40
0.0
 40
0.0
 40
0.2339168549
 40
1.0
 40
1.0
 40
1.0
 40
1.0
 10
-12.6993269956
 20
237.5741410323
 30
0.0
 10
-12.6732042133
 20
237.5559053426
 30
0.0
 10
-12.564550645
 20
237.4736258593
 30
0.0
 10
-12.4678445792
 20
237.3762369544
 30
0.0
 10
-12.3999586276
 20
237.2970061547
 30
0.0
  0
SPLINE
  5
40A
100
AcDbEntity
  8
0
100
AcDbSpline
 62
7
  6
CONTINUOUS
 70
0
 71
3
 72
9
 73
5
 74
0
 42
0.0000001
 43
0.0000001
 44
0.0000000001
 40
0.0
 40
0.0
 40
0.0
 40
0.0
 40
0.2553922854
 40
1.0
 40
1.0
 40
1.0
 40
1.0
 10
-11.6810929892
 20
235.5365432985
 30
0.0
 10
-11.6769881707
 20
235.502786705
 30
0.0
 10
-11.6628165901
 20
235.3703915205
 30
0.0
 10
-11.6562380101
 20
235.2371482764
 30
0.0
 10
-11.6562380101
 20
235.1380044331
 30
0.0
  0
SPLINE
  5
40B
100
AcDbEntity
  8
0
100
AcDbSpline
 62
7
  6
CONTINUOUS
 70
0
 71
3
 72
9
 73
5
 74
0
 42
0.0000001
 43
0.0000001
 44
0.0000000001
 40
0.0
 40
0.0
 40
0.0
 40
0.0
 40
0.2616006451
 40
1.0
 40
1.0
 40
1.0
 40
1.0
 10
-11.6613749832
 20
234.9657548435
 30
0.0
 10
-11.6635105567
 20
234.9305850225
 30
0.0
 10
-11.6743076063
 20
234.7963377132
 30
0.0
 10
-11.6959951744
 20
234.6628081072
 30
0.0
 10
-11.7196758129
 20
234.5662145965
 30
0.0
  0
SPLINE
  5
40C
100
AcDbEntity
  8
0
100
AcDbSpline
 62
7
  6
CONTINUOUS
 70
0
 71
3
 72
9
 73
5
 74
0
 42
0.0000001
 43
0.0000001
 44
0.0000000001
 40
0.0
 40
0.0
 40
0.0
 40
0.0
 40
0.2681637262
 40
1.0
 40
1.0
 40
1.0
 40
1.0
 10
-11.7413778179
 20
234.485818791
 30
0.0
 10
-11.7509897225
 20
234.4533355936
 30
0.0
 10
-11.7904851143
 20
234.3334002964
 30
0.0
 10
-11.845570597
 20
234.2179559669
 30
0.0
 10
-11.8968414931
 20
234.141027491
 30
0.0
  0
SPLINE
  5
40D
100
AcDbEntity
  8
0
100
AcDbSpline
 62
7
  6
CONTINUOUS
 70
0
 71
3
 72
9
 73
5
 74
0
 42
0.0000001
 43
0.0000001
 44
0.0000000001
 40
0.0
 40
0.0
 40
0.0
 40
0.0
 40
0.263470322
 40
1.0
 40
1.0
 40
1.0
 40
1.0
 10
-11.9409770301
 20
234.080356587
 30
0.0
 10
-11.9552791155
 20
234.0623671457
 30
0.0
 10
-12.0122568009
 20
233.9963433851
 30
0.0
 10
-12.0813364865
 20
233.9402341069
 30
0.0
 10
-12.1373080285
 20
233.9086949357
 30
0.0
  0
SPLINE
  5
40E
100
AcDbEntity
  8
0
100
AcDbSpline
 62
7
  6
CONTINUOUS
 70
0
 71
3
 72
16
 73
12
 74
0
 42
0.0000001
 43
0.0000001
 44
0.0000000001
 40
0.0
 40
0.0
 40
0.0
 40
0.0
 40
0.0560782837
 40
0.1127485268
 40
0.2293573849
 40
0.3526539711
 40
0.4822264748
 40
0.6154202887
 40
0.748405045
 40
0.8774164647
 40
1.0
 40
1.0
 40
1.0
 40
1.0
 10
9.6280596253
 20
210.8549341793
 30
0.0
 10
9.2578139117
 20
210.9068287622
 30
0.0
 10
8.5013802333
 20
210.9397879465
 30
0.0
 10
6.9807991635
 20
210.7185343106
 30
0.0
 10
5.1362021472
 20
209.8903004534
 30
0.0
 10
3.3111789863
 20
208.179107793
 30
0.0
 10
2.0023665659
 20
205.9237455535
 30
0.0
 10
1.3254546537
 20
203.3419009479
 30
0.0
 10
1.3404785559
 20
200.6758743959
 30
0.0
 10
2.0476368457
 20
198.178103588
 30
0.0
 10
2.9749970398
 20
196.7407524417
 30
0.0
 10
3.5282555804
 20
196.1392594769
 30
0.0
  0
SPLINE
  5
40F
100
AcDbEntity
  8
0
100
AcDbSpline
 62
7
  6
CONTINUOUS
 70
0
 71
3
 72
13
 73
9
 74
0
 42
0.0000001
 43
0.0000001
 44
0.0000000001
 40
0.0
 40
0.0
 40
0.0
 40
0.0
 40
0.1126100356
 40
0.2278174181
 40
0.347502567
 40
0.4724034326
 40
0.7336676248
 40
1.0
 40
1.0
 40
1.0
 40
1.0
 10
21.5559817753
 20
178.5504322699
 30
0.0
 10
21.1833153152
 20
178.6026650166
 30
0.0
 10
20.4097513857
 20
178.5987790403
 30
0.0
 10
19.2827971395
 20
178.2661990406
 30
0.0
 10
18.2462524251
 20
177.6315122008
 30
0.0
 10
17.0466876337
 20
176.4211504118
 30
0.0
 10
16.070663695
 20
174.3972551236
 30
0.0
 10
15.97098365
 20
172.5835978592
 30
0.0
 10
16.1029124727
 20
171.7034270715
 30
0.0
  0
SPLINE
  5
410
100
AcDbEntity
  8
0
100
AcDbSpline
 62
7
  6
CONTINUOUS
 70
0
 71
3
 72
9
 73
5
 74
0
 42
0.0000001
 43
0.0000001
 44
0.0000000001
 40
0.0
 40
0.0
 40
0.0
 40
0.0
 40
0.5087080757
 40
1.0
 40
1.0
 40
1.0
 40
1.0
 10
-4.9287067382
 20
194.2134042569
 30
0.0
 10
-4.6934030851
 20
193.9575862595
 30
0.0
 10
-4.148411459
 20
193.5222343238
 30
0.0
 10
-3.4841107793
 20
193.3012382523
 30
0.0
 10
-3.1516676241
 20
193.2547446947
 30
0.0
  0
SPLINE
  5
411
100
AcDbEntity
  8
0
100
AcDbSpline
 62
7
  6
CONTINUOUS
 70
0
 71
3
 72
15
 73
11
 74
0
 42
0.0000001
 43
0.0000001
 44
0.0000000001
 40
0.0
 40
0.0
 40
0.0
 40
0.0
 40
0.1145972128
 40
0.2348496288
 40
0.3608762155
 40
0.4911068337
 40
0.622906776
 40
0.7532612737
 40
0.879487104
 40
1.0
 40
1.0
 40
1.0
 40
1.0
 10
37.4144233427
 20
211.9845822923
 30
0.0
 10
37.1011200992
 20
211.9114094986
 30
0.0
 10
36.480477291
 20
211.6541903888
 30
0.0
 10
35.6882044249
 20
211.0028887165
 30
0.0
 10
35.0683321006
 20
210.1325519582
 30
0.0
 10
34.6649783572
 20
209.109563684
 30
0.0
 10
34.5056093742
 20
208.0096350024
 30
0.0
 10
34.6023852668
 20
206.9131981237
 30
0.0
 10
34.9486704775
 20
205.901569879
 30
0.0
 10
35.3425396039
 20
205.318752053
 30
0.0
 10
35.5715912093
 20
205.0697311719
 30
0.0
  0
SPLINE
  5
412
100
AcDbEntity
  8
0
100
AcDbSpline
 62
7
  6
CONTINUOUS
 70
0
 71
3
 72
9
 73
5
 74
0
 42
0.0000001
 43
0.0000001
 44
0.0000000001
 40
0.0
 40
0.0
 40
0.0
 40
0.0
 40
0.5087215393
 40
1.0
 40
1.0
 40
1.0
 40
1.0
 10
35.5715912093
 20
205.0697311719
 30
0.0
 10
35.8069012659
 20
204.8139062126
 30
0.0
 10
36.3519213964
 20
204.3785687392
 30
0.0
 10
37.016202479
 20
204.1576069506
 30
0.0
 10
37.3486239469
 20
204.1110230192
 30
0.0
  0
SPLINE
  5
413
100
AcDbEntity
  8
0
100
AcDbSpline
 62
7
  6
CONTINUOUS
 70
0
 71
3
 72
11
 73
7
 74
0
 42
0.0000001
 43
0.0000001
 44
0.0000000001
 40
0.0
 40
0.0
 40
0.0
 40
0.0
 40
0.2403310815
 40
0.4979600284
 40
0.7568560126
 40
1.0
 40
1.0
 40
1.0
 40
1.0
 10
39.8937335264
 20
202.1571547059
 30
0.0
 10
39.6232198351
 20
202.0169724675
 30
0.0
 10
39.14148335
 20
201.5631667364
 30
0.0
 10
38.78836818
 20
200.6422922153
 30
0.0
 10
38.8215008078
 20
199.6535382184
 30
0.0
 10
39.1250586043
 20
199.0609268833
 30
0.0
 10
39.3337337929
 20
198.8340588846
 30
0.0
  0
SPLINE
  5
414
100
AcDbEntity
  8
0
100
AcDbSpline
 62
7
  6
CONTINUOUS
 70
0
 71
3
 72
9
 73
5
 74
0
 42
0.0000001
 43
0.0000001
 44
0.0000000001
 40
0.0
 40
0.0
 40
0.0
 40
0.0
 40
0.5087303697
 40
1.0
 40
1.0
 40
1.0
 40
1.0
 10
39.3337337929
 20
198.8340588846
 30
0.0
 10
39.4513908114
 20
198.7061442413
 30
0.0
 10
39.7238973093
 20
198.4884775401
 30
0.0
 10
40.056040197
 20
198.3779807604
 30
0.0
 10
40.2222514587
 20
198.3547148473
 30
0.0
  0
SPLINE
  5
415
100
AcDbEntity
  8
0
100
AcDbSpline
 62
7
  6
CONTINUOUS
 70
0
 71
3
 72
12
 73
8
 74
0
 42
0.0000001
 43
0.0000001
 44
0.0000000001
 40
0.0
 40
0.0
 40
0.0
 40
0.0
 40
0.2498383598
 40
0.5029811131
 40
0.6294239107
 40
0.7548290129
 40
1.0
 40
1.0
 40
1.0
 40
1.0
 10
43.4717387031
 20
199.6195781459
 30
0.0
 10
44.0358830187
 20
197.1769813257
 30
0.0
 10
44.6080808617
 20
192.1143681327
 30
0.0
 10
43.9490688696
 20
185.7829306417
 30
0.0
 10
42.6200009227
 20
180.8834191935
 30
0.0
 10
40.7970499627
 20
176.2344916816
 30
0.0
 10
38.8649385794
 20
173.0071947386
 30
0.0
 10
37.3560310307
 20
171.0642281181
 30
0.0
  0
SPLINE
  5
416
100
AcDbEntity
  8
0
100
AcDbSpline
 62
7
  6
CONTINUOUS
 70
0
 71
3
 72
13
 73
9
 74
0
 42
0.0000001
 43
0.0000001
 44
0.0000000001
 40
0.0
 40
0.0
 40
0.0
 40
0.0
 40
0.2642733549
 40
0.5174383602
 40
0.6404916698
 40
0.7615367036
 40
0.8811471221
 40
1.0
 40
1.0
 40
1.0
 40
1.0
 10
37.3560310307
 20
171.0642281181
 30
0.0
 10
36.0008464805
 20
169.3192051393
 30
0.0
 10
32.9633274816
 20
166.1778375099
 30
0.0
 10
28.3748881453
 20
163.3006767103
 30
0.0
 10
24.4748427013
 20
161.8288878043
 30
0.0
 10
21.500463836
 20
161.1499142695
 30
0.0
 10
18.4957762441
 20
160.8977310593
 30
0.0
 10
16.4975355229
 20
161.0172714789
 30
0.0
 10
15.5124961461
 20
161.1478930606
 30
0.0
  0
SPLINE
  5
417
100
AcDbEntity
  8
0
100
AcDbSpline
 62
7
  6
CONTINUOUS
 70
0
 71
3
 72
9
 73
5
 74
0
 42
0.0000001
 43
0.0000001
 44
0.0000000001
 40
0.0
 40
0.0
 40
0.0
 40
0.0
 40
0.2476693056
 40
1.0
 40
1.0
 40
1.0
 40
1.0
 10
10.3774561345
 20
166.6293662139
 30
0.0
 10
10.3421952662
 20
166.5863493475
 30
0.0
 10
10.2034073563
 20
166.4097496592
 30
0.0
 10
10.0790435754
 20
166.2218683368
 30
0.0
 10
9.9940930849
 20
166.0758185116
 30
0.0
  0
SPLINE
  5
418
100
AcDbEntity
  8
0
100
AcDbSpline
 62
7
  6
CONTINUOUS
 70
0
 71
3
 72
9
 73
5
 74
0
 42
0.0000001
 43
0.0000001
 44
0.0000000001
 40
0.0
 40
0.0
 40
0.0
 40
0.0
 40
0.5086902598
 40
1.0
 40
1.0
 40
1.0
 40
1.0
 10
0.9641392082
 20
174.7591440898
 30
0.0
 10
1.4672315103
 20
174.212190978
 30
0.0
 10
2.632516173
 20
173.2813308014
 30
0.0
 10
4.0528520926
 20
172.8089257845
 30
0.0
 10
4.7636546248
 20
172.7092978973
 30
0.0
  0
SPLINE
  5
419
100
AcDbEntity
  8
0
100
AcDbSpline
 62
7
  6
CONTINUOUS
 70
0
 71
3
 72
9
 73
5
 74
0
 42
0.0000001
 43
0.0000001
 44
0.0000000001
 40
0.0
 40
0.0
 40
0.0
 40
0.0
 40
0.508690364
 40
1.0
 40
1.0
 40
1.0
 40
1.0
 10
21.2589683464
 20
200.8920742456
 30
0.0
 10
21.7561783504
 20
200.3515162651
 30
0.0
 10
22.9078379356
 20
199.4315401155
 30
0.0
 10
24.3115666264
 20
198.9646588168
 30
0.0
 10
25.0140579596
 20
198.866195841
 30
0.0
  0
SPLINE
  5
41A
100
AcDbEntity
  8
0
100
AcDbSpline
 62
7
  6
CONTINUOUS
 70
0
 71
3
 72
9
 73
5
 74
0
 42
0.0000001
 43
0.0000001
 44
0.0000000001
 40
0.0
 40
0.0
 40
0.0
 40
0.0
 40
0.5086902598
 40
1.0
 40
1.0
 40
1.0
 40
1.0
 10
29.6530351083
 20
182.4493599278
 30
0.0
 10
30.1561274105
 20
181.9024068161
 30
0.0
 10
31.3214120731
 20
180.9715466394
 30
0.0
 10
32.7417479927
 20
180.4991416225
 30
0.0
 10
33.4525505249
 20
180.3995137353
 30
0.0
  0
SPLINE
  5
41B
100
AcDbEntity
  8
0
100
AcDbSpline
 62
7
  6
CONTINUOUS
 70
0
 71
3
 72
9
 73
5
 74
0
 42
0.0000001
 43
0.0000001
 44
0.0000000001
 40
0.0
 40
0.0
 40
0.0
 40
0.0
 40
0.508690364
 40
1.0
 40
1.0
 40
1.0
 40
1.0
 10
3.5282555804
 20
196.1392594769
 30
0.0
 10
4.0254655844
 20
195.5987014963
 30
0.0
 10
5.1771251697
 20
194.6787253468
 30
0.0
 10
6.5808538604
 20
194.211844048
 30
0.0
 10
7.2833451936
 20
194.1133810723
 30
0.0
  0
SPLINE
  5
41C
100
AcDbEntity
  8
0
100
AcDbSpline
 62
7
  6
CONTINUOUS
 70
0
 71
3
 72
14
 73
10
 74
0
 42
0.0000001
 43
0.0000001
 44
0.0000000001
 40
0.0
 40
0.0
 40
0.0
 40
0.0
 40
0.1124508479
 40
0.2274935022
 40
0.3470080945
 40
0.4717304302
 40
0.6012158633
 40
0.7340419626
 40
1.0
 40
1.0
 40
1.0
 40
1.0
 10
18.6192072225
 20
194.3119310766
 30
0.0
 10
18.3784498378
 20
194.3456290367
 30
0.0
 10
17.8787279631
 20
194.3432066578
 30
0.0
 10
17.1506715077
 20
194.1282928996
 30
0.0
 10
16.4811402178
 20
193.718372303
 30
0.0
 10
15.9074416005
 20
193.1395347549
 30
0.0
 10
15.4595832759
 20
192.4247266157
 30
0.0
 10
15.0617549046
 20
191.3486017577
 30
0.0
 10
15.0112010008
 20
190.4572792802
 30
0.0
 10
15.0964307083
 20
189.8886643465
 30
0.0
  0
SPLINE
  5
41D
100
AcDbEntity
  8
0
100
AcDbSpline
 62
7
  6
CONTINUOUS
 70
0
 71
3
 72
16
 73
12
 74
0
 42
0.0000001
 43
0.0000001
 44
0.0000000001
 40
0.0
 40
0.0
 40
0.0
 40
0.0
 40
0.0560783173
 40
0.1127486053
 40
0.2293574901
 40
0.3526540141
 40
0.4822264427
 40
0.6154202405
 40
0.7484050404
 40
0.8774164693
 40
1.0
 40
1.0
 40
1.0
 40
1.0
 10
35.8250048589
 20
197.3391331604
 30
0.0
 10
35.4503786091
 20
197.3916417266
 30
0.0
 10
34.6849951565
 20
197.4249907518
 30
0.0
 10
33.1464236825
 20
197.2011191669
 30
0.0
 10
31.2800037649
 20
196.3630860068
 30
0.0
 10
29.4333898625
 20
194.6316488988
 30
0.0
 10
28.1090937461
 20
192.3496047339
 30
0.0
 10
27.4241733506
 20
189.7372151669
 30
0.0
 10
27.4393747526
 20
187.0396470473
 30
0.0
 10
28.154899492
 20
184.512325266
 30
0.0
 10
29.0932310856
 20
183.0579690257
 30
0.0
 10
29.6530351083
 20
182.4493599278
 30
0.0
  0
SPLINE
  5
41E
100
AcDbEntity
  8
0
100
AcDbSpline
 62
7
  6
CONTINUOUS
 70
0
 71
3
 72
16
 73
12
 74
0
 42
0.0000001
 43
0.0000001
 44
0.0000000001
 40
0.0
 40
0.0
 40
0.0
 40
0.0
 40
0.0560782837
 40
0.1127485268
 40
0.2293573849
 40
0.3526539711
 40
0.4822264748
 40
0.6154202887
 40
0.748405045
 40
0.8774164647
 40
1.0
 40
1.0
 40
1.0
 40
1.0
 10
27.3587723913
 20
215.607748948
 30
0.0
 10
26.9885266777
 20
215.6596435309
 30
0.0
 10
26.2320929992
 20
215.6926027152
 30
0.0
 10
24.7115119295
 20
215.4713490794
 30
0.0
 10
22.8669149132
 20
214.6431152222
 30
0.0
 10
21.0418917523
 20
212.9319225618
 30
0.0
 10
19.7330793319
 20
210.6765603222
 30
0.0
 10
19.0561674197
 20
208.0947157167
 30
0.0
 10
19.0711913219
 20
205.4286891647
 30
0.0
 10
19.7783496117
 20
202.9309183567
 30
0.0
 10
20.7057098058
 20
201.4935672104
 30
0.0
 10
21.2589683464
 20
200.8920742456
 30
0.0
  0
SPLINE
  5
41F
100
AcDbEntity
  8
0
100
AcDbSpline
 62
7
  6
CONTINUOUS
 70
0
 71
3
 72
9
 73
5
 74
0
 42
0.0000001
 43
0.0000001
 44
0.0000000001
 40
0.0
 40
0.0
 40
0.0
 40
0.0
 40
0.5087079217
 40
1.0
 40
1.0
 40
1.0
 40
1.0
 10
15.9851646464
 20
187.9573755005
 30
0.0
 10
16.1998793548
 20
187.7239414289
 30
0.0
 10
16.6971829218
 20
187.3266677088
 30
0.0
 10
17.3033621759
 20
187.1250507445
 30
0.0
 10
17.6067122526
 20
187.0825919065
 30
0.0
  0
SPLINE
  5
420
100
AcDbEntity
  8
0
100
AcDbSpline
 62
7
  6
CONTINUOUS
 70
0
 71
3
 72
9
 73
5
 74
0
 42
0.0000001
 43
0.0000001
 44
0.0000000001
 40
0.0
 40
0.0
 40
0.0
 40
0.0
 40
0.512705903
 40
1.0
 40
1.0
 40
1.0
 40
1.0
 10
15.0964307083
 20
189.8886643465
 30
0.0
 10
15.1508841448
 20
189.5253750883
 30
0.0
 10
15.3517300441
 20
188.8268381504
 30
0.0
 10
15.7488035056
 20
188.2143431943
 30
0.0
 10
15.9851646464
 20
187.9573755005
 30
0.0
  0
SPLINE
  5
421
100
AcDbEntity
  8
0
100
AcDbSpline
 62
7
  6
CONTINUOUS
 70
0
 71
3
 72
16
 73
12
 74
0
 42
0.0000001
 43
0.0000001
 44
0.0000000001
 40
0.0
 40
0.0
 40
0.0
 40
0.0
 40
0.0560783173
 40
0.1127486053
 40
0.2293574901
 40
0.3526540141
 40
0.4822264427
 40
0.6154202405
 40
0.7484050404
 40
0.8774164693
 40
1.0
 40
1.0
 40
1.0
 40
1.0
 10
7.1361089587
 20
189.6489173224
 30
0.0
 10
6.761482709
 20
189.7014258885
 30
0.0
 10
5.9960992563
 20
189.7347749138
 30
0.0
 10
4.4575277824
 20
189.5109033288
 30
0.0
 10
2.5911078648
 20
188.6728701688
 30
0.0
 10
0.7444939624
 20
186.9414330608
 30
0.0
 10
-0.5798021541
 20
184.6593888959
 30
0.0
 10
-1.2647225496
 20
182.0469993289
 30
0.0
 10
-1.2495211475
 20
179.3494312092
 30
0.0
 10
-0.5339964081
 20
176.8221094279
 30
0.0
 10
0.4043351855
 20
175.3677531877
 30
0.0
 10
0.9641392082
 20
174.7591440898
 30
0.0
  0
SPLINE
  5
422
100
AcDbEntity
  8
0
100
AcDbSpline
 62
7
  6
CONTINUOUS
 70
0
 71
3
 72
9
 73
5
 74
0
 42
0.0000001
 43
0.0000001
 44
0.0000000001
 40
0.0
 40
0.0
 40
0.0
 40
0.0
 40
0.5087012177
 40
1.0
 40
1.0
 40
1.0
 40
1.0
 10
17.4786239705
 20
168.7138976973
 30
0.0
 10
17.8109864516
 20
168.3525590423
 30
0.0
 10
18.580792646
 20
167.7375841494
 30
0.0
 10
19.5191228605
 20
167.4255638232
 30
0.0
 10
19.9886864666
 20
167.3597500205
 30
0.0
  0
SPLINE
  5
423
100
AcDbEntity
  8
0
100
AcDbSpline
 62
7
  6
CONTINUOUS
 70
0
 71
3
 72
9
 73
5
 74
0
 42
0.0000001
 43
0.0000001
 44
0.0000000001
 40
0.0
 40
0.0
 40
0.0
 40
0.0
 40
0.5127059034
 40
1.0
 40
1.0
 40
1.0
 40
1.0
 10
16.1029124727
 20
171.7034270715
 30
0.0
 10
16.187203411
 20
171.1410751908
 30
0.0
 10
16.4981018708
 20
170.0597782597
 30
0.0
 10
17.1127498583
 20
169.1116696093
 30
0.0
 10
17.4786239705
 20
168.7138976973
 30
0.0
  0
SPLINE
  5
424
100
AcDbEntity
  8
0
100
AcDbSpline
 62
7
  6
CONTINUOUS
 70
0
 71
3
 72
10
 73
6
 74
0
 42
0.0000001
 43
0.0000001
 44
0.0000000001
 40
0.0
 40
0.0
 40
0.0
 40
0.0
 40
0.2367834287
 40
0.480746895
 40
1.0
 40
1.0
 40
1.0
 40
1.0
 10
6.6782609855
 20
170.3683030471
 30
0.0
 10
6.525207376
 20
170.3896957457
 30
0.0
 10
6.2046297601
 20
170.3803589312
 30
0.0
 10
5.5839115797
 20
170.1522736363
 30
0.0
 10
5.2154464375
 20
169.7702847481
 30
0.0
 10
5.0430254622
 20
169.4785231423
 30
0.0
  0
SPLINE
  5
425
100
AcDbEntity
  8
0
100
AcDbSpline
 62
7
  6
CONTINUOUS
 70
0
 71
3
 72
11
 73
7
 74
0
 42
0.0000001
 43
0.0000001
 44
0.0000000001
 40
0.0
 40
0.0
 40
0.0
 40
0.0
 40
0.2439276148
 40
0.490522866
 40
0.7419984547
 40
1.0
 40
1.0
 40
1.0
 40
1.0
 10
23.730305944
 20
219.824071166
 30
0.0
 10
25.0253029735
 20
219.633131971
 30
0.0
 10
27.5992480448
 20
218.9988652008
 30
0.0
 10
31.2384311925
 20
217.3294042235
 30
0.0
 10
34.57607917
 20
214.985789767
 30
0.0
 10
36.5185882291
 20
213.0402261314
 30
0.0
 10
37.4144233427
 20
211.9845822923
 30
0.0
  0
SPLINE
  5
426
100
AcDbEntity
  8
0
100
AcDbSpline
 62
7
  6
CONTINUOUS
 70
0
 71
3
 72
11
 73
7
 74
0
 42
0.0000001
 43
0.0000001
 44
0.0000000001
 40
0.0
 40
0.0
 40
0.0
 40
0.0
 40
0.2386537369
 40
0.4826274882
 40
0.7359042467
 40
1.0
 40
1.0
 40
1.0
 40
1.0
 10
13.2798714675
 20
167.8814698063
 30
0.0
 10
13.0202074025
 20
167.9178018929
 30
0.0
 10
12.4817297805
 20
167.9164426207
 30
0.0
 10
11.6957492277
 20
167.6901385528
 30
0.0
 10
10.9707248006
 20
167.2563760039
 30
0.0
 10
10.561390748
 20
166.8537591764
 30
0.0
 10
10.3774561345
 20
166.6293662139
 30
0.0
  0
SPLINE
  5
427
100
AcDbEntity
  8
0
100
AcDbSpline
 62
7
  6
CONTINUOUS
 70
0
 71
3
 72
9
 73
5
 74
0
 42
0.0000001
 43
0.0000001
 44
0.0000000001
 40
0.0
 40
0.0
 40
0.0
 40
0.0
 40
0.2485408847
 40
1.0
 40
1.0
 40
1.0
 40
1.0
 10
-2.04208076
 20
201.1773293893
 30
0.0
 10
-2.1438678289
 20
201.1915887957
 30
0.0
 10
-2.5563559636
 20
201.2266064991
 30
0.0
 10
-2.9757517867
 20
201.1681390327
 30
0.0
 10
-3.2731638423
 20
201.0780514704
 30
0.0
  0
SPLINE
  5
428
100
AcDbEntity
  8
0
100
AcDbSpline
 62
7
  6
CONTINUOUS
 70
0
 71
3
 72
15
 73
11
 74
0
 42
0.0000001
 43
0.0000001
 44
0.0000000001
 40
0.0
 40
0.0
 40
0.0
 40
0.0
 40
0.1123079622
 40
0.2289715205
 40
0.3523279792
 40
0.481963059
 40
0.6152216706
 40
0.7482757232
 40
0.8773502284
 40
1.0
 40
1.0
 40
1.0
 40
1.0
 10
28.5527460952
 20
185.0061855356
 30
0.0
 10
28.9622210713
 20
184.9488380883
 30
0.0
 10
29.827817441
 20
184.9952632866
 30
0.0
 10
31.0334520653
 20
185.5392217677
 30
0.0
 10
32.0430553169
 20
186.484461125
 30
0.0
 10
32.7657802849
 20
187.7305721966
 30
0.0
 10
33.1399929312
 20
189.1570037397
 30
0.0
 10
33.1315253368
 20
190.6299804781
 30
0.0
 10
32.7409686391
 20
192.010051565
 30
0.0
 10
32.2285643528
 20
192.8041935158
 30
0.0
 10
31.922876927
 20
193.1365315143
 30
0.0
  0
SPLINE
  5
429
100
AcDbEntity
  8
0
100
AcDbSpline
 62
7
  6
CONTINUOUS
 70
0
 71
3
 72
9
 73
5
 74
0
 42
0.0000001
 43
0.0000001
 44
0.0000000001
 40
0.0
 40
0.0
 40
0.0
 40
0.0
 40
0.508726998
 40
1.0
 40
1.0
 40
1.0
 40
1.0
 10
-0.265046376
 20
200.2186339479
 30
0.0
 10
-0.5003587997
 20
200.4744614807
 30
0.0
 10
-1.0453753509
 20
200.9098016809
 30
0.0
 10
-1.7096611714
 20
201.1307605464
 30
0.0
 10
-2.04208076
 20
201.1773293893
 30
0.0
  0
SPLINE
  5
42A
100
AcDbEntity
  8
0
100
AcDbSpline
 62
7
  6
CONTINUOUS
 70
0
 71
3
 72
16
 73
12
 74
0
 42
0.0000001
 43
0.0000001
 44
0.0000000001
 40
0.0
 40
0.0
 40
0.0
 40
0.0
 40
0.0560783173
 40
0.1127486053
 40
0.2293574901
 40
0.3526540141
 40
0.4822264427
 40
0.6154202405
 40
0.7484050404
 40
0.8774164693
 40
1.0
 40
1.0
 40
1.0
 40
1.0
 10
33.4525505249
 20
180.3995137353
 30
0.0
 10
33.8271767747
 20
180.3470051692
 30
0.0
 10
34.5925602273
 20
180.3136561439
 30
0.0
 10
36.1311317013
 20
180.5375277289
 30
0.0
 10
37.9975516189
 20
181.3755608889
 30
0.0
 10
39.8441655213
 20
183.1069979969
 30
0.0
 10
41.1684616377
 20
185.3890421618
 30
0.0
 10
41.8533820332
 20
188.0014317288
 30
0.0
 10
41.8381806312
 20
190.6989998485
 30
0.0
 10
41.1226558918
 20
193.2263216298
 30
0.0
 10
40.1843242982
 20
194.68067787
 30
0.0
 10
39.6245202755
 20
195.2892869679
 30
0.0
  0
SPLINE
  5
42B
100
AcDbEntity
  8
0
100
AcDbSpline
 62
7
  6
CONTINUOUS
 70
0
 71
3
 72
9
 73
5
 74
0
 42
0.0000001
 43
0.0000001
 44
0.0000000001
 40
0.0
 40
0.0
 40
0.0
 40
0.0
 40
0.5052492697
 40
1.0
 40
1.0
 40
1.0
 40
1.0
 10
-3.2731638423
 20
201.0780514704
 30
0.0
 10
-2.6888711788
 20
202.6839959151
 30
0.0
 10
-1.294279748
 20
205.7813707059
 30
0.0
 10
0.5626319398
 20
208.6277920236
 30
0.0
 10
1.5890446953
 20
209.9494672477
 30
0.0
  0
SPLINE
  5
42C
100
AcDbEntity
  8
0
100
AcDbSpline
 62
7
  6
CONTINUOUS
 70
0
 71
3
 72
13
 73
9
 74
0
 42
0.0000001
 43
0.0000001
 44
0.0000000001
 40
0.0
 40
0.0
 40
0.0
 40
0.0
 40
0.2643733478
 40
0.5174935405
 40
0.6405026002
 40
0.7615123049
 40
0.8811126813
 40
1.0
 40
1.0
 40
1.0
 40
1.0
 10
1.5890446953
 20
209.9494672477
 30
0.0
 10
2.9609015948
 20
211.7159586182
 30
0.0
 10
6.0399389391
 20
214.8919178038
 30
0.0
 10
10.6982231645
 20
217.7826469851
 30
0.0
 10
14.6552904805
 20
219.241711329
 30
0.0
 10
17.6711595782
 20
219.8996388398
 30
0.0
 10
20.7146173556
 20
220.1193385189
 30
0.0
 10
22.7352659133
 20
219.9707835817
 30
0.0
 10
23.730305944
 20
219.824071166
 30
0.0
  0
SPLINE
  5
42D
100
AcDbEntity
  8
0
100
AcDbSpline
 62
7
  6
CONTINUOUS
 70
0
 71
3
 72
15
 73
11
 74
0
 42
0.0000001
 43
0.0000001
 44
0.0000000001
 40
0.0
 40
0.0
 40
0.0
 40
0.0
 40
0.1123079371
 40
0.228971457
 40
0.3523279144
 40
0.4819630005
 40
0.6152215982
 40
0.7482756477
 40
0.8773501769
 40
1.0
 40
1.0
 40
1.0
 40
1.0
 10
2.3724447726
 20
198.6408261388
 30
0.0
 10
2.780166022
 20
198.5837243391
 30
0.0
 10
3.6420550893
 20
198.6299505557
 30
0.0
 10
4.842526232
 20
199.1715792333
 30
0.0
 10
5.8478057652
 20
200.1127701948
 30
0.0
 10
6.5674357127
 20
201.3535444758
 30
0.0
 10
6.9400459037
 20
202.7738670219
 30
0.0
 10
6.9316147149
 20
204.2405355214
 30
0.0
 10
6.5427308708
 20
205.6146965868
 30
0.0
 10
6.032520893
 20
206.40543777
 30
0.0
 10
5.7281424937
 20
206.736352618
 30
0.0
  0
SPLINE
  5
42E
100
AcDbEntity
  8
0
100
AcDbSpline
 62
7
  6
CONTINUOUS
 70
0
 71
3
 72
9
 73
5
 74
0
 42
0.0000001
 43
0.0000001
 44
0.0000000001
 40
0.0
 40
0.0
 40
0.0
 40
0.0
 40
0.2472857303
 40
1.0
 40
1.0
 40
1.0
 40
1.0
 10
33.045468517
 20
197.048980221
 30
0.0
 10
33.1482128143
 20
196.9776445622
 30
0.0
 10
33.555386621
 20
196.6773261097
 30
0.0
 10
33.9284586256
 20
196.331162548
 30
0.0
 10
34.1862077742
 20
196.0509422022
 30
0.0
  0
SPLINE
  5
42F
100
AcDbEntity
  8
0
100
AcDbSpline
 62
7
  6
CONTINUOUS
 70
0
 71
3
 72
9
 73
5
 74
0
 42
0.0000001
 43
0.0000001
 44
0.0000000001
 40
0.0
 40
0.0
 40
0.0
 40
0.0
 40
0.2478224223
 40
1.0
 40
1.0
 40
1.0
 40
1.0
 10
38.3924194381
 20
204.1601097424
 30
0.0
 10
38.4411890579
 20
204.171500015
 30
0.0
 10
38.6367960678
 20
204.2224305275
 30
0.0
 10
38.8272003212
 20
204.2930902137
 30
0.0
 10
38.9655763852
 20
204.3560031187
 30
0.0
  0
SPLINE
  5
430
100
AcDbEntity
  8
0
100
AcDbSpline
 62
7
  6
CONTINUOUS
 70
0
 71
3
 72
15
 73
11
 74
0
 42
0.0000001
 43
0.0000001
 44
0.0000000001
 40
0.0
 40
0.0
 40
0.0
 40
0.0
 40
0.1123079622
 40
0.2289715205
 40
0.3523279792
 40
0.481963059
 40
0.6152216706
 40
0.7482757232
 40
0.8773502284
 40
1.0
 40
1.0
 40
1.0
 40
1.0
 10
20.1003835787
 20
203.3738344822
 30
0.0
 10
20.5098585548
 20
203.3164870349
 30
0.0
 10
21.3754549246
 20
203.3629122333
 30
0.0
 10
22.5810895488
 20
203.9068707143
 30
0.0
 10
23.5906928005
 20
204.8521100716
 30
0.0
 10
24.3134177684
 20
206.0982211432
 30
0.0
 10
24.6876304147
 20
207.5246526864
 30
0.0
 10
24.6791628203
 20
208.9976294247
 30
0.0
 10
24.2886061226
 20
210.3777005116
 30
0.0
 10
23.7762018363
 20
211.1718424625
 30
0.0
 10
23.4705144106
 20
211.5041804609
 30
0.0
  0
SPLINE
  5
431
100
AcDbEntity
  8
0
100
AcDbSpline
 62
7
  6
CONTINUOUS
 70
0
 71
3
 72
9
 73
5
 74
0
 42
0.0000001
 43
0.0000001
 44
0.0000000001
 40
0.0
 40
0.0
 40
0.0
 40
0.0
 40
0.2473365275
 40
1.0
 40
1.0
 40
1.0
 40
1.0
 10
6.8416891679
 20
210.5601578974
 30
0.0
 10
6.9409388734
 20
210.4905749202
 30
0.0
 10
7.3342820029
 20
210.198055721
 30
0.0
 10
7.6951281697
 20
209.8621897762
 30
0.0
 10
7.9448367373
 20
209.5907110089
 30
0.0
  0
SPLINE
  5
432
100
AcDbEntity
  8
0
100
AcDbSpline
 62
7
  6
CONTINUOUS
 70
0
 71
3
 72
16
 73
12
 74
0
 42
0.0000001
 43
0.0000001
 44
0.0000000001
 40
0.0
 40
0.0
 40
0.0
 40
0.0
 40
0.0560782837
 40
0.1127485268
 40
0.2293573849
 40
0.3526539711
 40
0.4822264748
 40
0.6154202887
 40
0.748405045
 40
0.8774164647
 40
1.0
 40
1.0
 40
1.0
 40
1.0
 10
25.0140579596
 20
198.866195841
 30
0.0
 10
25.3843036732
 20
198.8143012581
 30
0.0
 10
26.1407373517
 20
198.7813420738
 30
0.0
 10
27.6613184215
 20
199.0025957097
 30
0.0
 10
29.5059154377
 20
199.8308295669
 30
0.0
 10
31.3309385987
 20
201.5420222273
 30
0.0
 10
32.6397510191
 20
203.7973844668
 30
0.0
 10
33.3166629313
 20
206.3792290724
 30
0.0
 10
33.301639029
 20
209.0452556244
 30
0.0
 10
32.5944807392
 20
211.5430264324
 30
0.0
 10
31.6671205451
 20
212.9803775787
 30
0.0
 10
31.1138620045
 20
213.5818705434
 30
0.0
  0
SPLINE
  5
433
100
AcDbEntity
  8
0
100
AcDbSpline
 62
7
  6
CONTINUOUS
 70
0
 71
3
 72
13
 73
9
 74
0
 42
0.0000001
 43
0.0000001
 44
0.0000000001
 40
0.0
 40
0.0
 40
0.0
 40
0.0
 40
0.1126100356
 40
0.2278174181
 40
0.347502567
 40
0.4724034326
 40
0.7336676248
 40
1.0
 40
1.0
 40
1.0
 40
1.0
 10
19.9886864666
 20
167.3597500205
 30
0.0
 10
20.3613529267
 20
167.3075172738
 30
0.0
 10
21.1349168562
 20
167.3114032501
 30
0.0
 10
22.2618711025
 20
167.6439832498
 30
0.0
 10
23.2984158169
 20
168.2786700896
 30
0.0
 10
24.4979806083
 20
169.4890318786
 30
0.0
 10
25.474004547
 20
171.5129271668
 30
0.0
 10
25.573684592
 20
173.3265844313
 30
0.0
 10
25.4417557692
 20
174.206755219
 30
0.0
  0
SPLINE
  5
434
100
AcDbEntity
  8
0
100
AcDbSpline
 62
7
  6
CONTINUOUS
 70
0
 71
3
 72
12
 73
8
 74
0
 42
0.0000001
 43
0.0000001
 44
0.0000000001
 40
0.0
 40
0.0
 40
0.0
 40
0.0
 40
0.2519537218
 40
0.5094565181
 40
0.637204791
 40
0.7622517892
 40
1.0
 40
1.0
 40
1.0
 40
1.0
 10
15.1872203619
 20
161.3574425506
 30
0.0
 10
15.4877057711
 20
161.7600819211
 30
0.0
 10
15.9503328279
 20
162.6897014108
 30
0.0
 10
16.1284671416
 20
163.9704949318
 30
0.0
 10
16.0214797562
 20
164.9869875193
 30
0.0
 10
15.7580003307
 20
165.9318374085
 30
0.0
 10
15.377852673
 20
166.5738923025
 30
0.0
 10
15.0569112631
 20
166.9228141645
 30
0.0
  0
SPLINE
  5
435
100
AcDbEntity
  8
0
100
AcDbSpline
 62
7
  6
CONTINUOUS
 70
0
 71
3
 72
15
 73
11
 74
0
 42
0.0000001
 43
0.0000001
 44
0.0000000001
 40
0.0
 40
0.0
 40
0.0
 40
0.0
 40
0.1199809529
 40
0.2454886811
 40
0.3751151564
 40
0.506437795
 40
0.6366560869
 40
0.7632165044
 40
0.8844312009
 40
1.0
 40
1.0
 40
1.0
 40
1.0
 10
5.4973118741
 20
188.3607263641
 30
0.0
 10
5.969416722
 20
187.8474622682
 30
0.0
 10
6.7862831561
 20
186.6525509535
 30
0.0
 10
7.527661243
 20
184.5804679746
 30
0.0
 10
7.774359443
 20
182.3277743936
 30
0.0
 10
7.5104727959
 20
180.0505951615
 30
0.0
 10
6.7551165301
 20
177.9045708112
 30
0.0
 10
5.5569675421
 20
176.037414026
 30
0.0
 10
3.9958571042
 20
174.5812513113
 30
0.0
 10
2.7504865281
 20
173.9430868176
 30
0.0
 10
2.1126552461
 20
173.7324115729
 30
0.0
  0
SPLINE
  5
436
100
AcDbEntity
  8
0
100
AcDbSpline
 62
7
  6
CONTINUOUS
 70
0
 71
3
 72
9
 73
5
 74
0
 42
0.0000001
 43
0.0000001
 44
0.0000000001
 40
0.0
 40
0.0
 40
0.0
 40
0.0
 40
0.5087084751
 40
1.0
 40
1.0
 40
1.0
 40
1.0
 10
3.2339810269
 20
185.4463156762
 30
0.0
 10
2.9592638518
 20
185.7449833623
 30
0.0
 10
2.3229856365
 20
186.2532850306
 30
0.0
 10
1.54740488
 20
186.5111998235
 30
0.0
 10
1.1592883859
 20
186.5655559906
 30
0.0
  0
SPLINE
  5
437
100
AcDbEntity
  8
0
100
AcDbSpline
 62
7
  6
CONTINUOUS
 70
0
 71
3
 72
9
 73
5
 74
0
 42
0.0000001
 43
0.0000001
 44
0.0000000001
 40
0.0
 40
0.0
 40
0.0
 40
0.0
 40
0.5087126267
 40
1.0
 40
1.0
 40
1.0
 40
1.0
 10
15.0569112631
 20
166.9228141645
 30
0.0
 10
14.8216058012
 20
167.1786341285
 30
0.0
 10
14.2766099711
 20
167.6139884336
 30
0.0
 10
13.6123081406
 20
167.834955407
 30
0.0
 10
13.2798714675
 20
167.8814698063
 30
0.0
  0
SPLINE
  5
438
100
AcDbEntity
  8
0
100
AcDbSpline
 62
7
  6
CONTINUOUS
 70
0
 71
3
 72
9
 73
5
 74
0
 42
0.0000001
 43
0.0000001
 44
0.0000000001
 40
0.0
 40
0.0
 40
0.0
 40
0.0
 40
0.2473365275
 40
1.0
 40
1.0
 40
1.0
 40
1.0
 10
24.5724019339
 20
215.3129726661
 30
0.0
 10
24.6716516393
 20
215.2433896889
 30
0.0
 10
25.0649947689
 20
214.9508704898
 30
0.0
 10
25.4258409357
 20
214.615004545
 30
0.0
 10
25.6755495032
 20
214.3435257777
 30
0.0
  0
SPLINE
  5
439
100
AcDbEntity
  8
0
100
AcDbSpline
 62
7
  6
CONTINUOUS
 70
0
 71
3
 72
15
 73
11
 74
0
 42
0.0000001
 43
0.0000001
 44
0.0000000001
 40
0.0
 40
0.0
 40
0.0
 40
0.0
 40
0.1123079622
 40
0.2289715205
 40
0.3523279792
 40
0.481963059
 40
0.6152216706
 40
0.7482757232
 40
0.8773502284
 40
1.0
 40
1.0
 40
1.0
 40
1.0
 10
-0.136149805
 20
177.3159696976
 30
0.0
 10
0.2733251712
 20
177.2586222502
 30
0.0
 10
1.1389215409
 20
177.3050474486
 30
0.0
 10
2.3445561651
 20
177.8490059296
 30
0.0
 10
3.3541594168
 20
178.7942452869
 30
0.0
 10
4.0768843848
 20
180.0403563585
 30
0.0
 10
4.451097031
 20
181.4667879016
 30
0.0
 10
4.4426294366
 20
182.93976464
 30
0.0
 10
4.052072739
 20
184.3198357269
 30
0.0
 10
3.5396684527
 20
185.1139776778
 30
0.0
 10
3.2339810269
 20
185.4463156762
 30
0.0
  0
SPLINE
  5
43A
100
AcDbEntity
  8
0
100
AcDbSpline
 62
7
  6
CONTINUOUS
 70
0
 71
3
 72
15
 73
11
 74
0
 42
0.0000001
 43
0.0000001
 44
0.0000000001
 40
0.0
 40
0.0
 40
0.0
 40
0.0
 40
0.1199422531
 40
0.2453971278
 40
0.3749697048
 40
0.5062554347
 40
0.6364703852
 40
0.7630683119
 40
0.8843536843
 40
1.0
 40
1.0
 40
1.0
 40
1.0
 10
25.6755495032
 20
214.3435257777
 30
0.0
 10
26.1408430466
 20
213.8376668124
 30
0.0
 10
26.9462925471
 20
212.6604613578
 30
0.0
 10
27.67898429
 20
210.619244163
 30
0.0
 10
27.9255715992
 20
208.3996359067
 30
0.0
 10
27.6702329155
 20
206.1546787826
 30
0.0
 10
26.9314009317
 20
204.0370214129
 30
0.0
 10
25.7564665334
 20
202.1916465916
 30
0.0
 10
24.2233519971
 20
200.7483882614
 30
0.0
 10
22.9987010682
 20
200.1116997051
 30
0.0
 10
22.3708259825
 20
199.8997298051
 30
0.0
  0
SPLINE
  5
43B
100
AcDbEntity
  8
0
100
AcDbSpline
 62
7
  6
CONTINUOUS
 70
0
 71
3
 72
9
 73
5
 74
0
 42
0.0000001
 43
0.0000001
 44
0.0000000001
 40
0.0
 40
0.0
 40
0.0
 40
0.0
 40
0.5087084751
 40
1.0
 40
1.0
 40
1.0
 40
1.0
 10
23.4705144106
 20
211.5041804609
 30
0.0
 10
23.1957972355
 20
211.802848147
 30
0.0
 10
22.5595190202
 20
212.3111498153
 30
0.0
 10
21.7839382637
 20
212.5690646082
 30
0.0
 10
21.3958217696
 20
212.6234207753
 30
0.0
  0
SPLINE
  5
43C
100
AcDbEntity
  8
0
100
AcDbSpline
 62
7
  6
CONTINUOUS
 70
0
 71
3
 72
15
 73
11
 74
0
 42
0.0000001
 43
0.0000001
 44
0.0000000001
 40
0.0
 40
0.0
 40
0.0
 40
0.0
 40
0.1199809529
 40
0.2454886811
 40
0.3751151564
 40
0.506437795
 40
0.6366560869
 40
0.7632165044
 40
0.8844312009
 40
1.0
 40
1.0
 40
1.0
 40
1.0
 10
34.1862077742
 20
196.0509422022
 30
0.0
 10
34.6583126221
 20
195.5376781062
 30
0.0
 10
35.4751790562
 20
194.3427667915
 30
0.0
 10
36.2165571431
 20
192.2706838127
 30
0.0
 10
36.4632553432
 20
190.0179902317
 30
0.0
 10
36.199368696
 20
187.7408109996
 30
0.0
 10
35.4440124302
 20
185.5947866492
 30
0.0
 10
34.2458634423
 20
183.7276298641
 30
0.0
 10
32.6847530043
 20
182.2714671493
 30
0.0
 10
31.4393824282
 20
181.6333026556
 30
0.0
 10
30.8015511462
 20
181.4226274109
 30
0.0
  0
SPLINE
  5
43D
100
AcDbEntity
  8
0
100
AcDbSpline
 62
7
  6
CONTINUOUS
 70
0
 71
3
 72
9
 73
5
 74
0
 42
0.0000001
 43
0.0000001
 44
0.0000000001
 40
0.0
 40
0.0
 40
0.0
 40
0.0
 40
0.5087084751
 40
1.0
 40
1.0
 40
1.0
 40
1.0
 10
31.922876927
 20
193.1365315143
 30
0.0
 10
31.6481597519
 20
193.4351992004
 30
0.0
 10
31.0118815366
 20
193.9435008686
 30
0.0
 10
30.2363007801
 20
194.2014156616
 30
0.0
 10
29.848184286
 20
194.2557718286
 30
0.0
  0
SPLINE
  5
43E
100
AcDbEntity
  8
0
100
AcDbSpline
 62
7
  6
CONTINUOUS
 70
0
 71
3
 72
11
 73
7
 74
0
 42
0.0000001
 43
0.0000001
 44
0.0000000001
 40
0.0
 40
0.0
 40
0.0
 40
0.0
 40
0.2553136541
 40
0.5125924736
 40
0.7629043489
 40
1.0
 40
1.0
 40
1.0
 40
1.0
 10
7.7949640248
 20
167.3605626264
 30
0.0
 10
7.9047944324
 20
167.5614384589
 30
0.0
 10
8.0635945345
 20
168.0012536454
 30
0.0
 10
8.1036918157
 20
168.6933371618
 30
0.0
 10
7.9469211713
 20
169.3525719351
 30
0.0
 10
7.7107084679
 20
169.7324870732
 30
0.0
 10
7.5667794063
 20
169.8889642201
 30
0.0
  0
SPLINE
  5
43F
100
AcDbEntity
  8
0
100
AcDbSpline
 62
7
  6
CONTINUOUS
 70
0
 71
3
 72
16
 73
12
 74
0
 42
0.0000001
 43
0.0000001
 44
0.0000000001
 40
0.0
 40
0.0
 40
0.0
 40
0.0
 40
0.0560783173
 40
0.1127486053
 40
0.2293574901
 40
0.3526540141
 40
0.4822264427
 40
0.6154202405
 40
0.7484050404
 40
0.8774164693
 40
1.0
 40
1.0
 40
1.0
 40
1.0
 10
4.7636546248
 20
172.7092978973
 30
0.0
 10
5.1382808746
 20
172.6567893311
 30
0.0
 10
5.9036643272
 20
172.6234403059
 30
0.0
 10
7.4422358011
 20
172.8473118908
 30
0.0
 10
9.3086557188
 20
173.6853450509
 30
0.0
 10
11.1552696212
 20
175.4167821589
 30
0.0
 10
12.4795657376
 20
177.6988263238
 30
0.0
 10
13.1644861331
 20
180.3112158908
 30
0.0
 10
13.1492847311
 20
183.0087840104
 30
0.0
 10
12.4337599916
 20
185.5361057917
 30
0.0
 10
11.4954283981
 20
186.990462032
 30
0.0
 10
10.9356243754
 20
187.5990711299
 30
0.0
  0
SPLINE
  5
440
100
AcDbEntity
  8
0
100
AcDbSpline
 62
7
  6
CONTINUOUS
 70
0
 71
3
 72
9
 73
5
 74
0
 42
0.0000001
 43
0.0000001
 44
0.0000000001
 40
0.0
 40
0.0
 40
0.0
 40
0.0
 40
0.5086948257
 40
1.0
 40
1.0
 40
1.0
 40
1.0
 10
7.5667794063
 20
169.8889642201
 30
0.0
 10
7.4491306216
 20
170.0168699118
 30
0.0
 10
7.1766288251
 20
170.2345280433
 30
0.0
 10
6.8444889374
 20
170.3450689365
 30
0.0
 10
6.6782609855
 20
170.3683030471
 30
0.0
  0
SPLINE
  5
441
100
AcDbEntity
  8
0
100
AcDbSpline
 62
7
  6
CONTINUOUS
 70
0
 71
3
 72
9
 73
5
 74
0
 42
0.0000001
 43
0.0000001
 44
0.0000000001
 40
0.0
 40
0.0
 40
0.0
 40
0.0
 40
0.5127059037
 40
1.0
 40
1.0
 40
1.0
 40
1.0
 10
21.1294887671
 20
191.5058586365
 30
0.0
 10
21.0750353286
 20
191.8691479079
 30
0.0
 10
20.8741894159
 20
192.5676848675
 30
0.0
 10
20.4771159365
 20
193.1801798449
 30
0.0
 10
20.2407547779
 20
193.437147538
 30
0.0
  0
SPLINE
  5
442
100
AcDbEntity
  8
0
100
AcDbSpline
 62
7
  6
CONTINUOUS
 70
0
 71
3
 72
9
 73
5
 74
0
 42
0.0000001
 43
0.0000001
 44
0.0000000001
 40
0.0
 40
0.0
 40
0.0
 40
0.0
 40
0.5087079207
 40
1.0
 40
1.0
 40
1.0
 40
1.0
 10
20.2407547779
 20
193.437147538
 30
0.0
 10
20.0260400693
 20
193.6705815915
 30
0.0
 10
19.5287365201
 20
194.0678552904
 30
0.0
 10
18.9225572878
 20
194.2694722402
 30
0.0
 10
18.6192072225
 20
194.3119310766
 30
0.0
  0
SPLINE
  5
443
100
AcDbEntity
  8
0
100
AcDbSpline
 62
7
  6
CONTINUOUS
 70
0
 71
3
 72
11
 73
7
 74
0
 42
0.0000001
 43
0.0000001
 44
0.0000000001
 40
0.0
 40
0.0
 40
0.0
 40
0.0
 40
0.2358329421
 40
0.4827851034
 40
0.7388866857
 40
1.0
 40
1.0
 40
1.0
 40
1.0
 10
3.5348935311
 20
166.926542484
 30
0.0
 10
1.8265590188
 20
168.5194161363
 30
0.0
 10
-1.2074075769
 20
172.3050537557
 30
0.0
 10
-4.2028852663
 20
179.058735295
 30
0.0
 10
-5.5881438836
 20
186.5643869627
 30
0.0
 10
-5.3802635843
 20
191.7315397957
 30
0.0
 10
-4.9961719219
 20
194.2889735366
 30
0.0
  0
SPLINE
  5
444
100
AcDbEntity
  8
0
100
AcDbSpline
 62
7
  6
CONTINUOUS
 70
0
 71
3
 72
9
 73
5
 74
0
 42
0.0000001
 43
0.0000001
 44
0.0000000001
 40
0.0
 40
0.0
 40
0.0
 40
0.0
 40
0.5086902598
 40
1.0
 40
1.0
 40
1.0
 40
1.0
 10
10.9356243754
 20
187.5990711299
 30
0.0
 10
10.4325320732
 20
188.1460242416
 30
0.0
 10
9.2672474106
 20
189.0768844183
 30
0.0
 10
7.8469114909
 20
189.5492894351
 30
0.0
 10
7.1361089587
 20
189.6489173224
 30
0.0
  0
SPLINE
  5
445
100
AcDbEntity
  8
0
100
AcDbSpline
 62
7
  6
CONTINUOUS
 70
0
 71
3
 72
9
 73
5
 74
0
 42
0.0000001
 43
0.0000001
 44
0.0000000001
 40
0.0
 40
0.0
 40
0.0
 40
0.0
 40
0.5127059036
 40
1.0
 40
1.0
 40
1.0
 40
1.0
 10
25.4417557692
 20
174.206755219
 30
0.0
 10
25.3574648302
 20
174.7691071047
 30
0.0
 10
25.0465663653
 20
175.8504040442
 30
0.0
 10
24.4319183708
 20
176.7985127028
 30
0.0
 10
24.0660442518
 20
177.1962846145
 30
0.0
  0
SPLINE
  5
446
100
AcDbEntity
  8
0
100
AcDbSpline
 62
7
  6
CONTINUOUS
 70
0
 71
3
 72
9
 73
5
 74
0
 42
0.0000001
 43
0.0000001
 44
0.0000000001
 40
0.0
 40
0.0
 40
0.0
 40
0.0
 40
0.5087012174
 40
1.0
 40
1.0
 40
1.0
 40
1.0
 10
24.0660442518
 20
177.1962846145
 30
0.0
 10
23.7336817707
 20
177.5576232625
 30
0.0
 10
22.9638755831
 20
178.1725981472
 30
0.0
 10
22.025545377
 20
178.4846184678
 30
0.0
 10
21.5559817753
 20
178.5504322699
 30
0.0
  0
SPLINE
  5
447
100
AcDbEntity
  8
0
100
AcDbSpline
 62
7
  6
CONTINUOUS
 70
0
 71
3
 72
9
 73
5
 74
0
 42
0.0000001
 43
0.0000001
 44
0.0000000001
 40
0.0
 40
0.0
 40
0.0
 40
0.0
 40
0.2472857303
 40
1.0
 40
1.0
 40
1.0
 40
1.0
 10
4.3565726169
 20
189.3587643829
 30
0.0
 10
4.4593169141
 20
189.2874287241
 30
0.0
 10
4.8664907209
 20
188.9871102717
 30
0.0
 10
5.2395627255
 20
188.6409467099
 30
0.0
 10
5.4973118741
 20
188.3607263641
 30
0.0
  0
SPLINE
  5
448
100
AcDbEntity
  8
0
100
AcDbSpline
 62
7
  6
CONTINUOUS
 70
0
 71
3
 72
9
 73
5
 74
0
 42
0.0000001
 43
0.0000001
 44
0.0000000001
 40
0.0
 40
0.0
 40
0.0
 40
0.0
 40
0.508690364
 40
1.0
 40
1.0
 40
1.0
 40
1.0
 10
31.1138620045
 20
213.5818705434
 30
0.0
 10
30.6166520005
 20
214.122428524
 30
0.0
 10
29.4649924152
 20
215.0424046735
 30
0.0
 10
28.0612637245
 20
215.5092859723
 30
0.0
 10
27.3587723913
 20
215.607748948
 30
0.0
  0
SPLINE
  5
449
100
AcDbEntity
  8
0
100
AcDbSpline
 62
7
  6
CONTINUOUS
 70
0
 71
3
 72
15
 73
11
 74
0
 42
0.0000001
 43
0.0000001
 44
0.0000000001
 40
0.0
 40
0.0
 40
0.0
 40
0.0
 40
0.1199422531
 40
0.2453971278
 40
0.3749697048
 40
0.5062554347
 40
0.6364703852
 40
0.7630683119
 40
0.8843536843
 40
1.0
 40
1.0
 40
1.0
 40
1.0
 10
7.9448367373
 20
209.5907110089
 30
0.0
 10
8.4101302806
 20
209.0848520437
 30
0.0
 10
9.2155797812
 20
207.9076465891
 30
0.0
 10
9.948271524
 20
205.8664293942
 30
0.0
 10
10.1948588332
 20
203.646821138
 30
0.0
 10
9.9395201495
 20
201.4018640139
 30
0.0
 10
9.2006881658
 20
199.2842066441
 30
0.0
 10
8.0257537674
 20
197.4388318228
 30
0.0
 10
6.4926392311
 20
195.9955734926
 30
0.0
 10
5.2679883022
 20
195.3588849364
 30
0.0
 10
4.6401132165
 20
195.1469150364
 30
0.0
  0
SPLINE
  5
44A
100
AcDbEntity
  8
0
100
AcDbSpline
 62
7
  6
CONTINUOUS
 70
0
 71
3
 72
9
 73
5
 74
0
 42
0.0000001
 43
0.0000001
 44
0.0000000001
 40
0.0
 40
0.0
 40
0.0
 40
0.0
 40
0.5087085745
 40
1.0
 40
1.0
 40
1.0
 40
1.0
 10
5.7281424937
 20
206.736352618
 30
0.0
 10
5.4546017844
 20
207.0337412711
 30
0.0
 10
4.8210485243
 20
207.5398660645
 30
0.0
 10
4.0487892949
 20
207.7966762476
 30
0.0
 10
3.6623350438
 20
207.8507995813
 30
0.0
  0
SPLINE
  5
44B
100
AcDbEntity
  8
0
100
AcDbSpline
 62
7
  6
CONTINUOUS
 70
0
 71
3
 72
9
 73
5
 74
0
 42
0.0000001
 43
0.0000001
 44
0.0000000001
 40
0.0
 40
0.0
 40
0.0
 40
0.0
 40
0.5086902598
 40
1.0
 40
1.0
 40
1.0
 40
1.0
 10
39.6245202755
 20
195.2892869679
 30
0.0
 10
39.1214279733
 20
195.8362400797
 30
0.0
 10
37.9561433107
 20
196.7671002563
 30
0.0
 10
36.5358073911
 20
197.2395052732
 30
0.0
 10
35.8250048589
 20
197.3391331604
 30
0.0
  0
SPLINE
  5
44C
100
AcDbEntity
  8
0
100
AcDbSpline
 62
7
  6
CONTINUOUS
 70
0
 71
3
 72
9
 73
5
 74
0
 42
0.0000001
 43
0.0000001
 44
0.0000000001
 40
0.0
 40
0.0
 40
0.0
 40
0.0
 40
0.4947757384
 40
1.0
 40
1.0
 40
1.0
 40
1.0
 10
40.2222514587
 20
198.3547148473
 30
0.0
 10
40.349233631
 20
198.3369401421
 30
0.0
 10
40.612099146
 20
198.3367557235
 30
0.0
 10
40.864992412
 20
198.4071071088
 30
0.0
 10
40.9857942954
 20
198.4575948908
 30
0.0
  0
SPLINE
  5
44D
100
AcDbEntity
  8
0
100
AcDbSpline
 62
7
  6
CONTINUOUS
 70
0
 71
3
 72
9
 73
5
 74
0
 42
0.0000001
 43
0.0000001
 44
0.0000000001
 40
0.0
 40
0.0
 40
0.0
 40
0.0
 40
0.2489828476
 40
1.0
 40
1.0
 40
1.0
 40
1.0
 10
37.3486239469
 20
204.1110230192
 30
0.0
 10
37.4347866723
 20
204.0989485929
 30
0.0
 10
37.7829655436
 20
204.0665291342
 30
0.0
 10
38.1368611939
 20
204.1004234447
 30
0.0
 10
38.3924194381
 20
204.1601097424
 30
0.0
  0
SPLINE
  5
44E
100
AcDbEntity
  8
0
100
AcDbSpline
 62
7
  6
CONTINUOUS
 70
0
 71
3
 72
16
 73
12
 74
0
 42
0.0000001
 43
0.0000001
 44
0.0000000001
 40
0.0
 40
0.0
 40
0.0
 40
0.0
 40
0.0560782837
 40
0.1127485268
 40
0.2293573849
 40
0.3526539711
 40
0.4822264748
 40
0.6154202887
 40
0.748405045
 40
0.8774164647
 40
1.0
 40
1.0
 40
1.0
 40
1.0
 10
7.2833451936
 20
194.1133810723
 30
0.0
 10
7.6535909072
 20
194.0614864894
 30
0.0
 10
8.4100245857
 20
194.0285273051
 30
0.0
 10
9.9306056555
 20
194.2497809409
 30
0.0
 10
11.7752026718
 20
195.0780147981
 30
0.0
 10
13.6002258327
 20
196.7892074586
 30
0.0
 10
14.9090382531
 20
199.0445696981
 30
0.0
 10
15.5859501653
 20
201.6264143037
 30
0.0
 10
15.570926263
 20
204.2924408557
 30
0.0
 10
14.8637679732
 20
206.7902116637
 30
0.0
 10
13.9364077791
 20
208.22756281
 30
0.0
 10
13.3831492385
 20
208.8290557747
 30
0.0
  0
SPLINE
  5
44F
100
AcDbEntity
  8
0
100
AcDbSpline
 62
7
  6
CONTINUOUS
 70
0
 71
3
 72
15
 73
11
 74
0
 42
0.0000001
 43
0.0000001
 44
0.0000000001
 40
0.0
 40
0.0
 40
0.0
 40
0.0
 40
0.1187405919
 40
0.2334021907
 40
0.3484721379
 40
0.4682119677
 40
0.5947814578
 40
0.7276189755
 40
0.8639676931
 40
1.0
 40
1.0
 40
1.0
 40
1.0
 10
15.8873489595
 20
185.8903273579
 30
0.0
 10
16.2644799333
 20
185.4803171615
 30
0.0
 10
17.1455868286
 20
184.7867918789
 30
0.0
 10
18.7447985599
 20
184.2953017675
 30
0.0
 10
20.4176891843
 20
184.4360264279
 30
0.0
 10
21.9769908116
 20
185.1830630009
 30
0.0
 10
23.2737759746
 20
186.440548826
 30
0.0
 10
24.196084433
 20
188.0793652268
 30
0.0
 10
24.6663133617
 20
189.9426394695
 30
0.0
 10
24.6497861449
 20
191.2381258953
 30
0.0
 10
24.555182666
 20
191.8692784889
 30
0.0
  0
SPLINE
  5
450
100
AcDbEntity
  8
0
100
AcDbSpline
 62
7
  6
CONTINUOUS
 70
0
 71
3
 72
9
 73
5
 74
0
 42
0.0000001
 43
0.0000001
 44
0.0000000001
 40
0.0
 40
0.0
 40
0.0
 40
0.0
 40
0.5127055311
 40
1.0
 40
1.0
 40
1.0
 40
1.0
 10
24.555182666
 20
191.8692784889
 30
0.0
 10
24.4634324796
 20
192.4813951751
 30
0.0
 10
24.1250062318
 20
193.6583756014
 30
0.0
 10
23.4559791507
 20
194.690394987
 30
0.0
 10
23.0577267664
 20
195.1233680079
 30
0.0
  0
SPLINE
  5
451
100
AcDbEntity
  8
0
100
AcDbSpline
 62
7
  6
CONTINUOUS
 70
0
 71
3
 72
15
 73
11
 74
0
 42
0.0000001
 43
0.0000001
 44
0.0000000001
 40
0.0
 40
0.0
 40
0.0
 40
0.0
 40
0.1187405919
 40
0.2334021907
 40
0.3484721379
 40
0.4682119677
 40
0.5947814578
 40
0.7276189755
 40
0.8639676931
 40
1.0
 40
1.0
 40
1.0
 40
1.0
 10
23.0577267664
 20
195.1233680079
 30
0.0
 10
22.680595791
 20
195.5333782028
 30
0.0
 10
21.7994888983
 20
196.226903488
 30
0.0
 10
20.2002771658
 20
196.7183935981
 30
0.0
 10
18.5273865417
 20
196.577668938
 30
0.0
 10
16.9680849144
 20
195.8306323649
 30
0.0
 10
15.6712997514
 20
194.5731465398
 30
0.0
 10
14.748991293
 20
192.934330139
 30
0.0
 10
14.2787623643
 20
191.0710558963
 30
0.0
 10
14.2952895811
 20
189.7755694705
 30
0.0
 10
14.38989306
 20
189.144416877
 30
0.0
  0
SPLINE
  5
452
100
AcDbEntity
  8
0
100
AcDbSpline
 62
7
  6
CONTINUOUS
 70
0
 71
3
 72
9
 73
5
 74
0
 42
0.0000001
 43
0.0000001
 44
0.0000000001
 40
0.0
 40
0.0
 40
0.0
 40
0.0
 40
0.5127055312
 40
1.0
 40
1.0
 40
1.0
 40
1.0
 10
14.38989306
 20
189.144416877
 30
0.0
 10
14.4816432463
 20
188.5323001907
 30
0.0
 10
14.820069493
 20
187.3553197635
 30
0.0
 10
15.489096577
 20
186.3233003804
 30
0.0
 10
15.8873489595
 20
185.8903273579
 30
0.0
  0
SPLINE
  5
453
100
AcDbEntity
  8
0
100
AcDbSpline
 62
7
  6
CONTINUOUS
 70
0
 71
3
 72
15
 73
11
 74
0
 42
0.0000001
 43
0.0000001
 44
0.0000000001
 40
0.0
 40
0.0
 40
0.0
 40
0.0
 40
0.1187378932
 40
0.233402504
 40
0.3484722595
 40
0.4682115826
 40
0.5947820146
 40
0.7276185268
 40
0.8639707928
 40
1.0
 40
1.0
 40
1.0
 40
1.0
 10
17.3808082524
 20
166.6468495889
 30
0.0
 10
17.8805730093
 20
166.1035141168
 30
0.0
 10
19.0482261359
 20
165.1844838605
 30
0.0
 10
21.1674903644
 20
164.5330062525
 30
0.0
 10
23.3844033633
 20
164.7196935107
 30
0.0
 10
25.4508921489
 20
165.709468267
 30
0.0
 10
27.1692554116
 20
167.3760577658
 30
0.0
 10
28.3916667587
 20
169.5477403619
 30
0.0
 10
29.0146906488
 20
172.0170105205
 30
0.0
 10
28.9928158774
 20
173.7337871398
 30
0.0
 10
28.8674496681
 20
174.5701750713
 30
0.0
  0
SPLINE
  5
454
100
AcDbEntity
  8
0
100
AcDbSpline
 62
7
  6
CONTINUOUS
 70
0
 71
3
 72
9
 73
5
 74
0
 42
0.0000001
 43
0.0000001
 44
0.0000000001
 40
0.0
 40
0.0
 40
0.0
 40
0.0
 40
0.512705531
 40
1.0
 40
1.0
 40
1.0
 40
1.0
 10
28.8674496681
 20
174.5701750713
 30
0.0
 10
28.7458620229
 20
175.3813540943
 30
0.0
 10
28.2973784496
 20
176.9410923755
 30
0.0
 10
27.4107816081
 20
178.3087278407
 30
0.0
 10
26.8830162403
 20
178.8825050844
 30
0.0
  0
SPLINE
  5
455
100
AcDbEntity
  8
0
100
AcDbSpline
 62
7
  6
CONTINUOUS
 70
0
 71
3
 72
15
 73
11
 74
0
 42
0.0000001
 43
0.0000001
 44
0.0000000001
 40
0.0
 40
0.0
 40
0.0
 40
0.0
 40
0.1187378932
 40
0.233402504
 40
0.3484722595
 40
0.4682115826
 40
0.5947820146
 40
0.7276185268
 40
0.8639707928
 40
1.0
 40
1.0
 40
1.0
 40
1.0
 10
26.8830162403
 20
178.8825050844
 30
0.0
 10
26.3832514828
 20
179.425840556
 30
0.0
 10
25.2155983572
 20
180.3448708133
 30
0.0
 10
23.0963341282
 20
180.9963484208
 30
0.0
 10
20.8794211294
 20
180.8096611627
 30
0.0
 10
18.8129323437
 20
179.8198864064
 30
0.0
 10
17.094569081
 20
178.1532969076
 30
0.0
 10
15.8721577338
 20
175.9816143114
 30
0.0
 10
15.2491338438
 20
173.5123441527
 30
0.0
 10
15.2710086153
 20
171.7955675335
 30
0.0
 10
15.3963748245
 20
170.9591796019
 30
0.0
  0
SPLINE
  5
456
100
AcDbEntity
  8
0
100
AcDbSpline
 62
7
  6
CONTINUOUS
 70
0
 71
3
 72
9
 73
5
 74
0
 42
0.0000001
 43
0.0000001
 44
0.0000000001
 40
0.0
 40
0.0
 40
0.0
 40
0.0
 40
0.512705531
 40
1.0
 40
1.0
 40
1.0
 40
1.0
 10
15.3963748245
 20
170.9591796019
 30
0.0
 10
15.5179624698
 20
170.1480005789
 30
0.0
 10
15.9664460426
 20
168.5882622974
 30
0.0
 10
16.8530428852
 20
167.2206268331
 30
0.0
 10
17.3808082524
 20
166.6468495889
 30
0.0
  0
SPLINE
  5
457
100
AcDbEntity
  8
0
100
AcDbSpline
 62
7
  6
CONTINUOUS
 70
0
 71
3
 72
9
 73
5
 74
0
 42
0.0000001
 43
0.0000001
 44
0.0000000001
 40
0.0
 40
0.0
 40
0.0
 40
0.0
 40
0.508690364
 40
1.0
 40
1.0
 40
1.0
 40
1.0
 10
13.3831492385
 20
208.8290557747
 30
0.0
 10
12.8859392345
 20
209.3696137553
 30
0.0
 10
11.7342796493
 20
210.2895899048
 30
0.0
 10
10.3305509585
 20
210.7564712035
 30
0.0
 10
9.6280596253
 20
210.8549341793
 30
0.0
  0
SPLINE
  5
458
100
AcDbEntity
  8
0
100
AcDbSpline
 62
7
  6
CONTINUOUS
 70
0
 71
3
 72
14
 73
10
 74
0
 42
0.0000001
 43
0.0000001
 44
0.0000000001
 40
0.0
 40
0.0
 40
0.0
 40
0.0
 40
0.1124508479
 40
0.2274935022
 40
0.3470080945
 40
0.4717304302
 40
0.6012158633
 40
0.7340419626
 40
1.0
 40
1.0
 40
1.0
 40
1.0
 10
17.6067122526
 20
187.0825919065
 30
0.0
 10
17.8474696374
 20
187.0488939463
 30
0.0
 10
18.3471915122
 20
187.0513163251
 30
0.0
 10
19.0752479677
 20
187.2662300834
 30
0.0
 10
19.7447792575
 20
187.67615068
 30
0.0
 10
20.3184778749
 20
188.2549882281
 30
0.0
 10
20.7663361994
 20
188.9697963674
 30
0.0
 10
21.1641645707
 20
190.0459212253
 30
0.0
 10
21.2147184746
 20
190.9372437028
 30
0.0
 10
21.1294887671
 20
191.5058586365
 30
0.0
  0
SPLINE
  5
459
100
AcDbEntity
  8
0
100
AcDbSpline
 62
7
  6
CONTINUOUS
 70
0
 71
3
 72
15
 73
11
 74
0
 42
0.0000001
 43
0.0000001
 44
0.0000000001
 40
0.0
 40
0.0
 40
0.0
 40
0.0
 40
0.1123093438
 40
0.2289710068
 40
0.3523248201
 40
0.4819585716
 40
0.6152161455
 40
0.7482739367
 40
0.8773488125
 40
1.0
 40
1.0
 40
1.0
 40
1.0
 10
-3.1516676241
 20
193.2547446947
 30
0.0
 10
-2.8009268956
 20
193.2056921454
 30
0.0
 10
-2.0595332043
 20
193.2453972179
 30
0.0
 10
-1.0268921229
 20
193.7113487447
 30
0.0
 10
-0.1620857744
 20
194.5208810935
 30
0.0
 10
0.4569032551
 20
195.588233276
 30
0.0
 10
0.7774052899
 20
196.810014438
 30
0.0
 10
0.7701784533
 20
198.0716677984
 30
0.0
 10
0.4356913725
 20
199.2537697087
 30
0.0
 10
-0.0032134043
 20
199.9339737414
 30
0.0
 10
-0.265046376
 20
200.2186339479
 30
0.0
  0
SPLINE
  5
45A
100
AcDbEntity
  8
0
100
AcDbSpline
 62
7
  6
CONTINUOUS
 70
0
 71
3
 72
23
 73
19
 74
0
 42
0.0000001
 43
0.0000001
 44
0.0000000001
 40
0.0
 40
0.0
 40
0.0
 40
0.0
 40
0.058378106
 40
0.1220279913
 40
0.190256476
 40
0.262096505
 40
0.3363980487
 40
0.4118929499
 40
0.4872599795
 40
0.5611837584
 40
0.6324143088
 40
0.6998302592
 40
0.7625109909
 40
0.8198246582
 40
0.8715423189
 40
0.9179864527
 40
0.9601954338
 40
1.0
 40
1.0
 40
1.0
 40
1.0
 10
27.9918894882
 20
297.4602261677
 30
0.0
 10
27.5452877033
 20
296.1543033069
 30
0.0
 10
26.3979260886
 20
293.4955700084
 30
0.0
 10
24.1181830937
 20
289.6079964462
 30
0.0
 10
21.2541740932
 20
285.7257015676
 30
0.0
 10
17.873557842
 20
281.940872907
 30
0.0
 10
14.0560747595
 20
278.34256086
 30
0.0
 10
9.8923495794
 20
275.0164438866
 30
0.0
 10
5.4814813129
 20
272.0416894369
 30
0.0
 10
0.928467942
 20
269.4890590747
 30
0.0
 10
-3.6585688061
 20
267.4190422887
 30
0.0
 10
-8.1713734218
 20
265.8804600696
 30
0.0
 10
-12.5047015857
 20
264.9095263352
 30
0.0
 10
-16.559694874
 20
264.5300135072
 30
0.0
 10
-20.2463544911
 20
264.7545603802
 30
0.0
 10
-23.4845202452
 20
265.5901515765
 30
0.0
 10
-26.1924334941
 20
267.0371794044
 30
0.0
 10
-27.5994215298
 20
268.4196119703
 30
0.0
 10
-28.1625528657
 20
269.1735868416
 30
0.0
  0
SPLINE
  5
45B
100
AcDbEntity
  8
0
100
AcDbSpline
 62
7
  6
CONTINUOUS
 70
0
 71
3
 72
12
 73
8
 74
0
 42
0.0000001
 43
0.0000001
 44
0.0000000001
 40
0.0
 40
0.0
 40
0.0
 40
0.0
 40
0.1077440202
 40
0.217524852
 40
0.449824542
 40
0.7087843693
 40
1.0
 40
1.0
 40
1.0
 40
1.0
 10
25.9197086804
 20
309.5635029279
 30
0.0
 10
25.6266591563
 20
309.9558676396
 30
0.0
 10
24.9686577195
 20
310.7008085564
 30
0.0
 10
23.3814172984
 20
312.0014174994
 30
0.0
 10
20.8891857408
 20
313.2151791235
 30
0.0
 10
17.3781137311
 20
313.9313369444
 30
0.0
 10
14.8625528214
 20
313.944652836
 30
0.0
 10
13.5420037131
 20
313.8541752525
 30
0.0
  0
SPLINE
  5
45C
100
AcDbEntity
  8
0
100
AcDbSpline
 62
7
  6
CONTINUOUS
 70
0
 71
3
 72
11
 73
7
 74
0
 42
0.0000001
 43
0.0000001
 44
0.0000000001
 40
0.0
 40
0.0
 40
0.0
 40
0.0
 40
0.2355719097
 40
0.4847715645
 40
0.7417134162
 40
1.0
 40
1.0
 40
1.0
 40
1.0
 10
5.8363925068
 20
312.3460547217
 30
0.0
 10
4.0537512969
 20
311.7951246275
 30
0.0
 10
0.4567581314
 20
310.4221531185
 30
0.0
 10
-4.7806151127
 20
307.739396386
 30
0.0
 10
-9.8752562696
 20
304.4505634526
 30
0.0
 10
-13.0804905757
 20
301.9125419667
 30
0.0
 10
-14.6196326489
 20
300.5649114727
 30
0.0
  0
SPLINE
  5
45D
100
AcDbEntity
  8
0
100
AcDbSpline
 62
7
  6
CONTINUOUS
 70
0
 71
3
 72
9
 73
5
 74
0
 42
0.0000001
 43
0.0000001
 44
0.0000000001
 40
0.0
 40
0.0
 40
0.0
 40
0.0
 40
0.5098492221
 40
1.0
 40
1.0
 40
1.0
 40
1.0
 10
-14.6196326489
 20
300.5649114727
 30
0.0
 10
-15.9944520935
 20
299.3611573558
 30
0.0
 10
-18.5880077101
 20
296.8795533722
 30
0.0
 10
-20.9369034773
 20
294.1634686699
 30
0.0
 10
-22.013042478
 20
292.7749298816
 30
0.0
  0
SPLINE
  5
45E
100
AcDbEntity
  8
0
100
AcDbSpline
 62
7
  6
CONTINUOUS
 70
0
 71
3
 72
11
 73
7
 74
0
 42
0.0000001
 43
0.0000001
 44
0.0000000001
 40
0.0
 40
0.0
 40
0.0
 40
0.0
 40
0.2772840041
 40
0.5324282984
 40
0.7707891301
 40
1.0
 40
1.0
 40
1.0
 40
1.0
 10
-28.6683307188
 20
279.1107522244
 30
0.0
 10
-28.8129978513
 20
278.2499731311
 30
0.0
 10
-28.9745540832
 20
276.5733718091
 30
0.0
 10
-28.7796140328
 20
274.1402829412
 30
0.0
 10
-28.1318146973
 20
271.9410025884
 30
0.0
 10
-27.3924842581
 20
270.6492237999
 30
0.0
 10
-26.9607250545
 20
270.0711403652
 30
0.0
  0
SPLINE
  5
45F
100
AcDbEntity
  8
0
100
AcDbSpline
 62
7
  6
CONTINUOUS
 70
0
 71
3
 72
12
 73
8
 74
0
 42
0.0000001
 43
0.0000001
 44
0.0000000001
 40
0.0
 40
0.0
 40
0.0
 40
0.0
 40
0.1087499012
 40
0.2193905879
 40
0.4525651727
 40
0.7108569217
 40
1.0
 40
1.0
 40
1.0
 40
1.0
 10
31.0538234325
 20
316.0585959092
 30
0.0
 10
31.4027176896
 20
315.5913904962
 30
0.0
 10
32.0334169661
 20
314.5916379437
 30
0.0
 10
33.0008851278
 20
312.3573674221
 30
0.0
 10
33.5996358895
 20
309.1395290211
 30
0.0
 10
33.3375916466
 20
304.9315122662
 30
0.0
 10
32.58979269
 20
302.0752489649
 30
0.0
 10
32.0881270805
 20
300.6083121765
 30
0.0
  0
SPLINE
  5
460
100
AcDbEntity
  8
0
100
AcDbSpline
 62
7
  6
CONTINUOUS
 70
0
 71
3
 72
13
 73
9
 74
0
 42
0.0000001
 43
0.0000001
 44
0.0000000001
 40
0.0
 40
0.0
 40
0.0
 40
0.0
 40
0.1467543901
 40
0.2870570823
 40
0.4852773148
 40
0.6692233096
 40
0.8400791377
 40
1.0
 40
1.0
 40
1.0
 40
1.0
 10
-19.7938883196
 20
256.7235062287
 30
0.0
 10
-20.7008115642
 20
256.5863198193
 30
0.0
 10
-22.4833126757
 20
256.3698679707
 30
0.0
 10
-25.5135921829
 20
256.2012073513
 30
0.0
 10
-28.7848036059
 20
256.3076283389
 30
0.0
 10
-32.2093417956
 20
256.8479629478
 30
0.0
 10
-35.2936058503
 20
257.804387818
 30
0.0
 10
-37.1504472315
 20
258.7427824108
 30
0.0
 10
-37.9948129789
 20
259.2776776277
 30
0.0
  0
SPLINE
  5
461
100
AcDbEntity
  8
0
100
AcDbSpline
 62
7
  6
CONTINUOUS
 70
0
 71
3
 72
11
 73
7
 74
0
 42
0.0000001
 43
0.0000001
 44
0.0000000001
 40
0.0
 40
0.0
 40
0.0
 40
0.0
 40
0.2279601332
 40
0.4726735599
 40
0.7312156367
 40
1.0
 40
1.0
 40
1.0
 40
1.0
 10
36.7574443113
 20
299.0609785225
 30
0.0
 10
35.9182953533
 20
297.251485668
 30
0.0
 10
33.9379408464
 20
293.6084699975
 30
0.0
 10
30.3072491573
 20
288.3290375805
 30
0.0
 10
25.9780068954
 20
283.1323303402
 30
0.0
 10
22.733149405
 20
279.8437548591
 30
0.0
 10
21.0171790235
 20
278.2355164053
 30
0.0
  0
SPLINE
  5
462
100
AcDbEntity
  8
0
100
AcDbSpline
 62
7
  6
CONTINUOUS
 70
0
 71
3
 72
9
 73
5
 74
0
 42
0.0000001
 43
0.0000001
 44
0.0000000001
 40
0.0
 40
0.0
 40
0.0
 40
0.0
 40
0.5037323831
 40
1.0
 40
1.0
 40
1.0
 40
1.0
 10
21.0171790235
 20
278.2355164053
 30
0.0
 10
17.6382200824
 20
275.0686950187
 30
0.0
 10
10.4425217349
 20
269.2876228634
 30
0.0
 10
2.4834291968
 20
264.6065495183
 30
0.0
 10
-1.6252736489
 20
262.6231747862
 30
0.0
  0
SPLINE
  5
463
100
AcDbEntity
  8
0
100
AcDbSpline
 62
7
  6
CONTINUOUS
 70
0
 71
3
 72
9
 73
5
 74
0
 42
0.0000001
 43
0.0000001
 44
0.0000000001
 40
0.0
 40
0.0
 40
0.0
 40
0.0
 40
0.4862747773
 40
1.0
 40
1.0
 40
1.0
 40
1.0
 10
30.2525982255
 20
315.460221919
 30
0.0
 10
29.6232038524
 20
316.3030531068
 30
0.0
 10
28.0650312414
 20
317.8518646779
 30
0.0
 10
26.149817596
 20
318.9122245208
 30
0.0
 10
25.1238509949
 20
319.3392436882
 30
0.0
  0
SPLINE
  5
464
100
AcDbEntity
  8
0
100
AcDbSpline
 62
7
  6
CONTINUOUS
 70
0
 71
3
 72
17
 73
13
 74
0
 42
0.0000001
 43
0.0000001
 44
0.0000000001
 40
0.0
 40
0.0
 40
0.0
 40
0.0
 40
0.0393217461
 40
0.0806163923
 40
0.1254639849
 40
0.1748601046
 40
0.2884364716
 40
0.4204946143
 40
0.5655899778
 40
0.7160941471
 40
0.863553737
 40
1.0
 40
1.0
 40
1.0
 40
1.0
 10
11.7175224905
 20
236.9203699398
 30
0.0
 10
11.8400259396
 20
236.9531842803
 30
0.0
 10
12.0829472304
 20
237.055757474
 30
0.0
 10
12.4058172263
 20
237.3058796375
 30
0.0
 10
12.6853089778
 20
237.6460044505
 30
0.0
 10
13.0099341271
 20
238.2358327954
 30
0.0
 10
13.2673981314
 20
239.164066831
 30
0.0
 10
13.3492341256
 20
240.4273808902
 30
0.0
 10
13.2137176405
 20
241.8055672616
 30
0.0
 10
12.8699758558
 20
243.1975463295
 30
0.0
 10
12.3438458152
 20
244.5009488384
 30
0.0
 10
11.8707421602
 20
245.2915138536
 30
0.0
 10
11.6074159802
 20
245.6441086763
 30
0.0
  0
SPLINE
  5
465
100
AcDbEntity
  8
0
100
AcDbSpline
 62
7
  6
CONTINUOUS
 70
0
 71
3
 72
12
 73
8
 74
0
 42
0.0000001
 43
0.0000001
 44
0.0000000001
 40
0.0
 40
0.0
 40
0.0
 40
0.0
 40
0.2156469379
 40
0.39081899
 40
0.5794578661
 40
0.7824937829
 40
1.0
 40
1.0
 40
1.0
 40
1.0
 10
39.4025980031
 20
317.0759982037
 30
0.0
 10
39.7670462966
 20
315.7920773106
 30
0.0
 10
40.1263083817
 20
313.3731773198
 30
0.0
 10
39.9974140641
 20
309.7793849461
 30
0.0
 10
39.395681763
 20
306.3128381211
 30
0.0
 10
38.3175892755
 20
302.6927408099
 30
0.0
 10
37.3237837722
 20
300.2822005688
 30
0.0
 10
36.7574443113
 20
299.0609785225
 30
0.0
  0
SPLINE
  5
466
100
AcDbEntity
  8
0
100
AcDbSpline
 62
7
  6
CONTINUOUS
 70
0
 71
3
 72
11
 73
7
 74
0
 42
0.0000001
 43
0.0000001
 44
0.0000000001
 40
0.0
 40
0.0
 40
0.0
 40
0.0
 40
0.2188403706
 40
0.4528501686
 40
0.7115488287
 40
1.0
 40
1.0
 40
1.0
 40
1.0
 10
27.361874459
 20
310.1240467521
 30
0.0
 10
27.9002069342
 20
309.3330363431
 30
0.0
 10
28.7628919849
 20
307.5129575618
 30
0.0
 10
29.2635121223
 20
304.4092208958
 30
0.0
 10
29.0150226407
 20
300.9785448046
 30
0.0
 10
28.3999829599
 20
298.6535456127
 30
0.0
 10
27.9918894882
 20
297.4602261677
 30
0.0
  0
SPLINE
  5
467
100
AcDbEntity
  8
0
100
AcDbSpline
 62
7
  6
CONTINUOUS
 70
0
 71
3
 72
11
 73
7
 74
0
 42
0.0000001
 43
0.0000001
 44
0.0000000001
 40
0.0
 40
0.0
 40
0.0
 40
0.0
 40
0.3067972423
 40
0.5723528636
 40
0.7986410704
 40
1.0
 40
1.0
 40
1.0
 40
1.0
 10
7.4072524872
 20
251.2681446233
 30
0.0
 10
7.3400667737
 20
251.3581065661
 30
0.0
 10
7.2017084676
 20
251.5170811366
 30
0.0
 10
6.9669928226
 20
251.6956753263
 30
0.0
 10
6.7261399689
 20
251.7889440055
 30
0.0
 10
6.5639843017
 20
251.7843927821
 30
0.0
 10
6.4928089439
 20
251.7652947606
 30
0.0
  0
SPLINE
  5
468
100
AcDbEntity
  8
0
100
AcDbSpline
 62
7
  6
CONTINUOUS
 70
0
 71
3
 72
13
 73
9
 74
0
 42
0.0000001
 43
0.0000001
 44
0.0000000001
 40
0.0
 40
0.0
 40
0.0
 40
0.0
 40
0.3173660642
 40
0.5957932239
 40
0.7150862925
 40
0.8203100974
 40
0.9136587963
 40
1.0
 40
1.0
 40
1.0
 40
1.0
 10
-13.8391040664
 20
244.6545000316
 30
0.0
 10
-13.880256911
 20
244.8628927534
 30
0.0
 10
-13.9227444134
 20
245.2618584376
 30
0.0
 10
-13.8722564599
 20
245.7438938688
 30
0.0
 10
-13.7585359012
 20
246.0624961938
 30
0.0
 10
-13.647667856
 20
246.246223278
 30
0.0
 10
-13.5089572752
 20
246.3808378545
 30
0.0
 10
-13.3977174177
 20
246.4335151274
 30
0.0
 10
-13.3419024813
 20
246.4484916123
 30
0.0
  0
SPLINE
  5
469
100
AcDbEntity
  8
0
100
AcDbSpline
 62
7
  6
CONTINUOUS
 70
0
 71
3
 72
9
 73
5
 74
0
 42
0.0000001
 43
0.0000001
 44
0.0000000001
 40
0.0
 40
0.0
 40
0.0
 40
0.0
 40
0.5200630411
 40
1.0
 40
1.0
 40
1.0
 40
1.0
 10
-5.1887806236
 20
265.1417125452
 30
0.0
 10
-7.1248840885
 20
264.3612558095
 30
0.0
 10
-10.9264660611
 20
263.0464001925
 30
0.0
 10
-14.8620583551
 20
262.1913555373
 30
0.0
 10
-16.7698339826
 20
261.9239426983
 30
0.0
  0
SPLINE
  5
46A
100
AcDbEntity
  8
0
100
AcDbSpline
 62
7
  6
CONTINUOUS
 70
0
 71
3
 72
14
 73
10
 74
0
 42
0.0000001
 43
0.0000001
 44
0.0000000001
 40
0.0
 40
0.0
 40
0.0
 40
0.0
 40
0.1040517206
 40
0.2171177486
 40
0.3381136383
 40
0.4655127223
 40
0.5974896825
 40
0.7320214166
 40
1.0
 40
1.0
 40
1.0
 40
1.0
 10
32.0881270805
 20
300.6083121765
 30
0.0
 10
31.5835305791
 20
299.1328050717
 30
0.0
 10
30.3011369648
 20
296.1301865312
 30
0.0
 10
27.7704082764
 20
291.7296526588
 30
0.0
 10
24.6020953341
 20
287.3251358391
 30
0.0
 10
20.8643934179
 20
283.0118936937
 30
0.0
 10
16.6368473159
 20
278.8813982899
 30
0.0
 10
10.4809523849
 20
273.748288484
 30
0.0
 10
5.4107542756
 20
270.4198998791
 30
0.0
 10
1.8850629602
 20
268.4966437347
 30
0.0
  0
SPLINE
  5
46B
100
AcDbEntity
  8
0
100
AcDbSpline
 62
7
  6
CONTINUOUS
 70
0
 71
3
 72
11
 73
7
 74
0
 42
0.0000001
 43
0.0000001
 44
0.0000000001
 40
0.0
 40
0.0
 40
0.0
 40
0.0
 40
0.2800062038
 40
0.5358356354
 40
0.7730445511
 40
1.0
 40
1.0
 40
1.0
 40
1.0
 10
-23.5608954663
 20
261.6757150664
 30
0.0
 10
-24.7378328682
 20
261.7729933034
 30
0.0
 10
-26.9827072567
 20
262.1210534913
 30
0.0
 10
-30.0816763406
 20
263.2000955192
 30
0.0
 10
-32.6910042375
 20
264.8041162405
 30
0.0
 10
-34.0734273272
 20
266.2253357345
 30
0.0
 10
-34.6461742223
 20
266.9922787128
 30
0.0
  0
SPLINE
  5
46C
100
AcDbEntity
  8
0
100
AcDbSpline
 62
7
  6
CONTINUOUS
 70
0
 71
3
 72
9
 73
5
 74
0
 42
0.0000001
 43
0.0000001
 44
0.0000000001
 40
0.0
 40
0.0
 40
0.0
 40
0.0
 40
0.5132379804
 40
1.0
 40
1.0
 40
1.0
 40
1.0
 10
-36.0930641065
 20
273.4738850101
 30
0.0
 10
-35.967549033
 20
272.3941180534
 30
0.0
 10
-35.4879192471
 20
270.3058144184
 30
0.0
 10
-34.46179262
 20
268.4167190487
 30
0.0
 10
-33.8449266066
 20
267.590669421
 30
0.0
  0
SPLINE
  5
46D
100
AcDbEntity
  8
0
100
AcDbSpline
 62
7
  6
CONTINUOUS
 70
0
 71
3
 72
9
 73
5
 74
0
 42
0.0000001
 43
0.0000001
 44
0.0000000001
 40
0.0
 40
0.0
 40
0.0
 40
0.0
 40
0.4947661362
 40
1.0
 40
1.0
 40
1.0
 40
1.0
 10
30.5435580649
 20
316.7418433053
 30
0.0
 10
30.1577393691
 20
317.258494352
 30
0.0
 10
29.2852248241
 20
318.2364597511
 30
0.0
 10
28.260133258
 20
319.0518946095
 30
0.0
 10
27.7143296374
 20
319.420218275
 30
0.0
  0
SPLINE
  5
46E
100
AcDbEntity
  8
0
100
AcDbSpline
 62
7
  6
CONTINUOUS
 70
0
 71
3
 72
11
 73
7
 74
0
 42
0.0000001
 43
0.0000001
 44
0.0000000001
 40
0.0
 40
0.0
 40
0.0
 40
0.0
 40
0.2223745966
 40
0.4573333013
 40
0.7146148477
 40
1.0
 40
1.0
 40
1.0
 40
1.0
 10
-33.8449266066
 20
267.590669421
 30
0.0
 10
-33.2147735642
 20
266.7468270393
 30
0.0
 10
-31.6533214563
 20
265.195742457
 30
0.0
 10
-28.6607397592
 20
263.5407181262
 30
0.0
 10
-25.0873682633
 20
262.5443793593
 30
0.0
 10
-22.5117520819
 20
262.3321513564
 30
0.0
 10
-21.1602273493
 20
262.3192273173
 30
0.0
  0
SPLINE
  5
46F
100
AcDbEntity
  8
0
100
AcDbSpline
 62
7
  6
CONTINUOUS
 70
0
 71
3
 72
9
 73
5
 74
0
 42
0.0000001
 43
0.0000001
 44
0.0000000001
 40
0.0
 40
0.0
 40
0.0
 40
0.0
 40
0.5271222616
 40
1.0
 40
1.0
 40
1.0
 40
1.0
 10
-4.142002253
 20
267.0853041643
 30
0.0
 10
-6.6329505865
 20
266.0051443178
 30
0.0
 10
-11.4962397533
 20
264.2547459043
 30
0.0
 10
-16.5899161914
 20
263.28926171
 30
0.0
 10
-19.0180361601
 20
263.0977017146
 30
0.0
  0
SPLINE
  5
470
100
AcDbEntity
  8
0
100
AcDbSpline
 62
7
  6
CONTINUOUS
 70
0
 71
3
 72
11
 73
7
 74
0
 42
0.0000001
 43
0.0000001
 44
0.0000000001
 40
0.0
 40
0.0
 40
0.0
 40
0.0
 40
0.3069890582
 40
0.5725895946
 40
0.7988313061
 40
1.0
 40
1.0
 40
1.0
 40
1.0
 10
-9.9451393065
 20
246.6119487485
 30
0.0
 10
-10.0124815998
 20
246.7025132913
 30
0.0
 10
-10.1511411479
 20
246.8626005836
 30
0.0
 10
-10.3865935836
 20
247.0425417873
 30
0.0
 10
-10.6282952895
 20
247.1366857667
 30
0.0
 10
-10.7911338761
 20
247.1322547108
 30
0.0
 10
-10.8625610881
 20
247.1130831064
 30
0.0
  0
SPLINE
  5
471
100
AcDbEntity
  8
0
100
AcDbSpline
 62
7
  6
CONTINUOUS
 70
0
 71
3
 72
9
 73
5
 74
0
 42
0.0000001
 43
0.0000001
 44
0.0000000001
 40
0.0
 40
0.0
 40
0.0
 40
0.0
 40
0.5056547843
 40
1.0
 40
1.0
 40
1.0
 40
1.0
 10
-31.4742665074
 20
274.619156107
 30
0.0
 10
-31.3074526883
 20
274.0660976975
 30
0.0
 10
-30.8881136755
 20
272.9967501103
 30
0.0
 10
-30.2864265408
 20
272.0174275127
 30
0.0
 10
-29.9484818082
 20
271.5649526158
 30
0.0
  0
SPLINE
  5
472
100
AcDbEntity
  8
0
100
AcDbSpline
 62
7
  6
CONTINUOUS
 70
0
 71
3
 72
9
 73
5
 74
0
 42
0.0000001
 43
0.0000001
 44
0.0000000001
 40
0.0
 40
0.0
 40
0.0
 40
0.0
 40
0.2558583106
 40
1.0
 40
1.0
 40
1.0
 40
1.0
 10
-0.4313046364
 20
310.8117875437
 30
0.0
 10
0.0225544489
 20
311.024761343
 30
0.0
 10
1.80737346
 20
311.8334695178
 30
0.0
 10
3.6361598144
 20
312.546280118
 30
0.0
 10
5.0178409392
 20
313.0121760037
 30
0.0
  0
SPLINE
  5
473
100
AcDbEntity
  8
0
100
AcDbSpline
 62
7
  6
CONTINUOUS
 70
0
 71
3
 72
10
 73
6
 74
0
 42
0.0000001
 43
0.0000001
 44
0.0000000001
 40
0.0
 40
0.0
 40
0.0
 40
0.0
 40
0.2374952557
 40
0.4804416119
 40
1.0
 40
1.0
 40
1.0
 40
1.0
 10
-28.1625528657
 20
269.1735868416
 30
0.0
 10
-28.5010451104
 20
269.6267931015
 30
0.0
 10
-29.1036546076
 20
270.6084304407
 30
0.0
 10
-29.9765762897
 20
272.8345824829
 30
0.0
 10
-30.1975627789
 20
274.6742585046
 30
0.0
 10
-30.1908802258
 20
275.9117143114
 30
0.0
  0
SPLINE
  5
474
100
AcDbEntity
  8
0
100
AcDbSpline
 62
7
  6
CONTINUOUS
 70
0
 71
3
 72
11
 73
7
 74
0
 42
0.0000001
 43
0.0000001
 44
0.0000000001
 40
0.0
 40
0.0
 40
0.0
 40
0.0
 40
0.2239714412
 40
0.459700095
 40
0.7164742172
 40
1.0
 40
1.0
 40
1.0
 40
1.0
 10
25.3356001268
 20
312.8524167131
 30
0.0
 10
24.8134544536
 20
313.5515414667
 30
0.0
 10
23.5315821737
 20
314.8403066143
 30
0.0
 10
21.0868930049
 20
316.243539059
 30
0.0
 10
18.1724190755
 20
317.1241414743
 30
0.0
 10
16.0679373561
 20
317.3489903246
 30
0.0
 10
14.963968472
 20
317.3866692058
 30
0.0
  0
SPLINE
  5
475
100
AcDbEntity
  8
0
100
AcDbSpline
 62
7
  6
CONTINUOUS
 70
0
 71
3
 72
9
 73
5
 74
0
 42
0.0000001
 43
0.0000001
 44
0.0000000001
 40
0.0
 40
0.0
 40
0.0
 40
0.0
 40
0.4869695604
 40
1.0
 40
1.0
 40
1.0
 40
1.0
 10
30.2216715643
 20
315.446908443
 30
0.0
 10
30.7062611726
 20
314.6810175449
 30
0.0
 10
31.5061983513
 20
312.977752849
 30
0.0
 10
31.8924077971
 20
311.1408430264
 30
0.0
 10
31.998248353
 20
310.1919042515
 30
0.0
  0
SPLINE
  5
476
100
AcDbEntity
  8
0
100
AcDbSpline
 62
7
  6
CONTINUOUS
 70
0
 71
3
 72
10
 73
6
 74
0
 42
0.0000001
 43
0.0000001
 44
0.0000000001
 40
0.0
 40
0.0
 40
0.0
 40
0.0
 40
0.2278735494
 40
0.5961995089
 40
1.0
 40
1.0
 40
1.0
 40
1.0
 10
31.998248353
 20
310.1919042515
 30
0.0
 10
32.0763160924
 20
309.4919692939
 30
0.0
 10
32.1504299848
 20
307.6447708638
 30
0.0
 10
31.7910568728
 20
304.5599805749
 30
0.0
 10
31.155247722
 20
302.2508853763
 30
0.0
 10
30.7514154034
 20
301.0700261082
 30
0.0
  0
SPLINE
  5
477
100
AcDbEntity
  8
0
100
AcDbSpline
 62
7
  6
CONTINUOUS
 70
0
 71
3
 72
19
 73
15
 74
0
 42
0.0000001
 43
0.0000001
 44
0.0000000001
 40
0.0
 40
0.0
 40
0.0
 40
0.0
 40
0.0558630948
 40
0.1163204422
 40
0.1808738263
 40
0.2488247652
 40
0.3913437499
 40
0.5362535161
 40
0.6754543563
 40
0.7406500715
 40
0.8018554228
 40
0.8585322622
 40
0.9104002007
 40
1.0
 40
1.0
 40
1.0
 40
1.0
 10
21.5962378852
 20
304.0318069602
 30
0.0
 10
21.2150642337
 20
302.9172046406
 30
0.0
 10
20.2588447627
 20
300.6503029496
 30
0.0
 10
18.3882205528
 20
297.3193192141
 30
0.0
 10
16.057050182
 20
293.9770047551
 30
0.0
 10
12.3353698712
 20
289.5218494581
 30
0.0
 10
6.8542230215
 20
284.3652142162
 30
0.0
 10
-0.531856579
 20
279.1808692391
 30
0.0
 10
-7.1429534518
 20
275.8560648007
 30
0.0
 10
-12.4360290682
 20
274.0038116959
 30
0.0
 10
-16.1904722225
 20
273.0800031816
 30
0.0
 10
-19.7505828499
 20
272.6098895308
 30
0.0
 10
-23.92887702
 20
272.5973081065
 30
0.0
 10
-26.93262159
 20
273.2680169922
 30
0.0
 10
-28.6232588109
 20
274.1115214984
 30
0.0
  0
SPLINE
  5
478
100
AcDbEntity
  8
0
100
AcDbSpline
 62
7
  6
CONTINUOUS
 70
0
 71
3
 72
10
 73
6
 74
0
 42
0.0000001
 43
0.0000001
 44
0.0000000001
 40
0.0
 40
0.0
 40
0.0
 40
0.0
 40
0.22549651
 40
0.4686998591
 40
1.0
 40
1.0
 40
1.0
 40
1.0
 10
30.7514154034
 20
301.0700261082
 30
0.0
 10
30.3142463962
 20
299.7916859407
 30
0.0
 10
29.2293534783
 20
297.192879545
 30
0.0
 10
26.3361454474
 20
291.9379253022
 30
0.0
 10
23.522973356
 20
288.2093573991
 30
0.0
 10
21.4285255631
 20
285.8122674411
 30
0.0
  0
SPLINE
  5
479
100
AcDbEntity
  8
0
100
AcDbSpline
 62
7
  6
CONTINUOUS
 70
0
 71
3
 72
9
 73
5
 74
0
 42
0.0000001
 43
0.0000001
 44
0.0000000001
 40
0.0
 40
0.0
 40
0.0
 40
0.0
 40
0.4824421237
 40
1.0
 40
1.0
 40
1.0
 40
1.0
 10
-8.227295446
 20
240.3273055312
 30
0.0
 10
-7.8022899966
 20
239.7582215112
 30
0.0
 10
-7.1112180659
 20
238.4362919439
 30
0.0
 10
-6.7283042475
 20
237.0018708036
 30
0.0
 10
-6.6174399812
 20
236.2480082661
 30
0.0
  0
SPLINE
  5
47A
100
AcDbEntity
  8
0
100
AcDbSpline
 62
7
  6
CONTINUOUS
 70
0
 71
3
 72
9
 73
5
 74
0
 42
0.0000001
 43
0.0000001
 44
0.0000000001
 40
0.0
 40
0.0
 40
0.0
 40
0.0
 40
0.2588257091
 40
1.0
 40
1.0
 40
1.0
 40
1.0
 10
-6.5629226041
 20
235.8049406063
 30
0.0
 10
-6.550971487
 20
235.6838642442
 30
0.0
 10
-6.5142208082
 20
235.2152474754
 30
0.0
 10
-6.5152658515
 20
234.7432295189
 30
0.0
 10
-6.5423879259
 20
234.3958871352
 30
0.0
  0
SPLINE
  5
47B
100
AcDbEntity
  8
0
100
AcDbSpline
 62
7
  6
CONTINUOUS
 70
0
 71
3
 72
11
 73
7
 74
0
 42
0.0000001
 43
0.0000001
 44
0.0000000001
 40
0.0
 40
0.0
 40
0.0
 40
0.0
 40
0.201358965
 40
0.4276472081
 40
0.6932027419
 40
1.0
 40
1.0
 40
1.0
 40
1.0
 10
-13.3419024813
 20
246.4484916123
 30
0.0
 10
-13.2707271186
 20
246.4675896676
 30
0.0
 10
-13.1085714082
 20
246.4721408501
 30
0.0
 10
-12.8677185762
 20
246.3788721638
 30
0.0
 10
-12.6330029148
 20
246.2002780073
 30
0.0
 10
-12.4946446565
 20
246.0413034262
 30
0.0
 10
-12.4274589391
 20
245.9513414781
 30
0.0
  0
SPLINE
  5
47C
100
AcDbEntity
  8
0
100
AcDbSpline
 62
7
  6
CONTINUOUS
 70
0
 71
3
 72
9
 73
5
 74
0
 42
0.0000001
 43
0.0000001
 44
0.0000000001
 40
0.0
 40
0.0
 40
0.0
 40
0.0
 40
0.5053207985
 40
1.0
 40
1.0
 40
1.0
 40
1.0
 10
-36.9316036067
 20
271.1813941431
 30
0.0
 10
-36.7333286094
 20
270.5473607064
 30
0.0
 10
-36.2408857472
 20
269.3211523776
 30
0.0
 10
-35.5455627111
 20
268.1965856562
 30
0.0
 10
-35.1564395909
 20
267.6755261082
 30
0.0
  0
SPLINE
  5
47D
100
AcDbEntity
  8
0
100
AcDbSpline
 62
7
  6
CONTINUOUS
 70
0
 71
3
 72
9
 73
5
 74
0
 42
0.0000001
 43
0.0000001
 44
0.0000000001
 40
0.0
 40
0.0
 40
0.0
 40
0.0
 40
0.2772786928
 40
1.0
 40
1.0
 40
1.0
 40
1.0
 10
21.5962216614
 20
304.031828684
 30
0.0
 10
21.8485667268
 20
304.7697191291
 30
0.0
 10
22.6346527744
 20
307.4640630222
 30
0.0
 10
22.8712433543
 20
310.3732335604
 30
0.0
 10
22.5053612671
 20
312.3726863913
 30
0.0
  0
SPLINE
  5
47E
100
AcDbEntity
  8
0
100
AcDbSpline
 62
7
  6
CONTINUOUS
 70
0
 71
3
 72
11
 73
7
 74
0
 42
0.0000001
 43
0.0000001
 44
0.0000000001
 40
0.0
 40
0.0
 40
0.0
 40
0.0
 40
0.2893273242
 40
0.5477877663
 40
0.7811127031
 40
1.0
 40
1.0
 40
1.0
 40
1.0
 10
26.752220024
 20
297.1279259711
 30
0.0
 10
27.1559971601
 20
298.3086238779
 30
0.0
 10
27.7582637005
 20
300.6071343143
 30
0.0
 10
27.9676949252
 20
303.9958063101
 30
0.0
 10
27.4040031792
 20
307.045322078
 30
0.0
 10
26.4846171129
 20
308.8071456709
 30
0.0
 10
25.9197086804
 20
309.5635029279
 30
0.0
  0
SPLINE
  5
47F
100
AcDbEntity
  8
0
100
AcDbSpline
 62
7
  6
CONTINUOUS
 70
0
 71
3
 72
11
 73
7
 74
0
 42
0.0000001
 43
0.0000001
 44
0.0000000001
 40
0.0
 40
0.0
 40
0.0
 40
0.0
 40
0.2837653541
 40
0.5414713162
 40
0.7776462821
 40
1.0
 40
1.0
 40
1.0
 40
1.0
 10
-21.670492717
 20
263.0024747134
 30
0.0
 10
-22.9281021628
 20
263.0145006817
 30
0.0
 10
-25.3320520364
 20
263.200734056
 30
0.0
 10
-28.6909877057
 20
264.060521184
 30
0.0
 10
-31.558329889
 20
265.483208899
 30
0.0
 10
-33.1211751112
 20
266.8242308495
 30
0.0
 10
-33.7750256139
 20
267.5615660033
 30
0.0
  0
SPLINE
  5
480
100
AcDbEntity
  8
0
100
AcDbSpline
 62
7
  6
CONTINUOUS
 70
0
 71
3
 72
12
 73
8
 74
0
 42
0.0000001
 43
0.0000001
 44
0.0000000001
 40
0.0
 40
0.0
 40
0.0
 40
0.0
 40
0.2946940916
 40
0.5548172598
 40
0.7856717589
 40
0.8939836134
 40
1.0
 40
1.0
 40
1.0
 40
1.0
 10
12.9047644448
 20
314.8304430343
 30
0.0
 10
14.4208931445
 20
315.0019027358
 30
0.0
 10
17.3088548582
 20
315.1131310799
 30
0.0
 10
21.3560720535
 20
314.458682339
 30
0.0
 10
24.2335871236
 20
313.1691206088
 30
0.0
 10
26.0489784192
 20
311.7331312195
 30
0.0
 10
26.7930708183
 20
310.9008371707
 30
0.0
 10
27.1215289221
 20
310.4610508321
 30
0.0
  0
SPLINE
  5
481
100
AcDbEntity
  8
0
100
AcDbSpline
 62
7
  6
CONTINUOUS
 70
0
 71
3
 72
9
 73
5
 74
0
 42
0.0000001
 43
0.0000001
 44
0.0000000001
 40
0.0
 40
0.0
 40
0.0
 40
0.0
 40
0.4774412553
 40
1.0
 40
1.0
 40
1.0
 40
1.0
 10
-17.3433459948
 20
262.5267286839
 30
0.0
 10
-15.3092242173
 20
262.7577956701
 30
0.0
 10
-11.0877406305
 20
263.6081914969
 30
0.0
 10
-7.022424484
 20
265.0060897908
 30
0.0
 10
-4.9466513534
 20
265.8497306496
 30
0.0
  0
LINE
  5
482
100
AcDbEntity
  8
0
100
AcDbLine
 62
7
  6
CONTINUOUS
 10
-3.730241428
 20
266.3594418826
 11
-3.6317368867
 21
266.4020567645
  0
SPLINE
  5
483
100
AcDbEntity
  8
0
100
AcDbSpline
 62
7
  6
CONTINUOUS
 70
0
 71
3
 72
9
 73
5
 74
0
 42
0.0000001
 43
0.0000001
 44
0.0000000001
 40
0.0
 40
0.0
 40
0.0
 40
0.0
 40
0.5090252638
 40
1.0
 40
1.0
 40
1.0
 40
1.0
 10
27.0744419534
 20
319.4295438969
 30
0.0
 10
27.8591999703
 20
319.0090910698
 30
0.0
 10
29.3258752956
 20
318.0297237039
 30
0.0
 10
30.5400128104
 20
316.7466413529
 30
0.0
 10
31.0538234325
 20
316.0585959092
 30
0.0
  0
SPLINE
  5
484
100
AcDbEntity
  8
0
100
AcDbSpline
 62
7
  6
CONTINUOUS
 70
0
 71
3
 72
9
 73
5
 74
0
 42
0.0000001
 43
0.0000001
 44
0.0000000001
 40
0.0
 40
0.0
 40
0.0
 40
0.0
 40
0.49113436
 40
1.0
 40
1.0
 40
1.0
 40
1.0
 10
-34.6461742223
 20
266.9922787128
 30
0.0
 10
-35.1551042857
 20
267.6737670664
 30
0.0
 10
-36.0335947969
 20
269.185854289
 30
0.0
 10
-36.5562616973
 20
270.8518173455
 30
0.0
 10
-36.7380392277
 20
271.7141235877
 30
0.0
  0
SPLINE
  5
485
100
AcDbEntity
  8
0
100
AcDbSpline
 62
7
  6
CONTINUOUS
 70
0
 71
3
 72
19
 73
15
 74
0
 42
0.0000001
 43
0.0000001
 44
0.0000000001
 40
0.0
 40
0.0
 40
0.0
 40
0.0
 40
0.0398852511
 40
0.081373044
 40
0.1258015063
 40
0.1741020941
 40
0.2267890481
 40
0.2840171187
 40
0.3456539583
 40
0.4113444497
 40
0.5525513748
 40
0.7021933934
 40
0.853627631
 40
1.0
 40
1.0
 40
1.0
 40
1.0
 10
-26.9607250545
 20
270.0711403652
 30
0.0
 10
-26.5273884015
 20
269.4909448798
 30
0.0
 10
-25.4942481298
 20
268.4115561992
 30
0.0
 10
-23.5601721715
 20
267.1634160457
 30
0.0
 10
-21.2705717382
 20
266.2859997494
 30
0.0
 10
-18.6666673816
 20
265.7859243206
 30
0.0
 10
-15.7879525735
 20
265.6641913435
 30
0.0
 10
-12.6769639026
 20
265.9194749431
 30
0.0
 10
-9.3796850257
 20
266.5462771551
 30
0.0
 10
-4.6891783446
 20
267.8971373411
 30
0.0
 10
1.2842552047
 20
270.4619305644
 30
0.0
 10
8.1772421292
 20
274.6247831677
 30
0.0
 10
14.5502709271
 20
279.6972509395
 30
0.0
 10
18.316356568
 20
283.6063262283
 30
0.0
 10
20.0084162593
 20
285.6555939207
 30
0.0
  0
SPLINE
  5
486
100
AcDbEntity
  8
0
100
AcDbSpline
 62
7
  6
CONTINUOUS
 70
0
 71
3
 72
9
 73
5
 74
0
 42
0.0000001
 43
0.0000001
 44
0.0000000001
 40
0.0
 40
0.0
 40
0.0
 40
0.0
 40
0.5298560156
 40
1.0
 40
1.0
 40
1.0
 40
1.0
 10
20.0084162593
 20
285.6555939207
 30
0.0
 10
21.5107741539
 20
287.475112175
 30
0.0
 10
24.1179834669
 20
291.1071146118
 30
0.0
 10
26.0747381079
 20
295.1468789803
 30
0.0
 10
26.752220024
 20
297.1279259711
 30
0.0
  0
SPLINE
  5
487
100
AcDbEntity
  8
0
100
AcDbSpline
 62
7
  6
CONTINUOUS
 70
0
 71
3
 72
14
 73
10
 74
0
 42
0.0000001
 43
0.0000001
 44
0.0000000001
 40
0.0
 40
0.0
 40
0.0
 40
0.0
 40
0.2655284543
 40
0.4000886806
 40
0.5325865274
 40
0.6607296638
 40
0.7824329556
 40
0.8959409739
 40
1.0
 40
1.0
 40
1.0
 40
1.0
 10
-0.5156051567
 20
267.8531314839
 30
0.0
 10
3.1662909568
 20
269.6855131126
 30
0.0
 10
8.4788845054
 20
272.9497525665
 30
0.0
 10
14.944245183
 20
278.081356588
 30
0.0
 10
19.4151202115
 20
282.2738424636
 30
0.0
 10
23.3747699
 20
286.6876360518
 30
0.0
 10
26.7292846971
 20
291.2183939338
 30
0.0
 10
29.3982194136
 20
295.7568180045
 30
0.0
 10
30.7401530675
 20
298.8617625263
 30
0.0
 10
31.261680771
 20
300.3867787121
 30
0.0
  0
SPLINE
  5
488
100
AcDbEntity
  8
0
100
AcDbSpline
 62
7
  6
CONTINUOUS
 70
0
 71
3
 72
9
 73
5
 74
0
 42
0.0000001
 43
0.0000001
 44
0.0000000001
 40
0.0
 40
0.0
 40
0.0
 40
0.0
 40
0.276352032
 40
1.0
 40
1.0
 40
1.0
 40
1.0
 10
31.261680771
 20
300.3867787121
 30
0.0
 10
31.5581903587
 20
301.2538120786
 30
0.0
 10
32.4890752471
 20
304.4299412306
 30
0.0
 10
32.7954165856
 20
307.8470398593
 30
0.0
 10
32.4120987812
 20
310.2157073293
 30
0.0
  0
SPLINE
  5
489
100
AcDbEntity
  8
0
100
AcDbSpline
 62
7
  6
CONTINUOUS
 70
0
 71
3
 72
9
 73
5
 74
0
 42
0.0000001
 43
0.0000001
 44
0.0000000001
 40
0.0
 40
0.0
 40
0.0
 40
0.0
 40
0.5109912608
 40
1.0
 40
1.0
 40
1.0
 40
1.0
 10
32.4120987812
 20
310.2157073293
 30
0.0
 10
32.256627624
 20
311.1764231326
 30
0.0
 10
31.7542091809
 20
313.0331285836
 30
0.0
 10
30.8098589808
 20
314.7139859114
 30
0.0
 10
30.2525982255
 20
315.460221919
 30
0.0
  0
SPLINE
  5
48A
100
AcDbEntity
  8
0
100
AcDbSpline
 62
7
  6
CONTINUOUS
 70
0
 71
3
 72
11
 73
7
 74
0
 42
0.0000001
 43
0.0000001
 44
0.0000000001
 40
0.0
 40
0.0
 40
0.0
 40
0.0
 40
0.281798782
 40
0.5451594655
 40
0.7854290675
 40
1.0
 40
1.0
 40
1.0
 40
1.0
 10
16.1202347453
 20
335.5104925052
 30
0.0
 10
14.8489826989
 20
334.8669817093
 30
0.0
 10
12.3254576111
 20
333.7430118351
 30
0.0
 10
8.5289290708
 20
332.5446374398
 30
0.0
 10
4.9409765929
 20
331.9151259819
 30
0.0
 10
2.6253117056
 20
331.8895506865
 30
0.0
 10
1.5457065712
 20
331.9968632157
 30
0.0
  0
SPLINE
  5
48B
100
AcDbEntity
  8
0
100
AcDbSpline
 62
7
  6
CONTINUOUS
 70
0
 71
3
 72
11
 73
7
 74
0
 42
0.0000001
 43
0.0000001
 44
0.0000000001
 40
0.0
 40
0.0
 40
0.0
 40
0.0
 40
0.2616966944
 40
0.5195111879
 40
0.7674109391
 40
1.0
 40
1.0
 40
1.0
 40
1.0
 10
-1.2707457704
 20
330.9068459896
 30
0.0
 10
-2.4517663424
 20
329.9554915136
 30
0.0
 10
-4.8875802044
 20
328.1771971129
 30
0.0
 10
-8.7181657633
 20
325.9045880975
 30
0.0
 10
-12.6042380533
 20
324.0973813782
 30
0.0
 10
-15.2511346574
 20
323.2074174843
 30
0.0
 10
-16.5546966344
 20
322.8647120177
 30
0.0
  0
SPLINE
  5
48C
100
AcDbEntity
  8
0
100
AcDbSpline
 62
7
  6
CONTINUOUS
 70
0
 71
3
 72
11
 73
7
 74
0
 42
0.0000001
 43
0.0000001
 44
0.0000000001
 40
0.0
 40
0.0
 40
0.0
 40
0.0
 40
0.2421514548
 40
0.4935055198
 40
0.7481569315
 40
1.0
 40
1.0
 40
1.0
 40
1.0
 10
-19.2855005431
 20
321.035864983
 30
0.0
 10
-20.1860876838
 20
319.9093899948
 30
0.0
 10
-22.1528429465
 20
317.7164378252
 30
0.0
 10
-25.4482694502
 20
314.7074454704
 30
0.0
 10
-29.0597973204
 20
311.9893456668
 30
0.0
 10
-31.6356769228
 20
310.4086247999
 30
0.0
 10
-32.9520311274
 20
309.689568324
 30
0.0
  0
SPLINE
  5
48D
100
AcDbEntity
  8
0
100
AcDbSpline
 62
7
  6
CONTINUOUS
 70
0
 71
3
 72
11
 73
7
 74
0
 42
0.0000001
 43
0.0000001
 44
0.0000000001
 40
0.0
 40
0.0
 40
0.0
 40
0.0
 40
0.2232108428
 40
0.4674265212
 40
0.7282290368
 40
1.0
 40
1.0
 40
1.0
 40
1.0
 10
-35.1814464629
 20
307.4003168631
 30
0.0
 10
-35.6447829377
 20
306.2668860021
 30
0.0
 10
-36.8164687283
 20
303.9737337879
 30
0.0
 10
-39.0869620877
 20
300.6762494147
 30
0.0
 10
-41.8854528313
 20
297.4522643498
 30
0.0
 10
-44.0171558444
 20
295.4464841925
 30
0.0
 10
-45.1499513734
 20
294.4772283288
 30
0.0
  0
SPLINE
  5
48E
100
AcDbEntity
  8
0
100
AcDbSpline
 62
7
  6
CONTINUOUS
 70
0
 71
3
 72
11
 73
7
 74
0
 42
0.0000001
 43
0.0000001
 44
0.0000000001
 40
0.0
 40
0.0
 40
0.0
 40
0.0
 40
0.2082511312
 40
0.444392611
 40
0.7091954251
 40
1.0
 40
1.0
 40
1.0
 40
1.0
 10
-46.5385698606
 20
292.0760902246
 30
0.0
 10
-46.4702964465
 20
291.1308950441
 30
0.0
 10
-46.6185846067
 20
289.0898509212
 30
0.0
 10
-47.5310214582
 20
285.9771096948
 30
0.0
 10
-49.1031855392
 20
282.7206248816
 30
0.0
 10
-50.5018943577
 20
280.6056150504
 30
0.0
 10
-51.2914345893
 20
279.5436328962
 30
0.0
  0
SPLINE
  5
48F
100
AcDbEntity
  8
0
100
AcDbSpline
 62
7
  6
CONTINUOUS
 70
0
 71
3
 72
11
 73
7
 74
0
 42
0.0000001
 43
0.0000001
 44
0.0000000001
 40
0.0
 40
0.0
 40
0.0
 40
0.0
 40
0.2189898336
 40
0.4546344281
 40
0.7137975655
 40
1.0
 40
1.0
 40
1.0
 40
1.0
 10
-50.4451181636
 20
275.7667589154
 30
0.0
 10
-50.1467710676
 20
275.1953246654
 30
0.0
 10
-49.6923455344
 20
273.9174981244
 30
0.0
 10
-49.4877908487
 20
271.8097554357
 30
0.0
 10
-49.7317000206
 20
269.5109558197
 30
0.0
 10
-50.163729469
 20
267.9576606029
 30
0.0
 10
-50.4414956283
 20
267.1622865576
 30
0.0
  0
SPLINE
  5
490
100
AcDbEntity
  8
0
100
AcDbSpline
 62
7
  6
CONTINUOUS
 70
0
 71
3
 72
18
 73
14
 74
0
 42
0.0000001
 43
0.0000001
 44
0.0000000001
 40
0.0
 40
0.0
 40
0.0
 40
0.0
 40
0.0428371713
 40
0.0865259993
 40
0.131948348
 40
0.1798358812
 40
0.2307365192
 40
0.2850126566
 40
0.4042020881
 40
0.5375130085
 40
0.6832414658
 40
0.8385736289
 40
1.0
 40
1.0
 40
1.0
 40
1.0
 10
47.8318116995
 20
315.8762815529
 30
0.0
 10
48.371534284
 20
315.1835744637
 30
0.0
 10
49.3385379079
 20
313.6834322751
 30
0.0
 10
50.3879682592
 20
311.1767622921
 30
0.0
 10
51.0348435792
 20
308.4316882932
 30
0.0
 10
51.2760115815
 20
305.4754508347
 30
0.0
 10
51.1131637325
 20
302.3336498296
 30
0.0
 10
50.3377052592
 20
297.7912007595
 30
0.0
 10
48.3055493013
 20
291.7979509473
 30
0.0
 10
44.4804246017
 20
284.5574139371
 30
0.0
 10
39.3204653782
 20
277.2731114631
 30
0.0
 10
32.9976010567
 20
270.1860393881
 30
0.0
 10
28.1967007989
 20
265.7952869906
 30
0.0
 10
25.6506251053
 20
263.6814710548
 30
0.0
  0
SPLINE
  5
491
100
AcDbEntity
  8
0
100
AcDbSpline
 62
7
  6
CONTINUOUS
 70
0
 71
3
 72
9
 73
5
 74
0
 42
0.0000001
 43
0.0000001
 44
0.0000000001
 40
0.0
 40
0.0
 40
0.0
 40
0.0
 40
0.4893368961
 40
1.0
 40
1.0
 40
1.0
 40
1.0
 10
46.2592277269
 20
317.8944505341
 30
0.0
 10
45.5227309919
 20
318.839703165
 30
0.0
 10
43.7736589601
 20
320.5917328178
 30
0.0
 10
41.6711034853
 20
321.8890087426
 30
0.0
 10
40.5472471665
 20
322.4374294732
 30
0.0
  0
SPLINE
  5
492
100
AcDbEntity
  8
0
100
AcDbSpline
 62
7
  6
CONTINUOUS
 70
0
 71
3
 72
13
 73
9
 74
0
 42
0.0000001
 43
0.0000001
 44
0.0000000001
 40
0.0
 40
0.0
 40
0.0
 40
0.0
 40
0.1043632964
 40
0.2114441892
 40
0.3234096336
 40
0.4419983417
 40
0.7031230569
 40
1.0
 40
1.0
 40
1.0
 40
1.0
 10
44.1997991052
 20
313.1320815113
 30
0.0
 10
43.6906358856
 20
313.7854901844
 30
0.0
 10
42.5342891178
 20
315.0168803673
 30
0.0
 10
40.4627697054
 20
316.553285983
 30
0.0
 10
38.0667858622
 20
317.778809447
 30
0.0
 10
34.355508378
 20
319.0247484852
 30
0.0
 10
28.9727993083
 20
319.6876158075
 30
0.0
 10
24.5331539321
 20
319.348749751
 30
0.0
 10
22.2029008609
 20
318.9986215232
 30
0.0
  0
SPLINE
  5
493
100
AcDbEntity
  8
0
100
AcDbSpline
 62
7
  6
CONTINUOUS
 70
0
 71
3
 72
12
 73
8
 74
0
 42
0.0000001
 43
0.0000001
 44
0.0000000001
 40
0.0
 40
0.0
 40
0.0
 40
0.0
 40
0.1092082146
 40
0.2247588127
 40
0.4716203108
 40
0.7330871006
 40
1.0
 40
1.0
 40
1.0
 40
1.0
 10
22.2029008609
 20
318.9986215232
 30
0.0
 10
20.7005151757
 20
318.772883107
 30
0.0
 10
17.629470665
 20
318.1598487257
 30
0.0
 10
11.3175588836
 20
316.349184271
 30
0.0
 10
3.2684991326
 20
313.0213296992
 30
0.0
 10
-6.1232566132
 20
307.673003297
 30
0.0
 10
-12.0598749853
 20
303.3046919383
 30
0.0
 10
-14.9167648022
 20
300.9328303173
 30
0.0
  0
SPLINE
  5
494
100
AcDbEntity
  8
0
100
AcDbSpline
 62
7
  6
CONTINUOUS
 70
0
 71
3
 72
9
 73
5
 74
0
 42
0.0000001
 43
0.0000001
 44
0.0000000001
 40
0.0
 40
0.0
 40
0.0
 40
0.0
 40
0.2617110675
 40
1.0
 40
1.0
 40
1.0
 40
1.0
 10
38.9384364586
 20
327.020932299
 30
0.0
 10
38.7020535591
 20
327.060741378
 30
0.0
 10
37.8034860033
 20
327.2378671175
 30
0.0
 10
36.923760997
 20
327.5207419787
 30
0.0
 10
36.3071646366
 20
327.7983991242
 30
0.0
  0
SPLINE
  5
495
100
AcDbEntity
  8
0
100
AcDbSpline
 62
7
  6
CONTINUOUS
 70
0
 71
3
 72
11
 73
7
 74
0
 42
0.0000001
 43
0.0000001
 44
0.0000000001
 40
0.0
 40
0.0
 40
0.0
 40
0.0
 40
0.2959961218
 40
0.5595815468
 40
0.7920050973
 40
1.0
 40
1.0
 40
1.0
 40
1.0
 10
30.2398218701
 20
334.1459410801
 30
0.0
 10
29.0720959225
 20
333.8903769902
 30
0.0
 10
26.8282167391
 20
333.5491887079
 30
0.0
 10
23.6113309951
 20
333.6062110687
 30
0.0
 10
20.8189059131
 20
334.2676950548
 30
0.0
 10
19.2410528494
 20
335.1606566267
 30
0.0
 10
18.593556182
 20
335.695734681
 30
0.0
  0
SPLINE
  5
496
100
AcDbEntity
  8
0
100
AcDbSpline
 62
7
  6
CONTINUOUS
 70
0
 71
3
 72
9
 73
5
 74
0
 42
0.0000001
 43
0.0000001
 44
0.0000000001
 40
0.0
 40
0.0
 40
0.0
 40
0.0
 40
0.4911575685
 40
1.0
 40
1.0
 40
1.0
 40
1.0
 10
7.0016909583
 20
319.9249975147
 30
0.0
 10
4.3913056282
 20
318.8551604673
 30
0.0
 10
-0.8147171363
 20
316.4051121433
 30
0.0
 10
-5.776052793
 20
313.4947135379
 30
0.0
 10
-8.2315326749
 20
311.9095552792
 30
0.0
  0
SPLINE
  5
497
100
AcDbEntity
  8
0
100
AcDbSpline
 62
7
  6
CONTINUOUS
 70
0
 71
3
 72
9
 73
5
 74
0
 42
0.0000001
 43
0.0000001
 44
0.0000000001
 40
0.0
 40
0.0
 40
0.0
 40
0.0
 40
0.4793134551
 40
1.0
 40
1.0
 40
1.0
 40
1.0
 10
24.4915969542
 20
324.5739893478
 30
0.0
 10
22.1126753218
 20
324.3263974742
 30
0.0
 10
17.1857720491
 20
323.43398955
 30
0.0
 10
12.4069316954
 20
321.9607775325
 30
0.0
 10
9.9654414464
 20
321.0720217474
 30
0.0
  0
SPLINE
  5
498
100
AcDbEntity
  8
0
100
AcDbSpline
 62
7
  6
CONTINUOUS
 70
0
 71
3
 72
9
 73
5
 74
0
 42
0.0000001
 43
0.0000001
 44
0.0000000001
 40
0.0
 40
0.0
 40
0.0
 40
0.0
 40
0.2442121118
 40
1.0
 40
1.0
 40
1.0
 40
1.0
 10
38.701882959
 20
323.2242696809
 30
0.0
 10
38.4662467992
 20
323.3113624495
 30
0.0
 10
37.4950818721
 20
323.6508741369
 30
0.0
 10
36.5007154497
 20
323.9230456614
 30
0.0
 10
35.7423077527
 20
324.0941245556
 30
0.0
  0
SPLINE
  5
499
100
AcDbEntity
  8
0
100
AcDbSpline
 62
7
  6
CONTINUOUS
 70
0
 71
3
 72
9
 73
5
 74
0
 42
0.0000001
 43
0.0000001
 44
0.0000000001
 40
0.0
 40
0.0
 40
0.0
 40
0.0
 40
0.2352537047
 40
1.0
 40
1.0
 40
1.0
 40
1.0
 10
35.7423077527
 20
324.0941245556
 30
0.0
 10
35.0776167812
 20
324.2440631662
 30
0.0
 10
32.2268575869
 20
324.7687413485
 30
0.0
 10
29.3070895797
 20
324.867716826
 30
0.0
 10
27.0942710727
 20
324.7689195374
 30
0.0
  0
LINE
  5
49A
100
AcDbEntity
  8
0
100
AcDbLine
 62
7
  6
CONTINUOUS
 10
40.5472471665
 20
322.4374294734
 11
31.9934716339
 21
333.3982067636
  0
LINE
  5
49B
100
AcDbEntity
  8
0
100
AcDbLine
 62
7
  6
CONTINUOUS
 10
38.9384364586
 20
327.020932299
 11
45.0750645371
 21
319.151426525
  0
SPLINE
  5
49C
100
AcDbEntity
  8
0
100
AcDbSpline
 62
7
  6
CONTINUOUS
 70
0
 71
3
 72
9
 73
5
 74
0
 42
0.0000001
 43
0.0000001
 44
0.0000000001
 40
0.0
 40
0.0
 40
0.0
 40
0.0
 40
0.4805614081
 40
1.0
 40
1.0
 40
1.0
 40
1.0
 10
36.2530538145
 20
289.447553764
 30
0.0
 10
35.1782988391
 20
287.3782328346
 30
0.0
 10
32.6073609785
 20
283.2426831953
 30
0.0
 10
29.553307704
 20
279.4577712609
 30
0.0
 10
27.8697200173
 20
277.5821283276
 30
0.0
  0
SPLINE
  5
49D
100
AcDbEntity
  8
0
100
AcDbSpline
 62
7
  6
CONTINUOUS
 70
0
 71
3
 72
11
 73
7
 74
0
 42
0.0000001
 43
0.0000001
 44
0.0000000001
 40
0.0
 40
0.0
 40
0.0
 40
0.0
 40
0.2706265427
 40
0.528995204
 40
0.7727191903
 40
1.0
 40
1.0
 40
1.0
 40
1.0
 10
-20.4403312892
 20
290.7106081899
 30
0.0
 10
-21.5834654131
 20
289.4370710535
 30
0.0
 10
-23.7295251697
 20
286.8661799159
 30
0.0
 10
-26.5573733306
 20
282.8744104154
 30
0.0
 10
-28.8863008081
 20
278.8861668502
 30
0.0
 10
-30.1272803963
 20
276.1709028789
 30
0.0
 10
-30.6448503521
 20
274.8301002689
 30
0.0
  0
SPLINE
  5
49E
100
AcDbEntity
  8
0
100
AcDbSpline
 62
7
  6
CONTINUOUS
 70
0
 71
3
 72
9
 73
5
 74
0
 42
0.0000001
 43
0.0000001
 44
0.0000000001
 40
0.0
 40
0.0
 40
0.0
 40
0.0
 40
0.2539182866
 40
1.0
 40
1.0
 40
1.0
 40
1.0
 10
-14.9167648022
 20
300.9328303173
 30
0.0
 10
-15.7646003186
 20
300.2289359948
 30
0.0
 10
-19.0545872516
 20
297.3985394476
 30
0.0
 10
-22.1472848523
 20
294.3368368103
 30
0.0
 10
-24.3112903741
 20
291.9283886021
 30
0.0
  0
SPLINE
  5
49F
100
AcDbEntity
  8
0
100
AcDbSpline
 62
7
  6
CONTINUOUS
 70
0
 71
3
 72
14
 73
10
 74
0
 42
0.0000001
 43
0.0000001
 44
0.0000000001
 40
0.0
 40
0.0
 40
0.0
 40
0.0
 40
0.2914168517
 40
0.4249897073
 40
0.5509272614
 40
0.6700541182
 40
0.7835343013
 40
0.8929045524
 40
1.0
 40
1.0
 40
1.0
 40
1.0
 10
-36.1513418914
 20
273.5026175653
 30
0.0
 10
-36.8764424557
 20
271.6197386522
 30
0.0
 10
-37.7378380592
 20
268.7847116458
 30
0.0
 10
-38.2896525473
 20
265.0045807526
 30
0.0
 10
-38.3805495044
 20
262.3784363745
 30
0.0
 10
-38.158806849
 20
259.8988864004
 30
0.0
 10
-37.6232823858
 20
257.583882843
 30
0.0
 10
-36.776620594
 20
255.4526452579
 30
0.0
 10
-36.003717377
 20
254.1594530496
 30
0.0
 10
-35.572299951
 20
253.5563850633
 30
0.0
  0
SPLINE
  5
4A0
100
AcDbEntity
  8
0
100
AcDbSpline
 62
7
  6
CONTINUOUS
 70
0
 71
3
 72
9
 73
5
 74
0
 42
0.0000001
 43
0.0000001
 44
0.0000000001
 40
0.0
 40
0.0
 40
0.0
 40
0.0
 40
0.5039932681
 40
1.0
 40
1.0
 40
1.0
 40
1.0
 10
25.6506251053
 20
263.6814710548
 30
0.0
 10
22.7990859714
 20
261.3140517052
 30
0.0
 10
16.8853143078
 20
256.917278306
 30
0.0
 10
10.5359804225
 20
253.1741229846
 30
0.0
 10
7.2918697407
 20
251.5068464246
 30
0.0
  0
SPLINE
  5
4A1
100
AcDbEntity
  8
0
100
AcDbSpline
 62
7
  6
CONTINUOUS
 70
0
 71
3
 72
14
 73
10
 74
0
 42
0.0000001
 43
0.0000001
 44
0.0000000001
 40
0.0
 40
0.0
 40
0.0
 40
0.0
 40
0.2991849102
 40
0.434696248
 40
0.5610396034
 40
0.6790565579
 40
0.7901501755
 40
0.8963049252
 40
1.0
 40
1.0
 40
1.0
 40
1.0
 10
-13.810717289
 20
244.1328465722
 30
0.0
 10
-16.530611647
 20
243.6677679815
 30
0.0
 10
-20.5531775056
 20
243.2870400995
 30
0.0
 10
-25.7254372351
 20
243.6306761941
 30
0.0
 10
-29.1778831373
 20
244.2830486751
 30
0.0
 10
-32.2955194848
 20
245.3346393469
 30
0.0
 10
-35.0457903029
 20
246.780021592
 30
0.0
 10
-37.3948492799
 20
248.60735597
 30
0.0
 10
-38.6782804518
 20
250.075093563
 30
0.0
 10
-39.2347178413
 20
250.8529311747
 30
0.0
  0
LINE
  5
4A2
100
AcDbEntity
  8
0
100
AcDbLine
 62
7
  6
CONTINUOUS
 10
-49.6744948171
 20
265.5954115202
 11
-42.623702651
 21
255.7340899446
  0
LINE
  5
4A3
100
AcDbEntity
  8
0
100
AcDbLine
 62
7
  6
CONTINUOUS
 10
-51.6278516514
 20
277.3961596587
 11
-43.5601019672
 21
266.1098859359
  0
SPLINE
  5
4A4
100
AcDbEntity
  8
0
100
AcDbSpline
 62
7
  6
CONTINUOUS
 70
0
 71
3
 72
9
 73
5
 74
0
 42
0.0000001
 43
0.0000001
 44
0.0000000001
 40
0.0
 40
0.0
 40
0.0
 40
0.0
 40
0.5148151283
 40
1.0
 40
1.0
 40
1.0
 40
1.0
 10
-27.0723388657
 20
296.2674451608
 30
0.0
 10
-28.9862805861
 20
294.2303538854
 30
0.0
 10
-32.5281238209
 20
290.1033545071
 30
0.0
 10
-35.6363290567
 20
285.636387921
 30
0.0
 10
-37.0077584402
 20
283.3872481864
 30
0.0
  0
SPLINE
  5
4A5
100
AcDbEntity
  8
0
100
AcDbSpline
 62
7
  6
CONTINUOUS
 70
0
 71
3
 72
9
 73
5
 74
0
 42
0.0000001
 43
0.0000001
 44
0.0000000001
 40
0.0
 40
0.0
 40
0.0
 40
0.0
 40
0.5208697999
 40
1.0
 40
1.0
 40
1.0
 40
1.0
 10
-43.682328196
 20
264.7750313839
 30
0.0
 10
-43.7854560549
 20
263.2121894171
 30
0.0
 10
-43.7114550591
 20
260.1819602526
 30
0.0
 10
-42.9334988672
 20
257.2391798629
 30
0.0
 10
-42.3776834437
 20
255.9099789238
 30
0.0
  0
SPLINE
  5
4A6
100
AcDbEntity
  8
0
100
AcDbSpline
 62
7
  6
CONTINUOUS
 70
0
 71
3
 72
9
 73
5
 74
0
 42
0.0000001
 43
0.0000001
 44
0.0000000001
 40
0.0
 40
0.0
 40
0.0
 40
0.0
 40
0.5258268451
 40
1.0
 40
1.0
 40
1.0
 40
1.0
 10
-38.4690005349
 20
280.8605325295
 30
0.0
 10
-39.5954927034
 20
278.8000799333
 30
0.0
 10
-41.5092919487
 20
274.7494586278
 30
0.0
 10
-42.7999271631
 20
270.4479602274
 30
0.0
 10
-43.2060905684
 20
268.3696702614
 30
0.0
  0
LINE
  5
4A7
100
AcDbEntity
  8
0
100
AcDbLine
 62
7
  6
CONTINUOUS
 10
1.5457065712
 20
331.9968632157
 11
9.9654414467
 21
321.0720217475
  0
LINE
  5
4A8
100
AcDbEntity
  8
0
100
AcDbLine
 62
7
  6
CONTINUOUS
 10
24.4915969537
 20
324.5739893477
 11
16.1202347453
 21
335.5104925052
  0
SPLINE
  5
4A9
100
AcDbEntity
  8
0
100
AcDbSpline
 62
7
  6
CONTINUOUS
 70
0
 71
3
 72
14
 73
10
 74
0
 42
0.0000001
 43
0.0000001
 44
0.0000000001
 40
0.0
 40
0.0
 40
0.0
 40
0.0
 40
0.2922007578
 40
0.425756517
 40
0.5514693105
 40
0.6702570276
 40
0.7834214918
 40
0.892665101
 40
1.0
 40
1.0
 40
1.0
 40
1.0
 10
45.1115267224
 20
292.7403767639
 30
0.0
 10
45.8579672102
 20
294.678669359
 30
0.0
 10
46.7383877433
 20
297.5978416207
 30
0.0
 10
47.2745877524
 20
301.4875117985
 30
0.0
 10
47.3336142861
 20
304.1810902686
 30
0.0
 10
47.0597240056
 20
306.7165962743
 30
0.0
 10
46.4519939977
 20
309.0742943009
 30
0.0
 10
45.5134969188
 20
311.2328926365
 30
0.0
 10
44.6687659302
 20
312.5302568332
 30
0.0
 10
44.1997991052
 20
313.1320815113
 30
0.0
  0
SPLINE
  5
4AA
100
AcDbEntity
  8
0
100
AcDbSpline
 62
7
  6
CONTINUOUS
 70
0
 71
3
 72
11
 73
7
 74
0
 42
0.0000001
 43
0.0000001
 44
0.0000000001
 40
0.0
 40
0.0
 40
0.0
 40
0.0
 40
0.2706265427
 40
0.528995204
 40
0.7727191903
 40
1.0
 40
1.0
 40
1.0
 40
1.0
 10
29.4005161202
 20
275.5323861393
 30
0.0
 10
30.5436502441
 20
276.8059232757
 30
0.0
 10
32.6897100007
 20
279.3768144132
 30
0.0
 10
35.5175581615
 20
283.3685839138
 30
0.0
 10
37.8464856391
 20
287.356827479
 30
0.0
 10
39.0874652273
 20
290.0720914503
 30
0.0
 10
39.605035183
 20
291.4128940603
 30
0.0
  0
LINE
  5
4AB
100
AcDbEntity
  8
0
100
AcDbLine
 62
7
  6
CONTINUOUS
 10
18.593556182
 20
335.695734681
 11
27.0942710729
 21
324.7689195374
  0
SPLINE
  5
4AC
100
AcDbEntity
  8
0
100
AcDbSpline
 62
7
  6
CONTINUOUS
 70
0
 71
3
 72
9
 73
5
 74
0
 42
0.0000001
 43
0.0000001
 44
0.0000000001
 40
0.0
 40
0.0
 40
0.0
 40
0.0
 40
0.2539182866
 40
1.0
 40
1.0
 40
1.0
 40
1.0
 10
23.8769496331
 20
265.3101640119
 30
0.0
 10
24.7247851495
 20
266.0140583344
 30
0.0
 10
28.0147720825
 20
268.8444548816
 30
0.0
 10
31.1074696833
 20
271.9061575189
 30
0.0
 10
33.271475205
 20
274.3146057271
 30
0.0
  0
LINE
  5
4AD
100
AcDbEntity
  8
0
100
AcDbLine
 62
7
  6
CONTINUOUS
 10
38.7018829586
 20
323.2242696811
 11
30.2398218701
 21
334.1459410801
  0
LINE
  5
4AE
100
AcDbEntity
  8
0
100
AcDbLine
 62
7
  6
CONTINUOUS
 10
-8.2315326752
 20
311.9095552791
 11
-16.5546966344
 21
322.8647120177
  0
LINE
  5
4AF
100
AcDbEntity
  8
0
100
AcDbLine
 62
7
  6
CONTINUOUS
 10
-1.2707457704
 20
330.9068459896
 11
7.0016909591
 21
319.9249975154
  0
SPLINE
  5
4B0
100
AcDbEntity
  8
0
100
AcDbSpline
 62
7
  6
CONTINUOUS
 70
0
 71
3
 72
21
 73
17
 74
0
 42
0.0000001
 43
0.0000001
 44
0.0000000001
 40
0.0
 40
0.0
 40
0.0
 40
0.0
 40
0.1541820152
 40
0.3062124752
 40
0.380146084
 40
0.4520222574
 40
0.5214022626
 40
0.5878970257
 40
0.6511849265
 40
0.711026316
 40
0.7672814473
 40
0.8199342626
 40
0.8691193813
 40
0.9151486676
 40
0.9585349482
 40
1.0
 40
1.0
 40
1.0
 40
1.0
 10
-16.6904402743
 20
302.5615232744
 30
0.0
 10
-13.9598088762
 20
304.8285619875
 30
0.0
 10
-8.3014412271
 20
309.0549748961
 30
0.0
 10
-0.7794741189
 20
313.5591213017
 30
0.0
 10
5.3738816309
 20
316.5893602481
 30
0.0
 10
9.9381670798
 20
318.5212806054
 30
0.0
 10
14.4502396349
 20
320.1151058602
 30
0.0
 10
18.8674408011
 20
321.3555283485
 30
0.0
 10
23.147932816
 20
322.2307745058
 30
0.0
 10
27.2515067623
 20
322.7323940501
 30
0.0
 10
31.139888717
 20
322.8550970334
 30
0.0
 10
34.7770783265
 20
322.5966437527
 30
0.0
 10
38.1293339343
 20
321.957819357
 30
0.0
 10
41.1653199902
 20
320.9414225123
 30
0.0
 10
43.853602416
 20
319.5539886127
 30
0.0
 10
45.4206028174
 20
318.3675800511
 30
0.0
 10
46.1245201971
 20
317.7229791067
 30
0.0
  0
LINE
  5
4B1
100
AcDbEntity
  8
0
100
AcDbLine
 62
7
  6
CONTINUOUS
 10
-19.2855005431
 20
321.035864983
 11
-11.1051553868
 21
309.9850610459
  0
LINE
  5
4B2
100
AcDbEntity
  8
0
100
AcDbLine
 62
7
  6
CONTINUOUS
 10
-24.7263269378
 20
298.6764225945
 11
-32.9520311274
 21
309.689568324
  0
LINE
  5
4B3
100
AcDbEntity
  8
0
100
AcDbLine
 62
7
  6
CONTINUOUS
 10
-42.3776834438
 20
255.9099789235
 11
-49.4393653315
 21
265.7639047555
  0
SPLINE
  5
4B4
100
AcDbEntity
  8
0
100
AcDbSpline
 62
7
  6
CONTINUOUS
 70
0
 71
3
 72
14
 73
10
 74
0
 42
0.0000001
 43
0.0000001
 44
0.0000000001
 40
0.0
 40
0.0
 40
0.0
 40
0.0
 40
0.1041839556
 40
0.2107495666
 40
0.3221115126
 40
0.4402187927
 40
0.5664670957
 40
0.7017129672
 40
1.0
 40
1.0
 40
1.0
 40
1.0
 10
-35.572299951
 20
253.5563850633
 30
0.0
 10
-35.0715023597
 20
252.8563322218
 30
0.0
 10
-33.919495465
 20
251.5342582444
 30
0.0
 10
-31.8162290706
 20
249.8811282814
 30
0.0
 10
-29.3571992155
 20
248.5648037944
 30
0.0
 10
-26.5715607702
 20
247.5960223162
 30
0.0
 10
-23.4875140815
 20
246.9798180741
 30
0.0
 10
-18.8684672496
 20
246.6214963513
 30
0.0
 10
-15.2712164178
 20
246.9199696882
 30
0.0
 10
-12.8374403751
 20
247.3070527087
 30
0.0
  0
SPLINE
  5
4B5
100
AcDbEntity
  8
0
100
AcDbSpline
 62
7
  6
CONTINUOUS
 70
0
 71
3
 72
9
 73
5
 74
0
 42
0.0000001
 43
0.0000001
 44
0.0000000001
 40
0.0
 40
0.0
 40
0.0
 40
0.0
 40
0.2453752317
 40
1.0
 40
1.0
 40
1.0
 40
1.0
 10
3.779923111
 20
252.5604449353
 30
0.0
 10
4.635707586
 20
252.9539491658
 30
0.0
 10
8.095156044
 20
254.6185128695
 30
0.0
 10
11.4410727543
 20
256.5171694986
 30
0.0
 10
13.891467552
 20
258.0621124595
 30
0.0
  0
SPLINE
  5
4B6
100
AcDbEntity
  8
0
100
AcDbSpline
 62
7
  6
CONTINUOUS
 70
0
 71
3
 72
15
 73
11
 74
0
 42
0.0000001
 43
0.0000001
 44
0.0000000001
 40
0.0
 40
0.0
 40
0.0
 40
0.0
 40
0.0988067749
 40
0.2027912606
 40
0.313807902
 40
0.433107416
 40
0.5613739114
 40
0.698802685
 40
0.8451881214
 40
1.0
 40
1.0
 40
1.0
 40
1.0
 10
-40.6189466551
 20
253.2194323645
 30
0.0
 10
-41.0544563941
 20
254.1472744973
 30
0.0
 10
-41.7592107172
 20
256.145180647
 30
0.0
 10
-42.2742103708
 20
259.3744408941
 30
0.0
 10
-42.2693536709
 20
262.8553088985
 30
0.0
 10
-41.7493304841
 20
266.5487593631
 30
0.0
 10
-40.7232473998
 20
270.4168949041
 30
0.0
 10
-39.20377033
 20
274.4195765358
 30
0.0
 10
-37.2082023608
 20
278.5145852887
 30
0.0
 10
-35.6163099878
 20
281.2072252154
 30
0.0
 10
-34.7505880981
 20
282.5598347365
 30
0.0
  0
SPLINE
  5
4B7
100
AcDbEntity
  8
0
100
AcDbSpline
 62
7
  6
CONTINUOUS
 70
0
 71
3
 72
9
 73
5
 74
0
 42
0.0000001
 43
0.0000001
 44
0.0000000001
 40
0.0
 40
0.0
 40
0.0
 40
0.0
 40
0.4872257471
 40
1.0
 40
1.0
 40
1.0
 40
1.0
 10
-34.7505880981
 20
282.5598347365
 30
0.0
 10
-33.4825599514
 20
284.5410101748
 30
0.0
 10
-30.6686531762
 20
288.4742265663
 30
0.0
 10
-27.517509132
 20
292.140131601
 30
0.0
 10
-25.8298307053
 20
293.9512544019
 30
0.0
  0
SPLINE
  5
4B8
100
AcDbEntity
  8
0
100
AcDbSpline
 62
7
  6
CONTINUOUS
 70
0
 71
3
 72
9
 73
5
 74
0
 42
0.0000001
 43
0.0000001
 44
0.0000000001
 40
0.0
 40
0.0
 40
0.0
 40
0.0
 40
0.2462680197
 40
1.0
 40
1.0
 40
1.0
 40
1.0
 10
-25.8298307053
 20
293.9512544019
 30
0.0
 10
-25.1268605949
 20
294.705642901
 30
0.0
 10
-22.221066462
 20
297.7208249379
 30
0.0
 10
-19.1186180812
 20
300.5455891229
 30
0.0
 10
-16.6904402743
 20
302.5615232744
 30
0.0
  0
LINE
  5
4B9
100
AcDbEntity
  8
0
100
AcDbLine
 62
7
  6
CONTINUOUS
 10
-43.206090569
 20
268.3696702606
 11
-51.2914345893
 21
279.5436328962
  0
LINE
  5
4BA
100
AcDbEntity
  8
0
100
AcDbLine
 62
7
  6
CONTINUOUS
 10
-46.5385698606
 20
292.0760902246
 11
-43.0838937763
 21
287.2746243677
  0
LINE
  5
4BB
100
AcDbEntity
  8
0
100
AcDbLine
 62
7
  6
CONTINUOUS
 10
-43.0838937763
 20
287.2746243677
 11
-38.469000535
 21
280.8605325305
  0
LINE
  5
4BC
100
AcDbEntity
  8
0
100
AcDbLine
 62
7
  6
CONTINUOUS
 10
-35.1814464629
 20
307.4003168631
 11
-27.0723388654
 21
296.2674451615
  0
LINE
  5
4BD
100
AcDbEntity
  8
0
100
AcDbLine
 62
7
  6
CONTINUOUS
 10
-37.0077584405
 20
283.3872481861
 11
-45.1499513734
 21
294.4772283288
  0
SPLINE
  5
4BE
100
AcDbEntity
  8
0
100
AcDbSpline
 62
7
  6
CONTINUOUS
 70
0
 71
3
 72
9
 73
5
 74
0
 42
0.0000001
 43
0.0000001
 44
0.0000000001
 40
0.0
 40
0.0
 40
0.0
 40
0.0
 40
0.4898121497
 40
1.0
 40
1.0
 40
1.0
 40
1.0
 10
-49.409996984
 20
236.9077639567
 30
0.0
 10
-49.9383842169
 20
236.766126862
 30
0.0
 10
-50.9809668668
 20
236.3265852865
 30
0.0
 10
-51.8790027959
 20
235.6428539469
 30
0.0
 10
-52.2910000772
 20
235.2492455387
 30
0.0
  0
SPLINE
  5
4BF
100
AcDbEntity
  8
0
100
AcDbSpline
 62
7
  6
CONTINUOUS
 70
0
 71
3
 72
11
 73
7
 74
0
 42
0.0000001
 43
0.0000001
 44
0.0000000001
 40
0.0
 40
0.0
 40
0.0
 40
0.0
 40
0.2612202693
 40
0.5135060506
 40
0.7587206361
 40
1.0
 40
1.0
 40
1.0
 40
1.0
 10
-40.4835700953
 20
135.770060777
 30
0.0
 10
-40.2336830475
 20
135.361242269
 30
0.0
 10
-39.6638237564
 20
134.601940169
 30
0.0
 10
-38.6071962629
 20
133.6799402536
 30
0.0
 10
-37.4039407078
 20
133.0320147353
 30
0.0
 10
-36.5316879827
 20
132.8012737294
 30
0.0
 10
-36.0934002633
 20
132.7398955441
 30
0.0
  0
SPLINE
  5
4C0
100
AcDbEntity
  8
0
100
AcDbSpline
 62
7
  6
CONTINUOUS
 70
0
 71
3
 72
9
 73
5
 74
0
 42
0.0000001
 43
0.0000001
 44
0.0000000001
 40
0.0
 40
0.0
 40
0.0
 40
0.0
 40
0.4970398506
 40
1.0
 40
1.0
 40
1.0
 40
1.0
 10
22.2868447263
 20
255.6618555938
 30
0.0
 10
21.9108496712
 20
255.7145102613
 30
0.0
 10
21.1415316269
 20
255.7429131473
 30
0.0
 10
20.3825785935
 20
255.6160464906
 30
0.0
 10
20.0114930078
 20
255.5165749648
 30
0.0
  0
SPLINE
  5
4C1
100
AcDbEntity
  8
0
100
AcDbSpline
 62
7
  6
CONTINUOUS
 70
0
 71
3
 72
9
 73
5
 74
0
 42
0.0000001
 43
0.0000001
 44
0.0000000001
 40
0.0
 40
0.0
 40
0.0
 40
0.0
 40
0.2520369168
 40
1.0
 40
1.0
 40
1.0
 40
1.0
 10
22.1868180083
 20
255.2119128711
 30
0.0
 10
22.3046843116
 20
255.2435075799
 30
0.0
 10
22.7760505115
 20
255.3545126709
 30
0.0
 10
23.2613427953
 20
255.406998951
 30
0.0
 10
23.623458637
 20
255.4109543802
 30
0.0
  0
SPLINE
  5
4C2
100
AcDbEntity
  8
0
100
AcDbSpline
 62
7
  6
CONTINUOUS
 70
0
 71
3
 72
9
 73
5
 74
0
 42
0.0000001
 43
0.0000001
 44
0.0000000001
 40
0.0
 40
0.0
 40
0.0
 40
0.0
 40
0.2477030856
 40
1.0
 40
1.0
 40
1.0
 40
1.0
 10
-39.0260507583
 20
136.9868652667
 30
0.0
 10
-39.0710328333
 20
137.1152845555
 30
0.0
 10
-39.2399630057
 20
137.6380933451
 30
0.0
 10
-39.3587886341
 20
138.1769462057
 30
0.0
 10
-39.420047174
 20
138.5856361051
 30
0.0
  0
SPLINE
  5
4C3
100
AcDbEntity
  8
0
100
AcDbSpline
 62
7
  6
CONTINUOUS
 70
0
 71
3
 72
9
 73
5
 74
0
 42
0.0000001
 43
0.0000001
 44
0.0000000001
 40
0.0
 40
0.0
 40
0.0
 40
0.0
 40
0.2534893013
 40
1.0
 40
1.0
 40
1.0
 40
1.0
 10
-48.6014397777
 20
236.0551579242
 30
0.0
 10
-48.4919176077
 20
236.1145339173
 30
0.0
 10
-48.0533391875
 20
236.3364741745
 30
0.0
 10
-47.5890469951
 20
236.5081096982
 30
0.0
 10
-47.2346719835
 20
236.603101863
 30
0.0
  0
SPLINE
  5
4C4
100
AcDbEntity
  8
0
100
AcDbSpline
 62
7
  6
CONTINUOUS
 70
0
 71
3
 72
13
 73
9
 74
0
 42
0.0000001
 43
0.0000001
 44
0.0000000001
 40
0.0
 40
0.0
 40
0.0
 40
0.0
 40
0.2675486262
 40
0.5280506695
 40
0.6524556283
 40
0.7718860426
 40
0.8871401313
 40
1.0
 40
1.0
 40
1.0
 40
1.0
 10
32.9683259802
 20
155.0673974186
 30
0.0
 10
33.06039955
 20
153.863644086
 30
0.0
 10
32.7800329509
 20
151.4317721391
 30
0.0
 10
31.3415184099
 20
148.7666738451
 30
0.0
 10
29.6693995113
 20
147.197514917
 30
0.0
 10
28.2498276146
 20
146.3827626577
 30
0.0
 10
26.7212414577
 20
145.9623365668
 30
0.0
 10
25.6767637406
 20
145.9639097434
 30
0.0
 10
25.1724205149
 20
146.0345172585
 30
0.0
  0
SPLINE
  5
4C5
100
AcDbEntity
  8
0
100
AcDbSpline
 62
7
  6
CONTINUOUS
 70
0
 71
3
 72
23
 73
19
 74
0
 42
0.0000001
 43
0.0000001
 44
0.0000000001
 40
0.0
 40
0.0
 40
0.0
 40
0.0
 40
0.0582720559
 40
0.118264914
 40
0.1801746247
 40
0.243950416
 40
0.3093321539
 40
0.3758875745
 40
0.443068235
 40
0.5102654864
 40
0.5768692145
 40
0.6423263696
 40
0.7061980208
 40
0.7682123826
 40
0.8283088772
 40
0.8866643607
 40
0.9436928868
 40
1.0
 40
1.0
 40
1.0
 40
1.0
 10
15.6007987083
 20
225.2174703364
 30
0.0
 10
13.8501058019
 20
224.7481875044
 30
0.0
 10
10.3854376212
 20
223.4317392976
 30
0.0
 10
5.591640928
 20
220.4715967529
 30
0.0
 10
1.2705441177
 20
216.5960317956
 30
0.0
 10
-2.447693929
 20
211.926583961
 30
0.0
 10
-5.4551421799
 20
206.6060266686
 30
0.0
 10
-7.6634376493
 20
200.7951759329
 30
0.0
 10
-9.0077061697
 20
194.668778006
 30
0.0
 10
-9.4480932503
 20
188.4106252467
 30
0.0
 10
-8.9710276453
 20
182.2083172424
 30
0.0
 10
-7.5895008429
 20
176.2478947998
 30
0.0
 10
-5.3426146247
 20
170.7086862141
 30
0.0
 10
-2.2943559213
 20
165.7586037827
 30
0.0
 10
1.4673721552
 20
161.5501555868
 30
0.0
 10
5.8331568587
 20
158.2162133524
 30
0.0
 10
10.668274157
 20
155.8666198672
 30
0.0
 10
14.1183387546
 20
155.0063595602
 30
0.0
 10
15.8527886741
 20
154.7634208546
 30
0.0
  0
SPLINE
  5
4C6
100
AcDbEntity
  8
0
100
AcDbSpline
 62
7
  6
CONTINUOUS
 70
0
 71
3
 72
11
 73
7
 74
0
 42
0.0000001
 43
0.0000001
 44
0.0000000001
 40
0.0
 40
0.0
 40
0.0
 40
0.0
 40
0.2685866006
 40
0.5241494212
 40
0.7663585922
 40
1.0
 40
1.0
 40
1.0
 40
1.0
 10
22.1497804377
 20
152.8494695141
 30
0.0
 10
22.222859011
 20
152.3619215769
 30
0.0
 10
22.4906373631
 20
151.4231230001
 30
0.0
 10
23.2553219219
 20
150.2173845941
 30
0.0
 10
24.3143019388
 20
149.3518848434
 30
0.0
 10
25.1638027036
 20
149.064926606
 30
0.0
 10
25.5885157332
 20
149.0054884987
 30
0.0
  0
SPLINE
  5
4C7
100
AcDbEntity
  8
0
100
AcDbSpline
 62
7
  6
CONTINUOUS
 70
0
 71
3
 72
12
 73
8
 74
0
 42
0.0000001
 43
0.0000001
 44
0.0000000001
 40
0.0
 40
0.0
 40
0.0
 40
0.0
 40
0.0880602522
 40
0.1825001668
 40
0.3451972006
 40
0.5383410724
 40
1.0
 40
1.0
 40
1.0
 40
1.0
 10
-12.2644549186
 20
233.8566381224
 30
0.0
 10
-12.2075330615
 20
233.8718696524
 30
0.0
 10
-12.0942519672
 20
233.9239128254
 30
0.0
 10
-11.9217901685
 20
234.0818452429
 30
0.0
 10
-11.771929954
 20
234.3497051608
 30
0.0
 10
-11.6340536507
 20
234.8824341519
 30
0.0
 10
-11.648815039
 20
235.3305470477
 30
0.0
 10
-11.6946065886
 20
235.6360480251
 30
0.0
  0
SPLINE
  5
4C8
100
AcDbEntity
  8
0
100
AcDbSpline
 62
7
  6
CONTINUOUS
 70
0
 71
3
 72
11
 73
7
 74
0
 42
0.0000001
 43
0.0000001
 44
0.0000000001
 40
0.0
 40
0.0
 40
0.0
 40
0.0
 40
0.2400840752
 40
0.4871290034
 40
0.7407630654
 40
1.0
 40
1.0
 40
1.0
 40
1.0
 10
47.0865881185
 20
226.9329208169
 30
0.0
 10
48.6738658376
 20
225.2526514982
 30
0.0
 10
51.6064850284
 20
221.5605967292
 30
0.0
 10
55.1108145257
 20
215.3178830025
 30
0.0
 10
57.7035310766
 20
208.449064263
 30
0.0
 10
58.7719926345
 20
203.6087174705
 30
0.0
 10
59.1419607155
 20
201.1404539733
 30
0.0
  0
SPLINE
  5
4C9
100
AcDbEntity
  8
0
100
AcDbSpline
 62
7
  6
CONTINUOUS
 70
0
 71
3
 72
17
 73
13
 74
0
 42
0.0000001
 43
0.0000001
 44
0.0000000001
 40
0.0
 40
0.0
 40
0.0
 40
0.0
 40
0.1317334102
 40
0.2645064361
 40
0.3963968943
 40
0.5256091082
 40
0.6507709219
 40
0.771194592
 40
0.8297576096
 40
0.8872871621
 40
0.9439657139
 40
1.0
 40
1.0
 40
1.0
 40
1.0
 10
59.1419607155
 20
201.1404539733
 30
0.0
 10
59.6606256482
 20
197.6801508113
 30
0.0
 10
60.0346917375
 20
190.6157572186
 30
0.0
 10
58.6461852536
 20
180.1223240931
 30
0.0
 10
55.3817828309
 20
170.1186188351
 30
0.0
 10
50.3888414529
 20
161.0818225387
 30
0.0
 10
43.8981339106
 20
153.4431411043
 30
0.0
 10
37.4121660347
 20
148.5020109087
 30
0.0
 10
31.8121485036
 20
145.6267956683
 30
0.0
 10
27.4951646356
 20
144.0349638232
 30
0.0
 10
23.0789858302
 20
143.0111639818
 30
0.0
 10
20.0899193567
 20
142.7142808201
 30
0.0
 10
18.6024163984
 20
142.6649311112
 30
0.0
  0
SPLINE
  5
4CA
100
AcDbEntity
  8
0
100
AcDbSpline
 62
7
  6
CONTINUOUS
 70
0
 71
3
 72
9
 73
5
 74
0
 42
0.0000001
 43
0.0000001
 44
0.0000000001
 40
0.0
 40
0.0
 40
0.0
 40
0.0
 40
0.2495831802
 40
1.0
 40
1.0
 40
1.0
 40
1.0
 10
36.7861956835
 20
224.9472246693
 30
0.0
 10
37.4755215952
 20
225.136518593
 30
0.0
 10
40.2376132221
 20
225.8942919839
 30
0.0
 10
43.0004380152
 20
226.649392036
 30
0.0
 10
45.0740458711
 20
227.2147915781
 30
0.0
  0
SPLINE
  5
4CB
100
AcDbEntity
  8
0
100
AcDbSpline
 62
7
  6
CONTINUOUS
 70
0
 71
3
 72
10
 73
6
 74
0
 42
0.0000001
 43
0.0000001
 44
0.0000000001
 40
0.0
 40
0.0
 40
0.0
 40
0.0
 40
0.5144904113
 40
0.7619036842
 40
1.0
 40
1.0
 40
1.0
 40
1.0
 10
46.2929014061
 20
156.5451444921
 30
0.0
 10
46.0127524581
 20
155.4481859227
 30
0.0
 10
45.2955022168
 20
153.8734561956
 30
0.0
 10
43.8250801777
 20
152.2214277675
 30
0.0
 10
42.9529764162
 20
151.5852491552
 30
0.0
 10
42.4961602023
 20
151.3286611281
 30
0.0
  0
SPLINE
  5
4CC
100
AcDbEntity
  8
0
100
AcDbSpline
 62
7
  6
CONTINUOUS
 70
0
 71
3
 72
9
 73
5
 74
0
 42
0.0000001
 43
0.0000001
 44
0.0000000001
 40
0.0
 40
0.0
 40
0.0
 40
0.0
 40
0.2538173861
 40
1.0
 40
1.0
 40
1.0
 40
1.0
 10
42.4961602023
 20
151.3286611281
 30
0.0
 10
42.380038593
 20
151.2634370539
 30
0.0
 10
41.9149533392
 20
151.0202900331
 30
0.0
 10
41.4199467986
 20
150.833708614
 30
0.0
 10
41.0417539484
 20
150.732331947
 30
0.0
  0
SPLINE
  5
4CD
100
AcDbEntity
  8
0
100
AcDbSpline
 62
7
  6
CONTINUOUS
 70
0
 71
3
 72
9
 73
5
 74
0
 42
0.0000001
 43
0.0000001
 44
0.0000000001
 40
0.0
 40
0.0
 40
0.0
 40
0.0
 40
0.5028715139
 40
1.0
 40
1.0
 40
1.0
 40
1.0
 10
-28.3797360434
 20
132.1235209389
 30
0.0
 10
-28.7507541744
 20
132.0240674947
 30
0.0
 10
-29.5097106751
 20
131.897310681
 30
0.0
 10
-30.2790286877
 20
131.9255688961
 30
0.0
 10
-30.6550868949
 20
131.9782455894
 30
0.0
  0
SPLINE
  5
4CE
100
AcDbEntity
  8
0
100
AcDbSpline
 62
7
  6
CONTINUOUS
 70
0
 71
3
 72
12
 73
8
 74
0
 42
0.0000001
 43
0.0000001
 44
0.0000000001
 40
0.0
 40
0.0
 40
0.0
 40
0.0
 40
0.1141465032
 40
0.2321738583
 40
0.4794960043
 40
0.7389461754
 40
1.0
 40
1.0
 40
1.0
 40
1.0
 10
-47.2346719835
 20
236.6031018631
 30
0.0
 10
-47.6727576481
 20
236.4856705988
 30
0.0
 10
-48.5391407299
 20
236.1437759282
 30
0.0
 10
-50.1350048591
 20
235.0824407606
 30
0.0
 10
-51.746964185
 20
233.1122078468
 30
0.0
 10
-52.7902772169
 20
230.1915354908
 30
0.0
 10
-52.8342489387
 20
228.0792607192
 30
0.0
 10
-52.6804893045
 20
227.0534444072
 30
0.0
  0
SPLINE
  5
4CF
100
AcDbEntity
  8
0
100
AcDbSpline
 62
7
  6
CONTINUOUS
 70
0
 71
3
 72
11
 73
7
 74
0
 42
0.0000001
 43
0.0000001
 44
0.0000000001
 40
0.0
 40
0.0
 40
0.0
 40
0.0
 40
0.2639930922
 40
0.5191554636
 40
0.7642347712
 40
1.0
 40
1.0
 40
1.0
 40
1.0
 10
-39.420047174
 20
138.5856361052
 30
0.0
 10
-39.3327223849
 20
138.0030437133
 30
0.0
 10
-39.0488537656
 20
136.8703616611
 30
0.0
 10
-38.2956154195
 20
135.3258991219
 30
0.0
 10
-37.2562806333
 20
134.0356499457
 30
0.0
 10
-36.3893642751
 20
133.38026857
 30
0.0
 10
-35.9312314049
 20
133.1216063762
 30
0.0
  0
SPLINE
  5
4D0
100
AcDbEntity
  8
0
100
AcDbSpline
 62
7
  6
CONTINUOUS
 70
0
 71
3
 72
9
 73
5
 74
0
 42
0.0000001
 43
0.0000001
 44
0.0000000001
 40
0.0
 40
0.0
 40
0.0
 40
0.0
 40
0.502673014
 40
1.0
 40
1.0
 40
1.0
 40
1.0
 10
-35.9312314049
 20
133.1216063762
 30
0.0
 10
-35.619519084
 20
132.9456133444
 30
0.0
 10
-34.9661594318
 20
132.650985469
 30
0.0
 10
-34.2688070362
 20
132.4843679217
 30
0.0
 10
-33.9180743957
 20
132.43523873
 30
0.0
  0
SPLINE
  5
4D1
100
AcDbEntity
  8
0
100
AcDbSpline
 62
7
  6
CONTINUOUS
 70
0
 71
3
 72
9
 73
5
 74
0
 42
0.0000001
 43
0.0000001
 44
0.0000000001
 40
0.0
 40
0.0
 40
0.0
 40
0.0
 40
0.4971284861
 40
1.0
 40
1.0
 40
1.0
 40
1.0
 10
24.4621688598
 20
255.3571882206
 30
0.0
 10
24.0861106527
 20
255.409864914
 30
0.0
 10
23.3167926401
 20
255.4381231291
 30
0.0
 10
22.5578361394
 20
255.3113663154
 30
0.0
 10
22.1868180084
 20
255.2119128712
 30
0.0
  0
SPLINE
  5
4D2
100
AcDbEntity
  8
0
100
AcDbSpline
 62
7
  6
CONTINUOUS
 70
0
 71
3
 72
11
 73
7
 74
0
 42
0.0000001
 43
0.0000001
 44
0.0000000001
 40
0.0
 40
0.0
 40
0.0
 40
0.0
 40
0.233633584
 40
0.4758467542
 40
0.7314152315
 40
1.0
 40
1.0
 40
1.0
 40
1.0
 10
27.7251563606
 20
254.9001950801
 30
0.0
 10
28.4046639603
 20
254.8050124387
 30
0.0
 10
29.7638484847
 20
254.3459673297
 30
0.0
 10
31.4583063101
 20
252.9612106679
 30
0.0
 10
32.6817145127
 20
251.0319424422
 30
0.0
 10
33.110203985
 20
249.5298706465
 30
0.0
 10
33.2271291389
 20
248.7497977049
 30
0.0
  0
SPLINE
  5
4D3
100
AcDbEntity
  8
0
100
AcDbSpline
 62
7
  6
CONTINUOUS
 70
0
 71
3
 72
23
 73
19
 74
0
 42
0.0000001
 43
0.0000001
 44
0.0000000001
 40
0.0
 40
0.0
 40
0.0
 40
0.0
 40
0.0560061501
 40
0.1126286184
 40
0.1704033399
 40
0.2297171046
 40
0.2907747437
 40
0.3535900456
 40
0.4179997147
 40
0.4836915286
 40
0.5502407177
 40
0.6171505761
 40
0.6838948912
 40
0.7499610123
 40
0.8148913196
 40
0.878328979
 40
0.9400486967
 40
1.0
 40
1.0
 40
1.0
 40
1.0
 10
26.2275336306
 20
228.840383595
 30
0.0
 10
27.9684298322
 20
228.5965107365
 30
0.0
 10
31.4306789886
 20
227.7620900229
 30
0.0
 10
36.3214814723
 20
225.5223707583
 30
0.0
 10
40.79749043
 20
222.35562799
 30
0.0
 10
44.7392991119
 20
218.3508383685
 30
0.0
 10
48.0473492149
 20
213.6169675558
 30
0.0
 10
50.6386942314
 20
208.2798347881
 30
0.0
 10
52.4491600376
 20
202.479101173
 30
0.0
 10
53.4341010973
 20
196.3652902352
 30
0.0
 10
53.5695034379
 20
190.0964206534
 30
0.0
 10
52.8525836669
 20
183.8342742111
 30
0.0
 10
51.3019750885
 20
177.7404320479
 30
0.0
 10
48.9571562053
 20
171.9722882403
 30
0.0
 10
45.8778157575
 20
166.6791358238
 30
0.0
 10
42.1411251346
 20
161.9984535765
 30
0.0
 10
37.8437429173
 20
158.0539200125
 30
0.0
 10
34.6281727038
 20
155.9538460795
 30
0.0
 10
32.9683259802
 20
155.0673974186
 30
0.0
  0
SPLINE
  5
4D4
100
AcDbEntity
  8
0
100
AcDbSpline
 62
7
  6
CONTINUOUS
 70
0
 71
3
 72
9
 73
5
 74
0
 42
0.0000001
 43
0.0000001
 44
0.0000000001
 40
0.0
 40
0.0
 40
0.0
 40
0.0
 40
0.4969767544
 40
1.0
 40
1.0
 40
1.0
 40
1.0
 10
25.8114350989
 20
225.869388296
 30
0.0
 10
24.1243802133
 20
226.1057366606
 30
0.0
 10
20.6720473715
 20
226.2334137463
 30
0.0
 10
17.2662580007
 20
225.6639058309
 30
0.0
 10
15.6007987083
 20
225.2174703364
 30
0.0
  0
SPLINE
  5
4D5
100
AcDbEntity
  8
0
100
AcDbSpline
 62
7
  6
CONTINUOUS
 70
0
 71
3
 72
13
 73
9
 74
0
 42
0.0000001
 43
0.0000001
 44
0.0000000001
 40
0.0
 40
0.0
 40
0.0
 40
0.0
 40
0.3092672185
 40
0.5958295358
 40
0.719425315
 40
0.8264624931
 40
0.918120517
 40
1.0
 40
1.0
 40
1.0
 40
1.0
 10
-11.6946065886
 20
235.6360480251
 30
0.0
 10
-11.7383930792
 20
235.9281721347
 30
0.0
 10
-11.8891353126
 20
236.4821615555
 30
0.0
 10
-12.2164623116
 20
237.0965735705
 30
0.0
 10
-12.5475868896
 20
237.4665300322
 30
0.0
 10
-12.7976092079
 20
237.6509246507
 30
0.0
 10
-13.053101234
 20
237.7463597802
 30
0.0
 10
-13.2245364067
 20
237.7403353521
 30
0.0
 10
-13.3000832592
 20
237.7201200216
 30
0.0
  0
SPLINE
  5
4D6
100
AcDbEntity
  8
0
100
AcDbSpline
 62
7
  6
CONTINUOUS
 70
0
 71
3
 72
14
 73
10
 74
0
 42
0.0000001
 43
0.0000001
 44
0.0000000001
 40
0.0
 40
0.0
 40
0.0
 40
0.0
 40
0.3090117349
 40
0.4579174627
 40
0.5960759256
 40
0.7195992749
 40
0.8265725452
 40
0.9181602287
 40
1.0
 40
1.0
 40
1.0
 40
1.0
 10
-6.8279813654
 20
236.2192605654
 30
0.0
 10
-6.9429021922
 20
236.9859615227
 30
0.0
 10
-7.2473023214
 20
238.1080931207
 30
0.0
 10
-7.8863240561
 20
239.4630712356
 30
0.0
 10
-8.446560598
 20
240.3319220628
 30
0.0
 10
-9.0670829217
 20
241.0242204834
 30
0.0
 10
-9.7233005321
 20
241.5084079289
 30
0.0
 10
-10.3939800981
 20
241.7587327431
 30
0.0
 10
-10.8440928743
 20
241.7433311515
 30
0.0
 10
-11.0423867998
 20
241.6900626102
 30
0.0
  0
SPLINE
  5
4D7
100
AcDbEntity
  8
0
100
AcDbSpline
 62
7
  6
CONTINUOUS
 70
0
 71
3
 72
37
 73
33
 74
0
 42
0.0000001
 43
0.0000001
 44
0.0000000001
 40
0.0
 40
0.0
 40
0.0
 40
0.0
 40
0.1286352151
 40
0.2581192704
 40
0.3874213992
 40
0.4517169666
 40
0.5155828382
 40
0.578900965
 40
0.6415656359
 40
0.7034856321
 40
0.7645852344
 40
0.7948143387
 40
0.8248183917
 40
0.8545934006
 40
0.8841367849
 40
0.8988219913
 40
0.9134490015
 40
0.9280179162
 40
0.9425289318
 40
0.9569823521
 40
0.9641876788
 40
0.971378719
 40
0.9785557065
 40
0.9821388657
 40
0.9857182788
 40
0.9892948474
 40
0.9928661705
 40
0.9946534103
 40
0.9964403809
 40
0.9982135
 40
0.9991194377
 40
1.0
 40
1.0
 40
1.0
 40
1.0
 10
-22.7296644696
 20
180.2280246119
 30
0.0
 10
-23.1525217286
 20
182.7988459136
 30
0.0
 10
-23.6349354806
 20
188.0248081753
 30
0.0
 10
-23.2745578554
 20
195.886023073
 30
0.0
 10
-22.0831191534
 20
202.3434629114
 30
0.0
 10
-20.610512647
 20
207.3494213356
 30
0.0
 10
-19.2583338271
 20
210.9878314883
 30
0.0
 10
-17.6661023182
 20
214.4913904122
 30
0.0
 10
-15.8447910045
 20
217.8369095744
 30
0.0
 10
-13.8070587634
 20
221.0018509468
 30
0.0
 10
-11.9332256094
 20
223.4804398759
 30
0.0
 10
-10.3393517753
 20
225.3515992448
 30
0.0
 10
-9.1033665614
 20
226.6923257666
 30
0.0
 10
-7.8248365341
 20
227.9729493297
 30
0.0
 10
-6.7235266179
 20
228.9903321356
 30
0.0
 10
-5.8233382836
 20
229.7718846034
 30
0.0
 10
-5.1402680223
 20
230.3405985186
 30
0.0
 10
-4.4482561489
 20
230.8927548502
 30
0.0
 10
-3.7475968942
 20
231.4281240265
 30
0.0
 10
-3.1561643557
 20
231.8605217243
 30
0.0
 10
-2.678994119
 20
232.1977905192
 30
0.0
 10
-2.3194969873
 20
232.4461652419
 30
0.0
 10
-2.0181514852
 20
232.6496056829
 30
0.0
 10
-1.7761268146
 20
232.8101536047
 30
0.0
 10
-1.5942452663
 20
232.9294419575
 30
0.0
 10
-1.4118723038
 20
233.0475433463
 30
0.0
 10
-1.2594919787
 20
233.1451549964
 30
0.0
 10
-1.1373450949
 20
233.2228113152
 30
0.0
 10
-1.0452005722
 20
233.279641475
 30
0.0
 10
-0.9699499533
 20
233.3301787004
 30
0.0
 10
-0.9067654533
 20
233.3645510013
 30
0.0
 10
-0.878501224
 20
233.3886899463
 30
0.0
 10
-0.8617367413
 20
233.3947754359
 30
0.0
  0
SPLINE
  5
4D8
100
AcDbEntity
  8
0
100
AcDbSpline
 62
7
  6
CONTINUOUS
 70
0
 71
3
 72
12
 73
8
 74
0
 42
0.0000001
 43
0.0000001
 44
0.0000000001
 40
0.0
 40
0.0
 40
0.0
 40
0.0
 40
0.2407947832
 40
0.4881078847
 40
0.6141704824
 40
0.7416332713
 40
1.0
 40
1.0
 40
1.0
 40
1.0
 10
-10.2290912323
 20
154.3731526066
 30
0.0
 10
-11.8520809744
 20
156.0566122394
 30
0.0
 10
-14.8553680189
 20
159.7555142635
 30
0.0
 10
-17.8532442606
 20
164.9390939209
 30
0.0
 10
-19.8050970806
 20
169.3983359035
 30
0.0
 10
-21.4615759935
 20
174.0888418211
 30
0.0
 10
-22.3224397731
 20
177.752243714
 30
0.0
 10
-22.7296644696
 20
180.2280246119
 30
0.0
  0
SPLINE
  5
4D9
100
AcDbEntity
  8
0
100
AcDbSpline
 62
7
  6
CONTINUOUS
 70
0
 71
3
 72
14
 73
10
 74
0
 42
0.0000001
 43
0.0000001
 44
0.0000000001
 40
0.0
 40
0.0
 40
0.0
 40
0.0
 40
0.3090117349
 40
0.4579174627
 40
0.5960759256
 40
0.7195992749
 40
0.8265725452
 40
0.9181602287
 40
1.0
 40
1.0
 40
1.0
 40
1.0
 10
16.5191268759
 20
242.4775809342
 30
0.0
 10
16.4042060492
 20
243.2442818915
 30
0.0
 10
16.0998059199
 20
244.3664134895
 30
0.0
 10
15.4607841852
 20
245.7213916043
 30
0.0
 10
14.9005476433
 20
246.5902424316
 30
0.0
 10
14.2800253196
 20
247.2825408522
 30
0.0
 10
13.6238077093
 20
247.7667282977
 30
0.0
 10
12.9531281432
 20
248.0170531119
 30
0.0
 10
12.503015367
 20
248.0016515203
 30
0.0
 10
12.3047214415
 20
247.948382979
 30
0.0
  0
SPLINE
  5
4DA
100
AcDbEntity
  8
0
100
AcDbSpline
 62
7
  6
CONTINUOUS
 70
0
 71
3
 72
12
 73
8
 74
0
 42
0.0000001
 43
0.0000001
 44
0.0000000001
 40
0.0
 40
0.0
 40
0.0
 40
0.0
 40
0.2610538246
 40
0.5205039957
 40
0.7678261417
 40
0.8858534968
 40
1.0
 40
1.0
 40
1.0
 40
1.0
 10
-49.4175018037
 20
226.5964512667
 30
0.0
 10
-49.5712614379
 20
227.6222675786
 30
0.0
 10
-49.5272897161
 20
229.7345423502
 30
0.0
 10
-48.4839766842
 20
232.6552147063
 30
0.0
 10
-46.8720173583
 20
234.6254476201
 30
0.0
 10
-45.2761532291
 20
235.6867827876
 30
0.0
 10
-44.4097701473
 20
236.0286774583
 30
0.0
 10
-43.9716844827
 20
236.1461087226
 30
0.0
  0
SPLINE
  5
4DB
100
AcDbEntity
  8
0
100
AcDbSpline
 62
7
  6
CONTINUOUS
 70
0
 71
3
 72
9
 73
5
 74
0
 42
0.0000001
 43
0.0000001
 44
0.0000000001
 40
0.0
 40
0.0
 40
0.0
 40
0.0
 40
0.5028715139
 40
1.0
 40
1.0
 40
1.0
 40
1.0
 10
25.4498055092
 20
254.7549197306
 30
0.0
 10
25.8208236402
 20
254.8543731748
 30
0.0
 10
26.5797801409
 20
254.9811299885
 30
0.0
 10
27.3490981535
 20
254.9528717735
 30
0.0
 10
27.7251563606
 20
254.9001950801
 30
0.0
  0
SPLINE
  5
4DC
100
AcDbEntity
  8
0
100
AcDbSpline
 62
7
  6
CONTINUOUS
 70
0
 71
3
 72
14
 73
10
 74
0
 42
0.0000001
 43
0.0000001
 44
0.0000000001
 40
0.0
 40
0.0
 40
0.0
 40
0.0
 40
0.0818398022
 40
0.1734275062
 40
0.2804007969
 40
0.4039241595
 40
0.5420826222
 40
0.6909883439
 40
1.0
 40
1.0
 40
1.0
 40
1.0
 10
-14.1415604506
 20
240.8593120841
 30
0.0
 10
-13.9432664568
 20
240.912580668
 30
0.0
 10
-13.4931535253
 20
240.9279822259
 30
0.0
 10
-12.8224738508
 20
240.6776572001
 30
0.0
 10
-12.1662561739
 20
240.1934696252
 30
0.0
 10
-11.5457338774
 20
239.501171068
 30
0.0
 10
-10.9854973798
 20
238.632320197
 30
0.0
 10
-10.3464758668
 20
237.2773422166
 30
0.0
 10
-10.0420758229
 20
236.1552108339
 30
0.0
 10
-9.9271550257
 20
235.388510074
 30
0.0
  0
SPLINE
  5
4DD
100
AcDbEntity
  8
0
100
AcDbSpline
 62
7
  6
CONTINUOUS
 70
0
 71
3
 72
19
 73
15
 74
0
 42
0.0000001
 43
0.0000001
 44
0.0000000001
 40
0.0
 40
0.0
 40
0.0
 40
0.0
 40
0.0615397234
 40
0.1245143027
 40
0.2537747046
 40
0.3857558824
 40
0.5174781133
 40
0.6460249845
 40
0.7085289457
 40
0.7695536187
 40
0.8290670828
 40
0.8871558598
 40
0.9440276574
 40
1.0
 40
1.0
 40
1.0
 40
1.0
 10
-19.6568517999
 20
224.5357997436
 30
0.0
 10
-20.9322076348
 20
223.444927419
 30
0.0
 10
-23.3608930417
 20
221.053621394
 30
0.0
 10
-27.62019976
 20
215.579008122
 30
0.0
 10
-31.6756300449
 20
207.6131838854
 30
0.0
 10
-34.1918517137
 20
197.099331053
 30
0.0
 10
-34.2388892757
 20
186.3075044342
 30
0.0
 10
-32.1796092948
 20
177.6482267904
 30
0.0
 10
-29.3276209604
 20
171.3745649575
 30
0.0
 10
-26.6647829555
 20
167.1332165082
 30
0.0
 10
-23.5096260767
 20
163.3997053993
 30
0.0
 10
-19.9211150819
 20
160.2469968216
 30
0.0
 10
-15.969471663
 20
157.7394207287
 30
0.0
 10
-13.1245285286
 20
156.5239827731
 30
0.0
 10
-11.6758497178
 20
156.0430425839
 30
0.0
  0
SPLINE
  5
4DE
100
AcDbEntity
  8
0
100
AcDbSpline
 62
7
  6
CONTINUOUS
 70
0
 71
3
 72
11
 73
7
 74
0
 42
0.0000001
 43
0.0000001
 44
0.0000000001
 40
0.0
 40
0.0
 40
0.0
 40
0.0
 40
0.2668246015
 40
0.5212224654
 40
0.7641117412
 40
1.0
 40
1.0
 40
1.0
 40
1.0
 10
-2.4094365369
 20
154.2766355665
 30
0.0
 10
-2.226865853
 20
153.6104249081
 30
0.0
 10
-1.712665892
 20
152.3446276827
 30
0.0
 10
-0.4979616233
 20
150.7515466785
 30
0.0
 10
1.0632064341
 20
149.6216916428
 30
0.0
 10
2.2705542375
 20
149.2419786423
 30
0.0
 10
2.8753393075
 20
149.1573041402
 30
0.0
  0
SPLINE
  5
4DF
100
AcDbEntity
  8
0
100
AcDbSpline
 62
7
  6
CONTINUOUS
 70
0
 71
3
 72
11
 73
7
 74
0
 42
0.0000001
 43
0.0000001
 44
0.0000000001
 40
0.0
 40
0.0
 40
0.0
 40
0.0
 40
0.233633584
 40
0.4758467542
 40
0.7314152315
 40
1.0
 40
1.0
 40
1.0
 40
1.0
 10
-30.6550868949
 20
131.9782455894
 30
0.0
 10
-31.3345944946
 20
132.0734282308
 30
0.0
 10
-32.6937790189
 20
132.5324733398
 30
0.0
 10
-34.3882368443
 20
133.9172300016
 30
0.0
 10
-35.6116450469
 20
135.8464982273
 30
0.0
 10
-36.0401345193
 20
137.348570023
 30
0.0
 10
-36.1570596732
 20
138.1286429647
 30
0.0
  0
SPLINE
  5
4E0
100
AcDbEntity
  8
0
100
AcDbSpline
 62
7
  6
CONTINUOUS
 70
0
 71
3
 72
23
 73
19
 74
0
 42
0.0000001
 43
0.0000001
 44
0.0000000001
 40
0.0
 40
0.0
 40
0.0
 40
0.0
 40
0.0593606695
 40
0.1205084466
 40
0.1834624631
 40
0.2480435231
 40
0.3139175885
 40
0.3806284856
 40
0.4476476848
 40
0.5144200721
 40
0.5804117985
 40
0.6451575
 40
0.7083057883
 40
0.7696605998
 40
0.8292140251
 40
0.8871638656
 40
0.9439059622
 40
1.0
 40
1.0
 40
1.0
 40
1.0
 10
30.1446784863
 20
156.8632229857
 30
0.0
 10
31.7537871523
 20
157.5785136133
 30
0.0
 10
34.8921054226
 20
159.3365658441
 30
0.0
 10
39.1326944943
 20
162.7858057363
 30
0.0
 10
42.8652675707
 20
166.9882349743
 30
0.0
 10
45.9883387575
 20
171.8265475345
 30
0.0
 10
48.4197558357
 20
177.1682408412
 30
0.0
 10
50.0946006155
 20
182.8678279569
 30
0.0
 10
50.9681679098
 20
188.7704928578
 30
0.0
 10
51.0167786168
 20
194.7161304633
 30
0.0
 10
50.2385228997
 20
200.5434859648
 30
0.0
 10
48.6531906267
 20
206.0943203037
 30
0.0
 10
46.3017368098
 20
211.2173541271
 30
0.0
 10
43.2451806758
 20
215.7718304669
 30
0.0
 10
39.5638272886
 20
219.6306437107
 30
0.0
 10
35.355108897
 20
222.6834372779
 30
0.0
 10
30.7368860316
 20
224.8398944845
 30
0.0
 10
27.4593667463
 20
225.6385209109
 30
0.0
 10
25.8114350989
 20
225.869388296
 30
0.0
  0
SPLINE
  5
4E1
100
AcDbEntity
  8
0
100
AcDbSpline
 62
7
  6
CONTINUOUS
 70
0
 71
3
 72
11
 73
7
 74
0
 42
0.0000001
 43
0.0000001
 44
0.0000000001
 40
0.0
 40
0.0
 40
0.0
 40
0.0
 40
0.2350306398
 40
0.4776441847
 40
0.732479416
 40
1.0
 40
1.0
 40
1.0
 40
1.0
 10
25.1724205149
 20
146.0345172585
 30
0.0
 10
24.5395940945
 20
146.1231122841
 30
0.0
 10
23.2753661148
 20
146.5316443218
 30
0.0
 10
21.6619917321
 20
147.7545251251
 30
0.0
 10
20.4393372757
 20
149.4717451955
 30
0.0
 10
19.9527159247
 20
150.8260694676
 30
0.0
 10
19.792262985
 20
151.5354814926
 30
0.0
  0
SPLINE
  5
4E2
100
AcDbEntity
  8
0
100
AcDbSpline
 62
7
  6
CONTINUOUS
 70
0
 71
3
 72
23
 73
19
 74
0
 42
0.0000001
 43
0.0000001
 44
0.0000000001
 40
0.0
 40
0.0
 40
0.0
 40
0.0
 40
0.0563099731
 40
0.1133386881
 40
0.1716941725
 40
0.2317912372
 40
0.2938061619
 40
0.3576782837
 40
0.4231356666
 40
0.4897392437
 40
0.55693592
 40
0.6241156361
 40
0.6906699446
 40
0.7560505657
 40
0.8198256464
 40
0.8817348241
 40
0.9417275752
 40
1.0
 40
1.0
 40
1.0
 40
1.0
 10
15.4366927961
 20
151.7924455374
 30
0.0
 10
13.5571871564
 20
152.0555563659
 30
0.0
 10
9.8187081695
 20
152.9878182108
 30
0.0
 10
4.5795057887
 20
155.5338910005
 30
0.0
 10
-0.1510643405
 20
159.1465388741
 30
0.0
 10
-4.2271211274
 20
163.7067339871
 30
0.0
 10
-7.5301205127
 20
169.07052908
 30
0.0
 10
-9.964750205
 20
175.0726813779
 30
0.0
 10
-11.4616366934
 20
181.5312313229
 30
0.0
 10
-11.9784665414
 20
188.2518290364
 30
0.0
 10
-11.5011990832
 20
195.0328843083
 30
0.0
 10
-10.0445731493
 20
201.6711395992
 30
0.0
 10
-7.651772132
 20
207.9674742829
 30
0.0
 10
-4.3930321112
 20
213.7325495219
 30
0.0
 10
-0.3641044198
 20
218.7921207981
 30
0.0
 10
4.3180540541
 20
222.9915163162
 30
0.0
 10
9.5124365137
 20
226.1990239893
 30
0.0
 10
13.2666387075
 20
227.6254895502
 30
0.0
 10
15.1636412754
 20
228.1339914892
 30
0.0
  0
SPLINE
  5
4E3
100
AcDbEntity
  8
0
100
AcDbSpline
 62
7
  6
CONTINUOUS
 70
0
 71
3
 72
13
 73
9
 74
0
 42
0.0000001
 43
0.0000001
 44
0.0000000001
 40
0.0
 40
0.0
 40
0.0
 40
0.0
 40
0.1126062992
 40
0.2278108473
 40
0.3474929826
 40
0.4723906927
 40
0.7336552341
 40
1.0
 40
1.0
 40
1.0
 40
1.0
 10
25.5885157332
 20
149.0054884987
 30
0.0
 10
25.9183076082
 20
148.9593344995
 30
0.0
 10
26.6028422931
 20
148.9627017588
 30
0.0
 10
27.6001302893
 20
149.2570235277
 30
0.0
 10
28.5174063448
 20
149.8186633961
 30
0.0
 10
29.578981506
 20
150.8897426766
 30
0.0
 10
30.4427801645
 20
152.6808051543
 30
0.0
 10
30.5310001159
 20
154.2858558408
 30
0.0
 10
30.414243532
 20
155.0648041579
 30
0.0
  0
SPLINE
  5
4E4
100
AcDbEntity
  8
0
100
AcDbSpline
 62
7
  6
CONTINUOUS
 70
0
 71
3
 72
16
 73
12
 74
0
 42
0.0000001
 43
0.0000001
 44
0.0000000001
 40
0.0
 40
0.0
 40
0.0
 40
0.0
 40
0.1208710511
 40
0.2469332303
 40
0.3766553842
 40
0.5076879292
 40
0.637404934
 40
0.7634588424
 40
0.8843158198
 40
0.9427965583
 40
1.0
 40
1.0
 40
1.0
 40
1.0
 10
3.9684992349
 20
223.6865208661
 30
0.0
 10
1.426718316
 20
221.9091578083
 30
0.0
 10
-3.2846310411
 20
217.5500656687
 30
0.0
 10
-8.6321581823
 20
209.4001767078
 30
0.0
 10
-12.1162738441
 20
200.0187799741
 30
0.0
 10
-13.5145475233
 20
190.0190046057
 30
0.0
 10
-12.7378042268
 20
180.0425749242
 30
0.0
 10
-9.8296063346
 20
170.7372921672
 30
0.0
 10
-5.7083064745
 20
163.9606457033
 30
0.0
 10
-1.5645407388
 20
159.5039356396
 30
0.0
 10
0.7500130304
 20
157.6255529893
 30
0.0
 10
1.9548646903
 20
156.7871623511
 30
0.0
  0
SPLINE
  5
4E5
100
AcDbEntity
  8
0
100
AcDbSpline
 62
7
  6
CONTINUOUS
 70
0
 71
3
 72
13
 73
9
 74
0
 42
0.0000001
 43
0.0000001
 44
0.0000000001
 40
0.0
 40
0.0
 40
0.0
 40
0.0
 40
0.2563531354
 40
0.5130182716
 40
0.6392709374
 40
0.7628280461
 40
0.883142908
 40
1.0
 40
1.0
 40
1.0
 40
1.0
 10
-20.1968849895
 20
179.8732413926
 30
0.0
 10
-20.9681517509
 20
185.0187922971
 30
0.0
 10
-21.0419011082
 20
195.5836611652
 30
0.0
 10
-17.6020725368
 20
208.2719275458
 30
0.0
 10
-12.8813328497
 20
217.4380397202
 30
0.0
 10
-8.4888747406
 20
223.568348671
 30
0.0
 10
-3.3452024374
 20
228.8185943127
 30
0.0
 10
0.5579264682
 20
231.6817356243
 30
0.0
 10
2.585598966
 20
232.9121207732
 30
0.0
  0
SPLINE
  5
4E6
100
AcDbEntity
  8
0
100
AcDbSpline
 62
7
  6
CONTINUOUS
 70
0
 71
3
 72
9
 73
5
 74
0
 42
0.0000001
 43
0.0000001
 44
0.0000000001
 40
0.0
 40
0.0
 40
0.0
 40
0.0
 40
0.2335072214
 40
1.0
 40
1.0
 40
1.0
 40
1.0
 10
10.9197136278
 20
246.6332808634
 30
0.0
 10
10.9934120779
 20
246.5761460414
 30
0.0
 10
11.2994823578
 20
246.3191711754
 30
0.0
 10
11.5680692255
 20
246.0194361027
 30
0.0
 10
11.7550655462
 20
245.7770938437
 30
0.0
  0
SPLINE
  5
4E7
100
AcDbEntity
  8
0
100
AcDbSpline
 62
7
  6
CONTINUOUS
 70
0
 71
3
 72
10
 73
6
 74
0
 42
0.0000001
 43
0.0000001
 44
0.0000000001
 40
0.0
 40
0.0
 40
0.0
 40
0.0
 40
0.2317177465
 40
0.4815208184
 40
1.0
 40
1.0
 40
1.0
 40
1.0
 10
11.7550655462
 20
245.7770938437
 30
0.0
 10
11.9669957219
 20
245.5024379718
 30
0.0
 10
12.3598167309
 20
244.8940393149
 30
0.0
 10
12.9998841796
 20
243.5380919261
 30
0.0
 10
13.3048881201
 20
242.4144938969
 30
0.0
 10
13.4199532157
 20
241.6468304423
 30
0.0
  0
SPLINE
  5
4E8
100
AcDbEntity
  8
0
100
AcDbSpline
 62
7
  6
CONTINUOUS
 70
0
 71
3
 72
11
 73
7
 74
0
 42
0.0000001
 43
0.0000001
 44
0.0000000001
 40
0.0
 40
0.0
 40
0.0
 40
0.0
 40
0.2400840757
 40
0.4871290042
 40
0.7407630659
 40
1.0
 40
1.0
 40
1.0
 40
1.0
 10
-8.1415131751
 20
154.0807753469
 30
0.0
 10
-9.7287906874
 20
155.761044745
 30
0.0
 10
-12.6614098269
 20
159.4530993082
 30
0.0
 10
-16.1657390135
 20
165.695812919
 30
0.0
 10
-18.7584554286
 20
172.56463139
 30
0.0
 10
-19.8269169234
 20
177.4049779952
 30
0.0
 10
-20.1968849895
 20
179.8732413926
 30
0.0
  0
SPLINE
  5
4E9
100
AcDbEntity
  8
0
100
AcDbSpline
 62
7
  6
CONTINUOUS
 70
0
 71
3
 72
11
 73
7
 74
0
 42
0.0000001
 43
0.0000001
 44
0.0000000001
 40
0.0
 40
0.0
 40
0.0
 40
0.0
 40
0.2673226298
 40
0.5220198928
 40
0.7647107466
 40
1.0
 40
1.0
 40
1.0
 40
1.0
 10
18.4598137581
 20
151.609633023
 30
0.0
 10
18.6273218271
 20
150.9132394742
 30
0.0
 10
19.1228368497
 20
149.5857383628
 30
0.0
 10
20.3436912184
 20
147.9063823241
 30
0.0
 10
21.9415173689
 20
146.7120245347
 30
0.0
 10
23.1885049852
 20
146.3123434726
 30
0.0
 10
23.8128424376
 20
146.2249314884
 30
0.0
  0
SPLINE
  5
4EA
100
AcDbEntity
  8
0
100
AcDbSpline
 62
7
  6
CONTINUOUS
 70
0
 71
3
 72
9
 73
5
 74
0
 42
0.0000001
 43
0.0000001
 44
0.0000000001
 40
0.0
 40
0.0
 40
0.0
 40
0.0
 40
0.2663688002
 40
1.0
 40
1.0
 40
1.0
 40
1.0
 10
-13.1645771247
 20
234.2797588854
 30
0.0
 10
-13.1409729846
 20
234.2522172915
 30
0.0
 10
-13.049687512
 20
234.1512177821
 30
0.0
 10
-12.947117605
 20
234.0598286252
 30
0.0
 10
-12.8652110434
 20
234.002630501
 30
0.0
  0
SPLINE
  5
4EB
100
AcDbEntity
  8
0
100
AcDbSpline
 62
7
  6
CONTINUOUS
 70
0
 71
3
 72
9
 73
5
 74
0
 42
0.0000001
 43
0.0000001
 44
0.0000000001
 40
0.0
 40
0.0
 40
0.0
 40
0.0
 40
0.2658125643
 40
1.0
 40
1.0
 40
1.0
 40
1.0
 10
-12.8022220749
 20
233.9615524514
 30
0.0
 10
-12.7805240825
 20
233.9484004364
 30
0.0
 10
-12.6972699284
 20
233.9017742945
 30
0.0
 10
-12.6067217285
 20
233.8672439179
 30
0.0
 10
-12.5382124927
 20
233.8524853157
 30
0.0
  0
SPLINE
  5
4EC
100
AcDbEntity
  8
0
100
AcDbSpline
 62
7
  6
CONTINUOUS
 70
0
 71
3
 72
9
 73
5
 74
0
 42
0.0000001
 43
0.0000001
 44
0.0000000001
 40
0.0
 40
0.0
 40
0.0
 40
0.0
 40
0.2557991514
 40
1.0
 40
1.0
 40
1.0
 40
1.0
 10
-12.4657240506
 20
233.8410530487
 30
0.0
 10
-12.448542737
 20
233.839352996
 30
0.0
 10
-12.3811369826
 20
233.8355035693
 30
0.0
 10
-12.312977759
 20
233.8436540572
 30
0.0
 10
-12.2644549186
 20
233.8566381224
 30
0.0
  0
SPLINE
  5
4ED
100
AcDbEntity
  8
0
100
AcDbSpline
 62
7
  6
CONTINUOUS
 70
0
 71
3
 72
9
 73
5
 74
0
 42
0.0000001
 43
0.0000001
 44
0.0000000001
 40
0.0
 40
0.0
 40
0.0
 40
0.0
 40
0.5030222575
 40
1.0
 40
1.0
 40
1.0
 40
1.0
 10
15.1636412754
 20
228.1339914892
 30
0.0
 10
16.9682717986
 20
228.6177325952
 30
0.0
 10
20.6586686601
 20
229.2348421875
 30
0.0
 10
24.3994930334
 20
229.0964640468
 30
0.0
 10
26.2275336306
 20
228.840383595
 30
0.0
  0
SPLINE
  5
4EE
100
AcDbEntity
  8
0
100
AcDbSpline
 62
7
  6
CONTINUOUS
 70
0
 71
3
 72
9
 73
5
 74
0
 42
0.0000001
 43
0.0000001
 44
0.0000000001
 40
0.0
 40
0.0
 40
0.0
 40
0.0
 40
0.2392089577
 40
1.0
 40
1.0
 40
1.0
 40
1.0
 10
-13.4272256927
 20
237.6680477673
 30
0.0
 10
-13.4454047885
 20
237.6577977269
 30
0.0
 10
-13.5190631694
 20
237.6108079335
 30
0.0
 10
-13.5822356276
 20
237.5483355784
 30
0.0
 10
-13.6235541117
 20
237.4963894484
 30
0.0
  0
SPLINE
  5
4EF
100
AcDbEntity
  8
0
100
AcDbSpline
 62
7
  6
CONTINUOUS
 70
0
 71
3
 72
9
 73
5
 74
0
 42
0.0000001
 43
0.0000001
 44
0.0000000001
 40
0.0
 40
0.0
 40
0.0
 40
0.0
 40
0.2382199588
 40
1.0
 40
1.0
 40
1.0
 40
1.0
 10
-13.8448585619
 20
237.0105391246
 30
0.0
 10
-13.8524983069
 20
236.9793759937
 30
0.0
 10
-13.8811513371
 20
236.8477280342
 30
0.0
 10
-13.8969670312
 20
236.71343091
 30
0.0
 10
-13.9031800397
 20
236.6110147929
 30
0.0
  0
SPLINE
  5
4F0
100
AcDbEntity
  8
0
100
AcDbSpline
 62
7
  6
CONTINUOUS
 70
0
 71
3
 72
9
 73
5
 74
0
 42
0.0000001
 43
0.0000001
 44
0.0000000001
 40
0.0
 40
0.0
 40
0.0
 40
0.0
 40
0.235670209
 40
1.0
 40
1.0
 40
1.0
 40
1.0
 10
-13.9082655513
 20
236.4387537225
 30
0.0
 10
-13.9082532126
 20
236.4024399231
 30
0.0
 10
-13.9054068873
 20
236.2483592316
 30
0.0
 10
-13.8915466291
 20
236.0945173796
 30
0.0
 10
-13.8753035706
 20
235.9778687907
 30
0.0
  0
SPLINE
  5
4F1
100
AcDbEntity
  8
0
100
AcDbSpline
 62
7
  6
CONTINUOUS
 70
0
 71
3
 72
13
 73
9
 74
0
 42
0.0000001
 43
0.0000001
 44
0.0000000001
 40
0.0
 40
0.0
 40
0.0
 40
0.0
 40
0.083672979
 40
0.1736474593
 40
0.2747441703
 40
0.3898444162
 40
0.6656232473
 40
1.0
 40
1.0
 40
1.0
 40
1.0
 10
-150.9293084414
 20
203.0220693397
 30
0.0
 10
-150.929336488
 20
203.1428051175
 30
0.0
 10
-150.8888169398
 20
203.3947756991
 30
0.0
 10
-150.7135542673
 20
203.7552365855
 30
0.0
 10
-150.4316018983
 20
204.0994192135
 30
0.0
 10
-149.8882302582
 20
204.5606688667
 30
0.0
 10
-148.9560622592
 20
205.0578968494
 30
0.0
 10
-148.1180382459
 20
205.3360507909
 30
0.0
 10
-147.6520026648
 20
205.4609741835
 30
0.0
  0
SPLINE
  5
4F2
100
AcDbEntity
  8
0
100
AcDbSpline
 62
7
  6
CONTINUOUS
 70
0
 71
3
 72
9
 73
5
 74
0
 42
0.0000001
 43
0.0000001
 44
0.0000000001
 40
0.0
 40
0.0
 40
0.0
 40
0.0
 40
0.2456381704
 40
1.0
 40
1.0
 40
1.0
 40
1.0
 10
-150.9293084414
 20
197.5060616591
 30
0.0
 10
-150.9292995468
 20
197.4677721466
 30
0.0
 10
-150.9216295859
 20
197.3119270088
 30
0.0
 10
-150.8823572411
 20
197.158148666
 30
0.0
 10
-150.8388387439
 20
197.0489098337
 30
0.0
  0
SPLINE
  5
4F3
100
AcDbEntity
  8
0
100
AcDbSpline
 62
7
  6
CONTINUOUS
 70
0
 71
3
 72
9
 73
5
 74
0
 42
0.0000001
 43
0.0000001
 44
0.0000000001
 40
0.0
 40
0.0
 40
0.0
 40
0.0
 40
0.441908795
 40
1.0
 40
1.0
 40
1.0
 40
1.0
 10
-150.8388387439
 20
197.0489098337
 30
0.0
 10
-150.7444905855
 20
196.8120799033
 30
0.0
 10
-150.3844734411
 20
196.3370323406
 30
0.0
 10
-149.9065271223
 20
196.0055866778
 30
0.0
 10
-149.6277334398
 20
195.8445606245
 30
0.0
  0
SPLINE
  5
4F4
100
AcDbEntity
  8
0
100
AcDbSpline
 62
7
  6
CONTINUOUS
 70
0
 71
3
 72
12
 73
8
 74
0
 42
0.0000001
 43
0.0000001
 44
0.0000000001
 40
0.0
 40
0.0
 40
0.0
 40
0.0
 40
0.1973930625
 40
0.3097662429
 40
0.4316011652
 40
0.7013827396
 40
1.0
 40
1.0
 40
1.0
 40
1.0
 10
-133.4920564148
 20
222.9835724953
 30
0.0
 10
-133.8940779577
 20
222.6857089128
 30
0.0
 10
-134.4121037202
 20
222.0636626228
 30
0.0
 10
-134.9113291266
 20
221.0901650871
 30
0.0
 10
-135.3508148189
 20
219.886829714
 30
0.0
 10
-135.689010065
 20
218.1607331815
 30
0.0
 10
-135.7640927299
 20
216.718277548
 30
0.0
 10
-135.7640925637
 20
215.9613546465
 30
0.0
  0
SPLINE
  5
4F5
100
AcDbEntity
  8
0
100
AcDbSpline
 62
7
  6
CONTINUOUS
 70
0
 71
3
 72
13
 73
9
 74
0
 42
0.0000001
 43
0.0000001
 44
0.0000000001
 40
0.0
 40
0.0
 40
0.0
 40
0.0
 40
0.3313401711
 40
0.6294615658
 40
0.7553354229
 40
0.8599980732
 40
0.9411696877
 40
1.0
 40
1.0
 40
1.0
 40
1.0
 10
-128.7134932463
 20
218.4042529557
 30
0.0
 10
-128.2559078088
 20
218.9718815855
 30
0.0
 10
-127.3839501341
 20
220.0478620834
 30
0.0
 10
-126.3528223559
 20
221.3522701876
 30
0.0
 10
-125.6763278548
 20
222.298754352
 30
0.0
 10
-125.3114021538
 20
222.8809885147
 30
0.0
 10
-125.0755161163
 20
223.3651683852
 30
0.0
 10
-124.9991278675
 20
223.6706088932
 30
0.0
 10
-124.9991334073
 20
223.8000624872
 30
0.0
  0
SPLINE
  5
4F6
100
AcDbEntity
  8
0
100
AcDbSpline
 62
7
  6
CONTINUOUS
 70
0
 71
3
 72
9
 73
5
 74
0
 42
0.0000001
 43
0.0000001
 44
0.0000000001
 40
0.0
 40
0.0
 40
0.0
 40
0.0
 40
0.2537745017
 40
1.0
 40
1.0
 40
1.0
 40
1.0
 10
-64.0820752443
 20
217.6745333955
 30
0.0
 10
-64.1421807155
 20
217.3765407075
 30
0.0
 10
-64.3556179897
 20
216.1977458728
 30
0.0
 10
-64.474387333
 20
215.0014359134
 30
0.0
 10
-64.5041340009
 20
214.108034958
 30
0.0
  0
SPLINE
  5
4F7
100
AcDbEntity
  8
0
100
AcDbSpline
 62
7
  6
CONTINUOUS
 70
0
 71
3
 72
11
 73
7
 74
0
 42
0.0000001
 43
0.0000001
 44
0.0000000001
 40
0.0
 40
0.0
 40
0.0
 40
0.0
 40
0.2424125336
 40
0.504129221
 40
0.7637222709
 40
1.0
 40
1.0
 40
1.0
 40
1.0
 10
-76.0173137727
 20
164.4355450102
 30
0.0
 10
-75.2290689488
 20
164.6468383569
 30
0.0
 10
-73.5507267117
 20
164.9434650998
 30
0.0
 10
-70.9768660761
 20
165.0670829229
 30
0.0
 10
-68.4273147721
 20
164.8839615132
 30
0.0
 10
-66.7843248068
 20
164.5467157982
 30
0.0
 10
-66.0235147323
 20
164.3146354118
 30
0.0
  0
SPLINE
  5
4F8
100
AcDbEntity
  8
0
100
AcDbSpline
 62
7
  6
CONTINUOUS
 70
0
 71
3
 72
11
 73
7
 74
0
 42
0.0000001
 43
0.0000001
 44
0.0000000001
 40
0.0
 40
0.0
 40
0.0
 40
0.0
 40
0.307716659
 40
0.5710984383
 40
0.7967334285
 40
1.0
 40
1.0
 40
1.0
 40
1.0
 10
-149.6277334398
 20
201.3605683051
 30
0.0
 10
-149.823247154
 20
201.4734933954
 30
0.0
 10
-150.173799599
 20
201.7066013058
 30
0.0
 10
-150.5969213493
 20
202.1162236486
 30
0.0
 10
-150.8653886339
 20
202.5560029901
 30
0.0
 10
-150.9292737957
 20
202.872925606
 30
0.0
 10
-150.9293084414
 20
203.0220693397
 30
0.0
  0
SPLINE
  5
4F9
100
AcDbEntity
  8
0
100
AcDbSpline
 62
7
  6
CONTINUOUS
 70
0
 71
3
 72
13
 73
9
 74
0
 42
0.0000001
 43
0.0000001
 44
0.0000000001
 40
0.0
 40
0.0
 40
0.0
 40
0.0
 40
0.1000995365
 40
0.1901925211
 40
0.3850973378
 40
0.5077605429
 40
0.650889112
 40
1.0
 40
1.0
 40
1.0
 40
1.0
 10
-124.9991334073
 20
223.8000624872
 30
0.0
 10
-124.9991359356
 20
223.8591444537
 30
0.0
 10
-125.0127271485
 20
223.9727381466
 30
0.0
 10
-125.1218588893
 20
224.1790102444
 30
0.0
 10
-125.3501842772
 20
224.2995601053
 30
0.0
 10
-125.6159693518
 20
224.3513854957
 30
0.0
 10
-125.9797720457
 20
224.3730454704
 30
0.0
 10
-126.2702979378
 20
224.3452265365
 30
0.0
 10
-126.4743361631
 20
224.3164572119
 30
0.0
  0
SPLINE
  5
4FA
100
AcDbEntity
  8
0
100
AcDbSpline
 62
7
  6
CONTINUOUS
 70
0
 71
3
 72
13
 73
9
 74
0
 42
0.0000001
 43
0.0000001
 44
0.0000000001
 40
0.0
 40
0.0
 40
0.0
 40
0.0
 40
0.0851351677
 40
0.1899981569
 40
0.3098971516
 40
0.4402943368
 40
0.7170893641
 40
1.0
 40
1.0
 40
1.0
 40
1.0
 10
-64.2068880573
 20
231.6987558245
 30
0.0
 10
-64.621738041
 20
231.6404131006
 30
0.0
 10
-65.5348120395
 20
231.4238431807
 30
0.0
 10
-66.9776221802
 20
230.9258530569
 30
0.0
 10
-68.5744164663
 20
230.2088059462
 30
0.0
 10
-70.8364780945
 20
228.9338947935
 30
0.0
 10
-73.5345353229
 20
226.8275540146
 30
0.0
 10
-75.2803505647
 20
224.657977149
 30
0.0
 10
-76.0173137727
 20
223.476896689
 30
0.0
  0
SPLINE
  5
4FB
100
AcDbEntity
  8
0
100
AcDbSpline
 62
7
  6
CONTINUOUS
 70
0
 71
3
 72
8
 73
4
 74
0
 42
0.0000001
 43
0.0000001
 44
0.0000000001
 40
0.0
 40
0.0
 40
0.0
 40
0.0
 40
1.0
 40
1.0
 40
1.0
 40
1.0
 10
-126.4743361631
 20
224.3164572119
 30
0.0
 10
-128.4036555136
 20
224.0444238
 30
0.0
 10
-130.3329033907
 20
223.7718830586
 30
0.0
 10
-132.2620837131
 20
223.498865446
 30
0.0
  0
SPLINE
  5
4FC
100
AcDbEntity
  8
0
100
AcDbSpline
 62
7
  6
CONTINUOUS
 70
0
 71
3
 72
9
 73
5
 74
0
 42
0.0000001
 43
0.0000001
 44
0.0000000001
 40
0.0
 40
0.0
 40
0.0
 40
0.0
 40
0.5090228155
 40
1.0
 40
1.0
 40
1.0
 40
1.0
 10
-132.2620830031
 20
223.4988656582
 30
0.0
 10
-130.925451472
 20
224.4794610308
 30
0.0
 10
-128.135587541
 20
226.1937791
 30
0.0
 10
-125.0833422925
 20
227.388803055
 30
0.0
 10
-123.5450210218
 20
227.8250603796
 30
0.0
  0
SPLINE
  5
4FD
100
AcDbEntity
  8
0
100
AcDbSpline
 62
7
  6
CONTINUOUS
 70
0
 71
3
 72
9
 73
5
 74
0
 42
0.0000001
 43
0.0000001
 44
0.0000000001
 40
0.0
 40
0.0
 40
0.0
 40
0.0
 40
0.4938614686
 40
1.0
 40
1.0
 40
1.0
 40
1.0
 10
-132.2620837131
 20
223.498865446
 30
0.0
 10
-132.4811738115
 20
223.4678580532
 30
0.0
 10
-132.9185336995
 20
223.3466802962
 30
0.0
 10
-133.3098455699
 20
223.1185751488
 30
0.0
 10
-133.4920564148
 20
222.9835724953
 30
0.0
  0
SPLINE
  5
4FE
100
AcDbEntity
  8
0
100
AcDbSpline
 62
7
  6
CONTINUOUS
 70
0
 71
3
 72
11
 73
7
 74
0
 42
0.0000001
 43
0.0000001
 44
0.0000000001
 40
0.0
 40
0.0
 40
0.0
 40
0.0
 40
0.2323283274
 40
0.4732845705
 40
0.728453703
 40
1.0
 40
1.0
 40
1.0
 40
1.0
 10
-10.9436322777
 20
136.7791847714
 30
0.0
 10
-10.1073179303
 20
136.272624245
 30
0.0
 10
-8.5519639451
 20
134.9738175506
 30
0.0
 10
-6.8375627956
 20
132.3875046744
 30
0.0
 10
-5.7918746607
 20
129.2975124347
 30
0.0
 10
-5.5732607872
 20
127.0717452717
 30
0.0
 10
-5.5732607872
 20
125.9289290366
 30
0.0
  0
SPLINE
  5
4FF
100
AcDbEntity
  8
0
100
AcDbSpline
 62
7
  6
CONTINUOUS
 70
0
 71
3
 72
11
 73
7
 74
0
 42
0.0000001
 43
0.0000001
 44
0.0000000001
 40
0.0
 40
0.0
 40
0.0
 40
0.0
 40
0.271777447
 40
0.5268693558
 40
0.7676332594
 40
1.0
 40
1.0
 40
1.0
 40
1.0
 10
-35.3253279266
 20
117.9537243189
 30
0.0
 10
-35.3253279266
 20
116.6547874204
 30
0.0
 10
-35.0727897991
 20
114.1259348895
 30
0.0
 10
-33.8631949659
 20
110.6229645379
 30
0.0
 10
-31.8811390269
 20
107.7083341849
 30
0.0
 10
-30.0873111159
 20
106.2656187516
 30
0.0
 10
-29.1256590066
 20
105.7100954867
 30
0.0
  0
SPLINE
  5
500
100
AcDbEntity
  8
0
100
AcDbSpline
 62
7
  6
CONTINUOUS
 70
0
 71
3
 72
9
 73
5
 74
0
 42
0.0000001
 43
0.0000001
 44
0.0000000001
 40
0.0
 40
0.0
 40
0.0
 40
0.0
 40
0.5104117975
 40
1.0
 40
1.0
 40
1.0
 40
1.0
 10
-30.7795045608
 20
131.4639069112
 30
0.0
 10
-32.2117890017
 20
129.4712554363
 30
0.0
 10
-34.455794046
 20
125.133346814
 30
0.0
 10
-35.3253279266
 20
120.3076035222
 30
0.0
 10
-35.3253279266
 20
117.9537243189
 30
0.0
  0
SPLINE
  5
501
100
AcDbEntity
  8
0
100
AcDbSpline
 62
7
  6
CONTINUOUS
 70
0
 71
3
 72
9
 73
5
 74
0
 42
0.0000001
 43
0.0000001
 44
0.0000000001
 40
0.0
 40
0.0
 40
0.0
 40
0.0
 40
0.4904318816
 40
1.0
 40
1.0
 40
1.0
 40
1.0
 10
23.1080745337
 20
257.5663510634
 30
0.0
 10
23.9870232038
 20
257.4432315338
 30
0.0
 10
25.7449966532
 20
256.8372824835
 30
0.0
 10
27.1563325662
 20
255.6391186225
 30
0.0
 10
27.7556561503
 20
254.9382682829
 30
0.0
  0
SPLINE
  5
502
100
AcDbEntity
  8
0
100
AcDbSpline
 62
7
  6
CONTINUOUS
 70
0
 71
3
 72
11
 73
7
 74
0
 42
0.0000001
 43
0.0000001
 44
0.0000000001
 40
0.0
 40
0.0
 40
0.0
 40
0.0
 40
0.2328182149
 40
0.4809036219
 40
0.7397283421
 40
1.0
 40
1.0
 40
1.0
 40
1.0
 10
-49.4965530106
 20
237.1406276505
 30
0.0
 10
-50.362314738
 20
236.8222176907
 30
0.0
 10
-52.021711531
 20
235.7757229411
 30
0.0
 10
-53.8205012488
 20
233.3953478328
 30
0.0
 10
-54.8249222858
 20
230.477346453
 30
0.0
 10
-54.8842585863
 20
228.3831532005
 30
0.0
 10
-54.7516603691
 20
227.3604815804
 30
0.0
  0
SPLINE
  5
503
100
AcDbEntity
  8
0
100
AcDbSpline
 62
7
  6
CONTINUOUS
 70
0
 71
3
 72
11
 73
7
 74
0
 42
0.0000001
 43
0.0000001
 44
0.0000000001
 40
0.0
 40
0.0
 40
0.0
 40
0.0
 40
0.267213811
 40
0.5228621472
 40
0.7661185614
 40
1.0
 40
1.0
 40
1.0
 40
1.0
 10
-41.4647640791
 20
138.7033659433
 30
0.0
 10
-41.3512909801
 20
137.9463235861
 30
0.0
 10
-40.9515271014
 20
136.483916512
 30
0.0
 10
-39.8352657152
 20
134.5635034098
 30
0.0
 10
-38.288817982
 20
133.0985922402
 30
0.0
 10
-37.0253069412
 20
132.5049643859
 30
0.0
 10
-36.3795416691
 20
132.3263546165
 30
0.0
  0
SPLINE
  5
504
100
AcDbEntity
  8
0
100
AcDbSpline
 62
7
  6
CONTINUOUS
 70
0
 71
3
 72
9
 73
5
 74
0
 42
0.0000001
 43
0.0000001
 44
0.0000000001
 40
0.0
 40
0.0
 40
0.0
 40
0.0
 40
0.2487409505
 40
1.0
 40
1.0
 40
1.0
 40
1.0
 10
22.9000249655
 20
256.080851359
 30
0.0
 10
22.7003486064
 20
256.1088212055
 30
0.0
 10
21.8922565567
 20
256.1807187082
 30
0.0
 10
21.0706589064
 20
256.0841649859
 30
0.0
 10
20.4824646861
 20
255.9264963003
 30
0.0
  0
SPLINE
  5
505
100
AcDbEntity
  8
0
100
AcDbSpline
 62
7
  6
CONTINUOUS
 70
0
 71
3
 72
11
 73
7
 74
0
 42
0.0000001
 43
0.0000001
 44
0.0000000001
 40
0.0
 40
0.0
 40
0.0
 40
0.0
 40
0.2032339246
 40
0.4288952144
 40
0.6924084714
 40
1.0
 40
1.0
 40
1.0
 40
1.0
 10
-150.9292642487
 20
134.9913077032
 30
0.0
 10
-150.9293221994
 20
134.8421896537
 30
0.0
 10
-150.8653412167
 20
134.5252768592
 30
0.0
 10
-150.5969408597
 20
134.0853697506
 30
0.0
 10
-150.1736249887
 20
133.6759003493
 30
0.0
 10
-149.8231653921
 20
133.4426847773
 30
0.0
 10
-149.6277334398
 20
133.3298069112
 30
0.0
  0
SPLINE
  5
506
100
AcDbEntity
  8
0
100
AcDbSpline
 62
7
  6
CONTINUOUS
 70
0
 71
3
 72
9
 73
5
 74
0
 42
0.0000001
 43
0.0000001
 44
0.0000000001
 40
0.0
 40
0.0
 40
0.0
 40
0.0
 40
0.2437369764
 40
1.0
 40
1.0
 40
1.0
 40
1.0
 10
-150.9292642406
 20
195.6673921895
 30
0.0
 10
-150.9292463196
 20
195.7135284626
 30
0.0
 10
-150.9180213923
 20
195.9027950751
 30
0.0
 10
-150.8602418388
 20
196.0880822678
 30
0.0
 10
-150.7981083289
 20
196.217045822
 30
0.0
  0
SPLINE
  5
507
100
AcDbEntity
  8
0
100
AcDbSpline
 62
7
  6
CONTINUOUS
 70
0
 71
3
 72
9
 73
5
 74
0
 42
0.0000001
 43
0.0000001
 44
0.0000000001
 40
0.0
 40
0.0
 40
0.0
 40
0.0
 40
0.2390933734
 40
1.0
 40
1.0
 40
1.0
 40
1.0
 10
-150.7981083289
 20
196.217045822
 30
0.0
 10
-150.7833674428
 20
196.247641825
 30
0.0
 10
-150.7173610922
 20
196.3735040172
 30
0.0
 10
-150.6350598675
 20
196.4904929599
 30
0.0
 10
-150.5664965081
 20
196.5740447394
 30
0.0
  0
SPLINE
  5
508
100
AcDbEntity
  8
0
100
AcDbSpline
 62
7
  6
CONTINUOUS
 70
0
 71
3
 72
15
 73
11
 74
0
 42
0.0000001
 43
0.0000001
 44
0.0000000001
 40
0.0
 40
0.0
 40
0.0
 40
0.0
 40
0.2646709974
 40
0.4021377055
 40
0.5367264584
 40
0.6646710911
 40
0.7837862812
 40
0.8943546262
 40
0.9475377438
 40
1.0
 40
1.0
 40
1.0
 40
1.0
 10
-5.5732607872
 20
125.9289290366
 30
0.0
 10
-5.5732607872
 20
122.9112206759
 30
0.0
 10
-6.7683240298
 20
118.2751008849
 30
0.0
 10
-10.0188735288
 20
113.0628935537
 30
0.0
 10
-13.2122045283
 20
109.7510542633
 30
0.0
 10
-16.896875793
 20
107.3590412894
 30
0.0
 10
-20.817997159
 20
106.0652069453
 30
0.0
 10
-24.1072382723
 20
106.0200164571
 30
0.0
 10
-26.5061265751
 20
106.6352010996
 30
0.0
 10
-27.6073544403
 20
107.1428625405
 30
0.0
 10
-28.1253426544
 20
107.4420020283
 30
0.0
  0
SPLINE
  5
509
100
AcDbEntity
  8
0
100
AcDbSpline
 62
7
  6
CONTINUOUS
 70
0
 71
3
 72
9
 73
5
 74
0
 42
0.0000001
 43
0.0000001
 44
0.0000000001
 40
0.0
 40
0.0
 40
0.0
 40
0.0
 40
0.2517696521
 40
1.0
 40
1.0
 40
1.0
 40
1.0
 10
-33.9077825502
 20
132.3578146391
 30
0.0
 10
-34.026236887
 20
132.3294183943
 30
0.0
 10
-34.4998780525
 20
132.2302877111
 30
0.0
 10
-34.9852623958
 20
132.1866987942
 30
0.0
 10
-35.3472684292
 20
132.1872722317
 30
0.0
  0
SPLINE
  5
50A
100
AcDbEntity
  8
0
100
AcDbSpline
 62
7
  6
CONTINUOUS
 70
0
 71
3
 72
9
 73
5
 74
0
 42
0.0000001
 43
0.0000001
 44
0.0000000001
 40
0.0
 40
0.0
 40
0.0
 40
0.0
 40
0.2486376119
 40
1.0
 40
1.0
 40
1.0
 40
1.0
 10
23.1168173825
 20
255.9992309979
 30
0.0
 10
23.2359689804
 20
255.966275309
 30
0.0
 10
23.7109837067
 20
255.8188938051
 30
0.0
 10
24.1675123718
 20
255.6125706229
 30
0.0
 10
24.4929034912
 20
255.4290320271
 30
0.0
  0
SPLINE
  5
50B
100
AcDbEntity
  8
0
100
AcDbSpline
 62
7
  6
CONTINUOUS
 70
0
 71
3
 72
11
 73
7
 74
0
 42
0.0000001
 43
0.0000001
 44
0.0000000001
 40
0.0
 40
0.0
 40
0.0
 40
0.0
 40
0.2693850615
 40
0.5247899305
 40
0.7672328179
 40
1.0
 40
1.0
 40
1.0
 40
1.0
 10
-3.9203681684
 20
126.3719959654
 30
0.0
 10
-3.9203681684
 20
127.4784949241
 30
0.0
 10
-4.1045557152
 20
129.6403315453
 30
0.0
 10
-4.9772156145
 20
132.6909362721
 30
0.0
 10
-6.4131428883
 20
135.3543436055
 30
0.0
 10
-7.7368045255
 20
136.8209740292
 30
0.0
 10
-8.4632364348
 20
137.4425902811
 30
0.0
  0
SPLINE
  5
50C
100
AcDbEntity
  8
0
100
AcDbSpline
 62
7
  6
CONTINUOUS
 70
0
 71
3
 72
15
 73
11
 74
0
 42
0.0000001
 43
0.0000001
 44
0.0000000001
 40
0.0
 40
0.0
 40
0.0
 40
0.0
 40
0.0524622206
 40
0.1056451924
 40
0.2162149419
 40
0.335328751
 40
0.4632716211
 40
0.5978589477
 40
0.7353248364
 40
1.0
 40
1.0
 40
1.0
 40
1.0
 10
-29.1256590066
 20
105.7100954867
 30
0.0
 10
-28.5467745235
 20
105.3756878615
 30
0.0
 10
-27.3158576558
 20
104.808587697
 30
0.0
 10
-24.6348531509
 20
104.1206324144
 30
0.0
 10
-20.9585931874
 20
104.1715691916
 30
0.0
 10
-16.5761308101
 20
105.6172547143
 30
0.0
 10
-12.4580639388
 20
108.2908208047
 30
0.0
 10
-8.8891255493
 20
111.992248197
 30
0.0
 10
-5.2559376738
 20
117.8175658393
 30
0.0
 10
-3.9203681684
 20
122.9992079491
 30
0.0
 10
-3.9203681684
 20
126.3719959654
 30
0.0
  0
SPLINE
  5
50D
100
AcDbEntity
  8
0
100
AcDbSpline
 62
7
  6
CONTINUOUS
 70
0
 71
3
 72
11
 73
7
 74
0
 42
0.0000001
 43
0.0000001
 44
0.0000000001
 40
0.0
 40
0.0
 40
0.0
 40
0.0
 40
0.2330991379
 40
0.4759488717
 40
0.7313315051
 40
1.0
 40
1.0
 40
1.0
 40
1.0
 10
-8.6458833596
 20
137.4269956129
 30
0.0
 10
-7.9761679865
 20
136.7990965359
 30
0.0
 10
-6.7618883457
 20
135.3445701347
 30
0.0
 10
-5.4490270077
 20
132.7571304222
 30
0.0
 10
-4.6520598307
 20
129.8245943146
 30
0.0
 10
-4.4833837078
 20
127.7552964967
 30
0.0
 10
-4.4833837078
 20
126.6971832848
 30
0.0
  0
SPLINE
  5
50E
100
AcDbEntity
  8
0
100
AcDbSpline
 62
7
  6
CONTINUOUS
 70
0
 71
3
 72
9
 73
5
 74
0
 42
0.0000001
 43
0.0000001
 44
0.0000000001
 40
0.0
 40
0.0
 40
0.0
 40
0.0
 40
0.5097649139
 40
1.0
 40
1.0
 40
1.0
 40
1.0
 10
-29.3699369378
 20
131.8533625848
 30
0.0
 10
-30.8931992224
 20
129.9815351747
 30
0.0
 10
-33.2932108122
 20
125.7964017577
 30
0.0
 10
-34.2354508471
 20
121.0428313228
 30
0.0
 10
-34.2354508471
 20
118.721978567
 30
0.0
  0
SPLINE
  5
50F
100
AcDbEntity
  8
0
100
AcDbSpline
 62
7
  6
CONTINUOUS
 70
0
 71
3
 72
11
 73
7
 74
0
 42
0.0000001
 43
0.0000001
 44
0.0000000001
 40
0.0
 40
0.0
 40
0.0
 40
0.0
 40
0.3075915747
 40
0.5711047481
 40
0.7967660342
 40
1.0
 40
1.0
 40
1.0
 40
1.0
 10
-149.6277334398
 20
194.0058913976
 30
0.0
 10
-149.823165423
 20
194.1187692816
 30
0.0
 10
-150.173625066
 20
194.3519847606
 30
0.0
 10
-150.596940812
 20
194.7614542375
 30
0.0
 10
-150.8653412573
 20
195.2013612682
 30
0.0
 10
-150.9293221632
 20
195.5182741086
 30
0.0
 10
-150.9292642406
 20
195.6673921895
 30
0.0
  0
SPLINE
  5
510
100
AcDbEntity
  8
0
100
AcDbSpline
 62
7
  6
CONTINUOUS
 70
0
 71
3
 72
11
 73
7
 74
0
 42
0.0000001
 43
0.0000001
 44
0.0000000001
 40
0.0
 40
0.0
 40
0.0
 40
0.0
 40
0.232362554
 40
0.4731275204
 40
0.7282243732
 40
1.0
 40
1.0
 40
1.0
 40
1.0
 10
-28.1253426544
 20
107.4420020283
 30
0.0
 10
-28.985817284
 20
107.9389282767
 30
0.0
 10
-30.5907518422
 20
109.2298837132
 30
0.0
 10
-32.3642368893
 20
111.8376453569
 30
0.0
 10
-33.4464710859
 20
114.9719288445
 30
0.0
 10
-33.6724353077
 20
117.2345924217
 30
0.0
 10
-33.6724353077
 20
118.3967912476
 30
0.0
  0
SPLINE
  5
511
100
AcDbEntity
  8
0
100
AcDbSpline
 62
7
  6
CONTINUOUS
 70
0
 71
3
 72
12
 73
8
 74
0
 42
0.0000001
 43
0.0000001
 44
0.0000000001
 40
0.0
 40
0.0
 40
0.0
 40
0.0
 40
0.2610538246
 40
0.5205039957
 40
0.7678261417
 40
0.8858534968
 40
1.0
 40
1.0
 40
1.0
 40
1.0
 10
-55.9648756738
 20
226.8388740487
 30
0.0
 10
-56.1570752166
 20
228.1211444387
 30
0.0
 10
-56.1021105643
 20
230.7614879033
 30
0.0
 10
-54.7979692742
 20
234.4123283485
 30
0.0
 10
-52.7830201167
 20
236.8751194908
 30
0.0
 10
-50.788189955
 20
238.2017884502
 30
0.0
 10
-49.7052111027
 20
238.6291567883
 30
0.0
 10
-49.1576040219
 20
238.7759458687
 30
0.0
  0
SPLINE
  5
512
100
AcDbEntity
  8
0
100
AcDbSpline
 62
7
  6
CONTINUOUS
 70
0
 71
3
 72
10
 73
6
 74
0
 42
0.0000001
 43
0.0000001
 44
0.0000000001
 40
0.0
 40
0.0
 40
0.0
 40
0.0
 40
0.2049606058
 40
0.5614655657
 40
1.0
 40
1.0
 40
1.0
 40
1.0
 10
-150.2141964552
 20
195.3979005835
 30
0.0
 10
-150.1892154905
 20
195.2648233129
 30
0.0
 10
-150.0574255684
 20
194.9109241061
 30
0.0
 10
-149.6198755539
 20
194.3985989986
 30
0.0
 10
-149.1838700363
 20
194.0989608912
 30
0.0
 10
-148.9330025154
 20
193.9540644701
 30
0.0
  0
SPLINE
  5
513
100
AcDbEntity
  8
0
100
AcDbSpline
 62
7
  6
CONTINUOUS
 70
0
 71
3
 72
9
 73
5
 74
0
 42
0.0000001
 43
0.0000001
 44
0.0000000001
 40
0.0
 40
0.0
 40
0.0
 40
0.0
 40
0.5028715139
 40
1.0
 40
1.0
 40
1.0
 40
1.0
 10
20.2638859683
 20
257.3847568763
 30
0.0
 10
20.7276586323
 20
257.5090736817
 30
0.0
 10
21.6763542585
 20
257.667519699
 30
0.0
 10
22.6380017745
 20
257.6321969302
 30
0.0
 10
23.1080745337
 20
257.5663510634
 30
0.0
  0
SPLINE
  5
514
100
AcDbEntity
  8
0
100
AcDbSpline
 62
7
  6
CONTINUOUS
 70
0
 71
3
 72
14
 73
10
 74
0
 42
0.0000001
 43
0.0000001
 44
0.0000000001
 40
0.0
 40
0.0
 40
0.0
 40
0.0
 40
0.1239381064
 40
0.2358141886
 40
0.3437429448
 40
0.4588607953
 40
0.5868786808
 40
0.7255277839
 40
1.0
 40
1.0
 40
1.0
 40
1.0
 10
-21.0542950451
 20
121.7791529262
 30
0.0
 10
-21.0542950451
 20
121.5823613521
 30
0.0
 10
-20.9920964045
 20
121.2020830224
 30
0.0
 10
-20.6713328738
 20
120.7337362111
 30
0.0
 10
-20.1668270312
 20
120.4968328675
 30
0.0
 10
-19.5910345923
 20
120.5379982915
 30
0.0
 10
-19.0399135266
 20
120.8217487636
 30
0.0
 10
-18.4338062633
 20
121.4418078809
 30
0.0
 10
-18.1914010498
 20
122.1107545073
 30
0.0
 10
-18.1914010498
 20
122.546567358
 30
0.0
  0
SPLINE
  5
515
100
AcDbEntity
  8
0
100
AcDbSpline
 62
7
  6
CONTINUOUS
 70
0
 71
3
 72
14
 73
10
 74
0
 42
0.0000001
 43
0.0000001
 44
0.0000000001
 40
0.0
 40
0.0
 40
0.0
 40
0.0
 40
0.1239381064
 40
0.2358141886
 40
0.3437429448
 40
0.4588607953
 40
0.5868786808
 40
0.7255277839
 40
1.0
 40
1.0
 40
1.0
 40
1.0
 10
-18.1914010498
 20
122.546567358
 30
0.0
 10
-18.1914010498
 20
122.7433589322
 30
0.0
 10
-18.2535996904
 20
123.1236372618
 30
0.0
 10
-18.5743632212
 20
123.5919840732
 30
0.0
 10
-19.0788690638
 20
123.8288874167
 30
0.0
 10
-19.6546615027
 20
123.7877219927
 30
0.0
 10
-20.2057825683
 20
123.5039715207
 30
0.0
 10
-20.8118898317
 20
122.8839124033
 30
0.0
 10
-21.0542950451
 20
122.2149657769
 30
0.0
 10
-21.0542950451
 20
121.7791529262
 30
0.0
  0
SPLINE
  5
516
100
AcDbEntity
  8
0
100
AcDbSpline
 62
7
  6
CONTINUOUS
 70
0
 71
3
 72
9
 73
5
 74
0
 42
0.0000001
 43
0.0000001
 44
0.0000000001
 40
0.0
 40
0.0
 40
0.0
 40
0.0
 40
0.4907384971
 40
1.0
 40
1.0
 40
1.0
 40
1.0
 10
-33.6724353077
 20
118.3967912476
 30
0.0
 10
-33.6724353077
 20
120.8383575146
 30
0.0
 10
-32.6316148125
 20
125.8350278531
 30
0.0
 10
-29.9989615536
 20
130.1798630689
 30
0.0
 10
-28.3339332637
 20
132.0896892453
 30
0.0
  0
SPLINE
  5
517
100
AcDbEntity
  8
0
100
AcDbSpline
 62
7
  6
CONTINUOUS
 70
0
 71
3
 72
11
 73
7
 74
0
 42
0.0000001
 43
0.0000001
 44
0.0000000001
 40
0.0
 40
0.0
 40
0.0
 40
0.0
 40
0.2717749833
 40
0.5268699245
 40
0.7676347946
 40
1.0
 40
1.0
 40
1.0
 40
1.0
 10
-34.2354508471
 20
118.721978567
 30
0.0
 10
-34.2354508471
 20
117.5597824376
 30
0.0
 10
-34.0094905908
 20
115.2971289753
 30
0.0
 10
-32.9272605984
 20
112.1628577615
 30
0.0
 10
-31.1537874711
 20
109.555082559
 30
0.0
 10
-29.5488393129
 20
108.2641269601
 30
0.0
 10
-28.6883584419
 20
107.7671887529
 30
0.0
  0
SPLINE
  5
518
100
AcDbEntity
  8
0
100
AcDbSpline
 62
7
  6
CONTINUOUS
 70
0
 71
3
 72
15
 73
11
 74
0
 42
0.0000001
 43
0.0000001
 44
0.0000000001
 40
0.0
 40
0.0
 40
0.0
 40
0.0
 40
0.2631990618
 40
0.4000304714
 40
0.5344310714
 40
0.6627604017
 40
0.7827204069
 40
0.8941673278
 40
0.9475707063
 40
1.0
 40
1.0
 40
1.0
 40
1.0
 10
-4.4833837078
 20
126.6971832848
 30
0.0
 10
-4.4833837078
 20
123.4220899877
 30
0.0
 10
-5.7432202406
 20
118.3912584398
 30
0.0
 10
-9.1904554787
 20
112.6767088884
 30
0.0
 10
-12.5921726347
 20
108.9951838374
 30
0.0
 10
-16.5405806471
 20
106.2592984157
 30
0.0
 10
-20.7755976679
 20
104.6601024178
 30
0.0
 10
-24.3734045853
 20
104.3961322219
 30
0.0
 10
-27.0452916128
 20
104.8775810665
 30
0.0
 10
-28.2894850633
 20
105.3335332342
 30
0.0
 10
-28.8795751338
 20
105.6117746412
 30
0.0
  0
ELLIPSE
  5
519
100
AcDbEntity
  8
0
100
AcDbEllipse
 62
7
  6
CONTINUOUS
 10
-87.9940546472
 20
406.9447550219
 30
0.0
 11
-80.4292841247
 21
145.5921720887
 31
0.0
 40
0.1999732484
 41
-3.0024680348
 42
-2.9670091357
  0
ELLIPSE
  5
51A
100
AcDbEntity
  8
0
100
AcDbEllipse
 62
7
  6
CONTINUOUS
 10
-87.9940546472
 20
406.9447550219
 30
0.0
 11
-80.4292841247
 21
145.5921720887
 31
0.0
 40
0.1999732484
 41
-3.4151597063
 42
-3.3797008072
  0
ELLIPSE
  5
51B
100
AcDbEntity
  8
0
100
AcDbEllipse
 62
7
  6
CONTINUOUS
 10
92.7010838539
 20
164.9932319328
 30
0.0
 11
-1036.9509071212
 21
1342.9503047008
 31
0.0
 40
0.0124762707
 41
-1.4699910329
 42
-1.4697018508
  0
ELLIPSE
  5
51C
100
AcDbEntity
  8
0
100
AcDbEllipse
 62
7
  6
CONTINUOUS
 10
3.7524779076
 20
284.0957759408
 30
0.0
 11
38.6602727301
 21
20.0690189558
 31
0.0
 40
0.3376338231
 41
-0.7686854494
 42
-0.6382218196
  0
ELLIPSE
  5
51D
100
AcDbEntity
  8
0
100
AcDbEllipse
 62
7
  6
CONTINUOUS
 10
-55.7849083528
 20
230.3394609103
 30
0.0
 11
4.5977905297
 21
9.1412482997
 31
0.0
 40
0.7512579716
 41
0.5899658368
 42
2.1607621635
  0
ELLIPSE
  5
51E
100
AcDbEntity
  8
0
100
AcDbEllipse
 62
7
  6
CONTINUOUS
 10
15.0441204876
 20
248.751141038
 30
0.0
 11
4.5977905297
 21
9.1412482997
 31
0.0
 40
0.7512579716
 41
0.0951641008
 42
0.1598405558
  0
ELLIPSE
  5
51F
100
AcDbEntity
  8
0
100
AcDbEllipse
 62
7
  6
CONTINUOUS
 10
-54.3773695042
 20
230.1423300299
 30
0.0
 11
4.5977905297
 21
9.1412482997
 31
0.0
 40
0.7512579716
 41
0.5899658367
 42
2.1607621635
  0
ELLIPSE
  5
520
100
AcDbEntity
  8
0
100
AcDbEllipse
 62
7
  6
CONTINUOUS
 10
-54.0520852737
 20
229.9437833082
 30
0.0
 11
4.5977905297
 21
9.1412482997
 31
0.0
 40
0.7512579716
 41
0.5899658368
 42
2.1607621635
  0
ENDSEC
  0
SECTION
  2
OBJECTS
  0
DICTIONARY
  5
C
100
AcDbDictionary
280
0
281
1
  3
ACAD_GROUP
350
D
  3
ACAD_MLINESTYLE
350
17
  3
ACAD_LAYOUT
350
1A
  3
ACAD_PLOTSETTINGS
350
19
  3
ACAD_PLOTSTYLENAME
350
E
  0
DICTIONARY
  5
D
102
{ACAD_REACTORS
330
C
102
}
100
AcDbDictionary
280
0
281
1
  0
ACDBDICTIONARYWDFLT
  5
E
102
{ACAD_REACTORS
330
C
102
}
100
AcDbDictionary
281
1
  3
Normal
350
F
100
AcDbDictionaryWithDefault
340
F
  0
DICTIONARY
  5
17
102
{ACAD_REACTORS
330
C
102
}
100
AcDbDictionary
280
0
281
1
  3
Standard
350
18
  0
DICTIONARY
  5
19
102
{ACAD_REACTORS
330
C
102
}
100
AcDbDictionary
281
1
  0
DICTIONARY
  5
1A
102
{ACAD_REACTORS
330
C
102
}
100
AcDbDictionary
281
1
  3
Model
350
521
  3
Layout1
350
522
  0
ACDBPLACEHOLDER
  5
F
102
{ACAD_REACTORS
330
E
102
}
  0
MLINESTYLE
  5
18
102
{ACAD_REACTORS
330
17
102
}
100
AcDbMlineStyle
  2
STANDARD
 70
0
  3

 62
256
 51
90.0
 52
90.0
 71
2
 49
0.5
 62
256
  6
BYLAYER
 49
-0.5
 62
256
  6
BYLAYER
  0
LAYOUT
  5
521
102
{ACAD_REACTORS
330
1A
102
}
100
AcDbPlotSettings
  1

  2
none_device
  4
ANSI_C_(22.00_x_17.00_Inches)
  6

 40
0.0
 41
0.0
 42
0.0
 43
0.0
 44
558.8
 45
431.8
 46
0.0
 47
0.0
 48
0.0
 49
0.0
140
0.0
141
0.0
142
1.0
143
1.0
 70
1024
 72
1
 73
0
 74
0
  7

 75
0
147
1.0
148
0.0
149
0.0
100
AcDbLayout
  1
Model
 70
0
 71
0
 10
0.0
 20
0.0
 11
558.8
 21
431.8
 12
0.0
 22
0.0
 32
0.0
 14
0.0
 24
0.0
 34
0.0
 15
0.0
 25
0.0
 35
0.0
146
0.0
 13
0.0
 23
0.0
 33
0.0
 16
1.0
 26
0.0
 36
0.0
 17
0.0
 27
1.0
 37
0.0
 76
0
330
216
345
0
346
0
  0
LAYOUT
  5
522
102
{ACAD_REACTORS
330
1A
102
}
100
AcDbPlotSettings
  1

  2
none_device
  4
ANSI_C_(22.00_x_17.00_Inches)
  6

 40
0.0
 41
0.0
 42
0.0
 43
0.0
 44
558.8
 45
431.8
 46
0.0
 47
0.0
 48
0.0
 49
0.0
140
0.0
141
0.0
142
1.0
143
1.0
 70
0
 72
1
 73
0
 74
0
  7

 75
0
147
1.0
148
0.0
149
0.0
100
AcDbLayout
  1
Layout1
 70
0
 71
1
 10
0.0
 20
0.0
 11
558.8
 21
431.8
 12
0.0
 22
0.0
 32
0.0
 14
0.0
 24
0.0
 34
0.0
 15
0.0
 25
0.0
 35
0.0
146
0.0
 13
0.0
 23
0.0
 33
0.0
 16
1.0
 26
0.0
 36
0.0
 17
0.0
 27
1.0
 37
0.0
 76
0
330
217
345
0
346
0
  0
ENDSEC
  0
EOF
