999
DXF file: Y:\3D PRATIKA-KAEDRA_OLGA\TRAVAIL_PHASE_11\CAD3D\81194_3D-Simplified\81194_2D-isometric.dxf
999
Pro/ENGINEER 2018260 by Parametric Technology Corporation
  0
SECTION
  2
HEADER
  9
$ACADVER
  1
AC1027
  9
$DWGCODEPAGE
  3
ANSI_1252
  9
$EXTMAX
 10
558.8
 20
431.8
 30
0.0
  9
$EXTMIN
 10
0.0
 20
0.0
 30
0.0
  9
$LIMMIN
 10
0.0
 20
0.0
  9
$LIMMAX
 10
558.8
 20
431.8
  9
$VIEWCTR
 10
279.4
 20
215.9
  9
$VIEWSIZE
 40
431.8
  9
$CLAYER
  8
0
  9
$LTSCALE
 40
30.734
  9
$CELTYPE
  6
BYLAYER
  9
$DIMSCALE
 40
1.0
  9
$DIMASZ
 40
0.1875
  9
$DIMEXO
 40
0.0625
  9
$DIMDLI
 40
21.2344
  9
$DIMEXE
 40
0.125
  9
$DIMCEN
 40
5.0292
  9
$DIMLFAC
 40
1.0
  9
$DIMBLK
  1
_CLOSED
  9
$DIMALT
 70
0
  9
$DIMALTF
 40
0.0393700787
  9
$DIMTXT
 40
0.15625
  9
$DIMTOL
 70
0
  9
$DIMLIM
 70
0
  9
$DIMTFAC
 40
1.0
  9
$DIMGAP
 40
0.625
  9
$DIMDSEP
 70
46
  9
$AUNITS
 70
0
  9
$PDMODE
 70
3
  9
$PDSIZE
 40
0.3125
  9
$HANDSEED
  5
46C
  9
$TILEMODE
 70
1
  9
$MEASUREMENT
 70
1
  9
$INSUNITS
 70
4
  0
ENDSEC
  0
SECTION
  2
CLASSES
  0
CLASS
  1
ACDBDICTIONARYWDFLT
  2
AcDbDictionaryWithDefault
  3
AutoCAD 2000
 90
0
 91
1
280
0
281
0
  0
CLASS
  1
ACDBPLACEHOLDER
  2
AcDbPlaceHolder
  3
AutoCAD 2000
 90
0
 91
1
280
0
281
0
  0
CLASS
  1
LAYOUT
  2
AcDbLayout
  3
AutoCAD 2000
 90
0
 91
0
280
0
281
0
  0
ENDSEC
  0
SECTION
  2
TABLES
  0
TABLE
  2
VPORT
  5
8
100
AcDbSymbolTable
 70
2
  0
VPORT
  5
1F4
100
AcDbSymbolTableRecord
100
AcDbViewportTableRecord
  2
*ACTIVE
 70
0
 10
0.0
 20
0.0
 11
1.0
 21
1.0
 12
279.4
 22
215.9
 13
0.0
 23
0.0
 14
1.0
 24
1.0
 15
0.0
 25
0.0
 16
0.0
 26
0.0
 36
1.0
 17
0.0
 27
0.0
 37
0.0
 40
431.8
 41
1.2941176471
 42
50.0
 43
0.0
 44
0.0
 50
0.0
 51
0.0
 71
0
 72
100
 73
1
 74
1
 75
0
 76
0
 77
0
 78
0
  0
ENDTAB
  0
TABLE
  2
LTYPE
  5
5
100
AcDbSymbolTable
 70
6
  0
LTYPE
  5
14
100
AcDbSymbolTableRecord
100
AcDbLinetypeTableRecord
  2
BYBLOCK
 70
0
  3

 72
65
 73
0
 40
0.0
  0
LTYPE
  5
15
100
AcDbSymbolTableRecord
100
AcDbLinetypeTableRecord
  2
BYLAYER
 70
0
  3

 72
65
 73
0
 40
0.0
  0
LTYPE
  5
16
100
AcDbSymbolTableRecord
100
AcDbLinetypeTableRecord
  2
CONTINUOUS
 70
64
  3
Solid line
 72
65
 73
0
 40
0.0
  0
LTYPE
  5
1F5
100
AcDbSymbolTableRecord
100
AcDbLinetypeTableRecord
  2
CENTER
 70
64
  3
____ _ ____ _ ____ _ ____ _ ____ _ ____ _ ____
 72
65
 73
4
 40
0.6
 49
0.375
 74
0
 49
-0.075
 74
0
 49
0.075
 74
0
 49
-0.075
 74
0
  0
LTYPE
  5
1F6
100
AcDbSymbolTableRecord
100
AcDbLinetypeTableRecord
  2
HIDDEN
 70
64
  3
- - - - - - - - - - - - - - - - - - - -
 72
65
 73
2
 40
0.2
 49
0.1
 74
0
 49
-0.1
 74
0
  0
LTYPE
  5
1F7
100
AcDbSymbolTableRecord
100
AcDbLinetypeTableRecord
  2
PHANTOM
 70
64
  3
_____ _ _ _____ _ _ _____ _ _ _____
 72
65
 73
6
 40
0.8
 49
0.45
 74
0
 49
-0.05
 74
0
 49
0.1
 74
0
 49
-0.05
 74
0
 49
0.1
 74
0
 49
-0.05
 74
0
  0
LTYPE
  5
1F8
100
AcDbSymbolTableRecord
100
AcDbLinetypeTableRecord
  2
DOT
 70
64
  3
. . . . . . . . . . . . . . . . . . . .
 72
65
 73
2
 40
0.2
 49
0.1
 74
0
 49
-0.1
 74
0
  0
LTYPE
  5
1F9
100
AcDbSymbolTableRecord
100
AcDbLinetypeTableRecord
  2
DASHED
 70
64
  3
- - - - - - - - - - - - - - - - - - - -
 72
65
 73
2
 40
0.2
 49
0.1
 74
0
 49
-0.1
 74
0
  0
ENDTAB
  0
TABLE
  2
LAYER
  5
2
100
AcDbSymbolTable
 70
36
  0
LAYER
  5
10
100
AcDbSymbolTableRecord
100
AcDbLayerTableRecord
  2
0
 70
0
 62
7
  6
CONTINUOUS
370
-3
390
F
  0
LAYER
  5
1FA
100
AcDbSymbolTableRecord
100
AcDbLayerTableRecord
  2
DEFAULT_1
 70
0
 62
7
  6
CENTER
370
-3
390
F
  0
LAYER
  5
1FB
100
AcDbSymbolTableRecord
100
AcDbLayerTableRecord
  2
DEFAULT_2
 70
0
 62
8
  6
HIDDEN
370
-3
390
F
  0
LAYER
  5
1FC
100
AcDbSymbolTableRecord
100
AcDbLayerTableRecord
  2
DEFAULT_3
 70
0
 62
7
  6
PHANTOM
370
-3
390
F
  0
LAYER
  5
1FD
100
AcDbSymbolTableRecord
100
AcDbLayerTableRecord
  2
01_ALL_DTM_PLN
 70
0
 62
7
  6
CONTINUOUS
370
-3
390
F
  0
LAYER
  5
1FE
100
AcDbSymbolTableRecord
100
AcDbLayerTableRecord
  2
01__ASM_ALL_DTM_PLN
 70
0
 62
7
  6
CONTINUOUS
370
-3
390
F
  0
LAYER
  5
1FF
100
AcDbSymbolTableRecord
100
AcDbLayerTableRecord
  2
01__ASM_DEF_DTM_PLN
 70
0
 62
7
  6
CONTINUOUS
370
-3
390
F
  0
LAYER
  5
200
100
AcDbSymbolTableRecord
100
AcDbLayerTableRecord
  2
01___PRT_ALL_DTM_PLN
 70
0
 62
7
  6
CONTINUOUS
370
-3
390
F
  0
LAYER
  5
201
100
AcDbSymbolTableRecord
100
AcDbLayerTableRecord
  2
01___PRT_DEF_DTM_PLN
 70
0
 62
7
  6
CONTINUOUS
370
-3
390
F
  0
LAYER
  5
202
100
AcDbSymbolTableRecord
100
AcDbLayerTableRecord
  2
02_ALL_AXES
 70
0
 62
7
  6
CONTINUOUS
370
-3
390
F
  0
LAYER
  5
203
100
AcDbSymbolTableRecord
100
AcDbLayerTableRecord
  2
02__ASM_ALL_AXES
 70
0
 62
7
  6
CONTINUOUS
370
-3
390
F
  0
LAYER
  5
204
100
AcDbSymbolTableRecord
100
AcDbLayerTableRecord
  2
02___PRT_ALL_AXES
 70
0
 62
7
  6
CONTINUOUS
370
-3
390
F
  0
LAYER
  5
205
100
AcDbSymbolTableRecord
100
AcDbLayerTableRecord
  2
03_ALL_CURVES
 70
0
 62
7
  6
CONTINUOUS
370
-3
390
F
  0
LAYER
  5
206
100
AcDbSymbolTableRecord
100
AcDbLayerTableRecord
  2
03__ASM_ALL_CURVES
 70
0
 62
7
  6
CONTINUOUS
370
-3
390
F
  0
LAYER
  5
207
100
AcDbSymbolTableRecord
100
AcDbLayerTableRecord
  2
03___PRT_ALL_CURVES
 70
0
 62
7
  6
CONTINUOUS
370
-3
390
F
  0
LAYER
  5
208
100
AcDbSymbolTableRecord
100
AcDbLayerTableRecord
  2
04_ALL_DTM_PNT
 70
0
 62
7
  6
CONTINUOUS
370
-3
390
F
  0
LAYER
  5
209
100
AcDbSymbolTableRecord
100
AcDbLayerTableRecord
  2
04__ASM_ALL_DTM_PNT
 70
0
 62
7
  6
CONTINUOUS
370
-3
390
F
  0
LAYER
  5
20A
100
AcDbSymbolTableRecord
100
AcDbLayerTableRecord
  2
04___PRT_ALL_DTM_PNT
 70
0
 62
7
  6
CONTINUOUS
370
-3
390
F
  0
LAYER
  5
20B
100
AcDbSymbolTableRecord
100
AcDbLayerTableRecord
  2
05_ALL_DTM_CSYS
 70
0
 62
7
  6
CONTINUOUS
370
-3
390
F
  0
LAYER
  5
20C
100
AcDbSymbolTableRecord
100
AcDbLayerTableRecord
  2
05__ASM_ALL_DTM_CSYS
 70
0
 62
7
  6
CONTINUOUS
370
-3
390
F
  0
LAYER
  5
20D
100
AcDbSymbolTableRecord
100
AcDbLayerTableRecord
  2
05__ASM_DEF_DTM_CSYS
 70
0
 62
7
  6
CONTINUOUS
370
-3
390
F
  0
LAYER
  5
20E
100
AcDbSymbolTableRecord
100
AcDbLayerTableRecord
  2
05___PRT_ALL_DTM_CSYS
 70
0
 62
7
  6
CONTINUOUS
370
-3
390
F
  0
LAYER
  5
20F
100
AcDbSymbolTableRecord
100
AcDbLayerTableRecord
  2
05___PRT_DEF_DTM_CSYS
 70
0
 62
7
  6
CONTINUOUS
370
-3
390
F
  0
LAYER
  5
210
100
AcDbSymbolTableRecord
100
AcDbLayerTableRecord
  2
06_ALL_SURFS
 70
0
 62
7
  6
CONTINUOUS
370
-3
390
F
  0
LAYER
  5
211
100
AcDbSymbolTableRecord
100
AcDbLayerTableRecord
  2
06__ASM_ALL_SURFS
 70
0
 62
7
  6
CONTINUOUS
370
-3
390
F
  0
LAYER
  5
212
100
AcDbSymbolTableRecord
100
AcDbLayerTableRecord
  2
06___PRT_ALL_SURFS
 70
0
 62
7
  6
CONTINUOUS
370
-3
390
F
  0
LAYER
  5
213
100
AcDbSymbolTableRecord
100
AcDbLayerTableRecord
  2
07__ASM_ALL_SKELETONS
 70
0
 62
7
  6
CONTINUOUS
370
-3
390
F
  0
ENDTAB
  0
TABLE
  2
STYLE
  5
3
100
AcDbSymbolTable
 70
1
  0
STYLE
  5
11
100
AcDbSymbolTableRecord
100
AcDbTextStyleTableRecord
  2
STANDARD
 70
0
 40
0.0
 41
0.8
 50
0.0
 71
0
 42
0.2
  3
txt
  4

  0
STYLE
  5
214
100
AcDbSymbolTableRecord
100
AcDbTextStyleTableRecord
  2
TEXTSTYLE_1
 70
0
 40
0.0
 41
0.8
 50
0.0
 71
0
 42
0.2
  3
gdt
  4

  0
ENDTAB
  0
TABLE
  2
VIEW
  5
6
100
AcDbSymbolTable
 70
0
  0
ENDTAB
  0
TABLE
  2
UCS
  5
7
100
AcDbSymbolTable
 70
0
  0
ENDTAB
  0
TABLE
  2
APPID
  5
9
100
AcDbSymbolTable
 70
1
  0
APPID
  5
215
100
AcDbSymbolTableRecord
100
AcDbRegAppTableRecord
  2
ACAD
 70
0
  0
ENDTAB
  0
TABLE
  2
BLOCK_RECORD
  5
1
100
AcDbSymbolTable
 70
0
  0
BLOCK_RECORD
  5
216
100
AcDbSymbolTableRecord
100
AcDbBlockTableRecord
  2
*Model_Space
  0
BLOCK_RECORD
  5
217
100
AcDbSymbolTableRecord
100
AcDbBlockTableRecord
  2
*Paper_Space
  0
BLOCK_RECORD
  5
218
100
AcDbSymbolTableRecord
100
AcDbBlockTableRecord
  2
_CLOSED
  0
ENDTAB
  0
TABLE
  2
DIMSTYLE
  5
A
100
AcDbSymbolTable
 70
1
100
AcDbDimStyleTable
 71
0
  0
DIMSTYLE
105
219
100
AcDbSymbolTableRecord
100
AcDbDimStyleTableRecord
  2
STANDARD
 70
0
  3

  4

 40
1.0
 41
0.1875
 42
0.0625
 43
0.38
 44
0.125
 45
0.0
 46
0.0
 47
0.01
 48
0.01
140
0.15625
141
0.09
142
0.0
143
25.4
144
1.0
145
0.0
146
1.0
147
0.625
 71
0.0
 72
0.0
 73
1
 74
1
 75
0
 76
0
 77
0
 78
8
 79
2
170
0
171
1
172
0
173
0
174
0
175
0
176
0
177
0
178
0
270
2
179
2
271
2
272
2
273
2
274
2
275
0
280
0
281
0
282
0
283
1
284
8
285
0
286
0
287
3
288
0
340
11
278
46
341
218
342
218
343
218
344
218
  0
ENDTAB
  0
ENDSEC
  0
SECTION
  2
BLOCKS
  0
BLOCK
  5
20
100
AcDbEntity
  8
0
100
AcDbBlockBegin
  2
*Model_Space
 70
0
 10
0.0
 20
0.0
 30
0.0
  3
*Model_Space
  1

  0
ENDBLK
  5
21
100
AcDbEntity
  8
0
100
AcDbBlockEnd
  0
BLOCK
  5
1C
100
AcDbEntity
  8
0
100
AcDbBlockBegin
  2
*Paper_Space
 70
0
 10
0.0
 20
0.0
 30
0.0
  3
*Paper_Space
  1

  0
ENDBLK
  5
1D
100
AcDbEntity
  8
0
100
AcDbBlockEnd
  0
BLOCK
  5
21A
100
AcDbEntity
  8
0
100
AcDbBlockBegin
  2
_CLOSED
 70
64
 10
0.0
 20
0.0
  3
_CLOSED
  1

  0
LINE
  5
21B
100
AcDbEntity
  8
0
  6
BYBLOCK
 62
0
100
AcDbLine
 10
0.0
 20
0.0
 11
-1.0
 21
0.1666666667
  0
LINE
  5
21C
100
AcDbEntity
  8
0
  6
BYBLOCK
 62
0
100
AcDbLine
 10
-1.0
 20
0.1666666667
 11
-1.0
 21
-0.1666666667
  0
LINE
  5
21D
100
AcDbEntity
  8
0
  6
BYBLOCK
 62
0
100
AcDbLine
 10
-1.0
 20
-0.1666666667
 11
0.0
 21
0.0
  0
LINE
  5
21E
100
AcDbEntity
  8
0
  6
BYBLOCK
 62
0
100
AcDbLine
 10
-1.0
 20
0.0
 11
0.0
 21
0.0
  0
ENDBLK
  5
21F
100
AcDbEntity
  8
0
  6
BYBLOCK
 62
0
100
AcDbBlockEnd
  0
ENDSEC
  0
SECTION
  2
ENTITIES
  0
LINE
  5
220
100
AcDbEntity
  8
0
100
AcDbLine
 62
7
  6
CONTINUOUS
 10
-221.7278345583
 20
242.7506853925
 11
-221.7278345583
 21
182.074600906
  0
LINE
  5
221
100
AcDbEntity
  8
0
100
AcDbLine
 62
7
  6
CONTINUOUS
 10
-221.7278345583
 20
244.5893546193
 11
-221.7278345583
 21
250.1053622999
  0
LINE
  5
222
100
AcDbEntity
  8
0
100
AcDbLine
 62
7
  6
CONTINUOUS
 10
-221.2278345583
 20
242.7506853925
 11
-221.2278345583
 21
243.5538407133
  0
LINE
  5
223
100
AcDbEntity
  8
0
100
AcDbLine
 62
7
  6
CONTINUOUS
 10
-220.426181879
 20
248.443861317
 11
-220.426181879
 21
242.9278536364
  0
LINE
  5
224
100
AcDbEntity
  8
0
100
AcDbLine
 62
7
  6
CONTINUOUS
 10
-220.426181879
 20
241.0891844096
 11
-220.426181879
 21
180.4130999231
  0
LINE
  5
225
100
AcDbEntity
  8
0
100
AcDbLine
 62
7
  6
CONTINUOUS
 10
-220.0129587243
 20
242.6891836165
 11
-220.0129587243
 21
241.1999511418
  0
LINE
  5
226
100
AcDbEntity
  8
0
100
AcDbLine
 62
7
  6
CONTINUOUS
 10
-211.3248664877
 20
254.4543192192
 11
-210.6040022809
 21
257.5807622971
  0
LINE
  5
227
100
AcDbEntity
  8
0
100
AcDbLine
 62
7
  6
CONTINUOUS
 10
-208.6286567765
 20
253.5106794892
 11
-208.6286567765
 21
266.3024308159
  0
LINE
  5
228
100
AcDbEntity
  8
0
100
AcDbLine
 62
7
  6
CONTINUOUS
 10
-202.2449072241
 20
241.0707775547
 11
-202.2449072241
 21
242.5646341839
  0
LINE
  5
229
100
AcDbEntity
  8
0
100
AcDbLine
 62
7
  6
CONTINUOUS
 10
-202.1833221496
 20
242.3074247896
 11
-202.1833221496
 21
242.1006366192
  0
LINE
  5
22A
100
AcDbEntity
  8
0
100
AcDbLine
 62
7
  6
CONTINUOUS
 10
-201.8581274282
 20
241.7285465822
 11
-201.8581274282
 21
241.9353347526
  0
LINE
  5
22B
100
AcDbEntity
  8
0
100
AcDbLine
 62
7
  6
CONTINUOUS
 10
-198.527257566
 20
242.5953426669
 11
-198.4375247605
 21
243.8550175175
  0
LINE
  5
22C
100
AcDbEntity
  8
0
100
AcDbLine
 62
7
  6
CONTINUOUS
 10
-198.1123300391
 20
243.4829274805
 11
-198.1889347751
 21
242.4075453071
  0
LINE
  5
22D
100
AcDbEntity
  8
0
100
AcDbLine
 62
7
  6
CONTINUOUS
 10
-199.3774844091
 20
243.7278305622
 11
-199.3452278226
 21
243.2837398888
  0
LINE
  5
22E
100
AcDbEntity
  8
0
100
AcDbLine
 62
7
  6
CONTINUOUS
 10
-190.8936666823
 20
276.8921376263
 11
-190.8936667797
 21
271.4572812604
  0
LINE
  5
22F
100
AcDbEntity
  8
0
100
AcDbLine
 62
7
  6
CONTINUOUS
 10
-196.8184707109
 20
251.8568930646
 11
-197.2650603767
 21
237.5124849436
  0
LWPOLYLINE
  5
230
100
AcDbEntity
  8
0
100
AcDbPolyline
 62
7
  6
CONTINUOUS
 90
5
 70
0
 10
-192.4001117485
 20
284.5561347608
 10
-195.9703777762
 20
283.3091805005
 10
-199.8591732102
 20
281.2451029863
 10
-203.5140514544
 20
278.5204603309
 10
-206.5836230637
 20
275.4869863553
  0
LINE
  5
231
100
AcDbEntity
  8
0
100
AcDbLine
 62
7
  6
CONTINUOUS
 10
-100.3721565963
 20
111.4215612804
 11
-98.7192639774
 21
111.8646282092
  0
LINE
  5
232
100
AcDbEntity
  8
0
100
AcDbLine
 62
7
  6
CONTINUOUS
 10
-8.6366162499
 20
136.0117758268
 11
-6.9837236311
 21
136.4548427555
  0
LINE
  5
233
100
AcDbEntity
  8
0
100
AcDbLine
 62
7
  6
CONTINUOUS
 10
-6.9406324156
 20
136.5616149364
 11
-6.6831035842
 21
136.6306469516
  0
LINE
  5
234
100
AcDbEntity
  8
0
100
AcDbLine
 62
7
  6
CONTINUOUS
 10
-8.7492193578
 20
136.0768132907
 11
-98.676172762
 21
111.97140039
  0
LINE
  5
235
100
AcDbEntity
  8
0
100
AcDbLine
 62
7
  6
CONTINUOUS
 10
-100.4847597042
 20
111.4865987443
 11
-100.8979828589
 21
111.3758320121
  0
LINE
  5
236
100
AcDbEntity
  8
0
100
AcDbLine
 62
7
  6
CONTINUOUS
 10
-100.8979828589
 20
111.3758320121
 11
-220.426181879
 21
180.4130999231
  0
LINE
  5
237
100
AcDbEntity
  8
0
100
AcDbLine
 62
7
  6
CONTINUOUS
 10
-100.4847597042
 20
111.4865987443
 11
-100.3721565963
 21
111.4215612804
  0
LINE
  5
238
100
AcDbEntity
  8
0
100
AcDbLine
 62
7
  6
CONTINUOUS
 10
-5.9702956601
 20
138.965932625
 11
-5.5570725054
 21
139.0766993572
  0
LINE
  5
239
100
AcDbEntity
  8
0
100
AcDbLine
 62
7
  6
CONTINUOUS
 10
-99.3587286253
 20
113.9326511498
 11
-99.77195178
 21
113.8218844176
  0
LINE
  5
23A
100
AcDbEntity
  8
0
100
AcDbLine
 62
7
  6
CONTINUOUS
 10
-198.527257566
 20
242.5953426669
 11
-198.6955078648
 21
242.7878558161
  0
LINE
  5
23B
100
AcDbEntity
  8
0
100
AcDbLine
 62
7
  6
CONTINUOUS
 10
-126.4154830455
 20
268.7626518448
 11
-126.4154874076
 21
200.0854549152
  0
LINE
  5
23C
100
AcDbEntity
  8
0
100
AcDbLine
 62
7
  6
CONTINUOUS
 10
-130.5477189547
 20
198.9777875933
 11
-128.6985688589
 21
258.3767596479
  0
LINE
  5
23D
100
AcDbEntity
  8
0
100
AcDbLine
 62
7
  6
CONTINUOUS
 10
-221.7278345583
 20
226.7929664207
 11
-227.1396114655
 21
229.9187082564
  0
LINE
  5
23E
100
AcDbEntity
  8
0
100
AcDbLine
 62
7
  6
CONTINUOUS
 10
-68.2380476118
 20
139.947886838
 11
-68.6321584894
 21
140.1755179616
  0
LINE
  5
23F
100
AcDbEntity
  8
0
100
AcDbLine
 62
7
  6
CONTINUOUS
 10
-66.8300229874
 20
141.3476724163
 11
-67.224133865
 21
141.5753035399
  0
LINE
  5
240
100
AcDbEntity
  8
0
100
AcDbLine
 62
7
  6
CONTINUOUS
 10
-228.3318424185
 20
234.6508259882
 11
-221.7278345583
 21
230.8364736959
  0
LINE
  5
241
100
AcDbEntity
  8
0
100
AcDbLine
 62
7
  6
CONTINUOUS
 10
-67.9319572505
 20
142.4348346129
 11
-68.3260681281
 21
142.6624657365
  0
LINE
  5
242
100
AcDbEntity
  8
0
100
AcDbLine
 62
7
  6
CONTINUOUS
 10
-67.2241406315
 20
141.5752966773
 11
-65.1877317012
 21
140.1153234045
  0
LINE
  5
243
100
AcDbEntity
  8
0
100
AcDbLine
 62
7
  6
CONTINUOUS
 10
-64.7936214459
 20
139.8876912054
 11
-66.830029437
 21
141.347665436
  0
LINE
  5
244
100
AcDbEntity
  8
0
100
AcDbLine
 62
7
  6
CONTINUOUS
 10
-68.2380490752
 20
139.9478881764
 11
-65.7939714615
 21
138.155727706
  0
LINE
  5
245
100
AcDbEntity
  8
0
100
AcDbLine
 62
7
  6
CONTINUOUS
 10
-106.4799204039
 20
190.0719228593
 11
-106.4476638173
 21
189.6278321859
  0
LINE
  5
246
100
AcDbEntity
  8
0
100
AcDbLine
 62
7
  6
CONTINUOUS
 10
-114.968609501
 20
195.9200080891
 11
-114.9688864295
 21
274.436481328
  0
LINE
  5
247
100
AcDbEntity
  8
0
100
AcDbLine
 62
7
  6
CONTINUOUS
 10
-109.3473432188
 20
187.4148698518
 11
-109.3473432188
 21
188.908726481
  0
LINE
  5
248
100
AcDbEntity
  8
0
100
AcDbLine
 62
7
  6
CONTINUOUS
 10
-109.2857581443
 20
188.6515170867
 11
-109.2857581443
 21
188.4447289163
  0
LINE
  5
249
100
AcDbEntity
  8
0
100
AcDbLine
 62
7
  6
CONTINUOUS
 10
-108.9605634229
 20
188.0726388793
 11
-108.9605634229
 21
188.2794270496
  0
LINE
  5
24A
100
AcDbEntity
  8
0
100
AcDbLine
 62
7
  6
CONTINUOUS
 10
-103.6925289385
 20
260.7701283938
 11
-106.0565429897
 21
184.8321391989
  0
LINE
  5
24B
100
AcDbEntity
  8
0
100
AcDbLine
 62
7
  6
CONTINUOUS
 10
-57.5204759936
 20
277.5123102405
 11
-56.2067363456
 21
278.8986926797
  0
LINE
  5
24C
100
AcDbEntity
  8
0
100
AcDbLine
 62
7
  6
CONTINUOUS
 10
-14.2824013134
 20
183.700411886
 11
-78.5196278069
 21
166.4812711323
  0
LINE
  5
24D
100
AcDbEntity
  8
0
100
AcDbLine
 62
7
  6
CONTINUOUS
 10
-18.0243804705
 20
184.2244895315
 11
-68.1719035531
 21
170.7821710264
  0
LINE
  5
24E
100
AcDbEntity
  8
0
100
AcDbLine
 62
7
  6
CONTINUOUS
 10
-70.4437772809
 20
170.6245349564
 11
-70.5402652919
 21
170.598670816
  0
LINE
  5
24F
100
AcDbEntity
  8
0
100
AcDbLine
 62
7
  6
CONTINUOUS
 10
-71.2304560537
 20
170.7465751058
 11
-71.3560121671
 21
170.7129191012
  0
LINE
  5
250
100
AcDbEntity
  8
0
100
AcDbLine
 62
7
  6
CONTINUOUS
 10
-71.3560121671
 20
170.7129191012
 11
-70.5402652919
 21
170.598670816
  0
LINE
  5
251
100
AcDbEntity
  8
0
100
AcDbLine
 62
7
  6
CONTINUOUS
 10
-73.7102434416
 20
171.0938782524
 11
-70.4472559408
 21
170.6368851118
  0
LINE
  5
252
100
AcDbEntity
  8
0
100
AcDbLine
 62
7
  6
CONTINUOUS
 10
-220.426181879
 20
241.0891844096
 11
-100.8979828589
 21
172.0519164986
  0
LINE
  5
253
100
AcDbEntity
  8
0
100
AcDbLine
 62
7
  6
CONTINUOUS
 10
-100.4847597042
 20
172.1626832307
 11
-220.0129587243
 21
241.1999511418
  0
LINE
  5
254
100
AcDbEntity
  8
0
100
AcDbLine
 62
7
  6
CONTINUOUS
 10
-100.8979828589
 20
173.8905857254
 11
-220.426181879
 21
242.9278536364
  0
LINE
  5
255
100
AcDbEntity
  8
0
100
AcDbLine
 62
7
  6
CONTINUOUS
 10
-102.1929185996
 20
180.1545242406
 11
-220.426181879
 21
248.443861317
  0
LINE
  5
256
100
AcDbEntity
  8
0
100
AcDbLine
 62
7
  6
CONTINUOUS
 10
-102.924727026
 20
181.6247325052
 11
-102.1929185996
 21
181.2020271653
  0
LINE
  5
257
100
AcDbEntity
  8
0
100
AcDbLine
 62
7
  6
CONTINUOUS
 10
-102.8819606477
 20
182.9985593956
 11
-106.0565429897
 21
184.8321391989
  0
LINE
  5
258
100
AcDbEntity
  8
0
100
AcDbLine
 62
7
  6
CONTINUOUS
 10
-130.5477189547
 20
198.9777875933
 11
-197.2650603767
 21
237.5124849436
  0
LINE
  5
259
100
AcDbEntity
  8
0
100
AcDbLine
 62
7
  6
CONTINUOUS
 10
-102.1929185996
 20
276.2249913442
 11
-102.1929185996
 21
180.1545242406
  0
LINE
  5
25A
100
AcDbEntity
  8
0
100
AcDbLine
 62
7
  6
CONTINUOUS
 10
-100.8979828589
 20
275.4770605095
 11
-100.8979828589
 21
173.8905857254
  0
LINE
  5
25B
100
AcDbEntity
  8
0
100
AcDbLine
 62
7
  6
CONTINUOUS
 10
-100.8979828589
 20
172.0519164986
 11
-100.8979828589
 21
111.3758320121
  0
LINE
  5
25C
100
AcDbEntity
  8
0
100
AcDbLine
 62
7
  6
CONTINUOUS
 10
-100.4847597042
 20
275.5878272418
 11
-100.4847597042
 21
174.0013524576
  0
LINE
  5
25D
100
AcDbEntity
  8
0
100
AcDbLine
 62
7
  6
CONTINUOUS
 10
-100.4847597042
 20
172.1626832307
 11
-100.4847597042
 21
111.4865987443
  0
LINE
  5
25E
100
AcDbEntity
  8
0
100
AcDbLine
 62
7
  6
CONTINUOUS
 10
-99.77195178
 20
113.8218844176
 11
-99.77195178
 21
274.8266858708
  0
LINE
  5
25F
100
AcDbEntity
  8
0
100
AcDbLine
 62
7
  6
CONTINUOUS
 10
-102.1929185996
 20
205.1333164696
 11
-102.924727026
 21
181.6247341023
  0
LINE
  5
260
100
AcDbEntity
  8
0
100
AcDbLine
 62
7
  6
CONTINUOUS
 10
-100.4847597042
 20
172.1626832307
 11
-100.8979828589
 21
172.0519164986
  0
LINE
  5
261
100
AcDbEntity
  8
0
100
AcDbLine
 62
7
  6
CONTINUOUS
 10
-68.7655121767
 20
182.0405260212
 11
-67.8609060434
 21
182.2830106549
  0
LINE
  5
262
100
AcDbEntity
  8
0
100
AcDbLine
 62
7
  6
CONTINUOUS
 10
-67.034459734
 20
182.5045441193
 11
-66.125158684
 21
182.7482872511
  0
LINE
  5
263
100
AcDbEntity
  8
0
100
AcDbLine
 62
7
  6
CONTINUOUS
 10
-100.4847597042
 20
174.0013524576
 11
-100.8979828589
 21
173.8905857254
  0
LINE
  5
264
100
AcDbEntity
  8
0
100
AcDbLine
 62
7
  6
CONTINUOUS
 10
-38.2504919019
 20
191.4431940494
 11
-28.1418539866
 21
194.152869865
  0
LINE
  5
265
100
AcDbEntity
  8
0
100
AcDbLine
 62
7
  6
CONTINUOUS
 10
-66.4274985288
 20
183.2752646622
 11
-67.1516477877
 21
183.2863710125
  0
LINE
  5
266
100
AcDbEntity
  8
0
100
AcDbLine
 62
7
  6
CONTINUOUS
 10
-78.819546827
 20
177.1892916465
 11
-75.9492271829
 21
176.7872930522
  0
LINE
  5
267
100
AcDbEntity
  8
0
100
AcDbLine
 62
7
  6
CONTINUOUS
 10
-68.7530903304
 20
179.4251519672
 11
-67.8694012945
 21
179.301388138
  0
LINE
  5
268
100
AcDbEntity
  8
0
100
AcDbLine
 62
7
  6
CONTINUOUS
 10
-66.5882678378
 20
179.5277490205
 11
-66.4659425521
 21
179.5106169241
  0
LINE
  5
269
100
AcDbEntity
  8
0
100
AcDbLine
 62
7
  6
CONTINUOUS
 10
-67.109102096
 20
182.0874044478
 11
-67.8609060434
 21
182.2830106549
  0
LINE
  5
26A
100
AcDbEntity
  8
0
100
AcDbLine
 62
7
  6
CONTINUOUS
 10
-67.034459734
 20
182.5045441193
 11
-66.2826557866
 21
182.3089379122
  0
LINE
  5
26B
100
AcDbEntity
  8
0
100
AcDbLine
 62
7
  6
CONTINUOUS
 10
-39.6491285936
 20
150.0162027246
 11
-39.9787687649
 21
150.19887775
  0
LINE
  5
26C
100
AcDbEntity
  8
0
100
AcDbLine
 62
7
  6
CONTINUOUS
 10
-67.9319577131
 20
167.8597067645
 11
-67.6023176838
 21
167.6770318248
  0
LINE
  5
26D
100
AcDbEntity
  8
0
100
AcDbLine
 62
7
  6
CONTINUOUS
 10
-40.9791278872
 20
148.4668982811
 11
-40.7510570062
 21
148.3382769787
  0
LINE
  5
26E
100
AcDbEntity
  8
0
100
AcDbLine
 62
7
  6
CONTINUOUS
 10
-66.6019582443
 20
169.4090118425
 11
-66.8300288559
 21
169.5376333054
  0
LINE
  5
26F
100
AcDbEntity
  8
0
100
AcDbLine
 62
7
  6
CONTINUOUS
 10
-39.3430452167
 20
147.6933574367
 11
-39.7371560943
 21
147.9209885603
  0
LINE
  5
270
100
AcDbEntity
  8
0
100
AcDbLine
 62
7
  6
CONTINUOUS
 10
-38.2411100421
 20
149.4082022083
 11
-38.6352209197
 21
149.6358333319
  0
LINE
  5
271
100
AcDbEntity
  8
0
100
AcDbLine
 62
7
  6
CONTINUOUS
 10
-69.3399756236
 20
168.4677086766
 11
-69.7340865012
 21
168.6953398001
  0
LINE
  5
272
100
AcDbEntity
  8
0
100
AcDbLine
 62
7
  6
CONTINUOUS
 10
-67.9319526453
 20
167.8597041148
 11
-68.3260635229
 21
168.0873352384
  0
LINE
  5
273
100
AcDbEntity
  8
0
100
AcDbLine
 62
7
  6
CONTINUOUS
 10
-114.968609501
 20
195.9200080891
 11
-105.8748789529
 21
190.6676382107
  0
LINE
  5
274
100
AcDbEntity
  8
0
100
AcDbLine
 62
7
  6
CONTINUOUS
 10
-66.83002726
 20
169.5376356814
 11
-66.9211975564
 21
169.5902939514
  0
LINE
  5
275
100
AcDbEntity
  8
0
100
AcDbLine
 62
7
  6
CONTINUOUS
 10
-8.7492193578
 20
136.0768132907
 11
-8.6366162499
 21
136.0117758268
  0
LINE
  5
276
100
AcDbEntity
  8
0
100
AcDbLine
 62
7
  6
CONTINUOUS
 10
-196.97651225
 20
246.7806172109
 11
-208.6286567765
 21
253.5106794892
  0
LINE
  5
277
100
AcDbEntity
  8
0
100
AcDbLine
 62
7
  6
CONTINUOUS
 10
-210.6040022809
 20
257.5807622971
 11
-221.5828052997
 21
263.9219150257
  0
LINE
  5
278
100
AcDbEntity
  8
0
100
AcDbLine
 62
7
  6
CONTINUOUS
 10
-109.2857581443
 20
188.4447289163
 11
-108.6487495192
 21
188.5309232414
  0
LINE
  5
279
100
AcDbEntity
  8
0
100
AcDbLine
 62
7
  6
CONTINUOUS
 10
-68.4242859934
 20
186.0416326468
 11
-68.3019607077
 21
186.0245005504
  0
LINE
  5
27A
100
AcDbEntity
  8
0
100
AcDbLine
 62
7
  6
CONTINUOUS
 10
-67.4755143983
 20
186.2460340148
 11
-67.597839684
 21
186.2631661112
  0
LINE
  5
27B
100
AcDbEntity
  8
0
100
AcDbLine
 62
7
  6
CONTINUOUS
 10
-67.7821910012
 20
186.3574931657
 11
-66.8985019654
 21
186.2337293365
  0
LINE
  5
27C
100
AcDbEntity
  8
0
100
AcDbLine
 62
7
  6
CONTINUOUS
 10
-7.955035162
 20
178.2271087876
 11
-6.1132817051
 21
177.9691645888
  0
LINE
  5
27D
100
AcDbEntity
  8
0
100
AcDbLine
 62
7
  6
CONTINUOUS
 10
0.1748934262
 20
181.6756157367
 11
-1.1846846991
 21
181.8660295453
  0
LINE
  5
27E
100
AcDbEntity
  8
0
100
AcDbLine
 62
7
  6
CONTINUOUS
 10
-8.7287389878
 20
182.9226014938
 11
-32.4549815818
 21
186.2455471421
  0
LINE
  5
27F
100
AcDbEntity
  8
0
100
AcDbLine
 62
7
  6
CONTINUOUS
 10
-11.2673438998
 20
187.32461362
 11
-43.8972189078
 21
191.8945450254
  0
LINE
  5
280
100
AcDbEntity
  8
0
100
AcDbLine
 62
7
  6
CONTINUOUS
 10
-40.415682831
 20
191.7464929334
 11
-38.2504919019
 21
191.4431940494
  0
LINE
  5
281
100
AcDbEntity
  8
0
100
AcDbLine
 62
7
  6
CONTINUOUS
 10
-218.24605279
 20
268.4907509445
 11
-208.6286567765
 21
262.9359216185
  0
LINE
  5
282
100
AcDbEntity
  8
0
100
AcDbLine
 62
7
  6
CONTINUOUS
 10
-39.6491286192
 20
175.441074336
 11
-40.0432394968
 21
175.6687054596
  0
LINE
  5
283
100
AcDbEntity
  8
0
100
AcDbLine
 62
7
  6
CONTINUOUS
 10
-38.2411118466
 20
176.8039252317
 11
-38.6352227242
 21
177.0315563552
  0
LINE
  5
284
100
AcDbEntity
  8
0
100
AcDbLine
 62
7
  6
CONTINUOUS
 10
-94.2844517345
 20
271.6572077567
 11
-78.5196278069
 21
166.4812711323
  0
LINE
  5
285
100
AcDbEntity
  8
0
100
AcDbLine
 62
7
  6
CONTINUOUS
 10
-78.8550757967
 20
177.322058723
 11
-93.0447822703
 21
271.9895079533
  0
LINE
  5
286
100
AcDbEntity
  8
0
100
AcDbLine
 62
7
  6
CONTINUOUS
 10
-90.2297033235
 20
272.0603173774
 11
-75.9492271829
 21
176.7872930522
  0
LINE
  5
287
100
AcDbEntity
  8
0
100
AcDbLine
 62
7
  6
CONTINUOUS
 10
-58.5216594826
 20
291.4095001382
 11
-58.0082124797
 21
294.6054179933
  0
LINE
  5
288
100
AcDbEntity
  8
0
100
AcDbLine
 62
7
  6
CONTINUOUS
 10
-78.5196278069
 20
166.4812711323
 11
-99.77195178
 21
113.8218844176
  0
LINE
  5
289
100
AcDbEntity
  8
0
100
AcDbLine
 62
7
  6
CONTINUOUS
 10
-99.3587286253
 20
113.9326511498
 11
-100.3721565963
 21
111.4215612804
  0
LINE
  5
28A
100
AcDbEntity
  8
0
100
AcDbLine
 62
7
  6
CONTINUOUS
 10
-126.4154874076
 20
200.0854549152
 11
-130.5477189547
 21
198.9777875933
  0
LINE
  5
28B
100
AcDbEntity
  8
0
100
AcDbLine
 62
7
  6
CONTINUOUS
 10
-18.2233672661
 20
192.609078349
 11
-3.0752700608
 21
190.4875312079
  0
LINE
  5
28C
100
AcDbEntity
  8
0
100
AcDbLine
 62
7
  6
CONTINUOUS
 10
-22.6007051499
 20
194.8823404786
 11
5.4513991827
 21
190.9535423283
  0
LINE
  5
28D
100
AcDbEntity
  8
0
100
AcDbLine
 62
7
  6
CONTINUOUS
 10
5.1891923519
 20
192.7028703982
 11
-25.4284485194
 21
196.9909778219
  0
LINE
  5
28E
100
AcDbEntity
  8
0
100
AcDbLine
 62
7
  6
CONTINUOUS
 10
-11.7976242241
 20
197.3955040756
 11
-28.4754231081
 21
199.7312898203
  0
LINE
  5
28F
100
AcDbEntity
  8
0
100
AcDbLine
 62
7
  6
CONTINUOUS
 10
-68.7166653096
 20
181.8566146483
 11
-68.6904766105
 21
181.7779955874
  0
LINE
  5
290
100
AcDbEntity
  8
0
100
AcDbLine
 62
7
  6
CONTINUOUS
 10
-68.7428238952
 20
181.948915581
 11
-68.6904760934
 21
181.7779961297
  0
LINE
  5
291
100
AcDbEntity
  8
0
100
AcDbLine
 62
7
  6
CONTINUOUS
 10
-80.7125626702
 20
273.7588006956
 11
-80.266370774
 21
270.7820055969
  0
LINE
  5
292
100
AcDbEntity
  8
0
100
AcDbLine
 62
7
  6
CONTINUOUS
 10
-80.1491827203
 20
270.0001787037
 11
-79.7029908241
 21
267.0233836049
  0
LINE
  5
293
100
AcDbEntity
  8
0
100
AcDbLine
 62
7
  6
CONTINUOUS
 10
-67.597839684
 20
186.2631661112
 11
-67.1516477877
 21
183.2863710125
  0
LINE
  5
294
100
AcDbEntity
  8
0
100
AcDbLine
 62
7
  6
CONTINUOUS
 10
-67.034459734
 20
182.5045441193
 11
-66.5882678378
 21
179.5277490205
  0
LINE
  5
295
100
AcDbEntity
  8
0
100
AcDbLine
 62
7
  6
CONTINUOUS
 10
-58.5216594826
 20
291.4095001382
 11
-58.5216594826
 21
285.4338251509
  0
LINE
  5
296
100
AcDbEntity
  8
0
100
AcDbLine
 62
7
  6
CONTINUOUS
 10
-58.0082124797
 20
294.6054179933
 11
-58.0082124797
 21
310.2341064216
  0
LINE
  5
297
100
AcDbEntity
  8
0
100
AcDbLine
 62
7
  6
CONTINUOUS
 10
-56.9278933607
 20
301.4312397452
 11
-56.9278933607
 21
285.8025513169
  0
LINE
  5
298
100
AcDbEntity
  8
0
100
AcDbLine
 62
7
  6
CONTINUOUS
 10
-56.2457787929
 20
284.7272405355
 11
-56.2457787929
 21
300.3559289638
  0
LINE
  5
299
100
AcDbEntity
  8
0
100
AcDbLine
 62
7
  6
CONTINUOUS
 10
-98.7192639774
 20
111.8646282092
 11
-76.4535120333
 21
167.0351047932
  0
LINE
  5
29A
100
AcDbEntity
  8
0
100
AcDbLine
 62
7
  6
CONTINUOUS
 10
-81.8313882959
 20
269.3522492327
 11
-81.8051995967
 21
269.2736301718
  0
LINE
  5
29B
100
AcDbEntity
  8
0
100
AcDbLine
 62
7
  6
CONTINUOUS
 10
-81.8575439501
 20
269.4445505242
 11
-81.8051990796
 21
269.2736307141
  0
LINE
  5
29C
100
AcDbEntity
  8
0
100
AcDbLine
 62
7
  6
CONTINUOUS
 10
-56.1410375075
 20
304.9078607166
 11
-56.1992084732
 21
305.856781808
  0
LINE
  5
29D
100
AcDbEntity
  8
0
100
AcDbLine
 62
7
  6
CONTINUOUS
 10
-46.686293299
 20
292.3858118177
 11
-46.686293299
 21
276.7571233893
  0
LINE
  5
29E
100
AcDbEntity
  8
0
100
AcDbLine
 62
7
  6
CONTINUOUS
 10
-45.0102870041
 20
275.8663765274
 11
-45.0102870041
 21
291.4950649557
  0
LINE
  5
29F
100
AcDbEntity
  8
0
100
AcDbLine
 62
7
  6
CONTINUOUS
 10
-57.0103112758
 20
274.1087167551
 11
-57.5204759936
 21
277.5123102405
  0
LINE
  5
2A0
100
AcDbEntity
  8
0
100
AcDbLine
 62
7
  6
CONTINUOUS
 10
-35.0216594826
 20
306.1188539531
 11
-35.0216594826
 21
307.4978558733
  0
LINE
  5
2A1
100
AcDbEntity
  8
0
100
AcDbLine
 62
7
  6
CONTINUOUS
 10
-28.4269801448
 20
285.571075426
 11
-28.4269801448
 21
269.9423869977
  0
LINE
  5
2A2
100
AcDbEntity
  8
0
100
AcDbLine
 62
7
  6
CONTINUOUS
 10
-26.0122388882
 20
269.3718121902
 11
-26.0122388882
 21
285.0005006185
  0
LINE
  5
2A3
100
AcDbEntity
  8
0
100
AcDbLine
 62
7
  6
CONTINUOUS
 10
-81.8802351629
 20
269.5361606056
 11
-80.9756290297
 21
269.7786452393
  0
LINE
  5
2A4
100
AcDbEntity
  8
0
100
AcDbLine
 62
7
  6
CONTINUOUS
 10
-80.1491827203
 20
270.0001787037
 11
-79.2398816703
 21
270.2439218356
  0
LINE
  5
2A5
100
AcDbEntity
  8
0
100
AcDbLine
 62
7
  6
CONTINUOUS
 10
-202.1833221496
 20
242.1006366192
 11
-201.5463135245
 21
242.1868309443
  0
LINE
  5
2A6
100
AcDbEntity
  8
0
100
AcDbLine
 62
7
  6
CONTINUOUS
 10
-198.527257566
 20
242.5953426669
 11
-198.1721340604
 21
242.643394812
  0
LINE
  5
2A7
100
AcDbEntity
  8
0
100
AcDbLine
 62
7
  6
CONTINUOUS
 10
-196.8185126069
 20
251.8568834588
 11
-128.6986016887
 21
258.3767521208
  0
LINE
  5
2A8
100
AcDbEntity
  8
0
100
AcDbLine
 62
7
  6
CONTINUOUS
 10
-103.6925584403
 20
260.7701216297
 11
-102.1929185996
 21
260.9136546242
  0
LINE
  5
2A9
100
AcDbEntity
  8
0
100
AcDbLine
 62
7
  6
CONTINUOUS
 10
-81.8678133166
 20
266.9207865516
 11
-80.9841242808
 21
266.7970227224
  0
LINE
  5
2AA
100
AcDbEntity
  8
0
100
AcDbLine
 62
7
  6
CONTINUOUS
 10
-79.7029908241
 20
267.0233836049
 11
-79.5806655384
 21
267.0062515085
  0
LINE
  5
2AB
100
AcDbEntity
  8
0
100
AcDbLine
 62
7
  6
CONTINUOUS
 10
-80.2238250823
 20
269.5830390322
 11
-80.9756290297
 21
269.7786452393
  0
LINE
  5
2AC
100
AcDbEntity
  8
0
100
AcDbLine
 62
7
  6
CONTINUOUS
 10
-80.1491827203
 20
270.0001787037
 11
-79.3973787729
 21
269.8045724966
  0
LINE
  5
2AD
100
AcDbEntity
  8
0
100
AcDbLine
 62
7
  6
CONTINUOUS
 10
-94.2844517345
 20
271.6572077567
 11
-99.77195178
 21
274.8266858708
  0
LINE
  5
2AE
100
AcDbEntity
  8
0
100
AcDbLine
 62
7
  6
CONTINUOUS
 10
-100.8979828589
 20
275.4770605095
 11
-102.1929185996
 21
276.2249913442
  0
LINE
  5
2AF
100
AcDbEntity
  8
0
100
AcDbLine
 62
7
  6
CONTINUOUS
 10
-99.7392004687
 20
275.1572060737
 11
-100.4847597042
 21
275.5878272418
  0
LINE
  5
2B0
100
AcDbEntity
  8
0
100
AcDbLine
 62
7
  6
CONTINUOUS
 10
-7.955035162
 20
178.2271087876
 11
-9.4328635781
 21
187.1958282352
  0
LINE
  5
2B1
100
AcDbEntity
  8
0
100
AcDbLine
 62
7
  6
CONTINUOUS
 10
-8.7492193578
 20
136.0768132907
 11
-8.7492193578
 21
182.9254698433
  0
LINE
  5
2B2
100
AcDbEntity
  8
0
100
AcDbLine
 62
7
  6
CONTINUOUS
 10
-6.6831035842
 20
137.1997244598
 11
-6.6831035842
 21
136.6306469516
  0
LINE
  5
2B3
100
AcDbEntity
  8
0
100
AcDbLine
 62
7
  6
CONTINUOUS
 10
-4.929768805
 20
282.0245124102
 11
-4.929768805
 21
266.3958239819
  0
LINE
  5
2B4
100
AcDbEntity
  8
0
100
AcDbLine
 62
7
  6
CONTINUOUS
 10
-2.1439150531
 20
266.232286071
 11
-2.1439150531
 21
281.8609744993
  0
LINE
  5
2B5
100
AcDbEntity
  8
0
100
AcDbLine
 62
7
  6
CONTINUOUS
 10
-84.7838860024
 20
281.6099748333
 11
-58.5216594826
 21
288.6497086393
  0
LINE
  5
2B6
100
AcDbEntity
  8
0
100
AcDbLine
 62
7
  6
CONTINUOUS
 10
-58.5216594826
 20
289.9813634694
 11
-88.0468735032
 21
282.0669679739
  0
LINE
  5
2B7
100
AcDbEntity
  8
0
100
AcDbLine
 62
7
  6
CONTINUOUS
 10
-79.542221515
 20
270.7708992466
 11
-80.266370774
 21
270.7820055969
  0
LINE
  5
2B8
100
AcDbEntity
  8
0
100
AcDbLine
 62
7
  6
CONTINUOUS
 10
-90.2297033235
 20
272.0603173774
 11
-93.0626143657
 21
272.4570767624
  0
LINE
  5
2B9
100
AcDbEntity
  8
0
100
AcDbLine
 62
7
  6
CONTINUOUS
 10
-81.5390089797
 20
273.5372672313
 11
-81.416683694
 21
273.5201351348
  0
LINE
  5
2BA
100
AcDbEntity
  8
0
100
AcDbLine
 62
7
  6
CONTINUOUS
 10
-80.5902373846
 20
273.7416685992
 11
-80.7125626702
 21
273.7588006956
  0
LINE
  5
2BB
100
AcDbEntity
  8
0
100
AcDbLine
 62
7
  6
CONTINUOUS
 10
-80.8969139875
 20
273.8531277501
 11
-80.0132249516
 21
273.7293639209
  0
LINE
  5
2BC
100
AcDbEntity
  8
0
100
AcDbLine
 62
7
  6
CONTINUOUS
 10
-57.0103112758
 20
274.1087167551
 11
-50.3742939376
 21
273.1793186488
  0
LINE
  5
2BD
100
AcDbEntity
  8
0
100
AcDbLine
 62
7
  6
CONTINUOUS
 10
-88.0468735032
 20
282.0669679739
 11
-84.7838860024
 21
281.6099748333
  0
LINE
  5
2BE
100
AcDbEntity
  8
0
100
AcDbLine
 62
7
  6
CONTINUOUS
 10
-92.6335197646
 20
286.426073981
 11
-91.9805925722
 21
286.0489553606
  0
LINE
  5
2BF
100
AcDbEntity
  8
0
100
AcDbLine
 62
7
  6
CONTINUOUS
 10
-93.9284555053
 20
287.6336721223
 11
-92.6335197646
 21
286.8857412877
  0
LINE
  5
2C0
100
AcDbEntity
  8
0
100
AcDbLine
 62
7
  6
CONTINUOUS
 10
-91.5074886858
 20
286.2353666489
 11
-87.5285842313
 21
283.9372253311
  0
LINE
  5
2C1
100
AcDbEntity
  8
0
100
AcDbLine
 62
7
  6
CONTINUOUS
 10
-7.486561964
 20
187.1310834367
 11
-6.1132817051
 21
177.9691645888
  0
LINE
  5
2C2
100
AcDbEntity
  8
0
100
AcDbLine
 62
7
  6
CONTINUOUS
 10
-2.8130639116
 20
188.7382076845
 11
-3.0752700608
 21
190.4875312079
  0
LINE
  5
2C3
100
AcDbEntity
  8
0
100
AcDbLine
 62
7
  6
CONTINUOUS
 10
10.2406924581
 20
182.7863074329
 11
-8.6366162499
 21
136.0117758268
  0
LINE
  5
2C4
100
AcDbEntity
  8
0
100
AcDbLine
 62
7
  6
CONTINUOUS
 10
-6.9837236311
 20
136.4548427555
 11
-5.9702956601
 21
138.965932625
  0
LINE
  5
2C5
100
AcDbEntity
  8
0
100
AcDbLine
 62
7
  6
CONTINUOUS
 10
-5.5570725054
 20
139.0766993572
 11
12.5687495094
 21
183.9891838555
  0
LINE
  5
2C6
100
AcDbEntity
  8
0
100
AcDbLine
 62
7
  6
CONTINUOUS
 10
-87.3100055149
 20
282.4789647547
 11
-58.5216594826
 21
290.1958387459
  0
LINE
  5
2C7
100
AcDbEntity
  8
0
100
AcDbLine
 62
7
  6
CONTINUOUS
 10
-87.5285842313
 20
283.9372253311
 11
-58.4707576939
 21
291.7263350492
  0
LINE
  5
2C8
100
AcDbEntity
  8
0
100
AcDbLine
 62
7
  6
CONTINUOUS
 10
-91.5074886858
 20
286.2353666489
 11
-58.0082124797
 21
295.2150313017
  0
LINE
  5
2C9
100
AcDbEntity
  8
0
100
AcDbLine
 62
7
  6
CONTINUOUS
 10
-208.6286567765
 20
255.1770530147
 11
-218.450451104
 21
252.5442671955
  0
LINE
  5
2CA
100
AcDbEntity
  8
0
100
AcDbLine
 62
7
  6
CONTINUOUS
 10
-92.6335197646
 20
286.426073981
 11
-58.0082124797
 21
295.7075774382
  0
LINE
  5
2CB
100
AcDbEntity
  8
0
100
AcDbLine
 62
7
  6
CONTINUOUS
 10
-58.0082124797
 20
296.1672447448
 11
-92.6335197646
 21
286.8857412877
  0
LINE
  5
2CC
100
AcDbEntity
  8
0
100
AcDbLine
 62
7
  6
CONTINUOUS
 10
-58.0082124797
 20
297.2622902045
 11
-93.9284555053
 21
287.6336721223
  0
LINE
  5
2CD
100
AcDbEntity
  8
0
100
AcDbLine
 62
7
  6
CONTINUOUS
 10
-99.3656045792
 20
283.8548238164
 11
-191.7058728319
 21
284.6486805519
  0
LINE
  5
2CE
100
AcDbEntity
  8
0
100
AcDbLine
 62
7
  6
CONTINUOUS
 10
5.1891923519
 20
192.7028703982
 11
5.4513991827
 21
190.9535423283
  0
LINE
  5
2CF
100
AcDbEntity
  8
0
100
AcDbLine
 62
7
  6
CONTINUOUS
 10
20.228103297
 20
282.2860548396
 11
20.228103297
 21
266.6573664113
  0
LINE
  5
2D0
100
AcDbEntity
  8
0
100
AcDbLine
 62
7
  6
CONTINUOUS
 10
22.9609485641
 20
266.9257625615
 11
22.9609485641
 21
282.5544509899
  0
LINE
  5
2D1
100
AcDbEntity
  8
0
100
AcDbLine
 62
7
  6
CONTINUOUS
 10
-192.3998813567
 20
284.5562084113
 11
-191.7059285115
 21
284.6486803386
  0
LINE
  5
2D2
100
AcDbEntity
  8
0
100
AcDbLine
 62
7
  6
CONTINUOUS
 10
-151.9659074705
 20
295.3012108604
 11
-152.6598603158
 21
295.2087389331
  0
LWPOLYLINE
  5
2D3
100
AcDbEntity
  8
0
100
AcDbPolyline
 62
7
  6
CONTINUOUS
 90
3
 70
0
 10
-146.957229889
 20
296.0226991943
 10
-149.9738780269
 20
295.7695773966
 10
-152.6597124903
 20
295.2087668607
  0
LINE
  5
2D4
100
AcDbEntity
  8
0
100
AcDbLine
 62
7
  6
CONTINUOUS
 10
-151.965734909
 20
295.3012504332
 11
-58.5736776608
 21
297.1107141624
  0
LINE
  5
2D5
100
AcDbEntity
  8
0
100
AcDbLine
 62
7
  6
CONTINUOUS
 10
-58.0082124797
 20
297.5824388171
 11
-146.9566380656
 21
296.0226443603
  0
LINE
  5
2D6
100
AcDbEntity
  8
0
100
AcDbLine
 62
7
  6
CONTINUOUS
 10
-192.4014919726
 20
284.5557761395
 11
-192.3998813567
 21
284.5562084113
  0
LINE
  5
2D7
100
AcDbEntity
  8
0
100
AcDbLine
 62
7
  6
CONTINUOUS
 10
-151.965734909
 20
295.3012504332
 11
-191.7058728319
 21
284.6486805519
  0
LINE
  5
2D8
100
AcDbEntity
  8
0
100
AcDbLine
 62
7
  6
CONTINUOUS
 10
-152.6598603158
 20
295.2087389331
 11
-192.3998813567
 21
284.5562084113
  0
LINE
  5
2D9
100
AcDbEntity
  8
0
100
AcDbLine
 62
7
  6
CONTINUOUS
 10
43.2165781903
 20
286.3158852503
 11
43.2165781903
 21
270.687196822
  0
LINE
  5
2DA
100
AcDbEntity
  8
0
100
AcDbLine
 62
7
  6
CONTINUOUS
 10
45.4803640539
 20
271.3466661525
 11
45.4803640539
 21
286.9753545808
  0
LINE
  5
2DB
100
AcDbEntity
  8
0
100
AcDbLine
 62
7
  6
CONTINUOUS
 10
46.9783405174
 20
306.1188539531
 11
46.9783405174
 21
307.4978558733
  0
LINE
  5
2DC
100
AcDbEntity
  8
0
100
AcDbLine
 62
7
  6
CONTINUOUS
 10
70.4783405174
 20
291.4095001382
 11
69.9648935144
 21
288.2135822832
  0
LINE
  5
2DD
100
AcDbEntity
  8
0
100
AcDbLine
 62
7
  6
CONTINUOUS
 10
60.5358689633
 20
293.5004984928
 11
60.5358689633
 21
277.8718100645
  0
LINE
  5
2DE
100
AcDbEntity
  8
0
100
AcDbLine
 62
7
  6
CONTINUOUS
 10
61.985954547
 20
278.8219543477
 11
61.985954547
 21
294.4506427761
  0
LINE
  5
2DF
100
AcDbEntity
  8
0
100
AcDbLine
 62
7
  6
CONTINUOUS
 10
68.8845743954
 20
312.645137388
 11
68.8845743954
 21
305.7621887359
  0
LINE
  5
2E0
100
AcDbEntity
  8
0
100
AcDbLine
 62
7
  6
CONTINUOUS
 10
68.0977185422
 20
309.1685164166
 11
68.1558895079
 21
308.2195953251
  0
LINE
  5
2E1
100
AcDbEntity
  8
0
100
AcDbLine
 62
7
  6
CONTINUOUS
 10
69.5492705956
 20
302.7461023295
 11
69.5492705956
 21
287.1174139012
  0
LINE
  5
2E2
100
AcDbEntity
  8
0
100
AcDbLine
 62
7
  6
CONTINUOUS
 10
69.9648935144
 20
288.2135822832
 11
69.9648935144
 21
303.8422707115
  0
LINE
  5
2E3
100
AcDbEntity
  8
0
100
AcDbLine
 62
7
  6
CONTINUOUS
 10
70.4783405174
 20
291.4095001382
 11
70.4783405174
 21
285.4338251509
  0
LINE
  5
2E4
100
AcDbEntity
  8
0
100
AcDbLine
 62
7
  6
CONTINUOUS
 10
64.3635749607
 20
306.1809144824
 11
64.3725413512
 21
306.123531703
  0
LINE
  5
2E5
100
AcDbEntity
  8
0
100
AcDbLine
 62
7
  6
CONTINUOUS
 10
64.3236957644
 20
306.179930031
 11
64.3411915845
 21
306.1227887617
  0
ARC
  5
2E6
100
AcDbEntity
  8
0
100
AcDbCircle
 62
7
  6
CONTINUOUS
 10
-170.9928723421
 20
232.1647057853
 40
47.0639728841
100
AcDbArc
 50
143.1071181781
 51
147.3141753613
  0
ARC
  5
2E7
100
AcDbEntity
  8
0
100
AcDbCircle
 62
7
  6
CONTINUOUS
 10
-182.3123989927
 20
238.7444870411
 40
46.6483407147
100
AcDbArc
 50
140.3816778515
 51
147.334857437
  0
ARC
  5
2E8
100
AcDbEntity
  8
0
100
AcDbCircle
 62
7
  6
CONTINUOUS
 10
-76.9812822963
 20
221.6681353738
 40
39.8207647327
100
AcDbArc
 50
281.8157971512
 51
284.1391708232
  0
ARC
  5
2E9
100
AcDbEntity
  8
0
100
AcDbCircle
 62
7
  6
CONTINUOUS
 10
-180.5977982397
 20
254.4979885287
 40
32.5776678674
100
AcDbArc
 50
135.0936097358
 51
137.5730941419
  0
ARC
  5
2EA
100
AcDbEntity
  8
0
100
AcDbCircle
 62
7
  6
CONTINUOUS
 10
-206.2508018571
 20
242.7856109433
 40
24.089301595
100
AcDbArc
 50
218.6933753322
 51
229.9607317736
  0
ARC
  5
2EB
100
AcDbEntity
  8
0
100
AcDbCircle
 62
7
  6
CONTINUOUS
 10
-185.8757700267
 20
262.746643648
 40
22.6647022795
100
AcDbArc
 50
104.9059141382
 51
106.6020112653
  0
ARC
  5
2EC
100
AcDbEntity
  8
0
100
AcDbCircle
 62
7
  6
CONTINUOUS
 10
-208.3621222885
 20
239.0012359861
 40
19.7640161894
100
AcDbArc
 50
220.8166019765
 51
227.3535251336
  0
ARC
  5
2ED
100
AcDbEntity
  8
0
100
AcDbCircle
 62
7
  6
CONTINUOUS
 10
-90.6833061256
 20
275.4768804083
 40
10.2146767349
100
AcDbArc
 50
179.1756617896
 51
179.9989897829
  0
ARC
  5
2EE
100
AcDbEntity
  8
0
100
AcDbCircle
 62
7
  6
CONTINUOUS
 10
-72.6411225925
 20
158.8327954146
 40
10.1847460685
100
AcDbArc
 50
71.0873432372
 51
76.8503900654
  0
ARC
  5
2EF
100
AcDbEntity
  8
0
100
AcDbCircle
 62
7
  6
CONTINUOUS
 10
-72.9899111634
 20
159.2032858431
 40
10.0349097223
100
AcDbArc
 50
71.0677654838
 51
72.7934259207
  0
ARC
  5
2F0
100
AcDbEntity
  8
0
100
AcDbCircle
 62
7
  6
CONTINUOUS
 10
-90.4957776613
 20
278.9117826444
 40
8.2555410329
100
AcDbArc
 50
105.0075506505
 51
106.1393576247
  0
ARC
  5
2F1
100
AcDbEntity
  8
0
100
AcDbCircle
 62
7
  6
CONTINUOUS
 10
-198.5531873344
 20
248.3195915924
 40
7.1204554141
100
AcDbArc
 50
277.6384475996
 51
281.4098195257
  0
ARC
  5
2F2
100
AcDbEntity
  8
0
100
AcDbCircle
 62
7
  6
CONTINUOUS
 10
-85.6793236874
 20
276.4170605856
 40
6.2774043504
100
AcDbArc
 50
105.0564199196
 51
112.6553665482
  0
ARC
  5
2F3
100
AcDbEntity
  8
0
100
AcDbCircle
 62
7
  6
CONTINUOUS
 10
-72.7432353705
 20
177.0516044774
 40
6.0555043659
100
AcDbArc
 50
235.07572335
 51
239.5368893977
  0
ARC
  5
2F4
100
AcDbEntity
  8
0
100
AcDbCircle
 62
7
  6
CONTINUOUS
 10
-72.754279164
 20
177.034906156
 40
6.0354797472
100
AcDbArc
 50
235.084928309
 51
240.5308536305
  0
ARC
  5
2F5
100
AcDbEntity
  8
0
100
AcDbCircle
 62
7
  6
CONTINUOUS
 10
-72.0160301436
 20
176.3671703608
 40
5.979768598
100
AcDbArc
 50
248.8679548115
 51
252.4292194281
  0
ARC
  5
2F6
100
AcDbEntity
  8
0
100
AcDbCircle
 62
7
  6
CONTINUOUS
 10
-72.8027247108
 20
176.9531168001
 40
5.9404523837
100
AcDbArc
 50
239.5498672676
 51
240.547261056
  0
ARC
  5
2F7
100
AcDbEntity
  8
0
100
AcDbCircle
 62
7
  6
CONTINUOUS
 10
-72.8283848923
 20
176.9069464911
 40
5.8876318117
100
AcDbArc
 50
240.5437743073
 51
244.1116737061
  0
ARC
  5
2F8
100
AcDbEntity
  8
0
100
AcDbCircle
 62
7
  6
CONTINUOUS
 10
-72.0590592603
 20
176.230089631
 40
5.8360936248
100
AcDbArc
 50
252.4256766678
 51
262.0007077882
  0
ARC
  5
2F9
100
AcDbEntity
  8
0
100
AcDbCircle
 62
7
  6
CONTINUOUS
 10
-198.7449072241
 20
238.3127737144
 40
5.8
100
AcDbArc
 50
73.1786923974
 51
119.8457002033
  0
ARC
  5
2FA
100
AcDbEntity
  8
0
100
AcDbCircle
 62
7
  6
CONTINUOUS
 10
-105.8473432188
 20
184.6568660115
 40
5.8
100
AcDbArc
 50
90.3312743774
 51
119.8457002033
  0
ARC
  5
2FB
100
AcDbEntity
  8
0
100
AcDbCircle
 62
7
  6
CONTINUOUS
 10
-72.8890013973
 20
176.2565345703
 40
5.7471495006
100
AcDbArc
 50
267.4711620448
 51
270.0582060662
  0
ARC
  5
2FC
100
AcDbEntity
  8
0
100
AcDbCircle
 62
7
  6
CONTINUOUS
 10
-72.9035921504
 20
176.740819198
 40
5.7053411333
100
AcDbArc
 50
244.0627237997
 51
254.5524909665
  0
ARC
  5
2FD
100
AcDbEntity
  8
0
100
AcDbCircle
 62
7
  6
CONTINUOUS
 10
-72.9323474706
 20
176.6436373435
 40
5.6040111485
100
AcDbArc
 50
254.5712175167
 51
261.0230200973
  0
ARC
  5
2FE
100
AcDbEntity
  8
0
100
AcDbCircle
 62
7
  6
CONTINUOUS
 10
-72.074310562
 20
180.6560728552
 40
4.9734731482
100
AcDbArc
 50
344.0465616013
 51
344.4835679472
  0
ARC
  5
2FF
100
AcDbEntity
  8
0
100
AcDbCircle
 62
7
  6
CONTINUOUS
 10
-85.1890335482
 20
268.1517074396
 40
4.9734731482
100
AcDbArc
 50
344.0465616013
 51
344.4835679472
  0
ARC
  5
300
100
AcDbEntity
  8
0
100
AcDbCircle
 62
7
  6
CONTINUOUS
 10
-80.8262505881
 20
270.3151031517
 40
2.5782900535
100
AcDbArc
 50
358.0364592192
 51
8.4630853243
  0
ARC
  5
301
100
AcDbEntity
  8
0
100
AcDbCircle
 62
7
  6
CONTINUOUS
 10
-79.3652942111
 20
270.0984276065
 40
2.5782896751
100
AcDbArc
 50
178.0364593019
 51
188.4630860903
  0
ARC
  5
302
100
AcDbEntity
  8
0
100
AcDbCircle
 62
7
  6
CONTINUOUS
 10
-80.6434689656
 20
269.2363356321
 40
2.46298467
100
AcDbArc
 50
262.0499372237
 51
275.5067890886
  0
ARC
  5
303
100
AcDbEntity
  8
0
100
AcDbCircle
 62
7
  6
CONTINUOUS
 10
-80.3538802668
 20
271.2900510112
 40
2.46298467
100
AcDbArc
 50
82.0499372237
 51
95.5067890886
  0
ARC
  5
304
100
AcDbEntity
  8
0
100
AcDbCircle
 62
7
  6
CONTINUOUS
 10
-79.4991243063
 20
270.0802416502
 40
2.443241001
100
AcDbArc
 50
188.5031432322
 51
197.3352196554
  0
ARC
  5
305
100
AcDbEntity
  8
0
100
AcDbCircle
 62
7
  6
CONTINUOUS
 10
-81.1590256083
 20
270.3617971316
 40
1.9227605259
100
AcDbArc
 50
356.4852645303
 51
8.4956734555
  0
ARC
  5
306
100
AcDbEntity
  8
0
100
AcDbCircle
 62
7
  6
CONTINUOUS
 10
-81.068972774
 20
270.3753674315
 40
1.8316910387
100
AcDbArc
 50
8.4919992008
 51
14.7623876638
  0
ARC
  5
307
100
AcDbEntity
  8
0
100
AcDbCircle
 62
7
  6
CONTINUOUS
 10
-220.5428933792
 20
244.5902357132
 40
1.1848196364
100
AcDbArc
 50
180.0426173751
 51
192.0056227625
  0
ARC
  5
308
100
AcDbEntity
  8
0
100
AcDbCircle
 62
7
  6
CONTINUOUS
 10
-90.0960052826
 20
309.1637699584
 40
39.8207647328
100
AcDbArc
 50
281.8157971512
 51
284.1391708232
  0
ARC
  5
309
100
AcDbEntity
  8
0
100
AcDbCircle
 62
7
  6
CONTINUOUS
 10
6.1399228037
 20
172.7958876749
 40
159.6181508127
100
AcDbArc
 50
86.1395570531
 51
87.1412882838
  0
ARC
  5
30A
100
AcDbEntity
  8
0
100
AcDbCircle
 62
7
  6
CONTINUOUS
 10
5.1715028448
 20
180.8653776285
 40
151.5224444021
100
AcDbArc
 50
95.0899184235
 51
96.1282859478
  0
ARC
  5
30B
100
AcDbEntity
  8
0
100
AcDbCircle
 62
7
  6
CONTINUOUS
 10
11.4071634003
 20
157.0078678073
 40
125.588347894
100
AcDbArc
 50
85.9724042448
 51
91.1070112168
  0
ARC
  5
30C
100
AcDbEntity
  8
0
100
AcDbCircle
 62
7
  6
CONTINUOUS
 10
11.2951451381
 20
159.1120354508
 40
123.4824294236
100
AcDbArc
 50
91.0739070438
 51
96.2480927661
  0
ARC
  5
30D
100
AcDbEntity
  8
0
100
AcDbCircle
 62
7
  6
CONTINUOUS
 10
13.2783917459
 20
219.18756443
 40
112.6279863731
100
AcDbArc
 50
76.0743882603
 51
77.3366607846
  0
ARC
  5
30E
100
AcDbEntity
  8
0
100
AcDbCircle
 62
7
  6
CONTINUOUS
 10
-5.6720668164
 20
235.7089302539
 40
95.5417555826
100
AcDbArc
 50
105.5344840041
 51
106.9485290184
  0
ARC
  5
30F
100
AcDbEntity
  8
0
100
AcDbCircle
 62
7
  6
CONTINUOUS
 10
34.0446561283
 20
277.4291434631
 40
50.6374438823
100
AcDbArc
 50
60.9368506672
 51
63.0845519797
  0
ARC
  5
310
100
AcDbEntity
  8
0
100
AcDbCircle
 62
7
  6
CONTINUOUS
 10
-28.5887412217
 20
288.4853632327
 40
37.8076597883
100
AcDbArc
 50
121.9204052207
 51
124.5478940188
  0
ARC
  5
311
100
AcDbEntity
  8
0
100
AcDbCircle
 62
7
  6
CONTINUOUS
 10
-6.8758938812
 20
218.7694821373
 40
31.750042238
100
AcDbArc
 50
262.0497473653
 51
272.8400626876
  0
ARC
  5
312
100
AcDbEntity
  8
0
100
AcDbCircle
 62
7
  6
CONTINUOUS
 10
-6.7353137724
 20
219.8011757461
 40
29.5412487724
100
AcDbArc
 50
262.0589345759
 51
277.1170097423
  0
ARC
  5
313
100
AcDbEntity
  8
0
100
AcDbCircle
 62
7
  6
CONTINUOUS
 10
-43.5687515566
 20
153.0731245469
 40
28.4985450551
100
AcDbArc
 50
144.4489974708
 51
144.7088500168
  0
ARC
  5
314
100
AcDbEntity
  8
0
100
AcDbCircle
 62
7
  6
CONTINUOUS
 10
-25.5281719289
 20
162.1231681718
 40
19.8508140711
100
AcDbArc
 50
130.2259580604
 51
131.3210472959
  0
ARC
  5
315
100
AcDbEntity
  8
0
100
AcDbCircle
 62
7
  6
CONTINUOUS
 10
-25.2748505527
 20
162.0603581151
 40
19.6340699611
100
AcDbArc
 50
127.609041385
 51
131.3300698696
  0
ARC
  5
316
100
AcDbEntity
  8
0
100
AcDbCircle
 62
7
  6
CONTINUOUS
 10
76.596697601
 20
287.8025160454
 40
16.2732598915
100
AcDbArc
 50
136.6613225022
 51
137.6403053921
  0
ARC
  5
317
100
AcDbEntity
  8
0
100
AcDbCircle
 62
7
  6
CONTINUOUS
 10
55.6242962174
 20
304.9875910473
 40
15.3125110063
100
AcDbArc
 50
30.0055773689
 51
34.7717500301
  0
ARC
  5
318
100
AcDbEntity
  8
0
100
AcDbCircle
 62
7
  6
CONTINUOUS
 10
-49.2680320798
 20
166.8134579007
 40
12.9195964614
100
AcDbArc
 50
48.758882117
 51
49.1874357875
  0
ARC
  5
319
100
AcDbEntity
  8
0
100
AcDbCircle
 62
7
  6
CONTINUOUS
 10
-27.4707713558
 20
171.8534391584
 40
10.9919156949
100
AcDbArc
 50
59.9933401117
 51
62.0704613684
  0
ARC
  5
31A
100
AcDbEntity
  8
0
100
AcDbCircle
 62
7
  6
CONTINUOUS
 10
-35.5038289504
 20
157.9441646375
 40
10.9456212726
100
AcDbArc
 50
238.9816505496
 51
239.9836948294
  0
ARC
  5
31B
100
AcDbEntity
  8
0
100
AcDbCircle
 62
7
  6
CONTINUOUS
 10
-28.3281126167
 20
171.2665546111
 40
9.9289373803
100
AcDbArc
 50
60.0297627812
 51
73.1326695733
  0
ARC
  5
31C
100
AcDbEntity
  8
0
100
AcDbCircle
 62
7
  6
CONTINUOUS
 10
55.1803887709
 20
304.7164851485
 40
9.2992176588
100
AcDbArc
 50
8.1458044306
 51
8.7027379731
  0
ARC
  5
31D
100
AcDbEntity
  8
0
100
AcDbCircle
 62
7
  6
CONTINUOUS
 10
-43.2597758122
 20
304.7223028982
 40
9.2626628381
100
AcDbArc
 50
171.3207462713
 51
173.5834361385
  0
ARC
  5
31E
100
AcDbEntity
  8
0
100
AcDbCircle
 62
7
  6
CONTINUOUS
 10
-19.7182887057
 20
213.8734842785
 40
8.6246304909
100
AcDbArc
 50
344.2481985127
 51
0.2055570501
  0
ARC
  5
31F
100
AcDbEntity
  8
0
100
AcDbCircle
 62
7
  6
CONTINUOUS
 10
-71.6030344857
 20
177.083037494
 40
6.8097857666
100
AcDbArc
 50
231.6251852731
 51
232.6858905972
  0
ARC
  5
320
100
AcDbEntity
  8
0
100
AcDbCircle
 62
7
  6
CONTINUOUS
 10
4.0933977509
 20
239.6593602864
 40
3.988425123
100
AcDbArc
 50
81.5292999313
 51
82.0327585582
  0
ARC
  5
321
100
AcDbEntity
  8
0
100
AcDbCircle
 62
7
  6
CONTINUOUS
 10
-31.0305703995
 20
230.2441880518
 40
3.9884251213
100
AcDbArc
 50
81.5292999312
 51
82.0327585584
  0
ARC
  5
322
100
AcDbEntity
  8
0
100
AcDbCircle
 62
7
  6
CONTINUOUS
 10
-16.5651181404
 20
255.610465669
 40
3.9884251214
100
AcDbArc
 50
81.5292999313
 51
82.0327585584
  0
ARC
  5
323
100
AcDbEntity
  8
0
100
AcDbCircle
 62
7
  6
CONTINUOUS
 10
-67.7115276018
 20
182.8194685673
 40
2.5782900535
100
AcDbArc
 50
358.0364592192
 51
8.4630853243
  0
ARC
  5
324
100
AcDbEntity
  8
0
100
AcDbCircle
 62
7
  6
CONTINUOUS
 10
-66.2505712248
 20
182.6027930221
 40
2.5782896751
100
AcDbArc
 50
178.0364593019
 51
188.4630860903
  0
ARC
  5
325
100
AcDbEntity
  8
0
100
AcDbCircle
 62
7
  6
CONTINUOUS
 10
-67.5287459793
 20
181.7407010477
 40
2.46298467
100
AcDbArc
 50
262.0499372236
 51
275.5067890886
  0
ARC
  5
326
100
AcDbEntity
  8
0
100
AcDbCircle
 62
7
  6
CONTINUOUS
 10
-67.2391572806
 20
183.7944164268
 40
2.46298467
100
AcDbArc
 50
82.0499372236
 51
95.5067890887
  0
ARC
  5
327
100
AcDbEntity
  8
0
100
AcDbCircle
 62
7
  6
CONTINUOUS
 10
-66.3844013201
 20
182.5846070658
 40
2.443241001
100
AcDbArc
 50
188.5031432322
 51
197.3352196554
  0
ARC
  5
328
100
AcDbEntity
  8
0
100
AcDbCircle
 62
7
  6
CONTINUOUS
 10
-68.044302622
 20
182.8661625472
 40
1.9227605259
100
AcDbArc
 50
356.4852645304
 51
8.4956734555
  0
ARC
  5
329
100
AcDbEntity
  8
0
100
AcDbCircle
 62
7
  6
CONTINUOUS
 10
-67.9542497878
 20
182.8797328471
 40
1.8316910387
100
AcDbArc
 50
8.4919992008
 51
14.7623876638
  0
ARC
  5
32A
100
AcDbEntity
  8
0
100
AcDbCircle
 62
7
  6
CONTINUOUS
 10
5.9645843041
 20
428.4144578543
 40
162.3847425289
100
AcDbArc
 50
267.1378094669
 51
275.0392296168
  0
ARC
  5
32B
100
AcDbEntity
  8
0
100
AcDbCircle
 62
7
  6
CONTINUOUS
 10
5.816758231
 20
441.2804894583
 40
159.6181508127
100
AcDbArc
 50
266.1395570531
 51
267.1412882838
  0
ARC
  5
32C
100
AcDbEntity
  8
0
100
AcDbCircle
 62
7
  6
CONTINUOUS
 10
6.7851781899
 20
433.2109995047
 40
151.5224444021
100
AcDbArc
 50
275.0899184235
 51
276.1282859478
  0
ARC
  5
32D
100
AcDbEntity
  8
0
100
AcDbCircle
 62
7
  6
CONTINUOUS
 10
0.5495176345
 20
457.0685093259
 40
125.5883478941
100
AcDbArc
 50
265.9724042448
 51
271.1070112168
  0
ARC
  5
32E
100
AcDbEntity
  8
0
100
AcDbCircle
 62
7
  6
CONTINUOUS
 10
0.6615358966
 20
454.9643416822
 40
123.4824294235
100
AcDbArc
 50
271.0739070438
 51
276.2480927661
  0
ARC
  5
32F
100
AcDbEntity
  8
0
100
AcDbCircle
 62
7
  6
CONTINUOUS
 10
-1.3217107112
 20
394.8888127031
 40
112.6279863731
100
AcDbArc
 50
256.0743882603
 51
257.3366607846
  0
ARC
  5
330
100
AcDbEntity
  8
0
100
AcDbCircle
 62
7
  6
CONTINUOUS
 10
16.0845178912
 20
368.2157231858
 40
101.2322189363
100
AcDbArc
 50
285.0043938923
 51
285.5463623033
  0
ARC
  5
331
100
AcDbEntity
  8
0
100
AcDbCircle
 62
7
  6
CONTINUOUS
 10
17.6287478514
 20
378.3674468783
 40
95.5417555815
100
AcDbArc
 50
285.5344840041
 51
286.9485290184
  0
ARC
  5
332
100
AcDbEntity
  8
0
100
AcDbCircle
 62
7
  6
CONTINUOUS
 10
-22.0879750936
 20
336.64723367
 40
50.6374438823
100
AcDbArc
 50
240.9368506672
 51
243.0845519797
  0
ARC
  5
333
100
AcDbEntity
  8
0
100
AcDbCircle
 62
7
  6
CONTINUOUS
 10
40.5454222563
 20
325.5910139007
 40
37.8076597886
100
AcDbArc
 50
301.9204052207
 51
304.5478940188
  0
ARC
  5
334
100
AcDbEntity
  8
0
100
AcDbCircle
 62
7
  6
CONTINUOUS
 10
-43.6676151827
 20
309.0887860859
 40
15.3125110063
100
AcDbArc
 50
210.0055773689
 51
214.7717500301
  0
ARC
  5
335
100
AcDbEntity
  8
0
100
AcDbCircle
 62
7
  6
CONTINUOUS
 10
-46.8427690926
 20
306.6274977388
 40
11.7334884933
100
AcDbArc
 50
156.3718274357
 51
162.098751275
  0
ARC
  5
336
100
AcDbEntity
  8
0
100
AcDbCircle
 62
7
  6
CONTINUOUS
 10
58.7994501273
 20
307.4488793944
 40
11.7334884933
100
AcDbArc
 50
336.3718274357
 51
342.098751275
  0
ARC
  5
337
100
AcDbEntity
  8
0
100
AcDbCircle
 62
7
  6
CONTINUOUS
 10
54.6635811679
 20
307.1686794406
 40
9.8272702666
100
AcDbArc
 50
344.8361192475
 51
346.0778749861
  0
ARC
  5
338
100
AcDbEntity
  8
0
100
AcDbCircle
 62
7
  6
CONTINUOUS
 10
-42.7121342439
 20
307.1672241887
 40
9.821814542
100
AcDbArc
 50
193.8877370103
 51
194.896551402
  0
ARC
  5
339
100
AcDbEntity
  8
0
100
AcDbCircle
 62
7
  6
CONTINUOUS
 10
55.2075113349
 20
306.1222083739
 40
9.1207687195
100
AcDbArc
 50
352.2641363472
 51
359.9789280247
  0
ARC
  5
33A
100
AcDbEntity
  8
0
100
AcDbCircle
 62
7
  6
CONTINUOUS
 10
-43.2880990541
 20
306.1173746132
 40
9.0834994692
100
AcDbArc
 50
174.3446354671
 51
179.9906689716
  0
ARC
  5
33B
100
AcDbEntity
  8
0
100
AcDbCircle
 62
7
  6
CONTINUOUS
 10
55.2494714399
 20
306.1180128942
 40
9.0788080367
100
AcDbArc
 50
0.0053080392
 51
5.7321535013
  0
ARC
  5
33C
100
AcDbEntity
  8
0
100
AcDbCircle
 62
7
  6
CONTINUOUS
 10
-43.3132842116
 20
306.118937954
 40
9.0583141917
100
AcDbArc
 50
180.0005314936
 51
184.0003728905
  0
SPLINE
  5
33D
100
AcDbEntity
  8
0
100
AcDbSpline
 62
7
  6
CONTINUOUS
 70
0
 71
3
 72
9
 73
5
 74
0
 42
0.0000001
 43
0.0000001
 44
0.0000000001
 40
0.0
 40
0.0
 40
0.0
 40
0.0
 40
0.2526689257
 40
1.0
 40
1.0
 40
1.0
 40
1.0
 10
-198.1123300391
 20
243.4829274805
 30
0.0
 10
-198.0253867957
 20
243.4873950284
 30
0.0
 10
-197.6809324616
 20
243.497038854
 30
0.0
 10
-197.3354755363
 20
243.4740084056
 30
0.0
 10
-197.0805577628
 20
243.4376647657
 30
0.0
  0
SPLINE
  5
33E
100
AcDbEntity
  8
0
100
AcDbSpline
 62
7
  6
CONTINUOUS
 70
0
 71
3
 72
11
 73
7
 74
0
 42
0.0000001
 43
0.0000001
 44
0.0000000001
 40
0.0
 40
0.0
 40
0.0
 40
0.0
 40
0.2529369489
 40
0.5046245884
 40
0.7539597306
 40
1.0
 40
1.0
 40
1.0
 40
1.0
 10
-201.8581274282
 20
241.9353347526
 30
0.0
 10
-201.6555071072
 20
242.1102925388
 30
0.0
 10
-201.2297288495
 20
242.4352611421
 30
0.0
 10
-200.5397527259
 20
242.8399464448
 30
0.0
 10
-199.8119755215
 20
243.1539766606
 30
0.0
 10
-199.3066527326
 20
243.299974604
 30
0.0
 10
-199.0522896877
 20
243.3557405252
 30
0.0
  0
SPLINE
  5
33F
100
AcDbEntity
  8
0
100
AcDbSpline
 62
7
  6
CONTINUOUS
 70
0
 71
3
 72
10
 73
6
 74
0
 42
0.0000001
 43
0.0000001
 44
0.0000000001
 40
0.0
 40
0.0
 40
0.0
 40
0.0
 40
0.221163214
 40
0.4620778374
 40
1.0
 40
1.0
 40
1.0
 40
1.0
 10
-199.0522896877
 20
243.3557405252
 30
0.0
 10
-199.0032798445
 20
243.2889901406
 30
0.0
 10
-198.9054967294
 20
243.146108167
 30
0.0
 10
-198.7106496034
 20
242.8262356172
 30
0.0
 10
-198.5763751929
 20
242.5668884464
 30
0.0
 10
-198.4894551224
 20
242.3851938454
 30
0.0
  0
SPLINE
  5
340
100
AcDbEntity
  8
0
100
AcDbSpline
 62
7
  6
CONTINUOUS
 70
0
 71
3
 72
9
 73
5
 74
0
 42
0.0000001
 43
0.0000001
 44
0.0000000001
 40
0.0
 40
0.0
 40
0.0
 40
0.0
 40
0.2535698556
 40
1.0
 40
1.0
 40
1.0
 40
1.0
 10
-198.4894553568
 20
242.385193353
 30
0.0
 10
-198.4504033311
 20
242.3869881686
 30
0.0
 10
-198.2964762819
 20
242.39571018
 30
0.0
 10
-198.1429061855
 20
242.4110030165
 30
0.0
 10
-198.0288671604
 20
242.4264337602
 30
0.0
  0
SPLINE
  5
341
100
AcDbEntity
  8
0
100
AcDbSpline
 62
7
  6
CONTINUOUS
 70
0
 71
3
 72
9
 73
5
 74
0
 42
0.0000001
 43
0.0000001
 44
0.0000000001
 40
0.0
 40
0.0
 40
0.0
 40
0.0
 40
0.2574769263
 40
1.0
 40
1.0
 40
1.0
 40
1.0
 10
-198.0288671604
 20
242.4264337602
 30
0.0
 10
-197.991873518
 20
242.4314394099
 30
0.0
 10
-197.8484297813
 20
242.4525377094
 30
0.0
 10
-197.7059355498
 20
242.4803381627
 30
0.0
 10
-197.6012324043
 20
242.5053797633
 30
0.0
  0
SPLINE
  5
342
100
AcDbEntity
  8
0
100
AcDbSpline
 62
7
  6
CONTINUOUS
 70
0
 71
3
 72
13
 73
9
 74
0
 42
0.0000001
 43
0.0000001
 44
0.0000000001
 40
0.0
 40
0.0
 40
0.0
 40
0.0
 40
0.1002589403
 40
0.2035301341
 40
0.3125043727
 40
0.429366056
 40
0.6922997643
 40
1.0
 40
1.0
 40
1.0
 40
1.0
 10
-202.2449073298
 20
242.5646341839
 30
0.0
 10
-202.2449069221
 20
242.5992503185
 30
0.0
 10
-202.2380800611
 20
242.6696970469
 30
0.0
 10
-202.2076727789
 20
242.7737973316
 30
0.0
 10
-202.1575111688
 20
242.876312006
 30
0.0
 10
-202.0611396006
 20
243.0154912761
 30
0.0
 10
-201.8886066953
 20
243.1816569589
 30
0.0
 10
-201.7235183597
 20
243.2906421756
 30
0.0
 10
-201.6313695194
 20
243.3435125906
 30
0.0
  0
SPLINE
  5
343
100
AcDbEntity
  8
0
100
AcDbSpline
 62
7
  6
CONTINUOUS
 70
0
 71
3
 72
11
 73
7
 74
0
 42
0.0000001
 43
0.0000001
 44
0.0000000001
 40
0.0
 40
0.0
 40
0.0
 40
0.0
 40
0.2096754778
 40
0.4415414531
 40
0.7033546267
 40
1.0
 40
1.0
 40
1.0
 40
1.0
 10
-199.8885814446
 20
243.986083806
 30
0.0
 10
-199.8478012127
 20
243.9848113777
 30
0.0
 10
-199.7620771466
 20
243.9704598005
 30
0.0
 10
-199.634583735
 20
243.9185118006
 30
0.0
 10
-199.503754955
 20
243.8365630488
 30
0.0
 10
-199.4199932905
 20
243.7668814398
 30
0.0
 10
-199.3774844091
 20
243.7278305622
 30
0.0
  0
SPLINE
  5
344
100
AcDbEntity
  8
0
100
AcDbSpline
 62
7
  6
CONTINUOUS
 70
0
 71
3
 72
17
 73
13
 74
0
 42
0.0000001
 43
0.0000001
 44
0.0000000001
 40
0.0
 40
0.0
 40
0.0
 40
0.0
 40
0.1386069099
 40
0.2804559611
 40
0.4217605493
 40
0.5587448418
 40
0.6878463009
 40
0.805907598
 40
0.8600050268
 40
0.9104712411
 40
0.9571624276
 40
1.0
 40
1.0
 40
1.0
 40
1.0
 10
-197.6067256992
 20
241.2623190542
 30
0.0
 10
-197.8076843652
 20
241.2351271201
 30
0.0
 10
-198.2165785874
 20
241.1959679315
 30
0.0
 10
-198.8339199115
 20
241.1807140356
 30
0.0
 10
-199.4485001979
 20
241.2082370161
 30
0.0
 10
-200.0410503792
 20
241.2776465636
 30
0.0
 10
-200.593014603
 20
241.3866879258
 30
0.0
 10
-201.0167744435
 20
241.5110081018
 30
0.0
 10
-201.3203980038
 20
241.6294131404
 30
0.0
 10
-201.5211236568
 20
241.7230197187
 30
0.0
 10
-201.6999620399
 20
241.8232710478
 30
0.0
 10
-201.8083714091
 20
241.8972250076
 30
0.0
 10
-201.8581274282
 20
241.9353347526
 30
0.0
  0
SPLINE
  5
345
100
AcDbEntity
  8
0
100
AcDbSpline
 62
7
  6
CONTINUOUS
 70
0
 71
3
 72
10
 73
6
 74
0
 42
0.0000001
 43
0.0000001
 44
0.0000000001
 40
0.0
 40
0.0
 40
0.0
 40
0.0
 40
0.5369674685
 40
0.7779767683
 40
1.0
 40
1.0
 40
1.0
 40
1.0
 10
-197.6012330098
 20
242.5053801533
 30
0.0
 10
-197.6751352398
 20
242.6888679167
 30
0.0
 10
-197.7928642117
 20
242.9508765171
 30
0.0
 10
-197.9723575895
 20
243.272773615
 30
0.0
 10
-198.0651367561
 20
243.416126004
 30
0.0
 10
-198.1123300391
 20
243.4829274805
 30
0.0
  0
SPLINE
  5
346
100
AcDbEntity
  8
0
100
AcDbSpline
 62
7
  6
CONTINUOUS
 70
0
 71
3
 72
10
 73
6
 74
0
 42
0.0000001
 43
0.0000001
 44
0.0000000001
 40
0.0
 40
0.0
 40
0.0
 40
0.0
 40
0.2792898932
 40
0.5380052008
 40
1.0
 40
1.0
 40
1.0
 40
1.0
 10
-201.8581274282
 20
241.7285465822
 30
0.0
 10
-201.8949198428
 20
241.7567270829
 30
0.0
 10
-201.9636628391
 20
241.8139842486
 30
0.0
 10
-202.0801901423
 20
241.9321962181
 30
0.0
 10
-202.149970901
 20
242.0316092266
 30
0.0
 10
-202.1833221496
 20
242.1006366192
 30
0.0
  0
LINE
  5
347
100
AcDbEntity
  8
0
100
AcDbLine
 62
7
  6
CONTINUOUS
 10
-199.0003593184
 20
244.1062701006
 11
-198.8982353084
 21
243.1303681558
  0
SPLINE
  5
348
100
AcDbEntity
  8
0
100
AcDbSpline
 62
7
  6
CONTINUOUS
 70
0
 71
3
 72
9
 73
5
 74
0
 42
0.0000001
 43
0.0000001
 44
0.0000000001
 40
0.0
 40
0.0
 40
0.0
 40
0.0
 40
0.4955131167
 40
1.0
 40
1.0
 40
1.0
 40
1.0
 10
-197.0707770284
 20
243.7505461889
 30
0.0
 10
-197.292744036
 20
243.7975264152
 30
0.0
 10
-197.7476011785
 20
243.8619636066
 30
0.0
 10
-198.2068359083
 20
243.8668713829
 30
0.0
 10
-198.4375247605
 20
243.8550175175
 30
0.0
  0
SPLINE
  5
349
100
AcDbEntity
  8
0
100
AcDbSpline
 62
7
  6
CONTINUOUS
 70
0
 71
3
 72
11
 73
7
 74
0
 42
0.0000001
 43
0.0000001
 44
0.0000000001
 40
0.0
 40
0.0
 40
0.0
 40
0.0
 40
0.2829368594
 40
0.5397641634
 40
0.7761954861
 40
1.0
 40
1.0
 40
1.0
 40
1.0
 10
-198.4375247605
 20
243.8550175175
 30
0.0
 10
-198.482012354
 20
243.8942683379
 30
0.0
 10
-198.571404658
 20
243.9643345506
 30
0.0
 10
-198.7137392442
 20
244.0447712502
 30
0.0
 10
-198.8567160394
 20
244.0942033659
 30
0.0
 10
-198.9534317364
 20
244.1059772466
 30
0.0
 10
-199.0003593184
 20
244.1062701006
 30
0.0
  0
SPLINE
  5
34A
100
AcDbEntity
  8
0
100
AcDbSpline
 62
7
  6
CONTINUOUS
 70
0
 71
3
 72
9
 73
5
 74
0
 42
0.0000001
 43
0.0000001
 44
0.0000000001
 40
0.0
 40
0.0
 40
0.0
 40
0.0
 40
0.2535698559
 40
1.0
 40
1.0
 40
1.0
 40
1.0
 10
-199.0003590533
 20
244.1062701014
 30
0.0
 10
-199.039411082
 20
244.1044752803
 30
0.0
 10
-199.1933381442
 20
244.0957532781
 30
0.0
 10
-199.3469082534
 20
244.0804604374
 30
0.0
 10
-199.4609472878
 20
244.0650296925
 30
0.0
  0
SPLINE
  5
34B
100
AcDbEntity
  8
0
100
AcDbSpline
 62
7
  6
CONTINUOUS
 70
0
 71
3
 72
9
 73
5
 74
0
 42
0.0000001
 43
0.0000001
 44
0.0000000001
 40
0.0
 40
0.0
 40
0.0
 40
0.0
 40
0.2574769257
 40
1.0
 40
1.0
 40
1.0
 40
1.0
 10
-199.4609472878
 20
244.0650296925
 30
0.0
 10
-199.4979409272
 20
244.0600240432
 30
0.0
 10
-199.6413846535
 20
244.0389257477
 30
0.0
 10
-199.7838788695
 20
244.0111252785
 30
0.0
 10
-199.8885820112
 20
243.9860836972
 30
0.0
  0
SPLINE
  5
34C
100
AcDbEntity
  8
0
100
AcDbSpline
 62
7
  6
CONTINUOUS
 70
0
 71
3
 72
11
 73
7
 74
0
 42
0.0000001
 43
0.0000001
 44
0.0000000001
 40
0.0
 40
0.0
 40
0.0
 40
0.0
 40
0.2460401322
 40
0.4953751291
 40
0.7470628254
 40
1.0
 40
1.0
 40
1.0
 40
1.0
 10
-199.3774844091
 20
243.7278305622
 30
0.0
 10
-199.6318473122
 20
243.6720646721
 30
0.0
 10
-200.1371698163
 20
243.5260668307
 30
0.0
 10
-200.8649468325
 20
243.2120367886
 30
0.0
 10
-201.5549231301
 20
242.8073514935
 30
0.0
 10
-201.9807016478
 20
242.482382732
 30
0.0
 10
-202.1833221496
 20
242.3074247896
 30
0.0
  0
SPLINE
  5
34D
100
AcDbEntity
  8
0
100
AcDbSpline
 62
7
  6
CONTINUOUS
 70
0
 71
3
 72
9
 73
5
 74
0
 42
0.0000001
 43
0.0000001
 44
0.0000000001
 40
0.0
 40
0.0
 40
0.0
 40
0.0
 40
0.511226377
 40
1.0
 40
1.0
 40
1.0
 40
1.0
 10
-202.1833221496
 20
242.3074247896
 30
0.0
 10
-202.203056267
 20
242.3482686777
 30
0.0
 10
-202.2340214643
 20
242.4322393159
 30
0.0
 10
-202.2449078406
 20
242.5212650084
 30
0.0
 10
-202.2449073298
 20
242.5646341839
 30
0.0
  0
SPLINE
  5
34E
100
AcDbEntity
  8
0
100
AcDbSpline
 62
7
  6
CONTINUOUS
 70
0
 71
3
 72
11
 73
7
 74
0
 42
0.0000001
 43
0.0000001
 44
0.0000000001
 40
0.0
 40
0.0
 40
0.0
 40
0.0
 40
0.2529369489
 40
0.5046245884
 40
0.7539597306
 40
1.0
 40
1.0
 40
1.0
 40
1.0
 10
-108.9605634229
 20
188.2794270496
 30
0.0
 10
-108.7579431019
 20
188.4543848359
 30
0.0
 10
-108.3321648442
 20
188.7793534392
 30
0.0
 10
-107.6421887206
 20
189.1840387419
 30
0.0
 10
-106.9144115162
 20
189.4980689577
 30
0.0
 10
-106.4090887273
 20
189.6440669011
 30
0.0
 10
-106.1547256824
 20
189.6998328223
 30
0.0
  0
SPLINE
  5
34F
100
AcDbEntity
  8
0
100
AcDbSpline
 62
7
  6
CONTINUOUS
 70
0
 71
3
 72
9
 73
5
 74
0
 42
0.0000001
 43
0.0000001
 44
0.0000000001
 40
0.0
 40
0.0
 40
0.0
 40
0.0
 40
0.236188249
 40
1.0
 40
1.0
 40
1.0
 40
1.0
 10
-106.1547256824
 20
189.6998328223
 30
0.0
 10
-106.1345449923
 20
189.6723471432
 30
0.0
 10
-106.0507135076
 20
189.554793199
 30
0.0
 10
-105.9729535142
 20
189.4329703367
 30
0.0
 10
-105.9162665031
 20
189.3383841494
 30
0.0
  0
SPLINE
  5
350
100
AcDbEntity
  8
0
100
AcDbSpline
 62
7
  6
CONTINUOUS
 70
0
 71
3
 72
13
 73
9
 74
0
 42
0.0000001
 43
0.0000001
 44
0.0000000001
 40
0.0
 40
0.0
 40
0.0
 40
0.0
 40
0.1002589403
 40
0.2035301341
 40
0.3125043727
 40
0.429366056
 40
0.6922997643
 40
1.0
 40
1.0
 40
1.0
 40
1.0
 10
-109.3473433245
 20
188.908726481
 30
0.0
 10
-109.3473429168
 20
188.9433426156
 30
0.0
 10
-109.3405160559
 20
189.013789344
 30
0.0
 10
-109.3101087736
 20
189.1178896287
 30
0.0
 10
-109.2599471635
 20
189.2204043031
 30
0.0
 10
-109.1635755954
 20
189.3595835732
 30
0.0
 10
-108.99104269
 20
189.525749256
 30
0.0
 10
-108.8259543544
 20
189.6347344727
 30
0.0
 10
-108.7338055141
 20
189.6876048877
 30
0.0
  0
SPLINE
  5
351
100
AcDbEntity
  8
0
100
AcDbSpline
 62
7
  6
CONTINUOUS
 70
0
 71
3
 72
11
 73
7
 74
0
 42
0.0000001
 43
0.0000001
 44
0.0000000001
 40
0.0
 40
0.0
 40
0.0
 40
0.0
 40
0.2096754778
 40
0.4415414531
 40
0.7033546267
 40
1.0
 40
1.0
 40
1.0
 40
1.0
 10
-106.9910174393
 20
190.3301761031
 30
0.0
 10
-106.9502372074
 20
190.3289036748
 30
0.0
 10
-106.8645131413
 20
190.3145520976
 30
0.0
 10
-106.7370197297
 20
190.2626040977
 30
0.0
 10
-106.6061909497
 20
190.1806553459
 30
0.0
 10
-106.5224292852
 20
190.1109737369
 30
0.0
 10
-106.4799204039
 20
190.0719228593
 30
0.0
  0
SPLINE
  5
352
100
AcDbEntity
  8
0
100
AcDbSpline
 62
7
  6
CONTINUOUS
 70
0
 71
3
 72
14
 73
10
 74
0
 42
0.0000001
 43
0.0000001
 44
0.0000000001
 40
0.0
 40
0.0
 40
0.0
 40
0.0
 40
0.292762311
 40
0.4329186683
 40
0.5662099017
 40
0.6908585396
 40
0.805365665
 40
0.90861055
 40
1.0
 40
1.0
 40
1.0
 40
1.0
 10
-105.9725789427
 20
187.5324406367
 30
0.0
 10
-106.2772590197
 20
187.5367302557
 30
0.0
 10
-106.7280567869
 20
187.5659088184
 30
0.0
 10
-107.3110940112
 20
187.6533761959
 30
0.0
 10
-107.7166504109
 20
187.7397123267
 30
0.0
 10
-108.089746657
 20
187.846143117
 30
0.0
 10
-108.4240838965
 20
187.9708525588
 30
0.0
 10
-108.7139734205
 20
188.111656471
 30
0.0
 10
-108.8850494883
 20
188.2215884838
 30
0.0
 10
-108.9605634229
 20
188.2794270496
 30
0.0
  0
SPLINE
  5
353
100
AcDbEntity
  8
0
100
AcDbSpline
 62
7
  6
CONTINUOUS
 70
0
 71
3
 72
10
 73
6
 74
0
 42
0.0000001
 43
0.0000001
 44
0.0000000001
 40
0.0
 40
0.0
 40
0.0
 40
0.0
 40
0.2792898932
 40
0.5380052008
 40
1.0
 40
1.0
 40
1.0
 40
1.0
 10
-108.9605634229
 20
188.0726388793
 30
0.0
 10
-108.9973558375
 20
188.10081938
 30
0.0
 10
-109.0660988338
 20
188.1580765457
 30
0.0
 10
-109.182626137
 20
188.2762885152
 30
0.0
 10
-109.2524068958
 20
188.3757015237
 30
0.0
 10
-109.2857581443
 20
188.4447289163
 30
0.0
  0
LINE
  5
354
100
AcDbEntity
  8
0
100
AcDbLine
 62
7
  6
CONTINUOUS
 10
-106.1027953131
 20
190.4503623977
 11
-106.0006713031
 21
189.4744604529
  0
SPLINE
  5
355
100
AcDbEntity
  8
0
100
AcDbSpline
 62
7
  6
CONTINUOUS
 70
0
 71
3
 72
9
 73
5
 74
0
 42
0.0000001
 43
0.0000001
 44
0.0000000001
 40
0.0
 40
0.0
 40
0.0
 40
0.0
 40
0.5092641686
 40
1.0
 40
1.0
 40
1.0
 40
1.0
 10
-105.8829015184
 20
190.4106459672
 30
0.0
 10
-105.9188008721
 20
190.423301846
 30
0.0
 10
-105.9912844682
 20
190.4429562023
 30
0.0
 10
-106.0661160481
 20
190.4501334988
 30
0.0
 10
-106.1027953131
 20
190.4503623977
 30
0.0
  0
SPLINE
  5
356
100
AcDbEntity
  8
0
100
AcDbSpline
 62
7
  6
CONTINUOUS
 70
0
 71
3
 72
9
 73
5
 74
0
 42
0.0000001
 43
0.0000001
 44
0.0000000001
 40
0.0
 40
0.0
 40
0.0
 40
0.0
 40
0.2535698559
 40
1.0
 40
1.0
 40
1.0
 40
1.0
 10
-106.102795048
 20
190.4503623985
 30
0.0
 10
-106.1418470767
 20
190.4485675774
 30
0.0
 10
-106.2957741389
 20
190.4398455752
 30
0.0
 10
-106.4493442481
 20
190.4245527345
 30
0.0
 10
-106.5633832826
 20
190.4091219896
 30
0.0
  0
SPLINE
  5
357
100
AcDbEntity
  8
0
100
AcDbSpline
 62
7
  6
CONTINUOUS
 70
0
 71
3
 72
9
 73
5
 74
0
 42
0.0000001
 43
0.0000001
 44
0.0000000001
 40
0.0
 40
0.0
 40
0.0
 40
0.0
 40
0.2574769257
 40
1.0
 40
1.0
 40
1.0
 40
1.0
 10
-106.5633832826
 20
190.4091219896
 30
0.0
 10
-106.600376922
 20
190.4041163403
 30
0.0
 10
-106.7438206483
 20
190.3830180448
 30
0.0
 10
-106.8863148643
 20
190.3552175756
 30
0.0
 10
-106.9910180059
 20
190.3301759943
 30
0.0
  0
SPLINE
  5
358
100
AcDbEntity
  8
0
100
AcDbSpline
 62
7
  6
CONTINUOUS
 70
0
 71
3
 72
11
 73
7
 74
0
 42
0.0000001
 43
0.0000001
 44
0.0000000001
 40
0.0
 40
0.0
 40
0.0
 40
0.0
 40
0.2460401322
 40
0.4953751291
 40
0.7470628254
 40
1.0
 40
1.0
 40
1.0
 40
1.0
 10
-106.4799204039
 20
190.0719228593
 30
0.0
 10
-106.7342833069
 20
190.0161569692
 30
0.0
 10
-107.239605811
 20
189.8701591278
 30
0.0
 10
-107.9673828272
 20
189.5561290857
 30
0.0
 10
-108.6573591248
 20
189.1514437906
 30
0.0
 10
-109.0831376426
 20
188.8264750291
 30
0.0
 10
-109.2857581443
 20
188.6515170867
 30
0.0
  0
SPLINE
  5
359
100
AcDbEntity
  8
0
100
AcDbSpline
 62
7
  6
CONTINUOUS
 70
0
 71
3
 72
9
 73
5
 74
0
 42
0.0000001
 43
0.0000001
 44
0.0000000001
 40
0.0
 40
0.0
 40
0.0
 40
0.0
 40
0.511226377
 40
1.0
 40
1.0
 40
1.0
 40
1.0
 10
-109.2857581443
 20
188.6515170867
 30
0.0
 10
-109.3054922617
 20
188.6923609748
 30
0.0
 10
-109.336457459
 20
188.7763316129
 30
0.0
 10
-109.3473438353
 20
188.8653573055
 30
0.0
 10
-109.3473433245
 20
188.908726481
 30
0.0
  0
SPLINE
  5
35A
100
AcDbEntity
  8
0
100
AcDbSpline
 62
7
  6
CONTINUOUS
 70
0
 71
3
 72
15
 73
11
 74
0
 42
0.0000001
 43
0.0000001
 44
0.0000000001
 40
0.0
 40
0.0
 40
0.0
 40
0.0
 40
0.1355587099
 40
0.268331558
 40
0.3978313812
 40
0.5238361972
 40
0.6464562729
 40
0.7661379332
 40
0.8836468734
 40
1.0
 40
1.0
 40
1.0
 40
1.0
 10
-71.1602027488
 20
182.1159554411
 30
0.0
 10
-71.1343008323
 20
181.943149304
 30
0.0
 10
-71.0603961884
 20
181.6039866657
 30
0.0
 10
-70.8829528404
 20
181.1211301464
 30
0.0
 10
-70.6437946518
 20
180.6793748217
 30
0.0
 10
-70.3482875994
 20
180.2892699873
 30
0.0
 10
-70.0031539968
 20
179.9601400502
 30
0.0
 10
-69.6162843299
 20
179.7000518862
 30
0.0
 10
-69.1969921448
 20
179.5155691131
 30
0.0
 10
-68.9016209145
 20
179.4459553271
 30
0.0
 10
-68.753090125
 20
179.4251534347
 30
0.0
  0
SPLINE
  5
35B
100
AcDbEntity
  8
0
100
AcDbSpline
 62
7
  6
CONTINUOUS
 70
0
 71
3
 72
15
 73
11
 74
0
 42
0.0000001
 43
0.0000001
 44
0.0000000001
 40
0.0
 40
0.0
 40
0.0
 40
0.0
 40
0.1163501487
 40
0.2338599548
 40
0.3535418955
 40
0.4761621879
 40
0.6021677904
 40
0.731667985
 40
0.8644407152
 40
1.0
 40
1.0
 40
1.0
 40
1.0
 10
-66.8985019662
 20
186.2337293304
 30
0.0
 10
-66.7499750289
 20
186.2129272144
 30
0.0
 10
-66.4546073418
 20
186.1433116422
 30
0.0
 10
-66.0353141062
 20
185.9588370841
 30
0.0
 10
-65.6484418703
 20
185.6987485994
 30
0.0
 10
-65.3033067826
 20
185.3696175536
 30
0.0
 10
-65.0077997924
 20
184.979510175
 30
0.0
 10
-64.768640785
 20
184.5377536565
 30
0.0
 10
-64.5911965458
 20
184.054896115
 30
0.0
 10
-64.5172915827
 20
183.7157327956
 30
0.0
 10
-64.4913895469
 20
183.5429258626
 30
0.0
  0
SPLINE
  5
35C
100
AcDbEntity
  8
0
100
AcDbSpline
 62
7
  6
CONTINUOUS
 70
0
 71
3
 72
18
 73
14
 74
0
 42
0.0000001
 43
0.0000001
 44
0.0000000001
 40
0.0
 40
0.0
 40
0.0
 40
0.0
 40
0.056076705
 40
0.1124932352
 40
0.1695643146
 40
0.2275576754
 40
0.2866776106
 40
0.347054903
 40
0.4715127231
 40
0.6007217917
 40
0.7332689969
 40
0.8671169788
 40
1.0
 40
1.0
 40
1.0
 40
1.0
 10
-67.7821912065
 20
186.3574916982
 30
0.0
 10
-67.8975617463
 20
186.373649463
 30
0.0
 10
-68.131667642
 20
186.3894839834
 30
0.0
 10
-68.4840531407
 20
186.3630188625
 30
0.0
 10
-68.8332345342
 20
186.2868529585
 30
0.0
 10
-69.1740709826
 20
186.1621718021
 30
0.0
 10
-69.5017487198
 20
185.990827203
 30
0.0
 10
-69.9188103144
 20
185.7009145936
 30
0.0
 10
-70.3826787938
 20
185.2330475923
 30
0.0
 10
-70.8119397815
 20
184.5482542927
 30
0.0
 10
-71.0982672615
 20
183.7717723181
 30
0.0
 10
-71.2263023307
 20
182.9470055578
 30
0.0
 10
-71.201123912
 20
182.3889633536
 30
0.0
 10
-71.1602027488
 20
182.1159554411
 30
0.0
  0
SPLINE
  5
35D
100
AcDbEntity
  8
0
100
AcDbSpline
 62
7
  6
CONTINUOUS
 70
0
 71
3
 72
11
 73
7
 74
0
 42
0.0000001
 43
0.0000001
 44
0.0000000001
 40
0.0
 40
0.0
 40
0.0
 40
0.0
 40
0.270420103
 40
0.5290768839
 40
0.7730357741
 40
1.0
 40
1.0
 40
1.0
 40
1.0
 10
-67.109102096
 20
182.0874044478
 30
0.0
 10
-67.0835865163
 20
181.8379607492
 30
0.0
 10
-67.0517531492
 20
181.3478308194
 30
0.0
 10
-67.0634569041
 20
180.6302782585
 30
0.0
 10
-67.1352109493
 20
179.956643425
 30
0.0
 10
-67.2258008664
 20
179.5283759169
 30
0.0
 10
-67.2821017532
 20
179.3255955389
 30
0.0
  0
SPLINE
  5
35E
100
AcDbEntity
  8
0
100
AcDbSpline
 62
7
  6
CONTINUOUS
 70
0
 71
3
 72
11
 73
7
 74
0
 42
0.0000001
 43
0.0000001
 44
0.0000000001
 40
0.0
 40
0.0
 40
0.0
 40
0.0
 40
0.2426089399
 40
0.4924612816
 40
0.7461146348
 40
1.0
 40
1.0
 40
1.0
 40
1.0
 10
-68.3019607077
 20
186.0245005504
 30
0.0
 10
-68.1809636185
 20
185.7993266167
 30
0.0
 10
-67.9543843307
 20
185.3318170748
 30
0.0
 10
-67.6660171514
 20
184.599738889
 30
0.0
 10
-67.428094153
 20
183.8373110462
 30
0.0
 10
-67.3056118675
 20
183.3161994834
 30
0.0
 10
-67.2539448382
 20
183.0537311978
 30
0.0
  0
SPLINE
  5
35F
100
AcDbEntity
  8
0
100
AcDbSpline
 62
7
  6
CONTINUOUS
 70
0
 71
3
 72
9
 73
5
 74
0
 42
0.0000001
 43
0.0000001
 44
0.0000000001
 40
0.0
 40
0.0
 40
0.0
 40
0.0
 40
0.5040827913
 40
1.0
 40
1.0
 40
1.0
 40
1.0
 10
-66.5882678378
 20
179.5277490205
 30
0.0
 10
-66.699486911
 20
179.4777807296
 30
0.0
 10
-66.9268967348
 20
179.3930021104
 30
0.0
 10
-67.16384981
 20
179.3401695134
 30
0.0
 10
-67.2824844811
 20
179.3224329368
 30
0.0
  0
SPLINE
  5
360
100
AcDbEntity
  8
0
100
AcDbSpline
 62
7
  6
CONTINUOUS
 70
0
 71
3
 72
9
 73
5
 74
0
 42
0.0000001
 43
0.0000001
 44
0.0000000001
 40
0.0
 40
0.0
 40
0.0
 40
0.0
 40
0.4646025227
 40
1.0
 40
1.0
 40
1.0
 40
1.0
 10
-65.2716220414
 20
183.6442654441
 30
0.0
 10
-65.4480978139
 20
183.5796343452
 30
0.0
 10
-65.8315718745
 20
183.4504313745
 30
0.0
 10
-66.2192044059
 20
183.3345837879
 30
0.0
 10
-66.4274985288
 20
183.2752646622
 30
0.0
  0
SPLINE
  5
361
100
AcDbEntity
  8
0
100
AcDbSpline
 62
7
  6
CONTINUOUS
 70
0
 71
3
 72
15
 73
11
 74
0
 42
0.0000001
 43
0.0000001
 44
0.0000000001
 40
0.0
 40
0.0
 40
0.0
 40
0.0
 40
0.1287641541
 40
0.2586359784
 40
0.3883978941
 40
0.5168297964
 40
0.6428490844
 40
0.7656242743
 40
0.8846802251
 40
1.0
 40
1.0
 40
1.0
 40
1.0
 10
-64.4913895469
 20
183.5429258626
 30
0.0
 10
-64.46086071
 20
183.3392509574
 30
0.0
 10
-64.4312570573
 20
182.924748166
 30
0.0
 10
-64.4801578597
 20
182.3032734836
 30
0.0
 10
-64.6203564247
 20
181.6962327379
 30
0.0
 10
-64.8476002194
 20
181.1227157344
 30
0.0
 10
-65.1549170961
 20
180.6005838924
 30
0.0
 10
-65.533069061
 20
180.1462355316
 30
0.0
 10
-65.9702984925
 20
179.7742262049
 30
0.0
 10
-66.2976961803
 20
179.5862063299
 30
0.0
 10
-66.4659425521
 20
179.5106169241
 30
0.0
  0
SPLINE
  5
362
100
AcDbEntity
  8
0
100
AcDbSpline
 62
7
  6
CONTINUOUS
 70
0
 71
3
 72
15
 73
11
 74
0
 42
0.0000001
 43
0.0000001
 44
0.0000000001
 40
0.0
 40
0.0
 40
0.0
 40
0.0
 40
0.1287641541
 40
0.2586359784
 40
0.3883978941
 40
0.5168297964
 40
0.6428490844
 40
0.7656242743
 40
0.8846802251
 40
1.0
 40
1.0
 40
1.0
 40
1.0
 10
-70.2765137129
 20
181.9921916119
 30
0.0
 10
-70.3070425499
 20
182.1958665171
 30
0.0
 10
-70.3366462026
 20
182.6103693085
 30
0.0
 10
-70.2877454001
 20
183.2318439909
 30
0.0
 10
-70.1475468352
 20
183.8388847366
 30
0.0
 10
-69.9203030405
 20
184.4124017401
 30
0.0
 10
-69.6129861638
 20
184.9345335822
 30
0.0
 10
-69.2348341988
 20
185.3888819429
 30
0.0
 10
-68.7976047674
 20
185.7608912696
 30
0.0
 10
-68.4702070796
 20
185.9489111446
 30
0.0
 10
-68.3019607077
 20
186.0245005504
 30
0.0
  0
SPLINE
  5
363
100
AcDbEntity
  8
0
100
AcDbSpline
 62
7
  6
CONTINUOUS
 70
0
 71
3
 72
15
 73
11
 74
0
 42
0.0000001
 43
0.0000001
 44
0.0000000001
 40
0.0
 40
0.0
 40
0.0
 40
0.0
 40
0.1163501487
 40
0.2338599548
 40
0.3535418955
 40
0.4761621879
 40
0.6021677904
 40
0.731667985
 40
0.8644407152
 40
1.0
 40
1.0
 40
1.0
 40
1.0
 10
-67.8694012937
 20
179.3013881441
 30
0.0
 10
-68.017928231
 20
179.3221902601
 30
0.0
 10
-68.313295918
 20
179.3918058323
 30
0.0
 10
-68.7325891537
 20
179.5762803904
 30
0.0
 10
-69.1194613895
 20
179.8363688752
 30
0.0
 10
-69.4645964773
 20
180.165499921
 30
0.0
 10
-69.7601034674
 20
180.5556072996
 30
0.0
 10
-69.9992624749
 20
180.997363818
 30
0.0
 10
-70.1767067141
 20
181.4802213596
 30
0.0
 10
-70.2506116772
 20
181.819384679
 30
0.0
 10
-70.2765137129
 20
181.9921916119
 30
0.0
  0
SPLINE
  5
364
100
AcDbEntity
  8
0
100
AcDbSpline
 62
7
  6
CONTINUOUS
 70
0
 71
3
 72
9
 73
5
 74
0
 42
0.0000001
 43
0.0000001
 44
0.0000000001
 40
0.0
 40
0.0
 40
0.0
 40
0.0
 40
0.5117651019
 40
1.0
 40
1.0
 40
1.0
 40
1.0
 10
-68.6904760934
 20
181.7779961297
 30
0.0
 10
-68.418858164
 20
181.8205579225
 30
0.0
 10
-67.8895485284
 20
181.9132242215
 30
0.0
 10
-67.3641995975
 20
182.026395977
 30
0.0
 10
-67.109102096
 20
182.0874044478
 30
0.0
  0
SPLINE
  5
365
100
AcDbEntity
  8
0
100
AcDbSpline
 62
7
  6
CONTINUOUS
 70
0
 71
3
 72
9
 73
5
 74
0
 42
0.0000001
 43
0.0000001
 44
0.0000000001
 40
0.0
 40
0.0
 40
0.0
 40
0.0
 40
0.5046244223
 40
1.0
 40
1.0
 40
1.0
 40
1.0
 10
-68.4242859934
 20
186.0416326468
 30
0.0
 10
-68.2925640475
 20
186.1008124289
 30
0.0
 10
-68.0219507957
 20
186.1979961269
 30
0.0
 10
-67.7389519526
 20
186.2496435961
 30
0.0
 10
-67.597839684
 20
186.2631661112
 30
0.0
  0
SPLINE
  5
366
100
AcDbEntity
  8
0
100
AcDbSpline
 62
7
  6
CONTINUOUS
 70
0
 71
3
 72
11
 73
7
 74
0
 42
0.0000001
 43
0.0000001
 44
0.0000000001
 40
0.0
 40
0.0
 40
0.0
 40
0.0
 40
0.2264334172
 40
0.4702536769
 40
0.7291158124
 40
1.0
 40
1.0
 40
1.0
 40
1.0
 10
-66.4659425521
 20
179.5106169241
 30
0.0
 10
-66.4074461243
 20
179.7152375849
 30
0.0
 10
-66.3131747467
 20
180.1482223311
 30
0.0
 10
-66.2379976637
 20
180.8303639386
 30
0.0
 10
-66.2247198001
 20
181.5581942419
 30
0.0
 10
-66.2567483838
 20
182.0556636995
 30
0.0
 10
-66.2826557866
 20
182.3089379122
 30
0.0
  0
SPLINE
  5
367
100
AcDbEntity
  8
0
100
AcDbSpline
 62
7
  6
CONTINUOUS
 70
0
 71
3
 72
9
 73
5
 74
0
 42
0.0000001
 43
0.0000001
 44
0.0000000001
 40
0.0
 40
0.0
 40
0.0
 40
0.0
 40
0.5332912718
 40
1.0
 40
1.0
 40
1.0
 40
1.0
 10
-66.2826557866
 20
182.3089379122
 30
0.0
 10
-66.0743124777
 20
182.3715458609
 30
0.0
 10
-65.6864905901
 20
182.4987747639
 30
0.0
 10
-65.30767666
 20
182.6514799567
 30
0.0
 10
-65.1347517895
 20
182.7311275238
 30
0.0
  0
SPLINE
  5
368
100
AcDbEntity
  8
0
100
AcDbSpline
 62
7
  6
CONTINUOUS
 70
0
 71
3
 72
9
 73
5
 74
0
 42
0.0000001
 43
0.0000001
 44
0.0000000001
 40
0.0
 40
0.0
 40
0.0
 40
0.0
 40
0.2525683012
 40
1.0
 40
1.0
 40
1.0
 40
1.0
 10
-65.1613128345
 20
183.1989211216
 30
0.0
 10
-65.1670434171
 20
183.2371530352
 30
0.0
 10
-65.1932305546
 20
183.3879755221
 30
0.0
 10
-65.2335360984
 20
183.5363869725
 30
0.0
 10
-65.2716218246
 20
183.6442659891
 30
0.0
  0
SPLINE
  5
369
100
AcDbEntity
  8
0
100
AcDbSpline
 62
7
  6
CONTINUOUS
 70
0
 71
3
 72
11
 73
7
 74
0
 42
0.0000001
 43
0.0000001
 44
0.0000000001
 40
0.0
 40
0.0
 40
0.0
 40
0.0
 40
0.2538852243
 40
0.5075384337
 40
0.7573908392
 40
1.0
 40
1.0
 40
1.0
 40
1.0
 10
-66.4274985288
 20
183.2752646622
 30
0.0
 10
-66.4791655294
 20
183.5377328021
 30
0.0
 10
-66.6016477357
 20
184.0588440744
 30
0.0
 10
-66.8395706179
 20
184.8212717087
 30
0.0
 10
-67.127937799
 20
185.5533500535
 30
0.0
 10
-67.3545171989
 20
186.0208598761
 30
0.0
 10
-67.4755143983
 20
186.2460340148
 30
0.0
  0
LINE
  5
36A
100
AcDbEntity
  8
0
100
AcDbLine
 62
7
  6
CONTINUOUS
 10
-65.1347517895
 20
182.7311275238
 11
-66.125158684
 21
182.7482872511
  0
SPLINE
  5
36B
100
AcDbEntity
  8
0
100
AcDbSpline
 62
7
  6
CONTINUOUS
 70
0
 71
3
 72
15
 73
11
 74
0
 42
0.0000001
 43
0.0000001
 44
0.0000000001
 40
0.0
 40
0.0
 40
0.0
 40
0.0
 40
0.1355587099
 40
0.268331558
 40
0.3978313812
 40
0.5238361972
 40
0.6464562729
 40
0.7661379332
 40
0.8836468734
 40
1.0
 40
1.0
 40
1.0
 40
1.0
 10
-84.274925735
 20
269.6115900256
 30
0.0
 10
-84.2490238186
 20
269.4387838884
 30
0.0
 10
-84.1751191746
 20
269.0996212502
 30
0.0
 10
-83.9976758266
 20
268.6167647308
 30
0.0
 10
-83.7585176381
 20
268.1750094061
 30
0.0
 10
-83.4630105857
 20
267.7849045717
 30
0.0
 10
-83.1178769831
 20
267.4557746347
 30
0.0
 10
-82.7310073162
 20
267.1956864706
 30
0.0
 10
-82.3117151311
 20
267.0112036975
 30
0.0
 10
-82.0163439008
 20
266.9415899115
 30
0.0
 10
-81.8678131113
 20
266.9207880191
 30
0.0
  0
SPLINE
  5
36C
100
AcDbEntity
  8
0
100
AcDbSpline
 62
7
  6
CONTINUOUS
 70
0
 71
3
 72
15
 73
11
 74
0
 42
0.0000001
 43
0.0000001
 44
0.0000000001
 40
0.0
 40
0.0
 40
0.0
 40
0.0
 40
0.1163501487
 40
0.2338599548
 40
0.3535418955
 40
0.4761621879
 40
0.6021677904
 40
0.731667985
 40
0.8644407152
 40
1.0
 40
1.0
 40
1.0
 40
1.0
 10
-80.0132249525
 20
273.7293639148
 30
0.0
 10
-79.8646980151
 20
273.7085617989
 30
0.0
 10
-79.5693303281
 20
273.6389462267
 30
0.0
 10
-79.1500370925
 20
273.4544716685
 30
0.0
 10
-78.7631648566
 20
273.1943831838
 30
0.0
 10
-78.4180297689
 20
272.865252138
 30
0.0
 10
-78.1225227787
 20
272.4751447594
 30
0.0
 10
-77.8833637712
 20
272.033388241
 30
0.0
 10
-77.7059195321
 20
271.5505306994
 30
0.0
 10
-77.632014569
 20
271.21136738
 30
0.0
 10
-77.6061125332
 20
271.038560447
 30
0.0
  0
SPLINE
  5
36D
100
AcDbEntity
  8
0
100
AcDbSpline
 62
7
  6
CONTINUOUS
 70
0
 71
3
 72
18
 73
14
 74
0
 42
0.0000001
 43
0.0000001
 44
0.0000000001
 40
0.0
 40
0.0
 40
0.0
 40
0.0
 40
0.056076705
 40
0.1124932352
 40
0.1695643146
 40
0.2275576754
 40
0.2866776106
 40
0.347054903
 40
0.4715127231
 40
0.6007217917
 40
0.7332689969
 40
0.8671169788
 40
1.0
 40
1.0
 40
1.0
 40
1.0
 10
-80.8969141928
 20
273.8531262827
 30
0.0
 10
-81.0122847326
 20
273.8692840474
 30
0.0
 10
-81.2463906283
 20
273.8851185678
 30
0.0
 10
-81.5987761269
 20
273.8586534469
 30
0.0
 10
-81.9479575205
 20
273.7824875429
 30
0.0
 10
-82.2887939689
 20
273.6578063866
 30
0.0
 10
-82.616471706
 20
273.4864617875
 30
0.0
 10
-83.0335333007
 20
273.196549178
 30
0.0
 10
-83.4974017801
 20
272.7286821767
 30
0.0
 10
-83.9266627678
 20
272.0438888771
 30
0.0
 10
-84.2129902478
 20
271.2674069025
 30
0.0
 10
-84.341025317
 20
270.4426401422
 30
0.0
 10
-84.3158468983
 20
269.884597938
 30
0.0
 10
-84.274925735
 20
269.6115900256
 30
0.0
  0
SPLINE
  5
36E
100
AcDbEntity
  8
0
100
AcDbSpline
 62
7
  6
CONTINUOUS
 70
0
 71
3
 72
11
 73
7
 74
0
 42
0.0000001
 43
0.0000001
 44
0.0000000001
 40
0.0
 40
0.0
 40
0.0
 40
0.0
 40
0.270420103
 40
0.5290768839
 40
0.7730357741
 40
1.0
 40
1.0
 40
1.0
 40
1.0
 10
-80.2238250823
 20
269.5830390322
 30
0.0
 10
-80.1983095026
 20
269.3335953336
 30
0.0
 10
-80.1664761355
 20
268.8434654038
 30
0.0
 10
-80.1781798903
 20
268.1259128429
 30
0.0
 10
-80.2499339356
 20
267.4522780094
 30
0.0
 10
-80.3405238527
 20
267.0240105013
 30
0.0
 10
-80.3968247395
 20
266.8212301233
 30
0.0
  0
SPLINE
  5
36F
100
AcDbEntity
  8
0
100
AcDbSpline
 62
7
  6
CONTINUOUS
 70
0
 71
3
 72
11
 73
7
 74
0
 42
0.0000001
 43
0.0000001
 44
0.0000000001
 40
0.0
 40
0.0
 40
0.0
 40
0.0
 40
0.2426089399
 40
0.4924612816
 40
0.7461146348
 40
1.0
 40
1.0
 40
1.0
 40
1.0
 10
-81.416683694
 20
273.5201351348
 30
0.0
 10
-81.2956866047
 20
273.2949612011
 30
0.0
 10
-81.069107317
 20
272.8274516592
 30
0.0
 10
-80.7807401377
 20
272.0953734734
 30
0.0
 10
-80.5428171393
 20
271.3329456306
 30
0.0
 10
-80.4203348537
 20
270.8118340678
 30
0.0
 10
-80.3686678245
 20
270.5493657822
 30
0.0
  0
SPLINE
  5
370
100
AcDbEntity
  8
0
100
AcDbSpline
 62
7
  6
CONTINUOUS
 70
0
 71
3
 72
9
 73
5
 74
0
 42
0.0000001
 43
0.0000001
 44
0.0000000001
 40
0.0
 40
0.0
 40
0.0
 40
0.0
 40
0.5040827913
 40
1.0
 40
1.0
 40
1.0
 40
1.0
 10
-79.7029908241
 20
267.0233836049
 30
0.0
 10
-79.8142098973
 20
266.973415314
 30
0.0
 10
-80.0416197211
 20
266.8886366948
 30
0.0
 10
-80.2785727963
 20
266.8358040979
 30
0.0
 10
-80.3972074673
 20
266.8180675212
 30
0.0
  0
SPLINE
  5
371
100
AcDbEntity
  8
0
100
AcDbSpline
 62
7
  6
CONTINUOUS
 70
0
 71
3
 72
9
 73
5
 74
0
 42
0.0000001
 43
0.0000001
 44
0.0000000001
 40
0.0
 40
0.0
 40
0.0
 40
0.0
 40
0.4646025227
 40
1.0
 40
1.0
 40
1.0
 40
1.0
 10
-78.3863450277
 20
271.1399000285
 30
0.0
 10
-78.5628208002
 20
271.0752689297
 30
0.0
 10
-78.9462948608
 20
270.9460659589
 30
0.0
 10
-79.3339273921
 20
270.8302183723
 30
0.0
 10
-79.542221515
 20
270.7708992466
 30
0.0
  0
SPLINE
  5
372
100
AcDbEntity
  8
0
100
AcDbSpline
 62
7
  6
CONTINUOUS
 70
0
 71
3
 72
15
 73
11
 74
0
 42
0.0000001
 43
0.0000001
 44
0.0000000001
 40
0.0
 40
0.0
 40
0.0
 40
0.0
 40
0.1287641541
 40
0.2586359784
 40
0.3883978941
 40
0.5168297964
 40
0.6428490844
 40
0.7656242743
 40
0.8846802251
 40
1.0
 40
1.0
 40
1.0
 40
1.0
 10
-77.6061125332
 20
271.038560447
 30
0.0
 10
-77.5755836963
 20
270.8348855419
 30
0.0
 10
-77.5459800436
 20
270.4203827504
 30
0.0
 10
-77.594880846
 20
269.798908068
 30
0.0
 10
-77.735079411
 20
269.1918673223
 30
0.0
 10
-77.9623232057
 20
268.6183503189
 30
0.0
 10
-78.2696400824
 20
268.0962184768
 30
0.0
 10
-78.6477920473
 20
267.641870116
 30
0.0
 10
-79.0850214787
 20
267.2698607894
 30
0.0
 10
-79.4124191666
 20
267.0818409143
 30
0.0
 10
-79.5806655384
 20
267.0062515085
 30
0.0
  0
SPLINE
  5
373
100
AcDbEntity
  8
0
100
AcDbSpline
 62
7
  6
CONTINUOUS
 70
0
 71
3
 72
15
 73
11
 74
0
 42
0.0000001
 43
0.0000001
 44
0.0000000001
 40
0.0
 40
0.0
 40
0.0
 40
0.0
 40
0.1287641541
 40
0.2586359784
 40
0.3883978941
 40
0.5168297964
 40
0.6428490844
 40
0.7656242743
 40
0.8846802251
 40
1.0
 40
1.0
 40
1.0
 40
1.0
 10
-83.3912366992
 20
269.4878261963
 30
0.0
 10
-83.4217655361
 20
269.6915011015
 30
0.0
 10
-83.4513691888
 20
270.106003893
 30
0.0
 10
-83.4024683864
 20
270.7274785754
 30
0.0
 10
-83.2622698214
 20
271.334519321
 30
0.0
 10
-83.0350260267
 20
271.9080363245
 30
0.0
 10
-82.72770915
 20
272.4301681666
 30
0.0
 10
-82.3495571851
 20
272.8845165273
 30
0.0
 10
-81.9123277537
 20
273.256525854
 30
0.0
 10
-81.5849300658
 20
273.444545729
 30
0.0
 10
-81.416683694
 20
273.5201351348
 30
0.0
  0
SPLINE
  5
374
100
AcDbEntity
  8
0
100
AcDbSpline
 62
7
  6
CONTINUOUS
 70
0
 71
3
 72
15
 73
11
 74
0
 42
0.0000001
 43
0.0000001
 44
0.0000000001
 40
0.0
 40
0.0
 40
0.0
 40
0.0
 40
0.1163501487
 40
0.2338599548
 40
0.3535418955
 40
0.4761621879
 40
0.6021677904
 40
0.731667985
 40
0.8644407152
 40
1.0
 40
1.0
 40
1.0
 40
1.0
 10
-80.9841242799
 20
266.7970227285
 30
0.0
 10
-81.1326512173
 20
266.8178248445
 30
0.0
 10
-81.4280189043
 20
266.8874404167
 30
0.0
 10
-81.8473121399
 20
267.0719149748
 30
0.0
 10
-82.2341843758
 20
267.3320034596
 30
0.0
 10
-82.5793194636
 20
267.6611345054
 30
0.0
 10
-82.8748264537
 20
268.051241884
 30
0.0
 10
-83.1139854612
 20
268.4929984024
 30
0.0
 10
-83.2914297004
 20
268.975855944
 30
0.0
 10
-83.3653346634
 20
269.3150192634
 30
0.0
 10
-83.3912366992
 20
269.4878261963
 30
0.0
  0
SPLINE
  5
375
100
AcDbEntity
  8
0
100
AcDbSpline
 62
7
  6
CONTINUOUS
 70
0
 71
3
 72
9
 73
5
 74
0
 42
0.0000001
 43
0.0000001
 44
0.0000000001
 40
0.0
 40
0.0
 40
0.0
 40
0.0
 40
0.5117651019
 40
1.0
 40
1.0
 40
1.0
 40
1.0
 10
-81.8051990796
 20
269.2736307141
 30
0.0
 10
-81.5335811503
 20
269.3161925069
 30
0.0
 10
-81.0042715147
 20
269.4088588059
 30
0.0
 10
-80.4789225838
 20
269.5220305614
 30
0.0
 10
-80.2238250823
 20
269.5830390322
 30
0.0
  0
SPLINE
  5
376
100
AcDbEntity
  8
0
100
AcDbSpline
 62
7
  6
CONTINUOUS
 70
0
 71
3
 72
9
 73
5
 74
0
 42
0.0000001
 43
0.0000001
 44
0.0000000001
 40
0.0
 40
0.0
 40
0.0
 40
0.0
 40
0.5046244223
 40
1.0
 40
1.0
 40
1.0
 40
1.0
 10
-81.5390089797
 20
273.5372672313
 30
0.0
 10
-81.4072870338
 20
273.5964470134
 30
0.0
 10
-81.136673782
 20
273.6936307113
 30
0.0
 10
-80.8536749388
 20
273.7452781805
 30
0.0
 10
-80.7125626702
 20
273.7588006956
 30
0.0
  0
SPLINE
  5
377
100
AcDbEntity
  8
0
100
AcDbSpline
 62
7
  6
CONTINUOUS
 70
0
 71
3
 72
11
 73
7
 74
0
 42
0.0000001
 43
0.0000001
 44
0.0000000001
 40
0.0
 40
0.0
 40
0.0
 40
0.0
 40
0.2264334172
 40
0.4702536769
 40
0.7291158124
 40
1.0
 40
1.0
 40
1.0
 40
1.0
 10
-79.5806655384
 20
267.0062515085
 30
0.0
 10
-79.5221691105
 20
267.2108721694
 30
0.0
 10
-79.4278977329
 20
267.6438569156
 30
0.0
 10
-79.35272065
 20
268.325998523
 30
0.0
 10
-79.3394427864
 20
269.0538288264
 30
0.0
 10
-79.3714713701
 20
269.5512982839
 30
0.0
 10
-79.3973787729
 20
269.8045724966
 30
0.0
  0
SPLINE
  5
378
100
AcDbEntity
  8
0
100
AcDbSpline
 62
7
  6
CONTINUOUS
 70
0
 71
3
 72
9
 73
5
 74
0
 42
0.0000001
 43
0.0000001
 44
0.0000000001
 40
0.0
 40
0.0
 40
0.0
 40
0.0
 40
0.5332912718
 40
1.0
 40
1.0
 40
1.0
 40
1.0
 10
-79.3973787729
 20
269.8045724966
 30
0.0
 10
-79.1890354639
 20
269.8671804453
 30
0.0
 10
-78.8012135763
 20
269.9944093484
 30
0.0
 10
-78.4223996463
 20
270.1471145411
 30
0.0
 10
-78.2494747758
 20
270.2267621082
 30
0.0
  0
SPLINE
  5
379
100
AcDbEntity
  8
0
100
AcDbSpline
 62
7
  6
CONTINUOUS
 70
0
 71
3
 72
9
 73
5
 74
0
 42
0.0000001
 43
0.0000001
 44
0.0000000001
 40
0.0
 40
0.0
 40
0.0
 40
0.0
 40
0.2525683012
 40
1.0
 40
1.0
 40
1.0
 40
1.0
 10
-78.2760358208
 20
270.6945557061
 30
0.0
 10
-78.2817664033
 20
270.7327876196
 30
0.0
 10
-78.3079535409
 20
270.8836101065
 30
0.0
 10
-78.3482590847
 20
271.0320215569
 30
0.0
 10
-78.3863448109
 20
271.1399005735
 30
0.0
  0
SPLINE
  5
37A
100
AcDbEntity
  8
0
100
AcDbSpline
 62
7
  6
CONTINUOUS
 70
0
 71
3
 72
11
 73
7
 74
0
 42
0.0000001
 43
0.0000001
 44
0.0000000001
 40
0.0
 40
0.0
 40
0.0
 40
0.0
 40
0.2538852243
 40
0.5075384337
 40
0.7573908392
 40
1.0
 40
1.0
 40
1.0
 40
1.0
 10
-79.542221515
 20
270.7708992466
 30
0.0
 10
-79.5938885156
 20
271.0333673865
 30
0.0
 10
-79.716370722
 20
271.5544786589
 30
0.0
 10
-79.9542936042
 20
272.3169062931
 30
0.0
 10
-80.2426607853
 20
273.048984638
 30
0.0
 10
-80.4692401852
 20
273.5164944605
 30
0.0
 10
-80.5902373846
 20
273.7416685992
 30
0.0
  0
LINE
  5
37B
100
AcDbEntity
  8
0
100
AcDbLine
 62
7
  6
CONTINUOUS
 10
-78.2494747758
 20
270.2267621082
 11
-79.2398816703
 21
270.2439218356
  0
SPLINE
  5
37C
100
AcDbEntity
  8
0
100
AcDbSpline
 62
7
  6
CONTINUOUS
 70
0
 71
3
 72
11
 73
7
 74
0
 42
0.0000001
 43
0.0000001
 44
0.0000000001
 40
0.0
 40
0.0
 40
0.0
 40
0.0
 40
0.2565970683
 40
0.5086758049
 40
0.7562438695
 40
1.0
 40
1.0
 40
1.0
 40
1.0
 10
-230.0035573594
 20
253.230178469
 30
0.0
 10
-230.4223948554
 20
251.4136482853
 30
0.0
 10
-230.9805694592
 20
247.7425222686
 30
0.0
 10
-230.9190083237
 20
242.2235592831
 30
0.0
 10
-229.9201707047
 20
236.8873013841
 30
0.0
 10
-228.6071716391
 20
233.5388840906
 30
0.0
 10
-227.7964355305
 20
231.9644648843
 30
0.0
  0
SPLINE
  5
37D
100
AcDbEntity
  8
0
100
AcDbSpline
 62
7
  6
CONTINUOUS
 70
0
 71
3
 72
15
 73
11
 74
0
 42
0.0000001
 43
0.0000001
 44
0.0000000001
 40
0.0
 40
0.0
 40
0.0
 40
0.0
 40
0.119267979
 40
0.2404159367
 40
0.3637604178
 40
0.489269993
 40
0.6165037468
 40
0.7446848921
 40
0.8728340858
 40
1.0
 40
1.0
 40
1.0
 40
1.0
 10
-199.6940052795
 20
281.4155969741
 30
0.0
 10
-201.4452373766
 20
281.3000310751
 30
0.0
 10
-204.9600290679
 20
280.7108928206
 30
0.0
 10
-210.0103643688
 20
278.858096538
 30
0.0
 10
-214.7492145738
 20
276.1264158997
 30
0.0
 10
-219.0605618649
 20
272.6216259657
 30
0.0
 10
-222.843420738
 20
268.4576753514
 30
0.0
 10
-226.0040607158
 20
263.7575224919
 30
0.0
 10
-228.4585033362
 20
258.6554778989
 30
0.0
 10
-229.5831315349
 20
255.0535973545
 30
0.0
 10
-230.0035573594
 20
253.230178469
 30
0.0
  0
SPLINE
  5
37E
100
AcDbEntity
  8
0
100
AcDbSpline
 62
7
  6
CONTINUOUS
 70
0
 71
3
 72
9
 73
5
 74
0
 42
0.0000001
 43
0.0000001
 44
0.0000000001
 40
0.0
 40
0.0
 40
0.0
 40
0.0
 40
0.5269365392
 40
1.0
 40
1.0
 40
1.0
 40
1.0
 10
-207.8394538968
 20
276.5612799153
 30
0.0
 10
-209.8635425882
 20
275.4275993193
 30
0.0
 10
-213.556743389
 20
272.9914698386
 30
0.0
 10
-216.8129056887
 20
270.0020375793
 30
0.0
 10
-218.24605279
 20
268.4907509445
 30
0.0
  0
SPLINE
  5
37F
100
AcDbEntity
  8
0
100
AcDbSpline
 62
7
  6
CONTINUOUS
 70
0
 71
3
 72
9
 73
5
 74
0
 42
0.0000001
 43
0.0000001
 44
0.0000000001
 40
0.0
 40
0.0
 40
0.0
 40
0.0
 40
0.4831306714
 40
1.0
 40
1.0
 40
1.0
 40
1.0
 10
-221.5828052997
 20
263.9219150257
 30
0.0
 10
-222.7457448841
 20
261.8863124691
 30
0.0
 10
-224.9014295712
 20
257.5207129106
 30
0.0
 10
-226.3643717308
 20
252.86849689
 30
0.0
 10
-226.9278782471
 20
250.4245261249
 30
0.0
  0
SPLINE
  5
380
100
AcDbEntity
  8
0
100
AcDbSpline
 62
7
  6
CONTINUOUS
 70
0
 71
3
 72
9
 73
5
 74
0
 42
0.0000001
 43
0.0000001
 44
0.0000000001
 40
0.0
 40
0.0
 40
0.0
 40
0.0
 40
0.2095461403
 40
1.0
 40
1.0
 40
1.0
 40
1.0
 10
-227.1396114655
 20
229.9187082564
 30
0.0
 10
-226.7805407946
 20
229.5401972888
 30
0.0
 10
-225.0420450624
 20
227.7574937918
 30
0.0
 10
-223.2098272404
 20
226.0679606943
 30
0.0
 10
-221.7340091666
 20
224.7659238299
 30
0.0
  0
SPLINE
  5
381
100
AcDbEntity
  8
0
100
AcDbSpline
 62
7
  6
CONTINUOUS
 70
0
 71
3
 72
9
 73
5
 74
0
 42
0.0000001
 43
0.0000001
 44
0.0000000001
 40
0.0
 40
0.0
 40
0.0
 40
0.0
 40
0.2542236434
 40
1.0
 40
1.0
 40
1.0
 40
1.0
 10
-228.3318424185
 20
234.6508259882
 30
0.0
 10
-228.2629677293
 20
234.2428077152
 30
0.0
 10
-227.9610541715
 20
232.6433016061
 30
0.0
 10
-227.5329071239
 20
231.067101149
 30
0.0
 10
-227.1396114655
 20
229.9187082564
 30
0.0
  0
SPLINE
  5
382
100
AcDbEntity
  8
0
100
AcDbSpline
 62
7
  6
CONTINUOUS
 70
0
 71
3
 72
9
 73
5
 74
0
 42
0.0000001
 43
0.0000001
 44
0.0000000001
 40
0.0
 40
0.0
 40
0.0
 40
0.0
 40
0.4969329507
 40
1.0
 40
1.0
 40
1.0
 40
1.0
 10
-226.9278782471
 20
250.4245261249
 30
0.0
 10
-227.5183857657
 20
247.863449952
 30
0.0
 10
-228.2874781218
 20
242.6083399002
 30
0.0
 10
-228.3912156838
 20
237.3108779661
 30
0.0
 10
-228.3318424185
 20
234.6508259882
 30
0.0
  0
SPLINE
  5
383
100
AcDbEntity
  8
0
100
AcDbSpline
 62
7
  6
CONTINUOUS
 70
0
 71
3
 72
9
 73
5
 74
0
 42
0.0000001
 43
0.0000001
 44
0.0000000001
 40
0.0
 40
0.0
 40
0.0
 40
0.0
 40
0.506542275
 40
1.0
 40
1.0
 40
1.0
 40
1.0
 10
-202.8867367859
 20
279.0014321725
 30
0.0
 10
-203.7421003153
 20
278.6299555155
 30
0.0
 10
-205.4156261393
 20
277.8608996868
 30
0.0
 10
-207.0468514797
 20
277.0052120337
 30
0.0
 10
-207.8394538968
 20
276.5612799153
 30
0.0
  0
SPLINE
  5
384
100
AcDbEntity
  8
0
100
AcDbSpline
 62
7
  6
CONTINUOUS
 70
0
 71
3
 72
14
 73
10
 74
0
 42
0.0000001
 43
0.0000001
 44
0.0000000001
 40
0.0
 40
0.0
 40
0.0
 40
0.0
 40
0.113389095
 40
0.2319442698
 40
0.3551772563
 40
0.4821660586
 40
0.6116683675
 40
0.7422437632
 40
1.0
 40
1.0
 40
1.0
 40
1.0
 10
-201.3159226045
 20
280.2272299077
 30
0.0
 10
-202.8422624611
 20
279.8705347123
 30
0.0
 10
-205.9035336155
 20
278.8578789297
 30
0.0
 10
-210.2750420913
 20
276.5832948149
 30
0.0
 10
-214.4181130008
 20
273.5829290276
 30
0.0
 10
-218.2195432103
 20
269.9411118643
 30
0.0
 10
-221.5785971965
 20
265.755413475
 30
0.0
 10
-225.3239378257
 20
259.6412142062
 30
0.0
 10
-227.253354969
 20
254.5469661041
 30
0.0
 10
-228.0539093259
 20
251.0749007637
 30
0.0
  0
SPLINE
  5
385
100
AcDbEntity
  8
0
100
AcDbSpline
 62
7
  6
CONTINUOUS
 70
0
 71
3
 72
9
 73
5
 74
0
 42
0.0000001
 43
0.0000001
 44
0.0000000001
 40
0.0
 40
0.0
 40
0.0
 40
0.0
 40
0.5139399752
 40
1.0
 40
1.0
 40
1.0
 40
1.0
 10
-228.0539093259
 20
251.0749007637
 30
0.0
 10
-228.6067815257
 20
248.6770518408
 30
0.0
 10
-229.2461644282
 20
243.8966037816
 30
0.0
 10
-228.8663711138
 20
239.0763840392
 30
0.0
 10
-228.3994359227
 20
236.7964358873
 30
0.0
  0
SPLINE
  5
386
100
AcDbEntity
  8
0
100
AcDbSpline
 62
7
  6
CONTINUOUS
 70
0
 71
3
 72
25
 73
21
 74
0
 42
0.0000001
 43
0.0000001
 44
0.0000000001
 40
0.0
 40
0.0
 40
0.0
 40
0.0
 40
0.0157125681
 40
0.0319505943
 40
0.0491799816
 40
0.0677686538
 40
0.1099229086
 40
0.159582338
 40
0.2167964664
 40
0.2809689453
 40
0.3510776773
 40
0.4258113477
 40
0.5036622451
 40
0.5829993212
 40
0.6621349856
 40
0.7393892249
 40
0.8131527543
 40
0.8819578545
 40
0.9445506783
 40
1.0
 40
1.0
 40
1.0
 40
1.0
 10
-35.0216588714
 20
307.4978558733
 30
0.0
 10
-35.02165051
 20
307.9270195201
 30
0.0
 10
-34.9316636143
 20
308.802081257
 30
0.0
 10
-34.5322574359
 20
310.0925462533
 30
0.0
 10
-33.8739940614
 20
311.3604152891
 30
0.0
 10
-32.6082990688
 20
313.0818974417
 30
0.0
 10
-30.3485861405
 20
315.1214840946
 30
0.0
 10
-26.8705651395
 20
317.2626426222
 30
0.0
 10
-22.5899991272
 20
319.1623614575
 30
0.0
 10
-17.6068017788
 20
320.7756056377
 30
0.0
 10
-12.0389608012
 20
322.0637595859
 30
0.0
 10
-6.0229998847
 20
322.9938968109
 30
0.0
 10
0.2922113843
 20
323.5422531241
 30
0.0
 10
6.7493840857
 20
323.6946697405
 30
0.0
 10
13.1873279428
 20
323.4472258177
 30
0.0
 10
19.4453894584
 20
322.8062667232
 30
0.0
 10
25.3677022688
 20
321.7883959276
 30
0.0
 10
30.8083753642
 20
320.4194022701
 30
0.0
 10
35.6332160731
 20
318.7346171072
 30
0.0
 10
38.5511668209
 20
317.3382100051
 30
0.0
 10
39.8626392039
 20
316.5807279129
 30
0.0
  0
SPLINE
  5
387
100
AcDbEntity
  8
0
100
AcDbSpline
 62
7
  6
CONTINUOUS
 70
0
 71
3
 72
26
 73
22
 74
0
 42
0.0000001
 43
0.0000001
 44
0.0000000001
 40
0.0
 40
0.0
 40
0.0
 40
0.0
 40
0.0157791383
 40
0.0322979817
 40
0.0499635002
 40
0.069084216
 40
0.0898735882
 40
0.1124604221
 40
0.1631884365
 40
0.2212301839
 40
0.285927782
 40
0.3562465633
 40
0.4308919244
 40
0.5083927121
 40
0.5871698774
 40
0.6655979243
 40
0.7420639821
 40
0.8150271875
 40
0.8830841034
 40
0.9450372234
 40
1.0
 40
1.0
 40
1.0
 40
1.0
 10
-52.3273858764
 20
307.012503851
 30
0.0
 10
-52.2674431514
 20
307.6182590336
 30
0.0
 10
-52.0189053287
 20
308.848614662
 30
0.0
 10
-51.2890997527
 20
310.6427633022
 30
0.0
 10
-50.2070417262
 20
312.4010469336
 30
0.0
 10
-48.7832078553
 20
314.1138340243
 30
0.0
 10
-47.0275846484
 20
315.7734017204
 30
0.0
 10
-44.1463319336
 20
317.9901156452
 30
0.0
 10
-39.7386477121
 20
320.5332844397
 30
0.0
 10
-33.557999654
 20
323.1296879988
 30
0.0
 10
-26.4295260408
 20
325.3223680755
 30
0.0
 10
-18.5219582448
 20
327.0581141768
 30
0.0
 10
-10.0226880115
 20
328.2943519852
 30
0.0
 10
-1.1364077158
 20
329.0002508085
 30
0.0
 10
7.9221618181
 20
329.1581837591
 30
0.0
 10
16.9336389585
 20
328.764218981
 30
0.0
 10
25.6799725147
 20
327.828170512
 30
0.0
 10
33.9499216775
 20
326.3735234685
 30
0.0
 10
41.5458928586
 20
324.4359812256
 30
0.0
 10
48.2861971365
 20
322.0640205287
 30
0.0
 10
52.3654277188
 20
320.1058028424
 30
0.0
 10
54.2014826724
 20
319.0453315998
 30
0.0
  0
SPLINE
  5
388
100
AcDbEntity
  8
0
100
AcDbSpline
 62
7
  6
CONTINUOUS
 70
0
 71
3
 72
13
 73
9
 74
0
 42
0.0000001
 43
0.0000001
 44
0.0000000001
 40
0.0
 40
0.0
 40
0.0
 40
0.0
 40
0.30745118
 40
0.444374449
 40
0.5707356865
 40
0.7961193261
 40
0.8995508988
 40
1.0
 40
1.0
 40
1.0
 40
1.0
 10
39.8626392039
 20
316.580727913
 30
0.0
 10
40.93188771
 20
315.9631498336
 30
0.0
 10
42.4272140261
 20
314.9700661834
 30
0.0
 10
44.1382965602
 20
313.438397253
 30
0.0
 10
45.4505622865
 20
311.9769402769
 30
0.0
 10
46.4162295706
 20
310.3858182869
 30
0.0
 10
46.8990506744
 20
308.72215869
 30
0.0
 10
46.9783426387
 20
307.9012795532
 30
0.0
 10
46.9783405531
 20
307.4978558733
 30
0.0
  0
SPLINE
  5
389
100
AcDbEntity
  8
0
100
AcDbSpline
 62
7
  6
CONTINUOUS
 70
0
 71
3
 72
13
 73
9
 74
0
 42
0.0000001
 43
0.0000001
 44
0.0000000001
 40
0.0
 40
0.0
 40
0.0
 40
0.0
 40
0.3045696624
 40
0.5678615448
 40
0.6857306198
 40
0.7958454777
 40
0.8998901762
 40
1.0
 40
1.0
 40
1.0
 40
1.0
 10
54.2014826724
 20
319.0453315998
 30
0.0
 10
55.6299667941
 20
318.2202657005
 30
0.0
 10
58.2069208249
 20
316.5213121593
 30
0.0
 10
60.9427723106
 20
313.9686996314
 30
0.0
 10
62.5413034553
 20
311.8332652741
 30
0.0
 10
63.4211043629
 20
310.257676514
 30
0.0
 10
64.0191515369
 20
308.6566887837
 30
0.0
 10
64.2287600286
 20
307.5643029626
 30
0.0
 10
64.2828825001
 20
307.0247873889
 30
0.0
  0
SPLINE
  5
38A
100
AcDbEntity
  8
0
100
AcDbSpline
 62
7
  6
CONTINUOUS
 70
0
 71
3
 72
13
 73
9
 74
0
 42
0.0000001
 43
0.0000001
 44
0.0000000001
 40
0.0
 40
0.0
 40
0.0
 40
0.0
 40
0.1004483953
 40
0.2038794254
 40
0.4292630099
 40
0.5556246272
 40
0.6925486389
 40
1.0
 40
1.0
 40
1.0
 40
1.0
 10
-35.0216477527
 20
306.118853953
 30
0.0
 10
-35.0216487344
 20
305.7154332959
 30
0.0
 10
-34.9423645146
 20
304.8945590433
 30
0.0
 10
-34.4595432815
 20
303.2309053479
 30
0.0
 10
-33.4938867332
 20
301.6397798887
 30
0.0
 10
-32.1816195347
 20
300.1783190547
 30
0.0
 10
-30.4705350979
 20
298.6466461861
 30
0.0
 10
-28.9752068073
 20
297.6535600691
 30
0.0
 10
-27.9059581691
 20
297.0359819135
 30
0.0
  0
SPLINE
  5
38B
100
AcDbEntity
  8
0
100
AcDbSpline
 62
7
  6
CONTINUOUS
 70
0
 71
3
 72
25
 73
21
 74
0
 42
0.0000001
 43
0.0000001
 44
0.0000000001
 40
0.0
 40
0.0
 40
0.0
 40
0.0
 40
0.0157126034
 40
0.0319506946
 40
0.0491802231
 40
0.0677690195
 40
0.1099235496
 40
0.1595827907
 40
0.2167958209
 40
0.2809671016
 40
0.351075894
 40
0.4258106235
 40
0.503662407
 40
0.5829998451
 40
0.6621355118
 40
0.7393895871
 40
0.8131533624
 40
0.8819584154
 40
0.9445509148
 40
1.0
 40
1.0
 40
1.0
 40
1.0
 10
46.9783405531
 20
307.4978558733
 30
0.0
 10
46.9783383345
 20
307.0686912532
 30
0.0
 10
46.8883390083
 20
306.1936273841
 30
0.0
 10
46.4889399693
 20
304.9031540103
 30
0.0
 10
45.8306599657
 20
303.6352826564
 30
0.0
 10
44.5649644785
 20
301.913783541
 30
0.0
 10
42.3052346433
 20
299.8742034776
 30
0.0
 10
38.8272370646
 20
297.733063057
 30
0.0
 10
34.5467330636
 20
295.8333713864
 30
0.0
 10
29.5635967094
 20
294.2201383466
 30
0.0
 10
23.9957599893
 20
292.931974542
 30
0.0
 10
17.9797457914
 20
292.0018215091
 30
0.0
 10
11.6644716146
 20
291.4534580871
 30
0.0
 10
5.2072645444
 20
291.3010423082
 30
0.0
 10
-1.230684756
 20
291.5484895268
 30
0.0
 10
-7.4887485403
 20
292.1894501239
 30
0.0
 10
-13.4110617559
 20
293.2073252319
 30
0.0
 10
-18.8517307225
 20
294.5763214329
 30
0.0
 10
-23.6765551134
 20
296.2611031609
 30
0.0
 10
-26.5944913579
 20
297.6575049597
 30
0.0
 10
-27.9059581691
 20
298.4149838336
 30
0.0
  0
SPLINE
  5
38C
100
AcDbEntity
  8
0
100
AcDbSpline
 62
7
  6
CONTINUOUS
 70
0
 71
3
 72
13
 73
9
 74
0
 42
0.0000001
 43
0.0000001
 44
0.0000000001
 40
0.0
 40
0.0
 40
0.0
 40
0.0
 40
0.3074454925
 40
0.4443665154
 40
0.5707294886
 40
0.79611727
 40
0.8995499599
 40
1.0
 40
1.0
 40
1.0
 40
1.0
 10
-27.9059581691
 20
298.4149838336
 30
0.0
 10
-28.9751868492
 20
299.0325504618
 30
0.0
 10
-30.4704917218
 20
300.0256085642
 30
0.0
 10
-32.181555434
 20
301.5572609505
 30
0.0
 10
-33.4938411108
 20
303.0187184269
 30
0.0
 10
-34.4595384582
 20
304.6098581279
 30
0.0
 10
-34.9423657523
 20
306.2735409893
 30
0.0
 10
-35.0216667314
 20
307.0944284403
 30
0.0
 10
-35.0216588714
 20
307.4978558733
 30
0.0
  0
SPLINE
  5
38D
100
AcDbEntity
  8
0
100
AcDbSpline
 62
7
  6
CONTINUOUS
 70
0
 71
3
 72
25
 73
21
 74
0
 42
0.0000001
 43
0.0000001
 44
0.0000000001
 40
0.0
 40
0.0
 40
0.0
 40
0.0
 40
0.0554492105
 40
0.1180419337
 40
0.186847055
 40
0.2606106215
 40
0.3378649234
 40
0.4170007139
 40
0.4963380581
 40
0.574189679
 40
0.6489243286
 40
0.7190330934
 40
0.7832043406
 40
0.8404173143
 40
0.8900764889
 40
0.9322309736
 40
0.9508197526
 40
0.9680492872
 40
0.9842873958
 40
1.0
 40
1.0
 40
1.0
 40
1.0
 10
-27.9059581691
 20
297.0359819135
 30
0.0
 10
-26.5944887626
 20
296.2785015405
 30
0.0
 10
-23.6765441933
 20
294.8820968998
 30
0.0
 10
-18.851709308
 20
293.197314941
 30
0.0
 10
-13.4110389591
 20
291.8283212767
 30
0.0
 10
-7.4887243705
 20
290.8104504607
 30
0.0
 10
-1.230658297
 20
290.1694915524
 30
0.0
 10
5.2072963776
 20
289.9220479837
 30
0.0
 10
11.664497914
 20
290.0744666978
 30
0.0
 10
17.9797609093
 20
290.622831948
 30
0.0
 10
23.9957658057
 20
291.552985505
 30
0.0
 10
29.5635968875
 20
292.8411495144
 30
0.0
 10
34.5467283566
 20
294.4543822573
 30
0.0
 10
38.8272271204
 20
296.3540721814
 30
0.0
 10
42.3052192941
 20
298.4952097022
 30
0.0
 10
44.5649480606
 20
300.5347849361
 30
0.0
 10
45.830641257
 20
302.2562826278
 30
0.0
 10
46.488925658
 20
303.5241517571
 30
0.0
 10
46.8883221716
 20
304.8146258105
 30
0.0
 10
46.9783277432
 20
305.689689432
 30
0.0
 10
46.9783287875
 20
306.1188539533
 30
0.0
  0
SPLINE
  5
38E
100
AcDbEntity
  8
0
100
AcDbSpline
 62
7
  6
CONTINUOUS
 70
0
 71
3
 72
9
 73
5
 74
0
 42
0.0000001
 43
0.0000001
 44
0.0000000001
 40
0.0
 40
0.0
 40
0.0
 40
0.0
 40
0.2288921309
 40
1.0
 40
1.0
 40
1.0
 40
1.0
 10
58.6429743338
 20
321.6905653155
 30
0.0
 10
58.84921453
 20
321.3190489023
 30
0.0
 10
59.8465628442
 20
319.7491079681
 30
0.0
 10
61.1744080599
 20
318.4088680964
 30
0.0
 10
62.2739050794
 20
317.4921744047
 30
0.0
  0
SPLINE
  5
38F
100
AcDbEntity
  8
0
100
AcDbSpline
 62
7
  6
CONTINUOUS
 70
0
 71
3
 72
9
 73
5
 74
0
 42
0.0000001
 43
0.0000001
 44
0.0000000001
 40
0.0
 40
0.0
 40
0.0
 40
0.0
 40
0.4725915768
 40
1.0
 40
1.0
 40
1.0
 40
1.0
 10
62.2739050794
 20
317.4921744047
 30
0.0
 10
63.1254830649
 20
316.7821805135
 30
0.0
 10
65.0412735193
 20
315.4149555944
 30
0.0
 10
67.0957060615
 20
314.2736966064
 30
0.0
 10
68.2024598276
 20
313.7204481693
 30
0.0
  0
SPLINE
  5
390
100
AcDbEntity
  8
0
100
AcDbSpline
 62
7
  6
CONTINUOUS
 70
0
 71
3
 72
9
 73
5
 74
0
 42
0.0000001
 43
0.0000001
 44
0.0000000001
 40
0.0
 40
0.0
 40
0.0
 40
0.0
 40
0.4789031452
 40
1.0
 40
1.0
 40
1.0
 40
1.0
 10
68.1558895079
 20
308.2195953251
 30
0.0
 10
68.248717968
 20
307.4631923853
 30
0.0
 10
68.6778602435
 20
305.9071186294
 30
0.0
 10
69.4827203231
 20
304.5168933737
 30
0.0
 10
69.9648935144
 20
303.8422707115
 30
0.0
  0
SPLINE
  5
391
100
AcDbEntity
  8
0
100
AcDbSpline
 62
7
  6
CONTINUOUS
 70
0
 71
3
 72
9
 73
5
 74
0
 42
0.0000001
 43
0.0000001
 44
0.0000000001
 40
0.0
 40
0.0
 40
0.0
 40
0.0
 40
0.5101536178
 40
1.0
 40
1.0
 40
1.0
 40
1.0
 10
-56.9278933607
 20
301.4312397452
 30
0.0
 10
-56.6747961096
 20
301.9859279237
 30
0.0
 10
-56.279126143
 20
303.1236762693
 30
0.0
 10
-56.1410206546
 20
304.3224280632
 30
0.0
 10
-56.1410257788
 20
304.9078607166
 30
0.0
  0
SPLINE
  5
392
100
AcDbEntity
  8
0
100
AcDbSpline
 62
7
  6
CONTINUOUS
 70
0
 71
3
 72
9
 73
5
 74
0
 42
0.0000001
 43
0.0000001
 44
0.0000000001
 40
0.0
 40
0.0
 40
0.0
 40
0.0
 40
0.5294703325
 40
1.0
 40
1.0
 40
1.0
 40
1.0
 10
-57.5925895609
 20
311.3302748036
 30
0.0
 10
-56.6316047209
 20
311.9197548443
 30
0.0
 10
-54.8718311496
 20
313.1279156208
 30
0.0
 10
-53.2902340249
 20
314.568867844
 30
0.0
 10
-52.6152247087
 20
315.3092193571
 30
0.0
  0
SPLINE
  5
393
100
AcDbEntity
  8
0
100
AcDbSpline
 62
7
  6
CONTINUOUS
 70
0
 71
3
 72
9
 73
5
 74
0
 42
0.0000001
 43
0.0000001
 44
0.0000000001
 40
0.0
 40
0.0
 40
0.0
 40
0.0
 40
0.5264376627
 40
1.0
 40
1.0
 40
1.0
 40
1.0
 10
-52.6152247087
 20
315.3092193571
 30
0.0
 10
-52.0166149339
 20
315.9657757066
 30
0.0
 10
-50.9779621272
 20
317.3107949
 30
0.0
 10
-50.2608348835
 20
318.8607713522
 30
0.0
 10
-50.0292735123
 20
319.6257343571
 30
0.0
  0
SPLINE
  5
394
100
AcDbEntity
  8
0
100
AcDbSpline
 62
7
  6
CONTINUOUS
 70
0
 71
3
 72
9
 73
5
 74
0
 42
0.0000001
 43
0.0000001
 44
0.0000000001
 40
0.0
 40
0.0
 40
0.0
 40
0.0
 40
0.5187216361
 40
1.0
 40
1.0
 40
1.0
 40
1.0
 10
-48.5791879286
 20
320.5758786403
 30
0.0
 10
-47.0840141101
 20
320.9850985644
 30
0.0
 10
-44.2239478356
 20
321.8591763068
 30
0.0
 10
-41.4305564235
 20
322.9305214066
 30
0.0
 10
-40.1109017906
 20
323.5024674454
 30
0.0
  0
SPLINE
  5
395
100
AcDbEntity
  8
0
100
AcDbSpline
 62
7
  6
CONTINUOUS
 70
0
 71
3
 72
9
 73
5
 74
0
 42
0.0000001
 43
0.0000001
 44
0.0000000001
 40
0.0
 40
0.0
 40
0.0
 40
0.0
 40
0.5254815859
 40
1.0
 40
1.0
 40
1.0
 40
1.0
 10
-40.1109017906
 20
323.5024674454
 30
0.0
 10
-38.9030417051
 20
324.0259610731
 30
0.0
 10
-36.6419644917
 20
325.1125566817
 30
0.0
 10
-34.4969135047
 20
326.4184143863
 30
0.0
 10
-33.5236830191
 20
327.1010225523
 30
0.0
  0
SPLINE
  5
396
100
AcDbEntity
  8
0
100
AcDbSpline
 62
7
  6
CONTINUOUS
 70
0
 71
3
 72
9
 73
5
 74
0
 42
0.0000001
 43
0.0000001
 44
0.0000000001
 40
0.0
 40
0.0
 40
0.0
 40
0.0
 40
0.2556903406
 40
1.0
 40
1.0
 40
1.0
 40
1.0
 10
-31.2598971556
 20
327.7604918828
 30
0.0
 10
-30.3455464491
 20
327.8390780355
 30
0.0
 10
-26.7732803067
 20
328.1875807356
 30
0.0
 10
-23.2164763321
 20
328.7014295575
 30
0.0
 10
-20.5899095311
 20
329.1891783234
 30
0.0
  0
SPLINE
  5
397
100
AcDbEntity
  8
0
100
AcDbSpline
 62
7
  6
CONTINUOUS
 70
0
 71
3
 72
9
 73
5
 74
0
 42
0.0000001
 43
0.0000001
 44
0.0000000001
 40
0.0
 40
0.0
 40
0.0
 40
0.0
 40
0.2602016354
 40
1.0
 40
1.0
 40
1.0
 40
1.0
 10
-20.5899095311
 20
329.1891783234
 30
0.0
 10
-19.7483680543
 20
329.3454510733
 30
0.0
 10
-16.5223311359
 20
329.9881128266
 30
0.0
 10
-13.3288773025
 20
330.8019488714
 30
0.0
 10
-11.0042675293
 20
331.5219261433
 30
0.0
  0
SPLINE
  5
398
100
AcDbEntity
  8
0
100
AcDbSpline
 62
7
  6
CONTINUOUS
 70
0
 71
3
 72
9
 73
5
 74
0
 42
0.0000001
 43
0.0000001
 44
0.0000000001
 40
0.0
 40
0.0
 40
0.0
 40
0.0
 40
0.2412380147
 40
1.0
 40
1.0
 40
1.0
 40
1.0
 10
16.8864498397
 20
332.051864723
 30
0.0
 10
17.689748743
 20
331.849113949
 30
0.0
 10
21.0321536049
 20
331.058519841
 30
0.0
 10
24.4184678983
 20
330.4576155476
 30
0.0
 10
26.9987261964
 20
330.0933879102
 30
0.0
  0
SPLINE
  5
399
100
AcDbEntity
  8
0
100
AcDbSpline
 62
7
  6
CONTINUOUS
 70
0
 71
3
 72
9
 73
5
 74
0
 42
0.0000001
 43
0.0000001
 44
0.0000000001
 40
0.0
 40
0.0
 40
0.0
 40
0.0
 40
0.2455132228
 40
1.0
 40
1.0
 40
1.0
 40
1.0
 10
26.9987261964
 20
330.0933879102
 30
0.0
 10
27.89168828
 20
329.9673379445
 30
0.0
 10
31.5350855899
 20
329.4990593546
 30
0.0
 10
35.2005912409
 20
329.2056187115
 30
0.0
 10
37.9689199229
 20
329.0758765146
 30
0.0
  0
SPLINE
  5
39A
100
AcDbEntity
  8
0
100
AcDbSpline
 62
7
  6
CONTINUOUS
 70
0
 71
3
 72
9
 73
5
 74
0
 42
0.0000001
 43
0.0000001
 44
0.0000000001
 40
0.0
 40
0.0
 40
0.0
 40
0.0
 40
0.4773865886
 40
1.0
 40
1.0
 40
1.0
 40
1.0
 10
40.3836611795
 20
328.5053017071
 30
0.0
 10
41.5134978518
 20
327.8661727494
 30
0.0
 10
43.9526623411
 20
326.6539620175
 30
0.0
 10
46.4831946889
 20
325.6512818989
 30
0.0
 10
47.8214312669
 20
325.173228906
 30
0.0
  0
SPLINE
  5
39B
100
AcDbEntity
  8
0
100
AcDbSpline
 62
7
  6
CONTINUOUS
 70
0
 71
3
 72
9
 73
5
 74
0
 42
0.0000001
 43
0.0000001
 44
0.0000000001
 40
0.0
 40
0.0
 40
0.0
 40
0.0
 40
0.2378513093
 40
1.0
 40
1.0
 40
1.0
 40
1.0
 10
47.8214312669
 20
325.173228906
 30
0.0
 10
48.5314254323
 20
324.9196004809
 30
0.0
 10
51.5359573452
 20
323.9080529332
 30
0.0
 10
54.6079167088
 20
323.1020504889
 30
0.0
 10
56.9669680388
 20
322.5813121774
 30
0.0
  0
SPLINE
  5
39C
100
AcDbEntity
  8
0
100
AcDbSpline
 62
7
  6
CONTINUOUS
 70
0
 71
3
 72
25
 73
21
 74
0
 42
0.0000001
 43
0.0000001
 44
0.0000000001
 40
0.0
 40
0.0
 40
0.0
 40
0.0
 40
0.0541264008
 40
0.1149827957
 40
0.1817540696
 40
0.2533371543
 40
0.3284360179
 40
0.4056226495
 40
0.4833963056
 40
0.5602362363
 40
0.6346537618
 40
0.7052456128
 40
0.7707531484
 40
0.8301315946
 40
0.8826424884
 40
0.9279943466
 40
0.9481029757
 40
0.9666475087
 40
0.9838446586
 40
1.0
 40
1.0
 40
1.0
 40
1.0
 10
-42.3687685841
 20
294.0784809002
 30
0.0
 10
-40.5805492139
 20
293.0456386023
 30
0.0
 10
-36.6174973662
 20
291.132989605
 30
0.0
 10
-30.0774164597
 20
288.8004339414
 30
0.0
 10
-22.7153156759
 20
286.8781314713
 30
0.0
 10
-14.6980407049
 20
285.4115511579
 30
0.0
 10
-6.2070564852
 20
284.4347466768
 30
0.0
 10
2.5633766405
 20
283.9708934502
 30
0.0
 10
11.4121849319
 20
284.0309186665
 30
0.0
 10
20.1363108518
 20
284.6134216055
 30
0.0
 10
28.5357751439
 20
285.7046217278
 30
0.0
 10
36.4188622994
 20
287.2788415645
 30
0.0
 10
43.60670641
 20
289.2990542008
 30
0.0
 10
49.9401323197
 20
291.7193936043
 30
0.0
 10
55.2795115437
 20
294.4854188627
 30
0.0
 10
58.9507376623
 20
297.1353044792
 30
0.0
 10
61.2256392141
 20
299.4019841026
 30
0.0
 10
62.545364386
 20
301.082963971
 30
0.0
 10
63.5384955658
 20
302.8042558932
 30
0.0
 10
63.9874667296
 20
304.0031424272
 30
0.0
 10
64.1486814768
 20
304.5980544152
 30
0.0
  0
SPLINE
  5
39D
100
AcDbEntity
  8
0
100
AcDbSpline
 62
7
  6
CONTINUOUS
 70
0
 71
3
 72
9
 73
5
 74
0
 42
0.0000001
 43
0.0000001
 44
0.0000000001
 40
0.0
 40
0.0
 40
0.0
 40
0.0
 40
0.2529937673
 40
1.0
 40
1.0
 40
1.0
 40
1.0
 10
64.2021620456
 20
304.8042100009
 30
0.0
 10
64.2478934673
 20
304.9887176326
 30
0.0
 10
64.4073961415
 20
305.7230958687
 30
0.0
 10
64.4782597881
 20
306.4769144958
 30
0.0
 10
64.4782789219
 20
307.0381885952
 30
0.0
  0
SPLINE
  5
39E
100
AcDbEntity
  8
0
100
AcDbSpline
 62
7
  6
CONTINUOUS
 70
0
 71
3
 72
9
 73
5
 74
0
 42
0.0000001
 43
0.0000001
 44
0.0000000001
 40
0.0
 40
0.0
 40
0.0
 40
0.0
 40
0.248257997
 40
1.0
 40
1.0
 40
1.0
 40
1.0
 10
-52.5215978872
 20
307.0381885379
 30
0.0
 10
-52.5216042301
 20
306.8521267529
 30
0.0
 10
-52.4986571855
 20
306.1027792187
 30
0.0
 10
-52.3820562482
 20
305.3567299233
 30
0.0
 10
-52.2468362779
 20
304.8097895616
 30
0.0
  0
SPLINE
  5
39F
100
AcDbEntity
  8
0
100
AcDbSpline
 62
7
  6
CONTINUOUS
 70
0
 71
3
 72
11
 73
7
 74
0
 42
0.0000001
 43
0.0000001
 44
0.0000000001
 40
0.0
 40
0.0
 40
0.0
 40
0.0
 40
0.2060660058
 40
0.4371179277
 40
0.7006326907
 40
1.0
 40
1.0
 40
1.0
 40
1.0
 10
-52.2038528646
 20
304.6422848778
 30
0.0
 10
-51.9430391147
 20
303.6617715501
 30
0.0
 10
-51.0613181133
 20
301.6631659745
 30
0.0
 10
-48.924645349
 20
298.9238072745
 30
0.0
 10
-45.9753295841
 20
296.331750701
 30
0.0
 10
-43.6451592787
 20
294.8157004607
 30
0.0
 10
-42.3687685841
 20
294.0784809002
 30
0.0
  0
SPLINE
  5
3A0
100
AcDbEntity
  8
0
100
AcDbSpline
 62
7
  6
CONTINUOUS
 70
0
 71
3
 72
17
 73
13
 74
0
 42
0.0000001
 43
0.0000001
 44
0.0000000001
 40
0.0
 40
0.0
 40
0.0
 40
0.0
 40
0.0469427429
 40
0.0978682007
 40
0.1525278822
 40
0.2106149624
 40
0.3354318344
 40
0.4686918507
 40
0.6061948346
 40
0.7434926563
 40
0.876146703
 40
1.0
 40
1.0
 40
1.0
 40
1.0
 10
-47.3274464407
 20
271.1449166983
 30
0.0
 10
-46.0856440117
 20
270.4276746777
 30
0.0
 10
-43.4251403639
 20
269.0545192608
 30
0.0
 10
-39.130863151
 20
267.237066453
 30
0.0
 10
-34.4055062267
 20
265.5926966113
 30
0.0
 10
-27.4223953705
 20
263.6048212826
 30
0.0
 10
-17.9387647084
 20
261.692273966
 30
0.0
 10
-5.9189076781
 20
260.3271899683
 30
0.0
 10
6.5518882693
 20
259.8955391589
 30
0.0
 10
19.0010403185
 20
260.4139064922
 30
0.0
 10
30.956350887
 20
261.8617753126
 30
0.0
 10
38.6382693662
 20
263.4796146003
 30
0.0
 10
42.2928428103
 20
264.4592430489
 30
0.0
  0
SPLINE
  5
3A1
100
AcDbEntity
  8
0
100
AcDbSpline
 62
7
  6
CONTINUOUS
 70
0
 71
3
 72
16
 73
12
 74
0
 42
0.0000001
 43
0.0000001
 44
0.0000000001
 40
0.0
 40
0.0
 40
0.0
 40
0.0
 40
0.1738670882
 40
0.3342969571
 40
0.4799866939
 40
0.6102705015
 40
0.7252684671
 40
0.8262694449
 40
0.9161635093
 40
0.9584937943
 40
1.0
 40
1.0
 40
1.0
 40
1.0
 10
42.2928428103
 20
264.4592430489
 30
0.0
 10
44.3787562408
 20
265.0183835803
 30
0.0
 10
48.3574960341
 20
266.2195051906
 30
0.0
 10
53.9262320878
 20
268.3659208757
 30
0.0
 10
58.7985510733
 20
270.7609179802
 30
0.0
 10
62.9072715344
 20
273.3717276707
 30
0.0
 10
66.1974656961
 20
276.1694803919
 30
0.0
 10
68.6226948797
 20
279.1266430036
 30
0.0
 10
69.9025899347
 20
281.7673804493
 30
0.0
 10
70.396720751
 20
283.8752182583
 30
0.0
 10
70.4783251303
 20
284.9182883169
 30
0.0
 10
70.478333832
 20
285.4338251477
 30
0.0
  0
SPLINE
  5
3A2
100
AcDbEntity
  8
0
100
AcDbSpline
 62
7
  6
CONTINUOUS
 70
0
 71
3
 72
13
 73
9
 74
0
 42
0.0000001
 43
0.0000001
 44
0.0000000001
 40
0.0
 40
0.0
 40
0.0
 40
0.0
 40
0.1004256181
 40
0.2038335624
 40
0.3128993351
 40
0.42979788
 40
0.6926143063
 40
1.0
 40
1.0
 40
1.0
 40
1.0
 10
-58.5215884164
 20
285.4338251584
 30
0.0
 10
-58.5215782517
 20
284.7991720124
 30
0.0
 10
-58.3971741055
 20
283.5078461643
 30
0.0
 10
-57.8426634635
 20
281.5993126273
 30
0.0
 10
-56.9277560495
 20
279.7195466745
 30
0.0
 10
-55.1703083916
 20
277.1675551447
 30
0.0
 10
-52.0232410156
 20
274.1185966955
 30
0.0
 10
-49.0095887385
 20
272.1164908493
 30
0.0
 10
-47.3274464407
 20
271.1449166983
 30
0.0
  0
SPLINE
  5
3A3
100
AcDbEntity
  8
0
100
AcDbSpline
 62
7
  6
CONTINUOUS
 70
0
 71
3
 72
9
 73
5
 74
0
 42
0.0000001
 43
0.0000001
 44
0.0000000001
 40
0.0
 40
0.0
 40
0.0
 40
0.0
 40
0.5048366792
 40
1.0
 40
1.0
 40
1.0
 40
1.0
 10
70.0108798261
 20
294.4593951321
 30
0.0
 10
70.1640238599
 20
293.9617366366
 30
0.0
 10
70.3985948692
 20
292.9531085648
 30
0.0
 10
70.4783753503
 20
291.9202120636
 30
0.0
 10
70.4783539613
 20
291.4095001381
 30
0.0
  0
SPLINE
  5
3A4
100
AcDbEntity
  8
0
100
AcDbSpline
 62
7
  6
CONTINUOUS
 70
0
 71
3
 72
9
 73
5
 74
0
 42
0.0000001
 43
0.0000001
 44
0.0000000001
 40
0.0
 40
0.0
 40
0.0
 40
0.0
 40
0.2412380147
 40
1.0
 40
1.0
 40
1.0
 40
1.0
 10
-4.929768805
 20
282.0245124102
 30
0.0
 10
-5.7330677082
 20
282.2272631841
 30
0.0
 10
-9.0754725702
 20
283.0178572922
 30
0.0
 10
-12.4617868636
 20
283.6187615855
 30
0.0
 10
-15.0420451617
 20
283.9829892229
 30
0.0
  0
SPLINE
  5
3A5
100
AcDbEntity
  8
0
100
AcDbSpline
 62
7
  6
CONTINUOUS
 70
0
 71
3
 72
9
 73
5
 74
0
 42
0.0000001
 43
0.0000001
 44
0.0000000001
 40
0.0
 40
0.0
 40
0.0
 40
0.0
 40
0.2455132228
 40
1.0
 40
1.0
 40
1.0
 40
1.0
 10
-15.0420451617
 20
283.9829892229
 30
0.0
 10
-15.9350072453
 20
284.1090391887
 30
0.0
 10
-19.5784045552
 20
284.5773177785
 30
0.0
 10
-23.2439102062
 20
284.8707584217
 30
0.0
 10
-26.0122388882
 20
285.0005006185
 30
0.0
  0
SPLINE
  5
3A6
100
AcDbEntity
  8
0
100
AcDbSpline
 62
7
  6
CONTINUOUS
 70
0
 71
3
 72
9
 73
5
 74
0
 42
0.0000001
 43
0.0000001
 44
0.0000000001
 40
0.0
 40
0.0
 40
0.0
 40
0.0
 40
0.4773865886
 40
1.0
 40
1.0
 40
1.0
 40
1.0
 10
-28.4269801448
 20
285.571075426
 30
0.0
 10
-29.5568168171
 20
286.2102043838
 30
0.0
 10
-31.9959813064
 20
287.4224151156
 30
0.0
 10
-34.5265136542
 20
288.4250952342
 30
0.0
 10
-35.8647502322
 20
288.9031482271
 30
0.0
  0
SPLINE
  5
3A7
100
AcDbEntity
  8
0
100
AcDbSpline
 62
7
  6
CONTINUOUS
 70
0
 71
3
 72
9
 73
5
 74
0
 42
0.0000001
 43
0.0000001
 44
0.0000000001
 40
0.0
 40
0.0
 40
0.0
 40
0.0
 40
0.2378513093
 40
1.0
 40
1.0
 40
1.0
 40
1.0
 10
-35.8647502322
 20
288.9031482271
 30
0.0
 10
-36.5747443976
 20
289.1567766523
 30
0.0
 10
-39.5792763105
 20
290.1683241999
 30
0.0
 10
-42.651235674
 20
290.9743266443
 30
0.0
 10
-45.0102870041
 20
291.4950649557
 30
0.0
  0
SPLINE
  5
3A8
100
AcDbEntity
  8
0
100
AcDbSpline
 62
7
  6
CONTINUOUS
 70
0
 71
3
 72
27
 73
23
 74
0
 42
0.0000001
 43
0.0000001
 44
0.0000000001
 40
0.0
 40
0.0
 40
0.0
 40
0.0
 40
0.0554437811
 40
0.1180293866
 40
0.1868272189
 40
0.2605831094
 40
0.3378291005
 40
0.4169564788
 40
0.4962855167
 40
0.5741291508
 40
0.6488561878
 40
0.7189577187
 40
0.7831223276
 40
0.8403293602
 40
0.8661332638
 40
0.8900229871
 40
0.9120271944
 40
0.9322379594
 40
0.9508251487
 40
0.9680524644
 40
0.9842890986
 40
1.0
 40
1.0
 40
1.0
 40
1.0
 10
54.3254496188
 20
319.9978962329
 30
0.0
 10
52.4541928492
 20
321.0786993906
 30
0.0
 10
48.290789169
 20
323.0711321981
 30
0.0
 10
41.4065698703
 20
325.474998562
 30
0.0
 10
33.6436846964
 20
327.4283276727
 30
0.0
 10
25.1935594131
 20
328.8806670414
 30
0.0
 10
16.2643761555
 20
329.7952210627
 30
0.0
 10
7.0785207466
 20
330.1482988337
 30
0.0
 10
-2.1348045564
 20
329.9308191671
 30
0.0
 10
-11.1456485171
 20
329.1483909512
 30
0.0
 10
-19.7294044929
 20
327.821191732
 30
0.0
 10
-27.6740346227
 20
325.9832598778
 30
0.0
 10
-34.7832583516
 20
323.6812443785
 30
0.0
 10
-40.0414404577
 20
321.3492686239
 30
0.0
 10
-43.6547825695
 20
319.2675833056
 30
0.0
 10
-45.9603905416
 20
317.6824662275
 30
0.0
 10
-47.941751912
 20
316.0286910581
 30
0.0
 10
-49.5866536449
 20
314.3148466936
 30
0.0
 10
-50.884135807
 20
312.5493915523
 30
0.0
 10
-51.8232332659
 20
310.7403474801
 30
0.0
 10
-52.3934203863
 20
308.8991364803
 30
0.0
 10
-52.5215770125
 20
307.6505311617
 30
0.0
 10
-52.5215978872
 20
307.0381885379
 30
0.0
  0
SPLINE
  5
3A9
100
AcDbEntity
  8
0
100
AcDbSpline
 62
7
  6
CONTINUOUS
 70
0
 71
3
 72
11
 73
7
 74
0
 42
0.0000001
 43
0.0000001
 44
0.0000000001
 40
0.0
 40
0.0
 40
0.0
 40
0.0
 40
0.2539496891
 40
0.49781358
 40
0.7433590755
 40
1.0
 40
1.0
 40
1.0
 40
1.0
 10
64.5719057434
 20
285.2070186838
 30
0.0
 10
64.8862633497
 20
285.5518067094
 30
0.0
 10
65.5786386251
 20
286.1647471331
 30
0.0
 10
66.8053362024
 20
286.7960618419
 30
0.0
 10
68.1501582377
 20
287.1154740523
 30
0.0
 10
69.0783385709
 20
287.141101691
 30
0.0
 10
69.5492705956
 20
287.1174139012
 30
0.0
  0
SPLINE
  5
3AA
100
AcDbEntity
  8
0
100
AcDbSpline
 62
7
  6
CONTINUOUS
 70
0
 71
3
 72
9
 73
5
 74
0
 42
0.0000001
 43
0.0000001
 44
0.0000000001
 40
0.0
 40
0.0
 40
0.0
 40
0.0
 40
0.2288921309
 40
1.0
 40
1.0
 40
1.0
 40
1.0
 10
-46.686293299
 20
292.3858118177
 30
0.0
 10
-46.8925334953
 20
292.7573282309
 30
0.0
 10
-47.8898818095
 20
294.327269165
 30
0.0
 10
-49.2177270251
 20
295.6675090368
 30
0.0
 10
-50.3172240447
 20
296.5842027285
 30
0.0
  0
SPLINE
  5
3AB
100
AcDbEntity
  8
0
100
AcDbSpline
 62
7
  6
CONTINUOUS
 70
0
 71
3
 72
9
 73
5
 74
0
 42
0.0000001
 43
0.0000001
 44
0.0000000001
 40
0.0
 40
0.0
 40
0.0
 40
0.0
 40
0.2389570473
 40
1.0
 40
1.0
 40
1.0
 40
1.0
 10
-50.3172240447
 20
296.5842027285
 30
0.0
 10
-50.5275390741
 20
296.7595505987
 30
0.0
 10
-51.4215061405
 20
297.4767286975
 30
0.0
 10
-52.3662596706
 20
298.1295690501
 30
0.0
 10
-53.1037258277
 20
298.5950580257
 30
0.0
  0
SPLINE
  5
3AC
100
AcDbEntity
  8
0
100
AcDbSpline
 62
7
  6
CONTINUOUS
 70
0
 71
3
 72
9
 73
5
 74
0
 42
0.0000001
 43
0.0000001
 44
0.0000000001
 40
0.0
 40
0.0
 40
0.0
 40
0.0
 40
0.2406295804
 40
1.0
 40
1.0
 40
1.0
 40
1.0
 10
-53.1037258277
 20
298.5950580257
 30
0.0
 10
-53.3480889555
 20
298.7493001437
 30
0.0
 10
-54.372528739
 20
299.3761196277
 30
0.0
 10
-55.430092105
 20
299.9481802856
 30
0.0
 10
-56.2457787929
 20
300.3559289638
 30
0.0
  0
SPLINE
  5
3AD
100
AcDbEntity
  8
0
100
AcDbSpline
 62
7
  6
CONTINUOUS
 70
0
 71
3
 72
10
 73
6
 74
0
 42
0.0000001
 43
0.0000001
 44
0.0000000001
 40
0.0
 40
0.0
 40
0.0
 40
0.0
 40
0.4536936658
 40
0.7142571872
 40
1.0
 40
1.0
 40
1.0
 40
1.0
 10
69.5492705956
 20
287.1174139012
 30
0.0
 10
68.8636532883
 20
285.5452065841
 30
0.0
 10
67.2670983065
 20
283.2899328808
 30
0.0
 10
64.5265063466
 20
280.6855056725
 30
0.0
 10
62.8755578135
 20
279.4347847356
 30
0.0
 10
61.985954547
 20
278.8219543477
 30
0.0
  0
SPLINE
  5
3AE
100
AcDbEntity
  8
0
100
AcDbSpline
 62
7
  6
CONTINUOUS
 70
0
 71
3
 72
10
 73
6
 74
0
 42
0.0000001
 43
0.0000001
 44
0.0000000001
 40
0.0
 40
0.0
 40
0.0
 40
0.0
 40
0.4544797052
 40
0.7163779793
 40
1.0
 40
1.0
 40
1.0
 40
1.0
 10
64.5719057434
 20
285.2070186838
 30
0.0
 10
63.8610866131
 20
284.4273908978
 30
0.0
 10
63.0356119351
 20
282.9298542338
 30
0.0
 10
62.3385359011
 20
280.7174294572
 30
0.0
 10
62.0886394275
 20
279.4722968056
 30
0.0
 10
61.985954547
 20
278.8219543477
 30
0.0
  0
SPLINE
  5
3AF
100
AcDbEntity
  8
0
100
AcDbSpline
 62
7
  6
CONTINUOUS
 70
0
 71
3
 72
9
 73
5
 74
0
 42
0.0000001
 43
0.0000001
 44
0.0000000001
 40
0.0
 40
0.0
 40
0.0
 40
0.0
 40
0.5101536178
 40
1.0
 40
1.0
 40
1.0
 40
1.0
 10
68.8845743954
 20
312.6451373879
 30
0.0
 10
68.6314771443
 20
312.0904492095
 30
0.0
 10
68.2358071778
 20
310.9527008638
 30
0.0
 10
68.0977016893
 20
309.75394907
 30
0.0
 10
68.0977068136
 20
309.1685164166
 30
0.0
  0
SPLINE
  5
3B0
100
AcDbEntity
  8
0
100
AcDbSpline
 62
7
  6
CONTINUOUS
 70
0
 71
3
 72
9
 73
5
 74
0
 42
0.0000001
 43
0.0000001
 44
0.0000000001
 40
0.0
 40
0.0
 40
0.0
 40
0.0
 40
0.4789031452
 40
1.0
 40
1.0
 40
1.0
 40
1.0
 10
-56.1992084732
 20
305.856781808
 30
0.0
 10
-56.2920369332
 20
306.6131847478
 30
0.0
 10
-56.7211792088
 20
308.1692585037
 30
0.0
 10
-57.5260392884
 20
309.5594837595
 30
0.0
 10
-58.0082124797
 20
310.2341064216
 30
0.0
  0
SPLINE
  5
3B1
100
AcDbEntity
  8
0
100
AcDbSpline
 62
7
  6
CONTINUOUS
 70
0
 71
3
 72
10
 73
6
 74
0
 42
0.0000001
 43
0.0000001
 44
0.0000000001
 40
0.0
 40
0.0
 40
0.0
 40
0.0
 40
0.2457044612
 40
0.492813639
 40
1.0
 40
1.0
 40
1.0
 40
1.0
 10
52.0675828253
 20
277.0137705955
 30
0.0
 10
52.7149759376
 20
277.2943545581
 30
0.0
 10
54.0624329724
 20
277.7514419081
 30
0.0
 10
56.9035970466
 20
278.2292698449
 30
0.0
 10
59.098329859
 20
278.10587755
 30
0.0
 10
60.5358689633
 20
277.8718100645
 30
0.0
  0
SPLINE
  5
3B2
100
AcDbEntity
  8
0
100
AcDbSpline
 62
7
  6
CONTINUOUS
 70
0
 71
3
 72
10
 73
6
 74
0
 42
0.0000001
 43
0.0000001
 44
0.0000000001
 40
0.0
 40
0.0
 40
0.0
 40
0.0
 40
0.2240960573
 40
0.4660306962
 40
1.0
 40
1.0
 40
1.0
 40
1.0
 10
60.5358689633
 20
277.8718100645
 30
0.0
 10
59.4934991088
 20
277.22142602
 30
0.0
 10
57.2643667276
 20
275.9658105059
 30
0.0
 10
52.2999880218
 20
273.6314498293
 30
0.0
 10
48.2806894706
 20
272.2003036442
 30
0.0
 10
45.4803640539
 20
271.3466661525
 30
0.0
  0
SPLINE
  5
3B3
100
AcDbEntity
  8
0
100
AcDbSpline
 62
7
  6
CONTINUOUS
 70
0
 71
3
 72
10
 73
6
 74
0
 42
0.0000001
 43
0.0000001
 44
0.0000000001
 40
0.0
 40
0.0
 40
0.0
 40
0.0
 40
0.2424715064
 40
0.4891694854
 40
1.0
 40
1.0
 40
1.0
 40
1.0
 10
52.0675828253
 20
277.0137705955
 30
0.0
 10
51.4159211881
 20
276.7313366293
 30
0.0
 10
50.1460245379
 20
276.0515041519
 30
0.0
 10
47.8027188387
 20
274.2794282422
 30
0.0
 10
46.3363246161
 20
272.5739524631
 30
0.0
 10
45.4803640539
 20
271.3466661525
 30
0.0
  0
SPLINE
  5
3B4
100
AcDbEntity
  8
0
100
AcDbSpline
 62
7
  6
CONTINUOUS
 70
0
 71
3
 72
13
 73
9
 74
0
 42
0.0000001
 43
0.0000001
 44
0.0000000001
 40
0.0
 40
0.0
 40
0.0
 40
0.0
 40
0.1004251092
 40
0.203832481
 40
0.3128994823
 40
0.4297964767
 40
0.6926151041
 40
1.0
 40
1.0
 40
1.0
 40
1.0
 10
64.4782789219
 20
307.0381885952
 30
0.0
 10
64.4782985446
 20
307.6138013508
 30
0.0
 10
64.365399712
 20
308.7849920653
 30
0.0
 10
63.862553507
 20
310.5160099294
 30
0.0
 10
63.0326668895
 20
312.2208696879
 30
0.0
 10
61.4387943094
 20
314.5355344926
 30
0.0
 10
58.5844090369
 20
317.3008230337
 30
0.0
 10
55.8511096796
 20
319.1167033159
 30
0.0
 10
54.3254496188
 20
319.9978962329
 30
0.0
  0
SPLINE
  5
3B5
100
AcDbEntity
  8
0
100
AcDbSpline
 62
7
  6
CONTINUOUS
 70
0
 71
3
 72
10
 73
6
 74
0
 42
0.0000001
 43
0.0000001
 44
0.0000000001
 40
0.0
 40
0.0
 40
0.0
 40
0.0
 40
0.2476664288
 40
0.4967384466
 40
1.0
 40
1.0
 40
1.0
 40
1.0
 10
32.5465905658
 20
271.3270597174
 30
0.0
 10
33.420866752
 20
271.4894112444
 30
0.0
 10
35.1979287697
 20
271.7006691708
 30
0.0
 10
38.7951714579
 20
271.6732883539
 30
0.0
 10
41.4769731825
 20
271.1757733953
 30
0.0
 10
43.2165781903
 20
270.687196822
 30
0.0
  0
SPLINE
  5
3B6
100
AcDbEntity
  8
0
100
AcDbSpline
 62
7
  6
CONTINUOUS
 70
0
 71
3
 72
9
 73
5
 74
0
 42
0.0000001
 43
0.0000001
 44
0.0000000001
 40
0.0
 40
0.0
 40
0.0
 40
0.0
 40
0.4843411281
 40
1.0
 40
1.0
 40
1.0
 40
1.0
 10
42.2928428103
 20
270.4349180362
 30
0.0
 10
39.2266710871
 20
269.6130138949
 30
0.0
 10
32.8167102468
 20
268.2057179273
 30
0.0
 10
26.3213056558
 20
267.2866319269
 30
0.0
 10
22.9609485641
 20
266.9257625615
 30
0.0
  0
SPLINE
  5
3B7
100
AcDbEntity
  8
0
100
AcDbSpline
 62
7
  6
CONTINUOUS
 70
0
 71
3
 72
10
 73
6
 74
0
 42
0.0000001
 43
0.0000001
 44
0.0000000001
 40
0.0
 40
0.0
 40
0.0
 40
0.0
 40
0.2500467517
 40
0.4999096263
 40
1.0
 40
1.0
 40
1.0
 40
1.0
 10
32.5465905658
 20
271.3270597174
 30
0.0
 10
31.6752287975
 20
271.1652493927
 30
0.0
 10
29.9519858237
 20
270.7273636376
 30
0.0
 10
26.6489466728
 20
269.4227691073
 30
0.0
 10
24.3682294272
 20
268.0034159833
 30
0.0
 10
22.9609485641
 20
266.9257625615
 30
0.0
  0
SPLINE
  5
3B8
100
AcDbEntity
  8
0
100
AcDbSpline
 62
7
  6
CONTINUOUS
 70
0
 71
3
 72
9
 73
5
 74
0
 42
0.0000001
 43
0.0000001
 44
0.0000000001
 40
0.0
 40
0.0
 40
0.0
 40
0.0
 40
0.5279524462
 40
1.0
 40
1.0
 40
1.0
 40
1.0
 10
69.5492705956
 20
302.7461023295
 30
0.0
 10
68.6326288827
 20
302.183822914
 30
0.0
 10
66.9470057394
 20
301.0322088228
 30
0.0
 10
65.4208402649
 20
299.6703407753
 30
0.0
 10
64.7609989637
 20
298.9710085697
 30
0.0
  0
SPLINE
  5
3B9
100
AcDbEntity
  8
0
100
AcDbSpline
 62
7
  6
CONTINUOUS
 70
0
 71
3
 72
10
 73
6
 74
0
 42
0.0000001
 43
0.0000001
 44
0.0000000001
 40
0.0
 40
0.0
 40
0.0
 40
0.0
 40
0.2500311207
 40
0.5001717342
 40
1.0
 40
1.0
 40
1.0
 40
1.0
 10
8.9808230782
 20
269.0126362306
 30
0.0
 10
9.9448118956
 20
269.0309525349
 30
0.0
 10
11.8775581634
 20
268.9520817087
 30
0.0
 10
15.6923859316
 20
268.3474470078
 30
0.0
 10
18.4604851417
 20
267.4257978752
 30
0.0
 10
20.228103297
 20
266.6573664113
 30
0.0
  0
SPLINE
  5
3BA
100
AcDbEntity
  8
0
100
AcDbSpline
 62
7
  6
CONTINUOUS
 70
0
 71
3
 72
9
 73
5
 74
0
 42
0.0000001
 43
0.0000001
 44
0.0000000001
 40
0.0
 40
0.0
 40
0.0
 40
0.0
 40
0.5264376627
 40
1.0
 40
1.0
 40
1.0
 40
1.0
 10
64.5719057434
 20
298.7671577761
 30
0.0
 10
63.9732959687
 20
298.1106014266
 30
0.0
 10
62.9346431619
 20
296.7655822331
 30
0.0
 10
62.2175159182
 20
295.2156057809
 30
0.0
 10
61.985954547
 20
294.4506427761
 30
0.0
  0
SPLINE
  5
3BB
100
AcDbEntity
  8
0
100
AcDbSpline
 62
7
  6
CONTINUOUS
 70
0
 71
3
 72
9
 73
5
 74
0
 42
0.0000001
 43
0.0000001
 44
0.0000000001
 40
0.0
 40
0.0
 40
0.0
 40
0.0
 40
0.5187216361
 40
1.0
 40
1.0
 40
1.0
 40
1.0
 10
60.5358689633
 20
293.5004984928
 30
0.0
 10
59.0406951448
 20
293.0912785688
 30
0.0
 10
56.1806288703
 20
292.2172008263
 30
0.0
 10
53.3872374583
 20
291.1458557265
 30
0.0
 10
52.0675828253
 20
290.5739096878
 30
0.0
  0
SPLINE
  5
3BC
100
AcDbEntity
  8
0
100
AcDbSpline
 62
7
  6
CONTINUOUS
 70
0
 71
3
 72
9
 73
5
 74
0
 42
0.0000001
 43
0.0000001
 44
0.0000000001
 40
0.0
 40
0.0
 40
0.0
 40
0.0
 40
0.5254815859
 40
1.0
 40
1.0
 40
1.0
 40
1.0
 10
52.0675828253
 20
290.5739096878
 30
0.0
 10
50.8597227398
 20
290.05041606
 30
0.0
 10
48.5986455265
 20
288.9638204515
 30
0.0
 10
46.4535945394
 20
287.6579627468
 30
0.0
 10
45.4803640538
 20
286.9753545808
 30
0.0
  0
SPLINE
  5
3BD
100
AcDbEntity
  8
0
100
AcDbSpline
 62
7
  6
CONTINUOUS
 70
0
 71
3
 72
9
 73
5
 74
0
 42
0.0000001
 43
0.0000001
 44
0.0000000001
 40
0.0
 40
0.0
 40
0.0
 40
0.0
 40
0.500245879
 40
1.0
 40
1.0
 40
1.0
 40
1.0
 10
8.9808230782
 20
269.0126362306
 30
0.0
 10
7.0577373337
 20
268.9760965707
 30
0.0
 10
3.2097006268
 20
268.4358982798
 30
0.0
 10
-0.4135710363
 20
267.067889711
 30
0.0
 10
-2.1439150531
 20
266.232286071
 30
0.0
  0
SPLINE
  5
3BE
100
AcDbEntity
  8
0
100
AcDbSpline
 62
7
  6
CONTINUOUS
 70
0
 71
3
 72
10
 73
6
 74
0
 42
0.0000001
 43
0.0000001
 44
0.0000000001
 40
0.0
 40
0.0
 40
0.0
 40
0.0
 40
0.250545728
 40
0.5006683251
 40
1.0
 40
1.0
 40
1.0
 40
1.0
 10
-15.0420451617
 20
270.4228501307
 30
0.0
 10
-14.1350981428
 20
270.2948260603
 30
0.0
 10
-12.3365774293
 20
269.9244012603
 30
0.0
 10
-8.8675479852
 20
268.7498395267
 30
0.0
 10
-6.4405821522
 20
267.4203660279
 30
0.0
 10
-4.929768805
 20
266.3958239819
 30
0.0
  0
SPLINE
  5
3BF
100
AcDbEntity
  8
0
100
AcDbSpline
 62
7
  6
CONTINUOUS
 70
0
 71
3
 72
9
 73
5
 74
0
 42
0.0000001
 43
0.0000001
 44
0.0000000001
 40
0.0
 40
0.0
 40
0.0
 40
0.0
 40
0.5129844808
 40
1.0
 40
1.0
 40
1.0
 40
1.0
 10
-4.929768805
 20
266.3958239819
 30
0.0
 10
-8.5648679347
 20
266.6412531257
 30
0.0
 10
-15.6370531194
 20
267.363247306
 30
0.0
 10
-22.6374851011
 20
268.6133462466
 30
0.0
 10
-26.0122388882
 20
269.3718121902
 30
0.0
  0
SPLINE
  5
3C0
100
AcDbEntity
  8
0
100
AcDbSpline
 62
7
  6
CONTINUOUS
 70
0
 71
3
 72
10
 73
6
 74
0
 42
0.0000001
 43
0.0000001
 44
0.0000000001
 40
0.0
 40
0.0
 40
0.0
 40
0.0
 40
0.2482968309
 40
0.4977243043
 40
1.0
 40
1.0
 40
1.0
 40
1.0
 10
-15.0420451617
 20
270.4228501307
 30
0.0
 10
-15.9517375969
 20
270.5512617423
 30
0.0
 10
-17.7937408684
 20
270.6934225546
 30
0.0
 10
-21.4967594154
 20
270.5282916676
 30
0.0
 10
-24.2391583332
 20
269.928594071
 30
0.0
 10
-26.0122388882
 20
269.3718121902
 30
0.0
  0
SPLINE
  5
3C1
100
AcDbEntity
  8
0
100
AcDbSpline
 62
7
  6
CONTINUOUS
 70
0
 71
3
 72
10
 73
6
 74
0
 42
0.0000001
 43
0.0000001
 44
0.0000000001
 40
0.0
 40
0.0
 40
0.0
 40
0.0
 40
0.2455183911
 40
0.4933889961
 40
1.0
 40
1.0
 40
1.0
 40
1.0
 10
-35.8647502322
 20
275.3430091349
 30
0.0
 10
-35.1490126052
 20
275.0873289955
 30
0.0
 10
-33.7477198878
 20
274.4619925204
 30
0.0
 10
-31.1300365161
 20
272.7940428389
 30
0.0
 10
-29.4343119503
 20
271.1443808127
 30
0.0
 10
-28.4269801448
 20
269.9423869977
 30
0.0
  0
SPLINE
  5
3C2
100
AcDbEntity
  8
0
100
AcDbSpline
 62
7
  6
CONTINUOUS
 70
0
 71
3
 72
9
 73
5
 74
0
 42
0.0000001
 43
0.0000001
 44
0.0000000001
 40
0.0
 40
0.0
 40
0.0
 40
0.0
 40
0.5296721
 40
1.0
 40
1.0
 40
1.0
 40
1.0
 10
-28.4269801448
 20
269.9423869977
 30
0.0
 10
-31.449273571
 20
270.6923269763
 30
0.0
 10
-37.0991130379
 20
272.3508331
 30
0.0
 10
-42.5449735426
 20
274.6142590338
 30
0.0
 10
-45.0102870041
 20
275.8663765274
 30
0.0
  0
SPLINE
  5
3C3
100
AcDbEntity
  8
0
100
AcDbSpline
 62
7
  6
CONTINUOUS
 70
0
 71
3
 72
10
 73
6
 74
0
 42
0.0000001
 43
0.0000001
 44
0.0000000001
 40
0.0
 40
0.0
 40
0.0
 40
0.0
 40
0.2459117504
 40
0.4936084067
 40
1.0
 40
1.0
 40
1.0
 40
1.0
 10
-35.8647502322
 20
275.3430091349
 30
0.0
 10
-36.5792700877
 20
275.5982542545
 30
0.0
 10
-38.0554323672
 20
276.0010570888
 30
0.0
 10
-41.1277891986
 20
276.3658055144
 30
0.0
 10
-43.4753585847
 20
276.1582459029
 30
0.0
 10
-45.0102870041
 20
275.8663765274
 30
0.0
  0
SPLINE
  5
3C4
100
AcDbEntity
  8
0
100
AcDbSpline
 62
7
  6
CONTINUOUS
 70
0
 71
3
 72
11
 73
7
 74
0
 42
0.0000001
 43
0.0000001
 44
0.0000000001
 40
0.0
 40
0.0
 40
0.0
 40
0.0
 40
0.2251906757
 40
0.4659506709
 40
0.7243131999
 40
1.0
 40
1.0
 40
1.0
 40
1.0
 10
-50.3172240447
 20
283.0240627699
 30
0.0
 10
-49.893892613
 20
282.6711147891
 30
0.0
 10
-49.094767484
 20
281.8454079913
 30
0.0
 10
-48.1060723836
 20
280.3651684288
 30
0.0
 10
-47.2914419769
 20
278.6467109678
 30
0.0
 10
-46.8726156773
 20
277.405643972
 30
0.0
 10
-46.686293299
 20
276.7571233893
 30
0.0
  0
SPLINE
  5
3C5
100
AcDbEntity
  8
0
100
AcDbSpline
 62
7
  6
CONTINUOUS
 70
0
 71
3
 72
9
 73
5
 74
0
 42
0.0000001
 43
0.0000001
 44
0.0000000001
 40
0.0
 40
0.0
 40
0.0
 40
0.0
 40
0.2680493672
 40
1.0
 40
1.0
 40
1.0
 40
1.0
 10
-52.3520034867
 20
280.5776593903
 30
0.0
 10
-52.7431449132
 20
280.903769304
 30
0.0
 10
-54.1683734304
 20
282.159091568
 30
0.0
 10
-55.4532177477
 20
283.5846094043
 30
0.0
 10
-56.2457787929
 20
284.7272405355
 30
0.0
  0
SPLINE
  5
3C6
100
AcDbEntity
  8
0
100
AcDbSpline
 62
7
  6
CONTINUOUS
 70
0
 71
3
 72
9
 73
5
 74
0
 42
0.0000001
 43
0.0000001
 44
0.0000000001
 40
0.0
 40
0.0
 40
0.0
 40
0.0
 40
0.5216869087
 40
1.0
 40
1.0
 40
1.0
 40
1.0
 10
-46.686293299
 20
276.7571233893
 30
0.0
 10
-47.7257849232
 20
277.3355788179
 30
0.0
 10
-49.6779441093
 20
278.5195712224
 30
0.0
 10
-51.5142740771
 20
279.8792115988
 30
0.0
 10
-52.3520034867
 20
280.5776593903
 30
0.0
  0
SPLINE
  5
3C7
100
AcDbEntity
  8
0
100
AcDbSpline
 62
7
  6
CONTINUOUS
 70
0
 71
3
 72
11
 73
7
 74
0
 42
0.0000001
 43
0.0000001
 44
0.0000000001
 40
0.0
 40
0.0
 40
0.0
 40
0.0
 40
0.2489628364
 40
0.493556014
 40
0.7418667123
 40
1.0
 40
1.0
 40
1.0
 40
1.0
 10
-50.3172240447
 20
283.0240627699
 30
0.0
 10
-50.720358205
 20
283.3601714951
 30
0.0
 10
-51.5913862199
 20
283.946624955
 30
0.0
 10
-53.0592697573
 20
284.5198033166
 30
0.0
 10
-54.6305798694
 20
284.7819679763
 30
0.0
 10
-55.7032891064
 20
284.7703659755
 30
0.0
 10
-56.2457787929
 20
284.7272405355
 30
0.0
  0
SPLINE
  5
3C8
100
AcDbEntity
  8
0
100
AcDbSpline
 62
7
  6
CONTINUOUS
 70
0
 71
3
 72
9
 73
5
 74
0
 42
0.0000001
 43
0.0000001
 44
0.0000000001
 40
0.0
 40
0.0
 40
0.0
 40
0.0
 40
0.5154723445
 40
1.0
 40
1.0
 40
1.0
 40
1.0
 10
-56.9278933607
 20
285.8025513169
 30
0.0
 10
-57.4319911003
 20
286.6781795539
 30
0.0
 10
-58.2336111068
 20
288.4910022585
 30
0.0
 10
-58.5217127012
 20
290.4597881959
 30
0.0
 10
-58.5216729266
 20
291.4095001383
 30
0.0
  0
SPLINE
  5
3C9
100
AcDbEntity
  8
0
100
AcDbSpline
 62
7
  6
CONTINUOUS
 70
0
 71
3
 72
9
 73
5
 74
0
 42
0.0000001
 43
0.0000001
 44
0.0000000001
 40
0.0
 40
0.0
 40
0.0
 40
0.0
 40
0.4944414568
 40
1.0
 40
1.0
 40
1.0
 40
1.0
 10
-56.9017672353
 20
294.1089565459
 30
0.0
 10
-57.0426978534
 20
294.2557365339
 30
0.0
 10
-57.3891465674
 20
294.5008762887
 30
0.0
 10
-57.8007430301
 20
294.5897619846
 30
0.0
 10
-58.0082124797
 20
294.6054179933
 30
0.0
  0
SPLINE
  5
3CA
100
AcDbEntity
  8
0
100
AcDbSpline
 62
7
  6
CONTINUOUS
 70
0
 71
3
 72
9
 73
5
 74
0
 42
0.0000001
 43
0.0000001
 44
0.0000000001
 40
0.0
 40
0.0
 40
0.0
 40
0.0
 40
0.2556903406
 40
1.0
 40
1.0
 40
1.0
 40
1.0
 10
43.2165781903
 20
286.3158852503
 30
0.0
 10
42.3022274839
 20
286.2372990976
 30
0.0
 10
38.7299613415
 20
285.8887963976
 30
0.0
 10
35.1731573669
 20
285.3749475756
 30
0.0
 10
32.5465905658
 20
284.8871988097
 30
0.0
  0
SPLINE
  5
3CB
100
AcDbEntity
  8
0
100
AcDbSpline
 62
7
  6
CONTINUOUS
 70
0
 71
3
 72
9
 73
5
 74
0
 42
0.0000001
 43
0.0000001
 44
0.0000000001
 40
0.0
 40
0.0
 40
0.0
 40
0.0
 40
0.2602016354
 40
1.0
 40
1.0
 40
1.0
 40
1.0
 10
32.5465905658
 20
284.8871988097
 30
0.0
 10
31.705049089
 20
284.7309260598
 30
0.0
 10
28.4790121707
 20
284.0882643065
 30
0.0
 10
25.2855583372
 20
283.2744282618
 30
0.0
 10
22.9609485641
 20
282.5544509899
 30
0.0
  0
SPLINE
  5
3CC
100
AcDbEntity
  8
0
100
AcDbSpline
 62
7
  6
CONTINUOUS
 70
0
 71
3
 72
9
 73
5
 74
0
 42
0.0000001
 43
0.0000001
 44
0.0000000001
 40
0.0
 40
0.0
 40
0.0
 40
0.0
 40
0.2487601348
 40
1.0
 40
1.0
 40
1.0
 40
1.0
 10
-4.4447751176
 20
219.00500762
 30
0.0
 10
-4.6139256533
 20
219.0287037883
 30
0.0
 10
-5.2984301892
 20
219.0895869526
 30
0.0
 10
-5.9943694678
 20
219.0078009023
 30
0.0
 10
-6.4925923753
 20
218.8742495204
 30
0.0
  0
SPLINE
  5
3CD
100
AcDbEntity
  8
0
100
AcDbSpline
 62
7
  6
CONTINUOUS
 70
0
 71
3
 72
9
 73
5
 74
0
 42
0.0000001
 43
0.0000001
 44
0.0000000001
 40
0.0
 40
0.0
 40
0.0
 40
0.0
 40
0.7471558534
 40
1.0
 40
1.0
 40
1.0
 40
1.0
 10
-8.0336906532
 20
236.1480185094
 30
0.0
 10
-8.2912245412
 20
236.1841050389
 30
0.0
 10
-8.6465048639
 20
236.1783412648
 30
0.0
 10
-8.9868189448
 20
236.1045096504
 30
0.0
 10
-9.0718212293
 20
236.081724322
 30
0.0
  0
SPLINE
  5
3CE
100
AcDbEntity
  8
0
100
AcDbSpline
 62
7
  6
CONTINUOUS
 70
0
 71
3
 72
9
 73
5
 74
0
 42
0.0000001
 43
0.0000001
 44
0.0000000001
 40
0.0
 40
0.0
 40
0.0
 40
0.0
 40
0.4910478159
 40
1.0
 40
1.0
 40
1.0
 40
1.0
 10
-14.2022455975
 20
261.3402253557
 30
0.0
 10
-14.7398693395
 20
260.940182816
 30
0.0
 10
-15.7446870504
 20
259.9992017874
 30
0.0
 10
-16.5351625998
 20
258.8746658068
 30
0.0
 10
-16.879232266
 20
258.2713133144
 30
0.0
  0
SPLINE
  5
3CF
100
AcDbEntity
  8
0
100
AcDbSpline
 62
7
  6
CONTINUOUS
 70
0
 71
3
 72
11
 73
7
 74
0
 42
0.0000001
 43
0.0000001
 44
0.0000000001
 40
0.0
 40
0.0
 40
0.0
 40
0.0
 40
0.2353686643
 40
0.4780933712
 40
0.7327618415
 40
1.0
 40
1.0
 40
1.0
 40
1.0
 10
-23.0834466586
 20
237.5004887741
 30
0.0
 10
-23.860736708
 20
237.609397841
 30
0.0
 10
-25.4897979572
 20
237.5585785987
 30
0.0
 10
-27.8120076502
 20
236.6801435843
 30
0.0
 10
-29.8514012244
 20
235.0940681285
 30
0.0
 10
-30.9032267215
 20
233.6791657417
 30
0.0
 10
-31.3446845251
 20
232.9050356972
 30
0.0
  0
SPLINE
  5
3D0
100
AcDbEntity
  8
0
100
AcDbSpline
 62
7
  6
CONTINUOUS
 70
0
 71
3
 72
11
 73
7
 74
0
 42
0.0000001
 43
0.0000001
 44
0.0000000001
 40
0.0
 40
0.0
 40
0.0
 40
0.0
 40
0.2353686643
 40
0.4780933712
 40
0.7327618415
 40
1.0
 40
1.0
 40
1.0
 40
1.0
 10
12.040521492
 20
246.9156610103
 30
0.0
 10
11.2632314426
 20
247.0245700772
 30
0.0
 10
9.6341701935
 20
246.9737508349
 30
0.0
 10
7.3119605004
 20
246.0953158205
 30
0.0
 10
5.2725669262
 20
244.5092403648
 30
0.0
 10
4.2207414291
 20
243.094337978
 30
0.0
 10
3.7792836255
 20
242.3202079334
 30
0.0
  0
SPLINE
  5
3D1
100
AcDbEntity
  8
0
100
AcDbSpline
 62
7
  6
CONTINUOUS
 70
0
 71
3
 72
13
 73
9
 74
0
 42
0.0000001
 43
0.0000001
 44
0.0000000001
 40
0.0
 40
0.0
 40
0.0
 40
0.0
 40
0.116106968
 40
0.2361325765
 40
0.3598808128
 40
0.4866883345
 40
0.7443933872
 40
1.0
 40
1.0
 40
1.0
 40
1.0
 10
12.1406007694
 20
260.2824306173
 30
0.0
 10
13.5589374956
 20
258.9491896483
 30
0.0
 10
16.1739906044
 20
255.9379234382
 30
0.0
 10
19.2312309919
 20
250.7007453095
 30
0.0
 10
21.3955660279
 20
244.8437515562
 30
0.0
 10
23.0029640051
 20
236.4426055123
 30
0.0
 10
22.4860849265
 20
225.5443668921
 30
0.0
 10
19.4461377868
 20
217.3173087873
 30
0.0
 10
17.3232710606
 20
213.5946995142
 30
0.0
  0
SPLINE
  5
3D2
100
AcDbEntity
  8
0
100
AcDbSpline
 62
7
  6
CONTINUOUS
 70
0
 71
3
 72
13
 73
9
 74
0
 42
0.0000001
 43
0.0000001
 44
0.0000000001
 40
0.0
 40
0.0
 40
0.0
 40
0.0
 40
0.2668009676
 40
0.5210802145
 40
0.6439079837
 40
0.7641753763
 40
0.8825785996
 40
1.0
 40
1.0
 40
1.0
 40
1.0
 10
17.3232710606
 20
213.5946995142
 30
0.0
 10
15.7672335154
 20
210.8660685908
 30
0.0
 10
12.0624271751
 20
205.8797031611
 30
0.0
 10
5.9890706432
 20
201.1600063278
 30
0.0
 10
0.6557816987
 20
198.6920754192
 30
0.0
 10
-3.4569760206
 20
197.5257175447
 30
0.0
 10
-7.6407346638
 20
197.0511921667
 30
0.0
 10
-10.4285503587
 20
197.2037515963
 30
0.0
 10
-11.7976185299
 20
197.3955446186
 30
0.0
  0
SPLINE
  5
3D3
100
AcDbEntity
  8
0
100
AcDbSpline
 62
7
  6
CONTINUOUS
 70
0
 71
3
 72
15
 73
11
 74
0
 42
0.0000001
 43
0.0000001
 44
0.0000000001
 40
0.0
 40
0.0
 40
0.0
 40
0.0
 40
0.1316380405
 40
0.2651644252
 40
0.3981060685
 40
0.5280706801
 40
0.6532895405
 40
0.7730370444
 40
0.8879462441
 40
1.0
 40
1.0
 40
1.0
 40
1.0
 10
3.7792836255
 20
242.3202079334
 30
0.0
 10
3.3705150113
 20
241.6034008842
 30
0.0
 10
2.707939886
 20
240.0621306227
 30
0.0
 10
2.2226569525
 20
237.5966197487
 30
0.0
 10
2.2588501961
 20
235.093079248
 30
0.0
 10
2.8171267739
 20
232.7046498512
 30
0.0
 10
3.867079219
 20
230.5770494515
 30
0.0
 10
5.3519500318
 20
228.8440841944
 30
0.0
 10
7.183754531
 20
227.6224132739
 30
0.0
 10
8.5709306966
 20
227.2065632613
 30
0.0
 10
9.2665414542
 20
227.1090985909
 30
0.0
  0
SPLINE
  5
3D4
100
AcDbEntity
  8
0
100
AcDbSpline
 62
7
  6
CONTINUOUS
 70
0
 71
3
 72
15
 73
11
 74
0
 42
0.0000001
 43
0.0000001
 44
0.0000000001
 40
0.0
 40
0.0
 40
0.0
 40
0.0
 40
0.1316380405
 40
0.2651644252
 40
0.3981060685
 40
0.5280706801
 40
0.6532895405
 40
0.7730370444
 40
0.8879462441
 40
1.0
 40
1.0
 40
1.0
 40
1.0
 10
-31.3446845251
 20
232.9050356972
 30
0.0
 10
-31.7534531394
 20
232.1882286479
 30
0.0
 10
-32.4160282646
 20
230.6469583865
 30
0.0
 10
-32.9013111981
 20
228.1814475125
 30
0.0
 10
-32.8651179546
 20
225.6779070118
 30
0.0
 10
-32.3068413768
 20
223.2894776149
 30
0.0
 10
-31.2568889317
 20
221.1618772153
 30
0.0
 10
-29.7720181189
 20
219.4289119581
 30
0.0
 10
-27.9402136196
 20
218.2072410377
 30
0.0
 10
-26.553037454
 20
217.7913910251
 30
0.0
 10
-25.8574266964
 20
217.6939263546
 30
0.0
  0
SPLINE
  5
3D5
100
AcDbEntity
  8
0
100
AcDbSpline
 62
7
  6
CONTINUOUS
 70
0
 71
3
 72
15
 73
11
 74
0
 42
0.0000001
 43
0.0000001
 44
0.0000000001
 40
0.0
 40
0.0
 40
0.0
 40
0.0
 40
0.1316380405
 40
0.2651644252
 40
0.3981060685
 40
0.5280706801
 40
0.6532895405
 40
0.7730370444
 40
0.8879462441
 40
1.0
 40
1.0
 40
1.0
 40
1.0
 10
-16.879232266
 20
258.2713133144
 30
0.0
 10
-17.2880008802
 20
257.5545062651
 30
0.0
 10
-17.9505760055
 20
256.0132360037
 30
0.0
 10
-18.435858939
 20
253.5477251297
 30
0.0
 10
-18.3996656955
 20
251.044184629
 30
0.0
 10
-17.8413891177
 20
248.6557552321
 30
0.0
 10
-16.7914366725
 20
246.5281548325
 30
0.0
 10
-15.3065658598
 20
244.7951895754
 30
0.0
 10
-13.4747613605
 20
243.5735186549
 30
0.0
 10
-12.0875851949
 20
243.1576686423
 30
0.0
 10
-11.3919744373
 20
243.0602039718
 30
0.0
  0
SPLINE
  5
3D6
100
AcDbEntity
  8
0
100
AcDbSpline
 62
7
  6
CONTINUOUS
 70
0
 71
3
 72
9
 73
5
 74
0
 42
0.0000001
 43
0.0000001
 44
0.0000000001
 40
0.0
 40
0.0
 40
0.0
 40
0.0
 40
0.4827900924
 40
1.0
 40
1.0
 40
1.0
 40
1.0
 10
-9.0718212293
 20
236.081724322
 30
0.0
 10
-9.4760945325
 20
235.9733566465
 30
0.0
 10
-10.2665780438
 20
235.5495119547
 30
0.0
 10
-10.8269277311
 20
234.860150333
 30
0.0
 10
-11.049046817
 20
234.4706475212
 30
0.0
  0
SPLINE
  5
3D7
100
AcDbEntity
  8
0
100
AcDbSpline
 62
7
  6
CONTINUOUS
 70
0
 71
3
 72
14
 73
10
 74
0
 42
0.0000001
 43
0.0000001
 44
0.0000000001
 40
0.0
 40
0.0
 40
0.0
 40
0.0
 40
0.2640634235
 40
0.3972041634
 40
0.5273686696
 40
0.6527760938
 40
0.7727045919
 40
0.8877917481
 40
1.0
 40
1.0
 40
1.0
 40
1.0
 10
-11.049046817
 20
234.4706475212
 30
0.0
 10
-11.3478897611
 20
233.9466035536
 30
0.0
 10
-11.6226554706
 20
233.0436814194
 30
0.0
 10
-11.6038015981
 20
231.8332121663
 30
0.0
 10
-11.4002776917
 20
230.9607806438
 30
0.0
 10
-11.0169356591
 20
230.1843873394
 30
0.0
 10
-10.474981345
 20
229.5517847361
 30
0.0
 10
-9.8063396374
 20
229.1059752242
 30
0.0
 10
-9.300066984
 20
228.9541344189
 30
0.0
 10
-9.046202052
 20
228.918561996
 30
0.0
  0
SPLINE
  5
3D8
100
AcDbEntity
  8
0
100
AcDbSpline
 62
7
  6
CONTINUOUS
 70
0
 71
3
 72
13
 73
9
 74
0
 42
0.0000001
 43
0.0000001
 44
0.0000000001
 40
0.0
 40
0.0
 40
0.0
 40
0.0
 40
0.264467462
 40
0.5266326056
 40
0.652234536
 40
0.7723488812
 40
0.8876135684
 40
1.0
 40
1.0
 40
1.0
 40
1.0
 10
-10.3928729867
 20
215.6962350093
 30
0.0
 10
-10.9823582542
 20
214.6625274808
 30
0.0
 10
-11.7003198295
 20
212.3190480504
 30
0.0
 10
-11.3499971912
 20
209.3083128839
 30
0.0
 10
-10.3296728656
 20
207.2413790845
 30
0.0
 10
-9.2604558901
 20
205.9932738463
 30
0.0
 10
-7.9415532208
 20
205.113882753
 30
0.0
 10
-6.9428487353
 20
204.8143458424
 30
0.0
 10
-6.4420539551
 20
204.7441898873
 30
0.0
  0
SPLINE
  5
3D9
100
AcDbEntity
  8
0
100
AcDbSpline
 62
7
  6
CONTINUOUS
 70
0
 71
3
 72
10
 73
6
 74
0
 42
0.0000001
 43
0.0000001
 44
0.0000000001
 40
0.0
 40
0.0
 40
0.0
 40
0.0
 40
0.238072172
 40
0.4841850712
 40
1.0
 40
1.0
 40
1.0
 40
1.0
 10
-6.4925923753
 20
218.8742495204
 30
0.0
 10
-6.8868984896
 20
218.7685536046
 30
0.0
 10
-7.6667833118
 20
218.4607433437
 30
0.0
 10
-9.1021082891
 20
217.5065529348
 30
0.0
 10
-9.9547247082
 20
216.464561546
 30
0.0
 10
-10.3928729867
 20
215.6962350093
 30
0.0
  0
SPLINE
  5
3DA
100
AcDbEntity
  8
0
100
AcDbSpline
 62
7
  6
CONTINUOUS
 70
0
 71
3
 72
11
 73
7
 74
0
 42
0.0000001
 43
0.0000001
 44
0.0000000001
 40
0.0
 40
0.0
 40
0.0
 40
0.0
 40
0.2353686643
 40
0.4780933712
 40
0.7327618415
 40
1.0
 40
1.0
 40
1.0
 40
1.0
 10
-11.3919744373
 20
243.0602039718
 30
0.0
 10
-10.6146843879
 20
242.9512949049
 30
0.0
 10
-8.9856231387
 20
243.0021141472
 30
0.0
 10
-6.6634134457
 20
243.8805491616
 30
0.0
 10
-4.6240198715
 20
245.4666246174
 30
0.0
 10
-3.5721943744
 20
246.8815270042
 30
0.0
 10
-3.1307365708
 20
247.6556570487
 30
0.0
  0
SPLINE
  5
3DB
100
AcDbEntity
  8
0
100
AcDbSpline
 62
7
  6
CONTINUOUS
 70
0
 71
3
 72
11
 73
7
 74
0
 42
0.0000001
 43
0.0000001
 44
0.0000000001
 40
0.0
 40
0.0
 40
0.0
 40
0.0
 40
0.2353620904
 40
0.4780942909
 40
0.7327602628
 40
1.0
 40
1.0
 40
1.0
 40
1.0
 10
-32.0589074417
 20
222.9044384009
 30
0.0
 10
-31.6158571808
 20
222.842429968
 30
0.0
 10
-30.6873102863
 20
222.8713182815
 30
0.0
 10
-29.3636533229
 20
223.3720422173
 30
0.0
 10
-28.2011557524
 20
224.2760506168
 30
0.0
 10
-27.6016372316
 20
225.0825600032
 30
0.0
 10
-27.3500060311
 20
225.5238145714
 30
0.0
  0
SPLINE
  5
3DC
100
AcDbEntity
  8
0
100
AcDbSpline
 62
7
  6
CONTINUOUS
 70
0
 71
3
 72
9
 73
5
 74
0
 42
0.0000001
 43
0.0000001
 44
0.0000000001
 40
0.0
 40
0.0
 40
0.0
 40
0.0
 40
0.7471558534
 40
1.0
 40
1.0
 40
1.0
 40
1.0
 10
-9.046202052
 20
228.918561996
 30
0.0
 10
-8.788668164
 20
228.8824754665
 30
0.0
 10
-8.4333878413
 20
228.8882392407
 30
0.0
 10
-8.0930737604
 20
228.9620708551
 30
0.0
 10
-8.0080714759
 20
228.9848561835
 30
0.0
  0
SPLINE
  5
3DD
100
AcDbEntity
  8
0
100
AcDbSpline
 62
7
  6
CONTINUOUS
 70
0
 71
3
 72
12
 73
8
 74
0
 42
0.0000001
 43
0.0000001
 44
0.0000000001
 40
0.0
 40
0.0
 40
0.0
 40
0.0
 40
0.1149554454
 40
0.2340312017
 40
0.4831481371
 40
0.7422889861
 40
1.0
 40
1.0
 40
1.0
 40
1.0
 10
-26.592777018
 20
237.0940527847
 30
0.0
 10
-26.1242464663
 20
236.7485398232
 30
0.0
 10
-25.2473943285
 20
235.9348126196
 30
0.0
 10
-23.8268023241
 20
233.925740885
 30
0.0
 10
-22.7911697463
 20
230.8399937497
 30
0.0
 10
-22.8510097764
 20
226.8973204992
 30
0.0
 10
-23.7475715663
 20
224.3751495388
 30
0.0
 10
-24.3940794566
 20
223.2414484743
 30
0.0
  0
SPLINE
  5
3DE
100
AcDbEntity
  8
0
100
AcDbSpline
 62
7
  6
CONTINUOUS
 70
0
 71
3
 72
9
 73
5
 74
0
 42
0.0000001
 43
0.0000001
 44
0.0000000001
 40
0.0
 40
0.0
 40
0.0
 40
0.0
 40
0.5096928241
 40
1.0
 40
1.0
 40
1.0
 40
1.0
 10
-31.140176265
 20
251.0148878508
 30
0.0
 10
-29.8439222427
 20
253.2879684848
 30
0.0
 10
-26.8399930763
 20
257.5038651066
 30
0.0
 10
-22.9772604486
 20
260.9644877519
 30
0.0
 10
-20.9117947112
 20
262.4032636386
 30
0.0
  0
SPLINE
  5
3DF
100
AcDbEntity
  8
0
100
AcDbSpline
 62
7
  6
CONTINUOUS
 70
0
 71
3
 72
15
 73
11
 74
0
 42
0.0000001
 43
0.0000001
 44
0.0000000001
 40
0.0
 40
0.0
 40
0.0
 40
0.0
 40
0.1316380405
 40
0.2651644252
 40
0.3981060685
 40
0.5280706801
 40
0.6532895405
 40
0.7730370444
 40
0.8879462441
 40
1.0
 40
1.0
 40
1.0
 40
1.0
 10
17.5277793207
 20
231.7045516677
 30
0.0
 10
17.936547935
 20
232.421358717
 30
0.0
 10
18.5991230602
 20
233.9626289784
 30
0.0
 10
19.0844059937
 20
236.4281398524
 30
0.0
 10
19.0482127502
 20
238.9316803531
 30
0.0
 10
18.4899361724
 20
241.32010975
 30
0.0
 10
17.4399837273
 20
243.4477101496
 30
0.0
 10
15.9551129145
 20
245.1806754068
 30
0.0
 10
14.1233084152
 20
246.4023463272
 30
0.0
 10
12.7361322496
 20
246.8181963398
 30
0.0
 10
12.040521492
 20
246.9156610103
 30
0.0
  0
SPLINE
  5
3E0
100
AcDbEntity
  8
0
100
AcDbSpline
 62
7
  6
CONTINUOUS
 70
0
 71
3
 72
15
 73
11
 74
0
 42
0.0000001
 43
0.0000001
 44
0.0000000001
 40
0.0
 40
0.0
 40
0.0
 40
0.0
 40
0.1316380405
 40
0.2651644252
 40
0.3981060685
 40
0.5280706801
 40
0.6532895405
 40
0.7730370444
 40
0.8879462441
 40
1.0
 40
1.0
 40
1.0
 40
1.0
 10
-17.5961888299
 20
222.2893794315
 30
0.0
 10
-17.1874202157
 20
223.0061864808
 30
0.0
 10
-16.5248450904
 20
224.5474567422
 30
0.0
 10
-16.0395621569
 20
227.0129676162
 30
0.0
 10
-16.0757554004
 20
229.5165081169
 30
0.0
 10
-16.6340319783
 20
231.9049375138
 30
0.0
 10
-17.6839844234
 20
234.0325379134
 30
0.0
 10
-19.1688552362
 20
235.7655031705
 30
0.0
 10
-21.0006597354
 20
236.987174091
 30
0.0
 10
-22.387835901
 20
237.4030241036
 30
0.0
 10
-23.0834466586
 20
237.5004887741
 30
0.0
  0
SPLINE
  5
3E1
100
AcDbEntity
  8
0
100
AcDbSpline
 62
7
  6
CONTINUOUS
 70
0
 71
3
 72
11
 73
7
 74
0
 42
0.0000001
 43
0.0000001
 44
0.0000000001
 40
0.0
 40
0.0
 40
0.0
 40
0.0
 40
0.2353686643
 40
0.4780933712
 40
0.7327618415
 40
1.0
 40
1.0
 40
1.0
 40
1.0
 10
-25.8574266964
 20
217.6939263546
 30
0.0
 10
-25.080136647
 20
217.5850172877
 30
0.0
 10
-23.4510753978
 20
217.63583653
 30
0.0
 10
-21.1288657048
 20
218.5142715444
 30
0.0
 10
-19.0894721306
 20
220.1003470002
 30
0.0
 10
-18.0376466335
 20
221.5152493869
 30
0.0
 10
-17.5961888299
 20
222.2893794315
 30
0.0
  0
SPLINE
  5
3E2
100
AcDbEntity
  8
0
100
AcDbSpline
 62
7
  6
CONTINUOUS
 70
0
 71
3
 72
11
 73
7
 74
0
 42
0.0000001
 43
0.0000001
 44
0.0000000001
 40
0.0
 40
0.0
 40
0.0
 40
0.0
 40
0.2548529925
 40
0.5121686073
 40
0.7627389277
 40
1.0
 40
1.0
 40
1.0
 40
1.0
 10
-3.1307365708
 20
247.6556570487
 30
0.0
 10
-2.5581246064
 20
248.6597759519
 30
0.0
 10
-1.7214470942
 20
250.8711479267
 30
0.0
 10
-1.4766974424
 20
254.3693003003
 30
0.0
 10
-2.2402448481
 20
257.7137614779
 30
0.0
 10
-3.4240826118
 20
259.645498473
 30
0.0
 10
-4.1488608565
 20
260.4409486094
 30
0.0
  0
SPLINE
  5
3E3
100
AcDbEntity
  8
0
100
AcDbSpline
 62
7
  6
CONTINUOUS
 70
0
 71
3
 72
16
 73
12
 74
0
 42
0.0000001
 43
0.0000001
 44
0.0000000001
 40
0.0
 40
0.0
 40
0.0
 40
0.0
 40
0.1337949071
 40
0.2693327965
 40
0.403184885
 40
0.4686323436
 40
0.5326269034
 40
0.6554224106
 40
0.7722834205
 40
0.8858065291
 40
1.0
 40
1.0
 40
1.0
 40
1.0
 10
-2.3370777835
 20
228.7750879741
 30
0.0
 10
-2.0190066229
 20
229.3328500776
 30
0.0
 10
-1.524933132
 20
230.5449667579
 30
0.0
 10
-1.2496494454
 20
232.4779909649
 30
0.0
 10
-1.4173576686
 20
234.0950258036
 30
0.0
 10
-1.790747281
 20
235.3057150736
 30
0.0
 10
-2.3008884155
 20
236.4067317176
 30
0.0
 10
-3.189473782
 20
237.5909305101
 30
0.0
 10
-4.6046741322
 20
238.5797038536
 30
0.0
 10
-6.2341823336
 20
239.0184876814
 30
0.0
 10
-7.3481583965
 20
238.9116377791
 30
0.0
 10
-7.8774849117
 20
238.7697489045
 30
0.0
  0
SPLINE
  5
3E4
100
AcDbEntity
  8
0
100
AcDbSpline
 62
7
  6
CONTINUOUS
 70
0
 71
3
 72
9
 73
5
 74
0
 42
0.0000001
 43
0.0000001
 44
0.0000000001
 40
0.0
 40
0.0
 40
0.0
 40
0.0
 40
0.4827927048
 40
1.0
 40
1.0
 40
1.0
 40
1.0
 10
-7.8774849117
 20
238.7697489045
 30
0.0
 10
-8.6140369836
 20
238.5723120834
 30
0.0
 10
-10.0541437366
 20
237.7999803357
 30
0.0
 10
-11.0751492961
 20
236.5441334396
 30
0.0
 10
-11.4798274209
 20
235.8344993908
 30
0.0
  0
SPLINE
  5
3E5
100
AcDbEntity
  8
0
100
AcDbSpline
 62
7
  6
CONTINUOUS
 70
0
 71
3
 72
16
 73
12
 74
0
 42
0.0000001
 43
0.0000001
 44
0.0000000001
 40
0.0
 40
0.0
 40
0.0
 40
0.0
 40
0.1337949071
 40
0.2693327965
 40
0.403184885
 40
0.4686323436
 40
0.5326269034
 40
0.6554224106
 40
0.7722834205
 40
0.8858065291
 40
1.0
 40
1.0
 40
1.0
 40
1.0
 10
-11.4798274209
 20
235.8344993908
 30
0.0
 10
-11.7978985778
 20
235.2767372853
 30
0.0
 10
-12.2919720748
 20
234.0646206082
 30
0.0
 10
-12.5672557582
 20
232.1315963997
 30
0.0
 10
-12.3995475359
 20
230.5145615613
 30
0.0
 10
-12.0261579233
 20
229.3038722913
 30
0.0
 10
-11.5160167889
 20
228.2028556473
 30
0.0
 10
-10.6274314223
 20
227.0186568548
 30
0.0
 10
-9.2122310722
 20
226.0298835113
 30
0.0
 10
-7.5827228708
 20
225.5910996835
 30
0.0
 10
-6.4687468079
 20
225.6979495858
 30
0.0
 10
-5.9394202927
 20
225.8398384604
 30
0.0
  0
SPLINE
  5
3E6
100
AcDbEntity
  8
0
100
AcDbSpline
 62
7
  6
CONTINUOUS
 70
0
 71
3
 72
9
 73
5
 74
0
 42
0.0000001
 43
0.0000001
 44
0.0000000001
 40
0.0
 40
0.0
 40
0.0
 40
0.0
 40
0.4827927048
 40
1.0
 40
1.0
 40
1.0
 40
1.0
 10
-5.9394202927
 20
225.8398384604
 30
0.0
 10
-5.2028682208
 20
226.0372752815
 30
0.0
 10
-3.7627614657
 20
226.809607028
 30
0.0
 10
-2.7417559129
 20
228.065453928
 30
0.0
 10
-2.3370777835
 20
228.7750879741
 30
0.0
  0
SPLINE
  5
3E7
100
AcDbEntity
  8
0
100
AcDbSpline
 62
7
  6
CONTINUOUS
 70
0
 71
3
 72
15
 73
11
 74
0
 42
0.0000001
 43
0.0000001
 44
0.0000000001
 40
0.0
 40
0.0
 40
0.0
 40
0.0
 40
0.1338304495
 40
0.2694114803
 40
0.4033025094
 40
0.5324873526
 40
0.6553218943
 40
0.7722171411
 40
0.8857762024
 40
1.0
 40
1.0
 40
1.0
 40
1.0
 10
-10.8236535905
 20
217.0600868789
 30
0.0
 10
-11.3115077179
 20
216.204597334
 30
0.0
 10
-12.0693447944
 20
214.3456099343
 30
0.0
 10
-12.4915124992
 20
211.3798015865
 30
0.0
 10
-12.186104671
 20
208.4309016159
 30
0.0
 10
-11.1704637592
 20
205.7422027446
 30
0.0
 10
-9.5164988868
 20
203.5384805358
 30
0.0
 10
-7.3454668283
 20
202.0211679311
 30
0.0
 10
-4.8461162839
 20
201.3484934339
 30
0.0
 10
-3.1374607911
 20
201.5123026446
 30
0.0
 10
-2.3255855142
 20
201.7299302638
 30
0.0
  0
SPLINE
  5
3E8
100
AcDbEntity
  8
0
100
AcDbSpline
 62
7
  6
CONTINUOUS
 70
0
 71
3
 72
10
 73
6
 74
0
 42
0.0000001
 43
0.0000001
 44
0.0000000001
 40
0.0
 40
0.0
 40
0.0
 40
0.0
 40
0.2380722756
 40
0.4841853395
 40
1.0
 40
1.0
 40
1.0
 40
1.0
 10
-2.3255855142
 20
201.7299302638
 30
0.0
 10
-1.7669853407
 20
201.879666103
 30
0.0
 10
-0.6621511989
 20
202.3157387525
 30
0.0
 10
1.371217391
 20
203.6675144011
 30
0.0
 10
2.5791027194
 20
205.1436562373
 30
0.0
 10
3.1998120186
 20
206.2321174879
 30
0.0
  0
SPLINE
  5
3E9
100
AcDbEntity
  8
0
100
AcDbSpline
 62
7
  6
CONTINUOUS
 70
0
 71
3
 72
15
 73
11
 74
0
 42
0.0000001
 43
0.0000001
 44
0.0000000001
 40
0.0
 40
0.0
 40
0.0
 40
0.0
 40
0.1338304495
 40
0.2694114803
 40
0.4033025094
 40
0.5324873526
 40
0.6553218943
 40
0.7722171411
 40
0.8857762024
 40
1.0
 40
1.0
 40
1.0
 40
1.0
 10
3.1998120186
 20
206.2321174879
 30
0.0
 10
3.6876661475
 20
207.0876070318
 30
0.0
 10
4.4455032213
 20
208.946594433
 30
0.0
 10
4.8676709275
 20
211.9124027802
 30
0.0
 10
4.5622630989
 20
214.8613027509
 30
0.0
 10
3.5466221873
 20
217.5500016221
 30
0.0
 10
1.8926573148
 20
219.7537238309
 30
0.0
 10
-0.2783747437
 20
221.2710364357
 30
0.0
 10
-2.7777252881
 20
221.9437109328
 30
0.0
 10
-4.4863807809
 20
221.7799017221
 30
0.0
 10
-5.2982560578
 20
221.5622741029
 30
0.0
  0
SPLINE
  5
3EA
100
AcDbEntity
  8
0
100
AcDbSpline
 62
7
  6
CONTINUOUS
 70
0
 71
3
 72
10
 73
6
 74
0
 42
0.0000001
 43
0.0000001
 44
0.0000000001
 40
0.0
 40
0.0
 40
0.0
 40
0.0
 40
0.2380722756
 40
0.4841853395
 40
1.0
 40
1.0
 40
1.0
 40
1.0
 10
-5.2982560578
 20
221.5622741029
 30
0.0
 10
-5.8568562313
 20
221.4125382638
 30
0.0
 10
-6.9616903731
 20
220.9764656142
 30
0.0
 10
-8.9950589625
 20
219.6246899654
 30
0.0
 10
-10.2029442934
 20
218.1485481306
 30
0.0
 10
-10.8236535905
 20
217.0600868789
 30
0.0
  0
SPLINE
  5
3EB
100
AcDbEntity
  8
0
100
AcDbSpline
 62
7
  6
CONTINUOUS
 70
0
 71
3
 72
9
 73
5
 74
0
 42
0.0000001
 43
0.0000001
 44
0.0000000001
 40
0.0
 40
0.0
 40
0.0
 40
0.0
 40
0.5152993898
 40
1.0
 40
1.0
 40
1.0
 40
1.0
 10
10.729888694
 20
232.6566207105
 30
0.0
 10
10.1848555749
 20
231.7008634232
 30
0.0
 10
8.8397906653
 20
229.9898988837
 30
0.0
 10
6.9810093222
 20
228.8296154163
 30
0.0
 10
6.0117508752
 20
228.4668824111
 30
0.0
  0
SPLINE
  5
3EC
100
AcDbEntity
  8
0
100
AcDbSpline
 62
7
  6
CONTINUOUS
 70
0
 71
3
 72
13
 73
9
 74
0
 42
0.0000001
 43
0.0000001
 44
0.0000000001
 40
0.0
 40
0.0
 40
0.0
 40
0.0
 40
0.2643617964
 40
0.5264910478
 40
0.6521267903
 40
0.772298818
 40
0.8876077027
 40
1.0
 40
1.0
 40
1.0
 40
1.0
 10
7.7739621196
 20
234.9389868076
 30
0.0
 10
8.2389512855
 20
235.7543808969
 30
0.0
 10
8.8066354688
 20
237.6023232764
 30
0.0
 10
8.5356304621
 20
239.9777265412
 30
0.0
 10
7.7368076996
 20
241.6119375493
 30
0.0
 10
6.897991499
 20
242.6014591563
 30
0.0
 10
5.8618076208
 20
243.3025955159
 30
0.0
 10
5.0756212215
 20
243.545492819
 30
0.0
 10
4.680907244
 20
243.6042769594
 30
0.0
  0
SPLINE
  5
3ED
100
AcDbEntity
  8
0
100
AcDbSpline
 62
7
  6
CONTINUOUS
 70
0
 71
3
 72
9
 73
5
 74
0
 42
0.0000001
 43
0.0000001
 44
0.0000000001
 40
0.0
 40
0.0
 40
0.0
 40
0.0
 40
0.5152993898
 40
1.0
 40
1.0
 40
1.0
 40
1.0
 10
-24.3940794566
 20
223.2414484743
 30
0.0
 10
-24.9391125757
 20
222.285691187
 30
0.0
 10
-26.2841774853
 20
220.5747266475
 30
0.0
 10
-28.1429588284
 20
219.4144431801
 30
0.0
 10
-29.1122172755
 20
219.0517101749
 30
0.0
  0
SPLINE
  5
3EE
100
AcDbEntity
  8
0
100
AcDbSpline
 62
7
  6
CONTINUOUS
 70
0
 71
3
 72
11
 73
7
 74
0
 42
0.0000001
 43
0.0000001
 44
0.0000000001
 40
0.0
 40
0.0
 40
0.0
 40
0.0
 40
0.2353620904
 40
0.4780942909
 40
0.7327602628
 40
1.0
 40
1.0
 40
1.0
 40
1.0
 10
-17.5934551826
 20
248.2707160181
 30
0.0
 10
-17.1504049217
 20
248.2087075853
 30
0.0
 10
-16.2218580272
 20
248.2375958987
 30
0.0
 10
-14.8982010638
 20
248.7383198346
 30
0.0
 10
-13.7357034933
 20
249.642328234
 30
0.0
 10
-13.1361849725
 20
250.4488376204
 30
0.0
 10
-12.8845537719
 20
250.8900921886
 30
0.0
  0
SPLINE
  5
3EF
100
AcDbEntity
  8
0
100
AcDbSpline
 62
7
  6
CONTINUOUS
 70
0
 71
3
 72
13
 73
9
 74
0
 42
0.0000001
 43
0.0000001
 44
0.0000000001
 40
0.0
 40
0.0
 40
0.0
 40
0.0
 40
0.2643617964
 40
0.5264910478
 40
0.6521267903
 40
0.772298818
 40
0.8876077027
 40
1.0
 40
1.0
 40
1.0
 40
1.0
 10
-27.3500060311
 20
225.5238145714
 30
0.0
 10
-26.8850168652
 20
226.3392086607
 30
0.0
 10
-26.3173326818
 20
228.1871510402
 30
0.0
 10
-26.5883376885
 20
230.562554305
 30
0.0
 10
-27.3871604511
 20
232.1967653131
 30
0.0
 10
-28.2259766516
 20
233.1862869201
 30
0.0
 10
-29.2621605298
 20
233.8874232796
 30
0.0
 10
-30.0483469291
 20
234.1303205828
 30
0.0
 10
-30.4430609067
 20
234.1891047232
 30
0.0
  0
SPLINE
  5
3F0
100
AcDbEntity
  8
0
100
AcDbSpline
 62
7
  6
CONTINUOUS
 70
0
 71
3
 72
11
 73
7
 74
0
 42
0.0000001
 43
0.0000001
 44
0.0000000001
 40
0.0
 40
0.0
 40
0.0
 40
0.0
 40
0.2353620904
 40
0.4780942909
 40
0.7327602628
 40
1.0
 40
1.0
 40
1.0
 40
1.0
 10
3.0650607089
 20
232.3196106371
 30
0.0
 10
3.5081109698
 20
232.2576022043
 30
0.0
 10
4.4366578643
 20
232.2864905178
 30
0.0
 10
5.7603148278
 20
232.7872144536
 30
0.0
 10
6.9228123982
 20
233.691222853
 30
0.0
 10
7.522330919
 20
234.4977322395
 30
0.0
 10
7.7739621196
 20
234.9389868076
 30
0.0
  0
SPLINE
  5
3F1
100
AcDbEntity
  8
0
100
AcDbSpline
 62
7
  6
CONTINUOUS
 70
0
 71
3
 72
9
 73
5
 74
0
 42
0.0000001
 43
0.0000001
 44
0.0000000001
 40
0.0
 40
0.0
 40
0.0
 40
0.0
 40
0.5152993898
 40
1.0
 40
1.0
 40
1.0
 40
1.0
 10
-9.9286271975
 20
248.6077260915
 30
0.0
 10
-10.4736603166
 20
247.6519688042
 30
0.0
 10
-11.8187252262
 20
245.9410042647
 30
0.0
 10
-13.6775065693
 20
244.7807207973
 30
0.0
 10
-14.6467650164
 20
244.4179877921
 30
0.0
  0
SPLINE
  5
3F2
100
AcDbEntity
  8
0
100
AcDbSpline
 62
7
  6
CONTINUOUS
 70
0
 71
3
 72
13
 73
9
 74
0
 42
0.0000001
 43
0.0000001
 44
0.0000000001
 40
0.0
 40
0.0
 40
0.0
 40
0.0
 40
0.2643617964
 40
0.5264910478
 40
0.6521267903
 40
0.772298818
 40
0.8876077027
 40
1.0
 40
1.0
 40
1.0
 40
1.0
 10
-12.8845537719
 20
250.8900921886
 30
0.0
 10
-12.4195646061
 20
251.7054862779
 30
0.0
 10
-11.8518804227
 20
253.5534286574
 30
0.0
 10
-12.1228854294
 20
255.9288319222
 30
0.0
 10
-12.921708192
 20
257.5630429303
 30
0.0
 10
-13.7605243925
 20
258.5525645373
 30
0.0
 10
-14.7967082707
 20
259.2537008968
 30
0.0
 10
-15.58289467
 20
259.4965982
 30
0.0
 10
-15.9776086476
 20
259.5553823404
 30
0.0
  0
SPLINE
  5
3F3
100
AcDbEntity
  8
0
100
AcDbSpline
 62
7
  6
CONTINUOUS
 70
0
 71
3
 72
9
 73
5
 74
0
 42
0.0000001
 43
0.0000001
 44
0.0000000001
 40
0.0
 40
0.0
 40
0.0
 40
0.0
 40
0.2487601348
 40
1.0
 40
1.0
 40
1.0
 40
1.0
 10
-6.4420539551
 20
204.7441898873
 30
0.0
 10
-6.2729034195
 20
204.720493719
 30
0.0
 10
-5.5883988836
 20
204.6596105547
 30
0.0
 10
-4.892459605
 20
204.7413966049
 30
0.0
 10
-4.3942366975
 20
204.8749479869
 30
0.0
  0
SPLINE
  5
3F4
100
AcDbEntity
  8
0
100
AcDbSpline
 62
7
  6
CONTINUOUS
 70
0
 71
3
 72
14
 73
10
 74
0
 42
0.0000001
 43
0.0000001
 44
0.0000000001
 40
0.0
 40
0.0
 40
0.0
 40
0.0
 40
0.2640634232
 40
0.3972041631
 40
0.5273686695
 40
0.6527760937
 40
0.7727045919
 40
0.8877917481
 40
1.0
 40
1.0
 40
1.0
 40
1.0
 10
-6.0308459183
 20
230.5959329315
 30
0.0
 10
-5.7320029666
 20
231.1199768999
 30
0.0
 10
-5.4572372405
 20
232.0228990369
 30
0.0
 10
-5.476091102
 20
233.2333683007
 30
0.0
 10
-5.6796150028
 20
234.1057998334
 30
0.0
 10
-6.0629570336
 20
234.882193148
 30
0.0
 10
-6.6049113492
 20
235.5147957604
 30
0.0
 10
-7.2735530613
 20
235.9606052789
 30
0.0
 10
-7.779825719
 20
236.1124460863
 30
0.0
 10
-8.0336906532
 20
236.1480185094
 30
0.0
  0
SPLINE
  5
3F5
100
AcDbEntity
  8
0
100
AcDbSpline
 62
7
  6
CONTINUOUS
 70
0
 71
3
 72
11
 73
7
 74
0
 42
0.0000001
 43
0.0000001
 44
0.0000000001
 40
0.0
 40
0.0
 40
0.0
 40
0.0
 40
0.238600594
 40
0.4894392165
 40
0.7460775786
 40
1.0
 40
1.0
 40
1.0
 40
1.0
 10
-10.6143074491
 20
261.0056704197
 30
0.0
 10
-9.9590805178
 20
260.1952594231
 30
0.0
 10
-8.9080490055
 20
258.2816027799
 30
0.0
 10
-8.2699997809
 20
255.0407095799
 30
0.0
 10
-8.5639199399
 20
251.6861234869
 30
0.0
 10
-9.3792170696
 20
249.5711587985
 30
0.0
 10
-9.9286271975
 20
248.6077260915
 30
0.0
  0
SPLINE
  5
3F6
100
AcDbEntity
  8
0
100
AcDbSpline
 62
7
  6
CONTINUOUS
 70
0
 71
3
 72
12
 73
8
 74
0
 42
0.0000001
 43
0.0000001
 44
0.0000000001
 40
0.0
 40
0.0
 40
0.0
 40
0.0
 40
0.1149554454
 40
0.2340312017
 40
0.4831481371
 40
0.7422889861
 40
1.0
 40
1.0
 40
1.0
 40
1.0
 10
8.5311911327
 20
246.5092250209
 30
0.0
 10
8.9997216843
 20
246.1637120594
 30
0.0
 10
9.8765738221
 20
245.3499848558
 30
0.0
 10
11.2971658266
 20
243.3409131212
 30
0.0
 10
12.3327984044
 20
240.2551659859
 30
0.0
 10
12.2729583743
 20
236.3124927354
 30
0.0
 10
11.3763965843
 20
233.7903217751
 30
0.0
 10
10.729888694
 20
232.6566207105
 30
0.0
  0
SPLINE
  5
3F7
100
AcDbEntity
  8
0
100
AcDbSpline
 62
7
  6
CONTINUOUS
 70
0
 71
3
 72
9
 73
5
 74
0
 42
0.0000001
 43
0.0000001
 44
0.0000000001
 40
0.0
 40
0.0
 40
0.0
 40
0.0
 40
0.4827900927
 40
1.0
 40
1.0
 40
1.0
 40
1.0
 10
-8.0080714759
 20
228.9848561835
 30
0.0
 10
-7.6037981817
 20
229.0932238565
 30
0.0
 10
-6.8133146886
 20
229.5170685347
 30
0.0
 10
-6.2529650029
 20
230.2064301311
 30
0.0
 10
-6.0308459183
 20
230.5959329315
 30
0.0
  0
SPLINE
  5
3F8
100
AcDbEntity
  8
0
100
AcDbSpline
 62
7
  6
CONTINUOUS
 70
0
 71
3
 72
11
 73
7
 74
0
 42
0.0000001
 43
0.0000001
 44
0.0000000001
 40
0.0
 40
0.0
 40
0.0
 40
0.0
 40
0.2353686643
 40
0.4780933712
 40
0.7327618415
 40
1.0
 40
1.0
 40
1.0
 40
1.0
 10
9.2665414542
 20
227.1090985909
 30
0.0
 10
10.0438315036
 20
227.000189524
 30
0.0
 10
11.6728927528
 20
227.0510087662
 30
0.0
 10
13.9951024458
 20
227.9294437806
 30
0.0
 10
16.03449602
 20
229.5155192364
 30
0.0
 10
17.0863215171
 20
230.9304216232
 30
0.0
 10
17.5277793207
 20
231.7045516677
 30
0.0
  0
SPLINE
  5
3F9
100
AcDbEntity
  8
0
100
AcDbSpline
 62
7
  6
CONTINUOUS
 70
0
 71
3
 72
17
 73
13
 74
0
 42
0.0000001
 43
0.0000001
 44
0.0000000001
 40
0.0
 40
0.0
 40
0.0
 40
0.0
 40
0.0559625084
 40
0.1123013268
 40
0.1693620399
 40
0.2274329337
 40
0.3471072978
 40
0.4722484681
 40
0.602135312
 40
0.7349946005
 40
0.8684453802
 40
1.0
 40
1.0
 40
1.0
 40
1.0
 10
-11.7976185299
 20
197.3955446186
 30
0.0
 10
-13.0229735111
 20
197.5672048325
 30
0.0
 10
-15.4598340556
 20
198.0984754549
 30
0.0
 10
-18.9700887314
 20
199.439415095
 30
0.0
 10
-22.2871150424
 20
201.3036577417
 30
0.0
 10
-26.418021712
 20
204.4726283602
 30
0.0
 10
-30.8324409528
 20
209.6213572779
 30
0.0
 10
-34.5313292686
 20
217.1196994087
 30
0.0
 10
-36.4999031951
 20
225.5392553508
 30
0.0
 10
-36.6275922889
 20
234.3642702583
 30
0.0
 10
-34.9165169676
 20
243.0551569156
 30
0.0
 10
-32.5810492707
 20
248.4882067613
 30
0.0
 10
-31.140176265
 20
251.0148878508
 30
0.0
  0
SPLINE
  5
3FA
100
AcDbEntity
  8
0
100
AcDbSpline
 62
7
  6
CONTINUOUS
 70
0
 71
3
 72
10
 73
6
 74
0
 42
0.0000001
 43
0.0000001
 44
0.0000000001
 40
0.0
 40
0.0
 40
0.0
 40
0.0
 40
0.2380721721
 40
0.4841850713
 40
1.0
 40
1.0
 40
1.0
 40
1.0
 10
-4.3942366975
 20
204.8749479869
 30
0.0
 10
-3.9999305857
 20
204.980643902
 30
0.0
 10
-3.2200457681
 20
205.2884541603
 30
0.0
 10
-1.7847207985
 20
206.2426445605
 30
0.0
 10
-0.9321043806
 20
207.2846359386
 30
0.0
 10
-0.4939561027
 20
208.052962469
 30
0.0
  0
SPLINE
  5
3FB
100
AcDbEntity
  8
0
100
AcDbSpline
 62
7
  6
CONTINUOUS
 70
0
 71
3
 72
13
 73
9
 74
0
 42
0.0000001
 43
0.0000001
 44
0.0000000001
 40
0.0
 40
0.0
 40
0.0
 40
0.0
 40
0.2644674619
 40
0.5266326055
 40
0.6522345359
 40
0.7723488812
 40
0.8876135684
 40
1.0
 40
1.0
 40
1.0
 40
1.0
 10
-0.4939561027
 20
208.052962469
 30
0.0
 10
0.0955291693
 20
209.0866699978
 30
0.0
 10
0.813490756
 20
211.4301494307
 30
0.0
 10
0.4631681238
 20
214.4408846059
 30
0.0
 10
-0.5571562003
 20
216.5078184128
 30
0.0
 10
-1.6263731766
 20
217.755923656
 30
0.0
 10
-2.9452758484
 20
218.635314753
 30
0.0
 10
-3.9439803363
 20
218.9348516647
 30
0.0
 10
-4.4447751176
 20
219.00500762
 30
0.0
  0
SPLINE
  5
3FC
100
AcDbEntity
  8
0
100
AcDbSpline
 62
7
  6
CONTINUOUS
 70
0
 71
3
 72
13
 73
9
 74
0
 42
0.0000001
 43
0.0000001
 44
0.0000000001
 40
0.0
 40
0.0
 40
0.0
 40
0.0
 40
0.2576173118
 40
0.5150611245
 40
0.6412900725
 40
0.7644593396
 40
0.884060209
 40
1.0
 40
1.0
 40
1.0
 40
1.0
 10
32.3090076439
 20
242.0404502673
 30
0.0
 10
33.0762679977
 20
236.9216283437
 30
0.0
 10
33.065540811
 20
226.4039039454
 30
0.0
 10
29.3501628399
 20
213.8663568689
 30
0.0
 10
24.3374584337
 20
204.9620390649
 30
0.0
 10
19.7170310312
 20
199.1213896024
 30
0.0
 10
14.3518698801
 20
194.2601071109
 30
0.0
 10
10.3152711321
 20
191.7306684283
 30
0.0
 10
8.2328473814
 20
190.6867252178
 30
0.0
  0
SPLINE
  5
3FD
100
AcDbEntity
  8
0
100
AcDbSpline
 62
7
  6
CONTINUOUS
 70
0
 71
3
 72
14
 73
10
 74
0
 42
0.0000001
 43
0.0000001
 44
0.0000000001
 40
0.0
 40
0.0
 40
0.0
 40
0.0
 40
0.2676517706
 40
0.4000360656
 40
0.5287673572
 40
0.652814347
 40
0.7720031461
 40
0.8871528037
 40
1.0
 40
1.0
 40
1.0
 40
1.0
 10
8.2328473814
 20
190.6867252178
 30
0.0
 10
8.2873536562
 20
189.4677523788
 30
0.0
 10
8.0196206244
 20
187.606620165
 30
0.0
 10
7.0205245928
 20
185.4014009961
 30
0.0
 10
5.9901256515
 20
183.9636177088
 30
0.0
 10
4.7250828789
 20
182.8142311216
 30
0.0
 10
3.2840655131
 20
182.0112200703
 30
0.0
 10
1.7384611423
 20
181.5997229991
 30
0.0
 10
0.6843783592
 20
181.6042693779
 30
0.0
 10
0.1748966952
 20
181.6756390528
 30
0.0
  0
SPLINE
  5
3FE
100
AcDbEntity
  8
0
100
AcDbSpline
 62
7
  6
CONTINUOUS
 70
0
 71
3
 72
11
 73
7
 74
0
 42
0.0000001
 43
0.0000001
 44
0.0000000001
 40
0.0
 40
0.0
 40
0.0
 40
0.0
 40
0.2685863187
 40
0.5241478096
 40
0.7663609521
 40
1.0
 40
1.0
 40
1.0
 40
1.0
 10
-2.8130639116
 20
188.7382076845
 30
0.0
 10
-2.7399857614
 20
188.2506625695
 30
0.0
 10
-2.4722231515
 20
187.3118623248
 30
0.0
 10
-1.7075179092
 20
186.1061535102
 30
0.0
 10
-0.6485323044
 20
185.24061542
 30
0.0
 10
0.2009873206
 20
184.9538210204
 30
0.0
 10
0.6256784465
 20
184.894272425
 30
0.0
  0
SPLINE
  5
3FF
100
AcDbEntity
  8
0
100
AcDbSpline
 62
7
  6
CONTINUOUS
 70
0
 71
3
 72
11
 73
7
 74
0
 42
0.0000001
 43
0.0000001
 44
0.0000000001
 40
0.0
 40
0.0
 40
0.0
 40
0.0
 40
0.2418844336
 40
0.4923670427
 40
0.746899192
 40
1.0
 40
1.0
 40
1.0
 40
1.0
 10
-26.6326962285
 20
263.6663246063
 30
0.0
 10
-29.1835629517
 20
261.1548628424
 30
0.0
 10
-33.7063052321
 20
255.3262108676
 30
0.0
 10
-38.2512082055
 20
245.1463027669
 30
0.0
 10
-40.4268921086
 20
234.0466162659
 30
0.0
 10
-40.1883854185
 20
226.4602902246
 30
0.0
 10
-39.6331435917
 20
222.7559621928
 30
0.0
  0
SPLINE
  5
400
100
AcDbEntity
  8
0
100
AcDbSpline
 62
7
  6
CONTINUOUS
 70
0
 71
3
 72
15
 73
11
 74
0
 42
0.0000001
 43
0.0000001
 44
0.0000000001
 40
0.0
 40
0.0
 40
0.0
 40
0.0
 40
0.1355589529
 40
0.2683335916
 40
0.3978337224
 40
0.5238390676
 40
0.6464592089
 40
0.7661407857
 40
0.8836511647
 40
1.0
 40
1.0
 40
1.0
 40
1.0
 10
-39.6331435917
 20
222.7559621928
 30
0.0
 10
-39.3230601852
 20
220.6872227727
 30
0.0
 10
-38.4382984653
 20
216.626935274
 30
0.0
 10
-36.3140545451
 20
210.8464129257
 30
0.0
 10
-33.4509442577
 20
205.5579502716
 30
0.0
 10
-29.9132845655
 20
200.8878348668
 30
0.0
 10
-25.7815069888
 20
196.9477104824
 30
0.0
 10
-21.1501027411
 20
193.8340702266
 30
0.0
 10
-16.1305726361
 20
191.6256833327
 30
0.0
 10
-12.5946260841
 20
190.7922393173
 30
0.0
 10
-10.8165683179
 20
190.5432069108
 30
0.0
  0
SPLINE
  5
401
100
AcDbEntity
  8
0
100
AcDbSpline
 62
7
  6
CONTINUOUS
 70
0
 71
3
 72
9
 73
5
 74
0
 42
0.0000001
 43
0.0000001
 44
0.0000000001
 40
0.0
 40
0.0
 40
0.0
 40
0.0
 40
0.5028715139
 40
1.0
 40
1.0
 40
1.0
 40
1.0
 10
-68.1719035531
 20
170.7821710264
 30
0.0
 10
-68.5429216842
 20
170.6827175822
 30
0.0
 10
-69.3018781849
 20
170.5559607685
 30
0.0
 10
-70.0711961974
 20
170.5842189836
 30
0.0
 10
-70.4472544046
 20
170.636895677
 30
0.0
  0
SPLINE
  5
402
100
AcDbEntity
  8
0
100
AcDbSpline
 62
7
  6
CONTINUOUS
 70
0
 71
3
 72
9
 73
5
 74
0
 42
0.0000001
 43
0.0000001
 44
0.0000000001
 40
0.0
 40
0.0
 40
0.0
 40
0.0
 40
0.5026731844
 40
1.0
 40
1.0
 40
1.0
 40
1.0
 10
-75.7234624226
 20
171.7802923209
 30
0.0
 10
-75.4117415654
 20
171.6042894125
 30
0.0
 10
-74.7583622239
 20
171.3096452129
 30
0.0
 10
-74.0609863478
 20
171.1430196624
 30
0.0
 10
-73.7102419054
 20
171.0938888175
 30
0.0
  0
SPLINE
  5
403
100
AcDbEntity
  8
0
100
AcDbSpline
 62
7
  6
CONTINUOUS
 70
0
 71
3
 72
9
 73
5
 74
0
 42
0.0000001
 43
0.0000001
 44
0.0000000001
 40
0.0
 40
0.0
 40
0.0
 40
0.0
 40
0.247334695
 40
1.0
 40
1.0
 40
1.0
 40
1.0
 10
-88.0468735032
 20
282.0669679739
 30
0.0
 10
-88.1464318887
 20
282.0402808028
 30
0.0
 10
-88.5461050137
 20
281.9219420108
 30
0.0
 10
-88.9334819365
 20
281.7626075835
 30
0.0
 10
-89.2142128814
 20
281.6226996156
 30
0.0
  0
SPLINE
  5
404
100
AcDbEntity
  8
0
100
AcDbSpline
 62
7
  6
CONTINUOUS
 70
0
 71
3
 72
9
 73
5
 74
0
 42
0.0000001
 43
0.0000001
 44
0.0000000001
 40
0.0
 40
0.0
 40
0.0
 40
0.0
 40
0.4908629929
 40
1.0
 40
1.0
 40
1.0
 40
1.0
 10
24.9883160498
 20
261.2769582396
 30
0.0
 10
26.8868021302
 20
258.4701086402
 30
0.0
 10
30.0599227007
 20
252.2599893379
 30
0.0
 10
31.7880005975
 20
245.5163789771
 30
0.0
 10
32.3090076439
 20
242.0404502673
 30
0.0
  0
SPLINE
  5
405
100
AcDbEntity
  8
0
100
AcDbSpline
 62
7
  6
CONTINUOUS
 70
0
 71
3
 72
13
 73
9
 74
0
 42
0.0000001
 43
0.0000001
 44
0.0000000001
 40
0.0
 40
0.0
 40
0.0
 40
0.0
 40
0.2521173504
 40
0.505349673
 40
0.6312548362
 40
0.7559338102
 40
0.8789636489
 40
1.0
 40
1.0
 40
1.0
 40
1.0
 10
-54.0425117879
 20
220.51894245
 30
0.0
 10
-54.7376250339
 20
224.7368251323
 30
0.0
 10
-55.2654103201
 20
233.3556211014
 30
0.0
 10
-53.7906556322
 20
244.0309458494
 30
0.0
 10
-51.3661037115
 20
252.2350834516
 30
0.0
 10
-48.957952504
 20
258.1070462895
 30
0.0
 10
-45.9912637961
 20
263.6230526643
 30
0.0
 10
-43.6458570188
 20
267.0444340219
 30
0.0
 10
-42.3922609331
 20
268.6692892576
 30
0.0
  0
SPLINE
  5
406
100
AcDbEntity
  8
0
100
AcDbSpline
 62
7
  6
CONTINUOUS
 70
0
 71
3
 72
11
 73
7
 74
0
 42
0.0000001
 43
0.0000001
 44
0.0000000001
 40
0.0
 40
0.0
 40
0.0
 40
0.0
 40
0.2409184435
 40
0.488326853
 40
0.7417009302
 40
1.0
 40
1.0
 40
1.0
 40
1.0
 10
-40.4156707801
 20
191.7464431972
 30
0.0
 10
-42.1790026406
 20
193.6446942072
 30
0.0
 10
-45.4431190287
 20
197.7914036813
 30
0.0
 10
-49.3776262584
 20
204.7621887245
 30
0.0
 10
-52.33142244
 20
212.400899149
 30
0.0
 10
-53.5908187379
 20
217.7781109321
 30
0.0
 10
-54.0425117879
 20
220.51894245
 30
0.0
  0
SPLINE
  5
407
100
AcDbEntity
  8
0
100
AcDbSpline
 62
7
  6
CONTINUOUS
 70
0
 71
3
 72
9
 73
5
 74
0
 42
0.0000001
 43
0.0000001
 44
0.0000000001
 40
0.0
 40
0.0
 40
0.0
 40
0.0
 40
0.4935751022
 40
1.0
 40
1.0
 40
1.0
 40
1.0
 10
32.8707956521
 20
262.4268430275
 30
0.0
 10
34.3207387301
 20
259.6394966233
 30
0.0
 10
36.7620840789
 20
253.7229124361
 30
0.0
 10
38.1988383845
 20
247.4903001911
 30
0.0
 10
38.6767025117
 20
244.3022019678
 30
0.0
  0
SPLINE
  5
408
100
AcDbEntity
  8
0
100
AcDbSpline
 62
7
  6
CONTINUOUS
 70
0
 71
3
 72
16
 73
12
 74
0
 42
0.0000001
 43
0.0000001
 44
0.0000000001
 40
0.0
 40
0.0
 40
0.0
 40
0.0
 40
0.1315283069
 40
0.2641053627
 40
0.3958733295
 40
0.5250816766
 40
0.6503721996
 40
0.7710263039
 40
0.8871533052
 40
0.9439232391
 40
1.0
 40
1.0
 40
1.0
 40
1.0
 10
38.6767025117
 20
244.3022019678
 30
0.0
 10
39.2565451224
 20
240.4337483808
 30
0.0
 10
39.6862026042
 20
232.5380205859
 30
0.0
 10
38.1834793989
 20
220.7995259307
 30
0.0
 10
34.6108598335
 20
209.584093098
 30
0.0
 10
29.1271972088
 20
199.4110229769
 30
0.0
 10
21.9725298192
 20
190.7494712349
 30
0.0
 10
13.467502354
 20
184.0096771899
 30
0.0
 10
5.4917534855
 20
180.2410465399
 30
0.0
 10
-1.110297831
 20
178.5142086762
 30
0.0
 10
-4.4491001613
 20
178.0778984957
 30
0.0
 10
-6.1132817051
 20
177.9691645888
 30
0.0
  0
SPLINE
  5
409
100
AcDbEntity
  8
0
100
AcDbSpline
 62
7
  6
CONTINUOUS
 70
0
 71
3
 72
9
 73
5
 74
0
 42
0.0000001
 43
0.0000001
 44
0.0000000001
 40
0.0
 40
0.0
 40
0.0
 40
0.0
 40
0.5105086527
 40
1.0
 40
1.0
 40
1.0
 40
1.0
 10
29.6230571383
 20
241.320466508
 30
0.0
 10
29.0840439108
 20
244.9165244985
 30
0.0
 10
27.2172219183
 20
251.868250697
 30
0.0
 10
23.6809253432
 20
258.1589092985
 30
0.0
 10
21.5657390076
 20
260.9305278862
 30
0.0
  0
SPLINE
  5
40A
100
AcDbEntity
  8
0
100
AcDbSpline
 62
7
  6
CONTINUOUS
 70
0
 71
3
 72
11
 73
7
 74
0
 42
0.0000001
 43
0.0000001
 44
0.0000000001
 40
0.0
 40
0.0
 40
0.0
 40
0.0
 40
0.233633584
 40
0.4758467542
 40
0.7314152315
 40
1.0
 40
1.0
 40
1.0
 40
1.0
 10
-70.4472544046
 20
170.636895677
 30
0.0
 10
-71.1267620043
 20
170.7320783183
 30
0.0
 10
-72.4859465287
 20
171.1911234273
 30
0.0
 10
-74.180404354
 20
172.5758800892
 30
0.0
 10
-75.4038125566
 20
174.5051483148
 30
0.0
 10
-75.832302029
 20
176.0072201106
 30
0.0
 10
-75.9492271829
 20
176.7872930522
 30
0.0
  0
SPLINE
  5
40B
100
AcDbEntity
  8
0
100
AcDbSpline
 62
7
  6
CONTINUOUS
 70
0
 71
3
 72
15
 73
11
 74
0
 42
0.0000001
 43
0.0000001
 44
0.0000000001
 40
0.0
 40
0.0
 40
0.0
 40
0.0
 40
0.1163502788
 40
0.233860631
 40
0.3535420653
 40
0.4761620931
 40
0.6021672011
 40
0.7316673364
 40
0.8644406827
 40
1.0
 40
1.0
 40
1.0
 40
1.0
 10
-11.2673451914
 20
187.3246043747
 30
0.0
 10
-13.183345174
 20
187.5929415807
 30
0.0
 10
-16.9935884386
 20
188.4910313808
 30
0.0
 10
-22.4024635483
 20
190.8707639405
 30
0.0
 10
-27.3930878588
 20
194.2259322757
 30
0.0
 10
-31.8453318377
 20
198.471681509
 30
0.0
 10
-35.6573853936
 20
203.5040362862
 30
0.0
 10
-38.7425501361
 20
209.2026859797
 30
0.0
 10
-41.031579679
 20
215.4315556027
 30
0.0
 10
-41.9849579452
 20
219.806769727
 30
0.0
 10
-42.3190940973
 20
222.0359784336
 30
0.0
  0
SPLINE
  5
40C
100
AcDbEntity
  8
0
100
AcDbSpline
 62
7
  6
CONTINUOUS
 70
0
 71
3
 72
11
 73
7
 74
0
 42
0.0000001
 43
0.0000001
 44
0.0000000001
 40
0.0
 40
0.0
 40
0.0
 40
0.0
 40
0.2617731055
 40
0.5162937057
 40
0.7623616617
 40
1.0
 40
1.0
 40
1.0
 40
1.0
 10
-43.6786722227
 20
222.2263922421
 30
0.0
 10
-43.2541559508
 20
219.3942073281
 30
0.0
 10
-41.9465769102
 20
213.8654640363
 30
0.0
 10
-38.6073670235
 20
206.1733662557
 30
0.0
 10
-34.0319592633
 20
199.4585589794
 30
0.0
 10
-30.1970988223
 20
195.7449742642
 30
0.0
 10
-28.1418563245
 20
194.15284679
 30
0.0
  0
SPLINE
  5
40D
100
AcDbEntity
  8
0
100
AcDbSpline
 62
7
  6
CONTINUOUS
 70
0
 71
3
 72
11
 73
7
 74
0
 42
0.0000001
 43
0.0000001
 44
0.0000000001
 40
0.0
 40
0.0
 40
0.0
 40
0.0
 40
0.2429562663
 40
0.493585126
 40
0.7475963729
 40
1.0
 40
1.0
 40
1.0
 40
1.0
 10
-31.1576207517
 20
264.7716264594
 30
0.0
 10
-33.6659420799
 20
262.0483792639
 30
0.0
 10
-38.0826765489
 20
255.857912921
 30
0.0
 10
-42.4807185599
 20
245.2532347438
 30
0.0
 10
-44.5361644548
 20
233.8146187673
 30
0.0
 10
-44.2488347555
 20
226.0302646286
 30
0.0
 10
-43.6786722227
 20
222.2263922421
 30
0.0
  0
SPLINE
  5
40E
100
AcDbEntity
  8
0
100
AcDbSpline
 62
7
  6
CONTINUOUS
 70
0
 71
3
 72
12
 73
8
 74
0
 42
0.0000001
 43
0.0000001
 44
0.0000000001
 40
0.0
 40
0.0
 40
0.0
 40
0.0
 40
0.2510847632
 40
0.5040509639
 40
0.6301123314
 40
0.7551320242
 40
1.0
 40
1.0
 40
1.0
 40
1.0
 10
-51.4059452158
 20
220.1550543502
 30
0.0
 10
-52.0272527423
 20
224.300143527
 30
0.0
 10
-52.4316277077
 20
232.7681238715
 30
0.0
 10
-50.8840973575
 20
243.2410247782
 30
0.0
 10
-48.4510888003
 20
251.309230794
 30
0.0
 10
-45.2879275481
 20
258.969642192
 30
0.0
 10
-42.0734232256
 20
264.3097411392
 30
0.0
 10
-39.5978681869
 20
267.5624688478
 30
0.0
  0
SPLINE
  5
40F
100
AcDbEntity
  8
0
100
AcDbSpline
 62
7
  6
CONTINUOUS
 70
0
 71
3
 72
11
 73
7
 74
0
 42
0.0000001
 43
0.0000001
 44
0.0000000001
 40
0.0
 40
0.0
 40
0.0
 40
0.0
 40
0.240373263
 40
0.4875202388
 40
0.7410479923
 40
1.0
 40
1.0
 40
1.0
 40
1.0
 10
-38.2504918915
 20
191.4431418525
 30
0.0
 10
-39.9800909973
 20
193.3374251731
 30
0.0
 10
-43.1733069662
 20
197.477848185
 30
0.0
 10
-46.9915793774
 20
204.4355243545
 30
0.0
 10
-49.8222408519
 20
212.06023984
 30
0.0
 10
-50.9963184842
 20
217.4222058664
 30
0.0
 10
-51.4059452158
 20
220.1550543502
 30
0.0
  0
SPLINE
  5
410
100
AcDbEntity
  8
0
100
AcDbSpline
 62
7
  6
CONTINUOUS
 70
0
 71
3
 72
13
 73
9
 74
0
 42
0.0000001
 43
0.0000001
 44
0.0000000001
 40
0.0
 40
0.0
 40
0.0
 40
0.0
 40
0.2521310271
 40
0.5058832572
 40
0.631999002
 40
0.7567068687
 40
0.879505573
 40
1.0
 40
1.0
 40
1.0
 40
1.0
 10
-42.3190940973
 20
222.0359784336
 30
0.0
 10
-42.8862493462
 20
225.819787551
 30
0.0
 10
-43.1769959708
 20
233.5608538702
 30
0.0
 10
-41.4828469695
 20
243.0779834288
 30
0.0
 10
-38.9413055928
 20
250.314555758
 30
0.0
 10
-36.4816954452
 20
255.4366250645
 30
0.0
 10
-33.5063290146
 20
260.1759726846
 30
0.0
 10
-31.1850898368
 20
263.060375374
 30
0.0
 10
-29.9533115264
 20
264.411718382
 30
0.0
  0
SPLINE
  5
411
100
AcDbEntity
  8
0
100
AcDbSpline
 62
7
  6
CONTINUOUS
 70
0
 71
3
 72
12
 73
8
 74
0
 42
0.0000001
 43
0.0000001
 44
0.0000000001
 40
0.0
 40
0.0
 40
0.0
 40
0.0
 40
0.2610538246
 40
0.5205039957
 40
0.7678261417
 40
0.8858534968
 40
1.0
 40
1.0
 40
1.0
 40
1.0
 10
-90.2297033235
 20
272.0603173774
 30
0.0
 10
-90.3834629577
 20
273.0861336894
 30
0.0
 10
-90.3394912359
 20
275.198408461
 30
0.0
 10
-89.296178204
 20
278.119080817
 30
0.0
 10
-87.6842188781
 20
280.0893137309
 30
0.0
 10
-86.0883547489
 20
281.1506488984
 30
0.0
 10
-85.2219716671
 20
281.492543569
 30
0.0
 10
-84.7838860024
 20
281.6099748333
 30
0.0
  0
SPLINE
  5
412
100
AcDbEntity
  8
0
100
AcDbSpline
 62
7
  6
CONTINUOUS
 70
0
 71
3
 72
13
 73
9
 74
0
 42
0.0000001
 43
0.0000001
 44
0.0000000001
 40
0.0
 40
0.0
 40
0.0
 40
0.0
 40
0.1152264281
 40
0.2342307988
 40
0.3570526652
 40
0.483236375
 40
0.7413082374
 40
1.0
 40
1.0
 40
1.0
 40
1.0
 10
5.1891906701
 20
192.7028701494
 30
0.0
 10
7.2520609727
 20
193.5657768658
 30
0.0
 10
11.2761495188
 20
195.7519408684
 30
0.0
 10
16.6660615833
 20
200.1629039005
 30
0.0
 10
21.340835985
 20
205.6094772877
 30
0.0
 10
26.4516687624
 20
214.0625699751
 30
0.0
 10
30.2894003133
 20
226.1491734766
 30
0.0
 10
30.3672155648
 20
236.3557704308
 30
0.0
 10
29.6230571383
 20
241.320466508
 30
0.0
  0
SPLINE
  5
413
100
AcDbEntity
  8
0
100
AcDbSpline
 62
7
  6
CONTINUOUS
 70
0
 71
3
 72
13
 73
9
 74
0
 42
0.0000001
 43
0.0000001
 44
0.0000000001
 40
0.0
 40
0.0
 40
0.0
 40
0.0
 40
0.1181776555
 40
0.2394506148
 40
0.3634841057
 40
0.4897227266
 40
0.7453036948
 40
1.0
 40
1.0
 40
1.0
 40
1.0
 10
-57.0103112758
 20
274.1087167551
 30
0.0
 10
-58.6707712024
 20
272.8385290362
 30
0.0
 10
-61.8397651299
 20
269.9996487232
 30
0.0
 10
-65.9716713268
 20
265.046741014
 30
0.0
 10
-69.4594591583
 20
259.4511199529
 30
0.0
 10
-73.1580526211
 20
251.2785046241
 30
0.0
 10
-75.7818950231
 20
240.1998700293
 30
0.0
 10
-75.6168532269
 20
231.0617374695
 30
0.0
 10
-74.9489691053
 20
226.605909839
 30
0.0
  0
SPLINE
  5
414
100
AcDbEntity
  8
0
100
AcDbSpline
 62
7
  6
CONTINUOUS
 70
0
 71
3
 72
11
 73
7
 74
0
 42
0.0000001
 43
0.0000001
 44
0.0000000001
 40
0.0
 40
0.0
 40
0.0
 40
0.0
 40
0.26671024
 40
0.521052959
 40
0.7639958546
 40
1.0
 40
1.0
 40
1.0
 40
1.0
 10
-6.6209221648
 20
187.0958874638
 30
0.0
 10
-6.4300297107
 20
186.4145968416
 30
0.0
 10
-5.8965092694
 20
185.1208850322
 30
0.0
 10
-4.6452949241
 20
183.4941451349
 30
0.0
 10
-3.0423832505
 20
182.3408078618
 30
0.0
 10
-1.804698903
 20
181.9529088414
 30
0.0
 10
-1.1846813746
 20
181.8660532459
 30
0.0
  0
SPLINE
  5
415
100
AcDbEntity
  8
0
100
AcDbSpline
 62
7
  6
CONTINUOUS
 70
0
 71
3
 72
15
 73
11
 74
0
 42
0.0000001
 43
0.0000001
 44
0.0000000001
 40
0.0
 40
0.0
 40
0.0
 40
0.0
 40
0.1355593174
 40
0.2683326637
 40
0.397832799
 40
0.523837907
 40
0.6464579349
 40
0.7661393691
 40
0.8836497217
 40
1.0
 40
1.0
 40
1.0
 40
1.0
 10
-74.9489691053
 20
226.605909839
 30
0.0
 10
-74.6148329531
 20
224.3767011318
 30
0.0
 10
-73.6614546867
 20
220.0014870061
 30
0.0
 10
-71.3724251424
 20
213.772617382
 30
0.0
 10
-68.2872603996
 20
208.0739676852
 30
0.0
 10
-64.4752068378
 20
203.0416129145
 30
0.0
 10
-60.022962869
 20
198.7958636561
 30
0.0
 10
-55.0323385243
 20
195.4406954029
 30
0.0
 10
-49.6234634819
 20
193.0609625987
 30
0.0
 10
-45.8132201354
 20
192.1628732501
 30
0.0
 10
-43.8972201869
 20
191.8945358696
 30
0.0
  0
SPLINE
  5
416
100
AcDbEntity
  8
0
100
AcDbSpline
 62
7
  6
CONTINUOUS
 70
0
 71
3
 72
11
 73
7
 74
0
 42
0.0000001
 43
0.0000001
 44
0.0000000001
 40
0.0
 40
0.0
 40
0.0
 40
0.0
 40
0.2657448098
 40
0.5195884965
 40
0.7629243059
 40
1.0
 40
1.0
 40
1.0
 40
1.0
 10
-37.7462518194
 20
191.0081932791
 30
0.0
 10
-37.5325475758
 20
190.381638961
 30
0.0
 10
-36.9726322103
 20
189.1982426427
 30
0.0
 10
-35.7400517595
 20
187.7228793857
 30
0.0
 10
-34.2064529424
 20
186.6809650289
 30
0.0
 10
-33.039846621
 20
186.327502543
 30
0.0
 10
-32.4549782573
 20
186.2455708428
 30
0.0
  0
SPLINE
  5
417
100
AcDbEntity
  8
0
100
AcDbSpline
 62
7
  6
CONTINUOUS
 70
0
 71
3
 72
11
 73
7
 74
0
 42
0.0000001
 43
0.0000001
 44
0.0000000001
 40
0.0
 40
0.0
 40
0.0
 40
0.0
 40
0.2356681179
 40
0.4784986923
 40
0.7330148208
 40
1.0
 40
1.0
 40
1.0
 40
1.0
 10
0.1748966952
 20
181.6756390528
 30
0.0
 10
-0.4564554773
 20
181.7640807034
 30
0.0
 10
-1.717098009
 20
182.1634438885
 30
0.0
 10
-3.3415772739
 20
183.3537862182
 30
0.0
 10
-4.5969316811
 20
185.0302384815
 30
0.0
 10
-5.1202841136
 20
186.359629532
 30
0.0
 10
-5.3027380632
 20
187.0584373281
 30
0.0
  0
SPLINE
  5
418
100
AcDbEntity
  8
0
100
AcDbSpline
 62
7
  6
CONTINUOUS
 70
0
 71
3
 72
14
 73
10
 74
0
 42
0.0000001
 43
0.0000001
 44
0.0000000001
 40
0.0
 40
0.0
 40
0.0
 40
0.0
 40
0.1124445437
 40
0.2274830372
 40
0.3469930647
 40
0.4717110303
 40
0.601197547
 40
0.7340251568
 40
1.0
 40
1.0
 40
1.0
 40
1.0
 10
0.6256784465
 20
184.894272425
 30
0.0
 10
0.9554508808
 20
184.8480329723
 30
0.0
 10
1.6399795759
 20
184.8515315927
 30
0.0
 10
2.6372680772
 20
185.1458203921
 30
0.0
 10
3.5543961819
 20
185.7073473813
 30
0.0
 10
4.3403069873
 20
186.5002031267
 30
0.0
 10
4.9538054564
 20
187.4793809084
 30
0.0
 10
5.4989105249
 20
188.9535207704
 30
0.0
 10
5.5681587362
 20
190.1745741993
 30
0.0
 10
5.4513991827
 20
190.9535423283
 30
0.0
  0
SPLINE
  5
419
100
AcDbEntity
  8
0
100
AcDbSpline
 62
7
  6
CONTINUOUS
 70
0
 71
3
 72
12
 73
8
 74
0
 42
0.0000001
 43
0.0000001
 44
0.0000000001
 40
0.0
 40
0.0
 40
0.0
 40
0.0
 40
0.2349933756
 40
0.4894753556
 40
0.6202647794
 40
0.7503870015
 40
1.0
 40
1.0
 40
1.0
 40
1.0
 10
-93.9284555053
 20
287.6336721223
 30
0.0
 10
-95.0621480764
 20
287.329779613
 30
0.0
 10
-97.2968512766
 20
286.1880598242
 30
0.0
 10
-99.4874259055
 20
283.9302554215
 30
0.0
 10
-100.8415839489
 20
281.7306577596
 30
0.0
 10
-101.8457215571
 20
279.3808700325
 30
0.0
 10
-102.1929185996
 20
277.471727753
 30
0.0
 10
-102.1929185996
 20
276.2249913442
 30
0.0
  0
SPLINE
  5
41A
100
AcDbEntity
  8
0
100
AcDbSpline
 62
7
  6
CONTINUOUS
 70
0
 71
3
 72
13
 73
9
 74
0
 42
0.0000001
 43
0.0000001
 44
0.0000000001
 40
0.0
 40
0.0
 40
0.0
 40
0.0
 40
0.0836751625
 40
0.1736538179
 40
0.2747561033
 40
0.3898263121
 40
0.6656602593
 40
1.0
 40
1.0
 40
1.0
 40
1.0
 10
-221.7277126798
 20
250.1053621089
 30
0.0
 10
-221.7276657811
 20
250.2260997429
 30
0.0
 10
-221.6872168285
 20
250.4780679808
 30
0.0
 10
-221.5119428042
 20
250.8385601589
 30
0.0
 10
-221.2299794861
 20
251.182678256
 30
0.0
 10
-220.6866818043
 20
251.6440707237
 30
0.0
 10
-219.7544253968
 20
252.1411247932
 30
0.0
 10
-218.9164301271
 20
252.4193589635
 30
0.0
 10
-218.450451104
 20
252.5442671955
 30
0.0
  0
SPLINE
  5
41B
100
AcDbEntity
  8
0
100
AcDbSpline
 62
7
  6
CONTINUOUS
 70
0
 71
3
 72
9
 73
5
 74
0
 42
0.0000001
 43
0.0000001
 44
0.0000000001
 40
0.0
 40
0.0
 40
0.0
 40
0.0
 40
0.2182686125
 40
1.0
 40
1.0
 40
1.0
 40
1.0
 10
-221.7017976837
 20
244.3437841282
 30
0.0
 10
-221.6808723084
 20
244.2451137452
 30
0.0
 10
-221.5276589666
 20
243.8042712829
 30
0.0
 10
-221.1822005964
 20
243.4574139565
 30
0.0
 10
-220.895158042
 20
243.2380807458
 30
0.0
  0
SPLINE
  5
41C
100
AcDbEntity
  8
0
100
AcDbSpline
 62
7
  6
CONTINUOUS
 70
0
 71
3
 72
9
 73
5
 74
0
 42
0.0000001
 43
0.0000001
 44
0.0000000001
 40
0.0
 40
0.0
 40
0.0
 40
0.0
 40
0.2390358742
 40
1.0
 40
1.0
 40
1.0
 40
1.0
 10
-220.895158042
 20
243.2380807458
 30
0.0
 10
-220.8595439982
 20
243.2108675593
 30
0.0
 10
-220.7084668709
 20
243.0997599267
 30
0.0
 10
-220.5497394384
 20
242.9992181881
 30
0.0
 10
-220.426181879
 20
242.9278536364
 30
0.0
  0
SPLINE
  5
41D
100
AcDbEntity
  8
0
100
AcDbSpline
 62
7
  6
CONTINUOUS
 70
0
 71
3
 72
10
 73
6
 74
0
 42
0.0000001
 43
0.0000001
 44
0.0000000001
 40
0.0
 40
0.0
 40
0.0
 40
0.0
 40
0.5780313486
 40
0.812403501
 40
1.0
 40
1.0
 40
1.0
 40
1.0
 10
-114.9682462799
 20
274.436078242
 30
0.0
 10
-114.6974786381
 20
275.0311300009
 30
0.0
 10
-114.3225569251
 20
275.8726940474
 30
0.0
 10
-113.9856083697
 20
276.9531609024
 30
0.0
 10
-113.9113552051
 20
277.4293129318
 30
0.0
 10
-113.9113731433
 20
277.6414865897
 30
0.0
  0
SPLINE
  5
41E
100
AcDbEntity
  8
0
100
AcDbSpline
 62
7
  6
CONTINUOUS
 70
0
 71
3
 72
13
 73
9
 74
0
 42
0.0000001
 43
0.0000001
 44
0.0000000001
 40
0.0
 40
0.0
 40
0.0
 40
0.0
 40
0.0827784985
 40
0.1861368552
 40
0.3060086225
 40
0.437023077
 40
0.7155027216
 40
1.0
 40
1.0
 40
1.0
 40
1.0
 10
-189.4184609364
 20
275.6583882333
 30
0.0
 10
-189.4184487424
 20
275.3935570196
 30
0.0
 10
-189.5171175303
 20
274.7998194775
 30
0.0
 10
-189.8193256825
 20
273.8681377929
 30
0.0
 10
-190.2530745801
 20
272.8200364937
 30
0.0
 10
-190.9647730256
 20
271.2831979226
 30
0.0
 10
-191.9520124512
 20
269.2942880474
 30
0.0
 10
-192.7441922247
 20
267.6766745404
 30
0.0
 10
-193.1328272044
 20
266.8536314984
 30
0.0
  0
SPLINE
  5
41F
100
AcDbEntity
  8
0
100
AcDbSpline
 62
7
  6
CONTINUOUS
 70
0
 71
3
 72
9
 73
5
 74
0
 42
0.0000001
 43
0.0000001
 44
0.0000000001
 40
0.0
 40
0.0
 40
0.0
 40
0.0
 40
0.2559322324
 40
1.0
 40
1.0
 40
1.0
 40
1.0
 10
-102.2173414307
 20
268.5882607512
 30
0.0
 10
-102.4408745541
 20
267.9458556073
 30
0.0
 10
-103.2209646838
 20
265.4047196485
 30
0.0
 10
-103.6310203878
 20
262.7466623152
 30
0.0
 10
-103.6925289385
 20
260.7701283938
 30
0.0
  0
SPLINE
  5
420
100
AcDbEntity
  8
0
100
AcDbSpline
 62
7
  6
CONTINUOUS
 70
0
 71
3
 72
11
 73
7
 74
0
 42
0.0000001
 43
0.0000001
 44
0.0000000001
 40
0.0
 40
0.0
 40
0.0
 40
0.0
 40
0.20422545
 40
0.4454434961
 40
0.7141300568
 40
1.0
 40
1.0
 40
1.0
 40
1.0
 10
-206.5836210221
 20
275.4869820826
 30
0.0
 10
-207.0166623467
 20
275.0003284433
 30
0.0
 10
-207.7074789889
 20
273.7209596915
 30
0.0
 10
-208.2891233398
 20
271.511723393
 30
0.0
 10
-208.5834421498
 20
268.9837902496
 30
0.0
 10
-208.6286566351
 20
267.2142822605
 30
0.0
 10
-208.6286567765
 20
266.3024308159
 30
0.0
  0
SPLINE
  5
421
100
AcDbEntity
  8
0
100
AcDbSpline
 62
7
  6
CONTINUOUS
 70
0
 71
3
 72
9
 73
5
 74
0
 42
0.0000001
 43
0.0000001
 44
0.0000000001
 40
0.0
 40
0.0
 40
0.0
 40
0.0
 40
0.2569235635
 40
1.0
 40
1.0
 40
1.0
 40
1.0
 10
-193.1328255792
 20
266.8536347078
 30
0.0
 10
-193.6997291232
 20
265.6530584105
 30
0.0
 10
-195.6700051048
 20
260.8736990876
 30
0.0
 10
-196.6990313258
 20
255.6949935214
 30
0.0
 10
-196.8184707109
 20
251.8568930646
 30
0.0
  0
SPLINE
  5
422
100
AcDbEntity
  8
0
100
AcDbSpline
 62
7
  6
CONTINUOUS
 70
0
 71
3
 72
10
 73
6
 74
0
 42
0.0000001
 43
0.0000001
 44
0.0000000001
 40
0.0
 40
0.0
 40
0.0
 40
0.0
 40
0.2430579289
 40
0.4859139931
 40
1.0
 40
1.0
 40
1.0
 40
1.0
 10
-204.6446131272
 20
276.4764802436
 30
0.0
 10
-204.8253680785
 20
276.4709999592
 30
0.0
 10
-205.187044539
 20
276.4190618015
 30
0.0
 10
-205.8849066188
 20
276.1462210574
 30
0.0
 10
-206.329360113
 20
275.7727215484
 30
0.0
 10
-206.5836210221
 20
275.4869820826
 30
0.0
  0
SPLINE
  5
423
100
AcDbEntity
  8
0
100
AcDbSpline
 62
7
  6
CONTINUOUS
 70
0
 71
3
 72
9
 73
5
 74
0
 42
0.0000001
 43
0.0000001
 44
0.0000000001
 40
0.0
 40
0.0
 40
0.0
 40
0.0
 40
0.4999814135
 40
1.0
 40
1.0
 40
1.0
 40
1.0
 10
-190.8936666823
 20
276.8921376263
 30
0.0
 10
-193.1854131966
 20
276.823104112
 30
0.0
 10
-197.7689568784
 20
276.681074962
 30
0.0
 10
-202.3527102951
 20
276.5459844465
 30
0.0
 10
-204.6446131272
 20
276.4764802436
 30
0.0
  0
SPLINE
  5
424
100
AcDbEntity
  8
0
100
AcDbSpline
 62
7
  6
CONTINUOUS
 70
0
 71
3
 72
9
 73
5
 74
0
 42
0.0000001
 43
0.0000001
 44
0.0000000001
 40
0.0
 40
0.0
 40
0.0
 40
0.0
 40
0.2538858571
 40
1.0
 40
1.0
 40
1.0
 40
1.0
 10
-151.9657042819
 20
295.301095802
 30
0.0
 10
-151.5517248105
 20
295.4129219016
 30
0.0
 10
-149.9086624981
 20
295.8052464158
 30
0.0
 10
-148.2174990688
 20
296.0004981466
 30
0.0
 10
-146.9574961858
 20
296.0226801987
 30
0.0
  0
SPLINE
  5
425
100
AcDbEntity
  8
0
100
AcDbSpline
 62
7
  6
CONTINUOUS
 70
0
 71
3
 72
20
 73
16
 74
0
 42
0.0000001
 43
0.0000001
 44
0.0000000001
 40
0.0
 40
0.0
 40
0.0
 40
0.0
 40
0.0333058332
 40
0.0477537774
 40
0.0623833979
 40
0.0782796179
 40
0.0960882927
 40
0.1382824653
 40
0.1891844961
 40
0.2476403706
 40
0.3814209874
 40
0.5294203025
 40
0.6842393841
 40
0.8417259443
 40
1.0
 40
1.0
 40
1.0
 40
1.0
 10
-113.9113731433
 20
277.6414865897
 30
0.0
 10
-113.9113896707
 20
277.8369731455
 30
0.0
 10
-113.9556330801
 20
278.1302969711
 30
0.0
 10
-114.1768299023
 20
278.429863012
 30
0.0
 10
-114.3951285295
 20
278.584951058
 30
0.0
 10
-114.6632792576
 20
278.6847062693
 30
0.0
 10
-115.1050401322
 20
278.756145521
 30
0.0
 10
-115.7610973143
 20
278.7166615781
 30
0.0
 10
-116.6305544271
 20
278.5202634697
 30
0.0
 10
-117.9783808531
 20
278.0429609872
 30
0.0
 10
-119.7522040679
 20
277.1010468497
 30
0.0
 10
-121.8003354042
 20
275.5434945493
 30
0.0
 10
-123.6675904014
 20
273.5741766687
 30
0.0
 10
-125.2368309399
 20
271.288975904
 30
0.0
 10
-126.0597764034
 20
269.6208281717
 30
0.0
 10
-126.4154852265
 20
268.7626470026
 30
0.0
  0
SPLINE
  5
426
100
AcDbEntity
  8
0
100
AcDbSpline
 62
7
  6
CONTINUOUS
 70
0
 71
3
 72
12
 73
8
 74
0
 42
0.0000001
 43
0.0000001
 44
0.0000000001
 40
0.0
 40
0.0
 40
0.0
 40
0.0
 40
0.2497420513
 40
0.3796685166
 40
0.5102158111
 40
0.7644877671
 40
1.0
 40
1.0
 40
1.0
 40
1.0
 10
-100.8969256712
 20
275.6238381409
 30
0.0
 10
-100.8793673741
 20
276.8456283649
 30
0.0
 10
-100.5234254029
 20
278.7102209914
 30
0.0
 10
-99.5317875705
 20
281.00677596
 30
0.0
 10
-98.2060791922
 20
283.1577782307
 30
0.0
 10
-96.0704898626
 20
285.3770614207
 30
0.0
 10
-93.8974986372
 20
286.521687038
 30
0.0
 10
-92.7906081
 20
286.8419598809
 30
0.0
  0
SPLINE
  5
427
100
AcDbEntity
  8
0
100
AcDbSpline
 62
7
  6
CONTINUOUS
 70
0
 71
3
 72
11
 73
7
 74
0
 42
0.0000001
 43
0.0000001
 44
0.0000000001
 40
0.0
 40
0.0
 40
0.0
 40
0.0
 40
0.3075915747
 40
0.5711047481
 40
0.7967660342
 40
1.0
 40
1.0
 40
1.0
 40
1.0
 10
-220.426181879
 20
248.443861317
 30
0.0
 10
-220.6216138622
 20
248.556739201
 30
0.0
 10
-220.9720735052
 20
248.78995468
 30
0.0
 10
-221.3953892512
 20
249.1994241569
 30
0.0
 10
-221.6637896965
 20
249.6393311876
 30
0.0
 10
-221.7277706024
 20
249.9562440279
 30
0.0
 10
-221.7277126798
 20
250.1053621089
 30
0.0
  0
SPLINE
  5
428
100
AcDbEntity
  8
0
100
AcDbSpline
 62
7
  6
CONTINUOUS
 70
0
 71
3
 72
12
 73
8
 74
0
 42
0.0000001
 43
0.0000001
 44
0.0000000001
 40
0.0
 40
0.0
 40
0.0
 40
0.0
 40
0.2564766135
 40
0.5312879321
 40
0.7893208601
 40
0.9021309983
 40
1.0
 40
1.0
 40
1.0
 40
1.0
 10
-126.4154874076
 20
200.0854549152
 30
0.0
 10
-125.4776086857
 20
200.3368582704
 30
0.0
 10
-123.4771086455
 20
200.6471876409
 30
0.0
 10
-120.4809580441
 20
200.6567048338
 30
0.0
 10
-118.0479793976
 20
200.2988980649
 30
0.0
 10
-116.3498565609
 20
199.7740977932
 30
0.0
 10
-115.6206403466
 20
199.441539765
 30
0.0
 10
-115.2997926168
 20
199.256224075
 30
0.0
  0
SPLINE
  5
429
100
AcDbEntity
  8
0
100
AcDbSpline
 62
7
  6
CONTINUOUS
 70
0
 71
3
 72
9
 73
5
 74
0
 42
0.0000001
 43
0.0000001
 44
0.0000000001
 40
0.0
 40
0.0
 40
0.0
 40
0.0
 40
0.2579222599
 40
1.0
 40
1.0
 40
1.0
 40
1.0
 10
-115.2997926168
 20
199.256224075
 30
0.0
 10
-115.2668698872
 20
199.2372085178
 30
0.0
 10
-115.139990011
 20
199.1621713715
 30
0.0
 10
-115.0162509286
 20
199.081767992
 30
0.0
 10
-114.9268382296
 20
199.0187514832
 30
0.0
  0
SPLINE
  5
42A
100
AcDbEntity
  8
0
100
AcDbSpline
 62
7
  6
CONTINUOUS
 70
0
 71
3
 72
8
 73
4
 74
0
 42
0.0000001
 43
0.0000001
 44
0.0000000001
 40
0.0
 40
0.0
 40
0.0
 40
0.0
 40
1.0
 40
1.0
 40
1.0
 40
1.0
 10
-114.9688864295
 20
274.436481328
 30
0.0
 10
-110.7102352695
 20
274.5770906489
 30
0.0
 10
-106.4515547291
 20
274.7168087318
 30
0.0
 10
-102.1928919073
 20
274.8570644052
 30
0.0
  0
SPLINE
  5
42B
100
AcDbEntity
  8
0
100
AcDbSpline
 62
7
  6
CONTINUOUS
 70
0
 71
3
 72
9
 73
5
 74
0
 42
0.0000001
 43
0.0000001
 44
0.0000000001
 40
0.0
 40
0.0
 40
0.0
 40
0.0
 40
0.2434214633
 40
1.0
 40
1.0
 40
1.0
 40
1.0
 10
-128.6985688589
 20
258.3767596479
 30
0.0
 10
-128.6716490374
 20
259.2418091384
 30
0.0
 10
-128.3874781011
 20
262.788594696
 30
0.0
 10
-127.4454766306
 20
266.2776943795
 30
0.0
 10
-126.4154830455
 20
268.7626518448
 30
0.0
  0
SPLINE
  5
42C
100
AcDbEntity
  8
0
100
AcDbSpline
 62
7
  6
CONTINUOUS
 70
0
 71
3
 72
12
 73
8
 74
0
 42
0.0000001
 43
0.0000001
 44
0.0000000001
 40
0.0
 40
0.0
 40
0.0
 40
0.0
 40
0.2815134376
 40
0.5149517553
 40
0.624523858
 40
0.7376293819
 40
1.0
 40
1.0
 40
1.0
 40
1.0
 10
-190.8936669834
 20
276.8921376368
 30
0.0
 10
-190.6867695065
 20
276.8983699213
 30
0.0
 10
-190.3050816395
 20
276.8747288237
 30
0.0
 10
-189.8660764465
 20
276.6933649168
 30
0.0
 10
-189.6282284158
 20
276.4507855294
 30
0.0
 10
-189.4539569257
 20
276.1352583196
 30
0.0
 10
-189.4184698191
 20
275.8513042144
 30
0.0
 10
-189.4184609364
 20
275.6583882333
 30
0.0
  0
SPLINE
  5
42D
100
AcDbEntity
  8
0
100
AcDbSpline
 62
7
  6
CONTINUOUS
 70
0
 71
3
 72
9
 73
5
 74
0
 42
0.0000001
 43
0.0000001
 44
0.0000000001
 40
0.0
 40
0.0
 40
0.0
 40
0.0
 40
0.4869615122
 40
1.0
 40
1.0
 40
1.0
 40
1.0
 10
-192.3515742596
 20
284.466512178
 30
0.0
 10
-194.4354731559
 20
283.8453104272
 30
0.0
 10
-198.5455646976
 20
281.9523817261
 30
0.0
 10
-202.0537119688
 20
279.1185387835
 30
0.0
 10
-203.6712933356
 20
277.4962116718
 30
0.0
  0
SPLINE
  5
42E
100
AcDbEntity
  8
0
100
AcDbSpline
 62
7
  6
CONTINUOUS
 70
0
 71
3
 72
9
 73
5
 74
0
 42
0.0000001
 43
0.0000001
 44
0.0000000001
 40
0.0
 40
0.0
 40
0.0
 40
0.0
 40
0.2469229275
 40
1.0
 40
1.0
 40
1.0
 40
1.0
 10
-91.5074886858
 20
286.2353666489
 30
0.0
 10
-91.5841523646
 20
286.2148165295
 30
0.0
 10
-91.8934048758
 20
286.1270738243
 30
0.0
 10
-92.197589517
 20
286.0216140301
 30
0.0
 10
-92.4229524553
 20
285.9332515074
 30
0.0
  0
SPLINE
  5
42F
100
AcDbEntity
  8
0
100
AcDbSpline
 62
7
  6
CONTINUOUS
 70
0
 71
3
 72
12
 73
8
 74
0
 42
0.0000001
 43
0.0000001
 44
0.0000000001
 40
0.0
 40
0.0
 40
0.0
 40
0.0
 40
0.2391031681
 40
0.4940314861
 40
0.6238855166
 40
0.7527047483
 40
1.0
 40
1.0
 40
1.0
 40
1.0
 10
-92.4229524553
 20
285.9332515074
 30
0.0
 10
-93.46412677
 20
285.5250176174
 30
0.0
 10
-95.466747142
 20
284.2792108833
 30
0.0
 10
-97.4130407569
 20
282.0540217233
 30
0.0
 10
-98.6000706313
 20
279.9572533253
 30
0.0
 10
-99.4731894306
 20
277.7529258717
 30
0.0
 10
-99.77195178
 20
275.9833488203
 30
0.0
 10
-99.77195178
 20
274.8266858708
 30
0.0
  0
SPLINE
  5
430
100
AcDbEntity
  8
0
100
AcDbSpline
 62
7
  6
CONTINUOUS
 70
0
 71
3
 72
11
 73
7
 74
0
 42
0.0000001
 43
0.0000001
 44
0.0000000001
 40
0.0
 40
0.0
 40
0.0
 40
0.0
 40
0.2323651625
 40
0.4731289299
 40
0.7282216613
 40
1.0
 40
1.0
 40
1.0
 40
1.0
 10
-22.9740003928
 20
179.6402131668
 30
0.0
 10
-22.1135317931
 20
179.1432555179
 30
0.0
 10
-20.5085861564
 20
177.8523161411
 30
0.0
 10
-18.7351143525
 20
175.2445571876
 30
0.0
 10
-17.6528708602
 20
172.1102944658
 30
0.0
 10
-17.4269056068
 20
169.847636861
 30
0.0
 10
-17.4269056068
 20
168.685427225
 30
0.0
  0
SPLINE
  5
431
100
AcDbEntity
  8
0
100
AcDbSpline
 62
7
  6
CONTINUOUS
 70
0
 71
3
 72
11
 73
7
 74
0
 42
0.0000001
 43
0.0000001
 44
0.0000000001
 40
0.0
 40
0.0
 40
0.0
 40
0.0
 40
0.2324065216
 40
0.473149968
 40
0.7282340347
 40
1.0
 40
1.0
 40
1.0
 40
1.0
 10
-67.6020581763
 20
167.6774810383
 30
0.0
 10
-66.7415212363
 20
167.1802844022
 30
0.0
 10
-65.1363655087
 20
165.8894724385
 30
0.0
 10
-63.3631894143
 20
163.2814017305
 30
0.0
 10
-62.280933394
 20
160.1473674091
 30
0.0
 10
-62.0550063158
 20
157.8847790396
 30
0.0
 10
-62.0550063158
 20
156.7226201484
 30
0.0
  0
SPLINE
  5
432
100
AcDbEntity
  8
0
100
AcDbSpline
 62
7
  6
CONTINUOUS
 70
0
 71
3
 72
12
 73
8
 74
0
 42
0.0000001
 43
0.0000001
 44
0.0000000001
 40
0.0
 40
0.0
 40
0.0
 40
0.0
 40
0.2349933756
 40
0.4894753556
 40
0.6202647794
 40
0.7503870015
 40
1.0
 40
1.0
 40
1.0
 40
1.0
 10
-92.6335197646
 20
286.426073981
 30
0.0
 10
-93.7105277071
 20
286.1373760971
 30
0.0
 10
-95.8334957474
 20
285.0527422978
 30
0.0
 10
-97.9145416448
 20
282.9078281152
 30
0.0
 10
-99.2009917861
 20
280.8182103364
 30
0.0
 10
-100.1549225138
 20
278.5859119956
 30
0.0
 10
-100.4847597042
 20
276.7722268301
 30
0.0
 10
-100.4847597042
 20
275.5878272418
 30
0.0
  0
SPLINE
  5
433
100
AcDbEntity
  8
0
100
AcDbSpline
 62
7
  6
CONTINUOUS
 70
0
 71
3
 72
11
 73
7
 74
0
 42
0.0000001
 43
0.0000001
 44
0.0000000001
 40
0.0
 40
0.0
 40
0.0
 40
0.0
 40
0.2032339246
 40
0.4288952144
 40
0.6924084714
 40
1.0
 40
1.0
 40
1.0
 40
1.0
 10
-221.7277126879
 20
182.0746007152
 30
0.0
 10
-221.7277706386
 20
181.9254826657
 30
0.0
 10
-221.6637896559
 20
181.6085698712
 30
0.0
 10
-221.3953892989
 20
181.1686627626
 30
0.0
 10
-220.9720734279
 20
180.7591933613
 30
0.0
 10
-220.6216138313
 20
180.5259777893
 30
0.0
 10
-220.426181879
 20
180.4130999231
 30
0.0
  0
SPLINE
  5
434
100
AcDbEntity
  8
0
100
AcDbSpline
 62
7
  6
CONTINUOUS
 70
0
 71
3
 72
9
 73
5
 74
0
 42
0.0000001
 43
0.0000001
 44
0.0000000001
 40
0.0
 40
0.0
 40
0.0
 40
0.0
 40
0.2437369764
 40
1.0
 40
1.0
 40
1.0
 40
1.0
 10
-221.7277126798
 20
242.7506852015
 30
0.0
 10
-221.7276947589
 20
242.7968214746
 30
0.0
 10
-221.7164698315
 20
242.986088087
 30
0.0
 10
-221.658690278
 20
243.1713752798
 30
0.0
 10
-221.5965567681
 20
243.300338834
 30
0.0
  0
SPLINE
  5
435
100
AcDbEntity
  8
0
100
AcDbSpline
 62
7
  6
CONTINUOUS
 70
0
 71
3
 72
9
 73
5
 74
0
 42
0.0000001
 43
0.0000001
 44
0.0000000001
 40
0.0
 40
0.0
 40
0.0
 40
0.0
 40
0.2396343954
 40
1.0
 40
1.0
 40
1.0
 40
1.0
 10
-221.5965567681
 20
243.300338834
 30
0.0
 10
-221.5825130271
 20
243.3294878512
 30
0.0
 10
-221.519966667
 20
243.4492209944
 30
0.0
 10
-221.4426093567
 20
243.5609451045
 30
0.0
 10
-221.3782639999
 20
243.6409442619
 30
0.0
  0
SPLINE
  5
436
100
AcDbEntity
  8
0
100
AcDbSpline
 62
7
  6
CONTINUOUS
 70
0
 71
3
 72
11
 73
7
 74
0
 42
0.0000001
 43
0.0000001
 44
0.0000000001
 40
0.0
 40
0.0
 40
0.0
 40
0.0
 40
0.2316618175
 40
0.4799374685
 40
0.7393112586
 40
1.0
 40
1.0
 40
1.0
 40
1.0
 10
-88.0972999161
 20
282.2100905644
 30
0.0
 10
-88.9613751766
 20
281.8501806427
 30
0.0
 10
-90.596617748
 20
280.7002767611
 30
0.0
 10
-92.3025073094
 20
278.1851935943
 30
0.0
 10
-93.2003399487
 20
275.1676950894
 30
0.0
 10
-93.2009200173
 20
273.0311899827
 30
0.0
 10
-93.0447822703
 20
271.9895079533
 30
0.0
  0
SPLINE
  5
437
100
AcDbEntity
  8
0
100
AcDbSpline
 62
7
  6
CONTINUOUS
 70
0
 71
3
 72
9
 73
5
 74
0
 42
0.0000001
 43
0.0000001
 44
0.0000000001
 40
0.0
 40
0.0
 40
0.0
 40
0.0
 40
0.5175108557
 40
1.0
 40
1.0
 40
1.0
 40
1.0
 10
-78.8550757968
 20
177.3220587232
 30
0.0
 10
-78.689973357
 20
176.2205682262
 30
0.0
 10
-78.0313999338
 20
174.1235989479
 30
0.0
 10
-76.6446685781
 20
172.3890369146
 30
0.0
 10
-75.8305715215
 20
171.7443941459
 30
0.0
  0
SPLINE
  5
438
100
AcDbEntity
  8
0
100
AcDbSpline
 62
7
  6
CONTINUOUS
 70
0
 71
3
 72
9
 73
5
 74
0
 42
0.0000001
 43
0.0000001
 44
0.0000000001
 40
0.0
 40
0.0
 40
0.0
 40
0.0
 40
0.2536360176
 40
1.0
 40
1.0
 40
1.0
 40
1.0
 10
-75.7310195106
 20
171.6670498813
 30
0.0
 10
-75.6104899679
 20
171.5751870362
 30
0.0
 10
-75.1233899953
 20
171.2289624861
 30
0.0
 10
-74.5878216731
 20
170.9502613528
 30
0.0
 10
-74.1718476308
 20
170.7895289733
 30
0.0
  0
SPLINE
  5
439
100
AcDbEntity
  8
0
100
AcDbSpline
 62
7
  6
CONTINUOUS
 70
0
 71
3
 72
9
 73
5
 74
0
 42
0.0000001
 43
0.0000001
 44
0.0000000001
 40
0.0
 40
0.0
 40
0.0
 40
0.0
 40
0.2520842133
 40
1.0
 40
1.0
 40
1.0
 40
1.0
 10
-88.0387003915
 20
138.4055460335
 30
0.0
 10
-87.8579437241
 20
138.2188797936
 30
0.0
 10
-87.1162436517
 20
137.502693969
 30
0.0
 10
-86.2749769741
 20
136.8893763853
 30
0.0
 10
-85.6073793899
 20
136.5038310957
 30
0.0
  0
SPLINE
  5
43A
100
AcDbEntity
  8
0
100
AcDbSpline
 62
7
  6
CONTINUOUS
 70
0
 71
3
 72
9
 73
5
 74
0
 42
0.0000001
 43
0.0000001
 44
0.0000000001
 40
0.0
 40
0.0
 40
0.0
 40
0.0
 40
0.4914126191
 40
1.0
 40
1.0
 40
1.0
 40
1.0
 10
-62.0550063158
 20
156.7226201484
 30
0.0
 10
-62.0550063158
 20
154.1484174985
 30
0.0
 10
-63.2091861924
 20
148.8864831071
 30
0.0
 10
-66.1070099241
 20
144.3758063682
 30
0.0
 10
-67.9319575347
 20
142.4348348435
 30
0.0
  0
SPLINE
  5
43B
100
AcDbEntity
  8
0
100
AcDbSpline
 62
7
  6
CONTINUOUS
 70
0
 71
3
 72
10
 73
6
 74
0
 42
0.0000001
 43
0.0000001
 44
0.0000000001
 40
0.0
 40
0.0
 40
0.0
 40
0.0
 40
0.23436683
 40
0.4784210194
 40
1.0
 40
1.0
 40
1.0
 40
1.0
 10
-39.6491285936
 20
175.4410743076
 30
0.0
 10
-38.9923534415
 20
174.7130634168
 30
0.0
 10
-37.8115789675
 20
173.0748597194
 30
0.0
 10
-36.0821995732
 20
169.2436498642
 30
0.0
 10
-35.6087244142
 20
165.993744946
 30
0.0
 10
-35.6087244142
 20
163.8116910086
 30
0.0
  0
SPLINE
  5
43C
100
AcDbEntity
  8
0
100
AcDbSpline
 62
7
  6
CONTINUOUS
 70
0
 71
3
 72
9
 73
5
 74
0
 42
0.0000001
 43
0.0000001
 44
0.0000000001
 40
0.0
 40
0.0
 40
0.0
 40
0.0
 40
0.4892263661
 40
1.0
 40
1.0
 40
1.0
 40
1.0
 10
-35.6087244142
 20
163.8116910086
 30
0.0
 10
-35.6087244142
 20
161.4459875706
 30
0.0
 10
-36.3689605987
 20
156.5951629628
 30
0.0
 10
-38.3658915224
 20
152.1265808677
 30
0.0
 10
-39.6491285936
 20
150.0162027246
 30
0.0
  0
SPLINE
  5
43D
100
AcDbEntity
  8
0
100
AcDbSpline
 62
7
  6
CONTINUOUS
 70
0
 71
3
 72
14
 73
10
 74
0
 42
0.0000001
 43
0.0000001
 44
0.0000000001
 40
0.0
 40
0.0
 40
0.0
 40
0.0
 40
0.2612477725
 40
0.397213493
 40
0.531306905
 40
0.6600797052
 40
0.7811504555
 40
0.8938931375
 40
1.0
 40
1.0
 40
1.0
 40
1.0
 10
-17.4269056068
 20
168.685427225
 30
0.0
 10
-17.4269056068
 20
165.8717448827
 30
0.0
 10
-18.4667173407
 20
161.5507290756
 30
0.0
 10
-21.3339741833
 20
156.5770277332
 30
0.0
 10
-24.1800428563
 20
153.3170055624
 30
0.0
 10
-27.5080331294
 20
150.8097463416
 30
0.0
 10
-31.1175701607
 20
149.2169887796
 30
0.0
 10
-34.7836999001
 20
148.6586496164
 30
0.0
 10
-37.1601530376
 20
149.0373936382
 30
0.0
 10
-38.2411089553
 20
149.4082040262
 30
0.0
  0
SPLINE
  5
43E
100
AcDbEntity
  8
0
100
AcDbSpline
 62
7
  6
CONTINUOUS
 70
0
 71
3
 72
12
 73
8
 74
0
 42
0.0000001
 43
0.0000001
 44
0.0000000001
 40
0.0
 40
0.0
 40
0.0
 40
0.0
 40
0.2770039171
 40
0.5346227643
 40
0.7729622123
 40
0.8873135247
 40
1.0
 40
1.0
 40
1.0
 40
1.0
 10
-69.339977348
 20
141.0719819138
 30
0.0
 10
-70.4860613831
 20
140.0644015843
 30
0.0
 10
-72.9321972375
 20
138.3615737016
 30
0.0
 10
-76.9896563871
 20
136.9013884142
 30
0.0
 10
-80.4215669487
 20
136.7872206059
 30
0.0
 10
-82.9235806417
 20
137.4019169724
 30
0.0
 10
-84.0695104772
 20
137.9252233882
 30
0.0
 10
-84.6070860503
 20
138.2356964177
 30
0.0
  0
SPLINE
  5
43F
100
AcDbEntity
  8
0
100
AcDbSpline
 62
7
  6
CONTINUOUS
 70
0
 71
3
 72
9
 73
5
 74
0
 42
0.0000001
 43
0.0000001
 44
0.0000000001
 40
0.0
 40
0.0
 40
0.0
 40
0.0
 40
0.5107792739
 40
1.0
 40
1.0
 40
1.0
 40
1.0
 10
-69.3399774878
 20
168.4677055583
 30
0.0
 10
-70.7020220966
 20
166.1893554736
 30
0.0
 10
-72.8202717104
 20
161.3764544016
 30
0.0
 10
-73.6252546478
 20
156.1635539674
 30
0.0
 10
-73.6252546478
 20
153.6211516471
 30
0.0
  0
SPLINE
  5
440
100
AcDbEntity
  8
0
100
AcDbSpline
 62
7
  6
CONTINUOUS
 70
0
 71
3
 72
10
 73
6
 74
0
 42
0.0000001
 43
0.0000001
 44
0.0000000001
 40
0.0
 40
0.0
 40
0.0
 40
0.0
 40
0.5213451862
 40
0.7654975346
 40
1.0
 40
1.0
 40
1.0
 40
1.0
 10
-73.6252546478
 20
153.6211516471
 30
0.0
 10
-73.6252546478
 20
151.2734319615
 30
0.0
 10
-73.1230177592
 20
147.7775949614
 30
0.0
 10
-71.2901218328
 20
143.6417655457
 30
0.0
 10
-70.0375146323
 20
141.8648250071
 30
0.0
 10
-69.339977348
 20
141.0719819138
 30
0.0
  0
SPLINE
  5
441
100
AcDbEntity
  8
0
100
AcDbSpline
 62
7
  6
CONTINUOUS
 70
0
 71
3
 72
9
 73
5
 74
0
 42
0.0000001
 43
0.0000001
 44
0.0000000001
 40
0.0
 40
0.0
 40
0.0
 40
0.0
 40
0.5087536224
 40
1.0
 40
1.0
 40
1.0
 40
1.0
 10
-40.7510561254
 20
176.5282452539
 30
0.0
 10
-42.7491192556
 20
174.3657670053
 30
0.0
 10
-45.9186684973
 20
169.3660923577
 30
0.0
 10
-47.1789727461
 20
163.5531483929
 30
0.0
 10
-47.1789727461
 20
160.7102225073
 30
0.0
  0
SPLINE
  5
442
100
AcDbEntity
  8
0
100
AcDbSpline
 62
7
  6
CONTINUOUS
 70
0
 71
3
 72
11
 73
7
 74
0
 42
0.0000001
 43
0.0000001
 44
0.0000000001
 40
0.0
 40
0.0
 40
0.0
 40
0.0
 40
0.2715761698
 40
0.5267195918
 40
0.7676226681
 40
1.0
 40
1.0
 40
1.0
 40
1.0
 10
-47.1789727461
 20
160.7102225073
 30
0.0
 10
-47.1789727461
 20
159.4294042656
 30
0.0
 10
-46.9333323596
 20
156.9350251983
 30
0.0
 10
-45.7578570009
 20
153.4735542061
 30
0.0
 10
-43.8312426332
 20
150.578564562
 30
0.0
 10
-42.0834758616
 20
149.1284946975
 30
0.0
 10
-41.144245107
 20
148.5637419059
 30
0.0
  0
SPLINE
  5
443
100
AcDbEntity
  8
0
100
AcDbSpline
 62
7
  6
CONTINUOUS
 70
0
 71
3
 72
13
 73
9
 74
0
 42
0.0000001
 43
0.0000001
 44
0.0000000001
 40
0.0
 40
0.0
 40
0.0
 40
0.0
 40
0.2798189689
 40
0.5410795883
 40
0.663060138
 40
0.7792369044
 40
0.8908579354
 40
1.0
 40
1.0
 40
1.0
 40
1.0
 10
-40.7510570062
 20
148.3382769787
 30
0.0
 10
-42.2493029015
 20
146.2215358691
 30
0.0
 10
-45.7143834184
 20
142.4947098243
 30
0.0
 10
-51.1398469353
 20
139.3618876696
 30
0.0
 10
-55.6492096062
 20
138.208482202
 30
0.0
 10
-58.9110289288
 20
138.0423372448
 30
0.0
 10
-62.0150723705
 20
138.5690923951
 30
0.0
 10
-63.917942207
 20
139.3813842529
 30
0.0
 10
-64.7937698489
 20
139.8874343219
 30
0.0
  0
SPLINE
  5
444
100
AcDbEntity
  8
0
100
AcDbSpline
 62
7
  6
CONTINUOUS
 70
0
 71
3
 72
11
 73
7
 74
0
 42
0.0000001
 43
0.0000001
 44
0.0000000001
 40
0.0
 40
0.0
 40
0.0
 40
0.0
 40
0.2032339246
 40
0.4288952144
 40
0.6924084714
 40
1.0
 40
1.0
 40
1.0
 40
1.0
 10
-221.2277208126
 20
242.7506852144
 30
0.0
 10
-221.2277749
 20
242.6115083681
 30
0.0
 10
-221.168059316
 20
242.3157230933
 30
0.0
 10
-220.9175523162
 20
241.9051431253
 30
0.0
 10
-220.5224575033
 20
241.5229716841
 30
0.0
 10
-220.1953618797
 20
241.3053038169
 30
0.0
 10
-220.0129587243
 20
241.1999511418
 30
0.0
  0
SPLINE
  5
445
100
AcDbEntity
  8
0
100
AcDbSpline
 62
7
  6
CONTINUOUS
 70
0
 71
3
 72
9
 73
5
 74
0
 42
0.0000001
 43
0.0000001
 44
0.0000000001
 40
0.0
 40
0.0
 40
0.0
 40
0.0
 40
0.2516649753
 40
1.0
 40
1.0
 40
1.0
 40
1.0
 10
-71.3560121671
 20
170.7129191012
 30
0.0
 10
-71.4810461059
 20
170.6794030683
 30
0.0
 10
-71.9820015204
 20
170.5622009425
 30
0.0
 10
-72.498244475
 20
170.5097795248
 30
0.0
 10
-72.883162941
 20
170.5093880353
 30
0.0
  0
SPLINE
  5
446
100
AcDbEntity
  8
0
100
AcDbSpline
 62
7
  6
CONTINUOUS
 70
0
 71
3
 72
9
 73
5
 74
0
 42
0.0000001
 43
0.0000001
 44
0.0000000001
 40
0.0
 40
0.0
 40
0.0
 40
0.0
 40
0.2489319518
 40
1.0
 40
1.0
 40
1.0
 40
1.0
 10
-72.8712151145
 20
170.450782435
 30
0.0
 10
-72.6785498802
 20
170.4237990353
 30
0.0
 10
-71.8994755837
 20
170.3542730291
 30
0.0
 10
-71.1072251681
 20
170.4466941128
 30
0.0
 10
-70.5402652919
 20
170.598670816
 30
0.0
  0
SPLINE
  5
447
100
AcDbEntity
  8
0
100
AcDbSpline
 62
7
  6
CONTINUOUS
 70
0
 71
3
 72
14
 73
10
 74
0
 42
0.0000001
 43
0.0000001
 44
0.0000000001
 40
0.0
 40
0.0
 40
0.0
 40
0.0
 40
0.1059090147
 40
0.2183098525
 40
0.339106108
 40
0.4677857214
 40
0.601984151
 40
0.7382009114
 40
1.0
 40
1.0
 40
1.0
 40
1.0
 10
-39.3430373679
 20
147.6933544866
 30
0.0
 10
-38.1391109241
 20
147.2408494493
 30
0.0
 10
-35.4763387088
 20
146.7436888146
 30
0.0
 10
-31.3383697706
 20
147.2897405697
 30
0.0
 10
-27.2492933803
 20
149.023919821
 30
0.0
 10
-23.4692097541
 20
151.8105416159
 30
0.0
 10
-20.2299965358
 20
155.4653974267
 30
0.0
 10
-16.961731194
 20
161.0663962892
 30
0.0
 10
-15.7740129879
 20
165.949211281
 30
0.0
 10
-15.7740129879
 20
169.1284941538
 30
0.0
  0
SPLINE
  5
448
100
AcDbEntity
  8
0
100
AcDbSpline
 62
7
  6
CONTINUOUS
 70
0
 71
3
 72
11
 73
7
 74
0
 42
0.0000001
 43
0.0000001
 44
0.0000000001
 40
0.0
 40
0.0
 40
0.0
 40
0.0
 40
0.271777857
 40
0.5268714474
 40
0.7676350196
 40
1.0
 40
1.0
 40
1.0
 40
1.0
 10
-15.7740129879
 20
169.1284941538
 30
0.0
 10
-15.7740129879
 20
170.4274322652
 30
0.0
 10
-16.0265656917
 20
172.9562852833
 30
0.0
 10
-17.23612047
 20
176.4592937349
 30
0.0
 10
-19.2182485751
 20
179.373836009
 30
0.0
 10
-21.0119943045
 20
180.8166783062
 30
0.0
 10
-21.9737070533
 20
181.3720784887
 30
0.0
  0
SPLINE
  5
449
100
AcDbEntity
  8
0
100
AcDbSpline
 62
7
  6
CONTINUOUS
 70
0
 71
3
 72
11
 73
7
 74
0
 42
0.0000001
 43
0.0000001
 44
0.0000000001
 40
0.0
 40
0.0
 40
0.0
 40
0.0
 40
0.2323677297
 40
0.4734851101
 40
0.7286956971
 40
1.0
 40
1.0
 40
1.0
 40
1.0
 10
-66.6104173918
 20
169.4036190103
 30
0.0
 10
-65.7016234779
 20
168.8275085558
 30
0.0
 10
-64.0158549565
 20
167.3691946967
 30
0.0
 10
-62.1627569363
 20
164.5024311711
 30
0.0
 10
-61.032696501
 20
161.0973473773
 30
0.0
 10
-60.7962245746
 20
158.6496358081
 30
0.0
 10
-60.7962245746
 20
157.3933182008
 30
0.0
  0
SPLINE
  5
44A
100
AcDbEntity
  8
0
100
AcDbSpline
 62
7
  6
CONTINUOUS
 70
0
 71
3
 72
13
 73
9
 74
0
 42
0.0000001
 43
0.0000001
 44
0.0000000001
 40
0.0
 40
0.0
 40
0.0
 40
0.0
 40
0.2790462123
 40
0.5405284961
 40
0.6628491972
 40
0.779360758
 40
0.8911276624
 40
1.0
 40
1.0
 40
1.0
 40
1.0
 10
-39.7371478308
 20
147.9209856143
 30
0.0
 10
-41.3221991687
 20
145.6216326772
 30
0.0
 10
-45.0004885404
 20
141.5503774109
 30
0.0
 10
-50.7783568038
 20
138.0486293118
 30
0.0
 10
-55.6158510329
 20
136.6575727668
 30
0.0
 10
-59.1361262579
 20
136.3510026291
 30
0.0
 10
-62.5098196064
 20
136.7763811673
 30
0.0
 10
-64.6029323095
 20
137.551318332
 30
0.0
 10
-65.572747388
 20
138.0480230147
 30
0.0
  0
SPLINE
  5
44B
100
AcDbEntity
  8
0
100
AcDbSpline
 62
7
  6
CONTINUOUS
 70
0
 71
3
 72
12
 73
8
 74
0
 42
0.0000001
 43
0.0000001
 44
0.0000000001
 40
0.0
 40
0.0
 40
0.0
 40
0.0
 40
0.2768346573
 40
0.5348222151
 40
0.7734955747
 40
0.8877317153
 40
1.0
 40
1.0
 40
1.0
 40
1.0
 10
-68.6321600942
 20
140.1755193548
 30
0.0
 10
-69.8888854817
 20
139.0294258422
 30
0.0
 10
-72.5788643911
 20
137.0768963709
 30
0.0
 10
-77.0622407334
 20
135.3356209412
 30
0.0
 10
-80.8838276983
 20
135.0839549285
 30
0.0
 10
-83.6964165082
 20
135.6632190008
 30
0.0
 10
-84.9938074146
 20
136.1930880685
 30
0.0
 10
-85.6048211066
 20
136.5131521388
 30
0.0
  0
SPLINE
  5
44C
100
AcDbEntity
  8
0
100
AcDbSpline
 62
7
  6
CONTINUOUS
 70
0
 71
3
 72
14
 73
10
 74
0
 42
0.0000001
 43
0.0000001
 44
0.0000000001
 40
0.0
 40
0.0
 40
0.0
 40
0.0
 40
0.2617990882
 40
0.3980158483
 40
0.5322142779
 40
0.6608938915
 40
0.7816901473
 40
0.8940909858
 40
1.0
 40
1.0
 40
1.0
 40
1.0
 10
-16.1681238655
 20
169.3561252774
 30
0.0
 10
-16.1681238655
 20
166.1768424455
 30
0.0
 10
-17.3558420412
 20
161.2940275173
 30
0.0
 10
-20.6241073073
 20
155.6930287033
 30
0.0
 10
-23.8633204568
 20
152.0381729084
 30
0.0
 10
-27.6434040101
 20
149.2515510835
 30
0.0
 10
-31.7324803379
 20
147.5173718123
 30
0.0
 10
-35.8704492265
 20
146.9713198605
 30
0.0
 10
-38.5332214062
 20
147.4684805841
 30
0.0
 10
-39.7371478308
 20
147.9209856143
 30
0.0
  0
SPLINE
  5
44D
100
AcDbEntity
  8
0
100
AcDbSpline
 62
7
  6
CONTINUOUS
 70
0
 71
3
 72
9
 73
5
 74
0
 42
0.0000001
 43
0.0000001
 44
0.0000000001
 40
0.0
 40
0.0
 40
0.0
 40
0.0
 40
0.5107736339
 40
1.0
 40
1.0
 40
1.0
 40
1.0
 10
-68.3260687219
 20
168.0873379804
 30
0.0
 10
-69.6093059729
 20
165.9769599469
 30
0.0
 10
-71.6062366385
 20
161.5083776938
 30
0.0
 10
-72.3664729065
 20
156.6575531375
 30
0.0
 10
-72.3664729065
 20
154.2918496994
 30
0.0
  0
SPLINE
  5
44E
100
AcDbEntity
  8
0
100
AcDbSpline
 62
7
  6
CONTINUOUS
 70
0
 71
3
 72
10
 73
6
 74
0
 42
0.0000001
 43
0.0000001
 44
0.0000000001
 40
0.0
 40
0.0
 40
0.0
 40
0.0
 40
0.5215789805
 40
0.7656331697
 40
1.0
 40
1.0
 40
1.0
 40
1.0
 10
-72.3664729065
 20
154.2918496994
 30
0.0
 10
-72.3664729065
 20
152.1097957479
 30
0.0
 10
-71.8929977608
 20
148.8598907917
 30
0.0
 10
-70.1636182929
 20
145.0286809579
 30
0.0
 10
-68.9828438951
 20
143.3904771765
 30
0.0
 10
-68.3260686918
 20
142.6624663217
 30
0.0
  0
SPLINE
  5
44F
100
AcDbEntity
  8
0
100
AcDbSpline
 62
7
  6
CONTINUOUS
 70
0
 71
3
 72
9
 73
5
 74
0
 42
0.0000001
 43
0.0000001
 44
0.0000000001
 40
0.0
 40
0.0
 40
0.0
 40
0.0
 40
0.5085873768
 40
1.0
 40
1.0
 40
1.0
 40
1.0
 10
-40.0432394708
 20
175.6687054317
 30
0.0
 10
-41.8681876736
 20
173.7277345386
 30
0.0
 10
-44.7660110402
 20
169.2170573675
 30
0.0
 10
-45.9201910049
 20
163.9551231988
 30
0.0
 10
-45.9201910049
 20
161.3809205597
 30
0.0
  0
SPLINE
  5
450
100
AcDbEntity
  8
0
100
AcDbSpline
 62
7
  6
CONTINUOUS
 70
0
 71
3
 72
11
 73
7
 74
0
 42
0.0000001
 43
0.0000001
 44
0.0000000001
 40
0.0
 40
0.0
 40
0.0
 40
0.0
 40
0.2717659649
 40
0.5268500321
 40
0.7675934755
 40
1.0
 40
1.0
 40
1.0
 40
1.0
 10
-45.9201910049
 20
161.3809205597
 30
0.0
 10
-45.9201910049
 20
160.2187616693
 30
0.0
 10
-45.6942638995
 20
157.9561733233
 30
0.0
 10
-44.6120079889
 20
154.8221389024
 30
0.0
 10
-42.8388316028
 20
152.2140685317
 30
0.0
 10
-41.2336763255
 20
150.9232559151
 30
0.0
 10
-40.373139233
 20
150.4260595162
 30
0.0
  0
SPLINE
  5
451
100
AcDbEntity
  8
0
100
AcDbSpline
 62
7
  6
CONTINUOUS
 70
0
 71
3
 72
10
 73
6
 74
0
 42
0.0000001
 43
0.0000001
 44
0.0000000001
 40
0.0
 40
0.0
 40
0.0
 40
0.0
 40
0.2345024689
 40
0.4786548163
 40
1.0
 40
1.0
 40
1.0
 40
1.0
 10
-38.6352197275
 20
177.0315590068
 30
0.0
 10
-37.9376824806
 20
176.2387158563
 30
0.0
 10
-36.6850755867
 20
174.4617750919
 30
0.0
 10
-34.8521794926
 20
170.3259457775
 30
0.0
 10
-34.3499426729
 20
166.8301087409
 30
0.0
 10
-34.3499426729
 20
164.482389061
 30
0.0
  0
SPLINE
  5
452
100
AcDbEntity
  8
0
100
AcDbSpline
 62
7
  6
CONTINUOUS
 70
0
 71
3
 72
9
 73
5
 74
0
 42
0.0000001
 43
0.0000001
 44
0.0000000001
 40
0.0
 40
0.0
 40
0.0
 40
0.0
 40
0.4892207261
 40
1.0
 40
1.0
 40
1.0
 40
1.0
 10
-34.3499426729
 20
164.482389061
 30
0.0
 10
-34.3499426729
 20
161.9399867424
 30
0.0
 10
-35.1549255698
 20
156.7270862855
 30
0.0
 10
-37.2731753035
 20
151.9141852951
 30
0.0
 10
-38.6352198024
 20
149.6358351461
 30
0.0
  0
SPLINE
  5
453
100
AcDbEntity
  8
0
100
AcDbSpline
 62
7
  6
CONTINUOUS
 70
0
 71
3
 72
9
 73
5
 74
0
 42
0.0000001
 43
0.0000001
 44
0.0000000001
 40
0.0
 40
0.0
 40
0.0
 40
0.0
 40
0.2523084425
 40
1.0
 40
1.0
 40
1.0
 40
1.0
 10
-87.2808612991
 20
140.2741348982
 30
0.0
 10
-87.1127851511
 20
140.0954069963
 30
0.0
 10
-86.4218945625
 20
139.4107468627
 30
0.0
 10
-85.6307886138
 20
138.826943836
 30
0.0
 10
-85.0011969279
 20
138.4633275413
 30
0.0
  0
SPLINE
  5
454
100
AcDbEntity
  8
0
100
AcDbSpline
 62
7
  6
CONTINUOUS
 70
0
 71
3
 72
9
 73
5
 74
0
 42
0.0000001
 43
0.0000001
 44
0.0000000001
 40
0.0
 40
0.0
 40
0.0
 40
0.0
 40
0.49124638
 40
1.0
 40
1.0
 40
1.0
 40
1.0
 10
-60.7962245746
 20
157.3933182008
 30
0.0
 10
-60.7962245746
 20
154.5503925194
 30
0.0
 10
-62.0565291457
 20
148.7374495316
 30
0.0
 10
-65.2260763397
 20
143.7377735267
 30
0.0
 10
-67.2241406315
 20
141.5752966773
 30
0.0
  0
SPLINE
  5
455
100
AcDbEntity
  8
0
100
AcDbSpline
 62
7
  6
CONTINUOUS
 70
0
 71
3
 72
10
 73
6
 74
0
 42
0.0000001
 43
0.0000001
 44
0.0000000001
 40
0.0
 40
0.0
 40
0.0
 40
0.0
 40
0.2343668303
 40
0.4784210191
 40
1.0
 40
1.0
 40
1.0
 40
1.0
 10
-67.9319575347
 20
142.4348348435
 30
0.0
 10
-68.5887327614
 20
143.1628457243
 30
0.0
 10
-69.7695072478
 20
144.8010495247
 30
0.0
 10
-71.4988868482
 20
148.6322594693
 30
0.0
 10
-71.9723620289
 20
151.8821645447
 30
0.0
 10
-71.9723620289
 20
154.0642185758
 30
0.0
  0
SPLINE
  5
456
100
AcDbEntity
  8
0
100
AcDbSpline
 62
7
  6
CONTINUOUS
 70
0
 71
3
 72
9
 73
5
 74
0
 42
0.0000001
 43
0.0000001
 44
0.0000000001
 40
0.0
 40
0.0
 40
0.0
 40
0.0
 40
0.4892263665
 40
1.0
 40
1.0
 40
1.0
 40
1.0
 10
-71.9723620289
 20
154.0642185758
 30
0.0
 10
-71.9723620289
 20
156.4299220107
 30
0.0
 10
-71.2121258331
 20
161.2807465872
 30
0.0
 10
-69.2151949603
 20
165.7493287372
 30
0.0
 10
-67.9319577131
 20
167.8597067645
 30
0.0
  0
SPLINE
  5
457
100
AcDbEntity
  8
0
100
AcDbSpline
 62
7
  6
CONTINUOUS
 70
0
 71
3
 72
9
 73
5
 74
0
 42
0.0000001
 43
0.0000001
 44
0.0000000001
 40
0.0
 40
0.0
 40
0.0
 40
0.0
 40
0.248535119
 40
1.0
 40
1.0
 40
1.0
 40
1.0
 10
-84.6070860503
 20
138.2356964177
 30
0.0
 10
-84.8515477856
 20
138.3768835909
 30
0.0
 10
-85.8105791046
 20
138.9868355064
 30
0.0
 10
-86.6610707798
 20
139.7647852517
 30
0.0
 10
-87.2158487622
 20
140.4134742461
 30
0.0
  0
SPLINE
  5
458
100
AcDbEntity
  8
0
100
AcDbSpline
 62
7
  6
CONTINUOUS
 70
0
 71
3
 72
9
 73
5
 74
0
 42
0.0000001
 43
0.0000001
 44
0.0000000001
 40
0.0
 40
0.0
 40
0.0
 40
0.0
 40
0.4914126232
 40
1.0
 40
1.0
 40
1.0
 40
1.0
 10
-45.5260801273
 20
161.1532894361
 30
0.0
 10
-45.5260801273
 20
163.7274920751
 30
0.0
 10
-44.3719001627
 20
168.9894262436
 30
0.0
 10
-41.4740767963
 20
173.5001034146
 30
0.0
 10
-39.6491285936
 20
175.4410743076
 30
0.0
  0
SPLINE
  5
459
100
AcDbEntity
  8
0
100
AcDbSpline
 62
7
  6
CONTINUOUS
 70
0
 71
3
 72
9
 73
5
 74
0
 42
0.0000001
 43
0.0000001
 44
0.0000000001
 40
0.0
 40
0.0
 40
0.0
 40
0.0
 40
0.2523405666
 40
1.0
 40
1.0
 40
1.0
 40
1.0
 10
-25.7021775514
 20
180.7147708075
 30
0.0
 10
-25.4615121393
 20
180.6585828734
 30
0.0
 10
-24.5159888921
 20
180.4021997954
 30
0.0
 10
-23.6080886365
 20
180.0064264173
 30
0.0
 10
-22.9740003928
 20
179.6402131668
 30
0.0
  0
SPLINE
  5
45A
100
AcDbEntity
  8
0
100
AcDbSpline
 62
7
  6
CONTINUOUS
 70
0
 71
3
 72
9
 73
5
 74
0
 42
0.0000001
 43
0.0000001
 44
0.0000000001
 40
0.0
 40
0.0
 40
0.0
 40
0.0
 40
0.5107792739
 40
1.0
 40
1.0
 40
1.0
 40
1.0
 10
-38.2411089553
 20
149.4082040262
 30
0.0
 10
-36.8790644559
 20
151.6865541762
 30
0.0
 10
-34.7608146804
 20
156.4994551516
 30
0.0
 10
-33.9558317953
 20
161.712355617
 30
0.0
 10
-33.9558317953
 20
164.2547579374
 30
0.0
  0
SPLINE
  5
45B
100
AcDbEntity
  8
0
100
AcDbSpline
 62
7
  6
CONTINUOUS
 70
0
 71
3
 72
10
 73
6
 74
0
 42
0.0000001
 43
0.0000001
 44
0.0000000001
 40
0.0
 40
0.0
 40
0.0
 40
0.0
 40
0.5213451848
 40
0.7654975327
 40
1.0
 40
1.0
 40
1.0
 40
1.0
 10
-33.9558317953
 20
164.2547579374
 30
0.0
 10
-33.9558317953
 20
166.6024776175
 30
0.0
 10
-34.4580686531
 20
170.0983146272
 30
0.0
 10
-36.2909646473
 20
174.2341440011
 30
0.0
 10
-37.5435717148
 20
176.0110846302
 30
0.0
 10
-38.2411089553
 20
176.8039277735
 30
0.0
  0
SPLINE
  5
45C
100
AcDbEntity
  8
0
100
AcDbSpline
 62
7
  6
CONTINUOUS
 70
0
 71
3
 72
15
 73
11
 74
0
 42
0.0000001
 43
0.0000001
 44
0.0000000001
 40
0.0
 40
0.0
 40
0.0
 40
0.0
 40
0.1276244633
 40
0.2657996907
 40
0.407082212
 40
0.5426208308
 40
0.6661300692
 40
0.7776597182
 40
0.8852336317
 40
1.0
 40
1.0
 40
1.0
 40
1.0
 10
-31.476492867
 20
167.30785972
 30
0.0
 10
-31.7710640533
 20
167.2288982985
 30
0.0
 10
-32.3518159311
 20
166.9321146441
 30
0.0
 10
-33.0388229054
 20
166.2240036505
 30
0.0
 10
-33.5028826049
 20
165.3313083244
 30
0.0
 10
-33.6773213199
 20
164.3745566107
 30
0.0
 10
-33.5303508486
 20
163.4791058324
 30
0.0
 10
-33.0490506309
 20
162.7756214099
 30
0.0
 10
-32.2935225769
 20
162.420001716
 30
0.0
 10
-31.741386167
 20
162.4598508397
 30
0.0
 10
-31.476492867
 20
162.5308569411
 30
0.0
  0
SPLINE
  5
45D
100
AcDbEntity
  8
0
100
AcDbSpline
 62
7
  6
CONTINUOUS
 70
0
 71
3
 72
15
 73
11
 74
0
 42
0.0000001
 43
0.0000001
 44
0.0000000001
 40
0.0
 40
0.0
 40
0.0
 40
0.0
 40
0.1276244633
 40
0.2657996907
 40
0.407082212
 40
0.5426208308
 40
0.6661300692
 40
0.7776597182
 40
0.8852336317
 40
1.0
 40
1.0
 40
1.0
 40
1.0
 10
-31.476492867
 20
162.5308569411
 30
0.0
 10
-31.1819216808
 20
162.6098183626
 30
0.0
 10
-30.601169803
 20
162.906602017
 30
0.0
 10
-29.9141628287
 20
163.6147130106
 30
0.0
 10
-29.4501031292
 20
164.5074083368
 30
0.0
 10
-29.2756644142
 20
165.4641600504
 30
0.0
 10
-29.4226348855
 20
166.3596108287
 30
0.0
 10
-29.9039351031
 20
167.0630952512
 30
0.0
 10
-30.6594631572
 20
167.4187149452
 30
0.0
 10
-31.2115995671
 20
167.3788658214
 30
0.0
 10
-31.476492867
 20
167.30785972
 30
0.0
  0
SPLINE
  5
45E
100
AcDbEntity
  8
0
100
AcDbSpline
 62
7
  6
CONTINUOUS
 70
0
 71
3
 72
15
 73
11
 74
0
 42
0.0000001
 43
0.0000001
 44
0.0000000001
 40
0.0
 40
0.0
 40
0.0
 40
0.0
 40
0.1276244633
 40
0.2657996907
 40
0.407082212
 40
0.5426208308
 40
0.6661300692
 40
0.7776597182
 40
0.8852336317
 40
1.0
 40
1.0
 40
1.0
 40
1.0
 10
-76.1045935761
 20
150.5680498645
 30
0.0
 10
-75.8100223898
 20
150.647011286
 30
0.0
 10
-75.2292705121
 20
150.9437949403
 30
0.0
 10
-74.5422635377
 20
151.651905934
 30
0.0
 10
-74.0782038383
 20
152.5446012601
 30
0.0
 10
-73.9037651232
 20
153.5013529738
 30
0.0
 10
-74.0507355945
 20
154.3968037521
 30
0.0
 10
-74.5320358122
 20
155.1002881746
 30
0.0
 10
-75.2875638662
 20
155.4559078685
 30
0.0
 10
-75.8397002761
 20
155.4160587447
 30
0.0
 10
-76.1045935761
 20
155.3450526434
 30
0.0
  0
SPLINE
  5
45F
100
AcDbEntity
  8
0
100
AcDbSpline
 62
7
  6
CONTINUOUS
 70
0
 71
3
 72
15
 73
11
 74
0
 42
0.0000001
 43
0.0000001
 44
0.0000000001
 40
0.0
 40
0.0
 40
0.0
 40
0.0
 40
0.1276244633
 40
0.2657996907
 40
0.407082212
 40
0.5426208308
 40
0.6661300692
 40
0.7776597182
 40
0.8852336317
 40
1.0
 40
1.0
 40
1.0
 40
1.0
 10
-76.1045935761
 20
155.3450526434
 30
0.0
 10
-76.3991647623
 20
155.2660912218
 30
0.0
 10
-76.9799166401
 20
154.9693075675
 30
0.0
 10
-77.6669236145
 20
154.2611965738
 30
0.0
 10
-78.1309833139
 20
153.3685012477
 30
0.0
 10
-78.3054220289
 20
152.4117495341
 30
0.0
 10
-78.1584515576
 20
151.5162987557
 30
0.0
 10
-77.67715134
 20
150.8128143333
 30
0.0
 10
-76.9216232859
 20
150.4571946393
 30
0.0
 10
-76.3694868761
 20
150.4970437631
 30
0.0
 10
-76.1045935761
 20
150.5680498645
 30
0.0
  0
SPLINE
  5
460
100
AcDbEntity
  8
0
100
AcDbSpline
 62
7
  6
CONTINUOUS
 70
0
 71
3
 72
9
 73
5
 74
0
 42
0.0000001
 43
0.0000001
 44
0.0000000001
 40
0.0
 40
0.0
 40
0.0
 40
0.0
 40
0.5087536221
 40
1.0
 40
1.0
 40
1.0
 40
1.0
 10
-66.830029437
 20
141.347665436
 30
0.0
 10
-64.8319651447
 20
143.510142286
 30
0.0
 10
-61.662418367
 20
148.5098185334
 30
0.0
 10
-60.402113697
 20
154.3227614187
 30
0.0
 10
-60.402113697
 20
157.1656870772
 30
0.0
  0
SPLINE
  5
461
100
AcDbEntity
  8
0
100
AcDbSpline
 62
7
  6
CONTINUOUS
 70
0
 71
3
 72
11
 73
7
 74
0
 42
0.0000001
 43
0.0000001
 44
0.0000000001
 40
0.0
 40
0.0
 40
0.0
 40
0.0
 40
0.271768861
 40
0.5268558413
 40
0.7676019348
 40
1.0
 40
1.0
 40
1.0
 40
1.0
 10
-60.402113697
 20
157.1656870772
 30
0.0
 10
-60.402113697
 20
158.4645848481
 30
0.0
 10
-60.6546304938
 20
160.9933861521
 30
0.0
 10
-61.8642255385
 20
164.4961782755
 30
0.0
 10
-63.8460529059
 20
167.4110220332
 30
0.0
 10
-65.6399862242
 20
168.8537398127
 30
0.0
 10
-66.6017489519
 20
169.4093741505
 30
0.0
  0
SPLINE
  5
462
100
AcDbEntity
  8
0
100
AcDbSpline
 62
7
  6
CONTINUOUS
 70
0
 71
3
 72
15
 73
11
 74
0
 42
0.0000001
 43
0.0000001
 44
0.0000000001
 40
0.0
 40
0.0
 40
0.0
 40
0.0
 40
0.1276244633
 40
0.2657996907
 40
0.407082212
 40
0.5426208308
 40
0.6661300692
 40
0.7776597182
 40
0.8852336317
 40
1.0
 40
1.0
 40
1.0
 40
1.0
 10
-53.7905432216
 20
161.3264561817
 30
0.0
 10
-54.0851144078
 20
161.2474947602
 30
0.0
 10
-54.6658662856
 20
160.9507111058
 30
0.0
 10
-55.35287326
 20
160.2426001122
 30
0.0
 10
-55.8169329594
 20
159.349904786
 30
0.0
 10
-55.9913716744
 20
158.3931530724
 30
0.0
 10
-55.8444012031
 20
157.4977022941
 30
0.0
 10
-55.3631009855
 20
156.7942178716
 30
0.0
 10
-54.6075729314
 20
156.4385981776
 30
0.0
 10
-54.0554365215
 20
156.4784473014
 30
0.0
 10
-53.7905432216
 20
156.5494534028
 30
0.0
  0
SPLINE
  5
463
100
AcDbEntity
  8
0
100
AcDbSpline
 62
7
  6
CONTINUOUS
 70
0
 71
3
 72
15
 73
11
 74
0
 42
0.0000001
 43
0.0000001
 44
0.0000000001
 40
0.0
 40
0.0
 40
0.0
 40
0.0
 40
0.1276244633
 40
0.2657996907
 40
0.407082212
 40
0.5426208308
 40
0.6661300692
 40
0.7776597182
 40
0.8852336317
 40
1.0
 40
1.0
 40
1.0
 40
1.0
 10
-53.7905432216
 20
156.5494534028
 30
0.0
 10
-53.4959720353
 20
156.6284148243
 30
0.0
 10
-52.9152201575
 20
156.9251984787
 30
0.0
 10
-52.2282131832
 20
157.6333094723
 30
0.0
 10
-51.7641534837
 20
158.5260047984
 30
0.0
 10
-51.5897147687
 20
159.4827565121
 30
0.0
 10
-51.73668524
 20
160.3782072904
 30
0.0
 10
-52.2179854577
 20
161.0816917129
 30
0.0
 10
-52.9735135117
 20
161.4373114068
 30
0.0
 10
-53.5256499216
 20
161.3974622831
 30
0.0
 10
-53.7905432216
 20
161.3264561817
 30
0.0
  0
SPLINE
  5
464
100
AcDbEntity
  8
0
100
AcDbSpline
 62
7
  6
CONTINUOUS
 70
0
 71
3
 72
11
 73
7
 74
0
 42
0.0000001
 43
0.0000001
 44
0.0000000001
 40
0.0
 40
0.0
 40
0.0
 40
0.0
 40
0.2324065245
 40
0.4731499679
 40
0.7282340351
 40
1.0
 40
1.0
 40
1.0
 40
1.0
 10
-39.9790283554
 20
150.1984283926
 30
0.0
 10
-40.839565448
 20
150.6956247915
 30
0.0
 10
-42.4447207252
 20
151.9864374081
 30
0.0
 10
-44.2178971113
 20
154.5945077788
 30
0.0
 10
-45.3001530219
 20
157.7285421997
 30
0.0
 10
-45.5260801273
 20
159.9911305457
 30
0.0
 10
-45.5260801273
 20
161.1532894361
 30
0.0
  0
SPLINE
  5
465
100
AcDbEntity
  8
0
100
AcDbSpline
 62
7
  6
CONTINUOUS
 70
0
 71
3
 72
11
 73
7
 74
0
 42
0.0000001
 43
0.0000001
 44
0.0000000001
 40
0.0
 40
0.0
 40
0.0
 40
0.0
 40
0.3075915747
 40
0.5711047481
 40
0.7967660342
 40
1.0
 40
1.0
 40
1.0
 40
1.0
 10
-220.426181879
 20
241.0891844096
 30
0.0
 10
-220.6216138622
 20
241.2020622936
 30
0.0
 10
-220.9720735052
 20
241.4352777725
 30
0.0
 10
-221.3953892512
 20
241.8447472494
 30
0.0
 10
-221.6637896965
 20
242.2846542802
 30
0.0
 10
-221.7277706024
 20
242.6015671205
 30
0.0
 10
-221.7277126798
 20
242.7506852015
 30
0.0
  0
SPLINE
  5
466
100
AcDbEntity
  8
0
100
AcDbSpline
 62
7
  6
CONTINUOUS
 70
0
 71
3
 72
11
 73
7
 74
0
 42
0.0000001
 43
0.0000001
 44
0.0000000001
 40
0.0
 40
0.0
 40
0.0
 40
0.0
 40
0.2323181444
 40
0.4734595789
 40
0.7286871951
 40
1.0
 40
1.0
 40
1.0
 40
1.0
 10
-21.9791918851
 20
181.3644249603
 30
0.0
 10
-21.0708826966
 20
180.7885102876
 30
0.0
 10
-19.3863501815
 20
179.3298474535
 30
0.0
 10
-17.5339017261
 20
176.4638908441
 30
0.0
 10
-16.4045324348
 20
173.0593002141
 30
0.0
 10
-16.1681238655
 20
170.6121498815
 30
0.0
 10
-16.1681238655
 20
169.3561252774
 30
0.0
  0
SPLINE
  5
467
100
AcDbEntity
  8
0
100
AcDbSpline
 62
7
  6
CONTINUOUS
 70
0
 71
3
 72
13
 73
9
 74
0
 42
0.0000001
 43
0.0000001
 44
0.0000000001
 40
0.0
 40
0.0
 40
0.0
 40
0.0
 40
0.1089772581
 40
0.2204891887
 40
0.3366367832
 40
0.4586708474
 40
0.7201506769
 40
1.0
 40
1.0
 40
1.0
 40
1.0
 10
-65.7940785196
 20
138.1555423984
 30
0.0
 10
-64.8279475477
 20
137.5972714533
 30
0.0
 10
-62.7264811097
 20
136.7037084746
 30
0.0
 10
-59.2974189191
 20
136.1355854509
 30
0.0
 10
-55.6953420381
 20
136.3406430014
 30
0.0
 10
-50.720317245
 20
137.653084687
 30
0.0
 10
-44.7544519186
 20
141.171922386
 30
0.0
 10
-40.9693297924
 20
145.3341752138
 30
0.0
 10
-39.3430373679
 20
147.6933544866
 30
0.0
  0
SPLINE
  5
468
100
AcDbEntity
  8
0
100
AcDbSpline
 62
7
  6
CONTINUOUS
 70
0
 71
3
 72
12
 73
8
 74
0
 42
0.0000001
 43
0.0000001
 44
0.0000000001
 40
0.0
 40
0.0
 40
0.0
 40
0.0
 40
0.1123968023
 40
0.2265173725
 40
0.4646969643
 40
0.7225975924
 40
1.0
 40
1.0
 40
1.0
 40
1.0
 10
-85.6073793899
 20
136.5038310957
 30
0.0
 10
-84.994857553
 20
136.1500926842
 30
0.0
 10
-83.687362805
 20
135.5559234097
 30
0.0
 10
-80.8290418005
 20
134.8702350021
 30
0.0
 10
-76.9083763952
 20
135.0409767226
 30
0.0
 10
-72.2932912721
 20
136.7765185007
 30
0.0
 10
-69.5279371861
 20
138.7715513168
 30
0.0
 10
-68.2380490752
 20
139.9478881764
 30
0.0
  0
ELLIPSE
  5
469
100
AcDbEntity
  8
0
100
AcDbEllipse
 62
7
  6
CONTINUOUS
 10
-86.0199886402
 20
273.8725424005
 30
0.0
 11
0.8948355042
 21
10.2799242393
 31
0.0
 40
0.8125771683
 41
0.2872696813
 42
1.8580660081
  0
ENDSEC
  0
SECTION
  2
OBJECTS
  0
DICTIONARY
  5
C
100
AcDbDictionary
280
0
281
1
  3
ACAD_GROUP
350
D
  3
ACAD_MLINESTYLE
350
17
  3
ACAD_LAYOUT
350
1A
  3
ACAD_PLOTSETTINGS
350
19
  3
ACAD_PLOTSTYLENAME
350
E
  0
DICTIONARY
  5
D
102
{ACAD_REACTORS
330
C
102
}
100
AcDbDictionary
280
0
281
1
  0
ACDBDICTIONARYWDFLT
  5
E
102
{ACAD_REACTORS
330
C
102
}
100
AcDbDictionary
281
1
  3
Normal
350
F
100
AcDbDictionaryWithDefault
340
F
  0
DICTIONARY
  5
17
102
{ACAD_REACTORS
330
C
102
}
100
AcDbDictionary
280
0
281
1
  3
Standard
350
18
  0
DICTIONARY
  5
19
102
{ACAD_REACTORS
330
C
102
}
100
AcDbDictionary
281
1
  0
DICTIONARY
  5
1A
102
{ACAD_REACTORS
330
C
102
}
100
AcDbDictionary
281
1
  3
Model
350
46A
  3
Layout1
350
46B
  0
ACDBPLACEHOLDER
  5
F
102
{ACAD_REACTORS
330
E
102
}
  0
MLINESTYLE
  5
18
102
{ACAD_REACTORS
330
17
102
}
100
AcDbMlineStyle
  2
STANDARD
 70
0
  3

 62
256
 51
90.0
 52
90.0
 71
2
 49
0.5
 62
256
  6
BYLAYER
 49
-0.5
 62
256
  6
BYLAYER
  0
LAYOUT
  5
46A
102
{ACAD_REACTORS
330
1A
102
}
100
AcDbPlotSettings
  1

  2
none_device
  4
ANSI_C_(22.00_x_17.00_Inches)
  6

 40
0.0
 41
0.0
 42
0.0
 43
0.0
 44
558.8
 45
431.8
 46
0.0
 47
0.0
 48
0.0
 49
0.0
140
0.0
141
0.0
142
1.0
143
1.0
 70
1024
 72
1
 73
0
 74
0
  7

 75
0
147
1.0
148
0.0
149
0.0
100
AcDbLayout
  1
Model
 70
0
 71
0
 10
0.0
 20
0.0
 11
558.8
 21
431.8
 12
0.0
 22
0.0
 32
0.0
 14
0.0
 24
0.0
 34
0.0
 15
0.0
 25
0.0
 35
0.0
146
0.0
 13
0.0
 23
0.0
 33
0.0
 16
1.0
 26
0.0
 36
0.0
 17
0.0
 27
1.0
 37
0.0
 76
0
330
216
345
0
346
0
  0
LAYOUT
  5
46B
102
{ACAD_REACTORS
330
1A
102
}
100
AcDbPlotSettings
  1

  2
none_device
  4
ANSI_C_(22.00_x_17.00_Inches)
  6

 40
0.0
 41
0.0
 42
0.0
 43
0.0
 44
558.8
 45
431.8
 46
0.0
 47
0.0
 48
0.0
 49
0.0
140
0.0
141
0.0
142
1.0
143
1.0
 70
0
 72
1
 73
0
 74
0
  7

 75
0
147
1.0
148
0.0
149
0.0
100
AcDbLayout
  1
Layout1
 70
0
 71
1
 10
0.0
 20
0.0
 11
558.8
 21
431.8
 12
0.0
 22
0.0
 32
0.0
 14
0.0
 24
0.0
 34
0.0
 15
0.0
 25
0.0
 35
0.0
146
0.0
 13
0.0
 23
0.0
 33
0.0
 16
1.0
 26
0.0
 36
0.0
 17
0.0
 27
1.0
 37
0.0
 76
0
330
217
345
0
346
0
  0
ENDSEC
  0
EOF
