999
DXF file: Y:\3D PRATIKA-KAEDRA_OLGA\TRAVAIL_PHASE_11\CAD3D\81195_3D-Simplified\81195_2D-isometric.dxf
999
Pro/ENGINEER 2018260 by Parametric Technology Corporation
  0
SECTION
  2
HEADER
  9
$ACADVER
  1
AC1027
  9
$DWGCODEPAGE
  3
ANSI_1252
  9
$EXTMAX
 10
558.8
 20
431.8
 30
0.0
  9
$EXTMIN
 10
0.0
 20
0.0
 30
0.0
  9
$LIMMIN
 10
0.0
 20
0.0
  9
$LIMMAX
 10
558.8
 20
431.8
  9
$VIEWCTR
 10
279.4
 20
215.9
  9
$VIEWSIZE
 40
431.8
  9
$CLAYER
  8
0
  9
$LTSCALE
 40
30.734
  9
$CELTYPE
  6
BYLAYER
  9
$DIMSCALE
 40
1.0
  9
$DIMASZ
 40
0.1875
  9
$DIMEXO
 40
0.0625
  9
$DIMDLI
 40
21.2344
  9
$DIMEXE
 40
0.125
  9
$DIMCEN
 40
5.0292
  9
$DIMLFAC
 40
1.0
  9
$DIMBLK
  1
_CLOSED
  9
$DIMALT
 70
0
  9
$DIMALTF
 40
0.0393700787
  9
$DIMTXT
 40
0.15625
  9
$DIMTOL
 70
0
  9
$DIMLIM
 70
0
  9
$DIMTFAC
 40
1.0
  9
$DIMGAP
 40
0.625
  9
$DIMDSEP
 70
46
  9
$AUNITS
 70
0
  9
$PDMODE
 70
3
  9
$PDSIZE
 40
0.3125
  9
$HANDSEED
  5
485
  9
$TILEMODE
 70
1
  9
$MEASUREMENT
 70
1
  9
$INSUNITS
 70
4
  0
ENDSEC
  0
SECTION
  2
CLASSES
  0
CLASS
  1
ACDBDICTIONARYWDFLT
  2
AcDbDictionaryWithDefault
  3
AutoCAD 2000
 90
0
 91
1
280
0
281
0
  0
CLASS
  1
ACDBPLACEHOLDER
  2
AcDbPlaceHolder
  3
AutoCAD 2000
 90
0
 91
1
280
0
281
0
  0
CLASS
  1
LAYOUT
  2
AcDbLayout
  3
AutoCAD 2000
 90
0
 91
0
280
0
281
0
  0
ENDSEC
  0
SECTION
  2
TABLES
  0
TABLE
  2
VPORT
  5
8
100
AcDbSymbolTable
 70
2
  0
VPORT
  5
1F4
100
AcDbSymbolTableRecord
100
AcDbViewportTableRecord
  2
*ACTIVE
 70
0
 10
0.0
 20
0.0
 11
1.0
 21
1.0
 12
279.4
 22
215.9
 13
0.0
 23
0.0
 14
1.0
 24
1.0
 15
0.0
 25
0.0
 16
0.0
 26
0.0
 36
1.0
 17
0.0
 27
0.0
 37
0.0
 40
431.8
 41
1.2941176471
 42
50.0
 43
0.0
 44
0.0
 50
0.0
 51
0.0
 71
0
 72
100
 73
1
 74
1
 75
0
 76
0
 77
0
 78
0
  0
ENDTAB
  0
TABLE
  2
LTYPE
  5
5
100
AcDbSymbolTable
 70
6
  0
LTYPE
  5
14
100
AcDbSymbolTableRecord
100
AcDbLinetypeTableRecord
  2
BYBLOCK
 70
0
  3

 72
65
 73
0
 40
0.0
  0
LTYPE
  5
15
100
AcDbSymbolTableRecord
100
AcDbLinetypeTableRecord
  2
BYLAYER
 70
0
  3

 72
65
 73
0
 40
0.0
  0
LTYPE
  5
16
100
AcDbSymbolTableRecord
100
AcDbLinetypeTableRecord
  2
CONTINUOUS
 70
64
  3
Solid line
 72
65
 73
0
 40
0.0
  0
LTYPE
  5
1F5
100
AcDbSymbolTableRecord
100
AcDbLinetypeTableRecord
  2
CENTER
 70
64
  3
____ _ ____ _ ____ _ ____ _ ____ _ ____ _ ____
 72
65
 73
4
 40
0.6
 49
0.375
 74
0
 49
-0.075
 74
0
 49
0.075
 74
0
 49
-0.075
 74
0
  0
LTYPE
  5
1F6
100
AcDbSymbolTableRecord
100
AcDbLinetypeTableRecord
  2
HIDDEN
 70
64
  3
- - - - - - - - - - - - - - - - - - - -
 72
65
 73
2
 40
0.2
 49
0.1
 74
0
 49
-0.1
 74
0
  0
LTYPE
  5
1F7
100
AcDbSymbolTableRecord
100
AcDbLinetypeTableRecord
  2
PHANTOM
 70
64
  3
_____ _ _ _____ _ _ _____ _ _ _____
 72
65
 73
6
 40
0.8
 49
0.45
 74
0
 49
-0.05
 74
0
 49
0.1
 74
0
 49
-0.05
 74
0
 49
0.1
 74
0
 49
-0.05
 74
0
  0
LTYPE
  5
1F8
100
AcDbSymbolTableRecord
100
AcDbLinetypeTableRecord
  2
DOT
 70
64
  3
. . . . . . . . . . . . . . . . . . . .
 72
65
 73
2
 40
0.2
 49
0.1
 74
0
 49
-0.1
 74
0
  0
LTYPE
  5
1F9
100
AcDbSymbolTableRecord
100
AcDbLinetypeTableRecord
  2
DASHED
 70
64
  3
- - - - - - - - - - - - - - - - - - - -
 72
65
 73
2
 40
0.2
 49
0.1
 74
0
 49
-0.1
 74
0
  0
ENDTAB
  0
TABLE
  2
LAYER
  5
2
100
AcDbSymbolTable
 70
36
  0
LAYER
  5
10
100
AcDbSymbolTableRecord
100
AcDbLayerTableRecord
  2
0
 70
0
 62
7
  6
CONTINUOUS
370
-3
390
F
  0
LAYER
  5
1FA
100
AcDbSymbolTableRecord
100
AcDbLayerTableRecord
  2
DEFAULT_1
 70
0
 62
7
  6
CENTER
370
-3
390
F
  0
LAYER
  5
1FB
100
AcDbSymbolTableRecord
100
AcDbLayerTableRecord
  2
DEFAULT_2
 70
0
 62
8
  6
HIDDEN
370
-3
390
F
  0
LAYER
  5
1FC
100
AcDbSymbolTableRecord
100
AcDbLayerTableRecord
  2
DEFAULT_3
 70
0
 62
7
  6
PHANTOM
370
-3
390
F
  0
LAYER
  5
1FD
100
AcDbSymbolTableRecord
100
AcDbLayerTableRecord
  2
01_ALL_DTM_PLN
 70
0
 62
7
  6
CONTINUOUS
370
-3
390
F
  0
LAYER
  5
1FE
100
AcDbSymbolTableRecord
100
AcDbLayerTableRecord
  2
01__ASM_ALL_DTM_PLN
 70
0
 62
7
  6
CONTINUOUS
370
-3
390
F
  0
LAYER
  5
1FF
100
AcDbSymbolTableRecord
100
AcDbLayerTableRecord
  2
01__ASM_DEF_DTM_PLN
 70
0
 62
7
  6
CONTINUOUS
370
-3
390
F
  0
LAYER
  5
200
100
AcDbSymbolTableRecord
100
AcDbLayerTableRecord
  2
01___PRT_ALL_DTM_PLN
 70
0
 62
7
  6
CONTINUOUS
370
-3
390
F
  0
LAYER
  5
201
100
AcDbSymbolTableRecord
100
AcDbLayerTableRecord
  2
01___PRT_DEF_DTM_PLN
 70
0
 62
7
  6
CONTINUOUS
370
-3
390
F
  0
LAYER
  5
202
100
AcDbSymbolTableRecord
100
AcDbLayerTableRecord
  2
02_ALL_AXES
 70
0
 62
7
  6
CONTINUOUS
370
-3
390
F
  0
LAYER
  5
203
100
AcDbSymbolTableRecord
100
AcDbLayerTableRecord
  2
02__ASM_ALL_AXES
 70
0
 62
7
  6
CONTINUOUS
370
-3
390
F
  0
LAYER
  5
204
100
AcDbSymbolTableRecord
100
AcDbLayerTableRecord
  2
02___PRT_ALL_AXES
 70
0
 62
7
  6
CONTINUOUS
370
-3
390
F
  0
LAYER
  5
205
100
AcDbSymbolTableRecord
100
AcDbLayerTableRecord
  2
03_ALL_CURVES
 70
0
 62
7
  6
CONTINUOUS
370
-3
390
F
  0
LAYER
  5
206
100
AcDbSymbolTableRecord
100
AcDbLayerTableRecord
  2
03__ASM_ALL_CURVES
 70
0
 62
7
  6
CONTINUOUS
370
-3
390
F
  0
LAYER
  5
207
100
AcDbSymbolTableRecord
100
AcDbLayerTableRecord
  2
03___PRT_ALL_CURVES
 70
0
 62
7
  6
CONTINUOUS
370
-3
390
F
  0
LAYER
  5
208
100
AcDbSymbolTableRecord
100
AcDbLayerTableRecord
  2
04_ALL_DTM_PNT
 70
0
 62
7
  6
CONTINUOUS
370
-3
390
F
  0
LAYER
  5
209
100
AcDbSymbolTableRecord
100
AcDbLayerTableRecord
  2
04__ASM_ALL_DTM_PNT
 70
0
 62
7
  6
CONTINUOUS
370
-3
390
F
  0
LAYER
  5
20A
100
AcDbSymbolTableRecord
100
AcDbLayerTableRecord
  2
04___PRT_ALL_DTM_PNT
 70
0
 62
7
  6
CONTINUOUS
370
-3
390
F
  0
LAYER
  5
20B
100
AcDbSymbolTableRecord
100
AcDbLayerTableRecord
  2
05_ALL_DTM_CSYS
 70
0
 62
7
  6
CONTINUOUS
370
-3
390
F
  0
LAYER
  5
20C
100
AcDbSymbolTableRecord
100
AcDbLayerTableRecord
  2
05__ASM_ALL_DTM_CSYS
 70
0
 62
7
  6
CONTINUOUS
370
-3
390
F
  0
LAYER
  5
20D
100
AcDbSymbolTableRecord
100
AcDbLayerTableRecord
  2
05__ASM_DEF_DTM_CSYS
 70
0
 62
7
  6
CONTINUOUS
370
-3
390
F
  0
LAYER
  5
20E
100
AcDbSymbolTableRecord
100
AcDbLayerTableRecord
  2
05___PRT_ALL_DTM_CSYS
 70
0
 62
7
  6
CONTINUOUS
370
-3
390
F
  0
LAYER
  5
20F
100
AcDbSymbolTableRecord
100
AcDbLayerTableRecord
  2
05___PRT_DEF_DTM_CSYS
 70
0
 62
7
  6
CONTINUOUS
370
-3
390
F
  0
LAYER
  5
210
100
AcDbSymbolTableRecord
100
AcDbLayerTableRecord
  2
06_ALL_SURFS
 70
0
 62
7
  6
CONTINUOUS
370
-3
390
F
  0
LAYER
  5
211
100
AcDbSymbolTableRecord
100
AcDbLayerTableRecord
  2
06__ASM_ALL_SURFS
 70
0
 62
7
  6
CONTINUOUS
370
-3
390
F
  0
LAYER
  5
212
100
AcDbSymbolTableRecord
100
AcDbLayerTableRecord
  2
06___PRT_ALL_SURFS
 70
0
 62
7
  6
CONTINUOUS
370
-3
390
F
  0
LAYER
  5
213
100
AcDbSymbolTableRecord
100
AcDbLayerTableRecord
  2
07__ASM_ALL_SKELETONS
 70
0
 62
7
  6
CONTINUOUS
370
-3
390
F
  0
ENDTAB
  0
TABLE
  2
STYLE
  5
3
100
AcDbSymbolTable
 70
1
  0
STYLE
  5
11
100
AcDbSymbolTableRecord
100
AcDbTextStyleTableRecord
  2
STANDARD
 70
0
 40
0.0
 41
0.8
 50
0.0
 71
0
 42
0.2
  3
txt
  4

  0
STYLE
  5
214
100
AcDbSymbolTableRecord
100
AcDbTextStyleTableRecord
  2
TEXTSTYLE_1
 70
0
 40
0.0
 41
0.8
 50
0.0
 71
0
 42
0.2
  3
gdt
  4

  0
ENDTAB
  0
TABLE
  2
VIEW
  5
6
100
AcDbSymbolTable
 70
0
  0
ENDTAB
  0
TABLE
  2
UCS
  5
7
100
AcDbSymbolTable
 70
0
  0
ENDTAB
  0
TABLE
  2
APPID
  5
9
100
AcDbSymbolTable
 70
1
  0
APPID
  5
215
100
AcDbSymbolTableRecord
100
AcDbRegAppTableRecord
  2
ACAD
 70
0
  0
ENDTAB
  0
TABLE
  2
BLOCK_RECORD
  5
1
100
AcDbSymbolTable
 70
0
  0
BLOCK_RECORD
  5
216
100
AcDbSymbolTableRecord
100
AcDbBlockTableRecord
  2
*Model_Space
  0
BLOCK_RECORD
  5
217
100
AcDbSymbolTableRecord
100
AcDbBlockTableRecord
  2
*Paper_Space
  0
BLOCK_RECORD
  5
218
100
AcDbSymbolTableRecord
100
AcDbBlockTableRecord
  2
_CLOSED
  0
ENDTAB
  0
TABLE
  2
DIMSTYLE
  5
A
100
AcDbSymbolTable
 70
1
100
AcDbDimStyleTable
 71
0
  0
DIMSTYLE
105
219
100
AcDbSymbolTableRecord
100
AcDbDimStyleTableRecord
  2
STANDARD
 70
0
  3

  4

 40
1.0
 41
0.1875
 42
0.0625
 43
0.38
 44
0.125
 45
0.0
 46
0.0
 47
0.01
 48
0.01
140
0.15625
141
0.09
142
0.0
143
25.4
144
1.0
145
0.0
146
1.0
147
0.625
 71
0.0
 72
0.0
 73
1
 74
1
 75
0
 76
0
 77
0
 78
8
 79
2
170
0
171
1
172
0
173
0
174
0
175
0
176
0
177
0
178
0
270
2
179
2
271
2
272
2
273
2
274
2
275
0
280
0
281
0
282
0
283
1
284
8
285
0
286
0
287
3
288
0
340
11
278
46
341
218
342
218
343
218
344
218
  0
ENDTAB
  0
ENDSEC
  0
SECTION
  2
BLOCKS
  0
BLOCK
  5
20
100
AcDbEntity
  8
0
100
AcDbBlockBegin
  2
*Model_Space
 70
0
 10
0.0
 20
0.0
 30
0.0
  3
*Model_Space
  1

  0
ENDBLK
  5
21
100
AcDbEntity
  8
0
100
AcDbBlockEnd
  0
BLOCK
  5
1C
100
AcDbEntity
  8
0
100
AcDbBlockBegin
  2
*Paper_Space
 70
0
 10
0.0
 20
0.0
 30
0.0
  3
*Paper_Space
  1

  0
ENDBLK
  5
1D
100
AcDbEntity
  8
0
100
AcDbBlockEnd
  0
BLOCK
  5
21A
100
AcDbEntity
  8
0
100
AcDbBlockBegin
  2
_CLOSED
 70
64
 10
0.0
 20
0.0
  3
_CLOSED
  1

  0
LINE
  5
21B
100
AcDbEntity
  8
0
  6
BYBLOCK
 62
0
100
AcDbLine
 10
0.0
 20
0.0
 11
-1.0
 21
0.1666666667
  0
LINE
  5
21C
100
AcDbEntity
  8
0
  6
BYBLOCK
 62
0
100
AcDbLine
 10
-1.0
 20
0.1666666667
 11
-1.0
 21
-0.1666666667
  0
LINE
  5
21D
100
AcDbEntity
  8
0
  6
BYBLOCK
 62
0
100
AcDbLine
 10
-1.0
 20
-0.1666666667
 11
0.0
 21
0.0
  0
LINE
  5
21E
100
AcDbEntity
  8
0
  6
BYBLOCK
 62
0
100
AcDbLine
 10
-1.0
 20
0.0
 11
0.0
 21
0.0
  0
ENDBLK
  5
21F
100
AcDbEntity
  8
0
  6
BYBLOCK
 62
0
100
AcDbBlockEnd
  0
ENDSEC
  0
SECTION
  2
ENTITIES
  0
LINE
  5
220
100
AcDbEntity
  8
0
100
AcDbLine
 62
7
  6
CONTINUOUS
 10
-222.1509360189
 20
242.9410236547
 11
-222.1509360189
 21
182.2649391682
  0
LINE
  5
221
100
AcDbEntity
  8
0
100
AcDbLine
 62
7
  6
CONTINUOUS
 10
-222.1509360189
 20
244.7796928815
 11
-222.1509360189
 21
250.2957005621
  0
LINE
  5
222
100
AcDbEntity
  8
0
100
AcDbLine
 62
7
  6
CONTINUOUS
 10
-221.6509360189
 20
242.9410236547
 11
-221.6509360189
 21
243.7441789755
  0
LINE
  5
223
100
AcDbEntity
  8
0
100
AcDbLine
 62
7
  6
CONTINUOUS
 10
-220.8492833396
 20
248.6341995793
 11
-220.8492833396
 21
243.1181918987
  0
LINE
  5
224
100
AcDbEntity
  8
0
100
AcDbLine
 62
7
  6
CONTINUOUS
 10
-220.8492833396
 20
241.2795226719
 11
-220.8492833396
 21
180.6034381854
  0
LINE
  5
225
100
AcDbEntity
  8
0
100
AcDbLine
 62
7
  6
CONTINUOUS
 10
-220.4360601849
 20
242.8795218788
 11
-220.4360601849
 21
241.390289404
  0
LINE
  5
226
100
AcDbEntity
  8
0
100
AcDbLine
 62
7
  6
CONTINUOUS
 10
-209.0517582371
 20
253.7010177514
 11
-209.0517582371
 21
266.4927773671
  0
LINE
  5
227
100
AcDbEntity
  8
0
100
AcDbLine
 62
7
  6
CONTINUOUS
 10
-202.6680086847
 20
241.261115817
 11
-202.6680086847
 21
242.7549724461
  0
LINE
  5
228
100
AcDbEntity
  8
0
100
AcDbLine
 62
7
  6
CONTINUOUS
 10
-202.6064236102
 20
242.4977630518
 11
-202.6064236102
 21
242.2909748815
  0
LINE
  5
229
100
AcDbEntity
  8
0
100
AcDbLine
 62
7
  6
CONTINUOUS
 10
-202.2812288888
 20
241.9188848444
 11
-202.2812288888
 21
242.1256730148
  0
LINE
  5
22A
100
AcDbEntity
  8
0
100
AcDbLine
 62
7
  6
CONTINUOUS
 10
-198.9503590266
 20
242.7856809291
 11
-198.8606262211
 21
244.0453557798
  0
LINE
  5
22B
100
AcDbEntity
  8
0
100
AcDbLine
 62
7
  6
CONTINUOUS
 10
-198.5354314997
 20
243.6732657427
 11
-198.6120362354
 21
242.597883573
  0
LINE
  5
22C
100
AcDbEntity
  8
0
100
AcDbLine
 62
7
  6
CONTINUOUS
 10
-213.0047676554
 20
254.3889290351
 11
-209.0517582371
 21
257.9873414333
  0
LINE
  5
22D
100
AcDbEntity
  8
0
100
AcDbLine
 62
7
  6
CONTINUOUS
 10
-199.8005858698
 20
243.9181688245
 11
-199.7683292832
 21
243.4740781511
  0
LINE
  5
22E
100
AcDbEntity
  8
0
100
AcDbLine
 62
7
  6
CONTINUOUS
 10
-191.316767674
 20
277.0824724177
 11
-191.3167678148
 21
271.6476210988
  0
LINE
  5
22F
100
AcDbEntity
  8
0
100
AcDbLine
 62
7
  6
CONTINUOUS
 10
-197.2415535497
 20
252.0472355912
 11
-197.6881618373
 21
237.7028232058
  0
LWPOLYLINE
  5
230
100
AcDbEntity
  8
0
100
AcDbPolyline
 62
7
  6
CONTINUOUS
 90
5
 70
0
 10
-192.8232132093
 20
284.746473023
 10
-196.3934777143
 20
283.4995194215
 10
-200.2822718919
 20
281.4354430112
 10
-203.9371491456
 20
278.710801858
 10
-207.0067245251
 20
275.6773246166
  0
LINE
  5
231
100
AcDbEntity
  8
0
100
AcDbLine
 62
7
  6
CONTINUOUS
 10
-100.7952580569
 20
111.6118995426
 11
-99.142365438
 21
112.0549664714
  0
LINE
  5
232
100
AcDbEntity
  8
0
100
AcDbLine
 62
7
  6
CONTINUOUS
 10
-9.0597177105
 20
136.202114089
 11
-7.4068250917
 21
136.6451810178
  0
LINE
  5
233
100
AcDbEntity
  8
0
100
AcDbLine
 62
7
  6
CONTINUOUS
 10
-7.3637338762
 20
136.7519531987
 11
-7.1062050449
 21
136.8209852139
  0
LINE
  5
234
100
AcDbEntity
  8
0
100
AcDbLine
 62
7
  6
CONTINUOUS
 10
-9.1723208184
 20
136.2671515529
 11
-99.0992742226
 21
112.1617386523
  0
LINE
  5
235
100
AcDbEntity
  8
0
100
AcDbLine
 62
7
  6
CONTINUOUS
 10
-100.9078611648
 20
111.6769370065
 11
-101.3210843195
 21
111.5661702743
  0
LINE
  5
236
100
AcDbEntity
  8
0
100
AcDbLine
 62
7
  6
CONTINUOUS
 10
-101.3210843195
 20
111.5661702743
 11
-220.8492833396
 21
180.6034381854
  0
LINE
  5
237
100
AcDbEntity
  8
0
100
AcDbLine
 62
7
  6
CONTINUOUS
 10
-100.9078611648
 20
111.6769370065
 11
-100.7952580569
 21
111.6118995426
  0
LINE
  5
238
100
AcDbEntity
  8
0
100
AcDbLine
 62
7
  6
CONTINUOUS
 10
-6.3933971207
 20
139.1562708872
 11
-5.980173966
 21
139.2670376194
  0
LINE
  5
239
100
AcDbEntity
  8
0
100
AcDbLine
 62
7
  6
CONTINUOUS
 10
-99.7818300859
 20
114.1229894121
 11
-100.1950532406
 21
114.0122226799
  0
LINE
  5
23A
100
AcDbEntity
  8
0
100
AcDbLine
 62
7
  6
CONTINUOUS
 10
-198.9503590266
 20
242.7856809291
 11
-199.1186093102
 21
242.9781940609
  0
LINE
  5
23B
100
AcDbEntity
  8
0
100
AcDbLine
 62
7
  6
CONTINUOUS
 10
-126.8385813199
 20
268.952984636
 11
-126.8385874138
 21
200.2757935673
  0
LINE
  5
23C
100
AcDbEntity
  8
0
100
AcDbLine
 62
7
  6
CONTINUOUS
 10
-130.9708204153
 20
199.1681258555
 11
-129.1216557273
 21
258.5671012517
  0
LINE
  5
23D
100
AcDbEntity
  8
0
100
AcDbLine
 62
7
  6
CONTINUOUS
 10
-222.1509360189
 20
222.1555733919
 11
-223.9835706742
 21
223.2140691336
  0
LINE
  5
23E
100
AcDbEntity
  8
0
100
AcDbLine
 62
7
  6
CONTINUOUS
 10
-226.3311589104
 20
227.1079407432
 11
-222.1509360189
 21
224.6935216349
  0
LINE
  5
23F
100
AcDbEntity
  8
0
100
AcDbLine
 62
7
  6
CONTINUOUS
 10
-68.6611502528
 20
140.1382261798
 11
-69.0552611304
 21
140.3658573034
  0
LINE
  5
240
100
AcDbEntity
  8
0
100
AcDbLine
 62
7
  6
CONTINUOUS
 10
-67.2531300546
 20
141.5380046106
 11
-67.6472409322
 21
141.7656357342
  0
LINE
  5
241
100
AcDbEntity
  8
0
100
AcDbLine
 62
7
  6
CONTINUOUS
 10
-68.3550591516
 20
142.6251733634
 11
-68.7491700292
 21
142.852804487
  0
LINE
  5
242
100
AcDbEntity
  8
0
100
AcDbLine
 62
7
  6
CONTINUOUS
 10
-67.6472417719
 20
141.7656348215
 11
-65.6108331669
 21
140.3056616581
  0
LINE
  5
243
100
AcDbEntity
  8
0
100
AcDbLine
 62
7
  6
CONTINUOUS
 10
-65.2167229065
 20
140.0780294676
 11
-67.2531308976
 21
141.5380036983
  0
LINE
  5
244
100
AcDbEntity
  8
0
100
AcDbLine
 62
7
  6
CONTINUOUS
 10
-68.6611505359
 20
140.1382264386
 11
-66.2170729221
 21
138.3460659682
  0
LINE
  5
245
100
AcDbEntity
  8
0
100
AcDbLine
 62
7
  6
CONTINUOUS
 10
-106.962690346
 20
190.1923026953
 11
-106.9274711354
 21
189.6414766398
  0
LINE
  5
246
100
AcDbEntity
  8
0
100
AcDbLine
 62
7
  6
CONTINUOUS
 10
-115.3918443041
 20
196.1104233675
 11
-115.3923139426
 21
274.628512415
  0
LINE
  5
247
100
AcDbEntity
  8
0
100
AcDbLine
 62
7
  6
CONTINUOUS
 10
-109.7704446794
 20
187.6052081141
 11
-109.7704446794
 21
189.0990647433
  0
LINE
  5
248
100
AcDbEntity
  8
0
100
AcDbLine
 62
7
  6
CONTINUOUS
 10
-109.4148464445
 20
188.4942439712
 11
-109.4148464445
 21
188.2874558008
  0
LINE
  5
249
100
AcDbEntity
  8
0
100
AcDbLine
 62
7
  6
CONTINUOUS
 10
-108.851830905
 20
187.9622684814
 11
-108.851830905
 21
188.1690566518
  0
LINE
  5
24A
100
AcDbEntity
  8
0
100
AcDbLine
 62
7
  6
CONTINUOUS
 10
-104.1156172862
 20
260.9604696588
 11
-106.4796444503
 21
185.0224774611
  0
LINE
  5
24B
100
AcDbEntity
  8
0
100
AcDbLine
 62
7
  6
CONTINUOUS
 10
-57.127830579
 20
277.5884002177
 11
-55.8140909311
 21
278.9747826569
  0
LINE
  5
24C
100
AcDbEntity
  8
0
100
AcDbLine
 62
7
  6
CONTINUOUS
 10
-14.7055027739
 20
183.8907501483
 11
-78.9427292675
 21
166.6716093945
  0
LINE
  5
24D
100
AcDbEntity
  8
0
100
AcDbLine
 62
7
  6
CONTINUOUS
 10
-17.6317350559
 20
184.3005795087
 11
-67.7792581386
 21
170.8582610036
  0
LINE
  5
24E
100
AcDbEntity
  8
0
100
AcDbLine
 62
7
  6
CONTINUOUS
 10
-70.8378106389
 20
170.8226650829
 11
-70.9633667525
 21
170.7890090783
  0
LINE
  5
24F
100
AcDbEntity
  8
0
100
AcDbLine
 62
7
  6
CONTINUOUS
 10
-71.6535575141
 20
170.936913368
 11
-71.7791136277
 21
170.9032573634
  0
LINE
  5
250
100
AcDbEntity
  8
0
100
AcDbLine
 62
7
  6
CONTINUOUS
 10
-71.7791136277
 20
170.9032573634
 11
-70.9633667525
 21
170.7890090783
  0
LINE
  5
251
100
AcDbEntity
  8
0
100
AcDbLine
 62
7
  6
CONTINUOUS
 10
-73.317598027
 20
171.1699682295
 11
-70.0546105262
 21
170.712975089
  0
LINE
  5
252
100
AcDbEntity
  8
0
100
AcDbLine
 62
7
  6
CONTINUOUS
 10
-220.8492833396
 20
241.2795226719
 11
-101.3210843195
 21
172.2422547608
  0
LINE
  5
253
100
AcDbEntity
  8
0
100
AcDbLine
 62
7
  6
CONTINUOUS
 10
-100.9078611648
 20
172.353021493
 11
-220.4360601849
 21
241.390289404
  0
LINE
  5
254
100
AcDbEntity
  8
0
100
AcDbLine
 62
7
  6
CONTINUOUS
 10
-101.3210843195
 20
174.0809239876
 11
-220.8492833396
 21
243.1181918987
  0
LINE
  5
255
100
AcDbEntity
  8
0
100
AcDbLine
 62
7
  6
CONTINUOUS
 10
-102.6160200602
 20
180.3448625028
 11
-220.8492833396
 21
248.6341995793
  0
LINE
  5
256
100
AcDbEntity
  8
0
100
AcDbLine
 62
7
  6
CONTINUOUS
 10
-103.347875079
 20
181.8150582781
 11
-102.6160200602
 21
181.3923406596
  0
LINE
  5
257
100
AcDbEntity
  8
0
100
AcDbLine
 62
7
  6
CONTINUOUS
 10
-103.3051067282
 20
183.1889234294
 11
-106.4796444503
 21
185.0224774611
  0
LINE
  5
258
100
AcDbEntity
  8
0
100
AcDbLine
 62
7
  6
CONTINUOUS
 10
-130.9708204153
 20
199.1681258555
 11
-197.6881618373
 21
237.7028232058
  0
LINE
  5
259
100
AcDbEntity
  8
0
100
AcDbLine
 62
7
  6
CONTINUOUS
 10
-102.6160200602
 20
276.4153296064
 11
-102.6160200602
 21
180.3448625028
  0
LINE
  5
25A
100
AcDbEntity
  8
0
100
AcDbLine
 62
7
  6
CONTINUOUS
 10
-101.3210843195
 20
275.6673987718
 11
-101.3210843195
 21
174.0809239876
  0
LINE
  5
25B
100
AcDbEntity
  8
0
100
AcDbLine
 62
7
  6
CONTINUOUS
 10
-101.3210843195
 20
172.2422547608
 11
-101.3210843195
 21
111.5661702743
  0
LINE
  5
25C
100
AcDbEntity
  8
0
100
AcDbLine
 62
7
  6
CONTINUOUS
 10
-100.9078611648
 20
275.778165504
 11
-100.9078611648
 21
174.1916907198
  0
LINE
  5
25D
100
AcDbEntity
  8
0
100
AcDbLine
 62
7
  6
CONTINUOUS
 10
-100.9078611648
 20
172.353021493
 11
-100.9078611648
 21
111.6769370065
  0
LINE
  5
25E
100
AcDbEntity
  8
0
100
AcDbLine
 62
7
  6
CONTINUOUS
 10
-100.1950532406
 20
114.0122226798
 11
-100.1950532406
 21
275.017024133
  0
LINE
  5
25F
100
AcDbEntity
  8
0
100
AcDbLine
 62
7
  6
CONTINUOUS
 10
-102.6160200602
 20
205.3247003511
 11
-103.347875079
 21
181.8150604359
  0
LINE
  5
260
100
AcDbEntity
  8
0
100
AcDbLine
 62
7
  6
CONTINUOUS
 10
-100.9078611648
 20
172.353021493
 11
-101.3210843195
 21
172.2422547608
  0
LINE
  5
261
100
AcDbEntity
  8
0
100
AcDbLine
 62
7
  6
CONTINUOUS
 10
-100.9078611648
 20
174.1916907198
 11
-101.3210843195
 21
174.0809239876
  0
LINE
  5
262
100
AcDbEntity
  8
0
100
AcDbLine
 62
7
  6
CONTINUOUS
 10
-37.8578436224
 20
191.5192847945
 11
-27.7492108651
 21
194.2289592275
  0
LINE
  5
263
100
AcDbEntity
  8
0
100
AcDbLine
 62
7
  6
CONTINUOUS
 10
-65.9194076184
 20
183.2312073382
 11
-66.6647226778
 21
183.2400353809
  0
LINE
  5
264
100
AcDbEntity
  8
0
100
AcDbLine
 62
7
  6
CONTINUOUS
 10
-67.5003462123
 20
183.2826620073
 11
-66.7550311529
 21
183.2738339646
  0
LINE
  5
265
100
AcDbEntity
  8
0
100
AcDbLine
 62
7
  6
CONTINUOUS
 10
-68.4307818761
 20
182.5258167696
 11
-67.5625403243
 21
182.4815262408
  0
LINE
  5
266
100
AcDbEntity
  8
0
100
AcDbLine
 62
7
  6
CONTINUOUS
 10
-66.7269167898
 20
182.4388996144
 11
-65.807518459
 21
182.3919994883
  0
LINE
  5
267
100
AcDbEntity
  8
0
100
AcDbLine
 62
7
  6
CONTINUOUS
 10
-65.745324347
 20
183.1931352548
 11
-66.6647226778
 21
183.2400353809
  0
LINE
  5
268
100
AcDbEntity
  8
0
100
AcDbLine
 62
7
  6
CONTINUOUS
 10
-67.5003462123
 20
183.2826620073
 11
-68.3544382091
 21
183.3262307424
  0
LINE
  5
269
100
AcDbEntity
  8
0
100
AcDbLine
 62
7
  6
CONTINUOUS
 10
-79.2426482877
 20
177.3796299088
 11
-75.5565817683
 21
176.8633830294
  0
LINE
  5
26A
100
AcDbEntity
  8
0
100
AcDbLine
 62
7
  6
CONTINUOUS
 10
-68.3604449158
 20
179.5012419444
 11
-67.6781933968
 21
179.4056901642
  0
LINE
  5
26B
100
AcDbEntity
  8
0
100
AcDbLine
 62
7
  6
CONTINUOUS
 10
-66.9637200124
 20
179.3885862471
 11
-66.8413947267
 21
179.3714541507
  0
LINE
  5
26C
100
AcDbEntity
  8
0
100
AcDbLine
 62
7
  6
CONTINUOUS
 10
-66.8319021772
 20
182.283641726
 11
-67.5625403243
 21
182.4815262408
  0
LINE
  5
26D
100
AcDbEntity
  8
0
100
AcDbLine
 62
7
  6
CONTINUOUS
 10
-66.7269167898
 20
182.4388996144
 11
-65.9962786427
 21
182.2410150996
  0
LINE
  5
26E
100
AcDbEntity
  8
0
100
AcDbLine
 62
7
  6
CONTINUOUS
 10
-40.0722300542
 20
150.2065409869
 11
-40.4018702255
 21
150.3892160122
  0
LINE
  5
26F
100
AcDbEntity
  8
0
100
AcDbLine
 62
7
  6
CONTINUOUS
 10
-68.3550592854
 20
168.0500451146
 11
-68.0254191375
 21
167.8673700991
  0
LINE
  5
270
100
AcDbEntity
  8
0
100
AcDbLine
 62
7
  6
CONTINUOUS
 10
-41.4022293479
 20
148.6572365433
 11
-41.1741584668
 21
148.528615241
  0
LINE
  5
271
100
AcDbEntity
  8
0
100
AcDbLine
 62
7
  6
CONTINUOUS
 10
-67.025059977
 20
169.5993496339
 11
-67.2531308456
 21
169.7279709685
  0
LINE
  5
272
100
AcDbEntity
  8
0
100
AcDbLine
 62
7
  6
CONTINUOUS
 10
-220.4257237971
 20
252.1667727111
 11
-226.3311589104
 21
255.5776423585
  0
LINE
  5
273
100
AcDbEntity
  8
0
100
AcDbLine
 62
7
  6
CONTINUOUS
 10
-39.766139901
 20
147.883693152
 11
-40.1602507786
 21
148.1113242756
  0
LINE
  5
274
100
AcDbEntity
  8
0
100
AcDbLine
 62
7
  6
CONTINUOUS
 10
-38.66421063
 20
149.5985419303
 11
-39.0583215076
 21
149.8261730539
  0
LINE
  5
275
100
AcDbEntity
  8
0
100
AcDbLine
 62
7
  6
CONTINUOUS
 10
-69.7630785793
 20
168.658044438
 11
-70.1571894569
 21
168.8856755616
  0
LINE
  5
276
100
AcDbEntity
  8
0
100
AcDbLine
 62
7
  6
CONTINUOUS
 10
-68.3550586893
 20
168.0500447946
 11
-68.7491695669
 21
168.2776759182
  0
LINE
  5
277
100
AcDbEntity
  8
0
100
AcDbLine
 62
7
  6
CONTINUOUS
 10
-115.3914812542
 20
196.1105027741
 11
-106.2979756345
 21
190.8580978499
  0
LINE
  5
278
100
AcDbEntity
  8
0
100
AcDbLine
 62
7
  6
CONTINUOUS
 10
-67.2531304279
 20
169.7279715315
 11
-67.3443030355
 21
169.7806311365
  0
LINE
  5
279
100
AcDbEntity
  8
0
100
AcDbLine
 62
7
  6
CONTINUOUS
 10
-9.1723208184
 20
136.2671515529
 11
-9.0597177105
 21
136.202114089
  0
LINE
  5
27A
100
AcDbEntity
  8
0
100
AcDbLine
 62
7
  6
CONTINUOUS
 10
-223.9835706742
 20
260.7300817636
 11
-213.0047676554
 21
254.3889290351
  0
LINE
  5
27B
100
AcDbEntity
  8
0
100
AcDbLine
 62
7
  6
CONTINUOUS
 10
-197.3996019756
 20
246.9709486952
 11
-209.0517582371
 21
253.7010177514
  0
LINE
  5
27C
100
AcDbEntity
  8
0
100
AcDbLine
 62
7
  6
CONTINUOUS
 10
-79.5426424414
 20
273.7859833325
 11
-79.779445664
 21
270.7356699652
  0
LINE
  5
27D
100
AcDbEntity
  8
0
100
AcDbLine
 62
7
  6
CONTINUOUS
 10
-79.841639776
 20
269.9345341987
 11
-80.0784429986
 21
266.8842208314
  0
LINE
  5
27E
100
AcDbEntity
  8
0
100
AcDbLine
 62
7
  6
CONTINUOUS
 10
-109.4148464445
 20
188.2874558008
 11
-108.492756815
 21
188.5346269815
  0
LINE
  5
27F
100
AcDbEntity
  8
0
100
AcDbLine
 62
7
  6
CONTINUOUS
 10
-67.2635429897
 20
186.3329753745
 11
-67.141217704
 21
186.3158432781
  0
LINE
  5
280
100
AcDbEntity
  8
0
100
AcDbLine
 62
7
  6
CONTINUOUS
 10
-66.3055941695
 20
186.2732166517
 11
-66.4279194552
 21
186.2903487481
  0
LINE
  5
281
100
AcDbEntity
  8
0
100
AcDbLine
 62
7
  6
CONTINUOUS
 10
-67.3895455866
 20
186.4335831429
 11
-66.6281818364
 21
186.3269514101
  0
LINE
  5
282
100
AcDbEntity
  8
0
100
AcDbLine
 62
7
  6
CONTINUOUS
 10
-7.5623897475
 20
178.3031987647
 11
-5.7206362905
 21
178.045254566
  0
LINE
  5
283
100
AcDbEntity
  8
0
100
AcDbLine
 62
7
  6
CONTINUOUS
 10
0.5675388408
 20
181.7517057139
 11
-0.7920392846
 21
181.9421195224
  0
LINE
  5
284
100
AcDbEntity
  8
0
100
AcDbLine
 62
7
  6
CONTINUOUS
 10
-8.3360935748
 20
182.9986914712
 11
-32.0623361673
 21
186.3216371193
  0
LINE
  5
285
100
AcDbEntity
  8
0
100
AcDbLine
 62
7
  6
CONTINUOUS
 10
-10.8746984853
 20
187.4007035972
 11
-43.5045734933
 21
191.9706350026
  0
LINE
  5
286
100
AcDbEntity
  8
0
100
AcDbLine
 62
7
  6
CONTINUOUS
 10
-40.0231271931
 20
191.8225582316
 11
-37.8578436224
 21
191.5192847945
  0
LINE
  5
287
100
AcDbEntity
  8
0
100
AcDbLine
 62
7
  6
CONTINUOUS
 10
-66.6281821892
 20
186.3269488925
 11
-66.4279194552
 21
186.2903487481
  0
LINE
  5
288
100
AcDbEntity
  8
0
100
AcDbLine
 62
7
  6
CONTINUOUS
 10
-40.0722300591
 20
175.6314125753
 11
-40.4663409367
 21
175.8590436989
  0
LINE
  5
289
100
AcDbEntity
  8
0
100
AcDbLine
 62
7
  6
CONTINUOUS
 10
-38.6642107647
 20
176.9942657291
 11
-39.0583216423
 21
177.2218968527
  0
LINE
  5
28A
100
AcDbEntity
  8
0
100
AcDbLine
 62
7
  6
CONTINUOUS
 10
-94.7075531951
 20
271.8475460189
 11
-78.9427292675
 21
166.6716093945
  0
LINE
  5
28B
100
AcDbEntity
  8
0
100
AcDbLine
 62
7
  6
CONTINUOUS
 10
-79.2781772574
 20
177.5123969853
 11
-93.467883731
 21
272.1798462156
  0
LINE
  5
28C
100
AcDbEntity
  8
0
100
AcDbLine
 62
7
  6
CONTINUOUS
 10
-93.1000454098
 20
272.5934004951
 11
-78.8195692691
 21
177.3203761699
  0
LINE
  5
28D
100
AcDbEntity
  8
0
100
AcDbLine
 62
7
  6
CONTINUOUS
 10
-89.8370579089
 20
272.1364073546
 11
-75.5565817683
 21
176.8633830294
  0
LINE
  5
28E
100
AcDbEntity
  8
0
100
AcDbLine
 62
7
  6
CONTINUOUS
 10
-66.4279194552
 20
186.2903487481
 11
-66.6647226778
 21
183.2400353809
  0
LINE
  5
28F
100
AcDbEntity
  8
0
100
AcDbLine
 62
7
  6
CONTINUOUS
 10
-66.7269167898
 20
182.4388996144
 11
-66.9637200124
 21
179.3885862471
  0
LINE
  5
290
100
AcDbEntity
  8
0
100
AcDbLine
 62
7
  6
CONTINUOUS
 10
-58.1290140681
 20
291.4855901154
 11
-57.6155670652
 21
294.6815079705
  0
LINE
  5
291
100
AcDbEntity
  8
0
100
AcDbLine
 62
7
  6
CONTINUOUS
 10
-78.9427292675
 20
166.6716093945
 11
-100.1950532406
 21
114.0122226798
  0
LINE
  5
292
100
AcDbEntity
  8
0
100
AcDbLine
 62
7
  6
CONTINUOUS
 10
-99.7818300859
 20
114.1229894121
 11
-100.7952580569
 21
111.6118995426
  0
LINE
  5
293
100
AcDbEntity
  8
0
100
AcDbLine
 62
7
  6
CONTINUOUS
 10
-99.142365438
 20
112.0549664714
 11
-76.876613494
 21
167.2254430555
  0
LINE
  5
294
100
AcDbEntity
  8
0
100
AcDbLine
 62
7
  6
CONTINUOUS
 10
-126.8385874138
 20
200.2757935673
 11
-130.9708204153
 21
199.1681258555
  0
LINE
  5
295
100
AcDbEntity
  8
0
100
AcDbLine
 62
7
  6
CONTINUOUS
 10
-17.8307291745
 20
192.6851720491
 11
-2.6826252794
 21
190.5636254086
  0
LINE
  5
296
100
AcDbEntity
  8
0
100
AcDbLine
 62
7
  6
CONTINUOUS
 10
-22.2080595476
 20
194.9584304295
 11
5.8440445973
 21
191.0296323055
  0
LINE
  5
297
100
AcDbEntity
  8
0
100
AcDbLine
 62
7
  6
CONTINUOUS
 10
5.581837738
 20
192.7789605657
 11
-25.0358082656
 21
197.0670716862
  0
LINE
  5
298
100
AcDbEntity
  8
0
100
AcDbLine
 62
7
  6
CONTINUOUS
 10
-11.4049788095
 20
197.4715940528
 11
-28.0827777121
 21
199.8073798
  0
LINE
  5
299
100
AcDbEntity
  8
0
100
AcDbLine
 62
7
  6
CONTINUOUS
 10
-201.3532464518
 20
280.6370519416
 11
-201.8192420903
 21
280.9062023681
  0
LINE
  5
29A
100
AcDbEntity
  8
0
100
AcDbLine
 62
7
  6
CONTINUOUS
 10
-58.1290140681
 20
291.4855901154
 11
-58.1290140681
 21
285.5099151281
  0
LINE
  5
29B
100
AcDbEntity
  8
0
100
AcDbLine
 62
7
  6
CONTINUOUS
 10
-57.6155670652
 20
294.6815079705
 11
-57.6155670652
 21
310.3101963988
  0
LINE
  5
29C
100
AcDbEntity
  8
0
100
AcDbLine
 62
7
  6
CONTINUOUS
 10
-56.5352479461
 20
301.5073297223
 11
-56.5352479461
 21
285.878641294
  0
LINE
  5
29D
100
AcDbEntity
  8
0
100
AcDbLine
 62
7
  6
CONTINUOUS
 10
-55.8531333783
 20
284.8033305126
 11
-55.8531333783
 21
300.432018941
  0
LINE
  5
29E
100
AcDbEntity
  8
0
100
AcDbLine
 62
7
  6
CONTINUOUS
 10
-7.1173611988
 20
205.0912928866
 11
-6.0494084318
 21
204.8202806408
  0
LINE
  5
29F
100
AcDbEntity
  8
0
100
AcDbLine
 62
7
  6
CONTINUOUS
 10
-25.1316323661
 20
211.9928777659
 11
-23.6483592446
 21
211.6165105419
  0
LINE
  5
2A0
100
AcDbEntity
  8
0
100
AcDbLine
 62
7
  6
CONTINUOUS
 10
-55.7483920929
 20
304.9839506937
 11
-55.8065630586
 21
305.9328717852
  0
LINE
  5
2A1
100
AcDbEntity
  8
0
100
AcDbLine
 62
7
  6
CONTINUOUS
 10
-46.2936478845
 20
292.4619017948
 11
-46.2936478845
 21
276.8332133665
  0
LINE
  5
2A2
100
AcDbEntity
  8
0
100
AcDbLine
 62
7
  6
CONTINUOUS
 10
-44.6176415895
 20
275.9424665045
 11
-44.6176415895
 21
291.5711549329
  0
LINE
  5
2A3
100
AcDbEntity
  8
0
100
AcDbLine
 62
7
  6
CONTINUOUS
 10
-2.9841770695
 20
218.8100845842
 11
-4.0521298118
 21
219.0810968207
  0
LINE
  5
2A4
100
AcDbEntity
  8
0
100
AcDbLine
 62
7
  6
CONTINUOUS
 10
-56.6176658613
 20
274.1848067322
 11
-57.127830579
 21
277.5884002177
  0
LINE
  5
2A5
100
AcDbEntity
  8
0
100
AcDbLine
 62
7
  6
CONTINUOUS
 10
-34.6290140681
 20
306.1949439304
 11
-34.6290140681
 21
307.5739458505
  0
LINE
  5
2A6
100
AcDbEntity
  8
0
100
AcDbLine
 62
7
  6
CONTINUOUS
 10
-28.0343347303
 20
285.6471654032
 11
-28.0343347303
 21
270.0184769748
  0
LINE
  5
2A7
100
AcDbEntity
  8
0
100
AcDbLine
 62
7
  6
CONTINUOUS
 10
-25.6195934736
 20
269.4479021674
 11
-25.6195934736
 21
285.0765905957
  0
LINE
  5
2A8
100
AcDbEntity
  8
0
100
AcDbLine
 62
7
  6
CONTINUOUS
 10
8.2732464217
 20
220.9472386732
 11
9.7565195432
 21
220.5708714492
  0
LINE
  5
2A9
100
AcDbEntity
  8
0
100
AcDbLine
 62
7
  6
CONTINUOUS
 10
-19.3910988873
 20
231.0467551364
 11
-20.8743720088
 21
231.4231223604
  0
LINE
  5
2AA
100
AcDbEntity
  8
0
100
AcDbLine
 62
7
  6
CONTINUOUS
 10
-9.1949483505
 20
229.1320476293
 11
-8.6535555882
 21
228.994659462
  0
LINE
  5
2AB
100
AcDbEntity
  8
0
100
AcDbLine
 62
7
  6
CONTINUOUS
 10
-22.2138960304
 20
236.8001277845
 11
-20.730622909
 21
236.4237605605
  0
LINE
  5
2AC
100
AcDbEntity
  8
0
100
AcDbLine
 62
7
  6
CONTINUOUS
 10
-7.0996535782
 20
236.08671285
 11
-7.6410462878
 21
236.2241009976
  0
LINE
  5
2AD
100
AcDbEntity
  8
0
100
AcDbLine
 62
7
  6
CONTINUOUS
 10
-202.6064236102
 20
242.2909748815
 11
-201.9694149851
 21
242.3771692066
  0
LINE
  5
2AE
100
AcDbEntity
  8
0
100
AcDbLine
 62
7
  6
CONTINUOUS
 10
-198.9503590266
 20
242.7856809291
 11
-198.595235521
 21
242.8337330742
  0
LINE
  5
2AF
100
AcDbEntity
  8
0
100
AcDbLine
 62
7
  6
CONTINUOUS
 10
-197.2416140688
 20
252.0472217177
 11
-129.1217031503
 21
258.5670903804
  0
LINE
  5
2B0
100
AcDbEntity
  8
0
100
AcDbLine
 62
7
  6
CONTINUOUS
 10
-104.1156599018
 20
260.9604598896
 11
-102.6160200602
 21
261.1039928842
  0
LINE
  5
2B1
100
AcDbEntity
  8
0
100
AcDbLine
 62
7
  6
CONTINUOUS
 10
-81.4751679021
 20
266.9968765287
 11
-80.792916383
 21
266.9013247485
  0
LINE
  5
2B2
100
AcDbEntity
  8
0
100
AcDbLine
 62
7
  6
CONTINUOUS
 10
-80.0784429986
 20
266.8842208314
 11
-79.956117713
 21
266.867088735
  0
LINE
  5
2B3
100
AcDbEntity
  8
0
100
AcDbLine
 62
7
  6
CONTINUOUS
 10
-1.5685455495
 20
242.3342271727
 11
-0.085272428
 21
241.9578599488
  0
LINE
  5
2B4
100
AcDbEntity
  8
0
100
AcDbLine
 62
7
  6
CONTINUOUS
 10
14.0137799005
 20
240.0011160437
 11
12.530506779
 21
240.3774832677
  0
LINE
  5
2B5
100
AcDbEntity
  8
0
100
AcDbLine
 62
7
  6
CONTINUOUS
 10
-79.9466251635
 20
269.7792763103
 11
-80.6772633106
 21
269.9771608251
  0
LINE
  5
2B6
100
AcDbEntity
  8
0
100
AcDbLine
 62
7
  6
CONTINUOUS
 10
-79.841639776
 20
269.9345341987
 11
-79.111001629
 21
269.7366496839
  0
LINE
  5
2B7
100
AcDbEntity
  8
0
100
AcDbLine
 62
7
  6
CONTINUOUS
 10
-94.7075531951
 20
271.8475460189
 11
-100.1950532406
 21
275.017024133
  0
LINE
  5
2B8
100
AcDbEntity
  8
0
100
AcDbLine
 62
7
  6
CONTINUOUS
 10
-101.3210843195
 20
275.6673987718
 11
-102.6160200602
 21
276.4153296064
  0
LINE
  5
2B9
100
AcDbEntity
  8
0
100
AcDbLine
 62
7
  6
CONTINUOUS
 10
-100.1623019293
 20
275.3475443359
 11
-100.9078611648
 21
275.778165504
  0
LINE
  5
2BA
100
AcDbEntity
  8
0
100
AcDbLine
 62
7
  6
CONTINUOUS
 10
-7.5623897475
 20
178.3031987647
 11
-9.0402181665
 21
187.2719182125
  0
LINE
  5
2BB
100
AcDbEntity
  8
0
100
AcDbLine
 62
7
  6
CONTINUOUS
 10
-9.1723208184
 20
136.2671515529
 11
-9.1723208184
 21
183.1158081056
  0
LINE
  5
2BC
100
AcDbEntity
  8
0
100
AcDbLine
 62
7
  6
CONTINUOUS
 10
-7.1062050449
 20
137.390062722
 11
-7.1062050449
 21
136.8209852139
  0
LINE
  5
2BD
100
AcDbEntity
  8
0
100
AcDbLine
 62
7
  6
CONTINUOUS
 10
-4.5371233904
 20
282.1006023873
 11
-4.5371233904
 21
266.471913959
  0
LINE
  5
2BE
100
AcDbEntity
  8
0
100
AcDbLine
 62
7
  6
CONTINUOUS
 10
-1.7512696386
 20
266.3083760482
 11
-1.7512696386
 21
281.9370644765
  0
LINE
  5
2BF
100
AcDbEntity
  8
0
100
AcDbLine
 62
7
  6
CONTINUOUS
 10
-84.3912405879
 20
281.6860648105
 11
-58.1290140681
 21
288.7257986165
  0
LINE
  5
2C0
100
AcDbEntity
  8
0
100
AcDbLine
 62
7
  6
CONTINUOUS
 10
-58.1290140681
 20
290.0574534465
 11
-87.6542280887
 21
282.143057951
  0
LINE
  5
2C1
100
AcDbEntity
  8
0
100
AcDbLine
 62
7
  6
CONTINUOUS
 10
-79.0341306047
 20
270.7268419226
 11
-79.779445664
 21
270.7356699652
  0
LINE
  5
2C2
100
AcDbEntity
  8
0
100
AcDbLine
 62
7
  6
CONTINUOUS
 10
-80.6150691986
 20
270.7782965916
 11
-79.8697541392
 21
270.769468549
  0
LINE
  5
2C3
100
AcDbEntity
  8
0
100
AcDbLine
 62
7
  6
CONTINUOUS
 10
-81.5455048623
 20
270.0214513539
 11
-80.6772633106
 21
269.9771608251
  0
LINE
  5
2C4
100
AcDbEntity
  8
0
100
AcDbLine
 62
7
  6
CONTINUOUS
 10
-79.841639776
 20
269.9345341987
 11
-78.9222414453
 21
269.8876340726
  0
LINE
  5
2C5
100
AcDbEntity
  8
0
100
AcDbLine
 62
7
  6
CONTINUOUS
 10
-78.8600473333
 20
270.6887698391
 11
-79.779445664
 21
270.7356699652
  0
LINE
  5
2C6
100
AcDbEntity
  8
0
100
AcDbLine
 62
7
  6
CONTINUOUS
 10
-80.6150691986
 20
270.7782965916
 11
-81.4691611953
 21
270.8218653267
  0
LINE
  5
2C7
100
AcDbEntity
  8
0
100
AcDbLine
 62
7
  6
CONTINUOUS
 10
-89.8370579089
 20
272.1364073546
 11
-93.4857158263
 21
272.6474150247
  0
LINE
  5
2C8
100
AcDbEntity
  8
0
100
AcDbLine
 62
7
  6
CONTINUOUS
 10
-80.378265976
 20
273.8286099589
 11
-80.2559406903
 21
273.8114778625
  0
LINE
  5
2C9
100
AcDbEntity
  8
0
100
AcDbLine
 62
7
  6
CONTINUOUS
 10
-79.4203171558
 20
273.7688512361
 11
-79.5426424414
 21
273.7859833325
  0
LINE
  5
2CA
100
AcDbEntity
  8
0
100
AcDbLine
 62
7
  6
CONTINUOUS
 10
-80.5042685729
 20
273.9292177272
 11
-79.7429048227
 21
273.8225859944
  0
LINE
  5
2CB
100
AcDbEntity
  8
0
100
AcDbLine
 62
7
  6
CONTINUOUS
 10
-56.6176658613
 20
274.1848067322
 11
-49.981648523
 21
273.255408626
  0
LINE
  5
2CC
100
AcDbEntity
  8
0
100
AcDbLine
 62
7
  6
CONTINUOUS
 10
-88.6254224423
 20
282.2790772148
 11
-84.3912405879
 21
281.6860648105
  0
LINE
  5
2CD
100
AcDbEntity
  8
0
100
AcDbLine
 62
7
  6
CONTINUOUS
 10
-79.7429051754
 20
273.8225834768
 11
-79.5426424414
 21
273.7859833325
  0
LINE
  5
2CE
100
AcDbEntity
  8
0
100
AcDbLine
 62
7
  6
CONTINUOUS
 10
-16.4733625517
 20
255.854005155
 11
-17.9566356731
 21
256.230372379
  0
LINE
  5
2CF
100
AcDbEntity
  8
0
100
AcDbLine
 62
7
  6
CONTINUOUS
 10
-93.0566212252
 20
286.6164122432
 11
-92.4036940328
 21
286.2392936228
  0
LINE
  5
2D0
100
AcDbEntity
  8
0
100
AcDbLine
 62
7
  6
CONTINUOUS
 10
-94.3515569659
 20
287.8240103846
 11
-93.0566212252
 21
287.0760795499
  0
LINE
  5
2D1
100
AcDbEntity
  8
0
100
AcDbLine
 62
7
  6
CONTINUOUS
 10
-91.9305901464
 20
286.4257049111
 11
-87.951685692
 21
284.1275635933
  0
LINE
  5
2D2
100
AcDbEntity
  8
0
100
AcDbLine
 62
7
  6
CONTINUOUS
 10
-7.0939165494
 20
187.2071734139
 11
-5.7206362905
 21
178.045254566
  0
LINE
  5
2D3
100
AcDbEntity
  8
0
100
AcDbLine
 62
7
  6
CONTINUOUS
 10
-2.420418497
 20
188.8142976616
 11
-2.6826252794
 21
190.5636254086
  0
LINE
  5
2D4
100
AcDbEntity
  8
0
100
AcDbLine
 62
7
  6
CONTINUOUS
 10
9.5444149774
 20
182.2997652891
 11
-9.0597177105
 21
136.202114089
  0
LINE
  5
2D5
100
AcDbEntity
  8
0
100
AcDbLine
 62
7
  6
CONTINUOUS
 10
-7.4068250917
 20
136.6451810178
 11
-6.3933971207
 21
139.1562708872
  0
LINE
  5
2D6
100
AcDbEntity
  8
0
100
AcDbLine
 62
7
  6
CONTINUOUS
 10
-5.980173966
 20
139.2670376194
 11
11.8724720287
 21
183.5026417116
  0
LINE
  5
2D7
100
AcDbEntity
  8
0
100
AcDbLine
 62
7
  6
CONTINUOUS
 10
-87.7331069755
 20
282.6693030169
 11
-58.1290140681
 21
290.6048424305
  0
LINE
  5
2D8
100
AcDbEntity
  8
0
100
AcDbLine
 62
7
  6
CONTINUOUS
 10
-87.951685692
 20
284.1275635933
 11
-58.022220329
 21
292.1503208775
  0
LINE
  5
2D9
100
AcDbEntity
  8
0
100
AcDbLine
 62
7
  6
CONTINUOUS
 10
-91.9305901464
 20
286.4257049111
 11
-57.6155670652
 21
295.6240349863
  0
LINE
  5
2DA
100
AcDbEntity
  8
0
100
AcDbLine
 62
7
  6
CONTINUOUS
 10
-209.0517582371
 20
255.367391277
 11
-218.8735525646
 21
252.7346054577
  0
LINE
  5
2DB
100
AcDbEntity
  8
0
100
AcDbLine
 62
7
  6
CONTINUOUS
 10
-93.0566212252
 20
286.6164122432
 11
-57.6155670652
 21
296.1165811228
  0
LINE
  5
2DC
100
AcDbEntity
  8
0
100
AcDbLine
 62
7
  6
CONTINUOUS
 10
-57.6155670652
 20
296.5762484295
 11
-93.0566212252
 21
287.0760795499
  0
LINE
  5
2DD
100
AcDbEntity
  8
0
100
AcDbLine
 62
7
  6
CONTINUOUS
 10
-57.6155670652
 20
297.6712938891
 11
-94.3515569659
 21
287.8240103846
  0
LINE
  5
2DE
100
AcDbEntity
  8
0
100
AcDbLine
 62
7
  6
CONTINUOUS
 10
-99.7887059378
 20
284.0451622195
 11
-192.1289488058
 21
284.8390189823
  0
LINE
  5
2DF
100
AcDbEntity
  8
0
100
AcDbLine
 62
7
  6
CONTINUOUS
 10
5.581837738
 20
192.7789605657
 11
5.8440445973
 21
191.0296323055
  0
LINE
  5
2E0
100
AcDbEntity
  8
0
100
AcDbLine
 62
7
  6
CONTINUOUS
 10
20.6207487116
 20
282.3621448168
 11
20.6207487116
 21
266.7334563884
  0
LINE
  5
2E1
100
AcDbEntity
  8
0
100
AcDbLine
 62
7
  6
CONTINUOUS
 10
23.3535939786
 20
267.0018525387
 11
23.3535939786
 21
282.630540967
  0
LINE
  5
2E2
100
AcDbEntity
  8
0
100
AcDbLine
 62
7
  6
CONTINUOUS
 10
-192.8229828173
 20
284.7465466735
 11
-192.1290299721
 21
284.8390186008
  0
LINE
  5
2E3
100
AcDbEntity
  8
0
100
AcDbLine
 62
7
  6
CONTINUOUS
 10
-152.3890089311
 20
295.4915491226
 11
-153.0829617764
 21
295.3990771953
  0
LWPOLYLINE
  5
2E4
100
AcDbEntity
  8
0
100
AcDbPolyline
 62
7
  6
CONTINUOUS
 90
3
 70
0
 10
-147.3806749302
 20
296.2130314132
 10
-150.3969803726
 20
295.9599155262
 10
-153.0828139511
 20
295.3991051229
  0
LINE
  5
2E5
100
AcDbEntity
  8
0
100
AcDbLine
 62
7
  6
CONTINUOUS
 10
-152.3889348763
 20
295.4915586623
 11
-58.996804691
 21
297.3010455706
  0
LINE
  5
2E6
100
AcDbEntity
  8
0
100
AcDbLine
 62
7
  6
CONTINUOUS
 10
-57.6155670652
 20
297.7870819731
 11
-147.3797847423
 21
296.2129818346
  0
LINE
  5
2E7
100
AcDbEntity
  8
0
100
AcDbLine
 62
7
  6
CONTINUOUS
 10
-192.8245994044
 20
284.7461127972
 11
-192.8229828173
 21
284.7465466735
  0
LINE
  5
2E8
100
AcDbEntity
  8
0
100
AcDbLine
 62
7
  6
CONTINUOUS
 10
-152.3889348763
 20
295.4915586623
 11
-192.1289488058
 21
284.8390189823
  0
LINE
  5
2E9
100
AcDbEntity
  8
0
100
AcDbLine
 62
7
  6
CONTINUOUS
 10
-153.0829617764
 20
295.3990771953
 11
-192.8229828173
 21
284.7465466735
  0
LINE
  5
2EA
100
AcDbEntity
  8
0
100
AcDbLine
 62
7
  6
CONTINUOUS
 10
43.6092236048
 20
286.3919752275
 11
43.6092236048
 21
270.7632867991
  0
LINE
  5
2EB
100
AcDbEntity
  8
0
100
AcDbLine
 62
7
  6
CONTINUOUS
 10
45.8730094684
 20
271.4227561296
 11
45.8730094684
 21
287.051444558
  0
LINE
  5
2EC
100
AcDbEntity
  8
0
100
AcDbLine
 62
7
  6
CONTINUOUS
 10
47.3709859319
 20
306.1949439304
 11
47.3709859319
 21
307.5739458506
  0
LINE
  5
2ED
100
AcDbEntity
  8
0
100
AcDbLine
 62
7
  6
CONTINUOUS
 10
70.8709859319
 20
291.4855901154
 11
70.357538929
 21
288.2896722603
  0
LINE
  5
2EE
100
AcDbEntity
  8
0
100
AcDbLine
 62
7
  6
CONTINUOUS
 10
60.9285143779
 20
293.5765884699
 11
60.9285143779
 21
277.9479000416
  0
LINE
  5
2EF
100
AcDbEntity
  8
0
100
AcDbLine
 62
7
  6
CONTINUOUS
 10
62.3785999616
 20
278.8980443249
 11
62.3785999616
 21
294.5267327532
  0
LINE
  5
2F0
100
AcDbEntity
  8
0
100
AcDbLine
 62
7
  6
CONTINUOUS
 10
68.4903639568
 20
309.2446063937
 11
68.5485349225
 21
308.2956853023
  0
LINE
  5
2F1
100
AcDbEntity
  8
0
100
AcDbLine
 62
7
  6
CONTINUOUS
 10
69.27721981
 20
312.7212273651
 11
69.27721981
 21
305.8382787131
  0
LINE
  5
2F2
100
AcDbEntity
  8
0
100
AcDbLine
 62
7
  6
CONTINUOUS
 10
69.9419160102
 20
302.8221923066
 11
69.9419160102
 21
287.1935038783
  0
LINE
  5
2F3
100
AcDbEntity
  8
0
100
AcDbLine
 62
7
  6
CONTINUOUS
 10
70.357538929
 20
288.2896722603
 11
70.357538929
 21
303.9183606887
  0
LINE
  5
2F4
100
AcDbEntity
  8
0
100
AcDbLine
 62
7
  6
CONTINUOUS
 10
70.8709859319
 20
291.4855901154
 11
70.8709859319
 21
285.5099151281
  0
LINE
  5
2F5
100
AcDbEntity
  8
0
100
AcDbLine
 62
7
  6
CONTINUOUS
 10
64.7562203752
 20
306.2570044595
 11
64.7651867657
 21
306.1996216802
  0
LINE
  5
2F6
100
AcDbEntity
  8
0
100
AcDbLine
 62
7
  6
CONTINUOUS
 10
64.7163411789
 20
306.2560200082
 11
64.733836999
 21
306.198878739
  0
ARC
  5
2F7
100
AcDbEntity
  8
0
100
AcDbCircle
 62
7
  6
CONTINUOUS
 10
-79.4327597085
 20
-76.459243024
 40
260.0422967198
100
AcDbArc
 50
87.2055761606
 51
87.5572989033
  0
ARC
  5
2F8
100
AcDbEntity
  8
0
100
AcDbCircle
 62
7
  6
CONTINUOUS
 10
-92.5474826936
 20
11.0363915858
 40
260.0422966943
100
AcDbArc
 50
87.2055761605
 51
87.5572989033
  0
ARC
  5
2F9
100
AcDbEntity
  8
0
100
AcDbCircle
 62
7
  6
CONTINUOUS
 10
-84.4934871557
 20
166.9455607681
 40
103.9247751598
100
AcDbArc
 50
86.3454233297
 51
86.9887629441
  0
ARC
  5
2FA
100
AcDbEntity
  8
0
100
AcDbCircle
 62
7
  6
CONTINUOUS
 10
-73.0642366811
 20
159.0230809739
 40
10.1848000192
100
AcDbArc
 50
71.0873721318
 51
76.8503885048
  0
ARC
  5
2FB
100
AcDbEntity
  8
0
100
AcDbCircle
 62
7
  6
CONTINUOUS
 10
-73.4130306105
 20
159.3935550379
 40
10.0349807928
100
AcDbArc
 50
71.0677959736
 51
72.7934454702
  0
ARC
  5
2FC
100
AcDbEntity
  8
0
100
AcDbCircle
 62
7
  6
CONTINUOUS
 10
-72.4100792966
 20
177.0292067765
 40
5.9404523829
100
AcDbArc
 50
239.5498672644
 51
240.5472610561
  0
ARC
  5
2FD
100
AcDbEntity
  8
0
100
AcDbCircle
 62
7
  6
CONTINUOUS
 10
-72.4357394855
 20
176.9830364539
 40
5.8876317954
100
AcDbArc
 50
240.5437743043
 51
244.1116751854
  0
ARC
  5
2FE
100
AcDbEntity
  8
0
100
AcDbCircle
 62
7
  6
CONTINUOUS
 10
-106.2704446794
 20
184.8472042738
 40
5.8
100
AcDbArc
 50
90.3316852923
 51
119.8457002033
  0
ARC
  5
2FF
100
AcDbEntity
  8
0
100
AcDbCircle
 62
7
  6
CONTINUOUS
 10
-72.492906903
 20
176.36306765
 40
5.7777966729
100
AcDbArc
 50
260.4950935623
 51
262.0270790379
  0
ARC
  5
300
100
AcDbEntity
  8
0
100
AcDbCircle
 62
7
  6
CONTINUOUS
 10
-73.3121028579
 20
176.4468728324
 40
5.7471495005
100
AcDbArc
 50
267.4711620447
 51
270.0582060662
  0
ARC
  5
301
100
AcDbEntity
  8
0
100
AcDbCircle
 62
7
  6
CONTINUOUS
 10
-72.51094674
 20
176.8169091617
 40
5.7053411193
100
AcDbArc
 50
244.0627252986
 51
254.552490967
  0
ARC
  5
302
100
AcDbEntity
  8
0
100
AcDbCircle
 62
7
  6
CONTINUOUS
 10
-72.539702056
 20
176.7197273213
 40
5.6040111493
100
AcDbArc
 50
254.5712175137
 51
261.0230219652
  0
ARC
  5
303
100
AcDbEntity
  8
0
100
AcDbCircle
 62
7
  6
CONTINUOUS
 10
-108.7395818175
 20
186.5712076454
 40
4.0420505424
100
AcDbArc
 50
53.4138343017
 51
54.6274150226
  0
ARC
  5
304
100
AcDbEntity
  8
0
100
AcDbCircle
 62
7
  6
CONTINUOUS
 10
-76.8650644694
 20
318.2269721031
 40
48.5455996352
100
AcDbArc
 50
264.4773555825
 51
266.3605514941
  0
ARC
  5
305
100
AcDbEntity
  8
0
100
AcDbCircle
 62
7
  6
CONTINUOUS
 10
-171.2294539247
 20
232.2275456773
 40
47.2895733712
100
AcDbArc
 50
152.0544996212
 51
152.1819673107
  0
ARC
  5
306
100
AcDbEntity
  8
0
100
AcDbCircle
 62
7
  6
CONTINUOUS
 10
-182.495737927
 20
238.7160918144
 40
46.9665414901
100
AcDbArc
 50
152.0489901526
 51
158.9604699355
  0
ARC
  5
307
100
AcDbEntity
  8
0
100
AcDbCircle
 62
7
  6
CONTINUOUS
 10
-181.0215801215
 20
254.6889308505
 40
32.5767585706
100
AcDbArc
 50
135.1066852792
 51
137.5730576353
  0
ARC
  5
308
100
AcDbEntity
  8
0
100
AcDbCircle
 62
7
  6
CONTINUOUS
 10
-191.4316037497
 20
251.7596305278
 40
30.9422959771
100
AcDbArc
 50
106.7401653832
 51
109.615718764
  0
ARC
  5
309
100
AcDbEntity
  8
0
100
AcDbCircle
 62
7
  6
CONTINUOUS
 10
-186.29882043
 20
262.936678199
 40
22.6650025101
100
AcDbArc
 50
104.9057791185
 51
106.6018661782
  0
ARC
  5
30A
100
AcDbEntity
  8
0
100
AcDbCircle
 62
7
  6
CONTINUOUS
 10
-91.1064075856
 20
275.6672186705
 40
10.2146767355
100
AcDbArc
 50
179.1756617897
 51
179.9989897829
  0
ARC
  5
30B
100
AcDbEntity
  8
0
100
AcDbCircle
 62
7
  6
CONTINUOUS
 10
-83.6547895978
 20
273.9680562316
 40
9.5472840258
100
AcDbArc
 50
166.8042742978
 51
177.5601773933
  0
ARC
  5
30C
100
AcDbEntity
  8
0
100
AcDbCircle
 62
7
  6
CONTINUOUS
 10
-83.7503843039
 20
273.992078693
 40
9.4488721902
100
AcDbArc
 50
159.3286666473
 51
166.8021154918
  0
ARC
  5
30D
100
AcDbEntity
  8
0
100
AcDbCircle
 62
7
  6
CONTINUOUS
 10
-83.8807656518
 20
273.9697114586
 40
9.3214457636
100
AcDbArc
 50
177.5112125232
 51
188.4907619585
  0
ARC
  5
30E
100
AcDbEntity
  8
0
100
AcDbCircle
 62
7
  6
CONTINUOUS
 10
-83.9919282558
 20
274.0805315639
 40
9.1916545326
100
AcDbArc
 50
155.9162765045
 51
159.3130312199
  0
ARC
  5
30F
100
AcDbEntity
  8
0
100
AcDbCircle
 62
7
  6
CONTINUOUS
 10
-90.9188791219
 20
279.1021209066
 40
8.2555410329
100
AcDbArc
 50
105.0075506505
 51
106.1393576247
  0
ARC
  5
310
100
AcDbEntity
  8
0
100
AcDbCircle
 62
7
  6
CONTINUOUS
 10
-84.8035396185
 20
274.5552976746
 40
8.2489514438
100
AcDbArc
 50
140.8181555653
 51
144.5518089412
  0
ARC
  5
311
100
AcDbEntity
  8
0
100
AcDbCircle
 62
7
  6
CONTINUOUS
 10
-85.474017539
 20
275.1975577949
 40
7.3189537993
100
AcDbArc
 50
126.0170075658
 51
132.425451537
  0
ARC
  5
312
100
AcDbEntity
  8
0
100
AcDbCircle
 62
7
  6
CONTINUOUS
 10
-198.9762875337
 20
248.5099221161
 40
7.1204475767
100
AcDbArc
 50
277.6384458173
 51
281.4098638294
  0
ARC
  5
313
100
AcDbEntity
  8
0
100
AcDbCircle
 62
7
  6
CONTINUOUS
 10
-85.7283891235
 20
275.5417694076
 40
6.8909646885
100
AcDbArc
 50
119.3013764146
 51
125.9892252336
  0
ARC
  5
314
100
AcDbEntity
  8
0
100
AcDbCircle
 62
7
  6
CONTINUOUS
 10
-86.159971346
 20
276.8012062629
 40
6.0753037145
100
AcDbArc
 50
105.0071404818
 51
106.2819687308
  0
ARC
  5
315
100
AcDbEntity
  8
0
100
AcDbCircle
 62
7
  6
CONTINUOUS
 10
-199.1680086847
 20
238.5031119767
 40
5.8
100
AcDbArc
 50
73.1786079982
 51
119.8457002033
  0
ARC
  5
316
100
AcDbEntity
  8
0
100
AcDbCircle
 62
7
  6
CONTINUOUS
 10
-80.4844263792
 20
270.3922637947
 40
2.6291126061
100
AcDbArc
 50
345.2595735236
 51
355.5658096706
  0
ARC
  5
317
100
AcDbEntity
  8
0
100
AcDbCircle
 62
7
  6
CONTINUOUS
 10
-78.9218272698
 20
270.1734469492
 40
2.6291125471
100
AcDbArc
 50
165.2595732934
 51
175.5658097865
  0
ARC
  5
318
100
AcDbEntity
  8
0
100
AcDbCircle
 62
7
  6
CONTINUOUS
 10
-80.4562670852
 20
270.3908310561
 40
2.6009269356
100
AcDbArc
 50
355.5493175099
 51
5.9180363008
  0
ARC
  5
319
100
AcDbEntity
  8
0
100
AcDbCircle
 62
7
  6
CONTINUOUS
 10
-78.9499865118
 20
270.1748796778
 40
2.6009269294
100
AcDbArc
 50
175.5493174969
 51
185.918036199
  0
ARC
  5
31A
100
AcDbEntity
  8
0
100
AcDbCircle
 62
7
  6
CONTINUOUS
 10
-80.3729319472
 20
269.3326192058
 40
2.4660450807
100
AcDbArc
 50
262.0547845482
 51
276.8584862899
  0
ARC
  5
31B
100
AcDbEntity
  8
0
100
AcDbCircle
 62
7
  6
CONTINUOUS
 10
-80.0837770274
 20
271.3802115846
 40
2.4660450807
100
AcDbArc
 50
82.0547845482
 51
96.8584862899
  0
ARC
  5
31C
100
AcDbEntity
  8
0
100
AcDbCircle
 62
7
  6
CONTINUOUS
 10
-80.3743513492
 20
269.3136550913
 40
2.4470671121
100
AcDbArc
 50
257.2596447372
 51
262.0263233446
  0
ARC
  5
31D
100
AcDbEntity
  8
0
100
AcDbCircle
 62
7
  6
CONTINUOUS
 10
-80.8148872486
 20
270.4386501613
 40
1.9712247124
100
AcDbArc
 50
343.7678551003
 51
355.5609861483
  0
ARC
  5
31E
100
AcDbEntity
  8
0
100
AcDbCircle
 62
7
  6
CONTINUOUS
 10
-80.774394419
 20
270.4375080085
 40
1.9307659807
100
AcDbArc
 50
355.5017742846
 51
7.4774413949
  0
ARC
  5
31F
100
AcDbEntity
  8
0
100
AcDbCircle
 62
7
  6
CONTINUOUS
 10
-220.9659948398
 20
244.7805739755
 40
1.1848196364
100
AcDbArc
 50
180.0426173751
 51
192.0056227625
  0
ARC
  5
320
100
AcDbEntity
  8
0
100
AcDbCircle
 62
7
  6
CONTINUOUS
 10
6.5325682183
 20
172.871977652
 40
159.6181508127
100
AcDbArc
 50
86.1395570531
 51
87.1412882838
  0
ARC
  5
321
100
AcDbEntity
  8
0
100
AcDbCircle
 62
7
  6
CONTINUOUS
 10
5.5641482594
 20
180.9414676056
 40
151.5224444021
100
AcDbArc
 50
95.0899184235
 51
96.1282859478
  0
ARC
  5
322
100
AcDbEntity
  8
0
100
AcDbCircle
 62
7
  6
CONTINUOUS
 10
11.7998088148
 20
157.0839577844
 40
125.5883478941
100
AcDbArc
 50
85.9724042448
 51
91.1070112168
  0
ARC
  5
323
100
AcDbEntity
  8
0
100
AcDbCircle
 62
7
  6
CONTINUOUS
 10
11.6877905527
 20
159.1881254281
 40
123.4824294235
100
AcDbArc
 50
91.0739070438
 51
96.2480927661
  0
ARC
  5
324
100
AcDbEntity
  8
0
100
AcDbCircle
 62
7
  6
CONTINUOUS
 10
-71.3787641698
 20
79.4499261776
 40
103.924775166
100
AcDbArc
 50
86.3454233298
 51
86.9887629441
  0
ARC
  5
325
100
AcDbEntity
  8
0
100
AcDbCircle
 62
7
  6
CONTINUOUS
 10
-43.9919027407
 20
153.2635006255
 40
28.4984827074
100
AcDbArc
 50
144.4490012482
 51
144.7088559169
  0
ARC
  5
326
100
AcDbEntity
  8
0
100
AcDbCircle
 62
7
  6
CONTINUOUS
 10
-25.9512324241
 20
162.3134545605
 40
19.850880065
100
AcDbArc
 50
130.2259515112
 51
131.3210376747
  0
ARC
  5
327
100
AcDbEntity
  8
0
100
AcDbCircle
 62
7
  6
CONTINUOUS
 10
-25.6979211844
 20
162.2506565428
 40
19.6341202328
100
AcDbArc
 50
127.6090417806
 51
131.3300606579
  0
ARC
  5
328
100
AcDbEntity
  8
0
100
AcDbCircle
 62
7
  6
CONTINUOUS
 10
-49.691112796
 20
167.0038334442
 40
12.9195535772
100
AcDbArc
 50
48.758841856
 51
49.1874010184
  0
ARC
  5
329
100
AcDbEntity
  8
0
100
AcDbCircle
 62
7
  6
CONTINUOUS
 10
-27.8938728115
 20
172.043777432
 40
10.9919156828
100
AcDbArc
 50
59.9933401045
 51
62.0704613635
  0
ARC
  5
32A
100
AcDbEntity
  8
0
100
AcDbCircle
 62
7
  6
CONTINUOUS
 10
-35.9270326334
 20
158.1343476173
 40
10.9454359981
100
AcDbArc
 50
238.9816895481
 51
239.9837515385
  0
ARC
  5
32B
100
AcDbEntity
  8
0
100
AcDbCircle
 62
7
  6
CONTINUOUS
 10
-69.0385855314
 20
179.0471444371
 40
10.3539696955
100
AcDbArc
 50
188.5242462058
 51
190.2214492353
  0
ARC
  5
32C
100
AcDbEntity
  8
0
100
AcDbCircle
 62
7
  6
CONTINUOUS
 10
-28.7512140673
 20
171.4568928932
 40
9.9289373582
100
AcDbArc
 50
60.0297627738
 51
73.1326695398
  0
ARC
  5
32D
100
AcDbEntity
  8
0
100
AcDbCircle
 62
7
  6
CONTINUOUS
 10
-70.7783127704
 20
178.3907845071
 40
8.0995922278
100
AcDbArc
 50
199.9380568278
 51
205.9616061888
  0
ARC
  5
32E
100
AcDbEntity
  8
0
100
AcDbCircle
 62
7
  6
CONTINUOUS
 10
-71.1779343532
 20
178.1909783506
 40
7.6528299686
100
AcDbArc
 50
205.9264074755
 51
212.1675935552
  0
ARC
  5
32F
100
AcDbEntity
  8
0
100
AcDbCircle
 62
7
  6
CONTINUOUS
 10
-71.905240186
 20
177.6553840649
 40
6.7476840344
100
AcDbArc
 50
221.0640772371
 51
225.3327176044
  0
ARC
  5
330
100
AcDbEntity
  8
0
100
AcDbCircle
 62
7
  6
CONTINUOUS
 10
-67.369703393
 20
182.8966292103
 40
2.6291126061
100
AcDbArc
 50
345.2595735236
 51
355.5658096706
  0
ARC
  5
331
100
AcDbEntity
  8
0
100
AcDbCircle
 62
7
  6
CONTINUOUS
 10
-65.8071042836
 20
182.6778123649
 40
2.6291125471
100
AcDbArc
 50
165.2595732934
 51
175.5658097865
  0
ARC
  5
332
100
AcDbEntity
  8
0
100
AcDbCircle
 62
7
  6
CONTINUOUS
 10
-67.3415440989
 20
182.8951964718
 40
2.6009269356
100
AcDbArc
 50
355.5493175099
 51
5.9180363008
  0
ARC
  5
333
100
AcDbEntity
  8
0
100
AcDbCircle
 62
7
  6
CONTINUOUS
 10
-65.8352635255
 20
182.6792450934
 40
2.6009269294
100
AcDbArc
 50
175.5493174969
 51
185.918036199
  0
ARC
  5
334
100
AcDbEntity
  8
0
100
AcDbCircle
 62
7
  6
CONTINUOUS
 10
-67.2582089609
 20
181.8369846214
 40
2.4660450807
100
AcDbArc
 50
262.0547845482
 51
276.8584862899
  0
ARC
  5
335
100
AcDbEntity
  8
0
100
AcDbCircle
 62
7
  6
CONTINUOUS
 10
-66.9690540411
 20
183.8845770002
 40
2.4660450807
100
AcDbArc
 50
82.0547845483
 51
96.8584862899
  0
ARC
  5
336
100
AcDbEntity
  8
0
100
AcDbCircle
 62
7
  6
CONTINUOUS
 10
-67.2596283629
 20
181.8180205073
 40
2.4470671124
100
AcDbArc
 50
257.2596447371
 51
262.0263233445
  0
ARC
  5
337
100
AcDbEntity
  8
0
100
AcDbCircle
 62
7
  6
CONTINUOUS
 10
-67.7001642624
 20
182.943015577
 40
1.9712247124
100
AcDbArc
 50
343.7678551003
 51
355.5609861483
  0
ARC
  5
338
100
AcDbEntity
  8
0
100
AcDbCircle
 62
7
  6
CONTINUOUS
 10
-67.6596714327
 20
182.9418734242
 40
1.9307659807
100
AcDbArc
 50
355.5017742847
 51
7.4774413948
  0
ARC
  5
339
100
AcDbEntity
  8
0
100
AcDbCircle
 62
7
  6
CONTINUOUS
 10
-5.2794214021
 20
235.785020232
 40
95.5417555815
100
AcDbArc
 50
105.5344840041
 51
106.9485290184
  0
ARC
  5
33A
100
AcDbEntity
  8
0
100
AcDbCircle
 62
7
  6
CONTINUOUS
 10
-63.7503414831
 20
230.7313375194
 40
48.5455996358
100
AcDbArc
 50
264.4773555825
 51
266.3605514941
  0
ARC
  5
33B
100
AcDbEntity
  8
0
100
AcDbCircle
 62
7
  6
CONTINUOUS
 10
-28.1960958071
 20
288.5614532099
 40
37.8076597883
100
AcDbArc
 50
121.9204052207
 51
124.5478940188
  0
ARC
  5
33C
100
AcDbEntity
  8
0
100
AcDbCircle
 62
7
  6
CONTINUOUS
 10
-6.4832484666
 20
218.8455721145
 40
31.750042238
100
AcDbArc
 50
262.0497473653
 51
272.8400626876
  0
ARC
  5
33D
100
AcDbEntity
  8
0
100
AcDbCircle
 62
7
  6
CONTINUOUS
 10
-6.3426682009
 20
219.8772668739
 40
29.5412499307
100
AcDbArc
 50
262.0589345827
 51
277.1170075033
  0
ARC
  5
33E
100
AcDbEntity
  8
0
100
AcDbCircle
 62
7
  6
CONTINUOUS
 10
-43.2749697681
 20
309.164876063
 40
15.3125110063
100
AcDbArc
 50
210.0055773689
 51
214.7717500301
  0
ARC
  5
33F
100
AcDbEntity
  8
0
100
AcDbCircle
 62
7
  6
CONTINUOUS
 10
-46.450123678
 20
306.7035877159
 40
11.7334884933
100
AcDbArc
 50
156.3718274357
 51
162.098751275
  0
ARC
  5
340
100
AcDbEntity
  8
0
100
AcDbCircle
 62
7
  6
CONTINUOUS
 10
-42.3194888289
 20
307.2433141659
 40
9.8218145425
100
AcDbArc
 50
193.88773701
 51
194.896551402
  0
ARC
  5
341
100
AcDbEntity
  8
0
100
AcDbCircle
 62
7
  6
CONTINUOUS
 10
-42.8671303976
 20
304.7983928753
 40
9.2626628381
100
AcDbArc
 50
171.320746271
 51
173.5834361385
  0
ARC
  5
342
100
AcDbEntity
  8
0
100
AcDbCircle
 62
7
  6
CONTINUOUS
 10
-42.8954536396
 20
306.1934645904
 40
9.0834994692
100
AcDbArc
 50
174.3446354674
 51
179.9906689716
  0
ARC
  5
343
100
AcDbEntity
  8
0
100
AcDbCircle
 62
7
  6
CONTINUOUS
 10
-42.9206387971
 20
306.1950279312
 40
9.0583141917
100
AcDbArc
 50
180.0005314936
 51
184.0003728909
  0
ARC
  5
344
100
AcDbEntity
  8
0
100
AcDbCircle
 62
7
  6
CONTINUOUS
 10
-19.3205546937
 20
213.949707653
 40
8.6196018346
100
AcDbArc
 50
342.9447528812
 51
359.5394445653
  0
ARC
  5
345
100
AcDbEntity
  8
0
100
AcDbCircle
 62
7
  6
CONTINUOUS
 10
-28.8302393389
 20
224.1296809009
 40
4.0264070973
100
AcDbArc
 50
69.5462127985
 51
81.2710834891
  0
ARC
  5
346
100
AcDbEntity
  8
0
100
AcDbCircle
 62
7
  6
CONTINUOUS
 10
-25.9125030033
 20
248.9369309196
 40
4.0264070973
100
AcDbArc
 50
69.5462127985
 51
81.2710834891
  0
ARC
  5
347
100
AcDbEntity
  8
0
100
AcDbCircle
 62
7
  6
CONTINUOUS
 10
-5.2671525223
 20
254.4710303078
 40
4.0264070973
100
AcDbArc
 50
69.5462127985
 51
81.2710834891
  0
ARC
  5
348
100
AcDbEntity
  8
0
100
AcDbCircle
 62
7
  6
CONTINUOUS
 10
4.5746394489
 20
233.0840418082
 40
4.0264070973
100
AcDbArc
 50
69.5462127985
 51
81.2710834891
  0
ARC
  5
349
100
AcDbEntity
  8
0
100
AcDbCircle
 62
7
  6
CONTINUOUS
 10
-28.823598427
 20
224.1622720395
 40
3.9931859533
100
AcDbArc
 50
81.294298782
 51
82.0119353012
  0
ARC
  5
34A
100
AcDbEntity
  8
0
100
AcDbCircle
 62
7
  6
CONTINUOUS
 10
-25.9058620913
 20
248.9695220581
 40
3.9931859533
100
AcDbArc
 50
81.294298782
 51
82.0119353013
  0
ARC
  5
34B
100
AcDbEntity
  8
0
100
AcDbCircle
 62
7
  6
CONTINUOUS
 10
-5.2605116104
 20
254.5036214463
 40
3.9931859533
100
AcDbArc
 50
81.294298782
 51
82.0119353012
  0
ARC
  5
34C
100
AcDbEntity
  8
0
100
AcDbCircle
 62
7
  6
CONTINUOUS
 10
4.5812803608
 20
233.1166329468
 40
3.9931859533
100
AcDbArc
 50
81.2942987821
 51
82.0119353013
  0
ARC
  5
34D
100
AcDbEntity
  8
0
100
AcDbCircle
 62
7
  6
CONTINUOUS
 10
-26.3776772067
 20
245.5851991713
 40
3.9896011924
100
AcDbArc
 50
262.0119541507
 51
262.6270003239
  0
ARC
  5
34E
100
AcDbEntity
  8
0
100
AcDbCircle
 62
7
  6
CONTINUOUS
 10
4.1094652455
 20
229.7323100601
 40
3.9896011924
100
AcDbArc
 50
262.0119541508
 51
262.627000324
  0
ARC
  5
34F
100
AcDbEntity
  8
0
100
AcDbCircle
 62
7
  6
CONTINUOUS
 10
-29.2954135423
 20
220.7779491528
 40
3.9896011925
100
AcDbArc
 50
262.0119541508
 51
262.627000324
  0
ARC
  5
350
100
AcDbEntity
  8
0
100
AcDbCircle
 62
7
  6
CONTINUOUS
 10
-5.7323267259
 20
251.1192985585
 40
3.9896011913
100
AcDbArc
 50
262.0119541507
 51
262.6270003241
  0
ARC
  5
351
100
AcDbEntity
  8
0
100
AcDbCircle
 62
7
  6
CONTINUOUS
 10
6.3572297187
 20
428.4905478314
 40
162.3847425289
100
AcDbArc
 50
267.1378094669
 51
275.0392296168
  0
ARC
  5
352
100
AcDbEntity
  8
0
100
AcDbCircle
 62
7
  6
CONTINUOUS
 10
6.2094036455
 20
441.3565794354
 40
159.6181508127
100
AcDbArc
 50
266.1395570531
 51
267.1412882838
  0
ARC
  5
353
100
AcDbEntity
  8
0
100
AcDbCircle
 62
7
  6
CONTINUOUS
 10
0.942163049
 20
457.144599303
 40
125.5883478941
100
AcDbArc
 50
265.9724042448
 51
271.1070112168
  0
ARC
  5
354
100
AcDbEntity
  8
0
100
AcDbCircle
 62
7
  6
CONTINUOUS
 10
1.0541813112
 20
455.0404316594
 40
123.4824294236
100
AcDbArc
 50
271.0739070438
 51
276.2480927661
  0
ARC
  5
355
100
AcDbEntity
  8
0
100
AcDbCircle
 62
7
  6
CONTINUOUS
 10
-0.9290652967
 20
394.96490268
 40
112.6279863728
100
AcDbArc
 50
256.0743882603
 51
257.3366607846
  0
ARC
  5
356
100
AcDbEntity
  8
0
100
AcDbCircle
 62
7
  6
CONTINUOUS
 10
-21.695329679
 20
336.7233236472
 40
50.6374438823
100
AcDbArc
 50
240.9368506672
 51
243.0845519797
  0
ARC
  5
357
100
AcDbEntity
  8
0
100
AcDbCircle
 62
7
  6
CONTINUOUS
 10
13.6710371603
 20
219.2636544061
 40
112.6279863742
100
AcDbArc
 50
76.0743882603
 51
77.3366607846
  0
ARC
  5
358
100
AcDbEntity
  8
0
100
AcDbCircle
 62
7
  6
CONTINUOUS
 10
34.4373015429
 20
277.5052334402
 40
50.6374438823
100
AcDbArc
 50
60.9368506672
 51
63.0845519797
  0
ARC
  5
359
100
AcDbEntity
  8
0
100
AcDbCircle
 62
7
  6
CONTINUOUS
 10
40.9380676708
 20
325.6671038778
 40
37.8076597886
100
AcDbArc
 50
301.9204052207
 51
304.5478940188
  0
ARC
  5
35A
100
AcDbEntity
  8
0
100
AcDbCircle
 62
7
  6
CONTINUOUS
 10
76.9893430154
 20
287.8786060228
 40
16.2732598913
100
AcDbArc
 50
136.6613225019
 51
137.6403053921
  0
ARC
  5
35B
100
AcDbEntity
  8
0
100
AcDbCircle
 62
7
  6
CONTINUOUS
 10
56.016941632
 20
305.0636810245
 40
15.3125110063
100
AcDbArc
 50
30.0055773689
 51
34.7717500301
  0
ARC
  5
35C
100
AcDbEntity
  8
0
100
AcDbCircle
 62
7
  6
CONTINUOUS
 10
59.1920955419
 20
307.5249693715
 40
11.7334884933
100
AcDbArc
 50
336.3718274357
 51
342.098751275
  0
ARC
  5
35D
100
AcDbEntity
  8
0
100
AcDbCircle
 62
7
  6
CONTINUOUS
 10
55.0562265829
 20
307.2447694176
 40
9.827270266
100
AcDbArc
 50
344.8361192475
 51
346.0778749868
  0
ARC
  5
35E
100
AcDbEntity
  8
0
100
AcDbCircle
 62
7
  6
CONTINUOUS
 10
55.5730341849
 20
304.7925751256
 40
9.2992176593
100
AcDbArc
 50
8.1458044306
 51
8.7027379738
  0
ARC
  5
35F
100
AcDbEntity
  8
0
100
AcDbCircle
 62
7
  6
CONTINUOUS
 10
55.6001567495
 20
306.1982983512
 40
9.1207687195
100
AcDbArc
 50
352.2641363459
 51
359.9789280247
  0
ARC
  5
360
100
AcDbEntity
  8
0
100
AcDbCircle
 62
7
  6
CONTINUOUS
 10
55.6421168545
 20
306.1941028715
 40
9.0788080367
100
AcDbArc
 50
0.0053080392
 51
5.7321535005
  0
ARC
  5
361
100
AcDbEntity
  8
0
100
AcDbCircle
 62
7
  6
CONTINUOUS
 10
7.1778236043
 20
433.2870894839
 40
151.5224444041
100
AcDbArc
 50
275.0899184235
 51
276.1282859478
  0
ARC
  5
362
100
AcDbEntity
  8
0
100
AcDbCircle
 62
7
  6
CONTINUOUS
 10
16.4771633064
 20
368.2918131603
 40
101.2322189336
100
AcDbArc
 50
285.0043938923
 51
285.5463623033
  0
ARC
  5
363
100
AcDbEntity
  8
0
100
AcDbCircle
 62
7
  6
CONTINUOUS
 10
18.021393266
 20
378.4435368554
 40
95.5417555815
100
AcDbArc
 50
285.5344840041
 51
286.9485290184
  0
SPLINE
  5
364
100
AcDbEntity
  8
0
100
AcDbSpline
 62
7
  6
CONTINUOUS
 70
0
 71
3
 72
9
 73
5
 74
0
 42
0.0000001
 43
0.0000001
 44
0.0000000001
 40
0.0
 40
0.0
 40
0.0
 40
0.0
 40
0.2526689471
 40
1.0
 40
1.0
 40
1.0
 40
1.0
 10
-198.5354314997
 20
243.6732657427
 30
0.0
 10
-198.4484876062
 20
243.6777333241
 30
0.0
 10
-198.1040307235
 20
243.6873771611
 30
0.0
 10
-197.758571239
 20
243.6643462338
 30
0.0
 10
-197.5036516422
 20
243.6280019471
 30
0.0
  0
SPLINE
  5
365
100
AcDbEntity
  8
0
100
AcDbSpline
 62
7
  6
CONTINUOUS
 70
0
 71
3
 72
11
 73
7
 74
0
 42
0.0000001
 43
0.0000001
 44
0.0000000001
 40
0.0
 40
0.0
 40
0.0
 40
0.0
 40
0.2529369489
 40
0.5046245884
 40
0.7539597306
 40
1.0
 40
1.0
 40
1.0
 40
1.0
 10
-202.2812288888
 20
242.1256730148
 30
0.0
 10
-202.0786085678
 20
242.3006308011
 30
0.0
 10
-201.6528303101
 20
242.6255994043
 30
0.0
 10
-200.9628541865
 20
243.030284707
 30
0.0
 10
-200.2350769821
 20
243.3443149228
 30
0.0
 10
-199.7297541932
 20
243.4903128662
 30
0.0
 10
-199.4753911484
 20
243.5460787874
 30
0.0
  0
SPLINE
  5
366
100
AcDbEntity
  8
0
100
AcDbSpline
 62
7
  6
CONTINUOUS
 70
0
 71
3
 72
10
 73
6
 74
0
 42
0.0000001
 43
0.0000001
 44
0.0000000001
 40
0.0
 40
0.0
 40
0.0
 40
0.0
 40
0.2211632042
 40
0.4620778229
 40
1.0
 40
1.0
 40
1.0
 40
1.0
 10
-199.4753911484
 20
243.5460787874
 30
0.0
 10
-199.4263812879
 20
243.4793283794
 30
0.0
 10
-199.3285981394
 20
243.3364463525
 30
0.0
 10
-199.1337509411
 20
243.016573673
 30
0.0
 10
-198.999476505
 20
242.7572263817
 30
0.0
 10
-198.9125563977
 20
242.5755317041
 30
0.0
  0
SPLINE
  5
367
100
AcDbEntity
  8
0
100
AcDbSpline
 62
7
  6
CONTINUOUS
 70
0
 71
3
 72
9
 73
5
 74
0
 42
0.0000001
 43
0.0000001
 44
0.0000000001
 40
0.0
 40
0.0
 40
0.0
 40
0.0
 40
0.2535698548
 40
1.0
 40
1.0
 40
1.0
 40
1.0
 10
-198.9125564404
 20
242.5755316326
 30
0.0
 10
-198.8735044469
 20
242.577326451
 30
0.0
 10
-198.7195775237
 20
242.5860484619
 30
0.0
 10
-198.5660075532
 20
242.6013412913
 30
0.0
 10
-198.451968621
 20
242.6167720224
 30
0.0
  0
SPLINE
  5
368
100
AcDbEntity
  8
0
100
AcDbSpline
 62
7
  6
CONTINUOUS
 70
0
 71
3
 72
9
 73
5
 74
0
 42
0.0000001
 43
0.0000001
 44
0.0000000001
 40
0.0
 40
0.0
 40
0.0
 40
0.0
 40
0.2574769184
 40
1.0
 40
1.0
 40
1.0
 40
1.0
 10
-198.451968621
 20
242.6167720224
 30
0.0
 10
-198.4149750105
 20
242.6217776678
 30
0.0
 10
-198.2715313923
 20
242.6428759477
 30
0.0
 10
-198.1290372794
 20
242.6706763766
 30
0.0
 10
-198.024334216
 20
242.6957179415
 30
0.0
  0
SPLINE
  5
369
100
AcDbEntity
  8
0
100
AcDbSpline
 62
7
  6
CONTINUOUS
 70
0
 71
3
 72
13
 73
9
 74
0
 42
0.0000001
 43
0.0000001
 44
0.0000000001
 40
0.0
 40
0.0
 40
0.0
 40
0.0
 40
0.1002589403
 40
0.2035301341
 40
0.3125043727
 40
0.429366056
 40
0.6922997643
 40
1.0
 40
1.0
 40
1.0
 40
1.0
 10
-202.6680087904
 20
242.7549724461
 30
0.0
 10
-202.6680083827
 20
242.7895885807
 30
0.0
 10
-202.6611815218
 20
242.8600353092
 30
0.0
 10
-202.6307742395
 20
242.9641355938
 30
0.0
 10
-202.5806126294
 20
243.0666502682
 30
0.0
 10
-202.4842410613
 20
243.2058295384
 30
0.0
 10
-202.3117081559
 20
243.3719952211
 30
0.0
 10
-202.1466198203
 20
243.4809804378
 30
0.0
 10
-202.05447098
 20
243.5338508528
 30
0.0
  0
SPLINE
  5
36A
100
AcDbEntity
  8
0
100
AcDbSpline
 62
7
  6
CONTINUOUS
 70
0
 71
3
 72
11
 73
7
 74
0
 42
0.0000001
 43
0.0000001
 44
0.0000000001
 40
0.0
 40
0.0
 40
0.0
 40
0.0
 40
0.2096754623
 40
0.4415414335
 40
0.7033546104
 40
1.0
 40
1.0
 40
1.0
 40
1.0
 10
-200.3116830595
 20
244.1764220541
 30
0.0
 10
-200.27090282
 20
244.1751496254
 30
0.0
 10
-200.1851787255
 20
244.1607981184
 30
0.0
 10
-200.0576852778
 20
244.1088501027
 30
0.0
 10
-199.9268564544
 20
244.0269013445
 30
0.0
 10
-199.8430947644
 20
243.9572197143
 30
0.0
 10
-199.8005858698
 20
243.9181688245
 30
0.0
  0
SPLINE
  5
36B
100
AcDbEntity
  8
0
100
AcDbSpline
 62
7
  6
CONTINUOUS
 70
0
 71
3
 72
17
 73
13
 74
0
 42
0.0000001
 43
0.0000001
 44
0.0000000001
 40
0.0
 40
0.0
 40
0.0
 40
0.0
 40
0.1386069099
 40
0.2804559611
 40
0.4217605493
 40
0.5587448418
 40
0.6878463009
 40
0.805907598
 40
0.8600050268
 40
0.9104712411
 40
0.9571624276
 40
1.0
 40
1.0
 40
1.0
 40
1.0
 10
-198.0298271598
 20
241.4526573165
 30
0.0
 10
-198.2307858258
 20
241.4254653823
 30
0.0
 10
-198.639680048
 20
241.3863061937
 30
0.0
 10
-199.2570213721
 20
241.3710522979
 30
0.0
 10
-199.8716016585
 20
241.3985752783
 30
0.0
 10
-200.4641518398
 20
241.4679848258
 30
0.0
 10
-201.0161160636
 20
241.5770261881
 30
0.0
 10
-201.4398759041
 20
241.701346364
 30
0.0
 10
-201.7434994644
 20
241.8197514027
 30
0.0
 10
-201.9442251174
 20
241.913357981
 30
0.0
 10
-202.1230635005
 20
242.01360931
 30
0.0
 10
-202.2314728697
 20
242.0875632699
 30
0.0
 10
-202.2812288888
 20
242.1256730148
 30
0.0
  0
SPLINE
  5
36C
100
AcDbEntity
  8
0
100
AcDbSpline
 62
7
  6
CONTINUOUS
 70
0
 71
3
 72
10
 73
6
 74
0
 42
0.0000001
 43
0.0000001
 44
0.0000000001
 40
0.0
 40
0.0
 40
0.0
 40
0.0
 40
0.5369674834
 40
0.7779767784
 40
1.0
 40
1.0
 40
1.0
 40
1.0
 10
-198.0243343112
 20
242.6957179969
 30
0.0
 10
-198.0982365733
 20
242.8792058396
 30
0.0
 10
-198.2159655569
 20
243.141214566
 30
0.0
 10
-198.3954590013
 20
243.4631117981
 30
0.0
 10
-198.4882381998
 20
243.6064642423
 30
0.0
 10
-198.5354314997
 20
243.6732657427
 30
0.0
  0
SPLINE
  5
36D
100
AcDbEntity
  8
0
100
AcDbSpline
 62
7
  6
CONTINUOUS
 70
0
 71
3
 72
10
 73
6
 74
0
 42
0.0000001
 43
0.0000001
 44
0.0000000001
 40
0.0
 40
0.0
 40
0.0
 40
0.0
 40
0.2792898932
 40
0.5380052008
 40
1.0
 40
1.0
 40
1.0
 40
1.0
 10
-202.2812288888
 20
241.9188848444
 30
0.0
 10
-202.3180213034
 20
241.9470653452
 30
0.0
 10
-202.3867642997
 20
242.0043225108
 30
0.0
 10
-202.5032916029
 20
242.1225344803
 30
0.0
 10
-202.5730723617
 20
242.2219474889
 30
0.0
 10
-202.6064236102
 20
242.2909748815
 30
0.0
  0
LINE
  5
36E
100
AcDbEntity
  8
0
100
AcDbLine
 62
7
  6
CONTINUOUS
 10
-199.4234609703
 20
244.2966083442
 11
-199.3213367741
 21
243.3207064239
  0
SPLINE
  5
36F
100
AcDbEntity
  8
0
100
AcDbSpline
 62
7
  6
CONTINUOUS
 70
0
 71
3
 72
9
 73
5
 74
0
 42
0.0000001
 43
0.0000001
 44
0.0000000001
 40
0.0
 40
0.0
 40
0.0
 40
0.0
 40
0.49551309
 40
1.0
 40
1.0
 40
1.0
 40
1.0
 10
-197.493870538
 20
243.9408827683
 30
0.0
 10
-197.7158387678
 20
243.9878636291
 30
0.0
 10
-198.1706985388
 20
244.052301741
 30
0.0
 10
-198.6299359948
 20
244.0572097158
 30
0.0
 10
-198.8606262211
 20
244.0453557798
 30
0.0
  0
SPLINE
  5
370
100
AcDbEntity
  8
0
100
AcDbSpline
 62
7
  6
CONTINUOUS
 70
0
 71
3
 72
11
 73
7
 74
0
 42
0.0000001
 43
0.0000001
 44
0.0000000001
 40
0.0
 40
0.0
 40
0.0
 40
0.0
 40
0.2829368677
 40
0.5397641715
 40
0.776195491
 40
1.0
 40
1.0
 40
1.0
 40
1.0
 10
-198.8606262211
 20
244.0453557798
 30
0.0
 10
-198.9051138293
 20
244.084606613
 30
0.0
 10
-198.9945061627
 20
244.154672848
 30
0.0
 10
-199.1368407999
 20
244.2351095539
 30
0.0
 10
-199.2798176435
 20
244.2845416834
 30
0.0
 10
-199.3765333753
 20
244.2963154899
 30
0.0
 10
-199.4234609703
 20
244.2966083442
 30
0.0
  0
SPLINE
  5
371
100
AcDbEntity
  8
0
100
AcDbSpline
 62
7
  6
CONTINUOUS
 70
0
 71
3
 72
9
 73
5
 74
0
 42
0.0000001
 43
0.0000001
 44
0.0000000001
 40
0.0
 40
0.0
 40
0.0
 40
0.0
 40
0.2535698549
 40
1.0
 40
1.0
 40
1.0
 40
1.0
 10
-199.4234609238
 20
244.2966083448
 30
0.0
 10
-199.4625129177
 20
244.2948135254
 30
0.0
 10
-199.6164398427
 20
244.286091516
 30
0.0
 10
-199.770009815
 20
244.270798686
 30
0.0
 10
-199.8840487485
 20
244.2553679547
 30
0.0
  0
SPLINE
  5
372
100
AcDbEntity
  8
0
100
AcDbSpline
 62
7
  6
CONTINUOUS
 70
0
 71
3
 72
9
 73
5
 74
0
 42
0.0000001
 43
0.0000001
 44
0.0000000001
 40
0.0
 40
0.0
 40
0.0
 40
0.0
 40
0.2574769183
 40
1.0
 40
1.0
 40
1.0
 40
1.0
 10
-199.8840487485
 20
244.2553679547
 30
0.0
 10
-199.9210423586
 20
244.2503623094
 30
0.0
 10
-200.0644859754
 20
244.2292640301
 30
0.0
 10
-200.206980086
 20
244.2014635986
 30
0.0
 10
-200.311683149
 20
244.1764220367
 30
0.0
  0
SPLINE
  5
373
100
AcDbEntity
  8
0
100
AcDbSpline
 62
7
  6
CONTINUOUS
 70
0
 71
3
 72
11
 73
7
 74
0
 42
0.0000001
 43
0.0000001
 44
0.0000000001
 40
0.0
 40
0.0
 40
0.0
 40
0.0
 40
0.2460401322
 40
0.4953751291
 40
0.7470628254
 40
1.0
 40
1.0
 40
1.0
 40
1.0
 10
-199.8005858698
 20
243.9181688245
 30
0.0
 10
-200.0549487728
 20
243.8624029344
 30
0.0
 10
-200.5602712769
 20
243.7164050929
 30
0.0
 10
-201.2880482931
 20
243.4023750509
 30
0.0
 10
-201.9780245907
 20
242.9976897557
 30
0.0
 10
-202.4038031085
 20
242.6727209942
 30
0.0
 10
-202.6064236102
 20
242.4977630518
 30
0.0
  0
SPLINE
  5
374
100
AcDbEntity
  8
0
100
AcDbSpline
 62
7
  6
CONTINUOUS
 70
0
 71
3
 72
9
 73
5
 74
0
 42
0.0000001
 43
0.0000001
 44
0.0000000001
 40
0.0
 40
0.0
 40
0.0
 40
0.0
 40
0.511226377
 40
1.0
 40
1.0
 40
1.0
 40
1.0
 10
-202.6064236102
 20
242.4977630518
 30
0.0
 10
-202.6261577276
 20
242.5386069399
 30
0.0
 10
-202.6571229249
 20
242.6225775781
 30
0.0
 10
-202.6680093012
 20
242.7116032707
 30
0.0
 10
-202.6680087904
 20
242.7549724461
 30
0.0
  0
SPLINE
  5
375
100
AcDbEntity
  8
0
100
AcDbSpline
 62
7
  6
CONTINUOUS
 70
0
 71
3
 72
11
 73
7
 74
0
 42
0.0000001
 43
0.0000001
 44
0.0000000001
 40
0.0
 40
0.0
 40
0.0
 40
0.0
 40
0.2603894602
 40
0.5147502827
 40
0.7616167408
 40
1.0
 40
1.0
 40
1.0
 40
1.0
 10
-108.851830905
 20
188.1690566518
 30
0.0
 10
-108.6762081769
 20
188.3624604381
 30
0.0
 10
-108.3080281145
 20
188.7263806128
 30
0.0
 10
-107.7060117174
 20
189.199683308
 30
0.0
 10
-107.070659229
 20
189.5864642876
 30
0.0
 10
-106.624408412
 20
189.7852928209
 30
0.0
 10
-106.3996748066
 20
189.8671153758
 30
0.0
  0
SPLINE
  5
376
100
AcDbEntity
  8
0
100
AcDbSpline
 62
7
  6
CONTINUOUS
 70
0
 71
3
 72
13
 73
9
 74
0
 42
0.0000001
 43
0.0000001
 44
0.0000000001
 40
0.0
 40
0.0
 40
0.0
 40
0.0
 40
0.1002632032
 40
0.2035345222
 40
0.3125074946
 40
0.4293682584
 40
0.6923007779
 40
1.0
 40
1.0
 40
1.0
 40
1.0
 10
-109.7704425121
 20
189.0990647433
 30
0.0
 10
-109.7704424677
 20
189.13368236
 30
0.0
 10
-109.7636171494
 20
189.2041307392
 30
0.0
 10
-109.7332104573
 20
189.3082326847
 30
0.0
 10
-109.6830453333
 20
189.4107448271
 30
0.0
 10
-109.5866765866
 20
189.5499244427
 30
0.0
 10
-109.4141425235
 20
189.7160879959
 30
0.0
 10
-109.2490554547
 20
189.8250735704
 30
0.0
 10
-109.1569064153
 20
189.877942999
 30
0.0
  0
SPLINE
  5
377
100
AcDbEntity
  8
0
100
AcDbSpline
 62
7
  6
CONTINUOUS
 70
0
 71
3
 72
10
 73
6
 74
0
 42
0.0000001
 43
0.0000001
 44
0.0000000001
 40
0.0
 40
0.0
 40
0.0
 40
0.0
 40
0.2330297369
 40
0.4758782503
 40
1.0
 40
1.0
 40
1.0
 40
1.0
 10
-107.8697413352
 20
190.3756693732
 30
0.0
 10
-107.7974103548
 20
190.3803536759
 30
0.0
 10
-107.6488170488
 20
190.3791981283
 30
0.0
 10
-107.340193644
 20
190.3355328493
 30
0.0
 10
-107.1117488528
 20
190.2583230701
 30
0.0
 10
-106.962690346
 20
190.1923026953
 30
0.0
  0
SPLINE
  5
378
100
AcDbEntity
  8
0
100
AcDbSpline
 62
7
  6
CONTINUOUS
 70
0
 71
3
 72
12
 73
8
 74
0
 42
0.0000001
 43
0.0000001
 44
0.0000000001
 40
0.0
 40
0.0
 40
0.0
 40
0.0
 40
0.2740470397
 40
0.5374211286
 40
0.7817401523
 40
0.894522428
 40
1.0
 40
1.0
 40
1.0
 40
1.0
 10
-106.3956523391
 20
187.72277818
 30
0.0
 10
-106.62495204
 20
187.7260065138
 30
0.0
 10
-107.0746070388
 20
187.7496327466
 30
0.0
 10
-107.7236599426
 20
187.8365213324
 30
0.0
 10
-108.2310001528
 20
187.9514597052
 30
0.0
 10
-108.6002165219
 20
188.068324523
 30
0.0
 10
-108.770738178
 20
188.134207992
 30
0.0
 10
-108.851830905
 20
188.1690566518
 30
0.0
  0
SPLINE
  5
379
100
AcDbEntity
  8
0
100
AcDbSpline
 62
7
  6
CONTINUOUS
 70
0
 71
3
 72
9
 73
5
 74
0
 42
0.0000001
 43
0.0000001
 44
0.0000000001
 40
0.0
 40
0.0
 40
0.0
 40
0.0
 40
0.5332470523
 40
1.0
 40
1.0
 40
1.0
 40
1.0
 10
-108.851830905
 20
187.9622684814
 30
0.0
 10
-108.958248331
 20
188.0080001372
 30
0.0
 10
-109.1538767718
 20
188.1034657742
 30
0.0
 10
-109.3358682094
 20
188.2238851479
 30
0.0
 10
-109.4148464445
 20
188.2874558008
 30
0.0
  0
LINE
  5
37A
100
AcDbEntity
  8
0
100
AcDbLine
 62
7
  6
CONTINUOUS
 10
-107.0934814736
 20
190.5837500847
 11
-107.0059331879
 21
190.2109678884
  0
LINE
  5
37B
100
AcDbEntity
  8
0
100
AcDbLine
 62
7
  6
CONTINUOUS
 10
-106.9481829385
 20
189.9652706837
 11
-106.8777274058
 21
189.6657801972
  0
SPLINE
  5
37C
100
AcDbEntity
  8
0
100
AcDbSpline
 62
7
  6
CONTINUOUS
 70
0
 71
3
 72
9
 73
5
 74
0
 42
0.0000001
 43
0.0000001
 44
0.0000000001
 40
0.0
 40
0.0
 40
0.0
 40
0.0
 40
0.5116735926
 40
1.0
 40
1.0
 40
1.0
 40
1.0
 10
-106.3098217572
 20
190.4777227959
 30
0.0
 10
-106.4380797413
 20
190.5217373596
 30
0.0
 10
-106.6972298506
 20
190.5855752098
 30
0.0
 10
-106.9644884119
 20
190.5941647975
 30
0.0
 10
-107.0934814736
 20
190.5837500847
 30
0.0
  0
SPLINE
  5
37D
100
AcDbEntity
  8
0
100
AcDbSpline
 62
7
  6
CONTINUOUS
 70
0
 71
3
 72
9
 73
5
 74
0
 42
0.0000001
 43
0.0000001
 44
0.0000000001
 40
0.0
 40
0.0
 40
0.0
 40
0.0
 40
0.2584709942
 40
1.0
 40
1.0
 40
1.0
 40
1.0
 10
-107.0934814541
 20
190.5837500888
 30
0.0
 10
-107.129719854
 20
190.5780037282
 30
0.0
 10
-107.2696476374
 20
190.5541038481
 30
0.0
 10
-107.4084638095
 20
190.5234403413
 30
0.0
 10
-107.5101378731
 20
190.4961860511
 30
0.0
  0
SPLINE
  5
37E
100
AcDbEntity
  8
0
100
AcDbSpline
 62
7
  6
CONTINUOUS
 70
0
 71
3
 72
9
 73
5
 74
0
 42
0.0000001
 43
0.0000001
 44
0.0000000001
 40
0.0
 40
0.0
 40
0.0
 40
0.0
 40
0.2628686248
 40
1.0
 40
1.0
 40
1.0
 40
1.0
 10
-107.5101378731
 20
190.4961860511
 30
0.0
 10
-107.5422491655
 20
190.4875784432
 30
0.0
 10
-107.6639206666
 20
190.4530926937
 30
0.0
 10
-107.7836611332
 20
190.4114611679
 30
0.0
 10
-107.8697414336
 20
190.3756693458
 30
0.0
  0
SPLINE
  5
37F
100
AcDbEntity
  8
0
100
AcDbSpline
 62
7
  6
CONTINUOUS
 70
0
 71
3
 72
11
 73
7
 74
0
 42
0.0000001
 43
0.0000001
 44
0.0000000001
 40
0.0
 40
0.0
 40
0.0
 40
0.0
 40
0.2383831249
 40
0.4852494346
 40
0.7396103096
 40
1.0
 40
1.0
 40
1.0
 40
1.0
 10
-106.962690346
 20
190.1923026953
 30
0.0
 10
-107.1874238247
 20
190.1104801865
 30
0.0
 10
-107.6336743878
 20
189.9116517871
 30
0.0
 10
-108.2690267185
 20
189.5248709972
 30
0.0
 10
-108.8710432755
 20
189.0515682852
 30
0.0
 10
-109.239223561
 20
188.6876479285
 30
0.0
 10
-109.4148464445
 20
188.4942439712
 30
0.0
  0
SPLINE
  5
380
100
AcDbEntity
  8
0
100
AcDbSpline
 62
7
  6
CONTINUOUS
 70
0
 71
3
 72
11
 73
7
 74
0
 42
0.0000001
 43
0.0000001
 44
0.0000000001
 40
0.0
 40
0.0
 40
0.0
 40
0.0
 40
0.2913961721
 40
0.54967452
 40
0.7820645233
 40
1.0
 40
1.0
 40
1.0
 40
1.0
 10
-109.4148464445
 20
188.4942439712
 30
0.0
 10
-109.4696448475
 20
188.5383519493
 30
0.0
 10
-109.5678460578
 20
188.6285130098
 30
0.0
 10
-109.6829326575
 20
188.7797453443
 30
0.0
 10
-109.7540901219
 20
188.9371962098
 30
0.0
 10
-109.7704425796
 20
189.0464538646
 30
0.0
 10
-109.7704425121
 20
189.0990647433
 30
0.0
  0
SPLINE
  5
381
100
AcDbEntity
  8
0
100
AcDbSpline
 62
7
  6
CONTINUOUS
 70
0
 71
3
 72
15
 73
11
 74
0
 42
0.0000001
 43
0.0000001
 44
0.0000000001
 40
0.0
 40
0.0
 40
0.0
 40
0.0
 40
0.1359331576
 40
0.2699289379
 40
0.40084736
 40
0.5278952283
 40
0.6507719633
 40
0.7697529828
 40
0.8857063121
 40
1.0
 40
1.0
 40
1.0
 40
1.0
 10
-70.799677622
 20
183.116605736
 30
0.0
 10
-70.8164804673
 20
182.9001646632
 30
0.0
 10
-70.8163602401
 20
182.4669702408
 30
0.0
 10
-70.7143816408
 20
181.8322687343
 30
0.0
 10
-70.513919586
 20
181.2360511383
 30
0.0
 10
-70.2213669025
 20
180.6990547347
 30
0.0
 10
-69.846269885
 20
180.2400054459
 30
0.0
 10
-69.4009091154
 20
179.8754270064
 30
0.0
 10
-68.9008668026
 20
179.6190362642
 30
0.0
 10
-68.5412131228
 20
179.5265626103
 30
0.0
 10
-68.3604446781
 20
179.5012436392
 30
0.0
  0
SPLINE
  5
382
100
AcDbEntity
  8
0
100
AcDbSpline
 62
7
  6
CONTINUOUS
 70
0
 71
3
 72
15
 73
11
 74
0
 42
0.0000001
 43
0.0000001
 44
0.0000000001
 40
0.0
 40
0.0
 40
0.0
 40
0.0
 40
0.1142076671
 40
0.2304519858
 40
0.3498597342
 40
0.4730799618
 40
0.6002490093
 40
0.7310159186
 40
0.8646164596
 40
1.0
 40
1.0
 40
1.0
 40
1.0
 10
-66.3055941695
 20
186.2732166517
 30
0.0
 10
-66.1352124816
 20
186.2346927925
 30
0.0
 10
-65.7987520343
 20
186.1195855657
 30
0.0
 10
-65.3364303136
 20
185.843132458
 30
0.0
 10
-64.9277766428
 20
185.4714837601
 30
0.0
 10
-64.5857172291
 20
185.0171493455
 30
0.0
 10
-64.3204380539
 20
184.4948661182
 30
0.0
 10
-64.1398528637
 20
183.9211482475
 30
0.0
 10
-64.0492352228
 20
183.3141439722
 30
0.0
 10
-64.0505966095
 20
182.9009057923
 30
0.0
 10
-64.0666238446
 20
182.694455522
 30
0.0
  0
SPLINE
  5
383
100
AcDbEntity
  8
0
100
AcDbSpline
 62
7
  6
CONTINUOUS
 70
0
 71
3
 72
13
 73
9
 74
0
 42
0.0000001
 43
0.0000001
 44
0.0000000001
 40
0.0
 40
0.0
 40
0.0
 40
0.0
 40
0.2659299306
 40
0.5242116871
 40
0.6486569859
 40
0.7692048115
 40
0.886073911
 40
1.0
 40
1.0
 40
1.0
 40
1.0
 10
-64.0666238446
 20
182.694455522
 30
0.0
 10
-64.0986247268
 20
182.2822452576
 30
0.0
 10
-64.2828637165
 20
181.4742526209
 30
0.0
 10
-64.7988168547
 20
180.5868831537
 30
0.0
 10
-65.3503790785
 20
180.0269856211
 30
0.0
 10
-65.8123959536
 20
179.7002613797
 30
0.0
 10
-66.3127778281
 20
179.4730948335
 30
0.0
 10
-66.6655204102
 20
179.3924647261
 30
0.0
 10
-66.8413947267
 20
179.3714541507
 30
0.0
  0
SPLINE
  5
384
100
AcDbEntity
  8
0
100
AcDbSpline
 62
7
  6
CONTINUOUS
 70
0
 71
3
 72
17
 73
13
 74
0
 42
0.0000001
 43
0.0000001
 44
0.0000000001
 40
0.0
 40
0.0
 40
0.0
 40
0.0
 40
0.0566549248
 40
0.1135650191
 40
0.1709715991
 40
0.2290892659
 40
0.3479384747
 40
0.4711811721
 40
0.5989036993
 40
0.730472179
 40
0.8646882527
 40
1.0
 40
1.0
 40
1.0
 40
1.0
 10
-67.3895458243
 20
186.4335814481
 30
0.0
 10
-67.4888066984
 20
186.4474842242
 30
0.0
 10
-67.6897128169
 20
186.4630938396
 30
0.0
 10
-67.9925826017
 20
186.4494166358
 30
0.0
 10
-68.2941925859
 20
186.3988377321
 30
0.0
 10
-68.6929536067
 20
186.2822592605
 30
0.0
 10
-69.1735484975
 20
186.0449812504
 30
0.0
 10
-69.6883285134
 20
185.6338837523
 30
0.0
 10
-70.1259234825
 20
185.112150616
 30
0.0
 10
-70.4687467864
 20
184.5018398596
 30
0.0
 10
-70.7032359319
 20
183.8284958663
 30
0.0
 10
-70.7811494328
 20
183.3552713367
 30
0.0
 10
-70.799677622
 20
183.116605736
 30
0.0
  0
SPLINE
  5
385
100
AcDbEntity
  8
0
100
AcDbSpline
 62
7
  6
CONTINUOUS
 70
0
 71
3
 72
11
 73
7
 74
0
 42
0.0000001
 43
0.0000001
 44
0.0000000001
 40
0.0
 40
0.0
 40
0.0
 40
0.0
 40
0.2369335046
 40
0.4846389719
 40
0.7400997223
 40
1.0
 40
1.0
 40
1.0
 40
1.0
 10
-67.141217704
 20
186.3158432781
 30
0.0
 10
-67.0685015761
 20
186.0837592451
 30
0.0
 10
-66.9433921108
 20
185.6013996853
 30
0.0
 10
-66.8175427582
 20
184.8513403252
 30
0.0
 10
-66.7509531135
 20
184.0700990743
 30
0.0
 10
-66.7469501294
 20
183.5404956617
 30
0.0
 10
-66.7550311529
 20
183.2738339646
 30
0.0
  0
SPLINE
  5
386
100
AcDbEntity
  8
0
100
AcDbSpline
 62
7
  6
CONTINUOUS
 70
0
 71
3
 72
11
 73
7
 74
0
 42
0.0000001
 43
0.0000001
 44
0.0000000001
 40
0.0
 40
0.0
 40
0.0
 40
0.0
 40
0.2635016302
 40
0.5200621681
 40
0.7664878732
 40
1.0
 40
1.0
 40
1.0
 40
1.0
 10
-66.8319021772
 20
182.283641726
 30
0.0
 10
-66.8647971763
 20
182.0217166988
 30
0.0
 10
-66.9494692483
 20
181.5070018316
 30
0.0
 10
-67.1343597572
 20
180.7608312121
 30
0.0
 10
-67.3724705905
 20
180.0615015142
 30
0.0
 10
-67.5697321364
 20
179.6219673629
 30
0.0
 10
-67.6770182612
 20
179.4140807771
 30
0.0
  0
SPLINE
  5
387
100
AcDbEntity
  8
0
100
AcDbSpline
 62
7
  6
CONTINUOUS
 70
0
 71
3
 72
11
 73
7
 74
0
 42
0.0000001
 43
0.0000001
 44
0.0000000001
 40
0.0
 40
0.0
 40
0.0
 40
0.0
 40
0.2335119116
 40
0.4799375476
 40
0.7364982255
 40
1.0
 40
1.0
 40
1.0
 40
1.0
 10
-66.8413947267
 20
179.3714541507
 30
0.0
 10
-66.7341087007
 20
179.5793405449
 30
0.0
 10
-66.5368472486
 20
180.0188744238
 30
0.0
 10
-66.298736401
 20
180.7182039641
 30
0.0
 10
-66.1138457886
 20
181.4643747814
 30
0.0
 10
-66.0291736598
 20
181.9790899289
 30
0.0
 10
-65.9962786427
 20
182.2410150996
 30
0.0
  0
LINE
  5
388
100
AcDbEntity
  8
0
100
AcDbLine
 62
7
  6
CONTINUOUS
 10
-65.745324347
 20
183.1931352548
 11
-64.7544790856
 21
183.163366678
  0
LINE
  5
389
100
AcDbEntity
  8
0
100
AcDbLine
 62
7
  6
CONTINUOUS
 10
-64.8271189481
 20
182.2276769186
 11
-65.807518459
 21
182.3919994883
  0
SPLINE
  5
38A
100
AcDbEntity
  8
0
100
AcDbSpline
 62
7
  6
CONTINUOUS
 70
0
 71
3
 72
9
 73
5
 74
0
 42
0.0000001
 43
0.0000001
 44
0.0000000001
 40
0.0
 40
0.0
 40
0.0
 40
0.0
 40
0.5382772659
 40
1.0
 40
1.0
 40
1.0
 40
1.0
 10
-65.9962786427
 20
182.2410150996
 30
0.0
 10
-65.7866147926
 20
182.2330345425
 30
0.0
 10
-65.3969300906
 20
182.2224003688
 30
0.0
 10
-65.0070384692
 20
182.223192223
 30
0.0
 10
-64.8271189481
 20
182.2276769186
 30
0.0
  0
SPLINE
  5
38B
100
AcDbEntity
  8
0
100
AcDbSpline
 62
7
  6
CONTINUOUS
 70
0
 71
3
 72
15
 73
11
 74
0
 42
0.0000001
 43
0.0000001
 44
0.0000000001
 40
0.0
 40
0.0
 40
0.0
 40
0.0
 40
0.1142076671
 40
0.2304519858
 40
0.3498597342
 40
0.4730799618
 40
0.6002490093
 40
0.7310159186
 40
0.8646164596
 40
1.0
 40
1.0
 40
1.0
 40
1.0
 10
-67.6770182612
 20
179.4140807771
 30
0.0
 10
-67.8473999491
 20
179.4526046363
 30
0.0
 10
-68.1838603964
 20
179.5677118632
 30
0.0
 10
-68.6461821171
 20
179.8441649708
 30
0.0
 10
-69.054835788
 20
180.2158136688
 30
0.0
 10
-69.3968952016
 20
180.6701480833
 30
0.0
 10
-69.6621743768
 20
181.1924313106
 30
0.0
 10
-69.842759567
 20
181.7661491814
 30
0.0
 10
-69.933377208
 20
182.3731534567
 30
0.0
 10
-69.9320158212
 20
182.7863916365
 30
0.0
 10
-69.9159885862
 20
182.9928419068
 30
0.0
  0
SPLINE
  5
38C
100
AcDbEntity
  8
0
100
AcDbSpline
 62
7
  6
CONTINUOUS
 70
0
 71
3
 72
13
 73
9
 74
0
 42
0.0000001
 43
0.0000001
 44
0.0000000001
 40
0.0
 40
0.0
 40
0.0
 40
0.0
 40
0.2659299306
 40
0.5242116871
 40
0.6486569859
 40
0.7692048115
 40
0.886073911
 40
1.0
 40
1.0
 40
1.0
 40
1.0
 10
-69.9159885862
 20
182.9928419068
 30
0.0
 10
-69.8839877039
 20
183.4050521712
 30
0.0
 10
-69.6997487143
 20
184.2130448079
 30
0.0
 10
-69.183795576
 20
185.1004142752
 30
0.0
 10
-68.6322333523
 20
185.6603118077
 30
0.0
 10
-68.1702164771
 20
185.9870360491
 30
0.0
 10
-67.6698346026
 20
186.2142025954
 30
0.0
 10
-67.3170920205
 20
186.2948327027
 30
0.0
 10
-67.141217704
 20
186.3158432781
 30
0.0
  0
SPLINE
  5
38D
100
AcDbEntity
  8
0
100
AcDbSpline
 62
7
  6
CONTINUOUS
 70
0
 71
3
 72
11
 73
7
 74
0
 42
0.0000001
 43
0.0000001
 44
0.0000000001
 40
0.0
 40
0.0
 40
0.0
 40
0.0
 40
0.2599001346
 40
0.5153607437
 40
0.7630662781
 40
1.0
 40
1.0
 40
1.0
 40
1.0
 10
-65.9194076184
 20
183.2312073382
 30
0.0
 10
-65.9113265993
 20
183.4978688886
 30
0.0
 10
-65.9153295704
 20
184.0274720082
 30
0.0
 10
-65.9819191441
 20
184.80871304
 30
0.0
 10
-66.1077684597
 20
185.5587725554
 30
0.0
 10
-66.2328779749
 20
186.0411324058
 30
0.0
 10
-66.3055941695
 20
186.2732166517
 30
0.0
  0
SPLINE
  5
38E
100
AcDbEntity
  8
0
100
AcDbSpline
 62
7
  6
CONTINUOUS
 70
0
 71
3
 72
15
 73
11
 74
0
 42
0.0000001
 43
0.0000001
 44
0.0000000001
 40
0.0
 40
0.0
 40
0.0
 40
0.0
 40
0.1359331576
 40
0.2699289379
 40
0.40084736
 40
0.5278952283
 40
0.6507719633
 40
0.7697529828
 40
0.8857063121
 40
1.0
 40
1.0
 40
1.0
 40
1.0
 10
-83.9144006083
 20
270.6122403203
 30
0.0
 10
-83.9312034536
 20
270.3957992475
 30
0.0
 10
-83.9310832264
 20
269.9626048252
 30
0.0
 10
-83.8291046271
 20
269.3279033186
 30
0.0
 10
-83.6286425723
 20
268.7316857226
 30
0.0
 10
-83.3360898888
 20
268.194689319
 30
0.0
 10
-82.9609928712
 20
267.7356400302
 30
0.0
 10
-82.5156321017
 20
267.3710615907
 30
0.0
 10
-82.0155897888
 20
267.1146708486
 30
0.0
 10
-81.655936109
 20
267.0221971947
 30
0.0
 10
-81.4751676644
 20
266.9968782235
 30
0.0
  0
SPLINE
  5
38F
100
AcDbEntity
  8
0
100
AcDbSpline
 62
7
  6
CONTINUOUS
 70
0
 71
3
 72
15
 73
11
 74
0
 42
0.0000001
 43
0.0000001
 44
0.0000000001
 40
0.0
 40
0.0
 40
0.0
 40
0.0
 40
0.1142076671
 40
0.2304519858
 40
0.3498597342
 40
0.4730799618
 40
0.6002490093
 40
0.7310159186
 40
0.8646164596
 40
1.0
 40
1.0
 40
1.0
 40
1.0
 10
-79.4203171558
 20
273.7688512361
 30
0.0
 10
-79.2499354679
 20
273.7303273768
 30
0.0
 10
-78.9134750206
 20
273.61522015
 30
0.0
 10
-78.4511532999
 20
273.3387670423
 30
0.0
 10
-78.0424996291
 20
272.9671183444
 30
0.0
 10
-77.7004402154
 20
272.5127839298
 30
0.0
 10
-77.4351610402
 20
271.9905007026
 30
0.0
 10
-77.25457585
 20
271.4167828318
 30
0.0
 10
-77.1639582091
 20
270.8097785565
 30
0.0
 10
-77.1653195958
 20
270.3965403766
 30
0.0
 10
-77.1813468308
 20
270.1900901064
 30
0.0
  0
SPLINE
  5
390
100
AcDbEntity
  8
0
100
AcDbSpline
 62
7
  6
CONTINUOUS
 70
0
 71
3
 72
13
 73
9
 74
0
 42
0.0000001
 43
0.0000001
 44
0.0000000001
 40
0.0
 40
0.0
 40
0.0
 40
0.0
 40
0.2659299306
 40
0.5242116871
 40
0.6486569859
 40
0.7692048115
 40
0.886073911
 40
1.0
 40
1.0
 40
1.0
 40
1.0
 10
-77.1813468308
 20
270.1900901064
 30
0.0
 10
-77.2133477131
 20
269.777879842
 30
0.0
 10
-77.3975867027
 20
268.9698872053
 30
0.0
 10
-77.913539841
 20
268.082517738
 30
0.0
 10
-78.4651020648
 20
267.5226202055
 30
0.0
 10
-78.9271189399
 20
267.1958959641
 30
0.0
 10
-79.4275008144
 20
266.9687294178
 30
0.0
 10
-79.7802433965
 20
266.8880993105
 30
0.0
 10
-79.956117713
 20
266.867088735
 30
0.0
  0
SPLINE
  5
391
100
AcDbEntity
  8
0
100
AcDbSpline
 62
7
  6
CONTINUOUS
 70
0
 71
3
 72
17
 73
13
 74
0
 42
0.0000001
 43
0.0000001
 44
0.0000000001
 40
0.0
 40
0.0
 40
0.0
 40
0.0
 40
0.0566549248
 40
0.1135650191
 40
0.1709715991
 40
0.2290892659
 40
0.3479384747
 40
0.4711811721
 40
0.5989036993
 40
0.730472179
 40
0.8646882527
 40
1.0
 40
1.0
 40
1.0
 40
1.0
 10
-80.5042688106
 20
273.9292160324
 30
0.0
 10
-80.6035296847
 20
273.9431188085
 30
0.0
 10
-80.8044358032
 20
273.9587284239
 30
0.0
 10
-81.107305588
 20
273.9450512201
 30
0.0
 10
-81.4089155721
 20
273.8944723164
 30
0.0
 10
-81.8076765929
 20
273.7778938449
 30
0.0
 10
-82.2882714837
 20
273.5406158347
 30
0.0
 10
-82.8030514997
 20
273.1295183366
 30
0.0
 10
-83.2406464687
 20
272.6077852003
 30
0.0
 10
-83.5834697727
 20
271.997474444
 30
0.0
 10
-83.8179589182
 20
271.3241304506
 30
0.0
 10
-83.895872419
 20
270.850905921
 30
0.0
 10
-83.9144006083
 20
270.6122403203
 30
0.0
  0
SPLINE
  5
392
100
AcDbEntity
  8
0
100
AcDbSpline
 62
7
  6
CONTINUOUS
 70
0
 71
3
 72
11
 73
7
 74
0
 42
0.0000001
 43
0.0000001
 44
0.0000000001
 40
0.0
 40
0.0
 40
0.0
 40
0.0
 40
0.2369335046
 40
0.4846389719
 40
0.7400997223
 40
1.0
 40
1.0
 40
1.0
 40
1.0
 10
-80.2559406903
 20
273.8114778625
 30
0.0
 10
-80.1832245624
 20
273.5793938294
 30
0.0
 10
-80.0581150971
 20
273.0970342696
 30
0.0
 10
-79.9322657444
 20
272.3469749095
 30
0.0
 10
-79.8656760997
 20
271.5657336586
 30
0.0
 10
-79.8616731157
 20
271.0361302461
 30
0.0
 10
-79.8697541392
 20
270.769468549
 30
0.0
  0
SPLINE
  5
393
100
AcDbEntity
  8
0
100
AcDbSpline
 62
7
  6
CONTINUOUS
 70
0
 71
3
 72
11
 73
7
 74
0
 42
0.0000001
 43
0.0000001
 44
0.0000000001
 40
0.0
 40
0.0
 40
0.0
 40
0.0
 40
0.2635016302
 40
0.5200621681
 40
0.7664878732
 40
1.0
 40
1.0
 40
1.0
 40
1.0
 10
-79.9466251635
 20
269.7792763103
 30
0.0
 10
-79.9795201626
 20
269.5173512831
 30
0.0
 10
-80.0641922345
 20
269.0026364159
 30
0.0
 10
-80.2490827435
 20
268.2564657965
 30
0.0
 10
-80.4871935768
 20
267.5571360985
 30
0.0
 10
-80.6844551227
 20
267.1176019472
 30
0.0
 10
-80.7917412475
 20
266.9097153614
 30
0.0
  0
SPLINE
  5
394
100
AcDbEntity
  8
0
100
AcDbSpline
 62
7
  6
CONTINUOUS
 70
0
 71
3
 72
11
 73
7
 74
0
 42
0.0000001
 43
0.0000001
 44
0.0000000001
 40
0.0
 40
0.0
 40
0.0
 40
0.0
 40
0.2335119116
 40
0.4799375476
 40
0.7364982255
 40
1.0
 40
1.0
 40
1.0
 40
1.0
 10
-79.956117713
 20
266.867088735
 30
0.0
 10
-79.848831687
 20
267.0749751293
 30
0.0
 10
-79.6515702348
 20
267.5145090081
 30
0.0
 10
-79.4134593873
 20
268.2138385484
 30
0.0
 10
-79.2285687749
 20
268.9600093657
 30
0.0
 10
-79.1438966461
 20
269.4747245133
 30
0.0
 10
-79.111001629
 20
269.7366496839
 30
0.0
  0
LINE
  5
395
100
AcDbEntity
  8
0
100
AcDbLine
 62
7
  6
CONTINUOUS
 10
-78.8600473333
 20
270.6887698391
 11
-77.8692020719
 21
270.6590012623
  0
LINE
  5
396
100
AcDbEntity
  8
0
100
AcDbLine
 62
7
  6
CONTINUOUS
 10
-77.9418419344
 20
269.7233115029
 11
-78.9222414453
 21
269.8876340726
  0
SPLINE
  5
397
100
AcDbEntity
  8
0
100
AcDbSpline
 62
7
  6
CONTINUOUS
 70
0
 71
3
 72
9
 73
5
 74
0
 42
0.0000001
 43
0.0000001
 44
0.0000000001
 40
0.0
 40
0.0
 40
0.0
 40
0.0
 40
0.5382772659
 40
1.0
 40
1.0
 40
1.0
 40
1.0
 10
-79.111001629
 20
269.7366496839
 30
0.0
 10
-78.9013377789
 20
269.7286691268
 30
0.0
 10
-78.5116530769
 20
269.7180349532
 30
0.0
 10
-78.1217614555
 20
269.7188268073
 30
0.0
 10
-77.9418419344
 20
269.7233115029
 30
0.0
  0
SPLINE
  5
398
100
AcDbEntity
  8
0
100
AcDbSpline
 62
7
  6
CONTINUOUS
 70
0
 71
3
 72
15
 73
11
 74
0
 42
0.0000001
 43
0.0000001
 44
0.0000000001
 40
0.0
 40
0.0
 40
0.0
 40
0.0
 40
0.1142076671
 40
0.2304519858
 40
0.3498597342
 40
0.4730799618
 40
0.6002490093
 40
0.7310159186
 40
0.8646164596
 40
1.0
 40
1.0
 40
1.0
 40
1.0
 10
-80.7917412475
 20
266.9097153614
 30
0.0
 10
-80.9621229354
 20
266.9482392207
 30
0.0
 10
-81.2985833827
 20
267.0633464475
 30
0.0
 10
-81.7609051034
 20
267.3397995552
 30
0.0
 10
-82.1695587742
 20
267.7114482531
 30
0.0
 10
-82.5116181879
 20
268.1657826676
 30
0.0
 10
-82.7768973631
 20
268.6880658949
 30
0.0
 10
-82.9574825533
 20
269.2617837657
 30
0.0
 10
-83.0481001942
 20
269.868788041
 30
0.0
 10
-83.0467388075
 20
270.2820262209
 30
0.0
 10
-83.0307115725
 20
270.4884764911
 30
0.0
  0
SPLINE
  5
399
100
AcDbEntity
  8
0
100
AcDbSpline
 62
7
  6
CONTINUOUS
 70
0
 71
3
 72
13
 73
9
 74
0
 42
0.0000001
 43
0.0000001
 44
0.0000000001
 40
0.0
 40
0.0
 40
0.0
 40
0.0
 40
0.2659299306
 40
0.5242116871
 40
0.6486569859
 40
0.7692048115
 40
0.886073911
 40
1.0
 40
1.0
 40
1.0
 40
1.0
 10
-83.0307115725
 20
270.4884764911
 30
0.0
 10
-82.9987106902
 20
270.9006867555
 30
0.0
 10
-82.8144717006
 20
271.7086793922
 30
0.0
 10
-82.2985185623
 20
272.5960488595
 30
0.0
 10
-81.7469563385
 20
273.155946392
 30
0.0
 10
-81.2849394634
 20
273.4826706334
 30
0.0
 10
-80.7845575889
 20
273.7098371797
 30
0.0
 10
-80.4318150068
 20
273.790467287
 30
0.0
 10
-80.2559406903
 20
273.8114778625
 30
0.0
  0
SPLINE
  5
39A
100
AcDbEntity
  8
0
100
AcDbSpline
 62
7
  6
CONTINUOUS
 70
0
 71
3
 72
11
 73
7
 74
0
 42
0.0000001
 43
0.0000001
 44
0.0000000001
 40
0.0
 40
0.0
 40
0.0
 40
0.0
 40
0.2599001346
 40
0.5153607437
 40
0.7630662781
 40
1.0
 40
1.0
 40
1.0
 40
1.0
 10
-79.0341306047
 20
270.7268419226
 30
0.0
 10
-79.0260495856
 20
270.9935034729
 30
0.0
 10
-79.0300525567
 20
271.5231065926
 30
0.0
 10
-79.0966421304
 20
272.3043476244
 30
0.0
 10
-79.222491446
 20
273.0544071397
 30
0.0
 10
-79.3476009612
 20
273.5367669902
 30
0.0
 10
-79.4203171558
 20
273.7688512361
 30
0.0
  0
SPLINE
  5
39B
100
AcDbEntity
  8
0
100
AcDbSpline
 62
7
  6
CONTINUOUS
 70
0
 71
3
 72
15
 73
11
 74
0
 42
0.0000001
 43
0.0000001
 44
0.0000000001
 40
0.0
 40
0.0
 40
0.0
 40
0.0
 40
0.1194104849
 40
0.2411294765
 40
0.3654756903
 40
0.4921473451
 40
0.6202215268
 40
0.7483885684
 40
0.8753074583
 40
1.0
 40
1.0
 40
1.0
 40
1.0
 10
-200.0992269007
 20
281.6071180181
 30
0.0
 10
-202.1667986556
 20
281.4721100131
 30
0.0
 10
-206.3222631657
 20
280.7006111546
 30
0.0
 10
-212.2030407857
 20
278.2168440738
 30
0.0
 10
-217.5872770303
 20
274.5634437687
 30
0.0
 10
-222.2958097176
 20
269.9214155952
 30
0.0
 10
-226.1743155843
 20
264.4872948353
 30
0.0
 10
-229.0835696641
 20
258.4729727708
 30
0.0
 10
-230.9059910223
 20
252.1070443522
 30
0.0
 10
-231.3368349736
 20
247.7318175143
 30
0.0
 10
-231.3368349736
 20
245.5681899158
 30
0.0
  0
SPLINE
  5
39C
100
AcDbEntity
  8
0
100
AcDbSpline
 62
7
  6
CONTINUOUS
 70
0
 71
3
 72
11
 73
7
 74
0
 42
0.0000001
 43
0.0000001
 44
0.0000000001
 40
0.0
 40
0.0
 40
0.0
 40
0.0
 40
0.2546791486
 40
0.5059018819
 40
0.7541238016
 40
1.0
 40
1.0
 40
1.0
 40
1.0
 10
-231.3368349736
 20
245.5681899158
 30
0.0
 10
-231.3368349736
 20
244.1704578936
 30
0.0
 10
-231.1600600962
 20
241.390203954
 30
0.0
 10
-230.3386435267
 20
237.3203397319
 30
0.0
 10
-228.9580875483
 20
233.4546807149
 30
0.0
 10
-227.6622210133
 20
231.0576848741
 30
0.0
 10
-226.9272942662
 20
229.9259534809
 30
0.0
  0
SPLINE
  5
39D
100
AcDbEntity
  8
0
100
AcDbSpline
 62
7
  6
CONTINUOUS
 70
0
 71
3
 72
9
 73
5
 74
0
 42
0.0000001
 43
0.0000001
 44
0.0000000001
 40
0.0
 40
0.0
 40
0.0
 40
0.0
 40
0.5034223306
 40
1.0
 40
1.0
 40
1.0
 40
1.0
 10
-201.8192420903
 20
280.9062023681
 30
0.0
 10
-204.1663169167
 20
279.6525036257
 30
0.0
 10
-208.7293810058
 20
276.9662728995
 30
0.0
 10
-212.9309714746
 20
273.7231743105
 30
0.0
 10
-214.8719607702
 20
271.9562976838
 30
0.0
  0
SPLINE
  5
39E
100
AcDbEntity
  8
0
100
AcDbSpline
 62
7
  6
CONTINUOUS
 70
0
 71
3
 72
9
 73
5
 74
0
 42
0.0000001
 43
0.0000001
 44
0.0000000001
 40
0.0
 40
0.0
 40
0.0
 40
0.0
 40
0.47363299
 40
1.0
 40
1.0
 40
1.0
 40
1.0
 10
-226.3311589104
 20
255.5776423585
 30
0.0
 10
-226.9533344549
 20
253.5749479136
 30
0.0
 10
-227.9779043612
 20
249.2493007833
 30
0.0
 10
-228.3017132984
 20
244.8115526989
 30
0.0
 10
-228.3017132984
 20
242.4809471688
 30
0.0
  0
SPLINE
  5
39F
100
AcDbEntity
  8
0
100
AcDbSpline
 62
7
  6
CONTINUOUS
 70
0
 71
3
 72
9
 73
5
 74
0
 42
0.0000001
 43
0.0000001
 44
0.0000000001
 40
0.0
 40
0.0
 40
0.0
 40
0.0
 40
0.5172800568
 40
1.0
 40
1.0
 40
1.0
 40
1.0
 10
-214.8719607702
 20
271.9562976838
 30
0.0
 10
-216.7206737083
 20
270.2734199435
 30
0.0
 10
-220.046618077
 20
266.7336723485
 30
0.0
 10
-222.7856385607
 20
262.7319702168
 30
0.0
 10
-223.9835706742
 20
260.7300817636
 30
0.0
  0
SPLINE
  5
3A0
100
AcDbEntity
  8
0
100
AcDbSpline
 62
7
  6
CONTINUOUS
 70
0
 71
3
 72
9
 73
5
 74
0
 42
0.0000001
 43
0.0000001
 44
0.0000000001
 40
0.0
 40
0.0
 40
0.0
 40
0.0
 40
0.4901244059
 40
1.0
 40
1.0
 40
1.0
 40
1.0
 10
-228.3017132984
 20
242.4809471688
 30
0.0
 10
-228.3017132984
 20
239.9448663305
 30
0.0
 10
-227.895249802
 20
234.7679870105
 30
0.0
 10
-226.9191583875
 20
229.6798624515
 30
0.0
 10
-226.3311589104
 20
227.1079407432
 30
0.0
  0
SPLINE
  5
3A1
100
AcDbEntity
  8
0
100
AcDbSpline
 62
7
  6
CONTINUOUS
 70
0
 71
3
 72
9
 73
5
 74
0
 42
0.0000001
 43
0.0000001
 44
0.0000000001
 40
0.0
 40
0.0
 40
0.0
 40
0.0
 40
0.253692033
 40
1.0
 40
1.0
 40
1.0
 40
1.0
 10
-226.3311589104
 20
227.1079407432
 30
0.0
 10
-226.1635607845
 20
226.7615462194
 30
0.0
 10
-225.4725082646
 20
225.411131226
 30
0.0
 10
-224.6577266762
 20
224.1234644387
 30
0.0
 10
-223.9835706742
 20
223.2140691336
 30
0.0
  0
SPLINE
  5
3A2
100
AcDbEntity
  8
0
100
AcDbSpline
 62
7
  6
CONTINUOUS
 70
0
 71
3
 72
9
 73
5
 74
0
 42
0.0000001
 43
0.0000001
 44
0.0000000001
 40
0.0
 40
0.0
 40
0.0
 40
0.0
 40
0.5135851349
 40
1.0
 40
1.0
 40
1.0
 40
1.0
 10
-229.4277443773
 20
243.1313218076
 30
0.0
 10
-229.4277443773
 20
241.2051445116
 30
0.0
 10
-229.1023210901
 20
237.4449172953
 30
0.0
 10
-228.0418881126
 20
233.814442152
 30
0.0
 10
-227.3360396101
 20
232.1322523655
 30
0.0
  0
SPLINE
  5
3A3
100
AcDbEntity
  8
0
100
AcDbSpline
 62
7
  6
CONTINUOUS
 70
0
 71
3
 72
14
 73
10
 74
0
 42
0.0000001
 43
0.0000001
 44
0.0000000001
 40
0.0
 40
0.0
 40
0.0
 40
0.0
 40
0.1158796151
 40
0.2373282289
 40
0.3633334787
 40
0.4923481407
 40
0.6225129216
 40
0.751854065
 40
1.0
 40
1.0
 40
1.0
 40
1.0
 10
-203.8806807578
 20
279.8219806536
 30
0.0
 10
-205.6241047699
 20
279.2596896285
 30
0.0
 10
-209.0876547339
 20
277.7541161159
 30
0.0
 10
-213.9026006339
 20
274.5781605297
 30
0.0
 10
-218.3089208441
 20
270.542286632
 30
0.0
 10
-222.151450877
 20
265.7917170989
 30
0.0
 10
-225.2980175588
 20
260.4893099307
 30
0.0
 10
-228.3698235948
 20
253.0593822234
 30
0.0
 10
-229.4277443773
 20
247.0540804434
 30
0.0
 10
-229.4277443773
 20
243.1313218076
 30
0.0
  0
SPLINE
  5
3A4
100
AcDbEntity
  8
0
100
AcDbSpline
 62
7
  6
CONTINUOUS
 70
0
 71
3
 72
25
 73
21
 74
0
 42
0.0000001
 43
0.0000001
 44
0.0000000001
 40
0.0
 40
0.0
 40
0.0
 40
0.0
 40
0.0157125681
 40
0.0319505943
 40
0.0491799816
 40
0.0677686538
 40
0.1099229086
 40
0.159582338
 40
0.2167964664
 40
0.2809689453
 40
0.3510776773
 40
0.4258113477
 40
0.5036622451
 40
0.5829993212
 40
0.6621349856
 40
0.7393892249
 40
0.8131527543
 40
0.8819578545
 40
0.9445506783
 40
1.0
 40
1.0
 40
1.0
 40
1.0
 10
-34.6290134569
 20
307.5739458505
 30
0.0
 10
-34.6290050955
 20
308.0031094973
 30
0.0
 10
-34.5390181997
 20
308.8781712342
 30
0.0
 10
-34.1396120213
 20
310.1686362305
 30
0.0
 10
-33.4813486468
 20
311.4365052663
 30
0.0
 10
-32.2156536543
 20
313.1579874189
 30
0.0
 10
-29.9559407259
 20
315.1975740718
 30
0.0
 10
-26.477919725
 20
317.3387325994
 30
0.0
 10
-22.1973537126
 20
319.2384514347
 30
0.0
 10
-17.2141563642
 20
320.8516956149
 30
0.0
 10
-11.6463153867
 20
322.1398495631
 30
0.0
 10
-5.6303544702
 20
323.0699867881
 30
0.0
 10
0.6848567989
 20
323.6183431013
 30
0.0
 10
7.1420295003
 20
323.7707597177
 30
0.0
 10
13.5799733573
 20
323.5233157949
 30
0.0
 10
19.838034873
 20
322.8823567005
 30
0.0
 10
25.7603476833
 20
321.8644859048
 30
0.0
 10
31.2010207788
 20
320.4954922473
 30
0.0
 10
36.0258614877
 20
318.8107070844
 30
0.0
 10
38.9438122354
 20
317.4142999823
 30
0.0
 10
40.2552846184
 20
316.6568178902
 30
0.0
  0
SPLINE
  5
3A5
100
AcDbEntity
  8
0
100
AcDbSpline
 62
7
  6
CONTINUOUS
 70
0
 71
3
 72
26
 73
22
 74
0
 42
0.0000001
 43
0.0000001
 44
0.0000000001
 40
0.0
 40
0.0
 40
0.0
 40
0.0
 40
0.0157791383
 40
0.0322979817
 40
0.0499635002
 40
0.069084216
 40
0.0898735882
 40
0.1124604221
 40
0.1631884365
 40
0.2212301839
 40
0.285927782
 40
0.3562465633
 40
0.4308919244
 40
0.5083927121
 40
0.5871698774
 40
0.6655979243
 40
0.7420639821
 40
0.8150271875
 40
0.8830841034
 40
0.9450372234
 40
1.0
 40
1.0
 40
1.0
 40
1.0
 10
-51.9347404618
 20
307.0885938282
 30
0.0
 10
-51.8747977369
 20
307.6943490108
 30
0.0
 10
-51.6262599142
 20
308.9247046391
 30
0.0
 10
-50.8964543382
 20
310.7188532793
 30
0.0
 10
-49.8143963117
 20
312.4771369108
 30
0.0
 10
-48.3905624408
 20
314.1899240015
 30
0.0
 10
-46.6349392339
 20
315.8494916975
 30
0.0
 10
-43.7536865191
 20
318.0662056224
 30
0.0
 10
-39.3460022976
 20
320.6093744169
 30
0.0
 10
-33.1653542395
 20
323.2057779759
 30
0.0
 10
-26.0368806263
 20
325.3984580527
 30
0.0
 10
-18.1293128303
 20
327.1342041539
 30
0.0
 10
-9.630042597
 20
328.3704419624
 30
0.0
 10
-0.7437623013
 20
329.0763407857
 30
0.0
 10
8.3148072326
 20
329.2342737363
 30
0.0
 10
17.326284373
 20
328.8403089582
 30
0.0
 10
26.0726179292
 20
327.9042604892
 30
0.0
 10
34.3425670921
 20
326.4496134457
 30
0.0
 10
41.9385382731
 20
324.5120712029
 30
0.0
 10
48.678842551
 20
322.1401105059
 30
0.0
 10
52.7580731333
 20
320.1818928196
 30
0.0
 10
54.594128087
 20
319.1214215771
 30
0.0
  0
SPLINE
  5
3A6
100
AcDbEntity
  8
0
100
AcDbSpline
 62
7
  6
CONTINUOUS
 70
0
 71
3
 72
13
 73
9
 74
0
 42
0.0000001
 43
0.0000001
 44
0.0000000001
 40
0.0
 40
0.0
 40
0.0
 40
0.0
 40
0.30745118
 40
0.444374449
 40
0.5707356865
 40
0.7961193261
 40
0.8995508988
 40
1.0
 40
1.0
 40
1.0
 40
1.0
 10
40.2552846184
 20
316.6568178902
 30
0.0
 10
41.3245331246
 20
316.0392398108
 30
0.0
 10
42.8198594407
 20
315.0461561606
 30
0.0
 10
44.5309419747
 20
313.5144872302
 30
0.0
 10
45.843207701
 20
312.0530302542
 30
0.0
 10
46.8088749852
 20
310.4619082641
 30
0.0
 10
47.291696089
 20
308.7982486673
 30
0.0
 10
47.3709880532
 20
307.9773695305
 30
0.0
 10
47.3709859677
 20
307.5739458506
 30
0.0
  0
SPLINE
  5
3A7
100
AcDbEntity
  8
0
100
AcDbSpline
 62
7
  6
CONTINUOUS
 70
0
 71
3
 72
13
 73
9
 74
0
 42
0.0000001
 43
0.0000001
 44
0.0000000001
 40
0.0
 40
0.0
 40
0.0
 40
0.0
 40
0.3045696624
 40
0.5678615448
 40
0.6857306198
 40
0.7958454777
 40
0.8998901762
 40
1.0
 40
1.0
 40
1.0
 40
1.0
 10
54.594128087
 20
319.1214215771
 30
0.0
 10
56.0226122087
 20
318.2963556778
 30
0.0
 10
58.5995662395
 20
316.5974021365
 30
0.0
 10
61.3354177252
 20
314.0447896086
 30
0.0
 10
62.9339488699
 20
311.9093552513
 30
0.0
 10
63.8137497775
 20
310.3337664912
 30
0.0
 10
64.4117969515
 20
308.7327787608
 30
0.0
 10
64.6214054432
 20
307.6403929398
 30
0.0
 10
64.6755279147
 20
307.100877366
 30
0.0
  0
SPLINE
  5
3A8
100
AcDbEntity
  8
0
100
AcDbSpline
 62
7
  6
CONTINUOUS
 70
0
 71
3
 72
13
 73
9
 74
0
 42
0.0000001
 43
0.0000001
 44
0.0000000001
 40
0.0
 40
0.0
 40
0.0
 40
0.0
 40
0.1004483953
 40
0.2038794254
 40
0.4292630099
 40
0.5556246272
 40
0.6925486389
 40
1.0
 40
1.0
 40
1.0
 40
1.0
 10
-34.6290023382
 20
306.1949439302
 30
0.0
 10
-34.6290033198
 20
305.7915232732
 30
0.0
 10
-34.5497191
 20
304.9706490205
 30
0.0
 10
-34.0668978669
 20
303.3069953251
 30
0.0
 10
-33.1012413187
 20
301.7158698659
 30
0.0
 10
-31.7889741201
 20
300.2544090319
 30
0.0
 10
-30.0778896834
 20
298.7227361633
 30
0.0
 10
-28.5825613928
 20
297.7296500464
 30
0.0
 10
-27.5133127546
 20
297.1120718907
 30
0.0
  0
SPLINE
  5
3A9
100
AcDbEntity
  8
0
100
AcDbSpline
 62
7
  6
CONTINUOUS
 70
0
 71
3
 72
25
 73
21
 74
0
 42
0.0000001
 43
0.0000001
 44
0.0000000001
 40
0.0
 40
0.0
 40
0.0
 40
0.0
 40
0.0157126034
 40
0.0319506946
 40
0.0491802231
 40
0.0677690195
 40
0.1099235496
 40
0.1595827907
 40
0.2167958209
 40
0.2809671016
 40
0.351075894
 40
0.4258106235
 40
0.503662407
 40
0.5829998451
 40
0.6621355118
 40
0.7393895871
 40
0.8131533624
 40
0.8819584154
 40
0.9445509148
 40
1.0
 40
1.0
 40
1.0
 40
1.0
 10
47.3709859677
 20
307.5739458506
 30
0.0
 10
47.370983749
 20
307.1447812305
 30
0.0
 10
47.2809844228
 20
306.2697173614
 30
0.0
 10
46.8815853839
 20
304.9792439876
 30
0.0
 10
46.2233053802
 20
303.7113726337
 30
0.0
 10
44.957609893
 20
301.9898735183
 30
0.0
 10
42.6978800578
 20
299.9502934548
 30
0.0
 10
39.2198824791
 20
297.8091530343
 30
0.0
 10
34.9393784782
 20
295.9094613637
 30
0.0
 10
29.956242124
 20
294.2962283239
 30
0.0
 10
24.3884054039
 20
293.0080645193
 30
0.0
 10
18.3723912059
 20
292.0779114863
 30
0.0
 10
12.0571170292
 20
291.5295480644
 30
0.0
 10
5.5999099589
 20
291.3771322855
 30
0.0
 10
-0.8380393414
 20
291.6245795041
 30
0.0
 10
-7.0961031257
 20
292.2655401012
 30
0.0
 10
-13.0184163413
 20
293.2834152092
 30
0.0
 10
-18.459085308
 20
294.6524114102
 30
0.0
 10
-23.2839096988
 20
296.3371931381
 30
0.0
 10
-26.2018459433
 20
297.7335949369
 30
0.0
 10
-27.5133127546
 20
298.4910738109
 30
0.0
  0
SPLINE
  5
3AA
100
AcDbEntity
  8
0
100
AcDbSpline
 62
7
  6
CONTINUOUS
 70
0
 71
3
 72
13
 73
9
 74
0
 42
0.0000001
 43
0.0000001
 44
0.0000000001
 40
0.0
 40
0.0
 40
0.0
 40
0.0
 40
0.3074454925
 40
0.4443665154
 40
0.5707294886
 40
0.79611727
 40
0.8995499599
 40
1.0
 40
1.0
 40
1.0
 40
1.0
 10
-27.5133127546
 20
298.4910738109
 30
0.0
 10
-28.5825414346
 20
299.1086404391
 30
0.0
 10
-30.0778463072
 20
300.1016985415
 30
0.0
 10
-31.7889100194
 20
301.6333509278
 30
0.0
 10
-33.1011956963
 20
303.0948084042
 30
0.0
 10
-34.0668930437
 20
304.6859481051
 30
0.0
 10
-34.5497203378
 20
306.3496309666
 30
0.0
 10
-34.6290213168
 20
307.1705184175
 30
0.0
 10
-34.6290134569
 20
307.5739458505
 30
0.0
  0
SPLINE
  5
3AB
100
AcDbEntity
  8
0
100
AcDbSpline
 62
7
  6
CONTINUOUS
 70
0
 71
3
 72
25
 73
21
 74
0
 42
0.0000001
 43
0.0000001
 44
0.0000000001
 40
0.0
 40
0.0
 40
0.0
 40
0.0
 40
0.0554492105
 40
0.1180419337
 40
0.186847055
 40
0.2606106215
 40
0.3378649234
 40
0.4170007139
 40
0.4963380581
 40
0.574189679
 40
0.6489243286
 40
0.7190330934
 40
0.7832043406
 40
0.8404173143
 40
0.8900764889
 40
0.9322309736
 40
0.9508197526
 40
0.9680492872
 40
0.9842873958
 40
1.0
 40
1.0
 40
1.0
 40
1.0
 10
-27.5133127546
 20
297.1120718907
 30
0.0
 10
-26.201843348
 20
296.3545915177
 30
0.0
 10
-23.2838987788
 20
294.9581868771
 30
0.0
 10
-18.4590638934
 20
293.2734049183
 30
0.0
 10
-13.0183935445
 20
291.904411254
 30
0.0
 10
-7.0960789559
 20
290.886540438
 30
0.0
 10
-0.8380128824
 20
290.2455815297
 30
0.0
 10
5.5999417922
 20
289.998137961
 30
0.0
 10
12.0571433285
 20
290.1505566751
 30
0.0
 10
18.3724063238
 20
290.6989219253
 30
0.0
 10
24.3884112203
 20
291.6290754823
 30
0.0
 10
29.9562423021
 20
292.9172394917
 30
0.0
 10
34.9393737712
 20
294.5304722346
 30
0.0
 10
39.2198725349
 20
296.4301621587
 30
0.0
 10
42.6978647086
 20
298.5712996795
 30
0.0
 10
44.9575934752
 20
300.6108749134
 30
0.0
 10
46.2232866715
 20
302.3323726051
 30
0.0
 10
46.8815710725
 20
303.6002417344
 30
0.0
 10
47.2809675862
 20
304.8907157878
 30
0.0
 10
47.3709731577
 20
305.7657794093
 30
0.0
 10
47.370974202
 20
306.1949439306
 30
0.0
  0
SPLINE
  5
3AC
100
AcDbEntity
  8
0
100
AcDbSpline
 62
7
  6
CONTINUOUS
 70
0
 71
3
 72
9
 73
5
 74
0
 42
0.0000001
 43
0.0000001
 44
0.0000000001
 40
0.0
 40
0.0
 40
0.0
 40
0.0
 40
0.2288921309
 40
1.0
 40
1.0
 40
1.0
 40
1.0
 10
59.0356197483
 20
321.7666552926
 30
0.0
 10
59.2418599446
 20
321.3951388794
 30
0.0
 10
60.2392082588
 20
319.8251979453
 30
0.0
 10
61.5670534744
 20
318.4849580735
 30
0.0
 10
62.666550494
 20
317.5682643818
 30
0.0
  0
SPLINE
  5
3AD
100
AcDbEntity
  8
0
100
AcDbSpline
 62
7
  6
CONTINUOUS
 70
0
 71
3
 72
9
 73
5
 74
0
 42
0.0000001
 43
0.0000001
 44
0.0000000001
 40
0.0
 40
0.0
 40
0.0
 40
0.0
 40
0.4725915768
 40
1.0
 40
1.0
 40
1.0
 40
1.0
 10
62.666550494
 20
317.5682643818
 30
0.0
 10
63.5181284795
 20
316.8582704907
 30
0.0
 10
65.4339189339
 20
315.4910455715
 30
0.0
 10
67.4883514761
 20
314.3497865836
 30
0.0
 10
68.5951052421
 20
313.7965381465
 30
0.0
  0
SPLINE
  5
3AE
100
AcDbEntity
  8
0
100
AcDbSpline
 62
7
  6
CONTINUOUS
 70
0
 71
3
 72
9
 73
5
 74
0
 42
0.0000001
 43
0.0000001
 44
0.0000000001
 40
0.0
 40
0.0
 40
0.0
 40
0.0
 40
0.4789031452
 40
1.0
 40
1.0
 40
1.0
 40
1.0
 10
68.5485349225
 20
308.2956853023
 30
0.0
 10
68.6413633825
 20
307.5392823625
 30
0.0
 10
69.0705056581
 20
305.9832086066
 30
0.0
 10
69.8753657377
 20
304.5929833508
 30
0.0
 10
70.357538929
 20
303.9183606887
 30
0.0
  0
SPLINE
  5
3AF
100
AcDbEntity
  8
0
100
AcDbSpline
 62
7
  6
CONTINUOUS
 70
0
 71
3
 72
9
 73
5
 74
0
 42
0.0000001
 43
0.0000001
 44
0.0000000001
 40
0.0
 40
0.0
 40
0.0
 40
0.0
 40
0.5101536178
 40
1.0
 40
1.0
 40
1.0
 40
1.0
 10
-56.5352479461
 20
301.5073297223
 30
0.0
 10
-56.282150695
 20
302.0620179008
 30
0.0
 10
-55.8864807285
 20
303.1997662465
 30
0.0
 10
-55.74837524
 20
304.3985180403
 30
0.0
 10
-55.7483803643
 20
304.9839506937
 30
0.0
  0
SPLINE
  5
3B0
100
AcDbEntity
  8
0
100
AcDbSpline
 62
7
  6
CONTINUOUS
 70
0
 71
3
 72
9
 73
5
 74
0
 42
0.0000001
 43
0.0000001
 44
0.0000000001
 40
0.0
 40
0.0
 40
0.0
 40
0.0
 40
0.5294703325
 40
1.0
 40
1.0
 40
1.0
 40
1.0
 10
-57.1999441463
 20
311.4063647808
 30
0.0
 10
-56.2389593063
 20
311.9958448215
 30
0.0
 10
-54.479185735
 20
313.2040055979
 30
0.0
 10
-52.8975886103
 20
314.6449578211
 30
0.0
 10
-52.2225792942
 20
315.3853093342
 30
0.0
  0
SPLINE
  5
3B1
100
AcDbEntity
  8
0
100
AcDbSpline
 62
7
  6
CONTINUOUS
 70
0
 71
3
 72
9
 73
5
 74
0
 42
0.0000001
 43
0.0000001
 44
0.0000000001
 40
0.0
 40
0.0
 40
0.0
 40
0.0
 40
0.5264376627
 40
1.0
 40
1.0
 40
1.0
 40
1.0
 10
-52.2225792942
 20
315.3853093342
 30
0.0
 10
-51.6239695194
 20
316.0418656837
 30
0.0
 10
-50.5853167126
 20
317.3868848771
 30
0.0
 10
-49.8681894689
 20
318.9368613294
 30
0.0
 10
-49.6366280978
 20
319.7018243342
 30
0.0
  0
SPLINE
  5
3B2
100
AcDbEntity
  8
0
100
AcDbSpline
 62
7
  6
CONTINUOUS
 70
0
 71
3
 72
9
 73
5
 74
0
 42
0.0000001
 43
0.0000001
 44
0.0000000001
 40
0.0
 40
0.0
 40
0.0
 40
0.0
 40
0.5187216361
 40
1.0
 40
1.0
 40
1.0
 40
1.0
 10
-48.186542514
 20
320.6519686175
 30
0.0
 10
-46.6913686955
 20
321.0611885415
 30
0.0
 10
-43.831302421
 20
321.935266284
 30
0.0
 10
-41.037911009
 20
323.0066113838
 30
0.0
 10
-39.718256376
 20
323.5785574225
 30
0.0
  0
SPLINE
  5
3B3
100
AcDbEntity
  8
0
100
AcDbSpline
 62
7
  6
CONTINUOUS
 70
0
 71
3
 72
9
 73
5
 74
0
 42
0.0000001
 43
0.0000001
 44
0.0000000001
 40
0.0
 40
0.0
 40
0.0
 40
0.0
 40
0.5254815859
 40
1.0
 40
1.0
 40
1.0
 40
1.0
 10
-39.718256376
 20
323.5785574225
 30
0.0
 10
-38.5103962905
 20
324.1020510503
 30
0.0
 10
-36.2493190772
 20
325.1886466588
 30
0.0
 10
-34.1042680901
 20
326.4945043635
 30
0.0
 10
-33.1310376046
 20
327.1771125295
 30
0.0
  0
SPLINE
  5
3B4
100
AcDbEntity
  8
0
100
AcDbSpline
 62
7
  6
CONTINUOUS
 70
0
 71
3
 72
9
 73
5
 74
0
 42
0.0000001
 43
0.0000001
 44
0.0000000001
 40
0.0
 40
0.0
 40
0.0
 40
0.0
 40
0.2556903406
 40
1.0
 40
1.0
 40
1.0
 40
1.0
 10
-30.867251741
 20
327.83658186
 30
0.0
 10
-29.9529010346
 20
327.9151680127
 30
0.0
 10
-26.3806348922
 20
328.2636707127
 30
0.0
 10
-22.8238309176
 20
328.7775195347
 30
0.0
 10
-20.1972641165
 20
329.2652683006
 30
0.0
  0
SPLINE
  5
3B5
100
AcDbEntity
  8
0
100
AcDbSpline
 62
7
  6
CONTINUOUS
 70
0
 71
3
 72
9
 73
5
 74
0
 42
0.0000001
 43
0.0000001
 44
0.0000000001
 40
0.0
 40
0.0
 40
0.0
 40
0.0
 40
0.2602016354
 40
1.0
 40
1.0
 40
1.0
 40
1.0
 10
-20.1972641165
 20
329.2652683006
 30
0.0
 10
-19.3557226397
 20
329.4215410505
 30
0.0
 10
-16.1296857214
 20
330.0642028038
 30
0.0
 10
-12.936231888
 20
330.8780388485
 30
0.0
 10
-10.6116221148
 20
331.5980161204
 30
0.0
  0
SPLINE
  5
3B6
100
AcDbEntity
  8
0
100
AcDbSpline
 62
7
  6
CONTINUOUS
 70
0
 71
3
 72
9
 73
5
 74
0
 42
0.0000001
 43
0.0000001
 44
0.0000000001
 40
0.0
 40
0.0
 40
0.0
 40
0.0
 40
0.2412380147
 40
1.0
 40
1.0
 40
1.0
 40
1.0
 10
17.2790952543
 20
332.1279547001
 30
0.0
 10
18.0823941575
 20
331.9252039262
 30
0.0
 10
21.4247990195
 20
331.1346098181
 30
0.0
 10
24.8111133129
 20
330.5337055248
 30
0.0
 10
27.391371611
 20
330.1694778873
 30
0.0
  0
SPLINE
  5
3B7
100
AcDbEntity
  8
0
100
AcDbSpline
 62
7
  6
CONTINUOUS
 70
0
 71
3
 72
9
 73
5
 74
0
 42
0.0000001
 43
0.0000001
 44
0.0000000001
 40
0.0
 40
0.0
 40
0.0
 40
0.0
 40
0.2455132228
 40
1.0
 40
1.0
 40
1.0
 40
1.0
 10
27.391371611
 20
330.1694778873
 30
0.0
 10
28.2843336946
 20
330.0434279216
 30
0.0
 10
31.9277310044
 20
329.5751493318
 30
0.0
 10
35.5932366555
 20
329.2817086886
 30
0.0
 10
38.3615653375
 20
329.1519664918
 30
0.0
  0
SPLINE
  5
3B8
100
AcDbEntity
  8
0
100
AcDbSpline
 62
7
  6
CONTINUOUS
 70
0
 71
3
 72
9
 73
5
 74
0
 42
0.0000001
 43
0.0000001
 44
0.0000000001
 40
0.0
 40
0.0
 40
0.0
 40
0.0
 40
0.4773865886
 40
1.0
 40
1.0
 40
1.0
 40
1.0
 10
40.7763065941
 20
328.5813916843
 30
0.0
 10
41.9061432663
 20
327.9422627265
 30
0.0
 10
44.3453077556
 20
326.7300519947
 30
0.0
 10
46.8758401035
 20
325.727371876
 30
0.0
 10
48.2140766815
 20
325.2493188831
 30
0.0
  0
SPLINE
  5
3B9
100
AcDbEntity
  8
0
100
AcDbSpline
 62
7
  6
CONTINUOUS
 70
0
 71
3
 72
9
 73
5
 74
0
 42
0.0000001
 43
0.0000001
 44
0.0000000001
 40
0.0
 40
0.0
 40
0.0
 40
0.0
 40
0.2378513093
 40
1.0
 40
1.0
 40
1.0
 40
1.0
 10
48.2140766815
 20
325.2493188831
 30
0.0
 10
48.9240708469
 20
324.995690458
 30
0.0
 10
51.9286027598
 20
323.9841429104
 30
0.0
 10
55.0005621233
 20
323.178140466
 30
0.0
 10
57.3596134534
 20
322.6574021546
 30
0.0
  0
SPLINE
  5
3BA
100
AcDbEntity
  8
0
100
AcDbSpline
 62
7
  6
CONTINUOUS
 70
0
 71
3
 72
25
 73
21
 74
0
 42
0.0000001
 43
0.0000001
 44
0.0000000001
 40
0.0
 40
0.0
 40
0.0
 40
0.0
 40
0.0541264008
 40
0.1149827957
 40
0.1817540696
 40
0.2533371543
 40
0.3284360179
 40
0.4056226495
 40
0.4833963056
 40
0.5602362363
 40
0.6346537618
 40
0.7052456128
 40
0.7707531484
 40
0.8301315946
 40
0.8826424884
 40
0.9279943466
 40
0.9481029757
 40
0.9666475087
 40
0.9838446586
 40
1.0
 40
1.0
 40
1.0
 40
1.0
 10
-41.9761231695
 20
294.1545708774
 30
0.0
 10
-40.1879037993
 20
293.1217285794
 30
0.0
 10
-36.2248519516
 20
291.2090795822
 30
0.0
 10
-29.6847710451
 20
288.8765239185
 30
0.0
 10
-22.3226702613
 20
286.9542214484
 30
0.0
 10
-14.3053952903
 20
285.487641135
 30
0.0
 10
-5.8144110707
 20
284.5108366539
 30
0.0
 10
2.9560220551
 20
284.0469834273
 30
0.0
 10
11.8048303465
 20
284.1070086437
 30
0.0
 10
20.5289562663
 20
284.6895115827
 30
0.0
 10
28.9284205585
 20
285.780711705
 30
0.0
 10
36.8115077139
 20
287.3549315416
 30
0.0
 10
43.9993518245
 20
289.375144178
 30
0.0
 10
50.3327777342
 20
291.7954835814
 30
0.0
 10
55.6721569583
 20
294.5615088398
 30
0.0
 10
59.3433830769
 20
297.2113944563
 30
0.0
 10
61.6182846286
 20
299.4780740798
 30
0.0
 10
62.9380098006
 20
301.1590539481
 30
0.0
 10
63.9311409804
 20
302.8803458704
 30
0.0
 10
64.3801121442
 20
304.0792324043
 30
0.0
 10
64.5413268914
 20
304.6741443923
 30
0.0
  0
SPLINE
  5
3BB
100
AcDbEntity
  8
0
100
AcDbSpline
 62
7
  6
CONTINUOUS
 70
0
 71
3
 72
9
 73
5
 74
0
 42
0.0000001
 43
0.0000001
 44
0.0000000001
 40
0.0
 40
0.0
 40
0.0
 40
0.0
 40
0.2529937673
 40
1.0
 40
1.0
 40
1.0
 40
1.0
 10
64.5948074602
 20
304.8802999782
 30
0.0
 10
64.6405388819
 20
305.0648076099
 30
0.0
 10
64.800041556
 20
305.799185846
 30
0.0
 10
64.8709052027
 20
306.553004473
 30
0.0
 10
64.8709243365
 20
307.1142785724
 30
0.0
  0
SPLINE
  5
3BC
100
AcDbEntity
  8
0
100
AcDbSpline
 62
7
  6
CONTINUOUS
 70
0
 71
3
 72
9
 73
5
 74
0
 42
0.0000001
 43
0.0000001
 44
0.0000000001
 40
0.0
 40
0.0
 40
0.0
 40
0.0
 40
0.248257997
 40
1.0
 40
1.0
 40
1.0
 40
1.0
 10
-52.1289524727
 20
307.1142785151
 30
0.0
 10
-52.1289588155
 20
306.9282167301
 30
0.0
 10
-52.106011771
 20
306.1788691959
 30
0.0
 10
-51.9894108336
 20
305.4328199005
 30
0.0
 10
-51.8541908634
 20
304.8858795388
 30
0.0
  0
SPLINE
  5
3BD
100
AcDbEntity
  8
0
100
AcDbSpline
 62
7
  6
CONTINUOUS
 70
0
 71
3
 72
11
 73
7
 74
0
 42
0.0000001
 43
0.0000001
 44
0.0000000001
 40
0.0
 40
0.0
 40
0.0
 40
0.0
 40
0.2060660058
 40
0.4371179277
 40
0.7006326907
 40
1.0
 40
1.0
 40
1.0
 40
1.0
 10
-51.81120745
 20
304.718374855
 30
0.0
 10
-51.5503937001
 20
303.7378615272
 30
0.0
 10
-50.6686726987
 20
301.7392559516
 30
0.0
 10
-48.5319999345
 20
298.9998972516
 30
0.0
 10
-45.5826841695
 20
296.4078406782
 30
0.0
 10
-43.2525138641
 20
294.8917904378
 30
0.0
 10
-41.9761231695
 20
294.1545708774
 30
0.0
  0
SPLINE
  5
3BE
100
AcDbEntity
  8
0
100
AcDbSpline
 62
7
  6
CONTINUOUS
 70
0
 71
3
 72
17
 73
13
 74
0
 42
0.0000001
 43
0.0000001
 44
0.0000000001
 40
0.0
 40
0.0
 40
0.0
 40
0.0
 40
0.0469427429
 40
0.0978682007
 40
0.1525278822
 40
0.2106149624
 40
0.3354318344
 40
0.4686918507
 40
0.6061948346
 40
0.7434926563
 40
0.876146703
 40
1.0
 40
1.0
 40
1.0
 40
1.0
 10
-46.9348010261
 20
271.2210066755
 30
0.0
 10
-45.6929985971
 20
270.5037646549
 30
0.0
 10
-43.0324949493
 20
269.1306092379
 30
0.0
 10
-38.7382177364
 20
267.3131564302
 30
0.0
 10
-34.0128608122
 20
265.6687865884
 30
0.0
 10
-27.0297499559
 20
263.6809112598
 30
0.0
 10
-17.5461192938
 20
261.7683639431
 30
0.0
 10
-5.5262622635
 20
260.4032799455
 30
0.0
 10
6.9445336839
 20
259.971629136
 30
0.0
 10
19.3936857331
 20
260.4899964693
 30
0.0
 10
31.3489963016
 20
261.9378652898
 30
0.0
 10
39.0309147808
 20
263.5557045775
 30
0.0
 10
42.6854882249
 20
264.535333026
 30
0.0
  0
SPLINE
  5
3BF
100
AcDbEntity
  8
0
100
AcDbSpline
 62
7
  6
CONTINUOUS
 70
0
 71
3
 72
16
 73
12
 74
0
 42
0.0000001
 43
0.0000001
 44
0.0000000001
 40
0.0
 40
0.0
 40
0.0
 40
0.0
 40
0.1738670882
 40
0.3342969571
 40
0.4799866939
 40
0.6102705015
 40
0.7252684671
 40
0.8262694449
 40
0.9161635093
 40
0.9584937943
 40
1.0
 40
1.0
 40
1.0
 40
1.0
 10
42.6854882249
 20
264.535333026
 30
0.0
 10
44.7714016553
 20
265.0944735575
 30
0.0
 10
48.7501414487
 20
266.2955951678
 30
0.0
 10
54.3188775023
 20
268.4420108528
 30
0.0
 10
59.1911964879
 20
270.8370079574
 30
0.0
 10
63.299916949
 20
273.4478176478
 30
0.0
 10
66.5901111106
 20
276.2455703691
 30
0.0
 10
69.0153402943
 20
279.2027329808
 30
0.0
 10
70.2952353493
 20
281.8434704264
 30
0.0
 10
70.7893661655
 20
283.9513082354
 30
0.0
 10
70.8709705449
 20
284.9943782941
 30
0.0
 10
70.8709792466
 20
285.5099151249
 30
0.0
  0
SPLINE
  5
3C0
100
AcDbEntity
  8
0
100
AcDbSpline
 62
7
  6
CONTINUOUS
 70
0
 71
3
 72
13
 73
9
 74
0
 42
0.0000001
 43
0.0000001
 44
0.0000000001
 40
0.0
 40
0.0
 40
0.0
 40
0.0
 40
0.1004256181
 40
0.2038335624
 40
0.3128993351
 40
0.42979788
 40
0.6926143063
 40
1.0
 40
1.0
 40
1.0
 40
1.0
 10
-58.1289430019
 20
285.5099151355
 30
0.0
 10
-58.1289328371
 20
284.8752619895
 30
0.0
 10
-58.0045286909
 20
283.5839361414
 30
0.0
 10
-57.450018049
 20
281.6754026045
 30
0.0
 10
-56.535110635
 20
279.7956366516
 30
0.0
 10
-54.7776629771
 20
277.2436451218
 30
0.0
 10
-51.630595601
 20
274.1946866726
 30
0.0
 10
-48.6169433239
 20
272.1925808264
 30
0.0
 10
-46.9348010261
 20
271.2210066755
 30
0.0
  0
SPLINE
  5
3C1
100
AcDbEntity
  8
0
100
AcDbSpline
 62
7
  6
CONTINUOUS
 70
0
 71
3
 72
9
 73
5
 74
0
 42
0.0000001
 43
0.0000001
 44
0.0000000001
 40
0.0
 40
0.0
 40
0.0
 40
0.0
 40
0.5048366792
 40
1.0
 40
1.0
 40
1.0
 40
1.0
 10
70.4035252406
 20
294.5354851093
 30
0.0
 10
70.5566692745
 20
294.0378266138
 30
0.0
 10
70.7912402838
 20
293.0291985419
 30
0.0
 10
70.8710207649
 20
291.9963020408
 30
0.0
 10
70.8709993759
 20
291.4855901153
 30
0.0
  0
SPLINE
  5
3C2
100
AcDbEntity
  8
0
100
AcDbSpline
 62
7
  6
CONTINUOUS
 70
0
 71
3
 72
9
 73
5
 74
0
 42
0.0000001
 43
0.0000001
 44
0.0000000001
 40
0.0
 40
0.0
 40
0.0
 40
0.0
 40
0.2412380147
 40
1.0
 40
1.0
 40
1.0
 40
1.0
 10
-4.5371233904
 20
282.1006023873
 30
0.0
 10
-5.3404222937
 20
282.3033531612
 30
0.0
 10
-8.6828271556
 20
283.0939472693
 30
0.0
 10
-12.069141449
 20
283.6948515627
 30
0.0
 10
-14.6493997471
 20
284.0590792001
 30
0.0
  0
SPLINE
  5
3C3
100
AcDbEntity
  8
0
100
AcDbSpline
 62
7
  6
CONTINUOUS
 70
0
 71
3
 72
9
 73
5
 74
0
 42
0.0000001
 43
0.0000001
 44
0.0000000001
 40
0.0
 40
0.0
 40
0.0
 40
0.0
 40
0.2455132228
 40
1.0
 40
1.0
 40
1.0
 40
1.0
 10
-14.6493997471
 20
284.0590792001
 30
0.0
 10
-15.5423618307
 20
284.1851291658
 30
0.0
 10
-19.1857591406
 20
284.6534077557
 30
0.0
 10
-22.8512647916
 20
284.9468483988
 30
0.0
 10
-25.6195934736
 20
285.0765905957
 30
0.0
  0
SPLINE
  5
3C4
100
AcDbEntity
  8
0
100
AcDbSpline
 62
7
  6
CONTINUOUS
 70
0
 71
3
 72
9
 73
5
 74
0
 42
0.0000001
 43
0.0000001
 44
0.0000000001
 40
0.0
 40
0.0
 40
0.0
 40
0.0
 40
0.4773865886
 40
1.0
 40
1.0
 40
1.0
 40
1.0
 10
-28.0343347303
 20
285.6471654032
 30
0.0
 10
-29.1641714025
 20
286.2862943609
 30
0.0
 10
-31.6033358918
 20
287.4985050928
 30
0.0
 10
-34.1338682397
 20
288.5011852114
 30
0.0
 10
-35.4721048176
 20
288.9792382043
 30
0.0
  0
SPLINE
  5
3C5
100
AcDbEntity
  8
0
100
AcDbSpline
 62
7
  6
CONTINUOUS
 70
0
 71
3
 72
9
 73
5
 74
0
 42
0.0000001
 43
0.0000001
 44
0.0000000001
 40
0.0
 40
0.0
 40
0.0
 40
0.0
 40
0.2378513093
 40
1.0
 40
1.0
 40
1.0
 40
1.0
 10
-35.4721048176
 20
288.9792382043
 30
0.0
 10
-36.182098983
 20
289.2328666294
 30
0.0
 10
-39.1866308959
 20
290.2444141771
 30
0.0
 10
-42.2585902595
 20
291.0504166214
 30
0.0
 10
-44.6176415895
 20
291.5711549329
 30
0.0
  0
SPLINE
  5
3C6
100
AcDbEntity
  8
0
100
AcDbSpline
 62
7
  6
CONTINUOUS
 70
0
 71
3
 72
27
 73
23
 74
0
 42
0.0000001
 43
0.0000001
 44
0.0000000001
 40
0.0
 40
0.0
 40
0.0
 40
0.0
 40
0.0554437811
 40
0.1180293866
 40
0.1868272189
 40
0.2605831094
 40
0.3378291005
 40
0.4169564788
 40
0.4962855167
 40
0.5741291508
 40
0.6488561878
 40
0.7189577187
 40
0.7831223276
 40
0.8403293602
 40
0.8661332638
 40
0.8900229871
 40
0.9120271944
 40
0.9322379594
 40
0.9508251487
 40
0.9680524644
 40
0.9842890986
 40
1.0
 40
1.0
 40
1.0
 40
1.0
 10
54.7180950334
 20
320.0739862101
 30
0.0
 10
52.8468382638
 20
321.1547893677
 30
0.0
 10
48.6834345836
 20
323.1472221753
 30
0.0
 10
41.7992152849
 20
325.5510885391
 30
0.0
 10
34.0363301109
 20
327.5044176499
 30
0.0
 10
25.5862048276
 20
328.9567570186
 30
0.0
 10
16.6570215701
 20
329.8713110399
 30
0.0
 10
7.4711661612
 20
330.2243888109
 30
0.0
 10
-1.7421591418
 20
330.0069091443
 30
0.0
 10
-10.7530031026
 20
329.2244809283
 30
0.0
 10
-19.3367590783
 20
327.8972817092
 30
0.0
 10
-27.2813892081
 20
326.059349855
 30
0.0
 10
-34.3906129371
 20
323.7573343556
 30
0.0
 10
-39.6487950431
 20
321.4253586011
 30
0.0
 10
-43.262137155
 20
319.3436732827
 30
0.0
 10
-45.567745127
 20
317.7585562047
 30
0.0
 10
-47.5491064974
 20
316.1047810353
 30
0.0
 10
-49.1940082303
 20
314.3909366707
 30
0.0
 10
-50.4914903925
 20
312.6254815295
 30
0.0
 10
-51.4305878514
 20
310.8164374573
 30
0.0
 10
-52.0007749717
 20
308.9752264575
 30
0.0
 10
-52.1289315979
 20
307.7266211388
 30
0.0
 10
-52.1289524727
 20
307.1142785151
 30
0.0
  0
SPLINE
  5
3C7
100
AcDbEntity
  8
0
100
AcDbSpline
 62
7
  6
CONTINUOUS
 70
0
 71
3
 72
11
 73
7
 74
0
 42
0.0000001
 43
0.0000001
 44
0.0000000001
 40
0.0
 40
0.0
 40
0.0
 40
0.0
 40
0.25392781
 40
0.4978016267
 40
0.7433667672
 40
1.0
 40
1.0
 40
1.0
 40
1.0
 10
64.964551158
 20
285.283096065
 30
0.0
 10
65.2788851891
 20
285.6278582334
 30
0.0
 10
65.9713081817
 20
286.2407544069
 30
0.0
 10
67.197995411
 20
286.8719966846
 30
0.0
 10
68.5427299502
 20
287.1922302142
 30
0.0
 10
69.4709928436
 20
287.2171912225
 30
0.0
 10
69.9419160102
 20
287.1935038783
 30
0.0
  0
SPLINE
  5
3C8
100
AcDbEntity
  8
0
100
AcDbSpline
 62
7
  6
CONTINUOUS
 70
0
 71
3
 72
9
 73
5
 74
0
 42
0.0000001
 43
0.0000001
 44
0.0000000001
 40
0.0
 40
0.0
 40
0.0
 40
0.0
 40
0.2288921309
 40
1.0
 40
1.0
 40
1.0
 40
1.0
 10
-46.2936478845
 20
292.4619017948
 30
0.0
 10
-46.4998880807
 20
292.833418208
 30
0.0
 10
-47.497236395
 20
294.4033591422
 30
0.0
 10
-48.8250816106
 20
295.7435990139
 30
0.0
 10
-49.9245786302
 20
296.6602927056
 30
0.0
  0
SPLINE
  5
3C9
100
AcDbEntity
  8
0
100
AcDbSpline
 62
7
  6
CONTINUOUS
 70
0
 71
3
 72
9
 73
5
 74
0
 42
0.0000001
 43
0.0000001
 44
0.0000000001
 40
0.0
 40
0.0
 40
0.0
 40
0.0
 40
0.2389570473
 40
1.0
 40
1.0
 40
1.0
 40
1.0
 10
-49.9245786302
 20
296.6602927056
 30
0.0
 10
-50.1348936596
 20
296.8356405759
 30
0.0
 10
-51.0288607259
 20
297.5528186746
 30
0.0
 10
-51.973614256
 20
298.2056590273
 30
0.0
 10
-52.7110804131
 20
298.6711480028
 30
0.0
  0
SPLINE
  5
3CA
100
AcDbEntity
  8
0
100
AcDbSpline
 62
7
  6
CONTINUOUS
 70
0
 71
3
 72
9
 73
5
 74
0
 42
0.0000001
 43
0.0000001
 44
0.0000000001
 40
0.0
 40
0.0
 40
0.0
 40
0.0
 40
0.2406295804
 40
1.0
 40
1.0
 40
1.0
 40
1.0
 10
-52.7110804131
 20
298.6711480028
 30
0.0
 10
-52.9554435409
 20
298.8253901208
 30
0.0
 10
-53.9798833244
 20
299.4522096048
 30
0.0
 10
-55.0374466904
 20
300.0242702627
 30
0.0
 10
-55.8531333783
 20
300.432018941
 30
0.0
  0
SPLINE
  5
3CB
100
AcDbEntity
  8
0
100
AcDbSpline
 62
7
  6
CONTINUOUS
 70
0
 71
3
 72
10
 73
6
 74
0
 42
0.0000001
 43
0.0000001
 44
0.0000000001
 40
0.0
 40
0.0
 40
0.0
 40
0.0
 40
0.4536936658
 40
0.7142571872
 40
1.0
 40
1.0
 40
1.0
 40
1.0
 10
69.9419160102
 20
287.1935038783
 30
0.0
 10
69.2562987029
 20
285.6212965613
 30
0.0
 10
67.659743721
 20
283.3660228579
 30
0.0
 10
64.9191517612
 20
280.7615956496
 30
0.0
 10
63.2682032281
 20
279.5108747127
 30
0.0
 10
62.3785999616
 20
278.8980443249
 30
0.0
  0
SPLINE
  5
3CC
100
AcDbEntity
  8
0
100
AcDbSpline
 62
7
  6
CONTINUOUS
 70
0
 71
3
 72
10
 73
6
 74
0
 42
0.0000001
 43
0.0000001
 44
0.0000000001
 40
0.0
 40
0.0
 40
0.0
 40
0.0
 40
0.4544779319
 40
0.7163761459
 40
1.0
 40
1.0
 40
1.0
 40
1.0
 10
64.964551158
 20
285.283096065
 30
0.0
 10
64.2537357902
 20
284.5034724058
 30
0.0
 10
63.4282547345
 20
283.0059479677
 30
0.0
 10
62.7311782045
 20
280.793525746
 30
0.0
 10
62.481285363
 20
279.5483900819
 30
0.0
 10
62.3785999616
 20
278.8980443249
 30
0.0
  0
SPLINE
  5
3CD
100
AcDbEntity
  8
0
100
AcDbSpline
 62
7
  6
CONTINUOUS
 70
0
 71
3
 72
9
 73
5
 74
0
 42
0.0000001
 43
0.0000001
 44
0.0000000001
 40
0.0
 40
0.0
 40
0.0
 40
0.0
 40
0.5101536178
 40
1.0
 40
1.0
 40
1.0
 40
1.0
 10
69.27721981
 20
312.7212273651
 30
0.0
 10
69.0241225589
 20
312.1665391866
 30
0.0
 10
68.6284525923
 20
311.028790841
 30
0.0
 10
68.4903471039
 20
309.8300390471
 30
0.0
 10
68.4903522281
 20
309.2446063937
 30
0.0
  0
SPLINE
  5
3CE
100
AcDbEntity
  8
0
100
AcDbSpline
 62
7
  6
CONTINUOUS
 70
0
 71
3
 72
9
 73
5
 74
0
 42
0.0000001
 43
0.0000001
 44
0.0000000001
 40
0.0
 40
0.0
 40
0.0
 40
0.0
 40
0.4789031452
 40
1.0
 40
1.0
 40
1.0
 40
1.0
 10
-55.8065630586
 20
305.9328717852
 30
0.0
 10
-55.8993915187
 20
306.689274725
 30
0.0
 10
-56.3285337942
 20
308.2453484809
 30
0.0
 10
-57.1333938738
 20
309.6355737366
 30
0.0
 10
-57.6155670652
 20
310.3101963988
 30
0.0
  0
SPLINE
  5
3CF
100
AcDbEntity
  8
0
100
AcDbSpline
 62
7
  6
CONTINUOUS
 70
0
 71
3
 72
10
 73
6
 74
0
 42
0.0000001
 43
0.0000001
 44
0.0000000001
 40
0.0
 40
0.0
 40
0.0
 40
0.0
 40
0.2456919918
 40
0.4928093657
 40
1.0
 40
1.0
 40
1.0
 40
1.0
 10
52.4602282398
 20
277.0898479768
 30
0.0
 10
53.1075875531
 20
277.3704172906
 30
0.0
 10
54.4550680131
 20
277.8273756422
 30
0.0
 10
57.2961808015
 20
278.3054293795
 30
0.0
 10
59.4909652584
 20
278.1819691579
 30
0.0
 10
60.9285143779
 20
277.9479000416
 30
0.0
  0
SPLINE
  5
3D0
100
AcDbEntity
  8
0
100
AcDbSpline
 62
7
  6
CONTINUOUS
 70
0
 71
3
 72
10
 73
6
 74
0
 42
0.0000001
 43
0.0000001
 44
0.0000000001
 40
0.0
 40
0.0
 40
0.0
 40
0.0
 40
0.2240960573
 40
0.4660306962
 40
1.0
 40
1.0
 40
1.0
 40
1.0
 10
60.9285143779
 20
277.9479000416
 30
0.0
 10
59.8861445234
 20
277.2975159972
 30
0.0
 10
57.6570121422
 20
276.041900483
 30
0.0
 10
52.6926334364
 20
273.7075398065
 30
0.0
 10
48.6733348852
 20
272.2763936213
 30
0.0
 10
45.8730094684
 20
271.4227561296
 30
0.0
  0
SPLINE
  5
3D1
100
AcDbEntity
  8
0
100
AcDbSpline
 62
7
  6
CONTINUOUS
 70
0
 71
3
 72
10
 73
6
 74
0
 42
0.0000001
 43
0.0000001
 44
0.0000000001
 40
0.0
 40
0.0
 40
0.0
 40
0.0
 40
0.2424714082
 40
0.4891686163
 40
1.0
 40
1.0
 40
1.0
 40
1.0
 10
52.4602282398
 20
277.0898479768
 30
0.0
 10
51.808567305
 20
276.807414315
 30
0.0
 10
50.5386749379
 20
276.1275830946
 30
0.0
 10
48.1953520524
 20
274.3555323293
 30
0.0
 10
46.7289709112
 20
272.6500437028
 30
0.0
 10
45.8730094684
 20
271.4227561296
 30
0.0
  0
SPLINE
  5
3D2
100
AcDbEntity
  8
0
100
AcDbSpline
 62
7
  6
CONTINUOUS
 70
0
 71
3
 72
13
 73
9
 74
0
 42
0.0000001
 43
0.0000001
 44
0.0000000001
 40
0.0
 40
0.0
 40
0.0
 40
0.0
 40
0.1004251092
 40
0.203832481
 40
0.3128994823
 40
0.4297964767
 40
0.6926151041
 40
1.0
 40
1.0
 40
1.0
 40
1.0
 10
64.8709243365
 20
307.1142785724
 30
0.0
 10
64.8709439591
 20
307.689891328
 30
0.0
 10
64.7580451266
 20
308.8610820424
 30
0.0
 10
64.2551989216
 20
310.5920999065
 30
0.0
 10
63.425312304
 20
312.2969596651
 30
0.0
 10
61.8314397239
 20
314.6116244697
 30
0.0
 10
58.9770544515
 20
317.3769130109
 30
0.0
 10
56.2437550942
 20
319.1927932931
 30
0.0
 10
54.7180950334
 20
320.0739862101
 30
0.0
  0
SPLINE
  5
3D3
100
AcDbEntity
  8
0
100
AcDbSpline
 62
7
  6
CONTINUOUS
 70
0
 71
3
 72
10
 73
6
 74
0
 42
0.0000001
 43
0.0000001
 44
0.0000000001
 40
0.0
 40
0.0
 40
0.0
 40
0.0
 40
0.247655715
 40
0.4967345018
 40
1.0
 40
1.0
 40
1.0
 40
1.0
 10
32.9392359804
 20
271.4031370987
 30
0.0
 10
33.8134733755
 20
271.5654814223
 30
0.0
 10
35.5905314484
 20
271.7766032462
 30
0.0
 10
39.1877645928
 20
271.7494573534
 30
0.0
 10
41.8696068929
 20
271.2518666597
 30
0.0
 10
43.6092236048
 20
270.7632867991
 30
0.0
  0
SPLINE
  5
3D4
100
AcDbEntity
  8
0
100
AcDbSpline
 62
7
  6
CONTINUOUS
 70
0
 71
3
 72
9
 73
5
 74
0
 42
0.0000001
 43
0.0000001
 44
0.0000000001
 40
0.0
 40
0.0
 40
0.0
 40
0.0
 40
0.4843411281
 40
1.0
 40
1.0
 40
1.0
 40
1.0
 10
42.6854882249
 20
270.5110080133
 30
0.0
 10
39.6193165016
 20
269.6891038721
 30
0.0
 10
33.2093556614
 20
268.2818079045
 30
0.0
 10
26.7139510704
 20
267.362721904
 30
0.0
 10
23.3535939786
 20
267.0018525387
 30
0.0
  0
SPLINE
  5
3D5
100
AcDbEntity
  8
0
100
AcDbSpline
 62
7
  6
CONTINUOUS
 70
0
 71
3
 72
10
 73
6
 74
0
 42
0.0000001
 43
0.0000001
 44
0.0000000001
 40
0.0
 40
0.0
 40
0.0
 40
0.0
 40
0.2500466435
 40
0.4999092769
 40
1.0
 40
1.0
 40
1.0
 40
1.0
 10
32.9392359804
 20
271.4031370987
 30
0.0
 10
32.0678748285
 20
271.2413268884
 30
0.0
 10
30.3446348058
 20
270.8034400335
 30
0.0
 10
27.0415828178
 20
269.4988790557
 30
0.0
 10
24.7608754382
 20
268.0795064172
 30
0.0
 10
23.3535939786
 20
267.0018525387
 30
0.0
  0
SPLINE
  5
3D6
100
AcDbEntity
  8
0
100
AcDbSpline
 62
7
  6
CONTINUOUS
 70
0
 71
3
 72
9
 73
5
 74
0
 42
0.0000001
 43
0.0000001
 44
0.0000000001
 40
0.0
 40
0.0
 40
0.0
 40
0.0
 40
0.5279524462
 40
1.0
 40
1.0
 40
1.0
 40
1.0
 10
69.9419160102
 20
302.8221923066
 30
0.0
 10
69.0252742973
 20
302.2599128911
 30
0.0
 10
67.339651154
 20
301.1082988
 30
0.0
 10
65.8134856795
 20
299.7464307525
 30
0.0
 10
65.1536443783
 20
299.047098547
 30
0.0
  0
SPLINE
  5
3D7
100
AcDbEntity
  8
0
100
AcDbSpline
 62
7
  6
CONTINUOUS
 70
0
 71
3
 72
10
 73
6
 74
0
 42
0.0000001
 43
0.0000001
 44
0.0000000001
 40
0.0
 40
0.0
 40
0.0
 40
0.0
 40
0.2500213863
 40
0.5001679416
 40
1.0
 40
1.0
 40
1.0
 40
1.0
 10
9.3734684928
 20
269.0887136119
 30
0.0
 10
10.3374187028
 20
269.1070291826
 30
0.0
 10
12.2701391566
 20
269.0280244106
 30
0.0
 10
16.0849924359
 20
268.4236210586
 30
0.0
 10
18.8531191175
 20
267.5018928251
 30
0.0
 10
20.6207487116
 20
266.7334563884
 30
0.0
  0
SPLINE
  5
3D8
100
AcDbEntity
  8
0
100
AcDbSpline
 62
7
  6
CONTINUOUS
 70
0
 71
3
 72
9
 73
5
 74
0
 42
0.0000001
 43
0.0000001
 44
0.0000000001
 40
0.0
 40
0.0
 40
0.0
 40
0.0
 40
0.5264376627
 40
1.0
 40
1.0
 40
1.0
 40
1.0
 10
64.964551158
 20
298.8432477532
 30
0.0
 10
64.3659413832
 20
298.1866914037
 30
0.0
 10
63.3272885764
 20
296.8416722103
 30
0.0
 10
62.6101613328
 20
295.2916957581
 30
0.0
 10
62.3785999616
 20
294.5267327532
 30
0.0
  0
SPLINE
  5
3D9
100
AcDbEntity
  8
0
100
AcDbSpline
 62
7
  6
CONTINUOUS
 70
0
 71
3
 72
9
 73
5
 74
0
 42
0.0000001
 43
0.0000001
 44
0.0000000001
 40
0.0
 40
0.0
 40
0.0
 40
0.0
 40
0.5187216361
 40
1.0
 40
1.0
 40
1.0
 40
1.0
 10
60.9285143779
 20
293.57658847
 30
0.0
 10
59.4333405594
 20
293.1673685459
 30
0.0
 10
56.5732742849
 20
292.2932908035
 30
0.0
 10
53.7798828728
 20
291.2219457037
 30
0.0
 10
52.4602282398
 20
290.6499996649
 30
0.0
  0
SPLINE
  5
3DA
100
AcDbEntity
  8
0
100
AcDbSpline
 62
7
  6
CONTINUOUS
 70
0
 71
3
 72
9
 73
5
 74
0
 42
0.0000001
 43
0.0000001
 44
0.0000000001
 40
0.0
 40
0.0
 40
0.0
 40
0.0
 40
0.5254815859
 40
1.0
 40
1.0
 40
1.0
 40
1.0
 10
52.4602282398
 20
290.6499996649
 30
0.0
 10
51.2523681544
 20
290.1265060372
 30
0.0
 10
48.991290941
 20
289.0399104286
 30
0.0
 10
46.846239954
 20
287.734052724
 30
0.0
 10
45.8730094684
 20
287.051444558
 30
0.0
  0
SPLINE
  5
3DB
100
AcDbEntity
  8
0
100
AcDbSpline
 62
7
  6
CONTINUOUS
 70
0
 71
3
 72
9
 73
5
 74
0
 42
0.0000001
 43
0.0000001
 44
0.0000000001
 40
0.0
 40
0.0
 40
0.0
 40
0.0
 40
0.5002458387
 40
1.0
 40
1.0
 40
1.0
 40
1.0
 10
9.3734684928
 20
269.0887136119
 30
0.0
 10
7.4503828924
 20
269.0521739547
 30
0.0
 10
3.6023405575
 20
268.5120100552
 30
0.0
 10
-0.0209254726
 20
267.1439797601
 30
0.0
 10
-1.7512696386
 20
266.3083760482
 30
0.0
  0
SPLINE
  5
3DC
100
AcDbEntity
  8
0
100
AcDbSpline
 62
7
  6
CONTINUOUS
 70
0
 71
3
 72
10
 73
6
 74
0
 42
0.0000001
 43
0.0000001
 44
0.0000000001
 40
0.0
 40
0.0
 40
0.0
 40
0.0
 40
0.2505371383
 40
0.5006646278
 40
1.0
 40
1.0
 40
1.0
 40
1.0
 10
-14.6493997471
 20
270.4989275119
 30
0.0
 10
-13.7424850828
 20
270.3709080087
 30
0.0
 10
-11.9440102036
 20
270.000358412
 30
0.0
 10
-8.4749198124
 20
268.8260140988
 30
0.0
 10
-6.0479458234
 20
267.4964621665
 30
0.0
 10
-4.5371233904
 20
266.471913959
 30
0.0
  0
SPLINE
  5
3DD
100
AcDbEntity
  8
0
100
AcDbSpline
 62
7
  6
CONTINUOUS
 70
0
 71
3
 72
9
 73
5
 74
0
 42
0.0000001
 43
0.0000001
 44
0.0000000001
 40
0.0
 40
0.0
 40
0.0
 40
0.0
 40
0.5129844808
 40
1.0
 40
1.0
 40
1.0
 40
1.0
 10
-4.5371233904
 20
266.471913959
 30
0.0
 10
-8.1722225202
 20
266.7173431029
 30
0.0
 10
-15.2444077049
 20
267.4393372832
 30
0.0
 10
-22.2448396865
 20
268.6894362237
 30
0.0
 10
-25.6195934736
 20
269.4479021674
 30
0.0
  0
SPLINE
  5
3DE
100
AcDbEntity
  8
0
100
AcDbSpline
 62
7
  6
CONTINUOUS
 70
0
 71
3
 72
10
 73
6
 74
0
 42
0.0000001
 43
0.0000001
 44
0.0000000001
 40
0.0
 40
0.0
 40
0.0
 40
0.0
 40
0.2482967086
 40
0.4977244206
 40
1.0
 40
1.0
 40
1.0
 40
1.0
 10
-14.6493997471
 20
270.4989275119
 30
0.0
 10
-15.5590918337
 20
270.6273390743
 30
0.0
 10
-17.4010950202
 20
270.7694976323
 30
0.0
 10
-21.1041163233
 20
270.6044057681
 30
0.0
 10
-23.8465131352
 20
270.0046839802
 30
0.0
 10
-25.6195934736
 20
269.4479021674
 30
0.0
  0
SPLINE
  5
3DF
100
AcDbEntity
  8
0
100
AcDbSpline
 62
7
  6
CONTINUOUS
 70
0
 71
3
 72
10
 73
6
 74
0
 42
0.0000001
 43
0.0000001
 44
0.0000000001
 40
0.0
 40
0.0
 40
0.0
 40
0.0
 40
0.245512003
 40
0.4933853845
 40
1.0
 40
1.0
 40
1.0
 40
1.0
 10
-35.4721048176
 20
275.4190865162
 30
0.0
 10
-34.7563872621
 20
275.1634135469
 30
0.0
 10
-33.3551604121
 20
274.5379738678
 30
0.0
 10
-30.7373770426
 20
272.8702076294
 30
0.0
 10
-29.0416716781
 20
271.220476926
 30
0.0
 10
-28.0343347303
 20
270.0184769748
 30
0.0
  0
SPLINE
  5
3E0
100
AcDbEntity
  8
0
100
AcDbSpline
 62
7
  6
CONTINUOUS
 70
0
 71
3
 72
9
 73
5
 74
0
 42
0.0000001
 43
0.0000001
 44
0.0000000001
 40
0.0
 40
0.0
 40
0.0
 40
0.0
 40
0.5296721
 40
1.0
 40
1.0
 40
1.0
 40
1.0
 10
-28.0343347303
 20
270.0184769748
 30
0.0
 10
-31.0566281564
 20
270.7684169534
 30
0.0
 10
-36.7064676234
 20
272.4269230771
 30
0.0
 10
-42.152328128
 20
274.690349011
 30
0.0
 10
-44.6176415895
 20
275.9424665045
 30
0.0
  0
SPLINE
  5
3E1
100
AcDbEntity
  8
0
100
AcDbSpline
 62
7
  6
CONTINUOUS
 70
0
 71
3
 72
10
 73
6
 74
0
 42
0.0000001
 43
0.0000001
 44
0.0000000001
 40
0.0
 40
0.0
 40
0.0
 40
0.0
 40
0.2459116195
 40
0.4936087624
 40
1.0
 40
1.0
 40
1.0
 40
1.0
 10
-35.4721048176
 20
275.4190865162
 30
0.0
 10
-36.1866245725
 20
275.6743315998
 30
0.0
 10
-37.6627880642
 20
276.0771323751
 30
0.0
 10
-40.7351421961
 20
276.4419198887
 30
0.0
 10
-43.0827136473
 20
276.2343357893
 30
0.0
 10
-44.6176415895
 20
275.9424665045
 30
0.0
  0
SPLINE
  5
3E2
100
AcDbEntity
  8
0
100
AcDbSpline
 62
7
  6
CONTINUOUS
 70
0
 71
3
 72
11
 73
7
 74
0
 42
0.0000001
 43
0.0000001
 44
0.0000000001
 40
0.0
 40
0.0
 40
0.0
 40
0.0
 40
0.2251885792
 40
0.465946179
 40
0.7242679444
 40
1.0
 40
1.0
 40
1.0
 40
1.0
 10
-49.9245786302
 20
283.1001403862
 30
0.0
 10
-49.5012513451
 20
282.7471958626
 30
0.0
 10
-48.7021874129
 20
281.921442183
 30
0.0
 10
-47.7135276361
 20
280.4413376843
 30
0.0
 10
-46.8986061112
 20
278.7230001322
 30
0.0
 10
-46.4800007581
 20
277.4818400927
 30
0.0
 10
-46.2936478845
 20
276.8332133665
 30
0.0
  0
SPLINE
  5
3E3
100
AcDbEntity
  8
0
100
AcDbSpline
 62
7
  6
CONTINUOUS
 70
0
 71
3
 72
9
 73
5
 74
0
 42
0.0000001
 43
0.0000001
 44
0.0000000001
 40
0.0
 40
0.0
 40
0.0
 40
0.0
 40
0.2680493672
 40
1.0
 40
1.0
 40
1.0
 40
1.0
 10
-51.9593580722
 20
280.6537493675
 30
0.0
 10
-52.3504994986
 20
280.9798592812
 30
0.0
 10
-53.7757280158
 20
282.2351815452
 30
0.0
 10
-55.0605723332
 20
283.6606993815
 30
0.0
 10
-55.8531333783
 20
284.8033305126
 30
0.0
  0
SPLINE
  5
3E4
100
AcDbEntity
  8
0
100
AcDbSpline
 62
7
  6
CONTINUOUS
 70
0
 71
3
 72
9
 73
5
 74
0
 42
0.0000001
 43
0.0000001
 44
0.0000000001
 40
0.0
 40
0.0
 40
0.0
 40
0.0
 40
0.5216869087
 40
1.0
 40
1.0
 40
1.0
 40
1.0
 10
-46.2936478845
 20
276.8332133665
 30
0.0
 10
-47.3331395086
 20
277.411668795
 30
0.0
 10
-49.2852986947
 20
278.5956611996
 30
0.0
 10
-51.1216286625
 20
279.9553015759
 30
0.0
 10
-51.9593580722
 20
280.6537493675
 30
0.0
  0
SPLINE
  5
3E5
100
AcDbEntity
  8
0
100
AcDbSpline
 62
7
  6
CONTINUOUS
 70
0
 71
3
 72
11
 73
7
 74
0
 42
0.0000001
 43
0.0000001
 44
0.0000000001
 40
0.0
 40
0.0
 40
0.0
 40
0.0
 40
0.248962561
 40
0.4935568283
 40
0.7418674175
 40
1.0
 40
1.0
 40
1.0
 40
1.0
 10
-49.9245786302
 20
283.1001403862
 30
0.0
 10
-50.3277129133
 20
283.4362492138
 30
0.0
 10
-51.1987443064
 20
284.0227015829
 30
0.0
 10
-52.6666214636
 20
284.5959039361
 30
0.0
 10
-54.2379357779
 20
284.858077515
 30
0.0
 10
-55.3106444084
 20
284.8464558957
 30
0.0
 10
-55.8531333783
 20
284.8033305126
 30
0.0
  0
SPLINE
  5
3E6
100
AcDbEntity
  8
0
100
AcDbSpline
 62
7
  6
CONTINUOUS
 70
0
 71
3
 72
9
 73
5
 74
0
 42
0.0000001
 43
0.0000001
 44
0.0000000001
 40
0.0
 40
0.0
 40
0.0
 40
0.0
 40
0.5154723445
 40
1.0
 40
1.0
 40
1.0
 40
1.0
 10
-56.5352479461
 20
285.878641294
 30
0.0
 10
-57.0393456857
 20
286.7542695311
 30
0.0
 10
-57.8409656922
 20
288.5670922357
 30
0.0
 10
-58.1290672866
 20
290.5358781731
 30
0.0
 10
-58.129027512
 20
291.4855901155
 30
0.0
  0
SPLINE
  5
3E7
100
AcDbEntity
  8
0
100
AcDbSpline
 62
7
  6
CONTINUOUS
 70
0
 71
3
 72
9
 73
5
 74
0
 42
0.0000001
 43
0.0000001
 44
0.0000000001
 40
0.0
 40
0.0
 40
0.0
 40
0.0
 40
0.4944427367
 40
1.0
 40
1.0
 40
1.0
 40
1.0
 10
-56.5091160194
 20
294.1850526244
 30
0.0
 10
-56.6500444262
 20
294.3318366571
 30
0.0
 10
-56.9964964915
 20
294.5769803382
 30
0.0
 10
-57.4080972645
 20
294.6658519352
 30
0.0
 10
-57.6155670652
 20
294.6815079705
 30
0.0
  0
SPLINE
  5
3E8
100
AcDbEntity
  8
0
100
AcDbSpline
 62
7
  6
CONTINUOUS
 70
0
 71
3
 72
9
 73
5
 74
0
 42
0.0000001
 43
0.0000001
 44
0.0000000001
 40
0.0
 40
0.0
 40
0.0
 40
0.0
 40
0.2556903406
 40
1.0
 40
1.0
 40
1.0
 40
1.0
 10
43.6092236048
 20
286.3919752275
 30
0.0
 10
42.6948728984
 20
286.3133890748
 30
0.0
 10
39.122606756
 20
285.9648863747
 30
0.0
 10
35.5658027814
 20
285.4510375528
 30
0.0
 10
32.9392359804
 20
284.9632887869
 30
0.0
  0
SPLINE
  5
3E9
100
AcDbEntity
  8
0
100
AcDbSpline
 62
7
  6
CONTINUOUS
 70
0
 71
3
 72
9
 73
5
 74
0
 42
0.0000001
 43
0.0000001
 44
0.0000000001
 40
0.0
 40
0.0
 40
0.0
 40
0.0
 40
0.2602016354
 40
1.0
 40
1.0
 40
1.0
 40
1.0
 10
32.9392359804
 20
284.9632887869
 30
0.0
 10
32.0976945036
 20
284.807016037
 30
0.0
 10
28.8716575852
 20
284.1643542837
 30
0.0
 10
25.6782037518
 20
283.3505182389
 30
0.0
 10
23.3535939786
 20
282.630540967
 30
0.0
  0
SPLINE
  5
3EA
100
AcDbEntity
  8
0
100
AcDbSpline
 62
7
  6
CONTINUOUS
 70
0
 71
3
 72
9
 73
5
 74
0
 42
0.0000001
 43
0.0000001
 44
0.0000000001
 40
0.0
 40
0.0
 40
0.0
 40
0.0
 40
0.248733253
 40
1.0
 40
1.0
 40
1.0
 40
1.0
 10
-7.641045956
 20
236.2241033653
 30
0.0
 10
-7.7267860762
 20
236.2361186307
 30
0.0
 10
-8.0737930671
 20
236.266974415
 30
0.0
 10
-8.4265954077
 20
236.225519862
 30
0.0
 10
-8.6791758147
 20
236.1578142991
 30
0.0
  0
SPLINE
  5
3EB
100
AcDbEntity
  8
0
100
AcDbSpline
 62
7
  6
CONTINUOUS
 70
0
 71
3
 72
9
 73
5
 74
0
 42
0.0000001
 43
0.0000001
 44
0.0000000001
 40
0.0
 40
0.0
 40
0.0
 40
0.0
 40
0.4969920961
 40
1.0
 40
1.0
 40
1.0
 40
1.0
 10
-4.0521291574
 20
219.0811014911
 30
0.0
 10
-4.390488638
 20
219.1285177875
 30
0.0
 10
-5.0828827562
 20
219.1540683884
 30
0.0
 10
-5.7659373745
 20
219.0398725984
 30
0.0
 10
-6.0999469607
 20
218.9503394975
 30
0.0
  0
SPLINE
  5
3EC
100
AcDbEntity
  8
0
100
AcDbSpline
 62
7
  6
CONTINUOUS
 70
0
 71
3
 72
18
 73
14
 74
0
 42
0.0000001
 43
0.0000001
 44
0.0000000001
 40
0.0
 40
0.0
 40
0.0
 40
0.0
 40
0.0567197664
 40
0.1142344334
 40
0.1732234321
 40
0.2341112562
 40
0.3614148759
 40
0.4947833685
 40
0.6294976781
 40
0.7602645949
 40
0.8835174179
 40
0.9424975002
 40
1.0
 40
1.0
 40
1.0
 40
1.0
 10
12.5305068011
 20
240.3774834253
 30
0.0
 10
12.020113347
 20
240.4490678687
 30
0.0
 10
10.9724660001
 20
240.4783003999
 30
0.0
 10
9.4159304839
 20
240.1763659536
 30
0.0
 10
7.9216108354
 20
239.5418189213
 30
0.0
 10
6.0564807035
 20
238.2683816088
 30
0.0
 10
4.1510237799
 20
235.9680236584
 30
0.0
 10
2.8427025262
 20
232.5615220408
 30
0.0
 10
2.6123809419
 20
228.887129238
 30
0.0
 10
3.4930279858
 20
225.4043550835
 30
0.0
 10
5.1224917663
 20
222.9850043159
 30
0.0
 10
6.830115524
 20
221.6114018363
 30
0.0
 10
7.7837106598
 20
221.1298924784
 30
0.0
 10
8.2732464217
 20
220.9472386732
 30
0.0
  0
SPLINE
  5
3ED
100
AcDbEntity
  8
0
100
AcDbSpline
 62
7
  6
CONTINUOUS
 70
0
 71
3
 72
15
 73
11
 74
0
 42
0.0000001
 43
0.0000001
 44
0.0000000001
 40
0.0
 40
0.0
 40
0.0
 40
0.0
 40
0.1359924335
 40
0.269591897
 40
0.3999457016
 40
0.5265207033
 40
0.6492184613
 40
0.768406698
 40
0.8849256904
 40
1.0
 40
1.0
 40
1.0
 40
1.0
 10
21.2817460642
 20
222.0091615668
 30
0.0
 10
20.7008140732
 20
220.0809423588
 30
0.0
 10
19.269016525
 20
216.3359094465
 30
0.0
 10
16.3397193189
 20
211.1630525934
 30
0.0
 10
12.7247955143
 20
206.6167570721
 30
0.0
 10
8.5282787498
 20
202.8351886471
 30
0.0
 10
3.8717967729
 20
199.9338617471
 30
0.0
 10
-1.108855504
 20
198.0054885586
 30
0.0
 10
-6.2608218181
 20
197.1145117039
 30
0.0
 10
-9.7173681007
 20
197.2353500522
 30
0.0
 10
-11.4049721764
 20
197.4716418248
 30
0.0
  0
SPLINE
  5
3EE
100
AcDbEntity
  8
0
100
AcDbSpline
 62
7
  6
CONTINUOUS
 70
0
 71
3
 72
15
 73
11
 74
0
 42
0.0000001
 43
0.0000001
 44
0.0000000001
 40
0.0
 40
0.0
 40
0.0
 40
0.0
 40
0.1223074166
 40
0.250329031
 40
0.3819987614
 40
0.5142708905
 40
0.6439434452
 40
0.7684967031
 40
0.8868679625
 40
1.0
 40
1.0
 40
1.0
 40
1.0
 10
-2.627916061
 20
260.4294473854
 30
0.0
 10
-3.3562499157
 20
259.9285466578
 30
0.0
 10
-4.6957776291
 20
258.6701206783
 30
0.0
 10
-6.1508612825
 20
256.2905888003
 30
0.0
 10
-7.0032978043
 20
253.559622045
 30
0.0
 10
-7.1864954446
 20
250.6935401422
 30
0.0
 10
-6.6860003485
 20
247.9160178877
 30
0.0
 10
-5.5327244908
 20
245.4456761117
 30
0.0
 10
-3.8092799633
 20
243.4849483741
 30
0.0
 10
-2.3345982753
 20
242.6200539831
 30
0.0
 10
-1.5685455495
 20
242.3342271727
 30
0.0
  0
SPLINE
  5
3EF
100
AcDbEntity
  8
0
100
AcDbSpline
 62
7
  6
CONTINUOUS
 70
0
 71
3
 72
18
 73
14
 74
0
 42
0.0000001
 43
0.0000001
 44
0.0000000001
 40
0.0
 40
0.0
 40
0.0
 40
0.0
 40
0.0567197664
 40
0.1142344334
 40
0.1732234321
 40
0.2341112562
 40
0.3614148759
 40
0.4947833685
 40
0.6294976781
 40
0.7602645949
 40
0.8835174179
 40
0.9424975002
 40
1.0
 40
1.0
 40
1.0
 40
1.0
 10
-17.956635651
 20
256.2303725366
 30
0.0
 10
-18.4670291052
 20
256.30195698
 30
0.0
 10
-19.514676452
 20
256.3311895112
 30
0.0
 10
-21.0712119683
 20
256.0292550649
 30
0.0
 10
-22.5655316167
 20
255.3947080326
 30
0.0
 10
-24.4306617486
 20
254.1212707201
 30
0.0
 10
-26.3361186722
 20
251.8209127697
 30
0.0
 10
-27.644439926
 20
248.4144111521
 30
0.0
 10
-27.8747615103
 20
244.7400183494
 30
0.0
 10
-26.9941144663
 20
241.2572441948
 30
0.0
 10
-25.3646506859
 20
238.8378934272
 30
0.0
 10
-23.6570269281
 20
237.4642909476
 30
0.0
 10
-22.7034317923
 20
236.9827815897
 30
0.0
 10
-22.2138960304
 20
236.8001277845
 30
0.0
  0
SPLINE
  5
3F0
100
AcDbEntity
  8
0
100
AcDbSpline
 62
7
  6
CONTINUOUS
 70
0
 71
3
 72
15
 73
11
 74
0
 42
0.0000001
 43
0.0000001
 44
0.0000000001
 40
0.0
 40
0.0
 40
0.0
 40
0.0
 40
0.1171337181
 40
0.2412221696
 40
0.3715291306
 40
0.5049624922
 40
0.637375321
 40
0.7649606641
 40
0.8856078893
 40
1.0
 40
1.0
 40
1.0
 40
1.0
 10
-6.0999469607
 20
218.9503394975
 30
0.0
 10
-6.7622060377
 20
218.772817321
 30
0.0
 10
-8.0635741539
 20
218.1385720323
 30
0.0
 10
-9.6174744277
 20
216.5687181392
 30
0.0
 10
-10.688603331
 20
214.5319088174
 30
0.0
 10
-11.1752040191
 20
212.2355841805
 30
0.0
 10
-11.0326349289
 20
209.9078609784
 30
0.0
 10
-10.2677306605
 20
207.7797639638
 30
0.0
 10
-8.9467976661
 20
206.0701312753
 30
0.0
 10
-7.7447067507
 20
205.3253657837
 30
0.0
 10
-7.1173611988
 20
205.0912928866
 30
0.0
  0
SPLINE
  5
3F1
100
AcDbEntity
  8
0
100
AcDbSpline
 62
7
  6
CONTINUOUS
 70
0
 71
3
 72
15
 73
11
 74
0
 42
0.0000001
 43
0.0000001
 44
0.0000000001
 40
0.0
 40
0.0
 40
0.0
 40
0.0
 40
0.117135453
 40
0.2412211391
 40
0.3715297888
 40
0.5049626229
 40
0.6373747064
 40
0.7649616125
 40
0.8856061783
 40
1.0
 40
1.0
 40
1.0
 40
1.0
 10
-8.6791758147
 20
236.1578142991
 30
0.0
 10
-9.0149087051
 20
236.0678192571
 30
0.0
 10
-9.6746413211
 20
235.7463130981
 30
0.0
 10
-10.4623261733
 20
234.9504269458
 30
0.0
 10
-11.0053534277
 20
233.9179125857
 30
0.0
 10
-11.2520947413
 20
232.7538097899
 30
0.0
 10
-11.1797585288
 20
231.5737803924
 30
0.0
 10
-10.7919642536
 20
230.4949864879
 30
0.0
 10
-10.1223895047
 20
229.6282461025
 30
0.0
 10
-9.5129818395
 20
229.2507111373
 30
0.0
 10
-9.1949483505
 20
229.1320476293
 30
0.0
  0
SPLINE
  5
3F2
100
AcDbEntity
  8
0
100
AcDbSpline
 62
7
  6
CONTINUOUS
 70
0
 71
3
 72
18
 73
14
 74
0
 42
0.0000001
 43
0.0000001
 44
0.0000000001
 40
0.0
 40
0.0
 40
0.0
 40
0.0
 40
0.0567197664
 40
0.1142344334
 40
0.1732234321
 40
0.2341112562
 40
0.3614148759
 40
0.4947833685
 40
0.6294976781
 40
0.7602645949
 40
0.8835174179
 40
0.9424975002
 40
1.0
 40
1.0
 40
1.0
 40
1.0
 10
-20.8743719867
 20
231.423122518
 30
0.0
 10
-21.3847654408
 20
231.4947069614
 30
0.0
 10
-22.4324127877
 20
231.5239394926
 30
0.0
 10
-23.9889483039
 20
231.2220050463
 30
0.0
 10
-25.4832679524
 20
230.587458014
 30
0.0
 10
-27.3483980843
 20
229.3140207015
 30
0.0
 10
-29.2538550079
 20
227.0136627511
 30
0.0
 10
-30.5621762616
 20
223.6071611335
 30
0.0
 10
-30.7924978459
 20
219.9327683307
 30
0.0
 10
-29.911850802
 20
216.4499941762
 30
0.0
 10
-28.2823870215
 20
214.0306434086
 30
0.0
 10
-26.5747632638
 20
212.657040929
 30
0.0
 10
-25.621168128
 20
212.1755315711
 30
0.0
 10
-25.1316323661
 20
211.9928777659
 30
0.0
  0
SPLINE
  5
3F3
100
AcDbEntity
  8
0
100
AcDbSpline
 62
7
  6
CONTINUOUS
 70
0
 71
3
 72
13
 73
9
 74
0
 42
0.0000001
 43
0.0000001
 44
0.0000000001
 40
0.0
 40
0.0
 40
0.0
 40
0.0
 40
0.116241575
 40
0.2357098498
 40
0.4832698041
 40
0.6110892273
 40
0.740480953
 40
1.0
 40
1.0
 40
1.0
 40
1.0
 10
12.5568529382
 20
260.3363438564
 30
0.0
 10
13.7197115843
 20
259.2407012541
 30
0.0
 10
15.896636686
 20
256.8183980026
 30
0.0
 10
19.5306669263
 20
251.2345458183
 30
0.0
 10
21.9294729283
 20
244.7558877771
 30
0.0
 10
23.0089113815
 20
237.8876388005
 30
0.0
 10
23.1987184852
 20
230.7729064284
 30
0.0
 10
22.3107281763
 20
225.424540826
 30
0.0
 10
21.2817460642
 20
222.0091615668
 30
0.0
  0
SPLINE
  5
3F4
100
AcDbEntity
  8
0
100
AcDbSpline
 62
7
  6
CONTINUOUS
 70
0
 71
3
 72
16
 73
12
 74
0
 42
0.0000001
 43
0.0000001
 44
0.0000000001
 40
0.0
 40
0.0
 40
0.0
 40
0.0
 40
0.1170742185
 40
0.2411039519
 40
0.37134546
 40
0.5047112469
 40
0.6370568015
 40
0.7645782394
 40
0.8851683708
 40
0.9432126729
 40
1.0
 40
1.0
 40
1.0
 40
1.0
 10
-1.9329400996
 20
201.8060202409
 30
0.0
 10
-0.9947494985
 20
202.0575073754
 30
0.0
 10
0.8488316901
 20
202.9560629731
 30
0.0
 10
3.0503439793
 20
205.1799243122
 30
0.0
 10
4.5674717764
 20
208.0655566016
 30
0.0
 10
5.2573250774
 20
211.318503972
 30
0.0
 10
5.0542464441
 20
214.6164198662
 30
0.0
 10
3.9737733891
 20
217.6300781466
 30
0.0
 10
2.3845714756
 20
219.6794614502
 30
0.0
 10
0.8119320338
 20
220.8533835345
 30
0.0
 10
-0.0501894052
 20
221.2749708701
 30
0.0
 10
-0.4916032973
 20
221.4396696195
 30
0.0
  0
SPLINE
  5
3F5
100
AcDbEntity
  8
0
100
AcDbSpline
 62
7
  6
CONTINUOUS
 70
0
 71
3
 72
9
 73
5
 74
0
 42
0.0000001
 43
0.0000001
 44
0.0000000001
 40
0.0
 40
0.0
 40
0.0
 40
0.0
 40
0.4978300847
 40
1.0
 40
1.0
 40
1.0
 40
1.0
 10
-0.4916032973
 20
221.4396696195
 30
0.0
 10
-1.1869877096
 20
221.6991289275
 30
0.0
 10
-2.6746432957
 20
222.0055794272
 30
0.0
 10
-4.1824583887
 20
221.8322090067
 30
0.0
 10
-4.9056106432
 20
221.63836408
 30
0.0
  0
SPLINE
  5
3F6
100
AcDbEntity
  8
0
100
AcDbSpline
 62
7
  6
CONTINUOUS
 70
0
 71
3
 72
16
 73
12
 74
0
 42
0.0000001
 43
0.0000001
 44
0.0000000001
 40
0.0
 40
0.0
 40
0.0
 40
0.0
 40
0.1170742185
 40
0.2411039519
 40
0.37134546
 40
0.5047112469
 40
0.6370568015
 40
0.7645782394
 40
0.8851683708
 40
0.9432126729
 40
1.0
 40
1.0
 40
1.0
 40
1.0
 10
-4.9056106432
 20
221.63836408
 30
0.0
 10
-5.8438012443
 20
221.3868769456
 30
0.0
 10
-7.687382433
 20
220.4883213479
 30
0.0
 10
-9.8888947222
 20
218.2644600088
 30
0.0
 10
-11.4060225192
 20
215.3788277193
 30
0.0
 10
-12.0958758202
 20
212.1258803489
 30
0.0
 10
-11.892797187
 20
208.8279644547
 30
0.0
 10
-10.8123241318
 20
205.8143061744
 30
0.0
 10
-9.2231222188
 20
203.7649228704
 30
0.0
 10
-7.6504827764
 20
202.5910007866
 30
0.0
 10
-6.7883613373
 20
202.1694134519
 30
0.0
 10
-6.3469474456
 20
202.0047147015
 30
0.0
  0
SPLINE
  5
3F7
100
AcDbEntity
  8
0
100
AcDbSpline
 62
7
  6
CONTINUOUS
 70
0
 71
3
 72
9
 73
5
 74
0
 42
0.0000001
 43
0.0000001
 44
0.0000000001
 40
0.0
 40
0.0
 40
0.0
 40
0.0
 40
0.4978300848
 40
1.0
 40
1.0
 40
1.0
 40
1.0
 10
-8.4245345693
 20
226.0454694338
 30
0.0
 10
-7.9711712056
 20
225.8763121314
 30
0.0
 10
-7.0012780981
 20
225.6765184375
 30
0.0
 10
-6.0182417891
 20
225.7895491471
 30
0.0
 10
-5.5467748781
 20
225.9159284375
 30
0.0
  0
SPLINE
  5
3F8
100
AcDbEntity
  8
0
100
AcDbSpline
 62
7
  6
CONTINUOUS
 70
0
 71
3
 72
15
 73
11
 74
0
 42
0.0000001
 43
0.0000001
 44
0.0000000001
 40
0.0
 40
0.0
 40
0.0
 40
0.0
 40
0.1171354417
 40
0.2412241941
 40
0.3715304726
 40
0.5049625157
 40
0.6373740479
 40
0.7649587375
 40
0.8856062456
 40
1.0
 40
1.0
 40
1.0
 40
1.0
 10
-5.5467748781
 20
225.9159284375
 30
0.0
 10
-4.9350971322
 20
226.0798920109
 30
0.0
 10
-3.7331324598
 20
226.6656988881
 30
0.0
 10
-2.2979462157
 20
228.1156510673
 30
0.0
 10
-1.3086547965
 20
229.9968628162
 30
0.0
 10
-0.8592355116
 20
232.1177528711
 30
0.0
 10
-0.9909069518
 20
234.2676418219
 30
0.0
 10
-1.6973671402
 20
236.233165978
 30
0.0
 10
-2.9173794929
 20
237.8122177811
 30
0.0
 10
-4.0276491988
 20
238.5001028339
 30
0.0
 10
-4.6070798059
 20
238.7162978853
 30
0.0
  0
SPLINE
  5
3F9
100
AcDbEntity
  8
0
100
AcDbSpline
 62
7
  6
CONTINUOUS
 70
0
 71
3
 72
9
 73
5
 74
0
 42
0.0000001
 43
0.0000001
 44
0.0000000001
 40
0.0
 40
0.0
 40
0.0
 40
0.0
 40
0.4978300848
 40
1.0
 40
1.0
 40
1.0
 40
1.0
 10
-4.6070798059
 20
238.7162978853
 30
0.0
 10
-5.0604431712
 20
238.8854551836
 30
0.0
 10
-6.0303362764
 20
239.0852488845
 30
0.0
 10
-7.0133725862
 20
238.9722181721
 30
0.0
 10
-7.4848394972
 20
238.8458388817
 30
0.0
  0
SPLINE
  5
3FA
100
AcDbEntity
  8
0
100
AcDbSpline
 62
7
  6
CONTINUOUS
 70
0
 71
3
 72
15
 73
11
 74
0
 42
0.0000001
 43
0.0000001
 44
0.0000000001
 40
0.0
 40
0.0
 40
0.0
 40
0.0
 40
0.1171354417
 40
0.2412241941
 40
0.3715304726
 40
0.5049625157
 40
0.6373740479
 40
0.7649587375
 40
0.8856062456
 40
1.0
 40
1.0
 40
1.0
 40
1.0
 10
-7.4848394972
 20
238.8458388817
 30
0.0
 10
-8.0965172431
 20
238.6818753082
 30
0.0
 10
-9.2984819155
 20
238.096068431
 30
0.0
 10
-10.7336681596
 20
236.6461162518
 30
0.0
 10
-11.7229595788
 20
234.7649045029
 30
0.0
 10
-12.1723788636
 20
232.6440144481
 30
0.0
 10
-12.0407074236
 20
230.494125497
 30
0.0
 10
-11.3342472344
 20
228.5286013421
 30
0.0
 10
-10.114234884
 20
226.9495495347
 30
0.0
 10
-9.0039651745
 20
226.2616644905
 30
0.0
 10
-8.4245345693
 20
226.0454694338
 30
0.0
  0
SPLINE
  5
3FB
100
AcDbEntity
  8
0
100
AcDbSpline
 62
7
  6
CONTINUOUS
 70
0
 71
3
 72
15
 73
11
 74
0
 42
0.0000001
 43
0.0000001
 44
0.0000000001
 40
0.0
 40
0.0
 40
0.0
 40
0.0
 40
0.1169288896
 40
0.2399772899
 40
0.3684109541
 40
0.4999506731
 40
0.6314977126
 40
0.7599541999
 40
0.8830362858
 40
1.0
 40
1.0
 40
1.0
 40
1.0
 10
-24.3947133494
 20
231.0248639846
 30
0.0
 10
-23.7146072363
 20
230.5252231013
 30
0.0
 10
-22.4819621743
 20
229.2631587443
 30
0.0
 10
-21.2309683964
 20
226.8813046784
 30
0.0
 10
-20.6123697179
 20
224.1567111195
 30
0.0
 10
-20.6695409154
 20
221.3046604629
 30
0.0
 10
-21.394547799
 20
218.5455235945
 30
0.0
 10
-22.7348813623
 20
216.09358259
 30
0.0
 10
-24.5895400816
 20
214.1437702778
 30
0.0
 10
-26.120476318
 20
213.2661503946
 30
0.0
 10
-26.9114362583
 20
212.9712063493
 30
0.0
  0
SPLINE
  5
3FC
100
AcDbEntity
  8
0
100
AcDbSpline
 62
7
  6
CONTINUOUS
 70
0
 71
3
 72
16
 73
12
 74
0
 42
0.0000001
 43
0.0000001
 44
0.0000000001
 40
0.0
 40
0.0
 40
0.0
 40
0.0
 40
0.0568027826
 40
0.1144161687
 40
0.2339700994
 40
0.3615164761
 40
0.4950597812
 40
0.6298813108
 40
0.7607221615
 40
0.8840506078
 40
1.0
 40
1.0
 40
1.0
 40
1.0
 10
-26.8896557964
 20
241.628585013
 30
0.0
 10
-26.5990337748
 20
241.5909792931
 30
0.0
 10
-26.0030775482
 20
241.5807149928
 30
0.0
 10
-24.8123525679
 20
241.8227289194
 30
0.0
 10
-23.4072947087
 20
242.6238571835
 30
0.0
 10
-22.1423738209
 20
244.1744644822
 30
0.0
 10
-21.4050076333
 20
246.1146963699
 30
0.0
 10
-21.2808299881
 20
248.2025009472
 30
0.0
 10
-21.7881700727
 20
250.1808518202
 30
0.0
 10
-22.876830046
 20
251.799562436
 30
0.0
 10
-23.9450265915
 20
252.5003807468
 30
0.0
 10
-24.5054678763
 20
252.7094905632
 30
0.0
  0
SPLINE
  5
3FD
100
AcDbEntity
  8
0
100
AcDbSpline
 62
7
  6
CONTINUOUS
 70
0
 71
3
 72
15
 73
11
 74
0
 42
0.0000001
 43
0.0000001
 44
0.0000000001
 40
0.0
 40
0.0
 40
0.0
 40
0.0
 40
0.1169288896
 40
0.2399772899
 40
0.3684109541
 40
0.4999506731
 40
0.6314977126
 40
0.7599541999
 40
0.8830362858
 40
1.0
 40
1.0
 40
1.0
 40
1.0
 10
-21.4769770138
 20
255.8321140032
 30
0.0
 10
-20.7968709006
 20
255.3324731199
 30
0.0
 10
-19.5642258386
 20
254.0704087629
 30
0.0
 10
-18.3132320608
 20
251.688554697
 30
0.0
 10
-17.6946333822
 20
248.9639611381
 30
0.0
 10
-17.7518045797
 20
246.1119104815
 30
0.0
 10
-18.4768114633
 20
243.3527736132
 30
0.0
 10
-19.8171450267
 20
240.9008326087
 30
0.0
 10
-21.671803746
 20
238.9510202965
 30
0.0
 10
-23.2027399823
 20
238.0734004132
 30
0.0
 10
-23.9936999226
 20
237.7784563679
 30
0.0
  0
SPLINE
  5
3FE
100
AcDbEntity
  8
0
100
AcDbSpline
 62
7
  6
CONTINUOUS
 70
0
 71
3
 72
15
 73
11
 74
0
 42
0.0000001
 43
0.0000001
 44
0.0000000001
 40
0.0
 40
0.0
 40
0.0
 40
0.0
 40
0.119829231
 40
0.2450917826
 40
0.3744270647
 40
0.505520946
 40
0.6356783443
 40
0.7624085664
 40
0.8839965609
 40
1.0
 40
1.0
 40
1.0
 40
1.0
 10
0.3617636746
 20
260.2887771095
 30
0.0
 10
0.9011507064
 20
259.6964263917
 30
0.0
 10
1.8359023216
 20
258.3230170019
 30
0.0
 10
2.6928463343
 20
255.9468555473
 30
0.0
 10
2.9922621042
 20
253.3633982259
 30
0.0
 10
2.7156480694
 20
250.7457835906
 30
0.0
 10
1.8824410467
 20
248.2668365432
 30
0.0
 10
0.544707576
 20
246.0912440807
 30
0.0
 10
-1.2111963245
 20
244.3672960332
 30
0.0
 10
-2.6216704563
 20
243.5835298329
 30
0.0
 10
-3.3483494417
 20
243.3125557562
 30
0.0
  0
SPLINE
  5
3FF
100
AcDbEntity
  8
0
100
AcDbSpline
 62
7
  6
CONTINUOUS
 70
0
 71
3
 72
16
 73
12
 74
0
 42
0.0000001
 43
0.0000001
 44
0.0000000001
 40
0.0
 40
0.0
 40
0.0
 40
0.0
 40
0.0568027826
 40
0.1144161687
 40
0.2339700994
 40
0.3615164761
 40
0.4950597812
 40
0.6298813108
 40
0.7607221615
 40
0.8840506078
 40
1.0
 40
1.0
 40
1.0
 40
1.0
 10
3.5974866557
 20
225.7756959017
 30
0.0
 10
3.8881086773
 20
225.7380901818
 30
0.0
 10
4.484064904
 20
225.7278258815
 30
0.0
 10
5.6747898842
 20
225.9698398081
 30
0.0
 10
7.0798477435
 20
226.7709680722
 30
0.0
 10
8.3447686312
 20
228.3215753709
 30
0.0
 10
9.0821348188
 20
230.2618072586
 30
0.0
 10
9.206312464
 20
232.3496118359
 30
0.0
 10
8.6989723795
 20
234.3279627089
 30
0.0
 10
7.6103124061
 20
235.9466733247
 30
0.0
 10
6.5421158606
 20
236.6474916355
 30
0.0
 10
5.9816745759
 20
236.8566014519
 30
0.0
  0
SPLINE
  5
400
100
AcDbEntity
  8
0
100
AcDbSpline
 62
7
  6
CONTINUOUS
 70
0
 71
3
 72
18
 73
14
 74
0
 42
0.0000001
 43
0.0000001
 44
0.0000000001
 40
0.0
 40
0.0
 40
0.0
 40
0.0
 40
0.0567197664
 40
0.1142344334
 40
0.1732234321
 40
0.2341112562
 40
0.3614148759
 40
0.4947833685
 40
0.6294976781
 40
0.7602645949
 40
0.8835174179
 40
0.9424975002
 40
1.0
 40
1.0
 40
1.0
 40
1.0
 10
-20.7306229311
 20
236.4237604029
 30
0.0
 10
-20.2202294769
 20
236.3521759595
 30
0.0
 10
-19.1725821301
 20
236.3229434283
 30
0.0
 10
-17.6160466138
 20
236.6248778746
 30
0.0
 10
-16.1217269654
 20
237.2594249069
 30
0.0
 10
-14.2565968334
 20
238.5328622195
 30
0.0
 10
-12.3511399099
 20
240.8332201698
 30
0.0
 10
-11.0428186561
 20
244.2397217874
 30
0.0
 10
-10.8124970718
 20
247.9141145902
 30
0.0
 10
-11.6931441158
 20
251.3968887447
 30
0.0
 10
-13.3226078962
 20
253.8162395124
 30
0.0
 10
-15.030231654
 20
255.1898419919
 30
0.0
 10
-15.9838267898
 20
255.6713513498
 30
0.0
 10
-16.4733625517
 20
255.854005155
 30
0.0
  0
SPLINE
  5
401
100
AcDbEntity
  8
0
100
AcDbSpline
 62
7
  6
CONTINUOUS
 70
0
 71
3
 72
15
 73
11
 74
0
 42
0.0000001
 43
0.0000001
 44
0.0000000001
 40
0.0
 40
0.0
 40
0.0
 40
0.0
 40
0.1169288896
 40
0.2399772899
 40
0.3684109541
 40
0.4999506731
 40
0.6314977126
 40
0.7599541999
 40
0.8830362858
 40
1.0
 40
1.0
 40
1.0
 40
1.0
 10
9.0101654384
 20
239.9792248919
 30
0.0
 10
9.6902715515
 20
239.4795840086
 30
0.0
 10
10.9229166135
 20
238.2175196516
 30
0.0
 10
12.1739103914
 20
235.8356655857
 30
0.0
 10
12.7925090699
 20
233.1110720268
 30
0.0
 10
12.7353378724
 20
230.2590213702
 30
0.0
 10
12.0103309888
 20
227.4998845018
 30
0.0
 10
10.6699974255
 20
225.0479434974
 30
0.0
 10
8.8153387062
 20
223.0981311851
 30
0.0
 10
7.2844024698
 20
222.2205113019
 30
0.0
 10
6.4934425295
 20
221.9255672566
 30
0.0
  0
SPLINE
  5
402
100
AcDbEntity
  8
0
100
AcDbSpline
 62
7
  6
CONTINUOUS
 70
0
 71
3
 72
16
 73
12
 74
0
 42
0.0000001
 43
0.0000001
 44
0.0000000001
 40
0.0
 40
0.0
 40
0.0
 40
0.0
 40
0.0568027826
 40
0.1144161687
 40
0.2339700994
 40
0.3615164761
 40
0.4950597812
 40
0.6298813108
 40
0.7607221615
 40
0.8840506078
 40
1.0
 40
1.0
 40
1.0
 40
1.0
 10
-6.2443053154
 20
247.1626844012
 30
0.0
 10
-5.9536832939
 20
247.1250786814
 30
0.0
 10
-5.3577270672
 20
247.1148143811
 30
0.0
 10
-4.167002087
 20
247.3568283077
 30
0.0
 10
-2.7619442277
 20
248.1579565717
 30
0.0
 10
-1.49702334
 20
249.7085638705
 30
0.0
 10
-0.7596571524
 20
251.6487957581
 30
0.0
 10
-0.6354795072
 20
253.7366003354
 30
0.0
 10
-1.1428195917
 20
255.7149512085
 30
0.0
 10
-2.2314795651
 20
257.3336618243
 30
0.0
 10
-3.2996761106
 20
258.0344801351
 30
0.0
 10
-3.8601173953
 20
258.2435899514
 30
0.0
  0
SPLINE
  5
403
100
AcDbEntity
  8
0
100
AcDbSpline
 62
7
  6
CONTINUOUS
 70
0
 71
3
 72
15
 73
11
 74
0
 42
0.0000001
 43
0.0000001
 44
0.0000000001
 40
0.0
 40
0.0
 40
0.0
 40
0.0
 40
0.1171337181
 40
0.2412221697
 40
0.3715291307
 40
0.5049624924
 40
0.6373753211
 40
0.7649606642
 40
0.8856078893
 40
1.0
 40
1.0
 40
1.0
 40
1.0
 10
-4.0015912829
 20
204.951037964
 30
0.0
 10
-3.3393322049
 20
205.1285601408
 30
0.0
 10
-2.0379640865
 20
205.762805431
 30
0.0
 10
-0.4840638112
 20
207.3326593283
 30
0.0
 10
0.5870650916
 20
209.369468655
 30
0.0
 10
1.073665777
 20
211.6657932965
 30
0.0
 10
0.9310966818
 20
213.9935165019
 30
0.0
 10
0.1661924067
 20
216.1216135173
 30
0.0
 10
-1.1547405955
 20
217.8312462029
 30
0.0
 10
-2.3568315157
 20
218.5760116902
 30
0.0
 10
-2.9841770695
 20
218.8100845842
 30
0.0
  0
SPLINE
  5
404
100
AcDbEntity
  8
0
100
AcDbSpline
 62
7
  6
CONTINUOUS
 70
0
 71
3
 72
16
 73
12
 74
0
 42
0.0000001
 43
0.0000001
 44
0.0000000001
 40
0.0
 40
0.0
 40
0.0
 40
0.0
 40
0.0568027826
 40
0.1144161687
 40
0.2339700994
 40
0.3615164761
 40
0.4950597812
 40
0.6298813108
 40
0.7607221615
 40
0.8840506078
 40
1.0
 40
1.0
 40
1.0
 40
1.0
 10
-29.8073921321
 20
216.8213349943
 30
0.0
 10
-29.5167701105
 20
216.7837292745
 30
0.0
 10
-28.9208138838
 20
216.7734649742
 30
0.0
 10
-27.7300889036
 20
217.0154789008
 30
0.0
 10
-26.3250310443
 20
217.8166071649
 30
0.0
 10
-25.0601101566
 20
219.3672144636
 30
0.0
 10
-24.322743969
 20
221.3074463512
 30
0.0
 10
-24.1985663238
 20
223.3952509286
 30
0.0
 10
-24.7059064083
 20
225.3736018016
 30
0.0
 10
-25.7945663817
 20
226.9923124174
 30
0.0
 10
-26.8627629272
 20
227.6931307282
 30
0.0
 10
-27.4232042119
 20
227.9022405445
 30
0.0
  0
SPLINE
  5
405
100
AcDbEntity
  8
0
100
AcDbSpline
 62
7
  6
CONTINUOUS
 70
0
 71
3
 72
15
 73
11
 74
0
 42
0.0000001
 43
0.0000001
 44
0.0000000001
 40
0.0
 40
0.0
 40
0.0
 40
0.0
 40
0.1171354531
 40
0.2412211393
 40
0.3715297892
 40
0.5049626235
 40
0.637374707
 40
0.7649616129
 40
0.8856061785
 40
1.0
 40
1.0
 40
1.0
 40
1.0
 10
-7.6154260614
 20
229.0609461606
 30
0.0
 10
-7.2796931685
 20
229.1509412032
 30
0.0
 10
-6.6199605479
 20
229.4724473656
 30
0.0
 10
-5.8322756926
 20
230.2683335266
 30
0.0
 10
-5.2892484392
 20
231.3008478972
 30
0.0
 10
-5.0425071316
 20
232.464950703
 30
0.0
 10
-5.1148433547
 20
233.6449801073
 30
0.0
 10
-5.502637644
 20
234.7237740137
 30
0.0
 10
-6.1722124098
 20
235.5905143929
 30
0.0
 10
-6.7816200851
 20
235.9680493488
 30
0.0
 10
-7.0996535782
 20
236.08671285
 30
0.0
  0
SPLINE
  5
406
100
AcDbEntity
  8
0
100
AcDbSpline
 62
7
  6
CONTINUOUS
 70
0
 71
3
 72
18
 73
14
 74
0
 42
0.0000001
 43
0.0000001
 44
0.0000000001
 40
0.0
 40
0.0
 40
0.0
 40
0.0
 40
0.0567197664
 40
0.1142344334
 40
0.1732234321
 40
0.2341112562
 40
0.3614148759
 40
0.4947833685
 40
0.6294976781
 40
0.7602645949
 40
0.8835174179
 40
0.9424975002
 40
1.0
 40
1.0
 40
1.0
 40
1.0
 10
-23.6483592667
 20
211.6165103843
 30
0.0
 10
-23.1379658126
 20
211.5449259409
 30
0.0
 10
-22.0903184657
 20
211.5156934097
 30
0.0
 10
-20.5337829495
 20
211.817627856
 30
0.0
 10
-19.039463301
 20
212.4521748883
 30
0.0
 10
-17.1743331691
 20
213.7256122008
 30
0.0
 10
-15.2688762455
 20
216.0259701512
 30
0.0
 10
-13.9605549918
 20
219.4324717688
 30
0.0
 10
-13.7302334075
 20
223.1068645716
 30
0.0
 10
-14.6108804515
 20
226.5896387261
 30
0.0
 10
-16.2403442319
 20
229.0089894937
 30
0.0
 10
-17.9479679896
 20
230.3825919733
 30
0.0
 10
-18.9015631254
 20
230.8641013312
 30
0.0
 10
-19.3910988873
 20
231.0467551364
 30
0.0
  0
SPLINE
  5
407
100
AcDbEntity
  8
0
100
AcDbSpline
 62
7
  6
CONTINUOUS
 70
0
 71
3
 72
15
 73
11
 74
0
 42
0.0000001
 43
0.0000001
 44
0.0000000001
 40
0.0
 40
0.0
 40
0.0
 40
0.0
 40
0.1128655423
 40
0.227947067
 40
0.3469363527
 40
0.4706695337
 40
0.5990445849
 40
0.7311320722
 40
0.8654008208
 40
1.0
 40
1.0
 40
1.0
 40
1.0
 10
-11.4049721764
 20
197.4716418248
 30
0.0
 10
-13.5381872662
 20
197.770326322
 30
0.0
 10
-17.7863464895
 20
198.9517160049
 30
0.0
 10
-23.5551149882
 20
202.336406066
 30
0.0
 10
-28.4818826909
 20
207.1565352654
 30
0.0
 10
-32.3365897401
 20
213.1638858241
 30
0.0
 10
-34.953173675
 20
220.0662384007
 30
0.0
 10
-36.218666337
 20
227.5389760042
 30
0.0
 10
-36.0815653664
 20
235.2308408342
 30
0.0
 10
-35.0543874631
 20
240.2930019387
 30
0.0
 10
-34.3133604394
 20
242.7526057524
 30
0.0
  0
SPLINE
  5
408
100
AcDbEntity
  8
0
100
AcDbSpline
 62
7
  6
CONTINUOUS
 70
0
 71
3
 72
17
 73
13
 74
0
 42
0.0000001
 43
0.0000001
 44
0.0000000001
 40
0.0
 40
0.0
 40
0.0
 40
0.0
 40
0.056260154
 40
0.113167775
 40
0.1713079118
 40
0.2310735402
 40
0.3556544083
 40
0.486535719
 40
0.6203981247
 40
0.7528603107
 40
0.880031343
 40
1.0
 40
1.0
 40
1.0
 40
1.0
 10
-0.0852724501
 20
241.9578597912
 30
0.0
 10
0.3774125701
 20
241.8929666203
 30
0.0
 10
1.3240063794
 20
241.8566170771
 30
0.0
 10
2.7367857608
 20
242.0859636159
 30
0.0
 10
4.1073039289
 20
242.5908429824
 30
0.0
 10
5.8475487793
 20
243.6228194109
 30
0.0
 10
7.7147520755
 20
245.5295871545
 30
0.0
 10
9.2001547324
 20
248.4507439617
 30
0.0
 10
9.832532013
 20
251.7316312597
 30
0.0
 10
9.5438626406
 20
255.0312413122
 30
0.0
 10
8.3602527642
 20
258.0038229696
 30
0.0
 10
6.9939889809
 20
259.6016689472
 30
0.0
 10
6.2154067816
 20
260.2232700514
 30
0.0
  0
SPLINE
  5
409
100
AcDbEntity
  8
0
100
AcDbSpline
 62
7
  6
CONTINUOUS
 70
0
 71
3
 72
9
 73
5
 74
0
 42
0.0000001
 43
0.0000001
 44
0.0000000001
 40
0.0
 40
0.0
 40
0.0
 40
0.0
 40
0.4969920961
 40
1.0
 40
1.0
 40
1.0
 40
1.0
 10
-6.0494090862
 20
204.8202759704
 30
0.0
 10
-5.7110496056
 20
204.772859674
 30
0.0
 10
-5.0186554874
 20
204.7473090731
 30
0.0
 10
-4.3356008691
 20
204.8615048631
 30
0.0
 10
-4.0015912829
 20
204.951037964
 30
0.0
  0
SPLINE
  5
40A
100
AcDbEntity
  8
0
100
AcDbSpline
 62
7
  6
CONTINUOUS
 70
0
 71
3
 72
11
 73
7
 74
0
 42
0.0000001
 43
0.0000001
 44
0.0000000001
 40
0.0
 40
0.0
 40
0.0
 40
0.0
 40
0.2589407123
 40
0.5129649865
 40
0.7603225192
 40
1.0
 40
1.0
 40
1.0
 40
1.0
 10
-34.3133604394
 20
242.7526057524
 30
0.0
 10
-33.7010540025
 20
244.7849624673
 30
0.0
 10
-32.1769824546
 20
248.725427041
 30
0.0
 10
-29.0255435875
 20
254.1332097978
 30
0.0
 10
-25.1248378567
 20
258.8266902725
 30
0.0
 10
-22.0532997154
 20
261.4181223494
 30
0.0
 10
-20.4375828372
 20
262.5359110162
 30
0.0
  0
SPLINE
  5
40B
100
AcDbEntity
  8
0
100
AcDbSpline
 62
7
  6
CONTINUOUS
 70
0
 71
3
 72
18
 73
14
 74
0
 42
0.0000001
 43
0.0000001
 44
0.0000000001
 40
0.0
 40
0.0
 40
0.0
 40
0.0
 40
0.0567197664
 40
0.1142344334
 40
0.1732234321
 40
0.2341112562
 40
0.3614148759
 40
0.4947833685
 40
0.6294976781
 40
0.7602645949
 40
0.8835174179
 40
0.9424975002
 40
1.0
 40
1.0
 40
1.0
 40
1.0
 10
9.7565195211
 20
220.5708712916
 30
0.0
 10
10.2669129752
 20
220.4992868482
 30
0.0
 10
11.3145603221
 20
220.470054317
 30
0.0
 10
12.8710958383
 20
220.7719887633
 30
0.0
 10
14.3654154868
 20
221.4065357956
 30
0.0
 10
16.2305456187
 20
222.6799731081
 30
0.0
 10
18.1360025423
 20
224.9803310585
 30
0.0
 10
19.444323796
 20
228.3868326761
 30
0.0
 10
19.6746453803
 20
232.0612254789
 30
0.0
 10
18.7939983363
 20
235.5439996334
 30
0.0
 10
17.1645345559
 20
237.963350401
 30
0.0
 10
15.4569107982
 20
239.3369528806
 30
0.0
 10
14.5033156624
 20
239.8184622385
 30
0.0
 10
14.0137799005
 20
240.0011160437
 30
0.0
  0
SPLINE
  5
40C
100
AcDbEntity
  8
0
100
AcDbSpline
 62
7
  6
CONTINUOUS
 70
0
 71
3
 72
9
 73
5
 74
0
 42
0.0000001
 43
0.0000001
 44
0.0000000001
 40
0.0
 40
0.0
 40
0.0
 40
0.0
 40
0.2487332531
 40
1.0
 40
1.0
 40
1.0
 40
1.0
 10
-8.65355592
 20
228.9946570944
 30
0.0
 10
-8.5678157998
 20
228.982641829
 30
0.0
 10
-8.2208088089
 20
228.9517860446
 30
0.0
 10
-7.8680064684
 20
228.9932405977
 30
0.0
 10
-7.6154260614
 20
229.0609461606
 30
0.0
  0
SPLINE
  5
40D
100
AcDbEntity
  8
0
100
AcDbSpline
 62
7
  6
CONTINUOUS
 70
0
 71
3
 72
9
 73
5
 74
0
 42
0.0000001
 43
0.0000001
 44
0.0000000001
 40
0.0
 40
0.0
 40
0.0
 40
0.0
 40
0.4978300847
 40
1.0
 40
1.0
 40
1.0
 40
1.0
 10
-6.3469474456
 20
202.0047147015
 30
0.0
 10
-5.6515630339
 20
201.7452553917
 30
0.0
 10
-4.1639074469
 20
201.438804895
 30
0.0
 10
-2.6560923542
 20
201.6121753143
 30
0.0
 10
-1.9329400996
 20
201.8060202409
 30
0.0
  0
SPLINE
  5
40E
100
AcDbEntity
  8
0
100
AcDbSpline
 62
7
  6
CONTINUOUS
 70
0
 71
3
 72
9
 73
5
 74
0
 42
0.0000001
 43
0.0000001
 44
0.0000000001
 40
0.0
 40
0.0
 40
0.0
 40
0.0
 40
0.2526649206
 40
1.0
 40
1.0
 40
1.0
 40
1.0
 10
-92.3834505328
 20
277.8313803903
 30
0.0
 10
-92.3237153832
 20
277.9649770995
 30
0.0
 10
-92.0745640158
 20
278.4879180847
 30
0.0
 10
-91.7745577366
 20
278.986826092
 30
0.0
 10
-91.5234677186
 20
279.3394137112
 30
0.0
  0
SPLINE
  5
40F
100
AcDbEntity
  8
0
100
AcDbSpline
 62
7
  6
CONTINUOUS
 70
0
 71
3
 72
9
 73
5
 74
0
 42
0.0000001
 43
0.0000001
 44
0.0000000001
 40
0.0
 40
0.0
 40
0.0
 40
0.0
 40
0.2525239834
 40
1.0
 40
1.0
 40
1.0
 40
1.0
 10
-91.1976708063
 20
279.7668508286
 30
0.0
 10
-91.1367108153
 20
279.8416200783
 30
0.0
 10
-90.8900680459
 20
280.13338623
 30
0.0
 10
-90.622437935
 20
280.4074944248
 30
0.0
 10
-90.4116059213
 20
280.6000855074
 30
0.0
  0
SPLINE
  5
410
100
AcDbEntity
  8
0
100
AcDbSpline
 62
7
  6
CONTINUOUS
 70
0
 71
3
 72
9
 73
5
 74
0
 42
0.0000001
 43
0.0000001
 44
0.0000000001
 40
0.0
 40
0.0
 40
0.0
 40
0.0
 40
0.2537939419
 40
1.0
 40
1.0
 40
1.0
 40
1.0
 10
-89.1008506802
 20
281.551086955
 30
0.0
 10
-88.9853086294
 20
281.6157814375
 30
0.0
 10
-88.5225653892
 20
281.857007382
 30
0.0
 10
-88.0302965128
 20
282.042250748
 30
0.0
 10
-87.6542280887
 20
282.143057951
 30
0.0
  0
SPLINE
  5
411
100
AcDbEntity
  8
0
100
AcDbSpline
 62
7
  6
CONTINUOUS
 70
0
 71
3
 72
9
 73
5
 74
0
 42
0.0000001
 43
0.0000001
 44
0.0000000001
 40
0.0
 40
0.0
 40
0.0
 40
0.0
 40
0.2470859269
 40
1.0
 40
1.0
 40
1.0
 40
1.0
 10
-75.4206307856
 20
171.9081176106
 30
0.0
 10
-75.5309620324
 20
171.9729775656
 30
0.0
 10
-75.9689677778
 20
172.2497958387
 30
0.0
 10
-76.3713483965
 20
172.5823450951
 30
0.0
 10
-76.648785816
 20
172.8564243147
 30
0.0
  0
SPLINE
  5
412
100
AcDbEntity
  8
0
100
AcDbSpline
 62
7
  6
CONTINUOUS
 70
0
 71
3
 72
9
 73
5
 74
0
 42
0.0000001
 43
0.0000001
 44
0.0000000001
 40
0.0
 40
0.0
 40
0.0
 40
0.0
 40
0.2475297446
 40
1.0
 40
1.0
 40
1.0
 40
1.0
 10
-76.9928279485
 20
173.2228125102
 30
0.0
 10
-77.0532045332
 20
173.2920753312
 30
0.0
 10
-77.2915101213
 20
173.5767442219
 30
0.0
 10
-77.5072325342
 20
173.8802317798
 30
0.0
 10
-77.6560122581
 20
174.1166301591
 30
0.0
  0
SPLINE
  5
413
100
AcDbEntity
  8
0
100
AcDbSpline
 62
7
  6
CONTINUOUS
 70
0
 71
3
 72
9
 73
5
 74
0
 42
0.0000001
 43
0.0000001
 44
0.0000000001
 40
0.0
 40
0.0
 40
0.0
 40
0.0
 40
0.2475953941
 40
1.0
 40
1.0
 40
1.0
 40
1.0
 10
-78.3924302926
 20
175.6287909129
 30
0.0
 10
-78.4416610993
 20
175.7642488946
 30
0.0
 10
-78.6262562016
 20
176.3164362035
 30
0.0
 10
-78.754645797
 20
176.8872354622
 30
0.0
 10
-78.8195692691
 20
177.3203761699
 30
0.0
  0
SPLINE
  5
414
100
AcDbEntity
  8
0
100
AcDbSpline
 62
7
  6
CONTINUOUS
 70
0
 71
3
 72
13
 73
9
 74
0
 42
0.0000001
 43
0.0000001
 44
0.0000000001
 40
0.0
 40
0.0
 40
0.0
 40
0.0
 40
0.2576173118
 40
0.5150611245
 40
0.6412900725
 40
0.7644593396
 40
0.884060209
 40
1.0
 40
1.0
 40
1.0
 40
1.0
 10
32.7016530585
 20
242.1165402444
 30
0.0
 10
33.4689134122
 20
236.9977183208
 30
0.0
 10
33.4581862256
 20
226.4799939225
 30
0.0
 10
29.7428082544
 20
213.942446846
 30
0.0
 10
24.7301038483
 20
205.0381290421
 30
0.0
 10
20.1096764458
 20
199.1974795796
 30
0.0
 10
14.7445152947
 20
194.3361970881
 30
0.0
 10
10.7079165466
 20
191.8067584055
 30
0.0
 10
8.6254927959
 20
190.762815195
 30
0.0
  0
SPLINE
  5
415
100
AcDbEntity
  8
0
100
AcDbSpline
 62
7
  6
CONTINUOUS
 70
0
 71
3
 72
14
 73
10
 74
0
 42
0.0000001
 43
0.0000001
 44
0.0000000001
 40
0.0
 40
0.0
 40
0.0
 40
0.0
 40
0.2676517706
 40
0.4000360656
 40
0.5287673572
 40
0.652814347
 40
0.7720031461
 40
0.8871528037
 40
1.0
 40
1.0
 40
1.0
 40
1.0
 10
8.6254927959
 20
190.762815195
 30
0.0
 10
8.6799990707
 20
189.543842356
 30
0.0
 10
8.412266039
 20
187.6827101422
 30
0.0
 10
7.4131700073
 20
185.4774909733
 30
0.0
 10
6.382771066
 20
184.0397076859
 30
0.0
 10
5.1177282934
 20
182.8903210987
 30
0.0
 10
3.6767109276
 20
182.0873100475
 30
0.0
 10
2.1311065568
 20
181.6758129762
 30
0.0
 10
1.0770237738
 20
181.680359355
 30
0.0
 10
0.5675421098
 20
181.75172903
 30
0.0
  0
SPLINE
  5
416
100
AcDbEntity
  8
0
100
AcDbSpline
 62
7
  6
CONTINUOUS
 70
0
 71
3
 72
11
 73
7
 74
0
 42
0.0000001
 43
0.0000001
 44
0.0000000001
 40
0.0
 40
0.0
 40
0.0
 40
0.0
 40
0.2685863187
 40
0.5241478096
 40
0.7663609521
 40
1.0
 40
1.0
 40
1.0
 40
1.0
 10
-2.420418497
 20
188.8142976616
 30
0.0
 10
-2.3473403468
 20
188.3267525466
 30
0.0
 10
-2.079577737
 20
187.3879523019
 30
0.0
 10
-1.3148724946
 20
186.1822434874
 30
0.0
 10
-0.2558868898
 20
185.3167053971
 30
0.0
 10
0.5936327351
 20
185.0299109976
 30
0.0
 10
1.0183238611
 20
184.9703624022
 30
0.0
  0
SPLINE
  5
417
100
AcDbEntity
  8
0
100
AcDbSpline
 62
7
  6
CONTINUOUS
 70
0
 71
3
 72
11
 73
7
 74
0
 42
0.0000001
 43
0.0000001
 44
0.0000000001
 40
0.0
 40
0.0
 40
0.0
 40
0.0
 40
0.2418844336
 40
0.4923670427
 40
0.746899192
 40
1.0
 40
1.0
 40
1.0
 40
1.0
 10
-26.2400508139
 20
263.7424145834
 30
0.0
 10
-28.7909175371
 20
261.2309528195
 30
0.0
 10
-33.3136598175
 20
255.4023008447
 30
0.0
 10
-37.858562791
 20
245.222392744
 30
0.0
 10
-40.0342466941
 20
234.1227062431
 30
0.0
 10
-39.795740004
 20
226.5363802018
 30
0.0
 10
-39.2404981771
 20
222.83205217
 30
0.0
  0
SPLINE
  5
418
100
AcDbEntity
  8
0
100
AcDbSpline
 62
7
  6
CONTINUOUS
 70
0
 71
3
 72
15
 73
11
 74
0
 42
0.0000001
 43
0.0000001
 44
0.0000000001
 40
0.0
 40
0.0
 40
0.0
 40
0.0
 40
0.1355589529
 40
0.2683335916
 40
0.3978337224
 40
0.5238390676
 40
0.6464592089
 40
0.7661407857
 40
0.8836511647
 40
1.0
 40
1.0
 40
1.0
 40
1.0
 10
-39.2404981771
 20
222.83205217
 30
0.0
 10
-38.9304147706
 20
220.7633127498
 30
0.0
 10
-38.0456530507
 20
216.7030252511
 30
0.0
 10
-35.9214091305
 20
210.9225029027
 30
0.0
 10
-33.0582988431
 20
205.6340402486
 30
0.0
 10
-29.5206391507
 20
200.9639248439
 30
0.0
 10
-25.3888615742
 20
197.0238004592
 30
0.0
 10
-20.7574573259
 20
193.9101602043
 30
0.0
 10
-15.737927222
 20
191.7017733078
 30
0.0
 10
-12.2019806691
 20
190.868329296
 30
0.0
 10
-10.4239229029
 20
190.6192968909
 30
0.0
  0
SPLINE
  5
419
100
AcDbEntity
  8
0
100
AcDbSpline
 62
7
  6
CONTINUOUS
 70
0
 71
3
 72
9
 73
5
 74
0
 42
0.0000001
 43
0.0000001
 44
0.0000000001
 40
0.0
 40
0.0
 40
0.0
 40
0.0
 40
0.5028715139
 40
1.0
 40
1.0
 40
1.0
 40
1.0
 10
-67.7792581386
 20
170.8582610036
 30
0.0
 10
-68.1502762696
 20
170.7588075594
 30
0.0
 10
-68.9092327703
 20
170.6320507457
 30
0.0
 10
-69.6785507828
 20
170.6603089608
 30
0.0
 10
-70.05460899
 20
170.7129856541
 30
0.0
  0
SPLINE
  5
41A
100
AcDbEntity
  8
0
100
AcDbSpline
 62
7
  6
CONTINUOUS
 70
0
 71
3
 72
11
 73
7
 74
0
 42
0.0000001
 43
0.0000001
 44
0.0000000001
 40
0.0
 40
0.0
 40
0.0
 40
0.0
 40
0.2639929115
 40
0.5191552408
 40
0.7642346346
 40
1.0
 40
1.0
 40
1.0
 40
1.0
 10
-78.8195692691
 20
177.3203761699
 30
0.0
 10
-78.732245484
 20
176.7377904761
 30
0.0
 10
-78.4483813536
 20
175.6051210599
 30
0.0
 10
-77.6951571501
 20
174.0606730142
 30
0.0
 10
-76.655842295
 20
172.7704307896
 30
0.0
 10
-75.7889420082
 20
172.1150474807
 30
0.0
 10
-75.3308170081
 20
171.8563822981
 30
0.0
  0
SPLINE
  5
41B
100
AcDbEntity
  8
0
100
AcDbSpline
 62
7
  6
CONTINUOUS
 70
0
 71
3
 72
9
 73
5
 74
0
 42
0.0000001
 43
0.0000001
 44
0.0000000001
 40
0.0
 40
0.0
 40
0.0
 40
0.0
 40
0.5026731844
 40
1.0
 40
1.0
 40
1.0
 40
1.0
 10
-75.3308170081
 20
171.8563822981
 30
0.0
 10
-75.0190961509
 20
171.6803793896
 30
0.0
 10
-74.3657168093
 20
171.3857351901
 30
0.0
 10
-73.6683409332
 20
171.2191096395
 30
0.0
 10
-73.3175964908
 20
171.1699787947
 30
0.0
  0
SPLINE
  5
41C
100
AcDbEntity
  8
0
100
AcDbSpline
 62
7
  6
CONTINUOUS
 70
0
 71
3
 72
12
 73
8
 74
0
 42
0.0000001
 43
0.0000001
 44
0.0000000001
 40
0.0
 40
0.0
 40
0.0
 40
0.0
 40
0.1141465032
 40
0.2321738583
 40
0.4794960043
 40
0.7389461754
 40
1.0
 40
1.0
 40
1.0
 40
1.0
 10
-87.6542280887
 20
282.143057951
 30
0.0
 10
-88.0923137533
 20
282.0256266867
 30
0.0
 10
-88.9586968351
 20
281.6837320161
 30
0.0
 10
-90.5545609643
 20
280.6223968486
 30
0.0
 10
-92.1665202902
 20
278.6521639347
 30
0.0
 10
-93.2098333221
 20
275.7314915787
 30
0.0
 10
-93.2538050439
 20
273.6192168071
 30
0.0
 10
-93.1000454097
 20
272.5934004951
 30
0.0
  0
SPLINE
  5
41D
100
AcDbEntity
  8
0
100
AcDbSpline
 62
7
  6
CONTINUOUS
 70
0
 71
3
 72
9
 73
5
 74
0
 42
0.0000001
 43
0.0000001
 44
0.0000000001
 40
0.0
 40
0.0
 40
0.0
 40
0.0
 40
0.4908629929
 40
1.0
 40
1.0
 40
1.0
 40
1.0
 10
25.3809614644
 20
261.3530482168
 30
0.0
 10
27.2794475448
 20
258.5461986174
 30
0.0
 10
30.4525681153
 20
252.336079315
 30
0.0
 10
32.180646012
 20
245.5924689543
 30
0.0
 10
32.7016530585
 20
242.1165402444
 30
0.0
  0
SPLINE
  5
41E
100
AcDbEntity
  8
0
100
AcDbSpline
 62
7
  6
CONTINUOUS
 70
0
 71
3
 72
13
 73
9
 74
0
 42
0.0000001
 43
0.0000001
 44
0.0000000001
 40
0.0
 40
0.0
 40
0.0
 40
0.0
 40
0.2521167048
 40
0.5053492466
 40
0.6312545731
 40
0.7559336711
 40
0.8789636198
 40
1.0
 40
1.0
 40
1.0
 40
1.0
 10
-53.6493945536
 20
220.5931837996
 30
0.0
 10
-54.3445971379
 20
224.8111973391
 30
0.0
 10
-54.8729822514
 20
233.4302583558
 30
0.0
 10
-53.3982286641
 20
244.1060068966
 30
0.0
 10
-50.973711968
 20
252.3104804891
 30
0.0
 10
-48.5655273688
 20
258.182687606
 30
0.0
 10
-45.5987652386
 20
263.6989168579
 30
0.0
 10
-43.2532829183
 20
267.1204323953
 30
0.0
 10
-41.9996405804
 20
268.7453463064
 30
0.0
  0
SPLINE
  5
41F
100
AcDbEntity
  8
0
100
AcDbSpline
 62
7
  6
CONTINUOUS
 70
0
 71
3
 72
11
 73
7
 74
0
 42
0.0000001
 43
0.0000001
 44
0.0000000001
 40
0.0
 40
0.0
 40
0.0
 40
0.0
 40
0.2409191496
 40
0.4883271929
 40
0.7417008725
 40
1.0
 40
1.0
 40
1.0
 40
1.0
 10
-40.0231219465
 20
191.8225150843
 30
0.0
 10
-41.7863509107
 20
193.7206580399
 30
0.0
 10
-45.0501813455
 20
197.8671901131
 30
0.0
 10
-48.9845623224
 20
204.837468033
 30
0.0
 10
-51.9384206188
 20
212.4756275881
 30
0.0
 10
-53.1976858668
 20
217.8525246015
 30
0.0
 10
-53.6493945536
 20
220.5931837996
 30
0.0
  0
SPLINE
  5
420
100
AcDbEntity
  8
0
100
AcDbSpline
 62
7
  6
CONTINUOUS
 70
0
 71
3
 72
9
 73
5
 74
0
 42
0.0000001
 43
0.0000001
 44
0.0000000001
 40
0.0
 40
0.0
 40
0.0
 40
0.0
 40
0.4935750998
 40
1.0
 40
1.0
 40
1.0
 40
1.0
 10
33.2634407778
 20
262.5029334157
 30
0.0
 10
34.7133835959
 20
259.7155868011
 30
0.0
 10
37.1547296878
 20
253.7990027877
 30
0.0
 10
38.5914837845
 20
247.5663902658
 30
0.0
 10
39.0693479263
 20
244.3782919449
 30
0.0
  0
SPLINE
  5
421
100
AcDbEntity
  8
0
100
AcDbSpline
 62
7
  6
CONTINUOUS
 70
0
 71
3
 72
16
 73
12
 74
0
 42
0.0000001
 43
0.0000001
 44
0.0000000001
 40
0.0
 40
0.0
 40
0.0
 40
0.0
 40
0.1315283069
 40
0.2641053627
 40
0.3958733295
 40
0.5250816766
 40
0.6503721996
 40
0.7710263039
 40
0.8871533052
 40
0.9439232391
 40
1.0
 40
1.0
 40
1.0
 40
1.0
 10
39.0693479263
 20
244.3782919449
 30
0.0
 10
39.6491905369
 20
240.5098383579
 30
0.0
 10
40.0788480188
 20
232.6141105631
 30
0.0
 10
38.5761248135
 20
220.8756159079
 30
0.0
 10
35.0035052481
 20
209.6601830751
 30
0.0
 10
29.5198426234
 20
199.4871129541
 30
0.0
 10
22.3651752338
 20
190.825561212
 30
0.0
 10
13.8601477686
 20
184.0857671671
 30
0.0
 10
5.8843989001
 20
180.3171365171
 30
0.0
 10
-0.7176524164
 20
178.5902986534
 30
0.0
 10
-4.0564547467
 20
178.1539884728
 30
0.0
 10
-5.7206362905
 20
178.045254566
 30
0.0
  0
SPLINE
  5
422
100
AcDbEntity
  8
0
100
AcDbSpline
 62
7
  6
CONTINUOUS
 70
0
 71
3
 72
9
 73
5
 74
0
 42
0.0000001
 43
0.0000001
 44
0.0000000001
 40
0.0
 40
0.0
 40
0.0
 40
0.0
 40
0.5105086527
 40
1.0
 40
1.0
 40
1.0
 40
1.0
 10
30.0157025528
 20
241.3965564852
 30
0.0
 10
29.4766893254
 20
244.9926144756
 30
0.0
 10
27.6098673329
 20
251.9443406741
 30
0.0
 10
24.0735707577
 20
258.2349992757
 30
0.0
 10
21.9583844222
 20
261.0066178633
 30
0.0
  0
SPLINE
  5
423
100
AcDbEntity
  8
0
100
AcDbSpline
 62
7
  6
CONTINUOUS
 70
0
 71
3
 72
11
 73
7
 74
0
 42
0.0000001
 43
0.0000001
 44
0.0000000001
 40
0.0
 40
0.0
 40
0.0
 40
0.0
 40
0.233633584
 40
0.4758467542
 40
0.7314152315
 40
1.0
 40
1.0
 40
1.0
 40
1.0
 10
-70.05460899
 20
170.7129856541
 30
0.0
 10
-70.7341165897
 20
170.8081682955
 30
0.0
 10
-72.0933011141
 20
171.2672134045
 30
0.0
 10
-73.7877589395
 20
172.6519700663
 30
0.0
 10
-75.011167142
 20
174.581238292
 30
0.0
 10
-75.4396566144
 20
176.0833100877
 30
0.0
 10
-75.5565817683
 20
176.8633830294
 30
0.0
  0
SPLINE
  5
424
100
AcDbEntity
  8
0
100
AcDbSpline
 62
7
  6
CONTINUOUS
 70
0
 71
3
 72
15
 73
11
 74
0
 42
0.0000001
 43
0.0000001
 44
0.0000000001
 40
0.0
 40
0.0
 40
0.0
 40
0.0
 40
0.1163502788
 40
0.233860631
 40
0.3535420653
 40
0.4761620931
 40
0.6021672011
 40
0.7316673364
 40
0.8644406827
 40
1.0
 40
1.0
 40
1.0
 40
1.0
 10
-10.8746997768
 20
187.4006943518
 30
0.0
 10
-12.7906997594
 20
187.6690315579
 30
0.0
 10
-16.600943024
 20
188.5671213579
 30
0.0
 10
-22.0098181338
 20
190.9468539176
 30
0.0
 10
-27.0004424443
 20
194.3020222529
 30
0.0
 10
-31.4526864231
 20
198.5477714861
 30
0.0
 10
-35.264739979
 20
203.5801262634
 30
0.0
 10
-38.3499047215
 20
209.2787759569
 30
0.0
 10
-40.6389342645
 20
215.5076455799
 30
0.0
 10
-41.5923125307
 20
219.8828597042
 30
0.0
 10
-41.9264486828
 20
222.1120684107
 30
0.0
  0
SPLINE
  5
425
100
AcDbEntity
  8
0
100
AcDbSpline
 62
7
  6
CONTINUOUS
 70
0
 71
3
 72
11
 73
7
 74
0
 42
0.0000001
 43
0.0000001
 44
0.0000000001
 40
0.0
 40
0.0
 40
0.0
 40
0.0
 40
0.2617731021
 40
0.5162937014
 40
0.7623616603
 40
1.0
 40
1.0
 40
1.0
 40
1.0
 10
-43.2860268081
 20
222.3024822193
 30
0.0
 10
-42.8615106381
 20
219.4702979846
 30
0.0
 10
-41.5539320636
 20
213.941555932
 30
0.0
 10
-38.2147232494
 20
206.2494599452
 30
0.0
 10
-33.6393180263
 20
199.5346528463
 30
0.0
 10
-29.8044577252
 20
195.8210699704
 30
0.0
 10
-27.7492167497
 20
194.2289414709
 30
0.0
  0
SPLINE
  5
426
100
AcDbEntity
  8
0
100
AcDbSpline
 62
7
  6
CONTINUOUS
 70
0
 71
3
 72
11
 73
7
 74
0
 42
0.0000001
 43
0.0000001
 44
0.0000000001
 40
0.0
 40
0.0
 40
0.0
 40
0.0
 40
0.2429562669
 40
0.4935851265
 40
0.7475963732
 40
1.0
 40
1.0
 40
1.0
 40
1.0
 10
-30.7649757251
 20
264.8477160778
 30
0.0
 10
-33.2732968718
 20
262.12446876
 30
0.0
 10
-37.6900313801
 20
255.9340025809
 30
0.0
 10
-42.0880732016
 20
245.3293244292
 30
0.0
 10
-44.1435190445
 20
233.8907086019
 30
0.0
 10
-43.8561893338
 20
226.1063545583
 30
0.0
 10
-43.2860268081
 20
222.3024822193
 30
0.0
  0
SPLINE
  5
427
100
AcDbEntity
  8
0
100
AcDbSpline
 62
7
  6
CONTINUOUS
 70
0
 71
3
 72
12
 73
8
 74
0
 42
0.0000001
 43
0.0000001
 44
0.0000000001
 40
0.0
 40
0.0
 40
0.0
 40
0.0
 40
0.2510847633
 40
0.5040509639
 40
0.6301123314
 40
0.7551320242
 40
1.0
 40
1.0
 40
1.0
 40
1.0
 10
-51.0132998012
 20
220.2311443273
 30
0.0
 10
-51.634607329
 20
224.3762335122
 30
0.0
 10
-52.0389822937
 20
232.8442138736
 30
0.0
 10
-50.4914519335
 20
243.3171147995
 30
0.0
 10
-48.0584433668
 20
251.3853208295
 30
0.0
 10
-44.8952820948
 20
259.0457322347
 30
0.0
 10
-41.6807777781
 20
264.3858312013
 30
0.0
 10
-39.2052227162
 20
267.638558902
 30
0.0
  0
SPLINE
  5
428
100
AcDbEntity
  8
0
100
AcDbSpline
 62
7
  6
CONTINUOUS
 70
0
 71
3
 72
11
 73
7
 74
0
 42
0.0000001
 43
0.0000001
 44
0.0000000001
 40
0.0
 40
0.0
 40
0.0
 40
0.0
 40
0.2403732555
 40
0.4875202394
 40
0.7410479925
 40
1.0
 40
1.0
 40
1.0
 40
1.0
 10
-37.8578505576
 20
191.5192386009
 30
0.0
 10
-39.5874478158
 20
193.4135226522
 30
0.0
 10
-42.780666302
 20
197.5539419004
 30
0.0
 10
-46.5989349264
 20
204.5116183564
 30
0.0
 10
-49.4295961056
 20
212.13633167
 30
0.0
 10
-50.6036731699
 20
217.4982965126
 30
0.0
 10
-51.0132998012
 20
220.2311443273
 30
0.0
  0
SPLINE
  5
429
100
AcDbEntity
  8
0
100
AcDbSpline
 62
7
  6
CONTINUOUS
 70
0
 71
3
 72
13
 73
9
 74
0
 42
0.0000001
 43
0.0000001
 44
0.0000000001
 40
0.0
 40
0.0
 40
0.0
 40
0.0
 40
0.2521310271
 40
0.5058832572
 40
0.631999002
 40
0.7567068687
 40
0.879505573
 40
1.0
 40
1.0
 40
1.0
 40
1.0
 10
-41.9264486828
 20
222.1120684107
 30
0.0
 10
-42.4936039316
 20
225.8958775281
 30
0.0
 10
-42.7843505562
 20
233.6369438473
 30
0.0
 10
-41.0902015549
 20
243.1540734059
 30
0.0
 10
-38.5486601782
 20
250.3906457351
 30
0.0
 10
-36.0890500306
 20
255.5127150416
 30
0.0
 10
-33.1136836001
 20
260.2520626618
 30
0.0
 10
-30.7924444223
 20
263.1364653512
 30
0.0
 10
-29.5606661118
 20
264.4878083592
 30
0.0
  0
SPLINE
  5
42A
100
AcDbEntity
  8
0
100
AcDbSpline
 62
7
  6
CONTINUOUS
 70
0
 71
3
 72
12
 73
8
 74
0
 42
0.0000001
 43
0.0000001
 44
0.0000000001
 40
0.0
 40
0.0
 40
0.0
 40
0.0
 40
0.2610538246
 40
0.5205039957
 40
0.7678261417
 40
0.8858534968
 40
1.0
 40
1.0
 40
1.0
 40
1.0
 10
-89.8370579089
 20
272.1364073546
 30
0.0
 10
-89.9908175431
 20
273.1622236665
 30
0.0
 10
-89.9468458213
 20
275.2744984382
 30
0.0
 10
-88.9035327894
 20
278.1951707942
 30
0.0
 10
-87.2915734635
 20
280.165403708
 30
0.0
 10
-85.6957093343
 20
281.2267388755
 30
0.0
 10
-84.8293262525
 20
281.5686335462
 30
0.0
 10
-84.3912405879
 20
281.6860648105
 30
0.0
  0
SPLINE
  5
42B
100
AcDbEntity
  8
0
100
AcDbSpline
 62
7
  6
CONTINUOUS
 70
0
 71
3
 72
13
 73
9
 74
0
 42
0.0000001
 43
0.0000001
 44
0.0000000001
 40
0.0
 40
0.0
 40
0.0
 40
0.0
 40
0.1152264283
 40
0.2342307993
 40
0.3570526658
 40
0.4832363757
 40
0.7413082379
 40
1.0
 40
1.0
 40
1.0
 40
1.0
 10
5.5818369012
 20
192.7789604583
 30
0.0
 10
7.644707149
 20
193.6418672333
 30
0.0
 10
11.6687955925
 20
195.8280312943
 30
0.0
 10
17.0587074967
 20
200.2389943775
 30
0.0
 10
21.7334817482
 20
205.6855677587
 30
0.0
 10
26.8443143454
 20
214.1386603785
 30
0.0
 10
30.6820457428
 20
226.225263708
 30
0.0
 10
30.759860967
 20
236.4318604905
 30
0.0
 10
30.0157025528
 20
241.3965564852
 30
0.0
  0
SPLINE
  5
42C
100
AcDbEntity
  8
0
100
AcDbSpline
 62
7
  6
CONTINUOUS
 70
0
 71
3
 72
13
 73
9
 74
0
 42
0.0000001
 43
0.0000001
 44
0.0000000001
 40
0.0
 40
0.0
 40
0.0
 40
0.0
 40
0.1181776555
 40
0.2394506148
 40
0.3634841057
 40
0.4897227266
 40
0.7453036948
 40
1.0
 40
1.0
 40
1.0
 40
1.0
 10
-56.6176658613
 20
274.1848067322
 30
0.0
 10
-58.2781257879
 20
272.9146190133
 30
0.0
 10
-61.4471197154
 20
270.0757387004
 30
0.0
 10
-65.5790259122
 20
265.1228309912
 30
0.0
 10
-69.0668137437
 20
259.5272099301
 30
0.0
 10
-72.7654072065
 20
251.3545946013
 30
0.0
 10
-75.3892496085
 20
240.2759600065
 30
0.0
 10
-75.2242078124
 20
231.1378274467
 30
0.0
 10
-74.5563236908
 20
226.6819998161
 30
0.0
  0
SPLINE
  5
42D
100
AcDbEntity
  8
0
100
AcDbSpline
 62
7
  6
CONTINUOUS
 70
0
 71
3
 72
11
 73
7
 74
0
 42
0.0000001
 43
0.0000001
 44
0.0000000001
 40
0.0
 40
0.0
 40
0.0
 40
0.0
 40
0.26671024
 40
0.521052959
 40
0.7639958546
 40
1.0
 40
1.0
 40
1.0
 40
1.0
 10
-6.2282767502
 20
187.171977441
 30
0.0
 10
-6.0373842962
 20
186.4906868188
 30
0.0
 10
-5.5038638548
 20
185.1969750094
 30
0.0
 10
-4.2526495096
 20
183.5702351121
 30
0.0
 10
-2.6497378359
 20
182.4168978389
 30
0.0
 10
-1.4120534884
 20
182.0289988185
 30
0.0
 10
-0.79203596
 20
181.9421432231
 30
0.0
  0
SPLINE
  5
42E
100
AcDbEntity
  8
0
100
AcDbSpline
 62
7
  6
CONTINUOUS
 70
0
 71
3
 72
15
 73
11
 74
0
 42
0.0000001
 43
0.0000001
 44
0.0000000001
 40
0.0
 40
0.0
 40
0.0
 40
0.0
 40
0.1355593174
 40
0.2683326637
 40
0.397832799
 40
0.523837907
 40
0.646457935
 40
0.7661393691
 40
0.8836497218
 40
1.0
 40
1.0
 40
1.0
 40
1.0
 10
-74.5563236908
 20
226.6819998161
 30
0.0
 10
-74.2221875386
 20
224.4527911089
 30
0.0
 10
-73.2688092721
 20
220.0775769831
 30
0.0
 10
-70.9797797277
 20
213.8487073588
 30
0.0
 10
-67.8946149847
 20
208.150057662
 30
0.0
 10
-64.0825614229
 20
203.1177028909
 30
0.0
 10
-59.6303174534
 20
198.8719536335
 30
0.0
 10
-54.6396931096
 20
195.5167853771
 30
0.0
 10
-49.2308180648
 20
193.1370525829
 30
0.0
 10
-45.4205747219
 20
192.2389632174
 30
0.0
 10
-43.5045747728
 20
191.9706258434
 30
0.0
  0
SPLINE
  5
42F
100
AcDbEntity
  8
0
100
AcDbSpline
 62
7
  6
CONTINUOUS
 70
0
 71
3
 72
11
 73
7
 74
0
 42
0.0000001
 43
0.0000001
 44
0.0000000001
 40
0.0
 40
0.0
 40
0.0
 40
0.0
 40
0.2657448085
 40
0.5195884971
 40
0.7629243059
 40
1.0
 40
1.0
 40
1.0
 40
1.0
 10
-37.3536062593
 20
191.0842833229
 30
0.0
 10
-37.1399020111
 20
190.4577290091
 30
0.0
 10
-36.5799869251
 20
189.2743325497
 30
0.0
 10
-35.34740631
 20
187.7989693935
 30
0.0
 10
-33.8138075387
 20
186.757054997
 30
0.0
 10
-32.647201207
 20
186.4035925205
 30
0.0
 10
-32.0623328427
 20
186.3216608199
 30
0.0
  0
SPLINE
  5
430
100
AcDbEntity
  8
0
100
AcDbSpline
 62
7
  6
CONTINUOUS
 70
0
 71
3
 72
11
 73
7
 74
0
 42
0.0000001
 43
0.0000001
 44
0.0000000001
 40
0.0
 40
0.0
 40
0.0
 40
0.0
 40
0.2356681179
 40
0.4784986923
 40
0.7330148208
 40
1.0
 40
1.0
 40
1.0
 40
1.0
 10
0.5675421098
 20
181.75172903
 30
0.0
 10
-0.0638100627
 20
181.8401706806
 30
0.0
 10
-1.3244525944
 20
182.2395338656
 30
0.0
 10
-2.9489318594
 20
183.4298761954
 30
0.0
 10
-4.2042862665
 20
185.1063284586
 30
0.0
 10
-4.727638699
 20
186.4357195092
 30
0.0
 10
-4.9100926487
 20
187.1345273053
 30
0.0
  0
SPLINE
  5
431
100
AcDbEntity
  8
0
100
AcDbSpline
 62
7
  6
CONTINUOUS
 70
0
 71
3
 72
14
 73
10
 74
0
 42
0.0000001
 43
0.0000001
 44
0.0000000001
 40
0.0
 40
0.0
 40
0.0
 40
0.0
 40
0.1124445437
 40
0.2274830372
 40
0.3469930647
 40
0.4717110303
 40
0.601197547
 40
0.7340251568
 40
1.0
 40
1.0
 40
1.0
 40
1.0
 10
1.0183238611
 20
184.9703624022
 30
0.0
 10
1.3480962954
 20
184.9241229494
 30
0.0
 10
2.0326249905
 20
184.9276215698
 30
0.0
 10
3.0299134917
 20
185.2219103693
 30
0.0
 10
3.9470415965
 20
185.7834373585
 30
0.0
 10
4.7329524019
 20
186.5762931038
 30
0.0
 10
5.3464508709
 20
187.5554708855
 30
0.0
 10
5.8915559394
 20
189.0296107475
 30
0.0
 10
5.9608041508
 20
190.2506641765
 30
0.0
 10
5.8440445973
 20
191.0296323055
 30
0.0
  0
SPLINE
  5
432
100
AcDbEntity
  8
0
100
AcDbSpline
 62
7
  6
CONTINUOUS
 70
0
 71
3
 72
12
 73
8
 74
0
 42
0.0000001
 43
0.0000001
 44
0.0000000001
 40
0.0
 40
0.0
 40
0.0
 40
0.0
 40
0.2349933756
 40
0.4894753556
 40
0.6202647794
 40
0.7503870015
 40
1.0
 40
1.0
 40
1.0
 40
1.0
 10
-94.3515569659
 20
287.8240103846
 30
0.0
 10
-95.485249537
 20
287.5201178752
 30
0.0
 10
-97.7199527372
 20
286.3783980865
 30
0.0
 10
-99.9105273661
 20
284.1205936837
 30
0.0
 10
-101.2646854096
 20
281.9209960218
 30
0.0
 10
-102.2688230177
 20
279.5712082947
 30
0.0
 10
-102.6160200602
 20
277.6620660152
 30
0.0
 10
-102.6160200602
 20
276.4153296064
 30
0.0
  0
SPLINE
  5
433
100
AcDbEntity
  8
0
100
AcDbSpline
 62
7
  6
CONTINUOUS
 70
0
 71
3
 72
13
 73
9
 74
0
 42
0.0000001
 43
0.0000001
 44
0.0000000001
 40
0.0
 40
0.0
 40
0.0
 40
0.0
 40
0.0836751625
 40
0.1736538179
 40
0.2747561033
 40
0.3898263121
 40
0.6656602593
 40
1.0
 40
1.0
 40
1.0
 40
1.0
 10
-222.1508141404
 20
250.2957003712
 30
0.0
 10
-222.1507672417
 20
250.4164380051
 30
0.0
 10
-222.1103182891
 20
250.668406243
 30
0.0
 10
-221.9350442648
 20
251.0288984211
 30
0.0
 10
-221.6530809467
 20
251.3730165183
 30
0.0
 10
-221.1097832649
 20
251.8344089859
 30
0.0
 10
-220.1775268574
 20
252.3314630554
 30
0.0
 10
-219.3395315877
 20
252.6096972258
 30
0.0
 10
-218.8735525646
 20
252.7346054577
 30
0.0
  0
SPLINE
  5
434
100
AcDbEntity
  8
0
100
AcDbSpline
 62
7
  6
CONTINUOUS
 70
0
 71
3
 72
9
 73
5
 74
0
 42
0.0000001
 43
0.0000001
 44
0.0000000001
 40
0.0
 40
0.0
 40
0.0
 40
0.0
 40
0.2182686125
 40
1.0
 40
1.0
 40
1.0
 40
1.0
 10
-222.1248991444
 20
244.5341223904
 30
0.0
 10
-222.103973769
 20
244.4354520074
 30
0.0
 10
-221.9507604272
 20
243.9946095452
 30
0.0
 10
-221.605302057
 20
243.6477522188
 30
0.0
 10
-221.3182595026
 20
243.428419008
 30
0.0
  0
SPLINE
  5
435
100
AcDbEntity
  8
0
100
AcDbSpline
 62
7
  6
CONTINUOUS
 70
0
 71
3
 72
9
 73
5
 74
0
 42
0.0000001
 43
0.0000001
 44
0.0000000001
 40
0.0
 40
0.0
 40
0.0
 40
0.0
 40
0.2390358742
 40
1.0
 40
1.0
 40
1.0
 40
1.0
 10
-221.3182595026
 20
243.428419008
 30
0.0
 10
-221.2826454588
 20
243.4012058215
 30
0.0
 10
-221.1315683315
 20
243.2900981889
 30
0.0
 10
-220.972840899
 20
243.1895564503
 30
0.0
 10
-220.8492833396
 20
243.1181918987
 30
0.0
  0
SPLINE
  5
436
100
AcDbEntity
  8
0
100
AcDbSpline
 62
7
  6
CONTINUOUS
 70
0
 71
3
 72
10
 73
6
 74
0
 42
0.0000001
 43
0.0000001
 44
0.0000000001
 40
0.0
 40
0.0
 40
0.0
 40
0.0
 40
0.5779931867
 40
0.812380216
 40
1.0
 40
1.0
 40
1.0
 40
1.0
 10
-115.3910095704
 20
274.6280163721
 30
0.0
 10
-115.1203960383
 20
275.2227504862
 30
0.0
 10
-114.7453431195
 20
276.0637596451
 30
0.0
 10
-114.4086637151
 20
277.1437568515
 30
0.0
 10
-114.3344564344
 20
277.619725152
 30
0.0
 10
-114.3344744689
 20
277.8318245871
 30
0.0
  0
SPLINE
  5
437
100
AcDbEntity
  8
0
100
AcDbSpline
 62
7
  6
CONTINUOUS
 70
0
 71
3
 72
13
 73
9
 74
0
 42
0.0000001
 43
0.0000001
 44
0.0000000001
 40
0.0
 40
0.0
 40
0.0
 40
0.0
 40
0.0827784939
 40
0.1861368522
 40
0.3060086263
 40
0.4370230851
 40
0.7155027303
 40
1.0
 40
1.0
 40
1.0
 40
1.0
 10
-189.8415623974
 20
275.8487264938
 30
0.0
 10
-189.8415502215
 20
275.5838951807
 30
0.0
 10
-189.9402190513
 20
274.9901573942
 30
0.0
 10
-190.2424274088
 20
274.058475314
 30
0.0
 10
-190.6761766055
 20
273.0103735709
 30
0.0
 10
-191.3878751677
 20
271.4735342017
 30
0.0
 10
-192.3751172311
 20
269.484624558
 30
0.0
 10
-193.1672919237
 20
267.8670077501
 30
0.0
 10
-193.5559269519
 20
267.0439643276
 30
0.0
  0
SPLINE
  5
438
100
AcDbEntity
  8
0
100
AcDbSpline
 62
7
  6
CONTINUOUS
 70
0
 71
3
 72
9
 73
5
 74
0
 42
0.0000001
 43
0.0000001
 44
0.0000000001
 40
0.0
 40
0.0
 40
0.0
 40
0.0
 40
0.2559546022
 40
1.0
 40
1.0
 40
1.0
 40
1.0
 10
-102.6383264548
 20
268.7818337258
 30
0.0
 10
-102.8619693106
 20
268.1390750106
 30
0.0
 10
-103.6442344396
 20
265.5973558482
 30
0.0
 10
-104.0540825059
 20
262.9378464518
 30
0.0
 10
-104.1156172862
 20
260.9604696588
 30
0.0
  0
SPLINE
  5
439
100
AcDbEntity
  8
0
100
AcDbSpline
 62
7
  6
CONTINUOUS
 70
0
 71
3
 72
11
 73
7
 74
0
 42
0.0000001
 43
0.0000001
 44
0.0000000001
 40
0.0
 40
0.0
 40
0.0
 40
0.0
 40
0.2042254846
 40
0.4454435681
 40
0.7141300964
 40
1.0
 40
1.0
 40
1.0
 40
1.0
 10
-207.0067224698
 20
275.6773203146
 30
0.0
 10
-207.4397635422
 20
275.1906670584
 30
0.0
 10
-208.1305798199
 20
273.9112992867
 30
0.0
 10
-208.7122241504
 20
271.7020649018
 30
0.0
 10
-209.00654311
 20
269.1741341144
 30
0.0
 10
-209.0517580977
 20
267.4046278953
 30
0.0
 10
-209.0517582371
 20
266.4927773671
 30
0.0
  0
SPLINE
  5
43A
100
AcDbEntity
  8
0
100
AcDbSpline
 62
7
  6
CONTINUOUS
 70
0
 71
3
 72
9
 73
5
 74
0
 42
0.0000001
 43
0.0000001
 44
0.0000000001
 40
0.0
 40
0.0
 40
0.0
 40
0.0
 40
0.2569229658
 40
1.0
 40
1.0
 40
1.0
 40
1.0
 10
-193.5559246947
 20
267.0439687852
 30
0.0
 10
-194.1228257971
 20
265.8433974502
 30
0.0
 10
-196.0928959626
 20
261.0639662929
 30
0.0
 10
-197.1221142882
 20
255.8853320785
 30
0.0
 10
-197.2415535497
 20
252.0472355912
 30
0.0
  0
SPLINE
  5
43B
100
AcDbEntity
  8
0
100
AcDbSpline
 62
7
  6
CONTINUOUS
 70
0
 71
3
 72
10
 73
6
 74
0
 42
0.0000001
 43
0.0000001
 44
0.0000000001
 40
0.0
 40
0.0
 40
0.0
 40
0.0
 40
0.2430578051
 40
0.4859139294
 40
1.0
 40
1.0
 40
1.0
 40
1.0
 10
-205.0677154938
 20
276.6668226641
 30
0.0
 10
-205.2484703277
 20
276.6613423354
 30
0.0
 10
-205.6101458716
 20
276.6093984342
 30
0.0
 10
-206.3080080958
 20
276.3365601923
 30
0.0
 10
-206.7524615338
 20
275.9630597522
 30
0.0
 10
-207.0067224698
 20
275.6773203146
 30
0.0
  0
SPLINE
  5
43C
100
AcDbEntity
  8
0
100
AcDbSpline
 62
7
  6
CONTINUOUS
 70
0
 71
3
 72
9
 73
5
 74
0
 42
0.0000001
 43
0.0000001
 44
0.0000000001
 40
0.0
 40
0.0
 40
0.0
 40
0.0
 40
0.4999814331
 40
1.0
 40
1.0
 40
1.0
 40
1.0
 10
-191.316767674
 20
277.0824724177
 30
0.0
 10
-193.6085144687
 20
277.013438891
 30
0.0
 10
-198.1920587458
 20
276.8714167585
 30
0.0
 10
-202.775812561
 20
276.736326856
 30
0.0
 10
-205.0677154938
 20
276.6668226641
 30
0.0
  0
SPLINE
  5
43D
100
AcDbEntity
  8
0
100
AcDbSpline
 62
7
  6
CONTINUOUS
 70
0
 71
3
 72
9
 73
5
 74
0
 42
0.0000001
 43
0.0000001
 44
0.0000000001
 40
0.0
 40
0.0
 40
0.0
 40
0.0
 40
0.2538836585
 40
1.0
 40
1.0
 40
1.0
 40
1.0
 10
-152.3888579614
 20
295.4914163592
 30
0.0
 10
-151.9749060959
 20
295.6032388348
 30
0.0
 10
-150.3319384644
 20
295.9955551914
 30
0.0
 10
-148.64087201
 20
296.190812492
 30
0.0
 10
-147.3809359268
 20
296.2130125605
 30
0.0
  0
SPLINE
  5
43E
100
AcDbEntity
  8
0
100
AcDbSpline
 62
7
  6
CONTINUOUS
 70
0
 71
3
 72
20
 73
16
 74
0
 42
0.0000001
 43
0.0000001
 44
0.0000000001
 40
0.0
 40
0.0
 40
0.0
 40
0.0
 40
0.0333058417
 40
0.047753785
 40
0.0623834053
 40
0.0782796249
 40
0.0960883008
 40
0.1382824776
 40
0.1891845134
 40
0.247640394
 40
0.3814210191
 40
0.5294203375
 40
0.6842394177
 40
0.8417259838
 40
1.0
 40
1.0
 40
1.0
 40
1.0
 10
-114.3344744689
 20
277.8318245871
 30
0.0
 10
-114.3344910909
 20
278.0273112591
 30
0.0
 10
-114.3787344433
 20
278.3206352441
 30
0.0
 10
-114.5999314703
 20
278.6202013585
 30
0.0
 10
-114.8182301809
 20
278.7752894188
 30
0.0
 10
-115.0863810215
 20
278.8750446238
 30
0.0
 10
-115.5281420925
 20
278.9464837875
 30
0.0
 10
-116.1841995475
 20
278.9069997533
 30
0.0
 10
-117.0536570124
 20
278.7106014108
 30
0.0
 10
-118.4014839398
 20
278.2332985454
 30
0.0
 10
-120.1753076557
 20
277.2913837433
 30
0.0
 10
-122.2234397071
 20
275.733830628
 30
0.0
 10
-124.0906938439
 20
273.7645110164
 30
0.0
 10
-125.659938155
 20
271.4793113656
 30
0.0
 10
-126.4828755468
 20
269.8111591318
 30
0.0
 10
-126.8385843669
 20
268.9529778713
 30
0.0
  0
SPLINE
  5
43F
100
AcDbEntity
  8
0
100
AcDbSpline
 62
7
  6
CONTINUOUS
 70
0
 71
3
 72
12
 73
8
 74
0
 42
0.0000001
 43
0.0000001
 44
0.0000000001
 40
0.0
 40
0.0
 40
0.0
 40
0.0
 40
0.2497420513
 40
0.3796685166
 40
0.5102158111
 40
0.7644877671
 40
1.0
 40
1.0
 40
1.0
 40
1.0
 10
-101.3200271318
 20
275.8141764031
 30
0.0
 10
-101.3024688347
 20
277.0359666271
 30
0.0
 10
-100.9465268635
 20
278.9005592536
 30
0.0
 10
-99.9548890311
 20
281.1971142223
 30
0.0
 10
-98.6291806528
 20
283.3481164929
 30
0.0
 10
-96.4935913232
 20
285.567399683
 30
0.0
 10
-94.3206000978
 20
286.7120253002
 30
0.0
 10
-93.2137095607
 20
287.0322981431
 30
0.0
  0
SPLINE
  5
440
100
AcDbEntity
  8
0
100
AcDbSpline
 62
7
  6
CONTINUOUS
 70
0
 71
3
 72
11
 73
7
 74
0
 42
0.0000001
 43
0.0000001
 44
0.0000000001
 40
0.0
 40
0.0
 40
0.0
 40
0.0
 40
0.3075915747
 40
0.5711047481
 40
0.7967660342
 40
1.0
 40
1.0
 40
1.0
 40
1.0
 10
-220.8492833396
 20
248.6341995793
 30
0.0
 10
-221.0447153228
 20
248.7470774633
 30
0.0
 10
-221.3951749658
 20
248.9802929422
 30
0.0
 10
-221.8184907118
 20
249.3897624191
 30
0.0
 10
-222.0868911572
 20
249.8296694498
 30
0.0
 10
-222.150872063
 20
250.1465822902
 30
0.0
 10
-222.1508141404
 20
250.2957003712
 30
0.0
  0
SPLINE
  5
441
100
AcDbEntity
  8
0
100
AcDbSpline
 62
7
  6
CONTINUOUS
 70
0
 71
3
 72
12
 73
8
 74
0
 42
0.0000001
 43
0.0000001
 44
0.0000000001
 40
0.0
 40
0.0
 40
0.0
 40
0.0
 40
0.2564766128
 40
0.531287932
 40
0.7893208601
 40
0.9021309983
 40
1.0
 40
1.0
 40
1.0
 40
1.0
 10
-126.8385888682
 20
200.2757931774
 30
0.0
 10
-125.9007101012
 20
200.5271963552
 30
0.0
 10
-123.9002101338
 20
200.8375260012
 30
0.0
 10
-120.9040595013
 20
200.8470430714
 30
0.0
 10
-118.4710808593
 20
200.48923633
 30
0.0
 10
-116.7729580215
 20
199.964436055
 30
0.0
 10
-116.0437418072
 20
199.6318780273
 30
0.0
 10
-115.7228940774
 20
199.4465623372
 30
0.0
  0
SPLINE
  5
442
100
AcDbEntity
  8
0
100
AcDbSpline
 62
7
  6
CONTINUOUS
 70
0
 71
3
 72
9
 73
5
 74
0
 42
0.0000001
 43
0.0000001
 44
0.0000000001
 40
0.0
 40
0.0
 40
0.0
 40
0.0
 40
0.2579186279
 40
1.0
 40
1.0
 40
1.0
 40
1.0
 10
-115.7228940774
 20
199.4465623372
 30
0.0
 10
-115.689985629
 20
199.4275550286
 30
0.0
 10
-115.5631586667
 20
199.3525499431
 30
0.0
 10
-115.4394697884
 20
199.272183254
 30
0.0
 10
-115.3500914746
 20
199.209196722
 30
0.0
  0
SPLINE
  5
443
100
AcDbEntity
  8
0
100
AcDbSpline
 62
7
  6
CONTINUOUS
 70
0
 71
3
 72
8
 73
4
 74
0
 42
0.0000001
 43
0.0000001
 44
0.0000000001
 40
0.0
 40
0.0
 40
0.0
 40
0.0
 40
1.0
 40
1.0
 40
1.0
 40
1.0
 10
-115.3923139426
 20
274.628512415
 30
0.0
 10
-111.1335598829
 20
274.7691249428
 30
0.0
 10
-106.8747405295
 20
274.907752998
 30
0.0
 10
-102.6159605478
 20
275.0475782135
 30
0.0
  0
SPLINE
  5
444
100
AcDbEntity
  8
0
100
AcDbSpline
 62
7
  6
CONTINUOUS
 70
0
 71
3
 72
9
 73
5
 74
0
 42
0.0000001
 43
0.0000001
 44
0.0000000001
 40
0.0
 40
0.0
 40
0.0
 40
0.0
 40
0.2434197172
 40
1.0
 40
1.0
 40
1.0
 40
1.0
 10
-129.1216557273
 20
258.5671012517
 30
0.0
 10
-129.0947360931
 20
259.4321447246
 30
0.0
 10
-128.8107726253
 20
262.9789493169
 30
0.0
 10
-127.8685771966
 20
266.4680207691
 30
0.0
 10
-126.8385813199
 20
268.952984636
 30
0.0
  0
SPLINE
  5
445
100
AcDbEntity
  8
0
100
AcDbSpline
 62
7
  6
CONTINUOUS
 70
0
 71
3
 72
12
 73
8
 74
0
 42
0.0000001
 43
0.0000001
 44
0.0000000001
 40
0.0
 40
0.0
 40
0.0
 40
0.0
 40
0.2815130798
 40
0.5149516126
 40
0.6245237278
 40
0.7376293012
 40
1.0
 40
1.0
 40
1.0
 40
1.0
 10
-191.3167681094
 20
277.0824724328
 30
0.0
 10
-191.1098709436
 20
277.0887046871
 30
0.0
 10
-190.7281826908
 20
277.0650691594
 30
0.0
 10
-190.2891781427
 20
276.883703031
 30
0.0
 10
-190.0513298837
 20
276.6411239038
 30
0.0
 10
-189.8770584185
 20
276.3255965853
 30
0.0
 10
-189.8415712669
 20
276.0416424888
 30
0.0
 10
-189.8415623974
 20
275.8487264938
 30
0.0
  0
SPLINE
  5
446
100
AcDbEntity
  8
0
100
AcDbSpline
 62
7
  6
CONTINUOUS
 70
0
 71
3
 72
9
 73
5
 74
0
 42
0.0000001
 43
0.0000001
 44
0.0000000001
 40
0.0
 40
0.0
 40
0.0
 40
0.0
 40
0.4869577215
 40
1.0
 40
1.0
 40
1.0
 40
1.0
 10
-192.7746554445
 20
284.6568508422
 30
0.0
 10
-194.8596995204
 20
284.0353134796
 30
0.0
 10
-198.9719972862
 20
282.1410082579
 30
0.0
 10
-202.4815771906
 20
279.3048786993
 30
0.0
 10
-204.0996789044
 20
277.6812459912
 30
0.0
  0
SPLINE
  5
447
100
AcDbEntity
  8
0
100
AcDbSpline
 62
7
  6
CONTINUOUS
 70
0
 71
3
 72
9
 73
5
 74
0
 42
0.0000001
 43
0.0000001
 44
0.0000000001
 40
0.0
 40
0.0
 40
0.0
 40
0.0
 40
0.2469229275
 40
1.0
 40
1.0
 40
1.0
 40
1.0
 10
-91.9305901464
 20
286.4257049111
 30
0.0
 10
-92.0072538252
 20
286.4051547917
 30
0.0
 10
-92.3165063365
 20
286.3174120865
 30
0.0
 10
-92.6206909776
 20
286.2119522924
 30
0.0
 10
-92.846053916
 20
286.1235897697
 30
0.0
  0
SPLINE
  5
448
100
AcDbEntity
  8
0
100
AcDbSpline
 62
7
  6
CONTINUOUS
 70
0
 71
3
 72
12
 73
8
 74
0
 42
0.0000001
 43
0.0000001
 44
0.0000000001
 40
0.0
 40
0.0
 40
0.0
 40
0.0
 40
0.2391031681
 40
0.4940314861
 40
0.6238855166
 40
0.7527047483
 40
1.0
 40
1.0
 40
1.0
 40
1.0
 10
-92.846053916
 20
286.1235897697
 30
0.0
 10
-93.8872282306
 20
285.7153558796
 30
0.0
 10
-95.8898486026
 20
284.4695491455
 30
0.0
 10
-97.8361422176
 20
282.2443599855
 30
0.0
 10
-99.023172092
 20
280.1475915875
 30
0.0
 10
-99.8962908912
 20
277.9432641339
 30
0.0
 10
-100.1950532406
 20
276.1736870825
 30
0.0
 10
-100.1950532406
 20
275.017024133
 30
0.0
  0
SPLINE
  5
449
100
AcDbEntity
  8
0
100
AcDbSpline
 62
7
  6
CONTINUOUS
 70
0
 71
3
 72
11
 73
7
 74
0
 42
0.0000001
 43
0.0000001
 44
0.0000000001
 40
0.0
 40
0.0
 40
0.0
 40
0.0
 40
0.2323651625
 40
0.4731289299
 40
0.7282216613
 40
1.0
 40
1.0
 40
1.0
 40
1.0
 10
-23.3971018534
 20
179.8305514291
 30
0.0
 10
-22.5366332537
 20
179.3335937801
 30
0.0
 10
-20.931687617
 20
178.0426544033
 30
0.0
 10
-19.1582158131
 20
175.4348954498
 30
0.0
 10
-18.0759723208
 20
172.3006327281
 30
0.0
 10
-17.8500070674
 20
170.0379751232
 30
0.0
 10
-17.8500070674
 20
168.8757654873
 30
0.0
  0
SPLINE
  5
44A
100
AcDbEntity
  8
0
100
AcDbSpline
 62
7
  6
CONTINUOUS
 70
0
 71
3
 72
11
 73
7
 74
0
 42
0.0000001
 43
0.0000001
 44
0.0000000001
 40
0.0
 40
0.0
 40
0.0
 40
0.0
 40
0.2324065243
 40
0.4731499679
 40
0.7282340351
 40
1.0
 40
1.0
 40
1.0
 40
1.0
 10
-68.0251595521
 20
167.8678194475
 30
0.0
 10
-67.164622472
 20
167.3706230286
 30
0.0
 10
-65.5594671651
 20
166.0798104565
 30
0.0
 10
-63.7862907978
 20
163.471740063
 30
0.0
 10
-62.7040348801
 20
160.3377056487
 30
0.0
 10
-62.4781077764
 20
158.0751173011
 30
0.0
 10
-62.4781077764
 20
156.9129584107
 30
0.0
  0
SPLINE
  5
44B
100
AcDbEntity
  8
0
100
AcDbSpline
 62
7
  6
CONTINUOUS
 70
0
 71
3
 72
12
 73
8
 74
0
 42
0.0000001
 43
0.0000001
 44
0.0000000001
 40
0.0
 40
0.0
 40
0.0
 40
0.0
 40
0.2349933756
 40
0.4894753556
 40
0.6202647794
 40
0.7503870015
 40
1.0
 40
1.0
 40
1.0
 40
1.0
 10
-93.0566212252
 20
286.6164122432
 30
0.0
 10
-94.1336291678
 20
286.3277143593
 30
0.0
 10
-96.256597208
 20
285.24308056
 30
0.0
 10
-98.3376431055
 20
283.0981663774
 30
0.0
 10
-99.6240932467
 20
281.0085485987
 30
0.0
 10
-100.5780239745
 20
278.7762502579
 30
0.0
 10
-100.9078611648
 20
276.9625650923
 30
0.0
 10
-100.9078611648
 20
275.778165504
 30
0.0
  0
SPLINE
  5
44C
100
AcDbEntity
  8
0
100
AcDbSpline
 62
7
  6
CONTINUOUS
 70
0
 71
3
 72
11
 73
7
 74
0
 42
0.0000001
 43
0.0000001
 44
0.0000000001
 40
0.0
 40
0.0
 40
0.0
 40
0.0
 40
0.2032339246
 40
0.4288952144
 40
0.6924084714
 40
1.0
 40
1.0
 40
1.0
 40
1.0
 10
-222.1508141485
 20
182.2649389774
 30
0.0
 10
-222.1508720993
 20
182.1158209279
 30
0.0
 10
-222.0868911165
 20
181.7989081334
 30
0.0
 10
-221.8184907595
 20
181.3590010248
 30
0.0
 10
-221.3951748886
 20
180.9495316235
 30
0.0
 10
-221.0447152919
 20
180.7163160515
 30
0.0
 10
-220.8492833396
 20
180.6034381854
 30
0.0
  0
SPLINE
  5
44D
100
AcDbEntity
  8
0
100
AcDbSpline
 62
7
  6
CONTINUOUS
 70
0
 71
3
 72
9
 73
5
 74
0
 42
0.0000001
 43
0.0000001
 44
0.0000000001
 40
0.0
 40
0.0
 40
0.0
 40
0.0
 40
0.2437369764
 40
1.0
 40
1.0
 40
1.0
 40
1.0
 10
-222.1508141404
 20
242.9410234637
 30
0.0
 10
-222.1507962195
 20
242.9871597369
 30
0.0
 10
-222.1395712921
 20
243.1764263493
 30
0.0
 10
-222.0817917387
 20
243.361713542
 30
0.0
 10
-222.0196582287
 20
243.4906770962
 30
0.0
  0
SPLINE
  5
44E
100
AcDbEntity
  8
0
100
AcDbSpline
 62
7
  6
CONTINUOUS
 70
0
 71
3
 72
9
 73
5
 74
0
 42
0.0000001
 43
0.0000001
 44
0.0000000001
 40
0.0
 40
0.0
 40
0.0
 40
0.0
 40
0.2396343954
 40
1.0
 40
1.0
 40
1.0
 40
1.0
 10
-222.0196582287
 20
243.4906770962
 30
0.0
 10
-222.0056144877
 20
243.5198261134
 30
0.0
 10
-221.9430681276
 20
243.6395592566
 30
0.0
 10
-221.8657108173
 20
243.7512833667
 30
0.0
 10
-221.8013654605
 20
243.8312825241
 30
0.0
  0
SPLINE
  5
44F
100
AcDbEntity
  8
0
100
AcDbSpline
 62
7
  6
CONTINUOUS
 70
0
 71
3
 72
12
 73
8
 74
0
 42
0.0000001
 43
0.0000001
 44
0.0000000001
 40
0.0
 40
0.0
 40
0.0
 40
0.0
 40
0.1131875915
 40
0.2305371976
 40
0.4776487653
 40
0.7377643176
 40
1.0
 40
1.0
 40
1.0
 40
1.0
 10
-87.8632716817
 20
282.6328512444
 30
0.0
 10
-88.3276692781
 20
282.4972229983
 30
0.0
 10
-89.2437777399
 20
282.1077411772
 30
0.0
 10
-90.9168482146
 20
280.9154732495
 30
0.0
 10
-92.5736931064
 20
278.7370865942
 30
0.0
 10
-93.6111640293
 20
275.5635850401
 30
0.0
 10
-93.6340354302
 20
273.2883369083
 30
0.0
 10
-93.4678837309
 20
272.1798462156
 30
0.0
  0
SPLINE
  5
450
100
AcDbEntity
  8
0
100
AcDbSpline
 62
7
  6
CONTINUOUS
 70
0
 71
3
 72
10
 73
6
 74
0
 42
0.0000001
 43
0.0000001
 44
0.0000000001
 40
0.0
 40
0.0
 40
0.0
 40
0.0
 40
0.5184719231
 40
0.7642264004
 40
1.0
 40
1.0
 40
1.0
 40
1.0
 10
-79.2282299168
 20
177.2097996807
 30
0.0
 10
-79.011811074
 20
176.009626517
 30
0.0
 10
-78.3690347567
 20
174.2649327374
 30
0.0
 10
-76.8934623229
 20
172.4144601893
 30
0.0
 10
-75.9906168133
 20
171.7074300651
 30
0.0
 10
-75.5130878834
 20
171.4254328497
 30
0.0
  0
SPLINE
  5
451
100
AcDbEntity
  8
0
100
AcDbSpline
 62
7
  6
CONTINUOUS
 70
0
 71
3
 72
9
 73
5
 74
0
 42
0.0000001
 43
0.0000001
 44
0.0000000001
 40
0.0
 40
0.0
 40
0.0
 40
0.0
 40
0.2535254579
 40
1.0
 40
1.0
 40
1.0
 40
1.0
 10
-75.5130878834
 20
171.4254328497
 30
0.0
 10
-75.3523691497
 20
171.3305229238
 30
0.0
 10
-74.7025193555
 20
170.9839607364
 30
0.0
 10
-73.9890314244
 20
170.7553408557
 30
0.0
 10
-73.4470063949
 20
170.664591665
 30
0.0
  0
SPLINE
  5
452
100
AcDbEntity
  8
0
100
AcDbSpline
 62
7
  6
CONTINUOUS
 70
0
 71
3
 72
9
 73
5
 74
0
 42
0.0000001
 43
0.0000001
 44
0.0000000001
 40
0.0
 40
0.0
 40
0.0
 40
0.0
 40
0.2520842133
 40
1.0
 40
1.0
 40
1.0
 40
1.0
 10
-88.4618018521
 20
138.5958842957
 30
0.0
 10
-88.2810451847
 20
138.4092180559
 30
0.0
 10
-87.5393451124
 20
137.6930322313
 30
0.0
 10
-86.6980784347
 20
137.0797146475
 30
0.0
 10
-86.0304808505
 20
136.6941693579
 30
0.0
  0
SPLINE
  5
453
100
AcDbEntity
  8
0
100
AcDbSpline
 62
7
  6
CONTINUOUS
 70
0
 71
3
 72
9
 73
5
 74
0
 42
0.0000001
 43
0.0000001
 44
0.0000000001
 40
0.0
 40
0.0
 40
0.0
 40
0.0
 40
0.4914126227
 40
1.0
 40
1.0
 40
1.0
 40
1.0
 10
-62.4781077764
 20
156.9129584107
 30
0.0
 10
-62.4781077764
 20
154.3387557734
 30
0.0
 10
-63.6322877402
 20
149.0768215972
 30
0.0
 10
-66.5301111038
 20
144.5661444435
 30
0.0
 10
-68.3550592604
 20
142.6251735028
 30
0.0
  0
SPLINE
  5
454
100
AcDbEntity
  8
0
100
AcDbSpline
 62
7
  6
CONTINUOUS
 70
0
 71
3
 72
10
 73
6
 74
0
 42
0.0000001
 43
0.0000001
 44
0.0000000001
 40
0.0
 40
0.0
 40
0.0
 40
0.0
 40
0.23436683
 40
0.4784210194
 40
1.0
 40
1.0
 40
1.0
 40
1.0
 10
-40.0722300542
 20
175.6314125698
 30
0.0
 10
-39.4154549038
 20
174.9034016775
 30
0.0
 10
-38.2346804273
 20
173.2651979823
 30
0.0
 10
-36.5053010343
 20
169.433988126
 30
0.0
 10
-36.0318258748
 20
166.1840832083
 30
0.0
 10
-36.0318258748
 20
164.0020292709
 30
0.0
  0
SPLINE
  5
455
100
AcDbEntity
  8
0
100
AcDbSpline
 62
7
  6
CONTINUOUS
 70
0
 71
3
 72
9
 73
5
 74
0
 42
0.0000001
 43
0.0000001
 44
0.0000000001
 40
0.0
 40
0.0
 40
0.0
 40
0.0
 40
0.4892263661
 40
1.0
 40
1.0
 40
1.0
 40
1.0
 10
-36.0318258748
 20
164.0020292709
 30
0.0
 10
-36.0318258748
 20
161.6363258328
 30
0.0
 10
-36.7920620562
 20
156.7855012231
 30
0.0
 10
-38.7889929896
 20
152.3169191339
 30
0.0
 10
-40.0722300542
 20
150.2065409869
 30
0.0
  0
SPLINE
  5
456
100
AcDbEntity
  8
0
100
AcDbSpline
 62
7
  6
CONTINUOUS
 70
0
 71
3
 72
14
 73
10
 74
0
 42
0.0000001
 43
0.0000001
 44
0.0000000001
 40
0.0
 40
0.0
 40
0.0
 40
0.0
 40
0.2612477724
 40
0.3972134929
 40
0.5313069049
 40
0.6600797051
 40
0.7811504551
 40
0.8938931378
 40
1.0
 40
1.0
 40
1.0
 40
1.0
 10
-17.8500070674
 20
168.8757654873
 30
0.0
 10
-17.8500070674
 20
166.0620831449
 30
0.0
 10
-18.8898188012
 20
161.7410673389
 30
0.0
 10
-21.7570756441
 20
156.7673659936
 30
0.0
 10
-24.6031443164
 20
153.5073438314
 30
0.0
 10
-27.9311345912
 20
151.0000845804
 30
0.0
 10
-31.5406716127
 20
149.4073271198
 30
0.0
 10
-35.2068014221
 20
148.8489876485
 30
0.0
 10
-37.5832543842
 20
149.2277322415
 30
0.0
 10
-38.6642104159
 20
149.5985422884
 30
0.0
  0
SPLINE
  5
457
100
AcDbEntity
  8
0
100
AcDbSpline
 62
7
  6
CONTINUOUS
 70
0
 71
3
 72
12
 73
8
 74
0
 42
0.0000001
 43
0.0000001
 44
0.0000000001
 40
0.0
 40
0.0
 40
0.0
 40
0.0
 40
0.2770039172
 40
0.5346227646
 40
0.7729622123
 40
0.8873135247
 40
1.0
 40
1.0
 40
1.0
 40
1.0
 10
-69.76307892
 20
141.2623201037
 30
0.0
 10
-70.9091632411
 20
140.254740116
 30
0.0
 10
-73.355298616
 20
138.551911691
 30
0.0
 10
-77.4127579489
 20
137.0917267323
 30
0.0
 10
-80.8446684392
 20
136.9775588666
 30
0.0
 10
-83.3466821162
 20
137.5922552417
 30
0.0
 10
-84.4926119419
 20
138.1155616527
 30
0.0
 10
-85.030187511
 20
138.4260346799
 30
0.0
  0
SPLINE
  5
458
100
AcDbEntity
  8
0
100
AcDbSpline
 62
7
  6
CONTINUOUS
 70
0
 71
3
 72
9
 73
5
 74
0
 42
0.0000001
 43
0.0000001
 44
0.0000000001
 40
0.0
 40
0.0
 40
0.0
 40
0.0
 40
0.5107792739
 40
1.0
 40
1.0
 40
1.0
 40
1.0
 10
-69.7630789484
 20
168.6580438205
 30
0.0
 10
-71.125123347
 20
166.3796936102
 30
0.0
 10
-73.2433732716
 20
161.566792724
 30
0.0
 10
-74.0483561084
 20
156.3538922297
 30
0.0
 10
-74.0483561084
 20
153.8114899093
 30
0.0
  0
SPLINE
  5
459
100
AcDbEntity
  8
0
100
AcDbSpline
 62
7
  6
CONTINUOUS
 70
0
 71
3
 72
10
 73
6
 74
0
 42
0.0000001
 43
0.0000001
 44
0.0000000001
 40
0.0
 40
0.0
 40
0.0
 40
0.0
 40
0.5213451851
 40
0.7654975332
 40
1.0
 40
1.0
 40
1.0
 40
1.0
 10
-74.0483561084
 20
153.8114899093
 30
0.0
 10
-74.0483561084
 20
151.4637702293
 30
0.0
 10
-73.5461192349
 20
147.9679332319
 30
0.0
 10
-71.7132232819
 20
143.8321038298
 30
0.0
 10
-70.4606161411
 20
142.0551632606
 30
0.0
 10
-69.76307892
 20
141.2623201037
 30
0.0
  0
SPLINE
  5
45A
100
AcDbEntity
  8
0
100
AcDbSpline
 62
7
  6
CONTINUOUS
 70
0
 71
3
 72
9
 73
5
 74
0
 42
0.0000001
 43
0.0000001
 44
0.0000000001
 40
0.0
 40
0.0
 40
0.0
 40
0.0
 40
0.5087536214
 40
1.0
 40
1.0
 40
1.0
 40
1.0
 10
-41.1741582857
 20
176.7185825663
 30
0.0
 10
-43.1722231976
 20
174.5561062405
 30
0.0
 10
-46.3417692519
 20
169.5564291885
 30
0.0
 10
-47.6020742068
 20
163.7434864697
 30
0.0
 10
-47.6020742068
 20
160.9005607695
 30
0.0
  0
SPLINE
  5
45B
100
AcDbEntity
  8
0
100
AcDbSpline
 62
7
  6
CONTINUOUS
 70
0
 71
3
 72
11
 73
7
 74
0
 42
0.0000001
 43
0.0000001
 44
0.0000000001
 40
0.0
 40
0.0
 40
0.0
 40
0.0
 40
0.2715761685
 40
0.5267195918
 40
0.7676226605
 40
1.0
 40
1.0
 40
1.0
 40
1.0
 10
-47.6020742068
 20
160.9005607695
 30
0.0
 10
-47.6020742068
 20
159.6197425434
 30
0.0
 10
-47.3564337502
 20
157.1253635648
 30
0.0
 10
-46.1809587195
 20
153.6638923373
 30
0.0
 10
-44.2543435838
 20
150.7689036128
 30
0.0
 10
-42.5065780952
 20
149.3188319912
 30
0.0
 10
-41.567346931
 20
148.7540798272
 30
0.0
  0
SPLINE
  5
45C
100
AcDbEntity
  8
0
100
AcDbSpline
 62
7
  6
CONTINUOUS
 70
0
 71
3
 72
13
 73
9
 74
0
 42
0.0000001
 43
0.0000001
 44
0.0000000001
 40
0.0
 40
0.0
 40
0.0
 40
0.0
 40
0.2798189689
 40
0.541079588
 40
0.6630601375
 40
0.7792369042
 40
0.8908579345
 40
1.0
 40
1.0
 40
1.0
 40
1.0
 10
-41.1741584668
 20
148.528615241
 30
0.0
 10
-42.67240379
 20
146.4118737269
 30
0.0
 10
-46.137485155
 20
142.6850482969
 30
0.0
 10
-51.5629483642
 20
139.5522259076
 30
0.0
 10
-56.0723110678
 20
138.398820478
 30
0.0
 10
-59.3341303789
 20
138.2326754793
 30
0.0
 10
-62.4381738217
 20
138.7594307021
 30
0.0
 10
-64.3410436487
 20
139.5717225313
 30
0.0
 10
-65.2168713499
 20
140.0777725142
 30
0.0
  0
SPLINE
  5
45D
100
AcDbEntity
  8
0
100
AcDbSpline
 62
7
  6
CONTINUOUS
 70
0
 71
3
 72
11
 73
7
 74
0
 42
0.0000001
 43
0.0000001
 44
0.0000000001
 40
0.0
 40
0.0
 40
0.0
 40
0.0
 40
0.2032339246
 40
0.4288952144
 40
0.6924084714
 40
1.0
 40
1.0
 40
1.0
 40
1.0
 10
-221.6508222732
 20
242.9410234766
 30
0.0
 10
-221.6508763606
 20
242.8018466304
 30
0.0
 10
-221.5911607767
 20
242.5060613555
 30
0.0
 10
-221.3406537768
 20
242.0954813875
 30
0.0
 10
-220.9455589639
 20
241.7133099463
 30
0.0
 10
-220.6184633404
 20
241.4956420791
 30
0.0
 10
-220.4360601849
 20
241.390289404
 30
0.0
  0
SPLINE
  5
45E
100
AcDbEntity
  8
0
100
AcDbSpline
 62
7
  6
CONTINUOUS
 70
0
 71
3
 72
9
 73
5
 74
0
 42
0.0000001
 43
0.0000001
 44
0.0000000001
 40
0.0
 40
0.0
 40
0.0
 40
0.0
 40
0.2516649753
 40
1.0
 40
1.0
 40
1.0
 40
1.0
 10
-71.7791136277
 20
170.9032573634
 30
0.0
 10
-71.9041475666
 20
170.8697413306
 30
0.0
 10
-72.405102981
 20
170.7525392047
 30
0.0
 10
-72.9213459357
 20
170.7001177871
 30
0.0
 10
-73.3062644016
 20
170.6997262975
 30
0.0
  0
SPLINE
  5
45F
100
AcDbEntity
  8
0
100
AcDbSpline
 62
7
  6
CONTINUOUS
 70
0
 71
3
 72
9
 73
5
 74
0
 42
0.0000001
 43
0.0000001
 44
0.0000000001
 40
0.0
 40
0.0
 40
0.0
 40
0.0
 40
0.2489319518
 40
1.0
 40
1.0
 40
1.0
 40
1.0
 10
-73.2943165751
 20
170.6411206973
 30
0.0
 10
-73.1016513408
 20
170.6141372975
 30
0.0
 10
-72.3225770443
 20
170.5446112914
 30
0.0
 10
-71.5303266288
 20
170.637032375
 30
0.0
 10
-70.9633667525
 20
170.7890090783
 30
0.0
  0
SPLINE
  5
460
100
AcDbEntity
  8
0
100
AcDbSpline
 62
7
  6
CONTINUOUS
 70
0
 71
3
 72
14
 73
10
 74
0
 42
0.0000001
 43
0.0000001
 44
0.0000000001
 40
0.0
 40
0.0
 40
0.0
 40
0.0
 40
0.1059090141
 40
0.2183098534
 40
0.3391061082
 40
0.4677857216
 40
0.6019841513
 40
0.7382009115
 40
1.0
 40
1.0
 40
1.0
 40
1.0
 10
-39.7661388285
 20
147.8836927489
 30
0.0
 10
-38.562212097
 20
147.4311884949
 30
0.0
 10
-35.8994403261
 20
146.9340265472
 30
0.0
 10
-31.7614712065
 20
147.4800790121
 30
0.0
 10
-27.6723948451
 20
149.2142580291
 30
0.0
 10
-23.8923112131
 20
152.0008798938
 30
0.0
 10
-20.653097997
 20
155.6557356845
 30
0.0
 10
-17.3848326542
 20
161.256734554
 30
0.0
 10
-16.1971144486
 20
166.1395495432
 30
0.0
 10
-16.1971144486
 20
169.318832416
 30
0.0
  0
SPLINE
  5
461
100
AcDbEntity
  8
0
100
AcDbSpline
 62
7
  6
CONTINUOUS
 70
0
 71
3
 72
11
 73
7
 74
0
 42
0.0000001
 43
0.0000001
 44
0.0000000001
 40
0.0
 40
0.0
 40
0.0
 40
0.0
 40
0.271777857
 40
0.5268714474
 40
0.7676350196
 40
1.0
 40
1.0
 40
1.0
 40
1.0
 10
-16.1971144486
 20
169.318832416
 30
0.0
 10
-16.1971144486
 20
170.6177705274
 30
0.0
 10
-16.4496671523
 20
173.1466235455
 30
0.0
 10
-17.6592219306
 20
176.649631997
 30
0.0
 10
-19.6413500356
 20
179.5641742712
 30
0.0
 10
-21.4350957651
 20
181.0070165684
 30
0.0
 10
-22.3968085139
 20
181.562416751
 30
0.0
  0
SPLINE
  5
462
100
AcDbEntity
  8
0
100
AcDbSpline
 62
7
  6
CONTINUOUS
 70
0
 71
3
 72
11
 73
7
 74
0
 42
0.0000001
 43
0.0000001
 44
0.0000000001
 40
0.0
 40
0.0
 40
0.0
 40
0.0
 40
0.2323677349
 40
0.4734851111
 40
0.7286956982
 40
1.0
 40
1.0
 40
1.0
 40
1.0
 10
-67.0335186127
 20
169.5939575522
 30
0.0
 10
-66.1247246309
 20
169.0178471623
 30
0.0
 10
-64.4389566513
 20
167.5595326543
 30
0.0
 10
-62.585858281
 20
164.6927694786
 30
0.0
 10
-61.4557979931
 20
161.2876855969
 30
0.0
 10
-61.2193260352
 20
158.8399740634
 30
0.0
 10
-61.2193260352
 20
157.583656463
 30
0.0
  0
SPLINE
  5
463
100
AcDbEntity
  8
0
100
AcDbSpline
 62
7
  6
CONTINUOUS
 70
0
 71
3
 72
13
 73
9
 74
0
 42
0.0000001
 43
0.0000001
 44
0.0000000001
 40
0.0
 40
0.0
 40
0.0
 40
0.0
 40
0.2790462122
 40
0.5405284958
 40
0.662849197
 40
0.7793607579
 40
0.8911276623
 40
1.0
 40
1.0
 40
1.0
 40
1.0
 10
-40.1602497044
 20
148.1113238725
 30
0.0
 10
-41.7453007495
 20
145.8119707841
 30
0.0
 10
-45.4235901392
 20
141.7407155519
 30
0.0
 10
-51.2014583181
 20
138.2389675567
 30
0.0
 10
-56.0389524797
 20
136.8479110368
 30
0.0
 10
-59.5592276517
 20
136.5413408924
 30
0.0
 10
-62.9329209606
 20
136.9667194029
 30
0.0
 10
-65.0260336279
 20
137.7416565607
 30
0.0
 10
-65.9958487093
 20
138.2383612056
 30
0.0
  0
SPLINE
  5
464
100
AcDbEntity
  8
0
100
AcDbSpline
 62
7
  6
CONTINUOUS
 70
0
 71
3
 72
12
 73
8
 74
0
 42
0.0000001
 43
0.0000001
 44
0.0000000001
 40
0.0
 40
0.0
 40
0.0
 40
0.0
 40
0.2768346564
 40
0.5348222148
 40
0.7734955746
 40
0.8877317152
 40
1.0
 40
1.0
 40
1.0
 40
1.0
 10
-69.055261414
 20
140.3658575624
 30
0.0
 10
-70.3119869741
 20
139.2197642356
 30
0.0
 10
-73.0019657407
 20
137.2672346165
 30
0.0
 10
-77.4853421567
 20
135.5259592263
 30
0.0
 10
-81.3069291305
 20
135.274293186
 30
0.0
 10
-84.1195179576
 20
135.8535572594
 30
0.0
 10
-85.4169088707
 20
136.3834263283
 30
0.0
 10
-86.0279225657
 20
136.7034904002
 30
0.0
  0
SPLINE
  5
465
100
AcDbEntity
  8
0
100
AcDbSpline
 62
7
  6
CONTINUOUS
 70
0
 71
3
 72
14
 73
10
 74
0
 42
0.0000001
 43
0.0000001
 44
0.0000000001
 40
0.0
 40
0.0
 40
0.0
 40
0.0
 40
0.2617990885
 40
0.3980158487
 40
0.5322142783
 40
0.6608938918
 40
0.7816901466
 40
0.8940909859
 40
1.0
 40
1.0
 40
1.0
 40
1.0
 10
-16.5912253262
 20
169.5464635396
 30
0.0
 10
-16.5912253262
 20
166.3671806669
 30
0.0
 10
-17.7789435317
 20
161.484365678
 30
0.0
 10
-21.0472088742
 20
155.8833668087
 30
0.0
 10
-24.28642209
 20
152.228511018
 30
0.0
 10
-28.0665057217
 20
149.4418891532
 30
0.0
 10
-32.1555820828
 20
147.7077101361
 30
0.0
 10
-36.2935512022
 20
147.1616576705
 30
0.0
 10
-38.956322973
 20
147.6588196185
 30
0.0
 10
-40.1602497044
 20
148.1113238725
 30
0.0
  0
SPLINE
  5
466
100
AcDbEntity
  8
0
100
AcDbSpline
 62
7
  6
CONTINUOUS
 70
0
 71
3
 72
9
 73
5
 74
0
 42
0.0000001
 43
0.0000001
 44
0.0000000001
 40
0.0
 40
0.0
 40
0.0
 40
0.0
 40
0.5107736339
 40
1.0
 40
1.0
 40
1.0
 40
1.0
 10
-68.7491701877
 20
168.2776762457
 30
0.0
 10
-70.0324072797
 20
166.1672981152
 30
0.0
 10
-72.0293381727
 20
161.6987160015
 30
0.0
 10
-72.7895743672
 20
156.8478913997
 30
0.0
 10
-72.7895743672
 20
154.4821879617
 30
0.0
  0
SPLINE
  5
467
100
AcDbEntity
  8
0
100
AcDbSpline
 62
7
  6
CONTINUOUS
 70
0
 71
3
 72
10
 73
6
 74
0
 42
0.0000001
 43
0.0000001
 44
0.0000000001
 40
0.0
 40
0.0
 40
0.0
 40
0.0
 40
0.5215789806
 40
0.76563317
 40
1.0
 40
1.0
 40
1.0
 40
1.0
 10
-72.7895743672
 20
154.4821879617
 30
0.0
 10
-72.7895743672
 20
152.3001340242
 30
0.0
 10
-72.3160992115
 20
149.0502291028
 30
0.0
 10
-70.5867198085
 20
145.2190192551
 30
0.0
 10
-69.4059453503
 20
143.5808155433
 30
0.0
 10
-68.7491701875
 20
142.852804662
 30
0.0
  0
SPLINE
  5
468
100
AcDbEntity
  8
0
100
AcDbSpline
 62
7
  6
CONTINUOUS
 70
0
 71
3
 72
9
 73
5
 74
0
 42
0.0000001
 43
0.0000001
 44
0.0000000001
 40
0.0
 40
0.0
 40
0.0
 40
0.0
 40
0.5085873768
 40
1.0
 40
1.0
 40
1.0
 40
1.0
 10
-40.4663409318
 20
175.8590436934
 30
0.0
 10
-42.2912891587
 20
173.9180728232
 30
0.0
 10
-45.1891124899
 20
169.4073956188
 30
0.0
 10
-46.3432924655
 20
164.1454614611
 30
0.0
 10
-46.3432924655
 20
161.5712588219
 30
0.0
  0
SPLINE
  5
469
100
AcDbEntity
  8
0
100
AcDbSpline
 62
7
  6
CONTINUOUS
 70
0
 71
3
 72
11
 73
7
 74
0
 42
0.0000001
 43
0.0000001
 44
0.0000000001
 40
0.0
 40
0.0
 40
0.0
 40
0.0
 40
0.2717659649
 40
0.5268500321
 40
0.7675934754
 40
1.0
 40
1.0
 40
1.0
 40
1.0
 10
-46.3432924655
 20
161.5712588219
 30
0.0
 10
-46.3432924655
 20
160.4090999315
 30
0.0
 10
-46.117365359
 20
158.1465115865
 30
0.0
 10
-45.0351094527
 20
155.0124771617
 30
0.0
 10
-43.2619330553
 20
152.4044068042
 30
0.0
 10
-41.6567777956
 20
151.113594162
 30
0.0
 10
-40.7962406968
 20
150.6163977729
 30
0.0
  0
SPLINE
  5
46A
100
AcDbEntity
  8
0
100
AcDbSpline
 62
7
  6
CONTINUOUS
 70
0
 71
3
 72
10
 73
6
 74
0
 42
0.0000001
 43
0.0000001
 44
0.0000000001
 40
0.0
 40
0.0
 40
0.0
 40
0.0
 40
0.2345024673
 40
0.4786548152
 40
1.0
 40
1.0
 40
1.0
 40
1.0
 10
-39.0583212935
 20
177.2218971594
 30
0.0
 10
-38.3607840813
 20
176.4290539912
 30
0.0
 10
-37.1081769722
 20
174.6521133987
 30
0.0
 10
-35.275281
 20
170.5162840054
 30
0.0
 10
-34.7730441335
 20
167.0204470033
 30
0.0
 10
-34.7730441335
 20
164.6727273232
 30
0.0
  0
SPLINE
  5
46B
100
AcDbEntity
  8
0
100
AcDbSpline
 62
7
  6
CONTINUOUS
 70
0
 71
3
 72
9
 73
5
 74
0
 42
0.0000001
 43
0.0000001
 44
0.0000000001
 40
0.0
 40
0.0
 40
0.0
 40
0.0
 40
0.4892207261
 40
1.0
 40
1.0
 40
1.0
 40
1.0
 10
-34.7730441335
 20
164.6727273232
 30
0.0
 10
-34.7730441335
 20
162.1303250028
 30
0.0
 10
-35.5780269598
 20
156.9174245022
 30
0.0
 10
-37.696276917
 20
152.1045236354
 30
0.0
 10
-39.0583212938
 20
149.826173412
 30
0.0
  0
SPLINE
  5
46C
100
AcDbEntity
  8
0
100
AcDbSpline
 62
7
  6
CONTINUOUS
 70
0
 71
3
 72
9
 73
5
 74
0
 42
0.0000001
 43
0.0000001
 44
0.0000000001
 40
0.0
 40
0.0
 40
0.0
 40
0.0
 40
0.2523084425
 40
1.0
 40
1.0
 40
1.0
 40
1.0
 10
-87.7039627597
 20
140.4644731604
 30
0.0
 10
-87.5358866116
 20
140.2857452585
 30
0.0
 10
-86.8449960231
 20
139.6010851249
 30
0.0
 10
-86.0538900744
 20
139.0172820982
 30
0.0
 10
-85.4242983886
 20
138.6536658035
 30
0.0
  0
SPLINE
  5
46D
100
AcDbEntity
  8
0
100
AcDbSpline
 62
7
  6
CONTINUOUS
 70
0
 71
3
 72
9
 73
5
 74
0
 42
0.0000001
 43
0.0000001
 44
0.0000000001
 40
0.0
 40
0.0
 40
0.0
 40
0.0
 40
0.4912463783
 40
1.0
 40
1.0
 40
1.0
 40
1.0
 10
-61.2193260352
 20
157.583656463
 30
0.0
 10
-61.2193260352
 20
154.7407308018
 30
0.0
 10
-62.479631048
 20
148.9277882452
 30
0.0
 10
-65.6491767279
 20
143.9281109746
 30
0.0
 10
-67.6472417719
 20
141.7656348215
 30
0.0
  0
SPLINE
  5
46E
100
AcDbEntity
  8
0
100
AcDbSpline
 62
7
  6
CONTINUOUS
 70
0
 71
3
 72
10
 73
6
 74
0
 42
0.0000001
 43
0.0000001
 44
0.0000000001
 40
0.0
 40
0.0
 40
0.0
 40
0.0
 40
0.2343668298
 40
0.4784210192
 40
1.0
 40
1.0
 40
1.0
 40
1.0
 10
-68.3550592604
 20
142.6251735028
 30
0.0
 10
-69.0118344257
 20
143.3531843868
 30
0.0
 10
-70.1926089151
 20
144.9913880859
 30
0.0
 10
-71.9219883249
 20
148.8225979554
 30
0.0
 10
-72.3954634896
 20
152.0725028898
 30
0.0
 10
-72.3954634896
 20
154.2545568381
 30
0.0
  0
SPLINE
  5
46F
100
AcDbEntity
  8
0
100
AcDbSpline
 62
7
  6
CONTINUOUS
 70
0
 71
3
 72
9
 73
5
 74
0
 42
0.0000001
 43
0.0000001
 44
0.0000000001
 40
0.0
 40
0.0
 40
0.0
 40
0.0
 40
0.4892263662
 40
1.0
 40
1.0
 40
1.0
 40
1.0
 10
-72.3954634896
 20
154.2545568381
 30
0.0
 10
-72.3954634896
 20
156.620260277
 30
0.0
 10
-71.6352273058
 20
161.4710848848
 30
0.0
 10
-69.6382963774
 20
165.939666984
 30
0.0
 10
-68.3550592854
 20
168.0500451146
 30
0.0
  0
SPLINE
  5
470
100
AcDbEntity
  8
0
100
AcDbSpline
 62
7
  6
CONTINUOUS
 70
0
 71
3
 72
9
 73
5
 74
0
 42
0.0000001
 43
0.0000001
 44
0.0000000001
 40
0.0
 40
0.0
 40
0.0
 40
0.0
 40
0.248535119
 40
1.0
 40
1.0
 40
1.0
 40
1.0
 10
-85.030187511
 20
138.4260346799
 30
0.0
 10
-85.2746492463
 20
138.5672218531
 30
0.0
 10
-86.233680565
 20
139.1771737685
 30
0.0
 10
-87.0841722401
 20
139.9551235136
 30
0.0
 10
-87.6389502225
 20
140.6038125079
 30
0.0
  0
SPLINE
  5
471
100
AcDbEntity
  8
0
100
AcDbSpline
 62
7
  6
CONTINUOUS
 70
0
 71
3
 72
9
 73
5
 74
0
 42
0.0000001
 43
0.0000001
 44
0.0000000001
 40
0.0
 40
0.0
 40
0.0
 40
0.0
 40
0.4914126232
 40
1.0
 40
1.0
 40
1.0
 40
1.0
 10
-45.9491815879
 20
161.3436276983
 30
0.0
 10
-45.9491815879
 20
163.9178303375
 30
0.0
 10
-44.7950016123
 20
169.1797644952
 30
0.0
 10
-41.8971782811
 20
173.6904416996
 30
0.0
 10
-40.0722300542
 20
175.6314125698
 30
0.0
  0
SPLINE
  5
472
100
AcDbEntity
  8
0
100
AcDbSpline
 62
7
  6
CONTINUOUS
 70
0
 71
3
 72
9
 73
5
 74
0
 42
0.0000001
 43
0.0000001
 44
0.0000000001
 40
0.0
 40
0.0
 40
0.0
 40
0.0
 40
0.2523405666
 40
1.0
 40
1.0
 40
1.0
 40
1.0
 10
-26.1252790121
 20
180.9051090694
 30
0.0
 10
-25.8846136
 20
180.8489211353
 30
0.0
 10
-24.9390903528
 20
180.5925380576
 30
0.0
 10
-24.0311900971
 20
180.1967646796
 30
0.0
 10
-23.3971018534
 20
179.8305514291
 30
0.0
  0
SPLINE
  5
473
100
AcDbEntity
  8
0
100
AcDbSpline
 62
7
  6
CONTINUOUS
 70
0
 71
3
 72
9
 73
5
 74
0
 42
0.0000001
 43
0.0000001
 44
0.0000000001
 40
0.0
 40
0.0
 40
0.0
 40
0.0
 40
0.5107792739
 40
1.0
 40
1.0
 40
1.0
 40
1.0
 10
-38.6642104159
 20
149.5985422884
 30
0.0
 10
-37.3021660392
 20
151.8768925118
 30
0.0
 10
-35.1839160823
 20
156.6897933787
 30
0.0
 10
-34.3789332559
 20
161.9026938793
 30
0.0
 10
-34.3789332559
 20
164.4450961996
 30
0.0
  0
SPLINE
  5
474
100
AcDbEntity
  8
0
100
AcDbSpline
 62
7
  6
CONTINUOUS
 70
0
 71
3
 72
10
 73
6
 74
0
 42
0.0000001
 43
0.0000001
 44
0.0000000001
 40
0.0
 40
0.0
 40
0.0
 40
0.0
 40
0.5213451848
 40
0.7654975327
 40
1.0
 40
1.0
 40
1.0
 40
1.0
 10
-34.3789332559
 20
164.4450961996
 30
0.0
 10
-34.3789332559
 20
166.7928158797
 30
0.0
 10
-34.8811701224
 20
170.2886528818
 30
0.0
 10
-36.7140660946
 20
174.4244822751
 30
0.0
 10
-37.9666732037
 20
176.2014228676
 30
0.0
 10
-38.6642104159
 20
176.9942660358
 30
0.0
  0
SPLINE
  5
475
100
AcDbEntity
  8
0
100
AcDbSpline
 62
7
  6
CONTINUOUS
 70
0
 71
3
 72
15
 73
11
 74
0
 42
0.0000001
 43
0.0000001
 44
0.0000000001
 40
0.0
 40
0.0
 40
0.0
 40
0.0
 40
0.1276244633
 40
0.2657996907
 40
0.407082212
 40
0.5426208308
 40
0.6661300692
 40
0.7776597182
 40
0.8852336317
 40
1.0
 40
1.0
 40
1.0
 40
1.0
 10
-31.8995943277
 20
167.4981979822
 30
0.0
 10
-32.1941655139
 20
167.4192365607
 30
0.0
 10
-32.7749173917
 20
167.1224529064
 30
0.0
 10
-33.461924366
 20
166.4143419127
 30
0.0
 10
-33.9259840655
 20
165.5216465866
 30
0.0
 10
-34.1004227805
 20
164.5648948729
 30
0.0
 10
-33.9534523092
 20
163.6694440946
 30
0.0
 10
-33.4721520916
 20
162.9659596722
 30
0.0
 10
-32.7166240375
 20
162.6103399782
 30
0.0
 10
-32.1644876276
 20
162.650189102
 30
0.0
 10
-31.8995943277
 20
162.7211952034
 30
0.0
  0
SPLINE
  5
476
100
AcDbEntity
  8
0
100
AcDbSpline
 62
7
  6
CONTINUOUS
 70
0
 71
3
 72
15
 73
11
 74
0
 42
0.0000001
 43
0.0000001
 44
0.0000000001
 40
0.0
 40
0.0
 40
0.0
 40
0.0
 40
0.1276244633
 40
0.2657996907
 40
0.407082212
 40
0.5426208308
 40
0.6661300692
 40
0.7776597182
 40
0.8852336317
 40
1.0
 40
1.0
 40
1.0
 40
1.0
 10
-31.8995943277
 20
162.7211952034
 30
0.0
 10
-31.6050231414
 20
162.8001566249
 30
0.0
 10
-31.0242712636
 20
163.0969402792
 30
0.0
 10
-30.3372642893
 20
163.8050512729
 30
0.0
 10
-29.8732045898
 20
164.697746599
 30
0.0
 10
-29.6987658748
 20
165.6544983127
 30
0.0
 10
-29.8457363461
 20
166.549949091
 30
0.0
 10
-30.3270365638
 20
167.2534335134
 30
0.0
 10
-31.0825646178
 20
167.6090532074
 30
0.0
 10
-31.6347010277
 20
167.5692040836
 30
0.0
 10
-31.8995943277
 20
167.4981979822
 30
0.0
  0
SPLINE
  5
477
100
AcDbEntity
  8
0
100
AcDbSpline
 62
7
  6
CONTINUOUS
 70
0
 71
3
 72
15
 73
11
 74
0
 42
0.0000001
 43
0.0000001
 44
0.0000000001
 40
0.0
 40
0.0
 40
0.0
 40
0.0
 40
0.1276244633
 40
0.2657996907
 40
0.407082212
 40
0.5426208308
 40
0.6661300692
 40
0.7776597182
 40
0.8852336317
 40
1.0
 40
1.0
 40
1.0
 40
1.0
 10
-76.5276950367
 20
150.7583881267
 30
0.0
 10
-76.2331238504
 20
150.8373495483
 30
0.0
 10
-75.6523719727
 20
151.1341332026
 30
0.0
 10
-74.9653649983
 20
151.8422441963
 30
0.0
 10
-74.5013052989
 20
152.7349395224
 30
0.0
 10
-74.3268665838
 20
153.6916912361
 30
0.0
 10
-74.4738370551
 20
154.5871420144
 30
0.0
 10
-74.9551372728
 20
155.2906264368
 30
0.0
 10
-75.7106653269
 20
155.6462461308
 30
0.0
 10
-76.2628017367
 20
155.606397007
 30
0.0
 10
-76.5276950367
 20
155.5353909056
 30
0.0
  0
SPLINE
  5
478
100
AcDbEntity
  8
0
100
AcDbSpline
 62
7
  6
CONTINUOUS
 70
0
 71
3
 72
15
 73
11
 74
0
 42
0.0000001
 43
0.0000001
 44
0.0000000001
 40
0.0
 40
0.0
 40
0.0
 40
0.0
 40
0.1276244633
 40
0.2657996907
 40
0.407082212
 40
0.5426208308
 40
0.6661300692
 40
0.7776597182
 40
0.8852336317
 40
1.0
 40
1.0
 40
1.0
 40
1.0
 10
-76.5276950367
 20
155.5353909056
 30
0.0
 10
-76.822266223
 20
155.4564294841
 30
0.0
 10
-77.4030181007
 20
155.1596458298
 30
0.0
 10
-78.0900250751
 20
154.4515348361
 30
0.0
 10
-78.5540847745
 20
153.55883951
 30
0.0
 10
-78.7285234896
 20
152.6020877963
 30
0.0
 10
-78.5815530183
 20
151.706637018
 30
0.0
 10
-78.1002528006
 20
151.0031525955
 30
0.0
 10
-77.3447247465
 20
150.6475329016
 30
0.0
 10
-76.7925883367
 20
150.6873820254
 30
0.0
 10
-76.5276950367
 20
150.7583881267
 30
0.0
  0
SPLINE
  5
479
100
AcDbEntity
  8
0
100
AcDbSpline
 62
7
  6
CONTINUOUS
 70
0
 71
3
 72
9
 73
5
 74
0
 42
0.0000001
 43
0.0000001
 44
0.0000000001
 40
0.0
 40
0.0
 40
0.0
 40
0.0
 40
0.5087536217
 40
1.0
 40
1.0
 40
1.0
 40
1.0
 10
-67.2531308976
 20
141.5380036983
 30
0.0
 10
-65.2550658535
 20
143.7004798515
 30
0.0
 10
-62.0855201696
 20
148.7001571201
 30
0.0
 10
-60.8252151576
 20
154.5130996779
 30
0.0
 10
-60.8252151576
 20
157.3560253394
 30
0.0
  0
SPLINE
  5
47A
100
AcDbEntity
  8
0
100
AcDbSpline
 62
7
  6
CONTINUOUS
 70
0
 71
3
 72
11
 73
7
 74
0
 42
0.0000001
 43
0.0000001
 44
0.0000000001
 40
0.0
 40
0.0
 40
0.0
 40
0.0
 40
0.2717688622
 40
0.5268558432
 40
0.7676019386
 40
1.0
 40
1.0
 40
1.0
 40
1.0
 10
-60.8252151576
 20
157.3560253394
 30
0.0
 10
-60.8252151576
 20
158.654923108
 30
0.0
 10
-61.0777319373
 20
161.1837244123
 30
0.0
 10
-62.2873270396
 20
164.6865165045
 30
0.0
 10
-64.2691542274
 20
167.6013603207
 30
0.0
 10
-66.0630877541
 20
169.0440780061
 30
0.0
 10
-67.024850734
 20
169.5997118567
 30
0.0
  0
SPLINE
  5
47B
100
AcDbEntity
  8
0
100
AcDbSpline
 62
7
  6
CONTINUOUS
 70
0
 71
3
 72
15
 73
11
 74
0
 42
0.0000001
 43
0.0000001
 44
0.0000000001
 40
0.0
 40
0.0
 40
0.0
 40
0.0
 40
0.1276244633
 40
0.2657996907
 40
0.407082212
 40
0.5426208308
 40
0.6661300692
 40
0.7776597182
 40
0.8852336317
 40
1.0
 40
1.0
 40
1.0
 40
1.0
 10
-54.2136446822
 20
161.5167944439
 30
0.0
 10
-54.5082158684
 20
161.4378330224
 30
0.0
 10
-55.0889677462
 20
161.1410493681
 30
0.0
 10
-55.7759747206
 20
160.4329383744
 30
0.0
 10
-56.24003442
 20
159.5402430483
 30
0.0
 10
-56.414473135
 20
158.5834913346
 30
0.0
 10
-56.2675026637
 20
157.6880405563
 30
0.0
 10
-55.7862024461
 20
156.9845561339
 30
0.0
 10
-55.030674392
 20
156.6289364399
 30
0.0
 10
-54.4785379822
 20
156.6687855637
 30
0.0
 10
-54.2136446822
 20
156.7397916651
 30
0.0
  0
SPLINE
  5
47C
100
AcDbEntity
  8
0
100
AcDbSpline
 62
7
  6
CONTINUOUS
 70
0
 71
3
 72
15
 73
11
 74
0
 42
0.0000001
 43
0.0000001
 44
0.0000000001
 40
0.0
 40
0.0
 40
0.0
 40
0.0
 40
0.1276244633
 40
0.2657996907
 40
0.407082212
 40
0.5426208308
 40
0.6661300692
 40
0.7776597182
 40
0.8852336317
 40
1.0
 40
1.0
 40
1.0
 40
1.0
 10
-54.2136446822
 20
156.7397916651
 30
0.0
 10
-53.9190734959
 20
156.8187530866
 30
0.0
 10
-53.3383216182
 20
157.1155367409
 30
0.0
 10
-52.6513146438
 20
157.8236477346
 30
0.0
 10
-52.1872549444
 20
158.7163430607
 30
0.0
 10
-52.0128162293
 20
159.6730947744
 30
0.0
 10
-52.1597867006
 20
160.5685455527
 30
0.0
 10
-52.6410869183
 20
161.2720299751
 30
0.0
 10
-53.3966149723
 20
161.6276496691
 30
0.0
 10
-53.9487513822
 20
161.5878005453
 30
0.0
 10
-54.2136446822
 20
161.5167944439
 30
0.0
  0
SPLINE
  5
47D
100
AcDbEntity
  8
0
100
AcDbSpline
 62
7
  6
CONTINUOUS
 70
0
 71
3
 72
11
 73
7
 74
0
 42
0.0000001
 43
0.0000001
 44
0.0000000001
 40
0.0
 40
0.0
 40
0.0
 40
0.0
 40
0.2324065246
 40
0.4731499679
 40
0.7282340351
 40
1.0
 40
1.0
 40
1.0
 40
1.0
 10
-40.4021298192
 20
150.3887666493
 30
0.0
 10
-41.262666918
 20
150.8859630384
 30
0.0
 10
-42.8678221777
 20
152.1767756806
 30
0.0
 10
-44.6409985751
 20
154.7848460381
 30
0.0
 10
-45.7232544814
 20
157.9188804629
 30
0.0
 10
-45.9491815879
 20
160.181468808
 30
0.0
 10
-45.9491815879
 20
161.3436276983
 30
0.0
  0
SPLINE
  5
47E
100
AcDbEntity
  8
0
100
AcDbSpline
 62
7
  6
CONTINUOUS
 70
0
 71
3
 72
11
 73
7
 74
0
 42
0.0000001
 43
0.0000001
 44
0.0000000001
 40
0.0
 40
0.0
 40
0.0
 40
0.0
 40
0.3075915747
 40
0.5711047481
 40
0.7967660342
 40
1.0
 40
1.0
 40
1.0
 40
1.0
 10
-220.8492833396
 20
241.2795226719
 30
0.0
 10
-221.0447153228
 20
241.3924005559
 30
0.0
 10
-221.3951749658
 20
241.6256160348
 30
0.0
 10
-221.8184907118
 20
242.0350855117
 30
0.0
 10
-222.0868911572
 20
242.4749925424
 30
0.0
 10
-222.150872063
 20
242.7919053828
 30
0.0
 10
-222.1508141404
 20
242.9410234637
 30
0.0
  0
SPLINE
  5
47F
100
AcDbEntity
  8
0
100
AcDbSpline
 62
7
  6
CONTINUOUS
 70
0
 71
3
 72
11
 73
7
 74
0
 42
0.0000001
 43
0.0000001
 44
0.0000000001
 40
0.0
 40
0.0
 40
0.0
 40
0.0
 40
0.2323181444
 40
0.4734595789
 40
0.7286871951
 40
1.0
 40
1.0
 40
1.0
 40
1.0
 10
-22.4022933475
 20
181.5547632236
 30
0.0
 10
-21.4939841588
 20
180.9788485508
 30
0.0
 10
-19.8094516431
 20
179.520185717
 30
0.0
 10
-17.9570031873
 20
176.6542291073
 30
0.0
 10
-16.8276338954
 20
173.2496384769
 30
0.0
 10
-16.5912253262
 20
170.802488144
 30
0.0
 10
-16.5912253262
 20
169.5464635396
 30
0.0
  0
SPLINE
  5
480
100
AcDbEntity
  8
0
100
AcDbSpline
 62
7
  6
CONTINUOUS
 70
0
 71
3
 72
13
 73
9
 74
0
 42
0.0000001
 43
0.0000001
 44
0.0000000001
 40
0.0
 40
0.0
 40
0.0
 40
0.0
 40
0.1089772584
 40
0.2204891887
 40
0.3366367834
 40
0.4586708475
 40
0.7201506769
 40
1.0
 40
1.0
 40
1.0
 40
1.0
 10
-66.2171799932
 20
138.3458806382
 30
0.0
 10
-65.2510489958
 20
137.7876097315
 30
0.0
 10
-63.1495825694
 20
136.8940467488
 30
0.0
 10
-59.7205203749
 20
136.3259237038
 30
0.0
 10
-56.1184435001
 20
136.5309812688
 30
0.0
 10
-51.1434186908
 20
137.8434229384
 30
0.0
 10
-45.1775535141
 20
141.362260748
 30
0.0
 10
-41.3924309767
 20
145.5245132857
 30
0.0
 10
-39.7661388285
 20
147.8836927489
 30
0.0
  0
SPLINE
  5
481
100
AcDbEntity
  8
0
100
AcDbSpline
 62
7
  6
CONTINUOUS
 70
0
 71
3
 72
12
 73
8
 74
0
 42
0.0000001
 43
0.0000001
 44
0.0000000001
 40
0.0
 40
0.0
 40
0.0
 40
0.0
 40
0.1123968023
 40
0.2265173725
 40
0.464696964
 40
0.7225975924
 40
1.0
 40
1.0
 40
1.0
 40
1.0
 10
-86.0304808505
 20
136.6941693579
 30
0.0
 10
-85.4179590137
 20
136.3404309464
 30
0.0
 10
-84.1104642663
 20
135.7462616728
 30
0.0
 10
-81.2521432589
 20
135.0605732608
 30
0.0
 10
-77.3314778786
 20
135.2313150204
 30
0.0
 10
-72.7163926333
 20
136.966856635
 30
0.0
 10
-69.9510388225
 20
138.9618897708
 30
0.0
 10
-68.6611505359
 20
140.1382264386
 30
0.0
  0
ELLIPSE
  5
482
100
AcDbEntity
  8
0
100
AcDbEllipse
 62
7
  6
CONTINUOUS
 10
-86.4430901008
 20
274.0628806627
 30
0.0
 11
0.8948355042
 21
10.2799242393
 31
0.0
 40
0.8125771683
 41
0.2872696813
 42
1.8580660081
  0
ENDSEC
  0
SECTION
  2
OBJECTS
  0
DICTIONARY
  5
C
100
AcDbDictionary
280
0
281
1
  3
ACAD_GROUP
350
D
  3
ACAD_MLINESTYLE
350
17
  3
ACAD_LAYOUT
350
1A
  3
ACAD_PLOTSETTINGS
350
19
  3
ACAD_PLOTSTYLENAME
350
E
  0
DICTIONARY
  5
D
102
{ACAD_REACTORS
330
C
102
}
100
AcDbDictionary
280
0
281
1
  0
ACDBDICTIONARYWDFLT
  5
E
102
{ACAD_REACTORS
330
C
102
}
100
AcDbDictionary
281
1
  3
Normal
350
F
100
AcDbDictionaryWithDefault
340
F
  0
DICTIONARY
  5
17
102
{ACAD_REACTORS
330
C
102
}
100
AcDbDictionary
280
0
281
1
  3
Standard
350
18
  0
DICTIONARY
  5
19
102
{ACAD_REACTORS
330
C
102
}
100
AcDbDictionary
281
1
  0
DICTIONARY
  5
1A
102
{ACAD_REACTORS
330
C
102
}
100
AcDbDictionary
281
1
  3
Model
350
483
  3
Layout1
350
484
  0
ACDBPLACEHOLDER
  5
F
102
{ACAD_REACTORS
330
E
102
}
  0
MLINESTYLE
  5
18
102
{ACAD_REACTORS
330
17
102
}
100
AcDbMlineStyle
  2
STANDARD
 70
0
  3

 62
256
 51
90.0
 52
90.0
 71
2
 49
0.5
 62
256
  6
BYLAYER
 49
-0.5
 62
256
  6
BYLAYER
  0
LAYOUT
  5
483
102
{ACAD_REACTORS
330
1A
102
}
100
AcDbPlotSettings
  1

  2
none_device
  4
ANSI_C_(22.00_x_17.00_Inches)
  6

 40
0.0
 41
0.0
 42
0.0
 43
0.0
 44
558.8
 45
431.8
 46
0.0
 47
0.0
 48
0.0
 49
0.0
140
0.0
141
0.0
142
1.0
143
1.0
 70
1024
 72
1
 73
0
 74
0
  7

 75
0
147
1.0
148
0.0
149
0.0
100
AcDbLayout
  1
Model
 70
0
 71
0
 10
0.0
 20
0.0
 11
558.8
 21
431.8
 12
0.0
 22
0.0
 32
0.0
 14
0.0
 24
0.0
 34
0.0
 15
0.0
 25
0.0
 35
0.0
146
0.0
 13
0.0
 23
0.0
 33
0.0
 16
1.0
 26
0.0
 36
0.0
 17
0.0
 27
1.0
 37
0.0
 76
0
330
216
345
0
346
0
  0
LAYOUT
  5
484
102
{ACAD_REACTORS
330
1A
102
}
100
AcDbPlotSettings
  1

  2
none_device
  4
ANSI_C_(22.00_x_17.00_Inches)
  6

 40
0.0
 41
0.0
 42
0.0
 43
0.0
 44
558.8
 45
431.8
 46
0.0
 47
0.0
 48
0.0
 49
0.0
140
0.0
141
0.0
142
1.0
143
1.0
 70
0
 72
1
 73
0
 74
0
  7

 75
0
147
1.0
148
0.0
149
0.0
100
AcDbLayout
  1
Layout1
 70
0
 71
1
 10
0.0
 20
0.0
 11
558.8
 21
431.8
 12
0.0
 22
0.0
 32
0.0
 14
0.0
 24
0.0
 34
0.0
 15
0.0
 25
0.0
 35
0.0
146
0.0
 13
0.0
 23
0.0
 33
0.0
 16
1.0
 26
0.0
 36
0.0
 17
0.0
 27
1.0
 37
0.0
 76
0
330
217
345
0
346
0
  0
ENDSEC
  0
EOF
