999
DXF file: Y:\3D PRATIKA-KAEDRA_OLGA\TRAVAIL_PHASE_10\CAD3D\81278_3D-Simplified\81278_2D-isometric.dxf
999
Pro/ENGINEER 2018260 by Parametric Technology Corporation
  0
SECTION
  2
HEADER
  9
$ACADVER
  1
AC1027
  9
$DWGCODEPAGE
  3
ANSI_1252
  9
$EXTMAX
 10
558.8
 20
431.8
 30
0.0
  9
$EXTMIN
 10
0.0
 20
0.0
 30
0.0
  9
$LIMMIN
 10
0.0
 20
0.0
  9
$LIMMAX
 10
558.8
 20
431.8
  9
$VIEWCTR
 10
279.4
 20
215.9
  9
$VIEWSIZE
 40
431.8
  9
$CLAYER
  8
0
  9
$LTSCALE
 40
30.734
  9
$CELTYPE
  6
BYLAYER
  9
$DIMSCALE
 40
1.0
  9
$DIMASZ
 40
0.1875
  9
$DIMEXO
 40
0.0625
  9
$DIMDLI
 40
21.2344
  9
$DIMEXE
 40
0.125
  9
$DIMCEN
 40
5.0292
  9
$DIMLFAC
 40
1.0
  9
$DIMBLK
  1
_CLOSED
  9
$DIMALT
 70
0
  9
$DIMALTF
 40
0.0393700787
  9
$DIMTXT
 40
0.15625
  9
$DIMTOL
 70
0
  9
$DIMLIM
 70
0
  9
$DIMTFAC
 40
1.0
  9
$DIMGAP
 40
0.625
  9
$DIMDSEP
 70
46
  9
$AUNITS
 70
0
  9
$PDMODE
 70
3
  9
$PDSIZE
 40
0.3125
  9
$HANDSEED
  5
359
  9
$TILEMODE
 70
1
  9
$MEASUREMENT
 70
1
  9
$INSUNITS
 70
4
  0
ENDSEC
  0
SECTION
  2
CLASSES
  0
CLASS
  1
ACDBDICTIONARYWDFLT
  2
AcDbDictionaryWithDefault
  3
AutoCAD 2000
 90
0
 91
1
280
0
281
0
  0
CLASS
  1
ACDBPLACEHOLDER
  2
AcDbPlaceHolder
  3
AutoCAD 2000
 90
0
 91
1
280
0
281
0
  0
CLASS
  1
LAYOUT
  2
AcDbLayout
  3
AutoCAD 2000
 90
0
 91
0
280
0
281
0
  0
ENDSEC
  0
SECTION
  2
TABLES
  0
TABLE
  2
VPORT
  5
8
100
AcDbSymbolTable
 70
2
  0
VPORT
  5
1F4
100
AcDbSymbolTableRecord
100
AcDbViewportTableRecord
  2
*ACTIVE
 70
0
 10
0.0
 20
0.0
 11
1.0
 21
1.0
 12
279.4
 22
215.9
 13
0.0
 23
0.0
 14
1.0
 24
1.0
 15
0.0
 25
0.0
 16
0.0
 26
0.0
 36
1.0
 17
0.0
 27
0.0
 37
0.0
 40
431.8
 41
1.2941176471
 42
50.0
 43
0.0
 44
0.0
 50
0.0
 51
0.0
 71
0
 72
100
 73
1
 74
1
 75
0
 76
0
 77
0
 78
0
  0
ENDTAB
  0
TABLE
  2
LTYPE
  5
5
100
AcDbSymbolTable
 70
6
  0
LTYPE
  5
14
100
AcDbSymbolTableRecord
100
AcDbLinetypeTableRecord
  2
BYBLOCK
 70
0
  3

 72
65
 73
0
 40
0.0
  0
LTYPE
  5
15
100
AcDbSymbolTableRecord
100
AcDbLinetypeTableRecord
  2
BYLAYER
 70
0
  3

 72
65
 73
0
 40
0.0
  0
LTYPE
  5
16
100
AcDbSymbolTableRecord
100
AcDbLinetypeTableRecord
  2
CONTINUOUS
 70
64
  3
Solid line
 72
65
 73
0
 40
0.0
  0
LTYPE
  5
1F5
100
AcDbSymbolTableRecord
100
AcDbLinetypeTableRecord
  2
CENTER
 70
64
  3
____ _ ____ _ ____ _ ____ _ ____ _ ____ _ ____
 72
65
 73
4
 40
0.6
 49
0.375
 74
0
 49
-0.075
 74
0
 49
0.075
 74
0
 49
-0.075
 74
0
  0
LTYPE
  5
1F6
100
AcDbSymbolTableRecord
100
AcDbLinetypeTableRecord
  2
HIDDEN
 70
64
  3
- - - - - - - - - - - - - - - - - - - -
 72
65
 73
2
 40
0.2
 49
0.1
 74
0
 49
-0.1
 74
0
  0
LTYPE
  5
1F7
100
AcDbSymbolTableRecord
100
AcDbLinetypeTableRecord
  2
PHANTOM
 70
64
  3
_____ _ _ _____ _ _ _____ _ _ _____
 72
65
 73
6
 40
0.8
 49
0.45
 74
0
 49
-0.05
 74
0
 49
0.1
 74
0
 49
-0.05
 74
0
 49
0.1
 74
0
 49
-0.05
 74
0
  0
LTYPE
  5
1F8
100
AcDbSymbolTableRecord
100
AcDbLinetypeTableRecord
  2
DOT
 70
64
  3
. . . . . . . . . . . . . . . . . . . .
 72
65
 73
2
 40
0.2
 49
0.1
 74
0
 49
-0.1
 74
0
  0
LTYPE
  5
1F9
100
AcDbSymbolTableRecord
100
AcDbLinetypeTableRecord
  2
DASHED
 70
64
  3
- - - - - - - - - - - - - - - - - - - -
 72
65
 73
2
 40
0.2
 49
0.1
 74
0
 49
-0.1
 74
0
  0
ENDTAB
  0
TABLE
  2
LAYER
  5
2
100
AcDbSymbolTable
 70
36
  0
LAYER
  5
10
100
AcDbSymbolTableRecord
100
AcDbLayerTableRecord
  2
0
 70
0
 62
7
  6
CONTINUOUS
370
-3
390
F
  0
LAYER
  5
1FA
100
AcDbSymbolTableRecord
100
AcDbLayerTableRecord
  2
DEFAULT_1
 70
0
 62
7
  6
CENTER
370
-3
390
F
  0
LAYER
  5
1FB
100
AcDbSymbolTableRecord
100
AcDbLayerTableRecord
  2
DEFAULT_2
 70
0
 62
8
  6
HIDDEN
370
-3
390
F
  0
LAYER
  5
1FC
100
AcDbSymbolTableRecord
100
AcDbLayerTableRecord
  2
DEFAULT_3
 70
0
 62
7
  6
PHANTOM
370
-3
390
F
  0
LAYER
  5
1FD
100
AcDbSymbolTableRecord
100
AcDbLayerTableRecord
  2
01_ALL_DTM_PLN
 70
0
 62
7
  6
CONTINUOUS
370
-3
390
F
  0
LAYER
  5
1FE
100
AcDbSymbolTableRecord
100
AcDbLayerTableRecord
  2
01__ASM_ALL_DTM_PLN
 70
0
 62
7
  6
CONTINUOUS
370
-3
390
F
  0
LAYER
  5
1FF
100
AcDbSymbolTableRecord
100
AcDbLayerTableRecord
  2
01__ASM_DEF_DTM_PLN
 70
0
 62
7
  6
CONTINUOUS
370
-3
390
F
  0
LAYER
  5
200
100
AcDbSymbolTableRecord
100
AcDbLayerTableRecord
  2
01___PRT_ALL_DTM_PLN
 70
0
 62
7
  6
CONTINUOUS
370
-3
390
F
  0
LAYER
  5
201
100
AcDbSymbolTableRecord
100
AcDbLayerTableRecord
  2
01___PRT_DEF_DTM_PLN
 70
0
 62
7
  6
CONTINUOUS
370
-3
390
F
  0
LAYER
  5
202
100
AcDbSymbolTableRecord
100
AcDbLayerTableRecord
  2
02_ALL_AXES
 70
0
 62
7
  6
CONTINUOUS
370
-3
390
F
  0
LAYER
  5
203
100
AcDbSymbolTableRecord
100
AcDbLayerTableRecord
  2
02__ASM_ALL_AXES
 70
0
 62
7
  6
CONTINUOUS
370
-3
390
F
  0
LAYER
  5
204
100
AcDbSymbolTableRecord
100
AcDbLayerTableRecord
  2
02___PRT_ALL_AXES
 70
0
 62
7
  6
CONTINUOUS
370
-3
390
F
  0
LAYER
  5
205
100
AcDbSymbolTableRecord
100
AcDbLayerTableRecord
  2
03_ALL_CURVES
 70
0
 62
7
  6
CONTINUOUS
370
-3
390
F
  0
LAYER
  5
206
100
AcDbSymbolTableRecord
100
AcDbLayerTableRecord
  2
03__ASM_ALL_CURVES
 70
0
 62
7
  6
CONTINUOUS
370
-3
390
F
  0
LAYER
  5
207
100
AcDbSymbolTableRecord
100
AcDbLayerTableRecord
  2
03___PRT_ALL_CURVES
 70
0
 62
7
  6
CONTINUOUS
370
-3
390
F
  0
LAYER
  5
208
100
AcDbSymbolTableRecord
100
AcDbLayerTableRecord
  2
04_ALL_DTM_PNT
 70
0
 62
7
  6
CONTINUOUS
370
-3
390
F
  0
LAYER
  5
209
100
AcDbSymbolTableRecord
100
AcDbLayerTableRecord
  2
04__ASM_ALL_DTM_PNT
 70
0
 62
7
  6
CONTINUOUS
370
-3
390
F
  0
LAYER
  5
20A
100
AcDbSymbolTableRecord
100
AcDbLayerTableRecord
  2
04___PRT_ALL_DTM_PNT
 70
0
 62
7
  6
CONTINUOUS
370
-3
390
F
  0
LAYER
  5
20B
100
AcDbSymbolTableRecord
100
AcDbLayerTableRecord
  2
05_ALL_DTM_CSYS
 70
0
 62
7
  6
CONTINUOUS
370
-3
390
F
  0
LAYER
  5
20C
100
AcDbSymbolTableRecord
100
AcDbLayerTableRecord
  2
05__ASM_ALL_DTM_CSYS
 70
0
 62
7
  6
CONTINUOUS
370
-3
390
F
  0
LAYER
  5
20D
100
AcDbSymbolTableRecord
100
AcDbLayerTableRecord
  2
05__ASM_DEF_DTM_CSYS
 70
0
 62
7
  6
CONTINUOUS
370
-3
390
F
  0
LAYER
  5
20E
100
AcDbSymbolTableRecord
100
AcDbLayerTableRecord
  2
05___PRT_ALL_DTM_CSYS
 70
0
 62
7
  6
CONTINUOUS
370
-3
390
F
  0
LAYER
  5
20F
100
AcDbSymbolTableRecord
100
AcDbLayerTableRecord
  2
05___PRT_DEF_DTM_CSYS
 70
0
 62
7
  6
CONTINUOUS
370
-3
390
F
  0
LAYER
  5
210
100
AcDbSymbolTableRecord
100
AcDbLayerTableRecord
  2
06_ALL_SURFS
 70
0
 62
7
  6
CONTINUOUS
370
-3
390
F
  0
LAYER
  5
211
100
AcDbSymbolTableRecord
100
AcDbLayerTableRecord
  2
06__ASM_ALL_SURFS
 70
0
 62
7
  6
CONTINUOUS
370
-3
390
F
  0
LAYER
  5
212
100
AcDbSymbolTableRecord
100
AcDbLayerTableRecord
  2
06___PRT_ALL_SURFS
 70
0
 62
7
  6
CONTINUOUS
370
-3
390
F
  0
LAYER
  5
213
100
AcDbSymbolTableRecord
100
AcDbLayerTableRecord
  2
07__ASM_ALL_SKELETONS
 70
0
 62
7
  6
CONTINUOUS
370
-3
390
F
  0
ENDTAB
  0
TABLE
  2
STYLE
  5
3
100
AcDbSymbolTable
 70
1
  0
STYLE
  5
11
100
AcDbSymbolTableRecord
100
AcDbTextStyleTableRecord
  2
STANDARD
 70
0
 40
0.0
 41
0.8
 50
0.0
 71
0
 42
0.2
  3
txt
  4

  0
STYLE
  5
214
100
AcDbSymbolTableRecord
100
AcDbTextStyleTableRecord
  2
TEXTSTYLE_1
 70
0
 40
0.0
 41
0.8
 50
0.0
 71
0
 42
0.2
  3
gdt
  4

  0
ENDTAB
  0
TABLE
  2
VIEW
  5
6
100
AcDbSymbolTable
 70
0
  0
ENDTAB
  0
TABLE
  2
UCS
  5
7
100
AcDbSymbolTable
 70
0
  0
ENDTAB
  0
TABLE
  2
APPID
  5
9
100
AcDbSymbolTable
 70
1
  0
APPID
  5
215
100
AcDbSymbolTableRecord
100
AcDbRegAppTableRecord
  2
ACAD
 70
0
  0
ENDTAB
  0
TABLE
  2
BLOCK_RECORD
  5
1
100
AcDbSymbolTable
 70
0
  0
BLOCK_RECORD
  5
216
100
AcDbSymbolTableRecord
100
AcDbBlockTableRecord
  2
*Model_Space
  0
BLOCK_RECORD
  5
217
100
AcDbSymbolTableRecord
100
AcDbBlockTableRecord
  2
*Paper_Space
  0
BLOCK_RECORD
  5
218
100
AcDbSymbolTableRecord
100
AcDbBlockTableRecord
  2
_CLOSED
  0
ENDTAB
  0
TABLE
  2
DIMSTYLE
  5
A
100
AcDbSymbolTable
 70
1
100
AcDbDimStyleTable
 71
0
  0
DIMSTYLE
105
219
100
AcDbSymbolTableRecord
100
AcDbDimStyleTableRecord
  2
STANDARD
 70
0
  3

  4

 40
1.0
 41
0.1875
 42
0.0625
 43
0.38
 44
0.125
 45
0.0
 46
0.0
 47
0.01
 48
0.01
140
0.15625
141
0.09
142
0.0
143
25.4
144
1.0
145
0.0
146
1.0
147
0.625
 71
0.0
 72
0.0
 73
1
 74
1
 75
0
 76
0
 77
0
 78
8
 79
2
170
0
171
1
172
0
173
0
174
0
175
0
176
0
177
0
178
0
270
2
179
2
271
2
272
2
273
2
274
2
275
0
280
0
281
0
282
0
283
1
284
8
285
0
286
0
287
3
288
0
340
11
278
46
341
218
342
218
343
218
344
218
  0
ENDTAB
  0
ENDSEC
  0
SECTION
  2
BLOCKS
  0
BLOCK
  5
20
100
AcDbEntity
  8
0
100
AcDbBlockBegin
  2
*Model_Space
 70
0
 10
0.0
 20
0.0
 30
0.0
  3
*Model_Space
  1

  0
ENDBLK
  5
21
100
AcDbEntity
  8
0
100
AcDbBlockEnd
  0
BLOCK
  5
1C
100
AcDbEntity
  8
0
100
AcDbBlockBegin
  2
*Paper_Space
 70
0
 10
0.0
 20
0.0
 30
0.0
  3
*Paper_Space
  1

  0
ENDBLK
  5
1D
100
AcDbEntity
  8
0
100
AcDbBlockEnd
  0
BLOCK
  5
21A
100
AcDbEntity
  8
0
100
AcDbBlockBegin
  2
_CLOSED
 70
64
 10
0.0
 20
0.0
  3
_CLOSED
  1

  0
LINE
  5
21B
100
AcDbEntity
  8
0
  6
BYBLOCK
 62
0
100
AcDbLine
 10
0.0
 20
0.0
 11
-1.0
 21
0.1666666667
  0
LINE
  5
21C
100
AcDbEntity
  8
0
  6
BYBLOCK
 62
0
100
AcDbLine
 10
-1.0
 20
0.1666666667
 11
-1.0
 21
-0.1666666667
  0
LINE
  5
21D
100
AcDbEntity
  8
0
  6
BYBLOCK
 62
0
100
AcDbLine
 10
-1.0
 20
-0.1666666667
 11
0.0
 21
0.0
  0
LINE
  5
21E
100
AcDbEntity
  8
0
  6
BYBLOCK
 62
0
100
AcDbLine
 10
-1.0
 20
0.0
 11
0.0
 21
0.0
  0
ENDBLK
  5
21F
100
AcDbEntity
  8
0
  6
BYBLOCK
 62
0
100
AcDbBlockEnd
  0
ENDSEC
  0
SECTION
  2
ENTITIES
  0
LINE
  5
220
100
AcDbEntity
  8
0
100
AcDbLine
 62
7
  6
CONTINUOUS
 10
-30.7290356464
 20
132.3166199537
 11
-69.8627094179
 21
121.8266241418
  0
LINE
  5
221
100
AcDbEntity
  8
0
100
AcDbLine
 62
7
  6
CONTINUOUS
 10
-50.7078830623
 20
134.255527204
 11
-40.6115068375
 21
136.9619162063
  0
LINE
  5
222
100
AcDbEntity
  8
0
100
AcDbLine
 62
7
  6
CONTINUOUS
 10
-72.1380618055
 20
121.6813382272
 11
-77.5763743068
 21
122.4429934615
  0
LINE
  5
223
100
AcDbEntity
  8
0
100
AcDbLine
 62
7
  6
CONTINUOUS
 10
-77.6400330476
 20
127.8317461676
 11
-83.0783455489
 21
128.5934014019
  0
LINE
  5
224
100
AcDbEntity
  8
0
100
AcDbLine
 62
7
  6
CONTINUOUS
 10
-50.7078830623
 20
134.255527204
 11
-52.9468399899
 21
135.5487011407
  0
LINE
  5
225
100
AcDbEntity
  8
0
100
AcDbLine
 62
7
  6
CONTINUOUS
 10
-28.6125693674
 20
124.9489298318
 11
-26.6420149794
 21
123.8107742138
  0
LINE
  5
226
100
AcDbEntity
  8
0
100
AcDbLine
 62
7
  6
CONTINUOUS
 10
-36.9597724692
 20
134.6670543155
 11
-40.8310903682
 21
136.903055637
  0
LINE
  5
227
100
AcDbEntity
  8
0
100
AcDbLine
 62
7
  6
CONTINUOUS
 10
-33.6373938727
 20
143.4594015533
 11
-45.2888338299
 21
150.0940524684
  0
LINE
  5
228
100
AcDbEntity
  8
0
100
AcDbLine
 62
7
  6
CONTINUOUS
 10
-34.6173624051
 20
144.0619331868
 11
-45.305509629
 21
150.1483223338
  0
LINE
  5
229
100
AcDbEntity
  8
0
100
AcDbLine
 62
7
  6
CONTINUOUS
 10
-30.5751994013
 20
132.2801475218
 11
-28.6125693674
 21
131.1465688636
  0
LINE
  5
22A
100
AcDbEntity
  8
0
100
AcDbLine
 62
7
  6
CONTINUOUS
 10
-22.9126726191
 20
127.8544143586
 11
-21.5051337705
 21
127.0414460601
  0
LINE
  5
22B
100
AcDbEntity
  8
0
100
AcDbLine
 62
7
  6
CONTINUOUS
 10
-44.4517258595
 20
147.9254919975
 11
-21.6361643601
 21
134.7476473994
  0
LINE
  5
22C
100
AcDbEntity
  8
0
100
AcDbLine
 62
7
  6
CONTINUOUS
 10
-94.0856818201
 20
179.3630758614
 11
-90.3662045018
 21
177.2147748394
  0
LINE
  5
22D
100
AcDbEntity
  8
0
100
AcDbLine
 62
7
  6
CONTINUOUS
 10
-23.7191707143
 20
141.2369962062
 11
-13.3717012658
 21
135.260490023
  0
LINE
  5
22E
100
AcDbEntity
  8
0
100
AcDbLine
 62
7
  6
CONTINUOUS
 10
-32.8935918701
 20
146.6658074803
 11
-46.4214435643
 21
154.4792433835
  0
LINE
  5
22F
100
AcDbEntity
  8
0
100
AcDbLine
 62
7
  6
CONTINUOUS
 10
-33.6372293781
 20
143.4596886538
 11
-34.6173624051
 21
144.0619331868
  0
LINE
  5
230
100
AcDbEntity
  8
0
100
AcDbLine
 62
7
  6
CONTINUOUS
 10
-41.8900267361
 20
153.6042012482
 11
-46.69370389
 21
156.3289937489
  0
LINE
  5
231
100
AcDbEntity
  8
0
100
AcDbLine
 62
7
  6
CONTINUOUS
 10
-35.2698810428
 20
148.5815046366
 11
-46.5088238227
 21
155.0729092599
  0
LINE
  5
232
100
AcDbEntity
  8
0
100
AcDbLine
 62
7
  6
CONTINUOUS
 10
-36.8016253224
 20
150.3167793114
 11
-46.6456487042
 21
156.0025043964
  0
LINE
  5
233
100
AcDbEntity
  8
0
100
AcDbLine
 62
7
  6
CONTINUOUS
 10
-13.3717012658
 20
136.9629820432
 11
-21.2122604812
 21
141.4915434334
  0
LINE
  5
234
100
AcDbEntity
  8
0
100
AcDbLine
 62
7
  6
CONTINUOUS
 10
-83.0783455489
 20
128.5934014019
 11
-96.3387876795
 21
217.0612097039
  0
LINE
  5
235
100
AcDbEntity
  8
0
100
AcDbLine
 62
7
  6
CONTINUOUS
 10
-80.9030205484
 20
128.2887393082
 11
-94.1634626789
 21
216.7565476102
  0
LINE
  5
236
100
AcDbEntity
  8
0
100
AcDbLine
 62
7
  6
CONTINUOUS
 10
-90.9004751781
 20
216.2995544696
 11
-77.6400330476
 21
127.8317461676
  0
LINE
  5
237
100
AcDbEntity
  8
0
100
AcDbLine
 62
7
  6
CONTINUOUS
 10
-36.7090103742
 20
221.7859385376
 11
-34.9470534699
 21
222.2630628685
  0
LINE
  5
238
100
AcDbEntity
  8
0
100
AcDbLine
 62
7
  6
CONTINUOUS
 10
-34.9470534699
 20
225.0210667088
 11
-40.8929778155
 21
223.412359304
  0
LINE
  5
239
100
AcDbEntity
  8
0
100
AcDbLine
 62
7
  6
CONTINUOUS
 10
2.463118363
 20
166.8441143264
 11
4.067083413
 21
165.9232565918
  0
LINE
  5
23A
100
AcDbEntity
  8
0
100
AcDbLine
 62
7
  6
CONTINUOUS
 10
1.432321931
 20
159.4647888413
 11
-1.8741369772
 21
161.3958851245
  0
LINE
  5
23B
100
AcDbEntity
  8
0
100
AcDbLine
 62
7
  6
CONTINUOUS
 10
-58.3158848346
 20
221.5560232521
 11
-58.368248568
 21
218.7981733437
  0
LINE
  5
23C
100
AcDbEntity
  8
0
100
AcDbLine
 62
7
  6
CONTINUOUS
 10
-55.6478816742
 20
236.5502289014
 11
-55.6477266989
 21
236.5584110969
  0
LINE
  5
23D
100
AcDbEntity
  8
0
100
AcDbLine
 62
7
  6
CONTINUOUS
 10
26.8812891054
 20
247.7421404706
 11
32.8272134509
 21
249.3508478754
  0
LINE
  5
23E
100
AcDbEntity
  8
0
100
AcDbLine
 62
7
  6
CONTINUOUS
 10
-62.1442187017
 20
219.4479319022
 11
-58.3365318508
 21
220.4686032389
  0
LINE
  5
23F
100
AcDbEntity
  8
0
100
AcDbLine
 62
7
  6
CONTINUOUS
 10
29.8645331636
 20
242.1264751531
 11
36.2247490051
 21
243.5437770663
  0
LINE
  5
240
100
AcDbEntity
  8
0
100
AcDbLine
 62
7
  6
CONTINUOUS
 10
29.1637016224
 20
242.8298643943
 11
32.2824088138
 21
243.5248328952
  0
LINE
  5
241
100
AcDbEntity
  8
0
100
AcDbLine
 62
7
  6
CONTINUOUS
 10
32.2824088138
 20
246.2828367355
 11
26.5446878179
 21
245.0042507335
  0
LINE
  5
242
100
AcDbEntity
  8
0
100
AcDbLine
 62
7
  6
CONTINUOUS
 10
-62.1442187017
 20
219.4479319022
 11
-58.3426416308
 21
220.146818385
  0
LINE
  5
243
100
AcDbEntity
  8
0
100
AcDbLine
 62
7
  6
CONTINUOUS
 10
-90.9004751781
 20
216.2995544696
 11
-96.3387876795
 21
217.0612097039
  0
LINE
  5
244
100
AcDbEntity
  8
0
100
AcDbLine
 62
7
  6
CONTINUOUS
 10
-55.6348390202
 20
212.0140432224
 11
-61.5412968091
 21
215.4255035483
  0
LINE
  5
245
100
AcDbEntity
  8
0
100
AcDbLine
 62
7
  6
CONTINUOUS
 10
-61.5412968091
 20
215.4255035483
 11
-62.1442187017
 21
219.4479319022
  0
LINE
  5
246
100
AcDbEntity
  8
0
100
AcDbLine
 62
7
  6
CONTINUOUS
 10
-57.3472480055
 20
233.3835572401
 11
-85.4546578571
 21
225.8492119255
  0
LINE
  5
247
100
AcDbEntity
  8
0
100
AcDbLine
 62
7
  6
CONTINUOUS
 10
-88.7176453579
 20
226.3062050661
 11
-57.321038009
 21
234.7222378035
  0
LINE
  5
248
100
AcDbEntity
  8
0
100
AcDbLine
 62
7
  6
CONTINUOUS
 10
-90.8929703584
 20
226.6108671597
 11
-57.303563331
 21
235.6146918734
  0
LINE
  5
249
100
AcDbEntity
  8
0
100
AcDbLine
 62
7
  6
CONTINUOUS
 10
-90.8929703584
 20
226.6108671597
 11
-85.4546578571
 21
225.8492119255
  0
LINE
  5
24A
100
AcDbEntity
  8
0
100
AcDbLine
 62
7
  6
CONTINUOUS
 10
-6.2786321539
 20
192.4522552014
 11
-5.6574935158
 21
192.1124145156
  0
LINE
  5
24B
100
AcDbEntity
  8
0
100
AcDbLine
 62
7
  6
CONTINUOUS
 10
-4.6318012669
 20
190.725607484
 11
-2.0548247083
 21
189.2371936826
  0
LINE
  5
24C
100
AcDbEntity
  8
0
100
AcDbLine
 62
7
  6
CONTINUOUS
 10
-6.2786321539
 20
192.4522552014
 11
-11.4810052945
 21
195.4570493105
  0
LINE
  5
24D
100
AcDbEntity
  8
0
100
AcDbLine
 62
7
  6
CONTINUOUS
 10
-11.4732783867
 20
195.4715039086
 11
-5.6574934895
 21
192.1124145611
  0
LINE
  5
24E
100
AcDbEntity
  8
0
100
AcDbLine
 62
7
  6
CONTINUOUS
 10
-9.953646938
 20
197.4244353762
 11
-0.1294219052
 21
191.6708219156
  0
LINE
  5
24F
100
AcDbEntity
  8
0
100
AcDbLine
 62
7
  6
CONTINUOUS
 10
-11.264380298
 20
197.4640081677
 11
-10.4600573547
 21
196.9917127476
  0
LINE
  5
250
100
AcDbEntity
  8
0
100
AcDbLine
 62
7
  6
CONTINUOUS
 10
-39.5328821822
 20
236.8412708964
 11
-39.5328821822
 21
237.9847501339
  0
LINE
  5
251
100
AcDbEntity
  8
0
100
AcDbLine
 62
7
  6
CONTINUOUS
 10
-34.9470534699
 20
222.2630628685
 11
-34.9470534699
 21
225.0210667088
  0
LINE
  5
252
100
AcDbEntity
  8
0
100
AcDbLine
 62
7
  6
CONTINUOUS
 10
-28.6125693674
 20
131.8151695422
 11
-28.6125693674
 21
124.9489298318
  0
LINE
  5
253
100
AcDbEntity
  8
0
100
AcDbLine
 62
7
  6
CONTINUOUS
 10
-26.6420149794
 20
131.7139389
 11
-26.6420149794
 21
123.8107742138
  0
LINE
  5
254
100
AcDbEntity
  8
0
100
AcDbLine
 62
7
  6
CONTINUOUS
 10
-21.6361643601
 20
133.0451553797
 11
-21.6361643601
 21
134.7476473994
  0
LINE
  5
255
100
AcDbEntity
  8
0
100
AcDbLine
 62
7
  6
CONTINUOUS
 10
-14.9498909898
 20
217.4052262785
 11
-14.2627910858
 21
220.2316091165
  0
LINE
  5
256
100
AcDbEntity
  8
0
100
AcDbLine
 62
7
  6
CONTINUOUS
 10
-13.3717012658
 20
136.9629820432
 11
-13.3717012658
 21
135.260490023
  0
LINE
  5
257
100
AcDbEntity
  8
0
100
AcDbLine
 62
7
  6
CONTINUOUS
 10
6.884128835
 20
255.3579899854
 11
6.1970267213
 21
252.5315980629
  0
LINE
  5
258
100
AcDbEntity
  8
0
100
AcDbLine
 62
7
  6
CONTINUOUS
 10
-34.6173624051
 20
144.0619331868
 11
-32.8935918701
 21
146.6658074804
  0
LINE
  5
259
100
AcDbEntity
  8
0
100
AcDbLine
 62
7
  6
CONTINUOUS
 10
-2.0548247083
 20
189.2371936826
 11
-0.1294219052
 21
191.6708219156
  0
LINE
  5
25A
100
AcDbEntity
  8
0
100
AcDbLine
 62
7
  6
CONTINUOUS
 10
6.8498657833
 20
252.4475615587
 11
6.8920639724
 21
252.6204013682
  0
LINE
  5
25B
100
AcDbEntity
  8
0
100
AcDbLine
 62
7
  6
CONTINUOUS
 10
32.2824088138
 20
243.5248328952
 11
33.2191394096
 21
242.8740110809
  0
LINE
  5
25C
100
AcDbEntity
  8
0
100
AcDbLine
 62
7
  6
CONTINUOUS
 10
36.2247490051
 20
243.5437770663
 11
32.2824088138
 21
246.2828367355
  0
LINE
  5
25D
100
AcDbEntity
  8
0
100
AcDbLine
 62
7
  6
CONTINUOUS
 10
31.4671178178
 20
236.8412708964
 11
31.4671178178
 21
237.9847501339
  0
LINE
  5
25E
100
AcDbEntity
  8
0
100
AcDbLine
 62
7
  6
CONTINUOUS
 10
32.2824088138
 20
246.2828367355
 11
32.2824088138
 21
243.5248328952
  0
LINE
  5
25F
100
AcDbEntity
  8
0
100
AcDbLine
 62
7
  6
CONTINUOUS
 10
47.5821173098
 20
236.212978278
 11
47.5820768735
 21
236.0578173154
  0
LINE
  5
260
100
AcDbEntity
  8
0
100
AcDbLine
 62
7
  6
CONTINUOUS
 10
50.2501204701
 20
221.5560232521
 11
50.3024842036
 21
218.7981733437
  0
ARC
  5
261
100
AcDbEntity
  8
0
100
AcDbCircle
 62
7
  6
CONTINUOUS
 10
-30.0892746865
 20
216.2198732787
 40
37.1067546418
100
AcDbArc
 50
118.3914124321
 51
121.7008985323
  0
ARC
  5
262
100
AcDbEntity
  8
0
100
AcDbCircle
 62
7
  6
CONTINUOUS
 10
-77.4338970114
 20
189.5793025241
 40
18.4340218917
100
AcDbArc
 50
219.3071425152
 51
225.9503392322
  0
ARC
  5
263
100
AcDbEntity
  8
0
100
AcDbCircle
 62
7
  6
CONTINUOUS
 10
-23.8707935153
 20
160.1872733221
 40
16.267546319
100
AcDbArc
 50
217.3555861696
 51
225.5147452062
  0
ARC
  5
264
100
AcDbEntity
  8
0
100
AcDbCircle
 62
7
  6
CONTINUOUS
 10
-84.6970568851
 20
218.1287881368
 40
9.5685629164
100
AcDbArc
 50
168.0237778464
 51
174.8423529505
  0
ARC
  5
265
100
AcDbEntity
  8
0
100
AcDbCircle
 62
7
  6
CONTINUOUS
 10
-84.7376177597
 20
218.132166349
 40
9.527862583
100
AcDbArc
 50
174.8406586934
 51
178.1792159754
  0
ARC
  5
266
100
AcDbEntity
  8
0
100
AcDbCircle
 62
7
  6
CONTINUOUS
 10
-84.7446527246
 20
218.1382401015
 40
9.5200417414
100
AcDbArc
 50
164.0921418968
 51
168.0199851557
  0
ARC
  5
267
100
AcDbEntity
  8
0
100
AcDbCircle
 62
7
  6
CONTINUOUS
 10
-84.8997840074
 20
218.1833116809
 40
9.3584977253
100
AcDbArc
 50
157.7702500148
 51
164.0971952594
  0
ARC
  5
268
100
AcDbEntity
  8
0
100
AcDbCircle
 62
7
  6
CONTINUOUS
 10
-84.9576814704
 20
218.1317202428
 40
9.3079271285
100
AcDbArc
 50
178.1334304648
 51
188.4961001204
  0
ARC
  5
269
100
AcDbEntity
  8
0
100
AcDbCircle
 62
7
  6
CONTINUOUS
 10
-85.1299616
 20
218.2746233993
 40
9.110883424
100
AcDbArc
 50
153.5252857185
 51
157.754174672
  0
ARC
  5
26A
100
AcDbEntity
  8
0
100
AcDbCircle
 62
7
  6
CONTINUOUS
 10
-85.4038624699
 20
218.4117718467
 40
8.8045650728
100
AcDbArc
 50
147.0810795574
 51
153.5295811509
  0
ARC
  5
26B
100
AcDbEntity
  8
0
100
AcDbCircle
 62
7
  6
CONTINUOUS
 10
-85.7279984721
 20
218.617376137
 40
8.4207369562
100
AcDbArc
 50
142.5999748519
 51
147.0568589124
  0
ARC
  5
26C
100
AcDbEntity
  8
0
100
AcDbCircle
 62
7
  6
CONTINUOUS
 10
-72.7053798946
 20
129.422114499
 40
8.2681004662
100
AcDbArc
 50
199.2957401906
 51
202.9653163034
  0
ARC
  5
26D
100
AcDbEntity
  8
0
100
AcDbCircle
 62
7
  6
CONTINUOUS
 10
-86.0426767759
 20
218.8586712422
 40
8.0241951131
100
AcDbArc
 50
135.5988051789
 51
142.603974794
  0
ARC
  5
26E
100
AcDbEntity
  8
0
100
AcDbCircle
 62
7
  6
CONTINUOUS
 10
-73.130317598
 20
129.2325863113
 40
7.8028987284
100
AcDbArc
 50
202.9013829728
 51
210.73229194
  0
ARC
  5
26F
100
AcDbEntity
  8
0
100
AcDbCircle
 62
7
  6
CONTINUOUS
 10
-86.341098251
 20
219.1427470352
 40
7.6122260647
100
AcDbArc
 50
131.0009065519
 51
135.5548579057
  0
ARC
  5
270
100
AcDbEntity
  8
0
100
AcDbCircle
 62
7
  6
CONTINUOUS
 10
-73.4364319273
 20
129.0530702736
 40
7.4480364315
100
AcDbArc
 50
210.7486561692
 51
215.3697143866
  0
ARC
  5
271
100
AcDbEntity
  8
0
100
AcDbCircle
 62
7
  6
CONTINUOUS
 10
-86.6318630145
 20
219.4772658421
 40
7.1690026684
100
AcDbArc
 50
122.7492076262
 51
131.0011314822
  0
ARC
  5
272
100
AcDbEntity
  8
0
100
AcDbCircle
 62
7
  6
CONTINUOUS
 10
-73.8411324733
 20
128.7586213279
 40
6.9475905122
100
AcDbArc
 50
215.3215309452
 51
223.0622367238
  0
ARC
  5
273
100
AcDbEntity
  8
0
100
AcDbCircle
 62
7
  6
CONTINUOUS
 10
-86.8738533675
 20
219.8398336464
 40
6.7331625538
100
AcDbArc
 50
118.4784315122
 51
122.6863273421
  0
ARC
  5
274
100
AcDbEntity
  8
0
100
AcDbCircle
 62
7
  6
CONTINUOUS
 10
-74.0653510315
 20
128.5510684574
 40
6.6420582807
100
AcDbArc
 50
223.0747793156
 51
228.289726855
  0
ARC
  5
275
100
AcDbEntity
  8
0
100
AcDbCircle
 62
7
  6
CONTINUOUS
 10
-74.3336229753
 20
128.2445504391
 40
6.2347393206
100
AcDbArc
 50
228.2559448589
 51
236.397900295
  0
ARC
  5
276
100
AcDbEntity
  8
0
100
AcDbCircle
 62
7
  6
CONTINUOUS
 10
-74.4546399997
 20
128.0638195667
 40
6.0172349609
100
AcDbArc
 50
236.4052773428
 51
241.1555433414
  0
ARC
  5
277
100
AcDbEntity
  8
0
100
AcDbCircle
 62
7
  6
CONTINUOUS
 10
-74.5059276765
 20
127.973288599
 40
5.9131931737
100
AcDbArc
 50
241.1676491886
 51
242.0031580518
  0
ARC
  5
278
100
AcDbEntity
  8
0
100
AcDbCircle
 62
7
  6
CONTINUOUS
 10
-74.5750179603
 20
127.8351673675
 40
5.758804505
100
AcDbArc
 50
241.9650287371
 51
250.7273212935
  0
ARC
  5
279
100
AcDbEntity
  8
0
100
AcDbCircle
 62
7
  6
CONTINUOUS
 10
-74.6110045113
 20
127.7330979113
 40
5.6505773104
100
AcDbArc
 50
250.7301637312
 51
257.3315414785
  0
ARC
  5
27A
100
AcDbEntity
  8
0
100
AcDbCircle
 62
7
  6
CONTINUOUS
 10
-26.9140176985
 20
157.7045616985
 40
5.6342735102
100
AcDbArc
 50
359.9911100471
 51
3.1258782247
  0
ARC
  5
27B
100
AcDbEntity
  8
0
100
AcDbCircle
 62
7
  6
CONTINUOUS
 10
-27.503564813
 20
156.6350497359
 40
5.6046346946
100
AcDbArc
 50
297.679995569
 51
298.4606704431
  0
ARC
  5
27C
100
AcDbEntity
  8
0
100
AcDbCircle
 62
7
  6
CONTINUOUS
 10
-74.6258931548
 20
127.6726990858
 40
5.5883837999
100
AcDbArc
 50
257.344666637
 51
262.0268892232
  0
ARC
  5
27D
100
AcDbEntity
  8
0
100
AcDbCircle
 62
7
  6
CONTINUOUS
 10
-27.4766326659
 20
156.5837908499
 40
5.5467312193
100
AcDbArc
 50
297.0289562311
 51
297.6795980584
  0
ARC
  5
27E
100
AcDbEntity
  8
0
100
AcDbCircle
 62
7
  6
CONTINUOUS
 10
-37.2409515412
 20
151.1497905284
 40
5.2571886164
100
AcDbArc
 50
144.513244219
 51
152.1688468246
  0
ARC
  5
27F
100
AcDbEntity
  8
0
100
AcDbCircle
 62
7
  6
CONTINUOUS
 10
-30.4270160726
 20
255.9700048587
 40
36.4411545451
100
AcDbArc
 50
237.3943280571
 51
240.7121164801
  0
ARC
  5
280
100
AcDbEntity
  8
0
100
AcDbCircle
 62
7
  6
CONTINUOUS
 10
-20.1693733225
 20
251.8525757176
 40
26.4121511731
100
AcDbArc
 50
240.0093246122
 51
242.8848683519
  0
ARC
  5
281
100
AcDbEntity
  8
0
100
AcDbCircle
 62
7
  6
CONTINUOUS
 10
-33.9256042487
 20
237.9913824154
 40
5.6072818868
100
AcDbArc
 50
180.0677693462
 51
191.4523621649
  0
ARC
  5
282
100
AcDbEntity
  8
0
100
AcDbCircle
 62
7
  6
CONTINUOUS
 10
-4.3534178514
 20
126.7699676007
 40
130.8503972773
100
AcDbArc
 50
93.5707686499
 51
94.993490707
  0
ARC
  5
283
100
AcDbEntity
  8
0
100
AcDbCircle
 62
7
  6
CONTINUOUS
 10
-3.6796877228
 20
127.18939282
 40
130.4296807891
100
AcDbArc
 50
84.6193813895
 51
86.0427378232
  0
ARC
  5
284
100
AcDbEntity
  8
0
100
AcDbCircle
 62
7
  6
CONTINUOUS
 10
-3.4620974859
 20
136.8067307267
 40
116.1751046957
100
AcDbArc
 50
83.8978199648
 51
84.8828868419
  0
ARC
  5
285
100
AcDbEntity
  8
0
100
AcDbCircle
 62
7
  6
CONTINUOUS
 10
-3.3379009866
 20
155.2608918673
 40
97.736917949
100
AcDbArc
 50
82.8050483855
 51
84.4014868181
  0
ARC
  5
286
100
AcDbEntity
  8
0
100
AcDbCircle
 62
7
  6
CONTINUOUS
 10
-11.740369433
 20
169.3019605716
 40
87.6297108292
100
AcDbArc
 50
103.5472110349
 51
105.4093496622
  0
ARC
  5
287
100
AcDbEntity
  8
0
100
AcDbCircle
 62
7
  6
CONTINUOUS
 10
3.9001943623
 20
170.1603162694
 40
86.7421272886
100
AcDbArc
 50
74.0828313783
 51
75.9475960931
  0
ARC
  5
288
100
AcDbEntity
  8
0
100
AcDbCircle
 62
7
  6
CONTINUOUS
 10
22.3612517081
 20
216.7932023206
 40
36.4411545451
100
AcDbArc
 50
57.3943280571
 51
60.7121164801
  0
ARC
  5
289
100
AcDbEntity
  8
0
100
AcDbCircle
 62
7
  6
CONTINUOUS
 10
-13.331324291
 20
178.8289566932
 40
15.3407277947
100
AcDbArc
 50
54.1628418921
 51
59.9850474653
  0
ARC
  5
28A
100
AcDbEntity
  8
0
100
AcDbCircle
 62
7
  6
CONTINUOUS
 10
55.3539734964
 20
218.9273422903
 40
8.1681278342
100
AcDbArc
 50
134.86545333
 51
138.0681028989
  0
ARC
  5
28B
100
AcDbEntity
  8
0
100
AcDbCircle
 62
7
  6
CONTINUOUS
 10
-10.3579296443
 20
195.4483189356
 40
5.0613304491
100
AcDbArc
 50
315.8398728232
 51
323.7043625701
  0
ARC
  5
28C
100
AcDbEntity
  8
0
100
AcDbCircle
 62
7
  6
CONTINUOUS
 10
-4.0460406921
 20
336.7603668088
 40
136.7235710613
100
AcDbArc
 50
266.0937590587
 51
269.8166416897
  0
ARC
  5
28D
100
AcDbEntity
  8
0
100
AcDbCircle
 62
7
  6
CONTINUOUS
 10
-4.0085627474
 20
336.4523390921
 40
136.4156702813
100
AcDbArc
 50
269.8004866803
 51
273.5360882988
  0
ARC
  5
28E
100
AcDbEntity
  8
0
100
AcDbCircle
 62
7
  6
CONTINUOUS
 10
-3.7123465131
 20
345.9932395792
 40
130.8503972778
100
AcDbArc
 50
273.5707686499
 51
274.993490707
  0
ARC
  5
28F
100
AcDbEntity
  8
0
100
AcDbCircle
 62
7
  6
CONTINUOUS
 10
-4.3860766416
 20
345.5738143595
 40
130.4296807893
100
AcDbArc
 50
264.6193813895
 51
266.0427378232
  0
ARC
  5
290
100
AcDbEntity
  8
0
100
AcDbCircle
 62
7
  6
CONTINUOUS
 10
3.6746050686
 20
303.4612466078
 40
87.6297108292
100
AcDbArc
 50
283.5472110349
 51
285.4093496622
  0
ARC
  5
291
100
AcDbEntity
  8
0
100
AcDbCircle
 62
7
  6
CONTINUOUS
 10
-11.9659587268
 20
302.60289091
 40
86.7421272886
100
AcDbArc
 50
254.0828313783
 51
255.9475960931
  0
ARC
  5
292
100
AcDbEntity
  8
0
100
AcDbCircle
 62
7
  6
CONTINUOUS
 10
22.023510322
 20
256.5433339008
 40
37.1067546419
100
AcDbArc
 50
298.3914124321
 51
301.7008985323
  0
SPLINE
  5
293
100
AcDbEntity
  8
0
100
AcDbSpline
 62
7
  6
CONTINUOUS
 70
0
 71
3
 72
25
 73
21
 74
0
 42
0.0000001
 43
0.0000001
 44
0.0000000001
 40
0.0
 40
0.0
 40
0.0
 40
0.0
 40
0.0157132617
 40
0.031952033
 40
0.0676647832
 40
0.0878788559
 40
0.1098862624
 40
0.1595475839
 40
0.2167630108
 40
0.2809369798
 40
0.3510487092
 40
0.4257865695
 40
0.5036416144
 40
0.5829823761
 40
0.662121358
 40
0.7393786695
 40
0.813145535
 40
0.8819534704
 40
0.9445485919
 40
1.0
 40
1.0
 40
1.0
 40
1.0
 10
-39.5328822132
 20
237.9847501339
 30
0.0
 10
-39.5328802922
 20
238.3563438904
 30
0.0
 10
-39.4549159036
 20
239.1140705107
 30
0.0
 10
-38.9793843576
 20
240.6510106737
 30
0.0
 10
-38.0314518247
 20
242.1100078741
 30
0.0
 10
-36.7539546161
 20
243.4400657916
 30
0.0
 10
-35.0822188325
 20
244.8352140521
 30
0.0
 10
-32.4741204324
 20
246.4400987701
 30
0.0
 10
-28.7692824968
 20
248.0843366383
 30
0.0
 10
-24.4541533974
 20
249.481356816
 30
0.0
 10
-19.6333632648
 20
250.5966579562
 30
0.0
 10
-14.4243334901
 20
251.4020521572
 30
0.0
 10
-8.9562422004
 20
251.8768495492
 30
0.0
 10
-3.3652425279
 20
252.0088207143
 30
0.0
 10
2.2090785419
 20
251.7945672585
 30
0.0
 10
7.6276461945
 20
251.2395892781
 30
0.0
 10
12.7555027016
 20
250.3582583674
 30
0.0
 10
17.4663258452
 20
249.1729080042
 30
0.0
 10
21.6439176925
 20
247.7141335798
 30
0.0
 10
24.1704234659
 20
246.5050539738
 30
0.0
 10
25.3059618024
 20
245.8491881195
 30
0.0
  0
SPLINE
  5
294
100
AcDbEntity
  8
0
100
AcDbSpline
 62
7
  6
CONTINUOUS
 70
0
 71
3
 72
9
 73
5
 74
0
 42
0.0000001
 43
0.0000001
 44
0.0000000001
 40
0.0
 40
0.0
 40
0.0
 40
0.0
 40
0.4834158648
 40
1.0
 40
1.0
 40
1.0
 40
1.0
 10
-39.5328720563
 20
236.8412708962
 30
0.0
 10
-39.532873473
 20
236.2981290815
 30
0.0
 10
-39.360935479
 20
235.1692761421
 30
0.0
 10
-38.8852520336
 20
234.1366485234
 30
0.0
 10
-38.5871402945
 20
233.638649668
 30
0.0
  0
SPLINE
  5
295
100
AcDbEntity
  8
0
100
AcDbSpline
 62
7
  6
CONTINUOUS
 70
0
 71
3
 72
10
 73
6
 74
0
 42
0.0000001
 43
0.0000001
 44
0.0000000001
 40
0.0
 40
0.0
 40
0.0
 40
0.0
 40
0.4513485379
 40
0.71302361
 40
1.0
 40
1.0
 40
1.0
 40
1.0
 10
-38.5871402945
 20
233.638649668
 30
0.0
 10
-38.0420273331
 20
232.7280326231
 30
0.0
 10
-36.8987399972
 20
231.4567097104
 30
0.0
 10
-35.0487033066
 20
230.0060793113
 30
0.0
 10
-33.9560614626
 20
229.3143341255
 30
0.0
 10
-33.3717261669
 20
228.9768329108
 30
0.0
  0
SPLINE
  5
296
100
AcDbEntity
  8
0
100
AcDbSpline
 62
7
  6
CONTINUOUS
 70
0
 71
3
 72
10
 73
6
 74
0
 42
0.0000001
 43
0.0000001
 44
0.0000000001
 40
0.0
 40
0.0
 40
0.0
 40
0.0
 40
0.524656191
 40
0.7697085494
 40
1.0
 40
1.0
 40
1.0
 40
1.0
 10
8.8875374123
 20
252.3235756843
 30
0.0
 10
12.3738240849
 20
251.950637733
 30
0.0
 10
17.4705370564
 20
251.171785511
 30
0.0
 10
23.9721804282
 20
249.6148522825
 30
0.0
 10
27.0131063105
 20
248.6863835538
 30
0.0
 10
28.4676828362
 20
248.1836819644
 30
0.0
  0
SPLINE
  5
297
100
AcDbEntity
  8
0
100
AcDbSpline
 62
7
  6
CONTINUOUS
 70
0
 71
3
 72
21
 73
17
 74
0
 42
0.0000001
 43
0.0000001
 44
0.0000000001
 40
0.0
 40
0.0
 40
0.0
 40
0.0
 40
0.0547788178
 40
0.1154123111
 40
0.1811661354
 40
0.2510853621
 40
0.3988904472
 40
0.5492172534
 40
0.6222151498
 40
0.6921431814
 40
0.7579072203
 40
0.8185560376
 40
0.8733386788
 40
0.9217844343
 40
0.9638263972
 40
1.0
 40
1.0
 40
1.0
 40
1.0
 10
-32.2075034243
 20
228.3433189611
 30
0.0
 10
-31.131401764
 20
227.790989569
 30
0.0
 10
-28.7915308375
 20
226.7669968687
 30
0.0
 10
-24.989417615
 20
225.5099301825
 30
0.0
 10
-20.7767139271
 20
224.472171156
 30
0.0
 10
-14.6075877253
 20
223.3900991532
 30
0.0
 10
-6.4884386638
 20
222.72818041
 30
0.0
 10
1.7210247328
 20
222.9470978559
 30
0.0
 10
8.1587821619
 20
223.6735840136
 30
0.0
 10
12.7007771476
 20
224.470190009
 30
0.0
 10
16.9141815174
 20
225.5071343898
 30
0.0
 10
20.7176527863
 20
226.7640643298
 30
0.0
 10
24.0388449732
 20
228.2162225757
 30
0.0
 10
26.8173580422
 20
229.838401786
 30
0.0
 10
29.0032976114
 20
231.602381658
 30
0.0
 10
30.1113347831
 20
232.9535938957
 30
0.0
 10
30.5215672715
 20
233.6389477768
 30
0.0
  0
SPLINE
  5
298
100
AcDbEntity
  8
0
100
AcDbSpline
 62
7
  6
CONTINUOUS
 70
0
 71
3
 72
9
 73
5
 74
0
 42
0.0000001
 43
0.0000001
 44
0.0000000001
 40
0.0
 40
0.0
 40
0.0
 40
0.0
 40
0.5165736412
 40
1.0
 40
1.0
 40
1.0
 40
1.0
 10
30.5215672715
 20
233.6389477768
 30
0.0
 10
30.8196236351
 20
234.1368948955
 30
0.0
 10
31.2951672059
 20
235.1694507687
 30
0.0
 10
31.4671062753
 20
236.2981744166
 30
0.0
 10
31.4671076919
 20
236.8412708966
 30
0.0
  0
SPLINE
  5
299
100
AcDbEntity
  8
0
100
AcDbSpline
 62
7
  6
CONTINUOUS
 70
0
 71
3
 72
12
 73
8
 74
0
 42
0.0000001
 43
0.0000001
 44
0.0000000001
 40
0.0
 40
0.0
 40
0.0
 40
0.0
 40
0.3075736022
 40
0.5705647601
 40
0.796038144
 40
0.8995109015
 40
1.0
 40
1.0
 40
1.0
 40
1.0
 10
25.3059618024
 20
245.8491881195
 30
0.0
 10
26.2317745334
 20
245.31445588
 30
0.0
 10
27.8912294904
 20
244.2108396948
 30
0.0
 10
29.8937801154
 20
242.2742253592
 30
0.0
 10
30.9803821454
 20
240.4855123328
 30
0.0
 10
31.3984699033
 20
239.0447787286
 30
0.0
 10
31.4671196545
 20
238.3340560031
 30
0.0
 10
31.4671178487
 20
237.9847501339
 30
0.0
  0
SPLINE
  5
29A
100
AcDbEntity
  8
0
100
AcDbSpline
 62
7
  6
CONTINUOUS
 70
0
 71
3
 72
9
 73
5
 74
0
 42
0.0000001
 43
0.0000001
 44
0.0000000001
 40
0.0
 40
0.0
 40
0.0
 40
0.0
 40
0.2488275295
 40
1.0
 40
1.0
 40
1.0
 40
1.0
 10
31.4671178487
 20
237.9847501339
 30
0.0
 10
31.4671173715
 20
237.892433778
 30
0.0
 10
31.4577777846
 20
237.521474757
 30
0.0
 10
31.4107009513
 20
237.1515658449
 30
0.0
 10
31.3555420638
 20
236.8783899349
 30
0.0
  0
SPLINE
  5
29B
100
AcDbEntity
  8
0
100
AcDbSpline
 62
7
  6
CONTINUOUS
 70
0
 71
3
 72
25
 73
21
 74
0
 42
0.0000001
 43
0.0000001
 44
0.0000000001
 40
0.0
 40
0.0
 40
0.0
 40
0.0
 40
0.0159680456
 40
0.0328681783
 40
0.0510448626
 40
0.0707508167
 40
0.1152906488
 40
0.1671005272
 40
0.2259607372
 40
0.2911614118
 40
0.3616598213
 40
0.4361819168
 40
0.5132970771
 40
0.5914803671
 40
0.6691692408
 40
0.7448185261
 40
0.8169558909
 40
0.8842422545
 40
0.945538715
 40
1.0
 40
1.0
 40
1.0
 40
1.0
 10
31.3555420638
 20
236.8783899349
 30
0.0
 10
31.2819666555
 20
236.5140056979
 30
0.0
 10
31.0571678497
 20
235.7772830786
 30
0.0
 10
30.5162457141
 20
234.7136900288
 30
0.0
 10
29.7710300865
 20
233.6734621106
 30
0.0
 10
28.4582489629
 20
232.2680677709
 30
0.0
 10
26.2946002091
 20
230.620004707
 30
0.0
 10
23.1079993288
 20
228.8969324039
 30
0.0
 10
19.2952077618
 20
227.3836246711
 30
0.0
 10
14.9416245565
 20
226.1146686701
 30
0.0
 10
10.1453935894
 20
225.1193136853
 30
0.0
 10
5.0175634497
 20
224.4214820038
 30
0.0
 10
-0.3223429366
 20
224.0379527706
 30
0.0
 10
-5.7492625078
 20
223.9780091391
 30
0.0
 10
-11.135922787
 20
224.2430913801
 30
0.0
 10
-16.3561099899
 20
224.8268116655
 30
0.0
 10
-21.2877417728
 20
225.7150164701
 30
0.0
 10
-25.8167586628
 20
226.8865888164
 30
0.0
 10
-29.8382139656
 20
228.3132264785
 30
0.0
 10
-32.2738323242
 20
229.4861890546
 30
0.0
 10
-33.3717261669
 20
230.1203121484
 30
0.0
  0
SPLINE
  5
29C
100
AcDbEntity
  8
0
100
AcDbSpline
 62
7
  6
CONTINUOUS
 70
0
 71
3
 72
11
 73
7
 74
0
 42
0.0000001
 43
0.0000001
 44
0.0000000001
 40
0.0
 40
0.0
 40
0.0
 40
0.0
 40
0.3016052577
 40
0.5652735414
 40
0.7950686401
 40
1.0
 40
1.0
 40
1.0
 40
1.0
 10
-33.3717261669
 20
230.1203121484
 30
0.0
 10
-34.1828666413
 20
230.5888118221
 30
0.0
 10
-35.6571423869
 20
231.5530318477
 30
0.0
 10
-37.5025690033
 20
233.2124964864
 30
0.0
 10
-38.802474619
 20
234.971617433
 30
0.0
 10
-39.295236806
 20
236.254166765
 30
0.0
 10
-39.4212458697
 20
236.8780391028
 30
0.0
  0
SPLINE
  5
29D
100
AcDbEntity
  8
0
100
AcDbSpline
 62
7
  6
CONTINUOUS
 70
0
 71
3
 72
11
 73
7
 74
0
 42
0.0000001
 43
0.0000001
 44
0.0000000001
 40
0.0
 40
0.0
 40
0.0
 40
0.0
 40
0.2807938531
 40
0.5367053531
 40
0.7737051006
 40
1.0
 40
1.0
 40
1.0
 40
1.0
 10
-57.364466278
 20
233.048827672
 30
0.0
 10
-57.1011227229
 20
233.3137603738
 30
0.0
 10
-56.6288940792
 20
233.8532189513
 30
0.0
 10
-56.0821213063
 20
234.731601003
 30
0.0
 10
-55.7406585072
 20
235.6325235044
 30
0.0
 10
-55.6542327528
 20
236.2492482611
 30
0.0
 10
-55.6478816742
 20
236.5502289014
 30
0.0
  0
SPLINE
  5
29E
100
AcDbEntity
  8
0
100
AcDbSpline
 62
7
  6
CONTINUOUS
 70
0
 71
3
 72
9
 73
5
 74
0
 42
0.0000001
 43
0.0000001
 44
0.0000000001
 40
0.0
 40
0.0
 40
0.0
 40
0.0
 40
0.2450882386
 40
1.0
 40
1.0
 40
1.0
 40
1.0
 10
-57.2164716689
 20
240.0623627394
 30
0.0
 10
-57.1685567853
 20
240.169551339
 30
0.0
 10
-56.9657301112
 20
240.6036026347
 30
0.0
 10
-56.7343036478
 20
241.0241570817
 30
0.0
 10
-56.5461978001
 20
241.3330296595
 30
0.0
  0
SPLINE
  5
29F
100
AcDbEntity
  8
0
100
AcDbSpline
 62
7
  6
CONTINUOUS
 70
0
 71
3
 72
14
 73
10
 74
0
 42
0.0000001
 43
0.0000001
 44
0.0000000001
 40
0.0
 40
0.0
 40
0.0
 40
0.0
 40
0.3192206353
 40
0.4600810105
 40
0.5884010255
 40
0.7048242986
 40
0.8106481398
 40
0.908044054
 40
1.0
 40
1.0
 40
1.0
 40
1.0
 10
-56.5461978001
 20
241.3330296595
 30
0.0
 10
-55.5692902789
 20
241.7330108519
 30
0.0
 10
-54.1894347185
 20
242.392141036
 30
0.0
 10
-52.5585049932
 20
243.4578989398
 30
0.0
 10
-51.5668270083
 20
244.2639302801
 30
0.0
 10
-50.7629755162
 20
245.1042546156
 30
0.0
 10
-50.1542710444
 20
245.9746071166
 30
0.0
 10
-49.7485652746
 20
246.869158954
 30
0.0
 10
-49.6164015376
 20
247.4876202339
 30
0.0
 10
-49.5883174165
 20
247.7904065757
 30
0.0
  0
SPLINE
  5
2A0
100
AcDbEntity
  8
0
100
AcDbSpline
 62
7
  6
CONTINUOUS
 70
0
 71
3
 72
11
 73
7
 74
0
 42
0.0000001
 43
0.0000001
 44
0.0000000001
 40
0.0
 40
0.0
 40
0.0
 40
0.0
 40
0.2962824674
 40
0.5650399123
 40
0.8006099316
 40
1.0
 40
1.0
 40
1.0
 40
1.0
 10
-47.7332530537
 20
248.8634219127
 30
0.0
 10
-46.393700736
 20
249.0941228674
 30
0.0
 10
-43.8546849009
 20
249.6351290783
 30
0.0
 10
-40.3450472166
 20
250.742551802
 30
0.0
 10
-37.3960138252
 20
252.0758267167
 30
0.0
 10
-35.7183761395
 20
253.18518034
 30
0.0
 10
-35.0247611108
 20
253.7815635785
 30
0.0
  0
SPLINE
  5
2A1
100
AcDbEntity
  8
0
100
AcDbSpline
 62
7
  6
CONTINUOUS
 70
0
 71
3
 72
11
 73
7
 74
0
 42
0.0000001
 43
0.0000001
 44
0.0000000001
 40
0.0
 40
0.0
 40
0.0
 40
0.0
 40
0.2693776637
 40
0.5304098655
 40
0.7760324187
 40
1.0
 40
1.0
 40
1.0
 40
1.0
 10
-32.2673229871
 20
254.4935704742
 30
0.0
 10
-30.7584738572
 20
254.5053713483
 30
0.0
 10
-27.7872096502
 20
254.6338275908
 30
0.0
 10
-23.465677084
 20
255.1397990467
 30
0.0
 10
-19.4476398014
 20
255.9402549967
 30
0.0
 10
-16.9211671771
 20
256.6927891011
 30
0.0
 10
-15.7429721802
 20
257.123734404
 30
0.0
  0
SPLINE
  5
2A2
100
AcDbEntity
  8
0
100
AcDbSpline
 62
7
  6
CONTINUOUS
 70
0
 71
3
 72
11
 73
7
 74
0
 42
0.0000001
 43
0.0000001
 44
0.0000000001
 40
0.0
 40
0.0
 40
0.0
 40
0.0
 40
0.2459924415
 40
0.4993585067
 40
0.7530492467
 40
1.0
 40
1.0
 40
1.0
 40
1.0
 10
-12.5029552537
 20
257.3663362629
 30
0.0
 10
-11.0536029158
 20
257.1432879124
 30
0.0
 10
-8.0919377896
 20
256.8110395838
 30
0.0
 10
-3.6025655195
 20
256.6373468134
 30
0.0
 10
0.8935427133
 20
256.7820943985
 30
0.0
 10
3.8649730821
 20
257.0948435021
 30
0.0
 10
5.3215718003
 20
257.3081038409
 30
0.0
  0
SPLINE
  5
2A3
100
AcDbEntity
  8
0
100
AcDbSpline
 62
7
  6
CONTINUOUS
 70
0
 71
3
 72
11
 73
7
 74
0
 42
0.0000001
 43
0.0000001
 44
0.0000000001
 40
0.0
 40
0.0
 40
0.0
 40
0.0
 40
0.2229608528
 40
0.4682127245
 40
0.729574214
 40
1.0
 40
1.0
 40
1.0
 40
1.0
 10
8.5509043234
 20
257.0443667292
 30
0.0
 10
9.7125922435
 20
256.605086891
 30
0.0
 10
12.2108094288
 20
255.8354099697
 30
0.0
 10
16.1945883657
 20
255.0093110859
 30
0.0
 10
20.4942014528
 20
254.4756158622
 30
0.0
 10
23.455775857
 20
254.3282328765
 30
0.0
 10
24.9619849603
 20
254.3066033138
 30
0.0
  0
SPLINE
  5
2A4
100
AcDbEntity
  8
0
100
AcDbSpline
 62
7
  6
CONTINUOUS
 70
0
 71
3
 72
11
 73
7
 74
0
 42
0.0000001
 43
0.0000001
 44
0.0000000001
 40
0.0
 40
0.0
 40
0.0
 40
0.0
 40
0.1983734068
 40
0.4334412975
 40
0.7024926691
 40
1.0
 40
1.0
 40
1.0
 40
1.0
 10
27.6889964773
 20
253.5766788159
 30
0.0
 10
28.357969364
 20
252.9752880996
 30
0.0
 10
29.9919732845
 20
251.853341769
 30
0.0
 10
32.8854601124
 20
250.501346406
 30
0.0
 10
36.3483666948
 20
249.371602664
 30
0.0
 10
38.8604556736
 20
248.8152639116
 30
0.0
 10
40.188192437
 20
248.5761840692
 30
0.0
  0
SPLINE
  5
2A5
100
AcDbEntity
  8
0
100
AcDbSpline
 62
7
  6
CONTINUOUS
 70
0
 71
3
 72
14
 73
10
 74
0
 42
0.0000001
 43
0.0000001
 44
0.0000000001
 40
0.0
 40
0.0
 40
0.0
 40
0.0
 40
0.0927237392
 40
0.1903140672
 40
0.2959621408
 40
0.4120382411
 40
0.5400018966
 40
0.6806183096
 40
1.0
 40
1.0
 40
1.0
 40
1.0
 10
41.9977201649
 20
247.4911965731
 30
0.0
 10
42.0129629546
 20
247.1894557903
 30
0.0
 10
42.1181851434
 20
246.5718824542
 30
0.0
 10
42.4860724671
 20
245.673508231
 30
0.0
 10
43.0584166821
 20
244.7982507953
 30
0.0
 10
43.8272406598
 20
243.9521575704
 30
0.0
 10
44.7852313885
 20
243.1394431945
 30
0.0
 10
46.3726491007
 20
242.0621919054
 30
0.0
 10
47.7238051486
 20
241.394900231
 30
0.0
 10
48.6821421679
 20
240.9892504907
 30
0.0
  0
SPLINE
  5
2A6
100
AcDbEntity
  8
0
100
AcDbSpline
 62
7
  6
CONTINUOUS
 70
0
 71
3
 72
9
 73
5
 74
0
 42
0.0000001
 43
0.0000001
 44
0.0000000001
 40
0.0
 40
0.0
 40
0.0
 40
0.0
 40
0.2549848652
 40
1.0
 40
1.0
 40
1.0
 40
1.0
 10
48.6821421679
 20
240.9892504907
 30
0.0
 10
48.741339072
 20
240.8843947698
 30
0.0
 10
48.9671785722
 20
240.4696521689
 30
0.0
 10
49.1670191488
 20
240.040625526
 30
0.0
 10
49.2987019135
 20
239.7143795074
 30
0.0
  0
SPLINE
  5
2A7
100
AcDbEntity
  8
0
100
AcDbSpline
 62
7
  6
CONTINUOUS
 70
0
 71
3
 72
13
 73
9
 74
0
 42
0.0000001
 43
0.0000001
 44
0.0000000001
 40
0.0
 40
0.0
 40
0.0
 40
0.0
 40
0.0997029847
 40
0.2088135529
 40
0.3264914669
 40
0.4516718585
 40
0.7192358229
 40
1.0
 40
1.0
 40
1.0
 40
1.0
 10
-32.1640220721
 20
228.3041156295
 30
0.0
 10
-31.3259711776
 20
227.8522395836
 30
0.0
 10
-29.5199923667
 20
226.9987828812
 30
0.0
 10
-26.5977718628
 20
225.9041060966
 30
0.0
 10
-23.3725507099
 20
224.9490110132
 30
0.0
 10
-18.6200033359
 20
223.8552457493
 30
0.0
 10
-12.2414985301
 20
222.9409143591
 30
0.0
 10
-7.0031638924
 20
222.6880110467
 30
0.0
 10
-4.3220194259
 20
222.679251794
 30
0.0
  0
SPLINE
  5
2A8
100
AcDbEntity
  8
0
100
AcDbSpline
 62
7
  6
CONTINUOUS
 70
0
 71
3
 72
13
 73
9
 74
0
 42
0.0000001
 43
0.0000001
 44
0.0000000001
 40
0.0
 40
0.0
 40
0.0
 40
0.0
 40
0.2816244475
 40
0.5500122011
 40
0.6753137724
 40
0.7927927591
 40
0.9013074564
 40
1.0
 40
1.0
 40
1.0
 40
1.0
 10
-4.3220194259
 20
222.679251794
 30
0.0
 10
-1.542733406
 20
222.6701719146
 30
0.0
 10
3.8891611551
 20
222.905650836
 30
0.0
 10
10.5013652394
 20
223.8396389194
 30
0.0
 10
15.4192256784
 20
224.9758932434
 30
0.0
 10
18.7428503337
 20
225.9721185996
 30
0.0
 10
21.7389489435
 20
227.1167519349
 30
0.0
 10
23.5816089016
 20
228.0124979701
 30
0.0
 10
24.4320339421
 20
228.4872738696
 30
0.0
  0
SPLINE
  5
2A9
100
AcDbEntity
  8
0
100
AcDbSpline
 62
7
  6
CONTINUOUS
 70
0
 71
3
 72
11
 73
7
 74
0
 42
0.0000001
 43
0.0000001
 44
0.0000000001
 40
0.0
 40
0.0
 40
0.0
 40
0.0
 40
0.2205374539
 40
0.4635509132
 40
0.7249834981
 40
1.0
 40
1.0
 40
1.0
 40
1.0
 10
-40.8929778155
 20
223.412359304
 30
0.0
 10
-39.0942120937
 20
222.620793384
 30
0.0
 10
-35.2127299402
 20
221.1824568859
 30
0.0
 10
-28.9705462716
 20
219.4921951618
 30
0.0
 10
-22.1409176684
 20
218.1944035872
 30
0.0
 10
-17.3909304287
 20
217.6226101384
 30
0.0
 10
-14.9498909898
 20
217.4052262785
 30
0.0
  0
SPLINE
  5
2AA
100
AcDbEntity
  8
0
100
AcDbSpline
 62
7
  6
CONTINUOUS
 70
0
 71
3
 72
11
 73
7
 74
0
 42
0.0000001
 43
0.0000001
 44
0.0000000001
 40
0.0
 40
0.0
 40
0.0
 40
0.0
 40
0.2725481111
 40
0.5320583416
 40
0.7754642399
 40
1.0
 40
1.0
 40
1.0
 40
1.0
 10
8.9032391442
 20
252.2282039806
 30
0.0
 10
10.577983415
 20
252.0165239454
 30
0.0
 10
13.8372484377
 20
251.5165435068
 30
0.0
 10
18.5368529928
 20
250.5109765666
 30
0.0
 10
22.874918852
 20
249.2814934791
 30
0.0
 10
25.5996892622
 20
248.2820849603
 30
0.0
 10
26.8812891054
 20
247.7421404706
 30
0.0
  0
LINE
  5
2AB
100
AcDbEntity
  8
0
100
AcDbLine
 62
7
  6
CONTINUOUS
 10
49.1507073045
 20
232.70084444
 11
49.4443104756
 21
217.7263707613
  0
LINE
  5
2AC
100
AcDbEntity
  8
0
100
AcDbLine
 62
7
  6
CONTINUOUS
 10
49.5918138922
 20
224.716628001
 11
49.4356786912
 21
232.7064104947
  0
LINE
  5
2AD
100
AcDbEntity
  8
0
100
AcDbLine
 62
7
  6
CONTINUOUS
 10
49.4356786912
 20
232.7064104947
 11
49.2987019135
 21
239.7143795074
  0
SPLINE
  5
2AE
100
AcDbEntity
  8
0
100
AcDbSpline
 62
7
  6
CONTINUOUS
 70
0
 71
3
 72
20
 73
16
 74
0
 42
0.0000001
 43
0.0000001
 44
0.0000000001
 40
0.0
 40
0.0
 40
0.0
 40
0.0
 40
0.0339848099
 40
0.0695558094
 40
0.1081678667
 40
0.1508646376
 40
0.1982877183
 40
0.250751405
 40
0.3083192259
 40
0.3708666475
 40
0.4381273579
 40
0.5097237984
 40
0.6639425054
 40
0.8290907538
 40
1.0
 40
1.0
 40
1.0
 40
1.0
 10
-58.3681735863
 20
218.7981731273
 30
0.0
 10
-58.381506733
 20
218.0959931214
 30
0.0
 10
-58.2246152729
 20
216.6494648734
 30
0.0
 10
-57.4491492432
 20
214.5333705595
 30
0.0
 10
-56.1554459743
 20
212.4760890848
 30
0.0
 10
-54.3662056793
 20
210.4932262337
 30
0.0
 10
-52.1014518642
 20
208.5963259417
 30
0.0
 10
-49.3822232809
 20
206.7990875379
 30
0.0
 10
-46.2330708083
 20
205.1160478076
 30
0.0
 10
-42.6827419226
 20
203.5620838498
 30
0.0
 10
-38.7640674847
 20
202.1514335481
 30
0.0
 10
-32.9521780372
 20
200.4375933557
 30
0.0
 10
-25.0317136335
 20
198.7738381668
 30
0.0
 10
-14.9630613311
 20
197.5576396013
 30
0.0
 10
-8.0158917866
 20
197.2704268203
 30
0.0
 10
-4.4840183346
 20
197.2588882507
 30
0.0
  0
SPLINE
  5
2AF
100
AcDbEntity
  8
0
100
AcDbSpline
 62
7
  6
CONTINUOUS
 70
0
 71
3
 72
9
 73
5
 74
0
 42
0.0000001
 43
0.0000001
 44
0.0000000001
 40
0.0
 40
0.0
 40
0.0
 40
0.0
 40
0.4906289182
 40
1.0
 40
1.0
 40
1.0
 40
1.0
 10
-58.315898792
 20
221.5560232928
 30
0.0
 10
-58.3047869945
 20
222.1412554565
 30
0.0
 10
-58.1554931548
 20
223.334677787
 30
0.0
 10
-57.7707228024
 20
224.4724392319
 30
0.0
 10
-57.5266381443
 20
225.0289634306
 30
0.0
  0
SPLINE
  5
2B0
100
AcDbEntity
  8
0
100
AcDbSpline
 62
7
  6
CONTINUOUS
 70
0
 71
3
 72
9
 73
5
 74
0
 42
0.0000001
 43
0.0000001
 44
0.0000000001
 40
0.0
 40
0.0
 40
0.0
 40
0.0
 40
0.5078612271
 40
1.0
 40
1.0
 40
1.0
 40
1.0
 10
49.5918138929
 20
224.7166279993
 30
0.0
 10
49.795590919
 20
224.2070665886
 30
0.0
 10
50.1155575768
 20
223.1684490464
 30
0.0
 10
50.2400358927
 20
222.0877344554
 30
0.0
 10
50.2501338074
 20
221.5560232957
 30
0.0
  0
SPLINE
  5
2B1
100
AcDbEntity
  8
0
100
AcDbSpline
 62
7
  6
CONTINUOUS
 70
0
 71
3
 72
11
 73
7
 74
0
 42
0.0000001
 43
0.0000001
 44
0.0000000001
 40
0.0
 40
0.0
 40
0.0
 40
0.0
 40
0.2279980326
 40
0.4658312084
 40
0.7212546687
 40
1.0
 40
1.0
 40
1.0
 40
1.0
 10
47.5819599512
 20
236.0578169703
 30
0.0
 10
47.5874453791
 20
235.7700414978
 30
0.0
 10
47.665428013
 20
235.1815020696
 30
0.0
 10
47.9763059379
 20
234.3193838406
 30
0.0
 10
48.475641547
 20
233.4767926251
 30
0.0
 10
48.9089267008
 20
232.9565199913
 30
0.0
 10
49.1507073045
 20
232.70084444
 30
0.0
  0
LINE
  5
2B2
100
AcDbEntity
  8
0
100
AcDbLine
 62
7
  6
CONTINUOUS
 10
-57.2164716689
 20
240.0623627394
 11
-57.3538087421
 21
233.0486156734
  0
LINE
  5
2B3
100
AcDbEntity
  8
0
100
AcDbLine
 62
7
  6
CONTINUOUS
 10
-57.6575782567
 20
218.0762707805
 11
-57.364466278
 21
233.048827672
  0
SPLINE
  5
2B4
100
AcDbEntity
  8
0
100
AcDbSpline
 62
7
  6
CONTINUOUS
 70
0
 71
3
 72
20
 73
16
 74
0
 42
0.0000001
 43
0.0000001
 44
0.0000000001
 40
0.0
 40
0.0
 40
0.0
 40
0.0
 40
0.1704562253
 40
0.335517826
 40
0.4898927911
 40
0.5616184488
 40
0.6290211099
 40
0.6917074404
 40
0.7493966604
 40
0.8019512707
 40
0.8494229879
 40
0.892117709
 40
0.9306746968
 40
0.9661443104
 40
1.0
 40
1.0
 40
1.0
 40
1.0
 10
-4.4840183346
 20
197.2588882507
 30
0.0
 10
-0.9102832473
 20
197.2472129199
 30
0.0
 10
6.1283692784
 20
197.4953030714
 30
0.0
 10
16.3423321464
 20
198.6705056855
 30
0.0
 10
24.3912140203
 20
200.315194153
 30
0.0
 10
30.3057803555
 20
202.0236961322
 30
0.0
 10
34.2975370226
 20
203.4353196499
 30
0.0
 10
37.9162308469
 20
204.9945013808
 30
0.0
 10
41.1276783498
 20
206.6866161562
 30
0.0
 10
43.9019652277
 20
208.4963219306
 30
0.0
 10
46.2135223349
 20
210.4086693629
 30
0.0
 10
48.0405022415
 20
212.4095548055
 30
0.0
 10
49.3622118236
 20
214.4871575888
 30
0.0
 10
50.1551898018
 20
216.625635411
 30
0.0
 10
50.3158683378
 20
218.0884884507
 30
0.0
 10
50.3024141796
 20
218.7981731493
 30
0.0
  0
SPLINE
  5
2B5
100
AcDbEntity
  8
0
100
AcDbSpline
 62
7
  6
CONTINUOUS
 70
0
 71
3
 72
11
 73
7
 74
0
 42
0.0000001
 43
0.0000001
 44
0.0000000001
 40
0.0
 40
0.0
 40
0.0
 40
0.0
 40
0.2231419882
 40
0.466501978
 40
0.7267432119
 40
1.0
 40
1.0
 40
1.0
 40
1.0
 10
-34.9470534699
 20
222.2630628685
 30
0.0
 10
-33.5335770769
 20
221.667558122
 30
0.0
 10
-30.5129903086
 20
220.5758190598
 30
0.0
 10
-25.6885625221
 20
219.2639184113
 30
0.0
 10
-20.4467284243
 20
218.2255557312
 30
0.0
 10
-16.8095357171
 20
217.7387498532
 30
0.0
 10
-14.9415417791
 20
217.5425322276
 30
0.0
  0
SPLINE
  5
2B6
100
AcDbEntity
  8
0
100
AcDbSpline
 62
7
  6
CONTINUOUS
 70
0
 71
3
 72
9
 73
5
 74
0
 42
0.0000001
 43
0.0000001
 44
0.0000000001
 40
0.0
 40
0.0
 40
0.0
 40
0.0
 40
0.4862848133
 40
1.0
 40
1.0
 40
1.0
 40
1.0
 10
24.284149355
 20
203.1731081875
 30
0.0
 10
21.6541303103
 20
202.5403809561
 30
0.0
 10
16.188373459
 20
201.4718526372
 30
0.0
 10
10.6612884447
 20
200.802170287
 30
0.0
 10
7.8146426501
 20
200.551673737
 30
0.0
  0
LINE
  5
2B7
100
AcDbEntity
  8
0
100
AcDbLine
 62
7
  6
CONTINUOUS
 10
27.1857992306
 20
203.9223524601
 11
26.9589967463
 21
218.9816436009
  0
LINE
  5
2B8
100
AcDbEntity
  8
0
100
AcDbLine
 62
7
  6
CONTINUOUS
 10
39.6674886893
 20
223.8997852667
 11
39.8521118537
 21
208.8241708778
  0
SPLINE
  5
2B9
100
AcDbEntity
  8
0
100
AcDbSpline
 62
7
  6
CONTINUOUS
 70
0
 71
3
 72
11
 73
7
 74
0
 42
0.0000001
 43
0.0000001
 44
0.0000000001
 40
0.0
 40
0.0
 40
0.0
 40
0.0
 40
0.1989591698
 40
0.4344207421
 40
0.703357166
 40
1.0
 40
1.0
 40
1.0
 40
1.0
 10
27.18579923
 20
203.9223524596
 30
0.0
 10
27.8733160751
 20
204.5183896914
 30
0.0
 10
29.5416185861
 20
205.6266680968
 30
0.0
 10
32.4794584766
 20
206.9563017392
 30
0.0
 10
35.9806756211
 20
208.058963574
 30
0.0
 10
38.5148153494
 20
208.5958078873
 30
0.0
 10
39.8521118563
 20
208.8241708782
 30
0.0
  0
SPLINE
  5
2BA
100
AcDbEntity
  8
0
100
AcDbSpline
 62
7
  6
CONTINUOUS
 70
0
 71
3
 72
9
 73
5
 74
0
 42
0.0000001
 43
0.0000001
 44
0.0000000001
 40
0.0
 40
0.0
 40
0.0
 40
0.0
 40
0.4703137307
 40
1.0
 40
1.0
 40
1.0
 40
1.0
 10
39.8521118563
 20
208.8241708782
 30
0.0
 10
37.9760445237
 20
207.8102866053
 30
0.0
 10
33.8228913258
 20
205.9558777004
 30
0.0
 10
29.5005954772
 20
204.5626332903
 30
0.0
 10
27.18579923
 20
203.9223524596
 30
0.0
  0
LINE
  5
2BB
100
AcDbEntity
  8
0
100
AcDbLine
 62
7
  6
CONTINUOUS
 10
41.8041945632
 20
209.9533040375
 11
41.5225530521
 21
224.9728006037
  0
LINE
  5
2BC
100
AcDbEntity
  8
0
100
AcDbLine
 62
7
  6
CONTINUOUS
 10
48.4804334356
 20
231.4301775199
 11
48.7389818318
 21
216.3892490037
  0
SPLINE
  5
2BD
100
AcDbEntity
  8
0
100
AcDbSpline
 62
7
  6
CONTINUOUS
 70
0
 71
3
 72
14
 73
10
 74
0
 42
0.0000001
 43
0.0000001
 44
0.0000000001
 40
0.0
 40
0.0
 40
0.0
 40
0.0
 40
0.0918115638
 40
0.1890170937
 40
0.2946733367
 40
0.4109998776
 40
0.5393191875
 40
0.6802834027
 40
1.0
 40
1.0
 40
1.0
 40
1.0
 10
41.8041945632
 20
209.9533040369
 30
0.0
 10
41.8297926035
 20
210.2550608281
 30
0.0
 10
41.9572676906
 20
210.871873319
 30
0.0
 10
42.3576072082
 20
211.7644562605
 30
0.0
 10
42.9622178869
 20
212.6326863297
 30
0.0
 10
43.7630824012
 20
213.4706759829
 30
0.0
 10
44.7527628133
 20
214.2741387539
 30
0.0
 10
46.3826120638
 20
215.3362144413
 30
0.0
 10
47.7621625386
 20
215.99178825
 30
0.0
 10
48.7389818338
 20
216.3892490045
 30
0.0
  0
SPLINE
  5
2BE
100
AcDbEntity
  8
0
100
AcDbSpline
 62
7
  6
CONTINUOUS
 70
0
 71
3
 72
10
 73
6
 74
0
 42
0.0000001
 43
0.0000001
 44
0.0000000001
 40
0.0
 40
0.0
 40
0.0
 40
0.0
 40
0.4561755514
 40
0.7166039672
 40
1.0
 40
1.0
 40
1.0
 40
1.0
 10
48.7389818338
 20
216.3892490045
 30
0.0
 10
47.9818435113
 20
215.1538119987
 30
0.0
 10
46.4558049088
 20
213.4156814883
 30
0.0
 10
44.0036908134
 20
211.3964961045
 30
0.0
 10
42.5691968444
 20
210.4277340369
 30
0.0
 10
41.8041945632
 20
209.9533040369
 30
0.0
  0
SPLINE
  5
2BF
100
AcDbEntity
  8
0
100
AcDbSpline
 62
7
  6
CONTINUOUS
 70
0
 71
3
 72
11
 73
7
 74
0
 42
0.0000001
 43
0.0000001
 44
0.0000000001
 40
0.0
 40
0.0
 40
0.0
 40
0.0
 40
0.2807938531
 40
0.5367053531
 40
0.7737051006
 40
1.0
 40
1.0
 40
1.0
 40
1.0
 10
49.2987019135
 20
239.7143795074
 30
0.0
 10
49.0353583584
 20
239.4494468056
 30
0.0
 10
48.5631297147
 20
238.9099882281
 30
0.0
 10
48.0163569419
 20
238.0316061764
 30
0.0
 10
47.6748941427
 20
237.130683675
 30
0.0
 10
47.5884683883
 20
236.5139589183
 30
0.0
 10
47.5821173098
 20
236.212978278
 30
0.0
  0
SPLINE
  5
2C0
100
AcDbEntity
  8
0
100
AcDbSpline
 62
7
  6
CONTINUOUS
 70
0
 71
3
 72
9
 73
5
 74
0
 42
0.0000001
 43
0.0000001
 44
0.0000000001
 40
0.0
 40
0.0
 40
0.0
 40
0.0
 40
0.2450882386
 40
1.0
 40
1.0
 40
1.0
 40
1.0
 10
49.1507073045
 20
232.70084444
 30
0.0
 10
49.1027924209
 20
232.5936558403
 30
0.0
 10
48.8999657467
 20
232.1596045446
 30
0.0
 10
48.6685392834
 20
231.7390500977
 30
0.0
 10
48.4804334356
 20
231.4301775199
 30
0.0
  0
SPLINE
  5
2C1
100
AcDbEntity
  8
0
100
AcDbSpline
 62
7
  6
CONTINUOUS
 70
0
 71
3
 72
14
 73
10
 74
0
 42
0.0000001
 43
0.0000001
 44
0.0000000001
 40
0.0
 40
0.0
 40
0.0
 40
0.0
 40
0.3192206353
 40
0.4600810105
 40
0.5884010255
 40
0.7048242986
 40
0.8106481398
 40
0.908044054
 40
1.0
 40
1.0
 40
1.0
 40
1.0
 10
48.4804334356
 20
231.4301775199
 30
0.0
 10
47.5035259144
 20
231.0301963275
 30
0.0
 10
46.1236703541
 20
230.3710661434
 30
0.0
 10
44.4927406287
 20
229.3053082396
 30
0.0
 10
43.5010626438
 20
228.4992768993
 30
0.0
 10
42.6972111517
 20
227.6589525638
 30
0.0
 10
42.08850668
 20
226.7886000628
 30
0.0
 10
41.6828009101
 20
225.8940482254
 30
0.0
 10
41.5506371731
 20
225.2755869455
 30
0.0
 10
41.5225530521
 20
224.9728006037
 30
0.0
  0
SPLINE
  5
2C2
100
AcDbEntity
  8
0
100
AcDbSpline
 62
7
  6
CONTINUOUS
 70
0
 71
3
 72
9
 73
5
 74
0
 42
0.0000001
 43
0.0000001
 44
0.0000000001
 40
0.0
 40
0.0
 40
0.0
 40
0.0
 40
0.4903794153
 40
1.0
 40
1.0
 40
1.0
 40
1.0
 10
50.2501338074
 20
221.5560232957
 30
0.0
 10
50.2623542728
 20
220.9125480839
 30
0.0
 10
50.1336614127
 20
219.5932617641
 30
0.0
 10
49.7153542269
 20
218.3378342726
 30
0.0
 10
49.4443104759
 20
217.7263707621
 30
0.0
  0
SPLINE
  5
2C3
100
AcDbEntity
  8
0
100
AcDbSpline
 62
7
  6
CONTINUOUS
 70
0
 71
3
 72
11
 73
7
 74
0
 42
0.0000001
 43
0.0000001
 44
0.0000000001
 40
0.0
 40
0.0
 40
0.0
 40
0.0
 40
0.2962824674
 40
0.5650399123
 40
0.8006099316
 40
1.0
 40
1.0
 40
1.0
 40
1.0
 10
39.6674886893
 20
223.8997852667
 30
0.0
 10
38.3279363715
 20
223.669084312
 30
0.0
 10
35.7889205364
 20
223.1280781011
 30
0.0
 10
32.2792828521
 20
222.0206553774
 30
0.0
 10
29.3302494608
 20
220.6873804627
 30
0.0
 10
27.652611775
 20
219.5780268394
 30
0.0
 10
26.9589967463
 20
218.9816436009
 30
0.0
  0
LINE
  5
2C4
100
AcDbEntity
  8
0
100
AcDbLine
 62
7
  6
CONTINUOUS
 10
-56.7479065324
 20
231.7739566887
 11
-57.0087729434
 21
216.7347250933
  0
LINE
  5
2C5
100
AcDbEntity
  8
0
100
AcDbLine
 62
7
  6
CONTINUOUS
 10
-50.3465364458
 20
210.2543588817
 11
-50.0634845293
 21
225.2720106062
  0
LINE
  5
2C6
100
AcDbEntity
  8
0
100
AcDbLine
 62
7
  6
CONTINUOUS
 10
-48.2539568015
 20
224.1870231102
 11
-48.4423719074
 21
209.1126274328
  0
LINE
  5
2C7
100
AcDbEntity
  8
0
100
AcDbLine
 62
7
  6
CONTINUOUS
 10
-35.9846606056
 20
204.128729259
 11
-35.7547608418
 21
219.1865283635
  0
LINE
  5
2C8
100
AcDbEntity
  8
0
100
AcDbLine
 62
7
  6
CONTINUOUS
 10
-33.0277493248
 20
218.4566038656
 11
-33.1150286311
 21
203.3606303108
  0
LINE
  5
2C9
100
AcDbEntity
  8
0
100
AcDbLine
 62
7
  6
CONTINUOUS
 10
-16.7584161478
 20
200.6319534951
 11
-16.6166686878
 21
215.7188404502
  0
LINE
  5
2CA
100
AcDbEntity
  8
0
100
AcDbLine
 62
7
  6
CONTINUOUS
 10
-13.3873361648
 20
215.4551033384
 11
-13.3601921898
 21
200.3544231494
  0
SPLINE
  5
2CB
100
AcDbEntity
  8
0
100
AcDbSpline
 62
7
  6
CONTINUOUS
 70
0
 71
3
 72
11
 73
7
 74
0
 42
0.0000001
 43
0.0000001
 44
0.0000000001
 40
0.0
 40
0.0
 40
0.0
 40
0.0
 40
0.2693776637
 40
0.5304098655
 40
0.7760324187
 40
1.0
 40
1.0
 40
1.0
 40
1.0
 10
24.2015586226
 20
218.2696367052
 30
0.0
 10
22.6927094927
 20
218.2578358311
 30
0.0
 10
19.7214452857
 20
218.1293795886
 30
0.0
 10
15.3999127196
 20
217.6234081327
 30
0.0
 10
11.3818754369
 20
216.8229521827
 30
0.0
 10
8.8554028127
 20
216.0704180783
 30
0.0
 10
7.6772078157
 20
215.6394727754
 30
0.0
  0
LINE
  5
2CC
100
AcDbEntity
  8
0
100
AcDbLine
 62
7
  6
CONTINUOUS
 10
6.8856004865
 20
255.3579532951
 11
6.8905920814
 21
252.6204382118
  0
SPLINE
  5
2CD
100
AcDbEntity
  8
0
100
AcDbSpline
 62
7
  6
CONTINUOUS
 70
0
 71
3
 72
11
 73
7
 74
0
 42
0.0000001
 43
0.0000001
 44
0.0000000001
 40
0.0
 40
0.0
 40
0.0
 40
0.0
 40
0.2734228225
 40
0.5339058338
 40
0.777278569
 40
1.0
 40
1.0
 40
1.0
 40
1.0
 10
-14.2627910858
 20
220.2316091165
 30
0.0
 10
-16.1950793538
 20
220.4211091191
 30
0.0
 10
-19.9585883915
 20
220.9009778204
 30
0.0
 10
-25.3821122076
 20
221.9473566958
 30
0.0
 10
-30.3698062133
 20
223.2849762177
 30
0.0
 10
-33.4895903374
 20
224.4070301267
 30
0.0
 10
-34.9470534699
 20
225.0210667088
 30
0.0
  0
SPLINE
  5
2CE
100
AcDbEntity
  8
0
100
AcDbSpline
 62
7
  6
CONTINUOUS
 70
0
 71
3
 72
11
 73
7
 74
0
 42
0.0000001
 43
0.0000001
 44
0.0000000001
 40
0.0
 40
0.0
 40
0.0
 40
0.0
 40
0.2205374934
 40
0.463550993
 40
0.724983653
 40
1.0
 40
1.0
 40
1.0
 40
1.0
 10
32.8272134509
 20
249.3508478754
 30
0.0
 10
31.0284474847
 20
250.1424139028
 30
0.0
 10
27.1469646981
 20
251.5807499534
 30
0.0
 10
20.9047804201
 20
253.2710145807
 30
0.0
 10
14.0751511694
 20
254.5687973472
 30
0.0
 10
9.3251667935
 20
255.140606264
 30
0.0
 10
6.884128835
 20
255.3579899854
 30
0.0
  0
SPLINE
  5
2CF
100
AcDbEntity
  8
0
100
AcDbSpline
 62
7
  6
CONTINUOUS
 70
0
 71
3
 72
9
 73
5
 74
0
 42
0.0000001
 43
0.0000001
 44
0.0000000001
 40
0.0
 40
0.0
 40
0.0
 40
0.0
 40
0.5079163075
 40
1.0
 40
1.0
 40
1.0
 40
1.0
 10
-57.6575782573
 20
218.0762707823
 30
0.0
 10
-57.8813469656
 20
218.6358230576
 30
0.0
 10
-58.2239373988
 20
219.7804734217
 30
0.0
 10
-58.3269823799
 20
220.9722768622
 30
0.0
 10
-58.315898792
 20
221.5560232928
 30
0.0
  0
SPLINE
  5
2D0
100
AcDbEntity
  8
0
100
AcDbSpline
 62
7
  6
CONTINUOUS
 70
0
 71
3
 72
14
 73
10
 74
0
 42
0.0000001
 43
0.0000001
 44
0.0000000001
 40
0.0
 40
0.0
 40
0.0
 40
0.0
 40
0.3198751805
 40
0.460590619
 40
0.5885476125
 40
0.7045217228
 40
0.810000457
 40
0.9074056884
 40
1.0
 40
1.0
 40
1.0
 40
1.0
 10
-57.0087729428
 20
216.7347250925
 30
0.0
 10
-56.0504316674
 20
216.3315977622
 30
0.0
 10
-54.6994410632
 20
215.6678725672
 30
0.0
 10
-53.1129305729
 20
214.5943040007
 30
0.0
 10
-52.1568226651
 20
213.7841677106
 30
0.0
 10
-51.3908786869
 20
212.9404179454
 30
0.0
 10
-50.8225344444
 20
212.0672894358
 30
0.0
 10
-50.4599436903
 20
211.1708999926
 30
0.0
 10
-50.3593458235
 20
210.5550417947
 30
0.0
 10
-50.3465364481
 20
210.2543588832
 30
0.0
  0
SPLINE
  5
2D1
100
AcDbEntity
  8
0
100
AcDbSpline
 62
7
  6
CONTINUOUS
 70
0
 71
3
 72
10
 73
6
 74
0
 42
0.0000001
 43
0.0000001
 44
0.0000000001
 40
0.0
 40
0.0
 40
0.0
 40
0.0
 40
0.2835607325
 40
0.5439075884
 40
1.0
 40
1.0
 40
1.0
 40
1.0
 10
-50.3465364481
 20
210.2543588832
 30
0.0
 10
-51.0909663227
 20
210.7334345089
 30
0.0
 10
-52.4839365126
 20
211.7110691248
 30
0.0
 10
-54.8514388838
 20
213.7463826906
 30
0.0
 10
-56.3051790209
 20
215.4968076656
 30
0.0
 10
-57.0087729428
 20
216.7347250925
 30
0.0
  0
SPLINE
  5
2D2
100
AcDbEntity
  8
0
100
AcDbSpline
 62
7
  6
CONTINUOUS
 70
0
 71
3
 72
10
 73
6
 74
0
 42
0.0000001
 43
0.0000001
 44
0.0000000001
 40
0.0
 40
0.0
 40
0.0
 40
0.0
 40
0.535882496
 40
0.7780415026
 40
1.0
 40
1.0
 40
1.0
 40
1.0
 10
-48.4423719044
 20
209.1126274313
 30
0.0
 10
-46.7453672264
 20
208.8095658336
 30
0.0
 10
-44.2983935726
 20
208.2441228251
 30
0.0
 10
-41.2551272459
 20
207.1950257184
 30
0.0
 10
-39.8849409726
 20
206.5959372695
 30
0.0
 10
-39.2461150067
 20
206.2770209048
 30
0.0
  0
SPLINE
  5
2D3
100
AcDbEntity
  8
0
100
AcDbSpline
 62
7
  6
CONTINUOUS
 70
0
 71
3
 72
9
 73
5
 74
0
 42
0.0000001
 43
0.0000001
 44
0.0000000001
 40
0.0
 40
0.0
 40
0.0
 40
0.0
 40
0.5317460034
 40
1.0
 40
1.0
 40
1.0
 40
1.0
 10
-39.2461150067
 20
206.2770209048
 30
0.0
 10
-38.6253633882
 20
205.967127663
 30
0.0
 10
-37.485386026
 20
205.3263832391
 30
0.0
 10
-36.4372862528
 20
204.5391025226
 30
0.0
 10
-35.9846606113
 20
204.1287292606
 30
0.0
  0
SPLINE
  5
2D4
100
AcDbEntity
  8
0
100
AcDbSpline
 62
7
  6
CONTINUOUS
 70
0
 71
3
 72
9
 73
5
 74
0
 42
0.0000001
 43
0.0000001
 44
0.0000000001
 40
0.0
 40
0.0
 40
0.0
 40
0.0
 40
0.5304119806
 40
1.0
 40
1.0
 40
1.0
 40
1.0
 10
-35.9846606113
 20
204.1287292606
 30
0.0
 10
-38.2689107637
 20
204.7831267313
 30
0.0
 10
-42.5258062896
 20
206.2017281419
 30
0.0
 10
-46.6067066411
 20
208.0851467275
 30
0.0
 10
-48.4423719044
 20
209.1126274313
 30
0.0
  0
SPLINE
  5
2D5
100
AcDbEntity
  8
0
100
AcDbSpline
 62
7
  6
CONTINUOUS
 70
0
 71
3
 72
11
 73
7
 74
0
 42
0.0000001
 43
0.0000001
 44
0.0000000001
 40
0.0
 40
0.0
 40
0.0
 40
0.0
 40
0.2705697689
 40
0.5320588499
 40
0.7772968302
 40
1.0
 40
1.0
 40
1.0
 40
1.0
 10
-33.1150286292
 20
203.3606303104
 30
0.0
 10
-31.612876826
 20
203.3409014771
 30
0.0
 10
-28.6592111742
 20
203.196665427
 30
0.0
 10
-24.3718544277
 20
202.666046957
 30
0.0
 10
-20.4019561229
 20
201.8415358333
 30
0.0
 10
-17.9140943812
 20
201.0716923331
 30
0.0
 10
-16.7584161521
 20
200.6319534955
 30
0.0
  0
SPLINE
  5
2D6
100
AcDbEntity
  8
0
100
AcDbSpline
 62
7
  6
CONTINUOUS
 70
0
 71
3
 72
9
 73
5
 74
0
 42
0.0000001
 43
0.0000001
 44
0.0000000001
 40
0.0
 40
0.0
 40
0.0
 40
0.0
 40
0.514339461
 40
1.0
 40
1.0
 40
1.0
 40
1.0
 10
-16.7584161521
 20
200.6319534955
 30
0.0
 10
-19.5907017049
 20
200.900691801
 30
0.0
 10
-25.0819380762
 20
201.6050448111
 30
0.0
 10
-30.5086489426
 20
202.7099522191
 30
0.0
 10
-33.1150286292
 20
203.3606303104
 30
0.0
  0
SPLINE
  5
2D7
100
AcDbEntity
  8
0
100
AcDbSpline
 62
7
  6
CONTINUOUS
 70
0
 71
3
 72
11
 73
7
 74
0
 42
0.0000001
 43
0.0000001
 44
0.0000000001
 40
0.0
 40
0.0
 40
0.0
 40
0.0
 40
0.2468938563
 40
0.5006470048
 40
0.7540726194
 40
1.0
 40
1.0
 40
1.0
 40
1.0
 10
-13.3601921877
 20
200.3544231493
 30
0.0
 10
-11.9089694702
 20
200.5689227153
 30
0.0
 10
-8.9474225093
 20
200.8834272373
 30
0.0
 10
-4.4655709001
 20
201.0290422715
 30
0.0
 10
0.0095098308
 20
200.8545809888
 30
0.0
 10
2.961239662
 20
200.5206407623
 30
0.0
 10
4.4051754966
 20
200.2963839999
 30
0.0
  0
SPLINE
  5
2D8
100
AcDbEntity
  8
0
100
AcDbSpline
 62
7
  6
CONTINUOUS
 70
0
 71
3
 72
11
 73
7
 74
0
 42
0.0000001
 43
0.0000001
 44
0.0000000001
 40
0.0
 40
0.0
 40
0.0
 40
0.0
 40
0.2459924415
 40
0.4993585067
 40
0.7530492467
 40
1.0
 40
1.0
 40
1.0
 40
1.0
 10
4.4371908892
 20
215.3968709165
 30
0.0
 10
2.9878385513
 20
215.619919267
 30
0.0
 10
0.0261734251
 20
215.9521675956
 30
0.0
 10
-4.463198845
 20
216.125860366
 30
0.0
 10
-8.9593070777
 20
215.9811127809
 30
0.0
 10
-11.9307374465
 20
215.6683636773
 30
0.0
 10
-13.3873361648
 20
215.4551033384
 30
0.0
  0
LINE
  5
2D9
100
AcDbEntity
  8
0
100
AcDbLine
 62
7
  6
CONTINUOUS
 10
7.6772078157
 20
215.6394727754
 11
7.814642648
 21
200.5516737368
  0
LINE
  5
2DA
100
AcDbEntity
  8
0
100
AcDbLine
 62
7
  6
CONTINUOUS
 10
24.2841493588
 20
203.1731081884
 11
24.2015586226
 21
218.2696367052
  0
SPLINE
  5
2DB
100
AcDbEntity
  8
0
100
AcDbSpline
 62
7
  6
CONTINUOUS
 70
0
 71
3
 72
11
 73
7
 74
0
 42
0.0000001
 43
0.0000001
 44
0.0000000001
 40
0.0
 40
0.0
 40
0.0
 40
0.0
 40
0.2229608528
 40
0.4682127245
 40
0.729574214
 40
1.0
 40
1.0
 40
1.0
 40
1.0
 10
-16.6166686879
 20
215.7188404502
 30
0.0
 10
-17.778356608
 20
216.1581202884
 30
0.0
 10
-20.2765737933
 20
216.9277972096
 30
0.0
 10
-24.2603527302
 20
217.7538960935
 30
0.0
 10
-28.5599658173
 20
218.2875913171
 30
0.0
 10
-31.5215402215
 20
218.4349743029
 30
0.0
 10
-33.0277493248
 20
218.4566038656
 30
0.0
  0
SPLINE
  5
2DC
100
AcDbEntity
  8
0
100
AcDbSpline
 62
7
  6
CONTINUOUS
 70
0
 71
3
 72
9
 73
5
 74
0
 42
0.0000001
 43
0.0000001
 44
0.0000000001
 40
0.0
 40
0.0
 40
0.0
 40
0.0
 40
0.2328623945
 40
1.0
 40
1.0
 40
1.0
 40
1.0
 10
-35.7547608418
 20
219.1865283635
 30
0.0
 10
-35.9101710121
 20
219.3262384108
 30
0.0
 10
-36.5965429159
 20
219.9050755744
 30
0.0
 10
-37.3482350008
 20
220.4035887988
 30
0.0
 10
-37.9431797083
 20
220.7500023837
 30
0.0
  0
SPLINE
  5
2DD
100
AcDbEntity
  8
0
100
AcDbSpline
 62
7
  6
CONTINUOUS
 70
0
 71
3
 72
11
 73
7
 74
0
 42
0.0000001
 43
0.0000001
 44
0.0000000001
 40
0.0
 40
0.0
 40
0.0
 40
0.0
 40
0.2157311202
 40
0.4561011691
 40
0.718650131
 40
1.0
 40
1.0
 40
1.0
 40
1.0
 10
-37.9431797083
 20
220.7500023837
 30
0.0
 10
-38.6216063907
 20
221.1450243348
 30
0.0
 10
-40.1124240595
 20
221.8843131962
 30
0.0
 10
-42.5620096232
 20
222.8089573712
 30
0.0
 10
-45.308338811
 20
223.5954013326
 30
0.0
 10
-47.246322767
 20
224.005582788
 30
0.0
 10
-48.2539568015
 20
224.1870231102
 30
0.0
  0
SPLINE
  5
2DE
100
AcDbEntity
  8
0
100
AcDbSpline
 62
7
  6
CONTINUOUS
 70
0
 71
3
 72
14
 73
10
 74
0
 42
0.0000001
 43
0.0000001
 44
0.0000000001
 40
0.0
 40
0.0
 40
0.0
 40
0.0
 40
0.0927237392
 40
0.1903140672
 40
0.2959621408
 40
0.4120382411
 40
0.5400018966
 40
0.6806183096
 40
1.0
 40
1.0
 40
1.0
 40
1.0
 10
-50.0634845293
 20
225.2720106062
 30
0.0
 10
-50.078727319
 20
225.5737513891
 30
0.0
 10
-50.1839495078
 20
226.1913247252
 30
0.0
 10
-50.5518368316
 20
227.0896989483
 30
0.0
 10
-51.1241810465
 20
227.9649563841
 30
0.0
 10
-51.8930050243
 20
228.8110496089
 30
0.0
 10
-52.850995753
 20
229.6237639849
 30
0.0
 10
-54.4384134651
 20
230.7010152739
 30
0.0
 10
-55.7895695131
 20
231.3683069483
 30
0.0
 10
-56.7479065324
 20
231.7739566887
 30
0.0
  0
SPLINE
  5
2DF
100
AcDbEntity
  8
0
100
AcDbSpline
 62
7
  6
CONTINUOUS
 70
0
 71
3
 72
11
 73
7
 74
0
 42
0.0000001
 43
0.0000001
 44
0.0000000001
 40
0.0
 40
0.0
 40
0.0
 40
0.0
 40
0.2281864576
 40
0.4655349854
 40
0.7206640639
 40
1.0
 40
1.0
 40
1.0
 40
1.0
 10
-55.6477176924
 20
236.5584110704
 30
0.0
 10
-55.6420397463
 20
236.8575420561
 30
0.0
 10
-55.7026779749
 20
237.4713580383
 30
0.0
 10
-56.0063120162
 20
238.3734176594
 30
0.0
 10
-56.515754226
 20
239.2542670931
 30
0.0
 10
-56.9648263451
 20
239.79625555
 30
0.0
 10
-57.2164716689
 20
240.0623627394
 30
0.0
  0
SPLINE
  5
2E0
100
AcDbEntity
  8
0
100
AcDbSpline
 62
7
  6
CONTINUOUS
 70
0
 71
3
 72
9
 73
5
 74
0
 42
0.0000001
 43
0.0000001
 44
0.0000000001
 40
0.0
 40
0.0
 40
0.0
 40
0.0
 40
0.2549848652
 40
1.0
 40
1.0
 40
1.0
 40
1.0
 10
-56.7479065324
 20
231.7739566887
 30
0.0
 10
-56.8071034365
 20
231.8788124096
 30
0.0
 10
-57.0329429367
 20
232.2935550105
 30
0.0
 10
-57.2327835132
 20
232.7225816534
 30
0.0
 10
-57.364466278
 20
233.048827672
 30
0.0
  0
LINE
  5
2E1
100
AcDbEntity
  8
0
100
AcDbLine
 62
7
  6
CONTINUOUS
 10
4.4051755011
 20
200.2963840002
 11
4.4371908892
 21
215.3968709165
  0
SPLINE
  5
2E2
100
AcDbEntity
  8
0
100
AcDbSpline
 62
7
  6
CONTINUOUS
 70
0
 71
3
 72
11
 73
7
 74
0
 42
0.0000001
 43
0.0000001
 44
0.0000000001
 40
0.0
 40
0.0
 40
0.0
 40
0.0
 40
0.2237180853
 40
0.4693301908
 40
0.7304873141
 40
1.0
 40
1.0
 40
1.0
 40
1.0
 10
7.8146426501
 20
200.551673737
 30
0.0
 10
8.9868399693
 20
200.9831099446
 30
0.0
 10
11.502943172
 20
201.7358740066
 30
0.0
 10
15.5070337833
 20
202.5348401803
 30
0.0
 10
19.816181623
 20
203.037821158
 30
0.0
 10
22.7794263933
 20
203.1631835725
 30
0.0
 10
24.284149355
 20
203.1731081875
 30
0.0
  0
SPLINE
  5
2E3
100
AcDbEntity
  8
0
100
AcDbSpline
 62
7
  6
CONTINUOUS
 70
0
 71
3
 72
14
 73
10
 74
0
 42
0.0000001
 43
0.0000001
 44
0.0000000001
 40
0.0
 40
0.0
 40
0.0
 40
0.0
 40
0.2793567179
 40
0.413601272
 40
0.5421111266
 40
0.6642855237
 40
0.7803772664
 40
0.8915891103
 40
1.0
 40
1.0
 40
1.0
 40
1.0
 10
-95.5108335267
 20
211.1626127639
 30
0.0
 10
-97.3136111062
 20
207.679180256
 30
0.0
 10
-99.2835153274
 20
202.0985394263
 30
0.0
 10
-100.1110187965
 20
194.5079974942
 30
0.0
 10
-99.8043934499
 20
189.0836208435
 30
0.0
 10
-98.5792980985
 20
184.0496377664
 30
0.0
 10
-96.4666447162
 20
179.5789317907
 30
0.0
 10
-93.5310572597
 20
175.838881209
 30
0.0
 10
-91.0719553044
 20
173.9180307105
 30
0.0
 10
-89.7653471802
 20
173.13721956
 30
0.0
  0
SPLINE
  5
2E4
100
AcDbEntity
  8
0
100
AcDbSpline
 62
7
  6
CONTINUOUS
 70
0
 71
3
 72
15
 73
11
 74
0
 42
0.0000001
 43
0.0000001
 44
0.0000000001
 40
0.0
 40
0.0
 40
0.0
 40
0.0
 40
0.0524625121
 40
0.1056459913
 40
0.2162146157
 40
0.3353287159
 40
0.463270727
 40
0.5978576946
 40
0.7353250469
 40
1.0
 40
1.0
 40
1.0
 40
1.0
 10
-0.0392753706
 20
184.8635540176
 30
0.0
 10
-0.3014519375
 20
185.0149637026
 30
0.0
 10
-0.858835375
 20
185.2719122885
 30
0.0
 10
-2.0730206486
 20
185.5832868753
 30
0.0
 10
-3.7378455878
 20
185.5604062095
 30
0.0
 10
-5.72247341
 20
184.9055465536
 30
0.0
 10
-7.5874230797
 20
183.6948721818
 30
0.0
 10
-9.203697414
 20
182.0186299102
 30
0.0
 10
-10.8489646926
 20
179.3805035025
 30
0.0
 10
-11.45385827
 20
177.0339368387
 30
0.0
 10
-11.45385827
 20
175.5065216253
 30
0.0
  0
SPLINE
  5
2E5
100
AcDbEntity
  8
0
100
AcDbSpline
 62
7
  6
CONTINUOUS
 70
0
 71
3
 72
10
 73
6
 74
0
 42
0.0000001
 43
0.0000001
 44
0.0000000001
 40
0.0
 40
0.0
 40
0.0
 40
0.0
 40
0.2403281524
 40
0.485096085
 40
1.0
 40
1.0
 40
1.0
 40
1.0
 10
-17.4931672173
 20
158.0926955044
 30
0.0
 10
-17.6948008447
 20
158.2091179185
 30
0.0
 10
-18.1287371053
 20
158.4007280827
 30
0.0
 10
-19.0824382125
 20
158.5993042951
 30
0.0
 10
-19.8371795746
 20
158.5235482125
 30
0.0
 10
-20.3190105101
 20
158.3943907885
 30
0.0
  0
SPLINE
  5
2E6
100
AcDbEntity
  8
0
100
AcDbSpline
 62
7
  6
CONTINUOUS
 70
0
 71
3
 72
9
 73
5
 74
0
 42
0.0000001
 43
0.0000001
 44
0.0000000001
 40
0.0
 40
0.0
 40
0.0
 40
0.0
 40
0.4837234948
 40
1.0
 40
1.0
 40
1.0
 40
1.0
 10
-18.4934657281
 20
189.9165344587
 30
0.0
 10
-18.754948901
 20
190.0675137503
 30
0.0
 10
-19.3709434356
 20
190.2610120207
 30
0.0
 10
-20.0077391978
 20
190.1948729338
 30
0.0
 10
-20.3190105101
 20
190.1114349519
 30
0.0
  0
SPLINE
  5
2E7
100
AcDbEntity
  8
0
100
AcDbSpline
 62
7
  6
CONTINUOUS
 70
0
 71
3
 72
11
 73
7
 74
0
 42
0.0000001
 43
0.0000001
 44
0.0000000001
 40
0.0
 40
0.0
 40
0.0
 40
0.0
 40
0.2717699473
 40
0.5268758545
 40
0.7676341922
 40
1.0
 40
1.0
 40
1.0
 40
1.0
 10
-1.9671079255
 20
162.2294157533
 30
0.0
 10
-1.9671079255
 20
161.9559625759
 30
0.0
 10
-1.9139253968
 20
161.4235710398
 30
0.0
 10
-1.6593128606
 20
160.6860817231
 30
0.0
 10
-1.2419999203
 20
160.0725005867
 30
0.0
 10
-0.8643873063
 20
159.7687265472
 30
0.0
 10
-0.6619165904
 20
159.6518061461
 30
0.0
  0
SPLINE
  5
2E8
100
AcDbEntity
  8
0
100
AcDbSpline
 62
7
  6
CONTINUOUS
 70
0
 71
3
 72
11
 73
7
 74
0
 42
0.0000001
 43
0.0000001
 44
0.0000000001
 40
0.0
 40
0.0
 40
0.0
 40
0.0
 40
0.262635023
 40
0.5203314364
 40
0.7673760162
 40
1.0
 40
1.0
 40
1.0
 40
1.0
 10
1.432321931
 20
159.4647888413
 30
0.0
 10
0.3218159674
 20
157.3222772564
 30
0.0
 10
-2.2782766863
 20
153.2715473294
 30
0.0
 10
-7.1544575409
 20
148.1200683479
 30
0.0
 10
-12.7287880653
 20
144.1881150745
 30
0.0
 10
-16.8469041686
 20
142.4831693322
 30
0.0
 10
-18.9114716615
 20
141.9297506963
 30
0.0
  0
SPLINE
  5
2E9
100
AcDbEntity
  8
0
100
AcDbSpline
 62
7
  6
CONTINUOUS
 70
0
 71
3
 72
11
 73
7
 74
0
 42
0.0000001
 43
0.0000001
 44
0.0000000001
 40
0.0
 40
0.0
 40
0.0
 40
0.0
 40
0.2633599823
 40
0.5158981306
 40
0.7601941857
 40
1.0
 40
1.0
 40
1.0
 40
1.0
 10
-18.9114716615
 20
141.9297506963
 30
0.0
 10
-20.1976493027
 20
141.5849837279
 30
0.0
 10
-22.7791000242
 20
141.1144602668
 30
0.0
 10
-26.6455389334
 20
141.125702319
 30
0.0
 10
-30.319756701
 20
141.8734166918
 30
0.0
 10
-32.5836936179
 20
142.8595253634
 30
0.0
 10
-33.6373661648
 20
143.4594498633
 30
0.0
  0
SPLINE
  5
2EA
100
AcDbEntity
  8
0
100
AcDbSpline
 62
7
  6
CONTINUOUS
 70
0
 71
3
 72
9
 73
5
 74
0
 42
0.0000001
 43
0.0000001
 44
0.0000000001
 40
0.0
 40
0.0
 40
0.0
 40
0.0
 40
0.5082562735
 40
1.0
 40
1.0
 40
1.0
 40
1.0
 10
-10.4600573547
 20
196.9917127476
 30
0.0
 10
-10.9061085978
 20
196.5326970648
 30
0.0
 10
-11.6157941379
 20
195.4551732912
 30
0.0
 10
-11.8992906411
 20
194.190103941
 30
0.0
 10
-11.8992906411
 20
193.5708534955
 30
0.0
  0
SPLINE
  5
2EB
100
AcDbEntity
  8
0
100
AcDbSpline
 62
7
  6
CONTINUOUS
 70
0
 71
3
 72
11
 73
7
 74
0
 42
0.0000001
 43
0.0000001
 44
0.0000000001
 40
0.0
 40
0.0
 40
0.0
 40
0.0
 40
0.2717571439
 40
0.5268789065
 40
0.7676315525
 40
1.0
 40
1.0
 40
1.0
 40
1.0
 10
-11.8992906411
 20
193.5708534955
 30
0.0
 10
-11.8992906411
 20
193.2974137599
 30
0.0
 10
-11.846094395
 20
192.7650231024
 30
0.0
 10
-11.5915155597
 20
192.0275294021
 30
0.0
 10
-11.174177803
 20
191.413934373
 30
0.0
 10
-10.7965410808
 20
191.1102185704
 30
0.0
 10
-10.5940930615
 20
190.9932545205
 30
0.0
  0
SPLINE
  5
2EC
100
AcDbEntity
  8
0
100
AcDbSpline
 62
7
  6
CONTINUOUS
 70
0
 71
3
 72
9
 73
5
 74
0
 42
0.0000001
 43
0.0000001
 44
0.0000000001
 40
0.0
 40
0.0
 40
0.0
 40
0.0
 40
0.5105084502
 40
1.0
 40
1.0
 40
1.0
 40
1.0
 10
-4.349580488
 20
191.2654436379
 30
0.0
 10
-4.4949050779
 20
191.0581328548
 30
0.0
 10
-4.7223532207
 20
190.6089585192
 30
0.0
 10
-4.8102276152
 20
190.1112277807
 30
0.0
 10
-4.8102276152
 20
189.868476737
 30
0.0
  0
SPLINE
  5
2ED
100
AcDbEntity
  8
0
100
AcDbSpline
 62
7
  6
CONTINUOUS
 70
0
 71
3
 72
10
 73
6
 74
0
 42
0.0000001
 43
0.0000001
 44
0.0000000001
 40
0.0
 40
0.0
 40
0.0
 40
0.0
 40
0.5252119388
 40
0.7667864374
 40
1.0
 40
1.0
 40
1.0
 40
1.0
 10
-4.8102276152
 20
189.868476737
 30
0.0
 10
-4.8102276152
 20
189.6051970952
 30
0.0
 10
-4.7331614661
 20
189.2089081549
 30
0.0
 10
-4.4476065824
 20
188.7902320038
 30
0.0
 10
-4.2588697755
 20
188.6381349833
 30
0.0
 10
-4.1576225079
 20
188.5796885619
 30
0.0
  0
SPLINE
  5
2EE
100
AcDbEntity
  8
0
100
AcDbSpline
 62
7
  6
CONTINUOUS
 70
0
 71
3
 72
13
 73
9
 74
0
 42
0.0000001
 43
0.0000001
 44
0.0000000001
 40
0.0
 40
0.0
 40
0.0
 40
0.0
 40
0.1113980972
 40
0.2260440551
 40
0.3446522091
 40
0.4676455976
 40
0.7263358877
 40
1.0
 40
1.0
 40
1.0
 40
1.0
 10
-0.1294219052
 20
191.6708219156
 30
0.0
 10
0.5642249779
 20
190.9340210086
 30
0.0
 10
1.8474906743
 20
189.3171668361
 30
0.0
 10
3.3868675689
 20
186.5775642025
 30
0.0
 10
4.5403633196
 20
183.5416621391
 30
0.0
 10
5.5558391023
 20
179.0992526083
 30
0.0
 10
5.7334439678
 20
173.0866923981
 30
0.0
 10
4.7895253825
 20
168.3019303298
 30
0.0
 10
4.067083413
 20
165.9232565918
 30
0.0
  0
SPLINE
  5
2EF
100
AcDbEntity
  8
0
100
AcDbSpline
 62
7
  6
CONTINUOUS
 70
0
 71
3
 72
11
 73
7
 74
0
 42
0.0000001
 43
0.0000001
 44
0.0000000001
 40
0.0
 40
0.0
 40
0.0
 40
0.0
 40
0.2717748263
 40
0.5268699602
 40
0.7676346167
 40
1.0
 40
1.0
 40
1.0
 40
1.0
 10
-40.5912912345
 20
167.6960729679
 30
0.0
 10
-40.5912912345
 20
167.1078356469
 30
0.0
 10
-40.4769228339
 20
165.9626090068
 30
0.0
 10
-39.9291602194
 20
164.3762189918
 30
0.0
 10
-39.0315282555
 20
163.0563115298
 30
0.0
 10
-38.2191951768
 20
162.4029023881
 30
0.0
 10
-37.7836679597
 20
162.1513809057
 30
0.0
  0
SPLINE
  5
2F0
100
AcDbEntity
  8
0
100
AcDbSpline
 62
7
  6
CONTINUOUS
 70
0
 71
3
 72
11
 73
7
 74
0
 42
0.0000001
 43
0.0000001
 44
0.0000000001
 40
0.0
 40
0.0
 40
0.0
 40
0.0
 40
0.2717748263
 40
0.5268699602
 40
0.7676346167
 40
1.0
 40
1.0
 40
1.0
 40
1.0
 10
-11.45385827
 20
175.5065216253
 30
0.0
 10
-11.45385827
 20
174.9182843052
 30
0.0
 10
-11.3394898695
 20
173.7730576671
 30
0.0
 10
-10.7917272559
 20
172.1866676548
 30
0.0
 10
-9.8940952935
 20
170.866760195
 30
0.0
 10
-9.0817622162
 20
170.2133510544
 30
0.0
 10
-8.6462349999
 20
169.9618295724
 30
0.0
  0
SPLINE
  5
2F1
100
AcDbEntity
  8
0
100
AcDbSpline
 62
7
  6
CONTINUOUS
 70
0
 71
3
 72
15
 73
11
 74
0
 42
0.0000001
 43
0.0000001
 44
0.0000000001
 40
0.0
 40
0.0
 40
0.0
 40
0.0
 40
0.0524625121
 40
0.1056459913
 40
0.2162146157
 40
0.3353287159
 40
0.463270727
 40
0.5978576946
 40
0.7353250469
 40
1.0
 40
1.0
 40
1.0
 40
1.0
 10
-29.1767083159
 20
177.053105376
 30
0.0
 10
-29.4388848832
 20
177.2045150613
 30
0.0
 10
-29.9962683217
 20
177.4614636476
 30
0.0
 10
-31.2104535973
 20
177.772838235
 30
0.0
 10
-32.8752785393
 20
177.7499575691
 30
0.0
 10
-34.8599063649
 20
177.0950979121
 30
0.0
 10
-36.7248560377
 20
175.8844235383
 30
0.0
 10
-38.3411303747
 20
174.2081812638
 30
0.0
 10
-39.9863976561
 20
171.5700548516
 30
0.0
 10
-40.5912912345
 20
169.2234881839
 30
0.0
 10
-40.5912912345
 20
167.6960729679
 30
0.0
  0
SPLINE
  5
2F2
100
AcDbEntity
  8
0
100
AcDbSpline
 62
7
  6
CONTINUOUS
 70
0
 71
3
 72
11
 73
7
 74
0
 42
0.0000001
 43
0.0000001
 44
0.0000000001
 40
0.0
 40
0.0
 40
0.0
 40
0.0
 40
0.2204872531
 40
0.4580953795
 40
0.7195322747
 40
1.0
 40
1.0
 40
1.0
 40
1.0
 10
-33.1247754001
 20
149.2939893342
 30
0.0
 10
-33.280893577
 20
149.3841139973
 30
0.0
 10
-33.6554879639
 20
149.4930652075
 30
0.0
 10
-34.2512309091
 20
149.3998817746
 30
0.0
 10
-34.8183809253
 20
149.0869982324
 30
0.0
 10
-35.1324881591
 20
148.7650887114
 30
0.0
 10
-35.2698810428
 20
148.5815046366
 30
0.0
  0
SPLINE
  5
2F3
100
AcDbEntity
  8
0
100
AcDbSpline
 62
7
  6
CONTINUOUS
 70
0
 71
3
 72
12
 73
8
 74
0
 42
0.0000001
 43
0.0000001
 44
0.0000000001
 40
0.0
 40
0.0
 40
0.0
 40
0.0
 40
0.2349899833
 40
0.4894752595
 40
0.6202667696
 40
0.7503904793
 40
1.0
 40
1.0
 40
1.0
 40
1.0
 10
-20.3190105101
 20
190.1114349519
 30
0.0
 10
-20.7328027504
 20
190.0005156732
 30
0.0
 10
-21.5484730597
 20
189.5837958973
 30
0.0
 10
-22.3480400419
 20
188.7596952946
 30
0.0
 10
-22.8423137523
 20
187.9568299135
 30
0.0
 10
-23.2088187754
 20
187.0991535135
 30
0.0
 10
-23.3355395374
 20
186.4023193846
 30
0.0
 10
-23.3355395395
 20
185.9472664679
 30
0.0
  0
SPLINE
  5
2F4
100
AcDbEntity
  8
0
100
AcDbSpline
 62
7
  6
CONTINUOUS
 70
0
 71
3
 72
11
 73
7
 74
0
 42
0.0000001
 43
0.0000001
 44
0.0000000001
 40
0.0
 40
0.0
 40
0.0
 40
0.0
 40
0.2717668072
 40
0.5268680781
 40
0.7676307415
 40
1.0
 40
1.0
 40
1.0
 40
1.0
 10
-23.3355395395
 20
185.9472664679
 30
0.0
 10
-23.3355395406
 20
185.6977427872
 30
0.0
 10
-23.2870182937
 20
185.2119408772
 30
0.0
 10
-23.0546839355
 20
184.5389834225
 30
0.0
 10
-22.6738935025
 20
183.9790828931
 30
0.0
 10
-22.3293187549
 20
183.7018744187
 30
0.0
 10
-22.1445552921
 20
183.5951927671
 30
0.0
  0
SPLINE
  5
2F5
100
AcDbEntity
  8
0
100
AcDbSpline
 62
7
  6
CONTINUOUS
 70
0
 71
3
 72
11
 73
7
 74
0
 42
0.0000001
 43
0.0000001
 44
0.0000000001
 40
0.0
 40
0.0
 40
0.0
 40
0.0
 40
0.2717668072
 40
0.5268680781
 40
0.7676307415
 40
1.0
 40
1.0
 40
1.0
 40
1.0
 10
-24.9884321584
 20
151.9484861489
 30
0.0
 10
-24.988432159
 20
151.5622371637
 30
0.0
 10
-24.9133239291
 20
150.8102424263
 30
0.0
 10
-24.5536830725
 20
149.7685411608
 30
0.0
 10
-23.9642403477
 20
148.9018458208
 30
0.0
 10
-23.4308575192
 20
148.4727422919
 30
0.0
 10
-23.1448538028
 20
148.3076049409
 30
0.0
  0
SPLINE
  5
2F6
100
AcDbEntity
  8
0
100
AcDbSpline
 62
7
  6
CONTINUOUS
 70
0
 71
3
 72
12
 73
8
 74
0
 42
0.0000001
 43
0.0000001
 44
0.0000000001
 40
0.0
 40
0.0
 40
0.0
 40
0.0
 40
0.2349899833
 40
0.4894752595
 40
0.6202667696
 40
0.7503904793
 40
1.0
 40
1.0
 40
1.0
 40
1.0
 10
-20.3190105101
 20
158.3943907885
 30
0.0
 10
-20.9595382245
 20
158.2226938229
 30
0.0
 10
-22.2221511692
 20
157.5776344438
 30
0.0
 10
-23.4598370455
 20
156.3019718668
 30
0.0
 10
-24.224945666
 20
155.0591802497
 30
0.0
 10
-24.7922753584
 20
153.7315441784
 30
0.0
 10
-24.9884321571
 20
152.6528831295
 30
0.0
 10
-24.9884321584
 20
151.9484861489
 30
0.0
  0
SPLINE
  5
2F7
100
AcDbEntity
  8
0
100
AcDbSpline
 62
7
  6
CONTINUOUS
 70
0
 71
3
 72
12
 73
8
 74
0
 42
0.0000001
 43
0.0000001
 44
0.0000000001
 40
0.0
 40
0.0
 40
0.0
 40
0.0
 40
0.1092949597
 40
0.2210866972
 40
0.4583392433
 40
0.719838011
 40
1.0
 40
1.0
 40
1.0
 40
1.0
 10
-37.1610291904
 20
155.7229619876
 30
0.0
 10
-37.3197270072
 20
155.8146429044
 30
0.0
 10
-37.664523938
 20
155.9618491104
 30
0.0
 10
-38.427927226
 20
156.0928447994
 30
0.0
 10
-39.4681623337
 20
155.9198592105
 30
0.0
 10
-40.6177801592
 20
155.257146116
 30
0.0
 10
-41.2488233273
 20
154.5841577234
 30
0.0
 10
-41.5216159481
 20
154.2016660803
 30
0.0
  0
SPLINE
  5
2F8
100
AcDbEntity
  8
0
100
AcDbSpline
 62
7
  6
CONTINUOUS
 70
0
 71
3
 72
14
 73
10
 74
0
 42
0.0000001
 43
0.0000001
 44
0.0000000001
 40
0.0
 40
0.0
 40
0.0
 40
0.0
 40
0.1052529785
 40
0.2158723361
 40
0.335036737
 40
0.4630333349
 40
0.5976764982
 40
0.7352068014
 40
1.0
 40
1.0
 40
1.0
 40
1.0
 10
3.3392808113
 20
166.5793094367
 30
0.0
 10
3.0948636789
 20
166.7204590918
 30
0.0
 10
2.5343241375
 20
166.9169196426
 30
0.0
 10
1.6205203135
 20
166.9028644781
 30
0.0
 10
0.697166915
 20
166.5989000859
 30
0.0
 10
-0.1695827564
 20
166.0359692365
 30
0.0
 10
-0.9210248473
 20
165.2567726244
 30
0.0
 10
-1.6858930738
 20
164.0303672984
 30
0.0
 10
-1.9671079255
 20
162.9394849123
 30
0.0
 10
-1.9671079255
 20
162.2294157533
 30
0.0
  0
SPLINE
  5
2F9
100
AcDbEntity
  8
0
100
AcDbSpline
 62
7
  6
CONTINUOUS
 70
0
 71
3
 72
9
 73
5
 74
0
 42
0.0000001
 43
0.0000001
 44
0.0000000001
 40
0.0
 40
0.0
 40
0.0
 40
0.0
 40
0.2443559795
 40
1.0
 40
1.0
 40
1.0
 40
1.0
 10
-36.7714696213
 20
175.7030137378
 30
0.0
 10
-36.7525546312
 20
175.6230330476
 30
0.0
 10
-36.6854458327
 20
175.293331337
 30
0.0
 10
-36.6583781156
 20
174.9557998922
 30
0.0
 10
-36.6583781156
 20
174.7016459122
 30
0.0
  0
SPLINE
  5
2FA
100
AcDbEntity
  8
0
100
AcDbSpline
 62
7
  6
CONTINUOUS
 70
0
 71
3
 72
9
 73
5
 74
0
 42
0.0000001
 43
0.0000001
 44
0.0000000001
 40
0.0
 40
0.0
 40
0.0
 40
0.0
 40
0.4837234948
 40
1.0
 40
1.0
 40
1.0
 40
1.0
 10
-22.1445552921
 20
183.5951927671
 30
0.0
 10
-21.8830721192
 20
183.4442134754
 30
0.0
 10
-21.2670775846
 20
183.2507152051
 30
0.0
 10
-20.6302818224
 20
183.316854292
 30
0.0
 10
-20.3190105101
 20
183.4002922739
 30
0.0
  0
SPLINE
  5
2FB
100
AcDbEntity
  8
0
100
AcDbSpline
 62
7
  6
CONTINUOUS
 70
0
 71
3
 72
13
 73
9
 74
0
 42
0.0000001
 43
0.0000001
 44
0.0000000001
 40
0.0
 40
0.0
 40
0.0
 40
0.0
 40
0.1077830194
 40
0.222702577
 40
0.3453790146
 40
0.4746811417
 40
0.7416616
 40
1.0
 40
1.0
 40
1.0
 40
1.0
 10
-40.5197992963
 20
168.4795557762
 30
0.0
 10
-40.2218688899
 20
168.4293908375
 30
0.0
 10
-39.5872588903
 20
168.4226253719
 30
0.0
 10
-38.6427326993
 20
168.67535762
 30
0.0
 10
-37.7307687781
 20
169.1692959759
 30
0.0
 10
-36.6163143639
 20
170.1174484644
 30
0.0
 10
-35.5835682618
 20
171.6847172005
 30
0.0
 10
-35.250839267
 20
173.16453489
 30
0.0
 10
-35.250839267
 20
173.8886776136
 30
0.0
  0
SPLINE
  5
2FC
100
AcDbEntity
  8
0
100
AcDbSpline
 62
7
  6
CONTINUOUS
 70
0
 71
3
 72
9
 73
5
 74
0
 42
0.0000001
 43
0.0000001
 44
0.0000000001
 40
0.0
 40
0.0
 40
0.0
 40
0.0
 40
0.2443763511
 40
1.0
 40
1.0
 40
1.0
 40
1.0
 10
-7.6493699943
 20
183.5017303166
 30
0.0
 10
-7.6306552757
 20
183.4223153102
 30
0.0
 10
-7.5642601013
 20
183.0949902322
 30
0.0
 10
-7.5374740892
 20
182.759945232
 30
0.0
 10
-7.5374740892
 20
182.507663897
 30
0.0
  0
SPLINE
  5
2FD
100
AcDbEntity
  8
0
100
AcDbSpline
 62
7
  6
CONTINUOUS
 70
0
 71
3
 72
9
 73
5
 74
0
 42
0.0000001
 43
0.0000001
 44
0.0000000001
 40
0.0
 40
0.0
 40
0.0
 40
0.0
 40
0.2541818542
 40
1.0
 40
1.0
 40
1.0
 40
1.0
 10
4.067083413
 20
165.9232565918
 30
0.0
 10
4.0176599413
 20
165.9903722854
 30
0.0
 10
3.8105142377
 20
166.2447693798
 30
0.0
 10
3.5510664953
 20
166.4570042776
 30
0.0
 10
3.3392808113
 20
166.5793094367
 30
0.0
  0
SPLINE
  5
2FE
100
AcDbEntity
  8
0
100
AcDbSpline
 62
7
  6
CONTINUOUS
 70
0
 71
3
 72
9
 73
5
 74
0
 42
0.0000001
 43
0.0000001
 44
0.0000000001
 40
0.0
 40
0.0
 40
0.0
 40
0.0
 40
0.4863806922
 40
1.0
 40
1.0
 40
1.0
 40
1.0
 10
-3.4206084438
 20
185.4946831093
 30
0.0
 10
-3.2320324387
 20
185.0478104171
 30
0.0
 10
-2.9487364667
 20
184.0827791345
 30
0.0
 10
-2.8618074948
 20
183.0829303222
 30
0.0
 10
-2.8618074948
 20
182.5707351589
 30
0.0
  0
LINE
  5
2FF
100
AcDbEntity
  8
0
100
AcDbLine
 62
7
  6
CONTINUOUS
 10
-91.0030315649
 20
181.4632857367
 11
-95.0173090265
 21
183.7389216328
  0
SPLINE
  5
300
100
AcDbEntity
  8
0
100
AcDbSpline
 62
7
  6
CONTINUOUS
 70
0
 71
3
 72
9
 73
5
 74
0
 42
0.0000001
 43
0.0000001
 44
0.0000000001
 40
0.0
 40
0.0
 40
0.0
 40
0.0
 40
0.4863806921
 40
1.0
 40
1.0
 40
1.0
 40
1.0
 10
-32.5580413876
 20
177.6842344687
 30
0.0
 10
-32.3694653814
 20
177.2373617751
 30
0.0
 10
-32.0861694077
 20
176.2723304891
 30
0.0
 10
-31.9992404354
 20
175.2724816732
 30
0.0
 10
-31.9992404354
 20
174.760286508
 30
0.0
  0
SPLINE
  5
301
100
AcDbEntity
  8
0
100
AcDbSpline
 62
7
  6
CONTINUOUS
 70
0
 71
3
 72
15
 73
11
 74
0
 42
0.0000001
 43
0.0000001
 44
0.0000000001
 40
0.0
 40
0.0
 40
0.0
 40
0.0
 40
0.0524625121
 40
0.1056459913
 40
0.2162146157
 40
0.3353287159
 40
0.463270727
 40
0.5978576946
 40
0.7353250469
 40
1.0
 40
1.0
 40
1.0
 40
1.0
 10
-37.7836679597
 20
162.1513809057
 30
0.0
 10
-37.5214913924
 20
161.9999712205
 30
0.0
 10
-36.964107954
 20
161.7430226341
 30
0.0
 10
-35.7499226783
 20
161.4316480468
 30
0.0
 10
-34.0850977363
 20
161.4545287126
 30
0.0
 10
-32.1004699107
 20
162.1093883696
 30
0.0
 10
-30.2355202379
 20
163.3200627434
 30
0.0
 10
-28.6192459009
 20
164.9963050179
 30
0.0
 10
-26.9739786195
 20
167.6344314301
 30
0.0
 10
-26.3690850411
 20
169.9809980978
 30
0.0
 10
-26.3690850411
 20
171.5084133138
 30
0.0
  0
SPLINE
  5
302
100
AcDbEntity
  8
0
100
AcDbSpline
 62
7
  6
CONTINUOUS
 70
0
 71
3
 72
11
 73
7
 74
0
 42
0.0000001
 43
0.0000001
 44
0.0000000001
 40
0.0
 40
0.0
 40
0.0
 40
0.0
 40
0.2653712006
 40
0.5220099507
 40
0.7672743918
 40
1.0
 40
1.0
 40
1.0
 40
1.0
 10
-94.5341112925
 20
204.7417692436
 30
0.0
 10
-95.1710881355
 20
202.958368735
 30
0.0
 10
-96.165125478
 20
199.350419692
 30
0.0
 10
-96.7717578317
 20
193.8844553795
 30
0.0
 10
-96.4530079346
 20
188.6249963473
 30
0.0
 10
-95.6007191917
 20
185.2938524261
 30
0.0
 10
-95.0173090265
 20
183.7389216328
 30
0.0
  0
SPLINE
  5
303
100
AcDbEntity
  8
0
100
AcDbSpline
 62
7
  6
CONTINUOUS
 70
0
 71
3
 72
9
 73
5
 74
0
 42
0.0000001
 43
0.0000001
 44
0.0000000001
 40
0.0
 40
0.0
 40
0.0
 40
0.0
 40
0.257604424
 40
1.0
 40
1.0
 40
1.0
 40
1.0
 10
-32.8935918701
 20
146.6658074804
 30
0.0
 10
-32.826524714
 20
146.7671170457
 30
0.0
 10
-32.5937372404
 20
147.1773985282
 30
0.0
 10
-32.472171977
 20
147.6550520985
 30
0.0
 10
-32.472171977
 20
148.0051981531
 30
0.0
  0
SPLINE
  5
304
100
AcDbEntity
  8
0
100
AcDbSpline
 62
7
  6
CONTINUOUS
 70
0
 71
3
 72
10
 73
6
 74
0
 42
0.0000001
 43
0.0000001
 44
0.0000000001
 40
0.0
 40
0.0
 40
0.0
 40
0.0
 40
0.5252153451
 40
0.7667856719
 40
1.0
 40
1.0
 40
1.0
 40
1.0
 10
-32.472171977
 20
148.0051981531
 30
0.0
 10
-32.472171977
 20
148.2684795089
 30
0.0
 10
-32.5492384914
 20
148.6647688802
 30
0.0
 10
-32.8347958084
 20
149.0834426344
 30
0.0
 10
-33.0235287048
 20
149.2355411479
 30
0.0
 10
-33.1247754001
 20
149.2939893342
 30
0.0
  0
SPLINE
  5
305
100
AcDbEntity
  8
0
100
AcDbSpline
 62
7
  6
CONTINUOUS
 70
0
 71
3
 72
13
 73
9
 74
0
 42
0.0000001
 43
0.0000001
 44
0.0000000001
 40
0.0
 40
0.0
 40
0.0
 40
0.0
 40
0.2522469285
 40
0.5146368708
 40
0.6440271779
 40
0.7689378892
 40
0.887809021
 40
1.0
 40
1.0
 40
1.0
 40
1.0
 10
-31.9992404354
 20
174.760286508
 30
0.0
 10
-31.9992404354
 20
173.5976794021
 30
0.0
 10
-32.4673452995
 20
171.2153063724
 30
0.0
 10
-33.9559877448
 20
168.5880611674
 30
0.0
 10
-35.5977918847
 20
166.8498012708
 30
0.0
 10
-36.9831218479
 20
165.8142728045
 30
0.0
 10
-38.4658915983
 20
165.0891620238
 30
0.0
 10
-39.5093641719
 20
164.8283102599
 30
0.0
 10
-40.022516148
 20
164.7646255327
 30
0.0
  0
SPLINE
  5
306
100
AcDbEntity
  8
0
100
AcDbSpline
 62
7
  6
CONTINUOUS
 70
0
 71
3
 72
9
 73
5
 74
0
 42
0.0000001
 43
0.0000001
 44
0.0000000001
 40
0.0
 40
0.0
 40
0.0
 40
0.0
 40
0.5104467617
 40
1.0
 40
1.0
 40
1.0
 40
1.0
 10
-36.8016253224
 20
150.3167793114
 30
0.0
 10
-36.5035047947
 20
150.7347840585
 30
0.0
 10
-36.0366151374
 20
151.6434079024
 30
0.0
 10
-35.8558353976
 20
152.6529483011
 30
0.0
 10
-35.8558353976
 20
153.1453565533
 30
0.0
  0
SPLINE
  5
307
100
AcDbEntity
  8
0
100
AcDbSpline
 62
7
  6
CONTINUOUS
 70
0
 71
3
 72
9
 73
5
 74
0
 42
0.0000001
 43
0.0000001
 44
0.0000000001
 40
0.0
 40
0.0
 40
0.0
 40
0.0
 40
0.5219703103
 40
1.0
 40
1.0
 40
1.0
 40
1.0
 10
-35.250839267
 20
173.8886776136
 30
0.0
 10
-35.250839267
 20
174.3315650716
 30
0.0
 10
-35.3678229276
 20
175.1873827321
 30
0.0
 10
-35.7740823851
 20
175.9590388772
 30
0.0
 10
-36.0335885563
 20
176.2707620241
 30
0.0
  0
SPLINE
  5
308
100
AcDbEntity
  8
0
100
AcDbSpline
 62
7
  6
CONTINUOUS
 70
0
 71
3
 72
12
 73
8
 74
0
 42
0.0000001
 43
0.0000001
 44
0.0000000001
 40
0.0
 40
0.0
 40
0.0
 40
0.0
 40
0.2490857383
 40
0.3789083578
 40
0.509493745
 40
0.7640986043
 40
1.0
 40
1.0
 40
1.0
 40
1.0
 10
-36.6583781156
 20
174.7016459122
 30
0.0
 10
-36.6583781156
 20
174.1287242335
 30
0.0
 10
-36.815357429
 20
173.2515854185
 30
0.0
 10
-37.2704654928
 20
172.1690512385
 30
0.0
 10
-37.8852728072
 20
171.1519046198
 30
0.0
 10
-38.8829294836
 20
170.0999085293
 30
0.0
 10
-39.9026133475
 20
169.5542772796
 30
0.0
 10
-40.4229866601
 20
169.4005812701
 30
0.0
  0
SPLINE
  5
309
100
AcDbEntity
  8
0
100
AcDbSpline
 62
7
  6
CONTINUOUS
 70
0
 71
3
 72
11
 73
7
 74
0
 42
0.0000001
 43
0.0000001
 44
0.0000000001
 40
0.0
 40
0.0
 40
0.0
 40
0.0
 40
0.2717637106
 40
0.5268805311
 40
0.7676345637
 40
1.0
 40
1.0
 40
1.0
 40
1.0
 10
-35.8558353976
 20
153.1453565533
 30
0.0
 10
-35.8558353976
 20
153.4188032724
 30
0.0
 10
-35.9090269453
 20
153.9511977568
 30
0.0
 10
-36.1636201435
 20
154.6886904988
 30
0.0
 10
-36.5809454097
 20
155.3022846849
 30
0.0
 10
-36.9585799151
 20
155.6060055257
 30
0.0
 10
-37.1610291904
 20
155.7229619876
 30
0.0
  0
SPLINE
  5
30A
100
AcDbEntity
  8
0
100
AcDbSpline
 62
7
  6
CONTINUOUS
 70
0
 71
3
 72
11
 73
7
 74
0
 42
0.0000001
 43
0.0000001
 44
0.0000000001
 40
0.0
 40
0.0
 40
0.0
 40
0.0
 40
0.2717668073
 40
0.5268680784
 40
0.7676307417
 40
1.0
 40
1.0
 40
1.0
 40
1.0
 10
-17.3024814807
 20
187.5644607373
 30
0.0
 10
-17.3024814797
 20
187.81398442
 30
0.0
 10
-17.3510027223
 20
188.2997863341
 30
0.0
 10
-17.5833370803
 20
188.972743795
 30
0.0
 10
-17.9641275142
 20
189.5326443296
 30
0.0
 10
-18.3087022641
 20
189.8098528064
 30
0.0
 10
-18.4934657281
 20
189.9165344587
 30
0.0
  0
SPLINE
  5
30B
100
AcDbEntity
  8
0
100
AcDbSpline
 62
7
  6
CONTINUOUS
 70
0
 71
3
 72
9
 73
5
 74
0
 42
0.0000001
 43
0.0000001
 44
0.0000000001
 40
0.0
 40
0.0
 40
0.0
 40
0.0
 40
0.2573643416
 40
1.0
 40
1.0
 40
1.0
 40
1.0
 10
-95.0173090265
 20
183.7389216328
 30
0.0
 10
-95.0780197398
 20
183.5929238634
 30
0.0
 10
-95.2878147347
 20
183.0154247281
 30
0.0
 10
-95.390866579
 20
182.3969515353
 30
0.0
 10
-95.390866579
 20
181.940696863
 30
0.0
  0
SPLINE
  5
30C
100
AcDbEntity
  8
0
100
AcDbSpline
 62
7
  6
CONTINUOUS
 70
0
 71
3
 72
15
 73
11
 74
0
 42
0.0000001
 43
0.0000001
 44
0.0000000001
 40
0.0
 40
0.0
 40
0.0
 40
0.0
 40
0.1145795154
 40
0.2366125971
 40
0.3647489666
 40
0.4965102004
 40
0.628816827
 40
0.7585025161
 40
0.8828261544
 40
1.0
 40
1.0
 40
1.0
 40
1.0
 10
-41.8900267361
 20
153.6042012482
 30
0.0
 10
-42.5885532255
 20
155.529644447
 30
0.0
 10
-43.4968623918
 20
159.7122557718
 30
0.0
 10
-43.4061720369
 20
166.2779768358
 30
0.0
 10
-41.9367807635
 20
172.9899832263
 30
0.0
 10
-39.1748805006
 20
179.4766065745
 30
0.0
 10
-35.2764501693
 20
185.3834883599
 30
0.0
 10
-30.4531639572
 20
190.3842615332
 30
0.0
 10
-24.9710615354
 20
194.1990521725
 30
0.0
 10
-20.9346582447
 20
195.858000286
 30
0.0
 10
-18.9114716615
 20
196.4003265421
 30
0.0
  0
SPLINE
  5
30D
100
AcDbEntity
  8
0
100
AcDbSpline
 62
7
  6
CONTINUOUS
 70
0
 71
3
 72
12
 73
8
 74
0
 42
0.0000001
 43
0.0000001
 44
0.0000000001
 40
0.0
 40
0.0
 40
0.0
 40
0.0
 40
0.2349899832
 40
0.4894752593
 40
0.6202667694
 40
0.7503904791
 40
1.0
 40
1.0
 40
1.0
 40
1.0
 10
-20.3190105101
 20
183.4002922739
 30
0.0
 10
-19.9052182715
 20
183.5112115521
 30
0.0
 10
-19.0895479652
 20
183.9279313255
 30
0.0
 10
-18.2899809851
 20
184.7520319234
 30
0.0
 10
-17.7957072742
 20
185.5548972999
 30
0.0
 10
-17.4292022508
 20
186.412573696
 30
0.0
 10
-17.3024814825
 20
187.109407822
 30
0.0
 10
-17.3024814807
 20
187.5644607373
 30
0.0
  0
SPLINE
  5
30E
100
AcDbEntity
  8
0
100
AcDbSpline
 62
7
  6
CONTINUOUS
 70
0
 71
3
 72
9
 73
5
 74
0
 42
0.0000001
 43
0.0000001
 44
0.0000000001
 40
0.0
 40
0.0
 40
0.0
 40
0.0
 40
0.511280314
 40
1.0
 40
1.0
 40
1.0
 40
1.0
 10
-18.9114716615
 20
196.4003265421
 30
0.0
 10
-17.5097544047
 20
196.776064538
 30
0.0
 10
-14.6949639441
 20
197.2683234315
 30
0.0
 10
-11.8336231765
 20
197.1854934696
 30
0.0
 10
-10.4600573547
 20
196.9917127476
 30
0.0
  0
SPLINE
  5
30F
100
AcDbEntity
  8
0
100
AcDbSpline
 62
7
  6
CONTINUOUS
 70
0
 71
3
 72
12
 73
8
 74
0
 42
0.0000001
 43
0.0000001
 44
0.0000000001
 40
0.0
 40
0.0
 40
0.0
 40
0.0
 40
0.2349899833
 40
0.4894752595
 40
0.6202667695
 40
0.7503904792
 40
1.0
 40
1.0
 40
1.0
 40
1.0
 10
-20.3190105101
 20
148.0059096568
 30
0.0
 10
-19.6784827967
 20
148.1776066221
 30
0.0
 10
-18.4158698538
 20
148.8226659998
 30
0.0
 10
-17.1781839786
 20
150.0983285739
 30
0.0
 10
-16.4130753579
 20
151.3411201884
 30
0.0
 10
-15.8457456652
 20
152.6687562575
 30
0.0
 10
-15.6495888629
 20
153.7474173046
 30
0.0
 10
-15.6495888618
 20
154.4518142844
 30
0.0
  0
SPLINE
  5
310
100
AcDbEntity
  8
0
100
AcDbSpline
 62
7
  6
CONTINUOUS
 70
0
 71
3
 72
11
 73
7
 74
0
 42
0.0000001
 43
0.0000001
 44
0.0000000001
 40
0.0
 40
0.0
 40
0.0
 40
0.0
 40
0.2717668072
 40
0.5268680782
 40
0.7676307416
 40
1.0
 40
1.0
 40
1.0
 40
1.0
 10
-15.6495888618
 20
154.4518142844
 30
0.0
 10
-15.6495888612
 20
154.8380632707
 30
0.0
 10
-15.7246970887
 20
155.5900580106
 30
0.0
 10
-16.0843379451
 20
156.6317592797
 30
0.0
 10
-16.6737806704
 20
157.4984546227
 30
0.0
 10
-17.2071635003
 20
157.927558153
 30
0.0
 10
-17.4931672173
 20
158.0926955044
 30
0.0
  0
SPLINE
  5
311
100
AcDbEntity
  8
0
100
AcDbSpline
 62
7
  6
CONTINUOUS
 70
0
 71
3
 72
11
 73
7
 74
0
 42
0.0000001
 43
0.0000001
 44
0.0000000001
 40
0.0
 40
0.0
 40
0.0
 40
0.0
 40
0.271759817
 40
0.5268741867
 40
0.7676284216
 40
1.0
 40
1.0
 40
1.0
 40
1.0
 10
-95.390866579
 20
181.940696863
 30
0.0
 10
-95.390866579
 20
181.6672542512
 30
0.0
 10
-95.3376770271
 20
181.1348652462
 30
0.0
 10
-95.0830817216
 20
180.3973842835
 30
0.0
 10
-94.6657734562
 20
179.7837675268
 30
0.0
 10
-94.2881153993
 20
179.4800714872
 30
0.0
 10
-94.0856705103
 20
179.3630954036
 30
0.0
  0
SPLINE
  5
312
100
AcDbEntity
  8
0
100
AcDbSpline
 62
7
  6
CONTINUOUS
 70
0
 71
3
 72
11
 73
7
 74
0
 42
0.0000001
 43
0.0000001
 44
0.0000000001
 40
0.0
 40
0.0
 40
0.0
 40
0.0
 40
0.2451000623
 40
0.5009702818
 40
0.7563236837
 40
1.0
 40
1.0
 40
1.0
 40
1.0
 10
-21.2797442561
 20
157.7036874905
 30
0.0
 10
-21.2797442573
 20
157.1098022521
 30
0.0
 10
-21.466670048
 20
155.891628879
 30
0.0
 10
-22.2069365599
 20
154.1952865053
 30
0.0
 10
-23.3369073786
 20
152.7336918747
 30
0.0
 10
-24.3135637915
 20
151.9891340563
 30
0.0
 10
-24.8326458773
 20
151.7077662958
 30
0.0
  0
SPLINE
  5
313
100
AcDbEntity
  8
0
100
AcDbSpline
 62
7
  6
CONTINUOUS
 70
0
 71
3
 72
13
 73
9
 74
0
 42
0.0000001
 43
0.0000001
 44
0.0000000001
 40
0.0
 40
0.0
 40
0.0
 40
0.0
 40
0.2522469285
 40
0.5146368708
 40
0.6440271779
 40
0.7689378892
 40
0.887809021
 40
1.0
 40
1.0
 40
1.0
 40
1.0
 10
-2.8618074948
 20
182.5707351589
 30
0.0
 10
-2.8618074948
 20
181.4081280558
 30
0.0
 10
-3.3299123576
 20
179.0257550316
 30
0.0
 10
-4.8185547986
 20
176.3985098323
 30
0.0
 10
-6.4603589339
 20
174.6602499389
 30
0.0
 10
-7.8456888933
 20
173.6247214741
 30
0.0
 10
-9.32845864
 20
172.8996106936
 30
0.0
 10
-10.3719312111
 20
172.6387589292
 30
0.0
 10
-10.8850831862
 20
172.5750742015
 30
0.0
  0
SPLINE
  5
314
100
AcDbEntity
  8
0
100
AcDbSpline
 62
7
  6
CONTINUOUS
 70
0
 71
3
 72
9
 73
5
 74
0
 42
0.0000001
 43
0.0000001
 44
0.0000000001
 40
0.0
 40
0.0
 40
0.0
 40
0.0
 40
0.521999697
 40
1.0
 40
1.0
 40
1.0
 40
1.0
 10
-6.1299352407
 20
181.6946955985
 30
0.0
 10
-6.1299352407
 20
182.1363334596
 30
0.0
 10
-6.2467490997
 20
182.989718739
 30
0.0
 10
-6.6525307675
 20
183.7588925341
 30
0.0
 10
-6.9116635261
 20
184.0693750918
 30
0.0
  0
SPLINE
  5
315
100
AcDbEntity
  8
0
100
AcDbSpline
 62
7
  6
CONTINUOUS
 70
0
 71
3
 72
12
 73
8
 74
0
 42
0.0000001
 43
0.0000001
 44
0.0000000001
 40
0.0
 40
0.0
 40
0.0
 40
0.0
 40
0.2490532964
 40
0.3788578994
 40
0.5094305439
 40
0.7640422048
 40
1.0
 40
1.0
 40
1.0
 40
1.0
 10
-7.5374740892
 20
182.507663897
 30
0.0
 10
-7.5374740892
 20
181.9377665837
 30
0.0
 10
-7.6934680891
 20
181.0652686273
 30
0.0
 10
-8.145783509
 20
179.9882820531
 30
0.0
 10
-8.7568872435
 20
178.9761199712
 30
0.0
 10
-9.7487188293
 20
177.9287939589
 30
0.0
 10
-10.7625669536
 20
177.3847644883
 30
0.0
 10
-11.2801475904
 20
177.2310235326
 30
0.0
  0
SPLINE
  5
316
100
AcDbEntity
  8
0
100
AcDbSpline
 62
7
  6
CONTINUOUS
 70
0
 71
3
 72
15
 73
11
 74
0
 42
0.0000001
 43
0.0000001
 44
0.0000000001
 40
0.0
 40
0.0
 40
0.0
 40
0.0
 40
0.0524625121
 40
0.1056459913
 40
0.2162146157
 40
0.3353287159
 40
0.463270727
 40
0.5978576946
 40
0.7353250469
 40
1.0
 40
1.0
 40
1.0
 40
1.0
 10
-8.6462349999
 20
169.9618295724
 30
0.0
 10
-8.384058433
 20
169.8104198874
 30
0.0
 10
-7.8266749955
 20
169.5534713015
 30
0.0
 10
-6.6124897219
 20
169.2420967147
 30
0.0
 10
-4.9476647827
 20
169.2649773805
 30
0.0
 10
-2.9630369605
 20
169.9198370364
 30
0.0
 10
-1.0980872908
 20
171.1305114082
 30
0.0
 10
0.5181870435
 20
172.8067536798
 30
0.0
 10
2.1634543221
 20
175.4448800876
 30
0.0
 10
2.7683478995
 20
177.7914467513
 30
0.0
 10
2.7683478995
 20
179.3188619648
 30
0.0
  0
SPLINE
  5
317
100
AcDbEntity
  8
0
100
AcDbSpline
 62
7
  6
CONTINUOUS
 70
0
 71
3
 72
10
 73
6
 74
0
 42
0.0000001
 43
0.0000001
 44
0.0000000001
 40
0.0
 40
0.0
 40
0.0
 40
0.0
 40
0.2403281524
 40
0.485096085
 40
1.0
 40
1.0
 40
1.0
 40
1.0
 10
-23.1448538028
 20
148.3076049409
 30
0.0
 10
-22.9432201755
 20
148.1911825268
 30
0.0
 10
-22.5092839149
 20
147.9995723626
 30
0.0
 10
-21.5555828077
 20
147.8009961502
 30
0.0
 10
-20.8008414456
 20
147.8767522328
 30
0.0
 10
-20.3190105101
 20
148.0059096568
 30
0.0
  0
SPLINE
  5
318
100
AcDbEntity
  8
0
100
AcDbSpline
 62
7
  6
CONTINUOUS
 70
0
 71
3
 72
11
 73
7
 74
0
 42
0.0000001
 43
0.0000001
 44
0.0000000001
 40
0.0
 40
0.0
 40
0.0
 40
0.0
 40
0.2211656872
 40
0.4587973944
 40
0.7197423638
 40
1.0
 40
1.0
 40
1.0
 40
1.0
 10
-4.1576225079
 20
188.5796885619
 30
0.0
 10
-4.0053967284
 20
188.4918140714
 30
0.0
 10
-3.6420646913
 20
188.3836359477
 30
0.0
 10
-3.0619400109
 20
188.4650877264
 30
0.0
 10
-2.505260121
 20
188.7576075411
 30
0.0
 10
-2.1930208156
 20
189.0625196103
 30
0.0
 10
-2.0548247083
 20
189.2371936826
 30
0.0
  0
SPLINE
  5
319
100
AcDbEntity
  8
0
100
AcDbSpline
 62
7
  6
CONTINUOUS
 70
0
 71
3
 72
11
 73
7
 74
0
 42
0.0000001
 43
0.0000001
 44
0.0000000001
 40
0.0
 40
0.0
 40
0.0
 40
0.0
 40
0.2239511717
 40
0.4619608477
 40
0.7211167524
 40
1.0
 40
1.0
 40
1.0
 40
1.0
 10
-10.5940930615
 20
190.9932545205
 30
0.0
 10
-10.318691487
 20
190.8341416597
 30
0.0
 10
-9.6738816811
 20
190.6257620515
 30
0.0
 10
-8.6317728087
 20
190.7096059771
 30
0.0
 10
-7.6044119913
 20
191.1509388305
 30
0.0
 10
-7.0029821861
 20
191.6382104738
 30
0.0
 10
-6.726953452
 20
191.9222619585
 30
0.0
  0
SPLINE
  5
31A
100
AcDbEntity
  8
0
100
AcDbSpline
 62
7
  6
CONTINUOUS
 70
0
 71
3
 72
13
 73
9
 74
0
 42
0.0000001
 43
0.0000001
 44
0.0000000001
 40
0.0
 40
0.0
 40
0.0
 40
0.0
 40
0.1077652631
 40
0.2226651327
 40
0.3453286834
 40
0.4746285622
 40
0.7416304581
 40
1.0
 40
1.0
 40
1.0
 40
1.0
 10
-11.3806973416
 20
176.3094779383
 30
0.0
 10
-11.0840143348
 20
176.2590560521
 30
0.0
 10
-10.4518849512
 20
176.2514612582
 30
0.0
 10
-9.5107733462
 20
176.5022527409
 30
0.0
 10
-8.6019436984
 20
176.9936099298
 30
0.0
 10
-7.491137583
 20
177.9376002067
 30
0.0
 10
-6.4616527924
 20
179.4987948539
 30
0.0
 10
-6.1299352407
 20
180.9731922732
 30
0.0
 10
-6.1299352407
 20
181.6946955985
 30
0.0
  0
SPLINE
  5
31B
100
AcDbEntity
  8
0
100
AcDbSpline
 62
7
  6
CONTINUOUS
 70
0
 71
3
 72
9
 73
5
 74
0
 42
0.0000001
 43
0.0000001
 44
0.0000000001
 40
0.0
 40
0.0
 40
0.0
 40
0.0
 40
0.4912176876
 40
1.0
 40
1.0
 40
1.0
 40
1.0
 10
-89.7839593669
 20
173.3157010145
 30
0.0
 10
-91.0226114498
 20
174.2569947269
 30
0.0
 10
-93.3096777352
 20
176.4997418959
 30
0.0
 10
-94.9995366487
 20
179.21405146
 30
0.0
 10
-95.7024435232
 20
180.664015477
 30
0.0
  0
SPLINE
  5
31C
100
AcDbEntity
  8
0
100
AcDbSpline
 62
7
  6
CONTINUOUS
 70
0
 71
3
 72
11
 73
7
 74
0
 42
0.0000001
 43
0.0000001
 44
0.0000000001
 40
0.0
 40
0.0
 40
0.0
 40
0.0
 40
0.2291202171
 40
0.4736241131
 40
0.7319728826
 40
1.0
 40
1.0
 40
1.0
 40
1.0
 10
-95.7024435232
 20
180.664015477
 30
0.0
 10
-96.632172193
 20
182.5818699837
 30
0.0
 10
-98.0015084355
 20
186.8292930789
 30
0.0
 10
-98.5101259713
 20
193.6718633599
 30
0.0
 10
-97.545564225
 20
200.8241520835
 30
0.0
 10
-95.9746063768
 20
205.4962852553
 30
0.0
 10
-94.9722511066
 20
207.7791730003
 30
0.0
  0
SPLINE
  5
31D
100
AcDbEntity
  8
0
100
AcDbSpline
 62
7
  6
CONTINUOUS
 70
0
 71
3
 72
11
 73
7
 74
0
 42
0.0000001
 43
0.0000001
 44
0.0000000001
 40
0.0
 40
0.0
 40
0.0
 40
0.0
 40
0.2717748263
 40
0.5268699602
 40
0.7676346167
 40
1.0
 40
1.0
 40
1.0
 40
1.0
 10
-26.3690850411
 20
171.5084133138
 30
0.0
 10
-26.3690850411
 20
172.0966506349
 30
0.0
 10
-26.4834534417
 20
173.2418772749
 30
0.0
 10
-27.0312160563
 20
174.8282672899
 30
0.0
 10
-27.9288480201
 20
176.1481747519
 30
0.0
 10
-28.7411810988
 20
176.8015838936
 30
0.0
 10
-29.1767083159
 20
177.053105376
 30
0.0
  0
SPLINE
  5
31E
100
AcDbEntity
  8
0
100
AcDbSpline
 62
7
  6
CONTINUOUS
 70
0
 71
3
 72
14
 73
10
 74
0
 42
0.0000001
 43
0.0000001
 44
0.0000000001
 40
0.0
 40
0.0
 40
0.0
 40
0.0
 40
0.2686268886
 40
0.3932525307
 40
0.5129265025
 40
0.630378935
 40
0.7488363802
 40
0.8713448663
 40
1.0
 40
1.0
 40
1.0
 40
1.0
 10
-13.8288268586
 20
187.3053261203
 30
0.0
 10
-13.8288268532
 20
188.0040055418
 30
0.0
 10
-14.0031666132
 20
189.0479801051
 30
0.0
 10
-14.6463590688
 20
190.2281805753
 30
0.0
 10
-15.2871028156
 20
190.9310120402
 30
0.0
 10
-16.0728653071
 20
191.4383576358
 30
0.0
 10
-16.9696607959
 20
191.7284176611
 30
0.0
 10
-17.937864093
 20
191.7904388714
 30
0.0
 10
-18.5882594012
 20
191.6834420054
 30
0.0
 10
-18.9114716615
 20
191.596803187
 30
0.0
  0
SPLINE
  5
31F
100
AcDbEntity
  8
0
100
AcDbSpline
 62
7
  6
CONTINUOUS
 70
0
 71
3
 72
12
 73
8
 74
0
 42
0.0000001
 43
0.0000001
 44
0.0000000001
 40
0.0
 40
0.0
 40
0.0
 40
0.0
 40
0.2349933756
 40
0.4894753556
 40
0.6202647794
 40
0.7503870015
 40
1.0
 40
1.0
 40
1.0
 40
1.0
 10
-18.9114716615
 20
191.596803187
 30
0.0
 10
-19.6086925927
 20
191.4099092937
 30
0.0
 10
-20.9830350608
 20
190.7077516236
 30
0.0
 10
-22.3302384579
 20
189.319201916
 30
0.0
 10
-23.163045654
 20
187.9664493538
 30
0.0
 10
-23.780590285
 20
186.5213299018
 30
0.0
 10
-23.9941164593
 20
185.3472073998
 30
0.0
 10
-23.9941164645
 20
184.5804645084
 30
0.0
  0
SPLINE
  5
320
100
AcDbEntity
  8
0
100
AcDbSpline
 62
7
  6
CONTINUOUS
 70
0
 71
3
 72
14
 73
10
 74
0
 42
0.0000001
 43
0.0000001
 44
0.0000000001
 40
0.0
 40
0.0
 40
0.0
 40
0.0
 40
0.2686268886
 40
0.3932525307
 40
0.5129265025
 40
0.630378935
 40
0.7488363802
 40
0.8713448663
 40
1.0
 40
1.0
 40
1.0
 40
1.0
 10
-23.9941164645
 20
184.5804645084
 30
0.0
 10
-23.9941164692
 20
183.8817850869
 30
0.0
 10
-23.81977671
 20
182.8378105236
 30
0.0
 10
-23.1765842542
 20
181.6576100534
 30
0.0
 10
-22.5358405074
 20
180.9547785885
 30
0.0
 10
-21.7500780159
 20
180.4474329929
 30
0.0
 10
-20.8532825271
 20
180.1573729676
 30
0.0
 10
-19.8850792301
 20
180.0953517574
 30
0.0
 10
-19.2346839219
 20
180.2023486233
 30
0.0
 10
-18.9114716615
 20
180.2889874418
 30
0.0
  0
SPLINE
  5
321
100
AcDbEntity
  8
0
100
AcDbSpline
 62
7
  6
CONTINUOUS
 70
0
 71
3
 72
12
 73
8
 74
0
 42
0.0000001
 43
0.0000001
 44
0.0000000001
 40
0.0
 40
0.0
 40
0.0
 40
0.0
 40
0.2349933756
 40
0.4894753556
 40
0.6202647794
 40
0.7503870015
 40
1.0
 40
1.0
 40
1.0
 40
1.0
 10
-18.9114716615
 20
180.2889874418
 30
0.0
 10
-18.2142507303
 20
180.475881335
 30
0.0
 10
-16.8399082622
 20
181.1780390051
 30
0.0
 10
-15.4927048651
 20
182.5665887127
 30
0.0
 10
-14.6598976691
 20
183.9193412749
 30
0.0
 10
-14.0423530379
 20
185.3644607269
 30
0.0
 10
-13.8288268644
 20
186.538583229
 30
0.0
 10
-13.8288268586
 20
187.3053261203
 30
0.0
  0
SPLINE
  5
322
100
AcDbEntity
  8
0
100
AcDbSpline
 62
7
  6
CONTINUOUS
 70
0
 71
3
 72
14
 73
10
 74
0
 42
0.0000001
 43
0.0000001
 44
0.0000000001
 40
0.0
 40
0.0
 40
0.0
 40
0.0
 40
0.2686164723
 40
0.3932530389
 40
0.5129262831
 40
0.6303784462
 40
0.7488454196
 40
0.8713344666
 40
1.0
 40
1.0
 40
1.0
 40
1.0
 10
-25.6470090834
 20
150.5816841894
 30
0.0
 10
-25.6470090857
 20
149.6558223337
 30
0.0
 10
-25.415920069
 20
148.2723755944
 30
0.0
 10
-24.5637209468
 20
146.7082550647
 30
0.0
 10
-23.714500485
 20
145.7769039432
 30
0.0
 10
-22.6732326287
 20
145.1044487733
 30
0.0
 10
-21.484763502
 20
144.7202422524
 30
0.0
 10
-20.2017095549
 20
144.6379151805
 30
0.0
 10
-19.3398307754
 20
144.7797808156
 30
0.0
 10
-18.9114716615
 20
144.8946048247
 30
0.0
  0
SPLINE
  5
323
100
AcDbEntity
  8
0
100
AcDbSpline
 62
7
  6
CONTINUOUS
 70
0
 71
3
 72
14
 73
10
 74
0
 42
0.0000001
 43
0.0000001
 44
0.0000000001
 40
0.0
 40
0.0
 40
0.0
 40
0.0
 40
0.2346073929
 40
0.3603379301
 40
0.4894684284
 40
0.6200482101
 40
0.7499714674
 40
0.8772023527
 40
1.0
 40
1.0
 40
1.0
 40
1.0
 10
-18.9114716615
 20
144.8946048247
 30
0.0
 10
-17.9875463147
 20
145.1422680795
 30
0.0
 10
-16.6409852083
 20
145.8305394789
 30
0.0
 10
-15.1315739255
 20
147.1416179632
 30
0.0
 10
-14.1129196668
 20
148.3475096777
 30
0.0
 10
-13.2772922937
 20
149.7051322544
 30
0.0
 10
-12.6542760626
 20
151.1646873608
 30
0.0
 10
-12.2678028914
 20
152.6709415049
 30
0.0
 10
-12.1759342411
 20
153.6920080113
 30
0.0
 10
-12.1759342397
 20
154.1926796588
 30
0.0
  0
SPLINE
  5
324
100
AcDbEntity
  8
0
100
AcDbSpline
 62
7
  6
CONTINUOUS
 70
0
 71
3
 72
14
 73
10
 74
0
 42
0.0000001
 43
0.0000001
 44
0.0000000001
 40
0.0
 40
0.0
 40
0.0
 40
0.0
 40
0.2686164723
 40
0.3932530389
 40
0.5129262831
 40
0.6303784462
 40
0.7488454196
 40
0.8713344666
 40
1.0
 40
1.0
 40
1.0
 40
1.0
 10
-12.1759342397
 20
154.1926796588
 30
0.0
 10
-12.175934237
 20
155.1185415146
 30
0.0
 10
-12.4070232541
 20
156.5019882538
 30
0.0
 10
-13.2592223763
 20
158.0661087836
 30
0.0
 10
-14.1084428381
 20
158.9974599051
 30
0.0
 10
-15.1497106943
 20
159.6699150749
 30
0.0
 10
-16.338179821
 20
160.0541215959
 30
0.0
 10
-17.6212337682
 20
160.1364486677
 30
0.0
 10
-18.4831125476
 20
159.9945830326
 30
0.0
 10
-18.9114716615
 20
159.8797590236
 30
0.0
  0
SPLINE
  5
325
100
AcDbEntity
  8
0
100
AcDbSpline
 62
7
  6
CONTINUOUS
 70
0
 71
3
 72
14
 73
10
 74
0
 42
0.0000001
 43
0.0000001
 44
0.0000000001
 40
0.0
 40
0.0
 40
0.0
 40
0.0
 40
0.2346073929
 40
0.3603379301
 40
0.4894684284
 40
0.6200482101
 40
0.7499714674
 40
0.8772023527
 40
1.0
 40
1.0
 40
1.0
 40
1.0
 10
-18.9114716615
 20
159.8797590236
 30
0.0
 10
-19.8353970084
 20
159.6320957688
 30
0.0
 10
-21.1819581147
 20
158.9438243693
 30
0.0
 10
-22.6913693976
 20
157.632745885
 30
0.0
 10
-23.7100236563
 20
156.4268541706
 30
0.0
 10
-24.5456510294
 20
155.0692315938
 30
0.0
 10
-25.1686672604
 20
153.6096764874
 30
0.0
 10
-25.5551404316
 20
152.1034223433
 30
0.0
 10
-25.6470090821
 20
151.0823558369
 30
0.0
 10
-25.6470090834
 20
150.5816841894
 30
0.0
  0
SPLINE
  5
326
100
AcDbEntity
  8
0
100
AcDbSpline
 62
7
  6
CONTINUOUS
 70
0
 71
3
 72
11
 73
7
 74
0
 42
0.0000001
 43
0.0000001
 44
0.0000000001
 40
0.0
 40
0.0
 40
0.0
 40
0.0
 40
0.2717748263
 40
0.5268699602
 40
0.7676346167
 40
1.0
 40
1.0
 40
1.0
 40
1.0
 10
2.7683478995
 20
179.3188619648
 30
0.0
 10
2.7683478995
 20
179.9070992848
 30
0.0
 10
2.653979499
 20
181.0523259229
 30
0.0
 10
2.1062168854
 20
182.6387159352
 30
0.0
 10
1.208584923
 20
183.958623395
 30
0.0
 10
0.3962518457
 20
184.6120325356
 30
0.0
 10
-0.0392753706
 20
184.8635540176
 30
0.0
  0
SPLINE
  5
327
100
AcDbEntity
  8
0
100
AcDbSpline
 62
7
  6
CONTINUOUS
 70
0
 71
3
 72
10
 73
6
 74
0
 42
0.0000001
 43
0.0000001
 44
0.0000000001
 40
0.0
 40
0.0
 40
0.0
 40
0.0
 40
0.2396046996
 40
0.4840167466
 40
1.0
 40
1.0
 40
1.0
 40
1.0
 10
-0.6619165904
 20
159.6518061461
 30
0.0
 10
-0.5129344929
 20
159.5657737216
 30
0.0
 10
-0.1911022139
 20
159.4255337274
 30
0.0
 10
0.5180143374
 20
159.2879680502
 30
0.0
 10
1.0774244706
 20
159.3584688397
 30
0.0
 10
1.432321931
 20
159.4647888413
 30
0.0
  0
SPLINE
  5
328
100
AcDbEntity
  8
0
100
AcDbSpline
 62
7
  6
CONTINUOUS
 70
0
 71
3
 72
13
 73
9
 74
0
 42
0.0000001
 43
0.0000001
 44
0.0000000001
 40
0.0
 40
0.0
 40
0.0
 40
0.0
 40
0.1140514167
 40
0.2319544774
 40
0.4790598171
 40
0.6081950468
 40
0.7391933144
 40
1.0
 40
1.0
 40
1.0
 40
1.0
 10
-90.8929703584
 20
226.6108671597
 30
0.0
 10
-91.3310903766
 20
226.4934266868
 30
0.0
 10
-92.1975305596
 20
226.1515380951
 30
0.0
 10
-93.7929664126
 20
225.0905140295
 30
0.0
 10
-95.0714044856
 20
223.5282991572
 30
0.0
 10
-95.9148780007
 20
221.6883715159
 30
0.0
 10
-96.4593626787
 20
219.6821177983
 30
0.0
 10
-96.4925418763
 20
218.0869897401
 30
0.0
 10
-96.3387876795
 20
217.0612097039
 30
0.0
  0
SPLINE
  5
329
100
AcDbEntity
  8
0
100
AcDbSpline
 62
7
  6
CONTINUOUS
 70
0
 71
3
 72
12
 73
8
 74
0
 42
0.0000001
 43
0.0000001
 44
0.0000000001
 40
0.0
 40
0.0
 40
0.0
 40
0.0
 40
0.2683104961
 40
0.5236401366
 40
0.7656158433
 40
0.8833922802
 40
1.0
 40
1.0
 40
1.0
 40
1.0
 10
-83.0783455489
 20
128.5934014019
 30
0.0
 10
-82.9614262465
 20
127.8133674988
 30
0.0
 10
-82.5324468566
 20
126.3112449074
 30
0.0
 10
-81.3111887198
 20
124.3822480216
 30
0.0
 10
-79.8789980187
 20
123.2156867634
 30
0.0
 10
-78.5910272564
 20
122.6498906971
 30
0.0
 10
-77.9158506916
 20
122.4905394027
 30
0.0
 10
-77.5763736376
 20
122.4429987471
 30
0.0
  0
SPLINE
  5
32A
100
AcDbEntity
  8
0
100
AcDbSpline
 62
7
  6
CONTINUOUS
 70
0
 71
3
 72
9
 73
5
 74
0
 42
0.0000001
 43
0.0000001
 44
0.0000000001
 40
0.0
 40
0.0
 40
0.0
 40
0.0
 40
0.2577692117
 40
1.0
 40
1.0
 40
1.0
 40
1.0
 10
-82.1560569141
 20
216.9414949587
 30
0.0
 10
-82.1717139745
 20
217.0459519449
 30
0.0
 10
-82.254854441
 20
217.4472621204
 30
0.0
 10
-82.4309149172
 20
217.8312589015
 30
0.0
 10
-82.6106655002
 20
218.0765941572
 30
0.0
  0
SPLINE
  5
32B
100
AcDbEntity
  8
0
100
AcDbSpline
 62
7
  6
CONTINUOUS
 70
0
 71
3
 72
9
 73
5
 74
0
 42
0.0000001
 43
0.0000001
 44
0.0000000001
 40
0.0
 40
0.0
 40
0.0
 40
0.0
 40
0.2577692117
 40
1.0
 40
1.0
 40
1.0
 40
1.0
 10
-69.7699296493
 20
134.3067289623
 30
0.0
 10
-69.7855867097
 20
134.4111859486
 30
0.0
 10
-69.8687271762
 20
134.812496124
 30
0.0
 10
-70.0447876524
 20
135.1964929051
 30
0.0
 10
-70.2245382354
 20
135.4418281609
 30
0.0
  0
SPLINE
  5
32C
100
AcDbEntity
  8
0
100
AcDbSpline
 62
7
  6
CONTINUOUS
 70
0
 71
3
 72
9
 73
5
 74
0
 42
0.0000001
 43
0.0000001
 44
0.0000000001
 40
0.0
 40
0.0
 40
0.0
 40
0.0
 40
0.4890309466
 40
1.0
 40
1.0
 40
1.0
 40
1.0
 10
-83.129277536
 20
214.3267855777
 30
0.0
 10
-82.7589511871
 20
214.6166439807
 30
0.0
 10
-82.1842347834
 20
215.4551068492
 30
0.0
 10
-82.0832187257
 20
216.4555507629
 30
0.0
 10
-82.1560569141
 20
216.9414949587
 30
0.0
  0
SPLINE
  5
32D
100
AcDbEntity
  8
0
100
AcDbSpline
 62
7
  6
CONTINUOUS
 70
0
 71
3
 72
9
 73
5
 74
0
 42
0.0000001
 43
0.0000001
 44
0.0000000001
 40
0.0
 40
0.0
 40
0.0
 40
0.0
 40
0.4890309466
 40
1.0
 40
1.0
 40
1.0
 40
1.0
 10
-70.7431502712
 20
131.6920195814
 30
0.0
 10
-70.3728239223
 20
131.9818779844
 30
0.0
 10
-69.7981075186
 20
132.8203408528
 30
0.0
 10
-69.6970914609
 20
133.8207847665
 30
0.0
 10
-69.7699296493
 20
134.3067289623
 30
0.0
  0
SPLINE
  5
32E
100
AcDbEntity
  8
0
100
AcDbSpline
 62
7
  6
CONTINUOUS
 70
0
 71
3
 72
9
 73
5
 74
0
 42
0.0000001
 43
0.0000001
 44
0.0000000001
 40
0.0
 40
0.0
 40
0.0
 40
0.0
 40
0.2477030856
 40
1.0
 40
1.0
 40
1.0
 40
1.0
 10
-80.5090241328
 20
126.68996847
 30
0.0
 10
-80.5540062078
 20
126.8183877588
 30
0.0
 10
-80.7229363801
 20
127.3411965483
 30
0.0
 10
-80.8417620085
 20
127.8800494088
 30
0.0
 10
-80.9030205484
 20
128.2887393082
 30
0.0
  0
SPLINE
  5
32F
100
AcDbEntity
  8
0
100
AcDbSpline
 62
7
  6
CONTINUOUS
 70
0
 71
3
 72
9
 73
5
 74
0
 42
0.0000001
 43
0.0000001
 44
0.0000000001
 40
0.0
 40
0.0
 40
0.0
 40
0.0
 40
0.2534893013
 40
1.0
 40
1.0
 40
1.0
 40
1.0
 10
-90.0844131524
 20
225.7582611271
 30
0.0
 10
-89.9748909824
 20
225.8176371202
 30
0.0
 10
-89.5363125621
 20
226.0395773774
 30
0.0
 10
-89.0720203695
 20
226.2112129012
 30
0.0
 10
-88.7176453579
 20
226.3062050661
 30
0.0
  0
SPLINE
  5
330
100
AcDbEntity
  8
0
100
AcDbSpline
 62
7
  6
CONTINUOUS
 70
0
 71
3
 72
9
 73
5
 74
0
 42
0.0000001
 43
0.0000001
 44
0.0000000001
 40
0.0
 40
0.0
 40
0.0
 40
0.0
 40
0.2488149799
 40
1.0
 40
1.0
 40
1.0
 40
1.0
 10
-80.5430855704
 20
218.9016721018
 30
0.0
 10
-80.6136579447
 20
218.9115619056
 30
0.0
 10
-80.8991909374
 20
218.9368922474
 30
0.0
 10
-81.1894818333
 20
218.9027181478
 30
0.0
 10
-81.3972692255
 20
218.8469407164
 30
0.0
  0
SPLINE
  5
331
100
AcDbEntity
  8
0
100
AcDbSpline
 62
7
  6
CONTINUOUS
 70
0
 71
3
 72
9
 73
5
 74
0
 42
0.0000001
 43
0.0000001
 44
0.0000000001
 40
0.0
 40
0.0
 40
0.0
 40
0.0
 40
0.2432935033
 40
1.0
 40
1.0
 40
1.0
 40
1.0
 10
-82.2639935135
 20
218.3805701951
 30
0.0
 10
-82.1966912238
 20
218.2856945198
 30
0.0
 10
-81.9450463338
 20
217.8782310648
 30
0.0
 10
-81.796464013
 20
217.4100590365
 30
0.0
 10
-81.7428337594
 20
217.0522616909
 30
0.0
  0
SPLINE
  5
332
100
AcDbEntity
  8
0
100
AcDbSpline
 62
7
  6
CONTINUOUS
 70
0
 71
3
 72
9
 73
5
 74
0
 42
0.0000001
 43
0.0000001
 44
0.0000000001
 40
0.0
 40
0.0
 40
0.0
 40
0.0
 40
0.2488149799
 40
1.0
 40
1.0
 40
1.0
 40
1.0
 10
-68.1569583055
 20
136.2669061055
 30
0.0
 10
-68.2275306799
 20
136.2767959092
 30
0.0
 10
-68.5130636726
 20
136.302126251
 30
0.0
 10
-68.8033545685
 20
136.2679521514
 30
0.0
 10
-69.0111419607
 20
136.21217472
 30
0.0
  0
SPLINE
  5
333
100
AcDbEntity
  8
0
100
AcDbSpline
 62
7
  6
CONTINUOUS
 70
0
 71
3
 72
12
 73
8
 74
0
 42
0.0000001
 43
0.0000001
 44
0.0000000001
 40
0.0
 40
0.0
 40
0.0
 40
0.0
 40
0.1141465032
 40
0.2321738583
 40
0.4794960043
 40
0.7389461754
 40
1.0
 40
1.0
 40
1.0
 40
1.0
 10
-88.7176453579
 20
226.306205066
 30
0.0
 10
-89.1557310226
 20
226.1887738017
 30
0.0
 10
-90.0221141044
 20
225.8468791311
 30
0.0
 10
-91.6179782336
 20
224.7855439635
 30
0.0
 10
-93.2299375594
 20
222.8153110497
 30
0.0
 10
-94.2732505914
 20
219.8946386937
 30
0.0
 10
-94.3172223131
 20
217.7823639221
 30
0.0
 10
-94.1634626789
 20
216.7565476101
 30
0.0
  0
SPLINE
  5
334
100
AcDbEntity
  8
0
100
AcDbSpline
 62
7
  6
CONTINUOUS
 70
0
 71
3
 72
11
 73
7
 74
0
 42
0.0000001
 43
0.0000001
 44
0.0000000001
 40
0.0
 40
0.0
 40
0.0
 40
0.0
 40
0.2639930922
 40
0.5191554636
 40
0.7642347712
 40
1.0
 40
1.0
 40
1.0
 40
1.0
 10
-80.9030205484
 20
128.2887393082
 30
0.0
 10
-80.8156957593
 20
127.7061469163
 30
0.0
 10
-80.53182714
 20
126.573464864
 30
0.0
 10
-79.7785887939
 20
125.0290023249
 30
0.0
 10
-78.7392540077
 20
123.7387531486
 30
0.0
 10
-77.8723376495
 20
123.0833717729
 30
0.0
 10
-77.4142047793
 20
122.8247095791
 30
0.0
  0
SPLINE
  5
335
100
AcDbEntity
  8
0
100
AcDbSpline
 62
7
  6
CONTINUOUS
 70
0
 71
3
 72
9
 73
5
 74
0
 42
0.0000001
 43
0.0000001
 44
0.0000000001
 40
0.0
 40
0.0
 40
0.0
 40
0.0
 40
0.502673014
 40
1.0
 40
1.0
 40
1.0
 40
1.0
 10
-77.4142047793
 20
122.8247095791
 30
0.0
 10
-77.1024924584
 20
122.6487165474
 30
0.0
 10
-76.4491328062
 20
122.354088672
 30
0.0
 10
-75.7517804106
 20
122.1874711246
 30
0.0
 10
-75.4010477701
 20
122.1383419329
 30
0.0
  0
SPLINE
  5
336
100
AcDbEntity
  8
0
100
AcDbSpline
 62
7
  6
CONTINUOUS
 70
0
 71
3
 72
9
 73
5
 74
0
 42
0.0000001
 43
0.0000001
 44
0.0000000001
 40
0.0
 40
0.0
 40
0.0
 40
0.0
 40
0.2432935033
 40
1.0
 40
1.0
 40
1.0
 40
1.0
 10
-69.8778662487
 20
135.7458041987
 30
0.0
 10
-69.810563959
 20
135.6509285234
 30
0.0
 10
-69.558919069
 20
135.2434650685
 30
0.0
 10
-69.4103367482
 20
134.7752930401
 30
0.0
 10
-69.3567064945
 20
134.4174956945
 30
0.0
  0
SPLINE
  5
337
100
AcDbEntity
  8
0
100
AcDbSpline
 62
7
  6
CONTINUOUS
 70
0
 71
3
 72
9
 73
5
 74
0
 42
0.0000001
 43
0.0000001
 44
0.0000000001
 40
0.0
 40
0.0
 40
0.0
 40
0.0
 40
0.510703273
 40
1.0
 40
1.0
 40
1.0
 40
1.0
 10
-69.3567064945
 20
134.4174956945
 30
0.0
 10
-69.2699640173
 20
133.8387882299
 30
0.0
 10
-69.3882251639
 20
132.6473268445
 30
0.0
 10
-70.0663618016
 20
131.6453362186
 30
0.0
 10
-70.5045831912
 20
131.2956448684
 30
0.0
  0
SPLINE
  5
338
100
AcDbEntity
  8
0
100
AcDbSpline
 62
7
  6
CONTINUOUS
 70
0
 71
3
 72
9
 73
5
 74
0
 42
0.0000001
 43
0.0000001
 44
0.0000000001
 40
0.0
 40
0.0
 40
0.0
 40
0.0
 40
0.510703273
 40
1.0
 40
1.0
 40
1.0
 40
1.0
 10
-81.7428337594
 20
217.0522616909
 30
0.0
 10
-81.6560912822
 20
216.4735542263
 30
0.0
 10
-81.7743524288
 20
215.2820928409
 30
0.0
 10
-82.4524890664
 20
214.2801022149
 30
0.0
 10
-82.8907104561
 20
213.9304108648
 30
0.0
  0
SPLINE
  5
339
100
AcDbEntity
  8
0
100
AcDbSpline
 62
7
  6
CONTINUOUS
 70
0
 71
3
 72
9
 73
5
 74
0
 42
0.0000001
 43
0.0000001
 44
0.0000000001
 40
0.0
 40
0.0
 40
0.0
 40
0.0
 40
0.5028715139
 40
1.0
 40
1.0
 40
1.0
 40
1.0
 10
-69.8627094179
 20
121.8266241418
 30
0.0
 10
-70.2337275489
 20
121.7271706976
 30
0.0
 10
-70.9926840496
 20
121.6004138839
 30
0.0
 10
-71.7620020621
 20
121.628672099
 30
0.0
 10
-72.1380602693
 20
121.6813487924
 30
0.0
  0
SPLINE
  5
33A
100
AcDbEntity
  8
0
100
AcDbSpline
 62
7
  6
CONTINUOUS
 70
0
 71
3
 72
11
 73
7
 74
0
 42
0.0000001
 43
0.0000001
 44
0.0000000001
 40
0.0
 40
0.0
 40
0.0
 40
0.0
 40
0.2685846224
 40
0.5241523409
 40
0.7663606832
 40
1.0
 40
1.0
 40
1.0
 40
1.0
 10
-71.0523971162
 20
132.6313035417
 30
0.0
 10
-71.0085504992
 20
132.3387780033
 30
0.0
 10
-70.847885474
 20
131.7754998416
 30
0.0
 10
-70.3890885759
 20
131.0520424445
 30
0.0
 10
-69.7536748511
 20
130.532778129
 30
0.0
 10
-69.2439773197
 20
130.3606012937
 30
0.0
 10
-68.9891493024
 20
130.3249633064
 30
0.0
  0
SPLINE
  5
33B
100
AcDbEntity
  8
0
100
AcDbSpline
 62
7
  6
CONTINUOUS
 70
0
 71
3
 72
11
 73
7
 74
0
 42
0.0000001
 43
0.0000001
 44
0.0000000001
 40
0.0
 40
0.0
 40
0.0
 40
0.0
 40
0.2311999488
 40
0.4788335415
 40
0.7386037987
 40
1.0
 40
1.0
 40
1.0
 40
1.0
 10
-69.0111419607
 20
136.21217472
 30
0.0
 10
-69.3433586301
 20
136.122996102
 30
0.0
 10
-69.9931344405
 20
135.7736419681
 30
0.0
 10
-70.7014282488
 20
134.9032792412
 30
0.0
 10
-71.0939050695
 20
133.8076991367
 30
0.0
 10
-71.1100458321
 20
133.0159106749
 30
0.0
 10
-71.0523971162
 20
132.6313035417
 30
0.0
  0
SPLINE
  5
33C
100
AcDbEntity
  8
0
100
AcDbSpline
 62
7
  6
CONTINUOUS
 70
0
 71
3
 72
11
 73
7
 74
0
 42
0.0000001
 43
0.0000001
 44
0.0000000001
 40
0.0
 40
0.0
 40
0.0
 40
0.0
 40
0.2685846224
 40
0.5241523409
 40
0.7663606832
 40
1.0
 40
1.0
 40
1.0
 40
1.0
 10
-83.4385243811
 20
215.2660695381
 30
0.0
 10
-83.3946777641
 20
214.9735439997
 30
0.0
 10
-83.2340127388
 20
214.410265838
 30
0.0
 10
-82.7752158407
 20
213.6868084408
 30
0.0
 10
-82.1398021159
 20
213.1675441254
 30
0.0
 10
-81.6301045845
 20
212.9953672901
 30
0.0
 10
-81.3752765672
 20
212.9597293027
 30
0.0
  0
SPLINE
  5
33D
100
AcDbEntity
  8
0
100
AcDbSpline
 62
7
  6
CONTINUOUS
 70
0
 71
3
 72
11
 73
7
 74
0
 42
0.0000001
 43
0.0000001
 44
0.0000000001
 40
0.0
 40
0.0
 40
0.0
 40
0.0
 40
0.2311999488
 40
0.4788335415
 40
0.7386037987
 40
1.0
 40
1.0
 40
1.0
 40
1.0
 10
-81.3972692255
 20
218.8469407164
 30
0.0
 10
-81.7294858949
 20
218.7577620983
 30
0.0
 10
-82.3792617053
 20
218.4084079645
 30
0.0
 10
-83.0875555136
 20
217.5380452376
 30
0.0
 10
-83.4800323343
 20
216.4424651331
 30
0.0
 10
-83.496173097
 20
215.6506766713
 30
0.0
 10
-83.4385243811
 20
215.2660695381
 30
0.0
  0
SPLINE
  5
33E
100
AcDbEntity
  8
0
100
AcDbSpline
 62
7
  6
CONTINUOUS
 70
0
 71
3
 72
9
 73
5
 74
0
 42
0.0000001
 43
0.0000001
 44
0.0000000001
 40
0.0
 40
0.0
 40
0.0
 40
0.0
 40
0.4836016157
 40
1.0
 40
1.0
 40
1.0
 40
1.0
 10
16.325332972
 20
198.8802002626
 30
0.0
 10
17.8174326406
 20
196.070428784
 30
0.0
 10
20.077281445
 20
189.8005534205
 30
0.0
 10
20.757951191
 20
183.1957786555
 30
0.0
 10
20.757951191
 20
179.7986449096
 30
0.0
  0
SPLINE
  5
33F
100
AcDbEntity
  8
0
100
AcDbSpline
 62
7
  6
CONTINUOUS
 70
0
 71
3
 72
16
 73
12
 74
0
 42
0.0000001
 43
0.0000001
 44
0.0000000001
 40
0.0
 40
0.0
 40
0.0
 40
0.0
 40
0.1247784601
 40
0.2543804358
 40
0.3203447487
 40
0.3866103056
 40
0.5185679964
 40
0.6477278944
 40
0.7718336645
 40
0.8893846842
 40
1.0
 40
1.0
 40
1.0
 40
1.0
 10
20.757951191
 20
179.7986449096
 30
0.0
 10
20.757951191
 20
176.4744819803
 30
0.0
 10
20.0698891346
 20
169.6852178003
 30
0.0
 10
17.6925658624
 20
161.4435374303
 30
0.0
 10
14.9259478278
 20
155.0324018355
 30
0.0
 10
11.6012222966
 20
148.8211319495
 30
0.0
 10
6.5328904736
 20
141.6685022517
 30
0.0
 10
-0.7692772481
 20
134.3851368397
 30
0.0
 10
-8.9563302661
 20
128.7492383512
 30
0.0
 10
-17.6467974101
 20
125.0372550684
 30
0.0
 10
-23.6984206808
 20
123.9492447349
 30
0.0
 10
-26.6420149794
 20
123.8107742138
 30
0.0
  0
SPLINE
  5
340
100
AcDbEntity
  8
0
100
AcDbSpline
 62
7
  6
CONTINUOUS
 70
0
 71
3
 72
11
 73
7
 74
0
 42
0.0000001
 43
0.0000001
 44
0.0000000001
 40
0.0
 40
0.0
 40
0.0
 40
0.0
 40
0.2570200125
 40
0.508214881
 40
0.7551822505
 40
1.0
 40
1.0
 40
1.0
 40
1.0
 10
-24.0919643106
 20
131.5829385741
 30
0.0
 10
-25.2390174625
 20
131.5426113299
 30
0.0
 10
-27.5153414419
 20
131.6071571523
 30
0.0
 10
-30.8528888784
 20
132.1592896015
 30
0.0
 10
-34.0277721075
 20
133.1599814655
 30
0.0
 10
-36.0130631977
 20
134.1202613385
 30
0.0
 10
-36.9597697881
 20
134.6670589425
 30
0.0
  0
SPLINE
  5
341
100
AcDbEntity
  8
0
100
AcDbSpline
 62
7
  6
CONTINUOUS
 70
0
 71
3
 72
14
 73
10
 74
0
 42
0.0000001
 43
0.0000001
 44
0.0000000001
 40
0.0
 40
0.0
 40
0.0
 40
0.0
 40
0.2678665364
 40
0.4052397629
 40
0.5390738352
 40
0.6660659448
 40
0.7844449883
 40
0.8947198658
 40
1.0
 40
1.0
 40
1.0
 40
1.0
 10
-10.9159013153
 20
135.1148545001
 30
0.0
 10
-11.0185879307
 20
133.7372651025
 30
0.0
 10
-11.6742787528
 20
131.6666143228
 30
0.0
 10
-13.2522593066
 20
129.3649175173
 30
0.0
 10
-14.7446705783
 20
127.9297389703
 30
0.0
 10
-16.4339611802
 20
126.9097127741
 30
0.0
 10
-18.2134079606
 20
126.3778194422
 30
0.0
 10
-19.9633882211
 20
126.385314503
 30
0.0
 10
-21.0349854085
 20
126.7698891221
 30
0.0
 10
-21.5051252691
 20
127.0414607783
 30
0.0
  0
SPLINE
  5
342
100
AcDbEntity
  8
0
100
AcDbSpline
 62
7
  6
CONTINUOUS
 70
0
 71
3
 72
19
 73
15
 74
0
 42
0.0000001
 43
0.0000001
 44
0.0000000001
 40
0.0
 40
0.0
 40
0.0
 40
0.0
 40
0.1284444945
 40
0.1954118088
 40
0.2635128133
 40
0.400667549
 40
0.5354850471
 40
0.6638637298
 40
0.72490841
 40
0.7836045508
 40
0.8400569699
 40
0.8945754557
 40
0.9476675257
 40
1.0
 40
1.0
 40
1.0
 40
1.0
 10
-23.6129802191
 20
198.8235010714
 30
0.0
 10
-26.4439807891
 20
197.398097122
 30
0.0
 10
-30.4723575074
 20
194.6322427665
 30
0.0
 10
-35.1308387235
 20
190.0838960707
 30
0.0
 10
-39.3936886085
 20
184.875562916
 30
0.0
 10
-43.6196125577
 20
177.5431117536
 30
0.0
 10
-46.6317915828
 20
168.0547947431
 30
0.0
 10
-47.2500153297
 20
159.9859954088
 30
0.0
 10
-46.4910733049
 20
153.8930148433
 30
0.0
 10
-45.3414208778
 20
149.6829170796
 30
0.0
 10
-43.6221425638
 20
145.8457343508
 30
0.0
 10
-41.3640920533
 20
142.4607482116
 30
0.0
 10
-38.6123749732
 20
139.6021837357
 30
0.0
 10
-36.4775309454
 20
138.0840052414
 30
0.0
 10
-35.359272233
 20
137.4380924825
 30
0.0
  0
SPLINE
  5
343
100
AcDbEntity
  8
0
100
AcDbSpline
 62
7
  6
CONTINUOUS
 70
0
 71
3
 72
11
 73
7
 74
0
 42
0.0000001
 43
0.0000001
 44
0.0000000001
 40
0.0
 40
0.0
 40
0.0
 40
0.0
 40
0.2717600068
 40
0.5268849658
 40
0.7676389069
 40
1.0
 40
1.0
 40
1.0
 40
1.0
 10
-21.6361643601
 20
133.0451553792
 30
0.0
 10
-21.6361643601
 20
132.703351888
 30
0.0
 10
-21.5696661089
 20
132.0378561691
 30
0.0
 10
-21.2514418545
 20
131.1159774486
 30
0.0
 10
-20.7297594964
 20
130.3489950218
 30
0.0
 10
-20.2577238203
 20
129.9693500302
 30
0.0
 10
-20.0046703926
 20
129.8231516632
 30
0.0
  0
SPLINE
  5
344
100
AcDbEntity
  8
0
100
AcDbSpline
 62
7
  6
CONTINUOUS
 70
0
 71
3
 72
18
 73
14
 74
0
 42
0.0000001
 43
0.0000001
 44
0.0000000001
 40
0.0
 40
0.0
 40
0.0
 40
0.0
 40
0.0528769427
 40
0.1072673074
 40
0.1635045263
 40
0.2217754862
 40
0.3442367568
 40
0.4737372406
 40
0.607582486
 40
0.6751258941
 40
0.7424046864
 40
0.8742032986
 40
1.0
 40
1.0
 40
1.0
 40
1.0
 10
7.2763016127
 20
197.7777933724
 30
0.0
 10
8.162487129
 20
196.82263964
 30
0.0
 10
9.8027317868
 20
194.7329874018
 30
0.0
 10
11.7764219416
 20
191.2041945554
 30
0.0
 10
13.2641217279
 20
187.3020903454
 30
0.0
 10
14.5901567021
 20
181.6001337437
 30
0.0
 10
14.8726711181
 20
173.8810897346
 30
0.0
 10
13.122492551
 20
164.470767944
 30
0.0
 10
10.0408610341
 20
156.8599184215
 30
0.0
 10
6.6906712184
 20
151.1398361567
 30
0.0
 10
2.8288019941
 20
145.8135580628
 30
0.0
 10
-2.8044785138
 20
140.048688038
 30
0.0
 10
-8.1444619796
 20
136.5032173087
 30
0.0
 10
-10.9159013153
 20
135.1148545001
 30
0.0
  0
SPLINE
  5
345
100
AcDbEntity
  8
0
100
AcDbSpline
 62
7
  6
CONTINUOUS
 70
0
 71
3
 72
11
 73
7
 74
0
 42
0.0000001
 43
0.0000001
 44
0.0000000001
 40
0.0
 40
0.0
 40
0.0
 40
0.0
 40
0.250498185
 40
0.505283923
 40
0.7572547237
 40
1.0
 40
1.0
 40
1.0
 40
1.0
 10
-42.5285795624
 20
203.6315347909
 30
0.0
 10
-45.4594646477
 20
200.8216487339
 30
0.0
 10
-50.7838118428
 20
194.5121312829
 30
0.0
 10
-56.7571668676
 20
183.7043956136
 30
0.0
 10
-60.4833481147
 20
172.0606900639
 30
0.0
 10
-61.3117098931
 20
164.0083902062
 30
0.0
 10
-61.2520922791
 20
160.074266383
 30
0.0
  0
SPLINE
  5
346
100
AcDbEntity
  8
0
100
AcDbSpline
 62
7
  6
CONTINUOUS
 70
0
 71
3
 72
11
 73
7
 74
0
 42
0.0000001
 43
0.0000001
 44
0.0000000001
 40
0.0
 40
0.0
 40
0.0
 40
0.0
 40
0.235472636
 40
0.4799458801
 40
0.7347287182
 40
1.0
 40
1.0
 40
1.0
 40
1.0
 10
-52.9481544485
 20
135.5494667359
 30
0.0
 10
-54.2693737845
 20
137.1418393595
 30
0.0
 10
-56.6416397792
 20
140.6653577417
 30
0.0
 10
-59.2221117443
 20
146.617794229
 30
0.0
 10
-60.8293149918
 20
153.1705229755
 30
0.0
 10
-61.2167729163
 20
157.7435668198
 30
0.0
 10
-61.2520922791
 20
160.074266383
 30
0.0
  0
SPLINE
  5
347
100
AcDbEntity
  8
0
100
AcDbSpline
 62
7
  6
CONTINUOUS
 70
0
 71
3
 72
19
 73
15
 74
0
 42
0.0000001
 43
0.0000001
 44
0.0000000001
 40
0.0
 40
0.0
 40
0.0
 40
0.0
 40
0.0523454753
 40
0.1053773288
 40
0.159706235
 40
0.2158103431
 40
0.2740017447
 40
0.3344164261
 40
0.4614098298
 40
0.5951644455
 40
0.6636247981
 40
0.7324027827
 40
0.8686124274
 40
1.0
 40
1.0
 40
1.0
 40
1.0
 10
-36.9597697881
 20
134.6670589425
 30
0.0
 10
-38.1161911796
 20
135.334983358
 30
0.0
 10
-40.3283899424
 20
136.8920956933
 30
0.0
 10
-43.2091477987
 20
139.8010855517
 30
0.0
 10
-45.6114417542
 20
143.2336117115
 30
0.0
 10
-47.491522377
 20
147.1219723704
 30
0.0
 10
-48.8183994347
 20
151.3935417769
 30
0.0
 10
-49.8376549302
 20
157.5929505229
 30
0.0
 10
-49.5751714732
 20
165.8689119224
 30
0.0
 10
-47.4304356376
 20
174.0581325597
 30
0.0
 10
-44.6653339269
 20
180.4060953412
 30
0.0
 10
-41.2317233769
 20
186.491427987
 30
0.0
 10
-35.8894129619
 20
193.2870210079
 30
0.0
 10
-30.5799307077
 20
197.6844135594
 30
0.0
 10
-27.759891079
 20
199.4963901325
 30
0.0
  0
SPLINE
  5
348
100
AcDbEntity
  8
0
100
AcDbSpline
 62
7
  6
CONTINUOUS
 70
0
 71
3
 72
12
 73
8
 74
0
 42
0.0000001
 43
0.0000001
 44
0.0000000001
 40
0.0
 40
0.0
 40
0.0
 40
0.0
 40
0.2610538246
 40
0.5205039957
 40
0.7678261417
 40
0.8858534968
 40
1.0
 40
1.0
 40
1.0
 40
1.0
 10
-90.9004751781
 20
216.2995544696
 30
0.0
 10
-91.0542348123
 20
217.3253707816
 30
0.0
 10
-91.0102630905
 20
219.4376455532
 30
0.0
 10
-89.9669500586
 20
222.3583179092
 30
0.0
 10
-88.3549907327
 20
224.328550823
 30
0.0
 10
-86.7591266035
 20
225.3898859906
 30
0.0
 10
-85.8927435218
 20
225.7317806612
 30
0.0
 10
-85.4546578571
 20
225.8492119255
 30
0.0
  0
SPLINE
  5
349
100
AcDbEntity
  8
0
100
AcDbSpline
 62
7
  6
CONTINUOUS
 70
0
 71
3
 72
14
 73
10
 74
0
 42
0.0000001
 43
0.0000001
 44
0.0000000001
 40
0.0
 40
0.0
 40
0.0
 40
0.0
 40
0.1124461208
 40
0.2274870439
 40
0.3470009223
 40
0.4717192007
 40
0.601205494
 40
0.7340159124
 40
1.0
 40
1.0
 40
1.0
 40
1.0
 10
-68.9891493024
 20
130.3249633064
 30
0.0
 10
-68.7912732415
 20
130.2972901147
 30
0.0
 10
-68.380565416
 20
130.2992420778
 30
0.0
 10
-67.7821640749
 20
130.4758564357
 30
0.0
 10
-67.2318932743
 20
130.8127894451
 30
0.0
 10
-66.7603567163
 20
131.2885291487
 30
0.0
 10
-66.3923228379
 20
131.8760350805
 30
0.0
 10
-66.0651973462
 20
132.7604753486
 30
0.0
 10
-66.0236607288
 20
133.4931042834
 30
0.0
 10
-66.0937187386
 20
133.9605011946
 30
0.0
  0
SPLINE
  5
34A
100
AcDbEntity
  8
0
100
AcDbSpline
 62
7
  6
CONTINUOUS
 70
0
 71
3
 72
11
 73
7
 74
0
 42
0.0000001
 43
0.0000001
 44
0.0000000001
 40
0.0
 40
0.0
 40
0.0
 40
0.0
 40
0.2685905871
 40
0.5241523117
 40
0.7663776
 40
1.0
 40
1.0
 40
1.0
 40
1.0
 10
-66.0937187386
 20
133.9605011946
 30
0.0
 10
-66.1375662548
 20
134.2530329656
 30
0.0
 10
-66.2982345276
 20
134.8163109913
 30
0.0
 10
-66.7570558364
 20
135.539774227
 30
0.0
 10
-67.3924892549
 20
136.0590108931
 30
0.0
 10
-67.902158976
 20
136.2311992813
 30
0.0
 10
-68.1569583055
 20
136.2669061055
 30
0.0
  0
SPLINE
  5
34B
100
AcDbEntity
  8
0
100
AcDbSpline
 62
7
  6
CONTINUOUS
 70
0
 71
3
 72
11
 73
7
 74
0
 42
0.0000001
 43
0.0000001
 44
0.0000000001
 40
0.0
 40
0.0
 40
0.0
 40
0.0
 40
0.233633584
 40
0.4758467542
 40
0.7314152315
 40
1.0
 40
1.0
 40
1.0
 40
1.0
 10
-72.1380602693
 20
121.6813487924
 30
0.0
 10
-72.817567869
 20
121.7765314338
 30
0.0
 10
-74.1767523933
 20
122.2355765427
 30
0.0
 10
-75.8712102187
 20
123.6203332046
 30
0.0
 10
-77.0946184213
 20
125.5496014303
 30
0.0
 10
-77.5231078937
 20
127.051673226
 30
0.0
 10
-77.6400330476
 20
127.8317461677
 30
0.0
  0
SPLINE
  5
34C
100
AcDbEntity
  8
0
100
AcDbSpline
 62
7
  6
CONTINUOUS
 70
0
 71
3
 72
11
 73
7
 74
0
 42
0.0000001
 43
0.0000001
 44
0.0000000001
 40
0.0
 40
0.0
 40
0.0
 40
0.0
 40
0.2685905871
 40
0.5241523117
 40
0.7663776
 40
1.0
 40
1.0
 40
1.0
 40
1.0
 10
-78.4798460034
 20
216.595267191
 30
0.0
 10
-78.5236935196
 20
216.887798962
 30
0.0
 10
-78.6843617925
 20
217.4510769876
 30
0.0
 10
-79.1431831012
 20
218.1745402234
 30
0.0
 10
-79.7786165197
 20
218.6937768894
 30
0.0
 10
-80.2882862408
 20
218.8659652777
 30
0.0
 10
-80.5430855704
 20
218.9016721018
 30
0.0
  0
SPLINE
  5
34D
100
AcDbEntity
  8
0
100
AcDbSpline
 62
7
  6
CONTINUOUS
 70
0
 71
3
 72
11
 73
7
 74
0
 42
0.0000001
 43
0.0000001
 44
0.0000000001
 40
0.0
 40
0.0
 40
0.0
 40
0.0
 40
0.2433290221
 40
0.4894736545
 40
0.7410332223
 40
1.0
 40
1.0
 40
1.0
 40
1.0
 10
-35.359272233
 20
137.4380924825
 30
0.0
 10
-34.3612697927
 20
136.8616404483
 30
0.0
 10
-32.251683398
 20
135.8696216603
 30
0.0
 10
-28.8572936262
 20
134.9189391659
 30
0.0
 10
-25.2817081068
 20
134.5154109364
 30
0.0
 10
-22.8553055137
 20
134.6126799485
 30
0.0
 10
-21.6361643601
 20
134.7476473994
 30
0.0
  0
SPLINE
  5
34E
100
AcDbEntity
  8
0
100
AcDbSpline
 62
7
  6
CONTINUOUS
 70
0
 71
3
 72
11
 73
7
 74
0
 42
0.0000001
 43
0.0000001
 44
0.0000000001
 40
0.0
 40
0.0
 40
0.0
 40
0.0
 40
0.2659971065
 40
0.5191233757
 40
0.7623196521
 40
1.0
 40
1.0
 40
1.0
 40
1.0
 10
-25.3999267021
 20
131.6304267931
 30
0.0
 10
-25.3249352892
 20
131.2242231644
 30
0.0
 10
-25.1083037589
 20
130.4418586498
 30
0.0
 10
-24.5676601568
 20
129.3791272693
 30
0.0
 10
-23.8359878511
 20
128.4927097692
 30
0.0
 10
-23.2322743476
 20
128.0390373027
 30
0.0
 10
-22.9126660443
 20
127.8544257159
 30
0.0
  0
SPLINE
  5
34F
100
AcDbEntity
  8
0
100
AcDbSpline
 62
7
  6
CONTINUOUS
 70
0
 71
3
 72
18
 73
14
 74
0
 42
0.0000001
 43
0.0000001
 44
0.0000000001
 40
0.0
 40
0.0
 40
0.0
 40
0.0
 40
0.1308446918
 40
0.2661496577
 40
0.3344617362
 40
0.4025286094
 40
0.535928824
 40
0.6633110373
 40
0.7826935044
 40
0.8394077953
 40
0.8942734965
 40
0.9476476933
 40
1.0
 40
1.0
 40
1.0
 40
1.0
 10
-29.7781347521
 20
199.9093641859
 30
0.0
 10
-32.4303358419
 20
198.1386486051
 30
0.0
 10
-37.4268282946
 20
193.9135644121
 30
0.0
 10
-42.5029073609
 20
187.4671207903
 30
0.0
 10
-45.8097890457
 20
181.7195925268
 30
0.0
 10
-48.5219480078
 20
175.7205343377
 30
0.0
 10
-50.7366552911
 20
167.9556249412
 30
0.0
 10
-51.3721784662
 20
158.6407111703
 30
0.0
 10
-50.1205079967
 20
151.2599067859
 30
0.0
 10
-48.0476138459
 20
146.0080966702
 30
0.0
 10
-46.0335881075
 20
142.5102508703
 30
0.0
 10
-43.566598675
 20
139.4511918966
 30
0.0
 10
-41.6324595289
 20
137.7272198351
 30
0.0
 10
-40.6115068375
 20
136.9619162063
 30
0.0
  0
SPLINE
  5
350
100
AcDbEntity
  8
0
100
AcDbSpline
 62
7
  6
CONTINUOUS
 70
0
 71
3
 72
14
 73
10
 74
0
 42
0.0000001
 43
0.0000001
 44
0.0000000001
 40
0.0
 40
0.0
 40
0.0
 40
0.0
 40
0.1052593579
 40
0.2158746069
 40
0.3350381737
 40
0.4630342974
 40
0.5976755832
 40
0.7352077041
 40
1.0
 40
1.0
 40
1.0
 40
1.0
 10
-20.0046703926
 20
129.8231516632
 30
0.0
 10
-19.6991615981
 20
129.6466478818
 30
0.0
 10
-18.9984716106
 20
129.4010176996
 30
0.0
 10
-17.8562120921
 20
129.4186675929
 30
0.0
 10
-16.7020341041
 20
129.7986029035
 30
0.0
 10
-15.6186172241
 20
130.5022904028
 30
0.0
 10
-14.6793132344
 20
131.4762844986
 30
0.0
 10
-13.7232353792
 20
133.0092988024
 30
0.0
 10
-13.3717012658
 20
134.3729039455
 30
0.0
 10
-13.3717012658
 20
135.260490023
 30
0.0
  0
SPLINE
  5
351
100
AcDbEntity
  8
0
100
AcDbSpline
 62
7
  6
CONTINUOUS
 70
0
 71
3
 72
11
 73
7
 74
0
 42
0.0000001
 43
0.0000001
 44
0.0000000001
 40
0.0
 40
0.0
 40
0.0
 40
0.0
 40
0.2416151811
 40
0.4933658761
 40
0.7486009631
 40
1.0
 40
1.0
 40
1.0
 40
1.0
 10
-58.580894514
 20
158.5314323289
 30
0.0
 10
-58.580894514
 20
162.4967762579
 30
0.0
 10
-57.6001525078
 20
170.6143019129
 30
0.0
 10
-53.5880461374
 20
182.3111813407
 30
0.0
 10
-47.2741166295
 20
193.1274649707
 30
0.0
 10
-41.6993894815
 20
199.3894447612
 30
0.0
 10
-38.6414686499
 20
202.1593351714
 30
0.0
  0
SPLINE
  5
352
100
AcDbEntity
  8
0
100
AcDbSpline
 62
7
  6
CONTINUOUS
 70
0
 71
3
 72
11
 73
7
 74
0
 42
0.0000001
 43
0.0000001
 44
0.0000000001
 40
0.0
 40
0.0
 40
0.0
 40
0.0
 40
0.2345614733
 40
0.4786043916
 40
0.733652355
 40
1.0
 40
1.0
 40
1.0
 40
1.0
 10
-50.7078830547
 20
134.2555272951
 30
0.0
 10
-51.9942936737
 20
135.8289117734
 30
0.0
 10
-54.2968469803
 20
139.3147794671
 30
0.0
 10
-56.7668271394
 20
145.2067892259
 30
0.0
 10
-58.2622968275
 20
151.6976608259
 30
0.0
 10
-58.580894514
 20
156.2236876244
 30
0.0
 10
-58.580894514
 20
158.5314323289
 30
0.0
  0
SPLINE
  5
353
100
AcDbEntity
  8
0
100
AcDbSpline
 62
7
  6
CONTINUOUS
 70
0
 71
3
 72
11
 73
7
 74
0
 42
0.0000001
 43
0.0000001
 44
0.0000000001
 40
0.0
 40
0.0
 40
0.0
 40
0.0
 40
0.2346970929
 40
0.4764801463
 40
0.7307028746
 40
1.0
 40
1.0
 40
1.0
 40
1.0
 10
-21.5051252691
 20
127.0414607783
 30
0.0
 10
-21.8727500413
 20
127.2538156041
 30
0.0
 10
-22.5622099009
 20
127.7921563682
 30
0.0
 10
-23.3575547833
 20
128.8656288447
 30
0.0
 10
-23.8906849011
 20
130.1565174648
 30
0.0
 10
-24.0542545997
 20
131.0972615993
 30
0.0
 10
-24.0919643106
 20
131.5829385741
 30
0.0
  0
SPLINE
  5
354
100
AcDbEntity
  8
0
100
AcDbSpline
 62
7
  6
CONTINUOUS
 70
0
 71
3
 72
17
 73
13
 74
0
 42
0.0000001
 43
0.0000001
 44
0.0000000001
 40
0.0
 40
0.0
 40
0.0
 40
0.0
 40
0.1254143862
 40
0.2578805726
 40
0.3938006493
 40
0.5288070809
 40
0.6587308938
 40
0.7805673055
 40
0.8382273348
 40
0.8937631659
 40
0.947514518
 40
1.0
 40
1.0
 40
1.0
 40
1.0
 10
-13.3717012658
 20
136.9629820432
 30
0.0
 10
-10.5633368311
 20
138.1576714301
 30
0.0
 10
-5.1126906143
 20
141.4222782406
 30
0.0
 10
1.8042833564
 20
148.1594405172
 30
0.0
 10
7.2685371016
 20
156.4030078277
 30
0.0
 10
10.8739109571
 20
165.5470638682
 30
0.0
 10
12.3539192306
 20
174.9221164742
 30
0.0
 10
11.6837124797
 20
182.5206545603
 30
0.0
 10
9.9606838045
 20
187.9943928949
 30
0.0
 10
8.1519995
 20
191.6522335189
 30
0.0
 10
5.8375153565
 20
194.8591620306
 30
0.0
 10
3.9683551765
 20
196.6689724211
 30
0.0
 10
2.9731452178
 20
197.4694964287
 30
0.0
  0
SPLINE
  5
355
100
AcDbEntity
  8
0
100
AcDbSpline
 62
7
  6
CONTINUOUS
 70
0
 71
3
 72
14
 73
10
 74
0
 42
0.0000001
 43
0.0000001
 44
0.0000000001
 40
0.0
 40
0.0
 40
0.0
 40
0.0
 40
0.1124461208
 40
0.2274870439
 40
0.3470009223
 40
0.4717192007
 40
0.601205494
 40
0.7340159124
 40
1.0
 40
1.0
 40
1.0
 40
1.0
 10
-81.3752765672
 20
212.9597293027
 30
0.0
 10
-81.1774005063
 20
212.9320561111
 30
0.0
 10
-80.7666926808
 20
212.9340080742
 30
0.0
 10
-80.1682913397
 20
213.1106224321
 30
0.0
 10
-79.6180205392
 20
213.4475554415
 30
0.0
 10
-79.1464839812
 20
213.923295145
 30
0.0
 10
-78.7784501027
 20
214.5108010768
 30
0.0
 10
-78.451324611
 20
215.3952413449
 30
0.0
 10
-78.4097879937
 20
216.1278702798
 30
0.0
 10
-78.4798460034
 20
216.595267191
 30
0.0
  0
ELLIPSE
  5
356
100
AcDbEntity
  8
0
100
AcDbEllipse
 62
7
  6
CONTINUOUS
 10
-42.9324695979
 20
183.0391209163
 30
0.0
 11
3.4809101113
 21
39.9889052907
 31
0.0
 40
0.8125771683
 41
6.9885204602
 42
9.0069648969
  0
ENDSEC
  0
SECTION
  2
OBJECTS
  0
DICTIONARY
  5
C
100
AcDbDictionary
280
0
281
1
  3
ACAD_GROUP
350
D
  3
ACAD_MLINESTYLE
350
17
  3
ACAD_LAYOUT
350
1A
  3
ACAD_PLOTSETTINGS
350
19
  3
ACAD_PLOTSTYLENAME
350
E
  0
DICTIONARY
  5
D
102
{ACAD_REACTORS
330
C
102
}
100
AcDbDictionary
280
0
281
1
  0
ACDBDICTIONARYWDFLT
  5
E
102
{ACAD_REACTORS
330
C
102
}
100
AcDbDictionary
281
1
  3
Normal
350
F
100
AcDbDictionaryWithDefault
340
F
  0
DICTIONARY
  5
17
102
{ACAD_REACTORS
330
C
102
}
100
AcDbDictionary
280
0
281
1
  3
Standard
350
18
  0
DICTIONARY
  5
19
102
{ACAD_REACTORS
330
C
102
}
100
AcDbDictionary
281
1
  0
DICTIONARY
  5
1A
102
{ACAD_REACTORS
330
C
102
}
100
AcDbDictionary
281
1
  3
Model
350
357
  3
Layout1
350
358
  0
ACDBPLACEHOLDER
  5
F
102
{ACAD_REACTORS
330
E
102
}
  0
MLINESTYLE
  5
18
102
{ACAD_REACTORS
330
17
102
}
100
AcDbMlineStyle
  2
STANDARD
 70
0
  3

 62
256
 51
90.0
 52
90.0
 71
2
 49
0.5
 62
256
  6
BYLAYER
 49
-0.5
 62
256
  6
BYLAYER
  0
LAYOUT
  5
357
102
{ACAD_REACTORS
330
1A
102
}
100
AcDbPlotSettings
  1

  2
none_device
  4
ANSI_C_(22.00_x_17.00_Inches)
  6

 40
0.0
 41
0.0
 42
0.0
 43
0.0
 44
558.8
 45
431.8
 46
0.0
 47
0.0
 48
0.0
 49
0.0
140
0.0
141
0.0
142
1.0
143
1.0
 70
1024
 72
1
 73
0
 74
0
  7

 75
0
147
1.0
148
0.0
149
0.0
100
AcDbLayout
  1
Model
 70
0
 71
0
 10
0.0
 20
0.0
 11
558.8
 21
431.8
 12
0.0
 22
0.0
 32
0.0
 14
0.0
 24
0.0
 34
0.0
 15
0.0
 25
0.0
 35
0.0
146
0.0
 13
0.0
 23
0.0
 33
0.0
 16
1.0
 26
0.0
 36
0.0
 17
0.0
 27
1.0
 37
0.0
 76
0
330
216
345
0
346
0
  0
LAYOUT
  5
358
102
{ACAD_REACTORS
330
1A
102
}
100
AcDbPlotSettings
  1

  2
none_device
  4
ANSI_C_(22.00_x_17.00_Inches)
  6

 40
0.0
 41
0.0
 42
0.0
 43
0.0
 44
558.8
 45
431.8
 46
0.0
 47
0.0
 48
0.0
 49
0.0
140
0.0
141
0.0
142
1.0
143
1.0
 70
0
 72
1
 73
0
 74
0
  7

 75
0
147
1.0
148
0.0
149
0.0
100
AcDbLayout
  1
Layout1
 70
0
 71
1
 10
0.0
 20
0.0
 11
558.8
 21
431.8
 12
0.0
 22
0.0
 32
0.0
 14
0.0
 24
0.0
 34
0.0
 15
0.0
 25
0.0
 35
0.0
146
0.0
 13
0.0
 23
0.0
 33
0.0
 16
1.0
 26
0.0
 36
0.0
 17
0.0
 27
1.0
 37
0.0
 76
0
330
217
345
0
346
0
  0
ENDSEC
  0
EOF
