999
DXF file: Y:\3D PRATIKA-KAEDRA_OLGA\TRAVAIL_PHASE_10\CAD3D\81282_3D-Simplified\81282_2D-isometric.dxf
999
Pro/ENGINEER 2018260 by Parametric Technology Corporation
  0
SECTION
  2
HEADER
  9
$ACADVER
  1
AC1027
  9
$DWGCODEPAGE
  3
ANSI_1252
  9
$EXTMAX
 10
558.8
 20
431.8
 30
0.0
  9
$EXTMIN
 10
0.0
 20
0.0
 30
0.0
  9
$LIMMIN
 10
0.0
 20
0.0
  9
$LIMMAX
 10
558.8
 20
431.8
  9
$VIEWCTR
 10
279.4
 20
215.9
  9
$VIEWSIZE
 40
431.8
  9
$CLAYER
  8
0
  9
$LTSCALE
 40
30.734
  9
$CELTYPE
  6
BYLAYER
  9
$DIMSCALE
 40
1.0
  9
$DIMASZ
 40
0.1875
  9
$DIMEXO
 40
0.0625
  9
$DIMDLI
 40
21.2344
  9
$DIMEXE
 40
0.125
  9
$DIMCEN
 40
5.0292
  9
$DIMLFAC
 40
1.0
  9
$DIMBLK
  1
_CLOSED
  9
$DIMALT
 70
0
  9
$DIMALTF
 40
0.0393700787
  9
$DIMTXT
 40
0.15625
  9
$DIMTOL
 70
0
  9
$DIMLIM
 70
0
  9
$DIMTFAC
 40
1.0
  9
$DIMGAP
 40
0.625
  9
$DIMDSEP
 70
46
  9
$AUNITS
 70
0
  9
$PDMODE
 70
3
  9
$PDSIZE
 40
0.3125
  9
$HANDSEED
  5
360
  9
$TILEMODE
 70
1
  9
$MEASUREMENT
 70
1
  9
$INSUNITS
 70
4
  0
ENDSEC
  0
SECTION
  2
CLASSES
  0
CLASS
  1
ACDBDICTIONARYWDFLT
  2
AcDbDictionaryWithDefault
  3
AutoCAD 2000
 90
0
 91
1
280
0
281
0
  0
CLASS
  1
ACDBPLACEHOLDER
  2
AcDbPlaceHolder
  3
AutoCAD 2000
 90
0
 91
1
280
0
281
0
  0
CLASS
  1
LAYOUT
  2
AcDbLayout
  3
AutoCAD 2000
 90
0
 91
0
280
0
281
0
  0
ENDSEC
  0
SECTION
  2
TABLES
  0
TABLE
  2
VPORT
  5
8
100
AcDbSymbolTable
 70
2
  0
VPORT
  5
1F4
100
AcDbSymbolTableRecord
100
AcDbViewportTableRecord
  2
*ACTIVE
 70
0
 10
0.0
 20
0.0
 11
1.0
 21
1.0
 12
279.4
 22
215.9
 13
0.0
 23
0.0
 14
1.0
 24
1.0
 15
0.0
 25
0.0
 16
0.0
 26
0.0
 36
1.0
 17
0.0
 27
0.0
 37
0.0
 40
431.8
 41
1.2941176471
 42
50.0
 43
0.0
 44
0.0
 50
0.0
 51
0.0
 71
0
 72
100
 73
1
 74
1
 75
0
 76
0
 77
0
 78
0
  0
ENDTAB
  0
TABLE
  2
LTYPE
  5
5
100
AcDbSymbolTable
 70
6
  0
LTYPE
  5
14
100
AcDbSymbolTableRecord
100
AcDbLinetypeTableRecord
  2
BYBLOCK
 70
0
  3

 72
65
 73
0
 40
0.0
  0
LTYPE
  5
15
100
AcDbSymbolTableRecord
100
AcDbLinetypeTableRecord
  2
BYLAYER
 70
0
  3

 72
65
 73
0
 40
0.0
  0
LTYPE
  5
16
100
AcDbSymbolTableRecord
100
AcDbLinetypeTableRecord
  2
CONTINUOUS
 70
64
  3
Solid line
 72
65
 73
0
 40
0.0
  0
LTYPE
  5
1F5
100
AcDbSymbolTableRecord
100
AcDbLinetypeTableRecord
  2
CENTER
 70
64
  3
____ _ ____ _ ____ _ ____ _ ____ _ ____ _ ____
 72
65
 73
4
 40
0.6
 49
0.375
 74
0
 49
-0.075
 74
0
 49
0.075
 74
0
 49
-0.075
 74
0
  0
LTYPE
  5
1F6
100
AcDbSymbolTableRecord
100
AcDbLinetypeTableRecord
  2
HIDDEN
 70
64
  3
- - - - - - - - - - - - - - - - - - - -
 72
65
 73
2
 40
0.2
 49
0.1
 74
0
 49
-0.1
 74
0
  0
LTYPE
  5
1F7
100
AcDbSymbolTableRecord
100
AcDbLinetypeTableRecord
  2
PHANTOM
 70
64
  3
_____ _ _ _____ _ _ _____ _ _ _____
 72
65
 73
6
 40
0.8
 49
0.45
 74
0
 49
-0.05
 74
0
 49
0.1
 74
0
 49
-0.05
 74
0
 49
0.1
 74
0
 49
-0.05
 74
0
  0
LTYPE
  5
1F8
100
AcDbSymbolTableRecord
100
AcDbLinetypeTableRecord
  2
DOT
 70
64
  3
. . . . . . . . . . . . . . . . . . . .
 72
65
 73
2
 40
0.2
 49
0.1
 74
0
 49
-0.1
 74
0
  0
LTYPE
  5
1F9
100
AcDbSymbolTableRecord
100
AcDbLinetypeTableRecord
  2
DASHED
 70
64
  3
- - - - - - - - - - - - - - - - - - - -
 72
65
 73
2
 40
0.2
 49
0.1
 74
0
 49
-0.1
 74
0
  0
ENDTAB
  0
TABLE
  2
LAYER
  5
2
100
AcDbSymbolTable
 70
36
  0
LAYER
  5
10
100
AcDbSymbolTableRecord
100
AcDbLayerTableRecord
  2
0
 70
0
 62
7
  6
CONTINUOUS
370
-3
390
F
  0
LAYER
  5
1FA
100
AcDbSymbolTableRecord
100
AcDbLayerTableRecord
  2
DEFAULT_1
 70
0
 62
7
  6
CENTER
370
-3
390
F
  0
LAYER
  5
1FB
100
AcDbSymbolTableRecord
100
AcDbLayerTableRecord
  2
DEFAULT_2
 70
0
 62
8
  6
HIDDEN
370
-3
390
F
  0
LAYER
  5
1FC
100
AcDbSymbolTableRecord
100
AcDbLayerTableRecord
  2
DEFAULT_3
 70
0
 62
7
  6
PHANTOM
370
-3
390
F
  0
LAYER
  5
1FD
100
AcDbSymbolTableRecord
100
AcDbLayerTableRecord
  2
01_ALL_DTM_PLN
 70
0
 62
7
  6
CONTINUOUS
370
-3
390
F
  0
LAYER
  5
1FE
100
AcDbSymbolTableRecord
100
AcDbLayerTableRecord
  2
01__ASM_ALL_DTM_PLN
 70
0
 62
7
  6
CONTINUOUS
370
-3
390
F
  0
LAYER
  5
1FF
100
AcDbSymbolTableRecord
100
AcDbLayerTableRecord
  2
01__ASM_DEF_DTM_PLN
 70
0
 62
7
  6
CONTINUOUS
370
-3
390
F
  0
LAYER
  5
200
100
AcDbSymbolTableRecord
100
AcDbLayerTableRecord
  2
01___PRT_ALL_DTM_PLN
 70
0
 62
7
  6
CONTINUOUS
370
-3
390
F
  0
LAYER
  5
201
100
AcDbSymbolTableRecord
100
AcDbLayerTableRecord
  2
01___PRT_DEF_DTM_PLN
 70
0
 62
7
  6
CONTINUOUS
370
-3
390
F
  0
LAYER
  5
202
100
AcDbSymbolTableRecord
100
AcDbLayerTableRecord
  2
02_ALL_AXES
 70
0
 62
7
  6
CONTINUOUS
370
-3
390
F
  0
LAYER
  5
203
100
AcDbSymbolTableRecord
100
AcDbLayerTableRecord
  2
02__ASM_ALL_AXES
 70
0
 62
7
  6
CONTINUOUS
370
-3
390
F
  0
LAYER
  5
204
100
AcDbSymbolTableRecord
100
AcDbLayerTableRecord
  2
02___PRT_ALL_AXES
 70
0
 62
7
  6
CONTINUOUS
370
-3
390
F
  0
LAYER
  5
205
100
AcDbSymbolTableRecord
100
AcDbLayerTableRecord
  2
03_ALL_CURVES
 70
0
 62
7
  6
CONTINUOUS
370
-3
390
F
  0
LAYER
  5
206
100
AcDbSymbolTableRecord
100
AcDbLayerTableRecord
  2
03__ASM_ALL_CURVES
 70
0
 62
7
  6
CONTINUOUS
370
-3
390
F
  0
LAYER
  5
207
100
AcDbSymbolTableRecord
100
AcDbLayerTableRecord
  2
03___PRT_ALL_CURVES
 70
0
 62
7
  6
CONTINUOUS
370
-3
390
F
  0
LAYER
  5
208
100
AcDbSymbolTableRecord
100
AcDbLayerTableRecord
  2
04_ALL_DTM_PNT
 70
0
 62
7
  6
CONTINUOUS
370
-3
390
F
  0
LAYER
  5
209
100
AcDbSymbolTableRecord
100
AcDbLayerTableRecord
  2
04__ASM_ALL_DTM_PNT
 70
0
 62
7
  6
CONTINUOUS
370
-3
390
F
  0
LAYER
  5
20A
100
AcDbSymbolTableRecord
100
AcDbLayerTableRecord
  2
04___PRT_ALL_DTM_PNT
 70
0
 62
7
  6
CONTINUOUS
370
-3
390
F
  0
LAYER
  5
20B
100
AcDbSymbolTableRecord
100
AcDbLayerTableRecord
  2
05_ALL_DTM_CSYS
 70
0
 62
7
  6
CONTINUOUS
370
-3
390
F
  0
LAYER
  5
20C
100
AcDbSymbolTableRecord
100
AcDbLayerTableRecord
  2
05__ASM_ALL_DTM_CSYS
 70
0
 62
7
  6
CONTINUOUS
370
-3
390
F
  0
LAYER
  5
20D
100
AcDbSymbolTableRecord
100
AcDbLayerTableRecord
  2
05__ASM_DEF_DTM_CSYS
 70
0
 62
7
  6
CONTINUOUS
370
-3
390
F
  0
LAYER
  5
20E
100
AcDbSymbolTableRecord
100
AcDbLayerTableRecord
  2
05___PRT_ALL_DTM_CSYS
 70
0
 62
7
  6
CONTINUOUS
370
-3
390
F
  0
LAYER
  5
20F
100
AcDbSymbolTableRecord
100
AcDbLayerTableRecord
  2
05___PRT_DEF_DTM_CSYS
 70
0
 62
7
  6
CONTINUOUS
370
-3
390
F
  0
LAYER
  5
210
100
AcDbSymbolTableRecord
100
AcDbLayerTableRecord
  2
06_ALL_SURFS
 70
0
 62
7
  6
CONTINUOUS
370
-3
390
F
  0
LAYER
  5
211
100
AcDbSymbolTableRecord
100
AcDbLayerTableRecord
  2
06__ASM_ALL_SURFS
 70
0
 62
7
  6
CONTINUOUS
370
-3
390
F
  0
LAYER
  5
212
100
AcDbSymbolTableRecord
100
AcDbLayerTableRecord
  2
06___PRT_ALL_SURFS
 70
0
 62
7
  6
CONTINUOUS
370
-3
390
F
  0
LAYER
  5
213
100
AcDbSymbolTableRecord
100
AcDbLayerTableRecord
  2
07__ASM_ALL_SKELETONS
 70
0
 62
7
  6
CONTINUOUS
370
-3
390
F
  0
ENDTAB
  0
TABLE
  2
STYLE
  5
3
100
AcDbSymbolTable
 70
1
  0
STYLE
  5
11
100
AcDbSymbolTableRecord
100
AcDbTextStyleTableRecord
  2
STANDARD
 70
0
 40
0.0
 41
0.8
 50
0.0
 71
0
 42
0.2
  3
txt
  4

  0
STYLE
  5
214
100
AcDbSymbolTableRecord
100
AcDbTextStyleTableRecord
  2
TEXTSTYLE_1
 70
0
 40
0.0
 41
0.8
 50
0.0
 71
0
 42
0.2
  3
gdt
  4

  0
ENDTAB
  0
TABLE
  2
VIEW
  5
6
100
AcDbSymbolTable
 70
0
  0
ENDTAB
  0
TABLE
  2
UCS
  5
7
100
AcDbSymbolTable
 70
0
  0
ENDTAB
  0
TABLE
  2
APPID
  5
9
100
AcDbSymbolTable
 70
1
  0
APPID
  5
215
100
AcDbSymbolTableRecord
100
AcDbRegAppTableRecord
  2
ACAD
 70
0
  0
ENDTAB
  0
TABLE
  2
BLOCK_RECORD
  5
1
100
AcDbSymbolTable
 70
0
  0
BLOCK_RECORD
  5
216
100
AcDbSymbolTableRecord
100
AcDbBlockTableRecord
  2
*Model_Space
  0
BLOCK_RECORD
  5
217
100
AcDbSymbolTableRecord
100
AcDbBlockTableRecord
  2
*Paper_Space
  0
BLOCK_RECORD
  5
218
100
AcDbSymbolTableRecord
100
AcDbBlockTableRecord
  2
_CLOSED
  0
ENDTAB
  0
TABLE
  2
DIMSTYLE
  5
A
100
AcDbSymbolTable
 70
1
100
AcDbDimStyleTable
 71
0
  0
DIMSTYLE
105
219
100
AcDbSymbolTableRecord
100
AcDbDimStyleTableRecord
  2
STANDARD
 70
0
  3

  4

 40
1.0
 41
0.1875
 42
0.0625
 43
0.38
 44
0.125
 45
0.0
 46
0.0
 47
0.01
 48
0.01
140
0.15625
141
0.09
142
0.0
143
25.4
144
1.0
145
0.0
146
1.0
147
0.625
 71
0.0
 72
0.0
 73
1
 74
1
 75
0
 76
0
 77
0
 78
8
 79
2
170
0
171
1
172
0
173
0
174
0
175
0
176
0
177
0
178
0
270
2
179
2
271
2
272
2
273
2
274
2
275
0
280
0
281
0
282
0
283
1
284
8
285
0
286
0
287
3
288
0
340
11
278
46
341
218
342
218
343
218
344
218
  0
ENDTAB
  0
ENDSEC
  0
SECTION
  2
BLOCKS
  0
BLOCK
  5
20
100
AcDbEntity
  8
0
100
AcDbBlockBegin
  2
*Model_Space
 70
0
 10
0.0
 20
0.0
 30
0.0
  3
*Model_Space
  1

  0
ENDBLK
  5
21
100
AcDbEntity
  8
0
100
AcDbBlockEnd
  0
BLOCK
  5
1C
100
AcDbEntity
  8
0
100
AcDbBlockBegin
  2
*Paper_Space
 70
0
 10
0.0
 20
0.0
 30
0.0
  3
*Paper_Space
  1

  0
ENDBLK
  5
1D
100
AcDbEntity
  8
0
100
AcDbBlockEnd
  0
BLOCK
  5
21A
100
AcDbEntity
  8
0
100
AcDbBlockBegin
  2
_CLOSED
 70
64
 10
0.0
 20
0.0
  3
_CLOSED
  1

  0
LINE
  5
21B
100
AcDbEntity
  8
0
  6
BYBLOCK
 62
0
100
AcDbLine
 10
0.0
 20
0.0
 11
-1.0
 21
0.1666666667
  0
LINE
  5
21C
100
AcDbEntity
  8
0
  6
BYBLOCK
 62
0
100
AcDbLine
 10
-1.0
 20
0.1666666667
 11
-1.0
 21
-0.1666666667
  0
LINE
  5
21D
100
AcDbEntity
  8
0
  6
BYBLOCK
 62
0
100
AcDbLine
 10
-1.0
 20
-0.1666666667
 11
0.0
 21
0.0
  0
LINE
  5
21E
100
AcDbEntity
  8
0
  6
BYBLOCK
 62
0
100
AcDbLine
 10
-1.0
 20
0.0
 11
0.0
 21
0.0
  0
ENDBLK
  5
21F
100
AcDbEntity
  8
0
  6
BYBLOCK
 62
0
100
AcDbBlockEnd
  0
ENDSEC
  0
SECTION
  2
ENTITIES
  0
LINE
  5
220
100
AcDbEntity
  8
0
100
AcDbLine
 62
7
  6
CONTINUOUS
 10
-30.5971941578
 20
132.96338794
 11
-69.7308679293
 21
122.4733921281
  0
LINE
  5
221
100
AcDbEntity
  8
0
100
AcDbLine
 62
7
  6
CONTINUOUS
 10
-50.5760415738
 20
134.9022951903
 11
-40.4796653489
 21
137.6086841926
  0
LINE
  5
222
100
AcDbEntity
  8
0
100
AcDbLine
 62
7
  6
CONTINUOUS
 10
-72.0062203169
 20
122.3281062135
 11
-77.4445328182
 21
123.0897614478
  0
LINE
  5
223
100
AcDbEntity
  8
0
100
AcDbLine
 62
7
  6
CONTINUOUS
 10
-77.508191559
 20
128.4785141539
 11
-82.9465040603
 21
129.2401693882
  0
LINE
  5
224
100
AcDbEntity
  8
0
100
AcDbLine
 62
7
  6
CONTINUOUS
 10
-50.5760415738
 20
134.9022951903
 11
-52.8149985013
 21
136.195469127
  0
LINE
  5
225
100
AcDbEntity
  8
0
100
AcDbLine
 62
7
  6
CONTINUOUS
 10
-28.4807278788
 20
125.5956978181
 11
-26.5101734908
 21
124.4575422001
  0
LINE
  5
226
100
AcDbEntity
  8
0
100
AcDbLine
 62
7
  6
CONTINUOUS
 10
-36.8279309807
 20
135.3138223018
 11
-40.6992488796
 21
137.5498236233
  0
LINE
  5
227
100
AcDbEntity
  8
0
100
AcDbLine
 62
7
  6
CONTINUOUS
 10
-31.4124696806
 20
146.5245900234
 11
-32.0336083187
 21
146.8644307092
  0
LINE
  5
228
100
AcDbEntity
  8
0
100
AcDbLine
 62
7
  6
CONTINUOUS
 10
-37.2641564256
 20
147.6820805152
 11
-27.2310444798
 21
141.9851324772
  0
LINE
  5
229
100
AcDbEntity
  8
0
100
AcDbLine
 62
7
  6
CONTINUOUS
 10
-45.4889762006
 20
151.8212316133
 11
-37.5616799293
 21
147.3060233092
  0
LINE
  5
22A
100
AcDbEntity
  8
0
100
AcDbLine
 62
7
  6
CONTINUOUS
 10
-30.4433579128
 20
132.9269155081
 11
-28.4807278788
 21
131.7933368499
  0
LINE
  5
22B
100
AcDbEntity
  8
0
100
AcDbLine
 62
7
  6
CONTINUOUS
 10
-22.7808311306
 20
128.5011823449
 11
-21.373292282
 21
127.6882140464
  0
LINE
  5
22C
100
AcDbEntity
  8
0
100
AcDbLine
 62
7
  6
CONTINUOUS
 10
-44.319884371
 20
148.5722599838
 11
-21.5043228715
 21
135.3944153857
  0
LINE
  5
22D
100
AcDbEntity
  8
0
100
AcDbLine
 62
7
  6
CONTINUOUS
 10
-23.5117937177
 20
141.8401362859
 11
-13.2398597773
 21
135.9072580093
  0
LINE
  5
22E
100
AcDbEntity
  8
0
100
AcDbLine
 62
7
  6
CONTINUOUS
 10
-36.0676479107
 20
149.1944169979
 11
-32.033608345
 21
146.8644306637
  0
LINE
  5
22F
100
AcDbEntity
  8
0
100
AcDbLine
 62
7
  6
CONTINUOUS
 10
-33.3415213465
 20
147.7114015869
 11
-36.0179369659
 21
149.257249543
  0
LINE
  5
230
100
AcDbEntity
  8
0
100
AcDbLine
 62
7
  6
CONTINUOUS
 10
-13.2398597773
 20
137.6097500295
 11
-21.0792522059
 21
142.1376375053
  0
LINE
  5
231
100
AcDbEntity
  8
0
100
AcDbLine
 62
7
  6
CONTINUOUS
 10
-82.9465040603
 20
129.2401693882
 11
-96.2069461909
 21
217.7079776902
  0
LINE
  5
232
100
AcDbEntity
  8
0
100
AcDbLine
 62
7
  6
CONTINUOUS
 10
-80.7711790598
 20
128.9355072945
 11
-94.0316211904
 21
217.4033155965
  0
LINE
  5
233
100
AcDbEntity
  8
0
100
AcDbLine
 62
7
  6
CONTINUOUS
 10
-44.4461614198
 20
174.6147556293
 11
-41.7581852475
 21
173.053588633
  0
LINE
  5
234
100
AcDbEntity
  8
0
100
AcDbLine
 62
7
  6
CONTINUOUS
 10
-94.8854675379
 20
203.9448133114
 11
-94.0730948418
 21
203.4718358865
  0
LINE
  5
235
100
AcDbEntity
  8
0
100
AcDbLine
 62
7
  6
CONTINUOUS
 10
-90.7686336896
 20
216.9463224559
 11
-77.508191559
 21
128.4785141539
  0
LINE
  5
236
100
AcDbEntity
  8
0
100
AcDbLine
 62
7
  6
CONTINUOUS
 10
-39.1234237655
 20
179.5120563834
 11
-41.6590963694
 21
180.9598144018
  0
LINE
  5
237
100
AcDbEntity
  8
0
100
AcDbLine
 62
7
  6
CONTINUOUS
 10
-58.1817047405
 20
221.7887145753
 11
-58.18383206
 21
222.2027906093
  0
LINE
  5
238
100
AcDbEntity
  8
0
100
AcDbLine
 62
7
  6
CONTINUOUS
 10
-58.00426142
 20
221.7854327574
 11
-58.0294335561
 21
220.4244096755
  0
LINE
  5
239
100
AcDbEntity
  8
0
100
AcDbLine
 62
7
  6
CONTINUOUS
 10
-58.1919018091
 20
221.7889081869
 11
-58.2364070794
 21
219.4449413299
  0
LINE
  5
23A
100
AcDbEntity
  8
0
100
AcDbLine
 62
7
  6
CONTINUOUS
 10
-55.1891010325
 20
243.6772521331
 11
-55.2717793201
 21
239.4718838524
  0
LINE
  5
23B
100
AcDbEntity
  8
0
100
AcDbLine
 62
7
  6
CONTINUOUS
 10
-53.5103326861
 20
228.6359829084
 11
-53.3182507812
 21
229.7819246867
  0
LINE
  5
23C
100
AcDbEntity
  8
0
100
AcDbLine
 62
7
  6
CONTINUOUS
 10
-62.0123772131
 20
220.0946998885
 11
-58.2046903622
 21
221.1153712252
  0
LINE
  5
23D
100
AcDbEntity
  8
0
100
AcDbLine
 62
7
  6
CONTINUOUS
 10
-41.219969372
 20
224.2744070753
 11
-38.6423235565
 21
224.7751537372
  0
LINE
  5
23E
100
AcDbEntity
  8
0
100
AcDbLine
 62
7
  6
CONTINUOUS
 10
-38.6423235565
 20
227.5331575775
 11
-45.1139174593
 21
226.2772415932
  0
LINE
  5
23F
100
AcDbEntity
  8
0
100
AcDbLine
 62
7
  6
CONTINUOUS
 10
-62.0123772131
 20
220.0946998885
 11
-58.2108001422
 21
220.7935863714
  0
LINE
  5
240
100
AcDbEntity
  8
0
100
AcDbLine
 62
7
  6
CONTINUOUS
 10
-43.4546198814
 20
229.2826324625
 11
-34.6895048958
 21
230.6248357216
  0
LINE
  5
241
100
AcDbEntity
  8
0
100
AcDbLine
 62
7
  6
CONTINUOUS
 10
-43.9869933935
 20
229.8208944157
 11
-39.4664769346
 21
230.5131217207
  0
LINE
  5
242
100
AcDbEntity
  8
0
100
AcDbLine
 62
7
  6
CONTINUOUS
 10
-90.7686336896
 20
216.9463224559
 11
-96.2069461909
 21
217.7079776902
  0
LINE
  5
243
100
AcDbEntity
  8
0
100
AcDbLine
 62
7
  6
CONTINUOUS
 10
-55.5415856694
 20
212.6830990005
 11
-61.4094553205
 21
216.0722715346
  0
LINE
  5
244
100
AcDbEntity
  8
0
100
AcDbLine
 62
7
  6
CONTINUOUS
 10
-61.4094553205
 20
216.0722715346
 11
-62.0123772131
 21
220.0946998885
  0
LINE
  5
245
100
AcDbEntity
  8
0
100
AcDbLine
 62
7
  6
CONTINUOUS
 10
-57.9518202172
 20
233.8329254966
 11
-85.3228163685
 21
226.4959799118
  0
LINE
  5
246
100
AcDbEntity
  8
0
100
AcDbLine
 62
7
  6
CONTINUOUS
 10
-88.5858038693
 20
226.9529730524
 11
-57.9262684585
 21
235.1714296156
  0
LINE
  5
247
100
AcDbEntity
  8
0
100
AcDbLine
 62
7
  6
CONTINUOUS
 10
-90.7611288698
 20
227.2576351461
 11
-57.9092339527
 21
236.063765695
  0
LINE
  5
248
100
AcDbEntity
  8
0
100
AcDbLine
 62
7
  6
CONTINUOUS
 10
30.8402421693
 20
246.5235855745
 11
37.3118360723
 21
247.7795015588
  0
LINE
  5
249
100
AcDbEntity
  8
0
100
AcDbLine
 62
7
  6
CONTINUOUS
 10
-37.907815689
 20
233.5098035711
 11
-46.3560240331
 21
232.2161282695
  0
LINE
  5
24A
100
AcDbEntity
  8
0
100
AcDbLine
 62
7
  6
CONTINUOUS
 10
-90.7611288698
 20
227.2576351461
 11
-85.3228163685
 21
226.4959799118
  0
LINE
  5
24B
100
AcDbEntity
  8
0
100
AcDbLine
 62
7
  6
CONTINUOUS
 10
-2.4212207917
 20
190.3953405881
 11
-5.0128715853
 21
191.8922299551
  0
LINE
  5
24C
100
AcDbEntity
  8
0
100
AcDbLine
 62
7
  6
CONTINUOUS
 10
-3.8719798084
 20
195.4124808651
 11
-8.3337963806
 21
198.0261831436
  0
LINE
  5
24D
100
AcDbEntity
  8
0
100
AcDbLine
 62
7
  6
CONTINUOUS
 10
4.1989249016
 20
185.3726439766
 11
-1.0185652855
 21
188.4396625555
  0
LINE
  5
24E
100
AcDbEntity
  8
0
100
AcDbLine
 62
7
  6
CONTINUOUS
 10
-39.4010406936
 20
237.4880388827
 11
-39.4010406936
 21
238.6315181202
  0
LINE
  5
24F
100
AcDbEntity
  8
0
100
AcDbLine
 62
7
  6
CONTINUOUS
 10
-38.6423235566
 20
224.7751537372
 11
-38.6423235566
 21
227.5331575775
  0
LINE
  5
250
100
AcDbEntity
  8
0
100
AcDbLine
 62
7
  6
CONTINUOUS
 10
-37.5909090475
 20
232.6389969151
 11
-37.5909090475
 21
233.1404815925
  0
LINE
  5
251
100
AcDbEntity
  8
0
100
AcDbLine
 62
7
  6
CONTINUOUS
 10
-21.6331714465
 20
218.8659297398
 11
-19.9212686514
 21
221.6241640536
  0
LINE
  5
252
100
AcDbEntity
  8
0
100
AcDbLine
 62
7
  6
CONTINUOUS
 10
-3.8722794594
 20
195.4119662118
 11
-3.0737394294
 21
194.914912038
  0
LINE
  5
253
100
AcDbEntity
  8
0
100
AcDbLine
 62
7
  6
CONTINUOUS
 10
-46.3560240331
 20
232.2161282695
 11
-43.4546198814
 21
229.2826324625
  0
LINE
  5
254
100
AcDbEntity
  8
0
100
AcDbLine
 62
7
  6
CONTINUOUS
 10
-28.4807278788
 20
132.4619375285
 11
-28.4807278788
 21
125.5956978181
  0
LINE
  5
255
100
AcDbEntity
  8
0
100
AcDbLine
 62
7
  6
CONTINUOUS
 10
-26.5101734908
 20
132.3607068863
 11
-26.5101734908
 21
124.4575422001
  0
LINE
  5
256
100
AcDbEntity
  8
0
100
AcDbLine
 62
7
  6
CONTINUOUS
 10
-21.5043228715
 20
133.691923366
 11
-21.5043228715
 21
135.3944153857
  0
LINE
  5
257
100
AcDbEntity
  8
0
100
AcDbLine
 62
7
  6
CONTINUOUS
 10
13.8310845557
 20
255.1908045469
 11
12.1191872641
 21
252.4325790984
  0
LINE
  5
258
100
AcDbEntity
  8
0
100
AcDbLine
 62
7
  6
CONTINUOUS
 10
13.6484562841
 20
252.1342035363
 11
13.8463965725
 21
252.4525644815
  0
LINE
  5
259
100
AcDbEntity
  8
0
100
AcDbLine
 62
7
  6
CONTINUOUS
 10
-13.2398597773
 20
137.6097500295
 11
-13.2398597773
 21
135.9072580093
  0
LINE
  5
25A
100
AcDbEntity
  8
0
100
AcDbLine
 62
7
  6
CONTINUOUS
 10
-3.0737394294
 20
194.914912038
 11
-4.7975099644
 21
192.3110377444
  0
LINE
  5
25B
100
AcDbEntity
  8
0
100
AcDbLine
 62
7
  6
CONTINUOUS
 10
-35.6362771263
 20
149.7396515421
 11
-37.5616799293
 21
147.3060233091
  0
LINE
  5
25C
100
AcDbEntity
  8
0
100
AcDbLine
 62
7
  6
CONTINUOUS
 10
13.7673235297
 20
252.3253858821
 11
13.82800107
 21
252.3171434835
  0
LINE
  5
25D
100
AcDbEntity
  8
0
100
AcDbLine
 62
7
  6
CONTINUOUS
 10
13.79606207
 20
252.3547567242
 11
13.8560098013
 21
252.3456575356
  0
LINE
  5
25E
100
AcDbEntity
  8
0
100
AcDbLine
 62
7
  6
CONTINUOUS
 10
31.5989593064
 20
237.4880388827
 11
31.5989593064
 21
238.6315181202
  0
LINE
  5
25F
100
AcDbEntity
  8
0
100
AcDbLine
 62
7
  6
CONTINUOUS
 10
45.7082512988
 20
245.4207602435
 11
45.5161303678
 21
244.1278395112
  0
LINE
  5
260
100
AcDbEntity
  8
0
100
AcDbLine
 62
7
  6
CONTINUOUS
 10
45.7543353382
 20
243.0581411193
 11
45.7082512988
 21
245.4207602435
  0
LINE
  5
261
100
AcDbEntity
  8
0
100
AcDbLine
 62
7
  6
CONTINUOUS
 10
50.3796233532
 20
222.2977201788
 11
50.381891326
 21
222.202791038
  0
LINE
  5
262
100
AcDbEntity
  8
0
100
AcDbLine
 62
7
  6
CONTINUOUS
 10
50.3819619587
 20
222.2027912384
 11
50.4343256922
 21
219.4449413299
  0
ARC
  5
263
100
AcDbEntity
  8
0
100
AcDbCircle
 62
7
  6
CONTINUOUS
 10
-22.4526141012
 20
201.9056670792
 40
53.8524365204
100
AcDbArc
 50
111.9596760531
 51
114.539379466
  0
ARC
  5
264
100
AcDbEntity
  8
0
100
AcDbCircle
 62
7
  6
CONTINUOUS
 10
-58.3273531452
 20
192.6314952871
 40
41.7207218619
100
AcDbArc
 50
152.5308433644
 51
159.0421489455
  0
ARC
  5
265
100
AcDbEntity
  8
0
100
AcDbCircle
 62
7
  6
CONTINUOUS
 10
-57.4333173883
 20
191.9835647459
 40
40.8612269967
100
AcDbArc
 50
156.3551975901
 51
161.6825116824
  0
ARC
  5
266
100
AcDbEntity
  8
0
100
AcDbCircle
 62
7
  6
CONTINUOUS
 10
-24.3597775436
 20
160.1478885315
 40
15.3407277946
100
AcDbArc
 50
234.1628418921
 51
239.9850474653
  0
ARC
  5
267
100
AcDbEntity
  8
0
100
AcDbCircle
 62
7
  6
CONTINUOUS
 10
-84.5652153966
 20
218.7755561231
 40
9.5685629164
100
AcDbArc
 50
168.0237778464
 51
174.8423529505
  0
ARC
  5
268
100
AcDbEntity
  8
0
100
AcDbCircle
 62
7
  6
CONTINUOUS
 10
-84.6057762711
 20
218.7789343353
 40
9.527862583
100
AcDbArc
 50
174.8406586934
 51
178.1792159754
  0
ARC
  5
269
100
AcDbEntity
  8
0
100
AcDbCircle
 62
7
  6
CONTINUOUS
 10
-84.6128112361
 20
218.7850080878
 40
9.5200417414
100
AcDbArc
 50
164.0921418968
 51
168.0199851557
  0
ARC
  5
26A
100
AcDbEntity
  8
0
100
AcDbCircle
 62
7
  6
CONTINUOUS
 10
-84.7679425188
 20
218.8300796672
 40
9.3584977253
100
AcDbArc
 50
157.7702500148
 51
164.0971952594
  0
ARC
  5
26B
100
AcDbEntity
  8
0
100
AcDbCircle
 62
7
  6
CONTINUOUS
 10
-84.8258399818
 20
218.7784882291
 40
9.3079271285
100
AcDbArc
 50
178.1334304648
 51
188.4961001204
  0
ARC
  5
26C
100
AcDbEntity
  8
0
100
AcDbCircle
 62
7
  6
CONTINUOUS
 10
-84.9981201114
 20
218.9213913856
 40
9.110883424
100
AcDbArc
 50
153.5252857185
 51
157.754174672
  0
ARC
  5
26D
100
AcDbEntity
  8
0
100
AcDbCircle
 62
7
  6
CONTINUOUS
 10
-85.2720209814
 20
219.058539833
 40
8.8045650728
100
AcDbArc
 50
147.0810795574
 51
153.5295811509
  0
ARC
  5
26E
100
AcDbEntity
  8
0
100
AcDbCircle
 62
7
  6
CONTINUOUS
 10
-85.5961569836
 20
219.2641441233
 40
8.4207369562
100
AcDbArc
 50
142.5999748519
 51
147.0568589124
  0
ARC
  5
26F
100
AcDbEntity
  8
0
100
AcDbCircle
 62
7
  6
CONTINUOUS
 10
-49.7770056787
 20
222.0426297743
 40
8.4085470672
100
AcDbArc
 50
178.3114025337
 51
178.9085952919
  0
ARC
  5
270
100
AcDbEntity
  8
0
100
AcDbCircle
 62
7
  6
CONTINUOUS
 10
-72.5735384061
 20
130.0688824853
 40
8.2681004662
100
AcDbArc
 50
199.2957401906
 51
202.9653163034
  0
ARC
  5
271
100
AcDbEntity
  8
0
100
AcDbCircle
 62
7
  6
CONTINUOUS
 10
-85.9108352874
 20
219.5054392285
 40
8.024195113
100
AcDbArc
 50
135.5988051789
 51
142.603974794
  0
ARC
  5
272
100
AcDbEntity
  8
0
100
AcDbCircle
 62
7
  6
CONTINUOUS
 10
-72.9984761094
 20
129.8793542976
 40
7.8028987284
100
AcDbArc
 50
202.9013829728
 51
210.73229194
  0
ARC
  5
273
100
AcDbEntity
  8
0
100
AcDbCircle
 62
7
  6
CONTINUOUS
 10
-86.2092567625
 20
219.7895150215
 40
7.6122260647
100
AcDbArc
 50
131.0009065519
 51
135.5548579057
  0
ARC
  5
274
100
AcDbEntity
  8
0
100
AcDbCircle
 62
7
  6
CONTINUOUS
 10
-73.3045904388
 20
129.6998382599
 40
7.4480364315
100
AcDbArc
 50
210.7486561692
 51
215.3697143866
  0
ARC
  5
275
100
AcDbEntity
  8
0
100
AcDbCircle
 62
7
  6
CONTINUOUS
 10
-86.5000215259
 20
220.1240338284
 40
7.1690026684
100
AcDbArc
 50
122.7492076263
 51
131.0011314822
  0
ARC
  5
276
100
AcDbEntity
  8
0
100
AcDbCircle
 62
7
  6
CONTINUOUS
 10
-73.7092909848
 20
129.4053893142
 40
6.9475905122
100
AcDbArc
 50
215.3215309452
 51
223.0622367238
  0
ARC
  5
277
100
AcDbEntity
  8
0
100
AcDbCircle
 62
7
  6
CONTINUOUS
 10
-86.742011879
 20
220.4866016327
 40
6.7331625538
100
AcDbArc
 50
118.4784315122
 51
122.6863273421
  0
ARC
  5
278
100
AcDbEntity
  8
0
100
AcDbCircle
 62
7
  6
CONTINUOUS
 10
-73.9335095429
 20
129.1978364437
 40
6.6420582807
100
AcDbArc
 50
223.0747793156
 51
228.289726855
  0
ARC
  5
279
100
AcDbEntity
  8
0
100
AcDbCircle
 62
7
  6
CONTINUOUS
 10
-74.2017814868
 20
128.8913184254
 40
6.2347393206
100
AcDbArc
 50
228.2559448589
 51
236.397900295
  0
ARC
  5
27A
100
AcDbEntity
  8
0
100
AcDbCircle
 62
7
  6
CONTINUOUS
 10
-74.3227985111
 20
128.710587553
 40
6.0172349609
100
AcDbArc
 50
236.4052773428
 51
241.1555433415
  0
ARC
  5
27B
100
AcDbEntity
  8
0
100
AcDbCircle
 62
7
  6
CONTINUOUS
 10
-74.3740861883
 20
128.6200565846
 40
5.9131931729
100
AcDbArc
 50
241.1676491885
 51
242.0031580519
  0
ARC
  5
27C
100
AcDbEntity
  8
0
100
AcDbCircle
 62
7
  6
CONTINUOUS
 10
-74.4431764717
 20
128.4819353538
 40
5.758804505
100
AcDbArc
 50
241.9650287371
 51
250.7273212935
  0
ARC
  5
27D
100
AcDbEntity
  8
0
100
AcDbCircle
 62
7
  6
CONTINUOUS
 10
-74.4791630227
 20
128.3798658976
 40
5.6505773104
100
AcDbArc
 50
250.7301637312
 51
257.3315414785
  0
ARC
  5
27E
100
AcDbEntity
  8
0
100
AcDbCircle
 62
7
  6
CONTINUOUS
 10
-74.4940516662
 20
128.3194670721
 40
5.5883837999
100
AcDbArc
 50
257.344666637
 51
262.0268892232
  0
ARC
  5
27F
100
AcDbEntity
  8
0
100
AcDbCircle
 62
7
  6
CONTINUOUS
 10
-27.3331721902
 20
143.5285262892
 40
5.0613304491
100
AcDbArc
 50
135.8398728232
 51
143.7043625701
  0
ARC
  5
280
100
AcDbEntity
  8
0
100
AcDbCircle
 62
7
  6
CONTINUOUS
 10
-38.1655620937
 20
176.3153615079
 40
3.3371180845
100
AcDbArc
 50
105.0090180564
 51
106.6803850867
  0
ARC
  5
281
100
AcDbEntity
  8
0
100
AcDbCircle
 62
7
  6
CONTINUOUS
 10
-17.7208923772
 20
284.1765218362
 40
66.7765005876
100
AcDbArc
 50
249.0731234098
 51
251.2915428242
  0
ARC
  5
282
100
AcDbEntity
  8
0
100
AcDbCircle
 62
7
  6
CONTINUOUS
 10
-29.6788200654
 20
239.7610011262
 40
10.352635831
100
AcDbArc
 50
218.2643161099
 51
221.6685776355
  0
ARC
  5
283
100
AcDbEntity
  8
0
100
AcDbCircle
 62
7
  6
CONTINUOUS
 10
-30.10794603
 20
239.419103676
 40
9.8039689826
100
AcDbArc
 50
217.8103331667
 51
218.248586741
  0
ARC
  5
284
100
AcDbEntity
  8
0
100
AcDbCircle
 62
7
  6
CONTINUOUS
 10
-49.3650128068
 20
237.0406850763
 40
8.536348042
100
AcDbArc
 50
181.9861474368
 51
190.7507967041
  0
ARC
  5
285
100
AcDbEntity
  8
0
100
AcDbCircle
 62
7
  6
CONTINUOUS
 10
-33.7937627601
 20
238.6381504017
 40
5.6072818868
100
AcDbArc
 50
180.0677693462
 51
191.4523621649
  0
ARC
  5
286
100
AcDbEntity
  8
0
100
AcDbCircle
 62
7
  6
CONTINUOUS
 10
-3.9048106752
 20
121.4218839727
 40
136.8542117597
100
AcDbArc
 50
90.3001102983
 51
91.6798369021
  0
ARC
  5
287
100
AcDbEntity
  8
0
100
AcDbCircle
 62
7
  6
CONTINUOUS
 10
-2.1583905485
 20
140.2516169017
 40
117.9352079217
100
AcDbArc
 50
81.0956388497
 51
82.6168566238
  0
ARC
  5
288
100
AcDbEntity
  8
0
100
AcDbCircle
 62
7
  6
CONTINUOUS
 10
-7.4607632237
 20
151.3550160933
 40
106.6836588526
100
AcDbArc
 50
99.5877924429
 51
101.219846498
  0
ARC
  5
289
100
AcDbEntity
  8
0
100
AcDbCircle
 62
7
  6
CONTINUOUS
 10
9.9188109899
 20
189.8802213156
 40
66.7765005878
100
AcDbArc
 50
69.0731234098
 51
71.2915428242
  0
ARC
  5
28A
100
AcDbEntity
  8
0
100
AcDbCircle
 62
7
  6
CONTINUOUS
 10
-13.8203083192
 20
178.7895719027
 40
16.267546319
100
AcDbArc
 50
37.3555861696
 51
45.5147452062
  0
ARC
  5
28B
100
AcDbEntity
  8
0
100
AcDbCircle
 62
7
  6
CONTINUOUS
 10
58.1093552023
 20
211.0472766651
 40
13.6499536158
100
AcDbArc
 50
124.4914080112
 51
124.7466549108
  0
ARC
  5
28C
100
AcDbEntity
  8
0
100
AcDbCircle
 62
7
  6
CONTINUOUS
 10
41.5629314195
 20
237.0160580756
 40
8.536348042
100
AcDbArc
 50
1.9861474368
 51
10.7507967041
  0
ARC
  5
28D
100
AcDbEntity
  8
0
100
AcDbCircle
 62
7
  6
CONTINUOUS
 10
-0.4501502932
 20
187.8270546963
 40
5.2571886163
100
AcDbArc
 50
324.513244219
 51
332.1688468246
  0
ARC
  5
28E
100
AcDbEntity
  8
0
100
AcDbCircle
 62
7
  6
CONTINUOUS
 10
-3.9034894119
 20
337.8759210734
 40
137.1924134473
100
AcDbArc
 50
266.5558865844
 51
270.2711495224
  0
ARC
  5
28F
100
AcDbEntity
  8
0
100
AcDbCircle
 62
7
  6
CONTINUOUS
 10
-3.897270712
 20
352.6348591792
 40
136.8542117597
100
AcDbArc
 50
270.3001102983
 51
271.6798369021
  0
ARC
  5
290
100
AcDbEntity
  8
0
100
AcDbCircle
 62
7
  6
CONTINUOUS
 10
-4.3643624935
 20
330.1408584771
 40
129.4436345422
100
AcDbArc
 50
262.6990775866
 51
266.5538316161
  0
ARC
  5
291
100
AcDbEntity
  8
0
100
AcDbCircle
 62
7
  6
CONTINUOUS
 10
-5.6436908388
 20
333.8051262498
 40
117.9352079212
100
AcDbArc
 50
261.0956388497
 51
262.6168566238
  0
ARC
  5
292
100
AcDbEntity
  8
0
100
AcDbCircle
 62
7
  6
CONTINUOUS
 10
-0.3413181634
 20
322.7017270579
 40
106.6836588519
100
AcDbArc
 50
279.5877924429
 51
281.219846498
  0
ARC
  5
293
100
AcDbEntity
  8
0
100
AcDbCircle
 62
7
  6
CONTINUOUS
 10
14.650532714
 20
272.1510760728
 40
53.8524365204
100
AcDbArc
 50
291.9596760531
 51
294.539379466
  0
SPLINE
  5
294
100
AcDbEntity
  8
0
100
AcDbSpline
 62
7
  6
CONTINUOUS
 70
0
 71
3
 72
9
 73
5
 74
0
 42
0.0000001
 43
0.0000001
 44
0.0000000001
 40
0.0
 40
0.0
 40
0.0
 40
0.0
 40
0.5046555006
 40
1.0
 40
1.0
 40
1.0
 40
1.0
 10
-96.3014736394
 20
209.7571116142
 30
0.0
 10
-96.546733039
 20
209.4533782484
 30
0.0
 10
-96.9563176815
 20
208.7862180544
 30
0.0
 10
-97.1857427336
 20
208.036704342
 30
0.0
 10
-97.245355502
 20
207.6581802634
 30
0.0
  0
SPLINE
  5
295
100
AcDbEntity
  8
0
100
AcDbSpline
 62
7
  6
CONTINUOUS
 70
0
 71
3
 72
25
 73
21
 74
0
 42
0.0000001
 43
0.0000001
 44
0.0000000001
 40
0.0
 40
0.0
 40
0.0
 40
0.0
 40
0.0157132617
 40
0.031952033
 40
0.0676647832
 40
0.0878788559
 40
0.1098862624
 40
0.1595475839
 40
0.2167630108
 40
0.2809369798
 40
0.3510487092
 40
0.4257865695
 40
0.5036416144
 40
0.5829823761
 40
0.662121358
 40
0.7393786695
 40
0.813145535
 40
0.8819534704
 40
0.9445485919
 40
1.0
 40
1.0
 40
1.0
 40
1.0
 10
-39.4010407246
 20
238.6315181202
 30
0.0
 10
-39.4010388036
 20
239.0031118767
 30
0.0
 10
-39.323074415
 20
239.7608384969
 30
0.0
 10
-38.847542869
 20
241.29777866
 30
0.0
 10
-37.8996103361
 20
242.7567758604
 30
0.0
 10
-36.6221131275
 20
244.0868337779
 30
0.0
 10
-34.9503773439
 20
245.4819820384
 30
0.0
 10
-32.3422789438
 20
247.0868667564
 30
0.0
 10
-28.6374410082
 20
248.7311046246
 30
0.0
 10
-24.3223119088
 20
250.1281248023
 30
0.0
 10
-19.5015217762
 20
251.2434259424
 30
0.0
 10
-14.2924920015
 20
252.0488201435
 30
0.0
 10
-8.8244007118
 20
252.5236175355
 30
0.0
 10
-3.2334010393
 20
252.6555887006
 30
0.0
 10
2.3409200305
 20
252.4413352448
 30
0.0
 10
7.7594876831
 20
251.8863572644
 30
0.0
 10
12.8873441902
 20
251.0050263537
 30
0.0
 10
17.5981673338
 20
249.8196759905
 30
0.0
 10
21.7757591811
 20
248.3609015661
 30
0.0
 10
24.3022649545
 20
247.1518219601
 30
0.0
 10
25.437803291
 20
246.4959561058
 30
0.0
  0
SPLINE
  5
296
100
AcDbEntity
  8
0
100
AcDbSpline
 62
7
  6
CONTINUOUS
 70
0
 71
3
 72
9
 73
5
 74
0
 42
0.0000001
 43
0.0000001
 44
0.0000000001
 40
0.0
 40
0.0
 40
0.0
 40
0.0
 40
0.4834158648
 40
1.0
 40
1.0
 40
1.0
 40
1.0
 10
-39.4010305677
 20
237.4880388825
 30
0.0
 10
-39.4010319843
 20
236.9448970678
 30
0.0
 10
-39.2290939904
 20
235.8160441284
 30
0.0
 10
-38.753410545
 20
234.7834165097
 30
0.0
 10
-38.4552988059
 20
234.2854176543
 30
0.0
  0
SPLINE
  5
297
100
AcDbEntity
  8
0
100
AcDbSpline
 62
7
  6
CONTINUOUS
 70
0
 71
3
 72
9
 73
5
 74
0
 42
0.0000001
 43
0.0000001
 44
0.0000000001
 40
0.0
 40
0.0
 40
0.0
 40
0.0
 40
0.2440437944
 40
1.0
 40
1.0
 40
1.0
 40
1.0
 10
-38.4552988059
 20
234.2854176543
 30
0.0
 10
-38.4108559755
 20
234.2111754298
 30
0.0
 10
-38.2238380643
 20
233.9099102031
 30
0.0
 10
-38.0178317906
 20
233.6205427503
 30
0.0
 10
-37.8535174411
 20
233.4087849384
 30
0.0
  0
SPLINE
  5
298
100
AcDbEntity
  8
0
100
AcDbSpline
 62
7
  6
CONTINUOUS
 70
0
 71
3
 72
9
 73
5
 74
0
 42
0.0000001
 43
0.0000001
 44
0.0000000001
 40
0.0
 40
0.0
 40
0.0
 40
0.0
 40
0.2325275254
 40
1.0
 40
1.0
 40
1.0
 40
1.0
 10
-37.412269034
 20
232.8783536923
 30
0.0
 10
-37.2327556514
 20
232.6763096481
 30
0.0
 10
-36.4288609792
 20
231.8357327773
 30
0.0
 10
-35.5139639085
 20
231.1060307135
 30
0.0
 10
-34.7810529829
 20
230.5975086047
 30
0.0
  0
SPLINE
  5
299
100
AcDbEntity
  8
0
100
AcDbSpline
 62
7
  6
CONTINUOUS
 70
0
 71
3
 72
9
 73
5
 74
0
 42
0.0000001
 43
0.0000001
 44
0.0000000001
 40
0.0
 40
0.0
 40
0.0
 40
0.0
 40
0.2426621252
 40
1.0
 40
1.0
 40
1.0
 40
1.0
 10
-34.7810529829
 20
230.5975086047
 30
0.0
 10
-34.6598748242
 20
230.5134304847
 30
0.0
 10
-34.1565919315
 20
230.1726031284
 30
0.0
 10
-33.6384845693
 20
229.8538247915
 30
0.0
 10
-33.2398846783
 20
229.6236008971
 30
0.0
  0
SPLINE
  5
29A
100
AcDbEntity
  8
0
100
AcDbSpline
 62
7
  6
CONTINUOUS
 70
0
 71
3
 72
10
 73
6
 74
0
 42
0.0000001
 43
0.0000001
 44
0.0000000001
 40
0.0
 40
0.0
 40
0.0
 40
0.0
 40
0.5332419343
 40
0.7761883652
 40
1.0
 40
1.0
 40
1.0
 40
1.0
 10
13.8560098013
 20
252.3456575356
 30
0.0
 10
17.3973595187
 20
251.8070886861
 30
0.0
 10
22.5231885038
 20
250.7647066559
 30
0.0
 10
28.9431634546
 20
248.7738049788
 30
0.0
 10
31.8629903612
 20
247.6187091432
 30
0.0
 10
33.2331770171
 20
246.9998518973
 30
0.0
  0
SPLINE
  5
29B
100
AcDbEntity
  8
0
100
AcDbSpline
 62
7
  6
CONTINUOUS
 70
0
 71
3
 72
12
 73
8
 74
0
 42
0.0000001
 43
0.0000001
 44
0.0000000001
 40
0.0
 40
0.0
 40
0.0
 40
0.0
 40
0.0996137483
 40
0.2080597036
 40
0.4487753159
 40
0.7156638629
 40
1.0
 40
1.0
 40
1.0
 40
1.0
 10
-33.2398846783
 20
229.6236008971
 30
0.0
 10
-32.5221034505
 20
229.2090237904
 30
0.0
 10
-30.9794254946
 20
228.4173006454
 30
0.0
 10
-27.5299133396
 20
226.9794794397
 30
0.0
 10
-22.6061252729
 20
225.5033423791
 30
0.0
 10
-16.1239094094
 20
224.2708763583
 30
0.0
 10
-11.5529940458
 20
223.8156537771
 30
0.0
 10
-9.1911264346
 20
223.6756034485
 30
0.0
  0
SPLINE
  5
29C
100
AcDbEntity
  8
0
100
AcDbSpline
 62
7
  6
CONTINUOUS
 70
0
 71
3
 72
16
 73
12
 74
0
 42
0.0000001
 43
0.0000001
 44
0.0000000001
 40
0.0
 40
0.0
 40
0.0
 40
0.0
 40
0.1546773622
 40
0.3084658281
 40
0.4569057077
 40
0.5958196075
 40
0.7215729356
 40
0.8313995689
 40
0.8798797715
 40
0.9240147087
 40
1.0
 40
1.0
 40
1.0
 40
1.0
 10
-9.1911264346
 20
223.6756034485
 30
0.0
 10
-6.9985568418
 20
223.5455918888
 30
0.0
 10
-2.6147685099
 20
223.4494214345
 30
0.0
 10
3.8705750969
 20
223.7772119385
 30
0.0
 10
10.0916172688
 20
224.5644219718
 30
0.0
 10
15.8380274428
 20
225.7830229459
 30
0.0
 10
20.9167191065
 20
227.3907767169
 30
0.0
 10
24.6000251388
 20
229.0726074874
 30
0.0
 10
27.0416784503
 20
230.6003431149
 30
0.0
 10
28.9316641173
 20
232.0695527305
 30
0.0
 10
30.0992453805
 20
233.3599040984
 30
0.0
 10
30.6534087601
 20
234.2857157631
 30
0.0
  0
SPLINE
  5
29D
100
AcDbEntity
  8
0
100
AcDbSpline
 62
7
  6
CONTINUOUS
 70
0
 71
3
 72
9
 73
5
 74
0
 42
0.0000001
 43
0.0000001
 44
0.0000000001
 40
0.0
 40
0.0
 40
0.0
 40
0.0
 40
0.5165736412
 40
1.0
 40
1.0
 40
1.0
 40
1.0
 10
30.6534087601
 20
234.2857157631
 30
0.0
 10
30.9514651237
 20
234.7836628818
 30
0.0
 10
31.4270086945
 20
235.816218755
 30
0.0
 10
31.5989477639
 20
236.9449424029
 30
0.0
 10
31.5989491805
 20
237.4880388829
 30
0.0
  0
SPLINE
  5
29E
100
AcDbEntity
  8
0
100
AcDbSpline
 62
7
  6
CONTINUOUS
 70
0
 71
3
 72
12
 73
8
 74
0
 42
0.0000001
 43
0.0000001
 44
0.0000000001
 40
0.0
 40
0.0
 40
0.0
 40
0.0
 40
0.3075736022
 40
0.5705647601
 40
0.796038144
 40
0.8995109015
 40
1.0
 40
1.0
 40
1.0
 40
1.0
 10
25.437803291
 20
246.4959561058
 30
0.0
 10
26.363616022
 20
245.9612238663
 30
0.0
 10
28.023070979
 20
244.8576076811
 30
0.0
 10
30.025621604
 20
242.9209933455
 30
0.0
 10
31.112223634
 20
241.1322803191
 30
0.0
 10
31.530311392
 20
239.6915467149
 30
0.0
 10
31.5989611431
 20
238.9808239894
 30
0.0
 10
31.5989593373
 20
238.6315181202
 30
0.0
  0
SPLINE
  5
29F
100
AcDbEntity
  8
0
100
AcDbSpline
 62
7
  6
CONTINUOUS
 70
0
 71
3
 72
9
 73
5
 74
0
 42
0.0000001
 43
0.0000001
 44
0.0000000001
 40
0.0
 40
0.0
 40
0.0
 40
0.0
 40
0.2488275295
 40
1.0
 40
1.0
 40
1.0
 40
1.0
 10
31.5989593373
 20
238.6315181202
 30
0.0
 10
31.5989588601
 20
238.5392017642
 30
0.0
 10
31.5896192732
 20
238.1682427433
 30
0.0
 10
31.5425424399
 20
237.7983338312
 30
0.0
 10
31.4873835524
 20
237.5251579212
 30
0.0
  0
SPLINE
  5
2A0
100
AcDbEntity
  8
0
100
AcDbSpline
 62
7
  6
CONTINUOUS
 70
0
 71
3
 72
25
 73
21
 74
0
 42
0.0000001
 43
0.0000001
 44
0.0000000001
 40
0.0
 40
0.0
 40
0.0
 40
0.0
 40
0.0159680456
 40
0.0328681783
 40
0.0510448626
 40
0.0707508167
 40
0.1152906488
 40
0.1671005272
 40
0.2259607372
 40
0.2911614118
 40
0.3616598213
 40
0.4361819168
 40
0.5132970771
 40
0.5914803671
 40
0.6691692408
 40
0.7448185261
 40
0.8169558909
 40
0.8842422545
 40
0.945538715
 40
1.0
 40
1.0
 40
1.0
 40
1.0
 10
31.4873835524
 20
237.5251579212
 30
0.0
 10
31.4138081441
 20
237.1607736842
 30
0.0
 10
31.1890093383
 20
236.4240510649
 30
0.0
 10
30.6480872027
 20
235.3604580151
 30
0.0
 10
29.9028715751
 20
234.3202300969
 30
0.0
 10
28.5900904515
 20
232.9148357572
 30
0.0
 10
26.4264416977
 20
231.2667726933
 30
0.0
 10
23.2398408174
 20
229.5437003902
 30
0.0
 10
19.4270492504
 20
228.0303926574
 30
0.0
 10
15.0734660451
 20
226.7614366564
 30
0.0
 10
10.277235078
 20
225.7660816716
 30
0.0
 10
5.1494049383
 20
225.06824999
 30
0.0
 10
-0.190501448
 20
224.6847207569
 30
0.0
 10
-5.6174210192
 20
224.6247771254
 30
0.0
 10
-11.0040812984
 20
224.8898593664
 30
0.0
 10
-16.2242685013
 20
225.4735796517
 30
0.0
 10
-21.1559002842
 20
226.3617844564
 30
0.0
 10
-25.6849171742
 20
227.5333568027
 30
0.0
 10
-29.706372477
 20
228.9599944648
 30
0.0
 10
-32.1419908356
 20
230.1329570409
 30
0.0
 10
-33.2398846783
 20
230.7670801346
 30
0.0
  0
SPLINE
  5
2A1
100
AcDbEntity
  8
0
100
AcDbSpline
 62
7
  6
CONTINUOUS
 70
0
 71
3
 72
9
 73
5
 74
0
 42
0.0000001
 43
0.0000001
 44
0.0000000001
 40
0.0
 40
0.0
 40
0.0
 40
0.0
 40
0.5326740601
 40
1.0
 40
1.0
 40
1.0
 40
1.0
 10
-33.2398846783
 20
230.7670801346
 30
0.0
 10
-34.0324521501
 20
231.224852387
 30
0.0
 10
-35.4756996477
 20
232.1661504281
 30
0.0
 10
-36.7675663181
 20
233.3144165303
 30
0.0
 10
-37.3091000282
 20
233.9073129255
 30
0.0
  0
SPLINE
  5
2A2
100
AcDbEntity
  8
0
100
AcDbSpline
 62
7
  6
CONTINUOUS
 70
0
 71
3
 72
9
 73
5
 74
0
 42
0.0000001
 43
0.0000001
 44
0.0000000001
 40
0.0
 40
0.0
 40
0.0
 40
0.0
 40
0.5295265124
 40
1.0
 40
1.0
 40
1.0
 40
1.0
 10
-37.3091000282
 20
233.9073129255
 30
0.0
 10
-37.804560305
 20
234.4497659744
 30
0.0
 10
-38.6481081375
 20
235.568671815
 30
0.0
 10
-39.1601749083
 20
236.8849904686
 30
0.0
 10
-39.2894043811
 20
237.5248070891
 30
0.0
  0
SPLINE
  5
2A3
100
AcDbEntity
  8
0
100
AcDbSpline
 62
7
  6
CONTINUOUS
 70
0
 71
3
 72
9
 73
5
 74
0
 42
0.0000001
 43
0.0000001
 44
0.0000000001
 40
0.0
 40
0.0
 40
0.0
 40
0.0
 40
0.23825878
 40
1.0
 40
1.0
 40
1.0
 40
1.0
 10
-37.9956238017
 20
232.1954078818
 30
0.0
 10
-37.9313623009
 20
232.0319474692
 30
0.0
 10
-37.6333726121
 20
231.3570338697
 30
0.0
 10
-37.2290095149
 20
230.7316917271
 30
0.0
 10
-36.8837462501
 20
230.2888412453
 30
0.0
  0
SPLINE
  5
2A4
100
AcDbEntity
  8
0
100
AcDbSpline
 62
7
  6
CONTINUOUS
 70
0
 71
3
 72
11
 73
7
 74
0
 42
0.0000001
 43
0.0000001
 44
0.0000000001
 40
0.0
 40
0.0
 40
0.0
 40
0.0
 40
0.2858842438
 40
0.551883345
 40
0.7915106631
 40
1.0
 40
1.0
 40
1.0
 40
1.0
 10
-42.590946102
 20
251.850962187
 30
0.0
 10
-41.1640401746
 20
252.0053912904
 30
0.0
 10
-38.4190278609
 20
252.4050440914
 30
0.0
 10
-34.5433045597
 20
253.3068692191
 30
0.0
 10
-31.1435829496
 20
254.4639690475
 30
0.0
 10
-29.112446966
 20
255.4550405937
 30
0.0
 10
-28.2186432677
 20
255.9997172599
 30
0.0
  0
SPLINE
  5
2A5
100
AcDbEntity
  8
0
100
AcDbSpline
 62
7
  6
CONTINUOUS
 70
0
 71
3
 72
11
 73
7
 74
0
 42
0.0000001
 43
0.0000001
 44
0.0000000001
 40
0.0
 40
0.0
 40
0.0
 40
0.0
 40
0.2605364956
 40
0.5187368295
 40
0.7674499495
 40
1.0
 40
1.0
 40
1.0
 40
1.0
 10
-25.2298509748
 20
256.5484692483
 30
0.0
 10
-23.7156019761
 20
256.4740342036
 30
0.0
 10
-20.6942693883
 20
256.4351301229
 30
0.0
 10
-16.2322102304
 20
256.6952598091
 30
0.0
 10
-11.9630163643
 20
257.2643963318
 30
0.0
 10
-9.2224187853
 20
257.8621690877
 30
0.0
 10
-7.916621372
 20
258.2172810126
 30
0.0
  0
SPLINE
  5
2A6
100
AcDbEntity
  8
0
100
AcDbSpline
 62
7
  6
CONTINUOUS
 70
0
 71
3
 72
11
 73
7
 74
0
 42
0.0000001
 43
0.0000001
 44
0.0000000001
 40
0.0
 40
0.0
 40
0.0
 40
0.0
 40
0.2376677341
 40
0.4881754326
 40
0.7446688198
 40
1.0
 40
1.0
 40
1.0
 40
1.0
 10
-4.6216378283
 20
258.2742183891
 30
0.0
 10
-3.2523418722
 20
257.9678843787
 30
0.0
 10
-0.4097228733
 20
257.4687212054
 30
0.0
 10
3.9701637161
 20
257.0467004406
 30
0.0
 10
8.473222059
 20
256.9393149402
 30
0.0
 10
11.4946912966
 20
257.081780272
 30
0.0
 10
12.9967362806
 20
257.2090253815
 30
0.0
  0
SPLINE
  5
2A7
100
AcDbEntity
  8
0
100
AcDbSpline
 62
7
  6
CONTINUOUS
 70
0
 71
3
 72
11
 73
7
 74
0
 42
0.0000001
 43
0.0000001
 44
0.0000000001
 40
0.0
 40
0.0
 40
0.0
 40
0.0
 40
0.2140467744
 40
0.4559136705
 40
0.7201568796
 40
1.0
 40
1.0
 40
1.0
 40
1.0
 10
16.0962796997
 20
256.7654799467
 30
0.0
 10
17.0995134027
 20
256.2580192998
 30
0.0
 10
19.3228273679
 20
255.3465122306
 30
0.0
 10
22.9657636812
 20
254.3082697393
 30
0.0
 10
27.0270769618
 20
253.5410350004
 30
0.0
 10
29.8714725652
 20
253.2338017229
 30
0.0
 10
31.3375605677
 20
253.1284481466
 30
0.0
  0
SPLINE
  5
2A8
100
AcDbEntity
  8
0
100
AcDbSpline
 62
7
  6
CONTINUOUS
 70
0
 71
3
 72
12
 73
8
 74
0
 42
0.0000001
 43
0.0000001
 44
0.0000000001
 40
0.0
 40
0.0
 40
0.0
 40
0.0
 40
0.1904229236
 40
0.300547158
 40
0.4209967184
 40
0.6920341354
 40
1.0
 40
1.0
 40
1.0
 40
1.0
 10
33.7697864739
 20
252.2519456721
 30
0.0
 10
34.2124309187
 20
251.6187191085
 30
0.0
 10
35.0915452901
 20
250.744495925
 30
0.0
 10
36.4779206033
 20
249.7469125817
 30
0.0
 10
38.236891795
 20
248.7165786291
 30
0.0
 10
40.8495438069
 20
247.584948464
 30
0.0
 10
43.1025965401
 20
246.9044582047
 30
0.0
 10
44.3136272514
 20
246.5967802014
 30
0.0
  0
SPLINE
  5
2A9
100
AcDbEntity
  8
0
100
AcDbSpline
 62
7
  6
CONTINUOUS
 70
0
 71
3
 72
9
 73
5
 74
0
 42
0.0000001
 43
0.0000001
 44
0.0000000001
 40
0.0
 40
0.0
 40
0.0
 40
0.0
 40
0.2561024532
 40
1.0
 40
1.0
 40
1.0
 40
1.0
 10
44.3136272514
 20
246.5967802014
 30
0.0
 10
44.4364326834
 20
246.5009737051
 30
0.0
 10
44.9125136414
 20
246.1225101884
 30
0.0
 10
45.3745013715
 20
245.7262077155
 30
0.0
 10
45.7082512988
 20
245.4207602435
 30
0.0
  0
SPLINE
  5
2AA
100
AcDbEntity
  8
0
100
AcDbSpline
 62
7
  6
CONTINUOUS
 70
0
 71
3
 72
10
 73
6
 74
0
 42
0.0000001
 43
0.0000001
 44
0.0000000001
 40
0.0
 40
0.0
 40
0.0
 40
0.0
 40
0.2872774555
 40
0.5481202325
 40
1.0
 40
1.0
 40
1.0
 40
1.0
 10
-57.8962325145
 20
236.7448334345
 30
0.0
 10
-57.5381207913
 20
236.9926661082
 30
0.0
 10
-56.875838348
 20
237.4988711443
 30
0.0
 10
-55.7877921484
 20
238.5545108763
 30
0.0
 10
-55.1682613068
 20
239.4747713227
 30
0.0
 10
-54.9190771289
 20
240.112881834
 30
0.0
  0
SPLINE
  5
2AB
100
AcDbEntity
  8
0
100
AcDbSpline
 62
7
  6
CONTINUOUS
 70
0
 71
3
 72
9
 73
5
 74
0
 42
0.0000001
 43
0.0000001
 44
0.0000000001
 40
0.0
 40
0.0
 40
0.0
 40
0.0
 40
0.2568792383
 40
1.0
 40
1.0
 40
1.0
 40
1.0
 10
-54.9190771289
 20
240.112881834
 30
0.0
 10
-54.8737944127
 20
240.2288417535
 30
0.0
 10
-54.7156672904
 20
240.6870430372
 30
0.0
 10
-54.6366187453
 20
241.1732763466
 30
0.0
 10
-54.6297740784
 20
241.5333397121
 30
0.0
  0
SPLINE
  5
2AC
100
AcDbEntity
  8
0
100
AcDbSpline
 62
7
  6
CONTINUOUS
 70
0
 71
3
 72
9
 73
5
 74
0
 42
0.0000001
 43
0.0000001
 44
0.0000000001
 40
0.0
 40
0.0
 40
0.0
 40
0.0
 40
0.2439482134
 40
1.0
 40
1.0
 40
1.0
 40
1.0
 10
-55.1891010325
 20
243.6772521331
 30
0.0
 10
-55.102384395
 20
243.7808159595
 30
0.0
 10
-54.7415073693
 20
244.2008069433
 30
0.0
 10
-54.3598009985
 20
244.6027799205
 30
0.0
 10
-54.0618538558
 20
244.8968500723
 30
0.0
  0
SPLINE
  5
2AD
100
AcDbEntity
  8
0
100
AcDbSpline
 62
7
  6
CONTINUOUS
 70
0
 71
3
 72
12
 73
8
 74
0
 42
0.0000001
 43
0.0000001
 44
0.0000000001
 40
0.0
 40
0.0
 40
0.0
 40
0.0
 40
0.3137423107
 40
0.5851897678
 40
0.7043829382
 40
0.8127165566
 40
1.0
 40
1.0
 40
1.0
 40
1.0
 10
-54.0618538558
 20
244.8968500723
 30
0.0
 10
-52.9333530462
 20
245.2422637532
 30
0.0
 10
-50.8575030044
 20
245.9895051021
 30
0.0
 10
-48.4925093286
 20
247.2102157151
 30
0.0
 10
-46.9611095378
 20
248.3028935994
 30
0.0
 10
-45.7997805441
 20
249.345133256
 30
0.0
 10
-45.1151238096
 20
250.2549248578
 30
0.0
 10
-44.8185306111
 20
250.8939381025
 30
0.0
  0
SPLINE
  5
2AE
100
AcDbEntity
  8
0
100
AcDbSpline
 62
7
  6
CONTINUOUS
 70
0
 71
3
 72
12
 73
8
 74
0
 42
0.0000001
 43
0.0000001
 44
0.0000000001
 40
0.0
 40
0.0
 40
0.0
 40
0.0
 40
0.0995033332
 40
0.2078245054
 40
0.4484551888
 40
0.7154146157
 40
1.0
 40
1.0
 40
1.0
 40
1.0
 10
-32.7452442145
 20
229.3501297395
 30
0.0
 10
-32.0438986867
 20
228.9421814498
 30
0.0
 10
-30.5359897501
 20
228.1631032321
 30
0.0
 10
-27.1612084623
 20
226.7477716524
 30
0.0
 10
-22.3398247321
 20
225.2930694624
 30
0.0
 10
-15.9874949313
 20
224.0762677917
 30
0.0
 10
-11.5062785012
 20
223.6245393123
 30
0.0
 10
-9.1899666869
 20
223.4844969263
 30
0.0
  0
SPLINE
  5
2AF
100
AcDbEntity
  8
0
100
AcDbSpline
 62
7
  6
CONTINUOUS
 70
0
 71
3
 72
14
 73
10
 74
0
 42
0.0000001
 43
0.0000001
 44
0.0000000001
 40
0.0
 40
0.0
 40
0.0
 40
0.0
 40
0.2780104695
 40
0.415161831
 40
0.5481098653
 40
0.6747867819
 40
0.7933238391
 40
0.9021294225
 40
1.0
 40
1.0
 40
1.0
 40
1.0
 10
-9.1899666869
 20
223.4844969263
 30
0.0
 10
-5.9928955509
 20
223.2912045262
 30
0.0
 10
-1.1973291786
 20
223.2650047544
 30
0.0
 10
5.101155892
 20
223.7463911868
 30
0.0
 10
9.6344567423
 20
224.3559534174
 30
0.0
 10
13.9110483368
 20
225.2032471794
 30
0.0
 10
17.8511522275
 20
226.2721310533
 30
0.0
 10
21.380668114
 20
227.541847096
 30
0.0
 10
23.5378246758
 20
228.5636441227
 30
0.0
 10
24.5233490703
 20
229.1114665481
 30
0.0
  0
SPLINE
  5
2B0
100
AcDbEntity
  8
0
100
AcDbSpline
 62
7
  6
CONTINUOUS
 70
0
 71
3
 72
11
 73
7
 74
0
 42
0.0000001
 43
0.0000001
 44
0.0000000001
 40
0.0
 40
0.0
 40
0.0
 40
0.0
 40
0.281321062
 40
0.5441503179
 40
0.7846654155
 40
1.0
 40
1.0
 40
1.0
 40
1.0
 10
12.1191872641
 20
252.4325790984
 30
0.0
 10
13.9450889217
 20
252.1385809274
 30
0.0
 10
17.4605408111
 20
251.4598355189
 30
0.0
 10
22.4475809581
 20
250.1213299799
 30
0.0
 10
26.8984761193
 20
248.5193985743
 30
0.0
 10
29.6085182437
 20
247.2213235912
 30
0.0
 10
30.8402421693
 20
246.5235855745
 30
0.0
  0
SPLINE
  5
2B1
100
AcDbEntity
  8
0
100
AcDbSpline
 62
7
  6
CONTINUOUS
 70
0
 71
3
 72
10
 73
6
 74
0
 42
0.0000001
 43
0.0000001
 44
0.0000000001
 40
0.0
 40
0.0
 40
0.0
 40
0.0
 40
0.2235001486
 40
0.4654100372
 40
1.0
 40
1.0
 40
1.0
 40
1.0
 10
-45.1139174593
 20
226.2772415932
 30
0.0
 10
-44.2268547139
 20
225.7507318124
 30
0.0
 10
-42.3285467441
 20
224.7391334481
 30
0.0
 10
-38.1022319774
 20
222.8773867105
 30
0.0
 10
-34.6857430121
 20
221.7596021631
 30
0.0
 10
-32.307409079
 20
221.1027920607
 30
0.0
  0
SPLINE
  5
2B2
100
AcDbEntity
  8
0
100
AcDbSpline
 62
7
  6
CONTINUOUS
 70
0
 71
3
 72
9
 73
5
 74
0
 42
0.0000001
 43
0.0000001
 44
0.0000000001
 40
0.0
 40
0.0
 40
0.0
 40
0.0
 40
0.4867811439
 40
1.0
 40
1.0
 40
1.0
 40
1.0
 10
-32.307409079
 20
221.1027920607
 30
0.0
 10
-30.6008813232
 20
220.6315106083
 30
0.0
 10
-27.0613496215
 20
219.7833827173
 30
0.0
 10
-23.4787717646
 20
219.1448715349
 30
0.0
 10
-21.6331714465
 20
218.8659297398
 30
0.0
  0
LINE
  5
2B3
100
AcDbEntity
  8
0
100
AcDbLine
 62
7
  6
CONTINUOUS
 10
-58.1817047404
 20
221.7887145735
 11
-57.8962325145
 21
236.7448334345
  0
LINE
  5
2B4
100
AcDbEntity
  8
0
100
AcDbLine
 62
7
  6
CONTINUOUS
 10
-53.8023135205
 20
213.6346683148
 11
-53.5103326861
 21
228.6359829084
  0
SPLINE
  5
2B5
100
AcDbEntity
  8
0
100
AcDbSpline
 62
7
  6
CONTINUOUS
 70
0
 71
3
 72
12
 73
8
 74
0
 42
0.0000001
 43
0.0000001
 44
0.0000000001
 40
0.0
 40
0.0
 40
0.0
 40
0.0
 40
0.1000437047
 40
0.2033111219
 40
0.4289086217
 40
0.6922431334
 40
1.0
 40
1.0
 40
1.0
 40
1.0
 10
45.5161350964
 20
244.127839525
 30
0.0
 10
45.520774076
 20
243.8817641916
 30
0.0
 10
45.5786710133
 20
243.3813968014
 30
0.0
 10
45.8921051118
 20
242.3684767201
 30
0.0
 10
46.6791083878
 20
241.1137256007
 30
0.0
 10
48.1106326321
 20
239.7563898378
 30
0.0
 10
49.2914860614
 20
238.9829926807
 30
0.0
 10
49.9494478076
 20
238.6084087808
 30
0.0
  0
SPLINE
  5
2B6
100
AcDbEntity
  8
0
100
AcDbSpline
 62
7
  6
CONTINUOUS
 70
0
 71
3
 72
9
 73
5
 74
0
 42
0.0000001
 43
0.0000001
 44
0.0000000001
 40
0.0
 40
0.0
 40
0.0
 40
0.0
 40
0.4859461023
 40
1.0
 40
1.0
 40
1.0
 40
1.0
 10
46.8276905548
 20
232.3764242301
 30
0.0
 10
46.8341120645
 20
232.0380730709
 30
0.0
 10
46.9409662601
 20
231.3409813348
 30
0.0
 10
47.2151827013
 20
230.6935392089
 30
0.0
 10
47.3870196453
 20
230.3794910188
 30
0.0
  0
LINE
  5
2B7
100
AcDbEntity
  8
0
100
AcDbLine
 62
7
  6
CONTINUOUS
 10
47.3870196453
 20
230.3794910188
 11
47.6814768043
 21
215.3883100855
  0
LINE
  5
2B8
100
AcDbEntity
  8
0
100
AcDbLine
 62
7
  6
CONTINUOUS
 10
50.3796233532
 20
222.2977201806
 11
50.0941511272
 21
237.3119097175
  0
SPLINE
  5
2B9
100
AcDbEntity
  8
0
100
AcDbSpline
 62
7
  6
CONTINUOUS
 70
0
 71
3
 72
20
 73
16
 74
0
 42
0.0000001
 43
0.0000001
 44
0.0000000001
 40
0.0
 40
0.0
 40
0.0
 40
0.0
 40
0.0352749522
 40
0.071906401
 40
0.1111853141
 40
0.154089555
 40
0.2012743297
 40
0.2531147213
 40
0.3097637973
 40
0.3712066756
 40
0.4372946239
 40
0.5077744392
 40
0.6604643204
 40
0.8259112516
 40
1.0
 40
1.0
 40
1.0
 40
1.0
 10
-58.2363342858
 20
219.4449411106
 30
0.0
 10
-58.2484419997
 20
218.8078040363
 30
0.0
 10
-58.1227148796
 20
217.5016766186
 30
0.0
 10
-57.4901313358
 20
215.5804370758
 30
0.0
 10
-56.4274086248
 20
213.7018443896
 30
0.0
 10
-54.9505843181
 20
211.8792146992
 30
0.0
 10
-53.0741730475
 20
210.1222213471
 30
0.0
 10
-50.8133326328
 20
208.4413229545
 30
0.0
 10
-48.1852159349
 20
206.8474439281
 30
0.0
 10
-45.2095510943
 20
205.352166675
 30
0.0
 10
-41.9090565822
 20
203.9665349357
 30
0.0
 10
-36.976634241
 20
202.2334728391
 30
0.0
 10
-30.1754612567
 20
200.4440668142
 30
0.0
 10
-21.4050449946
 20
198.9269565686
 30
0.0
 10
-15.2924970036
 20
198.3427209802
 30
0.0
 10
-12.1532661519
 20
198.152925558
 30
0.0
  0
SPLINE
  5
2BA
100
AcDbEntity
  8
0
100
AcDbSpline
 62
7
  6
CONTINUOUS
 70
0
 71
3
 72
8
 73
4
 74
0
 42
0.0000001
 43
0.0000001
 44
0.0000000001
 40
0.0
 40
0.0
 40
0.0
 40
0.0
 40
1.0
 40
1.0
 40
1.0
 40
1.0
 10
-39.4664769346
 20
230.5131217207
 30
0.0
 10
-38.8413919449
 20
231.2218387965
 30
0.0
 10
-38.2162086626
 20
231.9304691957
 30
0.0
 10
-37.5909090475
 20
232.6389969151
 30
0.0
  0
SPLINE
  5
2BB
100
AcDbEntity
  8
0
100
AcDbSpline
 62
7
  6
CONTINUOUS
 70
0
 71
3
 72
20
 73
16
 74
0
 42
0.0000001
 43
0.0000001
 44
0.0000000001
 40
0.0
 40
0.0
 40
0.0
 40
0.0
 40
0.1658198908
 40
0.3297028963
 40
0.4852741893
 40
0.5581269897
 40
0.6268157254
 40
0.6908055444
 40
0.749679947
 40
0.8031774767
 40
0.8512428153
 40
0.8941002053
 40
0.9323555756
 40
0.9671094766
 40
1.0
 40
1.0
 40
1.0
 40
1.0
 10
-12.1532661519
 20
198.152925558
 30
0.0
 10
-8.2527616105
 20
197.9171041287
 30
0.0
 10
-0.473053626
 20
197.7840218461
 30
0.0
 10
10.9495034902
 20
198.549958886
 30
0.0
 10
20.0981238908
 20
199.9894804898
 30
0.0
 10
26.909529376
 20
201.624020758
 30
0.0
 10
31.548548714
 20
203.0271904282
 30
0.0
 10
35.7771533157
 20
204.6176056771
 30
0.0
 10
39.5476008901
 20
206.377350874
 30
0.0
 10
42.8180263354
 20
208.2870820876
 30
0.0
 10
45.5529452358
 20
210.3274735445
 30
0.0
 10
47.7225687737
 20
212.4804836593
 30
0.0
 10
49.2996290406
 20
214.7319054286
 30
0.0
 10
50.2526418526
 20
217.0641995031
 30
0.0
 10
50.4489445706
 20
218.6699989627
 30
0.0
 10
50.4342622302
 20
219.4449411578
 30
0.0
  0
SPLINE
  5
2BC
100
AcDbEntity
  8
0
100
AcDbSpline
 62
7
  6
CONTINUOUS
 70
0
 71
3
 72
11
 73
7
 74
0
 42
0.0000001
 43
0.0000001
 44
0.0000000001
 40
0.0
 40
0.0
 40
0.0
 40
0.0
 40
0.2169669791
 40
0.4576733048
 40
0.7197093637
 40
1.0
 40
1.0
 40
1.0
 40
1.0
 10
-38.6423235565
 20
224.7751537372
 30
0.0
 10
-37.5089343898
 20
224.1331196799
 30
0.0
 10
-35.031336876
 20
222.9301704303
 30
0.0
 10
-30.9777869545
 20
221.4200658556
 30
0.0
 10
-26.4523288276
 20
220.1315450784
 30
0.0
 10
-23.2647225799
 20
219.4553103434
 30
0.0
 10
-21.6089634737
 20
219.1549554308
 30
0.0
  0
LINE
  5
2BD
100
AcDbEntity
  8
0
100
AcDbLine
 62
7
  6
CONTINUOUS
 10
-21.6089634737
 20
219.1549554308
 11
-21.4847765457
 21
219.1325234732
  0
SPLINE
  5
2BE
100
AcDbEntity
  8
0
100
AcDbSpline
 62
7
  6
CONTINUOUS
 70
0
 71
3
 72
10
 73
6
 74
0
 42
0.0000001
 43
0.0000001
 44
0.0000000001
 40
0.0
 40
0.0
 40
0.0
 40
0.0
 40
0.2872774555
 40
0.5481202325
 40
1.0
 40
1.0
 40
1.0
 40
1.0
 10
50.0941511272
 20
237.3119097175
 30
0.0
 10
49.7360394041
 20
237.0640770437
 30
0.0
 10
49.0737569608
 20
236.5578720076
 30
0.0
 10
47.9857107611
 20
235.5022322757
 30
0.0
 10
47.3661799195
 20
234.5819718292
 30
0.0
 10
47.1169957417
 20
233.9438613179
 30
0.0
  0
SPLINE
  5
2BF
100
AcDbEntity
  8
0
100
AcDbSpline
 62
7
  6
CONTINUOUS
 70
0
 71
3
 72
9
 73
5
 74
0
 42
0.0000001
 43
0.0000001
 44
0.0000000001
 40
0.0
 40
0.0
 40
0.0
 40
0.0
 40
0.5075378937
 40
1.0
 40
1.0
 40
1.0
 40
1.0
 10
47.1169957417
 20
233.9438613179
 30
0.0
 10
47.0184298886
 20
233.6914540124
 30
0.0
 10
46.8678110918
 20
233.1754928592
 30
0.0
 10
46.8227015189
 20
232.6392979441
 30
0.0
 10
46.8276905548
 20
232.3764242301
 30
0.0
  0
SPLINE
  5
2C0
100
AcDbEntity
  8
0
100
AcDbSpline
 62
7
  6
CONTINUOUS
 70
0
 71
3
 72
9
 73
5
 74
0
 42
0.0000001
 43
0.0000001
 44
0.0000000001
 40
0.0
 40
0.0
 40
0.0
 40
0.0
 40
0.49564354
 40
1.0
 40
1.0
 40
1.0
 40
1.0
 10
50.3819608489
 20
222.2027912422
 30
0.0
 10
50.3901615849
 20
221.7703693532
 30
0.0
 10
50.3387751106
 20
220.8953433782
 30
0.0
 10
50.1547121655
 20
220.0386905401
 30
0.0
 10
50.0318798361
 20
219.616076674
 30
0.0
  0
SPLINE
  5
2C1
100
AcDbEntity
  8
0
100
AcDbSpline
 62
7
  6
CONTINUOUS
 70
0
 71
3
 72
9
 73
5
 74
0
 42
0.0000001
 43
0.0000001
 44
0.0000000001
 40
0.0
 40
0.0
 40
0.0
 40
0.0
 40
0.4770863308
 40
1.0
 40
1.0
 40
1.0
 40
1.0
 10
50.0318798361
 20
219.616076674
 30
0.0
 10
49.8160370637
 20
218.8734533844
 30
0.0
 10
49.1662400827
 20
217.3708759574
 30
0.0
 10
48.2241103974
 20
216.0394961766
 30
0.0
 10
47.6814768048
 20
215.3883100863
 30
0.0
  0
SPLINE
  5
2C2
100
AcDbEntity
  8
0
100
AcDbSpline
 62
7
  6
CONTINUOUS
 70
0
 71
3
 72
11
 73
7
 74
0
 42
0.0000001
 43
0.0000001
 44
0.0000000001
 40
0.0
 40
0.0
 40
0.0
 40
0.0
 40
0.3018706251
 40
0.5658275665
 40
0.7956619056
 40
1.0
 40
1.0
 40
1.0
 40
1.0
 10
-58.0294335558
 20
220.4244096746
 30
0.0
 10
-57.4541193204
 20
220.0990482455
 30
0.0
 10
-56.4072357205
 20
219.4289709897
 30
0.0
 10
-55.0912739761
 20
218.2743883675
 30
0.0
 10
-54.156520464
 20
217.04930305
 30
0.0
 10
-53.7927216074
 20
216.1532271244
 30
0.0
 10
-53.6957607487
 20
215.7164634122
 30
0.0
  0
SPLINE
  5
2C3
100
AcDbEntity
  8
0
100
AcDbSpline
 62
7
  6
CONTINUOUS
 70
0
 71
3
 72
11
 73
7
 74
0
 42
0.0000001
 43
0.0000001
 44
0.0000000001
 40
0.0
 40
0.0
 40
0.0
 40
0.0
 40
0.2807639256
 40
0.5382147941
 40
0.7761529648
 40
1.0
 40
1.0
 40
1.0
 40
1.0
 10
-53.8023135223
 20
213.6346683164
 30
0.0
 10
-54.3623218011
 20
214.1492127958
 30
0.0
 10
-55.3843000473
 20
215.1947670405
 30
0.0
 10
-56.6438339604
 20
216.8873406912
 30
0.0
 10
-57.548142838
 20
218.623191527
 30
0.0
 10
-57.9144360608
 20
219.8290818713
 30
0.0
 10
-58.0294335558
 20
220.4244096746
 30
0.0
  0
SPLINE
  5
2C4
100
AcDbEntity
  8
0
100
AcDbSpline
 62
7
  6
CONTINUOUS
 70
0
 71
3
 72
12
 73
8
 74
0
 42
0.0000001
 43
0.0000001
 44
0.0000000001
 40
0.0
 40
0.0
 40
0.0
 40
0.0
 40
0.3084141503
 40
0.579631872
 40
0.70004497
 40
0.8100447635
 40
1.0
 40
1.0
 40
1.0
 40
1.0
 10
-52.3347517811
 20
212.3971434796
 30
0.0
 10
-51.1251049092
 20
212.0919125516
 30
0.0
 10
-48.8753910504
 20
211.4158813575
 30
0.0
 10
-46.2674417682
 20
210.2885481223
 30
0.0
 10
-44.5139347829
 20
209.2607076791
 30
0.0
 10
-43.1350302254
 20
208.2659386764
 30
0.0
 10
-42.262516817
 20
207.3930347282
 30
0.0
 10
-41.8259058722
 20
206.7607474283
 30
0.0
  0
SPLINE
  5
2C5
100
AcDbEntity
  8
0
100
AcDbSpline
 62
7
  6
CONTINUOUS
 70
0
 71
3
 72
10
 73
6
 74
0
 42
0.0000001
 43
0.0000001
 44
0.0000000001
 40
0.0
 40
0.0
 40
0.0
 40
0.0
 40
0.5364412213
 40
0.7775118495
 40
1.0
 40
1.0
 40
1.0
 40
1.0
 10
-41.8259058722
 20
206.7607474283
 30
0.0
 10
-43.8223773875
 20
207.5278112999
 30
0.0
 10
-46.6670402413
 20
208.7876785464
 30
0.0
 10
-50.1166511419
 20
210.7926511159
 30
0.0
 10
-51.6344257368
 20
211.8527218707
 30
0.0
 10
-52.3347517811
 20
212.3971434796
 30
0.0
  0
SPLINE
  5
2C6
100
AcDbEntity
  8
0
100
AcDbSpline
 62
7
  6
CONTINUOUS
 70
0
 71
3
 72
11
 73
7
 74
0
 42
0.0000001
 43
0.0000001
 44
0.0000000001
 40
0.0
 40
0.0
 40
0.0
 40
0.0
 40
0.2800672571
 40
0.5444605565
 40
0.7862816198
 40
1.0
 40
1.0
 40
1.0
 40
1.0
 10
-39.2664765465
 20
205.8384045936
 30
0.0
 10
-37.8038060803
 20
205.7351471718
 30
0.0
 10
-34.9662693826
 20
205.4314942656
 30
0.0
 10
-30.9159465584
 20
204.6680482338
 30
0.0
 10
-27.2861342761
 20
203.6322254315
 30
0.0
 10
-25.0729377743
 20
202.7210840399
 30
0.0
 10
-24.0757812883
 20
202.213444054
 30
0.0
  0
SPLINE
  5
2C7
100
AcDbEntity
  8
0
100
AcDbSpline
 62
7
  6
CONTINUOUS
 70
0
 71
3
 72
9
 73
5
 74
0
 42
0.0000001
 43
0.0000001
 44
0.0000000001
 40
0.0
 40
0.0
 40
0.0
 40
0.0
 40
0.5199390979
 40
1.0
 40
1.0
 40
1.0
 40
1.0
 10
-24.0757812883
 20
202.213444054
 30
0.0
 10
-26.7518376037
 20
202.6349690888
 30
0.0
 10
-31.8723395938
 20
203.6269770511
 30
0.0
 10
-36.8968182275
 20
205.0377252188
 30
0.0
 10
-39.2664765465
 20
205.8384045936
 30
0.0
  0
SPLINE
  5
2C8
100
AcDbEntity
  8
0
100
AcDbSpline
 62
7
  6
CONTINUOUS
 70
0
 71
3
 72
11
 73
7
 74
0
 42
0.0000001
 43
0.0000001
 44
0.0000000001
 40
0.0
 40
0.0
 40
0.0
 40
0.0
 40
0.2553458935
 40
0.5119260889
 40
0.7624679036
 40
1.0
 40
1.0
 40
1.0
 40
1.0
 10
-20.8141342916
 20
201.7467015568
 30
0.0
 10
-19.31705997
 20
201.8754458812
 30
0.0
 10
-16.3049120234
 20
202.020205643
 30
0.0
 10
-11.8156339646
 20
201.9145326256
 30
0.0
 10
-7.4501654611
 20
201.4926099185
 30
0.0
 10
-4.6178173022
 20
200.9923139985
 30
0.0
 10
-3.2542353334
 20
200.6850439108
 30
0.0
  0
LINE
  5
2C9
100
AcDbEntity
  8
0
100
AcDbLine
 62
7
  6
CONTINUOUS
 10
0.1145399847
 20
215.8394621393
 11
0.2130731441
 21
200.7449590653
  0
LINE
  5
2CA
100
AcDbEntity
  8
0
100
AcDbLine
 62
7
  6
CONTINUOUS
 10
17.4688403729
 20
202.4082320662
 11
17.4277695875
 21
217.5082739037
  0
LINE
  5
2CB
100
AcDbEntity
  8
0
100
AcDbLine
 62
7
  6
CONTINUOUS
 10
20.4165618805
 20
218.057025892
 11
20.6139440445
 21
202.9856833322
  0
LINE
  5
2CC
100
AcDbEntity
  8
0
100
AcDbLine
 62
7
  6
CONTINUOUS
 10
34.9385454007
 20
207.1206687435
 11
34.7888647148
 21
222.2057809649
  0
LINE
  5
2CD
100
AcDbEntity
  8
0
100
AcDbLine
 62
7
  6
CONTINUOUS
 10
37.0164492238
 20
223.1628050494
 11
37.2826307474
 21
208.1277444005
  0
LINE
  5
2CE
100
AcDbEntity
  8
0
100
AcDbLine
 62
7
  6
CONTINUOUS
 10
46.4952755274
 20
214.1049281771
 11
46.2597724685
 21
229.1598930796
  0
SPLINE
  5
2CF
100
AcDbEntity
  8
0
100
AcDbSpline
 62
7
  6
CONTINUOUS
 70
0
 71
3
 72
9
 73
5
 74
0
 42
0.0000001
 43
0.0000001
 44
0.0000000001
 40
0.0
 40
0.0
 40
0.0
 40
0.0
 40
0.2439482134
 40
1.0
 40
1.0
 40
1.0
 40
1.0
 10
47.3870196453
 20
230.3794910188
 30
0.0
 10
47.3003030078
 20
230.2759271924
 30
0.0
 10
46.939425982
 20
229.8559362086
 30
0.0
 10
46.5577196112
 20
229.4539632315
 30
0.0
 10
46.2597724685
 20
229.1598930796
 30
0.0
  0
SPLINE
  5
2D0
100
AcDbEntity
  8
0
100
AcDbSpline
 62
7
  6
CONTINUOUS
 70
0
 71
3
 72
12
 73
8
 74
0
 42
0.0000001
 43
0.0000001
 44
0.0000000001
 40
0.0
 40
0.0
 40
0.0
 40
0.0
 40
0.3137423107
 40
0.5851897678
 40
0.7043829382
 40
0.8127165566
 40
1.0
 40
1.0
 40
1.0
 40
1.0
 10
46.2597724685
 20
229.1598930796
 30
0.0
 10
45.1312716589
 20
228.8144793988
 30
0.0
 10
43.0554216171
 20
228.0672380498
 30
0.0
 10
40.6904279414
 20
226.8465274368
 30
0.0
 10
39.1590281506
 20
225.7538495526
 30
0.0
 10
37.9976991569
 20
224.711609896
 30
0.0
 10
37.3130424223
 20
223.8018182942
 30
0.0
 10
37.0164492238
 20
223.1628050494
 30
0.0
  0
SPLINE
  5
2D1
100
AcDbEntity
  8
0
100
AcDbSpline
 62
7
  6
CONTINUOUS
 70
0
 71
3
 72
11
 73
7
 74
0
 42
0.0000001
 43
0.0000001
 44
0.0000000001
 40
0.0
 40
0.0
 40
0.0
 40
0.0
 40
0.2858842438
 40
0.551883345
 40
0.7915106631
 40
1.0
 40
1.0
 40
1.0
 40
1.0
 10
34.7888647148
 20
222.2057809649
 30
0.0
 10
33.3619587873
 20
222.0513518615
 30
0.0
 10
30.6169464736
 20
221.6516990606
 30
0.0
 10
26.7412231724
 20
220.7498739328
 30
0.0
 10
23.3415015624
 20
219.5927741044
 30
0.0
 10
21.3103655788
 20
218.6017025582
 30
0.0
 10
20.4165618805
 20
218.057025892
 30
0.0
  0
SPLINE
  5
2D2
100
AcDbEntity
  8
0
100
AcDbSpline
 62
7
  6
CONTINUOUS
 70
0
 71
3
 72
12
 73
8
 74
0
 42
0.0000001
 43
0.0000001
 44
0.0000000001
 40
0.0
 40
0.0
 40
0.0
 40
0.0
 40
0.1002786001
 40
0.2033608463
 40
0.4281403317
 40
0.6912363656
 40
1.0
 40
1.0
 40
1.0
 40
1.0
 10
-53.3182368952
 20
229.7819246456
 30
0.0
 10
-53.3134273267
 20
230.0334422382
 30
0.0
 10
-53.3541805921
 20
230.545814797
 30
0.0
 10
-53.6433527463
 20
231.5861229546
 30
0.0
 10
-54.4226455059
 20
232.8787270775
 30
0.0
 10
-55.8734135792
 20
234.273556008
 30
0.0
 10
-57.078392829
 20
235.0651114156
 30
0.0
 10
-57.7515291948
 20
235.4483343712
 30
0.0
  0
SPLINE
  5
2D3
100
AcDbEntity
  8
0
100
AcDbSpline
 62
7
  6
CONTINUOUS
 70
0
 71
3
 72
9
 73
5
 74
0
 42
0.0000001
 43
0.0000001
 44
0.0000000001
 40
0.0
 40
0.0
 40
0.0
 40
0.0
 40
0.4858415664
 40
1.0
 40
1.0
 40
1.0
 40
1.0
 10
-54.6297740784
 20
241.5333397121
 30
0.0
 10
-54.622894957
 20
241.8952155545
 30
0.0
 10
-54.7162573674
 20
242.6454494616
 30
0.0
 10
-55.0052396762
 20
243.3412281975
 30
0.0
 10
-55.1891010325
 20
243.6772521331
 30
0.0
  0
LINE
  5
2D4
100
AcDbEntity
  8
0
100
AcDbLine
 62
7
  6
CONTINUOUS
 10
-3.2542353289
 20
200.6850439108
 11
-3.1804435589
 21
215.7825247629
  0
SPLINE
  5
2D5
100
AcDbEntity
  8
0
100
AcDbSpline
 62
7
  6
CONTINUOUS
 70
0
 71
3
 72
11
 73
7
 74
0
 42
0.0000001
 43
0.0000001
 44
0.0000000001
 40
0.0
 40
0.0
 40
0.0
 40
0.0
 40
0.2323714486
 40
0.4811024809
 40
0.739404199
 40
1.0
 40
1.0
 40
1.0
 40
1.0
 10
0.2130731462
 20
200.7449590654
 30
0.0
 10
1.5130222056
 20
201.1008388361
 30
0.0
 10
4.2432471503
 20
201.6994007664
 30
0.0
 10
8.4981027133
 20
202.2679094373
 30
0.0
 10
12.9468206719
 20
202.5258286689
 30
0.0
 10
15.9592692283
 20
202.4843160696
 30
0.0
 10
17.4688403687
 20
202.4082320655
 30
0.0
  0
SPLINE
  5
2D6
100
AcDbEntity
  8
0
100
AcDbSpline
 62
7
  6
CONTINUOUS
 70
0
 71
3
 72
9
 73
5
 74
0
 42
0.0000001
 43
0.0000001
 44
0.0000000001
 40
0.0
 40
0.0
 40
0.0
 40
0.0
 40
0.4915606992
 40
1.0
 40
1.0
 40
1.0
 40
1.0
 10
17.4688403687
 20
202.4082320655
 30
0.0
 10
14.6661813871
 20
201.9359736597
 30
0.0
 10
8.926928318
 20
201.1908016553
 30
0.0
 10
3.1515193501
 20
200.8328386253
 30
0.0
 10
0.2130731462
 20
200.7449590654
 30
0.0
  0
SPLINE
  5
2D7
100
AcDbEntity
  8
0
100
AcDbSpline
 62
7
  6
CONTINUOUS
 70
0
 71
3
 72
11
 73
7
 74
0
 42
0.0000001
 43
0.0000001
 44
0.0000000001
 40
0.0
 40
0.0
 40
0.0
 40
0.0
 40
0.2081192241
 40
0.4476789955
 40
0.7138407782
 40
1.0
 40
1.0
 40
1.0
 40
1.0
 10
20.6139440463
 20
202.9856833327
 30
0.0
 10
21.5016539508
 20
203.5303603492
 30
0.0
 10
23.5229164899
 20
204.5207674625
 30
0.0
 10
26.9101380127
 20
205.6749635995
 30
0.0
 10
30.7757693603
 20
206.5726037302
 30
0.0
 10
33.5146342331
 20
206.968438489
 30
0.0
 10
34.9385453975
 20
207.1206687423
 30
0.0
  0
SPLINE
  5
2D8
100
AcDbEntity
  8
0
100
AcDbSpline
 62
7
  6
CONTINUOUS
 70
0
 71
3
 72
9
 73
5
 74
0
 42
0.0000001
 43
0.0000001
 44
0.0000000001
 40
0.0
 40
0.0
 40
0.0
 40
0.0
 40
0.4764761802
 40
1.0
 40
1.0
 40
1.0
 40
1.0
 10
34.9385453975
 20
207.1206687423
 30
0.0
 10
32.7398345946
 20
206.2346607995
 30
0.0
 10
28.0138824564
 20
204.6481088895
 30
0.0
 10
23.1683575472
 20
203.4944211691
 30
0.0
 10
20.6139440463
 20
202.9856833327
 30
0.0
  0
SPLINE
  5
2D9
100
AcDbEntity
  8
0
100
AcDbSpline
 62
7
  6
CONTINUOUS
 70
0
 71
3
 72
12
 73
8
 74
0
 42
0.0000001
 43
0.0000001
 44
0.0000000001
 40
0.0
 40
0.0
 40
0.0
 40
0.0
 40
0.1868271528
 40
0.2950190644
 40
0.4141578849
 40
0.6857722472
 40
1.0
 40
1.0
 40
1.0
 40
1.0
 10
37.2826307487
 20
208.1277444012
 30
0.0
 10
37.5733548213
 20
208.7653382584
 30
0.0
 10
38.2516702961
 20
209.6737861571
 30
0.0
 10
39.4063144806
 20
210.7130422392
 30
0.0
 10
40.9328959833
 20
211.8031008984
 30
0.0
 10
43.2942799834
 20
213.0193526991
 30
0.0
 10
45.3676698627
 20
213.7620004032
 30
0.0
 10
46.4952755257
 20
214.1049281755
 30
0.0
  0
SPLINE
  5
2DA
100
AcDbEntity
  8
0
100
AcDbSpline
 62
7
  6
CONTINUOUS
 70
0
 71
3
 72
10
 73
6
 74
0
 42
0.0000001
 43
0.0000001
 44
0.0000000001
 40
0.0
 40
0.0
 40
0.0
 40
0.0
 40
0.2202385315
 40
0.4602059347
 40
1.0
 40
1.0
 40
1.0
 40
1.0
 10
46.4952755257
 20
214.1049281755
 30
0.0
 10
45.9178979954
 20
213.5374232058
 30
0.0
 10
44.6374573022
 20
212.4255353237
 30
0.0
 10
41.6331893357
 20
210.30041019
 30
0.0
 10
39.0865285561
 20
208.9543092531
 30
0.0
 10
37.2826307487
 20
208.1277444012
 30
0.0
  0
SPLINE
  5
2DB
100
AcDbEntity
  8
0
100
AcDbSpline
 62
7
  6
CONTINUOUS
 70
0
 71
3
 72
11
 73
7
 74
0
 42
0.0000001
 43
0.0000001
 44
0.0000000001
 40
0.0
 40
0.0
 40
0.0
 40
0.0
 40
0.2126447572
 40
0.4525616782
 40
0.7164937872
 40
1.0
 40
1.0
 40
1.0
 40
1.0
 10
37.3118360723
 20
247.7795015588
 30
0.0
 10
35.8029450456
 20
248.6750930913
 30
0.0
 10
32.4431412611
 20
250.3333308417
 30
0.0
 10
26.8779461578
 20
252.3534647271
 30
0.0
 10
20.5903993435
 20
254.0186756012
 30
0.0
 10
16.1441969046
 20
254.841203543
 30
0.0
 10
13.8310845557
 20
255.1908045469
 30
0.0
  0
SPLINE
  5
2DC
100
AcDbEntity
  8
0
100
AcDbSpline
 62
7
  6
CONTINUOUS
 70
0
 71
3
 72
9
 73
5
 74
0
 42
0.0000001
 43
0.0000001
 44
0.0000000001
 40
0.0
 40
0.0
 40
0.0
 40
0.0
 40
0.4571449904
 40
1.0
 40
1.0
 40
1.0
 40
1.0
 10
47.5646817615
 20
219.3184300986
 30
0.0
 10
47.8392284032
 20
219.874689947
 30
0.0
 10
48.665282839
 20
220.9806745868
 30
0.0
 10
49.7243102647
 20
221.8433308756
 30
0.0
 10
50.3295806341
 20
222.2631734809
 30
0.0
  0
SPLINE
  5
2DD
100
AcDbEntity
  8
0
100
AcDbSpline
 62
7
  6
CONTINUOUS
 70
0
 71
3
 72
11
 73
7
 74
0
 42
0.0000001
 43
0.0000001
 44
0.0000000001
 40
0.0
 40
0.0
 40
0.0
 40
0.0
 40
0.2605364956
 40
0.5187368295
 40
0.7674499495
 40
1.0
 40
1.0
 40
1.0
 40
1.0
 10
17.4277695875
 20
217.5082739037
 30
0.0
 10
15.9135205889
 20
217.5827089483
 30
0.0
 10
12.892188001
 20
217.6216130291
 30
0.0
 10
8.4301288432
 20
217.3614833428
 30
0.0
 10
4.1609349771
 20
216.7923468202
 30
0.0
 10
1.420337398
 20
216.1945740642
 30
0.0
 10
0.1145399848
 20
215.8394621393
 30
0.0
  0
SPLINE
  5
2DE
100
AcDbEntity
  8
0
100
AcDbSpline
 62
7
  6
CONTINUOUS
 70
0
 71
3
 72
11
 73
7
 74
0
 42
0.0000001
 43
0.0000001
 44
0.0000000001
 40
0.0
 40
0.0
 40
0.0
 40
0.0
 40
0.2376677341
 40
0.4881754326
 40
0.7446688198
 40
1.0
 40
1.0
 40
1.0
 40
1.0
 10
-3.1804435589
 20
215.7825247629
 30
0.0
 10
-4.5497395151
 20
216.0888587732
 30
0.0
 10
-7.3923585139
 20
216.5880219466
 30
0.0
 10
-11.7722451033
 20
217.0100427113
 30
0.0
 10
-16.2753034463
 20
217.1174282118
 30
0.0
 10
-19.2967726839
 20
216.9749628799
 30
0.0
 10
-20.7988176679
 20
216.8477177704
 30
0.0
  0
SPLINE
  5
2DF
100
AcDbEntity
  8
0
100
AcDbSpline
 62
7
  6
CONTINUOUS
 70
0
 71
3
 72
11
 73
7
 74
0
 42
0.0000001
 43
0.0000001
 44
0.0000000001
 40
0.0
 40
0.0
 40
0.0
 40
0.0
 40
0.281321062
 40
0.5441503179
 40
0.7846654155
 40
1.0
 40
1.0
 40
1.0
 40
1.0
 10
-19.9212686514
 20
221.6241640536
 30
0.0
 10
-21.7471703089
 20
221.9181622245
 30
0.0
 10
-25.2626221984
 20
222.5969076331
 30
0.0
 10
-30.2496623453
 20
223.9354131721
 30
0.0
 10
-34.7005575065
 20
225.5373445776
 30
0.0
 10
-37.4105996309
 20
226.8354195607
 30
0.0
 10
-38.6423235565
 20
227.5331575775
 30
0.0
  0
LINE
  5
2E0
100
AcDbEntity
  8
0
100
AcDbLine
 62
7
  6
CONTINUOUS
 10
13.8325274979
 20
255.1906849777
 11
13.8449534011
 21
252.4526841443
  0
SPLINE
  5
2E1
100
AcDbEntity
  8
0
100
AcDbSpline
 62
7
  6
CONTINUOUS
 70
0
 71
3
 72
11
 73
7
 74
0
 42
0.0000001
 43
0.0000001
 44
0.0000000001
 40
0.0
 40
0.0
 40
0.0
 40
0.0
 40
0.2140467744
 40
0.4559136705
 40
0.7201568796
 40
1.0
 40
1.0
 40
1.0
 40
1.0
 10
-23.8983610869
 20
217.2912632053
 30
0.0
 10
-24.90159479
 20
217.7987238521
 30
0.0
 10
-27.1249087552
 20
218.7102309214
 30
0.0
 10
-30.7678450685
 20
219.7484734126
 30
0.0
 10
-34.829158349
 20
220.5157081516
 30
0.0
 10
-37.6735539525
 20
220.8229414291
 30
0.0
 10
-39.1396419549
 20
220.9282950053
 30
0.0
  0
LINE
  5
2E2
100
AcDbEntity
  8
0
100
AcDbLine
 62
7
  6
CONTINUOUS
 10
-57.7515291948
 20
235.4483343712
 11
-58.0042639878
 21
221.7854397101
  0
SPLINE
  5
2E3
100
AcDbEntity
  8
0
100
AcDbSpline
 62
7
  6
CONTINUOUS
 70
0
 71
3
 72
12
 73
8
 74
0
 42
0.0000001
 43
0.0000001
 44
0.0000000001
 40
0.0
 40
0.0
 40
0.0
 40
0.0
 40
0.1904229236
 40
0.300547158
 40
0.4209967184
 40
0.6920341354
 40
1.0
 40
1.0
 40
1.0
 40
1.0
 10
-41.5718678612
 20
221.8047974798
 30
0.0
 10
-42.014512306
 20
222.4380240435
 30
0.0
 10
-42.8936266773
 20
223.3122472269
 30
0.0
 10
-44.2800019906
 20
224.3098305703
 30
0.0
 10
-46.0389731822
 20
225.3401645228
 30
0.0
 10
-48.6516251942
 20
226.471794688
 30
0.0
 10
-50.9046779273
 20
227.1522849473
 30
0.0
 10
-52.1157086386
 20
227.4599629505
 30
0.0
  0
LINE
  5
2E4
100
AcDbEntity
  8
0
100
AcDbLine
 62
7
  6
CONTINUOUS
 10
-52.1157086387
 20
227.4599629505
 11
-52.3347517836
 21
212.3971434812
  0
LINE
  5
2E5
100
AcDbEntity
  8
0
100
AcDbLine
 62
7
  6
CONTINUOUS
 10
-41.8259058671
 20
206.7607474264
 11
-41.5718678612
 21
221.8047974798
  0
LINE
  5
2E6
100
AcDbEntity
  8
0
100
AcDbLine
 62
7
  6
CONTINUOUS
 10
-39.1396419549
 20
220.9282950053
 11
-39.2664765482
 21
205.8384045941
  0
LINE
  5
2E7
100
AcDbEntity
  8
0
100
AcDbLine
 62
7
  6
CONTINUOUS
 10
-24.0757812841
 20
202.2134440534
 11
-23.8983610869
 21
217.2912632053
  0
LINE
  5
2E8
100
AcDbEntity
  8
0
100
AcDbLine
 62
7
  6
CONTINUOUS
 10
-20.7988176679
 20
216.8477177704
 11
-20.8141342936
 21
201.7467015571
  0
SPLINE
  5
2E9
100
AcDbEntity
  8
0
100
AcDbSpline
 62
7
  6
CONTINUOUS
 70
0
 71
3
 72
9
 73
5
 74
0
 42
0.0000001
 43
0.0000001
 44
0.0000000001
 40
0.0
 40
0.0
 40
0.0
 40
0.0
 40
0.2561024532
 40
1.0
 40
1.0
 40
1.0
 40
1.0
 10
-52.1157086386
 20
227.4599629505
 30
0.0
 10
-52.2385140706
 20
227.5557694469
 30
0.0
 10
-52.7145950287
 20
227.9342329636
 30
0.0
 10
-53.1765827587
 20
228.3305354365
 30
0.0
 10
-53.5103326861
 20
228.6359829084
 30
0.0
  0
SPLINE
  5
2EA
100
AcDbEntity
  8
0
100
AcDbSpline
 62
7
  6
CONTINUOUS
 70
0
 71
3
 72
13
 73
9
 74
0
 42
0.0000001
 43
0.0000001
 44
0.0000000001
 40
0.0
 40
0.0
 40
0.0
 40
0.0
 40
0.271288653
 40
0.5261300665
 40
0.6482049957
 40
0.7673000434
 40
0.8842382088
 40
1.0
 40
1.0
 40
1.0
 40
1.0
 10
-99.8384193989
 20
194.2659057282
 30
0.0
 10
-99.8384193989
 20
192.1030785963
 30
0.0
 10
-99.4233472213
 20
187.8925275563
 30
0.0
 10
-97.7377197717
 20
182.9478686481
 30
0.0
 10
-95.743705007
 20
179.5204228244
 30
0.0
 10
-93.9764450228
 20
177.2656776615
 30
0.0
 10
-91.9401054259
 20
175.3232679625
 30
0.0
 10
-90.4161862404
 20
174.2509579664
 30
0.0
 10
-89.6236484405
 20
173.7780612824
 30
0.0
  0
SPLINE
  5
2EB
100
AcDbEntity
  8
0
100
AcDbSpline
 62
7
  6
CONTINUOUS
 70
0
 71
3
 72
11
 73
7
 74
0
 42
0.0000001
 43
0.0000001
 44
0.0000000001
 40
0.0
 40
0.0
 40
0.0
 40
0.0
 40
0.2398024289
 40
0.4840431876
 40
0.7366438158
 40
1.0
 40
1.0
 40
1.0
 40
1.0
 10
0.6065177912
 20
181.3056947204
 30
0.0
 10
0.2994819487
 20
181.4830507384
 30
0.0
 10
-0.3611004042
 20
181.7748395545
 30
0.0
 10
-1.4348614674
 20
181.9976947736
 30
0.0
 10
-2.5656927382
 20
182.0030506021
 30
0.0
 10
-3.3208575889
 20
181.8659699052
 30
0.0
 10
-3.6969850259
 20
181.7651468835
 30
0.0
  0
SPLINE
  5
2EC
100
AcDbEntity
  8
0
100
AcDbSpline
 62
7
  6
CONTINUOUS
 70
0
 71
3
 72
9
 73
5
 74
0
 42
0.0000001
 43
0.0000001
 44
0.0000000001
 40
0.0
 40
0.0
 40
0.0
 40
0.0
 40
0.4837123723
 40
1.0
 40
1.0
 40
1.0
 40
1.0
 10
-18.3616380296
 20
173.7854218686
 30
0.0
 10
-18.6231192952
 20
173.9363891134
 30
0.0
 10
-19.2390893344
 20
174.1299470573
 30
0.0
 10
-19.8758917584
 20
174.0637858188
 30
0.0
 10
-20.1871690215
 20
173.9803462431
 30
0.0
  0
SPLINE
  5
2ED
100
AcDbEntity
  8
0
100
AcDbSpline
 62
7
  6
CONTINUOUS
 70
0
 71
3
 72
10
 73
6
 74
0
 42
0.0000001
 43
0.0000001
 44
0.0000000001
 40
0.0
 40
0.0
 40
0.0
 40
0.0
 40
0.2403281376
 40
0.4850960221
 40
1.0
 40
1.0
 40
1.0
 40
1.0
 10
-17.3863327315
 20
158.6961674265
 30
0.0
 10
-17.5861811027
 20
158.8115610778
 30
0.0
 10
-18.0162785297
 20
159.0014734075
 30
0.0
 10
-18.9615395764
 20
159.1982911494
 30
0.0
 10
-19.7096020026
 20
159.1232065012
 30
0.0
 10
-20.1871690215
 20
158.9951920442
 30
0.0
  0
SPLINE
  5
2EE
100
AcDbEntity
  8
0
100
AcDbSpline
 62
7
  6
CONTINUOUS
 70
0
 71
3
 72
9
 73
5
 74
0
 42
0.0000001
 43
0.0000001
 44
0.0000000001
 40
0.0
 40
0.0
 40
0.0
 40
0.0
 40
0.2542300593
 40
1.0
 40
1.0
 40
1.0
 40
1.0
 10
-41.7581852475
 20
173.053588633
 30
0.0
 10
-41.7087524258
 20
172.9864602424
 30
0.0
 10
-41.5016294977
 20
172.7320439012
 30
0.0
 10
-41.2421497673
 20
172.5198412872
 30
0.0
 10
-41.0303719957
 20
172.3975542639
 30
0.0
  0
SPLINE
  5
2EF
100
AcDbEntity
  8
0
100
AcDbSpline
 62
7
  6
CONTINUOUS
 70
0
 71
3
 72
12
 73
8
 74
0
 42
0.0000001
 43
0.0000001
 44
0.0000000001
 40
0.0
 40
0.0
 40
0.0
 40
0.0
 40
0.2795408123
 40
0.54388478
 40
0.7817836164
 40
0.892472975
 40
1.0
 40
1.0
 40
1.0
 40
1.0
 10
-4.7975099644
 20
192.3110377444
 30
0.0
 10
-4.9478385497
 20
192.0839560471
 30
0.0
 10
-5.1734693118
 20
191.5932770775
 30
0.0
 10
-5.2615809572
 20
190.8229953938
 30
0.0
 10
-5.0964994005
 20
190.226826312
 30
0.0
 10
-4.8272820205
 20
189.8676869519
 30
0.0
 10
-4.6570090145
 20
189.7352967695
 30
0.0
 10
-4.5663150143
 20
189.6828750973
 30
0.0
  0
SPLINE
  5
2F0
100
AcDbEntity
  8
0
100
AcDbSpline
 62
7
  6
CONTINUOUS
 70
0
 71
3
 72
13
 73
9
 74
0
 42
0.0000001
 43
0.0000001
 44
0.0000000001
 40
0.0
 40
0.0
 40
0.0
 40
0.0
 40
0.2786457651
 40
0.5432540933
 40
0.6664164373
 40
0.7825831044
 40
0.8929483167
 40
1.0
 40
1.0
 40
1.0
 40
1.0
 10
-0.8894765121
 20
188.6600659134
 30
0.0
 10
-1.2148912523
 20
188.2037910396
 30
0.0
 10
-1.7109943975
 20
187.2070350946
 30
0.0
 10
-1.8963025939
 20
185.8484164516
 30
0.0
 10
-1.7319663162
 20
184.8413170911
 30
0.0
 10
-1.4665543105
 20
184.1828100717
 30
0.0
 10
-1.0658799701
 20
183.635568378
 30
0.0
 10
-0.7165278873
 20
183.3615515956
 30
0.0
 10
-0.5300645899
 20
183.2538974436
 30
0.0
  0
SPLINE
  5
2F1
100
AcDbEntity
  8
0
100
AcDbSpline
 62
7
  6
CONTINUOUS
 70
0
 71
3
 72
9
 73
5
 74
0
 42
0.0000001
 43
0.0000001
 44
0.0000000001
 40
0.0
 40
0.0
 40
0.0
 40
0.0
 40
0.4880281326
 40
1.0
 40
1.0
 40
1.0
 40
1.0
 10
4.1989249016
 20
185.3726439766
 30
0.0
 10
4.7069646243
 20
183.97226526
 30
0.0
 10
5.4679857312
 20
180.9960398844
 30
0.0
 10
5.7038417438
 20
177.93750895
 30
0.0
 10
5.7038417438
 20
176.3747354879
 30
0.0
  0
SPLINE
  5
2F2
100
AcDbEntity
  8
0
100
AcDbSpline
 62
7
  6
CONTINUOUS
 70
0
 71
3
 72
17
 73
13
 74
0
 42
0.0000001
 43
0.0000001
 44
0.0000000001
 40
0.0
 40
0.0
 40
0.0
 40
0.0
 40
0.1266008928
 40
0.2583114476
 40
0.3252840704
 40
0.3924236752
 40
0.5254342548
 40
0.6544161507
 40
0.7769776088
 40
0.891924363
 40
0.9467508167
 40
1.0
 40
1.0
 40
1.0
 40
1.0
 10
5.7038417438
 20
176.3747354879
 30
0.0
 10
5.7038417438
 20
174.1378954285
 30
0.0
 10
5.1987024102
 20
169.5643781679
 30
0.0
 10
3.4669977912
 20
164.0483977905
 30
0.0
 10
1.4598541325
 20
159.7958273983
 30
0.0
 10
-0.9378154308
 20
155.7241813572
 30
0.0
 10
-4.5624763375
 20
151.1313511999
 30
0.0
 10
-9.7287329049
 20
146.6524275145
 30
0.0
 10
-15.4228279864
 20
143.4681477796
 30
0.0
 10
-20.4463421822
 20
142.032046644
 30
0.0
 10
-24.3857563488
 20
141.7297775414
 30
0.0
 10
-26.2994398364
 20
141.8537030127
 30
0.0
 10
-27.2310444798
 20
141.9851324772
 30
0.0
  0
SPLINE
  5
2F3
100
AcDbEntity
  8
0
100
AcDbSpline
 62
7
  6
CONTINUOUS
 70
0
 71
3
 72
9
 73
5
 74
0
 42
0.0000001
 43
0.0000001
 44
0.0000000001
 40
0.0
 40
0.0
 40
0.0
 40
0.0
 40
0.4826730558
 40
1.0
 40
1.0
 40
1.0
 40
1.0
 10
-29.0975964311
 20
148.1971963255
 30
0.0
 10
-29.4407449021
 20
148.1052134965
 30
0.0
 10
-30.1229040664
 20
147.7989269665
 30
0.0
 10
-30.6987878186
 20
147.3276565113
 30
0.0
 10
-30.9641483825
 20
147.0545832663
 30
0.0
  0
SPLINE
  5
2F4
100
AcDbEntity
  8
0
100
AcDbSpline
 62
7
  6
CONTINUOUS
 70
0
 71
3
 72
9
 73
5
 74
0
 42
0.0000001
 43
0.0000001
 44
0.0000000001
 40
0.0
 40
0.0
 40
0.0
 40
0.0
 40
0.4806690345
 40
1.0
 40
1.0
 40
1.0
 40
1.0
 10
-34.5337668381
 20
150.5039707859
 30
0.0
 10
-34.7439929583
 20
150.4476185218
 30
0.0
 10
-35.1595838502
 20
150.243192124
 30
0.0
 10
-35.4903731155
 20
149.9240680805
 30
0.0
 10
-35.6362771263
 20
149.7396515421
 30
0.0
  0
SPLINE
  5
2F5
100
AcDbEntity
  8
0
100
AcDbSpline
 62
7
  6
CONTINUOUS
 70
0
 71
3
 72
17
 73
13
 74
0
 42
0.0000001
 43
0.0000001
 44
0.0000000001
 40
0.0
 40
0.0
 40
0.0
 40
0.0
 40
0.1228379154
 40
0.2546982557
 40
0.3916795582
 40
0.528420949
 40
0.6596224521
 40
0.7815664066
 40
0.8389124424
 40
0.8940272421
 40
0.9474649717
 40
1.0
 40
1.0
 40
1.0
 40
1.0
 10
-33.86227532
 20
173.6791754336
 30
0.0
 10
-34.6296014464
 20
173.4734894584
 30
0.0
 10
-36.1542174214
 20
172.777024061
 30
0.0
 10
-38.1107499581
 20
171.1288890755
 30
0.0
 10
-39.6707496552
 20
168.9896272428
 30
0.0
 10
-40.6931077374
 20
166.5520380771
 30
0.0
 10
-41.0854249714
 20
164.0346668172
 30
0.0
 10
-40.8404934069
 20
162.0073777621
 30
0.0
 10
-40.2898877804
 20
160.5876331595
 30
0.0
 10
-39.7271374902
 20
159.6667091212
 30
0.0
 10
-39.0196112725
 20
158.8932279471
 30
0.0
 10
-38.4599766845
 20
158.4878591806
 30
0.0
 10
-38.1657781371
 20
158.3179184907
 30
0.0
  0
SPLINE
  5
2F6
100
AcDbEntity
  8
0
100
AcDbSpline
 62
7
  6
CONTINUOUS
 70
0
 71
3
 72
17
 73
13
 74
0
 42
0.0000001
 43
0.0000001
 44
0.0000000001
 40
0.0
 40
0.0
 40
0.0
 40
0.0
 40
0.1228379154
 40
0.2546982557
 40
0.3916795582
 40
0.528420949
 40
0.6596224521
 40
0.7815664066
 40
0.8389124424
 40
0.8940272421
 40
0.9474649717
 40
1.0
 40
1.0
 40
1.0
 40
1.0
 10
-18.779630173
 20
194.5000178537
 30
0.0
 10
-19.5469562993
 20
194.2943318785
 30
0.0
 10
-21.0715722744
 20
193.597866481
 30
0.0
 10
-23.0281048111
 20
191.9497314956
 30
0.0
 10
-24.5881045081
 20
189.8104696629
 30
0.0
 10
-25.6104625903
 20
187.3728804972
 30
0.0
 10
-26.0027798243
 20
184.8555092373
 30
0.0
 10
-25.7578482599
 20
182.8282201822
 30
0.0
 10
-25.2072426334
 20
181.4084755796
 30
0.0
 10
-24.6444923432
 20
180.4875515413
 30
0.0
 10
-23.9369661254
 20
179.7140703672
 30
0.0
 10
-23.3773315375
 20
179.3087016007
 30
0.0
 10
-23.0831329901
 20
179.1387609108
 30
0.0
  0
SPLINE
  5
2F7
100
AcDbEntity
  8
0
100
AcDbSpline
 62
7
  6
CONTINUOUS
 70
0
 71
3
 72
17
 73
13
 74
0
 42
0.0000001
 43
0.0000001
 44
0.0000000001
 40
0.0
 40
0.0
 40
0.0
 40
0.0
 40
0.1228379154
 40
0.2546982557
 40
0.3916795582
 40
0.528420949
 40
0.6596224521
 40
0.7815664066
 40
0.8389124424
 40
0.8940272421
 40
0.9474649717
 40
1.0
 40
1.0
 40
1.0
 40
1.0
 10
-3.6969850259
 20
181.7651468835
 30
0.0
 10
-4.4643111523
 20
181.5594609083
 30
0.0
 10
-5.9889271274
 20
180.8629955109
 30
0.0
 10
-7.945459664
 20
179.2148605254
 30
0.0
 10
-9.5054593611
 20
177.0755986928
 30
0.0
 10
-10.5278174433
 20
174.638009527
 30
0.0
 10
-10.9201346773
 20
172.1206382671
 30
0.0
 10
-10.6752031128
 20
170.0933492121
 30
0.0
 10
-10.1245974864
 20
168.6736046094
 30
0.0
 10
-9.5618471962
 20
167.7526805711
 30
0.0
 10
-8.8543209784
 20
166.9791993971
 30
0.0
 10
-8.2946863904
 20
166.5738306305
 30
0.0
 10
-8.000487843
 20
166.4038899407
 30
0.0
  0
SPLINE
  5
2F8
100
AcDbEntity
  8
0
100
AcDbSpline
 62
7
  6
CONTINUOUS
 70
0
 71
3
 72
11
 73
7
 74
0
 42
0.0000001
 43
0.0000001
 44
0.0000000001
 40
0.0
 40
0.0
 40
0.0
 40
0.0
 40
0.2398024289
 40
0.4840431876
 40
0.7366438158
 40
1.0
 40
1.0
 40
1.0
 40
1.0
 10
-14.4761273558
 20
194.0405656905
 30
0.0
 10
-14.7831631983
 20
194.2179217086
 30
0.0
 10
-15.4437455512
 20
194.5097105247
 30
0.0
 10
-16.5175066144
 20
194.7325657437
 30
0.0
 10
-17.6483378852
 20
194.7379215722
 30
0.0
 10
-18.4035027359
 20
194.6008408754
 30
0.0
 10
-18.779630173
 20
194.5000178537
 30
0.0
  0
SPLINE
  5
2F9
100
AcDbEntity
  8
0
100
AcDbSpline
 62
7
  6
CONTINUOUS
 70
0
 71
3
 72
11
 73
7
 74
0
 42
0.0000001
 43
0.0000001
 44
0.0000000001
 40
0.0
 40
0.0
 40
0.0
 40
0.0
 40
0.2398024289
 40
0.4840431876
 40
0.7366438158
 40
1.0
 40
1.0
 40
1.0
 40
1.0
 10
-29.5587725029
 20
173.2197232704
 30
0.0
 10
-29.8658083453
 20
173.3970792885
 30
0.0
 10
-30.5263906982
 20
173.6888681046
 30
0.0
 10
-31.6001517614
 20
173.9117233236
 30
0.0
 10
-32.7309830322
 20
173.9170791521
 30
0.0
 10
-33.4861478829
 20
173.7799984553
 30
0.0
 10
-33.86227532
 20
173.6791754336
 30
0.0
  0
SPLINE
  5
2FA
100
AcDbEntity
  8
0
100
AcDbSpline
 62
7
  6
CONTINUOUS
 70
0
 71
3
 72
16
 73
12
 74
0
 42
0.0000001
 43
0.0000001
 44
0.0000000001
 40
0.0
 40
0.0
 40
0.0
 40
0.0
 40
0.1228935845
 40
0.254809352
 40
0.3918532557
 40
0.528654137
 40
0.6599158167
 40
0.7819144774
 40
0.8939795929
 40
0.947440549
 40
1.0
 40
1.0
 40
1.0
 40
1.0
 10
-20.1871690215
 20
158.9951920442
 30
0.0
 10
-20.6865689007
 20
158.8613251693
 30
0.0
 10
-21.6788271858
 20
158.4080586289
 30
0.0
 10
-22.9521634386
 20
157.3353984504
 30
0.0
 10
-23.9674685519
 20
155.9430876591
 30
0.0
 10
-24.6329756061
 20
154.3569231732
 30
0.0
 10
-24.8876450254
 20
152.7174243803
 30
0.0
 10
-24.7027390849
 20
151.1695330891
 30
0.0
 10
-24.1669325714
 20
150.0527804081
 30
0.0
 10
-23.5436681927
 20
149.3722335692
 30
0.0
 10
-23.1795005385
 20
149.1082394871
 30
0.0
 10
-22.9880053115
 20
148.9976689914
 30
0.0
  0
SPLINE
  5
2FB
100
AcDbEntity
  8
0
100
AcDbSpline
 62
7
  6
CONTINUOUS
 70
0
 71
3
 72
15
 73
11
 74
0
 42
0.0000001
 43
0.0000001
 44
0.0000000001
 40
0.0
 40
0.0
 40
0.0
 40
0.0
 40
0.1229607908
 40
0.2549448048
 40
0.3920633402
 40
0.5289370371
 40
0.6602679335
 40
0.7823328983
 40
0.8944581578
 40
1.0
 40
1.0
 40
1.0
 40
1.0
 10
-20.1871690215
 20
173.9803462431
 30
0.0
 10
-20.5126740157
 20
173.8930928462
 30
0.0
 10
-21.1594203164
 20
173.597673917
 30
0.0
 10
-21.9893225393
 20
172.8984871948
 30
0.0
 10
-22.6511336847
 20
171.9910468441
 30
0.0
 10
-23.0848412024
 20
170.9571623795
 30
0.0
 10
-23.2510576697
 20
169.8887217678
 30
0.0
 10
-23.1295877833
 20
168.8792723629
 30
0.0
 10
-22.7205107864
 20
168.0215222953
 30
0.0
 10
-22.2632032724
 20
167.6087569887
 30
0.0
 10
-22.0127000135
 20
167.4641279396
 30
0.0
  0
SPLINE
  5
2FC
100
AcDbEntity
  8
0
100
AcDbSpline
 62
7
  6
CONTINUOUS
 70
0
 71
3
 72
9
 73
5
 74
0
 42
0.0000001
 43
0.0000001
 44
0.0000000001
 40
0.0
 40
0.0
 40
0.0
 40
0.0
 40
0.4837010306
 40
1.0
 40
1.0
 40
1.0
 40
1.0
 10
-33.5334878285
 20
150.3971425672
 30
0.0
 10
-33.6767177367
 20
150.479937613
 30
0.0
 10
-34.0142880419
 20
150.585922036
 30
0.0
 10
-34.3632008239
 20
150.5496919412
 30
0.0
 10
-34.5337668381
 20
150.5039707859
 30
0.0
  0
SPLINE
  5
2FD
100
AcDbEntity
  8
0
100
AcDbSpline
 62
7
  6
CONTINUOUS
 70
0
 71
3
 72
10
 73
6
 74
0
 42
0.0000001
 43
0.0000001
 44
0.0000000001
 40
0.0
 40
0.0
 40
0.0
 40
0.0
 40
0.2403006213
 40
0.4850717749
 40
1.0
 40
1.0
 40
1.0
 40
1.0
 10
-27.0970327793
 20
147.9835489555
 30
0.0
 10
-27.2397595054
 20
148.0659729038
 30
0.0
 10
-27.5469144847
 20
148.2017149237
 30
0.0
 10
-28.2221207408
 20
148.3422493844
 30
0.0
 10
-28.7564617281
 20
148.288639353
 30
0.0
 10
-29.0975964311
 20
148.1971963255
 30
0.0
  0
SPLINE
  5
2FE
100
AcDbEntity
  8
0
100
AcDbSpline
 62
7
  6
CONTINUOUS
 70
0
 71
3
 72
9
 73
5
 74
0
 42
0.0000001
 43
0.0000001
 44
0.0000000001
 40
0.0
 40
0.0
 40
0.0
 40
0.0
 40
0.5094877289
 40
1.0
 40
1.0
 40
1.0
 40
1.0
 10
-97.2879907085
 20
207.554207954
 30
0.0
 10
-98.1124263985
 20
205.3990648922
 30
0.0
 10
-99.3777720077
 20
201.0241081518
 30
0.0
 10
-99.8384193989
 20
196.487418775
 30
0.0
 10
-99.8384193989
 20
194.2659057282
 30
0.0
  0
SPLINE
  5
2FF
100
AcDbEntity
  8
0
100
AcDbSpline
 62
7
  6
CONTINUOUS
 70
0
 71
3
 72
10
 73
6
 74
0
 42
0.0000001
 43
0.0000001
 44
0.0000000001
 40
0.0
 40
0.0
 40
0.0
 40
0.0
 40
0.2403185971
 40
0.4850883285
 40
1.0
 40
1.0
 40
1.0
 40
1.0
 10
-37.0292047652
 20
179.3250046634
 30
0.0
 10
-37.1719497832
 20
179.4074218344
 30
0.0
 10
-37.4791194736
 20
179.5431553142
 30
0.0
 10
-38.1543271619
 20
179.6836830585
 30
0.0
 10
-38.6886551569
 20
179.6300742235
 30
0.0
 10
-39.0297791467
 20
179.5386340677
 30
0.0
  0
SPLINE
  5
300
100
AcDbEntity
  8
0
100
AcDbSpline
 62
7
  6
CONTINUOUS
 70
0
 71
3
 72
20
 73
16
 74
0
 42
0.0000001
 43
0.0000001
 44
0.0000000001
 40
0.0
 40
0.0
 40
0.0
 40
0.0
 40
0.1271679565
 40
0.1953137536
 40
0.2653061855
 40
0.4061104859
 40
0.5411864614
 40
0.6046833477
 40
0.6648622816
 40
0.7219732752
 40
0.7768090615
 40
0.8306292012
 40
0.8849105357
 40
0.9410477729
 40
1.0
 40
1.0
 40
1.0
 40
1.0
 10
-18.779630173
 20
175.4657144781
 30
0.0
 10
-19.4768417945
 20
175.2788230862
 30
0.0
 10
-20.4929118711
 20
174.7595346649
 30
0.0
 10
-21.632018635
 20
173.7699716752
 30
0.0
 10
-22.6576143043
 20
172.5557246841
 30
0.0
 10
-23.5766402852
 20
170.7877186123
 30
0.0
 10
-23.9281039367
 20
168.8562296915
 30
0.0
 10
-23.8018920244
 20
167.385216843
 30
0.0
 10
-23.515884049
 20
166.3920211285
 30
0.0
 10
-23.0447941395
 20
165.5262978451
 30
0.0
 10
-22.4040420994
 20
164.8238044372
 30
0.0
 10
-21.6182840353
 20
164.3163371698
 30
0.0
 10
-20.721465736
 20
164.0262883623
 30
0.0
 10
-19.7532441519
 20
163.9642566741
 30
0.0
 10
-19.1028419231
 20
164.0712600513
 30
0.0
 10
-18.779630173
 20
164.1578987329
 30
0.0
  0
SPLINE
  5
301
100
AcDbEntity
  8
0
100
AcDbSpline
 62
7
  6
CONTINUOUS
 70
0
 71
3
 72
20
 73
16
 74
0
 42
0.0000001
 43
0.0000001
 44
0.0000000001
 40
0.0
 40
0.0
 40
0.0
 40
0.0
 40
0.1271679565
 40
0.1953137536
 40
0.2653061855
 40
0.4061104859
 40
0.5411864614
 40
0.6046833477
 40
0.6648622816
 40
0.7219732752
 40
0.7768090615
 40
0.8306292012
 40
0.8849105357
 40
0.9410477729
 40
1.0
 40
1.0
 40
1.0
 40
1.0
 10
-18.779630173
 20
164.1578987329
 30
0.0
 10
-18.0824185529
 20
164.3447901303
 30
0.0
 10
-17.0663484742
 20
164.8640785445
 30
0.0
 10
-15.9272417112
 20
165.8536415363
 30
0.0
 10
-14.9016460415
 20
167.0678885268
 30
0.0
 10
-13.9826200608
 20
168.8358945989
 30
0.0
 10
-13.6311564092
 20
170.7673835195
 30
0.0
 10
-13.7573683215
 20
172.2383963681
 30
0.0
 10
-14.0433762969
 20
173.2315920826
 30
0.0
 10
-14.5144662064
 20
174.097315366
 30
0.0
 10
-15.1552182464
 20
174.799808774
 30
0.0
 10
-15.9409763107
 20
175.3072760411
 30
0.0
 10
-16.8377946098
 20
175.5973248491
 30
0.0
 10
-17.8060161943
 20
175.6593565373
 30
0.0
 10
-18.4564184222
 20
175.5523531573
 30
0.0
 10
-18.779630173
 20
175.4657144781
 30
0.0
  0
SPLINE
  5
302
100
AcDbEntity
  8
0
100
AcDbSpline
 62
7
  6
CONTINUOUS
 70
0
 71
3
 72
17
 73
13
 74
0
 42
0.0000001
 43
0.0000001
 44
0.0000000001
 40
0.0
 40
0.0
 40
0.0
 40
0.0
 40
0.1228379154
 40
0.2546982557
 40
0.3916795582
 40
0.528420949
 40
0.6596224521
 40
0.7815664066
 40
0.8389124424
 40
0.8940272421
 40
0.9474649717
 40
1.0
 40
1.0
 40
1.0
 40
1.0
 10
-3.6969850259
 20
165.9444377775
 30
0.0
 10
-2.9296588996
 20
166.1501237527
 30
0.0
 10
-1.4050429245
 20
166.8465891501
 30
0.0
 10
0.5514896122
 20
168.4947241356
 30
0.0
 10
2.1114893092
 20
170.6339859683
 30
0.0
 10
3.1338473914
 20
173.071575134
 30
0.0
 10
3.5261646254
 20
175.5889463939
 30
0.0
 10
3.281233061
 20
177.616235449
 30
0.0
 10
2.7306274345
 20
179.0359800516
 30
0.0
 10
2.1678771443
 20
179.9569040899
 30
0.0
 10
1.4603509265
 20
180.730385264
 30
0.0
 10
0.9007163386
 20
181.1357540305
 30
0.0
 10
0.6065177912
 20
181.3056947204
 30
0.0
  0
SPLINE
  5
303
100
AcDbEntity
  8
0
100
AcDbSpline
 62
7
  6
CONTINUOUS
 70
0
 71
3
 72
10
 73
6
 74
0
 42
0.0000001
 43
0.0000001
 44
0.0000000001
 40
0.0
 40
0.0
 40
0.0
 40
0.0
 40
0.2403281377
 40
0.4850960221
 40
1.0
 40
1.0
 40
1.0
 40
1.0
 10
-22.9880053115
 20
148.9976689914
 30
0.0
 10
-22.7881569407
 20
148.8822753403
 30
0.0
 10
-22.3580595145
 20
148.6923630109
 30
0.0
 10
-21.4127984698
 20
148.495545269
 30
0.0
 10
-20.6647360449
 20
148.5706299157
 30
0.0
 10
-20.1871690269
 20
148.6986443723
 30
0.0
  0
SPLINE
  5
304
100
AcDbEntity
  8
0
100
AcDbSpline
 62
7
  6
CONTINUOUS
 70
0
 71
3
 72
9
 73
5
 74
0
 42
0.0000001
 43
0.0000001
 44
0.0000000001
 40
0.0
 40
0.0
 40
0.0
 40
0.0
 40
0.2577946254
 40
1.0
 40
1.0
 40
1.0
 40
1.0
 10
-94.7234787461
 20
207.6928640005
 30
0.0
 10
-94.8098717169
 20
207.5221223569
 30
0.0
 10
-95.1087078148
 20
206.8425908558
 30
0.0
 10
-95.2590250904
 20
206.0936895796
 30
0.0
 10
-95.2590250904
 20
205.5427697812
 30
0.0
  0
SPLINE
  5
305
100
AcDbEntity
  8
0
100
AcDbSpline
 62
7
  6
CONTINUOUS
 70
0
 71
3
 72
9
 73
5
 74
0
 42
0.0000001
 43
0.0000001
 44
0.0000000001
 40
0.0
 40
0.0
 40
0.0
 40
0.0
 40
0.5164885163
 40
1.0
 40
1.0
 40
1.0
 40
1.0
 10
-95.2590250904
 20
205.5427697812
 30
0.0
 10
-95.2590250904
 20
205.2581117091
 30
0.0
 10
-95.2016954944
 20
204.7047392492
 30
0.0
 10
-95.0112001369
 20
204.1797697787
 30
0.0
 10
-94.8854675379
 20
203.9448133114
 30
0.0
  0
SPLINE
  5
306
100
AcDbEntity
  8
0
100
AcDbSpline
 62
7
  6
CONTINUOUS
 70
0
 71
3
 72
11
 73
7
 74
0
 42
0.0000001
 43
0.0000001
 44
0.0000000001
 40
0.0
 40
0.0
 40
0.0
 40
0.0
 40
0.240308938
 40
0.4999639547
 40
0.7596329233
 40
1.0
 40
1.0
 40
1.0
 40
1.0
 10
-22.0814904953
 20
192.6580768391
 30
0.0
 10
-21.9414766524
 20
192.0497893886
 30
0.0
 10
-21.9501379354
 20
190.7095048909
 30
0.0
 10
-22.6626506728
 20
188.8329270284
 30
0.0
 10
-23.9319392098
 20
187.2775945866
 30
0.0
 10
-25.0887294245
 20
186.6003354808
 30
0.0
 10
-25.6856769093
 20
186.4174154311
 30
0.0
  0
SPLINE
  5
307
100
AcDbEntity
  8
0
100
AcDbSpline
 62
7
  6
CONTINUOUS
 70
0
 71
3
 72
9
 73
5
 74
0
 42
0.0000001
 43
0.0000001
 44
0.0000000001
 40
0.0
 40
0.0
 40
0.0
 40
0.0
 40
0.4879693633
 40
1.0
 40
1.0
 40
1.0
 40
1.0
 10
-25.8615843053
 20
185.4942652748
 30
0.0
 10
-25.627674452
 20
185.4508006227
 30
0.0
 10
-25.1358426133
 20
185.4214968187
 30
0.0
 10
-24.6509178368
 20
185.5019937152
 30
0.0
 10
-24.409785567
 20
185.5666305422
 30
0.0
  0
SPLINE
  5
308
100
AcDbEntity
  8
0
100
AcDbSpline
 62
7
  6
CONTINUOUS
 70
0
 71
3
 72
9
 73
5
 74
0
 42
0.0000001
 43
0.0000001
 44
0.0000000001
 40
0.0
 40
0.0
 40
0.0
 40
0.0
 40
0.2563298419
 40
1.0
 40
1.0
 40
1.0
 40
1.0
 10
-94.8854675379
 20
203.9448133114
 30
0.0
 10
-95.1493822266
 20
203.0999285537
 30
0.0
 10
-96.0620899524
 20
199.7692497118
 30
0.0
 10
-96.4964801618
 20
196.3014134188
 30
0.0
 10
-96.4964801618
 20
193.7334106988
 30
0.0
  0
SPLINE
  5
309
100
AcDbEntity
  8
0
100
AcDbSpline
 62
7
  6
CONTINUOUS
 70
0
 71
3
 72
11
 73
7
 74
0
 42
0.0000001
 43
0.0000001
 44
0.0000000001
 40
0.0
 40
0.0
 40
0.0
 40
0.0
 40
0.2437201032
 40
0.4998689507
 40
0.7560881398
 40
1.0
 40
1.0
 40
1.0
 40
1.0
 10
-21.1951377027
 20
158.5973094124
 30
0.0
 10
-21.166951366
 20
157.9847765902
 30
0.0
 10
-21.3183984947
 20
156.7141387959
 30
0.0
 10
-22.0550746901
 20
154.9376570933
 30
0.0
 10
-23.221822965
 20
153.4082739729
 30
0.0
 10
-24.2448532224
 20
152.6385804467
 30
0.0
 10
-24.7889923864
 20
152.354863362
 30
0.0
  0
SPLINE
  5
30A
100
AcDbEntity
  8
0
100
AcDbSpline
 62
7
  6
CONTINUOUS
 70
0
 71
3
 72
15
 73
11
 74
0
 42
0.0000001
 43
0.0000001
 44
0.0000000001
 40
0.0
 40
0.0
 40
0.0
 40
0.0
 40
0.1135513106
 40
0.2348334682
 40
0.3626494426
 40
0.4945223179
 40
0.6272602708
 40
0.7575333659
 40
0.8824155674
 40
1.0
 40
1.0
 40
1.0
 40
1.0
 10
-17.8524938582
 20
194.6596616848
 30
0.0
 10
-17.6197021939
 20
194.1049180136
 30
0.0
 10
-17.3000246268
 20
192.8856823286
 30
0.0
 10
-17.2644039979
 20
190.9499308282
 30
0.0
 10
-17.6499110335
 20
188.9546528319
 30
0.0
 10
-18.4323408243
 20
187.0152098626
 30
0.0
 10
-19.5652592728
 20
185.2421326174
 30
0.0
 10
-20.9843997482
 20
183.7378161858
 30
0.0
 10
-22.607863288
 20
182.5899908341
 30
0.0
 10
-23.8080527412
 20
182.0924797247
 30
0.0
 10
-24.409785567
 20
181.9311819416
 30
0.0
  0
SPLINE
  5
30B
100
AcDbEntity
  8
0
100
AcDbSpline
 62
7
  6
CONTINUOUS
 70
0
 71
3
 72
11
 73
7
 74
0
 42
0.0000001
 43
0.0000001
 44
0.0000000001
 40
0.0
 40
0.0
 40
0.0
 40
0.0
 40
0.2398024289
 40
0.4840431876
 40
0.7366438158
 40
1.0
 40
1.0
 40
1.0
 40
1.0
 10
-23.0831329901
 20
179.1387609108
 30
0.0
 10
-22.7760971476
 20
178.9614048928
 30
0.0
 10
-22.1155147947
 20
178.6696160767
 30
0.0
 10
-21.0417537315
 20
178.4467608576
 30
0.0
 10
-19.9109224607
 20
178.4414050291
 30
0.0
 10
-19.15575761
 20
178.578485726
 30
0.0
 10
-18.779630173
 20
178.6793087477
 30
0.0
  0
SPLINE
  5
30C
100
AcDbEntity
  8
0
100
AcDbSpline
 62
7
  6
CONTINUOUS
 70
0
 71
3
 72
11
 73
7
 74
0
 42
0.0000001
 43
0.0000001
 44
0.0000000001
 40
0.0
 40
0.0
 40
0.0
 40
0.0
 40
0.2684150711
 40
0.5237533439
 40
0.7667577005
 40
1.0
 40
1.0
 40
1.0
 40
1.0
 10
-96.4964801618
 20
193.7334106988
 30
0.0
 10
-96.4964801618
 20
192.0903109504
 30
0.0
 10
-96.2388765756
 20
188.8760790329
 30
0.0
 10
-95.0222066742
 20
184.3141081672
 30
0.0
 10
-93.0178271362
 20
180.2740545392
 30
0.0
 10
-91.1616642077
 20
177.986830909
 30
0.0
 10
-90.1360731127
 20
176.9934793661
 30
0.0
  0
SPLINE
  5
30D
100
AcDbEntity
  8
0
100
AcDbSpline
 62
7
  6
CONTINUOUS
 70
0
 71
3
 72
11
 73
7
 74
0
 42
0.0000001
 43
0.0000001
 44
0.0000000001
 40
0.0
 40
0.0
 40
0.0
 40
0.0
 40
0.2337072309
 40
0.4771212913
 40
0.7323729858
 40
1.0
 40
1.0
 40
1.0
 40
1.0
 10
-37.5616799293
 20
147.3060233091
 30
0.0
 10
-38.4862352709
 20
148.2880982394
 30
0.0
 10
-40.151722419
 20
150.5125550308
 30
0.0
 10
-41.9448887431
 20
154.3690575969
 30
0.0
 10
-43.0323114879
 20
158.6798064185
 30
0.0
 10
-43.2631020897
 20
161.704310461
 30
0.0
 10
-43.2631020897
 20
163.2488777232
 30
0.0
  0
SPLINE
  5
30E
100
AcDbEntity
  8
0
100
AcDbSpline
 62
7
  6
CONTINUOUS
 70
0
 71
3
 72
9
 73
5
 74
0
 42
0.0000001
 43
0.0000001
 44
0.0000000001
 40
0.0
 40
0.0
 40
0.0
 40
0.0
 40
0.2438411667
 40
1.0
 40
1.0
 40
1.0
 40
1.0
 10
-43.2631020897
 20
163.2488777232
 30
0.0
 10
-43.2631020897
 20
164.0568045928
 30
0.0
 10
-43.1307661323
 20
167.3694665832
 30
0.0
 10
-42.4862774712
 20
170.6563111704
 30
0.0
 10
-41.7581852475
 20
173.053588633
 30
0.0
  0
SPLINE
  5
30F
100
AcDbEntity
  8
0
100
AcDbSpline
 62
7
  6
CONTINUOUS
 70
0
 71
3
 72
11
 73
7
 74
0
 42
0.0000001
 43
0.0000001
 44
0.0000000001
 40
0.0
 40
0.0
 40
0.0
 40
0.0
 40
0.240308938
 40
0.4999639547
 40
0.7596329233
 40
1.0
 40
1.0
 40
1.0
 40
1.0
 10
-37.1641356423
 20
171.837234419
 30
0.0
 10
-37.0241217994
 20
171.2289469685
 30
0.0
 10
-37.0327830824
 20
169.8886624708
 30
0.0
 10
-37.7452958198
 20
168.0120846083
 30
0.0
 10
-39.0145843569
 20
166.4567521665
 30
0.0
 10
-40.1713745716
 20
165.7794930607
 30
0.0
 10
-40.7683220563
 20
165.596573011
 30
0.0
  0
SPLINE
  5
310
100
AcDbEntity
  8
0
100
AcDbSpline
 62
7
  6
CONTINUOUS
 70
0
 71
3
 72
9
 73
5
 74
0
 42
0.0000001
 43
0.0000001
 44
0.0000000001
 40
0.0
 40
0.0
 40
0.0
 40
0.0
 40
0.4879693633
 40
1.0
 40
1.0
 40
1.0
 40
1.0
 10
-40.9442294524
 20
164.6734228547
 30
0.0
 10
-40.7103195991
 20
164.6299582026
 30
0.0
 10
-40.2184877603
 20
164.6006543986
 30
0.0
 10
-39.7335629839
 20
164.6811512951
 30
0.0
 10
-39.492430714
 20
164.7457881221
 30
0.0
  0
SPLINE
  5
311
100
AcDbEntity
  8
0
100
AcDbSpline
 62
7
  6
CONTINUOUS
 70
0
 71
3
 72
15
 73
11
 74
0
 42
0.0000001
 43
0.0000001
 44
0.0000000001
 40
0.0
 40
0.0
 40
0.0
 40
0.0
 40
0.1229644647
 40
0.2549507221
 40
0.3920656122
 40
0.5289377943
 40
0.6602681485
 40
0.7823320179
 40
0.8944570775
 40
1.0
 40
1.0
 40
1.0
 40
1.0
 10
-39.0297791467
 20
172.1839571603
 30
0.0
 10
-38.6730516354
 20
172.2795799255
 30
0.0
 10
-37.964274225
 20
172.603336931
 30
0.0
 10
-37.0548023419
 20
173.3695864537
 30
0.0
 10
-36.329540485
 20
174.3640331991
 30
0.0
 10
-35.8542610909
 20
175.4970421339
 30
0.0
 10
-35.6721080746
 20
176.6679227135
 30
0.0
 10
-35.8052199828
 20
177.7741599065
 30
0.0
 10
-36.2535182543
 20
178.7141607285
 30
0.0
 10
-36.7546808722
 20
179.16650188
 30
0.0
 10
-37.0292047652
 20
179.3250046634
 30
0.0
  0
SPLINE
  5
312
100
AcDbEntity
  8
0
100
AcDbSpline
 62
7
  6
CONTINUOUS
 70
0
 71
3
 72
11
 73
7
 74
0
 42
0.0000001
 43
0.0000001
 44
0.0000000001
 40
0.0
 40
0.0
 40
0.0
 40
0.0
 40
0.240308938
 40
0.4999639547
 40
0.7596329233
 40
1.0
 40
1.0
 40
1.0
 40
1.0
 10
-6.9988453483
 20
179.9232058689
 30
0.0
 10
-6.8588315054
 20
179.3149184185
 30
0.0
 10
-6.8674927883
 20
177.9746339207
 30
0.0
 10
-7.5800055258
 20
176.0980560583
 30
0.0
 10
-8.8492940628
 20
174.5427236165
 30
0.0
 10
-10.0060842775
 20
173.8654645106
 30
0.0
 10
-10.6030317623
 20
173.6825444609
 30
0.0
  0
SPLINE
  5
313
100
AcDbEntity
  8
0
100
AcDbSpline
 62
7
  6
CONTINUOUS
 70
0
 71
3
 72
15
 73
11
 74
0
 42
0.0000001
 43
0.0000001
 44
0.0000000001
 40
0.0
 40
0.0
 40
0.0
 40
0.0
 40
0.1135513106
 40
0.2348334682
 40
0.3626494426
 40
0.4945223179
 40
0.6272602708
 40
0.7575333659
 40
0.8824155674
 40
1.0
 40
1.0
 40
1.0
 40
1.0
 10
-32.9351390052
 20
173.8388192647
 30
0.0
 10
-32.7023473409
 20
173.2840755935
 30
0.0
 10
-32.3826697738
 20
172.0648399085
 30
0.0
 10
-32.3470491449
 20
170.1290884081
 30
0.0
 10
-32.7325561806
 20
168.1338104118
 30
0.0
 10
-33.5149859713
 20
166.1943674426
 30
0.0
 10
-34.6479044199
 20
164.4212901973
 30
0.0
 10
-36.0670448953
 20
162.9169737657
 30
0.0
 10
-37.690508435
 20
161.769148414
 30
0.0
 10
-38.8906978882
 20
161.2716373046
 30
0.0
 10
-39.492430714
 20
161.1103395215
 30
0.0
  0
SPLINE
  5
314
100
AcDbEntity
  8
0
100
AcDbSpline
 62
7
  6
CONTINUOUS
 70
0
 71
3
 72
11
 73
7
 74
0
 42
0.0000001
 43
0.0000001
 44
0.0000000001
 40
0.0
 40
0.0
 40
0.0
 40
0.0
 40
0.2398024289
 40
0.4840431876
 40
0.7366438158
 40
1.0
 40
1.0
 40
1.0
 40
1.0
 10
-38.1657781371
 20
158.3179184907
 30
0.0
 10
-37.8587422947
 20
158.1405624727
 30
0.0
 10
-37.1981599418
 20
157.8487736566
 30
0.0
 10
-36.1243988786
 20
157.6259184375
 30
0.0
 10
-34.9935676078
 20
157.620562609
 30
0.0
 10
-34.2384027571
 20
157.7576433059
 30
0.0
 10
-33.86227532
 20
157.8584663276
 30
0.0
  0
SPLINE
  5
315
100
AcDbEntity
  8
0
100
AcDbSpline
 62
7
  6
CONTINUOUS
 70
0
 71
3
 72
9
 73
5
 74
0
 42
0.0000001
 43
0.0000001
 44
0.0000000001
 40
0.0
 40
0.0
 40
0.0
 40
0.0
 40
0.2531107493
 40
1.0
 40
1.0
 40
1.0
 40
1.0
 10
-39.492430714
 20
161.1103395215
 30
0.0
 10
-39.5669846898
 20
161.0903549196
 30
0.0
 10
-39.8628068631
 20
161.0162449926
 30
0.0
 10
-40.1635974457
 20
160.9617684419
 30
0.0
 10
-40.3895560717
 20
160.9331515478
 30
0.0
  0
SPLINE
  5
316
100
AcDbEntity
  8
0
100
AcDbSpline
 62
7
  6
CONTINUOUS
 70
0
 71
3
 72
16
 73
12
 74
0
 42
0.0000001
 43
0.0000001
 44
0.0000000001
 40
0.0
 40
0.0
 40
0.0
 40
0.0
 40
0.2789688681
 40
0.4140281793
 40
0.5433290331
 40
0.6658821929
 40
0.7817375371
 40
0.8376064035
 40
0.8923703815
 40
0.94637483
 40
1.0
 40
1.0
 40
1.0
 40
1.0
 10
-39.1234237655
 20
179.5120563834
 30
0.0
 10
-37.2865324253
 20
183.0559914056
 30
0.0
 10
-33.7204596761
 20
187.948591886
 30
0.0
 10
-27.7402118291
 20
192.9578511167
 30
0.0
 10
-22.9151890021
 20
195.7392128518
 30
0.0
 10
-17.9045595273
 20
197.4553070552
 30
0.0
 10
-13.6795541422
 20
197.934445296
 30
0.0
 10
-10.4395988632
 20
197.704356013
 30
0.0
 10
-8.1228724617
 20
197.2413711127
 30
0.0
 10
-5.9172527619
 20
196.4898887414
 30
0.0
 10
-4.5341139948
 20
195.800220202
 30
0.0
 10
-3.8720079725
 20
195.4124324804
 30
0.0
  0
SPLINE
  5
317
100
AcDbEntity
  8
0
100
AcDbSpline
 62
7
  6
CONTINUOUS
 70
0
 71
3
 72
15
 73
11
 74
0
 42
0.0000001
 43
0.0000001
 44
0.0000000001
 40
0.0
 40
0.0
 40
0.0
 40
0.0
 40
0.1201163263
 40
0.2483905995
 40
0.3820654651
 40
0.5171121482
 40
0.6492288202
 40
0.7747380709
 40
0.891545565
 40
1.0
 40
1.0
 40
1.0
 40
1.0
 10
-39.492430714
 20
164.7457881221
 30
0.0
 10
-39.1241172879
 20
164.8445165553
 30
0.0
 10
-38.3906782182
 20
165.1633946805
 30
0.0
 10
-37.4222165254
 20
165.9101165147
 30
0.0
 10
-36.6092972359
 20
166.885889317
 30
0.0
 10
-36.0110747148
 20
168.0194309
 30
0.0
 10
-35.6704567661
 20
169.2287944601
 30
0.0
 10
-35.6145189682
 20
170.4279321139
 30
0.0
 10
-35.8513370175
 20
171.5300348532
 30
0.0
 10
-36.2127995535
 20
172.1648018073
 30
0.0
 10
-36.4338671216
 20
172.4287489773
 30
0.0
  0
SPLINE
  5
318
100
AcDbEntity
  8
0
100
AcDbSpline
 62
7
  6
CONTINUOUS
 70
0
 71
3
 72
9
 73
5
 74
0
 42
0.0000001
 43
0.0000001
 44
0.0000000001
 40
0.0
 40
0.0
 40
0.0
 40
0.0
 40
0.4879693633
 40
1.0
 40
1.0
 40
1.0
 40
1.0
 10
-10.7789391583
 20
172.7593943046
 30
0.0
 10
-10.545029305
 20
172.7159296525
 30
0.0
 10
-10.0531974663
 20
172.6866258485
 30
0.0
 10
-9.5682726898
 20
172.767122745
 30
0.0
 10
-9.3271404199
 20
172.831759572
 30
0.0
  0
SPLINE
  5
319
100
AcDbEntity
  8
0
100
AcDbSpline
 62
7
  6
CONTINUOUS
 70
0
 71
3
 72
9
 73
5
 74
0
 42
0.0000001
 43
0.0000001
 44
0.0000000001
 40
0.0
 40
0.0
 40
0.0
 40
0.0
 40
0.2531107493
 40
1.0
 40
1.0
 40
1.0
 40
1.0
 10
-24.409785567
 20
181.9311819416
 30
0.0
 10
-24.4843395427
 20
181.9111973397
 30
0.0
 10
-24.780161716
 20
181.8370874127
 30
0.0
 10
-25.0809522987
 20
181.782610862
 30
0.0
 10
-25.3069109246
 20
181.7539939679
 30
0.0
  0
SPLINE
  5
31A
100
AcDbEntity
  8
0
100
AcDbSpline
 62
7
  6
CONTINUOUS
 70
0
 71
3
 72
9
 73
5
 74
0
 42
0.0000001
 43
0.0000001
 44
0.0000000001
 40
0.0
 40
0.0
 40
0.0
 40
0.0
 40
0.4802726951
 40
1.0
 40
1.0
 40
1.0
 40
1.0
 10
-3.5660372386
 20
189.5760447736
 30
0.0
 10
-3.3453824363
 20
189.6351925032
 30
0.0
 10
-2.90999282
 20
189.8544525665
 30
0.0
 10
-2.5693439885
 20
190.1974186922
 30
0.0
 10
-2.4212207917
 20
190.3953405882
 30
0.0
  0
SPLINE
  5
31B
100
AcDbEntity
  8
0
100
AcDbSpline
 62
7
  6
CONTINUOUS
 70
0
 71
3
 72
15
 73
11
 74
0
 42
0.0000001
 43
0.0000001
 44
0.0000000001
 40
0.0
 40
0.0
 40
0.0
 40
0.0
 40
0.1201163263
 40
0.2483905995
 40
0.3820654651
 40
0.5171121482
 40
0.6492288202
 40
0.7747380709
 40
0.891545565
 40
1.0
 40
1.0
 40
1.0
 40
1.0
 10
-24.409785567
 20
185.5666305422
 30
0.0
 10
-24.0414721409
 20
185.6653589754
 30
0.0
 10
-23.3080330712
 20
185.9842371006
 30
0.0
 10
-22.3395713784
 20
186.7309589348
 30
0.0
 10
-21.5266520889
 20
187.7067317371
 30
0.0
 10
-20.9284295677
 20
188.84027332
 30
0.0
 10
-20.5878116191
 20
190.0496368802
 30
0.0
 10
-20.5318738212
 20
191.248774534
 30
0.0
 10
-20.7686918705
 20
192.3508772733
 30
0.0
 10
-21.1301544065
 20
192.9856442274
 30
0.0
 10
-21.3512219746
 20
193.2495913974
 30
0.0
  0
SPLINE
  5
31C
100
AcDbEntity
  8
0
100
AcDbSpline
 62
7
  6
CONTINUOUS
 70
0
 71
3
 72
15
 73
11
 74
0
 42
0.0000001
 43
0.0000001
 44
0.0000000001
 40
0.0
 40
0.0
 40
0.0
 40
0.0
 40
0.1135513106
 40
0.2348334682
 40
0.3626494426
 40
0.4945223179
 40
0.6272602708
 40
0.7575333659
 40
0.8824155674
 40
1.0
 40
1.0
 40
1.0
 40
1.0
 10
-2.7698487112
 20
181.9247907146
 30
0.0
 10
-2.5370570469
 20
181.3700470434
 30
0.0
 10
-2.2173794797
 20
180.1508113585
 30
0.0
 10
-2.1817588508
 20
178.2150598581
 30
0.0
 10
-2.5672658865
 20
176.2197818617
 30
0.0
 10
-3.3496956773
 20
174.2803388925
 30
0.0
 10
-4.4826141258
 20
172.5072616473
 30
0.0
 10
-5.9017546012
 20
171.0029452157
 30
0.0
 10
-7.525218141
 20
169.8551198639
 30
0.0
 10
-8.7254075941
 20
169.3576087545
 30
0.0
 10
-9.3271404199
 20
169.1963109715
 30
0.0
  0
SPLINE
  5
31D
100
AcDbEntity
  8
0
100
AcDbSpline
 62
7
  6
CONTINUOUS
 70
0
 71
3
 72
16
 73
12
 74
0
 42
0.0000001
 43
0.0000001
 44
0.0000000001
 40
0.0
 40
0.0
 40
0.0
 40
0.0
 40
0.1228935845
 40
0.2548093519
 40
0.3918532556
 40
0.5286541369
 40
0.6599158167
 40
0.7819144774
 40
0.8939795929
 40
0.947440549
 40
1.0
 40
1.0
 40
1.0
 40
1.0
 10
-20.1871690269
 20
148.6986443723
 30
0.0
 10
-19.6877691475
 20
148.832511247
 30
0.0
 10
-18.6955108615
 20
149.2857777858
 30
0.0
 10
-17.4221746077
 20
150.3584379641
 30
0.0
 10
-16.4068694931
 20
151.7507487552
 30
0.0
 10
-15.7413624378
 20
153.3369132416
 30
0.0
 10
-15.4866930176
 20
154.9764120353
 30
0.0
 10
-15.6715989577
 20
156.5243033274
 30
0.0
 10
-16.2074054712
 20
157.6410560092
 30
0.0
 10
-16.8306698501
 20
158.3216028485
 30
0.0
 10
-17.1948375045
 20
158.5855969308
 30
0.0
 10
-17.3863327315
 20
158.6961674265
 30
0.0
  0
SPLINE
  5
31E
100
AcDbEntity
  8
0
100
AcDbSpline
 62
7
  6
CONTINUOUS
 70
0
 71
3
 72
11
 73
7
 74
0
 42
0.0000001
 43
0.0000001
 44
0.0000000001
 40
0.0
 40
0.0
 40
0.0
 40
0.0
 40
0.2398024289
 40
0.4840431876
 40
0.7366438158
 40
1.0
 40
1.0
 40
1.0
 40
1.0
 10
-8.000487843
 20
166.4038899407
 30
0.0
 10
-7.6934520006
 20
166.2265339226
 30
0.0
 10
-7.0328696477
 20
165.9347451065
 30
0.0
 10
-5.9591085845
 20
165.7118898875
 30
0.0
 10
-4.8282773137
 20
165.706534059
 30
0.0
 10
-4.073112463
 20
165.8436147558
 30
0.0
 10
-3.6969850259
 20
165.9444377775
 30
0.0
  0
SPLINE
  5
31F
100
AcDbEntity
  8
0
100
AcDbSpline
 62
7
  6
CONTINUOUS
 70
0
 71
3
 72
9
 73
5
 74
0
 42
0.0000001
 43
0.0000001
 44
0.0000000001
 40
0.0
 40
0.0
 40
0.0
 40
0.0
 40
0.4799841062
 40
1.0
 40
1.0
 40
1.0
 40
1.0
 10
1.4705188008
 20
183.0402840752
 30
0.0
 10
1.929762194
 20
183.1633867847
 30
0.0
 10
2.8343158067
 20
183.6281210099
 30
0.0
 10
3.5314140704
 20
184.355800986
 30
0.0
 10
3.8305141136
 20
184.7751791445
 30
0.0
  0
SPLINE
  5
320
100
AcDbEntity
  8
0
100
AcDbSpline
 62
7
  6
CONTINUOUS
 70
0
 71
3
 72
15
 73
11
 74
0
 42
0.0000001
 43
0.0000001
 44
0.0000000001
 40
0.0
 40
0.0
 40
0.0
 40
0.0
 40
0.1229607907
 40
0.2549448046
 40
0.3920633401
 40
0.528937037
 40
0.6602679334
 40
0.7823328982
 40
0.8944581577
 40
1.0
 40
1.0
 40
1.0
 40
1.0
 10
-20.1871690306
 20
167.2692035626
 30
0.0
 10
-19.8616640362
 20
167.3564569594
 30
0.0
 10
-19.2149177339
 20
167.6518758857
 30
0.0
 10
-18.3850155093
 20
168.3510626076
 30
0.0
 10
-17.7232043616
 20
169.258502958
 30
0.0
 10
-17.2894968421
 20
170.2923874234
 30
0.0
 10
-17.1232803734
 20
171.3608280365
 30
0.0
 10
-17.2447502589
 20
172.3702774429
 30
0.0
 10
-17.6538272558
 20
173.228027512
 30
0.0
 10
-18.1111347703
 20
173.6407928193
 30
0.0
 10
-18.3616380296
 20
173.7854218686
 30
0.0
  0
SPLINE
  5
321
100
AcDbEntity
  8
0
100
AcDbSpline
 62
7
  6
CONTINUOUS
 70
0
 71
3
 72
9
 73
5
 74
0
 42
0.0000001
 43
0.0000001
 44
0.0000000001
 40
0.0
 40
0.0
 40
0.0
 40
0.0
 40
0.2531107493
 40
1.0
 40
1.0
 40
1.0
 40
1.0
 10
-9.3271404199
 20
169.1963109715
 30
0.0
 10
-9.4016943957
 20
169.1763263695
 30
0.0
 10
-9.697516569
 20
169.1022164425
 30
0.0
 10
-9.9983071517
 20
169.0477398919
 30
0.0
 10
-10.2242657776
 20
169.0191229977
 30
0.0
  0
SPLINE
  5
322
100
AcDbEntity
  8
0
100
AcDbSpline
 62
7
  6
CONTINUOUS
 70
0
 71
3
 72
9
 73
5
 74
0
 42
0.0000001
 43
0.0000001
 44
0.0000000001
 40
0.0
 40
0.0
 40
0.0
 40
0.0
 40
0.4837123724
 40
1.0
 40
1.0
 40
1.0
 40
1.0
 10
-22.0127000135
 20
167.4641279396
 30
0.0
 10
-21.7512187491
 20
167.3131606955
 30
0.0
 10
-21.1352487134
 20
167.1196027523
 30
0.0
 10
-20.4984462922
 20
167.1857639876
 30
0.0
 10
-20.1871690306
 20
167.2692035626
 30
0.0
  0
SPLINE
  5
323
100
AcDbEntity
  8
0
100
AcDbSpline
 62
7
  6
CONTINUOUS
 70
0
 71
3
 72
15
 73
11
 74
0
 42
0.0000001
 43
0.0000001
 44
0.0000000001
 40
0.0
 40
0.0
 40
0.0
 40
0.0
 40
0.1201163263
 40
0.2483905995
 40
0.3820654651
 40
0.5171121482
 40
0.6492288202
 40
0.7747380709
 40
0.891545565
 40
1.0
 40
1.0
 40
1.0
 40
1.0
 10
-9.3271404199
 20
172.831759572
 30
0.0
 10
-8.9588269938
 20
172.9304880052
 30
0.0
 10
-8.2253879241
 20
173.2493661304
 30
0.0
 10
-7.2569262314
 20
173.9960879647
 30
0.0
 10
-6.4440069418
 20
174.971860767
 30
0.0
 10
-5.8457844207
 20
176.1054023499
 30
0.0
 10
-5.5051664721
 20
177.31476591
 30
0.0
 10
-5.4492286742
 20
178.5139035638
 30
0.0
 10
-5.6860467235
 20
179.6160063032
 30
0.0
 10
-6.0475092595
 20
180.2507732572
 30
0.0
 10
-6.2685768275
 20
180.5147204272
 30
0.0
  0
SPLINE
  5
324
100
AcDbEntity
  8
0
100
AcDbSpline
 62
7
  6
CONTINUOUS
 70
0
 71
3
 72
13
 73
9
 74
0
 42
0.0000001
 43
0.0000001
 44
0.0000000001
 40
0.0
 40
0.0
 40
0.0
 40
0.0
 40
0.2752894708
 40
0.5424768611
 40
0.6671294296
 40
0.7839729097
 40
0.8939957877
 40
1.0
 40
1.0
 40
1.0
 40
1.0
 10
-27.2310444798
 20
141.9851324772
 30
0.0
 10
-26.7963348921
 20
142.4324768603
 30
0.0
 10
-26.0997683512
 20
143.480746398
 30
0.0
 10
-25.7387632482
 20
144.9887804705
 30
0.0
 10
-25.8299439659
 20
146.1465837993
 30
0.0
 10
-26.079496354
 20
146.9121648236
 30
0.0
 10
-26.5017136906
 20
147.5491189395
 30
0.0
 10
-26.8890335734
 20
147.8634304867
 30
0.0
 10
-27.0970327793
 20
147.9835489555
 30
0.0
  0
SPLINE
  5
325
100
AcDbEntity
  8
0
100
AcDbSpline
 62
7
  6
CONTINUOUS
 70
0
 71
3
 72
9
 73
5
 74
0
 42
0.0000001
 43
0.0000001
 44
0.0000000001
 40
0.0
 40
0.0
 40
0.0
 40
0.0
 40
0.4836986258
 40
1.0
 40
1.0
 40
1.0
 40
1.0
 10
-4.5663150143
 20
189.6828750973
 30
0.0
 10
-4.4230827241
 20
189.6000859804
 30
0.0
 10
-4.0855187924
 20
189.494089376
 30
0.0
 10
-3.7366039625
 20
189.5303234281
 30
0.0
 10
-3.5660372386
 20
189.5760447736
 30
0.0
  0
SPLINE
  5
326
100
AcDbEntity
  8
0
100
AcDbSpline
 62
7
  6
CONTINUOUS
 70
0
 71
3
 72
10
 73
6
 74
0
 42
0.0000001
 43
0.0000001
 44
0.0000000001
 40
0.0
 40
0.0
 40
0.0
 40
0.0
 40
0.2403188933
 40
0.4850833325
 40
1.0
 40
1.0
 40
1.0
 40
1.0
 10
-0.5300645899
 20
183.2538974436
 30
0.0
 10
-0.3873178431
 20
183.1714829406
 30
0.0
 10
-0.0801383777
 20
183.0357822334
 30
0.0
 10
0.5950597701
 20
182.8952275053
 30
0.0
 10
1.129391584
 20
182.9488430545
 30
0.0
 10
1.4705188008
 20
183.0402840752
 30
0.0
  0
SPLINE
  5
327
100
AcDbEntity
  8
0
100
AcDbSpline
 62
7
  6
CONTINUOUS
 70
0
 71
3
 72
12
 73
8
 74
0
 42
0.0000001
 43
0.0000001
 44
0.0000000001
 40
0.0
 40
0.0
 40
0.0
 40
0.0
 40
0.2791956816
 40
0.5440236104
 40
0.7821525412
 40
0.892717288
 40
1.0
 40
1.0
 40
1.0
 40
1.0
 10
-33.3415213465
 20
147.7114015869
 30
0.0
 10
-33.1817147227
 20
147.939371515
 30
0.0
 10
-32.9392429273
 20
148.4367454845
 30
0.0
 10
-32.8343317026
 20
149.2239907919
 30
0.0
 10
-32.9946904319
 20
149.8377899218
 30
0.0
 10
-33.2671807496
 20
150.2077246448
 30
0.0
 10
-33.4408702861
 20
150.3436043518
 30
0.0
 10
-33.5334878285
 20
150.3971425672
 30
0.0
  0
SPLINE
  5
328
100
AcDbEntity
  8
0
100
AcDbSpline
 62
7
  6
CONTINUOUS
 70
0
 71
3
 72
12
 73
8
 74
0
 42
0.0000001
 43
0.0000001
 44
0.0000000001
 40
0.0
 40
0.0
 40
0.0
 40
0.0
 40
0.1156059065
 40
0.2328785889
 40
0.4747123642
 40
0.7299652961
 40
1.0
 40
1.0
 40
1.0
 40
1.0
 10
-89.7188036806
 20
174.0134372875
 30
0.0
 10
-90.3841593336
 20
174.5238006924
 30
0.0
 10
-91.656565261
 20
175.6440412304
 30
0.0
 10
-93.9258651818
 20
178.2444715762
 30
0.0
 10
-96.182680099
 20
182.1439805524
 30
0.0
 10
-97.8067020076
 20
187.5085974006
 30
0.0
 10
-98.1493727807
 20
191.3316371062
 30
0.0
 10
-98.1493727807
 20
193.29034377
 30
0.0
  0
SPLINE
  5
329
100
AcDbEntity
  8
0
100
AcDbSpline
 62
7
  6
CONTINUOUS
 70
0
 71
3
 72
17
 73
13
 74
0
 42
0.0000001
 43
0.0000001
 44
0.0000000001
 40
0.0
 40
0.0
 40
0.0
 40
0.0
 40
0.1228379154
 40
0.2546982557
 40
0.3916795582
 40
0.528420949
 40
0.6596224521
 40
0.7815664066
 40
0.8389124424
 40
0.8940272421
 40
0.9474649717
 40
1.0
 40
1.0
 40
1.0
 40
1.0
 10
-33.86227532
 20
157.8584663276
 30
0.0
 10
-33.0949491936
 20
158.0641523028
 30
0.0
 10
-31.5703332186
 20
158.7606177002
 30
0.0
 10
-29.6138006819
 20
160.4087526857
 30
0.0
 10
-28.0538009848
 20
162.5480145183
 30
0.0
 10
-27.0314429026
 20
164.9856036841
 30
0.0
 10
-26.6391256686
 20
167.502974944
 30
0.0
 10
-26.8840572331
 20
169.530263999
 30
0.0
 10
-27.4346628596
 20
170.9500086017
 30
0.0
 10
-27.9974131498
 20
171.87093264
 30
0.0
 10
-28.7049393675
 20
172.644413814
 30
0.0
 10
-29.2645739555
 20
173.0497825806
 30
0.0
 10
-29.5587725029
 20
173.2197232704
 30
0.0
  0
SPLINE
  5
32A
100
AcDbEntity
  8
0
100
AcDbSpline
 62
7
  6
CONTINUOUS
 70
0
 71
3
 72
9
 73
5
 74
0
 42
0.0000001
 43
0.0000001
 44
0.0000000001
 40
0.0
 40
0.0
 40
0.0
 40
0.0
 40
0.4912742193
 40
1.0
 40
1.0
 40
1.0
 40
1.0
 10
-98.1493727807
 20
193.29034377
 30
0.0
 10
-98.1493727807
 20
195.2115343039
 30
0.0
 10
-97.8053118858
 20
199.1274699007
 30
0.0
 10
-96.8491118123
 20
202.9368173211
 30
0.0
 10
-96.2240894194
 20
204.8255224203
 30
0.0
  0
SPLINE
  5
32B
100
AcDbEntity
  8
0
100
AcDbSpline
 62
7
  6
CONTINUOUS
 70
0
 71
3
 72
17
 73
13
 74
0
 42
0.0000001
 43
0.0000001
 44
0.0000000001
 40
0.0
 40
0.0
 40
0.0
 40
0.0
 40
0.1228379154
 40
0.2546982557
 40
0.3916795582
 40
0.528420949
 40
0.6596224521
 40
0.7815664066
 40
0.8389124424
 40
0.8940272421
 40
0.9474649717
 40
1.0
 40
1.0
 40
1.0
 40
1.0
 10
-18.779630173
 20
178.6793087477
 30
0.0
 10
-18.0123040466
 20
178.8849947228
 30
0.0
 10
-16.4876880715
 20
179.5814601203
 30
0.0
 10
-14.5311555349
 20
181.2295951058
 30
0.0
 10
-12.9711558378
 20
183.3688569384
 30
0.0
 10
-11.9487977556
 20
185.8064461042
 30
0.0
 10
-11.5564805216
 20
188.323817364
 30
0.0
 10
-11.8014120861
 20
190.3511064191
 30
0.0
 10
-12.3520177125
 20
191.7708510218
 30
0.0
 10
-12.9147680027
 20
192.6917750601
 30
0.0
 10
-13.6222942205
 20
193.4652562341
 30
0.0
 10
-14.1819288085
 20
193.8706250007
 30
0.0
 10
-14.4761273558
 20
194.0405656905
 30
0.0
  0
SPLINE
  5
32C
100
AcDbEntity
  8
0
100
AcDbSpline
 62
7
  6
CONTINUOUS
 70
0
 71
3
 72
10
 73
6
 74
0
 42
0.0000001
 43
0.0000001
 44
0.0000000001
 40
0.0
 40
0.0
 40
0.0
 40
0.0
 40
0.2402930157
 40
0.4850639477
 40
1.0
 40
1.0
 40
1.0
 40
1.0
 10
-41.0303719957
 20
172.3975542639
 30
0.0
 10
-40.8876459596
 20
172.3151398444
 30
0.0
 10
-40.5804646603
 20
172.1794716883
 30
0.0
 10
-39.9052720722
 20
172.0389237956
 30
0.0
 10
-39.3709187327
 20
172.0925128239
 30
0.0
 10
-39.0297791467
 20
172.1839571603
 30
0.0
  0
SPLINE
  5
32D
100
AcDbEntity
  8
0
100
AcDbSpline
 62
7
  6
CONTINUOUS
 70
0
 71
3
 72
20
 73
16
 74
0
 42
0.0000001
 43
0.0000001
 44
0.0000000001
 40
0.0
 40
0.0
 40
0.0
 40
0.0
 40
0.1271658894
 40
0.1953146953
 40
0.2653069443
 40
0.4061130788
 40
0.5411872439
 40
0.6046832788
 40
0.6648618599
 40
0.7219729095
 40
0.7768094788
 40
0.8306287281
 40
0.8849123716
 40
0.9410442686
 40
1.0
 40
1.0
 40
1.0
 40
1.0
 10
-18.779630173
 20
160.4805602792
 30
0.0
 10
-19.697895203
 20
160.2344143063
 30
0.0
 10
-21.0361263499
 20
159.5504565265
 30
0.0
 10
-22.5364713682
 20
158.2471809432
 30
0.0
 10
-23.8872437896
 20
156.6478658517
 30
0.0
 10
-25.097665141
 20
154.3192688501
 30
0.0
 10
-25.5605121345
 20
151.7753504201
 30
0.0
 10
-25.3942896955
 20
149.8379401919
 30
0.0
 10
-25.0176132075
 20
148.529832999
 30
0.0
 10
-24.3971754206
 20
147.3895901789
 30
0.0
 10
-23.5532483912
 20
146.464367127
 30
0.0
 10
-22.5183557978
 20
145.7959381387
 30
0.0
 10
-21.3371756425
 20
145.4140282059
 30
0.0
 10
-20.0619634479
 20
145.3322486446
 30
0.0
 10
-19.2053495753
 20
145.4732231218
 30
0.0
 10
-18.779630173
 20
145.5873395416
 30
0.0
  0
SPLINE
  5
32E
100
AcDbEntity
  8
0
100
AcDbSpline
 62
7
  6
CONTINUOUS
 70
0
 71
3
 72
20
 73
16
 74
0
 42
0.0000001
 43
0.0000001
 44
0.0000000001
 40
0.0
 40
0.0
 40
0.0
 40
0.0
 40
0.1271658894
 40
0.1953146953
 40
0.2653069443
 40
0.4061130788
 40
0.5411872439
 40
0.6046832788
 40
0.6648618599
 40
0.7219729095
 40
0.7768094788
 40
0.8306287281
 40
0.8849123716
 40
0.9410442686
 40
1.0
 40
1.0
 40
1.0
 40
1.0
 10
-18.779630173
 20
145.5873395416
 30
0.0
 10
-17.8613651437
 20
145.8334855173
 30
0.0
 10
-16.5231339958
 20
146.5174432936
 30
0.0
 10
-15.0227889778
 20
147.8207188778
 30
0.0
 10
-13.6720165562
 20
149.420033969
 30
0.0
 10
-12.4615952049
 20
151.7486309708
 30
0.0
 10
-11.9987482114
 20
154.2925494008
 30
0.0
 10
-12.1649706504
 20
156.2299596289
 30
0.0
 10
-12.5416471384
 20
157.5380668219
 30
0.0
 10
-13.1620849253
 20
158.678309642
 30
0.0
 10
-14.0060119547
 20
159.6035326938
 30
0.0
 10
-15.0409045481
 20
160.2719616821
 30
0.0
 10
-16.2220847034
 20
160.653871615
 30
0.0
 10
-17.4972968982
 20
160.7356511766
 30
0.0
 10
-18.3539107703
 20
160.5946766978
 30
0.0
 10
-18.779630173
 20
160.4805602792
 30
0.0
  0
SPLINE
  5
32F
100
AcDbEntity
  8
0
100
AcDbSpline
 62
7
  6
CONTINUOUS
 70
0
 71
3
 72
13
 73
9
 74
0
 42
0.0000001
 43
0.0000001
 44
0.0000000001
 40
0.0
 40
0.0
 40
0.0
 40
0.0
 40
0.1140514167
 40
0.2319544774
 40
0.4790598171
 40
0.6081950468
 40
0.7391933144
 40
1.0
 40
1.0
 40
1.0
 40
1.0
 10
-90.7611288698
 20
227.2576351461
 30
0.0
 10
-91.199248888
 20
227.1401946731
 30
0.0
 10
-92.065689071
 20
226.7983060814
 30
0.0
 10
-93.6611249241
 20
225.7372820158
 30
0.0
 10
-94.9395629971
 20
224.1750671435
 30
0.0
 10
-95.7830365121
 20
222.3351395023
 30
0.0
 10
-96.3275211901
 20
220.3288857846
 30
0.0
 10
-96.3607003877
 20
218.7337577264
 30
0.0
 10
-96.2069461909
 20
217.7079776902
 30
0.0
  0
SPLINE
  5
330
100
AcDbEntity
  8
0
100
AcDbSpline
 62
7
  6
CONTINUOUS
 70
0
 71
3
 72
12
 73
8
 74
0
 42
0.0000001
 43
0.0000001
 44
0.0000000001
 40
0.0
 40
0.0
 40
0.0
 40
0.0
 40
0.2683104961
 40
0.5236401366
 40
0.7656158433
 40
0.8833922802
 40
1.0
 40
1.0
 40
1.0
 40
1.0
 10
-82.9465040603
 20
129.2401693882
 30
0.0
 10
-82.8295847579
 20
128.4601354851
 30
0.0
 10
-82.400605368
 20
126.9580128937
 30
0.0
 10
-81.1793472312
 20
125.029016008
 30
0.0
 10
-79.7471565302
 20
123.8624547498
 30
0.0
 10
-78.4591857678
 20
123.2966586834
 30
0.0
 10
-77.784009203
 20
123.137307389
 30
0.0
 10
-77.4445321491
 20
123.0897667334
 30
0.0
  0
SPLINE
  5
331
100
AcDbEntity
  8
0
100
AcDbSpline
 62
7
  6
CONTINUOUS
 70
0
 71
3
 72
9
 73
5
 74
0
 42
0.0000001
 43
0.0000001
 44
0.0000000001
 40
0.0
 40
0.0
 40
0.0
 40
0.0
 40
0.2577692117
 40
1.0
 40
1.0
 40
1.0
 40
1.0
 10
-82.0242154255
 20
217.588262945
 30
0.0
 10
-82.039872486
 20
217.6927199312
 30
0.0
 10
-82.1230129525
 20
218.0940301067
 30
0.0
 10
-82.2990734287
 20
218.4780268878
 30
0.0
 10
-82.4788240117
 20
218.7233621435
 30
0.0
  0
SPLINE
  5
332
100
AcDbEntity
  8
0
100
AcDbSpline
 62
7
  6
CONTINUOUS
 70
0
 71
3
 72
9
 73
5
 74
0
 42
0.0000001
 43
0.0000001
 44
0.0000000001
 40
0.0
 40
0.0
 40
0.0
 40
0.0
 40
0.2577692117
 40
1.0
 40
1.0
 40
1.0
 40
1.0
 10
-69.6380881607
 20
134.9534969486
 30
0.0
 10
-69.6537452211
 20
135.0579539349
 30
0.0
 10
-69.7368856876
 20
135.4592641103
 30
0.0
 10
-69.9129461639
 20
135.8432608914
 30
0.0
 10
-70.0926967468
 20
136.0885961472
 30
0.0
  0
SPLINE
  5
333
100
AcDbEntity
  8
0
100
AcDbSpline
 62
7
  6
CONTINUOUS
 70
0
 71
3
 72
9
 73
5
 74
0
 42
0.0000001
 43
0.0000001
 44
0.0000000001
 40
0.0
 40
0.0
 40
0.0
 40
0.0
 40
0.4890309466
 40
1.0
 40
1.0
 40
1.0
 40
1.0
 10
-82.9974360475
 20
214.9735535641
 30
0.0
 10
-82.6271096986
 20
215.263411967
 30
0.0
 10
-82.0523932949
 20
216.1018748355
 30
0.0
 10
-81.9513772371
 20
217.1023187492
 30
0.0
 10
-82.0242154255
 20
217.588262945
 30
0.0
  0
SPLINE
  5
334
100
AcDbEntity
  8
0
100
AcDbSpline
 62
7
  6
CONTINUOUS
 70
0
 71
3
 72
9
 73
5
 74
0
 42
0.0000001
 43
0.0000001
 44
0.0000000001
 40
0.0
 40
0.0
 40
0.0
 40
0.0
 40
0.4890309466
 40
1.0
 40
1.0
 40
1.0
 40
1.0
 10
-70.6113087826
 20
132.3387875677
 30
0.0
 10
-70.2409824337
 20
132.6286459707
 30
0.0
 10
-69.66626603
 20
133.4671088391
 30
0.0
 10
-69.5652499723
 20
134.4675527528
 30
0.0
 10
-69.6380881607
 20
134.9534969486
 30
0.0
  0
SPLINE
  5
335
100
AcDbEntity
  8
0
100
AcDbSpline
 62
7
  6
CONTINUOUS
 70
0
 71
3
 72
9
 73
5
 74
0
 42
0.0000001
 43
0.0000001
 44
0.0000000001
 40
0.0
 40
0.0
 40
0.0
 40
0.0
 40
0.2477030856
 40
1.0
 40
1.0
 40
1.0
 40
1.0
 10
-80.3771826442
 20
127.3367364563
 30
0.0
 10
-80.4221647192
 20
127.4651557451
 30
0.0
 10
-80.5910948916
 20
127.9879645346
 30
0.0
 10
-80.7099205199
 20
128.5268173951
 30
0.0
 10
-80.7711790598
 20
128.9355072945
 30
0.0
  0
SPLINE
  5
336
100
AcDbEntity
  8
0
100
AcDbSpline
 62
7
  6
CONTINUOUS
 70
0
 71
3
 72
9
 73
5
 74
0
 42
0.0000001
 43
0.0000001
 44
0.0000000001
 40
0.0
 40
0.0
 40
0.0
 40
0.0
 40
0.2534893013
 40
1.0
 40
1.0
 40
1.0
 40
1.0
 10
-89.9525716638
 20
226.4050291134
 30
0.0
 10
-89.8430494938
 20
226.4644051065
 30
0.0
 10
-89.4044710735
 20
226.6863453637
 30
0.0
 10
-88.940178881
 20
226.8579808876
 30
0.0
 10
-88.5858038693
 20
226.9529730524
 30
0.0
  0
SPLINE
  5
337
100
AcDbEntity
  8
0
100
AcDbSpline
 62
7
  6
CONTINUOUS
 70
0
 71
3
 72
9
 73
5
 74
0
 42
0.0000001
 43
0.0000001
 44
0.0000000001
 40
0.0
 40
0.0
 40
0.0
 40
0.0
 40
0.2488149799
 40
1.0
 40
1.0
 40
1.0
 40
1.0
 10
-80.4112440818
 20
219.5484400881
 30
0.0
 10
-80.4818164561
 20
219.5583298919
 30
0.0
 10
-80.7673494488
 20
219.5836602337
 30
0.0
 10
-81.0576403447
 20
219.5494861341
 30
0.0
 10
-81.2654277369
 20
219.4937087027
 30
0.0
  0
SPLINE
  5
338
100
AcDbEntity
  8
0
100
AcDbSpline
 62
7
  6
CONTINUOUS
 70
0
 71
3
 72
9
 73
5
 74
0
 42
0.0000001
 43
0.0000001
 44
0.0000000001
 40
0.0
 40
0.0
 40
0.0
 40
0.0
 40
0.2432935033
 40
1.0
 40
1.0
 40
1.0
 40
1.0
 10
-82.1321520249
 20
219.0273381814
 30
0.0
 10
-82.0648497352
 20
218.9324625061
 30
0.0
 10
-81.8132048453
 20
218.5249990511
 30
0.0
 10
-81.6646225244
 20
218.0568270228
 30
0.0
 10
-81.6109922708
 20
217.6990296772
 30
0.0
  0
SPLINE
  5
339
100
AcDbEntity
  8
0
100
AcDbSpline
 62
7
  6
CONTINUOUS
 70
0
 71
3
 72
9
 73
5
 74
0
 42
0.0000001
 43
0.0000001
 44
0.0000000001
 40
0.0
 40
0.0
 40
0.0
 40
0.0
 40
0.2488149799
 40
1.0
 40
1.0
 40
1.0
 40
1.0
 10
-68.025116817
 20
136.9136740918
 30
0.0
 10
-68.0956891913
 20
136.9235638955
 30
0.0
 10
-68.381222184
 20
136.9488942373
 30
0.0
 10
-68.6715130799
 20
136.9147201377
 30
0.0
 10
-68.8793004721
 20
136.8589427063
 30
0.0
  0
SPLINE
  5
33A
100
AcDbEntity
  8
0
100
AcDbSpline
 62
7
  6
CONTINUOUS
 70
0
 71
3
 72
9
 73
5
 74
0
 42
0.0000001
 43
0.0000001
 44
0.0000000001
 40
0.0
 40
0.0
 40
0.0
 40
0.0
 40
0.2432935033
 40
1.0
 40
1.0
 40
1.0
 40
1.0
 10
-69.7460247601
 20
136.3925721851
 30
0.0
 10
-69.6787224704
 20
136.2976965098
 30
0.0
 10
-69.4270775805
 20
135.8902330548
 30
0.0
 10
-69.2784952596
 20
135.4220610264
 30
0.0
 10
-69.224865006
 20
135.0642636808
 30
0.0
  0
SPLINE
  5
33B
100
AcDbEntity
  8
0
100
AcDbSpline
 62
7
  6
CONTINUOUS
 70
0
 71
3
 72
12
 73
8
 74
0
 42
0.0000001
 43
0.0000001
 44
0.0000000001
 40
0.0
 40
0.0
 40
0.0
 40
0.0
 40
0.1141465032
 40
0.2321738583
 40
0.4794960043
 40
0.7389461754
 40
1.0
 40
1.0
 40
1.0
 40
1.0
 10
-88.5858038694
 20
226.9529730523
 30
0.0
 10
-89.023889534
 20
226.835541788
 30
0.0
 10
-89.8902726158
 20
226.4936471174
 30
0.0
 10
-91.486136745
 20
225.4323119499
 30
0.0
 10
-93.0980960709
 20
223.462079036
 30
0.0
 10
-94.1414091028
 20
220.54140668
 30
0.0
 10
-94.1853808245
 20
218.4291319084
 30
0.0
 10
-94.0316211904
 20
217.4033155964
 30
0.0
  0
SPLINE
  5
33C
100
AcDbEntity
  8
0
100
AcDbSpline
 62
7
  6
CONTINUOUS
 70
0
 71
3
 72
11
 73
7
 74
0
 42
0.0000001
 43
0.0000001
 44
0.0000000001
 40
0.0
 40
0.0
 40
0.0
 40
0.0
 40
0.2639930922
 40
0.5191554636
 40
0.7642347712
 40
1.0
 40
1.0
 40
1.0
 40
1.0
 10
-80.7711790598
 20
128.9355072945
 30
0.0
 10
-80.6838542707
 20
128.3529149026
 30
0.0
 10
-80.3999856514
 20
127.2202328503
 30
0.0
 10
-79.6467473054
 20
125.6757703112
 30
0.0
 10
-78.6074125192
 20
124.3855211349
 30
0.0
 10
-77.7404961609
 20
123.7301397592
 30
0.0
 10
-77.2823632908
 20
123.4714775654
 30
0.0
  0
SPLINE
  5
33D
100
AcDbEntity
  8
0
100
AcDbSpline
 62
7
  6
CONTINUOUS
 70
0
 71
3
 72
9
 73
5
 74
0
 42
0.0000001
 43
0.0000001
 44
0.0000000001
 40
0.0
 40
0.0
 40
0.0
 40
0.0
 40
0.502673014
 40
1.0
 40
1.0
 40
1.0
 40
1.0
 10
-77.2823632908
 20
123.4714775654
 30
0.0
 10
-76.9706509698
 20
123.2954845337
 30
0.0
 10
-76.3172913177
 20
123.0008566583
 30
0.0
 10
-75.619938922
 20
122.834239111
 30
0.0
 10
-75.2692062815
 20
122.7851099192
 30
0.0
  0
SPLINE
  5
33E
100
AcDbEntity
  8
0
100
AcDbSpline
 62
7
  6
CONTINUOUS
 70
0
 71
3
 72
9
 73
5
 74
0
 42
0.0000001
 43
0.0000001
 44
0.0000000001
 40
0.0
 40
0.0
 40
0.0
 40
0.0
 40
0.510703273
 40
1.0
 40
1.0
 40
1.0
 40
1.0
 10
-69.224865006
 20
135.0642636808
 30
0.0
 10
-69.1381225288
 20
134.4855562162
 30
0.0
 10
-69.2563836754
 20
133.2940948308
 30
0.0
 10
-69.934520313
 20
132.2921042049
 30
0.0
 10
-70.3727417027
 20
131.9424128547
 30
0.0
  0
SPLINE
  5
33F
100
AcDbEntity
  8
0
100
AcDbSpline
 62
7
  6
CONTINUOUS
 70
0
 71
3
 72
9
 73
5
 74
0
 42
0.0000001
 43
0.0000001
 44
0.0000000001
 40
0.0
 40
0.0
 40
0.0
 40
0.0
 40
0.510703273
 40
1.0
 40
1.0
 40
1.0
 40
1.0
 10
-81.6109922708
 20
217.6990296772
 30
0.0
 10
-81.5242497936
 20
217.1203222126
 30
0.0
 10
-81.6425109402
 20
215.9288608272
 30
0.0
 10
-82.3206475779
 20
214.9268702012
 30
0.0
 10
-82.7588689675
 20
214.5771788511
 30
0.0
  0
SPLINE
  5
340
100
AcDbEntity
  8
0
100
AcDbSpline
 62
7
  6
CONTINUOUS
 70
0
 71
3
 72
9
 73
5
 74
0
 42
0.0000001
 43
0.0000001
 44
0.0000000001
 40
0.0
 40
0.0
 40
0.0
 40
0.0
 40
0.5028715139
 40
1.0
 40
1.0
 40
1.0
 40
1.0
 10
-69.7308679293
 20
122.4733921281
 30
0.0
 10
-70.1018860603
 20
122.3739386839
 30
0.0
 10
-70.860842561
 20
122.2471818702
 30
0.0
 10
-71.6301605735
 20
122.2754400853
 30
0.0
 10
-72.0062187807
 20
122.3281167787
 30
0.0
  0
SPLINE
  5
341
100
AcDbEntity
  8
0
100
AcDbSpline
 62
7
  6
CONTINUOUS
 70
0
 71
3
 72
11
 73
7
 74
0
 42
0.0000001
 43
0.0000001
 44
0.0000000001
 40
0.0
 40
0.0
 40
0.0
 40
0.0
 40
0.2685846224
 40
0.5241523409
 40
0.7663606832
 40
1.0
 40
1.0
 40
1.0
 40
1.0
 10
-70.9205556277
 20
133.278071528
 30
0.0
 10
-70.8767090107
 20
132.9855459896
 30
0.0
 10
-70.7160439855
 20
132.4222678279
 30
0.0
 10
-70.2572470873
 20
131.6988104308
 30
0.0
 10
-69.6218333625
 20
131.1795461153
 30
0.0
 10
-69.1121358311
 20
131.00736928
 30
0.0
 10
-68.8573078138
 20
130.9717312927
 30
0.0
  0
SPLINE
  5
342
100
AcDbEntity
  8
0
100
AcDbSpline
 62
7
  6
CONTINUOUS
 70
0
 71
3
 72
11
 73
7
 74
0
 42
0.0000001
 43
0.0000001
 44
0.0000000001
 40
0.0
 40
0.0
 40
0.0
 40
0.0
 40
0.2311999488
 40
0.4788335415
 40
0.7386037987
 40
1.0
 40
1.0
 40
1.0
 40
1.0
 10
-68.8793004721
 20
136.8589427063
 30
0.0
 10
-69.2115171415
 20
136.7697640883
 30
0.0
 10
-69.8612929519
 20
136.4204099544
 30
0.0
 10
-70.5695867602
 20
135.5500472275
 30
0.0
 10
-70.9620635809
 20
134.454467123
 30
0.0
 10
-70.9782043436
 20
133.6626786612
 30
0.0
 10
-70.9205556277
 20
133.278071528
 30
0.0
  0
SPLINE
  5
343
100
AcDbEntity
  8
0
100
AcDbSpline
 62
7
  6
CONTINUOUS
 70
0
 71
3
 72
11
 73
7
 74
0
 42
0.0000001
 43
0.0000001
 44
0.0000000001
 40
0.0
 40
0.0
 40
0.0
 40
0.0
 40
0.2685846224
 40
0.5241523409
 40
0.7663606832
 40
1.0
 40
1.0
 40
1.0
 40
1.0
 10
-83.3066828925
 20
215.9128375244
 30
0.0
 10
-83.2628362755
 20
215.620311986
 30
0.0
 10
-83.1021712503
 20
215.0570338243
 30
0.0
 10
-82.6433743521
 20
214.3335764271
 30
0.0
 10
-82.0079606273
 20
213.8143121117
 30
0.0
 10
-81.4982630959
 20
213.6421352764
 30
0.0
 10
-81.2434350786
 20
213.606497289
 30
0.0
  0
SPLINE
  5
344
100
AcDbEntity
  8
0
100
AcDbSpline
 62
7
  6
CONTINUOUS
 70
0
 71
3
 72
11
 73
7
 74
0
 42
0.0000001
 43
0.0000001
 44
0.0000000001
 40
0.0
 40
0.0
 40
0.0
 40
0.0
 40
0.2311999488
 40
0.4788335415
 40
0.7386037987
 40
1.0
 40
1.0
 40
1.0
 40
1.0
 10
-81.2654277369
 20
219.4937087027
 30
0.0
 10
-81.5976444063
 20
219.4045300846
 30
0.0
 10
-82.2474202167
 20
219.0551759508
 30
0.0
 10
-82.955714025
 20
218.1848132239
 30
0.0
 10
-83.3481908458
 20
217.0892331194
 30
0.0
 10
-83.3643316084
 20
216.2974446576
 30
0.0
 10
-83.3066828925
 20
215.9128375244
 30
0.0
  0
SPLINE
  5
345
100
AcDbEntity
  8
0
100
AcDbSpline
 62
7
  6
CONTINUOUS
 70
0
 71
3
 72
9
 73
5
 74
0
 42
0.0000001
 43
0.0000001
 44
0.0000000001
 40
0.0
 40
0.0
 40
0.0
 40
0.0
 40
0.4836105052
 40
1.0
 40
1.0
 40
1.0
 40
1.0
 10
16.4618641109
 20
199.5181339888
 30
0.0
 10
17.9524027639
 20
196.7092776199
 30
0.0
 10
20.2098149548
 20
190.4422034225
 30
0.0
 10
20.8897926795
 20
183.8407811155
 30
0.0
 10
20.8897926795
 20
180.4454128959
 30
0.0
  0
SPLINE
  5
346
100
AcDbEntity
  8
0
100
AcDbSpline
 62
7
  6
CONTINUOUS
 70
0
 71
3
 72
16
 73
12
 74
0
 42
0.0000001
 43
0.0000001
 44
0.0000000001
 40
0.0
 40
0.0
 40
0.0
 40
0.0
 40
0.1247784601
 40
0.2543804358
 40
0.3203447487
 40
0.3866103056
 40
0.5185679964
 40
0.6477278944
 40
0.7718336645
 40
0.8893846842
 40
1.0
 40
1.0
 40
1.0
 40
1.0
 10
20.8897926795
 20
180.4454128959
 30
0.0
 10
20.8897926795
 20
177.1212499666
 30
0.0
 10
20.2017306232
 20
170.3319857867
 30
0.0
 10
17.824407351
 20
162.0903054166
 30
0.0
 10
15.0577893163
 20
155.6791698218
 30
0.0
 10
11.7330637852
 20
149.4678999358
 30
0.0
 10
6.6647319621
 20
142.315270238
 30
0.0
 10
-0.6374357596
 20
135.031904826
 30
0.0
 10
-8.8244887775
 20
129.3960063375
 30
0.0
 10
-17.5149559215
 20
125.6840230547
 30
0.0
 10
-23.5665791922
 20
124.5960127212
 30
0.0
 10
-26.5101734908
 20
124.4575422001
 30
0.0
  0
SPLINE
  5
347
100
AcDbEntity
  8
0
100
AcDbSpline
 62
7
  6
CONTINUOUS
 70
0
 71
3
 72
18
 73
14
 74
0
 42
0.0000001
 43
0.0000001
 44
0.0000000001
 40
0.0
 40
0.0
 40
0.0
 40
0.0
 40
0.0528776775
 40
0.1072690554
 40
0.1635073856
 40
0.2217793988
 40
0.3442422068
 40
0.4737430432
 40
0.6075874838
 40
0.675130153
 40
0.7424080747
 40
0.8742048551
 40
1.0
 40
1.0
 40
1.0
 40
1.0
 10
7.4108678524
 20
198.4216240536
 30
0.0
 10
8.2968565465
 20
197.4663587736
 30
0.0
 10
9.9367036516
 20
195.3765253227
 30
0.0
 10
11.9098218512
 20
191.8475852589
 30
0.0
 10
13.396989535
 20
187.9454387094
 30
0.0
 10
14.7223704092
 20
182.2435638379
 30
0.0
 10
15.0042360775
 20
174.5248570592
 30
0.0
 10
13.2535837819
 20
165.1151322263
 30
0.0
 10
10.1717976328
 20
157.504863294
 30
0.0
 10
6.8216208142
 20
151.7852574146
 30
0.0
 10
2.9598578005
 20
146.4594463445
 30
0.0
 10
-2.6731566511
 20
140.6950798412
 30
0.0
 10
-8.0128040603
 20
137.1498933353
 30
0.0
 10
-10.7840598268
 20
135.7616224864
 30
0.0
  0
SPLINE
  5
348
100
AcDbEntity
  8
0
100
AcDbSpline
 62
7
  6
CONTINUOUS
 70
0
 71
3
 72
11
 73
7
 74
0
 42
0.0000001
 43
0.0000001
 44
0.0000000001
 40
0.0
 40
0.0
 40
0.0
 40
0.0
 40
0.2570200125
 40
0.508214881
 40
0.7551822505
 40
1.0
 40
1.0
 40
1.0
 40
1.0
 10
-23.960122822
 20
132.2297065604
 30
0.0
 10
-25.1071759739
 20
132.1893793162
 30
0.0
 10
-27.3834999534
 20
132.2539251386
 30
0.0
 10
-30.7210473899
 20
132.8060575878
 30
0.0
 10
-33.8959306189
 20
133.8067494518
 30
0.0
 10
-35.8812217091
 20
134.7670293249
 30
0.0
 10
-36.8279282996
 20
135.3138269288
 30
0.0
  0
SPLINE
  5
349
100
AcDbEntity
  8
0
100
AcDbSpline
 62
7
  6
CONTINUOUS
 70
0
 71
3
 72
14
 73
10
 74
0
 42
0.0000001
 43
0.0000001
 44
0.0000000001
 40
0.0
 40
0.0
 40
0.0
 40
0.0
 40
0.2678665364
 40
0.4052397629
 40
0.5390738352
 40
0.6660659448
 40
0.7844449883
 40
0.8947198658
 40
1.0
 40
1.0
 40
1.0
 40
1.0
 10
-10.7840598268
 20
135.7616224864
 30
0.0
 10
-10.8867464422
 20
134.3840330888
 30
0.0
 10
-11.5424372642
 20
132.3133823091
 30
0.0
 10
-13.120417818
 20
130.0116855036
 30
0.0
 10
-14.6128290897
 20
128.5765069566
 30
0.0
 10
-16.3021196916
 20
127.5564807604
 30
0.0
 10
-18.081566472
 20
127.0245874285
 30
0.0
 10
-19.8315467326
 20
127.0320824893
 30
0.0
 10
-20.9031439199
 20
127.4166571085
 30
0.0
 10
-21.3732837806
 20
127.6882287646
 30
0.0
  0
SPLINE
  5
34A
100
AcDbEntity
  8
0
100
AcDbSpline
 62
7
  6
CONTINUOUS
 70
0
 71
3
 72
19
 73
15
 74
0
 42
0.0000001
 43
0.0000001
 44
0.0000000001
 40
0.0
 40
0.0
 40
0.0
 40
0.0
 40
0.1284409757
 40
0.1954072152
 40
0.2635076122
 40
0.4006623679
 40
0.5354810843
 40
0.6638614315
 40
0.7249068895
 40
0.7836036687
 40
0.8400565462
 40
0.8945753046
 40
0.9476674936
 40
1.0
 40
1.0
 40
1.0
 40
1.0
 10
-23.4772714669
 20
199.4722159174
 30
0.0
 10
-26.308536229
 20
198.0471197099
 30
0.0
 10
-30.3373586297
 20
195.2815894588
 30
0.0
 10
-34.9964285787
 20
190.7334862024
 30
0.0
 10
-39.2599220497
 20
185.5252237811
 30
0.0
 10
-43.4866083212
 20
178.1926156705
 30
0.0
 10
-46.499542962
 20
168.7038489435
 30
0.0
 10
-47.1182209439
 20
160.6345145732
 30
0.0
 10
-46.3594967696
 20
154.5410688538
 30
0.0
 10
-45.2099314959
 20
150.3306346477
 30
0.0
 10
-43.4906668532
 20
146.4931388179
 30
0.0
 10
-41.2325591266
 20
143.1078784478
 30
0.0
 10
-38.4807197516
 20
140.2490934105
 30
0.0
 10
-36.3457552131
 20
138.7308112089
 30
0.0
 10
-35.2274307444
 20
138.0848604688
 30
0.0
  0
SPLINE
  5
34B
100
AcDbEntity
  8
0
100
AcDbSpline
 62
7
  6
CONTINUOUS
 70
0
 71
3
 72
11
 73
7
 74
0
 42
0.0000001
 43
0.0000001
 44
0.0000000001
 40
0.0
 40
0.0
 40
0.0
 40
0.0
 40
0.2717600068
 40
0.5268849658
 40
0.7676389069
 40
1.0
 40
1.0
 40
1.0
 40
1.0
 10
-21.5043228715
 20
133.6919233655
 30
0.0
 10
-21.5043228716
 20
133.3501198743
 30
0.0
 10
-21.4378246204
 20
132.6846241554
 30
0.0
 10
-21.119600366
 20
131.7627454349
 30
0.0
 10
-20.5979180078
 20
130.9957630081
 30
0.0
 10
-20.1258823317
 20
130.6161180165
 30
0.0
 10
-19.872828904
 20
130.4699196495
 30
0.0
  0
SPLINE
  5
34C
100
AcDbEntity
  8
0
100
AcDbSpline
 62
7
  6
CONTINUOUS
 70
0
 71
3
 72
11
 73
7
 74
0
 42
0.0000001
 43
0.0000001
 44
0.0000000001
 40
0.0
 40
0.0
 40
0.0
 40
0.0
 40
0.2504953377
 40
0.5052812727
 40
0.7572536139
 40
1.0
 40
1.0
 40
1.0
 40
1.0
 10
-42.3925793586
 20
204.2822894018
 30
0.0
 10
-45.3240593638
 20
201.4723992555
 30
0.0
 10
-50.6495431143
 20
195.1625995813
 30
0.0
 10
-56.6242296036
 20
184.3539383165
 30
0.0
 10
-60.3512955381
 20
172.7089370885
 30
0.0
 10
-61.1798757023
 20
164.6556397695
 30
0.0
 10
-61.1202507906
 20
160.7210343693
 30
0.0
  0
SPLINE
  5
34D
100
AcDbEntity
  8
0
100
AcDbSpline
 62
7
  6
CONTINUOUS
 70
0
 71
3
 72
11
 73
7
 74
0
 42
0.0000001
 43
0.0000001
 44
0.0000000001
 40
0.0
 40
0.0
 40
0.0
 40
0.0
 40
0.235472636
 40
0.4799458801
 40
0.7347287182
 40
1.0
 40
1.0
 40
1.0
 40
1.0
 10
-52.81631296
 20
136.1962347222
 30
0.0
 10
-54.1375322959
 20
137.7886073458
 30
0.0
 10
-56.5097982906
 20
141.312125728
 30
0.0
 10
-59.0902702558
 20
147.2645622153
 30
0.0
 10
-60.6974735033
 20
153.8172909618
 30
0.0
 10
-61.0849314277
 20
158.3903348061
 30
0.0
 10
-61.1202507906
 20
160.7210343693
 30
0.0
  0
SPLINE
  5
34E
100
AcDbEntity
  8
0
100
AcDbSpline
 62
7
  6
CONTINUOUS
 70
0
 71
3
 72
11
 73
7
 74
0
 42
0.0000001
 43
0.0000001
 44
0.0000000001
 40
0.0
 40
0.0
 40
0.0
 40
0.0
 40
0.233633584
 40
0.4758467542
 40
0.7314152315
 40
1.0
 40
1.0
 40
1.0
 40
1.0
 10
-72.0062187807
 20
122.3281167787
 30
0.0
 10
-72.6857263804
 20
122.4232994201
 30
0.0
 10
-74.0449109048
 20
122.882344529
 30
0.0
 10
-75.7393687302
 20
124.2671011909
 30
0.0
 10
-76.9627769327
 20
126.1963694166
 30
0.0
 10
-77.3912664051
 20
127.6984412123
 30
0.0
 10
-77.508191559
 20
128.478514154
 30
0.0
  0
SPLINE
  5
34F
100
AcDbEntity
  8
0
100
AcDbSpline
 62
7
  6
CONTINUOUS
 70
0
 71
3
 72
12
 73
8
 74
0
 42
0.0000001
 43
0.0000001
 44
0.0000000001
 40
0.0
 40
0.0
 40
0.0
 40
0.0
 40
0.2610538246
 40
0.5205039957
 40
0.7678261417
 40
0.8858534968
 40
1.0
 40
1.0
 40
1.0
 40
1.0
 10
-90.7686336896
 20
216.9463224559
 30
0.0
 10
-90.9223933238
 20
217.9721387679
 30
0.0
 10
-90.878421602
 20
220.0844135395
 30
0.0
 10
-89.83510857
 20
223.0050858955
 30
0.0
 10
-88.2231492442
 20
224.9753188094
 30
0.0
 10
-86.627285115
 20
226.0366539769
 30
0.0
 10
-85.7609020332
 20
226.3785486475
 30
0.0
 10
-85.3228163685
 20
226.4959799118
 30
0.0
  0
SPLINE
  5
350
100
AcDbEntity
  8
0
100
AcDbSpline
 62
7
  6
CONTINUOUS
 70
0
 71
3
 72
14
 73
10
 74
0
 42
0.0000001
 43
0.0000001
 44
0.0000000001
 40
0.0
 40
0.0
 40
0.0
 40
0.0
 40
0.1124461208
 40
0.2274870439
 40
0.3470009223
 40
0.4717192007
 40
0.601205494
 40
0.7340159124
 40
1.0
 40
1.0
 40
1.0
 40
1.0
 10
-68.8573078138
 20
130.9717312927
 30
0.0
 10
-68.6594317529
 20
130.944058101
 30
0.0
 10
-68.2487239274
 20
130.9460100641
 30
0.0
 10
-67.6503225863
 20
131.122624422
 30
0.0
 10
-67.1000517858
 20
131.4595574314
 30
0.0
 10
-66.6285152278
 20
131.935297135
 30
0.0
 10
-66.2604813493
 20
132.5228030668
 30
0.0
 10
-65.9333558576
 20
133.4072433349
 30
0.0
 10
-65.8918192403
 20
134.1398722697
 30
0.0
 10
-65.96187725
 20
134.6072691809
 30
0.0
  0
SPLINE
  5
351
100
AcDbEntity
  8
0
100
AcDbSpline
 62
7
  6
CONTINUOUS
 70
0
 71
3
 72
11
 73
7
 74
0
 42
0.0000001
 43
0.0000001
 44
0.0000000001
 40
0.0
 40
0.0
 40
0.0
 40
0.0
 40
0.2685905871
 40
0.5241523117
 40
0.7663776
 40
1.0
 40
1.0
 40
1.0
 40
1.0
 10
-65.96187725
 20
134.6072691809
 30
0.0
 10
-66.0057247662
 20
134.8998009519
 30
0.0
 10
-66.1663930391
 20
135.4630789776
 30
0.0
 10
-66.6252143478
 20
136.1865422133
 30
0.0
 10
-67.2606477663
 20
136.7057788794
 30
0.0
 10
-67.7703174874
 20
136.8779672677
 30
0.0
 10
-68.025116817
 20
136.9136740918
 30
0.0
  0
SPLINE
  5
352
100
AcDbEntity
  8
0
100
AcDbSpline
 62
7
  6
CONTINUOUS
 70
0
 71
3
 72
11
 73
7
 74
0
 42
0.0000001
 43
0.0000001
 44
0.0000000001
 40
0.0
 40
0.0
 40
0.0
 40
0.0
 40
0.2433290221
 40
0.4894736545
 40
0.7410332223
 40
1.0
 40
1.0
 40
1.0
 40
1.0
 10
-35.2274307444
 20
138.0848604688
 30
0.0
 10
-34.2294283042
 20
137.5084084346
 30
0.0
 10
-32.1198419095
 20
136.5163896466
 30
0.0
 10
-28.7254521376
 20
135.5657071522
 30
0.0
 10
-25.1498666183
 20
135.1621789227
 30
0.0
 10
-22.7234640251
 20
135.2594479348
 30
0.0
 10
-21.5043228715
 20
135.3944153857
 30
0.0
  0
SPLINE
  5
353
100
AcDbEntity
  8
0
100
AcDbSpline
 62
7
  6
CONTINUOUS
 70
0
 71
3
 72
11
 73
7
 74
0
 42
0.0000001
 43
0.0000001
 44
0.0000000001
 40
0.0
 40
0.0
 40
0.0
 40
0.0
 40
0.2659971065
 40
0.5191233757
 40
0.7623196521
 40
1.0
 40
1.0
 40
1.0
 40
1.0
 10
-25.2680852135
 20
132.2771947794
 30
0.0
 10
-25.1930938006
 20
131.8709911507
 30
0.0
 10
-24.9764622703
 20
131.0886266361
 30
0.0
 10
-24.4358186682
 20
130.0258952556
 30
0.0
 10
-23.7041463625
 20
129.1394777555
 30
0.0
 10
-23.100432859
 20
128.685805289
 30
0.0
 10
-22.7808245557
 20
128.5011937022
 30
0.0
  0
SPLINE
  5
354
100
AcDbEntity
  8
0
100
AcDbSpline
 62
7
  6
CONTINUOUS
 70
0
 71
3
 72
14
 73
10
 74
0
 42
0.0000001
 43
0.0000001
 44
0.0000000001
 40
0.0
 40
0.0
 40
0.0
 40
0.0
 40
0.1052593579
 40
0.2158746069
 40
0.3350381737
 40
0.4630342974
 40
0.5976755832
 40
0.7352077041
 40
1.0
 40
1.0
 40
1.0
 40
1.0
 10
-19.872828904
 20
130.4699196495
 30
0.0
 10
-19.5673201095
 20
130.2934158681
 30
0.0
 10
-18.866630122
 20
130.0477856859
 30
0.0
 10
-17.7243706035
 20
130.0654355792
 30
0.0
 10
-16.5701926155
 20
130.4453708898
 30
0.0
 10
-15.4867757356
 20
131.1490583892
 30
0.0
 10
-14.5474717458
 20
132.123052485
 30
0.0
 10
-13.5913938907
 20
133.6560667887
 30
0.0
 10
-13.2398597773
 20
135.0196719318
 30
0.0
 10
-13.2398597773
 20
135.9072580093
 30
0.0
  0
SPLINE
  5
355
100
AcDbEntity
  8
0
100
AcDbSpline
 62
7
  6
CONTINUOUS
 70
0
 71
3
 72
11
 73
7
 74
0
 42
0.0000001
 43
0.0000001
 44
0.0000000001
 40
0.0
 40
0.0
 40
0.0
 40
0.0
 40
0.2346970929
 40
0.4764801463
 40
0.7307028746
 40
1.0
 40
1.0
 40
1.0
 40
1.0
 10
-21.3732837806
 20
127.6882287646
 30
0.0
 10
-21.7409085527
 20
127.9005835904
 30
0.0
 10
-22.4303684124
 20
128.4389243545
 30
0.0
 10
-23.2257132947
 20
129.512396831
 30
0.0
 10
-23.7588434125
 20
130.8032854511
 30
0.0
 10
-23.9224131112
 20
131.7440295856
 30
0.0
 10
-23.960122822
 20
132.2297065604
 30
0.0
  0
SPLINE
  5
356
100
AcDbEntity
  8
0
100
AcDbSpline
 62
7
  6
CONTINUOUS
 70
0
 71
3
 72
11
 73
7
 74
0
 42
0.0000001
 43
0.0000001
 44
0.0000000001
 40
0.0
 40
0.0
 40
0.0
 40
0.0
 40
0.2685905871
 40
0.5241523117
 40
0.7663776
 40
1.0
 40
1.0
 40
1.0
 40
1.0
 10
-78.3480045148
 20
217.2420351773
 30
0.0
 10
-78.3918520311
 20
217.5345669483
 30
0.0
 10
-78.5525203039
 20
218.097844974
 30
0.0
 10
-79.0113416126
 20
218.8213082097
 30
0.0
 10
-79.6467750311
 20
219.3405448758
 30
0.0
 10
-80.1564447522
 20
219.512733264
 30
0.0
 10
-80.4112440818
 20
219.5484400881
 30
0.0
  0
SPLINE
  5
357
100
AcDbEntity
  8
0
100
AcDbSpline
 62
7
  6
CONTINUOUS
 70
0
 71
3
 72
18
 73
14
 74
0
 42
0.0000001
 43
0.0000001
 44
0.0000000001
 40
0.0
 40
0.0
 40
0.0
 40
0.0
 40
0.1308438329
 40
0.2661484228
 40
0.3344604796
 40
0.4025274189
 40
0.5359279413
 40
0.6633105515
 40
0.7826933411
 40
0.8394077346
 40
0.8942734923
 40
0.9476477042
 40
1.0
 40
1.0
 40
1.0
 40
1.0
 10
-29.6451943983
 20
200.5568657936
 30
0.0
 10
-32.2974817041
 20
198.7862137297
 30
0.0
 10
-37.2941598477
 20
194.5612084464
 30
0.0
 10
-42.3704567296
 20
188.1147849198
 30
0.0
 10
-45.6775076867
 20
182.367225429
 30
0.0
 10
-48.389828287
 20
176.3681005765
 30
0.0
 10
-50.6047061515
 20
168.6030675485
 30
0.0
 10
-51.2403718994
 20
159.2879684642
 30
0.0
 10
-49.9887598628
 20
151.9069949113
 30
0.0
 10
-47.9158704234
 20
146.6550605703
 30
0.0
 10
-45.9018297984
 20
143.157134088
 30
0.0
 10
-43.4348079769
 20
140.0980078282
 30
0.0
 10
-41.500636194
 20
138.3740014294
 30
0.0
 10
-40.4796653489
 20
137.6086841926
 30
0.0
  0
SPLINE
  5
358
100
AcDbEntity
  8
0
100
AcDbSpline
 62
7
  6
CONTINUOUS
 70
0
 71
3
 72
11
 73
7
 74
0
 42
0.0000001
 43
0.0000001
 44
0.0000000001
 40
0.0
 40
0.0
 40
0.0
 40
0.0
 40
0.241617846
 40
0.4933725049
 40
0.7486081797
 40
1.0
 40
1.0
 40
1.0
 40
1.0
 10
-58.4490530254
 20
159.1782003152
 30
0.0
 10
-58.4490530254
 20
163.1447871667
 30
0.0
 10
-57.4676942763
 20
171.2648861791
 30
0.0
 10
-53.4532100193
 20
182.9650760665
 30
0.0
 10
-47.1357397168
 20
193.7836801594
 30
0.0
 10
-41.5580129989
 20
200.0463065157
 30
0.0
 10
-38.4985291092
 20
202.8161532193
 30
0.0
  0
SPLINE
  5
359
100
AcDbEntity
  8
0
100
AcDbSpline
 62
7
  6
CONTINUOUS
 70
0
 71
3
 72
11
 73
7
 74
0
 42
0.0000001
 43
0.0000001
 44
0.0000000001
 40
0.0
 40
0.0
 40
0.0
 40
0.0
 40
0.2345614733
 40
0.4786043916
 40
0.733652355
 40
1.0
 40
1.0
 40
1.0
 40
1.0
 10
-50.5760415661
 20
134.9022952814
 30
0.0
 10
-51.8624521852
 20
136.4756797597
 30
0.0
 10
-54.1650054918
 20
139.9615474534
 30
0.0
 10
-56.6349856508
 20
145.8535572122
 30
0.0
 10
-58.1304553389
 20
152.3444288122
 30
0.0
 10
-58.4490530254
 20
156.8704556107
 30
0.0
 10
-58.4490530254
 20
159.1782003152
 30
0.0
  0
SPLINE
  5
35A
100
AcDbEntity
  8
0
100
AcDbSpline
 62
7
  6
CONTINUOUS
 70
0
 71
3
 72
17
 73
13
 74
0
 42
0.0000001
 43
0.0000001
 44
0.0000000001
 40
0.0
 40
0.0
 40
0.0
 40
0.0
 40
0.1254201289
 40
0.2578932525
 40
0.3938192731
 40
0.5288283564
 40
0.6587500404
 40
0.7805797904
 40
0.8382356875
 40
0.8937675491
 40
0.9475158497
 40
1.0
 40
1.0
 40
1.0
 40
1.0
 10
-13.2398597773
 20
137.6097500295
 30
0.0
 10
-10.4308336385
 20
138.8047209079
 30
0.0
 10
-4.9789600312
 20
142.0702988237
 30
0.0
 10
1.9391478181
 20
148.8096187659
 30
0.0
 10
7.4036736153
 20
157.0557527432
 30
0.0
 10
11.0082551253
 20
166.2023391264
 30
0.0
 10
12.4863409381
 20
175.5794192635
 30
0.0
 10
11.8135491635
 20
183.178945836
 30
0.0
 10
10.0879728755
 20
188.6526648137
 30
0.0
 10
8.2772478753
 20
192.3100738556
 30
0.0
 10
5.9606081472
 20
195.5161394519
 30
0.0
 10
4.0900033407
 20
197.3250298401
 30
0.0
 10
3.0940946079
 20
198.1250197729
 30
0.0
  0
SPLINE
  5
35B
100
AcDbEntity
  8
0
100
AcDbSpline
 62
7
  6
CONTINUOUS
 70
0
 71
3
 72
14
 73
10
 74
0
 42
0.0000001
 43
0.0000001
 44
0.0000000001
 40
0.0
 40
0.0
 40
0.0
 40
0.0
 40
0.1124461208
 40
0.2274870439
 40
0.3470009223
 40
0.4717192007
 40
0.601205494
 40
0.7340159124
 40
1.0
 40
1.0
 40
1.0
 40
1.0
 10
-81.2434350786
 20
213.606497289
 30
0.0
 10
-81.0455590177
 20
213.5788240974
 30
0.0
 10
-80.6348511923
 20
213.5807760605
 30
0.0
 10
-80.0364498512
 20
213.7573904184
 30
0.0
 10
-79.4861790506
 20
214.0943234278
 30
0.0
 10
-79.0146424926
 20
214.5700631314
 30
0.0
 10
-78.6466086141
 20
215.1575690631
 30
0.0
 10
-78.3194831225
 20
216.0420093313
 30
0.0
 10
-78.2779465051
 20
216.7746382661
 30
0.0
 10
-78.3480045148
 20
217.2420351773
 30
0.0
  0
SPLINE
  5
35C
100
AcDbEntity
  8
0
100
AcDbSpline
 62
7
  6
CONTINUOUS
 70
0
 71
3
 72
19
 73
15
 74
0
 42
0.0000001
 43
0.0000001
 44
0.0000000001
 40
0.0
 40
0.0
 40
0.0
 40
0.0
 40
0.0523455884
 40
0.105377405
 40
0.1597060066
 40
0.2158094794
 40
0.2739999145
 40
0.3344133565
 40
0.4614039566
 40
0.5951563205
 40
0.6636161567
 40
0.7323942474
 40
0.8686064699
 40
1.0
 40
1.0
 40
1.0
 40
1.0
 10
-36.8279282996
 20
135.3138269288
 30
0.0
 10
-37.9842183851
 20
135.9816755048
 30
0.0
 10
-40.196175618
 20
137.538583933
 30
0.0
 10
-43.076680287
 20
140.4471436737
 30
0.0
 10
-45.4788425419
 20
143.8791351664
 30
0.0
 10
-47.3589242914
 20
147.7668827295
 30
0.0
 10
-48.6859410462
 20
152.037788207
 30
0.0
 10
-49.7055752187
 20
158.236265841
 30
0.0
 10
-49.4439197019
 20
166.5111219352
 30
0.0
 10
-47.3003698784
 20
174.6994822782
 30
0.0
 10
-44.5363982784
 20
181.0469867701
 30
0.0
 10
-41.1039719925
 20
187.1321205305
 30
0.0
 10
-35.7631777254
 20
193.9278944797
 30
0.0
 10
-30.4549833481
 20
198.3258933012
 30
0.0
 10
-27.6355321453
 20
200.1383491713
 30
0.0
  0
ELLIPSE
  5
35D
100
AcDbEntity
  8
0
100
AcDbEllipse
 62
7
  6
CONTINUOUS
 10
-42.8006281093
 20
183.6858889026
 30
0.0
 11
3.4809101113
 21
39.9889052907
 31
0.0
 40
0.8125771683
 41
0.705335153
 42
2.7237795897
  0
ENDSEC
  0
SECTION
  2
OBJECTS
  0
DICTIONARY
  5
C
100
AcDbDictionary
280
0
281
1
  3
ACAD_GROUP
350
D
  3
ACAD_MLINESTYLE
350
17
  3
ACAD_LAYOUT
350
1A
  3
ACAD_PLOTSETTINGS
350
19
  3
ACAD_PLOTSTYLENAME
350
E
  0
DICTIONARY
  5
D
102
{ACAD_REACTORS
330
C
102
}
100
AcDbDictionary
280
0
281
1
  0
ACDBDICTIONARYWDFLT
  5
E
102
{ACAD_REACTORS
330
C
102
}
100
AcDbDictionary
281
1
  3
Normal
350
F
100
AcDbDictionaryWithDefault
340
F
  0
DICTIONARY
  5
17
102
{ACAD_REACTORS
330
C
102
}
100
AcDbDictionary
280
0
281
1
  3
Standard
350
18
  0
DICTIONARY
  5
19
102
{ACAD_REACTORS
330
C
102
}
100
AcDbDictionary
281
1
  0
DICTIONARY
  5
1A
102
{ACAD_REACTORS
330
C
102
}
100
AcDbDictionary
281
1
  3
Model
350
35E
  3
Layout1
350
35F
  0
ACDBPLACEHOLDER
  5
F
102
{ACAD_REACTORS
330
E
102
}
  0
MLINESTYLE
  5
18
102
{ACAD_REACTORS
330
17
102
}
100
AcDbMlineStyle
  2
STANDARD
 70
0
  3

 62
256
 51
90.0
 52
90.0
 71
2
 49
0.5
 62
256
  6
BYLAYER
 49
-0.5
 62
256
  6
BYLAYER
  0
LAYOUT
  5
35E
102
{ACAD_REACTORS
330
1A
102
}
100
AcDbPlotSettings
  1

  2
none_device
  4
ANSI_C_(22.00_x_17.00_Inches)
  6

 40
0.0
 41
0.0
 42
0.0
 43
0.0
 44
558.8
 45
431.8
 46
0.0
 47
0.0
 48
0.0
 49
0.0
140
0.0
141
0.0
142
1.0
143
1.0
 70
1024
 72
1
 73
0
 74
0
  7

 75
0
147
1.0
148
0.0
149
0.0
100
AcDbLayout
  1
Model
 70
0
 71
0
 10
0.0
 20
0.0
 11
558.8
 21
431.8
 12
0.0
 22
0.0
 32
0.0
 14
0.0
 24
0.0
 34
0.0
 15
0.0
 25
0.0
 35
0.0
146
0.0
 13
0.0
 23
0.0
 33
0.0
 16
1.0
 26
0.0
 36
0.0
 17
0.0
 27
1.0
 37
0.0
 76
0
330
216
345
0
346
0
  0
LAYOUT
  5
35F
102
{ACAD_REACTORS
330
1A
102
}
100
AcDbPlotSettings
  1

  2
none_device
  4
ANSI_C_(22.00_x_17.00_Inches)
  6

 40
0.0
 41
0.0
 42
0.0
 43
0.0
 44
558.8
 45
431.8
 46
0.0
 47
0.0
 48
0.0
 49
0.0
140
0.0
141
0.0
142
1.0
143
1.0
 70
0
 72
1
 73
0
 74
0
  7

 75
0
147
1.0
148
0.0
149
0.0
100
AcDbLayout
  1
Layout1
 70
0
 71
1
 10
0.0
 20
0.0
 11
558.8
 21
431.8
 12
0.0
 22
0.0
 32
0.0
 14
0.0
 24
0.0
 34
0.0
 15
0.0
 25
0.0
 35
0.0
146
0.0
 13
0.0
 23
0.0
 33
0.0
 16
1.0
 26
0.0
 36
0.0
 17
0.0
 27
1.0
 37
0.0
 76
0
330
217
345
0
346
0
  0
ENDSEC
  0
EOF
