999
DXF file: Y:\3D PRATIKA-KAEDRA_OLGA\TRAVAIL_PHASE_10\CAD3D\81283_3D-Simplified\81283_2D-isometric.dxf
999
Pro/ENGINEER 2018260 by Parametric Technology Corporation
  0
SECTION
  2
HEADER
  9
$ACADVER
  1
AC1027
  9
$DWGCODEPAGE
  3
ANSI_1252
  9
$EXTMAX
 10
558.8
 20
431.8
 30
0.0
  9
$EXTMIN
 10
0.0
 20
0.0
 30
0.0
  9
$LIMMIN
 10
0.0
 20
0.0
  9
$LIMMAX
 10
558.8
 20
431.8
  9
$VIEWCTR
 10
279.4
 20
215.9
  9
$VIEWSIZE
 40
431.8
  9
$CLAYER
  8
0
  9
$LTSCALE
 40
30.734
  9
$CELTYPE
  6
BYLAYER
  9
$DIMSCALE
 40
1.0
  9
$DIMASZ
 40
0.1875
  9
$DIMEXO
 40
0.0625
  9
$DIMDLI
 40
21.2344
  9
$DIMEXE
 40
0.125
  9
$DIMCEN
 40
5.0292
  9
$DIMLFAC
 40
1.0
  9
$DIMBLK
  1
_CLOSED
  9
$DIMALT
 70
0
  9
$DIMALTF
 40
0.0393700787
  9
$DIMTXT
 40
0.15625
  9
$DIMTOL
 70
0
  9
$DIMLIM
 70
0
  9
$DIMTFAC
 40
1.0
  9
$DIMGAP
 40
0.625
  9
$DIMDSEP
 70
46
  9
$AUNITS
 70
0
  9
$PDMODE
 70
3
  9
$PDSIZE
 40
0.3125
  9
$HANDSEED
  5
367
  9
$TILEMODE
 70
1
  9
$MEASUREMENT
 70
1
  9
$INSUNITS
 70
4
  0
ENDSEC
  0
SECTION
  2
CLASSES
  0
CLASS
  1
ACDBDICTIONARYWDFLT
  2
AcDbDictionaryWithDefault
  3
AutoCAD 2000
 90
0
 91
1
280
0
281
0
  0
CLASS
  1
ACDBPLACEHOLDER
  2
AcDbPlaceHolder
  3
AutoCAD 2000
 90
0
 91
1
280
0
281
0
  0
CLASS
  1
LAYOUT
  2
AcDbLayout
  3
AutoCAD 2000
 90
0
 91
0
280
0
281
0
  0
ENDSEC
  0
SECTION
  2
TABLES
  0
TABLE
  2
VPORT
  5
8
100
AcDbSymbolTable
 70
2
  0
VPORT
  5
1F4
100
AcDbSymbolTableRecord
100
AcDbViewportTableRecord
  2
*ACTIVE
 70
0
 10
0.0
 20
0.0
 11
1.0
 21
1.0
 12
279.4
 22
215.9
 13
0.0
 23
0.0
 14
1.0
 24
1.0
 15
0.0
 25
0.0
 16
0.0
 26
0.0
 36
1.0
 17
0.0
 27
0.0
 37
0.0
 40
431.8
 41
1.2941176471
 42
50.0
 43
0.0
 44
0.0
 50
0.0
 51
0.0
 71
0
 72
100
 73
1
 74
1
 75
0
 76
0
 77
0
 78
0
  0
ENDTAB
  0
TABLE
  2
LTYPE
  5
5
100
AcDbSymbolTable
 70
6
  0
LTYPE
  5
14
100
AcDbSymbolTableRecord
100
AcDbLinetypeTableRecord
  2
BYBLOCK
 70
0
  3

 72
65
 73
0
 40
0.0
  0
LTYPE
  5
15
100
AcDbSymbolTableRecord
100
AcDbLinetypeTableRecord
  2
BYLAYER
 70
0
  3

 72
65
 73
0
 40
0.0
  0
LTYPE
  5
16
100
AcDbSymbolTableRecord
100
AcDbLinetypeTableRecord
  2
CONTINUOUS
 70
64
  3
Solid line
 72
65
 73
0
 40
0.0
  0
LTYPE
  5
1F5
100
AcDbSymbolTableRecord
100
AcDbLinetypeTableRecord
  2
CENTER
 70
64
  3
____ _ ____ _ ____ _ ____ _ ____ _ ____ _ ____
 72
65
 73
4
 40
0.6
 49
0.375
 74
0
 49
-0.075
 74
0
 49
0.075
 74
0
 49
-0.075
 74
0
  0
LTYPE
  5
1F6
100
AcDbSymbolTableRecord
100
AcDbLinetypeTableRecord
  2
HIDDEN
 70
64
  3
- - - - - - - - - - - - - - - - - - - -
 72
65
 73
2
 40
0.2
 49
0.1
 74
0
 49
-0.1
 74
0
  0
LTYPE
  5
1F7
100
AcDbSymbolTableRecord
100
AcDbLinetypeTableRecord
  2
PHANTOM
 70
64
  3
_____ _ _ _____ _ _ _____ _ _ _____
 72
65
 73
6
 40
0.8
 49
0.45
 74
0
 49
-0.05
 74
0
 49
0.1
 74
0
 49
-0.05
 74
0
 49
0.1
 74
0
 49
-0.05
 74
0
  0
LTYPE
  5
1F8
100
AcDbSymbolTableRecord
100
AcDbLinetypeTableRecord
  2
DOT
 70
64
  3
. . . . . . . . . . . . . . . . . . . .
 72
65
 73
2
 40
0.2
 49
0.1
 74
0
 49
-0.1
 74
0
  0
LTYPE
  5
1F9
100
AcDbSymbolTableRecord
100
AcDbLinetypeTableRecord
  2
DASHED
 70
64
  3
- - - - - - - - - - - - - - - - - - - -
 72
65
 73
2
 40
0.2
 49
0.1
 74
0
 49
-0.1
 74
0
  0
ENDTAB
  0
TABLE
  2
LAYER
  5
2
100
AcDbSymbolTable
 70
36
  0
LAYER
  5
10
100
AcDbSymbolTableRecord
100
AcDbLayerTableRecord
  2
0
 70
0
 62
7
  6
CONTINUOUS
370
-3
390
F
  0
LAYER
  5
1FA
100
AcDbSymbolTableRecord
100
AcDbLayerTableRecord
  2
DEFAULT_1
 70
0
 62
7
  6
CENTER
370
-3
390
F
  0
LAYER
  5
1FB
100
AcDbSymbolTableRecord
100
AcDbLayerTableRecord
  2
DEFAULT_2
 70
0
 62
8
  6
HIDDEN
370
-3
390
F
  0
LAYER
  5
1FC
100
AcDbSymbolTableRecord
100
AcDbLayerTableRecord
  2
DEFAULT_3
 70
0
 62
7
  6
PHANTOM
370
-3
390
F
  0
LAYER
  5
1FD
100
AcDbSymbolTableRecord
100
AcDbLayerTableRecord
  2
01_ALL_DTM_PLN
 70
0
 62
7
  6
CONTINUOUS
370
-3
390
F
  0
LAYER
  5
1FE
100
AcDbSymbolTableRecord
100
AcDbLayerTableRecord
  2
01__ASM_ALL_DTM_PLN
 70
0
 62
7
  6
CONTINUOUS
370
-3
390
F
  0
LAYER
  5
1FF
100
AcDbSymbolTableRecord
100
AcDbLayerTableRecord
  2
01__ASM_DEF_DTM_PLN
 70
0
 62
7
  6
CONTINUOUS
370
-3
390
F
  0
LAYER
  5
200
100
AcDbSymbolTableRecord
100
AcDbLayerTableRecord
  2
01___PRT_ALL_DTM_PLN
 70
0
 62
7
  6
CONTINUOUS
370
-3
390
F
  0
LAYER
  5
201
100
AcDbSymbolTableRecord
100
AcDbLayerTableRecord
  2
01___PRT_DEF_DTM_PLN
 70
0
 62
7
  6
CONTINUOUS
370
-3
390
F
  0
LAYER
  5
202
100
AcDbSymbolTableRecord
100
AcDbLayerTableRecord
  2
02_ALL_AXES
 70
0
 62
7
  6
CONTINUOUS
370
-3
390
F
  0
LAYER
  5
203
100
AcDbSymbolTableRecord
100
AcDbLayerTableRecord
  2
02__ASM_ALL_AXES
 70
0
 62
7
  6
CONTINUOUS
370
-3
390
F
  0
LAYER
  5
204
100
AcDbSymbolTableRecord
100
AcDbLayerTableRecord
  2
02___PRT_ALL_AXES
 70
0
 62
7
  6
CONTINUOUS
370
-3
390
F
  0
LAYER
  5
205
100
AcDbSymbolTableRecord
100
AcDbLayerTableRecord
  2
03_ALL_CURVES
 70
0
 62
7
  6
CONTINUOUS
370
-3
390
F
  0
LAYER
  5
206
100
AcDbSymbolTableRecord
100
AcDbLayerTableRecord
  2
03__ASM_ALL_CURVES
 70
0
 62
7
  6
CONTINUOUS
370
-3
390
F
  0
LAYER
  5
207
100
AcDbSymbolTableRecord
100
AcDbLayerTableRecord
  2
03___PRT_ALL_CURVES
 70
0
 62
7
  6
CONTINUOUS
370
-3
390
F
  0
LAYER
  5
208
100
AcDbSymbolTableRecord
100
AcDbLayerTableRecord
  2
04_ALL_DTM_PNT
 70
0
 62
7
  6
CONTINUOUS
370
-3
390
F
  0
LAYER
  5
209
100
AcDbSymbolTableRecord
100
AcDbLayerTableRecord
  2
04__ASM_ALL_DTM_PNT
 70
0
 62
7
  6
CONTINUOUS
370
-3
390
F
  0
LAYER
  5
20A
100
AcDbSymbolTableRecord
100
AcDbLayerTableRecord
  2
04___PRT_ALL_DTM_PNT
 70
0
 62
7
  6
CONTINUOUS
370
-3
390
F
  0
LAYER
  5
20B
100
AcDbSymbolTableRecord
100
AcDbLayerTableRecord
  2
05_ALL_DTM_CSYS
 70
0
 62
7
  6
CONTINUOUS
370
-3
390
F
  0
LAYER
  5
20C
100
AcDbSymbolTableRecord
100
AcDbLayerTableRecord
  2
05__ASM_ALL_DTM_CSYS
 70
0
 62
7
  6
CONTINUOUS
370
-3
390
F
  0
LAYER
  5
20D
100
AcDbSymbolTableRecord
100
AcDbLayerTableRecord
  2
05__ASM_DEF_DTM_CSYS
 70
0
 62
7
  6
CONTINUOUS
370
-3
390
F
  0
LAYER
  5
20E
100
AcDbSymbolTableRecord
100
AcDbLayerTableRecord
  2
05___PRT_ALL_DTM_CSYS
 70
0
 62
7
  6
CONTINUOUS
370
-3
390
F
  0
LAYER
  5
20F
100
AcDbSymbolTableRecord
100
AcDbLayerTableRecord
  2
05___PRT_DEF_DTM_CSYS
 70
0
 62
7
  6
CONTINUOUS
370
-3
390
F
  0
LAYER
  5
210
100
AcDbSymbolTableRecord
100
AcDbLayerTableRecord
  2
06_ALL_SURFS
 70
0
 62
7
  6
CONTINUOUS
370
-3
390
F
  0
LAYER
  5
211
100
AcDbSymbolTableRecord
100
AcDbLayerTableRecord
  2
06__ASM_ALL_SURFS
 70
0
 62
7
  6
CONTINUOUS
370
-3
390
F
  0
LAYER
  5
212
100
AcDbSymbolTableRecord
100
AcDbLayerTableRecord
  2
06___PRT_ALL_SURFS
 70
0
 62
7
  6
CONTINUOUS
370
-3
390
F
  0
LAYER
  5
213
100
AcDbSymbolTableRecord
100
AcDbLayerTableRecord
  2
07__ASM_ALL_SKELETONS
 70
0
 62
7
  6
CONTINUOUS
370
-3
390
F
  0
ENDTAB
  0
TABLE
  2
STYLE
  5
3
100
AcDbSymbolTable
 70
1
  0
STYLE
  5
11
100
AcDbSymbolTableRecord
100
AcDbTextStyleTableRecord
  2
STANDARD
 70
0
 40
0.0
 41
0.8
 50
0.0
 71
0
 42
0.2
  3
txt
  4

  0
STYLE
  5
214
100
AcDbSymbolTableRecord
100
AcDbTextStyleTableRecord
  2
TEXTSTYLE_1
 70
0
 40
0.0
 41
0.8
 50
0.0
 71
0
 42
0.2
  3
gdt
  4

  0
ENDTAB
  0
TABLE
  2
VIEW
  5
6
100
AcDbSymbolTable
 70
0
  0
ENDTAB
  0
TABLE
  2
UCS
  5
7
100
AcDbSymbolTable
 70
0
  0
ENDTAB
  0
TABLE
  2
APPID
  5
9
100
AcDbSymbolTable
 70
1
  0
APPID
  5
215
100
AcDbSymbolTableRecord
100
AcDbRegAppTableRecord
  2
ACAD
 70
0
  0
ENDTAB
  0
TABLE
  2
BLOCK_RECORD
  5
1
100
AcDbSymbolTable
 70
0
  0
BLOCK_RECORD
  5
216
100
AcDbSymbolTableRecord
100
AcDbBlockTableRecord
  2
*Model_Space
  0
BLOCK_RECORD
  5
217
100
AcDbSymbolTableRecord
100
AcDbBlockTableRecord
  2
*Paper_Space
  0
BLOCK_RECORD
  5
218
100
AcDbSymbolTableRecord
100
AcDbBlockTableRecord
  2
_CLOSED
  0
ENDTAB
  0
TABLE
  2
DIMSTYLE
  5
A
100
AcDbSymbolTable
 70
1
100
AcDbDimStyleTable
 71
0
  0
DIMSTYLE
105
219
100
AcDbSymbolTableRecord
100
AcDbDimStyleTableRecord
  2
STANDARD
 70
0
  3

  4

 40
1.0
 41
0.1875
 42
0.0625
 43
0.38
 44
0.125
 45
0.0
 46
0.0
 47
0.01
 48
0.01
140
0.15625
141
0.09
142
0.0
143
25.4
144
1.0
145
0.0
146
1.0
147
0.625
 71
0.0
 72
0.0
 73
1
 74
1
 75
0
 76
0
 77
0
 78
8
 79
2
170
0
171
1
172
0
173
0
174
0
175
0
176
0
177
0
178
0
270
2
179
2
271
2
272
2
273
2
274
2
275
0
280
0
281
0
282
0
283
1
284
8
285
0
286
0
287
3
288
0
340
11
278
46
341
218
342
218
343
218
344
218
  0
ENDTAB
  0
ENDSEC
  0
SECTION
  2
BLOCKS
  0
BLOCK
  5
20
100
AcDbEntity
  8
0
100
AcDbBlockBegin
  2
*Model_Space
 70
0
 10
0.0
 20
0.0
 30
0.0
  3
*Model_Space
  1

  0
ENDBLK
  5
21
100
AcDbEntity
  8
0
100
AcDbBlockEnd
  0
BLOCK
  5
1C
100
AcDbEntity
  8
0
100
AcDbBlockBegin
  2
*Paper_Space
 70
0
 10
0.0
 20
0.0
 30
0.0
  3
*Paper_Space
  1

  0
ENDBLK
  5
1D
100
AcDbEntity
  8
0
100
AcDbBlockEnd
  0
BLOCK
  5
21A
100
AcDbEntity
  8
0
100
AcDbBlockBegin
  2
_CLOSED
 70
64
 10
0.0
 20
0.0
  3
_CLOSED
  1

  0
LINE
  5
21B
100
AcDbEntity
  8
0
  6
BYBLOCK
 62
0
100
AcDbLine
 10
0.0
 20
0.0
 11
-1.0
 21
0.1666666667
  0
LINE
  5
21C
100
AcDbEntity
  8
0
  6
BYBLOCK
 62
0
100
AcDbLine
 10
-1.0
 20
0.1666666667
 11
-1.0
 21
-0.1666666667
  0
LINE
  5
21D
100
AcDbEntity
  8
0
  6
BYBLOCK
 62
0
100
AcDbLine
 10
-1.0
 20
-0.1666666667
 11
0.0
 21
0.0
  0
LINE
  5
21E
100
AcDbEntity
  8
0
  6
BYBLOCK
 62
0
100
AcDbLine
 10
-1.0
 20
0.0
 11
0.0
 21
0.0
  0
ENDBLK
  5
21F
100
AcDbEntity
  8
0
  6
BYBLOCK
 62
0
100
AcDbBlockEnd
  0
ENDSEC
  0
SECTION
  2
ENTITIES
  0
LINE
  5
220
100
AcDbEntity
  8
0
100
AcDbLine
 62
7
  6
CONTINUOUS
 10
-30.6385164733
 20
132.9523112667
 11
-69.7721902447
 21
122.4623154549
  0
LINE
  5
221
100
AcDbEntity
  8
0
100
AcDbLine
 62
7
  6
CONTINUOUS
 10
-50.6173638892
 20
134.8912185171
 11
-40.5209876644
 21
137.5976075193
  0
LINE
  5
222
100
AcDbEntity
  8
0
100
AcDbLine
 62
7
  6
CONTINUOUS
 10
-72.0475426324
 20
122.3170295403
 11
-77.4858551337
 21
123.0786847745
  0
LINE
  5
223
100
AcDbEntity
  8
0
100
AcDbLine
 62
7
  6
CONTINUOUS
 10
-77.5495138744
 20
128.4674374807
 11
-82.9878263758
 21
129.2290927149
  0
LINE
  5
224
100
AcDbEntity
  8
0
100
AcDbLine
 62
7
  6
CONTINUOUS
 10
-50.6173638892
 20
134.8912185171
 11
-52.8563208168
 21
136.1843924537
  0
LINE
  5
225
100
AcDbEntity
  8
0
100
AcDbLine
 62
7
  6
CONTINUOUS
 10
-28.5220501942
 20
125.5846211448
 11
-26.5514958063
 21
124.4464655269
  0
LINE
  5
226
100
AcDbEntity
  8
0
100
AcDbLine
 62
7
  6
CONTINUOUS
 10
-36.8692532961
 20
135.3027456286
 11
-40.740571195
 21
137.53874695
  0
LINE
  5
227
100
AcDbEntity
  8
0
100
AcDbLine
 62
7
  6
CONTINUOUS
 10
-31.4537919963
 20
146.5135133503
 11
-32.0749306344
 21
146.8533540361
  0
LINE
  5
228
100
AcDbEntity
  8
0
100
AcDbLine
 62
7
  6
CONTINUOUS
 10
-37.2274307221
 20
147.6500837083
 11
-27.2579549796
 21
141.988948881
  0
LINE
  5
229
100
AcDbEntity
  8
0
100
AcDbLine
 62
7
  6
CONTINUOUS
 10
-45.5350537748
 20
151.8256304958
 11
-37.5181118206
 21
147.2599074996
  0
LINE
  5
22A
100
AcDbEntity
  8
0
100
AcDbLine
 62
7
  6
CONTINUOUS
 10
-30.4846802282
 20
132.9158388349
 11
-28.5220501942
 21
131.7822601767
  0
LINE
  5
22B
100
AcDbEntity
  8
0
100
AcDbLine
 62
7
  6
CONTINUOUS
 10
-22.822153446
 20
128.4901056717
 11
-21.4146145974
 21
127.6771373732
  0
LINE
  5
22C
100
AcDbEntity
  8
0
100
AcDbLine
 62
7
  6
CONTINUOUS
 10
-44.3612066864
 20
148.5611833105
 11
-21.545645187
 21
135.3833387124
  0
LINE
  5
22D
100
AcDbEntity
  8
0
100
AcDbLine
 62
7
  6
CONTINUOUS
 10
-23.5645379091
 20
141.8356566761
 11
-13.2811820927
 21
135.896181336
  0
LINE
  5
22E
100
AcDbEntity
  8
0
100
AcDbLine
 62
7
  6
CONTINUOUS
 10
-36.0923198574
 20
149.1737233809
 11
-32.0749306607
 21
146.8533539906
  0
LINE
  5
22F
100
AcDbEntity
  8
0
100
AcDbLine
 62
7
  6
CONTINUOUS
 10
-33.3828436622
 20
147.7003249138
 11
-36.0446369706
 21
149.2377272947
  0
LINE
  5
230
100
AcDbEntity
  8
0
100
AcDbLine
 62
7
  6
CONTINUOUS
 10
-13.2811820927
 20
137.5986733563
 11
-21.1279045933
 21
142.1307945456
  0
LINE
  5
231
100
AcDbEntity
  8
0
100
AcDbLine
 62
7
  6
CONTINUOUS
 10
-82.9878263758
 20
129.2290927149
 11
-96.2482685063
 21
217.6969010169
  0
LINE
  5
232
100
AcDbEntity
  8
0
100
AcDbLine
 62
7
  6
CONTINUOUS
 10
-80.8125013752
 20
128.9244306212
 11
-94.0729435058
 21
217.3922389232
  0
LINE
  5
233
100
AcDbEntity
  8
0
100
AcDbLine
 62
7
  6
CONTINUOUS
 10
-44.494011902
 20
174.5866722707
 11
-41.7724650807
 21
173.0064584748
  0
LINE
  5
234
100
AcDbEntity
  8
0
100
AcDbLine
 62
7
  6
CONTINUOUS
 10
-94.8854675381
 20
203.9448133116
 11
-94.1201866613
 21
203.4992525303
  0
LINE
  5
235
100
AcDbEntity
  8
0
100
AcDbLine
 62
7
  6
CONTINUOUS
 10
-90.809956005
 20
216.9352457827
 11
-77.5495138744
 21
128.4674374807
  0
LINE
  5
236
100
AcDbEntity
  8
0
100
AcDbLine
 62
7
  6
CONTINUOUS
 10
-39.1228061857
 20
179.5132478374
 11
-41.6857114834
 21
180.9768862495
  0
LINE
  5
237
100
AcDbEntity
  8
0
100
AcDbLine
 62
7
  6
CONTINUOUS
 10
-58.1817047405
 20
221.7887145753
 11
-58.18383206
 21
222.2027906093
  0
LINE
  5
238
100
AcDbEntity
  8
0
100
AcDbLine
 62
7
  6
CONTINUOUS
 10
-58.00426142
 20
221.7854327574
 11
-58.0294335561
 21
220.4244096755
  0
LINE
  5
239
100
AcDbEntity
  8
0
100
AcDbLine
 62
7
  6
CONTINUOUS
 10
-58.1919018091
 20
221.7889081869
 11
-58.2364070794
 21
219.4449413299
  0
LINE
  5
23A
100
AcDbEntity
  8
0
100
AcDbLine
 62
7
  6
CONTINUOUS
 10
-55.1891010325
 20
243.6772521331
 11
-55.2717793201
 21
239.4718838524
  0
LINE
  5
23B
100
AcDbEntity
  8
0
100
AcDbLine
 62
7
  6
CONTINUOUS
 10
-53.5103326861
 20
228.6359829084
 11
-53.3182507812
 21
229.7819246867
  0
LINE
  5
23C
100
AcDbEntity
  8
0
100
AcDbLine
 62
7
  6
CONTINUOUS
 10
-62.0536995285
 20
220.0836232153
 11
-58.2046903622
 21
221.1153712252
  0
LINE
  5
23D
100
AcDbEntity
  8
0
100
AcDbLine
 62
7
  6
CONTINUOUS
 10
-41.219969372
 20
224.2744070753
 11
-38.6423235565
 21
224.7751537372
  0
LINE
  5
23E
100
AcDbEntity
  8
0
100
AcDbLine
 62
7
  6
CONTINUOUS
 10
-38.6423235565
 20
227.5331575775
 11
-45.1139174593
 21
226.2772415932
  0
LINE
  5
23F
100
AcDbEntity
  8
0
100
AcDbLine
 62
7
  6
CONTINUOUS
 10
-62.0536995285
 20
220.0836232153
 11
-58.2108664476
 21
220.7900942524
  0
LINE
  5
240
100
AcDbEntity
  8
0
100
AcDbLine
 62
7
  6
CONTINUOUS
 10
-43.4546198814
 20
229.2826324625
 11
-34.6895048958
 21
230.6248357216
  0
LINE
  5
241
100
AcDbEntity
  8
0
100
AcDbLine
 62
7
  6
CONTINUOUS
 10
-43.9869933935
 20
229.8208944157
 11
-39.4664769346
 21
230.5131217207
  0
LINE
  5
242
100
AcDbEntity
  8
0
100
AcDbLine
 62
7
  6
CONTINUOUS
 10
-90.809956005
 20
216.9352457827
 11
-96.2482685063
 21
217.6969010169
  0
LINE
  5
243
100
AcDbEntity
  8
0
100
AcDbLine
 62
7
  6
CONTINUOUS
 10
1.1898017573
 20
178.6869494931
 11
3.0070190049
 21
177.6373585597
  0
LINE
  5
244
100
AcDbEntity
  8
0
100
AcDbLine
 62
7
  6
CONTINUOUS
 10
-55.5034889955
 20
212.6261513939
 11
-61.450777636
 21
216.0611948613
  0
LINE
  5
245
100
AcDbEntity
  8
0
100
AcDbLine
 62
7
  6
CONTINUOUS
 10
-61.450777636
 20
216.0611948613
 11
-62.0536995285
 21
220.0836232153
  0
LINE
  5
246
100
AcDbEntity
  8
0
100
AcDbLine
 62
7
  6
CONTINUOUS
 10
-57.9518202172
 20
233.8329254965
 11
-85.3641386839
 21
226.4849032386
  0
LINE
  5
247
100
AcDbEntity
  8
0
100
AcDbLine
 62
7
  6
CONTINUOUS
 10
-88.6271261847
 20
226.9418963791
 11
-57.9262684585
 21
235.1714296156
  0
LINE
  5
248
100
AcDbEntity
  8
0
100
AcDbLine
 62
7
  6
CONTINUOUS
 10
-90.8024511853
 20
227.2465584728
 11
-57.9092339527
 21
236.063765695
  0
LINE
  5
249
100
AcDbEntity
  8
0
100
AcDbLine
 62
7
  6
CONTINUOUS
 10
30.8402421693
 20
246.5235855745
 11
37.3118360723
 21
247.7795015588
  0
LINE
  5
24A
100
AcDbEntity
  8
0
100
AcDbLine
 62
7
  6
CONTINUOUS
 10
-37.9078156891
 20
233.5098035711
 11
-46.3560240331
 21
232.2161282695
  0
LINE
  5
24B
100
AcDbEntity
  8
0
100
AcDbLine
 62
7
  6
CONTINUOUS
 10
-90.8024511853
 20
227.2465584728
 11
-85.3641386839
 21
226.4849032386
  0
LINE
  5
24C
100
AcDbEntity
  8
0
100
AcDbLine
 62
7
  6
CONTINUOUS
 10
1.9147978433
 20
183.1992666173
 11
-1.8406931504
 21
185.3683684695
  0
LINE
  5
24D
100
AcDbEntity
  8
0
100
AcDbLine
 62
7
  6
CONTINUOUS
 10
2.074861717
 20
180.8515905831
 11
5.6051232017
 21
178.7915443106
  0
LINE
  5
24E
100
AcDbEntity
  8
0
100
AcDbLine
 62
7
  6
CONTINUOUS
 10
-3.8719798086
 20
195.4124808653
 11
-8.3337963806
 21
198.0261831436
  0
LINE
  5
24F
100
AcDbEntity
  8
0
100
AcDbLine
 62
7
  6
CONTINUOUS
 10
-39.4010406939
 20
237.4880388828
 11
-39.4010406939
 21
238.6315181203
  0
LINE
  5
250
100
AcDbEntity
  8
0
100
AcDbLine
 62
7
  6
CONTINUOUS
 10
-38.6423235566
 20
224.7751537372
 11
-38.6423235566
 21
227.5331575775
  0
LINE
  5
251
100
AcDbEntity
  8
0
100
AcDbLine
 62
7
  6
CONTINUOUS
 10
-37.5909090475
 20
232.6389969151
 11
-37.5909090475
 21
233.1404815924
  0
LINE
  5
252
100
AcDbEntity
  8
0
100
AcDbLine
 62
7
  6
CONTINUOUS
 10
-21.6331714465
 20
218.8659297398
 11
-19.9212686514
 21
221.6241640536
  0
LINE
  5
253
100
AcDbEntity
  8
0
100
AcDbLine
 62
7
  6
CONTINUOUS
 10
-46.3560240331
 20
232.2161282695
 11
-43.4546198814
 21
229.2826324625
  0
LINE
  5
254
100
AcDbEntity
  8
0
100
AcDbLine
 62
7
  6
CONTINUOUS
 10
-28.5220501942
 20
132.4508608553
 11
-28.5220501942
 21
125.5846211448
  0
LINE
  5
255
100
AcDbEntity
  8
0
100
AcDbLine
 62
7
  6
CONTINUOUS
 10
-26.5514958063
 20
132.349630213
 11
-26.5514958063
 21
124.4464655269
  0
LINE
  5
256
100
AcDbEntity
  8
0
100
AcDbLine
 62
7
  6
CONTINUOUS
 10
-21.545645187
 20
133.6808466928
 11
-21.545645187
 21
135.3833387124
  0
LINE
  5
257
100
AcDbEntity
  8
0
100
AcDbLine
 62
7
  6
CONTINUOUS
 10
13.8310845557
 20
255.1908045469
 11
12.1191872641
 21
252.4325790984
  0
LINE
  5
258
100
AcDbEntity
  8
0
100
AcDbLine
 62
7
  6
CONTINUOUS
 10
13.6484562841
 20
252.1342035363
 11
13.8463965725
 21
252.4525644815
  0
LINE
  5
259
100
AcDbEntity
  8
0
100
AcDbLine
 62
7
  6
CONTINUOUS
 10
3.0070190049
 20
177.6373585597
 11
5.6051232017
 21
178.7915443106
  0
LINE
  5
25A
100
AcDbEntity
  8
0
100
AcDbLine
 62
7
  6
CONTINUOUS
 10
-13.2811820927
 20
137.5986733563
 11
-13.2811820927
 21
135.896181336
  0
LINE
  5
25B
100
AcDbEntity
  8
0
100
AcDbLine
 62
7
  6
CONTINUOUS
 10
-35.723284847
 20
149.6690726898
 11
-37.5181118206
 21
147.2599074996
  0
LINE
  5
25C
100
AcDbEntity
  8
0
100
AcDbLine
 62
7
  6
CONTINUOUS
 10
13.7673235298
 20
252.3253858822
 11
13.82800107
 21
252.3171434836
  0
LINE
  5
25D
100
AcDbEntity
  8
0
100
AcDbLine
 62
7
  6
CONTINUOUS
 10
13.7960620701
 20
252.3547567243
 11
13.8560098013
 21
252.3456575357
  0
LINE
  5
25E
100
AcDbEntity
  8
0
100
AcDbLine
 62
7
  6
CONTINUOUS
 10
31.5989593061
 20
237.4880388828
 11
31.5989593061
 21
238.6315181203
  0
LINE
  5
25F
100
AcDbEntity
  8
0
100
AcDbLine
 62
7
  6
CONTINUOUS
 10
45.7082512988
 20
245.4207602435
 11
45.5161303678
 21
244.1278395112
  0
LINE
  5
260
100
AcDbEntity
  8
0
100
AcDbLine
 62
7
  6
CONTINUOUS
 10
45.7543353382
 20
243.0581411193
 11
45.7082512988
 21
245.4207602435
  0
LINE
  5
261
100
AcDbEntity
  8
0
100
AcDbLine
 62
7
  6
CONTINUOUS
 10
50.3796233532
 20
222.2977201788
 11
50.381891326
 21
222.202791038
  0
LINE
  5
262
100
AcDbEntity
  8
0
100
AcDbLine
 62
7
  6
CONTINUOUS
 10
50.3819619587
 20
222.2027912384
 11
50.4343256922
 21
219.4449413299
  0
ARC
  5
263
100
AcDbEntity
  8
0
100
AcDbCircle
 62
7
  6
CONTINUOUS
 10
-22.4526141012
 20
201.9056670792
 40
53.8524365204
100
AcDbArc
 50
111.9596760531
 51
114.539379466
  0
ARC
  5
264
100
AcDbEntity
  8
0
100
AcDbCircle
 62
7
  6
CONTINUOUS
 10
-58.3362870398
 20
192.6355390467
 40
41.7109231072
100
AcDbArc
 50
152.6372066637
 51
159.0750524674
  0
ARC
  5
265
100
AcDbEntity
  8
0
100
AcDbCircle
 62
7
  6
CONTINUOUS
 10
-59.118743328
 20
192.9526487541
 40
40.8668199188
100
AcDbArc
 50
159.0985303963
 51
159.764142005
  0
ARC
  5
266
100
AcDbEntity
  8
0
100
AcDbCircle
 62
7
  6
CONTINUOUS
 10
-57.4472103251
 20
191.9886040532
 40
40.8464516659
100
AcDbArc
 50
156.4633812961
 51
161.7158028518
  0
ARC
  5
267
100
AcDbEntity
  8
0
100
AcDbCircle
 62
7
  6
CONTINUOUS
 10
-23.4345718672
 20
176.3949495043
 40
29.1384206223
100
AcDbArc
 50
359.9602525502
 51
4.7178280943
  0
ARC
  5
268
100
AcDbEntity
  8
0
100
AcDbCircle
 62
7
  6
CONTINUOUS
 10
-18.5218480716
 20
176.4051605987
 40
21.5363964684
100
AcDbArc
 50
12.66852308
 51
18.3892429265
  0
ARC
  5
269
100
AcDbEntity
  8
0
100
AcDbCircle
 62
7
  6
CONTINUOUS
 10
-24.4010998593
 20
160.1368118584
 40
15.3407277945
100
AcDbArc
 50
234.1628418921
 51
239.9850474653
  0
ARC
  5
26A
100
AcDbEntity
  8
0
100
AcDbCircle
 62
7
  6
CONTINUOUS
 10
-84.606537712
 20
218.7644794499
 40
9.5685629164
100
AcDbArc
 50
168.0237778464
 51
174.8423529505
  0
ARC
  5
26B
100
AcDbEntity
  8
0
100
AcDbCircle
 62
7
  6
CONTINUOUS
 10
-84.6470985865
 20
218.7678576621
 40
9.5278625829
100
AcDbArc
 50
174.8406586934
 51
178.1792159754
  0
ARC
  5
26C
100
AcDbEntity
  8
0
100
AcDbCircle
 62
7
  6
CONTINUOUS
 10
-84.6541335515
 20
218.7739314145
 40
9.5200417414
100
AcDbArc
 50
164.0921418968
 51
168.0199851557
  0
ARC
  5
26D
100
AcDbEntity
  8
0
100
AcDbCircle
 62
7
  6
CONTINUOUS
 10
-84.8092648343
 20
218.819002994
 40
9.3584977253
100
AcDbArc
 50
157.7702500148
 51
164.0971952594
  0
ARC
  5
26E
100
AcDbEntity
  8
0
100
AcDbCircle
 62
7
  6
CONTINUOUS
 10
-84.8671622972
 20
218.7674115558
 40
9.3079271285
100
AcDbArc
 50
178.1334304648
 51
188.4961001204
  0
ARC
  5
26F
100
AcDbEntity
  8
0
100
AcDbCircle
 62
7
  6
CONTINUOUS
 10
-85.0394424269
 20
218.9103147123
 40
9.110883424
100
AcDbArc
 50
153.5252857185
 51
157.754174672
  0
ARC
  5
270
100
AcDbEntity
  8
0
100
AcDbCircle
 62
7
  6
CONTINUOUS
 10
-85.3133432968
 20
219.0474631598
 40
8.8045650728
100
AcDbArc
 50
147.0810795574
 51
153.5295811509
  0
ARC
  5
271
100
AcDbEntity
  8
0
100
AcDbCircle
 62
7
  6
CONTINUOUS
 10
-85.6374792989
 20
219.25306745
 40
8.4207369562
100
AcDbArc
 50
142.5999748519
 51
147.0568589124
  0
ARC
  5
272
100
AcDbEntity
  8
0
100
AcDbCircle
 62
7
  6
CONTINUOUS
 10
-49.7770056784
 20
222.0426297743
 40
8.4085470675
100
AcDbArc
 50
178.3114025338
 51
178.9085952919
  0
ARC
  5
273
100
AcDbEntity
  8
0
100
AcDbCircle
 62
7
  6
CONTINUOUS
 10
-72.6148607216
 20
130.0578058121
 40
8.2681004662
100
AcDbArc
 50
199.2957401906
 51
202.9653163034
  0
ARC
  5
274
100
AcDbEntity
  8
0
100
AcDbCircle
 62
7
  6
CONTINUOUS
 10
-85.9521576028
 20
219.4943625552
 40
8.0241951131
100
AcDbArc
 50
135.5988051789
 51
142.603974794
  0
ARC
  5
275
100
AcDbEntity
  8
0
100
AcDbCircle
 62
7
  6
CONTINUOUS
 10
-73.0397984248
 20
129.8682776243
 40
7.8028987284
100
AcDbArc
 50
202.9013829728
 51
210.73229194
  0
ARC
  5
276
100
AcDbEntity
  8
0
100
AcDbCircle
 62
7
  6
CONTINUOUS
 10
-86.2505790779
 20
219.7784383482
 40
7.6122260647
100
AcDbArc
 50
131.0009065519
 51
135.5548579057
  0
ARC
  5
277
100
AcDbEntity
  8
0
100
AcDbCircle
 62
7
  6
CONTINUOUS
 10
-73.3459127543
 20
129.6887615866
 40
7.4480364315
100
AcDbArc
 50
210.7486561692
 51
215.3697143866
  0
ARC
  5
278
100
AcDbEntity
  8
0
100
AcDbCircle
 62
7
  6
CONTINUOUS
 10
-86.5413438414
 20
220.1129571552
 40
7.1690026684
100
AcDbArc
 50
122.7492076263
 51
131.0011314822
  0
ARC
  5
279
100
AcDbEntity
  8
0
100
AcDbCircle
 62
7
  6
CONTINUOUS
 10
-73.7506133002
 20
129.394312641
 40
6.9475905123
100
AcDbArc
 50
215.3215309452
 51
223.0622367237
  0
ARC
  5
27A
100
AcDbEntity
  8
0
100
AcDbCircle
 62
7
  6
CONTINUOUS
 10
-86.7833341944
 20
220.4755249595
 40
6.7331625538
100
AcDbArc
 50
118.4784315122
 51
122.6863273421
  0
ARC
  5
27B
100
AcDbEntity
  8
0
100
AcDbCircle
 62
7
  6
CONTINUOUS
 10
-73.9748318584
 20
129.1867597704
 40
6.6420582807
100
AcDbArc
 50
223.0747793156
 51
228.289726855
  0
ARC
  5
27C
100
AcDbEntity
  8
0
100
AcDbCircle
 62
7
  6
CONTINUOUS
 10
-74.2431038022
 20
128.8802417522
 40
6.2347393206
100
AcDbArc
 50
228.2559448589
 51
236.397900295
  0
ARC
  5
27D
100
AcDbEntity
  8
0
100
AcDbCircle
 62
7
  6
CONTINUOUS
 10
-74.3641208265
 20
128.6995108798
 40
6.0172349609
100
AcDbArc
 50
236.4052773428
 51
241.1555433414
  0
ARC
  5
27E
100
AcDbEntity
  8
0
100
AcDbCircle
 62
7
  6
CONTINUOUS
 10
-74.4154085037
 20
128.6089799115
 40
5.913193173
100
AcDbArc
 50
241.1676491885
 51
242.0031580518
  0
ARC
  5
27F
100
AcDbEntity
  8
0
100
AcDbCircle
 62
7
  6
CONTINUOUS
 10
-74.4844987871
 20
128.4708586805
 40
5.758804505
100
AcDbArc
 50
241.9650287371
 51
250.7273212935
  0
ARC
  5
280
100
AcDbEntity
  8
0
100
AcDbCircle
 62
7
  6
CONTINUOUS
 10
-74.5204853382
 20
128.3687892243
 40
5.6505773103
100
AcDbArc
 50
250.7301637312
 51
257.3315414785
  0
ARC
  5
281
100
AcDbEntity
  8
0
100
AcDbCircle
 62
7
  6
CONTINUOUS
 10
-74.5353739816
 20
128.3083903989
 40
5.5883837999
100
AcDbArc
 50
257.344666637
 51
262.0268892232
  0
ARC
  5
282
100
AcDbEntity
  8
0
100
AcDbCircle
 62
7
  6
CONTINUOUS
 10
-27.3706024109
 20
143.5142289957
 40
5.0663738345
100
AcDbArc
 50
136.0787822461
 51
143.7010625764
  0
ARC
  5
283
100
AcDbEntity
  8
0
100
AcDbCircle
 62
7
  6
CONTINUOUS
 10
-38.2116031702
 20
176.3213650879
 40
3.319398503
100
AcDbArc
 50
105.0066966535
 51
105.932724532
  0
ARC
  5
284
100
AcDbEntity
  8
0
100
AcDbCircle
 62
7
  6
CONTINUOUS
 10
-17.7208923772
 20
284.1765218362
 40
66.7765005876
100
AcDbArc
 50
249.0731234098
 51
251.2915428242
  0
ARC
  5
285
100
AcDbEntity
  8
0
100
AcDbCircle
 62
7
  6
CONTINUOUS
 10
-29.6788200653
 20
239.7610011266
 40
10.3526358315
100
AcDbArc
 50
218.2643161113
 51
221.6685776368
  0
ARC
  5
286
100
AcDbEntity
  8
0
100
AcDbCircle
 62
7
  6
CONTINUOUS
 10
-30.1079460304
 20
239.4191036759
 40
9.8039689823
100
AcDbArc
 50
217.8103331681
 51
218.2485867424
  0
ARC
  5
287
100
AcDbEntity
  8
0
100
AcDbCircle
 62
7
  6
CONTINUOUS
 10
-49.3650128068
 20
237.0406850763
 40
8.536348042
100
AcDbArc
 50
181.9861474368
 51
190.7507967041
  0
ARC
  5
288
100
AcDbEntity
  8
0
100
AcDbCircle
 62
7
  6
CONTINUOUS
 10
-33.7937627603
 20
238.6381504018
 40
5.6072818868
100
AcDbArc
 50
180.0677693462
 51
191.4523621649
  0
ARC
  5
289
100
AcDbEntity
  8
0
100
AcDbCircle
 62
7
  6
CONTINUOUS
 10
-3.9048106752
 20
121.4218839727
 40
136.8542117597
100
AcDbArc
 50
90.3001102983
 51
91.6798369021
  0
ARC
  5
28A
100
AcDbEntity
  8
0
100
AcDbCircle
 62
7
  6
CONTINUOUS
 10
-2.1583905485
 20
140.2516169017
 40
117.9352079217
100
AcDbArc
 50
81.0956388497
 51
82.6168566238
  0
ARC
  5
28B
100
AcDbEntity
  8
0
100
AcDbCircle
 62
7
  6
CONTINUOUS
 10
-7.4607632237
 20
151.3550160933
 40
106.6836588526
100
AcDbArc
 50
99.5877924429
 51
101.219846498
  0
ARC
  5
28C
100
AcDbEntity
  8
0
100
AcDbCircle
 62
7
  6
CONTINUOUS
 10
9.9188109899
 20
189.8802213156
 40
66.7765005878
100
AcDbArc
 50
69.0731234098
 51
71.2915428242
  0
ARC
  5
28D
100
AcDbEntity
  8
0
100
AcDbCircle
 62
7
  6
CONTINUOUS
 10
58.1093552023
 20
211.0472766651
 40
13.6499536158
100
AcDbArc
 50
124.4914080112
 51
124.7466549108
  0
ARC
  5
28E
100
AcDbEntity
  8
0
100
AcDbCircle
 62
7
  6
CONTINUOUS
 10
41.5629314195
 20
237.0160580756
 40
8.536348042
100
AcDbArc
 50
1.9861474368
 51
10.7507967041
  0
ARC
  5
28F
100
AcDbEntity
  8
0
100
AcDbCircle
 62
7
  6
CONTINUOUS
 10
2.2689746943
 20
187.2525459957
 40
3.241991221
100
AcDbArc
 50
102.5385902088
 51
105.0126091419
  0
ARC
  5
290
100
AcDbEntity
  8
0
100
AcDbCircle
 62
7
  6
CONTINUOUS
 10
0.5894182758
 20
186.160545716
 40
3.2419912209
100
AcDbArc
 50
282.5385902087
 51
285.0126091419
  0
ARC
  5
291
100
AcDbEntity
  8
0
100
AcDbCircle
 62
7
  6
CONTINUOUS
 10
2.3595496125
 20
179.2458998963
 40
1.7339613161
100
AcDbArc
 50
285.06525876
 51
291.92575094
  0
ARC
  5
292
100
AcDbEntity
  8
0
100
AcDbCircle
 62
7
  6
CONTINUOUS
 10
-3.9034894119
 20
337.8759210734
 40
137.1924134473
100
AcDbArc
 50
266.5558865844
 51
270.2711495224
  0
ARC
  5
293
100
AcDbEntity
  8
0
100
AcDbCircle
 62
7
  6
CONTINUOUS
 10
-3.897270712
 20
352.6348591792
 40
136.8542117597
100
AcDbArc
 50
270.3001102983
 51
271.6798369021
  0
ARC
  5
294
100
AcDbEntity
  8
0
100
AcDbCircle
 62
7
  6
CONTINUOUS
 10
-4.3643624935
 20
330.1408584771
 40
129.4436345422
100
AcDbArc
 50
262.6990775866
 51
266.5538316161
  0
ARC
  5
295
100
AcDbEntity
  8
0
100
AcDbCircle
 62
7
  6
CONTINUOUS
 10
-5.6436908388
 20
333.8051262498
 40
117.9352079212
100
AcDbArc
 50
261.0956388497
 51
262.6168566238
  0
ARC
  5
296
100
AcDbEntity
  8
0
100
AcDbCircle
 62
7
  6
CONTINUOUS
 10
-0.3413181634
 20
322.7017270579
 40
106.6836588519
100
AcDbArc
 50
279.5877924429
 51
281.219846498
  0
ARC
  5
297
100
AcDbEntity
  8
0
100
AcDbCircle
 62
7
  6
CONTINUOUS
 10
14.650532714
 20
272.1510760728
 40
53.8524365204
100
AcDbArc
 50
291.9596760531
 51
294.539379466
  0
SPLINE
  5
298
100
AcDbEntity
  8
0
100
AcDbSpline
 62
7
  6
CONTINUOUS
 70
0
 71
3
 72
10
 73
6
 74
0
 42
0.0000001
 43
0.0000001
 44
0.0000000001
 40
0.0
 40
0.0
 40
0.0
 40
0.0
 40
0.2523515773
 40
0.5057440892
 40
1.0
 40
1.0
 40
1.0
 40
1.0
 10
-96.2666231276
 20
209.8378381885
 30
0.0
 10
-96.4059991763
 20
209.6743591895
 30
0.0
 10
-96.6620276543
 20
209.3258493959
 30
0.0
 10
-97.0662576619
 20
208.5749885607
 30
0.0
 10
-97.2490274268
 20
207.9526576502
 30
0.0
 10
-97.3026653495
 20
207.5353282815
 30
0.0
  0
SPLINE
  5
299
100
AcDbEntity
  8
0
100
AcDbSpline
 62
7
  6
CONTINUOUS
 70
0
 71
3
 72
25
 73
21
 74
0
 42
0.0000001
 43
0.0000001
 44
0.0000000001
 40
0.0
 40
0.0
 40
0.0
 40
0.0
 40
0.0157132617
 40
0.031952033
 40
0.0676647832
 40
0.0878788559
 40
0.1098862624
 40
0.1595475839
 40
0.2167630108
 40
0.2809369798
 40
0.3510487092
 40
0.4257865695
 40
0.5036416144
 40
0.5829823761
 40
0.662121358
 40
0.7393786695
 40
0.813145535
 40
0.8819534704
 40
0.9445485919
 40
1.0
 40
1.0
 40
1.0
 40
1.0
 10
-39.4010407248
 20
238.6315181203
 30
0.0
 10
-39.4010388038
 20
239.0031118768
 30
0.0
 10
-39.3230744152
 20
239.7608384971
 30
0.0
 10
-38.8475428692
 20
241.2977786601
 30
0.0
 10
-37.8996103364
 20
242.7567758606
 30
0.0
 10
-36.6221131277
 20
244.086833778
 30
0.0
 10
-34.9503773441
 20
245.4819820386
 30
0.0
 10
-32.342278944
 20
247.0868667565
 30
0.0
 10
-28.6374410084
 20
248.7311046247
 30
0.0
 10
-24.322311909
 20
250.1281248025
 30
0.0
 10
-19.5015217764
 20
251.2434259426
 30
0.0
 10
-14.2924920017
 20
252.0488201436
 30
0.0
 10
-8.824400712
 20
252.5236175356
 30
0.0
 10
-3.2334010395
 20
252.6555887007
 30
0.0
 10
2.3409200303
 20
252.4413352449
 30
0.0
 10
7.7594876829
 20
251.8863572645
 30
0.0
 10
12.88734419
 20
251.0050263538
 30
0.0
 10
17.5981673336
 20
249.8196759906
 30
0.0
 10
21.7757591809
 20
248.3609015662
 30
0.0
 10
24.3022649542
 20
247.1518219602
 30
0.0
 10
25.4378032908
 20
246.4959561059
 30
0.0
  0
SPLINE
  5
29A
100
AcDbEntity
  8
0
100
AcDbSpline
 62
7
  6
CONTINUOUS
 70
0
 71
3
 72
9
 73
5
 74
0
 42
0.0000001
 43
0.0000001
 44
0.0000000001
 40
0.0
 40
0.0
 40
0.0
 40
0.0
 40
0.4834158648
 40
1.0
 40
1.0
 40
1.0
 40
1.0
 10
-39.4010305679
 20
237.4880388827
 30
0.0
 10
-39.4010319846
 20
236.9448970679
 30
0.0
 10
-39.2290939906
 20
235.8160441286
 30
0.0
 10
-38.7534105452
 20
234.7834165099
 30
0.0
 10
-38.4552988062
 20
234.2854176545
 30
0.0
  0
SPLINE
  5
29B
100
AcDbEntity
  8
0
100
AcDbSpline
 62
7
  6
CONTINUOUS
 70
0
 71
3
 72
9
 73
5
 74
0
 42
0.0000001
 43
0.0000001
 44
0.0000000001
 40
0.0
 40
0.0
 40
0.0
 40
0.0
 40
0.2440437944
 40
1.0
 40
1.0
 40
1.0
 40
1.0
 10
-38.4552988062
 20
234.2854176545
 30
0.0
 10
-38.4108559757
 20
234.2111754299
 30
0.0
 10
-38.2238380645
 20
233.9099102031
 30
0.0
 10
-38.0178317907
 20
233.6205427503
 30
0.0
 10
-37.8535174412
 20
233.4087849383
 30
0.0
  0
SPLINE
  5
29C
100
AcDbEntity
  8
0
100
AcDbSpline
 62
7
  6
CONTINUOUS
 70
0
 71
3
 72
9
 73
5
 74
0
 42
0.0000001
 43
0.0000001
 44
0.0000000001
 40
0.0
 40
0.0
 40
0.0
 40
0.0
 40
0.2325275254
 40
1.0
 40
1.0
 40
1.0
 40
1.0
 10
-37.4122690341
 20
232.8783536923
 30
0.0
 10
-37.2327556515
 20
232.6763096481
 30
0.0
 10
-36.4288609792
 20
231.8357327772
 30
0.0
 10
-35.5139639085
 20
231.1060307134
 30
0.0
 10
-34.7810529829
 20
230.5975086047
 30
0.0
  0
SPLINE
  5
29D
100
AcDbEntity
  8
0
100
AcDbSpline
 62
7
  6
CONTINUOUS
 70
0
 71
3
 72
9
 73
5
 74
0
 42
0.0000001
 43
0.0000001
 44
0.0000000001
 40
0.0
 40
0.0
 40
0.0
 40
0.0
 40
0.2426621252
 40
1.0
 40
1.0
 40
1.0
 40
1.0
 10
-34.7810529829
 20
230.5975086047
 30
0.0
 10
-34.6598748243
 20
230.5134304847
 30
0.0
 10
-34.1565919316
 20
230.1726031284
 30
0.0
 10
-33.6384845695
 20
229.8538247916
 30
0.0
 10
-33.2398846785
 20
229.6236008973
 30
0.0
  0
SPLINE
  5
29E
100
AcDbEntity
  8
0
100
AcDbSpline
 62
7
  6
CONTINUOUS
 70
0
 71
3
 72
10
 73
6
 74
0
 42
0.0000001
 43
0.0000001
 44
0.0000000001
 40
0.0
 40
0.0
 40
0.0
 40
0.0
 40
0.5332419343
 40
0.7761883652
 40
1.0
 40
1.0
 40
1.0
 40
1.0
 10
13.8560098013
 20
252.3456575357
 30
0.0
 10
17.3973595187
 20
251.8070886861
 30
0.0
 10
22.5231885038
 20
250.764706656
 30
0.0
 10
28.9431634546
 20
248.7738049788
 30
0.0
 10
31.8629903612
 20
247.6187091432
 30
0.0
 10
33.2331770172
 20
246.9998518973
 30
0.0
  0
SPLINE
  5
29F
100
AcDbEntity
  8
0
100
AcDbSpline
 62
7
  6
CONTINUOUS
 70
0
 71
3
 72
12
 73
8
 74
0
 42
0.0000001
 43
0.0000001
 44
0.0000000001
 40
0.0
 40
0.0
 40
0.0
 40
0.0
 40
0.0996137483
 40
0.2080597036
 40
0.4487753159
 40
0.7156638629
 40
1.0
 40
1.0
 40
1.0
 40
1.0
 10
-33.2398846785
 20
229.6236008973
 30
0.0
 10
-32.5221034508
 20
229.2090237906
 30
0.0
 10
-30.9794254948
 20
228.4173006456
 30
0.0
 10
-27.5299133398
 20
226.9794794398
 30
0.0
 10
-22.606125273
 20
225.5033423792
 30
0.0
 10
-16.1239094094
 20
224.2708763584
 30
0.0
 10
-11.5529940458
 20
223.8156537772
 30
0.0
 10
-9.1911264346
 20
223.6756034486
 30
0.0
  0
SPLINE
  5
2A0
100
AcDbEntity
  8
0
100
AcDbSpline
 62
7
  6
CONTINUOUS
 70
0
 71
3
 72
16
 73
12
 74
0
 42
0.0000001
 43
0.0000001
 44
0.0000000001
 40
0.0
 40
0.0
 40
0.0
 40
0.0
 40
0.1546773622
 40
0.3084658281
 40
0.4569057077
 40
0.5958196075
 40
0.7215729356
 40
0.8313995689
 40
0.8798797715
 40
0.9240147087
 40
1.0
 40
1.0
 40
1.0
 40
1.0
 10
-9.1911264346
 20
223.6756034486
 30
0.0
 10
-6.9985568418
 20
223.5455918889
 30
0.0
 10
-2.6147685099
 20
223.4494214347
 30
0.0
 10
3.8705750968
 20
223.7772119386
 30
0.0
 10
10.0916172687
 20
224.564421972
 30
0.0
 10
15.8380274427
 20
225.7830229461
 30
0.0
 10
20.9167191064
 20
227.390776717
 30
0.0
 10
24.6000251386
 20
229.0726074876
 30
0.0
 10
27.0416784501
 20
230.6003431151
 30
0.0
 10
28.931664117
 20
232.0695527307
 30
0.0
 10
30.0992453803
 20
233.3599040986
 30
0.0
 10
30.6534087599
 20
234.2857157632
 30
0.0
  0
SPLINE
  5
2A1
100
AcDbEntity
  8
0
100
AcDbSpline
 62
7
  6
CONTINUOUS
 70
0
 71
3
 72
9
 73
5
 74
0
 42
0.0000001
 43
0.0000001
 44
0.0000000001
 40
0.0
 40
0.0
 40
0.0
 40
0.0
 40
0.5165736412
 40
1.0
 40
1.0
 40
1.0
 40
1.0
 10
30.6534087599
 20
234.2857157632
 30
0.0
 10
30.9514651235
 20
234.7836628819
 30
0.0
 10
31.4270086942
 20
235.8162187551
 30
0.0
 10
31.5989477637
 20
236.944942403
 30
0.0
 10
31.5989491802
 20
237.488038883
 30
0.0
  0
SPLINE
  5
2A2
100
AcDbEntity
  8
0
100
AcDbSpline
 62
7
  6
CONTINUOUS
 70
0
 71
3
 72
12
 73
8
 74
0
 42
0.0000001
 43
0.0000001
 44
0.0000000001
 40
0.0
 40
0.0
 40
0.0
 40
0.0
 40
0.3075736022
 40
0.5705647601
 40
0.796038144
 40
0.8995109015
 40
1.0
 40
1.0
 40
1.0
 40
1.0
 10
25.4378032908
 20
246.4959561059
 30
0.0
 10
26.3636160218
 20
245.9612238664
 30
0.0
 10
28.0230709788
 20
244.8576076812
 30
0.0
 10
30.0256216038
 20
242.9209933457
 30
0.0
 10
31.1122236337
 20
241.1322803192
 30
0.0
 10
31.5303113917
 20
239.691546715
 30
0.0
 10
31.5989611429
 20
238.9808239895
 30
0.0
 10
31.5989593371
 20
238.6315181203
 30
0.0
  0
SPLINE
  5
2A3
100
AcDbEntity
  8
0
100
AcDbSpline
 62
7
  6
CONTINUOUS
 70
0
 71
3
 72
9
 73
5
 74
0
 42
0.0000001
 43
0.0000001
 44
0.0000000001
 40
0.0
 40
0.0
 40
0.0
 40
0.0
 40
0.2488275295
 40
1.0
 40
1.0
 40
1.0
 40
1.0
 10
31.5989593371
 20
238.6315181203
 30
0.0
 10
31.5989588599
 20
238.5392017644
 30
0.0
 10
31.589619273
 20
238.1682427434
 30
0.0
 10
31.5425424396
 20
237.7983338313
 30
0.0
 10
31.4873835522
 20
237.5251579213
 30
0.0
  0
SPLINE
  5
2A4
100
AcDbEntity
  8
0
100
AcDbSpline
 62
7
  6
CONTINUOUS
 70
0
 71
3
 72
25
 73
21
 74
0
 42
0.0000001
 43
0.0000001
 44
0.0000000001
 40
0.0
 40
0.0
 40
0.0
 40
0.0
 40
0.0159680456
 40
0.0328681783
 40
0.0510448626
 40
0.0707508167
 40
0.1152906488
 40
0.1671005272
 40
0.2259607372
 40
0.2911614118
 40
0.3616598213
 40
0.4361819168
 40
0.5132970771
 40
0.5914803671
 40
0.6691692408
 40
0.7448185261
 40
0.8169558909
 40
0.8842422545
 40
0.945538715
 40
1.0
 40
1.0
 40
1.0
 40
1.0
 10
31.4873835522
 20
237.5251579213
 30
0.0
 10
31.4138081439
 20
237.1607736843
 30
0.0
 10
31.1890093381
 20
236.4240510651
 30
0.0
 10
30.6480872024
 20
235.3604580152
 30
0.0
 10
29.9028715749
 20
234.3202300971
 30
0.0
 10
28.5900904513
 20
232.9148357573
 30
0.0
 10
26.4264416975
 20
231.2667726935
 30
0.0
 10
23.2398408172
 20
229.5437003903
 30
0.0
 10
19.4270492502
 20
228.0303926575
 30
0.0
 10
15.0734660448
 20
226.7614366565
 30
0.0
 10
10.2772350778
 20
225.7660816717
 30
0.0
 10
5.149404938
 20
225.0682499902
 30
0.0
 10
-0.1905014483
 20
224.6847207571
 30
0.0
 10
-5.6174210194
 20
224.6247771255
 30
0.0
 10
-11.0040812986
 20
224.8898593665
 30
0.0
 10
-16.2242685015
 20
225.4735796519
 30
0.0
 10
-21.1559002845
 20
226.3617844565
 30
0.0
 10
-25.6849171744
 20
227.5333568028
 30
0.0
 10
-29.7063724772
 20
228.9599944649
 30
0.0
 10
-32.1419908358
 20
230.132957041
 30
0.0
 10
-33.2398846785
 20
230.7670801348
 30
0.0
  0
SPLINE
  5
2A5
100
AcDbEntity
  8
0
100
AcDbSpline
 62
7
  6
CONTINUOUS
 70
0
 71
3
 72
9
 73
5
 74
0
 42
0.0000001
 43
0.0000001
 44
0.0000000001
 40
0.0
 40
0.0
 40
0.0
 40
0.0
 40
0.5326740601
 40
1.0
 40
1.0
 40
1.0
 40
1.0
 10
-33.2398846785
 20
230.7670801348
 30
0.0
 10
-34.0324521502
 20
231.2248523871
 30
0.0
 10
-35.4756996478
 20
232.1661504282
 30
0.0
 10
-36.7675663182
 20
233.3144165303
 30
0.0
 10
-37.3091000282
 20
233.9073129254
 30
0.0
  0
SPLINE
  5
2A6
100
AcDbEntity
  8
0
100
AcDbSpline
 62
7
  6
CONTINUOUS
 70
0
 71
3
 72
9
 73
5
 74
0
 42
0.0000001
 43
0.0000001
 44
0.0000000001
 40
0.0
 40
0.0
 40
0.0
 40
0.0
 40
0.5295265124
 40
1.0
 40
1.0
 40
1.0
 40
1.0
 10
-37.3091000282
 20
233.9073129254
 30
0.0
 10
-37.8045603051
 20
234.4497659744
 30
0.0
 10
-38.6481081376
 20
235.5686718151
 30
0.0
 10
-39.1601749085
 20
236.8849904687
 30
0.0
 10
-39.2894043813
 20
237.5248070892
 30
0.0
  0
SPLINE
  5
2A7
100
AcDbEntity
  8
0
100
AcDbSpline
 62
7
  6
CONTINUOUS
 70
0
 71
3
 72
9
 73
5
 74
0
 42
0.0000001
 43
0.0000001
 44
0.0000000001
 40
0.0
 40
0.0
 40
0.0
 40
0.0
 40
0.23825878
 40
1.0
 40
1.0
 40
1.0
 40
1.0
 10
-37.9956238018
 20
232.1954078817
 30
0.0
 10
-37.931362301
 20
232.0319474691
 30
0.0
 10
-37.6333726123
 20
231.3570338696
 30
0.0
 10
-37.229009515
 20
230.731691727
 30
0.0
 10
-36.8837462503
 20
230.2888412453
 30
0.0
  0
SPLINE
  5
2A8
100
AcDbEntity
  8
0
100
AcDbSpline
 62
7
  6
CONTINUOUS
 70
0
 71
3
 72
11
 73
7
 74
0
 42
0.0000001
 43
0.0000001
 44
0.0000000001
 40
0.0
 40
0.0
 40
0.0
 40
0.0
 40
0.2858842438
 40
0.551883345
 40
0.7915106631
 40
1.0
 40
1.0
 40
1.0
 40
1.0
 10
-42.590946102
 20
251.850962187
 30
0.0
 10
-41.1640401746
 20
252.0053912904
 30
0.0
 10
-38.4190278609
 20
252.4050440914
 30
0.0
 10
-34.5433045597
 20
253.3068692191
 30
0.0
 10
-31.1435829496
 20
254.4639690475
 30
0.0
 10
-29.112446966
 20
255.4550405937
 30
0.0
 10
-28.2186432677
 20
255.9997172599
 30
0.0
  0
SPLINE
  5
2A9
100
AcDbEntity
  8
0
100
AcDbSpline
 62
7
  6
CONTINUOUS
 70
0
 71
3
 72
11
 73
7
 74
0
 42
0.0000001
 43
0.0000001
 44
0.0000000001
 40
0.0
 40
0.0
 40
0.0
 40
0.0
 40
0.2605364956
 40
0.5187368295
 40
0.7674499495
 40
1.0
 40
1.0
 40
1.0
 40
1.0
 10
-25.2298509748
 20
256.5484692483
 30
0.0
 10
-23.7156019761
 20
256.4740342036
 30
0.0
 10
-20.6942693883
 20
256.4351301229
 30
0.0
 10
-16.2322102304
 20
256.6952598091
 30
0.0
 10
-11.9630163643
 20
257.2643963318
 30
0.0
 10
-9.2224187853
 20
257.8621690877
 30
0.0
 10
-7.916621372
 20
258.2172810126
 30
0.0
  0
SPLINE
  5
2AA
100
AcDbEntity
  8
0
100
AcDbSpline
 62
7
  6
CONTINUOUS
 70
0
 71
3
 72
11
 73
7
 74
0
 42
0.0000001
 43
0.0000001
 44
0.0000000001
 40
0.0
 40
0.0
 40
0.0
 40
0.0
 40
0.2376677341
 40
0.4881754326
 40
0.7446688198
 40
1.0
 40
1.0
 40
1.0
 40
1.0
 10
-4.6216378283
 20
258.2742183891
 30
0.0
 10
-3.2523418722
 20
257.9678843787
 30
0.0
 10
-0.4097228733
 20
257.4687212054
 30
0.0
 10
3.9701637161
 20
257.0467004406
 30
0.0
 10
8.473222059
 20
256.9393149402
 30
0.0
 10
11.4946912966
 20
257.081780272
 30
0.0
 10
12.9967362806
 20
257.2090253815
 30
0.0
  0
SPLINE
  5
2AB
100
AcDbEntity
  8
0
100
AcDbSpline
 62
7
  6
CONTINUOUS
 70
0
 71
3
 72
11
 73
7
 74
0
 42
0.0000001
 43
0.0000001
 44
0.0000000001
 40
0.0
 40
0.0
 40
0.0
 40
0.0
 40
0.2140467744
 40
0.4559136705
 40
0.7201568796
 40
1.0
 40
1.0
 40
1.0
 40
1.0
 10
16.0962796997
 20
256.7654799467
 30
0.0
 10
17.0995134027
 20
256.2580192998
 30
0.0
 10
19.3228273679
 20
255.3465122306
 30
0.0
 10
22.9657636812
 20
254.3082697393
 30
0.0
 10
27.0270769618
 20
253.5410350004
 30
0.0
 10
29.8714725652
 20
253.2338017229
 30
0.0
 10
31.3375605677
 20
253.1284481466
 30
0.0
  0
SPLINE
  5
2AC
100
AcDbEntity
  8
0
100
AcDbSpline
 62
7
  6
CONTINUOUS
 70
0
 71
3
 72
12
 73
8
 74
0
 42
0.0000001
 43
0.0000001
 44
0.0000000001
 40
0.0
 40
0.0
 40
0.0
 40
0.0
 40
0.1904229236
 40
0.300547158
 40
0.4209967184
 40
0.6920341354
 40
1.0
 40
1.0
 40
1.0
 40
1.0
 10
33.7697864739
 20
252.2519456721
 30
0.0
 10
34.2124309187
 20
251.6187191085
 30
0.0
 10
35.0915452901
 20
250.744495925
 30
0.0
 10
36.4779206033
 20
249.7469125817
 30
0.0
 10
38.236891795
 20
248.7165786291
 30
0.0
 10
40.8495438069
 20
247.584948464
 30
0.0
 10
43.1025965401
 20
246.9044582047
 30
0.0
 10
44.3136272514
 20
246.5967802014
 30
0.0
  0
SPLINE
  5
2AD
100
AcDbEntity
  8
0
100
AcDbSpline
 62
7
  6
CONTINUOUS
 70
0
 71
3
 72
9
 73
5
 74
0
 42
0.0000001
 43
0.0000001
 44
0.0000000001
 40
0.0
 40
0.0
 40
0.0
 40
0.0
 40
0.2561024532
 40
1.0
 40
1.0
 40
1.0
 40
1.0
 10
44.3136272514
 20
246.5967802014
 30
0.0
 10
44.4364326834
 20
246.5009737051
 30
0.0
 10
44.9125136414
 20
246.1225101884
 30
0.0
 10
45.3745013715
 20
245.7262077155
 30
0.0
 10
45.7082512988
 20
245.4207602435
 30
0.0
  0
SPLINE
  5
2AE
100
AcDbEntity
  8
0
100
AcDbSpline
 62
7
  6
CONTINUOUS
 70
0
 71
3
 72
10
 73
6
 74
0
 42
0.0000001
 43
0.0000001
 44
0.0000000001
 40
0.0
 40
0.0
 40
0.0
 40
0.0
 40
0.2872774555
 40
0.5481202325
 40
1.0
 40
1.0
 40
1.0
 40
1.0
 10
-57.8962325145
 20
236.7448334345
 30
0.0
 10
-57.5381207913
 20
236.9926661082
 30
0.0
 10
-56.875838348
 20
237.4988711443
 30
0.0
 10
-55.7877921484
 20
238.5545108763
 30
0.0
 10
-55.1682613068
 20
239.4747713227
 30
0.0
 10
-54.9190771289
 20
240.112881834
 30
0.0
  0
SPLINE
  5
2AF
100
AcDbEntity
  8
0
100
AcDbSpline
 62
7
  6
CONTINUOUS
 70
0
 71
3
 72
9
 73
5
 74
0
 42
0.0000001
 43
0.0000001
 44
0.0000000001
 40
0.0
 40
0.0
 40
0.0
 40
0.0
 40
0.2568792383
 40
1.0
 40
1.0
 40
1.0
 40
1.0
 10
-54.9190771289
 20
240.112881834
 30
0.0
 10
-54.8737944127
 20
240.2288417535
 30
0.0
 10
-54.7156672904
 20
240.6870430372
 30
0.0
 10
-54.6366187453
 20
241.1732763466
 30
0.0
 10
-54.6297740784
 20
241.5333397121
 30
0.0
  0
SPLINE
  5
2B0
100
AcDbEntity
  8
0
100
AcDbSpline
 62
7
  6
CONTINUOUS
 70
0
 71
3
 72
9
 73
5
 74
0
 42
0.0000001
 43
0.0000001
 44
0.0000000001
 40
0.0
 40
0.0
 40
0.0
 40
0.0
 40
0.2439482134
 40
1.0
 40
1.0
 40
1.0
 40
1.0
 10
-55.1891010325
 20
243.6772521331
 30
0.0
 10
-55.102384395
 20
243.7808159595
 30
0.0
 10
-54.7415073693
 20
244.2008069433
 30
0.0
 10
-54.3598009985
 20
244.6027799205
 30
0.0
 10
-54.0618538558
 20
244.8968500723
 30
0.0
  0
SPLINE
  5
2B1
100
AcDbEntity
  8
0
100
AcDbSpline
 62
7
  6
CONTINUOUS
 70
0
 71
3
 72
12
 73
8
 74
0
 42
0.0000001
 43
0.0000001
 44
0.0000000001
 40
0.0
 40
0.0
 40
0.0
 40
0.0
 40
0.3137423107
 40
0.5851897678
 40
0.7043829382
 40
0.8127165566
 40
1.0
 40
1.0
 40
1.0
 40
1.0
 10
-54.0618538558
 20
244.8968500723
 30
0.0
 10
-52.9333530462
 20
245.2422637532
 30
0.0
 10
-50.8575030044
 20
245.9895051021
 30
0.0
 10
-48.4925093286
 20
247.2102157151
 30
0.0
 10
-46.9611095378
 20
248.3028935994
 30
0.0
 10
-45.7997805441
 20
249.345133256
 30
0.0
 10
-45.1151238096
 20
250.2549248578
 30
0.0
 10
-44.8185306111
 20
250.8939381025
 30
0.0
  0
SPLINE
  5
2B2
100
AcDbEntity
  8
0
100
AcDbSpline
 62
7
  6
CONTINUOUS
 70
0
 71
3
 72
12
 73
8
 74
0
 42
0.0000001
 43
0.0000001
 44
0.0000000001
 40
0.0
 40
0.0
 40
0.0
 40
0.0
 40
0.0995033332
 40
0.2078245054
 40
0.4484551888
 40
0.7154146157
 40
1.0
 40
1.0
 40
1.0
 40
1.0
 10
-32.7452442146
 20
229.3501297395
 30
0.0
 10
-32.0438986868
 20
228.9421814499
 30
0.0
 10
-30.5359897502
 20
228.1631032322
 30
0.0
 10
-27.1612084625
 20
226.7477716524
 30
0.0
 10
-22.3398247322
 20
225.2930694624
 30
0.0
 10
-15.9874949314
 20
224.0762677917
 30
0.0
 10
-11.5062785012
 20
223.6245393123
 30
0.0
 10
-9.1899666869
 20
223.4844969263
 30
0.0
  0
SPLINE
  5
2B3
100
AcDbEntity
  8
0
100
AcDbSpline
 62
7
  6
CONTINUOUS
 70
0
 71
3
 72
14
 73
10
 74
0
 42
0.0000001
 43
0.0000001
 44
0.0000000001
 40
0.0
 40
0.0
 40
0.0
 40
0.0
 40
0.2780104695
 40
0.4151618311
 40
0.5481098654
 40
0.6747867819
 40
0.7933238392
 40
0.9021294225
 40
1.0
 40
1.0
 40
1.0
 40
1.0
 10
-9.1899666869
 20
223.4844969263
 30
0.0
 10
-5.9928955503
 20
223.2912045261
 30
0.0
 10
-1.1973291772
 20
223.2650047544
 30
0.0
 10
5.1011558944
 20
223.746391187
 30
0.0
 10
9.6344567453
 20
224.3559534179
 30
0.0
 10
13.9110483404
 20
225.2032471802
 30
0.0
 10
17.8511522314
 20
226.2721310545
 30
0.0
 10
21.380668118
 20
227.5418470976
 30
0.0
 10
23.5378246798
 20
228.5636441247
 30
0.0
 10
24.5233490742
 20
229.1114665503
 30
0.0
  0
SPLINE
  5
2B4
100
AcDbEntity
  8
0
100
AcDbSpline
 62
7
  6
CONTINUOUS
 70
0
 71
3
 72
11
 73
7
 74
0
 42
0.0000001
 43
0.0000001
 44
0.0000000001
 40
0.0
 40
0.0
 40
0.0
 40
0.0
 40
0.281321062
 40
0.5441503179
 40
0.7846654155
 40
1.0
 40
1.0
 40
1.0
 40
1.0
 10
12.1191872641
 20
252.4325790984
 30
0.0
 10
13.9450889217
 20
252.1385809274
 30
0.0
 10
17.4605408111
 20
251.4598355189
 30
0.0
 10
22.4475809581
 20
250.1213299799
 30
0.0
 10
26.8984761193
 20
248.5193985743
 30
0.0
 10
29.6085182437
 20
247.2213235912
 30
0.0
 10
30.8402421693
 20
246.5235855745
 30
0.0
  0
SPLINE
  5
2B5
100
AcDbEntity
  8
0
100
AcDbSpline
 62
7
  6
CONTINUOUS
 70
0
 71
3
 72
10
 73
6
 74
0
 42
0.0000001
 43
0.0000001
 44
0.0000000001
 40
0.0
 40
0.0
 40
0.0
 40
0.0
 40
0.2235001486
 40
0.4654100372
 40
1.0
 40
1.0
 40
1.0
 40
1.0
 10
-45.1139174593
 20
226.2772415932
 30
0.0
 10
-44.2268547139
 20
225.7507318124
 30
0.0
 10
-42.3285467441
 20
224.7391334481
 30
0.0
 10
-38.1022319775
 20
222.8773867105
 30
0.0
 10
-34.6857430123
 20
221.7596021632
 30
0.0
 10
-32.3074090792
 20
221.1027920607
 30
0.0
  0
SPLINE
  5
2B6
100
AcDbEntity
  8
0
100
AcDbSpline
 62
7
  6
CONTINUOUS
 70
0
 71
3
 72
9
 73
5
 74
0
 42
0.0000001
 43
0.0000001
 44
0.0000000001
 40
0.0
 40
0.0
 40
0.0
 40
0.0
 40
0.4867811439
 40
1.0
 40
1.0
 40
1.0
 40
1.0
 10
-32.3074090792
 20
221.1027920607
 30
0.0
 10
-30.6008813234
 20
220.6315106084
 30
0.0
 10
-27.0613496216
 20
219.7833827173
 30
0.0
 10
-23.4787717647
 20
219.144871535
 30
0.0
 10
-21.6331714465
 20
218.8659297398
 30
0.0
  0
LINE
  5
2B7
100
AcDbEntity
  8
0
100
AcDbLine
 62
7
  6
CONTINUOUS
 10
-58.1817047404
 20
221.7887145735
 11
-57.8962325145
 21
236.7448334345
  0
LINE
  5
2B8
100
AcDbEntity
  8
0
100
AcDbLine
 62
7
  6
CONTINUOUS
 10
-53.8023135205
 20
213.6346683148
 11
-53.5103326861
 21
228.6359829084
  0
SPLINE
  5
2B9
100
AcDbEntity
  8
0
100
AcDbSpline
 62
7
  6
CONTINUOUS
 70
0
 71
3
 72
12
 73
8
 74
0
 42
0.0000001
 43
0.0000001
 44
0.0000000001
 40
0.0
 40
0.0
 40
0.0
 40
0.0
 40
0.1000437047
 40
0.2033111219
 40
0.4289086217
 40
0.6922431334
 40
1.0
 40
1.0
 40
1.0
 40
1.0
 10
45.5161350964
 20
244.127839525
 30
0.0
 10
45.520774076
 20
243.8817641916
 30
0.0
 10
45.5786710133
 20
243.3813968014
 30
0.0
 10
45.8921051118
 20
242.3684767201
 30
0.0
 10
46.6791083878
 20
241.1137256007
 30
0.0
 10
48.1106326321
 20
239.7563898378
 30
0.0
 10
49.2914860614
 20
238.9829926807
 30
0.0
 10
49.9494478076
 20
238.6084087808
 30
0.0
  0
SPLINE
  5
2BA
100
AcDbEntity
  8
0
100
AcDbSpline
 62
7
  6
CONTINUOUS
 70
0
 71
3
 72
9
 73
5
 74
0
 42
0.0000001
 43
0.0000001
 44
0.0000000001
 40
0.0
 40
0.0
 40
0.0
 40
0.0
 40
0.4859461023
 40
1.0
 40
1.0
 40
1.0
 40
1.0
 10
46.8276905548
 20
232.3764242301
 30
0.0
 10
46.8341120645
 20
232.0380730709
 30
0.0
 10
46.9409662601
 20
231.3409813348
 30
0.0
 10
47.2151827013
 20
230.6935392089
 30
0.0
 10
47.3870196453
 20
230.3794910188
 30
0.0
  0
LINE
  5
2BB
100
AcDbEntity
  8
0
100
AcDbLine
 62
7
  6
CONTINUOUS
 10
47.3870196453
 20
230.3794910188
 11
47.6814768043
 21
215.3883100855
  0
LINE
  5
2BC
100
AcDbEntity
  8
0
100
AcDbLine
 62
7
  6
CONTINUOUS
 10
50.3796233532
 20
222.2977201806
 11
50.0941511272
 21
237.3119097175
  0
SPLINE
  5
2BD
100
AcDbEntity
  8
0
100
AcDbSpline
 62
7
  6
CONTINUOUS
 70
0
 71
3
 72
20
 73
16
 74
0
 42
0.0000001
 43
0.0000001
 44
0.0000000001
 40
0.0
 40
0.0
 40
0.0
 40
0.0
 40
0.0352749522
 40
0.071906401
 40
0.1111853141
 40
0.154089555
 40
0.2012743297
 40
0.2531147213
 40
0.3097637973
 40
0.3712066756
 40
0.4372946239
 40
0.5077744392
 40
0.6604643204
 40
0.8259112516
 40
1.0
 40
1.0
 40
1.0
 40
1.0
 10
-58.2363342858
 20
219.4449411106
 30
0.0
 10
-58.2484419997
 20
218.8078040363
 30
0.0
 10
-58.1227148796
 20
217.5016766186
 30
0.0
 10
-57.4901313358
 20
215.5804370758
 30
0.0
 10
-56.4274086248
 20
213.7018443896
 30
0.0
 10
-54.9505843181
 20
211.8792146992
 30
0.0
 10
-53.0741730475
 20
210.1222213471
 30
0.0
 10
-50.8133326328
 20
208.4413229545
 30
0.0
 10
-48.1852159349
 20
206.8474439281
 30
0.0
 10
-45.2095510943
 20
205.352166675
 30
0.0
 10
-41.9090565822
 20
203.9665349357
 30
0.0
 10
-36.976634241
 20
202.2334728391
 30
0.0
 10
-30.1754612567
 20
200.4440668142
 30
0.0
 10
-21.4050449946
 20
198.9269565686
 30
0.0
 10
-15.2924970036
 20
198.3427209802
 30
0.0
 10
-12.1532661519
 20
198.152925558
 30
0.0
  0
SPLINE
  5
2BE
100
AcDbEntity
  8
0
100
AcDbSpline
 62
7
  6
CONTINUOUS
 70
0
 71
3
 72
8
 73
4
 74
0
 42
0.0000001
 43
0.0000001
 44
0.0000000001
 40
0.0
 40
0.0
 40
0.0
 40
0.0
 40
1.0
 40
1.0
 40
1.0
 40
1.0
 10
-39.4664769346
 20
230.5131217207
 30
0.0
 10
-38.8413919449
 20
231.2218387965
 30
0.0
 10
-38.2162086626
 20
231.9304691957
 30
0.0
 10
-37.5909090475
 20
232.6389969151
 30
0.0
  0
SPLINE
  5
2BF
100
AcDbEntity
  8
0
100
AcDbSpline
 62
7
  6
CONTINUOUS
 70
0
 71
3
 72
20
 73
16
 74
0
 42
0.0000001
 43
0.0000001
 44
0.0000000001
 40
0.0
 40
0.0
 40
0.0
 40
0.0
 40
0.1658198908
 40
0.3297028963
 40
0.4852741893
 40
0.5581269897
 40
0.6268157254
 40
0.6908055444
 40
0.749679947
 40
0.8031774767
 40
0.8512428153
 40
0.8941002053
 40
0.9323555756
 40
0.9671094766
 40
1.0
 40
1.0
 40
1.0
 40
1.0
 10
-12.1532661519
 20
198.152925558
 30
0.0
 10
-8.2527616105
 20
197.9171041287
 30
0.0
 10
-0.473053626
 20
197.7840218461
 30
0.0
 10
10.9495034902
 20
198.549958886
 30
0.0
 10
20.0981238908
 20
199.9894804898
 30
0.0
 10
26.909529376
 20
201.624020758
 30
0.0
 10
31.548548714
 20
203.0271904282
 30
0.0
 10
35.7771533157
 20
204.6176056771
 30
0.0
 10
39.5476008901
 20
206.377350874
 30
0.0
 10
42.8180263354
 20
208.2870820876
 30
0.0
 10
45.5529452358
 20
210.3274735445
 30
0.0
 10
47.7225687737
 20
212.4804836593
 30
0.0
 10
49.2996290406
 20
214.7319054286
 30
0.0
 10
50.2526418526
 20
217.0641995031
 30
0.0
 10
50.4489445706
 20
218.6699989627
 30
0.0
 10
50.4342622302
 20
219.4449411578
 30
0.0
  0
SPLINE
  5
2C0
100
AcDbEntity
  8
0
100
AcDbSpline
 62
7
  6
CONTINUOUS
 70
0
 71
3
 72
11
 73
7
 74
0
 42
0.0000001
 43
0.0000001
 44
0.0000000001
 40
0.0
 40
0.0
 40
0.0
 40
0.0
 40
0.2169669791
 40
0.4576733048
 40
0.7197093637
 40
1.0
 40
1.0
 40
1.0
 40
1.0
 10
-38.6423235565
 20
224.7751537372
 30
0.0
 10
-37.5089343898
 20
224.1331196799
 30
0.0
 10
-35.031336876
 20
222.9301704303
 30
0.0
 10
-30.9777869545
 20
221.4200658556
 30
0.0
 10
-26.4523288276
 20
220.1315450784
 30
0.0
 10
-23.2647225799
 20
219.4553103434
 30
0.0
 10
-21.6089634737
 20
219.1549554308
 30
0.0
  0
LINE
  5
2C1
100
AcDbEntity
  8
0
100
AcDbLine
 62
7
  6
CONTINUOUS
 10
-21.6089634737
 20
219.1549554308
 11
-21.4847765457
 21
219.1325234732
  0
SPLINE
  5
2C2
100
AcDbEntity
  8
0
100
AcDbSpline
 62
7
  6
CONTINUOUS
 70
0
 71
3
 72
10
 73
6
 74
0
 42
0.0000001
 43
0.0000001
 44
0.0000000001
 40
0.0
 40
0.0
 40
0.0
 40
0.0
 40
0.2872774555
 40
0.5481202325
 40
1.0
 40
1.0
 40
1.0
 40
1.0
 10
50.0941511272
 20
237.3119097175
 30
0.0
 10
49.7360394041
 20
237.0640770437
 30
0.0
 10
49.0737569608
 20
236.5578720076
 30
0.0
 10
47.9857107611
 20
235.5022322757
 30
0.0
 10
47.3661799195
 20
234.5819718292
 30
0.0
 10
47.1169957417
 20
233.9438613179
 30
0.0
  0
SPLINE
  5
2C3
100
AcDbEntity
  8
0
100
AcDbSpline
 62
7
  6
CONTINUOUS
 70
0
 71
3
 72
9
 73
5
 74
0
 42
0.0000001
 43
0.0000001
 44
0.0000000001
 40
0.0
 40
0.0
 40
0.0
 40
0.0
 40
0.5075378937
 40
1.0
 40
1.0
 40
1.0
 40
1.0
 10
47.1169957417
 20
233.9438613179
 30
0.0
 10
47.0184298886
 20
233.6914540124
 30
0.0
 10
46.8678110918
 20
233.1754928592
 30
0.0
 10
46.8227015189
 20
232.6392979441
 30
0.0
 10
46.8276905548
 20
232.3764242301
 30
0.0
  0
SPLINE
  5
2C4
100
AcDbEntity
  8
0
100
AcDbSpline
 62
7
  6
CONTINUOUS
 70
0
 71
3
 72
9
 73
5
 74
0
 42
0.0000001
 43
0.0000001
 44
0.0000000001
 40
0.0
 40
0.0
 40
0.0
 40
0.0
 40
0.49564354
 40
1.0
 40
1.0
 40
1.0
 40
1.0
 10
50.3819608489
 20
222.2027912422
 30
0.0
 10
50.3901615849
 20
221.7703693532
 30
0.0
 10
50.3387751106
 20
220.8953433782
 30
0.0
 10
50.1547121655
 20
220.0386905401
 30
0.0
 10
50.0318798361
 20
219.616076674
 30
0.0
  0
SPLINE
  5
2C5
100
AcDbEntity
  8
0
100
AcDbSpline
 62
7
  6
CONTINUOUS
 70
0
 71
3
 72
9
 73
5
 74
0
 42
0.0000001
 43
0.0000001
 44
0.0000000001
 40
0.0
 40
0.0
 40
0.0
 40
0.0
 40
0.4770863308
 40
1.0
 40
1.0
 40
1.0
 40
1.0
 10
50.0318798361
 20
219.616076674
 30
0.0
 10
49.8160370637
 20
218.8734533844
 30
0.0
 10
49.1662400827
 20
217.3708759574
 30
0.0
 10
48.2241103974
 20
216.0394961766
 30
0.0
 10
47.6814768048
 20
215.3883100863
 30
0.0
  0
SPLINE
  5
2C6
100
AcDbEntity
  8
0
100
AcDbSpline
 62
7
  6
CONTINUOUS
 70
0
 71
3
 72
11
 73
7
 74
0
 42
0.0000001
 43
0.0000001
 44
0.0000000001
 40
0.0
 40
0.0
 40
0.0
 40
0.0
 40
0.3018706251
 40
0.5658275665
 40
0.7956619056
 40
1.0
 40
1.0
 40
1.0
 40
1.0
 10
-58.0294335558
 20
220.4244096746
 30
0.0
 10
-57.4541193204
 20
220.0990482455
 30
0.0
 10
-56.4072357205
 20
219.4289709897
 30
0.0
 10
-55.0912739761
 20
218.2743883675
 30
0.0
 10
-54.156520464
 20
217.04930305
 30
0.0
 10
-53.7927216074
 20
216.1532271244
 30
0.0
 10
-53.6957607487
 20
215.7164634122
 30
0.0
  0
SPLINE
  5
2C7
100
AcDbEntity
  8
0
100
AcDbSpline
 62
7
  6
CONTINUOUS
 70
0
 71
3
 72
11
 73
7
 74
0
 42
0.0000001
 43
0.0000001
 44
0.0000000001
 40
0.0
 40
0.0
 40
0.0
 40
0.0
 40
0.2807639256
 40
0.5382147941
 40
0.7761529648
 40
1.0
 40
1.0
 40
1.0
 40
1.0
 10
-53.8023135223
 20
213.6346683164
 30
0.0
 10
-54.3623218011
 20
214.1492127958
 30
0.0
 10
-55.3843000473
 20
215.1947670405
 30
0.0
 10
-56.6438339604
 20
216.8873406912
 30
0.0
 10
-57.548142838
 20
218.623191527
 30
0.0
 10
-57.9144360608
 20
219.8290818713
 30
0.0
 10
-58.0294335558
 20
220.4244096746
 30
0.0
  0
SPLINE
  5
2C8
100
AcDbEntity
  8
0
100
AcDbSpline
 62
7
  6
CONTINUOUS
 70
0
 71
3
 72
12
 73
8
 74
0
 42
0.0000001
 43
0.0000001
 44
0.0000000001
 40
0.0
 40
0.0
 40
0.0
 40
0.0
 40
0.3084141503
 40
0.579631872
 40
0.70004497
 40
0.8100447635
 40
1.0
 40
1.0
 40
1.0
 40
1.0
 10
-52.3347517811
 20
212.3971434796
 30
0.0
 10
-51.1251049092
 20
212.0919125516
 30
0.0
 10
-48.8753910504
 20
211.4158813575
 30
0.0
 10
-46.2674417682
 20
210.2885481223
 30
0.0
 10
-44.5139347829
 20
209.2607076791
 30
0.0
 10
-43.1350302254
 20
208.2659386764
 30
0.0
 10
-42.262516817
 20
207.3930347282
 30
0.0
 10
-41.8259058722
 20
206.7607474283
 30
0.0
  0
SPLINE
  5
2C9
100
AcDbEntity
  8
0
100
AcDbSpline
 62
7
  6
CONTINUOUS
 70
0
 71
3
 72
10
 73
6
 74
0
 42
0.0000001
 43
0.0000001
 44
0.0000000001
 40
0.0
 40
0.0
 40
0.0
 40
0.0
 40
0.5364412213
 40
0.7775118495
 40
1.0
 40
1.0
 40
1.0
 40
1.0
 10
-41.8259058722
 20
206.7607474283
 30
0.0
 10
-43.8223773875
 20
207.5278112999
 30
0.0
 10
-46.6670402413
 20
208.7876785464
 30
0.0
 10
-50.1166511419
 20
210.7926511159
 30
0.0
 10
-51.6344257368
 20
211.8527218707
 30
0.0
 10
-52.3347517811
 20
212.3971434796
 30
0.0
  0
SPLINE
  5
2CA
100
AcDbEntity
  8
0
100
AcDbSpline
 62
7
  6
CONTINUOUS
 70
0
 71
3
 72
11
 73
7
 74
0
 42
0.0000001
 43
0.0000001
 44
0.0000000001
 40
0.0
 40
0.0
 40
0.0
 40
0.0
 40
0.2800672571
 40
0.5444605565
 40
0.7862816198
 40
1.0
 40
1.0
 40
1.0
 40
1.0
 10
-39.2664765465
 20
205.8384045936
 30
0.0
 10
-37.8038060803
 20
205.7351471718
 30
0.0
 10
-34.9662693826
 20
205.4314942656
 30
0.0
 10
-30.9159465584
 20
204.6680482338
 30
0.0
 10
-27.2861342761
 20
203.6322254315
 30
0.0
 10
-25.0729377743
 20
202.7210840399
 30
0.0
 10
-24.0757812883
 20
202.213444054
 30
0.0
  0
SPLINE
  5
2CB
100
AcDbEntity
  8
0
100
AcDbSpline
 62
7
  6
CONTINUOUS
 70
0
 71
3
 72
9
 73
5
 74
0
 42
0.0000001
 43
0.0000001
 44
0.0000000001
 40
0.0
 40
0.0
 40
0.0
 40
0.0
 40
0.5199390979
 40
1.0
 40
1.0
 40
1.0
 40
1.0
 10
-24.0757812883
 20
202.213444054
 30
0.0
 10
-26.7518376037
 20
202.6349690888
 30
0.0
 10
-31.8723395938
 20
203.6269770511
 30
0.0
 10
-36.8968182275
 20
205.0377252188
 30
0.0
 10
-39.2664765465
 20
205.8384045936
 30
0.0
  0
SPLINE
  5
2CC
100
AcDbEntity
  8
0
100
AcDbSpline
 62
7
  6
CONTINUOUS
 70
0
 71
3
 72
11
 73
7
 74
0
 42
0.0000001
 43
0.0000001
 44
0.0000000001
 40
0.0
 40
0.0
 40
0.0
 40
0.0
 40
0.2553458935
 40
0.5119260889
 40
0.7624679036
 40
1.0
 40
1.0
 40
1.0
 40
1.0
 10
-20.8141342916
 20
201.7467015568
 30
0.0
 10
-19.31705997
 20
201.8754458812
 30
0.0
 10
-16.3049120234
 20
202.020205643
 30
0.0
 10
-11.8156339646
 20
201.9145326256
 30
0.0
 10
-7.4501654611
 20
201.4926099185
 30
0.0
 10
-4.6178173022
 20
200.9923139985
 30
0.0
 10
-3.2542353334
 20
200.6850439108
 30
0.0
  0
LINE
  5
2CD
100
AcDbEntity
  8
0
100
AcDbLine
 62
7
  6
CONTINUOUS
 10
0.1145399847
 20
215.8394621393
 11
0.2130731441
 21
200.7449590653
  0
LINE
  5
2CE
100
AcDbEntity
  8
0
100
AcDbLine
 62
7
  6
CONTINUOUS
 10
17.4688403729
 20
202.4082320662
 11
17.4277695875
 21
217.5082739037
  0
LINE
  5
2CF
100
AcDbEntity
  8
0
100
AcDbLine
 62
7
  6
CONTINUOUS
 10
20.4165618805
 20
218.057025892
 11
20.6139440445
 21
202.9856833322
  0
LINE
  5
2D0
100
AcDbEntity
  8
0
100
AcDbLine
 62
7
  6
CONTINUOUS
 10
34.9385454007
 20
207.1206687435
 11
34.7888647148
 21
222.2057809649
  0
LINE
  5
2D1
100
AcDbEntity
  8
0
100
AcDbLine
 62
7
  6
CONTINUOUS
 10
37.0164492238
 20
223.1628050494
 11
37.2826307474
 21
208.1277444005
  0
LINE
  5
2D2
100
AcDbEntity
  8
0
100
AcDbLine
 62
7
  6
CONTINUOUS
 10
46.4952755274
 20
214.1049281771
 11
46.2597724685
 21
229.1598930796
  0
SPLINE
  5
2D3
100
AcDbEntity
  8
0
100
AcDbSpline
 62
7
  6
CONTINUOUS
 70
0
 71
3
 72
9
 73
5
 74
0
 42
0.0000001
 43
0.0000001
 44
0.0000000001
 40
0.0
 40
0.0
 40
0.0
 40
0.0
 40
0.2439482134
 40
1.0
 40
1.0
 40
1.0
 40
1.0
 10
47.3870196453
 20
230.3794910188
 30
0.0
 10
47.3003030078
 20
230.2759271924
 30
0.0
 10
46.939425982
 20
229.8559362086
 30
0.0
 10
46.5577196112
 20
229.4539632315
 30
0.0
 10
46.2597724685
 20
229.1598930796
 30
0.0
  0
SPLINE
  5
2D4
100
AcDbEntity
  8
0
100
AcDbSpline
 62
7
  6
CONTINUOUS
 70
0
 71
3
 72
12
 73
8
 74
0
 42
0.0000001
 43
0.0000001
 44
0.0000000001
 40
0.0
 40
0.0
 40
0.0
 40
0.0
 40
0.3137423107
 40
0.5851897678
 40
0.7043829382
 40
0.8127165566
 40
1.0
 40
1.0
 40
1.0
 40
1.0
 10
46.2597724685
 20
229.1598930796
 30
0.0
 10
45.1312716589
 20
228.8144793988
 30
0.0
 10
43.0554216171
 20
228.0672380498
 30
0.0
 10
40.6904279414
 20
226.8465274368
 30
0.0
 10
39.1590281506
 20
225.7538495526
 30
0.0
 10
37.9976991569
 20
224.711609896
 30
0.0
 10
37.3130424223
 20
223.8018182942
 30
0.0
 10
37.0164492238
 20
223.1628050494
 30
0.0
  0
SPLINE
  5
2D5
100
AcDbEntity
  8
0
100
AcDbSpline
 62
7
  6
CONTINUOUS
 70
0
 71
3
 72
11
 73
7
 74
0
 42
0.0000001
 43
0.0000001
 44
0.0000000001
 40
0.0
 40
0.0
 40
0.0
 40
0.0
 40
0.2858842438
 40
0.551883345
 40
0.7915106631
 40
1.0
 40
1.0
 40
1.0
 40
1.0
 10
34.7888647148
 20
222.2057809649
 30
0.0
 10
33.3619587873
 20
222.0513518615
 30
0.0
 10
30.6169464736
 20
221.6516990606
 30
0.0
 10
26.7412231724
 20
220.7498739328
 30
0.0
 10
23.3415015624
 20
219.5927741044
 30
0.0
 10
21.3103655788
 20
218.6017025582
 30
0.0
 10
20.4165618805
 20
218.057025892
 30
0.0
  0
SPLINE
  5
2D6
100
AcDbEntity
  8
0
100
AcDbSpline
 62
7
  6
CONTINUOUS
 70
0
 71
3
 72
12
 73
8
 74
0
 42
0.0000001
 43
0.0000001
 44
0.0000000001
 40
0.0
 40
0.0
 40
0.0
 40
0.0
 40
0.1002786001
 40
0.2033608463
 40
0.4281403317
 40
0.6912363656
 40
1.0
 40
1.0
 40
1.0
 40
1.0
 10
-53.3182368952
 20
229.7819246456
 30
0.0
 10
-53.3134273267
 20
230.0334422382
 30
0.0
 10
-53.3541805921
 20
230.545814797
 30
0.0
 10
-53.6433527463
 20
231.5861229546
 30
0.0
 10
-54.4226455059
 20
232.8787270775
 30
0.0
 10
-55.8734135792
 20
234.273556008
 30
0.0
 10
-57.078392829
 20
235.0651114156
 30
0.0
 10
-57.7515291948
 20
235.4483343712
 30
0.0
  0
SPLINE
  5
2D7
100
AcDbEntity
  8
0
100
AcDbSpline
 62
7
  6
CONTINUOUS
 70
0
 71
3
 72
9
 73
5
 74
0
 42
0.0000001
 43
0.0000001
 44
0.0000000001
 40
0.0
 40
0.0
 40
0.0
 40
0.0
 40
0.4858415664
 40
1.0
 40
1.0
 40
1.0
 40
1.0
 10
-54.6297740784
 20
241.5333397121
 30
0.0
 10
-54.622894957
 20
241.8952155545
 30
0.0
 10
-54.7162573674
 20
242.6454494616
 30
0.0
 10
-55.0052396762
 20
243.3412281975
 30
0.0
 10
-55.1891010325
 20
243.6772521331
 30
0.0
  0
LINE
  5
2D8
100
AcDbEntity
  8
0
100
AcDbLine
 62
7
  6
CONTINUOUS
 10
-3.2542353289
 20
200.6850439108
 11
-3.1804435589
 21
215.7825247629
  0
SPLINE
  5
2D9
100
AcDbEntity
  8
0
100
AcDbSpline
 62
7
  6
CONTINUOUS
 70
0
 71
3
 72
11
 73
7
 74
0
 42
0.0000001
 43
0.0000001
 44
0.0000000001
 40
0.0
 40
0.0
 40
0.0
 40
0.0
 40
0.2323714486
 40
0.4811024809
 40
0.739404199
 40
1.0
 40
1.0
 40
1.0
 40
1.0
 10
0.2130731462
 20
200.7449590654
 30
0.0
 10
1.5130222056
 20
201.1008388361
 30
0.0
 10
4.2432471503
 20
201.6994007664
 30
0.0
 10
8.4981027133
 20
202.2679094373
 30
0.0
 10
12.9468206719
 20
202.5258286689
 30
0.0
 10
15.9592692283
 20
202.4843160696
 30
0.0
 10
17.4688403687
 20
202.4082320655
 30
0.0
  0
SPLINE
  5
2DA
100
AcDbEntity
  8
0
100
AcDbSpline
 62
7
  6
CONTINUOUS
 70
0
 71
3
 72
9
 73
5
 74
0
 42
0.0000001
 43
0.0000001
 44
0.0000000001
 40
0.0
 40
0.0
 40
0.0
 40
0.0
 40
0.4915606992
 40
1.0
 40
1.0
 40
1.0
 40
1.0
 10
17.4688403687
 20
202.4082320655
 30
0.0
 10
14.6661813871
 20
201.9359736597
 30
0.0
 10
8.926928318
 20
201.1908016553
 30
0.0
 10
3.1515193501
 20
200.8328386253
 30
0.0
 10
0.2130731462
 20
200.7449590654
 30
0.0
  0
SPLINE
  5
2DB
100
AcDbEntity
  8
0
100
AcDbSpline
 62
7
  6
CONTINUOUS
 70
0
 71
3
 72
11
 73
7
 74
0
 42
0.0000001
 43
0.0000001
 44
0.0000000001
 40
0.0
 40
0.0
 40
0.0
 40
0.0
 40
0.2081192241
 40
0.4476789955
 40
0.7138407782
 40
1.0
 40
1.0
 40
1.0
 40
1.0
 10
20.6139440463
 20
202.9856833327
 30
0.0
 10
21.5016539508
 20
203.5303603492
 30
0.0
 10
23.5229164899
 20
204.5207674625
 30
0.0
 10
26.9101380127
 20
205.6749635995
 30
0.0
 10
30.7757693603
 20
206.5726037302
 30
0.0
 10
33.5146342331
 20
206.968438489
 30
0.0
 10
34.9385453975
 20
207.1206687423
 30
0.0
  0
SPLINE
  5
2DC
100
AcDbEntity
  8
0
100
AcDbSpline
 62
7
  6
CONTINUOUS
 70
0
 71
3
 72
9
 73
5
 74
0
 42
0.0000001
 43
0.0000001
 44
0.0000000001
 40
0.0
 40
0.0
 40
0.0
 40
0.0
 40
0.4764761802
 40
1.0
 40
1.0
 40
1.0
 40
1.0
 10
34.9385453975
 20
207.1206687423
 30
0.0
 10
32.7398345946
 20
206.2346607995
 30
0.0
 10
28.0138824564
 20
204.6481088895
 30
0.0
 10
23.1683575472
 20
203.4944211691
 30
0.0
 10
20.6139440463
 20
202.9856833327
 30
0.0
  0
SPLINE
  5
2DD
100
AcDbEntity
  8
0
100
AcDbSpline
 62
7
  6
CONTINUOUS
 70
0
 71
3
 72
12
 73
8
 74
0
 42
0.0000001
 43
0.0000001
 44
0.0000000001
 40
0.0
 40
0.0
 40
0.0
 40
0.0
 40
0.1868271528
 40
0.2950190644
 40
0.4141578849
 40
0.6857722472
 40
1.0
 40
1.0
 40
1.0
 40
1.0
 10
37.2826307487
 20
208.1277444012
 30
0.0
 10
37.5733548213
 20
208.7653382584
 30
0.0
 10
38.2516702961
 20
209.6737861571
 30
0.0
 10
39.4063144806
 20
210.7130422392
 30
0.0
 10
40.9328959833
 20
211.8031008984
 30
0.0
 10
43.2942799834
 20
213.0193526991
 30
0.0
 10
45.3676698627
 20
213.7620004032
 30
0.0
 10
46.4952755257
 20
214.1049281755
 30
0.0
  0
SPLINE
  5
2DE
100
AcDbEntity
  8
0
100
AcDbSpline
 62
7
  6
CONTINUOUS
 70
0
 71
3
 72
10
 73
6
 74
0
 42
0.0000001
 43
0.0000001
 44
0.0000000001
 40
0.0
 40
0.0
 40
0.0
 40
0.0
 40
0.2202385315
 40
0.4602059347
 40
1.0
 40
1.0
 40
1.0
 40
1.0
 10
46.4952755257
 20
214.1049281755
 30
0.0
 10
45.9178979954
 20
213.5374232058
 30
0.0
 10
44.6374573022
 20
212.4255353237
 30
0.0
 10
41.6331893357
 20
210.30041019
 30
0.0
 10
39.0865285561
 20
208.9543092531
 30
0.0
 10
37.2826307487
 20
208.1277444012
 30
0.0
  0
SPLINE
  5
2DF
100
AcDbEntity
  8
0
100
AcDbSpline
 62
7
  6
CONTINUOUS
 70
0
 71
3
 72
11
 73
7
 74
0
 42
0.0000001
 43
0.0000001
 44
0.0000000001
 40
0.0
 40
0.0
 40
0.0
 40
0.0
 40
0.2126447572
 40
0.4525616782
 40
0.7164937872
 40
1.0
 40
1.0
 40
1.0
 40
1.0
 10
37.3118360723
 20
247.7795015588
 30
0.0
 10
35.8029450456
 20
248.6750930913
 30
0.0
 10
32.4431412611
 20
250.3333308417
 30
0.0
 10
26.8779461578
 20
252.3534647271
 30
0.0
 10
20.5903993435
 20
254.0186756012
 30
0.0
 10
16.1441969046
 20
254.841203543
 30
0.0
 10
13.8310845557
 20
255.1908045469
 30
0.0
  0
SPLINE
  5
2E0
100
AcDbEntity
  8
0
100
AcDbSpline
 62
7
  6
CONTINUOUS
 70
0
 71
3
 72
9
 73
5
 74
0
 42
0.0000001
 43
0.0000001
 44
0.0000000001
 40
0.0
 40
0.0
 40
0.0
 40
0.0
 40
0.4571449904
 40
1.0
 40
1.0
 40
1.0
 40
1.0
 10
47.5646817615
 20
219.3184300986
 30
0.0
 10
47.8392284032
 20
219.874689947
 30
0.0
 10
48.665282839
 20
220.9806745868
 30
0.0
 10
49.7243102647
 20
221.8433308756
 30
0.0
 10
50.3295806341
 20
222.2631734809
 30
0.0
  0
SPLINE
  5
2E1
100
AcDbEntity
  8
0
100
AcDbSpline
 62
7
  6
CONTINUOUS
 70
0
 71
3
 72
11
 73
7
 74
0
 42
0.0000001
 43
0.0000001
 44
0.0000000001
 40
0.0
 40
0.0
 40
0.0
 40
0.0
 40
0.2605364956
 40
0.5187368295
 40
0.7674499495
 40
1.0
 40
1.0
 40
1.0
 40
1.0
 10
17.4277695875
 20
217.5082739037
 30
0.0
 10
15.9135205889
 20
217.5827089483
 30
0.0
 10
12.892188001
 20
217.6216130291
 30
0.0
 10
8.4301288432
 20
217.3614833428
 30
0.0
 10
4.1609349771
 20
216.7923468202
 30
0.0
 10
1.420337398
 20
216.1945740642
 30
0.0
 10
0.1145399848
 20
215.8394621393
 30
0.0
  0
SPLINE
  5
2E2
100
AcDbEntity
  8
0
100
AcDbSpline
 62
7
  6
CONTINUOUS
 70
0
 71
3
 72
11
 73
7
 74
0
 42
0.0000001
 43
0.0000001
 44
0.0000000001
 40
0.0
 40
0.0
 40
0.0
 40
0.0
 40
0.2376677341
 40
0.4881754326
 40
0.7446688198
 40
1.0
 40
1.0
 40
1.0
 40
1.0
 10
-3.1804435589
 20
215.7825247629
 30
0.0
 10
-4.5497395151
 20
216.0888587732
 30
0.0
 10
-7.3923585139
 20
216.5880219466
 30
0.0
 10
-11.7722451033
 20
217.0100427113
 30
0.0
 10
-16.2753034463
 20
217.1174282118
 30
0.0
 10
-19.2967726839
 20
216.9749628799
 30
0.0
 10
-20.7988176679
 20
216.8477177704
 30
0.0
  0
SPLINE
  5
2E3
100
AcDbEntity
  8
0
100
AcDbSpline
 62
7
  6
CONTINUOUS
 70
0
 71
3
 72
11
 73
7
 74
0
 42
0.0000001
 43
0.0000001
 44
0.0000000001
 40
0.0
 40
0.0
 40
0.0
 40
0.0
 40
0.281321062
 40
0.5441503179
 40
0.7846654155
 40
1.0
 40
1.0
 40
1.0
 40
1.0
 10
-19.9212686514
 20
221.6241640536
 30
0.0
 10
-21.7471703089
 20
221.9181622245
 30
0.0
 10
-25.2626221984
 20
222.5969076331
 30
0.0
 10
-30.2496623453
 20
223.9354131721
 30
0.0
 10
-34.7005575065
 20
225.5373445776
 30
0.0
 10
-37.4105996309
 20
226.8354195607
 30
0.0
 10
-38.6423235565
 20
227.5331575775
 30
0.0
  0
LINE
  5
2E4
100
AcDbEntity
  8
0
100
AcDbLine
 62
7
  6
CONTINUOUS
 10
13.8325274979
 20
255.1906849777
 11
13.8449534011
 21
252.4526841443
  0
SPLINE
  5
2E5
100
AcDbEntity
  8
0
100
AcDbSpline
 62
7
  6
CONTINUOUS
 70
0
 71
3
 72
11
 73
7
 74
0
 42
0.0000001
 43
0.0000001
 44
0.0000000001
 40
0.0
 40
0.0
 40
0.0
 40
0.0
 40
0.2140467744
 40
0.4559136705
 40
0.7201568796
 40
1.0
 40
1.0
 40
1.0
 40
1.0
 10
-23.8983610869
 20
217.2912632053
 30
0.0
 10
-24.90159479
 20
217.7987238521
 30
0.0
 10
-27.1249087552
 20
218.7102309214
 30
0.0
 10
-30.7678450685
 20
219.7484734126
 30
0.0
 10
-34.829158349
 20
220.5157081516
 30
0.0
 10
-37.6735539525
 20
220.8229414291
 30
0.0
 10
-39.1396419549
 20
220.9282950053
 30
0.0
  0
LINE
  5
2E6
100
AcDbEntity
  8
0
100
AcDbLine
 62
7
  6
CONTINUOUS
 10
-57.7515291948
 20
235.4483343712
 11
-58.0042639878
 21
221.7854397101
  0
SPLINE
  5
2E7
100
AcDbEntity
  8
0
100
AcDbSpline
 62
7
  6
CONTINUOUS
 70
0
 71
3
 72
12
 73
8
 74
0
 42
0.0000001
 43
0.0000001
 44
0.0000000001
 40
0.0
 40
0.0
 40
0.0
 40
0.0
 40
0.1904229236
 40
0.300547158
 40
0.4209967184
 40
0.6920341354
 40
1.0
 40
1.0
 40
1.0
 40
1.0
 10
-41.5718678612
 20
221.8047974798
 30
0.0
 10
-42.014512306
 20
222.4380240435
 30
0.0
 10
-42.8936266773
 20
223.3122472269
 30
0.0
 10
-44.2800019906
 20
224.3098305703
 30
0.0
 10
-46.0389731822
 20
225.3401645228
 30
0.0
 10
-48.6516251942
 20
226.471794688
 30
0.0
 10
-50.9046779273
 20
227.1522849473
 30
0.0
 10
-52.1157086386
 20
227.4599629505
 30
0.0
  0
LINE
  5
2E8
100
AcDbEntity
  8
0
100
AcDbLine
 62
7
  6
CONTINUOUS
 10
-52.1157086387
 20
227.4599629505
 11
-52.3347517836
 21
212.3971434812
  0
LINE
  5
2E9
100
AcDbEntity
  8
0
100
AcDbLine
 62
7
  6
CONTINUOUS
 10
-41.8259058671
 20
206.7607474264
 11
-41.5718678612
 21
221.8047974798
  0
LINE
  5
2EA
100
AcDbEntity
  8
0
100
AcDbLine
 62
7
  6
CONTINUOUS
 10
-39.1396419549
 20
220.9282950053
 11
-39.2664765482
 21
205.8384045941
  0
LINE
  5
2EB
100
AcDbEntity
  8
0
100
AcDbLine
 62
7
  6
CONTINUOUS
 10
-24.0757812841
 20
202.2134440534
 11
-23.8983610869
 21
217.2912632053
  0
LINE
  5
2EC
100
AcDbEntity
  8
0
100
AcDbLine
 62
7
  6
CONTINUOUS
 10
-20.7988176679
 20
216.8477177704
 11
-20.8141342936
 21
201.7467015571
  0
SPLINE
  5
2ED
100
AcDbEntity
  8
0
100
AcDbSpline
 62
7
  6
CONTINUOUS
 70
0
 71
3
 72
9
 73
5
 74
0
 42
0.0000001
 43
0.0000001
 44
0.0000000001
 40
0.0
 40
0.0
 40
0.0
 40
0.0
 40
0.2561024532
 40
1.0
 40
1.0
 40
1.0
 40
1.0
 10
-52.1157086386
 20
227.4599629505
 30
0.0
 10
-52.2385140706
 20
227.5557694469
 30
0.0
 10
-52.7145950287
 20
227.9342329636
 30
0.0
 10
-53.1765827587
 20
228.3305354365
 30
0.0
 10
-53.5103326861
 20
228.6359829084
 30
0.0
  0
SPLINE
  5
2EE
100
AcDbEntity
  8
0
100
AcDbSpline
 62
7
  6
CONTINUOUS
 70
0
 71
3
 72
13
 73
9
 74
0
 42
0.0000001
 43
0.0000001
 44
0.0000000001
 40
0.0
 40
0.0
 40
0.0
 40
0.0
 40
0.2712578554
 40
0.5261106566
 40
0.6481988333
 40
0.7673060662
 40
0.8842486692
 40
1.0
 40
1.0
 40
1.0
 40
1.0
 10
-99.8384193992
 20
194.2659057284
 30
0.0
 10
-99.8384193992
 20
192.1082710096
 30
0.0
 10
-99.4252990593
 20
187.9075993319
 30
0.0
 10
-97.7479872162
 20
182.9731401313
 30
0.0
 10
-95.7635327061
 20
179.5503717222
 30
0.0
 10
-94.0045381725
 20
177.2972551594
 30
0.0
 10
-91.9774571769
 20
175.3544884027
 30
0.0
 10
-90.4600903894
 20
174.2804463141
 30
0.0
 10
-89.6708467259
 20
173.8063193393
 30
0.0
  0
SPLINE
  5
2EF
100
AcDbEntity
  8
0
100
AcDbSpline
 62
7
  6
CONTINUOUS
 70
0
 71
3
 72
11
 73
7
 74
0
 42
0.0000001
 43
0.0000001
 44
0.0000000001
 40
0.0
 40
0.0
 40
0.0
 40
0.0
 40
0.2398024828
 40
0.4840432603
 40
0.736643835
 40
1.0
 40
1.0
 40
1.0
 40
1.0
 10
-0.1989783397
 20
175.8671225775
 30
0.0
 10
-0.5041609261
 20
176.0434081013
 30
0.0
 10
-1.1607560341
 20
176.333435611
 30
0.0
 10
-2.2280357288
 20
176.5549456441
 30
0.0
 10
-3.3520410503
 20
176.5602691249
 30
0.0
 10
-4.1026474927
 20
176.4240158419
 30
0.0
 10
-4.4765045386
 20
176.323801411
 30
0.0
  0
SPLINE
  5
2F0
100
AcDbEntity
  8
0
100
AcDbSpline
 62
7
  6
CONTINUOUS
 70
0
 71
3
 72
9
 73
5
 74
0
 42
0.0000001
 43
0.0000001
 44
0.0000000001
 40
0.0
 40
0.0
 40
0.0
 40
0.0
 40
0.4837123723
 40
1.0
 40
1.0
 40
1.0
 40
1.0
 10
-18.4029603453
 20
173.7743451955
 30
0.0
 10
-18.6644416109
 20
173.9253124403
 30
0.0
 10
-19.2804116501
 20
174.1188703843
 30
0.0
 10
-19.9172140741
 20
174.0527091456
 30
0.0
 10
-20.2284913372
 20
173.96926957
 30
0.0
  0
SPLINE
  5
2F1
100
AcDbEntity
  8
0
100
AcDbSpline
 62
7
  6
CONTINUOUS
 70
0
 71
3
 72
9
 73
5
 74
0
 42
0.0000001
 43
0.0000001
 44
0.0000000001
 40
0.0
 40
0.0
 40
0.0
 40
0.0
 40
0.2538524806
 40
1.0
 40
1.0
 40
1.0
 40
1.0
 10
-41.7724650807
 20
173.0064584748
 30
0.0
 10
-41.7242257328
 20
172.9433147713
 30
0.0
 10
-41.5226946175
 20
172.7036173569
 30
0.0
 10
-41.2739588249
 20
172.5032680302
 30
0.0
 10
-41.0716963347
 20
172.3864740576
 30
0.0
  0
SPLINE
  5
2F2
100
AcDbEntity
  8
0
100
AcDbSpline
 62
7
  6
CONTINUOUS
 70
0
 71
3
 72
15
 73
11
 74
0
 42
0.0000001
 43
0.0000001
 44
0.0000000001
 40
0.0
 40
0.0
 40
0.0
 40
0.0
 40
0.122964611
 40
0.2549498535
 40
0.39206725
 40
0.5289398271
 40
0.6602701272
 40
0.7823346034
 40
0.8944583633
 40
1.0
 40
1.0
 40
1.0
 40
1.0
 10
1.4291964851
 20
190.3838843096
 30
0.0
 10
1.0724684545
 20
190.2882614052
 30
0.0
 10
0.3636952388
 20
189.964502253
 30
0.0
 10
-0.5457878533
 20
189.1982586629
 30
0.0
 10
-1.2710492931
 20
188.2038016693
 30
0.0
 10
-1.746320391
 20
187.0707803954
 30
0.0
 10
-1.9284749782
 20
185.8998977225
 30
0.0
 10
-1.7953718092
 20
184.7936626444
 30
0.0
 10
-1.3470564397
 20
183.8536636444
 30
0.0
 10
-0.8458807717
 20
183.401367823
 30
0.0
 10
-0.571376646
 20
183.242838361
 30
0.0
  0
SPLINE
  5
2F3
100
AcDbEntity
  8
0
100
AcDbSpline
 62
7
  6
CONTINUOUS
 70
0
 71
3
 72
13
 73
9
 74
0
 42
0.0000001
 43
0.0000001
 44
0.0000000001
 40
0.0
 40
0.0
 40
0.0
 40
0.0
 40
0.2622169614
 40
0.5339758183
 40
0.6631474646
 40
0.7833049035
 40
0.8944993839
 40
1.0
 40
1.0
 40
1.0
 40
1.0
 10
2.4902485922
 20
181.1283127917
 30
0.0
 10
2.1640657016
 20
180.9692785811
 30
0.0
 10
1.5870972209
 20
180.458554836
 30
0.0
 10
1.1966531793
 20
179.5955927731
 30
0.0
 10
1.1367373766
 20
178.8703125085
 30
0.0
 10
1.227783458
 20
178.3727055133
 30
0.0
 10
1.4511455183
 20
177.9538986565
 30
0.0
 10
1.6835549492
 20
177.7514309303
 30
0.0
 10
1.8099579461
 20
177.6783585986
 30
0.0
  0
SPLINE
  5
2F4
100
AcDbEntity
  8
0
100
AcDbSpline
 62
7
  6
CONTINUOUS
 70
0
 71
3
 72
17
 73
13
 74
0
 42
0.0000001
 43
0.0000001
 44
0.0000000001
 40
0.0
 40
0.0
 40
0.0
 40
0.0
 40
0.1266150323
 40
0.2583417644
 40
0.3253220145
 40
0.3924681228
 40
0.5254860747
 40
0.6544656674
 40
0.7770146334
 40
0.8919420536
 40
0.9467588642
 40
1.0
 40
1.0
 40
1.0
 40
1.0
 10
5.7038417436
 20
176.374735488
 30
0.0
 10
5.7038417436
 20
174.1365057725
 30
0.0
 10
5.1980723395
 20
169.5601122562
 30
0.0
 10
3.4643098701
 20
164.0409440562
 30
0.0
 10
1.4548433772
 20
159.78621989
 30
0.0
 10
-0.9454864887
 20
155.7128979297
 30
0.0
 10
-4.5739354206
 20
151.1189368671
 30
0.0
 10
-9.7451500998
 20
146.6405078617
 30
0.0
 10
-15.4439784746
 20
143.4589298242
 30
0.0
 10
-20.470861665
 20
142.0271362074
 30
0.0
 10
-24.412016991
 20
141.729525682
 30
0.0
 10
-26.3262082529
 20
141.8561204566
 30
0.0
 10
-27.2579549796
 20
141.988948881
 30
0.0
  0
SPLINE
  5
2F5
100
AcDbEntity
  8
0
100
AcDbSpline
 62
7
  6
CONTINUOUS
 70
0
 71
3
 72
9
 73
5
 74
0
 42
0.0000001
 43
0.0000001
 44
0.0000000001
 40
0.0
 40
0.0
 40
0.0
 40
0.0
 40
0.4825759948
 40
1.0
 40
1.0
 40
1.0
 40
1.0
 10
-29.1389187468
 20
148.1861196524
 30
0.0
 10
-29.4851923703
 20
148.0932991091
 30
0.0
 10
-30.1734366333
 20
147.7830969598
 30
0.0
 10
-30.7531596472
 20
147.3054019392
 30
0.0
 10
-31.019882514
 20
147.0286135163
 30
0.0
  0
SPLINE
  5
2F6
100
AcDbEntity
  8
0
100
AcDbSpline
 62
7
  6
CONTINUOUS
 70
0
 71
3
 72
9
 73
5
 74
0
 42
0.0000001
 43
0.0000001
 44
0.0000000001
 40
0.0
 40
0.0
 40
0.0
 40
0.0
 40
0.4802431694
 40
1.0
 40
1.0
 40
1.0
 40
1.0
 10
-34.5750891538
 20
150.4928941128
 30
0.0
 10
-34.7965930636
 20
150.4335187754
 30
0.0
 10
-35.2335882497
 20
150.2130327854
 30
0.0
 10
-35.5750072345
 20
149.8681031633
 30
0.0
 10
-35.723284847
 20
149.6690726898
 30
0.0
  0
SPLINE
  5
2F7
100
AcDbEntity
  8
0
100
AcDbSpline
 62
7
  6
CONTINUOUS
 70
0
 71
3
 72
17
 73
13
 74
0
 42
0.0000001
 43
0.0000001
 44
0.0000000001
 40
0.0
 40
0.0
 40
0.0
 40
0.0
 40
0.1228378842
 40
0.2546982085
 40
0.3916794894
 40
0.5284208858
 40
0.6596224098
 40
0.781566385
 40
0.8389124344
 40
0.8940272389
 40
0.9474649675
 40
1.0
 40
1.0
 40
1.0
 40
1.0
 10
-33.1654004387
 20
168.633585573
 30
0.0
 10
-33.9280946711
 20
168.4291412024
 30
0.0
 10
-35.4435075704
 20
167.7368799958
 30
0.0
 10
-37.3882299528
 20
166.0986938442
 30
0.0
 10
-38.938813347
 20
163.9723452722
 30
0.0
 10
-39.9550005977
 20
161.5494698506
 30
0.0
 10
-40.3449500061
 20
159.047293574
 30
0.0
 10
-40.1014970619
 20
157.0322411508
 30
0.0
 10
-39.5542148862
 20
155.6210661132
 30
0.0
 10
-38.9948614685
 20
154.7057007705
 30
0.0
 10
-38.291605937
 20
153.9368884192
 30
0.0
 10
-37.7353493719
 20
153.5339665204
 30
0.0
 10
-37.4429266376
 20
153.3650515915
 30
0.0
  0
SPLINE
  5
2F8
100
AcDbEntity
  8
0
100
AcDbSpline
 62
7
  6
CONTINUOUS
 70
0
 71
3
 72
17
 73
13
 74
0
 42
0.0000001
 43
0.0000001
 44
0.0000000001
 40
0.0
 40
0.0
 40
0.0
 40
0.0
 40
0.1228378842
 40
0.2546982085
 40
0.3916794894
 40
0.5284208858
 40
0.6596224098
 40
0.781566385
 40
0.8389124344
 40
0.8940272389
 40
0.9474649675
 40
1.0
 40
1.0
 40
1.0
 40
1.0
 10
-27.6863088717
 20
188.8605001512
 30
0.0
 10
-28.449003104
 20
188.6560557806
 30
0.0
 10
-29.9644160033
 20
187.9637945739
 30
0.0
 10
-31.9091383858
 20
186.3256084224
 30
0.0
 10
-33.4597217799
 20
184.1992598504
 30
0.0
 10
-34.4759090306
 20
181.7763844288
 30
0.0
 10
-34.8658584391
 20
179.2742081521
 30
0.0
 10
-34.6224054948
 20
177.259155729
 30
0.0
 10
-34.0751233192
 20
175.8479806913
 30
0.0
 10
-33.5157699014
 20
174.9326153487
 30
0.0
 10
-32.8125143699
 20
174.1638029974
 30
0.0
 10
-32.2562578048
 20
173.7608810986
 30
0.0
 10
-31.9638350705
 20
173.5919661697
 30
0.0
  0
SPLINE
  5
2F9
100
AcDbEntity
  8
0
100
AcDbSpline
 62
7
  6
CONTINUOUS
 70
0
 71
3
 72
17
 73
13
 74
0
 42
0.0000001
 43
0.0000001
 44
0.0000000001
 40
0.0
 40
0.0
 40
0.0
 40
0.0
 40
0.1228378842
 40
0.2546982085
 40
0.3916794894
 40
0.5284208858
 40
0.6596224098
 40
0.781566385
 40
0.8389124344
 40
0.8940272389
 40
0.9474649675
 40
1.0
 40
1.0
 40
1.0
 40
1.0
 10
-9.9555961057
 20
193.6133149199
 30
0.0
 10
-10.7182903381
 20
193.4088705493
 30
0.0
 10
-12.2337032374
 20
192.7166093427
 30
0.0
 10
-14.1784256198
 20
191.0784231911
 30
0.0
 10
-15.7290090139
 20
188.9520746191
 30
0.0
 10
-16.7451962646
 20
186.5291991975
 30
0.0
 10
-17.1351456731
 20
184.0270229209
 30
0.0
 10
-16.8916927288
 20
182.0119704977
 30
0.0
 10
-16.3444105532
 20
180.6007954601
 30
0.0
 10
-15.7850571354
 20
179.6854301174
 30
0.0
 10
-15.081801604
 20
178.9166177661
 30
0.0
 10
-14.5255450388
 20
178.5136958673
 30
0.0
 10
-14.2331223045
 20
178.3447809384
 30
0.0
  0
SPLINE
  5
2FA
100
AcDbEntity
  8
0
100
AcDbSpline
 62
7
  6
CONTINUOUS
 70
0
 71
3
 72
17
 73
13
 74
0
 42
0.0000001
 43
0.0000001
 44
0.0000000001
 40
0.0
 40
0.0
 40
0.0
 40
0.0
 40
0.1228378842
 40
0.2546982085
 40
0.3916794894
 40
0.5284208858
 40
0.6596224098
 40
0.781566385
 40
0.8389124344
 40
0.8940272389
 40
0.9474649675
 40
1.0
 40
1.0
 40
1.0
 40
1.0
 10
-4.4765045386
 20
176.323801411
 30
0.0
 10
-5.239198771
 20
176.1193570404
 30
0.0
 10
-6.7546116703
 20
175.4270958338
 30
0.0
 10
-8.6993340527
 20
173.7889096823
 30
0.0
 10
-10.2499174468
 20
171.6625611103
 30
0.0
 10
-11.2661046975
 20
169.2396856887
 30
0.0
 10
-11.656054106
 20
166.737509412
 30
0.0
 10
-11.4126011618
 20
164.7224569889
 30
0.0
 10
-10.8653189861
 20
163.3112819512
 30
0.0
 10
-10.3059655683
 20
162.3959166086
 30
0.0
 10
-9.6027100369
 20
161.6271042572
 30
0.0
 10
-9.0464534718
 20
161.2241823585
 30
0.0
 10
-8.7540307375
 20
161.0552674295
 30
0.0
  0
SPLINE
  5
2FB
100
AcDbEntity
  8
0
100
AcDbSpline
 62
7
  6
CONTINUOUS
 70
0
 71
3
 72
10
 73
6
 74
0
 42
0.0000001
 43
0.0000001
 44
0.0000000001
 40
0.0
 40
0.0
 40
0.0
 40
0.0
 40
0.2403281376
 40
0.4850960221
 40
1.0
 40
1.0
 40
1.0
 40
1.0
 10
-17.4026475804
 20
158.7283876214
 30
0.0
 10
-17.604280312
 20
158.8448115732
 30
0.0
 10
-18.0382178946
 20
159.0364195486
 30
0.0
 10
-18.991918772
 20
159.2349945919
 30
0.0
 10
-19.7466603271
 20
159.1592395449
 30
0.0
 10
-20.2284913372
 20
159.0300821018
 30
0.0
  0
SPLINE
  5
2FC
100
AcDbEntity
  8
0
100
AcDbSpline
 62
7
  6
CONTINUOUS
 70
0
 71
3
 72
11
 73
7
 74
0
 42
0.0000001
 43
0.0000001
 44
0.0000000001
 40
0.0
 40
0.0
 40
0.0
 40
0.0
 40
0.2398024828
 40
0.4840432603
 40
0.736643835
 40
1.0
 40
1.0
 40
1.0
 40
1.0
 10
-5.6780699068
 20
193.1566360863
 30
0.0
 10
-5.9832524932
 20
193.3329216102
 30
0.0
 10
-6.6398476011
 20
193.6229491199
 30
0.0
 10
-7.7071272959
 20
193.844459153
 30
0.0
 10
-8.8311326174
 20
193.8497826338
 30
0.0
 10
-9.5817390598
 20
193.7135293508
 30
0.0
 10
-9.9555961057
 20
193.6133149199
 30
0.0
  0
SPLINE
  5
2FD
100
AcDbEntity
  8
0
100
AcDbSpline
 62
7
  6
CONTINUOUS
 70
0
 71
3
 72
11
 73
7
 74
0
 42
0.0000001
 43
0.0000001
 44
0.0000000001
 40
0.0
 40
0.0
 40
0.0
 40
0.0
 40
0.2398024828
 40
0.4840432603
 40
0.736643835
 40
1.0
 40
1.0
 40
1.0
 40
1.0
 10
-23.4087826728
 20
188.4038213176
 30
0.0
 10
-23.7139652591
 20
188.5801068414
 30
0.0
 10
-24.3705603671
 20
188.8701343511
 30
0.0
 10
-25.4378400618
 20
189.0916443843
 30
0.0
 10
-26.5618453834
 20
189.096967865
 30
0.0
 10
-27.3124518257
 20
188.960714582
 30
0.0
 10
-27.6863088717
 20
188.8605001512
 30
0.0
  0
SPLINE
  5
2FE
100
AcDbEntity
  8
0
100
AcDbSpline
 62
7
  6
CONTINUOUS
 70
0
 71
3
 72
11
 73
7
 74
0
 42
0.0000001
 43
0.0000001
 44
0.0000000001
 40
0.0
 40
0.0
 40
0.0
 40
0.0
 40
0.2398024828
 40
0.4840432603
 40
0.736643835
 40
1.0
 40
1.0
 40
1.0
 40
1.0
 10
-28.8878742398
 20
168.1769067394
 30
0.0
 10
-29.1930568262
 20
168.3531922633
 30
0.0
 10
-29.8496519342
 20
168.643219773
 30
0.0
 10
-30.9169316289
 20
168.8647298061
 30
0.0
 10
-32.0409369504
 20
168.8700532869
 30
0.0
 10
-32.7915433928
 20
168.7338000039
 30
0.0
 10
-33.1654004387
 20
168.633585573
 30
0.0
  0
SPLINE
  5
2FF
100
AcDbEntity
  8
0
100
AcDbSpline
 62
7
  6
CONTINUOUS
 70
0
 71
3
 72
16
 73
12
 74
0
 42
0.0000001
 43
0.0000001
 44
0.0000000001
 40
0.0
 40
0.0
 40
0.0
 40
0.0
 40
0.1228935845
 40
0.254809352
 40
0.3918532557
 40
0.528654137
 40
0.6599158167
 40
0.7819144774
 40
0.8939795929
 40
0.947440549
 40
1.0
 40
1.0
 40
1.0
 40
1.0
 10
-20.2284913372
 20
159.0300821018
 30
0.0
 10
-20.7323501439
 20
158.895019987
 30
0.0
 10
-21.733467878
 20
158.4377064238
 30
0.0
 10
-23.0181732045
 20
157.3554689223
 30
0.0
 10
-24.0425435419
 20
155.9507267847
 30
0.0
 10
-24.7139926235
 20
154.3504001159
 30
0.0
 10
-24.9709358768
 20
152.6962629409
 30
0.0
 10
-24.7843789905
 20
151.1345511917
 30
0.0
 10
-24.2437884902
 20
150.0078275046
 30
0.0
 10
-23.614959251
 20
149.3212043547
 30
0.0
 10
-23.2475400999
 20
149.0548531825
 30
0.0
 10
-23.0543350941
 20
148.9432954503
 30
0.0
  0
SPLINE
  5
300
100
AcDbEntity
  8
0
100
AcDbSpline
 62
7
  6
CONTINUOUS
 70
0
 71
3
 72
15
 73
11
 74
0
 42
0.0000001
 43
0.0000001
 44
0.0000000001
 40
0.0
 40
0.0
 40
0.0
 40
0.0
 40
0.1229607908
 40
0.2549448048
 40
0.3920633402
 40
0.5289370371
 40
0.6602679335
 40
0.7823328983
 40
0.8944581578
 40
1.0
 40
1.0
 40
1.0
 40
1.0
 10
-20.2284913372
 20
173.96926957
 30
0.0
 10
-20.5539963314
 20
173.8820161731
 30
0.0
 10
-21.200742632
 20
173.5865972439
 30
0.0
 10
-22.030644855
 20
172.8874105217
 30
0.0
 10
-22.6924560004
 20
171.979970171
 30
0.0
 10
-23.1261635181
 20
170.9460857064
 30
0.0
 10
-23.2923799854
 20
169.8776450947
 30
0.0
 10
-23.170910099
 20
168.8681956898
 30
0.0
 10
-22.7618331021
 20
168.0104456222
 30
0.0
 10
-22.3045255881
 20
167.5976803156
 30
0.0
 10
-22.0540223292
 20
167.4530512665
 30
0.0
  0
SPLINE
  5
301
100
AcDbEntity
  8
0
100
AcDbSpline
 62
7
  6
CONTINUOUS
 70
0
 71
3
 72
9
 73
5
 74
0
 42
0.0000001
 43
0.0000001
 44
0.0000000001
 40
0.0
 40
0.0
 40
0.0
 40
0.0
 40
0.4837010306
 40
1.0
 40
1.0
 40
1.0
 40
1.0
 10
-33.5748101442
 20
150.3860658941
 30
0.0
 10
-33.7180400524
 20
150.4688609399
 30
0.0
 10
-34.0556103576
 20
150.5748453629
 30
0.0
 10
-34.4045231396
 20
150.5386152681
 30
0.0
 10
-34.5750891538
 20
150.4928941128
 30
0.0
  0
SPLINE
  5
302
100
AcDbEntity
  8
0
100
AcDbSpline
 62
7
  6
CONTINUOUS
 70
0
 71
3
 72
10
 73
6
 74
0
 42
0.0000001
 43
0.0000001
 44
0.0000000001
 40
0.0
 40
0.0
 40
0.0
 40
0.0
 40
0.2403012267
 40
0.4850720403
 40
1.0
 40
1.0
 40
1.0
 40
1.0
 10
-27.1383546418
 20
147.9724730518
 30
0.0
 10
-27.2810821714
 20
148.0548964469
 30
0.0
 10
-27.5882372734
 20
148.1906383967
 30
0.0
 10
-28.2634436789
 20
148.3311723739
 30
0.0
 10
-28.7977842115
 20
148.2775626349
 30
0.0
 10
-29.1389187468
 20
148.1861196524
 30
0.0
  0
SPLINE
  5
303
100
AcDbEntity
  8
0
100
AcDbSpline
 62
7
  6
CONTINUOUS
 70
0
 71
3
 72
9
 73
5
 74
0
 42
0.0000001
 43
0.0000001
 44
0.0000000001
 40
0.0
 40
0.0
 40
0.0
 40
0.0
 40
0.5093005706
 40
1.0
 40
1.0
 40
1.0
 40
1.0
 10
-97.4631297946
 20
207.0878882912
 30
0.0
 10
-98.231804891
 20
205.0026990634
 30
0.0
 10
-99.4106246046
 20
200.7776805234
 30
0.0
 10
-99.8384193992
 20
196.4070968321
 30
0.0
 10
-99.8384193992
 20
194.2659057284
 30
0.0
  0
SPLINE
  5
304
100
AcDbEntity
  8
0
100
AcDbSpline
 62
7
  6
CONTINUOUS
 70
0
 71
3
 72
10
 73
6
 74
0
 42
0.0000001
 43
0.0000001
 44
0.0000000001
 40
0.0
 40
0.0
 40
0.0
 40
0.0
 40
0.2403185971
 40
0.4850883285
 40
1.0
 40
1.0
 40
1.0
 40
1.0
 10
-37.0705270809
 20
179.3139279903
 30
0.0
 10
-37.2132720989
 20
179.3963451613
 30
0.0
 10
-37.5204417893
 20
179.5320786412
 30
0.0
 10
-38.1956494776
 20
179.6726063854
 30
0.0
 10
-38.7299774726
 20
179.6189975504
 30
0.0
 10
-39.0711014624
 20
179.5275573946
 30
0.0
  0
SPLINE
  5
305
100
AcDbEntity
  8
0
100
AcDbSpline
 62
7
  6
CONTINUOUS
 70
0
 71
3
 72
9
 73
5
 74
0
 42
0.0000001
 43
0.0000001
 44
0.0000000001
 40
0.0
 40
0.0
 40
0.0
 40
0.0
 40
0.4952150119
 40
1.0
 40
1.0
 40
1.0
 40
1.0
 10
-3.8719945553
 20
195.4124555192
 30
0.0
 10
-2.8144938786
 20
194.7930522479
 30
0.0
 10
-0.809062513
 20
193.3064338031
 30
0.0
 10
0.8367953443
 20
191.4321455839
 30
0.0
 10
1.5651477186
 20
190.4172157518
 30
0.0
  0
SPLINE
  5
306
100
AcDbEntity
  8
0
100
AcDbSpline
 62
7
  6
CONTINUOUS
 70
0
 71
3
 72
9
 73
5
 74
0
 42
0.0000001
 43
0.0000001
 44
0.0000000001
 40
0.0
 40
0.0
 40
0.0
 40
0.0
 40
0.4912848303
 40
1.0
 40
1.0
 40
1.0
 40
1.0
 10
-98.1493727809
 20
193.2903437701
 30
0.0
 10
-98.1493727809
 20
195.2077689824
 30
0.0
 10
-97.8066652894
 20
199.1159285087
 30
0.0
 10
-96.8540890904
 20
202.9181013038
 30
0.0
 10
-96.231408151
 20
204.8033850776
 30
0.0
  0
SPLINE
  5
307
100
AcDbEntity
  8
0
100
AcDbSpline
 62
7
  6
CONTINUOUS
 70
0
 71
3
 72
9
 73
5
 74
0
 42
0.0000001
 43
0.0000001
 44
0.0000000001
 40
0.0
 40
0.0
 40
0.0
 40
0.0
 40
0.4882847743
 40
1.0
 40
1.0
 40
1.0
 40
1.0
 10
-16.9951588646
 20
184.6477591528
 30
0.0
 10
-16.7673409336
 20
184.6089193383
 30
0.0
 10
-16.2899608987
 20
184.585532937
 30
0.0
 10
-15.8196873679
 20
184.6649679618
 30
0.0
 10
-15.5857514997
 20
184.7276757539
 30
0.0
  0
SPLINE
  5
308
100
AcDbEntity
  8
0
100
AcDbSpline
 62
7
  6
CONTINUOUS
 70
0
 71
3
 72
11
 73
7
 74
0
 42
0.0000001
 43
0.0000001
 44
0.0000000001
 40
0.0
 40
0.0
 40
0.0
 40
0.0
 40
0.2336693119
 40
0.4770515822
 40
0.7323112682
 40
1.0
 40
1.0
 40
1.0
 40
1.0
 10
-37.5181118206
 20
147.2599074996
 30
0.0
 10
-38.4493486159
 20
148.2421310233
 30
0.0
 10
-40.1274484098
 20
150.4695878251
 30
0.0
 10
-41.9345686302
 20
154.3365808324
 30
0.0
 10
-43.030541383
 20
158.66232982
 30
0.0
 10
-43.26310209
 20
161.6983233545
 30
0.0
 10
-43.26310209
 20
163.2488777234
 30
0.0
  0
SPLINE
  5
309
100
AcDbEntity
  8
0
100
AcDbSpline
 62
7
  6
CONTINUOUS
 70
0
 71
3
 72
9
 73
5
 74
0
 42
0.0000001
 43
0.0000001
 44
0.0000000001
 40
0.0
 40
0.0
 40
0.0
 40
0.0
 40
0.2438615172
 40
1.0
 40
1.0
 40
1.0
 40
1.0
 10
-43.26310209
 20
163.2488777234
 30
0.0
 10
-43.26310209
 20
164.0528862299
 30
0.0
 10
-43.1320561776
 20
167.349211931
 30
0.0
 10
-42.4937598038
 20
170.6201054215
 30
0.0
 10
-41.7724650807
 20
173.0064584748
 30
0.0
  0
SPLINE
  5
30A
100
AcDbEntity
  8
0
100
AcDbSpline
 62
7
  6
CONTINUOUS
 70
0
 71
3
 72
9
 73
5
 74
0
 42
0.0000001
 43
0.0000001
 44
0.0000000001
 40
0.0
 40
0.0
 40
0.0
 40
0.0
 40
0.2577387568
 40
1.0
 40
1.0
 40
1.0
 40
1.0
 10
-94.7558253874
 20
207.6278247489
 30
0.0
 10
-94.8371220933
 20
207.4614877339
 30
0.0
 10
-95.1182359687
 20
206.800383407
 30
0.0
 10
-95.2590250907
 20
206.0759566582
 30
0.0
 10
-95.2590250907
 20
205.5427697813
 30
0.0
  0
SPLINE
  5
30B
100
AcDbEntity
  8
0
100
AcDbSpline
 62
7
  6
CONTINUOUS
 70
0
 71
3
 72
15
 73
11
 74
0
 42
0.0000001
 43
0.0000001
 44
0.0000000001
 40
0.0
 40
0.0
 40
0.0
 40
0.0
 40
0.1136335793
 40
0.234977294
 40
0.362820103
 40
0.4946845132
 40
0.6273874445
 40
0.7576128471
 40
0.8824490583
 40
1.0
 40
1.0
 40
1.0
 40
1.0
 10
-9.0581498906
 20
193.7679204221
 30
0.0
 10
-8.8291918786
 20
193.2160888601
 30
0.0
 10
-8.5160248388
 20
192.0044418886
 30
0.0
 10
-8.4857135398
 20
190.0825867427
 30
0.0
 10
-8.8723191463
 20
188.1029813607
 30
0.0
 10
-9.6516958017
 20
186.1796892884
 30
0.0
 10
-10.7777797665
 20
184.4219450405
 30
0.0
 10
-12.1869198486
 20
182.9309075099
 30
0.0
 10
-13.7980814105
 20
181.7932310897
 30
0.0
 10
-14.9887860774
 20
181.2999951532
 30
0.0
 10
-15.5857514997
 20
181.1399752988
 30
0.0
  0
SPLINE
  5
30C
100
AcDbEntity
  8
0
100
AcDbSpline
 62
7
  6
CONTINUOUS
 70
0
 71
3
 72
11
 73
7
 74
0
 42
0.0000001
 43
0.0000001
 44
0.0000000001
 40
0.0
 40
0.0
 40
0.0
 40
0.0
 40
0.2398024828
 40
0.4840432603
 40
0.736643835
 40
1.0
 40
1.0
 40
1.0
 40
1.0
 10
-14.2331223045
 20
178.3447809384
 30
0.0
 10
-13.9279397182
 20
178.1684954146
 30
0.0
 10
-13.2713446102
 20
177.8784679049
 30
0.0
 10
-12.2040649155
 20
177.6569578717
 30
0.0
 10
-11.080059594
 20
177.651634391
 30
0.0
 10
-10.3294531516
 20
177.7878876739
 30
0.0
 10
-9.9555961057
 20
177.8881021048
 30
0.0
  0
SPLINE
  5
30D
100
AcDbEntity
  8
0
100
AcDbSpline
 62
7
  6
CONTINUOUS
 70
0
 71
3
 72
15
 73
11
 74
0
 42
0.0000001
 43
0.0000001
 44
0.0000000001
 40
0.0
 40
0.0
 40
0.0
 40
0.0
 40
0.1229644647
 40
0.2549507221
 40
0.3920656122
 40
0.5289377943
 40
0.6602681485
 40
0.7823320179
 40
0.8944570775
 40
1.0
 40
1.0
 40
1.0
 40
1.0
 10
-39.0711014624
 20
172.1728804872
 30
0.0
 10
-38.7143739511
 20
172.2685032524
 30
0.0
 10
-38.0055965407
 20
172.5922602579
 30
0.0
 10
-37.0961246576
 20
173.3585097806
 30
0.0
 10
-36.3708628007
 20
174.352956526
 30
0.0
 10
-35.8955834066
 20
175.4859654608
 30
0.0
 10
-35.7134303903
 20
176.6568460404
 30
0.0
 10
-35.8465422985
 20
177.7630832335
 30
0.0
 10
-36.29484057
 20
178.7030840555
 30
0.0
 10
-36.7960031879
 20
179.1554252069
 30
0.0
 10
-37.0705270809
 20
179.3139279903
 30
0.0
  0
SPLINE
  5
30E
100
AcDbEntity
  8
0
100
AcDbSpline
 62
7
  6
CONTINUOUS
 70
0
 71
3
 72
16
 73
12
 74
0
 42
0.0000001
 43
0.0000001
 44
0.0000000001
 40
0.0
 40
0.0
 40
0.0
 40
0.0
 40
0.2789729585
 40
0.4140335244
 40
0.5433358929
 40
0.6658903449
 40
0.7817467527
 40
0.8376156161
 40
0.8923832674
 40
0.9463847789
 40
1.0
 40
1.0
 40
1.0
 40
1.0
 10
-39.1228061856
 20
179.5132478374
 30
0.0
 10
-37.2858229784
 20
183.057060876
 30
0.0
 10
-33.7196719179
 20
187.9494643666
 30
0.0
 10
-27.739369679
 20
192.9584382139
 30
0.0
 10
-22.9143576554
 20
195.7395769211
 30
0.0
 10
-17.9037790735
 20
197.4555144152
 30
0.0
 10
-13.6788566263
 20
197.9344133954
 30
0.0
 10
-10.4389319683
 20
197.7043211259
 30
0.0
 10
-8.1223038679
 20
197.2411484477
 30
0.0
 10
-5.9169009173
 20
196.4896990095
 30
0.0
 10
-4.5339468344
 20
195.8001766963
 30
0.0
 10
-3.8719945553
 20
195.4124555192
 30
0.0
  0
SPLINE
  5
30F
100
AcDbEntity
  8
0
100
AcDbSpline
 62
7
  6
CONTINUOUS
 70
0
 71
3
 72
9
 73
5
 74
0
 42
0.0000001
 43
0.0000001
 44
0.0000000001
 40
0.0
 40
0.0
 40
0.0
 40
0.0
 40
0.4882847743
 40
1.0
 40
1.0
 40
1.0
 40
1.0
 10
-34.7258716306
 20
179.8949443841
 30
0.0
 10
-34.4980536996
 20
179.8561045695
 30
0.0
 10
-34.0206736646
 20
179.8327181682
 30
0.0
 10
-33.5504001339
 20
179.9121531931
 30
0.0
 10
-33.3164642656
 20
179.9748609851
 30
0.0
  0
SPLINE
  5
310
100
AcDbEntity
  8
0
100
AcDbSpline
 62
7
  6
CONTINUOUS
 70
0
 71
3
 72
9
 73
5
 74
0
 42
0.0000001
 43
0.0000001
 44
0.0000000001
 40
0.0
 40
0.0
 40
0.0
 40
0.0
 40
0.5164885163
 40
1.0
 40
1.0
 40
1.0
 40
1.0
 10
-95.2590250907
 20
205.5427697813
 30
0.0
 10
-95.2590250907
 20
205.2581117092
 30
0.0
 10
-95.2016954946
 20
204.7047392493
 30
0.0
 10
-95.0112001372
 20
204.1797697788
 30
0.0
 10
-94.8854675381
 20
203.9448133116
 30
0.0
  0
SPLINE
  5
311
100
AcDbEntity
  8
0
100
AcDbSpline
 62
7
  6
CONTINUOUS
 70
0
 71
3
 72
9
 73
5
 74
0
 42
0.0000001
 43
0.0000001
 44
0.0000000001
 40
0.0
 40
0.0
 40
0.0
 40
0.0
 40
0.2563298419
 40
1.0
 40
1.0
 40
1.0
 40
1.0
 10
-94.8854675381
 20
203.9448133116
 30
0.0
 10
-95.1493822268
 20
203.0999285538
 30
0.0
 10
-96.0620899527
 20
199.7692497119
 30
0.0
 10
-96.496480162
 20
196.3014134189
 30
0.0
 10
-96.496480162
 20
193.7334106989
 30
0.0
  0
SPLINE
  5
312
100
AcDbEntity
  8
0
100
AcDbSpline
 62
7
  6
CONTINUOUS
 70
0
 71
3
 72
9
 73
5
 74
0
 42
0.0000001
 43
0.0000001
 44
0.0000000001
 40
0.0
 40
0.0
 40
0.0
 40
0.0
 40
0.2462842158
 40
1.0
 40
1.0
 40
1.0
 40
1.0
 10
1.4291964851
 20
183.0292074022
 30
0.0
 10
1.4700162106
 20
183.0401493534
 30
0.0
 10
1.6348949266
 20
183.0877587148
 30
0.0
 10
1.7961242345
 20
183.1478510288
 30
0.0
 10
1.9147978433
 20
183.1992666173
 30
0.0
  0
SPLINE
  5
313
100
AcDbEntity
  8
0
100
AcDbSpline
 62
7
  6
CONTINUOUS
 70
0
 71
3
 72
11
 73
7
 74
0
 42
0.0000001
 43
0.0000001
 44
0.0000000001
 40
0.0
 40
0.0
 40
0.0
 40
0.0
 40
0.2683546529
 40
0.5236873246
 40
0.7667245847
 40
1.0
 40
1.0
 40
1.0
 40
1.0
 10
-96.496480162
 20
193.7334106989
 30
0.0
 10
-96.496480162
 20
192.0965009701
 30
0.0
 10
-96.2407896985
 20
188.8941307758
 30
0.0
 10
-95.0333875515
 20
184.3474689389
 30
0.0
 10
-93.0441192081
 20
180.3176923265
 30
0.0
 10
-91.2014990462
 20
178.0327857777
 30
0.0
 10
-90.1830046714
 20
177.0391013964
 30
0.0
  0
SPLINE
  5
314
100
AcDbEntity
  8
0
100
AcDbSpline
 62
7
  6
CONTINUOUS
 70
0
 71
3
 72
15
 73
11
 74
0
 42
0.0000001
 43
0.0000001
 44
0.0000000001
 40
0.0
 40
0.0
 40
0.0
 40
0.0
 40
0.1136335793
 40
0.234977294
 40
0.362820103
 40
0.4946845132
 40
0.6273874445
 40
0.7576128471
 40
0.8824490583
 40
1.0
 40
1.0
 40
1.0
 40
1.0
 10
-26.7888626566
 20
189.0151056533
 30
0.0
 10
-26.5599046445
 20
188.4632740914
 30
0.0
 10
-26.2467376047
 20
187.2516271198
 30
0.0
 10
-26.2164263057
 20
185.329771974
 30
0.0
 10
-26.6030319123
 20
183.350166592
 30
0.0
 10
-27.3824085677
 20
181.4268745196
 30
0.0
 10
-28.5084925325
 20
179.6691302718
 30
0.0
 10
-29.9176326146
 20
178.1780927412
 30
0.0
 10
-31.5287941765
 20
177.040416321
 30
0.0
 10
-32.7194988433
 20
176.5471803845
 30
0.0
 10
-33.3164642656
 20
176.3871605301
 30
0.0
  0
SPLINE
  5
315
100
AcDbEntity
  8
0
100
AcDbSpline
 62
7
  6
CONTINUOUS
 70
0
 71
3
 72
11
 73
7
 74
0
 42
0.0000001
 43
0.0000001
 44
0.0000000001
 40
0.0
 40
0.0
 40
0.0
 40
0.0
 40
0.2398024828
 40
0.4840432603
 40
0.736643835
 40
1.0
 40
1.0
 40
1.0
 40
1.0
 10
-31.9638350705
 20
173.5919661697
 30
0.0
 10
-31.6586524842
 20
173.4156806458
 30
0.0
 10
-31.0020573762
 20
173.1256531361
 30
0.0
 10
-29.9347776815
 20
172.904143103
 30
0.0
 10
-28.8107723599
 20
172.8988196222
 30
0.0
 10
-28.0601659176
 20
173.0350729052
 30
0.0
 10
-27.6863088717
 20
173.1352873361
 30
0.0
  0
SPLINE
  5
316
100
AcDbEntity
  8
0
100
AcDbSpline
 62
7
  6
CONTINUOUS
 70
0
 71
3
 72
9
 73
5
 74
0
 42
0.0000001
 43
0.0000001
 44
0.0000000001
 40
0.0
 40
0.0
 40
0.0
 40
0.0
 40
0.2530239224
 40
1.0
 40
1.0
 40
1.0
 40
1.0
 10
-38.7955558327
 20
156.1602459519
 30
0.0
 10
-38.8676873201
 20
156.1409107112
 30
0.0
 10
-39.1539636535
 20
156.0690593739
 30
0.0
 10
-39.4449247419
 20
156.015697185
 30
0.0
 10
-39.6635363787
 20
155.9871779785
 30
0.0
  0
SPLINE
  5
317
100
AcDbEntity
  8
0
100
AcDbSpline
 62
7
  6
CONTINUOUS
 70
0
 71
3
 72
15
 73
11
 74
0
 42
0.0000001
 43
0.0000001
 44
0.0000000001
 40
0.0
 40
0.0
 40
0.0
 40
0.0
 40
0.1199886806
 40
0.2480951544
 40
0.3816071267
 40
0.5165522557
 40
0.6486756531
 40
0.774315502
 40
0.8913412803
 40
1.0
 40
1.0
 40
1.0
 40
1.0
 10
-38.7955558327
 20
159.747946407
 30
0.0
 10
-38.4293113239
 20
159.8461202556
 30
0.0
 10
-37.699928066
 20
160.1625233826
 30
0.0
 10
-36.7356525625
 20
160.9030057824
 30
0.0
 10
-35.9245507505
 20
161.8708412283
 30
0.0
 10
-35.325031215
 20
162.9960368747
 30
0.0
 10
-34.9796331593
 20
164.1980579143
 30
0.0
 10
-34.915404081
 20
165.3922243001
 30
0.0
 10
-35.140726277
 20
166.4929747771
 30
0.0
 10
-35.4925824573
 20
167.1304914869
 30
0.0
 10
-35.7090533119
 20
167.3970318849
 30
0.0
  0
SPLINE
  5
318
100
AcDbEntity
  8
0
100
AcDbSpline
 62
7
  6
CONTINUOUS
 70
0
 71
3
 72
9
 73
5
 74
0
 42
0.0000001
 43
0.0000001
 44
0.0000000001
 40
0.0
 40
0.0
 40
0.0
 40
0.0
 40
0.2530239224
 40
1.0
 40
1.0
 40
1.0
 40
1.0
 10
-33.3164642656
 20
176.3871605301
 30
0.0
 10
-33.388595753
 20
176.3678252894
 30
0.0
 10
-33.6748720865
 20
176.295973952
 30
0.0
 10
-33.9658331749
 20
176.2426117632
 30
0.0
 10
-34.1844448116
 20
176.2140925567
 30
0.0
  0
SPLINE
  5
319
100
AcDbEntity
  8
0
100
AcDbSpline
 62
7
  6
CONTINUOUS
 70
0
 71
3
 72
9
 73
5
 74
0
 42
0.0000001
 43
0.0000001
 44
0.0000000001
 40
0.0
 40
0.0
 40
0.0
 40
0.0
 40
0.4882847743
 40
1.0
 40
1.0
 40
1.0
 40
1.0
 10
-40.2049631977
 20
159.6680298059
 30
0.0
 10
-39.9771452667
 20
159.6291899914
 30
0.0
 10
-39.4997652317
 20
159.6058035901
 30
0.0
 10
-39.029491701
 20
159.6852386149
 30
0.0
 10
-38.7955558327
 20
159.747946407
 30
0.0
  0
SPLINE
  5
31A
100
AcDbEntity
  8
0
100
AcDbSpline
 62
7
  6
CONTINUOUS
 70
0
 71
3
 72
9
 73
5
 74
0
 42
0.0000001
 43
0.0000001
 44
0.0000000001
 40
0.0
 40
0.0
 40
0.0
 40
0.0
 40
0.4882847743
 40
1.0
 40
1.0
 40
1.0
 40
1.0
 10
-11.5160672976
 20
167.3582456439
 30
0.0
 10
-11.2882493665
 20
167.3194058294
 30
0.0
 10
-10.8108693316
 20
167.2960194281
 30
0.0
 10
-10.3405958009
 20
167.3754544529
 30
0.0
 10
-10.1066599326
 20
167.438162245
 30
0.0
  0
SPLINE
  5
31B
100
AcDbEntity
  8
0
100
AcDbSpline
 62
7
  6
CONTINUOUS
 70
0
 71
3
 72
15
 73
11
 74
0
 42
0.0000001
 43
0.0000001
 44
0.0000000001
 40
0.0
 40
0.0
 40
0.0
 40
0.0
 40
0.1199886806
 40
0.2480951544
 40
0.3816071267
 40
0.5165522557
 40
0.6486756531
 40
0.774315502
 40
0.8913412803
 40
1.0
 40
1.0
 40
1.0
 40
1.0
 10
-33.3164642656
 20
179.9748609851
 30
0.0
 10
-32.9502197568
 20
180.0730348337
 30
0.0
 10
-32.2208364989
 20
180.3894379608
 30
0.0
 10
-31.2565609954
 20
181.1299203606
 30
0.0
 10
-30.4454591835
 20
182.0977558065
 30
0.0
 10
-29.845939648
 20
183.2229514528
 30
0.0
 10
-29.5005415923
 20
184.4249724924
 30
0.0
 10
-29.4363125139
 20
185.6191388783
 30
0.0
 10
-29.6616347099
 20
186.7198893553
 30
0.0
 10
-30.0134908902
 20
187.357406065
 30
0.0
 10
-30.2299617449
 20
187.6239464631
 30
0.0
  0
SPLINE
  5
31C
100
AcDbEntity
  8
0
100
AcDbSpline
 62
7
  6
CONTINUOUS
 70
0
 71
3
 72
13
 73
9
 74
0
 42
0.0000001
 43
0.0000001
 44
0.0000000001
 40
0.0
 40
0.0
 40
0.0
 40
0.0
 40
0.2754077432
 40
0.5425271248
 40
0.6671329792
 40
0.783950052
 40
0.8939743765
 40
1.0
 40
1.0
 40
1.0
 40
1.0
 10
-27.2579549796
 20
141.988948881
 30
0.0
 10
-26.826244523
 20
142.436951176
 30
0.0
 10
-26.1353352845
 20
143.4843222981
 30
0.0
 10
-25.7793838325
 20
144.9886448974
 30
0.0
 10
-25.872806019
 20
146.1424102882
 30
0.0
 10
-26.1229312218
 20
146.9050451268
 30
0.0
 10
-26.544644915
 20
147.5395023152
 30
0.0
 10
-26.930939803
 20
147.8526935302
 30
0.0
 10
-27.1383546418
 20
147.9724730518
 30
0.0
  0
SPLINE
  5
31D
100
AcDbEntity
  8
0
100
AcDbSpline
 62
7
  6
CONTINUOUS
 70
0
 71
3
 72
9
 73
5
 74
0
 42
0.0000001
 43
0.0000001
 44
0.0000000001
 40
0.0
 40
0.0
 40
0.0
 40
0.0
 40
0.2530239224
 40
1.0
 40
1.0
 40
1.0
 40
1.0
 10
-15.5857514997
 20
181.1399752988
 30
0.0
 10
-15.657882987
 20
181.1206400581
 30
0.0
 10
-15.9441593205
 20
181.0487887208
 30
0.0
 10
-16.2351204089
 20
180.9954265319
 30
0.0
 10
-16.4537320456
 20
180.9669073254
 30
0.0
  0
SPLINE
  5
31E
100
AcDbEntity
  8
0
100
AcDbSpline
 62
7
  6
CONTINUOUS
 70
0
 71
3
 72
15
 73
11
 74
0
 42
0.0000001
 43
0.0000001
 44
0.0000000001
 40
0.0
 40
0.0
 40
0.0
 40
0.0
 40
0.1136335793
 40
0.234977294
 40
0.362820103
 40
0.4946845132
 40
0.6273874445
 40
0.7576128471
 40
0.8824490583
 40
1.0
 40
1.0
 40
1.0
 40
1.0
 10
-32.2679542236
 20
168.7881910752
 30
0.0
 10
-32.0389962116
 20
168.2363595132
 30
0.0
 10
-31.7258291718
 20
167.0247125417
 30
0.0
 10
-31.6955178728
 20
165.1028573958
 30
0.0
 10
-32.0821234794
 20
163.1232520138
 30
0.0
 10
-32.8615001348
 20
161.1999599415
 30
0.0
 10
-33.9875840995
 20
159.4422156936
 30
0.0
 10
-35.3967241817
 20
157.951178163
 30
0.0
 10
-37.0078857436
 20
156.8135017428
 30
0.0
 10
-38.1985904104
 20
156.3202658063
 30
0.0
 10
-38.7955558327
 20
156.1602459519
 30
0.0
  0
SPLINE
  5
31F
100
AcDbEntity
  8
0
100
AcDbSpline
 62
7
  6
CONTINUOUS
 70
0
 71
3
 72
15
 73
11
 74
0
 42
0.0000001
 43
0.0000001
 44
0.0000000001
 40
0.0
 40
0.0
 40
0.0
 40
0.0
 40
0.1199886806
 40
0.2480951544
 40
0.3816071267
 40
0.5165522557
 40
0.6486756531
 40
0.774315502
 40
0.8913412803
 40
1.0
 40
1.0
 40
1.0
 40
1.0
 10
-15.5857514997
 20
184.7276757539
 30
0.0
 10
-15.2195069909
 20
184.8258496025
 30
0.0
 10
-14.4901237329
 20
185.1422527295
 30
0.0
 10
-13.5258482294
 20
185.8827351293
 30
0.0
 10
-12.7147464175
 20
186.8505705752
 30
0.0
 10
-12.115226882
 20
187.9757662216
 30
0.0
 10
-11.7698288263
 20
189.1777872612
 30
0.0
 10
-11.7055997479
 20
190.371953647
 30
0.0
 10
-11.930921944
 20
191.472704124
 30
0.0
 10
-12.2827781242
 20
192.1102208338
 30
0.0
 10
-12.4992489789
 20
192.3767612318
 30
0.0
  0
SPLINE
  5
320
100
AcDbEntity
  8
0
100
AcDbSpline
 62
7
  6
CONTINUOUS
 70
0
 71
3
 72
11
 73
7
 74
0
 42
0.0000001
 43
0.0000001
 44
0.0000000001
 40
0.0
 40
0.0
 40
0.0
 40
0.0
 40
0.2398024828
 40
0.4840432603
 40
0.736643835
 40
1.0
 40
1.0
 40
1.0
 40
1.0
 10
-37.4429266376
 20
153.3650515915
 30
0.0
 10
-37.1377440512
 20
153.1887660677
 30
0.0
 10
-36.4811489432
 20
152.8987385579
 30
0.0
 10
-35.4138692485
 20
152.6772285248
 30
0.0
 10
-34.289863927
 20
152.6719050441
 30
0.0
 10
-33.5392574846
 20
152.808158327
 30
0.0
 10
-33.1654004387
 20
152.9083727579
 30
0.0
  0
SPLINE
  5
321
100
AcDbEntity
  8
0
100
AcDbSpline
 62
7
  6
CONTINUOUS
 70
0
 71
3
 72
15
 73
11
 74
0
 42
0.0000001
 43
0.0000001
 44
0.0000000001
 40
0.0
 40
0.0
 40
0.0
 40
0.0
 40
0.1136335793
 40
0.234977294
 40
0.362820103
 40
0.4946845132
 40
0.6273874445
 40
0.7576128471
 40
0.8824490583
 40
1.0
 40
1.0
 40
1.0
 40
1.0
 10
-3.5790583235
 20
176.4784069132
 30
0.0
 10
-3.3501003115
 20
175.9265753513
 30
0.0
 10
-3.0369332717
 20
174.7149283797
 30
0.0
 10
-3.0066219727
 20
172.7930732338
 30
0.0
 10
-3.3932275792
 20
170.8134678519
 30
0.0
 10
-4.1726042346
 20
168.8901757795
 30
0.0
 10
-5.2986881994
 20
167.1324315317
 30
0.0
 10
-6.7078282816
 20
165.641394001
 30
0.0
 10
-8.3189898434
 20
164.5037175808
 30
0.0
 10
-9.5096945103
 20
164.0104816444
 30
0.0
 10
-10.1066599326
 20
163.8504617899
 30
0.0
  0
SPLINE
  5
322
100
AcDbEntity
  8
0
100
AcDbSpline
 62
7
  6
CONTINUOUS
 70
0
 71
3
 72
16
 73
12
 74
0
 42
0.0000001
 43
0.0000001
 44
0.0000000001
 40
0.0
 40
0.0
 40
0.0
 40
0.0
 40
0.1228935845
 40
0.2548093519
 40
0.3918532556
 40
0.5286541369
 40
0.6599158167
 40
0.7819144774
 40
0.8939795929
 40
0.947440549
 40
1.0
 40
1.0
 40
1.0
 40
1.0
 10
-20.2284913431
 20
148.6416009684
 30
0.0
 10
-19.7246325362
 20
148.776663083
 30
0.0
 10
-18.7235148012
 20
149.2339766444
 30
0.0
 10
-17.4388094735
 20
150.3162141457
 30
0.0
 10
-16.4144391346
 20
151.7209562831
 30
0.0
 10
-15.7429900519
 20
153.3212829525
 30
0.0
 10
-15.4860467976
 20
154.9754201283
 30
0.0
 10
-15.6726036835
 20
156.5371318785
 30
0.0
 10
-16.2131941837
 20
157.6638555664
 30
0.0
 10
-16.8420234232
 20
158.3504787168
 30
0.0
 10
-17.2094425745
 20
158.6168298891
 30
0.0
 10
-17.4026475804
 20
158.7283876214
 30
0.0
  0
SPLINE
  5
323
100
AcDbEntity
  8
0
100
AcDbSpline
 62
7
  6
CONTINUOUS
 70
0
 71
3
 72
11
 73
7
 74
0
 42
0.0000001
 43
0.0000001
 44
0.0000000001
 40
0.0
 40
0.0
 40
0.0
 40
0.0
 40
0.2398024828
 40
0.4840432603
 40
0.736643835
 40
1.0
 40
1.0
 40
1.0
 40
1.0
 10
-8.7540307375
 20
161.0552674295
 30
0.0
 10
-8.4488481511
 20
160.8789819057
 30
0.0
 10
-7.7922530431
 20
160.588954396
 30
0.0
 10
-6.7249733484
 20
160.3674443629
 30
0.0
 10
-5.6009680269
 20
160.3621208821
 30
0.0
 10
-4.8503615845
 20
160.4983741651
 30
0.0
 10
-4.4765045386
 20
160.598588596
 30
0.0
  0
SPLINE
  5
324
100
AcDbEntity
  8
0
100
AcDbSpline
 62
7
  6
CONTINUOUS
 70
0
 71
3
 72
15
 73
11
 74
0
 42
0.0000001
 43
0.0000001
 44
0.0000000001
 40
0.0
 40
0.0
 40
0.0
 40
0.0
 40
0.1229607907
 40
0.2549448046
 40
0.3920633401
 40
0.528937037
 40
0.6602679334
 40
0.7823328982
 40
0.8944581577
 40
1.0
 40
1.0
 40
1.0
 40
1.0
 10
-20.2284913465
 20
167.2581268895
 30
0.0
 10
-19.9029863521
 20
167.3453802862
 30
0.0
 10
-19.2562400498
 20
167.6407992125
 30
0.0
 10
-18.4263378251
 20
168.3399859344
 30
0.0
 10
-17.7645266774
 20
169.2474262847
 30
0.0
 10
-17.3308191578
 20
170.2813107502
 30
0.0
 10
-17.1646026891
 20
171.3497513633
 30
0.0
 10
-17.2860725746
 20
172.3592007698
 30
0.0
 10
-17.6951495715
 20
173.2169508389
 30
0.0
 10
-18.152457086
 20
173.6297161462
 30
0.0
 10
-18.4029603453
 20
173.7743451955
 30
0.0
  0
SPLINE
  5
325
100
AcDbEntity
  8
0
100
AcDbSpline
 62
7
  6
CONTINUOUS
 70
0
 71
3
 72
12
 73
8
 74
0
 42
0.0000001
 43
0.0000001
 44
0.0000000001
 40
0.0
 40
0.0
 40
0.0
 40
0.0
 40
0.2791956816
 40
0.5440236104
 40
0.7821525412
 40
0.892717288
 40
1.0
 40
1.0
 40
1.0
 40
1.0
 10
-33.3828436622
 20
147.7003249138
 30
0.0
 10
-33.2230370384
 20
147.928294842
 30
0.0
 10
-32.980565243
 20
148.4256688114
 30
0.0
 10
-32.8756540183
 20
149.2129141188
 30
0.0
 10
-33.0360127476
 20
149.8267132487
 30
0.0
 10
-33.3085030653
 20
150.1966479717
 30
0.0
 10
-33.4821926018
 20
150.3325276788
 30
0.0
 10
-33.5748101442
 20
150.3860658941
 30
0.0
  0
SPLINE
  5
326
100
AcDbEntity
  8
0
100
AcDbSpline
 62
7
  6
CONTINUOUS
 70
0
 71
3
 72
9
 73
5
 74
0
 42
0.0000001
 43
0.0000001
 44
0.0000000001
 40
0.0
 40
0.0
 40
0.0
 40
0.0
 40
0.2530239224
 40
1.0
 40
1.0
 40
1.0
 40
1.0
 10
-10.1066599326
 20
163.8504617899
 30
0.0
 10
-10.17879142
 20
163.8311265493
 30
0.0
 10
-10.4650677534
 20
163.7592752119
 30
0.0
 10
-10.7560288418
 20
163.7059130231
 30
0.0
 10
-10.9746404786
 20
163.6773938166
 30
0.0
  0
SPLINE
  5
327
100
AcDbEntity
  8
0
100
AcDbSpline
 62
7
  6
CONTINUOUS
 70
0
 71
3
 72
15
 73
11
 74
0
 42
0.0000001
 43
0.0000001
 44
0.0000000001
 40
0.0
 40
0.0
 40
0.0
 40
0.0
 40
0.1199886806
 40
0.2480951544
 40
0.3816071267
 40
0.5165522557
 40
0.6486756531
 40
0.774315502
 40
0.8913412803
 40
1.0
 40
1.0
 40
1.0
 40
1.0
 10
-10.1066599326
 20
167.438162245
 30
0.0
 10
-9.7404154238
 20
167.5363360936
 30
0.0
 10
-9.0110321659
 20
167.8527392206
 30
0.0
 10
-8.0467566624
 20
168.5932216204
 30
0.0
 10
-7.2356548504
 20
169.5610570664
 30
0.0
 10
-6.6361353149
 20
170.6862527127
 30
0.0
 10
-6.2907372592
 20
171.8882737523
 30
0.0
 10
-6.2265081809
 20
173.0824401381
 30
0.0
 10
-6.4518303769
 20
174.1831906151
 30
0.0
 10
-6.8036865572
 20
174.8207073249
 30
0.0
 10
-7.0201574118
 20
175.087247723
 30
0.0
  0
SPLINE
  5
328
100
AcDbEntity
  8
0
100
AcDbSpline
 62
7
  6
CONTINUOUS
 70
0
 71
3
 72
9
 73
5
 74
0
 42
0.0000001
 43
0.0000001
 44
0.0000000001
 40
0.0
 40
0.0
 40
0.0
 40
0.0
 40
0.4836981016
 40
1.0
 40
1.0
 40
1.0
 40
1.0
 10
1.8099579461
 20
177.6783585986
 30
0.0
 10
1.9531850849
 20
177.5955603956
 30
0.0
 10
2.2907604012
 20
177.489586233
 30
0.0
 10
2.6396720141
 20
177.5258126541
 30
0.0
 10
2.810239186
 20
177.5715341197
 30
0.0
  0
SPLINE
  5
329
100
AcDbEntity
  8
0
100
AcDbSpline
 62
7
  6
CONTINUOUS
 70
0
 71
3
 72
9
 73
5
 74
0
 42
0.0000001
 43
0.0000001
 44
0.0000000001
 40
0.0
 40
0.0
 40
0.0
 40
0.0
 40
0.4854027711
 40
1.0
 40
1.0
 40
1.0
 40
1.0
 10
-0.571376646
 20
183.242838361
 30
0.0
 10
-0.3031427467
 20
183.0879300308
 30
0.0
 10
0.3211470252
 20
182.8817375554
 30
0.0
 10
0.9726866857
 20
182.9246256527
 30
0.0
 10
1.2932452516
 20
182.99587596
 30
0.0
  0
SPLINE
  5
32A
100
AcDbEntity
  8
0
100
AcDbSpline
 62
7
  6
CONTINUOUS
 70
0
 71
3
 72
17
 73
13
 74
0
 42
0.0000001
 43
0.0000001
 44
0.0000000001
 40
0.0
 40
0.0
 40
0.0
 40
0.0
 40
0.1228378842
 40
0.2546982085
 40
0.3916794894
 40
0.5284208858
 40
0.6596224098
 40
0.781566385
 40
0.8389124344
 40
0.8940272389
 40
0.9474649675
 40
1.0
 40
1.0
 40
1.0
 40
1.0
 10
-33.1654004387
 20
152.9083727579
 30
0.0
 10
-32.4027062063
 20
153.1128171285
 30
0.0
 10
-30.887293307
 20
153.8050783352
 30
0.0
 10
-28.9425709246
 20
155.4432644867
 30
0.0
 10
-27.3919875305
 20
157.5696130587
 30
0.0
 10
-26.3758002798
 20
159.9924884803
 30
0.0
 10
-25.9858508713
 20
162.494664757
 30
0.0
 10
-26.2293038156
 20
164.5097171801
 30
0.0
 10
-26.7765859912
 20
165.9208922177
 30
0.0
 10
-27.335939409
 20
166.8362575604
 30
0.0
 10
-28.0391949404
 20
167.6050699117
 30
0.0
 10
-28.5954515056
 20
168.0079918105
 30
0.0
 10
-28.8878742398
 20
168.1769067394
 30
0.0
  0
SPLINE
  5
32B
100
AcDbEntity
  8
0
100
AcDbSpline
 62
7
  6
CONTINUOUS
 70
0
 71
3
 72
9
 73
5
 74
0
 42
0.0000001
 43
0.0000001
 44
0.0000000001
 40
0.0
 40
0.0
 40
0.0
 40
0.0
 40
0.4837123724
 40
1.0
 40
1.0
 40
1.0
 40
1.0
 10
-22.0540223292
 20
167.4530512665
 30
0.0
 10
-21.7925410648
 20
167.3020840224
 30
0.0
 10
-21.1765710292
 20
167.1085260793
 30
0.0
 10
-20.5397686081
 20
167.1746873145
 30
0.0
 10
-20.2284913465
 20
167.2581268895
 30
0.0
  0
SPLINE
  5
32C
100
AcDbEntity
  8
0
100
AcDbSpline
 62
7
  6
CONTINUOUS
 70
0
 71
3
 72
17
 73
13
 74
0
 42
0.0000001
 43
0.0000001
 44
0.0000000001
 40
0.0
 40
0.0
 40
0.0
 40
0.0
 40
0.1228378842
 40
0.2546982085
 40
0.3916794894
 40
0.5284208858
 40
0.6596224098
 40
0.781566385
 40
0.8389124344
 40
0.8940272389
 40
0.9474649675
 40
1.0
 40
1.0
 40
1.0
 40
1.0
 10
-27.6863088717
 20
173.1352873361
 30
0.0
 10
-26.9236146393
 20
173.3397317067
 30
0.0
 10
-25.40820174
 20
174.0319929133
 30
0.0
 10
-23.4634793575
 20
175.6701790649
 30
0.0
 10
-21.9128959634
 20
177.7965276369
 30
0.0
 10
-20.8967087127
 20
180.2194030585
 30
0.0
 10
-20.5067593042
 20
182.7215793351
 30
0.0
 10
-20.7502122485
 20
184.7366317583
 30
0.0
 10
-21.2974944241
 20
186.1478067959
 30
0.0
 10
-21.8568478419
 20
187.0631721386
 30
0.0
 10
-22.5601033734
 20
187.8319844899
 30
0.0
 10
-23.1163599385
 20
188.2349063887
 30
0.0
 10
-23.4087826728
 20
188.4038213176
 30
0.0
  0
SPLINE
  5
32D
100
AcDbEntity
  8
0
100
AcDbSpline
 62
7
  6
CONTINUOUS
 70
0
 71
3
 72
17
 73
13
 74
0
 42
0.0000001
 43
0.0000001
 44
0.0000000001
 40
0.0
 40
0.0
 40
0.0
 40
0.0
 40
0.1228378842
 40
0.2546982085
 40
0.3916794894
 40
0.5284208858
 40
0.6596224098
 40
0.781566385
 40
0.8389124344
 40
0.8940272389
 40
0.9474649675
 40
1.0
 40
1.0
 40
1.0
 40
1.0
 10
-9.9555961057
 20
177.8881021048
 30
0.0
 10
-9.1929018733
 20
178.0925464754
 30
0.0
 10
-7.677488974
 20
178.7848076821
 30
0.0
 10
-5.7327665916
 20
180.4229938336
 30
0.0
 10
-4.1821831974
 20
182.5493424056
 30
0.0
 10
-3.1659959467
 20
184.9722178272
 30
0.0
 10
-2.7760465383
 20
187.4743941039
 30
0.0
 10
-3.0194994825
 20
189.489446527
 30
0.0
 10
-3.5667816582
 20
190.9006215647
 30
0.0
 10
-4.1261350759
 20
191.8159869073
 30
0.0
 10
-4.8293906074
 20
192.5847992586
 30
0.0
 10
-5.3856471725
 20
192.9877211574
 30
0.0
 10
-5.6780699068
 20
193.1566360863
 30
0.0
  0
SPLINE
  5
32E
100
AcDbEntity
  8
0
100
AcDbSpline
 62
7
  6
CONTINUOUS
 70
0
 71
3
 72
20
 73
16
 74
0
 42
0.0000001
 43
0.0000001
 44
0.0000000001
 40
0.0
 40
0.0
 40
0.0
 40
0.0
 40
0.1271659072
 40
0.1953147201
 40
0.2653069829
 40
0.4061131354
 40
0.5411872685
 40
0.6046832874
 40
0.6648618536
 40
0.7219728972
 40
0.7768094714
 40
0.8306287197
 40
0.8849123596
 40
0.941044265
 40
1.0
 40
1.0
 40
1.0
 40
1.0
 10
-18.8209524887
 20
160.5154503368
 30
0.0
 10
-19.7448859499
 20
160.2677849101
 30
0.0
 10
-21.0913779388
 20
159.5796050305
 30
0.0
 10
-22.6009844912
 20
158.2682842628
 30
0.0
 10
-23.9600950785
 20
156.6590965274
 30
0.0
 10
-25.1779879518
 20
154.3161253526
 30
0.0
 10
-25.643691761
 20
151.7565039252
 30
0.0
 10
-25.4764431872
 20
149.807134867
 30
0.0
 10
-25.09744163
 20
148.4909532042
 30
0.0
 10
-24.4731740241
 20
147.3436719694
 30
0.0
 10
-23.6240376547
 20
146.412737611
 30
0.0
 10
-22.582756854
 20
145.7401824792
 30
0.0
 10
-21.394285456
 20
145.355915023
 30
0.0
 10
-20.1112015185
 20
145.2736305946
 30
0.0
 10
-19.2492998143
 20
145.4154752888
 30
0.0
 10
-18.8209524887
 20
145.5302961379
 30
0.0
  0
SPLINE
  5
32F
100
AcDbEntity
  8
0
100
AcDbSpline
 62
7
  6
CONTINUOUS
 70
0
 71
3
 72
20
 73
16
 74
0
 42
0.0000001
 43
0.0000001
 44
0.0000000001
 40
0.0
 40
0.0
 40
0.0
 40
0.0
 40
0.1271659072
 40
0.1953147201
 40
0.2653069829
 40
0.4061131354
 40
0.5411872685
 40
0.6046832874
 40
0.6648618536
 40
0.7219728972
 40
0.7768094714
 40
0.8306287197
 40
0.8849123596
 40
0.941044265
 40
1.0
 40
1.0
 40
1.0
 40
1.0
 10
-18.8209524887
 20
145.5302961379
 30
0.0
 10
-17.8970190282
 20
145.7779615676
 30
0.0
 10
-16.5505270383
 20
146.4661414434
 30
0.0
 10
-15.0409204862
 20
147.7774622121
 30
0.0
 10
-13.6818098988
 20
149.3866499471
 30
0.0
 10
-12.4639170255
 20
151.7296211221
 30
0.0
 10
-11.9982132164
 20
154.2892425495
 30
0.0
 10
-12.1654617901
 20
156.2386116077
 30
0.0
 10
-12.5444633473
 20
157.5547932704
 30
0.0
 10
-13.1687309532
 20
158.7020745053
 30
0.0
 10
-14.0178673226
 20
159.6330088636
 30
0.0
 10
-15.0591481233
 20
160.3055639955
 30
0.0
 10
-16.2476195213
 20
160.6898314516
 30
0.0
 10
-17.530703459
 20
160.7721158805
 30
0.0
 10
-18.3926051627
 20
160.6302711846
 30
0.0
 10
-18.8209524887
 20
160.5154503368
 30
0.0
  0
SPLINE
  5
330
100
AcDbEntity
  8
0
100
AcDbSpline
 62
7
  6
CONTINUOUS
 70
0
 71
3
 72
20
 73
16
 74
0
 42
0.0000001
 43
0.0000001
 44
0.0000000001
 40
0.0
 40
0.0
 40
0.0
 40
0.0
 40
0.1271679565
 40
0.1953137536
 40
0.2653061855
 40
0.4061104859
 40
0.5411864614
 40
0.6046833477
 40
0.6648622816
 40
0.7219732752
 40
0.7768090615
 40
0.8306292012
 40
0.8849105357
 40
0.9410477729
 40
1.0
 40
1.0
 40
1.0
 40
1.0
 10
-18.8209524887
 20
175.4546378051
 30
0.0
 10
-19.5181641103
 20
175.2677464133
 30
0.0
 10
-20.5342341868
 20
174.7484579918
 30
0.0
 10
-21.6733409507
 20
173.7588950021
 30
0.0
 10
-22.69893662
 20
172.544648011
 30
0.0
 10
-23.6179626009
 20
170.7766419392
 30
0.0
 10
-23.9694262524
 20
168.8451530185
 30
0.0
 10
-23.8432143401
 20
167.3741401699
 30
0.0
 10
-23.5572063647
 20
166.3809444554
 30
0.0
 10
-23.0861164552
 20
165.515221172
 30
0.0
 10
-22.4453644151
 20
164.8127277641
 30
0.0
 10
-21.659606351
 20
164.3052604967
 30
0.0
 10
-20.7627880517
 20
164.0152116892
 30
0.0
 10
-19.7945664676
 20
163.953180001
 30
0.0
 10
-19.1441642388
 20
164.0601833782
 30
0.0
 10
-18.8209524887
 20
164.1468220599
 30
0.0
  0
SPLINE
  5
331
100
AcDbEntity
  8
0
100
AcDbSpline
 62
7
  6
CONTINUOUS
 70
0
 71
3
 72
20
 73
16
 74
0
 42
0.0000001
 43
0.0000001
 44
0.0000000001
 40
0.0
 40
0.0
 40
0.0
 40
0.0
 40
0.1271679565
 40
0.1953137536
 40
0.2653061855
 40
0.4061104859
 40
0.5411864614
 40
0.6046833477
 40
0.6648622816
 40
0.7219732752
 40
0.7768090615
 40
0.8306292012
 40
0.8849105357
 40
0.9410477729
 40
1.0
 40
1.0
 40
1.0
 40
1.0
 10
-18.8209524887
 20
164.1468220599
 30
0.0
 10
-18.1237408686
 20
164.3337134572
 30
0.0
 10
-17.1076707899
 20
164.8530018715
 30
0.0
 10
-15.9685640269
 20
165.8425648632
 30
0.0
 10
-14.9429683572
 20
167.0568118537
 30
0.0
 10
-14.0239423765
 20
168.8248179258
 30
0.0
 10
-13.6724787249
 20
170.7563068465
 30
0.0
 10
-13.7986906372
 20
172.227319695
 30
0.0
 10
-14.0846986126
 20
173.2205154095
 30
0.0
 10
-14.5557885221
 20
174.0862386929
 30
0.0
 10
-15.1965405621
 20
174.7887321009
 30
0.0
 10
-15.9822986264
 20
175.296199368
 30
0.0
 10
-16.8791169255
 20
175.5862481761
 30
0.0
 10
-17.84733851
 20
175.6482798642
 30
0.0
 10
-18.4977407379
 20
175.5412764842
 30
0.0
 10
-18.8209524887
 20
175.4546378051
 30
0.0
  0
SPLINE
  5
332
100
AcDbEntity
  8
0
100
AcDbSpline
 62
7
  6
CONTINUOUS
 70
0
 71
3
 72
12
 73
8
 74
0
 42
0.0000001
 43
0.0000001
 44
0.0000000001
 40
0.0
 40
0.0
 40
0.0
 40
0.0
 40
0.115605639
 40
0.2328890328
 40
0.4747536624
 40
0.7300098885
 40
1.0
 40
1.0
 40
1.0
 40
1.0
 10
-89.7672866769
 20
174.0507525184
 30
0.0
 10
-90.4291121875
 20
174.5618569601
 30
0.0
 10
-91.6945709754
 20
175.6828563902
 30
0.0
 10
-93.9510357592
 20
178.2819848764
 30
0.0
 10
-96.1944183446
 20
182.1746597753
 30
0.0
 10
-97.8087035345
 20
187.5254653181
 30
0.0
 10
-98.1493727809
 20
191.3374338717
 30
0.0
 10
-98.1493727809
 20
193.2903437701
 30
0.0
  0
SPLINE
  5
333
100
AcDbEntity
  8
0
100
AcDbSpline
 62
7
  6
CONTINUOUS
 70
0
 71
3
 72
17
 73
13
 74
0
 42
0.0000001
 43
0.0000001
 44
0.0000000001
 40
0.0
 40
0.0
 40
0.0
 40
0.0
 40
0.1228378842
 40
0.2546982085
 40
0.3916794894
 40
0.5284208858
 40
0.6596224098
 40
0.781566385
 40
0.8389124344
 40
0.8940272389
 40
0.9474649675
 40
1.0
 40
1.0
 40
1.0
 40
1.0
 10
-4.4765045386
 20
160.598588596
 30
0.0
 10
-3.7138103062
 20
160.8030329666
 30
0.0
 10
-2.1983974069
 20
161.4952941732
 30
0.0
 10
-0.2536750245
 20
163.1334803247
 30
0.0
 10
1.2969083696
 20
165.2598288967
 30
0.0
 10
2.3130956203
 20
167.6827043183
 30
0.0
 10
2.7030450288
 20
170.184880595
 30
0.0
 10
2.4595920846
 20
172.1999330181
 30
0.0
 10
1.9123099089
 20
173.6111080558
 30
0.0
 10
1.3529564911
 20
174.5264733984
 30
0.0
 10
0.6497009597
 20
175.2952857498
 30
0.0
 10
0.0934443946
 20
175.6982076486
 30
0.0
 10
-0.1989783397
 20
175.8671225775
 30
0.0
  0
SPLINE
  5
334
100
AcDbEntity
  8
0
100
AcDbSpline
 62
7
  6
CONTINUOUS
 70
0
 71
3
 72
10
 73
6
 74
0
 42
0.0000001
 43
0.0000001
 44
0.0000000001
 40
0.0
 40
0.0
 40
0.0
 40
0.0
 40
0.2403281377
 40
0.4850960221
 40
1.0
 40
1.0
 40
1.0
 40
1.0
 10
-23.0543350941
 20
148.9432954503
 30
0.0
 10
-22.8527023629
 20
148.8268714987
 30
0.0
 10
-22.4187647811
 20
148.6352635236
 30
0.0
 10
-21.4650639059
 20
148.4366884804
 30
0.0
 10
-20.7103223523
 20
148.5124435257
 30
0.0
 10
-20.2284913431
 20
148.6416009684
 30
0.0
  0
SPLINE
  5
335
100
AcDbEntity
  8
0
100
AcDbSpline
 62
7
  6
CONTINUOUS
 70
0
 71
3
 72
10
 73
6
 74
0
 42
0.0000001
 43
0.0000001
 44
0.0000000001
 40
0.0
 40
0.0
 40
0.0
 40
0.0
 40
0.2402992585
 40
0.485067106
 40
1.0
 40
1.0
 40
1.0
 40
1.0
 10
-41.0716963347
 20
172.3864740576
 30
0.0
 10
-40.9289669799
 20
172.3040567576
 30
0.0
 10
-40.6217802965
 20
172.1683942831
 30
0.0
 10
-39.9465883276
 20
172.0278476473
 30
0.0
 10
-39.4122390236
 20
172.0814366936
 30
0.0
 10
-39.0711014624
 20
172.1728804872
 30
0.0
  0
SPLINE
  5
336
100
AcDbEntity
  8
0
100
AcDbSpline
 62
7
  6
CONTINUOUS
 70
0
 71
3
 72
13
 73
9
 74
0
 42
0.0000001
 43
0.0000001
 44
0.0000000001
 40
0.0
 40
0.0
 40
0.0
 40
0.0
 40
0.1140514167
 40
0.2319544774
 40
0.4790598171
 40
0.6081950468
 40
0.7391933144
 40
1.0
 40
1.0
 40
1.0
 40
1.0
 10
-90.8024511853
 20
227.2465584728
 30
0.0
 10
-91.2405712034
 20
227.1291179999
 30
0.0
 10
-92.1070113864
 20
226.7872294081
 30
0.0
 10
-93.7024472395
 20
225.7262053426
 30
0.0
 10
-94.9808853125
 20
224.1639904703
 30
0.0
 10
-95.8243588275
 20
222.324062829
 30
0.0
 10
-96.3688435056
 20
220.3178091114
 30
0.0
 10
-96.4020227031
 20
218.7226810531
 30
0.0
 10
-96.2482685063
 20
217.6969010169
 30
0.0
  0
SPLINE
  5
337
100
AcDbEntity
  8
0
100
AcDbSpline
 62
7
  6
CONTINUOUS
 70
0
 71
3
 72
12
 73
8
 74
0
 42
0.0000001
 43
0.0000001
 44
0.0000000001
 40
0.0
 40
0.0
 40
0.0
 40
0.0
 40
0.2683104961
 40
0.5236401366
 40
0.7656158433
 40
0.8833922802
 40
1.0
 40
1.0
 40
1.0
 40
1.0
 10
-82.9878263758
 20
129.2290927149
 30
0.0
 10
-82.8709070734
 20
128.4490588119
 30
0.0
 10
-82.4419276835
 20
126.9469362205
 30
0.0
 10
-81.2206695467
 20
125.0179393347
 30
0.0
 10
-79.7884788456
 20
123.8513780765
 30
0.0
 10
-78.5005080832
 20
123.2855820102
 30
0.0
 10
-77.8253315185
 20
123.1262307158
 30
0.0
 10
-77.4858544645
 20
123.0786900602
 30
0.0
  0
SPLINE
  5
338
100
AcDbEntity
  8
0
100
AcDbSpline
 62
7
  6
CONTINUOUS
 70
0
 71
3
 72
9
 73
5
 74
0
 42
0.0000001
 43
0.0000001
 44
0.0000000001
 40
0.0
 40
0.0
 40
0.0
 40
0.0
 40
0.2577692117
 40
1.0
 40
1.0
 40
1.0
 40
1.0
 10
-82.065537741
 20
217.5771862718
 30
0.0
 10
-82.0811948014
 20
217.681643258
 30
0.0
 10
-82.1643352679
 20
218.0829534334
 30
0.0
 10
-82.3403957441
 20
218.4669502146
 30
0.0
 10
-82.5201463271
 20
218.7122854703
 30
0.0
  0
SPLINE
  5
339
100
AcDbEntity
  8
0
100
AcDbSpline
 62
7
  6
CONTINUOUS
 70
0
 71
3
 72
9
 73
5
 74
0
 42
0.0000001
 43
0.0000001
 44
0.0000000001
 40
0.0
 40
0.0
 40
0.0
 40
0.0
 40
0.2577692117
 40
1.0
 40
1.0
 40
1.0
 40
1.0
 10
-69.6794104761
 20
134.9424202754
 30
0.0
 10
-69.6950675366
 20
135.0468772616
 30
0.0
 10
-69.7782080031
 20
135.4481874371
 30
0.0
 10
-69.9542684793
 20
135.8321842182
 30
0.0
 10
-70.1340190623
 20
136.0775194739
 30
0.0
  0
SPLINE
  5
33A
100
AcDbEntity
  8
0
100
AcDbSpline
 62
7
  6
CONTINUOUS
 70
0
 71
3
 72
9
 73
5
 74
0
 42
0.0000001
 43
0.0000001
 44
0.0000000001
 40
0.0
 40
0.0
 40
0.0
 40
0.0
 40
0.4890309466
 40
1.0
 40
1.0
 40
1.0
 40
1.0
 10
-83.0387583629
 20
214.9624768908
 30
0.0
 10
-82.668432014
 20
215.2523352938
 30
0.0
 10
-82.0937156103
 20
216.0907981623
 30
0.0
 10
-81.9926995526
 20
217.091242076
 30
0.0
 10
-82.065537741
 20
217.5771862718
 30
0.0
  0
SPLINE
  5
33B
100
AcDbEntity
  8
0
100
AcDbSpline
 62
7
  6
CONTINUOUS
 70
0
 71
3
 72
9
 73
5
 74
0
 42
0.0000001
 43
0.0000001
 44
0.0000000001
 40
0.0
 40
0.0
 40
0.0
 40
0.0
 40
0.4890309466
 40
1.0
 40
1.0
 40
1.0
 40
1.0
 10
-70.6526310981
 20
132.3277108944
 30
0.0
 10
-70.2823047492
 20
132.6175692974
 30
0.0
 10
-69.7075883455
 20
133.4560321659
 30
0.0
 10
-69.6065722877
 20
134.4564760796
 30
0.0
 10
-69.6794104761
 20
134.9424202754
 30
0.0
  0
SPLINE
  5
33C
100
AcDbEntity
  8
0
100
AcDbSpline
 62
7
  6
CONTINUOUS
 70
0
 71
3
 72
9
 73
5
 74
0
 42
0.0000001
 43
0.0000001
 44
0.0000000001
 40
0.0
 40
0.0
 40
0.0
 40
0.0
 40
0.2477030856
 40
1.0
 40
1.0
 40
1.0
 40
1.0
 10
-80.4185049597
 20
127.325659783
 30
0.0
 10
-80.4634870346
 20
127.4540790719
 30
0.0
 10
-80.632417207
 20
127.9768878614
 30
0.0
 10
-80.7512428354
 20
128.5157407219
 30
0.0
 10
-80.8125013752
 20
128.9244306212
 30
0.0
  0
SPLINE
  5
33D
100
AcDbEntity
  8
0
100
AcDbSpline
 62
7
  6
CONTINUOUS
 70
0
 71
3
 72
9
 73
5
 74
0
 42
0.0000001
 43
0.0000001
 44
0.0000000001
 40
0.0
 40
0.0
 40
0.0
 40
0.0
 40
0.2534893013
 40
1.0
 40
1.0
 40
1.0
 40
1.0
 10
-89.9938939792
 20
226.3939524402
 30
0.0
 10
-89.8843718092
 20
226.4533284332
 30
0.0
 10
-89.4457933889
 20
226.6752686905
 30
0.0
 10
-88.9815011964
 20
226.8469042143
 30
0.0
 10
-88.6271261847
 20
226.9418963791
 30
0.0
  0
SPLINE
  5
33E
100
AcDbEntity
  8
0
100
AcDbSpline
 62
7
  6
CONTINUOUS
 70
0
 71
3
 72
9
 73
5
 74
0
 42
0.0000001
 43
0.0000001
 44
0.0000000001
 40
0.0
 40
0.0
 40
0.0
 40
0.0
 40
0.2488149799
 40
1.0
 40
1.0
 40
1.0
 40
1.0
 10
-80.4525663972
 20
219.5373634149
 30
0.0
 10
-80.5231387716
 20
219.5472532186
 30
0.0
 10
-80.8086717642
 20
219.5725835605
 30
0.0
 10
-81.0989626601
 20
219.5384094608
 30
0.0
 10
-81.3067500523
 20
219.4826320294
 30
0.0
  0
SPLINE
  5
33F
100
AcDbEntity
  8
0
100
AcDbSpline
 62
7
  6
CONTINUOUS
 70
0
 71
3
 72
9
 73
5
 74
0
 42
0.0000001
 43
0.0000001
 44
0.0000000001
 40
0.0
 40
0.0
 40
0.0
 40
0.0
 40
0.2432935033
 40
1.0
 40
1.0
 40
1.0
 40
1.0
 10
-82.1734743403
 20
219.0162615082
 30
0.0
 10
-82.1061720507
 20
218.9213858329
 30
0.0
 10
-81.8545271607
 20
218.5139223779
 30
0.0
 10
-81.7059448399
 20
218.0457503495
 30
0.0
 10
-81.6523145862
 20
217.6879530039
 30
0.0
  0
SPLINE
  5
340
100
AcDbEntity
  8
0
100
AcDbSpline
 62
7
  6
CONTINUOUS
 70
0
 71
3
 72
9
 73
5
 74
0
 42
0.0000001
 43
0.0000001
 44
0.0000000001
 40
0.0
 40
0.0
 40
0.0
 40
0.0
 40
0.2488149799
 40
1.0
 40
1.0
 40
1.0
 40
1.0
 10
-68.0664391324
 20
136.9025974185
 30
0.0
 10
-68.1370115067
 20
136.9124872223
 30
0.0
 10
-68.4225444994
 20
136.9378175641
 30
0.0
 10
-68.7128353953
 20
136.9036434645
 30
0.0
 10
-68.9206227875
 20
136.8478660331
 30
0.0
  0
SPLINE
  5
341
100
AcDbEntity
  8
0
100
AcDbSpline
 62
7
  6
CONTINUOUS
 70
0
 71
3
 72
9
 73
5
 74
0
 42
0.0000001
 43
0.0000001
 44
0.0000000001
 40
0.0
 40
0.0
 40
0.0
 40
0.0
 40
0.2432935033
 40
1.0
 40
1.0
 40
1.0
 40
1.0
 10
-69.7873470755
 20
136.3814955118
 30
0.0
 10
-69.7200447859
 20
136.2866198365
 30
0.0
 10
-69.4683998959
 20
135.8791563815
 30
0.0
 10
-69.319817575
 20
135.4109843532
 30
0.0
 10
-69.2661873214
 20
135.0531870076
 30
0.0
  0
SPLINE
  5
342
100
AcDbEntity
  8
0
100
AcDbSpline
 62
7
  6
CONTINUOUS
 70
0
 71
3
 72
12
 73
8
 74
0
 42
0.0000001
 43
0.0000001
 44
0.0000000001
 40
0.0
 40
0.0
 40
0.0
 40
0.0
 40
0.1141465032
 40
0.2321738583
 40
0.4794960043
 40
0.7389461754
 40
1.0
 40
1.0
 40
1.0
 40
1.0
 10
-88.6271261848
 20
226.9418963791
 30
0.0
 10
-89.0652118495
 20
226.8244651148
 30
0.0
 10
-89.9315949313
 20
226.4825704442
 30
0.0
 10
-91.5274590604
 20
225.4212352766
 30
0.0
 10
-93.1394183863
 20
223.4510023628
 30
0.0
 10
-94.1827314182
 20
220.5303300067
 30
0.0
 10
-94.22670314
 20
218.4180552351
 30
0.0
 10
-94.0729435058
 20
217.3922389232
 30
0.0
  0
SPLINE
  5
343
100
AcDbEntity
  8
0
100
AcDbSpline
 62
7
  6
CONTINUOUS
 70
0
 71
3
 72
11
 73
7
 74
0
 42
0.0000001
 43
0.0000001
 44
0.0000000001
 40
0.0
 40
0.0
 40
0.0
 40
0.0
 40
0.2639930922
 40
0.5191554636
 40
0.7642347712
 40
1.0
 40
1.0
 40
1.0
 40
1.0
 10
-80.8125013752
 20
128.9244306212
 30
0.0
 10
-80.7251765862
 20
128.3418382294
 30
0.0
 10
-80.4413079668
 20
127.2091561771
 30
0.0
 10
-79.6880696208
 20
125.664693638
 30
0.0
 10
-78.6487348346
 20
124.3744444617
 30
0.0
 10
-77.7818184763
 20
123.719063086
 30
0.0
 10
-77.3236856062
 20
123.4604008922
 30
0.0
  0
SPLINE
  5
344
100
AcDbEntity
  8
0
100
AcDbSpline
 62
7
  6
CONTINUOUS
 70
0
 71
3
 72
9
 73
5
 74
0
 42
0.0000001
 43
0.0000001
 44
0.0000000001
 40
0.0
 40
0.0
 40
0.0
 40
0.0
 40
0.502673014
 40
1.0
 40
1.0
 40
1.0
 40
1.0
 10
-77.3236856062
 20
123.4604008922
 30
0.0
 10
-77.0119732852
 20
123.2844078605
 30
0.0
 10
-76.3586136331
 20
122.989779985
 30
0.0
 10
-75.6612612375
 20
122.8231624377
 30
0.0
 10
-75.3105285969
 20
122.774033246
 30
0.0
  0
SPLINE
  5
345
100
AcDbEntity
  8
0
100
AcDbSpline
 62
7
  6
CONTINUOUS
 70
0
 71
3
 72
9
 73
5
 74
0
 42
0.0000001
 43
0.0000001
 44
0.0000000001
 40
0.0
 40
0.0
 40
0.0
 40
0.0
 40
0.510703273
 40
1.0
 40
1.0
 40
1.0
 40
1.0
 10
-69.2661873214
 20
135.0531870076
 30
0.0
 10
-69.1794448442
 20
134.474479543
 30
0.0
 10
-69.2977059908
 20
133.2830181576
 30
0.0
 10
-69.9758426285
 20
132.2810275316
 30
0.0
 10
-70.4140640181
 20
131.9313361815
 30
0.0
  0
SPLINE
  5
346
100
AcDbEntity
  8
0
100
AcDbSpline
 62
7
  6
CONTINUOUS
 70
0
 71
3
 72
9
 73
5
 74
0
 42
0.0000001
 43
0.0000001
 44
0.0000000001
 40
0.0
 40
0.0
 40
0.0
 40
0.0
 40
0.510703273
 40
1.0
 40
1.0
 40
1.0
 40
1.0
 10
-81.6523145862
 20
217.6879530039
 30
0.0
 10
-81.565572109
 20
217.1092455394
 30
0.0
 10
-81.6838332556
 20
215.9177841539
 30
0.0
 10
-82.3619698933
 20
214.915793528
 30
0.0
 10
-82.8001912829
 20
214.5661021778
 30
0.0
  0
SPLINE
  5
347
100
AcDbEntity
  8
0
100
AcDbSpline
 62
7
  6
CONTINUOUS
 70
0
 71
3
 72
9
 73
5
 74
0
 42
0.0000001
 43
0.0000001
 44
0.0000000001
 40
0.0
 40
0.0
 40
0.0
 40
0.0
 40
0.5028715139
 40
1.0
 40
1.0
 40
1.0
 40
1.0
 10
-69.7721902447
 20
122.4623154549
 30
0.0
 10
-70.1432083758
 20
122.3628620107
 30
0.0
 10
-70.9021648764
 20
122.236105197
 30
0.0
 10
-71.671482889
 20
122.2643634121
 30
0.0
 10
-72.0475410961
 20
122.3170401055
 30
0.0
  0
SPLINE
  5
348
100
AcDbEntity
  8
0
100
AcDbSpline
 62
7
  6
CONTINUOUS
 70
0
 71
3
 72
11
 73
7
 74
0
 42
0.0000001
 43
0.0000001
 44
0.0000000001
 40
0.0
 40
0.0
 40
0.0
 40
0.0
 40
0.2685846224
 40
0.5241523409
 40
0.7663606832
 40
1.0
 40
1.0
 40
1.0
 40
1.0
 10
-70.9618779431
 20
133.2669948548
 30
0.0
 10
-70.9180313261
 20
132.9744693164
 30
0.0
 10
-70.7573663009
 20
132.4111911547
 30
0.0
 10
-70.2985694027
 20
131.6877337575
 30
0.0
 10
-69.6631556779
 20
131.1684694421
 30
0.0
 10
-69.1534581466
 20
130.9962926068
 30
0.0
 10
-68.8986301292
 20
130.9606546194
 30
0.0
  0
SPLINE
  5
349
100
AcDbEntity
  8
0
100
AcDbSpline
 62
7
  6
CONTINUOUS
 70
0
 71
3
 72
11
 73
7
 74
0
 42
0.0000001
 43
0.0000001
 44
0.0000000001
 40
0.0
 40
0.0
 40
0.0
 40
0.0
 40
0.2311999488
 40
0.4788335415
 40
0.7386037987
 40
1.0
 40
1.0
 40
1.0
 40
1.0
 10
-68.9206227875
 20
136.8478660331
 30
0.0
 10
-69.252839457
 20
136.758687415
 30
0.0
 10
-69.9026152673
 20
136.4093332811
 30
0.0
 10
-70.6109090756
 20
135.5389705543
 30
0.0
 10
-71.0033858964
 20
134.4433904498
 30
0.0
 10
-71.019526659
 20
133.651601988
 30
0.0
 10
-70.9618779431
 20
133.2669948548
 30
0.0
  0
SPLINE
  5
34A
100
AcDbEntity
  8
0
100
AcDbSpline
 62
7
  6
CONTINUOUS
 70
0
 71
3
 72
11
 73
7
 74
0
 42
0.0000001
 43
0.0000001
 44
0.0000000001
 40
0.0
 40
0.0
 40
0.0
 40
0.0
 40
0.2685846224
 40
0.5241523409
 40
0.7663606832
 40
1.0
 40
1.0
 40
1.0
 40
1.0
 10
-83.3480052079
 20
215.9017608512
 30
0.0
 10
-83.3041585909
 20
215.6092353128
 30
0.0
 10
-83.1434935657
 20
215.0459571511
 30
0.0
 10
-82.6846966676
 20
214.3224997539
 30
0.0
 10
-82.0492829428
 20
213.8032354384
 30
0.0
 10
-81.5395854114
 20
213.6310586032
 30
0.0
 10
-81.2847573941
 20
213.5954206158
 30
0.0
  0
SPLINE
  5
34B
100
AcDbEntity
  8
0
100
AcDbSpline
 62
7
  6
CONTINUOUS
 70
0
 71
3
 72
11
 73
7
 74
0
 42
0.0000001
 43
0.0000001
 44
0.0000000001
 40
0.0
 40
0.0
 40
0.0
 40
0.0
 40
0.2311999488
 40
0.4788335415
 40
0.7386037987
 40
1.0
 40
1.0
 40
1.0
 40
1.0
 10
-81.3067500523
 20
219.4826320294
 30
0.0
 10
-81.6389667217
 20
219.3934534114
 30
0.0
 10
-82.2887425321
 20
219.0440992775
 30
0.0
 10
-82.9970363404
 20
218.1737365507
 30
0.0
 10
-83.3895131612
 20
217.0781564462
 30
0.0
 10
-83.4056539238
 20
216.2863679843
 30
0.0
 10
-83.3480052079
 20
215.9017608512
 30
0.0
  0
SPLINE
  5
34C
100
AcDbEntity
  8
0
100
AcDbSpline
 62
7
  6
CONTINUOUS
 70
0
 71
3
 72
9
 73
5
 74
0
 42
0.0000001
 43
0.0000001
 44
0.0000000001
 40
0.0
 40
0.0
 40
0.0
 40
0.0
 40
0.4836053451
 40
1.0
 40
1.0
 40
1.0
 40
1.0
 10
16.417819981
 20
199.5121853853
 30
0.0
 10
17.9092646358
 20
196.702797734
 30
0.0
 10
20.1680909941
 20
190.4340975064
 30
0.0
 10
20.8484703641
 20
183.8307292483
 30
0.0
 10
20.8484703641
 20
180.4343362226
 30
0.0
  0
SPLINE
  5
34D
100
AcDbEntity
  8
0
100
AcDbSpline
 62
7
  6
CONTINUOUS
 70
0
 71
3
 72
16
 73
12
 74
0
 42
0.0000001
 43
0.0000001
 44
0.0000000001
 40
0.0
 40
0.0
 40
0.0
 40
0.0
 40
0.1247784601
 40
0.2543804358
 40
0.3203447487
 40
0.3866103056
 40
0.5185679964
 40
0.6477278944
 40
0.7718336645
 40
0.8893846842
 40
1.0
 40
1.0
 40
1.0
 40
1.0
 10
20.8484703641
 20
180.4343362226
 30
0.0
 10
20.8484703641
 20
177.1101732933
 30
0.0
 10
20.1604083078
 20
170.3209091134
 30
0.0
 10
17.7830850356
 20
162.0792287434
 30
0.0
 10
15.0164670009
 20
155.6680931485
 30
0.0
 10
11.6917414698
 20
149.4568232625
 30
0.0
 10
6.6234096467
 20
142.3041935648
 30
0.0
 10
-0.678758075
 20
135.0208281527
 30
0.0
 10
-8.865811093
 20
129.3849296642
 30
0.0
 10
-17.5562782369
 20
125.6729463815
 30
0.0
 10
-23.6079015076
 20
124.5849360479
 30
0.0
 10
-26.5514958063
 20
124.4464655269
 30
0.0
  0
SPLINE
  5
34E
100
AcDbEntity
  8
0
100
AcDbSpline
 62
7
  6
CONTINUOUS
 70
0
 71
3
 72
18
 73
14
 74
0
 42
0.0000001
 43
0.0000001
 44
0.0000000001
 40
0.0
 40
0.0
 40
0.0
 40
0.0
 40
0.0528756436
 40
0.1072642159
 40
0.1634994688
 40
0.2217685647
 40
0.3442271144
 40
0.4737269737
 40
0.6075736426
 40
0.6751183581
 40
0.7423986909
 40
0.8742005443
 40
1.0
 40
1.0
 40
1.0
 40
1.0
 10
7.3619982205
 20
198.418681013
 30
0.0
 10
8.2485320114
 20
197.4637247606
 30
0.0
 10
9.8894801698
 20
195.374393382
 30
0.0
 10
11.8641824866
 20
191.8458612851
 30
0.0
 10
13.3528239363
 20
187.9438322086
 30
0.0
 10
14.6800165046
 20
182.2417312306
 30
0.0
 10
14.9636790975
 20
174.522090682
 30
0.0
 10
13.2143390026
 20
165.1107126839
 30
0.0
 10
10.1329812419
 20
157.4988358338
 30
0.0
 10
6.7827685084
 20
151.7779105973
 30
0.0
 10
2.9207114007
 20
146.450806076
 30
0.0
 10
-2.7130398593
 20
140.68504503
 30
0.0
 10
-8.0536179769
 20
137.1390713463
 30
0.0
 10
-10.8253821422
 20
135.7505458132
 30
0.0
  0
SPLINE
  5
34F
100
AcDbEntity
  8
0
100
AcDbSpline
 62
7
  6
CONTINUOUS
 70
0
 71
3
 72
11
 73
7
 74
0
 42
0.0000001
 43
0.0000001
 44
0.0000000001
 40
0.0
 40
0.0
 40
0.0
 40
0.0
 40
0.2570200125
 40
0.508214881
 40
0.7551822505
 40
1.0
 40
1.0
 40
1.0
 40
1.0
 10
-24.0014451375
 20
132.2186298872
 30
0.0
 10
-25.1484982893
 20
132.178302643
 30
0.0
 10
-27.4248222688
 20
132.2428484653
 30
0.0
 10
-30.7623697053
 20
132.7949809146
 30
0.0
 10
-33.9372529344
 20
133.7956727786
 30
0.0
 10
-35.9225440245
 20
134.7559526516
 30
0.0
 10
-36.869250615
 20
135.3027502556
 30
0.0
  0
SPLINE
  5
350
100
AcDbEntity
  8
0
100
AcDbSpline
 62
7
  6
CONTINUOUS
 70
0
 71
3
 72
14
 73
10
 74
0
 42
0.0000001
 43
0.0000001
 44
0.0000000001
 40
0.0
 40
0.0
 40
0.0
 40
0.0
 40
0.2678665364
 40
0.4052397629
 40
0.5390738352
 40
0.6660659448
 40
0.7844449883
 40
0.8947198658
 40
1.0
 40
1.0
 40
1.0
 40
1.0
 10
-10.8253821422
 20
135.7505458132
 30
0.0
 10
-10.9280687576
 20
134.3729564156
 30
0.0
 10
-11.5837595797
 20
132.3023056358
 30
0.0
 10
-13.1617401335
 20
130.0006088304
 30
0.0
 10
-14.6541514051
 20
128.5654302834
 30
0.0
 10
-16.3434420071
 20
127.5454040872
 30
0.0
 10
-18.1228887874
 20
127.0135107553
 30
0.0
 10
-19.872869048
 20
127.0210058161
 30
0.0
 10
-20.9444662354
 20
127.4055804352
 30
0.0
 10
-21.414606096
 20
127.6771520914
 30
0.0
  0
SPLINE
  5
351
100
AcDbEntity
  8
0
100
AcDbSpline
 62
7
  6
CONTINUOUS
 70
0
 71
3
 72
19
 73
15
 74
0
 42
0.0000001
 43
0.0000001
 44
0.0000000001
 40
0.0
 40
0.0
 40
0.0
 40
0.0
 40
0.1284175106
 40
0.1953765804
 40
0.2634729232
 40
0.4006278061
 40
0.5354546438
 40
0.6638460922
 40
0.7248967384
 40
0.7835977763
 40
0.8400537129
 40
0.8945742914
 40
0.9476672772
 40
1.0
 40
1.0
 40
1.0
 40
1.0
 10
-23.4928089202
 20
199.4741044851
 30
0.0
 10
-26.3258339549
 20
198.0510619238
 30
0.0
 10
-30.3576267908
 20
195.2876949802
 30
0.0
 10
-35.0206210711
 20
190.7412175302
 30
0.0
 10
-39.2884052499
 20
185.5334292318
 30
0.0
 10
-43.5201744334
 20
178.1997770674
 30
0.0
 10
-46.5381477685
 20
168.7080138575
 30
0.0
 10
-47.1598551553
 20
160.6351131515
 30
0.0
 10
-46.4025841622
 20
154.5385664349
 30
0.0
 10
-45.2536004242
 20
150.3258891499
 30
0.0
 10
-43.5344273122
 20
146.486305785
 30
0.0
 10
-41.2759383995
 20
143.0992170005
 30
0.0
 10
-38.5232838492
 20
140.2389613857
 30
0.0
 10
-36.3875159089
 20
138.7199877467
 30
0.0
 10
-35.2687530599
 20
138.0737837956
 30
0.0
  0
SPLINE
  5
352
100
AcDbEntity
  8
0
100
AcDbSpline
 62
7
  6
CONTINUOUS
 70
0
 71
3
 72
11
 73
7
 74
0
 42
0.0000001
 43
0.0000001
 44
0.0000000001
 40
0.0
 40
0.0
 40
0.0
 40
0.0
 40
0.2717600068
 40
0.5268849658
 40
0.7676389069
 40
1.0
 40
1.0
 40
1.0
 40
1.0
 10
-21.545645187
 20
133.6808466922
 30
0.0
 10
-21.545645187
 20
133.3390432011
 30
0.0
 10
-21.4791469358
 20
132.6735474821
 30
0.0
 10
-21.1609226814
 20
131.7516687616
 30
0.0
 10
-20.6392403232
 20
130.9846863348
 30
0.0
 10
-20.1672046472
 20
130.6050413433
 30
0.0
 10
-19.9141512195
 20
130.4588429762
 30
0.0
  0
SPLINE
  5
353
100
AcDbEntity
  8
0
100
AcDbSpline
 62
7
  6
CONTINUOUS
 70
0
 71
3
 72
11
 73
7
 74
0
 42
0.0000001
 43
0.0000001
 44
0.0000000001
 40
0.0
 40
0.0
 40
0.0
 40
0.0
 40
0.2504819789
 40
0.505268836
 40
0.7572484043
 40
1.0
 40
1.0
 40
1.0
 40
1.0
 10
-42.4143993495
 20
204.2898973203
 30
0.0
 10
-45.3486689034
 20
201.4799897015
 30
0.0
 10
-50.6794822814
 20
195.1688691891
 30
0.0
 10
-56.6604127525
 20
184.3558702805
 30
0.0
 10
-60.391627778
 20
172.7047949535
 30
0.0
 10
-61.2212322339
 20
164.6468209934
 30
0.0
 10
-61.161573106
 20
160.7099576961
 30
0.0
  0
SPLINE
  5
354
100
AcDbEntity
  8
0
100
AcDbSpline
 62
7
  6
CONTINUOUS
 70
0
 71
3
 72
11
 73
7
 74
0
 42
0.0000001
 43
0.0000001
 44
0.0000000001
 40
0.0
 40
0.0
 40
0.0
 40
0.0
 40
0.235472636
 40
0.4799458801
 40
0.7347287182
 40
1.0
 40
1.0
 40
1.0
 40
1.0
 10
-52.8576352754
 20
136.1851580489
 30
0.0
 10
-54.1788546114
 20
137.7775306726
 30
0.0
 10
-56.5511206061
 20
141.3010490548
 30
0.0
 10
-59.1315925712
 20
147.2534855421
 30
0.0
 10
-60.7387958187
 20
153.8062142885
 30
0.0
 10
-61.1262537432
 20
158.3792581329
 30
0.0
 10
-61.161573106
 20
160.7099576961
 30
0.0
  0
SPLINE
  5
355
100
AcDbEntity
  8
0
100
AcDbSpline
 62
7
  6
CONTINUOUS
 70
0
 71
3
 72
11
 73
7
 74
0
 42
0.0000001
 43
0.0000001
 44
0.0000000001
 40
0.0
 40
0.0
 40
0.0
 40
0.0
 40
0.233633584
 40
0.4758467542
 40
0.7314152315
 40
1.0
 40
1.0
 40
1.0
 40
1.0
 10
-72.0475410961
 20
122.3170401055
 30
0.0
 10
-72.7270486958
 20
122.4122227468
 30
0.0
 10
-74.0862332202
 20
122.8712678558
 30
0.0
 10
-75.7806910456
 20
124.2560245177
 30
0.0
 10
-77.0040992482
 20
126.1852927433
 30
0.0
 10
-77.4325887205
 20
127.6873645391
 30
0.0
 10
-77.5495138744
 20
128.4674374807
 30
0.0
  0
SPLINE
  5
356
100
AcDbEntity
  8
0
100
AcDbSpline
 62
7
  6
CONTINUOUS
 70
0
 71
3
 72
12
 73
8
 74
0
 42
0.0000001
 43
0.0000001
 44
0.0000000001
 40
0.0
 40
0.0
 40
0.0
 40
0.0
 40
0.2610538246
 40
0.5205039957
 40
0.7678261417
 40
0.8858534968
 40
1.0
 40
1.0
 40
1.0
 40
1.0
 10
-90.809956005
 20
216.9352457827
 30
0.0
 10
-90.9637156392
 20
217.9610620946
 30
0.0
 10
-90.9197439174
 20
220.0733368663
 30
0.0
 10
-89.8764308855
 20
222.9940092223
 30
0.0
 10
-88.2644715596
 20
224.9642421361
 30
0.0
 10
-86.6686074304
 20
226.0255773036
 30
0.0
 10
-85.8022243486
 20
226.3674719743
 30
0.0
 10
-85.364138684
 20
226.4849032386
 30
0.0
  0
SPLINE
  5
357
100
AcDbEntity
  8
0
100
AcDbSpline
 62
7
  6
CONTINUOUS
 70
0
 71
3
 72
14
 73
10
 74
0
 42
0.0000001
 43
0.0000001
 44
0.0000000001
 40
0.0
 40
0.0
 40
0.0
 40
0.0
 40
0.1124461208
 40
0.2274870439
 40
0.3470009223
 40
0.4717192007
 40
0.601205494
 40
0.7340159124
 40
1.0
 40
1.0
 40
1.0
 40
1.0
 10
-68.8986301292
 20
130.9606546194
 30
0.0
 10
-68.7007540683
 20
130.9329814278
 30
0.0
 10
-68.2900462429
 20
130.9349333909
 30
0.0
 10
-67.6916449018
 20
131.1115477488
 30
0.0
 10
-67.1413741012
 20
131.4484807582
 30
0.0
 10
-66.6698375432
 20
131.9242204617
 30
0.0
 10
-66.3018036648
 20
132.5117263935
 30
0.0
 10
-65.9746781731
 20
133.3961666617
 30
0.0
 10
-65.9331415557
 20
134.1287955965
 30
0.0
 10
-66.0031995654
 20
134.5961925077
 30
0.0
  0
SPLINE
  5
358
100
AcDbEntity
  8
0
100
AcDbSpline
 62
7
  6
CONTINUOUS
 70
0
 71
3
 72
11
 73
7
 74
0
 42
0.0000001
 43
0.0000001
 44
0.0000000001
 40
0.0
 40
0.0
 40
0.0
 40
0.0
 40
0.2685905871
 40
0.5241523117
 40
0.7663776
 40
1.0
 40
1.0
 40
1.0
 40
1.0
 10
-66.0031995654
 20
134.5961925077
 30
0.0
 10
-66.0470470817
 20
134.8887242787
 30
0.0
 10
-66.2077153545
 20
135.4520023043
 30
0.0
 10
-66.6665366632
 20
136.1754655401
 30
0.0
 10
-67.3019700818
 20
136.6947022061
 30
0.0
 10
-67.8116398028
 20
136.8668905944
 30
0.0
 10
-68.0664391324
 20
136.9025974185
 30
0.0
  0
SPLINE
  5
359
100
AcDbEntity
  8
0
100
AcDbSpline
 62
7
  6
CONTINUOUS
 70
0
 71
3
 72
11
 73
7
 74
0
 42
0.0000001
 43
0.0000001
 44
0.0000000001
 40
0.0
 40
0.0
 40
0.0
 40
0.0
 40
0.2433290221
 40
0.4894736545
 40
0.7410332223
 40
1.0
 40
1.0
 40
1.0
 40
1.0
 10
-35.2687530599
 20
138.0737837956
 30
0.0
 10
-34.2707506196
 20
137.4973317614
 30
0.0
 10
-32.1611642249
 20
136.5053129734
 30
0.0
 10
-28.766774453
 20
135.554630479
 30
0.0
 10
-25.1911889337
 20
135.1511022494
 30
0.0
 10
-22.7647863405
 20
135.2483712615
 30
0.0
 10
-21.545645187
 20
135.3833387124
 30
0.0
  0
SPLINE
  5
35A
100
AcDbEntity
  8
0
100
AcDbSpline
 62
7
  6
CONTINUOUS
 70
0
 71
3
 72
11
 73
7
 74
0
 42
0.0000001
 43
0.0000001
 44
0.0000000001
 40
0.0
 40
0.0
 40
0.0
 40
0.0
 40
0.2659971065
 40
0.5191233757
 40
0.7623196521
 40
1.0
 40
1.0
 40
1.0
 40
1.0
 10
-25.309407529
 20
132.2661181062
 30
0.0
 10
-25.2344161161
 20
131.8599144774
 30
0.0
 10
-25.0177845858
 20
131.0775499629
 30
0.0
 10
-24.4771409837
 20
130.0148185824
 30
0.0
 10
-23.745468678
 20
129.1284010823
 30
0.0
 10
-23.1417551744
 20
128.6747286157
 30
0.0
 10
-22.8221468712
 20
128.4901170289
 30
0.0
  0
SPLINE
  5
35B
100
AcDbEntity
  8
0
100
AcDbSpline
 62
7
  6
CONTINUOUS
 70
0
 71
3
 72
14
 73
10
 74
0
 42
0.0000001
 43
0.0000001
 44
0.0000000001
 40
0.0
 40
0.0
 40
0.0
 40
0.0
 40
0.1052593579
 40
0.2158746069
 40
0.3350381737
 40
0.4630342974
 40
0.5976755832
 40
0.7352077041
 40
1.0
 40
1.0
 40
1.0
 40
1.0
 10
-19.9141512195
 20
130.4588429762
 30
0.0
 10
-19.6086424249
 20
130.2823391949
 30
0.0
 10
-18.9079524374
 20
130.0367090127
 30
0.0
 10
-17.7656929189
 20
130.054358906
 30
0.0
 10
-16.6115149309
 20
130.4342942166
 30
0.0
 10
-15.528098051
 20
131.1379817159
 30
0.0
 10
-14.5887940612
 20
132.1119758117
 30
0.0
 10
-13.6327162061
 20
133.6449901155
 30
0.0
 10
-13.2811820927
 20
135.0085952585
 30
0.0
 10
-13.2811820927
 20
135.896181336
 30
0.0
  0
SPLINE
  5
35C
100
AcDbEntity
  8
0
100
AcDbSpline
 62
7
  6
CONTINUOUS
 70
0
 71
3
 72
11
 73
7
 74
0
 42
0.0000001
 43
0.0000001
 44
0.0000000001
 40
0.0
 40
0.0
 40
0.0
 40
0.0
 40
0.2346970929
 40
0.4764801463
 40
0.7307028746
 40
1.0
 40
1.0
 40
1.0
 40
1.0
 10
-21.414606096
 20
127.6771520914
 30
0.0
 10
-21.7822308682
 20
127.8895069172
 30
0.0
 10
-22.4716907278
 20
128.4278476813
 30
0.0
 10
-23.2670356101
 20
129.5013201577
 30
0.0
 10
-23.800165728
 20
130.7922087779
 30
0.0
 10
-23.9637354266
 20
131.7329529124
 30
0.0
 10
-24.0014451375
 20
132.2186298872
 30
0.0
  0
SPLINE
  5
35D
100
AcDbEntity
  8
0
100
AcDbSpline
 62
7
  6
CONTINUOUS
 70
0
 71
3
 72
11
 73
7
 74
0
 42
0.0000001
 43
0.0000001
 44
0.0000000001
 40
0.0
 40
0.0
 40
0.0
 40
0.0
 40
0.2685905871
 40
0.5241523117
 40
0.7663776
 40
1.0
 40
1.0
 40
1.0
 40
1.0
 10
-78.3893268302
 20
217.230958504
 30
0.0
 10
-78.4331743465
 20
217.5234902751
 30
0.0
 10
-78.5938426193
 20
218.0867683007
 30
0.0
 10
-79.0526639281
 20
218.8102315364
 30
0.0
 10
-79.6880973466
 20
219.3294682025
 30
0.0
 10
-80.1977670677
 20
219.5016565908
 30
0.0
 10
-80.4525663972
 20
219.5373634149
 30
0.0
  0
SPLINE
  5
35E
100
AcDbEntity
  8
0
100
AcDbSpline
 62
7
  6
CONTINUOUS
 70
0
 71
3
 72
18
 73
14
 74
0
 42
0.0000001
 43
0.0000001
 44
0.0000000001
 40
0.0
 40
0.0
 40
0.0
 40
0.0
 40
0.1308270609
 40
0.2661243058
 40
0.3344359365
 40
0.4025041668
 40
0.5359106972
 40
0.6633010586
 40
0.7826901448
 40
0.839406544
 40
0.8942734064
 40
0.947647916
 40
1.0
 40
1.0
 40
1.0
 40
1.0
 10
-29.6650650943
 20
200.5601005445
 30
0.0
 10
-32.3190348435
 20
198.7906895695
 30
0.0
 10
-37.3193370925
 20
194.5672265831
 30
0.0
 10
-42.3998855169
 20
188.1211973387
 30
0.0
 10
-45.7102407937
 20
182.3730295918
 30
0.0
 10
-48.425716951
 20
176.3726044572
 30
0.0
 10
-50.6439251466
 20
168.605158951
 30
0.0
 10
-51.2823746546
 20
159.2864430654
 30
0.0
 10
-50.0319037906
 20
151.9021674486
 30
0.0
 10
-47.9591066431
 20
146.6478081926
 30
0.0
 10
-45.9447756082
 20
143.14830675
 30
0.0
 10
-43.4771216681
 20
140.0878670344
 30
0.0
 10
-41.5423128549
 20
138.3631903727
 30
0.0
 10
-40.5209876643
 20
137.5976075193
 30
0.0
  0
SPLINE
  5
35F
100
AcDbEntity
  8
0
100
AcDbSpline
 62
7
  6
CONTINUOUS
 70
0
 71
3
 72
11
 73
7
 74
0
 42
0.0000001
 43
0.0000001
 44
0.0000000001
 40
0.0
 40
0.0
 40
0.0
 40
0.0
 40
0.2416226858
 40
0.4933845368
 40
0.7486212752
 40
1.0
 40
1.0
 40
1.0
 40
1.0
 10
-58.4903753409
 20
159.167123642
 30
0.0
 10
-58.4903753409
 20
163.1359640229
 30
0.0
 10
-57.5078978937
 20
171.2607287528
 30
0.0
 10
-53.4891007938
 20
182.9669197965
 30
0.0
 10
-47.1652090657
 20
193.789728452
 30
0.0
 10
-41.5820427585
 20
200.0535238869
 30
0.0
 10
-38.5197247085
 20
202.8232891924
 30
0.0
  0
SPLINE
  5
360
100
AcDbEntity
  8
0
100
AcDbSpline
 62
7
  6
CONTINUOUS
 70
0
 71
3
 72
11
 73
7
 74
0
 42
0.0000001
 43
0.0000001
 44
0.0000000001
 40
0.0
 40
0.0
 40
0.0
 40
0.0
 40
0.2345614733
 40
0.4786043916
 40
0.733652355
 40
1.0
 40
1.0
 40
1.0
 40
1.0
 10
-50.6173638816
 20
134.8912186081
 30
0.0
 10
-51.9037745006
 20
136.4646030864
 30
0.0
 10
-54.2063278072
 20
139.9504707802
 30
0.0
 10
-56.6763079663
 20
145.842480539
 30
0.0
 10
-58.1717776544
 20
152.333352139
 30
0.0
 10
-58.4903753409
 20
156.8593789374
 30
0.0
 10
-58.4903753409
 20
159.167123642
 30
0.0
  0
SPLINE
  5
361
100
AcDbEntity
  8
0
100
AcDbSpline
 62
7
  6
CONTINUOUS
 70
0
 71
3
 72
18
 73
14
 74
0
 42
0.0000001
 43
0.0000001
 44
0.0000000001
 40
0.0
 40
0.0
 40
0.0
 40
0.0
 40
0.1253983996
 40
0.1910451304
 40
0.2580575884
 40
0.3939598439
 40
0.5289428286
 40
0.6588358084
 40
0.7806350665
 40
0.8382757835
 40
0.8937930338
 40
0.9475278003
 40
1.0
 40
1.0
 40
1.0
 40
1.0
 10
-13.2811820927
 20
137.5986733563
 30
0.0
 10
-10.4716485898
 20
138.7938600694
 30
0.0
 10
-6.4268740583
 20
141.2168841922
 30
0.0
 10
-1.6662179307
 20
145.3289753058
 30
0.0
 10
2.785160781
 20
150.1361440826
 30
0.0
 10
7.3654183879
 20
157.050346955
 30
0.0
 10
10.9687114604
 20
166.1975059157
 30
0.0
 10
12.4454965372
 20
175.5764900308
 30
0.0
 10
11.7706829759
 20
183.1766954274
 30
0.0
 10
10.0431574581
 20
188.6504079202
 30
0.0
 10
8.2308665732
 20
192.3074834321
 30
0.0
 10
5.9125740742
 20
195.5128868431
 30
0.0
 10
4.0408616206
 20
197.3210709991
 30
0.0
 10
3.0444171575
 20
198.1206510587
 30
0.0
  0
SPLINE
  5
362
100
AcDbEntity
  8
0
100
AcDbSpline
 62
7
  6
CONTINUOUS
 70
0
 71
3
 72
14
 73
10
 74
0
 42
0.0000001
 43
0.0000001
 44
0.0000000001
 40
0.0
 40
0.0
 40
0.0
 40
0.0
 40
0.1124461208
 40
0.2274870439
 40
0.3470009223
 40
0.4717192007
 40
0.601205494
 40
0.7340159124
 40
1.0
 40
1.0
 40
1.0
 40
1.0
 10
-81.2847573941
 20
213.5954206158
 30
0.0
 10
-81.0868813332
 20
213.5677474242
 30
0.0
 10
-80.6761735077
 20
213.5696993872
 30
0.0
 10
-80.0777721666
 20
213.7463137451
 30
0.0
 10
-79.527501366
 20
214.0832467545
 30
0.0
 10
-79.055964808
 20
214.5589864581
 30
0.0
 10
-78.6879309296
 20
215.1464923899
 30
0.0
 10
-78.3608054379
 20
216.030932658
 30
0.0
 10
-78.3192688205
 20
216.7635615928
 30
0.0
 10
-78.3893268302
 20
217.230958504
 30
0.0
  0
SPLINE
  5
363
100
AcDbEntity
  8
0
100
AcDbSpline
 62
7
  6
CONTINUOUS
 70
0
 71
3
 72
19
 73
15
 74
0
 42
0.0000001
 43
0.0000001
 44
0.0000000001
 40
0.0
 40
0.0
 40
0.0
 40
0.0
 40
0.0523452539
 40
0.1053771814
 40
0.1597066878
 40
0.2158120467
 40
0.2740053503
 40
0.3344224703
 40
0.4614213896
 40
0.5951804341
 40
0.6636418014
 40
0.7324195763
 40
0.8686241477
 40
1.0
 40
1.0
 40
1.0
 40
1.0
 10
-36.869250615
 20
135.3027502556
 30
0.0
 10
-38.0259302451
 20
135.9708238241
 30
0.0
 10
-40.2386040176
 20
137.5283372018
 30
0.0
 10
-43.1198597613
 20
140.4381730337
 30
0.0
 10
-45.5224126251
 20
143.871750801
 30
0.0
 10
-47.4024908722
 20
147.7613173095
 30
0.0
 10
-48.7290929775
 20
152.0341925158
 30
0.0
 10
-49.7476033817
 20
158.2354324741
 30
0.0
 10
-49.4834911238
 20
166.5135674645
 30
0.0
 10
-47.3364222677
 20
174.7044795685
 30
0.0
 10
-44.5690976264
 20
181.0533430327
 30
0.0
 10
-41.1331578198
 20
187.139065953
 30
0.0
 10
-35.7878656459
 20
193.9343017945
 30
0.0
 10
-30.4758508072
 20
198.3305005873
 30
0.0
 10
-27.6546542268
 20
200.1415336816
 30
0.0
  0
ELLIPSE
  5
364
100
AcDbEntity
  8
0
100
AcDbEllipse
 62
7
  6
CONTINUOUS
 10
-42.8419504247
 20
183.6748122293
 30
0.0
 11
3.4809101113
 21
39.9889052907
 31
0.0
 40
0.8125771683
 41
0.705335153
 42
2.7237795897
  0
ENDSEC
  0
SECTION
  2
OBJECTS
  0
DICTIONARY
  5
C
100
AcDbDictionary
280
0
281
1
  3
ACAD_GROUP
350
D
  3
ACAD_MLINESTYLE
350
17
  3
ACAD_LAYOUT
350
1A
  3
ACAD_PLOTSETTINGS
350
19
  3
ACAD_PLOTSTYLENAME
350
E
  0
DICTIONARY
  5
D
102
{ACAD_REACTORS
330
C
102
}
100
AcDbDictionary
280
0
281
1
  0
ACDBDICTIONARYWDFLT
  5
E
102
{ACAD_REACTORS
330
C
102
}
100
AcDbDictionary
281
1
  3
Normal
350
F
100
AcDbDictionaryWithDefault
340
F
  0
DICTIONARY
  5
17
102
{ACAD_REACTORS
330
C
102
}
100
AcDbDictionary
280
0
281
1
  3
Standard
350
18
  0
DICTIONARY
  5
19
102
{ACAD_REACTORS
330
C
102
}
100
AcDbDictionary
281
1
  0
DICTIONARY
  5
1A
102
{ACAD_REACTORS
330
C
102
}
100
AcDbDictionary
281
1
  3
Model
350
365
  3
Layout1
350
366
  0
ACDBPLACEHOLDER
  5
F
102
{ACAD_REACTORS
330
E
102
}
  0
MLINESTYLE
  5
18
102
{ACAD_REACTORS
330
17
102
}
100
AcDbMlineStyle
  2
STANDARD
 70
0
  3

 62
256
 51
90.0
 52
90.0
 71
2
 49
0.5
 62
256
  6
BYLAYER
 49
-0.5
 62
256
  6
BYLAYER
  0
LAYOUT
  5
365
102
{ACAD_REACTORS
330
1A
102
}
100
AcDbPlotSettings
  1

  2
none_device
  4
ANSI_C_(22.00_x_17.00_Inches)
  6

 40
0.0
 41
0.0
 42
0.0
 43
0.0
 44
558.8
 45
431.8
 46
0.0
 47
0.0
 48
0.0
 49
0.0
140
0.0
141
0.0
142
1.0
143
1.0
 70
1024
 72
1
 73
0
 74
0
  7

 75
0
147
1.0
148
0.0
149
0.0
100
AcDbLayout
  1
Model
 70
0
 71
0
 10
0.0
 20
0.0
 11
558.8
 21
431.8
 12
0.0
 22
0.0
 32
0.0
 14
0.0
 24
0.0
 34
0.0
 15
0.0
 25
0.0
 35
0.0
146
0.0
 13
0.0
 23
0.0
 33
0.0
 16
1.0
 26
0.0
 36
0.0
 17
0.0
 27
1.0
 37
0.0
 76
0
330
216
345
0
346
0
  0
LAYOUT
  5
366
102
{ACAD_REACTORS
330
1A
102
}
100
AcDbPlotSettings
  1

  2
none_device
  4
ANSI_C_(22.00_x_17.00_Inches)
  6

 40
0.0
 41
0.0
 42
0.0
 43
0.0
 44
558.8
 45
431.8
 46
0.0
 47
0.0
 48
0.0
 49
0.0
140
0.0
141
0.0
142
1.0
143
1.0
 70
0
 72
1
 73
0
 74
0
  7

 75
0
147
1.0
148
0.0
149
0.0
100
AcDbLayout
  1
Layout1
 70
0
 71
1
 10
0.0
 20
0.0
 11
558.8
 21
431.8
 12
0.0
 22
0.0
 32
0.0
 14
0.0
 24
0.0
 34
0.0
 15
0.0
 25
0.0
 35
0.0
146
0.0
 13
0.0
 23
0.0
 33
0.0
 16
1.0
 26
0.0
 36
0.0
 17
0.0
 27
1.0
 37
0.0
 76
0
330
217
345
0
346
0
  0
ENDSEC
  0
EOF
