999
DXF file: Y:\3D PRATIKA-KAEDRA_OLGA\TRAVAIL_PHASE_11\CAD3D\81295_3D-Simplified\81295_2D-isometric.dxf
999
Pro/ENGINEER 2018260 by Parametric Technology Corporation
  0
SECTION
  2
HEADER
  9
$ACADVER
  1
AC1027
  9
$DWGCODEPAGE
  3
ANSI_1252
  9
$EXTMAX
 10
558.8
 20
431.8
 30
0.0
  9
$EXTMIN
 10
0.0
 20
0.0
 30
0.0
  9
$LIMMIN
 10
0.0
 20
0.0
  9
$LIMMAX
 10
558.8
 20
431.8
  9
$VIEWCTR
 10
279.4
 20
215.9
  9
$VIEWSIZE
 40
431.8
  9
$CLAYER
  8
0
  9
$LTSCALE
 40
30.734
  9
$CELTYPE
  6
BYLAYER
  9
$DIMSCALE
 40
1.0
  9
$DIMASZ
 40
0.1875
  9
$DIMEXO
 40
0.0625
  9
$DIMDLI
 40
21.2344
  9
$DIMEXE
 40
0.125
  9
$DIMCEN
 40
5.0292
  9
$DIMLFAC
 40
1.0
  9
$DIMBLK
  1
_CLOSED
  9
$DIMALT
 70
0
  9
$DIMALTF
 40
0.0393700787
  9
$DIMTXT
 40
0.15625
  9
$DIMTOL
 70
0
  9
$DIMLIM
 70
0
  9
$DIMTFAC
 40
1.0
  9
$DIMGAP
 40
0.625
  9
$DIMDSEP
 70
46
  9
$AUNITS
 70
0
  9
$PDMODE
 70
3
  9
$PDSIZE
 40
0.3125
  9
$HANDSEED
  5
351
  9
$TILEMODE
 70
1
  9
$MEASUREMENT
 70
1
  9
$INSUNITS
 70
4
  0
ENDSEC
  0
SECTION
  2
CLASSES
  0
CLASS
  1
ACDBDICTIONARYWDFLT
  2
AcDbDictionaryWithDefault
  3
AutoCAD 2000
 90
0
 91
1
280
0
281
0
  0
CLASS
  1
ACDBPLACEHOLDER
  2
AcDbPlaceHolder
  3
AutoCAD 2000
 90
0
 91
1
280
0
281
0
  0
CLASS
  1
LAYOUT
  2
AcDbLayout
  3
AutoCAD 2000
 90
0
 91
0
280
0
281
0
  0
ENDSEC
  0
SECTION
  2
TABLES
  0
TABLE
  2
VPORT
  5
8
100
AcDbSymbolTable
 70
2
  0
VPORT
  5
1F4
100
AcDbSymbolTableRecord
100
AcDbViewportTableRecord
  2
*ACTIVE
 70
0
 10
0.0
 20
0.0
 11
1.0
 21
1.0
 12
279.4
 22
215.9
 13
0.0
 23
0.0
 14
1.0
 24
1.0
 15
0.0
 25
0.0
 16
0.0
 26
0.0
 36
1.0
 17
0.0
 27
0.0
 37
0.0
 40
431.8
 41
1.2941176471
 42
50.0
 43
0.0
 44
0.0
 50
0.0
 51
0.0
 71
0
 72
100
 73
1
 74
1
 75
0
 76
0
 77
0
 78
0
  0
ENDTAB
  0
TABLE
  2
LTYPE
  5
5
100
AcDbSymbolTable
 70
6
  0
LTYPE
  5
14
100
AcDbSymbolTableRecord
100
AcDbLinetypeTableRecord
  2
BYBLOCK
 70
0
  3

 72
65
 73
0
 40
0.0
  0
LTYPE
  5
15
100
AcDbSymbolTableRecord
100
AcDbLinetypeTableRecord
  2
BYLAYER
 70
0
  3

 72
65
 73
0
 40
0.0
  0
LTYPE
  5
16
100
AcDbSymbolTableRecord
100
AcDbLinetypeTableRecord
  2
CONTINUOUS
 70
64
  3
Solid line
 72
65
 73
0
 40
0.0
  0
LTYPE
  5
1F5
100
AcDbSymbolTableRecord
100
AcDbLinetypeTableRecord
  2
CENTER
 70
64
  3
____ _ ____ _ ____ _ ____ _ ____ _ ____ _ ____
 72
65
 73
4
 40
0.6
 49
0.375
 74
0
 49
-0.075
 74
0
 49
0.075
 74
0
 49
-0.075
 74
0
  0
LTYPE
  5
1F6
100
AcDbSymbolTableRecord
100
AcDbLinetypeTableRecord
  2
HIDDEN
 70
64
  3
- - - - - - - - - - - - - - - - - - - -
 72
65
 73
2
 40
0.2
 49
0.1
 74
0
 49
-0.1
 74
0
  0
LTYPE
  5
1F7
100
AcDbSymbolTableRecord
100
AcDbLinetypeTableRecord
  2
PHANTOM
 70
64
  3
_____ _ _ _____ _ _ _____ _ _ _____
 72
65
 73
6
 40
0.8
 49
0.45
 74
0
 49
-0.05
 74
0
 49
0.1
 74
0
 49
-0.05
 74
0
 49
0.1
 74
0
 49
-0.05
 74
0
  0
LTYPE
  5
1F8
100
AcDbSymbolTableRecord
100
AcDbLinetypeTableRecord
  2
DOT
 70
64
  3
. . . . . . . . . . . . . . . . . . . .
 72
65
 73
2
 40
0.2
 49
0.1
 74
0
 49
-0.1
 74
0
  0
LTYPE
  5
1F9
100
AcDbSymbolTableRecord
100
AcDbLinetypeTableRecord
  2
DASHED
 70
64
  3
- - - - - - - - - - - - - - - - - - - -
 72
65
 73
2
 40
0.2
 49
0.1
 74
0
 49
-0.1
 74
0
  0
ENDTAB
  0
TABLE
  2
LAYER
  5
2
100
AcDbSymbolTable
 70
36
  0
LAYER
  5
10
100
AcDbSymbolTableRecord
100
AcDbLayerTableRecord
  2
0
 70
0
 62
7
  6
CONTINUOUS
370
-3
390
F
  0
LAYER
  5
1FA
100
AcDbSymbolTableRecord
100
AcDbLayerTableRecord
  2
DEFAULT_1
 70
0
 62
7
  6
CENTER
370
-3
390
F
  0
LAYER
  5
1FB
100
AcDbSymbolTableRecord
100
AcDbLayerTableRecord
  2
DEFAULT_2
 70
0
 62
8
  6
HIDDEN
370
-3
390
F
  0
LAYER
  5
1FC
100
AcDbSymbolTableRecord
100
AcDbLayerTableRecord
  2
DEFAULT_3
 70
0
 62
7
  6
PHANTOM
370
-3
390
F
  0
LAYER
  5
1FD
100
AcDbSymbolTableRecord
100
AcDbLayerTableRecord
  2
01_ALL_DTM_PLN
 70
0
 62
7
  6
CONTINUOUS
370
-3
390
F
  0
LAYER
  5
1FE
100
AcDbSymbolTableRecord
100
AcDbLayerTableRecord
  2
01__ASM_ALL_DTM_PLN
 70
0
 62
7
  6
CONTINUOUS
370
-3
390
F
  0
LAYER
  5
1FF
100
AcDbSymbolTableRecord
100
AcDbLayerTableRecord
  2
01__ASM_DEF_DTM_PLN
 70
0
 62
7
  6
CONTINUOUS
370
-3
390
F
  0
LAYER
  5
200
100
AcDbSymbolTableRecord
100
AcDbLayerTableRecord
  2
01___PRT_ALL_DTM_PLN
 70
0
 62
7
  6
CONTINUOUS
370
-3
390
F
  0
LAYER
  5
201
100
AcDbSymbolTableRecord
100
AcDbLayerTableRecord
  2
01___PRT_DEF_DTM_PLN
 70
0
 62
7
  6
CONTINUOUS
370
-3
390
F
  0
LAYER
  5
202
100
AcDbSymbolTableRecord
100
AcDbLayerTableRecord
  2
02_ALL_AXES
 70
0
 62
7
  6
CONTINUOUS
370
-3
390
F
  0
LAYER
  5
203
100
AcDbSymbolTableRecord
100
AcDbLayerTableRecord
  2
02__ASM_ALL_AXES
 70
0
 62
7
  6
CONTINUOUS
370
-3
390
F
  0
LAYER
  5
204
100
AcDbSymbolTableRecord
100
AcDbLayerTableRecord
  2
02___PRT_ALL_AXES
 70
0
 62
7
  6
CONTINUOUS
370
-3
390
F
  0
LAYER
  5
205
100
AcDbSymbolTableRecord
100
AcDbLayerTableRecord
  2
03_ALL_CURVES
 70
0
 62
7
  6
CONTINUOUS
370
-3
390
F
  0
LAYER
  5
206
100
AcDbSymbolTableRecord
100
AcDbLayerTableRecord
  2
03__ASM_ALL_CURVES
 70
0
 62
7
  6
CONTINUOUS
370
-3
390
F
  0
LAYER
  5
207
100
AcDbSymbolTableRecord
100
AcDbLayerTableRecord
  2
03___PRT_ALL_CURVES
 70
0
 62
7
  6
CONTINUOUS
370
-3
390
F
  0
LAYER
  5
208
100
AcDbSymbolTableRecord
100
AcDbLayerTableRecord
  2
04_ALL_DTM_PNT
 70
0
 62
7
  6
CONTINUOUS
370
-3
390
F
  0
LAYER
  5
209
100
AcDbSymbolTableRecord
100
AcDbLayerTableRecord
  2
04__ASM_ALL_DTM_PNT
 70
0
 62
7
  6
CONTINUOUS
370
-3
390
F
  0
LAYER
  5
20A
100
AcDbSymbolTableRecord
100
AcDbLayerTableRecord
  2
04___PRT_ALL_DTM_PNT
 70
0
 62
7
  6
CONTINUOUS
370
-3
390
F
  0
LAYER
  5
20B
100
AcDbSymbolTableRecord
100
AcDbLayerTableRecord
  2
05_ALL_DTM_CSYS
 70
0
 62
7
  6
CONTINUOUS
370
-3
390
F
  0
LAYER
  5
20C
100
AcDbSymbolTableRecord
100
AcDbLayerTableRecord
  2
05__ASM_ALL_DTM_CSYS
 70
0
 62
7
  6
CONTINUOUS
370
-3
390
F
  0
LAYER
  5
20D
100
AcDbSymbolTableRecord
100
AcDbLayerTableRecord
  2
05__ASM_DEF_DTM_CSYS
 70
0
 62
7
  6
CONTINUOUS
370
-3
390
F
  0
LAYER
  5
20E
100
AcDbSymbolTableRecord
100
AcDbLayerTableRecord
  2
05___PRT_ALL_DTM_CSYS
 70
0
 62
7
  6
CONTINUOUS
370
-3
390
F
  0
LAYER
  5
20F
100
AcDbSymbolTableRecord
100
AcDbLayerTableRecord
  2
05___PRT_DEF_DTM_CSYS
 70
0
 62
7
  6
CONTINUOUS
370
-3
390
F
  0
LAYER
  5
210
100
AcDbSymbolTableRecord
100
AcDbLayerTableRecord
  2
06_ALL_SURFS
 70
0
 62
7
  6
CONTINUOUS
370
-3
390
F
  0
LAYER
  5
211
100
AcDbSymbolTableRecord
100
AcDbLayerTableRecord
  2
06__ASM_ALL_SURFS
 70
0
 62
7
  6
CONTINUOUS
370
-3
390
F
  0
LAYER
  5
212
100
AcDbSymbolTableRecord
100
AcDbLayerTableRecord
  2
06___PRT_ALL_SURFS
 70
0
 62
7
  6
CONTINUOUS
370
-3
390
F
  0
LAYER
  5
213
100
AcDbSymbolTableRecord
100
AcDbLayerTableRecord
  2
07__ASM_ALL_SKELETONS
 70
0
 62
7
  6
CONTINUOUS
370
-3
390
F
  0
ENDTAB
  0
TABLE
  2
STYLE
  5
3
100
AcDbSymbolTable
 70
1
  0
STYLE
  5
11
100
AcDbSymbolTableRecord
100
AcDbTextStyleTableRecord
  2
STANDARD
 70
0
 40
0.0
 41
0.8
 50
0.0
 71
0
 42
0.2
  3
txt
  4

  0
STYLE
  5
214
100
AcDbSymbolTableRecord
100
AcDbTextStyleTableRecord
  2
TEXTSTYLE_1
 70
0
 40
0.0
 41
0.8
 50
0.0
 71
0
 42
0.2
  3
gdt
  4

  0
ENDTAB
  0
TABLE
  2
VIEW
  5
6
100
AcDbSymbolTable
 70
0
  0
ENDTAB
  0
TABLE
  2
UCS
  5
7
100
AcDbSymbolTable
 70
0
  0
ENDTAB
  0
TABLE
  2
APPID
  5
9
100
AcDbSymbolTable
 70
1
  0
APPID
  5
215
100
AcDbSymbolTableRecord
100
AcDbRegAppTableRecord
  2
ACAD
 70
0
  0
ENDTAB
  0
TABLE
  2
BLOCK_RECORD
  5
1
100
AcDbSymbolTable
 70
0
  0
BLOCK_RECORD
  5
216
100
AcDbSymbolTableRecord
100
AcDbBlockTableRecord
  2
*Model_Space
  0
BLOCK_RECORD
  5
217
100
AcDbSymbolTableRecord
100
AcDbBlockTableRecord
  2
*Paper_Space
  0
BLOCK_RECORD
  5
218
100
AcDbSymbolTableRecord
100
AcDbBlockTableRecord
  2
_CLOSED
  0
ENDTAB
  0
TABLE
  2
DIMSTYLE
  5
A
100
AcDbSymbolTable
 70
1
100
AcDbDimStyleTable
 71
0
  0
DIMSTYLE
105
219
100
AcDbSymbolTableRecord
100
AcDbDimStyleTableRecord
  2
STANDARD
 70
0
  3

  4

 40
1.0
 41
0.1875
 42
0.0625
 43
0.38
 44
0.125
 45
0.0
 46
0.0
 47
0.01
 48
0.01
140
0.15625
141
0.09
142
0.0
143
25.4
144
1.0
145
0.0
146
1.0
147
0.625
 71
0.0
 72
0.0
 73
1
 74
1
 75
0
 76
0
 77
0
 78
8
 79
2
170
0
171
1
172
0
173
0
174
0
175
0
176
0
177
0
178
0
270
2
179
2
271
2
272
2
273
2
274
2
275
0
280
0
281
0
282
0
283
1
284
8
285
0
286
0
287
3
288
0
340
11
278
46
341
218
342
218
343
218
344
218
  0
ENDTAB
  0
ENDSEC
  0
SECTION
  2
BLOCKS
  0
BLOCK
  5
20
100
AcDbEntity
  8
0
100
AcDbBlockBegin
  2
*Model_Space
 70
0
 10
0.0
 20
0.0
 30
0.0
  3
*Model_Space
  1

  0
ENDBLK
  5
21
100
AcDbEntity
  8
0
100
AcDbBlockEnd
  0
BLOCK
  5
1C
100
AcDbEntity
  8
0
100
AcDbBlockBegin
  2
*Paper_Space
 70
0
 10
0.0
 20
0.0
 30
0.0
  3
*Paper_Space
  1

  0
ENDBLK
  5
1D
100
AcDbEntity
  8
0
100
AcDbBlockEnd
  0
BLOCK
  5
21A
100
AcDbEntity
  8
0
100
AcDbBlockBegin
  2
_CLOSED
 70
64
 10
0.0
 20
0.0
  3
_CLOSED
  1

  0
LINE
  5
21B
100
AcDbEntity
  8
0
  6
BYBLOCK
 62
0
100
AcDbLine
 10
0.0
 20
0.0
 11
-1.0
 21
0.1666666667
  0
LINE
  5
21C
100
AcDbEntity
  8
0
  6
BYBLOCK
 62
0
100
AcDbLine
 10
-1.0
 20
0.1666666667
 11
-1.0
 21
-0.1666666667
  0
LINE
  5
21D
100
AcDbEntity
  8
0
  6
BYBLOCK
 62
0
100
AcDbLine
 10
-1.0
 20
-0.1666666667
 11
0.0
 21
0.0
  0
LINE
  5
21E
100
AcDbEntity
  8
0
  6
BYBLOCK
 62
0
100
AcDbLine
 10
-1.0
 20
0.0
 11
0.0
 21
0.0
  0
ENDBLK
  5
21F
100
AcDbEntity
  8
0
  6
BYBLOCK
 62
0
100
AcDbBlockEnd
  0
ENDSEC
  0
SECTION
  2
ENTITIES
  0
LINE
  5
220
100
AcDbEntity
  8
0
100
AcDbLine
 62
7
  6
CONTINUOUS
 10
-92.6451752897
 20
125.7089102336
 11
-98.083487791
 21
126.4705654678
  0
LINE
  5
221
100
AcDbEntity
  8
0
100
AcDbLine
 62
7
  6
CONTINUOUS
 10
-90.3698229019
 20
125.8541961482
 11
-53.3283676261
 21
135.7833613213
  0
LINE
  5
222
100
AcDbEntity
  8
0
100
AcDbLine
 62
7
  6
CONTINUOUS
 10
-64.6894558568
 20
134.2844750862
 11
-54.5808013641
 21
136.9941553454
  0
LINE
  5
223
100
AcDbEntity
  8
0
100
AcDbLine
 62
7
  6
CONTINUOUS
 10
-103.5854590331
 20
132.6209734082
 11
-98.1471465318
 21
131.859318174
  0
LINE
  5
224
100
AcDbEntity
  8
0
100
AcDbLine
 62
7
  6
CONTINUOUS
 10
-129.4845565254
 20
225.8086052734
 11
-129.4828558557
 21
225.8127118462
  0
LINE
  5
225
100
AcDbEntity
  8
0
100
AcDbLine
 62
7
  6
CONTINUOUS
 10
-129.4847697255
 20
225.8086918929
 11
-129.4828558557
 21
225.8127118462
  0
LINE
  5
226
100
AcDbEntity
  8
0
100
AcDbLine
 62
7
  6
CONTINUOUS
 10
-129.4828558557
 20
225.8127118462
 11
-129.481171526
 21
225.8158183166
  0
LINE
  5
227
100
AcDbEntity
  8
0
100
AcDbLine
 62
7
  6
CONTINUOUS
 10
-66.9310470166
 20
135.5792794537
 11
-64.6894558568
 21
134.2844750862
  0
LINE
  5
228
100
AcDbEntity
  8
0
100
AcDbLine
 62
7
  6
CONTINUOUS
 10
-37.6419331069
 20
123.0659098752
 11
-35.7352096227
 21
121.9646218019
  0
LINE
  5
229
100
AcDbEntity
  8
0
100
AcDbLine
 62
7
  6
CONTINUOUS
 10
-49.3322778533
 20
133.4752940827
 11
-55.1571853305
 21
136.8396524631
  0
LINE
  5
22A
100
AcDbEntity
  8
0
100
AcDbLine
 62
7
  6
CONTINUOUS
 10
-73.1670743521
 20
147.2418298875
 11
-76.9922179118
 21
149.4511617682
  0
LINE
  5
22B
100
AcDbEntity
  8
0
100
AcDbLine
 62
7
  6
CONTINUOUS
 10
-30.8767384364
 20
125.8051108195
 11
-32.284277285
 21
126.618079118
  0
LINE
  5
22C
100
AcDbEntity
  8
0
100
AcDbLine
 62
7
  6
CONTINUOUS
 10
-37.7528103176
 20
129.7766022376
 11
-38.1774426092
 21
130.0218619631
  0
LINE
  5
22D
100
AcDbEntity
  8
0
100
AcDbLine
 62
7
  6
CONTINUOUS
 10
-110.2546356684
 20
171.7231792829
 11
-122.0434234706
 21
178.5321641795
  0
LINE
  5
22E
100
AcDbEntity
  8
0
100
AcDbLine
 62
7
  6
CONTINUOUS
 10
-72.1679315648
 20
235.0850720778
 11
-72.1415719103
 21
235.0998157733
  0
LINE
  5
22F
100
AcDbEntity
  8
0
100
AcDbLine
 62
7
  6
CONTINUOUS
 10
-72.1733400848
 20
235.1034560386
 11
-72.1463300216
 21
235.1160308106
  0
LINE
  5
230
100
AcDbEntity
  8
0
100
AcDbLine
 62
7
  6
CONTINUOUS
 10
-77.168662097
 20
229.3252882368
 11
-72.1492939239
 21
231.1581608326
  0
LINE
  5
231
100
AcDbEntity
  8
0
100
AcDbLine
 62
7
  6
CONTINUOUS
 10
-34.011181817
 20
148.9155253496
 11
-33.3853076915
 21
148.6203602981
  0
LINE
  5
232
100
AcDbEntity
  8
0
100
AcDbLine
 62
7
  6
CONTINUOUS
 10
-50.4248779233
 20
154.5373049429
 11
-49.5557252779
 21
154.1271506944
  0
LINE
  5
233
100
AcDbEntity
  8
0
100
AcDbLine
 62
7
  6
CONTINUOUS
 10
-58.6549784217
 20
149.2606194873
 11
-30.882731496
 21
133.2198826686
  0
LINE
  5
234
100
AcDbEntity
  8
0
100
AcDbLine
 62
7
  6
CONTINUOUS
 10
-46.3513460562
 20
143.1862429771
 11
-59.1509411465
 21
150.5790513908
  0
LINE
  5
235
100
AcDbEntity
  8
0
100
AcDbLine
 62
7
  6
CONTINUOUS
 10
-33.794421754
 20
140.5119111544
 11
-22.6182684018
 21
134.0567725384
  0
LINE
  5
236
100
AcDbEntity
  8
0
100
AcDbLine
 62
7
  6
CONTINUOUS
 10
-22.6182684018
 20
135.4352216118
 11
-31.8159037614
 21
140.7476040407
  0
LINE
  5
237
100
AcDbEntity
  8
0
100
AcDbLine
 62
7
  6
CONTINUOUS
 10
-117.8659351737
 20
227.8939977334
 11
-103.5854590331
 21
132.6209734082
  0
LINE
  5
238
100
AcDbEntity
  8
0
100
AcDbLine
 62
7
  6
CONTINUOUS
 10
-115.6906101732
 20
227.5893356397
 11
-101.4101340326
 21
132.3163113145
  0
LINE
  5
239
100
AcDbEntity
  8
0
100
AcDbLine
 62
7
  6
CONTINUOUS
 10
-98.1471465318
 20
131.859318174
 11
-112.4276226724
 21
227.1323424992
  0
LINE
  5
23A
100
AcDbEntity
  8
0
100
AcDbLine
 62
7
  6
CONTINUOUS
 10
-26.8090200933
 20
161.3850428426
 11
-27.4348942412
 21
161.6802079025
  0
LINE
  5
23B
100
AcDbEntity
  8
0
100
AcDbLine
 62
7
  6
CONTINUOUS
 10
-32.2356488921
 20
171.5254683225
 11
-31.9183655176
 21
171.3758360531
  0
LINE
  5
23C
100
AcDbEntity
  8
0
100
AcDbLine
 62
7
  6
CONTINUOUS
 10
-40.4221095382
 20
171.855673686
 11
-41.2912621836
 21
172.2658279344
  0
LINE
  5
23D
100
AcDbEntity
  8
0
100
AcDbLine
 62
7
  6
CONTINUOUS
 10
-17.0199991355
 20
163.4916658502
 11
-16.1508464901
 21
163.0815116017
  0
LINE
  5
23E
100
AcDbEntity
  8
0
100
AcDbLine
 62
7
  6
CONTINUOUS
 10
-44.0451137699
 20
178.0891917805
 11
-43.1759611245
 21
177.679037532
  0
LINE
  5
23F
100
AcDbEntity
  8
0
100
AcDbLine
 62
7
  6
CONTINUOUS
 10
-132.7530009625
 20
222.9576825889
 11
-131.0639543443
 21
221.9821206307
  0
LINE
  5
240
100
AcDbEntity
  8
0
100
AcDbLine
 62
7
  6
CONTINUOUS
 10
-128.3392985838
 20
228.4060410607
 11
-128.2411110427
 21
228.3493297604
  0
LINE
  5
241
100
AcDbEntity
  8
0
100
AcDbLine
 62
7
  6
CONTINUOUS
 10
-69.7686719487
 20
248.5501111749
 11
-69.8268429144
 21
249.4990322664
  0
LINE
  5
242
100
AcDbEntity
  8
0
100
AcDbLine
 62
7
  6
CONTINUOUS
 10
-72.1492939239
 20
235.0517505966
 11
-72.1492939239
 21
229.0760756093
  0
LINE
  5
243
100
AcDbEntity
  8
0
100
AcDbLine
 62
7
  6
CONTINUOUS
 10
-71.635846921
 20
238.2476684517
 11
-71.635846921
 21
253.87635688
  0
LINE
  5
244
100
AcDbEntity
  8
0
100
AcDbLine
 62
7
  6
CONTINUOUS
 10
-70.5555278019
 20
245.0734902036
 11
-70.5555278019
 21
229.4448017752
  0
LINE
  5
245
100
AcDbEntity
  8
0
100
AcDbLine
 62
7
  6
CONTINUOUS
 10
-69.8734132341
 20
228.3694909939
 11
-69.8734132341
 21
243.9981794222
  0
LINE
  5
246
100
AcDbEntity
  8
0
100
AcDbLine
 62
7
  6
CONTINUOUS
 10
-72.1492939239
 20
235.0517505966
 11
-71.6358469209
 21
238.2476684517
  0
LINE
  5
247
100
AcDbEntity
  8
0
100
AcDbLine
 62
7
  6
CONTINUOUS
 10
-130.8629160058
 20
222.5069421371
 11
-132.7530009625
 21
222.9576825889
  0
LINE
  5
248
100
AcDbEntity
  8
0
100
AcDbLine
 62
7
  6
CONTINUOUS
 10
-28.5845530183
 20
177.8468209405
 11
-28.9018364404
 21
177.9964532278
  0
LINE
  5
249
100
AcDbEntity
  8
0
100
AcDbLine
 62
7
  6
CONTINUOUS
 10
-23.3997632889
 20
183.6232911688
 11
-22.5306106435
 21
183.2131369203
  0
LINE
  5
24A
100
AcDbEntity
  8
0
100
AcDbLine
 62
7
  6
CONTINUOUS
 10
-127.8480171263
 20
229.0976877908
 11
-129.5370637446
 21
230.0732497491
  0
LINE
  5
24B
100
AcDbEntity
  8
0
100
AcDbLine
 62
7
  6
CONTINUOUS
 10
-60.3139277403
 20
236.028062276
 11
-60.3139277403
 21
220.3993738477
  0
LINE
  5
24C
100
AcDbEntity
  8
0
100
AcDbLine
 62
7
  6
CONTINUOUS
 10
-58.6379214453
 20
219.5086269858
 11
-58.6379214453
 21
235.1373154141
  0
LINE
  5
24D
100
AcDbEntity
  8
0
100
AcDbLine
 62
7
  6
CONTINUOUS
 10
-112.4276226724
 20
227.1323424992
 11
-117.8659351737
 21
227.8939977334
  0
LINE
  5
24E
100
AcDbEntity
  8
0
100
AcDbLine
 62
7
  6
CONTINUOUS
 10
-7.0172307504
 20
180.8100345933
 11
-7.8863833958
 21
181.2201888418
  0
LINE
  5
24F
100
AcDbEntity
  8
0
100
AcDbLine
 62
7
  6
CONTINUOUS
 10
-34.0423453848
 20
195.4075605236
 11
-34.9114980302
 21
195.817714772
  0
LINE
  5
250
100
AcDbEntity
  8
0
100
AcDbLine
 62
7
  6
CONTINUOUS
 10
-48.6492939239
 20
249.7611044115
 11
-48.6492939239
 21
251.1401063317
  0
LINE
  5
251
100
AcDbEntity
  8
0
100
AcDbLine
 62
7
  6
CONTINUOUS
 10
-112.4201178527
 20
237.4436551893
 11
-106.9818053513
 21
236.6819999551
  0
LINE
  5
252
100
AcDbEntity
  8
0
100
AcDbLine
 62
7
  6
CONTINUOUS
 10
-13.3969949039
 20
200.9416599118
 11
-14.2661475493
 21
201.3518141603
  0
LINE
  5
253
100
AcDbEntity
  8
0
100
AcDbLine
 62
7
  6
CONTINUOUS
 10
-77.168662097
 20
229.3252882368
 11
-71.579955229
 21
226.0973549417
  0
LINE
  5
254
100
AcDbEntity
  8
0
100
AcDbLine
 62
7
  6
CONTINUOUS
 10
-37.6419331069
 20
123.0659098752
 11
-37.7567429777
 21
130.0146211386
  0
LINE
  5
255
100
AcDbEntity
  8
0
100
AcDbLine
 62
7
  6
CONTINUOUS
 10
-42.0546145861
 20
229.2133258844
 11
-42.0546145861
 21
213.5846374561
  0
LINE
  5
256
100
AcDbEntity
  8
0
100
AcDbLine
 62
7
  6
CONTINUOUS
 10
-39.6398733294
 20
213.0140626486
 11
-39.6398733294
 21
228.6427510769
  0
LINE
  5
257
100
AcDbEntity
  8
0
100
AcDbLine
 62
7
  6
CONTINUOUS
 10
-35.7352096227
 20
129.9798277441
 11
-35.7352096227
 21
121.9646218019
  0
LINE
  5
258
100
AcDbEntity
  8
0
100
AcDbLine
 62
7
  6
CONTINUOUS
 10
-30.882731496
 20
131.8414378945
 11
-30.882731496
 21
133.2198826686
  0
LINE
  5
259
100
AcDbEntity
  8
0
100
AcDbLine
 62
7
  6
CONTINUOUS
 10
-106.9818053511
 20
236.6819999552
 11
-71.635846921
 21
246.1566779029
  0
LINE
  5
25A
100
AcDbEntity
  8
0
100
AcDbLine
 62
7
  6
CONTINUOUS
 10
-71.635846921
 20
247.488332733
 11
-110.2447928521
 21
237.1389930956
  0
LINE
  5
25B
100
AcDbEntity
  8
0
100
AcDbLine
 62
7
  6
CONTINUOUS
 10
-71.635846921
 20
248.3761026196
 11
-112.4201178527
 21
237.4436551893
  0
LINE
  5
25C
100
AcDbEntity
  8
0
100
AcDbLine
 62
7
  6
CONTINUOUS
 10
-72.5807524602
 20
248.1228155092
 11
-79.5306632962
 21
252.1369549364
  0
LINE
  5
25D
100
AcDbEntity
  8
0
100
AcDbLine
 62
7
  6
CONTINUOUS
 10
-22.6182684018
 20
135.4352216118
 11
-22.6182684018
 21
134.0567725384
  0
LINE
  5
25E
100
AcDbEntity
  8
0
100
AcDbLine
 62
7
  6
CONTINUOUS
 10
-18.5574032462
 20
225.6667628686
 11
-18.5574032462
 21
210.0380744402
  0
LINE
  5
25F
100
AcDbEntity
  8
0
100
AcDbLine
 62
7
  6
CONTINUOUS
 10
-15.7715494944
 20
209.8745365294
 11
-15.7715494944
 21
225.5032249577
  0
LINE
  5
260
100
AcDbEntity
  8
0
100
AcDbLine
 62
7
  6
CONTINUOUS
 10
6.6004688558
 20
225.928305298
 11
6.6004688558
 21
210.2996168697
  0
LINE
  5
261
100
AcDbEntity
  8
0
100
AcDbLine
 62
7
  6
CONTINUOUS
 10
9.3333141228
 20
210.5680130199
 11
9.3333141228
 21
226.1967014483
  0
LINE
  5
262
100
AcDbEntity
  8
0
100
AcDbLine
 62
7
  6
CONTINUOUS
 10
29.588943749
 20
229.9581357087
 11
29.588943749
 21
214.3294472804
  0
LINE
  5
263
100
AcDbEntity
  8
0
100
AcDbLine
 62
7
  6
CONTINUOUS
 10
31.8527296126
 20
214.9889166109
 11
31.8527296126
 21
230.6176050392
  0
LINE
  5
264
100
AcDbEntity
  8
0
100
AcDbLine
 62
7
  6
CONTINUOUS
 10
33.3507060761
 20
249.7611044115
 11
33.3507060761
 21
251.1401063317
  0
LINE
  5
265
100
AcDbEntity
  8
0
100
AcDbLine
 62
7
  6
CONTINUOUS
 10
46.9082345221
 20
237.1427489512
 11
46.9082345221
 21
221.5140605229
  0
LINE
  5
266
100
AcDbEntity
  8
0
100
AcDbLine
 62
7
  6
CONTINUOUS
 10
48.3583201058
 20
222.4642048061
 11
48.3583201058
 21
238.0928932344
  0
LINE
  5
267
100
AcDbEntity
  8
0
100
AcDbLine
 62
7
  6
CONTINUOUS
 10
56.8507060761
 20
235.0517505966
 11
56.3372590732
 21
231.8558327416
  0
LINE
  5
268
100
AcDbEntity
  8
0
100
AcDbLine
 62
7
  6
CONTINUOUS
 10
54.470084101
 20
252.810766875
 11
54.5282550667
 21
251.8618457835
  0
LINE
  5
269
100
AcDbEntity
  8
0
100
AcDbLine
 62
7
  6
CONTINUOUS
 10
55.2569399542
 20
256.2873878463
 11
55.2569399542
 21
249.4044391943
  0
LINE
  5
26A
100
AcDbEntity
  8
0
100
AcDbLine
 62
7
  6
CONTINUOUS
 10
55.9216361544
 20
246.3883527879
 11
55.9216361544
 21
230.7596643595
  0
LINE
  5
26B
100
AcDbEntity
  8
0
100
AcDbLine
 62
7
  6
CONTINUOUS
 10
56.3372590732
 20
231.8558327416
 11
56.3372590732
 21
247.4845211699
  0
LINE
  5
26C
100
AcDbEntity
  8
0
100
AcDbLine
 62
7
  6
CONTINUOUS
 10
56.8507060761
 20
235.0517505966
 11
56.8507060761
 21
229.0760756093
  0
LINE
  5
26D
100
AcDbEntity
  8
0
100
AcDbLine
 62
7
  6
CONTINUOUS
 10
50.6960613231
 20
249.8221804894
 11
50.7135571432
 21
249.7650392201
  0
LINE
  5
26E
100
AcDbEntity
  8
0
100
AcDbLine
 62
7
  6
CONTINUOUS
 10
50.7359405194
 20
249.8231649408
 11
50.7449069099
 21
249.7657821613
  0
ARC
  5
26F
100
AcDbEntity
  8
0
100
AcDbCircle
 62
7
  6
CONTINUOUS
 10
-78.8391154711
 20
202.6474915553
 40
55.6909806194
100
AcDbArc
 50
151.6441801641
 51
155.5012268219
  0
ARC
  5
270
100
AcDbEntity
  8
0
100
AcDbCircle
 62
7
  6
CONTINUOUS
 10
-79.5118670534
 20
202.9542377354
 40
54.9515971699
100
AcDbArc
 50
155.5013909786
 51
159.7408891056
  0
ARC
  5
271
100
AcDbEntity
  8
0
100
AcDbCircle
 62
7
  6
CONTINUOUS
 10
-63.5092903406
 20
192.790949807
 40
53.1420666341
100
AcDbArc
 50
164.7778786758
 51
167.6153900371
  0
ARC
  5
272
100
AcDbEntity
  8
0
100
AcDbCircle
 62
7
  6
CONTINUOUS
 10
-65.0711996176
 20
193.1272125633
 40
51.5443842482
100
AcDbArc
 50
167.6081098023
 51
170.4166727227
  0
ARC
  5
273
100
AcDbEntity
  8
0
100
AcDbCircle
 62
7
  6
CONTINUOUS
 10
-67.1532715653
 20
193.4566705547
 40
49.4365246313
100
AcDbArc
 50
170.3914454148
 51
174.7693951466
  0
ARC
  5
274
100
AcDbEntity
  8
0
100
AcDbCircle
 62
7
  6
CONTINUOUS
 10
-69.4602984465
 20
193.6640550099
 40
47.1201986163
100
AcDbArc
 50
174.7647768074
 51
177.747083268
  0
ARC
  5
275
100
AcDbEntity
  8
0
100
AcDbCircle
 62
7
  6
CONTINUOUS
 10
-71.0032121544
 20
193.7215910319
 40
45.5762158539
100
AcDbArc
 50
177.7431088851
 51
180.0388885578
  0
ARC
  5
276
100
AcDbEntity
  8
0
100
AcDbCircle
 62
7
  6
CONTINUOUS
 10
-72.4707414668
 20
193.7152425178
 40
44.1086828953
100
AcDbArc
 50
180.0319358929
 51
182.3833415051
  0
ARC
  5
277
100
AcDbEntity
  8
0
100
AcDbCircle
 62
7
  6
CONTINUOUS
 10
-74.2908650916
 20
193.6283450349
 40
42.2865215642
100
AcDbArc
 50
182.3682580497
 51
185.5613922538
  0
ARC
  5
278
100
AcDbEntity
  8
0
100
AcDbCircle
 62
7
  6
CONTINUOUS
 10
-76.7317660321
 20
193.3631709015
 40
39.8314208994
100
AcDbArc
 50
185.522017789
 51
190.5717309708
  0
ARC
  5
279
100
AcDbEntity
  8
0
100
AcDbCircle
 62
7
  6
CONTINUOUS
 10
-42.2163756628
 20
232.1276136909
 40
37.8076597886
100
AcDbArc
 50
121.9204052207
 51
124.5478940188
  0
ARC
  5
27A
100
AcDbEntity
  8
0
100
AcDbCircle
 62
7
  6
CONTINUOUS
 10
-79.0616341843
 20
192.9245095362
 40
37.4606205402
100
AcDbArc
 50
190.5659753442
 51
194.0297081525
  0
ARC
  5
27B
100
AcDbEntity
  8
0
100
AcDbCircle
 62
7
  6
CONTINUOUS
 10
-58.9995336997
 20
180.3543446128
 40
35.7644078203
100
AcDbArc
 50
232.4703754609
 51
233.2527074182
  0
ARC
  5
27C
100
AcDbEntity
  8
0
100
AcDbCircle
 62
7
  6
CONTINUOUS
 10
-59.6955667332
 20
179.3772010995
 40
34.565023358
100
AcDbArc
 50
233.2081286171
 51
239.9729453309
  0
ARC
  5
27D
100
AcDbEntity
  8
0
100
AcDbCircle
 62
7
  6
CONTINUOUS
 10
-60.4704035338
 20
250.2697481972
 40
11.7334884933
100
AcDbArc
 50
156.3718274357
 51
162.098751275
  0
ARC
  5
27E
100
AcDbEntity
  8
0
100
AcDbCircle
 62
7
  6
CONTINUOUS
 10
-106.2453543603
 20
228.9639913762
 40
9.5472840268
100
AcDbArc
 50
166.8042742979
 51
177.5601773935
  0
ARC
  5
27F
100
AcDbEntity
  8
0
100
AcDbCircle
 62
7
  6
CONTINUOUS
 10
-106.3409490677
 20
228.9880138377
 40
9.4488721898
100
AcDbArc
 50
159.3286666124
 51
166.802115492
  0
ARC
  5
280
100
AcDbEntity
  8
0
100
AcDbCircle
 62
7
  6
CONTINUOUS
 10
-106.4713304152
 20
228.9656466033
 40
9.3214457636
100
AcDbArc
 50
177.5112125236
 51
188.4907619585
  0
ARC
  5
281
100
AcDbEntity
  8
0
100
AcDbCircle
 62
7
  6
CONTINUOUS
 10
-56.8874102534
 20
248.3645533565
 40
9.2626628381
100
AcDbArc
 50
171.3207462713
 51
173.5834361385
  0
ARC
  5
282
100
AcDbEntity
  8
0
100
AcDbCircle
 62
7
  6
CONTINUOUS
 10
-106.5824930202
 20
229.0764667089
 40
9.1916545315
100
AcDbArc
 50
155.9162765043
 51
159.3130311845
  0
ARC
  5
283
100
AcDbEntity
  8
0
100
AcDbCircle
 62
7
  6
CONTINUOUS
 10
-56.9157334954
 20
249.7596250716
 40
9.0834994692
100
AcDbArc
 50
174.3446354671
 51
179.9906689716
  0
ARC
  5
284
100
AcDbEntity
  8
0
100
AcDbCircle
 62
7
  6
CONTINUOUS
 10
-56.9409186529
 20
249.7611884124
 40
9.0583141917
100
AcDbArc
 50
180.0005314936
 51
184.0003728905
  0
ARC
  5
285
100
AcDbEntity
  8
0
100
AcDbCircle
 62
7
  6
CONTINUOUS
 10
-107.3941043834
 20
229.5512328203
 40
8.2489514421
100
AcDbArc
 50
140.8181555066
 51
144.5518089413
  0
ARC
  5
286
100
AcDbEntity
  8
0
100
AcDbCircle
 62
7
  6
CONTINUOUS
 10
-93.3688775432
 20
133.3867196479
 40
8.0995922177
100
AcDbArc
 50
199.9380568238
 51
205.9616064471
  0
ARC
  5
287
100
AcDbEntity
  8
0
100
AcDbCircle
 62
7
  6
CONTINUOUS
 10
-93.7684991239
 20
133.1869134909
 40
7.6528299602
100
AcDbArc
 50
205.9264077388
 51
212.1675935558
  0
ARC
  5
288
100
AcDbEntity
  8
0
100
AcDbCircle
 62
7
  6
CONTINUOUS
 10
-108.0645823052
 20
230.1934929427
 40
7.3189537951
100
AcDbArc
 50
126.0170074042
 51
132.4254515378
  0
ARC
  5
289
100
AcDbEntity
  8
0
100
AcDbCircle
 62
7
  6
CONTINUOUS
 10
-108.3189538904
 20
230.5377045577
 40
6.890964682
100
AcDbArc
 50
119.3013764121
 51
125.9892250687
  0
ARC
  5
28A
100
AcDbEntity
  8
0
100
AcDbCircle
 62
7
  6
CONTINUOUS
 10
-94.4958049601
 20
132.6513191994
 40
6.7476840198
100
AcDbArc
 50
221.0640776569
 51
225.3327176066
  0
ARC
  5
28B
100
AcDbEntity
  8
0
100
AcDbCircle
 62
7
  6
CONTINUOUS
 10
-95.0006440597
 20
132.0251419219
 40
5.9404523837
100
AcDbArc
 50
239.5498672654
 51
240.547261056
  0
ARC
  5
28C
100
AcDbEntity
  8
0
100
AcDbCircle
 62
7
  6
CONTINUOUS
 10
-95.0263042466
 20
131.9789716027
 40
5.8876318002
100
AcDbArc
 50
240.5437743052
 51
244.1116747446
  0
ARC
  5
28D
100
AcDbEntity
  8
0
100
AcDbCircle
 62
7
  6
CONTINUOUS
 10
-95.1015115022
 20
131.8128443103
 40
5.7053411235
100
AcDbArc
 50
244.062724852
 51
254.5524909666
  0
ARC
  5
28E
100
AcDbEntity
  8
0
100
AcDbCircle
 62
7
  6
CONTINUOUS
 10
-95.1302668194
 20
131.7156624657
 40
5.6040111491
100
AcDbArc
 50
254.5712175145
 51
261.0230214878
  0
ARC
  5
28F
100
AcDbEntity
  8
0
100
AcDbCircle
 62
7
  6
CONTINUOUS
 10
-125.3630344602
 20
223.8488149019
 40
4.5639696993
100
AcDbArc
 50
154.5690044608
 51
155.5067811636
  0
ARC
  5
290
100
AcDbEntity
  8
0
100
AcDbCircle
 62
7
  6
CONTINUOUS
 10
-35.7156095346
 20
280.2894841288
 40
50.6374438827
100
AcDbArc
 50
240.9368506672
 51
243.0845519797
  0
ARC
  5
291
100
AcDbEntity
  8
0
100
AcDbCircle
 62
7
  6
CONTINUOUS
 10
-57.2952496239
 20
252.7310365443
 40
15.3125110063
100
AcDbArc
 50
210.0055773689
 51
214.7717500301
  0
ARC
  5
292
100
AcDbEntity
  8
0
100
AcDbCircle
 62
7
  6
CONTINUOUS
 10
-56.3397686851
 20
250.8094746471
 40
9.821814542
100
AcDbArc
 50
193.8877370103
 51
194.896551402
  0
ARC
  5
293
100
AcDbEntity
  8
0
100
AcDbCircle
 62
7
  6
CONTINUOUS
 10
-7.4877116374
 20
116.4381381349
 40
159.6181508111
100
AcDbArc
 50
86.1395570531
 51
87.1412882838
  0
ARC
  5
294
100
AcDbEntity
  8
0
100
AcDbCircle
 62
7
  6
CONTINUOUS
 10
-8.4561315966
 20
124.5076280889
 40
151.5224444
100
AcDbArc
 50
95.0899184235
 51
96.1282859478
  0
ARC
  5
295
100
AcDbEntity
  8
0
100
AcDbCircle
 62
7
  6
CONTINUOUS
 10
-2.220471041
 20
100.6501182657
 40
125.588347894
100
AcDbArc
 50
85.9724042448
 51
91.1070112168
  0
ARC
  5
296
100
AcDbEntity
  8
0
100
AcDbCircle
 62
7
  6
CONTINUOUS
 10
-2.3324893031
 20
102.7542859092
 40
123.4824294236
100
AcDbArc
 50
91.0739070438
 51
96.2480927661
  0
ARC
  5
297
100
AcDbEntity
  8
0
100
AcDbCircle
 62
7
  6
CONTINUOUS
 10
-0.3492426955
 20
162.8298148874
 40
112.6279863742
100
AcDbArc
 50
76.0743882603
 51
77.3366607846
  0
ARC
  5
298
100
AcDbEntity
  8
0
100
AcDbCircle
 62
7
  6
CONTINUOUS
 10
-19.2997012581
 20
179.351180714
 40
95.5417555807
100
AcDbArc
 50
105.5344840041
 51
106.9485290184
  0
ARC
  5
299
100
AcDbEntity
  8
0
100
AcDbCircle
 62
7
  6
CONTINUOUS
 10
20.417021687
 20
221.0713939213
 40
50.6374438825
100
AcDbArc
 50
60.9368506672
 51
63.0845519797
  0
ARC
  5
29A
100
AcDbEntity
  8
0
100
AcDbCircle
 62
7
  6
CONTINUOUS
 10
62.9690631594
 20
231.4447665042
 40
16.273259891
100
AcDbArc
 50
136.6613225022
 51
137.6403053921
  0
ARC
  5
29B
100
AcDbEntity
  8
0
100
AcDbCircle
 62
7
  6
CONTINUOUS
 10
41.9966617762
 20
248.6298415057
 40
15.3125110063
100
AcDbArc
 50
30.0055773689
 51
34.7717500301
  0
ARC
  5
29C
100
AcDbEntity
  8
0
100
AcDbCircle
 62
7
  6
CONTINUOUS
 10
41.5527543295
 20
248.3587356069
 40
9.2992176589
100
AcDbArc
 50
8.1458044306
 51
8.7027379731
  0
ARC
  5
29D
100
AcDbEntity
  8
0
100
AcDbCircle
 62
7
  6
CONTINUOUS
 10
41.5798768937
 20
249.7644588323
 40
9.1207687195
100
AcDbArc
 50
352.2641363472
 51
359.9789280247
  0
ARC
  5
29E
100
AcDbEntity
  8
0
100
AcDbCircle
 62
7
  6
CONTINUOUS
 10
41.6218369986
 20
249.7602633526
 40
9.0788080367
100
AcDbArc
 50
0.0053080392
 51
5.7321535013
  0
ARC
  5
29F
100
AcDbEntity
  8
0
100
AcDbCircle
 62
7
  6
CONTINUOUS
 10
-7.6630501371
 20
372.0567083127
 40
162.3847425289
100
AcDbArc
 50
267.1378094669
 51
275.0392296168
  0
ARC
  5
2A0
100
AcDbEntity
  8
0
100
AcDbCircle
 62
7
  6
CONTINUOUS
 10
-7.8108762102
 20
384.9227399183
 40
159.6181508144
100
AcDbArc
 50
266.1395570531
 51
267.1412882838
  0
ARC
  5
2A1
100
AcDbEntity
  8
0
100
AcDbCircle
 62
7
  6
CONTINUOUS
 10
-6.8424562512
 20
376.853249962
 40
151.5224444011
100
AcDbArc
 50
275.0899184235
 51
276.1282859478
  0
ARC
  5
2A2
100
AcDbEntity
  8
0
100
AcDbCircle
 62
7
  6
CONTINUOUS
 10
-13.0781168068
 20
400.7107597843
 40
125.5883478941
100
AcDbArc
 50
265.9724042448
 51
271.1070112168
  0
ARC
  5
2A3
100
AcDbEntity
  8
0
100
AcDbCircle
 62
7
  6
CONTINUOUS
 10
-12.9660985446
 20
398.6065921407
 40
123.4824294236
100
AcDbArc
 50
271.0739070438
 51
276.2480927661
  0
ARC
  5
2A4
100
AcDbEntity
  8
0
100
AcDbCircle
 62
7
  6
CONTINUOUS
 10
-14.9493451522
 20
338.5310631627
 40
112.6279863743
100
AcDbArc
 50
256.0743882603
 51
257.3366607846
  0
ARC
  5
2A5
100
AcDbEntity
  8
0
100
AcDbCircle
 62
7
  6
CONTINUOUS
 10
2.4568834517
 20
311.8579736376
 40
101.2322189295
100
AcDbArc
 50
285.0043938923
 51
285.5463623033
  0
ARC
  5
2A6
100
AcDbEntity
  8
0
100
AcDbCircle
 62
7
  6
CONTINUOUS
 10
4.0011134103
 20
322.0096973363
 40
95.5417555811
100
AcDbArc
 50
285.5344840041
 51
286.9485290184
  0
ARC
  5
2A7
100
AcDbEntity
  8
0
100
AcDbCircle
 62
7
  6
CONTINUOUS
 10
26.917787815
 20
269.233264359
 40
37.8076597886
100
AcDbArc
 50
301.9204052207
 51
304.5478940188
  0
ARC
  5
2A8
100
AcDbEntity
  8
0
100
AcDbCircle
 62
7
  6
CONTINUOUS
 10
45.1718156861
 20
251.0911298528
 40
11.7334884933
100
AcDbArc
 50
336.3718274357
 51
342.098751275
  0
ARC
  5
2A9
100
AcDbEntity
  8
0
100
AcDbCircle
 62
7
  6
CONTINUOUS
 10
41.035946727
 20
250.8109298989
 40
9.8272702662
100
AcDbArc
 50
344.8361192475
 51
346.0778749861
  0
SPLINE
  5
2AA
100
AcDbEntity
  8
0
100
AcDbSpline
 62
7
  6
CONTINUOUS
 70
0
 71
3
 72
9
 73
5
 74
0
 42
0.0000001
 43
0.0000001
 44
0.0000000001
 40
0.0
 40
0.0
 40
0.0
 40
0.0
 40
0.5145737826
 40
1.0
 40
1.0
 40
1.0
 40
1.0
 10
-130.8186375121
 20
224.5567721483
 30
0.0
 10
-130.8186375121
 20
224.3352339974
 30
0.0
 10
-130.7787572949
 20
223.9033959951
 30
0.0
 10
-130.647976821
 20
223.4887261519
 30
0.0
 10
-130.5611276458
 20
223.2986373359
 30
0.0
  0
SPLINE
  5
2AB
100
AcDbEntity
  8
0
100
AcDbSpline
 62
7
  6
CONTINUOUS
 70
0
 71
3
 72
14
 73
10
 74
0
 42
0.0000001
 43
0.0000001
 44
0.0000000001
 40
0.0
 40
0.0
 40
0.0
 40
0.0
 40
0.1178849699
 40
0.2406293175
 40
0.367136157
 40
0.4959352505
 40
0.6253531269
 40
0.753662167
 40
1.0
 40
1.0
 40
1.0
 40
1.0
 10
-128.3392985838
 20
228.4060410607
 30
0.0
 10
-128.5133279895
 20
228.3314492993
 30
0.0
 10
-128.8557635187
 20
228.1478643529
 30
0.0
 10
-129.3275244985
 20
227.7906487808
 30
0.0
 10
-129.7550449156
 20
227.3565437786
 30
0.0
 10
-130.1249732045
 20
226.8592848506
 30
0.0
 10
-130.4260440887
 20
226.3139196127
 30
0.0
 10
-130.7187279661
 20
225.5576367568
 30
0.0
 10
-130.8186375121
 20
224.9524286062
 30
0.0
 10
-130.8186375121
 20
224.5567721483
 30
0.0
  0
SPLINE
  5
2AC
100
AcDbEntity
  8
0
100
AcDbSpline
 62
7
  6
CONTINUOUS
 70
0
 71
3
 72
25
 73
21
 74
0
 42
0.0000001
 43
0.0000001
 44
0.0000000001
 40
0.0
 40
0.0
 40
0.0
 40
0.0
 40
0.0157125681
 40
0.0319505943
 40
0.0491799816
 40
0.0677686538
 40
0.1099229086
 40
0.159582338
 40
0.2167964664
 40
0.2809689453
 40
0.3510776773
 40
0.4258113477
 40
0.5036622451
 40
0.5829993212
 40
0.6621349856
 40
0.7393892249
 40
0.8131527543
 40
0.8819578545
 40
0.9445506783
 40
1.0
 40
1.0
 40
1.0
 40
1.0
 10
-48.6492933126
 20
251.1401063317
 30
0.0
 10
-48.6492849513
 20
251.5692699785
 30
0.0
 10
-48.5592980555
 20
252.4443317153
 30
0.0
 10
-48.1598918771
 20
253.7347967117
 30
0.0
 10
-47.5016285026
 20
255.0026657475
 30
0.0
 10
-46.2359335101
 20
256.7241479001
 30
0.0
 10
-43.9762205817
 20
258.763734553
 30
0.0
 10
-40.4981995808
 20
260.9048930806
 30
0.0
 10
-36.2176335684
 20
262.8046119159
 30
0.0
 10
-31.23443622
 20
264.4178560961
 30
0.0
 10
-25.6665952425
 20
265.7060100443
 30
0.0
 10
-19.6506343259
 20
266.6361472693
 30
0.0
 10
-13.3354230569
 20
267.1845035825
 30
0.0
 10
-6.8782503555
 20
267.3369201989
 30
0.0
 10
-0.4403064984
 20
267.0894762761
 30
0.0
 10
5.8177550172
 20
266.4485171816
 30
0.0
 10
11.7400678275
 20
265.430646386
 30
0.0
 10
17.180740923
 20
264.0616527285
 30
0.0
 10
22.0055816319
 20
262.3768675655
 30
0.0
 10
24.9235323797
 20
260.9804604635
 30
0.0
 10
26.2350047626
 20
260.2229783713
 30
0.0
  0
SPLINE
  5
2AD
100
AcDbEntity
  8
0
100
AcDbSpline
 62
7
  6
CONTINUOUS
 70
0
 71
3
 72
26
 73
22
 74
0
 42
0.0000001
 43
0.0000001
 44
0.0000000001
 40
0.0
 40
0.0
 40
0.0
 40
0.0
 40
0.0157791383
 40
0.0322979817
 40
0.0499635002
 40
0.069084216
 40
0.0898735882
 40
0.1124604221
 40
0.1631884365
 40
0.2212301839
 40
0.285927782
 40
0.3562465633
 40
0.4308919244
 40
0.5083927121
 40
0.5871698774
 40
0.6655979243
 40
0.7420639821
 40
0.8150271875
 40
0.8830841034
 40
0.9450372234
 40
1.0
 40
1.0
 40
1.0
 40
1.0
 10
-65.9550203176
 20
250.6547543094
 30
0.0
 10
-65.8950775927
 20
251.260509492
 30
0.0
 10
-65.6465397699
 20
252.4908651203
 30
0.0
 10
-64.9167341939
 20
254.2850137606
 30
0.0
 10
-63.8346761674
 20
256.043297392
 30
0.0
 10
-62.4108422965
 20
257.7560844827
 30
0.0
 10
-60.6552190896
 20
259.4156521788
 30
0.0
 10
-57.7739663749
 20
261.6323661036
 30
0.0
 10
-53.3662821534
 20
264.1755348981
 30
0.0
 10
-47.1856340953
 20
266.7719384572
 30
0.0
 10
-40.0571604821
 20
268.9646185339
 30
0.0
 10
-32.149592686
 20
270.7003646351
 30
0.0
 10
-23.6503224527
 20
271.9366024436
 30
0.0
 10
-14.764042157
 20
272.6425012669
 30
0.0
 10
-5.7054726231
 20
272.8004342175
 30
0.0
 10
3.3060045172
 20
272.4064694394
 30
0.0
 10
12.0523380735
 20
271.4704209704
 30
0.0
 10
20.3222872363
 20
270.0157739269
 30
0.0
 10
27.9182584173
 20
268.078231684
 30
0.0
 10
34.6585626952
 20
265.7062709871
 30
0.0
 10
38.7377932776
 20
263.7480533007
 30
0.0
 10
40.5738482312
 20
262.6875820582
 30
0.0
  0
SPLINE
  5
2AE
100
AcDbEntity
  8
0
100
AcDbSpline
 62
7
  6
CONTINUOUS
 70
0
 71
3
 72
13
 73
9
 74
0
 42
0.0000001
 43
0.0000001
 44
0.0000000001
 40
0.0
 40
0.0
 40
0.0
 40
0.0
 40
0.30745118
 40
0.444374449
 40
0.5707356865
 40
0.7961193261
 40
0.8995508988
 40
1.0
 40
1.0
 40
1.0
 40
1.0
 10
26.2350047626
 20
260.2229783714
 30
0.0
 10
27.3042532688
 20
259.605400292
 30
0.0
 10
28.7995795849
 20
258.6123166418
 30
0.0
 10
30.5106621189
 20
257.0806477113
 30
0.0
 10
31.8229278452
 20
255.6191907353
 30
0.0
 10
32.7885951294
 20
254.0280687453
 30
0.0
 10
33.2714162332
 20
252.3644091484
 30
0.0
 10
33.3507081974
 20
251.5435300116
 30
0.0
 10
33.3507061119
 20
251.1401063317
 30
0.0
  0
SPLINE
  5
2AF
100
AcDbEntity
  8
0
100
AcDbSpline
 62
7
  6
CONTINUOUS
 70
0
 71
3
 72
13
 73
9
 74
0
 42
0.0000001
 43
0.0000001
 44
0.0000000001
 40
0.0
 40
0.0
 40
0.0
 40
0.0
 40
0.3045696624
 40
0.5678615448
 40
0.6857306198
 40
0.7958454777
 40
0.8998901762
 40
1.0
 40
1.0
 40
1.0
 40
1.0
 10
40.5738482312
 20
262.6875820582
 30
0.0
 10
42.0023323529
 20
261.8625161589
 30
0.0
 10
44.5792863837
 20
260.1635626176
 30
0.0
 10
47.3151378694
 20
257.6109500898
 30
0.0
 10
48.9136690141
 20
255.4755157325
 30
0.0
 10
49.7934699217
 20
253.8999269724
 30
0.0
 10
50.3915170956
 20
252.2989392421
 30
0.0
 10
50.6011255873
 20
251.206553421
 30
0.0
 10
50.6552480589
 20
250.6670378473
 30
0.0
  0
SPLINE
  5
2B0
100
AcDbEntity
  8
0
100
AcDbSpline
 62
7
  6
CONTINUOUS
 70
0
 71
3
 72
13
 73
9
 74
0
 42
0.0000001
 43
0.0000001
 44
0.0000000001
 40
0.0
 40
0.0
 40
0.0
 40
0.0
 40
0.1004483953
 40
0.2038794254
 40
0.4292630099
 40
0.5556246272
 40
0.6925486389
 40
1.0
 40
1.0
 40
1.0
 40
1.0
 10
-48.649282194
 20
249.7611044113
 30
0.0
 10
-48.6492831756
 20
249.3576837543
 30
0.0
 10
-48.5699989558
 20
248.5368095017
 30
0.0
 10
-48.0871777227
 20
246.8731558063
 30
0.0
 10
-47.1215211745
 20
245.2820303471
 30
0.0
 10
-45.8092539759
 20
243.8205695131
 30
0.0
 10
-44.0981695392
 20
242.2888966445
 30
0.0
 10
-42.6028412486
 20
241.2958105275
 30
0.0
 10
-41.5335926104
 20
240.6782323719
 30
0.0
  0
SPLINE
  5
2B1
100
AcDbEntity
  8
0
100
AcDbSpline
 62
7
  6
CONTINUOUS
 70
0
 71
3
 72
25
 73
21
 74
0
 42
0.0000001
 43
0.0000001
 44
0.0000000001
 40
0.0
 40
0.0
 40
0.0
 40
0.0
 40
0.0157126034
 40
0.0319506946
 40
0.0491802231
 40
0.0677690195
 40
0.1099235496
 40
0.1595827907
 40
0.2167958209
 40
0.2809671016
 40
0.351075894
 40
0.4258106235
 40
0.503662407
 40
0.5829998451
 40
0.6621355118
 40
0.7393895871
 40
0.8131533624
 40
0.8819584154
 40
0.9445509148
 40
1.0
 40
1.0
 40
1.0
 40
1.0
 10
33.3507061119
 20
251.1401063317
 30
0.0
 10
33.3507038933
 20
250.7109417116
 30
0.0
 10
33.260704567
 20
249.8358778425
 30
0.0
 10
32.8613055281
 20
248.5454044687
 30
0.0
 10
32.2030255244
 20
247.2775331148
 30
0.0
 10
30.9373300373
 20
245.5560339994
 30
0.0
 10
28.677600202
 20
243.5164539359
 30
0.0
 10
25.1996026233
 20
241.3753135154
 30
0.0
 10
20.9190986224
 20
239.4756218448
 30
0.0
 10
15.9359622682
 20
237.862388805
 30
0.0
 10
10.3681255481
 20
236.5742250004
 30
0.0
 10
4.3521113501
 20
235.6440719674
 30
0.0
 10
-1.9631628266
 20
235.0957085455
 30
0.0
 10
-8.4203698969
 20
234.9432927666
 30
0.0
 10
-14.8583191972
 20
235.1907399852
 30
0.0
 10
-21.1163829815
 20
235.8317005823
 30
0.0
 10
-27.0386961971
 20
236.8495756903
 30
0.0
 10
-32.4793651637
 20
238.2185718913
 30
0.0
 10
-37.3041895546
 20
239.9033536193
 30
0.0
 10
-40.2221257991
 20
241.2997554181
 30
0.0
 10
-41.5335926104
 20
242.057234292
 30
0.0
  0
SPLINE
  5
2B2
100
AcDbEntity
  8
0
100
AcDbSpline
 62
7
  6
CONTINUOUS
 70
0
 71
3
 72
13
 73
9
 74
0
 42
0.0000001
 43
0.0000001
 44
0.0000000001
 40
0.0
 40
0.0
 40
0.0
 40
0.0
 40
0.3074454925
 40
0.4443665154
 40
0.5707294886
 40
0.79611727
 40
0.8995499599
 40
1.0
 40
1.0
 40
1.0
 40
1.0
 10
-41.5335926104
 20
242.057234292
 30
0.0
 10
-42.6028212904
 20
242.6748009202
 30
0.0
 10
-44.098126163
 20
243.6678590226
 30
0.0
 10
-45.8091898752
 20
245.1995114089
 30
0.0
 10
-47.1214755521
 20
246.6609688853
 30
0.0
 10
-48.0871728995
 20
248.2521085863
 30
0.0
 10
-48.5700001936
 20
249.9157914477
 30
0.0
 10
-48.6493011726
 20
250.7366788987
 30
0.0
 10
-48.6492933126
 20
251.1401063317
 30
0.0
  0
SPLINE
  5
2B3
100
AcDbEntity
  8
0
100
AcDbSpline
 62
7
  6
CONTINUOUS
 70
0
 71
3
 72
25
 73
21
 74
0
 42
0.0000001
 43
0.0000001
 44
0.0000000001
 40
0.0
 40
0.0
 40
0.0
 40
0.0
 40
0.0554492105
 40
0.1180419337
 40
0.186847055
 40
0.2606106215
 40
0.3378649234
 40
0.4170007139
 40
0.4963380581
 40
0.574189679
 40
0.6489243286
 40
0.7190330934
 40
0.7832043406
 40
0.8404173143
 40
0.8900764889
 40
0.9322309736
 40
0.9508197526
 40
0.9680492872
 40
0.9842873958
 40
1.0
 40
1.0
 40
1.0
 40
1.0
 10
-41.5335926104
 20
240.6782323719
 30
0.0
 10
-40.2221232038
 20
239.9207519989
 30
0.0
 10
-37.3041786346
 20
238.5243473582
 30
0.0
 10
-32.4793437492
 20
236.8395653994
 30
0.0
 10
-27.0386734003
 20
235.4705717351
 30
0.0
 10
-21.1163588117
 20
234.4527009191
 30
0.0
 10
-14.8582927382
 20
233.8117420108
 30
0.0
 10
-8.4203380636
 20
233.5642984421
 30
0.0
 10
-1.9631365273
 20
233.7167171562
 30
0.0
 10
4.352126468
 20
234.2650824064
 30
0.0
 10
10.3681313645
 20
235.1952359634
 30
0.0
 10
15.9359624463
 20
236.4833999728
 30
0.0
 10
20.9190939154
 20
238.0966327157
 30
0.0
 10
25.1995926791
 20
239.9963226398
 30
0.0
 10
28.6775848528
 20
242.1374601606
 30
0.0
 10
30.9373136194
 20
244.1770353945
 30
0.0
 10
32.2030068157
 20
245.8985330862
 30
0.0
 10
32.8612912167
 20
247.1664022155
 30
0.0
 10
33.2606877304
 20
248.4568762689
 30
0.0
 10
33.3506933019
 20
249.3319398904
 30
0.0
 10
33.3506943462
 20
249.7611044117
 30
0.0
  0
SPLINE
  5
2B4
100
AcDbEntity
  8
0
100
AcDbSpline
 62
7
  6
CONTINUOUS
 70
0
 71
3
 72
9
 73
5
 74
0
 42
0.0000001
 43
0.0000001
 44
0.0000000001
 40
0.0
 40
0.0
 40
0.0
 40
0.0
 40
0.2288921309
 40
1.0
 40
1.0
 40
1.0
 40
1.0
 10
45.0153398925
 20
265.3328157739
 30
0.0
 10
45.2215800888
 20
264.9612993606
 30
0.0
 10
46.218928403
 20
263.3913584265
 30
0.0
 10
47.5467736186
 20
262.0511185548
 30
0.0
 10
48.6462706382
 20
261.1344248631
 30
0.0
  0
SPLINE
  5
2B5
100
AcDbEntity
  8
0
100
AcDbSpline
 62
7
  6
CONTINUOUS
 70
0
 71
3
 72
9
 73
5
 74
0
 42
0.0000001
 43
0.0000001
 44
0.0000000001
 40
0.0
 40
0.0
 40
0.0
 40
0.0
 40
0.4725915768
 40
1.0
 40
1.0
 40
1.0
 40
1.0
 10
48.6462706382
 20
261.1344248631
 30
0.0
 10
49.4978486237
 20
260.4244309719
 30
0.0
 10
51.4136390781
 20
259.0572060528
 30
0.0
 10
53.4680716203
 20
257.9159470648
 30
0.0
 10
54.5748253863
 20
257.3626986277
 30
0.0
  0
SPLINE
  5
2B6
100
AcDbEntity
  8
0
100
AcDbSpline
 62
7
  6
CONTINUOUS
 70
0
 71
3
 72
9
 73
5
 74
0
 42
0.0000001
 43
0.0000001
 44
0.0000000001
 40
0.0
 40
0.0
 40
0.0
 40
0.0
 40
0.4789031452
 40
1.0
 40
1.0
 40
1.0
 40
1.0
 10
54.5282550667
 20
251.8618457835
 30
0.0
 10
54.6210835267
 20
251.1054428437
 30
0.0
 10
55.0502258023
 20
249.5493690878
 30
0.0
 10
55.8550858819
 20
248.1591438321
 30
0.0
 10
56.3372590732
 20
247.4845211699
 30
0.0
  0
SPLINE
  5
2B7
100
AcDbEntity
  8
0
100
AcDbSpline
 62
7
  6
CONTINUOUS
 70
0
 71
3
 72
9
 73
5
 74
0
 42
0.0000001
 43
0.0000001
 44
0.0000000001
 40
0.0
 40
0.0
 40
0.0
 40
0.0
 40
0.5101536178
 40
1.0
 40
1.0
 40
1.0
 40
1.0
 10
-70.5555278019
 20
245.0734902036
 30
0.0
 10
-70.3024305508
 20
245.6281783821
 30
0.0
 10
-69.9067605843
 20
246.7659267277
 30
0.0
 10
-69.7686550958
 20
247.9646785216
 30
0.0
 10
-69.7686602201
 20
248.550111175
 30
0.0
  0
SPLINE
  5
2B8
100
AcDbEntity
  8
0
100
AcDbSpline
 62
7
  6
CONTINUOUS
 70
0
 71
3
 72
9
 73
5
 74
0
 42
0.0000001
 43
0.0000001
 44
0.0000000001
 40
0.0
 40
0.0
 40
0.0
 40
0.0
 40
0.5294703325
 40
1.0
 40
1.0
 40
1.0
 40
1.0
 10
-71.2202240021
 20
254.972525262
 30
0.0
 10
-70.2592391621
 20
255.5620053027
 30
0.0
 10
-68.4994655908
 20
256.7701660792
 30
0.0
 10
-66.9178684661
 20
258.2111183024
 30
0.0
 10
-66.24285915
 20
258.9514698155
 30
0.0
  0
SPLINE
  5
2B9
100
AcDbEntity
  8
0
100
AcDbSpline
 62
7
  6
CONTINUOUS
 70
0
 71
3
 72
9
 73
5
 74
0
 42
0.0000001
 43
0.0000001
 44
0.0000000001
 40
0.0
 40
0.0
 40
0.0
 40
0.0
 40
0.5264376627
 40
1.0
 40
1.0
 40
1.0
 40
1.0
 10
-66.24285915
 20
258.9514698155
 30
0.0
 10
-65.6442493752
 20
259.608026165
 30
0.0
 10
-64.6055965684
 20
260.9530453584
 30
0.0
 10
-63.8884693247
 20
262.5030218106
 30
0.0
 10
-63.6569079536
 20
263.2679848155
 30
0.0
  0
SPLINE
  5
2BA
100
AcDbEntity
  8
0
100
AcDbSpline
 62
7
  6
CONTINUOUS
 70
0
 71
3
 72
9
 73
5
 74
0
 42
0.0000001
 43
0.0000001
 44
0.0000000001
 40
0.0
 40
0.0
 40
0.0
 40
0.0
 40
0.5187216361
 40
1.0
 40
1.0
 40
1.0
 40
1.0
 10
-62.2068223698
 20
264.2181290987
 30
0.0
 10
-60.7116485513
 20
264.6273490227
 30
0.0
 10
-57.8515822768
 20
265.5014267652
 30
0.0
 10
-55.0581908648
 20
266.572771865
 30
0.0
 10
-53.7385362318
 20
267.1447179037
 30
0.0
  0
SPLINE
  5
2BB
100
AcDbEntity
  8
0
100
AcDbSpline
 62
7
  6
CONTINUOUS
 70
0
 71
3
 72
9
 73
5
 74
0
 42
0.0000001
 43
0.0000001
 44
0.0000000001
 40
0.0
 40
0.0
 40
0.0
 40
0.0
 40
0.5254815859
 40
1.0
 40
1.0
 40
1.0
 40
1.0
 10
-53.7385362318
 20
267.1447179037
 30
0.0
 10
-52.5306761463
 20
267.6682115315
 30
0.0
 10
-50.269598933
 20
268.75480714
 30
0.0
 10
-48.1245479459
 20
270.0606648447
 30
0.0
 10
-47.1513174604
 20
270.7432730107
 30
0.0
  0
SPLINE
  5
2BC
100
AcDbEntity
  8
0
100
AcDbSpline
 62
7
  6
CONTINUOUS
 70
0
 71
3
 72
9
 73
5
 74
0
 42
0.0000001
 43
0.0000001
 44
0.0000000001
 40
0.0
 40
0.0
 40
0.0
 40
0.0
 40
0.2556903406
 40
1.0
 40
1.0
 40
1.0
 40
1.0
 10
-44.8875315968
 20
271.4027423412
 30
0.0
 10
-43.9731808904
 20
271.4813284939
 30
0.0
 10
-40.400914748
 20
271.829831194
 30
0.0
 10
-36.8441107734
 20
272.3436800159
 30
0.0
 10
-34.2175439723
 20
272.8314287818
 30
0.0
  0
SPLINE
  5
2BD
100
AcDbEntity
  8
0
100
AcDbSpline
 62
7
  6
CONTINUOUS
 70
0
 71
3
 72
9
 73
5
 74
0
 42
0.0000001
 43
0.0000001
 44
0.0000000001
 40
0.0
 40
0.0
 40
0.0
 40
0.0
 40
0.2602016354
 40
1.0
 40
1.0
 40
1.0
 40
1.0
 10
-34.2175439723
 20
272.8314287818
 30
0.0
 10
-33.3760024955
 20
272.9877015317
 30
0.0
 10
-30.1499655772
 20
273.630363285
 30
0.0
 10
-26.9565117438
 20
274.4441993297
 30
0.0
 10
-24.6319019706
 20
275.1641766017
 30
0.0
  0
SPLINE
  5
2BE
100
AcDbEntity
  8
0
100
AcDbSpline
 62
7
  6
CONTINUOUS
 70
0
 71
3
 72
9
 73
5
 74
0
 42
0.0000001
 43
0.0000001
 44
0.0000000001
 40
0.0
 40
0.0
 40
0.0
 40
0.0
 40
0.2412380147
 40
1.0
 40
1.0
 40
1.0
 40
1.0
 10
3.2588153985
 20
275.6941151813
 30
0.0
 10
4.0621143017
 20
275.4913644074
 30
0.0
 10
7.4045191637
 20
274.7007702994
 30
0.0
 10
10.7908334571
 20
274.099866006
 30
0.0
 10
13.3710917552
 20
273.7356383686
 30
0.0
  0
SPLINE
  5
2BF
100
AcDbEntity
  8
0
100
AcDbSpline
 62
7
  6
CONTINUOUS
 70
0
 71
3
 72
9
 73
5
 74
0
 42
0.0000001
 43
0.0000001
 44
0.0000000001
 40
0.0
 40
0.0
 40
0.0
 40
0.0
 40
0.2455132228
 40
1.0
 40
1.0
 40
1.0
 40
1.0
 10
13.3710917552
 20
273.7356383686
 30
0.0
 10
14.2640538388
 20
273.6095884029
 30
0.0
 10
17.9074511486
 20
273.141309813
 30
0.0
 10
21.5729567997
 20
272.8478691699
 30
0.0
 10
24.3412854817
 20
272.718126973
 30
0.0
  0
SPLINE
  5
2C0
100
AcDbEntity
  8
0
100
AcDbSpline
 62
7
  6
CONTINUOUS
 70
0
 71
3
 72
9
 73
5
 74
0
 42
0.0000001
 43
0.0000001
 44
0.0000000001
 40
0.0
 40
0.0
 40
0.0
 40
0.0
 40
0.4773865886
 40
1.0
 40
1.0
 40
1.0
 40
1.0
 10
26.7560267383
 20
272.1475521655
 30
0.0
 10
27.8858634105
 20
271.5084232078
 30
0.0
 10
30.3250278998
 20
270.2962124759
 30
0.0
 10
32.8555602477
 20
269.2935323573
 30
0.0
 10
34.1937968257
 20
268.8154793644
 30
0.0
  0
SPLINE
  5
2C1
100
AcDbEntity
  8
0
100
AcDbSpline
 62
7
  6
CONTINUOUS
 70
0
 71
3
 72
9
 73
5
 74
0
 42
0.0000001
 43
0.0000001
 44
0.0000000001
 40
0.0
 40
0.0
 40
0.0
 40
0.0
 40
0.2378513093
 40
1.0
 40
1.0
 40
1.0
 40
1.0
 10
34.1937968257
 20
268.8154793644
 30
0.0
 10
34.9037909911
 20
268.5618509393
 30
0.0
 10
37.908322904
 20
267.5503033916
 30
0.0
 10
40.9802822675
 20
266.7443009473
 30
0.0
 10
43.3393335976
 20
266.2235626358
 30
0.0
  0
SPLINE
  5
2C2
100
AcDbEntity
  8
0
100
AcDbSpline
 62
7
  6
CONTINUOUS
 70
0
 71
3
 72
25
 73
21
 74
0
 42
0.0000001
 43
0.0000001
 44
0.0000000001
 40
0.0
 40
0.0
 40
0.0
 40
0.0
 40
0.0541264008
 40
0.1149827957
 40
0.1817540696
 40
0.2533371543
 40
0.3284360179
 40
0.4056226495
 40
0.4833963056
 40
0.5602362363
 40
0.6346537618
 40
0.7052456128
 40
0.7707531484
 40
0.8301315946
 40
0.8826424884
 40
0.9279943466
 40
0.9481029757
 40
0.9666475087
 40
0.9838446586
 40
1.0
 40
1.0
 40
1.0
 40
1.0
 10
-55.9964030253
 20
237.7207313586
 30
0.0
 10
-54.2081836551
 20
236.6878890607
 30
0.0
 10
-50.2451318074
 20
234.7752400634
 30
0.0
 10
-43.7050509009
 20
232.4426843998
 30
0.0
 10
-36.3429501171
 20
230.5203819296
 30
0.0
 10
-28.3256751461
 20
229.0538016163
 30
0.0
 10
-19.8346909265
 20
228.0769971352
 30
0.0
 10
-11.0642578007
 20
227.6131439085
 30
0.0
 10
-2.2154495093
 20
227.6731691249
 30
0.0
 10
6.5086764105
 20
228.2556720639
 30
0.0
 10
14.9081407027
 20
229.3468721862
 30
0.0
 10
22.7912278581
 20
230.9210920229
 30
0.0
 10
29.9790719687
 20
232.9413046592
 30
0.0
 10
36.3124978784
 20
235.3616440626
 30
0.0
 10
41.6518771025
 20
238.1276693211
 30
0.0
 10
45.3231032211
 20
240.7775549376
 30
0.0
 10
47.5980047728
 20
243.044234561
 30
0.0
 10
48.9177299448
 20
244.7252144294
 30
0.0
 10
49.9108611246
 20
246.4465063516
 30
0.0
 10
50.3598322884
 20
247.6453928856
 30
0.0
 10
50.5210470356
 20
248.2403048736
 30
0.0
  0
SPLINE
  5
2C3
100
AcDbEntity
  8
0
100
AcDbSpline
 62
7
  6
CONTINUOUS
 70
0
 71
3
 72
9
 73
5
 74
0
 42
0.0000001
 43
0.0000001
 44
0.0000000001
 40
0.0
 40
0.0
 40
0.0
 40
0.0
 40
0.2529937673
 40
1.0
 40
1.0
 40
1.0
 40
1.0
 10
50.5745276044
 20
248.4464604593
 30
0.0
 10
50.6202590261
 20
248.630968091
 30
0.0
 10
50.7797617002
 20
249.3653463271
 30
0.0
 10
50.8506253469
 20
250.1191649542
 30
0.0
 10
50.8506444807
 20
250.6804390536
 30
0.0
  0
SPLINE
  5
2C4
100
AcDbEntity
  8
0
100
AcDbSpline
 62
7
  6
CONTINUOUS
 70
0
 71
3
 72
9
 73
5
 74
0
 42
0.0000001
 43
0.0000001
 44
0.0000000001
 40
0.0
 40
0.0
 40
0.0
 40
0.0
 40
0.248257997
 40
1.0
 40
1.0
 40
1.0
 40
1.0
 10
-66.1492323285
 20
250.6804389963
 30
0.0
 10
-66.1492386713
 20
250.4943772113
 30
0.0
 10
-66.1262916268
 20
249.7450296771
 30
0.0
 10
-66.0096906894
 20
248.9989803817
 30
0.0
 10
-65.8744707191
 20
248.45204002
 30
0.0
  0
SPLINE
  5
2C5
100
AcDbEntity
  8
0
100
AcDbSpline
 62
7
  6
CONTINUOUS
 70
0
 71
3
 72
11
 73
7
 74
0
 42
0.0000001
 43
0.0000001
 44
0.0000000001
 40
0.0
 40
0.0
 40
0.0
 40
0.0
 40
0.2060660058
 40
0.4371179277
 40
0.7006326907
 40
1.0
 40
1.0
 40
1.0
 40
1.0
 10
-65.8314873058
 20
248.2845353362
 30
0.0
 10
-65.5706735559
 20
247.3040220085
 30
0.0
 10
-64.6889525545
 20
245.3054164329
 30
0.0
 10
-62.5522797903
 20
242.5660577329
 30
0.0
 10
-59.6029640253
 20
239.9740011594
 30
0.0
 10
-57.2727937199
 20
238.4579509191
 30
0.0
 10
-55.9964030253
 20
237.7207313586
 30
0.0
  0
SPLINE
  5
2C6
100
AcDbEntity
  8
0
100
AcDbSpline
 62
7
  6
CONTINUOUS
 70
0
 71
3
 72
17
 73
13
 74
0
 42
0.0000001
 43
0.0000001
 44
0.0000000001
 40
0.0
 40
0.0
 40
0.0
 40
0.0
 40
0.0469427429
 40
0.0978682007
 40
0.1525278822
 40
0.2106149624
 40
0.3354318344
 40
0.4686918507
 40
0.6061948346
 40
0.7434926563
 40
0.876146703
 40
1.0
 40
1.0
 40
1.0
 40
1.0
 10
-60.9550808819
 20
214.7871671567
 30
0.0
 10
-59.7132784529
 20
214.0699251361
 30
0.0
 10
-57.0527748051
 20
212.6967697192
 30
0.0
 10
-52.7584975922
 20
210.8793169114
 30
0.0
 10
-48.033140668
 20
209.2349470697
 30
0.0
 10
-41.0500298117
 20
207.247071741
 30
0.0
 10
-31.5663991496
 20
205.3345244244
 30
0.0
 10
-19.5465421193
 20
203.9694404267
 30
0.0
 10
-7.0757461719
 20
203.5377896172
 30
0.0
 10
5.3734058773
 20
204.0561569505
 30
0.0
 10
17.3287164458
 20
205.504025771
 30
0.0
 10
25.010634925
 20
207.1218650587
 30
0.0
 10
28.6652083691
 20
208.1014935073
 30
0.0
  0
SPLINE
  5
2C7
100
AcDbEntity
  8
0
100
AcDbSpline
 62
7
  6
CONTINUOUS
 70
0
 71
3
 72
16
 73
12
 74
0
 42
0.0000001
 43
0.0000001
 44
0.0000000001
 40
0.0
 40
0.0
 40
0.0
 40
0.0
 40
0.1738670882
 40
0.3342969571
 40
0.4799866939
 40
0.6102705015
 40
0.7252684671
 40
0.8262694449
 40
0.9161635093
 40
0.9584937943
 40
1.0
 40
1.0
 40
1.0
 40
1.0
 10
28.6652083691
 20
208.1014935073
 30
0.0
 10
30.7511217995
 20
208.6606340387
 30
0.0
 10
34.7298615929
 20
209.861755649
 30
0.0
 10
40.2985976465
 20
212.0081713341
 30
0.0
 10
45.1709166321
 20
214.4031684386
 30
0.0
 10
49.2796370932
 20
217.0139781291
 30
0.0
 10
52.5698312548
 20
219.8117308503
 30
0.0
 10
54.9950604385
 20
222.768893462
 30
0.0
 10
56.2749554935
 20
225.4096309077
 30
0.0
 10
56.7690863097
 20
227.5174687167
 30
0.0
 10
56.8506906891
 20
228.5605387753
 30
0.0
 10
56.8506993908
 20
229.0760756061
 30
0.0
  0
SPLINE
  5
2C8
100
AcDbEntity
  8
0
100
AcDbSpline
 62
7
  6
CONTINUOUS
 70
0
 71
3
 72
13
 73
9
 74
0
 42
0.0000001
 43
0.0000001
 44
0.0000000001
 40
0.0
 40
0.0
 40
0.0
 40
0.0
 40
0.1004256181
 40
0.2038335624
 40
0.3128993351
 40
0.42979788
 40
0.6926143063
 40
1.0
 40
1.0
 40
1.0
 40
1.0
 10
-72.1492228577
 20
229.0760756168
 30
0.0
 10
-72.1492126929
 20
228.4414224708
 30
0.0
 10
-72.0248085467
 20
227.1500966227
 30
0.0
 10
-71.4702979048
 20
225.2415630857
 30
0.0
 10
-70.5553904908
 20
223.3617971329
 30
0.0
 10
-68.7979428329
 20
220.8098056031
 30
0.0
 10
-65.6508754568
 20
217.7608471539
 30
0.0
 10
-62.6372231797
 20
215.7587413077
 30
0.0
 10
-60.9550808819
 20
214.7871671567
 30
0.0
  0
SPLINE
  5
2C9
100
AcDbEntity
  8
0
100
AcDbSpline
 62
7
  6
CONTINUOUS
 70
0
 71
3
 72
9
 73
5
 74
0
 42
0.0000001
 43
0.0000001
 44
0.0000000001
 40
0.0
 40
0.0
 40
0.0
 40
0.0
 40
0.5048366792
 40
1.0
 40
1.0
 40
1.0
 40
1.0
 10
56.3832453848
 20
238.1016455905
 30
0.0
 10
56.5363894187
 20
237.603987095
 30
0.0
 10
56.770960428
 20
236.5953590232
 30
0.0
 10
56.8507409091
 20
235.562462522
 30
0.0
 10
56.8507195201
 20
235.0517505965
 30
0.0
  0
SPLINE
  5
2CA
100
AcDbEntity
  8
0
100
AcDbSpline
 62
7
  6
CONTINUOUS
 70
0
 71
3
 72
9
 73
5
 74
0
 42
0.0000001
 43
0.0000001
 44
0.0000000001
 40
0.0
 40
0.0
 40
0.0
 40
0.0
 40
0.2412380147
 40
1.0
 40
1.0
 40
1.0
 40
1.0
 10
-18.5574032462
 20
225.6667628686
 30
0.0
 10
-19.3607021495
 20
225.8695136425
 30
0.0
 10
-22.7031070114
 20
226.6601077505
 30
0.0
 10
-26.0894213048
 20
227.2610120439
 30
0.0
 10
-28.6696796029
 20
227.6252396813
 30
0.0
  0
SPLINE
  5
2CB
100
AcDbEntity
  8
0
100
AcDbSpline
 62
7
  6
CONTINUOUS
 70
0
 71
3
 72
9
 73
5
 74
0
 42
0.0000001
 43
0.0000001
 44
0.0000000001
 40
0.0
 40
0.0
 40
0.0
 40
0.0
 40
0.2455132228
 40
1.0
 40
1.0
 40
1.0
 40
1.0
 10
-28.6696796029
 20
227.6252396813
 30
0.0
 10
-29.5626416865
 20
227.7512896471
 30
0.0
 10
-33.2060389964
 20
228.2195682369
 30
0.0
 10
-36.8715446474
 20
228.51300888
 30
0.0
 10
-39.6398733294
 20
228.6427510769
 30
0.0
  0
SPLINE
  5
2CC
100
AcDbEntity
  8
0
100
AcDbSpline
 62
7
  6
CONTINUOUS
 70
0
 71
3
 72
9
 73
5
 74
0
 42
0.0000001
 43
0.0000001
 44
0.0000000001
 40
0.0
 40
0.0
 40
0.0
 40
0.0
 40
0.4773865886
 40
1.0
 40
1.0
 40
1.0
 40
1.0
 10
-42.0546145861
 20
229.2133258844
 30
0.0
 10
-43.1844512583
 20
229.8524548422
 30
0.0
 10
-45.6236157476
 20
231.064665574
 30
0.0
 10
-48.1541480955
 20
232.0673456926
 30
0.0
 10
-49.4923846734
 20
232.5453986855
 30
0.0
  0
SPLINE
  5
2CD
100
AcDbEntity
  8
0
100
AcDbSpline
 62
7
  6
CONTINUOUS
 70
0
 71
3
 72
9
 73
5
 74
0
 42
0.0000001
 43
0.0000001
 44
0.0000000001
 40
0.0
 40
0.0
 40
0.0
 40
0.0
 40
0.2378513093
 40
1.0
 40
1.0
 40
1.0
 40
1.0
 10
-49.4923846734
 20
232.5453986855
 30
0.0
 10
-50.2023788388
 20
232.7990271106
 30
0.0
 10
-53.2069107517
 20
233.8105746583
 30
0.0
 10
-56.2788701153
 20
234.6165771027
 30
0.0
 10
-58.6379214453
 20
235.1373154141
 30
0.0
  0
SPLINE
  5
2CE
100
AcDbEntity
  8
0
100
AcDbSpline
 62
7
  6
CONTINUOUS
 70
0
 71
3
 72
27
 73
23
 74
0
 42
0.0000001
 43
0.0000001
 44
0.0000000001
 40
0.0
 40
0.0
 40
0.0
 40
0.0
 40
0.0554437811
 40
0.1180293866
 40
0.1868272189
 40
0.2605831094
 40
0.3378291005
 40
0.4169564788
 40
0.4962855167
 40
0.5741291508
 40
0.6488561878
 40
0.7189577187
 40
0.7831223276
 40
0.8403293602
 40
0.8661332638
 40
0.8900229871
 40
0.9120271944
 40
0.9322379594
 40
0.9508251487
 40
0.9680524644
 40
0.9842890986
 40
1.0
 40
1.0
 40
1.0
 40
1.0
 10
40.6978151776
 20
263.6401466913
 30
0.0
 10
38.826558408
 20
264.720949849
 30
0.0
 10
34.6631547278
 20
266.7133826565
 30
0.0
 10
27.7789354291
 20
269.1172490204
 30
0.0
 10
20.0160502551
 20
271.0705781311
 30
0.0
 10
11.5659249718
 20
272.5229174998
 30
0.0
 10
2.6367417143
 20
273.4374715211
 30
0.0
 10
-6.5491136946
 20
273.7905492921
 30
0.0
 10
-15.7624389976
 20
273.5730696255
 30
0.0
 10
-24.7732829584
 20
272.7906414096
 30
0.0
 10
-33.3570389341
 20
271.4634421904
 30
0.0
 10
-41.3016690639
 20
269.6255103362
 30
0.0
 10
-48.4108927928
 20
267.3234948369
 30
0.0
 10
-53.6690748989
 20
264.9915190823
 30
0.0
 10
-57.2824170108
 20
262.909833764
 30
0.0
 10
-59.5880249828
 20
261.3247166859
 30
0.0
 10
-61.5693863532
 20
259.6709415165
 30
0.0
 10
-63.2142880861
 20
257.957097152
 30
0.0
 10
-64.5117702483
 20
256.1916420107
 30
0.0
 10
-65.4508677072
 20
254.3825979385
 30
0.0
 10
-66.0210548275
 20
252.5413869387
 30
0.0
 10
-66.1492114537
 20
251.29278162
 30
0.0
 10
-66.1492323285
 20
250.6804389963
 30
0.0
  0
SPLINE
  5
2CF
100
AcDbEntity
  8
0
100
AcDbSpline
 62
7
  6
CONTINUOUS
 70
0
 71
3
 72
11
 73
7
 74
0
 42
0.0000001
 43
0.0000001
 44
0.0000000001
 40
0.0
 40
0.0
 40
0.0
 40
0.0
 40
0.25392781
 40
0.4978016267
 40
0.7433667672
 40
1.0
 40
1.0
 40
1.0
 40
1.0
 10
50.9442713022
 20
228.8492565463
 30
0.0
 10
51.2586053333
 20
229.1940187146
 30
0.0
 10
51.9510283259
 20
229.8069148882
 30
0.0
 10
53.1777155552
 20
230.4381571659
 30
0.0
 10
54.5224500944
 20
230.7583906955
 30
0.0
 10
55.4507129878
 20
230.7833517038
 30
0.0
 10
55.9216361544
 20
230.7596643595
 30
0.0
  0
SPLINE
  5
2D0
100
AcDbEntity
  8
0
100
AcDbSpline
 62
7
  6
CONTINUOUS
 70
0
 71
3
 72
9
 73
5
 74
0
 42
0.0000001
 43
0.0000001
 44
0.0000000001
 40
0.0
 40
0.0
 40
0.0
 40
0.0
 40
0.2288921309
 40
1.0
 40
1.0
 40
1.0
 40
1.0
 10
-60.3139277403
 20
236.028062276
 30
0.0
 10
-60.5201679365
 20
236.3995786893
 30
0.0
 10
-61.5175162508
 20
237.9695196234
 30
0.0
 10
-62.8453614664
 20
239.3097594952
 30
0.0
 10
-63.944858486
 20
240.2264531869
 30
0.0
  0
SPLINE
  5
2D1
100
AcDbEntity
  8
0
100
AcDbSpline
 62
7
  6
CONTINUOUS
 70
0
 71
3
 72
9
 73
5
 74
0
 42
0.0000001
 43
0.0000001
 44
0.0000000001
 40
0.0
 40
0.0
 40
0.0
 40
0.0
 40
0.2389570473
 40
1.0
 40
1.0
 40
1.0
 40
1.0
 10
-63.944858486
 20
240.2264531869
 30
0.0
 10
-64.1551735154
 20
240.4018010571
 30
0.0
 10
-65.0491405817
 20
241.1189791559
 30
0.0
 10
-65.9938941118
 20
241.7718195085
 30
0.0
 10
-66.7313602689
 20
242.237308484
 30
0.0
  0
SPLINE
  5
2D2
100
AcDbEntity
  8
0
100
AcDbSpline
 62
7
  6
CONTINUOUS
 70
0
 71
3
 72
9
 73
5
 74
0
 42
0.0000001
 43
0.0000001
 44
0.0000000001
 40
0.0
 40
0.0
 40
0.0
 40
0.0
 40
0.2406295804
 40
1.0
 40
1.0
 40
1.0
 40
1.0
 10
-66.7313602689
 20
242.237308484
 30
0.0
 10
-66.9757233967
 20
242.391550602
 30
0.0
 10
-68.0001631802
 20
243.0183700861
 30
0.0
 10
-69.0577265462
 20
243.590430744
 30
0.0
 10
-69.8734132341
 20
243.9981794222
 30
0.0
  0
SPLINE
  5
2D3
100
AcDbEntity
  8
0
100
AcDbSpline
 62
7
  6
CONTINUOUS
 70
0
 71
3
 72
10
 73
6
 74
0
 42
0.0000001
 43
0.0000001
 44
0.0000000001
 40
0.0
 40
0.0
 40
0.0
 40
0.0
 40
0.4536936658
 40
0.7142571872
 40
1.0
 40
1.0
 40
1.0
 40
1.0
 10
55.9216361544
 20
230.7596643595
 30
0.0
 10
55.2360188471
 20
229.1874570425
 30
0.0
 10
53.6394638652
 20
226.9321833392
 30
0.0
 10
50.8988719054
 20
224.3277561309
 30
0.0
 10
49.2479233723
 20
223.0770351939
 30
0.0
 10
48.3583201058
 20
222.4642048061
 30
0.0
  0
SPLINE
  5
2D4
100
AcDbEntity
  8
0
100
AcDbSpline
 62
7
  6
CONTINUOUS
 70
0
 71
3
 72
10
 73
6
 74
0
 42
0.0000001
 43
0.0000001
 44
0.0000000001
 40
0.0
 40
0.0
 40
0.0
 40
0.0
 40
0.4544779319
 40
0.7163761459
 40
1.0
 40
1.0
 40
1.0
 40
1.0
 10
50.9442713022
 20
228.8492565463
 30
0.0
 10
50.2334559344
 20
228.069632887
 30
0.0
 10
49.4079748787
 20
226.572108449
 30
0.0
 10
48.7108983487
 20
224.3596862272
 30
0.0
 10
48.4610055072
 20
223.1145505631
 30
0.0
 10
48.3583201058
 20
222.4642048061
 30
0.0
  0
SPLINE
  5
2D5
100
AcDbEntity
  8
0
100
AcDbSpline
 62
7
  6
CONTINUOUS
 70
0
 71
3
 72
9
 73
5
 74
0
 42
0.0000001
 43
0.0000001
 44
0.0000000001
 40
0.0
 40
0.0
 40
0.0
 40
0.0
 40
0.5101536178
 40
1.0
 40
1.0
 40
1.0
 40
1.0
 10
55.2569399542
 20
256.2873878463
 30
0.0
 10
55.0038427031
 20
255.7326996679
 30
0.0
 10
54.6081727365
 20
254.5949513222
 30
0.0
 10
54.4700672481
 20
253.3961995284
 30
0.0
 10
54.4700723723
 20
252.810766875
 30
0.0
  0
SPLINE
  5
2D6
100
AcDbEntity
  8
0
100
AcDbSpline
 62
7
  6
CONTINUOUS
 70
0
 71
3
 72
9
 73
5
 74
0
 42
0.0000001
 43
0.0000001
 44
0.0000000001
 40
0.0
 40
0.0
 40
0.0
 40
0.0
 40
0.4789031452
 40
1.0
 40
1.0
 40
1.0
 40
1.0
 10
-69.8268429144
 20
249.4990322664
 30
0.0
 10
-69.9196713745
 20
250.2554352062
 30
0.0
 10
-70.34881365
 20
251.8115089621
 30
0.0
 10
-71.1536737296
 20
253.2017342179
 30
0.0
 10
-71.635846921
 20
253.87635688
 30
0.0
  0
SPLINE
  5
2D7
100
AcDbEntity
  8
0
100
AcDbSpline
 62
7
  6
CONTINUOUS
 70
0
 71
3
 72
10
 73
6
 74
0
 42
0.0000001
 43
0.0000001
 44
0.0000000001
 40
0.0
 40
0.0
 40
0.0
 40
0.0
 40
0.2456919918
 40
0.4928093657
 40
1.0
 40
1.0
 40
1.0
 40
1.0
 10
38.439948384
 20
220.656008458
 30
0.0
 10
39.0873076973
 20
220.9365777719
 30
0.0
 10
40.4347881573
 20
221.3935361234
 30
0.0
 10
43.2759009457
 20
221.8715898607
 30
0.0
 10
45.4706854026
 20
221.7481296391
 30
0.0
 10
46.9082345221
 20
221.5140605229
 30
0.0
  0
SPLINE
  5
2D8
100
AcDbEntity
  8
0
100
AcDbSpline
 62
7
  6
CONTINUOUS
 70
0
 71
3
 72
10
 73
6
 74
0
 42
0.0000001
 43
0.0000001
 44
0.0000000001
 40
0.0
 40
0.0
 40
0.0
 40
0.0
 40
0.2240960573
 40
0.4660306962
 40
1.0
 40
1.0
 40
1.0
 40
1.0
 10
46.9082345221
 20
221.5140605229
 30
0.0
 10
45.8658646676
 20
220.8636764784
 30
0.0
 10
43.6367322864
 20
219.6080609642
 30
0.0
 10
38.6723535806
 20
217.2737002877
 30
0.0
 10
34.6530550294
 20
215.8425541026
 30
0.0
 10
31.8527296126
 20
214.9889166109
 30
0.0
  0
SPLINE
  5
2D9
100
AcDbEntity
  8
0
100
AcDbSpline
 62
7
  6
CONTINUOUS
 70
0
 71
3
 72
10
 73
6
 74
0
 42
0.0000001
 43
0.0000001
 44
0.0000000001
 40
0.0
 40
0.0
 40
0.0
 40
0.0
 40
0.2424714082
 40
0.4891686163
 40
1.0
 40
1.0
 40
1.0
 40
1.0
 10
38.439948384
 20
220.656008458
 30
0.0
 10
37.7882874492
 20
220.3735747962
 30
0.0
 10
36.5183950821
 20
219.6937435759
 30
0.0
 10
34.1750721966
 20
217.9216928105
 30
0.0
 10
32.7086910554
 20
216.216204184
 30
0.0
 10
31.8527296126
 20
214.9889166109
 30
0.0
  0
SPLINE
  5
2DA
100
AcDbEntity
  8
0
100
AcDbSpline
 62
7
  6
CONTINUOUS
 70
0
 71
3
 72
13
 73
9
 74
0
 42
0.0000001
 43
0.0000001
 44
0.0000000001
 40
0.0
 40
0.0
 40
0.0
 40
0.0
 40
0.1004251092
 40
0.203832481
 40
0.3128994823
 40
0.4297964767
 40
0.6926151041
 40
1.0
 40
1.0
 40
1.0
 40
1.0
 10
50.8506444807
 20
250.6804390536
 30
0.0
 10
50.8506641033
 20
251.2560518092
 30
0.0
 10
50.7377652708
 20
252.4272425237
 30
0.0
 10
50.2349190658
 20
254.1582603877
 30
0.0
 10
49.4050324482
 20
255.8631201463
 30
0.0
 10
47.8111598681
 20
258.1777849509
 30
0.0
 10
44.9567745957
 20
260.9430734921
 30
0.0
 10
42.2234752384
 20
262.7589537743
 30
0.0
 10
40.6978151776
 20
263.6401466913
 30
0.0
  0
SPLINE
  5
2DB
100
AcDbEntity
  8
0
100
AcDbSpline
 62
7
  6
CONTINUOUS
 70
0
 71
3
 72
10
 73
6
 74
0
 42
0.0000001
 43
0.0000001
 44
0.0000000001
 40
0.0
 40
0.0
 40
0.0
 40
0.0
 40
0.247655715
 40
0.4967345018
 40
1.0
 40
1.0
 40
1.0
 40
1.0
 10
18.9189561246
 20
214.9692975799
 30
0.0
 10
19.7931935197
 20
215.1316419035
 30
0.0
 10
21.5702515926
 20
215.3427637274
 30
0.0
 10
25.167484737
 20
215.3156178346
 30
0.0
 10
27.8493270371
 20
214.8180271409
 30
0.0
 10
29.588943749
 20
214.3294472804
 30
0.0
  0
SPLINE
  5
2DC
100
AcDbEntity
  8
0
100
AcDbSpline
 62
7
  6
CONTINUOUS
 70
0
 71
3
 72
9
 73
5
 74
0
 42
0.0000001
 43
0.0000001
 44
0.0000000001
 40
0.0
 40
0.0
 40
0.0
 40
0.0
 40
0.4843411281
 40
1.0
 40
1.0
 40
1.0
 40
1.0
 10
28.6652083691
 20
214.0771684946
 30
0.0
 10
25.5990366458
 20
213.2552643533
 30
0.0
 10
19.1890758056
 20
211.8479683857
 30
0.0
 10
12.6936712146
 20
210.9288823853
 30
0.0
 10
9.3333141228
 20
210.5680130199
 30
0.0
  0
SPLINE
  5
2DD
100
AcDbEntity
  8
0
100
AcDbSpline
 62
7
  6
CONTINUOUS
 70
0
 71
3
 72
10
 73
6
 74
0
 42
0.0000001
 43
0.0000001
 44
0.0000000001
 40
0.0
 40
0.0
 40
0.0
 40
0.0
 40
0.2500466435
 40
0.4999092769
 40
1.0
 40
1.0
 40
1.0
 40
1.0
 10
18.9189561246
 20
214.9692975799
 30
0.0
 10
18.0475949727
 20
214.8074873696
 30
0.0
 10
16.32435495
 20
214.3696005147
 30
0.0
 10
13.021302962
 20
213.0650395369
 30
0.0
 10
10.7405955824
 20
211.6456668985
 30
0.0
 10
9.3333141228
 20
210.5680130199
 30
0.0
  0
SPLINE
  5
2DE
100
AcDbEntity
  8
0
100
AcDbSpline
 62
7
  6
CONTINUOUS
 70
0
 71
3
 72
9
 73
5
 74
0
 42
0.0000001
 43
0.0000001
 44
0.0000000001
 40
0.0
 40
0.0
 40
0.0
 40
0.0
 40
0.5279524462
 40
1.0
 40
1.0
 40
1.0
 40
1.0
 10
55.9216361544
 20
246.3883527879
 30
0.0
 10
55.0049944415
 20
245.8260733724
 30
0.0
 10
53.3193712982
 20
244.6744592812
 30
0.0
 10
51.7932058237
 20
243.3125912337
 30
0.0
 10
51.1333645225
 20
242.6132590281
 30
0.0
  0
SPLINE
  5
2DF
100
AcDbEntity
  8
0
100
AcDbSpline
 62
7
  6
CONTINUOUS
 70
0
 71
3
 72
10
 73
6
 74
0
 42
0.0000001
 43
0.0000001
 44
0.0000000001
 40
0.0
 40
0.0
 40
0.0
 40
0.0
 40
0.2500213863
 40
0.5001679416
 40
1.0
 40
1.0
 40
1.0
 40
1.0
 10
-4.646811363
 20
212.6548740931
 30
0.0
 10
-3.682861153
 20
212.6731896638
 30
0.0
 10
-1.7501406992
 20
212.5941848918
 30
0.0
 10
2.0647125801
 20
211.9897815398
 30
0.0
 10
4.8328392617
 20
211.0680533063
 30
0.0
 10
6.6004688558
 20
210.2996168697
 30
0.0
  0
SPLINE
  5
2E0
100
AcDbEntity
  8
0
100
AcDbSpline
 62
7
  6
CONTINUOUS
 70
0
 71
3
 72
9
 73
5
 74
0
 42
0.0000001
 43
0.0000001
 44
0.0000000001
 40
0.0
 40
0.0
 40
0.0
 40
0.0
 40
0.5264376627
 40
1.0
 40
1.0
 40
1.0
 40
1.0
 10
50.9442713022
 20
242.4094082344
 30
0.0
 10
50.3456615274
 20
241.752851885
 30
0.0
 10
49.3070087206
 20
240.4078326915
 30
0.0
 10
48.589881477
 20
238.8578562393
 30
0.0
 10
48.3583201058
 20
238.0928932344
 30
0.0
  0
SPLINE
  5
2E1
100
AcDbEntity
  8
0
100
AcDbSpline
 62
7
  6
CONTINUOUS
 70
0
 71
3
 72
9
 73
5
 74
0
 42
0.0000001
 43
0.0000001
 44
0.0000000001
 40
0.0
 40
0.0
 40
0.0
 40
0.0
 40
0.5187216361
 40
1.0
 40
1.0
 40
1.0
 40
1.0
 10
46.9082345221
 20
237.1427489512
 30
0.0
 10
45.4130607036
 20
236.7335290272
 30
0.0
 10
42.5529944291
 20
235.8594512847
 30
0.0
 10
39.759603017
 20
234.7881061849
 30
0.0
 10
38.439948384
 20
234.2161601462
 30
0.0
  0
SPLINE
  5
2E2
100
AcDbEntity
  8
0
100
AcDbSpline
 62
7
  6
CONTINUOUS
 70
0
 71
3
 72
9
 73
5
 74
0
 42
0.0000001
 43
0.0000001
 44
0.0000000001
 40
0.0
 40
0.0
 40
0.0
 40
0.0
 40
0.5254815859
 40
1.0
 40
1.0
 40
1.0
 40
1.0
 10
38.439948384
 20
234.2161601462
 30
0.0
 10
37.2320882986
 20
233.6926665184
 30
0.0
 10
34.9710110852
 20
232.6060709099
 30
0.0
 10
32.8259600982
 20
231.3002132052
 30
0.0
 10
31.8527296126
 20
230.6176050392
 30
0.0
  0
SPLINE
  5
2E3
100
AcDbEntity
  8
0
100
AcDbSpline
 62
7
  6
CONTINUOUS
 70
0
 71
3
 72
9
 73
5
 74
0
 42
0.0000001
 43
0.0000001
 44
0.0000000001
 40
0.0
 40
0.0
 40
0.0
 40
0.0
 40
0.5002458387
 40
1.0
 40
1.0
 40
1.0
 40
1.0
 10
-4.646811363
 20
212.6548740931
 30
0.0
 10
-6.5698969634
 20
212.6183344359
 30
0.0
 10
-10.4179392983
 20
212.0781705364
 30
0.0
 10
-14.0412053284
 20
210.7101402414
 30
0.0
 10
-15.7715494944
 20
209.8745365294
 30
0.0
  0
SPLINE
  5
2E4
100
AcDbEntity
  8
0
100
AcDbSpline
 62
7
  6
CONTINUOUS
 70
0
 71
3
 72
10
 73
6
 74
0
 42
0.0000001
 43
0.0000001
 44
0.0000000001
 40
0.0
 40
0.0
 40
0.0
 40
0.0
 40
0.2505371383
 40
0.5006646278
 40
1.0
 40
1.0
 40
1.0
 40
1.0
 10
-28.6696796029
 20
214.0650879932
 30
0.0
 10
-27.7627649386
 20
213.9370684899
 30
0.0
 10
-25.9642900594
 20
213.5665188932
 30
0.0
 10
-22.4951996682
 20
212.39217458
 30
0.0
 10
-20.0682256792
 20
211.0626226477
 30
0.0
 10
-18.5574032462
 20
210.0380744402
 30
0.0
  0
SPLINE
  5
2E5
100
AcDbEntity
  8
0
100
AcDbSpline
 62
7
  6
CONTINUOUS
 70
0
 71
3
 72
9
 73
5
 74
0
 42
0.0000001
 43
0.0000001
 44
0.0000000001
 40
0.0
 40
0.0
 40
0.0
 40
0.0
 40
0.5129844808
 40
1.0
 40
1.0
 40
1.0
 40
1.0
 10
-18.5574032462
 20
210.0380744402
 30
0.0
 10
-22.192502376
 20
210.2835035841
 30
0.0
 10
-29.2646875607
 20
211.0054977644
 30
0.0
 10
-36.2651195423
 20
212.2555967049
 30
0.0
 10
-39.6398733294
 20
213.0140626486
 30
0.0
  0
SPLINE
  5
2E6
100
AcDbEntity
  8
0
100
AcDbSpline
 62
7
  6
CONTINUOUS
 70
0
 71
3
 72
10
 73
6
 74
0
 42
0.0000001
 43
0.0000001
 44
0.0000000001
 40
0.0
 40
0.0
 40
0.0
 40
0.0
 40
0.2482967086
 40
0.4977244206
 40
1.0
 40
1.0
 40
1.0
 40
1.0
 10
-28.6696796029
 20
214.0650879932
 30
0.0
 10
-29.5793716895
 20
214.1934995556
 30
0.0
 10
-31.421374876
 20
214.3356581135
 30
0.0
 10
-35.1243961791
 20
214.1705662494
 30
0.0
 10
-37.866792991
 20
213.5708444614
 30
0.0
 10
-39.6398733294
 20
213.0140626486
 30
0.0
  0
SPLINE
  5
2E7
100
AcDbEntity
  8
0
100
AcDbSpline
 62
7
  6
CONTINUOUS
 70
0
 71
3
 72
10
 73
6
 74
0
 42
0.0000001
 43
0.0000001
 44
0.0000000001
 40
0.0
 40
0.0
 40
0.0
 40
0.0
 40
0.245512003
 40
0.4933853845
 40
1.0
 40
1.0
 40
1.0
 40
1.0
 10
-49.4923846734
 20
218.9852469974
 30
0.0
 10
-48.7766671179
 20
218.7295740281
 30
0.0
 10
-47.3754402679
 20
218.1041343491
 30
0.0
 10
-44.7576568984
 20
216.4363681106
 30
0.0
 10
-43.0619515339
 20
214.7866374072
 30
0.0
 10
-42.0546145861
 20
213.5846374561
 30
0.0
  0
SPLINE
  5
2E8
100
AcDbEntity
  8
0
100
AcDbSpline
 62
7
  6
CONTINUOUS
 70
0
 71
3
 72
9
 73
5
 74
0
 42
0.0000001
 43
0.0000001
 44
0.0000000001
 40
0.0
 40
0.0
 40
0.0
 40
0.0
 40
0.5296721
 40
1.0
 40
1.0
 40
1.0
 40
1.0
 10
-42.0546145861
 20
213.5846374561
 30
0.0
 10
-45.0769080122
 20
214.3345774347
 30
0.0
 10
-50.7267474792
 20
215.9930835584
 30
0.0
 10
-56.1726079838
 20
218.2565094922
 30
0.0
 10
-58.6379214453
 20
219.5086269858
 30
0.0
  0
SPLINE
  5
2E9
100
AcDbEntity
  8
0
100
AcDbSpline
 62
7
  6
CONTINUOUS
 70
0
 71
3
 72
10
 73
6
 74
0
 42
0.0000001
 43
0.0000001
 44
0.0000000001
 40
0.0
 40
0.0
 40
0.0
 40
0.0
 40
0.2459116195
 40
0.4936087624
 40
1.0
 40
1.0
 40
1.0
 40
1.0
 10
-49.4923846734
 20
218.9852469974
 30
0.0
 10
-50.2069044283
 20
219.2404920811
 30
0.0
 10
-51.68306792
 20
219.6432928563
 30
0.0
 10
-54.7554220519
 20
220.0080803699
 30
0.0
 10
-57.1029935031
 20
219.8004962706
 30
0.0
 10
-58.6379214453
 20
219.5086269858
 30
0.0
  0
SPLINE
  5
2EA
100
AcDbEntity
  8
0
100
AcDbSpline
 62
7
  6
CONTINUOUS
 70
0
 71
3
 72
11
 73
7
 74
0
 42
0.0000001
 43
0.0000001
 44
0.0000000001
 40
0.0
 40
0.0
 40
0.0
 40
0.0
 40
0.2251885792
 40
0.465946179
 40
0.7242679444
 40
1.0
 40
1.0
 40
1.0
 40
1.0
 10
-63.944858486
 20
226.6663008674
 30
0.0
 10
-63.5215312009
 20
226.3133563439
 30
0.0
 10
-62.7224672687
 20
225.4876026642
 30
0.0
 10
-61.7338074919
 20
224.0074981656
 30
0.0
 10
-60.918885967
 20
222.2891606134
 30
0.0
 10
-60.5002806139
 20
221.0480005739
 30
0.0
 10
-60.3139277403
 20
220.3993738477
 30
0.0
  0
SPLINE
  5
2EB
100
AcDbEntity
  8
0
100
AcDbSpline
 62
7
  6
CONTINUOUS
 70
0
 71
3
 72
9
 73
5
 74
0
 42
0.0000001
 43
0.0000001
 44
0.0000000001
 40
0.0
 40
0.0
 40
0.0
 40
0.0
 40
0.2680493672
 40
1.0
 40
1.0
 40
1.0
 40
1.0
 10
-65.979637928
 20
224.2199098487
 30
0.0
 10
-66.3707793544
 20
224.5460197624
 30
0.0
 10
-67.7960078716
 20
225.8013420264
 30
0.0
 10
-69.080852189
 20
227.2268598627
 30
0.0
 10
-69.8734132341
 20
228.3694909939
 30
0.0
  0
SPLINE
  5
2EC
100
AcDbEntity
  8
0
100
AcDbSpline
 62
7
  6
CONTINUOUS
 70
0
 71
3
 72
9
 73
5
 74
0
 42
0.0000001
 43
0.0000001
 44
0.0000000001
 40
0.0
 40
0.0
 40
0.0
 40
0.0
 40
0.5216869087
 40
1.0
 40
1.0
 40
1.0
 40
1.0
 10
-60.3139277403
 20
220.3993738477
 30
0.0
 10
-61.3534193644
 20
220.9778292762
 30
0.0
 10
-63.3055785505
 20
222.1618216808
 30
0.0
 10
-65.1419085183
 20
223.5214620572
 30
0.0
 10
-65.979637928
 20
224.2199098487
 30
0.0
  0
SPLINE
  5
2ED
100
AcDbEntity
  8
0
100
AcDbSpline
 62
7
  6
CONTINUOUS
 70
0
 71
3
 72
11
 73
7
 74
0
 42
0.0000001
 43
0.0000001
 44
0.0000000001
 40
0.0
 40
0.0
 40
0.0
 40
0.0
 40
0.248962561
 40
0.4935568283
 40
0.7418674175
 40
1.0
 40
1.0
 40
1.0
 40
1.0
 10
-63.944858486
 20
226.6663008674
 30
0.0
 10
-64.3479927691
 20
227.002409695
 30
0.0
 10
-65.2190241622
 20
227.5888620641
 30
0.0
 10
-66.6869013194
 20
228.1620644173
 30
0.0
 10
-68.2582156337
 20
228.4242379962
 30
0.0
 10
-69.3309242642
 20
228.4126163769
 30
0.0
 10
-69.8734132341
 20
228.3694909939
 30
0.0
  0
SPLINE
  5
2EE
100
AcDbEntity
  8
0
100
AcDbSpline
 62
7
  6
CONTINUOUS
 70
0
 71
3
 72
9
 73
5
 74
0
 42
0.0000001
 43
0.0000001
 44
0.0000000001
 40
0.0
 40
0.0
 40
0.0
 40
0.0
 40
0.5154723445
 40
1.0
 40
1.0
 40
1.0
 40
1.0
 10
-70.5555278019
 20
229.4448017752
 30
0.0
 10
-71.0596255415
 20
230.3204300123
 30
0.0
 10
-71.861245548
 20
232.1332527169
 30
0.0
 10
-72.1493471424
 20
234.1020386543
 30
0.0
 10
-72.1493073678
 20
235.0517505967
 30
0.0
  0
SPLINE
  5
2EF
100
AcDbEntity
  8
0
100
AcDbSpline
 62
7
  6
CONTINUOUS
 70
0
 71
3
 72
9
 73
5
 74
0
 42
0.0000001
 43
0.0000001
 44
0.0000000001
 40
0.0
 40
0.0
 40
0.0
 40
0.0
 40
0.4944427367
 40
1.0
 40
1.0
 40
1.0
 40
1.0
 10
-70.5293958752
 20
237.7512131056
 30
0.0
 10
-70.670324282
 20
237.8979971384
 30
0.0
 10
-71.0167763473
 20
238.1431408194
 30
0.0
 10
-71.4283771203
 20
238.2320124165
 30
0.0
 10
-71.635846921
 20
238.2476684517
 30
0.0
  0
SPLINE
  5
2F0
100
AcDbEntity
  8
0
100
AcDbSpline
 62
7
  6
CONTINUOUS
 70
0
 71
3
 72
9
 73
5
 74
0
 42
0.0000001
 43
0.0000001
 44
0.0000000001
 40
0.0
 40
0.0
 40
0.0
 40
0.0
 40
0.2556903406
 40
1.0
 40
1.0
 40
1.0
 40
1.0
 10
29.5889437491
 20
229.9581357087
 30
0.0
 10
28.6745930426
 20
229.879549556
 30
0.0
 10
25.1023269002
 20
229.5310468559
 30
0.0
 10
21.5455229256
 20
229.017198034
 30
0.0
 10
18.9189561246
 20
228.5294492681
 30
0.0
  0
SPLINE
  5
2F1
100
AcDbEntity
  8
0
100
AcDbSpline
 62
7
  6
CONTINUOUS
 70
0
 71
3
 72
9
 73
5
 74
0
 42
0.0000001
 43
0.0000001
 44
0.0000000001
 40
0.0
 40
0.0
 40
0.0
 40
0.0
 40
0.2602016354
 40
1.0
 40
1.0
 40
1.0
 40
1.0
 10
18.9189561246
 20
228.5294492681
 30
0.0
 10
18.0774146478
 20
228.3731765182
 30
0.0
 10
14.8513777294
 20
227.7305147649
 30
0.0
 10
11.657923896
 20
226.9166787202
 30
0.0
 10
9.3333141228
 20
226.1967014483
 30
0.0
  0
SPLINE
  5
2F2
100
AcDbEntity
  8
0
100
AcDbSpline
 62
7
  6
CONTINUOUS
 70
0
 71
3
 72
13
 73
9
 74
0
 42
0.0000001
 43
0.0000001
 44
0.0000000001
 40
0.0
 40
0.0
 40
0.0
 40
0.0
 40
0.1140416013
 40
0.2319608432
 40
0.4790600625
 40
0.6081967817
 40
0.739185405
 40
1.0
 40
1.0
 40
1.0
 40
1.0
 10
-112.4201178527
 20
237.4436551893
 30
0.0
 10
-112.8581992913
 20
237.3262250578
 30
0.0
 10
-113.7246285943
 20
236.9842582996
 30
0.0
 10
-115.3201429841
 20
235.9233650959
 30
0.0
 10
-116.5985577974
 20
234.3610386108
 30
0.0
 10
-117.4419445521
 20
232.5211521352
 30
0.0
 10
-117.9865589302
 20
230.5149394726
 30
0.0
 10
-118.0196937265
 20
228.9198068305
 30
0.0
 10
-117.8659351737
 20
227.8939977334
 30
0.0
  0
SPLINE
  5
2F3
100
AcDbEntity
  8
0
100
AcDbSpline
 62
7
  6
CONTINUOUS
 70
0
 71
3
 72
12
 73
8
 74
0
 42
0.0000001
 43
0.0000001
 44
0.0000000001
 40
0.0
 40
0.0
 40
0.0
 40
0.0
 40
0.2683210064
 40
0.5236426268
 40
0.7656229885
 40
0.8834005884
 40
1.0
 40
1.0
 40
1.0
 40
1.0
 10
-103.5854590331
 20
132.6209734082
 30
0.0
 10
-103.4685352574
 20
131.8409096611
 30
0.0
 10
-103.0395638002
 20
130.3387689444
 30
0.0
 10
-101.818213318
 20
128.4098171042
 30
0.0
 10
-100.38607027
 20
127.2432208516
 30
0.0
 10
-99.0980994832
 20
126.6774299763
 30
0.0
 10
-98.4229382443
 20
126.5181176902
 30
0.0
 10
-98.0834864798
 20
126.4705748083
 30
0.0
  0
SPLINE
  5
2F4
100
AcDbEntity
  8
0
100
AcDbSpline
 62
7
  6
CONTINUOUS
 70
0
 71
3
 72
9
 73
5
 74
0
 42
0.0000001
 43
0.0000001
 44
0.0000000001
 40
0.0
 40
0.0
 40
0.0
 40
0.0
 40
0.2577640216
 40
1.0
 40
1.0
 40
1.0
 40
1.0
 10
-91.6624317419
 20
138.9741744897
 30
0.0
 10
-91.6780818202
 20
139.078584894
 30
0.0
 10
-91.7611774536
 20
139.4797262186
 30
0.0
 10
-91.9371092153
 20
139.8635702787
 30
0.0
 10
-92.1167265126
 20
140.1088452663
 30
0.0
  0
SPLINE
  5
2F5
100
AcDbEntity
  8
0
100
AcDbSpline
 62
7
  6
CONTINUOUS
 70
0
 71
3
 72
9
 73
5
 74
0
 42
0.0000001
 43
0.0000001
 44
0.0000000001
 40
0.0
 40
0.0
 40
0.0
 40
0.0
 40
0.4891014926
 40
1.0
 40
1.0
 40
1.0
 40
1.0
 10
-105.7459345713
 20
223.8585845236
 30
0.0
 10
-105.376977438
 20
224.1488654874
 30
0.0
 10
-104.8048218759
 20
224.9864109945
 30
0.0
 10
-104.7044634946
 20
225.9848452959
 30
0.0
 10
-104.7771547282
 20
226.4698090741
 30
0.0
  0
SPLINE
  5
2F6
100
AcDbEntity
  8
0
100
AcDbSpline
 62
7
  6
CONTINUOUS
 70
0
 71
3
 72
9
 73
5
 74
0
 42
0.0000001
 43
0.0000001
 44
0.0000000001
 40
0.0
 40
0.0
 40
0.0
 40
0.0
 40
0.4891014926
 40
1.0
 40
1.0
 40
1.0
 40
1.0
 10
-92.631211585
 20
136.3629499393
 30
0.0
 10
-92.2622544518
 20
136.653230903
 30
0.0
 10
-91.6900988896
 20
137.4907764101
 30
0.0
 10
-91.5897405083
 20
138.4892107115
 30
0.0
 10
-91.6624317419
 20
138.9741744897
 30
0.0
  0
SPLINE
  5
2F7
100
AcDbEntity
  8
0
100
AcDbSpline
 62
7
  6
CONTINUOUS
 70
0
 71
3
 72
9
 73
5
 74
0
 42
0.0000001
 43
0.0000001
 44
0.0000000001
 40
0.0
 40
0.0
 40
0.0
 40
0.0
 40
0.2526649206
 40
1.0
 40
1.0
 40
1.0
 40
1.0
 10
-114.9740152963
 20
232.827315535
 30
0.0
 10
-114.9142801466
 20
232.9609122442
 30
0.0
 10
-114.6651287793
 20
233.4838532293
 30
0.0
 10
-114.3651225
 20
233.9827612367
 30
0.0
 10
-114.1140324821
 20
234.3353488559
 30
0.0
  0
SPLINE
  5
2F8
100
AcDbEntity
  8
0
100
AcDbSpline
 62
7
  6
CONTINUOUS
 70
0
 71
3
 72
9
 73
5
 74
0
 42
0.0000001
 43
0.0000001
 44
0.0000000001
 40
0.0
 40
0.0
 40
0.0
 40
0.0
 40
0.2525239834
 40
1.0
 40
1.0
 40
1.0
 40
1.0
 10
-113.7882355644
 20
234.7627859797
 30
0.0
 10
-113.7272755739
 20
234.8375552288
 30
0.0
 10
-113.480632806
 20
235.1293213781
 30
0.0
 10
-113.2130026969
 20
235.4034295709
 30
0.0
 10
-113.0021706847
 20
235.596020652
 30
0.0
  0
SPLINE
  5
2F9
100
AcDbEntity
  8
0
100
AcDbSpline
 62
7
  6
CONTINUOUS
 70
0
 71
3
 72
9
 73
5
 74
0
 42
0.0000001
 43
0.0000001
 44
0.0000000001
 40
0.0
 40
0.0
 40
0.0
 40
0.0
 40
0.2537939419
 40
1.0
 40
1.0
 40
1.0
 40
1.0
 10
-111.6914154437
 20
236.5470220996
 30
0.0
 10
-111.5758733928
 20
236.6117165821
 30
0.0
 10
-111.1131301527
 20
236.8529425266
 30
0.0
 10
-110.6208612763
 20
237.0381858927
 30
0.0
 10
-110.2447928521
 20
237.1389930956
 30
0.0
  0
SPLINE
  5
2FA
100
AcDbEntity
  8
0
100
AcDbSpline
 62
7
  6
CONTINUOUS
 70
0
 71
3
 72
9
 73
5
 74
0
 42
0.0000001
 43
0.0000001
 44
0.0000000001
 40
0.0
 40
0.0
 40
0.0
 40
0.0
 40
0.2577640216
 40
1.0
 40
1.0
 40
1.0
 40
1.0
 10
-104.7771547282
 20
226.4698090741
 30
0.0
 10
-104.7928048065
 20
226.5742194783
 30
0.0
 10
-104.8759004398
 20
226.975360803
 30
0.0
 10
-105.0518322016
 20
227.3592048631
 30
0.0
 10
-105.2314494989
 20
227.6044798507
 30
0.0
  0
SPLINE
  5
2FB
100
AcDbEntity
  8
0
100
AcDbSpline
 62
7
  6
CONTINUOUS
 70
0
 71
3
 72
9
 73
5
 74
0
 42
0.0000001
 43
0.0000001
 44
0.0000000001
 40
0.0
 40
0.0
 40
0.0
 40
0.0
 40
0.2470859269
 40
1.0
 40
1.0
 40
1.0
 40
1.0
 10
-98.011195549
 20
126.9040527552
 30
0.0
 10
-98.1215267958
 20
126.9689127102
 30
0.0
 10
-98.5595325413
 20
127.2457309833
 30
0.0
 10
-98.96191316
 20
127.5782802398
 30
0.0
 10
-99.2393505795
 20
127.8523594594
 30
0.0
  0
SPLINE
  5
2FC
100
AcDbEntity
  8
0
100
AcDbSpline
 62
7
  6
CONTINUOUS
 70
0
 71
3
 72
9
 73
5
 74
0
 42
0.0000001
 43
0.0000001
 44
0.0000000001
 40
0.0
 40
0.0
 40
0.0
 40
0.0
 40
0.2475297445
 40
1.0
 40
1.0
 40
1.0
 40
1.0
 10
-99.583392679
 20
128.2187476171
 30
0.0
 10
-99.6437692669
 20
128.2880104407
 30
0.0
 10
-99.8820748676
 20
128.5726793427
 30
0.0
 10
-100.097797291
 20
128.8761669138
 30
0.0
 10
-100.2465770217
 20
129.1125653038
 30
0.0
  0
SPLINE
  5
2FD
100
AcDbEntity
  8
0
100
AcDbSpline
 62
7
  6
CONTINUOUS
 70
0
 71
3
 72
9
 73
5
 74
0
 42
0.0000001
 43
0.0000001
 44
0.0000000001
 40
0.0
 40
0.0
 40
0.0
 40
0.0
 40
0.2475953941
 40
1.0
 40
1.0
 40
1.0
 40
1.0
 10
-100.9829950561
 20
130.6247260577
 30
0.0
 10
-101.0322258628
 20
130.7601840394
 30
0.0
 10
-101.216820965
 20
131.3123713482
 30
0.0
 10
-101.3452105604
 20
131.8831706069
 30
0.0
 10
-101.4101340326
 20
132.3163113145
 30
0.0
  0
SPLINE
  5
2FE
100
AcDbEntity
  8
0
100
AcDbSpline
 62
7
  6
CONTINUOUS
 70
0
 71
3
 72
14
 73
10
 74
0
 42
0.0000001
 43
0.0000001
 44
0.0000000001
 40
0.0
 40
0.0
 40
0.0
 40
0.0
 40
0.2790746219
 40
0.4121550958
 40
0.53958491
 40
0.6612140271
 40
0.7775688777
 40
0.8898765952
 40
1.0
 40
1.0
 40
1.0
 40
1.0
 10
-132.7530009625
 20
222.9576825889
 30
0.0
 10
-134.3461693619
 20
218.6386242344
 30
0.0
 10
-135.9043328544
 20
211.9041696249
 30
0.0
 10
-135.978694889
 20
202.9777029876
 30
0.0
 10
-135.0424105599
 20
196.7139187414
 30
0.0
 10
-133.1325730292
 20
190.9626223307
 30
0.0
 10
-130.2927477212
 20
185.8862929394
 30
0.0
 10
-126.5979664832
 20
181.6397251368
 30
0.0
 10
-123.6163723179
 20
179.4408577623
 30
0.0
 10
-122.0433958487
 20
178.5322119496
 30
0.0
  0
SPLINE
  5
2FF
100
AcDbEntity
  8
0
100
AcDbSpline
 62
7
  6
CONTINUOUS
 70
0
 71
3
 72
13
 73
9
 74
0
 42
0.0000001
 43
0.0000001
 44
0.0000000001
 40
0.0
 40
0.0
 40
0.0
 40
0.0
 40
0.2741563923
 40
0.5332609608
 40
0.6562680415
 40
0.7747155708
 40
0.8890283853
 40
1.0
 40
1.0
 40
1.0
 40
1.0
 10
-115.2936617225
 20
210.5314357496
 30
0.0
 10
-116.5156724802
 20
206.8729089687
 30
0.0
 10
-118.1603179614
 20
199.483477465
 30
0.0
 10
-118.0510665953
 20
190.1487181951
 30
0.0
 10
-116.5565991292
 20
183.2455661216
 30
0.0
 10
-114.8029184135
 20
178.5369759068
 30
0.0
 10
-112.4281672557
 20
174.3017583693
 30
0.0
 10
-110.4320971424
 20
171.8162418749
 30
0.0
 10
-109.3512252127
 20
170.6895704945
 30
0.0
  0
SPLINE
  5
300
100
AcDbEntity
  8
0
100
AcDbSpline
 62
7
  6
CONTINUOUS
 70
0
 71
3
 72
15
 73
11
 74
0
 42
0.0000001
 43
0.0000001
 44
0.0000000001
 40
0.0
 40
0.0
 40
0.0
 40
0.0
 40
0.2782530297
 40
0.4137299023
 40
0.5435954086
 40
0.6666034629
 40
0.7826202858
 40
0.8928390611
 40
0.9466360361
 40
1.0
 40
1.0
 40
1.0
 40
1.0
 10
-3.4918010032
 20
164.2701497915
 30
0.0
 10
-5.5402108837
 20
159.7743410193
 30
0.0
 10
-9.6995074955
 20
153.5124744845
 30
0.0
 10
-16.8800162276
 20
147.0123107845
 30
0.0
 10
-22.7643233977
 20
143.3374891137
 30
0.0
 10
-28.9348173505
 20
141.0041053244
 30
0.0
 10
-35.1295643513
 20
140.1267420357
 30
0.0
 10
-40.1344953241
 20
140.6763012308
 30
0.0
 10
-43.8138916878
 20
141.8751793466
 30
0.0
 10
-45.5308283962
 20
142.7124320558
 30
0.0
 10
-46.351320205
 20
143.1862878312
 30
0.0
  0
SPLINE
  5
301
100
AcDbEntity
  8
0
100
AcDbSpline
 62
7
  6
CONTINUOUS
 70
0
 71
3
 72
19
 73
15
 74
0
 42
0.0000001
 43
0.0000001
 44
0.0000000001
 40
0.0
 40
0.0
 40
0.0
 40
0.0
 40
0.0544173951
 40
0.1109269862
 40
0.1702917177
 40
0.2328215949
 40
0.3659598011
 40
0.5056771063
 40
0.6440083381
 40
0.7735423466
 40
0.8339406934
 40
0.8913266525
 40
0.9463163729
 40
1.0
 40
1.0
 40
1.0
 40
1.0
 10
-41.2912621836
 20
172.2658279344
 30
0.0
 10
-41.7453254743
 20
172.4357320518
 30
0.0
 10
-42.7178103132
 20
172.6669364077
 30
0.0
 10
-44.2468392248
 20
172.6669313081
 30
0.0
 10
-45.8115005557
 20
172.3301708335
 30
0.0
 10
-47.9124623728
 20
171.4358063261
 30
0.0
 10
-50.3111762966
 20
169.562184067
 30
0.0
 10
-52.4542528049
 20
166.533434407
 30
0.0
 10
-53.6718777634
 20
163.061456734
 30
0.0
 10
-53.7717880168
 20
160.077359735
 30
0.0
 10
-53.2316541632
 20
157.9279659626
 30
0.0
 10
-52.5552213182
 20
156.5316406367
 30
0.0
 10
-51.6198994397
 20
155.3685389514
 30
0.0
 10
-50.8391094694
 20
154.7763807558
 30
0.0
 10
-50.4249380759
 20
154.5372007877
 30
0.0
  0
SPLINE
  5
302
100
AcDbEntity
  8
0
100
AcDbSpline
 62
7
  6
CONTINUOUS
 70
0
 71
3
 72
19
 73
15
 74
0
 42
0.0000001
 43
0.0000001
 44
0.0000000001
 40
0.0
 40
0.0
 40
0.0
 40
0.0
 40
0.0544173951
 40
0.1109269862
 40
0.1702917177
 40
0.2328215949
 40
0.3659598011
 40
0.5056771063
 40
0.6440083381
 40
0.7735423466
 40
0.8339406934
 40
0.8913266525
 40
0.9463163729
 40
1.0
 40
1.0
 40
1.0
 40
1.0
 10
-34.9114980302
 20
195.817714772
 30
0.0
 10
-35.3655613209
 20
195.9876188894
 30
0.0
 10
-36.3380461598
 20
196.2188232453
 30
0.0
 10
-37.8670750714
 20
196.2188181457
 30
0.0
 10
-39.4317364023
 20
195.8820576711
 30
0.0
 10
-41.5326982193
 20
194.9876931637
 30
0.0
 10
-43.9314121431
 20
193.1140709046
 30
0.0
 10
-46.0744886515
 20
190.0853212446
 30
0.0
 10
-47.29211361
 20
186.6133435716
 30
0.0
 10
-47.3920238634
 20
183.6292465726
 30
0.0
 10
-46.8518900098
 20
181.4798528002
 30
0.0
 10
-46.1754571647
 20
180.0835274743
 30
0.0
 10
-45.2401352862
 20
178.920425789
 30
0.0
 10
-44.459345316
 20
178.3282675934
 30
0.0
 10
-44.0451739225
 20
178.0890876253
 30
0.0
  0
SPLINE
  5
303
100
AcDbEntity
  8
0
100
AcDbSpline
 62
7
  6
CONTINUOUS
 70
0
 71
3
 72
19
 73
15
 74
0
 42
0.0000001
 43
0.0000001
 44
0.0000000001
 40
0.0
 40
0.0
 40
0.0
 40
0.0
 40
0.0544173951
 40
0.1109269862
 40
0.1702917177
 40
0.2328215949
 40
0.3659598011
 40
0.5056771063
 40
0.6440083381
 40
0.7735423466
 40
0.8339406934
 40
0.8913266525
 40
0.9463163729
 40
1.0
 40
1.0
 40
1.0
 40
1.0
 10
-14.2661475493
 20
201.3518141603
 30
0.0
 10
-14.7202108399
 20
201.5217182777
 30
0.0
 10
-15.6926956789
 20
201.7529226336
 30
0.0
 10
-17.2217245905
 20
201.7529175339
 30
0.0
 10
-18.7863859214
 20
201.4161570594
 30
0.0
 10
-20.8873477384
 20
200.5217925519
 30
0.0
 10
-23.2860616622
 20
198.6481702929
 30
0.0
 10
-25.4291381706
 20
195.6194206328
 30
0.0
 10
-26.646763129
 20
192.1474429599
 30
0.0
 10
-26.7466733824
 20
189.1633459609
 30
0.0
 10
-26.2065395288
 20
187.0139521885
 30
0.0
 10
-25.5301066838
 20
185.6176268626
 30
0.0
 10
-24.5947848053
 20
184.4545251772
 30
0.0
 10
-23.813994835
 20
183.8623669817
 30
0.0
 10
-23.3998234415
 20
183.6231870136
 30
0.0
  0
SPLINE
  5
304
100
AcDbEntity
  8
0
100
AcDbSpline
 62
7
  6
CONTINUOUS
 70
0
 71
3
 72
19
 73
15
 74
0
 42
0.0000001
 43
0.0000001
 44
0.0000000001
 40
0.0
 40
0.0
 40
0.0
 40
0.0
 40
0.0544173951
 40
0.1109269862
 40
0.1702917177
 40
0.2328215949
 40
0.3659598011
 40
0.5056771063
 40
0.6440083381
 40
0.7735423466
 40
0.8339406934
 40
0.8913266525
 40
0.9463163729
 40
1.0
 40
1.0
 40
1.0
 40
1.0
 10
-7.8863833958
 20
181.2201888418
 30
0.0
 10
-8.3404466865
 20
181.3900929591
 30
0.0
 10
-9.3129315254
 20
181.621297315
 30
0.0
 10
-10.841960437
 20
181.6212922154
 30
0.0
 10
-12.4066217679
 20
181.2845317408
 30
0.0
 10
-14.507583585
 20
180.3901672334
 30
0.0
 10
-16.9062975088
 20
178.5165449743
 30
0.0
 10
-19.0493740171
 20
175.4877953143
 30
0.0
 10
-20.2669989756
 20
172.0158176413
 30
0.0
 10
-20.366909229
 20
169.0317206423
 30
0.0
 10
-19.8267753754
 20
166.8823268699
 30
0.0
 10
-19.1503425304
 20
165.4860015441
 30
0.0
 10
-18.2150206519
 20
164.3228998587
 30
0.0
 10
-17.4342306816
 20
163.7307416631
 30
0.0
 10
-17.0200592881
 20
163.491561695
 30
0.0
  0
SPLINE
  5
305
100
AcDbEntity
  8
0
100
AcDbSpline
 62
7
  6
CONTINUOUS
 70
0
 71
3
 72
9
 73
5
 74
0
 42
0.0000001
 43
0.0000001
 44
0.0000000001
 40
0.0
 40
0.0
 40
0.0
 40
0.0
 40
0.4850812699
 40
1.0
 40
1.0
 40
1.0
 40
1.0
 10
-27.4348942412
 20
161.6802079025
 30
0.0
 10
-27.891174639
 20
161.8509416304
 30
0.0
 10
-28.8994039074
 20
162.0381266508
 30
0.0
 10
-29.9105916971
 20
161.9033895081
 30
0.0
 10
-30.4101009552
 20
161.7694933128
 30
0.0
  0
SPLINE
  5
306
100
AcDbEntity
  8
0
100
AcDbSpline
 62
7
  6
CONTINUOUS
 70
0
 71
3
 72
16
 73
12
 74
0
 42
0.0000001
 43
0.0000001
 44
0.0000000001
 40
0.0
 40
0.0
 40
0.0
 40
0.0
 40
0.1228904407
 40
0.2547994405
 40
0.3918394615
 40
0.5286356098
 40
0.6598932117
 40
0.7818905911
 40
0.8939517433
 40
0.9474090867
 40
1.0
 40
1.0
 40
1.0
 40
1.0
 10
-30.4101009552
 20
161.7694933128
 30
0.0
 10
-31.0521703281
 20
161.5973830971
 30
0.0
 10
-32.3278977795
 20
161.0146600745
 30
0.0
 10
-33.9649480855
 20
159.6355310119
 30
0.0
 10
-35.2703848599
 20
157.8455683854
 30
0.0
 10
-36.1260925987
 20
155.8062890317
 30
0.0
 10
-36.4534532552
 20
153.6984315617
 30
0.0
 10
-36.2159973977
 20
151.7082865346
 30
0.0
 10
-35.5271666974
 20
150.272531109
 30
0.0
 10
-34.7259578193
 20
149.3972038585
 30
0.0
 10
-34.2574497618
 20
149.0579243734
 30
0.0
 10
-34.0111130567
 20
148.915644398
 30
0.0
  0
SPLINE
  5
307
100
AcDbEntity
  8
0
100
AcDbSpline
 62
7
  6
CONTINUOUS
 70
0
 71
3
 72
9
 73
5
 74
0
 42
0.0000001
 43
0.0000001
 44
0.0000000001
 40
0.0
 40
0.0
 40
0.0
 40
0.0
 40
0.4850812698
 40
1.0
 40
1.0
 40
1.0
 40
1.0
 10
-28.9018364404
 20
177.9964532278
 30
0.0
 10
-29.1331452531
 20
178.0830057429
 30
0.0
 10
-29.6442614796
 20
178.1778981486
 30
0.0
 10
-30.1568775118
 20
178.1095939029
 30
0.0
 10
-30.4101009552
 20
178.0417159705
 30
0.0
  0
SPLINE
  5
308
100
AcDbEntity
  8
0
100
AcDbSpline
 62
7
  6
CONTINUOUS
 70
0
 71
3
 72
14
 73
10
 74
0
 42
0.0000001
 43
0.0000001
 44
0.0000000001
 40
0.0
 40
0.0
 40
0.0
 40
0.0
 40
0.2531295252
 40
0.3905744709
 40
0.5277731793
 40
0.6594184851
 40
0.7817755716
 40
0.8941624825
 40
1.0
 40
1.0
 40
1.0
 40
1.0
 10
-30.4101009552
 20
178.0417159705
 30
0.0
 10
-31.0785737512
 20
177.8625281725
 30
0.0
 10
-32.022395217
 20
177.2251346178
 30
0.0
 10
-32.872630591
 20
176.0533724795
 30
0.0
 10
-33.3080309964
 20
175.0185054262
 30
0.0
 10
-33.4739447339
 20
173.9503760531
 30
0.0
 10
-33.3525914966
 20
172.9409259202
 30
0.0
 10
-32.9436221691
 20
172.0830119494
 30
0.0
 10
-32.4861583753
 20
171.670306224
 30
0.0
 10
-32.2355987229
 20
171.5255551721
 30
0.0
  0
SPLINE
  5
309
100
AcDbEntity
  8
0
100
AcDbSpline
 62
7
  6
CONTINUOUS
 70
0
 71
3
 72
13
 73
9
 74
0
 42
0.0000001
 43
0.0000001
 44
0.0000000001
 40
0.0
 40
0.0
 40
0.0
 40
0.0
 40
0.1090840245
 40
0.2209707961
 40
0.3374842232
 40
0.4597128016
 40
0.7209220373
 40
1.0
 40
1.0
 40
1.0
 40
1.0
 10
-10.2883058566
 20
203.7463672815
 30
0.0
 10
-8.9586146769
 20
202.8942078696
 30
0.0
 10
-6.4590569711
 20
200.8440733101
 30
0.0
 10
-3.4512989655
 20
196.9464204791
 30
0.0
 10
-1.2426224735
 20
192.336591289
 30
0.0
 10
0.5930523515
 20
185.2961217949
 30
0.0
 10
0.511181871
 20
175.5296414177
 30
0.0
 10
-1.8165378593
 20
167.9469836177
 30
0.0
 10
-3.4918010032
 20
164.2701497915
 30
0.0
  0
SPLINE
  5
30A
100
AcDbEntity
  8
0
100
AcDbSpline
 62
7
  6
CONTINUOUS
 70
0
 71
3
 72
15
 73
11
 74
0
 42
0.0000001
 43
0.0000001
 44
0.0000000001
 40
0.0
 40
0.0
 40
0.0
 40
0.0
 40
0.0537003359
 40
0.1077934733
 40
0.2183698503
 40
0.3342897878
 40
0.4567932783
 40
0.5859668702
 40
0.72089518
 40
1.0
 40
1.0
 40
1.0
 40
1.0
 10
-79.530693335
 20
252.136902931
 30
0.0
 10
-80.4683766519
 20
252.6784693682
 30
0.0
 10
-82.4255011718
 20
253.6417490443
 30
0.0
 10
-86.6069887536
 20
255.0544432121
 30
0.0
 10
-92.2814394892
 20
255.7990179311
 30
0.0
 10
-99.3351844075
 20
255.0263246661
 30
0.0
 10
-106.4128655745
 20
252.6605304607
 30
0.0
 10
-113.2418662406
 20
248.8082599412
 30
0.0
 10
-121.7463496018
 20
241.846450183
 30
0.0
 10
-126.8642719485
 20
235.0260967359
 30
0.0
 10
-129.5370637446
 20
230.0732497491
 30
0.0
  0
SPLINE
  5
30B
100
AcDbEntity
  8
0
100
AcDbSpline
 62
7
  6
CONTINUOUS
 70
0
 71
3
 72
19
 73
15
 74
0
 42
0.0000001
 43
0.0000001
 44
0.0000000001
 40
0.0
 40
0.0
 40
0.0
 40
0.0
 40
0.0544173951
 40
0.1109269862
 40
0.1702917177
 40
0.2328215949
 40
0.3659598011
 40
0.5056771063
 40
0.6440083381
 40
0.7735423466
 40
0.8339406934
 40
0.8913266525
 40
0.9463163729
 40
1.0
 40
1.0
 40
1.0
 40
1.0
 10
-16.1508464901
 20
163.0815116017
 30
0.0
 10
-15.6967831995
 20
162.9116074844
 30
0.0
 10
-14.7242983605
 20
162.6804031285
 30
0.0
 10
-13.1952694489
 20
162.6804082281
 30
0.0
 10
-11.630608118
 20
163.0171687026
 30
0.0
 10
-9.529646301
 20
163.9115332101
 30
0.0
 10
-7.1309323772
 20
165.7851554692
 30
0.0
 10
-4.9878558688
 20
168.8139051292
 30
0.0
 10
-3.7702309103
 20
172.2858828022
 30
0.0
 10
-3.6703206569
 20
175.2699798012
 30
0.0
 10
-4.2104545106
 20
177.4193735735
 30
0.0
 10
-4.8868873556
 20
178.8156988994
 30
0.0
 10
-5.8222092341
 20
179.9788005848
 30
0.0
 10
-6.6029992043
 20
180.5709587804
 30
0.0
 10
-7.0171705978
 20
180.8101387484
 30
0.0
  0
SPLINE
  5
30C
100
AcDbEntity
  8
0
100
AcDbSpline
 62
7
  6
CONTINUOUS
 70
0
 71
3
 72
9
 73
5
 74
0
 42
0.0000001
 43
0.0000001
 44
0.0000000001
 40
0.0
 40
0.0
 40
0.0
 40
0.0
 40
0.4850815717
 40
1.0
 40
1.0
 40
1.0
 40
1.0
 10
-32.9359305149
 20
144.9239967455
 30
0.0
 10
-32.2895332142
 20
144.6821239338
 30
0.0
 10
-30.8612074565
 20
144.4169591329
 30
0.0
 10
-29.4286916761
 20
144.6078230123
 30
0.0
 10
-28.7210543369
 20
144.7975090809
 30
0.0
  0
SPLINE
  5
30D
100
AcDbEntity
  8
0
100
AcDbSpline
 62
7
  6
CONTINUOUS
 70
0
 71
3
 72
17
 73
13
 74
0
 42
0.0000001
 43
0.0000001
 44
0.0000000001
 40
0.0
 40
0.0
 40
0.0
 40
0.0
 40
0.1240527107
 40
0.2574961006
 40
0.3958247437
 40
0.5330006033
 40
0.6633348138
 40
0.7833398352
 40
0.8396741708
 40
0.8939956576
 40
0.947128992
 40
1.0
 40
1.0
 40
1.0
 40
1.0
 10
-28.7210543369
 20
144.7975090809
 30
0.0
 10
-27.7636968938
 20
145.0541339924
 30
0.0
 10
-25.8638568338
 20
145.9417734856
 30
0.0
 10
-23.460652441
 20
148.049385375
 30
0.0
 10
-21.5957996791
 20
150.7731252732
 30
0.0
 10
-20.4549783771
 20
153.8447882048
 30
0.0
 10
-20.1524368335
 20
156.9639509532
 30
0.0
 10
-20.6589522861
 20
159.4129339451
 30
0.0
 10
-21.5168703871
 20
161.0556283736
 30
0.0
 10
-22.3441502419
 20
162.0817034183
 30
0.0
 10
-23.3464305772
 20
162.8944215536
 30
0.0
 10
-24.1105402455
 20
163.2774053686
 30
0.0
 10
-24.5061781588
 20
163.4254475303
 30
0.0
  0
SPLINE
  5
30E
100
AcDbEntity
  8
0
100
AcDbSpline
 62
7
  6
CONTINUOUS
 70
0
 71
3
 72
9
 73
5
 74
0
 42
0.0000001
 43
0.0000001
 44
0.0000000001
 40
0.0
 40
0.0
 40
0.0
 40
0.0
 40
0.4850815717
 40
1.0
 40
1.0
 40
1.0
 40
1.0
 10
-24.5061781588
 20
163.4254475303
 30
0.0
 10
-25.1525754601
 20
163.6673203401
 30
0.0
 10
-26.5809012168
 20
163.9324851441
 30
0.0
 10
-28.0134169976
 20
163.7416212634
 30
0.0
 10
-28.7210543369
 20
163.5519351948
 30
0.0
  0
SPLINE
  5
30F
100
AcDbEntity
  8
0
100
AcDbSpline
 62
7
  6
CONTINUOUS
 70
0
 71
3
 72
17
 73
13
 74
0
 42
0.0000001
 43
0.0000001
 44
0.0000000001
 40
0.0
 40
0.0
 40
0.0
 40
0.0
 40
0.1240527107
 40
0.2574961006
 40
0.3958247437
 40
0.5330006033
 40
0.6633348138
 40
0.7833398352
 40
0.8396741708
 40
0.8939956576
 40
0.947128992
 40
1.0
 40
1.0
 40
1.0
 40
1.0
 10
-28.7210543369
 20
163.5519351948
 30
0.0
 10
-29.67841178
 20
163.2953102833
 30
0.0
 10
-31.5782518399
 20
162.4076707901
 30
0.0
 10
-33.9814562328
 20
160.3000589007
 30
0.0
 10
-35.8463089946
 20
157.5763190025
 30
0.0
 10
-36.9871302966
 20
154.5046560709
 30
0.0
 10
-37.2896718402
 20
151.3854933225
 30
0.0
 10
-36.7831563877
 20
148.9365103306
 30
0.0
 10
-35.9252382865
 20
147.2938159022
 30
0.0
 10
-35.0979584322
 20
146.2677408571
 30
0.0
 10
-34.0956780963
 20
145.4550227223
 30
0.0
 10
-33.3315684279
 20
145.0720389082
 30
0.0
 10
-32.9359305149
 20
144.9239967455
 30
0.0
  0
SPLINE
  5
310
100
AcDbEntity
  8
0
100
AcDbSpline
 62
7
  6
CONTINUOUS
 70
0
 71
3
 72
9
 73
5
 74
0
 42
0.0000001
 43
0.0000001
 44
0.0000000001
 40
0.0
 40
0.0
 40
0.0
 40
0.0
 40
0.4850815718
 40
1.0
 40
1.0
 40
1.0
 40
1.0
 10
-31.4689883157
 20
167.679472491
 30
0.0
 10
-31.0475626273
 20
167.5217808955
 30
0.0
 10
-30.1163502417
 20
167.3489038566
 30
0.0
 10
-29.1824061314
 20
167.473339616
 30
0.0
 10
-28.7210543369
 20
167.5970074939
 30
0.0
  0
SPLINE
  5
311
100
AcDbEntity
  8
0
100
AcDbSpline
 62
7
  6
CONTINUOUS
 70
0
 71
3
 72
16
 73
12
 74
0
 42
0.0000001
 43
0.0000001
 44
0.0000000001
 40
0.0
 40
0.0
 40
0.0
 40
0.0
 40
0.1241223351
 40
0.2576343068
 40
0.3960373571
 40
0.5332859613
 40
0.6636908297
 40
0.7837594329
 40
0.8939368692
 40
0.947108017
 40
1.0
 40
1.0
 40
1.0
 40
1.0
 10
-28.7210543369
 20
167.5970074939
 30
0.0
 10
-28.0968801597
 20
167.7643208043
 30
0.0
 10
-26.8582489138
 20
168.3430181694
 30
0.0
 10
-25.2915102723
 20
169.7171456037
 30
0.0
 10
-24.075692818
 20
171.4929335973
 30
0.0
 10
-23.3316748342
 20
173.4951689953
 30
0.0
 10
-23.1357012788
 20
175.5301808277
 30
0.0
 10
-23.519168666
 20
177.4019586547
 30
0.0
 10
-24.336042251
 20
178.6821679168
 30
0.0
 10
-25.2170913073
 20
179.3952568465
 30
0.0
 10
-25.7152163087
 20
179.6451887722
 30
0.0
 10
-25.973120358
 20
179.7416928556
 30
0.0
  0
SPLINE
  5
312
100
AcDbEntity
  8
0
100
AcDbSpline
 62
7
  6
CONTINUOUS
 70
0
 71
3
 72
9
 73
5
 74
0
 42
0.0000001
 43
0.0000001
 44
0.0000000001
 40
0.0
 40
0.0
 40
0.0
 40
0.0
 40
0.4850815717
 40
1.0
 40
1.0
 40
1.0
 40
1.0
 10
-25.973120358
 20
179.7416928556
 30
0.0
 10
-26.394546048
 20
179.8993844468
 30
0.0
 10
-27.3257584311
 20
180.0722614929
 30
0.0
 10
-28.2597025422
 20
179.9478257306
 30
0.0
 10
-28.7210543369
 20
179.8241578526
 30
0.0
  0
SPLINE
  5
313
100
AcDbEntity
  8
0
100
AcDbSpline
 62
7
  6
CONTINUOUS
 70
0
 71
3
 72
16
 73
12
 74
0
 42
0.0000001
 43
0.0000001
 44
0.0000000001
 40
0.0
 40
0.0
 40
0.0
 40
0.0
 40
0.1241223351
 40
0.2576343068
 40
0.3960373571
 40
0.5332859613
 40
0.6636908297
 40
0.7837594329
 40
0.8939368692
 40
0.947108017
 40
1.0
 40
1.0
 40
1.0
 40
1.0
 10
-28.7210543369
 20
179.8241578526
 30
0.0
 10
-29.3452285141
 20
179.6568445423
 30
0.0
 10
-30.58385976
 20
179.0781471771
 30
0.0
 10
-32.1505984015
 20
177.7040197428
 30
0.0
 10
-33.3664158557
 20
175.9282317492
 30
0.0
 10
-34.1104338395
 20
173.9259963513
 30
0.0
 10
-34.3064073951
 20
171.8909845187
 30
0.0
 10
-33.9229400071
 20
170.0192066922
 30
0.0
 10
-33.1060664241
 20
168.7389974286
 30
0.0
 10
-32.2250173655
 20
168.025908501
 30
0.0
 10
-31.7268923641
 20
167.7759765769
 30
0.0
 10
-31.4689883157
 20
167.679472491
 30
0.0
  0
SPLINE
  5
314
100
AcDbEntity
  8
0
100
AcDbSpline
 62
7
  6
CONTINUOUS
 70
0
 71
3
 72
15
 73
11
 74
0
 42
0.0000001
 43
0.0000001
 44
0.0000000001
 40
0.0
 40
0.0
 40
0.0
 40
0.0
 40
0.1127752101
 40
0.2349147645
 40
0.3651864118
 40
0.5000913315
 40
0.6349774641
 40
0.7652036621
 40
0.8872766648
 40
1.0
 40
1.0
 40
1.0
 40
1.0
 10
-53.60856993
 20
161.8713638755
 30
0.0
 10
-53.1485393494
 20
161.8661622449
 30
0.0
 10
-52.1842430149
 20
162.0292002355
 30
0.0
 10
-50.8355538633
 20
162.7006657213
 30
0.0
 10
-49.6279646975
 20
163.7428382362
 30
0.0
 10
-48.6557620899
 20
165.0701632082
 30
0.0
 10
-47.9942432317
 20
166.57642268
 30
0.0
 10
-47.6977359461
 20
168.143186798
 30
0.0
 10
-47.7927119719
 20
169.6461872351
 30
0.0
 10
-48.1355197526
 20
170.5616220125
 30
0.0
 10
-48.3706966597
 20
170.9567831729
 30
0.0
  0
SPLINE
  5
315
100
AcDbEntity
  8
0
100
AcDbSpline
 62
7
  6
CONTINUOUS
 70
0
 71
3
 72
15
 73
11
 74
0
 42
0.0000001
 43
0.0000001
 44
0.0000000001
 40
0.0
 40
0.0
 40
0.0
 40
0.0
 40
0.1127752101
 40
0.2349147645
 40
0.3651864118
 40
0.5000913315
 40
0.6349774641
 40
0.7652036621
 40
0.8872766648
 40
1.0
 40
1.0
 40
1.0
 40
1.0
 10
-47.2288057765
 20
185.4232507131
 30
0.0
 10
-46.768775196
 20
185.4180490825
 30
0.0
 10
-45.8044788614
 20
185.5810870731
 30
0.0
 10
-44.4557897099
 20
186.2525525589
 30
0.0
 10
-43.2482005441
 20
187.2947250738
 30
0.0
 10
-42.2759979364
 20
188.6220500458
 30
0.0
 10
-41.6144790783
 20
190.1283095176
 30
0.0
 10
-41.3179717927
 20
191.6950736356
 30
0.0
 10
-41.4129478185
 20
193.1980740727
 30
0.0
 10
-41.7557555992
 20
194.1135088501
 30
0.0
 10
-41.9909325062
 20
194.5086700105
 30
0.0
  0
SPLINE
  5
316
100
AcDbEntity
  8
0
100
AcDbSpline
 62
7
  6
CONTINUOUS
 70
0
 71
3
 72
15
 73
11
 74
0
 42
0.0000001
 43
0.0000001
 44
0.0000000001
 40
0.0
 40
0.0
 40
0.0
 40
0.0
 40
0.115127634
 40
0.2380562185
 40
0.3672244192
 40
0.4998347996
 40
0.6324711759
 40
0.7617129977
 40
0.8847476575
 40
1.0
 40
1.0
 40
1.0
 40
1.0
 10
-38.3359456762
 20
196.095838818
 30
0.0
 10
-38.0868527055
 20
195.4178984629
 30
0.0
 10
-37.7690903773
 20
193.9388321117
 30
0.0
 10
-37.8275383776
 20
191.6182754489
 30
0.0
 10
-38.3912918192
 20
189.2545931531
 30
0.0
 10
-39.4246426251
 20
186.9899523164
 30
0.0
 10
-40.8644539111
 20
184.9587893592
 30
0.0
 10
-42.6260949101
 20
183.2832246252
 30
0.0
 10
-44.604500499
 20
182.0654382527
 30
0.0
 10
-46.0440310704
 20
181.5958121972
 30
0.0
 10
-46.7559923108
 20
181.4697472884
 30
0.0
  0
SPLINE
  5
317
100
AcDbEntity
  8
0
100
AcDbSpline
 62
7
  6
CONTINUOUS
 70
0
 71
3
 72
15
 73
11
 74
0
 42
0.0000001
 43
0.0000001
 44
0.0000000001
 40
0.0
 40
0.0
 40
0.0
 40
0.0
 40
0.1127752101
 40
0.2349147645
 40
0.3651864118
 40
0.5000913315
 40
0.6349774641
 40
0.7652036621
 40
0.8872766648
 40
1.0
 40
1.0
 40
1.0
 40
1.0
 10
-26.5834552956
 20
190.9573501013
 30
0.0
 10
-26.1234247151
 20
190.9521484708
 30
0.0
 10
-25.1591283805
 20
191.1151864613
 30
0.0
 10
-23.8104392289
 20
191.7866519472
 30
0.0
 10
-22.6028500632
 20
192.8288244621
 30
0.0
 10
-21.6306474555
 20
194.156149434
 30
0.0
 10
-20.9691285974
 20
195.6624089058
 30
0.0
 10
-20.6726213118
 20
197.2291730238
 30
0.0
 10
-20.7675973375
 20
198.732173461
 30
0.0
 10
-21.1104051182
 20
199.6476082383
 30
0.0
 10
-21.3455820253
 20
200.0427693988
 30
0.0
  0
SPLINE
  5
318
100
AcDbEntity
  8
0
100
AcDbSpline
 62
7
  6
CONTINUOUS
 70
0
 71
3
 72
15
 73
11
 74
0
 42
0.0000001
 43
0.0000001
 44
0.0000000001
 40
0.0
 40
0.0
 40
0.0
 40
0.0
 40
0.1127752101
 40
0.2349147645
 40
0.3651864118
 40
0.5000913315
 40
0.6349774641
 40
0.7652036621
 40
0.8872766648
 40
1.0
 40
1.0
 40
1.0
 40
1.0
 10
-20.2036911422
 20
170.8257247828
 30
0.0
 10
-19.7436605616
 20
170.8205231522
 30
0.0
 10
-18.7793642271
 20
170.9835611428
 30
0.0
 10
-17.4306750755
 20
171.6550266286
 30
0.0
 10
-16.2230859097
 20
172.6971991435
 30
0.0
 10
-15.2508833021
 20
174.0245241155
 30
0.0
 10
-14.5893644439
 20
175.5307835873
 30
0.0
 10
-14.2928571583
 20
177.0975477053
 30
0.0
 10
-14.3878331841
 20
178.6005481424
 30
0.0
 10
-14.7306409648
 20
179.5159829198
 30
0.0
 10
-14.9658178719
 20
179.9111440803
 30
0.0
  0
SPLINE
  5
319
100
AcDbEntity
  8
0
100
AcDbSpline
 62
7
  6
CONTINUOUS
 70
0
 71
3
 72
9
 73
5
 74
0
 42
0.0000001
 43
0.0000001
 44
0.0000000001
 40
0.0
 40
0.0
 40
0.0
 40
0.0
 40
0.4850812698
 40
1.0
 40
1.0
 40
1.0
 40
1.0
 10
-33.3853076915
 20
148.6203602981
 30
0.0
 10
-32.9290272911
 20
148.4496265664
 30
0.0
 10
-31.9207980152
 20
148.2624415401
 30
0.0
 10
-30.9096102172
 20
148.3971786831
 30
0.0
 10
-30.4101009552
 20
148.5310748794
 30
0.0
  0
SPLINE
  5
31A
100
AcDbEntity
  8
0
100
AcDbSpline
 62
7
  6
CONTINUOUS
 70
0
 71
3
 72
16
 73
12
 74
0
 42
0.0000001
 43
0.0000001
 44
0.0000000001
 40
0.0
 40
0.0
 40
0.0
 40
0.0
 40
0.1228904407
 40
0.2547994405
 40
0.3918394616
 40
0.5286356098
 40
0.6598932118
 40
0.7818905911
 40
0.8939517433
 40
0.9474090867
 40
1.0
 40
1.0
 40
1.0
 40
1.0
 10
-30.4101009552
 20
148.5310748794
 30
0.0
 10
-29.7680315822
 20
148.7031850951
 30
0.0
 10
-28.4923041308
 20
149.2859081177
 30
0.0
 10
-26.8552538248
 20
150.6650371803
 30
0.0
 10
-25.5498170503
 20
152.4549998068
 30
0.0
 10
-24.6941093116
 20
154.4942791605
 30
0.0
 10
-24.3667486551
 20
156.6021366305
 30
0.0
 10
-24.6042045126
 20
158.5922816576
 30
0.0
 10
-25.2930352129
 20
160.0280370833
 30
0.0
 10
-26.094244091
 20
160.9033643336
 30
0.0
 10
-26.5627521483
 20
161.2426438187
 30
0.0
 10
-26.8090888533
 20
161.3849237939
 30
0.0
  0
SPLINE
  5
31B
100
AcDbEntity
  8
0
100
AcDbSpline
 62
7
  6
CONTINUOUS
 70
0
 71
3
 72
9
 73
5
 74
0
 42
0.0000001
 43
0.0000001
 44
0.0000000001
 40
0.0
 40
0.0
 40
0.0
 40
0.0
 40
0.4850812696
 40
1.0
 40
1.0
 40
1.0
 40
1.0
 10
-31.9183655176
 20
171.3758360531
 30
0.0
 10
-31.6870566994
 20
171.28928353
 30
0.0
 10
-31.175940457
 20
171.1943911117
 30
0.0
 10
-30.6633244069
 20
171.2626953579
 30
0.0
 10
-30.4101009552
 20
171.3305732925
 30
0.0
  0
SPLINE
  5
31C
100
AcDbEntity
  8
0
100
AcDbSpline
 62
7
  6
CONTINUOUS
 70
0
 71
3
 72
14
 73
10
 74
0
 42
0.0000001
 43
0.0000001
 44
0.0000000001
 40
0.0
 40
0.0
 40
0.0
 40
0.0
 40
0.2531295252
 40
0.3905744709
 40
0.5277731794
 40
0.6594184852
 40
0.7817755717
 40
0.8941624826
 40
1.0
 40
1.0
 40
1.0
 40
1.0
 10
-30.4101009552
 20
171.3305732925
 30
0.0
 10
-29.7416281591
 20
171.5097610905
 30
0.0
 10
-28.7978066932
 20
172.1471546452
 30
0.0
 10
-27.9475713193
 20
173.3189167835
 30
0.0
 10
-27.5121709139
 20
174.3537838369
 30
0.0
 10
-27.3462571764
 20
175.4219132099
 30
0.0
 10
-27.4676104136
 20
176.431363343
 30
0.0
 10
-27.8765797413
 20
177.2892773132
 30
0.0
 10
-28.3340435344
 20
177.7019830388
 30
0.0
 10
-28.5846031865
 20
177.8467340904
 30
0.0
  0
SPLINE
  5
31D
100
AcDbEntity
  8
0
100
AcDbSpline
 62
7
  6
CONTINUOUS
 70
0
 71
3
 72
15
 73
11
 74
0
 42
0.0000001
 43
0.0000001
 44
0.0000000001
 40
0.0
 40
0.0
 40
0.0
 40
0.0
 40
0.115127634
 40
0.2380562185
 40
0.3672244192
 40
0.4998347996
 40
0.6324711759
 40
0.7617129977
 40
0.8847476575
 40
1.0
 40
1.0
 40
1.0
 40
1.0
 10
-17.6905951952
 20
201.6299382063
 30
0.0
 10
-17.4415022246
 20
200.9519978511
 30
0.0
 10
-17.1237398964
 20
199.4729315
 30
0.0
 10
-17.1821878966
 20
197.1523748371
 30
0.0
 10
-17.7459413383
 20
194.7886925414
 30
0.0
 10
-18.7792921441
 20
192.5240517046
 30
0.0
 10
-20.2191034301
 20
190.4928887475
 30
0.0
 10
-21.9807444292
 20
188.8173240135
 30
0.0
 10
-23.9591500181
 20
187.599537641
 30
0.0
 10
-25.3986805895
 20
187.1299115854
 30
0.0
 10
-26.1106418299
 20
187.0038466766
 30
0.0
  0
SPLINE
  5
31E
100
AcDbEntity
  8
0
100
AcDbSpline
 62
7
  6
CONTINUOUS
 70
0
 71
3
 72
15
 73
11
 74
0
 42
0.0000001
 43
0.0000001
 44
0.0000000001
 40
0.0
 40
0.0
 40
0.0
 40
0.0
 40
0.115127634
 40
0.2380562185
 40
0.3672244192
 40
0.4998347996
 40
0.6324711759
 40
0.7617129977
 40
0.8847476575
 40
1.0
 40
1.0
 40
1.0
 40
1.0
 10
-44.7157098296
 20
172.5439519804
 30
0.0
 10
-44.466616859
 20
171.8660116253
 30
0.0
 10
-44.1488545308
 20
170.3869452741
 30
0.0
 10
-44.207302531
 20
168.0663886113
 30
0.0
 10
-44.7710559726
 20
165.7027063155
 30
0.0
 10
-45.8044067785
 20
163.4380654787
 30
0.0
 10
-47.2442180645
 20
161.4069025216
 30
0.0
 10
-49.0058590635
 20
159.7313377876
 30
0.0
 10
-50.9842646525
 20
158.5135514151
 30
0.0
 10
-52.4237952238
 20
158.0439253595
 30
0.0
 10
-53.1357564642
 20
157.9178604508
 30
0.0
  0
SPLINE
  5
31F
100
AcDbEntity
  8
0
100
AcDbSpline
 62
7
  6
CONTINUOUS
 70
0
 71
3
 72
14
 73
10
 74
0
 42
0.0000001
 43
0.0000001
 44
0.0000000001
 40
0.0
 40
0.0
 40
0.0
 40
0.0
 40
0.1090783301
 40
0.2206470423
 40
0.3367322144
 40
0.4585932565
 40
0.5866267867
 40
0.7204392957
 40
1.0
 40
1.0
 40
1.0
 40
1.0
 10
-46.351320205
 20
143.1862878312
 30
0.0
 10
-47.7493553649
 20
143.9936902059
 30
0.0
 10
-50.3907541074
 20
145.975271363
 30
0.0
 10
-53.5998381726
 20
149.8417826627
 30
0.0
 10
-55.9799614421
 20
154.4778457419
 30
0.0
 10
-57.4615067481
 20
159.7210823545
 30
0.0
 10
-58.007950576
 20
165.403007756
 30
0.0
 10
-57.4711837805
 20
173.4231263811
 30
0.0
 10
-55.6658701191
 20
179.3857336262
 30
0.0
 10
-53.9503076705
 20
183.151015555
 30
0.0
  0
SPLINE
  5
320
100
AcDbEntity
  8
0
100
AcDbSpline
 62
7
  6
CONTINUOUS
 70
0
 71
3
 72
12
 73
8
 74
0
 42
0.0000001
 43
0.0000001
 44
0.0000000001
 40
0.0
 40
0.0
 40
0.0
 40
0.0
 40
0.2601959828
 40
0.389648142
 40
0.5175372368
 40
0.7654944504
 40
1.0
 40
1.0
 40
1.0
 40
1.0
 10
-53.9503076705
 20
183.151015555
 30
0.0
 10
-52.7621445
 20
185.7587721646
 30
0.0
 10
-50.6114131866
 20
189.5099543318
 30
0.0
 10
-47.1120511175
 20
194.0169448903
 30
0.0
 10
-43.2930713132
 20
198.0753252965
 30
0.0
 10
-37.9937733553
 20
202.2853492844
 30
0.0
 10
-33.177602394
 20
204.656637559
 30
0.0
 10
-30.7361948047
 20
205.4992907399
 30
0.0
  0
SPLINE
  5
321
100
AcDbEntity
  8
0
100
AcDbSpline
 62
7
  6
CONTINUOUS
 70
0
 71
3
 72
19
 73
15
 74
0
 42
0.0000001
 43
0.0000001
 44
0.0000000001
 40
0.0
 40
0.0
 40
0.0
 40
0.0
 40
0.0544173951
 40
0.1109269862
 40
0.1702917177
 40
0.2328215949
 40
0.3659598011
 40
0.5056771063
 40
0.6440083381
 40
0.7735423466
 40
0.8339406934
 40
0.8913266525
 40
0.9463163729
 40
1.0
 40
1.0
 40
1.0
 40
1.0
 10
-49.5557252779
 20
154.1271506944
 30
0.0
 10
-49.1016619873
 20
153.9572465771
 30
0.0
 10
-48.1291771483
 20
153.7260422211
 30
0.0
 10
-46.6001482367
 20
153.7260473208
 30
0.0
 10
-45.0354869058
 20
154.0628077953
 30
0.0
 10
-42.9345250888
 20
154.9571723028
 30
0.0
 10
-40.535811165
 20
156.8307945618
 30
0.0
 10
-38.3927346566
 20
159.8595442219
 30
0.0
 10
-37.1751096981
 20
163.3315218949
 30
0.0
 10
-37.0751994447
 20
166.3156188938
 30
0.0
 10
-37.6153332984
 20
168.4650126662
 30
0.0
 10
-38.2917661434
 20
169.8613379921
 30
0.0
 10
-39.2270880219
 20
171.0244396775
 30
0.0
 10
-40.0078779921
 20
171.6165978731
 30
0.0
 10
-40.4220493856
 20
171.8557778411
 30
0.0
  0
SPLINE
  5
322
100
AcDbEntity
  8
0
100
AcDbSpline
 62
7
  6
CONTINUOUS
 70
0
 71
3
 72
15
 73
11
 74
0
 42
0.0000001
 43
0.0000001
 44
0.0000000001
 40
0.0
 40
0.0
 40
0.0
 40
0.0
 40
0.115127634
 40
0.2380562185
 40
0.3672244192
 40
0.4998347996
 40
0.6324711759
 40
0.7617129977
 40
0.8847476575
 40
1.0
 40
1.0
 40
1.0
 40
1.0
 10
-11.3108310418
 20
181.4983128877
 30
0.0
 10
-11.0617380712
 20
180.8203725326
 30
0.0
 10
-10.743975743
 20
179.3413061814
 30
0.0
 10
-10.8024237432
 20
177.0207495186
 30
0.0
 10
-11.3661771848
 20
174.6570672229
 30
0.0
 10
-12.3995279907
 20
172.3924263861
 30
0.0
 10
-13.8393392767
 20
170.3612634289
 30
0.0
 10
-15.6009802757
 20
168.6856986949
 30
0.0
 10
-17.5793858647
 20
167.4679123224
 30
0.0
 10
-19.018916436
 20
166.9982862669
 30
0.0
 10
-19.7308776764
 20
166.8722213581
 30
0.0
  0
SPLINE
  5
323
100
AcDbEntity
  8
0
100
AcDbSpline
 62
7
  6
CONTINUOUS
 70
0
 71
3
 72
19
 73
15
 74
0
 42
0.0000001
 43
0.0000001
 44
0.0000000001
 40
0.0
 40
0.0
 40
0.0
 40
0.0
 40
0.0544173951
 40
0.1109269862
 40
0.1702917177
 40
0.2328215949
 40
0.3659598011
 40
0.5056771063
 40
0.6440083381
 40
0.7735423466
 40
0.8339406934
 40
0.8913266525
 40
0.9463163729
 40
1.0
 40
1.0
 40
1.0
 40
1.0
 10
-43.1759611245
 20
177.679037532
 30
0.0
 10
-42.7218978338
 20
177.5091334147
 30
0.0
 10
-41.7494129949
 20
177.2779290588
 30
0.0
 10
-40.2203840833
 20
177.2779341584
 30
0.0
 10
-38.6557227524
 20
177.6146946329
 30
0.0
 10
-36.5547609353
 20
178.5090591404
 30
0.0
 10
-34.1560470116
 20
180.3826813995
 30
0.0
 10
-32.0129705032
 20
183.4114310595
 30
0.0
 10
-30.7953455447
 20
186.8834087325
 30
0.0
 10
-30.6954352913
 20
189.8675057315
 30
0.0
 10
-31.2355691449
 20
192.0168995038
 30
0.0
 10
-31.91200199
 20
193.4132248297
 30
0.0
 10
-32.8473238684
 20
194.5763265151
 30
0.0
 10
-33.6281138387
 20
195.1684847107
 30
0.0
 10
-34.0422852322
 20
195.4076646787
 30
0.0
  0
SPLINE
  5
324
100
AcDbEntity
  8
0
100
AcDbSpline
 62
7
  6
CONTINUOUS
 70
0
 71
3
 72
19
 73
15
 74
0
 42
0.0000001
 43
0.0000001
 44
0.0000000001
 40
0.0
 40
0.0
 40
0.0
 40
0.0
 40
0.0544173951
 40
0.1109269862
 40
0.1702917177
 40
0.2328215949
 40
0.3659598011
 40
0.5056771063
 40
0.6440083381
 40
0.7735423466
 40
0.8339406934
 40
0.8913266525
 40
0.9463163729
 40
1.0
 40
1.0
 40
1.0
 40
1.0
 10
-22.5306106435
 20
183.2131369203
 30
0.0
 10
-22.0765473529
 20
183.0432328029
 30
0.0
 10
-21.1040625139
 20
182.812028447
 30
0.0
 10
-19.5750336023
 20
182.8120335467
 30
0.0
 10
-18.0103722715
 20
183.1487940212
 30
0.0
 10
-15.9094104544
 20
184.0431585286
 30
0.0
 10
-13.5106965306
 20
185.9167807877
 30
0.0
 10
-11.3676200223
 20
188.9455304478
 30
0.0
 10
-10.1499950638
 20
192.4175081207
 30
0.0
 10
-10.0500848104
 20
195.4016051197
 30
0.0
 10
-10.590218664
 20
197.5509988921
 30
0.0
 10
-11.266651509
 20
198.947324218
 30
0.0
 10
-12.2019733875
 20
200.1104259033
 30
0.0
 10
-12.9827633578
 20
200.7025840989
 30
0.0
 10
-13.3969347513
 20
200.941764067
 30
0.0
  0
SPLINE
  5
325
100
AcDbEntity
  8
0
100
AcDbSpline
 62
7
  6
CONTINUOUS
 70
0
 71
3
 72
11
 73
7
 74
0
 42
0.0000001
 43
0.0000001
 44
0.0000000001
 40
0.0
 40
0.0
 40
0.0
 40
0.0
 40
0.2577516798
 40
0.5090663978
 40
0.7557315336
 40
1.0
 40
1.0
 40
1.0
 40
1.0
 10
-33.4822888094
 20
129.9410518502
 30
0.0
 10
-34.8938667204
 20
129.850680314
 30
0.0
 10
-37.6978669758
 20
129.8567628081
 30
0.0
 10
-41.8161325348
 20
130.4552993104
 30
0.0
 10
-45.7300024576
 20
131.6364022819
 30
0.0
 10
-48.1714965673
 20
132.8048746536
 30
0.0
 10
-49.3322541968
 20
133.4753349837
 30
0.0
  0
SPLINE
  5
326
100
AcDbEntity
  8
0
100
AcDbSpline
 62
7
  6
CONTINUOUS
 70
0
 71
3
 72
13
 73
9
 74
0
 42
0.0000001
 43
0.0000001
 44
0.0000000001
 40
0.0
 40
0.0
 40
0.0
 40
0.0
 40
0.245833921
 40
0.3738351204
 40
0.5030455923
 40
0.6318336685
 40
0.7586027014
 40
1.0
 40
1.0
 40
1.0
 40
1.0
 10
10.5635509217
 20
182.5746629722
 30
0.0
 10
10.5635509217
 20
177.6098214064
 30
0.0
 10
9.344217257
 20
170.0181980308
 30
0.0
 10
5.7591235353
 20
160.4949260746
 30
0.0
 10
2.0664435357
 20
153.6015143231
 30
0.0
 10
-2.4854275648
 20
147.2725332808
 30
0.0
 10
-9.3880766898
 20
139.964955382
 30
0.0
 10
-15.6100557963
 20
135.6313167668
 30
0.0
 10
-20.0187110883
 20
133.5500376749
 30
0.0
  0
SPLINE
  5
327
100
AcDbEntity
  8
0
100
AcDbSpline
 62
7
  6
CONTINUOUS
 70
0
 71
3
 72
14
 73
10
 74
0
 42
0.0000001
 43
0.0000001
 44
0.0000000001
 40
0.0
 40
0.0
 40
0.0
 40
0.0
 40
0.2703407166
 40
0.4075205226
 40
0.5406425147
 40
0.6668005857
 40
0.7845671399
 40
0.8946256927
 40
1.0
 40
1.0
 40
1.0
 40
1.0
 10
-20.0187110883
 20
133.5500376749
 30
0.0
 10
-20.209622784
 20
132.1775274218
 30
0.0
 10
-20.9604996992
 20
130.1488149006
 30
0.0
 10
-22.6213735661
 20
127.917188731
 30
0.0
 10
-24.145077057
 20
126.5485494372
 30
0.0
 10
-25.843158435
 20
125.590681886
 30
0.0
 10
-27.6151440399
 20
125.1085665209
 30
0.0
 10
-29.3487290143
 20
125.1466346212
 30
0.0
 10
-30.4089872339
 20
125.5350152312
 30
0.0
 10
-30.8767107378
 20
125.8051587881
 30
0.0
  0
SPLINE
  5
328
100
AcDbEntity
  8
0
100
AcDbSpline
 62
7
  6
CONTINUOUS
 70
0
 71
3
 72
11
 73
7
 74
0
 42
0.0000001
 43
0.0000001
 44
0.0000000001
 40
0.0
 40
0.0
 40
0.0
 40
0.0
 40
0.2717350397
 40
0.5268969419
 40
0.7676331593
 40
1.0
 40
1.0
 40
1.0
 40
1.0
 10
-30.882731496
 20
131.8414378945
 30
0.0
 10
-30.882731496
 20
131.4996686728
 30
0.0
 10
-30.8161814062
 20
130.8341782534
 30
0.0
 10
-30.4980547983
 20
129.9122676019
 30
0.0
 10
-29.9762490545
 20
129.1453527114
 30
0.0
 10
-29.5042903604
 20
128.7656431383
 30
0.0
 10
-29.2512161277
 20
128.6194712369
 30
0.0
  0
SPLINE
  5
329
100
AcDbEntity
  8
0
100
AcDbSpline
 62
7
  6
CONTINUOUS
 70
0
 71
3
 72
13
 73
9
 74
0
 42
0.0000001
 43
0.0000001
 44
0.0000000001
 40
0.0
 40
0.0
 40
0.0
 40
0.0
 40
0.2453464881
 40
0.3725553817
 40
0.5009820002
 40
0.6292741539
 40
0.7560918729
 40
1.0
 40
1.0
 40
1.0
 40
1.0
 10
-37.0505507574
 20
206.5880754996
 30
0.0
 10
-40.648854026
 20
204.376445202
 30
0.0
 10
-45.6528996394
 20
200.2111012407
 30
0.0
 10
-51.1684580212
 20
193.5654850583
 30
0.0
 10
-54.7559249777
 20
187.993833184
 30
0.0
 10
-57.64641378
 20
182.0380903219
 30
0.0
 10
-60.4393229675
 20
173.9017204962
 30
0.0
 10
-61.3786003139
 20
167.4890488205
 30
0.0
 10
-61.3786003139
 20
163.2901748977
 30
0.0
  0
SPLINE
  5
32A
100
AcDbEntity
  8
0
100
AcDbSpline
 62
7
  6
CONTINUOUS
 70
0
 71
3
 72
13
 73
9
 74
0
 42
0.0000001
 43
0.0000001
 44
0.0000000001
 40
0.0
 40
0.0
 40
0.0
 40
0.0
 40
0.2714323935
 40
0.526217453
 40
0.6482289388
 40
0.7672664568
 40
0.8841850931
 40
1.0
 40
1.0
 40
1.0
 40
1.0
 10
-61.3786003139
 20
163.2901748977
 30
0.0
 10
-61.3786003139
 20
160.4257497638
 30
0.0
 10
-60.8228325949
 20
154.8507697782
 30
0.0
 10
-58.5632650738
 20
148.3127622386
 30
0.0
 10
-55.8921736498
 20
143.7961140258
 30
0.0
 10
-53.5261767653
 20
140.8340606059
 30
0.0
 10
-50.8016273828
 20
138.2935728592
 30
0.0
 10
-48.7651203055
 20
136.9009016463
 30
0.0
 10
-47.7067633088
 20
136.2896411217
 30
0.0
  0
SPLINE
  5
32B
100
AcDbEntity
  8
0
100
AcDbSpline
 62
7
  6
CONTINUOUS
 70
0
 71
3
 72
9
 73
5
 74
0
 42
0.0000001
 43
0.0000001
 44
0.0000000001
 40
0.0
 40
0.0
 40
0.0
 40
0.0
 40
0.7472685732
 40
1.0
 40
1.0
 40
1.0
 40
1.0
 10
-103.164182498
 20
228.4299945952
 30
0.0
 10
-103.3758856194
 20
228.4596544695
 30
0.0
 10
-103.6678904271
 20
228.4548647635
 30
0.0
 10
-103.9476070668
 20
228.3942226423
 30
0.0
 10
-104.0174404338
 20
228.3755034254
 30
0.0
  0
SPLINE
  5
32C
100
AcDbEntity
  8
0
100
AcDbSpline
 62
7
  6
CONTINUOUS
 70
0
 71
3
 72
12
 73
8
 74
0
 42
0.0000001
 43
0.0000001
 44
0.0000000001
 40
0.0
 40
0.0
 40
0.0
 40
0.0
 40
0.2436039506
 40
0.4995161038
 40
0.6288276216
 40
0.756442766
 40
1.0
 40
1.0
 40
1.0
 40
1.0
 10
-104.88508998
 20
227.9088273724
 30
0.0
 10
-104.6553100601
 20
227.5849846377
 30
0.0
 10
-104.3286676074
 20
226.8120257321
 30
0.0
 10
-104.2953876607
 20
225.7657848222
 30
0.0
 10
-104.4850985237
 20
224.9474335784
 30
0.0
 10
-104.8072928993
 20
224.1951295197
 30
0.0
 10
-105.1999872556
 20
223.7080813149
 30
0.0
 10
-105.5100211397
 20
223.4601066181
 30
0.0
  0
SPLINE
  5
32D
100
AcDbEntity
  8
0
100
AcDbSpline
 62
7
  6
CONTINUOUS
 70
0
 71
3
 72
9
 73
5
 74
0
 42
0.0000001
 43
0.0000001
 44
0.0000000001
 40
0.0
 40
0.0
 40
0.0
 40
0.0
 40
0.4853952647
 40
1.0
 40
1.0
 40
1.0
 40
1.0
 10
12.8576713062
 20
205.0845349534
 30
0.0
 10
14.2152920073
 20
202.1204857421
 30
0.0
 10
16.2599407768
 20
195.6524070974
 30
0.0
 10
16.8832850663
 20
188.9153274941
 30
0.0
 10
16.8832850663
 20
185.4589691627
 30
0.0
  0
SPLINE
  5
32E
100
AcDbEntity
  8
0
100
AcDbSpline
 62
7
  6
CONTINUOUS
 70
0
 71
3
 72
16
 73
12
 74
0
 42
0.0000001
 43
0.0000001
 44
0.0000000001
 40
0.0
 40
0.0
 40
0.0
 40
0.0
 40
0.1244699688
 40
0.2537085069
 40
0.3194968738
 40
0.3856059355
 40
0.5173601986
 40
0.6465168374
 40
0.7708552578
 40
0.8888454393
 40
1.0
 40
1.0
 40
1.0
 40
1.0
 10
16.8832850663
 20
185.4589691627
 30
0.0
 10
16.8832850663
 20
181.7436051029
 30
0.0
 10
16.1263577472
 20
174.1569783824
 30
0.0
 10
13.5076663491
 20
164.9375206931
 30
0.0
 10
10.4579983038
 20
157.7555201333
 30
0.0
 10
6.7895958187
 20
150.7843099485
 30
0.0
 10
1.1899049348
 20
142.7298203375
 30
0.0
 10
-6.8930399427
 20
134.4732494926
 30
0.0
 10
-15.9793981035
 20
128.0047845481
 30
0.0
 10
-25.6580303096
 20
123.6315151788
 30
0.0
 10
-32.4274060501
 20
122.2233415904
 30
0.0
 10
-35.7352096227
 20
121.9646218019
 30
0.0
  0
SPLINE
  5
32F
100
AcDbEntity
  8
0
100
AcDbSpline
 62
7
  6
CONTINUOUS
 70
0
 71
3
 72
12
 73
8
 74
0
 42
0.0000001
 43
0.0000001
 44
0.0000000001
 40
0.0
 40
0.0
 40
0.0
 40
0.0
 40
0.2436039506
 40
0.4995161038
 40
0.6288276216
 40
0.756442766
 40
1.0
 40
1.0
 40
1.0
 40
1.0
 10
-91.7703669937
 20
140.413192788
 30
0.0
 10
-91.5405870738
 20
140.0893500533
 30
0.0
 10
-91.2139446211
 20
139.3163911477
 30
0.0
 10
-91.1806646744
 20
138.2701502378
 30
0.0
 10
-91.3703755374
 20
137.451798994
 30
0.0
 10
-91.692569913
 20
136.6994949353
 30
0.0
 10
-92.0852642693
 20
136.2124467305
 30
0.0
 10
-92.3952981534
 20
135.9644720337
 30
0.0
  0
SPLINE
  5
330
100
AcDbEntity
  8
0
100
AcDbSpline
 62
7
  6
CONTINUOUS
 70
0
 71
3
 72
9
 73
5
 74
0
 42
0.0000001
 43
0.0000001
 44
0.0000000001
 40
0.0
 40
0.0
 40
0.0
 40
0.0
 40
0.7472685732
 40
1.0
 40
1.0
 40
1.0
 40
1.0
 10
-90.0494595117
 20
140.9343600108
 30
0.0
 10
-90.2611626331
 20
140.9640198851
 30
0.0
 10
-90.5531674409
 20
140.9592301791
 30
0.0
 10
-90.8328840805
 20
140.8985880579
 30
0.0
 10
-90.9027174476
 20
140.879868841
 30
0.0
  0
SPLINE
  5
331
100
AcDbEntity
  8
0
100
AcDbSpline
 62
7
  6
CONTINUOUS
 70
0
 71
3
 72
9
 73
5
 74
0
 42
0.0000001
 43
0.0000001
 44
0.0000000001
 40
0.0
 40
0.0
 40
0.0
 40
0.0
 40
0.5028715139
 40
1.0
 40
1.0
 40
1.0
 40
1.0
 10
-90.3698229017
 20
125.8541961483
 30
0.0
 10
-90.7408410328
 20
125.7547427041
 30
0.0
 10
-91.4997975336
 20
125.6279858903
 30
0.0
 10
-92.2691155463
 20
125.6562441054
 30
0.0
 10
-92.6451737535
 20
125.7089207988
 30
0.0
  0
SPLINE
  5
332
100
AcDbEntity
  8
0
100
AcDbSpline
 62
7
  6
CONTINUOUS
 70
0
 71
3
 72
15
 73
11
 74
0
 42
0.0000001
 43
0.0000001
 44
0.0000000001
 40
0.0
 40
0.0
 40
0.0
 40
0.0
 40
0.1181846392
 40
0.2438752718
 40
0.3759112429
 40
0.5104214115
 40
0.6425867026
 40
0.768495192
 40
0.8868565328
 40
1.0
 40
1.0
 40
1.0
 40
1.0
 10
-104.0174404338
 20
228.3755034254
 30
0.0
 10
-104.313063905
 20
228.2962599332
 30
0.0
 10
-104.8931418394
 20
228.0036258168
 30
0.0
 10
-105.5653796946
 20
227.2761355047
 30
0.0
 10
-105.9993578301
 20
226.3406565918
 30
0.0
 10
-106.1485237609
 20
225.3043883837
 30
0.0
 10
-105.9969294116
 20
224.2836983497
 30
0.0
 10
-105.5562147859
 20
223.3939218051
 30
0.0
 10
-104.8684746239
 20
222.7428312859
 30
0.0
 10
-104.2865546146
 20
222.5286232887
 30
0.0
 10
-103.9963835039
 20
222.4879699501
 30
0.0
  0
SPLINE
  5
333
100
AcDbEntity
  8
0
100
AcDbSpline
 62
7
  6
CONTINUOUS
 70
0
 71
3
 72
15
 73
11
 74
0
 42
0.0000001
 43
0.0000001
 44
0.0000000001
 40
0.0
 40
0.0
 40
0.0
 40
0.0
 40
0.1181846392
 40
0.2438752718
 40
0.3759112429
 40
0.5104214115
 40
0.6425867026
 40
0.768495192
 40
0.8868565328
 40
1.0
 40
1.0
 40
1.0
 40
1.0
 10
-90.9027174476
 20
140.879868841
 30
0.0
 10
-91.1983409188
 20
140.8006253488
 30
0.0
 10
-91.7784188531
 20
140.5079912324
 30
0.0
 10
-92.4506567083
 20
139.7805009204
 30
0.0
 10
-92.8846348438
 20
138.8450220074
 30
0.0
 10
-93.0338007747
 20
137.8087537993
 30
0.0
 10
-92.8822064253
 20
136.7880637653
 30
0.0
 10
-92.4414917996
 20
135.8982872207
 30
0.0
 10
-91.7537516376
 20
135.2471967015
 30
0.0
 10
-91.1718316284
 20
135.0329887043
 30
0.0
 10
-90.8816605176
 20
134.9923353657
 30
0.0
  0
SPLINE
  5
334
100
AcDbEntity
  8
0
100
AcDbSpline
 62
7
  6
CONTINUOUS
 70
0
 71
3
 72
11
 73
7
 74
0
 42
0.0000001
 43
0.0000001
 44
0.0000000001
 40
0.0
 40
0.0
 40
0.0
 40
0.0
 40
0.2639929115
 40
0.5191552408
 40
0.7642346346
 40
1.0
 40
1.0
 40
1.0
 40
1.0
 10
-101.4101340326
 20
132.3163113145
 30
0.0
 10
-101.3228102475
 20
131.7337256207
 30
0.0
 10
-101.0389461171
 20
130.6010562045
 30
0.0
 10
-100.2857219136
 20
129.0566081588
 30
0.0
 10
-99.2464070585
 20
127.7663659342
 30
0.0
 10
-98.3795067716
 20
127.1109826253
 30
0.0
 10
-97.9213817715
 20
126.8523174427
 30
0.0
  0
SPLINE
  5
335
100
AcDbEntity
  8
0
100
AcDbSpline
 62
7
  6
CONTINUOUS
 70
0
 71
3
 72
9
 73
5
 74
0
 42
0.0000001
 43
0.0000001
 44
0.0000000001
 40
0.0
 40
0.0
 40
0.0
 40
0.0
 40
0.5026731844
 40
1.0
 40
1.0
 40
1.0
 40
1.0
 10
-97.9213817715
 20
126.8523174427
 30
0.0
 10
-97.6096609143
 20
126.6763145342
 30
0.0
 10
-96.9562815728
 20
126.3816703347
 30
0.0
 10
-96.2589056967
 20
126.2150447842
 30
0.0
 10
-95.9081612543
 20
126.1659139393
 30
0.0
  0
SPLINE
  5
336
100
AcDbEntity
  8
0
100
AcDbSpline
 62
7
  6
CONTINUOUS
 70
0
 71
3
 72
12
 73
8
 74
0
 42
0.0000001
 43
0.0000001
 44
0.0000000001
 40
0.0
 40
0.0
 40
0.0
 40
0.0
 40
0.1141465032
 40
0.2321738583
 40
0.4794960043
 40
0.7389461754
 40
1.0
 40
1.0
 40
1.0
 40
1.0
 10
-110.2447928519
 20
237.1389930957
 30
0.0
 10
-110.6828785166
 20
237.0215618314
 30
0.0
 10
-111.5492615984
 20
236.6796671608
 30
0.0
 10
-113.1451257277
 20
235.6183319933
 30
0.0
 10
-114.7570850536
 20
233.6480990794
 30
0.0
 10
-115.8003980856
 20
230.7274267234
 30
0.0
 10
-115.8443698074
 20
228.6151519517
 30
0.0
 10
-115.6906101732
 20
227.5893356397
 30
0.0
  0
SPLINE
  5
337
100
AcDbEntity
  8
0
100
AcDbSpline
 62
7
  6
CONTINUOUS
 70
0
 71
3
 72
9
 73
5
 74
0
 42
0.0000001
 43
0.0000001
 44
0.0000000001
 40
0.0
 40
0.0
 40
0.0
 40
0.0
 40
0.2558048397
 40
1.0
 40
1.0
 40
1.0
 40
1.0
 10
-114.7627339742
 20
206.9075199247
 30
0.0
 10
-115.064633727
 20
205.8108979971
 30
0.0
 10
-116.1093721297
 20
201.4885260192
 30
0.0
 10
-116.6006138091
 20
197.0267650971
 30
0.0
 10
-116.6006138091
 20
193.7177499666
 30
0.0
  0
SPLINE
  5
338
100
AcDbEntity
  8
0
100
AcDbSpline
 62
7
  6
CONTINUOUS
 70
0
 71
3
 72
11
 73
7
 74
0
 42
0.0000001
 43
0.0000001
 44
0.0000000001
 40
0.0
 40
0.0
 40
0.0
 40
0.0
 40
0.2662177478
 40
0.5212434588
 40
0.7653530249
 40
1.0
 40
1.0
 40
1.0
 40
1.0
 10
-116.6006138091
 20
193.7177499666
 30
0.0
 10
-116.6006138091
 20
191.6197389816
 30
0.0
 10
-116.3132880328
 20
187.5043921733
 30
0.0
 10
-114.9652210856
 20
181.5989570469
 30
0.0
 10
-112.7380885084
 20
176.2312363105
 30
0.0
 10
-110.6614738725
 20
173.0482644947
 30
0.0
 10
-109.5005753624
 20
171.6088604248
 30
0.0
  0
SPLINE
  5
339
100
AcDbEntity
  8
0
100
AcDbSpline
 62
7
  6
CONTINUOUS
 70
0
 71
3
 72
11
 73
7
 74
0
 42
0.0000001
 43
0.0000001
 44
0.0000000001
 40
0.0
 40
0.0
 40
0.0
 40
0.0
 40
0.2353608638
 40
0.4799005384
 40
0.734736669
 40
1.0
 40
1.0
 40
1.0
 40
1.0
 10
4.1225344096
 20
204.1605054967
 30
0.0
 10
5.1803931013
 20
202.7105072054
 30
0.0
 10
7.0654540632
 20
199.5471088409
 30
0.0
 10
9.0830244394
 20
194.2943668743
 30
0.0
 10
10.3028461127
 20
188.5701761999
 30
0.0
 10
10.5635509217
 20
184.5975707564
 30
0.0
 10
10.5635509217
 20
182.5746629722
 30
0.0
  0
SPLINE
  5
33A
100
AcDbEntity
  8
0
100
AcDbSpline
 62
7
  6
CONTINUOUS
 70
0
 71
3
 72
11
 73
7
 74
0
 42
0.0000001
 43
0.0000001
 44
0.0000000001
 40
0.0
 40
0.0
 40
0.0
 40
0.0
 40
0.2651267713
 40
0.5199428833
 40
0.7645243567
 40
1.0
 40
1.0
 40
1.0
 40
1.0
 10
-75.9295911339
 20
162.881583211
 30
0.0
 10
-75.8868429311
 20
160.2984597815
 30
0.0
 10
-75.4553902638
 20
155.2297026149
 30
0.0
 10
-73.7122028715
 20
147.956143949
 30
0.0
 10
-70.9230884852
 20
141.3251938008
 30
0.0
 10
-68.3597481921
 20
137.3747671869
 30
0.0
 10
-66.9311293646
 20
135.5792182685
 30
0.0
  0
SPLINE
  5
33B
100
AcDbEntity
  8
0
100
AcDbSpline
 62
7
  6
CONTINUOUS
 70
0
 71
3
 72
12
 73
8
 74
0
 42
0.0000001
 43
0.0000001
 44
0.0000000001
 40
0.0
 40
0.0
 40
0.0
 40
0.0
 40
0.2508278282
 40
0.3782269322
 40
0.5057345808
 40
0.7574046625
 40
1.0
 40
1.0
 40
1.0
 40
1.0
 10
-54.9849979393
 20
211.9304955142
 30
0.0
 10
-58.2836802478
 20
208.7601059618
 30
0.0
 10
-62.7641356835
 20
203.4319264917
 30
0.0
 10
-67.6029281674
 20
195.5664344263
 30
0.0
 10
-71.6546037683
 20
187.2464584882
 30
0.0
 10
-75.0977015
 20
176.3595423636
 30
0.0
 10
-76.0028115744
 20
167.3060366994
 30
0.0
 10
-75.9295911339
 20
162.881583211
 30
0.0
  0
SPLINE
  5
33C
100
AcDbEntity
  8
0
100
AcDbSpline
 62
7
  6
CONTINUOUS
 70
0
 71
3
 72
14
 73
10
 74
0
 42
0.0000001
 43
0.0000001
 44
0.0000000001
 40
0.0
 40
0.0
 40
0.0
 40
0.0
 40
0.1052579527
 40
0.2158711715
 40
0.3350320969
 40
0.4630268614
 40
0.5976693619
 40
0.7352038426
 40
1.0
 40
1.0
 40
1.0
 40
1.0
 10
-29.2512161277
 20
128.6194712369
 30
0.0
 10
-28.9456924474
 20
128.4430053171
 30
0.0
 10
-28.2450341763
 20
128.1973658819
 30
0.0
 10
-27.102794597
 20
128.2149964344
 30
0.0
 10
-25.9486311382
 20
128.5948872309
 30
0.0
 10
-24.8652075785
 20
129.2985424761
 30
0.0
 10
-23.9258929564
 20
130.2725294548
 30
0.0
 10
-22.9697844914
 20
131.8055485098
 30
0.0
 10
-22.6182684018
 20
133.169176884
 30
0.0
 10
-22.6182684018
 20
134.0567725383
 30
0.0
  0
SPLINE
  5
33D
100
AcDbEntity
  8
0
100
AcDbSpline
 62
7
  6
CONTINUOUS
 70
0
 71
3
 72
11
 73
7
 74
0
 42
0.0000001
 43
0.0000001
 44
0.0000000001
 40
0.0
 40
0.0
 40
0.0
 40
0.0
 40
0.233633584
 40
0.4758467542
 40
0.7314152315
 40
1.0
 40
1.0
 40
1.0
 40
1.0
 10
-92.6451737535
 20
125.7089207988
 30
0.0
 10
-93.3246813532
 20
125.8041034401
 30
0.0
 10
-94.6838658776
 20
126.2631485491
 30
0.0
 10
-96.3783237029
 20
127.647905211
 30
0.0
 10
-97.6017319055
 20
129.5771734366
 30
0.0
 10
-98.0302213779
 20
131.0792452323
 30
0.0
 10
-98.1471465318
 20
131.859318174
 30
0.0
  0
SPLINE
  5
33E
100
AcDbEntity
  8
0
100
AcDbSpline
 62
7
  6
CONTINUOUS
 70
0
 71
3
 72
12
 73
8
 74
0
 42
0.0000001
 43
0.0000001
 44
0.0000000001
 40
0.0
 40
0.0
 40
0.0
 40
0.0
 40
0.2610538246
 40
0.5205039957
 40
0.7678261417
 40
0.8858534968
 40
1.0
 40
1.0
 40
1.0
 40
1.0
 10
-112.4276226724
 20
227.1323424992
 30
0.0
 10
-112.5813823066
 20
228.1581588112
 30
0.0
 10
-112.5374105848
 20
230.2704335828
 30
0.0
 10
-111.4940975528
 20
233.1911059389
 30
0.0
 10
-109.8821382269
 20
235.1613388528
 30
0.0
 10
-108.2862740976
 20
236.2226740203
 30
0.0
 10
-107.4198910158
 20
236.5645686909
 30
0.0
 10
-106.9818053511
 20
236.6819999552
 30
0.0
  0
SPLINE
  5
33F
100
AcDbEntity
  8
0
100
AcDbSpline
 62
7
  6
CONTINUOUS
 70
0
 71
3
 72
11
 73
7
 74
0
 42
0.0000001
 43
0.0000001
 44
0.0000000001
 40
0.0
 40
0.0
 40
0.0
 40
0.0
 40
0.2367801156
 40
0.4795189648
 40
0.733045219
 40
1.0
 40
1.0
 40
1.0
 40
1.0
 10
-30.8767107378
 20
125.8051587881
 30
0.0
 10
-31.2217453919
 20
126.0044408169
 30
0.0
 10
-31.8719025998
 20
126.4989982527
 30
0.0
 10
-32.6486527229
 20
127.471695934
 30
0.0
 10
-33.2064203263
 20
128.6396111154
 30
0.0
 10
-33.4155176482
 20
129.4968146101
 30
0.0
 10
-33.4822888094
 20
129.9410518502
 30
0.0
  0
SPLINE
  5
340
100
AcDbEntity
  8
0
100
AcDbSpline
 62
7
  6
CONTINUOUS
 70
0
 71
3
 72
11
 73
7
 74
0
 42
0.0000001
 43
0.0000001
 44
0.0000000001
 40
0.0
 40
0.0
 40
0.0
 40
0.0
 40
0.2672654304
 40
0.5224660055
 40
0.7660710176
 40
1.0
 40
1.0
 40
1.0
 40
1.0
 10
7.8776004161
 20
181.8546792129
 30
0.0
 10
7.8776004161
 20
183.9901465804
 30
0.0
 10
7.5655062111
 20
188.1735937974
 30
0.0
 10
6.096697238
 20
194.1471348281
 30
0.0
 10
3.6732733803
 20
199.5142508684
 30
0.0
 10
1.4199533099
 20
202.6341069443
 30
0.0
 10
0.1666501625
 20
204.0207548793
 30
0.0
  0
SPLINE
  5
341
100
AcDbEntity
  8
0
100
AcDbSpline
 62
7
  6
CONTINUOUS
 70
0
 71
3
 72
15
 73
11
 74
0
 42
0.0000001
 43
0.0000001
 44
0.0000000001
 40
0.0
 40
0.0
 40
0.0
 40
0.0
 40
0.1181846392
 40
0.2438752718
 40
0.3759112429
 40
0.5104214115
 40
0.6425867026
 40
0.768495192
 40
0.8868565328
 40
1.0
 40
1.0
 40
1.0
 40
1.0
 10
-103.1431255681
 20
222.5424611198
 30
0.0
 10
-102.8475020969
 20
222.6217046121
 30
0.0
 10
-102.2674241625
 20
222.9143387285
 30
0.0
 10
-101.5951863074
 20
223.6418290405
 30
0.0
 10
-101.1612081718
 20
224.5773079534
 30
0.0
 10
-101.012042241
 20
225.6135761616
 30
0.0
 10
-101.1636365903
 20
226.6342661955
 30
0.0
 10
-101.6043512161
 20
227.5240427401
 30
0.0
 10
-102.2920913781
 20
228.1751332593
 30
0.0
 10
-102.8740113873
 20
228.3893412566
 30
0.0
 10
-103.164182498
 20
228.4299945952
 30
0.0
  0
SPLINE
  5
342
100
AcDbEntity
  8
0
100
AcDbSpline
 62
7
  6
CONTINUOUS
 70
0
 71
3
 72
19
 73
15
 74
0
 42
0.0000001
 43
0.0000001
 44
0.0000000001
 40
0.0
 40
0.0
 40
0.0
 40
0.0
 40
0.0577516932
 40
0.1169130449
 40
0.1775404786
 40
0.2395833933
 40
0.3670572177
 40
0.4976613115
 40
0.6287783345
 40
0.757565878
 40
0.820407188
 40
0.8818180448
 40
0.9416795147
 40
1.0
 40
1.0
 40
1.0
 40
1.0
 10
-80.7861933602
 20
151.991793113
 30
0.0
 10
-82.2755429282
 20
153.1358188602
 30
0.0
 10
-85.1126588455
 20
155.6923821977
 30
0.0
 10
-88.80456727
 20
160.154515478
 30
0.0
 10
-91.9259061875
 20
165.1979535242
 30
0.0
 10
-95.2882296983
 20
172.6253589104
 30
0.0
 10
-97.7911567782
 20
182.8390801617
 30
0.0
 10
-97.9650109831
 20
195.5963079915
 30
0.0
 10
-95.3250319008
 20
208.1239315127
 30
0.0
 10
-90.8298832632
 20
217.7314012152
 30
0.0
 10
-85.9883445298
 20
224.4096724555
 30
0.0
 10
-81.8477072489
 20
228.76142126
 30
0.0
 10
-77.2490646536
 20
232.3930994889
 30
0.0
 10
-73.892319957
 20
234.3022813798
 30
0.0
 10
-72.1733400848
 20
235.1034560386
 30
0.0
  0
SPLINE
  5
343
100
AcDbEntity
  8
0
100
AcDbSpline
 62
7
  6
CONTINUOUS
 70
0
 71
3
 72
13
 73
9
 74
0
 42
0.0000001
 43
0.0000001
 44
0.0000000001
 40
0.0
 40
0.0
 40
0.0
 40
0.0
 40
0.1158149829
 40
0.232733735
 40
0.3517716132
 40
0.4737829019
 40
0.7285691712
 40
1.0
 40
1.0
 40
1.0
 40
1.0
 10
-49.3322541968
 20
133.4753349837
 30
0.0
 10
-50.4726797889
 20
134.1340514113
 30
0.0
 10
-52.667209523
 20
135.6346527542
 30
0.0
 10
-55.6030775472
 20
138.37223608
 30
0.0
 10
-58.1525547259
 20
141.5640748779
 30
0.0
 10
-61.0308437593
 20
146.43107018
 30
0.0
 10
-63.4656848127
 20
153.4761971737
 30
0.0
 10
-64.0645508195
 20
159.4836021244
 30
0.0
 10
-64.0645508195
 20
162.5701911385
 30
0.0
  0
SPLINE
  5
344
100
AcDbEntity
  8
0
100
AcDbSpline
 62
7
  6
CONTINUOUS
 70
0
 71
3
 72
11
 73
7
 74
0
 42
0.0000001
 43
0.0000001
 44
0.0000000001
 40
0.0
 40
0.0
 40
0.0
 40
0.0
 40
0.2694611257
 40
0.5248588991
 40
0.7672535739
 40
1.0
 40
1.0
 40
1.0
 40
1.0
 10
-65.4720896681
 20
163.383159437
 30
0.0
 10
-65.4720896681
 20
160.7417748877
 30
0.0
 10
-65.030470808
 20
155.5817521792
 30
0.0
 10
-62.9375848043
 20
148.3037013714
 30
0.0
 10
-59.494269484
 20
141.9565107043
 30
0.0
 10
-56.3212855199
 20
138.4692256499
 30
0.0
 10
-54.5808069364
 20
136.9941222375
 30
0.0
  0
SPLINE
  5
345
100
AcDbEntity
  8
0
100
AcDbSpline
 62
7
  6
CONTINUOUS
 70
0
 71
3
 72
11
 73
7
 74
0
 42
0.0000001
 43
0.0000001
 44
0.0000000001
 40
0.0
 40
0.0
 40
0.0
 40
0.0
 40
0.2483341623
 40
0.5037232139
 40
0.7571335404
 40
1.0
 40
1.0
 40
1.0
 40
1.0
 10
-42.5858967896
 20
207.7974424626
 30
0.0
 10
-46.0296626437
 20
205.268405855
 30
0.0
 10
-52.3820801682
 20
199.23301956
 30
0.0
 10
-59.6414572221
 20
188.2949672564
 30
0.0
 10
-64.3137848128
 20
176.1257480621
 30
0.0
 10
-65.4720896681
 20
167.5617375799
 30
0.0
 10
-65.4720896681
 20
163.383159437
 30
0.0
  0
SPLINE
  5
346
100
AcDbEntity
  8
0
100
AcDbSpline
 62
7
  6
CONTINUOUS
 70
0
 71
3
 72
11
 73
7
 74
0
 42
0.0000001
 43
0.0000001
 44
0.0000000001
 40
0.0
 40
0.0
 40
0.0
 40
0.0
 40
0.243046232
 40
0.4966716726
 40
0.7520709057
 40
1.0
 40
1.0
 40
1.0
 40
1.0
 10
-64.0645508195
 20
162.5701911385
 30
0.0
 10
-64.0645508195
 20
166.8018496822
 30
0.0
 10
-62.8766351996
 20
175.4755985904
 30
0.0
 10
-58.0928530122
 20
187.7789116719
 30
0.0
 10
-50.6722761066
 20
198.7972931236
 30
0.0
 10
-44.1857011048
 20
204.8374553981
 30
0.0
 10
-40.675114227
 20
207.3493175241
 30
0.0
  0
SPLINE
  5
347
100
AcDbEntity
  8
0
100
AcDbSpline
 62
7
  6
CONTINUOUS
 70
0
 71
3
 72
11
 73
7
 74
0
 42
0.0000001
 43
0.0000001
 44
0.0000000001
 40
0.0
 40
0.0
 40
0.0
 40
0.0
 40
0.2415146301
 40
0.4931126876
 40
0.7483240879
 40
1.0
 40
1.0
 40
1.0
 40
1.0
 10
-73.1993626612
 20
161.311821545
 30
0.0
 10
-73.1993626612
 20
165.7593831184
 30
0.0
 10
-72.1128203079
 20
174.8627730911
 30
0.0
 10
-67.6616413919
 20
187.9973987353
 30
0.0
 10
-60.6481245925
 20
200.1752226039
 30
0.0
 10
-54.4502816585
 20
207.2556176837
 30
0.0
 10
-51.0470380068
 20
210.4017634496
 30
0.0
  0
SPLINE
  5
348
100
AcDbEntity
  8
0
100
AcDbSpline
 62
7
  6
CONTINUOUS
 70
0
 71
3
 72
11
 73
7
 74
0
 42
0.0000001
 43
0.0000001
 44
0.0000000001
 40
0.0
 40
0.0
 40
0.0
 40
0.0
 40
0.2348411039
 40
0.4790635009
 40
0.7340376926
 40
1.0
 40
1.0
 40
1.0
 40
1.0
 10
-64.6894625443
 20
134.2844359146
 30
0.0
 10
-66.0826694608
 20
136.0598266692
 30
0.0
 10
-68.5721783623
 20
139.9705036172
 30
0.0
 10
-71.2402975915
 20
146.5365572424
 30
0.0
 10
-72.8549916308
 20
153.7410417136
 30
0.0
 10
-73.1993626612
 20
158.7559770267
 30
0.0
 10
-73.1993626612
 20
161.311821545
 30
0.0
  0
SPLINE
  5
349
100
AcDbEntity
  8
0
100
AcDbSpline
 62
7
  6
CONTINUOUS
 70
0
 71
3
 72
15
 73
11
 74
0
 42
0.0000001
 43
0.0000001
 44
0.0000000001
 40
0.0
 40
0.0
 40
0.0
 40
0.0
 40
0.1181846392
 40
0.2438752718
 40
0.3759112429
 40
0.5104214115
 40
0.6425867026
 40
0.768495192
 40
0.8868565328
 40
1.0
 40
1.0
 40
1.0
 40
1.0
 10
-90.0284025818
 20
135.0468265354
 30
0.0
 10
-89.7327791106
 20
135.1260700277
 30
0.0
 10
-89.1527011762
 20
135.4187041441
 30
0.0
 10
-88.4804633211
 20
136.1461944561
 30
0.0
 10
-88.0464851856
 20
137.081673369
 30
0.0
 10
-87.8973192547
 20
138.1179415772
 30
0.0
 10
-88.048913604
 20
139.1386316111
 30
0.0
 10
-88.4896282298
 20
140.0284081557
 30
0.0
 10
-89.1773683918
 20
140.6794986749
 30
0.0
 10
-89.759288401
 20
140.8937066722
 30
0.0
 10
-90.0494595117
 20
140.9343600108
 30
0.0
  0
SPLINE
  5
34A
100
AcDbEntity
  8
0
100
AcDbSpline
 62
7
  6
CONTINUOUS
 70
0
 71
3
 72
14
 73
10
 74
0
 42
0.0000001
 43
0.0000001
 44
0.0000000001
 40
0.0
 40
0.0
 40
0.0
 40
0.0
 40
0.1173840776
 40
0.2398121865
 40
0.3662027215
 40
0.4950596865
 40
0.6246632338
 40
0.7532258253
 40
1.0
 40
1.0
 40
1.0
 40
1.0
 10
-22.6182700545
 20
135.4352213525
 30
0.0
 10
-20.4920636086
 20
136.2894349812
 30
0.0
 10
-16.2989225332
 20
138.4292012997
 30
0.0
 10
-10.50984806
 20
142.6674835529
 30
0.0
 10
-5.2510024032
 20
147.8716961978
 30
0.0
 10
-0.6918850807
 20
153.8717792713
 30
0.0
 10
3.0241258994
 20
160.4802662581
 30
0.0
 10
6.6403659812
 20
169.6675482044
 30
0.0
 10
7.8776004161
 20
177.0375516126
 30
0.0
 10
7.8776004161
 20
181.8546792129
 30
0.0
  0
SPLINE
  5
34B
100
AcDbEntity
  8
0
100
AcDbSpline
 62
7
  6
CONTINUOUS
 70
0
 71
3
 72
11
 73
7
 74
0
 42
0.0000001
 43
0.0000001
 44
0.0000000001
 40
0.0
 40
0.0
 40
0.0
 40
0.0
 40
0.242831931
 40
0.4887090385
 40
0.7403879286
 40
1.0
 40
1.0
 40
1.0
 40
1.0
 10
-47.7067633088
 20
136.2896411217
 30
0.0
 10
-46.4872747666
 20
135.5853180924
 30
0.0
 10
-43.9029902187
 20
134.3808861453
 30
0.0
 10
-39.7373658255
 20
133.2601344436
 30
0.0
 10
-35.3478307269
 20
132.8366251838
 30
0.0
 10
-32.3749056678
 20
133.0194045622
 30
0.0
 10
-30.8827298464
 20
133.2198875948
 30
0.0
  0
SPLINE
  5
34C
100
AcDbEntity
  8
0
100
AcDbSpline
 62
7
  6
CONTINUOUS
 70
0
 71
3
 72
10
 73
6
 74
0
 42
0.0000001
 43
0.0000001
 44
0.0000000001
 40
0.0
 40
0.0
 40
0.0
 40
0.0
 40
0.5147441121
 40
0.7595786773
 40
1.0
 40
1.0
 40
1.0
 40
1.0
 10
-34.7187021801
 20
129.9390578853
 30
0.0
 10
-34.5285345718
 20
129.2421951136
 30
0.0
 10
-34.0732355778
 20
128.2427867921
 30
0.0
 10
-33.1313311126
 20
127.1922809596
 30
0.0
 10
-32.5764057166
 20
126.78686803
 30
0.0
 10
-32.2842495658
 20
126.6181271209
 30
0.0
  0
SPLINE
  5
34D
100
AcDbEntity
  8
0
100
AcDbSpline
 62
7
  6
CONTINUOUS
 70
0
 71
3
 72
9
 73
5
 74
0
 42
0.0000001
 43
0.0000001
 44
0.0000000001
 40
0.0
 40
0.0
 40
0.0
 40
0.0
 40
0.7472685732
 40
1.0
 40
1.0
 40
1.0
 40
1.0
 10
-90.8816605176
 20
134.9923353657
 30
0.0
 10
-90.6699573962
 20
134.9626754913
 30
0.0
 10
-90.3779525885
 20
134.9674651974
 30
0.0
 10
-90.0982359488
 20
135.0281073185
 30
0.0
 10
-90.0284025818
 20
135.0468265354
 30
0.0
  0
SPLINE
  5
34E
100
AcDbEntity
  8
0
100
AcDbSpline
 62
7
  6
CONTINUOUS
 70
0
 71
3
 72
9
 73
5
 74
0
 42
0.0000001
 43
0.0000001
 44
0.0000000001
 40
0.0
 40
0.0
 40
0.0
 40
0.0
 40
0.7472685732
 40
1.0
 40
1.0
 40
1.0
 40
1.0
 10
-103.9963835039
 20
222.4879699501
 30
0.0
 10
-103.7846803825
 20
222.4583100757
 30
0.0
 10
-103.4926755748
 20
222.4630997818
 30
0.0
 10
-103.2129589351
 20
222.5237419029
 30
0.0
 10
-103.1431255681
 20
222.5424611198
 30
0.0
  0
ENDSEC
  0
SECTION
  2
OBJECTS
  0
DICTIONARY
  5
C
100
AcDbDictionary
280
0
281
1
  3
ACAD_GROUP
350
D
  3
ACAD_MLINESTYLE
350
17
  3
ACAD_LAYOUT
350
1A
  3
ACAD_PLOTSETTINGS
350
19
  3
ACAD_PLOTSTYLENAME
350
E
  0
DICTIONARY
  5
D
102
{ACAD_REACTORS
330
C
102
}
100
AcDbDictionary
280
0
281
1
  0
ACDBDICTIONARYWDFLT
  5
E
102
{ACAD_REACTORS
330
C
102
}
100
AcDbDictionary
281
1
  3
Normal
350
F
100
AcDbDictionaryWithDefault
340
F
  0
DICTIONARY
  5
17
102
{ACAD_REACTORS
330
C
102
}
100
AcDbDictionary
280
0
281
1
  3
Standard
350
18
  0
DICTIONARY
  5
19
102
{ACAD_REACTORS
330
C
102
}
100
AcDbDictionary
281
1
  0
DICTIONARY
  5
1A
102
{ACAD_REACTORS
330
C
102
}
100
AcDbDictionary
281
1
  3
Model
350
34F
  3
Layout1
350
350
  0
ACDBPLACEHOLDER
  5
F
102
{ACAD_REACTORS
330
E
102
}
  0
MLINESTYLE
  5
18
102
{ACAD_REACTORS
330
17
102
}
100
AcDbMlineStyle
  2
STANDARD
 70
0
  3

 62
256
 51
90.0
 52
90.0
 71
2
 49
0.5
 62
256
  6
BYLAYER
 49
-0.5
 62
256
  6
BYLAYER
  0
LAYOUT
  5
34F
102
{ACAD_REACTORS
330
1A
102
}
100
AcDbPlotSettings
  1

  2
none_device
  4
ANSI_C_(22.00_x_17.00_Inches)
  6

 40
0.0
 41
0.0
 42
0.0
 43
0.0
 44
558.8
 45
431.8
 46
0.0
 47
0.0
 48
0.0
 49
0.0
140
0.0
141
0.0
142
1.0
143
1.0
 70
1024
 72
1
 73
0
 74
0
  7

 75
0
147
1.0
148
0.0
149
0.0
100
AcDbLayout
  1
Model
 70
0
 71
0
 10
0.0
 20
0.0
 11
558.8
 21
431.8
 12
0.0
 22
0.0
 32
0.0
 14
0.0
 24
0.0
 34
0.0
 15
0.0
 25
0.0
 35
0.0
146
0.0
 13
0.0
 23
0.0
 33
0.0
 16
1.0
 26
0.0
 36
0.0
 17
0.0
 27
1.0
 37
0.0
 76
0
330
216
345
0
346
0
  0
LAYOUT
  5
350
102
{ACAD_REACTORS
330
1A
102
}
100
AcDbPlotSettings
  1

  2
none_device
  4
ANSI_C_(22.00_x_17.00_Inches)
  6

 40
0.0
 41
0.0
 42
0.0
 43
0.0
 44
558.8
 45
431.8
 46
0.0
 47
0.0
 48
0.0
 49
0.0
140
0.0
141
0.0
142
1.0
143
1.0
 70
0
 72
1
 73
0
 74
0
  7

 75
0
147
1.0
148
0.0
149
0.0
100
AcDbLayout
  1
Layout1
 70
0
 71
1
 10
0.0
 20
0.0
 11
558.8
 21
431.8
 12
0.0
 22
0.0
 32
0.0
 14
0.0
 24
0.0
 34
0.0
 15
0.0
 25
0.0
 35
0.0
146
0.0
 13
0.0
 23
0.0
 33
0.0
 16
1.0
 26
0.0
 36
0.0
 17
0.0
 27
1.0
 37
0.0
 76
0
330
217
345
0
346
0
  0
ENDSEC
  0
EOF
