999
DXF file: Y:\3D PRATIKA-KAEDRA_OLGA\TRAVAIL_PHASE_10\CAD3D\81378_3D-Simplified\81378_2D-isometric.dxf
999
Pro/ENGINEER 2018260 by Parametric Technology Corporation
  0
SECTION
  2
HEADER
  9
$ACADVER
  1
AC1027
  9
$DWGCODEPAGE
  3
ANSI_1252
  9
$EXTMAX
 10
558.8
 20
431.8
 30
0.0
  9
$EXTMIN
 10
0.0
 20
0.0
 30
0.0
  9
$LIMMIN
 10
0.0
 20
0.0
  9
$LIMMAX
 10
558.8
 20
431.8
  9
$VIEWCTR
 10
279.4
 20
215.9
  9
$VIEWSIZE
 40
431.8
  9
$CLAYER
  8
0
  9
$LTSCALE
 40
30.734
  9
$CELTYPE
  6
BYLAYER
  9
$DIMSCALE
 40
1.0
  9
$DIMASZ
 40
0.1875
  9
$DIMEXO
 40
0.0625
  9
$DIMDLI
 40
21.2344
  9
$DIMEXE
 40
0.125
  9
$DIMCEN
 40
5.0292
  9
$DIMLFAC
 40
1.0
  9
$DIMBLK
  1
_CLOSED
  9
$DIMALT
 70
0
  9
$DIMALTF
 40
0.0393700787
  9
$DIMTXT
 40
0.15625
  9
$DIMTOL
 70
0
  9
$DIMLIM
 70
0
  9
$DIMTFAC
 40
1.0
  9
$DIMGAP
 40
0.625
  9
$DIMDSEP
 70
46
  9
$AUNITS
 70
0
  9
$PDMODE
 70
3
  9
$PDSIZE
 40
0.3125
  9
$HANDSEED
  5
33F
  9
$TILEMODE
 70
1
  9
$MEASUREMENT
 70
1
  9
$INSUNITS
 70
4
  0
ENDSEC
  0
SECTION
  2
CLASSES
  0
CLASS
  1
ACDBDICTIONARYWDFLT
  2
AcDbDictionaryWithDefault
  3
AutoCAD 2000
 90
0
 91
1
280
0
281
0
  0
CLASS
  1
ACDBPLACEHOLDER
  2
AcDbPlaceHolder
  3
AutoCAD 2000
 90
0
 91
1
280
0
281
0
  0
CLASS
  1
LAYOUT
  2
AcDbLayout
  3
AutoCAD 2000
 90
0
 91
0
280
0
281
0
  0
ENDSEC
  0
SECTION
  2
TABLES
  0
TABLE
  2
VPORT
  5
8
100
AcDbSymbolTable
 70
2
  0
VPORT
  5
1F4
100
AcDbSymbolTableRecord
100
AcDbViewportTableRecord
  2
*ACTIVE
 70
0
 10
0.0
 20
0.0
 11
1.0
 21
1.0
 12
279.4
 22
215.9
 13
0.0
 23
0.0
 14
1.0
 24
1.0
 15
0.0
 25
0.0
 16
0.0
 26
0.0
 36
1.0
 17
0.0
 27
0.0
 37
0.0
 40
431.8
 41
1.2941176471
 42
50.0
 43
0.0
 44
0.0
 50
0.0
 51
0.0
 71
0
 72
100
 73
1
 74
1
 75
0
 76
0
 77
0
 78
0
  0
ENDTAB
  0
TABLE
  2
LTYPE
  5
5
100
AcDbSymbolTable
 70
6
  0
LTYPE
  5
14
100
AcDbSymbolTableRecord
100
AcDbLinetypeTableRecord
  2
BYBLOCK
 70
0
  3

 72
65
 73
0
 40
0.0
  0
LTYPE
  5
15
100
AcDbSymbolTableRecord
100
AcDbLinetypeTableRecord
  2
BYLAYER
 70
0
  3

 72
65
 73
0
 40
0.0
  0
LTYPE
  5
16
100
AcDbSymbolTableRecord
100
AcDbLinetypeTableRecord
  2
CONTINUOUS
 70
64
  3
Solid line
 72
65
 73
0
 40
0.0
  0
LTYPE
  5
1F5
100
AcDbSymbolTableRecord
100
AcDbLinetypeTableRecord
  2
CENTER
 70
64
  3
____ _ ____ _ ____ _ ____ _ ____ _ ____ _ ____
 72
65
 73
4
 40
0.6
 49
0.375
 74
0
 49
-0.075
 74
0
 49
0.075
 74
0
 49
-0.075
 74
0
  0
LTYPE
  5
1F6
100
AcDbSymbolTableRecord
100
AcDbLinetypeTableRecord
  2
HIDDEN
 70
64
  3
- - - - - - - - - - - - - - - - - - - -
 72
65
 73
2
 40
0.2
 49
0.1
 74
0
 49
-0.1
 74
0
  0
LTYPE
  5
1F7
100
AcDbSymbolTableRecord
100
AcDbLinetypeTableRecord
  2
PHANTOM
 70
64
  3
_____ _ _ _____ _ _ _____ _ _ _____
 72
65
 73
6
 40
0.8
 49
0.45
 74
0
 49
-0.05
 74
0
 49
0.1
 74
0
 49
-0.05
 74
0
 49
0.1
 74
0
 49
-0.05
 74
0
  0
LTYPE
  5
1F8
100
AcDbSymbolTableRecord
100
AcDbLinetypeTableRecord
  2
DOT
 70
64
  3
. . . . . . . . . . . . . . . . . . . .
 72
65
 73
2
 40
0.2
 49
0.1
 74
0
 49
-0.1
 74
0
  0
LTYPE
  5
1F9
100
AcDbSymbolTableRecord
100
AcDbLinetypeTableRecord
  2
DASHED
 70
64
  3
- - - - - - - - - - - - - - - - - - - -
 72
65
 73
2
 40
0.2
 49
0.1
 74
0
 49
-0.1
 74
0
  0
ENDTAB
  0
TABLE
  2
LAYER
  5
2
100
AcDbSymbolTable
 70
36
  0
LAYER
  5
10
100
AcDbSymbolTableRecord
100
AcDbLayerTableRecord
  2
0
 70
0
 62
7
  6
CONTINUOUS
370
-3
390
F
  0
LAYER
  5
1FA
100
AcDbSymbolTableRecord
100
AcDbLayerTableRecord
  2
DEFAULT_1
 70
0
 62
7
  6
CENTER
370
-3
390
F
  0
LAYER
  5
1FB
100
AcDbSymbolTableRecord
100
AcDbLayerTableRecord
  2
DEFAULT_2
 70
0
 62
8
  6
HIDDEN
370
-3
390
F
  0
LAYER
  5
1FC
100
AcDbSymbolTableRecord
100
AcDbLayerTableRecord
  2
DEFAULT_3
 70
0
 62
7
  6
PHANTOM
370
-3
390
F
  0
LAYER
  5
1FD
100
AcDbSymbolTableRecord
100
AcDbLayerTableRecord
  2
01_ALL_DTM_PLN
 70
0
 62
7
  6
CONTINUOUS
370
-3
390
F
  0
LAYER
  5
1FE
100
AcDbSymbolTableRecord
100
AcDbLayerTableRecord
  2
01__ASM_ALL_DTM_PLN
 70
0
 62
7
  6
CONTINUOUS
370
-3
390
F
  0
LAYER
  5
1FF
100
AcDbSymbolTableRecord
100
AcDbLayerTableRecord
  2
01__ASM_DEF_DTM_PLN
 70
0
 62
7
  6
CONTINUOUS
370
-3
390
F
  0
LAYER
  5
200
100
AcDbSymbolTableRecord
100
AcDbLayerTableRecord
  2
01___PRT_ALL_DTM_PLN
 70
0
 62
7
  6
CONTINUOUS
370
-3
390
F
  0
LAYER
  5
201
100
AcDbSymbolTableRecord
100
AcDbLayerTableRecord
  2
01___PRT_DEF_DTM_PLN
 70
0
 62
7
  6
CONTINUOUS
370
-3
390
F
  0
LAYER
  5
202
100
AcDbSymbolTableRecord
100
AcDbLayerTableRecord
  2
02_ALL_AXES
 70
0
 62
7
  6
CONTINUOUS
370
-3
390
F
  0
LAYER
  5
203
100
AcDbSymbolTableRecord
100
AcDbLayerTableRecord
  2
02__ASM_ALL_AXES
 70
0
 62
7
  6
CONTINUOUS
370
-3
390
F
  0
LAYER
  5
204
100
AcDbSymbolTableRecord
100
AcDbLayerTableRecord
  2
02___PRT_ALL_AXES
 70
0
 62
7
  6
CONTINUOUS
370
-3
390
F
  0
LAYER
  5
205
100
AcDbSymbolTableRecord
100
AcDbLayerTableRecord
  2
03_ALL_CURVES
 70
0
 62
7
  6
CONTINUOUS
370
-3
390
F
  0
LAYER
  5
206
100
AcDbSymbolTableRecord
100
AcDbLayerTableRecord
  2
03__ASM_ALL_CURVES
 70
0
 62
7
  6
CONTINUOUS
370
-3
390
F
  0
LAYER
  5
207
100
AcDbSymbolTableRecord
100
AcDbLayerTableRecord
  2
03___PRT_ALL_CURVES
 70
0
 62
7
  6
CONTINUOUS
370
-3
390
F
  0
LAYER
  5
208
100
AcDbSymbolTableRecord
100
AcDbLayerTableRecord
  2
04_ALL_DTM_PNT
 70
0
 62
7
  6
CONTINUOUS
370
-3
390
F
  0
LAYER
  5
209
100
AcDbSymbolTableRecord
100
AcDbLayerTableRecord
  2
04__ASM_ALL_DTM_PNT
 70
0
 62
7
  6
CONTINUOUS
370
-3
390
F
  0
LAYER
  5
20A
100
AcDbSymbolTableRecord
100
AcDbLayerTableRecord
  2
04___PRT_ALL_DTM_PNT
 70
0
 62
7
  6
CONTINUOUS
370
-3
390
F
  0
LAYER
  5
20B
100
AcDbSymbolTableRecord
100
AcDbLayerTableRecord
  2
05_ALL_DTM_CSYS
 70
0
 62
7
  6
CONTINUOUS
370
-3
390
F
  0
LAYER
  5
20C
100
AcDbSymbolTableRecord
100
AcDbLayerTableRecord
  2
05__ASM_ALL_DTM_CSYS
 70
0
 62
7
  6
CONTINUOUS
370
-3
390
F
  0
LAYER
  5
20D
100
AcDbSymbolTableRecord
100
AcDbLayerTableRecord
  2
05__ASM_DEF_DTM_CSYS
 70
0
 62
7
  6
CONTINUOUS
370
-3
390
F
  0
LAYER
  5
20E
100
AcDbSymbolTableRecord
100
AcDbLayerTableRecord
  2
05___PRT_ALL_DTM_CSYS
 70
0
 62
7
  6
CONTINUOUS
370
-3
390
F
  0
LAYER
  5
20F
100
AcDbSymbolTableRecord
100
AcDbLayerTableRecord
  2
05___PRT_DEF_DTM_CSYS
 70
0
 62
7
  6
CONTINUOUS
370
-3
390
F
  0
LAYER
  5
210
100
AcDbSymbolTableRecord
100
AcDbLayerTableRecord
  2
06_ALL_SURFS
 70
0
 62
7
  6
CONTINUOUS
370
-3
390
F
  0
LAYER
  5
211
100
AcDbSymbolTableRecord
100
AcDbLayerTableRecord
  2
06__ASM_ALL_SURFS
 70
0
 62
7
  6
CONTINUOUS
370
-3
390
F
  0
LAYER
  5
212
100
AcDbSymbolTableRecord
100
AcDbLayerTableRecord
  2
06___PRT_ALL_SURFS
 70
0
 62
7
  6
CONTINUOUS
370
-3
390
F
  0
LAYER
  5
213
100
AcDbSymbolTableRecord
100
AcDbLayerTableRecord
  2
07__ASM_ALL_SKELETONS
 70
0
 62
7
  6
CONTINUOUS
370
-3
390
F
  0
ENDTAB
  0
TABLE
  2
STYLE
  5
3
100
AcDbSymbolTable
 70
1
  0
STYLE
  5
11
100
AcDbSymbolTableRecord
100
AcDbTextStyleTableRecord
  2
STANDARD
 70
0
 40
0.0
 41
0.8
 50
0.0
 71
0
 42
0.2
  3
txt
  4

  0
STYLE
  5
214
100
AcDbSymbolTableRecord
100
AcDbTextStyleTableRecord
  2
TEXTSTYLE_1
 70
0
 40
0.0
 41
0.8
 50
0.0
 71
0
 42
0.2
  3
gdt
  4

  0
ENDTAB
  0
TABLE
  2
VIEW
  5
6
100
AcDbSymbolTable
 70
0
  0
ENDTAB
  0
TABLE
  2
UCS
  5
7
100
AcDbSymbolTable
 70
0
  0
ENDTAB
  0
TABLE
  2
APPID
  5
9
100
AcDbSymbolTable
 70
1
  0
APPID
  5
215
100
AcDbSymbolTableRecord
100
AcDbRegAppTableRecord
  2
ACAD
 70
0
  0
ENDTAB
  0
TABLE
  2
BLOCK_RECORD
  5
1
100
AcDbSymbolTable
 70
0
  0
BLOCK_RECORD
  5
216
100
AcDbSymbolTableRecord
100
AcDbBlockTableRecord
  2
*Model_Space
  0
BLOCK_RECORD
  5
217
100
AcDbSymbolTableRecord
100
AcDbBlockTableRecord
  2
*Paper_Space
  0
BLOCK_RECORD
  5
218
100
AcDbSymbolTableRecord
100
AcDbBlockTableRecord
  2
_CLOSED
  0
ENDTAB
  0
TABLE
  2
DIMSTYLE
  5
A
100
AcDbSymbolTable
 70
1
100
AcDbDimStyleTable
 71
0
  0
DIMSTYLE
105
219
100
AcDbSymbolTableRecord
100
AcDbDimStyleTableRecord
  2
STANDARD
 70
0
  3

  4

 40
1.0
 41
0.1875
 42
0.0625
 43
0.38
 44
0.125
 45
0.0
 46
0.0
 47
0.01
 48
0.01
140
0.15625
141
0.09
142
0.0
143
25.4
144
1.0
145
0.0
146
1.0
147
0.625
 71
0.0
 72
0.0
 73
1
 74
1
 75
0
 76
0
 77
0
 78
8
 79
2
170
0
171
1
172
0
173
0
174
0
175
0
176
0
177
0
178
0
270
2
179
2
271
2
272
2
273
2
274
2
275
0
280
0
281
0
282
0
283
1
284
8
285
0
286
0
287
3
288
0
340
11
278
46
341
218
342
218
343
218
344
218
  0
ENDTAB
  0
ENDSEC
  0
SECTION
  2
BLOCKS
  0
BLOCK
  5
20
100
AcDbEntity
  8
0
100
AcDbBlockBegin
  2
*Model_Space
 70
0
 10
0.0
 20
0.0
 30
0.0
  3
*Model_Space
  1

  0
ENDBLK
  5
21
100
AcDbEntity
  8
0
100
AcDbBlockEnd
  0
BLOCK
  5
1C
100
AcDbEntity
  8
0
100
AcDbBlockBegin
  2
*Paper_Space
 70
0
 10
0.0
 20
0.0
 30
0.0
  3
*Paper_Space
  1

  0
ENDBLK
  5
1D
100
AcDbEntity
  8
0
100
AcDbBlockEnd
  0
BLOCK
  5
21A
100
AcDbEntity
  8
0
100
AcDbBlockBegin
  2
_CLOSED
 70
64
 10
0.0
 20
0.0
  3
_CLOSED
  1

  0
LINE
  5
21B
100
AcDbEntity
  8
0
  6
BYBLOCK
 62
0
100
AcDbLine
 10
0.0
 20
0.0
 11
-1.0
 21
0.1666666667
  0
LINE
  5
21C
100
AcDbEntity
  8
0
  6
BYBLOCK
 62
0
100
AcDbLine
 10
-1.0
 20
0.1666666667
 11
-1.0
 21
-0.1666666667
  0
LINE
  5
21D
100
AcDbEntity
  8
0
  6
BYBLOCK
 62
0
100
AcDbLine
 10
-1.0
 20
-0.1666666667
 11
0.0
 21
0.0
  0
LINE
  5
21E
100
AcDbEntity
  8
0
  6
BYBLOCK
 62
0
100
AcDbLine
 10
-1.0
 20
0.0
 11
0.0
 21
0.0
  0
ENDBLK
  5
21F
100
AcDbEntity
  8
0
  6
BYBLOCK
 62
0
100
AcDbBlockEnd
  0
ENDSEC
  0
SECTION
  2
ENTITIES
  0
LINE
  5
220
100
AcDbEntity
  8
0
100
AcDbLine
 62
7
  6
CONTINUOUS
 10
-33.8109691683
 20
109.0057884862
 11
-33.8387494458
 21
109.0118932761
  0
LINE
  5
221
100
AcDbEntity
  8
0
100
AcDbLine
 62
7
  6
CONTINUOUS
 10
-33.7891102883
 20
109.0671505336
 11
-33.8163649521
 21
109.074621824
  0
LINE
  5
222
100
AcDbEntity
  8
0
100
AcDbLine
 62
7
  6
CONTINUOUS
 10
-35.5352180958
 20
103.1250295971
 11
-37.84853118
 21
104.4611562723
  0
LINE
  5
223
100
AcDbEntity
  8
0
100
AcDbLine
 62
7
  6
CONTINUOUS
 10
-38.6593887039
 20
104.9596531778
 11
-45.6525285912
 21
108.9987609022
  0
LINE
  5
224
100
AcDbEntity
  8
0
100
AcDbLine
 62
7
  6
CONTINUOUS
 10
-56.5515244112
 20
118.2012090279
 11
-47.9104472035
 21
113.2102833123
  0
LINE
  5
225
100
AcDbEntity
  8
0
100
AcDbLine
 62
7
  6
CONTINUOUS
 10
-49.4949156366
 20
115.4234149288
 11
-58.1359928443
 21
120.4143406444
  0
LINE
  5
226
100
AcDbEntity
  8
0
100
AcDbLine
 62
7
  6
CONTINUOUS
 10
-121.8650907178
 20
229.04081513
 11
-124.5675994678
 21
223.1094033256
  0
LINE
  5
227
100
AcDbEntity
  8
0
100
AcDbLine
 62
7
  6
CONTINUOUS
 10
-131.0864343136
 20
208.8019958268
 11
-132.2861821614
 21
206.1688134006
  0
LINE
  5
228
100
AcDbEntity
  8
0
100
AcDbLine
 62
7
  6
CONTINUOUS
 10
-48.846124082
 20
153.0350396265
 11
-41.7013439955
 21
152.8206260805
  0
LINE
  5
229
100
AcDbEntity
  8
0
100
AcDbLine
 62
7
  6
CONTINUOUS
 10
-59.4345849578
 20
124.8567088142
 11
-59.28585905
 21
124.7708074919
  0
LINE
  5
22A
100
AcDbEntity
  8
0
100
AcDbLine
 62
7
  6
CONTINUOUS
 10
-64.5144384175
 20
131.0758113529
 11
-65.6404694964
 21
131.7261859917
  0
LINE
  5
22B
100
AcDbEntity
  8
0
100
AcDbLine
 62
7
  6
CONTINUOUS
 10
-64.0344880105
 20
134.6739660481
 11
-55.3934108028
 21
129.6830403325
  0
LINE
  5
22C
100
AcDbEntity
  8
0
100
AcDbLine
 62
7
  6
CONTINUOUS
 10
-35.6775432145
 20
120.8181800054
 11
-33.2847271719
 21
119.4361338979
  0
LINE
  5
22D
100
AcDbEntity
  8
0
100
AcDbLine
 62
7
  6
CONTINUOUS
 10
-55.9497993477
 20
132.6454596726
 11
-64.5908765554
 21
137.6363853882
  0
LINE
  5
22E
100
AcDbEntity
  8
0
100
AcDbLine
 62
7
  6
CONTINUOUS
 10
-43.3903906138
 20
153.7961880387
 11
-48.5912484256
 21
153.9522648322
  0
LINE
  5
22F
100
AcDbEntity
  8
0
100
AcDbLine
 62
7
  6
CONTINUOUS
 10
-20.5480020936
 20
113.2272790841
 11
-18.6634948977
 21
112.1388227263
  0
LINE
  5
230
100
AcDbEntity
  8
0
100
AcDbLine
 62
7
  6
CONTINUOUS
 10
-119.6801550064
 20
171.9348648087
 11
-114.8945229213
 21
169.1707725937
  0
LINE
  5
231
100
AcDbEntity
  8
0
100
AcDbLine
 62
7
  6
CONTINUOUS
 10
5.2829006211
 20
104.8974564578
 11
-29.6240628233
 21
125.0590702613
  0
LINE
  5
232
100
AcDbEntity
  8
0
100
AcDbLine
 62
7
  6
CONTINUOUS
 10
12.1226414012
 20
102.5329685595
 11
20.5624867779
 21
97.6582706123
  0
LINE
  5
233
100
AcDbEntity
  8
0
100
AcDbLine
 62
7
  6
CONTINUOUS
 10
15.8535076403
 20
102.2018600328
 11
19.257302019
 21
100.2358916139
  0
LINE
  5
234
100
AcDbEntity
  8
0
100
AcDbLine
 62
7
  6
CONTINUOUS
 10
-109.3745363958
 20
170.3255953229
 11
-105.9230730386
 21
168.0767423892
  0
LINE
  5
235
100
AcDbEntity
  8
0
100
AcDbLine
 62
7
  6
CONTINUOUS
 10
-102.9366840039
 20
166.1310147851
 11
-97.7536694948
 21
162.7538444687
  0
LINE
  5
236
100
AcDbEntity
  8
0
100
AcDbLine
 62
7
  6
CONTINUOUS
 10
-94.7669849465
 20
160.8079250484
 11
-89.5842659513
 21
157.4309465485
  0
LINE
  5
237
100
AcDbEntity
  8
0
100
AcDbLine
 62
7
  6
CONTINUOUS
 10
-86.5972856806
 20
155.4848352025
 11
-81.4148624079
 21
152.1080486283
  0
LINE
  5
238
100
AcDbEntity
  8
0
100
AcDbLine
 62
7
  6
CONTINUOUS
 10
-78.4275861954
 20
150.1617452391
 11
-70.9837938827
 21
145.3115288257
  0
LINE
  5
239
100
AcDbEntity
  8
0
100
AcDbLine
 62
7
  6
CONTINUOUS
 10
-102.9354281692
 20
166.1330383759
 11
-102.9175423691
 21
166.119755217
  0
LINE
  5
23A
100
AcDbEntity
  8
0
100
AcDbLine
 62
7
  6
CONTINUOUS
 10
-94.7657137767
 20
160.8099734349
 11
-94.7481115895
 21
160.7969012273
  0
LINE
  5
23B
100
AcDbEntity
  8
0
100
AcDbLine
 62
7
  6
CONTINUOUS
 10
-86.5959988535
 20
155.4869089036
 11
-86.5786804689
 21
155.4740477869
  0
LINE
  5
23C
100
AcDbEntity
  8
0
100
AcDbLine
 62
7
  6
CONTINUOUS
 10
-78.426283386
 20
150.1638447783
 11
-78.4092490045
 21
150.1511949003
  0
LINE
  5
23D
100
AcDbEntity
  8
0
100
AcDbLine
 62
7
  6
CONTINUOUS
 10
-102.9181779786
 20
166.1757218409
 11
-102.9928017516
 21
166.1756477313
  0
LINE
  5
23E
100
AcDbEntity
  8
0
100
AcDbLine
 62
7
  6
CONTINUOUS
 10
-102.9414580124
 20
166.0620474607
 11
-103.0162739957
 21
166.0621588397
  0
LINE
  5
23F
100
AcDbEntity
  8
0
100
AcDbLine
 62
7
  6
CONTINUOUS
 10
-64.5908784902
 20
154.7822892157
 11
-55.9498012825
 21
149.7913635001
  0
LINE
  5
240
100
AcDbEntity
  8
0
100
AcDbLine
 62
7
  6
CONTINUOUS
 10
-55.3934049873
 20
153.0520694477
 11
-64.034482195
 21
158.0429951633
  0
LINE
  5
241
100
AcDbEntity
  8
0
100
AcDbLine
 62
7
  6
CONTINUOUS
 10
-3.2131710242
 20
127.1515897561
 11
18.2043853781
 21
114.7812069387
  0
LINE
  5
242
100
AcDbEntity
  8
0
100
AcDbLine
 62
7
  6
CONTINUOUS
 10
-132.2168189446
 20
203.2239561914
 11
-132.2861821614
 21
203.2640190972
  0
LINE
  5
243
100
AcDbEntity
  8
0
100
AcDbLine
 62
7
  6
CONTINUOUS
 10
-65.6404694964
 20
180.6023685369
 11
-63.9282672247
 21
181.0613337433
  0
LINE
  5
244
100
AcDbEntity
  8
0
100
AcDbLine
 62
7
  6
CONTINUOUS
 10
-41.7013439955
 20
152.8206260805
 11
-43.3903906138
 21
153.7961880387
  0
LINE
  5
245
100
AcDbEntity
  8
0
100
AcDbLine
 62
7
  6
CONTINUOUS
 10
-132.2861821614
 20
206.1688134006
 11
-131.7111146386
 21
205.8366650794
  0
LINE
  5
246
100
AcDbEntity
  8
0
100
AcDbLine
 62
7
  6
CONTINUOUS
 10
-2.1306594675
 20
136.4816084663
 11
4.4173267913
 21
132.6996132105
  0
LINE
  5
247
100
AcDbEntity
  8
0
100
AcDbLine
 62
7
  6
CONTINUOUS
 10
7.399298249
 20
132.5701859484
 11
23.2058865751
 21
123.4405940866
  0
LINE
  5
248
100
AcDbEntity
  8
0
100
AcDbLine
 62
7
  6
CONTINUOUS
 10
-58.1359906841
 20
175.4648692091
 11
-49.4949134763
 21
170.4739434935
  0
LINE
  5
249
100
AcDbEntity
  8
0
100
AcDbLine
 62
7
  6
CONTINUOUS
 10
-65.6404694964
 20
180.6023685369
 11
-64.5144384175
 21
179.9519938981
  0
LINE
  5
24A
100
AcDbEntity
  8
0
100
AcDbLine
 62
7
  6
CONTINUOUS
 10
0.7013919368
 20
144.0843972534
 11
8.4185277488
 21
139.6271229288
  0
LINE
  5
24B
100
AcDbEntity
  8
0
100
AcDbLine
 62
7
  6
CONTINUOUS
 10
-47.9104386286
 20
173.536522674
 11
-56.5515158363
 21
178.5274483896
  0
LINE
  5
24C
100
AcDbEntity
  8
0
100
AcDbLine
 62
7
  6
CONTINUOUS
 10
-44.4899929341
 20
220.2286021456
 11
-49.4486707907
 21
218.8994013593
  0
LINE
  5
24D
100
AcDbEntity
  8
0
100
AcDbLine
 62
7
  6
CONTINUOUS
 10
-50.5747018695
 20
219.5497759981
 11
-45.616024013
 21
220.8789767844
  0
LINE
  5
24E
100
AcDbEntity
  8
0
100
AcDbLine
 62
7
  6
CONTINUOUS
 10
-58.3085538789
 20
190.1485138265
 11
-59.4345849578
 21
190.7988884653
  0
LINE
  5
24F
100
AcDbEntity
  8
0
100
AcDbLine
 62
7
  6
CONTINUOUS
 10
-120.6437229605
 20
228.3353757962
 11
-121.8650907178
 21
229.04081513
  0
LINE
  5
250
100
AcDbEntity
  8
0
100
AcDbLine
 62
7
  6
CONTINUOUS
 10
8.4539398544
 20
155.0078292676
 11
33.5547597438
 21
140.5100618647
  0
LINE
  5
251
100
AcDbEntity
  8
0
100
AcDbLine
 62
7
  6
CONTINUOUS
 10
-119.6036404126
 20
231.0994064348
 11
-118.6328594446
 21
230.5387013768
  0
LINE
  5
252
100
AcDbEntity
  8
0
100
AcDbLine
 62
7
  6
CONTINUOUS
 10
-45.6525227526
 20
193.572969996
 11
-37.0114455449
 21
188.5820442804
  0
LINE
  5
253
100
AcDbEntity
  8
0
100
AcDbLine
 62
7
  6
CONTINUOUS
 10
-42.0695833548
 20
206.6849578954
 11
-47.7957781718
 21
209.6656745189
  0
LINE
  5
254
100
AcDbEntity
  8
0
100
AcDbLine
 62
7
  6
CONTINUOUS
 10
15.217523058
 20
160.3398383028
 11
37.5559607014
 21
147.437571583
  0
LINE
  5
255
100
AcDbEntity
  8
0
100
AcDbLine
 62
7
  6
CONTINUOUS
 10
-34.6401139251
 20
190.9802472378
 11
-43.2811911328
 21
195.9711729534
  0
LINE
  5
256
100
AcDbEntity
  8
0
100
AcDbLine
 62
7
  6
CONTINUOUS
 10
-50.5747018695
 20
209.7117083767
 11
-50.5747018695
 21
219.5497759981
  0
LINE
  5
257
100
AcDbEntity
  8
0
100
AcDbLine
 62
7
  6
CONTINUOUS
 10
-47.7957781718
 20
219.342468288
 11
-47.7957781718
 21
209.6656745189
  0
LINE
  5
258
100
AcDbEntity
  8
0
100
AcDbLine
 62
7
  6
CONTINUOUS
 10
-44.4899929341
 20
216.1318862982
 11
-44.4899929341
 21
220.2286021456
  0
LINE
  5
259
100
AcDbEntity
  8
0
100
AcDbLine
 62
7
  6
CONTINUOUS
 10
-49.4496848452
 20
209.1252737053
 11
-49.4486707907
 21
218.8994013593
  0
LINE
  5
25A
100
AcDbEntity
  8
0
100
AcDbLine
 62
7
  6
CONTINUOUS
 10
-44.3763399788
 20
216.2417223894
 11
-44.3733273696
 21
216.2401921217
  0
LINE
  5
25B
100
AcDbEntity
  8
0
100
AcDbLine
 62
7
  6
CONTINUOUS
 10
-74.1247838393
 20
231.355522585
 11
-70.4521350855
 21
229.4896206704
  0
LINE
  5
25C
100
AcDbEntity
  8
0
100
AcDbLine
 62
7
  6
CONTINUOUS
 10
-67.2546126169
 20
227.8651083099
 11
-61.7591991799
 21
225.0731444873
  0
LINE
  5
25D
100
AcDbEntity
  8
0
100
AcDbLine
 62
7
  6
CONTINUOUS
 10
-58.5616767117
 20
223.4486321271
 11
-53.0662632747
 21
220.6566683045
  0
LINE
  5
25E
100
AcDbEntity
  8
0
100
AcDbLine
 62
7
  6
CONTINUOUS
 10
-41.1758049015
 20
214.6156797614
 11
-33.2946720942
 21
210.6116429531
  0
LINE
  5
25F
100
AcDbEntity
  8
0
100
AcDbLine
 62
7
  6
CONTINUOUS
 10
39.8432738923
 20
164.7338216495
 11
4.9363104479
 21
184.8954354531
  0
LINE
  5
260
100
AcDbEntity
  8
0
100
AcDbLine
 62
7
  6
CONTINUOUS
 10
-29.0409692742
 20
206.3497981073
 11
-20.3998920665
 21
201.3588723917
  0
LINE
  5
261
100
AcDbEntity
  8
0
100
AcDbLine
 62
7
  6
CONTINUOUS
 10
-49.4486707907
 20
218.8994013593
 11
-50.5747018695
 21
219.5497759981
  0
LINE
  5
262
100
AcDbEntity
  8
0
100
AcDbLine
 62
7
  6
CONTINUOUS
 10
-17.6026373524
 20
202.7275986353
 11
-26.2437145601
 21
207.7185243509
  0
LINE
  5
263
100
AcDbEntity
  8
0
100
AcDbLine
 62
7
  6
CONTINUOUS
 10
-80.6684456699
 20
239.4780845621
 11
-75.8828135848
 21
236.7139923471
  0
LINE
  5
264
100
AcDbEntity
  8
0
100
AcDbLine
 62
7
  6
CONTINUOUS
 10
-45.616024013
 20
220.8789767844
 11
-44.4899929341
 21
220.2286021456
  0
LINE
  5
265
100
AcDbEntity
  8
0
100
AcDbLine
 62
7
  6
CONTINUOUS
 10
34.2926514163
 20
175.320844222
 11
33.4481281071
 21
175.8086252011
  0
LINE
  5
266
100
AcDbEntity
  8
0
100
AcDbLine
 62
7
  6
CONTINUOUS
 10
-67.2924752478
 20
227.8805761337
 11
-67.2743493413
 21
227.8525315877
  0
LINE
  5
267
100
AcDbEntity
  8
0
100
AcDbLine
 62
7
  6
CONTINUOUS
 10
-67.2300239876
 20
227.9360107364
 11
-67.2131377019
 21
227.9067697677
  0
LINE
  5
268
100
AcDbEntity
  8
0
100
AcDbLine
 62
7
  6
CONTINUOUS
 10
-100.5170148465
 20
241.4666312312
 11
-100.5465124334
 21
241.4583603058
  0
LINE
  5
269
100
AcDbEntity
  8
0
100
AcDbLine
 62
7
  6
CONTINUOUS
 10
-119.6036404126
 20
231.0994064348
 11
-117.4390372998
 21
231.679640167
  0
LINE
  5
26A
100
AcDbEntity
  8
0
100
AcDbLine
 62
7
  6
CONTINUOUS
 10
5.5848416606
 20
192.2581239753
 11
7.9776577032
 21
190.8760778678
  0
LINE
  5
26B
100
AcDbEntity
  8
0
100
AcDbLine
 62
7
  6
CONTINUOUS
 10
-10.8303299741
 20
211.8501770928
 11
-2.1892527664
 21
206.8592513772
  0
LINE
  5
26C
100
AcDbEntity
  8
0
100
AcDbLine
 62
7
  6
CONTINUOUS
 10
0.6079611097
 20
206.9901361458
 11
-8.033116098
 21
211.9810618614
  0
LINE
  5
26D
100
AcDbEntity
  8
0
100
AcDbLine
 62
7
  6
CONTINUOUS
 10
-47.7957781718
 20
219.342468288
 11
-42.0695833548
 21
206.6849578954
  0
LINE
  5
26E
100
AcDbEntity
  8
0
100
AcDbLine
 62
7
  6
CONTINUOUS
 10
-40.5698673594
 20
207.4666152433
 11
-46.142885553
 21
219.7855352168
  0
LINE
  5
26F
100
AcDbEntity
  8
0
100
AcDbLine
 62
7
  6
CONTINUOUS
 10
18.6683138117
 20
202.3122995063
 11
17.2195098369
 21
203.1189514029
  0
LINE
  5
270
100
AcDbEntity
  8
0
100
AcDbLine
 62
7
  6
CONTINUOUS
 10
6.2071072746
 20
209.236780267
 11
14.8481844823
 21
204.2458545514
  0
LINE
  5
271
100
AcDbEntity
  8
0
100
AcDbLine
 62
7
  6
CONTINUOUS
 10
17.2195115562
 20
203.1189401237
 11
8.5784343485
 21
208.1098658393
  0
LINE
  5
272
100
AcDbEntity
  8
0
100
AcDbLine
 62
7
  6
CONTINUOUS
 10
20.9817454301
 20
200.9761043679
 11
18.6684323459
 21
202.3122310432
  0
LINE
  5
273
100
AcDbEntity
  8
0
100
AcDbLine
 62
7
  6
CONTINUOUS
 10
-59.324918986
 20
124.918793
 11
-59.4345849578
 21
124.8567088142
  0
LINE
  5
274
100
AcDbEntity
  8
0
100
AcDbLine
 62
7
  6
CONTINUOUS
 10
33.4481281071
 20
175.8086252011
 11
26.9944498302
 21
172.1550638032
  0
LINE
  5
275
100
AcDbEntity
  8
0
100
AcDbLine
 62
7
  6
CONTINUOUS
 10
-41.7013439955
 20
132.8250982384
 11
-48.846124082
 21
128.780289743
  0
LINE
  5
276
100
AcDbEntity
  8
0
100
AcDbLine
 62
7
  6
CONTINUOUS
 10
27.8389731394
 20
171.6672828241
 11
34.2926514163
 21
175.320844222
  0
LINE
  5
277
100
AcDbEntity
  8
0
100
AcDbLine
 62
7
  6
CONTINUOUS
 10
19.257302019
 20
100.2358916139
 11
19.257302019
 21
102.3800829677
  0
LINE
  5
278
100
AcDbEntity
  8
0
100
AcDbLine
 62
7
  6
CONTINUOUS
 10
25.8688724944
 20
104.1523506827
 11
25.8688724944
 21
102.008159329
  0
ARC
  5
279
100
AcDbEntity
  8
0
100
AcDbCircle
 62
7
  6
CONTINUOUS
 10
-83.1756977821
 20
178.5412424999
 40
21.1855725899
100
AcDbArc
 50
227.9460971633
 51
236.8295788635
  0
ARC
  5
27A
100
AcDbEntity
  8
0
100
AcDbCircle
 62
7
  6
CONTINUOUS
 10
-86.2805035212
 20
180.3613521186
 40
21.0155942411
100
AcDbArc
 50
236.9055720561
 51
242.181848972
  0
ARC
  5
27B
100
AcDbEntity
  8
0
100
AcDbCircle
 62
7
  6
CONTINUOUS
 10
-91.5094674162
 20
183.6114805521
 40
20.8841557735
100
AcDbArc
 50
227.8171589478
 51
236.8268126585
  0
ARC
  5
27C
100
AcDbEntity
  8
0
100
AcDbCircle
 62
7
  6
CONTINUOUS
 10
-94.5857306107
 20
185.4661549164
 40
20.7587531196
100
AcDbArc
 50
225.7870144303
 51
236.8911165247
  0
ARC
  5
27D
100
AcDbEntity
  8
0
100
AcDbCircle
 62
7
  6
CONTINUOUS
 10
-94.6150955659
 20
185.4307560539
 40
20.7130286331
100
AcDbArc
 50
236.9056121135
 51
242.2180146598
  0
ARC
  5
27E
100
AcDbEntity
  8
0
100
AcDbCircle
 62
7
  6
CONTINUOUS
 10
-98.3765178158
 20
205.5090619236
 40
33.2484054646
100
AcDbArc
 50
129.6756161034
 51
134.9473834253
  0
ARC
  5
27F
100
AcDbEntity
  8
0
100
AcDbCircle
 62
7
  6
CONTINUOUS
 10
-91.8120427193
 20
210.3655493044
 40
32.2963440153
100
AcDbArc
 50
105.0061504663
 51
105.6365562315
  0
ARC
  5
280
100
AcDbEntity
  8
0
100
AcDbCircle
 62
7
  6
CONTINUOUS
 10
-103.4999632519
 20
204.7164162489
 40
28.8228356793
100
AcDbArc
 50
177.1116136753
 51
182.8883863247
  0
ARC
  5
281
100
AcDbEntity
  8
0
100
AcDbCircle
 62
7
  6
CONTINUOUS
 10
-105.034753581
 20
204.6674409351
 40
27.2875420757
100
AcDbArc
 50
182.9480720357
 51
183.4844878995
  0
ARC
  5
282
100
AcDbEntity
  8
0
100
AcDbCircle
 62
7
  6
CONTINUOUS
 10
-110.7849983562
 20
219.7379023886
 40
26.3559810906
100
AcDbArc
 50
105.0057745998
 51
105.2681967038
  0
ARC
  5
283
100
AcDbEntity
  8
0
100
AcDbCircle
 62
7
  6
CONTINUOUS
 10
-92.1815050653
 20
219.3474187651
 40
23.1982101481
100
AcDbArc
 50
72.035036101
 51
73.5230833594
  0
ARC
  5
284
100
AcDbEntity
  8
0
100
AcDbCircle
 62
7
  6
CONTINUOUS
 10
-92.0152722037
 20
219.812513492
 40
22.704523624
100
AcDbArc
 50
61.8499126379
 51
72.0720730045
  0
ARC
  5
285
100
AcDbEntity
  8
0
100
AcDbCircle
 62
7
  6
CONTINUOUS
 10
-91.9194258098
 20
220.0004969315
 40
22.4935575513
100
AcDbArc
 50
59.987669474
 51
61.8392699408
  0
ARC
  5
286
100
AcDbEntity
  8
0
100
AcDbCircle
 62
7
  6
CONTINUOUS
 10
-53.9606421684
 20
188.0568523098
 40
30.6598176496
100
AcDbArc
 50
105.0059613008
 51
105.4932236603
  0
ARC
  5
287
100
AcDbEntity
  8
0
100
AcDbCircle
 62
7
  6
CONTINUOUS
 10
-53.780732588
 20
187.8262639801
 40
30.2303071504
100
AcDbArc
 50
105.0059613006
 51
105.4932236605
  0
ARC
  5
288
100
AcDbEntity
  8
0
100
AcDbCircle
 62
7
  6
CONTINUOUS
 10
-62.5180742516
 20
192.8716621579
 40
30.2264822953
100
AcDbArc
 50
105.0059613008
 51
105.4932236602
  0
ARC
  5
289
100
AcDbEntity
  8
0
100
AcDbCircle
 62
7
  6
CONTINUOUS
 10
-62.3381646712
 20
192.6410738284
 40
29.7969717959
100
AcDbArc
 50
105.0059613005
 51
105.4932236605
  0
ARC
  5
28A
100
AcDbEntity
  8
0
100
AcDbCircle
 62
7
  6
CONTINUOUS
 10
-66.5079392873
 20
168.4010340792
 40
21.7887503039
100
AcDbArc
 50
228.1931756801
 51
236.8347860568
  0
ARC
  5
28B
100
AcDbEntity
  8
0
100
AcDbCircle
 62
7
  6
CONTINUOUS
 10
-69.6113031316
 20
170.2225721854
 40
21.6207577628
100
AcDbArc
 50
236.9054995497
 51
242.1125455439
  0
ARC
  5
28C
100
AcDbEntity
  8
0
100
AcDbCircle
 62
7
  6
CONTINUOUS
 10
-74.8418537325
 20
173.4710951982
 40
21.4871061086
100
AcDbArc
 50
228.0713856955
 51
236.8322343738
  0
ARC
  5
28D
100
AcDbEntity
  8
0
100
AcDbCircle
 62
7
  6
CONTINUOUS
 10
-77.9459059914
 20
175.2919575879
 40
21.318170723
100
AcDbArc
 50
236.9055345896
 51
242.1467068798
  0
ARC
  5
28E
100
AcDbEntity
  8
0
100
AcDbCircle
 62
7
  6
CONTINUOUS
 10
-71.0755063349
 20
197.6864720062
 40
29.7931469407
100
AcDbArc
 50
105.0059613008
 51
105.4932236602
  0
ARC
  5
28F
100
AcDbEntity
  8
0
100
AcDbCircle
 62
7
  6
CONTINUOUS
 10
-70.8955967545
 20
197.4558836768
 40
29.3636364413
100
AcDbArc
 50
105.0059613006
 51
105.4932236605
  0
ARC
  5
290
100
AcDbEntity
  8
0
100
AcDbCircle
 62
7
  6
CONTINUOUS
 10
-79.6329384198
 20
202.5012818593
 40
29.3598115815
100
AcDbArc
 50
105.0059613008
 51
105.4932236603
  0
ARC
  5
291
100
AcDbEntity
  8
0
100
AcDbCircle
 62
7
  6
CONTINUOUS
 10
-79.4530288376
 20
202.2706935244
 40
28.9303010875
100
AcDbArc
 50
105.0059613005
 51
105.4932236604
  0
ARC
  5
292
100
AcDbEntity
  8
0
100
AcDbCircle
 62
7
  6
CONTINUOUS
 10
-51.1340257991
 20
194.9090634334
 40
22.0822813946
100
AcDbArc
 50
71.6918806097
 51
72.1653311842
  0
ARC
  5
293
100
AcDbEntity
  8
0
100
AcDbCircle
 62
7
  6
CONTINUOUS
 10
-51.009608149
 20
195.2520660581
 40
21.7175607641
100
AcDbArc
 50
63.0762818118
 51
71.7192478676
  0
ARC
  5
294
100
AcDbEntity
  8
0
100
AcDbCircle
 62
7
  6
CONTINUOUS
 10
-54.1554164344
 20
196.9845010066
 40
21.5979301891
100
AcDbArc
 50
58.3967165028
 51
63.0780116334
  0
ARC
  5
295
100
AcDbEntity
  8
0
100
AcDbCircle
 62
7
  6
CONTINUOUS
 10
-59.593883414
 20
199.8659604794
 40
21.4925679854
100
AcDbArc
 50
65.3475498819
 51
71.8310721711
  0
ARC
  5
296
100
AcDbEntity
  8
0
100
AcDbCircle
 62
7
  6
CONTINUOUS
 10
-54.0764809302
 20
197.1401801742
 40
21.423383208
100
AcDbArc
 50
63.0776392527
 51
63.4028767377
  0
ARC
  5
297
100
AcDbEntity
  8
0
100
AcDbCircle
 62
7
  6
CONTINUOUS
 10
-59.5259713994
 20
200.0183773526
 40
21.3257163003
100
AcDbArc
 50
65.1085746658
 51
65.3425716916
  0
ARC
  5
298
100
AcDbEntity
  8
0
100
AcDbCircle
 62
7
  6
CONTINUOUS
 10
-62.7114237724
 20
201.6705165503
 40
21.2956044915
100
AcDbArc
 50
58.3403738944
 51
63.0779981357
  0
ARC
  5
299
100
AcDbEntity
  8
0
100
AcDbCircle
 62
7
  6
CONTINUOUS
 10
-68.1216961797
 20
204.6236987846
 40
21.1132978692
100
AcDbArc
 50
63.0768025021
 51
71.9699637962
  0
ARC
  5
29A
100
AcDbEntity
  8
0
100
AcDbCircle
 62
7
  6
CONTINUOUS
 10
-71.2674311056
 20
206.3565321153
 40
20.9932787729
100
AcDbArc
 50
58.2824196524
 51
63.0779842191
  0
ARC
  5
29B
100
AcDbEntity
  8
0
100
AcDbCircle
 62
7
  6
CONTINUOUS
 10
-79.8868719068
 20
210.8839982901
 40
20.8610111668
100
AcDbArc
 50
63.1197111725
 51
74.1782076748
  0
ARC
  5
29C
100
AcDbEntity
  8
0
100
AcDbCircle
 62
7
  6
CONTINUOUS
 10
-76.677746768
 20
209.3094964167
 40
20.8111861007
100
AcDbArc
 50
63.0770813999
 51
72.1007832665
  0
ARC
  5
29D
100
AcDbEntity
  8
0
100
AcDbCircle
 62
7
  6
CONTINUOUS
 10
-79.8234384342
 20
211.042547702
 40
20.6909530329
100
AcDbArc
 50
58.2227848194
 51
63.0779698638
  0
ARC
  5
29E
100
AcDbEntity
  8
0
100
AcDbCircle
 62
7
  6
CONTINUOUS
 10
-97.4955532712
 20
535.3515916774
 40
342.0387180449
100
AcDbArc
 50
285.0006305428
 51
286.1791596716
  0
ARC
  5
29F
100
AcDbEntity
  8
0
100
AcDbCircle
 62
7
  6
CONTINUOUS
 10
8.5260480379
 20
142.9174334572
 40
74.183310018
100
AcDbArc
 50
151.3128299927
 51
153.9762585814
  0
ARC
  5
2A0
100
AcDbEntity
  8
0
100
AcDbCircle
 62
7
  6
CONTINUOUS
 10
4.772096517
 20
146.0849291114
 40
69.2658410947
100
AcDbArc
 50
133.9278425863
 51
136.7178790007
  0
ARC
  5
2A1
100
AcDbEntity
  8
0
100
AcDbCircle
 62
7
  6
CONTINUOUS
 10
0.3996195699
 20
145.3704135262
 40
65.6684758313
100
AcDbArc
 50
168.8733829107
 51
171.7597460379
  0
ARC
  5
2A2
100
AcDbEntity
  8
0
100
AcDbCircle
 62
7
  6
CONTINUOUS
 10
-5.6077338318
 20
151.0865379881
 40
65.5988901586
100
AcDbArc
 50
143.4540677223
 51
153.894227807
  0
ARC
  5
2A3
100
AcDbEntity
  8
0
100
AcDbCircle
 62
7
  6
CONTINUOUS
 10
10.0304145788
 20
139.1162145114
 40
64.0199710731
100
AcDbArc
 50
171.7557082932
 51
172.8236302506
  0
ARC
  5
2A4
100
AcDbEntity
  8
0
100
AcDbCircle
 62
7
  6
CONTINUOUS
 10
-3.7293980622
 20
158.1647799075
 40
54.4285956283
100
AcDbArc
 50
114.4343629493
 51
117.7129156611
  0
ARC
  5
2A5
100
AcDbEntity
  8
0
100
AcDbCircle
 62
7
  6
CONTINUOUS
 10
-15.4276969643
 20
145.3366010415
 40
49.7625593321
100
AcDbArc
 50
188.9016958331
 51
192.3727069355
  0
ARC
  5
2A6
100
AcDbEntity
  8
0
100
AcDbCircle
 62
7
  6
CONTINUOUS
 10
-27.3008082911
 20
154.9993608951
 40
46.1005773629
100
AcDbArc
 50
291.3384112689
 51
293.9558116412
  0
ARC
  5
2A7
100
AcDbEntity
  8
0
100
AcDbCircle
 62
7
  6
CONTINUOUS
 10
-25.9194020103
 20
151.1049274086
 40
41.9665147356
100
AcDbArc
 50
285.015997808
 51
287.2819430723
  0
ARC
  5
2A8
100
AcDbEntity
  8
0
100
AcDbCircle
 62
7
  6
CONTINUOUS
 10
-7.5829442111
 20
172.4006841393
 40
39.5829460885
100
AcDbArc
 50
90.6516575281
 51
94.7057611446
  0
ARC
  5
2A9
100
AcDbEntity
  8
0
100
AcDbCircle
 62
7
  6
CONTINUOUS
 10
-27.5965021542
 20
140.6050800963
 40
36.610477672
100
AcDbArc
 50
213.4701359808
 51
217.7308025443
  0
ARC
  5
2AA
100
AcDbEntity
  8
0
100
AcDbCircle
 62
7
  6
CONTINUOUS
 10
-28.167352283
 20
164.1100316271
 40
36.0429075615
100
AcDbArc
 50
325.3670268787
 51
340.4606564712
  0
ARC
  5
2AB
100
AcDbEntity
  8
0
100
AcDbCircle
 62
7
  6
CONTINUOUS
 10
-27.7871674241
 20
163.8969316727
 40
35.0021787353
100
AcDbArc
 50
325.2096930155
 51
337.367873144
  0
ARC
  5
2AC
100
AcDbEntity
  8
0
100
AcDbCircle
 62
7
  6
CONTINUOUS
 10
-26.8089721374
 20
141.0597954993
 40
32.8098663212
100
AcDbArc
 50
257.6776601153
 51
264.3977017811
  0
ARC
  5
2AD
100
AcDbEntity
  8
0
100
AcDbCircle
 62
7
  6
CONTINUOUS
 10
-6.662521974
 20
179.0971274658
 40
32.7723407759
100
AcDbArc
 50
62.2862115958
 51
66.8775053134
  0
ARC
  5
2AE
100
AcDbEntity
  8
0
100
AcDbCircle
 62
7
  6
CONTINUOUS
 10
-19.2035533817
 20
131.3999631179
 40
32.6526030047
100
AcDbArc
 50
235.334573611
 51
239.9891737539
  0
ARC
  5
2AF
100
AcDbEntity
  8
0
100
AcDbCircle
 62
7
  6
CONTINUOUS
 10
-38.5002378484
 20
178.4153952642
 40
32.6034817681
100
AcDbArc
 50
106.565353588
 51
109.6234276363
  0
ARC
  5
2B0
100
AcDbEntity
  8
0
100
AcDbCircle
 62
7
  6
CONTINUOUS
 10
-7.1193112445
 20
174.7868172772
 40
32.2968581398
100
AcDbArc
 50
36.2364798914
 51
43.2991995405
  0
ARC
  5
2B1
100
AcDbEntity
  8
0
100
AcDbCircle
 62
7
  6
CONTINUOUS
 10
-6.6289061397
 20
175.2379564349
 40
31.6305560484
100
AcDbArc
 50
43.3136776084
 51
43.6239986823
  0
ARC
  5
2B2
100
AcDbEntity
  8
0
100
AcDbCircle
 62
7
  6
CONTINUOUS
 10
-27.1174892698
 20
139.5649296173
 40
31.2835958294
100
AcDbArc
 50
250.2174984096
 51
257.5933109469
  0
ARC
  5
2B3
100
AcDbEntity
  8
0
100
AcDbCircle
 62
7
  6
CONTINUOUS
 10
-6.181013727
 20
175.6832364302
 40
30.9991284061
100
AcDbArc
 50
43.5993803873
 51
49.7193400908
  0
ARC
  5
2B4
100
AcDbEntity
  8
0
100
AcDbCircle
 62
7
  6
CONTINUOUS
 10
-40.9984948395
 20
147.5458742963
 40
29.2350414592
100
AcDbArc
 50
230.9044023003
 51
231.2718876527
  0
ARC
  5
2B5
100
AcDbEntity
  8
0
100
AcDbCircle
 62
7
  6
CONTINUOUS
 10
-4.5125827792
 20
174.7707778514
 40
28.9431851971
100
AcDbArc
 50
63.4758660623
 51
64.0796260465
  0
ARC
  5
2B6
100
AcDbEntity
  8
0
100
AcDbCircle
 62
7
  6
CONTINUOUS
 10
-25.5887220946
 20
138.2830095549
 40
28.9193667813
100
AcDbArc
 50
235.9251952925
 51
236.5014419006
  0
ARC
  5
2B7
100
AcDbEntity
  8
0
100
AcDbCircle
 62
7
  6
CONTINUOUS
 10
-21.3295864248
 20
140.1283628449
 40
23.8975561574
100
AcDbArc
 50
233.3804025111
 51
239.9823992421
  0
ARC
  5
2B8
100
AcDbEntity
  8
0
100
AcDbCircle
 62
7
  6
CONTINUOUS
 10
-3.9635419965
 20
170.1975728057
 40
23.878674584
100
AcDbArc
 50
59.9948898145
 51
66.572752872
  0
ARC
  5
2B9
100
AcDbEntity
  8
0
100
AcDbCircle
 62
7
  6
CONTINUOUS
 10
-14.9350773744
 20
117.4350985286
 40
6.4509884089
100
AcDbArc
 50
240.0553939387
 51
254.6967659563
  0
ARC
  5
2BA
100
AcDbEntity
  8
0
100
AcDbCircle
 62
7
  6
CONTINUOUS
 10
-14.96557416
 20
117.3652794373
 40
6.3753219498
100
AcDbArc
 50
233.7806718521
 51
234.5870850356
  0
ARC
  5
2BB
100
AcDbEntity
  8
0
100
AcDbCircle
 62
7
  6
CONTINUOUS
 10
-14.9714065434
 20
117.3571753051
 40
6.3653374436
100
AcDbArc
 50
234.5876009495
 51
239.988633523
  0
ARC
  5
2BC
100
AcDbEntity
  8
0
100
AcDbCircle
 62
7
  6
CONTINUOUS
 10
21.779889339
 20
118.0025205697
 40
5.2069849574
100
AcDbArc
 50
177.3944779143
 51
179.9922298664
  0
SPLINE
  5
2BD
100
AcDbEntity
  8
0
100
AcDbSpline
 62
7
  6
CONTINUOUS
 70
0
 71
3
 72
11
 73
7
 74
0
 42
0.0000001
 43
0.0000001
 44
0.0000000001
 40
0.0
 40
0.0
 40
0.0
 40
0.0
 40
0.2468326768
 40
0.493938097
 40
0.7441505234
 40
1.0
 40
1.0
 40
1.0
 40
1.0
 10
-99.2964195577
 20
241.9099395108
 30
0.0
 10
-100.0996349338
 20
242.5521617869
 30
0.0
 10
-101.8168065082
 20
243.7066977514
 30
0.0
 10
-104.6553707351
 20
244.9879800527
 30
0.0
 10
-107.7019353223
 20
245.7943171818
 30
0.0
 10
-109.8098919721
 20
246.0041091169
 30
0.0
 10
-110.875530076
 20
246.0305615322
 30
0.0
  0
SPLINE
  5
2BE
100
AcDbEntity
  8
0
100
AcDbSpline
 62
7
  6
CONTINUOUS
 70
0
 71
3
 72
18
 73
14
 74
0
 42
0.0000001
 43
0.0000001
 44
0.0000000001
 40
0.0
 40
0.0
 40
0.0
 40
0.0
 40
0.0553626541
 40
0.1124120856
 40
0.1713045161
 40
0.2320638608
 40
0.3584666956
 40
0.4898004602
 40
0.6228876387
 40
0.7541736556
 40
0.8182106704
 40
0.8806884798
 40
1.0
 40
1.0
 40
1.0
 40
1.0
 10
-140.4494467926
 20
194.8244526058
 30
0.0
 10
-141.0508206658
 20
195.8093480224
 30
0.0
 10
-142.1159314771
 20
197.9082120775
 30
0.0
 10
-143.256865802
 20
201.3032612789
 30
0.0
 10
-143.9506763291
 20
204.9315873085
 30
0.0
 10
-144.2739709112
 20
210.0614013798
 30
0.0
 10
-143.5020076067
 20
216.7165514931
 30
0.0
 10
-140.8737272842
 20
224.4847967894
 30
0.0
 10
-136.7129570916
 20
231.6678351125
 30
0.0
 10
-132.142812267
 20
236.8341946859
 30
0.0
 10
-127.9782257904
 20
240.2466792463
 30
0.0
 10
-123.6741122794
 20
243.0381883158
 30
0.0
 10
-120.1367734136
 20
244.5377643959
 30
0.0
 10
-117.7346465391
 20
245.1816676747
 30
0.0
  0
SPLINE
  5
2BF
100
AcDbEntity
  8
0
100
AcDbSpline
 62
7
  6
CONTINUOUS
 70
0
 71
3
 72
11
 73
7
 74
0
 42
0.0000001
 43
0.0000001
 44
0.0000000001
 40
0.0
 40
0.0
 40
0.0
 40
0.0
 40
0.2468336846
 40
0.4939398873
 40
0.7441500691
 40
1.0
 40
1.0
 40
1.0
 40
1.0
 10
-131.094404555
 20
186.8549281141
 30
0.0
 10
-132.0520101039
 20
187.2296634264
 30
0.0
 10
-133.9100088187
 20
188.1400450063
 30
0.0
 10
-136.4381597873
 20
189.9582540034
 30
0.0
 10
-138.658952991
 20
192.1939049549
 30
0.0
 10
-139.8939981215
 20
193.9147645316
 30
0.0
 10
-140.4494511694
 20
194.8244726777
 30
0.0
  0
SPLINE
  5
2C0
100
AcDbEntity
  8
0
100
AcDbSpline
 62
7
  6
CONTINUOUS
 70
0
 71
3
 72
18
 73
14
 74
0
 42
0.0000001
 43
0.0000001
 44
0.0000000001
 40
0.0
 40
0.0
 40
0.0
 40
0.0
 40
0.0544852174
 40
0.1109085442
 40
0.1694181363
 40
0.2300121557
 40
0.3565953416
 40
0.4885422887
 40
0.622399298
 40
0.7543474849
 40
0.8185863877
 40
0.8811289901
 40
1.0
 40
1.0
 40
1.0
 40
1.0
 10
-140.4494511694
 20
194.8244726777
 30
0.0
 10
-141.0401927507
 20
195.7919755672
 30
0.0
 10
-142.0880398494
 20
197.8595753127
 30
0.0
 10
-143.2112715633
 20
201.2121010635
 30
0.0
 10
-143.8956409457
 20
204.8103352068
 30
0.0
 10
-144.2133972712
 20
209.9232957772
 30
0.0
 10
-143.4371517653
 20
216.5784294889
 30
0.0
 10
-140.8060137734
 20
224.3637051206
 30
0.0
 10
-136.6416094259
 20
231.5757766204
 30
0.0
 10
-132.0705436062
 20
236.7692879136
 30
0.0
 10
-127.9098891356
 20
240.2012919676
 30
0.0
 10
-123.6273870001
 20
243.0017508411
 30
0.0
 10
-120.1114033563
 20
244.5123392647
 30
0.0
 10
-117.7255194338
 20
245.1636158775
 30
0.0
  0
SPLINE
  5
2C1
100
AcDbEntity
  8
0
100
AcDbSpline
 62
7
  6
CONTINUOUS
 70
0
 71
3
 72
9
 73
5
 74
0
 42
0.0000001
 43
0.0000001
 44
0.0000000001
 40
0.0
 40
0.0
 40
0.0
 40
0.0
 40
0.4914287471
 40
1.0
 40
1.0
 40
1.0
 40
1.0
 10
-110.875530076
 20
246.0305615322
 30
0.0
 10
-111.989511007
 20
246.0582139652
 30
0.0
 10
-114.2633999294
 20
245.9378741845
 30
0.0
 10
-116.4951227017
 20
245.4937168711
 30
0.0
 10
-117.6089939768
 20
245.1951375688
 30
0.0
  0
SPLINE
  5
2C2
100
AcDbEntity
  8
0
100
AcDbSpline
 62
7
  6
CONTINUOUS
 70
0
 71
3
 72
9
 73
5
 74
0
 42
0.0000001
 43
0.0000001
 44
0.0000000001
 40
0.0
 40
0.0
 40
0.0
 40
0.0
 40
0.2557631717
 40
1.0
 40
1.0
 40
1.0
 40
1.0
 10
-119.6036404126
 20
231.0994064348
 30
0.0
 10
-119.1385526027
 20
231.4850228737
 30
0.0
 10
-117.278667904
 20
232.9415642743
 30
0.0
 10
-115.2511372854
 20
234.1876926796
 30
0.0
 10
-113.6712100212
 20
234.9587054864
 30
0.0
  0
SPLINE
  5
2C3
100
AcDbEntity
  8
0
100
AcDbSpline
 62
7
  6
CONTINUOUS
 70
0
 71
3
 72
11
 73
7
 74
0
 42
0.0000001
 43
0.0000001
 44
0.0000000001
 40
0.0
 40
0.0
 40
0.0
 40
0.0
 40
0.2427652596
 40
0.4939746385
 40
0.7483153327
 40
1.0
 40
1.0
 40
1.0
 40
1.0
 10
-132.2861821614
 20
206.1688134006
 30
0.0
 10
-132.182262461
 20
208.2422225347
 30
0.0
 10
-131.5295700116
 20
212.4478415878
 30
0.0
 10
-129.3859460917
 20
218.5123846053
 30
0.0
 10
-126.1725973941
 20
224.1714375858
 30
0.0
 10
-123.3893146865
 20
227.5212502966
 30
0.0
 10
-121.8650907178
 20
229.04081513
 30
0.0
  0
SPLINE
  5
2C4
100
AcDbEntity
  8
0
100
AcDbSpline
 62
7
  6
CONTINUOUS
 70
0
 71
3
 72
11
 73
7
 74
0
 42
0.0000001
 43
0.0000001
 44
0.0000000001
 40
0.0
 40
0.0
 40
0.0
 40
0.0
 40
0.255600251
 40
0.5065294212
 40
0.7541082362
 40
1.0
 40
1.0
 40
1.0
 40
1.0
 10
-21.3688326581
 20
116.1575460451
 30
0.0
 10
-22.4317879251
 20
116.1852910582
 30
0.0
 10
-24.5374206258
 20
116.3619660742
 30
0.0
 10
-27.6163407929
 20
117.0029493229
 30
0.0
 10
-30.5527013655
 20
118.0116818291
 30
0.0
 10
-32.3989219542
 20
118.9245351131
 30
0.0
 10
-33.2847215346
 20
119.4361436598
 30
0.0
  0
SPLINE
  5
2C5
100
AcDbEntity
  8
0
100
AcDbSpline
 62
7
  6
CONTINUOUS
 70
0
 71
3
 72
11
 73
7
 74
0
 42
0.0000001
 43
0.0000001
 44
0.0000000001
 40
0.0
 40
0.0
 40
0.0
 40
0.0
 40
0.2715475537
 40
0.5284065792
 40
0.7703132272
 40
1.0
 40
1.0
 40
1.0
 40
1.0
 10
-8.9727521702
 20
113.1105450939
 30
0.0
 10
-9.5606206932
 20
112.6633572179
 30
0.0
 10
-10.7859442912
 20
111.892728995
 30
0.0
 10
-12.7617981188
 20
111.1496265242
 30
0.0
 10
-14.7440979658
 20
110.8850605289
 30
0.0
 10
-16.0351695098
 20
111.0475620606
 30
0.0
 10
-16.6376705771
 20
111.2128458949
 30
0.0
  0
SPLINE
  5
2C6
100
AcDbEntity
  8
0
100
AcDbSpline
 62
7
  6
CONTINUOUS
 70
0
 71
3
 72
11
 73
7
 74
0
 42
0.0000001
 43
0.0000001
 44
0.0000000001
 40
0.0
 40
0.0
 40
0.0
 40
0.0
 40
0.2568625578
 40
0.5079866214
 40
0.7550466029
 40
1.0
 40
1.0
 40
1.0
 40
1.0
 10
-45.2269224885
 20
130.8131562173
 30
0.0
 10
-44.6572317374
 20
129.7593740638
 30
0.0
 10
-43.3978888303
 20
127.7434424269
 30
0.0
 10
-41.1432521333
 20
125.0247278306
 30
0.0
 10
-38.5735692605
 20
122.6826564025
 30
0.0
 10
-36.6667718632
 20
121.3895387798
 30
0.0
 10
-35.6775375772
 20
120.8181897673
 30
0.0
  0
SPLINE
  5
2C7
100
AcDbEntity
  8
0
100
AcDbSpline
 62
7
  6
CONTINUOUS
 70
0
 71
3
 72
9
 73
5
 74
0
 42
0.0000001
 43
0.0000001
 44
0.0000000001
 40
0.0
 40
0.0
 40
0.0
 40
0.0
 40
0.510065273
 40
1.0
 40
1.0
 40
1.0
 40
1.0
 10
-23.3186503024
 20
116.3414359378
 30
0.0
 10
-23.018832051
 20
115.6897981917
 30
0.0
 10
-22.2523076162
 20
114.4831966241
 30
0.0
 10
-21.1446172824
 20
113.5718970658
 30
0.0
 10
-20.5479846118
 20
113.2273093617
 30
0.0
  0
SPLINE
  5
2C8
100
AcDbEntity
  8
0
100
AcDbSpline
 62
7
  6
CONTINUOUS
 70
0
 71
3
 72
14
 73
10
 74
0
 42
0.0000001
 43
0.0000001
 44
0.0000000001
 40
0.0
 40
0.0
 40
0.0
 40
0.0
 40
0.1133356274
 40
0.2281777201
 40
0.3458669762
 40
0.4674483115
 40
0.5935973873
 40
0.7246002061
 40
1.0
 40
1.0
 40
1.0
 40
1.0
 10
5.5848239622
 20
192.2580933862
 30
0.0
 10
4.3492875212
 20
192.9717585167
 30
0.0
 10
1.7258039934
 20
194.186143531
 30
0.0
 10
-2.5078660001
 20
195.2910355854
 30
0.0
 10
-6.9710124889
 20
195.6678292215
 30
0.0
 10
-11.5761057676
 20
195.3126078766
 30
0.0
 10
-16.2387356736
 20
194.2355420322
 30
0.0
 10
-22.5144903425
 20
191.8321114427
 30
0.0
 10
-26.9019546953
 20
189.0722221803
 30
0.0
 10
-29.6173441159
 20
186.91635719
 30
0.0
  0
SPLINE
  5
2C9
100
AcDbEntity
  8
0
100
AcDbSpline
 62
7
  6
CONTINUOUS
 70
0
 71
3
 72
11
 73
7
 74
0
 42
0.0000001
 43
0.0000001
 44
0.0000000001
 40
0.0
 40
0.0
 40
0.0
 40
0.0
 40
0.2417482088
 40
0.4870452352
 40
0.7390076863
 40
1.0
 40
1.0
 40
1.0
 40
1.0
 10
7.9776396471
 20
190.8760466576
 30
0.0
 10
9.2779440471
 20
190.1249709559
 30
0.0
 10
11.7596968801
 20
188.3579200319
 30
0.0
 10
14.954456109
 20
185.027172349
 30
0.0
 10
17.5703090077
 20
181.0826357165
 30
0.0
 10
18.8690525373
 20
178.1553747553
 30
0.0
 10
19.4119885438
 20
176.6278230089
 30
0.0
  0
SPLINE
  5
2CA
100
AcDbEntity
  8
0
100
AcDbSpline
 62
7
  6
CONTINUOUS
 70
0
 71
3
 72
10
 73
6
 74
0
 42
0.0000001
 43
0.0000001
 44
0.0000000001
 40
0.0
 40
0.0
 40
0.0
 40
0.0
 40
0.2405678961
 40
0.486110569
 40
1.0
 40
1.0
 40
1.0
 40
1.0
 10
-18.7326107113
 20
112.2219181254
 30
0.0
 10
-19.0438916687
 20
112.4499021898
 30
0.0
 10
-19.6322527568
 20
112.9692516171
 30
0.0
 10
-20.6351847447
 20
114.2284270267
 30
0.0
 10
-21.1412434096
 20
115.3653782117
 30
0.0
 10
-21.3688326581
 20
116.1575460451
 30
0.0
  0
SPLINE
  5
2CB
100
AcDbEntity
  8
0
100
AcDbSpline
 62
7
  6
CONTINUOUS
 70
0
 71
3
 72
13
 73
9
 74
0
 42
0.0000001
 43
0.0000001
 44
0.0000000001
 40
0.0
 40
0.0
 40
0.0
 40
0.0
 40
0.2524377778
 40
0.3812184406
 40
0.5099061429
 40
0.6372517752
 40
0.7620937047
 40
1.0
 40
1.0
 40
1.0
 40
1.0
 10
-46.0410055933
 20
153.8703924771
 30
0.0
 10
-45.326647736
 20
157.9127070346
 30
0.0
 10
-43.4594579743
 20
163.9064942204
 30
0.0
 10
-39.6643433837
 20
171.2913103314
 30
0.0
 10
-36.1749184873
 20
176.5036421423
 30
0.0
 10
-32.1417595369
 20
181.225209359
 30
0.0
 10
-26.269689205
 20
186.6285562088
 30
0.0
 10
-21.185143714
 20
189.8014281962
 30
0.0
 10
-17.6341407289
 20
191.3366257244
 30
0.0
  0
SPLINE
  5
2CC
100
AcDbEntity
  8
0
100
AcDbSpline
 62
7
  6
CONTINUOUS
 70
0
 71
3
 72
12
 73
8
 74
0
 42
0.0000001
 43
0.0000001
 44
0.0000000001
 40
0.0
 40
0.0
 40
0.0
 40
0.0
 40
0.2667684884
 40
0.5207969387
 40
0.7639077991
 40
0.8825986205
 40
1.0
 40
1.0
 40
1.0
 40
1.0
 10
-17.6341407289
 20
191.3366257244
 30
0.0
 10
-15.690924994
 20
192.1767320284
 30
0.0
 10
-11.750605605
 20
193.5067069024
 30
0.0
 10
-5.7105232663
 20
194.3499852748
 30
0.0
 10
-0.7925411586
 20
194.0158817261
 30
0.0
 10
2.9110304305
 20
193.1236697243
 30
0.0
 10
4.6753887672
 20
192.4783051131
 30
0.0
 10
5.530243785
 20
192.1078245483
 30
0.0
  0
SPLINE
  5
2CD
100
AcDbEntity
  8
0
100
AcDbSpline
 62
7
  6
CONTINUOUS
 70
0
 71
3
 72
11
 73
7
 74
0
 42
0.0000001
 43
0.0000001
 44
0.0000000001
 40
0.0
 40
0.0
 40
0.0
 40
0.0
 40
0.2433036057
 40
0.4900523746
 40
0.7418517653
 40
1.0
 40
1.0
 40
1.0
 40
1.0
 10
-35.5844652026
 20
120.9478617741
 30
0.0
 10
-36.4719863462
 20
121.6073826443
 30
0.0
 10
-38.1696307532
 20
123.061595347
 30
0.0
 10
-40.4175039394
 20
125.5871321887
 30
0.0
 10
-42.3557359022
 20
128.4388427582
 30
0.0
 10
-43.4132552014
 20
130.5085114553
 30
0.0
 10
-43.8855051889
 20
131.5824709035
 30
0.0
  0
SPLINE
  5
2CE
100
AcDbEntity
  8
0
100
AcDbSpline
 62
7
  6
CONTINUOUS
 70
0
 71
3
 72
15
 73
11
 74
0
 42
0.0000001
 43
0.0000001
 44
0.0000000001
 40
0.0
 40
0.0
 40
0.0
 40
0.0
 40
0.1218787782
 40
0.2441250824
 40
0.3673128185
 40
0.49215682
 40
0.6188493857
 40
0.7466368421
 40
0.8740847337
 40
1.0
 40
1.0
 40
1.0
 40
1.0
 10
18.2043853781
 20
114.7812069387
 30
0.0
 10
18.56524182
 20
114.5727829596
 30
0.0
 10
19.3607369922
 20
114.2694644946
 30
0.0
 10
20.6336128541
 20
114.2045380932
 30
0.0
 10
21.8792109134
 20
114.511844927
 30
0.0
 10
23.0096693552
 20
115.1438773525
 30
0.0
 10
23.9639323587
 20
116.0398251702
 30
0.0
 10
24.6941120347
 20
117.1360651694
 30
0.0
 10
25.159854944
 20
118.3646890177
 30
0.0
 10
25.2712429914
 20
119.2341074174
 30
0.0
 10
25.2712517492
 20
119.6646316509
 30
0.0
  0
SPLINE
  5
2CF
100
AcDbEntity
  8
0
100
AcDbSpline
 62
7
  6
CONTINUOUS
 70
0
 71
3
 72
11
 73
7
 74
0
 42
0.0000001
 43
0.0000001
 44
0.0000000001
 40
0.0
 40
0.0
 40
0.0
 40
0.0
 40
0.2527865821
 40
0.5029718305
 40
0.7517443476
 40
1.0
 40
1.0
 40
1.0
 40
1.0
 10
25.2712517502
 20
119.6647341905
 30
0.0
 10
25.2712517467
 20
120.0436326799
 30
0.0
 10
25.185894979
 20
120.800915726
 30
0.0
 10
24.7858142482
 20
121.8672188881
 30
0.0
 10
24.123223303
 20
122.7869375022
 30
0.0
 10
23.5281085523
 20
123.2544846567
 30
0.0
 10
23.2058865751
 20
123.4405940866
 30
0.0
  0
SPLINE
  5
2D0
100
AcDbEntity
  8
0
100
AcDbSpline
 62
7
  6
CONTINUOUS
 70
0
 71
3
 72
15
 73
11
 74
0
 42
0.0000001
 43
0.0000001
 44
0.0000000001
 40
0.0
 40
0.0
 40
0.0
 40
0.0
 40
0.1218842387
 40
0.244140672
 40
0.3673323622
 40
0.4921743488
 40
0.6188704897
 40
0.7466516592
 40
0.8740981946
 40
1.0
 40
1.0
 40
1.0
 40
1.0
 10
33.5538699746
 20
140.5105882271
 30
0.0
 10
33.8425193503
 20
140.3436650478
 30
0.0
 10
34.4790007939
 20
140.1007847584
 30
0.0
 10
35.4974843262
 20
140.0486154522
 30
0.0
 10
36.4941794894
 20
140.2943496066
 30
0.0
 10
37.3987319968
 20
140.799979109
 30
0.0
 10
38.1622692369
 20
141.5167941605
 30
0.0
 10
38.746545734
 20
142.3938651329
 30
0.0
 10
39.119121855
 20
143.3768673138
 30
0.0
 10
39.2082528415
 20
144.0724534091
 30
0.0
 10
39.2082528415
 20
144.4168836526
 30
0.0
  0
SPLINE
  5
2D1
100
AcDbEntity
  8
0
100
AcDbSpline
 62
7
  6
CONTINUOUS
 70
0
 71
3
 72
11
 73
7
 74
0
 42
0.0000001
 43
0.0000001
 44
0.0000000001
 40
0.0
 40
0.0
 40
0.0
 40
0.0
 40
0.2527927069
 40
0.5029752771
 40
0.7517314748
 40
1.0
 40
1.0
 40
1.0
 40
1.0
 10
39.2082528415
 20
144.4168836526
 30
0.0
 10
39.2082528415
 20
144.7199231637
 30
0.0
 10
39.1400047026
 20
145.3255813273
 30
0.0
 10
38.8201195363
 20
146.178381922
 30
0.0
 10
38.2903788036
 20
146.9140755921
 30
0.0
 10
37.8144885978
 20
147.2880555502
 30
0.0
 10
37.5568504706
 20
147.4370452205
 30
0.0
  0
SPLINE
  5
2D2
100
AcDbEntity
  8
0
100
AcDbSpline
 62
7
  6
CONTINUOUS
 70
0
 71
3
 72
15
 73
11
 74
0
 42
0.0000001
 43
0.0000001
 44
0.0000000001
 40
0.0
 40
0.0
 40
0.0
 40
0.0
 40
0.1218842387
 40
0.244140672
 40
0.3673323622
 40
0.4921743488
 40
0.6188704897
 40
0.7466516592
 40
0.8740981946
 40
1.0
 40
1.0
 40
1.0
 40
1.0
 10
4.4164370221
 20
132.700139573
 30
0.0
 10
4.7050863978
 20
132.5332163937
 30
0.0
 10
5.3415678414
 20
132.2903361043
 30
0.0
 10
6.3600513737
 20
132.2381667981
 30
0.0
 10
7.3567465369
 20
132.4839009525
 30
0.0
 10
8.2612990443
 20
132.9895304549
 30
0.0
 10
9.0248362844
 20
133.7063455064
 30
0.0
 10
9.6091127815
 20
134.5834164788
 30
0.0
 10
9.9816889024
 20
135.5664186596
 30
0.0
 10
10.0708198889
 20
136.2620047549
 30
0.0
 10
10.0708198889
 20
136.6064349984
 30
0.0
  0
SPLINE
  5
2D3
100
AcDbEntity
  8
0
100
AcDbSpline
 62
7
  6
CONTINUOUS
 70
0
 71
3
 72
11
 73
7
 74
0
 42
0.0000001
 43
0.0000001
 44
0.0000000001
 40
0.0
 40
0.0
 40
0.0
 40
0.0
 40
0.2527927069
 40
0.5029752771
 40
0.7517314748
 40
1.0
 40
1.0
 40
1.0
 40
1.0
 10
10.0708198889
 20
136.6064349984
 30
0.0
 10
10.0708198889
 20
136.9094745096
 30
0.0
 10
10.00257175
 20
137.5151326732
 30
0.0
 10
9.6826865837
 20
138.3679332679
 30
0.0
 10
9.1529458511
 20
139.103626938
 30
0.0
 10
8.6770556452
 20
139.4776068961
 30
0.0
 10
8.4194175181
 20
139.6265965663
 30
0.0
  0
SPLINE
  5
2D4
100
AcDbEntity
  8
0
100
AcDbSpline
 62
7
  6
CONTINUOUS
 70
0
 71
3
 72
13
 73
9
 74
0
 42
0.0000001
 43
0.0000001
 44
0.0000000001
 40
0.0
 40
0.0
 40
0.0
 40
0.0
 40
0.2652172991
 40
0.5362801992
 40
0.6644692805
 40
0.7838205581
 40
0.8945960965
 40
1.0
 40
1.0
 40
1.0
 40
1.0
 10
3.1121420323
 20
135.2772342128
 30
0.0
 10
3.1121420324
 20
135.9873307905
 30
0.0
 10
3.4822893787
 20
137.4309570878
 30
0.0
 10
4.6020479297
 20
138.8833185567
 30
0.0
 10
5.7764989343
 20
139.6469039687
 30
0.0
 10
6.7000104582
 20
139.9506928001
 30
0.0
 10
7.6136955631
 20
139.9647797882
 30
0.0
 10
8.1741258368
 20
139.7682262342
 30
0.0
 10
8.4185082549
 20
139.6270891759
 30
0.0
  0
SPLINE
  5
2D5
100
AcDbEntity
  8
0
100
AcDbSpline
 62
7
  6
CONTINUOUS
 70
0
 71
3
 72
16
 73
12
 74
0
 42
0.0000001
 43
0.0000001
 44
0.0000000001
 40
0.0
 40
0.0
 40
0.0
 40
0.0
 40
0.1354384409
 40
0.2765857159
 40
0.4146532213
 40
0.542141154
 40
0.6567812579
 40
0.7112026298
 40
0.7651596806
 40
0.8765807001
 40
1.0
 40
1.0
 40
1.0
 40
1.0
 10
5.891078059
 20
135.0699298069
 30
0.0
 10
5.891078059
 20
135.3192950335
 30
0.0
 10
5.9840656203
 20
135.8307936851
 30
0.0
 10
6.3409172698
 20
136.5171474514
 30
0.0
 10
6.8712562585
 20
137.0623605943
 30
0.0
 10
7.5065502643
 20
137.3895564237
 30
0.0
 10
8.0722910059
 20
137.4281985449
 30
0.0
 10
8.4669457505
 20
137.3000053208
 30
0.0
 10
8.8109749969
 20
137.0785998539
 30
0.0
 10
9.1256130784
 20
136.622457843
 30
0.0
 10
9.1968386388
 20
136.1832929966
 30
0.0
 10
9.1968386388
 20
135.9560570548
 30
0.0
  0
SPLINE
  5
2D6
100
AcDbEntity
  8
0
100
AcDbSpline
 62
7
  6
CONTINUOUS
 70
0
 71
3
 72
16
 73
12
 74
0
 42
0.0000001
 43
0.0000001
 44
0.0000000001
 40
0.0
 40
0.0
 40
0.0
 40
0.0
 40
0.1354384409
 40
0.2765857159
 40
0.4146532213
 40
0.542141154
 40
0.6567812579
 40
0.7112026298
 40
0.7651596806
 40
0.8765807001
 40
1.0
 40
1.0
 40
1.0
 40
1.0
 10
9.1968386388
 20
135.9560570548
 30
0.0
 10
9.1968386388
 20
135.7066918282
 30
0.0
 10
9.1038510775
 20
135.1951931766
 30
0.0
 10
8.746999428
 20
134.5088394103
 30
0.0
 10
8.2166604393
 20
133.9636262674
 30
0.0
 10
7.5813664335
 20
133.636430438
 30
0.0
 10
7.0156256919
 20
133.5977883168
 30
0.0
 10
6.6209709473
 20
133.7259815409
 30
0.0
 10
6.2769417008
 20
133.9473870078
 30
0.0
 10
5.9623036194
 20
134.4035290187
 30
0.0
 10
5.891078059
 20
134.8426938651
 30
0.0
 10
5.891078059
 20
135.0699298069
 30
0.0
  0
SPLINE
  5
2D7
100
AcDbEntity
  8
0
100
AcDbSpline
 62
7
  6
CONTINUOUS
 70
0
 71
3
 72
13
 73
9
 74
0
 42
0.0000001
 43
0.0000001
 44
0.0000000001
 40
0.0
 40
0.0
 40
0.0
 40
0.0
 40
0.2652172991
 40
0.5362801992
 40
0.6644692805
 40
0.7838205581
 40
0.8945960965
 40
1.0
 40
1.0
 40
1.0
 40
1.0
 10
32.2495749849
 20
143.0876828669
 30
0.0
 10
32.249574985
 20
143.7977794446
 30
0.0
 10
32.6197223313
 20
145.241405742
 30
0.0
 10
33.7394808822
 20
146.6937672108
 30
0.0
 10
34.9139318869
 20
147.4573526228
 30
0.0
 10
35.8374434107
 20
147.7611414542
 30
0.0
 10
36.7511285157
 20
147.7752284423
 30
0.0
 10
37.3115587893
 20
147.5786748884
 30
0.0
 10
37.5559412074
 20
147.4375378301
 30
0.0
  0
SPLINE
  5
2D8
100
AcDbEntity
  8
0
100
AcDbSpline
 62
7
  6
CONTINUOUS
 70
0
 71
3
 72
16
 73
12
 74
0
 42
0.0000001
 43
0.0000001
 44
0.0000000001
 40
0.0
 40
0.0
 40
0.0
 40
0.0
 40
0.1354384409
 40
0.2765857159
 40
0.4146532213
 40
0.542141154
 40
0.6567812579
 40
0.7112026298
 40
0.7651596806
 40
0.8765807001
 40
1.0
 40
1.0
 40
1.0
 40
1.0
 10
35.0285110115
 20
142.8803784611
 30
0.0
 10
35.0285110115
 20
143.1297436876
 30
0.0
 10
35.1214985729
 20
143.6412423393
 30
0.0
 10
35.4783502224
 20
144.3275961055
 30
0.0
 10
36.0086892111
 20
144.8728092484
 30
0.0
 10
36.6439832168
 20
145.2000050779
 30
0.0
 10
37.2097239585
 20
145.238647199
 30
0.0
 10
37.604378703
 20
145.110453975
 30
0.0
 10
37.9484079495
 20
144.889048508
 30
0.0
 10
38.263046031
 20
144.4329064971
 30
0.0
 10
38.3342715914
 20
143.9937416507
 30
0.0
 10
38.3342715914
 20
143.7665057089
 30
0.0
  0
SPLINE
  5
2D9
100
AcDbEntity
  8
0
100
AcDbSpline
 62
7
  6
CONTINUOUS
 70
0
 71
3
 72
16
 73
12
 74
0
 42
0.0000001
 43
0.0000001
 44
0.0000000001
 40
0.0
 40
0.0
 40
0.0
 40
0.0
 40
0.1354384409
 40
0.2765857159
 40
0.4146532213
 40
0.542141154
 40
0.6567812579
 40
0.7112026298
 40
0.7651596806
 40
0.8765807001
 40
1.0
 40
1.0
 40
1.0
 40
1.0
 10
38.3342715914
 20
143.7665057089
 30
0.0
 10
38.3342715914
 20
143.5171404823
 30
0.0
 10
38.24128403
 20
143.0056418307
 30
0.0
 10
37.8844323805
 20
142.3192880645
 30
0.0
 10
37.3540933918
 20
141.7740749216
 30
0.0
 10
36.7187993861
 20
141.4468790921
 30
0.0
 10
36.1530586444
 20
141.408236971
 30
0.0
 10
35.7584038999
 20
141.536430195
 30
0.0
 10
35.4143746534
 20
141.757835662
 30
0.0
 10
35.0997365719
 20
142.2139776729
 30
0.0
 10
35.0285110115
 20
142.6531425193
 30
0.0
 10
35.0285110115
 20
142.8803784611
 30
0.0
  0
SPLINE
  5
2DA
100
AcDbEntity
  8
0
100
AcDbSpline
 62
7
  6
CONTINUOUS
 70
0
 71
3
 72
14
 73
10
 74
0
 42
0.0000001
 43
0.0000001
 44
0.0000000001
 40
0.0
 40
0.0
 40
0.0
 40
0.0
 40
0.2666954941
 40
0.4041668423
 40
0.538323555
 40
0.6657016202
 40
0.784365871
 40
0.8947579756
 40
1.0
 40
1.0
 40
1.0
 40
1.0
 10
16.5782873984
 20
118.2392262906
 30
0.0
 10
16.6178720731
 20
119.1116038531
 30
0.0
 10
17.0056089255
 20
120.4337830097
 30
0.0
 10
17.9809891558
 20
121.9100870405
 30
0.0
 10
18.9169568957
 20
122.8374198307
 30
0.0
 10
19.9840109736
 20
123.5007316066
 30
0.0
 10
21.1128511269
 20
123.8516244383
 30
0.0
 10
22.2256473289
 20
123.8554494586
 30
0.0
 10
22.9074922429
 20
123.6129747793
 30
0.0
 10
23.2058799233
 20
123.4405825717
 30
0.0
  0
SPLINE
  5
2DB
100
AcDbEntity
  8
0
100
AcDbSpline
 62
7
  6
CONTINUOUS
 70
0
 71
3
 72
16
 73
12
 74
0
 42
0.0000001
 43
0.0000001
 44
0.0000000001
 40
0.0
 40
0.0
 40
0.0
 40
0.0
 40
0.1354386672
 40
0.2765861346
 40
0.4146535728
 40
0.5421415011
 40
0.6567817563
 40
0.7112032027
 40
0.7651602572
 40
0.8765810625
 40
1.0
 40
1.0
 40
1.0
 40
1.0
 10
24.1787968719
 20
118.8517194058
 30
0.0
 10
24.1787937119
 20
118.5400125031
 30
0.0
 10
24.0625554371
 20
117.9006390633
 30
0.0
 10
23.616479387
 20
117.0427022999
 30
0.0
 10
22.9535525556
 20
116.3611900907
 30
0.0
 10
22.1594341852
 20
115.9521980577
 30
0.0
 10
21.4522591015
 20
115.9038937159
 30
0.0
 10
20.9589390305
 20
116.0641308578
 30
0.0
 10
20.5289001496
 20
116.3408823174
 30
0.0
 10
20.1355908933
 20
116.911049917
 30
0.0
 10
20.0465556851
 20
117.4600047726
 30
0.0
 10
20.0465528055
 20
117.744048728
 30
0.0
  0
SPLINE
  5
2DC
100
AcDbEntity
  8
0
100
AcDbSpline
 62
7
  6
CONTINUOUS
 70
0
 71
3
 72
16
 73
12
 74
0
 42
0.0000001
 43
0.0000001
 44
0.0000000001
 40
0.0
 40
0.0
 40
0.0
 40
0.0
 40
0.1354381693
 40
0.2765853125
 40
0.4146528682
 40
0.542140797
 40
0.6567807422
 40
0.7112020426
 40
0.7651590737
 40
0.8765803378
 40
1.0
 40
1.0
 40
1.0
 40
1.0
 10
20.0465528055
 20
117.744048728
 30
0.0
 10
20.0465559659
 20
118.0557613438
 30
0.0
 10
20.1627786753
 20
118.6951482421
 30
0.0
 10
20.6088461843
 20
119.5531134531
 30
0.0
 10
21.2717794349
 20
120.234648667
 30
0.0
 10
22.0659130821
 20
120.6436547583
 30
0.0
 10
22.7731045369
 20
120.6919566707
 30
0.0
 10
23.2664318355
 20
120.5317075202
 30
0.0
 10
23.6964745466
 20
120.2549391907
 30
0.0
 10
24.089772796
 20
119.6847405323
 30
0.0
 10
24.178793992
 20
119.1357712793
 30
0.0
 10
24.1787968719
 20
118.8517194058
 30
0.0
  0
SPLINE
  5
2DD
100
AcDbEntity
  8
0
100
AcDbSpline
 62
7
  6
CONTINUOUS
 70
0
 71
3
 72
11
 73
7
 74
0
 42
0.0000001
 43
0.0000001
 44
0.0000000001
 40
0.0
 40
0.0
 40
0.0
 40
0.0
 40
0.2323352221
 40
0.4730684122
 40
0.7282683285
 40
1.0
 40
1.0
 40
1.0
 40
1.0
 10
4.4165707728
 20
132.7000950416
 30
0.0
 10
4.2142382242
 20
132.8170516499
 30
0.0
 10
3.8369274983
 20
133.1208457574
 30
0.0
 10
3.4197198931
 20
133.7342664486
 30
0.0
 10
3.1653634563
 20
134.4716344476
 30
0.0
 10
3.1121420323
 20
135.0039022919
 30
0.0
 10
3.1121420323
 20
135.2772342128
 30
0.0
  0
SPLINE
  5
2DE
100
AcDbEntity
  8
0
100
AcDbSpline
 62
7
  6
CONTINUOUS
 70
0
 71
3
 72
11
 73
7
 74
0
 42
0.0000001
 43
0.0000001
 44
0.0000000001
 40
0.0
 40
0.0
 40
0.0
 40
0.0
 40
0.2323375412
 40
0.4730874519
 40
0.7282415735
 40
1.0
 40
1.0
 40
1.0
 40
1.0
 10
18.2043966785
 20
114.7812265005
 30
0.0
 10
17.9513706671
 20
114.9274121498
 30
0.0
 10
17.4793635484
 20
115.3070287795
 30
0.0
 10
16.9576458973
 20
116.073988607
 30
0.0
 10
16.6394140617
 20
116.9958985834
 30
0.0
 10
16.5729063786
 20
117.6614257689
 30
0.0
 10
16.5729044295
 20
118.0032267119
 30
0.0
  0
SPLINE
  5
2DF
100
AcDbEntity
  8
0
100
AcDbSpline
 62
7
  6
CONTINUOUS
 70
0
 71
3
 72
11
 73
7
 74
0
 42
0.0000001
 43
0.0000001
 44
0.0000000001
 40
0.0
 40
0.0
 40
0.0
 40
0.0
 40
0.2323352221
 40
0.4730684122
 40
0.7282683285
 40
1.0
 40
1.0
 40
1.0
 40
1.0
 10
33.5540037254
 20
140.5105436958
 30
0.0
 10
33.3516711767
 20
140.627500304
 30
0.0
 10
32.9743604509
 20
140.9312944116
 30
0.0
 10
32.5571528457
 20
141.5447151027
 30
0.0
 10
32.3027964089
 20
142.2820831017
 30
0.0
 10
32.2495749849
 20
142.814350946
 30
0.0
 10
32.2495749849
 20
143.0876828669
 30
0.0
  0
SPLINE
  5
2E0
100
AcDbEntity
  8
0
100
AcDbSpline
 62
7
  6
CONTINUOUS
 70
0
 71
3
 72
9
 73
5
 74
0
 42
0.0000001
 43
0.0000001
 44
0.0000000001
 40
0.0
 40
0.0
 40
0.0
 40
0.0
 40
0.4955328257
 40
1.0
 40
1.0
 40
1.0
 40
1.0
 10
-53.5916204784
 20
116.5300064256
 30
0.0
 10
-52.0661918443
 20
115.5461733226
 30
0.0
 10
-49.169902722
 20
113.2640328555
 30
0.0
 10
-46.7442548935
 20
110.4896671176
 30
0.0
 10
-45.6525166474
 20
108.9987445912
 30
0.0
  0
SPLINE
  5
2E1
100
AcDbEntity
  8
0
100
AcDbSpline
 62
7
  6
CONTINUOUS
 70
0
 71
3
 72
13
 73
9
 74
0
 42
0.0000001
 43
0.0000001
 44
0.0000000001
 40
0.0
 40
0.0
 40
0.0
 40
0.0
 40
0.115956433
 40
0.2329944755
 40
0.3521119148
 40
0.4741517602
 40
0.7288417932
 40
1.0
 40
1.0
 40
1.0
 40
1.0
 10
20.9817251548
 20
200.97606913
 30
0.0
 10
22.3937719765
 20
200.1605487461
 30
0.0
 10
25.1118110647
 20
198.3050278929
 30
0.0
 10
28.7537179469
 20
194.9252974754
 30
0.0
 10
31.9233943169
 20
190.9880376775
 30
0.0
 10
35.5133382092
 20
184.9877453915
 30
0.0
 10
38.580753778
 20
176.3019359309
 30
0.0
 10
39.3817793378
 20
168.8852911713
 30
0.0
 10
39.4152045243
 20
165.0722957608
 30
0.0
  0
SPLINE
  5
2E2
100
AcDbEntity
  8
0
100
AcDbSpline
 62
7
  6
CONTINUOUS
 70
0
 71
3
 72
9
 73
5
 74
0
 42
0.0000001
 43
0.0000001
 44
0.0000000001
 40
0.0
 40
0.0
 40
0.0
 40
0.0
 40
0.2567783684
 40
1.0
 40
1.0
 40
1.0
 40
1.0
 10
4.8300694144
 20
105.1297495397
 30
0.0
 10
3.8525949201
 20
104.575822199
 30
0.0
 10
-0.015781521
 20
102.5307474692
 30
0.0
 10
-4.1357066718
 20
100.9501315455
 30
0.0
 10
-7.2767363329
 20
100.1081613236
 30
0.0
  0
SPLINE
  5
2E3
100
AcDbEntity
  8
0
100
AcDbSpline
 62
7
  6
CONTINUOUS
 70
0
 71
3
 72
9
 73
5
 74
0
 42
0.0000001
 43
0.0000001
 44
0.0000000001
 40
0.0
 40
0.0
 40
0.0
 40
0.0
 40
0.4967028318
 40
1.0
 40
1.0
 40
1.0
 40
1.0
 10
18.7310596692
 20
197.0793624494
 30
0.0
 10
17.1745834075
 20
197.97833005
 30
0.0
 10
13.8708817152
 20
199.5082147901
 30
0.0
 10
10.3496188458
 20
200.4276379038
 30
0.0
 10
8.554895166
 20
200.7376089595
 30
0.0
  0
SPLINE
  5
2E4
100
AcDbEntity
  8
0
100
AcDbSpline
 62
7
  6
CONTINUOUS
 70
0
 71
3
 72
9
 73
5
 74
0
 42
0.0000001
 43
0.0000001
 44
0.0000000001
 40
0.0
 40
0.0
 40
0.0
 40
0.0
 40
0.4880712967
 40
1.0
 40
1.0
 40
1.0
 40
1.0
 10
8.554895166
 20
200.7376089595
 30
0.0
 10
5.9978933395
 20
201.1792349125
 30
0.0
 10
0.6354408695
 20
201.4518894248
 30
0.0
 10
-4.6478478282
 20
200.560654858
 30
0.0
 10
-7.2767363329
 20
199.8559668809
 30
0.0
  0
SPLINE
  5
2E5
100
AcDbEntity
  8
0
100
AcDbSpline
 62
7
  6
CONTINUOUS
 70
0
 71
3
 72
11
 73
7
 74
0
 42
0.0000001
 43
0.0000001
 44
0.0000000001
 40
0.0
 40
0.0
 40
0.0
 40
0.0
 40
0.1891902167
 40
0.4232411377
 40
0.6974277092
 40
1.0
 40
1.0
 40
1.0
 40
1.0
 10
14.8481823537
 20
204.2458608802
 30
0.0
 10
13.988420257
 20
204.5631784399
 30
0.0
 10
12.0207129376
 20
205.1523426209
 30
0.0
 10
8.7184864202
 20
205.8736864046
 30
0.0
 10
4.840318959
 20
206.5045934168
 30
0.0
 10
2.0658523843
 20
206.8392799867
 30
0.0
 10
0.6079568837
 20
206.9901483486
 30
0.0
  0
SPLINE
  5
2E6
100
AcDbEntity
  8
0
100
AcDbSpline
 62
7
  6
CONTINUOUS
 70
0
 71
3
 72
10
 73
6
 74
0
 42
0.0000001
 43
0.0000001
 44
0.0000000001
 40
0.0
 40
0.0
 40
0.0
 40
0.0
 40
0.5157708264
 40
0.765917128
 40
1.0
 40
1.0
 40
1.0
 40
1.0
 10
-49.4949205959
 20
170.4739467068
 30
0.0
 10
-50.2362148171
 20
167.3952859639
 30
0.0
 10
-51.5045315605
 20
162.8579757044
 30
0.0
 10
-53.6246529147
 20
157.0933221336
 30
0.0
 10
-54.7959718365
 20
154.3591928328
 30
0.0
 10
-55.3934185407
 20
153.0520738939
 30
0.0
  0
SPLINE
  5
2E7
100
AcDbEntity
  8
0
100
AcDbSpline
 62
7
  6
CONTINUOUS
 70
0
 71
3
 72
9
 73
5
 74
0
 42
0.0000001
 43
0.0000001
 44
0.0000000001
 40
0.0
 40
0.0
 40
0.0
 40
0.0
 40
0.5079817484
 40
1.0
 40
1.0
 40
1.0
 40
1.0
 10
6.207117721
 20
209.2367806498
 30
0.0
 10
3.7360427654
 20
209.1462088029
 30
0.0
 10
-1.1666892664
 20
209.4873282916
 30
0.0
 10
-5.8582899147
 20
210.977969072
 30
0.0
 10
-8.0331338919
 20
211.9810700684
 30
0.0
  0
SPLINE
  5
2E8
100
AcDbEntity
  8
0
100
AcDbSpline
 62
7
  6
CONTINUOUS
 70
0
 71
3
 72
9
 73
5
 74
0
 42
0.0000001
 43
0.0000001
 44
0.0000000001
 40
0.0
 40
0.0
 40
0.0
 40
0.0
 40
0.5129625534
 40
1.0
 40
1.0
 40
1.0
 40
1.0
 10
-10.8302784834
 20
211.8502017684
 30
0.0
 10
-13.3025960433
 20
210.665405296
 30
0.0
 10
-18.332059874
 20
208.7619821895
 30
0.0
 10
-23.6450251847
 20
207.8663568776
 30
0.0
 10
-26.2438157593
 20
207.7185185941
 30
0.0
  0
SPLINE
  5
2E9
100
AcDbEntity
  8
0
100
AcDbSpline
 62
7
  6
CONTINUOUS
 70
0
 71
3
 72
9
 73
5
 74
0
 42
0.0000001
 43
0.0000001
 44
0.0000000001
 40
0.0
 40
0.0
 40
0.0
 40
0.0
 40
0.5096339282
 40
1.0
 40
1.0
 40
1.0
 40
1.0
 10
-29.0409603509
 20
206.3498070069
 30
0.0
 10
-31.1672359579
 20
204.2291866124
 30
0.0
 10
-35.6518052011
 20
200.3678037432
 30
0.0
 10
-40.6962263294
 20
197.2622554694
 30
0.0
 10
-43.2812119638
 20
195.9711625492
 30
0.0
  0
SPLINE
  5
2EA
100
AcDbEntity
  8
0
100
AcDbSpline
 62
7
  6
CONTINUOUS
 70
0
 71
3
 72
9
 73
5
 74
0
 42
0.0000001
 43
0.0000001
 44
0.0000000001
 40
0.0
 40
0.0
 40
0.0
 40
0.0
 40
0.5026665714
 40
1.0
 40
1.0
 40
1.0
 40
1.0
 10
-45.6525166474
 20
193.5729816065
 30
0.0
 10
-47.1050528619
 20
190.8106167038
 30
0.0
 10
-50.3893901863
 20
185.5139553979
 30
0.0
 10
-54.3957322215
 20
180.7381884324
 30
0.0
 10
-56.5515333774
 20
178.5274304014
 30
0.0
  0
SPLINE
  5
2EB
100
AcDbEntity
  8
0
100
AcDbSpline
 62
7
  6
CONTINUOUS
 70
0
 71
3
 72
9
 73
5
 74
0
 42
0.0000001
 43
0.0000001
 44
0.0000000001
 40
0.0
 40
0.0
 40
0.0
 40
0.0
 40
0.4949957621
 40
1.0
 40
1.0
 40
1.0
 40
1.0
 10
-58.135988511
 20
175.4648814122
 30
0.0
 10
-58.6694955049
 20
172.4689513337
 30
0.0
 10
-60.2224284965
 20
166.4935801106
 30
0.0
 10
-62.6262966197
 20
160.8098231526
 30
0.0
 10
-64.0344938606
 20
158.0429722425
 30
0.0
  0
SPLINE
  5
2EC
100
AcDbEntity
  8
0
100
AcDbSpline
 62
7
  6
CONTINUOUS
 70
0
 71
3
 72
9
 73
5
 74
0
 42
0.0000001
 43
0.0000001
 44
0.0000000001
 40
0.0
 40
0.0
 40
0.0
 40
0.0
 40
0.2455013032
 40
1.0
 40
1.0
 40
1.0
 40
1.0
 10
-64.5908805132
 20
154.7823005282
 30
0.0
 10
-64.4696358806
 20
154.104329138
 30
0.0
 10
-64.0403486613
 20
151.3314365854
 30
0.0
 10
-63.8658491022
 20
148.5203441878
 30
0.0
 10
-63.8658491022
 20
146.4036794765
 30
0.0
  0
SPLINE
  5
2ED
100
AcDbEntity
  8
0
100
AcDbSpline
 62
7
  6
CONTINUOUS
 70
0
 71
3
 72
9
 73
5
 74
0
 42
0.0000001
 43
0.0000001
 44
0.0000000001
 40
0.0
 40
0.0
 40
0.0
 40
0.0
 40
0.2462539985
 40
1.0
 40
1.0
 40
1.0
 40
1.0
 10
-63.8658491022
 20
146.4036794765
 30
0.0
 10
-63.8658491022
 20
145.6811136052
 30
0.0
 10
-63.9280087871
 20
142.7471052482
 30
0.0
 10
-64.2346741918
 20
139.8191518479
 30
0.0
 10
-64.5908805132
 20
137.636361135
 30
0.0
  0
SPLINE
  5
2EE
100
AcDbEntity
  8
0
100
AcDbSpline
 62
7
  6
CONTINUOUS
 70
0
 71
3
 72
9
 73
5
 74
0
 42
0.0000001
 43
0.0000001
 44
0.0000000001
 40
0.0
 40
0.0
 40
0.0
 40
0.0
 40
0.4874940408
 40
1.0
 40
1.0
 40
1.0
 40
1.0
 10
-64.0344938606
 20
134.6739744062
 30
0.0
 10
-62.5887590042
 20
132.6084446064
 30
0.0
 10
-60.1135102935
 20
128.0131753726
 30
0.0
 10
-58.6479874419
 20
123.0149775498
 30
0.0
 10
-58.135988511
 20
120.4143186337
 30
0.0
  0
SPLINE
  5
2EF
100
AcDbEntity
  8
0
100
AcDbSpline
 62
7
  6
CONTINUOUS
 70
0
 71
3
 72
9
 73
5
 74
0
 42
0.0000001
 43
0.0000001
 44
0.0000000001
 40
0.0
 40
0.0
 40
0.0
 40
0.0
 40
0.5412988727
 40
1.0
 40
1.0
 40
1.0
 40
1.0
 10
-55.9498089254
 20
149.7913650864
 30
0.0
 10
-55.7786939898
 20
146.7006326299
 30
0.0
 10
-55.55776671
 20
140.9831817335
 30
0.0
 10
-55.7480220985
 20
135.2608107413
 30
0.0
 10
-55.9498132216
 20
132.6454608431
 30
0.0
  0
SPLINE
  5
2F0
100
AcDbEntity
  8
0
100
AcDbSpline
 62
7
  6
CONTINUOUS
 70
0
 71
3
 72
10
 73
6
 74
0
 42
0.0000001
 43
0.0000001
 44
0.0000000001
 40
0.0
 40
0.0
 40
0.0
 40
0.0
 40
0.5663719163
 40
0.8036138175
 40
1.0
 40
1.0
 40
1.0
 40
1.0
 10
-55.393418157
 20
129.6830403388
 30
0.0
 10
-54.3178009085
 20
126.9754553076
 30
0.0
 10
-52.7593750906
 20
123.146478049
 30
0.0
 10
-50.7812986485
 20
118.3980446388
 30
0.0
 10
-49.9035019109
 20
116.3473123661
 30
0.0
 10
-49.4949287592
 20
115.423413214
 30
0.0
  0
SPLINE
  5
2F1
100
AcDbEntity
  8
0
100
AcDbSpline
 62
7
  6
CONTINUOUS
 70
0
 71
3
 72
11
 73
7
 74
0
 42
0.0000001
 43
0.0000001
 44
0.0000000001
 40
0.0
 40
0.0
 40
0.0
 40
0.0
 40
0.295449182
 40
0.5660792921
 40
0.8024724552
 40
1.0
 40
1.0
 40
1.0
 40
1.0
 10
-47.9104539671
 20
113.2102820796
 30
0.0
 10
-47.0178317798
 20
112.2415071646
 30
0.0
 10
-45.2682176696
 20
110.4209255303
 30
0.0
 10
-42.655095296
 20
107.9736692935
 30
0.0
 10
-40.2196271238
 20
105.9853484467
 30
0.0
 10
-38.6111803947
 20
104.9016570197
 30
0.0
 10
-37.8485378511
 20
104.4611762054
 30
0.0
  0
SPLINE
  5
2F2
100
AcDbEntity
  8
0
100
AcDbSpline
 62
7
  6
CONTINUOUS
 70
0
 71
3
 72
9
 73
5
 74
0
 42
0.0000001
 43
0.0000001
 44
0.0000000001
 40
0.0
 40
0.0
 40
0.0
 40
0.0
 40
0.2615616128
 40
1.0
 40
1.0
 40
1.0
 40
1.0
 10
-17.6026716245
 20
202.7276558257
 30
0.0
 10
-16.8488590861
 20
202.9199834282
 30
0.0
 10
-13.9668759552
 20
203.6551871155
 30
0.0
 10
-11.0872207572
 20
204.3998715571
 30
0.0
 10
-8.9657829912
 20
204.9685345807
 30
0.0
  0
SPLINE
  5
2F3
100
AcDbEntity
  8
0
100
AcDbSpline
 62
7
  6
CONTINUOUS
 70
0
 71
3
 72
11
 73
7
 74
0
 42
0.0000001
 43
0.0000001
 44
0.0000000001
 40
0.0
 40
0.0
 40
0.0
 40
0.0
 40
0.2396535095
 40
0.4917119066
 40
0.7480912091
 40
1.0
 40
1.0
 40
1.0
 40
1.0
 10
-37.0114518678
 20
188.5820490721
 30
0.0
 10
-37.7554670499
 20
187.2950867985
 30
0.0
 10
-39.343413853
 20
184.6893539484
 30
0.0
 10
-41.9645556944
 20
180.8574389962
 30
0.0
 10
-44.8364842564
 20
177.1135654129
 30
0.0
 10
-46.8764661047
 20
174.7080657974
 30
0.0
 10
-47.9104507463
 20
173.5365302819
 30
0.0
  0
SPLINE
  5
2F4
100
AcDbEntity
  8
0
100
AcDbSpline
 62
7
  6
CONTINUOUS
 70
0
 71
3
 72
10
 73
6
 74
0
 42
0.0000001
 43
0.0000001
 44
0.0000000001
 40
0.0
 40
0.0
 40
0.0
 40
0.0
 40
0.221142219
 40
0.4668534797
 40
1.0
 40
1.0
 40
1.0
 40
1.0
 10
-20.3998970216
 20
201.3588782238
 30
0.0
 10
-21.3774881811
 20
200.5017214856
 30
0.0
 10
-23.4828275231
 20
198.7389612776
 30
0.0
 10
-28.1620038197
 20
195.1762125315
 30
0.0
 10
-31.9856254709
 20
192.6472319564
 30
0.0
 10
-34.6401237934
 20
190.9802574489
 30
0.0
  0
SPLINE
  5
2F5
100
AcDbEntity
  8
0
100
AcDbSpline
 62
7
  6
CONTINUOUS
 70
0
 71
3
 72
12
 73
8
 74
0
 42
0.0000001
 43
0.0000001
 44
0.0000000001
 40
0.0
 40
0.0
 40
0.0
 40
0.0
 40
0.2633221868
 40
0.5157570206
 40
0.7599453181
 40
0.8802589374
 40
1.0
 40
1.0
 40
1.0
 40
1.0
 10
-7.2767363329
 20
100.1081613236
 30
0.0
 10
-9.7470647957
 20
99.4459762351
 30
0.0
 10
-14.7059588456
 20
98.5454269142
 30
0.0
 10
-22.1294955665
 20
98.5808092018
 30
0.0
 10
-28.0424314207
 20
99.8091071014
 30
0.0
 10
-32.4446939764
 20
101.4846301582
 30
0.0
 10
-34.5280988412
 20
102.5434199961
 30
0.0
 10
-35.5351978206
 20
103.125064835
 30
0.0
  0
SPLINE
  5
2F6
100
AcDbEntity
  8
0
100
AcDbSpline
 62
7
  6
CONTINUOUS
 70
0
 71
3
 72
14
 73
10
 74
0
 42
0.0000001
 43
0.0000001
 44
0.0000000001
 40
0.0
 40
0.0
 40
0.0
 40
0.0
 40
0.1140153821
 40
0.2330495182
 40
0.3565670243
 40
0.4836186552
 40
0.6129723638
 40
0.7432191736
 40
1.0
 40
1.0
 40
1.0
 40
1.0
 10
-7.2767363329
 20
199.8559668809
 30
0.0
 10
-9.6816830991
 20
199.2113077147
 30
0.0
 10
-14.4897536347
 20
197.4625613354
 30
0.0
 10
-21.3305008684
 20
193.6868614196
 30
0.0
 10
-27.7898558768
 20
188.8033127114
 30
0.0
 10
-33.6964725519
 20
182.9442804501
 30
0.0
 10
-38.8982160861
 20
176.2619761041
 30
0.0
 10
-44.6752668043
 20
166.5567979205
 30
0.0
 10
-47.6321477665
 20
158.5095958521
 30
0.0
 10
-48.846124082
 20
153.0350396265
 30
0.0
  0
SPLINE
  5
2F7
100
AcDbEntity
  8
0
100
AcDbSpline
 62
7
  6
CONTINUOUS
 70
0
 71
3
 72
9
 73
5
 74
0
 42
0.0000001
 43
0.0000001
 44
0.0000000001
 40
0.0
 40
0.0
 40
0.0
 40
0.0
 40
0.2549119976
 40
1.0
 40
1.0
 40
1.0
 40
1.0
 10
-41.7013439955
 20
152.8206260805
 30
0.0
 10
-41.8915670444
 20
151.9591466193
 30
0.0
 10
-42.5508063788
 20
148.5613134157
 30
0.0
 10
-42.8552499537
 20
145.0922443636
 30
0.0
 10
-42.8552499537
 20
142.5135513409
 30
0.0
  0
SPLINE
  5
2F8
100
AcDbEntity
  8
0
100
AcDbSpline
 62
7
  6
CONTINUOUS
 70
0
 71
3
 72
9
 73
5
 74
0
 42
0.0000001
 43
0.0000001
 44
0.0000000001
 40
0.0
 40
0.0
 40
0.0
 40
0.0
 40
0.2565532395
 40
1.0
 40
1.0
 40
1.0
 40
1.0
 10
-42.8552499537
 20
142.5135513409
 30
0.0
 10
-42.8552499537
 20
141.6780043678
 30
0.0
 10
-42.7628101546
 20
138.4223050975
 30
0.0
 10
-42.28960209
 20
135.1738215853
 30
0.0
 10
-41.7013439955
 20
132.8250982384
 30
0.0
  0
SPLINE
  5
2F9
100
AcDbEntity
  8
0
100
AcDbSpline
 62
7
  6
CONTINUOUS
 70
0
 71
3
 72
9
 73
5
 74
0
 42
0.0000001
 43
0.0000001
 44
0.0000000001
 40
0.0
 40
0.0
 40
0.0
 40
0.0
 40
0.2550627976
 40
1.0
 40
1.0
 40
1.0
 40
1.0
 10
-48.846124082
 20
128.780289743
 30
0.0
 10
-48.6724524388
 20
128.090206138
 30
0.0
 10
-47.9251574665
 20
125.4020351486
 30
0.0
 10
-46.9065335552
 20
122.7874979771
 30
0.0
 10
-45.99194046
 20
120.92125095
 30
0.0
  0
SPLINE
  5
2FA
100
AcDbEntity
  8
0
100
AcDbSpline
 62
7
  6
CONTINUOUS
 70
0
 71
3
 72
9
 73
5
 74
0
 42
0.0000001
 43
0.0000001
 44
0.0000000001
 40
0.0
 40
0.0
 40
0.0
 40
0.0
 40
0.505594843
 40
1.0
 40
1.0
 40
1.0
 40
1.0
 10
-45.99194046
 20
120.92125095
 30
0.0
 10
-45.3813097412
 20
119.675245738
 30
0.0
 10
-44.0338454926
 20
117.2764165729
 30
0.0
 10
-42.4093298758
 20
115.0547612375
 30
0.0
 10
-41.5412906688
 20
114.0118685838
 30
0.0
  0
SPLINE
  5
2FB
100
AcDbEntity
  8
0
100
AcDbSpline
 62
7
  6
CONTINUOUS
 70
0
 71
3
 72
9
 73
5
 74
0
 42
0.0000001
 43
0.0000001
 44
0.0000000001
 40
0.0
 40
0.0
 40
0.0
 40
0.0
 40
0.5032991635
 40
1.0
 40
1.0
 40
1.0
 40
1.0
 10
-41.5412906688
 20
114.0118685838
 30
0.0
 10
-40.3756500389
 20
112.6114271754
 30
0.0
 10
-37.8188803579
 20
110.0193541449
 30
0.0
 10
-34.8416621091
 20
107.9211165628
 30
0.0
 10
-33.2845323349
 20
107.0217715156
 30
0.0
  0
SPLINE
  5
2FC
100
AcDbEntity
  8
0
100
AcDbSpline
 62
7
  6
CONTINUOUS
 70
0
 71
3
 72
11
 73
7
 74
0
 42
0.0000001
 43
0.0000001
 44
0.0000000001
 40
0.0
 40
0.0
 40
0.0
 40
0.0
 40
0.2397964485
 40
0.4840674837
 40
0.7365879933
 40
1.0
 40
1.0
 40
1.0
 40
1.0
 10
-33.2845323349
 20
107.0217715156
 30
0.0
 10
-31.4289712595
 20
105.9500627278
 30
0.0
 10
-27.4368693919
 20
104.1858719935
 30
0.0
 10
-20.9479187304
 20
102.8402659743
 30
0.0
 10
-14.1138407422
 20
102.8066628806
 30
0.0
 10
-9.5503162822
 20
103.6357215133
 30
0.0
 10
-7.2767363329
 20
104.2451670841
 30
0.0
  0
SPLINE
  5
2FD
100
AcDbEntity
  8
0
100
AcDbSpline
 62
7
  6
CONTINUOUS
 70
0
 71
3
 72
14
 73
10
 74
0
 42
0.0000001
 43
0.0000001
 44
0.0000000001
 40
0.0
 40
0.0
 40
0.0
 40
0.0
 40
0.1135076949
 40
0.2288787992
 40
0.3471711029
 40
0.4691921222
 40
0.5954559188
 40
0.7261745358
 40
1.0
 40
1.0
 40
1.0
 40
1.0
 10
-37.7758092898
 20
104.5436083119
 30
0.0
 10
-39.258661238
 20
105.5690396337
 30
0.0
 10
-42.0823486697
 20
107.8890748241
 30
0.0
 10
-45.7381599832
 20
112.0464776218
 30
0.0
 10
-48.7824024978
 20
116.83127797
 30
0.0
 10
-51.1678313138
 20
122.1635557207
 30
0.0
 10
-52.8604752987
 20
127.9595736887
 30
0.0
 10
-54.1819821288
 20
136.3030276765
 30
0.0
 10
-54.0312841411
 20
142.7986600554
 30
0.0
 10
-53.4880437322
 20
147.1138485365
 30
0.0
  0
SPLINE
  5
2FE
100
AcDbEntity
  8
0
100
AcDbSpline
 62
7
  6
CONTINUOUS
 70
0
 71
3
 72
14
 73
10
 74
0
 42
0.0000001
 43
0.0000001
 44
0.0000000001
 40
0.0
 40
0.0
 40
0.0
 40
0.0
 40
0.2543950706
 40
0.3845882736
 40
0.5143688428
 40
0.6420907866
 40
0.7662875336
 40
0.8858120471
 40
1.0
 40
1.0
 40
1.0
 40
1.0
 10
-53.3279534901
 20
148.2962957662
 30
0.0
 10
-52.403135623
 20
154.6800026677
 30
0.0
 10
-49.545553519
 20
164.1764077716
 30
0.0
 10
-43.3961703397
 20
175.7032256978
 30
0.0
 10
-37.6450724034
 20
183.715670138
 30
0.0
 10
-30.9707917206
 20
190.765522295
 30
0.0
 10
-23.5690647833
 20
196.6446470491
 30
0.0
 10
-15.6632919096
 20
201.171649926
 30
0.0
 10
-10.0733150137
 20
203.2433343899
 30
0.0
 10
-7.2767363329
 20
203.9929726414
 30
0.0
  0
SPLINE
  5
2FF
100
AcDbEntity
  8
0
100
AcDbSpline
 62
7
  6
CONTINUOUS
 70
0
 71
3
 72
12
 73
8
 74
0
 42
0.0000001
 43
0.0000001
 44
0.0000000001
 40
0.0
 40
0.0
 40
0.0
 40
0.0
 40
0.2633221868
 40
0.5157570206
 40
0.7599453181
 40
0.8802589374
 40
1.0
 40
1.0
 40
1.0
 40
1.0
 10
-7.2767363329
 20
203.9929726414
 30
0.0
 10
-4.8064078708
 20
204.6551577326
 30
0.0
 10
0.1524861802
 20
205.555707049
 30
0.0
 10
7.5760229007
 20
205.5203247638
 30
0.0
 10
13.4889587549
 20
204.2920268634
 30
0.0
 10
17.8912213107
 20
202.6165038068
 30
0.0
 10
19.9746261755
 20
201.5577139689
 30
0.0
 10
20.9817251548
 20
200.97606913
 30
0.0
  0
SPLINE
  5
300
100
AcDbEntity
  8
0
100
AcDbSpline
 62
7
  6
CONTINUOUS
 70
0
 71
3
 72
9
 73
5
 74
0
 42
0.0000001
 43
0.0000001
 44
0.0000000001
 40
0.0
 40
0.0
 40
0.0
 40
0.0
 40
0.2451388826
 40
1.0
 40
1.0
 40
1.0
 40
1.0
 10
-7.2767363329
 20
104.2451670841
 30
0.0
 10
-6.5842370024
 20
104.4307953263
 30
0.0
 10
-3.7785939395
 20
105.2589220832
 30
0.0
 10
-1.0559101762
 20
106.3626293788
 30
0.0
 10
0.9308926747
 20
107.3252283444
 30
0.0
  0
SPLINE
  5
301
100
AcDbEntity
  8
0
100
AcDbSpline
 62
7
  6
CONTINUOUS
 70
0
 71
3
 72
11
 73
7
 74
0
 42
0.0000001
 43
0.0000001
 44
0.0000000001
 40
0.0
 40
0.0
 40
0.0
 40
0.0
 40
0.2638732824
 40
0.5165087291
 40
0.7605837443
 40
1.0
 40
1.0
 40
1.0
 40
1.0
 10
34.2926514163
 20
175.320844222
 30
0.0
 10
33.7035226673
 20
177.6617450355
 30
0.0
 10
32.1637425957
 20
182.1598822741
 30
0.0
 10
28.7006482325
 20
188.244667569
 30
0.0
 10
24.2249267781
 20
193.339851826
 30
0.0
 10
20.6276200671
 20
195.9839738512
 30
0.0
 10
18.7310596692
 20
197.0793624494
 30
0.0
  0
SPLINE
  5
302
100
AcDbEntity
  8
0
100
AcDbSpline
 62
7
  6
CONTINUOUS
 70
0
 71
3
 72
13
 73
9
 74
0
 42
0.0000001
 43
0.0000001
 44
0.0000000001
 40
0.0
 40
0.0
 40
0.0
 40
0.0
 40
0.2652052894
 40
0.5362358252
 40
0.6644343081
 40
0.7837848647
 40
0.8945732651
 40
1.0
 40
1.0
 40
1.0
 40
1.0
 10
25.8688724944
 20
102.008159329
 30
0.0
 10
25.8688724944
 20
101.2980980506
 30
0.0
 10
25.4987683703
 20
99.8545943609
 30
0.0
 10
24.3791298389
 20
98.4022979438
 30
0.0
 10
23.2048042906
 20
97.638652727
 30
0.0
 10
22.2812672023
 20
97.3347574726
 30
0.0
 10
21.3674961778
 20
97.3206249699
 30
0.0
 10
20.8069482133
 20
97.5171508059
 30
0.0
 10
20.5625166927
 20
97.6583225731
 30
0.0
  0
SPLINE
  5
303
100
AcDbEntity
  8
0
100
AcDbSpline
 62
7
  6
CONTINUOUS
 70
0
 71
3
 72
11
 73
7
 74
0
 42
0.0000001
 43
0.0000001
 44
0.0000000001
 40
0.0
 40
0.0
 40
0.0
 40
0.0
 40
0.2597178272
 40
0.5114253714
 40
0.7572540204
 40
1.0
 40
1.0
 40
1.0
 40
1.0
 10
19.257302019
 20
102.3800829677
 30
0.0
 10
18.0182802995
 20
102.208606162
 30
0.0
 10
15.5492024535
 20
102.0478116462
 30
0.0
 10
11.902317215
 20
102.389418561
 30
0.0
 10
8.4416291673
 20
103.3140765099
 30
0.0
 10
6.295287394
 20
104.3127758098
 30
0.0
 10
5.2829225988
 20
104.8974944563
 30
0.0
  0
SPLINE
  5
304
100
AcDbEntity
  8
0
100
AcDbSpline
 62
7
  6
CONTINUOUS
 70
0
 71
3
 72
20
 73
16
 74
0
 42
0.0000001
 43
0.0000001
 44
0.0000000001
 40
0.0
 40
0.0
 40
0.0
 40
0.0
 40
0.1227235974
 40
0.1878064403
 40
0.2547478068
 40
0.3916132859
 40
0.4604254631
 40
0.528481359
 40
0.6595702
 40
0.7219374191
 40
0.7817550178
 40
0.8390517047
 40
0.8941187012
 40
0.9475100857
 40
1.0
 40
1.0
 40
1.0
 40
1.0
 10
22.5630872567
 20
163.5448457234
 30
0.0
 10
19.7764481346
 20
162.7978718285
 30
0.0
 10
15.6835975399
 20
160.9282513221
 30
0.0
 10
10.8353211566
 20
157.397354681
 30
0.0
 10
6.229814897
 20
153.0452356529
 30
0.0
 10
2.4124794145
 20
147.8081810888
 30
0.0
 10
-0.4179245415
 20
142.0153071153
 30
0.0
 10
-2.4953656342
 20
136.0573616955
 30
0.0
 10
-3.4514934947
 20
129.9001146595
 30
0.0
 10
-3.1178449826
 20
123.9378570617
 30
0.0
 10
-2.2513106923
 20
119.7902581877
 30
0.0
 10
-0.7811300137
 20
115.9980082714
 30
0.0
 10
1.2625972091
 20
112.6536266019
 30
0.0
 10
3.8323978175
 20
109.8444926046
 30
0.0
 10
5.8649129785
 20
108.3722794448
 30
0.0
 10
6.9334087218
 20
107.7550757035
 30
0.0
  0
SPLINE
  5
305
100
AcDbEntity
  8
0
100
AcDbSpline
 62
7
  6
CONTINUOUS
 70
0
 71
3
 72
11
 73
7
 74
0
 42
0.0000001
 43
0.0000001
 44
0.0000000001
 40
0.0
 40
0.0
 40
0.0
 40
0.0
 40
0.2397930808
 40
0.484063102
 40
0.7365900134
 40
1.0
 40
1.0
 40
1.0
 40
1.0
 10
38.1927657916
 20
161.8762024039
 30
0.0
 10
37.0776949631
 20
162.5203096841
 30
0.0
 10
34.678582034
 20
163.5804550226
 30
0.0
 10
30.778981821
 20
164.3891829247
 30
0.0
 10
26.671936485
 20
164.4093209597
 30
0.0
 10
23.9294114637
 20
163.9110964182
 30
0.0
 10
22.5630872567
 20
163.5448457234
 30
0.0
  0
SPLINE
  5
306
100
AcDbEntity
  8
0
100
AcDbSpline
 62
7
  6
CONTINUOUS
 70
0
 71
3
 72
14
 73
10
 74
0
 42
0.0000001
 43
0.0000001
 44
0.0000000001
 40
0.0
 40
0.0
 40
0.0
 40
0.0
 40
0.1147610167
 40
0.235400382
 40
0.3609934356
 40
0.4900010127
 40
0.6205077514
 40
0.75043977
 40
1.0
 40
1.0
 40
1.0
 40
1.0
 10
-12.3438761877
 20
186.7402637512
 30
0.0
 10
-14.2465320812
 20
186.2302464074
 30
0.0
 10
-18.048095509
 20
184.7761812111
 30
0.0
 10
-23.3659155138
 20
181.5403370995
 30
0.0
 10
-28.2653050801
 20
177.3165414844
 30
0.0
 10
-32.5653740746
 20
172.2643379124
 30
0.0
 10
-36.1114132454
 20
166.5655566937
 30
0.0
 10
-39.6064013541
 20
158.5211225678
 30
0.0
 10
-40.8508489293
 20
151.9769064947
 30
0.0
 10
-40.8956337267
 20
147.6935396756
 30
0.0
  0
SPLINE
  5
307
100
AcDbEntity
  8
0
100
AcDbSpline
 62
7
  6
CONTINUOUS
 70
0
 71
3
 72
13
 73
9
 74
0
 42
0.0000001
 43
0.0000001
 44
0.0000000001
 40
0.0
 40
0.0
 40
0.0
 40
0.0
 40
0.271741444
 40
0.5266527099
 40
0.6486311163
 40
0.7675741437
 40
0.8843514739
 40
1.0
 40
1.0
 40
1.0
 40
1.0
 10
-40.8956337267
 20
147.6935396756
 30
0.0
 10
-40.9207052659
 20
145.2956143704
 30
0.0
 10
-40.5010458123
 20
140.6249032159
 30
0.0
 10
-38.6541753248
 20
135.1380652726
 30
0.0
 10
-36.4432962288
 20
131.3474105707
 30
0.0
 10
-34.4774697008
 20
128.8630819484
 30
0.0
 10
-32.2076638182
 20
126.7342962558
 30
0.0
 10
-30.5077792053
 20
125.5695715404
 30
0.0
 10
-29.6240484945
 20
125.0590942583
 30
0.0
  0
SPLINE
  5
308
100
AcDbEntity
  8
0
100
AcDbSpline
 62
7
  6
CONTINUOUS
 70
0
 71
3
 72
11
 73
7
 74
0
 42
0.0000001
 43
0.0000001
 44
0.0000000001
 40
0.0
 40
0.0
 40
0.0
 40
0.0
 40
0.2621408188
 40
0.5150127336
 40
0.7601866144
 40
1.0
 40
1.0
 40
1.0
 40
1.0
 10
-16.0316279709
 20
109.5316635543
 30
0.0
 10
-17.9301870898
 20
109.0227443733
 30
0.0
 10
-21.7360178479
 20
108.279435069
 30
0.0
 10
-27.4542902865
 20
108.0454351596
 30
0.0
 10
-32.9706004139
 20
108.7207988895
 30
0.0
 10
-36.4719908544
 20
109.7817139612
 30
0.0
 10
-38.1394518821
 20
110.4547575955
 30
0.0
  0
SPLINE
  5
309
100
AcDbEntity
  8
0
100
AcDbSpline
 62
7
  6
CONTINUOUS
 70
0
 71
3
 72
11
 73
7
 74
0
 42
0.0000001
 43
0.0000001
 44
0.0000000001
 40
0.0
 40
0.0
 40
0.0
 40
0.0
 40
0.2402495787
 40
0.4856341212
 40
0.7383683862
 40
1.0
 40
1.0
 40
1.0
 40
1.0
 10
13.3464722051
 20
199.5574071062
 30
0.0
 10
14.7171709607
 20
198.4835904201
 30
0.0
 10
17.304481138
 20
196.0679272617
 30
0.0
 10
20.5677622856
 20
191.7980625655
 30
0.0
 10
23.1905885359
 20
186.9325325335
 30
0.0
 10
24.4606284514
 20
183.4118914631
 30
0.0
 10
24.9822822757
 20
181.5888546692
 30
0.0
  0
SPLINE
  5
30A
100
AcDbEntity
  8
0
100
AcDbSpline
 62
7
  6
CONTINUOUS
 70
0
 71
3
 72
9
 73
5
 74
0
 42
0.0000001
 43
0.0000001
 44
0.0000000001
 40
0.0
 40
0.0
 40
0.0
 40
0.0
 40
0.2449225191
 40
1.0
 40
1.0
 40
1.0
 40
1.0
 10
24.9822822757
 20
181.5888546692
 30
0.0
 10
25.1900373396
 20
180.8628078007
 30
0.0
 10
25.9583762454
 20
177.8758720516
 30
0.0
 10
26.4110621178
 20
174.8098294327
 30
0.0
 10
26.5887682371
 20
172.4884397266
 30
0.0
  0
SPLINE
  5
30B
100
AcDbEntity
  8
0
100
AcDbSpline
 62
7
  6
CONTINUOUS
 70
0
 71
3
 72
9
 73
5
 74
0
 42
0.0000001
 43
0.0000001
 44
0.0000000001
 40
0.0
 40
0.0
 40
0.0
 40
0.0
 40
0.2549484563
 40
1.0
 40
1.0
 40
1.0
 40
1.0
 10
-8.0468753209
 20
112.5085028202
 30
0.0
 10
-8.7004044251
 20
112.1951598973
 30
0.0
 10
-11.2901725271
 20
111.0223434836
 30
0.0
 10
-13.9858274433
 20
110.0800516022
 30
0.0
 10
-16.0316279709
 20
109.5316635543
 30
0.0
  0
SPLINE
  5
30C
100
AcDbEntity
  8
0
100
AcDbSpline
 62
7
  6
CONTINUOUS
 70
0
 71
3
 72
11
 73
7
 74
0
 42
0.0000001
 43
0.0000001
 44
0.0000000001
 40
0.0
 40
0.0
 40
0.0
 40
0.0
 40
0.2397929755
 40
0.4840626592
 40
0.7365896644
 40
1.0
 40
1.0
 40
1.0
 40
1.0
 10
4.9362961191
 20
184.8954114561
 30
0.0
 10
3.7034748715
 20
185.6075370303
 30
0.0
 10
1.051017675
 20
186.7796321175
 30
0.0
 10
-3.2603777987
 20
187.673762396
 30
0.0
 10
-7.8011277824
 20
187.6960280509
 30
0.0
 10
-10.8332661541
 20
187.145191053
 30
0.0
 10
-12.3438761877
 20
186.7402637512
 30
0.0
  0
SPLINE
  5
30D
100
AcDbEntity
  8
0
100
AcDbSpline
 62
7
  6
CONTINUOUS
 70
0
 71
3
 72
19
 73
15
 74
0
 42
0.0000001
 43
0.0000001
 44
0.0000000001
 40
0.0
 40
0.0
 40
0.0
 40
0.0
 40
0.0523801911
 40
0.1055806958
 40
0.1603158086
 40
0.2171145747
 40
0.2762808511
 40
0.3378888806
 40
0.4674489928
 40
0.6030977367
 40
0.7402095494
 40
0.8078503589
 40
0.874035422
 40
1.0
 40
1.0
 40
1.0
 40
1.0
 10
39.8432493789
 20
164.7337796402
 30
0.0
 10
40.9694580294
 20
164.0832501367
 30
0.0
 10
43.1160414844
 20
162.5442496053
 30
0.0
 10
45.8596620579
 20
159.6288902199
 30
0.0
 10
48.0808852177
 20
156.1679310379
 30
0.0
 10
49.7321230912
 20
152.2435143112
 30
0.0
 10
50.7818936702
 20
147.9432484074
 30
0.0
 10
51.3633002039
 20
141.736339381
 30
0.0
 10
50.4512575197
 20
133.5756474322
 30
0.0
 10
47.0205250112
 20
124.1078558644
 30
0.0
 10
42.4153348858
 20
116.9277373698
 30
0.0
 10
37.8594547738
 20
111.958008538
 30
0.0
 10
32.9636800244
 20
107.7447102548
 30
0.0
 10
28.7751322632
 20
105.308210975
 30
0.0
 10
25.8688724944
 20
104.1523506827
 30
0.0
  0
SPLINE
  5
30E
100
AcDbEntity
  8
0
100
AcDbSpline
 62
7
  6
CONTINUOUS
 70
0
 71
3
 72
20
 73
16
 74
0
 42
0.0000001
 43
0.0000001
 44
0.0000000001
 40
0.0
 40
0.0
 40
0.0
 40
0.0
 40
0.1227235974
 40
0.1878064403
 40
0.2547478068
 40
0.3916132859
 40
0.4604254631
 40
0.528481359
 40
0.6595702
 40
0.7219374191
 40
0.7817550178
 40
0.8390517047
 40
0.8941187012
 40
0.9475100857
 40
1.0
 40
1.0
 40
1.0
 40
1.0
 10
22.5630872567
 20
106.086432384
 30
0.0
 10
25.3497263788
 20
106.8334062789
 30
0.0
 10
29.4425769735
 20
108.7030267853
 30
0.0
 10
34.2908533569
 20
112.2339234263
 30
0.0
 10
38.8963596164
 20
116.5860424544
 30
0.0
 10
42.7136950989
 20
121.8230970186
 30
0.0
 10
45.5440990549
 20
127.6159709921
 30
0.0
 10
47.6215401476
 20
133.5739164118
 30
0.0
 10
48.5776680081
 20
139.7311634478
 30
0.0
 10
48.244019496
 20
145.6934210456
 30
0.0
 10
47.3774852057
 20
149.8410199197
 30
0.0
 10
45.9073045271
 20
153.6332698359
 30
0.0
 10
43.8635773043
 20
156.9776515054
 30
0.0
 10
41.293776696
 20
159.7867855028
 30
0.0
 10
39.261261535
 20
161.2589986625
 30
0.0
 10
38.1927657916
 20
161.8762024039
 30
0.0
  0
SPLINE
  5
30F
100
AcDbEntity
  8
0
100
AcDbSpline
 62
7
  6
CONTINUOUS
 70
0
 71
3
 72
11
 73
7
 74
0
 42
0.0000001
 43
0.0000001
 44
0.0000000001
 40
0.0
 40
0.0
 40
0.0
 40
0.0
 40
0.2397930808
 40
0.484063102
 40
0.7365900134
 40
1.0
 40
1.0
 40
1.0
 40
1.0
 10
6.9334087218
 20
107.7550757035
 30
0.0
 10
8.0484795503
 20
107.1109684233
 30
0.0
 10
10.4475924794
 20
106.0508230848
 30
0.0
 10
14.3471926925
 20
105.2420951827
 30
0.0
 10
18.4542380284
 20
105.2219571477
 30
0.0
 10
21.1967630497
 20
105.7201816891
 30
0.0
 10
22.5630872567
 20
106.086432384
 30
0.0
  0
SPLINE
  5
310
100
AcDbEntity
  8
0
100
AcDbSpline
 62
7
  6
CONTINUOUS
 70
0
 71
3
 72
11
 73
7
 74
0
 42
0.0000001
 43
0.0000001
 44
0.0000000001
 40
0.0
 40
0.0
 40
0.0
 40
0.0
 40
0.2634092212
 40
0.5159324401
 40
0.7602042042
 40
1.0
 40
1.0
 40
1.0
 40
1.0
 10
22.5630872567
 20
166.5786499477
 30
0.0
 10
24.0736903692
 20
166.9835753942
 30
0.0
 10
27.1057979356
 20
167.5344229983
 30
0.0
 10
31.646526679
 20
167.5121292926
 30
0.0
 10
35.9579374001
 20
166.6180369074
 30
0.0
 10
38.6104081466
 20
165.4459030948
 30
0.0
 10
39.8432493789
 20
164.7337796402
 30
0.0
  0
SPLINE
  5
311
100
AcDbEntity
  8
0
100
AcDbSpline
 62
7
  6
CONTINUOUS
 70
0
 71
3
 72
9
 73
5
 74
0
 42
0.0000001
 43
0.0000001
 44
0.0000000001
 40
0.0
 40
0.0
 40
0.0
 40
0.0
 40
0.4971874411
 40
1.0
 40
1.0
 40
1.0
 40
1.0
 10
9.5522193981
 20
154.3789545223
 30
0.0
 10
8.9770971021
 20
152.2247013092
 30
0.0
 10
7.4402970696
 20
147.9860744563
 30
0.0
 10
5.2296883006
 20
144.0582201255
 30
0.0
 10
3.9661295944
 20
142.1905681603
 30
0.0
  0
SPLINE
  5
312
100
AcDbEntity
  8
0
100
AcDbSpline
 62
7
  6
CONTINUOUS
 70
0
 71
3
 72
13
 73
9
 74
0
 42
0.0000001
 43
0.0000001
 44
0.0000000001
 40
0.0
 40
0.0
 40
0.0
 40
0.0
 40
0.117779547
 40
0.2361097266
 40
0.3559261287
 40
0.478064913
 40
0.731420515
 40
1.0
 40
1.0
 40
1.0
 40
1.0
 10
8.4127124742
 20
200.6675867661
 30
0.0
 10
9.6197301248
 20
200.0651542615
 30
0.0
 10
11.9580388981
 20
198.6857542455
 30
0.0
 10
15.1543955636
 20
196.1353088244
 30
0.0
 10
18.0046091052
 20
193.1330646205
 30
0.0
 10
21.337710949
 20
188.524253767
 30
0.0
 10
24.4612458849
 20
181.7553252291
 30
0.0
 10
25.6806216342
 20
175.8502617366
 30
0.0
 10
26.0056352044
 20
172.7912638373
 30
0.0
  0
SPLINE
  5
313
100
AcDbEntity
  8
0
100
AcDbSpline
 62
7
  6
CONTINUOUS
 70
0
 71
3
 72
13
 73
9
 74
0
 42
0.0000001
 43
0.0000001
 44
0.0000000001
 40
0.0
 40
0.0
 40
0.0
 40
0.0
 40
0.2635791307
 40
0.5156260754
 40
0.6384515925
 40
0.7597104408
 40
0.880009773
 40
1.0
 40
1.0
 40
1.0
 40
1.0
 10
-15.0463507769
 20
110.5714213188
 30
0.0
 10
-17.384143852
 20
109.9447630677
 30
0.0
 10
-22.0788681505
 20
109.1188100066
 30
0.0
 10
-27.9847200863
 20
109.2679216317
 30
0.0
 10
-32.4678988029
 20
110.122244809
 30
0.0
 10
-35.672084547
 20
111.1110544525
 30
0.0
 10
-38.719462231
 20
112.4455325039
 30
0.0
 10
-40.6309798795
 20
113.5590489268
 30
0.0
 10
-41.5497833206
 20
114.1671579305
 30
0.0
  0
SPLINE
  5
314
100
AcDbEntity
  8
0
100
AcDbSpline
 62
7
  6
CONTINUOUS
 70
0
 71
3
 72
11
 73
7
 74
0
 42
0.0000001
 43
0.0000001
 44
0.0000000001
 40
0.0
 40
0.0
 40
0.0
 40
0.0
 40
0.2323687036
 40
0.4731072381
 40
0.7282730154
 40
1.0
 40
1.0
 40
1.0
 40
1.0
 10
20.5625166927
 20
97.6583225731
 30
0.0
 10
20.3600529975
 20
97.7752557641
 30
0.0
 10
19.9824916285
 20
98.0790378254
 30
0.0
 10
19.5650360073
 20
98.6925685152
 30
0.0
 10
19.3105419323
 20
99.4300982067
 30
0.0
 10
19.257302019
 20
99.9624847023
 30
0.0
 10
19.257302019
 20
100.2358916139
 30
0.0
  0
SPLINE
  5
315
100
AcDbEntity
  8
0
100
AcDbSpline
 62
7
  6
CONTINUOUS
 70
0
 71
3
 72
20
 73
16
 74
0
 42
0.0000001
 43
0.0000001
 44
0.0000000001
 40
0.0
 40
0.0
 40
0.0
 40
0.0
 40
0.0524897113
 40
0.1058819037
 40
0.1609497583
 40
0.2182472694
 40
0.2780654993
 40
0.3404330651
 40
0.4715215487
 40
0.5395766966
 40
0.6083878864
 40
0.7452515166
 40
0.8121924927
 40
0.8772755549
 40
1.0
 40
1.0
 40
1.0
 40
1.0
 10
5.2829225988
 20
104.8974944563
 30
0.0
 10
4.1015676702
 20
105.5798179214
 30
0.0
 10
1.8544711432
 20
107.2076084582
 30
0.0
 10
-0.9867561722
 20
110.3133678751
 30
0.0
 10
-3.2463085942
 20
114.0109940287
 30
0.0
 10
-4.8717423765
 20
118.2037645419
 30
0.0
 10
-5.8297602735
 20
122.7894014099
 30
0.0
 10
-6.1985983003
 20
129.3812882371
 30
0.0
 10
-5.1414682804
 20
136.1887104873
 30
0.0
 10
-2.8446404131
 20
142.7757498233
 30
0.0
 10
0.2846291996
 20
149.1802560631
 30
0.0
 10
4.5050333323
 20
154.9702591967
 30
0.0
 10
9.5968170513
 20
159.7819489131
 30
0.0
 10
14.9570902784
 20
163.6857065646
 30
0.0
 10
19.4821593097
 20
165.7527903198
 30
0.0
 10
22.5630872567
 20
166.5786499477
 30
0.0
  0
SPLINE
  5
316
100
AcDbEntity
  8
0
100
AcDbSpline
 62
7
  6
CONTINUOUS
 70
0
 71
3
 72
9
 73
5
 74
0
 42
0.0000001
 43
0.0000001
 44
0.0000000001
 40
0.0
 40
0.0
 40
0.0
 40
0.0
 40
0.4910496927
 40
1.0
 40
1.0
 40
1.0
 40
1.0
 10
-50.5540374382
 20
217.0135265428
 30
0.0
 10
-51.9144370235
 20
217.06912221
 30
0.0
 10
-54.6978184491
 20
216.9535973302
 30
0.0
 10
-57.429610584
 20
216.4194354104
 30
0.0
 10
-58.7926581903
 20
216.0540630264
 30
0.0
  0
SPLINE
  5
317
100
AcDbEntity
  8
0
100
AcDbSpline
 62
7
  6
CONTINUOUS
 70
0
 71
3
 72
11
 73
7
 74
0
 42
0.0000001
 43
0.0000001
 44
0.0000000001
 40
0.0
 40
0.0
 40
0.0
 40
0.0
 40
0.2342989389
 40
0.4804898506
 40
0.7367337879
 40
1.0
 40
1.0
 40
1.0
 40
1.0
 10
-30.641881219
 20
211.5125714096
 30
0.0
 10
-33.3639989662
 20
210.782892823
 30
0.0
 10
-38.803139987
 20
208.709749034
 30
0.0
 10
-46.4218635547
 20
204.1047622724
 30
0.0
 10
-53.4530413372
 20
198.0983774111
 30
0.0
 10
-57.548502257
 20
193.3425741769
 30
0.0
 10
-59.4345849578
 20
190.7988884653
 30
0.0
  0
SPLINE
  5
318
100
AcDbEntity
  8
0
100
AcDbSpline
 62
7
  6
CONTINUOUS
 70
0
 71
3
 72
13
 73
9
 74
0
 42
0.0000001
 43
0.0000001
 44
0.0000000001
 40
0.0
 40
0.0
 40
0.0
 40
0.0
 40
0.2709455452
 40
0.5307472415
 40
0.6548029085
 40
0.7742871848
 40
0.8892199886
 40
1.0
 40
1.0
 40
1.0
 40
1.0
 10
-65.6404694964
 20
180.6023685369
 30
0.0
 10
-67.6670871455
 20
176.4676463122
 30
0.0
 10
-70.7980585745
 20
167.9240696229
 30
0.0
 10
-72.237023553
 20
156.7769692413
 30
0.0
 10
-71.708202218
 20
148.2171254367
 30
0.0
 10
-70.5130014718
 20
142.2221553489
 30
0.0
 10
-68.5343773856
 20
136.6768553639
 30
0.0
 10
-66.6828267717
 20
133.2939928303
 30
0.0
 10
-65.6404694964
 20
131.7261859917
 30
0.0
  0
SPLINE
  5
319
100
AcDbEntity
  8
0
100
AcDbSpline
 62
7
  6
CONTINUOUS
 70
0
 71
3
 72
10
 73
6
 74
0
 42
0.0000001
 43
0.0000001
 44
0.0000000001
 40
0.0
 40
0.0
 40
0.0
 40
0.0
 40
0.2404226411
 40
0.4863248996
 40
1.0
 40
1.0
 40
1.0
 40
1.0
 10
-52.8920774918
 20
220.2869368515
 30
0.0
 10
-53.997614992
 20
220.650109457
 30
0.0
 10
-56.2974415526
 20
221.2051926665
 30
0.0
 10
-61.1339974159
 20
221.6098957189
 30
0.0
 10
-64.8364500709
 20
221.0940342187
 30
0.0
 10
-67.2378912817
 20
220.4503147358
 30
0.0
  0
SPLINE
  5
31A
100
AcDbEntity
  8
0
100
AcDbSpline
 62
7
  6
CONTINUOUS
 70
0
 71
3
 72
10
 73
6
 74
0
 42
0.0000001
 43
0.0000001
 44
0.0000000001
 40
0.0
 40
0.0
 40
0.0
 40
0.0
 40
0.24043449
 40
0.4863494752
 40
1.0
 40
1.0
 40
1.0
 40
1.0
 10
-61.5868027081
 20
224.700215271
 30
0.0
 10
-62.6738376088
 20
225.0546596287
 30
0.0
 10
-64.93448517
 20
225.5957682058
 30
0.0
 10
-69.6868319512
 20
225.9872716877
 30
0.0
 10
-73.3238046634
 20
225.4789950287
 30
0.0
 10
-75.6831243731
 20
224.8465664451
 30
0.0
  0
SPLINE
  5
31B
100
AcDbEntity
  8
0
100
AcDbSpline
 62
7
  6
CONTINUOUS
 70
0
 71
3
 72
10
 73
6
 74
0
 42
0.0000001
 43
0.0000001
 44
0.0000000001
 40
0.0
 40
0.0
 40
0.0
 40
0.0
 40
0.2404468964
 40
0.4863749972
 40
1.0
 40
1.0
 40
1.0
 40
1.0
 10
-70.2815617258
 20
229.1133920897
 30
0.0
 10
-71.3500833632
 20
229.4591236236
 30
0.0
 10
-73.5715365477
 20
229.9862882212
 30
0.0
 10
-78.2396628226
 20
230.3646369357
 30
0.0
 10
-81.8111600235
 20
229.863955633
 30
0.0
 10
-84.1283574645
 20
229.2428181545
 30
0.0
  0
SPLINE
  5
31C
100
AcDbEntity
  8
0
100
AcDbSpline
 62
7
  6
CONTINUOUS
 70
0
 71
3
 72
9
 73
5
 74
0
 42
0.0000001
 43
0.0000001
 44
0.0000000001
 40
0.0
 40
0.0
 40
0.0
 40
0.0
 40
0.5043392609
 40
1.0
 40
1.0
 40
1.0
 40
1.0
 10
-64.5144384175
 20
131.0758113529
 30
0.0
 10
-63.7860169848
 20
129.9801945901
 30
0.0
 10
-62.2095363334
 20
127.8923937021
 30
0.0
 10
-60.3814273868
 20
126.019980311
 30
0.0
 10
-59.4195555957
 20
125.1558524831
 30
0.0
  0
SPLINE
  5
31D
100
AcDbEntity
  8
0
100
AcDbSpline
 62
7
  6
CONTINUOUS
 70
0
 71
3
 72
9
 73
5
 74
0
 42
0.0000001
 43
0.0000001
 44
0.0000000001
 40
0.0
 40
0.0
 40
0.0
 40
0.0
 40
0.4927528335
 40
1.0
 40
1.0
 40
1.0
 40
1.0
 10
-75.8828216688
 20
236.7139783514
 30
0.0
 10
-74.114503457
 20
235.6925379612
 30
0.0
 10
-70.7969813615
 20
233.1131376662
 30
0.0
 10
-68.2824645209
 20
229.7557923987
 30
0.0
 10
-67.2300239876
 20
227.9360107364
 30
0.0
  0
SPLINE
  5
31E
100
AcDbEntity
  8
0
100
AcDbSpline
 62
7
  6
CONTINUOUS
 70
0
 71
3
 72
11
 73
7
 74
0
 42
0.0000001
 43
0.0000001
 44
0.0000000001
 40
0.0
 40
0.0
 40
0.0
 40
0.0
 40
0.2411620567
 40
0.4861537398
 40
0.7382925282
 40
1.0
 40
1.0
 40
1.0
 40
1.0
 10
-80.6646797019
 20
239.4758733441
 30
0.0
 10
-82.0924431002
 20
240.3009832397
 30
0.0
 10
-85.1597605711
 20
241.657991774
 30
0.0
 10
-90.1357304502
 20
242.6940874658
 30
0.0
 10
-95.3558558076
 20
242.723901642
 30
0.0
 10
-98.8341736732
 20
242.0937065323
 30
0.0
 10
-100.5626725866
 20
241.6303729217
 30
0.0
  0
SPLINE
  5
31F
100
AcDbEntity
  8
0
100
AcDbSpline
 62
7
  6
CONTINUOUS
 70
0
 71
3
 72
9
 73
5
 74
0
 42
0.0000001
 43
0.0000001
 44
0.0000000001
 40
0.0
 40
0.0
 40
0.0
 40
0.0
 40
0.5071875189
 40
1.0
 40
1.0
 40
1.0
 40
1.0
 10
-103.0162739957
 20
166.0621588397
 30
0.0
 10
-105.1099956081
 20
166.0682199997
 30
0.0
 10
-109.2572159232
 20
166.5730259079
 30
0.0
 10
-113.1328990244
 20
168.1532177314
 30
0.0
 10
-114.8945148372
 20
169.1707865893
 30
0.0
  0
SPLINE
  5
320
100
AcDbEntity
  8
0
100
AcDbSpline
 62
7
  6
CONTINUOUS
 70
0
 71
3
 72
21
 73
17
 74
0
 42
0.0000001
 43
0.0000001
 44
0.0000000001
 40
0.0
 40
0.0
 40
0.0
 40
0.0
 40
0.0604052392
 40
0.1231172724
 40
0.1879358327
 40
0.2544805709
 40
0.3903294712
 40
0.458608469
 40
0.5261715206
 40
0.6565789064
 40
0.7188551553
 40
0.7788107295
 40
0.8365056726
 40
0.8922331224
 40
0.9465042412
 40
1.0
 40
1.0
 40
1.0
 40
1.0
 10
-100.5626725866
 20
241.6303729217
 30
0.0
 10
-102.2776920592
 20
241.1706525492
 30
0.0
 10
-105.70093607
 20
239.9445126767
 30
0.0
 10
-110.5850709494
 20
237.3266329392
 30
0.0
 10
-115.2124141554
 20
233.9599213352
 30
0.0
 10
-120.9311597036
 20
228.5521830912
 30
0.0
 10
-125.6674530594
 20
222.0464359876
 30
0.0
 10
-129.1701898472
 20
214.8524206837
 30
0.0
 10
-131.7382210902
 20
207.4454697886
 30
0.0
 10
-132.9078952627
 20
199.7801505599
 30
0.0
 10
-132.4694161448
 20
192.3449743166
 30
0.0
 10
-131.3665507364
 20
187.1495118772
 30
0.0
 10
-129.5003208149
 20
182.3807772091
 30
0.0
 10
-126.9033915676
 20
178.1574751107
 30
0.0
 10
-123.6328465581
 20
174.595817979
 30
0.0
 10
-121.0453909728
 20
172.7238747146
 30
0.0
 10
-119.6839209744
 20
171.9370760267
 30
0.0
  0
SPLINE
  5
321
100
AcDbEntity
  8
0
100
AcDbSpline
 62
7
  6
CONTINUOUS
 70
0
 71
3
 72
18
 73
14
 74
0
 42
0.0000001
 43
0.0000001
 44
0.0000000001
 40
0.0
 40
0.0
 40
0.0
 40
0.0
 40
0.1211317795
 40
0.1851741039
 40
0.2510259299
 40
0.3859969439
 40
0.5217516831
 40
0.6535726033
 40
0.7776962987
 40
0.8364009728
 40
0.8927979617
 40
0.9471671468
 40
1.0
 40
1.0
 40
1.0
 40
1.0
 10
-84.1283574645
 20
229.2428181545
 30
0.0
 10
-87.0965658491
 20
228.4471736232
 30
0.0
 10
-91.4635755545
 20
226.51008701
 30
0.0
 10
-96.6995371215
 20
222.8701342582
 30
0.0
 10
-101.7256373582
 20
218.3869750186
 30
0.0
 10
-107.0659923395
 20
211.6255959143
 30
0.0
 10
-111.5448637326
 20
202.3581692956
 30
0.0
 10
-113.8023754554
 20
192.5926582424
 30
0.0
 10
-113.6536687448
 20
184.5068837432
 30
0.0
 10
-112.2308513231
 20
178.5861124283
 30
0.0
 10
-110.5844512861
 20
174.5935392082
 30
0.0
 10
-108.3720003949
 20
171.0586132271
 30
0.0
 10
-106.5265187577
 20
169.036020844
 30
0.0
 10
-105.5331509302
 20
168.1362014569
 30
0.0
  0
SPLINE
  5
322
100
AcDbEntity
  8
0
100
AcDbSpline
 62
7
  6
CONTINUOUS
 70
0
 71
3
 72
18
 73
14
 74
0
 42
0.0000001
 43
0.0000001
 44
0.0000000001
 40
0.0
 40
0.0
 40
0.0
 40
0.0
 40
0.1211498793
 40
0.1852039269
 40
0.2510681048
 40
0.3860613693
 40
0.5218281945
 40
0.6536446416
 40
0.7777465289
 40
0.8364364103
 40
0.8928182854
 40
0.9471746744
 40
1.0
 40
1.0
 40
1.0
 40
1.0
 10
-75.6831243731
 20
224.8465664451
 30
0.0
 10
-78.6972179989
 20
224.0386221234
 30
0.0
 10
-83.1316583565
 20
222.0710006969
 30
0.0
 10
-88.447796564
 20
218.3734509609
 30
0.0
 10
-93.5503294586
 20
213.8192780924
 30
0.0
 10
-98.9703989283
 20
206.9511234485
 30
0.0
 10
-103.5128873857
 20
197.5384453196
 30
0.0
 10
-105.7973191509
 20
187.6218870257
 30
0.0
 10
-105.6376592028
 20
179.4132885391
 30
0.0
 10
-104.1850527768
 20
173.405124413
 30
0.0
 10
-102.5072826315
 20
169.355116002
 30
0.0
 10
-100.2546789178
 20
165.7710329839
 30
0.0
 10
-98.3768919851
 20
163.721838579
 30
0.0
 10
-97.3664181628
 20
162.8106372656
 30
0.0
  0
SPLINE
  5
323
100
AcDbEntity
  8
0
100
AcDbSpline
 62
7
  6
CONTINUOUS
 70
0
 71
3
 72
18
 73
14
 74
0
 42
0.0000001
 43
0.0000001
 44
0.0000000001
 40
0.0
 40
0.0
 40
0.0
 40
0.0
 40
0.1211674599
 40
0.1852328921
 40
0.2511090631
 40
0.3861239204
 40
0.5219024477
 40
0.653714502
 40
0.7777951689
 40
0.8364706811
 40
0.8928378962
 40
0.947181905
 40
1.0
 40
1.0
 40
1.0
 40
1.0
 10
-67.2378912817
 20
220.4503147358
 30
0.0
 10
-70.2978699087
 20
219.6300706879
 30
0.0
 10
-74.7997403718
 20
217.6319138087
 30
0.0
 10
-80.1960533598
 20
213.876766013
 30
0.0
 10
-85.3750159147
 20
209.2515786545
 30
0.0
 10
-90.8747942142
 20
202.2766486734
 30
0.0
 10
-95.4808901274
 20
192.7187225439
 30
0.0
 10
-97.7922301001
 20
182.6511258349
 30
0.0
 10
-97.6216049483
 20
174.3197168599
 30
0.0
 10
-96.1392014191
 20
168.224176873
 30
0.0
 10
-94.4300565849
 20
164.1167474943
 30
0.0
 10
-92.1372973026
 20
160.4835238746
 30
0.0
 10
-90.2272066889
 20
158.4077395822
 30
0.0
 10
-89.1996281006
 20
157.4851625037
 30
0.0
  0
SPLINE
  5
324
100
AcDbEntity
  8
0
100
AcDbSpline
 62
7
  6
CONTINUOUS
 70
0
 71
3
 72
18
 73
14
 74
0
 42
0.0000001
 43
0.0000001
 44
0.0000000001
 40
0.0
 40
0.0
 40
0.0
 40
0.0
 40
0.1211845432
 40
0.1852610357
 40
0.251148856
 40
0.3861846769
 40
0.5219745404
 40
0.6537822804
 40
0.7778422917
 40
0.8365038404
 40
0.8928568295
 40
0.9471888545
 40
1.0
 40
1.0
 40
1.0
 40
1.0
 10
-58.7926581903
 20
216.0540630264
 30
0.0
 10
-61.898521582
 20
215.2215193158
 30
0.0
 10
-66.4678216159
 20
213.1928263783
 30
0.0
 10
-71.9443075899
 20
209.3800795089
 30
0.0
 10
-77.1996969229
 20
204.6838768589
 30
0.0
 10
-82.7791786285
 20
197.6021717678
 30
0.0
 10
-87.4488728074
 20
187.8990010379
 30
0.0
 10
-89.7871096859
 20
177.6803743967
 30
0.0
 10
-89.6055079046
 20
169.226167886
 30
0.0
 10
-88.0932995758
 20
163.0432682824
 30
0.0
 10
-86.3527756866
 20
158.8784315703
 30
0.0
 10
-84.0198582596
 20
155.1960830906
 30
0.0
 10
-82.0774655604
 20
153.0937205064
 30
0.0
 10
-81.0327833995
 20
152.1597735578
 30
0.0
  0
SPLINE
  5
325
100
AcDbEntity
  8
0
100
AcDbSpline
 62
7
  6
CONTINUOUS
 70
0
 71
3
 72
11
 73
7
 74
0
 42
0.0000001
 43
0.0000001
 44
0.0000000001
 40
0.0
 40
0.0
 40
0.0
 40
0.0
 40
0.240305853
 40
0.4860974935
 40
0.7389772954
 40
1.0
 40
1.0
 40
1.0
 40
1.0
 10
-11.8237445834
 20
211.513698652
 30
0.0
 10
-13.2847236696
 20
211.9533579314
 30
0.0
 10
-16.3129114935
 20
212.6163228386
 30
0.0
 10
-21.0089638154
 20
212.9387318012
 30
0.0
 10
-25.8345212408
 20
212.5971722283
 30
0.0
 10
-29.0411615219
 20
211.9416531007
 30
0.0
 10
-30.641881219
 20
211.5125714096
 30
0.0
  0
SPLINE
  5
326
100
AcDbEntity
  8
0
100
AcDbSpline
 62
7
  6
CONTINUOUS
 70
0
 71
3
 72
18
 73
14
 74
0
 42
0.0000001
 43
0.0000001
 44
0.0000000001
 40
0.0
 40
0.0
 40
0.0
 40
0.0
 40
0.0529454785
 40
0.1074971758
 40
0.1640986702
 40
0.2229896001
 40
0.3473404604
 40
0.4791203556
 40
0.6146255691
 40
0.7492788241
 40
0.814992513
 40
0.8789298462
 40
1.0
 40
1.0
 40
1.0
 40
1.0
 10
-109.0613814019
 20
170.5872649963
 30
0.0
 10
-110.0073123161
 20
171.505983086
 30
0.0
 10
-111.7572790912
 20
173.554955167
 30
0.0
 10
-113.8364751572
 20
177.0950383263
 30
0.0
 10
-115.3643586371
 20
181.0643189671
 30
0.0
 10
-116.6502288577
 20
186.9172226367
 30
0.0
 10
-116.6845270399
 20
194.8612638787
 30
0.0
 10
-114.3829129117
 20
204.4235868572
 30
0.0
 10
-109.9447939356
 20
213.4821276409
 30
0.0
 10
-104.6997423837
 20
220.0928703837
 30
0.0
 10
-99.7778520817
 20
224.4863167222
 30
0.0
 10
-94.6519963926
 20
228.0669165982
 30
0.0
 10
-90.3814350753
 20
229.9887608079
 30
0.0
 10
-87.475660654
 20
230.794218152
 30
0.0
  0
SPLINE
  5
327
100
AcDbEntity
  8
0
100
AcDbSpline
 62
7
  6
CONTINUOUS
 70
0
 71
3
 72
11
 73
7
 74
0
 42
0.0000001
 43
0.0000001
 44
0.0000000001
 40
0.0
 40
0.0
 40
0.0
 40
0.0
 40
0.2396963857
 40
0.484300456
 40
0.7370192991
 40
1.0
 40
1.0
 40
1.0
 40
1.0
 10
-74.124804531
 20
231.355484046
 30
0.0
 10
-75.3424522755
 20
231.9740613126
 30
0.0
 10
-77.936132168
 20
232.9775931859
 30
0.0
 10
-82.0974169819
 20
233.7031860247
 30
0.0
 10
-86.45178165
 20
233.6477351018
 30
0.0
 10
-89.3554288535
 20
233.1052150962
 30
0.0
 10
-90.8027650507
 20
232.7172486932
 30
0.0
  0
SPLINE
  5
328
100
AcDbEntity
  8
0
100
AcDbSpline
 62
7
  6
CONTINUOUS
 70
0
 71
3
 72
20
 73
16
 74
0
 42
0.0000001
 43
0.0000001
 44
0.0000000001
 40
0.0
 40
0.0
 40
0.0
 40
0.0
 40
0.052489886
 40
0.1058814095
 40
0.1609487248
 40
0.2182458328
 40
0.2780638566
 40
0.3404314263
 40
0.471520401
 40
0.5395759239
 40
0.608387429
 40
0.745251195
 40
0.8121932314
 40
0.877276077
 40
1.0
 40
1.0
 40
1.0
 40
1.0
 10
-114.8945148372
 20
169.1707865893
 30
0.0
 10
-116.2279998503
 20
169.9410526212
 30
0.0
 10
-118.7645801748
 20
171.7783814998
 30
0.0
 10
-121.9717067596
 20
175.2841860038
 30
0.0
 10
-124.5222912328
 20
179.4580004833
 30
0.0
 10
-126.3570839009
 20
184.1907651368
 30
0.0
 10
-127.4385137141
 20
189.3670084716
 30
0.0
 10
-127.8548854873
 20
196.8079375909
 30
0.0
 10
-126.6616114625
 20
204.4921848767
 30
0.0
 10
-124.0689501105
 20
211.9276708851
 30
0.0
 10
-120.5366237519
 20
219.1571002032
 30
0.0
 10
-115.7726141826
 20
225.6929008343
 30
0.0
 10
-110.0249680837
 20
231.124334123
 30
0.0
 10
-103.9742934587
 20
235.5309136665
 30
0.0
 10
-98.8664047372
 20
237.8642060623
 30
0.0
 10
-95.388668253
 20
238.7964323942
 30
0.0
  0
SPLINE
  5
329
100
AcDbEntity
  8
0
100
AcDbSpline
 62
7
  6
CONTINUOUS
 70
0
 71
3
 72
19
 73
15
 74
0
 42
0.0000001
 43
0.0000001
 44
0.0000000001
 40
0.0
 40
0.0
 40
0.0
 40
0.0
 40
0.0524960281
 40
0.1060733444
 40
0.1614312536
 40
0.2190488996
 40
0.3414115913
 40
0.4062388707
 40
0.4729081374
 40
0.609306876
 40
0.745764179
 40
0.8125028672
 40
0.8774201662
 40
1.0
 40
1.0
 40
1.0
 40
1.0
 10
-81.416689571
 20
152.1093085251
 30
0.0
 10
-82.621922092
 20
152.8948051728
 30
0.0
 10
-84.9023549623
 20
154.7341126276
 30
0.0
 10
-87.7521459822
 20
158.1513228947
 30
0.0
 10
-89.9897743241
 20
162.1585382503
 30
0.0
 10
-92.1321811887
 20
168.2687795309
 30
0.0
 10
-92.7895092735
 20
175.0600612592
 30
0.0
 10
-92.0884240628
 20
181.9930682702
 30
0.0
 10
-90.4356673684
 20
189.1648102271
 30
0.0
 10
-86.7165238897
 20
197.7911055138
 30
0.0
 10
-81.1400449713
 20
205.3525774599
 30
0.0
 10
-75.7760806817
 20
210.4009619837
 30
0.0
 10
-70.1375573861
 20
214.5102218302
 30
0.0
 10
-65.3877576361
 20
216.7052486997
 30
0.0
 10
-62.1506277515
 20
217.6025551183
 30
0.0
  0
SPLINE
  5
32A
100
AcDbEntity
  8
0
100
AcDbSpline
 62
7
  6
CONTINUOUS
 70
0
 71
3
 72
10
 73
6
 74
0
 42
0.0000001
 43
0.0000001
 44
0.0000000001
 40
0.0
 40
0.0
 40
0.0
 40
0.0
 40
0.2406023481
 40
0.486679526
 40
1.0
 40
1.0
 40
1.0
 40
1.0
 10
-85.6018191822
 20
241.592973102
 30
0.0
 10
-86.7347122479
 20
241.9280698925
 30
0.0
 10
-89.0819884092
 20
242.4315509997
 30
0.0
 10
-93.993569452
 20
242.7565956329
 30
0.0
 10
-97.7397279738
 20
242.2131250795
 30
0.0
 10
-100.1743003381
 20
241.5605246092
 30
0.0
  0
SPLINE
  5
32B
100
AcDbEntity
  8
0
100
AcDbSpline
 62
7
  6
CONTINUOUS
 70
0
 71
3
 72
20
 73
16
 74
0
 42
0.0000001
 43
0.0000001
 44
0.0000000001
 40
0.0
 40
0.0
 40
0.0
 40
0.0
 40
0.1230441854
 40
0.1882391135
 40
0.255253645
 40
0.3921460506
 40
0.4609197036
 40
0.5289133255
 40
0.6598448973
 40
0.7221332785
 40
0.7818826247
 40
0.8391263093
 40
0.8941567731
 40
0.9475253807
 40
1.0
 40
1.0
 40
1.0
 40
1.0
 10
-100.5465124334
 20
241.4583603058
 30
0.0
 10
-104.0065969827
 20
240.4864142283
 30
0.0
 10
-109.0781254057
 20
238.1079628862
 30
0.0
 10
-115.0777574517
 20
233.6628726011
 30
0.0
 10
-120.7653231272
 20
228.2102905479
 30
0.0
 10
-125.4703603298
 20
221.6746981605
 30
0.0
 10
-128.9489924196
 20
214.4610160801
 30
0.0
 10
-131.4927887275
 20
207.053418117
 30
0.0
 10
-132.6476696623
 20
199.4074759109
 30
0.0
 10
-132.2069064406
 20
192.009913878
 30
0.0
 10
-131.1150098841
 20
186.8658513471
 30
0.0
 10
-129.2773864802
 20
182.1633683786
 30
0.0
 10
-126.7314101129
 20
178.0161635052
 30
0.0
 10
-123.5357566679
 20
174.5315826671
 30
0.0
 10
-121.0109069951
 20
172.70391072
 30
0.0
 10
-119.6838292789
 20
171.9370092948
 30
0.0
  0
SPLINE
  5
32C
100
AcDbEntity
  8
0
100
AcDbSpline
 62
7
  6
CONTINUOUS
 70
0
 71
3
 72
19
 73
15
 74
0
 42
0.0000001
 43
0.0000001
 44
0.0000000001
 40
0.0
 40
0.0
 40
0.0
 40
0.0
 40
0.1223544931
 40
0.1871911853
 40
0.253877994
 40
0.3903120461
 40
0.5267770489
 40
0.5934998917
 40
0.6583853698
 40
0.7808531123
 40
0.8385105173
 40
0.8938966512
 40
0.947492052
 40
1.0
 40
1.0
 40
1.0
 40
1.0
 10
-90.8027650507
 20
232.7172486932
 30
0.0
 10
-93.8945721718
 20
231.888472843
 30
0.0
 10
-98.4376614226
 20
229.8283205314
 30
0.0
 10
-103.835751013
 20
225.9423402032
 30
0.0
 10
-108.9783227117
 20
221.1519018519
 30
0.0
 10
-114.3325489322
 20
213.9554067273
 30
0.0
 10
-117.9127365287
 20
205.7299252475
 30
0.0
 10
-119.5126423419
 20
198.8836805281
 30
0.0
 10
-120.2011472993
 20
192.2612995479
 30
0.0
 10
-119.5889166364
 20
185.770654538
 30
0.0
 10
-117.5532311411
 20
179.9292178313
 30
0.0
 10
-115.4214684541
 20
176.0985367939
 30
0.0
 10
-112.7027739936
 20
172.8325355398
 30
0.0
 10
-110.5254141826
 20
171.0755794282
 30
0.0
 10
-109.3745224881
 20
170.3256177635
 30
0.0
  0
SPLINE
  5
32D
100
AcDbEntity
  8
0
100
AcDbSpline
 62
7
  6
CONTINUOUS
 70
0
 71
3
 72
11
 73
7
 74
0
 42
0.0000001
 43
0.0000001
 44
0.0000000001
 40
0.0
 40
0.0
 40
0.0
 40
0.0
 40
0.2634075713
 40
0.5159326167
 40
0.7602033863
 40
1.0
 40
1.0
 40
1.0
 40
1.0
 10
-95.388668253
 20
238.7964323942
 30
0.0
 10
-93.6835108837
 20
239.2535091759
 30
0.0
 10
-90.2608685891
 20
239.8752934021
 30
0.0
 10
-85.1352992355
 20
239.8501746034
 30
0.0
 10
-80.2685767383
 20
238.8408988834
 30
0.0
 10
-77.2744534097
 20
237.5178318994
 30
0.0
 10
-75.8828216688
 20
236.7139783514
 30
0.0
  0
SPLINE
  5
32E
100
AcDbEntity
  8
0
100
AcDbSpline
 62
7
  6
CONTINUOUS
 70
0
 71
3
 72
10
 73
6
 74
0
 42
0.0000001
 43
0.0000001
 44
0.0000000001
 40
0.0
 40
0.0
 40
0.0
 40
0.0
 40
0.5131830241
 40
0.759324784
 40
1.0
 40
1.0
 40
1.0
 40
1.0
 10
-87.2347674113
 20
230.8598913472
 30
0.0
 10
-85.0584378341
 20
231.4432684225
 30
0.0
 10
-81.7120456028
 20
231.935870201
 30
0.0
 10
-77.3189437702
 20
231.6736760918
 30
0.0
 10
-75.215758597
 20
231.2431471623
 30
0.0
 10
-74.1991963826
 20
230.9546767548
 30
0.0
  0
SPLINE
  5
32F
100
AcDbEntity
  8
0
100
AcDbSpline
 62
7
  6
CONTINUOUS
 70
0
 71
3
 72
18
 73
14
 74
0
 42
0.0000001
 43
0.0000001
 44
0.0000000001
 40
0.0
 40
0.0
 40
0.0
 40
0.0
 40
0.1220096958
 40
0.186553462
 40
0.2529036217
 40
0.3886906271
 40
0.5247950975
 40
0.6563130072
 40
0.7795155474
 40
0.8376432187
 40
0.893477452
 40
0.9473973669
 40
1.0
 40
1.0
 40
1.0
 40
1.0
 10
-87.1810183362
 20
230.1497268528
 30
0.0
 10
-90.1599563588
 20
229.3239891458
 30
0.0
 10
-94.533753406
 20
227.3237202287
 30
0.0
 10
-99.748900687
 20
223.5855722672
 30
0.0
 10
-104.7288998818
 20
218.9951682956
 30
0.0
 10
-109.9591404843
 20
212.1051043302
 30
0.0
 10
-114.21969294
 20
202.7209838237
 30
0.0
 10
-116.1700336494
 20
192.919262074
 30
0.0
 10
-115.6914953996
 20
184.8927744491
 30
0.0
 10
-113.9755544041
 20
179.1106181198
 30
0.0
 10
-112.1079397871
 20
175.2653979665
 30
0.0
 10
-109.674494714
 20
171.9219190041
 30
0.0
 10
-107.6904477719
 20
170.0632281345
 30
0.0
 10
-106.6330191095
 20
169.2520118272
 30
0.0
  0
SPLINE
  5
330
100
AcDbEntity
  8
0
100
AcDbSpline
 62
7
  6
CONTINUOUS
 70
0
 71
3
 72
11
 73
7
 74
0
 42
0.0000001
 43
0.0000001
 44
0.0000000001
 40
0.0
 40
0.0
 40
0.0
 40
0.0
 40
0.2397937192
 40
0.4849070032
 40
0.7377960264
 40
1.0
 40
1.0
 40
1.0
 40
1.0
 10
-63.1948366325
 20
225.1278364441
 30
0.0
 10
-64.3461430629
 20
225.6024330188
 30
0.0
 10
-66.7664892165
 20
226.3522701404
 30
0.0
 10
-70.5850272915
 20
226.8366034686
 30
0.0
 10
-74.5462910489
 20
226.6837445661
 30
0.0
 10
-77.183178002
 20
226.1707443696
 30
0.0
 10
-78.4984160768
 20
225.8181875926
 30
0.0
  0
SPLINE
  5
331
100
AcDbEntity
  8
0
100
AcDbSpline
 62
7
  6
CONTINUOUS
 70
0
 71
3
 72
18
 73
14
 74
0
 42
0.0000001
 43
0.0000001
 44
0.0000000001
 40
0.0
 40
0.0
 40
0.0
 40
0.0
 40
0.122001533
 40
0.1865400288
 40
0.2528846784
 40
0.3886620099
 40
0.5247617056
 40
0.6562825364
 40
0.7794956007
 40
0.8376299408
 40
0.8934705991
 40
0.9473953971
 40
1.0
 40
1.0
 40
1.0
 40
1.0
 10
-78.7393407022
 20
225.7525058417
 30
0.0
 10
-81.7618703086
 20
224.9146848975
 30
0.0
 10
-86.1997089055
 20
222.8854125559
 30
0.0
 10
-91.4915276606
 20
219.0931575945
 30
0.0
 10
-96.5449937816
 20
214.436337193
 30
0.0
 10
-101.8530892723
 20
207.4464227011
 30
0.0
 10
-106.1785771427
 20
197.9257866067
 30
0.0
 10
-108.1611046991
 20
187.9805269335
 30
0.0
 10
-107.6795058515
 20
179.8354229245
 30
0.0
 10
-105.9419575931
 20
173.9665879924
 30
0.0
 10
-104.0496497743
 20
170.0630138374
 30
0.0
 10
-101.5832135791
 20
166.6679698048
 30
0.0
 10
-99.5717473934
 20
164.7798597729
 30
0.0
 10
-98.4995781914
 20
163.9555864578
 30
0.0
  0
SPLINE
  5
332
100
AcDbEntity
  8
0
100
AcDbSpline
 62
7
  6
CONTINUOUS
 70
0
 71
3
 72
11
 73
7
 74
0
 42
0.0000001
 43
0.0000001
 44
0.0000000001
 40
0.0
 40
0.0
 40
0.0
 40
0.0
 40
0.2629848572
 40
0.5156955587
 40
0.7603050209
 40
1.0
 40
1.0
 40
1.0
 40
1.0
 10
-78.7895343195
 20
226.4636396376
 30
0.0
 10
-77.3118716117
 20
226.859735228
 30
0.0
 10
-74.3474703425
 20
227.4136921209
 30
0.0
 10
-69.9019454934
 20
227.4704518356
 30
0.0
 10
-65.6534877451
 20
226.7301615054
 30
0.0
 10
-63.0053509273
 20
225.7059589182
 30
0.0
 10
-61.7621213416
 20
225.0746211462
 30
0.0
  0
SPLINE
  5
333
100
AcDbEntity
  8
0
100
AcDbSpline
 62
7
  6
CONTINUOUS
 70
0
 71
3
 72
19
 73
15
 74
0
 42
0.0000001
 43
0.0000001
 44
0.0000000001
 40
0.0
 40
0.0
 40
0.0
 40
0.0
 40
0.0524960278
 40
0.106073342
 40
0.1614312481
 40
0.2190488906
 40
0.3414115764
 40
0.4062388543
 40
0.4729081205
 40
0.6093068613
 40
0.7457641692
 40
0.8125028603
 40
0.877420162
 40
1.0
 40
1.0
 40
1.0
 40
1.0
 10
-97.7554354567
 20
162.7550625261
 30
0.0
 10
-98.9265998679
 20
163.5183547564
 30
0.0
 10
-101.1425722443
 20
165.3056689742
 30
0.0
 10
-103.9118092056
 20
168.6262829408
 30
0.0
 10
-106.0861876073
 20
172.5202245462
 30
0.0
 10
-108.168036655
 20
178.4577455256
 30
0.0
 10
-108.806785662
 20
185.0570564987
 30
0.0
 10
-108.1255195809
 20
191.7940869131
 30
0.0
 10
-106.5194828858
 20
198.7631042711
 30
0.0
 10
-102.9054701529
 20
207.1455592299
 30
0.0
 10
-97.4866231028
 20
214.4932904777
 30
0.0
 10
-92.274283095
 20
219.3989720007
 30
0.0
 10
-86.7951449461
 20
223.3920751339
 30
0.0
 10
-82.1796084891
 20
225.5250550113
 30
0.0
 10
-79.0339830195
 20
226.3969971406
 30
0.0
  0
SPLINE
  5
334
100
AcDbEntity
  8
0
100
AcDbSpline
 62
7
  6
CONTINUOUS
 70
0
 71
3
 72
18
 73
14
 74
0
 42
0.0000001
 43
0.0000001
 44
0.0000000001
 40
0.0
 40
0.0
 40
0.0
 40
0.0
 40
0.1220955529
 40
0.1866962576
 40
0.253104582
 40
0.3889943369
 40
0.5251490313
 40
0.6566349579
 40
0.7797249775
 40
0.8377818328
 40
0.893548208
 40
0.9474170726
 40
1.0
 40
1.0
 40
1.0
 40
1.0
 10
-70.2976630681
 20
221.3552848306
 30
0.0
 10
-73.3769146991
 20
220.5017409965
 30
0.0
 10
-77.8975958048
 20
218.4311896526
 30
0.0
 10
-83.2845745898
 20
214.5607772572
 30
0.0
 10
-88.4258679032
 20
209.8075455747
 30
0.0
 10
-93.8179855117
 20
202.674927253
 30
0.0
 10
-98.1939510004
 20
192.9660753429
 30
0.0
 10
-100.1704464398
 20
182.8354881071
 30
0.0
 10
-99.6331242279
 20
174.5513925311
 30
0.0
 10
-97.8215399464
 20
168.5970018617
 30
0.0
 10
-95.8625622433
 20
164.6449330596
 30
0.0
 10
-93.3188813085
 20
161.2175341135
 30
0.0
 10
-91.2506877916
 20
159.3202675217
 30
0.0
 10
-90.1497246993
 20
158.4946403653
 30
0.0
  0
SPLINE
  5
335
100
AcDbEntity
  8
0
100
AcDbSpline
 62
7
  6
CONTINUOUS
 70
0
 71
3
 72
11
 73
7
 74
0
 42
0.0000001
 43
0.0000001
 44
0.0000000001
 40
0.0
 40
0.0
 40
0.0
 40
0.0
 40
0.2629848552
 40
0.5156955574
 40
0.760305021
 40
1.0
 40
1.0
 40
1.0
 40
1.0
 10
-70.344301228
 20
222.0673879282
 30
0.0
 10
-68.8451466384
 20
222.4692445354
 30
0.0
 10
-65.837629608
 20
223.0312585272
 30
0.0
 10
-61.3274467568
 20
223.0888441281
 30
0.0
 10
-57.0171971356
 20
222.337787225
 30
0.0
 10
-54.3305442366
 20
221.2986886509
 30
0.0
 10
-53.0692323259
 20
220.658168669
 30
0.0
  0
SPLINE
  5
336
100
AcDbEntity
  8
0
100
AcDbSpline
 62
7
  6
CONTINUOUS
 70
0
 71
3
 72
18
 73
14
 74
0
 42
0.0000001
 43
0.0000001
 44
0.0000000001
 40
0.0
 40
0.0
 40
0.0
 40
0.0
 40
0.1220891134
 40
0.1866856614
 40
0.253089642
 40
0.3889717923
 40
0.5251227852
 40
0.6566111152
 40
0.7797095254
 40
0.8377716483
 40
0.8935430544
 40
0.9474156757
 40
1.0
 40
1.0
 40
1.0
 40
1.0
 10
-61.8559854341
 20
216.9580638194
 30
0.0
 10
-64.9791811299
 20
216.0923390434
 30
0.0
 10
-69.5644086432
 20
213.992456957
 30
0.0
 10
-75.0285571883
 20
210.0672945516
 30
0.0
 10
-80.2437078928
 20
205.2468452025
 30
0.0
 10
-85.7138562103
 20
198.0132277169
 30
0.0
 10
-90.1543888673
 20
188.1664682839
 30
0.0
 10
-92.1620713197
 20
177.8912056278
 30
0.0
 10
-91.6203020728
 20
169.4879194969
 30
0.0
 10
-89.7857204557
 20
163.4468452331
 30
0.0
 10
-87.8009324566
 20
159.4366580329
 30
0.0
 10
-85.2230787988
 20
155.9581751652
 30
0.0
 10
-83.1266747598
 20
154.032010287
 30
0.0
 10
-82.0105920103
 20
153.1936271347
 30
0.0
  0
SPLINE
  5
337
100
AcDbEntity
  8
0
100
AcDbSpline
 62
7
  6
CONTINUOUS
 70
0
 71
3
 72
9
 73
5
 74
0
 42
0.0000001
 43
0.0000001
 44
0.0000000001
 40
0.0
 40
0.0
 40
0.0
 40
0.0
 40
0.5120010958
 40
1.0
 40
1.0
 40
1.0
 40
1.0
 10
-61.8990681367
 20
217.6711362189
 30
0.0
 10
-60.0126928818
 20
218.1767894484
 30
0.0
 10
-56.2213415619
 20
218.8138937341
 30
0.0
 10
-52.3738727722
 20
218.6092797606
 30
0.0
 10
-50.5406781094
 20
218.2863668668
 30
0.0
  0
SPLINE
  5
338
100
AcDbEntity
  8
0
100
AcDbSpline
 62
7
  6
CONTINUOUS
 70
0
 71
3
 72
9
 73
5
 74
0
 42
0.0000001
 43
0.0000001
 44
0.0000000001
 40
0.0
 40
0.0
 40
0.0
 40
0.0
 40
0.4881180765
 40
1.0
 40
1.0
 40
1.0
 40
1.0
 10
-50.5422964808
 20
217.65542337
 30
0.0
 10
-52.3304996062
 20
217.9594676661
 30
0.0
 10
-56.0785166768
 20
218.1429729169
 30
0.0
 10
-59.7706393468
 20
217.5181853395
 30
0.0
 10
-61.607949894
 20
217.0256841739
 30
0.0
  0
LINE
  5
339
100
AcDbEntity
  8
0
100
AcDbLine
 62
7
  6
CONTINUOUS
 10
-49.4486707907
 20
209.125523177
 11
-50.5747018695
 21
209.7117083767
  0
SPLINE
  5
33A
100
AcDbEntity
  8
0
100
AcDbSpline
 62
7
  6
CONTINUOUS
 70
0
 71
3
 72
11
 73
7
 74
0
 42
0.0000001
 43
0.0000001
 44
0.0000000001
 40
0.0
 40
0.0
 40
0.0
 40
0.0
 40
0.2397897441
 40
0.4848943828
 40
0.7377815778
 40
1.0
 40
1.0
 40
1.0
 40
1.0
 10
-71.840998558
 20
229.5239864352
 30
0.0
 10
-72.9766611677
 20
229.9938887425
 30
0.0
 10
-75.3646119437
 20
230.736683117
 30
0.0
 10
-79.1330097062
 20
231.2176156581
 30
0.0
 10
-83.0427943762
 20
231.068429607
 30
0.0
 10
-85.6454819982
 20
230.5624201293
 30
0.0
 10
-86.9436491682
 20
230.2144393019
 30
0.0
  0
SPLINE
  5
33B
100
AcDbEntity
  8
0
100
AcDbSpline
 62
7
  6
CONTINUOUS
 70
0
 71
3
 72
19
 73
15
 74
0
 42
0.0000001
 43
0.0000001
 44
0.0000000001
 40
0.0
 40
0.0
 40
0.0
 40
0.0
 40
0.0524960279
 40
0.1060733432
 40
0.1614312509
 40
0.2190488951
 40
0.3414115839
 40
0.4062388626
 40
0.4729081291
 40
0.6093068688
 40
0.7457641742
 40
0.8125028638
 40
0.8774201641
 40
1.0
 40
1.0
 40
1.0
 40
1.0
 10
-89.5860625136
 20
157.4321855254
 30
0.0
 10
-90.7742609797
 20
158.2065799644
 30
0.0
 10
-93.0224636031
 20
160.0198908007
 30
0.0
 10
-95.8319775937
 20
163.3888029175
 30
0.0
 10
-98.0379809656
 20
167.339381398
 30
0.0
 10
-100.1501089218
 20
173.363262528
 30
0.0
 10
-100.7981474677
 20
180.0585588787
 30
0.0
 10
-100.1069718219
 20
186.8935775914
 30
0.0
 10
-98.4775751271
 20
193.9639572489
 30
0.0
 10
-94.8109970214
 20
202.4683323717
 30
0.0
 10
-89.3133340371
 20
209.9229339687
 30
0.0
 10
-84.0251818884
 20
214.8999669922
 30
0.0
 10
-78.4663511661
 20
218.951148482
 30
0.0
 10
-73.7836830626
 20
221.1151518555
 30
0.0
 10
-70.5923053855
 20
221.9997761295
 30
0.0
  0
SPLINE
  5
33C
100
AcDbEntity
  8
0
100
AcDbSpline
 62
7
  6
CONTINUOUS
 70
0
 71
3
 72
11
 73
7
 74
0
 42
0.0000001
 43
0.0000001
 44
0.0000000001
 40
0.0
 40
0.0
 40
0.0
 40
0.0
 40
0.2398183941
 40
0.4849899211
 40
0.7378778119
 40
1.0
 40
1.0
 40
1.0
 40
1.0
 10
-54.6815846824
 20
220.785698607
 30
0.0
 10
-55.84128658
 20
221.2527672407
 30
0.0
 10
-58.276191263
 20
221.9885753718
 30
0.0
 10
-62.1117143539
 20
222.4565078005
 30
0.0
 10
-66.0873061134
 20
222.2926686641
 30
0.0
 10
-68.7332813201
 20
221.7757427612
 30
0.0
 10
-70.0531829854
 20
221.4219358832
 30
0.0
  0
ENDSEC
  0
SECTION
  2
OBJECTS
  0
DICTIONARY
  5
C
100
AcDbDictionary
280
0
281
1
  3
ACAD_GROUP
350
D
  3
ACAD_MLINESTYLE
350
17
  3
ACAD_LAYOUT
350
1A
  3
ACAD_PLOTSETTINGS
350
19
  3
ACAD_PLOTSTYLENAME
350
E
  0
DICTIONARY
  5
D
102
{ACAD_REACTORS
330
C
102
}
100
AcDbDictionary
280
0
281
1
  0
ACDBDICTIONARYWDFLT
  5
E
102
{ACAD_REACTORS
330
C
102
}
100
AcDbDictionary
281
1
  3
Normal
350
F
100
AcDbDictionaryWithDefault
340
F
  0
DICTIONARY
  5
17
102
{ACAD_REACTORS
330
C
102
}
100
AcDbDictionary
280
0
281
1
  3
Standard
350
18
  0
DICTIONARY
  5
19
102
{ACAD_REACTORS
330
C
102
}
100
AcDbDictionary
281
1
  0
DICTIONARY
  5
1A
102
{ACAD_REACTORS
330
C
102
}
100
AcDbDictionary
281
1
  3
Model
350
33D
  3
Layout1
350
33E
  0
ACDBPLACEHOLDER
  5
F
102
{ACAD_REACTORS
330
E
102
}
  0
MLINESTYLE
  5
18
102
{ACAD_REACTORS
330
17
102
}
100
AcDbMlineStyle
  2
STANDARD
 70
0
  3

 62
256
 51
90.0
 52
90.0
 71
2
 49
0.5
 62
256
  6
BYLAYER
 49
-0.5
 62
256
  6
BYLAYER
  0
LAYOUT
  5
33D
102
{ACAD_REACTORS
330
1A
102
}
100
AcDbPlotSettings
  1

  2
none_device
  4
ANSI_C_(22.00_x_17.00_Inches)
  6

 40
0.0
 41
0.0
 42
0.0
 43
0.0
 44
558.8
 45
431.8
 46
0.0
 47
0.0
 48
0.0
 49
0.0
140
0.0
141
0.0
142
1.0
143
1.0
 70
1024
 72
1
 73
0
 74
0
  7

 75
0
147
1.0
148
0.0
149
0.0
100
AcDbLayout
  1
Model
 70
0
 71
0
 10
0.0
 20
0.0
 11
558.8
 21
431.8
 12
0.0
 22
0.0
 32
0.0
 14
0.0
 24
0.0
 34
0.0
 15
0.0
 25
0.0
 35
0.0
146
0.0
 13
0.0
 23
0.0
 33
0.0
 16
1.0
 26
0.0
 36
0.0
 17
0.0
 27
1.0
 37
0.0
 76
0
330
216
345
0
346
0
  0
LAYOUT
  5
33E
102
{ACAD_REACTORS
330
1A
102
}
100
AcDbPlotSettings
  1

  2
none_device
  4
ANSI_C_(22.00_x_17.00_Inches)
  6

 40
0.0
 41
0.0
 42
0.0
 43
0.0
 44
558.8
 45
431.8
 46
0.0
 47
0.0
 48
0.0
 49
0.0
140
0.0
141
0.0
142
1.0
143
1.0
 70
0
 72
1
 73
0
 74
0
  7

 75
0
147
1.0
148
0.0
149
0.0
100
AcDbLayout
  1
Layout1
 70
0
 71
1
 10
0.0
 20
0.0
 11
558.8
 21
431.8
 12
0.0
 22
0.0
 32
0.0
 14
0.0
 24
0.0
 34
0.0
 15
0.0
 25
0.0
 35
0.0
146
0.0
 13
0.0
 23
0.0
 33
0.0
 16
1.0
 26
0.0
 36
0.0
 17
0.0
 27
1.0
 37
0.0
 76
0
330
217
345
0
346
0
  0
ENDSEC
  0
EOF
