999
DXF file: Y:\3D PRATIKA-KAEDRA_OLGA\TRAVAIL_PHASE_10\CAD3D\81382_3D-Simplified\81382_2D-isometric.dxf
999
Pro/ENGINEER 2018260 by Parametric Technology Corporation
  0
SECTION
  2
HEADER
  9
$ACADVER
  1
AC1027
  9
$DWGCODEPAGE
  3
ANSI_1252
  9
$EXTMAX
 10
558.8
 20
431.8
 30
0.0
  9
$EXTMIN
 10
0.0
 20
0.0
 30
0.0
  9
$LIMMIN
 10
0.0
 20
0.0
  9
$LIMMAX
 10
558.8
 20
431.8
  9
$VIEWCTR
 10
279.4
 20
215.9
  9
$VIEWSIZE
 40
431.8
  9
$CLAYER
  8
0
  9
$LTSCALE
 40
30.734
  9
$CELTYPE
  6
BYLAYER
  9
$DIMSCALE
 40
1.0
  9
$DIMASZ
 40
0.1875
  9
$DIMEXO
 40
0.0625
  9
$DIMDLI
 40
21.2344
  9
$DIMEXE
 40
0.125
  9
$DIMCEN
 40
5.0292
  9
$DIMLFAC
 40
1.0
  9
$DIMBLK
  1
_CLOSED
  9
$DIMALT
 70
0
  9
$DIMALTF
 40
0.0393700787
  9
$DIMTXT
 40
0.15625
  9
$DIMTOL
 70
0
  9
$DIMLIM
 70
0
  9
$DIMTFAC
 40
1.0
  9
$DIMGAP
 40
0.625
  9
$DIMDSEP
 70
46
  9
$AUNITS
 70
0
  9
$PDMODE
 70
3
  9
$PDSIZE
 40
0.3125
  9
$HANDSEED
  5
355
  9
$TILEMODE
 70
1
  9
$MEASUREMENT
 70
1
  9
$INSUNITS
 70
4
  0
ENDSEC
  0
SECTION
  2
CLASSES
  0
CLASS
  1
ACDBDICTIONARYWDFLT
  2
AcDbDictionaryWithDefault
  3
AutoCAD 2000
 90
0
 91
1
280
0
281
0
  0
CLASS
  1
ACDBPLACEHOLDER
  2
AcDbPlaceHolder
  3
AutoCAD 2000
 90
0
 91
1
280
0
281
0
  0
CLASS
  1
LAYOUT
  2
AcDbLayout
  3
AutoCAD 2000
 90
0
 91
0
280
0
281
0
  0
ENDSEC
  0
SECTION
  2
TABLES
  0
TABLE
  2
VPORT
  5
8
100
AcDbSymbolTable
 70
2
  0
VPORT
  5
1F4
100
AcDbSymbolTableRecord
100
AcDbViewportTableRecord
  2
*ACTIVE
 70
0
 10
0.0
 20
0.0
 11
1.0
 21
1.0
 12
279.4
 22
215.9
 13
0.0
 23
0.0
 14
1.0
 24
1.0
 15
0.0
 25
0.0
 16
0.0
 26
0.0
 36
1.0
 17
0.0
 27
0.0
 37
0.0
 40
431.8
 41
1.2941176471
 42
50.0
 43
0.0
 44
0.0
 50
0.0
 51
0.0
 71
0
 72
100
 73
1
 74
1
 75
0
 76
0
 77
0
 78
0
  0
ENDTAB
  0
TABLE
  2
LTYPE
  5
5
100
AcDbSymbolTable
 70
6
  0
LTYPE
  5
14
100
AcDbSymbolTableRecord
100
AcDbLinetypeTableRecord
  2
BYBLOCK
 70
0
  3

 72
65
 73
0
 40
0.0
  0
LTYPE
  5
15
100
AcDbSymbolTableRecord
100
AcDbLinetypeTableRecord
  2
BYLAYER
 70
0
  3

 72
65
 73
0
 40
0.0
  0
LTYPE
  5
16
100
AcDbSymbolTableRecord
100
AcDbLinetypeTableRecord
  2
CONTINUOUS
 70
64
  3
Solid line
 72
65
 73
0
 40
0.0
  0
LTYPE
  5
1F5
100
AcDbSymbolTableRecord
100
AcDbLinetypeTableRecord
  2
CENTER
 70
64
  3
____ _ ____ _ ____ _ ____ _ ____ _ ____ _ ____
 72
65
 73
4
 40
0.6
 49
0.375
 74
0
 49
-0.075
 74
0
 49
0.075
 74
0
 49
-0.075
 74
0
  0
LTYPE
  5
1F6
100
AcDbSymbolTableRecord
100
AcDbLinetypeTableRecord
  2
HIDDEN
 70
64
  3
- - - - - - - - - - - - - - - - - - - -
 72
65
 73
2
 40
0.2
 49
0.1
 74
0
 49
-0.1
 74
0
  0
LTYPE
  5
1F7
100
AcDbSymbolTableRecord
100
AcDbLinetypeTableRecord
  2
PHANTOM
 70
64
  3
_____ _ _ _____ _ _ _____ _ _ _____
 72
65
 73
6
 40
0.8
 49
0.45
 74
0
 49
-0.05
 74
0
 49
0.1
 74
0
 49
-0.05
 74
0
 49
0.1
 74
0
 49
-0.05
 74
0
  0
LTYPE
  5
1F8
100
AcDbSymbolTableRecord
100
AcDbLinetypeTableRecord
  2
DOT
 70
64
  3
. . . . . . . . . . . . . . . . . . . .
 72
65
 73
2
 40
0.2
 49
0.1
 74
0
 49
-0.1
 74
0
  0
LTYPE
  5
1F9
100
AcDbSymbolTableRecord
100
AcDbLinetypeTableRecord
  2
DASHED
 70
64
  3
- - - - - - - - - - - - - - - - - - - -
 72
65
 73
2
 40
0.2
 49
0.1
 74
0
 49
-0.1
 74
0
  0
ENDTAB
  0
TABLE
  2
LAYER
  5
2
100
AcDbSymbolTable
 70
36
  0
LAYER
  5
10
100
AcDbSymbolTableRecord
100
AcDbLayerTableRecord
  2
0
 70
0
 62
7
  6
CONTINUOUS
370
-3
390
F
  0
LAYER
  5
1FA
100
AcDbSymbolTableRecord
100
AcDbLayerTableRecord
  2
DEFAULT_1
 70
0
 62
7
  6
CENTER
370
-3
390
F
  0
LAYER
  5
1FB
100
AcDbSymbolTableRecord
100
AcDbLayerTableRecord
  2
DEFAULT_2
 70
0
 62
8
  6
HIDDEN
370
-3
390
F
  0
LAYER
  5
1FC
100
AcDbSymbolTableRecord
100
AcDbLayerTableRecord
  2
DEFAULT_3
 70
0
 62
7
  6
PHANTOM
370
-3
390
F
  0
LAYER
  5
1FD
100
AcDbSymbolTableRecord
100
AcDbLayerTableRecord
  2
01_ALL_DTM_PLN
 70
0
 62
7
  6
CONTINUOUS
370
-3
390
F
  0
LAYER
  5
1FE
100
AcDbSymbolTableRecord
100
AcDbLayerTableRecord
  2
01__ASM_ALL_DTM_PLN
 70
0
 62
7
  6
CONTINUOUS
370
-3
390
F
  0
LAYER
  5
1FF
100
AcDbSymbolTableRecord
100
AcDbLayerTableRecord
  2
01__ASM_DEF_DTM_PLN
 70
0
 62
7
  6
CONTINUOUS
370
-3
390
F
  0
LAYER
  5
200
100
AcDbSymbolTableRecord
100
AcDbLayerTableRecord
  2
01___PRT_ALL_DTM_PLN
 70
0
 62
7
  6
CONTINUOUS
370
-3
390
F
  0
LAYER
  5
201
100
AcDbSymbolTableRecord
100
AcDbLayerTableRecord
  2
01___PRT_DEF_DTM_PLN
 70
0
 62
7
  6
CONTINUOUS
370
-3
390
F
  0
LAYER
  5
202
100
AcDbSymbolTableRecord
100
AcDbLayerTableRecord
  2
02_ALL_AXES
 70
0
 62
7
  6
CONTINUOUS
370
-3
390
F
  0
LAYER
  5
203
100
AcDbSymbolTableRecord
100
AcDbLayerTableRecord
  2
02__ASM_ALL_AXES
 70
0
 62
7
  6
CONTINUOUS
370
-3
390
F
  0
LAYER
  5
204
100
AcDbSymbolTableRecord
100
AcDbLayerTableRecord
  2
02___PRT_ALL_AXES
 70
0
 62
7
  6
CONTINUOUS
370
-3
390
F
  0
LAYER
  5
205
100
AcDbSymbolTableRecord
100
AcDbLayerTableRecord
  2
03_ALL_CURVES
 70
0
 62
7
  6
CONTINUOUS
370
-3
390
F
  0
LAYER
  5
206
100
AcDbSymbolTableRecord
100
AcDbLayerTableRecord
  2
03__ASM_ALL_CURVES
 70
0
 62
7
  6
CONTINUOUS
370
-3
390
F
  0
LAYER
  5
207
100
AcDbSymbolTableRecord
100
AcDbLayerTableRecord
  2
03___PRT_ALL_CURVES
 70
0
 62
7
  6
CONTINUOUS
370
-3
390
F
  0
LAYER
  5
208
100
AcDbSymbolTableRecord
100
AcDbLayerTableRecord
  2
04_ALL_DTM_PNT
 70
0
 62
7
  6
CONTINUOUS
370
-3
390
F
  0
LAYER
  5
209
100
AcDbSymbolTableRecord
100
AcDbLayerTableRecord
  2
04__ASM_ALL_DTM_PNT
 70
0
 62
7
  6
CONTINUOUS
370
-3
390
F
  0
LAYER
  5
20A
100
AcDbSymbolTableRecord
100
AcDbLayerTableRecord
  2
04___PRT_ALL_DTM_PNT
 70
0
 62
7
  6
CONTINUOUS
370
-3
390
F
  0
LAYER
  5
20B
100
AcDbSymbolTableRecord
100
AcDbLayerTableRecord
  2
05_ALL_DTM_CSYS
 70
0
 62
7
  6
CONTINUOUS
370
-3
390
F
  0
LAYER
  5
20C
100
AcDbSymbolTableRecord
100
AcDbLayerTableRecord
  2
05__ASM_ALL_DTM_CSYS
 70
0
 62
7
  6
CONTINUOUS
370
-3
390
F
  0
LAYER
  5
20D
100
AcDbSymbolTableRecord
100
AcDbLayerTableRecord
  2
05__ASM_DEF_DTM_CSYS
 70
0
 62
7
  6
CONTINUOUS
370
-3
390
F
  0
LAYER
  5
20E
100
AcDbSymbolTableRecord
100
AcDbLayerTableRecord
  2
05___PRT_ALL_DTM_CSYS
 70
0
 62
7
  6
CONTINUOUS
370
-3
390
F
  0
LAYER
  5
20F
100
AcDbSymbolTableRecord
100
AcDbLayerTableRecord
  2
05___PRT_DEF_DTM_CSYS
 70
0
 62
7
  6
CONTINUOUS
370
-3
390
F
  0
LAYER
  5
210
100
AcDbSymbolTableRecord
100
AcDbLayerTableRecord
  2
06_ALL_SURFS
 70
0
 62
7
  6
CONTINUOUS
370
-3
390
F
  0
LAYER
  5
211
100
AcDbSymbolTableRecord
100
AcDbLayerTableRecord
  2
06__ASM_ALL_SURFS
 70
0
 62
7
  6
CONTINUOUS
370
-3
390
F
  0
LAYER
  5
212
100
AcDbSymbolTableRecord
100
AcDbLayerTableRecord
  2
06___PRT_ALL_SURFS
 70
0
 62
7
  6
CONTINUOUS
370
-3
390
F
  0
LAYER
  5
213
100
AcDbSymbolTableRecord
100
AcDbLayerTableRecord
  2
07__ASM_ALL_SKELETONS
 70
0
 62
7
  6
CONTINUOUS
370
-3
390
F
  0
ENDTAB
  0
TABLE
  2
STYLE
  5
3
100
AcDbSymbolTable
 70
1
  0
STYLE
  5
11
100
AcDbSymbolTableRecord
100
AcDbTextStyleTableRecord
  2
STANDARD
 70
0
 40
0.0
 41
0.8
 50
0.0
 71
0
 42
0.2
  3
txt
  4

  0
STYLE
  5
214
100
AcDbSymbolTableRecord
100
AcDbTextStyleTableRecord
  2
TEXTSTYLE_1
 70
0
 40
0.0
 41
0.8
 50
0.0
 71
0
 42
0.2
  3
gdt
  4

  0
ENDTAB
  0
TABLE
  2
VIEW
  5
6
100
AcDbSymbolTable
 70
0
  0
ENDTAB
  0
TABLE
  2
UCS
  5
7
100
AcDbSymbolTable
 70
0
  0
ENDTAB
  0
TABLE
  2
APPID
  5
9
100
AcDbSymbolTable
 70
1
  0
APPID
  5
215
100
AcDbSymbolTableRecord
100
AcDbRegAppTableRecord
  2
ACAD
 70
0
  0
ENDTAB
  0
TABLE
  2
BLOCK_RECORD
  5
1
100
AcDbSymbolTable
 70
0
  0
BLOCK_RECORD
  5
216
100
AcDbSymbolTableRecord
100
AcDbBlockTableRecord
  2
*Model_Space
  0
BLOCK_RECORD
  5
217
100
AcDbSymbolTableRecord
100
AcDbBlockTableRecord
  2
*Paper_Space
  0
BLOCK_RECORD
  5
218
100
AcDbSymbolTableRecord
100
AcDbBlockTableRecord
  2
_CLOSED
  0
ENDTAB
  0
TABLE
  2
DIMSTYLE
  5
A
100
AcDbSymbolTable
 70
1
100
AcDbDimStyleTable
 71
0
  0
DIMSTYLE
105
219
100
AcDbSymbolTableRecord
100
AcDbDimStyleTableRecord
  2
STANDARD
 70
0
  3

  4

 40
1.0
 41
0.1875
 42
0.0625
 43
0.38
 44
0.125
 45
0.0
 46
0.0
 47
0.01
 48
0.01
140
0.15625
141
0.09
142
0.0
143
25.4
144
1.0
145
0.0
146
1.0
147
0.625
 71
0.0
 72
0.0
 73
1
 74
1
 75
0
 76
0
 77
0
 78
8
 79
2
170
0
171
1
172
0
173
0
174
0
175
0
176
0
177
0
178
0
270
2
179
2
271
2
272
2
273
2
274
2
275
0
280
0
281
0
282
0
283
1
284
8
285
0
286
0
287
3
288
0
340
11
278
46
341
218
342
218
343
218
344
218
  0
ENDTAB
  0
ENDSEC
  0
SECTION
  2
BLOCKS
  0
BLOCK
  5
20
100
AcDbEntity
  8
0
100
AcDbBlockBegin
  2
*Model_Space
 70
0
 10
0.0
 20
0.0
 30
0.0
  3
*Model_Space
  1

  0
ENDBLK
  5
21
100
AcDbEntity
  8
0
100
AcDbBlockEnd
  0
BLOCK
  5
1C
100
AcDbEntity
  8
0
100
AcDbBlockBegin
  2
*Paper_Space
 70
0
 10
0.0
 20
0.0
 30
0.0
  3
*Paper_Space
  1

  0
ENDBLK
  5
1D
100
AcDbEntity
  8
0
100
AcDbBlockEnd
  0
BLOCK
  5
21A
100
AcDbEntity
  8
0
100
AcDbBlockBegin
  2
_CLOSED
 70
64
 10
0.0
 20
0.0
  3
_CLOSED
  1

  0
LINE
  5
21B
100
AcDbEntity
  8
0
  6
BYBLOCK
 62
0
100
AcDbLine
 10
0.0
 20
0.0
 11
-1.0
 21
0.1666666667
  0
LINE
  5
21C
100
AcDbEntity
  8
0
  6
BYBLOCK
 62
0
100
AcDbLine
 10
-1.0
 20
0.1666666667
 11
-1.0
 21
-0.1666666667
  0
LINE
  5
21D
100
AcDbEntity
  8
0
  6
BYBLOCK
 62
0
100
AcDbLine
 10
-1.0
 20
-0.1666666667
 11
0.0
 21
0.0
  0
LINE
  5
21E
100
AcDbEntity
  8
0
  6
BYBLOCK
 62
0
100
AcDbLine
 10
-1.0
 20
0.0
 11
0.0
 21
0.0
  0
ENDBLK
  5
21F
100
AcDbEntity
  8
0
  6
BYBLOCK
 62
0
100
AcDbBlockEnd
  0
ENDSEC
  0
SECTION
  2
ENTITIES
  0
LINE
  5
220
100
AcDbEntity
  8
0
100
AcDbLine
 62
7
  6
CONTINUOUS
 10
-115.0242837422
 20
248.3035331698
 11
-117.7267924921
 21
242.3721213654
  0
LINE
  5
221
100
AcDbEntity
  8
0
100
AcDbLine
 62
7
  6
CONTINUOUS
 10
-124.2456273379
 20
228.0647138666
 11
-125.4453751858
 21
225.4315314404
  0
LINE
  5
222
100
AcDbEntity
  8
0
100
AcDbLine
 62
7
  6
CONTINUOUS
 10
-28.5818080123
 20
122.322710173
 11
-31.1276915178
 21
123.7931652044
  0
LINE
  5
223
100
AcDbEntity
  8
0
100
AcDbLine
 62
7
  6
CONTINUOUS
 10
-31.1535267272
 20
123.8096020362
 11
-39.5890176225
 21
128.6817849158
  0
LINE
  5
224
100
AcDbEntity
  8
0
100
AcDbLine
 62
7
  6
CONTINUOUS
 10
-50.2276692701
 20
138.2368672399
 11
-41.5865920624
 21
133.2459415243
  0
LINE
  5
225
100
AcDbEntity
  8
0
100
AcDbLine
 62
7
  6
CONTINUOUS
 10
-43.1146356449
 20
135.5150736431
 11
-51.7557128526
 21
140.5059993587
  0
LINE
  5
226
100
AcDbEntity
  8
0
100
AcDbLine
 62
7
  6
CONTINUOUS
 10
-52.5937779821
 20
144.119426854
 11
-52.5539493431
 21
144.0964225718
  0
LINE
  5
227
100
AcDbEntity
  8
0
100
AcDbLine
 62
7
  6
CONTINUOUS
 10
-57.6736314418
 20
150.3385293927
 11
-58.7996625207
 21
150.9889040315
  0
LINE
  5
228
100
AcDbEntity
  8
0
100
AcDbLine
 62
7
  6
CONTINUOUS
 10
-57.3163766665
 20
155.0066718956
 11
-48.6752994588
 21
150.01574618
  0
LINE
  5
229
100
AcDbEntity
  8
0
100
AcDbLine
 62
7
  6
CONTINUOUS
 10
-28.7241331309
 20
140.0158605814
 11
-26.3313170884
 21
138.6338144739
  0
LINE
  5
22A
100
AcDbEntity
  8
0
100
AcDbLine
 62
7
  6
CONTINUOUS
 10
-13.5945920101
 20
132.4249596601
 11
-11.2017759675
 21
131.0429135526
  0
LINE
  5
22B
100
AcDbEntity
  8
0
100
AcDbLine
 62
7
  6
CONTINUOUS
 10
-49.1654965114
 20
153.0096532336
 11
-57.8065737192
 21
158.0005789492
  0
LINE
  5
22C
100
AcDbEntity
  8
0
100
AcDbLine
 62
7
  6
CONTINUOUS
 10
-112.8393480307
 20
191.1975828485
 11
-108.0537159456
 21
188.4334906335
  0
LINE
  5
22D
100
AcDbEntity
  8
0
100
AcDbLine
 62
7
  6
CONTINUOUS
 10
-52.5937779821
 20
144.119426854
 11
-52.5524615611
 21
144.0909621181
  0
LINE
  5
22E
100
AcDbEntity
  8
0
100
AcDbLine
 62
7
  6
CONTINUOUS
 10
-52.5937779821
 20
144.119426854
 11
-52.5547279467
 21
144.0877524536
  0
LINE
  5
22F
100
AcDbEntity
  8
0
100
AcDbLine
 62
7
  6
CONTINUOUS
 10
-96.077371003
 20
185.4384398807
 11
-96.1519947759
 21
185.4383657712
  0
LINE
  5
230
100
AcDbEntity
  8
0
100
AcDbLine
 62
7
  6
CONTINUOUS
 10
-96.1006510367
 20
185.3247655005
 11
-96.17546702
 21
185.3248768795
  0
LINE
  5
231
100
AcDbEntity
  8
0
100
AcDbLine
 62
7
  6
CONTINUOUS
 10
12.2363107047
 20
124.0951370337
 11
-22.6706527397
 21
144.2567508373
  0
LINE
  5
232
100
AcDbEntity
  8
0
100
AcDbLine
 62
7
  6
CONTINUOUS
 10
19.0760514848
 20
121.7306491354
 11
27.5158968615
 21
116.8559511882
  0
LINE
  5
233
100
AcDbEntity
  8
0
100
AcDbLine
 62
7
  6
CONTINUOUS
 10
22.8069177239
 20
121.3995406087
 11
26.2107121026
 21
119.4335721898
  0
LINE
  5
234
100
AcDbEntity
  8
0
100
AcDbLine
 62
7
  6
CONTINUOUS
 10
-35.6720793819
 20
157.2822320558
 11
-37.3611260002
 21
158.2577940141
  0
LINE
  5
235
100
AcDbEntity
  8
0
100
AcDbLine
 62
7
  6
CONTINUOUS
 10
-102.5337294202
 20
189.5883133627
 11
-99.082266063
 21
187.339460429
  0
LINE
  5
236
100
AcDbEntity
  8
0
100
AcDbLine
 62
7
  6
CONTINUOUS
 10
-96.0958770283
 20
185.3937328249
 11
-90.9128625191
 21
182.0165625085
  0
LINE
  5
237
100
AcDbEntity
  8
0
100
AcDbLine
 62
7
  6
CONTINUOUS
 10
-87.9261779708
 20
180.0706430882
 11
-82.7434589756
 21
176.6936645883
  0
LINE
  5
238
100
AcDbEntity
  8
0
100
AcDbLine
 62
7
  6
CONTINUOUS
 10
-79.7564787049
 20
174.7475532423
 11
-74.5740554322
 21
171.3707666681
  0
LINE
  5
239
100
AcDbEntity
  8
0
100
AcDbLine
 62
7
  6
CONTINUOUS
 10
-71.5867792197
 20
169.4244632789
 11
-64.142986907
 21
164.5742468655
  0
LINE
  5
23A
100
AcDbEntity
  8
0
100
AcDbLine
 62
7
  6
CONTINUOUS
 10
-96.0946211935
 20
185.3957564157
 11
-96.0767353935
 21
185.3824732568
  0
LINE
  5
23B
100
AcDbEntity
  8
0
100
AcDbLine
 62
7
  6
CONTINUOUS
 10
-87.924906801
 20
180.0726914747
 11
-87.9073046138
 21
180.0596192671
  0
LINE
  5
23C
100
AcDbEntity
  8
0
100
AcDbLine
 62
7
  6
CONTINUOUS
 10
-79.7551918778
 20
174.7496269434
 11
-79.7378734932
 21
174.7367658267
  0
LINE
  5
23D
100
AcDbEntity
  8
0
100
AcDbLine
 62
7
  6
CONTINUOUS
 10
-71.5854764103
 20
169.4265628181
 11
-71.5684420288
 21
169.4139129402
  0
LINE
  5
23E
100
AcDbEntity
  8
0
100
AcDbLine
 62
7
  6
CONTINUOUS
 10
-58.7996625207
 20
199.8650865767
 11
-57.0874602491
 21
200.3240517831
  0
LINE
  5
23F
100
AcDbEntity
  8
0
100
AcDbLine
 62
7
  6
CONTINUOUS
 10
-57.4426891958
 20
175.2392459098
 11
-48.8016119881
 21
170.2483201942
  0
LINE
  5
240
100
AcDbEntity
  8
0
100
AcDbLine
 62
7
  6
CONTINUOUS
 10
-48.1793343018
 20
173.5112065929
 11
-56.8204115095
 21
178.5021323085
  0
LINE
  5
241
100
AcDbEntity
  8
0
100
AcDbLine
 62
7
  6
CONTINUOUS
 10
3.7402390593
 20
146.349270332
 11
25.4393032314
 21
133.8162938549
  0
LINE
  5
242
100
AcDbEntity
  8
0
100
AcDbLine
 62
7
  6
CONTINUOUS
 10
-125.376011969
 20
222.4866742312
 11
-125.4453751858
 21
222.526737137
  0
LINE
  5
243
100
AcDbEntity
  8
0
100
AcDbLine
 62
7
  6
CONTINUOUS
 10
-125.4453751858
 20
225.4315314404
 11
-124.8703076629
 21
225.0993831192
  0
LINE
  5
244
100
AcDbEntity
  8
0
100
AcDbLine
 62
7
  6
CONTINUOUS
 10
3.9840958458
 20
151.3866545599
 11
11.1383159738
 21
147.2545098801
  0
LINE
  5
245
100
AcDbEntity
  8
0
100
AcDbLine
 62
7
  6
CONTINUOUS
 10
16.6978589153
 20
150.4133511012
 11
30.4408044284
 21
142.4756810028
  0
LINE
  5
246
100
AcDbEntity
  8
0
100
AcDbLine
 62
7
  6
CONTINUOUS
 10
6.017382979
 20
159.4507947557
 11
15.1395169314
 21
154.1820195984
  0
LINE
  5
247
100
AcDbEntity
  8
0
100
AcDbLine
 62
7
  6
CONTINUOUS
 10
-58.7996625207
 20
199.8650865767
 11
-57.6736314418
 21
199.2147119379
  0
LINE
  5
248
100
AcDbEntity
  8
0
100
AcDbLine
 62
7
  6
CONTINUOUS
 10
-50.5873766939
 20
195.8543626892
 11
-41.9462994862
 21
190.8634369736
  0
LINE
  5
249
100
AcDbEntity
  8
0
100
AcDbLine
 62
7
  6
CONTINUOUS
 10
-40.3062831929
 20
193.8985582964
 11
-48.9473604006
 21
198.889484012
  0
LINE
  5
24A
100
AcDbEntity
  8
0
100
AcDbLine
 62
7
  6
CONTINUOUS
 10
13.0728471354
 20
171.6460435115
 11
41.3036062678
 21
155.3404813301
  0
LINE
  5
24B
100
AcDbEntity
  8
0
100
AcDbLine
 62
7
  6
CONTINUOUS
 10
-51.4677469033
 20
209.4112318663
 11
-52.5937779821
 21
210.0616065051
  0
LINE
  5
24C
100
AcDbEntity
  8
0
100
AcDbLine
 62
7
  6
CONTINUOUS
 10
-113.8029159848
 20
247.598093836
 11
-115.0242837422
 21
248.3035331698
  0
LINE
  5
24D
100
AcDbEntity
  8
0
100
AcDbLine
 62
7
  6
CONTINUOUS
 10
-43.7338948938
 20
228.9744264165
 11
-43.7338948938
 21
238.8124940379
  0
LINE
  5
24E
100
AcDbEntity
  8
0
100
AcDbLine
 62
7
  6
CONTINUOUS
 10
-42.6088778695
 20
228.3879917451
 11
-42.607863815
 21
238.1621193991
  0
LINE
  5
24F
100
AcDbEntity
  8
0
100
AcDbLine
 62
7
  6
CONTINUOUS
 10
-37.6491859584
 20
239.4913201854
 11
-42.607863815
 21
238.1621193991
  0
LINE
  5
250
100
AcDbEntity
  8
0
100
AcDbLine
 62
7
  6
CONTINUOUS
 10
-43.7338948938
 20
238.8124940379
 11
-38.7752170373
 21
240.1416948242
  0
LINE
  5
251
100
AcDbEntity
  8
0
100
AcDbLine
 62
7
  6
CONTINUOUS
 10
15.483076295
 20
174.2773551547
 11
26.2209611208
 21
168.0753523002
  0
LINE
  5
252
100
AcDbEntity
  8
0
100
AcDbLine
 62
7
  6
CONTINUOUS
 10
-112.7628334369
 20
250.3621244746
 11
-111.792052469
 21
249.8014194166
  0
LINE
  5
253
100
AcDbEntity
  8
0
100
AcDbLine
 62
7
  6
CONTINUOUS
 10
31.4788639685
 20
170.2535991022
 11
45.3048072254
 21
162.2679910484
  0
LINE
  5
254
100
AcDbEntity
  8
0
100
AcDbLine
 62
7
  6
CONTINUOUS
 10
-37.7940983249
 20
213.7135583008
 11
-29.1530211172
 21
208.7226325852
  0
LINE
  5
255
100
AcDbEntity
  8
0
100
AcDbLine
 62
7
  6
CONTINUOUS
 10
22.2748453345
 20
179.5930845745
 11
30.2221620784
 21
175.0028620185
  0
LINE
  5
256
100
AcDbEntity
  8
0
100
AcDbLine
 62
7
  6
CONTINUOUS
 10
-26.7448635492
 20
211.0679566478
 11
-35.3859407569
 21
216.0588823634
  0
LINE
  5
257
100
AcDbEntity
  8
0
100
AcDbLine
 62
7
  6
CONTINUOUS
 10
-40.9549711961
 20
238.6051863279
 11
-40.9549711961
 21
228.9283925587
  0
LINE
  5
258
100
AcDbEntity
  8
0
100
AcDbLine
 62
7
  6
CONTINUOUS
 10
-37.6491859584
 20
235.394604338
 11
-37.6491859584
 21
239.4913201854
  0
LINE
  5
259
100
AcDbEntity
  8
0
100
AcDbLine
 62
7
  6
CONTINUOUS
 10
-35.2287763791
 20
225.9476759352
 11
-40.9549711961
 21
228.9283925587
  0
LINE
  5
25A
100
AcDbEntity
  8
0
100
AcDbLine
 62
7
  6
CONTINUOUS
 10
-60.4516682721
 20
247.1432941735
 11
-60.4335423656
 21
247.1152496275
  0
LINE
  5
25B
100
AcDbEntity
  8
0
100
AcDbLine
 62
7
  6
CONTINUOUS
 10
-60.3892170119
 20
247.1987287762
 11
-60.3723307262
 21
247.1694878075
  0
LINE
  5
25C
100
AcDbEntity
  8
0
100
AcDbLine
 62
7
  6
CONTINUOUS
 10
-52.5647021011
 20
144.1358873145
 11
-52.5937779821
 21
144.119426854
  0
LINE
  5
25D
100
AcDbEntity
  8
0
100
AcDbLine
 62
7
  6
CONTINUOUS
 10
-37.3611260002
 20
158.2577940141
 11
-43.0946072336
 21
156.0339858942
  0
LINE
  5
25E
100
AcDbEntity
  8
0
100
AcDbLine
 62
7
  6
CONTINUOUS
 10
42.3797160346
 20
188.0667234188
 11
40.7389569518
 21
187.4303328522
  0
LINE
  5
25F
100
AcDbEntity
  8
0
100
AcDbLine
 62
7
  6
CONTINUOUS
 10
-43.0263685332
 20
154.429771698
 11
-35.6720793819
 21
157.2822320558
  0
LINE
  5
260
100
AcDbEntity
  8
0
100
AcDbLine
 62
7
  6
CONTINUOUS
 10
-112.7628334369
 20
250.3621244746
 11
-110.5982303241
 21
250.9423582068
  0
LINE
  5
261
100
AcDbEntity
  8
0
100
AcDbLine
 62
7
  6
CONTINUOUS
 10
15.1700923021
 20
219.9621842354
 11
15.2494468004
 21
219.9231735375
  0
LINE
  5
262
100
AcDbEntity
  8
0
100
AcDbLine
 62
7
  6
CONTINUOUS
 10
-37.5355330031
 20
235.5044404292
 11
-37.5325203939
 21
235.5029101615
  0
LINE
  5
263
100
AcDbEntity
  8
0
100
AcDbLine
 62
7
  6
CONTINUOUS
 10
-67.2839768636
 20
250.6182406248
 11
-63.6113281098
 21
248.7523387102
  0
LINE
  5
264
100
AcDbEntity
  8
0
100
AcDbLine
 62
7
  6
CONTINUOUS
 10
-60.4138056412
 20
247.1278263497
 11
-54.9183922042
 21
244.3358625271
  0
LINE
  5
265
100
AcDbEntity
  8
0
100
AcDbLine
 62
7
  6
CONTINUOUS
 10
-51.7208697361
 20
242.7113501669
 11
-46.2254562991
 21
239.9193863443
  0
LINE
  5
266
100
AcDbEntity
  8
0
100
AcDbLine
 62
7
  6
CONTINUOUS
 10
-34.3349979258
 20
233.8783978012
 11
-26.4538651185
 21
229.8743609929
  0
LINE
  5
267
100
AcDbEntity
  8
0
100
AcDbLine
 62
7
  6
CONTINUOUS
 10
46.7966839759
 20
183.9315022255
 11
11.8897205314
 21
204.093116029
  0
LINE
  5
268
100
AcDbEntity
  8
0
100
AcDbLine
 62
7
  6
CONTINUOUS
 10
-42.607863815
 20
238.1621193991
 11
-43.7338948938
 21
238.8124940379
  0
LINE
  5
269
100
AcDbEntity
  8
0
100
AcDbLine
 62
7
  6
CONTINUOUS
 10
-21.0105503014
 20
226.0978974963
 11
-12.3694730937
 21
221.1069717807
  0
LINE
  5
26A
100
AcDbEntity
  8
0
100
AcDbLine
 62
7
  6
CONTINUOUS
 10
-73.8276386942
 20
258.7408026019
 11
-69.0420066091
 21
255.9767103869
  0
LINE
  5
26B
100
AcDbEntity
  8
0
100
AcDbLine
 62
7
  6
CONTINUOUS
 10
-9.5599074692
 20
222.4054083535
 11
-18.2009846769
 21
227.3963340691
  0
LINE
  5
26C
100
AcDbEntity
  8
0
100
AcDbLine
 62
7
  6
CONTINUOUS
 10
-38.7752170373
 20
240.1416948242
 11
-37.6491859584
 21
239.4913201854
  0
LINE
  5
26D
100
AcDbEntity
  8
0
100
AcDbLine
 62
7
  6
CONTINUOUS
 10
27.6960679081
 20
202.6127079973
 11
28.5405912173
 21
202.1249270182
  0
LINE
  5
26E
100
AcDbEntity
  8
0
100
AcDbLine
 62
7
  6
CONTINUOUS
 10
12.5382517442
 20
211.4558045512
 11
14.9310677867
 21
210.0737584437
  0
LINE
  5
26F
100
AcDbEntity
  8
0
100
AcDbLine
 62
7
  6
CONTINUOUS
 10
-40.9549711961
 20
238.6051863279
 11
-35.2287763791
 21
225.9476759352
  0
LINE
  5
270
100
AcDbEntity
  8
0
100
AcDbLine
 62
7
  6
CONTINUOUS
 10
-33.7290603837
 20
226.7293332831
 11
-39.3020785773
 21
239.0482532566
  0
LINE
  5
271
100
AcDbEntity
  8
0
100
AcDbLine
 62
7
  6
CONTINUOUS
 10
-93.6762078708
 20
260.729349271
 11
-93.7057054578
 21
260.7210783456
  0
LINE
  5
272
100
AcDbEntity
  8
0
100
AcDbLine
 62
7
  6
CONTINUOUS
 10
15.1338084546
 20
219.8932066664
 11
15.2106882359
 21
219.8498066619
  0
LINE
  5
273
100
AcDbEntity
  8
0
100
AcDbLine
 62
7
  6
CONTINUOUS
 10
34.5135537429
 20
208.5795064713
 11
33.6690304337
 21
209.0672874504
  0
LINE
  5
274
100
AcDbEntity
  8
0
100
AcDbLine
 62
7
  6
CONTINUOUS
 10
-2.7917747081
 20
231.1220740174
 11
5.8493024996
 21
226.1311483018
  0
LINE
  5
275
100
AcDbEntity
  8
0
100
AcDbLine
 62
7
  6
CONTINUOUS
 10
8.6325601441
 20
226.1849972834
 11
-0.0085170636
 21
231.175922999
  0
LINE
  5
276
100
AcDbEntity
  8
0
100
AcDbLine
 62
7
  6
CONTINUOUS
 10
14.0884839334
 20
228.0211056143
 11
22.7295611411
 21
223.0301798987
  0
LINE
  5
277
100
AcDbEntity
  8
0
100
AcDbLine
 62
7
  6
CONTINUOUS
 10
27.9351555137
 20
220.1737849438
 11
16.4217435469
 21
226.8222029775
  0
LINE
  5
278
100
AcDbEntity
  8
0
100
AcDbLine
 62
7
  6
CONTINUOUS
 10
33.6690304337
 20
209.0672874504
 11
27.6960679081
 21
202.6127079973
  0
LINE
  5
279
100
AcDbEntity
  8
0
100
AcDbLine
 62
7
  6
CONTINUOUS
 10
-29.1872437159
 20
140.3715680987
 11
-35.1602062414
 21
133.9169886456
  0
LINE
  5
27A
100
AcDbEntity
  8
0
100
AcDbLine
 62
7
  6
CONTINUOUS
 10
28.5405912173
 20
202.1249270182
 11
34.5135537428
 21
208.5795064713
  0
LINE
  5
27B
100
AcDbEntity
  8
0
100
AcDbLine
 62
7
  6
CONTINUOUS
 10
26.2107121026
 20
119.4335721898
 11
26.2107121026
 21
121.5777635436
  0
LINE
  5
27C
100
AcDbEntity
  8
0
100
AcDbLine
 62
7
  6
CONTINUOUS
 10
32.822282578
 20
123.3500312586
 11
32.822282578
 21
121.2058399049
  0
ARC
  5
27D
100
AcDbEntity
  8
0
100
AcDbCircle
 62
7
  6
CONTINUOUS
 10
-59.6671323116
 20
187.663752119
 40
21.7887503039
100
AcDbArc
 50
228.1931756801
 51
236.8347860568
  0
ARC
  5
27E
100
AcDbEntity
  8
0
100
AcDbCircle
 62
7
  6
CONTINUOUS
 10
-68.0010467568
 20
192.733813238
 40
21.4871061086
100
AcDbArc
 50
228.0713856955
 51
236.8322343738
  0
ARC
  5
27F
100
AcDbEntity
  8
0
100
AcDbCircle
 62
7
  6
CONTINUOUS
 10
-71.1050990157
 20
194.5546756277
 40
21.318170723
100
AcDbArc
 50
236.9055345896
 51
242.1467068798
  0
ARC
  5
280
100
AcDbEntity
  8
0
100
AcDbCircle
 62
7
  6
CONTINUOUS
 10
-76.3348908064
 20
197.8039605397
 40
21.1855725899
100
AcDbArc
 50
227.9460971633
 51
236.8295788634
  0
ARC
  5
281
100
AcDbEntity
  8
0
100
AcDbCircle
 62
7
  6
CONTINUOUS
 10
-79.4396965455
 20
199.6240701584
 40
21.0155942411
100
AcDbArc
 50
236.9055720561
 51
242.181848972
  0
ARC
  5
282
100
AcDbEntity
  8
0
100
AcDbCircle
 62
7
  6
CONTINUOUS
 10
-84.6686604405
 20
202.8741985919
 40
20.8841557735
100
AcDbArc
 50
227.8171589478
 51
236.8268126585
  0
ARC
  5
283
100
AcDbEntity
  8
0
100
AcDbCircle
 62
7
  6
CONTINUOUS
 10
-87.744923635
 20
204.7288729562
 40
20.7587531196
100
AcDbArc
 50
225.7870144303
 51
236.8911165247
  0
ARC
  5
284
100
AcDbEntity
  8
0
100
AcDbCircle
 62
7
  6
CONTINUOUS
 10
-87.7742885902
 20
204.6934740937
 40
20.7130286331
100
AcDbArc
 50
236.9056121135
 51
242.2180146598
  0
ARC
  5
285
100
AcDbEntity
  8
0
100
AcDbCircle
 62
7
  6
CONTINUOUS
 10
-91.5357108401
 20
224.7717799634
 40
33.2484054646
100
AcDbArc
 50
129.6756161034
 51
134.9473834253
  0
ARC
  5
286
100
AcDbEntity
  8
0
100
AcDbCircle
 62
7
  6
CONTINUOUS
 10
-84.9712357433
 20
229.628267343
 40
32.2963440165
100
AcDbArc
 50
105.0061504663
 51
105.6365562315
  0
ARC
  5
287
100
AcDbEntity
  8
0
100
AcDbCircle
 62
7
  6
CONTINUOUS
 10
-72.7921314447
 20
221.7639999012
 40
29.3598115793
100
AcDbArc
 50
105.0059613008
 51
105.4932236603
  0
ARC
  5
288
100
AcDbEntity
  8
0
100
AcDbCircle
 62
7
  6
CONTINUOUS
 10
-72.6122218625
 20
221.5334115663
 40
28.9303010854
100
AcDbArc
 50
105.0059613005
 51
105.4932236605
  0
ARC
  5
289
100
AcDbEntity
  8
0
100
AcDbCircle
 62
7
  6
CONTINUOUS
 10
-96.6591562762
 20
223.9791342887
 40
28.8228356793
100
AcDbArc
 50
177.1116136753
 51
182.8883863247
  0
ARC
  5
28A
100
AcDbEntity
  8
0
100
AcDbCircle
 62
7
  6
CONTINUOUS
 10
-98.1939466054
 20
223.9301589749
 40
27.2875420755
100
AcDbArc
 50
182.9480720357
 51
183.4844878995
  0
ARC
  5
28B
100
AcDbEntity
  8
0
100
AcDbCircle
 62
7
  6
CONTINUOUS
 10
-103.9441913792
 20
239.0006204236
 40
26.3559810957
100
AcDbArc
 50
105.0057745999
 51
105.2681967038
  0
ARC
  5
28C
100
AcDbEntity
  8
0
100
AcDbCircle
 62
7
  6
CONTINUOUS
 10
-85.3406980896
 20
238.6101368051
 40
23.1982101479
100
AcDbArc
 50
72.035036101
 51
73.5230833594
  0
ARC
  5
28D
100
AcDbEntity
  8
0
100
AcDbCircle
 62
7
  6
CONTINUOUS
 10
-85.174465228
 20
239.0752315318
 40
22.704523624
100
AcDbArc
 50
61.8499126379
 51
72.0720730045
  0
ARC
  5
28E
100
AcDbEntity
  8
0
100
AcDbCircle
 62
7
  6
CONTINUOUS
 10
-85.0786188341
 20
239.2632149714
 40
22.4935575513
100
AcDbArc
 50
59.987669474
 51
61.8392699408
  0
ARC
  5
28F
100
AcDbEntity
  8
0
100
AcDbCircle
 62
7
  6
CONTINUOUS
 10
-73.0460649311
 20
230.1467163299
 40
20.8610111668
100
AcDbArc
 50
63.1197111725
 51
74.1782076748
  0
ARC
  5
290
100
AcDbEntity
  8
0
100
AcDbCircle
 62
7
  6
CONTINUOUS
 10
-69.8369397923
 20
228.5722144565
 40
20.8111861007
100
AcDbArc
 50
63.0770813999
 51
72.1007832665
  0
ARC
  5
291
100
AcDbEntity
  8
0
100
AcDbCircle
 62
7
  6
CONTINUOUS
 10
-72.9826314583
 20
230.3052657421
 40
20.6909530324
100
AcDbArc
 50
58.2227848194
 51
63.0779698638
  0
ARC
  5
292
100
AcDbEntity
  8
0
100
AcDbCircle
 62
7
  6
CONTINUOUS
 10
-31.6594308726
 20
197.6781133039
 40
32.6034817682
100
AcDbArc
 50
106.565353588
 51
109.6234276363
  0
ARC
  5
293
100
AcDbEntity
  8
0
100
AcDbCircle
 62
7
  6
CONTINUOUS
 10
-47.1198351923
 20
207.3195703479
 40
30.6598176512
100
AcDbArc
 50
105.0059613008
 51
105.4932236603
  0
ARC
  5
294
100
AcDbEntity
  8
0
100
AcDbCircle
 62
7
  6
CONTINUOUS
 10
-46.9399256123
 20
207.0889820199
 40
30.2303071504
100
AcDbArc
 50
105.0059613006
 51
105.4932236605
  0
ARC
  5
295
100
AcDbEntity
  8
0
100
AcDbCircle
 62
7
  6
CONTINUOUS
 10
-55.6772672768
 20
212.134380201
 40
30.2264822919
100
AcDbArc
 50
105.0059613008
 51
105.4932236603
  0
ARC
  5
296
100
AcDbEntity
  8
0
100
AcDbCircle
 62
7
  6
CONTINUOUS
 10
-55.4973576951
 20
211.9037918666
 40
29.7969717976
100
AcDbArc
 50
105.0059613005
 51
105.4932236604
  0
ARC
  5
297
100
AcDbEntity
  8
0
100
AcDbCircle
 62
7
  6
CONTINUOUS
 10
-44.2932188222
 20
214.1717814771
 40
22.0822813906
100
AcDbArc
 50
71.6918806096
 51
72.1653311842
  0
ARC
  5
298
100
AcDbEntity
  8
0
100
AcDbCircle
 62
7
  6
CONTINUOUS
 10
-62.7704961559
 20
189.4852902253
 40
21.6207577629
100
AcDbArc
 50
236.9054995497
 51
242.1125455439
  0
ARC
  5
299
100
AcDbEntity
  8
0
100
AcDbCircle
 62
7
  6
CONTINUOUS
 10
-64.2346993588
 20
216.9491900444
 40
29.7931469424
100
AcDbArc
 50
105.0059613008
 51
105.4932236602
  0
ARC
  5
29A
100
AcDbEntity
  8
0
100
AcDbCircle
 62
7
  6
CONTINUOUS
 10
-64.0547897793
 20
216.7186017183
 40
29.3636364396
100
AcDbArc
 50
105.0059613006
 51
105.4932236605
  0
ARC
  5
29B
100
AcDbEntity
  8
0
100
AcDbCircle
 62
7
  6
CONTINUOUS
 10
-44.1688011733
 20
214.5147840979
 40
21.7175607641
100
AcDbArc
 50
63.0762818118
 51
71.7192478676
  0
ARC
  5
29C
100
AcDbEntity
  8
0
100
AcDbCircle
 62
7
  6
CONTINUOUS
 10
-47.3146094587
 20
216.2472190465
 40
21.5979301889
100
AcDbArc
 50
58.3967165028
 51
63.0780116334
  0
ARC
  5
29D
100
AcDbEntity
  8
0
100
AcDbCircle
 62
7
  6
CONTINUOUS
 10
-52.7530764383
 20
219.1286785192
 40
21.4925679855
100
AcDbArc
 50
65.3475498819
 51
71.8310721711
  0
ARC
  5
29E
100
AcDbEntity
  8
0
100
AcDbCircle
 62
7
  6
CONTINUOUS
 10
-47.2356739497
 20
216.4028982238
 40
21.4233831971
100
AcDbArc
 50
63.0776392526
 51
63.4028767378
  0
ARC
  5
29F
100
AcDbEntity
  8
0
100
AcDbCircle
 62
7
  6
CONTINUOUS
 10
-52.6851644282
 20
219.2810953826
 40
21.325716311
100
AcDbArc
 50
65.1085746659
 51
65.3425716915
  0
ARC
  5
2A0
100
AcDbEntity
  8
0
100
AcDbCircle
 62
7
  6
CONTINUOUS
 10
-55.8706167967
 20
220.9332345901
 40
21.2956044916
100
AcDbArc
 50
58.3403738944
 51
63.0779981357
  0
ARC
  5
2A1
100
AcDbEntity
  8
0
100
AcDbCircle
 62
7
  6
CONTINUOUS
 10
-61.280889204
 20
223.8864168244
 40
21.1132978692
100
AcDbArc
 50
63.0768025021
 51
71.9699637962
  0
ARC
  5
2A2
100
AcDbEntity
  8
0
100
AcDbCircle
 62
7
  6
CONTINUOUS
 10
-64.42662413
 20
225.619250155
 40
20.993278773
100
AcDbArc
 50
58.2824196524
 51
63.0779842191
  0
ARC
  5
2A3
100
AcDbEntity
  8
0
100
AcDbCircle
 62
7
  6
CONTINUOUS
 10
15.5758958406
 20
162.0640194505
 40
74.2924386598
100
AcDbArc
 50
150.2852479167
 51
152.946067613
  0
ARC
  5
2A4
100
AcDbEntity
  8
0
100
AcDbCircle
 62
7
  6
CONTINUOUS
 10
11.2361824337
 20
165.7795950583
 40
68.5684602355
100
AcDbArc
 50
132.8387103499
 51
135.6477715933
  0
ARC
  5
2A5
100
AcDbEntity
  8
0
100
AcDbCircle
 62
7
  6
CONTINUOUS
 10
8.159651993
 20
164.4188212301
 40
66.4887150693
100
AcDbArc
 50
167.7712794256
 51
170.6339739162
  0
ARC
  5
2A6
100
AcDbEntity
  8
0
100
AcDbCircle
 62
7
  6
CONTINUOUS
 10
1.2330731439
 20
170.3492560279
 40
65.5988901586
100
AcDbArc
 50
143.4540677223
 51
153.894227807
  0
ARC
  5
2A7
100
AcDbEntity
  8
0
100
AcDbCircle
 62
7
  6
CONTINUOUS
 10
17.0231615874
 20
158.3070407214
 40
64.0598781651
100
AcDbArc
 50
171.7065350549
 51
172.7607074334
  0
ARC
  5
2A8
100
AcDbEntity
  8
0
100
AcDbCircle
 62
7
  6
CONTINUOUS
 10
2.80059526
 20
178.2636351759
 40
53.4330354164
100
AcDbArc
 50
113.1441169277
 51
116.4633385978
  0
ARC
  5
2A9
100
AcDbEntity
  8
0
100
AcDbCircle
 62
7
  6
CONTINUOUS
 10
-7.5152372666
 20
164.6978359225
 40
50.7353185445
100
AcDbArc
 50
187.5854297897
 51
191.0119650463
  0
ARC
  5
2AA
100
AcDbEntity
  8
0
100
AcDbCircle
 62
7
  6
CONTINUOUS
 10
-6.9033348757
 20
182.9226009012
 40
49.5507931672
100
AcDbArc
 50
4.1033103649
 51
5.9589059929
  0
ARC
  5
2AB
100
AcDbEntity
  8
0
100
AcDbCircle
 62
7
  6
CONTINUOUS
 10
-20.3473982075
 20
174.1970414709
 40
46.1005773628
100
AcDbArc
 50
291.3384112689
 51
293.9558116412
  0
ARC
  5
2AC
100
AcDbEntity
  8
0
100
AcDbCircle
 62
7
  6
CONTINUOUS
 10
-18.9659919268
 20
170.3026079846
 40
41.9665147357
100
AcDbArc
 50
285.015997808
 51
287.2819430723
  0
ARC
  5
2AD
100
AcDbEntity
  8
0
100
AcDbCircle
 62
7
  6
CONTINUOUS
 10
-22.9527490283
 20
184.3186023516
 40
40.9034828066
100
AcDbArc
 50
320.0428756656
 51
339.9340098396
  0
ARC
  5
2AE
100
AcDbEntity
  8
0
100
AcDbCircle
 62
7
  6
CONTINUOUS
 10
-20.1764446353
 20
160.1226241006
 40
37.1761049083
100
AcDbArc
 50
211.8480368757
 51
216.0651523153
  0
ARC
  5
2AF
100
AcDbEntity
  8
0
100
AcDbCircle
 62
7
  6
CONTINUOUS
 10
-21.3751134818
 20
183.407696233
 40
36.2325463065
100
AcDbArc
 50
329.8090476086
 51
330.3831470657
  0
ARC
  5
2B0
100
AcDbEntity
  8
0
100
AcDbCircle
 62
7
  6
CONTINUOUS
 10
-21.3173278624
 20
183.3753760083
 40
36.1663378267
100
AcDbArc
 50
330.3824184154
 51
332.612823837
  0
ARC
  5
2B1
100
AcDbEntity
  8
0
100
AcDbCircle
 62
7
  6
CONTINUOUS
 10
-20.9491057423
 20
183.188783072
 40
35.7535538867
100
AcDbArc
 50
332.6068892696
 51
340.4983230875
  0
ARC
  5
2B2
100
AcDbEntity
  8
0
100
AcDbCircle
 62
7
  6
CONTINUOUS
 10
-20.9177298869
 20
183.1121548383
 40
35.6885910533
100
AcDbArc
 50
319.4516993608
 51
329.8498928265
  0
ARC
  5
2B3
100
AcDbEntity
  8
0
100
AcDbCircle
 62
7
  6
CONTINUOUS
 10
-20.7051461092
 20
183.0010051667
 40
34.843160729
100
AcDbArc
 50
322.8100242397
 51
326.7437542325
  0
ARC
  5
2B4
100
AcDbEntity
  8
0
100
AcDbCircle
 62
7
  6
CONTINUOUS
 10
-20.6089764028
 20
182.993310833
 40
34.7557344996
100
AcDbArc
 50
333.2031069156
 51
337.6171724684
  0
ARC
  5
2B5
100
AcDbEntity
  8
0
100
AcDbCircle
 62
7
  6
CONTINUOUS
 10
0.9780784694
 20
182.2270988205
 40
34.1335808247
100
AcDbArc
 50
15.6088385621
 51
20.9311057075
  0
ARC
  5
2B6
100
AcDbEntity
  8
0
100
AcDbCircle
 62
7
  6
CONTINUOUS
 10
-0.3188871355
 20
183.3321012573
 40
33.7211364462
100
AcDbArc
 50
15.5762662892
 51
20.9636779803
  0
ARC
  5
2B7
100
AcDbEntity
  8
0
100
AcDbCircle
 62
7
  6
CONTINUOUS
 10
-12.1958844402
 20
150.6789524108
 40
32.7503490845
100
AcDbArc
 50
234.4576620926
 51
234.8385444907
  0
ARC
  5
2B8
100
AcDbEntity
  8
0
100
AcDbCircle
 62
7
  6
CONTINUOUS
 10
-12.2288738353
 20
150.6320898101
 40
32.6930393713
100
AcDbArc
 50
234.838513913
 51
239.9870897726
  0
ARC
  5
2B9
100
AcDbEntity
  8
0
100
AcDbCircle
 62
7
  6
CONTINUOUS
 10
-18.6370980354
 20
157.4780067955
 40
28.9161434135
100
AcDbArc
 50
235.9105454054
 51
236.4965601457
  0
ARC
  5
2BA
100
AcDbEntity
  8
0
100
AcDbCircle
 62
7
  6
CONTINUOUS
 10
-14.2222086401
 20
159.5316355236
 40
24.1544360389
100
AcDbArc
 50
230.559646241
 51
231.9900169135
  0
ARC
  5
2BB
100
AcDbEntity
  8
0
100
AcDbCircle
 62
7
  6
CONTINUOUS
 10
-14.2765089501
 20
159.4622438229
 40
24.0663240132
100
AcDbArc
 50
231.9901409001
 51
233.3833762281
  0
ARC
  5
2BC
100
AcDbEntity
  8
0
100
AcDbCircle
 62
7
  6
CONTINUOUS
 10
-14.3761763412
 20
159.3260434208
 40
23.8975561574
100
AcDbArc
 50
233.3804025111
 51
239.9823992421
  0
ARC
  5
2BD
100
AcDbEntity
  8
0
100
AcDbCircle
 62
7
  6
CONTINUOUS
 10
-16.8259434494
 20
160.6162461206
 40
23.7895410994
100
AcDbArc
 50
238.5891968036
 51
239.9905065094
  0
ARC
  5
2BE
100
AcDbEntity
  8
0
100
AcDbCircle
 62
7
  6
CONTINUOUS
 10
-7.9883566967
 20
136.6177188366
 40
6.4345996899
100
AcDbArc
 50
240.0400687511
 51
253.5926281029
  0
ARC
  5
2BF
100
AcDbEntity
  8
0
100
AcDbCircle
 62
7
  6
CONTINUOUS
 10
14.0090569178
 20
149.8313871875
 40
4.1759257692
100
AcDbArc
 50
177.0567912257
 51
179.9897961295
  0
ARC
  5
2C0
100
AcDbEntity
  8
0
100
AcDbCircle
 62
7
  6
CONTINUOUS
 10
44.1743472119
 20
157.9173586375
 40
4.1759257692
100
AcDbArc
 50
177.0567912257
 51
179.9897961295
  0
ARC
  5
2C1
100
AcDbEntity
  8
0
100
AcDbCircle
 62
7
  6
CONTINUOUS
 10
29.091310765
 20
170.6522397141
 40
4.1755344666
100
AcDbArc
 50
177.0566540279
 51
179.9900104062
  0
ARC
  5
2C2
100
AcDbEntity
  8
0
100
AcDbCircle
 62
7
  6
CONTINUOUS
 10
-0.648214765
 20
192.2874973526
 40
38.8936950996
100
AcDbArc
 50
89.0576202625
 51
93.15934483
  0
ARC
  5
2C3
100
AcDbEntity
  8
0
100
AcDbCircle
 62
7
  6
CONTINUOUS
 10
0.3272155494
 20
198.3694160673
 40
32.6893789634
100
AcDbArc
 50
60.5050423134
 51
65.1040971329
  0
ARC
  5
2C4
100
AcDbEntity
  8
0
100
AcDbCircle
 62
7
  6
CONTINUOUS
 10
0.0219309241
 20
194.1555509482
 40
32.0428234633
100
AcDbArc
 50
39.5380015813
 51
42.8228602719
  0
ARC
  5
2C5
100
AcDbEntity
  8
0
100
AcDbCircle
 62
7
  6
CONTINUOUS
 10
0.771387389
 20
194.8823306399
 40
30.998752209
100
AcDbArc
 50
43.9566504166
 51
49.4032909892
  0
ARC
  5
2C6
100
AcDbEntity
  8
0
100
AcDbCircle
 62
7
  6
CONTINUOUS
 10
2.4429082619
 20
193.9726557182
 40
28.9385003832
100
AcDbArc
 50
63.4709571112
 51
63.733735408
  0
ARC
  5
2C7
100
AcDbEntity
  8
0
100
AcDbCircle
 62
7
  6
CONTINUOUS
 10
2.9898680871
 20
189.3952533816
 40
23.878674584
100
AcDbArc
 50
59.9948898145
 51
66.572752872
  0
SPLINE
  5
2C8
100
AcDbEntity
  8
0
100
AcDbSpline
 62
7
  6
CONTINUOUS
 70
0
 71
3
 72
11
 73
7
 74
0
 42
0.0000001
 43
0.0000001
 44
0.0000000001
 40
0.0
 40
0.0
 40
0.0
 40
0.0
 40
0.2468326768
 40
0.493938097
 40
0.7441505234
 40
1.0
 40
1.0
 40
1.0
 40
1.0
 10
-92.455612582
 20
261.1726575506
 30
0.0
 10
-93.2588279582
 20
261.8148798267
 30
0.0
 10
-94.9759995325
 20
262.9694157912
 30
0.0
 10
-97.8145637594
 20
264.2506980925
 30
0.0
 10
-100.8611283466
 20
265.0570352216
 30
0.0
 10
-102.9690849964
 20
265.2668271567
 30
0.0
 10
-104.0347231003
 20
265.293279572
 30
0.0
  0
SPLINE
  5
2C9
100
AcDbEntity
  8
0
100
AcDbSpline
 62
7
  6
CONTINUOUS
 70
0
 71
3
 72
18
 73
14
 74
0
 42
0.0000001
 43
0.0000001
 44
0.0000000001
 40
0.0
 40
0.0
 40
0.0
 40
0.0
 40
0.0553626541
 40
0.1124120856
 40
0.1713045161
 40
0.2320638608
 40
0.3584666956
 40
0.4898004602
 40
0.6228876387
 40
0.7541736556
 40
0.8182106704
 40
0.8806884798
 40
1.0
 40
1.0
 40
1.0
 40
1.0
 10
-133.6086398169
 20
214.0871706456
 30
0.0
 10
-134.2100136902
 20
215.0720660622
 30
0.0
 10
-135.2751245014
 20
217.1709301173
 30
0.0
 10
-136.4160588264
 20
220.5659793187
 30
0.0
 10
-137.1098693534
 20
224.1943053483
 30
0.0
 10
-137.4331639355
 20
229.3241194196
 30
0.0
 10
-136.661200631
 20
235.9792695329
 30
0.0
 10
-134.0329203086
 20
243.7475148292
 30
0.0
 10
-129.8721501159
 20
250.9305531523
 30
0.0
 10
-125.3020052913
 20
256.0969127257
 30
0.0
 10
-121.1374188147
 20
259.5093972862
 30
0.0
 10
-116.8333053037
 20
262.3009063556
 30
0.0
 10
-113.295966438
 20
263.8004824357
 30
0.0
 10
-110.8938395634
 20
264.4443857145
 30
0.0
  0
SPLINE
  5
2CA
100
AcDbEntity
  8
0
100
AcDbSpline
 62
7
  6
CONTINUOUS
 70
0
 71
3
 72
11
 73
7
 74
0
 42
0.0000001
 43
0.0000001
 44
0.0000000001
 40
0.0
 40
0.0
 40
0.0
 40
0.0
 40
0.2468336846
 40
0.4939398873
 40
0.7441500691
 40
1.0
 40
1.0
 40
1.0
 40
1.0
 10
-124.2535975793
 20
206.1176461539
 30
0.0
 10
-125.2112031282
 20
206.4923814663
 30
0.0
 10
-127.069201843
 20
207.4027630461
 30
0.0
 10
-129.5973528116
 20
209.2209720432
 30
0.0
 10
-131.8181460153
 20
211.4566229947
 30
0.0
 10
-133.0531911458
 20
213.1774825715
 30
0.0
 10
-133.6086441937
 20
214.0871907175
 30
0.0
  0
SPLINE
  5
2CB
100
AcDbEntity
  8
0
100
AcDbSpline
 62
7
  6
CONTINUOUS
 70
0
 71
3
 72
18
 73
14
 74
0
 42
0.0000001
 43
0.0000001
 44
0.0000000001
 40
0.0
 40
0.0
 40
0.0
 40
0.0
 40
0.0544852174
 40
0.1109085442
 40
0.1694181363
 40
0.2300121557
 40
0.3565953416
 40
0.4885422887
 40
0.622399298
 40
0.7543474849
 40
0.8185863877
 40
0.8811289901
 40
1.0
 40
1.0
 40
1.0
 40
1.0
 10
-133.6086441937
 20
214.0871907175
 30
0.0
 10
-134.1993857751
 20
215.054693607
 30
0.0
 10
-135.2472328738
 20
217.1222933525
 30
0.0
 10
-136.3704645876
 20
220.4748191033
 30
0.0
 10
-137.05483397
 20
224.0730532467
 30
0.0
 10
-137.3725902955
 20
229.186013817
 30
0.0
 10
-136.5963447896
 20
235.8411475287
 30
0.0
 10
-133.9652067977
 20
243.6264231604
 30
0.0
 10
-129.8008024502
 20
250.8384946602
 30
0.0
 10
-125.2297366305
 20
256.0320059534
 30
0.0
 10
-121.06908216
 20
259.4640100074
 30
0.0
 10
-116.7865800244
 20
262.2644688809
 30
0.0
 10
-113.2705963806
 20
263.7750573045
 30
0.0
 10
-110.8847124582
 20
264.4263339174
 30
0.0
  0
SPLINE
  5
2CC
100
AcDbEntity
  8
0
100
AcDbSpline
 62
7
  6
CONTINUOUS
 70
0
 71
3
 72
9
 73
5
 74
0
 42
0.0000001
 43
0.0000001
 44
0.0000000001
 40
0.0
 40
0.0
 40
0.0
 40
0.0
 40
0.4914287471
 40
1.0
 40
1.0
 40
1.0
 40
1.0
 10
-104.0347231003
 20
265.293279572
 30
0.0
 10
-105.1487040313
 20
265.320932005
 30
0.0
 10
-107.4225929537
 20
265.2005922244
 30
0.0
 10
-109.654315726
 20
264.7564349109
 30
0.0
 10
-110.7681870011
 20
264.4578556086
 30
0.0
  0
SPLINE
  5
2CD
100
AcDbEntity
  8
0
100
AcDbSpline
 62
7
  6
CONTINUOUS
 70
0
 71
3
 72
9
 73
5
 74
0
 42
0.0000001
 43
0.0000001
 44
0.0000000001
 40
0.0
 40
0.0
 40
0.0
 40
0.0
 40
0.2557631717
 40
1.0
 40
1.0
 40
1.0
 40
1.0
 10
-112.7628334369
 20
250.3621244746
 30
0.0
 10
-112.297745627
 20
250.7477409136
 30
0.0
 10
-110.4378609283
 20
252.2042823142
 30
0.0
 10
-108.4103303097
 20
253.4504107194
 30
0.0
 10
-106.8304030455
 20
254.2214235262
 30
0.0
  0
SPLINE
  5
2CE
100
AcDbEntity
  8
0
100
AcDbSpline
 62
7
  6
CONTINUOUS
 70
0
 71
3
 72
11
 73
7
 74
0
 42
0.0000001
 43
0.0000001
 44
0.0000000001
 40
0.0
 40
0.0
 40
0.0
 40
0.0
 40
0.2427652596
 40
0.4939746385
 40
0.7483153327
 40
1.0
 40
1.0
 40
1.0
 40
1.0
 10
-125.4453751858
 20
225.4315314404
 30
0.0
 10
-125.3414554853
 20
227.5049405745
 30
0.0
 10
-124.6887630359
 20
231.7105596276
 30
0.0
 10
-122.545139116
 20
237.7751026451
 30
0.0
 10
-119.3317904184
 20
243.4341556256
 30
0.0
 10
-116.5485077108
 20
246.7839683365
 30
0.0
 10
-115.0242837422
 20
248.3035331698
 30
0.0
  0
SPLINE
  5
2CF
100
AcDbEntity
  8
0
100
AcDbSpline
 62
7
  6
CONTINUOUS
 70
0
 71
3
 72
11
 73
7
 74
0
 42
0.0000001
 43
0.0000001
 44
0.0000000001
 40
0.0
 40
0.0
 40
0.0
 40
0.0
 40
0.255600251
 40
0.5065294212
 40
0.7541082362
 40
1.0
 40
1.0
 40
1.0
 40
1.0
 10
-14.4154225745
 20
135.355226621
 30
0.0
 10
-15.4783778415
 20
135.3829716341
 30
0.0
 10
-17.5840105422
 20
135.5596466501
 30
0.0
 10
-20.6629307093
 20
136.2006298988
 30
0.0
 10
-23.599291282
 20
137.209362405
 30
0.0
 10
-25.4455118706
 20
138.122215689
 30
0.0
 10
-26.3313114511
 20
138.6338242358
 30
0.0
  0
SPLINE
  5
2D0
100
AcDbEntity
  8
0
100
AcDbSpline
 62
7
  6
CONTINUOUS
 70
0
 71
3
 72
11
 73
7
 74
0
 42
0.0000001
 43
0.0000001
 44
0.0000000001
 40
0.0
 40
0.0
 40
0.0
 40
0.0
 40
0.2718909339
 40
0.5287913621
 40
0.7705049159
 40
1.0
 40
1.0
 40
1.0
 40
1.0
 10
-2.0193420866
 20
132.3082256698
 30
0.0
 10
-2.6170016061
 20
131.8535898446
 30
0.0
 10
-3.8635219563
 20
131.0721612038
 30
0.0
 10
-5.874817929
 20
130.3278483207
 30
0.0
 10
-7.8901251077
 20
130.0796552504
 30
0.0
 10
-9.1979753247
 20
130.2657970527
 30
0.0
 10
-9.8059051489
 20
130.4451512353
 30
0.0
  0
SPLINE
  5
2D1
100
AcDbEntity
  8
0
100
AcDbSpline
 62
7
  6
CONTINUOUS
 70
0
 71
3
 72
9
 73
5
 74
0
 42
0.0000001
 43
0.0000001
 44
0.0000000001
 40
0.0
 40
0.0
 40
0.0
 40
0.0
 40
0.5089743822
 40
1.0
 40
1.0
 40
1.0
 40
1.0
 10
-42.1838509572
 20
166.5975771605
 30
0.0
 10
-42.1838509572
 20
164.9289353775
 30
0.0
 10
-41.9894380444
 20
161.6469168353
 30
0.0
 10
-41.3734498051
 20
158.4153615059
 30
0.0
 10
-40.9609342537
 20
156.8593152296
 30
0.0
  0
SPLINE
  5
2D2
100
AcDbEntity
  8
0
100
AcDbSpline
 62
7
  6
CONTINUOUS
 70
0
 71
3
 72
9
 73
5
 74
0
 42
0.0000001
 43
0.0000001
 44
0.0000000001
 40
0.0
 40
0.0
 40
0.0
 40
0.0
 40
0.510065273
 40
1.0
 40
1.0
 40
1.0
 40
1.0
 10
-16.3652402189
 20
135.5391165137
 30
0.0
 10
-16.0654219675
 20
134.8874787676
 30
0.0
 10
-15.2988975327
 20
133.6808772
 30
0.0
 10
-14.1912071989
 20
132.7695776417
 30
0.0
 10
-13.5945745282
 20
132.4249899377
 30
0.0
  0
SPLINE
  5
2D3
100
AcDbEntity
  8
0
100
AcDbSpline
 62
7
  6
CONTINUOUS
 70
0
 71
3
 72
14
 73
10
 74
0
 42
0.0000001
 43
0.0000001
 44
0.0000000001
 40
0.0
 40
0.0
 40
0.0
 40
0.0
 40
0.1134263
 40
0.2283425284
 40
0.3460765635
 40
0.4676667426
 40
0.5937892473
 40
0.7247372238
 40
1.0
 40
1.0
 40
1.0
 40
1.0
 10
12.5382340458
 20
211.4557739621
 30
0.0
 10
11.3101900561
 20
212.1651113358
 30
0.0
 10
8.7036826185
 20
213.3733833745
 30
0.0
 10
4.4985131491
 20
214.4780886819
 30
0.0
 10
0.0655619043
 20
214.8637225892
 30
0.0
 10
-4.5092713019
 20
214.5261762748
 30
0.0
 10
-9.1431110055
 20
213.4751165038
 30
0.0
 10
-15.383799455
 20
211.1171501984
 30
0.0
 10
-19.7527675508
 20
208.4001613111
 30
0.0
 10
-22.4599652247
 20
206.2750619884
 30
0.0
  0
SPLINE
  5
2D4
100
AcDbEntity
  8
0
100
AcDbSpline
 62
7
  6
CONTINUOUS
 70
0
 71
3
 72
9
 73
5
 74
0
 42
0.0000001
 43
0.0000001
 44
0.0000000001
 40
0.0
 40
0.0
 40
0.0
 40
0.0
 40
0.2537641579
 40
1.0
 40
1.0
 40
1.0
 40
1.0
 10
-41.6065992668
 20
173.7014501073
 30
0.0
 10
-41.7021208194
 20
173.1058241877
 30
0.0
 10
-42.0337934559
 20
170.7517882643
 30
0.0
 10
-42.1838509572
 20
168.3714955273
 30
0.0
 10
-42.1838509572
 20
166.5975771605
 30
0.0
  0
SPLINE
  5
2D5
100
AcDbEntity
  8
0
100
AcDbSpline
 62
7
  6
CONTINUOUS
 70
0
 71
3
 72
11
 73
7
 74
0
 42
0.0000001
 43
0.0000001
 44
0.0000000001
 40
0.0
 40
0.0
 40
0.0
 40
0.0
 40
0.2417482088
 40
0.4870452352
 40
0.7390076863
 40
1.0
 40
1.0
 40
1.0
 40
1.0
 10
14.9310497306
 20
210.0737272335
 30
0.0
 10
16.2313541306
 20
209.3226515318
 30
0.0
 10
18.7131069636
 20
207.5556006079
 30
0.0
 10
21.9078661925
 20
204.2248529249
 30
0.0
 10
24.5237190913
 20
200.2803162925
 30
0.0
 10
25.8224626209
 20
197.3530553312
 30
0.0
 10
26.3653986274
 20
195.8255035848
 30
0.0
  0
SPLINE
  5
2D6
100
AcDbEntity
  8
0
100
AcDbSpline
 62
7
  6
CONTINUOUS
 70
0
 71
3
 72
11
 73
7
 74
0
 42
0.0000001
 43
0.0000001
 44
0.0000000001
 40
0.0
 40
0.0
 40
0.0
 40
0.0
 40
0.2402635983
 40
0.4847591487
 40
0.7371790955
 40
1.0
 40
1.0
 40
1.0
 40
1.0
 10
-11.2017587109
 20
131.0429434453
 30
0.0
 10
-11.583599329
 20
131.2634775667
 30
0.0
 10
-12.3093693956
 20
131.7910196606
 30
0.0
 10
-13.2239217918
 20
132.7998775396
 30
0.0
 10
-13.9466029543
 20
134.0017114315
 30
0.0
 10
-14.2822317241
 20
134.8916304359
 30
0.0
 10
-14.4154225745
 20
135.355226621
 30
0.0
  0
SPLINE
  5
2D7
100
AcDbEntity
  8
0
100
AcDbSpline
 62
7
  6
CONTINUOUS
 70
0
 71
3
 72
19
 73
15
 74
0
 42
0.0000001
 43
0.0000001
 44
0.0000000001
 40
0.0
 40
0.0
 40
0.0
 40
0.0
 40
0.129060812
 40
0.2635666226
 40
0.3318225364
 40
0.4000144072
 40
0.5340241296
 40
0.5991234054
 40
0.6624032366
 40
0.7824077676
 40
0.8393115889
 40
0.8942763939
 40
0.947667852
 40
1.0
 40
1.0
 40
1.0
 40
1.0
 10
-39.7910349147
 20
165.215531053
 30
0.0
 10
-39.7910349147
 20
168.6777778085
 30
0.0
 10
-38.9213047479
 20
175.7656611541
 30
0.0
 10
-35.9714484412
 20
184.2317648819
 30
0.0
 10
-32.5715310125
 20
190.6690659194
 30
0.0
 10
-28.5485551695
 20
196.7180208908
 30
0.0
 10
-23.680844264
 20
202.0680405944
 30
0.0
 10
-18.1480384656
 20
206.4411357865
 30
0.0
 10
-12.4767224149
 20
209.9572606889
 30
0.0
 10
-6.4017359931
 20
212.3564065338
 30
0.0
 10
-0.2441759436
 20
213.3641603113
 30
0.0
 10
4.2078016084
 20
213.4133706976
 30
0.0
 10
8.4882542145
 20
212.763845331
 30
0.0
 10
11.1955332133
 20
211.8637561235
 30
0.0
 10
12.4836538685
 20
211.3055051242
 30
0.0
  0
SPLINE
  5
2D8
100
AcDbEntity
  8
0
100
AcDbSpline
 62
7
  6
CONTINUOUS
 70
0
 71
3
 72
9
 73
5
 74
0
 42
0.0000001
 43
0.0000001
 44
0.0000000001
 40
0.0
 40
0.0
 40
0.0
 40
0.0
 40
0.2450035496
 40
1.0
 40
1.0
 40
1.0
 40
1.0
 10
-39.0582584552
 20
157.59151096
 30
0.0
 10
-39.1808041221
 20
158.2054837378
 30
0.0
 10
-39.615368598
 20
160.7243033338
 30
0.0
 10
-39.7910349147
 20
163.2862100401
 30
0.0
 10
-39.7910349147
 20
165.215531053
 30
0.0
  0
SPLINE
  5
2D9
100
AcDbEntity
  8
0
100
AcDbSpline
 62
7
  6
CONTINUOUS
 70
0
 71
3
 72
12
 73
8
 74
0
 42
0.0000001
 43
0.0000001
 44
0.0000000001
 40
0.0
 40
0.0
 40
0.0
 40
0.0
 40
0.2455303526
 40
0.3707432669
 40
0.4970939076
 40
0.7500518225
 40
1.0
 40
1.0
 40
1.0
 40
1.0
 10
7.9033099673
 20
163.7657297541
 30
0.0
 10
8.2530672204
 20
163.837550984
 30
0.0
 10
8.7641229151
 20
164.0554719819
 30
0.0
 10
9.3342909122
 20
164.5032518229
 30
0.0
 10
9.8312048986
 20
165.0473008246
 30
0.0
 10
10.2784065496
 20
165.8636898884
 30
0.0
 10
10.4111600352
 20
166.5993760691
 30
0.0
 10
10.4111638745
 20
166.9628557726
 30
0.0
  0
SPLINE
  5
2DA
100
AcDbEntity
  8
0
100
AcDbSpline
 62
7
  6
CONTINUOUS
 70
0
 71
3
 72
9
 73
5
 74
0
 42
0.0000001
 43
0.0000001
 44
0.0000000001
 40
0.0
 40
0.0
 40
0.0
 40
0.0
 40
0.251759016
 40
1.0
 40
1.0
 40
1.0
 40
1.0
 10
10.4111638745
 20
166.9629198491
 30
0.0
 10
10.4111630656
 20
167.0395480804
 30
0.0
 10
10.3996406109
 20
167.3437648157
 30
0.0
 10
10.3403965419
 20
167.6465349331
 30
0.0
 10
10.2684693395
 20
167.8626215018
 30
0.0
  0
SPLINE
  5
2DB
100
AcDbEntity
  8
0
100
AcDbSpline
 62
7
  6
CONTINUOUS
 70
0
 71
3
 72
15
 73
11
 74
0
 42
0.0000001
 43
0.0000001
 44
0.0000000001
 40
0.0
 40
0.0
 40
0.0
 40
0.0
 40
0.1218787779
 40
0.2441250914
 40
0.3673128624
 40
0.4921569326
 40
0.6188495743
 40
0.7466370564
 40
0.8740848839
 40
1.0
 40
1.0
 40
1.0
 40
1.0
 10
25.4393032314
 20
133.8162938549
 30
0.0
 10
25.8001632488
 20
133.6078678107
 30
0.0
 10
26.5956671306
 20
133.3045474846
 30
0.0
 10
27.868556402
 20
133.23962631
 30
0.0
 10
29.1141652595
 20
133.546945179
 30
0.0
 10
30.2446299249
 20
134.1789944301
 30
0.0
 10
31.1988934317
 20
135.0749617663
 30
0.0
 10
31.9290669549
 20
136.1712219541
 30
0.0
 10
32.3947961883
 20
137.3998644906
 30
0.0
 10
32.5061696012
 20
138.2692931068
 30
0.0
 10
32.5061696035
 20
138.6998210934
 30
0.0
  0
SPLINE
  5
2DC
100
AcDbEntity
  8
0
100
AcDbSpline
 62
7
  6
CONTINUOUS
 70
0
 71
3
 72
11
 73
7
 74
0
 42
0.0000001
 43
0.0000001
 44
0.0000000001
 40
0.0
 40
0.0
 40
0.0
 40
0.0
 40
0.2528090347
 40
0.5029848853
 40
0.7517590068
 40
1.0
 40
1.0
 40
1.0
 40
1.0
 10
32.5061696026
 20
138.699915451
 30
0.0
 10
32.5061625183
 20
139.0788384691
 30
0.0
 10
32.4207998732
 20
139.8361273798
 30
0.0
 10
32.0206280658
 20
140.9023892621
 30
0.0
 10
31.3580760594
 20
141.8220509037
 30
0.0
 10
30.7629996197
 20
142.289587044
 30
0.0
 10
30.4408044284
 20
142.4756810028
 30
0.0
  0
SPLINE
  5
2DD
100
AcDbEntity
  8
0
100
AcDbSpline
 62
7
  6
CONTINUOUS
 70
0
 71
3
 72
15
 73
11
 74
0
 42
0.0000001
 43
0.0000001
 44
0.0000000001
 40
0.0
 40
0.0
 40
0.0
 40
0.0
 40
0.1218843407
 40
0.2441378806
 40
0.3673325177
 40
0.4921751371
 40
0.6188647789
 40
0.7466447581
 40
0.8740986475
 40
1.0
 40
1.0
 40
1.0
 40
1.0
 10
26.2209611208
 20
168.0753523002
 30
0.0
 10
26.5096601367
 20
167.9086051103
 30
0.0
 10
27.1460836421
 20
167.6659181973
 30
0.0
 10
28.1644481167
 20
167.6139892482
 30
0.0
 10
29.1609520862
 20
167.8598904512
 30
0.0
 10
30.0653085282
 20
168.3655579296
 30
0.0
 10
30.8286515758
 20
169.0823362631
 30
0.0
 10
31.4128230073
 20
169.9593006433
 30
0.0
 10
31.7853161981
 20
170.9421979746
 30
0.0
 10
31.8744466722
 20
171.6377036792
 30
0.0
 10
31.8744542175
 20
171.9820858266
 30
0.0
  0
SPLINE
  5
2DE
100
AcDbEntity
  8
0
100
AcDbSpline
 62
7
  6
CONTINUOUS
 70
0
 71
3
 72
11
 73
7
 74
0
 42
0.0000001
 43
0.0000001
 44
0.0000000001
 40
0.0
 40
0.0
 40
0.0
 40
0.0
 40
0.2527865822
 40
0.5029718305
 40
0.7517443476
 40
1.0
 40
1.0
 40
1.0
 40
1.0
 10
31.8744542185
 20
171.9821741011
 30
0.0
 10
31.8744542156
 20
172.2852928928
 30
0.0
 10
31.8061688017
 20
172.8911193298
 30
0.0
 10
31.4861042169
 20
173.7441618597
 30
0.0
 10
30.9560314608
 20
174.479936751
 30
0.0
 10
30.4799396602
 20
174.8539744746
 30
0.0
 10
30.2221620784
 20
175.0028620185
 30
0.0
  0
SPLINE
  5
2DF
100
AcDbEntity
  8
0
100
AcDbSpline
 62
7
  6
CONTINUOUS
 70
0
 71
3
 72
15
 73
11
 74
0
 42
0.0000001
 43
0.0000001
 44
0.0000000001
 40
0.0
 40
0.0
 40
0.0
 40
0.0
 40
0.1218843415
 40
0.2441378876
 40
0.3673325445
 40
0.4921752023
 40
0.6188648863
 40
0.7466448798
 40
0.8740987396
 40
1.0
 40
1.0
 40
1.0
 40
1.0
 10
41.3036062678
 20
155.3404813301
 30
0.0
 10
41.5923068247
 20
155.1737332501
 30
0.0
 10
42.2287340843
 20
154.9310455358
 30
0.0
 10
43.2471043389
 20
154.8791188386
 30
0.0
 10
44.2436129625
 20
155.1250252314
 30
0.0
 10
45.1479720897
 20
155.630699961
 30
0.0
 10
45.911315346
 20
156.3474867119
 30
0.0
 10
46.4954841462
 20
157.2244597946
 30
0.0
 10
46.8679713989
 20
158.2073651655
 30
0.0
 10
46.9570956075
 20
158.9028752459
 30
0.0
 10
46.9570993652
 20
159.2472589772
 30
0.0
  0
SPLINE
  5
2E0
100
AcDbEntity
  8
0
100
AcDbSpline
 62
7
  6
CONTINUOUS
 70
0
 71
3
 72
11
 73
7
 74
0
 42
0.0000001
 43
0.0000001
 44
0.0000000001
 40
0.0
 40
0.0
 40
0.0
 40
0.0
 40
0.2527864989
 40
0.502971739
 40
0.7517442939
 40
1.0
 40
1.0
 40
1.0
 40
1.0
 10
46.9570993652
 20
159.2473472492
 30
0.0
 10
46.9570960585
 20
159.5504622524
 30
0.0
 10
46.8888054294
 20
160.1562804129
 30
0.0
 10
46.56873819
 20
161.0093098318
 30
0.0
 10
46.0386682834
 20
161.7450730002
 30
0.0
 10
45.5625817261
 20
162.1191052841
 30
0.0
 10
45.3048072254
 20
162.2679910484
 30
0.0
  0
SPLINE
  5
2E1
100
AcDbEntity
  8
0
100
AcDbSpline
 62
7
  6
CONTINUOUS
 70
0
 71
3
 72
15
 73
11
 74
0
 42
0.0000001
 43
0.0000001
 44
0.0000000001
 40
0.0
 40
0.0
 40
0.0
 40
0.0
 40
0.1218843415
 40
0.2441378876
 40
0.3673325445
 40
0.4921752023
 40
0.6188648863
 40
0.7466448798
 40
0.8740987396
 40
1.0
 40
1.0
 40
1.0
 40
1.0
 10
11.1383159738
 20
147.2545098801
 30
0.0
 10
11.4270165306
 20
147.0877618002
 30
0.0
 10
12.0634437903
 20
146.8450740858
 30
0.0
 10
13.0818140448
 20
146.7931473886
 30
0.0
 10
14.0783226684
 20
147.0390537815
 30
0.0
 10
14.9826817956
 20
147.5447285111
 30
0.0
 10
15.746025052
 20
148.261515262
 30
0.0
 10
16.3301938521
 20
149.1384883447
 30
0.0
 10
16.7026811048
 20
150.1213937156
 30
0.0
 10
16.7918053134
 20
150.816903796
 30
0.0
 10
16.7918090712
 20
151.1612875273
 30
0.0
  0
SPLINE
  5
2E2
100
AcDbEntity
  8
0
100
AcDbSpline
 62
7
  6
CONTINUOUS
 70
0
 71
3
 72
11
 73
7
 74
0
 42
0.0000001
 43
0.0000001
 44
0.0000000001
 40
0.0
 40
0.0
 40
0.0
 40
0.0
 40
0.2527864989
 40
0.502971739
 40
0.7517442939
 40
1.0
 40
1.0
 40
1.0
 40
1.0
 10
16.7918090712
 20
151.1613757992
 30
0.0
 10
16.7918057644
 20
151.4644908024
 30
0.0
 10
16.7235151354
 20
152.0703089629
 30
0.0
 10
16.4034478959
 20
152.9233383819
 30
0.0
 10
15.8733779893
 20
153.6591015502
 30
0.0
 10
15.397291432
 20
154.0331338342
 30
0.0
 10
15.1395169314
 20
154.1820195984
 30
0.0
  0
SPLINE
  5
2E3
100
AcDbEntity
  8
0
100
AcDbSpline
 62
7
  6
CONTINUOUS
 70
0
 71
3
 72
13
 73
9
 74
0
 42
0.0000001
 43
0.0000001
 44
0.0000000001
 40
0.0
 40
0.0
 40
0.0
 40
0.0
 40
0.267340792
 40
0.5378086596
 40
0.665288418
 40
0.7840750397
 40
0.894602479
 40
1.0
 40
1.0
 40
1.0
 40
1.0
 10
9.8386395319
 20
150.0458046697
 30
0.0
 10
9.8743172182
 20
150.7419650561
 30
0.0
 10
10.2868614625
 20
152.1331557107
 30
0.0
 10
11.4146495399
 20
153.5187755941
 30
0.0
 10
12.5703696734
 20
154.2338318097
 30
0.0
 10
13.4709352752
 20
154.5114275096
 30
0.0
 10
14.3580467581
 20
154.5131263616
 30
0.0
 10
14.9015260566
 20
154.3194419029
 30
0.0
 10
15.1394984871
 20
154.1819876656
 30
0.0
  0
SPLINE
  5
2E4
100
AcDbEntity
  8
0
100
AcDbSpline
 62
7
  6
CONTINUOUS
 70
0
 71
3
 72
16
 73
12
 74
0
 42
0.0000001
 43
0.0000001
 44
0.0000000001
 40
0.0
 40
0.0
 40
0.0
 40
0.0
 40
0.1354384165
 40
0.2765857241
 40
0.4146532204
 40
0.5421411487
 40
0.6567812486
 40
0.7112026221
 40
0.7651596643
 40
0.8765807001
 40
1.0
 40
1.0
 40
1.0
 40
1.0
 10
12.6120549126
 20
149.6248231717
 30
0.0
 10
12.6120576332
 20
149.8741902209
 30
0.0
 10
12.7050414294
 20
150.3856928156
 30
0.0
 10
13.0618979268
 20
151.0720515126
 30
0.0
 10
13.5922403134
 20
151.6172688382
 30
0.0
 10
14.2275392062
 20
151.9444670956
 30
0.0
 10
14.793284103
 20
151.9831094784
 30
0.0
 10
15.1879418601
 20
151.8549153538
 30
0.0
 10
15.531973438
 20
151.6335080994
 30
0.0
 10
15.8466156108
 20
151.1773630004
 30
0.0
 10
15.917837671
 20
150.7381946729
 30
0.0
 10
15.9178401503
 20
150.5109570292
 30
0.0
  0
SPLINE
  5
2E5
100
AcDbEntity
  8
0
100
AcDbSpline
 62
7
  6
CONTINUOUS
 70
0
 71
3
 72
16
 73
12
 74
0
 42
0.0000001
 43
0.0000001
 44
0.0000000001
 40
0.0
 40
0.0
 40
0.0
 40
0.0
 40
0.1354384165
 40
0.2765857241
 40
0.4146532204
 40
0.5421411487
 40
0.6567812486
 40
0.7112026221
 40
0.7651596643
 40
0.8765807001
 40
1.0
 40
1.0
 40
1.0
 40
1.0
 10
15.9178401503
 20
150.5109570292
 30
0.0
 10
15.9178374296
 20
150.26158998
 30
0.0
 10
15.8248536334
 20
149.7500873853
 30
0.0
 10
15.467997136
 20
149.0637286884
 30
0.0
 10
14.9376547494
 20
148.5185113628
 30
0.0
 10
14.3023558566
 20
148.1913131053
 30
0.0
 10
13.7366109598
 20
148.1526707225
 30
0.0
 10
13.3419532028
 20
148.2808648471
 30
0.0
 10
12.9979216248
 20
148.5022721015
 30
0.0
 10
12.6832794521
 20
148.9584172005
 30
0.0
 10
12.6120573918
 20
149.3975855281
 30
0.0
 10
12.6120549126
 20
149.6248231717
 30
0.0
  0
SPLINE
  5
2E6
100
AcDbEntity
  8
0
100
AcDbSpline
 62
7
  6
CONTINUOUS
 70
0
 71
3
 72
13
 73
9
 74
0
 42
0.0000001
 43
0.0000001
 44
0.0000000001
 40
0.0
 40
0.0
 40
0.0
 40
0.0
 40
0.267340792
 40
0.5378086596
 40
0.665288418
 40
0.7840750397
 40
0.894602479
 40
1.0
 40
1.0
 40
1.0
 40
1.0
 10
40.0039298259
 20
158.1317761196
 30
0.0
 10
40.0396075123
 20
158.827936506
 30
0.0
 10
40.4521517566
 20
160.2191271607
 30
0.0
 10
41.579939834
 20
161.604747044
 30
0.0
 10
42.7356599675
 20
162.3198032596
 30
0.0
 10
43.6362255693
 20
162.5973989595
 30
0.0
 10
44.5233370521
 20
162.5990978115
 30
0.0
 10
45.0668163507
 20
162.4054133528
 30
0.0
 10
45.3047887811
 20
162.2679591155
 30
0.0
  0
SPLINE
  5
2E7
100
AcDbEntity
  8
0
100
AcDbSpline
 62
7
  6
CONTINUOUS
 70
0
 71
3
 72
16
 73
12
 74
0
 42
0.0000001
 43
0.0000001
 44
0.0000000001
 40
0.0
 40
0.0
 40
0.0
 40
0.0
 40
0.1354384165
 40
0.2765857241
 40
0.4146532204
 40
0.5421411487
 40
0.6567812486
 40
0.7112026221
 40
0.7651596643
 40
0.8765807001
 40
1.0
 40
1.0
 40
1.0
 40
1.0
 10
42.7773452066
 20
157.7107946216
 30
0.0
 10
42.7773479273
 20
157.9601616709
 30
0.0
 10
42.8703317235
 20
158.4716642656
 30
0.0
 10
43.2271882209
 20
159.1580229625
 30
0.0
 10
43.7575306075
 20
159.7032402881
 30
0.0
 10
44.3928295003
 20
160.0304385456
 30
0.0
 10
44.9585743971
 20
160.0690809283
 30
0.0
 10
45.3532321541
 20
159.9408868038
 30
0.0
 10
45.6972637321
 20
159.7194795493
 30
0.0
 10
46.0119059048
 20
159.2633344503
 30
0.0
 10
46.0831279651
 20
158.8241661228
 30
0.0
 10
46.0831304443
 20
158.5969284792
 30
0.0
  0
SPLINE
  5
2E8
100
AcDbEntity
  8
0
100
AcDbSpline
 62
7
  6
CONTINUOUS
 70
0
 71
3
 72
16
 73
12
 74
0
 42
0.0000001
 43
0.0000001
 44
0.0000000001
 40
0.0
 40
0.0
 40
0.0
 40
0.0
 40
0.1354384165
 40
0.2765857241
 40
0.4146532204
 40
0.5421411487
 40
0.6567812486
 40
0.7112026221
 40
0.7651596643
 40
0.8765807001
 40
1.0
 40
1.0
 40
1.0
 40
1.0
 10
46.0831304443
 20
158.5969284792
 30
0.0
 10
46.0831277237
 20
158.3475614299
 30
0.0
 10
45.9901439275
 20
157.8360588352
 30
0.0
 10
45.6332874301
 20
157.1497001383
 30
0.0
 10
45.1029450435
 20
156.6044828127
 30
0.0
 10
44.4676461507
 20
156.2772845552
 30
0.0
 10
43.9019012539
 20
156.2386421725
 30
0.0
 10
43.5072434968
 20
156.366836297
 30
0.0
 10
43.1632119189
 20
156.5882435515
 30
0.0
 10
42.8485697461
 20
157.0443886505
 30
0.0
 10
42.7773476859
 20
157.483556978
 30
0.0
 10
42.7773452066
 20
157.7107946216
 30
0.0
  0
SPLINE
  5
2E9
100
AcDbEntity
  8
0
100
AcDbSpline
 62
7
  6
CONTINUOUS
 70
0
 71
3
 72
13
 73
9
 74
0
 42
0.0000001
 43
0.0000001
 44
0.0000000001
 40
0.0
 40
0.0
 40
0.0
 40
0.0
 40
0.267340792
 40
0.5378086596
 40
0.665288418
 40
0.7840750397
 40
0.894602479
 40
1.0
 40
1.0
 40
1.0
 40
1.0
 10
24.9212846789
 20
170.8666470898
 30
0.0
 10
24.9569623653
 20
171.5628074762
 30
0.0
 10
25.3695066095
 20
172.9539981308
 30
0.0
 10
26.497294687
 20
174.3396180142
 30
0.0
 10
27.6530148205
 20
175.0546742297
 30
0.0
 10
28.5535804223
 20
175.3322699297
 30
0.0
 10
29.4406919051
 20
175.3339687817
 30
0.0
 10
29.9841712036
 20
175.140284323
 30
0.0
 10
30.2221436341
 20
175.0028300857
 30
0.0
  0
SPLINE
  5
2EA
100
AcDbEntity
  8
0
100
AcDbSpline
 62
7
  6
CONTINUOUS
 70
0
 71
3
 72
16
 73
12
 74
0
 42
0.0000001
 43
0.0000001
 44
0.0000000001
 40
0.0
 40
0.0
 40
0.0
 40
0.0
 40
0.1354381161
 40
0.276585228
 40
0.4146527952
 40
0.5421407238
 40
0.6567806368
 40
0.7112019221
 40
0.7651589502
 40
0.8765802629
 40
1.0
 40
1.0
 40
1.0
 40
1.0
 10
27.6946940295
 20
170.4456174892
 30
0.0
 10
27.6946967502
 20
170.694988208
 30
0.0
 10
27.7876733733
 20
171.2064991693
 30
0.0
 10
28.144527052
 20
171.8928741077
 30
0.0
 10
28.6748744763
 20
172.4381045314
 30
0.0
 10
29.3101830661
 20
172.7653107714
 30
0.0
 10
29.8759379339
 20
172.8039521227
 30
0.0
 10
30.2706006228
 20
172.6757517327
 30
0.0
 10
30.6146353074
 20
172.4543355253
 30
0.0
 10
30.9292733168
 20
171.998173766
 30
0.0
 10
31.0004888743
 20
171.5589968831
 30
0.0
 10
31.0004913536
 20
171.3317545866
 30
0.0
  0
SPLINE
  5
2EB
100
AcDbEntity
  8
0
100
AcDbSpline
 62
7
  6
CONTINUOUS
 70
0
 71
3
 72
16
 73
12
 74
0
 42
0.0000001
 43
0.0000001
 44
0.0000000001
 40
0.0
 40
0.0
 40
0.0
 40
0.0
 40
0.1354387169
 40
0.2765862202
 40
0.4146536456
 40
0.5421415735
 40
0.6567818605
 40
0.7112033221
 40
0.7651603784
 40
0.8765811374
 40
1.0
 40
1.0
 40
1.0
 40
1.0
 10
31.0004913536
 20
171.3317545866
 30
0.0
 10
31.0004886331
 20
171.0823893834
 30
0.0
 10
30.9074969829
 20
170.5708914153
 30
0.0
 10
30.5506350582
 20
169.8845439409
 30
0.0
 10
30.0202938313
 20
169.3393357266
 30
0.0
 10
29.38499999
 20
169.012143059
 30
0.0
 10
28.8192609274
 20
168.9734993622
 30
0.0
 10
28.4246052163
 20
169.1016881588
 30
0.0
 10
28.0805742295
 20
169.3230880795
 30
0.0
 10
27.7659255936
 20
169.7792198537
 30
0.0
 10
27.6946965085
 20
170.2183828369
 30
0.0
 10
27.6946940295
 20
170.4456174892
 30
0.0
  0
SPLINE
  5
2EC
100
AcDbEntity
  8
0
100
AcDbSpline
 62
7
  6
CONTINUOUS
 70
0
 71
3
 72
14
 73
10
 74
0
 42
0.0000001
 43
0.0000001
 44
0.0000000001
 40
0.0
 40
0.0
 40
0.0
 40
0.0
 40
0.2647976029
 40
0.4023483306
 40
0.5369910441
 40
0.6649910742
 40
0.78414558
 40
0.8947568416
 40
1.0
 40
1.0
 40
1.0
 40
1.0
 10
23.8078222828
 20
137.0383201072
 30
0.0
 10
23.8078222825
 20
137.9259262514
 30
0.0
 10
24.159375189
 20
139.2896210865
 30
0.0
 10
25.1155481559
 20
140.8226815403
 30
0.0
 10
26.0549220153
 20
141.7967311179
 30
0.0
 10
27.1383978441
 20
142.5003130653
 30
0.0
 10
28.292554325
 20
142.8802106427
 30
0.0
 10
29.4347249914
 20
142.8977813214
 30
0.0
 10
30.1353320474
 20
142.652141072
 30
0.0
 10
30.4407930388
 20
142.4756612866
 30
0.0
  0
SPLINE
  5
2ED
100
AcDbEntity
  8
0
100
AcDbSpline
 62
7
  6
CONTINUOUS
 70
0
 71
3
 72
17
 73
13
 74
0
 42
0.0000001
 43
0.0000001
 44
0.0000000001
 40
0.0
 40
0.0
 40
0.0
 40
0.0
 40
0.1353296316
 40
0.2763635605
 40
0.4143201579
 40
0.5417056844
 40
0.6562537024
 40
0.7106313627
 40
0.7645450661
 40
0.8194781663
 40
0.8766798344
 40
1.0
 40
1.0
 40
1.0
 40
1.0
 10
27.2814696597
 20
136.7791835273
 30
0.0
 10
27.2814725657
 20
137.0908934387
 30
0.0
 10
27.3977033874
 20
137.7302733261
 30
0.0
 10
27.8437758327
 20
138.588227398
 30
0.0
 10
28.506703924
 20
139.2697420448
 30
0.0
 10
29.300838001
 20
139.6787724694
 30
0.0
 10
30.0080004073
 20
139.7269898246
 30
0.0
 10
30.5013646389
 20
139.5669097176
 30
0.0
 10
30.8208520627
 20
139.3607333036
 30
0.0
 10
31.0813635942
 20
139.0750852684
 30
0.0
 10
31.3428204856
 20
138.5952976464
 30
0.0
 10
31.413713049
 20
138.1709027827
 30
0.0
 10
31.4137156972
 20
137.8868547334
 30
0.0
  0
SPLINE
  5
2EE
100
AcDbEntity
  8
0
100
AcDbSpline
 62
7
  6
CONTINUOUS
 70
0
 71
3
 72
17
 73
13
 74
0
 42
0.0000001
 43
0.0000001
 44
0.0000000001
 40
0.0
 40
0.0
 40
0.0
 40
0.0
 40
0.1353296316
 40
0.2763635605
 40
0.4143201579
 40
0.5417056844
 40
0.6562537024
 40
0.7106313627
 40
0.7645450661
 40
0.8194781663
 40
0.8766798344
 40
1.0
 40
1.0
 40
1.0
 40
1.0
 10
31.4137156972
 20
137.8868547334
 30
0.0
 10
31.4137127912
 20
137.575144822
 30
0.0
 10
31.2974819695
 20
136.9357649346
 30
0.0
 10
30.8514095242
 20
136.0778108627
 30
0.0
 10
30.1884814329
 20
135.3962962158
 30
0.0
 10
29.3943473559
 20
134.9872657912
 30
0.0
 10
28.6871849496
 20
134.939048436
 30
0.0
 10
28.193820718
 20
135.0991285431
 30
0.0
 10
27.8743332942
 20
135.305304957
 30
0.0
 10
27.6138217626
 20
135.5909529922
 30
0.0
 10
27.3523648713
 20
136.0707406142
 30
0.0
 10
27.2814723079
 20
136.4951354779
 30
0.0
 10
27.2814696597
 20
136.7791835273
 30
0.0
  0
SPLINE
  5
2EF
100
AcDbEntity
  8
0
100
AcDbSpline
 62
7
  6
CONTINUOUS
 70
0
 71
3
 72
11
 73
7
 74
0
 42
0.0000001
 43
0.0000001
 44
0.0000000001
 40
0.0
 40
0.0
 40
0.0
 40
0.0
 40
0.2323315327
 40
0.4730626424
 40
0.7282530826
 40
1.0
 40
1.0
 40
1.0
 40
1.0
 10
41.3036247121
 20
155.3405132629
 30
0.0
 10
41.1011973469
 20
155.4574364672
 30
0.0
 10
40.7236487621
 20
155.7611603841
 30
0.0
 10
40.3062076161
 20
156.3746837984
 30
0.0
 10
40.0516640697
 20
157.1122379517
 30
0.0
 10
39.9984230003
 20
157.6446742585
 30
0.0
 10
39.9984215089
 20
157.9181023328
 30
0.0
  0
SPLINE
  5
2F0
100
AcDbEntity
  8
0
100
AcDbSpline
 62
7
  6
CONTINUOUS
 70
0
 71
3
 72
12
 73
8
 74
0
 42
0.0000001
 43
0.0000001
 44
0.0000000001
 40
0.0
 40
0.0
 40
0.0
 40
0.0
 40
0.2526845231
 40
0.3844059588
 40
0.5162884047
 40
0.7699570875
 40
1.0
 40
1.0
 40
1.0
 40
1.0
 10
9.7556871838
 20
166.4751068402
 30
0.0
 10
9.7556850413
 20
166.2722113241
 30
0.0
 10
9.6943806533
 20
165.9612716255
 30
0.0
 10
9.5192801601
 20
165.5843637143
 30
0.0
 10
9.2855673835
 20
165.2390514675
 30
0.0
 10
8.9136551022
 20
164.8995652141
 30
0.0
 10
8.538547032
 20
164.7548427737
 30
0.0
 10
8.3552001421
 20
164.7324011199
 30
0.0
  0
SPLINE
  5
2F1
100
AcDbEntity
  8
0
100
AcDbSpline
 62
7
  6
CONTINUOUS
 70
0
 71
3
 72
9
 73
5
 74
0
 42
0.0000001
 43
0.0000001
 44
0.0000000001
 40
0.0
 40
0.0
 40
0.0
 40
0.0
 40
0.2414795665
 40
1.0
 40
1.0
 40
1.0
 40
1.0
 10
9.6748027958
 20
166.9433973982
 30
0.0
 10
9.6883122022
 20
166.9074835388
 30
0.0
 10
9.7366941282
 20
166.7559505349
 30
0.0
 10
9.7556859111
 20
166.5956344195
 30
0.0
 10
9.7556871838
 20
166.4751068402
 30
0.0
  0
SPLINE
  5
2F2
100
AcDbEntity
  8
0
100
AcDbSpline
 62
7
  6
CONTINUOUS
 70
0
 71
3
 72
11
 73
7
 74
0
 42
0.0000001
 43
0.0000001
 44
0.0000000001
 40
0.0
 40
0.0
 40
0.0
 40
0.0
 40
0.2323373532
 40
0.4730873242
 40
0.7282419714
 40
1.0
 40
1.0
 40
1.0
 40
1.0
 10
25.439314621
 20
133.8163135711
 30
0.0
 10
25.1862883397
 20
133.9624992547
 30
0.0
 10
24.714280823
 20
134.3421167869
 30
0.0
 10
24.1925621233
 20
135.1090783584
 30
0.0
 10
23.8743306992
 20
136.0309905814
 30
0.0
 10
23.807823876
 20
136.6965190945
 30
0.0
 10
23.8078222828
 20
137.0383201072
 30
0.0
  0
SPLINE
  5
2F3
100
AcDbEntity
  8
0
100
AcDbSpline
 62
7
  6
CONTINUOUS
 70
0
 71
3
 72
11
 73
7
 74
0
 42
0.0000001
 43
0.0000001
 44
0.0000000001
 40
0.0
 40
0.0
 40
0.0
 40
0.0
 40
0.2323315327
 40
0.4730626424
 40
0.7282530826
 40
1.0
 40
1.0
 40
1.0
 40
1.0
 10
11.138334418
 20
147.254541813
 30
0.0
 10
10.9359070528
 20
147.3714650173
 30
0.0
 10
10.5583584681
 20
147.6751889342
 30
0.0
 10
10.140917322
 20
148.2887123485
 30
0.0
 10
9.8863737757
 20
149.0262665018
 30
0.0
 10
9.8331327063
 20
149.5587028086
 30
0.0
 10
9.8331312149
 20
149.8321308829
 30
0.0
  0
SPLINE
  5
2F4
100
AcDbEntity
  8
0
100
AcDbSpline
 62
7
  6
CONTINUOUS
 70
0
 71
3
 72
11
 73
7
 74
0
 42
0.0000001
 43
0.0000001
 44
0.0000000001
 40
0.0
 40
0.0
 40
0.0
 40
0.0
 40
0.2323357138
 40
0.4730655825
 40
0.7282647945
 40
1.0
 40
1.0
 40
1.0
 40
1.0
 10
26.220980548
 20
168.0753859376
 30
0.0
 10
26.0185430885
 20
168.1922983503
 30
0.0
 10
25.6410161432
 20
168.4960547797
 30
0.0
 10
25.2235486433
 20
169.1095655398
 30
0.0
 10
24.96903056
 20
169.8471247788
 30
0.0
 10
24.9157780397
 20
170.3795524436
 30
0.0
 10
24.9157763619
 20
170.652967724
 30
0.0
  0
SPLINE
  5
2F5
100
AcDbEntity
  8
0
100
AcDbSpline
 62
7
  6
CONTINUOUS
 70
0
 71
3
 72
9
 73
5
 74
0
 42
0.0000001
 43
0.0000001
 44
0.0000000001
 40
0.0
 40
0.0
 40
0.0
 40
0.0
 40
0.4948040214
 40
1.0
 40
1.0
 40
1.0
 40
1.0
 10
-49.0040795217
 20
137.5516724242
 30
0.0
 10
-47.1576026488
 20
136.4578947038
 30
0.0
 10
-43.6637999086
 20
133.8197793273
 30
0.0
 10
-40.8321182014
 20
130.4862057367
 30
0.0
 10
-39.5890060659
 20
128.6817681409
 30
0.0
  0
SPLINE
  5
2F6
100
AcDbEntity
  8
0
100
AcDbSpline
 62
7
  6
CONTINUOUS
 70
0
 71
3
 72
13
 73
9
 74
0
 42
0.0000001
 43
0.0000001
 44
0.0000000001
 40
0.0
 40
0.0
 40
0.0
 40
0.0
 40
0.1159428434
 40
0.2329698293
 40
0.3520803311
 40
0.4741181271
 40
0.7288171809
 40
1.0
 40
1.0
 40
1.0
 40
1.0
 10
27.9351202622
 20
220.173723915
 30
0.0
 10
29.3485645664
 20
219.3573338304
 30
0.0
 10
32.0693187546
 20
217.4997959813
 30
0.0
 10
35.7142687648
 20
214.1157117411
 30
0.0
 10
38.885928653
 20
210.1730656653
 30
0.0
 10
42.4769701465
 20
204.1642113211
 30
0.0
 10
45.5424674653
 20
195.4661186295
 30
0.0
 10
46.3387889026
 20
188.0399564911
 30
0.0
 10
46.3690469383
 20
184.2222935848
 30
0.0
  0
SPLINE
  5
2F7
100
AcDbEntity
  8
0
100
AcDbSpline
 62
7
  6
CONTINUOUS
 70
0
 71
3
 72
9
 73
5
 74
0
 42
0.0000001
 43
0.0000001
 44
0.0000000001
 40
0.0
 40
0.0
 40
0.0
 40
0.0
 40
0.4967069186
 40
1.0
 40
1.0
 40
1.0
 40
1.0
 10
25.6844565209
 20
216.2770200878
 30
0.0
 10
24.1280084197
 20
217.1759298982
 30
0.0
 10
20.8244740117
 20
218.7058396489
 30
0.0
 10
17.3033359093
 20
219.6252036832
 30
0.0
 10
15.5087012061
 20
219.9351977084
 30
0.0
  0
SPLINE
  5
2F8
100
AcDbEntity
  8
0
100
AcDbSpline
 62
7
  6
CONTINUOUS
 70
0
 71
3
 72
11
 73
7
 74
0
 42
0.0000001
 43
0.0000001
 44
0.0000000001
 40
0.0
 40
0.0
 40
0.0
 40
0.0
 40
0.2320066599
 40
0.4751946672
 40
0.7312495288
 40
1.0
 40
1.0
 40
1.0
 40
1.0
 10
15.5087012061
 20
219.9351977084
 30
0.0
 10
12.9798661046
 20
220.3720129391
 30
0.0
 10
7.6779767289
 20
220.6481268532
 30
0.0
 10
-0.3553372568
 20
219.3226429607
 30
0.0
 10
-8.359070993
 20
216.3387742199
 30
0.0
 10
-13.3900649717
 20
213.3803761149
 30
0.0
 10
-15.8273011749
 20
211.6783406974
 30
0.0
  0
SPLINE
  5
2F9
100
AcDbEntity
  8
0
100
AcDbSpline
 62
7
  6
CONTINUOUS
 70
0
 71
3
 72
11
 73
7
 74
0
 42
0.0000001
 43
0.0000001
 44
0.0000000001
 40
0.0
 40
0.0
 40
0.0
 40
0.0
 40
0.1890231353
 40
0.4228977667
 40
0.6971093672
 40
1.0
 40
1.0
 40
1.0
 40
1.0
 10
22.7295590557
 20
223.0301863074
 30
0.0
 10
21.888182998
 20
223.3831407336
 30
0.0
 10
19.9525611876
 20
224.0453253494
 30
0.0
 10
16.6878103185
 20
224.8686614444
 30
0.0
 10
12.8407805912
 20
225.6023133664
 30
0.0
 10
10.0830606444
 20
226.0016792572
 30
0.0
 10
8.6325560823
 20
226.1850094424
 30
0.0
  0
SPLINE
  5
2FA
100
AcDbEntity
  8
0
100
AcDbSpline
 62
7
  6
CONTINUOUS
 70
0
 71
3
 72
9
 73
5
 74
0
 42
0.0000001
 43
0.0000001
 44
0.0000000001
 40
0.0
 40
0.0
 40
0.0
 40
0.0
 40
0.5073621935
 40
1.0
 40
1.0
 40
1.0
 40
1.0
 10
14.0884944983
 20
228.0211057106
 30
0.0
 10
11.6282406169
 20
227.9986885958
 30
0.0
 10
6.7549144397
 20
228.4796971384
 30
0.0
 10
2.1287402526
 20
230.1086208533
 30
0.0
 10
-0.0085345313
 20
231.175931722
 30
0.0
  0
SPLINE
  5
2FB
100
AcDbEntity
  8
0
100
AcDbSpline
 62
7
  6
CONTINUOUS
 70
0
 71
3
 72
9
 73
5
 74
0
 42
0.0000001
 43
0.0000001
 44
0.0000000001
 40
0.0
 40
0.0
 40
0.0
 40
0.0
 40
0.5129438648
 40
1.0
 40
1.0
 40
1.0
 40
1.0
 10
-2.7917641812
 20
231.1220787769
 30
0.0
 10
-5.2737192453
 20
229.9999076157
 30
0.0
 10
-10.3144494933
 20
228.2253697379
 30
0.0
 10
-15.6157517343
 20
227.4727193988
 30
0.0
 10
-18.2010054809
 20
227.3963334544
 30
0.0
  0
SPLINE
  5
2FC
100
AcDbEntity
  8
0
100
AcDbSpline
 62
7
  6
CONTINUOUS
 70
0
 71
3
 72
9
 73
5
 74
0
 42
0.0000001
 43
0.0000001
 44
0.0000000001
 40
0.0
 40
0.0
 40
0.0
 40
0.0
 40
0.5099774275
 40
1.0
 40
1.0
 40
1.0
 40
1.0
 10
-21.0105058046
 20
226.0979402288
 30
0.0
 10
-23.1673463021
 20
224.0266149447
 30
0.0
 10
-27.7037597328
 20
220.2707518607
 30
0.0
 10
-32.7877713114
 20
217.2857091013
 30
0.0
 10
-35.3860420717
 20
216.0588345239
 30
0.0
  0
SPLINE
  5
2FD
100
AcDbEntity
  8
0
100
AcDbSpline
 62
7
  6
CONTINUOUS
 70
0
 71
3
 72
9
 73
5
 74
0
 42
0.0000001
 43
0.0000001
 44
0.0000000001
 40
0.0
 40
0.0
 40
0.0
 40
0.0
 40
0.5031260078
 40
1.0
 40
1.0
 40
1.0
 40
1.0
 10
-37.794092113
 20
213.7135696164
 30
0.0
 10
-39.2951804839
 20
210.9791804843
 30
0.0
 10
-42.668538716
 20
205.7494585253
 30
0.0
 10
-46.7556062242
 20
201.0541759736
 30
0.0
 10
-48.9473782654
 20
198.8894663678
 30
0.0
  0
SPLINE
  5
2FE
100
AcDbEntity
  8
0
100
AcDbSpline
 62
7
  6
CONTINUOUS
 70
0
 71
3
 72
9
 73
5
 74
0
 42
0.0000001
 43
0.0000001
 44
0.0000000001
 40
0.0
 40
0.0
 40
0.0
 40
0.0
 40
0.4954409473
 40
1.0
 40
1.0
 40
1.0
 40
1.0
 10
-50.5873742346
 20
195.8543751008
 30
0.0
 10
-51.1807922211
 20
192.8595220412
 30
0.0
 10
-52.848958207
 20
186.9003516676
 30
0.0
 10
-55.3605550198
 20
181.2473471989
 30
0.0
 10
-56.8204235604
 20
178.5021096473
 30
0.0
  0
SPLINE
  5
2FF
100
AcDbEntity
  8
0
100
AcDbSpline
 62
7
  6
CONTINUOUS
 70
0
 71
3
 72
9
 73
5
 74
0
 42
0.0000001
 43
0.0000001
 44
0.0000000001
 40
0.0
 40
0.0
 40
0.0
 40
0.0
 40
0.4890275693
 40
1.0
 40
1.0
 40
1.0
 40
1.0
 10
-57.4426909378
 20
175.2392571529
 30
0.0
 10
-57.0108446785
 20
172.4520038101
 30
0.0
 10
-56.6620758671
 20
166.661123473
 30
0.0
 10
-57.2752956357
 20
160.8993489249
 30
0.0
 10
-57.8065781798
 20
158.0005546111
 30
0.0
  0
SPLINE
  5
300
100
AcDbEntity
  8
0
100
AcDbSpline
 62
7
  6
CONTINUOUS
 70
0
 71
3
 72
9
 73
5
 74
0
 42
0.0000001
 43
0.0000001
 44
0.0000000001
 40
0.0
 40
0.0
 40
0.0
 40
0.0
 40
0.2458139618
 40
1.0
 40
1.0
 40
1.0
 40
1.0
 10
-57.316382398
 20
155.0066806038
 30
0.0
 10
-56.9732529136
 20
154.4853440521
 30
0.0
 10
-55.6376274977
 20
152.325180806
 30
0.0
 10
-54.5454685061
 20
150.0164835378
 30
0.0
 10
-53.8598404266
 20
148.2285544908
 30
0.0
  0
SPLINE
  5
301
100
AcDbEntity
  8
0
100
AcDbSpline
 62
7
  6
CONTINUOUS
 70
0
 71
3
 72
9
 73
5
 74
0
 42
0.0000001
 43
0.0000001
 44
0.0000000001
 40
0.0
 40
0.0
 40
0.0
 40
0.0
 40
0.2452870847
 40
1.0
 40
1.0
 40
1.0
 40
1.0
 10
-53.8598404266
 20
148.2285544908
 30
0.0
 10
-53.6253067411
 20
147.616955285
 30
0.0
 10
-52.7336374043
 20
145.0990970757
 30
0.0
 10
-52.0984964545
 20
142.4920339209
 30
0.0
 10
-51.7557090223
 20
140.5059771666
 30
0.0
  0
SPLINE
  5
302
100
AcDbEntity
  8
0
100
AcDbSpline
 62
7
  6
CONTINUOUS
 70
0
 71
3
 72
10
 73
6
 74
0
 42
0.0000001
 43
0.0000001
 44
0.0000000001
 40
0.0
 40
0.0
 40
0.0
 40
0.0
 40
0.2006395232
 40
0.4393919296
 40
1.0
 40
1.0
 40
1.0
 40
1.0
 10
5.8492990682
 20
226.1311547154
 30
0.0
 10
4.8217865514
 20
225.8695820022
 30
0.0
 10
2.5712589747
 20
225.2979706606
 30
0.0
 10
-2.5605984787
 20
224.0366100786
 30
0.0
 10
-6.6752932286
 20
223.0804305073
 30
0.0
 10
-9.5599143849
 20
222.4054202324
 30
0.0
  0
SPLINE
  5
303
100
AcDbEntity
  8
0
100
AcDbSpline
 62
7
  6
CONTINUOUS
 70
0
 71
3
 72
9
 73
5
 74
0
 42
0.0000001
 43
0.0000001
 44
0.0000000001
 40
0.0
 40
0.0
 40
0.0
 40
0.0
 40
0.5397228683
 40
1.0
 40
1.0
 40
1.0
 40
1.0
 10
-48.8016194978
 20
170.2483218536
 30
0.0
 10
-48.6864534321
 20
167.1464535201
 30
0.0
 10
-48.5765843413
 20
161.3928885423
 30
0.0
 10
-48.8982850892
 20
155.6432362206
 30
0.0
 10
-49.1655104219
 20
153.009654592
 30
0.0
  0
SPLINE
  5
304
100
AcDbEntity
  8
0
100
AcDbSpline
 62
7
  6
CONTINUOUS
 70
0
 71
3
 72
10
 73
6
 74
0
 42
0.0000001
 43
0.0000001
 44
0.0000000001
 40
0.0
 40
0.0
 40
0.0
 40
0.0
 40
0.5650505775
 40
0.8026439606
 40
1.0
 40
1.0
 40
1.0
 40
1.0
 10
-48.6753069612
 20
150.0157462739
 30
0.0
 10
-47.6516361928
 20
147.2755456519
 30
0.0
 10
-46.1713947664
 20
143.3929173804
 30
0.0
 10
-44.3134674117
 20
138.5610117861
 30
0.0
 10
-43.4944416115
 20
136.4635350324
 30
0.0
 10
-43.1146488209
 20
135.515072092
 30
0.0
  0
SPLINE
  5
305
100
AcDbEntity
  8
0
100
AcDbSpline
 62
7
  6
CONTINUOUS
 70
0
 71
3
 72
11
 73
7
 74
0
 42
0.0000001
 43
0.0000001
 44
0.0000000001
 40
0.0
 40
0.0
 40
0.0
 40
0.0
 40
0.3015576854
 40
0.5748651025
 40
0.8090355233
 40
1.0
 40
1.0
 40
1.0
 40
1.0
 10
-41.5865987712
 20
133.2459403719
 30
0.0
 10
-40.6473968461
 20
132.1780333714
 30
0.0
 10
-38.8130247465
 20
130.1801832352
 30
0.0
 10
-36.0820731395
 20
127.5120097212
 30
0.0
 10
-33.5648316394
 20
125.3827819837
 30
0.0
 10
-31.9075564863
 20
124.2436276608
 30
0.0
 10
-31.127707289
 20
123.793177496
 30
0.0
  0
SPLINE
  5
306
100
AcDbEntity
  8
0
100
AcDbSpline
 62
7
  6
CONTINUOUS
 70
0
 71
3
 72
9
 73
5
 74
0
 42
0.0000001
 43
0.0000001
 44
0.0000000001
 40
0.0
 40
0.0
 40
0.0
 40
0.0
 40
0.269730327
 40
1.0
 40
1.0
 40
1.0
 40
1.0
 10
-18.8580379687
 20
216.1526606784
 30
0.0
 10
-18.256140076
 20
216.5729939756
 30
0.0
 10
-16.0408179056
 20
218.1543080275
 30
0.0
 10
-13.892792704
 20
219.8302145939
 30
0.0
 10
-12.3694969598
 20
221.1070006418
 30
0.0
  0
SPLINE
  5
307
100
AcDbEntity
  8
0
100
AcDbSpline
 62
7
  6
CONTINUOUS
 70
0
 71
3
 72
9
 73
5
 74
0
 42
0.0000001
 43
0.0000001
 44
0.0000000001
 40
0.0
 40
0.0
 40
0.0
 40
0.0
 40
0.2544339452
 40
1.0
 40
1.0
 40
1.0
 40
1.0
 10
-26.7449105133
 20
211.0680066684
 30
0.0
 10
-26.0634549753
 20
211.4792541996
 30
0.0
 10
-23.3943743974
 20
213.110604664
 30
0.0
 10
-20.7702259923
 20
214.81729083
 30
0.0
 10
-18.8580379677
 20
216.1526606778
 30
0.0
  0
SPLINE
  5
308
100
AcDbEntity
  8
0
100
AcDbSpline
 62
7
  6
CONTINUOUS
 70
0
 71
3
 72
10
 73
6
 74
0
 42
0.0000001
 43
0.0000001
 44
0.0000000001
 40
0.0
 40
0.0
 40
0.0
 40
0.0
 40
0.5142972394
 40
0.7648227346
 40
1.0
 40
1.0
 40
1.0
 40
1.0
 10
-41.9463066824
 20
190.8634403388
 30
0.0
 10
-42.739730741
 20
187.7991907761
 30
0.0
 10
-44.0911340265
 20
183.2807310736
 30
0.0
 10
-46.3239474648
 20
177.5426935697
 30
0.0
 10
-47.5531513935
 20
174.8161716018
 30
0.0
 10
-48.1793477749
 20
173.5112112318
 30
0.0
  0
SPLINE
  5
309
100
AcDbEntity
  8
0
100
AcDbSpline
 62
7
  6
CONTINUOUS
 70
0
 71
3
 72
11
 73
7
 74
0
 42
0.0000001
 43
0.0000001
 44
0.0000000001
 40
0.0
 40
0.0
 40
0.0
 40
0.0
 40
0.2385760757
 40
0.4902588632
 40
0.747020033
 40
1.0
 40
1.0
 40
1.0
 40
1.0
 10
-29.1530272694
 20
208.7226373786
 30
0.0
 10
-29.9155222883
 20
207.4568781576
 30
0.0
 10
-31.5434169376
 20
204.8918828814
 30
0.0
 10
-34.226320081
 20
201.1195069756
 30
0.0
 10
-37.1650049483
 20
197.4282120269
 30
0.0
 10
-39.2495261647
 20
195.0554601803
 30
0.0
 10
-40.3062952156
 20
193.8985660951
 30
0.0
  0
SPLINE
  5
30A
100
AcDbEntity
  8
0
100
AcDbSpline
 62
7
  6
CONTINUOUS
 70
0
 71
3
 72
13
 73
9
 74
0
 42
0.0000001
 43
0.0000001
 44
0.0000000001
 40
0.0
 40
0.0
 40
0.0
 40
0.0
 40
0.2711785336
 40
0.5258723634
 40
0.6479101055
 40
0.7670223883
 40
0.8840527611
 40
1.0
 40
1.0
 40
1.0
 40
1.0
 10
11.7542290294
 20
124.3109342311
 30
0.0
 10
8.4332142633
 20
122.4313503532
 30
0.0
 10
1.6049709142
 20
119.4139042788
 30
0.0
 10
-7.4573032016
 20
117.7258564448
 30
0.0
 10
-14.453396797
 20
117.835137531
 30
0.0
 10
-19.4510962793
 20
118.6126948395
 30
0.0
 10
-24.2016159963
 20
120.0787471951
 30
0.0
 10
-27.1689068601
 20
121.5067151967
 30
0.0
 10
-28.5817727608
 20
122.3227712018
 30
0.0
  0
SPLINE
  5
30B
100
AcDbEntity
  8
0
100
AcDbSpline
 62
7
  6
CONTINUOUS
 70
0
 71
3
 72
13
 73
9
 74
0
 42
0.0000001
 43
0.0000001
 44
0.0000000001
 40
0.0
 40
0.0
 40
0.0
 40
0.0
 40
0.2493181093
 40
0.3778135879
 40
0.5068329055
 40
0.6349149789
 40
0.7606685581
 40
1.0
 40
1.0
 40
1.0
 40
1.0
 10
-15.8273011749
 20
211.6783406974
 30
0.0
 10
-20.3333274546
 20
208.5315729322
 30
0.0
 10
-26.5046659129
 20
202.7480941316
 30
0.0
 10
-33.1003912178
 20
193.7092434967
 30
0.0
 10
-37.2340311281
 20
186.2547625655
 30
0.0
 10
-40.3831846617
 20
178.3976741662
 30
0.0
 10
-43.1143381178
 20
167.8586328061
 30
0.0
 10
-43.5747335954
 20
159.6770842751
 30
0.0
 10
-43.0263685332
 20
154.429771698
 30
0.0
  0
SPLINE
  5
30C
100
AcDbEntity
  8
0
100
AcDbSpline
 62
7
  6
CONTINUOUS
 70
0
 71
3
 72
9
 73
5
 74
0
 42
0.0000001
 43
0.0000001
 44
0.0000000001
 40
0.0
 40
0.0
 40
0.0
 40
0.0
 40
0.2568996636
 40
1.0
 40
1.0
 40
1.0
 40
1.0
 10
-35.6720793819
 20
157.2822320558
 30
0.0
 10
-35.5869147451
 20
156.4755003736
 30
0.0
 10
-35.1612617041
 20
153.3464149872
 30
0.0
 10
-34.3460273015
 20
150.266267091
 30
0.0
 10
-33.5058594815
 20
148.0753409977
 30
0.0
  0
SPLINE
  5
30D
100
AcDbEntity
  8
0
100
AcDbSpline
 62
7
  6
CONTINUOUS
 70
0
 71
3
 72
9
 73
5
 74
0
 42
0.0000001
 43
0.0000001
 44
0.0000000001
 40
0.0
 40
0.0
 40
0.0
 40
0.0
 40
0.5077665703
 40
1.0
 40
1.0
 40
1.0
 40
1.0
 10
-33.5058594815
 20
148.0753409977
 30
0.0
 10
-32.9691410393
 20
146.6757272397
 30
0.0
 10
-31.7207778931
 20
143.9879577287
 30
0.0
 10
-30.0838220936
 20
141.5151413599
 30
0.0
 10
-29.1872437159
 20
140.3715680987
 30
0.0
  0
SPLINE
  5
30E
100
AcDbEntity
  8
0
100
AcDbSpline
 62
7
  6
CONTINUOUS
 70
0
 71
3
 72
9
 73
5
 74
0
 42
0.0000001
 43
0.0000001
 44
0.0000000001
 40
0.0
 40
0.0
 40
0.0
 40
0.0
 40
0.5038526021
 40
1.0
 40
1.0
 40
1.0
 40
1.0
 10
-35.1602062414
 20
133.9169886456
 30
0.0
 10
-33.9387178357
 20
132.3633822149
 30
0.0
 10
-31.2282704376
 20
129.4924745842
 30
0.0
 10
-28.0163159788
 20
127.1927481289
 30
0.0
 10
-26.3311090195
 20
126.219475029
 30
0.0
  0
SPLINE
  5
30F
100
AcDbEntity
  8
0
100
AcDbSpline
 62
7
  6
CONTINUOUS
 70
0
 71
3
 72
9
 73
5
 74
0
 42
0.0000001
 43
0.0000001
 44
0.0000000001
 40
0.0
 40
0.0
 40
0.0
 40
0.0
 40
0.2470528189
 40
1.0
 40
1.0
 40
1.0
 40
1.0
 10
29.3124048868
 20
199.3864261892
 30
0.0
 10
29.4886858375
 20
199.0695602587
 30
0.0
 10
30.1786883631
 20
197.7739855079
 30
0.0
 10
30.7744756466
 20
196.4285527566
 30
0.0
 10
31.1701603646
 20
195.3967160774
 30
0.0
  0
SPLINE
  5
310
100
AcDbEntity
  8
0
100
AcDbSpline
 62
7
  6
CONTINUOUS
 70
0
 71
3
 72
13
 73
9
 74
0
 42
0.0000001
 43
0.0000001
 44
0.0000000001
 40
0.0
 40
0.0
 40
0.0
 40
0.0
 40
0.1169560785
 40
0.2348461608
 40
0.3545438489
 40
0.4768059817
 40
0.7308129772
 40
1.0
 40
1.0
 40
1.0
 40
1.0
 10
-26.3311090195
 20
126.219475029
 30
0.0
 10
-25.1296542179
 20
125.5255877692
 30
0.0
 10
-22.616826811
 20
124.2983370242
 30
0.0
 10
-18.6077900989
 20
122.9862401383
 30
0.0
 10
-14.39651833
 20
122.2126589683
 30
0.0
 10
-8.5066433663
 20
121.9054304979
 30
0.0
 10
-0.8450064481
 20
122.9502888076
 30
0.0
 10
5.018273617
 20
125.1337724009
 30
0.0
 10
7.8918567739
 20
126.5265644769
 30
0.0
  0
SPLINE
  5
311
100
AcDbEntity
  8
0
100
AcDbSpline
 62
7
  6
CONTINUOUS
 70
0
 71
3
 72
9
 73
5
 74
0
 42
0.0000001
 43
0.0000001
 44
0.0000000001
 40
0.0
 40
0.0
 40
0.0
 40
0.0
 40
0.5044487353
 40
1.0
 40
1.0
 40
1.0
 40
1.0
 10
-22.1837897728
 20
127.5297175613
 30
0.0
 10
-23.6471191828
 20
127.6354202068
 30
0.0
 10
-26.537975669
 20
128.0331450456
 30
0.0
 10
-29.3484078631
 20
128.8219469915
 30
0.0
 10
-30.7051049752
 20
129.3083796863
 30
0.0
  0
SPLINE
  5
312
100
AcDbEntity
  8
0
100
AcDbSpline
 62
7
  6
CONTINUOUS
 70
0
 71
3
 72
14
 73
10
 74
0
 42
0.0000001
 43
0.0000001
 44
0.0000000001
 40
0.0
 40
0.0
 40
0.0
 40
0.0
 40
0.113475639
 40
0.2288877518
 40
0.3472540558
 40
0.4693455552
 40
0.5956482032
 40
0.7263562985
 40
1.0
 40
1.0
 40
1.0
 40
1.0
 10
-31.2338056879
 20
124.0304455159
 30
0.0
 10
-32.6870561288
 20
125.0686595304
 30
0.0
 10
-35.4513861567
 20
127.4075915542
 30
0.0
 10
-39.0236902422
 20
131.5718981546
 30
0.0
 10
-41.9936138414
 20
136.3453941587
 30
0.0
 10
-44.3161099312
 20
141.6501242828
 30
0.0
 10
-45.9587953813
 20
147.4046504671
 30
0.0
 10
-47.2315333073
 20
155.6752184758
 30
0.0
 10
-47.0687062298
 20
162.1068621176
 30
0.0
 10
-46.5260643105
 20
166.3794553726
 30
0.0
  0
SPLINE
  5
313
100
AcDbEntity
  8
0
100
AcDbSpline
 62
7
  6
CONTINUOUS
 70
0
 71
3
 72
11
 73
7
 74
0
 42
0.0000001
 43
0.0000001
 44
0.0000000001
 40
0.0
 40
0.0
 40
0.0
 40
0.0
 40
0.2478818352
 40
0.5018103995
 40
0.7547890861
 40
1.0
 40
1.0
 40
1.0
 40
1.0
 10
-46.3667942359
 20
167.5472512842
 30
0.0
 10
-45.6842079723
 20
172.230610611
 30
0.0
 10
-43.2556167196
 20
181.5825060051
 30
0.0
 10
-36.912727683
 20
194.6204633452
 30
0.0
 10
-28.2066390568
 20
206.1515902008
 30
0.0
 10
-21.0074869029
 20
212.4964987202
 30
0.0
 10
-17.1689913127
 20
215.1770987575
 30
0.0
  0
SPLINE
  5
314
100
AcDbEntity
  8
0
100
AcDbSpline
 62
7
  6
CONTINUOUS
 70
0
 71
3
 72
14
 73
10
 74
0
 42
0.0000001
 43
0.0000001
 44
0.0000000001
 40
0.0
 40
0.0
 40
0.0
 40
0.0
 40
0.2737954637
 40
0.4041943359
 40
0.5300698824
 40
0.651772919
 40
0.7699779989
 40
0.8856534626
 40
1.0
 40
1.0
 40
1.0
 40
1.0
 10
-17.1689913127
 20
215.1770987575
 30
0.0
 10
-13.587772284
 20
217.6780306033
 30
0.0
 10
-7.8733912713
 20
220.8309121372
 30
0.0
 10
0.1820939023
 20
223.4635359486
 30
0.0
 10
6.1312421725
 20
224.5645301922
 30
0.0
 10
11.9830531875
 20
224.7993649278
 30
0.0
 10
17.6436533614
 20
224.1608160657
 30
0.0
 10
23.016222716
 20
222.6564789662
 30
0.0
 10
26.3554397207
 20
221.0861302455
 30
0.0
 10
27.9351202622
 20
220.173723915
 30
0.0
  0
SPLINE
  5
315
100
AcDbEntity
  8
0
100
AcDbSpline
 62
7
  6
CONTINUOUS
 70
0
 71
3
 72
9
 73
5
 74
0
 42
0.0000001
 43
0.0000001
 44
0.0000000001
 40
0.0
 40
0.0
 40
0.0
 40
0.0
 40
0.5077665703
 40
1.0
 40
1.0
 40
1.0
 40
1.0
 10
32.8592069829
 20
194.4211541192
 30
0.0
 10
32.3224885407
 20
195.8207678771
 30
0.0
 10
31.0741253945
 20
198.5085373881
 30
0.0
 10
29.437169595
 20
200.9813537569
 30
0.0
 10
28.5405912173
 20
202.1249270182
 30
0.0
  0
SPLINE
  5
316
100
AcDbEntity
  8
0
100
AcDbSpline
 62
7
  6
CONTINUOUS
 70
0
 71
3
 72
9
 73
5
 74
0
 42
0.0000001
 43
0.0000001
 44
0.0000000001
 40
0.0
 40
0.0
 40
0.0
 40
0.0
 40
0.5038526021
 40
1.0
 40
1.0
 40
1.0
 40
1.0
 10
34.5135537428
 20
208.5795064713
 30
0.0
 10
33.2920653371
 20
210.1331129019
 30
0.0
 10
30.581617939
 20
213.0040205326
 30
0.0
 10
27.3696634802
 20
215.303746988
 30
0.0
 10
25.6844565209
 20
216.2770200878
 30
0.0
  0
SPLINE
  5
317
100
AcDbEntity
  8
0
100
AcDbSpline
 62
7
  6
CONTINUOUS
 70
0
 71
3
 72
13
 73
9
 74
0
 42
0.0000001
 43
0.0000001
 44
0.0000000001
 40
0.0
 40
0.0
 40
0.0
 40
0.0
 40
0.2652052894
 40
0.5362358252
 40
0.6644343081
 40
0.7837848647
 40
0.8945732651
 40
1.0
 40
1.0
 40
1.0
 40
1.0
 10
32.822282578
 20
121.2058399049
 30
0.0
 10
32.822282578
 20
120.4957786265
 30
0.0
 10
32.4521784539
 20
119.0522749368
 30
0.0
 10
31.3325399225
 20
117.5999785197
 30
0.0
 10
30.1582143742
 20
116.8363333029
 30
0.0
 10
29.2346772859
 20
116.5324380485
 30
0.0
 10
28.3209062613
 20
116.5183055459
 30
0.0
 10
27.7603582969
 20
116.7148313818
 30
0.0
 10
27.5159267763
 20
116.8560031491
 30
0.0
  0
SPLINE
  5
318
100
AcDbEntity
  8
0
100
AcDbSpline
 62
7
  6
CONTINUOUS
 70
0
 71
3
 72
11
 73
7
 74
0
 42
0.0000001
 43
0.0000001
 44
0.0000000001
 40
0.0
 40
0.0
 40
0.0
 40
0.0
 40
0.2597178272
 40
0.5114253714
 40
0.7572540204
 40
1.0
 40
1.0
 40
1.0
 40
1.0
 10
26.2107121026
 20
121.5777635436
 30
0.0
 10
24.971690383
 20
121.4062867379
 30
0.0
 10
22.5026125371
 20
121.2454922221
 30
0.0
 10
18.8557272985
 20
121.587099137
 30
0.0
 10
15.3950392509
 20
122.5117570858
 30
0.0
 10
13.2486974775
 20
123.5104563857
 30
0.0
 10
12.2363326824
 20
124.0951750323
 30
0.0
  0
SPLINE
  5
319
100
AcDbEntity
  8
0
100
AcDbSpline
 62
7
  6
CONTINUOUS
 70
0
 71
3
 72
20
 73
16
 74
0
 42
0.0000001
 43
0.0000001
 44
0.0000000001
 40
0.0
 40
0.0
 40
0.0
 40
0.0
 40
0.1227235974
 40
0.1878064403
 40
0.2547478068
 40
0.3916132859
 40
0.4604254631
 40
0.528481359
 40
0.6595702
 40
0.7219374191
 40
0.7817550178
 40
0.8390517047
 40
0.8941187012
 40
0.9475100857
 40
1.0
 40
1.0
 40
1.0
 40
1.0
 10
29.5164973403
 20
182.7425262993
 30
0.0
 10
26.7298582182
 20
181.9955524044
 30
0.0
 10
22.6370076235
 20
180.125931898
 30
0.0
 10
17.7887312401
 20
176.595035257
 30
0.0
 10
13.1832249806
 20
172.2429162288
 30
0.0
 10
9.365889498
 20
167.0058616647
 30
0.0
 10
6.535485542
 20
161.2129876912
 30
0.0
 10
4.4580444494
 20
155.2550422715
 30
0.0
 10
3.5019165889
 20
149.0977952355
 30
0.0
 10
3.835565101
 20
143.1355376377
 30
0.0
 10
4.7020993912
 20
138.9879387636
 30
0.0
 10
6.1722800699
 20
135.1956888474
 30
0.0
 10
8.2160072927
 20
131.8513071779
 30
0.0
 10
10.785807901
 20
129.0421731805
 30
0.0
 10
12.818323062
 20
127.5699600208
 30
0.0
 10
13.8868188054
 20
126.9527562794
 30
0.0
  0
SPLINE
  5
31A
100
AcDbEntity
  8
0
100
AcDbSpline
 62
7
  6
CONTINUOUS
 70
0
 71
3
 72
11
 73
7
 74
0
 42
0.0000001
 43
0.0000001
 44
0.0000000001
 40
0.0
 40
0.0
 40
0.0
 40
0.0
 40
0.2397930808
 40
0.484063102
 40
0.7365900134
 40
1.0
 40
1.0
 40
1.0
 40
1.0
 10
45.1461758752
 20
181.0738829798
 30
0.0
 10
44.0311050467
 20
181.71799026
 30
0.0
 10
41.6319921176
 20
182.7781355985
 30
0.0
 10
37.7323919045
 20
183.5868635006
 30
0.0
 10
33.6253465686
 20
183.6070015356
 30
0.0
 10
30.8828215473
 20
183.1087769941
 30
0.0
 10
29.5164973403
 20
182.7425262993
 30
0.0
  0
SPLINE
  5
31B
100
AcDbEntity
  8
0
100
AcDbSpline
 62
7
  6
CONTINUOUS
 70
0
 71
3
 72
14
 73
10
 74
0
 42
0.0000001
 43
0.0000001
 44
0.0000000001
 40
0.0
 40
0.0
 40
0.0
 40
0.0
 40
0.1147610167
 40
0.235400382
 40
0.3609934356
 40
0.4900010127
 40
0.6205077514
 40
0.75043977
 40
1.0
 40
1.0
 40
1.0
 40
1.0
 10
-5.3904661041
 20
205.9379443272
 30
0.0
 10
-7.2931219976
 20
205.4279269833
 30
0.0
 10
-11.0946854254
 20
203.9738617871
 30
0.0
 10
-16.4125054302
 20
200.7380176755
 30
0.0
 10
-21.3118949966
 20
196.5142220603
 30
0.0
 10
-25.6119639911
 20
191.4620184883
 30
0.0
 10
-29.1580031618
 20
185.7632372696
 30
0.0
 10
-32.6529912705
 20
177.7188031437
 30
0.0
 10
-33.8974388457
 20
171.1745870706
 30
0.0
 10
-33.9422236431
 20
166.8912202515
 30
0.0
  0
SPLINE
  5
31C
100
AcDbEntity
  8
0
100
AcDbSpline
 62
7
  6
CONTINUOUS
 70
0
 71
3
 72
13
 73
9
 74
0
 42
0.0000001
 43
0.0000001
 44
0.0000000001
 40
0.0
 40
0.0
 40
0.0
 40
0.0
 40
0.271741444
 40
0.5266527099
 40
0.6486311163
 40
0.7675741437
 40
0.8843514739
 40
1.0
 40
1.0
 40
1.0
 40
1.0
 10
-33.9422236431
 20
166.8912202515
 30
0.0
 10
-33.9672951823
 20
164.4932949463
 30
0.0
 10
-33.5476357287
 20
159.8225837919
 30
0.0
 10
-31.7007652412
 20
154.3357458485
 30
0.0
 10
-29.4898861452
 20
150.5450911466
 30
0.0
 10
-27.5240596173
 20
148.0607625243
 30
0.0
 10
-25.2542537346
 20
145.9319768317
 30
0.0
 10
-23.5543691217
 20
144.7672521163
 30
0.0
 10
-22.6706384109
 20
144.2567748342
 30
0.0
  0
SPLINE
  5
31D
100
AcDbEntity
  8
0
100
AcDbSpline
 62
7
  6
CONTINUOUS
 70
0
 71
3
 72
11
 73
7
 74
0
 42
0.0000001
 43
0.0000001
 44
0.0000000001
 40
0.0
 40
0.0
 40
0.0
 40
0.0
 40
0.2621391859
 40
0.5150112662
 40
0.7601861178
 40
1.0
 40
1.0
 40
1.0
 40
1.0
 10
-9.0782178874
 20
128.7293441302
 30
0.0
 10
-10.9763904248
 20
128.2205285745
 30
0.0
 10
-14.7814419304
 20
127.4773162469
 30
0.0
 10
-20.498560063
 20
127.2430885697
 30
0.0
 10
-26.0138398556
 20
127.9178439226
 30
0.0
 10
-29.5146749551
 20
128.9781040247
 30
0.0
 10
-31.1819094221
 20
129.6507705587
 30
0.0
  0
SPLINE
  5
31E
100
AcDbEntity
  8
0
100
AcDbSpline
 62
7
  6
CONTINUOUS
 70
0
 71
3
 72
9
 73
5
 74
0
 42
0.0000001
 43
0.0000001
 44
0.0000000001
 40
0.0
 40
0.0
 40
0.0
 40
0.0
 40
0.2484414973
 40
1.0
 40
1.0
 40
1.0
 40
1.0
 10
20.3701891846
 20
218.699840913
 30
0.0
 10
20.7604906861
 20
218.3922108281
 30
0.0
 10
22.3009020113
 20
217.115551981
 30
0.0
 10
23.7150293232
 20
215.687283012
 30
0.0
 10
24.6948186
 20
214.5470659237
 30
0.0
  0
SPLINE
  5
31F
100
AcDbEntity
  8
0
100
AcDbSpline
 62
7
  6
CONTINUOUS
 70
0
 71
3
 72
9
 73
5
 74
0
 42
0.0000001
 43
0.0000001
 44
0.0000000001
 40
0.0
 40
0.0
 40
0.0
 40
0.0
 40
0.4924628943
 40
1.0
 40
1.0
 40
1.0
 40
1.0
 10
24.6948186
 20
214.5470659237
 30
0.0
 10
25.8452718414
 20
213.2082408558
 30
0.0
 10
27.9592156118
 20
210.2919864845
 30
0.0
 10
29.5957904595
 20
207.0862362176
 30
0.0
 10
30.3057163402
 20
205.411219716
 30
0.0
  0
SPLINE
  5
320
100
AcDbEntity
  8
0
100
AcDbSpline
 62
7
  6
CONTINUOUS
 70
0
 71
3
 72
9
 73
5
 74
0
 42
0.0000001
 43
0.0000001
 44
0.0000000001
 40
0.0
 40
0.0
 40
0.0
 40
0.0
 40
0.2549484563
 40
1.0
 40
1.0
 40
1.0
 40
1.0
 10
-1.0934652374
 20
131.7061833961
 30
0.0
 10
-1.7469943415
 20
131.3928404732
 30
0.0
 10
-4.3367624436
 20
130.2200240596
 30
0.0
 10
-7.0324173597
 20
129.2777321781
 30
0.0
 10
-9.0782178874
 20
128.7293441302
 30
0.0
  0
SPLINE
  5
321
100
AcDbEntity
  8
0
100
AcDbSpline
 62
7
  6
CONTINUOUS
 70
0
 71
3
 72
11
 73
7
 74
0
 42
0.0000001
 43
0.0000001
 44
0.0000000001
 40
0.0
 40
0.0
 40
0.0
 40
0.0
 40
0.2397929755
 40
0.4840626592
 40
0.7365896644
 40
1.0
 40
1.0
 40
1.0
 40
1.0
 10
11.8897062026
 20
204.0930920321
 30
0.0
 10
10.656884955
 20
204.8052176062
 30
0.0
 10
8.0044277586
 20
205.9773126934
 30
0.0
 10
3.6930322848
 20
206.8714429719
 30
0.0
 10
-0.8477176988
 20
206.8937086269
 30
0.0
 10
-3.8798560705
 20
206.3428716289
 30
0.0
 10
-5.3904661041
 20
205.9379443272
 30
0.0
  0
SPLINE
  5
322
100
AcDbEntity
  8
0
100
AcDbSpline
 62
7
  6
CONTINUOUS
 70
0
 71
3
 72
19
 73
15
 74
0
 42
0.0000001
 43
0.0000001
 44
0.0000000001
 40
0.0
 40
0.0
 40
0.0
 40
0.0
 40
0.0523801911
 40
0.1055806958
 40
0.1603158086
 40
0.2171145747
 40
0.2762808511
 40
0.3378888806
 40
0.4674489928
 40
0.6030977367
 40
0.7402095494
 40
0.8078503589
 40
0.874035422
 40
1.0
 40
1.0
 40
1.0
 40
1.0
 10
46.7966594625
 20
183.9314602161
 30
0.0
 10
47.922868113
 20
183.2809307126
 30
0.0
 10
50.0694515679
 20
181.7419301812
 30
0.0
 10
52.8130721414
 20
178.8265707959
 30
0.0
 10
55.0342953012
 20
175.3656116139
 30
0.0
 10
56.6855331748
 20
171.4411948871
 30
0.0
 10
57.7353037537
 20
167.1409289833
 30
0.0
 10
58.3167102875
 20
160.9340199569
 30
0.0
 10
57.4046676033
 20
152.7733280082
 30
0.0
 10
53.9739350948
 20
143.3055364403
 30
0.0
 10
49.3687449694
 20
136.1254179457
 30
0.0
 10
44.8128648574
 20
131.1556891139
 30
0.0
 10
39.9170901079
 20
126.9423908307
 30
0.0
 10
35.7285423468
 20
124.5058915509
 30
0.0
 10
32.822282578
 20
123.3500312586
 30
0.0
  0
SPLINE
  5
323
100
AcDbEntity
  8
0
100
AcDbSpline
 62
7
  6
CONTINUOUS
 70
0
 71
3
 72
20
 73
16
 74
0
 42
0.0000001
 43
0.0000001
 44
0.0000000001
 40
0.0
 40
0.0
 40
0.0
 40
0.0
 40
0.1227235974
 40
0.1878064403
 40
0.2547478068
 40
0.3916132859
 40
0.4604254631
 40
0.528481359
 40
0.6595702
 40
0.7219374191
 40
0.7817550178
 40
0.8390517047
 40
0.8941187012
 40
0.9475100857
 40
1.0
 40
1.0
 40
1.0
 40
1.0
 10
29.5164973403
 20
125.2841129599
 30
0.0
 10
32.3031364624
 20
126.0310868548
 30
0.0
 10
36.395987057
 20
127.9007073612
 30
0.0
 10
41.2442634404
 20
131.4316040022
 30
0.0
 10
45.8497696999
 20
135.7837230304
 30
0.0
 10
49.6671051825
 20
141.0207775945
 30
0.0
 10
52.4975091385
 20
146.813651568
 30
0.0
 10
54.5749502312
 20
152.7715969877
 30
0.0
 10
55.5310780916
 20
158.9288440238
 30
0.0
 10
55.1974295795
 20
164.8911016216
 30
0.0
 10
54.3308952893
 20
169.0387004956
 30
0.0
 10
52.8607146107
 20
172.8309504119
 30
0.0
 10
50.8169873879
 20
176.1753320814
 30
0.0
 10
48.2471867795
 20
178.9844660787
 30
0.0
 10
46.2146716185
 20
180.4566792385
 30
0.0
 10
45.1461758752
 20
181.0738829798
 30
0.0
  0
SPLINE
  5
324
100
AcDbEntity
  8
0
100
AcDbSpline
 62
7
  6
CONTINUOUS
 70
0
 71
3
 72
11
 73
7
 74
0
 42
0.0000001
 43
0.0000001
 44
0.0000000001
 40
0.0
 40
0.0
 40
0.0
 40
0.0
 40
0.2397930808
 40
0.484063102
 40
0.7365900134
 40
1.0
 40
1.0
 40
1.0
 40
1.0
 10
13.8868188054
 20
126.9527562794
 30
0.0
 10
15.0018896338
 20
126.3086489992
 30
0.0
 10
17.401002563
 20
125.2485036607
 30
0.0
 10
21.300602776
 20
124.4397757586
 30
0.0
 10
25.407648112
 20
124.4196377236
 30
0.0
 10
28.1501731332
 20
124.9178622651
 30
0.0
 10
29.5164973403
 20
125.2841129599
 30
0.0
  0
SPLINE
  5
325
100
AcDbEntity
  8
0
100
AcDbSpline
 62
7
  6
CONTINUOUS
 70
0
 71
3
 72
11
 73
7
 74
0
 42
0.0000001
 43
0.0000001
 44
0.0000000001
 40
0.0
 40
0.0
 40
0.0
 40
0.0
 40
0.2634092212
 40
0.5159324401
 40
0.7602042042
 40
1.0
 40
1.0
 40
1.0
 40
1.0
 10
29.5164973403
 20
185.7763305237
 30
0.0
 10
31.0271004528
 20
186.1812559701
 30
0.0
 10
34.0592080191
 20
186.7321035742
 30
0.0
 10
38.5999367626
 20
186.7098098685
 30
0.0
 10
42.9113474837
 20
185.8157174834
 30
0.0
 10
45.5638182301
 20
184.6435836707
 30
0.0
 10
46.7966594625
 20
183.9314602161
 30
0.0
  0
SPLINE
  5
326
100
AcDbEntity
  8
0
100
AcDbSpline
 62
7
  6
CONTINUOUS
 70
0
 71
3
 72
9
 73
5
 74
0
 42
0.0000001
 43
0.0000001
 44
0.0000000001
 40
0.0
 40
0.0
 40
0.0
 40
0.0
 40
0.4976799785
 40
1.0
 40
1.0
 40
1.0
 40
1.0
 10
15.3683297595
 20
219.8641655919
 30
0.0
 10
16.9429513219
 20
219.0780912364
 30
0.0
 10
19.9684433616
 20
217.2043303785
 30
0.0
 10
22.601087157
 20
214.8113069921
 30
0.0
 10
23.8061995724
 20
213.5062880191
 30
0.0
  0
SPLINE
  5
327
100
AcDbEntity
  8
0
100
AcDbSpline
 62
7
  6
CONTINUOUS
 70
0
 71
3
 72
9
 73
5
 74
0
 42
0.0000001
 43
0.0000001
 44
0.0000000001
 40
0.0
 40
0.0
 40
0.0
 40
0.0
 40
0.4925826612
 40
1.0
 40
1.0
 40
1.0
 40
1.0
 10
23.8061995724
 20
213.5062880191
 30
0.0
 10
24.987351655
 20
212.2272157449
 30
0.0
 10
27.1658608307
 20
209.4205682343
 30
0.0
 10
28.8643016669
 20
206.3029006864
 30
0.0
 10
29.6037934786
 20
204.6690035403
 30
0.0
  0
SPLINE
  5
328
100
AcDbEntity
  8
0
100
AcDbSpline
 62
7
  6
CONTINUOUS
 70
0
 71
3
 72
13
 73
9
 74
0
 42
0.0000001
 43
0.0000001
 44
0.0000000001
 40
0.0
 40
0.0
 40
0.0
 40
0.0
 40
0.2635795291
 40
0.5156259847
 40
0.6384512059
 40
0.7597098745
 40
0.880009289
 40
1.0
 40
1.0
 40
1.0
 40
1.0
 10
-8.0929406934
 20
129.7691018947
 30
0.0
 10
-10.4309463435
 20
129.1423866617
 30
0.0
 10
-15.1261023259
 20
128.3163959832
 30
0.0
 10
-21.032484098
 20
128.4656889801
 30
0.0
 10
-25.5160174474
 20
129.320293101
 30
0.0
 10
-28.7204307661
 20
130.3093750627
 30
0.0
 10
-31.7679928314
 20
131.6441859125
 30
0.0
 10
-33.6795973782
 20
132.7579586025
 30
0.0
 10
-34.5984346818
 20
133.366202998
 30
0.0
  0
SPLINE
  5
329
100
AcDbEntity
  8
0
100
AcDbSpline
 62
7
  6
CONTINUOUS
 70
0
 71
3
 72
11
 73
7
 74
0
 42
0.0000001
 43
0.0000001
 44
0.0000000001
 40
0.0
 40
0.0
 40
0.0
 40
0.0
 40
0.2323687036
 40
0.4731072381
 40
0.7282730154
 40
1.0
 40
1.0
 40
1.0
 40
1.0
 10
27.5159267763
 20
116.8560031491
 30
0.0
 10
27.313463081
 20
116.97293634
 30
0.0
 10
26.9359017121
 20
117.2767184014
 30
0.0
 10
26.5184460909
 20
117.8902490912
 30
0.0
 10
26.2639520158
 20
118.6277787826
 30
0.0
 10
26.2107121026
 20
119.1601652782
 30
0.0
 10
26.2107121026
 20
119.4335721898
 30
0.0
  0
SPLINE
  5
32A
100
AcDbEntity
  8
0
100
AcDbSpline
 62
7
  6
CONTINUOUS
 70
0
 71
3
 72
20
 73
16
 74
0
 42
0.0000001
 43
0.0000001
 44
0.0000000001
 40
0.0
 40
0.0
 40
0.0
 40
0.0
 40
0.0524897113
 40
0.1058819037
 40
0.1609497583
 40
0.2182472694
 40
0.2780654993
 40
0.3404330651
 40
0.4715215487
 40
0.5395766966
 40
0.6083878864
 40
0.7452515166
 40
0.8121924927
 40
0.8772755549
 40
1.0
 40
1.0
 40
1.0
 40
1.0
 10
12.2363326824
 20
124.0951750323
 30
0.0
 10
11.0549777537
 20
124.7774984973
 30
0.0
 10
8.8078812268
 20
126.4052890341
 30
0.0
 10
5.9666539113
 20
129.511048451
 30
0.0
 10
3.7071014893
 20
133.2086746046
 30
0.0
 10
2.081667707
 20
137.4014451178
 30
0.0
 10
1.1236498101
 20
141.9870819858
 30
0.0
 10
0.7548117832
 20
148.578968813
 30
0.0
 10
1.8119418032
 20
155.3863910632
 30
0.0
 10
4.1087696705
 20
161.9734303992
 30
0.0
 10
7.2380392832
 20
168.377936639
 30
0.0
 10
11.4584434158
 20
174.1679397726
 30
0.0
 10
16.5502271349
 20
178.9796294891
 30
0.0
 10
21.9105003619
 20
182.8833871405
 30
0.0
 10
26.4355693932
 20
184.9504708957
 30
0.0
 10
29.5164973403
 20
185.7763305237
 30
0.0
  0
SPLINE
  5
32B
100
AcDbEntity
  8
0
100
AcDbSpline
 62
7
  6
CONTINUOUS
 70
0
 71
3
 72
9
 73
5
 74
0
 42
0.0000001
 43
0.0000001
 44
0.0000000001
 40
0.0
 40
0.0
 40
0.0
 40
0.0
 40
0.4910496927
 40
1.0
 40
1.0
 40
1.0
 40
1.0
 10
-43.7132304625
 20
236.2762445826
 30
0.0
 10
-45.0736300478
 20
236.3318402498
 30
0.0
 10
-47.8570114735
 20
236.21631537
 30
0.0
 10
-50.5888036083
 20
235.6821534502
 30
0.0
 10
-51.9518512147
 20
235.3167810662
 30
0.0
  0
SPLINE
  5
32C
100
AcDbEntity
  8
0
100
AcDbSpline
 62
7
  6
CONTINUOUS
 70
0
 71
3
 72
11
 73
7
 74
0
 42
0.0000001
 43
0.0000001
 44
0.0000000001
 40
0.0
 40
0.0
 40
0.0
 40
0.0
 40
0.2342989389
 40
0.4804898506
 40
0.7367337879
 40
1.0
 40
1.0
 40
1.0
 40
1.0
 10
-23.8010742434
 20
230.7752894494
 30
0.0
 10
-26.5231919906
 20
230.0456108628
 30
0.0
 10
-31.9623330113
 20
227.9724670738
 30
0.0
 10
-39.581056579
 20
223.3674803123
 30
0.0
 10
-46.6122343616
 20
217.3610954509
 30
0.0
 10
-50.7076952813
 20
212.6052922167
 30
0.0
 10
-52.5937779821
 20
210.0616065051
 30
0.0
  0
SPLINE
  5
32D
100
AcDbEntity
  8
0
100
AcDbSpline
 62
7
  6
CONTINUOUS
 70
0
 71
3
 72
13
 73
9
 74
0
 42
0.0000001
 43
0.0000001
 44
0.0000000001
 40
0.0
 40
0.0
 40
0.0
 40
0.0
 40
0.2709455452
 40
0.5307472415
 40
0.6548029085
 40
0.7742871848
 40
0.8892199886
 40
1.0
 40
1.0
 40
1.0
 40
1.0
 10
-58.7996625207
 20
199.8650865767
 30
0.0
 10
-60.8262801699
 20
195.730364352
 30
0.0
 10
-63.9572515988
 20
187.1867876627
 30
0.0
 10
-65.3962165773
 20
176.0396872811
 30
0.0
 10
-64.8673952423
 20
167.4798434765
 30
0.0
 10
-63.6721944961
 20
161.4848733887
 30
0.0
 10
-61.69357041
 20
155.9395734037
 30
0.0
 10
-59.842019796
 20
152.5567108701
 30
0.0
 10
-58.7996625207
 20
150.9889040315
 30
0.0
  0
SPLINE
  5
32E
100
AcDbEntity
  8
0
100
AcDbSpline
 62
7
  6
CONTINUOUS
 70
0
 71
3
 72
10
 73
6
 74
0
 42
0.0000001
 43
0.0000001
 44
0.0000000001
 40
0.0
 40
0.0
 40
0.0
 40
0.0
 40
0.2404226411
 40
0.4863248996
 40
1.0
 40
1.0
 40
1.0
 40
1.0
 10
-46.0512705162
 20
239.5496548913
 30
0.0
 10
-47.1568080163
 20
239.9128274968
 30
0.0
 10
-49.4566345769
 20
240.4679107063
 30
0.0
 10
-54.2931904403
 20
240.8726137587
 30
0.0
 10
-57.9956430952
 20
240.3567522585
 30
0.0
 10
-60.397084306
 20
239.7130327756
 30
0.0
  0
SPLINE
  5
32F
100
AcDbEntity
  8
0
100
AcDbSpline
 62
7
  6
CONTINUOUS
 70
0
 71
3
 72
10
 73
6
 74
0
 42
0.0000001
 43
0.0000001
 44
0.0000000001
 40
0.0
 40
0.0
 40
0.0
 40
0.0
 40
0.24043449
 40
0.4863494752
 40
1.0
 40
1.0
 40
1.0
 40
1.0
 10
-54.7459957324
 20
243.9629333108
 30
0.0
 10
-55.8330306331
 20
244.3173776686
 30
0.0
 10
-58.0936781943
 20
244.8584862456
 30
0.0
 10
-62.8460249755
 20
245.2499897275
 30
0.0
 10
-66.4829976878
 20
244.7417130685
 30
0.0
 10
-68.8423173974
 20
244.1092844849
 30
0.0
  0
SPLINE
  5
330
100
AcDbEntity
  8
0
100
AcDbSpline
 62
7
  6
CONTINUOUS
 70
0
 71
3
 72
10
 73
6
 74
0
 42
0.0000001
 43
0.0000001
 44
0.0000000001
 40
0.0
 40
0.0
 40
0.0
 40
0.0
 40
0.2404468964
 40
0.4863749972
 40
1.0
 40
1.0
 40
1.0
 40
1.0
 10
-63.4407547501
 20
248.3761101295
 30
0.0
 10
-64.5092763875
 20
248.7218416635
 30
0.0
 10
-66.7307295721
 20
249.249006261
 30
0.0
 10
-71.3988558469
 20
249.6273549756
 30
0.0
 10
-74.9703530478
 20
249.1266736728
 30
0.0
 10
-77.2875504888
 20
248.5055361943
 30
0.0
  0
SPLINE
  5
331
100
AcDbEntity
  8
0
100
AcDbSpline
 62
7
  6
CONTINUOUS
 70
0
 71
3
 72
9
 73
5
 74
0
 42
0.0000001
 43
0.0000001
 44
0.0000000001
 40
0.0
 40
0.0
 40
0.0
 40
0.0
 40
0.2535997676
 40
1.0
 40
1.0
 40
1.0
 40
1.0
 10
-57.6736314418
 20
150.3385293927
 30
0.0
 10
-57.3154877946
 20
149.799846474
 30
0.0
 10
-55.8412287016
 20
147.7177793642
 30
0.0
 10
-54.1141292482
 20
145.813265169
 30
0.0
 10
-52.7051583387
 20
144.5327916723
 30
0.0
  0
SPLINE
  5
332
100
AcDbEntity
  8
0
100
AcDbSpline
 62
7
  6
CONTINUOUS
 70
0
 71
3
 72
9
 73
5
 74
0
 42
0.0000001
 43
0.0000001
 44
0.0000000001
 40
0.0
 40
0.0
 40
0.0
 40
0.0
 40
0.4927528335
 40
1.0
 40
1.0
 40
1.0
 40
1.0
 10
-69.0420146931
 20
255.9766963913
 30
0.0
 10
-67.2736964813
 20
254.955256001
 30
0.0
 10
-63.9561743859
 20
252.375855706
 30
0.0
 10
-61.4416575452
 20
249.0185104385
 30
0.0
 10
-60.3892170119
 20
247.1987287762
 30
0.0
  0
SPLINE
  5
333
100
AcDbEntity
  8
0
100
AcDbSpline
 62
7
  6
CONTINUOUS
 70
0
 71
3
 72
11
 73
7
 74
0
 42
0.0000001
 43
0.0000001
 44
0.0000000001
 40
0.0
 40
0.0
 40
0.0
 40
0.0
 40
0.2411620567
 40
0.4861537398
 40
0.7382925282
 40
1.0
 40
1.0
 40
1.0
 40
1.0
 10
-73.8238727262
 20
258.7385913839
 30
0.0
 10
-75.2516361245
 20
259.5637012796
 30
0.0
 10
-78.3189535954
 20
260.9207098138
 30
0.0
 10
-83.2949234745
 20
261.9568055056
 30
0.0
 10
-88.5150488319
 20
261.9866196818
 30
0.0
 10
-91.9933666975
 20
261.3564245721
 30
0.0
 10
-93.7218656109
 20
260.8930909615
 30
0.0
  0
SPLINE
  5
334
100
AcDbEntity
  8
0
100
AcDbSpline
 62
7
  6
CONTINUOUS
 70
0
 71
3
 72
9
 73
5
 74
0
 42
0.0000001
 43
0.0000001
 44
0.0000000001
 40
0.0
 40
0.0
 40
0.0
 40
0.0
 40
0.5071875189
 40
1.0
 40
1.0
 40
1.0
 40
1.0
 10
-96.17546702
 20
185.3248768795
 30
0.0
 10
-98.2691886325
 20
185.3309380396
 30
0.0
 10
-102.4164089475
 20
185.8357439477
 30
0.0
 10
-106.2920920487
 20
187.4159357712
 30
0.0
 10
-108.0537078616
 20
188.4335046291
 30
0.0
  0
SPLINE
  5
335
100
AcDbEntity
  8
0
100
AcDbSpline
 62
7
  6
CONTINUOUS
 70
0
 71
3
 72
21
 73
17
 74
0
 42
0.0000001
 43
0.0000001
 44
0.0000000001
 40
0.0
 40
0.0
 40
0.0
 40
0.0
 40
0.0604052392
 40
0.1231172724
 40
0.1879358327
 40
0.2544805709
 40
0.3903294712
 40
0.458608469
 40
0.5261715206
 40
0.6565789064
 40
0.7188551553
 40
0.7788107295
 40
0.8365056726
 40
0.8922331224
 40
0.9465042412
 40
1.0
 40
1.0
 40
1.0
 40
1.0
 10
-93.7218656109
 20
260.8930909615
 30
0.0
 10
-95.4368850835
 20
260.433370589
 30
0.0
 10
-98.8601290943
 20
259.2072307165
 30
0.0
 10
-103.7442639737
 20
256.589350979
 30
0.0
 10
-108.3716071797
 20
253.222639375
 30
0.0
 10
-114.0903527279
 20
247.814901131
 30
0.0
 10
-118.8266460838
 20
241.3091540274
 30
0.0
 10
-122.3293828715
 20
234.1151387235
 30
0.0
 10
-124.8974141146
 20
226.7081878284
 30
0.0
 10
-126.067088287
 20
219.0428685997
 30
0.0
 10
-125.6286091691
 20
211.6076923564
 30
0.0
 10
-124.5257437607
 20
206.412229917
 30
0.0
 10
-122.6595138392
 20
201.6434952489
 30
0.0
 10
-120.0625845919
 20
197.4201931505
 30
0.0
 10
-116.7920395824
 20
193.8585360188
 30
0.0
 10
-114.2045839971
 20
191.9865927544
 30
0.0
 10
-112.8431139987
 20
191.1997940665
 30
0.0
  0
SPLINE
  5
336
100
AcDbEntity
  8
0
100
AcDbSpline
 62
7
  6
CONTINUOUS
 70
0
 71
3
 72
18
 73
14
 74
0
 42
0.0000001
 43
0.0000001
 44
0.0000000001
 40
0.0
 40
0.0
 40
0.0
 40
0.0
 40
0.1211317795
 40
0.1851741039
 40
0.2510259299
 40
0.3859969439
 40
0.5217516831
 40
0.6535726033
 40
0.7776962987
 40
0.8364009728
 40
0.8927979617
 40
0.9471671468
 40
1.0
 40
1.0
 40
1.0
 40
1.0
 10
-77.2875504888
 20
248.5055361943
 30
0.0
 10
-80.2557588734
 20
247.709891663
 30
0.0
 10
-84.6227685789
 20
245.7728050498
 30
0.0
 10
-89.8587301458
 20
242.132852298
 30
0.0
 10
-94.8848303825
 20
237.6496930584
 30
0.0
 10
-100.2251853638
 20
230.8883139541
 30
0.0
 10
-104.7040567569
 20
221.6208873354
 30
0.0
 10
-106.9615684798
 20
211.8553762822
 30
0.0
 10
-106.8128617691
 20
203.769601783
 30
0.0
 10
-105.3900443474
 20
197.8488304681
 30
0.0
 10
-103.7436443105
 20
193.856257248
 30
0.0
 10
-101.5311934192
 20
190.321331267
 30
0.0
 10
-99.685711782
 20
188.2987388838
 30
0.0
 10
-98.6923439545
 20
187.3989194967
 30
0.0
  0
SPLINE
  5
337
100
AcDbEntity
  8
0
100
AcDbSpline
 62
7
  6
CONTINUOUS
 70
0
 71
3
 72
18
 73
14
 74
0
 42
0.0000001
 43
0.0000001
 44
0.0000000001
 40
0.0
 40
0.0
 40
0.0
 40
0.0
 40
0.1211498793
 40
0.1852039269
 40
0.2510681048
 40
0.3860613693
 40
0.5218281945
 40
0.6536446416
 40
0.7777465289
 40
0.8364364103
 40
0.8928182854
 40
0.9471746744
 40
1.0
 40
1.0
 40
1.0
 40
1.0
 10
-68.8423173974
 20
244.1092844849
 30
0.0
 10
-71.8564110233
 20
243.3013401632
 30
0.0
 10
-76.2908513808
 20
241.3337187367
 30
0.0
 10
-81.6069895883
 20
237.6361690007
 30
0.0
 10
-86.7095224829
 20
233.0819961322
 30
0.0
 10
-92.1295919526
 20
226.2138414883
 30
0.0
 10
-96.6720804101
 20
216.8011633594
 30
0.0
 10
-98.9565121752
 20
206.8846050655
 30
0.0
 10
-98.7968522271
 20
198.6760065789
 30
0.0
 10
-97.3442458011
 20
192.6678424528
 30
0.0
 10
-95.6664756558
 20
188.6178340418
 30
0.0
 10
-93.4138719421
 20
185.0337510237
 30
0.0
 10
-91.5360850094
 20
182.9845566188
 30
0.0
 10
-90.5256111872
 20
182.0733553054
 30
0.0
  0
SPLINE
  5
338
100
AcDbEntity
  8
0
100
AcDbSpline
 62
7
  6
CONTINUOUS
 70
0
 71
3
 72
18
 73
14
 74
0
 42
0.0000001
 43
0.0000001
 44
0.0000000001
 40
0.0
 40
0.0
 40
0.0
 40
0.0
 40
0.1211674599
 40
0.1852328921
 40
0.2511090631
 40
0.3861239204
 40
0.5219024477
 40
0.653714502
 40
0.7777951689
 40
0.8364706811
 40
0.8928378962
 40
0.947181905
 40
1.0
 40
1.0
 40
1.0
 40
1.0
 10
-60.397084306
 20
239.7130327756
 30
0.0
 10
-63.4570629331
 20
238.8927887277
 30
0.0
 10
-67.9589333961
 20
236.8946318485
 30
0.0
 10
-73.3552463841
 20
233.1394840528
 30
0.0
 10
-78.5342089391
 20
228.5142966943
 30
0.0
 10
-84.0339872385
 20
221.5393667132
 30
0.0
 10
-88.6400831517
 20
211.9814405837
 30
0.0
 10
-90.9514231244
 20
201.9138438747
 30
0.0
 10
-90.7807979727
 20
193.5824348997
 30
0.0
 10
-89.2983944435
 20
187.4868949128
 30
0.0
 10
-87.5892496092
 20
183.3794655341
 30
0.0
 10
-85.296490327
 20
179.7462419145
 30
0.0
 10
-83.3863997132
 20
177.6704576221
 30
0.0
 10
-82.358821125
 20
176.7478805435
 30
0.0
  0
SPLINE
  5
339
100
AcDbEntity
  8
0
100
AcDbSpline
 62
7
  6
CONTINUOUS
 70
0
 71
3
 72
18
 73
14
 74
0
 42
0.0000001
 43
0.0000001
 44
0.0000000001
 40
0.0
 40
0.0
 40
0.0
 40
0.0
 40
0.1211845432
 40
0.1852610357
 40
0.251148856
 40
0.3861846769
 40
0.5219745404
 40
0.6537822804
 40
0.7778422917
 40
0.8365038404
 40
0.8928568295
 40
0.9471888545
 40
1.0
 40
1.0
 40
1.0
 40
1.0
 10
-51.9518512147
 20
235.3167810662
 30
0.0
 10
-55.0577146063
 20
234.4842373556
 30
0.0
 10
-59.6270146402
 20
232.4555444181
 30
0.0
 10
-65.1035006142
 20
228.6427975487
 30
0.0
 10
-70.3588899473
 20
223.9465948987
 30
0.0
 10
-75.9383716528
 20
216.8648898076
 30
0.0
 10
-80.6080658317
 20
207.1617190777
 30
0.0
 10
-82.9463027102
 20
196.9430924365
 30
0.0
 10
-82.764700929
 20
188.4888859258
 30
0.0
 10
-81.2524926001
 20
182.3059863222
 30
0.0
 10
-79.5119687109
 20
178.1411496101
 30
0.0
 10
-77.1790512839
 20
174.4588011304
 30
0.0
 10
-75.2366585847
 20
172.3564385462
 30
0.0
 10
-74.1919764238
 20
171.4224915976
 30
0.0
  0
SPLINE
  5
33A
100
AcDbEntity
  8
0
100
AcDbSpline
 62
7
  6
CONTINUOUS
 70
0
 71
3
 72
11
 73
7
 74
0
 42
0.0000001
 43
0.0000001
 44
0.0000000001
 40
0.0
 40
0.0
 40
0.0
 40
0.0
 40
0.2401506209
 40
0.4857902802
 40
0.7386802143
 40
1.0
 40
1.0
 40
1.0
 40
1.0
 10
-4.3462487624
 20
230.5770167563
 30
0.0
 10
-5.8467181934
 20
231.0654864
 30
0.0
 10
-8.9660826856
 20
231.8117061903
 30
0.0
 10
-13.8208222911
 20
232.2087196592
 30
0.0
 10
-18.8196473882
 20
231.8916566137
 30
0.0
 10
-22.1425514006
 20
231.2198655906
 30
0.0
 10
-23.8010742434
 20
230.7752894494
 30
0.0
  0
SPLINE
  5
33B
100
AcDbEntity
  8
0
100
AcDbSpline
 62
7
  6
CONTINUOUS
 70
0
 71
3
 72
18
 73
14
 74
0
 42
0.0000001
 43
0.0000001
 44
0.0000000001
 40
0.0
 40
0.0
 40
0.0
 40
0.0
 40
0.0529454785
 40
0.1074971758
 40
0.1640986702
 40
0.2229896001
 40
0.3473404604
 40
0.4791203556
 40
0.6146255691
 40
0.7492788241
 40
0.814992513
 40
0.8789298462
 40
1.0
 40
1.0
 40
1.0
 40
1.0
 10
-102.2205744262
 20
189.8499830362
 30
0.0
 10
-103.1665053404
 20
190.7687011258
 30
0.0
 10
-104.9164721155
 20
192.8176732068
 30
0.0
 10
-106.9956681816
 20
196.3577563661
 30
0.0
 10
-108.5235516614
 20
200.3270370069
 30
0.0
 10
-109.809421882
 20
206.1799406765
 30
0.0
 10
-109.8437200642
 20
214.1239819185
 30
0.0
 10
-107.5421059361
 20
223.686304897
 30
0.0
 10
-103.1039869599
 20
232.7448456807
 30
0.0
 10
-97.858935408
 20
239.3555884236
 30
0.0
 10
-92.937045106
 20
243.749034762
 30
0.0
 10
-87.8111894169
 20
247.329634638
 30
0.0
 10
-83.5406280996
 20
249.2514788477
 30
0.0
 10
-80.6348536783
 20
250.0569361918
 30
0.0
  0
SPLINE
  5
33C
100
AcDbEntity
  8
0
100
AcDbSpline
 62
7
  6
CONTINUOUS
 70
0
 71
3
 72
11
 73
7
 74
0
 42
0.0000001
 43
0.0000001
 44
0.0000000001
 40
0.0
 40
0.0
 40
0.0
 40
0.0
 40
0.2396963857
 40
0.484300456
 40
0.7370192991
 40
1.0
 40
1.0
 40
1.0
 40
1.0
 10
-67.2839975553
 20
250.6182020858
 30
0.0
 10
-68.5016452998
 20
251.2367793524
 30
0.0
 10
-71.0953251924
 20
252.2403112257
 30
0.0
 10
-75.2566100062
 20
252.9659040645
 30
0.0
 10
-79.6109746743
 20
252.9104531416
 30
0.0
 10
-82.5146218778
 20
252.367933136
 30
0.0
 10
-83.961958075
 20
251.979966733
 30
0.0
  0
SPLINE
  5
33D
100
AcDbEntity
  8
0
100
AcDbSpline
 62
7
  6
CONTINUOUS
 70
0
 71
3
 72
20
 73
16
 74
0
 42
0.0000001
 43
0.0000001
 44
0.0000000001
 40
0.0
 40
0.0
 40
0.0
 40
0.0
 40
0.052489886
 40
0.1058814095
 40
0.1609487248
 40
0.2182458328
 40
0.2780638566
 40
0.3404314263
 40
0.471520401
 40
0.5395759239
 40
0.608387429
 40
0.745251195
 40
0.8121932314
 40
0.877276077
 40
1.0
 40
1.0
 40
1.0
 40
1.0
 10
-108.0537078616
 20
188.4335046291
 30
0.0
 10
-109.3871928746
 20
189.203770661
 30
0.0
 10
-111.9237731991
 20
191.0410995396
 30
0.0
 10
-115.1308997839
 20
194.5469040436
 30
0.0
 10
-117.6814842571
 20
198.7207185231
 30
0.0
 10
-119.5162769253
 20
203.4534831766
 30
0.0
 10
-120.5977067384
 20
208.6297265115
 30
0.0
 10
-121.0140785117
 20
216.0706556307
 30
0.0
 10
-119.8208044868
 20
223.7549029165
 30
0.0
 10
-117.2281431348
 20
231.1903889249
 30
0.0
 10
-113.6958167762
 20
238.419818243
 30
0.0
 10
-108.9318072069
 20
244.9556188741
 30
0.0
 10
-103.1841611081
 20
250.3870521628
 30
0.0
 10
-97.133486483
 20
254.7936317063
 30
0.0
 10
-92.0255977615
 20
257.1269241021
 30
0.0
 10
-88.5478612773
 20
258.059150434
 30
0.0
  0
SPLINE
  5
33E
100
AcDbEntity
  8
0
100
AcDbSpline
 62
7
  6
CONTINUOUS
 70
0
 71
3
 72
19
 73
15
 74
0
 42
0.0000001
 43
0.0000001
 44
0.0000000001
 40
0.0
 40
0.0
 40
0.0
 40
0.0
 40
0.0524960281
 40
0.1060733444
 40
0.1614312536
 40
0.2190488996
 40
0.3414115913
 40
0.4062388707
 40
0.4729081374
 40
0.609306876
 40
0.745764179
 40
0.8125028672
 40
0.8774201662
 40
1.0
 40
1.0
 40
1.0
 40
1.0
 10
-74.5758825953
 20
171.3720265649
 30
0.0
 10
-75.7811151163
 20
172.1575232126
 30
0.0
 10
-78.0615479866
 20
173.9968306674
 30
0.0
 10
-80.9113390065
 20
177.4140409345
 30
0.0
 10
-83.1489673484
 20
181.4212562901
 30
0.0
 10
-85.2913742131
 20
187.5314975707
 30
0.0
 10
-85.9487022978
 20
194.322779299
 30
0.0
 10
-85.2476170871
 20
201.25578631
 30
0.0
 10
-83.5948603927
 20
208.4275282669
 30
0.0
 10
-79.8757169141
 20
217.0538235536
 30
0.0
 10
-74.2992379956
 20
224.6152954997
 30
0.0
 10
-68.935273706
 20
229.6636800235
 30
0.0
 10
-63.2967504104
 20
233.77293987
 30
0.0
 10
-58.5469506604
 20
235.9679667396
 30
0.0
 10
-55.3098207758
 20
236.8652731582
 30
0.0
  0
SPLINE
  5
33F
100
AcDbEntity
  8
0
100
AcDbSpline
 62
7
  6
CONTINUOUS
 70
0
 71
3
 72
10
 73
6
 74
0
 42
0.0000001
 43
0.0000001
 44
0.0000000001
 40
0.0
 40
0.0
 40
0.0
 40
0.0
 40
0.2406023481
 40
0.486679526
 40
1.0
 40
1.0
 40
1.0
 40
1.0
 10
-78.7610122065
 20
260.8556911418
 30
0.0
 10
-79.8939052722
 20
261.1907879324
 30
0.0
 10
-82.2411814335
 20
261.6942690395
 30
0.0
 10
-87.1527624763
 20
262.0193136727
 30
0.0
 10
-90.8989209981
 20
261.4758431193
 30
0.0
 10
-93.3334933625
 20
260.823242649
 30
0.0
  0
SPLINE
  5
340
100
AcDbEntity
  8
0
100
AcDbSpline
 62
7
  6
CONTINUOUS
 70
0
 71
3
 72
20
 73
16
 74
0
 42
0.0000001
 43
0.0000001
 44
0.0000000001
 40
0.0
 40
0.0
 40
0.0
 40
0.0
 40
0.1230441854
 40
0.1882391135
 40
0.255253645
 40
0.3921460506
 40
0.4609197036
 40
0.5289133255
 40
0.6598448973
 40
0.7221332785
 40
0.7818826247
 40
0.8391263093
 40
0.8941567731
 40
0.9475253807
 40
1.0
 40
1.0
 40
1.0
 40
1.0
 10
-93.7057054578
 20
260.7210783456
 30
0.0
 10
-97.165790007
 20
259.7491322681
 30
0.0
 10
-102.23731843
 20
257.370680926
 30
0.0
 10
-108.236950476
 20
252.9255906409
 30
0.0
 10
-113.9245161516
 20
247.4730085878
 30
0.0
 10
-118.6295533542
 20
240.9374162003
 30
0.0
 10
-122.1081854439
 20
233.7237341199
 30
0.0
 10
-124.6519817518
 20
226.3161361569
 30
0.0
 10
-125.8068626866
 20
218.6701939507
 30
0.0
 10
-125.3660994649
 20
211.2726319178
 30
0.0
 10
-124.2742029085
 20
206.1285693869
 30
0.0
 10
-122.4365795045
 20
201.4260864184
 30
0.0
 10
-119.8906031372
 20
197.278881545
 30
0.0
 10
-116.6949496922
 20
193.7943007069
 30
0.0
 10
-114.1701000194
 20
191.9666287598
 30
0.0
 10
-112.8430223033
 20
191.1997273346
 30
0.0
  0
SPLINE
  5
341
100
AcDbEntity
  8
0
100
AcDbSpline
 62
7
  6
CONTINUOUS
 70
0
 71
3
 72
19
 73
15
 74
0
 42
0.0000001
 43
0.0000001
 44
0.0000000001
 40
0.0
 40
0.0
 40
0.0
 40
0.0
 40
0.1223544931
 40
0.1871911853
 40
0.253877994
 40
0.3903120461
 40
0.5267770489
 40
0.5934998917
 40
0.6583853698
 40
0.7808531123
 40
0.8385105173
 40
0.8938966512
 40
0.947492052
 40
1.0
 40
1.0
 40
1.0
 40
1.0
 10
-83.961958075
 20
251.979966733
 30
0.0
 10
-87.0537651961
 20
251.1511908828
 30
0.0
 10
-91.5968544469
 20
249.0910385712
 30
0.0
 10
-96.9949440373
 20
245.205058243
 30
0.0
 10
-102.1375157361
 20
240.4146198917
 30
0.0
 10
-107.4917419566
 20
233.2181247671
 30
0.0
 10
-111.071929553
 20
224.9926432873
 30
0.0
 10
-112.6718353662
 20
218.1463985679
 30
0.0
 10
-113.3603403236
 20
211.5240175877
 30
0.0
 10
-112.7481096607
 20
205.0333725778
 30
0.0
 10
-110.7124241654
 20
199.1919358711
 30
0.0
 10
-108.5806614784
 20
195.3612548337
 30
0.0
 10
-105.8619670179
 20
192.0952535796
 30
0.0
 10
-103.6846072069
 20
190.338297468
 30
0.0
 10
-102.5337155124
 20
189.5883358033
 30
0.0
  0
SPLINE
  5
342
100
AcDbEntity
  8
0
100
AcDbSpline
 62
7
  6
CONTINUOUS
 70
0
 71
3
 72
11
 73
7
 74
0
 42
0.0000001
 43
0.0000001
 44
0.0000000001
 40
0.0
 40
0.0
 40
0.0
 40
0.0
 40
0.2634075713
 40
0.5159326167
 40
0.7602033863
 40
1.0
 40
1.0
 40
1.0
 40
1.0
 10
-88.5478612773
 20
258.059150434
 30
0.0
 10
-86.8427039081
 20
258.5162272157
 30
0.0
 10
-83.4200616134
 20
259.1380114419
 30
0.0
 10
-78.2944922598
 20
259.1128926432
 30
0.0
 10
-73.4277697626
 20
258.1036169232
 30
0.0
 10
-70.4336464341
 20
256.7805499392
 30
0.0
 10
-69.0420146931
 20
255.9766963913
 30
0.0
  0
SPLINE
  5
343
100
AcDbEntity
  8
0
100
AcDbSpline
 62
7
  6
CONTINUOUS
 70
0
 71
3
 72
10
 73
6
 74
0
 42
0.0000001
 43
0.0000001
 44
0.0000000001
 40
0.0
 40
0.0
 40
0.0
 40
0.0
 40
0.5131830241
 40
0.759324784
 40
1.0
 40
1.0
 40
1.0
 40
1.0
 10
-80.3939604356
 20
250.122609387
 30
0.0
 10
-78.2176308584
 20
250.7059864623
 30
0.0
 10
-74.8712386272
 20
251.1985882408
 30
0.0
 10
-70.4781367945
 20
250.9363941316
 30
0.0
 10
-68.3749516213
 20
250.5058652021
 30
0.0
 10
-67.3583894069
 20
250.2173947946
 30
0.0
  0
SPLINE
  5
344
100
AcDbEntity
  8
0
100
AcDbSpline
 62
7
  6
CONTINUOUS
 70
0
 71
3
 72
18
 73
14
 74
0
 42
0.0000001
 43
0.0000001
 44
0.0000000001
 40
0.0
 40
0.0
 40
0.0
 40
0.0
 40
0.1220096958
 40
0.186553462
 40
0.2529036217
 40
0.3886906271
 40
0.5247950975
 40
0.6563130072
 40
0.7795155474
 40
0.8376432187
 40
0.893477452
 40
0.9473973669
 40
1.0
 40
1.0
 40
1.0
 40
1.0
 10
-80.3402113605
 20
249.4124448926
 30
0.0
 10
-83.3191493831
 20
248.5867071856
 30
0.0
 10
-87.6929464304
 20
246.5864382685
 30
0.0
 10
-92.9080937114
 20
242.848290307
 30
0.0
 10
-97.8880929061
 20
238.2578863354
 30
0.0
 10
-103.1183335086
 20
231.36782237
 30
0.0
 10
-107.3788859643
 20
221.9837018635
 30
0.0
 10
-109.3292266738
 20
212.1819801138
 30
0.0
 10
-108.850688424
 20
204.1554924889
 30
0.0
 10
-107.1347474284
 20
198.3733361596
 30
0.0
 10
-105.2671328114
 20
194.5281160063
 30
0.0
 10
-102.8336877383
 20
191.1846370439
 30
0.0
 10
-100.8496407962
 20
189.3259461743
 30
0.0
 10
-99.7922121339
 20
188.514729867
 30
0.0
  0
SPLINE
  5
345
100
AcDbEntity
  8
0
100
AcDbSpline
 62
7
  6
CONTINUOUS
 70
0
 71
3
 72
11
 73
7
 74
0
 42
0.0000001
 43
0.0000001
 44
0.0000000001
 40
0.0
 40
0.0
 40
0.0
 40
0.0
 40
0.2397937192
 40
0.4849070032
 40
0.7377960264
 40
1.0
 40
1.0
 40
1.0
 40
1.0
 10
-56.3540296569
 20
244.3905544839
 30
0.0
 10
-57.5053360872
 20
244.8651510586
 30
0.0
 10
-59.9256822408
 20
245.6149881802
 30
0.0
 10
-63.7442203158
 20
246.0993215084
 30
0.0
 10
-67.7054840732
 20
245.946462606
 30
0.0
 10
-70.3423710263
 20
245.4334624094
 30
0.0
 10
-71.6576091012
 20
245.0809056324
 30
0.0
  0
SPLINE
  5
346
100
AcDbEntity
  8
0
100
AcDbSpline
 62
7
  6
CONTINUOUS
 70
0
 71
3
 72
18
 73
14
 74
0
 42
0.0000001
 43
0.0000001
 44
0.0000000001
 40
0.0
 40
0.0
 40
0.0
 40
0.0
 40
0.122001533
 40
0.1865400288
 40
0.2528846784
 40
0.3886620099
 40
0.5247617056
 40
0.6562825364
 40
0.7794956007
 40
0.8376299408
 40
0.8934705991
 40
0.9473953971
 40
1.0
 40
1.0
 40
1.0
 40
1.0
 10
-71.8985337265
 20
245.0152238815
 30
0.0
 10
-74.9210633329
 20
244.1774029374
 30
0.0
 10
-79.3589019298
 20
242.1481305957
 30
0.0
 10
-84.6507206849
 20
238.3558756343
 30
0.0
 10
-89.7041868059
 20
233.6990552328
 30
0.0
 10
-95.0122822966
 20
226.7091407409
 30
0.0
 10
-99.3377701671
 20
217.1885046465
 30
0.0
 10
-101.3202977234
 20
207.2432449733
 30
0.0
 10
-100.8386988759
 20
199.0981409643
 30
0.0
 10
-99.1011506174
 20
193.2293060322
 30
0.0
 10
-97.2088427986
 20
189.3257318772
 30
0.0
 10
-94.7424066034
 20
185.9306878446
 30
0.0
 10
-92.7309404177
 20
184.0425778127
 30
0.0
 10
-91.6587712157
 20
183.2183044976
 30
0.0
  0
SPLINE
  5
347
100
AcDbEntity
  8
0
100
AcDbSpline
 62
7
  6
CONTINUOUS
 70
0
 71
3
 72
11
 73
7
 74
0
 42
0.0000001
 43
0.0000001
 44
0.0000000001
 40
0.0
 40
0.0
 40
0.0
 40
0.0
 40
0.2629848572
 40
0.5156955587
 40
0.7603050209
 40
1.0
 40
1.0
 40
1.0
 40
1.0
 10
-71.9487273438
 20
245.7263576774
 30
0.0
 10
-70.4710646361
 20
246.1224532678
 30
0.0
 10
-67.5066633668
 20
246.6764101607
 30
0.0
 10
-63.0611385177
 20
246.7331698754
 30
0.0
 10
-58.8126807694
 20
245.9928795452
 30
0.0
 10
-56.1645439516
 20
244.968676958
 30
0.0
 10
-54.9213143659
 20
244.337339186
 30
0.0
  0
SPLINE
  5
348
100
AcDbEntity
  8
0
100
AcDbSpline
 62
7
  6
CONTINUOUS
 70
0
 71
3
 72
19
 73
15
 74
0
 42
0.0000001
 43
0.0000001
 44
0.0000000001
 40
0.0
 40
0.0
 40
0.0
 40
0.0
 40
0.0524960278
 40
0.106073342
 40
0.1614312481
 40
0.2190488906
 40
0.3414115764
 40
0.4062388543
 40
0.4729081205
 40
0.6093068613
 40
0.7457641692
 40
0.8125028603
 40
0.877420162
 40
1.0
 40
1.0
 40
1.0
 40
1.0
 10
-90.914628481
 20
182.0177805659
 30
0.0
 10
-92.0857928922
 20
182.7810727962
 30
0.0
 10
-94.3017652686
 20
184.568387014
 30
0.0
 10
-97.0710022299
 20
187.8890009807
 30
0.0
 10
-99.2453806316
 20
191.782942586
 30
0.0
 10
-101.3272296793
 20
197.7204635654
 30
0.0
 10
-101.9659786863
 20
204.3197745385
 30
0.0
 10
-101.2847126052
 20
211.0568049529
 30
0.0
 10
-99.6786759101
 20
218.0258223109
 30
0.0
 10
-96.0646631772
 20
226.4082772697
 30
0.0
 10
-90.6458161271
 20
233.7560085175
 30
0.0
 10
-85.4334761193
 20
238.6616900405
 30
0.0
 10
-79.9543379704
 20
242.6547931737
 30
0.0
 10
-75.3388015134
 20
244.7877730511
 30
0.0
 10
-72.1931760439
 20
245.6597151804
 30
0.0
  0
SPLINE
  5
349
100
AcDbEntity
  8
0
100
AcDbSpline
 62
7
  6
CONTINUOUS
 70
0
 71
3
 72
18
 73
14
 74
0
 42
0.0000001
 43
0.0000001
 44
0.0000000001
 40
0.0
 40
0.0
 40
0.0
 40
0.0
 40
0.1220955529
 40
0.1866962576
 40
0.253104582
 40
0.3889943369
 40
0.5251490313
 40
0.6566349579
 40
0.7797249775
 40
0.8377818328
 40
0.893548208
 40
0.9474170726
 40
1.0
 40
1.0
 40
1.0
 40
1.0
 10
-63.4568560925
 20
240.6180028704
 30
0.0
 10
-66.5361077234
 20
239.7644590363
 30
0.0
 10
-71.0567888291
 20
237.6939076924
 30
0.0
 10
-76.4437676141
 20
233.823495297
 30
0.0
 10
-81.5850609275
 20
229.0702636146
 30
0.0
 10
-86.9771785361
 20
221.9376452928
 30
0.0
 10
-91.3531440247
 20
212.2287933827
 30
0.0
 10
-93.3296394642
 20
202.0982061469
 30
0.0
 10
-92.7923172522
 20
193.814110571
 30
0.0
 10
-90.9807329707
 20
187.8597199015
 30
0.0
 10
-89.0217552676
 20
183.9076510994
 30
0.0
 10
-86.4780743328
 20
180.4802521533
 30
0.0
 10
-84.409880816
 20
178.5829855615
 30
0.0
 10
-83.3089177237
 20
177.7573584051
 30
0.0
  0
SPLINE
  5
34A
100
AcDbEntity
  8
0
100
AcDbSpline
 62
7
  6
CONTINUOUS
 70
0
 71
3
 72
11
 73
7
 74
0
 42
0.0000001
 43
0.0000001
 44
0.0000000001
 40
0.0
 40
0.0
 40
0.0
 40
0.0
 40
0.2629848552
 40
0.5156955574
 40
0.760305021
 40
1.0
 40
1.0
 40
1.0
 40
1.0
 10
-63.5034942524
 20
241.3301059681
 30
0.0
 10
-62.0043396627
 20
241.7319625752
 30
0.0
 10
-58.9968226324
 20
242.293976567
 30
0.0
 10
-54.4866397811
 20
242.3515621679
 30
0.0
 10
-50.1763901599
 20
241.6005052648
 30
0.0
 10
-47.4897372609
 20
240.5614066907
 30
0.0
 10
-46.2284253503
 20
239.9208867088
 30
0.0
  0
SPLINE
  5
34B
100
AcDbEntity
  8
0
100
AcDbSpline
 62
7
  6
CONTINUOUS
 70
0
 71
3
 72
18
 73
14
 74
0
 42
0.0000001
 43
0.0000001
 44
0.0000000001
 40
0.0
 40
0.0
 40
0.0
 40
0.0
 40
0.1220891134
 40
0.1866856614
 40
0.253089642
 40
0.3889717923
 40
0.5251227852
 40
0.6566111152
 40
0.7797095254
 40
0.8377716483
 40
0.8935430544
 40
0.9474156757
 40
1.0
 40
1.0
 40
1.0
 40
1.0
 10
-55.0151784585
 20
236.2207818592
 30
0.0
 10
-58.1383741542
 20
235.3550570832
 30
0.0
 10
-62.7236016675
 20
233.2551749968
 30
0.0
 10
-68.1877502126
 20
229.3300125914
 30
0.0
 10
-73.4029009172
 20
224.5095632423
 30
0.0
 10
-78.8730492346
 20
217.2759457567
 30
0.0
 10
-83.3135818916
 20
207.4291863237
 30
0.0
 10
-85.321264344
 20
197.1539236676
 30
0.0
 10
-84.7794950971
 20
188.7506375367
 30
0.0
 10
-82.94491348
 20
182.7095632729
 30
0.0
 10
-80.9601254809
 20
178.6993760727
 30
0.0
 10
-78.3822718231
 20
175.220893205
 30
0.0
 10
-76.2858677841
 20
173.2947283268
 30
0.0
 10
-75.1697850347
 20
172.4563451745
 30
0.0
  0
SPLINE
  5
34C
100
AcDbEntity
  8
0
100
AcDbSpline
 62
7
  6
CONTINUOUS
 70
0
 71
3
 72
9
 73
5
 74
0
 42
0.0000001
 43
0.0000001
 44
0.0000000001
 40
0.0
 40
0.0
 40
0.0
 40
0.0
 40
0.5120010958
 40
1.0
 40
1.0
 40
1.0
 40
1.0
 10
-55.058261161
 20
236.9338542587
 30
0.0
 10
-53.1718859061
 20
237.4395074882
 30
0.0
 10
-49.3805345862
 20
238.0766117739
 30
0.0
 10
-45.5330657965
 20
237.8719978004
 30
0.0
 10
-43.6998711337
 20
237.5490849066
 30
0.0
  0
SPLINE
  5
34D
100
AcDbEntity
  8
0
100
AcDbSpline
 62
7
  6
CONTINUOUS
 70
0
 71
3
 72
9
 73
5
 74
0
 42
0.0000001
 43
0.0000001
 44
0.0000000001
 40
0.0
 40
0.0
 40
0.0
 40
0.0
 40
0.4881180765
 40
1.0
 40
1.0
 40
1.0
 40
1.0
 10
-43.7014895051
 20
236.9181414098
 30
0.0
 10
-45.4896926305
 20
237.2221857059
 30
0.0
 10
-49.2377097011
 20
237.4056909567
 30
0.0
 10
-52.9298323711
 20
236.7809033793
 30
0.0
 10
-54.7671429184
 20
236.2884022137
 30
0.0
  0
LINE
  5
34E
100
AcDbEntity
  8
0
100
AcDbLine
 62
7
  6
CONTINUOUS
 10
-42.607863815
 20
228.3882412168
 11
-43.7338948938
 21
228.9744264165
  0
SPLINE
  5
34F
100
AcDbEntity
  8
0
100
AcDbSpline
 62
7
  6
CONTINUOUS
 70
0
 71
3
 72
11
 73
7
 74
0
 42
0.0000001
 43
0.0000001
 44
0.0000000001
 40
0.0
 40
0.0
 40
0.0
 40
0.0
 40
0.2397897441
 40
0.4848943828
 40
0.7377815778
 40
1.0
 40
1.0
 40
1.0
 40
1.0
 10
-65.0001915823
 20
248.786704475
 30
0.0
 10
-66.135854192
 20
249.2566067823
 30
0.0
 10
-68.5238049681
 20
249.9994011568
 30
0.0
 10
-72.2922027305
 20
250.480333698
 30
0.0
 10
-76.2019874006
 20
250.3311476468
 30
0.0
 10
-78.8046750225
 20
249.8251381691
 30
0.0
 10
-80.1028421925
 20
249.4771573417
 30
0.0
  0
SPLINE
  5
350
100
AcDbEntity
  8
0
100
AcDbSpline
 62
7
  6
CONTINUOUS
 70
0
 71
3
 72
19
 73
15
 74
0
 42
0.0000001
 43
0.0000001
 44
0.0000000001
 40
0.0
 40
0.0
 40
0.0
 40
0.0
 40
0.0524960279
 40
0.1060733432
 40
0.1614312509
 40
0.2190488951
 40
0.3414115839
 40
0.4062388626
 40
0.4729081291
 40
0.6093068688
 40
0.7457641742
 40
0.8125028638
 40
0.8774201641
 40
1.0
 40
1.0
 40
1.0
 40
1.0
 10
-82.7452555379
 20
176.6949035652
 30
0.0
 10
-83.933454004
 20
177.4692980042
 30
0.0
 10
-86.1816566274
 20
179.2826088405
 30
0.0
 10
-88.991170618
 20
182.6515209573
 30
0.0
 10
-91.1971739899
 20
186.6020994378
 30
0.0
 10
-93.3093019461
 20
192.6259805678
 30
0.0
 10
-93.9573404921
 20
199.3212769185
 30
0.0
 10
-93.2661648462
 20
206.1562956312
 30
0.0
 10
-91.6367681514
 20
213.2266752887
 30
0.0
 10
-87.9701900457
 20
221.7310504115
 30
0.0
 10
-82.4725270614
 20
229.1856520085
 30
0.0
 10
-77.1843749127
 20
234.162685032
 30
0.0
 10
-71.6255441904
 20
238.2138665218
 30
0.0
 10
-66.9428760869
 20
240.3778698953
 30
0.0
 10
-63.7514984098
 20
241.2624941693
 30
0.0
  0
SPLINE
  5
351
100
AcDbEntity
  8
0
100
AcDbSpline
 62
7
  6
CONTINUOUS
 70
0
 71
3
 72
11
 73
7
 74
0
 42
0.0000001
 43
0.0000001
 44
0.0000000001
 40
0.0
 40
0.0
 40
0.0
 40
0.0
 40
0.2398183941
 40
0.4849899211
 40
0.7378778119
 40
1.0
 40
1.0
 40
1.0
 40
1.0
 10
-47.8407777067
 20
240.0484166468
 30
0.0
 10
-49.0004796044
 20
240.5154852805
 30
0.0
 10
-51.4353842873
 20
241.2512934116
 30
0.0
 10
-55.2709073782
 20
241.7192258403
 30
0.0
 10
-59.2464991377
 20
241.5553867039
 30
0.0
 10
-61.8924743444
 20
241.038460801
 30
0.0
 10
-63.2123760097
 20
240.684653923
 30
0.0
  0
ELLIPSE
  5
352
100
AcDbEntity
  8
0
100
AcDbEllipse
 62
7
  6
CONTINUOUS
 10
-1.1261600309
 20
171.7119494407
 30
0.0
 11
24.36332706
 21
35.5921912106
 31
0.0
 40
0.5905819202
 41
-0.3815695761
 42
-0.2511059463
  0
ENDSEC
  0
SECTION
  2
OBJECTS
  0
DICTIONARY
  5
C
100
AcDbDictionary
280
0
281
1
  3
ACAD_GROUP
350
D
  3
ACAD_MLINESTYLE
350
17
  3
ACAD_LAYOUT
350
1A
  3
ACAD_PLOTSETTINGS
350
19
  3
ACAD_PLOTSTYLENAME
350
E
  0
DICTIONARY
  5
D
102
{ACAD_REACTORS
330
C
102
}
100
AcDbDictionary
280
0
281
1
  0
ACDBDICTIONARYWDFLT
  5
E
102
{ACAD_REACTORS
330
C
102
}
100
AcDbDictionary
281
1
  3
Normal
350
F
100
AcDbDictionaryWithDefault
340
F
  0
DICTIONARY
  5
17
102
{ACAD_REACTORS
330
C
102
}
100
AcDbDictionary
280
0
281
1
  3
Standard
350
18
  0
DICTIONARY
  5
19
102
{ACAD_REACTORS
330
C
102
}
100
AcDbDictionary
281
1
  0
DICTIONARY
  5
1A
102
{ACAD_REACTORS
330
C
102
}
100
AcDbDictionary
281
1
  3
Model
350
353
  3
Layout1
350
354
  0
ACDBPLACEHOLDER
  5
F
102
{ACAD_REACTORS
330
E
102
}
  0
MLINESTYLE
  5
18
102
{ACAD_REACTORS
330
17
102
}
100
AcDbMlineStyle
  2
STANDARD
 70
0
  3

 62
256
 51
90.0
 52
90.0
 71
2
 49
0.5
 62
256
  6
BYLAYER
 49
-0.5
 62
256
  6
BYLAYER
  0
LAYOUT
  5
353
102
{ACAD_REACTORS
330
1A
102
}
100
AcDbPlotSettings
  1

  2
none_device
  4
ANSI_C_(22.00_x_17.00_Inches)
  6

 40
0.0
 41
0.0
 42
0.0
 43
0.0
 44
558.8
 45
431.8
 46
0.0
 47
0.0
 48
0.0
 49
0.0
140
0.0
141
0.0
142
1.0
143
1.0
 70
1024
 72
1
 73
0
 74
0
  7

 75
0
147
1.0
148
0.0
149
0.0
100
AcDbLayout
  1
Model
 70
0
 71
0
 10
0.0
 20
0.0
 11
558.8
 21
431.8
 12
0.0
 22
0.0
 32
0.0
 14
0.0
 24
0.0
 34
0.0
 15
0.0
 25
0.0
 35
0.0
146
0.0
 13
0.0
 23
0.0
 33
0.0
 16
1.0
 26
0.0
 36
0.0
 17
0.0
 27
1.0
 37
0.0
 76
0
330
216
345
0
346
0
  0
LAYOUT
  5
354
102
{ACAD_REACTORS
330
1A
102
}
100
AcDbPlotSettings
  1

  2
none_device
  4
ANSI_C_(22.00_x_17.00_Inches)
  6

 40
0.0
 41
0.0
 42
0.0
 43
0.0
 44
558.8
 45
431.8
 46
0.0
 47
0.0
 48
0.0
 49
0.0
140
0.0
141
0.0
142
1.0
143
1.0
 70
0
 72
1
 73
0
 74
0
  7

 75
0
147
1.0
148
0.0
149
0.0
100
AcDbLayout
  1
Layout1
 70
0
 71
1
 10
0.0
 20
0.0
 11
558.8
 21
431.8
 12
0.0
 22
0.0
 32
0.0
 14
0.0
 24
0.0
 34
0.0
 15
0.0
 25
0.0
 35
0.0
146
0.0
 13
0.0
 23
0.0
 33
0.0
 16
1.0
 26
0.0
 36
0.0
 17
0.0
 27
1.0
 37
0.0
 76
0
330
217
345
0
346
0
  0
ENDSEC
  0
EOF
