999
DXF file: Y:\3D PRATIKA-KAEDRA_OLGA\TRAVAIL_PHASE_11\CAD3D\81394_3D-Simplified\81394_2D-isometric.dxf
999
Pro/ENGINEER 2018260 by Parametric Technology Corporation
  0
SECTION
  2
HEADER
  9
$ACADVER
  1
AC1027
  9
$DWGCODEPAGE
  3
ANSI_1252
  9
$EXTMAX
 10
558.8
 20
431.8
 30
0.0
  9
$EXTMIN
 10
0.0
 20
0.0
 30
0.0
  9
$LIMMIN
 10
0.0
 20
0.0
  9
$LIMMAX
 10
558.8
 20
431.8
  9
$VIEWCTR
 10
279.4
 20
215.9
  9
$VIEWSIZE
 40
431.8
  9
$CLAYER
  8
0
  9
$LTSCALE
 40
30.734
  9
$CELTYPE
  6
BYLAYER
  9
$DIMSCALE
 40
1.0
  9
$DIMASZ
 40
0.1875
  9
$DIMEXO
 40
0.0625
  9
$DIMDLI
 40
21.2344
  9
$DIMEXE
 40
0.125
  9
$DIMCEN
 40
5.0292
  9
$DIMLFAC
 40
1.0
  9
$DIMBLK
  1
_CLOSED
  9
$DIMALT
 70
0
  9
$DIMALTF
 40
0.0393700787
  9
$DIMTXT
 40
0.15625
  9
$DIMTOL
 70
0
  9
$DIMLIM
 70
0
  9
$DIMTFAC
 40
1.0
  9
$DIMGAP
 40
0.625
  9
$DIMDSEP
 70
46
  9
$AUNITS
 70
0
  9
$PDMODE
 70
3
  9
$PDSIZE
 40
0.3125
  9
$HANDSEED
  5
35C
  9
$TILEMODE
 70
1
  9
$MEASUREMENT
 70
1
  9
$INSUNITS
 70
4
  0
ENDSEC
  0
SECTION
  2
CLASSES
  0
CLASS
  1
ACDBDICTIONARYWDFLT
  2
AcDbDictionaryWithDefault
  3
AutoCAD 2000
 90
0
 91
1
280
0
281
0
  0
CLASS
  1
ACDBPLACEHOLDER
  2
AcDbPlaceHolder
  3
AutoCAD 2000
 90
0
 91
1
280
0
281
0
  0
CLASS
  1
LAYOUT
  2
AcDbLayout
  3
AutoCAD 2000
 90
0
 91
0
280
0
281
0
  0
ENDSEC
  0
SECTION
  2
TABLES
  0
TABLE
  2
VPORT
  5
8
100
AcDbSymbolTable
 70
2
  0
VPORT
  5
1F4
100
AcDbSymbolTableRecord
100
AcDbViewportTableRecord
  2
*ACTIVE
 70
0
 10
0.0
 20
0.0
 11
1.0
 21
1.0
 12
279.4
 22
215.9
 13
0.0
 23
0.0
 14
1.0
 24
1.0
 15
0.0
 25
0.0
 16
0.0
 26
0.0
 36
1.0
 17
0.0
 27
0.0
 37
0.0
 40
431.8
 41
1.2941176471
 42
50.0
 43
0.0
 44
0.0
 50
0.0
 51
0.0
 71
0
 72
100
 73
1
 74
1
 75
0
 76
0
 77
0
 78
0
  0
ENDTAB
  0
TABLE
  2
LTYPE
  5
5
100
AcDbSymbolTable
 70
6
  0
LTYPE
  5
14
100
AcDbSymbolTableRecord
100
AcDbLinetypeTableRecord
  2
BYBLOCK
 70
0
  3

 72
65
 73
0
 40
0.0
  0
LTYPE
  5
15
100
AcDbSymbolTableRecord
100
AcDbLinetypeTableRecord
  2
BYLAYER
 70
0
  3

 72
65
 73
0
 40
0.0
  0
LTYPE
  5
16
100
AcDbSymbolTableRecord
100
AcDbLinetypeTableRecord
  2
CONTINUOUS
 70
64
  3
Solid line
 72
65
 73
0
 40
0.0
  0
LTYPE
  5
1F5
100
AcDbSymbolTableRecord
100
AcDbLinetypeTableRecord
  2
CENTER
 70
64
  3
____ _ ____ _ ____ _ ____ _ ____ _ ____ _ ____
 72
65
 73
4
 40
0.6
 49
0.375
 74
0
 49
-0.075
 74
0
 49
0.075
 74
0
 49
-0.075
 74
0
  0
LTYPE
  5
1F6
100
AcDbSymbolTableRecord
100
AcDbLinetypeTableRecord
  2
HIDDEN
 70
64
  3
- - - - - - - - - - - - - - - - - - - -
 72
65
 73
2
 40
0.2
 49
0.1
 74
0
 49
-0.1
 74
0
  0
LTYPE
  5
1F7
100
AcDbSymbolTableRecord
100
AcDbLinetypeTableRecord
  2
PHANTOM
 70
64
  3
_____ _ _ _____ _ _ _____ _ _ _____
 72
65
 73
6
 40
0.8
 49
0.45
 74
0
 49
-0.05
 74
0
 49
0.1
 74
0
 49
-0.05
 74
0
 49
0.1
 74
0
 49
-0.05
 74
0
  0
LTYPE
  5
1F8
100
AcDbSymbolTableRecord
100
AcDbLinetypeTableRecord
  2
DOT
 70
64
  3
. . . . . . . . . . . . . . . . . . . .
 72
65
 73
2
 40
0.2
 49
0.1
 74
0
 49
-0.1
 74
0
  0
LTYPE
  5
1F9
100
AcDbSymbolTableRecord
100
AcDbLinetypeTableRecord
  2
DASHED
 70
64
  3
- - - - - - - - - - - - - - - - - - - -
 72
65
 73
2
 40
0.2
 49
0.1
 74
0
 49
-0.1
 74
0
  0
ENDTAB
  0
TABLE
  2
LAYER
  5
2
100
AcDbSymbolTable
 70
36
  0
LAYER
  5
10
100
AcDbSymbolTableRecord
100
AcDbLayerTableRecord
  2
0
 70
0
 62
7
  6
CONTINUOUS
370
-3
390
F
  0
LAYER
  5
1FA
100
AcDbSymbolTableRecord
100
AcDbLayerTableRecord
  2
DEFAULT_1
 70
0
 62
7
  6
CENTER
370
-3
390
F
  0
LAYER
  5
1FB
100
AcDbSymbolTableRecord
100
AcDbLayerTableRecord
  2
DEFAULT_2
 70
0
 62
8
  6
HIDDEN
370
-3
390
F
  0
LAYER
  5
1FC
100
AcDbSymbolTableRecord
100
AcDbLayerTableRecord
  2
DEFAULT_3
 70
0
 62
7
  6
PHANTOM
370
-3
390
F
  0
LAYER
  5
1FD
100
AcDbSymbolTableRecord
100
AcDbLayerTableRecord
  2
01_ALL_DTM_PLN
 70
0
 62
7
  6
CONTINUOUS
370
-3
390
F
  0
LAYER
  5
1FE
100
AcDbSymbolTableRecord
100
AcDbLayerTableRecord
  2
01__ASM_ALL_DTM_PLN
 70
0
 62
7
  6
CONTINUOUS
370
-3
390
F
  0
LAYER
  5
1FF
100
AcDbSymbolTableRecord
100
AcDbLayerTableRecord
  2
01__ASM_DEF_DTM_PLN
 70
0
 62
7
  6
CONTINUOUS
370
-3
390
F
  0
LAYER
  5
200
100
AcDbSymbolTableRecord
100
AcDbLayerTableRecord
  2
01___PRT_ALL_DTM_PLN
 70
0
 62
7
  6
CONTINUOUS
370
-3
390
F
  0
LAYER
  5
201
100
AcDbSymbolTableRecord
100
AcDbLayerTableRecord
  2
01___PRT_DEF_DTM_PLN
 70
0
 62
7
  6
CONTINUOUS
370
-3
390
F
  0
LAYER
  5
202
100
AcDbSymbolTableRecord
100
AcDbLayerTableRecord
  2
02_ALL_AXES
 70
0
 62
7
  6
CONTINUOUS
370
-3
390
F
  0
LAYER
  5
203
100
AcDbSymbolTableRecord
100
AcDbLayerTableRecord
  2
02__ASM_ALL_AXES
 70
0
 62
7
  6
CONTINUOUS
370
-3
390
F
  0
LAYER
  5
204
100
AcDbSymbolTableRecord
100
AcDbLayerTableRecord
  2
02___PRT_ALL_AXES
 70
0
 62
7
  6
CONTINUOUS
370
-3
390
F
  0
LAYER
  5
205
100
AcDbSymbolTableRecord
100
AcDbLayerTableRecord
  2
03_ALL_CURVES
 70
0
 62
7
  6
CONTINUOUS
370
-3
390
F
  0
LAYER
  5
206
100
AcDbSymbolTableRecord
100
AcDbLayerTableRecord
  2
03__ASM_ALL_CURVES
 70
0
 62
7
  6
CONTINUOUS
370
-3
390
F
  0
LAYER
  5
207
100
AcDbSymbolTableRecord
100
AcDbLayerTableRecord
  2
03___PRT_ALL_CURVES
 70
0
 62
7
  6
CONTINUOUS
370
-3
390
F
  0
LAYER
  5
208
100
AcDbSymbolTableRecord
100
AcDbLayerTableRecord
  2
04_ALL_DTM_PNT
 70
0
 62
7
  6
CONTINUOUS
370
-3
390
F
  0
LAYER
  5
209
100
AcDbSymbolTableRecord
100
AcDbLayerTableRecord
  2
04__ASM_ALL_DTM_PNT
 70
0
 62
7
  6
CONTINUOUS
370
-3
390
F
  0
LAYER
  5
20A
100
AcDbSymbolTableRecord
100
AcDbLayerTableRecord
  2
04___PRT_ALL_DTM_PNT
 70
0
 62
7
  6
CONTINUOUS
370
-3
390
F
  0
LAYER
  5
20B
100
AcDbSymbolTableRecord
100
AcDbLayerTableRecord
  2
05_ALL_DTM_CSYS
 70
0
 62
7
  6
CONTINUOUS
370
-3
390
F
  0
LAYER
  5
20C
100
AcDbSymbolTableRecord
100
AcDbLayerTableRecord
  2
05__ASM_ALL_DTM_CSYS
 70
0
 62
7
  6
CONTINUOUS
370
-3
390
F
  0
LAYER
  5
20D
100
AcDbSymbolTableRecord
100
AcDbLayerTableRecord
  2
05__ASM_DEF_DTM_CSYS
 70
0
 62
7
  6
CONTINUOUS
370
-3
390
F
  0
LAYER
  5
20E
100
AcDbSymbolTableRecord
100
AcDbLayerTableRecord
  2
05___PRT_ALL_DTM_CSYS
 70
0
 62
7
  6
CONTINUOUS
370
-3
390
F
  0
LAYER
  5
20F
100
AcDbSymbolTableRecord
100
AcDbLayerTableRecord
  2
05___PRT_DEF_DTM_CSYS
 70
0
 62
7
  6
CONTINUOUS
370
-3
390
F
  0
LAYER
  5
210
100
AcDbSymbolTableRecord
100
AcDbLayerTableRecord
  2
06_ALL_SURFS
 70
0
 62
7
  6
CONTINUOUS
370
-3
390
F
  0
LAYER
  5
211
100
AcDbSymbolTableRecord
100
AcDbLayerTableRecord
  2
06__ASM_ALL_SURFS
 70
0
 62
7
  6
CONTINUOUS
370
-3
390
F
  0
LAYER
  5
212
100
AcDbSymbolTableRecord
100
AcDbLayerTableRecord
  2
06___PRT_ALL_SURFS
 70
0
 62
7
  6
CONTINUOUS
370
-3
390
F
  0
LAYER
  5
213
100
AcDbSymbolTableRecord
100
AcDbLayerTableRecord
  2
07__ASM_ALL_SKELETONS
 70
0
 62
7
  6
CONTINUOUS
370
-3
390
F
  0
ENDTAB
  0
TABLE
  2
STYLE
  5
3
100
AcDbSymbolTable
 70
1
  0
STYLE
  5
11
100
AcDbSymbolTableRecord
100
AcDbTextStyleTableRecord
  2
STANDARD
 70
0
 40
0.0
 41
0.8
 50
0.0
 71
0
 42
0.2
  3
txt
  4

  0
STYLE
  5
214
100
AcDbSymbolTableRecord
100
AcDbTextStyleTableRecord
  2
TEXTSTYLE_1
 70
0
 40
0.0
 41
0.8
 50
0.0
 71
0
 42
0.2
  3
gdt
  4

  0
ENDTAB
  0
TABLE
  2
VIEW
  5
6
100
AcDbSymbolTable
 70
0
  0
ENDTAB
  0
TABLE
  2
UCS
  5
7
100
AcDbSymbolTable
 70
0
  0
ENDTAB
  0
TABLE
  2
APPID
  5
9
100
AcDbSymbolTable
 70
1
  0
APPID
  5
215
100
AcDbSymbolTableRecord
100
AcDbRegAppTableRecord
  2
ACAD
 70
0
  0
ENDTAB
  0
TABLE
  2
BLOCK_RECORD
  5
1
100
AcDbSymbolTable
 70
0
  0
BLOCK_RECORD
  5
216
100
AcDbSymbolTableRecord
100
AcDbBlockTableRecord
  2
*Model_Space
  0
BLOCK_RECORD
  5
217
100
AcDbSymbolTableRecord
100
AcDbBlockTableRecord
  2
*Paper_Space
  0
BLOCK_RECORD
  5
218
100
AcDbSymbolTableRecord
100
AcDbBlockTableRecord
  2
_CLOSED
  0
ENDTAB
  0
TABLE
  2
DIMSTYLE
  5
A
100
AcDbSymbolTable
 70
1
100
AcDbDimStyleTable
 71
0
  0
DIMSTYLE
105
219
100
AcDbSymbolTableRecord
100
AcDbDimStyleTableRecord
  2
STANDARD
 70
0
  3

  4

 40
1.0
 41
0.1875
 42
0.0625
 43
0.38
 44
0.125
 45
0.0
 46
0.0
 47
0.01
 48
0.01
140
0.15625
141
0.09
142
0.0
143
25.4
144
1.0
145
0.0
146
1.0
147
0.625
 71
0.0
 72
0.0
 73
1
 74
1
 75
0
 76
0
 77
0
 78
8
 79
2
170
0
171
1
172
0
173
0
174
0
175
0
176
0
177
0
178
0
270
2
179
2
271
2
272
2
273
2
274
2
275
0
280
0
281
0
282
0
283
1
284
8
285
0
286
0
287
3
288
0
340
11
278
46
341
218
342
218
343
218
344
218
  0
ENDTAB
  0
ENDSEC
  0
SECTION
  2
BLOCKS
  0
BLOCK
  5
20
100
AcDbEntity
  8
0
100
AcDbBlockBegin
  2
*Model_Space
 70
0
 10
0.0
 20
0.0
 30
0.0
  3
*Model_Space
  1

  0
ENDBLK
  5
21
100
AcDbEntity
  8
0
100
AcDbBlockEnd
  0
BLOCK
  5
1C
100
AcDbEntity
  8
0
100
AcDbBlockBegin
  2
*Paper_Space
 70
0
 10
0.0
 20
0.0
 30
0.0
  3
*Paper_Space
  1

  0
ENDBLK
  5
1D
100
AcDbEntity
  8
0
100
AcDbBlockEnd
  0
BLOCK
  5
21A
100
AcDbEntity
  8
0
100
AcDbBlockBegin
  2
_CLOSED
 70
64
 10
0.0
 20
0.0
  3
_CLOSED
  1

  0
LINE
  5
21B
100
AcDbEntity
  8
0
  6
BYBLOCK
 62
0
100
AcDbLine
 10
0.0
 20
0.0
 11
-1.0
 21
0.1666666667
  0
LINE
  5
21C
100
AcDbEntity
  8
0
  6
BYBLOCK
 62
0
100
AcDbLine
 10
-1.0
 20
0.1666666667
 11
-1.0
 21
-0.1666666667
  0
LINE
  5
21D
100
AcDbEntity
  8
0
  6
BYBLOCK
 62
0
100
AcDbLine
 10
-1.0
 20
-0.1666666667
 11
0.0
 21
0.0
  0
LINE
  5
21E
100
AcDbEntity
  8
0
  6
BYBLOCK
 62
0
100
AcDbLine
 10
-1.0
 20
0.0
 11
0.0
 21
0.0
  0
ENDBLK
  5
21F
100
AcDbEntity
  8
0
  6
BYBLOCK
 62
0
100
AcDbBlockEnd
  0
ENDSEC
  0
SECTION
  2
ENTITIES
  0
LINE
  5
220
100
AcDbEntity
  8
0
100
AcDbLine
 62
7
  6
CONTINUOUS
 10
-46.0380268296
 20
108.4620162736
 11
-42.3784258233
 21
106.3482986975
  0
LINE
  5
221
100
AcDbEntity
  8
0
100
AcDbLine
 62
7
  6
CONTINUOUS
 10
-61.6938455455
 20
118.3728012204
 11
-52.1225813752
 21
112.8446167904
  0
LINE
  5
222
100
AcDbEntity
  8
0
100
AcDbLine
 62
7
  6
CONTINUOUS
 10
-53.7027210827
 20
114.3225633006
 11
-63.2739852529
 21
119.8507477306
  0
LINE
  5
223
100
AcDbEntity
  8
0
100
AcDbLine
 62
7
  6
CONTINUOUS
 10
-72.9458601564
 20
134.8151491847
 11
-63.3745959862
 21
129.2869647547
  0
LINE
  5
224
100
AcDbEntity
  8
0
100
AcDbLine
 62
7
  6
CONTINUOUS
 10
-32.0686249147
 20
111.2503023161
 11
-30.3795782964
 21
110.2747448126
  0
LINE
  5
225
100
AcDbEntity
  8
0
100
AcDbLine
 62
7
  6
CONTINUOUS
 10
-72.9844469739
 20
134.9161373612
 11
-73.5983929216
 21
135.2707411386
  0
LINE
  5
226
100
AcDbEntity
  8
0
100
AcDbLine
 62
7
  6
CONTINUOUS
 10
-25.9698332781
 20
107.8280600753
 11
-23.154755581
 21
106.2021234783
  0
LINE
  5
227
100
AcDbEntity
  8
0
100
AcDbLine
 62
7
  6
CONTINUOUS
 10
-31.2241016056
 20
112.4354385646
 11
-32.0686249147
 21
112.9232195437
  0
LINE
  5
228
100
AcDbEntity
  8
0
100
AcDbLine
 62
7
  6
CONTINUOUS
 10
-64.1803012081
 20
131.5004164156
 11
-73.7515653783
 21
137.0286008456
  0
LINE
  5
229
100
AcDbEntity
  8
0
100
AcDbLine
 62
7
  6
CONTINUOUS
 10
-105.5613636935
 20
231.9605472099
 11
-105.623550174
 21
231.8847337769
  0
LINE
  5
22A
100
AcDbEntity
  8
0
100
AcDbLine
 62
7
  6
CONTINUOUS
 10
-103.0745330083
 20
230.7482707906
 11
-103.0959969235
 21
230.722103408
  0
LINE
  5
22B
100
AcDbEntity
  8
0
100
AcDbLine
 62
7
  6
CONTINUOUS
 10
-105.5613636935
 20
231.9605472099
 11
-105.6272814601
 21
231.8894127795
  0
LINE
  5
22C
100
AcDbEntity
  8
0
100
AcDbLine
 62
7
  6
CONTINUOUS
 10
-103.0745330083
 20
230.7482707906
 11
-103.0972944305
 21
230.7237366112
  0
LINE
  5
22D
100
AcDbEntity
  8
0
100
AcDbLine
 62
7
  6
CONTINUOUS
 10
-105.7591717402
 20
232.3161638086
 11
-105.7159001141
 21
232.3626116408
  0
LINE
  5
22E
100
AcDbEntity
  8
0
100
AcDbLine
 62
7
  6
CONTINUOUS
 10
-105.3212422213
 20
232.2175528842
 11
-105.3780657936
 21
232.1570321623
  0
LINE
  5
22F
100
AcDbEntity
  8
0
100
AcDbLine
 62
7
  6
CONTINUOUS
 10
-105.308431362
 20
232.2010565022
 11
-105.36812524
 21
232.1442945522
  0
LINE
  5
230
100
AcDbEntity
  8
0
100
AcDbLine
 62
7
  6
CONTINUOUS
 10
-105.7591717402
 20
232.3161638086
 11
-105.7134478333
 21
232.3594952598
  0
LINE
  5
231
100
AcDbEntity
  8
0
100
AcDbLine
 62
7
  6
CONTINUOUS
 10
-144.7585023455
 20
184.5355957558
 11
-149.5441344306
 21
187.2996879708
  0
LINE
  5
232
100
AcDbEntity
  8
0
100
AcDbLine
 62
7
  6
CONTINUOUS
 10
-40.2693820938
 20
125.3394365753
 11
-42.6340473594
 21
126.7052233168
  0
LINE
  5
233
100
AcDbEntity
  8
0
100
AcDbLine
 62
7
  6
CONTINUOUS
 10
-21.0691567027
 20
115.4195727921
 11
-23.8842343998
 21
117.0455093892
  0
LINE
  5
234
100
AcDbEntity
  8
0
100
AcDbLine
 62
7
  6
CONTINUOUS
 10
-22.6057266602
 20
117.0614889727
 11
-24.8787181101
 21
118.3743266209
  0
LINE
  5
235
100
AcDbEntity
  8
0
100
AcDbLine
 62
7
  6
CONTINUOUS
 10
2.9181163935
 20
108.0746668143
 11
-36.4929713663
 21
130.8377791731
  0
LINE
  5
236
100
AcDbEntity
  8
0
100
AcDbLine
 62
7
  6
CONTINUOUS
 10
-76.6472950102
 20
156.5902076337
 11
-67.07603084
 21
151.0620232038
  0
LINE
  5
237
100
AcDbEntity
  8
0
100
AcDbLine
 62
7
  6
CONTINUOUS
 10
12.9196282085
 20
105.0659245897
 11
21.0985732446
 21
100.3419178339
  0
LINE
  5
238
100
AcDbEntity
  8
0
100
AcDbLine
 62
7
  6
CONTINUOUS
 10
-137.9736463484
 20
186.9116255943
 11
-132.1130915906
 21
183.0930928746
  0
LINE
  5
239
100
AcDbEntity
  8
0
100
AcDbLine
 62
7
  6
CONTINUOUS
 10
-129.3899570761
 20
181.3187935679
 11
-123.9436880472
 21
177.7701949544
  0
LINE
  5
23A
100
AcDbEntity
  8
0
100
AcDbLine
 62
7
  6
CONTINUOUS
 10
-121.2205535327
 20
175.9958956477
 11
-115.7742845038
 21
172.4472970342
  0
LINE
  5
23B
100
AcDbEntity
  8
0
100
AcDbLine
 62
7
  6
CONTINUOUS
 10
-113.0511499893
 20
170.6729977275
 11
-107.6048809603
 21
167.124399114
  0
LINE
  5
23C
100
AcDbEntity
  8
0
100
AcDbLine
 62
7
  6
CONTINUOUS
 10
-104.8817464459
 20
165.3500998073
 11
-80.6947343622
 21
149.5906877974
  0
LINE
  5
23D
100
AcDbEntity
  8
0
100
AcDbLine
 62
7
  6
CONTINUOUS
 10
16.2656336234
 20
104.9571045275
 11
19.7933884856
 21
102.9195388355
  0
LINE
  5
23E
100
AcDbEntity
  8
0
100
AcDbLine
 62
7
  6
CONTINUOUS
 10
-66.98464026
 20
153.6740020649
 11
-76.5559044303
 21
159.2021864949
  0
LINE
  5
23F
100
AcDbEntity
  8
0
100
AcDbLine
 62
7
  6
CONTINUOUS
 10
-7.4338052755
 20
134.1858182289
 11
15.31264092
 21
121.0478933468
  0
LINE
  5
240
100
AcDbEntity
  8
0
100
AcDbLine
 62
7
  6
CONTINUOUS
 10
-7.1285398138
 20
139.8491172743
 11
-1.1861774961
 21
136.4169191594
  0
LINE
  5
241
100
AcDbEntity
  8
0
100
AcDbLine
 62
7
  6
CONTINUOUS
 10
-72.2346402039
 20
180.3829213102
 11
-62.6633760337
 21
174.8547368802
  0
LINE
  5
242
100
AcDbEntity
  8
0
100
AcDbLine
 62
7
  6
CONTINUOUS
 10
-70.9129136937
 20
198.1931697708
 11
-73.5983929216
 21
197.4733123402
  0
LINE
  5
243
100
AcDbEntity
  8
0
100
AcDbLine
 62
7
  6
CONTINUOUS
 10
-61.6888030393
 20
177.4675928377
 11
-71.2600672095
 21
182.9957772677
  0
LINE
  5
244
100
AcDbEntity
  8
0
100
AcDbLine
 62
7
  6
CONTINUOUS
 10
5.8636383321
 20
140.3632553808
 11
21.3144423564
 21
131.4391579242
  0
LINE
  5
245
100
AcDbEntity
  8
0
100
AcDbLine
 62
7
  6
CONTINUOUS
 10
-4.5647340969
 20
149.9164720593
 11
3.8153237008
 21
145.0763063073
  0
LINE
  5
246
100
AcDbEntity
  8
0
100
AcDbLine
 62
7
  6
CONTINUOUS
 10
-73.5983929216
 20
197.4733123402
 11
-71.9093463033
 21
196.4977503819
  0
LINE
  5
247
100
AcDbEntity
  8
0
100
AcDbLine
 62
7
  6
CONTINUOUS
 10
3.3195198917
 20
163.5166359546
 11
33.9377906545
 21
145.8320913957
  0
LINE
  5
248
100
AcDbEntity
  8
0
100
AcDbLine
 62
7
  6
CONTINUOUS
 10
-66.0890886248
 20
205.4125792707
 11
-67.778135243
 21
206.3881412289
  0
LINE
  5
249
100
AcDbEntity
  8
0
100
AcDbLine
 62
7
  6
CONTINUOUS
 10
-60.3796824311
 20
202.5710652381
 11
-50.8084182608
 21
197.0428808081
  0
LINE
  5
24A
100
AcDbEntity
  8
0
100
AcDbLine
 62
7
  6
CONTINUOUS
 10
6.0701399099
 20
166.6127274873
 11
16.3758065792
 21
160.660365813
  0
LINE
  5
24B
100
AcDbEntity
  8
0
100
AcDbLine
 62
7
  6
CONTINUOUS
 10
-49.0990327558
 20
199.2588302281
 11
-58.670296926
 21
204.7870146581
  0
LINE
  5
24C
100
AcDbEntity
  8
0
100
AcDbLine
 62
7
  6
CONTINUOUS
 10
23.1581979349
 20
163.6063453078
 11
38.9392918515
 21
154.4914785435
  0
LINE
  5
24D
100
AcDbEntity
  8
0
100
AcDbLine
 62
7
  6
CONTINUOUS
 10
14.5058901164
 20
173.2885561871
 11
21.3773077762
 21
169.3197529608
  0
LINE
  5
24E
100
AcDbEntity
  8
0
100
AcDbLine
 62
7
  6
CONTINUOUS
 10
-23.4204164356
 20
204.4705259589
 11
-21.0691567027
 21
203.1124820041
  0
LINE
  5
24F
100
AcDbEntity
  8
0
100
AcDbLine
 62
7
  6
CONTINUOUS
 10
-42.8872315471
 20
219.7766956407
 11
-33.3159673768
 21
214.2485112107
  0
LINE
  5
250
100
AcDbEntity
  8
0
100
AcDbLine
 62
7
  6
CONTINUOUS
 10
-32.0686249147
 20
111.2503023161
 11
-32.0686249147
 21
112.9232195437
  0
LINE
  5
251
100
AcDbEntity
  8
0
100
AcDbLine
 62
7
  6
CONTINUOUS
 10
-60.1992654208
 20
242.7114493317
 11
-60.2522093943
 21
242.7325076067
  0
LINE
  5
252
100
AcDbEntity
  8
0
100
AcDbLine
 62
7
  6
CONTINUOUS
 10
-68.8922018325
 20
247.1279245706
 11
-68.9451319148
 21
247.1489790703
  0
LINE
  5
253
100
AcDbEntity
  8
0
100
AcDbLine
 62
7
  6
CONTINUOUS
 10
-95.4118142089
 20
260.6013774714
 11
-89.1756885717
 21
257.433092251
  0
LINE
  5
254
100
AcDbEntity
  8
0
100
AcDbLine
 62
7
  6
CONTINUOUS
 10
-86.3285395289
 20
255.9864711237
 11
-80.4827526665
 21
253.0166160682
  0
LINE
  5
255
100
AcDbEntity
  8
0
100
AcDbLine
 62
7
  6
CONTINUOUS
 10
-77.6356173544
 20
251.570002209
 11
-71.7898167614
 21
248.6001398853
  0
LINE
  5
256
100
AcDbEntity
  8
0
100
AcDbLine
 62
7
  6
CONTINUOUS
 10
-68.9426944682
 20
247.1535329151
 11
-63.0968808563
 21
244.1836637025
  0
LINE
  5
257
100
AcDbEntity
  8
0
100
AcDbLine
 62
7
  6
CONTINUOUS
 10
-60.2497708959
 20
242.7370632553
 11
-34.5039691968
 21
229.6569359411
  0
LINE
  5
258
100
AcDbEntity
  8
0
100
AcDbLine
 62
7
  6
CONTINUOUS
 10
-31.1320078087
 20
215.7301958815
 11
-40.7032719789
 21
221.2583803115
  0
LINE
  5
259
100
AcDbEntity
  8
0
100
AcDbLine
 62
7
  6
CONTINUOUS
 10
43.2802310532
 20
177.9559210975
 11
3.8691432934
 21
200.7190334563
  0
LINE
  5
25A
100
AcDbEntity
  8
0
100
AcDbLine
 62
7
  6
CONTINUOUS
 10
-30.3795795834
 20
110.5134870557
 11
-30.3795782964
 21
110.2747448126
  0
LINE
  5
25B
100
AcDbEntity
  8
0
100
AcDbLine
 62
7
  6
CONTINUOUS
 10
-77.5851382905
 20
251.5443997231
 11
-77.6380537105
 21
251.5654502366
  0
LINE
  5
25C
100
AcDbEntity
  8
0
100
AcDbLine
 62
7
  6
CONTINUOUS
 10
-86.2780747954
 20
255.9608747883
 11
-86.3309747537
 21
255.9819210967
  0
LINE
  5
25D
100
AcDbEntity
  8
0
100
AcDbLine
 62
7
  6
CONTINUOUS
 10
6.7447291578
 20
206.7376757652
 11
4.3800638922
 21
208.1034625067
  0
LINE
  5
25E
100
AcDbEntity
  8
0
100
AcDbLine
 62
7
  6
CONTINUOUS
 10
-96.7440908544
 20
267.6657123753
 11
-101.5297229396
 21
270.4298045903
  0
LINE
  5
25F
100
AcDbEntity
  8
0
100
AcDbLine
 62
7
  6
CONTINUOUS
 10
-22.4203546295
 20
229.3804112584
 11
-12.8490904593
 21
223.8522268284
  0
LINE
  5
260
100
AcDbEntity
  8
0
100
AcDbLine
 62
7
  6
CONTINUOUS
 10
-10.5230448747
 20
224.3740736904
 11
-20.0943090449
 21
229.9022581204
  0
LINE
  5
261
100
AcDbEntity
  8
0
100
AcDbLine
 62
7
  6
CONTINUOUS
 10
-21.0691567027
 20
203.1124820041
 11
-23.154755581
 21
211.2118188899
  0
LINE
  5
262
100
AcDbEntity
  8
0
100
AcDbLine
 62
7
  6
CONTINUOUS
 10
-24.6638862471
 20
210.2174281613
 11
-23.4204164356
 21
204.4705259589
  0
LINE
  5
263
100
AcDbEntity
  8
0
100
AcDbLine
 62
7
  6
CONTINUOUS
 10
-23.8842343998
 20
117.0455093892
 11
-25.9698332781
 21
107.8280600753
  0
LINE
  5
264
100
AcDbEntity
  8
0
100
AcDbLine
 62
7
  6
CONTINUOUS
 10
-2.0949481564
 20
229.9201334465
 11
7.4763160138
 21
224.3919490165
  0
LINE
  5
265
100
AcDbEntity
  8
0
100
AcDbLine
 62
7
  6
CONTINUOUS
 10
9.5903282603
 20
223.8745116155
 11
0.0190640901
 21
229.4026960455
  0
LINE
  5
266
100
AcDbEntity
  8
0
100
AcDbLine
 62
7
  6
CONTINUOUS
 10
18.4813386115
 20
220.1681104811
 11
22.1409396178
 21
218.0543929049
  0
LINE
  5
267
100
AcDbEntity
  8
0
100
AcDbLine
 62
7
  6
CONTINUOUS
 10
-23.154755581
 20
106.2021234783
 11
-21.0691567027
 21
115.4195727921
  0
LINE
  5
268
100
AcDbEntity
  8
0
100
AcDbLine
 62
7
  6
CONTINUOUS
 10
2.9172693755
 20
218.2005681241
 11
0.8316704971
 21
208.9831188102
  0
LINE
  5
269
100
AcDbEntity
  8
0
100
AcDbLine
 62
7
  6
CONTINUOUS
 10
19.7933884856
 20
102.9195388355
 11
19.7933884856
 21
105.2167305119
  0
LINE
  5
26A
100
AcDbEntity
  8
0
100
AcDbLine
 62
7
  6
CONTINUOUS
 10
26.4049589611
 20
106.9889982269
 11
26.4049589611
 21
104.6918065506
  0
LINE
  5
26B
100
AcDbEntity
  8
0
100
AcDbLine
 62
7
  6
CONTINUOUS
 10
2.8107118869
 20
108.2604222973
 11
2.7038079581
 21
108.1984473865
  0
LINE
  5
26C
100
AcDbEntity
  8
0
100
AcDbLine
 62
7
  6
CONTINUOUS
 10
2.8360543733
 20
108.1547035464
 11
2.7281712869
 21
108.0958486259
  0
LINE
  5
26D
100
AcDbEntity
  8
0
100
AcDbLine
 62
7
  6
CONTINUOUS
 10
43.0927141025
 20
178.0642274057
 11
43.0998629275
 21
177.9449431051
  0
LINE
  5
26E
100
AcDbEntity
  8
0
100
AcDbLine
 62
7
  6
CONTINUOUS
 10
43.1675619904
 20
178.0865435472
 11
43.1704049869
 21
177.9658144673
  0
ARC
  5
26F
100
AcDbEntity
  8
0
100
AcDbCircle
 62
7
  6
CONTINUOUS
 10
-130.0531178625
 20
214.1005752336
 40
33.3911830339
100
AcDbArc
 50
271.0947157187
 51
272.3371363705
  0
ARC
  5
270
100
AcDbEntity
  8
0
100
AcDbCircle
 62
7
  6
CONTINUOUS
 10
-130.815344769
 20
208.6665745949
 40
27.8696012556
100
AcDbArc
 50
228.8612456173
 51
239.9801831335
  0
ARC
  5
271
100
AcDbEntity
  8
0
100
AcDbCircle
 62
7
  6
CONTINUOUS
 10
-98.8420751753
 20
192.4259608777
 40
25.9836977486
100
AcDbArc
 50
229.4968153874
 51
229.8149093209
  0
ARC
  5
272
100
AcDbEntity
  8
0
100
AcDbCircle
 62
7
  6
CONTINUOUS
 10
-98.9750866858
 20
192.2650195396
 40
25.7749176002
100
AcDbArc
 50
229.8099458957
 51
236.8992482851
  0
ARC
  5
273
100
AcDbEntity
  8
0
100
AcDbCircle
 62
7
  6
CONTINUOUS
 10
-107.1762389397
 20
197.4953285374
 40
25.6813649961
100
AcDbArc
 50
229.410756242
 51
229.8116504087
  0
ARC
  5
274
100
AcDbEntity
  8
0
100
AcDbCircle
 62
7
  6
CONTINUOUS
 10
-107.3112666912
 20
197.3320725174
 40
25.4695156397
100
AcDbArc
 50
229.8067055656
 51
236.8992266039
  0
ARC
  5
275
100
AcDbEntity
  8
0
100
AcDbCircle
 62
7
  6
CONTINUOUS
 10
-101.8959676157
 20
193.7457706868
 40
25.4210219346
100
AcDbArc
 50
236.9112931462
 51
241.352951811
  0
ARC
  5
276
100
AcDbEntity
  8
0
100
AcDbCircle
 62
7
  6
CONTINUOUS
 10
-115.5103857908
 20
202.5647109026
 40
25.3790543933
100
AcDbArc
 50
229.3226158075
 51
229.8083002537
  0
ARC
  5
277
100
AcDbEntity
  8
0
100
AcDbCircle
 62
7
  6
CONTINUOUS
 10
-115.6474465931
 20
202.3991255761
 40
25.1641138075
100
AcDbArc
 50
229.8033806176
 51
236.8992042999
  0
ARC
  5
278
100
AcDbEntity
  8
0
100
AcDbCircle
 62
7
  6
CONTINUOUS
 10
-110.2307219642
 20
198.8149126995
 40
25.1181484009
100
AcDbArc
 50
236.9112944878
 51
241.4073637695
  0
ARC
  5
279
100
AcDbEntity
  8
0
100
AcDbCircle
 62
7
  6
CONTINUOUS
 10
-118.5654731466
 20
203.884060157
 40
24.8152811623
100
AcDbArc
 50
236.9112966008
 51
241.4631592633
  0
ARC
  5
27A
100
AcDbEntity
  8
0
100
AcDbCircle
 62
7
  6
CONTINUOUS
 10
-122.2217295652
 20
224.1388700802
 40
65.4969092113
100
AcDbArc
 50
321.0848760217
 51
330.9392801631
  0
ARC
  5
27B
100
AcDbEntity
  8
0
100
AcDbCircle
 62
7
  6
CONTINUOUS
 10
-121.5386535948
 20
223.8213002634
 40
64.7455963169
100
AcDbArc
 50
330.891311923
 51
340.8397566379
  0
ARC
  5
27C
100
AcDbEntity
  8
0
100
AcDbCircle
 62
7
  6
CONTINUOUS
 10
-115.2919033998
 20
234.7738734715
 40
39.5682635276
100
AcDbArc
 50
105.0060041511
 51
105.4906657145
  0
ARC
  5
27D
100
AcDbEntity
  8
0
100
AcDbCircle
 62
7
  6
CONTINUOUS
 10
-115.0050776564
 20
240.153846962
 40
33.3914911743
100
AcDbArc
 50
27.3611558354
 51
28.9101861214
  0
ARC
  5
27E
100
AcDbEntity
  8
0
100
AcDbCircle
 62
7
  6
CONTINUOUS
 10
-115.6752856861
 20
245.7317504941
 40
28.4697911734
100
AcDbArc
 50
70.6381944824
 51
73.4207754482
  0
ARC
  5
27F
100
AcDbEntity
  8
0
100
AcDbCircle
 62
7
  6
CONTINUOUS
 10
-110.72601022
 20
243.4263628369
 40
27.982834415
100
AcDbArc
 50
60.0224766084
 51
71.250741722
  0
ARC
  5
280
100
AcDbEntity
  8
0
100
AcDbCircle
 62
7
  6
CONTINUOUS
 10
-115.472958763
 20
246.2713591314
 40
27.8936253782
100
AcDbArc
 50
61.6663650165
 51
70.6628155462
  0
ARC
  5
281
100
AcDbEntity
  8
0
100
AcDbCircle
 62
7
  6
CONTINUOUS
 10
-115.3752361988
 20
246.4605002502
 40
27.6807642113
100
AcDbArc
 50
59.98775867
 51
61.6585987783
  0
ARC
  5
282
100
AcDbEntity
  8
0
100
AcDbCircle
 62
7
  6
CONTINUOUS
 10
-97.6525784152
 20
233.5640349106
 40
25.1197034701
100
AcDbArc
 50
63.2047816505
 51
70.5885460251
  0
ARC
  5
283
100
AcDbEntity
  8
0
100
AcDbCircle
 62
7
  6
CONTINUOUS
 10
-100.4043204292
 20
235.3301978822
 40
24.7914953849
100
AcDbArc
 50
59.160053213
 51
63.0686875304
  0
ARC
  5
284
100
AcDbEntity
  8
0
100
AcDbCircle
 62
7
  6
CONTINUOUS
 10
-62.7734873706
 20
192.6120586074
 40
58.5272210348
100
AcDbArc
 50
144.0811276743
 51
151.1110718952
  0
ARC
  5
285
100
AcDbEntity
  8
0
100
AcDbCircle
 62
7
  6
CONTINUOUS
 10
-68.6397511192
 20
196.001654101
 40
57.9887982782
100
AcDbArc
 50
143.621325878
 51
154.1735917513
  0
ARC
  5
286
100
AcDbEntity
  8
0
100
AcDbCircle
 62
7
  6
CONTINUOUS
 10
-68.7743412527
 20
196.0631316972
 40
57.8408688905
100
AcDbArc
 50
154.1703262573
 51
154.4696164916
  0
ARC
  5
287
100
AcDbEntity
  8
0
100
AcDbCircle
 62
7
  6
CONTINUOUS
 10
-68.8101858144
 20
196.0802692895
 40
57.801138179
100
AcDbArc
 50
154.4696319434
 51
154.6258916708
  0
ARC
  5
288
100
AcDbEntity
  8
0
100
AcDbCircle
 62
7
  6
CONTINUOUS
 10
-68.8375382442
 20
196.0932407357
 40
57.7708658512
100
AcDbArc
 50
154.6258905074
 51
154.7917324212
  0
ARC
  5
289
100
AcDbEntity
  8
0
100
AcDbCircle
 62
7
  6
CONTINUOUS
 10
-63.1221000541
 20
192.819453119
 40
57.7416180313
100
AcDbArc
 50
143.8806242255
 51
151.1028068446
  0
ARC
  5
28A
100
AcDbEntity
  8
0
100
AcDbCircle
 62
7
  6
CONTINUOUS
 10
-63.5777715422
 20
193.1816324552
 40
57.5417393973
100
AcDbArc
 50
141.0877745717
 51
144.0706167217
  0
ARC
  5
28B
100
AcDbEntity
  8
0
100
AcDbCircle
 62
7
  6
CONTINUOUS
 10
-63.691969691
 20
193.0590834572
 40
57.5070967913
100
AcDbArc
 50
151.0589294064
 51
161.6052833363
  0
ARC
  5
28C
100
AcDbEntity
  8
0
100
AcDbCircle
 62
7
  6
CONTINUOUS
 10
-63.5287946322
 20
193.0209379944
 40
57.288199815
100
AcDbArc
 50
151.0826709291
 51
161.6227231794
  0
ARC
  5
28D
100
AcDbEntity
  8
0
100
AcDbCircle
 62
7
  6
CONTINUOUS
 10
-71.9094407419
 20
197.8748329714
 40
56.9581048401
100
AcDbArc
 50
153.202001241
 51
155.3351086062
  0
ARC
  5
28E
100
AcDbEntity
  8
0
100
AcDbCircle
 62
7
  6
CONTINUOUS
 10
-63.8925670227
 20
193.3783146825
 40
56.7898102493
100
AcDbArc
 50
140.8554323302
 51
143.877876243
  0
ARC
  5
28F
100
AcDbEntity
  8
0
100
AcDbCircle
 62
7
  6
CONTINUOUS
 10
-64.368091754
 20
193.8215543112
 40
56.5248304976
100
AcDbArc
 50
137.0765029388
 51
141.0893010326
  0
ARC
  5
290
100
AcDbEntity
  8
0
100
AcDbCircle
 62
7
  6
CONTINUOUS
 10
-62.3061891919
 20
192.9029347675
 40
55.6266780982
100
AcDbArc
 50
136.9162738431
 51
137.1293863367
  0
ARC
  5
291
100
AcDbEntity
  8
0
100
AcDbCircle
 62
7
  6
CONTINUOUS
 10
-64.8059853208
 20
194.1349427579
 40
55.60376089
100
AcDbArc
 50
137.2351299523
 51
140.8659273699
  0
ARC
  5
292
100
AcDbEntity
  8
0
100
AcDbCircle
 62
7
  6
CONTINUOUS
 10
-65.2339323137
 20
194.605570184
 40
55.3568775905
100
AcDbArc
 50
136.8017536733
 51
136.9947044167
  0
ARC
  5
293
100
AcDbEntity
  8
0
100
AcDbCircle
 62
7
  6
CONTINUOUS
 10
-65.5614591308
 20
194.9166694492
 40
54.9051588545
100
AcDbArc
 50
134.7046646328
 51
136.804454248
  0
ARC
  5
294
100
AcDbEntity
  8
0
100
AcDbCircle
 62
7
  6
CONTINUOUS
 10
-65.4174903029
 20
194.6946631557
 40
54.7747814705
100
AcDbArc
 50
136.8481219461
 51
137.1291983679
  0
ARC
  5
295
100
AcDbEntity
  8
0
100
AcDbCircle
 62
7
  6
CONTINUOUS
 10
-66.0950676757
 20
195.4533778231
 40
54.1483292862
100
AcDbArc
 50
133.5064522781
 51
134.7028560514
  0
ARC
  5
296
100
AcDbEntity
  8
0
100
AcDbCircle
 62
7
  6
CONTINUOUS
 10
-65.9450293299
 20
195.1998502065
 40
54.0443933559
100
AcDbArc
 50
134.055989882
 51
136.7683315632
  0
ARC
  5
297
100
AcDbEntity
  8
0
100
AcDbCircle
 62
7
  6
CONTINUOUS
 10
-63.4947221024
 20
194.0677150772
 40
53.9630173248
100
AcDbArc
 50
130.8964747843
 51
136.9575315243
  0
ARC
  5
298
100
AcDbEntity
  8
0
100
AcDbCircle
 62
7
  6
CONTINUOUS
 10
-66.4243103632
 20
195.6921012463
 40
53.3573586256
100
AcDbArc
 50
133.4272995812
 51
134.0536830726
  0
ARC
  5
299
100
AcDbEntity
  8
0
100
AcDbCircle
 62
7
  6
CONTINUOUS
 10
-66.8897993739
 20
196.2969588206
 40
52.989360708
100
AcDbArc
 50
129.9221823481
 51
133.5111399593
  0
ARC
  5
29A
100
AcDbEntity
  8
0
100
AcDbCircle
 62
7
  6
CONTINUOUS
 10
-75.1502502962
 20
200.8261498637
 40
52.959560219
100
AcDbArc
 50
128.7834021935
 51
136.2847294684
  0
ARC
  5
29B
100
AcDbEntity
  8
0
100
AcDbCircle
 62
7
  6
CONTINUOUS
 10
-76.420624793
 20
202.1601334756
 40
50.7260748141
100
AcDbArc
 50
128.6283666569
 51
132.5906105456
  0
ARC
  5
29C
100
AcDbEntity
  8
0
100
AcDbCircle
 62
7
  6
CONTINUOUS
 10
-90.5078950397
 20
187.3566075228
 40
26.286051994
100
AcDbArc
 50
229.5808657752
 51
229.8180775839
  0
ARC
  5
29D
100
AcDbEntity
  8
0
100
AcDbCircle
 62
7
  6
CONTINUOUS
 10
-90.6389064938
 20
187.1979667572
 40
26.0803198305
100
AcDbArc
 50
229.8131016949
 51
236.8992693498
  0
ARC
  5
29E
100
AcDbEntity
  8
0
100
AcDbCircle
 62
7
  6
CONTINUOUS
 10
-93.5612102507
 20
188.6766338501
 40
25.7239014563
100
AcDbArc
 50
236.9112925016
 51
241.2998739152
  0
ARC
  5
29F
100
AcDbEntity
  8
0
100
AcDbCircle
 62
7
  6
CONTINUOUS
 10
-64.6152447653
 20
202.4231006017
 40
3.5331652382
100
AcDbArc
 50
118.3168005104
 51
120.1026706764
  0
ARC
  5
2A0
100
AcDbEntity
  8
0
100
AcDbCircle
 62
7
  6
CONTINUOUS
 10
-71.9846167686
 20
219.5061395464
 40
26.0265714996
100
AcDbArc
 50
63.1998783534
 51
70.3251925077
  0
ARC
  5
2A1
100
AcDbEntity
  8
0
100
AcDbCircle
 62
7
  6
CONTINUOUS
 10
-80.5406012906
 20
224.1921123557
 40
25.7242740766
100
AcDbArc
 50
63.2014737607
 51
70.4109100602
  0
ARC
  5
2A2
100
AcDbEntity
  8
0
100
AcDbCircle
 62
7
  6
CONTINUOUS
 10
-74.7358128316
 20
221.2730273342
 40
25.6974704171
100
AcDbArc
 50
59.2689926177
 51
63.0687790317
  0
ARC
  5
2A3
100
AcDbEntity
  8
0
100
AcDbCircle
 62
7
  6
CONTINUOUS
 10
-89.0965884885
 20
228.8780775414
 40
25.421984668
100
AcDbArc
 50
63.2031077211
 51
70.4986700249
  0
ARC
  5
2A4
100
AcDbEntity
  8
0
100
AcDbCircle
 62
7
  6
CONTINUOUS
 10
-83.2919788655
 20
225.9587565985
 40
25.3954721812
100
AcDbArc
 50
59.2335510206
 51
63.0687497497
  0
ARC
  5
2A5
100
AcDbEntity
  8
0
100
AcDbCircle
 62
7
  6
CONTINUOUS
 10
-91.8481480441
 20
230.6444801464
 40
25.0934804661
100
AcDbArc
 50
59.1972477354
 51
63.0687192728
  0
ARC
  5
2A6
100
AcDbEntity
  8
0
100
AcDbCircle
 62
7
  6
CONTINUOUS
 10
17.047446248
 20
146.5156419317
 40
84.6015379098
100
AcDbArc
 50
143.3276731552
 51
158.539749457
  0
ARC
  5
2A7
100
AcDbEntity
  8
0
100
AcDbCircle
 62
7
  6
CONTINUOUS
 10
6.3982093828
 20
152.8258210495
 40
83.2698994504
100
AcDbArc
 50
141.390488695
 51
143.3162538029
  0
ARC
  5
2A8
100
AcDbEntity
  8
0
100
AcDbCircle
 62
7
  6
CONTINUOUS
 10
5.5058840712
 20
152.8745502748
 40
82.4639290333
100
AcDbArc
 50
158.5760780161
 51
160.5137489099
  0
ARC
  5
2A9
100
AcDbEntity
  8
0
100
AcDbCircle
 62
7
  6
CONTINUOUS
 10
-6.1527102751
 20
159.9243306289
 40
75.2432735477
100
AcDbArc
 50
142.8036020272
 51
150.9174684497
  0
ARC
  5
2AA
100
AcDbEntity
  8
0
100
AcDbCircle
 62
7
  6
CONTINUOUS
 10
-2.6926407977
 20
162.8814410119
 40
69.6611450148
100
AcDbArc
 50
123.069120451
 51
125.2399249205
  0
ARC
  5
2AB
100
AcDbEntity
  8
0
100
AcDbCircle
 62
7
  6
CONTINUOUS
 10
-8.6667902332
 20
155.5192246745
 40
67.9889405289
100
AcDbArc
 50
176.8947669297
 51
179.0974217128
  0
ARC
  5
2AC
100
AcDbEntity
  8
0
100
AcDbCircle
 62
7
  6
CONTINUOUS
 10
-0.7070795952
 20
150.0250690357
 40
66.3770514807
100
AcDbArc
 50
179.1048786746
 51
179.9990626752
  0
ARC
  5
2AD
100
AcDbEntity
  8
0
100
AcDbCircle
 62
7
  6
CONTINUOUS
 10
2.1860640836
 20
165.9458127859
 40
59.8569080531
100
AcDbArc
 50
112.4972109978
 51
113.9552380447
  0
ARC
  5
2AE
100
AcDbEntity
  8
0
100
AcDbCircle
 62
7
  6
CONTINUOUS
 10
-0.1086237305
 20
172.6207395416
 40
52.7919007243
100
AcDbArc
 50
103.9652720164
 51
105.0069338945
  0
ARC
  5
2AF
100
AcDbEntity
  8
0
100
AcDbCircle
 62
7
  6
CONTINUOUS
 10
-10.0285038905
 20
179.5907018953
 40
51.3086067166
100
AcDbArc
 50
101.3137583191
 51
103.9760346626
  0
ARC
  5
2B0
100
AcDbEntity
  8
0
100
AcDbCircle
 62
7
  6
CONTINUOUS
 10
-7.5197853352
 20
156.9372646803
 40
50.4502129274
100
AcDbArc
 50
174.0927669322
 51
179.9375309235
  0
ARC
  5
2B1
100
AcDbEntity
  8
0
100
AcDbCircle
 62
7
  6
CONTINUOUS
 10
-26.5656911842
 20
152.9510812327
 40
49.7999207343
100
AcDbArc
 50
198.6465386087
 51
201.3568763369
  0
ARC
  5
2B2
100
AcDbEntity
  8
0
100
AcDbCircle
 62
7
  6
CONTINUOUS
 10
-36.7472307091
 20
177.5815626709
 40
48.4600475924
100
AcDbArc
 50
320.6259823965
 51
339.344820176
  0
ARC
  5
2B3
100
AcDbEntity
  8
0
100
AcDbCircle
 62
7
  6
CONTINUOUS
 10
-35.3306287985
 20
176.7632981747
 40
46.1446650113
100
AcDbArc
 50
320.1526572121
 51
339.823176222
  0
ARC
  5
2B4
100
AcDbEntity
  8
0
100
AcDbCircle
 62
7
  6
CONTINUOUS
 10
-8.4127338922
 20
156.8393331253
 40
41.2462887301
100
AcDbArc
 50
179.5561467795
 51
179.9997250922
  0
ARC
  5
2B5
100
AcDbEntity
  8
0
100
AcDbCircle
 62
7
  6
CONTINUOUS
 10
-28.6208512897
 20
151.4199281714
 40
41.1827586426
100
AcDbArc
 50
267.5524146031
 51
274.4942617624
  0
ARC
  5
2B6
100
AcDbEntity
  8
0
100
AcDbCircle
 62
7
  6
CONTINUOUS
 10
-9.1542499846
 20
157.1770467254
 40
40.6659288609
100
AcDbArc
 50
179.9997592554
 51
180.4953496822
  0
ARC
  5
2B7
100
AcDbEntity
  8
0
100
AcDbCircle
 62
7
  6
CONTINUOUS
 10
-28.5631775006
 20
150.9502870253
 40
40.4775806051
100
AcDbArc
 50
267.4280312084
 51
274.5743815927
  0
ARC
  5
2B8
100
AcDbEntity
  8
0
100
AcDbCircle
 62
7
  6
CONTINUOUS
 10
-36.1739163066
 20
147.2409888833
 40
38.5310140964
100
AcDbArc
 50
225.3051090291
 51
228.5228149626
  0
ARC
  5
2B9
100
AcDbEntity
  8
0
100
AcDbCircle
 62
7
  6
CONTINUOUS
 10
-27.2039900999
 20
141.0249102203
 40
37.6173514344
100
AcDbArc
 50
228.5150878874
 51
239.9553614373
  0
ARC
  5
2BA
100
AcDbEntity
  8
0
100
AcDbCircle
 62
7
  6
CONTINUOUS
 10
-23.685340973
 20
138.7038077903
 40
37.3671803436
100
AcDbArc
 50
233.5136537116
 51
239.9832381382
  0
ARC
  5
2BB
100
AcDbEntity
  8
0
100
AcDbCircle
 62
7
  6
CONTINUOUS
 10
-17.906794958
 20
155.8494855239
 40
31.7806723853
100
AcDbArc
 50
196.8638066339
 51
198.5477659809
  0
ARC
  5
2BC
100
AcDbEntity
  8
0
100
AcDbCircle
 62
7
  6
CONTINUOUS
 10
-7.1430509444
 20
182.433572762
 40
28.0027628975
100
AcDbArc
 50
72.8646167829
 51
73.3205314853
  0
ARC
  5
2BD
100
AcDbEntity
  8
0
100
AcDbCircle
 62
7
  6
CONTINUOUS
 10
-7.0400754305
 20
182.7553227208
 40
27.6649555238
100
AcDbArc
 50
65.7221086046
 51
72.8720875117
  0
ARC
  5
2BE
100
AcDbEntity
  8
0
100
AcDbCircle
 62
7
  6
CONTINUOUS
 10
-26.6557385353
 20
148.9036054413
 40
27.2139768522
100
AcDbArc
 50
234.2514905283
 51
239.9838375776
  0
ARC
  5
2BF
100
AcDbEntity
  8
0
100
AcDbCircle
 62
7
  6
CONTINUOUS
 10
-6.8539175692
 20
183.1902799775
 40
27.1919253959
100
AcDbArc
 50
59.9935194565
 51
65.7028419296
  0
ARC
  5
2C0
100
AcDbEntity
  8
0
100
AcDbCircle
 62
7
  6
CONTINUOUS
 10
-9.2175116849
 20
184.5606799777
 40
27.1873956244
100
AcDbArc
 50
59.9906122486
 51
67.8606955351
  0
ARC
  5
2C1
100
AcDbEntity
  8
0
100
AcDbCircle
 62
7
  6
CONTINUOUS
 10
-7.8484629854
 20
180.4132267888
 40
23.4443335477
100
AcDbArc
 50
61.7422524631
 51
68.0563523879
  0
ARC
  5
2C2
100
AcDbEntity
  8
0
100
AcDbCircle
 62
7
  6
CONTINUOUS
 10
-24.7706096214
 20
151.1191435419
 40
23.4254573119
100
AcDbArc
 50
231.9153239996
 51
238.6796008552
  0
ARC
  5
2C3
100
AcDbEntity
  8
0
100
AcDbCircle
 62
7
  6
CONTINUOUS
 10
-24.8429491024
 20
151.0094309833
 40
23.2941294869
100
AcDbArc
 50
238.6913250515
 51
239.9916633039
  0
ARC
  5
2C4
100
AcDbEntity
  8
0
100
AcDbCircle
 62
7
  6
CONTINUOUS
 10
-7.7708897259
 20
180.5677046244
 40
23.2715403057
100
AcDbArc
 50
59.9879363891
 51
61.2812573477
  0
ARC
  5
2C5
100
AcDbEntity
  8
0
100
AcDbCircle
 62
7
  6
CONTINUOUS
 10
-7.7654663736
 20
180.5775200127
 40
23.2603263407
100
AcDbArc
 50
61.2813554446
 51
61.73073152
  0
ARC
  5
2C6
100
AcDbEntity
  8
0
100
AcDbCircle
 62
7
  6
CONTINUOUS
 10
-19.189623226
 20
122.7644975511
 40
6.6469826176
100
AcDbArc
 50
239.160240736
 51
239.9908486155
  0
ARC
  5
2C7
100
AcDbEntity
  8
0
100
AcDbCircle
 62
7
  6
CONTINUOUS
 10
-10.3310305217
 20
191.6941111903
 40
39.1032202031
100
AcDbArc
 50
74.651674407
 51
77.8410687007
  0
ARC
  5
2C8
100
AcDbEntity
  8
0
100
AcDbCircle
 62
7
  6
CONTINUOUS
 10
-0.3498937854
 20
187.5121710917
 40
37.696522687
100
AcDbArc
 50
60.029857427
 51
74.7108321547
  0
ARC
  5
2C9
100
AcDbEntity
  8
0
100
AcDbCircle
 62
7
  6
CONTINUOUS
 10
3.4553461043
 20
185.692725837
 40
37.3687992777
100
AcDbArc
 50
59.9979069106
 51
66.4580424743
  0
ARC
  5
2CA
100
AcDbEntity
  8
0
100
AcDbCircle
 62
7
  6
CONTINUOUS
 10
3.4790670914
 20
185.7489910426
 40
37.3082127366
100
AcDbArc
 50
54.9376017276
 51
59.986247807
  0
SPLINE
  5
2CB
100
AcDbEntity
  8
0
100
AcDbSpline
 62
7
  6
CONTINUOUS
 70
0
 71
3
 72
13
 73
9
 74
0
 42
0.0000001
 43
0.0000001
 44
0.0000000001
 40
0.0
 40
0.0
 40
0.0
 40
0.0
 40
0.2434265011
 40
0.3698911825
 40
0.4978882868
 40
0.6261706649
 40
0.7534730478
 40
1.0
 40
1.0
 40
1.0
 40
1.0
 10
-66.3873075468
 20
205.4797409304
 30
0.0
 10
-66.6805727106
 20
205.3097570478
 30
0.0
 10
-67.0915371206
 20
204.9869971922
 30
0.0
 10
-67.5521119392
 20
204.4675898882
 30
0.0
 10
-67.8573132258
 20
204.0290455033
 30
0.0
 10
-68.110114432
 20
203.5570438034
 30
0.0
 10
-68.3667285443
 20
202.90567009
 30
0.0
 10
-68.4707710173
 20
202.3882721996
 30
0.0
 10
-68.4923365133
 20
202.0456654079
 30
0.0
  0
SPLINE
  5
2CC
100
AcDbEntity
  8
0
100
AcDbSpline
 62
7
  6
CONTINUOUS
 70
0
 71
3
 72
22
 73
18
 74
0
 42
0.0000001
 43
0.0000001
 44
0.0000000001
 40
0.0
 40
0.0
 40
0.0
 40
0.0
 40
0.0535821212
 40
0.1076264909
 40
0.1629117543
 40
0.2200602048
 40
0.2794706688
 40
0.3412882155
 40
0.4054102142
 40
0.4715157477
 40
0.5391100976
 40
0.6075758006
 40
0.7441019331
 40
0.8110592407
 40
0.876274666
 40
0.9393270338
 40
1.0
 40
1.0
 40
1.0
 40
1.0
 10
-163.2678048438
 20
204.5916598818
 30
0.0
 10
-164.7724085472
 20
205.2821085547
 30
0.0
 10
-167.658255323
 20
206.9916114743
 30
0.0
 10
-171.3839391815
 20
210.4266229252
 30
0.0
 10
-174.4095775072
 20
214.6271965458
 30
0.0
 10
-176.6606644418
 20
219.467624251
 30
0.0
 10
-178.0928832056
 20
224.8156205172
 30
0.0
 10
-178.6826677412
 20
230.5339007557
 30
0.0
 10
-178.4251645852
 20
236.4813357078
 30
0.0
 10
-177.3335340169
 20
242.5126233784
 30
0.0
 10
-175.4377095323
 20
248.4824908687
 30
0.0
 10
-171.912349725
 20
256.1476700677
 30
0.0
 10
-167.0240236585
 20
263.1064064698
 30
0.0
 10
-161.0513561187
 20
268.8977430279
 30
0.0
 10
-156.1920726469
 20
272.5042454393
 30
0.0
 10
-151.0473917851
 20
275.30285881
 30
0.0
 10
-147.4334927553
 20
276.6065550585
 30
0.0
 10
-145.6228184699
 20
277.0916865329
 30
0.0
  0
SPLINE
  5
2CD
100
AcDbEntity
  8
0
100
AcDbSpline
 62
7
  6
CONTINUOUS
 70
0
 71
3
 72
13
 73
9
 74
0
 42
0.0000001
 43
0.0000001
 44
0.0000000001
 40
0.0
 40
0.0
 40
0.0
 40
0.0
 40
0.2619835884
 40
0.5134786858
 40
0.6364628925
 40
0.7581522884
 40
0.8791287178
 40
1.0
 40
1.0
 40
1.0
 40
1.0
 10
-145.6228184699
 20
277.0916865329
 30
0.0
 10
-143.6501657415
 20
277.6202166689
 30
0.0
 10
-139.6758980756
 20
278.3022662795
 30
0.0
 10
-134.6763700781
 20
278.1078688992
 30
0.0
 10
-130.8858263195
 20
277.3018566484
 30
0.0
 10
-128.1787295105
 20
276.3881106415
 30
0.0
 10
-125.6139394737
 20
275.1680138433
 30
0.0
 10
-124.0155660477
 20
274.1583687096
 30
0.0
 10
-123.2502085151
 20
273.6088126172
 30
0.0
  0
SPLINE
  5
2CE
100
AcDbEntity
  8
0
100
AcDbSpline
 62
7
  6
CONTINUOUS
 70
0
 71
3
 72
22
 73
18
 74
0
 42
0.0000001
 43
0.0000001
 44
0.0000000001
 40
0.0
 40
0.0
 40
0.0
 40
0.0
 40
0.0604320423
 40
0.1234376325
 40
0.1887641417
 40
0.2559571252
 40
0.3932218194
 40
0.4621334199
 40
0.5301870872
 40
0.5967258163
 40
0.6612040084
 40
0.72323878
 40
0.7826596313
 40
0.8395512236
 40
0.8942786424
 40
0.9474785423
 40
1.0
 40
1.0
 40
1.0
 40
1.0
 10
-144.745187647
 20
276.4836017861
 30
0.0
 10
-146.5167738022
 20
276.0089431409
 30
0.0
 10
-150.0589392603
 20
274.7335319856
 30
0.0
 10
-155.1133016001
 20
271.9977318596
 30
0.0
 10
-159.9061711737
 20
268.4667657895
 30
0.0
 10
-165.8249407956
 20
262.7844460409
 30
0.0
 10
-170.6989503777
 20
255.9495236233
 30
0.0
 10
-174.256250023
 20
248.4092796701
 30
0.0
 10
-176.1995878211
 20
242.5290276003
 30
0.0
 10
-177.3617164381
 20
236.5832963874
 30
0.0
 10
-177.7134710952
 20
230.71623763
 30
0.0
 10
-177.2433450304
 20
225.0719779568
 30
0.0
 10
-175.9587279432
 20
219.7893503608
 30
0.0
 10
-173.8856995347
 20
215.0006218647
 30
0.0
 10
-171.0687114475
 20
210.829196987
 30
0.0
 10
-167.5765913363
 20
207.3891981925
 30
0.0
 10
-164.8510696946
 20
205.6442093216
 30
0.0
 10
-163.4262780371
 20
204.9295241592
 30
0.0
  0
SPLINE
  5
2CF
100
AcDbEntity
  8
0
100
AcDbSpline
 62
7
  6
CONTINUOUS
 70
0
 71
3
 72
13
 73
9
 74
0
 42
0.0000001
 43
0.0000001
 44
0.0000000001
 40
0.0
 40
0.0
 40
0.0
 40
0.0
 40
0.2636087853
 40
0.5156123363
 40
0.6384121712
 40
0.7596568224
 40
0.8799656009
 40
1.0
 40
1.0
 40
1.0
 40
1.0
 10
-144.745187647
 20
276.4836017861
 30
0.0
 10
-142.8724152062
 20
276.9853711339
 30
0.0
 10
-139.1111962383
 20
277.6438674893
 30
0.0
 10
-134.3807178715
 20
277.511963918
 30
0.0
 10
-130.7932280651
 20
276.8126272809
 30
0.0
 10
-128.2310322201
 20
276.0073188793
 30
0.0
 10
-125.7966095998
 20
274.9229146506
 30
0.0
 10
-124.2715945535
 20
274.0197823769
 30
0.0
 10
-123.539185041
 20
273.5268392121
 30
0.0
  0
SPLINE
  5
2D0
100
AcDbEntity
  8
0
100
AcDbSpline
 62
7
  6
CONTINUOUS
 70
0
 71
3
 72
11
 73
7
 74
0
 42
0.0000001
 43
0.0000001
 44
0.0000000001
 40
0.0
 40
0.0
 40
0.0
 40
0.0
 40
0.2561682381
 40
0.5071957178
 40
0.754532821
 40
1.0
 40
1.0
 40
1.0
 40
1.0
 10
-25.8953109237
 20
121.5930413318
 30
0.0
 10
-27.1774883054
 20
121.5943765194
 30
0.0
 10
-29.7190372096
 20
121.749842483
 30
0.0
 10
-33.4389323205
 20
122.4592359956
 30
0.0
 10
-36.9825167532
 20
123.6355762206
 30
0.0
 10
-39.2054758761
 20
124.7249423623
 30
0.0
 10
-40.2693746565
 20
125.3394494481
 30
0.0
  0
SPLINE
  5
2D1
100
AcDbEntity
  8
0
100
AcDbSpline
 62
7
  6
CONTINUOUS
 70
0
 71
3
 72
9
 73
5
 74
0
 42
0.0000001
 43
0.0000001
 44
0.0000000001
 40
0.0
 40
0.0
 40
0.0
 40
0.0
 40
0.5099005079
 40
1.0
 40
1.0
 40
1.0
 40
1.0
 10
-49.8186590802
 20
156.8254745125
 30
0.0
 10
-49.8034706935
 20
155.0695796515
 30
0.0
 10
-49.5506725654
 20
151.623309975
 30
0.0
 10
-48.8105102254
 20
148.2451502406
 30
0.0
 10
-48.3208039722
 20
146.6299848357
 30
0.0
  0
SPLINE
  5
2D2
100
AcDbEntity
  8
0
100
AcDbSpline
 62
7
  6
CONTINUOUS
 70
0
 71
3
 72
16
 73
12
 74
0
 42
0.0000001
 43
0.0000001
 44
0.0000000001
 40
0.0
 40
0.0
 40
0.0
 40
0.0
 40
0.1114736844
 40
0.2297233301
 40
0.3541941114
 40
0.4833453917
 40
0.6149786764
 40
0.6809960286
 40
0.7466811683
 40
0.8757093944
 40
1.0
 40
1.0
 40
1.0
 40
1.0
 10
-11.7207157477
 20
203.7331785531
 30
0.0
 10
-14.1324147804
 20
203.5007345443
 30
0.0
 10
-19.0552867112
 20
202.3951409266
 30
0.0
 10
-26.0765455474
 20
199.1201680514
 30
0.0
 10
-32.6549751019
 20
194.3452270552
 30
0.0
 10
-38.4978550202
 20
188.2927440388
 30
0.0
 10
-42.5413537062
 20
182.4110044633
 30
0.0
 10
-45.188178124
 20
177.3300302763
 30
0.0
 10
-47.3873484088
 20
172.1010602764
 30
0.0
 10
-49.2749928421
 20
165.3942547359
 30
0.0
 10
-49.8201788451
 20
159.8786675518
 30
0.0
 10
-49.8201788451
 20
157.177217595
 30
0.0
  0
SPLINE
  5
2D3
100
AcDbEntity
  8
0
100
AcDbSpline
 62
7
  6
CONTINUOUS
 70
0
 71
3
 72
11
 73
7
 74
0
 42
0.0000001
 43
0.0000001
 44
0.0000000001
 40
0.0
 40
0.0
 40
0.0
 40
0.0
 40
0.2641208354
 40
0.5186838926
 40
0.7637171547
 40
1.0
 40
1.0
 40
1.0
 40
1.0
 10
-57.9699682766
 20
156.9922700858
 30
0.0
 10
-57.9699682766
 20
155.0446728564
 30
0.0
 10
-57.7374718544
 20
151.2148513349
 30
0.0
 10
-56.6528070027
 20
145.6709903817
 30
0.0
 10
-54.8566492287
 20
140.5304662857
 30
0.0
 10
-53.1752762044
 20
137.3843299911
 30
0.0
 10
-52.227913181
 20
135.9220739086
 30
0.0
  0
SPLINE
  5
2D4
100
AcDbEntity
  8
0
100
AcDbSpline
 62
7
  6
CONTINUOUS
 70
0
 71
3
 72
11
 73
7
 74
0
 42
0.0000001
 43
0.0000001
 44
0.0000000001
 40
0.0
 40
0.0
 40
0.0
 40
0.0
 40
0.255071241
 40
0.5058717763
 40
0.7536985827
 40
1.0
 40
1.0
 40
1.0
 40
1.0
 10
-52.227913181
 20
135.9220739086
 30
0.0
 10
-51.6074341985
 20
134.9643637766
 30
0.0
 10
-50.2709800526
 20
133.1308827564
 30
0.0
 10
-47.9783646611
 20
130.6480331343
 30
0.0
 10
-45.4368834052
 20
128.4802537034
 30
0.0
 10
-43.5882160627
 20
127.2563675664
 30
0.0
 10
-42.6340399221
 20
126.7052361896
 30
0.0
  0
SPLINE
  5
2D5
100
AcDbEntity
  8
0
100
AcDbSpline
 62
7
  6
CONTINUOUS
 70
0
 71
3
 72
9
 73
5
 74
0
 42
0.0000001
 43
0.0000001
 44
0.0000000001
 40
0.0
 40
0.0
 40
0.0
 40
0.0
 40
0.5104747178
 40
1.0
 40
1.0
 40
1.0
 40
1.0
 10
-27.8181945957
 20
121.7247877556
 30
0.0
 10
-27.5058663953
 20
121.0231511994
 30
0.0
 10
-26.6988466991
 20
119.7229954784
 30
0.0
 10
-25.5164626909
 20
118.7427079134
 30
0.0
 10
-24.8786989737
 20
118.3743597622
 30
0.0
  0
SPLINE
  5
2D6
100
AcDbEntity
  8
0
100
AcDbSpline
 62
7
  6
CONTINUOUS
 70
0
 71
3
 72
9
 73
5
 74
0
 42
0.0000001
 43
0.0000001
 44
0.0000000001
 40
0.0
 40
0.0
 40
0.0
 40
0.0
 40
0.2441537903
 40
1.0
 40
1.0
 40
1.0
 40
1.0
 10
-24.3527003424
 20
208.8194177072
 30
0.0
 10
-25.2062018081
 20
208.4617277095
 30
0.0
 10
-28.6546493641
 20
206.8851008829
 30
0.0
 10
-31.902593159
 20
204.8793561312
 30
0.0
 10
-34.2090847374
 20
203.1800120192
 30
0.0
  0
SPLINE
  5
2D7
100
AcDbEntity
  8
0
100
AcDbSpline
 62
7
  6
CONTINUOUS
 70
0
 71
3
 72
11
 73
7
 74
0
 42
0.0000001
 43
0.0000001
 44
0.0000000001
 40
0.0
 40
0.0
 40
0.0
 40
0.0
 40
0.2426944484
 40
0.4885029172
 40
0.740207278
 40
1.0
 40
1.0
 40
1.0
 40
1.0
 10
6.7447085828
 20
206.7376402013
 30
0.0
 10
8.1271471453
 20
205.9391225482
 30
0.0
 10
10.7728251245
 20
204.0807852109
 30
0.0
 10
14.2249447322
 20
200.6141155975
 30
0.0
 10
17.1121003878
 20
196.5277179924
 30
0.0
 10
18.6009954325
 20
193.4931470329
 30
0.0
 10
19.2403218163
 20
191.9082779535
 30
0.0
  0
SPLINE
  5
2D8
100
AcDbEntity
  8
0
100
AcDbSpline
 62
7
  6
CONTINUOUS
 70
0
 71
3
 72
13
 73
9
 74
0
 42
0.0000001
 43
0.0000001
 44
0.0000000001
 40
0.0
 40
0.0
 40
0.0
 40
0.0
 40
0.1155688529
 40
0.2326942202
 40
0.3521591385
 40
0.4746021834
 40
0.729695788
 40
1.0
 40
1.0
 40
1.0
 40
1.0
 10
-42.5549208434
 20
126.8170362635
 30
0.0
 10
-43.5805463945
 20
127.5552895241
 30
0.0
 10
-45.5445362543
 20
129.1878634103
 30
0.0
 10
-48.1516813022
 20
132.0364994364
 30
0.0
 10
-50.4060389703
 20
135.2642739387
 30
0.0
 10
-52.9410629725
 20
140.085233707
 30
0.0
 10
-55.0761261416
 20
146.9073637995
 30
0.0
 10
-55.6053030111
 20
152.6708241303
 30
0.0
 10
-55.6053030111
 20
155.6264833443
 30
0.0
  0
SPLINE
  5
2D9
100
AcDbEntity
  8
0
100
AcDbSpline
 62
7
  6
CONTINUOUS
 70
0
 71
3
 72
11
 73
7
 74
0
 42
0.0000001
 43
0.0000001
 44
0.0000000001
 40
0.0
 40
0.0
 40
0.0
 40
0.0
 40
0.2400104521
 40
0.4844837348
 40
0.737023861
 40
1.0
 40
1.0
 40
1.0
 40
1.0
 10
-22.5971244163
 20
117.0573692402
 30
0.0
 10
-22.991348564
 20
117.2927449808
 30
0.0
 10
-23.739541537
 20
117.8528627477
 30
0.0
 10
-24.679235609
 20
118.9160231737
 30
0.0
 10
-25.4190193405
 20
120.1771815484
 30
0.0
 10
-25.7604841515
 20
121.1083657671
 30
0.0
 10
-25.8953109237
 20
121.5930413318
 30
0.0
  0
SPLINE
  5
2DA
100
AcDbEntity
  8
0
100
AcDbSpline
 62
7
  6
CONTINUOUS
 70
0
 71
3
 72
14
 73
10
 74
0
 42
0.0000001
 43
0.0000001
 44
0.0000000001
 40
0.0
 40
0.0
 40
0.0
 40
0.0
 40
0.2456160671
 40
0.3734999207
 40
0.5026001611
 40
0.6312929801
 40
0.7579873285
 40
0.8812617008
 40
1.0
 40
1.0
 40
1.0
 40
1.0
 10
-55.6053030111
 20
155.6264833443
 30
0.0
 10
-55.6053030111
 20
160.783713863
 30
0.0
 10
-54.3413537275
 20
168.6693595698
 30
0.0
 10
-50.6245929009
 20
178.5640569797
 30
0.0
 10
-46.7947522692
 20
185.7290855334
 30
0.0
 10
-42.0768815483
 20
192.3080311977
 30
0.0
 10
-36.607079839
 20
198.1130626649
 30
0.0
 10
-30.5468071415
 20
202.9706175646
 30
0.0
 10
-26.1324409345
 20
205.5368792196
 30
0.0
 10
-23.8807772697
 20
206.6073325102
 30
0.0
  0
SPLINE
  5
2DB
100
AcDbEntity
  8
0
100
AcDbSpline
 62
7
  6
CONTINUOUS
 70
0
 71
3
 72
15
 73
11
 74
0
 42
0.0000001
 43
0.0000001
 44
0.0000000001
 40
0.0
 40
0.0
 40
0.0
 40
0.0
 40
0.1232348888
 40
0.2466265145
 40
0.3704706671
 40
0.4952471349
 40
0.621208964
 40
0.7479436026
 40
0.8744847828
 40
1.0
 40
1.0
 40
1.0
 40
1.0
 10
-1.1861774961
 20
136.4169191594
 30
0.0
 10
-0.8199820279
 20
136.2054114578
 30
0.0
 10
-0.0164484767
 20
135.8933618118
 30
0.0
 10
1.2698693273
 20
135.8067917063
 30
0.0
 10
2.5318623125
 20
136.0901956799
 30
0.0
 10
3.6788293508
 20
136.7014874351
 30
0.0
 10
4.6462392893
 20
137.5815488163
 30
0.0
 10
5.3853559229
 20
138.6669814722
 30
0.0
 10
5.8558018692
 20
139.8907146237
 30
0.0
 10
5.9674657171
 20
140.7589661279
 30
0.0
 10
5.9674657212
 20
141.1896796566
 30
0.0
  0
SPLINE
  5
2DC
100
AcDbEntity
  8
0
100
AcDbSpline
 62
7
  6
CONTINUOUS
 70
0
 71
3
 72
11
 73
7
 74
0
 42
0.0000001
 43
0.0000001
 44
0.0000000001
 40
0.0
 40
0.0
 40
0.0
 40
0.0
 40
0.251487764
 40
0.5015080582
 40
0.7508501581
 40
1.0
 40
1.0
 40
1.0
 40
1.0
 10
5.96746572
 20
141.1897913071
 30
0.0
 10
5.9674570828
 20
141.5788645293
 30
0.0
 10
5.8769355736
 20
142.3582933524
 30
0.0
 10
5.4570065138
 20
143.454886967
 30
0.0
 10
4.7660765037
 20
144.4013247604
 30
0.0
 10
4.1491051954
 20
144.8835203149
 30
0.0
 10
3.8153237008
 20
145.0763063073
 30
0.0
  0
SPLINE
  5
2DD
100
AcDbEntity
  8
0
100
AcDbSpline
 62
7
  6
CONTINUOUS
 70
0
 71
3
 72
15
 73
11
 74
0
 42
0.0000001
 43
0.0000001
 44
0.0000000001
 40
0.0
 40
0.0
 40
0.0
 40
0.0
 40
0.1232348888
 40
0.2466265145
 40
0.3704706671
 40
0.4952471349
 40
0.621208964
 40
0.7479436026
 40
0.8744847828
 40
1.0
 40
1.0
 40
1.0
 40
1.0
 10
16.3758065792
 20
160.660365813
 30
0.0
 10
16.7420020474
 20
160.4488581114
 30
0.0
 10
17.5455355986
 20
160.1368084653
 30
0.0
 10
18.8318534026
 20
160.0502383599
 30
0.0
 10
20.0938463878
 20
160.3336423334
 30
0.0
 10
21.2408134261
 20
160.9449340886
 30
0.0
 10
22.2082233646
 20
161.8249954698
 30
0.0
 10
22.9473399982
 20
162.9104281258
 30
0.0
 10
23.4177859446
 20
164.1341612772
 30
0.0
 10
23.5294497924
 20
165.0024127814
 30
0.0
 10
23.5294497965
 20
165.4331263101
 30
0.0
  0
SPLINE
  5
2DE
100
AcDbEntity
  8
0
100
AcDbSpline
 62
7
  6
CONTINUOUS
 70
0
 71
3
 72
11
 73
7
 74
0
 42
0.0000001
 43
0.0000001
 44
0.0000000001
 40
0.0
 40
0.0
 40
0.0
 40
0.0
 40
0.251487764
 40
0.5015080582
 40
0.7508501581
 40
1.0
 40
1.0
 40
1.0
 40
1.0
 10
23.5294497953
 20
165.4332379606
 30
0.0
 10
23.5294411582
 20
165.8223111829
 30
0.0
 10
23.4389196489
 20
166.6017400059
 30
0.0
 10
23.0189905891
 20
167.6983336205
 30
0.0
 10
22.328060579
 20
168.6447714139
 30
0.0
 10
21.7110892708
 20
169.1269669684
 30
0.0
 10
21.3773077762
 20
169.3197529608
 30
0.0
  0
SPLINE
  5
2DF
100
AcDbEntity
  8
0
100
AcDbSpline
 62
7
  6
CONTINUOUS
 70
0
 71
3
 72
15
 73
11
 74
0
 42
0.0000001
 43
0.0000001
 44
0.0000000001
 40
0.0
 40
0.0
 40
0.0
 40
0.0
 40
0.1232348888
 40
0.2466265145
 40
0.3704706671
 40
0.4952471349
 40
0.621208964
 40
0.7479436026
 40
0.8744847828
 40
1.0
 40
1.0
 40
1.0
 40
1.0
 10
33.9377906545
 20
145.8320913956
 30
0.0
 10
34.3039861228
 20
145.6205836941
 30
0.0
 10
35.1075196739
 20
145.308534048
 30
0.0
 10
36.3938374779
 20
145.2219639426
 30
0.0
 10
37.6558304631
 20
145.5053679161
 30
0.0
 10
38.8027975014
 20
146.1166596713
 30
0.0
 10
39.77020744
 20
146.9967210525
 30
0.0
 10
40.5093240735
 20
148.0821537085
 30
0.0
 10
40.9797700199
 20
149.3058868599
 30
0.0
 10
41.0914338677
 20
150.1741383641
 30
0.0
 10
41.0914338718
 20
150.6048518928
 30
0.0
  0
SPLINE
  5
2E0
100
AcDbEntity
  8
0
100
AcDbSpline
 62
7
  6
CONTINUOUS
 70
0
 71
3
 72
11
 73
7
 74
0
 42
0.0000001
 43
0.0000001
 44
0.0000000001
 40
0.0
 40
0.0
 40
0.0
 40
0.0
 40
0.251487764
 40
0.5015080582
 40
0.7508501581
 40
1.0
 40
1.0
 40
1.0
 40
1.0
 10
41.0914338706
 20
150.6049635433
 30
0.0
 10
41.0914252335
 20
150.9940367656
 30
0.0
 10
41.0009037242
 20
151.7734655886
 30
0.0
 10
40.5809746644
 20
152.8700592032
 30
0.0
 10
39.8900446543
 20
153.8164969966
 30
0.0
 10
39.2730733461
 20
154.2986925511
 30
0.0
 10
38.9392918515
 20
154.4914785435
 30
0.0
  0
SPLINE
  5
2E1
100
AcDbEntity
  8
0
100
AcDbSpline
 62
7
  6
CONTINUOUS
 70
0
 71
3
 72
12
 73
8
 74
0
 42
0.0000001
 43
0.0000001
 44
0.0000000001
 40
0.0
 40
0.0
 40
0.0
 40
0.0
 40
0.1223227122
 40
0.2453509815
 40
0.4940118446
 40
0.7480675569
 40
1.0
 40
1.0
 40
1.0
 40
1.0
 10
-2.5477872477
 20
154.4748670864
 30
0.0
 10
-2.3315085033
 20
154.4220720063
 30
0.0
 10
-1.880593389
 20
154.3767190013
 30
0.0
 10
-0.9850668322
 20
154.524673312
 30
0.0
 10
0.0335256711
 20
155.124932681
 30
0.0
 10
0.853353834
 20
156.2681004008
 30
0.0
 10
1.0661530619
 20
157.1972729873
 30
0.0
 10
1.0661594525
 20
157.6557941271
 30
0.0
  0
SPLINE
  5
2E2
100
AcDbEntity
  8
0
100
AcDbSpline
 62
7
  6
CONTINUOUS
 70
0
 71
3
 72
9
 73
5
 74
0
 42
0.0000001
 43
0.0000001
 44
0.0000000001
 40
0.0
 40
0.0
 40
0.0
 40
0.0
 40
0.5032296706
 40
1.0
 40
1.0
 40
1.0
 40
1.0
 10
1.0661594528
 20
157.6558361705
 30
0.0
 10
1.0661594552
 20
157.9939565679
 30
0.0
 10
0.9526149801
 20
158.6726926587
 30
0.0
 10
0.5882136772
 20
159.2622463618
 30
0.0
 10
0.3577557855
 20
159.5036971635
 30
0.0
  0
SPLINE
  5
2E3
100
AcDbEntity
  8
0
100
AcDbSpline
 62
7
  6
CONTINUOUS
 70
0
 71
3
 72
15
 73
11
 74
0
 42
0.0000001
 43
0.0000001
 44
0.0000000001
 40
0.0
 40
0.0
 40
0.0
 40
0.0
 40
0.123868266
 40
0.2478124123
 40
0.3720088343
 40
0.4967997413
 40
0.6224141061
 40
0.7486057911
 40
0.8746610752
 40
1.0
 40
1.0
 40
1.0
 40
1.0
 10
15.31264092
 20
121.0478933468
 30
0.0
 10
15.7553933749
 20
120.7921677515
 30
0.0
 10
16.7241915419
 20
120.4114534295
 30
0.0
 10
18.2758658992
 20
120.2899438951
 30
0.0
 10
19.8022428858
 20
120.6092553785
 30
0.0
 10
21.1927879327
 20
121.3244554677
 30
0.0
 10
22.3664767336
 20
122.3671717977
 30
0.0
 10
23.262491216
 20
123.6617104927
 30
0.0
 10
23.8320756267
 20
125.1273950602
 30
0.0
 10
23.9664342529
 20
126.1692243587
 30
0.0
 10
23.9664342571
 20
126.6865925547
 30
0.0
  0
SPLINE
  5
2E4
100
AcDbEntity
  8
0
100
AcDbSpline
 62
7
  6
CONTINUOUS
 70
0
 71
3
 72
11
 73
7
 74
0
 42
0.0000001
 43
0.0000001
 44
0.0000000001
 40
0.0
 40
0.0
 40
0.0
 40
0.0
 40
0.250926076
 40
0.5008947931
 40
0.7504899979
 40
1.0
 40
1.0
 40
1.0
 40
1.0
 10
23.9664342556
 20
126.6867262887
 30
0.0
 10
23.9664237137
 20
127.1622530144
 30
0.0
 10
23.8533952506
 20
128.1159035645
 30
0.0
 10
23.3329678705
 20
129.4561944013
 30
0.0
 10
22.4812973247
 20
130.6127141061
 30
0.0
 10
21.7238955397
 20
131.2026653698
 30
0.0
 10
21.3144423564
 20
131.4391579242
 30
0.0
  0
SPLINE
  5
2E5
100
AcDbEntity
  8
0
100
AcDbSpline
 62
7
  6
CONTINUOUS
 70
0
 71
3
 72
9
 73
5
 74
0
 42
0.0000001
 43
0.0000001
 44
0.0000000001
 40
0.0
 40
0.0
 40
0.0
 40
0.0
 40
0.5195250675
 40
1.0
 40
1.0
 40
1.0
 40
1.0
 10
5.4000938057
 20
162.2891078882
 30
0.0
 10
4.7922170185
 20
161.9333004857
 30
0.0
 10
3.5313808385
 20
161.3871848493
 30
0.0
 10
2.1569191626
 20
161.2337669679
 30
0.0
 10
1.5069608325
 20
161.2772348068
 30
0.0
  0
SPLINE
  5
2E6
100
AcDbEntity
  8
0
100
AcDbSpline
 62
7
  6
CONTINUOUS
 70
0
 71
3
 72
11
 73
7
 74
0
 42
0.0000001
 43
0.0000001
 44
0.0000000001
 40
0.0
 40
0.0
 40
0.0
 40
0.0
 40
0.2323381292
 40
0.4730876154
 40
0.7282396408
 40
1.0
 40
1.0
 40
1.0
 40
1.0
 10
15.3126540287
 20
121.0479160387
 30
0.0
 10
15.0090217402
 20
121.2233400357
 30
0.0
 10
14.4426110014
 20
121.6788799441
 30
0.0
 10
13.8165529671
 20
122.5992331018
 30
0.0
 10
13.4346743846
 20
123.7055259195
 30
0.0
 10
13.3548660467
 20
124.5041600376
 30
0.0
 10
13.3548637817
 20
124.9143248496
 30
0.0
  0
SPLINE
  5
2E7
100
AcDbEntity
  8
0
100
AcDbSpline
 62
7
  6
CONTINUOUS
 70
0
 71
3
 72
11
 73
7
 74
0
 42
0.0000001
 43
0.0000001
 44
0.0000000001
 40
0.0
 40
0.0
 40
0.0
 40
0.0
 40
0.2323364069
 40
0.473065939
 40
0.7282632442
 40
1.0
 40
1.0
 40
1.0
 40
1.0
 10
33.9378151202
 20
145.8321337568
 30
0.0
 10
33.6847675059
 20
145.9782757667
 30
0.0
 10
33.2128567466
 20
146.3579709575
 30
0.0
 10
32.6910227813
 20
147.1248599867
 30
0.0
 10
32.3728770086
 20
148.0468105142
 30
0.0
 10
32.3063115932
 20
148.7123459435
 30
0.0
 10
32.3063097058
 20
149.0541176483
 30
0.0
  0
SPLINE
  5
2E8
100
AcDbEntity
  8
0
100
AcDbSpline
 62
7
  6
CONTINUOUS
 70
0
 71
3
 72
11
 73
7
 74
0
 42
0.0000001
 43
0.0000001
 44
0.0000000001
 40
0.0
 40
0.0
 40
0.0
 40
0.0
 40
0.2323364069
 40
0.473065939
 40
0.7282632442
 40
1.0
 40
1.0
 40
1.0
 40
1.0
 10
16.3758310449
 20
160.6604081741
 30
0.0
 10
16.1227834306
 20
160.806550184
 30
0.0
 10
15.6508726713
 20
161.1862453748
 30
0.0
 10
15.129038706
 20
161.953134404
 30
0.0
 10
14.8108929333
 20
162.8750849315
 30
0.0
 10
14.7443275178
 20
163.5406203608
 30
0.0
 10
14.7443256305
 20
163.8823920656
 30
0.0
  0
SPLINE
  5
2E9
100
AcDbEntity
  8
0
100
AcDbSpline
 62
7
  6
CONTINUOUS
 70
0
 71
3
 72
14
 73
10
 74
0
 42
0.0000001
 43
0.0000001
 44
0.0000000001
 40
0.0
 40
0.0
 40
0.0
 40
0.0
 40
0.264797143
 40
0.4023500865
 40
0.5369945373
 40
0.664994587
 40
0.7841489352
 40
0.8947585031
 40
1.0
 40
1.0
 40
1.0
 40
1.0
 10
13.3548637817
 20
124.9143248496
 30
0.0
 10
13.354863782
 20
125.9794503146
 30
0.0
 10
13.7767279434
 20
127.6158914497
 30
0.0
 10
14.924146611
 20
129.4555737073
 30
0.0
 10
16.0514095036
 20
130.6244427518
 30
0.0
 10
17.3515942592
 20
131.4687317155
 30
0.0
 10
18.7365776203
 20
131.9245982961
 30
0.0
 10
20.1071675202
 20
131.9456723683
 30
0.0
 10
20.9478822533
 20
131.6509082924
 30
0.0
 10
21.3144292478
 20
131.4391352323
 30
0.0
  0
SPLINE
  5
2EA
100
AcDbEntity
  8
0
100
AcDbSpline
 62
7
  6
CONTINUOUS
 70
0
 71
3
 72
15
 73
11
 74
0
 42
0.0000001
 43
0.0000001
 44
0.0000000001
 40
0.0
 40
0.0
 40
0.0
 40
0.0
 40
0.1355692494
 40
0.2768377582
 40
0.4150257866
 40
0.5426274938
 40
0.6573667966
 40
0.7649449609
 40
0.8764610455
 40
1.0
 40
1.0
 40
1.0
 40
1.0
 10
18.9126912881
 20
124.4997040977
 30
0.0
 10
18.9126940424
 20
124.7490901748
 30
0.0
 10
19.0056525286
 20
125.2606256676
 30
0.0
 10
19.3626408489
 20
125.9468913431
 30
0.0
 10
19.8927643258
 20
126.49232114
 30
0.0
 10
20.5286378583
 20
126.8188698758
 30
0.0
 10
21.1936562886
 20
126.8666799333
 30
0.0
 10
21.7762146743
 20
126.5930573472
 30
0.0
 10
22.1466778217
 20
126.052259006
 30
0.0
 10
22.2185137938
 20
125.6131043958
 30
0.0
 10
22.2185163038
 20
125.3858486179
 30
0.0
  0
SPLINE
  5
2EB
100
AcDbEntity
  8
0
100
AcDbSpline
 62
7
  6
CONTINUOUS
 70
0
 71
3
 72
15
 73
11
 74
0
 42
0.0000001
 43
0.0000001
 44
0.0000000001
 40
0.0
 40
0.0
 40
0.0
 40
0.0
 40
0.1355692494
 40
0.2768377582
 40
0.4150257866
 40
0.5426274938
 40
0.6573667966
 40
0.7649449609
 40
0.8764610455
 40
1.0
 40
1.0
 40
1.0
 40
1.0
 10
22.2185163038
 20
125.3858486179
 30
0.0
 10
22.2185135494
 20
125.1364625409
 30
0.0
 10
22.1255550633
 20
124.6249270481
 30
0.0
 10
21.768566743
 20
123.9386613726
 30
0.0
 10
21.238443266
 20
123.3932315757
 30
0.0
 10
20.6025697335
 20
123.0666828399
 30
0.0
 10
19.9375513033
 20
123.0188727824
 30
0.0
 10
19.3549929176
 20
123.2924953685
 30
0.0
 10
18.9845297702
 20
123.8332937097
 30
0.0
 10
18.912693798
 20
124.2724483199
 30
0.0
 10
18.9126912881
 20
124.4997040977
 30
0.0
  0
SPLINE
  5
2EC
100
AcDbEntity
  8
0
100
AcDbSpline
 62
7
  6
CONTINUOUS
 70
0
 71
3
 72
11
 73
7
 74
0
 42
0.0000001
 43
0.0000001
 44
0.0000000001
 40
0.0
 40
0.0
 40
0.0
 40
0.0
 40
0.2383657642
 40
0.4752818479
 40
0.7264517244
 40
1.0
 40
1.0
 40
1.0
 40
1.0
 10
-0.454018062
 20
158.2506021489
 30
0.0
 10
-0.3334984565
 20
158.2403380243
 30
0.0
 10
-0.0935584562
 20
158.1730210953
 30
0.0
 10
0.1959109569
 20
157.9279646716
 30
0.0
 10
0.3744729343
 20
157.575477534
 30
0.0
 10
0.4106837092
 20
157.3068526491
 30
0.0
 10
0.4106846717
 20
157.1680438084
 30
0.0
  0
SPLINE
  5
2ED
100
AcDbEntity
  8
0
100
AcDbSpline
 62
7
  6
CONTINUOUS
 70
0
 71
3
 72
14
 73
10
 74
0
 42
0.0000001
 43
0.0000001
 44
0.0000000001
 40
0.0
 40
0.0
 40
0.0
 40
0.0
 40
0.2720731641
 40
0.4121206389
 40
0.546150614
 40
0.670074331
 40
0.7835337296
 40
0.8909427629
 40
1.0
 40
1.0
 40
1.0
 40
1.0
 10
0.4106846717
 20
157.1680438084
 30
0.0
 10
0.4106824928
 20
156.8538453689
 30
0.0
 10
0.2643576564
 20
156.3710625731
 30
0.0
 10
-0.1194826726
 20
155.8662249856
 30
0.0
 10
-0.485089749
 20
155.5777407258
 30
0.0
 10
-0.8904105817
 20
155.4171303014
 30
0.0
 10
-1.2985511037
 20
155.4059146879
 30
0.0
 10
-1.6616526181
 20
155.5560664599
 30
0.0
 10
-1.8352977584
 20
155.7478117555
 30
0.0
 10
-1.9007156651
 20
155.8554316753
 30
0.0
  0
SPLINE
  5
2EE
100
AcDbEntity
  8
0
100
AcDbSpline
 62
7
  6
CONTINUOUS
 70
0
 71
3
 72
14
 73
10
 74
0
 42
0.0000001
 43
0.0000001
 44
0.0000000001
 40
0.0
 40
0.0
 40
0.0
 40
0.0
 40
0.2648022032
 40
0.4023572604
 40
0.5370068747
 40
0.6649953624
 40
0.7841598829
 40
0.8947618554
 40
1.0
 40
1.0
 40
1.0
 40
1.0
 10
32.3063097058
 20
149.0541176483
 30
0.0
 10
32.3063097061
 20
149.9417376409
 30
0.0
 10
32.6578506236
 20
151.3054639639
 30
0.0
 10
33.6140621751
 20
152.8385657865
 30
0.0
 10
34.5534679467
 20
153.812576512
 30
0.0
 10
35.636960464
 20
154.5161710649
 30
0.0
 10
36.7911101241
 20
154.8959519376
 30
0.0
 10
37.9332711432
 20
154.9135469328
 30
0.0
 10
38.6337922096
 20
154.6678565621
 30
0.0
 10
38.9392673858
 20
154.4914361824
 30
0.0
  0
SPLINE
  5
2EF
100
AcDbEntity
  8
0
100
AcDbSpline
 62
7
  6
CONTINUOUS
 70
0
 71
3
 72
16
 73
12
 74
0
 42
0.0000001
 43
0.0000001
 44
0.0000000001
 40
0.0
 40
0.0
 40
0.0
 40
0.0
 40
0.135445406
 40
0.2765828911
 40
0.4146450081
 40
0.5421328007
 40
0.6567715547
 40
0.7111968548
 40
0.7651610811
 40
0.8765810889
 40
1.0
 40
1.0
 40
1.0
 40
1.0
 10
36.4746732484
 20
148.7431501852
 30
0.0
 10
36.4746760026
 20
148.9925323295
 30
0.0
 10
36.5676413821
 20
149.5040422936
 30
0.0
 10
36.9245642012
 20
150.1903614378
 30
0.0
 10
37.4548484301
 20
150.7355686376
 30
0.0
 10
38.090124474
 20
151.0628796265
 30
0.0
 10
38.6558551982
 20
151.1013890729
 30
0.0
 10
39.0505919272
 20
150.9733417067
 30
0.0
 10
39.3945490141
 20
150.7517695035
 30
0.0
 10
39.7093258802
 20
150.2957455668
 30
0.0
 10
39.7804999844
 20
149.8565347956
 30
0.0
 10
39.7805024941
 20
149.6292958394
 30
0.0
  0
SPLINE
  5
2F0
100
AcDbEntity
  8
0
100
AcDbSpline
 62
7
  6
CONTINUOUS
 70
0
 71
3
 72
15
 73
11
 74
0
 42
0.0000001
 43
0.0000001
 44
0.0000000001
 40
0.0
 40
0.0
 40
0.0
 40
0.0
 40
0.1355692494
 40
0.2768377582
 40
0.4150257866
 40
0.5426274938
 40
0.6573667966
 40
0.7649449609
 40
0.8764610455
 40
1.0
 40
1.0
 40
1.0
 40
1.0
 10
39.7805024941
 20
149.6292958394
 30
0.0
 10
39.7804997398
 20
149.3799094431
 30
0.0
 10
39.6875411349
 20
148.8683732957
 30
0.0
 10
39.3305523579
 20
148.1821067418
 30
0.0
 10
38.8004282025
 20
147.6366762467
 30
0.0
 10
38.1645538562
 20
147.3101270929
 30
0.0
 10
37.4995345748
 20
147.2623169742
 30
0.0
 10
36.9169754436
 20
147.5359399107
 30
0.0
 10
36.5465118222
 20
148.0767389442
 30
0.0
 10
36.4746757583
 20
148.5158941165
 30
0.0
 10
36.4746732484
 20
148.7431501852
 30
0.0
  0
SPLINE
  5
2F1
100
AcDbEntity
  8
0
100
AcDbSpline
 62
7
  6
CONTINUOUS
 70
0
 71
3
 72
11
 73
7
 74
0
 42
0.0000001
 43
0.0000001
 44
0.0000000001
 40
0.0
 40
0.0
 40
0.0
 40
0.0
 40
0.2323364069
 40
0.473065939
 40
0.7282632442
 40
1.0
 40
1.0
 40
1.0
 40
1.0
 10
-1.1861530304
 20
136.4169615206
 30
0.0
 10
-1.4392006447
 20
136.5631035304
 30
0.0
 10
-1.911111404
 20
136.9427987213
 30
0.0
 10
-2.4329453693
 20
137.7096877505
 30
0.0
 10
-2.751091142
 20
138.631638278
 30
0.0
 10
-2.8176565575
 20
139.2971737073
 30
0.0
 10
-2.8176584448
 20
139.638945412
 30
0.0
  0
SPLINE
  5
2F2
100
AcDbEntity
  8
0
100
AcDbSpline
 62
7
  6
CONTINUOUS
 70
0
 71
3
 72
14
 73
10
 74
0
 42
0.0000001
 43
0.0000001
 44
0.0000000001
 40
0.0
 40
0.0
 40
0.0
 40
0.0
 40
0.2648022032
 40
0.4023572604
 40
0.5370068747
 40
0.6649953624
 40
0.7841598829
 40
0.8947618554
 40
1.0
 40
1.0
 40
1.0
 40
1.0
 10
14.7443256305
 20
163.8823920656
 30
0.0
 10
14.7443256308
 20
164.7700120582
 30
0.0
 10
15.0958665483
 20
166.1337383812
 30
0.0
 10
16.0520780998
 20
167.6668402038
 30
0.0
 10
16.9914838714
 20
168.6408509293
 30
0.0
 10
18.0749763887
 20
169.3444454822
 30
0.0
 10
19.2291260488
 20
169.7242263549
 30
0.0
 10
20.3712870679
 20
169.7418213501
 30
0.0
 10
21.0718081343
 20
169.4961309794
 30
0.0
 10
21.3772833105
 20
169.3197105997
 30
0.0
  0
SPLINE
  5
2F3
100
AcDbEntity
  8
0
100
AcDbSpline
 62
7
  6
CONTINUOUS
 70
0
 71
3
 72
15
 73
11
 74
0
 42
0.0000001
 43
0.0000001
 44
0.0000000001
 40
0.0
 40
0.0
 40
0.0
 40
0.0
 40
0.1355692494
 40
0.2768377582
 40
0.4150257866
 40
0.5426274938
 40
0.6573667966
 40
0.7649449609
 40
0.8764610455
 40
1.0
 40
1.0
 40
1.0
 40
1.0
 10
18.9126891729
 20
163.5714246016
 30
0.0
 10
18.9126919272
 20
163.8208109978
 30
0.0
 10
19.0056505323
 20
164.3323471451
 30
0.0
 10
19.3626393095
 20
165.0186136988
 30
0.0
 10
19.8927634648
 20
165.5640441938
 30
0.0
 10
20.528637811
 20
165.8905933475
 30
0.0
 10
21.1936570923
 20
165.9384034661
 30
0.0
 10
21.7762162235
 20
165.6647805298
 30
0.0
 10
22.146679845
 20
165.1239814966
 30
0.0
 10
22.2185159091
 20
164.6848263244
 30
0.0
 10
22.218518419
 20
164.4575702558
 30
0.0
  0
SPLINE
  5
2F4
100
AcDbEntity
  8
0
100
AcDbSpline
 62
7
  6
CONTINUOUS
 70
0
 71
3
 72
16
 73
12
 74
0
 42
0.0000001
 43
0.0000001
 44
0.0000000001
 40
0.0
 40
0.0
 40
0.0
 40
0.0
 40
0.135445406
 40
0.2765828911
 40
0.4146450081
 40
0.5421328007
 40
0.6567715546
 40
0.7111968548
 40
0.7651610811
 40
0.8765810889
 40
1.0
 40
1.0
 40
1.0
 40
1.0
 10
22.218518419
 20
164.4575702558
 30
0.0
 10
22.2185156647
 20
164.2081881114
 30
0.0
 10
22.1255502854
 20
163.6966781471
 30
0.0
 10
21.7686274664
 20
163.0103590026
 30
0.0
 10
21.2383432373
 20
162.4651518025
 30
0.0
 10
20.6030671932
 20
162.1378408135
 30
0.0
 10
20.0373364689
 20
162.0993313671
 30
0.0
 10
19.6425997397
 20
162.2273787334
 30
0.0
 10
19.2986426527
 20
162.4489509368
 30
0.0
 10
18.9838657868
 20
162.9049748739
 30
0.0
 10
18.9126916826
 20
163.3441856453
 30
0.0
 10
18.9126891729
 20
163.5714246016
 30
0.0
  0
SPLINE
  5
2F5
100
AcDbEntity
  8
0
100
AcDbSpline
 62
7
  6
CONTINUOUS
 70
0
 71
3
 72
14
 73
10
 74
0
 42
0.0000001
 43
0.0000001
 44
0.0000000001
 40
0.0
 40
0.0
 40
0.0
 40
0.0
 40
0.2648022032
 40
0.4023572604
 40
0.5370068747
 40
0.6649953624
 40
0.7841598829
 40
0.8947618554
 40
1.0
 40
1.0
 40
1.0
 40
1.0
 10
-2.8176584448
 20
139.638945412
 30
0.0
 10
-2.8176584445
 20
140.5265654047
 30
0.0
 10
-2.4661175271
 20
141.8902917276
 30
0.0
 10
-1.5099059756
 20
143.4233935503
 30
0.0
 10
-0.570500204
 20
144.3974042758
 30
0.0
 10
0.5129923133
 20
145.1009988286
 30
0.0
 10
1.6671419735
 20
145.4807797014
 30
0.0
 10
2.8093029926
 20
145.4983746966
 30
0.0
 10
3.509824059
 20
145.2526843259
 30
0.0
 10
3.8152992351
 20
145.0762639461
 30
0.0
  0
SPLINE
  5
2F6
100
AcDbEntity
  8
0
100
AcDbSpline
 62
7
  6
CONTINUOUS
 70
0
 71
3
 72
15
 73
11
 74
0
 42
0.0000001
 43
0.0000001
 44
0.0000000001
 40
0.0
 40
0.0
 40
0.0
 40
0.0
 40
0.1355692494
 40
0.2768377582
 40
0.4150257866
 40
0.5426274938
 40
0.6573667966
 40
0.7649449609
 40
0.8764610455
 40
1.0
 40
1.0
 40
1.0
 40
1.0
 10
1.3507050976
 20
139.327977948
 30
0.0
 10
1.3507078519
 20
139.5773643443
 30
0.0
 10
1.443666457
 20
140.0889004916
 30
0.0
 10
1.8006552341
 20
140.7751670453
 30
0.0
 10
2.3307793895
 20
141.3205975402
 30
0.0
 10
2.9666537357
 20
141.6471466939
 30
0.0
 10
3.631673017
 20
141.6949568126
 30
0.0
 10
4.2142321482
 20
141.4213338763
 30
0.0
 10
4.5846957697
 20
140.8805348431
 30
0.0
 10
4.6565318337
 20
140.4413796709
 30
0.0
 10
4.6565343437
 20
140.2141236022
 30
0.0
  0
SPLINE
  5
2F7
100
AcDbEntity
  8
0
100
AcDbSpline
 62
7
  6
CONTINUOUS
 70
0
 71
3
 72
15
 73
11
 74
0
 42
0.0000001
 43
0.0000001
 44
0.0000000001
 40
0.0
 40
0.0
 40
0.0
 40
0.0
 40
0.1355692494
 40
0.2768377582
 40
0.4150257866
 40
0.5426274938
 40
0.6573667966
 40
0.7649449609
 40
0.8764610455
 40
1.0
 40
1.0
 40
1.0
 40
1.0
 10
4.6565343437
 20
140.2141236022
 30
0.0
 10
4.6565315893
 20
139.964737206
 30
0.0
 10
4.5635729842
 20
139.4532010587
 30
0.0
 10
4.2065842071
 20
138.7669345049
 30
0.0
 10
3.6764600517
 20
138.22150401
 30
0.0
 10
3.0405857055
 20
137.8949548563
 30
0.0
 10
2.3755664243
 20
137.8471447377
 30
0.0
 10
1.7930072931
 20
138.120767674
 30
0.0
 10
1.4225436716
 20
138.6615667072
 30
0.0
 10
1.3507076075
 20
139.1007218794
 30
0.0
 10
1.3507050976
 20
139.327977948
 30
0.0
  0
SPLINE
  5
2F8
100
AcDbEntity
  8
0
100
AcDbSpline
 62
7
  6
CONTINUOUS
 70
0
 71
3
 72
9
 73
5
 74
0
 42
0.0000001
 43
0.0000001
 44
0.0000000001
 40
0.0
 40
0.0
 40
0.0
 40
0.0
 40
0.2551743624
 40
1.0
 40
1.0
 40
1.0
 40
1.0
 10
-22.4203546295
 20
229.3804112584
 30
0.0
 10
-23.137434564
 20
228.8668354426
 30
0.0
 10
-25.9951528872
 20
226.9219166418
 30
0.0
 10
-29.0447713685
 20
225.255161045
 30
0.0
 10
-31.3975800014
 20
224.2099457675
 30
0.0
  0
SPLINE
  5
2F9
100
AcDbEntity
  8
0
100
AcDbSpline
 62
7
  6
CONTINUOUS
 70
0
 71
3
 72
9
 73
5
 74
0
 42
0.0000001
 43
0.0000001
 44
0.0000000001
 40
0.0
 40
0.0
 40
0.0
 40
0.0
 40
0.2560568314
 40
1.0
 40
1.0
 40
1.0
 40
1.0
 10
-31.3975800014
 20
224.2099457675
 30
0.0
 10
-32.1599980685
 20
223.8712480085
 30
0.0
 10
-35.1718701692
 20
222.6281195598
 30
0.0
 10
-38.3226198051
 20
221.7139944922
 30
0.0
 10
-40.7032719789
 20
221.2583803115
 30
0.0
  0
SPLINE
  5
2FA
100
AcDbEntity
  8
0
100
AcDbSpline
 62
7
  6
CONTINUOUS
 70
0
 71
3
 72
9
 73
5
 74
0
 42
0.0000001
 43
0.0000001
 44
0.0000000001
 40
0.0
 40
0.0
 40
0.0
 40
0.0
 40
0.2522287637
 40
1.0
 40
1.0
 40
1.0
 40
1.0
 10
-42.8872315471
 20
219.7766956407
 30
0.0
 10
-43.4414645762
 20
219.0234774408
 30
0.0
 10
-45.7029422653
 20
216.0850790063
 30
0.0
 10
-48.2199544978
 20
213.342349441
 30
0.0
 10
-50.2302171823
 20
211.4331388024
 30
0.0
  0
SPLINE
  5
2FB
100
AcDbEntity
  8
0
100
AcDbSpline
 62
7
  6
CONTINUOUS
 70
0
 71
3
 72
9
 73
5
 74
0
 42
0.0000001
 43
0.0000001
 44
0.0000000001
 40
0.0
 40
0.0
 40
0.0
 40
0.0
 40
0.2540645718
 40
1.0
 40
1.0
 40
1.0
 40
1.0
 10
-50.2302171823
 20
211.4331388024
 30
0.0
 10
-50.8904430736
 20
210.8061011992
 30
0.0
 10
-53.5443647629
 20
208.3972183687
 30
0.0
 10
-56.4201437344
 20
206.2304642602
 30
0.0
 10
-58.670296926
 20
204.7870146581
 30
0.0
  0
SPLINE
  5
2FC
100
AcDbEntity
  8
0
100
AcDbSpline
 62
7
  6
CONTINUOUS
 70
0
 71
3
 72
9
 73
5
 74
0
 42
0.0000001
 43
0.0000001
 44
0.0000000001
 40
0.0
 40
0.0
 40
0.0
 40
0.0
 40
0.2456783623
 40
1.0
 40
1.0
 40
1.0
 40
1.0
 10
-72.2346402039
 20
180.3829213102
 30
0.0
 10
-72.2422519701
 20
179.5099885635
 30
0.0
 10
-72.3635193057
 20
175.957984748
 30
0.0
 10
-72.8386278331
 20
172.4197903972
 30
0.0
 10
-73.3744261531
 20
169.793567714
 30
0.0
  0
SPLINE
  5
2FD
100
AcDbEntity
  8
0
100
AcDbSpline
 62
7
  6
CONTINUOUS
 70
0
 71
3
 72
9
 73
5
 74
0
 42
0.0000001
 43
0.0000001
 44
0.0000000001
 40
0.0
 40
0.0
 40
0.0
 40
0.0
 40
0.2473366036
 40
1.0
 40
1.0
 40
1.0
 40
1.0
 10
-73.3744261531
 20
169.793567714
 30
0.0
 10
-73.5568239157
 20
168.8995426234
 30
0.0
 10
-74.3777601283
 20
165.3023537128
 30
0.0
 10
-75.5263769917
 20
161.7808934934
 30
0.0
 10
-76.5559044303
 20
159.2021864949
 30
0.0
  0
SPLINE
  5
2FE
100
AcDbEntity
  8
0
100
AcDbSpline
 62
7
  6
CONTINUOUS
 70
0
 71
3
 72
9
 73
5
 74
0
 42
0.0000001
 43
0.0000001
 44
0.0000000001
 40
0.0
 40
0.0
 40
0.0
 40
0.0
 40
0.2443688008
 40
1.0
 40
1.0
 40
1.0
 40
1.0
 10
-76.6472950102
 20
156.5902076337
 30
0.0
 10
-76.3544166297
 20
155.8600237833
 30
0.0
 10
-75.2497641797
 20
152.834762261
 30
0.0
 10
-74.5187373043
 20
149.6765380326
 30
0.0
 10
-74.1625019301
 20
147.2700508252
 30
0.0
  0
SPLINE
  5
2FF
100
AcDbEntity
  8
0
100
AcDbSpline
 62
7
  6
CONTINUOUS
 70
0
 71
3
 72
9
 73
5
 74
0
 42
0.0000001
 43
0.0000001
 44
0.0000000001
 40
0.0
 40
0.0
 40
0.0
 40
0.0
 40
0.2447919862
 40
1.0
 40
1.0
 40
1.0
 40
1.0
 10
-74.1625019301
 20
147.2700508252
 30
0.0
 10
-74.0399053481
 20
146.4418705614
 30
0.0
 10
-73.6328636847
 20
143.0451563445
 30
0.0
 10
-73.5944318765
 20
139.6066791549
 30
0.0
 10
-73.7515653783
 20
137.0286008456
 30
0.0
  0
SPLINE
  5
300
100
AcDbEntity
  8
0
100
AcDbSpline
 62
7
  6
CONTINUOUS
 70
0
 71
3
 72
9
 73
5
 74
0
 42
0.0000001
 43
0.0000001
 44
0.0000000001
 40
0.0
 40
0.0
 40
0.0
 40
0.0
 40
0.4951488708
 40
1.0
 40
1.0
 40
1.0
 40
1.0
 10
-72.9458601564
 20
134.8151491846
 30
0.0
 10
-71.8495883398
 20
133.8655778901
 30
0.0
 10
-69.7747744053
 20
131.7815713165
 30
0.0
 10
-68.0174730658
 20
129.4250389397
 30
0.0
 10
-67.2147752687
 20
128.1830985505
 30
0.0
  0
SPLINE
  5
301
100
AcDbEntity
  8
0
100
AcDbSpline
 62
7
  6
CONTINUOUS
 70
0
 71
3
 72
9
 73
5
 74
0
 42
0.0000001
 43
0.0000001
 44
0.0000000001
 40
0.0
 40
0.0
 40
0.0
 40
0.0
 40
0.4926713128
 40
1.0
 40
1.0
 40
1.0
 40
1.0
 10
-67.2147752687
 20
128.1830985505
 30
0.0
 10
-66.3914233161
 20
126.9092018882
 30
0.0
 10
-64.8966760749
 20
124.2059250055
 30
0.0
 10
-63.7612467327
 20
121.3347391252
 30
0.0
 10
-63.2739852529
 20
119.8507477306
 30
0.0
  0
SPLINE
  5
302
100
AcDbEntity
  8
0
100
AcDbSpline
 62
7
  6
CONTINUOUS
 70
0
 71
3
 72
11
 73
7
 74
0
 42
0.0000001
 43
0.0000001
 44
0.0000000001
 40
0.0
 40
0.0
 40
0.0
 40
0.0
 40
0.246102732
 40
0.4938029764
 40
0.7446937035
 40
1.0
 40
1.0
 40
1.0
 40
1.0
 10
19.5151270573
 20
213.5081721274
 30
0.0
 10
18.2784158748
 20
214.2224137866
 30
0.0
 10
15.7041734562
 20
215.5012232208
 30
0.0
 10
11.6146878277
 20
216.9306526006
 30
0.0
 10
7.329492752
 20
217.8617639873
 30
0.0
 10
4.3976866706
 20
218.1425738284
 30
0.0
 10
2.9172693755
 20
218.2005681241
 30
0.0
  0
SPLINE
  5
303
100
AcDbEntity
  8
0
100
AcDbSpline
 62
7
  6
CONTINUOUS
 70
0
 71
3
 72
13
 73
9
 74
0
 42
0.0000001
 43
0.0000001
 44
0.0000000001
 40
0.0
 40
0.0
 40
0.0
 40
0.0
 40
0.1159704708
 40
0.2333812052
 40
0.3530005482
 40
0.4754636514
 40
0.7302592806
 40
1.0
 40
1.0
 40
1.0
 40
1.0
 10
24.9114488293
 20
216.2867668397
 30
0.0
 10
26.2997033367
 20
215.3125120647
 30
0.0
 10
28.9630495939
 20
213.1585558887
 30
0.0
 10
32.5184254228
 20
209.3961293881
 30
0.0
 10
35.6147261515
 20
205.1292297372
 30
0.0
 10
39.1312731624
 20
198.75191129
 30
0.0
 10
42.1822927458
 20
189.7060968281
 30
0.0
 10
43.0710119144
 20
182.0301661312
 30
0.0
 10
43.1675619904
 20
178.0865435472
 30
0.0
  0
SPLINE
  5
304
100
AcDbEntity
  8
0
100
AcDbSpline
 62
7
  6
CONTINUOUS
 70
0
 71
3
 72
9
 73
5
 74
0
 42
0.0000001
 43
0.0000001
 44
0.0000000001
 40
0.0
 40
0.0
 40
0.0
 40
0.0
 40
0.4934170039
 40
1.0
 40
1.0
 40
1.0
 40
1.0
 10
-33.3159673768
 20
214.2485112107
 30
0.0
 10
-36.2474554931
 20
212.1781036504
 30
0.0
 10
-41.8765293136
 20
207.5262592515
 30
0.0
 10
-46.7996868037
 20
202.1380248806
 30
0.0
 10
-49.0990327558
 20
199.2588302281
 30
0.0
  0
SPLINE
  5
305
100
AcDbEntity
  8
0
100
AcDbSpline
 62
7
  6
CONTINUOUS
 70
0
 71
3
 72
9
 73
5
 74
0
 42
0.0000001
 43
0.0000001
 44
0.0000000001
 40
0.0
 40
0.0
 40
0.0
 40
0.0
 40
0.5072788573
 40
1.0
 40
1.0
 40
1.0
 40
1.0
 10
-62.6633760337
 20
174.8547368802
 30
0.0
 10
-63.8856345603
 20
171.3999892956
 30
0.0
 10
-65.8416055504
 20
164.419408183
 30
0.0
 10
-66.7919963896
 20
157.2282068769
 30
0.0
 10
-66.98464026
 20
153.6740020649
 30
0.0
  0
SPLINE
  5
306
100
AcDbEntity
  8
0
100
AcDbSpline
 62
7
  6
CONTINUOUS
 70
0
 71
3
 72
9
 73
5
 74
0
 42
0.0000001
 43
0.0000001
 44
0.0000000001
 40
0.0
 40
0.0
 40
0.0
 40
0.0
 40
0.5112238827
 40
1.0
 40
1.0
 40
1.0
 40
1.0
 10
-67.0841310671
 20
150.0261549247
 30
0.0
 10
-67.0841310671
 20
146.8201070655
 30
0.0
 10
-66.6274511672
 20
140.5379002938
 30
0.0
 10
-65.1605629137
 20
134.4047187205
 30
0.0
 10
-64.1803012081
 20
131.5004164156
 30
0.0
  0
SPLINE
  5
307
100
AcDbEntity
  8
0
100
AcDbSpline
 62
7
  6
CONTINUOUS
 70
0
 71
3
 72
9
 73
5
 74
0
 42
0.0000001
 43
0.0000001
 44
0.0000000001
 40
0.0
 40
0.0
 40
0.0
 40
0.0
 40
0.5075638086
 40
1.0
 40
1.0
 40
1.0
 40
1.0
 10
-2.0949481564
 20
229.9201334465
 30
0.0
 10
-3.6256664917
 20
229.5263711944
 30
0.0
 10
-6.6896272444
 20
228.9247594754
 30
0.0
 10
-9.8062673551
 20
228.7114386812
 30
0.0
 10
-11.3397120809
 20
228.7099158035
 30
0.0
  0
SPLINE
  5
308
100
AcDbEntity
  8
0
100
AcDbSpline
 62
7
  6
CONTINUOUS
 70
0
 71
3
 72
9
 73
5
 74
0
 42
0.0000001
 43
0.0000001
 44
0.0000000001
 40
0.0
 40
0.0
 40
0.0
 40
0.0
 40
0.5054858578
 40
1.0
 40
1.0
 40
1.0
 40
1.0
 10
-11.3397120809
 20
228.7099158035
 30
0.0
 10
-12.832070748
 20
228.7084337288
 30
0.0
 10
-15.7884195239
 20
228.899511374
 30
0.0
 10
-18.6903182803
 20
229.5018652008
 30
0.0
 10
-20.0943090449
 20
229.9022581204
 30
0.0
  0
SPLINE
  5
309
100
AcDbEntity
  8
0
100
AcDbSpline
 62
7
  6
CONTINUOUS
 70
0
 71
3
 72
9
 73
5
 74
0
 42
0.0000001
 43
0.0000001
 44
0.0000000001
 40
0.0
 40
0.0
 40
0.0
 40
0.0
 40
0.5097651779
 40
1.0
 40
1.0
 40
1.0
 40
1.0
 10
-63.3745959862
 20
129.2869647547
 30
0.0
 10
-62.2653268732
 20
126.4519407281
 30
0.0
 10
-59.5601761936
 20
121.0779837038
 30
0.0
 10
-55.7839768899
 20
116.3816091593
 30
0.0
 10
-53.7027210827
 20
114.3225633006
 30
0.0
  0
SPLINE
  5
30A
100
AcDbEntity
  8
0
100
AcDbSpline
 62
7
  6
CONTINUOUS
 70
0
 71
3
 72
9
 73
5
 74
0
 42
0.0000001
 43
0.0000001
 44
0.0000000001
 40
0.0
 40
0.0
 40
0.0
 40
0.0
 40
0.2466892495
 40
1.0
 40
1.0
 40
1.0
 40
1.0
 10
-13.778344109
 20
223.6121459437
 30
0.0
 10
-14.3608479828
 20
223.4560025866
 30
0.0
 10
-16.7112518442
 20
222.7829276639
 30
0.0
 10
-19.0160279553
 20
221.9520844218
 30
0.0
 10
-20.7174910328
 20
221.2474999637
 30
0.0
  0
SPLINE
  5
30B
100
AcDbEntity
  8
0
100
AcDbSpline
 62
7
  6
CONTINUOUS
 70
0
 71
3
 72
9
 73
5
 74
0
 42
0.0000001
 43
0.0000001
 44
0.0000000001
 40
0.0
 40
0.0
 40
0.0
 40
0.0
 40
0.2460140919
 40
1.0
 40
1.0
 40
1.0
 40
1.0
 10
-22.1172063754
 20
220.6468227096
 30
0.0
 10
-22.8872060478
 20
220.3047568867
 30
0.0
 10
-25.9878536764
 20
218.8490732275
 30
0.0
 10
-28.967953876
 20
217.1391226354
 30
0.0
 10
-31.1320078087
 20
215.7301958815
 30
0.0
  0
SPLINE
  5
30C
100
AcDbEntity
  8
0
100
AcDbSpline
 62
7
  6
CONTINUOUS
 70
0
 71
3
 72
13
 73
9
 74
0
 42
0.0000001
 43
0.0000001
 44
0.0000000001
 40
0.0
 40
0.0
 40
0.0
 40
0.0
 40
0.2706651133
 40
0.5251749196
 40
0.6472685653
 40
0.7665325434
 40
0.8837878899
 40
1.0
 40
1.0
 40
1.0
 40
1.0
 10
2.7281712869
 20
108.0958486259
 30
0.0
 10
-1.0058735534
 20
106.0633633912
 30
0.0
 10
-8.6671111793
 20
102.8186119121
 30
0.0
 10
-18.7923491725
 20
101.0650809235
 30
0.0
 10
-26.5994787192
 20
101.2617044256
 30
0.0
 10
-32.1775810367
 20
102.1705804255
 30
0.0
 10
-37.4816865469
 20
103.833445716
 30
0.0
 10
-40.7977753353
 20
105.4353560349
 30
0.0
 10
-42.378397524
 20
106.348347608
 30
0.0
  0
SPLINE
  5
30D
100
AcDbEntity
  8
0
100
AcDbSpline
 62
7
  6
CONTINUOUS
 70
0
 71
3
 72
9
 73
5
 74
0
 42
0.0000001
 43
0.0000001
 44
0.0000000001
 40
0.0
 40
0.0
 40
0.0
 40
0.0
 40
0.4910120798
 40
1.0
 40
1.0
 40
1.0
 40
1.0
 10
0.8316704971
 20
208.9831188102
 30
0.0
 10
-0.9763605983
 20
209.0572191654
 30
0.0
 10
-4.6759325244
 20
208.9040960873
 30
0.0
 10
-8.3069113617
 20
208.1940805979
 30
0.0
 10
-10.1187431028
 20
207.708409166
 30
0.0
  0
SPLINE
  5
30E
100
AcDbEntity
  8
0
100
AcDbSpline
 62
7
  6
CONTINUOUS
 70
0
 71
3
 72
9
 73
5
 74
0
 42
0.0000001
 43
0.0000001
 44
0.0000000001
 40
0.0
 40
0.0
 40
0.0
 40
0.0
 40
0.2434381716
 40
1.0
 40
1.0
 40
1.0
 40
1.0
 10
-10.1187431028
 20
207.708409166
 30
0.0
 10
-11.0510719496
 20
207.458493307
 30
0.0
 10
-14.8440058436
 20
206.2963510877
 30
0.0
 10
-18.470964526
 20
204.6118856409
 30
0.0
 10
-21.0691567027
 20
203.1124820041
 30
0.0
  0
SPLINE
  5
30F
100
AcDbEntity
  8
0
100
AcDbSpline
 62
7
  6
CONTINUOUS
 70
0
 71
3
 72
20
 73
16
 74
0
 42
0.0000001
 43
0.0000001
 44
0.0000000001
 40
0.0
 40
0.0
 40
0.0
 40
0.0
 40
0.129991696
 40
0.1974157848
 40
0.2657606307
 40
0.4028551946
 40
0.4706897483
 40
0.5372929479
 40
0.6649038332
 40
0.725594271
 40
0.7840012508
 40
0.8402468973
 40
0.8946428643
 40
0.9476812779
 40
1.0
 40
1.0
 40
1.0
 40
1.0
 10
-23.154755581
 20
211.2118188899
 30
0.0
 10
-27.6473335796
 20
208.627305011
 30
0.0
 10
-33.9917615047
 20
203.8100190356
 30
0.0
 10
-41.2755508743
 20
196.096525762
 30
0.0
 10
-47.8650546392
 20
187.4173119755
 30
0.0
 10
-53.0530153119
 20
177.727164921
 30
0.0
 10
-56.585174876
 20
167.4737415136
 30
0.0
 10
-58.890818917
 20
157.2682341552
 30
0.0
 10
-59.4374647697
 20
146.9983921822
 30
0.0
 10
-58.0190313985
 20
137.2386862875
 30
0.0
 10
-56.0486776617
 20
130.5041907171
 30
0.0
 10
-53.1875577362
 20
124.3708510429
 30
0.0
 10
-49.4848675654
 20
118.9585100663
 30
0.0
 10
-45.0111042699
 20
114.3796256374
 30
0.0
 10
-41.5590167715
 20
111.9377773167
 30
0.0
 10
-39.7526132629
 20
110.8945194749
 30
0.0
  0
SPLINE
  5
310
100
AcDbEntity
  8
0
100
AcDbSpline
 62
7
  6
CONTINUOUS
 70
0
 71
3
 72
9
 73
5
 74
0
 42
0.0000001
 43
0.0000001
 44
0.0000000001
 40
0.0
 40
0.0
 40
0.0
 40
0.0
 40
0.5077969639
 40
1.0
 40
1.0
 40
1.0
 40
1.0
 10
-14.3052779054
 20
117.9781893214
 30
0.0
 10
-15.8961930073
 20
117.6111181563
 30
0.0
 10
-19.077531182
 20
117.0808200267
 30
0.0
 10
-22.3029876904
 20
116.9807035664
 30
0.0
 10
-23.8842343998
 20
117.0455093892
 30
0.0
  0
SPLINE
  5
311
100
AcDbEntity
  8
0
100
AcDbSpline
 62
7
  6
CONTINUOUS
 70
0
 71
3
 72
9
 73
5
 74
0
 42
0.0000001
 43
0.0000001
 44
0.0000000001
 40
0.0
 40
0.0
 40
0.0
 40
0.0
 40
0.4895583458
 40
1.0
 40
1.0
 40
1.0
 40
1.0
 10
7.4763160138
 20
224.3919490165
 30
0.0
 10
4.5898703281
 20
225.0142702857
 30
0.0
 10
-1.4641484685
 20
225.622393613
 30
0.0
 10
-7.5041015909
 20
224.9778511173
 30
0.0
 10
-10.5230448747
 20
224.3740736905
 30
0.0
  0
SPLINE
  5
312
100
AcDbEntity
  8
0
100
AcDbSpline
 62
7
  6
CONTINUOUS
 70
0
 71
3
 72
9
 73
5
 74
0
 42
0.0000001
 43
0.0000001
 44
0.0000000001
 40
0.0
 40
0.0
 40
0.0
 40
0.0
 40
0.2539474803
 40
1.0
 40
1.0
 40
1.0
 40
1.0
 10
-24.746163568
 20
113.2074074036
 30
0.0
 10
-25.3618586815
 20
113.1280720271
 30
0.0
 10
-27.7927671343
 20
112.8685302955
 30
0.0
 10
-30.2475413822
 20
112.8245020641
 30
0.0
 10
-32.0686249147
 20
112.9232195437
 30
0.0
  0
SPLINE
  5
313
100
AcDbEntity
  8
0
100
AcDbSpline
 62
7
  6
CONTINUOUS
 70
0
 71
3
 72
13
 73
9
 74
0
 42
0.0000001
 43
0.0000001
 44
0.0000000001
 40
0.0
 40
0.0
 40
0.0
 40
0.0
 40
0.1155595758
 40
0.2327234481
 40
0.3522463005
 40
0.4747417465
 40
0.7298584945
 40
1.0
 40
1.0
 40
1.0
 40
1.0
 10
-45.9050325971
 20
108.6606476543
 30
0.0
 10
-47.2843880862
 20
109.6807200899
 30
0.0
 10
-49.9241397525
 20
111.929167519
 30
0.0
 10
-53.4251346637
 20
115.8329604782
 30
0.0
 10
-56.4508729837
 20
120.2416497717
 30
0.0
 10
-59.8516292572
 20
126.8100991418
 30
0.0
 10
-62.7143129116
 20
136.0797516359
 30
0.0
 10
-63.4245300608
 20
143.9019883093
 30
0.0
 10
-63.4245300608
 20
147.9124373485
 30
0.0
  0
SPLINE
  5
314
100
AcDbEntity
  8
0
100
AcDbSpline
 62
7
  6
CONTINUOUS
 70
0
 71
3
 72
11
 73
7
 74
0
 42
0.0000001
 43
0.0000001
 44
0.0000000001
 40
0.0
 40
0.0
 40
0.0
 40
0.0
 40
0.2624366614
 40
0.5152651758
 40
0.7602624449
 40
1.0
 40
1.0
 40
1.0
 40
1.0
 10
-10.1187431028
 20
221.4984283675
 30
0.0
 10
-7.6634553809
 20
222.1565817029
 30
0.0
 10
-2.7406353342
 20
223.1048989083
 30
0.0
 10
4.6518456091
 20
223.3415430899
 30
0.0
 10
11.762894967
 20
222.3555188876
 30
0.0
 10
16.252429977
 20
220.8788474268
 30
0.0
 10
18.3812114281
 20
219.9512387031
 30
0.0
  0
SPLINE
  5
315
100
AcDbEntity
  8
0
100
AcDbSpline
 62
7
  6
CONTINUOUS
 70
0
 71
3
 72
13
 73
9
 74
0
 42
0.0000001
 43
0.0000001
 44
0.0000000001
 40
0.0
 40
0.0
 40
0.0
 40
0.0
 40
0.2434942291
 40
0.370044282
 40
0.4981220717
 40
0.6264545639
 40
0.7537519927
 40
1.0
 40
1.0
 40
1.0
 40
1.0
 10
-63.4245300608
 20
147.9124373485
 30
0.0
 10
-63.4245300608
 20
154.2220691698
 30
0.0
 10
-62.0469119857
 20
163.8553356613
 30
0.0
 10
-57.9393729688
 20
176.1100627004
 30
0.0
 10
-53.6837148281
 20
185.1027406317
 30
0.0
 10
-48.393505663
 20
193.5508853715
 30
0.0
 10
-40.2340603255
 20
203.7001040786
 30
0.0
 10
-32.8199180986
 20
210.1349330359
 30
0.0
 10
-27.4724068024
 20
213.6164783053
 30
0.0
  0
SPLINE
  5
316
100
AcDbEntity
  8
0
100
AcDbSpline
 62
7
  6
CONTINUOUS
 70
0
 71
3
 72
9
 73
5
 74
0
 42
0.0000001
 43
0.0000001
 44
0.0000000001
 40
0.0
 40
0.0
 40
0.0
 40
0.0
 40
0.5108686837
 40
1.0
 40
1.0
 40
1.0
 40
1.0
 10
-27.4724068024
 20
213.6164783053
 30
0.0
 10
-24.7439754642
 20
215.3928480393
 30
0.0
 10
-19.1481799372
 20
218.4971610136
 30
0.0
 10
-13.129653368
 20
220.691337363
 30
0.0
 10
-10.1187431028
 20
221.4984283675
 30
0.0
  0
SPLINE
  5
317
100
AcDbEntity
  8
0
100
AcDbSpline
 62
7
  6
CONTINUOUS
 70
0
 71
3
 72
13
 73
9
 74
0
 42
0.0000001
 43
0.0000001
 44
0.0000000001
 40
0.0
 40
0.0
 40
0.0
 40
0.0
 40
0.2685294995
 40
0.5223247551
 40
0.644665637
 40
0.7645559286
 40
0.88272212
 40
1.0
 40
1.0
 40
1.0
 40
1.0
 10
38.6001448807
 20
180.7360414995
 30
0.0
 10
38.2734380829
 20
184.244923111
 30
0.0
 10
36.9936492968
 20
191.0337281353
 30
0.0
 10
33.6399553906
 20
198.8883138643
 30
0.0
 10
30.0252227962
 20
204.3202194975
 30
0.0
 10
26.9199181129
 20
207.9057434361
 30
0.0
 10
23.4221450233
 20
211.0094490429
 30
0.0
 10
20.8479223297
 20
212.7384387247
 30
0.0
 10
19.5151270573
 20
213.5081721274
 30
0.0
  0
SPLINE
  5
318
100
AcDbEntity
  8
0
100
AcDbSpline
 62
7
  6
CONTINUOUS
 70
0
 71
3
 72
9
 73
5
 74
0
 42
0.0000001
 43
0.0000001
 44
0.0000000001
 40
0.0
 40
0.0
 40
0.0
 40
0.0
 40
0.2468557515
 40
1.0
 40
1.0
 40
1.0
 40
1.0
 10
-31.2241016056
 20
112.4354385646
 30
0.0
 10
-30.7029625232
 20
112.4071886047
 30
0.0
 10
-28.589652779
 20
112.3363254101
 30
0.0
 10
-26.4710915324
 20
112.4378525412
 30
0.0
 10
-24.8875094532
 20
112.6042756111
 30
0.0
  0
SPLINE
  5
319
100
AcDbEntity
  8
0
100
AcDbSpline
 62
7
  6
CONTINUOUS
 70
0
 71
3
 72
8
 73
4
 74
0
 42
0.0000001
 43
0.0000001
 44
0.0000000001
 40
0.0
 40
0.0
 40
0.0
 40
0.0
 40
1.0
 40
1.0
 40
1.0
 40
1.0
 10
-30.3795795834
 20
110.5134870557
 30
0.0
 10
-30.6612692317
 20
111.1540574202
 30
0.0
 10
-30.942782085
 20
111.7947055647
 30
0.0
 10
-31.2241016056
 20
112.4354385646
 30
0.0
  0
SPLINE
  5
31A
100
AcDbEntity
  8
0
100
AcDbSpline
 62
7
  6
CONTINUOUS
 70
0
 71
3
 72
11
 73
7
 74
0
 42
0.0000001
 43
0.0000001
 44
0.0000000001
 40
0.0
 40
0.0
 40
0.0
 40
0.0
 40
0.246102732
 40
0.4938029764
 40
0.7446937035
 40
1.0
 40
1.0
 40
1.0
 40
1.0
 10
-39.7526132629
 20
110.8945194749
 30
0.0
 10
-38.5159020803
 20
110.1802778158
 30
0.0
 10
-35.9416596617
 20
108.9014683816
 30
0.0
 10
-31.8521740333
 20
107.4720390018
 30
0.0
 10
-27.5669789576
 20
106.540927615
 30
0.0
 10
-24.6351728761
 20
106.260117774
 30
0.0
 10
-23.154755581
 20
106.2021234783
 30
0.0
  0
SPLINE
  5
31B
100
AcDbEntity
  8
0
100
AcDbSpline
 62
7
  6
CONTINUOUS
 70
0
 71
3
 72
9
 73
5
 74
0
 42
0.0000001
 43
0.0000001
 44
0.0000000001
 40
0.0
 40
0.0
 40
0.0
 40
0.0
 40
0.4922030361
 40
1.0
 40
1.0
 40
1.0
 40
1.0
 10
-21.0691567027
 20
115.4195727921
 30
0.0
 10
-19.4879099933
 20
115.3547669693
 30
0.0
 10
-16.2624534849
 20
115.4548834297
 30
0.0
 10
-13.0811153102
 20
115.9851815593
 30
0.0
 10
-11.4902002083
 20
116.3522527243
 30
0.0
  0
SPLINE
  5
31C
100
AcDbEntity
  8
0
100
AcDbSpline
 62
7
  6
CONTINUOUS
 70
0
 71
3
 72
14
 73
10
 74
0
 42
0.0000001
 43
0.0000001
 44
0.0000000001
 40
0.0
 40
0.0
 40
0.0
 40
0.0
 40
0.2471580489
 40
0.3759409916
 40
0.5057050997
 40
0.6346101286
 40
0.7608960029
 40
0.8830484955
 40
1.0
 40
1.0
 40
1.0
 40
1.0
 10
56.4462823087
 20
151.9541692437
 30
0.0
 10
56.4462823087
 20
147.2487880837
 30
0.0
 10
55.2203676507
 20
140.0484618097
 30
0.0
 10
51.6440222506
 20
131.0917461835
 30
0.0
 10
47.9723026308
 20
124.6632831334
 30
0.0
 10
43.4734292313
 20
118.8482931114
 30
0.0
 10
38.2926566632
 20
113.8334746484
 30
0.0
 10
32.6014493606
 20
109.7873210874
 30
0.0
 10
28.4870458945
 20
107.7778508714
 30
0.0
 10
26.4049589611
 20
106.9889982269
 30
0.0
  0
SPLINE
  5
31D
100
AcDbEntity
  8
0
100
AcDbSpline
 62
7
  6
CONTINUOUS
 70
0
 71
3
 72
13
 73
9
 74
0
 42
0.0000001
 43
0.0000001
 44
0.0000000001
 40
0.0
 40
0.0
 40
0.0
 40
0.0
 40
0.2652052894
 40
0.5362358252
 40
0.6644343081
 40
0.7837848647
 40
0.8945732651
 40
1.0
 40
1.0
 40
1.0
 40
1.0
 10
26.4049589611
 20
104.6918065506
 30
0.0
 10
26.4049589611
 20
103.9817452722
 30
0.0
 10
26.034854837
 20
102.5382415825
 30
0.0
 10
24.9152163055
 20
101.0859451654
 30
0.0
 10
23.7408907573
 20
100.3222999486
 30
0.0
 10
22.8173536689
 20
100.0184046942
 30
0.0
 10
21.9035826444
 20
100.0042721915
 30
0.0
 10
21.34303468
 20
100.2007980275
 30
0.0
 10
21.0986031594
 20
100.3419697948
 30
0.0
  0
SPLINE
  5
31E
100
AcDbEntity
  8
0
100
AcDbSpline
 62
7
  6
CONTINUOUS
 70
0
 71
3
 72
11
 73
7
 74
0
 42
0.0000001
 43
0.0000001
 44
0.0000000001
 40
0.0
 40
0.0
 40
0.0
 40
0.0
 40
0.2602433304
 40
0.5120528675
 40
0.7576627133
 40
1.0
 40
1.0
 40
1.0
 40
1.0
 10
19.7933884856
 20
105.2167305119
 30
0.0
 10
18.2994630749
 20
104.9818331123
 30
0.0
 10
15.3197433012
 20
104.7370875434
 30
0.0
 10
10.9111243576
 20
105.0927114437
 30
0.0
 10
6.7283044892
 20
106.1736334259
 30
0.0
 10
4.1375966363
 20
107.3704140525
 30
0.0
 10
2.9181387646
 20
108.0747056239
 30
0.0
  0
SPLINE
  5
31F
100
AcDbEntity
  8
0
100
AcDbSpline
 62
7
  6
CONTINUOUS
 70
0
 71
3
 72
13
 73
9
 74
0
 42
0.0000001
 43
0.0000001
 44
0.0000000001
 40
0.0
 40
0.0
 40
0.0
 40
0.0
 40
0.2714322954
 40
0.5262141981
 40
0.6482248298
 40
0.7672620816
 40
0.8841829796
 40
1.0
 40
1.0
 40
1.0
 40
1.0
 10
-7.4793397254
 20
134.8185557738
 30
0.0
 10
-7.4793397254
 20
132.289111962
 30
0.0
 10
-6.9885677723
 20
127.3661316376
 30
0.0
 10
-4.9932954771
 20
121.5927344445
 30
0.0
 10
-2.6345638399
 20
117.6043326974
 30
0.0
 10
-0.5452396364
 20
114.9886928177
 30
0.0
 10
1.8606027512
 20
112.7451393475
 30
0.0
 10
3.6590626449
 20
111.5154305486
 30
0.0
 10
4.5936372647
 20
110.9755924957
 30
0.0
  0
SPLINE
  5
320
100
AcDbEntity
  8
0
100
AcDbSpline
 62
7
  6
CONTINUOUS
 70
0
 71
3
 72
12
 73
8
 74
0
 42
0.0000001
 43
0.0000001
 44
0.0000000001
 40
0.0
 40
0.0
 40
0.0
 40
0.0
 40
0.2698937055
 40
0.5251560401
 40
0.7670866923
 40
0.8843937221
 40
1.0
 40
1.0
 40
1.0
 40
1.0
 10
-49.6590226218
 20
156.8395310269
 30
0.0
 10
-49.6590226218
 20
154.392676593
 30
0.0
 10
-49.2348215709
 20
149.6159088025
 30
0.0
 10
-47.2254949637
 20
142.9061863448
 30
0.0
 10
-44.4327359881
 20
138.0164204507
 30
0.0
 10
-41.622045336
 20
134.7427550087
 30
0.0
 10
-40.045032355
 20
133.327377722
 30
0.0
 10
-39.2200263223
 20
132.6809655604
 30
0.0
  0
SPLINE
  5
321
100
AcDbEntity
  8
0
100
AcDbSpline
 62
7
  6
CONTINUOUS
 70
0
 71
3
 72
9
 73
5
 74
0
 42
0.0000001
 43
0.0000001
 44
0.0000000001
 40
0.0
 40
0.0
 40
0.0
 40
0.0
 40
0.5056767024
 40
1.0
 40
1.0
 40
1.0
 40
1.0
 10
-32.0820723055
 20
111.6404368465
 30
0.0
 10
-34.2467656616
 20
111.7237583822
 30
0.0
 10
-38.5230320807
 20
112.2440728032
 30
0.0
 10
-42.6418359224
 20
113.5160232207
 30
0.0
 10
-44.5988652884
 20
114.3250442902
 30
0.0
  0
SPLINE
  5
322
100
AcDbEntity
  8
0
100
AcDbSpline
 62
7
  6
CONTINUOUS
 70
0
 71
3
 72
19
 73
15
 74
0
 42
0.0000001
 43
0.0000001
 44
0.0000000001
 40
0.0
 40
0.0
 40
0.0
 40
0.0
 40
0.0523306562
 40
0.1053801321
 40
0.159785627
 40
0.2160393067
 40
0.274452873
 40
0.3351488412
 40
0.4627703643
 40
0.5970192885
 40
0.6655874398
 40
0.7343313369
 40
0.8699441536
 40
1.0
 40
1.0
 40
1.0
 40
1.0
 10
41.604710182
 20
175.0549954161
 30
0.0
 10
40.4773733909
 20
175.7061786234
 30
0.0
 10
38.0808107444
 20
176.8109091831
 30
0.0
 10
34.2105422079
 20
177.8020159975
 30
0.0
 10
30.1302264041
 20
178.1167734426
 30
0.0
 10
25.9224869251
 20
177.7521252022
 30
0.0
 10
21.6675802844
 20
176.718973845
 30
0.0
 10
15.9480940373
 20
174.4443284685
 30
0.0
 10
9.1442980056
 20
170.0271457829
 30
0.0
 10
3.3900177173
 20
164.0622475474
 30
0.0
 10
-0.4850269415
 20
158.5150783078
 30
0.0
 10
-3.7725333912
 20
152.5614738033
 30
0.0
 10
-6.6324509914
 20
144.6806175697
 30
0.0
 10
-7.4793397254
 20
138.0541146122
 30
0.0
 10
-7.4793397254
 20
134.8185557738
 30
0.0
  0
SPLINE
  5
323
100
AcDbEntity
  8
0
100
AcDbSpline
 62
7
  6
CONTINUOUS
 70
0
 71
3
 72
11
 73
7
 74
0
 42
0.0000001
 43
0.0000001
 44
0.0000000001
 40
0.0
 40
0.0
 40
0.0
 40
0.0
 40
0.2353106723
 40
0.4783864141
 40
0.7327081031
 40
1.0
 40
1.0
 40
1.0
 40
1.0
 10
14.0041275541
 20
216.0819301833
 30
0.0
 10
16.1635014383
 20
214.4361455871
 30
0.0
 10
20.1671441917
 20
210.5519546275
 30
0.0
 10
24.7955872938
 20
203.4016379867
 30
0.0
 10
27.9847504458
 20
195.1148382197
 30
0.0
 10
29.0665387909
 20
189.1565970854
 30
0.0
 10
29.3647668009
 20
186.0869948241
 30
0.0
  0
SPLINE
  5
324
100
AcDbEntity
  8
0
100
AcDbSpline
 62
7
  6
CONTINUOUS
 70
0
 71
3
 72
19
 73
15
 74
0
 42
0.0000001
 43
0.0000001
 44
0.0000000001
 40
0.0
 40
0.0
 40
0.0
 40
0.0
 40
0.0523616744
 40
0.1058425686
 40
0.1609256497
 40
0.2179483576
 40
0.2770884434
 40
0.3383672705
 40
0.4665335234
 40
0.6003920669
 40
0.6684759307
 40
0.7366202122
 40
0.8709578698
 40
1.0
 40
1.0
 40
1.0
 40
1.0
 10
0.9125553973
 20
202.1590616173
 30
0.0
 10
-0.3469870955
 20
202.6666207393
 30
0.0
 10
-2.9872143371
 20
203.4729874328
 30
0.0
 10
-7.1432367607
 20
204.0134223299
 30
0.0
 10
-11.4529113657
 20
203.8886862273
 30
0.0
 10
-15.8393281786
 20
203.1036582761
 30
0.0
 10
-20.2282057957
 20
201.6747287046
 30
0.0
 10
-26.0671072781
 20
198.9070234553
 30
0.0
 10
-32.9372574392
 20
193.9665463158
 30
0.0
 10
-38.7211625442
 20
187.570713118
 30
0.0
 10
-42.600789914
 20
181.7267960923
 30
0.0
 10
-45.8853923033
 20
175.5144827775
 30
0.0
 10
-48.7541432374
 20
167.3457169026
 30
0.0
 10
-49.6318759906
 20
160.5053687049
 30
0.0
 10
-49.6577850055
 20
157.1588525582
 30
0.0
  0
SPLINE
  5
325
100
AcDbEntity
  8
0
100
AcDbSpline
 62
7
  6
CONTINUOUS
 70
0
 71
3
 72
13
 73
9
 74
0
 42
0.0000001
 43
0.0000001
 44
0.0000000001
 40
0.0
 40
0.0
 40
0.0
 40
0.0
 40
0.115815496
 40
0.2327353055
 40
0.351771631
 40
0.4737814658
 40
0.7285633065
 40
1.0
 40
1.0
 40
1.0
 40
1.0
 10
43.2802137459
 20
177.9558912049
 30
0.0
 10
44.2993931698
 20
177.3671860063
 30
0.0
 10
46.2606606699
 20
176.0261480731
 30
0.0
 10
48.8843112556
 20
173.5794970894
 30
0.0
 10
51.1627964932
 20
170.7270660508
 30
0.0
 10
53.7350935728
 20
166.3775766912
 30
0.0
 10
55.911065004
 20
160.0814307491
 30
0.0
 10
56.4462823087
 20
154.7126749198
 30
0.0
 10
56.4462823087
 20
151.9541692437
 30
0.0
  0
SPLINE
  5
326
100
AcDbEntity
  8
0
100
AcDbSpline
 62
7
  6
CONTINUOUS
 70
0
 71
3
 72
19
 73
15
 74
0
 42
0.0000001
 43
0.0000001
 44
0.0000000001
 40
0.0
 40
0.0
 40
0.0
 40
0.0
 40
0.130054367
 40
0.2656674461
 40
0.3344121061
 40
0.4029812826
 40
0.5372319514
 40
0.6648543956
 40
0.7255503819
 40
0.7839637047
 40
0.8402169048
 40
0.8946216979
 40
0.9476703029
 40
1.0
 40
1.0
 40
1.0
 40
1.0
 10
-10.247934862
 20
134.0764186681
 30
0.0
 10
-10.247934862
 20
137.6048866372
 30
0.0
 10
-9.3243837387
 20
144.8313230275
 30
0.0
 10
-6.2055513308
 20
153.4257130406
 30
0.0
 10
-2.6203685804
 20
159.9184109592
 30
0.0
 10
1.6055772485
 20
165.9679044126
 30
0.0
 10
7.880939031
 20
172.4729296905
 30
0.0
 10
15.3008477648
 20
177.2900416628
 30
0.0
 10
21.5382145576
 20
179.7705974126
 30
0.0
 10
26.178352079
 20
180.8972533418
 30
0.0
 10
30.7670265568
 20
181.2948827209
 30
0.0
 10
35.2167179743
 20
180.9516044372
 30
0.0
 10
39.4373315938
 20
179.8707614036
 30
0.0
 10
42.0508281767
 20
178.6660170754
 30
0.0
 10
43.2802137459
 20
177.9558912049
 30
0.0
  0
SPLINE
  5
327
100
AcDbEntity
  8
0
100
AcDbSpline
 62
7
  6
CONTINUOUS
 70
0
 71
3
 72
13
 73
9
 74
0
 42
0.0000001
 43
0.0000001
 44
0.0000000001
 40
0.0
 40
0.0
 40
0.0
 40
0.0
 40
0.2714322954
 40
0.5262141981
 40
0.6482248298
 40
0.7672620816
 40
0.8841829796
 40
1.0
 40
1.0
 40
1.0
 40
1.0
 10
53.6776871721
 20
151.212032138
 30
0.0
 10
53.6776871721
 20
153.7414759498
 30
0.0
 10
53.1869152191
 20
158.6644562742
 30
0.0
 10
51.1916429238
 20
164.4378534673
 30
0.0
 10
48.8329112866
 20
168.4262552144
 30
0.0
 10
46.7435870831
 20
171.0418950941
 30
0.0
 10
44.3377446955
 20
173.2854485643
 30
0.0
 10
42.5392848018
 20
174.5151573632
 30
0.0
 10
41.604710182
 20
175.0549954161
 30
0.0
  0
SPLINE
  5
328
100
AcDbEntity
  8
0
100
AcDbSpline
 62
7
  6
CONTINUOUS
 70
0
 71
3
 72
13
 73
9
 74
0
 42
0.0000001
 43
0.0000001
 44
0.0000000001
 40
0.0
 40
0.0
 40
0.0
 40
0.0
 40
0.1158149716
 40
0.2327335809
 40
0.3517709447
 40
0.4737824726
 40
0.7285670959
 40
1.0
 40
1.0
 40
1.0
 40
1.0
 10
2.9181387646
 20
108.0747056239
 30
0.0
 10
1.8989279188
 20
108.6633455637
 30
0.0
 10
-0.0622289173
 20
110.0045218829
 30
0.0
 10
-2.6859842689
 20
112.4510295157
 30
0.0
 10
-4.9644631313
 20
115.3035006177
 30
0.0
 10
-7.5367517758
 20
119.6530539858
 30
0.0
 10
-9.7127220347
 20
125.9492069603
 30
0.0
 10
-10.247934862
 20
131.3179517384
 30
0.0
 10
-10.247934862
 20
134.0764186681
 30
0.0
  0
SPLINE
  5
329
100
AcDbEntity
  8
0
100
AcDbSpline
 62
7
  6
CONTINUOUS
 70
0
 71
3
 72
11
 73
7
 74
0
 42
0.0000001
 43
0.0000001
 44
0.0000000001
 40
0.0
 40
0.0
 40
0.0
 40
0.0
 40
0.2323687036
 40
0.4731072381
 40
0.7282730154
 40
1.0
 40
1.0
 40
1.0
 40
1.0
 10
21.0986031594
 20
100.3419697948
 30
0.0
 10
20.8961394641
 20
100.4589029857
 30
0.0
 10
20.5185780952
 20
100.762685047
 30
0.0
 10
20.101122474
 20
101.3762157369
 30
0.0
 10
19.8466283989
 20
102.1137454283
 30
0.0
 10
19.7933884856
 20
102.6461319239
 30
0.0
 10
19.7933884856
 20
102.9195388355
 30
0.0
  0
SPLINE
  5
32A
100
AcDbEntity
  8
0
100
AcDbSpline
 62
7
  6
CONTINUOUS
 70
0
 71
3
 72
19
 73
15
 74
0
 42
0.0000001
 43
0.0000001
 44
0.0000000001
 40
0.0
 40
0.0
 40
0.0
 40
0.0
 40
0.0523306562
 40
0.1053801321
 40
0.159785627
 40
0.2160393067
 40
0.274452873
 40
0.3351488412
 40
0.4627703643
 40
0.5970192885
 40
0.6655874398
 40
0.7343313369
 40
0.8699441536
 40
1.0
 40
1.0
 40
1.0
 40
1.0
 10
4.5936372647
 20
110.9755924957
 30
0.0
 10
5.7209740558
 20
110.3244092884
 30
0.0
 10
8.1175367023
 20
109.2196787287
 30
0.0
 10
11.9878052388
 20
108.2285719143
 30
0.0
 10
16.0681210426
 20
107.9138144691
 30
0.0
 10
20.2758605217
 20
108.2784627096
 30
0.0
 10
24.5307671623
 20
109.3116140668
 30
0.0
 10
30.2502534094
 20
111.5862594433
 30
0.0
 10
37.0540494411
 20
116.0034421289
 30
0.0
 10
42.8083297294
 20
121.9683403644
 30
0.0
 10
46.6833743882
 20
127.515509604
 30
0.0
 10
49.970880838
 20
133.4691141085
 30
0.0
 10
52.8307984381
 20
141.3499703421
 30
0.0
 10
53.6776871721
 20
147.9764732996
 30
0.0
 10
53.6776871721
 20
151.212032138
 30
0.0
  0
SPLINE
  5
32B
100
AcDbEntity
  8
0
100
AcDbSpline
 62
7
  6
CONTINUOUS
 70
0
 71
3
 72
9
 73
5
 74
0
 42
0.0000001
 43
0.0000001
 44
0.0000000001
 40
0.0
 40
0.0
 40
0.0
 40
0.0
 40
0.5107475265
 40
1.0
 40
1.0
 40
1.0
 40
1.0
 10
-73.5983929216
 20
197.4733123402
 30
0.0
 10
-76.4982432327
 20
192.2626189977
 30
0.0
 10
-80.9966774959
 20
181.355074423
 30
0.0
 10
-82.6935973993
 20
169.6462996398
 30
0.0
 10
-82.6935973993
 20
163.934007313
 30
0.0
  0
SPLINE
  5
32C
100
AcDbEntity
  8
0
100
AcDbSpline
 62
7
  6
CONTINUOUS
 70
0
 71
3
 72
11
 73
7
 74
0
 42
0.0000001
 43
0.0000001
 44
0.0000000001
 40
0.0
 40
0.0
 40
0.0
 40
0.0
 40
0.2660631156
 40
0.5210570967
 40
0.7652329411
 40
1.0
 40
1.0
 40
1.0
 40
1.0
 10
-82.6935973993
 20
163.934007313
 30
0.0
 10
-82.6935973993
 20
161.2197863428
 30
0.0
 10
-82.3255424618
 20
155.8947382984
 30
0.0
 10
-80.5993111923
 20
148.2481667947
 30
0.0
 10
-77.7472298723
 20
141.2864025316
 30
0.0
 10
-75.08667669
 20
137.1471285227
 30
0.0
 10
-73.5983929216
 20
135.2707411386
 30
0.0
  0
SPLINE
  5
32D
100
AcDbEntity
  8
0
100
AcDbSpline
 62
7
  6
CONTINUOUS
 70
0
 71
3
 72
21
 73
17
 74
0
 42
0.0000001
 43
0.0000001
 44
0.0000000001
 40
0.0
 40
0.0
 40
0.0
 40
0.0
 40
0.0603755096
 40
0.1230984534
 40
0.1879615096
 40
0.2545748844
 40
0.390601929
 40
0.4589746411
 40
0.526624102
 40
0.6571483024
 40
0.7194372087
 40
0.7793635272
 40
0.8369816415
 40
0.8925845309
 40
0.9466913224
 40
1.0
 40
1.0
 40
1.0
 40
1.0
 10
-125.9253011464
 20
273.0626546127
 30
0.0
 10
-128.0344122445
 20
272.4972723515
 30
0.0
 10
-132.2456543397
 20
270.9886683452
 30
0.0
 10
-138.2557204138
 20
267.766868282
 30
0.0
 10
-143.9527810543
 20
263.621789188
 30
0.0
 10
-150.9970548014
 20
256.9611807597
 30
0.0
 10
-156.8329591587
 20
248.9473955437
 30
0.0
 10
-161.1508360414
 20
240.0854420449
 30
0.0
 10
-164.3173164706
 20
230.9629554469
 30
0.0
 10
-165.7626283881
 20
221.5246498178
 30
0.0
 10
-165.2284621828
 20
212.3724871425
 30
0.0
 10
-163.8763575644
 20
205.9824528205
 30
0.0
 10
-161.5869979117
 20
200.1213236119
 30
0.0
 10
-158.4016440229
 20
194.9344601013
 30
0.0
 10
-154.3909836918
 20
190.5633040262
 30
0.0
 10
-151.2180340258
 20
188.2670710573
 30
0.0
 10
-149.5487406118
 20
187.3023857124
 30
0.0
  0
SPLINE
  5
32E
100
AcDbEntity
  8
0
100
AcDbSpline
 62
7
  6
CONTINUOUS
 70
0
 71
3
 72
11
 73
7
 74
0
 42
0.0000001
 43
0.0000001
 44
0.0000000001
 40
0.0
 40
0.0
 40
0.0
 40
0.0
 40
0.24091755
 40
0.4857795779
 40
0.7379870784
 40
1.0
 40
1.0
 40
1.0
 40
1.0
 10
-101.5251167584
 20
270.4271068487
 30
0.0
 10
-103.2741115897
 20
271.4378516752
 30
0.0
 10
-107.0325692886
 20
273.1003843814
 30
0.0
 10
-113.1319188799
 20
274.3695331535
 30
0.0
 10
-119.5350547671
 20
274.4051700591
 30
0.0
 10
-123.8032887018
 20
273.6314730508
 30
0.0
 10
-125.9253009335
 20
273.0626560377
 30
0.0
  0
SPLINE
  5
32F
100
AcDbEntity
  8
0
100
AcDbSpline
 62
7
  6
CONTINUOUS
 70
0
 71
3
 72
11
 73
7
 74
0
 42
0.0000001
 43
0.0000001
 44
0.0000000001
 40
0.0
 40
0.0
 40
0.0
 40
0.0
 40
0.2451159883
 40
0.4922681502
 40
0.7433511969
 40
1.0
 40
1.0
 40
1.0
 40
1.0
 10
-96.744100804
 20
267.6656951499
 30
0.0
 10
-95.6132872495
 20
267.0124990053
 30
0.0
 10
-93.4322032962
 20
265.5375746926
 30
0.0
 10
-90.4860940846
 20
262.8725212364
 30
0.0
 10
-87.8922952236
 20
259.7834269412
 30
0.0
 10
-86.4359562767
 20
257.4934923986
 30
0.0
 10
-85.7748810417
 20
256.2965632362
 30
0.0
  0
SPLINE
  5
330
100
AcDbEntity
  8
0
100
AcDbSpline
 62
7
  6
CONTINUOUS
 70
0
 71
3
 72
11
 73
7
 74
0
 42
0.0000001
 43
0.0000001
 44
0.0000000001
 40
0.0
 40
0.0
 40
0.0
 40
0.0
 40
0.2694280795
 40
0.5248194243
 40
0.7672416546
 40
1.0
 40
1.0
 40
1.0
 40
1.0
 10
-118.2875972524
 20
193.4335916721
 30
0.0
 10
-118.2875972524
 20
190.8240756712
 30
0.0
 10
-117.8523549342
 20
185.7261261473
 30
0.0
 10
-115.7893441846
 20
178.5340253686
 30
0.0
 10
-112.3955433458
 20
172.2581408199
 30
0.0
 10
-109.2673830692
 20
168.8061276234
 30
0.0
 10
-107.551092568
 20
167.3444625242
 30
0.0
  0
SPLINE
  5
331
100
AcDbEntity
  8
0
100
AcDbSpline
 62
7
  6
CONTINUOUS
 70
0
 71
3
 72
11
 73
7
 74
0
 42
0.0000001
 43
0.0000001
 44
0.0000000001
 40
0.0
 40
0.0
 40
0.0
 40
0.0
 40
0.2694059759
 40
0.5247969576
 40
0.767232565
 40
1.0
 40
1.0
 40
1.0
 40
1.0
 10
-126.2999282278
 20
198.427443249
 30
0.0
 10
-126.2999282278
 20
195.8521147158
 30
0.0
 10
-125.8709737225
 20
190.820804336
 30
0.0
 10
-123.837926492
 20
183.7217238099
 30
0.0
 10
-120.4933146483
 20
177.5248497111
 30
0.0
 10
-117.410127792
 20
174.1139134201
 30
0.0
 10
-115.7182351379
 20
172.6687400811
 30
0.0
  0
SPLINE
  5
332
100
AcDbEntity
  8
0
100
AcDbSpline
 62
7
  6
CONTINUOUS
 70
0
 71
3
 72
11
 73
7
 74
0
 42
0.0000001
 43
0.0000001
 44
0.0000000001
 40
0.0
 40
0.0
 40
0.0
 40
0.0
 40
0.2693832965
 40
0.5247738633
 40
0.7672231637
 40
1.0
 40
1.0
 40
1.0
 40
1.0
 10
-134.3122592031
 20
203.4212948258
 30
0.0
 10
-134.3122592031
 20
200.8801546057
 30
0.0
 10
-133.8895911428
 20
195.9154853399
 30
0.0
 10
-131.8865000558
 20
188.9094313785
 30
0.0
 10
-128.5910655413
 20
182.7915814264
 30
0.0
 10
-125.5528450704
 20
179.4217391372
 30
0.0
 10
-123.8853482426
 20
177.9930677872
 30
0.0
  0
SPLINE
  5
333
100
AcDbEntity
  8
0
100
AcDbSpline
 62
7
  6
CONTINUOUS
 70
0
 71
3
 72
18
 73
14
 74
0
 42
0.0000001
 43
0.0000001
 44
0.0000000001
 40
0.0
 40
0.0
 40
0.0
 40
0.0
 40
0.0524583385
 40
0.1061480314
 40
0.1615078782
 40
0.2188318075
 40
0.3395469516
 40
0.4680028308
 40
0.6018262744
 40
0.6697754673
 40
0.7377230198
 40
0.8715425525
 40
1.0
 40
1.0
 40
1.0
 40
1.0
 10
-89.3040528925
 20
257.2558399078
 30
0.0
 10
-90.6626131767
 20
257.7350899035
 30
0.0
 10
-93.4997000468
 20
258.4712190216
 30
0.0
 10
-97.934325928
 20
258.8745359365
 30
0.0
 10
-102.5116165431
 20
258.5838142487
 30
0.0
 10
-108.8020733701
 20
257.2600603211
 30
0.0
 10
-116.6076438573
 20
253.857160016
 30
0.0
 10
-125.0889822433
 20
247.5055223023
 30
0.0
 10
-131.1153850033
 20
240.6389539069
 30
0.0
 10
-135.1361343745
 20
234.4064061614
 30
0.0
 10
-138.5250427296
 20
227.8081894872
 30
0.0
 10
-141.4612725583
 20
219.1624875537
 30
0.0
 10
-142.3245901785
 20
211.9428506568
 30
0.0
 10
-142.3245901785
 20
208.4151464027
 30
0.0
  0
SPLINE
  5
334
100
AcDbEntity
  8
0
100
AcDbSpline
 62
7
  6
CONTINUOUS
 70
0
 71
3
 72
11
 73
7
 74
0
 42
0.0000001
 43
0.0000001
 44
0.0000000001
 40
0.0
 40
0.0
 40
0.0
 40
0.0
 40
0.2693600187
 40
0.5247501153
 40
0.767213436
 40
1.0
 40
1.0
 40
1.0
 40
1.0
 10
-142.3245901785
 20
208.4151464027
 30
0.0
 10
-142.3245901785
 20
205.9081953607
 30
0.0
 10
-141.9082071401
 20
201.0101692286
 30
0.0
 10
-139.9350645293
 20
194.0971483444
 30
0.0
 10
-136.6887952141
 20
188.058336706
 30
0.0
 10
-133.6955337819
 20
184.7296061274
 30
0.0
 10
-132.0524306545
 20
183.3174473666
 30
0.0
  0
SPLINE
  5
335
100
AcDbEntity
  8
0
100
AcDbSpline
 62
7
  6
CONTINUOUS
 70
0
 71
3
 72
11
 73
7
 74
0
 42
0.0000001
 43
0.0000001
 44
0.0000000001
 40
0.0
 40
0.0
 40
0.0
 40
0.0
 40
0.2566442502
 40
0.5077344688
 40
0.7548890418
 40
1.0
 40
1.0
 40
1.0
 40
1.0
 10
-129.4151715903
 20
180.7154868114
 30
0.0
 10
-130.7834551739
 20
180.6893743918
 30
0.0
 10
-133.4971741202
 20
180.8056950861
 30
0.0
 10
-137.4728297298
 20
181.5081927649
 30
0.0
 10
-141.2569845948
 20
182.7289515954
 30
0.0
 10
-143.626708058
 20
183.8818560792
 30
0.0
 10
-144.7584923959
 20
184.5356129812
 30
0.0
  0
SPLINE
  5
336
100
AcDbEntity
  8
0
100
AcDbSpline
 62
7
  6
CONTINUOUS
 70
0
 71
3
 72
18
 73
14
 74
0
 42
0.0000001
 43
0.0000001
 44
0.0000000001
 40
0.0
 40
0.0
 40
0.0
 40
0.0
 40
0.0524548452
 40
0.1061375002
 40
0.1614884399
 40
0.2188031513
 40
0.3395032477
 40
0.4679537961
 40
0.6017825117
 40
0.6697376684
 40
0.7376925636
 40
0.8715282295
 40
1.0
 40
1.0
 40
1.0
 40
1.0
 10
-80.6099993745
 20
252.8416980874
 30
0.0
 10
-81.9848652718
 20
253.3291122918
 30
0.0
 10
-84.8564049644
 20
254.0787607932
 30
0.0
 10
-89.3459813528
 20
254.4930965974
 30
0.0
 10
-93.9807498332
 20
254.2041297873
 30
0.0
 10
-100.3511175088
 20
252.8702179827
 30
0.0
 10
-108.2573536257
 20
249.4307375005
 30
0.0
 10
-116.8491512207
 20
243.0038631398
 30
0.0
 10
-122.9546193699
 20
236.0528459388
 30
0.0
 10
-127.0284036135
 20
229.7424257934
 30
0.0
 10
-130.46220199
 20
223.0610286849
 30
0.0
 10
-133.4374237433
 20
214.305613461
 30
0.0
 10
-134.3122592031
 20
206.9939446068
 30
0.0
 10
-134.3122592031
 20
203.4212948258
 30
0.0
  0
SPLINE
  5
337
100
AcDbEntity
  8
0
100
AcDbSpline
 62
7
  6
CONTINUOUS
 70
0
 71
3
 72
14
 73
10
 74
0
 42
0.0000001
 43
0.0000001
 44
0.0000000001
 40
0.0
 40
0.0
 40
0.0
 40
0.0
 40
0.1118491371
 40
0.2263635891
 40
0.3445075008
 40
0.4669205358
 40
0.5938978005
 40
0.7254036079
 40
1.0
 40
1.0
 40
1.0
 40
1.0
 10
-71.9159678314
 20
248.4274991787
 30
0.0
 10
-73.328013539
 20
248.9305162435
 30
0.0
 10
-76.2797755909
 20
249.7016625977
 30
0.0
 10
-80.8970957552
 20
250.1169117955
 30
0.0
 10
-85.6635095184
 20
249.7983051642
 30
0.0
 10
-90.4936305138
 20
248.7546486278
 30
0.0
 10
-95.3058706017
 20
247.0064439353
 30
0.0
 10
-101.6731675714
 20
243.7368139674
 30
0.0
 10
-106.0440367658
 20
240.3933291846
 30
0.0
 10
-108.7217229732
 20
237.8688923467
 30
0.0
  0
SPLINE
  5
338
100
AcDbEntity
  8
0
100
AcDbSpline
 62
7
  6
CONTINUOUS
 70
0
 71
3
 72
9
 73
5
 74
0
 42
0.0000001
 43
0.0000001
 44
0.0000000001
 40
0.0
 40
0.0
 40
0.0
 40
0.0
 40
0.2476375114
 40
1.0
 40
1.0
 40
1.0
 40
1.0
 10
-108.7217229732
 20
237.8688923467
 30
0.0
 10
-109.3212363009
 20
237.3036903731
 30
0.0
 10
-111.6890811652
 20
234.9655178554
 30
0.0
 10
-113.8422568895
 20
232.4110347336
 30
0.0
 10
-115.327380185
 20
230.3959271412
 30
0.0
  0
SPLINE
  5
339
100
AcDbEntity
  8
0
100
AcDbSpline
 62
7
  6
CONTINUOUS
 70
0
 71
3
 72
9
 73
5
 74
0
 42
0.0000001
 43
0.0000001
 44
0.0000000001
 40
0.0
 40
0.0
 40
0.0
 40
0.0
 40
0.5103637484
 40
1.0
 40
1.0
 40
1.0
 40
1.0
 10
-121.1066306142
 20
220.6984215726
 30
0.0
 10
-122.7735121316
 20
217.1574431496
 30
0.0
 10
-125.3457703454
 20
209.8682834074
 30
0.0
 10
-126.2999282278
 20
202.182192305
 30
0.0
 10
-126.2999282278
 20
198.427443249
 30
0.0
  0
SPLINE
  5
33A
100
AcDbEntity
  8
0
100
AcDbSpline
 62
7
  6
CONTINUOUS
 70
0
 71
3
 72
13
 73
9
 74
0
 42
0.0000001
 43
0.0000001
 44
0.0000000001
 40
0.0
 40
0.0
 40
0.0
 40
0.0
 40
0.1125593154
 40
0.2276124929
 40
0.3460613577
 40
0.4685297335
 40
0.7260483518
 40
1.0
 40
1.0
 40
1.0
 40
1.0
 10
-63.221957659
 20
244.0132452375
 30
0.0
 10
-64.5801413805
 20
244.4993529015
 30
0.0
 10
-67.4127175143
 20
245.2566773071
 30
0.0
 10
-71.840787529
 20
245.7147349918
 30
0.0
 10
-76.4144576223
 20
245.5005635074
 30
0.0
 10
-82.7083649842
 20
244.3076635706
 30
0.0
 10
-90.5552387483
 20
241.1150208812
 30
0.0
 10
-96.1694460153
 20
237.1558706266
 30
0.0
 10
-98.8240023534
 20
234.8580226974
 30
0.0
  0
SPLINE
  5
33B
100
AcDbEntity
  8
0
100
AcDbSpline
 62
7
  6
CONTINUOUS
 70
0
 71
3
 72
12
 73
8
 74
0
 42
0.0000001
 43
0.0000001
 44
0.0000000001
 40
0.0
 40
0.0
 40
0.0
 40
0.0
 40
0.2535175698
 40
0.3813017093
 40
0.5086941134
 40
0.7591537997
 40
1.0
 40
1.0
 40
1.0
 40
1.0
 10
-103.0972944305
 20
230.7237366112
 30
0.0
 10
-105.4606834239
 20
228.1747407008
 30
0.0
 10
-108.6669368287
 20
223.9976345754
 30
0.0
 10
-112.1447718746
 20
217.9444176271
 30
0.0
 10
-115.0525043389
 20
211.6413153158
 30
0.0
 10
-117.5581111698
 20
203.4860387037
 30
0.0
 10
-118.2875972524
 20
196.735909753
 30
0.0
 10
-118.2875972524
 20
193.4335916721
 30
0.0
  0
SPLINE
  5
33C
100
AcDbEntity
  8
0
100
AcDbSpline
 62
7
  6
CONTINUOUS
 70
0
 71
3
 72
13
 73
9
 74
0
 42
0.0000001
 43
0.0000001
 44
0.0000000001
 40
0.0
 40
0.0
 40
0.0
 40
0.0
 40
0.1095320488
 40
0.2223950863
 40
0.3398500533
 40
0.4625897179
 40
0.7231568554
 40
1.0
 40
1.0
 40
1.0
 40
1.0
 10
-11.5429088097
 20
228.8693194255
 30
0.0
 10
-13.754421157
 20
229.686470936
 30
0.0
 10
-18.4323315651
 20
230.8750579932
 30
0.0
 10
-25.7811428132
 20
231.238880637
 30
0.0
 10
-33.3517576393
 20
230.2083724382
 30
0.0
 10
-43.6758540918
 20
226.9622058463
 30
0.0
 10
-56.046464061
 20
219.5539411418
 30
0.0
 10
-64.1749264826
 20
211.1343383838
 30
0.0
 10
-67.778135243
 20
206.3881412289
 30
0.0
  0
SPLINE
  5
33D
100
AcDbEntity
  8
0
100
AcDbSpline
 62
7
  6
CONTINUOUS
 70
0
 71
3
 72
12
 73
8
 74
0
 42
0.0000001
 43
0.0000001
 44
0.0000000001
 40
0.0
 40
0.0
 40
0.0
 40
0.0
 40
0.2409423136
 40
0.4916037974
 40
0.6190623889
 40
0.7468418986
 40
1.0
 40
1.0
 40
1.0
 40
1.0
 10
-128.9707052196
 20
200.0920604413
 30
0.0
 10
-128.9707052196
 20
203.4128512664
 30
0.0
 10
-128.221203071
 20
210.2025971733
 30
0.0
 10
-125.6519689594
 20
218.3917393158
 30
0.0
 10
-122.6734854986
 20
224.706023192
 30
0.0
 10
-119.1166986364
 20
230.7507708716
 30
0.0
 10
-115.8407521689
 20
234.9042025973
 30
0.0
 10
-113.4285193434
 20
237.4251817818
 30
0.0
  0
SPLINE
  5
33E
100
AcDbEntity
  8
0
100
AcDbSpline
 62
7
  6
CONTINUOUS
 70
0
 71
3
 72
14
 73
10
 74
0
 42
0.0000001
 43
0.0000001
 44
0.0000000001
 40
0.0
 40
0.0
 40
0.0
 40
0.0
 40
0.2748471612
 40
0.4058550022
 40
0.5321767667
 40
0.6540244311
 40
0.7719607369
 40
0.8868890961
 40
1.0
 40
1.0
 40
1.0
 40
1.0
 10
-108.3229548451
 20
242.1091571609
 30
0.0
 10
-105.5231329144
 20
244.3526409637
 30
0.0
 10
-101.0075316653
 20
247.2443685169
 30
0.0
 10
-94.5466250782
 20
249.8372106315
 30
0.0
 10
-89.7333594333
 20
251.0600860229
 30
0.0
 10
-84.9636394859
 20
251.565154051
 30
0.0
 10
-80.318942173
 20
251.3405302097
 30
0.0
 10
-75.8838602297
 20
250.3872044109
 30
0.0
 10
-73.1062330142
 20
249.2688465994
 30
0.0
 10
-71.7898350419
 20
248.6001058244
 30
0.0
  0
SPLINE
  5
33F
100
AcDbEntity
  8
0
100
AcDbSpline
 62
7
  6
CONTINUOUS
 70
0
 71
3
 72
11
 73
7
 74
0
 42
0.0000001
 43
0.0000001
 44
0.0000000001
 40
0.0
 40
0.0
 40
0.0
 40
0.0
 40
0.2702995693
 40
0.5256697789
 40
0.7675383294
 40
1.0
 40
1.0
 40
1.0
 40
1.0
 10
-128.557230187
 20
200.2028946907
 30
0.0
 10
-128.557230187
 20
197.5170394631
 30
0.0
 10
-128.0841692645
 20
192.2762504501
 30
0.0
 10
-125.8345420076
 20
184.9260561525
 30
0.0
 10
-122.138456175
 20
178.6069119285
 30
0.0
 10
-118.7495233194
 20
175.2366575344
 30
0.0
 10
-116.9034415007
 20
173.8483105194
 30
0.0
  0
SPLINE
  5
340
100
AcDbEntity
  8
0
100
AcDbSpline
 62
7
  6
CONTINUOUS
 70
0
 71
3
 72
18
 73
14
 74
0
 42
0.0000001
 43
0.0000001
 44
0.0000000001
 40
0.0
 40
0.0
 40
0.0
 40
0.0
 40
0.0523901548
 40
0.1059287968
 40
0.1610922915
 40
0.2182099235
 40
0.3385831872
 40
0.4669139258
 40
0.6008505607
 40
0.668931195
 40
0.7370419189
 40
0.8712210538
 40
1.0
 40
1.0
 40
1.0
 40
1.0
 10
-91.5704482175
 20
257.9614531579
 30
0.0
 10
-92.902841874
 20
258.4846013832
 30
0.0
 10
-95.6940053704
 20
259.3102376748
 30
0.0
 10
-100.0816157226
 20
259.8422503252
 30
0.0
 10
-104.6273047311
 20
259.67295279
 30
0.0
 10
-110.8948029719
 20
258.5012162232
 30
0.0
 10
-118.7059023651
 20
255.2577797807
 30
0.0
 10
-127.2172923798
 20
249.0488279714
 30
0.0
 10
-133.2779729291
 20
242.2676338483
 30
0.0
 10
-137.3280602843
 20
236.0855948313
 30
0.0
 10
-140.7458364175
 20
229.5243427457
 30
0.0
 10
-143.7093332797
 20
220.9109983751
 30
0.0
 10
-144.5818921377
 20
213.7091306022
 30
0.0
 10
-144.5818921377
 20
210.1905978444
 30
0.0
  0
SPLINE
  5
341
100
AcDbEntity
  8
0
100
AcDbSpline
 62
7
  6
CONTINUOUS
 70
0
 71
3
 72
13
 73
9
 74
0
 42
0.0000001
 43
0.0000001
 44
0.0000000001
 40
0.0
 40
0.0
 40
0.0
 40
0.0
 40
0.1156452
 40
0.2326544881
 40
0.3519134762
 40
0.4741609505
 40
0.729134989
 40
1.0
 40
1.0
 40
1.0
 40
1.0
 10
-123.9436438825
 20
177.7702660749
 30
0.0
 10
-124.961464205
 20
178.4334710104
 30
0.0
 10
-126.9149592143
 20
179.9187308839
 30
0.0
 10
-129.516902303
 20
182.5610323352
 30
0.0
 10
-131.7711340387
 20
185.5928486544
 30
0.0
 10
-134.3106682604
 20
190.1632533847
 30
0.0
 10
-136.4537581846
 20
196.6972065643
 30
0.0
 10
-136.9830361949
 20
202.2405410086
 30
0.0
 10
-136.9830361949
 20
205.0859120181
 30
0.0
  0
SPLINE
  5
342
100
AcDbEntity
  8
0
100
AcDbSpline
 62
7
  6
CONTINUOUS
 70
0
 71
3
 72
19
 73
15
 74
0
 42
0.0000001
 43
0.0000001
 44
0.0000000001
 40
0.0
 40
0.0
 40
0.0
 40
0.0
 40
0.1295937174
 40
0.2646932561
 40
0.3332127708
 40
0.4016108216
 40
0.5357631641
 40
0.6636553929
 40
0.7245999793
 40
0.7833082198
 40
0.8398602088
 40
0.8945135355
 40
0.9477001075
 40
1.0
 40
1.0
 40
1.0
 40
1.0
 10
-136.9830361949
 20
205.0859120181
 30
0.0
 10
-136.9830361949
 20
208.8170805657
 30
0.0
 10
-136.0248219949
 20
216.4571744449
 30
0.0
 10
-132.7821932018
 20
225.562139351
 30
0.0
 10
-129.0503397185
 20
232.4615480499
 30
0.0
 10
-124.6427279802
 20
238.9166214577
 30
0.0
 10
-118.0810328564
 20
245.9082290448
 30
0.0
 10
-110.302830165
 20
251.1763489699
 30
0.0
 10
-103.7333550234
 20
253.9871314133
 30
0.0
 10
-98.8256708674
 20
255.3384223184
 30
0.0
 10
-93.9515885104
 20
255.9372546264
 30
0.0
 10
-89.2002100013
 20
255.7685218913
 30
0.0
 10
-84.6634527905
 20
254.8320143844
 30
0.0
 10
-81.8252541499
 20
253.6985748428
 30
0.0
 10
-80.4827707238
 20
253.0165824229
 30
0.0
  0
SPLINE
  5
343
100
AcDbEntity
  8
0
100
AcDbSpline
 62
7
  6
CONTINUOUS
 70
0
 71
3
 72
11
 73
7
 74
0
 42
0.0000001
 43
0.0000001
 44
0.0000000001
 40
0.0
 40
0.0
 40
0.0
 40
0.0
 40
0.2703085825
 40
0.5256781784
 40
0.7675407195
 40
1.0
 40
1.0
 40
1.0
 40
1.0
 10
-136.5695611624
 20
205.1967462675
 30
0.0
 10
-136.5695611624
 20
202.5416679349
 30
0.0
 10
-136.1016538385
 20
197.3609985646
 30
0.0
 10
-133.8764546269
 20
190.0955943878
 30
0.0
 10
-130.220554046
 20
183.8503860766
 30
0.0
 10
-126.8686720183
 20
180.5207511823
 30
0.0
 10
-125.0429227414
 20
179.1495719572
 30
0.0
  0
SPLINE
  5
344
100
AcDbEntity
  8
0
100
AcDbSpline
 62
7
  6
CONTINUOUS
 70
0
 71
3
 72
19
 73
15
 74
0
 42
0.0000001
 43
0.0000001
 44
0.0000000001
 40
0.0
 40
0.0
 40
0.0
 40
0.0
 40
0.1295937205
 40
0.2646932577
 40
0.3332127512
 40
0.4016107721
 40
0.5357631164
 40
0.6636553571
 40
0.7245999505
 40
0.7833081979
 40
0.8398601934
 40
0.8945135262
 40
0.9477001036
 40
1.0
 40
1.0
 40
1.0
 40
1.0
 10
-144.9953671703
 20
210.0797635949
 30
0.0
 10
-144.9953671703
 20
213.7659864097
 30
0.0
 10
-144.0486957074
 20
221.3140474566
 30
0.0
 10
-140.8451276945
 20
230.309332894
 30
0.0
 10
-137.1582294274
 20
237.1256299239
 30
0.0
 10
-132.8037127705
 20
243.5029440632
 30
0.0
 10
-126.3210612444
 20
250.41033081
 30
0.0
 10
-118.6365549468
 20
255.6149915911
 30
0.0
 10
-112.1462154934
 20
258.3919159122
 30
0.0
 10
-107.2976490293
 20
259.7269295309
 30
0.0
 10
-102.4822795594
 20
260.318548591
 30
0.0
 10
-97.7881358419
 20
260.1518485867
 30
0.0
 10
-93.3060281579
 20
259.2266223134
 30
0.0
 10
-90.5020183069
 20
258.1068361984
 30
0.0
 10
-89.1757064057
 20
257.4330590212
 30
0.0
  0
SPLINE
  5
345
100
AcDbEntity
  8
0
100
AcDbSpline
 62
7
  6
CONTINUOUS
 70
0
 71
3
 72
11
 73
7
 74
0
 42
0.0000001
 43
0.0000001
 44
0.0000000001
 40
0.0
 40
0.0
 40
0.0
 40
0.0
 40
0.2704448493
 40
0.5258014678
 40
0.7675729269
 40
1.0
 40
1.0
 40
1.0
 40
1.0
 10
-144.5818921377
 20
210.1905978444
 30
0.0
 10
-144.5818921377
 20
207.5443945005
 30
0.0
 10
-144.1115118146
 20
202.3820616596
 30
0.0
 10
-141.8731505192
 20
195.1495909999
 30
0.0
 10
-138.1965643942
 20
188.9485048631
 30
0.0
 10
-134.8289154894
 20
185.6604374217
 30
0.0
 10
-132.9968662099
 20
184.3129798192
 30
0.0
  0
SPLINE
  5
346
100
AcDbEntity
  8
0
100
AcDbSpline
 62
7
  6
CONTINUOUS
 70
0
 71
3
 72
18
 73
14
 74
0
 42
0.0000001
 43
0.0000001
 44
0.0000000001
 40
0.0
 40
0.0
 40
0.0
 40
0.0
 40
0.0523894811
 40
0.1059264554
 40
0.1610878856
 40
0.2182036505
 40
0.3385740192
 40
0.466903216
 40
0.6008410399
 40
0.6689229245
 40
0.7370353954
 40
0.8712191115
 40
1.0
 40
1.0
 40
1.0
 40
1.0
 10
-82.8961052558
 20
253.5537265838
 30
0.0
 10
-84.2448425924
 20
254.0839255049
 30
0.0
 10
-87.0704685554
 20
254.9205520078
 30
0.0
 10
-91.512353495
 20
255.4606235249
 30
0.0
 10
-96.1145074107
 20
255.2904981348
 30
0.0
 10
-102.4600774382
 20
254.1056429762
 30
0.0
 10
-110.3687184627
 20
250.8230674282
 30
0.0
 10
-118.986791807
 20
244.5380986452
 30
0.0
 10
-125.1235654648
 20
237.6730658302
 30
0.0
 10
-129.2244499995
 20
231.4142431922
 30
0.0
 10
-132.6852552912
 20
224.7713886302
 30
0.0
 10
-135.6860432475
 20
216.0507611548
 30
0.0
 10
-136.5695611624
 20
208.7591077686
 30
0.0
 10
-136.5695611624
 20
205.1967462675
 30
0.0
  0
SPLINE
  5
347
100
AcDbEntity
  8
0
100
AcDbSpline
 62
7
  6
CONTINUOUS
 70
0
 71
3
 72
11
 73
7
 74
0
 42
0.0000001
 43
0.0000001
 44
0.0000000001
 40
0.0
 40
0.0
 40
0.0
 40
0.0
 40
0.2614607488
 40
0.5143851016
 40
0.7599246205
 40
1.0
 40
1.0
 40
1.0
 40
1.0
 10
-120.7512966
 20
270.2287155102
 30
0.0
 10
-119.1279085154
 20
270.6638735868
 30
0.0
 10
-115.8747687879
 20
271.3172619159
 30
0.0
 10
-110.9820480521
 20
271.6075174222
 30
0.0
 10
-106.2358939529
 20
271.1836344883
 30
0.0
 10
-103.1927732757
 20
270.4206938087
 30
0.0
 10
-101.7315659156
 20
269.9242682929
 30
0.0
  0
SPLINE
  5
348
100
AcDbEntity
  8
0
100
AcDbSpline
 62
7
  6
CONTINUOUS
 70
0
 71
3
 72
13
 73
9
 74
0
 42
0.0000001
 43
0.0000001
 44
0.0000000001
 40
0.0
 40
0.0
 40
0.0
 40
0.0
 40
0.1156452037
 40
0.2326545329
 40
0.3519135321
 40
0.4741609861
 40
0.7291349977
 40
1.0
 40
1.0
 40
1.0
 40
1.0
 10
-115.7742398447
 20
172.4473689595
 30
0.0
 10
-116.8043209217
 20
173.1185628936
 30
0.0
 10
-118.7813481167
 20
174.6217146897
 30
0.0
 10
-121.4146345997
 20
177.2958459735
 30
0.0
 10
-123.6960211807
 20
180.3641839177
 30
0.0
 10
-126.2661461908
 20
184.9896438262
 30
0.0
 10
-128.4350515415
 20
191.6023047317
 30
0.0
 10
-128.9707052196
 20
197.2124140576
 30
0.0
 10
-128.9707052196
 20
200.0920604413
 30
0.0
  0
SPLINE
  5
349
100
AcDbEntity
  8
0
100
AcDbSpline
 62
7
  6
CONTINUOUS
 70
0
 71
3
 72
14
 73
10
 74
0
 42
0.0000001
 43
0.0000001
 44
0.0000000001
 40
0.0
 40
0.0
 40
0.0
 40
0.0
 40
0.1148188108
 40
0.2355562826
 40
0.3612675259
 40
0.4903772409
 40
0.6209360834
 40
0.750839578
 40
1.0
 40
1.0
 40
1.0
 40
1.0
 10
-115.5494147667
 20
262.2455750567
 30
0.0
 10
-117.9124684718
 20
261.6121455552
 30
0.0
 10
-122.6337357414
 20
259.8020436481
 30
0.0
 10
-129.232402201
 20
255.768807509
 30
0.0
 10
-135.3039595275
 20
250.5026000559
 30
0.0
 10
-140.6210394955
 20
244.2052714948
 30
0.0
 10
-144.9895557428
 20
237.1066399818
 30
0.0
 10
-149.2642638077
 20
227.1017719967
 30
0.0
 10
-150.7432414391
 20
218.9711800557
 30
0.0
 10
-150.7432414391
 20
213.6622455305
 30
0.0
  0
SPLINE
  5
34A
100
AcDbEntity
  8
0
100
AcDbSpline
 62
7
  6
CONTINUOUS
 70
0
 71
3
 72
13
 73
9
 74
0
 42
0.0000001
 43
0.0000001
 44
0.0000000001
 40
0.0
 40
0.0
 40
0.0
 40
0.0
 40
0.270862449
 40
0.5258360091
 40
0.6480851305
 40
0.7673457035
 40
0.8843548291
 40
1.0
 40
1.0
 40
1.0
 40
1.0
 10
-150.7432414391
 20
213.6622455305
 30
0.0
 10
-150.7432414391
 20
210.8757639053
 30
0.0
 10
-150.2249154987
 20
205.4471408819
 30
0.0
 10
-148.1262055512
 20
199.0483555088
 30
0.0
 10
-145.6391838915
 20
194.572480844
 30
0.0
 10
-143.4315870225
 20
191.6033448869
 30
0.0
 10
-140.8834583492
 20
189.0156962246
 30
0.0
 10
-138.9703756739
 20
187.5611665642
 30
0.0
 10
-137.9736120047
 20
186.911681011
 30
0.0
  0
SPLINE
  5
34B
100
AcDbEntity
  8
0
100
AcDbSpline
 62
7
  6
CONTINUOUS
 70
0
 71
3
 72
14
 73
10
 74
0
 42
0.0000001
 43
0.0000001
 44
0.0000000001
 40
0.0
 40
0.0
 40
0.0
 40
0.0
 40
0.1149981099
 40
0.2358548587
 40
0.3616166916
 40
0.4907112611
 40
0.6212040016
 40
0.7510125735
 40
1.0
 40
1.0
 40
1.0
 40
1.0
 10
-125.8598499705
 20
272.9047793599
 30
0.0
 10
-128.5091483615
 20
272.170544611
 30
0.0
 10
-133.797092244
 20
270.0982893231
 30
0.0
 10
-141.1808403414
 20
265.526238454
 30
0.0
 10
-147.9685258313
 20
259.584886548
 30
0.0
 10
-153.9084899908
 20
252.49940178
 30
0.0
 10
-158.7860258385
 20
244.5257794613
 30
0.0
 10
-163.5569507075
 20
233.298827984
 30
0.0
 10
-165.2063515376
 20
224.1834670416
 30
0.0
 10
-165.2063515376
 20
218.2311399902
 30
0.0
  0
SPLINE
  5
34C
100
AcDbEntity
  8
0
100
AcDbSpline
 62
7
  6
CONTINUOUS
 70
0
 71
3
 72
13
 73
9
 74
0
 42
0.0000001
 43
0.0000001
 44
0.0000000001
 40
0.0
 40
0.0
 40
0.0
 40
0.0
 40
0.1131407715
 40
0.2285219181
 40
0.3470614373
 40
0.4694255852
 40
0.7264257291
 40
1.0
 40
1.0
 40
1.0
 40
1.0
 10
-74.2553902318
 20
249.1592498516
 30
0.0
 10
-75.5262599952
 20
249.657250735
 30
0.0
 10
-78.1788974497
 20
250.4570718005
 30
0.0
 10
-82.3417143379
 20
251.0317601427
 30
0.0
 10
-86.6550996663
 20
250.9843405198
 30
0.0
 10
-92.6106357562
 20
250.0816137167
 30
0.0
 10
-100.0937625862
 20
247.3625631881
 30
0.0
 10
-105.5085822663
 20
243.8479706341
 30
0.0
 10
-108.0872111567
 20
241.787926426
 30
0.0
  0
SPLINE
  5
34D
100
AcDbEntity
  8
0
100
AcDbSpline
 62
7
  6
CONTINUOUS
 70
0
 71
3
 72
9
 73
5
 74
0
 42
0.0000001
 43
0.0000001
 44
0.0000000001
 40
0.0
 40
0.0
 40
0.0
 40
0.0
 40
0.4961284558
 40
1.0
 40
1.0
 40
1.0
 40
1.0
 10
-110.7497663589
 20
239.5050756418
 30
0.0
 10
-113.1907203701
 20
237.2630418311
 30
0.0
 10
-117.6887540887
 20
232.2671855597
 30
0.0
 10
-121.2327982954
 20
226.5587868448
 30
0.0
 10
-122.7503343339
 20
223.5541874366
 30
0.0
  0
SPLINE
  5
34E
100
AcDbEntity
  8
0
100
AcDbSpline
 62
7
  6
CONTINUOUS
 70
0
 71
3
 72
9
 73
5
 74
0
 42
0.0000001
 43
0.0000001
 44
0.0000000001
 40
0.0
 40
0.0
 40
0.0
 40
0.0
 40
0.5102776815
 40
1.0
 40
1.0
 40
1.0
 40
1.0
 10
-123.6709193179
 20
221.644036631
 30
0.0
 10
-125.2407395613
 20
218.225302856
 30
0.0
 10
-127.661398203
 20
211.2019767631
 30
0.0
 10
-128.557230187
 20
203.8132787486
 30
0.0
 10
-128.557230187
 20
200.2028946907
 30
0.0
  0
SPLINE
  5
34F
100
AcDbEntity
  8
0
100
AcDbSpline
 62
7
  6
CONTINUOUS
 70
0
 71
3
 72
13
 73
9
 74
0
 42
0.0000001
 43
0.0000001
 44
0.0000000001
 40
0.0
 40
0.0
 40
0.0
 40
0.0
 40
0.1156452063
 40
0.2326545753
 40
0.3519135839
 40
0.4741610166
 40
0.7291350011
 40
1.0
 40
1.0
 40
1.0
 40
1.0
 10
-107.6048358094
 20
167.1244718402
 30
0.0
 10
-108.6471776321
 20
167.803654768
 30
0.0
 10
-110.6477369993
 20
169.3246984792
 30
0.0
 10
-113.312366857
 20
172.0306595729
 30
0.0
 10
-115.6209082786
 20
175.1355191028
 30
0.0
 10
-118.2216240578
 20
179.8160341542
 30
0.0
 10
-120.416344891
 20
186.5074027958
 30
0.0
 10
-120.9583742442
 20
192.1842870515
 30
0.0
 10
-120.9583742442
 20
195.0982088644
 30
0.0
  0
SPLINE
  5
350
100
AcDbEntity
  8
0
100
AcDbSpline
 62
7
  6
CONTINUOUS
 70
0
 71
3
 72
14
 73
10
 74
0
 42
0.0000001
 43
0.0000001
 44
0.0000000001
 40
0.0
 40
0.0
 40
0.0
 40
0.0
 40
0.1117677276
 40
0.2260956187
 40
0.3440405269
 40
0.4663160855
 40
0.5932652463
 40
0.724872678
 40
1.0
 40
1.0
 40
1.0
 40
1.0
 10
-65.6146784181
 20
244.7647430611
 30
0.0
 10
-67.0357783437
 20
245.319882035
 30
0.0
 10
-70.0168345745
 20
246.1878951192
 30
0.0
 10
-74.7041102531
 20
246.7158706247
 30
0.0
 10
-79.5579861531
 20
246.475956497
 30
0.0
 10
-84.4869814293
 20
245.4761631405
 30
0.0
 10
-89.4036632139
 20
243.7375497206
 30
0.0
 10
-95.9139174384
 20
240.4357712799
 30
0.0
 10
-100.3764325448
 20
237.02445597
 30
0.0
 10
-103.1039526674
 20
234.4427342725
 30
0.0
  0
SPLINE
  5
351
100
AcDbEntity
  8
0
100
AcDbSpline
 62
7
  6
CONTINUOUS
 70
0
 71
3
 72
9
 73
5
 74
0
 42
0.0000001
 43
0.0000001
 44
0.0000000001
 40
0.0
 40
0.0
 40
0.0
 40
0.0
 40
0.2565682337
 40
1.0
 40
1.0
 40
1.0
 40
1.0
 10
-117.8953605126
 20
211.0823430454
 30
0.0
 10
-118.3288206045
 20
209.7726778254
 30
0.0
 10
-119.827698352
 20
204.6084264346
 30
0.0
 10
-120.5448992117
 20
199.2063753741
 30
0.0
 10
-120.5448992117
 20
195.2090431138
 30
0.0
  0
SPLINE
  5
352
100
AcDbEntity
  8
0
100
AcDbSpline
 62
7
  6
CONTINUOUS
 70
0
 71
3
 72
10
 73
6
 74
0
 42
0.0000001
 43
0.0000001
 44
0.0000000001
 40
0.0
 40
0.0
 40
0.0
 40
0.0
 40
0.2405903839
 40
0.486656597
 40
1.0
 40
1.0
 40
1.0
 40
1.0
 10
-107.5516909633
 20
273.0179414748
 30
0.0
 10
-108.9491761754
 20
273.4340574371
 30
0.0
 10
-111.845352345
 20
274.0599935504
 30
0.0
 10
-117.9072970686
 20
274.4676111381
 30
0.0
 10
-122.5318518688
 20
273.7983350417
 30
0.0
 10
-125.5369286851
 20
272.9928077252
 30
0.0
  0
SPLINE
  5
353
100
AcDbEntity
  8
0
100
AcDbSpline
 62
7
  6
CONTINUOUS
 70
0
 71
3
 72
18
 73
14
 74
0
 42
0.0000001
 43
0.0000001
 44
0.0000000001
 40
0.0
 40
0.0
 40
0.0
 40
0.0
 40
0.0527732469
 40
0.1070383712
 40
0.1633113178
 40
0.2218939495
 40
0.3458365504
 40
0.4776187841
 40
0.6134711973
 40
0.7486241993
 40
0.8145788349
 40
0.8787180615
 40
1.0
 40
1.0
 40
1.0
 40
1.0
 10
-149.150331798
 20
187.6774601591
 30
0.0
 10
-150.5142762466
 20
188.8675754093
 30
0.0
 10
-153.0540223349
 20
191.5539435086
 30
0.0
 10
-156.1146181542
 20
196.2784292009
 30
0.0
 10
-158.4086359903
 20
201.635778696
 30
0.0
 10
-160.4207003137
 20
209.6049805461
 30
0.0
 10
-160.7175172218
 20
220.5267389015
 30
0.0
 10
-157.7494781448
 20
233.7473512735
 30
0.0
 10
-151.7483411696
 20
246.3147418166
 30
0.0
 10
-144.550288017
 20
255.4926355932
 30
0.0
 10
-137.7602451297
 20
261.5805265704
 30
0.0
 10
-130.6804975403
 20
266.5227624481
 30
0.0
 10
-124.7695205255
 20
269.1516085564
 30
0.0
 10
-120.7512966
 20
270.2287155102
 30
0.0
  0
SPLINE
  5
354
100
AcDbEntity
  8
0
100
AcDbSpline
 62
7
  6
CONTINUOUS
 70
0
 71
3
 72
13
 73
9
 74
0
 42
0.0000001
 43
0.0000001
 44
0.0000000001
 40
0.0
 40
0.0
 40
0.0
 40
0.0
 40
0.1156451953
 40
0.2326544407
 40
0.3519134162
 40
0.4741609098
 40
0.7291349747
 40
1.0
 40
1.0
 40
1.0
 40
1.0
 10
-132.1130479227
 20
183.0931631862
 30
0.0
 10
-133.1186074817
 20
183.7483791184
 30
0.0
 10
-135.0485702915
 20
185.2157470614
 30
0.0
 10
-137.6191699661
 20
187.8262186567
 30
0.0
 10
-139.8462468515
 20
190.8215133114
 30
0.0
 10
-142.3551902657
 20
195.3368628282
 30
0.0
 10
-144.4724648204
 20
201.7921082922
 30
0.0
 10
-144.9953671703
 20
207.268667904
 30
0.0
 10
-144.9953671703
 20
210.0797635949
 30
0.0
  0
SPLINE
  5
355
100
AcDbEntity
  8
0
100
AcDbSpline
 62
7
  6
CONTINUOUS
 70
0
 71
3
 72
9
 73
5
 74
0
 42
0.0000001
 43
0.0000001
 44
0.0000000001
 40
0.0
 40
0.0
 40
0.0
 40
0.0
 40
0.2434307896
 40
1.0
 40
1.0
 40
1.0
 40
1.0
 10
-120.9583742442
 20
195.0982088644
 30
0.0
 10
-120.9583742442
 20
196.426697106
 30
0.0
 10
-120.7198096255
 20
201.8827770463
 30
0.0
 10
-119.5620541083
 20
207.2876750703
 30
0.0
 10
-118.2607479344
 20
211.2061113791
 30
0.0
  0
SPLINE
  5
356
100
AcDbEntity
  8
0
100
AcDbSpline
 62
7
  6
CONTINUOUS
 70
0
 71
3
 72
14
 73
10
 74
0
 42
0.0000001
 43
0.0000001
 44
0.0000000001
 40
0.0
 40
0.0
 40
0.0
 40
0.0
 40
0.2753307756
 40
0.4065409649
 40
0.5329663933
 40
0.6547901061
 40
0.7725693446
 40
0.8872278098
 40
1.0
 40
1.0
 40
1.0
 40
1.0
 10
-100.8955411965
 20
236.9353873254
 30
0.0
 10
-98.0302299623
 20
239.3314323569
 30
0.0
 10
-93.3870921995
 20
242.4330910635
 30
0.0
 10
-86.7087496092
 20
245.2446913655
 30
0.0
 10
-81.7218714031
 20
246.5909461166
 30
0.0
 10
-76.7723676002
 20
247.1776588121
 30
0.0
 10
-71.9487310291
 20
246.9906405195
 30
0.0
 10
-67.3429915365
 20
246.0299169156
 30
0.0
 10
-64.460847243
 20
244.8765257122
 30
0.0
 10
-63.09689936
 20
244.1836292258
 30
0.0
  0
SPLINE
  5
357
100
AcDbEntity
  8
0
100
AcDbSpline
 62
7
  6
CONTINUOUS
 70
0
 71
3
 72
11
 73
7
 74
0
 42
0.0000001
 43
0.0000001
 44
0.0000000001
 40
0.0
 40
0.0
 40
0.0
 40
0.0
 40
0.2702907716
 40
0.5256615708
 40
0.7675359802
 40
1.0
 40
1.0
 40
1.0
 40
1.0
 10
-120.5448992117
 20
195.2090431138
 30
0.0
 10
-120.5448992117
 20
192.4924100058
 30
0.0
 10
-120.066684055
 20
187.1914995671
 30
0.0
 10
-117.7926254697
 20
179.7565137225
 30
0.0
 10
-114.0563492071
 20
173.363434715
 30
0.0
 10
-110.6303617254
 20
169.9525642479
 30
0.0
 10
-108.7639458476
 20
168.5470515967
 30
0.0
  0
SPLINE
  5
358
100
AcDbEntity
  8
0
100
AcDbSpline
 62
7
  6
CONTINUOUS
 70
0
 71
3
 72
11
 73
7
 74
0
 42
0.0000001
 43
0.0000001
 44
0.0000000001
 40
0.0
 40
0.0
 40
0.0
 40
0.0
 40
0.2396951324
 40
0.4843034197
 40
0.7370140108
 40
1.0
 40
1.0
 40
1.0
 40
1.0
 10
-95.411818821
 20
260.6013688812
 30
0.0
 10
-96.8820410357
 20
261.3482653091
 30
0.0
 10
-100.0137634393
 20
262.5599985601
 30
0.0
 10
-105.0382349693
 20
263.4359918054
 30
0.0
 10
-110.2958626543
 20
263.3691302942
 30
0.0
 10
-113.8018117363
 20
262.7140296306
 30
0.0
 10
-115.5494147667
 20
262.2455750567
 30
0.0
  0
SPLINE
  5
359
100
AcDbEntity
  8
0
100
AcDbSpline
 62
7
  6
CONTINUOUS
 70
0
 71
3
 72
13
 73
9
 74
0
 42
0.0000001
 43
0.0000001
 44
0.0000000001
 40
0.0
 40
0.0
 40
0.0
 40
0.0
 40
0.2714327233
 40
0.5262164263
 40
0.6482297855
 40
0.7672680815
 40
0.8841877901
 40
1.0
 40
1.0
 40
1.0
 40
1.0
 10
-165.2063515376
 20
218.2311399902
 30
0.0
 10
-165.2063515376
 20
214.9501734618
 30
0.0
 10
-164.5698544995
 20
208.5645209812
 30
0.0
 10
-161.9821841259
 20
201.0756268164
 30
0.0
 10
-158.923084492
 20
195.9019162594
 30
0.0
 10
-156.2134186838
 20
192.5087867785
 30
0.0
 10
-153.0932472465
 20
189.5982519918
 30
0.0
 10
-150.7608036528
 20
188.0028111865
 30
0.0
 10
-149.5487466439
 20
187.3023752742
 30
0.0
  0
ENDSEC
  0
SECTION
  2
OBJECTS
  0
DICTIONARY
  5
C
100
AcDbDictionary
280
0
281
1
  3
ACAD_GROUP
350
D
  3
ACAD_MLINESTYLE
350
17
  3
ACAD_LAYOUT
350
1A
  3
ACAD_PLOTSETTINGS
350
19
  3
ACAD_PLOTSTYLENAME
350
E
  0
DICTIONARY
  5
D
102
{ACAD_REACTORS
330
C
102
}
100
AcDbDictionary
280
0
281
1
  0
ACDBDICTIONARYWDFLT
  5
E
102
{ACAD_REACTORS
330
C
102
}
100
AcDbDictionary
281
1
  3
Normal
350
F
100
AcDbDictionaryWithDefault
340
F
  0
DICTIONARY
  5
17
102
{ACAD_REACTORS
330
C
102
}
100
AcDbDictionary
280
0
281
1
  3
Standard
350
18
  0
DICTIONARY
  5
19
102
{ACAD_REACTORS
330
C
102
}
100
AcDbDictionary
281
1
  0
DICTIONARY
  5
1A
102
{ACAD_REACTORS
330
C
102
}
100
AcDbDictionary
281
1
  3
Model
350
35A
  3
Layout1
350
35B
  0
ACDBPLACEHOLDER
  5
F
102
{ACAD_REACTORS
330
E
102
}
  0
MLINESTYLE
  5
18
102
{ACAD_REACTORS
330
17
102
}
100
AcDbMlineStyle
  2
STANDARD
 70
0
  3

 62
256
 51
90.0
 52
90.0
 71
2
 49
0.5
 62
256
  6
BYLAYER
 49
-0.5
 62
256
  6
BYLAYER
  0
LAYOUT
  5
35A
102
{ACAD_REACTORS
330
1A
102
}
100
AcDbPlotSettings
  1

  2
none_device
  4
ANSI_C_(22.00_x_17.00_Inches)
  6

 40
0.0
 41
0.0
 42
0.0
 43
0.0
 44
558.8
 45
431.8
 46
0.0
 47
0.0
 48
0.0
 49
0.0
140
0.0
141
0.0
142
1.0
143
1.0
 70
1024
 72
1
 73
0
 74
0
  7

 75
0
147
1.0
148
0.0
149
0.0
100
AcDbLayout
  1
Model
 70
0
 71
0
 10
0.0
 20
0.0
 11
558.8
 21
431.8
 12
0.0
 22
0.0
 32
0.0
 14
0.0
 24
0.0
 34
0.0
 15
0.0
 25
0.0
 35
0.0
146
0.0
 13
0.0
 23
0.0
 33
0.0
 16
1.0
 26
0.0
 36
0.0
 17
0.0
 27
1.0
 37
0.0
 76
0
330
216
345
0
346
0
  0
LAYOUT
  5
35B
102
{ACAD_REACTORS
330
1A
102
}
100
AcDbPlotSettings
  1

  2
none_device
  4
ANSI_C_(22.00_x_17.00_Inches)
  6

 40
0.0
 41
0.0
 42
0.0
 43
0.0
 44
558.8
 45
431.8
 46
0.0
 47
0.0
 48
0.0
 49
0.0
140
0.0
141
0.0
142
1.0
143
1.0
 70
0
 72
1
 73
0
 74
0
  7

 75
0
147
1.0
148
0.0
149
0.0
100
AcDbLayout
  1
Layout1
 70
0
 71
1
 10
0.0
 20
0.0
 11
558.8
 21
431.8
 12
0.0
 22
0.0
 32
0.0
 14
0.0
 24
0.0
 34
0.0
 15
0.0
 25
0.0
 35
0.0
146
0.0
 13
0.0
 23
0.0
 33
0.0
 16
1.0
 26
0.0
 36
0.0
 17
0.0
 27
1.0
 37
0.0
 76
0
330
217
345
0
346
0
  0
ENDSEC
  0
EOF
