999
DXF file: Y:\3D PRATIKA-KAEDRA_OLGA\TRAVAIL_PHASE_10\CAD3D\81682_3D-Simplified\isometric.dxf
999
Pro/ENGINEER 2018260 by Parametric Technology Corporation
  0
SECTION
  2
HEADER
  9
$ACADVER
  1
AC1027
  9
$DWGCODEPAGE
  3
ANSI_1252
  9
$EXTMAX
 10
558.8
 20
431.8
 30
0.0
  9
$EXTMIN
 10
0.0
 20
0.0
 30
0.0
  9
$LIMMIN
 10
0.0
 20
0.0
  9
$LIMMAX
 10
558.8
 20
431.8
  9
$VIEWCTR
 10
279.4
 20
215.9
  9
$VIEWSIZE
 40
431.8
  9
$CLAYER
  8
0
  9
$LTSCALE
 40
30.734
  9
$CELTYPE
  6
BYLAYER
  9
$DIMSCALE
 40
1.0
  9
$DIMASZ
 40
0.1875
  9
$DIMEXO
 40
0.0625
  9
$DIMDLI
 40
21.2344
  9
$DIMEXE
 40
0.125
  9
$DIMCEN
 40
5.0292
  9
$DIMLFAC
 40
1.0
  9
$DIMBLK
  1
_CLOSED
  9
$DIMALT
 70
0
  9
$DIMALTF
 40
0.0393700787
  9
$DIMTXT
 40
0.15625
  9
$DIMTOL
 70
0
  9
$DIMLIM
 70
0
  9
$DIMTFAC
 40
1.0
  9
$DIMGAP
 40
0.625
  9
$DIMDSEP
 70
46
  9
$AUNITS
 70
0
  9
$PDMODE
 70
3
  9
$PDSIZE
 40
0.3125
  9
$HANDSEED
  5
361
  9
$TILEMODE
 70
1
  9
$MEASUREMENT
 70
1
  9
$INSUNITS
 70
4
  0
ENDSEC
  0
SECTION
  2
CLASSES
  0
CLASS
  1
ACDBDICTIONARYWDFLT
  2
AcDbDictionaryWithDefault
  3
AutoCAD 2000
 90
0
 91
1
280
0
281
0
  0
CLASS
  1
ACDBPLACEHOLDER
  2
AcDbPlaceHolder
  3
AutoCAD 2000
 90
0
 91
1
280
0
281
0
  0
CLASS
  1
LAYOUT
  2
AcDbLayout
  3
AutoCAD 2000
 90
0
 91
0
280
0
281
0
  0
ENDSEC
  0
SECTION
  2
TABLES
  0
TABLE
  2
VPORT
  5
8
100
AcDbSymbolTable
 70
2
  0
VPORT
  5
1F4
100
AcDbSymbolTableRecord
100
AcDbViewportTableRecord
  2
*ACTIVE
 70
0
 10
0.0
 20
0.0
 11
1.0
 21
1.0
 12
279.4
 22
215.9
 13
0.0
 23
0.0
 14
1.0
 24
1.0
 15
0.0
 25
0.0
 16
0.0
 26
0.0
 36
1.0
 17
0.0
 27
0.0
 37
0.0
 40
431.8
 41
1.2941176471
 42
50.0
 43
0.0
 44
0.0
 50
0.0
 51
0.0
 71
0
 72
100
 73
1
 74
1
 75
0
 76
0
 77
0
 78
0
  0
ENDTAB
  0
TABLE
  2
LTYPE
  5
5
100
AcDbSymbolTable
 70
6
  0
LTYPE
  5
14
100
AcDbSymbolTableRecord
100
AcDbLinetypeTableRecord
  2
BYBLOCK
 70
0
  3

 72
65
 73
0
 40
0.0
  0
LTYPE
  5
15
100
AcDbSymbolTableRecord
100
AcDbLinetypeTableRecord
  2
BYLAYER
 70
0
  3

 72
65
 73
0
 40
0.0
  0
LTYPE
  5
16
100
AcDbSymbolTableRecord
100
AcDbLinetypeTableRecord
  2
CONTINUOUS
 70
64
  3
Solid line
 72
65
 73
0
 40
0.0
  0
LTYPE
  5
1F5
100
AcDbSymbolTableRecord
100
AcDbLinetypeTableRecord
  2
CENTER
 70
64
  3
____ _ ____ _ ____ _ ____ _ ____ _ ____ _ ____
 72
65
 73
4
 40
0.6
 49
0.375
 74
0
 49
-0.075
 74
0
 49
0.075
 74
0
 49
-0.075
 74
0
  0
LTYPE
  5
1F6
100
AcDbSymbolTableRecord
100
AcDbLinetypeTableRecord
  2
HIDDEN
 70
64
  3
- - - - - - - - - - - - - - - - - - - -
 72
65
 73
2
 40
0.2
 49
0.1
 74
0
 49
-0.1
 74
0
  0
LTYPE
  5
1F7
100
AcDbSymbolTableRecord
100
AcDbLinetypeTableRecord
  2
PHANTOM
 70
64
  3
_____ _ _ _____ _ _ _____ _ _ _____
 72
65
 73
6
 40
0.8
 49
0.45
 74
0
 49
-0.05
 74
0
 49
0.1
 74
0
 49
-0.05
 74
0
 49
0.1
 74
0
 49
-0.05
 74
0
  0
LTYPE
  5
1F8
100
AcDbSymbolTableRecord
100
AcDbLinetypeTableRecord
  2
DOT
 70
64
  3
. . . . . . . . . . . . . . . . . . . .
 72
65
 73
2
 40
0.2
 49
0.1
 74
0
 49
-0.1
 74
0
  0
LTYPE
  5
1F9
100
AcDbSymbolTableRecord
100
AcDbLinetypeTableRecord
  2
DASHED
 70
64
  3
- - - - - - - - - - - - - - - - - - - -
 72
65
 73
2
 40
0.2
 49
0.1
 74
0
 49
-0.1
 74
0
  0
ENDTAB
  0
TABLE
  2
LAYER
  5
2
100
AcDbSymbolTable
 70
36
  0
LAYER
  5
10
100
AcDbSymbolTableRecord
100
AcDbLayerTableRecord
  2
0
 70
0
 62
7
  6
CONTINUOUS
370
-3
390
F
  0
LAYER
  5
1FA
100
AcDbSymbolTableRecord
100
AcDbLayerTableRecord
  2
DEFAULT_1
 70
0
 62
7
  6
CENTER
370
-3
390
F
  0
LAYER
  5
1FB
100
AcDbSymbolTableRecord
100
AcDbLayerTableRecord
  2
DEFAULT_2
 70
0
 62
8
  6
HIDDEN
370
-3
390
F
  0
LAYER
  5
1FC
100
AcDbSymbolTableRecord
100
AcDbLayerTableRecord
  2
DEFAULT_3
 70
0
 62
7
  6
PHANTOM
370
-3
390
F
  0
LAYER
  5
1FD
100
AcDbSymbolTableRecord
100
AcDbLayerTableRecord
  2
01_ALL_DTM_PLN
 70
0
 62
7
  6
CONTINUOUS
370
-3
390
F
  0
LAYER
  5
1FE
100
AcDbSymbolTableRecord
100
AcDbLayerTableRecord
  2
01__ASM_ALL_DTM_PLN
 70
0
 62
7
  6
CONTINUOUS
370
-3
390
F
  0
LAYER
  5
1FF
100
AcDbSymbolTableRecord
100
AcDbLayerTableRecord
  2
01__ASM_DEF_DTM_PLN
 70
0
 62
7
  6
CONTINUOUS
370
-3
390
F
  0
LAYER
  5
200
100
AcDbSymbolTableRecord
100
AcDbLayerTableRecord
  2
01___PRT_ALL_DTM_PLN
 70
0
 62
7
  6
CONTINUOUS
370
-3
390
F
  0
LAYER
  5
201
100
AcDbSymbolTableRecord
100
AcDbLayerTableRecord
  2
01___PRT_DEF_DTM_PLN
 70
0
 62
7
  6
CONTINUOUS
370
-3
390
F
  0
LAYER
  5
202
100
AcDbSymbolTableRecord
100
AcDbLayerTableRecord
  2
02_ALL_AXES
 70
0
 62
7
  6
CONTINUOUS
370
-3
390
F
  0
LAYER
  5
203
100
AcDbSymbolTableRecord
100
AcDbLayerTableRecord
  2
02__ASM_ALL_AXES
 70
0
 62
7
  6
CONTINUOUS
370
-3
390
F
  0
LAYER
  5
204
100
AcDbSymbolTableRecord
100
AcDbLayerTableRecord
  2
02___PRT_ALL_AXES
 70
0
 62
7
  6
CONTINUOUS
370
-3
390
F
  0
LAYER
  5
205
100
AcDbSymbolTableRecord
100
AcDbLayerTableRecord
  2
03_ALL_CURVES
 70
0
 62
7
  6
CONTINUOUS
370
-3
390
F
  0
LAYER
  5
206
100
AcDbSymbolTableRecord
100
AcDbLayerTableRecord
  2
03__ASM_ALL_CURVES
 70
0
 62
7
  6
CONTINUOUS
370
-3
390
F
  0
LAYER
  5
207
100
AcDbSymbolTableRecord
100
AcDbLayerTableRecord
  2
03___PRT_ALL_CURVES
 70
0
 62
7
  6
CONTINUOUS
370
-3
390
F
  0
LAYER
  5
208
100
AcDbSymbolTableRecord
100
AcDbLayerTableRecord
  2
04_ALL_DTM_PNT
 70
0
 62
7
  6
CONTINUOUS
370
-3
390
F
  0
LAYER
  5
209
100
AcDbSymbolTableRecord
100
AcDbLayerTableRecord
  2
04__ASM_ALL_DTM_PNT
 70
0
 62
7
  6
CONTINUOUS
370
-3
390
F
  0
LAYER
  5
20A
100
AcDbSymbolTableRecord
100
AcDbLayerTableRecord
  2
04___PRT_ALL_DTM_PNT
 70
0
 62
7
  6
CONTINUOUS
370
-3
390
F
  0
LAYER
  5
20B
100
AcDbSymbolTableRecord
100
AcDbLayerTableRecord
  2
05_ALL_DTM_CSYS
 70
0
 62
7
  6
CONTINUOUS
370
-3
390
F
  0
LAYER
  5
20C
100
AcDbSymbolTableRecord
100
AcDbLayerTableRecord
  2
05__ASM_ALL_DTM_CSYS
 70
0
 62
7
  6
CONTINUOUS
370
-3
390
F
  0
LAYER
  5
20D
100
AcDbSymbolTableRecord
100
AcDbLayerTableRecord
  2
05__ASM_DEF_DTM_CSYS
 70
0
 62
7
  6
CONTINUOUS
370
-3
390
F
  0
LAYER
  5
20E
100
AcDbSymbolTableRecord
100
AcDbLayerTableRecord
  2
05___PRT_ALL_DTM_CSYS
 70
0
 62
7
  6
CONTINUOUS
370
-3
390
F
  0
LAYER
  5
20F
100
AcDbSymbolTableRecord
100
AcDbLayerTableRecord
  2
05___PRT_DEF_DTM_CSYS
 70
0
 62
7
  6
CONTINUOUS
370
-3
390
F
  0
LAYER
  5
210
100
AcDbSymbolTableRecord
100
AcDbLayerTableRecord
  2
06_ALL_SURFS
 70
0
 62
7
  6
CONTINUOUS
370
-3
390
F
  0
LAYER
  5
211
100
AcDbSymbolTableRecord
100
AcDbLayerTableRecord
  2
06__ASM_ALL_SURFS
 70
0
 62
7
  6
CONTINUOUS
370
-3
390
F
  0
LAYER
  5
212
100
AcDbSymbolTableRecord
100
AcDbLayerTableRecord
  2
06___PRT_ALL_SURFS
 70
0
 62
7
  6
CONTINUOUS
370
-3
390
F
  0
LAYER
  5
213
100
AcDbSymbolTableRecord
100
AcDbLayerTableRecord
  2
07__ASM_ALL_SKELETONS
 70
0
 62
7
  6
CONTINUOUS
370
-3
390
F
  0
ENDTAB
  0
TABLE
  2
STYLE
  5
3
100
AcDbSymbolTable
 70
1
  0
STYLE
  5
11
100
AcDbSymbolTableRecord
100
AcDbTextStyleTableRecord
  2
STANDARD
 70
0
 40
0.0
 41
0.8
 50
0.0
 71
0
 42
0.2
  3
txt
  4

  0
STYLE
  5
214
100
AcDbSymbolTableRecord
100
AcDbTextStyleTableRecord
  2
TEXTSTYLE_1
 70
0
 40
0.0
 41
0.8
 50
0.0
 71
0
 42
0.2
  3
gdt
  4

  0
ENDTAB
  0
TABLE
  2
VIEW
  5
6
100
AcDbSymbolTable
 70
0
  0
ENDTAB
  0
TABLE
  2
UCS
  5
7
100
AcDbSymbolTable
 70
0
  0
ENDTAB
  0
TABLE
  2
APPID
  5
9
100
AcDbSymbolTable
 70
1
  0
APPID
  5
215
100
AcDbSymbolTableRecord
100
AcDbRegAppTableRecord
  2
ACAD
 70
0
  0
ENDTAB
  0
TABLE
  2
BLOCK_RECORD
  5
1
100
AcDbSymbolTable
 70
0
  0
BLOCK_RECORD
  5
216
100
AcDbSymbolTableRecord
100
AcDbBlockTableRecord
  2
*Model_Space
  0
BLOCK_RECORD
  5
217
100
AcDbSymbolTableRecord
100
AcDbBlockTableRecord
  2
*Paper_Space
  0
BLOCK_RECORD
  5
218
100
AcDbSymbolTableRecord
100
AcDbBlockTableRecord
  2
_CLOSED
  0
ENDTAB
  0
TABLE
  2
DIMSTYLE
  5
A
100
AcDbSymbolTable
 70
1
100
AcDbDimStyleTable
 71
0
  0
DIMSTYLE
105
219
100
AcDbSymbolTableRecord
100
AcDbDimStyleTableRecord
  2
STANDARD
 70
0
  3

  4

 40
1.0
 41
0.1875
 42
0.0625
 43
0.38
 44
0.125
 45
0.0
 46
0.0
 47
0.01
 48
0.01
140
0.15625
141
0.09
142
0.0
143
25.4
144
1.0
145
0.0
146
1.0
147
0.625
 71
0.0
 72
0.0
 73
1
 74
1
 75
0
 76
0
 77
0
 78
8
 79
2
170
0
171
1
172
0
173
0
174
0
175
0
176
0
177
0
178
0
270
2
179
2
271
2
272
2
273
2
274
2
275
0
280
0
281
0
282
0
283
1
284
8
285
0
286
0
287
3
288
0
340
11
278
46
341
218
342
218
343
218
344
218
  0
ENDTAB
  0
ENDSEC
  0
SECTION
  2
BLOCKS
  0
BLOCK
  5
20
100
AcDbEntity
  8
0
100
AcDbBlockBegin
  2
*Model_Space
 70
0
 10
0.0
 20
0.0
 30
0.0
  3
*Model_Space
  1

  0
ENDBLK
  5
21
100
AcDbEntity
  8
0
100
AcDbBlockEnd
  0
BLOCK
  5
1C
100
AcDbEntity
  8
0
100
AcDbBlockBegin
  2
*Paper_Space
 70
0
 10
0.0
 20
0.0
 30
0.0
  3
*Paper_Space
  1

  0
ENDBLK
  5
1D
100
AcDbEntity
  8
0
100
AcDbBlockEnd
  0
BLOCK
  5
21A
100
AcDbEntity
  8
0
100
AcDbBlockBegin
  2
_CLOSED
 70
64
 10
0.0
 20
0.0
  3
_CLOSED
  1

  0
LINE
  5
21B
100
AcDbEntity
  8
0
  6
BYBLOCK
 62
0
100
AcDbLine
 10
0.0
 20
0.0
 11
-1.0
 21
0.1666666667
  0
LINE
  5
21C
100
AcDbEntity
  8
0
  6
BYBLOCK
 62
0
100
AcDbLine
 10
-1.0
 20
0.1666666667
 11
-1.0
 21
-0.1666666667
  0
LINE
  5
21D
100
AcDbEntity
  8
0
  6
BYBLOCK
 62
0
100
AcDbLine
 10
-1.0
 20
-0.1666666667
 11
0.0
 21
0.0
  0
LINE
  5
21E
100
AcDbEntity
  8
0
  6
BYBLOCK
 62
0
100
AcDbLine
 10
-1.0
 20
0.0
 11
0.0
 21
0.0
  0
ENDBLK
  5
21F
100
AcDbEntity
  8
0
  6
BYBLOCK
 62
0
100
AcDbBlockEnd
  0
ENDSEC
  0
SECTION
  2
ENTITIES
  0
LINE
  5
220
100
AcDbEntity
  8
0
100
AcDbLine
 62
7
  6
CONTINUOUS
 10
-35.2532985517
 20
133.9324292121
 11
-75.2491180677
 21
123.2113305066
  0
LINE
  5
221
100
AcDbEntity
  8
0
100
AcDbLine
 62
7
  6
CONTINUOUS
 10
-50.6586862047
 20
134.2709146166
 11
-40.5623099798
 21
136.9773036189
  0
LINE
  5
222
100
AcDbEntity
  8
0
100
AcDbLine
 62
7
  6
CONTINUOUS
 10
-79.2503190253
 20
123.6384976957
 11
-84.8804744195
 21
126.8903708899
  0
LINE
  5
223
100
AcDbEntity
  8
0
100
AcDbLine
 62
7
  6
CONTINUOUS
 10
-87.4908439374
 20
132.0456128931
 11
-81.8606885431
 21
128.793739699
  0
LINE
  5
224
100
AcDbEntity
  8
0
100
AcDbLine
 62
7
  6
CONTINUOUS
 10
-50.6586862047
 20
134.2709146166
 11
-52.8976389154
 21
135.5640896768
  0
LINE
  5
225
100
AcDbEntity
  8
0
100
AcDbLine
 62
7
  6
CONTINUOUS
 10
-28.5633725097
 20
124.9643172444
 11
-26.5928181217
 21
123.8261616264
  0
LINE
  5
226
100
AcDbEntity
  8
0
100
AcDbLine
 62
7
  6
CONTINUOUS
 10
-36.9105756116
 20
134.6824417281
 11
-40.7818935105
 21
136.9184430496
  0
LINE
  5
227
100
AcDbEntity
  8
0
100
AcDbLine
 62
7
  6
CONTINUOUS
 10
-59.194831612
 20
147.5534141373
 11
-59.994212728
 21
148.015121824
  0
LINE
  5
228
100
AcDbEntity
  8
0
100
AcDbLine
 62
7
  6
CONTINUOUS
 10
-31.4951143115
 20
145.8932094497
 11
-32.1162529496
 21
146.2330501355
  0
LINE
  5
229
100
AcDbEntity
  8
0
100
AcDbLine
 62
7
  6
CONTINUOUS
 10
-37.3468010565
 20
147.0506999415
 11
-27.3136891107
 21
141.3537519035
  0
LINE
  5
22A
100
AcDbEntity
  8
0
100
AcDbLine
 62
7
  6
CONTINUOUS
 10
-45.5716184705
 20
151.1898496948
 11
-37.6443245602
 21
146.6746427355
  0
LINE
  5
22B
100
AcDbEntity
  8
0
100
AcDbLine
 62
7
  6
CONTINUOUS
 10
-30.525999654
 20
132.2955332654
 11
-28.5633725097
 21
131.1619562762
  0
LINE
  5
22C
100
AcDbEntity
  8
0
100
AcDbLine
 62
7
  6
CONTINUOUS
 10
-22.8634757615
 20
127.8698017712
 11
-21.4559369129
 21
127.0568334727
  0
LINE
  5
22D
100
AcDbEntity
  8
0
100
AcDbLine
 62
7
  6
CONTINUOUS
 10
-88.7731671252
 20
172.6055427429
 11
-89.4795859585
 21
173.0135571416
  0
LINE
  5
22E
100
AcDbEntity
  8
0
100
AcDbLine
 62
7
  6
CONTINUOUS
 10
-44.4025254127
 20
147.940877337
 11
-21.5869675024
 21
134.763034812
  0
LINE
  5
22F
100
AcDbEntity
  8
0
100
AcDbLine
 62
7
  6
CONTINUOUS
 10
-23.5944383486
 20
141.2087557122
 11
-13.3225044082
 21
135.2758774356
  0
LINE
  5
230
100
AcDbEntity
  8
0
100
AcDbLine
 62
7
  6
CONTINUOUS
 10
-36.1502925416
 20
148.5630364242
 11
-32.1162529759
 21
146.23305009
  0
LINE
  5
231
100
AcDbEntity
  8
0
100
AcDbLine
 62
7
  6
CONTINUOUS
 10
-33.4241659774
 20
147.0800210132
 11
-36.1005815968
 21
148.6258689693
  0
LINE
  5
232
100
AcDbEntity
  8
0
100
AcDbLine
 62
7
  6
CONTINUOUS
 10
-13.3225044082
 20
136.9783694558
 11
-21.1618968368
 21
141.5062569316
  0
LINE
  5
233
100
AcDbEntity
  8
0
100
AcDbLine
 62
7
  6
CONTINUOUS
 10
-87.4908439374
 20
132.0456128931
 11
-87.4908439374
 21
215.7050627153
  0
LINE
  5
234
100
AcDbEntity
  8
0
100
AcDbLine
 62
7
  6
CONTINUOUS
 10
-85.2387817797
 20
214.4043134377
 11
-85.2387817797
 21
130.7448636154
  0
LINE
  5
235
100
AcDbEntity
  8
0
100
AcDbLine
 62
7
  6
CONTINUOUS
 10
-81.8606885431
 20
128.793739699
 11
-81.8606885431
 21
212.4531895212
  0
LINE
  5
236
100
AcDbEntity
  8
0
100
AcDbLine
 62
7
  6
CONTINUOUS
 10
-87.5090052248
 20
198.9820074514
 11
-87.5440061357
 21
198.8872120057
  0
LINE
  5
237
100
AcDbEntity
  8
0
100
AcDbLine
 62
7
  6
CONTINUOUS
 10
-87.4527749617
 20
198.968468135
 11
-87.4908439374
 21
198.8745988946
  0
LINE
  5
238
100
AcDbEntity
  8
0
100
AcDbLine
 62
7
  6
CONTINUOUS
 10
-44.5288124797
 20
173.98337879
 11
-41.8408298784
 21
172.4222080593
  0
LINE
  5
239
100
AcDbEntity
  8
0
100
AcDbLine
 62
7
  6
CONTINUOUS
 10
-87.6470963597
 20
199.0516813475
 11
-87.4908439374
 21
198.9607835513
  0
LINE
  5
23A
100
AcDbEntity
  8
0
100
AcDbLine
 62
7
  6
CONTINUOUS
 10
-39.2060683964
 20
178.8806758098
 11
-41.7417397989
 21
180.3284331422
  0
LINE
  5
23B
100
AcDbEntity
  8
0
100
AcDbLine
 62
7
  6
CONTINUOUS
 10
-81.8606885431
 20
212.4531895212
 11
-87.4908439374
 21
215.7050627153
  0
LINE
  5
23C
100
AcDbEntity
  8
0
100
AcDbLine
 62
7
  6
CONTINUOUS
 10
-58.1817047405
 20
221.1794873481
 11
-58.18383206
 21
221.5935633821
  0
LINE
  5
23D
100
AcDbEntity
  8
0
100
AcDbLine
 62
7
  6
CONTINUOUS
 10
-58.00426142
 20
221.1762055302
 11
-58.0294335561
 21
219.8151824483
  0
LINE
  5
23E
100
AcDbEntity
  8
0
100
AcDbLine
 62
7
  6
CONTINUOUS
 10
-58.1919018091
 20
221.1796809596
 11
-58.2364070794
 21
218.8357141027
  0
LINE
  5
23F
100
AcDbEntity
  8
0
100
AcDbLine
 62
7
  6
CONTINUOUS
 10
-55.1891010325
 20
243.0680249059
 11
-55.2717793201
 21
238.8626566252
  0
LINE
  5
240
100
AcDbEntity
  8
0
100
AcDbLine
 62
7
  6
CONTINUOUS
 10
-53.5103326861
 20
228.0267556812
 11
-53.3182507812
 21
229.1726974595
  0
LINE
  5
241
100
AcDbEntity
  8
0
100
AcDbLine
 62
7
  6
CONTINUOUS
 10
-75.2491180677
 20
221.5801341437
 11
-58.0862566383
 21
226.1807332484
  0
LINE
  5
242
100
AcDbEntity
  8
0
100
AcDbLine
 62
7
  6
CONTINUOUS
 10
-78.6272113042
 20
223.5312580602
 11
-58.03145063
 21
229.0520646289
  0
LINE
  5
243
100
AcDbEntity
  8
0
100
AcDbLine
 62
7
  6
CONTINUOUS
 10
-41.219969372
 20
223.6651798481
 11
-38.6423235565
 21
224.16592651
  0
LINE
  5
244
100
AcDbEntity
  8
0
100
AcDbLine
 62
7
  6
CONTINUOUS
 10
-38.6423235565
 20
226.9239303503
 11
-45.1139174593
 21
225.668014366
  0
LINE
  5
245
100
AcDbEntity
  8
0
100
AcDbLine
 62
7
  6
CONTINUOUS
 10
30.8402421693
 20
245.9143583472
 11
37.3118360723
 21
247.1702743316
  0
LINE
  5
246
100
AcDbEntity
  8
0
100
AcDbLine
 62
7
  6
CONTINUOUS
 10
-43.4546198814
 20
228.6734052353
 11
-34.6895048958
 21
230.0156084944
  0
LINE
  5
247
100
AcDbEntity
  8
0
100
AcDbLine
 62
7
  6
CONTINUOUS
 10
-43.9869933935
 20
229.2116671885
 11
-39.4664769346
 21
229.9038944935
  0
LINE
  5
248
100
AcDbEntity
  8
0
100
AcDbLine
 62
7
  6
CONTINUOUS
 10
-80.8792734619
 20
224.8320073379
 11
-75.2491180676
 21
221.5801341438
  0
LINE
  5
249
100
AcDbEntity
  8
0
100
AcDbLine
 62
7
  6
CONTINUOUS
 10
-80.8792734619
 20
224.8320073379
 11
-57.9949132912
 21
230.9662855492
  0
LINE
  5
24A
100
AcDbEntity
  8
0
100
AcDbLine
 62
7
  6
CONTINUOUS
 10
-37.907815689
 20
232.9005763439
 11
-46.3560240331
 21
231.6069010423
  0
LINE
  5
24B
100
AcDbEntity
  8
0
100
AcDbLine
 62
7
  6
CONTINUOUS
 10
-2.5038654226
 20
189.7639600145
 11
-5.0955162162
 21
191.2608493814
  0
LINE
  5
24C
100
AcDbEntity
  8
0
100
AcDbLine
 62
7
  6
CONTINUOUS
 10
-3.9546244393
 20
194.7811002914
 11
-8.4614922433
 21
197.4211932799
  0
LINE
  5
24D
100
AcDbEntity
  8
0
100
AcDbLine
 62
7
  6
CONTINUOUS
 10
4.1162802707
 20
184.7412634029
 11
-1.1012099164
 21
187.8082819818
  0
LINE
  5
24E
100
AcDbEntity
  8
0
100
AcDbLine
 62
7
  6
CONTINUOUS
 10
-39.4010406936
 20
236.8788116555
 11
-39.4010406936
 21
238.022290893
  0
LINE
  5
24F
100
AcDbEntity
  8
0
100
AcDbLine
 62
7
  6
CONTINUOUS
 10
-38.6423235566
 20
224.16592651
 11
-38.6423235566
 21
226.9239303503
  0
LINE
  5
250
100
AcDbEntity
  8
0
100
AcDbLine
 62
7
  6
CONTINUOUS
 10
-37.5909090475
 20
232.0297696879
 11
-37.5909090475
 21
232.5312543653
  0
LINE
  5
251
100
AcDbEntity
  8
0
100
AcDbLine
 62
7
  6
CONTINUOUS
 10
-21.6331714465
 20
218.2567025125
 11
-19.9212686514
 21
221.0149368263
  0
LINE
  5
252
100
AcDbEntity
  8
0
100
AcDbLine
 62
7
  6
CONTINUOUS
 10
-3.9549240903
 20
194.7805856381
 11
-3.1563840603
 21
194.2835314643
  0
LINE
  5
253
100
AcDbEntity
  8
0
100
AcDbLine
 62
7
  6
CONTINUOUS
 10
-46.3560240331
 20
231.6069010423
 11
-43.4546198814
 21
228.6734052353
  0
LINE
  5
254
100
AcDbEntity
  8
0
100
AcDbLine
 62
7
  6
CONTINUOUS
 10
-28.5633725097
 20
131.8305589382
 11
-28.5633725097
 21
124.9643172444
  0
LINE
  5
255
100
AcDbEntity
  8
0
100
AcDbLine
 62
7
  6
CONTINUOUS
 10
-26.5928181217
 20
131.7293274314
 11
-26.5928181217
 21
123.8261616264
  0
LINE
  5
256
100
AcDbEntity
  8
0
100
AcDbLine
 62
7
  6
CONTINUOUS
 10
-21.5869675024
 20
133.0605427918
 11
-21.5869675024
 21
134.763034812
  0
LINE
  5
257
100
AcDbEntity
  8
0
100
AcDbLine
 62
7
  6
CONTINUOUS
 10
13.8310845557
 20
254.5815773197
 11
12.1191872641
 21
251.8233518712
  0
LINE
  5
258
100
AcDbEntity
  8
0
100
AcDbLine
 62
7
  6
CONTINUOUS
 10
13.6484562841
 20
251.5249763091
 11
13.8463965725
 21
251.8433372543
  0
LINE
  5
259
100
AcDbEntity
  8
0
100
AcDbLine
 62
7
  6
CONTINUOUS
 10
-13.3225044082
 20
136.9783694558
 11
-13.3225044082
 21
135.2758774356
  0
LINE
  5
25A
100
AcDbEntity
  8
0
100
AcDbLine
 62
7
  6
CONTINUOUS
 10
-3.1563840603
 20
194.2835314643
 11
-4.8801545953
 21
191.6796571707
  0
LINE
  5
25B
100
AcDbEntity
  8
0
100
AcDbLine
 62
7
  6
CONTINUOUS
 10
-35.7189217572
 20
149.1082709684
 11
-37.6443245602
 21
146.6746427355
  0
LINE
  5
25C
100
AcDbEntity
  8
0
100
AcDbLine
 62
7
  6
CONTINUOUS
 10
13.7673235297
 20
251.7161586549
 11
13.82800107
 21
251.7079162563
  0
LINE
  5
25D
100
AcDbEntity
  8
0
100
AcDbLine
 62
7
  6
CONTINUOUS
 10
13.79606207
 20
251.745529497
 11
13.8560098013
 21
251.7364303084
  0
LINE
  5
25E
100
AcDbEntity
  8
0
100
AcDbLine
 62
7
  6
CONTINUOUS
 10
31.5989593064
 20
236.8788116555
 11
31.5989593064
 21
238.022290893
  0
LINE
  5
25F
100
AcDbEntity
  8
0
100
AcDbLine
 62
7
  6
CONTINUOUS
 10
45.7082512988
 20
244.8115330163
 11
45.5161303678
 21
243.518612284
  0
LINE
  5
260
100
AcDbEntity
  8
0
100
AcDbLine
 62
7
  6
CONTINUOUS
 10
45.7543353382
 20
242.448913892
 11
45.7082512988
 21
244.8115330163
  0
LINE
  5
261
100
AcDbEntity
  8
0
100
AcDbLine
 62
7
  6
CONTINUOUS
 10
50.3796233532
 20
221.6884929516
 11
50.381891326
 21
221.5935638108
  0
LINE
  5
262
100
AcDbEntity
  8
0
100
AcDbLine
 62
7
  6
CONTINUOUS
 10
50.3819619587
 20
221.5935640112
 11
50.4343256922
 21
218.8357141027
  0
ARC
  5
263
100
AcDbEntity
  8
0
100
AcDbCircle
 62
7
  6
CONTINUOUS
 10
-22.4526141013
 20
201.2964398521
 40
53.8524365202
100
AcDbArc
 50
111.9596760531
 51
114.539379466
  0
ARC
  5
264
100
AcDbEntity
  8
0
100
AcDbCircle
 62
7
  6
CONTINUOUS
 10
-57.4502799189
 20
191.3289951533
 40
40.930868878
100
AcDbArc
 50
155.6260042683
 51
161.680592105
  0
ARC
  5
265
100
AcDbEntity
  8
0
100
AcDbCircle
 62
7
  6
CONTINUOUS
 10
-57.4897454737
 20
191.482174334
 40
39.3068624619
100
AcDbArc
 50
152.0065468709
 51
153.0385847486
  0
ARC
  5
266
100
AcDbEntity
  8
0
100
AcDbCircle
 62
7
  6
CONTINUOUS
 10
-57.7193562217
 20
191.6413348569
 40
39.0294243615
100
AcDbArc
 50
139.4715156289
 51
152.0546484234
  0
ARC
  5
267
100
AcDbEntity
  8
0
100
AcDbCircle
 62
7
  6
CONTINUOUS
 10
-61.4585930026
 20
196.1796357908
 40
34.6994620357
100
AcDbArc
 50
124.1107858784
 51
124.5504007071
  0
ARC
  5
268
100
AcDbEntity
  8
0
100
AcDbCircle
 62
7
  6
CONTINUOUS
 10
-78.4980218689
 20
188.1142406894
 40
18.5688865694
100
AcDbArc
 50
233.9988372415
 51
236.1665322644
  0
ARC
  5
269
100
AcDbEntity
  8
0
100
AcDbCircle
 62
7
  6
CONTINUOUS
 10
-13.9029529501
 20
178.158191329
 40
16.267546319
100
AcDbArc
 50
37.3555861696
 51
45.5147452062
  0
ARC
  5
26A
100
AcDbEntity
  8
0
100
AcDbCircle
 62
7
  6
CONTINUOUS
 10
-24.4424221745
 20
159.5165079578
 40
15.3407277946
100
AcDbArc
 50
234.1628418921
 51
239.9850474653
  0
ARC
  5
26B
100
AcDbEntity
  8
0
100
AcDbCircle
 62
7
  6
CONTINUOUS
 10
-74.7682612064
 20
213.9473004648
 40
10.5348112172
100
AcDbArc
 50
146.8713569948
 51
150.5901177624
  0
ARC
  5
26C
100
AcDbEntity
  8
0
100
AcDbCircle
 62
7
  6
CONTINUOUS
 10
-74.8183792416
 20
213.9749312347
 40
10.4775837505
100
AcDbArc
 50
150.5871610244
 51
156.2752733731
  0
ARC
  5
26D
100
AcDbEntity
  8
0
100
AcDbCircle
 62
7
  6
CONTINUOUS
 10
-74.8818842641
 20
214.023040852
 40
10.3982644839
100
AcDbArc
 50
141.2818031218
 51
146.8786915479
  0
ARC
  5
26E
100
AcDbEntity
  8
0
100
AcDbCircle
 62
7
  6
CONTINUOUS
 10
-74.9640852487
 20
214.0390528972
 40
10.3183926019
100
AcDbArc
 50
156.2757114956
 51
159.8819476915
  0
ARC
  5
26F
100
AcDbEntity
  8
0
100
AcDbCircle
 62
7
  6
CONTINUOUS
 10
-75.0686538838
 20
214.1718868957
 40
10.1594391276
100
AcDbArc
 50
137.4681070709
 51
141.2779218825
  0
ARC
  5
270
100
AcDbEntity
  8
0
100
AcDbCircle
 62
7
  6
CONTINUOUS
 10
-75.348174433
 20
214.1739027508
 40
9.911357425
100
AcDbArc
 50
159.8502254625
 51
166.312457689
  0
ARC
  5
271
100
AcDbEntity
  8
0
100
AcDbCircle
 62
7
  6
CONTINUOUS
 10
-75.3471163163
 20
214.4284056074
 40
9.7808330916
100
AcDbArc
 50
131.5245854226
 51
137.4727242851
  0
ARC
  5
272
100
AcDbEntity
  8
0
100
AcDbCircle
 62
7
  6
CONTINUOUS
 10
-75.7360216921
 20
214.2692123477
 40
9.5119720201
100
AcDbArc
 50
166.3174437775
 51
169.5552914585
  0
ARC
  5
273
100
AcDbEntity
  8
0
100
AcDbCircle
 62
7
  6
CONTINUOUS
 10
-75.6619571541
 20
214.77622227
 40
9.31171313
100
AcDbArc
 50
127.6362717799
 51
131.4930185166
  0
ARC
  5
274
100
AcDbEntity
  8
0
100
AcDbCircle
 62
7
  6
CONTINUOUS
 10
-49.7770056787
 20
221.4334025471
 40
8.4085470672
100
AcDbArc
 50
178.3114025338
 51
178.9085952919
  0
ARC
  5
275
100
AcDbEntity
  8
0
100
AcDbCircle
 62
7
  6
CONTINUOUS
 10
-76.3803833473
 20
215.8298009711
 40
8.0347021048
100
AcDbArc
 50
116.9366491586
 51
120.5601083158
  0
ARC
  5
276
100
AcDbEntity
  8
0
100
AcDbCircle
 62
7
  6
CONTINUOUS
 10
-78.5328646542
 20
130.5716977861
 40
6.6923437299
100
AcDbArc
 50
191.5201711096
 51
195.6196981154
  0
ARC
  5
277
100
AcDbEntity
  8
0
100
AcDbCircle
 62
7
  6
CONTINUOUS
 10
-79.5404883985
 20
130.2000881106
 40
5.6162452399
100
AcDbArc
 50
204.4539484607
 51
209.8730716197
  0
ARC
  5
278
100
AcDbEntity
  8
0
100
AcDbCircle
 62
7
  6
CONTINUOUS
 10
-27.4158168211
 20
142.8971457155
 40
5.0613304491
100
AcDbArc
 50
135.8398728232
 51
143.7043625701
  0
ARC
  5
279
100
AcDbEntity
  8
0
100
AcDbCircle
 62
7
  6
CONTINUOUS
 10
-80.1141140561
 20
129.8151000631
 40
4.9240017386
100
AcDbArc
 50
218.9133186706
 51
225.0869877502
  0
ARC
  5
27A
100
AcDbEntity
  8
0
100
AcDbCircle
 62
7
  6
CONTINUOUS
 10
-80.2836143109
 20
129.6405582571
 40
4.6807232233
100
AcDbArc
 50
225.0478714714
 51
236.7136646822
  0
ARC
  5
27B
100
AcDbEntity
  8
0
100
AcDbCircle
 62
7
  6
CONTINUOUS
 10
-80.3132423466
 20
129.597198712
 40
4.6282168604
100
AcDbArc
 50
236.725678817
 51
239.985053488
  0
ARC
  5
27C
100
AcDbEntity
  8
0
100
AcDbCircle
 62
7
  6
CONTINUOUS
 10
-83.9326859909
 20
200.6838367894
 40
4.0897817193
100
AcDbArc
 50
178.9541489467
 51
179.9983571688
  0
ARC
  5
27D
100
AcDbEntity
  8
0
100
AcDbCircle
 62
7
  6
CONTINUOUS
 10
-38.2482067246
 20
175.6839809342
 40
3.3371180845
100
AcDbArc
 50
105.0090180564
 51
106.6803850867
  0
ARC
  5
27E
100
AcDbEntity
  8
0
100
AcDbCircle
 62
7
  6
CONTINUOUS
 10
-85.0114731321
 20
200.4870993668
 40
2.9867060676
100
AcDbArc
 50
198.5817139619
 51
205.3365011288
  0
ARC
  5
27F
100
AcDbEntity
  8
0
100
AcDbCircle
 62
7
  6
CONTINUOUS
 10
-85.1712238059
 20
200.4118629774
 40
2.8101256276
100
AcDbArc
 50
205.3439083302
 51
209.2879105779
  0
ARC
  5
280
100
AcDbEntity
  8
0
100
AcDbCircle
 62
7
  6
CONTINUOUS
 10
-17.7208923772
 20
283.5672946092
 40
66.7765005878
100
AcDbArc
 50
249.0731234098
 51
251.2915428242
  0
ARC
  5
281
100
AcDbEntity
  8
0
100
AcDbCircle
 62
7
  6
CONTINUOUS
 10
-29.6788200654
 20
239.151773899
 40
10.352635831
100
AcDbArc
 50
218.2643161099
 51
221.6685776355
  0
ARC
  5
282
100
AcDbEntity
  8
0
100
AcDbCircle
 62
7
  6
CONTINUOUS
 10
-30.1079460303
 20
238.8098764485
 40
9.8039689822
100
AcDbArc
 50
217.8103331667
 51
218.248586741
  0
ARC
  5
283
100
AcDbEntity
  8
0
100
AcDbCircle
 62
7
  6
CONTINUOUS
 10
-49.3650128068
 20
236.4314578491
 40
8.536348042
100
AcDbArc
 50
181.9861474368
 51
190.7507967041
  0
ARC
  5
284
100
AcDbEntity
  8
0
100
AcDbCircle
 62
7
  6
CONTINUOUS
 10
-33.7937627601
 20
238.0289231745
 40
5.6072818868
100
AcDbArc
 50
180.0677693462
 51
191.4523621649
  0
ARC
  5
285
100
AcDbEntity
  8
0
100
AcDbCircle
 62
7
  6
CONTINUOUS
 10
-3.9048106752
 20
120.8126567455
 40
136.8542117597
100
AcDbArc
 50
90.3001102983
 51
91.6798369021
  0
ARC
  5
286
100
AcDbEntity
  8
0
100
AcDbCircle
 62
7
  6
CONTINUOUS
 10
-2.1583905485
 20
139.6423896745
 40
117.9352079217
100
AcDbArc
 50
81.0956388497
 51
82.6168566238
  0
ARC
  5
287
100
AcDbEntity
  8
0
100
AcDbCircle
 62
7
  6
CONTINUOUS
 10
-7.4607632237
 20
150.7457888661
 40
106.6836588526
100
AcDbArc
 50
99.5877924429
 51
101.219846498
  0
ARC
  5
288
100
AcDbEntity
  8
0
100
AcDbCircle
 62
7
  6
CONTINUOUS
 10
9.9188109899
 20
189.2709940883
 40
66.7765005878
100
AcDbArc
 50
69.0731234098
 51
71.2915428242
  0
ARC
  5
289
100
AcDbEntity
  8
0
100
AcDbCircle
 62
7
  6
CONTINUOUS
 10
58.1093552023
 20
210.4380494379
 40
13.6499536158
100
AcDbArc
 50
124.4914080112
 51
124.7466549108
  0
ARC
  5
28A
100
AcDbEntity
  8
0
100
AcDbCircle
 62
7
  6
CONTINUOUS
 10
41.5629314195
 20
236.4068308484
 40
8.536348042
100
AcDbArc
 50
1.9861474368
 51
10.7507967041
  0
ARC
  5
28B
100
AcDbEntity
  8
0
100
AcDbCircle
 62
7
  6
CONTINUOUS
 10
-0.5327949241
 20
187.1956741226
 40
5.2571886163
100
AcDbArc
 50
324.513244219
 51
332.1688468246
  0
ARC
  5
28C
100
AcDbEntity
  8
0
100
AcDbCircle
 62
7
  6
CONTINUOUS
 10
-3.9034894119
 20
337.2666938463
 40
137.1924134474
100
AcDbArc
 50
266.5558865844
 51
270.2711495224
  0
ARC
  5
28D
100
AcDbEntity
  8
0
100
AcDbCircle
 62
7
  6
CONTINUOUS
 10
-3.897270712
 20
352.025631952
 40
136.8542117597
100
AcDbArc
 50
270.3001102983
 51
271.6798369021
  0
ARC
  5
28E
100
AcDbEntity
  8
0
100
AcDbCircle
 62
7
  6
CONTINUOUS
 10
-4.3643624935
 20
329.5316312499
 40
129.4436345422
100
AcDbArc
 50
262.6990775866
 51
266.5538316161
  0
ARC
  5
28F
100
AcDbEntity
  8
0
100
AcDbCircle
 62
7
  6
CONTINUOUS
 10
-5.6436908388
 20
333.1958990226
 40
117.9352079212
100
AcDbArc
 50
261.0956388497
 51
262.6168566238
  0
ARC
  5
290
100
AcDbEntity
  8
0
100
AcDbCircle
 62
7
  6
CONTINUOUS
 10
-0.3413181635
 20
322.0924998311
 40
106.6836588523
100
AcDbArc
 50
279.5877924429
 51
281.219846498
  0
ARC
  5
291
100
AcDbEntity
  8
0
100
AcDbCircle
 62
7
  6
CONTINUOUS
 10
14.650532714
 20
271.5418488456
 40
53.8524365204
100
AcDbArc
 50
291.9596760531
 51
294.539379466
  0
SPLINE
  5
292
100
AcDbEntity
  8
0
100
AcDbSpline
 62
7
  6
CONTINUOUS
 70
0
 71
3
 72
9
 73
5
 74
0
 42
0.0000001
 43
0.0000001
 44
0.0000000001
 40
0.0
 40
0.0
 40
0.0
 40
0.0
 40
0.5046555006
 40
1.0
 40
1.0
 40
1.0
 40
1.0
 10
-96.3841182703
 20
209.1257310405
 30
0.0
 10
-96.6293776699
 20
208.8219976747
 30
0.0
 10
-97.0389623125
 20
208.1548374806
 30
0.0
 10
-97.2683873646
 20
207.4053237683
 30
0.0
 10
-97.328000133
 20
207.0267996896
 30
0.0
  0
SPLINE
  5
293
100
AcDbEntity
  8
0
100
AcDbSpline
 62
7
  6
CONTINUOUS
 70
0
 71
3
 72
25
 73
21
 74
0
 42
0.0000001
 43
0.0000001
 44
0.0000000001
 40
0.0
 40
0.0
 40
0.0
 40
0.0
 40
0.0157132617
 40
0.031952033
 40
0.0676647832
 40
0.0878788559
 40
0.1098862624
 40
0.1595475839
 40
0.2167630108
 40
0.2809369798
 40
0.3510487092
 40
0.4257865695
 40
0.5036416144
 40
0.5829823761
 40
0.662121358
 40
0.7393786695
 40
0.813145535
 40
0.8819534704
 40
0.9445485919
 40
1.0
 40
1.0
 40
1.0
 40
1.0
 10
-39.4010407246
 20
238.022290893
 30
0.0
 10
-39.4010388036
 20
238.3938846494
 30
0.0
 10
-39.323074415
 20
239.1516112697
 30
0.0
 10
-38.847542869
 20
240.6885514328
 30
0.0
 10
-37.8996103361
 20
242.1475486332
 30
0.0
 10
-36.6221131275
 20
243.4776065507
 30
0.0
 10
-34.9503773439
 20
244.8727548112
 30
0.0
 10
-32.3422789438
 20
246.4776395292
 30
0.0
 10
-28.6374410082
 20
248.1218773974
 30
0.0
 10
-24.3223119088
 20
249.5188975751
 30
0.0
 10
-19.5015217762
 20
250.6341987152
 30
0.0
 10
-14.2924920015
 20
251.4395929163
 30
0.0
 10
-8.8244007118
 20
251.9143903083
 30
0.0
 10
-3.2334010393
 20
252.0463614734
 30
0.0
 10
2.3409200305
 20
251.8321080176
 30
0.0
 10
7.7594876831
 20
251.2771300372
 30
0.0
 10
12.8873441902
 20
250.3957991265
 30
0.0
 10
17.5981673338
 20
249.2104487633
 30
0.0
 10
21.7757591811
 20
247.7516743388
 30
0.0
 10
24.3022649545
 20
246.5425947329
 30
0.0
 10
25.437803291
 20
245.8867288786
 30
0.0
  0
SPLINE
  5
294
100
AcDbEntity
  8
0
100
AcDbSpline
 62
7
  6
CONTINUOUS
 70
0
 71
3
 72
9
 73
5
 74
0
 42
0.0000001
 43
0.0000001
 44
0.0000000001
 40
0.0
 40
0.0
 40
0.0
 40
0.0
 40
0.4834158648
 40
1.0
 40
1.0
 40
1.0
 40
1.0
 10
-39.4010305677
 20
236.8788116553
 30
0.0
 10
-39.4010319843
 20
236.3356698406
 30
0.0
 10
-39.2290939904
 20
235.2068169012
 30
0.0
 10
-38.753410545
 20
234.1741892825
 30
0.0
 10
-38.4552988059
 20
233.6761904271
 30
0.0
  0
SPLINE
  5
295
100
AcDbEntity
  8
0
100
AcDbSpline
 62
7
  6
CONTINUOUS
 70
0
 71
3
 72
9
 73
5
 74
0
 42
0.0000001
 43
0.0000001
 44
0.0000000001
 40
0.0
 40
0.0
 40
0.0
 40
0.0
 40
0.2440437944
 40
1.0
 40
1.0
 40
1.0
 40
1.0
 10
-38.4552988059
 20
233.6761904271
 30
0.0
 10
-38.4108559755
 20
233.6019482025
 30
0.0
 10
-38.2238380643
 20
233.3006829759
 30
0.0
 10
-38.0178317906
 20
233.0113155231
 30
0.0
 10
-37.8535174411
 20
232.7995577111
 30
0.0
  0
SPLINE
  5
296
100
AcDbEntity
  8
0
100
AcDbSpline
 62
7
  6
CONTINUOUS
 70
0
 71
3
 72
9
 73
5
 74
0
 42
0.0000001
 43
0.0000001
 44
0.0000000001
 40
0.0
 40
0.0
 40
0.0
 40
0.0
 40
0.2325275254
 40
1.0
 40
1.0
 40
1.0
 40
1.0
 10
-37.412269034
 20
232.2691264651
 30
0.0
 10
-37.2327556514
 20
232.0670824209
 30
0.0
 10
-36.4288609792
 20
231.2265055501
 30
0.0
 10
-35.5139639085
 20
230.4968034863
 30
0.0
 10
-34.7810529829
 20
229.9882813775
 30
0.0
  0
SPLINE
  5
297
100
AcDbEntity
  8
0
100
AcDbSpline
 62
7
  6
CONTINUOUS
 70
0
 71
3
 72
9
 73
5
 74
0
 42
0.0000001
 43
0.0000001
 44
0.0000000001
 40
0.0
 40
0.0
 40
0.0
 40
0.0
 40
0.2426621252
 40
1.0
 40
1.0
 40
1.0
 40
1.0
 10
-34.7810529829
 20
229.9882813775
 30
0.0
 10
-34.6598748242
 20
229.9042032575
 30
0.0
 10
-34.1565919315
 20
229.5633759012
 30
0.0
 10
-33.6384845693
 20
229.2445975643
 30
0.0
 10
-33.2398846783
 20
229.0143736699
 30
0.0
  0
SPLINE
  5
298
100
AcDbEntity
  8
0
100
AcDbSpline
 62
7
  6
CONTINUOUS
 70
0
 71
3
 72
10
 73
6
 74
0
 42
0.0000001
 43
0.0000001
 44
0.0000000001
 40
0.0
 40
0.0
 40
0.0
 40
0.0
 40
0.5332419343
 40
0.7761883652
 40
1.0
 40
1.0
 40
1.0
 40
1.0
 10
13.8560098013
 20
251.7364303084
 30
0.0
 10
17.3973595187
 20
251.1978614588
 30
0.0
 10
22.5231885038
 20
250.1554794287
 30
0.0
 10
28.9431634546
 20
248.1645777516
 30
0.0
 10
31.8629903612
 20
247.009481916
 30
0.0
 10
33.2331770171
 20
246.3906246701
 30
0.0
  0
SPLINE
  5
299
100
AcDbEntity
  8
0
100
AcDbSpline
 62
7
  6
CONTINUOUS
 70
0
 71
3
 72
12
 73
8
 74
0
 42
0.0000001
 43
0.0000001
 44
0.0000000001
 40
0.0
 40
0.0
 40
0.0
 40
0.0
 40
0.0996137483
 40
0.2080597036
 40
0.4487753159
 40
0.7156638629
 40
1.0
 40
1.0
 40
1.0
 40
1.0
 10
-33.2398846783
 20
229.0143736699
 30
0.0
 10
-32.5221034505
 20
228.5997965632
 30
0.0
 10
-30.9794254946
 20
227.8080734182
 30
0.0
 10
-27.5299133396
 20
226.3702522125
 30
0.0
 10
-22.6061252729
 20
224.8941151519
 30
0.0
 10
-16.1239094094
 20
223.6616491311
 30
0.0
 10
-11.5529940458
 20
223.2064265499
 30
0.0
 10
-9.1911264346
 20
223.0663762213
 30
0.0
  0
SPLINE
  5
29A
100
AcDbEntity
  8
0
100
AcDbSpline
 62
7
  6
CONTINUOUS
 70
0
 71
3
 72
16
 73
12
 74
0
 42
0.0000001
 43
0.0000001
 44
0.0000000001
 40
0.0
 40
0.0
 40
0.0
 40
0.0
 40
0.1546773622
 40
0.3084658281
 40
0.4569057077
 40
0.5958196075
 40
0.7215729356
 40
0.8313995689
 40
0.8798797715
 40
0.9240147087
 40
1.0
 40
1.0
 40
1.0
 40
1.0
 10
-9.1911264346
 20
223.0663762213
 30
0.0
 10
-6.9985568418
 20
222.9363646616
 30
0.0
 10
-2.6147685099
 20
222.8401942073
 30
0.0
 10
3.8705750969
 20
223.1679847113
 30
0.0
 10
10.0916172688
 20
223.9551947446
 30
0.0
 10
15.8380274428
 20
225.1737957187
 30
0.0
 10
20.9167191065
 20
226.7815494896
 30
0.0
 10
24.6000251388
 20
228.4633802602
 30
0.0
 10
27.0416784503
 20
229.9911158877
 30
0.0
 10
28.9316641173
 20
231.4603255033
 30
0.0
 10
30.0992453805
 20
232.7506768712
 30
0.0
 10
30.6534087601
 20
233.6764885358
 30
0.0
  0
SPLINE
  5
29B
100
AcDbEntity
  8
0
100
AcDbSpline
 62
7
  6
CONTINUOUS
 70
0
 71
3
 72
9
 73
5
 74
0
 42
0.0000001
 43
0.0000001
 44
0.0000000001
 40
0.0
 40
0.0
 40
0.0
 40
0.0
 40
0.5165736412
 40
1.0
 40
1.0
 40
1.0
 40
1.0
 10
30.6534087601
 20
233.6764885358
 30
0.0
 10
30.9514651237
 20
234.1744356546
 30
0.0
 10
31.4270086945
 20
235.2069915278
 30
0.0
 10
31.5989477639
 20
236.3357151757
 30
0.0
 10
31.5989491805
 20
236.8788116556
 30
0.0
  0
SPLINE
  5
29C
100
AcDbEntity
  8
0
100
AcDbSpline
 62
7
  6
CONTINUOUS
 70
0
 71
3
 72
12
 73
8
 74
0
 42
0.0000001
 43
0.0000001
 44
0.0000000001
 40
0.0
 40
0.0
 40
0.0
 40
0.0
 40
0.3075736022
 40
0.5705647601
 40
0.796038144
 40
0.8995109015
 40
1.0
 40
1.0
 40
1.0
 40
1.0
 10
25.437803291
 20
245.8867288786
 30
0.0
 10
26.363616022
 20
245.3519966391
 30
0.0
 10
28.023070979
 20
244.2483804538
 30
0.0
 10
30.025621604
 20
242.3117661183
 30
0.0
 10
31.112223634
 20
240.5230530919
 30
0.0
 10
31.530311392
 20
239.0823194877
 30
0.0
 10
31.5989611431
 20
238.3715967622
 30
0.0
 10
31.5989593373
 20
238.022290893
 30
0.0
  0
SPLINE
  5
29D
100
AcDbEntity
  8
0
100
AcDbSpline
 62
7
  6
CONTINUOUS
 70
0
 71
3
 72
9
 73
5
 74
0
 42
0.0000001
 43
0.0000001
 44
0.0000000001
 40
0.0
 40
0.0
 40
0.0
 40
0.0
 40
0.2488275295
 40
1.0
 40
1.0
 40
1.0
 40
1.0
 10
31.5989593373
 20
238.022290893
 30
0.0
 10
31.5989588601
 20
237.929974537
 30
0.0
 10
31.5896192732
 20
237.5590155161
 30
0.0
 10
31.5425424399
 20
237.189106604
 30
0.0
 10
31.4873835524
 20
236.915930694
 30
0.0
  0
SPLINE
  5
29E
100
AcDbEntity
  8
0
100
AcDbSpline
 62
7
  6
CONTINUOUS
 70
0
 71
3
 72
25
 73
21
 74
0
 42
0.0000001
 43
0.0000001
 44
0.0000000001
 40
0.0
 40
0.0
 40
0.0
 40
0.0
 40
0.0159680456
 40
0.0328681783
 40
0.0510448626
 40
0.0707508167
 40
0.1152906488
 40
0.1671005272
 40
0.2259607372
 40
0.2911614118
 40
0.3616598213
 40
0.4361819168
 40
0.5132970771
 40
0.5914803671
 40
0.6691692408
 40
0.7448185261
 40
0.8169558909
 40
0.8842422545
 40
0.945538715
 40
1.0
 40
1.0
 40
1.0
 40
1.0
 10
31.4873835524
 20
236.915930694
 30
0.0
 10
31.4138081441
 20
236.551546457
 30
0.0
 10
31.1890093383
 20
235.8148238377
 30
0.0
 10
30.6480872027
 20
234.7512307879
 30
0.0
 10
29.9028715751
 20
233.7110028697
 30
0.0
 10
28.5900904515
 20
232.30560853
 30
0.0
 10
26.4264416977
 20
230.6575454661
 30
0.0
 10
23.2398408174
 20
228.9344731629
 30
0.0
 10
19.4270492504
 20
227.4211654302
 30
0.0
 10
15.0734660451
 20
226.1522094292
 30
0.0
 10
10.277235078
 20
225.1568544444
 30
0.0
 10
5.1494049383
 20
224.4590227628
 30
0.0
 10
-0.190501448
 20
224.0754935297
 30
0.0
 10
-5.6174210192
 20
224.0155498981
 30
0.0
 10
-11.0040812984
 20
224.2806321392
 30
0.0
 10
-16.2242685013
 20
224.8643524245
 30
0.0
 10
-21.1559002842
 20
225.7525572292
 30
0.0
 10
-25.6849171742
 20
226.9241295754
 30
0.0
 10
-29.706372477
 20
228.3507672376
 30
0.0
 10
-32.1419908356
 20
229.5237298137
 30
0.0
 10
-33.2398846783
 20
230.1578529074
 30
0.0
  0
SPLINE
  5
29F
100
AcDbEntity
  8
0
100
AcDbSpline
 62
7
  6
CONTINUOUS
 70
0
 71
3
 72
9
 73
5
 74
0
 42
0.0000001
 43
0.0000001
 44
0.0000000001
 40
0.0
 40
0.0
 40
0.0
 40
0.0
 40
0.5326740601
 40
1.0
 40
1.0
 40
1.0
 40
1.0
 10
-33.2398846783
 20
230.1578529074
 30
0.0
 10
-34.0324521501
 20
230.6156251598
 30
0.0
 10
-35.4756996477
 20
231.5569232009
 30
0.0
 10
-36.7675663181
 20
232.7051893031
 30
0.0
 10
-37.3091000282
 20
233.2980856983
 30
0.0
  0
SPLINE
  5
2A0
100
AcDbEntity
  8
0
100
AcDbSpline
 62
7
  6
CONTINUOUS
 70
0
 71
3
 72
9
 73
5
 74
0
 42
0.0000001
 43
0.0000001
 44
0.0000000001
 40
0.0
 40
0.0
 40
0.0
 40
0.0
 40
0.5295265124
 40
1.0
 40
1.0
 40
1.0
 40
1.0
 10
-37.3091000282
 20
233.2980856983
 30
0.0
 10
-37.804560305
 20
233.8405387472
 30
0.0
 10
-38.6481081375
 20
234.9594445878
 30
0.0
 10
-39.1601749083
 20
236.2757632414
 30
0.0
 10
-39.2894043811
 20
236.9155798619
 30
0.0
  0
SPLINE
  5
2A1
100
AcDbEntity
  8
0
100
AcDbSpline
 62
7
  6
CONTINUOUS
 70
0
 71
3
 72
9
 73
5
 74
0
 42
0.0000001
 43
0.0000001
 44
0.0000000001
 40
0.0
 40
0.0
 40
0.0
 40
0.0
 40
0.23825878
 40
1.0
 40
1.0
 40
1.0
 40
1.0
 10
-37.9956238017
 20
231.5861806546
 30
0.0
 10
-37.9313623009
 20
231.422720242
 30
0.0
 10
-37.6333726121
 20
230.7478066425
 30
0.0
 10
-37.2290095149
 20
230.1224644999
 30
0.0
 10
-36.8837462501
 20
229.6796140181
 30
0.0
  0
SPLINE
  5
2A2
100
AcDbEntity
  8
0
100
AcDbSpline
 62
7
  6
CONTINUOUS
 70
0
 71
3
 72
11
 73
7
 74
0
 42
0.0000001
 43
0.0000001
 44
0.0000000001
 40
0.0
 40
0.0
 40
0.0
 40
0.0
 40
0.2858842438
 40
0.551883345
 40
0.7915106631
 40
1.0
 40
1.0
 40
1.0
 40
1.0
 10
-42.590946102
 20
251.2417349598
 30
0.0
 10
-41.1640401746
 20
251.3961640632
 30
0.0
 10
-38.4190278609
 20
251.7958168642
 30
0.0
 10
-34.5433045597
 20
252.6976419919
 30
0.0
 10
-31.1435829496
 20
253.8547418203
 30
0.0
 10
-29.112446966
 20
254.8458133665
 30
0.0
 10
-28.2186432677
 20
255.3904900327
 30
0.0
  0
SPLINE
  5
2A3
100
AcDbEntity
  8
0
100
AcDbSpline
 62
7
  6
CONTINUOUS
 70
0
 71
3
 72
11
 73
7
 74
0
 42
0.0000001
 43
0.0000001
 44
0.0000000001
 40
0.0
 40
0.0
 40
0.0
 40
0.0
 40
0.2605364956
 40
0.5187368295
 40
0.7674499495
 40
1.0
 40
1.0
 40
1.0
 40
1.0
 10
-25.2298509748
 20
255.9392420211
 30
0.0
 10
-23.7156019761
 20
255.8648069764
 30
0.0
 10
-20.6942693883
 20
255.8259028957
 30
0.0
 10
-16.2322102304
 20
256.0860325819
 30
0.0
 10
-11.9630163643
 20
256.6551691046
 30
0.0
 10
-9.2224187853
 20
257.2529418605
 30
0.0
 10
-7.916621372
 20
257.6080537854
 30
0.0
  0
SPLINE
  5
2A4
100
AcDbEntity
  8
0
100
AcDbSpline
 62
7
  6
CONTINUOUS
 70
0
 71
3
 72
11
 73
7
 74
0
 42
0.0000001
 43
0.0000001
 44
0.0000000001
 40
0.0
 40
0.0
 40
0.0
 40
0.0
 40
0.2376677341
 40
0.4881754326
 40
0.7446688198
 40
1.0
 40
1.0
 40
1.0
 40
1.0
 10
-4.6216378283
 20
257.6649911619
 30
0.0
 10
-3.2523418722
 20
257.3586571515
 30
0.0
 10
-0.4097228733
 20
256.8594939782
 30
0.0
 10
3.9701637161
 20
256.4374732134
 30
0.0
 10
8.473222059
 20
256.330087713
 30
0.0
 10
11.4946912966
 20
256.4725530448
 30
0.0
 10
12.9967362806
 20
256.5997981543
 30
0.0
  0
SPLINE
  5
2A5
100
AcDbEntity
  8
0
100
AcDbSpline
 62
7
  6
CONTINUOUS
 70
0
 71
3
 72
11
 73
7
 74
0
 42
0.0000001
 43
0.0000001
 44
0.0000000001
 40
0.0
 40
0.0
 40
0.0
 40
0.0
 40
0.2140467744
 40
0.4559136705
 40
0.7201568796
 40
1.0
 40
1.0
 40
1.0
 40
1.0
 10
16.0962796997
 20
256.1562527194
 30
0.0
 10
17.0995134027
 20
255.6487920726
 30
0.0
 10
19.3228273679
 20
254.7372850034
 30
0.0
 10
22.9657636812
 20
253.6990425121
 30
0.0
 10
27.0270769618
 20
252.9318077732
 30
0.0
 10
29.8714725652
 20
252.6245744957
 30
0.0
 10
31.3375605677
 20
252.5192209194
 30
0.0
  0
SPLINE
  5
2A6
100
AcDbEntity
  8
0
100
AcDbSpline
 62
7
  6
CONTINUOUS
 70
0
 71
3
 72
12
 73
8
 74
0
 42
0.0000001
 43
0.0000001
 44
0.0000000001
 40
0.0
 40
0.0
 40
0.0
 40
0.0
 40
0.1904229236
 40
0.300547158
 40
0.4209967184
 40
0.6920341354
 40
1.0
 40
1.0
 40
1.0
 40
1.0
 10
33.7697864739
 20
251.6427184449
 30
0.0
 10
34.2124309187
 20
251.0094918812
 30
0.0
 10
35.0915452901
 20
250.1352686978
 30
0.0
 10
36.4779206033
 20
249.1376853545
 30
0.0
 10
38.236891795
 20
248.1073514019
 30
0.0
 10
40.8495438069
 20
246.9757212368
 30
0.0
 10
43.1025965401
 20
246.2952309774
 30
0.0
 10
44.3136272514
 20
245.9875529742
 30
0.0
  0
SPLINE
  5
2A7
100
AcDbEntity
  8
0
100
AcDbSpline
 62
7
  6
CONTINUOUS
 70
0
 71
3
 72
9
 73
5
 74
0
 42
0.0000001
 43
0.0000001
 44
0.0000000001
 40
0.0
 40
0.0
 40
0.0
 40
0.0
 40
0.2561024532
 40
1.0
 40
1.0
 40
1.0
 40
1.0
 10
44.3136272514
 20
245.9875529742
 30
0.0
 10
44.4364326834
 20
245.8917464779
 30
0.0
 10
44.9125136414
 20
245.5132829612
 30
0.0
 10
45.3745013715
 20
245.1169804882
 30
0.0
 10
45.7082512988
 20
244.8115330163
 30
0.0
  0
SPLINE
  5
2A8
100
AcDbEntity
  8
0
100
AcDbSpline
 62
7
  6
CONTINUOUS
 70
0
 71
3
 72
10
 73
6
 74
0
 42
0.0000001
 43
0.0000001
 44
0.0000000001
 40
0.0
 40
0.0
 40
0.0
 40
0.0
 40
0.2872774555
 40
0.5481202325
 40
1.0
 40
1.0
 40
1.0
 40
1.0
 10
-57.8962325145
 20
236.1356062073
 30
0.0
 10
-57.5381207913
 20
236.383438881
 30
0.0
 10
-56.875838348
 20
236.8896439171
 30
0.0
 10
-55.7877921484
 20
237.9452836491
 30
0.0
 10
-55.1682613068
 20
238.8655440955
 30
0.0
 10
-54.9190771289
 20
239.5036546068
 30
0.0
  0
SPLINE
  5
2A9
100
AcDbEntity
  8
0
100
AcDbSpline
 62
7
  6
CONTINUOUS
 70
0
 71
3
 72
9
 73
5
 74
0
 42
0.0000001
 43
0.0000001
 44
0.0000000001
 40
0.0
 40
0.0
 40
0.0
 40
0.0
 40
0.2568792383
 40
1.0
 40
1.0
 40
1.0
 40
1.0
 10
-54.9190771289
 20
239.5036546068
 30
0.0
 10
-54.8737944127
 20
239.6196145263
 30
0.0
 10
-54.7156672904
 20
240.07781581
 30
0.0
 10
-54.6366187453
 20
240.5640491194
 30
0.0
 10
-54.6297740784
 20
240.9241124849
 30
0.0
  0
SPLINE
  5
2AA
100
AcDbEntity
  8
0
100
AcDbSpline
 62
7
  6
CONTINUOUS
 70
0
 71
3
 72
9
 73
5
 74
0
 42
0.0000001
 43
0.0000001
 44
0.0000000001
 40
0.0
 40
0.0
 40
0.0
 40
0.0
 40
0.2439482134
 40
1.0
 40
1.0
 40
1.0
 40
1.0
 10
-55.1891010325
 20
243.0680249059
 30
0.0
 10
-55.102384395
 20
243.1715887323
 30
0.0
 10
-54.7415073693
 20
243.5915797161
 30
0.0
 10
-54.3598009985
 20
243.9935526933
 30
0.0
 10
-54.0618538558
 20
244.2876228451
 30
0.0
  0
SPLINE
  5
2AB
100
AcDbEntity
  8
0
100
AcDbSpline
 62
7
  6
CONTINUOUS
 70
0
 71
3
 72
12
 73
8
 74
0
 42
0.0000001
 43
0.0000001
 44
0.0000000001
 40
0.0
 40
0.0
 40
0.0
 40
0.0
 40
0.3137423107
 40
0.5851897678
 40
0.7043829382
 40
0.8127165566
 40
1.0
 40
1.0
 40
1.0
 40
1.0
 10
-54.0618538558
 20
244.2876228451
 30
0.0
 10
-52.9333530462
 20
244.633036526
 30
0.0
 10
-50.8575030044
 20
245.3802778749
 30
0.0
 10
-48.4925093286
 20
246.6009884879
 30
0.0
 10
-46.9611095378
 20
247.6936663722
 30
0.0
 10
-45.7997805441
 20
248.7359060288
 30
0.0
 10
-45.1151238096
 20
249.6456976306
 30
0.0
 10
-44.8185306111
 20
250.2847108753
 30
0.0
  0
SPLINE
  5
2AC
100
AcDbEntity
  8
0
100
AcDbSpline
 62
7
  6
CONTINUOUS
 70
0
 71
3
 72
12
 73
8
 74
0
 42
0.0000001
 43
0.0000001
 44
0.0000000001
 40
0.0
 40
0.0
 40
0.0
 40
0.0
 40
0.0995033332
 40
0.2078245054
 40
0.4484551888
 40
0.7154146157
 40
1.0
 40
1.0
 40
1.0
 40
1.0
 10
-32.7452442145
 20
228.7409025122
 30
0.0
 10
-32.0438986867
 20
228.3329542226
 30
0.0
 10
-30.5359897501
 20
227.5538760049
 30
0.0
 10
-27.1612084623
 20
226.1385444252
 30
0.0
 10
-22.3398247321
 20
224.6838422352
 30
0.0
 10
-15.9874949313
 20
223.4670405645
 30
0.0
 10
-11.5062785012
 20
223.0153120851
 30
0.0
 10
-9.1899666869
 20
222.8752696991
 30
0.0
  0
SPLINE
  5
2AD
100
AcDbEntity
  8
0
100
AcDbSpline
 62
7
  6
CONTINUOUS
 70
0
 71
3
 72
14
 73
10
 74
0
 42
0.0000001
 43
0.0000001
 44
0.0000000001
 40
0.0
 40
0.0
 40
0.0
 40
0.0
 40
0.2780104695
 40
0.415161831
 40
0.5481098653
 40
0.6747867819
 40
0.7933238391
 40
0.9021294225
 40
1.0
 40
1.0
 40
1.0
 40
1.0
 10
-9.1899666869
 20
222.8752696991
 30
0.0
 10
-5.9928955509
 20
222.6819772989
 30
0.0
 10
-1.1973291786
 20
222.6557775272
 30
0.0
 10
5.101155892
 20
223.1371639596
 30
0.0
 10
9.6344567423
 20
223.7467261902
 30
0.0
 10
13.9110483368
 20
224.5940199522
 30
0.0
 10
17.8511522275
 20
225.662903826
 30
0.0
 10
21.380668114
 20
226.9326198688
 30
0.0
 10
23.5378246758
 20
227.9544168955
 30
0.0
 10
24.5233490703
 20
228.5022393209
 30
0.0
  0
SPLINE
  5
2AE
100
AcDbEntity
  8
0
100
AcDbSpline
 62
7
  6
CONTINUOUS
 70
0
 71
3
 72
11
 73
7
 74
0
 42
0.0000001
 43
0.0000001
 44
0.0000000001
 40
0.0
 40
0.0
 40
0.0
 40
0.0
 40
0.281321062
 40
0.5441503179
 40
0.7846654155
 40
1.0
 40
1.0
 40
1.0
 40
1.0
 10
12.1191872641
 20
251.8233518712
 30
0.0
 10
13.9450889217
 20
251.5293537002
 30
0.0
 10
17.4605408111
 20
250.8506082917
 30
0.0
 10
22.4475809581
 20
249.5121027527
 30
0.0
 10
26.8984761193
 20
247.9101713471
 30
0.0
 10
29.6085182437
 20
246.612096364
 30
0.0
 10
30.8402421693
 20
245.9143583472
 30
0.0
  0
SPLINE
  5
2AF
100
AcDbEntity
  8
0
100
AcDbSpline
 62
7
  6
CONTINUOUS
 70
0
 71
3
 72
10
 73
6
 74
0
 42
0.0000001
 43
0.0000001
 44
0.0000000001
 40
0.0
 40
0.0
 40
0.0
 40
0.0
 40
0.2235001486
 40
0.4654100372
 40
1.0
 40
1.0
 40
1.0
 40
1.0
 10
-45.1139174593
 20
225.668014366
 30
0.0
 10
-44.2268547139
 20
225.1415045852
 30
0.0
 10
-42.3285467441
 20
224.1299062209
 30
0.0
 10
-38.1022319774
 20
222.2681594833
 30
0.0
 10
-34.6857430121
 20
221.1503749359
 30
0.0
 10
-32.307409079
 20
220.4935648335
 30
0.0
  0
SPLINE
  5
2B0
100
AcDbEntity
  8
0
100
AcDbSpline
 62
7
  6
CONTINUOUS
 70
0
 71
3
 72
9
 73
5
 74
0
 42
0.0000001
 43
0.0000001
 44
0.0000000001
 40
0.0
 40
0.0
 40
0.0
 40
0.0
 40
0.4867811439
 40
1.0
 40
1.0
 40
1.0
 40
1.0
 10
-32.307409079
 20
220.4935648335
 30
0.0
 10
-30.6008813232
 20
220.0222833811
 30
0.0
 10
-27.0613496215
 20
219.1741554901
 30
0.0
 10
-23.4787717646
 20
218.5356443077
 30
0.0
 10
-21.6331714465
 20
218.2567025125
 30
0.0
  0
LINE
  5
2B1
100
AcDbEntity
  8
0
100
AcDbLine
 62
7
  6
CONTINUOUS
 10
-58.1817047404
 20
221.1794873463
 11
-57.8962325145
 21
236.1356062073
  0
LINE
  5
2B2
100
AcDbEntity
  8
0
100
AcDbLine
 62
7
  6
CONTINUOUS
 10
-53.8023135205
 20
213.0254410876
 11
-53.5103326861
 21
228.0267556812
  0
SPLINE
  5
2B3
100
AcDbEntity
  8
0
100
AcDbSpline
 62
7
  6
CONTINUOUS
 70
0
 71
3
 72
12
 73
8
 74
0
 42
0.0000001
 43
0.0000001
 44
0.0000000001
 40
0.0
 40
0.0
 40
0.0
 40
0.0
 40
0.1000437047
 40
0.2033111219
 40
0.4289086217
 40
0.6922431334
 40
1.0
 40
1.0
 40
1.0
 40
1.0
 10
45.5161350964
 20
243.5186122978
 30
0.0
 10
45.520774076
 20
243.2725369643
 30
0.0
 10
45.5786710133
 20
242.7721695742
 30
0.0
 10
45.8921051118
 20
241.7592494929
 30
0.0
 10
46.6791083878
 20
240.5044983735
 30
0.0
 10
48.1106326321
 20
239.1471626106
 30
0.0
 10
49.2914860614
 20
238.3737654535
 30
0.0
 10
49.9494478076
 20
237.9991815536
 30
0.0
  0
SPLINE
  5
2B4
100
AcDbEntity
  8
0
100
AcDbSpline
 62
7
  6
CONTINUOUS
 70
0
 71
3
 72
9
 73
5
 74
0
 42
0.0000001
 43
0.0000001
 44
0.0000000001
 40
0.0
 40
0.0
 40
0.0
 40
0.0
 40
0.4859461023
 40
1.0
 40
1.0
 40
1.0
 40
1.0
 10
46.8276905548
 20
231.7671970029
 30
0.0
 10
46.8341120645
 20
231.4288458437
 30
0.0
 10
46.9409662601
 20
230.7317541076
 30
0.0
 10
47.2151827013
 20
230.0843119817
 30
0.0
 10
47.3870196453
 20
229.7702637916
 30
0.0
  0
LINE
  5
2B5
100
AcDbEntity
  8
0
100
AcDbLine
 62
7
  6
CONTINUOUS
 10
47.3870196453
 20
229.7702637916
 11
47.6814768043
 21
214.7790828582
  0
LINE
  5
2B6
100
AcDbEntity
  8
0
100
AcDbLine
 62
7
  6
CONTINUOUS
 10
50.3796233532
 20
221.6884929534
 11
50.0941511272
 21
236.7026824902
  0
SPLINE
  5
2B7
100
AcDbEntity
  8
0
100
AcDbSpline
 62
7
  6
CONTINUOUS
 70
0
 71
3
 72
20
 73
16
 74
0
 42
0.0000001
 43
0.0000001
 44
0.0000000001
 40
0.0
 40
0.0
 40
0.0
 40
0.0
 40
0.0352749522
 40
0.071906401
 40
0.1111853141
 40
0.154089555
 40
0.2012743297
 40
0.2531147213
 40
0.3097637973
 40
0.3712066756
 40
0.4372946239
 40
0.5077744392
 40
0.6604643204
 40
0.8259112516
 40
1.0
 40
1.0
 40
1.0
 40
1.0
 10
-58.2363342858
 20
218.8357138833
 30
0.0
 10
-58.2484419997
 20
218.1985768091
 30
0.0
 10
-58.1227148796
 20
216.8924493914
 30
0.0
 10
-57.4901313358
 20
214.9712098486
 30
0.0
 10
-56.4274086248
 20
213.0926171624
 30
0.0
 10
-54.9505843181
 20
211.269987472
 30
0.0
 10
-53.0741730475
 20
209.5129941199
 30
0.0
 10
-50.8133326328
 20
207.8320957273
 30
0.0
 10
-48.1852159349
 20
206.2382167009
 30
0.0
 10
-45.2095510943
 20
204.7429394478
 30
0.0
 10
-41.9090565822
 20
203.3573077085
 30
0.0
 10
-36.976634241
 20
201.6242456119
 30
0.0
 10
-30.1754612567
 20
199.834839587
 30
0.0
 10
-21.4050449946
 20
198.3177293414
 30
0.0
 10
-15.2924970036
 20
197.733493753
 30
0.0
 10
-12.1532661519
 20
197.5436983308
 30
0.0
  0
SPLINE
  5
2B8
100
AcDbEntity
  8
0
100
AcDbSpline
 62
7
  6
CONTINUOUS
 70
0
 71
3
 72
8
 73
4
 74
0
 42
0.0000001
 43
0.0000001
 44
0.0000000001
 40
0.0
 40
0.0
 40
0.0
 40
0.0
 40
1.0
 40
1.0
 40
1.0
 40
1.0
 10
-39.4664769346
 20
229.9038944935
 30
0.0
 10
-38.8413919449
 20
230.6126115693
 30
0.0
 10
-38.2162086626
 20
231.3212419685
 30
0.0
 10
-37.5909090475
 20
232.0297696879
 30
0.0
  0
SPLINE
  5
2B9
100
AcDbEntity
  8
0
100
AcDbSpline
 62
7
  6
CONTINUOUS
 70
0
 71
3
 72
20
 73
16
 74
0
 42
0.0000001
 43
0.0000001
 44
0.0000000001
 40
0.0
 40
0.0
 40
0.0
 40
0.0
 40
0.1658198908
 40
0.3297028963
 40
0.4852741893
 40
0.5581269897
 40
0.6268157254
 40
0.6908055444
 40
0.749679947
 40
0.8031774767
 40
0.8512428153
 40
0.8941002053
 40
0.9323555756
 40
0.9671094766
 40
1.0
 40
1.0
 40
1.0
 40
1.0
 10
-12.1532661519
 20
197.5436983308
 30
0.0
 10
-8.2527616105
 20
197.3078769015
 30
0.0
 10
-0.473053626
 20
197.1747946189
 30
0.0
 10
10.9495034902
 20
197.9407316587
 30
0.0
 10
20.0981238908
 20
199.3802532626
 30
0.0
 10
26.909529376
 20
201.0147935308
 30
0.0
 10
31.548548714
 20
202.417963201
 30
0.0
 10
35.7771533157
 20
204.0083784499
 30
0.0
 10
39.5476008901
 20
205.7681236468
 30
0.0
 10
42.8180263354
 20
207.6778548604
 30
0.0
 10
45.5529452358
 20
209.7182463173
 30
0.0
 10
47.7225687737
 20
211.8712564321
 30
0.0
 10
49.2996290406
 20
214.1226782014
 30
0.0
 10
50.2526418526
 20
216.4549722759
 30
0.0
 10
50.4489445706
 20
218.0607717355
 30
0.0
 10
50.4342622302
 20
218.8357139306
 30
0.0
  0
SPLINE
  5
2BA
100
AcDbEntity
  8
0
100
AcDbSpline
 62
7
  6
CONTINUOUS
 70
0
 71
3
 72
11
 73
7
 74
0
 42
0.0000001
 43
0.0000001
 44
0.0000000001
 40
0.0
 40
0.0
 40
0.0
 40
0.0
 40
0.2169669791
 40
0.4576733048
 40
0.7197093637
 40
1.0
 40
1.0
 40
1.0
 40
1.0
 10
-38.6423235565
 20
224.16592651
 30
0.0
 10
-37.5089343898
 20
223.5238924527
 30
0.0
 10
-35.031336876
 20
222.3209432031
 30
0.0
 10
-30.9777869545
 20
220.8108386284
 30
0.0
 10
-26.4523288276
 20
219.5223178512
 30
0.0
 10
-23.2647225799
 20
218.8460831162
 30
0.0
 10
-21.6089634737
 20
218.5457282036
 30
0.0
  0
LINE
  5
2BB
100
AcDbEntity
  8
0
100
AcDbLine
 62
7
  6
CONTINUOUS
 10
-21.6089634737
 20
218.5457282036
 11
-21.4847765457
 21
218.523296246
  0
SPLINE
  5
2BC
100
AcDbEntity
  8
0
100
AcDbSpline
 62
7
  6
CONTINUOUS
 70
0
 71
3
 72
10
 73
6
 74
0
 42
0.0000001
 43
0.0000001
 44
0.0000000001
 40
0.0
 40
0.0
 40
0.0
 40
0.0
 40
0.2872774555
 40
0.5481202325
 40
1.0
 40
1.0
 40
1.0
 40
1.0
 10
50.0941511272
 20
236.7026824902
 30
0.0
 10
49.7360394041
 20
236.4548498165
 30
0.0
 10
49.0737569608
 20
235.9486447804
 30
0.0
 10
47.9857107611
 20
234.8930050485
 30
0.0
 10
47.3661799195
 20
233.972744602
 30
0.0
 10
47.1169957417
 20
233.3346340907
 30
0.0
  0
SPLINE
  5
2BD
100
AcDbEntity
  8
0
100
AcDbSpline
 62
7
  6
CONTINUOUS
 70
0
 71
3
 72
9
 73
5
 74
0
 42
0.0000001
 43
0.0000001
 44
0.0000000001
 40
0.0
 40
0.0
 40
0.0
 40
0.0
 40
0.5075378937
 40
1.0
 40
1.0
 40
1.0
 40
1.0
 10
47.1169957417
 20
233.3346340907
 30
0.0
 10
47.0184298886
 20
233.0822267852
 30
0.0
 10
46.8678110918
 20
232.566265632
 30
0.0
 10
46.8227015189
 20
232.0300707169
 30
0.0
 10
46.8276905548
 20
231.7671970029
 30
0.0
  0
SPLINE
  5
2BE
100
AcDbEntity
  8
0
100
AcDbSpline
 62
7
  6
CONTINUOUS
 70
0
 71
3
 72
9
 73
5
 74
0
 42
0.0000001
 43
0.0000001
 44
0.0000000001
 40
0.0
 40
0.0
 40
0.0
 40
0.0
 40
0.49564354
 40
1.0
 40
1.0
 40
1.0
 40
1.0
 10
50.3819608489
 20
221.5935640149
 30
0.0
 10
50.3901615849
 20
221.161142126
 30
0.0
 10
50.3387751106
 20
220.286116151
 30
0.0
 10
50.1547121655
 20
219.4294633128
 30
0.0
 10
50.0318798361
 20
219.0068494468
 30
0.0
  0
SPLINE
  5
2BF
100
AcDbEntity
  8
0
100
AcDbSpline
 62
7
  6
CONTINUOUS
 70
0
 71
3
 72
9
 73
5
 74
0
 42
0.0000001
 43
0.0000001
 44
0.0000000001
 40
0.0
 40
0.0
 40
0.0
 40
0.0
 40
0.4770863308
 40
1.0
 40
1.0
 40
1.0
 40
1.0
 10
50.0318798361
 20
219.0068494468
 30
0.0
 10
49.8160370637
 20
218.2642261572
 30
0.0
 10
49.1662400827
 20
216.7616487302
 30
0.0
 10
48.2241103974
 20
215.4302689494
 30
0.0
 10
47.6814768048
 20
214.7790828591
 30
0.0
  0
SPLINE
  5
2C0
100
AcDbEntity
  8
0
100
AcDbSpline
 62
7
  6
CONTINUOUS
 70
0
 71
3
 72
11
 73
7
 74
0
 42
0.0000001
 43
0.0000001
 44
0.0000000001
 40
0.0
 40
0.0
 40
0.0
 40
0.0
 40
0.3018706251
 40
0.5658275665
 40
0.7956619056
 40
1.0
 40
1.0
 40
1.0
 40
1.0
 10
-58.0294335558
 20
219.8151824474
 30
0.0
 10
-57.4541193204
 20
219.4898210182
 30
0.0
 10
-56.4072357205
 20
218.8197437625
 30
0.0
 10
-55.0912739761
 20
217.6651611403
 30
0.0
 10
-54.156520464
 20
216.4400758227
 30
0.0
 10
-53.7927216074
 20
215.5439998972
 30
0.0
 10
-53.6957607487
 20
215.107236185
 30
0.0
  0
SPLINE
  5
2C1
100
AcDbEntity
  8
0
100
AcDbSpline
 62
7
  6
CONTINUOUS
 70
0
 71
3
 72
11
 73
7
 74
0
 42
0.0000001
 43
0.0000001
 44
0.0000000001
 40
0.0
 40
0.0
 40
0.0
 40
0.0
 40
0.2807639256
 40
0.5382147941
 40
0.7761529648
 40
1.0
 40
1.0
 40
1.0
 40
1.0
 10
-53.8023135223
 20
213.0254410892
 30
0.0
 10
-54.3623218011
 20
213.5399855686
 30
0.0
 10
-55.3843000473
 20
214.5855398133
 30
0.0
 10
-56.6438339604
 20
216.278113464
 30
0.0
 10
-57.548142838
 20
218.0139642997
 30
0.0
 10
-57.9144360608
 20
219.2198546441
 30
0.0
 10
-58.0294335558
 20
219.8151824474
 30
0.0
  0
SPLINE
  5
2C2
100
AcDbEntity
  8
0
100
AcDbSpline
 62
7
  6
CONTINUOUS
 70
0
 71
3
 72
12
 73
8
 74
0
 42
0.0000001
 43
0.0000001
 44
0.0000000001
 40
0.0
 40
0.0
 40
0.0
 40
0.0
 40
0.3084141503
 40
0.579631872
 40
0.70004497
 40
0.8100447635
 40
1.0
 40
1.0
 40
1.0
 40
1.0
 10
-52.3347517811
 20
211.7879162523
 30
0.0
 10
-51.1251049092
 20
211.4826853244
 30
0.0
 10
-48.8753910504
 20
210.8066541303
 30
0.0
 10
-46.2674417682
 20
209.6793208951
 30
0.0
 10
-44.5139347829
 20
208.6514804519
 30
0.0
 10
-43.1350302254
 20
207.6567114492
 30
0.0
 10
-42.262516817
 20
206.783807501
 30
0.0
 10
-41.8259058722
 20
206.1515202011
 30
0.0
  0
SPLINE
  5
2C3
100
AcDbEntity
  8
0
100
AcDbSpline
 62
7
  6
CONTINUOUS
 70
0
 71
3
 72
10
 73
6
 74
0
 42
0.0000001
 43
0.0000001
 44
0.0000000001
 40
0.0
 40
0.0
 40
0.0
 40
0.0
 40
0.5364412213
 40
0.7775118495
 40
1.0
 40
1.0
 40
1.0
 40
1.0
 10
-41.8259058722
 20
206.1515202011
 30
0.0
 10
-43.8223773875
 20
206.9185840727
 30
0.0
 10
-46.6670402413
 20
208.1784513192
 30
0.0
 10
-50.1166511419
 20
210.1834238887
 30
0.0
 10
-51.6344257368
 20
211.2434946435
 30
0.0
 10
-52.3347517811
 20
211.7879162523
 30
0.0
  0
SPLINE
  5
2C4
100
AcDbEntity
  8
0
100
AcDbSpline
 62
7
  6
CONTINUOUS
 70
0
 71
3
 72
11
 73
7
 74
0
 42
0.0000001
 43
0.0000001
 44
0.0000000001
 40
0.0
 40
0.0
 40
0.0
 40
0.0
 40
0.2800672571
 40
0.5444605565
 40
0.7862816198
 40
1.0
 40
1.0
 40
1.0
 40
1.0
 10
-39.2664765465
 20
205.2291773664
 30
0.0
 10
-37.8038060803
 20
205.1259199446
 30
0.0
 10
-34.9662693826
 20
204.8222670384
 30
0.0
 10
-30.9159465584
 20
204.0588210065
 30
0.0
 10
-27.2861342761
 20
203.0229982043
 30
0.0
 10
-25.0729377743
 20
202.1118568127
 30
0.0
 10
-24.0757812883
 20
201.6042168268
 30
0.0
  0
SPLINE
  5
2C5
100
AcDbEntity
  8
0
100
AcDbSpline
 62
7
  6
CONTINUOUS
 70
0
 71
3
 72
9
 73
5
 74
0
 42
0.0000001
 43
0.0000001
 44
0.0000000001
 40
0.0
 40
0.0
 40
0.0
 40
0.0
 40
0.5199390979
 40
1.0
 40
1.0
 40
1.0
 40
1.0
 10
-24.0757812883
 20
201.6042168268
 30
0.0
 10
-26.7518376037
 20
202.0257418616
 30
0.0
 10
-31.8723395938
 20
203.0177498239
 30
0.0
 10
-36.8968182275
 20
204.4284979916
 30
0.0
 10
-39.2664765465
 20
205.2291773664
 30
0.0
  0
SPLINE
  5
2C6
100
AcDbEntity
  8
0
100
AcDbSpline
 62
7
  6
CONTINUOUS
 70
0
 71
3
 72
11
 73
7
 74
0
 42
0.0000001
 43
0.0000001
 44
0.0000000001
 40
0.0
 40
0.0
 40
0.0
 40
0.0
 40
0.2553458935
 40
0.5119260889
 40
0.7624679036
 40
1.0
 40
1.0
 40
1.0
 40
1.0
 10
-20.8141342916
 20
201.1374743296
 30
0.0
 10
-19.31705997
 20
201.266218654
 30
0.0
 10
-16.3049120234
 20
201.4109784157
 30
0.0
 10
-11.8156339646
 20
201.3053053984
 30
0.0
 10
-7.4501654611
 20
200.8833826913
 30
0.0
 10
-4.6178173022
 20
200.3830867713
 30
0.0
 10
-3.2542353334
 20
200.0758166836
 30
0.0
  0
LINE
  5
2C7
100
AcDbEntity
  8
0
100
AcDbLine
 62
7
  6
CONTINUOUS
 10
0.1145399847
 20
215.2302349121
 11
0.2130731441
 21
200.135731838
  0
LINE
  5
2C8
100
AcDbEntity
  8
0
100
AcDbLine
 62
7
  6
CONTINUOUS
 10
17.4688403729
 20
201.799004839
 11
17.4277695875
 21
216.8990466765
  0
LINE
  5
2C9
100
AcDbEntity
  8
0
100
AcDbLine
 62
7
  6
CONTINUOUS
 10
20.4165618805
 20
217.4477986648
 11
20.6139440445
 21
202.376456105
  0
LINE
  5
2CA
100
AcDbEntity
  8
0
100
AcDbLine
 62
7
  6
CONTINUOUS
 10
34.9385454007
 20
206.5114415163
 11
34.7888647148
 21
221.5965537377
  0
LINE
  5
2CB
100
AcDbEntity
  8
0
100
AcDbLine
 62
7
  6
CONTINUOUS
 10
37.0164492238
 20
222.5535778222
 11
37.2826307474
 21
207.5185171733
  0
LINE
  5
2CC
100
AcDbEntity
  8
0
100
AcDbLine
 62
7
  6
CONTINUOUS
 10
46.4952755274
 20
213.4957009499
 11
46.2597724685
 21
228.5506658524
  0
SPLINE
  5
2CD
100
AcDbEntity
  8
0
100
AcDbSpline
 62
7
  6
CONTINUOUS
 70
0
 71
3
 72
9
 73
5
 74
0
 42
0.0000001
 43
0.0000001
 44
0.0000000001
 40
0.0
 40
0.0
 40
0.0
 40
0.0
 40
0.2439482134
 40
1.0
 40
1.0
 40
1.0
 40
1.0
 10
47.3870196453
 20
229.7702637916
 30
0.0
 10
47.3003030078
 20
229.6666999652
 30
0.0
 10
46.939425982
 20
229.2467089814
 30
0.0
 10
46.5577196112
 20
228.8447360043
 30
0.0
 10
46.2597724685
 20
228.5506658524
 30
0.0
  0
SPLINE
  5
2CE
100
AcDbEntity
  8
0
100
AcDbSpline
 62
7
  6
CONTINUOUS
 70
0
 71
3
 72
12
 73
8
 74
0
 42
0.0000001
 43
0.0000001
 44
0.0000000001
 40
0.0
 40
0.0
 40
0.0
 40
0.0
 40
0.3137423107
 40
0.5851897678
 40
0.7043829382
 40
0.8127165566
 40
1.0
 40
1.0
 40
1.0
 40
1.0
 10
46.2597724685
 20
228.5506658524
 30
0.0
 10
45.1312716589
 20
228.2052521716
 30
0.0
 10
43.0554216171
 20
227.4580108226
 30
0.0
 10
40.6904279414
 20
226.2373002096
 30
0.0
 10
39.1590281506
 20
225.1446223254
 30
0.0
 10
37.9976991569
 20
224.1023826687
 30
0.0
 10
37.3130424223
 20
223.192591067
 30
0.0
 10
37.0164492238
 20
222.5535778222
 30
0.0
  0
SPLINE
  5
2CF
100
AcDbEntity
  8
0
100
AcDbSpline
 62
7
  6
CONTINUOUS
 70
0
 71
3
 72
11
 73
7
 74
0
 42
0.0000001
 43
0.0000001
 44
0.0000000001
 40
0.0
 40
0.0
 40
0.0
 40
0.0
 40
0.2858842438
 40
0.551883345
 40
0.7915106631
 40
1.0
 40
1.0
 40
1.0
 40
1.0
 10
34.7888647148
 20
221.5965537377
 30
0.0
 10
33.3619587873
 20
221.4421246343
 30
0.0
 10
30.6169464736
 20
221.0424718333
 30
0.0
 10
26.7412231724
 20
220.1406467056
 30
0.0
 10
23.3415015624
 20
218.9835468772
 30
0.0
 10
21.3103655788
 20
217.992475331
 30
0.0
 10
20.4165618805
 20
217.4477986648
 30
0.0
  0
SPLINE
  5
2D0
100
AcDbEntity
  8
0
100
AcDbSpline
 62
7
  6
CONTINUOUS
 70
0
 71
3
 72
12
 73
8
 74
0
 42
0.0000001
 43
0.0000001
 44
0.0000000001
 40
0.0
 40
0.0
 40
0.0
 40
0.0
 40
0.1002786001
 40
0.2033608463
 40
0.4281403317
 40
0.6912363656
 40
1.0
 40
1.0
 40
1.0
 40
1.0
 10
-53.3182368952
 20
229.1726974184
 30
0.0
 10
-53.3134273267
 20
229.424215011
 30
0.0
 10
-53.3541805921
 20
229.9365875698
 30
0.0
 10
-53.6433527463
 20
230.9768957274
 30
0.0
 10
-54.4226455059
 20
232.2694998502
 30
0.0
 10
-55.8734135792
 20
233.6643287808
 30
0.0
 10
-57.078392829
 20
234.4558841883
 30
0.0
 10
-57.7515291948
 20
234.8391071439
 30
0.0
  0
SPLINE
  5
2D1
100
AcDbEntity
  8
0
100
AcDbSpline
 62
7
  6
CONTINUOUS
 70
0
 71
3
 72
9
 73
5
 74
0
 42
0.0000001
 43
0.0000001
 44
0.0000000001
 40
0.0
 40
0.0
 40
0.0
 40
0.0
 40
0.4858415664
 40
1.0
 40
1.0
 40
1.0
 40
1.0
 10
-54.6297740784
 20
240.9241124849
 30
0.0
 10
-54.622894957
 20
241.2859883273
 30
0.0
 10
-54.7162573674
 20
242.0362222344
 30
0.0
 10
-55.0052396762
 20
242.7320009703
 30
0.0
 10
-55.1891010325
 20
243.0680249059
 30
0.0
  0
LINE
  5
2D2
100
AcDbEntity
  8
0
100
AcDbLine
 62
7
  6
CONTINUOUS
 10
-3.2542353289
 20
200.0758166836
 11
-3.1804435589
 21
215.1732975357
  0
SPLINE
  5
2D3
100
AcDbEntity
  8
0
100
AcDbSpline
 62
7
  6
CONTINUOUS
 70
0
 71
3
 72
11
 73
7
 74
0
 42
0.0000001
 43
0.0000001
 44
0.0000000001
 40
0.0
 40
0.0
 40
0.0
 40
0.0
 40
0.2323714486
 40
0.4811024809
 40
0.739404199
 40
1.0
 40
1.0
 40
1.0
 40
1.0
 10
0.2130731462
 20
200.1357318382
 30
0.0
 10
1.5130222056
 20
200.4916116089
 30
0.0
 10
4.2432471503
 20
201.0901735392
 30
0.0
 10
8.4981027133
 20
201.6586822101
 30
0.0
 10
12.9468206719
 20
201.9166014417
 30
0.0
 10
15.9592692283
 20
201.8750888424
 30
0.0
 10
17.4688403687
 20
201.7990048383
 30
0.0
  0
SPLINE
  5
2D4
100
AcDbEntity
  8
0
100
AcDbSpline
 62
7
  6
CONTINUOUS
 70
0
 71
3
 72
9
 73
5
 74
0
 42
0.0000001
 43
0.0000001
 44
0.0000000001
 40
0.0
 40
0.0
 40
0.0
 40
0.0
 40
0.4915606992
 40
1.0
 40
1.0
 40
1.0
 40
1.0
 10
17.4688403687
 20
201.7990048383
 30
0.0
 10
14.6661813871
 20
201.3267464325
 30
0.0
 10
8.926928318
 20
200.5815744281
 30
0.0
 10
3.1515193501
 20
200.2236113981
 30
0.0
 10
0.2130731462
 20
200.1357318382
 30
0.0
  0
SPLINE
  5
2D5
100
AcDbEntity
  8
0
100
AcDbSpline
 62
7
  6
CONTINUOUS
 70
0
 71
3
 72
11
 73
7
 74
0
 42
0.0000001
 43
0.0000001
 44
0.0000000001
 40
0.0
 40
0.0
 40
0.0
 40
0.0
 40
0.2081192241
 40
0.4476789955
 40
0.7138407782
 40
1.0
 40
1.0
 40
1.0
 40
1.0
 10
20.6139440463
 20
202.3764561054
 30
0.0
 10
21.5016539508
 20
202.921133122
 30
0.0
 10
23.5229164899
 20
203.9115402353
 30
0.0
 10
26.9101380127
 20
205.0657363723
 30
0.0
 10
30.7757693603
 20
205.9633765029
 30
0.0
 10
33.5146342331
 20
206.3592112618
 30
0.0
 10
34.9385453975
 20
206.5114415151
 30
0.0
  0
SPLINE
  5
2D6
100
AcDbEntity
  8
0
100
AcDbSpline
 62
7
  6
CONTINUOUS
 70
0
 71
3
 72
9
 73
5
 74
0
 42
0.0000001
 43
0.0000001
 44
0.0000000001
 40
0.0
 40
0.0
 40
0.0
 40
0.0
 40
0.4764761802
 40
1.0
 40
1.0
 40
1.0
 40
1.0
 10
34.9385453975
 20
206.5114415151
 30
0.0
 10
32.7398345946
 20
205.6254335723
 30
0.0
 10
28.0138824564
 20
204.0388816623
 30
0.0
 10
23.1683575472
 20
202.8851939419
 30
0.0
 10
20.6139440463
 20
202.3764561054
 30
0.0
  0
SPLINE
  5
2D7
100
AcDbEntity
  8
0
100
AcDbSpline
 62
7
  6
CONTINUOUS
 70
0
 71
3
 72
12
 73
8
 74
0
 42
0.0000001
 43
0.0000001
 44
0.0000000001
 40
0.0
 40
0.0
 40
0.0
 40
0.0
 40
0.1868271528
 40
0.2950190644
 40
0.4141578849
 40
0.6857722472
 40
1.0
 40
1.0
 40
1.0
 40
1.0
 10
37.2826307487
 20
207.518517174
 30
0.0
 10
37.5733548213
 20
208.1561110312
 30
0.0
 10
38.2516702961
 20
209.0645589299
 30
0.0
 10
39.4063144806
 20
210.103815012
 30
0.0
 10
40.9328959833
 20
211.1938736712
 30
0.0
 10
43.2942799834
 20
212.4101254719
 30
0.0
 10
45.3676698627
 20
213.152773176
 30
0.0
 10
46.4952755257
 20
213.4957009483
 30
0.0
  0
SPLINE
  5
2D8
100
AcDbEntity
  8
0
100
AcDbSpline
 62
7
  6
CONTINUOUS
 70
0
 71
3
 72
10
 73
6
 74
0
 42
0.0000001
 43
0.0000001
 44
0.0000000001
 40
0.0
 40
0.0
 40
0.0
 40
0.0
 40
0.2202385315
 40
0.4602059347
 40
1.0
 40
1.0
 40
1.0
 40
1.0
 10
46.4952755257
 20
213.4957009483
 30
0.0
 10
45.9178979954
 20
212.9281959786
 30
0.0
 10
44.6374573022
 20
211.8163080965
 30
0.0
 10
41.6331893357
 20
209.6911829628
 30
0.0
 10
39.0865285561
 20
208.3450820259
 30
0.0
 10
37.2826307487
 20
207.518517174
 30
0.0
  0
SPLINE
  5
2D9
100
AcDbEntity
  8
0
100
AcDbSpline
 62
7
  6
CONTINUOUS
 70
0
 71
3
 72
11
 73
7
 74
0
 42
0.0000001
 43
0.0000001
 44
0.0000000001
 40
0.0
 40
0.0
 40
0.0
 40
0.0
 40
0.2126447572
 40
0.4525616782
 40
0.7164937872
 40
1.0
 40
1.0
 40
1.0
 40
1.0
 10
37.3118360723
 20
247.1702743316
 30
0.0
 10
35.8029450456
 20
248.0658658641
 30
0.0
 10
32.4431412611
 20
249.7241036145
 30
0.0
 10
26.8779461578
 20
251.7442374999
 30
0.0
 10
20.5903993435
 20
253.409448374
 30
0.0
 10
16.1441969046
 20
254.2319763158
 30
0.0
 10
13.8310845557
 20
254.5815773197
 30
0.0
  0
SPLINE
  5
2DA
100
AcDbEntity
  8
0
100
AcDbSpline
 62
7
  6
CONTINUOUS
 70
0
 71
3
 72
9
 73
5
 74
0
 42
0.0000001
 43
0.0000001
 44
0.0000000001
 40
0.0
 40
0.0
 40
0.0
 40
0.0
 40
0.4571449904
 40
1.0
 40
1.0
 40
1.0
 40
1.0
 10
47.5646817615
 20
218.7092028714
 30
0.0
 10
47.8392284032
 20
219.2654627198
 30
0.0
 10
48.665282839
 20
220.3714473596
 30
0.0
 10
49.7243102647
 20
221.2341036484
 30
0.0
 10
50.3295806341
 20
221.6539462537
 30
0.0
  0
SPLINE
  5
2DB
100
AcDbEntity
  8
0
100
AcDbSpline
 62
7
  6
CONTINUOUS
 70
0
 71
3
 72
11
 73
7
 74
0
 42
0.0000001
 43
0.0000001
 44
0.0000000001
 40
0.0
 40
0.0
 40
0.0
 40
0.0
 40
0.2605364956
 40
0.5187368295
 40
0.7674499495
 40
1.0
 40
1.0
 40
1.0
 40
1.0
 10
17.4277695875
 20
216.8990466765
 30
0.0
 10
15.9135205889
 20
216.9734817211
 30
0.0
 10
12.892188001
 20
217.0123858019
 30
0.0
 10
8.4301288432
 20
216.7522561156
 30
0.0
 10
4.1609349771
 20
216.183119593
 30
0.0
 10
1.420337398
 20
215.585346837
 30
0.0
 10
0.1145399848
 20
215.2302349121
 30
0.0
  0
SPLINE
  5
2DC
100
AcDbEntity
  8
0
100
AcDbSpline
 62
7
  6
CONTINUOUS
 70
0
 71
3
 72
11
 73
7
 74
0
 42
0.0000001
 43
0.0000001
 44
0.0000000001
 40
0.0
 40
0.0
 40
0.0
 40
0.0
 40
0.2376677341
 40
0.4881754326
 40
0.7446688198
 40
1.0
 40
1.0
 40
1.0
 40
1.0
 10
-3.1804435589
 20
215.1732975357
 30
0.0
 10
-4.5497395151
 20
215.479631546
 30
0.0
 10
-7.3923585139
 20
215.9787947194
 30
0.0
 10
-11.7722451033
 20
216.4008154841
 30
0.0
 10
-16.2753034463
 20
216.5082009846
 30
0.0
 10
-19.2967726839
 20
216.3657356527
 30
0.0
 10
-20.7988176679
 20
216.2384905432
 30
0.0
  0
SPLINE
  5
2DD
100
AcDbEntity
  8
0
100
AcDbSpline
 62
7
  6
CONTINUOUS
 70
0
 71
3
 72
11
 73
7
 74
0
 42
0.0000001
 43
0.0000001
 44
0.0000000001
 40
0.0
 40
0.0
 40
0.0
 40
0.0
 40
0.281321062
 40
0.5441503179
 40
0.7846654155
 40
1.0
 40
1.0
 40
1.0
 40
1.0
 10
-19.9212686514
 20
221.0149368263
 30
0.0
 10
-21.7471703089
 20
221.3089349973
 30
0.0
 10
-25.2626221984
 20
221.9876804059
 30
0.0
 10
-30.2496623453
 20
223.3261859448
 30
0.0
 10
-34.7005575065
 20
224.9281173504
 30
0.0
 10
-37.4105996309
 20
226.2261923335
 30
0.0
 10
-38.6423235565
 20
226.9239303503
 30
0.0
  0
LINE
  5
2DE
100
AcDbEntity
  8
0
100
AcDbLine
 62
7
  6
CONTINUOUS
 10
13.8325274979
 20
254.5814577505
 11
13.8449534011
 21
251.8434569171
  0
SPLINE
  5
2DF
100
AcDbEntity
  8
0
100
AcDbSpline
 62
7
  6
CONTINUOUS
 70
0
 71
3
 72
11
 73
7
 74
0
 42
0.0000001
 43
0.0000001
 44
0.0000000001
 40
0.0
 40
0.0
 40
0.0
 40
0.0
 40
0.2140467744
 40
0.4559136705
 40
0.7201568796
 40
1.0
 40
1.0
 40
1.0
 40
1.0
 10
-23.8983610869
 20
216.6820359781
 30
0.0
 10
-24.90159479
 20
217.1894966249
 30
0.0
 10
-27.1249087552
 20
218.1010036942
 30
0.0
 10
-30.7678450685
 20
219.1392461854
 30
0.0
 10
-34.829158349
 20
219.9064809244
 30
0.0
 10
-37.6735539525
 20
220.2137142019
 30
0.0
 10
-39.1396419549
 20
220.3190677781
 30
0.0
  0
LINE
  5
2E0
100
AcDbEntity
  8
0
100
AcDbLine
 62
7
  6
CONTINUOUS
 10
-57.7515291948
 20
234.8391071439
 11
-58.0042639878
 21
221.1762124829
  0
SPLINE
  5
2E1
100
AcDbEntity
  8
0
100
AcDbSpline
 62
7
  6
CONTINUOUS
 70
0
 71
3
 72
12
 73
8
 74
0
 42
0.0000001
 43
0.0000001
 44
0.0000000001
 40
0.0
 40
0.0
 40
0.0
 40
0.0
 40
0.1904229236
 40
0.300547158
 40
0.4209967184
 40
0.6920341354
 40
1.0
 40
1.0
 40
1.0
 40
1.0
 10
-41.5718678612
 20
221.1955702526
 30
0.0
 10
-42.014512306
 20
221.8287968163
 30
0.0
 10
-42.8936266773
 20
222.7030199997
 30
0.0
 10
-44.2800019906
 20
223.7006033431
 30
0.0
 10
-46.0389731822
 20
224.7309372956
 30
0.0
 10
-48.6516251942
 20
225.8625674608
 30
0.0
 10
-50.9046779273
 20
226.5430577201
 30
0.0
 10
-52.1157086386
 20
226.8507357233
 30
0.0
  0
LINE
  5
2E2
100
AcDbEntity
  8
0
100
AcDbLine
 62
7
  6
CONTINUOUS
 10
-52.1157086387
 20
226.8507357233
 11
-52.3347517836
 21
211.787916254
  0
LINE
  5
2E3
100
AcDbEntity
  8
0
100
AcDbLine
 62
7
  6
CONTINUOUS
 10
-41.8259058671
 20
206.1515201992
 11
-41.5718678612
 21
221.1955702526
  0
LINE
  5
2E4
100
AcDbEntity
  8
0
100
AcDbLine
 62
7
  6
CONTINUOUS
 10
-39.1396419549
 20
220.3190677781
 11
-39.2664765482
 21
205.2291773669
  0
LINE
  5
2E5
100
AcDbEntity
  8
0
100
AcDbLine
 62
7
  6
CONTINUOUS
 10
-24.0757812841
 20
201.6042168262
 11
-23.8983610869
 21
216.6820359781
  0
LINE
  5
2E6
100
AcDbEntity
  8
0
100
AcDbLine
 62
7
  6
CONTINUOUS
 10
-20.7988176679
 20
216.2384905432
 11
-20.8141342936
 21
201.1374743299
  0
SPLINE
  5
2E7
100
AcDbEntity
  8
0
100
AcDbSpline
 62
7
  6
CONTINUOUS
 70
0
 71
3
 72
9
 73
5
 74
0
 42
0.0000001
 43
0.0000001
 44
0.0000000001
 40
0.0
 40
0.0
 40
0.0
 40
0.0
 40
0.2561024532
 40
1.0
 40
1.0
 40
1.0
 40
1.0
 10
-52.1157086386
 20
226.8507357233
 30
0.0
 10
-52.2385140706
 20
226.9465422197
 30
0.0
 10
-52.7145950287
 20
227.3250057364
 30
0.0
 10
-53.1765827587
 20
227.7213082093
 30
0.0
 10
-53.5103326861
 20
228.0267556812
 30
0.0
  0
SPLINE
  5
2E8
100
AcDbEntity
  8
0
100
AcDbSpline
 62
7
  6
CONTINUOUS
 70
0
 71
3
 72
13
 73
9
 74
0
 42
0.0000001
 43
0.0000001
 44
0.0000000001
 40
0.0
 40
0.0
 40
0.0
 40
0.0
 40
0.2714325806
 40
0.526216733
 40
0.6482278658
 40
0.7672653038
 40
0.8841843864
 40
1.0
 40
1.0
 40
1.0
 40
1.0
 10
-99.9210640298
 20
193.6345251545
 30
0.0
 10
-99.9210640298
 20
191.4468955472
 30
0.0
 10
-99.496608702
 20
187.1891618523
 30
0.0
 10
-97.7709522278
 20
182.1959315908
 30
0.0
 10
-95.7309674464
 20
178.7464791963
 30
0.0
 10
-93.9239880228
 20
176.4843011085
 30
0.0
 10
-91.8431988112
 20
174.5440498113
 30
0.0
 10
-90.2878766733
 20
173.480404401
 30
0.0
 10
-89.4795727975
 20
173.0135799461
 30
0.0
  0
SPLINE
  5
2E9
100
AcDbEntity
  8
0
100
AcDbSpline
 62
7
  6
CONTINUOUS
 70
0
 71
3
 72
11
 73
7
 74
0
 42
0.0000001
 43
0.0000001
 44
0.0000000001
 40
0.0
 40
0.0
 40
0.0
 40
0.0
 40
0.2398024289
 40
0.4840431876
 40
0.7366438158
 40
1.0
 40
1.0
 40
1.0
 40
1.0
 10
0.5238731603
 20
180.6743141467
 30
0.0
 10
0.2168373178
 20
180.8516701647
 30
0.0
 10
-0.4437450351
 20
181.1434589808
 30
0.0
 10
-1.5175060983
 20
181.3663141999
 30
0.0
 10
-2.6483373691
 20
181.3716700284
 30
0.0
 10
-3.4035022198
 20
181.2345893315
 30
0.0
 10
-3.7796296568
 20
181.1337663098
 30
0.0
  0
SPLINE
  5
2EA
100
AcDbEntity
  8
0
100
AcDbSpline
 62
7
  6
CONTINUOUS
 70
0
 71
3
 72
9
 73
5
 74
0
 42
0.0000001
 43
0.0000001
 44
0.0000000001
 40
0.0
 40
0.0
 40
0.0
 40
0.0
 40
0.4837123723
 40
1.0
 40
1.0
 40
1.0
 40
1.0
 10
-18.4442826605
 20
173.1540412949
 30
0.0
 10
-18.7057639261
 20
173.3050085397
 30
0.0
 10
-19.3217339653
 20
173.4985664836
 30
0.0
 10
-19.9585363893
 20
173.4324052451
 30
0.0
 10
-20.2698136524
 20
173.3489656694
 30
0.0
  0
SPLINE
  5
2EB
100
AcDbEntity
  8
0
100
AcDbSpline
 62
7
  6
CONTINUOUS
 70
0
 71
3
 72
10
 73
6
 74
0
 42
0.0000001
 43
0.0000001
 44
0.0000000001
 40
0.0
 40
0.0
 40
0.0
 40
0.0
 40
0.2403281376
 40
0.4850960221
 40
1.0
 40
1.0
 40
1.0
 40
1.0
 10
-17.4689773624
 20
158.0647868528
 30
0.0
 10
-17.6688257336
 20
158.1801805041
 30
0.0
 10
-18.0989231606
 20
158.3700928338
 30
0.0
 10
-19.0441842073
 20
158.5669105757
 30
0.0
 10
-19.7922466335
 20
158.4918259275
 30
0.0
 10
-20.2698136524
 20
158.3638114705
 30
0.0
  0
SPLINE
  5
2EC
100
AcDbEntity
  8
0
100
AcDbSpline
 62
7
  6
CONTINUOUS
 70
0
 71
3
 72
9
 73
5
 74
0
 42
0.0000001
 43
0.0000001
 44
0.0000000001
 40
0.0
 40
0.0
 40
0.0
 40
0.0
 40
0.2542300593
 40
1.0
 40
1.0
 40
1.0
 40
1.0
 10
-41.8408298784
 20
172.4222080593
 30
0.0
 10
-41.7913970567
 20
172.3550796687
 30
0.0
 10
-41.5842741286
 20
172.1006633275
 30
0.0
 10
-41.3247943982
 20
171.8884607135
 30
0.0
 10
-41.1130166266
 20
171.7661736902
 30
0.0
  0
SPLINE
  5
2ED
100
AcDbEntity
  8
0
100
AcDbSpline
 62
7
  6
CONTINUOUS
 70
0
 71
3
 72
12
 73
8
 74
0
 42
0.0000001
 43
0.0000001
 44
0.0000000001
 40
0.0
 40
0.0
 40
0.0
 40
0.0
 40
0.2795408123
 40
0.54388478
 40
0.7817836164
 40
0.892472975
 40
1.0
 40
1.0
 40
1.0
 40
1.0
 10
-4.8801545953
 20
191.6796571707
 30
0.0
 10
-5.0304831806
 20
191.4525754735
 30
0.0
 10
-5.2561139427
 20
190.9618965038
 30
0.0
 10
-5.3442255881
 20
190.1916148201
 30
0.0
 10
-5.1791440314
 20
189.5954457384
 30
0.0
 10
-4.9099266514
 20
189.2363063783
 30
0.0
 10
-4.7396536454
 20
189.1039161958
 30
0.0
 10
-4.6489596452
 20
189.0514945236
 30
0.0
  0
SPLINE
  5
2EE
100
AcDbEntity
  8
0
100
AcDbSpline
 62
7
  6
CONTINUOUS
 70
0
 71
3
 72
13
 73
9
 74
0
 42
0.0000001
 43
0.0000001
 44
0.0000000001
 40
0.0
 40
0.0
 40
0.0
 40
0.0
 40
0.2786457651
 40
0.5432540933
 40
0.6664164373
 40
0.7825831044
 40
0.8929483167
 40
1.0
 40
1.0
 40
1.0
 40
1.0
 10
-0.972121143
 20
188.0286853397
 30
0.0
 10
-1.2975358832
 20
187.5724104659
 30
0.0
 10
-1.7936390284
 20
186.5756545209
 30
0.0
 10
-1.9789472248
 20
185.2170358779
 30
0.0
 10
-1.8146109471
 20
184.2099365174
 30
0.0
 10
-1.5491989414
 20
183.551429498
 30
0.0
 10
-1.148524601
 20
183.0041878043
 30
0.0
 10
-0.7991725182
 20
182.7301710219
 30
0.0
 10
-0.6127092208
 20
182.6225168699
 30
0.0
  0
SPLINE
  5
2EF
100
AcDbEntity
  8
0
100
AcDbSpline
 62
7
  6
CONTINUOUS
 70
0
 71
3
 72
9
 73
5
 74
0
 42
0.0000001
 43
0.0000001
 44
0.0000000001
 40
0.0
 40
0.0
 40
0.0
 40
0.0
 40
0.4880281326
 40
1.0
 40
1.0
 40
1.0
 40
1.0
 10
4.1162802707
 20
184.7412634029
 30
0.0
 10
4.6243199934
 20
183.3408846863
 30
0.0
 10
5.3853411003
 20
180.3646593107
 30
0.0
 10
5.6211971129
 20
177.3061283763
 30
0.0
 10
5.6211971129
 20
175.7433549142
 30
0.0
  0
SPLINE
  5
2F0
100
AcDbEntity
  8
0
100
AcDbSpline
 62
7
  6
CONTINUOUS
 70
0
 71
3
 72
17
 73
13
 74
0
 42
0.0000001
 43
0.0000001
 44
0.0000000001
 40
0.0
 40
0.0
 40
0.0
 40
0.0
 40
0.1266008928
 40
0.2583114476
 40
0.3252840704
 40
0.3924236752
 40
0.5254342548
 40
0.6544161507
 40
0.7769776088
 40
0.891924363
 40
0.9467508167
 40
1.0
 40
1.0
 40
1.0
 40
1.0
 10
5.6211971129
 20
175.7433549142
 30
0.0
 10
5.6211971129
 20
173.5065148548
 30
0.0
 10
5.1160577793
 20
168.9329975942
 30
0.0
 10
3.3843531603
 20
163.4170172168
 30
0.0
 10
1.3772095016
 20
159.1644468246
 30
0.0
 10
-1.0204600618
 20
155.0928007835
 30
0.0
 10
-4.6451209684
 20
150.4999706262
 30
0.0
 10
-9.8113775358
 20
146.0210469408
 30
0.0
 10
-15.5054726173
 20
142.8367672059
 30
0.0
 10
-20.5289868131
 20
141.4006660703
 30
0.0
 10
-24.4684009797
 20
141.0983969678
 30
0.0
 10
-26.3820844673
 20
141.222322439
 30
0.0
 10
-27.3136891107
 20
141.3537519035
 30
0.0
  0
SPLINE
  5
2F1
100
AcDbEntity
  8
0
100
AcDbSpline
 62
7
  6
CONTINUOUS
 70
0
 71
3
 72
9
 73
5
 74
0
 42
0.0000001
 43
0.0000001
 44
0.0000000001
 40
0.0
 40
0.0
 40
0.0
 40
0.0
 40
0.4826730558
 40
1.0
 40
1.0
 40
1.0
 40
1.0
 10
-29.180241062
 20
147.5658157518
 30
0.0
 10
-29.523389533
 20
147.4738329228
 30
0.0
 10
-30.2055486973
 20
147.1675463928
 30
0.0
 10
-30.7814324495
 20
146.6962759376
 30
0.0
 10
-31.0467930134
 20
146.4232026926
 30
0.0
  0
SPLINE
  5
2F2
100
AcDbEntity
  8
0
100
AcDbSpline
 62
7
  6
CONTINUOUS
 70
0
 71
3
 72
9
 73
5
 74
0
 42
0.0000001
 43
0.0000001
 44
0.0000000001
 40
0.0
 40
0.0
 40
0.0
 40
0.0
 40
0.4806690345
 40
1.0
 40
1.0
 40
1.0
 40
1.0
 10
-34.616411469
 20
149.8725902122
 30
0.0
 10
-34.8266375892
 20
149.8162379481
 30
0.0
 10
-35.2422284811
 20
149.6118115503
 30
0.0
 10
-35.5730177464
 20
149.2926875068
 30
0.0
 10
-35.7189217572
 20
149.1082709684
 30
0.0
  0
SPLINE
  5
2F3
100
AcDbEntity
  8
0
100
AcDbSpline
 62
7
  6
CONTINUOUS
 70
0
 71
3
 72
17
 73
13
 74
0
 42
0.0000001
 43
0.0000001
 44
0.0000000001
 40
0.0
 40
0.0
 40
0.0
 40
0.0
 40
0.1228379154
 40
0.2546982557
 40
0.3916795582
 40
0.528420949
 40
0.6596224521
 40
0.7815664066
 40
0.8389124424
 40
0.8940272421
 40
0.9474649717
 40
1.0
 40
1.0
 40
1.0
 40
1.0
 10
-33.9449199509
 20
173.0477948599
 30
0.0
 10
-34.7122460773
 20
172.8421088847
 30
0.0
 10
-36.2368620523
 20
172.1456434873
 30
0.0
 10
-38.193394589
 20
170.4975085018
 30
0.0
 10
-39.7533942861
 20
168.3582466691
 30
0.0
 10
-40.7757523683
 20
165.9206575034
 30
0.0
 10
-41.1680696023
 20
163.4032862435
 30
0.0
 10
-40.9231380378
 20
161.3759971884
 30
0.0
 10
-40.3725324113
 20
159.9562525858
 30
0.0
 10
-39.8097821211
 20
159.0353285475
 30
0.0
 10
-39.1022559034
 20
158.2618473734
 30
0.0
 10
-38.5426213154
 20
157.8564786069
 30
0.0
 10
-38.248422768
 20
157.686537917
 30
0.0
  0
SPLINE
  5
2F4
100
AcDbEntity
  8
0
100
AcDbSpline
 62
7
  6
CONTINUOUS
 70
0
 71
3
 72
17
 73
13
 74
0
 42
0.0000001
 43
0.0000001
 44
0.0000000001
 40
0.0
 40
0.0
 40
0.0
 40
0.0
 40
0.1228379154
 40
0.2546982557
 40
0.3916795582
 40
0.528420949
 40
0.6596224521
 40
0.7815664066
 40
0.8389124424
 40
0.8940272421
 40
0.9474649717
 40
1.0
 40
1.0
 40
1.0
 40
1.0
 10
-18.8622748039
 20
193.86863728
 30
0.0
 10
-19.6296009302
 20
193.6629513048
 30
0.0
 10
-21.1542169053
 20
192.9664859074
 30
0.0
 10
-23.110749442
 20
191.3183509219
 30
0.0
 10
-24.670749139
 20
189.1790890892
 30
0.0
 10
-25.6931072212
 20
186.7414999235
 30
0.0
 10
-26.0854244552
 20
184.2241286636
 30
0.0
 10
-25.8404928908
 20
182.1968396085
 30
0.0
 10
-25.2898872643
 20
180.7770950059
 30
0.0
 10
-24.7271369741
 20
179.8561709676
 30
0.0
 10
-24.0196107563
 20
179.0826897935
 30
0.0
 10
-23.4599761684
 20
178.677321027
 30
0.0
 10
-23.165777621
 20
178.5073803371
 30
0.0
  0
SPLINE
  5
2F5
100
AcDbEntity
  8
0
100
AcDbSpline
 62
7
  6
CONTINUOUS
 70
0
 71
3
 72
17
 73
13
 74
0
 42
0.0000001
 43
0.0000001
 44
0.0000000001
 40
0.0
 40
0.0
 40
0.0
 40
0.0
 40
0.1228379154
 40
0.2546982557
 40
0.3916795582
 40
0.528420949
 40
0.6596224521
 40
0.7815664066
 40
0.8389124424
 40
0.8940272421
 40
0.9474649717
 40
1.0
 40
1.0
 40
1.0
 40
1.0
 10
-3.7796296568
 20
181.1337663098
 30
0.0
 10
-4.5469557832
 20
180.9280803346
 30
0.0
 10
-6.0715717583
 20
180.2316149372
 30
0.0
 10
-8.0281042949
 20
178.5834799517
 30
0.0
 10
-9.588103992
 20
176.4442181191
 30
0.0
 10
-10.6104620742
 20
174.0066289533
 30
0.0
 10
-11.0027793082
 20
171.4892576935
 30
0.0
 10
-10.7578477437
 20
169.4619686384
 30
0.0
 10
-10.2072421173
 20
168.0422240357
 30
0.0
 10
-9.6444918271
 20
167.1212999974
 30
0.0
 10
-8.9369656093
 20
166.3478188234
 30
0.0
 10
-8.3773310213
 20
165.9424500568
 30
0.0
 10
-8.0831324739
 20
165.772509367
 30
0.0
  0
SPLINE
  5
2F6
100
AcDbEntity
  8
0
100
AcDbSpline
 62
7
  6
CONTINUOUS
 70
0
 71
3
 72
11
 73
7
 74
0
 42
0.0000001
 43
0.0000001
 44
0.0000000001
 40
0.0
 40
0.0
 40
0.0
 40
0.0
 40
0.2398024289
 40
0.4840431876
 40
0.7366438158
 40
1.0
 40
1.0
 40
1.0
 40
1.0
 10
-14.5587719867
 20
193.4091851168
 30
0.0
 10
-14.8658078292
 20
193.5865411349
 30
0.0
 10
-15.5263901821
 20
193.878329951
 30
0.0
 10
-16.6001512453
 20
194.10118517
 30
0.0
 10
-17.7309825161
 20
194.1065409985
 30
0.0
 10
-18.4861473668
 20
193.9694603017
 30
0.0
 10
-18.8622748039
 20
193.86863728
 30
0.0
  0
SPLINE
  5
2F7
100
AcDbEntity
  8
0
100
AcDbSpline
 62
7
  6
CONTINUOUS
 70
0
 71
3
 72
11
 73
7
 74
0
 42
0.0000001
 43
0.0000001
 44
0.0000000001
 40
0.0
 40
0.0
 40
0.0
 40
0.0
 40
0.2398024289
 40
0.4840431876
 40
0.7366438158
 40
1.0
 40
1.0
 40
1.0
 40
1.0
 10
-29.6414171338
 20
172.5883426967
 30
0.0
 10
-29.9484529762
 20
172.7656987148
 30
0.0
 10
-30.6090353291
 20
173.0574875309
 30
0.0
 10
-31.6827963923
 20
173.2803427499
 30
0.0
 10
-32.8136276631
 20
173.2856985784
 30
0.0
 10
-33.5687925138
 20
173.1486178816
 30
0.0
 10
-33.9449199509
 20
173.0477948599
 30
0.0
  0
SPLINE
  5
2F8
100
AcDbEntity
  8
0
100
AcDbSpline
 62
7
  6
CONTINUOUS
 70
0
 71
3
 72
16
 73
12
 74
0
 42
0.0000001
 43
0.0000001
 44
0.0000000001
 40
0.0
 40
0.0
 40
0.0
 40
0.0
 40
0.1228935845
 40
0.254809352
 40
0.3918532557
 40
0.528654137
 40
0.6599158167
 40
0.7819144774
 40
0.8939795929
 40
0.947440549
 40
1.0
 40
1.0
 40
1.0
 40
1.0
 10
-20.2698136524
 20
158.3638114705
 30
0.0
 10
-20.7692135316
 20
158.2299445956
 30
0.0
 10
-21.7614718167
 20
157.7766780552
 30
0.0
 10
-23.0348080695
 20
156.7040178767
 30
0.0
 10
-24.0501131828
 20
155.3117070854
 30
0.0
 10
-24.715620237
 20
153.7255425996
 30
0.0
 10
-24.9702896563
 20
152.0860438066
 30
0.0
 10
-24.7853837158
 20
150.5381525154
 30
0.0
 10
-24.2495772023
 20
149.4213998344
 30
0.0
 10
-23.6263128236
 20
148.7408529955
 30
0.0
 10
-23.2621451694
 20
148.4768589134
 30
0.0
 10
-23.0706499424
 20
148.3662884177
 30
0.0
  0
SPLINE
  5
2F9
100
AcDbEntity
  8
0
100
AcDbSpline
 62
7
  6
CONTINUOUS
 70
0
 71
3
 72
15
 73
11
 74
0
 42
0.0000001
 43
0.0000001
 44
0.0000000001
 40
0.0
 40
0.0
 40
0.0
 40
0.0
 40
0.1229607908
 40
0.2549448048
 40
0.3920633402
 40
0.5289370371
 40
0.6602679335
 40
0.7823328983
 40
0.8944581578
 40
1.0
 40
1.0
 40
1.0
 40
1.0
 10
-20.2698136524
 20
173.3489656694
 30
0.0
 10
-20.5953186466
 20
173.2617122725
 30
0.0
 10
-21.2420649473
 20
172.9662933433
 30
0.0
 10
-22.0719671702
 20
172.2671066211
 30
0.0
 10
-22.7337783156
 20
171.3596662704
 30
0.0
 10
-23.1674858333
 20
170.3257818058
 30
0.0
 10
-23.3337023006
 20
169.2573411941
 30
0.0
 10
-23.2122324142
 20
168.2478917892
 30
0.0
 10
-22.8031554173
 20
167.3901417216
 30
0.0
 10
-22.3458479033
 20
166.977376415
 30
0.0
 10
-22.0953446444
 20
166.8327473659
 30
0.0
  0
SPLINE
  5
2FA
100
AcDbEntity
  8
0
100
AcDbSpline
 62
7
  6
CONTINUOUS
 70
0
 71
3
 72
9
 73
5
 74
0
 42
0.0000001
 43
0.0000001
 44
0.0000000001
 40
0.0
 40
0.0
 40
0.0
 40
0.0
 40
0.4837010306
 40
1.0
 40
1.0
 40
1.0
 40
1.0
 10
-33.6161324594
 20
149.7657619935
 30
0.0
 10
-33.7593623676
 20
149.8485570393
 30
0.0
 10
-34.0969326728
 20
149.9545414623
 30
0.0
 10
-34.4458454548
 20
149.9183113675
 30
0.0
 10
-34.616411469
 20
149.8725902122
 30
0.0
  0
SPLINE
  5
2FB
100
AcDbEntity
  8
0
100
AcDbSpline
 62
7
  6
CONTINUOUS
 70
0
 71
3
 72
10
 73
6
 74
0
 42
0.0000001
 43
0.0000001
 44
0.0000000001
 40
0.0
 40
0.0
 40
0.0
 40
0.0
 40
0.2403006213
 40
0.4850717749
 40
1.0
 40
1.0
 40
1.0
 40
1.0
 10
-27.1796774102
 20
147.3521683818
 30
0.0
 10
-27.3224041363
 20
147.4345923301
 30
0.0
 10
-27.6295591156
 20
147.57033435
 30
0.0
 10
-28.3047653717
 20
147.7108688107
 30
0.0
 10
-28.839106359
 20
147.6572587793
 30
0.0
 10
-29.180241062
 20
147.5658157518
 30
0.0
  0
SPLINE
  5
2FC
100
AcDbEntity
  8
0
100
AcDbSpline
 62
7
  6
CONTINUOUS
 70
0
 71
3
 72
15
 73
11
 74
0
 42
0.0000001
 43
0.0000001
 44
0.0000000001
 40
0.0
 40
0.0
 40
0.0
 40
0.0
 40
0.0531036665
 40
0.1071792174
 40
0.2190787179
 40
0.3372604779
 40
0.4619577355
 40
0.5924114492
 40
0.7270980593
 40
1.0
 40
1.0
 40
1.0
 40
1.0
 10
-61.3713631996
 20
230.1249006157
 30
0.0
 10
-62.161953885
 20
230.3656336723
 30
0.0
 10
-63.7911536609
 20
230.7480636548
 30
0.0
 10
-67.1888992299
 20
231.1068641538
 30
0.0
 10
-71.6409637662
 20
230.7621571366
 30
0.0
 10
-76.9603304897
 20
229.1495212047
 30
0.0
 10
-82.1229257815
 20
226.4143603548
 30
0.0
 10
-86.9326903604
 20
222.6672932296
 30
0.0
 10
-92.6444708124
 20
216.512319665
 30
0.0
 10
-95.8531933663
 20
210.8895461678
 30
0.0
 10
-97.3706353394
 20
206.9228273803
 30
0.0
  0
SPLINE
  5
2FD
100
AcDbEntity
  8
0
100
AcDbSpline
 62
7
  6
CONTINUOUS
 70
0
 71
3
 72
9
 73
5
 74
0
 42
0.0000001
 43
0.0000001
 44
0.0000000001
 40
0.0
 40
0.0
 40
0.0
 40
0.0
 40
0.5094877289
 40
1.0
 40
1.0
 40
1.0
 40
1.0
 10
-97.3706353394
 20
206.9228273803
 30
0.0
 10
-98.1950710294
 20
204.7676843185
 30
0.0
 10
-99.4604166386
 20
200.3927275781
 30
0.0
 10
-99.9210640298
 20
195.8560382013
 30
0.0
 10
-99.9210640298
 20
193.6345251545
 30
0.0
  0
SPLINE
  5
2FE
100
AcDbEntity
  8
0
100
AcDbSpline
 62
7
  6
CONTINUOUS
 70
0
 71
3
 72
10
 73
6
 74
0
 42
0.0000001
 43
0.0000001
 44
0.0000000001
 40
0.0
 40
0.0
 40
0.0
 40
0.0
 40
0.2403185971
 40
0.4850883285
 40
1.0
 40
1.0
 40
1.0
 40
1.0
 10
-37.1118493961
 20
178.6936240897
 30
0.0
 10
-37.2545944141
 20
178.7760412607
 30
0.0
 10
-37.5617641045
 20
178.9117747406
 30
0.0
 10
-38.2369717928
 20
179.0523024848
 30
0.0
 10
-38.7712997878
 20
178.9986936498
 30
0.0
 10
-39.1124237776
 20
178.907253494
 30
0.0
  0
SPLINE
  5
2FF
100
AcDbEntity
  8
0
100
AcDbSpline
 62
7
  6
CONTINUOUS
 70
0
 71
3
 72
20
 73
16
 74
0
 42
0.0000001
 43
0.0000001
 44
0.0000000001
 40
0.0
 40
0.0
 40
0.0
 40
0.0
 40
0.1271679565
 40
0.1953137536
 40
0.2653061855
 40
0.4061104859
 40
0.5411864614
 40
0.6046833477
 40
0.6648622816
 40
0.7219732752
 40
0.7768090615
 40
0.8306292012
 40
0.8849105357
 40
0.9410477729
 40
1.0
 40
1.0
 40
1.0
 40
1.0
 10
-18.8622748039
 20
174.8343339045
 30
0.0
 10
-19.5594864254
 20
174.6474425125
 30
0.0
 10
-20.575556502
 20
174.1281540912
 30
0.0
 10
-21.7146632659
 20
173.1385911015
 30
0.0
 10
-22.7402589352
 20
171.9243441104
 30
0.0
 10
-23.6592849161
 20
170.1563380386
 30
0.0
 10
-24.0107485676
 20
168.2248491179
 30
0.0
 10
-23.8845366553
 20
166.7538362693
 30
0.0
 10
-23.5985286799
 20
165.7606405548
 30
0.0
 10
-23.1274387704
 20
164.8949172714
 30
0.0
 10
-22.4866867303
 20
164.1924238635
 30
0.0
 10
-21.7009286662
 20
163.6849565961
 30
0.0
 10
-20.8041103669
 20
163.3949077886
 30
0.0
 10
-19.8358887828
 20
163.3328761004
 30
0.0
 10
-19.185486554
 20
163.4398794776
 30
0.0
 10
-18.8622748039
 20
163.5265181593
 30
0.0
  0
SPLINE
  5
300
100
AcDbEntity
  8
0
100
AcDbSpline
 62
7
  6
CONTINUOUS
 70
0
 71
3
 72
20
 73
16
 74
0
 42
0.0000001
 43
0.0000001
 44
0.0000000001
 40
0.0
 40
0.0
 40
0.0
 40
0.0
 40
0.1271679565
 40
0.1953137536
 40
0.2653061855
 40
0.4061104859
 40
0.5411864614
 40
0.6046833477
 40
0.6648622816
 40
0.7219732752
 40
0.7768090615
 40
0.8306292012
 40
0.8849105357
 40
0.9410477729
 40
1.0
 40
1.0
 40
1.0
 40
1.0
 10
-18.8622748039
 20
163.5265181593
 30
0.0
 10
-18.1650631838
 20
163.7134095566
 30
0.0
 10
-17.1489931051
 20
164.2326979709
 30
0.0
 10
-16.0098863421
 20
165.2222609626
 30
0.0
 10
-14.9842906724
 20
166.4365079531
 30
0.0
 10
-14.0652646917
 20
168.2045140252
 30
0.0
 10
-13.7138010401
 20
170.1360029458
 30
0.0
 10
-13.8400129524
 20
171.6070157944
 30
0.0
 10
-14.1260209278
 20
172.6002115089
 30
0.0
 10
-14.5971108373
 20
173.4659347923
 30
0.0
 10
-15.2378628773
 20
174.1684282003
 30
0.0
 10
-16.0236209416
 20
174.6758954674
 30
0.0
 10
-16.9204392407
 20
174.9659442754
 30
0.0
 10
-17.8886608252
 20
175.0279759636
 30
0.0
 10
-18.5390630531
 20
174.9209725836
 30
0.0
 10
-18.8622748039
 20
174.8343339045
 30
0.0
  0
LINE
  5
301
100
AcDbEntity
  8
0
100
AcDbLine
 62
7
  6
CONTINUOUS
 10
-87.4908421213
 20
206.4349488604
 11
-92.5244257656
 21
209.3035270727
  0
SPLINE
  5
302
100
AcDbEntity
  8
0
100
AcDbSpline
 62
7
  6
CONTINUOUS
 70
0
 71
3
 72
17
 73
13
 74
0
 42
0.0000001
 43
0.0000001
 44
0.0000000001
 40
0.0
 40
0.0
 40
0.0
 40
0.0
 40
0.1228379154
 40
0.2546982557
 40
0.3916795582
 40
0.528420949
 40
0.6596224521
 40
0.7815664066
 40
0.8389124424
 40
0.8940272421
 40
0.9474649717
 40
1.0
 40
1.0
 40
1.0
 40
1.0
 10
-3.7796296568
 20
165.3130572038
 30
0.0
 10
-3.0123035305
 20
165.518743179
 30
0.0
 10
-1.4876875554
 20
166.2152085764
 30
0.0
 10
0.4688449813
 20
167.8633435619
 30
0.0
 10
2.0288446783
 20
170.0026053946
 30
0.0
 10
3.0512027605
 20
172.4401945603
 30
0.0
 10
3.4435199945
 20
174.9575658202
 30
0.0
 10
3.1985884301
 20
176.9848548753
 30
0.0
 10
2.6479828036
 20
178.4045994779
 30
0.0
 10
2.0852325134
 20
179.3255235162
 30
0.0
 10
1.3777062956
 20
180.0990046903
 30
0.0
 10
0.8180717077
 20
180.5043734568
 30
0.0
 10
0.5238731603
 20
180.6743141467
 30
0.0
  0
SPLINE
  5
303
100
AcDbEntity
  8
0
100
AcDbSpline
 62
7
  6
CONTINUOUS
 70
0
 71
3
 72
10
 73
6
 74
0
 42
0.0000001
 43
0.0000001
 44
0.0000000001
 40
0.0
 40
0.0
 40
0.0
 40
0.0
 40
0.2403281377
 40
0.4850960221
 40
1.0
 40
1.0
 40
1.0
 40
1.0
 10
-23.0706499424
 20
148.3662884177
 30
0.0
 10
-22.8708015716
 20
148.2508947666
 30
0.0
 10
-22.4407041454
 20
148.0609824372
 30
0.0
 10
-21.4954431007
 20
147.8641646953
 30
0.0
 10
-20.7473806758
 20
147.939249342
 30
0.0
 10
-20.2698136578
 20
148.0672637986
 30
0.0
  0
SPLINE
  5
304
100
AcDbEntity
  8
0
100
AcDbSpline
 62
7
  6
CONTINUOUS
 70
0
 71
3
 72
12
 73
8
 74
0
 42
0.0000001
 43
0.0000001
 44
0.0000000001
 40
0.0
 40
0.0
 40
0.0
 40
0.0
 40
0.2404090318
 40
0.4954390472
 40
0.6249950142
 40
0.7534025878
 40
1.0
 40
1.0
 40
1.0
 40
1.0
 10
-92.5244257656
 20
209.3035270727
 30
0.0
 10
-92.9273605414
 20
209.1285427827
 30
0.0
 10
-93.6969294926
 20
208.6198036315
 30
0.0
 10
-94.442943692
 20
207.7365478299
 30
0.0
 10
-94.8959622926
 20
206.9128403324
 30
0.0
 10
-95.2283227514
 20
206.0511117715
 30
0.0
 10
-95.3416697213
 20
205.3619872624
 30
0.0
 10
-95.3416697213
 20
204.9113892075
 30
0.0
  0
SPLINE
  5
305
100
AcDbEntity
  8
0
100
AcDbSpline
 62
7
  6
CONTINUOUS
 70
0
 71
3
 72
9
 73
5
 74
0
 42
0.0000001
 43
0.0000001
 44
0.0000000001
 40
0.0
 40
0.0
 40
0.0
 40
0.0
 40
0.5164885163
 40
1.0
 40
1.0
 40
1.0
 40
1.0
 10
-95.3416697213
 20
204.9113892075
 30
0.0
 10
-95.3416697213
 20
204.6267311354
 30
0.0
 10
-95.2843401253
 20
204.0733586755
 30
0.0
 10
-95.0938447678
 20
203.548389205
 30
0.0
 10
-94.9681121688
 20
203.3134327377
 30
0.0
  0
SPLINE
  5
306
100
AcDbEntity
  8
0
100
AcDbSpline
 62
7
  6
CONTINUOUS
 70
0
 71
3
 72
11
 73
7
 74
0
 42
0.0000001
 43
0.0000001
 44
0.0000000001
 40
0.0
 40
0.0
 40
0.0
 40
0.0
 40
0.240308938
 40
0.4999639547
 40
0.7596329233
 40
1.0
 40
1.0
 40
1.0
 40
1.0
 10
-22.1641351262
 20
192.0266962654
 30
0.0
 10
-22.0241212833
 20
191.4184088149
 30
0.0
 10
-22.0327825663
 20
190.0781243172
 30
0.0
 10
-22.7452953037
 20
188.2015464547
 30
0.0
 10
-24.0145838407
 20
186.6462140129
 30
0.0
 10
-25.1713740554
 20
185.9689549071
 30
0.0
 10
-25.7683215402
 20
185.7860348574
 30
0.0
  0
SPLINE
  5
307
100
AcDbEntity
  8
0
100
AcDbSpline
 62
7
  6
CONTINUOUS
 70
0
 71
3
 72
9
 73
5
 74
0
 42
0.0000001
 43
0.0000001
 44
0.0000000001
 40
0.0
 40
0.0
 40
0.0
 40
0.0
 40
0.4879693633
 40
1.0
 40
1.0
 40
1.0
 40
1.0
 10
-25.9442289362
 20
184.8628847011
 30
0.0
 10
-25.7103190829
 20
184.819420049
 30
0.0
 10
-25.2184872442
 20
184.790116245
 30
0.0
 10
-24.7335624677
 20
184.8706131415
 30
0.0
 10
-24.4924301979
 20
184.9352499685
 30
0.0
  0
SPLINE
  5
308
100
AcDbEntity
  8
0
100
AcDbSpline
 62
7
  6
CONTINUOUS
 70
0
 71
3
 72
9
 73
5
 74
0
 42
0.0000001
 43
0.0000001
 44
0.0000000001
 40
0.0
 40
0.0
 40
0.0
 40
0.0
 40
0.2563298419
 40
1.0
 40
1.0
 40
1.0
 40
1.0
 10
-94.9681121688
 20
203.3134327377
 30
0.0
 10
-95.2320268575
 20
202.46854798
 30
0.0
 10
-96.1447345833
 20
199.1378691381
 30
0.0
 10
-96.5791247927
 20
195.6700328451
 30
0.0
 10
-96.5791247927
 20
193.1020301251
 30
0.0
  0
SPLINE
  5
309
100
AcDbEntity
  8
0
100
AcDbSpline
 62
7
  6
CONTINUOUS
 70
0
 71
3
 72
11
 73
7
 74
0
 42
0.0000001
 43
0.0000001
 44
0.0000000001
 40
0.0
 40
0.0
 40
0.0
 40
0.0
 40
0.2437201032
 40
0.4998689507
 40
0.7560881398
 40
1.0
 40
1.0
 40
1.0
 40
1.0
 10
-21.2777823336
 20
157.9659288387
 30
0.0
 10
-21.2495959969
 20
157.3533960165
 30
0.0
 10
-21.4010431256
 20
156.0827582222
 30
0.0
 10
-22.137719321
 20
154.3062765196
 30
0.0
 10
-23.3044675959
 20
152.7768933992
 30
0.0
 10
-24.3274978533
 20
152.007199873
 30
0.0
 10
-24.8716370173
 20
151.7234827884
 30
0.0
  0
SPLINE
  5
30A
100
AcDbEntity
  8
0
100
AcDbSpline
 62
7
  6
CONTINUOUS
 70
0
 71
3
 72
8
 73
4
 74
0
 42
0.0000001
 43
0.0000001
 44
0.0000000001
 40
0.0
 40
0.0
 40
0.0
 40
0.0
 40
1.0
 40
1.0
 40
1.0
 40
1.0
 10
-94.9681121688
 20
203.3134327377
 30
0.0
 10
-92.5278975701
 20
201.8926353332
 30
0.0
 10
-90.087556335
 20
200.4720554065
 30
0.0
 10
-87.6470962066
 20
199.0516797822
 30
0.0
  0
SPLINE
  5
30B
100
AcDbEntity
  8
0
100
AcDbSpline
 62
7
  6
CONTINUOUS
 70
0
 71
3
 72
15
 73
11
 74
0
 42
0.0000001
 43
0.0000001
 44
0.0000000001
 40
0.0
 40
0.0
 40
0.0
 40
0.0
 40
0.1135513106
 40
0.2348334682
 40
0.3626494426
 40
0.4945223179
 40
0.6272602708
 40
0.7575333659
 40
0.8824155674
 40
1.0
 40
1.0
 40
1.0
 40
1.0
 10
-17.9351384891
 20
194.0282811111
 30
0.0
 10
-17.7023468248
 20
193.4735374399
 30
0.0
 10
-17.3826692577
 20
192.2543017549
 30
0.0
 10
-17.3470486288
 20
190.3185502545
 30
0.0
 10
-17.7325556644
 20
188.3232722582
 30
0.0
 10
-18.5149854552
 20
186.383829289
 30
0.0
 10
-19.6479039037
 20
184.6107520437
 30
0.0
 10
-21.0670443791
 20
183.1064356121
 30
0.0
 10
-22.6905079189
 20
181.9586102604
 30
0.0
 10
-23.8906973721
 20
181.461099151
 30
0.0
 10
-24.4924301979
 20
181.2998013679
 30
0.0
  0
SPLINE
  5
30C
100
AcDbEntity
  8
0
100
AcDbSpline
 62
7
  6
CONTINUOUS
 70
0
 71
3
 72
11
 73
7
 74
0
 42
0.0000001
 43
0.0000001
 44
0.0000000001
 40
0.0
 40
0.0
 40
0.0
 40
0.0
 40
0.2398024289
 40
0.4840431876
 40
0.7366438158
 40
1.0
 40
1.0
 40
1.0
 40
1.0
 10
-23.165777621
 20
178.5073803371
 30
0.0
 10
-22.8587417785
 20
178.3300243191
 30
0.0
 10
-22.1981594256
 20
178.038235503
 30
0.0
 10
-21.1243983624
 20
177.8153802839
 30
0.0
 10
-19.9935670916
 20
177.8100244554
 30
0.0
 10
-19.2384022409
 20
177.9471051523
 30
0.0
 10
-18.8622748039
 20
178.047928174
 30
0.0
  0
SPLINE
  5
30D
100
AcDbEntity
  8
0
100
AcDbSpline
 62
7
  6
CONTINUOUS
 70
0
 71
3
 72
11
 73
7
 74
0
 42
0.0000001
 43
0.0000001
 44
0.0000000001
 40
0.0
 40
0.0
 40
0.0
 40
0.0
 40
0.2690779108
 40
0.524462337
 40
0.7670935308
 40
1.0
 40
1.0
 40
1.0
 40
1.0
 10
-96.5791247927
 20
193.1020301251
 30
0.0
 10
-96.5791247927
 20
191.3892813139
 30
0.0
 10
-96.2995143238
 20
188.0416799875
 30
0.0
 10
-94.9760338482
 20
183.3086502978
 30
0.0
 10
-92.7975947014
 20
179.1563744539
 30
0.0
 10
-90.7861832216
 20
176.8478555645
 30
0.0
 10
-89.6797565042
 20
175.861117888
 30
0.0
  0
SPLINE
  5
30E
100
AcDbEntity
  8
0
100
AcDbSpline
 62
7
  6
CONTINUOUS
 70
0
 71
3
 72
11
 73
7
 74
0
 42
0.0000001
 43
0.0000001
 44
0.0000000001
 40
0.0
 40
0.0
 40
0.0
 40
0.0
 40
0.2337072309
 40
0.4771212913
 40
0.7323729858
 40
1.0
 40
1.0
 40
1.0
 40
1.0
 10
-37.6443245602
 20
146.6746427355
 30
0.0
 10
-38.5688799018
 20
147.6567176657
 30
0.0
 10
-40.2343670499
 20
149.8811744571
 30
0.0
 10
-42.027533374
 20
153.7376770232
 30
0.0
 10
-43.1149561188
 20
158.0484258448
 30
0.0
 10
-43.3457467206
 20
161.0729298873
 30
0.0
 10
-43.3457467206
 20
162.6174971495
 30
0.0
  0
SPLINE
  5
30F
100
AcDbEntity
  8
0
100
AcDbSpline
 62
7
  6
CONTINUOUS
 70
0
 71
3
 72
9
 73
5
 74
0
 42
0.0000001
 43
0.0000001
 44
0.0000000001
 40
0.0
 40
0.0
 40
0.0
 40
0.0
 40
0.2438411667
 40
1.0
 40
1.0
 40
1.0
 40
1.0
 10
-43.3457467206
 20
162.6174971495
 30
0.0
 10
-43.3457467206
 20
163.4254240191
 30
0.0
 10
-43.2134107632
 20
166.7380860095
 30
0.0
 10
-42.5689221021
 20
170.0249305967
 30
0.0
 10
-41.8408298784
 20
172.4222080593
 30
0.0
  0
SPLINE
  5
310
100
AcDbEntity
  8
0
100
AcDbSpline
 62
7
  6
CONTINUOUS
 70
0
 71
3
 72
11
 73
7
 74
0
 42
0.0000001
 43
0.0000001
 44
0.0000000001
 40
0.0
 40
0.0
 40
0.0
 40
0.0
 40
0.240308938
 40
0.4999639547
 40
0.7596329233
 40
1.0
 40
1.0
 40
1.0
 40
1.0
 10
-37.2467802732
 20
171.2058538453
 30
0.0
 10
-37.1067664303
 20
170.5975663948
 30
0.0
 10
-37.1154277133
 20
169.2572818971
 30
0.0
 10
-37.8279404507
 20
167.3807040346
 30
0.0
 10
-39.0972289878
 20
165.8253715928
 30
0.0
 10
-40.2540192025
 20
165.148112487
 30
0.0
 10
-40.8509666873
 20
164.9651924373
 30
0.0
  0
SPLINE
  5
311
100
AcDbEntity
  8
0
100
AcDbSpline
 62
7
  6
CONTINUOUS
 70
0
 71
3
 72
9
 73
5
 74
0
 42
0.0000001
 43
0.0000001
 44
0.0000000001
 40
0.0
 40
0.0
 40
0.0
 40
0.0
 40
0.4879693633
 40
1.0
 40
1.0
 40
1.0
 40
1.0
 10
-41.0268740833
 20
164.042042281
 30
0.0
 10
-40.79296423
 20
163.9985776289
 30
0.0
 10
-40.3011323912
 20
163.9692738249
 30
0.0
 10
-39.8162076148
 20
164.0497707214
 30
0.0
 10
-39.5750753449
 20
164.1144075484
 30
0.0
  0
SPLINE
  5
312
100
AcDbEntity
  8
0
100
AcDbSpline
 62
7
  6
CONTINUOUS
 70
0
 71
3
 72
15
 73
11
 74
0
 42
0.0000001
 43
0.0000001
 44
0.0000000001
 40
0.0
 40
0.0
 40
0.0
 40
0.0
 40
0.1229644647
 40
0.2549507221
 40
0.3920656122
 40
0.5289377943
 40
0.6602681485
 40
0.7823320179
 40
0.8944570775
 40
1.0
 40
1.0
 40
1.0
 40
1.0
 10
-39.1124237776
 20
171.5525765866
 30
0.0
 10
-38.7556962663
 20
171.6481993518
 30
0.0
 10
-38.0469188559
 20
171.9719563573
 30
0.0
 10
-37.1374469728
 20
172.73820588
 30
0.0
 10
-36.4121851159
 20
173.7326526254
 30
0.0
 10
-35.9369057218
 20
174.8656615602
 30
0.0
 10
-35.7547527055
 20
176.0365421398
 30
0.0
 10
-35.8878646137
 20
177.1427793329
 30
0.0
 10
-36.3361628852
 20
178.0827801549
 30
0.0
 10
-36.8373255031
 20
178.5351213063
 30
0.0
 10
-37.1118493961
 20
178.6936240897
 30
0.0
  0
SPLINE
  5
313
100
AcDbEntity
  8
0
100
AcDbSpline
 62
7
  6
CONTINUOUS
 70
0
 71
3
 72
11
 73
7
 74
0
 42
0.0000001
 43
0.0000001
 44
0.0000000001
 40
0.0
 40
0.0
 40
0.0
 40
0.0
 40
0.240308938
 40
0.4999639547
 40
0.7596329233
 40
1.0
 40
1.0
 40
1.0
 40
1.0
 10
-7.0814899792
 20
179.2918252952
 30
0.0
 10
-6.9414761363
 20
178.6835378448
 30
0.0
 10
-6.9501374192
 20
177.343253347
 30
0.0
 10
-7.6626501567
 20
175.4666754846
 30
0.0
 10
-8.9319386937
 20
173.9113430428
 30
0.0
 10
-10.0887289084
 20
173.2340839369
 30
0.0
 10
-10.6856763932
 20
173.0511638872
 30
0.0
  0
SPLINE
  5
314
100
AcDbEntity
  8
0
100
AcDbSpline
 62
7
  6
CONTINUOUS
 70
0
 71
3
 72
15
 73
11
 74
0
 42
0.0000001
 43
0.0000001
 44
0.0000000001
 40
0.0
 40
0.0
 40
0.0
 40
0.0
 40
0.1135513106
 40
0.2348334682
 40
0.3626494426
 40
0.4945223179
 40
0.6272602708
 40
0.7575333659
 40
0.8824155674
 40
1.0
 40
1.0
 40
1.0
 40
1.0
 10
-33.0177836361
 20
173.207438691
 30
0.0
 10
-32.7849919718
 20
172.6526950198
 30
0.0
 10
-32.4653144047
 20
171.4334593349
 30
0.0
 10
-32.4296937758
 20
169.4977078344
 30
0.0
 10
-32.8152008115
 20
167.5024298381
 30
0.0
 10
-33.5976306022
 20
165.5629868689
 30
0.0
 10
-34.7305490508
 20
163.7899096236
 30
0.0
 10
-36.1496895262
 20
162.285593192
 30
0.0
 10
-37.7731530659
 20
161.1377678403
 30
0.0
 10
-38.9733425191
 20
160.6402567309
 30
0.0
 10
-39.5750753449
 20
160.4789589478
 30
0.0
  0
SPLINE
  5
315
100
AcDbEntity
  8
0
100
AcDbSpline
 62
7
  6
CONTINUOUS
 70
0
 71
3
 72
11
 73
7
 74
0
 42
0.0000001
 43
0.0000001
 44
0.0000000001
 40
0.0
 40
0.0
 40
0.0
 40
0.0
 40
0.2398024289
 40
0.4840431876
 40
0.7366438158
 40
1.0
 40
1.0
 40
1.0
 40
1.0
 10
-38.248422768
 20
157.686537917
 30
0.0
 10
-37.9413869256
 20
157.509181899
 30
0.0
 10
-37.2808045727
 20
157.2173930829
 30
0.0
 10
-36.2070435095
 20
156.9945378638
 30
0.0
 10
-35.0762122387
 20
156.9891820353
 30
0.0
 10
-34.321047388
 20
157.1262627322
 30
0.0
 10
-33.9449199509
 20
157.2270857539
 30
0.0
  0
SPLINE
  5
316
100
AcDbEntity
  8
0
100
AcDbSpline
 62
7
  6
CONTINUOUS
 70
0
 71
3
 72
9
 73
5
 74
0
 42
0.0000001
 43
0.0000001
 44
0.0000000001
 40
0.0
 40
0.0
 40
0.0
 40
0.0
 40
0.2531107493
 40
1.0
 40
1.0
 40
1.0
 40
1.0
 10
-39.5750753449
 20
160.4789589478
 30
0.0
 10
-39.6496293207
 20
160.4589743459
 30
0.0
 10
-39.945451494
 20
160.3848644189
 30
0.0
 10
-40.2462420766
 20
160.3303878682
 30
0.0
 10
-40.4722007026
 20
160.3017709741
 30
0.0
  0
SPLINE
  5
317
100
AcDbEntity
  8
0
100
AcDbSpline
 62
7
  6
CONTINUOUS
 70
0
 71
3
 72
16
 73
12
 74
0
 42
0.0000001
 43
0.0000001
 44
0.0000000001
 40
0.0
 40
0.0
 40
0.0
 40
0.0
 40
0.2789688681
 40
0.4140281793
 40
0.5433290331
 40
0.6658821929
 40
0.7817375371
 40
0.8376064035
 40
0.8923703815
 40
0.94637483
 40
1.0
 40
1.0
 40
1.0
 40
1.0
 10
-39.2060683964
 20
178.8806758098
 30
0.0
 10
-37.3691770562
 20
182.4246108319
 30
0.0
 10
-33.803104307
 20
187.3172113123
 30
0.0
 10
-27.82285646
 20
192.326470543
 30
0.0
 10
-22.997833633
 20
195.1078322781
 30
0.0
 10
-17.9872041582
 20
196.8239264815
 30
0.0
 10
-13.7621987731
 20
197.3030647223
 30
0.0
 10
-10.5222434941
 20
197.0729754393
 30
0.0
 10
-8.2055170926
 20
196.6099905391
 30
0.0
 10
-5.9998973928
 20
195.8585081677
 30
0.0
 10
-4.6167586257
 20
195.1688396283
 30
0.0
 10
-3.9546526034
 20
194.7810519067
 30
0.0
  0
SPLINE
  5
318
100
AcDbEntity
  8
0
100
AcDbSpline
 62
7
  6
CONTINUOUS
 70
0
 71
3
 72
15
 73
11
 74
0
 42
0.0000001
 43
0.0000001
 44
0.0000000001
 40
0.0
 40
0.0
 40
0.0
 40
0.0
 40
0.1201163263
 40
0.2483905995
 40
0.3820654651
 40
0.5171121482
 40
0.6492288202
 40
0.7747380709
 40
0.891545565
 40
1.0
 40
1.0
 40
1.0
 40
1.0
 10
-39.5750753449
 20
164.1144075484
 30
0.0
 10
-39.2067619188
 20
164.2131359816
 30
0.0
 10
-38.4733228491
 20
164.5320141068
 30
0.0
 10
-37.5048611563
 20
165.278735941
 30
0.0
 10
-36.6919418668
 20
166.2545087433
 30
0.0
 10
-36.0937193457
 20
167.3880503263
 30
0.0
 10
-35.753101397
 20
168.5974138864
 30
0.0
 10
-35.6971635991
 20
169.7965515402
 30
0.0
 10
-35.9339816484
 20
170.8986542795
 30
0.0
 10
-36.2954441844
 20
171.5334212336
 30
0.0
 10
-36.5165117525
 20
171.7973684036
 30
0.0
  0
SPLINE
  5
319
100
AcDbEntity
  8
0
100
AcDbSpline
 62
7
  6
CONTINUOUS
 70
0
 71
3
 72
9
 73
5
 74
0
 42
0.0000001
 43
0.0000001
 44
0.0000000001
 40
0.0
 40
0.0
 40
0.0
 40
0.0
 40
0.4879693633
 40
1.0
 40
1.0
 40
1.0
 40
1.0
 10
-10.8615837892
 20
172.1280137309
 30
0.0
 10
-10.6276739359
 20
172.0845490788
 30
0.0
 10
-10.1358420972
 20
172.0552452749
 30
0.0
 10
-9.6509173207
 20
172.1357421713
 30
0.0
 10
-9.4097850508
 20
172.2003789983
 30
0.0
  0
SPLINE
  5
31A
100
AcDbEntity
  8
0
100
AcDbSpline
 62
7
  6
CONTINUOUS
 70
0
 71
3
 72
9
 73
5
 74
0
 42
0.0000001
 43
0.0000001
 44
0.0000000001
 40
0.0
 40
0.0
 40
0.0
 40
0.0
 40
0.2531107493
 40
1.0
 40
1.0
 40
1.0
 40
1.0
 10
-24.4924301979
 20
181.2998013679
 30
0.0
 10
-24.5669841736
 20
181.279816766
 30
0.0
 10
-24.8628063469
 20
181.205706839
 30
0.0
 10
-25.1635969296
 20
181.1512302883
 30
0.0
 10
-25.3895555555
 20
181.1226133942
 30
0.0
  0
SPLINE
  5
31B
100
AcDbEntity
  8
0
100
AcDbSpline
 62
7
  6
CONTINUOUS
 70
0
 71
3
 72
9
 73
5
 74
0
 42
0.0000001
 43
0.0000001
 44
0.0000000001
 40
0.0
 40
0.0
 40
0.0
 40
0.0
 40
0.4802726951
 40
1.0
 40
1.0
 40
1.0
 40
1.0
 10
-3.6486818695
 20
188.9446641999
 30
0.0
 10
-3.4280270672
 20
189.0038119295
 30
0.0
 10
-2.992637451
 20
189.2230719928
 30
0.0
 10
-2.6519886194
 20
189.5660381185
 30
0.0
 10
-2.5038654226
 20
189.7639600145
 30
0.0
  0
SPLINE
  5
31C
100
AcDbEntity
  8
0
100
AcDbSpline
 62
7
  6
CONTINUOUS
 70
0
 71
3
 72
15
 73
11
 74
0
 42
0.0000001
 43
0.0000001
 44
0.0000000001
 40
0.0
 40
0.0
 40
0.0
 40
0.0
 40
0.1201163263
 40
0.2483905995
 40
0.3820654651
 40
0.5171121482
 40
0.6492288202
 40
0.7747380709
 40
0.891545565
 40
1.0
 40
1.0
 40
1.0
 40
1.0
 10
-24.4924301979
 20
184.9352499685
 30
0.0
 10
-24.1241167718
 20
185.0339784017
 30
0.0
 10
-23.3906777021
 20
185.3528565269
 30
0.0
 10
-22.4222160093
 20
186.0995783611
 30
0.0
 10
-21.6092967198
 20
187.0753511634
 30
0.0
 10
-21.0110741986
 20
188.2088927464
 30
0.0
 10
-20.67045625
 20
189.4182563065
 30
0.0
 10
-20.6145184521
 20
190.6173939603
 30
0.0
 10
-20.8513365014
 20
191.7194966996
 30
0.0
 10
-21.2127990374
 20
192.3542636537
 30
0.0
 10
-21.4338666055
 20
192.6182108237
 30
0.0
  0
SPLINE
  5
31D
100
AcDbEntity
  8
0
100
AcDbSpline
 62
7
  6
CONTINUOUS
 70
0
 71
3
 72
15
 73
11
 74
0
 42
0.0000001
 43
0.0000001
 44
0.0000000001
 40
0.0
 40
0.0
 40
0.0
 40
0.0
 40
0.1135513106
 40
0.2348334682
 40
0.3626494426
 40
0.4945223179
 40
0.6272602708
 40
0.7575333659
 40
0.8824155674
 40
1.0
 40
1.0
 40
1.0
 40
1.0
 10
-2.8524933421
 20
181.2934101409
 30
0.0
 10
-2.6197016778
 20
180.7386664697
 30
0.0
 10
-2.3000241106
 20
179.5194307848
 30
0.0
 10
-2.2644034817
 20
177.5836792844
 30
0.0
 10
-2.6499105174
 20
175.588401288
 30
0.0
 10
-3.4323403082
 20
173.6489583188
 30
0.0
 10
-4.5652587567
 20
171.8758810736
 30
0.0
 10
-5.9843992321
 20
170.371564642
 30
0.0
 10
-7.6078627719
 20
169.2237392903
 30
0.0
 10
-8.808052225
 20
168.7262281809
 30
0.0
 10
-9.4097850508
 20
168.5649303978
 30
0.0
  0
SPLINE
  5
31E
100
AcDbEntity
  8
0
100
AcDbSpline
 62
7
  6
CONTINUOUS
 70
0
 71
3
 72
16
 73
12
 74
0
 42
0.0000001
 43
0.0000001
 44
0.0000000001
 40
0.0
 40
0.0
 40
0.0
 40
0.0
 40
0.1228935845
 40
0.2548093519
 40
0.3918532556
 40
0.5286541369
 40
0.6599158167
 40
0.7819144774
 40
0.8939795929
 40
0.947440549
 40
1.0
 40
1.0
 40
1.0
 40
1.0
 10
-20.2698136578
 20
148.0672637986
 30
0.0
 10
-19.7704137784
 20
148.2011306733
 30
0.0
 10
-18.7781554924
 20
148.6543972121
 30
0.0
 10
-17.5048192386
 20
149.7270573904
 30
0.0
 10
-16.489514124
 20
151.1193681815
 30
0.0
 10
-15.8240070687
 20
152.7055326679
 30
0.0
 10
-15.5693376485
 20
154.3450314616
 30
0.0
 10
-15.7542435886
 20
155.8929227537
 30
0.0
 10
-16.2900501021
 20
157.0096754355
 30
0.0
 10
-16.913314481
 20
157.6902222748
 30
0.0
 10
-17.2774821354
 20
157.9542163571
 30
0.0
 10
-17.4689773624
 20
158.0647868528
 30
0.0
  0
SPLINE
  5
31F
100
AcDbEntity
  8
0
100
AcDbSpline
 62
7
  6
CONTINUOUS
 70
0
 71
3
 72
11
 73
7
 74
0
 42
0.0000001
 43
0.0000001
 44
0.0000000001
 40
0.0
 40
0.0
 40
0.0
 40
0.0
 40
0.2398024289
 40
0.4840431876
 40
0.7366438158
 40
1.0
 40
1.0
 40
1.0
 40
1.0
 10
-8.0831324739
 20
165.772509367
 30
0.0
 10
-7.7760966315
 20
165.5951533489
 30
0.0
 10
-7.1155142786
 20
165.3033645328
 30
0.0
 10
-6.0417532154
 20
165.0805093138
 30
0.0
 10
-4.9109219446
 20
165.0751534853
 30
0.0
 10
-4.1557570939
 20
165.2122341821
 30
0.0
 10
-3.7796296568
 20
165.3130572038
 30
0.0
  0
SPLINE
  5
320
100
AcDbEntity
  8
0
100
AcDbSpline
 62
7
  6
CONTINUOUS
 70
0
 71
3
 72
9
 73
5
 74
0
 42
0.0000001
 43
0.0000001
 44
0.0000000001
 40
0.0
 40
0.0
 40
0.0
 40
0.0
 40
0.4799841062
 40
1.0
 40
1.0
 40
1.0
 40
1.0
 10
1.3878741699
 20
182.4089035016
 30
0.0
 10
1.8471175631
 20
182.532006211
 30
0.0
 10
2.7516711758
 20
182.9967404362
 30
0.0
 10
3.4487694395
 20
183.7244204123
 30
0.0
 10
3.7478694827
 20
184.1437985708
 30
0.0
  0
SPLINE
  5
321
100
AcDbEntity
  8
0
100
AcDbSpline
 62
7
  6
CONTINUOUS
 70
0
 71
3
 72
15
 73
11
 74
0
 42
0.0000001
 43
0.0000001
 44
0.0000000001
 40
0.0
 40
0.0
 40
0.0
 40
0.0
 40
0.1229607907
 40
0.2549448046
 40
0.3920633401
 40
0.528937037
 40
0.6602679334
 40
0.7823328982
 40
0.8944581577
 40
1.0
 40
1.0
 40
1.0
 40
1.0
 10
-20.2698136615
 20
166.6378229889
 30
0.0
 10
-19.9443086671
 20
166.7250763857
 30
0.0
 10
-19.2975623648
 20
167.020495312
 30
0.0
 10
-18.4676601402
 20
167.7196820339
 30
0.0
 10
-17.8058489925
 20
168.6271223843
 30
0.0
 10
-17.372141473
 20
169.6610068497
 30
0.0
 10
-17.2059250043
 20
170.7294474628
 30
0.0
 10
-17.3273948898
 20
171.7388968692
 30
0.0
 10
-17.7364718867
 20
172.5966469383
 30
0.0
 10
-18.1937794012
 20
173.0094122456
 30
0.0
 10
-18.4442826605
 20
173.1540412949
 30
0.0
  0
SPLINE
  5
322
100
AcDbEntity
  8
0
100
AcDbSpline
 62
7
  6
CONTINUOUS
 70
0
 71
3
 72
9
 73
5
 74
0
 42
0.0000001
 43
0.0000001
 44
0.0000000001
 40
0.0
 40
0.0
 40
0.0
 40
0.0
 40
0.2531107493
 40
1.0
 40
1.0
 40
1.0
 40
1.0
 10
-9.4097850508
 20
168.5649303978
 30
0.0
 10
-9.4843390266
 20
168.5449457958
 30
0.0
 10
-9.7801611999
 20
168.4708358688
 30
0.0
 10
-10.0809517826
 20
168.4163593182
 30
0.0
 10
-10.3069104085
 20
168.387742424
 30
0.0
  0
SPLINE
  5
323
100
AcDbEntity
  8
0
100
AcDbSpline
 62
7
  6
CONTINUOUS
 70
0
 71
3
 72
9
 73
5
 74
0
 42
0.0000001
 43
0.0000001
 44
0.0000000001
 40
0.0
 40
0.0
 40
0.0
 40
0.0
 40
0.4837123724
 40
1.0
 40
1.0
 40
1.0
 40
1.0
 10
-22.0953446444
 20
166.8327473659
 30
0.0
 10
-21.83386338
 20
166.6817801218
 30
0.0
 10
-21.2178933443
 20
166.4882221786
 30
0.0
 10
-20.5810909231
 20
166.5543834139
 30
0.0
 10
-20.2698136615
 20
166.6378229889
 30
0.0
  0
SPLINE
  5
324
100
AcDbEntity
  8
0
100
AcDbSpline
 62
7
  6
CONTINUOUS
 70
0
 71
3
 72
15
 73
11
 74
0
 42
0.0000001
 43
0.0000001
 44
0.0000000001
 40
0.0
 40
0.0
 40
0.0
 40
0.0
 40
0.1201163263
 40
0.2483905995
 40
0.3820654651
 40
0.5171121482
 40
0.6492288202
 40
0.7747380709
 40
0.891545565
 40
1.0
 40
1.0
 40
1.0
 40
1.0
 10
-9.4097850508
 20
172.2003789983
 30
0.0
 10
-9.0414716247
 20
172.2991074315
 30
0.0
 10
-8.308032555
 20
172.6179855567
 30
0.0
 10
-7.3395708623
 20
173.364707391
 30
0.0
 10
-6.5266515727
 20
174.3404801933
 30
0.0
 10
-5.9284290516
 20
175.4740217762
 30
0.0
 10
-5.587811103
 20
176.6833853363
 30
0.0
 10
-5.5318733051
 20
177.8825229901
 30
0.0
 10
-5.7686913544
 20
178.9846257295
 30
0.0
 10
-6.1301538904
 20
179.6193926835
 30
0.0
 10
-6.3512214584
 20
179.8833398535
 30
0.0
  0
SPLINE
  5
325
100
AcDbEntity
  8
0
100
AcDbSpline
 62
7
  6
CONTINUOUS
 70
0
 71
3
 72
13
 73
9
 74
0
 42
0.0000001
 43
0.0000001
 44
0.0000000001
 40
0.0
 40
0.0
 40
0.0
 40
0.0
 40
0.2752894708
 40
0.5424768611
 40
0.6671294296
 40
0.7839729097
 40
0.8939957877
 40
1.0
 40
1.0
 40
1.0
 40
1.0
 10
-27.3136891107
 20
141.3537519035
 30
0.0
 10
-26.8789795231
 20
141.8010962866
 30
0.0
 10
-26.1824129821
 20
142.8493658243
 30
0.0
 10
-25.8214078791
 20
144.3573998969
 30
0.0
 10
-25.9125885968
 20
145.5152032256
 30
0.0
 10
-26.1621409849
 20
146.2807842499
 30
0.0
 10
-26.5843583215
 20
146.9177383658
 30
0.0
 10
-26.9716782043
 20
147.232049913
 30
0.0
 10
-27.1796774102
 20
147.3521683818
 30
0.0
  0
SPLINE
  5
326
100
AcDbEntity
  8
0
100
AcDbSpline
 62
7
  6
CONTINUOUS
 70
0
 71
3
 72
9
 73
5
 74
0
 42
0.0000001
 43
0.0000001
 44
0.0000000001
 40
0.0
 40
0.0
 40
0.0
 40
0.0
 40
0.4836986258
 40
1.0
 40
1.0
 40
1.0
 40
1.0
 10
-4.6489596452
 20
189.0514945236
 30
0.0
 10
-4.505727355
 20
188.9687054068
 30
0.0
 10
-4.1681634233
 20
188.8627088023
 30
0.0
 10
-3.8192485934
 20
188.8989428545
 30
0.0
 10
-3.6486818695
 20
188.9446641999
 30
0.0
  0
SPLINE
  5
327
100
AcDbEntity
  8
0
100
AcDbSpline
 62
7
  6
CONTINUOUS
 70
0
 71
3
 72
10
 73
6
 74
0
 42
0.0000001
 43
0.0000001
 44
0.0000000001
 40
0.0
 40
0.0
 40
0.0
 40
0.0
 40
0.2403188933
 40
0.4850833325
 40
1.0
 40
1.0
 40
1.0
 40
1.0
 10
-0.6127092208
 20
182.6225168699
 30
0.0
 10
-0.469962474
 20
182.5401023669
 30
0.0
 10
-0.1627830086
 20
182.4044016597
 30
0.0
 10
0.5124151392
 20
182.2638469316
 30
0.0
 10
1.0467469531
 20
182.3174624808
 30
0.0
 10
1.3878741699
 20
182.4089035016
 30
0.0
  0
SPLINE
  5
328
100
AcDbEntity
  8
0
100
AcDbSpline
 62
7
  6
CONTINUOUS
 70
0
 71
3
 72
9
 73
5
 74
0
 42
0.0000001
 43
0.0000001
 44
0.0000000001
 40
0.0
 40
0.0
 40
0.0
 40
0.0
 40
0.2419815374
 40
1.0
 40
1.0
 40
1.0
 40
1.0
 10
-87.8424826846
 20
199.535365135
 30
0.0
 10
-87.8725461488
 20
199.6244429199
 30
0.0
 10
-87.9802168903
 20
199.998083217
 30
0.0
 10
-88.0224677085
 20
200.3894502872
 30
0.0
 10
-88.0224677085
 20
200.683954055
 30
0.0
  0
SPLINE
  5
329
100
AcDbEntity
  8
0
100
AcDbSpline
 62
7
  6
CONTINUOUS
 70
0
 71
3
 72
9
 73
5
 74
0
 42
0.0000001
 43
0.0000001
 44
0.0000000001
 40
0.0
 40
0.0
 40
0.0
 40
0.0
 40
0.2424919209
 40
1.0
 40
1.0
 40
1.0
 40
1.0
 10
-88.0217863881
 20
200.7584856559
 30
0.0
 10
-88.0186861729
 20
200.9285723179
 30
0.0
 10
-87.9629723093
 20
201.6288991047
 30
0.0
 10
-87.7445327685
 20
202.3133296181
 30
0.0
 10
-87.5090810308
 20
202.7897354638
 30
0.0
  0
SPLINE
  5
32A
100
AcDbEntity
  8
0
100
AcDbSpline
 62
7
  6
CONTINUOUS
 70
0
 71
3
 72
12
 73
8
 74
0
 42
0.0000001
 43
0.0000001
 44
0.0000000001
 40
0.0
 40
0.0
 40
0.0
 40
0.0
 40
0.2791956816
 40
0.5440236104
 40
0.7821525412
 40
0.892717288
 40
1.0
 40
1.0
 40
1.0
 40
1.0
 10
-33.4241659774
 20
147.0800210132
 30
0.0
 10
-33.2643593536
 20
147.3079909413
 30
0.0
 10
-33.0218875582
 20
147.8053649108
 30
0.0
 10
-32.9169763335
 20
148.5926102182
 30
0.0
 10
-33.0773350628
 20
149.2064093481
 30
0.0
 10
-33.3498253805
 20
149.5763440711
 30
0.0
 10
-33.523514917
 20
149.7122237781
 30
0.0
 10
-33.6161324594
 20
149.7657619935
 30
0.0
  0
SPLINE
  5
32B
100
AcDbEntity
  8
0
100
AcDbSpline
 62
7
  6
CONTINUOUS
 70
0
 71
3
 72
13
 73
9
 74
0
 42
0.0000001
 43
0.0000001
 44
0.0000000001
 40
0.0
 40
0.0
 40
0.0
 40
0.0
 40
0.1155650848
 40
0.2327034552
 40
0.3521873409
 40
0.474649107
 40
0.729747726
 40
1.0
 40
1.0
 40
1.0
 40
1.0
 10
-89.4128444107
 20
173.09191739
 30
0.0
 10
-90.1063525994
 20
173.5957871226
 30
0.0
 10
-91.4341987711
 20
174.7086451271
 30
0.0
 10
-93.1961805166
 20
176.6473250889
 30
0.0
 10
-94.7194910848
 20
178.8414827535
 30
0.0
 10
-96.4322008122
 20
182.1158084387
 30
0.0
 10
-97.8744508344
 20
186.7450058681
 30
0.0
 10
-98.2320174116
 20
190.6543129536
 30
0.0
 10
-98.2320174116
 20
192.6589631963
 30
0.0
  0
SPLINE
  5
32C
100
AcDbEntity
  8
0
100
AcDbSpline
 62
7
  6
CONTINUOUS
 70
0
 71
3
 72
17
 73
13
 74
0
 42
0.0000001
 43
0.0000001
 44
0.0000000001
 40
0.0
 40
0.0
 40
0.0
 40
0.0
 40
0.1228379154
 40
0.2546982557
 40
0.3916795582
 40
0.528420949
 40
0.6596224521
 40
0.7815664066
 40
0.8389124424
 40
0.8940272421
 40
0.9474649717
 40
1.0
 40
1.0
 40
1.0
 40
1.0
 10
-33.9449199509
 20
157.2270857539
 30
0.0
 10
-33.1775938245
 20
157.4327717291
 30
0.0
 10
-31.6529778495
 20
158.1292371265
 30
0.0
 10
-29.6964453128
 20
159.777372112
 30
0.0
 10
-28.1364456157
 20
161.9166339446
 30
0.0
 10
-27.1140875335
 20
164.3542231104
 30
0.0
 10
-26.7217702995
 20
166.8715943703
 30
0.0
 10
-26.966701864
 20
168.8988834254
 30
0.0
 10
-27.5173074905
 20
170.318628028
 30
0.0
 10
-28.0800577807
 20
171.2395520663
 30
0.0
 10
-28.7875839984
 20
172.0130332404
 30
0.0
 10
-29.3472185864
 20
172.4184020069
 30
0.0
 10
-29.6414171338
 20
172.5883426967
 30
0.0
  0
SPLINE
  5
32D
100
AcDbEntity
  8
0
100
AcDbSpline
 62
7
  6
CONTINUOUS
 70
0
 71
3
 72
9
 73
5
 74
0
 42
0.0000001
 43
0.0000001
 44
0.0000000001
 40
0.0
 40
0.0
 40
0.0
 40
0.0
 40
0.4912742193
 40
1.0
 40
1.0
 40
1.0
 40
1.0
 10
-98.2320174116
 20
192.6589631963
 30
0.0
 10
-98.2320174116
 20
194.5801537302
 30
0.0
 10
-97.8879565167
 20
198.496089327
 30
0.0
 10
-96.9317564432
 20
202.3054367474
 30
0.0
 10
-96.3067340503
 20
204.1941418465
 30
0.0
  0
SPLINE
  5
32E
100
AcDbEntity
  8
0
100
AcDbSpline
 62
7
  6
CONTINUOUS
 70
0
 71
3
 72
9
 73
5
 74
0
 42
0.0000001
 43
0.0000001
 44
0.0000000001
 40
0.0
 40
0.0
 40
0.0
 40
0.0
 40
0.5027533231
 40
1.0
 40
1.0
 40
1.0
 40
1.0
 10
-94.7330237841
 20
208.2207989938
 30
0.0
 10
-93.683006907
 20
210.5410743339
 30
0.0
 10
-91.1682980481
 20
214.9742538203
 30
0.0
 10
-87.8939606648
 20
218.8825562171
 30
0.0
 10
-86.0985482032
 20
220.649304254
 30
0.0
  0
SPLINE
  5
32F
100
AcDbEntity
  8
0
100
AcDbSpline
 62
7
  6
CONTINUOUS
 70
0
 71
3
 72
11
 73
7
 74
0
 42
0.0000001
 43
0.0000001
 44
0.0000000001
 40
0.0
 40
0.0
 40
0.0
 40
0.0
 40
0.2679283595
 40
0.5237310123
 40
0.7672609736
 40
1.0
 40
1.0
 40
1.0
 40
1.0
 10
-80.9178731733
 20
224.9092212525
 30
0.0
 10
-79.4790608616
 20
225.8837583819
 30
0.0
 10
-76.5172054377
 20
227.5811955654
 30
0.0
 10
-71.8244765974
 20
229.3112885149
 30
0.0
 10
-67.1161221274
 20
230.1151764783
 30
0.0
 10
-64.0011589192
 20
230.0059143127
 30
0.0
 10
-62.5080166323
 20
229.7839623571
 30
0.0
  0
SPLINE
  5
330
100
AcDbEntity
  8
0
100
AcDbSpline
 62
7
  6
CONTINUOUS
 70
0
 71
3
 72
17
 73
13
 74
0
 42
0.0000001
 43
0.0000001
 44
0.0000000001
 40
0.0
 40
0.0
 40
0.0
 40
0.0
 40
0.1228379154
 40
0.2546982557
 40
0.3916795582
 40
0.528420949
 40
0.6596224521
 40
0.7815664066
 40
0.8389124424
 40
0.8940272421
 40
0.9474649717
 40
1.0
 40
1.0
 40
1.0
 40
1.0
 10
-18.8622748039
 20
178.047928174
 30
0.0
 10
-18.0949486775
 20
178.2536141492
 30
0.0
 10
-16.5703327024
 20
178.9500795466
 30
0.0
 10
-14.6138001658
 20
180.5982145321
 30
0.0
 10
-13.0538004687
 20
182.7374763647
 30
0.0
 10
-12.0314423865
 20
185.1750655305
 30
0.0
 10
-11.6391251525
 20
187.6924367903
 30
0.0
 10
-11.884056717
 20
189.7197258454
 30
0.0
 10
-12.4346623434
 20
191.1394704481
 30
0.0
 10
-12.9974126336
 20
192.0603944864
 30
0.0
 10
-13.7049388514
 20
192.8338756604
 30
0.0
 10
-14.2645734394
 20
193.239244427
 30
0.0
 10
-14.5587719867
 20
193.4091851168
 30
0.0
  0
SPLINE
  5
331
100
AcDbEntity
  8
0
100
AcDbSpline
 62
7
  6
CONTINUOUS
 70
0
 71
3
 72
10
 73
6
 74
0
 42
0.0000001
 43
0.0000001
 44
0.0000000001
 40
0.0
 40
0.0
 40
0.0
 40
0.0
 40
0.2402930157
 40
0.4850639477
 40
1.0
 40
1.0
 40
1.0
 40
1.0
 10
-41.1130166266
 20
171.7661736902
 30
0.0
 10
-40.9702905905
 20
171.6837592707
 30
0.0
 10
-40.6631092912
 20
171.5480911146
 30
0.0
 10
-39.9879167031
 20
171.407543222
 30
0.0
 10
-39.4535633636
 20
171.4611322502
 30
0.0
 10
-39.1124237776
 20
171.5525765866
 30
0.0
  0
SPLINE
  5
332
100
AcDbEntity
  8
0
100
AcDbSpline
 62
7
  6
CONTINUOUS
 70
0
 71
3
 72
20
 73
16
 74
0
 42
0.0000001
 43
0.0000001
 44
0.0000000001
 40
0.0
 40
0.0
 40
0.0
 40
0.0
 40
0.1271658894
 40
0.1953146953
 40
0.2653069443
 40
0.4061130788
 40
0.5411872439
 40
0.6046832788
 40
0.6648618599
 40
0.7219729095
 40
0.7768094788
 40
0.8306287281
 40
0.8849123716
 40
0.9410442686
 40
1.0
 40
1.0
 40
1.0
 40
1.0
 10
-18.8622748039
 20
159.8491797055
 30
0.0
 10
-19.7805398339
 20
159.6030337326
 30
0.0
 10
-21.1187709808
 20
158.9190759528
 30
0.0
 10
-22.6191159991
 20
157.6158003695
 30
0.0
 10
-23.9698884205
 20
156.0164852781
 30
0.0
 10
-25.1803097719
 20
153.6878882764
 30
0.0
 10
-25.6431567654
 20
151.1439698464
 30
0.0
 10
-25.4769343264
 20
149.2065596182
 30
0.0
 10
-25.1002578384
 20
147.8984524253
 30
0.0
 10
-24.4798200515
 20
146.7582096052
 30
0.0
 10
-23.6358930221
 20
145.8329865533
 30
0.0
 10
-22.6010004287
 20
145.164557565
 30
0.0
 10
-21.4198202734
 20
144.7826476322
 30
0.0
 10
-20.1446080788
 20
144.7008680709
 30
0.0
 10
-19.2879942062
 20
144.8418425481
 30
0.0
 10
-18.8622748039
 20
144.9559589679
 30
0.0
  0
SPLINE
  5
333
100
AcDbEntity
  8
0
100
AcDbSpline
 62
7
  6
CONTINUOUS
 70
0
 71
3
 72
20
 73
16
 74
0
 42
0.0000001
 43
0.0000001
 44
0.0000000001
 40
0.0
 40
0.0
 40
0.0
 40
0.0
 40
0.1271658894
 40
0.1953146953
 40
0.2653069443
 40
0.4061130788
 40
0.5411872439
 40
0.6046832788
 40
0.6648618599
 40
0.7219729095
 40
0.7768094788
 40
0.8306287281
 40
0.8849123716
 40
0.9410442686
 40
1.0
 40
1.0
 40
1.0
 40
1.0
 10
-18.8622748039
 20
144.9559589679
 30
0.0
 10
-17.9440097746
 20
145.2021049436
 30
0.0
 10
-16.6057786267
 20
145.8860627199
 30
0.0
 10
-15.1054336087
 20
147.1893383041
 30
0.0
 10
-13.7546611871
 20
148.7886533953
 30
0.0
 10
-12.5442398358
 20
151.1172503971
 30
0.0
 10
-12.0813928423
 20
153.6611688271
 30
0.0
 10
-12.2476152813
 20
155.5985790552
 30
0.0
 10
-12.6242917693
 20
156.9066862482
 30
0.0
 10
-13.2447295562
 20
158.0469290683
 30
0.0
 10
-14.0886565856
 20
158.9721521201
 30
0.0
 10
-15.123549179
 20
159.6405811084
 30
0.0
 10
-16.3047293343
 20
160.0224910413
 30
0.0
 10
-17.5799415291
 20
160.1042706029
 30
0.0
 10
-18.4365554012
 20
159.9632961241
 30
0.0
 10
-18.8622748039
 20
159.8491797055
 30
0.0
  0
SPLINE
  5
334
100
AcDbEntity
  8
0
100
AcDbSpline
 62
7
  6
CONTINUOUS
 70
0
 71
3
 72
13
 73
9
 74
0
 42
0.0000001
 43
0.0000001
 44
0.0000000001
 40
0.0
 40
0.0
 40
0.0
 40
0.0
 40
0.2347902242
 40
0.4890705672
 40
0.6197521108
 40
0.7497766182
 40
0.8771066556
 40
1.0
 40
1.0
 40
1.0
 40
1.0
 10
-80.8792734619
 20
224.8320073379
 30
0.0
 10
-81.7861940478
 20
224.5889023025
 30
0.0
 10
-83.573938836
 20
223.6756535499
 30
0.0
 10
-85.3265058241
 20
221.868971111
 30
0.0
 10
-86.4097480725
 20
220.1102164385
 30
0.0
 10
-87.0213081079
 20
218.6772727411
 30
0.0
 10
-87.4006655314
 20
217.198807689
 30
0.0
 10
-87.4908439374
 20
216.1965195473
 30
0.0
 10
-87.4908439374
 20
215.7050627153
 30
0.0
  0
SPLINE
  5
335
100
AcDbEntity
  8
0
100
AcDbSpline
 62
7
  6
CONTINUOUS
 70
0
 71
3
 72
11
 73
7
 74
0
 42
0.0000001
 43
0.0000001
 44
0.0000000001
 40
0.0
 40
0.0
 40
0.0
 40
0.0
 40
0.2717776924
 40
0.5268678486
 40
0.7676328571
 40
1.0
 40
1.0
 40
1.0
 40
1.0
 10
-87.4908439374
 20
132.0456128931
 30
0.0
 10
-87.4908439374
 20
131.4986919545
 30
0.0
 10
-87.3845091488
 20
130.4339165831
 30
0.0
 10
-86.8752101146
 20
128.9589806043
 30
0.0
 10
-86.0406496632
 20
127.731779765
 30
0.0
 10
-85.2853656436
 20
127.1243021567
 30
0.0
 10
-84.8804584443
 20
126.8903984257
 30
0.0
  0
SPLINE
  5
336
100
AcDbEntity
  8
0
100
AcDbSpline
 62
7
  6
CONTINUOUS
 70
0
 71
3
 72
9
 73
5
 74
0
 42
0.0000001
 43
0.0000001
 44
0.0000000001
 40
0.0
 40
0.0
 40
0.0
 40
0.0
 40
0.2475061305
 40
1.0
 40
1.0
 40
1.0
 40
1.0
 10
-83.945465798
 20
126.7221181763
 30
0.0
 10
-83.9882277797
 20
126.7750529251
 30
0.0
 10
-84.1566492409
 20
126.9924131608
 30
0.0
 10
-84.3074178339
 20
127.2233712935
 30
0.0
 10
-84.4105083951
 20
127.4027472613
 30
0.0
  0
SPLINE
  5
337
100
AcDbEntity
  8
0
100
AcDbSpline
 62
7
  6
CONTINUOUS
 70
0
 71
3
 72
9
 73
5
 74
0
 42
0.0000001
 43
0.0000001
 44
0.0000000001
 40
0.0
 40
0.0
 40
0.0
 40
0.0
 40
0.246472483
 40
1.0
 40
1.0
 40
1.0
 40
1.0
 10
-84.6529243548
 20
127.8751775345
 30
0.0
 10
-84.6853654438
 20
127.9463817655
 30
0.0
 10
-84.8111504531
 20
128.2379108389
 30
0.0
 10
-84.9136126006
 20
128.5394049432
 30
0.0
 10
-84.9780605053
 20
128.7697779655
 30
0.0
  0
SPLINE
  5
338
100
AcDbEntity
  8
0
100
AcDbSpline
 62
7
  6
CONTINUOUS
 70
0
 71
3
 72
9
 73
5
 74
0
 42
0.0000001
 43
0.0000001
 44
0.0000000001
 40
0.0
 40
0.0
 40
0.0
 40
0.0
 40
0.2450096517
 40
1.0
 40
1.0
 40
1.0
 40
1.0
 10
-85.0903874788
 20
129.2351503667
 30
0.0
 10
-85.1152130554
 20
129.3566516594
 30
0.0
 10
-85.2031486125
 20
129.8552370331
 30
0.0
 10
-85.2387817797
 20
130.362725403
 30
0.0
 10
-85.2387817797
 20
130.7448636154
 30
0.0
  0
SPLINE
  5
339
100
AcDbEntity
  8
0
100
AcDbSpline
 62
7
  6
CONTINUOUS
 70
0
 71
3
 72
9
 73
5
 74
0
 42
0.0000001
 43
0.0000001
 44
0.0000000001
 40
0.0
 40
0.0
 40
0.0
 40
0.0
 40
0.245609528
 40
1.0
 40
1.0
 40
1.0
 40
1.0
 10
-85.2387817797
 20
214.4043134377
 30
0.0
 10
-85.2387817797
 20
214.5350967827
 30
0.0
 10
-85.2259358631
 20
215.0675300042
 30
0.0
 10
-85.1631349498
 20
215.5985466796
 30
0.0
 10
-85.090383287
 20
215.9936052442
 30
0.0
  0
SPLINE
  5
33A
100
AcDbEntity
  8
0
100
AcDbSpline
 62
7
  6
CONTINUOUS
 70
0
 71
3
 72
9
 73
5
 74
0
 42
0.0000001
 43
0.0000001
 44
0.0000000001
 40
0.0
 40
0.0
 40
0.0
 40
0.0
 40
0.2529400974
 40
1.0
 40
1.0
 40
1.0
 40
1.0
 10
-81.3481232108
 20
222.1501979271
 30
0.0
 10
-81.2768867257
 20
222.2050837555
 30
0.0
 10
-80.9920393062
 20
222.4178626711
 30
0.0
 10
-80.6943114649
 20
222.6134727344
 30
0.0
 10
-80.4655634218
 20
222.7484526947
 30
0.0
  0
SPLINE
  5
33B
100
AcDbEntity
  8
0
100
AcDbSpline
 62
7
  6
CONTINUOUS
 70
0
 71
3
 72
9
 73
5
 74
0
 42
0.0000001
 43
0.0000001
 44
0.0000000001
 40
0.0
 40
0.0
 40
0.0
 40
0.0
 40
0.2556545958
 40
1.0
 40
1.0
 40
1.0
 40
1.0
 10
-80.0201440054
 20
222.9928017575
 30
0.0
 10
-79.9065574411
 20
223.0504766201
 30
0.0
 10
-79.456843049
 20
223.2651409291
 30
0.0
 10
-78.9854641272
 20
223.4352264268
 30
0.0
 10
-78.6272113042
 20
223.5312580602
 30
0.0
  0
SPLINE
  5
33C
100
AcDbEntity
  8
0
100
AcDbSpline
 62
7
  6
CONTINUOUS
 70
0
 71
3
 72
11
 73
7
 74
0
 42
0.0000001
 43
0.0000001
 44
0.0000000001
 40
0.0
 40
0.0
 40
0.0
 40
0.0
 40
0.2570200142
 40
0.5082148827
 40
0.7551822501
 40
1.0
 40
1.0
 40
1.0
 40
1.0
 10
-24.0427674529
 20
131.5983259867
 30
0.0
 10
-25.1898206123
 20
131.5579987423
 30
0.0
 10
-27.4661445982
 20
131.6225445746
 30
0.0
 10
-30.8036920354
 20
132.1746770106
 30
0.0
 10
-33.9785752536
 20
133.1753688842
 30
0.0
 10
-35.9638663392
 20
134.1356487494
 30
0.0
 10
-36.9105729303
 20
134.6824463554
 30
0.0
  0
SPLINE
  5
33D
100
AcDbEntity
  8
0
100
AcDbSpline
 62
7
  6
CONTINUOUS
 70
0
 71
3
 72
14
 73
10
 74
0
 42
0.0000001
 43
0.0000001
 44
0.0000000001
 40
0.0
 40
0.0
 40
0.0
 40
0.0
 40
0.2678665671
 40
0.4052397727
 40
0.5390738176
 40
0.666065929
 40
0.7844449945
 40
0.8947198784
 40
1.0
 40
1.0
 40
1.0
 40
1.0
 10
-10.8667044577
 20
135.1302419127
 30
0.0
 10
-10.9693910847
 20
133.7526523585
 30
0.0
 10
-11.6250820048
 20
131.6820015388
 30
0.0
 10
-13.2030625416
 20
129.3803048453
 30
0.0
 10
-14.6954736307
 20
127.9451264666
 30
0.0
 10
-16.384764191
 20
126.925100246
 30
0.0
 10
-18.1642111187
 20
126.3932068401
 30
0.0
 10
-19.9141914655
 20
126.4007019348
 30
0.0
 10
-20.9857886079
 20
126.7852765663
 30
0.0
 10
-21.4559284086
 20
127.0568481958
 30
0.0
  0
SPLINE
  5
33E
100
AcDbEntity
  8
0
100
AcDbSpline
 62
7
  6
CONTINUOUS
 70
0
 71
3
 72
19
 73
15
 74
0
 42
0.0000001
 43
0.0000001
 44
0.0000000001
 40
0.0
 40
0.0
 40
0.0
 40
0.0
 40
0.1283940374
 40
0.1953459282
 40
0.2634382052
 40
0.4005932058
 40
0.535428165
 40
0.6638307223
 40
0.7248865622
 40
0.7835918652
 40
0.8400508669
 40
0.8945732716
 40
0.9476670569
 40
1.0
 40
1.0
 40
1.0
 40
1.0
 10
-23.5083437411
 20
198.8667403999
 30
0.0
 10
-26.3431271099
 20
197.4457548017
 30
0.0
 10
-30.3778886484
 20
194.6845554875
 30
0.0
 10
-35.0448057859
 20
190.1397088215
 30
0.0
 10
-39.3168803574
 20
184.93239919
 30
0.0
 10
-43.5537333029
 20
177.5977071219
 30
0.0
 10
-46.5767470965
 20
168.102950474
 30
0.0
 10
-47.2014856538
 20
160.0264846597
 30
0.0
 10
-46.4456691519
 20
153.9268372052
 30
0.0
 10
-45.2972677499
 20
149.7119167847
 30
0.0
 10
-43.5781868023
 20
145.8702456994
 30
0.0
 10
-41.3193171389
 20
142.4813283738
 30
0.0
 10
-38.5658477703
 20
139.6196020526
 30
0.0
 10
-36.4292765423
 20
138.0999370411
 30
0.0
 10
-35.3100753716
 20
137.4534799026
 30
0.0
  0
SPLINE
  5
33F
100
AcDbEntity
  8
0
100
AcDbSpline
 62
7
  6
CONTINUOUS
 70
0
 71
3
 72
11
 73
7
 74
0
 42
0.0000001
 43
0.0000001
 44
0.0000000001
 40
0.0
 40
0.0
 40
0.0
 40
0.0
 40
0.2717600794
 40
0.5268850619
 40
0.7676389753
 40
1.0
 40
1.0
 40
1.0
 40
1.0
 10
-21.5869675024
 20
133.0605427918
 30
0.0
 10
-21.5869675024
 20
132.7187392107
 30
0.0
 10
-21.52046917
 20
132.0532433814
 30
0.0
 10
-21.2022448804
 20
131.131364577
 30
0.0
 10
-20.6805624386
 20
130.3643823296
 30
0.0
 10
-20.2085268929
 20
129.984737389
 30
0.0
 10
-19.9554735355
 20
129.8385390747
 30
0.0
  0
SPLINE
  5
340
100
AcDbEntity
  8
0
100
AcDbSpline
 62
7
  6
CONTINUOUS
 70
0
 71
3
 72
9
 73
5
 74
0
 42
0.0000001
 43
0.0000001
 44
0.0000000001
 40
0.0
 40
0.0
 40
0.0
 40
0.0
 40
0.4836001856
 40
1.0
 40
1.0
 40
1.0
 40
1.0
 10
16.3737750873
 20
198.8970088475
 30
0.0
 10
17.8661259764
 20
196.087090219
 30
0.0
 10
20.1263669339
 20
189.8167642477
 30
0.0
 10
20.8071480486
 20
183.2114501186
 30
0.0
 10
20.8071480486
 20
179.8140323222
 30
0.0
  0
SPLINE
  5
341
100
AcDbEntity
  8
0
100
AcDbSpline
 62
7
  6
CONTINUOUS
 70
0
 71
3
 72
16
 73
12
 74
0
 42
0.0000001
 43
0.0000001
 44
0.0000000001
 40
0.0
 40
0.0
 40
0.0
 40
0.0
 40
0.1247784643
 40
0.2543804394
 40
0.3203447514
 40
0.3866103066
 40
0.5185679947
 40
0.6477278912
 40
0.7718336606
 40
0.8893846807
 40
1.0
 40
1.0
 40
1.0
 40
1.0
 10
20.8071480486
 20
179.8140323222
 30
0.0
 10
20.8071480486
 20
176.4898692814
 30
0.0
 10
20.1190859572
 20
169.7006050053
 30
0.0
 10
17.7417626252
 20
161.4589245789
 30
0.0
 10
14.9751445977
 20
155.0477890729
 30
0.0
 10
11.6504191179
 20
148.8365193209
 30
0.0
 10
6.5820873947
 20
141.6838897484
 30
0.0
 10
-0.7200802172
 20
134.4005244135
 30
0.0
 10
-8.9071331599
 20
128.7646259018
 30
0.0
 10
-17.5976003591
 20
125.0526425322
 30
0.0
 10
-23.6492237305
 20
123.9646321518
 30
0.0
 10
-26.5928181217
 20
123.8261616264
 30
0.0
  0
SPLINE
  5
342
100
AcDbEntity
  8
0
100
AcDbSpline
 62
7
  6
CONTINUOUS
 70
0
 71
3
 72
10
 73
6
 74
0
 42
0.0000001
 43
0.0000001
 44
0.0000000001
 40
0.0
 40
0.0
 40
0.0
 40
0.0
 40
0.5149103404
 40
0.7596757362
 40
1.0
 40
1.0
 40
1.0
 40
1.0
 10
-75.2491180677
 20
123.2113305066
 30
0.0
 10
-75.9313636715
 20
123.0284508319
 30
0.0
 10
-77.0000298825
 20
122.9211931654
 30
0.0
 10
-78.3503973284
 20
123.2023768211
 30
0.0
 10
-78.9648078234
 20
123.4736851254
 30
0.0
 10
-79.2503012546
 20
123.6385285414
 30
0.0
  0
SPLINE
  5
343
100
AcDbEntity
  8
0
100
AcDbSpline
 62
7
  6
CONTINUOUS
 70
0
 71
3
 72
10
 73
6
 74
0
 42
0.0000001
 43
0.0000001
 44
0.0000000001
 40
0.0
 40
0.0
 40
0.0
 40
0.0
 40
0.5252520963
 40
0.7668039053
 40
1.0
 40
1.0
 40
1.0
 40
1.0
 10
-73.8441593417
 20
211.8440602854
 30
0.0
 10
-73.8441593417
 20
211.6070899612
 30
0.0
 10
-73.7747721677
 20
211.2504413708
 30
0.0
 10
-73.5178070526
 20
210.8735849311
 30
0.0
 10
-73.3479058526
 20
210.7367915659
 30
0.0
 10
-73.2568163005
 20
210.6841479593
 30
0.0
  0
SPLINE
  5
344
100
AcDbEntity
  8
0
100
AcDbSpline
 62
7
  6
CONTINUOUS
 70
0
 71
3
 72
10
 73
6
 74
0
 42
0.0000001
 43
0.0000001
 44
0.0000000001
 40
0.0
 40
0.0
 40
0.0
 40
0.0
 40
0.5252520963
 40
0.7668039053
 40
1.0
 40
1.0
 40
1.0
 40
1.0
 10
-73.8441593417
 20
133.7006181438
 30
0.0
 10
-73.8441593417
 20
133.4636478196
 30
0.0
 10
-73.7747721677
 20
133.1069992291
 30
0.0
 10
-73.5178070526
 20
132.7301427895
 30
0.0
 10
-73.3479058526
 20
132.5933494243
 30
0.0
 10
-73.2568163005
 20
132.5407058176
 30
0.0
  0
SPLINE
  5
345
100
AcDbEntity
  8
0
100
AcDbSpline
 62
7
  6
CONTINUOUS
 70
0
 71
3
 72
12
 73
8
 74
0
 42
0.0000001
 43
0.0000001
 44
0.0000000001
 40
0.0
 40
0.0
 40
0.0
 40
0.0
 40
0.2349933756
 40
0.4894753556
 40
0.6202647794
 40
0.7503870015
 40
1.0
 40
1.0
 40
1.0
 40
1.0
 10
-78.6272113042
 20
223.5312580602
 30
0.0
 10
-79.5341653611
 20
223.2881440527
 30
0.0
 10
-81.3219279213
 20
222.3747682217
 30
0.0
 10
-83.0743876244
 20
220.5685246995
 30
0.0
 10
-84.1577140592
 20
218.80884657
 30
0.0
 10
-84.9610241457
 20
216.9290163883
 30
0.0
 10
-85.2387817797
 20
215.4017025647
 30
0.0
 10
-85.2387817797
 20
214.4043134377
 30
0.0
  0
SPLINE
  5
346
100
AcDbEntity
  8
0
100
AcDbSpline
 62
7
  6
CONTINUOUS
 70
0
 71
3
 72
11
 73
7
 74
0
 42
0.0000001
 43
0.0000001
 44
0.0000000001
 40
0.0
 40
0.0
 40
0.0
 40
0.0
 40
0.271772124
 40
0.5268740629
 40
0.7676338636
 40
1.0
 40
1.0
 40
1.0
 40
1.0
 10
-85.2387817797
 20
130.7448636154
 30
0.0
 10
-85.2387817797
 20
130.1979530231
 30
0.0
 10
-85.1324247627
 20
129.1331722275
 30
0.0
 10
-84.6231836554
 20
127.6581992935
 30
0.0
 10
-83.7885697366
 20
126.4310414819
 30
0.0
 10
-83.0333486523
 20
125.823472294
 30
0.0
 10
-82.6283944912
 20
125.5896524579
 30
0.0
  0
SPLINE
  5
347
100
AcDbEntity
  8
0
100
AcDbSpline
 62
7
  6
CONTINUOUS
 70
0
 71
3
 72
11
 73
7
 74
0
 42
0.0000001
 43
0.0000001
 44
0.0000000001
 40
0.0
 40
0.0
 40
0.0
 40
0.0
 40
0.2671630148
 40
0.5245885496
 40
0.7692243492
 40
1.0
 40
1.0
 40
1.0
 40
1.0
 10
-87.5440061357
 20
198.8872120057
 30
0.0
 10
-88.4737640875
 20
196.3611705726
 30
0.0
 10
-89.900017292
 20
191.2415632744
 30
0.0
 10
-90.6624449057
 20
183.487414777
 30
0.0
 10
-89.9837954775
 20
176.0883802018
 30
0.0
 10
-88.5316239187
 20
171.4724744869
 30
0.0
 10
-87.566636978
 20
169.3570734828
 30
0.0
  0
SPLINE
  5
348
100
AcDbEntity
  8
0
100
AcDbSpline
 62
7
  6
CONTINUOUS
 70
0
 71
3
 72
13
 73
9
 74
0
 42
0.0000001
 43
0.0000001
 44
0.0000000001
 40
0.0
 40
0.0
 40
0.0
 40
0.0
 40
0.1054199736
 40
0.2162072625
 40
0.3355571307
 40
0.4637457895
 40
0.7347562963
 40
1.0
 40
1.0
 40
1.0
 40
1.0
 10
-71.4562956688
 20
213.8014930834
 30
0.0
 10
-71.5662639324
 20
213.8650473098
 30
0.0
 10
-71.8185264797
 20
213.9534377051
 30
0.0
 10
-72.229699711
 20
213.9470753251
 30
0.0
 10
-72.6452752191
 20
213.8103203175
 30
0.0
 10
-73.1736977707
 20
213.4667269695
 30
0.0
 10
-73.6775948263
 20
212.813234315
 30
0.0
 10
-73.8441593417
 20
212.1636320666
 30
0.0
 10
-73.8441593417
 20
211.8440602854
 30
0.0
  0
SPLINE
  5
349
100
AcDbEntity
  8
0
100
AcDbSpline
 62
7
  6
CONTINUOUS
 70
0
 71
3
 72
13
 73
9
 74
0
 42
0.0000001
 43
0.0000001
 44
0.0000000001
 40
0.0
 40
0.0
 40
0.0
 40
0.0
 40
0.1054199736
 40
0.2162072625
 40
0.3355571307
 40
0.4637457895
 40
0.7347562963
 40
1.0
 40
1.0
 40
1.0
 40
1.0
 10
-71.4562956688
 20
135.6580509417
 30
0.0
 10
-71.5662639324
 20
135.7216051681
 30
0.0
 10
-71.8185264797
 20
135.8099955635
 30
0.0
 10
-72.229699711
 20
135.8036331834
 30
0.0
 10
-72.6452752191
 20
135.6668781759
 30
0.0
 10
-73.1736977707
 20
135.3232848278
 30
0.0
 10
-73.6775948263
 20
134.6697921733
 30
0.0
 10
-73.8441593417
 20
134.0201899249
 30
0.0
 10
-73.8441593417
 20
133.7006181438
 30
0.0
  0
SPLINE
  5
34A
100
AcDbEntity
  8
0
100
AcDbSpline
 62
7
  6
CONTINUOUS
 70
0
 71
3
 72
18
 73
14
 74
0
 42
0.0000001
 43
0.0000001
 44
0.0000000001
 40
0.0
 40
0.0
 40
0.0
 40
0.0
 40
0.0528736166
 40
0.1072593907
 40
0.163491573
 40
0.2217577574
 40
0.3442120561
 40
0.473710939
 40
0.6075598312
 40
0.6751065859
 40
0.742389323
 40
0.8741962416
 40
1.0
 40
1.0
 40
1.0
 40
1.0
 10
7.3131392933
 20
197.8064916065
 30
0.0
 10
8.2002171308
 20
196.8518440953
 30
0.0
 10
9.842264425
 20
194.7630145313
 30
0.0
 10
11.8185481004
 20
191.234890369
 30
0.0
 10
13.3086609024
 20
187.3329791999
 30
0.0
 10
14.6376622641
 20
181.6306532612
 30
0.0
 10
14.9231190711
 20
173.9100812331
 30
0.0
 10
13.1750893333
 20
164.4970534503
 30
0.0
 10
10.0941595306
 20
156.8835718448
 30
0.0
 10
6.7439112788
 20
151.1613297855
 30
0.0
 10
2.8815608182
 20
145.8329342423
 30
0.0
 10
-2.7529257187
 20
140.0657811219
 30
0.0
 10
-8.0944328397
 20
136.5190216562
 30
0.0
 10
-10.8667044577
 20
135.1302419127
 30
0.0
  0
SPLINE
  5
34B
100
AcDbEntity
  8
0
100
AcDbSpline
 62
7
  6
CONTINUOUS
 70
0
 71
3
 72
9
 73
5
 74
0
 42
0.0000001
 43
0.0000001
 44
0.0000000001
 40
0.0
 40
0.0
 40
0.0
 40
0.0
 40
0.257211101
 40
1.0
 40
1.0
 40
1.0
 40
1.0
 10
-87.4927080056
 20
202.3586914231
 30
0.0
 10
-87.5452981954
 20
202.2267451441
 30
0.0
 10
-87.7270430881
 20
201.7052224339
 30
0.0
 10
-87.8158561315
 20
201.1495305417
 30
0.0
 10
-87.8158561315
 20
200.7393374212
 30
0.0
  0
SPLINE
  5
34C
100
AcDbEntity
  8
0
100
AcDbSpline
 62
7
  6
CONTINUOUS
 70
0
 71
3
 72
9
 73
5
 74
0
 42
0.0000001
 43
0.0000001
 44
0.0000000001
 40
0.0
 40
0.0
 40
0.0
 40
0.0
 40
0.262550387
 40
1.0
 40
1.0
 40
1.0
 40
1.0
 10
-87.8158561315
 20
200.7393374212
 30
0.0
 10
-87.8158561315
 20
200.6102364652
 30
0.0
 10
-87.7913934943
 20
200.1192552738
 30
0.0
 10
-87.6613021789
 20
199.630246966
 30
0.0
 10
-87.4991091608
 20
199.3059244242
 30
0.0
  0
SPLINE
  5
34D
100
AcDbEntity
  8
0
100
AcDbSpline
 62
7
  6
CONTINUOUS
 70
0
 71
3
 72
11
 73
7
 74
0
 42
0.0000001
 43
0.0000001
 44
0.0000000001
 40
0.0
 40
0.0
 40
0.0
 40
0.0
 40
0.2504686074
 40
0.5052563834
 40
0.7572431846
 40
1.0
 40
1.0
 40
1.0
 40
1.0
 10
-42.4362131465
 20
203.6882657018
 30
0.0
 10
-45.3732713016
 20
200.8783420879
 30
0.0
 10
-50.7094177824
 20
194.5659070029
 30
0.0
 10
-56.6965933236
 20
183.7485730636
 30
0.0
 10
-60.4319594842
 20
172.091425364
 30
0.0
 10
-61.2625887641
 20
164.0287749015
 30
0.0
 10
-61.2028954215
 20
160.0896537957
 30
0.0
  0
SPLINE
  5
34E
100
AcDbEntity
  8
0
100
AcDbSpline
 62
7
  6
CONTINUOUS
 70
0
 71
3
 72
11
 73
7
 74
0
 42
0.0000001
 43
0.0000001
 44
0.0000000001
 40
0.0
 40
0.0
 40
0.0
 40
0.0
 40
0.2354726357
 40
0.4799458801
 40
0.7347287183
 40
1.0
 40
1.0
 40
1.0
 40
1.0
 10
-52.8989575052
 20
135.5648540412
 30
0.0
 10
-54.2201768587
 20
137.1572266611
 30
0.0
 10
-56.5924428667
 20
140.6807450625
 30
0.0
 10
-59.1729148718
 20
146.6331815693
 30
0.0
 10
-60.7801181463
 20
153.1859103512
 30
0.0
 10
-61.1675760585
 20
157.7589542213
 30
0.0
 10
-61.2028954215
 20
160.0896537957
 30
0.0
  0
SPLINE
  5
34F
100
AcDbEntity
  8
0
100
AcDbSpline
 62
7
  6
CONTINUOUS
 70
0
 71
3
 72
12
 73
8
 74
0
 42
0.0000001
 43
0.0000001
 44
0.0000000001
 40
0.0
 40
0.0
 40
0.0
 40
0.0
 40
0.2496129985
 40
0.3797352206
 40
0.5105246444
 40
0.7650066244
 40
1.0
 40
1.0
 40
1.0
 40
1.0
 10
-81.8606885431
 20
212.4531895212
 30
0.0
 10
-81.8606885431
 20
213.4505786482
 30
0.0
 10
-81.5829309091
 20
214.9778924719
 30
0.0
 10
-80.7796208226
 20
216.8577226536
 30
0.0
 10
-79.6962943879
 20
218.617400783
 30
0.0
 10
-77.9438346847
 20
220.4236443053
 30
0.0
 10
-76.1560721246
 20
221.3370201363
 30
0.0
 10
-75.2491180677
 20
221.5801341437
 30
0.0
  0
SPLINE
  5
350
100
AcDbEntity
  8
0
100
AcDbSpline
 62
7
  6
CONTINUOUS
 70
0
 71
3
 72
18
 73
14
 74
0
 42
0.0000001
 43
0.0000001
 44
0.0000000001
 40
0.0
 40
0.0
 40
0.0
 40
0.0
 40
0.1339185889
 40
0.2711751035
 40
0.339978103
 40
0.40820775
 40
0.5410140014
 40
0.6668673176
 40
0.7843547006
 40
0.840237292
 40
0.8944872488
 40
0.9475546093
 40
1.0
 40
1.0
 40
1.0
 40
1.0
 10
-54.0096475542
 20
210.5600839749
 30
0.0
 10
-56.5627724383
 20
208.5648251404
 30
0.0
 10
-61.3012696006
 20
203.9483854668
 30
0.0
 10
-65.9785552055
 20
197.1166048984
 30
0.0
 10
-68.8993555056
 20
191.1464082685
 30
0.0
 10
-71.1811179539
 20
185.0199784984
 30
0.0
 10
-72.8214228954
 20
177.2189936495
 30
0.0
 10
-72.7269394387
 20
168.0417134998
 30
0.0
 10
-70.8495121503
 20
160.9485675576
 30
0.0
 10
-68.3081803085
 20
156.0416516868
 30
0.0
 10
-65.9670950006
 20
152.8405521503
 30
0.0
 10
-63.1991582007
 20
150.118175729
 30
0.0
 10
-61.0930679982
 20
148.6497857904
 30
0.0
 10
-59.9942073301
 20
148.0151312045
 30
0.0
  0
SPLINE
  5
351
100
AcDbEntity
  8
0
100
AcDbSpline
 62
7
  6
CONTINUOUS
 70
0
 71
3
 72
14
 73
10
 74
0
 42
0.0000001
 43
0.0000001
 44
0.0000000001
 40
0.0
 40
0.0
 40
0.0
 40
0.0
 40
0.105259329
 40
0.2158745728
 40
0.3350381489
 40
0.4630342648
 40
0.5976755258
 40
0.7352076461
 40
1.0
 40
1.0
 40
1.0
 40
1.0
 10
-19.9554735355
 20
129.8385390747
 30
0.0
 10
-19.6499648188
 20
129.6620353529
 30
0.0
 10
-18.9492749773
 20
129.4164051482
 30
0.0
 10
-17.8070155367
 20
129.4340549605
 30
0.0
 10
-16.6528375307
 20
129.8139901756
 30
0.0
 10
-15.5694206814
 20
130.5176775744
 30
0.0
 10
-14.6301166859
 20
131.4916715035
 30
0.0
 10
-13.6740386658
 20
133.0246858304
 30
0.0
 10
-13.3225044082
 20
134.3882911645
 30
0.0
 10
-13.3225044082
 20
135.2758774356
 30
0.0
  0
SPLINE
  5
352
100
AcDbEntity
  8
0
100
AcDbSpline
 62
7
  6
CONTINUOUS
 70
0
 71
3
 72
11
 73
7
 74
0
 42
0.0000001
 43
0.0000001
 44
0.0000000001
 40
0.0
 40
0.0
 40
0.0
 40
0.0
 40
0.2323661364
 40
0.4731259371
 40
0.728227876
 40
1.0
 40
1.0
 40
1.0
 40
1.0
 10
-79.2503012546
 20
123.6385285414
 30
0.0
 10
-79.6552554157
 20
123.8723483775
 30
0.0
 10
-80.4104765
 20
124.4799175654
 30
0.0
 10
-81.2450904189
 20
125.707075377
 30
0.0
 10
-81.7543315261
 20
127.1820483111
 30
0.0
 10
-81.8606885431
 20
128.2468291067
 30
0.0
 10
-81.8606885431
 20
128.793739699
 30
0.0
  0
SPLINE
  5
353
100
AcDbEntity
  8
0
100
AcDbSpline
 62
7
  6
CONTINUOUS
 70
0
 71
3
 72
17
 73
13
 74
0
 42
0.0000001
 43
0.0000001
 44
0.0000000001
 40
0.0
 40
0.0
 40
0.0
 40
0.0
 40
0.1254289341
 40
0.2579126934
 40
0.3938478172
 40
0.5288609606
 40
0.6587793726
 40
0.7805989028
 40
0.8382484647
 40
0.8937742445
 40
0.9475178762
 40
1.0
 40
1.0
 40
1.0
 40
1.0
 10
-13.3225044082
 20
136.9783694558
 30
0.0
 10
-10.5124635198
 20
138.1737720128
 30
0.0
 10
-5.058707742
 20
141.4408393234
 30
0.0
 10
1.8611382526
 20
148.1834683449
 30
0.0
 10
7.3260801067
 20
156.4335383209
 30
0.0
 10
10.9294448892
 20
165.5840044307
 30
0.0
 10
12.4045805095
 20
174.9641925145
 30
0.0
 10
11.7278223777
 20
182.5652327453
 30
0.0
 10
9.9983377893
 20
188.0389191965
 30
0.0
 10
8.1844824351
 20
191.6956639908
 30
0.0
 10
5.864536466
 20
194.9004034717
 30
0.0
 10
3.9917164532
 20
196.7078809491
 30
0.0
 10
2.9947362844
 20
197.5070508155
 30
0.0
  0
SPLINE
  5
354
100
AcDbEntity
  8
0
100
AcDbSpline
 62
7
  6
CONTINUOUS
 70
0
 71
3
 72
11
 73
7
 74
0
 42
0.0000001
 43
0.0000001
 44
0.0000000001
 40
0.0
 40
0.0
 40
0.0
 40
0.0
 40
0.2659971711
 40
0.5191234294
 40
0.7623196925
 40
1.0
 40
1.0
 40
1.0
 40
1.0
 10
-25.350729395
 20
131.645811945
 30
0.0
 10
-25.2757378507
 20
131.2396084453
 30
0.0
 10
-25.0591062346
 20
130.4572442824
 30
0.0
 10
-24.5184624999
 20
129.3945135555
 30
0.0
 10
-23.7867904455
 20
128.5080967318
 30
0.0
 10
-23.183077281
 20
128.0544245879
 30
0.0
 10
-22.8634691873
 20
127.8698131273
 30
0.0
  0
SPLINE
  5
355
100
AcDbEntity
  8
0
100
AcDbSpline
 62
7
  6
CONTINUOUS
 70
0
 71
3
 72
10
 73
6
 74
0
 42
0.0000001
 43
0.0000001
 44
0.0000000001
 40
0.0
 40
0.0
 40
0.0
 40
0.0
 40
0.5252520963
 40
0.7668039053
 40
1.0
 40
1.0
 40
1.0
 40
1.0
 10
-70.8689526277
 20
212.6415807572
 30
0.0
 10
-70.8689526277
 20
212.8785510814
 30
0.0
 10
-70.9383398017
 20
213.2351996719
 30
0.0
 10
-71.1953049168
 20
213.6120561115
 30
0.0
 10
-71.3652061168
 20
213.7488494767
 30
0.0
 10
-71.4562956688
 20
213.8014930834
 30
0.0
  0
SPLINE
  5
356
100
AcDbEntity
  8
0
100
AcDbSpline
 62
7
  6
CONTINUOUS
 70
0
 71
3
 72
19
 73
15
 74
0
 42
0.0000001
 43
0.0000001
 44
0.0000000001
 40
0.0
 40
0.0
 40
0.0
 40
0.0
 40
0.0523449219
 40
0.1053769602
 40
0.1597073739
 40
0.2158146227
 40
0.2740107988
 40
0.3344316009
 40
0.4614388451
 40
0.5952045718
 40
0.6636674689
 40
0.7324449254
 40
0.8686418326
 40
1.0
 40
1.0
 40
1.0
 40
1.0
 10
-36.9105729303
 20
134.6824463554
 30
0.0
 10
-38.0676420546
 20
135.3507448897
 30
0.0
 10
-40.2810321918
 20
136.9088631573
 30
0.0
 10
-43.1630387304
 20
139.819975011
 30
0.0
 10
-45.5659818133
 20
143.2551390394
 30
0.0
 10
-47.44605614
 20
147.1465245221
 30
0.0
 10
-48.7722430455
 20
151.4213694656
 30
0.0
 10
-49.789628801
 20
157.625371567
 30
0.0
 10
-49.5230585629
 20
165.9067846683
 30
0.0
 10
-47.3724694663
 20
174.1002470241
 30
0.0
 10
-44.6017909875
 20
180.4504675337
 30
0.0
 10
-41.1623374455
 20
186.5367769072
 30
0.0
 10
-35.8125478775
 20
193.3314706282
 30
0.0
 10
-30.4967137472
 20
197.7258652786
 30
0.0
 10
-27.673772805
 20
199.5354731914
 30
0.0
  0
SPLINE
  5
357
100
AcDbEntity
  8
0
100
AcDbSpline
 62
7
  6
CONTINUOUS
 70
0
 71
3
 72
10
 73
6
 74
0
 42
0.0000001
 43
0.0000001
 44
0.0000000001
 40
0.0
 40
0.0
 40
0.0
 40
0.0
 40
0.5252520963
 40
0.7668039053
 40
1.0
 40
1.0
 40
1.0
 40
1.0
 10
-70.8689526277
 20
134.4981386156
 30
0.0
 10
-70.8689526277
 20
134.7351089398
 30
0.0
 10
-70.9383398017
 20
135.0917575302
 30
0.0
 10
-71.1953049168
 20
135.4686139698
 30
0.0
 10
-71.3652061168
 20
135.6054073351
 30
0.0
 10
-71.4562956688
 20
135.6580509417
 30
0.0
  0
SPLINE
  5
358
100
AcDbEntity
  8
0
100
AcDbSpline
 62
7
  6
CONTINUOUS
 70
0
 71
3
 72
11
 73
7
 74
0
 42
0.0000001
 43
0.0000001
 44
0.0000000001
 40
0.0
 40
0.0
 40
0.0
 40
0.0
 40
0.2433290257
 40
0.4894736588
 40
0.7410332248
 40
1.0
 40
1.0
 40
1.0
 40
1.0
 10
-35.3100753716
 20
137.4534799026
 30
0.0
 10
-34.3120729209
 20
136.8770278532
 30
0.0
 10
-32.2024865017
 20
135.8850090681
 30
0.0
 10
-28.8080967208
 20
134.9343265649
 30
0.0
 10
-25.2325112162
 20
134.5307983542
 30
0.0
 10
-22.8061086441
 20
134.6280673624
 30
0.0
 10
-21.5869675024
 20
134.763034812
 30
0.0
  0
SPLINE
  5
359
100
AcDbEntity
  8
0
100
AcDbSpline
 62
7
  6
CONTINUOUS
 70
0
 71
3
 72
18
 73
14
 74
0
 42
0.0000001
 43
0.0000001
 44
0.0000000001
 40
0.0
 40
0.0
 40
0.0
 40
0.0
 40
0.1308102779
 40
0.2661001695
 40
0.3344113698
 40
0.4024808869
 40
0.5358934232
 40
0.6632915399
 40
0.7826869295
 40
0.83940534
 40
0.8942733119
 40
0.9476481239
 40
1.0
 40
1.0
 40
1.0
 40
1.0
 10
-29.6849314052
 20
199.9540918837
 30
0.0
 10
-32.3405827757
 20
198.1859243815
 30
0.0
 10
-37.3445082579
 20
193.9640074795
 30
0.0
 10
-42.4293079927
 20
187.5183763218
 30
0.0
 10
-45.7429679578
 20
181.7696028293
 30
0.0
 10
-48.4616004562
 20
175.7678793612
 30
0.0
 10
-50.6831402476
 20
167.9980229443
 30
0.0
 10
-51.3243751111
 20
158.675691157
 30
0.0
 10
-50.0750465839
 20
151.2881135007
 30
0.0
 10
-48.0023423851
 20
146.0313290684
 30
0.0
 10
-45.9877212411
 20
142.5302524195
 30
0.0
 10
-43.5194353394
 20
139.4684990709
 30
0.0
 10
-41.5839895005
 20
137.7431521039
 30
0.0
 10
-40.5623099798
 20
136.9773036189
 30
0.0
  0
SPLINE
  5
35A
100
AcDbEntity
  8
0
100
AcDbSpline
 62
7
  6
CONTINUOUS
 70
0
 71
3
 72
13
 73
9
 74
0
 42
0.0000001
 43
0.0000001
 44
0.0000000001
 40
0.0
 40
0.0
 40
0.0
 40
0.0
 40
0.1054199736
 40
0.2162072625
 40
0.3355571307
 40
0.4637457895
 40
0.7347562963
 40
1.0
 40
1.0
 40
1.0
 40
1.0
 10
-73.2568163005
 20
210.6841479593
 30
0.0
 10
-73.1468480369
 20
210.6205937329
 30
0.0
 10
-72.8945854897
 20
210.5322033375
 30
0.0
 10
-72.4834122584
 20
210.5385657176
 30
0.0
 10
-72.0678367503
 20
210.6753207251
 30
0.0
 10
-71.5394141986
 20
211.0189140732
 30
0.0
 10
-71.0355171431
 20
211.6724067276
 30
0.0
 10
-70.8689526277
 20
212.322008976
 30
0.0
 10
-70.8689526277
 20
212.6415807572
 30
0.0
  0
SPLINE
  5
35B
100
AcDbEntity
  8
0
100
AcDbSpline
 62
7
  6
CONTINUOUS
 70
0
 71
3
 72
11
 73
7
 74
0
 42
0.0000001
 43
0.0000001
 44
0.0000000001
 40
0.0
 40
0.0
 40
0.0
 40
0.0
 40
0.2416275368
 40
0.4933965871
 40
0.7486343862
 40
1.0
 40
1.0
 40
1.0
 40
1.0
 10
-58.5316976563
 20
158.5468197415
 30
0.0
 10
-58.5316976563
 20
162.517913862
 30
0.0
 10
-57.5481007779
 20
170.6473447323
 30
0.0
 10
-53.5249884713
 20
182.3595361979
 30
0.0
 10
-47.1946725956
 20
193.1865463988
 30
0.0
 10
-41.6060647729
 20
199.4515068891
 30
0.0
 10
-38.540912048
 20
202.2211880122
 30
0.0
  0
SPLINE
  5
35C
100
AcDbEntity
  8
0
100
AcDbSpline
 62
7
  6
CONTINUOUS
 70
0
 71
3
 72
11
 73
7
 74
0
 42
0.0000001
 43
0.0000001
 44
0.0000000001
 40
0.0
 40
0.0
 40
0.0
 40
0.0
 40
0.2345614733
 40
0.4786043915
 40
0.733652355
 40
1.0
 40
1.0
 40
1.0
 40
1.0
 10
-50.658686197
 20
134.2709147077
 30
0.0
 10
-51.9450968235
 20
135.84429918
 30
0.0
 10
-54.2476501176
 20
139.3301668836
 30
0.0
 10
-56.7176302836
 20
145.2221766375
 30
0.0
 10
-58.2130999692
 20
151.7130482388
 30
0.0
 10
-58.5316976563
 20
156.239075037
 30
0.0
 10
-58.5316976563
 20
158.5468197415
 30
0.0
  0
SPLINE
  5
35D
100
AcDbEntity
  8
0
100
AcDbSpline
 62
7
  6
CONTINUOUS
 70
0
 71
3
 72
13
 73
9
 74
0
 42
0.0000001
 43
0.0000001
 44
0.0000000001
 40
0.0
 40
0.0
 40
0.0
 40
0.0
 40
0.1054199736
 40
0.2162072625
 40
0.3355571307
 40
0.4637457895
 40
0.7347562963
 40
1.0
 40
1.0
 40
1.0
 40
1.0
 10
-73.2568163005
 20
132.5407058176
 30
0.0
 10
-73.1468480369
 20
132.4771515912
 30
0.0
 10
-72.8945854897
 20
132.3887611959
 30
0.0
 10
-72.4834122584
 20
132.3951235759
 30
0.0
 10
-72.0678367503
 20
132.5318785835
 30
0.0
 10
-71.5394141986
 20
132.8754719315
 30
0.0
 10
-71.0355171431
 20
133.528964586
 30
0.0
 10
-70.8689526277
 20
134.1785668344
 30
0.0
 10
-70.8689526277
 20
134.4981386156
 30
0.0
  0
SPLINE
  5
35E
100
AcDbEntity
  8
0
100
AcDbSpline
 62
7
  6
CONTINUOUS
 70
0
 71
3
 72
11
 73
7
 74
0
 42
0.0000001
 43
0.0000001
 44
0.0000000001
 40
0.0
 40
0.0
 40
0.0
 40
0.0
 40
0.2346970537
 40
0.476480092
 40
0.7307028317
 40
1.0
 40
1.0
 40
1.0
 40
1.0
 10
-21.4559284086
 20
127.0568481958
 30
0.0
 10
-21.823553116
 20
127.2692029904
 30
0.0
 10
-22.5130128894
 20
127.8075436872
 30
0.0
 10
-23.3083578135
 20
128.8810160329
 30
0.0
 10
-23.8414879726
 20
130.1719047135
 30
0.0
 10
-24.0050577361
 20
131.1126489355
 30
0.0
 10
-24.0427674529
 20
131.5983259867
 30
0.0
  0
ENDSEC
  0
SECTION
  2
OBJECTS
  0
DICTIONARY
  5
C
100
AcDbDictionary
280
0
281
1
  3
ACAD_GROUP
350
D
  3
ACAD_MLINESTYLE
350
17
  3
ACAD_LAYOUT
350
1A
  3
ACAD_PLOTSETTINGS
350
19
  3
ACAD_PLOTSTYLENAME
350
E
  0
DICTIONARY
  5
D
102
{ACAD_REACTORS
330
C
102
}
100
AcDbDictionary
280
0
281
1
  0
ACDBDICTIONARYWDFLT
  5
E
102
{ACAD_REACTORS
330
C
102
}
100
AcDbDictionary
281
1
  3
Normal
350
F
100
AcDbDictionaryWithDefault
340
F
  0
DICTIONARY
  5
17
102
{ACAD_REACTORS
330
C
102
}
100
AcDbDictionary
280
0
281
1
  3
Standard
350
18
  0
DICTIONARY
  5
19
102
{ACAD_REACTORS
330
C
102
}
100
AcDbDictionary
281
1
  0
DICTIONARY
  5
1A
102
{ACAD_REACTORS
330
C
102
}
100
AcDbDictionary
281
1
  3
Model
350
35F
  3
Layout1
350
360
  0
ACDBPLACEHOLDER
  5
F
102
{ACAD_REACTORS
330
E
102
}
  0
MLINESTYLE
  5
18
102
{ACAD_REACTORS
330
17
102
}
100
AcDbMlineStyle
  2
STANDARD
 70
0
  3

 62
256
 51
90.0
 52
90.0
 71
2
 49
0.5
 62
256
  6
BYLAYER
 49
-0.5
 62
256
  6
BYLAYER
  0
LAYOUT
  5
35F
102
{ACAD_REACTORS
330
1A
102
}
100
AcDbPlotSettings
  1

  2
none_device
  4
ANSI_C_(22.00_x_17.00_Inches)
  6

 40
0.0
 41
0.0
 42
0.0
 43
0.0
 44
558.8
 45
431.8
 46
0.0
 47
0.0
 48
0.0
 49
0.0
140
0.0
141
0.0
142
1.0
143
1.0
 70
1024
 72
1
 73
0
 74
0
  7

 75
0
147
1.0
148
0.0
149
0.0
100
AcDbLayout
  1
Model
 70
0
 71
0
 10
0.0
 20
0.0
 11
558.8
 21
431.8
 12
0.0
 22
0.0
 32
0.0
 14
0.0
 24
0.0
 34
0.0
 15
0.0
 25
0.0
 35
0.0
146
0.0
 13
0.0
 23
0.0
 33
0.0
 16
1.0
 26
0.0
 36
0.0
 17
0.0
 27
1.0
 37
0.0
 76
0
330
216
345
0
346
0
  0
LAYOUT
  5
360
102
{ACAD_REACTORS
330
1A
102
}
100
AcDbPlotSettings
  1

  2
none_device
  4
ANSI_C_(22.00_x_17.00_Inches)
  6

 40
0.0
 41
0.0
 42
0.0
 43
0.0
 44
558.8
 45
431.8
 46
0.0
 47
0.0
 48
0.0
 49
0.0
140
0.0
141
0.0
142
1.0
143
1.0
 70
0
 72
1
 73
0
 74
0
  7

 75
0
147
1.0
148
0.0
149
0.0
100
AcDbLayout
  1
Layout1
 70
0
 71
1
 10
0.0
 20
0.0
 11
558.8
 21
431.8
 12
0.0
 22
0.0
 32
0.0
 14
0.0
 24
0.0
 34
0.0
 15
0.0
 25
0.0
 35
0.0
146
0.0
 13
0.0
 23
0.0
 33
0.0
 16
1.0
 26
0.0
 36
0.0
 17
0.0
 27
1.0
 37
0.0
 76
0
330
217
345
0
346
0
  0
ENDSEC
  0
EOF
