999
DXF file: Y:\3D PRATIKA-KAEDRA_OLGA\TRAVAIL_PHASE_10\CAD3D\81683_3D-Simplified\81683_2D-isometric.dxf
999
Pro/ENGINEER 2018260 by Parametric Technology Corporation
  0
SECTION
  2
HEADER
  9
$ACADVER
  1
AC1027
  9
$DWGCODEPAGE
  3
ANSI_1252
  9
$EXTMAX
 10
558.8
 20
431.8
 30
0.0
  9
$EXTMIN
 10
0.0
 20
0.0
 30
0.0
  9
$LIMMIN
 10
0.0
 20
0.0
  9
$LIMMAX
 10
558.8
 20
431.8
  9
$VIEWCTR
 10
279.4
 20
215.9
  9
$VIEWSIZE
 40
431.8
  9
$CLAYER
  8
0
  9
$LTSCALE
 40
30.734
  9
$CELTYPE
  6
BYLAYER
  9
$DIMSCALE
 40
1.0
  9
$DIMASZ
 40
0.1875
  9
$DIMEXO
 40
0.0625
  9
$DIMDLI
 40
21.2344
  9
$DIMEXE
 40
0.125
  9
$DIMCEN
 40
5.0292
  9
$DIMLFAC
 40
1.0
  9
$DIMBLK
  1
_CLOSED
  9
$DIMALT
 70
0
  9
$DIMALTF
 40
0.0393700787
  9
$DIMTXT
 40
0.15625
  9
$DIMTOL
 70
0
  9
$DIMLIM
 70
0
  9
$DIMTFAC
 40
1.0
  9
$DIMGAP
 40
0.625
  9
$DIMDSEP
 70
46
  9
$AUNITS
 70
0
  9
$PDMODE
 70
3
  9
$PDSIZE
 40
0.3125
  9
$HANDSEED
  5
366
  9
$TILEMODE
 70
1
  9
$MEASUREMENT
 70
1
  9
$INSUNITS
 70
4
  0
ENDSEC
  0
SECTION
  2
CLASSES
  0
CLASS
  1
ACDBDICTIONARYWDFLT
  2
AcDbDictionaryWithDefault
  3
AutoCAD 2000
 90
0
 91
1
280
0
281
0
  0
CLASS
  1
ACDBPLACEHOLDER
  2
AcDbPlaceHolder
  3
AutoCAD 2000
 90
0
 91
1
280
0
281
0
  0
CLASS
  1
LAYOUT
  2
AcDbLayout
  3
AutoCAD 2000
 90
0
 91
0
280
0
281
0
  0
ENDSEC
  0
SECTION
  2
TABLES
  0
TABLE
  2
VPORT
  5
8
100
AcDbSymbolTable
 70
2
  0
VPORT
  5
1F4
100
AcDbSymbolTableRecord
100
AcDbViewportTableRecord
  2
*ACTIVE
 70
0
 10
0.0
 20
0.0
 11
1.0
 21
1.0
 12
279.4
 22
215.9
 13
0.0
 23
0.0
 14
1.0
 24
1.0
 15
0.0
 25
0.0
 16
0.0
 26
0.0
 36
1.0
 17
0.0
 27
0.0
 37
0.0
 40
431.8
 41
1.2941176471
 42
50.0
 43
0.0
 44
0.0
 50
0.0
 51
0.0
 71
0
 72
100
 73
1
 74
1
 75
0
 76
0
 77
0
 78
0
  0
ENDTAB
  0
TABLE
  2
LTYPE
  5
5
100
AcDbSymbolTable
 70
6
  0
LTYPE
  5
14
100
AcDbSymbolTableRecord
100
AcDbLinetypeTableRecord
  2
BYBLOCK
 70
0
  3

 72
65
 73
0
 40
0.0
  0
LTYPE
  5
15
100
AcDbSymbolTableRecord
100
AcDbLinetypeTableRecord
  2
BYLAYER
 70
0
  3

 72
65
 73
0
 40
0.0
  0
LTYPE
  5
16
100
AcDbSymbolTableRecord
100
AcDbLinetypeTableRecord
  2
CONTINUOUS
 70
64
  3
Solid line
 72
65
 73
0
 40
0.0
  0
LTYPE
  5
1F5
100
AcDbSymbolTableRecord
100
AcDbLinetypeTableRecord
  2
CENTER
 70
64
  3
____ _ ____ _ ____ _ ____ _ ____ _ ____ _ ____
 72
65
 73
4
 40
0.6
 49
0.375
 74
0
 49
-0.075
 74
0
 49
0.075
 74
0
 49
-0.075
 74
0
  0
LTYPE
  5
1F6
100
AcDbSymbolTableRecord
100
AcDbLinetypeTableRecord
  2
HIDDEN
 70
64
  3
- - - - - - - - - - - - - - - - - - - -
 72
65
 73
2
 40
0.2
 49
0.1
 74
0
 49
-0.1
 74
0
  0
LTYPE
  5
1F7
100
AcDbSymbolTableRecord
100
AcDbLinetypeTableRecord
  2
PHANTOM
 70
64
  3
_____ _ _ _____ _ _ _____ _ _ _____
 72
65
 73
6
 40
0.8
 49
0.45
 74
0
 49
-0.05
 74
0
 49
0.1
 74
0
 49
-0.05
 74
0
 49
0.1
 74
0
 49
-0.05
 74
0
  0
LTYPE
  5
1F8
100
AcDbSymbolTableRecord
100
AcDbLinetypeTableRecord
  2
DOT
 70
64
  3
. . . . . . . . . . . . . . . . . . . .
 72
65
 73
2
 40
0.2
 49
0.1
 74
0
 49
-0.1
 74
0
  0
LTYPE
  5
1F9
100
AcDbSymbolTableRecord
100
AcDbLinetypeTableRecord
  2
DASHED
 70
64
  3
- - - - - - - - - - - - - - - - - - - -
 72
65
 73
2
 40
0.2
 49
0.1
 74
0
 49
-0.1
 74
0
  0
ENDTAB
  0
TABLE
  2
LAYER
  5
2
100
AcDbSymbolTable
 70
36
  0
LAYER
  5
10
100
AcDbSymbolTableRecord
100
AcDbLayerTableRecord
  2
0
 70
0
 62
7
  6
CONTINUOUS
370
-3
390
F
  0
LAYER
  5
1FA
100
AcDbSymbolTableRecord
100
AcDbLayerTableRecord
  2
DEFAULT_1
 70
0
 62
7
  6
CENTER
370
-3
390
F
  0
LAYER
  5
1FB
100
AcDbSymbolTableRecord
100
AcDbLayerTableRecord
  2
DEFAULT_2
 70
0
 62
8
  6
HIDDEN
370
-3
390
F
  0
LAYER
  5
1FC
100
AcDbSymbolTableRecord
100
AcDbLayerTableRecord
  2
DEFAULT_3
 70
0
 62
7
  6
PHANTOM
370
-3
390
F
  0
LAYER
  5
1FD
100
AcDbSymbolTableRecord
100
AcDbLayerTableRecord
  2
01_ALL_DTM_PLN
 70
0
 62
7
  6
CONTINUOUS
370
-3
390
F
  0
LAYER
  5
1FE
100
AcDbSymbolTableRecord
100
AcDbLayerTableRecord
  2
01__ASM_ALL_DTM_PLN
 70
0
 62
7
  6
CONTINUOUS
370
-3
390
F
  0
LAYER
  5
1FF
100
AcDbSymbolTableRecord
100
AcDbLayerTableRecord
  2
01__ASM_DEF_DTM_PLN
 70
0
 62
7
  6
CONTINUOUS
370
-3
390
F
  0
LAYER
  5
200
100
AcDbSymbolTableRecord
100
AcDbLayerTableRecord
  2
01___PRT_ALL_DTM_PLN
 70
0
 62
7
  6
CONTINUOUS
370
-3
390
F
  0
LAYER
  5
201
100
AcDbSymbolTableRecord
100
AcDbLayerTableRecord
  2
01___PRT_DEF_DTM_PLN
 70
0
 62
7
  6
CONTINUOUS
370
-3
390
F
  0
LAYER
  5
202
100
AcDbSymbolTableRecord
100
AcDbLayerTableRecord
  2
02_ALL_AXES
 70
0
 62
7
  6
CONTINUOUS
370
-3
390
F
  0
LAYER
  5
203
100
AcDbSymbolTableRecord
100
AcDbLayerTableRecord
  2
02__ASM_ALL_AXES
 70
0
 62
7
  6
CONTINUOUS
370
-3
390
F
  0
LAYER
  5
204
100
AcDbSymbolTableRecord
100
AcDbLayerTableRecord
  2
02___PRT_ALL_AXES
 70
0
 62
7
  6
CONTINUOUS
370
-3
390
F
  0
LAYER
  5
205
100
AcDbSymbolTableRecord
100
AcDbLayerTableRecord
  2
03_ALL_CURVES
 70
0
 62
7
  6
CONTINUOUS
370
-3
390
F
  0
LAYER
  5
206
100
AcDbSymbolTableRecord
100
AcDbLayerTableRecord
  2
03__ASM_ALL_CURVES
 70
0
 62
7
  6
CONTINUOUS
370
-3
390
F
  0
LAYER
  5
207
100
AcDbSymbolTableRecord
100
AcDbLayerTableRecord
  2
03___PRT_ALL_CURVES
 70
0
 62
7
  6
CONTINUOUS
370
-3
390
F
  0
LAYER
  5
208
100
AcDbSymbolTableRecord
100
AcDbLayerTableRecord
  2
04_ALL_DTM_PNT
 70
0
 62
7
  6
CONTINUOUS
370
-3
390
F
  0
LAYER
  5
209
100
AcDbSymbolTableRecord
100
AcDbLayerTableRecord
  2
04__ASM_ALL_DTM_PNT
 70
0
 62
7
  6
CONTINUOUS
370
-3
390
F
  0
LAYER
  5
20A
100
AcDbSymbolTableRecord
100
AcDbLayerTableRecord
  2
04___PRT_ALL_DTM_PNT
 70
0
 62
7
  6
CONTINUOUS
370
-3
390
F
  0
LAYER
  5
20B
100
AcDbSymbolTableRecord
100
AcDbLayerTableRecord
  2
05_ALL_DTM_CSYS
 70
0
 62
7
  6
CONTINUOUS
370
-3
390
F
  0
LAYER
  5
20C
100
AcDbSymbolTableRecord
100
AcDbLayerTableRecord
  2
05__ASM_ALL_DTM_CSYS
 70
0
 62
7
  6
CONTINUOUS
370
-3
390
F
  0
LAYER
  5
20D
100
AcDbSymbolTableRecord
100
AcDbLayerTableRecord
  2
05__ASM_DEF_DTM_CSYS
 70
0
 62
7
  6
CONTINUOUS
370
-3
390
F
  0
LAYER
  5
20E
100
AcDbSymbolTableRecord
100
AcDbLayerTableRecord
  2
05___PRT_ALL_DTM_CSYS
 70
0
 62
7
  6
CONTINUOUS
370
-3
390
F
  0
LAYER
  5
20F
100
AcDbSymbolTableRecord
100
AcDbLayerTableRecord
  2
05___PRT_DEF_DTM_CSYS
 70
0
 62
7
  6
CONTINUOUS
370
-3
390
F
  0
LAYER
  5
210
100
AcDbSymbolTableRecord
100
AcDbLayerTableRecord
  2
06_ALL_SURFS
 70
0
 62
7
  6
CONTINUOUS
370
-3
390
F
  0
LAYER
  5
211
100
AcDbSymbolTableRecord
100
AcDbLayerTableRecord
  2
06__ASM_ALL_SURFS
 70
0
 62
7
  6
CONTINUOUS
370
-3
390
F
  0
LAYER
  5
212
100
AcDbSymbolTableRecord
100
AcDbLayerTableRecord
  2
06___PRT_ALL_SURFS
 70
0
 62
7
  6
CONTINUOUS
370
-3
390
F
  0
LAYER
  5
213
100
AcDbSymbolTableRecord
100
AcDbLayerTableRecord
  2
07__ASM_ALL_SKELETONS
 70
0
 62
7
  6
CONTINUOUS
370
-3
390
F
  0
ENDTAB
  0
TABLE
  2
STYLE
  5
3
100
AcDbSymbolTable
 70
1
  0
STYLE
  5
11
100
AcDbSymbolTableRecord
100
AcDbTextStyleTableRecord
  2
STANDARD
 70
0
 40
0.0
 41
0.8
 50
0.0
 71
0
 42
0.2
  3
txt
  4

  0
STYLE
  5
214
100
AcDbSymbolTableRecord
100
AcDbTextStyleTableRecord
  2
TEXTSTYLE_1
 70
0
 40
0.0
 41
0.8
 50
0.0
 71
0
 42
0.2
  3
gdt
  4

  0
ENDTAB
  0
TABLE
  2
VIEW
  5
6
100
AcDbSymbolTable
 70
0
  0
ENDTAB
  0
TABLE
  2
UCS
  5
7
100
AcDbSymbolTable
 70
0
  0
ENDTAB
  0
TABLE
  2
APPID
  5
9
100
AcDbSymbolTable
 70
1
  0
APPID
  5
215
100
AcDbSymbolTableRecord
100
AcDbRegAppTableRecord
  2
ACAD
 70
0
  0
ENDTAB
  0
TABLE
  2
BLOCK_RECORD
  5
1
100
AcDbSymbolTable
 70
0
  0
BLOCK_RECORD
  5
216
100
AcDbSymbolTableRecord
100
AcDbBlockTableRecord
  2
*Model_Space
  0
BLOCK_RECORD
  5
217
100
AcDbSymbolTableRecord
100
AcDbBlockTableRecord
  2
*Paper_Space
  0
BLOCK_RECORD
  5
218
100
AcDbSymbolTableRecord
100
AcDbBlockTableRecord
  2
_CLOSED
  0
ENDTAB
  0
TABLE
  2
DIMSTYLE
  5
A
100
AcDbSymbolTable
 70
1
100
AcDbDimStyleTable
 71
0
  0
DIMSTYLE
105
219
100
AcDbSymbolTableRecord
100
AcDbDimStyleTableRecord
  2
STANDARD
 70
0
  3

  4

 40
1.0
 41
0.1875
 42
0.0625
 43
0.38
 44
0.125
 45
0.0
 46
0.0
 47
0.01
 48
0.01
140
0.15625
141
0.09
142
0.0
143
25.4
144
1.0
145
0.0
146
1.0
147
0.625
 71
0.0
 72
0.0
 73
1
 74
1
 75
0
 76
0
 77
0
 78
8
 79
2
170
0
171
1
172
0
173
0
174
0
175
0
176
0
177
0
178
0
270
2
179
2
271
2
272
2
273
2
274
2
275
0
280
0
281
0
282
0
283
1
284
8
285
0
286
0
287
3
288
0
340
11
278
46
341
218
342
218
343
218
344
218
  0
ENDTAB
  0
ENDSEC
  0
SECTION
  2
BLOCKS
  0
BLOCK
  5
20
100
AcDbEntity
  8
0
100
AcDbBlockBegin
  2
*Model_Space
 70
0
 10
0.0
 20
0.0
 30
0.0
  3
*Model_Space
  1

  0
ENDBLK
  5
21
100
AcDbEntity
  8
0
100
AcDbBlockEnd
  0
BLOCK
  5
1C
100
AcDbEntity
  8
0
100
AcDbBlockBegin
  2
*Paper_Space
 70
0
 10
0.0
 20
0.0
 30
0.0
  3
*Paper_Space
  1

  0
ENDBLK
  5
1D
100
AcDbEntity
  8
0
100
AcDbBlockEnd
  0
BLOCK
  5
21A
100
AcDbEntity
  8
0
100
AcDbBlockBegin
  2
_CLOSED
 70
64
 10
0.0
 20
0.0
  3
_CLOSED
  1

  0
LINE
  5
21B
100
AcDbEntity
  8
0
  6
BYBLOCK
 62
0
100
AcDbLine
 10
0.0
 20
0.0
 11
-1.0
 21
0.1666666667
  0
LINE
  5
21C
100
AcDbEntity
  8
0
  6
BYBLOCK
 62
0
100
AcDbLine
 10
-1.0
 20
0.1666666667
 11
-1.0
 21
-0.1666666667
  0
LINE
  5
21D
100
AcDbEntity
  8
0
  6
BYBLOCK
 62
0
100
AcDbLine
 10
-1.0
 20
-0.1666666667
 11
0.0
 21
0.0
  0
LINE
  5
21E
100
AcDbEntity
  8
0
  6
BYBLOCK
 62
0
100
AcDbLine
 10
-1.0
 20
0.0
 11
0.0
 21
0.0
  0
ENDBLK
  5
21F
100
AcDbEntity
  8
0
  6
BYBLOCK
 62
0
100
AcDbBlockEnd
  0
ENDSEC
  0
SECTION
  2
ENTITIES
  0
LINE
  5
220
100
AcDbEntity
  8
0
100
AcDbLine
 62
7
  6
CONTINUOUS
 10
-35.253298551
 20
133.9324292121
 11
-75.249118067
 21
123.2113305066
  0
LINE
  5
221
100
AcDbEntity
  8
0
100
AcDbLine
 62
7
  6
CONTINUOUS
 10
-50.6586863182
 20
134.270914586
 11
-40.5623101541
 21
136.977303572
  0
LINE
  5
222
100
AcDbEntity
  8
0
100
AcDbLine
 62
7
  6
CONTINUOUS
 10
-79.2503190246
 20
123.6384976957
 11
-84.8804744188
 21
126.8903708899
  0
LINE
  5
223
100
AcDbEntity
  8
0
100
AcDbLine
 62
7
  6
CONTINUOUS
 10
-87.4908439367
 20
132.0456128931
 11
-81.8606885424
 21
128.793739699
  0
LINE
  5
224
100
AcDbEntity
  8
0
100
AcDbLine
 62
7
  6
CONTINUOUS
 10
-50.6586863182
 20
134.270914586
 11
-52.8978531418
 21
135.5642124227
  0
LINE
  5
225
100
AcDbEntity
  8
0
100
AcDbLine
 62
7
  6
CONTINUOUS
 10
-28.563372509
 20
124.9643172444
 11
-26.592818121
 21
123.8261616264
  0
LINE
  5
226
100
AcDbEntity
  8
0
100
AcDbLine
 62
7
  6
CONTINUOUS
 10
-36.9105756109
 20
134.6824417281
 11
-40.7818935098
 21
136.9184430496
  0
LINE
  5
227
100
AcDbEntity
  8
0
100
AcDbLine
 62
7
  6
CONTINUOUS
 10
-59.1948049071
 20
147.5533987134
 11
-59.9942127273
 21
148.015121824
  0
LINE
  5
228
100
AcDbEntity
  8
0
100
AcDbLine
 62
7
  6
CONTINUOUS
 10
-31.4873568947
 20
145.85678638
 11
-32.1575331732
 21
146.2218879209
  0
LINE
  5
229
100
AcDbEntity
  8
0
100
AcDbLine
 62
7
  6
CONTINUOUS
 10
-27.2776168642
 20
141.3487529586
 11
-37.2427680183
 21
147.0074469631
  0
LINE
  5
22A
100
AcDbEntity
  8
0
100
AcDbLine
 62
7
  6
CONTINUOUS
 10
-45.5557336138
 20
151.1381535168
 11
-37.5574980286
 21
146.5831311147
  0
LINE
  5
22B
100
AcDbEntity
  8
0
100
AcDbLine
 62
7
  6
CONTINUOUS
 10
-30.5259996533
 20
132.2955332654
 11
-28.563372509
 21
131.1619562762
  0
LINE
  5
22C
100
AcDbEntity
  8
0
100
AcDbLine
 62
7
  6
CONTINUOUS
 10
-22.8634757608
 20
127.8698017712
 11
-21.4559369122
 21
127.0568334727
  0
LINE
  5
22D
100
AcDbEntity
  8
0
100
AcDbLine
 62
7
  6
CONTINUOUS
 10
-88.7731466247
 20
172.6054640938
 11
-89.479535308
 21
173.0134593565
  0
LINE
  5
22E
100
AcDbEntity
  8
0
100
AcDbLine
 62
7
  6
CONTINUOUS
 10
-44.402525412
 20
147.940877337
 11
-21.5869675017
 21
134.763034812
  0
LINE
  5
22F
100
AcDbEntity
  8
0
100
AcDbLine
 62
7
  6
CONTINUOUS
 10
-23.5903004116
 20
141.2063657171
 11
-13.3225044075
 21
135.2758774356
  0
LINE
  5
230
100
AcDbEntity
  8
0
100
AcDbLine
 62
7
  6
CONTINUOUS
 10
-36.1255178441
 20
148.5137124607
 11
-32.1575331911
 21
146.2218878898
  0
LINE
  5
231
100
AcDbEntity
  8
0
100
AcDbLine
 62
7
  6
CONTINUOUS
 10
-36.0812851202
 20
148.5733465763
 11
-33.4205994172
 21
147.0365904134
  0
LINE
  5
232
100
AcDbEntity
  8
0
100
AcDbLine
 62
7
  6
CONTINUOUS
 10
-13.3225044075
 20
136.9783694558
 11
-21.1644287854
 21
141.5077193385
  0
LINE
  5
233
100
AcDbEntity
  8
0
100
AcDbLine
 62
7
  6
CONTINUOUS
 10
-87.4908439367
 20
132.0456128931
 11
-87.4908439367
 21
215.7050627153
  0
LINE
  5
234
100
AcDbEntity
  8
0
100
AcDbLine
 62
7
  6
CONTINUOUS
 10
-85.238781779
 20
214.4043134377
 11
-85.238781779
 21
130.7448636154
  0
LINE
  5
235
100
AcDbEntity
  8
0
100
AcDbLine
 62
7
  6
CONTINUOUS
 10
-81.8606885424
 20
128.793739699
 11
-81.8606885424
 21
212.4531895212
  0
LINE
  5
236
100
AcDbEntity
  8
0
100
AcDbLine
 62
7
  6
CONTINUOUS
 10
-87.544006135
 20
198.8872120057
 11
-87.5561678819
 21
198.8541337462
  0
LINE
  5
237
100
AcDbEntity
  8
0
100
AcDbLine
 62
7
  6
CONTINUOUS
 10
-87.4908439367
 20
198.8745988946
 11
-87.5041252822
 21
198.8418501851
  0
LINE
  5
238
100
AcDbEntity
  8
0
100
AcDbLine
 62
7
  6
CONTINUOUS
 10
-41.8780797328
 20
172.2988833001
 11
-44.5744546129
 21
173.864399089
  0
LINE
  5
239
100
AcDbEntity
  8
0
100
AcDbLine
 62
7
  6
CONTINUOUS
 10
-87.5132753021
 20
198.8192883642
 11
-87.662626357
 21
198.9061308113
  0
LINE
  5
23A
100
AcDbEntity
  8
0
100
AcDbLine
 62
7
  6
CONTINUOUS
 10
-41.7785255095
 20
180.2580289965
 11
-39.2427123638
 21
178.8098996953
  0
LINE
  5
23B
100
AcDbEntity
  8
0
100
AcDbLine
 62
7
  6
CONTINUOUS
 10
-81.8606885424
 20
212.4531895212
 11
-87.4908439367
 21
215.7050627153
  0
LINE
  5
23C
100
AcDbEntity
  8
0
100
AcDbLine
 62
7
  6
CONTINUOUS
 10
-58.1817047398
 20
221.1794873481
 11
-58.1838320593
 21
221.5935633821
  0
LINE
  5
23D
100
AcDbEntity
  8
0
100
AcDbLine
 62
7
  6
CONTINUOUS
 10
-58.0042614192
 20
221.1762055313
 11
-58.0294335553
 21
219.8151824478
  0
LINE
  5
23E
100
AcDbEntity
  8
0
100
AcDbLine
 62
7
  6
CONTINUOUS
 10
-58.1919018084
 20
221.1796809607
 11
-58.2364070787
 21
218.8357141027
  0
LINE
  5
23F
100
AcDbEntity
  8
0
100
AcDbLine
 62
7
  6
CONTINUOUS
 10
-55.1891010319
 20
243.0680249059
 11
-55.2717793196
 21
238.862656625
  0
LINE
  5
240
100
AcDbEntity
  8
0
100
AcDbLine
 62
7
  6
CONTINUOUS
 10
-53.5103326854
 20
228.0267556812
 11
-53.3182507805
 21
229.1726974595
  0
LINE
  5
241
100
AcDbEntity
  8
0
100
AcDbLine
 62
7
  6
CONTINUOUS
 10
-75.249118067
 20
221.5801341437
 11
-58.0862566376
 21
226.1807332483
  0
LINE
  5
242
100
AcDbEntity
  8
0
100
AcDbLine
 62
7
  6
CONTINUOUS
 10
-78.6272113036
 20
223.5312580602
 11
-58.0314506294
 21
229.0520646289
  0
LINE
  5
243
100
AcDbEntity
  8
0
100
AcDbLine
 62
7
  6
CONTINUOUS
 10
-41.2199056339
 20
223.6651635829
 11
-38.6423235559
 21
224.16592651
  0
LINE
  5
244
100
AcDbEntity
  8
0
100
AcDbLine
 62
7
  6
CONTINUOUS
 10
-38.6423235559
 20
226.9239303503
 11
-45.1139897115
 21
225.6680716332
  0
LINE
  5
245
100
AcDbEntity
  8
0
100
AcDbLine
 62
7
  6
CONTINUOUS
 10
30.84024217
 20
245.9143583472
 11
37.3119083256
 21
247.1702170643
  0
LINE
  5
246
100
AcDbEntity
  8
0
100
AcDbLine
 62
7
  6
CONTINUOUS
 10
-43.4546198807
 20
228.6734052353
 11
-34.6895048951
 21
230.0156084944
  0
LINE
  5
247
100
AcDbEntity
  8
0
100
AcDbLine
 62
7
  6
CONTINUOUS
 10
-43.9869933928
 20
229.2116671885
 11
-39.4664769339
 21
229.9038944935
  0
LINE
  5
248
100
AcDbEntity
  8
0
100
AcDbLine
 62
7
  6
CONTINUOUS
 10
-80.8792734613
 20
224.8320073379
 11
-75.2491180669
 21
221.5801341437
  0
LINE
  5
249
100
AcDbEntity
  8
0
100
AcDbLine
 62
7
  6
CONTINUOUS
 10
1.0959614762
 20
178.1242815784
 11
2.9194005956
 21
177.0711014522
  0
LINE
  5
24A
100
AcDbEntity
  8
0
100
AcDbLine
 62
7
  6
CONTINUOUS
 10
-80.8792734613
 20
224.8320073379
 11
-57.9949132905
 21
230.9662855492
  0
LINE
  5
24B
100
AcDbEntity
  8
0
100
AcDbLine
 62
7
  6
CONTINUOUS
 10
-37.9078156883
 20
232.9005763439
 11
-46.3560240324
 21
231.6069010423
  0
LINE
  5
24C
100
AcDbEntity
  8
0
100
AcDbLine
 62
7
  6
CONTINUOUS
 10
-1.9549223949
 20
184.801931237
 11
1.8127586906
 21
182.6257977984
  0
LINE
  5
24D
100
AcDbEntity
  8
0
100
AcDbLine
 62
7
  6
CONTINUOUS
 10
1.992366032
 20
180.2893384691
 11
5.5163672249
 21
178.232899015
  0
LINE
  5
24E
100
AcDbEntity
  8
0
100
AcDbLine
 62
7
  6
CONTINUOUS
 10
-3.954670997
 20
194.7811919962
 11
-8.4613955992
 21
197.421190073
  0
LINE
  5
24F
100
AcDbEntity
  8
0
100
AcDbLine
 62
7
  6
CONTINUOUS
 10
-39.4010406929
 20
236.8788116555
 11
-39.4010406929
 21
238.022290893
  0
LINE
  5
250
100
AcDbEntity
  8
0
100
AcDbLine
 62
7
  6
CONTINUOUS
 10
-38.6423235559
 20
224.16592651
 11
-38.6423235559
 21
226.9239303503
  0
LINE
  5
251
100
AcDbEntity
  8
0
100
AcDbLine
 62
7
  6
CONTINUOUS
 10
-37.5909090468
 20
232.0297696879
 11
-37.5909090468
 21
232.5312543653
  0
LINE
  5
252
100
AcDbEntity
  8
0
100
AcDbLine
 62
7
  6
CONTINUOUS
 10
-21.6330134346
 20
218.2566871379
 11
-19.9212686507
 21
221.0149368263
  0
LINE
  5
253
100
AcDbEntity
  8
0
100
AcDbLine
 62
7
  6
CONTINUOUS
 10
-46.3560240324
 20
231.6069010423
 11
-43.4546198807
 21
228.6734052353
  0
LINE
  5
254
100
AcDbEntity
  8
0
100
AcDbLine
 62
7
  6
CONTINUOUS
 10
-28.563372509
 20
131.8305589382
 11
-28.563372509
 21
124.9643172444
  0
LINE
  5
255
100
AcDbEntity
  8
0
100
AcDbLine
 62
7
  6
CONTINUOUS
 10
-26.592818121
 20
131.7293274314
 11
-26.592818121
 21
123.8261616264
  0
LINE
  5
256
100
AcDbEntity
  8
0
100
AcDbLine
 62
7
  6
CONTINUOUS
 10
-21.5869675017
 20
133.0605427918
 11
-21.5869675017
 21
134.763034812
  0
LINE
  5
257
100
AcDbEntity
  8
0
100
AcDbLine
 62
7
  6
CONTINUOUS
 10
13.8309313159
 20
254.5816003263
 11
12.1191872648
 21
251.8233518712
  0
LINE
  5
258
100
AcDbEntity
  8
0
100
AcDbLine
 62
7
  6
CONTINUOUS
 10
13.6485902601
 20
251.5249501692
 11
13.8465488297
 21
251.8433092431
  0
LINE
  5
259
100
AcDbEntity
  8
0
100
AcDbLine
 62
7
  6
CONTINUOUS
 10
2.9194005956
 20
177.0711014523
 11
5.5163672249
 21
178.232899015
  0
LINE
  5
25A
100
AcDbEntity
  8
0
100
AcDbLine
 62
7
  6
CONTINUOUS
 10
-13.3225044075
 20
136.9783694558
 11
-13.3225044075
 21
135.2758774356
  0
LINE
  5
25B
100
AcDbEntity
  8
0
100
AcDbLine
 62
7
  6
CONTINUOUS
 10
-35.7674281553
 20
148.9964853936
 11
-37.5574980286
 21
146.5831311147
  0
LINE
  5
25C
100
AcDbEntity
  8
0
100
AcDbLine
 62
7
  6
CONTINUOUS
 10
13.7674728263
 20
251.7161383746
 11
13.8281543047
 21
251.707895441
  0
LINE
  5
25D
100
AcDbEntity
  8
0
100
AcDbLine
 62
7
  6
CONTINUOUS
 10
13.7962096147
 20
251.7455071453
 11
13.8561611477
 21
251.7364072916
  0
LINE
  5
25E
100
AcDbEntity
  8
0
100
AcDbLine
 62
7
  6
CONTINUOUS
 10
31.5989593071
 20
236.8788116555
 11
31.5989593071
 21
238.022290893
  0
LINE
  5
25F
100
AcDbEntity
  8
0
100
AcDbLine
 62
7
  6
CONTINUOUS
 10
45.7082512995
 20
244.8115330163
 11
45.5161303685
 21
243.518612284
  0
LINE
  5
260
100
AcDbEntity
  8
0
100
AcDbLine
 62
7
  6
CONTINUOUS
 10
45.754335339
 20
242.4489138913
 11
45.7082512995
 21
244.8115330163
  0
LINE
  5
261
100
AcDbEntity
  8
0
100
AcDbLine
 62
7
  6
CONTINUOUS
 10
50.3796233539
 20
221.6884929516
 11
50.3818913267
 21
221.5935638108
  0
LINE
  5
262
100
AcDbEntity
  8
0
100
AcDbLine
 62
7
  6
CONTINUOUS
 10
50.3819619594
 20
221.5935640112
 11
50.4343256929
 21
218.8357141027
  0
ARC
  5
263
100
AcDbEntity
  8
0
100
AcDbCircle
 62
7
  6
CONTINUOUS
 10
-22.4526141005
 20
201.296439852
 40
53.8524365204
100
AcDbArc
 50
111.9596760531
 51
114.539379466
  0
ARC
  5
264
100
AcDbEntity
  8
0
100
AcDbCircle
 62
7
  6
CONTINUOUS
 10
-59.1309520658
 20
192.2943076021
 40
40.9422293156
100
AcDbArc
 50
158.8558632039
 51
159.0654116056
  0
ARC
  5
265
100
AcDbEntity
  8
0
100
AcDbCircle
 62
7
  6
CONTINUOUS
 10
-57.4517809997
 20
191.3295462592
 40
40.9292628214
100
AcDbArc
 50
155.6255185695
 51
161.6805468595
  0
ARC
  5
266
100
AcDbEntity
  8
0
100
AcDbCircle
 62
7
  6
CONTINUOUS
 10
-57.48810797
 20
191.4811224111
 40
39.3087848193
100
AcDbArc
 50
152.0072866647
 51
153.1580548864
  0
ARC
  5
267
100
AcDbEntity
  8
0
100
AcDbCircle
 62
7
  6
CONTINUOUS
 10
-57.719154032
 20
191.6411856569
 40
39.0296561548
100
AcDbArc
 50
139.4792568234
 51
152.0555743911
  0
ARC
  5
268
100
AcDbEntity
  8
0
100
AcDbCircle
 62
7
  6
CONTINUOUS
 10
-61.4604690957
 20
196.182239795
 40
34.6962250137
100
AcDbArc
 50
124.1095570426
 51
124.5107030257
  0
ARC
  5
269
100
AcDbEntity
  8
0
100
AcDbCircle
 62
7
  6
CONTINUOUS
 10
-23.4567039289
 20
175.7665706873
 40
29.077854589
100
AcDbArc
 50
0.1013611169
 51
4.8655648935
  0
ARC
  5
26A
100
AcDbEntity
  8
0
100
AcDbCircle
 62
7
  6
CONTINUOUS
 10
-18.55732383
 20
175.7873155315
 40
21.4873242078
100
AcDbArc
 50
12.8280938305
 51
18.5575228144
  0
ARC
  5
26B
100
AcDbEntity
  8
0
100
AcDbCircle
 62
7
  6
CONTINUOUS
 10
-78.4969486303
 20
188.1157226654
 40
18.5707648853
100
AcDbArc
 50
233.9973575164
 51
236.1523043139
  0
ARC
  5
26C
100
AcDbEntity
  8
0
100
AcDbCircle
 62
7
  6
CONTINUOUS
 10
-24.4853174901
 20
159.5028767612
 40
15.3377820568
100
AcDbArc
 50
234.3687222164
 51
239.9856580522
  0
ARC
  5
26D
100
AcDbEntity
  8
0
100
AcDbCircle
 62
7
  6
CONTINUOUS
 10
-74.7682612057
 20
213.9473004649
 40
10.5348112172
100
AcDbArc
 50
146.8713569948
 51
150.5901177624
  0
ARC
  5
26E
100
AcDbEntity
  8
0
100
AcDbCircle
 62
7
  6
CONTINUOUS
 10
-74.8183792409
 20
213.9749312347
 40
10.4775837506
100
AcDbArc
 50
150.5871610244
 51
156.2752733731
  0
ARC
  5
26F
100
AcDbEntity
  8
0
100
AcDbCircle
 62
7
  6
CONTINUOUS
 10
-74.8818842635
 20
214.023040852
 40
10.3982644839
100
AcDbArc
 50
141.2818031218
 51
146.8786915479
  0
ARC
  5
270
100
AcDbEntity
  8
0
100
AcDbCircle
 62
7
  6
CONTINUOUS
 10
-74.9640852481
 20
214.0390528972
 40
10.3183926019
100
AcDbArc
 50
156.2757114956
 51
159.8819476915
  0
ARC
  5
271
100
AcDbEntity
  8
0
100
AcDbCircle
 62
7
  6
CONTINUOUS
 10
-75.0686538831
 20
214.1718868957
 40
10.1594391276
100
AcDbArc
 50
137.4681070709
 51
141.2779218825
  0
ARC
  5
272
100
AcDbEntity
  8
0
100
AcDbCircle
 62
7
  6
CONTINUOUS
 10
-75.3481744323
 20
214.1739027508
 40
9.911357425
100
AcDbArc
 50
159.8502254625
 51
166.312457689
  0
ARC
  5
273
100
AcDbEntity
  8
0
100
AcDbCircle
 62
7
  6
CONTINUOUS
 10
-75.3471163156
 20
214.4284056075
 40
9.7808330916
100
AcDbArc
 50
131.5245854226
 51
137.4727242851
  0
ARC
  5
274
100
AcDbEntity
  8
0
100
AcDbCircle
 62
7
  6
CONTINUOUS
 10
-75.7360216914
 20
214.2692123477
 40
9.5119720201
100
AcDbArc
 50
166.3174437775
 51
169.5552914585
  0
ARC
  5
275
100
AcDbEntity
  8
0
100
AcDbCircle
 62
7
  6
CONTINUOUS
 10
-75.6619571534
 20
214.77622227
 40
9.3117131299
100
AcDbArc
 50
127.6362717799
 51
131.4930185166
  0
ARC
  5
276
100
AcDbEntity
  8
0
100
AcDbCircle
 62
7
  6
CONTINUOUS
 10
-49.7770056669
 20
221.4334025463
 40
8.4085470783
100
AcDbArc
 50
178.3114025342
 51
178.9085952885
  0
ARC
  5
277
100
AcDbEntity
  8
0
100
AcDbCircle
 62
7
  6
CONTINUOUS
 10
-76.3803833466
 20
215.8298009711
 40
8.0347021049
100
AcDbArc
 50
116.9366491586
 51
120.5601083158
  0
ARC
  5
278
100
AcDbEntity
  8
0
100
AcDbCircle
 62
7
  6
CONTINUOUS
 10
-78.5328646535
 20
130.5716977861
 40
6.6923437299
100
AcDbArc
 50
191.5201711096
 51
195.6196981154
  0
ARC
  5
279
100
AcDbEntity
  8
0
100
AcDbCircle
 62
7
  6
CONTINUOUS
 10
-79.5404883978
 20
130.2000881106
 40
5.6162452399
100
AcDbArc
 50
204.4539484608
 51
209.8730716197
  0
ARC
  5
27A
100
AcDbEntity
  8
0
100
AcDbCircle
 62
7
  6
CONTINUOUS
 10
-27.3945092576
 20
142.8635611427
 40
5.0705817321
100
AcDbArc
 50
136.2029076139
 51
143.8208482934
  0
ARC
  5
27B
100
AcDbEntity
  8
0
100
AcDbCircle
 62
7
  6
CONTINUOUS
 10
-80.1141140554
 20
129.8151000631
 40
4.9240017386
100
AcDbArc
 50
218.9133186706
 51
225.0869877502
  0
ARC
  5
27C
100
AcDbEntity
  8
0
100
AcDbCircle
 62
7
  6
CONTINUOUS
 10
-80.2836143102
 20
129.6405582571
 40
4.6807232233
100
AcDbArc
 50
225.0478714714
 51
236.7136646822
  0
ARC
  5
27D
100
AcDbEntity
  8
0
100
AcDbCircle
 62
7
  6
CONTINUOUS
 10
-80.3132423459
 20
129.5971987121
 40
4.6282168605
100
AcDbArc
 50
236.725678817
 51
239.985053488
  0
ARC
  5
27E
100
AcDbEntity
  8
0
100
AcDbCircle
 62
7
  6
CONTINUOUS
 10
-83.9288535129
 20
200.6141973831
 40
4.1218158563
100
AcDbArc
 50
177.9891950456
 51
180.1344311458
  0
ARC
  5
27F
100
AcDbEntity
  8
0
100
AcDbCircle
 62
7
  6
CONTINUOUS
 10
-38.3204177066
 20
175.6132997292
 40
3.3269924524
100
AcDbArc
 50
105.1694826365
 51
106.0941011093
  0
ARC
  5
280
100
AcDbEntity
  8
0
100
AcDbCircle
 62
7
  6
CONTINUOUS
 10
-17.7208923765
 20
283.5672946092
 40
66.7765005878
100
AcDbArc
 50
249.0731234098
 51
251.2915428242
  0
ARC
  5
281
100
AcDbEntity
  8
0
100
AcDbCircle
 62
7
  6
CONTINUOUS
 10
-29.6788200647
 20
239.151773899
 40
10.352635831
100
AcDbArc
 50
218.2643161099
 51
221.6685776355
  0
ARC
  5
282
100
AcDbEntity
  8
0
100
AcDbCircle
 62
7
  6
CONTINUOUS
 10
-30.1079460272
 20
238.8098764504
 40
9.8039689853
100
AcDbArc
 50
217.8103331667
 51
218.248586741
  0
ARC
  5
283
100
AcDbEntity
  8
0
100
AcDbCircle
 62
7
  6
CONTINUOUS
 10
-49.3650128061
 20
236.4314578491
 40
8.536348042
100
AcDbArc
 50
181.9861474368
 51
190.7507967041
  0
ARC
  5
284
100
AcDbEntity
  8
0
100
AcDbCircle
 62
7
  6
CONTINUOUS
 10
-33.7937627594
 20
238.0289231745
 40
5.6072818868
100
AcDbArc
 50
180.0677693462
 51
191.4523621649
  0
ARC
  5
285
100
AcDbEntity
  8
0
100
AcDbCircle
 62
7
  6
CONTINUOUS
 10
-3.9048106746
 20
120.8126567458
 40
136.8542117594
100
AcDbArc
 50
90.3001102983
 51
91.6798369021
  0
ARC
  5
286
100
AcDbEntity
  8
0
100
AcDbCircle
 62
7
  6
CONTINUOUS
 10
-2.1583905479
 20
139.642389674
 40
117.9352079222
100
AcDbArc
 50
81.0956388497
 51
82.6168566238
  0
ARC
  5
287
100
AcDbEntity
  8
0
100
AcDbCircle
 62
7
  6
CONTINUOUS
 10
-7.4607632231
 20
150.7457888664
 40
106.6836588522
100
AcDbArc
 50
99.5877924429
 51
101.219846498
  0
ARC
  5
288
100
AcDbEntity
  8
0
100
AcDbCircle
 62
7
  6
CONTINUOUS
 10
9.9188109905
 20
189.2709940881
 40
66.776500588
100
AcDbArc
 50
69.0731234098
 51
71.2915428242
  0
ARC
  5
289
100
AcDbEntity
  8
0
100
AcDbCircle
 62
7
  6
CONTINUOUS
 10
58.1093552239
 20
210.4380494104
 40
13.6499536503
100
AcDbArc
 50
124.4914080181
 51
124.746654917
  0
ARC
  5
28A
100
AcDbEntity
  8
0
100
AcDbCircle
 62
7
  6
CONTINUOUS
 10
41.5629314202
 20
236.4068308484
 40
8.536348042
100
AcDbArc
 50
1.9861474368
 51
10.7507967041
  0
ARC
  5
28B
100
AcDbEntity
  8
0
100
AcDbCircle
 62
7
  6
CONTINUOUS
 10
2.1597476019
 20
186.6679921275
 40
3.2494009071
100
AcDbArc
 50
102.7051308991
 51
105.1753882992
  0
ARC
  5
28C
100
AcDbEntity
  8
0
100
AcDbCircle
 62
7
  6
CONTINUOUS
 10
0.4766467313
 20
185.5903767407
 40
3.2494009071
100
AcDbArc
 50
282.7051308991
 51
285.1753882992
  0
ARC
  5
28D
100
AcDbEntity
  8
0
100
AcDbCircle
 62
7
  6
CONTINUOUS
 10
2.2661823735
 20
178.6815512278
 40
1.7378844971
100
AcDbArc
 50
285.2279086516
 51
292.0780792763
  0
ARC
  5
28E
100
AcDbEntity
  8
0
100
AcDbCircle
 62
7
  6
CONTINUOUS
 10
-3.9034894109
 20
337.2666938589
 40
137.1924134601
100
AcDbArc
 50
266.5558865846
 51
270.2711495222
  0
ARC
  5
28F
100
AcDbEntity
  8
0
100
AcDbCircle
 62
7
  6
CONTINUOUS
 10
-3.8972707113
 20
352.0256319517
 40
136.8542117594
100
AcDbArc
 50
270.3001102983
 51
271.6798369021
  0
ARC
  5
290
100
AcDbEntity
  8
0
100
AcDbCircle
 62
7
  6
CONTINUOUS
 10
-4.3643624923
 20
329.5316312584
 40
129.4436345506
100
AcDbArc
 50
262.6990775868
 51
266.5538316161
  0
ARC
  5
291
100
AcDbEntity
  8
0
100
AcDbCircle
 62
7
  6
CONTINUOUS
 10
-5.6436908379
 20
333.1958990235
 40
117.9352079222
100
AcDbArc
 50
261.0956388497
 51
262.6168566238
  0
ARC
  5
292
100
AcDbEntity
  8
0
100
AcDbCircle
 62
7
  6
CONTINUOUS
 10
-0.3413181627
 20
322.0924998303
 40
106.6836588514
100
AcDbArc
 50
279.5877924429
 51
281.219846498
  0
ARC
  5
293
100
AcDbEntity
  8
0
100
AcDbCircle
 62
7
  6
CONTINUOUS
 10
14.6505327146
 20
271.5418488457
 40
53.8524365205
100
AcDbArc
 50
291.9596760531
 51
294.539379466
  0
SPLINE
  5
294
100
AcDbEntity
  8
0
100
AcDbSpline
 62
7
  6
CONTINUOUS
 70
0
 71
3
 72
9
 73
5
 74
0
 42
0.0000001
 43
0.0000001
 44
0.0000000001
 40
0.0
 40
0.0
 40
0.0
 40
0.0
 40
0.504382466
 40
1.0
 40
1.0
 40
1.0
 40
1.0
 10
-96.3833274666
 20
209.1267101034
 30
0.0
 10
-96.624752335
 20
208.8278969768
 30
0.0
 10
-97.029351012
 20
208.1721931345
 30
0.0
 10
-97.2598289786
 20
207.436061899
 30
0.0
 10
-97.322006976
 20
207.063738491
 30
0.0
  0
SPLINE
  5
295
100
AcDbEntity
  8
0
100
AcDbSpline
 62
7
  6
CONTINUOUS
 70
0
 71
3
 72
25
 73
21
 74
0
 42
0.0000001
 43
0.0000001
 44
0.0000000001
 40
0.0
 40
0.0
 40
0.0
 40
0.0
 40
0.0157126034
 40
0.0319506946
 40
0.0491802231
 40
0.0677690195
 40
0.1099235496
 40
0.1595827907
 40
0.2167958209
 40
0.2809671016
 40
0.351075894
 40
0.4258106235
 40
0.503662407
 40
0.5829998451
 40
0.6621355118
 40
0.7393895871
 40
0.8131533624
 40
0.8819584154
 40
0.9445509148
 40
1.0
 40
1.0
 40
1.0
 40
1.0
 10
-39.4010407239
 20
238.022290893
 30
0.0
 10
-39.4010388029
 20
238.3938846494
 30
0.0
 10
-39.323112557
 20
239.151561902
 30
0.0
 10
-38.9772914379
 20
240.2689229939
 30
0.0
 10
-38.4073172884
 20
241.3667140442
 30
0.0
 10
-37.3114102203
 20
242.8572803514
 30
0.0
 10
-35.3548148751
 20
244.6232582113
 30
0.0
 10
-32.3433779472
 20
246.4771724778
 30
0.0
 10
-28.6370878976
 20
248.1220274609
 30
0.0
 10
-24.3224210544
 20
249.5188511905
 30
0.0
 10
-19.5014892601
 20
250.6342125335
 30
0.0
 10
-14.292501357
 20
251.4395889401
 30
0.0
 10
-8.8243981064
 20
251.9143914152
 30
0.0
 10
-3.2334017407
 20
252.046361175
 30
0.0
 10
2.3409202145
 20
251.8321080955
 30
0.0
 10
7.7594876375
 20
251.2771300175
 30
0.0
 10
12.8873442022
 20
250.3957991313
 30
0.0
 10
17.5981673318
 20
249.2104487621
 30
0.0
 10
21.7757591825
 20
247.7516743391
 30
0.0
 10
24.3022649552
 20
246.5425947329
 30
0.0
 10
25.4378032917
 20
245.8867288786
 30
0.0
  0
SPLINE
  5
296
100
AcDbEntity
  8
0
100
AcDbSpline
 62
7
  6
CONTINUOUS
 70
0
 71
3
 72
9
 73
5
 74
0
 42
0.0000001
 43
0.0000001
 44
0.0000000001
 40
0.0
 40
0.0
 40
0.0
 40
0.0
 40
0.4834158648
 40
1.0
 40
1.0
 40
1.0
 40
1.0
 10
-39.401030567
 20
236.8788116553
 30
0.0
 10
-39.4010319837
 20
236.3356698406
 30
0.0
 10
-39.2290939897
 20
235.2068169012
 30
0.0
 10
-38.7534105443
 20
234.1741892825
 30
0.0
 10
-38.4552988052
 20
233.6761904271
 30
0.0
  0
SPLINE
  5
297
100
AcDbEntity
  8
0
100
AcDbSpline
 62
7
  6
CONTINUOUS
 70
0
 71
3
 72
9
 73
5
 74
0
 42
0.0000001
 43
0.0000001
 44
0.0000000001
 40
0.0
 40
0.0
 40
0.0
 40
0.0
 40
0.2440437944
 40
1.0
 40
1.0
 40
1.0
 40
1.0
 10
-38.4552988052
 20
233.6761904271
 30
0.0
 10
-38.4108559748
 20
233.6019482025
 30
0.0
 10
-38.2238380636
 20
233.3006829759
 30
0.0
 10
-38.0178317899
 20
233.0113155231
 30
0.0
 10
-37.8535174404
 20
232.7995577111
 30
0.0
  0
SPLINE
  5
298
100
AcDbEntity
  8
0
100
AcDbSpline
 62
7
  6
CONTINUOUS
 70
0
 71
3
 72
9
 73
5
 74
0
 42
0.0000001
 43
0.0000001
 44
0.0000000001
 40
0.0
 40
0.0
 40
0.0
 40
0.0
 40
0.2325275254
 40
1.0
 40
1.0
 40
1.0
 40
1.0
 10
-37.4122690333
 20
232.2691264651
 30
0.0
 10
-37.2327556507
 20
232.0670824209
 30
0.0
 10
-36.4288609785
 20
231.2265055501
 30
0.0
 10
-35.5139639078
 20
230.4968034863
 30
0.0
 10
-34.7810529822
 20
229.9882813775
 30
0.0
  0
SPLINE
  5
299
100
AcDbEntity
  8
0
100
AcDbSpline
 62
7
  6
CONTINUOUS
 70
0
 71
3
 72
9
 73
5
 74
0
 42
0.0000001
 43
0.0000001
 44
0.0000000001
 40
0.0
 40
0.0
 40
0.0
 40
0.0
 40
0.2426621252
 40
1.0
 40
1.0
 40
1.0
 40
1.0
 10
-34.7810529822
 20
229.9882813775
 30
0.0
 10
-34.6598748236
 20
229.9042032575
 30
0.0
 10
-34.1565919308
 20
229.5633759012
 30
0.0
 10
-33.6384845686
 20
229.2445975643
 30
0.0
 10
-33.2398846776
 20
229.0143736699
 30
0.0
  0
SPLINE
  5
29A
100
AcDbEntity
  8
0
100
AcDbSpline
 62
7
  6
CONTINUOUS
 70
0
 71
3
 72
11
 73
7
 74
0
 42
0.0000001
 43
0.0000001
 44
0.0000000001
 40
0.0
 40
0.0
 40
0.0
 40
0.0
 40
0.2736815098
 40
0.5333495966
 40
0.7762399745
 40
1.0
 40
1.0
 40
1.0
 40
1.0
 10
13.8561611477
 20
251.7364072916
 30
0.0
 10
15.6741353169
 20
251.4599268756
 30
0.0
 10
19.2038240381
 20
250.8283967663
 30
0.0
 10
24.2788384568
 20
249.6115238224
 30
0.0
 10
28.9433280058
 20
248.1643998279
 30
0.0
 10
31.8630376847
 20
247.0094620628
 30
0.0
 10
33.2332164172
 20
246.390606875
 30
0.0
  0
SPLINE
  5
29B
100
AcDbEntity
  8
0
100
AcDbSpline
 62
7
  6
CONTINUOUS
 70
0
 71
3
 72
12
 73
8
 74
0
 42
0.0000001
 43
0.0000001
 44
0.0000000001
 40
0.0
 40
0.0
 40
0.0
 40
0.0
 40
0.0996137483
 40
0.2080597036
 40
0.4487753159
 40
0.7156638629
 40
1.0
 40
1.0
 40
1.0
 40
1.0
 10
-33.2398846776
 20
229.0143736699
 30
0.0
 10
-32.5221034499
 20
228.5997965632
 30
0.0
 10
-30.9794254939
 20
227.8080734182
 30
0.0
 10
-27.5299133389
 20
226.3702522125
 30
0.0
 10
-22.6061252722
 20
224.8941151519
 30
0.0
 10
-16.1239094087
 20
223.6616491311
 30
0.0
 10
-11.5529940451
 20
223.2064265499
 30
0.0
 10
-9.1911264339
 20
223.0663762213
 30
0.0
  0
SPLINE
  5
29C
100
AcDbEntity
  8
0
100
AcDbSpline
 62
7
  6
CONTINUOUS
 70
0
 71
3
 72
17
 73
13
 74
0
 42
0.0000001
 43
0.0000001
 44
0.0000000001
 40
0.0
 40
0.0
 40
0.0
 40
0.0
 40
0.1546660735
 40
0.3084433155
 40
0.4568723617
 40
0.5957761232
 40
0.7215202735
 40
0.7785795782
 40
0.8314118737
 40
0.8798885382
 40
0.9240202542
 40
1.0
 40
1.0
 40
1.0
 40
1.0
 10
-9.1911264339
 20
223.0663762213
 30
0.0
 10
-6.9985568411
 20
222.9363646616
 30
0.0
 10
-2.614748073
 20
222.8401902668
 30
0.0
 10
3.8705050699
 20
223.1679982139
 30
0.0
 10
10.0918606313
 20
223.9551478198
 30
0.0
 10
15.8372167354
 20
225.1739520388
 30
0.0
 10
20.2032663595
 20
226.5546262015
 30
0.0
 10
23.2850224921
 20
227.8649674087
 30
0.0
 10
25.2874701634
 20
228.8930073117
 30
0.0
 10
27.0416596666
 20
229.9912199655
 30
0.0
 10
28.9316733526
 20
231.4602743372
 30
0.0
 10
30.0992453812
 20
232.7506768712
 30
0.0
 10
30.6534087608
 20
233.6764885358
 30
0.0
  0
SPLINE
  5
29D
100
AcDbEntity
  8
0
100
AcDbSpline
 62
7
  6
CONTINUOUS
 70
0
 71
3
 72
9
 73
5
 74
0
 42
0.0000001
 43
0.0000001
 44
0.0000000001
 40
0.0
 40
0.0
 40
0.0
 40
0.0
 40
0.5165736412
 40
1.0
 40
1.0
 40
1.0
 40
1.0
 10
30.6534087608
 20
233.6764885358
 30
0.0
 10
30.9514651244
 20
234.1744356546
 30
0.0
 10
31.4270086951
 20
235.2069915278
 30
0.0
 10
31.5989477646
 20
236.3357151757
 30
0.0
 10
31.5989491811
 20
236.8788116556
 30
0.0
  0
SPLINE
  5
29E
100
AcDbEntity
  8
0
100
AcDbSpline
 62
7
  6
CONTINUOUS
 70
0
 71
3
 72
13
 73
9
 74
0
 42
0.0000001
 43
0.0000001
 44
0.0000000001
 40
0.0
 40
0.0
 40
0.0
 40
0.0
 40
0.30745118
 40
0.444374449
 40
0.5707356865
 40
0.7961193261
 40
0.8995508988
 40
1.0
 40
1.0
 40
1.0
 40
1.0
 10
25.4378032917
 20
245.8867288786
 30
0.0
 10
26.3636160227
 20
245.3519966391
 30
0.0
 10
27.6583497841
 20
244.4921315273
 30
0.0
 10
29.1398968563
 20
243.1659303803
 30
0.0
 10
30.2761269364
 20
241.9005225107
 30
0.0
 10
31.1122534873
 20
240.5228437145
 30
0.0
 10
31.5303059065
 20
239.082357966
 30
0.0
 10
31.5989611438
 20
238.3715967622
 30
0.0
 10
31.598959338
 20
238.022290893
 30
0.0
  0
SPLINE
  5
29F
100
AcDbEntity
  8
0
100
AcDbSpline
 62
7
  6
CONTINUOUS
 70
0
 71
3
 72
9
 73
5
 74
0
 42
0.0000001
 43
0.0000001
 44
0.0000000001
 40
0.0
 40
0.0
 40
0.0
 40
0.0
 40
0.2488275295
 40
1.0
 40
1.0
 40
1.0
 40
1.0
 10
31.598959338
 20
238.022290893
 30
0.0
 10
31.5989588608
 20
237.929974537
 30
0.0
 10
31.5896192739
 20
237.5590155161
 30
0.0
 10
31.5425424406
 20
237.189106604
 30
0.0
 10
31.4873835531
 20
236.915930694
 30
0.0
  0
SPLINE
  5
2A0
100
AcDbEntity
  8
0
100
AcDbSpline
 62
7
  6
CONTINUOUS
 70
0
 71
3
 72
25
 73
21
 74
0
 42
0.0000001
 43
0.0000001
 44
0.0000000001
 40
0.0
 40
0.0
 40
0.0
 40
0.0
 40
0.0159680456
 40
0.0328681783
 40
0.0510448626
 40
0.0707508167
 40
0.1152906488
 40
0.1671005272
 40
0.2259607372
 40
0.2911614118
 40
0.3616598213
 40
0.4361819168
 40
0.5132970771
 40
0.5914803671
 40
0.6691692408
 40
0.7448185261
 40
0.8169558909
 40
0.8842422545
 40
0.945538715
 40
1.0
 40
1.0
 40
1.0
 40
1.0
 10
31.4873835531
 20
236.915930694
 30
0.0
 10
31.4138081448
 20
236.551546457
 30
0.0
 10
31.189009339
 20
235.8148238377
 30
0.0
 10
30.6480872034
 20
234.7512307879
 30
0.0
 10
29.9028715758
 20
233.7110028697
 30
0.0
 10
28.5900904522
 20
232.30560853
 30
0.0
 10
26.4264416984
 20
230.6575454661
 30
0.0
 10
23.2398408181
 20
228.9344731629
 30
0.0
 10
19.4270492511
 20
227.4211654302
 30
0.0
 10
15.0734660458
 20
226.1522094292
 30
0.0
 10
10.2772350787
 20
225.1568544444
 30
0.0
 10
5.1494049389
 20
224.4590227628
 30
0.0
 10
-0.1905014474
 20
224.0754935297
 30
0.0
 10
-5.6174210185
 20
224.0155498981
 30
0.0
 10
-11.0040812977
 20
224.2806321392
 30
0.0
 10
-16.2242685006
 20
224.8643524245
 30
0.0
 10
-21.1559002835
 20
225.7525572292
 30
0.0
 10
-25.6849171735
 20
226.9241295754
 30
0.0
 10
-29.7063724763
 20
228.3507672376
 30
0.0
 10
-32.1419908349
 20
229.5237298137
 30
0.0
 10
-33.2398846776
 20
230.1578529074
 30
0.0
  0
SPLINE
  5
2A1
100
AcDbEntity
  8
0
100
AcDbSpline
 62
7
  6
CONTINUOUS
 70
0
 71
3
 72
9
 73
5
 74
0
 42
0.0000001
 43
0.0000001
 44
0.0000000001
 40
0.0
 40
0.0
 40
0.0
 40
0.0
 40
0.5326740601
 40
1.0
 40
1.0
 40
1.0
 40
1.0
 10
-33.2398846776
 20
230.1578529074
 30
0.0
 10
-34.0324521494
 20
230.6156251598
 30
0.0
 10
-35.475699647
 20
231.5569232009
 30
0.0
 10
-36.7675663174
 20
232.7051893031
 30
0.0
 10
-37.3091000275
 20
233.2980856983
 30
0.0
  0
SPLINE
  5
2A2
100
AcDbEntity
  8
0
100
AcDbSpline
 62
7
  6
CONTINUOUS
 70
0
 71
3
 72
9
 73
5
 74
0
 42
0.0000001
 43
0.0000001
 44
0.0000000001
 40
0.0
 40
0.0
 40
0.0
 40
0.0
 40
0.5295265124
 40
1.0
 40
1.0
 40
1.0
 40
1.0
 10
-37.3091000275
 20
233.2980856983
 30
0.0
 10
-37.8045603043
 20
233.8405387472
 30
0.0
 10
-38.6481081368
 20
234.9594445878
 30
0.0
 10
-39.1601749076
 20
236.2757632414
 30
0.0
 10
-39.2894043804
 20
236.9155798619
 30
0.0
  0
SPLINE
  5
2A3
100
AcDbEntity
  8
0
100
AcDbSpline
 62
7
  6
CONTINUOUS
 70
0
 71
3
 72
9
 73
5
 74
0
 42
0.0000001
 43
0.0000001
 44
0.0000000001
 40
0.0
 40
0.0
 40
0.0
 40
0.0
 40
0.23825878
 40
1.0
 40
1.0
 40
1.0
 40
1.0
 10
-37.995623801
 20
231.5861806546
 30
0.0
 10
-37.9313623002
 20
231.422720242
 30
0.0
 10
-37.6333726115
 20
230.7478066425
 30
0.0
 10
-37.2290095142
 20
230.1224644999
 30
0.0
 10
-36.8837462495
 20
229.6796140181
 30
0.0
  0
SPLINE
  5
2A4
100
AcDbEntity
  8
0
100
AcDbSpline
 62
7
  6
CONTINUOUS
 70
0
 71
3
 72
11
 73
7
 74
0
 42
0.0000001
 43
0.0000001
 44
0.0000000001
 40
0.0
 40
0.0
 40
0.0
 40
0.0
 40
0.2858842438
 40
0.551883345
 40
0.7915106631
 40
1.0
 40
1.0
 40
1.0
 40
1.0
 10
-42.5909461014
 20
251.2417349598
 30
0.0
 10
-41.1640401739
 20
251.3961640632
 30
0.0
 10
-38.4190278602
 20
251.7958168642
 30
0.0
 10
-34.543304559
 20
252.6976419919
 30
0.0
 10
-31.1435829489
 20
253.8547418203
 30
0.0
 10
-29.1124469653
 20
254.8458133665
 30
0.0
 10
-28.218643267
 20
255.3904900327
 30
0.0
  0
SPLINE
  5
2A5
100
AcDbEntity
  8
0
100
AcDbSpline
 62
7
  6
CONTINUOUS
 70
0
 71
3
 72
11
 73
7
 74
0
 42
0.0000001
 43
0.0000001
 44
0.0000000001
 40
0.0
 40
0.0
 40
0.0
 40
0.0
 40
0.2605364956
 40
0.5187368295
 40
0.7674499495
 40
1.0
 40
1.0
 40
1.0
 40
1.0
 10
-25.2298509741
 20
255.9392420211
 30
0.0
 10
-23.7156019754
 20
255.8648069764
 30
0.0
 10
-20.6942693876
 20
255.8259028957
 30
0.0
 10
-16.2322102297
 20
256.0860325819
 30
0.0
 10
-11.9630163637
 20
256.6551691046
 30
0.0
 10
-9.2224187846
 20
257.2529418605
 30
0.0
 10
-7.9166213713
 20
257.6080537854
 30
0.0
  0
SPLINE
  5
2A6
100
AcDbEntity
  8
0
100
AcDbSpline
 62
7
  6
CONTINUOUS
 70
0
 71
3
 72
11
 73
7
 74
0
 42
0.0000001
 43
0.0000001
 44
0.0000000001
 40
0.0
 40
0.0
 40
0.0
 40
0.0
 40
0.2376677341
 40
0.4881754326
 40
0.7446688198
 40
1.0
 40
1.0
 40
1.0
 40
1.0
 10
-4.6216378276
 20
257.6649911619
 30
0.0
 10
-3.2523418715
 20
257.3586571515
 30
0.0
 10
-0.4097228726
 20
256.8594939782
 30
0.0
 10
3.9701637168
 20
256.4374732134
 30
0.0
 10
8.4732220597
 20
256.330087713
 30
0.0
 10
11.4946912973
 20
256.4725530448
 30
0.0
 10
12.9967362813
 20
256.5997981543
 30
0.0
  0
SPLINE
  5
2A7
100
AcDbEntity
  8
0
100
AcDbSpline
 62
7
  6
CONTINUOUS
 70
0
 71
3
 72
11
 73
7
 74
0
 42
0.0000001
 43
0.0000001
 44
0.0000000001
 40
0.0
 40
0.0
 40
0.0
 40
0.0
 40
0.2140467744
 40
0.4559136705
 40
0.7201568796
 40
1.0
 40
1.0
 40
1.0
 40
1.0
 10
16.0962797003
 20
256.1562527194
 30
0.0
 10
17.0995134034
 20
255.6487920726
 30
0.0
 10
19.3228273686
 20
254.7372850034
 30
0.0
 10
22.9657636819
 20
253.6990425121
 30
0.0
 10
27.0270769625
 20
252.9318077732
 30
0.0
 10
29.8714725659
 20
252.6245744957
 30
0.0
 10
31.3375605684
 20
252.5192209194
 30
0.0
  0
SPLINE
  5
2A8
100
AcDbEntity
  8
0
100
AcDbSpline
 62
7
  6
CONTINUOUS
 70
0
 71
3
 72
12
 73
8
 74
0
 42
0.0000001
 43
0.0000001
 44
0.0000000001
 40
0.0
 40
0.0
 40
0.0
 40
0.0
 40
0.1904229236
 40
0.300547158
 40
0.4209967184
 40
0.6920341354
 40
1.0
 40
1.0
 40
1.0
 40
1.0
 10
33.7697864746
 20
251.6427184449
 30
0.0
 10
34.2124309194
 20
251.0094918812
 30
0.0
 10
35.0915452908
 20
250.1352686978
 30
0.0
 10
36.477920604
 20
249.1376853545
 30
0.0
 10
38.2368917956
 20
248.1073514019
 30
0.0
 10
40.8495438076
 20
246.9757212368
 30
0.0
 10
43.1025965408
 20
246.2952309774
 30
0.0
 10
44.3136272521
 20
245.9875529742
 30
0.0
  0
SPLINE
  5
2A9
100
AcDbEntity
  8
0
100
AcDbSpline
 62
7
  6
CONTINUOUS
 70
0
 71
3
 72
9
 73
5
 74
0
 42
0.0000001
 43
0.0000001
 44
0.0000000001
 40
0.0
 40
0.0
 40
0.0
 40
0.0
 40
0.2561024532
 40
1.0
 40
1.0
 40
1.0
 40
1.0
 10
44.3136272521
 20
245.9875529742
 30
0.0
 10
44.4364326841
 20
245.8917464779
 30
0.0
 10
44.9125136421
 20
245.5132829612
 30
0.0
 10
45.3745013722
 20
245.1169804882
 30
0.0
 10
45.7082512995
 20
244.8115330163
 30
0.0
  0
SPLINE
  5
2AA
100
AcDbEntity
  8
0
100
AcDbSpline
 62
7
  6
CONTINUOUS
 70
0
 71
3
 72
10
 73
6
 74
0
 42
0.0000001
 43
0.0000001
 44
0.0000000001
 40
0.0
 40
0.0
 40
0.0
 40
0.0
 40
0.2872774555
 40
0.5481202325
 40
1.0
 40
1.0
 40
1.0
 40
1.0
 10
-57.8962325138
 20
236.1356062073
 30
0.0
 10
-57.5381207907
 20
236.383438881
 30
0.0
 10
-56.8758383474
 20
236.8896439171
 30
0.0
 10
-55.7877921477
 20
237.9452836491
 30
0.0
 10
-55.1682613061
 20
238.8655440955
 30
0.0
 10
-54.9190771282
 20
239.5036546068
 30
0.0
  0
SPLINE
  5
2AB
100
AcDbEntity
  8
0
100
AcDbSpline
 62
7
  6
CONTINUOUS
 70
0
 71
3
 72
9
 73
5
 74
0
 42
0.0000001
 43
0.0000001
 44
0.0000000001
 40
0.0
 40
0.0
 40
0.0
 40
0.0
 40
0.2568792383
 40
1.0
 40
1.0
 40
1.0
 40
1.0
 10
-54.9190771282
 20
239.5036546068
 30
0.0
 10
-54.873794412
 20
239.6196145263
 30
0.0
 10
-54.7156672897
 20
240.07781581
 30
0.0
 10
-54.6366187446
 20
240.5640491194
 30
0.0
 10
-54.6297740777
 20
240.9241124849
 30
0.0
  0
SPLINE
  5
2AC
100
AcDbEntity
  8
0
100
AcDbSpline
 62
7
  6
CONTINUOUS
 70
0
 71
3
 72
9
 73
5
 74
0
 42
0.0000001
 43
0.0000001
 44
0.0000000001
 40
0.0
 40
0.0
 40
0.0
 40
0.0
 40
0.2439482134
 40
1.0
 40
1.0
 40
1.0
 40
1.0
 10
-55.1891010319
 20
243.0680249059
 30
0.0
 10
-55.1023843943
 20
243.1715887323
 30
0.0
 10
-54.7415073686
 20
243.5915797161
 30
0.0
 10
-54.3598009978
 20
243.9935526933
 30
0.0
 10
-54.0618538551
 20
244.2876228451
 30
0.0
  0
SPLINE
  5
2AD
100
AcDbEntity
  8
0
100
AcDbSpline
 62
7
  6
CONTINUOUS
 70
0
 71
3
 72
12
 73
8
 74
0
 42
0.0000001
 43
0.0000001
 44
0.0000000001
 40
0.0
 40
0.0
 40
0.0
 40
0.0
 40
0.3137423107
 40
0.5851897678
 40
0.7043829382
 40
0.8127165566
 40
1.0
 40
1.0
 40
1.0
 40
1.0
 10
-54.0618538551
 20
244.2876228451
 30
0.0
 10
-52.9333530455
 20
244.633036526
 30
0.0
 10
-50.8575030037
 20
245.3802778749
 30
0.0
 10
-48.492509328
 20
246.6009884879
 30
0.0
 10
-46.9611095371
 20
247.6936663722
 30
0.0
 10
-45.7997805434
 20
248.7359060288
 30
0.0
 10
-45.1151238089
 20
249.6456976306
 30
0.0
 10
-44.8185306104
 20
250.2847108753
 30
0.0
  0
SPLINE
  5
2AE
100
AcDbEntity
  8
0
100
AcDbSpline
 62
7
  6
CONTINUOUS
 70
0
 71
3
 72
12
 73
8
 74
0
 42
0.0000001
 43
0.0000001
 44
0.0000000001
 40
0.0
 40
0.0
 40
0.0
 40
0.0
 40
0.0995033332
 40
0.2078245054
 40
0.4484551888
 40
0.7154146157
 40
1.0
 40
1.0
 40
1.0
 40
1.0
 10
-32.7452442138
 20
228.7409025122
 30
0.0
 10
-32.043898686
 20
228.3329542226
 30
0.0
 10
-30.5359897494
 20
227.5538760049
 30
0.0
 10
-27.1612084617
 20
226.1385444252
 30
0.0
 10
-22.3398247314
 20
224.6838422352
 30
0.0
 10
-15.9874949306
 20
223.4670405645
 30
0.0
 10
-11.5062785005
 20
223.0153120851
 30
0.0
 10
-9.1899666862
 20
222.8752696991
 30
0.0
  0
SPLINE
  5
2AF
100
AcDbEntity
  8
0
100
AcDbSpline
 62
7
  6
CONTINUOUS
 70
0
 71
3
 72
14
 73
10
 74
0
 42
0.0000001
 43
0.0000001
 44
0.0000000001
 40
0.0
 40
0.0
 40
0.0
 40
0.0
 40
0.2780104695
 40
0.415161831
 40
0.5481098653
 40
0.6747867819
 40
0.7933238391
 40
0.9021294225
 40
1.0
 40
1.0
 40
1.0
 40
1.0
 10
-9.1899666862
 20
222.8752696991
 30
0.0
 10
-5.9928955502
 20
222.6819772989
 30
0.0
 10
-1.1973291779
 20
222.6557775272
 30
0.0
 10
5.1011558927
 20
223.1371639596
 30
0.0
 10
9.634456743
 20
223.7467261902
 30
0.0
 10
13.9110483375
 20
224.5940199522
 30
0.0
 10
17.8511522282
 20
225.662903826
 30
0.0
 10
21.3806681147
 20
226.9326198688
 30
0.0
 10
23.5378246765
 20
227.9544168955
 30
0.0
 10
24.523349071
 20
228.5022393209
 30
0.0
  0
SPLINE
  5
2B0
100
AcDbEntity
  8
0
100
AcDbSpline
 62
7
  6
CONTINUOUS
 70
0
 71
3
 72
11
 73
7
 74
0
 42
0.0000001
 43
0.0000001
 44
0.0000000001
 40
0.0
 40
0.0
 40
0.0
 40
0.0
 40
0.281321062
 40
0.5441503179
 40
0.7846654155
 40
1.0
 40
1.0
 40
1.0
 40
1.0
 10
12.1191872648
 20
251.8233518712
 30
0.0
 10
13.9450889223
 20
251.5293537002
 30
0.0
 10
17.4605408118
 20
250.8506082917
 30
0.0
 10
22.4475809587
 20
249.5121027527
 30
0.0
 10
26.8984761199
 20
247.9101713471
 30
0.0
 10
29.6085182444
 20
246.612096364
 30
0.0
 10
30.84024217
 20
245.9143583472
 30
0.0
  0
SPLINE
  5
2B1
100
AcDbEntity
  8
0
100
AcDbSpline
 62
7
  6
CONTINUOUS
 70
0
 71
3
 72
11
 73
7
 74
0
 42
0.0000001
 43
0.0000001
 44
0.0000000001
 40
0.0
 40
0.0
 40
0.0
 40
0.0
 40
0.2126438746
 40
0.4525609542
 40
0.7164933369
 40
1.0
 40
1.0
 40
1.0
 40
1.0
 10
-45.1139897115
 20
225.6680716332
 30
0.0
 10
-43.6050899625
 20
224.7724750612
 30
0.0
 10
-40.2452746734
 20
223.1141912416
 30
0.0
 10
-34.6800210054
 20
221.0940523783
 30
0.0
 10
-28.3924068422
 20
219.4288189572
 30
0.0
 10
-23.9461523286
 20
218.60629221
 30
0.0
 10
-21.6330134346
 20
218.2566871379
 30
0.0
  0
LINE
  5
2B2
100
AcDbEntity
  8
0
100
AcDbLine
 62
7
  6
CONTINUOUS
 10
-58.1817047398
 20
221.1794873474
 11
-57.8962325138
 21
236.1356062073
  0
LINE
  5
2B3
100
AcDbEntity
  8
0
100
AcDbLine
 62
7
  6
CONTINUOUS
 10
-53.8023135209
 20
213.0254410886
 11
-53.5103326854
 21
228.0267556812
  0
SPLINE
  5
2B4
100
AcDbEntity
  8
0
100
AcDbSpline
 62
7
  6
CONTINUOUS
 70
0
 71
3
 72
12
 73
8
 74
0
 42
0.0000001
 43
0.0000001
 44
0.0000000001
 40
0.0
 40
0.0
 40
0.0
 40
0.0
 40
0.1000437047
 40
0.2033111219
 40
0.4289086217
 40
0.6922431334
 40
1.0
 40
1.0
 40
1.0
 40
1.0
 10
45.5161350971
 20
243.5186122978
 30
0.0
 10
45.5207740767
 20
243.2725369643
 30
0.0
 10
45.578671014
 20
242.7721695742
 30
0.0
 10
45.8921051125
 20
241.7592494929
 30
0.0
 10
46.6791083885
 20
240.5044983735
 30
0.0
 10
48.1106326328
 20
239.1471626106
 30
0.0
 10
49.2914860621
 20
238.3737654535
 30
0.0
 10
49.9494478082
 20
237.9991815536
 30
0.0
  0
SPLINE
  5
2B5
100
AcDbEntity
  8
0
100
AcDbSpline
 62
7
  6
CONTINUOUS
 70
0
 71
3
 72
9
 73
5
 74
0
 42
0.0000001
 43
0.0000001
 44
0.0000000001
 40
0.0
 40
0.0
 40
0.0
 40
0.0
 40
0.4859461023
 40
1.0
 40
1.0
 40
1.0
 40
1.0
 10
46.8276905555
 20
231.7671970029
 30
0.0
 10
46.8341120651
 20
231.4288458437
 30
0.0
 10
46.9409662607
 20
230.7317541076
 30
0.0
 10
47.215182702
 20
230.0843119817
 30
0.0
 10
47.387019646
 20
229.7702637916
 30
0.0
  0
LINE
  5
2B6
100
AcDbEntity
  8
0
100
AcDbLine
 62
7
  6
CONTINUOUS
 10
47.387019646
 20
229.7702637916
 11
47.6814768054
 21
214.7790828587
  0
LINE
  5
2B7
100
AcDbEntity
  8
0
100
AcDbLine
 62
7
  6
CONTINUOUS
 10
50.3796233539
 20
221.6884929523
 11
50.0941511279
 21
236.7026824902
  0
SPLINE
  5
2B8
100
AcDbEntity
  8
0
100
AcDbSpline
 62
7
  6
CONTINUOUS
 70
0
 71
3
 72
20
 73
16
 74
0
 42
0.0000001
 43
0.0000001
 44
0.0000000001
 40
0.0
 40
0.0
 40
0.0
 40
0.0
 40
0.0352749522
 40
0.071906401
 40
0.1111853141
 40
0.154089555
 40
0.2012743297
 40
0.2531147213
 40
0.3097637973
 40
0.3712066756
 40
0.4372946239
 40
0.5077744392
 40
0.6604643204
 40
0.8259112516
 40
1.0
 40
1.0
 40
1.0
 40
1.0
 10
-58.2363342851
 20
218.8357138833
 30
0.0
 10
-58.248441999
 20
218.1985768091
 30
0.0
 10
-58.1227148789
 20
216.8924493914
 30
0.0
 10
-57.4901313352
 20
214.9712098486
 30
0.0
 10
-56.4274086241
 20
213.0926171624
 30
0.0
 10
-54.9505843174
 20
211.269987472
 30
0.0
 10
-53.0741730468
 20
209.5129941199
 30
0.0
 10
-50.8133326321
 20
207.8320957273
 30
0.0
 10
-48.1852159342
 20
206.2382167009
 30
0.0
 10
-45.2095510936
 20
204.7429394478
 30
0.0
 10
-41.9090565815
 20
203.3573077085
 30
0.0
 10
-36.9766342404
 20
201.6242456119
 30
0.0
 10
-30.175461256
 20
199.834839587
 30
0.0
 10
-21.4050449939
 20
198.3177293414
 30
0.0
 10
-15.2924970029
 20
197.733493753
 30
0.0
 10
-12.1532661513
 20
197.5436983308
 30
0.0
  0
SPLINE
  5
2B9
100
AcDbEntity
  8
0
100
AcDbSpline
 62
7
  6
CONTINUOUS
 70
0
 71
3
 72
8
 73
4
 74
0
 42
0.0000001
 43
0.0000001
 44
0.0000000001
 40
0.0
 40
0.0
 40
0.0
 40
0.0
 40
1.0
 40
1.0
 40
1.0
 40
1.0
 10
-39.4664769339
 20
229.9038944935
 30
0.0
 10
-38.8413919442
 20
230.6126115693
 30
0.0
 10
-38.2162086619
 20
231.3212419685
 30
0.0
 10
-37.5909090468
 20
232.0297696879
 30
0.0
  0
SPLINE
  5
2BA
100
AcDbEntity
  8
0
100
AcDbSpline
 62
7
  6
CONTINUOUS
 70
0
 71
3
 72
20
 73
16
 74
0
 42
0.0000001
 43
0.0000001
 44
0.0000000001
 40
0.0
 40
0.0
 40
0.0
 40
0.0
 40
0.1658198908
 40
0.3297028963
 40
0.4852741893
 40
0.5581269897
 40
0.6268157254
 40
0.6908055444
 40
0.749679947
 40
0.8031774767
 40
0.8512428153
 40
0.8941002053
 40
0.9323555756
 40
0.9671094766
 40
1.0
 40
1.0
 40
1.0
 40
1.0
 10
-12.1532661513
 20
197.5436983308
 30
0.0
 10
-8.2527616098
 20
197.3078769015
 30
0.0
 10
-0.4730536253
 20
197.1747946189
 30
0.0
 10
10.9495034909
 20
197.9407316587
 30
0.0
 10
20.0981238915
 20
199.3802532626
 30
0.0
 10
26.9095293767
 20
201.0147935308
 30
0.0
 10
31.5485487147
 20
202.417963201
 30
0.0
 10
35.7771533164
 20
204.0083784499
 30
0.0
 10
39.5476008908
 20
205.7681236468
 30
0.0
 10
42.8180263361
 20
207.6778548604
 30
0.0
 10
45.5529452365
 20
209.7182463173
 30
0.0
 10
47.7225687744
 20
211.8712564321
 30
0.0
 10
49.2996290413
 20
214.1226782014
 30
0.0
 10
50.2526418533
 20
216.4549722759
 30
0.0
 10
50.4489445713
 20
218.0607717355
 30
0.0
 10
50.4342622308
 20
218.8357139306
 30
0.0
  0
SPLINE
  5
2BB
100
AcDbEntity
  8
0
100
AcDbSpline
 62
7
  6
CONTINUOUS
 70
0
 71
3
 72
11
 73
7
 74
0
 42
0.0000001
 43
0.0000001
 44
0.0000000001
 40
0.0
 40
0.0
 40
0.0
 40
0.0
 40
0.216966818
 40
0.457673121
 40
0.7197092548
 40
1.0
 40
1.0
 40
1.0
 40
1.0
 10
-38.6423235559
 20
224.16592651
 30
0.0
 10
-37.5089251641
 20
223.523887227
 30
0.0
 10
-35.0313059589
 20
222.3209289753
 30
0.0
 10
-30.9777190029
 20
220.8108155006
 30
0.0
 10
-26.4522178432
 20
219.5222895676
 30
0.0
 10
-23.2645809926
 20
218.8460541959
 30
0.0
 10
-21.6088059687
 20
218.5456996325
 30
0.0
  0
LINE
  5
2BC
100
AcDbEntity
  8
0
100
AcDbLine
 62
7
  6
CONTINUOUS
 10
-21.6088059687
 20
218.5456996325
 11
-21.4846410083
 21
218.5232718682
  0
SPLINE
  5
2BD
100
AcDbEntity
  8
0
100
AcDbSpline
 62
7
  6
CONTINUOUS
 70
0
 71
3
 72
10
 73
6
 74
0
 42
0.0000001
 43
0.0000001
 44
0.0000000001
 40
0.0
 40
0.0
 40
0.0
 40
0.0
 40
0.2872774555
 40
0.5481202325
 40
1.0
 40
1.0
 40
1.0
 40
1.0
 10
50.0941511279
 20
236.7026824902
 30
0.0
 10
49.7360394048
 20
236.4548498165
 30
0.0
 10
49.0737569615
 20
235.9486447804
 30
0.0
 10
47.9857107618
 20
234.8930050485
 30
0.0
 10
47.3661799202
 20
233.972744602
 30
0.0
 10
47.1169957424
 20
233.3346340907
 30
0.0
  0
SPLINE
  5
2BE
100
AcDbEntity
  8
0
100
AcDbSpline
 62
7
  6
CONTINUOUS
 70
0
 71
3
 72
9
 73
5
 74
0
 42
0.0000001
 43
0.0000001
 44
0.0000000001
 40
0.0
 40
0.0
 40
0.0
 40
0.0
 40
0.5075378937
 40
1.0
 40
1.0
 40
1.0
 40
1.0
 10
47.1169957424
 20
233.3346340907
 30
0.0
 10
47.0184298892
 20
233.0822267852
 30
0.0
 10
46.8678110925
 20
232.566265632
 30
0.0
 10
46.8227015196
 20
232.0300707169
 30
0.0
 10
46.8276905555
 20
231.7671970029
 30
0.0
  0
SPLINE
  5
2BF
100
AcDbEntity
  8
0
100
AcDbSpline
 62
7
  6
CONTINUOUS
 70
0
 71
3
 72
9
 73
5
 74
0
 42
0.0000001
 43
0.0000001
 44
0.0000000001
 40
0.0
 40
0.0
 40
0.0
 40
0.0
 40
0.49564354
 40
1.0
 40
1.0
 40
1.0
 40
1.0
 10
50.3819608495
 20
221.5935640149
 30
0.0
 10
50.3901615855
 20
221.161142126
 30
0.0
 10
50.3387751113
 20
220.286116151
 30
0.0
 10
50.1547121662
 20
219.4294633128
 30
0.0
 10
50.0318798368
 20
219.0068494468
 30
0.0
  0
SPLINE
  5
2C0
100
AcDbEntity
  8
0
100
AcDbSpline
 62
7
  6
CONTINUOUS
 70
0
 71
3
 72
9
 73
5
 74
0
 42
0.0000001
 43
0.0000001
 44
0.0000000001
 40
0.0
 40
0.0
 40
0.0
 40
0.0
 40
0.4770863308
 40
1.0
 40
1.0
 40
1.0
 40
1.0
 10
50.0318798368
 20
219.0068494468
 30
0.0
 10
49.8160370644
 20
218.2642261572
 30
0.0
 10
49.1662400834
 20
216.7616487302
 30
0.0
 10
48.2241103981
 20
215.4302689493
 30
0.0
 10
47.6814768056
 20
214.779082859
 30
0.0
  0
SPLINE
  5
2C1
100
AcDbEntity
  8
0
100
AcDbSpline
 62
7
  6
CONTINUOUS
 70
0
 71
3
 72
11
 73
7
 74
0
 42
0.0000001
 43
0.0000001
 44
0.0000000001
 40
0.0
 40
0.0
 40
0.0
 40
0.0
 40
0.301870625
 40
0.5658275665
 40
0.7956619056
 40
1.0
 40
1.0
 40
1.0
 40
1.0
 10
-58.0294335552
 20
219.8151824475
 30
0.0
 10
-57.4541193202
 20
219.4898210185
 30
0.0
 10
-56.4072357209
 20
218.8197437632
 30
0.0
 10
-55.091273977
 20
217.6651611419
 30
0.0
 10
-54.156520465
 20
216.4400758254
 30
0.0
 10
-53.7927216079
 20
215.5439999006
 30
0.0
 10
-53.6957607488
 20
215.1072361887
 30
0.0
  0
SPLINE
  5
2C2
100
AcDbEntity
  8
0
100
AcDbSpline
 62
7
  6
CONTINUOUS
 70
0
 71
3
 72
11
 73
7
 74
0
 42
0.0000001
 43
0.0000001
 44
0.0000000001
 40
0.0
 40
0.0
 40
0.0
 40
0.0
 40
0.2807639256
 40
0.5382147941
 40
0.7761529648
 40
1.0
 40
1.0
 40
1.0
 40
1.0
 10
-53.8023135216
 20
213.0254410892
 30
0.0
 10
-54.3623218004
 20
213.5399855686
 30
0.0
 10
-55.3843000466
 20
214.5855398134
 30
0.0
 10
-56.6438339597
 20
216.278113464
 30
0.0
 10
-57.5481428373
 20
218.0139642998
 30
0.0
 10
-57.9144360601
 20
219.2198546441
 30
0.0
 10
-58.0294335552
 20
219.8151824475
 30
0.0
  0
SPLINE
  5
2C3
100
AcDbEntity
  8
0
100
AcDbSpline
 62
7
  6
CONTINUOUS
 70
0
 71
3
 72
12
 73
8
 74
0
 42
0.0000001
 43
0.0000001
 44
0.0000000001
 40
0.0
 40
0.0
 40
0.0
 40
0.0
 40
0.3084141503
 40
0.579631872
 40
0.70004497
 40
0.8100447635
 40
1.0
 40
1.0
 40
1.0
 40
1.0
 10
-52.3347517807
 20
211.7879162524
 30
0.0
 10
-51.1251049088
 20
211.4826853244
 30
0.0
 10
-48.8753910498
 20
210.8066541304
 30
0.0
 10
-46.2674417676
 20
209.6793208951
 30
0.0
 10
-44.5139347823
 20
208.651480452
 30
0.0
 10
-43.1350302246
 20
207.6567114493
 30
0.0
 10
-42.2625168166
 20
206.7838075009
 30
0.0
 10
-41.8259058715
 20
206.1515202011
 30
0.0
  0
SPLINE
  5
2C4
100
AcDbEntity
  8
0
100
AcDbSpline
 62
7
  6
CONTINUOUS
 70
0
 71
3
 72
10
 73
6
 74
0
 42
0.0000001
 43
0.0000001
 44
0.0000000001
 40
0.0
 40
0.0
 40
0.0
 40
0.0
 40
0.5364412213
 40
0.7775118495
 40
1.0
 40
1.0
 40
1.0
 40
1.0
 10
-41.8259058715
 20
206.1515202011
 30
0.0
 10
-43.8223773868
 20
206.9185840728
 30
0.0
 10
-46.6670402407
 20
208.1784513192
 30
0.0
 10
-50.1166511413
 20
210.1834238888
 30
0.0
 10
-51.6344257363
 20
211.2434946435
 30
0.0
 10
-52.3347517807
 20
211.7879162524
 30
0.0
  0
SPLINE
  5
2C5
100
AcDbEntity
  8
0
100
AcDbSpline
 62
7
  6
CONTINUOUS
 70
0
 71
3
 72
11
 73
7
 74
0
 42
0.0000001
 43
0.0000001
 44
0.0000000001
 40
0.0
 40
0.0
 40
0.0
 40
0.0
 40
0.2800672571
 40
0.5444605565
 40
0.7862816198
 40
1.0
 40
1.0
 40
1.0
 40
1.0
 10
-39.2664765459
 20
205.2291773664
 30
0.0
 10
-37.8038060797
 20
205.1259199446
 30
0.0
 10
-34.966269382
 20
204.8222670385
 30
0.0
 10
-30.9159465578
 20
204.0588210065
 30
0.0
 10
-27.2861342754
 20
203.0229982043
 30
0.0
 10
-25.0729377737
 20
202.1118568126
 30
0.0
 10
-24.0757812876
 20
201.6042168268
 30
0.0
  0
SPLINE
  5
2C6
100
AcDbEntity
  8
0
100
AcDbSpline
 62
7
  6
CONTINUOUS
 70
0
 71
3
 72
9
 73
5
 74
0
 42
0.0000001
 43
0.0000001
 44
0.0000000001
 40
0.0
 40
0.0
 40
0.0
 40
0.0
 40
0.5199390979
 40
1.0
 40
1.0
 40
1.0
 40
1.0
 10
-24.0757812876
 20
201.6042168268
 30
0.0
 10
-26.7518376031
 20
202.0257418616
 30
0.0
 10
-31.8723395932
 20
203.0177498238
 30
0.0
 10
-36.8968182269
 20
204.4284979916
 30
0.0
 10
-39.2664765459
 20
205.2291773664
 30
0.0
  0
SPLINE
  5
2C7
100
AcDbEntity
  8
0
100
AcDbSpline
 62
7
  6
CONTINUOUS
 70
0
 71
3
 72
11
 73
7
 74
0
 42
0.0000001
 43
0.0000001
 44
0.0000000001
 40
0.0
 40
0.0
 40
0.0
 40
0.0
 40
0.2553458935
 40
0.5119260889
 40
0.7624679036
 40
1.0
 40
1.0
 40
1.0
 40
1.0
 10
-20.8141342909
 20
201.1374743296
 30
0.0
 10
-19.3170599694
 20
201.266218654
 30
0.0
 10
-16.3049120228
 20
201.4109784158
 30
0.0
 10
-11.815633964
 20
201.3053053984
 30
0.0
 10
-7.4501654604
 20
200.8833826913
 30
0.0
 10
-4.6178173016
 20
200.3830867712
 30
0.0
 10
-3.2542353327
 20
200.0758166836
 30
0.0
  0
LINE
  5
2C8
100
AcDbEntity
  8
0
100
AcDbLine
 62
7
  6
CONTINUOUS
 10
0.1145399854
 20
215.2302349121
 11
0.2130731461
 21
200.1357318381
  0
LINE
  5
2C9
100
AcDbEntity
  8
0
100
AcDbLine
 62
7
  6
CONTINUOUS
 10
17.468840371
 20
201.7990048385
 11
17.4277695882
 21
216.8990466765
  0
LINE
  5
2CA
100
AcDbEntity
  8
0
100
AcDbLine
 62
7
  6
CONTINUOUS
 10
20.4165618811
 20
217.4477986648
 11
20.6139440463
 21
202.3764561052
  0
LINE
  5
2CB
100
AcDbEntity
  8
0
100
AcDbLine
 62
7
  6
CONTINUOUS
 10
34.9385453994
 20
206.5114415156
 11
34.7888647155
 21
221.5965537377
  0
LINE
  5
2CC
100
AcDbEntity
  8
0
100
AcDbLine
 62
7
  6
CONTINUOUS
 10
37.0164492245
 20
222.5535778222
 11
37.2826307489
 21
207.5185171737
  0
LINE
  5
2CD
100
AcDbEntity
  8
0
100
AcDbLine
 62
7
  6
CONTINUOUS
 10
46.495275527
 20
213.4957009489
 11
46.2597724692
 21
228.5506658524
  0
SPLINE
  5
2CE
100
AcDbEntity
  8
0
100
AcDbSpline
 62
7
  6
CONTINUOUS
 70
0
 71
3
 72
9
 73
5
 74
0
 42
0.0000001
 43
0.0000001
 44
0.0000000001
 40
0.0
 40
0.0
 40
0.0
 40
0.0
 40
0.2439482134
 40
1.0
 40
1.0
 40
1.0
 40
1.0
 10
47.387019646
 20
229.7702637916
 30
0.0
 10
47.3003030085
 20
229.6666999652
 30
0.0
 10
46.9394259827
 20
229.2467089814
 30
0.0
 10
46.5577196119
 20
228.8447360043
 30
0.0
 10
46.2597724692
 20
228.5506658524
 30
0.0
  0
SPLINE
  5
2CF
100
AcDbEntity
  8
0
100
AcDbSpline
 62
7
  6
CONTINUOUS
 70
0
 71
3
 72
12
 73
8
 74
0
 42
0.0000001
 43
0.0000001
 44
0.0000000001
 40
0.0
 40
0.0
 40
0.0
 40
0.0
 40
0.3137423107
 40
0.5851897678
 40
0.7043829382
 40
0.8127165566
 40
1.0
 40
1.0
 40
1.0
 40
1.0
 10
46.2597724692
 20
228.5506658524
 30
0.0
 10
45.1312716596
 20
228.2052521716
 30
0.0
 10
43.0554216178
 20
227.4580108226
 30
0.0
 10
40.6904279421
 20
226.2373002096
 30
0.0
 10
39.1590281513
 20
225.1446223254
 30
0.0
 10
37.9976991575
 20
224.1023826687
 30
0.0
 10
37.313042423
 20
223.192591067
 30
0.0
 10
37.0164492245
 20
222.5535778222
 30
0.0
  0
SPLINE
  5
2D0
100
AcDbEntity
  8
0
100
AcDbSpline
 62
7
  6
CONTINUOUS
 70
0
 71
3
 72
11
 73
7
 74
0
 42
0.0000001
 43
0.0000001
 44
0.0000000001
 40
0.0
 40
0.0
 40
0.0
 40
0.0
 40
0.2858842438
 40
0.551883345
 40
0.7915106631
 40
1.0
 40
1.0
 40
1.0
 40
1.0
 10
34.7888647155
 20
221.5965537377
 30
0.0
 10
33.361958788
 20
221.4421246343
 30
0.0
 10
30.6169464743
 20
221.0424718333
 30
0.0
 10
26.7412231731
 20
220.1406467056
 30
0.0
 10
23.341501563
 20
218.9835468772
 30
0.0
 10
21.3103655794
 20
217.992475331
 30
0.0
 10
20.4165618811
 20
217.4477986648
 30
0.0
  0
SPLINE
  5
2D1
100
AcDbEntity
  8
0
100
AcDbSpline
 62
7
  6
CONTINUOUS
 70
0
 71
3
 72
12
 73
8
 74
0
 42
0.0000001
 43
0.0000001
 44
0.0000000001
 40
0.0
 40
0.0
 40
0.0
 40
0.0
 40
0.1002786001
 40
0.2033608463
 40
0.4281403317
 40
0.6912363656
 40
1.0
 40
1.0
 40
1.0
 40
1.0
 10
-53.3182368945
 20
229.1726974184
 30
0.0
 10
-53.313427326
 20
229.424215011
 30
0.0
 10
-53.3541805914
 20
229.9365875698
 30
0.0
 10
-53.6433527456
 20
230.9768957274
 30
0.0
 10
-54.4226455052
 20
232.2694998502
 30
0.0
 10
-55.8734135785
 20
233.6643287808
 30
0.0
 10
-57.0783928283
 20
234.4558841883
 30
0.0
 10
-57.7515291941
 20
234.8391071439
 30
0.0
  0
SPLINE
  5
2D2
100
AcDbEntity
  8
0
100
AcDbSpline
 62
7
  6
CONTINUOUS
 70
0
 71
3
 72
9
 73
5
 74
0
 42
0.0000001
 43
0.0000001
 44
0.0000000001
 40
0.0
 40
0.0
 40
0.0
 40
0.0
 40
0.4858415664
 40
1.0
 40
1.0
 40
1.0
 40
1.0
 10
-54.6297740777
 20
240.9241124849
 30
0.0
 10
-54.6228949563
 20
241.2859883273
 30
0.0
 10
-54.7162573668
 20
242.0362222344
 30
0.0
 10
-55.0052396755
 20
242.7320009703
 30
0.0
 10
-55.1891010319
 20
243.0680249059
 30
0.0
  0
LINE
  5
2D3
100
AcDbEntity
  8
0
100
AcDbLine
 62
7
  6
CONTINUOUS
 10
-3.254235331
 20
200.0758166836
 11
-3.1804435582
 21
215.1732975357
  0
SPLINE
  5
2D4
100
AcDbEntity
  8
0
100
AcDbSpline
 62
7
  6
CONTINUOUS
 70
0
 71
3
 72
11
 73
7
 74
0
 42
0.0000001
 43
0.0000001
 44
0.0000000001
 40
0.0
 40
0.0
 40
0.0
 40
0.0
 40
0.2323714486
 40
0.4811024809
 40
0.739404199
 40
1.0
 40
1.0
 40
1.0
 40
1.0
 10
0.2130731468
 20
200.1357318381
 30
0.0
 10
1.5130222062
 20
200.4916116088
 30
0.0
 10
4.2432471509
 20
201.0901735392
 30
0.0
 10
8.4981027139
 20
201.6586822101
 30
0.0
 10
12.9468206725
 20
201.9166014417
 30
0.0
 10
15.959269229
 20
201.8750888424
 30
0.0
 10
17.4688403694
 20
201.7990048383
 30
0.0
  0
SPLINE
  5
2D5
100
AcDbEntity
  8
0
100
AcDbSpline
 62
7
  6
CONTINUOUS
 70
0
 71
3
 72
9
 73
5
 74
0
 42
0.0000001
 43
0.0000001
 44
0.0000000001
 40
0.0
 40
0.0
 40
0.0
 40
0.0
 40
0.4915606992
 40
1.0
 40
1.0
 40
1.0
 40
1.0
 10
17.4688403694
 20
201.7990048383
 30
0.0
 10
14.6661813877
 20
201.3267464326
 30
0.0
 10
8.9269283186
 20
200.5815744281
 30
0.0
 10
3.1515193507
 20
200.2236113981
 30
0.0
 10
0.2130731468
 20
200.1357318381
 30
0.0
  0
SPLINE
  5
2D6
100
AcDbEntity
  8
0
100
AcDbSpline
 62
7
  6
CONTINUOUS
 70
0
 71
3
 72
11
 73
7
 74
0
 42
0.0000001
 43
0.0000001
 44
0.0000000001
 40
0.0
 40
0.0
 40
0.0
 40
0.0
 40
0.2081192241
 40
0.4476789955
 40
0.7138407782
 40
1.0
 40
1.0
 40
1.0
 40
1.0
 10
20.613944047
 20
202.3764561054
 30
0.0
 10
21.5016539515
 20
202.9211331219
 30
0.0
 10
23.5229164905
 20
203.9115402353
 30
0.0
 10
26.9101380133
 20
205.0657363723
 30
0.0
 10
30.775769361
 20
205.963376503
 30
0.0
 10
33.5146342338
 20
206.3592112617
 30
0.0
 10
34.9385453982
 20
206.5114415151
 30
0.0
  0
SPLINE
  5
2D7
100
AcDbEntity
  8
0
100
AcDbSpline
 62
7
  6
CONTINUOUS
 70
0
 71
3
 72
9
 73
5
 74
0
 42
0.0000001
 43
0.0000001
 44
0.0000000001
 40
0.0
 40
0.0
 40
0.0
 40
0.0
 40
0.4764761802
 40
1.0
 40
1.0
 40
1.0
 40
1.0
 10
34.9385453982
 20
206.5114415151
 30
0.0
 10
32.7398345952
 20
205.6254335724
 30
0.0
 10
28.0138824571
 20
204.0388816623
 30
0.0
 10
23.1683575478
 20
202.8851939419
 30
0.0
 10
20.613944047
 20
202.3764561054
 30
0.0
  0
SPLINE
  5
2D8
100
AcDbEntity
  8
0
100
AcDbSpline
 62
7
  6
CONTINUOUS
 70
0
 71
3
 72
12
 73
8
 74
0
 42
0.0000001
 43
0.0000001
 44
0.0000000001
 40
0.0
 40
0.0
 40
0.0
 40
0.0
 40
0.1868271528
 40
0.2950190644
 40
0.4141578849
 40
0.6857722472
 40
1.0
 40
1.0
 40
1.0
 40
1.0
 10
37.2826307493
 20
207.5185171739
 30
0.0
 10
37.5733548221
 20
208.1561110312
 30
0.0
 10
38.2516702968
 20
209.0645589299
 30
0.0
 10
39.4063144812
 20
210.1038150119
 30
0.0
 10
40.932895984
 20
211.1938736712
 30
0.0
 10
43.294279984
 20
212.4101254719
 30
0.0
 10
45.3676698634
 20
213.1527731759
 30
0.0
 10
46.4952755264
 20
213.4957009483
 30
0.0
  0
SPLINE
  5
2D9
100
AcDbEntity
  8
0
100
AcDbSpline
 62
7
  6
CONTINUOUS
 70
0
 71
3
 72
10
 73
6
 74
0
 42
0.0000001
 43
0.0000001
 44
0.0000000001
 40
0.0
 40
0.0
 40
0.0
 40
0.0
 40
0.2202385315
 40
0.4602059347
 40
1.0
 40
1.0
 40
1.0
 40
1.0
 10
46.4952755264
 20
213.4957009483
 30
0.0
 10
45.9178979961
 20
212.9281959786
 30
0.0
 10
44.6374573029
 20
211.8163080965
 30
0.0
 10
41.6331893363
 20
209.6911829628
 30
0.0
 10
39.0865285568
 20
208.3450820259
 30
0.0
 10
37.2826307493
 20
207.5185171739
 30
0.0
  0
SPLINE
  5
2DA
100
AcDbEntity
  8
0
100
AcDbSpline
 62
7
  6
CONTINUOUS
 70
0
 71
3
 72
11
 73
7
 74
0
 42
0.0000001
 43
0.0000001
 44
0.0000000001
 40
0.0
 40
0.0
 40
0.0
 40
0.0
 40
0.212643866
 40
0.4525609367
 40
0.7164933021
 40
1.0
 40
1.0
 40
1.0
 40
1.0
 10
37.3119083256
 20
247.1702170643
 30
0.0
 10
35.8030086074
 20
248.0658136181
 30
0.0
 10
32.4431934062
 20
249.7240974942
 30
0.0
 10
26.8779398041
 20
251.7442359393
 30
0.0
 10
20.5903257136
 20
253.4094706419
 30
0.0
 10
16.1440705409
 20
254.231995208
 30
0.0
 10
13.8309313159
 20
254.5816003263
 30
0.0
  0
SPLINE
  5
2DB
100
AcDbEntity
  8
0
100
AcDbSpline
 62
7
  6
CONTINUOUS
 70
0
 71
3
 72
9
 73
5
 74
0
 42
0.0000001
 43
0.0000001
 44
0.0000000001
 40
0.0
 40
0.0
 40
0.0
 40
0.0
 40
0.4571449904
 40
1.0
 40
1.0
 40
1.0
 40
1.0
 10
47.5646817625
 20
218.7092028719
 30
0.0
 10
47.8392284042
 20
219.2654627202
 30
0.0
 10
48.6652828398
 20
220.3714473598
 30
0.0
 10
49.7243102655
 20
221.2341036484
 30
0.0
 10
50.3295806348
 20
221.6539462537
 30
0.0
  0
SPLINE
  5
2DC
100
AcDbEntity
  8
0
100
AcDbSpline
 62
7
  6
CONTINUOUS
 70
0
 71
3
 72
11
 73
7
 74
0
 42
0.0000001
 43
0.0000001
 44
0.0000000001
 40
0.0
 40
0.0
 40
0.0
 40
0.0
 40
0.2605364956
 40
0.5187368295
 40
0.7674499495
 40
1.0
 40
1.0
 40
1.0
 40
1.0
 10
17.4277695882
 20
216.8990466765
 30
0.0
 10
15.9135205895
 20
216.9734817211
 30
0.0
 10
12.8921880017
 20
217.0123858019
 30
0.0
 10
8.4301288439
 20
216.7522561156
 30
0.0
 10
4.1609349778
 20
216.183119593
 30
0.0
 10
1.4203373987
 20
215.585346837
 30
0.0
 10
0.1145399854
 20
215.2302349121
 30
0.0
  0
SPLINE
  5
2DD
100
AcDbEntity
  8
0
100
AcDbSpline
 62
7
  6
CONTINUOUS
 70
0
 71
3
 72
11
 73
7
 74
0
 42
0.0000001
 43
0.0000001
 44
0.0000000001
 40
0.0
 40
0.0
 40
0.0
 40
0.0
 40
0.2376677341
 40
0.4881754326
 40
0.7446688198
 40
1.0
 40
1.0
 40
1.0
 40
1.0
 10
-3.1804435583
 20
215.1732975357
 30
0.0
 10
-4.5497395144
 20
215.479631546
 30
0.0
 10
-7.3923585132
 20
215.9787947194
 30
0.0
 10
-11.7722451027
 20
216.4008154841
 30
0.0
 10
-16.2753034456
 20
216.5082009846
 30
0.0
 10
-19.2967726832
 20
216.3657356527
 30
0.0
 10
-20.7988176672
 20
216.2384905432
 30
0.0
  0
SPLINE
  5
2DE
100
AcDbEntity
  8
0
100
AcDbSpline
 62
7
  6
CONTINUOUS
 70
0
 71
3
 72
11
 73
7
 74
0
 42
0.0000001
 43
0.0000001
 44
0.0000000001
 40
0.0
 40
0.0
 40
0.0
 40
0.0
 40
0.281321062
 40
0.5441503179
 40
0.7846654155
 40
1.0
 40
1.0
 40
1.0
 40
1.0
 10
-19.9212686507
 20
221.0149368263
 30
0.0
 10
-21.7471703082
 20
221.3089349973
 30
0.0
 10
-25.2626221977
 20
221.9876804059
 30
0.0
 10
-30.2496623446
 20
223.3261859448
 30
0.0
 10
-34.7005575058
 20
224.9281173504
 30
0.0
 10
-37.4105996302
 20
226.2261923335
 30
0.0
 10
-38.6423235559
 20
226.9239303503
 30
0.0
  0
LINE
  5
2DF
100
AcDbEntity
  8
0
100
AcDbLine
 62
7
  6
CONTINUOUS
 10
13.8325435511
 20
254.5814835915
 11
13.8449351387
 21
251.8434275175
  0
SPLINE
  5
2E0
100
AcDbEntity
  8
0
100
AcDbSpline
 62
7
  6
CONTINUOUS
 70
0
 71
3
 72
11
 73
7
 74
0
 42
0.0000001
 43
0.0000001
 44
0.0000000001
 40
0.0
 40
0.0
 40
0.0
 40
0.0
 40
0.2140467744
 40
0.4559136705
 40
0.7201568796
 40
1.0
 40
1.0
 40
1.0
 40
1.0
 10
-23.8983610862
 20
216.6820359781
 30
0.0
 10
-24.9015947893
 20
217.1894966249
 30
0.0
 10
-27.1249087545
 20
218.1010036942
 30
0.0
 10
-30.7678450678
 20
219.1392461854
 30
0.0
 10
-34.8291583483
 20
219.9064809244
 30
0.0
 10
-37.6735539518
 20
220.2137142019
 30
0.0
 10
-39.1396419542
 20
220.3190677781
 30
0.0
  0
LINE
  5
2E1
100
AcDbEntity
  8
0
100
AcDbLine
 62
7
  6
CONTINUOUS
 10
-57.7515291941
 20
234.8391071439
 11
-58.004263987
 21
221.1762124839
  0
SPLINE
  5
2E2
100
AcDbEntity
  8
0
100
AcDbSpline
 62
7
  6
CONTINUOUS
 70
0
 71
3
 72
12
 73
8
 74
0
 42
0.0000001
 43
0.0000001
 44
0.0000000001
 40
0.0
 40
0.0
 40
0.0
 40
0.0
 40
0.1904229236
 40
0.300547158
 40
0.4209967184
 40
0.6920341354
 40
1.0
 40
1.0
 40
1.0
 40
1.0
 10
-41.5718678605
 20
221.1955702526
 30
0.0
 10
-42.0145123053
 20
221.8287968163
 30
0.0
 10
-42.8936266766
 20
222.7030199997
 30
0.0
 10
-44.2800019899
 20
223.7006033431
 30
0.0
 10
-46.0389731815
 20
224.7309372956
 30
0.0
 10
-48.6516251935
 20
225.8625674608
 30
0.0
 10
-50.9046779266
 20
226.5430577201
 30
0.0
 10
-52.115708638
 20
226.8507357233
 30
0.0
  0
LINE
  5
2E3
100
AcDbEntity
  8
0
100
AcDbLine
 62
7
  6
CONTINUOUS
 10
-52.115708638
 20
226.8507357233
 11
-52.3347517815
 21
211.787916253
  0
LINE
  5
2E4
100
AcDbEntity
  8
0
100
AcDbLine
 62
7
  6
CONTINUOUS
 10
-41.8259058695
 20
206.1515202004
 11
-41.5718678605
 21
221.1955702526
  0
LINE
  5
2E5
100
AcDbEntity
  8
0
100
AcDbLine
 62
7
  6
CONTINUOUS
 10
-39.1396419543
 20
220.3190677781
 11
-39.2664765465
 21
205.2291773666
  0
LINE
  5
2E6
100
AcDbEntity
  8
0
100
AcDbLine
 62
7
  6
CONTINUOUS
 10
-24.075781286
 20
201.6042168266
 11
-23.8983610862
 21
216.6820359781
  0
LINE
  5
2E7
100
AcDbEntity
  8
0
100
AcDbLine
 62
7
  6
CONTINUOUS
 10
-20.7988176672
 20
216.2384905432
 11
-20.8141342917
 21
201.1374743297
  0
SPLINE
  5
2E8
100
AcDbEntity
  8
0
100
AcDbSpline
 62
7
  6
CONTINUOUS
 70
0
 71
3
 72
9
 73
5
 74
0
 42
0.0000001
 43
0.0000001
 44
0.0000000001
 40
0.0
 40
0.0
 40
0.0
 40
0.0
 40
0.2561024532
 40
1.0
 40
1.0
 40
1.0
 40
1.0
 10
-52.115708638
 20
226.8507357233
 30
0.0
 10
-52.2385140699
 20
226.9465422197
 30
0.0
 10
-52.714595028
 20
227.3250057364
 30
0.0
 10
-53.176582758
 20
227.7213082093
 30
0.0
 10
-53.5103326854
 20
228.0267556812
 30
0.0
  0
SPLINE
  5
2E9
100
AcDbEntity
  8
0
100
AcDbSpline
 62
7
  6
CONTINUOUS
 70
0
 71
3
 72
13
 73
9
 74
0
 42
0.0000001
 43
0.0000001
 44
0.0000000001
 40
0.0
 40
0.0
 40
0.0
 40
0.0
 40
0.2713575432
 40
0.5261132459
 40
0.6481322991
 40
0.7671921069
 40
0.8841447524
 40
1.0
 40
1.0
 40
1.0
 40
1.0
 10
-99.9209647018
 20
193.5538842902
 30
0.0
 10
-99.9155906109
 20
191.3741223349
 30
0.0
 10
-99.4828331647
 20
187.1324593486
 30
0.0
 10
-97.753804476
 20
182.1600272664
 30
0.0
 10
-95.7156813288
 20
178.724975187
 30
0.0
 10
-93.9119787367
 20
176.4718863603
 30
0.0
 10
-91.8362730602
 20
174.5389790825
 30
0.0
 10
-90.2854210313
 20
173.478914971
 30
0.0
 10
-89.4795232558
 20
173.0134802359
 30
0.0
  0
SPLINE
  5
2EA
100
AcDbEntity
  8
0
100
AcDbSpline
 62
7
  6
CONTINUOUS
 70
0
 71
3
 72
11
 73
7
 74
0
 42
0.0000001
 43
0.0000001
 44
0.0000000001
 40
0.0
 40
0.0
 40
0.0
 40
0.0
 40
0.2397299743
 40
0.483933608
 40
0.7365547464
 40
1.0
 40
1.0
 40
1.0
 40
1.0
 10
-0.2689166575
 20
175.2828297648
 30
0.0
 10
-0.5753873983
 20
175.4598617298
 30
0.0
 10
-1.2349924164
 20
175.7508498245
 30
0.0
 10
-2.3073260721
 20
175.9719214155
 30
0.0
 10
-3.436583863
 20
175.974945967
 30
0.0
 10
-4.1904116043
 20
175.8360545277
 30
0.0
 10
-4.5658008896
 20
175.7342853129
 30
0.0
  0
SPLINE
  5
2EB
100
AcDbEntity
  8
0
100
AcDbSpline
 62
7
  6
CONTINUOUS
 70
0
 71
3
 72
9
 73
5
 74
0
 42
0.0000001
 43
0.0000001
 44
0.0000000001
 40
0.0
 40
0.0
 40
0.0
 40
0.0
 40
0.4835983442
 40
1.0
 40
1.0
 40
1.0
 40
1.0
 10
-18.4856099382
 20
173.1429043678
 30
0.0
 10
-18.74820521
 20
173.2945121155
 30
0.0
 10
-19.3673003945
 20
173.4883881877
 30
0.0
 10
-20.006897951
 20
173.4203193008
 30
0.0
 10
-20.3194033119
 20
173.3355981164
 30
0.0
  0
SPLINE
  5
2EC
100
AcDbEntity
  8
0
100
AcDbSpline
 62
7
  6
CONTINUOUS
 70
0
 71
3
 72
9
 73
5
 74
0
 42
0.0000001
 43
0.0000001
 44
0.0000000001
 40
0.0
 40
0.0
 40
0.0
 40
0.0
 40
0.2537794269
 40
1.0
 40
1.0
 40
1.0
 40
1.0
 10
-41.8780797328
 20
172.2988833001
 30
0.0
 10
-41.8300804979
 20
172.2364925354
 30
0.0
 10
-41.6296590881
 20
171.9995782432
 30
0.0
 10
-41.3829846571
 20
171.801463822
 30
0.0
 10
-41.1825376547
 20
171.6857183258
 30
0.0
  0
SPLINE
  5
2ED
100
AcDbEntity
  8
0
100
AcDbSpline
 62
7
  6
CONTINUOUS
 70
0
 71
3
 72
15
 73
11
 74
0
 42
0.0000001
 43
0.0000001
 44
0.0000000001
 40
0.0
 40
0.0
 40
0.0
 40
0.0
 40
0.1230405585
 40
0.2550706842
 40
0.3921948975
 40
0.5290438979
 40
0.6603359972
 40
0.7823647847
 40
0.8944669093
 40
1.0
 40
1.0
 40
1.0
 40
1.0
 10
1.3091368928
 20
189.8040832735
 30
0.0
 10
0.952828422
 20
189.7074869275
 30
0.0
 10
0.2452828771
 20
189.3822453148
 30
0.0
 10
-0.6621617201
 20
188.6149484073
 30
0.0
 10
-1.3853074157
 20
187.6204471591
 30
0.0
 10
-1.8586975554
 20
186.4882085067
 30
0.0
 10
-2.0394468029
 20
185.3186553851
 30
0.0
 10
-1.9055816624
 20
184.2139776631
 30
0.0
 10
-1.4572384725
 20
183.275441686
 30
0.0
 10
-0.9565715638
 20
182.8238232766
 30
0.0
 10
-0.6823698795
 20
182.665472876
 30
0.0
  0
SPLINE
  5
2EE
100
AcDbEntity
  8
0
100
AcDbSpline
 62
7
  6
CONTINUOUS
 70
0
 71
3
 72
13
 73
9
 74
0
 42
0.0000001
 43
0.0000001
 44
0.0000000001
 40
0.0
 40
0.0
 40
0.0
 40
0.0
 40
0.2623289539
 40
0.5340626264
 40
0.6631980603
 40
0.7833248707
 40
0.8945031625
 40
1.0
 40
1.0
 40
1.0
 40
1.0
 10
2.3936897707
 20
180.5580734079
 30
0.0
 10
2.0681551346
 20
180.3983238837
 30
0.0
 10
1.4927886701
 20
179.8871630437
 30
0.0
 10
1.1038408875
 20
179.0247035368
 30
0.0
 10
1.0447618992
 20
178.3003410906
 30
0.0
 10
1.1361148527
 20
177.8035176863
 30
0.0
 10
1.3594426898
 20
177.3854181352
 30
0.0
 10
1.5915947761
 20
177.1832743393
 30
0.0
 10
1.7178463244
 20
177.1102903766
 30
0.0
  0
SPLINE
  5
2EF
100
AcDbEntity
  8
0
100
AcDbSpline
 62
7
  6
CONTINUOUS
 70
0
 71
3
 72
17
 73
13
 74
0
 42
0.0000001
 43
0.0000001
 44
0.0000000001
 40
0.0
 40
0.0
 40
0.0
 40
0.0
 40
0.1265168489
 40
0.258172737
 40
0.3251304878
 40
0.3922633618
 40
0.5252826119
 40
0.6542964806
 40
0.7769025181
 40
0.89189353
 40
0.9467378058
 40
1.0
 40
1.0
 40
1.0
 40
1.0
 10
5.6211051582
 20
175.8180118634
 30
0.0
 10
5.6266202542
 20
173.581057393
 30
0.0
 10
5.1316306426
 20
169.0054592316
 30
0.0
 10
3.4102717071
 20
163.4846726108
 30
0.0
 10
1.4100726885
 20
159.226582316
 30
0.0
 10
-0.9819883208
 20
155.1479571042
 30
0.0
 10
-4.6018208234
 20
150.5451764979
 30
0.0
 10
-9.7653360248
 20
146.0533083137
 30
0.0
 10
-15.4597933049
 20
142.8557604469
 30
0.0
 10
-20.4860415476
 20
141.4088256856
 30
0.0
 10
-24.4290206516
 20
141.0986818566
 30
0.0
 10
-26.3448614338
 20
141.2190073702
 30
0.0
 10
-27.2776168642
 20
141.3487529586
 30
0.0
  0
SPLINE
  5
2F0
100
AcDbEntity
  8
0
100
AcDbSpline
 62
7
  6
CONTINUOUS
 70
0
 71
3
 72
9
 73
5
 74
0
 42
0.0000001
 43
0.0000001
 44
0.0000000001
 40
0.0
 40
0.0
 40
0.0
 40
0.0
 40
0.4826307807
 40
1.0
 40
1.0
 40
1.0
 40
1.0
 10
-29.1750844969
 20
147.5357472933
 30
0.0
 10
-29.5213446496
 20
147.4418750779
 30
0.0
 10
-30.2091748949
 20
147.1297208083
 30
0.0
 10
-30.7881747687
 20
146.6504512573
 30
0.0
 10
-31.054431582
 20
146.372943949
 30
0.0
  0
SPLINE
  5
2F1
100
AcDbEntity
  8
0
100
AcDbSpline
 62
7
  6
CONTINUOUS
 70
0
 71
3
 72
9
 73
5
 74
0
 42
0.0000001
 43
0.0000001
 44
0.0000000001
 40
0.0
 40
0.0
 40
0.0
 40
0.0
 40
0.4803234824
 40
1.0
 40
1.0
 40
1.0
 40
1.0
 10
-34.6205082037
 20
149.8234626056
 30
0.0
 10
-34.8419991351
 20
149.7634157182
 30
0.0
 10
-35.2786455106
 20
149.5417329048
 30
0.0
 10
-35.6195123092
 20
149.1959040562
 30
0.0
 10
-35.7674281553
 20
148.9964853936
 30
0.0
  0
SPLINE
  5
2F2
100
AcDbEntity
  8
0
100
AcDbSpline
 62
7
  6
CONTINUOUS
 70
0
 71
3
 72
17
 73
13
 74
0
 42
0.0000001
 43
0.0000001
 44
0.0000000001
 40
0.0
 40
0.0
 40
0.0
 40
0.0
 40
0.1229140173
 40
0.2548194414
 40
0.3918077682
 40
0.5285258981
 40
0.6596895439
 40
0.7815981238
 40
0.8389310163
 40
0.8940366817
 40
0.9474687348
 40
1.0
 40
1.0
 40
1.0
 40
1.0
 10
-33.2545890395
 20
167.956664701
 30
0.0
 10
-34.0163863231
 20
167.7501390637
 30
0.0
 10
-35.529174242
 20
167.0547080302
 30
0.0
 10
-37.4695379624
 20
165.414269831
 30
0.0
 10
-39.0155986449
 20
163.2878275148
 30
0.0
 10
-40.0277607533
 20
160.8666254768
 30
0.0
 10
-40.4147082733
 20
158.3672873116
 30
0.0
 10
-40.1698767745
 20
156.3551194145
 30
0.0
 10
-39.6223522186
 20
154.9461214047
 30
0.0
 10
-39.0632009051
 20
154.032152839
 30
0.0
 10
-38.3605037861
 20
153.2644635342
 30
0.0
 10
-37.8048289506
 20
152.8620703815
 30
0.0
 10
-37.5127292899
 20
152.6933398307
 30
0.0
  0
SPLINE
  5
2F3
100
AcDbEntity
  8
0
100
AcDbSpline
 62
7
  6
CONTINUOUS
 70
0
 71
3
 72
17
 73
13
 74
0
 42
0.0000001
 43
0.0000001
 44
0.0000000001
 40
0.0
 40
0.0
 40
0.0
 40
0.0
 40
0.1229140173
 40
0.2548194414
 40
0.3918077682
 40
0.5285258981
 40
0.6596895439
 40
0.7815981238
 40
0.8389310163
 40
0.8940366817
 40
0.9474687348
 40
1.0
 40
1.0
 40
1.0
 40
1.0
 10
-27.8217347801
 20
188.1878275599
 30
0.0
 10
-28.5835320637
 20
187.9813019227
 30
0.0
 10
-30.0963199826
 20
187.2858708891
 30
0.0
 10
-32.036683703
 20
185.64543269
 30
0.0
 10
-33.5827443854
 20
183.5189903738
 30
0.0
 10
-34.5949064939
 20
181.0977883357
 30
0.0
 10
-34.9818540138
 20
178.5984501705
 30
0.0
 10
-34.7370225151
 20
176.5862822735
 30
0.0
 10
-34.1894979592
 20
175.1772842637
 30
0.0
 10
-33.6303466457
 20
174.263315698
 30
0.0
 10
-32.9276495266
 20
173.4956263932
 30
0.0
 10
-32.3719746912
 20
173.0932332405
 30
0.0
 10
-32.0798750305
 20
172.9245026897
 30
0.0
  0
SPLINE
  5
2F4
100
AcDbEntity
  8
0
100
AcDbSpline
 62
7
  6
CONTINUOUS
 70
0
 71
3
 72
17
 73
13
 74
0
 42
0.0000001
 43
0.0000001
 44
0.0000000001
 40
0.0
 40
0.0
 40
0.0
 40
0.0
 40
0.1229140173
 40
0.2548194414
 40
0.3918077682
 40
0.5285258981
 40
0.6596895439
 40
0.7815981238
 40
0.8389310163
 40
0.8940366817
 40
0.9474687348
 40
1.0
 40
1.0
 40
1.0
 40
1.0
 10
-10.0910886074
 20
192.9946614497
 30
0.0
 10
-10.8528858909
 20
192.7881358125
 30
0.0
 10
-12.3656738099
 20
192.0927047789
 30
0.0
 10
-14.3060375303
 20
190.4522665798
 30
0.0
 10
-15.8520982127
 20
188.3258242636
 30
0.0
 10
-16.8642603212
 20
185.9046222255
 30
0.0
 10
-17.2512078411
 20
183.4052840603
 30
0.0
 10
-17.0063763424
 20
181.3931161632
 30
0.0
 10
-16.4588517865
 20
179.9841181535
 30
0.0
 10
-15.899700473
 20
179.0701495878
 30
0.0
 10
-15.1970033539
 20
178.302460283
 30
0.0
 10
-14.6413285184
 20
177.9000671303
 30
0.0
 10
-14.3492288577
 20
177.7313365794
 30
0.0
  0
SPLINE
  5
2F5
100
AcDbEntity
  8
0
100
AcDbSpline
 62
7
  6
CONTINUOUS
 70
0
 71
3
 72
17
 73
13
 74
0
 42
0.0000001
 43
0.0000001
 44
0.0000000001
 40
0.0
 40
0.0
 40
0.0
 40
0.0
 40
0.1229140173
 40
0.2548194414
 40
0.3918077682
 40
0.5285258981
 40
0.6596895439
 40
0.7815981238
 40
0.8389310163
 40
0.8940366817
 40
0.9474687348
 40
1.0
 40
1.0
 40
1.0
 40
1.0
 10
-4.5658008896
 20
175.7342853129
 30
0.0
 10
-5.3275981731
 20
175.5277596757
 30
0.0
 10
-6.8403860921
 20
174.8323286421
 30
0.0
 10
-8.7807498125
 20
173.191890443
 30
0.0
 10
-10.3268104949
 20
171.0654481268
 30
0.0
 10
-11.3389726034
 20
168.6442460887
 30
0.0
 10
-11.7259201233
 20
166.1449079235
 30
0.0
 10
-11.4810886246
 20
164.1327400264
 30
0.0
 10
-10.9335640687
 20
162.7237420167
 30
0.0
 10
-10.3744127552
 20
161.8097734509
 30
0.0
 10
-9.6717156361
 20
161.0420841461
 30
0.0
 10
-9.1160408006
 20
160.6396909935
 30
0.0
 10
-8.8239411399
 20
160.4709604426
 30
0.0
  0
SPLINE
  5
2F6
100
AcDbEntity
  8
0
100
AcDbSpline
 62
7
  6
CONTINUOUS
 70
0
 71
3
 72
10
 73
6
 74
0
 42
0.0000001
 43
0.0000001
 44
0.0000000001
 40
0.0
 40
0.0
 40
0.0
 40
0.0
 40
0.2402592791
 40
0.4849931196
 40
1.0
 40
1.0
 40
1.0
 40
1.0
 10
-17.4439627476
 20
158.1080795218
 30
0.0
 10
-17.6464468684
 20
158.2249966535
 30
0.0
 10
-18.0823761097
 20
158.4172346252
 30
0.0
 10
-19.0406899814
 20
158.6154481339
 30
0.0
 10
-19.7988640209
 20
158.5374628263
 30
0.0
 10
-20.2825959495
 20
158.406321581
 30
0.0
  0
SPLINE
  5
2F7
100
AcDbEntity
  8
0
100
AcDbSpline
 62
7
  6
CONTINUOUS
 70
0
 71
3
 72
11
 73
7
 74
0
 42
0.0000001
 43
0.0000001
 44
0.0000000001
 40
0.0
 40
0.0
 40
0.0
 40
0.0
 40
0.2397299743
 40
0.483933608
 40
0.7365547464
 40
1.0
 40
1.0
 40
1.0
 40
1.0
 10
-5.7942043753
 20
192.5432059016
 30
0.0
 10
-6.1006751161
 20
192.7202378666
 30
0.0
 10
-6.7602801342
 20
193.0112259613
 30
0.0
 10
-7.8326137899
 20
193.2322975523
 30
0.0
 10
-8.9618715808
 20
193.2353221038
 30
0.0
 10
-9.7156993221
 20
193.0964306645
 30
0.0
 10
-10.0910886074
 20
192.9946614497
 30
0.0
  0
SPLINE
  5
2F8
100
AcDbEntity
  8
0
100
AcDbSpline
 62
7
  6
CONTINUOUS
 70
0
 71
3
 72
11
 73
7
 74
0
 42
0.0000001
 43
0.0000001
 44
0.0000000001
 40
0.0
 40
0.0
 40
0.0
 40
0.0
 40
0.2397299743
 40
0.483933608
 40
0.7365547464
 40
1.0
 40
1.0
 40
1.0
 40
1.0
 10
-23.524850548
 20
187.7363720118
 30
0.0
 10
-23.8313212888
 20
187.9134039768
 30
0.0
 10
-24.4909263069
 20
188.2043920715
 30
0.0
 10
-25.5632599626
 20
188.4254636625
 30
0.0
 10
-26.6925177536
 20
188.428488214
 30
0.0
 10
-27.4463454948
 20
188.2895967747
 30
0.0
 10
-27.8217347801
 20
188.1878275599
 30
0.0
  0
SPLINE
  5
2F9
100
AcDbEntity
  8
0
100
AcDbSpline
 62
7
  6
CONTINUOUS
 70
0
 71
3
 72
11
 73
7
 74
0
 42
0.0000001
 43
0.0000001
 44
0.0000000001
 40
0.0
 40
0.0
 40
0.0
 40
0.0
 40
0.2397299743
 40
0.483933608
 40
0.7365547464
 40
1.0
 40
1.0
 40
1.0
 40
1.0
 10
-28.9577048074
 20
167.5052091528
 30
0.0
 10
-29.2641755482
 20
167.6822411178
 30
0.0
 10
-29.9237805664
 20
167.9732292126
 30
0.0
 10
-30.996114222
 20
168.1943008036
 30
0.0
 10
-32.125372013
 20
168.197325355
 30
0.0
 10
-32.8791997542
 20
168.0584339157
 30
0.0
 10
-33.2545890395
 20
167.956664701
 30
0.0
  0
SPLINE
  5
2FA
100
AcDbEntity
  8
0
100
AcDbSpline
 62
7
  6
CONTINUOUS
 70
0
 71
3
 72
16
 73
12
 74
0
 42
0.0000001
 43
0.0000001
 44
0.0000000001
 40
0.0
 40
0.0
 40
0.0
 40
0.0
 40
0.1229696437
 40
0.2549304168
 40
0.3919812836
 40
0.5287587514
 40
0.65998243
 40
0.7819455961
 40
0.893989137
 40
0.947444341
 40
1.0
 40
1.0
 40
1.0
 40
1.0
 10
-20.2825959495
 20
158.406321581
 30
0.0
 10
-20.785862187
 20
158.2698845232
 30
0.0
 10
-21.7852459343
 20
157.8104770657
 30
0.0
 10
-23.067071344
 20
156.7267512205
 30
0.0
 10
-24.0884548649
 20
155.3219480037
 30
0.0
 10
-24.7572442656
 20
153.7227252528
 30
0.0
 10
-25.0122041075
 20
152.0704675381
 30
0.0
 10
-24.8245705241
 20
150.5109513713
 30
0.0
 10
-24.2839697771
 20
149.3860171804
 30
0.0
 10
-23.6556589445
 20
148.70041448
 30
0.0
 10
-23.2886254954
 20
148.4344104477
 30
0.0
 10
-23.0956338779
 20
148.3229744187
 30
0.0
  0
SPLINE
  5
2FB
100
AcDbEntity
  8
0
100
AcDbSpline
 62
7
  6
CONTINUOUS
 70
0
 71
3
 72
15
 73
11
 74
0
 42
0.0000001
 43
0.0000001
 44
0.0000000001
 40
0.0
 40
0.0
 40
0.0
 40
0.0
 40
0.1230367339
 40
0.2550656311
 40
0.3921909832
 40
0.5290411119
 40
0.660333817
 40
0.78236308
 40
0.8944666889
 40
1.0
 40
1.0
 40
1.0
 40
1.0
 10
-20.3194033119
 20
173.3355981164
 30
0.0
 10
-20.6445254631
 20
173.2474564805
 30
0.0
 10
-21.2901515283
 20
172.9506848015
 30
0.0
 10
-22.118193687
 20
172.2505369774
 30
0.0
 10
-22.7780740862
 20
171.3430560967
 30
0.0
 10
-23.2100652289
 20
170.3098857525
 30
0.0
 10
-23.3749997474
 20
169.242658422
 30
0.0
 10
-23.2528343537
 20
168.2346300917
 30
0.0
 10
-22.8437309464
 20
167.3782155135
 30
0.0
 10
-22.3868883471
 20
166.9660682903
 30
0.0
 10
-22.1366616858
 20
166.8216014829
 30
0.0
  0
SPLINE
  5
2FC
100
AcDbEntity
  8
0
100
AcDbSpline
 62
7
  6
CONTINUOUS
 70
0
 71
3
 72
9
 73
5
 74
0
 42
0.0000001
 43
0.0000001
 44
0.0000000001
 40
0.0
 40
0.0
 40
0.0
 40
0.0
 40
0.4835854585
 40
1.0
 40
1.0
 40
1.0
 40
1.0
 10
-33.6157029687
 20
149.7178547525
 30
0.0
 10
-33.7595425566
 20
149.8010008109
 30
0.0
 10
-34.098824258
 20
149.9071627259
 30
0.0
 10
-34.4492687979
 20
149.8698861466
 30
0.0
 10
-34.6205082037
 20
149.8234626056
 30
0.0
  0
SPLINE
  5
2FD
100
AcDbEntity
  8
0
100
AcDbSpline
 62
7
  6
CONTINUOUS
 70
0
 71
3
 72
10
 73
6
 74
0
 42
0.0000001
 43
0.0000001
 44
0.0000000001
 40
0.0
 40
0.0
 40
0.0
 40
0.0
 40
0.2402330281
 40
0.4849688901
 40
1.0
 40
1.0
 40
1.0
 40
1.0
 10
-27.1654661196
 20
147.3245445036
 30
0.0
 10
-27.3087982873
 20
147.4073145418
 30
0.0
 10
-27.6173601987
 20
147.5435083297
 30
0.0
 10
-28.2958343931
 20
147.683781306
 30
0.0
 10
-28.8326039434
 20
147.6285948475
 30
0.0
 10
-29.1750844969
 20
147.5357472933
 30
0.0
  0
SPLINE
  5
2FE
100
AcDbEntity
  8
0
100
AcDbSpline
 62
7
  6
CONTINUOUS
 70
0
 71
3
 72
15
 73
11
 74
0
 42
0.0000001
 43
0.0000001
 44
0.0000000001
 40
0.0
 40
0.0
 40
0.0
 40
0.0
 40
0.0531153748
 40
0.1071987894
 40
0.2190995458
 40
0.3372614702
 40
0.4619250505
 40
0.5923446843
 40
0.7270136603
 40
1.0
 40
1.0
 40
1.0
 40
1.0
 10
-61.3677662294
 20
230.1237450349
 30
0.0
 10
-62.156019951
 20
230.3639356554
 30
0.0
 10
-63.780263872
 20
230.7458599104
 30
0.0
 10
-67.1674452386
 20
231.1060162934
 30
0.0
 10
-71.605672211
 20
230.7676971297
 30
0.0
 10
-76.9101938719
 20
229.1691183406
 30
0.0
 10
-82.0608181339
 20
226.4534271317
 30
0.0
 10
-86.8630061124
 20
222.729930337
 30
0.0
 10
-92.5731609292
 20
216.6085545937
 30
0.0
 10
-95.7891082494
 20
211.0128052256
 30
0.0
 10
-97.3167843123
 20
207.0627996363
 30
0.0
  0
SPLINE
  5
2FF
100
AcDbEntity
  8
0
100
AcDbSpline
 62
7
  6
CONTINUOUS
 70
0
 71
3
 72
9
 73
5
 74
0
 42
0.0000001
 43
0.0000001
 44
0.0000000001
 40
0.0
 40
0.0
 40
0.0
 40
0.0
 40
0.5095733976
 40
1.0
 40
1.0
 40
1.0
 40
1.0
 10
-97.370541754
 20
206.9230437677
 30
0.0
 10
-98.2000227724
 20
204.7547745498
 30
0.0
 10
-99.4707564338
 20
200.3529540949
 30
0.0
 10
-99.9264732012
 20
195.7881631513
 30
0.0
 10
-99.9209647018
 20
193.5538842902
 30
0.0
  0
SPLINE
  5
300
100
AcDbEntity
  8
0
100
AcDbSpline
 62
7
  6
CONTINUOUS
 70
0
 71
3
 72
10
 73
6
 74
0
 42
0.0000001
 43
0.0000001
 44
0.0000000001
 40
0.0
 40
0.0
 40
0.0
 40
0.0
 40
0.2402501619
 40
0.4849853124
 40
1.0
 40
1.0
 40
1.0
 40
1.0
 10
-37.1813799342
 20
178.6131814872
 30
0.0
 10
-37.324729183
 20
178.6959457851
 30
0.0
 10
-37.6333070272
 20
178.8321285102
 30
0.0
 10
-38.3117816376
 20
178.9723977204
 30
0.0
 10
-38.8485390678
 20
178.9172111391
 30
0.0
 10
-39.1910089431
 20
178.8243664798
 30
0.0
  0
SPLINE
  5
301
100
AcDbEntity
  8
0
100
AcDbSpline
 62
7
  6
CONTINUOUS
 70
0
 71
3
 72
9
 73
5
 74
0
 42
0.0000001
 43
0.0000001
 44
0.0000000001
 40
0.0
 40
0.0
 40
0.0
 40
0.0
 40
0.4952910151
 40
1.0
 40
1.0
 40
1.0
 40
1.0
 10
-3.9546841444
 20
194.7811694021
 30
0.0
 10
-2.9060831688
 20
194.1669809396
 30
0.0
 10
-0.9167726294
 20
192.6951405269
 30
0.0
 10
0.7197267982
 20
190.84148851
 30
0.0
 10
1.4450952807
 20
189.8378309743
 30
0.0
  0
SPLINE
  5
302
100
AcDbEntity
  8
0
100
AcDbSpline
 62
7
  6
CONTINUOUS
 70
0
 71
3
 72
9
 73
5
 74
0
 42
0.0000001
 43
0.0000001
 44
0.0000000001
 40
0.0
 40
0.0
 40
0.0
 40
0.0
 40
0.488177593
 40
1.0
 40
1.0
 40
1.0
 40
1.0
 10
-17.1113666325
 20
184.0343216784
 30
0.0
 10
-16.8818450789
 20
183.9951847863
 30
0.0
 10
-16.4007000824
 20
183.9720279159
 30
0.0
 10
-15.9269464081
 20
184.0531870206
 30
0.0
 10
-15.6913394422
 20
184.1170608094
 30
0.0
  0
SPLINE
  5
303
100
AcDbEntity
  8
0
100
AcDbSpline
 62
7
  6
CONTINUOUS
 70
0
 71
3
 72
11
 73
7
 74
0
 42
0.0000001
 43
0.0000001
 44
0.0000000001
 40
0.0
 40
0.0
 40
0.0
 40
0.0
 40
0.2337027732
 40
0.4770785696
 40
0.7323187284
 40
1.0
 40
1.0
 40
1.0
 40
1.0
 10
-37.5574980286
 20
146.5831311147
 30
0.0
 10
-38.4916455775
 20
147.5615737481
 30
0.0
 10
-40.1762848313
 20
149.7819600367
 30
0.0
 10
-41.9942654651
 20
153.6407678476
 30
0.0
 10
-43.101666903
 20
157.9603262901
 30
0.0
 10
-43.3418346877
 20
160.9935243841
 30
0.0
 10
-43.3456547646
 20
162.5429693874
 30
0.0
  0
SPLINE
  5
304
100
AcDbEntity
  8
0
100
AcDbSpline
 62
7
  6
CONTINUOUS
 70
0
 71
3
 72
9
 73
5
 74
0
 42
0.0000001
 43
0.0000001
 44
0.0000000001
 40
0.0
 40
0.0
 40
0.0
 40
0.0
 40
0.2438331926
 40
1.0
 40
1.0
 40
1.0
 40
1.0
 10
-43.3456547646
 20
162.5429693874
 30
0.0
 10
-43.3476357536
 20
163.3464698518
 30
0.0
 10
-43.2246028775
 20
166.6414196922
 30
0.0
 10
-42.5938716151
 20
169.9121109602
 30
0.0
 10
-41.8780797328
 20
172.2988833001
 30
0.0
  0
SPLINE
  5
305
100
AcDbEntity
  8
0
100
AcDbSpline
 62
7
  6
CONTINUOUS
 70
0
 71
3
 72
9
 73
5
 74
0
 42
0.0000001
 43
0.0000001
 44
0.0000000001
 40
0.0
 40
0.0
 40
0.0
 40
0.0
 40
0.4911893629
 40
1.0
 40
1.0
 40
1.0
 40
1.0
 10
-98.2319180835
 20
192.5783264492
 30
0.0
 10
-98.2366863177
 20
194.5123495094
 30
0.0
 10
-97.8969820653
 20
198.4560549342
 30
0.0
 10
-96.936113732
 20
202.2922469524
 30
0.0
 10
-96.306700312
 20
204.1942188294
 30
0.0
  0
SPLINE
  5
306
100
AcDbEntity
  8
0
100
AcDbSpline
 62
7
  6
CONTINUOUS
 70
0
 71
3
 72
9
 73
5
 74
0
 42
0.0000001
 43
0.0000001
 44
0.0000000001
 40
0.0
 40
0.0
 40
0.0
 40
0.0
 40
0.50275812
 40
1.0
 40
1.0
 40
1.0
 40
1.0
 10
-94.7329187662
 20
208.2210033289
 30
0.0
 10
-93.6823471753
 20
210.5424779742
 30
0.0
 10
-91.1661016826
 20
214.9778074249
 30
0.0
 10
-87.8894967575
 20
218.8876444244
 30
0.0
 10
-86.0928255013
 20
220.6549074549
 30
0.0
  0
SPLINE
  5
307
100
AcDbEntity
  8
0
100
AcDbSpline
 62
7
  6
CONTINUOUS
 70
0
 71
3
 72
11
 73
7
 74
0
 42
0.0000001
 43
0.0000001
 44
0.0000000001
 40
0.0
 40
0.0
 40
0.0
 40
0.0
 40
0.2679410114
 40
0.5237461391
 40
0.767270059
 40
1.0
 40
1.0
 40
1.0
 40
1.0
 10
-80.917317844
 20
224.9095624511
 30
0.0
 10
-79.4774847279
 20
225.8847471044
 30
0.0
 10
-76.5134799005
 20
227.5831320102
 30
0.0
 10
-71.8172590199
 20
229.3134172428
 30
0.0
 10
-67.1055898551
 20
230.1160932255
 30
0.0
 10
-63.9887150024
 20
230.0050269
 30
0.0
 10
-62.4948118991
 20
229.7819430022
 30
0.0
  0
SPLINE
  5
308
100
AcDbEntity
  8
0
100
AcDbSpline
 62
7
  6
CONTINUOUS
 70
0
 71
3
 72
15
 73
11
 74
0
 42
0.0000001
 43
0.0000001
 44
0.0000000001
 40
0.0
 40
0.0
 40
0.0
 40
0.0
 40
0.1136134979
 40
0.2349263162
 40
0.3627340901
 40
0.4945698387
 40
0.6272615974
 40
0.7575019884
 40
0.8823821809
 40
1.0
 40
1.0
 40
1.0
 40
1.0
 10
-9.1743350515
 20
193.1546226343
 30
0.0
 10
-8.9456872251
 20
192.6035866293
 30
0.0
 10
-8.632723461
 20
191.3938277529
 30
0.0
 10
-8.6014971419
 20
189.474881656
 30
0.0
 10
-8.9860985381
 20
187.4979978263
 30
0.0
 10
-9.7625567848
 20
185.5767857471
 30
0.0
 10
-10.8850963575
 20
183.8200734409
 30
0.0
 10
-12.2904249937
 20
182.3286893003
 30
0.0
 10
-13.8979275925
 20
181.1890713837
 30
0.0
 10
-15.086399779
 20
180.6933451493
 30
0.0
 10
-15.6825000196
 20
180.5317405011
 30
0.0
  0
SPLINE
  5
309
100
AcDbEntity
  8
0
100
AcDbSpline
 62
7
  6
CONTINUOUS
 70
0
 71
3
 72
11
 73
7
 74
0
 42
0.0000001
 43
0.0000001
 44
0.0000000001
 40
0.0
 40
0.0
 40
0.0
 40
0.0
 40
0.2397299743
 40
0.483933608
 40
0.7365547464
 40
1.0
 40
1.0
 40
1.0
 40
1.0
 10
-14.3492288577
 20
177.7313365794
 30
0.0
 10
-14.0427581169
 20
177.5543046144
 30
0.0
 10
-13.3831530988
 20
177.2633165197
 30
0.0
 10
-12.3108194431
 20
177.0422449287
 30
0.0
 10
-11.1815616522
 20
177.0392203772
 30
0.0
 10
-10.4277339109
 20
177.1781118165
 30
0.0
 10
-10.0523446256
 20
177.2798810313
 30
0.0
  0
SPLINE
  5
30A
100
AcDbEntity
  8
0
100
AcDbSpline
 62
7
  6
CONTINUOUS
 70
0
 71
3
 72
15
 73
11
 74
0
 42
0.0000001
 43
0.0000001
 44
0.0000000001
 40
0.0
 40
0.0
 40
0.0
 40
0.0
 40
0.1230404173
 40
0.2550715678
 40
0.392193297
 40
0.529041898
 40
0.6603340723
 40
0.7823622399
 40
0.8944656588
 40
1.0
 40
1.0
 40
1.0
 40
1.0
 10
-39.1728883954
 20
171.4745688009
 30
0.0
 10
-38.8165804285
 20
171.5711650103
 30
0.0
 10
-38.1090306614
 20
171.8964045269
 30
0.0
 10
-37.2015971364
 20
172.6637073637
 30
0.0
 10
-36.4784511137
 20
173.6581985824
 30
0.0
 10
-36.0050527106
 20
174.7904250207
 30
0.0
 10
-35.8243047207
 20
175.9599760113
 30
0.0
 10
-35.9581789441
 20
177.0646559367
 30
0.0
 10
-36.4065060463
 20
178.0031930385
 30
0.0
 10
-36.9071590589
 20
178.4548569868
 30
0.0
 10
-37.1813799342
 20
178.6131814872
 30
0.0
  0
SPLINE
  5
30B
100
AcDbEntity
  8
0
100
AcDbSpline
 62
7
  6
CONTINUOUS
 70
0
 71
3
 72
12
 73
8
 74
0
 42
0.0000001
 43
0.0000001
 44
0.0000000001
 40
0.0
 40
0.0
 40
0.0
 40
0.0
 40
0.2405442422
 40
0.4956291127
 40
0.6251734421
 40
0.7535433983
 40
1.0
 40
1.0
 40
1.0
 40
1.0
 10
-92.5615874514
 20
209.2302519966
 30
0.0
 10
-92.9643114505
 20
209.0541038955
 30
0.0
 10
-93.7329871248
 20
208.5433634633
 30
0.0
 10
-94.4774170697
 20
207.6582701726
 30
0.0
 10
-94.9287609405
 20
206.8335689177
 30
0.0
 10
-95.2592006075
 20
205.9714207081
 30
0.0
 10
-95.3709703877
 20
205.2823085178
 30
0.0
 10
-95.3698600368
 20
204.8319438262
 30
0.0
  0
SPLINE
  5
30C
100
AcDbEntity
  8
0
100
AcDbSpline
 62
7
  6
CONTINUOUS
 70
0
 71
3
 72
16
 73
12
 74
0
 42
0.0000001
 43
0.0000001
 44
0.0000000001
 40
0.0
 40
0.0
 40
0.0
 40
0.0
 40
0.2789497045
 40
0.4140276387
 40
0.5433510788
 40
0.6659203314
 40
0.7817786942
 40
0.8376434143
 40
0.8924037743
 40
0.9463956946
 40
1.0
 40
1.0
 40
1.0
 40
1.0
 10
-39.2427123638
 20
178.8098996953
 30
0.0
 10
-37.4098389026
 20
182.3639072637
 30
0.0
 10
-33.8455993875
 20
187.2721037093
 30
0.0
 10
-27.8616605329
 20
192.2999430526
 30
0.0
 10
-23.0307511202
 20
195.0934613474
 30
0.0
 10
-18.0122744618
 20
196.8189378975
 30
0.0
 10
-13.7796023297
 20
197.3029224396
 30
0.0
 10
-10.5335344368
 20
197.0747898359
 30
0.0
 10
-8.2125759538
 20
196.6120656067
 30
0.0
 10
-6.0031354539
 20
195.8600655133
 30
0.0
 10
-4.6177459804
 20
195.1695391815
 30
0.0
 10
-3.9546841444
 20
194.7811694021
 30
0.0
  0
SPLINE
  5
30D
100
AcDbEntity
  8
0
100
AcDbSpline
 62
7
  6
CONTINUOUS
 70
0
 71
3
 72
9
 73
5
 74
0
 42
0.0000001
 43
0.0000001
 44
0.0000000001
 40
0.0
 40
0.0
 40
0.0
 40
0.0
 40
0.5164933663
 40
1.0
 40
1.0
 40
1.0
 40
1.0
 10
-95.3698600368
 20
204.8319438262
 30
0.0
 10
-95.3691587397
 20
204.5474937383
 30
0.0
 10
-95.3104349629
 20
203.9946638882
 30
0.0
 10
-95.1185058033
 20
203.4706316637
 30
0.0
 10
-94.9921201097
 20
203.2362519971
 30
0.0
  0
SPLINE
  5
30E
100
AcDbEntity
  8
0
100
AcDbSpline
 62
7
  6
CONTINUOUS
 70
0
 71
3
 72
9
 73
5
 74
0
 42
0.0000001
 43
0.0000001
 44
0.0000000001
 40
0.0
 40
0.0
 40
0.0
 40
0.0
 40
0.2563636623
 40
1.0
 40
1.0
 40
1.0
 40
1.0
 10
-94.9921201097
 20
203.2362519971
 30
0.0
 10
-95.2541137782
 20
202.3911177018
 30
0.0
 10
-96.1591068871
 20
199.0601548178
 30
0.0
 10
-96.5853594306
 20
195.5930039549
 30
0.0
 10
-96.5790316726
 20
193.0264291488
 30
0.0
  0
SPLINE
  5
30F
100
AcDbEntity
  8
0
100
AcDbSpline
 62
7
  6
CONTINUOUS
 70
0
 71
3
 72
9
 73
5
 74
0
 42
0.0000001
 43
0.0000001
 44
0.0000000001
 40
0.0
 40
0.0
 40
0.0
 40
0.0
 40
0.488177593
 40
1.0
 40
1.0
 40
1.0
 40
1.0
 10
-34.8420128053
 20
179.2274877887
 30
0.0
 10
-34.6124912516
 20
179.1883508965
 30
0.0
 10
-34.1313462551
 20
179.1651940261
 30
0.0
 10
-33.6575925808
 20
179.2463531308
 30
0.0
 10
-33.4219856149
 20
179.3102269196
 30
0.0
  0
SPLINE
  5
310
100
AcDbEntity
  8
0
100
AcDbSpline
 62
7
  6
CONTINUOUS
 70
0
 71
3
 72
9
 73
5
 74
0
 42
0.0000001
 43
0.0000001
 44
0.0000000001
 40
0.0
 40
0.0
 40
0.0
 40
0.0
 40
0.2462866417
 40
1.0
 40
1.0
 40
1.0
 40
1.0
 10
1.3272574404
 20
182.4542855946
 30
0.0
 10
1.3680769855
 20
182.4653519015
 30
0.0
 10
1.5329449823
 20
182.5134608418
 30
0.0
 10
1.6941314878
 20
182.5740326382
 30
0.0
 10
1.8127586906
 20
182.6257977984
 30
0.0
  0
SPLINE
  5
311
100
AcDbEntity
  8
0
100
AcDbSpline
 62
7
  6
CONTINUOUS
 70
0
 71
3
 72
11
 73
7
 74
0
 42
0.0000001
 43
0.0000001
 44
0.0000000001
 40
0.0
 40
0.0
 40
0.0
 40
0.0
 40
0.2690090016
 40
0.5243653062
 40
0.7670222101
 40
1.0
 40
1.0
 40
1.0
 40
1.0
 10
-96.5790316726
 20
193.0264291488
 30
0.0
 10
-96.5748263143
 20
191.3207118101
 30
0.0
 10
-96.2887116484
 20
187.9873440349
 30
0.0
 10
-94.9617378819
 20
183.2755693203
 30
0.0
 10
-92.7862381938
 20
179.1418708882
 30
0.0
 10
-90.7810581356
 20
176.8430319976
 30
0.0
 10
-89.6784542026
 20
175.8598976366
 30
0.0
  0
SPLINE
  5
312
100
AcDbEntity
  8
0
100
AcDbSpline
 62
7
  6
CONTINUOUS
 70
0
 71
3
 72
15
 73
11
 74
0
 42
0.0000001
 43
0.0000001
 44
0.0000000001
 40
0.0
 40
0.0
 40
0.0
 40
0.0
 40
0.1136134979
 40
0.2349263162
 40
0.3627340901
 40
0.4945698387
 40
0.6272615974
 40
0.7575019884
 40
0.8823821809
 40
1.0
 40
1.0
 40
1.0
 40
1.0
 10
-26.9049812242
 20
188.3477887445
 30
0.0
 10
-26.6763333978
 20
187.7967527395
 30
0.0
 10
-26.3633696338
 20
186.5869938631
 30
0.0
 10
-26.3321433146
 20
184.6680477662
 30
0.0
 10
-26.7167447108
 20
182.6911639365
 30
0.0
 10
-27.4932029575
 20
180.7699518574
 30
0.0
 10
-28.6157425302
 20
179.0132395511
 30
0.0
 10
-30.0210711664
 20
177.5218554105
 30
0.0
 10
-31.6285737652
 20
176.3822374939
 30
0.0
 10
-32.8170459517
 20
175.8865112596
 30
0.0
 10
-33.4131461923
 20
175.7249066113
 30
0.0
  0
SPLINE
  5
313
100
AcDbEntity
  8
0
100
AcDbSpline
 62
7
  6
CONTINUOUS
 70
0
 71
3
 72
11
 73
7
 74
0
 42
0.0000001
 43
0.0000001
 44
0.0000000001
 40
0.0
 40
0.0
 40
0.0
 40
0.0
 40
0.2397299743
 40
0.483933608
 40
0.7365547464
 40
1.0
 40
1.0
 40
1.0
 40
1.0
 10
-32.0798750305
 20
172.9245026897
 30
0.0
 10
-31.7734042896
 20
172.7474707246
 30
0.0
 10
-31.1137992715
 20
172.4564826299
 30
0.0
 10
-30.0414656159
 20
172.2354110389
 30
0.0
 10
-28.9122078249
 20
172.2323864874
 30
0.0
 10
-28.1583800836
 20
172.3712779267
 30
0.0
 10
-27.7829907984
 20
172.4730471415
 30
0.0
  0
SPLINE
  5
314
100
AcDbEntity
  8
0
100
AcDbSpline
 62
7
  6
CONTINUOUS
 70
0
 71
3
 72
9
 73
5
 74
0
 42
0.0000001
 43
0.0000001
 44
0.0000000001
 40
0.0
 40
0.0
 40
0.0
 40
0.0
 40
0.2530972001
 40
1.0
 40
1.0
 40
1.0
 40
1.0
 10
-38.8460004518
 20
155.4937437523
 30
0.0
 10
-38.9197543033
 20
155.4737488514
 30
0.0
 10
-39.2124241919
 20
155.3995124462
 30
0.0
 10
-39.5100385229
 20
155.3445776906
 30
0.0
 10
-39.7336527827
 20
155.3154144084
 30
0.0
  0
SPLINE
  5
315
100
AcDbEntity
  8
0
100
AcDbSpline
 62
7
  6
CONTINUOUS
 70
0
 71
3
 72
15
 73
11
 74
0
 42
0.0000001
 43
0.0000001
 44
0.0000000001
 40
0.0
 40
0.0
 40
0.0
 40
0.0
 40
0.1200559545
 40
0.2482020319
 40
0.3817206238
 40
0.5166459466
 40
0.6487362818
 40
0.7743441293
 40
0.8913493038
 40
1.0
 40
1.0
 40
1.0
 40
1.0
 10
-38.8548398743
 20
159.0790640607
 30
0.0
 10
-38.4891402616
 20
159.1782063747
 30
0.0
 10
-37.7611942261
 20
159.4960593965
 30
0.0
 10
-36.7992126034
 20
160.2374868297
 30
0.0
 10
-35.990417604
 20
161.2052074415
 30
0.0
 10
-35.3929073225
 20
162.3294260796
 30
0.0
 10
-35.0489724485
 20
163.5298946756
 30
0.0
 10
-34.9854833575
 20
164.7222656479
 30
0.0
 10
-35.2107356322
 20
165.8213269734
 30
0.0
 10
-35.561956644
 20
166.4579704633
 30
0.0
 10
-35.7780078103
 20
166.7242516564
 30
0.0
  0
SPLINE
  5
316
100
AcDbEntity
  8
0
100
AcDbSpline
 62
7
  6
CONTINUOUS
 70
0
 71
3
 72
9
 73
5
 74
0
 42
0.0000001
 43
0.0000001
 44
0.0000000001
 40
0.0
 40
0.0
 40
0.0
 40
0.0
 40
0.2530972001
 40
1.0
 40
1.0
 40
1.0
 40
1.0
 10
-33.4131461923
 20
175.7249066113
 30
0.0
 10
-33.4869000439
 20
175.7049117104
 30
0.0
 10
-33.7795699324
 20
175.6306753051
 30
0.0
 10
-34.0771842635
 20
175.5757405495
 30
0.0
 10
-34.3007985233
 20
175.5465772673
 30
0.0
  0
SPLINE
  5
317
100
AcDbEntity
  8
0
100
AcDbSpline
 62
7
  6
CONTINUOUS
 70
0
 71
3
 72
9
 73
5
 74
0
 42
0.0000001
 43
0.0000001
 44
0.0000000001
 40
0.0
 40
0.0
 40
0.0
 40
0.0
 40
0.488177593
 40
1.0
 40
1.0
 40
1.0
 40
1.0
 10
-40.2748670647
 20
158.9963249297
 30
0.0
 10
-40.0453455111
 20
158.9571880376
 30
0.0
 10
-39.5642005145
 20
158.9340311671
 30
0.0
 10
-39.0904468403
 20
159.0151902719
 30
0.0
 10
-38.8548398743
 20
159.0790640607
 30
0.0
  0
SPLINE
  5
318
100
AcDbEntity
  8
0
100
AcDbSpline
 62
7
  6
CONTINUOUS
 70
0
 71
3
 72
9
 73
5
 74
0
 42
0.0000001
 43
0.0000001
 44
0.0000000001
 40
0.0
 40
0.0
 40
0.0
 40
0.0
 40
0.488177593
 40
1.0
 40
1.0
 40
1.0
 40
1.0
 10
-11.5860789147
 20
166.7739455416
 30
0.0
 10
-11.3565573611
 20
166.7348086495
 30
0.0
 10
-10.8754123646
 20
166.7116517791
 30
0.0
 10
-10.4016586903
 20
166.7928108838
 30
0.0
 10
-10.1660517244
 20
166.8566846726
 30
0.0
  0
SPLINE
  5
319
100
AcDbEntity
  8
0
100
AcDbSpline
 62
7
  6
CONTINUOUS
 70
0
 71
3
 72
15
 73
11
 74
0
 42
0.0000001
 43
0.0000001
 44
0.0000000001
 40
0.0
 40
0.0
 40
0.0
 40
0.0
 40
0.1200559545
 40
0.2482020319
 40
0.3817206238
 40
0.5166459466
 40
0.6487362818
 40
0.7743441293
 40
0.8913493038
 40
1.0
 40
1.0
 40
1.0
 40
1.0
 10
-33.4219856149
 20
179.3102269196
 30
0.0
 10
-33.0562860022
 20
179.4093692337
 30
0.0
 10
-32.3283399667
 20
179.7272222555
 30
0.0
 10
-31.366358344
 20
180.4686496887
 30
0.0
 10
-30.5575633445
 20
181.4363703004
 30
0.0
 10
-29.9600530631
 20
182.5605889385
 30
0.0
 10
-29.6161181891
 20
183.7610575346
 30
0.0
 10
-29.5526290981
 20
184.9534285068
 30
0.0
 10
-29.7778813728
 20
186.0524898324
 30
0.0
 10
-30.1291023846
 20
186.6891333223
 30
0.0
 10
-30.3451535509
 20
186.9554145154
 30
0.0
  0
SPLINE
  5
31A
100
AcDbEntity
  8
0
100
AcDbSpline
 62
7
  6
CONTINUOUS
 70
0
 71
3
 72
13
 73
9
 74
0
 42
0.0000001
 43
0.0000001
 44
0.0000000001
 40
0.0
 40
0.0
 40
0.0
 40
0.0
 40
0.2754684686
 40
0.5425524747
 40
0.6671342583
 40
0.7839378458
 40
0.8939631258
 40
1.0
 40
1.0
 40
1.0
 40
1.0
 10
-27.2776168642
 20
141.3487529586
 30
0.0
 10
-26.8474587653
 20
141.7970870863
 30
0.0
 10
-26.1594744635
 20
142.8439832657
 30
0.0
 10
-25.8061362316
 20
144.3463784744
 30
0.0
 10
-25.9007157423
 20
145.498052341
 30
0.0
 10
-26.1511357065
 20
146.2591633579
 30
0.0
 10
-26.5725891517
 20
146.8923278798
 30
0.0
 10
-26.9583523453
 20
147.204942496
 30
0.0
 10
-27.1654661196
 20
147.3245445036
 30
0.0
  0
SPLINE
  5
31B
100
AcDbEntity
  8
0
100
AcDbSpline
 62
7
  6
CONTINUOUS
 70
0
 71
3
 72
9
 73
5
 74
0
 42
0.0000001
 43
0.0000001
 44
0.0000000001
 40
0.0
 40
0.0
 40
0.0
 40
0.0
 40
0.2530972001
 40
1.0
 40
1.0
 40
1.0
 40
1.0
 10
-15.6825000196
 20
180.5317405011
 30
0.0
 10
-15.7562538712
 20
180.5117456002
 30
0.0
 10
-16.0489237597
 20
180.4375091949
 30
0.0
 10
-16.3465380907
 20
180.3825744393
 30
0.0
 10
-16.5701523506
 20
180.3534111571
 30
0.0
  0
SPLINE
  5
31C
100
AcDbEntity
  8
0
100
AcDbSpline
 62
7
  6
CONTINUOUS
 70
0
 71
3
 72
15
 73
11
 74
0
 42
0.0000001
 43
0.0000001
 44
0.0000000001
 40
0.0
 40
0.0
 40
0.0
 40
0.0
 40
0.1136134979
 40
0.2349263162
 40
0.3627340901
 40
0.4945698387
 40
0.6272615974
 40
0.7575019884
 40
0.8823821809
 40
1.0
 40
1.0
 40
1.0
 40
1.0
 10
-32.3378354836
 20
168.1166258855
 30
0.0
 10
-32.1091876573
 20
167.5655898805
 30
0.0
 10
-31.7962238932
 20
166.3558310042
 30
0.0
 10
-31.7649975741
 20
164.4368849072
 30
0.0
 10
-32.1495989702
 20
162.4600010775
 30
0.0
 10
-32.9260572169
 20
160.5387889984
 30
0.0
 10
-34.0485967896
 20
158.7820766921
 30
0.0
 10
-35.4539254258
 20
157.2906925515
 30
0.0
 10
-37.0614280247
 20
156.151074635
 30
0.0
 10
-38.2499002112
 20
155.6553484006
 30
0.0
 10
-38.8460004518
 20
155.4937437523
 30
0.0
  0
SPLINE
  5
31D
100
AcDbEntity
  8
0
100
AcDbSpline
 62
7
  6
CONTINUOUS
 70
0
 71
3
 72
15
 73
11
 74
0
 42
0.0000001
 43
0.0000001
 44
0.0000000001
 40
0.0
 40
0.0
 40
0.0
 40
0.0
 40
0.1200559545
 40
0.2482020319
 40
0.3817206238
 40
0.5166459466
 40
0.6487362818
 40
0.7743441293
 40
0.8913493038
 40
1.0
 40
1.0
 40
1.0
 40
1.0
 10
-15.6913394422
 20
184.1170608094
 30
0.0
 10
-15.3256398295
 20
184.2162031235
 30
0.0
 10
-14.5976937939
 20
184.5340561452
 30
0.0
 10
-13.6357121712
 20
185.2754835785
 30
0.0
 10
-12.8269171718
 20
186.2432041902
 30
0.0
 10
-12.2294068904
 20
187.3674228283
 30
0.0
 10
-11.8854720164
 20
188.5678914244
 30
0.0
 10
-11.8219829254
 20
189.7602623966
 30
0.0
 10
-12.0472352
 20
190.8593237222
 30
0.0
 10
-12.3984562119
 20
191.4959672121
 30
0.0
 10
-12.6145073782
 20
191.7622484052
 30
0.0
  0
SPLINE
  5
31E
100
AcDbEntity
  8
0
100
AcDbSpline
 62
7
  6
CONTINUOUS
 70
0
 71
3
 72
11
 73
7
 74
0
 42
0.0000001
 43
0.0000001
 44
0.0000000001
 40
0.0
 40
0.0
 40
0.0
 40
0.0
 40
0.2397299743
 40
0.483933608
 40
0.7365547464
 40
1.0
 40
1.0
 40
1.0
 40
1.0
 10
-37.5127292899
 20
152.6933398307
 30
0.0
 10
-37.2062585491
 20
152.5163078656
 30
0.0
 10
-36.5466535309
 20
152.2253197709
 30
0.0
 10
-35.4743198753
 20
152.0042481799
 30
0.0
 10
-34.3450620843
 20
152.0012236285
 30
0.0
 10
-33.5912343431
 20
152.1401150678
 30
0.0
 10
-33.2158450578
 20
152.2418842825
 30
0.0
  0
SPLINE
  5
31F
100
AcDbEntity
  8
0
100
AcDbSpline
 62
7
  6
CONTINUOUS
 70
0
 71
3
 72
15
 73
11
 74
0
 42
0.0000001
 43
0.0000001
 44
0.0000000001
 40
0.0
 40
0.0
 40
0.0
 40
0.0
 40
0.1136134979
 40
0.2349263162
 40
0.3627340901
 40
0.4945698387
 40
0.6272615974
 40
0.7575019884
 40
0.8823821809
 40
1.0
 40
1.0
 40
1.0
 40
1.0
 10
-3.6490473336
 20
175.8942464975
 30
0.0
 10
-3.4203995073
 20
175.3432104925
 30
0.0
 10
-3.1074357432
 20
174.1334516161
 30
0.0
 10
-3.0762094241
 20
172.2145055192
 30
0.0
 10
-3.4608108203
 20
170.2376216894
 30
0.0
 10
-4.237269067
 20
168.3164096103
 30
0.0
 10
-5.3598086397
 20
166.5596973041
 30
0.0
 10
-6.7651372759
 20
165.0683131635
 30
0.0
 10
-8.3726398747
 20
163.9286952469
 30
0.0
 10
-9.5611120612
 20
163.4329690125
 30
0.0
 10
-10.1572123018
 20
163.2713643643
 30
0.0
  0
SPLINE
  5
320
100
AcDbEntity
  8
0
100
AcDbSpline
 62
7
  6
CONTINUOUS
 70
0
 71
3
 72
16
 73
12
 74
0
 42
0.0000001
 43
0.0000001
 44
0.0000000001
 40
0.0
 40
0.0
 40
0.0
 40
0.0
 40
0.1229696437
 40
0.2549304167
 40
0.3919812836
 40
0.5287587514
 40
0.6599824299
 40
0.7819455961
 40
0.893989137
 40
0.947444341
 40
1.0
 40
1.0
 40
1.0
 40
1.0
 10
-20.2570006794
 20
148.0247323585
 30
0.0
 10
-19.7537344418
 20
148.1611694163
 30
0.0
 10
-18.7543506939
 20
148.6205768727
 30
0.0
 10
-17.4725252835
 20
149.7043027178
 30
0.0
 10
-16.4511417618
 20
151.1091059345
 30
0.0
 10
-15.7823523604
 20
152.7083286857
 30
0.0
 10
-15.527392518
 20
154.3605864009
 30
0.0
 10
-15.7150261011
 20
155.9201025683
 30
0.0
 10
-16.2556268481
 20
157.0450367596
 30
0.0
 10
-16.8839376808
 20
157.7306394603
 30
0.0
 10
-17.25097113
 20
157.9966434928
 30
0.0
 10
-17.4439627476
 20
158.1080795218
 30
0.0
  0
SPLINE
  5
321
100
AcDbEntity
  8
0
100
AcDbSpline
 62
7
  6
CONTINUOUS
 70
0
 71
3
 72
11
 73
7
 74
0
 42
0.0000001
 43
0.0000001
 44
0.0000000001
 40
0.0
 40
0.0
 40
0.0
 40
0.0
 40
0.2397299743
 40
0.483933608
 40
0.7365547464
 40
1.0
 40
1.0
 40
1.0
 40
1.0
 10
-8.8239411399
 20
160.4709604426
 30
0.0
 10
-8.5174703991
 20
160.2939284776
 30
0.0
 10
-7.857865381
 20
160.0029403829
 30
0.0
 10
-6.7855317253
 20
159.7818687919
 30
0.0
 10
-5.6562739344
 20
159.7788442404
 30
0.0
 10
-4.9024461931
 20
159.9177356797
 30
0.0
 10
-4.5270569078
 20
160.0195048945
 30
0.0
  0
SPLINE
  5
322
100
AcDbEntity
  8
0
100
AcDbSpline
 62
7
  6
CONTINUOUS
 70
0
 71
3
 72
15
 73
11
 74
0
 42
0.0000001
 43
0.0000001
 44
0.0000000001
 40
0.0
 40
0.0
 40
0.0
 40
0.0
 40
0.1230367339
 40
0.255065631
 40
0.3921909832
 40
0.5290411118
 40
0.6603338169
 40
0.78236308
 40
0.8944666889
 40
1.0
 40
1.0
 40
1.0
 40
1.0
 10
-20.3028683176
 20
166.6289077329
 30
0.0
 10
-19.9777461662
 20
166.7170493687
 30
0.0
 10
-19.3321201
 20
167.0138210459
 30
0.0
 10
-18.5040779403
 20
167.7139688699
 30
0.0
 10
-17.8441975398
 20
168.6214497504
 30
0.0
 10
-17.4122063959
 20
169.6546200951
 30
0.0
 10
-17.2472718766
 20
170.7218474264
 30
0.0
 10
-17.3694372698
 20
171.7298757577
 30
0.0
 10
-17.7785406771
 20
172.5862903367
 30
0.0
 10
-18.2353832767
 20
172.9984375603
 30
0.0
 10
-18.4856099382
 20
173.1429043678
 30
0.0
  0
SPLINE
  5
323
100
AcDbEntity
  8
0
100
AcDbSpline
 62
7
  6
CONTINUOUS
 70
0
 71
3
 72
12
 73
8
 74
0
 42
0.0000001
 43
0.0000001
 44
0.0000000001
 40
0.0
 40
0.0
 40
0.0
 40
0.0
 40
0.2792253094
 40
0.5440150846
 40
0.7821247453
 40
0.8926986472
 40
1.0
 40
1.0
 40
1.0
 40
1.0
 10
-33.4205994172
 20
147.0365904134
 30
0.0
 10
-33.2615409307
 20
147.2645068384
 30
0.0
 10
-33.0204031351
 20
147.7613749232
 30
0.0
 10
-32.9168302706
 20
148.547303663
 30
0.0
 10
-33.0775743871
 20
149.1597173102
 30
0.0
 10
-33.3498125114
 20
149.5288015597
 30
0.0
 10
-33.523236014
 20
149.6644044963
 30
0.0
 10
-33.6157029687
 20
149.7178547525
 30
0.0
  0
SPLINE
  5
324
100
AcDbEntity
  8
0
100
AcDbSpline
 62
7
  6
CONTINUOUS
 70
0
 71
3
 72
9
 73
5
 74
0
 42
0.0000001
 43
0.0000001
 44
0.0000000001
 40
0.0
 40
0.0
 40
0.0
 40
0.0
 40
0.2530972001
 40
1.0
 40
1.0
 40
1.0
 40
1.0
 10
-10.1572123018
 20
163.2713643643
 30
0.0
 10
-10.2309661534
 20
163.2513694634
 30
0.0
 10
-10.5236360419
 20
163.1771330581
 30
0.0
 10
-10.8212503729
 20
163.1221983025
 30
0.0
 10
-11.0448646328
 20
163.0930350203
 30
0.0
  0
SPLINE
  5
325
100
AcDbEntity
  8
0
100
AcDbSpline
 62
7
  6
CONTINUOUS
 70
0
 71
3
 72
8
 73
4
 74
0
 42
0.0000001
 43
0.0000001
 44
0.0000000001
 40
0.0
 40
0.0
 40
0.0
 40
0.0
 40
1.0
 40
1.0
 40
1.0
 40
1.0
 10
-87.6460081544
 20
198.9601097511
 30
0.0
 10
-90.0948352751
 20
200.3852789405
 30
0.0
 10
-92.5435409297
 20
201.8106568637
 30
0.0
 10
-94.9921201097
 20
203.2362519971
 30
0.0
  0
SPLINE
  5
326
100
AcDbEntity
  8
0
100
AcDbSpline
 62
7
  6
CONTINUOUS
 70
0
 71
3
 72
8
 73
4
 74
0
 42
0.0000001
 43
0.0000001
 44
0.0000000001
 40
0.0
 40
0.0
 40
0.0
 40
0.0
 40
1.0
 40
1.0
 40
1.0
 40
1.0
 10
-92.5615874513
 20
209.2302519966
 30
0.0
 10
-90.8713152198
 20
208.2671922793
 30
0.0
 10
-89.1816307572
 20
207.3031004303
 30
0.0
 10
-87.49085396
 20
206.3409268194
 30
0.0
  0
SPLINE
  5
327
100
AcDbEntity
  8
0
100
AcDbSpline
 62
7
  6
CONTINUOUS
 70
0
 71
3
 72
15
 73
11
 74
0
 42
0.0000001
 43
0.0000001
 44
0.0000000001
 40
0.0
 40
0.0
 40
0.0
 40
0.0
 40
0.1200559545
 40
0.2482020319
 40
0.3817206238
 40
0.5166459466
 40
0.6487362818
 40
0.7743441293
 40
0.8913493038
 40
1.0
 40
1.0
 40
1.0
 40
1.0
 10
-10.1660517244
 20
166.8566846726
 30
0.0
 10
-9.8003521117
 20
166.9558269867
 30
0.0
 10
-9.0724060761
 20
167.2736800084
 30
0.0
 10
-8.1104244534
 20
168.0151074417
 30
0.0
 10
-7.301629454
 20
168.9828280534
 30
0.0
 10
-6.7041191726
 20
170.1070466915
 30
0.0
 10
-6.3601842986
 20
171.3075152875
 30
0.0
 10
-6.2966952076
 20
172.4998862598
 30
0.0
 10
-6.5219474822
 20
173.5989475854
 30
0.0
 10
-6.8731684941
 20
174.2355910753
 30
0.0
 10
-7.0892196604
 20
174.5018722684
 30
0.0
  0
SPLINE
  5
328
100
AcDbEntity
  8
0
100
AcDbSpline
 62
7
  6
CONTINUOUS
 70
0
 71
3
 72
9
 73
5
 74
0
 42
0.0000001
 43
0.0000001
 44
0.0000000001
 40
0.0
 40
0.0
 40
0.0
 40
0.0
 40
0.4835822914
 40
1.0
 40
1.0
 40
1.0
 40
1.0
 10
1.7178463244
 20
177.1102903766
 30
0.0
 10
1.8616828513
 20
177.0271408243
 30
0.0
 10
2.200969788
 20
176.9209893947
 30
0.0
 10
2.5514130855
 20
176.958262292
 30
0.0
 10
2.7226537339
 20
177.0046861699
 30
0.0
  0
SPLINE
  5
329
100
AcDbEntity
  8
0
100
AcDbSpline
 62
7
  6
CONTINUOUS
 70
0
 71
3
 72
9
 73
5
 74
0
 42
0.0000001
 43
0.0000001
 44
0.0000000001
 40
0.0
 40
0.0
 40
0.0
 40
0.0
 40
0.4852910795
 40
1.0
 40
1.0
 40
1.0
 40
1.0
 10
-0.6823698795
 20
182.665472876
 30
0.0
 10
-0.4129169492
 20
182.5098648622
 30
0.0
 10
0.2147109731
 20
182.3032398697
 30
0.0
 10
0.8693513823
 20
182.347996104
 30
0.0
 10
1.1912990525
 20
182.4205378938
 30
0.0
  0
LINE
  5
32A
100
AcDbEntity
  8
0
100
AcDbLine
 62
7
  6
CONTINUOUS
 10
-87.662626357
 20
198.9061308113
 11
-87.6460081544
 21
198.9601097511
  0
SPLINE
  5
32B
100
AcDbEntity
  8
0
100
AcDbSpline
 62
7
  6
CONTINUOUS
 70
0
 71
3
 72
17
 73
13
 74
0
 42
0.0000001
 43
0.0000001
 44
0.0000000001
 40
0.0
 40
0.0
 40
0.0
 40
0.0
 40
0.1229140173
 40
0.2548194414
 40
0.3918077682
 40
0.5285258981
 40
0.6596895439
 40
0.7815981238
 40
0.8389310163
 40
0.8940366817
 40
0.9474687348
 40
1.0
 40
1.0
 40
1.0
 40
1.0
 10
-33.2158450578
 20
152.2418842825
 30
0.0
 10
-32.4540477742
 20
152.4484099198
 30
0.0
 10
-30.9412598553
 20
153.1438409533
 30
0.0
 10
-29.0008961349
 20
154.7842791524
 30
0.0
 10
-27.4548354524
 20
156.9107214687
 30
0.0
 10
-26.4426733439
 20
159.3319235067
 30
0.0
 10
-26.055725824
 20
161.8312616719
 30
0.0
 10
-26.3005573228
 20
163.843429569
 30
0.0
 10
-26.8480818787
 20
165.2524275788
 30
0.0
 10
-27.4072331922
 20
166.1663961445
 30
0.0
 10
-28.1099303112
 20
166.9340854493
 30
0.0
 10
-28.6656051467
 20
167.3364786019
 30
0.0
 10
-28.9577048074
 20
167.5052091528
 30
0.0
  0
SPLINE
  5
32C
100
AcDbEntity
  8
0
100
AcDbSpline
 62
7
  6
CONTINUOUS
 70
0
 71
3
 72
9
 73
5
 74
0
 42
0.0000001
 43
0.0000001
 44
0.0000000001
 40
0.0
 40
0.0
 40
0.0
 40
0.0
 40
0.4829143018
 40
1.0
 40
1.0
 40
1.0
 40
1.0
 10
-87.6460081544
 20
198.9601097511
 30
0.0
 10
-87.781301111
 20
199.1993407114
 30
0.0
 10
-87.9872224743
 20
199.7387558804
 30
0.0
 10
-88.0499324812
 20
200.3102422206
 30
0.0
 10
-88.050658024
 20
200.6045265151
 30
0.0
  0
SPLINE
  5
32D
100
AcDbEntity
  8
0
100
AcDbSpline
 62
7
  6
CONTINUOUS
 70
0
 71
3
 72
17
 73
13
 74
0
 42
0.0000001
 43
0.0000001
 44
0.0000000001
 40
0.0
 40
0.0
 40
0.0
 40
0.0
 40
0.1229140173
 40
0.2548194414
 40
0.3918077682
 40
0.5285258981
 40
0.6596895439
 40
0.7815981238
 40
0.8389310163
 40
0.8940366817
 40
0.9474687348
 40
1.0
 40
1.0
 40
1.0
 40
1.0
 10
-27.7829907984
 20
172.4730471415
 30
0.0
 10
-27.0211935148
 20
172.6795727788
 30
0.0
 10
-25.5084055958
 20
173.3750038123
 30
0.0
 10
-23.5680418754
 20
175.0154420114
 30
0.0
 10
-22.021981193
 20
177.1418843276
 30
0.0
 10
-21.0098190845
 20
179.5630863657
 30
0.0
 10
-20.6228715646
 20
182.0624245309
 30
0.0
 10
-20.8677030633
 20
184.074592428
 30
0.0
 10
-21.4152276193
 20
185.4835904378
 30
0.0
 10
-21.9743789327
 20
186.3975590035
 30
0.0
 10
-22.6770760518
 20
187.1652483083
 30
0.0
 10
-23.2327508873
 20
187.5676414609
 30
0.0
 10
-23.524850548
 20
187.7363720118
 30
0.0
  0
SPLINE
  5
32E
100
AcDbEntity
  8
0
100
AcDbSpline
 62
7
  6
CONTINUOUS
 70
0
 71
3
 72
9
 73
5
 74
0
 42
0.0000001
 43
0.0000001
 44
0.0000000001
 40
0.0
 40
0.0
 40
0.0
 40
0.0
 40
0.2429138209
 40
1.0
 40
1.0
 40
1.0
 40
1.0
 10
-88.0481312697
 20
200.7588235063
 30
0.0
 10
-88.0421974123
 20
200.9283935653
 30
0.0
 10
-87.9758631592
 20
201.6246959492
 30
0.0
 10
-87.7499346552
 20
202.3030363781
 30
0.0
 10
-87.5102023721
 20
202.7743952655
 30
0.0
  0
SPLINE
  5
32F
100
AcDbEntity
  8
0
100
AcDbSpline
 62
7
  6
CONTINUOUS
 70
0
 71
3
 72
17
 73
13
 74
0
 42
0.0000001
 43
0.0000001
 44
0.0000000001
 40
0.0
 40
0.0
 40
0.0
 40
0.0
 40
0.1229140173
 40
0.2548194414
 40
0.3918077682
 40
0.5285258981
 40
0.6596895439
 40
0.7815981238
 40
0.8389310163
 40
0.8940366817
 40
0.9474687348
 40
1.0
 40
1.0
 40
1.0
 40
1.0
 10
-10.0523446256
 20
177.2798810313
 30
0.0
 10
-9.2905473421
 20
177.4864066685
 30
0.0
 10
-7.7777594231
 20
178.1818377021
 30
0.0
 10
-5.8373957027
 20
179.8222759012
 30
0.0
 10
-4.2913350203
 20
181.9487182174
 30
0.0
 10
-3.2791729118
 20
184.3699202555
 30
0.0
 10
-2.8922253919
 20
186.8692584207
 30
0.0
 10
-3.1370568906
 20
188.8814263178
 30
0.0
 10
-3.6845814465
 20
190.2904243275
 30
0.0
 10
-4.24373276
 20
191.2043928932
 30
0.0
 10
-4.9464298791
 20
191.9720821981
 30
0.0
 10
-5.5021047146
 20
192.3744753507
 30
0.0
 10
-5.7942043753
 20
192.5432059016
 30
0.0
  0
SPLINE
  5
330
100
AcDbEntity
  8
0
100
AcDbSpline
 62
7
  6
CONTINUOUS
 70
0
 71
3
 72
20
 73
16
 74
0
 42
0.0000001
 43
0.0000001
 44
0.0000000001
 40
0.0
 40
0.0
 40
0.0
 40
0.0
 40
0.1272555021
 40
0.1954364466
 40
0.2654472267
 40
0.4062431358
 40
0.5412499946
 40
0.6047003983
 40
0.6648331839
 40
0.7219058056
 40
0.7767186777
 40
0.8305340669
 40
0.8848345656
 40
0.9410002982
 40
1.0
 40
1.0
 40
1.0
 40
1.0
 10
-18.8807197721
 20
159.8901684882
 30
0.0
 10
-19.8045969304
 20
159.6397024895
 30
0.0
 10
-21.1501015569
 20
158.9477883303
 30
0.0
 10
-22.657586487
 20
157.6324193538
 30
0.0
 10
-24.0134795754
 20
156.0201381598
 30
0.0
 10
-25.2264406921
 20
153.6751179088
 30
0.0
 10
-25.6863711506
 20
151.1152988374
 30
0.0
 10
-25.5142067775
 20
149.1675276364
 30
0.0
 10
-25.1316874694
 20
147.8533558536
 30
0.0
 10
-24.5041149924
 20
146.7087743356
 30
0.0
 10
-23.6520401727
 20
145.7811750918
 30
0.0
 10
-22.6083719421
 20
145.1124718638
 30
0.0
 10
-21.4182086762
 20
144.732363588
 30
0.0
 10
-20.1341698923
 20
144.6543107052
 30
0.0
 10
-19.272138017
 20
144.7988317062
 30
0.0
 10
-18.8437991563
 20
144.9149557173
 30
0.0
  0
SPLINE
  5
331
100
AcDbEntity
  8
0
100
AcDbSpline
 62
7
  6
CONTINUOUS
 70
0
 71
3
 72
20
 73
16
 74
0
 42
0.0000001
 43
0.0000001
 44
0.0000000001
 40
0.0
 40
0.0
 40
0.0
 40
0.0
 40
0.1272555021
 40
0.1954364466
 40
0.2654472267
 40
0.4062431358
 40
0.5412499946
 40
0.6047003983
 40
0.6648331839
 40
0.7219058056
 40
0.7767186777
 40
0.8305340669
 40
0.8848345656
 40
0.9410002982
 40
1.0
 40
1.0
 40
1.0
 40
1.0
 10
-18.8437991563
 20
144.9149557173
 30
0.0
 10
-17.9199219985
 20
145.1654217177
 30
0.0
 10
-16.5744173714
 20
145.8573358747
 30
0.0
 10
-15.0669324414
 20
147.1727048518
 30
0.0
 10
-13.7110393529
 20
148.7849860456
 30
0.0
 10
-12.4980782363
 20
151.1300062967
 30
0.0
 10
-12.0381477778
 20
153.6898253681
 30
0.0
 10
-12.2103121509
 20
155.6375965691
 30
0.0
 10
-12.592831459
 20
156.9517683519
 30
0.0
 10
-13.220403936
 20
158.0963498699
 30
0.0
 10
-14.0724787556
 20
159.0239491137
 30
0.0
 10
-15.1161469863
 20
159.6926523416
 30
0.0
 10
-16.3063102522
 20
160.0727606175
 30
0.0
 10
-17.5903490361
 20
160.1508135005
 30
0.0
 10
-18.4523809111
 20
160.0062924984
 30
0.0
 10
-18.8807197721
 20
159.8901684882
 30
0.0
  0
SPLINE
  5
332
100
AcDbEntity
  8
0
100
AcDbSpline
 62
7
  6
CONTINUOUS
 70
0
 71
3
 72
20
 73
16
 74
0
 42
0.0000001
 43
0.0000001
 44
0.0000000001
 40
0.0
 40
0.0
 40
0.0
 40
0.0
 40
0.1272575524
 40
0.1954354776
 40
0.2654464279
 40
0.4062404871
 40
0.5412491893
 40
0.6047004595
 40
0.6648336126
 40
0.7219061849
 40
0.7767182694
 40
0.8305345511
 40
0.8848327404
 40
0.941003809
 40
1.0
 40
1.0
 40
1.0
 40
1.0
 10
-18.9175271344
 20
174.8194450236
 30
0.0
 10
-19.6146962674
 20
174.6304402846
 30
0.0
 10
-20.6300212964
 20
174.1083339728
 30
0.0
 10
-21.7675270032
 20
173.1157163164
 30
0.0
 10
-22.7906948326
 20
171.8991349593
 30
0.0
 10
-23.7059993185
 20
170.1295826357
 30
0.0
 10
-24.0531064343
 20
168.1979444585
 30
0.0
 10
-23.9231850125
 20
166.7281373639
 30
0.0
 10
-23.6345225144
 20
165.7364583471
 30
0.0
 10
-23.1609387866
 20
164.8727723269
 30
0.0
 10
-22.5179693472
 20
164.172795574
 30
0.0
 10
-21.7304098939
 20
163.6682349697
 30
0.0
 10
-20.8323146158
 20
163.381324694
 30
0.0
 10
-19.8633727184
 20
163.3224861334
 30
0.0
 10
-19.2128721541
 20
163.4315091031
 30
0.0
 10
-18.8896667925
 20
163.5191310922
 30
0.0
  0
SPLINE
  5
333
100
AcDbEntity
  8
0
100
AcDbSpline
 62
7
  6
CONTINUOUS
 70
0
 71
3
 72
20
 73
16
 74
0
 42
0.0000001
 43
0.0000001
 44
0.0000000001
 40
0.0
 40
0.0
 40
0.0
 40
0.0
 40
0.1272575524
 40
0.1954354776
 40
0.2654464279
 40
0.4062404871
 40
0.5412491893
 40
0.6047004595
 40
0.6648336126
 40
0.7219061849
 40
0.7767182694
 40
0.8305345511
 40
0.8848327404
 40
0.941003809
 40
1.0
 40
1.0
 40
1.0
 40
1.0
 10
-18.8896667925
 20
163.5191310922
 30
0.0
 10
-18.1924976605
 20
163.7081358345
 30
0.0
 10
-17.1771726301
 20
164.2302421419
 30
0.0
 10
-16.0396669239
 20
165.2228597996
 30
0.0
 10
-15.0164990942
 20
166.4394411563
 30
0.0
 10
-14.1011946084
 20
168.2089934801
 30
0.0
 10
-13.7540874925
 20
170.1406316572
 30
0.0
 10
-13.8840089144
 20
171.6104387519
 30
0.0
 10
-14.1726714125
 20
172.6021177686
 30
0.0
 10
-14.6462551403
 20
173.4658037889
 30
0.0
 10
-15.2892245796
 20
174.1657805418
 30
0.0
 10
-16.0767840331
 20
174.6703411459
 30
0.0
 10
-16.974879311
 20
174.9572514219
 30
0.0
 10
-17.9438212087
 20
175.0160899825
 30
0.0
 10
-18.5943217724
 20
174.9070670111
 30
0.0
 10
-18.9175271344
 20
174.8194450236
 30
0.0
  0
SPLINE
  5
334
100
AcDbEntity
  8
0
100
AcDbSpline
 62
7
  6
CONTINUOUS
 70
0
 71
3
 72
13
 73
9
 74
0
 42
0.0000001
 43
0.0000001
 44
0.0000000001
 40
0.0
 40
0.0
 40
0.0
 40
0.0
 40
0.1156044793
 40
0.232775102
 40
0.3522799569
 40
0.4747488023
 40
0.7298198302
 40
1.0
 40
1.0
 40
1.0
 40
1.0
 10
-89.4132632525
 20
173.0921617195
 30
0.0
 10
-90.1044741964
 20
173.5943900727
 30
0.0
 10
-91.4280903335
 20
174.7032585514
 30
0.0
 10
-93.1853374582
 20
176.6342444728
 30
0.0
 10
-94.7056011058
 20
178.8191934281
 30
0.0
 10
-96.4165852669
 20
182.0792179009
 30
0.0
 10
-97.8618689828
 20
186.6880714661
 30
0.0
 10
-98.2269950068
 20
190.581498394
 30
0.0
 10
-98.2319180835
 20
192.5783264492
 30
0.0
  0
SPLINE
  5
335
100
AcDbEntity
  8
0
100
AcDbSpline
 62
7
  6
CONTINUOUS
 70
0
 71
3
 72
9
 73
5
 74
0
 42
0.0000001
 43
0.0000001
 44
0.0000000001
 40
0.0
 40
0.0
 40
0.0
 40
0.0
 40
0.4835983442
 40
1.0
 40
1.0
 40
1.0
 40
1.0
 10
-22.1366616858
 20
166.8216014829
 30
0.0
 10
-21.8740664148
 20
166.6699937356
 30
0.0
 10
-21.2549712323
 20
166.4761176639
 30
0.0
 10
-20.6153736776
 20
166.5441865488
 30
0.0
 10
-20.3028683176
 20
166.6289077329
 30
0.0
  0
SPLINE
  5
336
100
AcDbEntity
  8
0
100
AcDbSpline
 62
7
  6
CONTINUOUS
 70
0
 71
3
 72
17
 73
13
 74
0
 42
0.0000001
 43
0.0000001
 44
0.0000000001
 40
0.0
 40
0.0
 40
0.0
 40
0.0
 40
0.1229140173
 40
0.2548194414
 40
0.3918077682
 40
0.5285258981
 40
0.6596895439
 40
0.7815981238
 40
0.8389310163
 40
0.8940366817
 40
0.9474687348
 40
1.0
 40
1.0
 40
1.0
 40
1.0
 10
-4.5270569078
 20
160.0195048945
 30
0.0
 10
-3.7652596243
 20
160.2260305317
 30
0.0
 10
-2.2524717053
 20
160.9214615653
 30
0.0
 10
-0.3121079849
 20
162.5618997644
 30
0.0
 10
1.2339526975
 20
164.6883420806
 30
0.0
 10
2.246114806
 20
167.1095441187
 30
0.0
 10
2.6330623259
 20
169.6088822839
 30
0.0
 10
2.3882308272
 20
171.6210501809
 30
0.0
 10
1.8407062713
 20
173.0300481907
 30
0.0
 10
1.2815549578
 20
173.9440167564
 30
0.0
 10
0.5788578387
 20
174.7117060612
 30
0.0
 10
0.0231830032
 20
175.1140992139
 30
0.0
 10
-0.2689166575
 20
175.2828297648
 30
0.0
  0
SPLINE
  5
337
100
AcDbEntity
  8
0
100
AcDbSpline
 62
7
  6
CONTINUOUS
 70
0
 71
3
 72
10
 73
6
 74
0
 42
0.0000001
 43
0.0000001
 44
0.0000000001
 40
0.0
 40
0.0
 40
0.0
 40
0.0
 40
0.2402317169
 40
0.4849644366
 40
1.0
 40
1.0
 40
1.0
 40
1.0
 10
-41.1825376547
 20
171.6857183258
 30
0.0
 10
-41.039204313
 20
171.6029523648
 30
0.0
 10
-40.7306088405
 20
171.4668409726
 30
0.0
 10
-40.0521498928
 20
171.3265543239
 30
0.0
 10
-39.5153716645
 20
171.3817205105
 30
0.0
 10
-39.1728883954
 20
171.4745688009
 30
0.0
  0
SPLINE
  5
338
100
AcDbEntity
  8
0
100
AcDbSpline
 62
7
  6
CONTINUOUS
 70
0
 71
3
 72
10
 73
6
 74
0
 42
0.0000001
 43
0.0000001
 44
0.0000000001
 40
0.0
 40
0.0
 40
0.0
 40
0.0
 40
0.2402592791
 40
0.4849931196
 40
1.0
 40
1.0
 40
1.0
 40
1.0
 10
-23.0956338779
 20
148.3229744187
 30
0.0
 10
-22.8931497573
 20
148.2060572871
 30
0.0
 10
-22.4572205165
 20
148.0138193155
 30
0.0
 10
-21.4989066461
 20
147.8156058069
 30
0.0
 10
-20.7407326074
 20
147.8935911135
 30
0.0
 10
-20.2570006794
 20
148.0247323585
 30
0.0
  0
SPLINE
  5
339
100
AcDbEntity
  8
0
100
AcDbSpline
 62
7
  6
CONTINUOUS
 70
0
 71
3
 72
13
 73
9
 74
0
 42
0.0000001
 43
0.0000001
 44
0.0000000001
 40
0.0
 40
0.0
 40
0.0
 40
0.0
 40
0.2347902242
 40
0.4890705672
 40
0.6197521108
 40
0.7497766182
 40
0.8771066556
 40
1.0
 40
1.0
 40
1.0
 40
1.0
 10
-80.8792734613
 20
224.8320073379
 30
0.0
 10
-81.7861940471
 20
224.5889023025
 30
0.0
 10
-83.5739388353
 20
223.6756535499
 30
0.0
 10
-85.3265058234
 20
221.868971111
 30
0.0
 10
-86.4097480718
 20
220.1102164385
 30
0.0
 10
-87.0213081072
 20
218.6772727411
 30
0.0
 10
-87.4006655307
 20
217.198807689
 30
0.0
 10
-87.4908439367
 20
216.1965195473
 30
0.0
 10
-87.4908439367
 20
215.7050627153
 30
0.0
  0
SPLINE
  5
33A
100
AcDbEntity
  8
0
100
AcDbSpline
 62
7
  6
CONTINUOUS
 70
0
 71
3
 72
11
 73
7
 74
0
 42
0.0000001
 43
0.0000001
 44
0.0000000001
 40
0.0
 40
0.0
 40
0.0
 40
0.0
 40
0.2717776924
 40
0.5268678486
 40
0.7676328571
 40
1.0
 40
1.0
 40
1.0
 40
1.0
 10
-87.4908439367
 20
132.0456128931
 30
0.0
 10
-87.4908439367
 20
131.4986919545
 30
0.0
 10
-87.3845091481
 20
130.4339165831
 30
0.0
 10
-86.8752101139
 20
128.9589806043
 30
0.0
 10
-86.0406496625
 20
127.731779765
 30
0.0
 10
-85.2853656429
 20
127.1243021567
 30
0.0
 10
-84.8804584436
 20
126.8903984257
 30
0.0
  0
SPLINE
  5
33B
100
AcDbEntity
  8
0
100
AcDbSpline
 62
7
  6
CONTINUOUS
 70
0
 71
3
 72
9
 73
5
 74
0
 42
0.0000001
 43
0.0000001
 44
0.0000000001
 40
0.0
 40
0.0
 40
0.0
 40
0.0
 40
0.2475061305
 40
1.0
 40
1.0
 40
1.0
 40
1.0
 10
-83.9454657974
 20
126.7221181763
 30
0.0
 10
-83.988227779
 20
126.7750529251
 30
0.0
 10
-84.1566492402
 20
126.9924131608
 30
0.0
 10
-84.3074178332
 20
127.2233712935
 30
0.0
 10
-84.4105083944
 20
127.4027472613
 30
0.0
  0
SPLINE
  5
33C
100
AcDbEntity
  8
0
100
AcDbSpline
 62
7
  6
CONTINUOUS
 70
0
 71
3
 72
9
 73
5
 74
0
 42
0.0000001
 43
0.0000001
 44
0.0000000001
 40
0.0
 40
0.0
 40
0.0
 40
0.0
 40
0.246472483
 40
1.0
 40
1.0
 40
1.0
 40
1.0
 10
-84.6529243541
 20
127.8751775345
 30
0.0
 10
-84.6853654431
 20
127.9463817655
 30
0.0
 10
-84.8111504525
 20
128.2379108389
 30
0.0
 10
-84.9136125999
 20
128.5394049432
 30
0.0
 10
-84.9780605046
 20
128.7697779655
 30
0.0
  0
SPLINE
  5
33D
100
AcDbEntity
  8
0
100
AcDbSpline
 62
7
  6
CONTINUOUS
 70
0
 71
3
 72
9
 73
5
 74
0
 42
0.0000001
 43
0.0000001
 44
0.0000000001
 40
0.0
 40
0.0
 40
0.0
 40
0.0
 40
0.2450096517
 40
1.0
 40
1.0
 40
1.0
 40
1.0
 10
-85.0903874781
 20
129.2351503667
 30
0.0
 10
-85.1152130547
 20
129.3566516594
 30
0.0
 10
-85.2031486118
 20
129.8552370331
 30
0.0
 10
-85.238781779
 20
130.362725403
 30
0.0
 10
-85.238781779
 20
130.7448636154
 30
0.0
  0
SPLINE
  5
33E
100
AcDbEntity
  8
0
100
AcDbSpline
 62
7
  6
CONTINUOUS
 70
0
 71
3
 72
9
 73
5
 74
0
 42
0.0000001
 43
0.0000001
 44
0.0000000001
 40
0.0
 40
0.0
 40
0.0
 40
0.0
 40
0.245609528
 40
1.0
 40
1.0
 40
1.0
 40
1.0
 10
-85.238781779
 20
214.4043134377
 30
0.0
 10
-85.238781779
 20
214.5350967827
 30
0.0
 10
-85.2259358624
 20
215.0675300042
 30
0.0
 10
-85.1631349491
 20
215.5985466796
 30
0.0
 10
-85.0903832864
 20
215.9936052442
 30
0.0
  0
SPLINE
  5
33F
100
AcDbEntity
  8
0
100
AcDbSpline
 62
7
  6
CONTINUOUS
 70
0
 71
3
 72
9
 73
5
 74
0
 42
0.0000001
 43
0.0000001
 44
0.0000000001
 40
0.0
 40
0.0
 40
0.0
 40
0.0
 40
0.2529400974
 40
1.0
 40
1.0
 40
1.0
 40
1.0
 10
-81.3481232101
 20
222.1501979271
 30
0.0
 10
-81.276886725
 20
222.2050837555
 30
0.0
 10
-80.9920393056
 20
222.4178626711
 30
0.0
 10
-80.6943114642
 20
222.6134727344
 30
0.0
 10
-80.4655634211
 20
222.7484526947
 30
0.0
  0
SPLINE
  5
340
100
AcDbEntity
  8
0
100
AcDbSpline
 62
7
  6
CONTINUOUS
 70
0
 71
3
 72
9
 73
5
 74
0
 42
0.0000001
 43
0.0000001
 44
0.0000000001
 40
0.0
 40
0.0
 40
0.0
 40
0.0
 40
0.2556545958
 40
1.0
 40
1.0
 40
1.0
 40
1.0
 10
-80.0201440047
 20
222.9928017575
 30
0.0
 10
-79.9065574404
 20
223.0504766201
 30
0.0
 10
-79.4568430483
 20
223.2651409291
 30
0.0
 10
-78.9854641265
 20
223.4352264268
 30
0.0
 10
-78.6272113036
 20
223.5312580602
 30
0.0
  0
SPLINE
  5
341
100
AcDbEntity
  8
0
100
AcDbSpline
 62
7
  6
CONTINUOUS
 70
0
 71
3
 72
11
 73
7
 74
0
 42
0.0000001
 43
0.0000001
 44
0.0000000001
 40
0.0
 40
0.0
 40
0.0
 40
0.0
 40
0.2570200142
 40
0.5082148827
 40
0.7551822501
 40
1.0
 40
1.0
 40
1.0
 40
1.0
 10
-24.0427674522
 20
131.5983259867
 30
0.0
 10
-25.1898206116
 20
131.5579987423
 30
0.0
 10
-27.4661445975
 20
131.6225445746
 30
0.0
 10
-30.8036920347
 20
132.1746770106
 30
0.0
 10
-33.9785752529
 20
133.1753688842
 30
0.0
 10
-35.9638663386
 20
134.1356487494
 30
0.0
 10
-36.9105729296
 20
134.6824463554
 30
0.0
  0
SPLINE
  5
342
100
AcDbEntity
  8
0
100
AcDbSpline
 62
7
  6
CONTINUOUS
 70
0
 71
3
 72
14
 73
10
 74
0
 42
0.0000001
 43
0.0000001
 44
0.0000000001
 40
0.0
 40
0.0
 40
0.0
 40
0.0
 40
0.2678665671
 40
0.4052397727
 40
0.5390738176
 40
0.666065929
 40
0.7844449945
 40
0.8947198784
 40
1.0
 40
1.0
 40
1.0
 40
1.0
 10
-10.866704457
 20
135.1302419127
 30
0.0
 10
-10.969391084
 20
133.7526523585
 30
0.0
 10
-11.6250820041
 20
131.6820015388
 30
0.0
 10
-13.2030625409
 20
129.3803048453
 30
0.0
 10
-14.69547363
 20
127.9451264666
 30
0.0
 10
-16.3847641903
 20
126.925100246
 30
0.0
 10
-18.1642111181
 20
126.3932068401
 30
0.0
 10
-19.9141914648
 20
126.4007019348
 30
0.0
 10
-20.9857886072
 20
126.7852765663
 30
0.0
 10
-21.455928408
 20
127.0568481958
 30
0.0
  0
SPLINE
  5
343
100
AcDbEntity
  8
0
100
AcDbSpline
 62
7
  6
CONTINUOUS
 70
0
 71
3
 72
19
 73
15
 74
0
 42
0.0000001
 43
0.0000001
 44
0.0000000001
 40
0.0
 40
0.0
 40
0.0
 40
0.0
 40
0.1283940374
 40
0.1953459282
 40
0.2634382052
 40
0.4005932058
 40
0.535428165
 40
0.6638307223
 40
0.7248865622
 40
0.7835918652
 40
0.8400508669
 40
0.8945732716
 40
0.9476670569
 40
1.0
 40
1.0
 40
1.0
 40
1.0
 10
-23.5083437404
 20
198.8667403999
 30
0.0
 10
-26.3431271093
 20
197.4457548017
 30
0.0
 10
-30.3778886477
 20
194.6845554875
 30
0.0
 10
-35.0448057853
 20
190.1397088215
 30
0.0
 10
-39.3168803568
 20
184.93239919
 30
0.0
 10
-43.5537333022
 20
177.5977071219
 30
0.0
 10
-46.5767470959
 20
168.102950474
 30
0.0
 10
-47.2014856531
 20
160.0264846597
 30
0.0
 10
-46.4456691512
 20
153.9268372052
 30
0.0
 10
-45.2972677492
 20
149.7119167847
 30
0.0
 10
-43.5781868016
 20
145.8702456994
 30
0.0
 10
-41.3193171382
 20
142.4813283738
 30
0.0
 10
-38.5658477696
 20
139.6196020526
 30
0.0
 10
-36.4292765416
 20
138.0999370411
 30
0.0
 10
-35.310075371
 20
137.4534799026
 30
0.0
  0
SPLINE
  5
344
100
AcDbEntity
  8
0
100
AcDbSpline
 62
7
  6
CONTINUOUS
 70
0
 71
3
 72
11
 73
7
 74
0
 42
0.0000001
 43
0.0000001
 44
0.0000000001
 40
0.0
 40
0.0
 40
0.0
 40
0.0
 40
0.2717600794
 40
0.5268850619
 40
0.7676389753
 40
1.0
 40
1.0
 40
1.0
 40
1.0
 10
-21.5869675017
 20
133.0605427918
 30
0.0
 10
-21.5869675017
 20
132.7187392107
 30
0.0
 10
-21.5204691693
 20
132.0532433815
 30
0.0
 10
-21.2022448797
 20
131.131364577
 30
0.0
 10
-20.6805624379
 20
130.3643823296
 30
0.0
 10
-20.2085268922
 20
129.984737389
 30
0.0
 10
-19.9554735348
 20
129.8385390747
 30
0.0
  0
SPLINE
  5
345
100
AcDbEntity
  8
0
100
AcDbSpline
 62
7
  6
CONTINUOUS
 70
0
 71
3
 72
9
 73
5
 74
0
 42
0.0000001
 43
0.0000001
 44
0.0000000001
 40
0.0
 40
0.0
 40
0.0
 40
0.0
 40
0.4836001859
 40
1.0
 40
1.0
 40
1.0
 40
1.0
 10
16.3737751065
 20
198.8970088613
 30
0.0
 10
17.8661260136
 20
196.0870902392
 30
0.0
 10
20.1263669162
 20
189.8167642409
 30
0.0
 10
20.8071480493
 20
183.2114501181
 30
0.0
 10
20.8071480493
 20
179.8140323222
 30
0.0
  0
SPLINE
  5
346
100
AcDbEntity
  8
0
100
AcDbSpline
 62
7
  6
CONTINUOUS
 70
0
 71
3
 72
16
 73
12
 74
0
 42
0.0000001
 43
0.0000001
 44
0.0000000001
 40
0.0
 40
0.0
 40
0.0
 40
0.0
 40
0.1247784643
 40
0.2543804394
 40
0.3203447514
 40
0.3866103066
 40
0.5185679947
 40
0.6477278912
 40
0.7718336606
 40
0.8893846807
 40
1.0
 40
1.0
 40
1.0
 40
1.0
 10
20.8071480493
 20
179.8140323222
 30
0.0
 10
20.8071480493
 20
176.4898692814
 30
0.0
 10
20.1190859579
 20
169.7006050053
 30
0.0
 10
17.7417626259
 20
161.4589245789
 30
0.0
 10
14.9751445984
 20
155.0477890729
 30
0.0
 10
11.6504191185
 20
148.8365193209
 30
0.0
 10
6.5820873954
 20
141.6838897484
 30
0.0
 10
-0.7200802165
 20
134.4005244135
 30
0.0
 10
-8.9071331592
 20
128.7646259018
 30
0.0
 10
-17.5976003585
 20
125.0526425322
 30
0.0
 10
-23.6492237298
 20
123.9646321518
 30
0.0
 10
-26.592818121
 20
123.8261616264
 30
0.0
  0
SPLINE
  5
347
100
AcDbEntity
  8
0
100
AcDbSpline
 62
7
  6
CONTINUOUS
 70
0
 71
3
 72
10
 73
6
 74
0
 42
0.0000001
 43
0.0000001
 44
0.0000000001
 40
0.0
 40
0.0
 40
0.0
 40
0.0
 40
0.5149103404
 40
0.7596757362
 40
1.0
 40
1.0
 40
1.0
 40
1.0
 10
-75.249118067
 20
123.2113305066
 30
0.0
 10
-75.9313636708
 20
123.0284508319
 30
0.0
 10
-77.0000298818
 20
122.9211931654
 30
0.0
 10
-78.3503973277
 20
123.2023768211
 30
0.0
 10
-78.9648078227
 20
123.4736851254
 30
0.0
 10
-79.2503012539
 20
123.6385285414
 30
0.0
  0
SPLINE
  5
348
100
AcDbEntity
  8
0
100
AcDbSpline
 62
7
  6
CONTINUOUS
 70
0
 71
3
 72
10
 73
6
 74
0
 42
0.0000001
 43
0.0000001
 44
0.0000000001
 40
0.0
 40
0.0
 40
0.0
 40
0.0
 40
0.5252520963
 40
0.7668039053
 40
1.0
 40
1.0
 40
1.0
 40
1.0
 10
-73.844159341
 20
211.8440602854
 30
0.0
 10
-73.844159341
 20
211.6070899612
 30
0.0
 10
-73.774772167
 20
211.2504413708
 30
0.0
 10
-73.5178070519
 20
210.8735849311
 30
0.0
 10
-73.3479058519
 20
210.7367915659
 30
0.0
 10
-73.2568162999
 20
210.6841479593
 30
0.0
  0
SPLINE
  5
349
100
AcDbEntity
  8
0
100
AcDbSpline
 62
7
  6
CONTINUOUS
 70
0
 71
3
 72
10
 73
6
 74
0
 42
0.0000001
 43
0.0000001
 44
0.0000000001
 40
0.0
 40
0.0
 40
0.0
 40
0.0
 40
0.5252520963
 40
0.7668039053
 40
1.0
 40
1.0
 40
1.0
 40
1.0
 10
-73.844159341
 20
133.7006181438
 30
0.0
 10
-73.844159341
 20
133.4636478196
 30
0.0
 10
-73.774772167
 20
133.1069992291
 30
0.0
 10
-73.5178070519
 20
132.7301427895
 30
0.0
 10
-73.3479058519
 20
132.5933494243
 30
0.0
 10
-73.2568162999
 20
132.5407058176
 30
0.0
  0
SPLINE
  5
34A
100
AcDbEntity
  8
0
100
AcDbSpline
 62
7
  6
CONTINUOUS
 70
0
 71
3
 72
12
 73
8
 74
0
 42
0.0000001
 43
0.0000001
 44
0.0000000001
 40
0.0
 40
0.0
 40
0.0
 40
0.0
 40
0.2349933756
 40
0.4894753556
 40
0.6202647794
 40
0.7503870015
 40
1.0
 40
1.0
 40
1.0
 40
1.0
 10
-78.6272113036
 20
223.5312580602
 30
0.0
 10
-79.5341653604
 20
223.2881440527
 30
0.0
 10
-81.3219279206
 20
222.3747682217
 30
0.0
 10
-83.0743876237
 20
220.5685246995
 30
0.0
 10
-84.1577140585
 20
218.80884657
 30
0.0
 10
-84.961024145
 20
216.9290163883
 30
0.0
 10
-85.238781779
 20
215.4017025647
 30
0.0
 10
-85.238781779
 20
214.4043134377
 30
0.0
  0
SPLINE
  5
34B
100
AcDbEntity
  8
0
100
AcDbSpline
 62
7
  6
CONTINUOUS
 70
0
 71
3
 72
11
 73
7
 74
0
 42
0.0000001
 43
0.0000001
 44
0.0000000001
 40
0.0
 40
0.0
 40
0.0
 40
0.0
 40
0.271772124
 40
0.5268740629
 40
0.7676338636
 40
1.0
 40
1.0
 40
1.0
 40
1.0
 10
-85.238781779
 20
130.7448636154
 30
0.0
 10
-85.238781779
 20
130.1979530231
 30
0.0
 10
-85.132424762
 20
129.1331722275
 30
0.0
 10
-84.6231836548
 20
127.6581992935
 30
0.0
 10
-83.7885697359
 20
126.4310414819
 30
0.0
 10
-83.0333486516
 20
125.823472294
 30
0.0
 10
-82.6283944905
 20
125.5896524579
 30
0.0
  0
SPLINE
  5
34C
100
AcDbEntity
  8
0
100
AcDbSpline
 62
7
  6
CONTINUOUS
 70
0
 71
3
 72
11
 73
7
 74
0
 42
0.0000001
 43
0.0000001
 44
0.0000000001
 40
0.0
 40
0.0
 40
0.0
 40
0.0
 40
0.2671578709
 40
0.5245754087
 40
0.7692109915
 40
1.0
 40
1.0
 40
1.0
 40
1.0
 10
-87.5561678819
 20
198.8541337462
 30
0.0
 10
-88.4830354084
 20
196.3304151741
 30
0.0
 10
-89.9043261784
 20
191.2160233948
 30
0.0
 10
-90.6620243056
 20
183.4707065492
 30
0.0
 10
-89.9816785534
 20
176.080521491
 30
0.0
 10
-88.5305590868
 20
171.470140212
 30
0.0
 10
-87.5666369773
 20
169.3570734828
 30
0.0
  0
SPLINE
  5
34D
100
AcDbEntity
  8
0
100
AcDbSpline
 62
7
  6
CONTINUOUS
 70
0
 71
3
 72
13
 73
9
 74
0
 42
0.0000001
 43
0.0000001
 44
0.0000000001
 40
0.0
 40
0.0
 40
0.0
 40
0.0
 40
0.1054199736
 40
0.2162072625
 40
0.3355571307
 40
0.4637457895
 40
0.7347562963
 40
1.0
 40
1.0
 40
1.0
 40
1.0
 10
-71.4562956682
 20
213.8014930834
 30
0.0
 10
-71.5662639318
 20
213.8650473098
 30
0.0
 10
-71.818526479
 20
213.9534377051
 30
0.0
 10
-72.2296997103
 20
213.9470753251
 30
0.0
 10
-72.6452752184
 20
213.8103203175
 30
0.0
 10
-73.1736977701
 20
213.4667269695
 30
0.0
 10
-73.6775948256
 20
212.813234315
 30
0.0
 10
-73.844159341
 20
212.1636320666
 30
0.0
 10
-73.844159341
 20
211.8440602854
 30
0.0
  0
SPLINE
  5
34E
100
AcDbEntity
  8
0
100
AcDbSpline
 62
7
  6
CONTINUOUS
 70
0
 71
3
 72
13
 73
9
 74
0
 42
0.0000001
 43
0.0000001
 44
0.0000000001
 40
0.0
 40
0.0
 40
0.0
 40
0.0
 40
0.1054199736
 40
0.2162072625
 40
0.3355571307
 40
0.4637457895
 40
0.7347562963
 40
1.0
 40
1.0
 40
1.0
 40
1.0
 10
-71.4562956682
 20
135.6580509417
 30
0.0
 10
-71.5662639318
 20
135.7216051681
 30
0.0
 10
-71.818526479
 20
135.8099955635
 30
0.0
 10
-72.2296997103
 20
135.8036331834
 30
0.0
 10
-72.6452752184
 20
135.6668781759
 30
0.0
 10
-73.1736977701
 20
135.3232848278
 30
0.0
 10
-73.6775948256
 20
134.6697921733
 30
0.0
 10
-73.844159341
 20
134.0201899249
 30
0.0
 10
-73.844159341
 20
133.7006181438
 30
0.0
  0
SPLINE
  5
34F
100
AcDbEntity
  8
0
100
AcDbSpline
 62
7
  6
CONTINUOUS
 70
0
 71
3
 72
18
 73
14
 74
0
 42
0.0000001
 43
0.0000001
 44
0.0000000001
 40
0.0
 40
0.0
 40
0.0
 40
0.0
 40
0.0528736166
 40
0.1072593907
 40
0.163491573
 40
0.2217577574
 40
0.3442120561
 40
0.473710939
 40
0.6075598312
 40
0.6751065859
 40
0.742389323
 40
0.8741962416
 40
1.0
 40
1.0
 40
1.0
 40
1.0
 10
7.313139294
 20
197.8064916065
 30
0.0
 10
8.2002171315
 20
196.8518440953
 30
0.0
 10
9.8422644257
 20
194.7630145313
 30
0.0
 10
11.8185481011
 20
191.234890369
 30
0.0
 10
13.3086609031
 20
187.3329791999
 30
0.0
 10
14.6376622647
 20
181.6306532612
 30
0.0
 10
14.9231190718
 20
173.9100812331
 30
0.0
 10
13.1750893339
 20
164.4970534503
 30
0.0
 10
10.0941595312
 20
156.8835718448
 30
0.0
 10
6.7439112795
 20
151.1613297855
 30
0.0
 10
2.8815608189
 20
145.8329342423
 30
0.0
 10
-2.752925718
 20
140.0657811219
 30
0.0
 10
-8.094432839
 20
136.5190216562
 30
0.0
 10
-10.866704457
 20
135.1302419127
 30
0.0
  0
SPLINE
  5
350
100
AcDbEntity
  8
0
100
AcDbSpline
 62
7
  6
CONTINUOUS
 70
0
 71
3
 72
9
 73
5
 74
0
 42
0.0000001
 43
0.0000001
 44
0.0000000001
 40
0.0
 40
0.0
 40
0.0
 40
0.0
 40
0.257211101
 40
1.0
 40
1.0
 40
1.0
 40
1.0
 10
-87.4927080049
 20
202.3586914231
 30
0.0
 10
-87.5452981947
 20
202.2267451441
 30
0.0
 10
-87.7270430875
 20
201.7052224339
 30
0.0
 10
-87.8158561308
 20
201.1495305417
 30
0.0
 10
-87.8158561308
 20
200.7393374212
 30
0.0
  0
SPLINE
  5
351
100
AcDbEntity
  8
0
100
AcDbSpline
 62
7
  6
CONTINUOUS
 70
0
 71
3
 72
9
 73
5
 74
0
 42
0.0000001
 43
0.0000001
 44
0.0000000001
 40
0.0
 40
0.0
 40
0.0
 40
0.0
 40
0.262550387
 40
1.0
 40
1.0
 40
1.0
 40
1.0
 10
-87.8158561308
 20
200.7393374212
 30
0.0
 10
-87.8158561308
 20
200.6102364652
 30
0.0
 10
-87.7913934937
 20
200.1192552738
 30
0.0
 10
-87.6613021782
 20
199.630246966
 30
0.0
 10
-87.4991091601
 20
199.3059244242
 30
0.0
  0
SPLINE
  5
352
100
AcDbEntity
  8
0
100
AcDbSpline
 62
7
  6
CONTINUOUS
 70
0
 71
3
 72
11
 73
7
 74
0
 42
0.0000001
 43
0.0000001
 44
0.0000000001
 40
0.0
 40
0.0
 40
0.0
 40
0.0
 40
0.2504691734
 40
0.5052573608
 40
0.7572440112
 40
1.0
 40
1.0
 40
1.0
 40
1.0
 10
-42.4360658693
 20
203.6884065581
 30
0.0
 10
-45.373129772
 20
200.8784971046
 30
0.0
 10
-50.7092826639
 20
194.5660911818
 30
0.0
 10
-56.6965135636
 20
183.7488097476
 30
0.0
 10
-60.4317996322
 20
172.0917193514
 30
0.0
 10
-61.2627445517
 20
164.0291465818
 30
0.0
 10
-61.2030752252
 20
160.0900528931
 30
0.0
  0
SPLINE
  5
353
100
AcDbEntity
  8
0
100
AcDbSpline
 62
7
  6
CONTINUOUS
 70
0
 71
3
 72
11
 73
7
 74
0
 42
0.0000001
 43
0.0000001
 44
0.0000000001
 40
0.0
 40
0.0
 40
0.0
 40
0.0
 40
0.2354660522
 40
0.479938329
 40
0.7347233512
 40
1.0
 40
1.0
 40
1.0
 40
1.0
 10
-52.8991824905
 20
135.5649847698
 30
0.0
 10
-54.2203737524
 20
137.1573237348
 30
0.0
 10
-56.5925035047
 20
140.6808906659
 30
0.0
 10
-59.1729480847
 20
146.6333296506
 30
0.0
 10
-60.7801088178
 20
153.1861644031
 30
0.0
 10
-61.1677688698
 20
157.7592901673
 30
0.0
 10
-61.2030752252
 20
160.0900528931
 30
0.0
  0
SPLINE
  5
354
100
AcDbEntity
  8
0
100
AcDbSpline
 62
7
  6
CONTINUOUS
 70
0
 71
3
 72
12
 73
8
 74
0
 42
0.0000001
 43
0.0000001
 44
0.0000000001
 40
0.0
 40
0.0
 40
0.0
 40
0.0
 40
0.2496129985
 40
0.3797352206
 40
0.5105246444
 40
0.7650066244
 40
1.0
 40
1.0
 40
1.0
 40
1.0
 10
-81.8606885424
 20
212.4531895212
 30
0.0
 10
-81.8606885424
 20
213.4505786482
 30
0.0
 10
-81.5829309085
 20
214.9778924719
 30
0.0
 10
-80.7796208219
 20
216.8577226536
 30
0.0
 10
-79.6962943872
 20
218.617400783
 30
0.0
 10
-77.943834684
 20
220.4236443053
 30
0.0
 10
-76.1560721239
 20
221.3370201363
 30
0.0
 10
-75.249118067
 20
221.5801341437
 30
0.0
  0
SPLINE
  5
355
100
AcDbEntity
  8
0
100
AcDbSpline
 62
7
  6
CONTINUOUS
 70
0
 71
3
 72
18
 73
14
 74
0
 42
0.0000001
 43
0.0000001
 44
0.0000000001
 40
0.0
 40
0.0
 40
0.0
 40
0.0
 40
0.1339185889
 40
0.2711751035
 40
0.339978103
 40
0.40820775
 40
0.5410140014
 40
0.6668673176
 40
0.7843547006
 40
0.840237292
 40
0.8944872488
 40
0.9475546093
 40
1.0
 40
1.0
 40
1.0
 40
1.0
 10
-54.0096475536
 20
210.5600839749
 30
0.0
 10
-56.5627724376
 20
208.5648251404
 30
0.0
 10
-61.3012695999
 20
203.9483854668
 30
0.0
 10
-65.9785552048
 20
197.1166048984
 30
0.0
 10
-68.8993555049
 20
191.1464082685
 30
0.0
 10
-71.1811179532
 20
185.0199784984
 30
0.0
 10
-72.8214228947
 20
177.2189936495
 30
0.0
 10
-72.726939438
 20
168.0417134998
 30
0.0
 10
-70.8495121496
 20
160.9485675576
 30
0.0
 10
-68.3081803078
 20
156.0416516868
 30
0.0
 10
-65.9670949999
 20
152.8405521503
 30
0.0
 10
-63.1991582
 20
150.118175729
 30
0.0
 10
-61.0930679975
 20
148.6497857904
 30
0.0
 10
-59.9942073294
 20
148.0151312045
 30
0.0
  0
SPLINE
  5
356
100
AcDbEntity
  8
0
100
AcDbSpline
 62
7
  6
CONTINUOUS
 70
0
 71
3
 72
14
 73
10
 74
0
 42
0.0000001
 43
0.0000001
 44
0.0000000001
 40
0.0
 40
0.0
 40
0.0
 40
0.0
 40
0.105259329
 40
0.2158745728
 40
0.3350381489
 40
0.4630342648
 40
0.5976755258
 40
0.7352076461
 40
1.0
 40
1.0
 40
1.0
 40
1.0
 10
-19.9554735348
 20
129.8385390747
 30
0.0
 10
-19.6499648181
 20
129.6620353529
 30
0.0
 10
-18.9492749766
 20
129.4164051482
 30
0.0
 10
-17.807015536
 20
129.4340549605
 30
0.0
 10
-16.6528375301
 20
129.8139901756
 30
0.0
 10
-15.5694206807
 20
130.5176775744
 30
0.0
 10
-14.6301166852
 20
131.4916715035
 30
0.0
 10
-13.6740386651
 20
133.0246858304
 30
0.0
 10
-13.3225044075
 20
134.3882911645
 30
0.0
 10
-13.3225044075
 20
135.2758774356
 30
0.0
  0
SPLINE
  5
357
100
AcDbEntity
  8
0
100
AcDbSpline
 62
7
  6
CONTINUOUS
 70
0
 71
3
 72
11
 73
7
 74
0
 42
0.0000001
 43
0.0000001
 44
0.0000000001
 40
0.0
 40
0.0
 40
0.0
 40
0.0
 40
0.2323661364
 40
0.4731259371
 40
0.728227876
 40
1.0
 40
1.0
 40
1.0
 40
1.0
 10
-79.2503012539
 20
123.6385285414
 30
0.0
 10
-79.6552554151
 20
123.8723483775
 30
0.0
 10
-80.4104764993
 20
124.4799175654
 30
0.0
 10
-81.2450904182
 20
125.707075377
 30
0.0
 10
-81.7543315254
 20
127.1820483111
 30
0.0
 10
-81.8606885424
 20
128.2468291067
 30
0.0
 10
-81.8606885424
 20
128.793739699
 30
0.0
  0
SPLINE
  5
358
100
AcDbEntity
  8
0
100
AcDbSpline
 62
7
  6
CONTINUOUS
 70
0
 71
3
 72
17
 73
13
 74
0
 42
0.0000001
 43
0.0000001
 44
0.0000000001
 40
0.0
 40
0.0
 40
0.0
 40
0.0
 40
0.1254289341
 40
0.2579126934
 40
0.3938478172
 40
0.5288609606
 40
0.6587793726
 40
0.7805989028
 40
0.8382484647
 40
0.8937742445
 40
0.9475178762
 40
1.0
 40
1.0
 40
1.0
 40
1.0
 10
-13.3225044075
 20
136.9783694558
 30
0.0
 10
-10.5124635191
 20
138.1737720128
 30
0.0
 10
-5.0587077413
 20
141.4408393234
 30
0.0
 10
1.8611382533
 20
148.1834683449
 30
0.0
 10
7.3260801074
 20
156.4335383209
 30
0.0
 10
10.9294448899
 20
165.5840044307
 30
0.0
 10
12.4045805102
 20
174.9641925145
 30
0.0
 10
11.7278223784
 20
182.5652327453
 30
0.0
 10
9.99833779
 20
188.0389191965
 30
0.0
 10
8.1844824358
 20
191.6956639908
 30
0.0
 10
5.8645364667
 20
194.9004034717
 30
0.0
 10
3.9917164539
 20
196.7078809491
 30
0.0
 10
2.994736285
 20
197.5070508155
 30
0.0
  0
SPLINE
  5
359
100
AcDbEntity
  8
0
100
AcDbSpline
 62
7
  6
CONTINUOUS
 70
0
 71
3
 72
11
 73
7
 74
0
 42
0.0000001
 43
0.0000001
 44
0.0000000001
 40
0.0
 40
0.0
 40
0.0
 40
0.0
 40
0.2659971711
 40
0.5191234294
 40
0.7623196925
 40
1.0
 40
1.0
 40
1.0
 40
1.0
 10
-25.3507293943
 20
131.645811945
 30
0.0
 10
-25.27573785
 20
131.2396084453
 30
0.0
 10
-25.0591062339
 20
130.4572442824
 30
0.0
 10
-24.5184624992
 20
129.3945135555
 30
0.0
 10
-23.7867904448
 20
128.5080967318
 30
0.0
 10
-23.1830772803
 20
128.0544245879
 30
0.0
 10
-22.8634691866
 20
127.8698131273
 30
0.0
  0
SPLINE
  5
35A
100
AcDbEntity
  8
0
100
AcDbSpline
 62
7
  6
CONTINUOUS
 70
0
 71
3
 72
10
 73
6
 74
0
 42
0.0000001
 43
0.0000001
 44
0.0000000001
 40
0.0
 40
0.0
 40
0.0
 40
0.0
 40
0.5252520963
 40
0.7668039053
 40
1.0
 40
1.0
 40
1.0
 40
1.0
 10
-70.868952627
 20
212.6415807572
 30
0.0
 10
-70.868952627
 20
212.8785510814
 30
0.0
 10
-70.938339801
 20
213.2351996719
 30
0.0
 10
-71.1953049161
 20
213.6120561115
 30
0.0
 10
-71.3652061161
 20
213.7488494767
 30
0.0
 10
-71.4562956682
 20
213.8014930834
 30
0.0
  0
SPLINE
  5
35B
100
AcDbEntity
  8
0
100
AcDbSpline
 62
7
  6
CONTINUOUS
 70
0
 71
3
 72
19
 73
15
 74
0
 42
0.0000001
 43
0.0000001
 44
0.0000000001
 40
0.0
 40
0.0
 40
0.0
 40
0.0
 40
0.0523449219
 40
0.1053769602
 40
0.1597073739
 40
0.2158146227
 40
0.2740107988
 40
0.3344316009
 40
0.4614388451
 40
0.5952045718
 40
0.6636674689
 40
0.7324449254
 40
0.8686418326
 40
1.0
 40
1.0
 40
1.0
 40
1.0
 10
-36.9105729296
 20
134.6824463554
 30
0.0
 10
-38.0676420539
 20
135.3507448897
 30
0.0
 10
-40.2810321911
 20
136.9088631573
 30
0.0
 10
-43.1630387297
 20
139.819975011
 30
0.0
 10
-45.5659818126
 20
143.2551390394
 30
0.0
 10
-47.4460561393
 20
147.1465245221
 30
0.0
 10
-48.7722430448
 20
151.4213694656
 30
0.0
 10
-49.7896288003
 20
157.625371567
 30
0.0
 10
-49.5230585622
 20
165.9067846683
 30
0.0
 10
-47.3724694656
 20
174.1002470241
 30
0.0
 10
-44.6017909868
 20
180.4504675337
 30
0.0
 10
-41.1623374448
 20
186.5367769072
 30
0.0
 10
-35.8125478769
 20
193.3314706282
 30
0.0
 10
-30.4967137465
 20
197.7258652786
 30
0.0
 10
-27.6737728043
 20
199.5354731914
 30
0.0
  0
SPLINE
  5
35C
100
AcDbEntity
  8
0
100
AcDbSpline
 62
7
  6
CONTINUOUS
 70
0
 71
3
 72
10
 73
6
 74
0
 42
0.0000001
 43
0.0000001
 44
0.0000000001
 40
0.0
 40
0.0
 40
0.0
 40
0.0
 40
0.5252520963
 40
0.7668039053
 40
1.0
 40
1.0
 40
1.0
 40
1.0
 10
-70.868952627
 20
134.4981386156
 30
0.0
 10
-70.868952627
 20
134.7351089398
 30
0.0
 10
-70.938339801
 20
135.0917575302
 30
0.0
 10
-71.1953049161
 20
135.4686139698
 30
0.0
 10
-71.3652061161
 20
135.6054073351
 30
0.0
 10
-71.4562956682
 20
135.6580509417
 30
0.0
  0
SPLINE
  5
35D
100
AcDbEntity
  8
0
100
AcDbSpline
 62
7
  6
CONTINUOUS
 70
0
 71
3
 72
11
 73
7
 74
0
 42
0.0000001
 43
0.0000001
 44
0.0000000001
 40
0.0
 40
0.0
 40
0.0
 40
0.0
 40
0.2433290257
 40
0.4894736588
 40
0.7410332248
 40
1.0
 40
1.0
 40
1.0
 40
1.0
 10
-35.310075371
 20
137.4534799026
 30
0.0
 10
-34.3120729202
 20
136.8770278532
 30
0.0
 10
-32.202486501
 20
135.8850090681
 30
0.0
 10
-28.8080967201
 20
134.9343265649
 30
0.0
 10
-25.2325112155
 20
134.5307983542
 30
0.0
 10
-22.8061086434
 20
134.6280673624
 30
0.0
 10
-21.5869675017
 20
134.763034812
 30
0.0
  0
SPLINE
  5
35E
100
AcDbEntity
  8
0
100
AcDbSpline
 62
7
  6
CONTINUOUS
 70
0
 71
3
 72
18
 73
14
 74
0
 42
0.0000001
 43
0.0000001
 44
0.0000000001
 40
0.0
 40
0.0
 40
0.0
 40
0.0
 40
0.1308102779
 40
0.2661001693
 40
0.3344113696
 40
0.4024808867
 40
0.535893423
 40
0.6632915397
 40
0.7826869294
 40
0.83940534
 40
0.8942733119
 40
0.9476481239
 40
1.0
 40
1.0
 40
1.0
 40
1.0
 10
-29.6849314049
 20
199.9540918843
 30
0.0
 10
-32.34058277
 20
198.1859243909
 30
0.0
 10
-37.3445082341
 20
193.964007497
 30
0.0
 10
-42.4293079609
 20
187.5183763655
 30
0.0
 10
-45.7429679234
 20
181.7696028939
 30
0.0
 10
-48.4616004238
 20
175.7678794464
 30
0.0
 10
-50.6831402255
 20
167.9980230534
 30
0.0
 10
-51.3243751142
 20
158.6756912889
 30
0.0
 10
-50.0750466194
 20
151.2881136427
 30
0.0
 10
-48.0023424509
 20
146.031329209
 30
0.0
 10
-45.9877213321
 20
142.5302525542
 30
0.0
 10
-43.5194354558
 20
139.4684991945
 30
0.0
 10
-41.5839896322
 20
137.7431522196
 30
0.0
 10
-40.562310123
 20
136.9773037241
 30
0.0
  0
SPLINE
  5
35F
100
AcDbEntity
  8
0
100
AcDbSpline
 62
7
  6
CONTINUOUS
 70
0
 71
3
 72
13
 73
9
 74
0
 42
0.0000001
 43
0.0000001
 44
0.0000000001
 40
0.0
 40
0.0
 40
0.0
 40
0.0
 40
0.1054199736
 40
0.2162072625
 40
0.3355571307
 40
0.4637457895
 40
0.7347562963
 40
1.0
 40
1.0
 40
1.0
 40
1.0
 10
-73.2568162999
 20
210.6841479593
 30
0.0
 10
-73.1468480362
 20
210.6205937329
 30
0.0
 10
-72.894585489
 20
210.5322033375
 30
0.0
 10
-72.4834122577
 20
210.5385657176
 30
0.0
 10
-72.0678367496
 20
210.6753207251
 30
0.0
 10
-71.5394141979
 20
211.0189140732
 30
0.0
 10
-71.0355171424
 20
211.6724067276
 30
0.0
 10
-70.868952627
 20
212.322008976
 30
0.0
 10
-70.868952627
 20
212.6415807572
 30
0.0
  0
SPLINE
  5
360
100
AcDbEntity
  8
0
100
AcDbSpline
 62
7
  6
CONTINUOUS
 70
0
 71
3
 72
11
 73
7
 74
0
 42
0.0000001
 43
0.0000001
 44
0.0000000001
 40
0.0
 40
0.0
 40
0.0
 40
0.0
 40
0.2416275368
 40
0.4933965871
 40
0.7486343862
 40
1.0
 40
1.0
 40
1.0
 40
1.0
 10
-58.5316976557
 20
158.5468197415
 30
0.0
 10
-58.5316976557
 20
162.5179138624
 30
0.0
 10
-57.5481007769
 20
170.6473447335
 30
0.0
 10
-53.5249884698
 20
182.3595362003
 30
0.0
 10
-47.1946725925
 20
193.1865464015
 30
0.0
 10
-41.6060647699
 20
199.4515068932
 30
0.0
 10
-38.5409120437
 20
202.2211880154
 30
0.0
  0
SPLINE
  5
361
100
AcDbEntity
  8
0
100
AcDbSpline
 62
7
  6
CONTINUOUS
 70
0
 71
3
 72
11
 73
7
 74
0
 42
0.0000001
 43
0.0000001
 44
0.0000000001
 40
0.0
 40
0.0
 40
0.0
 40
0.0
 40
0.2345614733
 40
0.4786043918
 40
0.7336523551
 40
1.0
 40
1.0
 40
1.0
 40
1.0
 10
-50.6586862677
 20
134.2709147761
 30
0.0
 10
-51.9450967895
 20
135.8442993244
 30
0.0
 10
-54.2476502093
 20
139.3301669075
 30
0.0
 10
-56.7176302766
 20
145.2221767011
 30
0.0
 10
-58.213099978
 20
151.7130482625
 30
0.0
 10
-58.5316976557
 20
156.2390750462
 30
0.0
 10
-58.5316976557
 20
158.5468197415
 30
0.0
  0
SPLINE
  5
362
100
AcDbEntity
  8
0
100
AcDbSpline
 62
7
  6
CONTINUOUS
 70
0
 71
3
 72
13
 73
9
 74
0
 42
0.0000001
 43
0.0000001
 44
0.0000000001
 40
0.0
 40
0.0
 40
0.0
 40
0.0
 40
0.1054199736
 40
0.2162072625
 40
0.3355571307
 40
0.4637457895
 40
0.7347562963
 40
1.0
 40
1.0
 40
1.0
 40
1.0
 10
-73.2568162999
 20
132.5407058176
 30
0.0
 10
-73.1468480362
 20
132.4771515912
 30
0.0
 10
-72.894585489
 20
132.3887611959
 30
0.0
 10
-72.4834122577
 20
132.3951235759
 30
0.0
 10
-72.0678367496
 20
132.5318785835
 30
0.0
 10
-71.5394141979
 20
132.8754719315
 30
0.0
 10
-71.0355171424
 20
133.528964586
 30
0.0
 10
-70.868952627
 20
134.1785668344
 30
0.0
 10
-70.868952627
 20
134.4981386156
 30
0.0
  0
SPLINE
  5
363
100
AcDbEntity
  8
0
100
AcDbSpline
 62
7
  6
CONTINUOUS
 70
0
 71
3
 72
11
 73
7
 74
0
 42
0.0000001
 43
0.0000001
 44
0.0000000001
 40
0.0
 40
0.0
 40
0.0
 40
0.0
 40
0.2346970537
 40
0.476480092
 40
0.7307028317
 40
1.0
 40
1.0
 40
1.0
 40
1.0
 10
-21.455928408
 20
127.0568481958
 30
0.0
 10
-21.8235531153
 20
127.2692029904
 30
0.0
 10
-22.5130128887
 20
127.8075436872
 30
0.0
 10
-23.3083578128
 20
128.8810160329
 30
0.0
 10
-23.8414879719
 20
130.1719047135
 30
0.0
 10
-24.0050577354
 20
131.1126489355
 30
0.0
 10
-24.0427674522
 20
131.5983259867
 30
0.0
  0
ENDSEC
  0
SECTION
  2
OBJECTS
  0
DICTIONARY
  5
C
100
AcDbDictionary
280
0
281
1
  3
ACAD_GROUP
350
D
  3
ACAD_MLINESTYLE
350
17
  3
ACAD_LAYOUT
350
1A
  3
ACAD_PLOTSETTINGS
350
19
  3
ACAD_PLOTSTYLENAME
350
E
  0
DICTIONARY
  5
D
102
{ACAD_REACTORS
330
C
102
}
100
AcDbDictionary
280
0
281
1
  0
ACDBDICTIONARYWDFLT
  5
E
102
{ACAD_REACTORS
330
C
102
}
100
AcDbDictionary
281
1
  3
Normal
350
F
100
AcDbDictionaryWithDefault
340
F
  0
DICTIONARY
  5
17
102
{ACAD_REACTORS
330
C
102
}
100
AcDbDictionary
280
0
281
1
  3
Standard
350
18
  0
DICTIONARY
  5
19
102
{ACAD_REACTORS
330
C
102
}
100
AcDbDictionary
281
1
  0
DICTIONARY
  5
1A
102
{ACAD_REACTORS
330
C
102
}
100
AcDbDictionary
281
1
  3
Model
350
364
  3
Layout1
350
365
  0
ACDBPLACEHOLDER
  5
F
102
{ACAD_REACTORS
330
E
102
}
  0
MLINESTYLE
  5
18
102
{ACAD_REACTORS
330
17
102
}
100
AcDbMlineStyle
  2
STANDARD
 70
0
  3

 62
256
 51
90.0
 52
90.0
 71
2
 49
0.5
 62
256
  6
BYLAYER
 49
-0.5
 62
256
  6
BYLAYER
  0
LAYOUT
  5
364
102
{ACAD_REACTORS
330
1A
102
}
100
AcDbPlotSettings
  1

  2
none_device
  4
ANSI_C_(22.00_x_17.00_Inches)
  6

 40
0.0
 41
0.0
 42
0.0
 43
0.0
 44
558.8
 45
431.8
 46
0.0
 47
0.0
 48
0.0
 49
0.0
140
0.0
141
0.0
142
1.0
143
1.0
 70
1024
 72
1
 73
0
 74
0
  7

 75
0
147
1.0
148
0.0
149
0.0
100
AcDbLayout
  1
Model
 70
0
 71
0
 10
0.0
 20
0.0
 11
558.8
 21
431.8
 12
0.0
 22
0.0
 32
0.0
 14
0.0
 24
0.0
 34
0.0
 15
0.0
 25
0.0
 35
0.0
146
0.0
 13
0.0
 23
0.0
 33
0.0
 16
1.0
 26
0.0
 36
0.0
 17
0.0
 27
1.0
 37
0.0
 76
0
330
216
345
0
346
0
  0
LAYOUT
  5
365
102
{ACAD_REACTORS
330
1A
102
}
100
AcDbPlotSettings
  1

  2
none_device
  4
ANSI_C_(22.00_x_17.00_Inches)
  6

 40
0.0
 41
0.0
 42
0.0
 43
0.0
 44
558.8
 45
431.8
 46
0.0
 47
0.0
 48
0.0
 49
0.0
140
0.0
141
0.0
142
1.0
143
1.0
 70
0
 72
1
 73
0
 74
0
  7

 75
0
147
1.0
148
0.0
149
0.0
100
AcDbLayout
  1
Layout1
 70
0
 71
1
 10
0.0
 20
0.0
 11
558.8
 21
431.8
 12
0.0
 22
0.0
 32
0.0
 14
0.0
 24
0.0
 34
0.0
 15
0.0
 25
0.0
 35
0.0
146
0.0
 13
0.0
 23
0.0
 33
0.0
 16
1.0
 26
0.0
 36
0.0
 17
0.0
 27
1.0
 37
0.0
 76
0
330
217
345
0
346
0
  0
ENDSEC
  0
EOF
