999
DXF file: Y:\3D PRATIKA-KAEDRA_OLGA\TRAVAIL_PHASE_11\CAD3D\81694_3D-Simplified\81694_2D-isometric.dxf
999
Pro/ENGINEER 2018260 by Parametric Technology Corporation
  0
SECTION
  2
HEADER
  9
$ACADVER
  1
AC1027
  9
$DWGCODEPAGE
  3
ANSI_1252
  9
$EXTMAX
 10
558.8
 20
431.8
 30
0.0
  9
$EXTMIN
 10
0.0
 20
0.0
 30
0.0
  9
$LIMMIN
 10
0.0
 20
0.0
  9
$LIMMAX
 10
558.8
 20
431.8
  9
$VIEWCTR
 10
279.4
 20
215.9
  9
$VIEWSIZE
 40
431.8
  9
$CLAYER
  8
0
  9
$LTSCALE
 40
30.734
  9
$CELTYPE
  6
BYLAYER
  9
$DIMSCALE
 40
1.0
  9
$DIMASZ
 40
0.1875
  9
$DIMEXO
 40
0.0625
  9
$DIMDLI
 40
21.2344
  9
$DIMEXE
 40
0.125
  9
$DIMCEN
 40
5.0292
  9
$DIMLFAC
 40
1.0
  9
$DIMBLK
  1
_CLOSED
  9
$DIMALT
 70
0
  9
$DIMALTF
 40
0.0393700787
  9
$DIMTXT
 40
0.15625
  9
$DIMTOL
 70
0
  9
$DIMLIM
 70
0
  9
$DIMTFAC
 40
1.0
  9
$DIMGAP
 40
0.625
  9
$DIMDSEP
 70
46
  9
$AUNITS
 70
0
  9
$PDMODE
 70
3
  9
$PDSIZE
 40
0.3125
  9
$HANDSEED
  5
353
  9
$TILEMODE
 70
1
  9
$MEASUREMENT
 70
1
  9
$INSUNITS
 70
4
  0
ENDSEC
  0
SECTION
  2
CLASSES
  0
CLASS
  1
ACDBDICTIONARYWDFLT
  2
AcDbDictionaryWithDefault
  3
AutoCAD 2000
 90
0
 91
1
280
0
281
0
  0
CLASS
  1
ACDBPLACEHOLDER
  2
AcDbPlaceHolder
  3
AutoCAD 2000
 90
0
 91
1
280
0
281
0
  0
CLASS
  1
LAYOUT
  2
AcDbLayout
  3
AutoCAD 2000
 90
0
 91
0
280
0
281
0
  0
ENDSEC
  0
SECTION
  2
TABLES
  0
TABLE
  2
VPORT
  5
8
100
AcDbSymbolTable
 70
2
  0
VPORT
  5
1F4
100
AcDbSymbolTableRecord
100
AcDbViewportTableRecord
  2
*ACTIVE
 70
0
 10
0.0
 20
0.0
 11
1.0
 21
1.0
 12
279.4
 22
215.9
 13
0.0
 23
0.0
 14
1.0
 24
1.0
 15
0.0
 25
0.0
 16
0.0
 26
0.0
 36
1.0
 17
0.0
 27
0.0
 37
0.0
 40
431.8
 41
1.2941176471
 42
50.0
 43
0.0
 44
0.0
 50
0.0
 51
0.0
 71
0
 72
100
 73
1
 74
1
 75
0
 76
0
 77
0
 78
0
  0
ENDTAB
  0
TABLE
  2
LTYPE
  5
5
100
AcDbSymbolTable
 70
6
  0
LTYPE
  5
14
100
AcDbSymbolTableRecord
100
AcDbLinetypeTableRecord
  2
BYBLOCK
 70
0
  3

 72
65
 73
0
 40
0.0
  0
LTYPE
  5
15
100
AcDbSymbolTableRecord
100
AcDbLinetypeTableRecord
  2
BYLAYER
 70
0
  3

 72
65
 73
0
 40
0.0
  0
LTYPE
  5
16
100
AcDbSymbolTableRecord
100
AcDbLinetypeTableRecord
  2
CONTINUOUS
 70
64
  3
Solid line
 72
65
 73
0
 40
0.0
  0
LTYPE
  5
1F5
100
AcDbSymbolTableRecord
100
AcDbLinetypeTableRecord
  2
CENTER
 70
64
  3
____ _ ____ _ ____ _ ____ _ ____ _ ____ _ ____
 72
65
 73
4
 40
0.6
 49
0.375
 74
0
 49
-0.075
 74
0
 49
0.075
 74
0
 49
-0.075
 74
0
  0
LTYPE
  5
1F6
100
AcDbSymbolTableRecord
100
AcDbLinetypeTableRecord
  2
HIDDEN
 70
64
  3
- - - - - - - - - - - - - - - - - - - -
 72
65
 73
2
 40
0.2
 49
0.1
 74
0
 49
-0.1
 74
0
  0
LTYPE
  5
1F7
100
AcDbSymbolTableRecord
100
AcDbLinetypeTableRecord
  2
PHANTOM
 70
64
  3
_____ _ _ _____ _ _ _____ _ _ _____
 72
65
 73
6
 40
0.8
 49
0.45
 74
0
 49
-0.05
 74
0
 49
0.1
 74
0
 49
-0.05
 74
0
 49
0.1
 74
0
 49
-0.05
 74
0
  0
LTYPE
  5
1F8
100
AcDbSymbolTableRecord
100
AcDbLinetypeTableRecord
  2
DOT
 70
64
  3
. . . . . . . . . . . . . . . . . . . .
 72
65
 73
2
 40
0.2
 49
0.1
 74
0
 49
-0.1
 74
0
  0
LTYPE
  5
1F9
100
AcDbSymbolTableRecord
100
AcDbLinetypeTableRecord
  2
DASHED
 70
64
  3
- - - - - - - - - - - - - - - - - - - -
 72
65
 73
2
 40
0.2
 49
0.1
 74
0
 49
-0.1
 74
0
  0
ENDTAB
  0
TABLE
  2
LAYER
  5
2
100
AcDbSymbolTable
 70
36
  0
LAYER
  5
10
100
AcDbSymbolTableRecord
100
AcDbLayerTableRecord
  2
0
 70
0
 62
7
  6
CONTINUOUS
370
-3
390
F
  0
LAYER
  5
1FA
100
AcDbSymbolTableRecord
100
AcDbLayerTableRecord
  2
DEFAULT_1
 70
0
 62
7
  6
CENTER
370
-3
390
F
  0
LAYER
  5
1FB
100
AcDbSymbolTableRecord
100
AcDbLayerTableRecord
  2
DEFAULT_2
 70
0
 62
8
  6
HIDDEN
370
-3
390
F
  0
LAYER
  5
1FC
100
AcDbSymbolTableRecord
100
AcDbLayerTableRecord
  2
DEFAULT_3
 70
0
 62
7
  6
PHANTOM
370
-3
390
F
  0
LAYER
  5
1FD
100
AcDbSymbolTableRecord
100
AcDbLayerTableRecord
  2
01_ALL_DTM_PLN
 70
0
 62
7
  6
CONTINUOUS
370
-3
390
F
  0
LAYER
  5
1FE
100
AcDbSymbolTableRecord
100
AcDbLayerTableRecord
  2
01__ASM_ALL_DTM_PLN
 70
0
 62
7
  6
CONTINUOUS
370
-3
390
F
  0
LAYER
  5
1FF
100
AcDbSymbolTableRecord
100
AcDbLayerTableRecord
  2
01__ASM_DEF_DTM_PLN
 70
0
 62
7
  6
CONTINUOUS
370
-3
390
F
  0
LAYER
  5
200
100
AcDbSymbolTableRecord
100
AcDbLayerTableRecord
  2
01___PRT_ALL_DTM_PLN
 70
0
 62
7
  6
CONTINUOUS
370
-3
390
F
  0
LAYER
  5
201
100
AcDbSymbolTableRecord
100
AcDbLayerTableRecord
  2
01___PRT_DEF_DTM_PLN
 70
0
 62
7
  6
CONTINUOUS
370
-3
390
F
  0
LAYER
  5
202
100
AcDbSymbolTableRecord
100
AcDbLayerTableRecord
  2
02_ALL_AXES
 70
0
 62
7
  6
CONTINUOUS
370
-3
390
F
  0
LAYER
  5
203
100
AcDbSymbolTableRecord
100
AcDbLayerTableRecord
  2
02__ASM_ALL_AXES
 70
0
 62
7
  6
CONTINUOUS
370
-3
390
F
  0
LAYER
  5
204
100
AcDbSymbolTableRecord
100
AcDbLayerTableRecord
  2
02___PRT_ALL_AXES
 70
0
 62
7
  6
CONTINUOUS
370
-3
390
F
  0
LAYER
  5
205
100
AcDbSymbolTableRecord
100
AcDbLayerTableRecord
  2
03_ALL_CURVES
 70
0
 62
7
  6
CONTINUOUS
370
-3
390
F
  0
LAYER
  5
206
100
AcDbSymbolTableRecord
100
AcDbLayerTableRecord
  2
03__ASM_ALL_CURVES
 70
0
 62
7
  6
CONTINUOUS
370
-3
390
F
  0
LAYER
  5
207
100
AcDbSymbolTableRecord
100
AcDbLayerTableRecord
  2
03___PRT_ALL_CURVES
 70
0
 62
7
  6
CONTINUOUS
370
-3
390
F
  0
LAYER
  5
208
100
AcDbSymbolTableRecord
100
AcDbLayerTableRecord
  2
04_ALL_DTM_PNT
 70
0
 62
7
  6
CONTINUOUS
370
-3
390
F
  0
LAYER
  5
209
100
AcDbSymbolTableRecord
100
AcDbLayerTableRecord
  2
04__ASM_ALL_DTM_PNT
 70
0
 62
7
  6
CONTINUOUS
370
-3
390
F
  0
LAYER
  5
20A
100
AcDbSymbolTableRecord
100
AcDbLayerTableRecord
  2
04___PRT_ALL_DTM_PNT
 70
0
 62
7
  6
CONTINUOUS
370
-3
390
F
  0
LAYER
  5
20B
100
AcDbSymbolTableRecord
100
AcDbLayerTableRecord
  2
05_ALL_DTM_CSYS
 70
0
 62
7
  6
CONTINUOUS
370
-3
390
F
  0
LAYER
  5
20C
100
AcDbSymbolTableRecord
100
AcDbLayerTableRecord
  2
05__ASM_ALL_DTM_CSYS
 70
0
 62
7
  6
CONTINUOUS
370
-3
390
F
  0
LAYER
  5
20D
100
AcDbSymbolTableRecord
100
AcDbLayerTableRecord
  2
05__ASM_DEF_DTM_CSYS
 70
0
 62
7
  6
CONTINUOUS
370
-3
390
F
  0
LAYER
  5
20E
100
AcDbSymbolTableRecord
100
AcDbLayerTableRecord
  2
05___PRT_ALL_DTM_CSYS
 70
0
 62
7
  6
CONTINUOUS
370
-3
390
F
  0
LAYER
  5
20F
100
AcDbSymbolTableRecord
100
AcDbLayerTableRecord
  2
05___PRT_DEF_DTM_CSYS
 70
0
 62
7
  6
CONTINUOUS
370
-3
390
F
  0
LAYER
  5
210
100
AcDbSymbolTableRecord
100
AcDbLayerTableRecord
  2
06_ALL_SURFS
 70
0
 62
7
  6
CONTINUOUS
370
-3
390
F
  0
LAYER
  5
211
100
AcDbSymbolTableRecord
100
AcDbLayerTableRecord
  2
06__ASM_ALL_SURFS
 70
0
 62
7
  6
CONTINUOUS
370
-3
390
F
  0
LAYER
  5
212
100
AcDbSymbolTableRecord
100
AcDbLayerTableRecord
  2
06___PRT_ALL_SURFS
 70
0
 62
7
  6
CONTINUOUS
370
-3
390
F
  0
LAYER
  5
213
100
AcDbSymbolTableRecord
100
AcDbLayerTableRecord
  2
07__ASM_ALL_SKELETONS
 70
0
 62
7
  6
CONTINUOUS
370
-3
390
F
  0
ENDTAB
  0
TABLE
  2
STYLE
  5
3
100
AcDbSymbolTable
 70
1
  0
STYLE
  5
11
100
AcDbSymbolTableRecord
100
AcDbTextStyleTableRecord
  2
STANDARD
 70
0
 40
0.0
 41
0.8
 50
0.0
 71
0
 42
0.2
  3
txt
  4

  0
STYLE
  5
214
100
AcDbSymbolTableRecord
100
AcDbTextStyleTableRecord
  2
TEXTSTYLE_1
 70
0
 40
0.0
 41
0.8
 50
0.0
 71
0
 42
0.2
  3
gdt
  4

  0
ENDTAB
  0
TABLE
  2
VIEW
  5
6
100
AcDbSymbolTable
 70
0
  0
ENDTAB
  0
TABLE
  2
UCS
  5
7
100
AcDbSymbolTable
 70
0
  0
ENDTAB
  0
TABLE
  2
APPID
  5
9
100
AcDbSymbolTable
 70
1
  0
APPID
  5
215
100
AcDbSymbolTableRecord
100
AcDbRegAppTableRecord
  2
ACAD
 70
0
  0
ENDTAB
  0
TABLE
  2
BLOCK_RECORD
  5
1
100
AcDbSymbolTable
 70
0
  0
BLOCK_RECORD
  5
216
100
AcDbSymbolTableRecord
100
AcDbBlockTableRecord
  2
*Model_Space
  0
BLOCK_RECORD
  5
217
100
AcDbSymbolTableRecord
100
AcDbBlockTableRecord
  2
*Paper_Space
  0
BLOCK_RECORD
  5
218
100
AcDbSymbolTableRecord
100
AcDbBlockTableRecord
  2
_CLOSED
  0
ENDTAB
  0
TABLE
  2
DIMSTYLE
  5
A
100
AcDbSymbolTable
 70
1
100
AcDbDimStyleTable
 71
0
  0
DIMSTYLE
105
219
100
AcDbSymbolTableRecord
100
AcDbDimStyleTableRecord
  2
STANDARD
 70
0
  3

  4

 40
1.0
 41
0.1875
 42
0.0625
 43
0.38
 44
0.125
 45
0.0
 46
0.0
 47
0.01
 48
0.01
140
0.15625
141
0.09
142
0.0
143
25.4
144
1.0
145
0.0
146
1.0
147
0.625
 71
0.0
 72
0.0
 73
1
 74
1
 75
0
 76
0
 77
0
 78
8
 79
2
170
0
171
1
172
0
173
0
174
0
175
0
176
0
177
0
178
0
270
2
179
2
271
2
272
2
273
2
274
2
275
0
280
0
281
0
282
0
283
1
284
8
285
0
286
0
287
3
288
0
340
11
278
46
341
218
342
218
343
218
344
218
  0
ENDTAB
  0
ENDSEC
  0
SECTION
  2
BLOCKS
  0
BLOCK
  5
20
100
AcDbEntity
  8
0
100
AcDbBlockBegin
  2
*Model_Space
 70
0
 10
0.0
 20
0.0
 30
0.0
  3
*Model_Space
  1

  0
ENDBLK
  5
21
100
AcDbEntity
  8
0
100
AcDbBlockEnd
  0
BLOCK
  5
1C
100
AcDbEntity
  8
0
100
AcDbBlockBegin
  2
*Paper_Space
 70
0
 10
0.0
 20
0.0
 30
0.0
  3
*Paper_Space
  1

  0
ENDBLK
  5
1D
100
AcDbEntity
  8
0
100
AcDbBlockEnd
  0
BLOCK
  5
21A
100
AcDbEntity
  8
0
100
AcDbBlockBegin
  2
_CLOSED
 70
64
 10
0.0
 20
0.0
  3
_CLOSED
  1

  0
LINE
  5
21B
100
AcDbEntity
  8
0
  6
BYBLOCK
 62
0
100
AcDbLine
 10
0.0
 20
0.0
 11
-1.0
 21
0.1666666667
  0
LINE
  5
21C
100
AcDbEntity
  8
0
  6
BYBLOCK
 62
0
100
AcDbLine
 10
-1.0
 20
0.1666666667
 11
-1.0
 21
-0.1666666667
  0
LINE
  5
21D
100
AcDbEntity
  8
0
  6
BYBLOCK
 62
0
100
AcDbLine
 10
-1.0
 20
-0.1666666667
 11
0.0
 21
0.0
  0
LINE
  5
21E
100
AcDbEntity
  8
0
  6
BYBLOCK
 62
0
100
AcDbLine
 10
-1.0
 20
0.0
 11
0.0
 21
0.0
  0
ENDBLK
  5
21F
100
AcDbEntity
  8
0
  6
BYBLOCK
 62
0
100
AcDbBlockEnd
  0
ENDSEC
  0
SECTION
  2
ENTITIES
  0
LINE
  5
220
100
AcDbEntity
  8
0
100
AcDbLine
 62
7
  6
CONTINUOUS
 10
16.0973651148
 20
183.7777307378
 11
26.2060157667
 21
186.4874099676
  0
LINE
  5
221
100
AcDbEntity
  8
0
100
AcDbLine
 62
7
  6
CONTINUOUS
 10
12.4832058827
 20
187.091472701
 11
-18.5875574523
 21
178.7627842381
  0
LINE
  5
222
100
AcDbEntity
  8
0
100
AcDbLine
 62
7
  6
CONTINUOUS
 10
7.03227814
 20
280.0652408015
 11
8.6375574814
 21
280.6514246422
  0
LINE
  5
223
100
AcDbEntity
  8
0
100
AcDbLine
 62
7
  6
CONTINUOUS
 10
-22.5887584098
 20
179.1899514272
 11
-28.2189138041
 21
182.4418246213
  0
LINE
  5
224
100
AcDbEntity
  8
0
100
AcDbLine
 62
7
  6
CONTINUOUS
 10
-30.8292833219
 20
187.5970666246
 11
-25.1991279277
 21
184.3451934305
  0
LINE
  5
225
100
AcDbEntity
  8
0
100
AcDbLine
 62
7
  6
CONTINUOUS
 10
13.8560235659
 20
185.0726035433
 11
16.0973651148
 21
183.7777307378
  0
LINE
  5
226
100
AcDbEntity
  8
0
100
AcDbLine
 62
7
  6
CONTINUOUS
 10
43.1449182983
 20
172.5591736848
 11
45.0516417825
 21
171.4578856115
  0
LINE
  5
227
100
AcDbEntity
  8
0
100
AcDbLine
 62
7
  6
CONTINUOUS
 10
31.454573552
 20
182.9685578923
 11
25.6296660747
 21
186.3329162727
  0
LINE
  5
228
100
AcDbEntity
  8
0
100
AcDbLine
 62
7
  6
CONTINUOUS
 10
7.6197521531
 20
196.7351080789
 11
-2.3263588136
 21
202.479797057
  0
LINE
  5
229
100
AcDbEntity
  8
0
100
AcDbLine
 62
7
  6
CONTINUOUS
 10
49.9101129688
 20
175.022574245
 11
48.5025741203
 21
175.8355425435
  0
LINE
  5
22A
100
AcDbEntity
  8
0
100
AcDbLine
 62
7
  6
CONTINUOUS
 10
43.0386418992
 20
178.9914083199
 11
42.0537203742
 21
179.560280701
  0
LINE
  5
22B
100
AcDbEntity
  8
0
100
AcDbLine
 62
7
  6
CONTINUOUS
 10
-30.8292833219
 20
222.0028196635
 11
-41.2565720653
 21
228.0254279891
  0
LINE
  5
22C
100
AcDbEntity
  8
0
100
AcDbLine
 62
7
  6
CONTINUOUS
 10
22.1318790374
 20
198.7538673547
 11
49.9041199092
 21
182.7131112917
  0
LINE
  5
22D
100
AcDbEntity
  8
0
100
AcDbLine
 62
7
  6
CONTINUOUS
 10
34.435505349
 20
192.6795067866
 11
21.6359102666
 21
200.0723151959
  0
LINE
  5
22E
100
AcDbEntity
  8
0
100
AcDbLine
 62
7
  6
CONTINUOUS
 10
46.5718360676
 20
189.9723016227
 11
58.1685830035
 21
183.2742359639
  0
LINE
  5
22F
100
AcDbEntity
  8
0
100
AcDbLine
 62
7
  6
CONTINUOUS
 10
58.1685830035
 20
184.9284855031
 11
48.9712342574
 21
190.2406948791
  0
LINE
  5
230
100
AcDbEntity
  8
0
100
AcDbLine
 62
7
  6
CONTINUOUS
 10
-30.8292833219
 20
277.6918587408
 11
-30.8292833219
 21
187.5970666246
  0
LINE
  5
231
100
AcDbEntity
  8
0
100
AcDbLine
 62
7
  6
CONTINUOUS
 10
-28.5772211642
 20
276.3911094632
 11
-28.5772211642
 21
186.2963173469
  0
LINE
  5
232
100
AcDbEntity
  8
0
100
AcDbLine
 62
7
  6
CONTINUOUS
 10
-25.1991279277
 20
274.4399855467
 11
-25.1991279277
 21
184.3451934305
  0
LINE
  5
233
100
AcDbEntity
  8
0
100
AcDbLine
 62
7
  6
CONTINUOUS
 10
-18.5875574523
 20
283.5669301692
 11
9.1510044843
 21
291.002403778
  0
LINE
  5
234
100
AcDbEntity
  8
0
100
AcDbLine
 62
7
  6
CONTINUOUS
 10
9.1510044843
 20
293.8590441075
 11
-21.9656506888
 21
285.5180540857
  0
LINE
  5
235
100
AcDbEntity
  8
0
100
AcDbLine
 62
7
  6
CONTINUOUS
 10
9.1510044843
 20
295.7634709938
 11
-24.2177128465
 21
286.8188033633
  0
LINE
  5
236
100
AcDbEntity
  8
0
100
AcDbLine
 62
7
  6
CONTINUOUS
 10
-46.9311643647
 20
282.6911953465
 11
-45.2421177464
 21
281.7156333883
  0
LINE
  5
237
100
AcDbEntity
  8
0
100
AcDbLine
 62
7
  6
CONTINUOUS
 10
-25.1991279277
 20
274.4399855467
 11
-30.8292833219
 21
277.6918587408
  0
LINE
  5
238
100
AcDbEntity
  8
0
100
AcDbLine
 62
7
  6
CONTINUOUS
 10
-42.4302765219
 20
286.6979476702
 11
-42.3036360674
 21
286.6248024956
  0
LINE
  5
239
100
AcDbEntity
  8
0
100
AcDbLine
 62
7
  6
CONTINUOUS
 10
-41.5663950739
 20
286.8978592938
 11
-41.6038302125
 21
286.9194811346
  0
LINE
  5
23A
100
AcDbEntity
  8
0
100
AcDbLine
 62
7
  6
CONTINUOUS
 10
-42.5482709421
 20
288.7415620035
 11
-41.0813208344
 21
287.5029582865
  0
LINE
  5
23B
100
AcDbEntity
  8
0
100
AcDbLine
 62
7
  6
CONTINUOUS
 10
7.03227814
 20
276.8466377427
 11
7.03227814
 21
280.0652408015
  0
LINE
  5
23C
100
AcDbEntity
  8
0
100
AcDbLine
 62
7
  6
CONTINUOUS
 10
8.6375574814
 20
284.5450144062
 11
8.6375574814
 21
278.5693394189
  0
LINE
  5
23D
100
AcDbEntity
  8
0
100
AcDbLine
 62
7
  6
CONTINUOUS
 10
9.1510044843
 20
287.7409322613
 11
9.1510044843
 21
303.3696206896
  0
LINE
  5
23E
100
AcDbEntity
  8
0
100
AcDbLine
 62
7
  6
CONTINUOUS
 10
8.6375574814
 20
284.5450144062
 11
9.1510044843
 21
287.7409322613
  0
LINE
  5
23F
100
AcDbEntity
  8
0
100
AcDbLine
 62
7
  6
CONTINUOUS
 10
-40.8592243238
 20
287.7660000452
 11
-42.5482709421
 21
288.7415620035
  0
LINE
  5
240
100
AcDbEntity
  8
0
100
AcDbLine
 62
7
  6
CONTINUOUS
 10
-24.2177128465
 20
286.8188033633
 11
-18.5875574523
 21
283.5669301692
  0
LINE
  5
241
100
AcDbEntity
  8
0
100
AcDbLine
 62
7
  6
CONTINUOUS
 10
7.03227814
 20
276.8466377427
 11
9.2068961762
 21
275.5906187513
  0
LINE
  5
242
100
AcDbEntity
  8
0
100
AcDbLine
 62
7
  6
CONTINUOUS
 10
11.0181794565
 20
298.0433749845
 11
10.9600084908
 21
298.992296076
  0
LINE
  5
243
100
AcDbEntity
  8
0
100
AcDbLine
 62
7
  6
CONTINUOUS
 10
10.2313236033
 20
294.5667540132
 11
10.2313236033
 21
278.9380655848
  0
LINE
  5
244
100
AcDbEntity
  8
0
100
AcDbLine
 62
7
  6
CONTINUOUS
 10
10.9134381711
 20
277.8627548034
 11
10.9134381711
 21
293.4914432318
  0
LINE
  5
245
100
AcDbEntity
  8
0
100
AcDbLine
 62
7
  6
CONTINUOUS
 10
20.472923665
 20
285.5213260856
 11
20.472923665
 21
269.8926376573
  0
LINE
  5
246
100
AcDbEntity
  8
0
100
AcDbLine
 62
7
  6
CONTINUOUS
 10
22.1489299599
 20
269.0018907953
 11
22.1489299599
 21
284.6305792237
  0
LINE
  5
247
100
AcDbEntity
  8
0
100
AcDbLine
 62
7
  6
CONTINUOUS
 10
32.1375574814
 20
299.2543682211
 11
32.1375574814
 21
300.6333701413
  0
LINE
  5
248
100
AcDbEntity
  8
0
100
AcDbLine
 62
7
  6
CONTINUOUS
 10
38.7322368192
 20
278.706589694
 11
38.7322368192
 21
263.0779012656
  0
LINE
  5
249
100
AcDbEntity
  8
0
100
AcDbLine
 62
7
  6
CONTINUOUS
 10
9.1510044843
 20
297.0703194278
 11
1.256188109
 21
301.6302187459
  0
LINE
  5
24A
100
AcDbEntity
  8
0
100
AcDbLine
 62
7
  6
CONTINUOUS
 10
43.1449182983
 20
172.5591736848
 11
43.0300790392
 21
179.5096637846
  0
LINE
  5
24B
100
AcDbEntity
  8
0
100
AcDbLine
 62
7
  6
CONTINUOUS
 10
41.1469780758
 20
262.5073264582
 11
41.1469780758
 21
278.1360148865
  0
LINE
  5
24C
100
AcDbEntity
  8
0
100
AcDbLine
 62
7
  6
CONTINUOUS
 10
45.0516417825
 20
179.4726364369
 11
45.0516417825
 21
171.4578856115
  0
LINE
  5
24D
100
AcDbEntity
  8
0
100
AcDbLine
 62
7
  6
CONTINUOUS
 10
49.9041199092
 20
181.0589013201
 11
49.9041199092
 21
182.7131112917
  0
LINE
  5
24E
100
AcDbEntity
  8
0
100
AcDbLine
 62
7
  6
CONTINUOUS
 10
58.1685830035
 20
184.9284855031
 11
58.1685830035
 21
183.2742359639
  0
LINE
  5
24F
100
AcDbEntity
  8
0
100
AcDbLine
 62
7
  6
CONTINUOUS
 10
62.229448159
 20
275.1600266782
 11
62.229448159
 21
259.5313382498
  0
LINE
  5
250
100
AcDbEntity
  8
0
100
AcDbLine
 62
7
  6
CONTINUOUS
 10
65.0153019109
 20
259.367800339
 11
65.0153019109
 21
274.9964887673
  0
LINE
  5
251
100
AcDbEntity
  8
0
100
AcDbLine
 62
7
  6
CONTINUOUS
 10
87.387320261
 20
275.4215691076
 11
87.387320261
 21
259.7928806792
  0
LINE
  5
252
100
AcDbEntity
  8
0
100
AcDbLine
 62
7
  6
CONTINUOUS
 10
90.1201655281
 20
260.0612768295
 11
90.1201655281
 21
275.6899652578
  0
LINE
  5
253
100
AcDbEntity
  8
0
100
AcDbLine
 62
7
  6
CONTINUOUS
 10
110.3757951543
 20
279.4513995183
 11
110.3757951543
 21
263.8227110899
  0
LINE
  5
254
100
AcDbEntity
  8
0
100
AcDbLine
 62
7
  6
CONTINUOUS
 10
112.6395810179
 20
264.4821804204
 11
112.6395810179
 21
280.1108688488
  0
LINE
  5
255
100
AcDbEntity
  8
0
100
AcDbLine
 62
7
  6
CONTINUOUS
 10
114.1375574814
 20
299.2543682211
 11
114.1375574814
 21
300.6333701413
  0
LINE
  5
256
100
AcDbEntity
  8
0
100
AcDbLine
 62
7
  6
CONTINUOUS
 10
127.6950859273
 20
286.6360127608
 11
127.6950859273
 21
271.0073243324
  0
LINE
  5
257
100
AcDbEntity
  8
0
100
AcDbLine
 62
7
  6
CONTINUOUS
 10
129.145171511
 20
271.9574686157
 11
129.145171511
 21
287.586157044
  0
LINE
  5
258
100
AcDbEntity
  8
0
100
AcDbLine
 62
7
  6
CONTINUOUS
 10
137.6375574814
 20
284.5450144062
 11
137.1241104784
 21
281.3490965511
  0
LINE
  5
259
100
AcDbEntity
  8
0
100
AcDbLine
 62
7
  6
CONTINUOUS
 10
135.2569355062
 20
302.3040306845
 11
135.3151064719
 21
301.3551095931
  0
LINE
  5
25A
100
AcDbEntity
  8
0
100
AcDbLine
 62
7
  6
CONTINUOUS
 10
136.0437913594
 20
305.7806516559
 11
136.0437913594
 21
298.8977030039
  0
LINE
  5
25B
100
AcDbEntity
  8
0
100
AcDbLine
 62
7
  6
CONTINUOUS
 10
136.7084875596
 20
295.8816165975
 11
136.7084875596
 21
280.2529281691
  0
LINE
  5
25C
100
AcDbEntity
  8
0
100
AcDbLine
 62
7
  6
CONTINUOUS
 10
137.1241104784
 20
281.3490965511
 11
137.1241104784
 21
296.9777849795
  0
LINE
  5
25D
100
AcDbEntity
  8
0
100
AcDbLine
 62
7
  6
CONTINUOUS
 10
137.6375574814
 20
284.5450144062
 11
137.6375574814
 21
278.5693394189
  0
LINE
  5
25E
100
AcDbEntity
  8
0
100
AcDbLine
 62
7
  6
CONTINUOUS
 10
131.4829127284
 20
299.315444299
 11
131.5004085485
 21
299.2583030297
  0
LINE
  5
25F
100
AcDbEntity
  8
0
100
AcDbLine
 62
7
  6
CONTINUOUS
 10
131.5227919247
 20
299.3164287504
 11
131.5317583152
 21
299.2590459709
  0
ARC
  5
260
100
AcDbEntity
  8
0
100
AcDbCircle
 62
7
  6
CONTINUOUS
 10
20.9488428241
 20
241.0988410532
 40
57.0039026986
100
AcDbArc
 50
155.4286837227
 51
157.7369953405
  0
ARC
  5
261
100
AcDbEntity
  8
0
100
AcDbCircle
 62
7
  6
CONTINUOUS
 10
19.9799587757
 20
241.4838729999
 40
55.9613728955
100
AcDbArc
 50
157.725998659
 51
162.0333788006
  0
ARC
  5
262
100
AcDbEntity
  8
0
100
AcDbCircle
 62
7
  6
CONTINUOUS
 10
1.9109106338
 20
252.1867986436
 40
55.6359610935
100
AcDbArc
 50
144.0842085472
 51
147.9437978739
  0
ARC
  5
263
100
AcDbEntity
  8
0
100
AcDbCircle
 62
7
  6
CONTINUOUS
 10
1.1599868529
 20
252.7372780711
 40
54.7048943976
100
AcDbArc
 50
140.1842002364
 51
144.0897948546
  0
ARC
  5
264
100
AcDbEntity
  8
0
100
AcDbCircle
 62
7
  6
CONTINUOUS
 10
18.6182455715
 20
241.9240176247
 40
54.530293494
100
AcDbArc
 50
162.0319536066
 51
164.4525996111
  0
ARC
  5
265
100
AcDbEntity
  8
0
100
AcDbCircle
 62
7
  6
CONTINUOUS
 10
16.9930550505
 20
242.3566298936
 40
52.848618168
100
AcDbArc
 50
164.4321892405
 51
168.8534759723
  0
ARC
  5
266
100
AcDbEntity
  8
0
100
AcDbCircle
 62
7
  6
CONTINUOUS
 10
15.0748282671
 20
242.7330508564
 40
50.8938075969
100
AcDbArc
 50
168.8517771936
 51
171.4282079889
  0
ARC
  5
267
100
AcDbEntity
  8
0
100
AcDbCircle
 62
7
  6
CONTINUOUS
 10
12.8987023096
 20
243.0357253691
 40
48.6968824773
100
AcDbArc
 50
171.3987290204
 51
176.0777608722
  0
ARC
  5
268
100
AcDbEntity
  8
0
100
AcDbCircle
 62
7
  6
CONTINUOUS
 10
10.5964505993
 20
243.1923201256
 40
46.3893116311
100
AcDbArc
 50
176.0762146821
 51
178.810203983
  0
ARC
  5
269
100
AcDbEntity
  8
0
100
AcDbCircle
 62
7
  6
CONTINUOUS
 10
9.528404599
 20
243.2166789562
 40
45.320990161
100
AcDbArc
 50
178.8129552849
 51
180.0284553665
  0
ARC
  5
26A
100
AcDbEntity
  8
0
100
AcDbCircle
 62
7
  6
CONTINUOUS
 10
7.8198437827
 20
243.1980334767
 40
43.6124239265
100
AcDbArc
 50
180.005074656
 51
183.7928872424
  0
ARC
  5
26B
100
AcDbEntity
  8
0
100
AcDbCircle
 62
7
  6
CONTINUOUS
 10
5.7281066674
 20
243.0538211642
 40
41.5157290872
100
AcDbArc
 50
183.785258107
 51
186.7167228339
  0
ARC
  5
26C
100
AcDbEntity
  8
0
100
AcDbCircle
 62
7
  6
CONTINUOUS
 10
3.2826027984
 20
242.7344622226
 40
39.0496698002
100
AcDbArc
 50
186.6710333925
 51
192.0859708573
  0
ARC
  5
26D
100
AcDbEntity
  8
0
100
AcDbCircle
 62
7
  6
CONTINUOUS
 10
38.5704757423
 20
281.6208775007
 40
37.8076597883
100
AcDbArc
 50
121.9204052207
 51
124.5478940188
  0
ARC
  5
26E
100
AcDbEntity
  8
0
100
AcDbCircle
 62
7
  6
CONTINUOUS
 10
1.0262262742
 20
242.2506180758
 40
36.7420000483
100
AcDbArc
 50
192.0849083772
 51
195.2778251526
  0
ARC
  5
26F
100
AcDbEntity
  8
0
100
AcDbCircle
 62
7
  6
CONTINUOUS
 10
20.3164478714
 20
299.7630120067
 40
11.7334884933
100
AcDbArc
 50
156.3718274357
 51
162.098751275
  0
ARC
  5
270
100
AcDbEntity
  8
0
100
AcDbCircle
 62
7
  6
CONTINUOUS
 10
-18.1218642466
 20
275.944092441
 40
10.5166869896
100
AcDbArc
 50
148.9692049134
 51
151.977260954
  0
ARC
  5
271
100
AcDbEntity
  8
0
100
AcDbCircle
 62
7
  6
CONTINUOUS
 10
-18.1961054343
 20
275.9899270992
 40
10.4294427731
100
AcDbArc
 50
139.1856883605
 51
148.9747207661
  0
ARC
  5
272
100
AcDbEntity
  8
0
100
AcDbCircle
 62
7
  6
CONTINUOUS
 10
-18.2171340839
 20
275.9901227152
 40
10.4109612582
100
AcDbArc
 50
151.9545532283
 51
158.7502782363
  0
ARC
  5
273
100
AcDbEntity
  8
0
100
AcDbCircle
 62
7
  6
CONTINUOUS
 10
-18.5358169354
 20
276.1126879616
 40
10.0695240992
100
AcDbArc
 50
158.7430555808
 51
163.7541677427
  0
ARC
  5
274
100
AcDbEntity
  8
0
100
AcDbCircle
 62
7
  6
CONTINUOUS
 10
-18.5241690025
 20
276.2614822199
 40
10.0036667363
100
AcDbArc
 50
135.9540836786
 51
139.1346910918
  0
ARC
  5
275
100
AcDbEntity
  8
0
100
AcDbCircle
 62
7
  6
CONTINUOUS
 10
-18.7918878867
 20
276.5239286794
 40
9.6287734506
100
AcDbArc
 50
128.9035208972
 51
135.9690466513
  0
ARC
  5
276
100
AcDbEntity
  8
0
100
AcDbCircle
 62
7
  6
CONTINUOUS
 10
-18.9719231567
 20
276.2348275051
 40
9.6166630199
100
AcDbArc
 50
163.7259139719
 51
168.951153327
  0
ARC
  5
277
100
AcDbEntity
  8
0
100
AcDbCircle
 62
7
  6
CONTINUOUS
 10
23.8994411518
 20
297.8578171661
 40
9.2626628381
100
AcDbArc
 50
171.3207462713
 51
173.5834361385
  0
ARC
  5
278
100
AcDbEntity
  8
0
100
AcDbCircle
 62
7
  6
CONTINUOUS
 10
23.8711179099
 20
299.2528888812
 40
9.0834994692
100
AcDbArc
 50
174.3446354671
 51
179.9906689716
  0
ARC
  5
279
100
AcDbEntity
  8
0
100
AcDbCircle
 62
7
  6
CONTINUOUS
 10
23.8459327524
 20
299.2544522219
 40
9.0583141917
100
AcDbArc
 50
180.0005314936
 51
184.0003728905
  0
ARC
  5
27A
100
AcDbEntity
  8
0
100
AcDbCircle
 62
7
  6
CONTINUOUS
 10
-19.2399088389
 20
277.0643648148
 40
8.9268463488
100
AcDbArc
 50
123.4074726304
 51
128.8441370362
  0
ARC
  5
27B
100
AcDbEntity
  8
0
100
AcDbCircle
 62
7
  6
CONTINUOUS
 10
-19.5923098678
 20
277.5919058977
 40
8.2924401668
100
AcDbArc
 50
117.6587511689
 51
123.381788322
  0
ARC
  5
27C
100
AcDbEntity
  8
0
100
AcDbCircle
 62
7
  6
CONTINUOUS
 10
-22.0731826952
 20
186.0707859313
 40
6.483908028
100
AcDbArc
 50
192.2133061319
 51
198.9895523099
  0
ARC
  5
27D
100
AcDbEntity
  8
0
100
AcDbCircle
 62
7
  6
CONTINUOUS
 10
-23.3807958853
 20
185.4262620664
 40
5.0173328176
100
AcDbArc
 50
216.5482037258
 51
221.5862891359
  0
ARC
  5
27E
100
AcDbEntity
  8
0
100
AcDbCircle
 62
7
  6
CONTINUOUS
 10
-23.6641045643
 20
185.1292131009
 40
4.6051799184
100
AcDbArc
 50
238.2279585957
 51
239.9979021223
  0
ARC
  5
27F
100
AcDbEntity
  8
0
100
AcDbCircle
 62
7
  6
CONTINUOUS
 10
-39.4735302444
 20
282.1613318438
 40
4.5365991047
100
AcDbArc
 50
142.5835794464
 51
144.0763241305
  0
ARC
  5
280
100
AcDbEntity
  8
0
100
AcDbCircle
 62
7
  6
CONTINUOUS
 10
-41.1853263981
 20
284.1706525763
 40
2.6916414434
100
AcDbArc
 50
99.4644606346
 51
100.2216433571
  0
ARC
  5
281
100
AcDbEntity
  8
0
100
AcDbCircle
 62
7
  6
CONTINUOUS
 10
-41.3322462739
 20
284.3936087525
 40
2.5404308938
100
AcDbArc
 50
94.8434856943
 51
96.1369141513
  0
ARC
  5
282
100
AcDbEntity
  8
0
100
AcDbCircle
 62
7
  6
CONTINUOUS
 10
45.0712418704
 20
329.782747938
 40
50.6374438822
100
AcDbArc
 50
240.9368506672
 51
243.0845519797
  0
ARC
  5
283
100
AcDbEntity
  8
0
100
AcDbCircle
 62
7
  6
CONTINUOUS
 10
23.4916017813
 20
302.2243003538
 40
15.3125110063
100
AcDbArc
 50
210.0055773689
 51
214.7717500301
  0
ARC
  5
284
100
AcDbEntity
  8
0
100
AcDbCircle
 62
7
  6
CONTINUOUS
 10
24.4470827202
 20
300.3027384567
 40
9.8218145421
100
AcDbArc
 50
193.8877370103
 51
194.896551402
  0
ARC
  5
285
100
AcDbEntity
  8
0
100
AcDbCircle
 62
7
  6
CONTINUOUS
 10
73.2991397677
 20
165.9314019428
 40
159.6181508127
100
AcDbArc
 50
86.1395570531
 51
87.1412882838
  0
ARC
  5
286
100
AcDbEntity
  8
0
100
AcDbCircle
 62
7
  6
CONTINUOUS
 10
72.3307198088
 20
174.0008918964
 40
151.5224444021
100
AcDbArc
 50
95.0899184235
 51
96.1282859478
  0
ARC
  5
287
100
AcDbEntity
  8
0
100
AcDbCircle
 62
7
  6
CONTINUOUS
 10
78.5663803643
 20
150.1433820752
 40
125.5883478941
100
AcDbArc
 50
85.9724042448
 51
91.1070112168
  0
ARC
  5
288
100
AcDbEntity
  8
0
100
AcDbCircle
 62
7
  6
CONTINUOUS
 10
78.4543621021
 20
152.2475497188
 40
123.4824294236
100
AcDbArc
 50
91.0739070438
 51
96.2480927661
  0
ARC
  5
289
100
AcDbEntity
  8
0
100
AcDbCircle
 62
7
  6
CONTINUOUS
 10
80.4376087097
 20
212.3230786969
 40
112.6279863742
100
AcDbArc
 50
76.0743882603
 51
77.3366607846
  0
ARC
  5
28A
100
AcDbEntity
  8
0
100
AcDbCircle
 62
7
  6
CONTINUOUS
 10
61.487150147
 20
228.844444524
 40
95.5417555804
100
AcDbArc
 50
105.534484004
 51
106.9485290184
  0
ARC
  5
28B
100
AcDbEntity
  8
0
100
AcDbCircle
 62
7
  6
CONTINUOUS
 10
101.2038730923
 20
270.5646577311
 40
50.6374438823
100
AcDbArc
 50
60.9368506672
 51
63.0845519797
  0
ARC
  5
28C
100
AcDbEntity
  8
0
100
AcDbCircle
 62
7
  6
CONTINUOUS
 10
65.8970812761
 20
214.5387279309
 40
43.0348227571
100
AcDbArc
 50
164.880566978
 51
165.4520718441
  0
ARC
  5
28D
100
AcDbEntity
  8
0
100
AcDbCircle
 62
7
  6
CONTINUOUS
 10
143.7559145655
 20
280.938030313
 40
16.2732598922
100
AcDbArc
 50
136.6613225022
 51
137.6403053921
  0
ARC
  5
28E
100
AcDbEntity
  8
0
100
AcDbCircle
 62
7
  6
CONTINUOUS
 10
122.7835131814
 20
298.1231053153
 40
15.3125110063
100
AcDbArc
 50
30.0055773689
 51
34.7717500301
  0
ARC
  5
28F
100
AcDbEntity
  8
0
100
AcDbCircle
 62
7
  6
CONTINUOUS
 10
56.8394724739
 20
200.9253612961
 40
13.2546629805
100
AcDbArc
 50
144.0821749662
 51
145.7958267436
  0
ARC
  5
290
100
AcDbEntity
  8
0
100
AcDbCircle
 62
7
  6
CONTINUOUS
 10
122.3396057352
 20
297.8519994165
 40
9.2992176585
100
AcDbArc
 50
8.1458044306
 51
8.7027379731
  0
ARC
  5
291
100
AcDbEntity
  8
0
100
AcDbCircle
 62
7
  6
CONTINUOUS
 10
122.3667282989
 20
299.2577226419
 40
9.1207687195
100
AcDbArc
 50
352.2641363472
 51
359.9789280247
  0
ARC
  5
292
100
AcDbEntity
  8
0
100
AcDbCircle
 62
7
  6
CONTINUOUS
 10
122.4086884039
 20
299.2535271622
 40
9.0788080367
100
AcDbArc
 50
0.0053080392
 51
5.7321535013
  0
ARC
  5
293
100
AcDbEntity
  8
0
100
AcDbCircle
 62
7
  6
CONTINUOUS
 10
55.1915729546
 20
221.4064143072
 40
8.6579592548
100
AcDbArc
 50
144.0845849494
 51
146.729271389
  0
ARC
  5
294
100
AcDbEntity
  8
0
100
AcDbCircle
 62
7
  6
CONTINUOUS
 10
73.1238012681
 20
421.5499721222
 40
162.3847425288
100
AcDbArc
 50
267.1378094669
 51
275.0392296168
  0
ARC
  5
295
100
AcDbEntity
  8
0
100
AcDbCircle
 62
7
  6
CONTINUOUS
 10
72.975975195
 20
434.4160037263
 40
159.6181508128
100
AcDbArc
 50
266.1395570531
 51
267.1412882838
  0
ARC
  5
296
100
AcDbEntity
  8
0
100
AcDbCircle
 62
7
  6
CONTINUOUS
 10
73.9443951539
 20
426.3465137726
 40
151.5224444021
100
AcDbArc
 50
275.0899184235
 51
276.1282859478
  0
ARC
  5
297
100
AcDbEntity
  8
0
100
AcDbCircle
 62
7
  6
CONTINUOUS
 10
67.7087345985
 20
450.2040235938
 40
125.588347894
100
AcDbArc
 50
265.9724042448
 51
271.1070112168
  0
ARC
  5
298
100
AcDbEntity
  8
0
100
AcDbCircle
 62
7
  6
CONTINUOUS
 10
67.8207528606
 20
448.0998559503
 40
123.4824294236
100
AcDbArc
 50
271.0739070438
 51
276.2480927661
  0
ARC
  5
299
100
AcDbEntity
  8
0
100
AcDbCircle
 62
7
  6
CONTINUOUS
 10
65.837506253
 20
388.0243269722
 40
112.6279863742
100
AcDbArc
 50
256.0743882603
 51
257.3366607846
  0
ARC
  5
29A
100
AcDbEntity
  8
0
100
AcDbCircle
 62
7
  6
CONTINUOUS
 10
83.2437348562
 20
361.3512374499
 40
101.2322189323
100
AcDbArc
 50
285.0043938923
 51
285.5463623033
  0
ARC
  5
29B
100
AcDbEntity
  8
0
100
AcDbCircle
 62
7
  6
CONTINUOUS
 10
84.7879648157
 20
371.5029611452
 40
95.5417555805
100
AcDbArc
 50
285.534484004
 51
286.9485290184
  0
ARC
  5
29C
100
AcDbEntity
  8
0
100
AcDbCircle
 62
7
  6
CONTINUOUS
 10
107.7046392203
 20
318.7265281686
 40
37.8076597886
100
AcDbArc
 50
301.9204052207
 51
304.5478940188
  0
ARC
  5
29D
100
AcDbEntity
  8
0
100
AcDbCircle
 62
7
  6
CONTINUOUS
 10
125.9586670913
 20
300.5843936623
 40
11.7334884933
100
AcDbArc
 50
336.3718274357
 51
342.098751275
  0
ARC
  5
29E
100
AcDbEntity
  8
0
100
AcDbCircle
 62
7
  6
CONTINUOUS
 10
121.8227981322
 20
300.3041937084
 40
9.8272702662
100
AcDbArc
 50
344.8361192475
 51
346.0778749861
  0
SPLINE
  5
29F
100
AcDbEntity
  8
0
100
AcDbSpline
 62
7
  6
CONTINUOUS
 70
0
 71
3
 72
9
 73
5
 74
0
 42
0.0000001
 43
0.0000001
 44
0.0000000001
 40
0.0
 40
0.0
 40
0.0
 40
0.0
 40
0.2444703323
 40
1.0
 40
1.0
 40
1.0
 40
1.0
 10
-41.6629756826
 20
286.8195740211
 30
0.0
 10
-41.7167421809
 20
286.8098795308
 30
0.0
 10
-41.9354470518
 20
286.7635729194
 30
0.0
 10
-42.1484468821
 20
286.6913190399
 30
0.0
 10
-42.3036360674
 20
286.6248024956
 30
0.0
  0
SPLINE
  5
2A0
100
AcDbEntity
  8
0
100
AcDbSpline
 62
7
  6
CONTINUOUS
 70
0
 71
3
 72
9
 73
5
 74
0
 42
0.0000001
 43
0.0000001
 44
0.0000000001
 40
0.0
 40
0.0
 40
0.0
 40
0.0
 40
0.2541857405
 40
1.0
 40
1.0
 40
1.0
 40
1.0
 10
-44.9096154502
 20
282.8486787578
 30
0.0
 10
-44.9096154502
 20
282.8025738727
 30
0.0
 10
-44.9061054785
 20
282.6212159101
 30
0.0
 10
-44.8883566036
 20
282.4400728725
 30
0.0
 10
-44.8664721449
 20
282.3065770069
 30
0.0
  0
SPLINE
  5
2A1
100
AcDbEntity
  8
0
100
AcDbSpline
 62
7
  6
CONTINUOUS
 70
0
 71
3
 72
14
 73
10
 74
0
 42
0.0000001
 43
0.0000001
 44
0.0000000001
 40
0.0
 40
0.0
 40
0.0
 40
0.0
 40
0.1178849699
 40
0.2406293175
 40
0.367136157
 40
0.4959352505
 40
0.6253531269
 40
0.753662167
 40
1.0
 40
1.0
 40
1.0
 40
1.0
 10
-42.4302765219
 20
286.6979476702
 30
0.0
 10
-42.6043059276
 20
286.6233559088
 30
0.0
 10
-42.9467414568
 20
286.4397709624
 30
0.0
 10
-43.4185024366
 20
286.0825553903
 30
0.0
 10
-43.8460228538
 20
285.6484503881
 30
0.0
 10
-44.2159511426
 20
285.1511914602
 30
0.0
 10
-44.5170220268
 20
284.6058262222
 30
0.0
 10
-44.8097059042
 20
283.8495433664
 30
0.0
 10
-44.9096154502
 20
283.2443352157
 30
0.0
 10
-44.9096154502
 20
282.8486787578
 30
0.0
  0
SPLINE
  5
2A2
100
AcDbEntity
  8
0
100
AcDbSpline
 62
7
  6
CONTINUOUS
 70
0
 71
3
 72
25
 73
21
 74
0
 42
0.0000001
 43
0.0000001
 44
0.0000000001
 40
0.0
 40
0.0
 40
0.0
 40
0.0
 40
0.0157125681
 40
0.0319505943
 40
0.0491799816
 40
0.0677686538
 40
0.1099229086
 40
0.159582338
 40
0.2167964664
 40
0.2809689453
 40
0.3510776773
 40
0.4258113477
 40
0.5036622451
 40
0.5829993212
 40
0.6621349856
 40
0.7393892249
 40
0.8131527543
 40
0.8819578545
 40
0.9445506783
 40
1.0
 40
1.0
 40
1.0
 40
1.0
 10
32.1375580926
 20
300.6333701412
 30
0.0
 10
32.137566454
 20
301.0625337881
 30
0.0
 10
32.2275533497
 20
301.9375955249
 30
0.0
 10
32.6269595281
 20
303.2280605212
 30
0.0
 10
33.2852229026
 20
304.4959295571
 30
0.0
 10
34.5509178952
 20
306.2174117097
 30
0.0
 10
36.8106308235
 20
308.2569983626
 30
0.0
 10
40.2886518245
 20
310.3981568902
 30
0.0
 10
44.5692178368
 20
312.2978757255
 30
0.0
 10
49.5524151852
 20
313.9111199057
 30
0.0
 10
55.1202561628
 20
315.1992738539
 30
0.0
 10
61.1362170793
 20
316.1294110789
 30
0.0
 10
67.4514283483
 20
316.6777673921
 30
0.0
 10
73.9086010497
 20
316.8301840085
 30
0.0
 10
80.3465449068
 20
316.5827400856
 30
0.0
 10
86.6046064224
 20
315.9417809912
 30
0.0
 10
92.5269192328
 20
314.9239101956
 30
0.0
 10
97.9675923282
 20
313.5549165381
 30
0.0
 10
102.7924330371
 20
311.8701313751
 30
0.0
 10
105.7103837849
 20
310.473724273
 30
0.0
 10
107.0218561679
 20
309.7162421809
 30
0.0
  0
SPLINE
  5
2A3
100
AcDbEntity
  8
0
100
AcDbSpline
 62
7
  6
CONTINUOUS
 70
0
 71
3
 72
26
 73
22
 74
0
 42
0.0000001
 43
0.0000001
 44
0.0000000001
 40
0.0
 40
0.0
 40
0.0
 40
0.0
 40
0.0157791383
 40
0.0322979817
 40
0.0499635002
 40
0.069084216
 40
0.0898735882
 40
0.1124604221
 40
0.1631884365
 40
0.2212301839
 40
0.285927782
 40
0.3562465633
 40
0.4308919244
 40
0.5083927121
 40
0.5871698774
 40
0.6655979243
 40
0.7420639821
 40
0.8150271875
 40
0.8830841034
 40
0.9450372234
 40
1.0
 40
1.0
 40
1.0
 40
1.0
 10
14.8318310876
 20
300.148018119
 30
0.0
 10
14.8917738126
 20
300.7537733016
 30
0.0
 10
15.1403116353
 20
301.9841289299
 30
0.0
 10
15.8701172113
 20
303.7782775702
 30
0.0
 10
16.9521752378
 20
305.5365612016
 30
0.0
 10
18.3760091087
 20
307.2493482923
 30
0.0
 10
20.1316323156
 20
308.9089159884
 30
0.0
 10
23.0128850304
 20
311.1256299132
 30
0.0
 10
27.4205692519
 20
313.6687987077
 30
0.0
 10
33.60121731
 20
316.2652022667
 30
0.0
 10
40.7296909232
 20
318.4578823435
 30
0.0
 10
48.6372587192
 20
320.1936284447
 30
0.0
 10
57.1365289525
 20
321.4298662532
 30
0.0
 10
66.0228092482
 20
322.1357650765
 30
0.0
 10
75.0813787821
 20
322.2936980271
 30
0.0
 10
84.0928559225
 20
321.899733249
 30
0.0
 10
92.8391894787
 20
320.96368478
 30
0.0
 10
101.1091386415
 20
319.5090377365
 30
0.0
 10
108.7051098226
 20
317.5714954936
 30
0.0
 10
115.4454141005
 20
315.1995347967
 30
0.0
 10
119.5246446828
 20
313.2413171103
 30
0.0
 10
121.3606996364
 20
312.1808458678
 30
0.0
  0
SPLINE
  5
2A4
100
AcDbEntity
  8
0
100
AcDbSpline
 62
7
  6
CONTINUOUS
 70
0
 71
3
 72
13
 73
9
 74
0
 42
0.0000001
 43
0.0000001
 44
0.0000000001
 40
0.0
 40
0.0
 40
0.0
 40
0.0
 40
0.30745118
 40
0.444374449
 40
0.5707356865
 40
0.7961193261
 40
0.8995508988
 40
1.0
 40
1.0
 40
1.0
 40
1.0
 10
107.0218561679
 20
309.7162421809
 30
0.0
 10
108.091104674
 20
309.0986641015
 30
0.0
 10
109.5864309901
 20
308.1055804513
 30
0.0
 10
111.2975135242
 20
306.5739115209
 30
0.0
 10
112.6097792505
 20
305.1124545449
 30
0.0
 10
113.5754465346
 20
303.5213325548
 30
0.0
 10
114.0582676384
 20
301.857672958
 30
0.0
 10
114.1375596027
 20
301.0367938211
 30
0.0
 10
114.1375575171
 20
300.6333701413
 30
0.0
  0
SPLINE
  5
2A5
100
AcDbEntity
  8
0
100
AcDbSpline
 62
7
  6
CONTINUOUS
 70
0
 71
3
 72
13
 73
9
 74
0
 42
0.0000001
 43
0.0000001
 44
0.0000000001
 40
0.0
 40
0.0
 40
0.0
 40
0.0
 40
0.3045696624
 40
0.5678615448
 40
0.6857306198
 40
0.7958454777
 40
0.8998901762
 40
1.0
 40
1.0
 40
1.0
 40
1.0
 10
121.3606996364
 20
312.1808458678
 30
0.0
 10
122.7891837581
 20
311.3557799685
 30
0.0
 10
125.3661377889
 20
309.6568264272
 30
0.0
 10
128.1019892746
 20
307.1042138993
 30
0.0
 10
129.7005204193
 20
304.9687795421
 30
0.0
 10
130.5803213269
 20
303.393190782
 30
0.0
 10
131.1783685009
 20
301.7922030516
 30
0.0
 10
131.3879769926
 20
300.6998172306
 30
0.0
 10
131.4420994641
 20
300.1603016568
 30
0.0
  0
SPLINE
  5
2A6
100
AcDbEntity
  8
0
100
AcDbSpline
 62
7
  6
CONTINUOUS
 70
0
 71
3
 72
13
 73
9
 74
0
 42
0.0000001
 43
0.0000001
 44
0.0000000001
 40
0.0
 40
0.0
 40
0.0
 40
0.0
 40
0.1004483953
 40
0.2038794254
 40
0.4292630099
 40
0.5556246272
 40
0.6925486389
 40
1.0
 40
1.0
 40
1.0
 40
1.0
 10
32.1375692113
 20
299.2543682209
 30
0.0
 10
32.1375682296
 20
298.8509475639
 30
0.0
 10
32.2168524494
 20
298.0300733113
 30
0.0
 10
32.6996736825
 20
296.3664196159
 30
0.0
 10
33.6653302308
 20
294.7752941566
 30
0.0
 10
34.9775974293
 20
293.3138333227
 30
0.0
 10
36.6886818661
 20
291.782160454
 30
0.0
 10
38.1840101567
 20
290.7890743371
 30
0.0
 10
39.2532587949
 20
290.1714961814
 30
0.0
  0
SPLINE
  5
2A7
100
AcDbEntity
  8
0
100
AcDbSpline
 62
7
  6
CONTINUOUS
 70
0
 71
3
 72
25
 73
21
 74
0
 42
0.0000001
 43
0.0000001
 44
0.0000000001
 40
0.0
 40
0.0
 40
0.0
 40
0.0
 40
0.0157126034
 40
0.0319506946
 40
0.0491802231
 40
0.0677690195
 40
0.1099235496
 40
0.1595827907
 40
0.2167958209
 40
0.2809671016
 40
0.351075894
 40
0.4258106235
 40
0.503662407
 40
0.5829998451
 40
0.6621355118
 40
0.7393895871
 40
0.8131533624
 40
0.8819584154
 40
0.9445509148
 40
1.0
 40
1.0
 40
1.0
 40
1.0
 10
114.1375575171
 20
300.6333701413
 30
0.0
 10
114.1375552985
 20
300.2042055212
 30
0.0
 10
114.0475559723
 20
299.329141652
 30
0.0
 10
113.6481569333
 20
298.0386682783
 30
0.0
 10
112.9898769297
 20
296.7707969243
 30
0.0
 10
111.7241814425
 20
295.049297809
 30
0.0
 10
109.4644516073
 20
293.0097177455
 30
0.0
 10
105.9864540286
 20
290.868577325
 30
0.0
 10
101.7059500276
 20
288.9688856544
 30
0.0
 10
96.7228136734
 20
287.3556526146
 30
0.0
 10
91.1549769533
 20
286.0674888099
 30
0.0
 10
85.1389627554
 20
285.137335777
 30
0.0
 10
78.8236885786
 20
284.5889723551
 30
0.0
 10
72.3664815084
 20
284.4365565761
 30
0.0
 10
65.928532208
 20
284.6840037947
 30
0.0
 10
59.6704684237
 20
285.3249643919
 30
0.0
 10
53.7481552081
 20
286.3428394999
 30
0.0
 10
48.3074862415
 20
287.7118357009
 30
0.0
 10
43.4826618506
 20
289.3966174289
 30
0.0
 10
40.5647256061
 20
290.7930192276
 30
0.0
 10
39.2532587949
 20
291.5504981016
 30
0.0
  0
SPLINE
  5
2A8
100
AcDbEntity
  8
0
100
AcDbSpline
 62
7
  6
CONTINUOUS
 70
0
 71
3
 72
13
 73
9
 74
0
 42
0.0000001
 43
0.0000001
 44
0.0000000001
 40
0.0
 40
0.0
 40
0.0
 40
0.0
 40
0.3074454925
 40
0.4443665154
 40
0.5707294886
 40
0.79611727
 40
0.8995499599
 40
1.0
 40
1.0
 40
1.0
 40
1.0
 10
39.2532587949
 20
291.5504981016
 30
0.0
 10
38.1840301148
 20
292.1680647298
 30
0.0
 10
36.6887252422
 20
293.1611228322
 30
0.0
 10
34.97766153
 20
294.6927752185
 30
0.0
 10
33.6653758532
 20
296.1542326949
 30
0.0
 10
32.6996785058
 20
297.7453723959
 30
0.0
 10
32.2168512117
 20
299.4090552573
 30
0.0
 10
32.1375502326
 20
300.2299427082
 30
0.0
 10
32.1375580926
 20
300.6333701412
 30
0.0
  0
SPLINE
  5
2A9
100
AcDbEntity
  8
0
100
AcDbSpline
 62
7
  6
CONTINUOUS
 70
0
 71
3
 72
25
 73
21
 74
0
 42
0.0000001
 43
0.0000001
 44
0.0000000001
 40
0.0
 40
0.0
 40
0.0
 40
0.0
 40
0.0554492105
 40
0.1180419337
 40
0.186847055
 40
0.2606106215
 40
0.3378649234
 40
0.4170007139
 40
0.4963380581
 40
0.574189679
 40
0.6489243286
 40
0.7190330934
 40
0.7832043406
 40
0.8404173143
 40
0.8900764889
 40
0.9322309736
 40
0.9508197526
 40
0.9680492872
 40
0.9842873958
 40
1.0
 40
1.0
 40
1.0
 40
1.0
 10
39.2532587949
 20
290.1714961814
 30
0.0
 10
40.5647282014
 20
289.4140158085
 30
0.0
 10
43.4826727707
 20
288.0176111678
 30
0.0
 10
48.307507656
 20
286.332829209
 30
0.0
 10
53.7481780049
 20
284.9638355447
 30
0.0
 10
59.6704925935
 20
283.9459647287
 30
0.0
 10
65.928558667
 20
283.3050058204
 30
0.0
 10
72.3665133416
 20
283.0575622517
 30
0.0
 10
78.823714878
 20
283.2099809658
 30
0.0
 10
85.1389778733
 20
283.7583462159
 30
0.0
 10
91.1549827697
 20
284.6884997729
 30
0.0
 10
96.7228138515
 20
285.9766637824
 30
0.0
 10
101.7059453206
 20
287.5898965253
 30
0.0
 10
105.9864440844
 20
289.4895864494
 30
0.0
 10
109.4644362581
 20
291.6307239702
 30
0.0
 10
111.7241650246
 20
293.670299204
 30
0.0
 10
112.989858221
 20
295.3917968958
 30
0.0
 10
113.648142622
 20
296.659666025
 30
0.0
 10
114.0475391356
 20
297.9501400785
 30
0.0
 10
114.1375447072
 20
298.8252037
 30
0.0
 10
114.1375457515
 20
299.2543682213
 30
0.0
  0
SPLINE
  5
2AA
100
AcDbEntity
  8
0
100
AcDbSpline
 62
7
  6
CONTINUOUS
 70
0
 71
3
 72
13
 73
9
 74
0
 42
0.0000001
 43
0.0000001
 44
0.0000000001
 40
0.0
 40
0.0
 40
0.0
 40
0.0
 40
0.234808417
 40
0.3606347824
 40
0.4898729049
 40
0.6205617968
 40
0.7505834308
 40
1.0
 40
1.0
 40
1.0
 40
1.0
 10
-24.2177128465
 20
286.8188033633
 30
0.0
 10
-25.1246599187
 20
286.5756912282
 30
0.0
 10
-26.4464588623
 20
285.9001418448
 30
0.0
 10
-27.928009846
 20
284.6130318849
 30
0.0
 10
-28.9279164941
 20
283.4296109971
 30
0.0
 10
-29.7482407254
 20
282.0961739622
 30
0.0
 10
-30.5515274957
 20
280.2166710058
 30
0.0
 10
-30.8292833219
 20
278.6892403312
 30
0.0
 10
-30.8292833219
 20
277.6918587408
 30
0.0
  0
SPLINE
  5
2AB
100
AcDbEntity
  8
0
100
AcDbSpline
 62
7
  6
CONTINUOUS
 70
0
 71
3
 72
11
 73
7
 74
0
 42
0.0000001
 43
0.0000001
 44
0.0000000001
 40
0.0
 40
0.0
 40
0.0
 40
0.0
 40
0.271768352
 40
0.5268704044
 40
0.7676317877
 40
1.0
 40
1.0
 40
1.0
 40
1.0
 10
-30.8292833219
 20
187.5970666246
 30
0.0
 10
-30.8292833219
 20
187.0501629689
 30
0.0
 10
-30.7229132182
 20
185.985391758
 30
0.0
 10
-30.2137095562
 20
184.5104090095
 30
0.0
 10
-29.3790857222
 20
183.2832431252
 30
0.0
 10
-28.6238598756
 20
182.6756679922
 30
0.0
 10
-28.2189027171
 20
182.4418438745
 30
0.0
  0
SPLINE
  5
2AC
100
AcDbEntity
  8
0
100
AcDbSpline
 62
7
  6
CONTINUOUS
 70
0
 71
3
 72
9
 73
5
 74
0
 42
0.0000001
 43
0.0000001
 44
0.0000000001
 40
0.0
 40
0.0
 40
0.0
 40
0.0
 40
0.2453243226
 40
1.0
 40
1.0
 40
1.0
 40
1.0
 10
-28.5772211642
 20
276.3911094632
 30
0.0
 10
-28.5772211642
 20
276.5298347562
 30
0.0
 10
-28.5627185505
 20
277.0952515689
 30
0.0
 10
-28.4920204933
 20
277.6589598274
 30
0.0
 10
-28.4103332047
 20
278.0778205611
 30
0.0
  0
SPLINE
  5
2AD
100
AcDbEntity
  8
0
100
AcDbSpline
 62
7
  6
CONTINUOUS
 70
0
 71
3
 72
9
 73
5
 74
0
 42
0.0000001
 43
0.0000001
 44
0.0000000001
 40
0.0
 40
0.0
 40
0.0
 40
0.0
 40
0.2560354711
 40
1.0
 40
1.0
 40
1.0
 40
1.0
 10
-23.4416979567
 20
284.9367527484
 30
0.0
 10
-23.3215762256
 20
284.9995389048
 30
0.0
 10
-22.8462179229
 20
285.232592055
 30
0.0
 10
-22.3460630743
 20
285.4160824601
 30
0.0
 10
-21.9656506888
 20
285.5180540857
 30
0.0
  0
SPLINE
  5
2AE
100
AcDbEntity
  8
0
100
AcDbSpline
 62
7
  6
CONTINUOUS
 70
0
 71
3
 72
9
 73
5
 74
0
 42
0.0000001
 43
0.0000001
 44
0.0000000001
 40
0.0
 40
0.0
 40
0.0
 40
0.0
 40
0.2485823419
 40
1.0
 40
1.0
 40
1.0
 40
1.0
 10
-26.0889206545
 20
181.2141206359
 30
0.0
 10
-26.1854168462
 20
181.2738864303
 30
0.0
 10
-26.5646477847
 20
181.5285522228
 30
0.0
 10
-26.9057189733
 20
181.8394736642
 30
0.0
 10
-27.1335448188
 20
182.0960212276
 30
0.0
  0
SPLINE
  5
2AF
100
AcDbEntity
  8
0
100
AcDbSpline
 62
7
  6
CONTINUOUS
 70
0
 71
3
 72
9
 73
5
 74
0
 42
0.0000001
 43
0.0000001
 44
0.0000000001
 40
0.0
 40
0.0
 40
0.0
 40
0.0
 40
0.2468623828
 40
1.0
 40
1.0
 40
1.0
 40
1.0
 10
-27.4115010289
 20
182.4384460332
 30
0.0
 10
-27.4595906664
 20
182.5032791175
 30
0.0
 10
-27.6481860122
 20
182.7704726618
 30
0.0
 10
-27.8117419609
 20
183.0552059715
 30
0.0
 10
-27.9202692941
 20
183.2762710274
 30
0.0
  0
SPLINE
  5
2B0
100
AcDbEntity
  8
0
100
AcDbSpline
 62
7
  6
CONTINUOUS
 70
0
 71
3
 72
9
 73
5
 74
0
 42
0.0000001
 43
0.0000001
 44
0.0000000001
 40
0.0
 40
0.0
 40
0.0
 40
0.0
 40
0.2472605782
 40
1.0
 40
1.0
 40
1.0
 40
1.0
 10
-27.9202692941
 20
183.2762710274
 30
0.0
 10
-27.9472016261
 20
183.3311309168
 30
0.0
 10
-28.052541184
 20
183.5547477479
 30
0.0
 10
-28.1436047405
 20
183.7850507765
 30
0.0
 10
-28.2042230015
 20
183.9609499002
 30
0.0
  0
SPLINE
  5
2B1
100
AcDbEntity
  8
0
100
AcDbSpline
 62
7
  6
CONTINUOUS
 70
0
 71
3
 72
9
 73
5
 74
0
 42
0.0000001
 43
0.0000001
 44
0.0000000001
 40
0.0
 40
0.0
 40
0.0
 40
0.0
 40
0.2447565853
 40
1.0
 40
1.0
 40
1.0
 40
1.0
 10
-28.410339076
 20
184.6991036354
 30
0.0
 10
-28.4382504301
 20
184.8272611053
 30
0.0
 10
-28.5371752224
 20
185.3540995753
 30
0.0
 10
-28.5772211642
 20
185.8915928772
 30
0.0
 10
-28.5772211642
 20
186.2963173469
 30
0.0
  0
SPLINE
  5
2B2
100
AcDbEntity
  8
0
100
AcDbSpline
 62
7
  6
CONTINUOUS
 70
0
 71
3
 72
9
 73
5
 74
0
 42
0.0000001
 43
0.0000001
 44
0.0000000001
 40
0.0
 40
0.0
 40
0.0
 40
0.0
 40
0.2288921309
 40
1.0
 40
1.0
 40
1.0
 40
1.0
 10
125.8021912978
 20
314.8260795834
 30
0.0
 10
126.008431494
 20
314.4545631702
 30
0.0
 10
127.0057798082
 20
312.8846222361
 30
0.0
 10
128.3336250239
 20
311.5443823643
 30
0.0
 10
129.4331220434
 20
310.6276886726
 30
0.0
  0
SPLINE
  5
2B3
100
AcDbEntity
  8
0
100
AcDbSpline
 62
7
  6
CONTINUOUS
 70
0
 71
3
 72
9
 73
5
 74
0
 42
0.0000001
 43
0.0000001
 44
0.0000000001
 40
0.0
 40
0.0
 40
0.0
 40
0.0
 40
0.4725915768
 40
1.0
 40
1.0
 40
1.0
 40
1.0
 10
129.4331220434
 20
310.6276886726
 30
0.0
 10
130.2847000289
 20
309.9176947815
 30
0.0
 10
132.2004904833
 20
308.5504698623
 30
0.0
 10
134.2549230255
 20
307.4092108744
 30
0.0
 10
135.3616767916
 20
306.8559624373
 30
0.0
  0
SPLINE
  5
2B4
100
AcDbEntity
  8
0
100
AcDbSpline
 62
7
  6
CONTINUOUS
 70
0
 71
3
 72
9
 73
5
 74
0
 42
0.0000001
 43
0.0000001
 44
0.0000000001
 40
0.0
 40
0.0
 40
0.0
 40
0.0
 40
0.4789031452
 40
1.0
 40
1.0
 40
1.0
 40
1.0
 10
135.3151064719
 20
301.3551095931
 30
0.0
 10
135.407934932
 20
300.5987066533
 30
0.0
 10
135.8370772075
 20
299.0426328974
 30
0.0
 10
136.6419372871
 20
297.6524076416
 30
0.0
 10
137.1241104784
 20
296.9777849795
 30
0.0
  0
SPLINE
  5
2B5
100
AcDbEntity
  8
0
100
AcDbSpline
 62
7
  6
CONTINUOUS
 70
0
 71
3
 72
9
 73
5
 74
0
 42
0.0000001
 43
0.0000001
 44
0.0000000001
 40
0.0
 40
0.0
 40
0.0
 40
0.0
 40
0.5101536178
 40
1.0
 40
1.0
 40
1.0
 40
1.0
 10
10.2313236033
 20
294.5667540132
 30
0.0
 10
10.4844208544
 20
295.1214421916
 30
0.0
 10
10.880090821
 20
296.2591905373
 30
0.0
 10
11.0181963094
 20
297.4579423311
 30
0.0
 10
11.0181911852
 20
298.0433749845
 30
0.0
  0
SPLINE
  5
2B6
100
AcDbEntity
  8
0
100
AcDbSpline
 62
7
  6
CONTINUOUS
 70
0
 71
3
 72
9
 73
5
 74
0
 42
0.0000001
 43
0.0000001
 44
0.0000000001
 40
0.0
 40
0.0
 40
0.0
 40
0.0
 40
0.5294703325
 40
1.0
 40
1.0
 40
1.0
 40
1.0
 10
9.5666274031
 20
304.4657890716
 30
0.0
 10
10.5276122431
 20
305.0552691123
 30
0.0
 10
12.2873858144
 20
306.2634298888
 30
0.0
 10
13.8689829391
 20
307.7043821119
 30
0.0
 10
14.5439922553
 20
308.444733625
 30
0.0
  0
SPLINE
  5
2B7
100
AcDbEntity
  8
0
100
AcDbSpline
 62
7
  6
CONTINUOUS
 70
0
 71
3
 72
9
 73
5
 74
0
 42
0.0000001
 43
0.0000001
 44
0.0000000001
 40
0.0
 40
0.0
 40
0.0
 40
0.0
 40
0.5264376627
 40
1.0
 40
1.0
 40
1.0
 40
1.0
 10
14.5439922553
 20
308.444733625
 30
0.0
 10
15.14260203
 20
309.1012899745
 30
0.0
 10
16.1812548368
 20
310.446309168
 30
0.0
 10
16.8983820805
 20
311.9962856202
 30
0.0
 10
17.1299434517
 20
312.761248625
 30
0.0
  0
SPLINE
  5
2B8
100
AcDbEntity
  8
0
100
AcDbSpline
 62
7
  6
CONTINUOUS
 70
0
 71
3
 72
9
 73
5
 74
0
 42
0.0000001
 43
0.0000001
 44
0.0000000001
 40
0.0
 40
0.0
 40
0.0
 40
0.0
 40
0.5187216361
 40
1.0
 40
1.0
 40
1.0
 40
1.0
 10
18.5800290354
 20
313.7113929083
 30
0.0
 10
20.0752028539
 20
314.1206128323
 30
0.0
 10
22.9352691284
 20
314.9946905748
 30
0.0
 10
25.7286605405
 20
316.0660356746
 30
0.0
 10
27.0483151734
 20
316.6379817133
 30
0.0
  0
SPLINE
  5
2B9
100
AcDbEntity
  8
0
100
AcDbSpline
 62
7
  6
CONTINUOUS
 70
0
 71
3
 72
9
 73
5
 74
0
 42
0.0000001
 43
0.0000001
 44
0.0000000001
 40
0.0
 40
0.0
 40
0.0
 40
0.0
 40
0.5254815859
 40
1.0
 40
1.0
 40
1.0
 40
1.0
 10
27.0483151734
 20
316.6379817133
 30
0.0
 10
28.2561752589
 20
317.1614753411
 30
0.0
 10
30.5172524723
 20
318.2480709496
 30
0.0
 10
32.6623034593
 20
319.5539286543
 30
0.0
 10
33.6355339449
 20
320.2365368203
 30
0.0
  0
SPLINE
  5
2BA
100
AcDbEntity
  8
0
100
AcDbSpline
 62
7
  6
CONTINUOUS
 70
0
 71
3
 72
9
 73
5
 74
0
 42
0.0000001
 43
0.0000001
 44
0.0000000001
 40
0.0
 40
0.0
 40
0.0
 40
0.0
 40
0.2556903406
 40
1.0
 40
1.0
 40
1.0
 40
1.0
 10
35.8993198084
 20
320.8960061508
 30
0.0
 10
36.8136705149
 20
320.9745923035
 30
0.0
 10
40.3859366573
 20
321.3230950035
 30
0.0
 10
43.9427406319
 20
321.8369438255
 30
0.0
 10
46.5693074329
 20
322.3246925914
 30
0.0
  0
SPLINE
  5
2BB
100
AcDbEntity
  8
0
100
AcDbSpline
 62
7
  6
CONTINUOUS
 70
0
 71
3
 72
9
 73
5
 74
0
 42
0.0000001
 43
0.0000001
 44
0.0000000001
 40
0.0
 40
0.0
 40
0.0
 40
0.0
 40
0.2602016354
 40
1.0
 40
1.0
 40
1.0
 40
1.0
 10
46.5693074329
 20
322.3246925914
 30
0.0
 10
47.4108489097
 20
322.4809653413
 30
0.0
 10
50.6368858281
 20
323.1236270946
 30
0.0
 10
53.8303396615
 20
323.9374631393
 30
0.0
 10
56.1549494347
 20
324.6574404112
 30
0.0
  0
SPLINE
  5
2BC
100
AcDbEntity
  8
0
100
AcDbSpline
 62
7
  6
CONTINUOUS
 70
0
 71
3
 72
9
 73
5
 74
0
 42
0.0000001
 43
0.0000001
 44
0.0000000001
 40
0.0
 40
0.0
 40
0.0
 40
0.0
 40
0.2412380147
 40
1.0
 40
1.0
 40
1.0
 40
1.0
 10
84.0456668037
 20
325.1873789909
 30
0.0
 10
84.848965707
 20
324.984628217
 30
0.0
 10
88.1913705689
 20
324.1940341089
 30
0.0
 10
91.5776848623
 20
323.5931298156
 30
0.0
 10
94.1579431604
 20
323.2289021782
 30
0.0
  0
SPLINE
  5
2BD
100
AcDbEntity
  8
0
100
AcDbSpline
 62
7
  6
CONTINUOUS
 70
0
 71
3
 72
9
 73
5
 74
0
 42
0.0000001
 43
0.0000001
 44
0.0000000001
 40
0.0
 40
0.0
 40
0.0
 40
0.0
 40
0.2455132228
 40
1.0
 40
1.0
 40
1.0
 40
1.0
 10
94.1579431604
 20
323.2289021782
 30
0.0
 10
95.050905244
 20
323.1028522124
 30
0.0
 10
98.6943025539
 20
322.6345736226
 30
0.0
 10
102.3598082049
 20
322.3411329795
 30
0.0
 10
105.1281368869
 20
322.2113907826
 30
0.0
  0
SPLINE
  5
2BE
100
AcDbEntity
  8
0
100
AcDbSpline
 62
7
  6
CONTINUOUS
 70
0
 71
3
 72
9
 73
5
 74
0
 42
0.0000001
 43
0.0000001
 44
0.0000000001
 40
0.0
 40
0.0
 40
0.0
 40
0.0
 40
0.4773865886
 40
1.0
 40
1.0
 40
1.0
 40
1.0
 10
107.5428781435
 20
321.6408159751
 30
0.0
 10
108.6727148158
 20
321.0016870173
 30
0.0
 10
111.1118793051
 20
319.7894762855
 30
0.0
 10
113.6424116529
 20
318.7867961669
 30
0.0
 10
114.9806482309
 20
318.308743174
 30
0.0
  0
SPLINE
  5
2BF
100
AcDbEntity
  8
0
100
AcDbSpline
 62
7
  6
CONTINUOUS
 70
0
 71
3
 72
9
 73
5
 74
0
 42
0.0000001
 43
0.0000001
 44
0.0000000001
 40
0.0
 40
0.0
 40
0.0
 40
0.0
 40
0.2378513093
 40
1.0
 40
1.0
 40
1.0
 40
1.0
 10
114.9806482309
 20
318.308743174
 30
0.0
 10
115.6906423963
 20
318.0551147488
 30
0.0
 10
118.6951743092
 20
317.0435672012
 30
0.0
 10
121.7671336728
 20
316.2375647568
 30
0.0
 10
124.1261850028
 20
315.7168264454
 30
0.0
  0
SPLINE
  5
2C0
100
AcDbEntity
  8
0
100
AcDbSpline
 62
7
  6
CONTINUOUS
 70
0
 71
3
 72
25
 73
21
 74
0
 42
0.0000001
 43
0.0000001
 44
0.0000000001
 40
0.0
 40
0.0
 40
0.0
 40
0.0
 40
0.0541264008
 40
0.1149827957
 40
0.1817540696
 40
0.2533371543
 40
0.3284360179
 40
0.4056226495
 40
0.4833963056
 40
0.5602362363
 40
0.6346537618
 40
0.7052456128
 40
0.7707531484
 40
0.8301315946
 40
0.8826424884
 40
0.9279943466
 40
0.9481029757
 40
0.9666475087
 40
0.9838446586
 40
1.0
 40
1.0
 40
1.0
 40
1.0
 10
24.7904483799
 20
287.2139951682
 30
0.0
 10
26.5786677501
 20
286.1811528702
 30
0.0
 10
30.5417195978
 20
284.268503873
 30
0.0
 10
37.0818005043
 20
281.9359482093
 30
0.0
 10
44.4439012881
 20
280.0136457392
 30
0.0
 10
52.4611762591
 20
278.5470654259
 30
0.0
 10
60.9521604788
 20
277.5702609448
 30
0.0
 10
69.7225936045
 20
277.1064077181
 30
0.0
 10
78.5714018959
 20
277.1664329345
 30
0.0
 10
87.2955278158
 20
277.7489358735
 30
0.0
 10
95.6949921079
 20
278.8401359958
 30
0.0
 10
103.5780792634
 20
280.4143558324
 30
0.0
 10
110.765923374
 20
282.4345684688
 30
0.0
 10
117.0993492837
 20
284.8549078722
 30
0.0
 10
122.4387285077
 20
287.6209331306
 30
0.0
 10
126.1099546263
 20
290.2708187471
 30
0.0
 10
128.3848561781
 20
292.5374983706
 30
0.0
 10
129.70458135
 20
294.2184782389
 30
0.0
 10
130.6977125298
 20
295.9397701612
 30
0.0
 10
131.1466836936
 20
297.1386566951
 30
0.0
 10
131.3078984408
 20
297.7335686831
 30
0.0
  0
SPLINE
  5
2C1
100
AcDbEntity
  8
0
100
AcDbSpline
 62
7
  6
CONTINUOUS
 70
0
 71
3
 72
9
 73
5
 74
0
 42
0.0000001
 43
0.0000001
 44
0.0000000001
 40
0.0
 40
0.0
 40
0.0
 40
0.0
 40
0.2529937673
 40
1.0
 40
1.0
 40
1.0
 40
1.0
 10
131.3613790096
 20
297.9397242689
 30
0.0
 10
131.4071104313
 20
298.1242319006
 30
0.0
 10
131.5666131055
 20
298.8586101367
 30
0.0
 10
131.6374767521
 20
299.6124287638
 30
0.0
 10
131.6374958859
 20
300.1737028632
 30
0.0
  0
SPLINE
  5
2C2
100
AcDbEntity
  8
0
100
AcDbSpline
 62
7
  6
CONTINUOUS
 70
0
 71
3
 72
9
 73
5
 74
0
 42
0.0000001
 43
0.0000001
 44
0.0000000001
 40
0.0
 40
0.0
 40
0.0
 40
0.0
 40
0.248257997
 40
1.0
 40
1.0
 40
1.0
 40
1.0
 10
14.6376190768
 20
300.1737028059
 30
0.0
 10
14.6376127339
 20
299.9876410209
 30
0.0
 10
14.6605597785
 20
299.2382934867
 30
0.0
 10
14.7771607158
 20
298.4922441913
 30
0.0
 10
14.9123806861
 20
297.9453038296
 30
0.0
  0
SPLINE
  5
2C3
100
AcDbEntity
  8
0
100
AcDbSpline
 62
7
  6
CONTINUOUS
 70
0
 71
3
 72
11
 73
7
 74
0
 42
0.0000001
 43
0.0000001
 44
0.0000000001
 40
0.0
 40
0.0
 40
0.0
 40
0.0
 40
0.2060660058
 40
0.4371179277
 40
0.7006326907
 40
1.0
 40
1.0
 40
1.0
 40
1.0
 10
14.9553640994
 20
297.7777991458
 30
0.0
 10
15.2161778493
 20
296.797285818
 30
0.0
 10
16.0978988507
 20
294.7986802424
 30
0.0
 10
18.234571615
 20
292.0593215424
 30
0.0
 10
21.1838873799
 20
289.467264969
 30
0.0
 10
23.5140576853
 20
287.9512147286
 30
0.0
 10
24.7904483799
 20
287.2139951682
 30
0.0
  0
SPLINE
  5
2C4
100
AcDbEntity
  8
0
100
AcDbSpline
 62
7
  6
CONTINUOUS
 70
0
 71
3
 72
17
 73
13
 74
0
 42
0.0000001
 43
0.0000001
 44
0.0000000001
 40
0.0
 40
0.0
 40
0.0
 40
0.0
 40
0.0469427429
 40
0.0978682007
 40
0.1525278822
 40
0.2106149624
 40
0.3354318344
 40
0.4686918507
 40
0.6061948346
 40
0.7434926563
 40
0.876146703
 40
1.0
 40
1.0
 40
1.0
 40
1.0
 10
19.8317705233
 20
264.2804309663
 30
0.0
 10
21.0735729523
 20
263.5631889457
 30
0.0
 10
23.7340766001
 20
262.1900335287
 30
0.0
 10
28.028353813
 20
260.372580721
 30
0.0
 10
32.7537107373
 20
258.7282108792
 30
0.0
 10
39.7368215935
 20
256.7403355506
 30
0.0
 10
49.2204522556
 20
254.8277882339
 30
0.0
 10
61.2403092859
 20
253.4627042363
 30
0.0
 10
73.7111052333
 20
253.0310534268
 30
0.0
 10
86.1602572825
 20
253.5494207601
 30
0.0
 10
98.115567851
 20
254.9972895806
 30
0.0
 10
105.7974863302
 20
256.6151288683
 30
0.0
 10
109.4520597743
 20
257.5947573169
 30
0.0
  0
SPLINE
  5
2C5
100
AcDbEntity
  8
0
100
AcDbSpline
 62
7
  6
CONTINUOUS
 70
0
 71
3
 72
16
 73
12
 74
0
 42
0.0000001
 43
0.0000001
 44
0.0000000001
 40
0.0
 40
0.0
 40
0.0
 40
0.0
 40
0.1738670882
 40
0.3342969571
 40
0.4799866939
 40
0.6102705015
 40
0.7252684671
 40
0.8262694449
 40
0.9161635093
 40
0.9584937943
 40
1.0
 40
1.0
 40
1.0
 40
1.0
 10
109.4520597743
 20
257.5947573169
 30
0.0
 10
111.5379732048
 20
258.1538978483
 30
0.0
 10
115.5167129981
 20
259.3550194586
 30
0.0
 10
121.0854490518
 20
261.5014351436
 30
0.0
 10
125.9577680373
 20
263.8964322482
 30
0.0
 10
130.0664884984
 20
266.5072419387
 30
0.0
 10
133.3566826601
 20
269.3049946599
 30
0.0
 10
135.7819118437
 20
272.2621572716
 30
0.0
 10
137.0618068987
 20
274.9028947172
 30
0.0
 10
137.555937715
 20
277.0107325263
 30
0.0
 10
137.6375420943
 20
278.0538025849
 30
0.0
 10
137.637550796
 20
278.5693394157
 30
0.0
  0
SPLINE
  5
2C6
100
AcDbEntity
  8
0
100
AcDbSpline
 62
7
  6
CONTINUOUS
 70
0
 71
3
 72
13
 73
9
 74
0
 42
0.0000001
 43
0.0000001
 44
0.0000000001
 40
0.0
 40
0.0
 40
0.0
 40
0.0
 40
0.1004256181
 40
0.2038335624
 40
0.3128993351
 40
0.42979788
 40
0.6926143063
 40
1.0
 40
1.0
 40
1.0
 40
1.0
 10
8.6376285476
 20
278.5693394263
 30
0.0
 10
8.6376387123
 20
277.9346862803
 30
0.0
 10
8.7620428585
 20
276.6433604322
 30
0.0
 10
9.3165535005
 20
274.7348268953
 30
0.0
 10
10.2314609145
 20
272.8550609425
 30
0.0
 10
11.9889085724
 20
270.3030694126
 30
0.0
 10
15.1359759484
 20
267.2541109634
 30
0.0
 10
18.1496282255
 20
265.2520051172
 30
0.0
 10
19.8317705233
 20
264.2804309663
 30
0.0
  0
SPLINE
  5
2C7
100
AcDbEntity
  8
0
100
AcDbSpline
 62
7
  6
CONTINUOUS
 70
0
 71
3
 72
9
 73
5
 74
0
 42
0.0000001
 43
0.0000001
 44
0.0000000001
 40
0.0
 40
0.0
 40
0.0
 40
0.0
 40
0.5048366792
 40
1.0
 40
1.0
 40
1.0
 40
1.0
 10
137.1700967901
 20
287.5949094001
 30
0.0
 10
137.3232408239
 20
287.0972509046
 30
0.0
 10
137.5578118332
 20
286.0886228327
 30
0.0
 10
137.6375923143
 20
285.0557263316
 30
0.0
 10
137.6375709253
 20
284.5450144061
 30
0.0
  0
SPLINE
  5
2C8
100
AcDbEntity
  8
0
100
AcDbSpline
 62
7
  6
CONTINUOUS
 70
0
 71
3
 72
9
 73
5
 74
0
 42
0.0000001
 43
0.0000001
 44
0.0000000001
 40
0.0
 40
0.0
 40
0.0
 40
0.0
 40
0.2412380147
 40
1.0
 40
1.0
 40
1.0
 40
1.0
 10
62.229448159
 20
275.1600266782
 30
0.0
 10
61.4261492558
 20
275.3627774521
 30
0.0
 10
58.0837443938
 20
276.1533715601
 30
0.0
 10
54.6974301004
 20
276.7542758535
 30
0.0
 10
52.1171718023
 20
277.1185034909
 30
0.0
  0
SPLINE
  5
2C9
100
AcDbEntity
  8
0
100
AcDbSpline
 62
7
  6
CONTINUOUS
 70
0
 71
3
 72
9
 73
5
 74
0
 42
0.0000001
 43
0.0000001
 44
0.0000000001
 40
0.0
 40
0.0
 40
0.0
 40
0.0
 40
0.2455132228
 40
1.0
 40
1.0
 40
1.0
 40
1.0
 10
52.1171718023
 20
277.1185034909
 30
0.0
 10
51.2242097187
 20
277.2445534566
 30
0.0
 10
47.5808124088
 20
277.7128320465
 30
0.0
 10
43.9153067578
 20
278.0062726896
 30
0.0
 10
41.1469780758
 20
278.1360148865
 30
0.0
  0
SPLINE
  5
2CA
100
AcDbEntity
  8
0
100
AcDbSpline
 62
7
  6
CONTINUOUS
 70
0
 71
3
 72
9
 73
5
 74
0
 42
0.0000001
 43
0.0000001
 44
0.0000000001
 40
0.0
 40
0.0
 40
0.0
 40
0.0
 40
0.4773865886
 40
1.0
 40
1.0
 40
1.0
 40
1.0
 10
38.7322368192
 20
278.706589694
 30
0.0
 10
37.6024001469
 20
279.3457186517
 30
0.0
 10
35.1632356576
 20
280.5579293836
 30
0.0
 10
32.6327033098
 20
281.5606095022
 30
0.0
 10
31.2944667318
 20
282.0386624951
 30
0.0
  0
SPLINE
  5
2CB
100
AcDbEntity
  8
0
100
AcDbSpline
 62
7
  6
CONTINUOUS
 70
0
 71
3
 72
9
 73
5
 74
0
 42
0.0000001
 43
0.0000001
 44
0.0000000001
 40
0.0
 40
0.0
 40
0.0
 40
0.0
 40
0.2378513093
 40
1.0
 40
1.0
 40
1.0
 40
1.0
 10
31.2944667318
 20
282.0386624951
 30
0.0
 10
30.5844725664
 20
282.2922909202
 30
0.0
 10
27.5799406535
 20
283.3038384679
 30
0.0
 10
24.50798129
 20
284.1098409122
 30
0.0
 10
22.1489299599
 20
284.6305792237
 30
0.0
  0
SPLINE
  5
2CC
100
AcDbEntity
  8
0
100
AcDbSpline
 62
7
  6
CONTINUOUS
 70
0
 71
3
 72
27
 73
23
 74
0
 42
0.0000001
 43
0.0000001
 44
0.0000000001
 40
0.0
 40
0.0
 40
0.0
 40
0.0
 40
0.0554437811
 40
0.1180293866
 40
0.1868272189
 40
0.2605831094
 40
0.3378291005
 40
0.4169564788
 40
0.4962855167
 40
0.5741291508
 40
0.6488561878
 40
0.7189577187
 40
0.7831223276
 40
0.8403293602
 40
0.8661332638
 40
0.8900229871
 40
0.9120271944
 40
0.9322379594
 40
0.9508251487
 40
0.9680524644
 40
0.9842890986
 40
1.0
 40
1.0
 40
1.0
 40
1.0
 10
121.4846665828
 20
313.1334105009
 30
0.0
 10
119.6134098132
 20
314.2142136586
 30
0.0
 10
115.450006133
 20
316.2066464661
 30
0.0
 10
108.5657868343
 20
318.6105128299
 30
0.0
 10
100.8029016604
 20
320.5638419407
 30
0.0
 10
92.3527763771
 20
322.0161813094
 30
0.0
 10
83.4235931195
 20
322.9307353307
 30
0.0
 10
74.2377377106
 20
323.2838131017
 30
0.0
 10
65.0244124076
 20
323.0663334351
 30
0.0
 10
56.0135684469
 20
322.2839052191
 30
0.0
 10
47.4298124711
 20
320.956706
 30
0.0
 10
39.4851823413
 20
319.1187741458
 30
0.0
 10
32.3759586124
 20
316.8167586464
 30
0.0
 10
27.1177765063
 20
314.4847828919
 30
0.0
 10
23.5044343945
 20
312.4030975735
 30
0.0
 10
21.1988264224
 20
310.8179804955
 30
0.0
 10
19.217465052
 20
309.1642053261
 30
0.0
 10
17.5725633191
 20
307.4503609616
 30
0.0
 10
16.275081157
 20
305.6849058203
 30
0.0
 10
15.3359836981
 20
303.8758617481
 30
0.0
 10
14.7657965777
 20
302.0346507483
 30
0.0
 10
14.6376399515
 20
300.7860454296
 30
0.0
 10
14.6376190768
 20
300.1737028059
 30
0.0
  0
SPLINE
  5
2CD
100
AcDbEntity
  8
0
100
AcDbSpline
 62
7
  6
CONTINUOUS
 70
0
 71
3
 72
11
 73
7
 74
0
 42
0.0000001
 43
0.0000001
 44
0.0000000001
 40
0.0
 40
0.0
 40
0.0
 40
0.0
 40
0.2539345701
 40
0.4978079782
 40
0.7433613929
 40
1.0
 40
1.0
 40
1.0
 40
1.0
 10
131.7311227074
 20
278.342549339
 30
0.0
 10
132.045462662
 20
278.6873180043
 30
0.0
 10
132.7378951208
 20
279.3001854385
 30
0.0
 10
133.9645328394
 20
279.9315633504
 30
0.0
 10
135.3093471402
 20
280.251279841
 30
0.0
 10
136.2375581937
 20
280.2766158252
 30
0.0
 10
136.7084875596
 20
280.2529281691
 30
0.0
  0
SPLINE
  5
2CE
100
AcDbEntity
  8
0
100
AcDbSpline
 62
7
  6
CONTINUOUS
 70
0
 71
3
 72
9
 73
5
 74
0
 42
0.0000001
 43
0.0000001
 44
0.0000000001
 40
0.0
 40
0.0
 40
0.0
 40
0.0
 40
0.2288921309
 40
1.0
 40
1.0
 40
1.0
 40
1.0
 10
20.472923665
 20
285.5213260856
 30
0.0
 10
20.2666834687
 20
285.8928424988
 30
0.0
 10
19.2693351545
 20
287.462783433
 30
0.0
 10
17.9414899389
 20
288.8030233047
 30
0.0
 10
16.8419929193
 20
289.7197169964
 30
0.0
  0
SPLINE
  5
2CF
100
AcDbEntity
  8
0
100
AcDbSpline
 62
7
  6
CONTINUOUS
 70
0
 71
3
 72
9
 73
5
 74
0
 42
0.0000001
 43
0.0000001
 44
0.0000000001
 40
0.0
 40
0.0
 40
0.0
 40
0.0
 40
0.2389570473
 40
1.0
 40
1.0
 40
1.0
 40
1.0
 10
16.8419929193
 20
289.7197169964
 30
0.0
 10
16.6316778899
 20
289.8950648667
 30
0.0
 10
15.7377108235
 20
290.6122429655
 30
0.0
 10
14.7929572934
 20
291.2650833181
 30
0.0
 10
14.0554911362
 20
291.7305722937
 30
0.0
  0
SPLINE
  5
2D0
100
AcDbEntity
  8
0
100
AcDbSpline
 62
7
  6
CONTINUOUS
 70
0
 71
3
 72
9
 73
5
 74
0
 42
0.0000001
 43
0.0000001
 44
0.0000000001
 40
0.0
 40
0.0
 40
0.0
 40
0.0
 40
0.2406295804
 40
1.0
 40
1.0
 40
1.0
 40
1.0
 10
14.0554911362
 20
291.7305722937
 30
0.0
 10
13.8111280084
 20
291.8848144117
 30
0.0
 10
12.786688225
 20
292.5116338957
 30
0.0
 10
11.729124859
 20
293.0836945536
 30
0.0
 10
10.9134381711
 20
293.4914432318
 30
0.0
  0
SPLINE
  5
2D1
100
AcDbEntity
  8
0
100
AcDbSpline
 62
7
  6
CONTINUOUS
 70
0
 71
3
 72
10
 73
6
 74
0
 42
0.0000001
 43
0.0000001
 44
0.0000000001
 40
0.0
 40
0.0
 40
0.0
 40
0.0
 40
0.4536936658
 40
0.7142571872
 40
1.0
 40
1.0
 40
1.0
 40
1.0
 10
136.7084875596
 20
280.2529281691
 30
0.0
 10
136.0228702523
 20
278.6807208521
 30
0.0
 10
134.4263152705
 20
276.4254471487
 30
0.0
 10
131.6857233106
 20
273.8210199404
 30
0.0
 10
130.0347747775
 20
272.5702990035
 30
0.0
 10
129.145171511
 20
271.9574686157
 30
0.0
  0
SPLINE
  5
2D2
100
AcDbEntity
  8
0
100
AcDbSpline
 62
7
  6
CONTINUOUS
 70
0
 71
3
 72
10
 73
6
 74
0
 42
0.0000001
 43
0.0000001
 44
0.0000000001
 40
0.0
 40
0.0
 40
0.0
 40
0.0
 40
0.4544847587
 40
0.7163825002
 40
1.0
 40
1.0
 40
1.0
 40
1.0
 10
131.7311227074
 20
278.342549339
 30
0.0
 10
131.0202945685
 20
277.5629116724
 30
0.0
 10
130.1948339565
 20
276.0653498593
 30
0.0
 10
129.4977580422
 20
273.852923355
 30
0.0
 10
129.2478549143
 20
272.6078017179
 30
0.0
 10
129.145171511
 20
271.9574686157
 30
0.0
  0
SPLINE
  5
2D3
100
AcDbEntity
  8
0
100
AcDbSpline
 62
7
  6
CONTINUOUS
 70
0
 71
3
 72
9
 73
5
 74
0
 42
0.0000001
 43
0.0000001
 44
0.0000000001
 40
0.0
 40
0.0
 40
0.0
 40
0.0
 40
0.5101536178
 40
1.0
 40
1.0
 40
1.0
 40
1.0
 10
136.0437913594
 20
305.7806516559
 30
0.0
 10
135.7906941083
 20
305.2259634774
 30
0.0
 10
135.3950241418
 20
304.0882151318
 30
0.0
 10
135.2569186533
 20
302.8894633379
 30
0.0
 10
135.2569237776
 20
302.3040306845
 30
0.0
  0
SPLINE
  5
2D4
100
AcDbEntity
  8
0
100
AcDbSpline
 62
7
  6
CONTINUOUS
 70
0
 71
3
 72
9
 73
5
 74
0
 42
0.0000001
 43
0.0000001
 44
0.0000000001
 40
0.0
 40
0.0
 40
0.0
 40
0.0
 40
0.4789031452
 40
1.0
 40
1.0
 40
1.0
 40
1.0
 10
10.9600084908
 20
298.992296076
 30
0.0
 10
10.8671800308
 20
299.7486990158
 30
0.0
 10
10.4380377552
 20
301.3047727717
 30
0.0
 10
9.6331776756
 20
302.6949980274
 30
0.0
 10
9.1510044843
 20
303.3696206896
 30
0.0
  0
SPLINE
  5
2D5
100
AcDbEntity
  8
0
100
AcDbSpline
 62
7
  6
CONTINUOUS
 70
0
 71
3
 72
10
 73
6
 74
0
 42
0.0000001
 43
0.0000001
 44
0.0000000001
 40
0.0
 40
0.0
 40
0.0
 40
0.0
 40
0.2456963985
 40
0.4928107
 40
1.0
 40
1.0
 40
1.0
 40
1.0
 10
119.2267997893
 20
270.1493012508
 30
0.0
 10
119.8741710532
 20
270.4298757441
 30
0.0
 10
121.2216554349
 20
270.8868343092
 30
0.0
 10
124.062768493
 20
271.3649094724
 30
0.0
 10
126.2575398349
 20
271.2413929558
 30
0.0
 10
127.6950859273
 20
271.0073243324
 30
0.0
  0
SPLINE
  5
2D6
100
AcDbEntity
  8
0
100
AcDbSpline
 62
7
  6
CONTINUOUS
 70
0
 71
3
 72
10
 73
6
 74
0
 42
0.0000001
 43
0.0000001
 44
0.0000000001
 40
0.0
 40
0.0
 40
0.0
 40
0.0
 40
0.2240960573
 40
0.4660306962
 40
1.0
 40
1.0
 40
1.0
 40
1.0
 10
127.6950859273
 20
271.0073243324
 30
0.0
 10
126.6527160728
 20
270.356940288
 30
0.0
 10
124.4235836916
 20
269.1013247738
 30
0.0
 10
119.4592049858
 20
266.7669640973
 30
0.0
 10
115.4399064346
 20
265.3358179122
 30
0.0
 10
112.6395810179
 20
264.4821804204
 30
0.0
  0
SPLINE
  5
2D7
100
AcDbEntity
  8
0
100
AcDbSpline
 62
7
  6
CONTINUOUS
 70
0
 71
3
 72
10
 73
6
 74
0
 42
0.0000001
 43
0.0000001
 44
0.0000000001
 40
0.0
 40
0.0
 40
0.0
 40
0.0
 40
0.2424723191
 40
0.489172522
 40
1.0
 40
1.0
 40
1.0
 40
1.0
 10
119.2267997893
 20
270.1493012508
 30
0.0
 10
118.5751355879
 20
269.8668661732
 30
0.0
 10
117.3052286031
 20
269.1870285588
 30
0.0
 10
114.9619596193
 20
267.4149035834
 30
0.0
 10
113.4955369912
 20
265.7094601514
 30
0.0
 10
112.6395810179
 20
264.4821804204
 30
0.0
  0
SPLINE
  5
2D8
100
AcDbEntity
  8
0
100
AcDbSpline
 62
7
  6
CONTINUOUS
 70
0
 71
3
 72
13
 73
9
 74
0
 42
0.0000001
 43
0.0000001
 44
0.0000000001
 40
0.0
 40
0.0
 40
0.0
 40
0.0
 40
0.1004251092
 40
0.203832481
 40
0.3128994823
 40
0.4297964767
 40
0.6926151041
 40
1.0
 40
1.0
 40
1.0
 40
1.0
 10
131.6374958859
 20
300.1737028632
 30
0.0
 10
131.6375155086
 20
300.7493156188
 30
0.0
 10
131.524616676
 20
301.9205063332
 30
0.0
 10
131.021770471
 20
303.6515241973
 30
0.0
 10
130.1918838535
 20
305.3563839559
 30
0.0
 10
128.5980112734
 20
307.6710487605
 30
0.0
 10
125.7436260009
 20
310.4363373017
 30
0.0
 10
123.0103266436
 20
312.2522175839
 30
0.0
 10
121.4846665828
 20
313.1334105009
 30
0.0
  0
SPLINE
  5
2D9
100
AcDbEntity
  8
0
100
AcDbSpline
 62
7
  6
CONTINUOUS
 70
0
 71
3
 72
10
 73
6
 74
0
 42
0.0000001
 43
0.0000001
 44
0.0000000001
 40
0.0
 40
0.0
 40
0.0
 40
0.0
 40
0.2476600709
 40
0.4967354514
 40
1.0
 40
1.0
 40
1.0
 40
1.0
 10
99.7058075298
 20
264.4625903727
 30
0.0
 10
100.5800609249
 20
264.6249376674
 30
0.0
 10
102.3571231283
 20
264.8360589141
 30
0.0
 10
105.9543608705
 20
264.8089344299
 30
0.0
 10
108.636180484
 20
264.3112903771
 30
0.0
 10
110.3757951543
 20
263.8227110899
 30
0.0
  0
SPLINE
  5
2DA
100
AcDbEntity
  8
0
100
AcDbSpline
 62
7
  6
CONTINUOUS
 70
0
 71
3
 72
9
 73
5
 74
0
 42
0.0000001
 43
0.0000001
 44
0.0000000001
 40
0.0
 40
0.0
 40
0.0
 40
0.0
 40
0.4843411281
 40
1.0
 40
1.0
 40
1.0
 40
1.0
 10
109.4520597743
 20
263.5704323042
 30
0.0
 10
106.3858880511
 20
262.7485281629
 30
0.0
 10
99.9759272108
 20
261.3412321953
 30
0.0
 10
93.4805226198
 20
260.4221461949
 30
0.0
 10
90.1201655281
 20
260.0612768295
 30
0.0
  0
SPLINE
  5
2DB
100
AcDbEntity
  8
0
100
AcDbSpline
 62
7
  6
CONTINUOUS
 70
0
 71
3
 72
10
 73
6
 74
0
 42
0.0000001
 43
0.0000001
 44
0.0000000001
 40
0.0
 40
0.0
 40
0.0
 40
0.0
 40
0.2500475201
 40
0.4999114662
 40
1.0
 40
1.0
 40
1.0
 40
1.0
 10
99.7058075298
 20
264.4625903727
 30
0.0
 10
98.8344429888
 20
264.300779533
 30
0.0
 10
97.1111911663
 20
263.8628938925
 30
0.0
 10
93.808179968
 20
262.5582318268
 30
0.0
 10
91.5274413674
 20
261.1389264042
 30
0.0
 10
90.1201655281
 20
260.0612768295
 30
0.0
  0
SPLINE
  5
2DC
100
AcDbEntity
  8
0
100
AcDbSpline
 62
7
  6
CONTINUOUS
 70
0
 71
3
 72
9
 73
5
 74
0
 42
0.0000001
 43
0.0000001
 44
0.0000000001
 40
0.0
 40
0.0
 40
0.0
 40
0.0
 40
0.5279524462
 40
1.0
 40
1.0
 40
1.0
 40
1.0
 10
136.7084875596
 20
295.8816165975
 30
0.0
 10
135.7918458467
 20
295.3193371819
 30
0.0
 10
134.1062227034
 20
294.1677230908
 30
0.0
 10
132.5800572289
 20
292.8058550432
 30
0.0
 10
131.9202159277
 20
292.1065228377
 30
0.0
  0
SPLINE
  5
2DD
100
AcDbEntity
  8
0
100
AcDbSpline
 62
7
  6
CONTINUOUS
 70
0
 71
3
 72
10
 73
6
 74
0
 42
0.0000001
 43
0.0000001
 44
0.0000000001
 40
0.0
 40
0.0
 40
0.0
 40
0.0
 40
0.2500256908
 40
0.5001685725
 40
1.0
 40
1.0
 40
1.0
 40
1.0
 10
76.1400400422
 20
262.1481668859
 30
0.0
 10
77.1040077988
 20
262.1664827899
 30
0.0
 10
79.0367319523
 20
262.0874769117
 30
0.0
 10
82.8515939476
 20
261.4830931812
 30
0.0
 10
85.6196911554
 20
260.5613169035
 30
0.0
 10
87.387320261
 20
259.7928806792
 30
0.0
  0
SPLINE
  5
2DE
100
AcDbEntity
  8
0
100
AcDbSpline
 62
7
  6
CONTINUOUS
 70
0
 71
3
 72
9
 73
5
 74
0
 42
0.0000001
 43
0.0000001
 44
0.0000000001
 40
0.0
 40
0.0
 40
0.0
 40
0.0
 40
0.5264376627
 40
1.0
 40
1.0
 40
1.0
 40
1.0
 10
131.7311227074
 20
291.902672044
 30
0.0
 10
131.1325129327
 20
291.2461156945
 30
0.0
 10
130.0938601259
 20
289.9010965011
 30
0.0
 10
129.3767328822
 20
288.3511200489
 30
0.0
 10
129.145171511
 20
287.586157044
 30
0.0
  0
SPLINE
  5
2DF
100
AcDbEntity
  8
0
100
AcDbSpline
 62
7
  6
CONTINUOUS
 70
0
 71
3
 72
9
 73
5
 74
0
 42
0.0000001
 43
0.0000001
 44
0.0000000001
 40
0.0
 40
0.0
 40
0.0
 40
0.0
 40
0.5187216361
 40
1.0
 40
1.0
 40
1.0
 40
1.0
 10
127.6950859273
 20
286.6360127608
 30
0.0
 10
126.1999121088
 20
286.2267928367
 30
0.0
 10
123.3398458343
 20
285.3527150943
 30
0.0
 10
120.5464544223
 20
284.2813699945
 30
0.0
 10
119.2267997893
 20
283.7094239557
 30
0.0
  0
SPLINE
  5
2E0
100
AcDbEntity
  8
0
100
AcDbSpline
 62
7
  6
CONTINUOUS
 70
0
 71
3
 72
9
 73
5
 74
0
 42
0.0000001
 43
0.0000001
 44
0.0000000001
 40
0.0
 40
0.0
 40
0.0
 40
0.0
 40
0.5254815859
 40
1.0
 40
1.0
 40
1.0
 40
1.0
 10
119.2267997893
 20
283.7094239557
 30
0.0
 10
118.0189397038
 20
283.185930328
 30
0.0
 10
115.7578624905
 20
282.0993347195
 30
0.0
 10
113.6128115034
 20
280.7934770148
 30
0.0
 10
112.6395810178
 20
280.1108688488
 30
0.0
  0
SPLINE
  5
2E1
100
AcDbEntity
  8
0
100
AcDbSpline
 62
7
  6
CONTINUOUS
 70
0
 71
3
 72
9
 73
5
 74
0
 42
0.0000001
 43
0.0000001
 44
0.0000000001
 40
0.0
 40
0.0
 40
0.0
 40
0.0
 40
0.5002470133
 40
1.0
 40
1.0
 40
1.0
 40
1.0
 10
76.1400400422
 20
262.1481668859
 30
0.0
 10
74.2169504757
 20
262.1116271533
 30
0.0
 10
70.3689275
 20
261.5713551307
 30
0.0
 10
66.7456415159
 20
260.2034018485
 30
0.0
 10
65.0153019109
 20
259.367800339
 30
0.0
  0
SPLINE
  5
2E2
100
AcDbEntity
  8
0
100
AcDbSpline
 62
7
  6
CONTINUOUS
 70
0
 71
3
 72
10
 73
6
 74
0
 42
0.0000001
 43
0.0000001
 44
0.0000000001
 40
0.0
 40
0.0
 40
0.0
 40
0.0
 40
0.2505413039
 40
0.5006648058
 40
1.0
 40
1.0
 40
1.0
 40
1.0
 10
52.1171718023
 20
263.5583807859
 30
0.0
 10
53.024102886
 20
263.4303589649
 30
0.0
 10
54.8225803677
 20
263.0598081796
 30
0.0
 10
58.2916835046
 20
261.8854793377
 30
0.0
 10
60.7186240316
 20
260.5558876063
 30
0.0
 10
62.229448159
 20
259.5313382498
 30
0.0
  0
SPLINE
  5
2E3
100
AcDbEntity
  8
0
100
AcDbSpline
 62
7
  6
CONTINUOUS
 70
0
 71
3
 72
9
 73
5
 74
0
 42
0.0000001
 43
0.0000001
 44
0.0000000001
 40
0.0
 40
0.0
 40
0.0
 40
0.0
 40
0.5129844808
 40
1.0
 40
1.0
 40
1.0
 40
1.0
 10
62.229448159
 20
259.5313382498
 30
0.0
 10
58.5943490293
 20
259.7767673937
 30
0.0
 10
51.5221638446
 20
260.498761574
 30
0.0
 10
44.5217318629
 20
261.7488605145
 30
0.0
 10
41.1469780758
 20
262.5073264582
 30
0.0
  0
SPLINE
  5
2E4
100
AcDbEntity
  8
0
100
AcDbSpline
 62
7
  6
CONTINUOUS
 70
0
 71
3
 72
10
 73
6
 74
0
 42
0.0000001
 43
0.0000001
 44
0.0000000001
 40
0.0
 40
0.0
 40
0.0
 40
0.0
 40
0.2482975752
 40
0.4977250644
 40
1.0
 40
1.0
 40
1.0
 40
1.0
 10
52.1171718023
 20
263.5583807859
 30
0.0
 10
51.2074769948
 20
263.6867927324
 30
0.0
 10
49.3654699972
 20
263.8289571355
 30
0.0
 10
45.6624580991
 20
263.6637465245
 30
0.0
 10
42.9200552567
 20
263.0641072794
 30
0.0
 10
41.1469780758
 20
262.5073264582
 30
0.0
  0
SPLINE
  5
2E5
100
AcDbEntity
  8
0
100
AcDbSpline
 62
7
  6
CONTINUOUS
 70
0
 71
3
 72
10
 73
6
 74
0
 42
0.0000001
 43
0.0000001
 44
0.0000000001
 40
0.0
 40
0.0
 40
0.0
 40
0.0
 40
0.2455158171
 40
0.4933847502
 40
1.0
 40
1.0
 40
1.0
 40
1.0
 10
31.2944667318
 20
268.4785397901
 30
0.0
 10
32.0101971383
 20
268.2228622301
 30
0.0
 10
33.4114251701
 20
267.5974221033
 30
0.0
 10
36.0292237895
 20
265.9296629754
 30
0.0
 10
37.7248961724
 20
264.2799056306
 30
0.0
 10
38.7322368192
 20
263.0779012656
 30
0.0
  0
SPLINE
  5
2E6
100
AcDbEntity
  8
0
100
AcDbSpline
 62
7
  6
CONTINUOUS
 70
0
 71
3
 72
9
 73
5
 74
0
 42
0.0000001
 43
0.0000001
 44
0.0000000001
 40
0.0
 40
0.0
 40
0.0
 40
0.0
 40
0.5296721
 40
1.0
 40
1.0
 40
1.0
 40
1.0
 10
38.7322368191
 20
263.0779012657
 30
0.0
 10
35.709943393
 20
263.8278412443
 30
0.0
 10
30.0601039261
 20
265.486347368
 30
0.0
 10
24.6142434214
 20
267.7497733018
 30
0.0
 10
22.1489299599
 20
269.0018907953
 30
0.0
  0
SPLINE
  5
2E7
100
AcDbEntity
  8
0
100
AcDbSpline
 62
7
  6
CONTINUOUS
 70
0
 71
3
 72
10
 73
6
 74
0
 42
0.0000001
 43
0.0000001
 44
0.0000000001
 40
0.0
 40
0.0
 40
0.0
 40
0.0
 40
0.2459124932
 40
0.4936086273
 40
1.0
 40
1.0
 40
1.0
 40
1.0
 10
31.2944667318
 20
268.4785397901
 30
0.0
 10
30.5799453373
 20
268.7337854595
 30
0.0
 10
29.1037823741
 20
269.1365919921
 30
0.0
 10
26.0314207117
 20
269.5012604505
 30
0.0
 10
23.6838563805
 20
269.2937597908
 30
0.0
 10
22.1489299599
 20
269.0018907953
 30
0.0
  0
SPLINE
  5
2E8
100
AcDbEntity
  8
0
100
AcDbSpline
 62
7
  6
CONTINUOUS
 70
0
 71
3
 72
11
 73
7
 74
0
 42
0.0000001
 43
0.0000001
 44
0.0000000001
 40
0.0
 40
0.0
 40
0.0
 40
0.0
 40
0.2251919472
 40
0.4659448263
 40
0.7242918911
 40
1.0
 40
1.0
 40
1.0
 40
1.0
 10
16.8419929193
 20
276.1595931121
 30
0.0
 10
17.2653275942
 20
275.8066424273
 30
0.0
 10
18.0643836128
 20
274.9808863092
 30
0.0
 10
19.0531240115
 20
273.5007500303
 30
0.0
 10
19.8678485883
 20
271.7823254115
 30
0.0
 10
20.2865865098
 20
270.5412096731
 30
0.0
 10
20.472923665
 20
269.8926376573
 30
0.0
  0
SPLINE
  5
2E9
100
AcDbEntity
  8
0
100
AcDbSpline
 62
7
  6
CONTINUOUS
 70
0
 71
3
 72
9
 73
5
 74
0
 42
0.0000001
 43
0.0000001
 44
0.0000000001
 40
0.0
 40
0.0
 40
0.0
 40
0.0
 40
0.2680493672
 40
1.0
 40
1.0
 40
1.0
 40
1.0
 10
14.8072134773
 20
273.7131736583
 30
0.0
 10
14.4160720508
 20
274.039283572
 30
0.0
 10
12.9908435336
 20
275.294605836
 30
0.0
 10
11.7059992163
 20
276.7201236723
 30
0.0
 10
10.9134381711
 20
277.8627548034
 30
0.0
  0
SPLINE
  5
2EA
100
AcDbEntity
  8
0
100
AcDbSpline
 62
7
  6
CONTINUOUS
 70
0
 71
3
 72
9
 73
5
 74
0
 42
0.0000001
 43
0.0000001
 44
0.0000000001
 40
0.0
 40
0.0
 40
0.0
 40
0.0
 40
0.5216869087
 40
1.0
 40
1.0
 40
1.0
 40
1.0
 10
20.472923665
 20
269.8926376573
 30
0.0
 10
19.4334320408
 20
270.4710930858
 30
0.0
 10
17.4812728547
 20
271.6550854904
 30
0.0
 10
15.6449428869
 20
273.0147258667
 30
0.0
 10
14.8072134773
 20
273.7131736583
 30
0.0
  0
SPLINE
  5
2EB
100
AcDbEntity
  8
0
100
AcDbSpline
 62
7
  6
CONTINUOUS
 70
0
 71
3
 72
11
 73
7
 74
0
 42
0.0000001
 43
0.0000001
 44
0.0000000001
 40
0.0
 40
0.0
 40
0.0
 40
0.0
 40
0.248963821
 40
0.4935551852
 40
0.7418657452
 40
1.0
 40
1.0
 40
1.0
 40
1.0
 10
16.8419929193
 20
276.1595931121
 30
0.0
 10
16.4388582803
 20
276.4957022364
 30
0.0
 10
15.5678347313
 20
277.082157756
 30
0.0
 10
14.0999373638
 20
277.6552877328
 30
0.0
 10
12.5286374502
 20
277.9174374938
 30
0.0
 10
11.4559283889
 20
277.9058802857
 30
0.0
 10
10.9134381711
 20
277.8627548034
 30
0.0
  0
SPLINE
  5
2EC
100
AcDbEntity
  8
0
100
AcDbSpline
 62
7
  6
CONTINUOUS
 70
0
 71
3
 72
9
 73
5
 74
0
 42
0.0000001
 43
0.0000001
 44
0.0000000001
 40
0.0
 40
0.0
 40
0.0
 40
0.0
 40
0.5154723445
 40
1.0
 40
1.0
 40
1.0
 40
1.0
 10
10.2313236033
 20
278.9380655848
 30
0.0
 10
9.7272258637
 20
279.8136938219
 30
0.0
 10
8.9256058572
 20
281.6265165265
 30
0.0
 10
8.6375042628
 20
283.5953024639
 30
0.0
 10
8.6375440374
 20
284.5450144063
 30
0.0
  0
SPLINE
  5
2ED
100
AcDbEntity
  8
0
100
AcDbSpline
 62
7
  6
CONTINUOUS
 70
0
 71
3
 72
9
 73
5
 74
0
 42
0.0000001
 43
0.0000001
 44
0.0000000001
 40
0.0
 40
0.0
 40
0.0
 40
0.0
 40
0.4944429714
 40
1.0
 40
1.0
 40
1.0
 40
1.0
 10
10.2575417006
 20
287.2443413796
 30
0.0
 10
10.1166010533
 20
287.3911447212
 30
0.0
 10
9.770136482
 20
287.6363386322
 30
0.0
 10
9.3584969348
 20
287.7252745169
 30
0.0
 10
9.1510044843
 20
287.7409322613
 30
0.0
  0
SPLINE
  5
2EE
100
AcDbEntity
  8
0
100
AcDbSpline
 62
7
  6
CONTINUOUS
 70
0
 71
3
 72
9
 73
5
 74
0
 42
0.0000001
 43
0.0000001
 44
0.0000000001
 40
0.0
 40
0.0
 40
0.0
 40
0.0
 40
0.2556903406
 40
1.0
 40
1.0
 40
1.0
 40
1.0
 10
110.3757951543
 20
279.4513995183
 30
0.0
 10
109.4614444479
 20
279.3728133656
 30
0.0
 10
105.8891783055
 20
279.0243106655
 30
0.0
 10
102.3323743309
 20
278.5104618436
 30
0.0
 10
99.7058075298
 20
278.0227130777
 30
0.0
  0
SPLINE
  5
2EF
100
AcDbEntity
  8
0
100
AcDbSpline
 62
7
  6
CONTINUOUS
 70
0
 71
3
 72
9
 73
5
 74
0
 42
0.0000001
 43
0.0000001
 44
0.0000000001
 40
0.0
 40
0.0
 40
0.0
 40
0.0
 40
0.2602016354
 40
1.0
 40
1.0
 40
1.0
 40
1.0
 10
99.7058075298
 20
278.0227130777
 30
0.0
 10
98.864266053
 20
277.8664403278
 30
0.0
 10
95.6382291347
 20
277.2237785745
 30
0.0
 10
92.4447753012
 20
276.4099425298
 30
0.0
 10
90.1201655281
 20
275.6899652578
 30
0.0
  0
SPLINE
  5
2F0
100
AcDbEntity
  8
0
100
AcDbSpline
 62
7
  6
CONTINUOUS
 70
0
 71
3
 72
14
 73
10
 74
0
 42
0.0000001
 43
0.0000001
 44
0.0000000001
 40
0.0
 40
0.0
 40
0.0
 40
0.0
 40
0.2791043958
 40
0.414122656
 40
0.5433957173
 40
0.6659751714
 40
0.7819258393
 40
0.8924857081
 40
1.0
 40
1.0
 40
1.0
 40
1.0
 10
-46.9311643647
 20
282.6911953465
 30
0.0
 10
-49.9365535356
 20
277.8925579898
 30
0.0
 10
-53.3550831132
 20
270.0206445612
 30
0.0
 10
-55.2030266003
 20
259.1149690658
 30
0.0
 10
-55.1629821272
 20
251.2211358075
 30
0.0
 10
-53.6960679849
 20
243.854016554
 30
0.0
 10
-50.840542636
 20
237.3056592574
 30
0.0
 10
-46.6935377008
 20
231.860610563
 30
0.0
 10
-43.1452887523
 20
229.1162832861
 30
0.0
 10
-41.2565615664
 20
228.0254461688
 30
0.0
  0
SPLINE
  5
2F1
100
AcDbEntity
  8
0
100
AcDbSpline
 62
7
  6
CONTINUOUS
 70
0
 71
3
 72
10
 73
6
 74
0
 42
0.0000001
 43
0.0000001
 44
0.0000000001
 40
0.0
 40
0.0
 40
0.0
 40
0.0
 40
0.2403230565
 40
0.4850896867
 40
1.0
 40
1.0
 40
1.0
 40
1.0
 10
53.9778087599
 20
210.8782675971
 30
0.0
 10
53.7208587062
 20
211.0266147438
 30
0.0
 10
53.1679264787
 20
211.2708779029
 30
0.0
 10
51.9525639349
 20
211.5238604075
 30
0.0
 10
50.9907728952
 20
211.4273492053
 30
0.0
 10
50.3767504501
 20
211.2627571224
 30
0.0
  0
SPLINE
  5
2F2
100
AcDbEntity
  8
0
100
AcDbSpline
 62
7
  6
CONTINUOUS
 70
0
 71
3
 72
9
 73
5
 74
0
 42
0.0000001
 43
0.0000001
 44
0.0000000001
 40
0.0
 40
0.0
 40
0.0
 40
0.0
 40
0.4837027377
 40
1.0
 40
1.0
 40
1.0
 40
1.0
 10
52.2022661687
 20
227.3400289687
 30
0.0
 10
51.9408164899
 20
227.4910376353
 30
0.0
 10
51.3248262722
 20
227.6845840968
 30
0.0
 10
50.6880328768
 20
227.6184207412
 30
0.0
 10
50.3767504501
 20
227.5349797801
 30
0.0
  0
SPLINE
  5
2F3
100
AcDbEntity
  8
0
100
AcDbSpline
 62
7
  6
CONTINUOUS
 70
0
 71
3
 72
14
 73
10
 74
0
 42
0.0000001
 43
0.0000001
 44
0.0000000001
 40
0.0
 40
0.0
 40
0.0
 40
0.0
 40
0.1091692577
 40
0.220801772
 40
0.3369062278
 40
0.4587363495
 40
0.5867144433
 40
0.7204504528
 40
1.0
 40
1.0
 40
1.0
 40
1.0
 10
57.0672791656
 20
251.3990609971
 30
0.0
 10
56.6731474413
 20
251.6266562512
 30
0.0
 10
55.8177282289
 20
251.9931551802
 30
0.0
 10
54.4225712222
 20
252.2350144581
 30
0.0
 10
52.9560867595
 20
252.1680421082
 30
0.0
 10
51.4670355786
 20
251.7978802216
 30
0.0
 10
50.0013046854
 20
251.138789574
 30
0.0
 10
48.1137134761
 20
249.889648792
 30
0.0
 10
46.9056440435
 20
248.6177268763
 30
0.0
 10
46.2219391715
 20
247.6739062624
 30
0.0
  0
SPLINE
  5
2F4
100
AcDbEntity
  8
0
100
AcDbSpline
 62
7
  6
CONTINUOUS
 70
0
 71
3
 72
14
 73
10
 74
0
 42
0.0000001
 43
0.0000001
 44
0.0000000001
 40
0.0
 40
0.0
 40
0.0
 40
0.0
 40
0.1091692577
 40
0.220801772
 40
0.3369062278
 40
0.4587363495
 40
0.5867144433
 40
0.7204504528
 40
1.0
 40
1.0
 40
1.0
 40
1.0
 10
39.5052950903
 20
227.1556143436
 30
0.0
 10
39.111163366
 20
227.3832095977
 30
0.0
 10
38.2557441536
 20
227.7497085267
 30
0.0
 10
36.8605871469
 20
227.9915678045
 30
0.0
 10
35.3941026842
 20
227.9245954547
 30
0.0
 10
33.9050515032
 20
227.5544335681
 30
0.0
 10
32.43932061
 20
226.8953429204
 30
0.0
 10
30.5517294008
 20
225.6462021384
 30
0.0
 10
29.3436599682
 20
224.3742802228
 30
0.0
 10
28.6599550962
 20
223.4304596089
 30
0.0
  0
SPLINE
  5
2F5
100
AcDbEntity
  8
0
100
AcDbSpline
 62
7
  6
CONTINUOUS
 70
0
 71
3
 72
14
 73
10
 74
0
 42
0.0000001
 43
0.0000001
 44
0.0000000001
 40
0.0
 40
0.0
 40
0.0
 40
0.0
 40
0.1091692577
 40
0.220801772
 40
0.3369062278
 40
0.4587363495
 40
0.5867144433
 40
0.7204504528
 40
1.0
 40
1.0
 40
1.0
 40
1.0
 10
74.6292632409
 20
236.5707865798
 30
0.0
 10
74.2351315166
 20
236.7983818339
 30
0.0
 10
73.3797123042
 20
237.1648807629
 30
0.0
 10
71.9845552975
 20
237.4067400408
 30
0.0
 10
70.5180708349
 20
237.3397676909
 30
0.0
 10
69.0290196539
 20
236.9696058043
 30
0.0
 10
67.5632887607
 20
236.3105151567
 30
0.0
 10
65.6756975514
 20
235.0613743747
 30
0.0
 10
64.4676281189
 20
233.789452459
 30
0.0
 10
63.7839232469
 20
232.8456318451
 30
0.0
  0
SPLINE
  5
2F6
100
AcDbEntity
  8
0
100
AcDbSpline
 62
7
  6
CONTINUOUS
 70
0
 71
3
 72
14
 73
10
 74
0
 42
0.0000001
 43
0.0000001
 44
0.0000000001
 40
0.0
 40
0.0
 40
0.0
 40
0.0
 40
0.1068410927
 40
0.2173393643
 40
0.3337574525
 40
0.4570977636
 40
0.5871072046
 40
0.7224947705
 40
1.0
 40
1.0
 40
1.0
 40
1.0
 10
70.4278288505
 20
253.2846932286
 30
0.0
 10
72.0127430662
 20
252.2780870571
 30
0.0
 10
74.9637674328
 20
249.7655429805
 30
0.0
 10
78.3000299569
 20
244.8677796955
 30
0.0
 10
80.4631118905
 20
239.0469290791
 30
0.0
 10
81.3788285081
 20
232.5693983469
 30
0.0
 10
81.0253622726
 20
225.7068706121
 30
0.0
 10
78.8860208653
 20
216.3763022817
 30
0.0
 10
75.5263058838
 20
209.7601379174
 30
0.0
 10
72.6653961547
 20
205.8107941473
 30
0.0
  0
SPLINE
  5
2F7
100
AcDbEntity
  8
0
100
AcDbSpline
 62
7
  6
CONTINUOUS
 70
0
 71
3
 72
13
 73
9
 74
0
 42
0.0000001
 43
0.0000001
 44
0.0000000001
 40
0.0
 40
0.0
 40
0.0
 40
0.0
 40
0.2718713507
 40
0.5323903394
 40
0.6564497415
 40
0.7756171033
 40
0.8899574621
 40
1.0
 40
1.0
 40
1.0
 40
1.0
 10
-30.8926533752
 20
268.4818010876
 30
0.0
 10
-32.9083976328
 20
264.6499986004
 30
0.0
 10
-36.0295148494
 20
256.676833029
 30
0.0
 10
-37.4732796244
 20
246.2034854788
 30
0.0
 10
-36.9448204979
 20
238.1749091931
 30
0.0
 10
-35.7499903314
 20
232.5843619688
 30
0.0
 10
-33.7739890489
 20
227.4577750876
 30
0.0
 10
-31.9279930251
 20
224.3719878651
 30
0.0
 10
-30.8921327429
 20
222.9584298628
 30
0.0
  0
SPLINE
  5
2F8
100
AcDbEntity
  8
0
100
AcDbSpline
 62
7
  6
CONTINUOUS
 70
0
 71
3
 72
9
 73
5
 74
0
 42
0.0000001
 43
0.0000001
 44
0.0000000001
 40
0.0
 40
0.0
 40
0.0
 40
0.0
 40
0.4843821682
 40
1.0
 40
1.0
 40
1.0
 40
1.0
 10
7.3254685078
 20
295.3539842
 30
0.0
 10
4.5757086437
 20
295.3237104436
 30
0.0
 10
-1.1082585979
 20
294.480137992
 30
0.0
 10
-6.4206786146
 20
292.3405275015
 30
0.0
 10
-9.0132699503
 20
290.9813717568
 30
0.0
  0
SPLINE
  5
2F9
100
AcDbEntity
  8
0
100
AcDbSpline
 62
7
  6
CONTINUOUS
 70
0
 71
3
 72
14
 73
10
 74
0
 42
0.0000001
 43
0.0000001
 44
0.0000000001
 40
0.0
 40
0.0
 40
0.0
 40
0.0
 40
0.2795338635
 40
0.4132796217
 40
0.5412547495
 40
0.6630903745
 40
0.7791961632
 40
0.8908298173
 40
1.0
 40
1.0
 40
1.0
 40
1.0
 10
72.6653961547
 20
205.8107941473
 30
0.0
 10
70.2554658919
 20
202.4840051289
 30
0.0
 10
65.9969536769
 20
198.0007479565
 30
0.0
 10
59.34366296
 20
193.5969892734
 30
0.0
 10
54.1766687395
 20
191.2738451219
 30
0.0
 10
48.9277554515
 20
189.9688349108
 30
0.0
 10
43.7582322766
 20
189.7328064415
 30
0.0
 10
38.8403172325
 20
190.5854724781
 30
0.0
 10
35.8247533125
 20
191.8770836889
 30
0.0
 10
34.4355246837
 20
192.6795402479
 30
0.0
  0
SPLINE
  5
2FA
100
AcDbEntity
  8
0
100
AcDbSpline
 62
7
  6
CONTINUOUS
 70
0
 71
3
 72
13
 73
9
 74
0
 42
0.0000001
 43
0.0000001
 44
0.0000000001
 40
0.0
 40
0.0
 40
0.0
 40
0.0
 40
0.2785156848
 40
0.5432588966
 40
0.6664877083
 40
0.7826768792
 40
0.8930136967
 40
1.0
 40
1.0
 40
1.0
 40
1.0
 10
63.7839232469
 20
232.8456318451
 30
0.0
 10
62.9571719753
 20
231.7043427822
 30
0.0
 10
61.693217806
 20
229.2040057062
 30
0.0
 10
61.2094836406
 20
225.7875841863
 30
0.0
 10
61.6123970926
 20
223.2509488315
 30
0.0
 10
62.2746191578
 20
221.5915870373
 30
0.0
 10
63.2793667372
 20
220.2126505935
 30
0.0
 10
64.1575023421
 20
219.5227899059
 30
0.0
 10
64.6262990465
 20
219.2520786221
 30
0.0
  0
SPLINE
  5
2FB
100
AcDbEntity
  8
0
100
AcDbSpline
 62
7
  6
CONTINUOUS
 70
0
 71
3
 72
13
 73
9
 74
0
 42
0.0000001
 43
0.0000001
 44
0.0000000001
 40
0.0
 40
0.0
 40
0.0
 40
0.0
 40
0.2785156848
 40
0.5432588966
 40
0.6664877083
 40
0.7826768792
 40
0.8930136967
 40
1.0
 40
1.0
 40
1.0
 40
1.0
 10
28.6599550962
 20
223.4304596089
 30
0.0
 10
27.8332038246
 20
222.2891705459
 30
0.0
 10
26.5692496554
 20
219.78883347
 30
0.0
 10
26.08551549
 20
216.3724119501
 30
0.0
 10
26.4884289419
 20
213.8357765953
 30
0.0
 10
27.1506510071
 20
212.176414801
 30
0.0
 10
28.1553985866
 20
210.7974783573
 30
0.0
 10
29.0335341915
 20
210.1076176697
 30
0.0
 10
29.5023308958
 20
209.8369063859
 30
0.0
  0
SPLINE
  5
2FC
100
AcDbEntity
  8
0
100
AcDbSpline
 62
7
  6
CONTINUOUS
 70
0
 71
3
 72
13
 73
9
 74
0
 42
0.0000001
 43
0.0000001
 44
0.0000000001
 40
0.0
 40
0.0
 40
0.0
 40
0.0
 40
0.2785156848
 40
0.5432588966
 40
0.6664877083
 40
0.7826768792
 40
0.8930136967
 40
1.0
 40
1.0
 40
1.0
 40
1.0
 10
46.2219391715
 20
247.6739062624
 30
0.0
 10
45.3951879
 20
246.5326171995
 30
0.0
 10
44.1312337307
 20
244.0322801235
 30
0.0
 10
43.6474995653
 20
240.6158586036
 30
0.0
 10
44.0504130173
 20
238.0792232488
 30
0.0
 10
44.7126350824
 20
236.4198614546
 30
0.0
 10
45.7173826619
 20
235.0409250108
 30
0.0
 10
46.5955182668
 20
234.3510643232
 30
0.0
 10
47.0643149711
 20
234.0803530394
 30
0.0
  0
SPLINE
  5
2FD
100
AcDbEntity
  8
0
100
AcDbSpline
 62
7
  6
CONTINUOUS
 70
0
 71
3
 72
14
 73
10
 74
0
 42
0.0000001
 43
0.0000001
 44
0.0000000001
 40
0.0
 40
0.0
 40
0.0
 40
0.0
 40
0.1101215661
 40
0.2224427019
 40
0.3388022499
 40
0.460431104
 40
0.5878560184
 40
0.7209300533
 40
1.0
 40
1.0
 40
1.0
 40
1.0
 10
1.2561631858
 20
301.6301756501
 30
0.0
 10
-0.3154197077
 20
302.5379258946
 30
0.0
 10
-3.7070347491
 20
304.0206237581
 30
0.0
 10
-9.2265879933
 20
305.0998639587
 30
0.0
 10
-15.0378587713
 20
305.0253979351
 30
0.0
 10
-20.969234938
 20
303.8099273622
 30
0.0
 10
-26.8586883737
 20
301.4965880153
 30
0.0
 10
-34.5494719214
 20
296.9808716716
 30
0.0
 10
-39.603000104
 20
292.2741584852
 30
0.0
 10
-42.5482709421
 20
288.7415620035
 30
0.0
  0
SPLINE
  5
2FE
100
AcDbEntity
  8
0
100
AcDbSpline
 62
7
  6
CONTINUOUS
 70
0
 71
3
 72
9
 73
5
 74
0
 42
0.0000001
 43
0.0000001
 44
0.0000000001
 40
0.0
 40
0.0
 40
0.0
 40
0.0
 40
0.4800697037
 40
1.0
 40
1.0
 40
1.0
 40
1.0
 10
50.3767504501
 20
227.5349797801
 30
0.0
 10
49.9629700323
 20
227.4240636705
 30
0.0
 10
49.1474509055
 20
227.0078179572
 30
0.0
 10
48.5159230628
 20
226.35612315
 30
0.0
 10
48.2437423177
 20
225.9803911652
 30
0.0
  0
SPLINE
  5
2FF
100
AcDbEntity
  8
0
100
AcDbSpline
 62
7
  6
CONTINUOUS
 70
0
 71
3
 72
12
 73
8
 74
0
 42
0.0000001
 43
0.0000001
 44
0.0000000001
 40
0.0
 40
0.0
 40
0.0
 40
0.0
 40
0.2789428715
 40
0.5440654521
 40
0.7823534519
 40
0.8928523052
 40
1.0
 40
1.0
 40
1.0
 40
1.0
 10
48.2437423177
 20
225.9803911652
 30
0.0
 10
47.9419637496
 20
225.5638008573
 30
0.0
 10
47.4812830147
 20
224.6494423176
 30
0.0
 10
47.2716017745
 20
223.1950632819
 30
0.0
 10
47.5587822047
 20
222.0559964209
 30
0.0
 10
48.0596002556
 20
221.3694301914
 30
0.0
 10
48.3801291784
 20
221.117615426
 30
0.0
 10
48.5512347315
 20
221.0187879134
 30
0.0
  0
SPLINE
  5
300
100
AcDbEntity
  8
0
100
AcDbSpline
 62
7
  6
CONTINUOUS
 70
0
 71
3
 72
13
 73
9
 74
0
 42
0.0000001
 43
0.0000001
 44
0.0000000001
 40
0.0
 40
0.0
 40
0.0
 40
0.0
 40
0.2785212823
 40
0.5432613999
 40
0.6664880878
 40
0.7826758937
 40
0.893011829
 40
1.0
 40
1.0
 40
1.0
 40
1.0
 10
46.1691727644
 20
208.1961713614
 30
0.0
 10
45.5739013742
 20
207.3744287839
 30
0.0
 10
44.6638325211
 20
205.5741871815
 30
0.0
 10
44.3156003267
 20
203.114356663
 30
0.0
 10
44.6057136606
 20
201.2880142126
 30
0.0
 10
45.0824991
 20
200.0932879252
 30
0.0
 10
45.8058965187
 20
199.1004536813
 30
0.0
 10
46.4381357196
 20
198.6037125162
 30
0.0
 10
46.7756921402
 20
198.4088282142
 30
0.0
  0
SPLINE
  5
301
100
AcDbEntity
  8
0
100
AcDbSpline
 62
7
  6
CONTINUOUS
 70
0
 71
3
 72
9
 73
5
 74
0
 42
0.0000001
 43
0.0000001
 44
0.0000000001
 40
0.0
 40
0.0
 40
0.0
 40
0.0
 40
0.4800724614
 40
1.0
 40
1.0
 40
1.0
 40
1.0
 10
50.3767504501
 20
211.2627571224
 30
0.0
 10
49.5605247205
 20
211.0439633405
 30
0.0
 10
47.9519006126
 20
210.2227681607
 30
0.0
 10
46.7060721903
 20
208.9373343426
 30
0.0
 10
46.1691727644
 20
208.1961713614
 30
0.0
  0
SPLINE
  5
302
100
AcDbEntity
  8
0
100
AcDbSpline
 62
7
  6
CONTINUOUS
 70
0
 71
3
 72
14
 73
10
 74
0
 42
0.0000001
 43
0.0000001
 44
0.0000000001
 40
0.0
 40
0.0
 40
0.0
 40
0.0
 40
0.1091692577
 40
0.220801772
 40
0.3369062278
 40
0.4587363495
 40
0.5867144433
 40
0.7204504528
 40
1.0
 40
1.0
 40
1.0
 40
1.0
 10
47.0643149711
 20
234.0803530394
 30
0.0
 10
47.4584466954
 20
233.8527577853
 30
0.0
 10
48.3138659078
 20
233.4862588563
 30
0.0
 10
49.7090229145
 20
233.2443995785
 30
0.0
 10
51.1755073772
 20
233.3113719283
 30
0.0
 10
52.6645585582
 20
233.6815338149
 30
0.0
 10
54.1302894514
 20
234.3406244626
 30
0.0
 10
56.0178806606
 20
235.5897652446
 30
0.0
 10
57.2259500932
 20
236.8616871602
 30
0.0
 10
57.9096549652
 20
237.8055077741
 30
0.0
  0
SPLINE
  5
303
100
AcDbEntity
  8
0
100
AcDbSpline
 62
7
  6
CONTINUOUS
 70
0
 71
3
 72
11
 73
7
 74
0
 42
0.0000001
 43
0.0000001
 44
0.0000000001
 40
0.0
 40
0.0
 40
0.0
 40
0.0
 40
0.2269587367
 40
0.4706415746
 40
0.7298788039
 40
1.0
 40
1.0
 40
1.0
 40
1.0
 10
26.3089270078
 20
217.1713207535
 30
0.0
 10
26.7142718359
 20
217.1656527222
 30
0.0
 10
27.5598626127
 20
217.2881958276
 30
0.0
 10
28.7667000485
 20
217.8131730028
 30
0.0
 10
29.8830234216
 20
218.6437752886
 30
0.0
 10
30.5140712997
 20
219.3578767215
 30
0.0
 10
30.7971177514
 20
219.7486082882
 30
0.0
  0
SPLINE
  5
304
100
AcDbEntity
  8
0
100
AcDbSpline
 62
7
  6
CONTINUOUS
 70
0
 71
3
 72
9
 73
5
 74
0
 42
0.0000001
 43
0.0000001
 44
0.0000000001
 40
0.0
 40
0.0
 40
0.0
 40
0.0
 40
0.4837027377
 40
1.0
 40
1.0
 40
1.0
 40
1.0
 10
48.5512347315
 20
221.0187879134
 30
0.0
 10
48.8126844103
 20
220.8677792468
 30
0.0
 10
49.4286746279
 20
220.6742327854
 30
0.0
 10
50.0654680234
 20
220.7403961409
 30
0.0
 10
50.3767504501
 20
220.8238371021
 30
0.0
  0
SPLINE
  5
305
100
AcDbEntity
  8
0
100
AcDbSpline
 62
7
  6
CONTINUOUS
 70
0
 71
3
 72
11
 73
7
 74
0
 42
0.0000001
 43
0.0000001
 44
0.0000000001
 40
0.0
 40
0.0
 40
0.0
 40
0.0
 40
0.2295896234
 40
0.4764629146
 40
0.7358707385
 40
1.0
 40
1.0
 40
1.0
 40
1.0
 10
35.2111990544
 20
227.8447177051
 30
0.0
 10
35.4956685597
 20
227.071046761
 30
0.0
 10
35.8276986976
 20
225.3642346421
 30
0.0
 10
35.6362110802
 20
222.704305323
 30
0.0
 10
34.806432151
 20
220.0424219143
 30
0.0
 10
33.86630929
 20
218.3948921919
 30
0.0
 10
33.309976647
 20
217.6269026133
 30
0.0
  0
SPLINE
  5
306
100
AcDbEntity
  8
0
100
AcDbSpline
 62
7
  6
CONTINUOUS
 70
0
 71
3
 72
11
 73
7
 74
0
 42
0.0000001
 43
0.0000001
 44
0.0000000001
 40
0.0
 40
0.0
 40
0.0
 40
0.0
 40
0.2615658033
 40
0.5171060975
 40
0.7638822727
 40
1.0
 40
1.0
 40
1.0
 40
1.0
 10
31.4661979821
 20
240.5968988184
 30
0.0
 10
32.6891302092
 20
242.2850960109
 30
0.0
 10
35.3377525864
 20
245.4627490931
 30
0.0
 10
39.8718184613
 20
249.5566431131
 30
0.0
 10
44.7981158668
 20
252.8172312492
 30
0.0
 10
48.3295630869
 20
254.4023739571
 30
0.0
 10
50.109592195
 20
255.0128081873
 30
0.0
  0
SPLINE
  5
307
100
AcDbEntity
  8
0
100
AcDbSpline
 62
7
  6
CONTINUOUS
 70
0
 71
3
 72
13
 73
9
 74
0
 42
0.0000001
 43
0.0000001
 44
0.0000000001
 40
0.0
 40
0.0
 40
0.0
 40
0.0
 40
0.2785156848
 40
0.5432588966
 40
0.6664877083
 40
0.7826768792
 40
0.8930136967
 40
1.0
 40
1.0
 40
1.0
 40
1.0
 10
75.4716390405
 20
222.9772333568
 30
0.0
 10
76.2983903121
 20
224.1185224198
 30
0.0
 10
77.5623444813
 20
226.6188594957
 30
0.0
 10
78.0460786467
 20
230.0352810156
 30
0.0
 10
77.6431651948
 20
232.5719163704
 30
0.0
 10
76.9809431296
 20
234.2312781647
 30
0.0
 10
75.9761955501
 20
235.6102146084
 30
0.0
 10
75.0980599453
 20
236.300075296
 30
0.0
 10
74.6292632409
 20
236.5707865798
 30
0.0
  0
SPLINE
  5
308
100
AcDbEntity
  8
0
100
AcDbSpline
 62
7
  6
CONTINUOUS
 70
0
 71
3
 72
13
 73
9
 74
0
 42
0.0000001
 43
0.0000001
 44
0.0000000001
 40
0.0
 40
0.0
 40
0.0
 40
0.0
 40
0.2785156848
 40
0.5432588966
 40
0.6664877083
 40
0.7826768792
 40
0.8930136967
 40
1.0
 40
1.0
 40
1.0
 40
1.0
 10
40.3476708899
 20
213.5620611206
 30
0.0
 10
41.1744221615
 20
214.7033501835
 30
0.0
 10
42.4383763307
 20
217.2036872595
 30
0.0
 10
42.9221104961
 20
220.6201087794
 30
0.0
 10
42.5191970441
 20
223.1567441342
 30
0.0
 10
41.856974979
 20
224.8161059284
 30
0.0
 10
40.8522273995
 20
226.1950423722
 30
0.0
 10
39.9740917946
 20
226.8849030598
 30
0.0
 10
39.5052950903
 20
227.1556143436
 30
0.0
  0
SPLINE
  5
309
100
AcDbEntity
  8
0
100
AcDbSpline
 62
7
  6
CONTINUOUS
 70
0
 71
3
 72
14
 73
10
 74
0
 42
0.0000001
 43
0.0000001
 44
0.0000000001
 40
0.0
 40
0.0
 40
0.0
 40
0.0
 40
0.1091692577
 40
0.220801772
 40
0.3369062278
 40
0.4587363495
 40
0.5867144433
 40
0.7204504528
 40
1.0
 40
1.0
 40
1.0
 40
1.0
 10
29.5023308958
 20
209.8369063859
 30
0.0
 10
29.8964626201
 20
209.6093111318
 30
0.0
 10
30.7518818325
 20
209.2428122028
 30
0.0
 10
32.1470388392
 20
209.0009529249
 30
0.0
 10
33.6135233019
 20
209.0679252748
 30
0.0
 10
35.1025744828
 20
209.4380871614
 30
0.0
 10
36.5683053761
 20
210.097177809
 30
0.0
 10
38.4558965853
 20
211.346318591
 30
0.0
 10
39.6639660179
 20
212.6182405067
 30
0.0
 10
40.3476708899
 20
213.5620611206
 30
0.0
  0
SPLINE
  5
30A
100
AcDbEntity
  8
0
100
AcDbSpline
 62
7
  6
CONTINUOUS
 70
0
 71
3
 72
13
 73
9
 74
0
 42
0.0000001
 43
0.0000001
 44
0.0000000001
 40
0.0
 40
0.0
 40
0.0
 40
0.0
 40
0.2785156848
 40
0.5432588966
 40
0.6664877083
 40
0.7826768792
 40
0.8930136967
 40
1.0
 40
1.0
 40
1.0
 40
1.0
 10
57.9096549652
 20
237.8055077741
 30
0.0
 10
58.7364062368
 20
238.9467968371
 30
0.0
 10
60.000360406
 20
241.447133913
 30
0.0
 10
60.4840945714
 20
244.8635554329
 30
0.0
 10
60.0811811195
 20
247.4001907877
 30
0.0
 10
59.4189590543
 20
249.059552582
 30
0.0
 10
58.4142114748
 20
250.4384890257
 30
0.0
 10
57.5360758699
 20
251.1283497133
 30
0.0
 10
57.0672791656
 20
251.3990609971
 30
0.0
  0
SPLINE
  5
30B
100
AcDbEntity
  8
0
100
AcDbSpline
 62
7
  6
CONTINUOUS
 70
0
 71
3
 72
14
 73
10
 74
0
 42
0.0000001
 43
0.0000001
 44
0.0000000001
 40
0.0
 40
0.0
 40
0.0
 40
0.0
 40
0.2846970937
 40
0.4192439257
 40
0.5439054882
 40
0.6592510816
 40
0.7694719214
 40
0.8810894684
 40
1.0
 40
1.0
 40
1.0
 40
1.0
 10
55.9519625698
 20
219.9226039855
 30
0.0
 10
56.7029198945
 20
220.95926322
 30
0.0
 10
57.491928622
 20
222.7668253124
 30
0.0
 10
57.6194506527
 20
225.2296338957
 30
0.0
 10
57.2427634486
 20
226.8978116715
 30
0.0
 10
56.4032179644
 20
228.2691511744
 30
0.0
 10
55.1560155344
 20
229.1994009828
 30
0.0
 10
53.6338587173
 20
229.5790278106
 30
0.0
 10
52.5822204551
 20
229.4558517824
 30
0.0
 10
52.0657970684
 20
229.3174216622
 30
0.0
  0
SPLINE
  5
30C
100
AcDbEntity
  8
0
100
AcDbSpline
 62
7
  6
CONTINUOUS
 70
0
 71
3
 72
9
 73
5
 74
0
 42
0.0000001
 43
0.0000001
 44
0.0000000001
 40
0.0
 40
0.0
 40
0.0
 40
0.0
 40
0.4800727972
 40
1.0
 40
1.0
 40
1.0
 40
1.0
 10
52.0657970684
 20
229.3174216622
 30
0.0
 10
51.3119217642
 20
229.1153412536
 30
0.0
 10
49.8261866596
 20
228.3568641508
 30
0.0
 10
48.6755172856
 20
227.1696345534
 30
0.0
 10
48.179631567
 20
226.4850889802
 30
0.0
  0
SPLINE
  5
30D
100
AcDbEntity
  8
0
100
AcDbSpline
 62
7
  6
CONTINUOUS
 70
0
 71
3
 72
14
 73
10
 74
0
 42
0.0000001
 43
0.0000001
 44
0.0000000001
 40
0.0
 40
0.0
 40
0.0
 40
0.0
 40
0.284848714
 40
0.4186230158
 40
0.5426005148
 40
0.6577174401
 40
0.768257021
 40
0.8805014995
 40
1.0
 40
1.0
 40
1.0
 40
1.0
 10
47.9527593836
 20
226.156133935
 30
0.0
 10
47.2706241481
 20
225.116677707
 30
0.0
 10
46.5744387273
 20
223.3392546932
 30
0.0
 10
46.5382636839
 20
220.9511310962
 30
0.0
 10
46.9591605664
 20
219.3532727977
 30
0.0
 10
47.8154434972
 20
218.0523959677
 30
0.0
 10
49.0500370048
 20
217.179946599
 30
0.0
 10
50.5373760585
 20
216.8315765991
 30
0.0
 10
51.5620019542
 20
216.955226261
 30
0.0
 10
52.0657970684
 20
217.0902713035
 30
0.0
  0
SPLINE
  5
30E
100
AcDbEntity
  8
0
100
AcDbSpline
 62
7
  6
CONTINUOUS
 70
0
 71
3
 72
9
 73
5
 74
0
 42
0.0000001
 43
0.0000001
 44
0.0000000001
 40
0.0
 40
0.0
 40
0.0
 40
0.0
 40
0.4800727972
 40
1.0
 40
1.0
 40
1.0
 40
1.0
 10
52.0657970684
 20
217.0902713035
 30
0.0
 10
52.8196723725
 20
217.2923517121
 30
0.0
 10
54.3054074779
 20
218.0508288144
 30
0.0
 10
55.4560768493
 20
219.2380584136
 30
0.0
 10
55.9519625698
 20
219.9226039855
 30
0.0
  0
SPLINE
  5
30F
100
AcDbEntity
  8
0
100
AcDbSpline
 62
7
  6
CONTINUOUS
 70
0
 71
3
 72
14
 73
10
 74
0
 42
0.0000001
 43
0.0000001
 44
0.0000000001
 40
0.0
 40
0.0
 40
0.0
 40
0.0
 40
0.2848217393
 40
0.4188690872
 40
0.5430851086
 40
0.6582775155
 40
0.7686968073
 40
0.8807171185
 40
1.0
 40
1.0
 40
1.0
 40
1.0
 10
45.8773408858
 20
208.3763855058
 30
0.0
 10
44.7939663095
 20
206.7825996839
 30
0.0
 10
43.67611578
 20
204.0392480821
 30
0.0
 10
43.5719494219
 20
200.335049862
 30
0.0
 10
44.1941900196
 20
197.8460097133
 30
0.0
 10
45.4989191388
 20
195.8125508774
 30
0.0
 10
47.3997589973
 20
194.4433061566
 30
0.0
 10
49.7000283247
 20
193.892418549
 30
0.0
 10
51.2862369364
 20
194.081807523
 30
0.0
 10
52.0657970684
 20
194.2907728904
 30
0.0
  0
SPLINE
  5
310
100
AcDbEntity
  8
0
100
AcDbSpline
 62
7
  6
CONTINUOUS
 70
0
 71
3
 72
9
 73
5
 74
0
 42
0.0000001
 43
0.0000001
 44
0.0000000001
 40
0.0
 40
0.0
 40
0.0
 40
0.0
 40
0.4800727972
 40
1.0
 40
1.0
 40
1.0
 40
1.0
 10
52.0657970684
 20
194.2907728904
 30
0.0
 10
53.2221170837
 20
194.6007308103
 30
0.0
 10
55.5009889666
 20
195.7641092288
 30
0.0
 10
57.2659254719
 20
197.5851230314
 30
0.0
 10
58.0265321231
 20
198.6351027184
 30
0.0
  0
SPLINE
  5
311
100
AcDbEntity
  8
0
100
AcDbSpline
 62
7
  6
CONTINUOUS
 70
0
 71
3
 72
14
 73
10
 74
0
 42
0.0000001
 43
0.0000001
 44
0.0000000001
 40
0.0
 40
0.0
 40
0.0
 40
0.0
 40
0.2846963903
 40
0.4192420864
 40
0.5439047314
 40
0.659252749
 40
0.7694729465
 40
0.8810933222
 40
1.0
 40
1.0
 40
1.0
 40
1.0
 10
58.0265321231
 20
198.6351027184
 30
0.0
 10
59.1783768624
 20
200.2251671453
 30
0.0
 10
60.3886557497
 20
202.9976269754
 30
0.0
 10
60.5842408042
 20
206.7751964286
 30
0.0
 10
60.0063328781
 20
209.3338881742
 30
0.0
 10
58.718710338
 20
211.4373684454
 30
0.0
 10
56.8056865883
 20
212.864307398
 30
0.0
 10
54.4709065611
 20
213.4464047095
 30
0.0
 10
52.8578817143
 20
213.2575216365
 30
0.0
 10
52.0657970684
 20
213.0451990044
 30
0.0
  0
SPLINE
  5
312
100
AcDbEntity
  8
0
100
AcDbSpline
 62
7
  6
CONTINUOUS
 70
0
 71
3
 72
9
 73
5
 74
0
 42
0.0000001
 43
0.0000001
 44
0.0000000001
 40
0.0
 40
0.0
 40
0.0
 40
0.0
 40
0.4800727972
 40
1.0
 40
1.0
 40
1.0
 40
1.0
 10
52.0657970684
 20
213.0451990044
 30
0.0
 10
50.909477053
 20
212.7352410846
 30
0.0
 10
48.6306051705
 20
211.5718626658
 30
0.0
 10
46.865668664
 20
209.750848864
 30
0.0
 10
46.1050620136
 20
208.7008691764
 30
0.0
  0
SPLINE
  5
313
100
AcDbEntity
  8
0
100
AcDbSpline
 62
7
  6
CONTINUOUS
 70
0
 71
3
 72
9
 73
5
 74
0
 42
0.0000001
 43
0.0000001
 44
0.0000000001
 40
0.0
 40
0.0
 40
0.0
 40
0.0
 40
0.523205893
 40
1.0
 40
1.0
 40
1.0
 40
1.0
 10
68.4339447977
 20
227.0420748495
 30
0.0
 10
67.6149098931
 20
225.9114378479
 30
0.0
 10
65.6946005712
 20
223.9802790409
 30
0.0
 10
63.1748496325
 20
222.8566896678
 30
0.0
 10
61.9222134346
 20
222.6339965529
 30
0.0
  0
SPLINE
  5
314
100
AcDbEntity
  8
0
100
AcDbSpline
 62
7
  6
CONTINUOUS
 70
0
 71
3
 72
11
 73
7
 74
0
 42
0.0000001
 43
0.0000001
 44
0.0000000001
 40
0.0
 40
0.0
 40
0.0
 40
0.0
 40
0.2688132073
 40
0.5306203561
 40
0.7757050598
 40
1.0
 40
1.0
 40
1.0
 40
1.0
 10
65.921085902
 20
229.1637805245
 30
0.0
 10
66.2848055106
 20
229.6658773769
 30
0.0
 10
66.8818490685
 20
230.7510512499
 30
0.0
 10
67.3360736581
 20
232.5015426008
 30
0.0
 10
67.3062149497
 20
234.2106647488
 30
0.0
 10
66.9327100907
 20
235.2562444093
 30
0.0
 10
66.6644242376
 20
235.6985560038
 30
0.0
  0
SPLINE
  5
315
100
AcDbEntity
  8
0
100
AcDbSpline
 62
7
  6
CONTINUOUS
 70
0
 71
3
 72
9
 73
5
 74
0
 42
0.0000001
 43
0.0000001
 44
0.0000000001
 40
0.0
 40
0.0
 40
0.0
 40
0.0
 40
0.523205893
 40
1.0
 40
1.0
 40
1.0
 40
1.0
 10
33.309976647
 20
217.6269026133
 30
0.0
 10
32.4909417425
 20
216.4962656117
 30
0.0
 10
30.5706324205
 20
214.5651068047
 30
0.0
 10
28.0508814819
 20
213.4415174316
 30
0.0
 10
26.798245284
 20
213.2188243167
 30
0.0
  0
SPLINE
  5
316
100
AcDbEntity
  8
0
100
AcDbSpline
 62
7
  6
CONTINUOUS
 70
0
 71
3
 72
11
 73
7
 74
0
 42
0.0000001
 43
0.0000001
 44
0.0000000001
 40
0.0
 40
0.0
 40
0.0
 40
0.0
 40
0.2269587367
 40
0.4706415746
 40
0.7298788039
 40
1.0
 40
1.0
 40
1.0
 40
1.0
 10
43.8709110831
 20
241.4147674071
 30
0.0
 10
44.2762559112
 20
241.4090993758
 30
0.0
 10
45.1218466881
 20
241.5316424811
 30
0.0
 10
46.3286841238
 20
242.0566196564
 30
0.0
 10
47.4450074969
 20
242.8872219422
 30
0.0
 10
48.076055375
 20
243.601323375
 30
0.0
 10
48.3591018267
 20
243.9920549418
 30
0.0
  0
SPLINE
  5
317
100
AcDbEntity
  8
0
100
AcDbSpline
 62
7
  6
CONTINUOUS
 70
0
 71
3
 72
11
 73
7
 74
0
 42
0.0000001
 43
0.0000001
 44
0.0000000001
 40
0.0
 40
0.0
 40
0.0
 40
0.0
 40
0.2688132073
 40
0.5306203561
 40
0.7757050598
 40
1.0
 40
1.0
 40
1.0
 40
1.0
 10
30.7971177514
 20
219.7486082882
 30
0.0
 10
31.1608373599
 20
220.2507051406
 30
0.0
 10
31.7578809179
 20
221.3358790136
 30
0.0
 10
32.2121055075
 20
223.0863703646
 30
0.0
 10
32.182246799
 20
224.7954925126
 30
0.0
 10
31.80874194
 20
225.8410721731
 30
0.0
 10
31.540456087
 20
226.2833837675
 30
0.0
  0
SPLINE
  5
318
100
AcDbEntity
  8
0
100
AcDbSpline
 62
7
  6
CONTINUOUS
 70
0
 71
3
 72
11
 73
7
 74
0
 42
0.0000001
 43
0.0000001
 44
0.0000000001
 40
0.0
 40
0.0
 40
0.0
 40
0.0
 40
0.2269587367
 40
0.4706415746
 40
0.7298788039
 40
1.0
 40
1.0
 40
1.0
 40
1.0
 10
61.4328951584
 20
226.5864929898
 30
0.0
 10
61.8382399865
 20
226.5808249585
 30
0.0
 10
62.6838307634
 20
226.7033680638
 30
0.0
 10
63.8906681991
 20
227.2283452391
 30
0.0
 10
65.0069915723
 20
228.0589475249
 30
0.0
 10
65.6380394503
 20
228.7730489577
 30
0.0
 10
65.921085902
 20
229.1637805245
 30
0.0
  0
SPLINE
  5
319
100
AcDbEntity
  8
0
100
AcDbSpline
 62
7
  6
CONTINUOUS
 70
0
 71
3
 72
9
 73
5
 74
0
 42
0.0000001
 43
0.0000001
 44
0.0000000001
 40
0.0
 40
0.0
 40
0.0
 40
0.0
 40
0.523205893
 40
1.0
 40
1.0
 40
1.0
 40
1.0
 10
50.8719607224
 20
241.8703492668
 30
0.0
 10
50.0529258178
 20
240.7397122652
 30
0.0
 10
48.1326164958
 20
238.8085534582
 30
0.0
 10
45.6128655572
 20
237.6849640851
 30
0.0
 10
44.3602293593
 20
237.4622709702
 30
0.0
  0
SPLINE
  5
31A
100
AcDbEntity
  8
0
100
AcDbSpline
 62
7
  6
CONTINUOUS
 70
0
 71
3
 72
10
 73
6
 74
0
 42
0.0000001
 43
0.0000001
 44
0.0000000001
 40
0.0
 40
0.0
 40
0.0
 40
0.0
 40
0.2403230565
 40
0.4850896867
 40
1.0
 40
1.0
 40
1.0
 40
1.0
 10
46.7756921402
 20
198.4088282142
 30
0.0
 10
47.032642194
 20
198.2604810675
 30
0.0
 10
47.5855744215
 20
198.0162179084
 30
0.0
 10
48.8009369653
 20
197.7632354039
 30
0.0
 10
49.762728005
 20
197.8597466061
 30
0.0
 10
50.3767504501
 20
198.024338689
 30
0.0
  0
SPLINE
  5
31B
100
AcDbEntity
  8
0
100
AcDbSpline
 62
7
  6
CONTINUOUS
 70
0
 71
3
 72
11
 73
7
 74
0
 42
0.0000001
 43
0.0000001
 44
0.0000000001
 40
0.0
 40
0.0
 40
0.0
 40
0.0
 40
0.2688132073
 40
0.5306203561
 40
0.7757050598
 40
1.0
 40
1.0
 40
1.0
 40
1.0
 10
48.3591018267
 20
243.9920549418
 30
0.0
 10
48.7228214352
 20
244.4941517942
 30
0.0
 10
49.3198649932
 20
245.5793256672
 30
0.0
 10
49.7740895828
 20
247.3298170181
 30
0.0
 10
49.7442308743
 20
249.0389391661
 30
0.0
 10
49.3707260154
 20
250.0845188266
 30
0.0
 10
49.1024401623
 20
250.5268304211
 30
0.0
  0
SPLINE
  5
31C
100
AcDbEntity
  8
0
100
AcDbSpline
 62
7
  6
CONTINUOUS
 70
0
 71
3
 72
12
 73
8
 74
0
 42
0.0000001
 43
0.0000001
 44
0.0000000001
 40
0.0
 40
0.0
 40
0.0
 40
0.0
 40
0.2789428712
 40
0.5440654522
 40
0.7823534521
 40
0.8928523053
 40
1.0
 40
1.0
 40
1.0
 40
1.0
 10
52.5097585367
 20
222.3784256538
 30
0.0
 10
52.8115371062
 20
222.795015969
 30
0.0
 10
53.2722178751
 20
223.7093745053
 30
0.0
 10
53.4818991282
 20
225.1637535637
 30
0.0
 10
53.1947187051
 20
226.3028204438
 30
0.0
 10
52.6939006506
 20
226.9893866856
 30
0.0
 10
52.3733717239
 20
227.2412014549
 30
0.0
 10
52.2022661687
 20
227.3400289687
 30
0.0
  0
SPLINE
  5
31D
100
AcDbEntity
  8
0
100
AcDbSpline
 62
7
  6
CONTINUOUS
 70
0
 71
3
 72
11
 73
7
 74
0
 42
0.0000001
 43
0.0000001
 44
0.0000000001
 40
0.0
 40
0.0
 40
0.0
 40
0.0
 40
0.2295896234
 40
0.4764629146
 40
0.7358707385
 40
1.0
 40
1.0
 40
1.0
 40
1.0
 10
52.7731831297
 20
252.0881643586
 30
0.0
 10
53.057652635
 20
251.3144934145
 30
0.0
 10
53.3896827729
 20
249.6076812956
 30
0.0
 10
53.1981951556
 20
246.9477519765
 30
0.0
 10
52.3684162263
 20
244.2858685678
 30
0.0
 10
51.4282933653
 20
242.6383388454
 30
0.0
 10
50.8719607224
 20
241.8703492668
 30
0.0
  0
SPLINE
  5
31E
100
AcDbEntity
  8
0
100
AcDbSpline
 62
7
  6
CONTINUOUS
 70
0
 71
3
 72
11
 73
7
 74
0
 42
0.0000001
 43
0.0000001
 44
0.0000000001
 40
0.0
 40
0.0
 40
0.0
 40
0.0
 40
0.2295896234
 40
0.4764629146
 40
0.7358707385
 40
1.0
 40
1.0
 40
1.0
 40
1.0
 10
70.335167205
 20
237.2598899413
 30
0.0
 10
70.6196367103
 20
236.4862189972
 30
0.0
 10
70.9516668482
 20
234.7794068783
 30
0.0
 10
70.7601792309
 20
232.1194775592
 30
0.0
 10
69.9304003016
 20
229.4575941505
 30
0.0
 10
68.9902774406
 20
227.8100644281
 30
0.0
 10
68.4339447977
 20
227.0420748495
 30
0.0
  0
SPLINE
  5
31F
100
AcDbEntity
  8
0
100
AcDbSpline
 62
7
  6
CONTINUOUS
 70
0
 71
3
 72
9
 73
5
 74
0
 42
0.0000001
 43
0.0000001
 44
0.0000000001
 40
0.0
 40
0.0
 40
0.0
 40
0.0
 40
0.4800697038
 40
1.0
 40
1.0
 40
1.0
 40
1.0
 10
50.3767504501
 20
220.8238371021
 30
0.0
 10
50.790530856
 20
220.9347532085
 30
0.0
 10
51.6060499559
 20
221.3509989088
 30
0.0
 10
52.2375778018
 20
222.0026936782
 30
0.0
 10
52.5097585367
 20
222.3784256538
 30
0.0
  0
SPLINE
  5
320
100
AcDbEntity
  8
0
100
AcDbSpline
 62
7
  6
CONTINUOUS
 70
0
 71
3
 72
14
 73
10
 74
0
 42
0.0000001
 43
0.0000001
 44
0.0000000001
 40
0.0
 40
0.0
 40
0.0
 40
0.0
 40
0.1091692577
 40
0.220801772
 40
0.3369062278
 40
0.4587363495
 40
0.5867144433
 40
0.7204504528
 40
1.0
 40
1.0
 40
1.0
 40
1.0
 10
64.6262990465
 20
219.2520786221
 30
0.0
 10
65.0204307707
 20
219.024483368
 30
0.0
 10
65.8758499831
 20
218.657984439
 30
0.0
 10
67.2710069898
 20
218.4161251612
 30
0.0
 10
68.7374914525
 20
218.483097511
 30
0.0
 10
70.2265426335
 20
218.8532593976
 30
0.0
 10
71.6922735267
 20
219.5123500453
 30
0.0
 10
73.5798647359
 20
220.7614908273
 30
0.0
 10
74.7879341685
 20
222.0334127429
 30
0.0
 10
75.4716390405
 20
222.9772333568
 30
0.0
  0
SPLINE
  5
321
100
AcDbEntity
  8
0
100
AcDbSpline
 62
7
  6
CONTINUOUS
 70
0
 71
3
 72
14
 73
10
 74
0
 42
0.0000001
 43
0.0000001
 44
0.0000000001
 40
0.0
 40
0.0
 40
0.0
 40
0.0
 40
0.1116224095
 40
0.2250907197
 40
0.3419994946
 40
0.4635067788
 40
0.5902454496
 40
0.7223192915
 40
1.0
 40
1.0
 40
1.0
 40
1.0
 10
34.4355246837
 20
192.6795402479
 30
0.0
 10
33.2536686568
 20
193.3622127041
 30
0.0
 10
31.0036639324
 20
194.9850471393
 30
0.0
 10
28.1458671039
 20
198.0723381444
 30
0.0
 10
25.8558867738
 20
201.7437270704
 30
0.0
 10
24.1851562104
 20
205.9068355633
 30
0.0
 10
23.1670408138
 20
210.4643247579
 30
0.0
 10
22.6971805916
 20
217.0248079478
 30
0.0
 10
23.3891901766
 20
222.0621759783
 30
0.0
 10
24.242047127
 20
225.3486354132
 30
0.0
  0
SPLINE
  5
322
100
AcDbEntity
  8
0
100
AcDbSpline
 62
7
  6
CONTINUOUS
 70
0
 71
3
 72
9
 73
5
 74
0
 42
0.0000001
 43
0.0000001
 44
0.0000000001
 40
0.0
 40
0.0
 40
0.0
 40
0.0
 40
0.4974881609
 40
1.0
 40
1.0
 40
1.0
 40
1.0
 10
24.3519424768
 20
225.7635848069
 30
0.0
 10
25.0664100812
 20
228.407991063
 30
0.0
 10
27.0093854708
 20
233.596901887
 30
0.0
 10
29.8430056979
 20
238.3561624994
 30
0.0
 10
31.4661979821
 20
240.5968988184
 30
0.0
  0
SPLINE
  5
323
100
AcDbEntity
  8
0
100
AcDbSpline
 62
7
  6
CONTINUOUS
 70
0
 71
3
 72
9
 73
5
 74
0
 42
0.0000001
 43
0.0000001
 44
0.0000000001
 40
0.0
 40
0.0
 40
0.0
 40
0.0
 40
0.4800724615
 40
1.0
 40
1.0
 40
1.0
 40
1.0
 10
50.3767504501
 20
198.024338689
 30
0.0
 10
51.1929761736
 20
198.2431324693
 30
0.0
 10
52.8016002683
 20
199.0643276417
 30
0.0
 10
54.0474286916
 20
200.3497614412
 30
0.0
 10
54.5843281124
 20
201.0909244176
 30
0.0
  0
SPLINE
  5
324
100
AcDbEntity
  8
0
100
AcDbSpline
 62
7
  6
CONTINUOUS
 70
0
 71
3
 72
13
 73
9
 74
0
 42
0.0000001
 43
0.0000001
 44
0.0000000001
 40
0.0
 40
0.0
 40
0.0
 40
0.0
 40
0.2785212823
 40
0.5432613999
 40
0.6664880878
 40
0.7826758938
 40
0.893011829
 40
1.0
 40
1.0
 40
1.0
 40
1.0
 10
54.5843281124
 20
201.0909244176
 30
0.0
 10
55.1795995034
 20
201.9126669987
 30
0.0
 10
56.0896683734
 20
203.7129085995
 30
0.0
 10
56.4379005736
 20
206.1727391282
 30
0.0
 10
56.1477872433
 20
207.9990815861
 30
0.0
 10
55.6710018044
 20
209.193807879
 30
0.0
 10
54.9476043846
 20
210.1866421273
 30
0.0
 10
54.3153651816
 20
210.6833832945
 30
0.0
 10
53.9778087599
 20
210.8782675971
 30
0.0
  0
SPLINE
  5
325
100
AcDbEntity
  8
0
100
AcDbSpline
 62
7
  6
CONTINUOUS
 70
0
 71
3
 72
11
 73
7
 74
0
 42
0.0000001
 43
0.0000001
 44
0.0000000001
 40
0.0
 40
0.0
 40
0.0
 40
0.0
 40
0.2577229927
 40
0.5090323275
 40
0.7557096225
 40
1.0
 40
1.0
 40
1.0
 40
1.0
 10
47.2685587341
 20
179.4320309424
 30
0.0
 10
45.8601227587
 20
179.3434496377
 30
0.0
 10
43.0624814304
 20
179.3523787465
 30
0.0
 10
38.9538508703
 20
179.9527434716
 30
0.0
 10
35.0490101778
 20
181.1331707831
 30
0.0
 10
32.6129208404
 20
182.2995430605
 30
0.0
 10
31.4545969357
 20
182.9685983208
 30
0.0
  0
SPLINE
  5
326
100
AcDbEntity
  8
0
100
AcDbSpline
 62
7
  6
CONTINUOUS
 70
0
 71
3
 72
13
 73
9
 74
0
 42
0.0000001
 43
0.0000001
 44
0.0000000001
 40
0.0
 40
0.0
 40
0.0
 40
0.0
 40
0.2458167124
 40
0.373807695
 40
0.5030104373
 40
0.6317957254
 40
0.7585689062
 40
1.0
 40
1.0
 40
1.0
 40
1.0
 10
91.350402327
 20
232.0679267818
 30
0.0
 10
91.350402327
 20
227.1066707221
 30
0.0
 10
90.1328333376
 20
219.5206002974
 30
0.0
 10
86.5526009687
 20
210.0033705055
 30
0.0
 10
82.8647761793
 20
203.1136579651
 30
0.0
 10
78.3186261238
 20
196.7870359973
 30
0.0
 10
71.4238438526
 20
189.4800915741
 30
0.0
 10
65.2086205316
 20
185.1445944787
 30
0.0
 10
60.8041441786
 20
183.0603188321
 30
0.0
  0
SPLINE
  5
327
100
AcDbEntity
  8
0
100
AcDbSpline
 62
7
  6
CONTINUOUS
 70
0
 71
3
 72
14
 73
10
 74
0
 42
0.0000001
 43
0.0000001
 44
0.0000000001
 40
0.0
 40
0.0
 40
0.0
 40
0.0
 40
0.2691268022
 40
0.4064126758
 40
0.539892328
 40
0.6664627261
 40
0.7845265749
 40
0.8946827967
 40
1.0
 40
1.0
 40
1.0
 40
1.0
 10
60.8041441786
 20
183.0603188321
 30
0.0
 10
60.6549268931
 20
181.6625995693
 30
0.0
 10
59.9403795354
 20
179.5796849303
 30
0.0
 10
58.2951181052
 20
177.2762501488
 30
0.0
 10
56.7629979163
 20
175.8517823387
 30
0.0
 10
55.0424036397
 20
174.8469336147
 30
0.0
 10
53.2385304778
 20
174.3317742476
 30
0.0
 10
51.4692040101
 20
174.354917721
 30
0.0
 10
50.3864653311
 20
174.7474873369
 30
0.0
 10
49.9101426814
 20
175.0226255362
 30
0.0
  0
SPLINE
  5
328
100
AcDbEntity
  8
0
100
AcDbSpline
 62
7
  6
CONTINUOUS
 70
0
 71
3
 72
11
 73
7
 74
0
 42
0.0000001
 43
0.0000001
 44
0.0000000001
 40
0.0
 40
0.0
 40
0.0
 40
0.0
 40
0.2717350397
 40
0.5268969419
 40
0.7676331593
 40
1.0
 40
1.0
 40
1.0
 40
1.0
 10
49.9041199092
 20
181.0589013201
 30
0.0
 10
49.9041199092
 20
180.7171320983
 30
0.0
 10
49.9706699991
 20
180.0516416789
 30
0.0
 10
50.288796607
 20
179.1297310275
 30
0.0
 10
50.8106023508
 20
178.3628161369
 30
0.0
 10
51.2825610448
 20
177.9831065639
 30
0.0
 10
51.5356352776
 20
177.8369346624
 30
0.0
  0
SPLINE
  5
329
100
AcDbEntity
  8
0
100
AcDbSpline
 62
7
  6
CONTINUOUS
 70
0
 71
3
 72
13
 73
9
 74
0
 42
0.0000001
 43
0.0000001
 44
0.0000000001
 40
0.0
 40
0.0
 40
0.0
 40
0.0
 40
0.2453464881
 40
0.3725553817
 40
0.5009820002
 40
0.6292741539
 40
0.7560918729
 40
1.0
 40
1.0
 40
1.0
 40
1.0
 10
43.7363006479
 20
256.0813393091
 30
0.0
 10
40.1379973792
 20
253.8697090115
 30
0.0
 10
35.1339517659
 20
249.7043650503
 30
0.0
 10
29.618393384
 20
243.0587488679
 30
0.0
 10
26.0309264275
 20
237.4870969936
 30
0.0
 10
23.1404376252
 20
231.5313541314
 30
0.0
 10
20.3475284378
 20
223.3949843058
 30
0.0
 10
19.4082510914
 20
216.9823126301
 30
0.0
 10
19.4082510914
 20
212.7834387073
 30
0.0
  0
SPLINE
  5
32A
100
AcDbEntity
  8
0
100
AcDbSpline
 62
7
  6
CONTINUOUS
 70
0
 71
3
 72
13
 73
9
 74
0
 42
0.0000001
 43
0.0000001
 44
0.0000000001
 40
0.0
 40
0.0
 40
0.0
 40
0.0
 40
0.2714323935
 40
0.5262174529
 40
0.6482289388
 40
0.7672664568
 40
0.8841850931
 40
1.0
 40
1.0
 40
1.0
 40
1.0
 10
19.4082510914
 20
212.7834387073
 30
0.0
 10
19.4082510914
 20
209.9190135734
 30
0.0
 10
19.9640188104
 20
204.3440335879
 30
0.0
 10
22.2235863313
 20
197.8060260483
 30
0.0
 10
24.8946777554
 20
193.2893778357
 30
0.0
 10
27.2606746394
 20
190.3273244155
 30
0.0
 10
29.985224023
 20
187.7868366699
 30
0.0
 10
32.0217310993
 20
186.3941654556
 30
0.0
 10
33.0800880957
 20
185.7829049301
 30
0.0
  0
SPLINE
  5
32B
100
AcDbEntity
  8
0
100
AcDbSpline
 62
7
  6
CONTINUOUS
 70
0
 71
3
 72
10
 73
6
 74
0
 42
0.0000001
 43
0.0000001
 44
0.0000000001
 40
0.0
 40
0.0
 40
0.0
 40
0.0
 40
0.5149103404
 40
0.7596757362
 40
1.0
 40
1.0
 40
1.0
 40
1.0
 10
-18.5875574523
 20
178.7627842381
 30
0.0
 10
-19.2698030561
 20
178.5799045634
 30
0.0
 10
-20.3384692671
 20
178.4726468969
 30
0.0
 10
-21.6888367129
 20
178.7538305526
 30
0.0
 10
-22.303247208
 20
179.0251388568
 30
0.0
 10
-22.5887406392
 20
179.1899822729
 30
0.0
  0
SPLINE
  5
32C
100
AcDbEntity
  8
0
100
AcDbSpline
 62
7
  6
CONTINUOUS
 70
0
 71
3
 72
10
 73
6
 74
0
 42
0.0000001
 43
0.0000001
 44
0.0000000001
 40
0.0
 40
0.0
 40
0.0
 40
0.0
 40
0.5252520963
 40
0.7668039053
 40
1.0
 40
1.0
 40
1.0
 40
1.0
 10
-18.4222681904
 20
272.5792215009
 30
0.0
 10
-18.4222681904
 20
272.3422511767
 30
0.0
 10
-18.3528810164
 20
271.9856025863
 30
0.0
 10
-18.0959159013
 20
271.6087461466
 30
0.0
 10
-17.9260147013
 20
271.4719527814
 30
0.0
 10
-17.8349251493
 20
271.4193091748
 30
0.0
  0
SPLINE
  5
32D
100
AcDbEntity
  8
0
100
AcDbSpline
 62
7
  6
CONTINUOUS
 70
0
 71
3
 72
10
 73
6
 74
0
 42
0.0000001
 43
0.0000001
 44
0.0000000001
 40
0.0
 40
0.0
 40
0.0
 40
0.0
 40
0.5252520963
 40
0.7668039053
 40
1.0
 40
1.0
 40
1.0
 40
1.0
 10
-18.4222681904
 20
189.8391062921
 30
0.0
 10
-18.4222681904
 20
189.6021359679
 30
0.0
 10
-18.3528810164
 20
189.2454873775
 30
0.0
 10
-18.0959159013
 20
188.8686309378
 30
0.0
 10
-17.9260147013
 20
188.7318375726
 30
0.0
 10
-17.8349251493
 20
188.6791939659
 30
0.0
  0
SPLINE
  5
32E
100
AcDbEntity
  8
0
100
AcDbSpline
 62
7
  6
CONTINUOUS
 70
0
 71
3
 72
13
 73
9
 74
0
 42
0.0000001
 43
0.0000001
 44
0.0000000001
 40
0.0
 40
0.0
 40
0.0
 40
0.0
 40
0.1054199736
 40
0.2162072625
 40
0.3355571307
 40
0.4637457895
 40
0.7347562963
 40
1.0
 40
1.0
 40
1.0
 40
1.0
 10
-16.0344045176
 20
274.5366542989
 30
0.0
 10
-16.1443727812
 20
274.6002085253
 30
0.0
 10
-16.3966353284
 20
274.6885989206
 30
0.0
 10
-16.8078085597
 20
274.6822365405
 30
0.0
 10
-17.2233840678
 20
274.545481533
 30
0.0
 10
-17.7518066195
 20
274.201888185
 30
0.0
 10
-18.255703675
 20
273.5483955305
 30
0.0
 10
-18.4222681904
 20
272.8987932821
 30
0.0
 10
-18.4222681904
 20
272.5792215009
 30
0.0
  0
SPLINE
  5
32F
100
AcDbEntity
  8
0
100
AcDbSpline
 62
7
  6
CONTINUOUS
 70
0
 71
3
 72
11
 73
7
 74
0
 42
0.0000001
 43
0.0000001
 44
0.0000000001
 40
0.0
 40
0.0
 40
0.0
 40
0.0
 40
0.271772124
 40
0.5268740629
 40
0.7676338636
 40
1.0
 40
1.0
 40
1.0
 40
1.0
 10
-28.5772211642
 20
186.2963173469
 30
0.0
 10
-28.5772211642
 20
185.7494067546
 30
0.0
 10
-28.4708641473
 20
184.684625959
 30
0.0
 10
-27.96162304
 20
183.209653025
 30
0.0
 10
-27.1270091211
 20
181.9824952133
 30
0.0
 10
-26.3717880369
 20
181.3749260254
 30
0.0
 10
-25.9668338757
 20
181.1411061894
 30
0.0
  0
SPLINE
  5
330
100
AcDbEntity
  8
0
100
AcDbSpline
 62
7
  6
CONTINUOUS
 70
0
 71
3
 72
9
 73
5
 74
0
 42
0.0000001
 43
0.0000001
 44
0.0000000001
 40
0.0
 40
0.0
 40
0.0
 40
0.0
 40
0.2401140159
 40
1.0
 40
1.0
 40
1.0
 40
1.0
 10
-16.7010467216
 20
274.6642423675
 30
0.0
 10
-16.6797287661
 20
274.6165567638
 30
0.0
 10
-16.6028124838
 20
274.4126981138
 30
0.0
 10
-16.5730925553
 20
274.1924203658
 30
0.0
 10
-16.5730925553
 20
274.0271166115
 30
0.0
  0
SPLINE
  5
331
100
AcDbEntity
  8
0
100
AcDbSpline
 62
7
  6
CONTINUOUS
 70
0
 71
3
 72
12
 73
8
 74
0
 42
0.0000001
 43
0.0000001
 44
0.0000000001
 40
0.0
 40
0.0
 40
0.0
 40
0.0
 40
0.2349933756
 40
0.4894753556
 40
0.6202647794
 40
0.7503870015
 40
1.0
 40
1.0
 40
1.0
 40
1.0
 10
-21.9656506888
 20
285.5180540857
 30
0.0
 10
-22.8726047457
 20
285.2749400782
 30
0.0
 10
-24.6603673059
 20
284.3615642472
 30
0.0
 10
-26.412827009
 20
282.555320725
 30
0.0
 10
-27.4961534437
 20
280.7956425955
 30
0.0
 10
-28.2994635303
 20
278.9158124138
 30
0.0
 10
-28.5772211642
 20
277.3884985902
 30
0.0
 10
-28.5772211642
 20
276.3911094632
 30
0.0
  0
SPLINE
  5
332
100
AcDbEntity
  8
0
100
AcDbSpline
 62
7
  6
CONTINUOUS
 70
0
 71
3
 72
9
 73
5
 74
0
 42
0.0000001
 43
0.0000001
 44
0.0000000001
 40
0.0
 40
0.0
 40
0.0
 40
0.0
 40
0.2401140159
 40
1.0
 40
1.0
 40
1.0
 40
1.0
 10
-16.7010467216
 20
191.9241271587
 30
0.0
 10
-16.6797287661
 20
191.876441555
 30
0.0
 10
-16.6028124838
 20
191.672582905
 30
0.0
 10
-16.5730925553
 20
191.452305157
 30
0.0
 10
-16.5730925553
 20
191.2870014027
 30
0.0
  0
SPLINE
  5
333
100
AcDbEntity
  8
0
100
AcDbSpline
 62
7
  6
CONTINUOUS
 70
0
 71
3
 72
13
 73
9
 74
0
 42
0.0000001
 43
0.0000001
 44
0.0000000001
 40
0.0
 40
0.0
 40
0.0
 40
0.0
 40
0.1054199736
 40
0.2162072625
 40
0.3355571307
 40
0.4637457895
 40
0.7347562963
 40
1.0
 40
1.0
 40
1.0
 40
1.0
 10
-16.0344045176
 20
191.7965390901
 30
0.0
 10
-16.1443727812
 20
191.8600933165
 30
0.0
 10
-16.3966353284
 20
191.9484837118
 30
0.0
 10
-16.8078085597
 20
191.9421213317
 30
0.0
 10
-17.2233840678
 20
191.8053663242
 30
0.0
 10
-17.7518066195
 20
191.4617729761
 30
0.0
 10
-18.255703675
 20
190.8082803217
 30
0.0
 10
-18.4222681904
 20
190.1586780733
 30
0.0
 10
-18.4222681904
 20
189.8391062921
 30
0.0
  0
SPLINE
  5
334
100
AcDbEntity
  8
0
100
AcDbSpline
 62
7
  6
CONTINUOUS
 70
0
 71
3
 72
10
 73
6
 74
0
 42
0.0000001
 43
0.0000001
 44
0.0000000001
 40
0.0
 40
0.0
 40
0.0
 40
0.0
 40
0.5173663409
 40
0.7629149793
 40
1.0
 40
1.0
 40
1.0
 40
1.0
 10
-35.8137624039
 20
243.2110137762
 30
0.0
 10
-35.8137624039
 20
239.7981135548
 30
0.0
 10
-35.2367648102
 20
234.7256530864
 30
0.0
 10
-33.1607232482
 20
228.4473048912
 30
0.0
 10
-31.7264611822
 20
225.5880052024
 30
0.0
 10
-30.9167590946
 20
224.2499479217
 30
0.0
  0
SPLINE
  5
335
100
AcDbEntity
  8
0
100
AcDbSpline
 62
7
  6
CONTINUOUS
 70
0
 71
3
 72
9
 73
5
 74
0
 42
0.0000001
 43
0.0000001
 44
0.0000000001
 40
0.0
 40
0.0
 40
0.0
 40
0.0
 40
0.5102652013
 40
1.0
 40
1.0
 40
1.0
 40
1.0
 10
-30.9170103184
 20
264.7968635772
 30
0.0
 10
-32.4904395178
 20
261.353103012
 30
0.0
 10
-34.9164390514
 20
254.2812780412
 30
0.0
 10
-35.8137624039
 20
246.8448586208
 30
0.0
 10
-35.8137624039
 20
243.2110137762
 30
0.0
  0
SPLINE
  5
336
100
AcDbEntity
  8
0
100
AcDbSpline
 62
7
  6
CONTINUOUS
 70
0
 71
3
 72
11
 73
7
 74
0
 42
0.0000001
 43
0.0000001
 44
0.0000000001
 40
0.0
 40
0.0
 40
0.0
 40
0.0
 40
0.2353608636
 40
0.4799005411
 40
0.7347366712
 40
1.0
 40
1.0
 40
1.0
 40
1.0
 10
84.9093841076
 20
253.6537716436
 30
0.0
 10
85.967243072
 20
252.2037732729
 30
0.0
 10
87.8523045572
 20
249.0403746471
 30
0.0
 10
89.8698754702
 20
243.7876320994
 30
0.0
 10
91.08969746
 20
238.0634407304
 30
0.0
 10
91.350402327
 20
234.0908348047
 30
0.0
 10
91.350402327
 20
232.0679267818
 30
0.0
  0
SPLINE
  5
337
100
AcDbEntity
  8
0
100
AcDbSpline
 62
7
  6
CONTINUOUS
 70
0
 71
3
 72
11
 73
7
 74
0
 42
0.0000001
 43
0.0000001
 44
0.0000000001
 40
0.0
 40
0.0
 40
0.0
 40
0.0
 40
0.242677348
 40
0.4944245
 40
0.7490970629
 40
1.0
 40
1.0
 40
1.0
 40
1.0
 10
4.8563461135
 20
212.3806542149
 30
0.0
 10
4.7832487363
 20
216.8047736346
 30
0.0
 10
5.6916775764
 20
225.8583923504
 30
0.0
 10
9.8361486228
 20
238.9634452979
 30
0.0
 10
16.5217796349
 20
251.1418915625
 30
0.0
 10
22.5032188372
 20
258.2541941164
 30
0.0
 10
25.8015881043
 20
261.4241531263
 30
0.0
  0
SPLINE
  5
338
100
AcDbEntity
  8
0
100
AcDbSpline
 62
7
  6
CONTINUOUS
 70
0
 71
3
 72
11
 73
7
 74
0
 42
0.0000001
 43
0.0000001
 44
0.0000000001
 40
0.0
 40
0.0
 40
0.0
 40
0.0
 40
0.2354709096
 40
0.4800554488
 40
0.7348756313
 40
1.0
 40
1.0
 40
1.0
 40
1.0
 10
13.8561531104
 20
185.0726355198
 30
0.0
 10
12.4272692321
 20
186.8685147318
 30
0.0
 10
9.8627280681
 20
190.8192925912
 30
0.0
 10
7.0736794745
 20
197.452022845
 30
0.0
 10
5.3311738188
 20
204.7272757201
 30
0.0
 10
4.8990340581
 20
209.7970243769
 30
0.0
 10
4.8563461135
 20
212.3806542149
 30
0.0
  0
SPLINE
  5
339
100
AcDbEntity
  8
0
100
AcDbSpline
 62
7
  6
CONTINUOUS
 70
0
 71
3
 72
12
 73
8
 74
0
 42
0.0000001
 43
0.0000001
 44
0.0000000001
 40
0.0
 40
0.0
 40
0.0
 40
0.0
 40
0.2531637423
 40
0.3851336908
 40
0.5171819317
 40
0.7706988346
 40
1.0
 40
1.0
 40
1.0
 40
1.0
 10
-16.5730925553
 20
191.2870014027
 30
0.0
 10
-16.5730925553
 20
191.0406682292
 30
0.0
 10
-16.6483966066
 20
190.6631144888
 30
0.0
 10
-16.8630909081
 20
190.2065597025
 30
0.0
 10
-17.1491510083
 20
189.7897025031
 30
0.0
 10
-17.6033064005
 20
189.3827199088
 30
0.0
 10
-18.0604552424
 20
189.2148220115
 30
0.0
 10
-18.2824551823
 20
189.1925492698
 30
0.0
  0
SPLINE
  5
33A
100
AcDbEntity
  8
0
100
AcDbSpline
 62
7
  6
CONTINUOUS
 70
0
 71
3
 72
12
 73
8
 74
0
 42
0.0000001
 43
0.0000001
 44
0.0000000001
 40
0.0
 40
0.0
 40
0.0
 40
0.0
 40
0.2531637423
 40
0.3851336908
 40
0.5171819317
 40
0.7706988346
 40
1.0
 40
1.0
 40
1.0
 40
1.0
 10
-16.5730925553
 20
274.0271166115
 30
0.0
 10
-16.5730925553
 20
273.780783438
 30
0.0
 10
-16.6483966066
 20
273.4032296976
 30
0.0
 10
-16.8630909081
 20
272.9466749114
 30
0.0
 10
-17.1491510083
 20
272.5298177119
 30
0.0
 10
-17.6033064005
 20
272.1228351176
 30
0.0
 10
-18.0604552424
 20
271.9549372203
 30
0.0
 10
-18.2824551823
 20
271.9326644786
 30
0.0
  0
SPLINE
  5
33B
100
AcDbEntity
  8
0
100
AcDbSpline
 62
7
  6
CONTINUOUS
 70
0
 71
3
 72
9
 73
5
 74
0
 42
0.0000001
 43
0.0000001
 44
0.0000000001
 40
0.0
 40
0.0
 40
0.0
 40
0.0
 40
0.4853952587
 40
1.0
 40
1.0
 40
1.0
 40
1.0
 10
93.6445222407
 20
254.577798505
 30
0.0
 10
95.0021435118
 20
251.6137496182
 30
0.0
 10
97.0467920564
 20
245.1456708223
 30
0.0
 10
97.6701364715
 20
238.408591325
 30
0.0
 10
97.6701364715
 20
234.9522329723
 30
0.0
  0
SPLINE
  5
33C
100
AcDbEntity
  8
0
100
AcDbSpline
 62
7
  6
CONTINUOUS
 70
0
 71
3
 72
16
 73
12
 74
0
 42
0.0000001
 43
0.0000001
 44
0.0000000001
 40
0.0
 40
0.0
 40
0.0
 40
0.0
 40
0.1244699688
 40
0.2537085069
 40
0.3194968738
 40
0.3856059355
 40
0.5173601986
 40
0.6465168374
 40
0.7708552578
 40
0.8888454393
 40
1.0
 40
1.0
 40
1.0
 40
1.0
 10
97.6701364715
 20
234.9522329723
 30
0.0
 10
97.6701364715
 20
231.2368689125
 30
0.0
 10
96.9132091524
 20
223.650242192
 30
0.0
 10
94.2945177543
 20
214.4307845027
 30
0.0
 10
91.2448497091
 20
207.2487839429
 30
0.0
 10
87.5764472239
 20
200.277573758
 30
0.0
 10
81.97675634
 20
192.223084147
 30
0.0
 10
73.8938114626
 20
183.9665133021
 30
0.0
 10
64.8074533017
 20
177.4980483577
 30
0.0
 10
55.1288210957
 20
173.1247789883
 30
0.0
 10
48.3594453552
 20
171.7166054
 30
0.0
 10
45.0516417825
 20
171.4578856115
 30
0.0
  0
SPLINE
  5
33D
100
AcDbEntity
  8
0
100
AcDbSpline
 62
7
  6
CONTINUOUS
 70
0
 71
3
 72
11
 73
7
 74
0
 42
0.0000001
 43
0.0000001
 44
0.0000000001
 40
0.0
 40
0.0
 40
0.0
 40
0.0
 40
0.2428319297
 40
0.4887090363
 40
0.7403879256
 40
1.0
 40
1.0
 40
1.0
 40
1.0
 10
33.0800880957
 20
185.7829049301
 30
0.0
 10
34.2995766658
 20
185.0785818834
 30
0.0
 10
36.8838612847
 20
183.8741499221
 30
0.0
 10
41.0494857773
 20
182.7533982091
 30
0.0
 10
45.4390210232
 20
182.3298889192
 30
0.0
 10
48.4119461691
 20
182.5126686255
 30
0.0
 10
49.9041220352
 20
182.7131517788
 30
0.0
  0
SPLINE
  5
33E
100
AcDbEntity
  8
0
100
AcDbSpline
 62
7
  6
CONTINUOUS
 70
0
 71
3
 72
11
 73
7
 74
0
 42
0.0000001
 43
0.0000001
 44
0.0000000001
 40
0.0
 40
0.0
 40
0.0
 40
0.0
 40
0.2323661364
 40
0.4731259371
 40
0.728227876
 40
1.0
 40
1.0
 40
1.0
 40
1.0
 10
-22.5887406392
 20
179.1899822729
 30
0.0
 10
-22.9936948003
 20
179.423802109
 30
0.0
 10
-23.7489158846
 20
180.0313712969
 30
0.0
 10
-24.5835298035
 20
181.2585291085
 30
0.0
 10
-25.0927709107
 20
182.7335020425
 30
0.0
 10
-25.1991279277
 20
183.7982828381
 30
0.0
 10
-25.1991279277
 20
184.3451934305
 30
0.0
  0
SPLINE
  5
33F
100
AcDbEntity
  8
0
100
AcDbSpline
 62
7
  6
CONTINUOUS
 70
0
 71
3
 72
11
 73
7
 74
0
 42
0.0000001
 43
0.0000001
 44
0.0000000001
 40
0.0
 40
0.0
 40
0.0
 40
0.0
 40
0.2672654304
 40
0.5224660055
 40
0.7660710176
 40
1.0
 40
1.0
 40
1.0
 40
1.0
 10
88.6644518213
 20
231.3479430225
 30
0.0
 10
88.6644518213
 20
233.4834103899
 30
0.0
 10
88.3523576163
 20
237.666857607
 30
0.0
 10
86.8835486432
 20
243.6403986377
 30
0.0
 10
84.4601247855
 20
249.007514678
 30
0.0
 10
82.2068047152
 20
252.1273707539
 30
0.0
 10
80.9535015678
 20
253.5140186889
 30
0.0
  0
SPLINE
  5
340
100
AcDbEntity
  8
0
100
AcDbSpline
 62
7
  6
CONTINUOUS
 70
0
 71
3
 72
10
 73
6
 74
0
 42
0.0000001
 43
0.0000001
 44
0.0000000001
 40
0.0
 40
0.0
 40
0.0
 40
0.0
 40
0.5252520963
 40
0.7668039053
 40
1.0
 40
1.0
 40
1.0
 40
1.0
 10
-15.4470614764
 20
273.3767419727
 30
0.0
 10
-15.4470614764
 20
273.6137122969
 30
0.0
 10
-15.5164486504
 20
273.9703608873
 30
0.0
 10
-15.7734137655
 20
274.347217327
 30
0.0
 10
-15.9433149655
 20
274.4840106922
 30
0.0
 10
-16.0344045176
 20
274.5366542989
 30
0.0
  0
SPLINE
  5
341
100
AcDbEntity
  8
0
100
AcDbSpline
 62
7
  6
CONTINUOUS
 70
0
 71
3
 72
13
 73
9
 74
0
 42
0.0000001
 43
0.0000001
 44
0.0000000001
 40
0.0
 40
0.0
 40
0.0
 40
0.0
 40
0.1158149877
 40
0.2327337412
 40
0.3517716225
 40
0.473782908
 40
0.7285691958
 40
1.0
 40
1.0
 40
1.0
 40
1.0
 10
31.4545969357
 20
182.9685983208
 30
0.0
 10
30.3141715755
 20
183.6273152679
 30
0.0
 10
28.1196411563
 20
185.1279156641
 30
0.0
 10
25.1837736888
 20
187.865499942
 30
0.0
 10
22.6342969597
 20
191.0573390334
 30
0.0
 10
19.7560074516
 20
195.9243343124
 30
0.0
 10
17.3211664839
 20
202.9694613187
 30
0.0
 10
16.7223005857
 20
208.9768662027
 30
0.0
 10
16.7223005857
 20
212.0634549481
 30
0.0
  0
SPLINE
  5
342
100
AcDbEntity
  8
0
100
AcDbSpline
 62
7
  6
CONTINUOUS
 70
0
 71
3
 72
10
 73
6
 74
0
 42
0.0000001
 43
0.0000001
 44
0.0000000001
 40
0.0
 40
0.0
 40
0.0
 40
0.0
 40
0.5252520963
 40
0.7668039053
 40
1.0
 40
1.0
 40
1.0
 40
1.0
 10
-15.4470614764
 20
190.6366267639
 30
0.0
 10
-15.4470614764
 20
190.8735970881
 30
0.0
 10
-15.5164486504
 20
191.2302456785
 30
0.0
 10
-15.7734137655
 20
191.6071021182
 30
0.0
 10
-15.9433149655
 20
191.7438954834
 30
0.0
 10
-16.0344045176
 20
191.7965390901
 30
0.0
  0
SPLINE
  5
343
100
AcDbEntity
  8
0
100
AcDbSpline
 62
7
  6
CONTINUOUS
 70
0
 71
3
 72
11
 73
7
 74
0
 42
0.0000001
 43
0.0000001
 44
0.0000000001
 40
0.0
 40
0.0
 40
0.0
 40
0.0
 40
0.2694611049
 40
0.5248588782
 40
0.7672535611
 40
1.0
 40
1.0
 40
1.0
 40
1.0
 10
15.3147617372
 20
212.8764232466
 30
0.0
 10
15.3147617372
 20
210.2350422367
 30
0.0
 10
15.7563795766
 20
205.0750264531
 30
0.0
 10
17.8492592247
 20
197.796983603
 30
0.0
 10
21.2925674954
 20
191.4498005314
 30
0.0
 10
24.4655390379
 20
187.9625113066
 30
0.0
 10
26.2060157667
 20
186.4874099676
 30
0.0
  0
SPLINE
  5
344
100
AcDbEntity
  8
0
100
AcDbSpline
 62
7
  6
CONTINUOUS
 70
0
 71
3
 72
11
 73
7
 74
0
 42
0.0000001
 43
0.0000001
 44
0.0000000001
 40
0.0
 40
0.0
 40
0.0
 40
0.0
 40
0.2483341612
 40
0.503723213
 40
0.75713354
 40
1.0
 40
1.0
 40
1.0
 40
1.0
 10
38.2009554875
 20
257.2907068084
 30
0.0
 10
34.7571892663
 20
254.7616705912
 30
0.0
 10
28.404771838
 20
248.7262838454
 30
0.0
 10
21.145394389
 20
237.7882316008
 30
0.0
 10
16.4730666493
 20
225.6190121323
 30
0.0
 10
15.3147617372
 20
217.0550014779
 30
0.0
 10
15.3147617372
 20
212.8764232466
 30
0.0
  0
SPLINE
  5
345
100
AcDbEntity
  8
0
100
AcDbSpline
 62
7
  6
CONTINUOUS
 70
0
 71
3
 72
11
 73
7
 74
0
 42
0.0000001
 43
0.0000001
 44
0.0000000001
 40
0.0
 40
0.0
 40
0.0
 40
0.0
 40
0.2415146297
 40
0.4931126867
 40
0.7483240868
 40
1.0
 40
1.0
 40
1.0
 40
1.0
 10
7.587488744
 20
210.8050853546
 30
0.0
 10
7.587488744
 20
215.2526468462
 30
0.0
 10
8.6740310608
 20
224.356036647
 30
0.0
 10
13.1252098069
 20
237.4906620907
 30
0.0
 10
20.1387264429
 20
249.6684857636
 30
0.0
 10
26.3365690417
 20
256.7488809612
 30
0.0
 10
29.7398126525
 20
259.8950266871
 30
0.0
  0
SPLINE
  5
346
100
AcDbEntity
  8
0
100
AcDbSpline
 62
7
  6
CONTINUOUS
 70
0
 71
3
 72
11
 73
7
 74
0
 42
0.0000001
 43
0.0000001
 44
0.0000000001
 40
0.0
 40
0.0
 40
0.0
 40
0.0
 40
0.2348411211
 40
0.4790635226
 40
0.7340377136
 40
1.0
 40
1.0
 40
1.0
 40
1.0
 10
16.0973651148
 20
183.7777307378
 30
0.0
 10
14.7041585887
 20
185.5531181287
 30
0.0
 10
12.2146617995
 20
189.4637961745
 30
0.0
 10
9.5465474324
 20
196.0298407348
 30
0.0
 10
7.931859044
 20
203.2343163423
 30
0.0
 10
7.587488744
 20
208.2492444947
 30
0.0
 10
7.587488744
 20
210.8050853546
 30
0.0
  0
SPLINE
  5
347
100
AcDbEntity
  8
0
100
AcDbSpline
 62
7
  6
CONTINUOUS
 70
0
 71
3
 72
11
 73
7
 74
0
 42
0.0000001
 43
0.0000001
 44
0.0000000001
 40
0.0
 40
0.0
 40
0.0
 40
0.0
 40
0.2430462291
 40
0.4966716699
 40
0.7520709018
 40
1.0
 40
1.0
 40
1.0
 40
1.0
 10
16.7223005857
 20
212.0634549481
 30
0.0
 10
16.7223005857
 20
216.2951129671
 30
0.0
 10
17.9102159191
 20
224.9688608521
 30
0.0
 10
22.6939970439
 20
237.272172668
 30
0.0
 10
30.114572432
 20
248.2905533777
 30
0.0
 10
36.6011461371
 20
254.3307156172
 30
0.0
 10
40.1117323868
 20
256.8425779084
 30
0.0
  0
SPLINE
  5
348
100
AcDbEntity
  8
0
100
AcDbSpline
 62
7
  6
CONTINUOUS
 70
0
 71
3
 72
14
 73
10
 74
0
 42
0.0000001
 43
0.0000001
 44
0.0000000001
 40
0.0
 40
0.0
 40
0.0
 40
0.0
 40
0.1173840784
 40
0.2398121867
 40
0.3662027215
 40
0.4950596864
 40
0.6246632337
 40
0.7532258253
 40
1.0
 40
1.0
 40
1.0
 40
1.0
 10
58.1685808776
 20
184.9284847569
 30
0.0
 10
60.2947874166
 20
185.7826982604
 30
0.0
 10
64.4879283371
 20
187.9224650286
 30
0.0
 10
70.2770030522
 20
192.1607470097
 30
0.0
 10
75.5358487423
 20
197.3649597385
 30
0.0
 10
80.0949661626
 20
203.3650428176
 30
0.0
 10
83.810977208
 20
209.9735298594
 30
0.0
 10
87.4272173612
 20
219.160811886
 30
0.0
 10
88.6644518213
 20
226.5308153723
 30
0.0
 10
88.6644518213
 20
231.3479430225
 30
0.0
  0
SPLINE
  5
349
100
AcDbEntity
  8
0
100
AcDbSpline
 62
7
  6
CONTINUOUS
 70
0
 71
3
 72
13
 73
9
 74
0
 42
0.0000001
 43
0.0000001
 44
0.0000000001
 40
0.0
 40
0.0
 40
0.0
 40
0.0
 40
0.1054199736
 40
0.2162072625
 40
0.3355571307
 40
0.4637457895
 40
0.7347562963
 40
1.0
 40
1.0
 40
1.0
 40
1.0
 10
-17.8349251493
 20
271.4193091748
 30
0.0
 10
-17.7249568856
 20
271.3557549483
 30
0.0
 10
-17.4726943384
 20
271.267364553
 30
0.0
 10
-17.0615211071
 20
271.2737269331
 30
0.0
 10
-16.645945599
 20
271.4104819406
 30
0.0
 10
-16.1175230473
 20
271.7540752887
 30
0.0
 10
-15.6136259918
 20
272.4075679431
 30
0.0
 10
-15.4470614764
 20
273.0571701915
 30
0.0
 10
-15.4470614764
 20
273.3767419727
 30
0.0
  0
SPLINE
  5
34A
100
AcDbEntity
  8
0
100
AcDbSpline
 62
7
  6
CONTINUOUS
 70
0
 71
3
 72
12
 73
8
 74
0
 42
0.0000001
 43
0.0000001
 44
0.0000000001
 40
0.0
 40
0.0
 40
0.0
 40
0.0
 40
0.2496129985
 40
0.3797352206
 40
0.5105246444
 40
0.7650066244
 40
1.0
 40
1.0
 40
1.0
 40
1.0
 10
-25.1991279277
 20
274.4399855467
 30
0.0
 10
-25.1991279277
 20
275.4373746737
 30
0.0
 10
-24.9213702937
 20
276.9646884974
 30
0.0
 10
-24.1180602072
 20
278.8445186791
 30
0.0
 10
-23.0347337724
 20
280.6041968085
 30
0.0
 10
-21.2822740693
 20
282.4104403308
 30
0.0
 10
-19.4945115091
 20
283.3238161618
 30
0.0
 10
-18.5875574523
 20
283.5669301692
 30
0.0
  0
SPLINE
  5
34B
100
AcDbEntity
  8
0
100
AcDbSpline
 62
7
  6
CONTINUOUS
 70
0
 71
3
 72
11
 73
7
 74
0
 42
0.0000001
 43
0.0000001
 44
0.0000000001
 40
0.0
 40
0.0
 40
0.0
 40
0.0
 40
0.2646563024
 40
0.5174118908
 40
0.7611698132
 40
1.0
 40
1.0
 40
1.0
 40
1.0
 10
45.9989872564
 20
179.4324329024
 30
0.0
 10
46.0876524278
 20
179.0452686957
 30
0.0
 10
46.3258487027
 20
178.3008983274
 30
0.0
 10
46.8790354325
 20
177.2928601244
 30
0.0
 10
47.6043307552
 20
176.4501322905
 30
0.0
 10
48.1922336145
 20
176.014873222
 30
0.0
 10
48.50260404
 20
175.8355941825
 30
0.0
  0
SPLINE
  5
34C
100
AcDbEntity
  8
0
100
AcDbSpline
 62
7
  6
CONTINUOUS
 70
0
 71
3
 72
13
 73
9
 74
0
 42
0.0000001
 43
0.0000001
 44
0.0000000001
 40
0.0
 40
0.0
 40
0.0
 40
0.0
 40
0.1054199736
 40
0.2162072625
 40
0.3355571307
 40
0.4637457895
 40
0.7347562963
 40
1.0
 40
1.0
 40
1.0
 40
1.0
 10
-17.8349251493
 20
188.6791939659
 30
0.0
 10
-17.7249568856
 20
188.6156397395
 30
0.0
 10
-17.4726943384
 20
188.5272493442
 30
0.0
 10
-17.0615211071
 20
188.5336117243
 30
0.0
 10
-16.645945599
 20
188.6703667318
 30
0.0
 10
-16.1175230473
 20
189.0139600799
 30
0.0
 10
-15.6136259918
 20
189.6674527343
 30
0.0
 10
-15.4470614764
 20
190.3170549827
 30
0.0
 10
-15.4470614764
 20
190.6366267639
 30
0.0
  0
SPLINE
  5
34D
100
AcDbEntity
  8
0
100
AcDbSpline
 62
7
  6
CONTINUOUS
 70
0
 71
3
 72
12
 73
8
 74
0
 42
0.0000001
 43
0.0000001
 44
0.0000000001
 40
0.0
 40
0.0
 40
0.0
 40
0.0
 40
0.2472547381
 40
0.5025507846
 40
0.6304666265
 40
0.7568026674
 40
1.0
 40
1.0
 40
1.0
 40
1.0
 10
7.03227814
 20
276.8466377427
 30
0.0
 10
3.4290587248
 20
274.3617946982
 30
0.0
 10
-3.2427190103
 20
268.320199183
 30
0.0
 10
-9.6197741549
 20
259.0411131654
 30
0.0
 10
-13.4034343014
 20
250.8316599738
 30
0.0
 10
-16.1426642483
 20
242.4502277218
 30
0.0
 10
-17.0586317798
 20
235.8798128423
 30
0.0
 10
-17.0586317798
 20
231.5746941128
 30
0.0
  0
SPLINE
  5
34E
100
AcDbEntity
  8
0
100
AcDbSpline
 62
7
  6
CONTINUOUS
 70
0
 71
3
 72
13
 73
9
 74
0
 42
0.0000001
 43
0.0000001
 44
0.0000000001
 40
0.0
 40
0.0
 40
0.0
 40
0.0
 40
0.2714308043
 40
0.526217092
 40
0.6482283776
 40
0.7672662588
 40
0.8841850124
 40
1.0
 40
1.0
 40
1.0
 40
1.0
 10
-17.0586317798
 20
231.5746941128
 30
0.0
 10
-17.0586317798
 20
228.4881053672
 30
0.0
 10
-16.4597658816
 20
222.4807004827
 30
0.0
 10
-14.0249249136
 20
215.4355734762
 30
0.0
 10
-11.1466354051
 20
210.5685781967
 30
0.0
 10
-8.5971586746
 20
207.3767391064
 30
0.0
 10
-5.6612912111
 20
204.6391548241
 30
0.0
 10
-3.4667607863
 20
203.1385544372
 30
0.0
 10
-2.326335427
 20
202.4798374905
 30
0.0
  0
SPLINE
  5
34F
100
AcDbEntity
  8
0
100
AcDbSpline
 62
7
  6
CONTINUOUS
 70
0
 71
3
 72
14
 73
10
 74
0
 42
0.0000001
 43
0.0000001
 44
0.0000000001
 40
0.0
 40
0.0
 40
0.0
 40
0.0
 40
0.1052579527
 40
0.2158711715
 40
0.3350320969
 40
0.4630268614
 40
0.5976693619
 40
0.7352038426
 40
1.0
 40
1.0
 40
1.0
 40
1.0
 10
51.5356352776
 20
177.8369346624
 30
0.0
 10
51.8411589578
 20
177.6604687426
 30
0.0
 10
52.541817229
 20
177.4148293074
 30
0.0
 10
53.6840568082
 20
177.43245986
 30
0.0
 10
54.838220267
 20
177.8123506565
 30
0.0
 10
55.9216438267
 20
178.5160059017
 30
0.0
 10
56.8609584489
 20
179.4899928804
 30
0.0
 10
57.8170669139
 20
181.0230119354
 30
0.0
 10
58.1685830035
 20
182.3866403095
 30
0.0
 10
58.1685830035
 20
183.2742359639
 30
0.0
  0
SPLINE
  5
350
100
AcDbEntity
  8
0
100
AcDbSpline
 62
7
  6
CONTINUOUS
 70
0
 71
3
 72
11
 73
7
 74
0
 42
0.0000001
 43
0.0000001
 44
0.0000000001
 40
0.0
 40
0.0
 40
0.0
 40
0.0
 40
0.235737605
 40
0.47798309
 40
0.7318613986
 40
1.0
 40
1.0
 40
1.0
 40
1.0
 10
49.9101426814
 20
175.0226255362
 30
0.0
 10
49.5479659111
 20
175.2318296639
 30
0.0
 10
48.867145239
 20
175.7565688373
 30
0.0
 10
48.0676221081
 20
176.7960422461
 30
0.0
 10
47.5122973475
 20
178.0454389197
 30
0.0
 10
47.3220892587
 20
178.9593084793
 30
0.0
 10
47.2685587341
 20
179.4320309424
 30
0.0
  0
ENDSEC
  0
SECTION
  2
OBJECTS
  0
DICTIONARY
  5
C
100
AcDbDictionary
280
0
281
1
  3
ACAD_GROUP
350
D
  3
ACAD_MLINESTYLE
350
17
  3
ACAD_LAYOUT
350
1A
  3
ACAD_PLOTSETTINGS
350
19
  3
ACAD_PLOTSTYLENAME
350
E
  0
DICTIONARY
  5
D
102
{ACAD_REACTORS
330
C
102
}
100
AcDbDictionary
280
0
281
1
  0
ACDBDICTIONARYWDFLT
  5
E
102
{ACAD_REACTORS
330
C
102
}
100
AcDbDictionary
281
1
  3
Normal
350
F
100
AcDbDictionaryWithDefault
340
F
  0
DICTIONARY
  5
17
102
{ACAD_REACTORS
330
C
102
}
100
AcDbDictionary
280
0
281
1
  3
Standard
350
18
  0
DICTIONARY
  5
19
102
{ACAD_REACTORS
330
C
102
}
100
AcDbDictionary
281
1
  0
DICTIONARY
  5
1A
102
{ACAD_REACTORS
330
C
102
}
100
AcDbDictionary
281
1
  3
Model
350
351
  3
Layout1
350
352
  0
ACDBPLACEHOLDER
  5
F
102
{ACAD_REACTORS
330
E
102
}
  0
MLINESTYLE
  5
18
102
{ACAD_REACTORS
330
17
102
}
100
AcDbMlineStyle
  2
STANDARD
 70
0
  3

 62
256
 51
90.0
 52
90.0
 71
2
 49
0.5
 62
256
  6
BYLAYER
 49
-0.5
 62
256
  6
BYLAYER
  0
LAYOUT
  5
351
102
{ACAD_REACTORS
330
1A
102
}
100
AcDbPlotSettings
  1

  2
none_device
  4
ANSI_C_(22.00_x_17.00_Inches)
  6

 40
0.0
 41
0.0
 42
0.0
 43
0.0
 44
558.8
 45
431.8
 46
0.0
 47
0.0
 48
0.0
 49
0.0
140
0.0
141
0.0
142
1.0
143
1.0
 70
1024
 72
1
 73
0
 74
0
  7

 75
0
147
1.0
148
0.0
149
0.0
100
AcDbLayout
  1
Model
 70
0
 71
0
 10
0.0
 20
0.0
 11
558.8
 21
431.8
 12
0.0
 22
0.0
 32
0.0
 14
0.0
 24
0.0
 34
0.0
 15
0.0
 25
0.0
 35
0.0
146
0.0
 13
0.0
 23
0.0
 33
0.0
 16
1.0
 26
0.0
 36
0.0
 17
0.0
 27
1.0
 37
0.0
 76
0
330
216
345
0
346
0
  0
LAYOUT
  5
352
102
{ACAD_REACTORS
330
1A
102
}
100
AcDbPlotSettings
  1

  2
none_device
  4
ANSI_C_(22.00_x_17.00_Inches)
  6

 40
0.0
 41
0.0
 42
0.0
 43
0.0
 44
558.8
 45
431.8
 46
0.0
 47
0.0
 48
0.0
 49
0.0
140
0.0
141
0.0
142
1.0
143
1.0
 70
0
 72
1
 73
0
 74
0
  7

 75
0
147
1.0
148
0.0
149
0.0
100
AcDbLayout
  1
Layout1
 70
0
 71
1
 10
0.0
 20
0.0
 11
558.8
 21
431.8
 12
0.0
 22
0.0
 32
0.0
 14
0.0
 24
0.0
 34
0.0
 15
0.0
 25
0.0
 35
0.0
146
0.0
 13
0.0
 23
0.0
 33
0.0
 16
1.0
 26
0.0
 36
0.0
 17
0.0
 27
1.0
 37
0.0
 76
0
330
217
345
0
346
0
  0
ENDSEC
  0
EOF
