999
DXF file: Y:\3D PRATIKA-KAEDRA_OLGA\TRAVAIL_PHASE_11\CAD3D\81695_3D-Simplified\81695_2D-isometric.dxf
999
Pro/ENGINEER 2018260 by Parametric Technology Corporation
  0
SECTION
  2
HEADER
  9
$ACADVER
  1
AC1027
  9
$DWGCODEPAGE
  3
ANSI_1252
  9
$EXTMAX
 10
558.8
 20
431.8
 30
0.0
  9
$EXTMIN
 10
0.0
 20
0.0
 30
0.0
  9
$LIMMIN
 10
0.0
 20
0.0
  9
$LIMMAX
 10
558.8
 20
431.8
  9
$VIEWCTR
 10
279.4
 20
215.9
  9
$VIEWSIZE
 40
431.8
  9
$CLAYER
  8
0
  9
$LTSCALE
 40
30.734
  9
$CELTYPE
  6
BYLAYER
  9
$DIMSCALE
 40
1.0
  9
$DIMASZ
 40
0.1875
  9
$DIMEXO
 40
0.0625
  9
$DIMDLI
 40
21.2344
  9
$DIMEXE
 40
0.125
  9
$DIMCEN
 40
5.0292
  9
$DIMLFAC
 40
1.0
  9
$DIMBLK
  1
_CLOSED
  9
$DIMALT
 70
0
  9
$DIMALTF
 40
0.0393700787
  9
$DIMTXT
 40
0.15625
  9
$DIMTOL
 70
0
  9
$DIMLIM
 70
0
  9
$DIMTFAC
 40
1.0
  9
$DIMGAP
 40
0.625
  9
$DIMDSEP
 70
46
  9
$AUNITS
 70
0
  9
$PDMODE
 70
3
  9
$PDSIZE
 40
0.3125
  9
$HANDSEED
  5
350
  9
$TILEMODE
 70
1
  9
$MEASUREMENT
 70
1
  9
$INSUNITS
 70
4
  0
ENDSEC
  0
SECTION
  2
CLASSES
  0
CLASS
  1
ACDBDICTIONARYWDFLT
  2
AcDbDictionaryWithDefault
  3
AutoCAD 2000
 90
0
 91
1
280
0
281
0
  0
CLASS
  1
ACDBPLACEHOLDER
  2
AcDbPlaceHolder
  3
AutoCAD 2000
 90
0
 91
1
280
0
281
0
  0
CLASS
  1
LAYOUT
  2
AcDbLayout
  3
AutoCAD 2000
 90
0
 91
0
280
0
281
0
  0
ENDSEC
  0
SECTION
  2
TABLES
  0
TABLE
  2
VPORT
  5
8
100
AcDbSymbolTable
 70
2
  0
VPORT
  5
1F4
100
AcDbSymbolTableRecord
100
AcDbViewportTableRecord
  2
*ACTIVE
 70
0
 10
0.0
 20
0.0
 11
1.0
 21
1.0
 12
279.4
 22
215.9
 13
0.0
 23
0.0
 14
1.0
 24
1.0
 15
0.0
 25
0.0
 16
0.0
 26
0.0
 36
1.0
 17
0.0
 27
0.0
 37
0.0
 40
431.8
 41
1.2941176471
 42
50.0
 43
0.0
 44
0.0
 50
0.0
 51
0.0
 71
0
 72
100
 73
1
 74
1
 75
0
 76
0
 77
0
 78
0
  0
ENDTAB
  0
TABLE
  2
LTYPE
  5
5
100
AcDbSymbolTable
 70
6
  0
LTYPE
  5
14
100
AcDbSymbolTableRecord
100
AcDbLinetypeTableRecord
  2
BYBLOCK
 70
0
  3

 72
65
 73
0
 40
0.0
  0
LTYPE
  5
15
100
AcDbSymbolTableRecord
100
AcDbLinetypeTableRecord
  2
BYLAYER
 70
0
  3

 72
65
 73
0
 40
0.0
  0
LTYPE
  5
16
100
AcDbSymbolTableRecord
100
AcDbLinetypeTableRecord
  2
CONTINUOUS
 70
64
  3
Solid line
 72
65
 73
0
 40
0.0
  0
LTYPE
  5
1F5
100
AcDbSymbolTableRecord
100
AcDbLinetypeTableRecord
  2
CENTER
 70
64
  3
____ _ ____ _ ____ _ ____ _ ____ _ ____ _ ____
 72
65
 73
4
 40
0.6
 49
0.375
 74
0
 49
-0.075
 74
0
 49
0.075
 74
0
 49
-0.075
 74
0
  0
LTYPE
  5
1F6
100
AcDbSymbolTableRecord
100
AcDbLinetypeTableRecord
  2
HIDDEN
 70
64
  3
- - - - - - - - - - - - - - - - - - - -
 72
65
 73
2
 40
0.2
 49
0.1
 74
0
 49
-0.1
 74
0
  0
LTYPE
  5
1F7
100
AcDbSymbolTableRecord
100
AcDbLinetypeTableRecord
  2
PHANTOM
 70
64
  3
_____ _ _ _____ _ _ _____ _ _ _____
 72
65
 73
6
 40
0.8
 49
0.45
 74
0
 49
-0.05
 74
0
 49
0.1
 74
0
 49
-0.05
 74
0
 49
0.1
 74
0
 49
-0.05
 74
0
  0
LTYPE
  5
1F8
100
AcDbSymbolTableRecord
100
AcDbLinetypeTableRecord
  2
DOT
 70
64
  3
. . . . . . . . . . . . . . . . . . . .
 72
65
 73
2
 40
0.2
 49
0.1
 74
0
 49
-0.1
 74
0
  0
LTYPE
  5
1F9
100
AcDbSymbolTableRecord
100
AcDbLinetypeTableRecord
  2
DASHED
 70
64
  3
- - - - - - - - - - - - - - - - - - - -
 72
65
 73
2
 40
0.2
 49
0.1
 74
0
 49
-0.1
 74
0
  0
ENDTAB
  0
TABLE
  2
LAYER
  5
2
100
AcDbSymbolTable
 70
36
  0
LAYER
  5
10
100
AcDbSymbolTableRecord
100
AcDbLayerTableRecord
  2
0
 70
0
 62
7
  6
CONTINUOUS
370
-3
390
F
  0
LAYER
  5
1FA
100
AcDbSymbolTableRecord
100
AcDbLayerTableRecord
  2
DEFAULT_1
 70
0
 62
7
  6
CENTER
370
-3
390
F
  0
LAYER
  5
1FB
100
AcDbSymbolTableRecord
100
AcDbLayerTableRecord
  2
DEFAULT_2
 70
0
 62
8
  6
HIDDEN
370
-3
390
F
  0
LAYER
  5
1FC
100
AcDbSymbolTableRecord
100
AcDbLayerTableRecord
  2
DEFAULT_3
 70
0
 62
7
  6
PHANTOM
370
-3
390
F
  0
LAYER
  5
1FD
100
AcDbSymbolTableRecord
100
AcDbLayerTableRecord
  2
01_ALL_DTM_PLN
 70
0
 62
7
  6
CONTINUOUS
370
-3
390
F
  0
LAYER
  5
1FE
100
AcDbSymbolTableRecord
100
AcDbLayerTableRecord
  2
01__ASM_ALL_DTM_PLN
 70
0
 62
7
  6
CONTINUOUS
370
-3
390
F
  0
LAYER
  5
1FF
100
AcDbSymbolTableRecord
100
AcDbLayerTableRecord
  2
01__ASM_DEF_DTM_PLN
 70
0
 62
7
  6
CONTINUOUS
370
-3
390
F
  0
LAYER
  5
200
100
AcDbSymbolTableRecord
100
AcDbLayerTableRecord
  2
01___PRT_ALL_DTM_PLN
 70
0
 62
7
  6
CONTINUOUS
370
-3
390
F
  0
LAYER
  5
201
100
AcDbSymbolTableRecord
100
AcDbLayerTableRecord
  2
01___PRT_DEF_DTM_PLN
 70
0
 62
7
  6
CONTINUOUS
370
-3
390
F
  0
LAYER
  5
202
100
AcDbSymbolTableRecord
100
AcDbLayerTableRecord
  2
02_ALL_AXES
 70
0
 62
7
  6
CONTINUOUS
370
-3
390
F
  0
LAYER
  5
203
100
AcDbSymbolTableRecord
100
AcDbLayerTableRecord
  2
02__ASM_ALL_AXES
 70
0
 62
7
  6
CONTINUOUS
370
-3
390
F
  0
LAYER
  5
204
100
AcDbSymbolTableRecord
100
AcDbLayerTableRecord
  2
02___PRT_ALL_AXES
 70
0
 62
7
  6
CONTINUOUS
370
-3
390
F
  0
LAYER
  5
205
100
AcDbSymbolTableRecord
100
AcDbLayerTableRecord
  2
03_ALL_CURVES
 70
0
 62
7
  6
CONTINUOUS
370
-3
390
F
  0
LAYER
  5
206
100
AcDbSymbolTableRecord
100
AcDbLayerTableRecord
  2
03__ASM_ALL_CURVES
 70
0
 62
7
  6
CONTINUOUS
370
-3
390
F
  0
LAYER
  5
207
100
AcDbSymbolTableRecord
100
AcDbLayerTableRecord
  2
03___PRT_ALL_CURVES
 70
0
 62
7
  6
CONTINUOUS
370
-3
390
F
  0
LAYER
  5
208
100
AcDbSymbolTableRecord
100
AcDbLayerTableRecord
  2
04_ALL_DTM_PNT
 70
0
 62
7
  6
CONTINUOUS
370
-3
390
F
  0
LAYER
  5
209
100
AcDbSymbolTableRecord
100
AcDbLayerTableRecord
  2
04__ASM_ALL_DTM_PNT
 70
0
 62
7
  6
CONTINUOUS
370
-3
390
F
  0
LAYER
  5
20A
100
AcDbSymbolTableRecord
100
AcDbLayerTableRecord
  2
04___PRT_ALL_DTM_PNT
 70
0
 62
7
  6
CONTINUOUS
370
-3
390
F
  0
LAYER
  5
20B
100
AcDbSymbolTableRecord
100
AcDbLayerTableRecord
  2
05_ALL_DTM_CSYS
 70
0
 62
7
  6
CONTINUOUS
370
-3
390
F
  0
LAYER
  5
20C
100
AcDbSymbolTableRecord
100
AcDbLayerTableRecord
  2
05__ASM_ALL_DTM_CSYS
 70
0
 62
7
  6
CONTINUOUS
370
-3
390
F
  0
LAYER
  5
20D
100
AcDbSymbolTableRecord
100
AcDbLayerTableRecord
  2
05__ASM_DEF_DTM_CSYS
 70
0
 62
7
  6
CONTINUOUS
370
-3
390
F
  0
LAYER
  5
20E
100
AcDbSymbolTableRecord
100
AcDbLayerTableRecord
  2
05___PRT_ALL_DTM_CSYS
 70
0
 62
7
  6
CONTINUOUS
370
-3
390
F
  0
LAYER
  5
20F
100
AcDbSymbolTableRecord
100
AcDbLayerTableRecord
  2
05___PRT_DEF_DTM_CSYS
 70
0
 62
7
  6
CONTINUOUS
370
-3
390
F
  0
LAYER
  5
210
100
AcDbSymbolTableRecord
100
AcDbLayerTableRecord
  2
06_ALL_SURFS
 70
0
 62
7
  6
CONTINUOUS
370
-3
390
F
  0
LAYER
  5
211
100
AcDbSymbolTableRecord
100
AcDbLayerTableRecord
  2
06__ASM_ALL_SURFS
 70
0
 62
7
  6
CONTINUOUS
370
-3
390
F
  0
LAYER
  5
212
100
AcDbSymbolTableRecord
100
AcDbLayerTableRecord
  2
06___PRT_ALL_SURFS
 70
0
 62
7
  6
CONTINUOUS
370
-3
390
F
  0
LAYER
  5
213
100
AcDbSymbolTableRecord
100
AcDbLayerTableRecord
  2
07__ASM_ALL_SKELETONS
 70
0
 62
7
  6
CONTINUOUS
370
-3
390
F
  0
ENDTAB
  0
TABLE
  2
STYLE
  5
3
100
AcDbSymbolTable
 70
1
  0
STYLE
  5
11
100
AcDbSymbolTableRecord
100
AcDbTextStyleTableRecord
  2
STANDARD
 70
0
 40
0.0
 41
0.8
 50
0.0
 71
0
 42
0.2
  3
txt
  4

  0
STYLE
  5
214
100
AcDbSymbolTableRecord
100
AcDbTextStyleTableRecord
  2
TEXTSTYLE_1
 70
0
 40
0.0
 41
0.8
 50
0.0
 71
0
 42
0.2
  3
gdt
  4

  0
ENDTAB
  0
TABLE
  2
VIEW
  5
6
100
AcDbSymbolTable
 70
0
  0
ENDTAB
  0
TABLE
  2
UCS
  5
7
100
AcDbSymbolTable
 70
0
  0
ENDTAB
  0
TABLE
  2
APPID
  5
9
100
AcDbSymbolTable
 70
1
  0
APPID
  5
215
100
AcDbSymbolTableRecord
100
AcDbRegAppTableRecord
  2
ACAD
 70
0
  0
ENDTAB
  0
TABLE
  2
BLOCK_RECORD
  5
1
100
AcDbSymbolTable
 70
0
  0
BLOCK_RECORD
  5
216
100
AcDbSymbolTableRecord
100
AcDbBlockTableRecord
  2
*Model_Space
  0
BLOCK_RECORD
  5
217
100
AcDbSymbolTableRecord
100
AcDbBlockTableRecord
  2
*Paper_Space
  0
BLOCK_RECORD
  5
218
100
AcDbSymbolTableRecord
100
AcDbBlockTableRecord
  2
_CLOSED
  0
ENDTAB
  0
TABLE
  2
DIMSTYLE
  5
A
100
AcDbSymbolTable
 70
1
100
AcDbDimStyleTable
 71
0
  0
DIMSTYLE
105
219
100
AcDbSymbolTableRecord
100
AcDbDimStyleTableRecord
  2
STANDARD
 70
0
  3

  4

 40
1.0
 41
0.1875
 42
0.0625
 43
0.38
 44
0.125
 45
0.0
 46
0.0
 47
0.01
 48
0.01
140
0.15625
141
0.09
142
0.0
143
25.4
144
1.0
145
0.0
146
1.0
147
0.625
 71
0.0
 72
0.0
 73
1
 74
1
 75
0
 76
0
 77
0
 78
8
 79
2
170
0
171
1
172
0
173
0
174
0
175
0
176
0
177
0
178
0
270
2
179
2
271
2
272
2
273
2
274
2
275
0
280
0
281
0
282
0
283
1
284
8
285
0
286
0
287
3
288
0
340
11
278
46
341
218
342
218
343
218
344
218
  0
ENDTAB
  0
ENDSEC
  0
SECTION
  2
BLOCKS
  0
BLOCK
  5
20
100
AcDbEntity
  8
0
100
AcDbBlockBegin
  2
*Model_Space
 70
0
 10
0.0
 20
0.0
 30
0.0
  3
*Model_Space
  1

  0
ENDBLK
  5
21
100
AcDbEntity
  8
0
100
AcDbBlockEnd
  0
BLOCK
  5
1C
100
AcDbEntity
  8
0
100
AcDbBlockBegin
  2
*Paper_Space
 70
0
 10
0.0
 20
0.0
 30
0.0
  3
*Paper_Space
  1

  0
ENDBLK
  5
1D
100
AcDbEntity
  8
0
100
AcDbBlockEnd
  0
BLOCK
  5
21A
100
AcDbEntity
  8
0
100
AcDbBlockBegin
  2
_CLOSED
 70
64
 10
0.0
 20
0.0
  3
_CLOSED
  1

  0
LINE
  5
21B
100
AcDbEntity
  8
0
  6
BYBLOCK
 62
0
100
AcDbLine
 10
0.0
 20
0.0
 11
-1.0
 21
0.1666666667
  0
LINE
  5
21C
100
AcDbEntity
  8
0
  6
BYBLOCK
 62
0
100
AcDbLine
 10
-1.0
 20
0.1666666667
 11
-1.0
 21
-0.1666666667
  0
LINE
  5
21D
100
AcDbEntity
  8
0
  6
BYBLOCK
 62
0
100
AcDbLine
 10
-1.0
 20
-0.1666666667
 11
0.0
 21
0.0
  0
LINE
  5
21E
100
AcDbEntity
  8
0
  6
BYBLOCK
 62
0
100
AcDbLine
 10
-1.0
 20
0.0
 11
0.0
 21
0.0
  0
ENDBLK
  5
21F
100
AcDbEntity
  8
0
  6
BYBLOCK
 62
0
100
AcDbBlockEnd
  0
ENDSEC
  0
SECTION
  2
ENTITIES
  0
LINE
  5
220
100
AcDbEntity
  8
0
100
AcDbLine
 62
7
  6
CONTINUOUS
 10
16.0974020813
 20
182.806289432
 11
26.2060399966
 21
185.5159652476
  0
LINE
  5
221
100
AcDbEntity
  8
0
100
AcDbLine
 62
7
  6
CONTINUOUS
 10
12.482996956
 20
186.1199654822
 11
-18.5875574523
 21
177.7913330232
  0
LINE
  5
222
100
AcDbEntity
  8
0
100
AcDbLine
 62
7
  6
CONTINUOUS
 10
7.03227814
 20
279.0937895866
 11
8.6375574814
 21
279.6799734273
  0
LINE
  5
223
100
AcDbEntity
  8
0
100
AcDbLine
 62
7
  6
CONTINUOUS
 10
-22.5887584098
 20
178.2185002123
 11
-28.2189138041
 21
181.4703734065
  0
LINE
  5
224
100
AcDbEntity
  8
0
100
AcDbLine
 62
7
  6
CONTINUOUS
 10
-30.8292833219
 20
186.6256154097
 11
-25.1991279277
 21
183.3737422156
  0
LINE
  5
225
100
AcDbEntity
  8
0
100
AcDbLine
 62
7
  6
CONTINUOUS
 10
-48.6977051201
 20
274.330417868
 11
-48.6960044505
 21
274.3345244409
  0
LINE
  5
226
100
AcDbEntity
  8
0
100
AcDbLine
 62
7
  6
CONTINUOUS
 10
-48.6979183202
 20
274.3305044876
 11
-48.6960044505
 21
274.3345244409
  0
LINE
  5
227
100
AcDbEntity
  8
0
100
AcDbLine
 62
7
  6
CONTINUOUS
 10
-48.6960044505
 20
274.3345244409
 11
-48.6943201208
 21
274.3376309112
  0
LINE
  5
228
100
AcDbEntity
  8
0
100
AcDbLine
 62
7
  6
CONTINUOUS
 10
13.8558266369
 20
184.10109803
 11
16.0974020813
 21
182.806289432
  0
LINE
  5
229
100
AcDbEntity
  8
0
100
AcDbLine
 62
7
  6
CONTINUOUS
 10
30.3619734819
 20
203.0591175376
 11
31.2311261273
 21
202.6489632891
  0
LINE
  5
22A
100
AcDbEntity
  8
0
100
AcDbLine
 62
7
  6
CONTINUOUS
 10
43.1449182983
 20
171.5877224699
 11
45.0516417825
 21
170.4864343966
  0
LINE
  5
22B
100
AcDbEntity
  8
0
100
AcDbLine
 62
7
  6
CONTINUOUS
 10
31.454573552
 20
181.9971066774
 11
25.6296660747
 21
185.3614650578
  0
LINE
  5
22C
100
AcDbEntity
  8
0
100
AcDbLine
 62
7
  6
CONTINUOUS
 10
7.6197575122
 20
195.7636537687
 11
-2.3263588136
 21
201.5083458421
  0
LINE
  5
22D
100
AcDbEntity
  8
0
100
AcDbLine
 62
7
  6
CONTINUOUS
 10
49.9101129688
 20
174.0511230301
 11
48.5025741203
 21
174.8640913286
  0
LINE
  5
22E
100
AcDbEntity
  8
0
100
AcDbLine
 62
7
  6
CONTINUOUS
 10
43.0386418974
 20
178.019957106
 11
42.0537203742
 21
178.5888294861
  0
LINE
  5
22F
100
AcDbEntity
  8
0
100
AcDbLine
 62
7
  6
CONTINUOUS
 10
-30.8292833219
 20
221.0313684486
 11
-41.2565720653
 21
227.0539767742
  0
LINE
  5
230
100
AcDbEntity
  8
0
100
AcDbLine
 62
7
  6
CONTINUOUS
 10
22.1318729835
 20
197.782432082
 11
49.9041199092
 21
181.7416952632
  0
LINE
  5
231
100
AcDbEntity
  8
0
100
AcDbLine
 62
7
  6
CONTINUOUS
 10
34.435505349
 20
191.7080555717
 11
21.6359102587
 21
199.1008639855
  0
LINE
  5
232
100
AcDbEntity
  8
0
100
AcDbLine
 62
7
  6
CONTINUOUS
 10
46.7756695883
 20
197.4373379443
 11
47.4015437082
 21
197.1421728948
  0
LINE
  5
233
100
AcDbEntity
  8
0
100
AcDbLine
 62
7
  6
CONTINUOUS
 10
46.5965670804
 20
188.9865662341
 11
58.1685830035
 21
182.302784749
  0
LINE
  5
234
100
AcDbEntity
  8
0
100
AcDbLine
 62
7
  6
CONTINUOUS
 10
58.1685830035
 20
183.9570342065
 11
48.9709476439
 21
189.2694166354
  0
LINE
  5
235
100
AcDbEntity
  8
0
100
AcDbLine
 62
7
  6
CONTINUOUS
 10
-30.8292833219
 20
276.720407526
 11
-30.8292833219
 21
186.6256154097
  0
LINE
  5
236
100
AcDbEntity
  8
0
100
AcDbLine
 62
7
  6
CONTINUOUS
 10
-28.5772211642
 20
275.4196582483
 11
-28.5772211642
 21
185.324866132
  0
LINE
  5
237
100
AcDbEntity
  8
0
100
AcDbLine
 62
7
  6
CONTINUOUS
 10
-25.1991279277
 20
273.4685343318
 11
-25.1991279277
 21
183.3737422156
  0
LINE
  5
238
100
AcDbEntity
  8
0
100
AcDbLine
 62
7
  6
CONTINUOUS
 10
-18.5875574523
 20
282.5954789543
 11
9.1510044843
 21
290.0309525631
  0
LINE
  5
239
100
AcDbEntity
  8
0
100
AcDbLine
 62
7
  6
CONTINUOUS
 10
9.1510044843
 20
292.8875928926
 11
-21.9656506888
 21
284.5466028708
  0
LINE
  5
23A
100
AcDbEntity
  8
0
100
AcDbLine
 62
7
  6
CONTINUOUS
 10
9.1510044843
 20
294.792019779
 11
-24.2177128465
 21
285.8473521485
  0
LINE
  5
23B
100
AcDbEntity
  8
0
100
AcDbLine
 62
7
  6
CONTINUOUS
 10
-50.0760646005
 20
271.0287547317
 11
-51.9661495573
 21
271.4794951836
  0
LINE
  5
23C
100
AcDbEntity
  8
0
100
AcDbLine
 62
7
  6
CONTINUOUS
 10
53.9778313119
 20
209.9068554372
 11
53.351957164
 21
210.2020204972
  0
LINE
  5
23D
100
AcDbEntity
  8
0
100
AcDbLine
 62
7
  6
CONTINUOUS
 10
48.5512025132
 20
220.0472809172
 11
48.8684858756
 21
219.8976486522
  0
LINE
  5
23E
100
AcDbEntity
  8
0
100
AcDbLine
 62
7
  6
CONTINUOUS
 10
52.202298387
 20
226.3686335352
 11
51.8850149648
 21
226.5182658225
  0
LINE
  5
23F
100
AcDbEntity
  8
0
100
AcDbLine
 62
7
  6
CONTINUOUS
 10
40.364741867
 20
220.3774862807
 11
39.4955892216
 21
220.7876405291
  0
LINE
  5
240
100
AcDbEntity
  8
0
100
AcDbLine
 62
7
  6
CONTINUOUS
 10
63.7668522697
 20
212.0134784449
 11
64.6360049151
 21
211.6033241964
  0
LINE
  5
241
100
AcDbEntity
  8
0
100
AcDbLine
 62
7
  6
CONTINUOUS
 10
36.7417376354
 20
226.6110043752
 11
37.6108902808
 21
226.2008501267
  0
LINE
  5
242
100
AcDbEntity
  8
0
100
AcDbLine
 62
7
  6
CONTINUOUS
 10
-51.9661495573
 20
271.4794951836
 11
-50.277102939
 21
270.5039332254
  0
LINE
  5
243
100
AcDbEntity
  8
0
100
AcDbLine
 62
7
  6
CONTINUOUS
 10
57.3870881163
 20
232.1451037634
 11
58.2562407617
 21
231.734949515
  0
LINE
  5
244
100
AcDbEntity
  8
0
100
AcDbLine
 62
7
  6
CONTINUOUS
 10
73.7696206548
 20
229.331847188
 11
72.9004680094
 21
229.7420014364
  0
LINE
  5
245
100
AcDbEntity
  8
0
100
AcDbLine
 62
7
  6
CONTINUOUS
 10
46.7445060204
 20
243.9293731183
 11
45.875353375
 21
244.3395273667
  0
LINE
  5
246
100
AcDbEntity
  8
0
100
AcDbLine
 62
7
  6
CONTINUOUS
 10
-47.5524471786
 20
276.9278536553
 11
-47.4542596375
 21
276.8711423551
  0
LINE
  5
247
100
AcDbEntity
  8
0
100
AcDbLine
 62
7
  6
CONTINUOUS
 10
-47.0611657211
 20
277.6195003855
 11
-48.7502123394
 21
278.5950623437
  0
LINE
  5
248
100
AcDbEntity
  8
0
100
AcDbLine
 62
7
  6
CONTINUOUS
 10
-25.1991279277
 20
273.4685343318
 11
-30.8292833219
 21
276.720407526
  0
LINE
  5
249
100
AcDbEntity
  8
0
100
AcDbLine
 62
7
  6
CONTINUOUS
 10
7.03227814
 20
275.8751865278
 11
7.03227814
 21
279.0937895866
  0
LINE
  5
24A
100
AcDbEntity
  8
0
100
AcDbLine
 62
7
  6
CONTINUOUS
 10
8.6375574814
 20
283.5735631913
 11
8.6375574814
 21
277.597888204
  0
LINE
  5
24B
100
AcDbEntity
  8
0
100
AcDbLine
 62
7
  6
CONTINUOUS
 10
9.1510044843
 20
286.7694810464
 11
9.1510044843
 21
302.3981694747
  0
LINE
  5
24C
100
AcDbEntity
  8
0
100
AcDbLine
 62
7
  6
CONTINUOUS
 10
8.6375574814
 20
283.5735631913
 11
9.1510044843
 21
286.7694810464
  0
LINE
  5
24D
100
AcDbEntity
  8
0
100
AcDbLine
 62
7
  6
CONTINUOUS
 10
67.3898565014
 20
249.4634725065
 11
66.520703856
 21
249.873626755
  0
LINE
  5
24E
100
AcDbEntity
  8
0
100
AcDbLine
 62
7
  6
CONTINUOUS
 10
-24.2177128465
 20
285.8473521485
 11
-18.5875574523
 21
282.5954789543
  0
LINE
  5
24F
100
AcDbEntity
  8
0
100
AcDbLine
 62
7
  6
CONTINUOUS
 10
7.03227814
 20
275.8751865278
 11
9.2068961762
 21
274.6191675364
  0
LINE
  5
250
100
AcDbEntity
  8
0
100
AcDbLine
 62
7
  6
CONTINUOUS
 10
11.0181794565
 20
297.0719237696
 11
10.9600084908
 21
298.0208448611
  0
LINE
  5
251
100
AcDbEntity
  8
0
100
AcDbLine
 62
7
  6
CONTINUOUS
 10
10.2313236033
 20
293.5953027983
 11
10.2313236033
 21
277.9666143699
  0
LINE
  5
252
100
AcDbEntity
  8
0
100
AcDbLine
 62
7
  6
CONTINUOUS
 10
10.9134381711
 20
276.8913035886
 11
10.9134381711
 21
292.5199920169
  0
LINE
  5
253
100
AcDbEntity
  8
0
100
AcDbLine
 62
7
  6
CONTINUOUS
 10
20.472923665
 20
284.5498748707
 11
20.472923665
 21
268.9211864424
  0
LINE
  5
254
100
AcDbEntity
  8
0
100
AcDbLine
 62
7
  6
CONTINUOUS
 10
22.1489299599
 20
268.0304395804
 11
22.1489299599
 21
283.6591280088
  0
LINE
  5
255
100
AcDbEntity
  8
0
100
AcDbLine
 62
7
  6
CONTINUOUS
 10
32.1375574814
 20
298.2829170062
 11
32.1375574814
 21
299.6619189264
  0
LINE
  5
256
100
AcDbEntity
  8
0
100
AcDbLine
 62
7
  6
CONTINUOUS
 10
38.7322368192
 20
277.7351384791
 11
38.7322368192
 21
262.1064500508
  0
LINE
  5
257
100
AcDbEntity
  8
0
100
AcDbLine
 62
7
  6
CONTINUOUS
 10
9.1510044843
 20
296.0988682129
 11
1.256188109
 21
300.658767531
  0
LINE
  5
258
100
AcDbEntity
  8
0
100
AcDbLine
 62
7
  6
CONTINUOUS
 10
43.1449182983
 20
171.5877224699
 11
43.0300790373
 21
178.5382125698
  0
LINE
  5
259
100
AcDbEntity
  8
0
100
AcDbLine
 62
7
  6
CONTINUOUS
 10
41.1469780758
 20
261.5358752433
 11
41.1469780758
 21
277.1645636716
  0
LINE
  5
25A
100
AcDbEntity
  8
0
100
AcDbLine
 62
7
  6
CONTINUOUS
 10
45.0516417825
 20
178.501185222
 11
45.0516417825
 21
170.4864343966
  0
LINE
  5
25B
100
AcDbEntity
  8
0
100
AcDbLine
 62
7
  6
CONTINUOUS
 10
49.9041199092
 20
180.0874501052
 11
49.9041199092
 21
181.7416952632
  0
LINE
  5
25C
100
AcDbEntity
  8
0
100
AcDbLine
 62
7
  6
CONTINUOUS
 10
58.1685830035
 20
183.9570342065
 11
58.1685830035
 21
182.302784749
  0
LINE
  5
25D
100
AcDbEntity
  8
0
100
AcDbLine
 62
7
  6
CONTINUOUS
 10
62.229448159
 20
274.1885754633
 11
62.229448159
 21
258.5598870349
  0
LINE
  5
25E
100
AcDbEntity
  8
0
100
AcDbLine
 62
7
  6
CONTINUOUS
 10
65.0153019109
 20
258.3963491241
 11
65.0153019109
 21
274.0250375524
  0
LINE
  5
25F
100
AcDbEntity
  8
0
100
AcDbLine
 62
7
  6
CONTINUOUS
 10
87.387320261
 20
274.4501178927
 11
87.387320261
 21
258.8214294644
  0
LINE
  5
260
100
AcDbEntity
  8
0
100
AcDbLine
 62
7
  6
CONTINUOUS
 10
90.1201655281
 20
259.0898256146
 11
90.1201655281
 21
274.718514043
  0
LINE
  5
261
100
AcDbEntity
  8
0
100
AcDbLine
 62
7
  6
CONTINUOUS
 10
110.3757951543
 20
278.4799483034
 11
110.3757951543
 21
262.8512598751
  0
LINE
  5
262
100
AcDbEntity
  8
0
100
AcDbLine
 62
7
  6
CONTINUOUS
 10
112.6395810179
 20
263.5107292056
 11
112.6395810179
 21
279.1394176339
  0
LINE
  5
263
100
AcDbEntity
  8
0
100
AcDbLine
 62
7
  6
CONTINUOUS
 10
114.1375574814
 20
298.2829170062
 11
114.1375574814
 21
299.6619189264
  0
LINE
  5
264
100
AcDbEntity
  8
0
100
AcDbLine
 62
7
  6
CONTINUOUS
 10
127.6950859273
 20
285.6645615459
 11
127.6950859273
 21
270.0358731175
  0
LINE
  5
265
100
AcDbEntity
  8
0
100
AcDbLine
 62
7
  6
CONTINUOUS
 10
129.145171511
 20
270.9860174008
 11
129.145171511
 21
286.6147058291
  0
LINE
  5
266
100
AcDbEntity
  8
0
100
AcDbLine
 62
7
  6
CONTINUOUS
 10
137.6375574814
 20
283.5735631913
 11
137.1241104784
 21
280.3776453363
  0
LINE
  5
267
100
AcDbEntity
  8
0
100
AcDbLine
 62
7
  6
CONTINUOUS
 10
135.2569355062
 20
301.3325794697
 11
135.3151064719
 21
300.3836583782
  0
LINE
  5
268
100
AcDbEntity
  8
0
100
AcDbLine
 62
7
  6
CONTINUOUS
 10
136.0437913594
 20
304.809200441
 11
136.0437913594
 21
297.926251789
  0
LINE
  5
269
100
AcDbEntity
  8
0
100
AcDbLine
 62
7
  6
CONTINUOUS
 10
136.7084875596
 20
294.9101653826
 11
136.7084875596
 21
279.2814769542
  0
LINE
  5
26A
100
AcDbEntity
  8
0
100
AcDbLine
 62
7
  6
CONTINUOUS
 10
137.1241104784
 20
280.3776453363
 11
137.1241104784
 21
296.0063337646
  0
LINE
  5
26B
100
AcDbEntity
  8
0
100
AcDbLine
 62
7
  6
CONTINUOUS
 10
137.6375574814
 20
283.5735631913
 11
137.6375574814
 21
277.597888204
  0
LINE
  5
26C
100
AcDbEntity
  8
0
100
AcDbLine
 62
7
  6
CONTINUOUS
 10
131.4829127284
 20
298.3439930841
 11
131.5004085485
 21
298.2868518148
  0
LINE
  5
26D
100
AcDbEntity
  8
0
100
AcDbLine
 62
7
  6
CONTINUOUS
 10
131.5227919247
 20
298.3449775355
 11
131.5317583152
 21
298.287594756
  0
ARC
  5
26E
100
AcDbEntity
  8
0
100
AcDbCircle
 62
7
  6
CONTINUOUS
 10
20.0543859941
 20
240.704233017
 40
57.5687047303
100
AcDbArc
 50
152.2938869067
 51
155.5006883077
  0
ARC
  5
26F
100
AcDbEntity
  8
0
100
AcDbCircle
 62
7
  6
CONTINUOUS
 10
21.0557485311
 20
240.0807671393
 40
57.1205148329
100
AcDbArc
 50
155.3025596305
 51
155.5047072777
  0
ARC
  5
270
100
AcDbEntity
  8
0
100
AcDbCircle
 62
7
  6
CONTINUOUS
 10
20.9845378516
 20
240.1130473205
 40
57.042329487
100
AcDbArc
 50
155.5045561598
 51
156.775845397
  0
ARC
  5
271
100
AcDbEntity
  8
0
100
AcDbCircle
 62
7
  6
CONTINUOUS
 10
20.3837834866
 20
240.3601745058
 40
56.3928060857
100
AcDbArc
 50
156.7658957743
 51
160.7847374453
  0
ARC
  5
272
100
AcDbEntity
  8
0
100
AcDbCircle
 62
7
  6
CONTINUOUS
 10
1.9477359341
 20
251.16930415
 40
55.6909806193
100
AcDbArc
 50
151.6441801641
 51
155.5012268219
  0
ARC
  5
273
100
AcDbEntity
  8
0
100
AcDbCircle
 62
7
  6
CONTINUOUS
 10
19.0684964546
 20
240.8154186621
 40
55.000966306
100
AcDbArc
 50
160.781609179
 51
163.4634317238
  0
ARC
  5
274
100
AcDbEntity
  8
0
100
AcDbCircle
 62
7
  6
CONTINUOUS
 10
1.2749843518
 20
251.4760503301
 40
54.9515971699
100
AcDbArc
 50
155.5013909786
 51
159.7408891056
  0
ARC
  5
275
100
AcDbEntity
  8
0
100
AcDbCircle
 62
7
  6
CONTINUOUS
 10
17.5517598851
 20
241.2489671319
 40
53.4235673019
100
AcDbArc
 50
163.4461772257
 51
167.6116441373
  0
ARC
  5
276
100
AcDbEntity
  8
0
100
AcDbCircle
 62
7
  6
CONTINUOUS
 10
15.715643467
 20
241.6490267565
 40
51.5443757766
100
AcDbArc
 50
167.6081204132
 51
170.4166920598
  0
ARC
  5
277
100
AcDbEntity
  8
0
100
AcDbCircle
 62
7
  6
CONTINUOUS
 10
13.6335636403
 20
241.9784852082
 40
49.4365083067
100
AcDbArc
 50
170.3914645738
 51
174.7694261507
  0
ARC
  5
278
100
AcDbEntity
  8
0
100
AcDbCircle
 62
7
  6
CONTINUOUS
 10
11.3265491611
 20
242.1858677042
 40
47.1201948185
100
AcDbArc
 50
174.7648083378
 51
177.7470703602
  0
ARC
  5
279
100
AcDbEntity
  8
0
100
AcDbCircle
 62
7
  6
CONTINUOUS
 10
9.7836425897
 20
242.243403602
 40
45.5762191927
100
AcDbArc
 50
177.7430957368
 51
180.038888524
  0
ARC
  5
27A
100
AcDbEntity
  8
0
100
AcDbCircle
 62
7
  6
CONTINUOUS
 10
8.3161046818
 20
242.237055017
 40
44.1086776386
100
AcDbArc
 50
180.0319357727
 51
182.3833554046
  0
ARC
  5
27B
100
AcDbEntity
  8
0
100
AcDbCircle
 62
7
  6
CONTINUOUS
 10
6.4959934429
 20
242.1501580196
 40
42.2865287001
100
AcDbArc
 50
182.3682725101
 51
185.5613605415
  0
ARC
  5
27C
100
AcDbEntity
  8
0
100
AcDbCircle
 62
7
  6
CONTINUOUS
 10
4.0550984243
 20
241.8849855166
 40
39.8314341027
100
AcDbArc
 50
185.5219856436
 51
190.5717150409
  0
ARC
  5
27D
100
AcDbEntity
  8
0
100
AcDbCircle
 62
7
  6
CONTINUOUS
 10
38.5704757425
 20
280.6494262856
 40
37.8076597886
100
AcDbArc
 50
121.9204052207
 51
124.5478940188
  0
ARC
  5
27E
100
AcDbEntity
  8
0
100
AcDbCircle
 62
7
  6
CONTINUOUS
 10
1.7252286474
 20
241.4463246546
 40
37.4606322398
100
AcDbArc
 50
190.5659596206
 51
194.0296808505
  0
ARC
  5
27F
100
AcDbEntity
  8
0
100
AcDbCircle
 62
7
  6
CONTINUOUS
 10
20.3164478714
 20
298.7915607918
 40
11.7334884933
100
AcDbArc
 50
156.3718274357
 51
162.098751275
  0
ARC
  5
280
100
AcDbEntity
  8
0
100
AcDbCircle
 62
7
  6
CONTINUOUS
 10
-18.1218642466
 20
274.9726412261
 40
10.5166869896
100
AcDbArc
 50
148.9692049133
 51
151.9772609539
  0
ARC
  5
281
100
AcDbEntity
  8
0
100
AcDbCircle
 62
7
  6
CONTINUOUS
 10
-18.1961054343
 20
275.0184758843
 40
10.4294427731
100
AcDbArc
 50
139.1856883605
 51
148.9747207661
  0
ARC
  5
282
100
AcDbEntity
  8
0
100
AcDbCircle
 62
7
  6
CONTINUOUS
 10
-18.2171340839
 20
275.0186715003
 40
10.4109612582
100
AcDbArc
 50
151.9545532282
 51
158.7502782363
  0
ARC
  5
283
100
AcDbEntity
  8
0
100
AcDbCircle
 62
7
  6
CONTINUOUS
 10
-18.5358169354
 20
275.1412367467
 40
10.0695240991
100
AcDbArc
 50
158.7430555808
 51
163.7541677428
  0
ARC
  5
284
100
AcDbEntity
  8
0
100
AcDbCircle
 62
7
  6
CONTINUOUS
 10
-18.5241690025
 20
275.2900310051
 40
10.0036667363
100
AcDbArc
 50
135.9540836785
 51
139.1346910918
  0
ARC
  5
285
100
AcDbEntity
  8
0
100
AcDbCircle
 62
7
  6
CONTINUOUS
 10
-18.7918878867
 20
275.5524774645
 40
9.6287734506
100
AcDbArc
 50
128.9035208972
 51
135.9690466512
  0
ARC
  5
286
100
AcDbEntity
  8
0
100
AcDbCircle
 62
7
  6
CONTINUOUS
 10
-18.9719231567
 20
275.2633762902
 40
9.6166630199
100
AcDbArc
 50
163.725913972
 51
168.951153327
  0
ARC
  5
287
100
AcDbEntity
  8
0
100
AcDbCircle
 62
7
  6
CONTINUOUS
 10
23.8994411518
 20
296.8863659512
 40
9.2626628381
100
AcDbArc
 50
171.3207462713
 51
173.5834361385
  0
ARC
  5
288
100
AcDbEntity
  8
0
100
AcDbCircle
 62
7
  6
CONTINUOUS
 10
23.8711179099
 20
298.2814376663
 40
9.0834994692
100
AcDbArc
 50
174.3446354671
 51
179.9906689716
  0
ARC
  5
289
100
AcDbEntity
  8
0
100
AcDbCircle
 62
7
  6
CONTINUOUS
 10
23.8459327524
 20
298.2830010071
 40
9.0583141917
100
AcDbArc
 50
180.0005314936
 51
184.0003728905
  0
ARC
  5
28A
100
AcDbEntity
  8
0
100
AcDbCircle
 62
7
  6
CONTINUOUS
 10
-19.2399088388
 20
276.0929135999
 40
8.9268463488
100
AcDbArc
 50
123.4074726304
 51
128.8441370362
  0
ARC
  5
28B
100
AcDbEntity
  8
0
100
AcDbCircle
 62
7
  6
CONTINUOUS
 10
-19.5923098677
 20
276.6204546827
 40
8.2924401668
100
AcDbArc
 50
117.6587511689
 51
123.3817883219
  0
ARC
  5
28C
100
AcDbEntity
  8
0
100
AcDbCircle
 62
7
  6
CONTINUOUS
 10
-22.0731826952
 20
185.0993347164
 40
6.483908028
100
AcDbArc
 50
192.2133061319
 51
198.9895523098
  0
ARC
  5
28D
100
AcDbEntity
  8
0
100
AcDbCircle
 62
7
  6
CONTINUOUS
 10
-23.3807958853
 20
184.4548108515
 40
5.0173328176
100
AcDbArc
 50
216.5482037257
 51
221.5862891359
  0
ARC
  5
28E
100
AcDbEntity
  8
0
100
AcDbCircle
 62
7
  6
CONTINUOUS
 10
-23.6641045642
 20
184.1577618862
 40
4.6051799186
100
AcDbArc
 50
238.2279585957
 51
239.9979021222
  0
ARC
  5
28F
100
AcDbEntity
  8
0
100
AcDbCircle
 62
7
  6
CONTINUOUS
 10
-44.5761830542
 20
272.3706274963
 40
4.5639697002
100
AcDbArc
 50
154.5690044609
 51
155.5067811635
  0
ARC
  5
290
100
AcDbEntity
  8
0
100
AcDbCircle
 62
7
  6
CONTINUOUS
 10
45.0712418704
 20
328.8112967231
 40
50.6374438823
100
AcDbArc
 50
240.9368506672
 51
243.0845519797
  0
ARC
  5
291
100
AcDbEntity
  8
0
100
AcDbCircle
 62
7
  6
CONTINUOUS
 10
23.4916017813
 20
301.2528491389
 40
15.3125110063
100
AcDbArc
 50
210.0055773689
 51
214.7717500301
  0
ARC
  5
292
100
AcDbEntity
  8
0
100
AcDbCircle
 62
7
  6
CONTINUOUS
 10
24.4470827204
 20
299.3312872418
 40
9.8218145423
100
AcDbArc
 50
193.8877370103
 51
194.896551402
  0
ARC
  5
293
100
AcDbEntity
  8
0
100
AcDbCircle
 62
7
  6
CONTINUOUS
 10
73.2991397677
 20
164.9599507279
 40
159.6181508127
100
AcDbArc
 50
86.1395570531
 51
87.1412882838
  0
ARC
  5
294
100
AcDbEntity
  8
0
100
AcDbCircle
 62
7
  6
CONTINUOUS
 10
72.330719809
 20
173.0294406795
 40
151.5224444042
100
AcDbArc
 50
95.0899184235
 51
96.1282859478
  0
ARC
  5
295
100
AcDbEntity
  8
0
100
AcDbCircle
 62
7
  6
CONTINUOUS
 10
78.5663803643
 20
149.1719308603
 40
125.5883478941
100
AcDbArc
 50
85.9724042448
 51
91.1070112168
  0
ARC
  5
296
100
AcDbEntity
  8
0
100
AcDbCircle
 62
7
  6
CONTINUOUS
 10
78.4543621021
 20
151.2760985039
 40
123.4824294236
100
AcDbArc
 50
91.0739070438
 51
96.2480927661
  0
ARC
  5
297
100
AcDbEntity
  8
0
100
AcDbCircle
 62
7
  6
CONTINUOUS
 10
80.4376087097
 20
211.351627482
 40
112.6279863742
100
AcDbArc
 50
76.0743882603
 51
77.3366607846
  0
ARC
  5
298
100
AcDbEntity
  8
0
100
AcDbCircle
 62
7
  6
CONTINUOUS
 10
61.4871501473
 20
227.872993308
 40
95.5417555815
100
AcDbArc
 50
105.5344840041
 51
106.9485290184
  0
ARC
  5
299
100
AcDbEntity
  8
0
100
AcDbCircle
 62
7
  6
CONTINUOUS
 10
101.2038730923
 20
269.5932065162
 40
50.6374438823
100
AcDbArc
 50
60.9368506672
 51
63.0845519797
  0
ARC
  5
29A
100
AcDbEntity
  8
0
100
AcDbCircle
 62
7
  6
CONTINUOUS
 10
143.7559145651
 20
279.9665790985
 40
16.2732598916
100
AcDbArc
 50
136.6613225022
 51
137.6403053921
  0
ARC
  5
29B
100
AcDbEntity
  8
0
100
AcDbCircle
 62
7
  6
CONTINUOUS
 10
122.7835131814
 20
297.1516541004
 40
15.3125110063
100
AcDbArc
 50
30.0055773689
 51
34.7717500301
  0
ARC
  5
29C
100
AcDbEntity
  8
0
100
AcDbCircle
 62
7
  6
CONTINUOUS
 10
122.3396057351
 20
296.8805482016
 40
9.2992176586
100
AcDbArc
 50
8.1458044306
 51
8.7027379731
  0
ARC
  5
29D
100
AcDbEntity
  8
0
100
AcDbCircle
 62
7
  6
CONTINUOUS
 10
122.3667282989
 20
298.286271427
 40
9.1207687195
100
AcDbArc
 50
352.2641363472
 51
359.9789280247
  0
ARC
  5
29E
100
AcDbEntity
  8
0
100
AcDbCircle
 62
7
  6
CONTINUOUS
 10
122.4086884039
 20
298.2820759473
 40
9.0788080367
100
AcDbArc
 50
0.0053080392
 51
5.7321535013
  0
ARC
  5
29F
100
AcDbEntity
  8
0
100
AcDbCircle
 62
7
  6
CONTINUOUS
 10
73.1238012681
 20
420.5785209074
 40
162.3847425289
100
AcDbArc
 50
267.1378094669
 51
275.0392296168
  0
ARC
  5
2A0
100
AcDbEntity
  8
0
100
AcDbCircle
 62
7
  6
CONTINUOUS
 10
72.9759751951
 20
433.4445525136
 40
159.618150815
100
AcDbArc
 50
266.1395570531
 51
267.1412882838
  0
ARC
  5
2A1
100
AcDbEntity
  8
0
100
AcDbCircle
 62
7
  6
CONTINUOUS
 10
73.9443951539
 20
425.3750625578
 40
151.5224444021
100
AcDbArc
 50
275.0899184235
 51
276.1282859478
  0
ARC
  5
2A2
100
AcDbEntity
  8
0
100
AcDbCircle
 62
7
  6
CONTINUOUS
 10
67.7087345985
 20
449.232572379
 40
125.5883478941
100
AcDbArc
 50
265.9724042448
 51
271.1070112168
  0
ARC
  5
2A3
100
AcDbEntity
  8
0
100
AcDbCircle
 62
7
  6
CONTINUOUS
 10
67.8207528606
 20
447.1284047353
 40
123.4824294235
100
AcDbArc
 50
271.0739070438
 51
276.2480927661
  0
ARC
  5
2A4
100
AcDbEntity
  8
0
100
AcDbCircle
 62
7
  6
CONTINUOUS
 10
65.8375062527
 20
387.0528757559
 40
112.6279863728
100
AcDbArc
 50
256.0743882603
 51
257.3366607846
  0
ARC
  5
2A5
100
AcDbEntity
  8
0
100
AcDbCircle
 62
7
  6
CONTINUOUS
 10
83.2437348569
 20
360.3797862325
 40
101.2322189297
100
AcDbArc
 50
285.0043938923
 51
285.5463623033
  0
ARC
  5
2A6
100
AcDbEntity
  8
0
100
AcDbCircle
 62
7
  6
CONTINUOUS
 10
84.7879648154
 20
370.5315099313
 40
95.5417555815
100
AcDbArc
 50
285.5344840041
 51
286.9485290184
  0
ARC
  5
2A7
100
AcDbEntity
  8
0
100
AcDbCircle
 62
7
  6
CONTINUOUS
 10
107.7046392204
 20
317.7550769535
 40
37.8076597883
100
AcDbArc
 50
301.9204052207
 51
304.5478940188
  0
ARC
  5
2A8
100
AcDbEntity
  8
0
100
AcDbCircle
 62
7
  6
CONTINUOUS
 10
125.9586670913
 20
299.6129424474
 40
11.7334884933
100
AcDbArc
 50
336.3718274357
 51
342.0987512751
  0
ARC
  5
2A9
100
AcDbEntity
  8
0
100
AcDbCircle
 62
7
  6
CONTINUOUS
 10
121.8227981323
 20
299.3327424935
 40
9.8272702661
100
AcDbArc
 50
344.8361192475
 51
346.0778749861
  0
SPLINE
  5
2AA
100
AcDbEntity
  8
0
100
AcDbSpline
 62
7
  6
CONTINUOUS
 70
0
 71
3
 72
9
 73
5
 74
0
 42
0.0000001
 43
0.0000001
 44
0.0000000001
 40
0.0
 40
0.0
 40
0.0
 40
0.0
 40
0.5145737826
 40
1.0
 40
1.0
 40
1.0
 40
1.0
 10
-50.0317861068
 20
273.078584743
 30
0.0
 10
-50.0317861068
 20
272.8570465921
 30
0.0
 10
-49.9919058897
 20
272.4252085898
 30
0.0
 10
-49.8611254158
 20
272.0105387466
 30
0.0
 10
-49.7742762406
 20
271.8204499306
 30
0.0
  0
SPLINE
  5
2AB
100
AcDbEntity
  8
0
100
AcDbSpline
 62
7
  6
CONTINUOUS
 70
0
 71
3
 72
14
 73
10
 74
0
 42
0.0000001
 43
0.0000001
 44
0.0000000001
 40
0.0
 40
0.0
 40
0.0
 40
0.0
 40
0.1178849699
 40
0.2406293175
 40
0.367136157
 40
0.4959352505
 40
0.6253531269
 40
0.753662167
 40
1.0
 40
1.0
 40
1.0
 40
1.0
 10
-47.5524471786
 20
276.9278536553
 30
0.0
 10
-47.7264765843
 20
276.853261894
 30
0.0
 10
-48.0689121134
 20
276.6696769476
 30
0.0
 10
-48.5406730932
 20
276.3124613754
 30
0.0
 10
-48.9681935104
 20
275.8783563733
 30
0.0
 10
-49.3381217993
 20
275.3810974453
 30
0.0
 10
-49.6391926835
 20
274.8357322074
 30
0.0
 10
-49.9318765608
 20
274.0794493515
 30
0.0
 10
-50.0317861068
 20
273.4742412009
 30
0.0
 10
-50.0317861068
 20
273.078584743
 30
0.0
  0
SPLINE
  5
2AC
100
AcDbEntity
  8
0
100
AcDbSpline
 62
7
  6
CONTINUOUS
 70
0
 71
3
 72
25
 73
21
 74
0
 42
0.0000001
 43
0.0000001
 44
0.0000000001
 40
0.0
 40
0.0
 40
0.0
 40
0.0
 40
0.0157125681
 40
0.0319505943
 40
0.0491799816
 40
0.0677686538
 40
0.1099229086
 40
0.159582338
 40
0.2167964664
 40
0.2809689453
 40
0.3510776773
 40
0.4258113477
 40
0.5036622451
 40
0.5829993212
 40
0.6621349856
 40
0.7393892249
 40
0.8131527543
 40
0.8819578545
 40
0.9445506783
 40
1.0
 40
1.0
 40
1.0
 40
1.0
 10
32.1375580926
 20
299.6619189264
 30
0.0
 10
32.137566454
 20
300.0910825732
 30
0.0
 10
32.2275533497
 20
300.96614431
 30
0.0
 10
32.6269595281
 20
302.2566093064
 30
0.0
 10
33.2852229026
 20
303.5244783422
 30
0.0
 10
34.5509178952
 20
305.2459604948
 30
0.0
 10
36.8106308235
 20
307.2855471477
 30
0.0
 10
40.2886518245
 20
309.4267056753
 30
0.0
 10
44.5692178368
 20
311.3264245106
 30
0.0
 10
49.5524151852
 20
312.9396686908
 30
0.0
 10
55.1202561628
 20
314.227822639
 30
0.0
 10
61.1362170793
 20
315.157959864
 30
0.0
 10
67.4514283483
 20
315.7063161772
 30
0.0
 10
73.9086010497
 20
315.8587327936
 30
0.0
 10
80.3465449068
 20
315.6112888707
 30
0.0
 10
86.6046064224
 20
314.9703297763
 30
0.0
 10
92.5269192328
 20
313.9524589807
 30
0.0
 10
97.9675923282
 20
312.5834653232
 30
0.0
 10
102.7924330371
 20
310.8986801602
 30
0.0
 10
105.7103837849
 20
309.5022730581
 30
0.0
 10
107.0218561679
 20
308.744790966
 30
0.0
  0
SPLINE
  5
2AD
100
AcDbEntity
  8
0
100
AcDbSpline
 62
7
  6
CONTINUOUS
 70
0
 71
3
 72
26
 73
22
 74
0
 42
0.0000001
 43
0.0000001
 44
0.0000000001
 40
0.0
 40
0.0
 40
0.0
 40
0.0
 40
0.0157791383
 40
0.0322979817
 40
0.0499635002
 40
0.069084216
 40
0.0898735882
 40
0.1124604221
 40
0.1631884365
 40
0.2212301839
 40
0.285927782
 40
0.3562465633
 40
0.4308919244
 40
0.5083927121
 40
0.5871698774
 40
0.6655979243
 40
0.7420639821
 40
0.8150271875
 40
0.8830841034
 40
0.9450372234
 40
1.0
 40
1.0
 40
1.0
 40
1.0
 10
14.8318310876
 20
299.1765669041
 30
0.0
 10
14.8917738126
 20
299.7823220867
 30
0.0
 10
15.1403116353
 20
301.012677715
 30
0.0
 10
15.8701172113
 20
302.8068263553
 30
0.0
 10
16.9521752378
 20
304.5651099867
 30
0.0
 10
18.3760091087
 20
306.2778970774
 30
0.0
 10
20.1316323156
 20
307.9374647735
 30
0.0
 10
23.0128850304
 20
310.1541786983
 30
0.0
 10
27.4205692519
 20
312.6973474928
 30
0.0
 10
33.60121731
 20
315.2937510518
 30
0.0
 10
40.7296909232
 20
317.4864311286
 30
0.0
 10
48.6372587192
 20
319.2221772298
 30
0.0
 10
57.1365289525
 20
320.4584150383
 30
0.0
 10
66.0228092482
 20
321.1643138616
 30
0.0
 10
75.0813787821
 20
321.3222468122
 30
0.0
 10
84.0928559225
 20
320.9282820341
 30
0.0
 10
92.8391894787
 20
319.9922335651
 30
0.0
 10
101.1091386415
 20
318.5375865216
 30
0.0
 10
108.7051098226
 20
316.6000442787
 30
0.0
 10
115.4454141005
 20
314.2280835818
 30
0.0
 10
119.5246446828
 20
312.2698658954
 30
0.0
 10
121.3606996364
 20
311.2093946529
 30
0.0
  0
SPLINE
  5
2AE
100
AcDbEntity
  8
0
100
AcDbSpline
 62
7
  6
CONTINUOUS
 70
0
 71
3
 72
13
 73
9
 74
0
 42
0.0000001
 43
0.0000001
 44
0.0000000001
 40
0.0
 40
0.0
 40
0.0
 40
0.0
 40
0.30745118
 40
0.444374449
 40
0.5707356865
 40
0.7961193261
 40
0.8995508988
 40
1.0
 40
1.0
 40
1.0
 40
1.0
 10
107.0218561679
 20
308.744790966
 30
0.0
 10
108.091104674
 20
308.1272128866
 30
0.0
 10
109.5864309901
 20
307.1341292364
 30
0.0
 10
111.2975135242
 20
305.602460306
 30
0.0
 10
112.6097792505
 20
304.14100333
 30
0.0
 10
113.5754465346
 20
302.54988134
 30
0.0
 10
114.0582676384
 20
300.8862217431
 30
0.0
 10
114.1375596027
 20
300.0653426063
 30
0.0
 10
114.1375575171
 20
299.6619189264
 30
0.0
  0
SPLINE
  5
2AF
100
AcDbEntity
  8
0
100
AcDbSpline
 62
7
  6
CONTINUOUS
 70
0
 71
3
 72
13
 73
9
 74
0
 42
0.0000001
 43
0.0000001
 44
0.0000000001
 40
0.0
 40
0.0
 40
0.0
 40
0.0
 40
0.3045696624
 40
0.5678615448
 40
0.6857306198
 40
0.7958454777
 40
0.8998901762
 40
1.0
 40
1.0
 40
1.0
 40
1.0
 10
121.3606996364
 20
311.2093946529
 30
0.0
 10
122.7891837581
 20
310.3843287536
 30
0.0
 10
125.3661377889
 20
308.6853752123
 30
0.0
 10
128.1019892746
 20
306.1327626844
 30
0.0
 10
129.7005204193
 20
303.9973283272
 30
0.0
 10
130.5803213269
 20
302.4217395671
 30
0.0
 10
131.1783685009
 20
300.8207518367
 30
0.0
 10
131.3879769926
 20
299.7283660157
 30
0.0
 10
131.4420994641
 20
299.1888504419
 30
0.0
  0
SPLINE
  5
2B0
100
AcDbEntity
  8
0
100
AcDbSpline
 62
7
  6
CONTINUOUS
 70
0
 71
3
 72
13
 73
9
 74
0
 42
0.0000001
 43
0.0000001
 44
0.0000000001
 40
0.0
 40
0.0
 40
0.0
 40
0.0
 40
0.1004483953
 40
0.2038794254
 40
0.4292630099
 40
0.5556246272
 40
0.6925486389
 40
1.0
 40
1.0
 40
1.0
 40
1.0
 10
32.1375692113
 20
298.282917006
 30
0.0
 10
32.1375682296
 20
297.879496349
 30
0.0
 10
32.2168524494
 20
297.0586220964
 30
0.0
 10
32.6996736825
 20
295.394968401
 30
0.0
 10
33.6653302308
 20
293.8038429418
 30
0.0
 10
34.9775974293
 20
292.3423821078
 30
0.0
 10
36.6886818661
 20
290.8107092391
 30
0.0
 10
38.1840101567
 20
289.8176231222
 30
0.0
 10
39.2532587949
 20
289.2000449666
 30
0.0
  0
SPLINE
  5
2B1
100
AcDbEntity
  8
0
100
AcDbSpline
 62
7
  6
CONTINUOUS
 70
0
 71
3
 72
25
 73
21
 74
0
 42
0.0000001
 43
0.0000001
 44
0.0000000001
 40
0.0
 40
0.0
 40
0.0
 40
0.0
 40
0.0157126034
 40
0.0319506946
 40
0.0491802231
 40
0.0677690195
 40
0.1099235496
 40
0.1595827907
 40
0.2167958209
 40
0.2809671016
 40
0.351075894
 40
0.4258106235
 40
0.503662407
 40
0.5829998451
 40
0.6621355118
 40
0.7393895871
 40
0.8131533624
 40
0.8819584154
 40
0.9445509148
 40
1.0
 40
1.0
 40
1.0
 40
1.0
 10
114.1375575171
 20
299.6619189264
 30
0.0
 10
114.1375552985
 20
299.2327543063
 30
0.0
 10
114.0475559723
 20
298.3576904372
 30
0.0
 10
113.6481569333
 20
297.0672170634
 30
0.0
 10
112.9898769297
 20
295.7993457094
 30
0.0
 10
111.7241814425
 20
294.0778465941
 30
0.0
 10
109.4644516073
 20
292.0382665306
 30
0.0
 10
105.9864540286
 20
289.8971261101
 30
0.0
 10
101.7059500276
 20
287.9974344395
 30
0.0
 10
96.7228136734
 20
286.3842013997
 30
0.0
 10
91.1549769533
 20
285.0960375951
 30
0.0
 10
85.1389627554
 20
284.1658845621
 30
0.0
 10
78.8236885786
 20
283.6175211402
 30
0.0
 10
72.3664815084
 20
283.4651053613
 30
0.0
 10
65.928532208
 20
283.7125525799
 30
0.0
 10
59.6704684237
 20
284.353513177
 30
0.0
 10
53.7481552081
 20
285.371388285
 30
0.0
 10
48.3074862415
 20
286.740384486
 30
0.0
 10
43.4826618506
 20
288.425166214
 30
0.0
 10
40.5647256061
 20
289.8215680127
 30
0.0
 10
39.2532587949
 20
290.5790468867
 30
0.0
  0
SPLINE
  5
2B2
100
AcDbEntity
  8
0
100
AcDbSpline
 62
7
  6
CONTINUOUS
 70
0
 71
3
 72
13
 73
9
 74
0
 42
0.0000001
 43
0.0000001
 44
0.0000000001
 40
0.0
 40
0.0
 40
0.0
 40
0.0
 40
0.3074454925
 40
0.4443665154
 40
0.5707294886
 40
0.79611727
 40
0.8995499599
 40
1.0
 40
1.0
 40
1.0
 40
1.0
 10
39.2532587949
 20
290.5790468867
 30
0.0
 10
38.1840301148
 20
291.1966135149
 30
0.0
 10
36.6887252422
 20
292.1896716173
 30
0.0
 10
34.97766153
 20
293.7213240036
 30
0.0
 10
33.6653758532
 20
295.18278148
 30
0.0
 10
32.6996785058
 20
296.773921181
 30
0.0
 10
32.2168512117
 20
298.4376040424
 30
0.0
 10
32.1375502326
 20
299.2584914934
 30
0.0
 10
32.1375580926
 20
299.6619189264
 30
0.0
  0
SPLINE
  5
2B3
100
AcDbEntity
  8
0
100
AcDbSpline
 62
7
  6
CONTINUOUS
 70
0
 71
3
 72
25
 73
21
 74
0
 42
0.0000001
 43
0.0000001
 44
0.0000000001
 40
0.0
 40
0.0
 40
0.0
 40
0.0
 40
0.0554492105
 40
0.1180419337
 40
0.186847055
 40
0.2606106215
 40
0.3378649234
 40
0.4170007139
 40
0.4963380581
 40
0.574189679
 40
0.6489243286
 40
0.7190330934
 40
0.7832043406
 40
0.8404173143
 40
0.8900764889
 40
0.9322309736
 40
0.9508197526
 40
0.9680492872
 40
0.9842873958
 40
1.0
 40
1.0
 40
1.0
 40
1.0
 10
39.2532587949
 20
289.2000449666
 30
0.0
 10
40.5647282014
 20
288.4425645936
 30
0.0
 10
43.4826727707
 20
287.0461599529
 30
0.0
 10
48.307507656
 20
285.3613779941
 30
0.0
 10
53.7481780049
 20
283.9923843298
 30
0.0
 10
59.6704925935
 20
282.9745135138
 30
0.0
 10
65.928558667
 20
282.3335546055
 30
0.0
 10
72.3665133416
 20
282.0861110368
 30
0.0
 10
78.823714878
 20
282.2385297509
 30
0.0
 10
85.1389778733
 20
282.786895001
 30
0.0
 10
91.1549827697
 20
283.717048558
 30
0.0
 10
96.7228138515
 20
285.0052125675
 30
0.0
 10
101.7059453206
 20
286.6184453104
 30
0.0
 10
105.9864440844
 20
288.5181352345
 30
0.0
 10
109.4644362581
 20
290.6592727553
 30
0.0
 10
111.7241650246
 20
292.6988479892
 30
0.0
 10
112.989858221
 20
294.4203456809
 30
0.0
 10
113.648142622
 20
295.6882148102
 30
0.0
 10
114.0475391356
 20
296.9786888636
 30
0.0
 10
114.1375447072
 20
297.8537524851
 30
0.0
 10
114.1375457515
 20
298.2829170064
 30
0.0
  0
SPLINE
  5
2B4
100
AcDbEntity
  8
0
100
AcDbSpline
 62
7
  6
CONTINUOUS
 70
0
 71
3
 72
13
 73
9
 74
0
 42
0.0000001
 43
0.0000001
 44
0.0000000001
 40
0.0
 40
0.0
 40
0.0
 40
0.0
 40
0.234808417
 40
0.3606347824
 40
0.4898729049
 40
0.6205617968
 40
0.7505834308
 40
1.0
 40
1.0
 40
1.0
 40
1.0
 10
-24.2177128465
 20
285.8473521485
 30
0.0
 10
-25.1246599187
 20
285.6042400133
 30
0.0
 10
-26.4464588623
 20
284.9286906299
 30
0.0
 10
-27.928009846
 20
283.64158067
 30
0.0
 10
-28.9279164941
 20
282.4581597822
 30
0.0
 10
-29.7482407254
 20
281.1247227473
 30
0.0
 10
-30.5515274957
 20
279.2452197909
 30
0.0
 10
-30.8292833219
 20
277.7177891163
 30
0.0
 10
-30.8292833219
 20
276.720407526
 30
0.0
  0
SPLINE
  5
2B5
100
AcDbEntity
  8
0
100
AcDbSpline
 62
7
  6
CONTINUOUS
 70
0
 71
3
 72
11
 73
7
 74
0
 42
0.0000001
 43
0.0000001
 44
0.0000000001
 40
0.0
 40
0.0
 40
0.0
 40
0.0
 40
0.271768352
 40
0.5268704044
 40
0.7676317877
 40
1.0
 40
1.0
 40
1.0
 40
1.0
 10
-30.8292833219
 20
186.6256154097
 30
0.0
 10
-30.8292833219
 20
186.078711754
 30
0.0
 10
-30.7229132182
 20
185.0139405432
 30
0.0
 10
-30.2137095562
 20
183.5389577946
 30
0.0
 10
-29.3790857222
 20
182.3117919103
 30
0.0
 10
-28.6238598756
 20
181.7042167773
 30
0.0
 10
-28.2189027171
 20
181.4703926596
 30
0.0
  0
SPLINE
  5
2B6
100
AcDbEntity
  8
0
100
AcDbSpline
 62
7
  6
CONTINUOUS
 70
0
 71
3
 72
9
 73
5
 74
0
 42
0.0000001
 43
0.0000001
 44
0.0000000001
 40
0.0
 40
0.0
 40
0.0
 40
0.0
 40
0.2453243226
 40
1.0
 40
1.0
 40
1.0
 40
1.0
 10
-28.5772211642
 20
275.4196582483
 30
0.0
 10
-28.5772211642
 20
275.5583835413
 30
0.0
 10
-28.5627185505
 20
276.123800354
 30
0.0
 10
-28.4920204933
 20
276.6875086126
 30
0.0
 10
-28.4103332047
 20
277.1063693462
 30
0.0
  0
SPLINE
  5
2B7
100
AcDbEntity
  8
0
100
AcDbSpline
 62
7
  6
CONTINUOUS
 70
0
 71
3
 72
9
 73
5
 74
0
 42
0.0000001
 43
0.0000001
 44
0.0000000001
 40
0.0
 40
0.0
 40
0.0
 40
0.0
 40
0.2560354711
 40
1.0
 40
1.0
 40
1.0
 40
1.0
 10
-23.4416979567
 20
283.9653015335
 30
0.0
 10
-23.3215762256
 20
284.0280876899
 30
0.0
 10
-22.8462179229
 20
284.2611408402
 30
0.0
 10
-22.3460630743
 20
284.4446312452
 30
0.0
 10
-21.9656506888
 20
284.5466028708
 30
0.0
  0
SPLINE
  5
2B8
100
AcDbEntity
  8
0
100
AcDbSpline
 62
7
  6
CONTINUOUS
 70
0
 71
3
 72
9
 73
5
 74
0
 42
0.0000001
 43
0.0000001
 44
0.0000000001
 40
0.0
 40
0.0
 40
0.0
 40
0.0
 40
0.2485823419
 40
1.0
 40
1.0
 40
1.0
 40
1.0
 10
-26.0889206545
 20
180.242669421
 30
0.0
 10
-26.1854168462
 20
180.3024352154
 30
0.0
 10
-26.5646477847
 20
180.5571010079
 30
0.0
 10
-26.9057189733
 20
180.8680224493
 30
0.0
 10
-27.1335448188
 20
181.1245700127
 30
0.0
  0
SPLINE
  5
2B9
100
AcDbEntity
  8
0
100
AcDbSpline
 62
7
  6
CONTINUOUS
 70
0
 71
3
 72
9
 73
5
 74
0
 42
0.0000001
 43
0.0000001
 44
0.0000000001
 40
0.0
 40
0.0
 40
0.0
 40
0.0
 40
0.2468623828
 40
1.0
 40
1.0
 40
1.0
 40
1.0
 10
-27.4115010289
 20
181.4669948183
 30
0.0
 10
-27.4595906664
 20
181.5318279027
 30
0.0
 10
-27.6481860122
 20
181.799021447
 30
0.0
 10
-27.8117419609
 20
182.0837547566
 30
0.0
 10
-27.9202692941
 20
182.3048198125
 30
0.0
  0
SPLINE
  5
2BA
100
AcDbEntity
  8
0
100
AcDbSpline
 62
7
  6
CONTINUOUS
 70
0
 71
3
 72
9
 73
5
 74
0
 42
0.0000001
 43
0.0000001
 44
0.0000000001
 40
0.0
 40
0.0
 40
0.0
 40
0.0
 40
0.2472605782
 40
1.0
 40
1.0
 40
1.0
 40
1.0
 10
-27.9202692941
 20
182.3048198125
 30
0.0
 10
-27.9472016261
 20
182.3596797019
 30
0.0
 10
-28.052541184
 20
182.583296533
 30
0.0
 10
-28.1436047405
 20
182.8135995616
 30
0.0
 10
-28.2042230015
 20
182.9894986853
 30
0.0
  0
SPLINE
  5
2BB
100
AcDbEntity
  8
0
100
AcDbSpline
 62
7
  6
CONTINUOUS
 70
0
 71
3
 72
9
 73
5
 74
0
 42
0.0000001
 43
0.0000001
 44
0.0000000001
 40
0.0
 40
0.0
 40
0.0
 40
0.0
 40
0.2447565853
 40
1.0
 40
1.0
 40
1.0
 40
1.0
 10
-28.410339076
 20
183.7276524205
 30
0.0
 10
-28.4382504301
 20
183.8558098904
 30
0.0
 10
-28.5371752224
 20
184.3826483604
 30
0.0
 10
-28.5772211642
 20
184.9201416623
 30
0.0
 10
-28.5772211642
 20
185.324866132
 30
0.0
  0
SPLINE
  5
2BC
100
AcDbEntity
  8
0
100
AcDbSpline
 62
7
  6
CONTINUOUS
 70
0
 71
3
 72
9
 73
5
 74
0
 42
0.0000001
 43
0.0000001
 44
0.0000000001
 40
0.0
 40
0.0
 40
0.0
 40
0.0
 40
0.2288921309
 40
1.0
 40
1.0
 40
1.0
 40
1.0
 10
125.8021912978
 20
313.8546283686
 30
0.0
 10
126.008431494
 20
313.4831119553
 30
0.0
 10
127.0057798082
 20
311.9131710212
 30
0.0
 10
128.3336250239
 20
310.5729311494
 30
0.0
 10
129.4331220434
 20
309.6562374578
 30
0.0
  0
SPLINE
  5
2BD
100
AcDbEntity
  8
0
100
AcDbSpline
 62
7
  6
CONTINUOUS
 70
0
 71
3
 72
9
 73
5
 74
0
 42
0.0000001
 43
0.0000001
 44
0.0000000001
 40
0.0
 40
0.0
 40
0.0
 40
0.0
 40
0.4725915768
 40
1.0
 40
1.0
 40
1.0
 40
1.0
 10
129.4331220434
 20
309.6562374578
 30
0.0
 10
130.2847000289
 20
308.9462435666
 30
0.0
 10
132.2004904833
 20
307.5790186474
 30
0.0
 10
134.2549230255
 20
306.4377596595
 30
0.0
 10
135.3616767916
 20
305.8845112224
 30
0.0
  0
SPLINE
  5
2BE
100
AcDbEntity
  8
0
100
AcDbSpline
 62
7
  6
CONTINUOUS
 70
0
 71
3
 72
9
 73
5
 74
0
 42
0.0000001
 43
0.0000001
 44
0.0000000001
 40
0.0
 40
0.0
 40
0.0
 40
0.0
 40
0.4789031452
 40
1.0
 40
1.0
 40
1.0
 40
1.0
 10
135.3151064719
 20
300.3836583782
 30
0.0
 10
135.407934932
 20
299.6272554384
 30
0.0
 10
135.8370772075
 20
298.0711816825
 30
0.0
 10
136.6419372871
 20
296.6809564267
 30
0.0
 10
137.1241104784
 20
296.0063337646
 30
0.0
  0
SPLINE
  5
2BF
100
AcDbEntity
  8
0
100
AcDbSpline
 62
7
  6
CONTINUOUS
 70
0
 71
3
 72
9
 73
5
 74
0
 42
0.0000001
 43
0.0000001
 44
0.0000000001
 40
0.0
 40
0.0
 40
0.0
 40
0.0
 40
0.5101536178
 40
1.0
 40
1.0
 40
1.0
 40
1.0
 10
10.2313236033
 20
293.5953027983
 30
0.0
 10
10.4844208544
 20
294.1499909767
 30
0.0
 10
10.880090821
 20
295.2877393224
 30
0.0
 10
11.0181963094
 20
296.4864911163
 30
0.0
 10
11.0181911852
 20
297.0719237697
 30
0.0
  0
SPLINE
  5
2C0
100
AcDbEntity
  8
0
100
AcDbSpline
 62
7
  6
CONTINUOUS
 70
0
 71
3
 72
9
 73
5
 74
0
 42
0.0000001
 43
0.0000001
 44
0.0000000001
 40
0.0
 40
0.0
 40
0.0
 40
0.0
 40
0.5294703325
 40
1.0
 40
1.0
 40
1.0
 40
1.0
 10
9.5666274031
 20
303.4943378567
 30
0.0
 10
10.5276122431
 20
304.0838178974
 30
0.0
 10
12.2873858144
 20
305.2919786739
 30
0.0
 10
13.8689829391
 20
306.7329308971
 30
0.0
 10
14.5439922553
 20
307.4732824102
 30
0.0
  0
SPLINE
  5
2C1
100
AcDbEntity
  8
0
100
AcDbSpline
 62
7
  6
CONTINUOUS
 70
0
 71
3
 72
9
 73
5
 74
0
 42
0.0000001
 43
0.0000001
 44
0.0000000001
 40
0.0
 40
0.0
 40
0.0
 40
0.0
 40
0.5264376627
 40
1.0
 40
1.0
 40
1.0
 40
1.0
 10
14.5439922553
 20
307.4732824102
 30
0.0
 10
15.14260203
 20
308.1298387597
 30
0.0
 10
16.1812548368
 20
309.4748579531
 30
0.0
 10
16.8983820805
 20
311.0248344053
 30
0.0
 10
17.1299434517
 20
311.7897974102
 30
0.0
  0
SPLINE
  5
2C2
100
AcDbEntity
  8
0
100
AcDbSpline
 62
7
  6
CONTINUOUS
 70
0
 71
3
 72
9
 73
5
 74
0
 42
0.0000001
 43
0.0000001
 44
0.0000000001
 40
0.0
 40
0.0
 40
0.0
 40
0.0
 40
0.5187216361
 40
1.0
 40
1.0
 40
1.0
 40
1.0
 10
18.5800290354
 20
312.7399416934
 30
0.0
 10
20.0752028539
 20
313.1491616174
 30
0.0
 10
22.9352691284
 20
314.0232393599
 30
0.0
 10
25.7286605405
 20
315.0945844597
 30
0.0
 10
27.0483151734
 20
315.6665304984
 30
0.0
  0
SPLINE
  5
2C3
100
AcDbEntity
  8
0
100
AcDbSpline
 62
7
  6
CONTINUOUS
 70
0
 71
3
 72
9
 73
5
 74
0
 42
0.0000001
 43
0.0000001
 44
0.0000000001
 40
0.0
 40
0.0
 40
0.0
 40
0.0
 40
0.5254815859
 40
1.0
 40
1.0
 40
1.0
 40
1.0
 10
27.0483151734
 20
315.6665304984
 30
0.0
 10
28.2561752589
 20
316.1900241262
 30
0.0
 10
30.5172524723
 20
317.2766197347
 30
0.0
 10
32.6623034593
 20
318.5824774394
 30
0.0
 10
33.6355339449
 20
319.2650856054
 30
0.0
  0
SPLINE
  5
2C4
100
AcDbEntity
  8
0
100
AcDbSpline
 62
7
  6
CONTINUOUS
 70
0
 71
3
 72
9
 73
5
 74
0
 42
0.0000001
 43
0.0000001
 44
0.0000000001
 40
0.0
 40
0.0
 40
0.0
 40
0.0
 40
0.2556903406
 40
1.0
 40
1.0
 40
1.0
 40
1.0
 10
35.8993198084
 20
319.9245549359
 30
0.0
 10
36.8136705149
 20
320.0031410886
 30
0.0
 10
40.3859366573
 20
320.3516437887
 30
0.0
 10
43.9427406319
 20
320.8654926106
 30
0.0
 10
46.5693074329
 20
321.3532413765
 30
0.0
  0
SPLINE
  5
2C5
100
AcDbEntity
  8
0
100
AcDbSpline
 62
7
  6
CONTINUOUS
 70
0
 71
3
 72
9
 73
5
 74
0
 42
0.0000001
 43
0.0000001
 44
0.0000000001
 40
0.0
 40
0.0
 40
0.0
 40
0.0
 40
0.2602016354
 40
1.0
 40
1.0
 40
1.0
 40
1.0
 10
46.5693074329
 20
321.3532413765
 30
0.0
 10
47.4108489097
 20
321.5095141264
 30
0.0
 10
50.6368858281
 20
322.1521758797
 30
0.0
 10
53.8303396615
 20
322.9660119244
 30
0.0
 10
56.1549494347
 20
323.6859891963
 30
0.0
  0
SPLINE
  5
2C6
100
AcDbEntity
  8
0
100
AcDbSpline
 62
7
  6
CONTINUOUS
 70
0
 71
3
 72
9
 73
5
 74
0
 42
0.0000001
 43
0.0000001
 44
0.0000000001
 40
0.0
 40
0.0
 40
0.0
 40
0.0
 40
0.2412380147
 40
1.0
 40
1.0
 40
1.0
 40
1.0
 10
84.0456668037
 20
324.215927776
 30
0.0
 10
84.848965707
 20
324.0131770021
 30
0.0
 10
88.1913705689
 20
323.2225828941
 30
0.0
 10
91.5776848623
 20
322.6216786007
 30
0.0
 10
94.1579431604
 20
322.2574509633
 30
0.0
  0
SPLINE
  5
2C7
100
AcDbEntity
  8
0
100
AcDbSpline
 62
7
  6
CONTINUOUS
 70
0
 71
3
 72
9
 73
5
 74
0
 42
0.0000001
 43
0.0000001
 44
0.0000000001
 40
0.0
 40
0.0
 40
0.0
 40
0.0
 40
0.2455132228
 40
1.0
 40
1.0
 40
1.0
 40
1.0
 10
94.1579431604
 20
322.2574509633
 30
0.0
 10
95.050905244
 20
322.1314009975
 30
0.0
 10
98.6943025539
 20
321.6631224077
 30
0.0
 10
102.3598082049
 20
321.3696817646
 30
0.0
 10
105.1281368869
 20
321.2399395677
 30
0.0
  0
SPLINE
  5
2C8
100
AcDbEntity
  8
0
100
AcDbSpline
 62
7
  6
CONTINUOUS
 70
0
 71
3
 72
9
 73
5
 74
0
 42
0.0000001
 43
0.0000001
 44
0.0000000001
 40
0.0
 40
0.0
 40
0.0
 40
0.0
 40
0.4773865886
 40
1.0
 40
1.0
 40
1.0
 40
1.0
 10
107.5428781435
 20
320.6693647602
 30
0.0
 10
108.6727148158
 20
320.0302358024
 30
0.0
 10
111.1118793051
 20
318.8180250706
 30
0.0
 10
113.6424116529
 20
317.815344952
 30
0.0
 10
114.9806482309
 20
317.3372919591
 30
0.0
  0
SPLINE
  5
2C9
100
AcDbEntity
  8
0
100
AcDbSpline
 62
7
  6
CONTINUOUS
 70
0
 71
3
 72
9
 73
5
 74
0
 42
0.0000001
 43
0.0000001
 44
0.0000000001
 40
0.0
 40
0.0
 40
0.0
 40
0.0
 40
0.2378513093
 40
1.0
 40
1.0
 40
1.0
 40
1.0
 10
114.9806482309
 20
317.3372919591
 30
0.0
 10
115.6906423963
 20
317.083663534
 30
0.0
 10
118.6951743092
 20
316.0721159863
 30
0.0
 10
121.7671336728
 20
315.266113542
 30
0.0
 10
124.1261850028
 20
314.7453752305
 30
0.0
  0
SPLINE
  5
2CA
100
AcDbEntity
  8
0
100
AcDbSpline
 62
7
  6
CONTINUOUS
 70
0
 71
3
 72
25
 73
21
 74
0
 42
0.0000001
 43
0.0000001
 44
0.0000000001
 40
0.0
 40
0.0
 40
0.0
 40
0.0
 40
0.0541264008
 40
0.1149827957
 40
0.1817540696
 40
0.2533371543
 40
0.3284360179
 40
0.4056226495
 40
0.4833963056
 40
0.5602362363
 40
0.6346537618
 40
0.7052456128
 40
0.7707531484
 40
0.8301315946
 40
0.8826424884
 40
0.9279943466
 40
0.9481029757
 40
0.9666475087
 40
0.9838446586
 40
1.0
 40
1.0
 40
1.0
 40
1.0
 10
24.7904483799
 20
286.2425439533
 30
0.0
 10
26.5786677501
 20
285.2097016553
 30
0.0
 10
30.5417195978
 20
283.2970526581
 30
0.0
 10
37.0818005043
 20
280.9644969945
 30
0.0
 10
44.4439012881
 20
279.0421945243
 30
0.0
 10
52.4611762591
 20
277.575614211
 30
0.0
 10
60.9521604788
 20
276.5988097299
 30
0.0
 10
69.7225936045
 20
276.1349565032
 30
0.0
 10
78.5714018959
 20
276.1949817196
 30
0.0
 10
87.2955278158
 20
276.7774846586
 30
0.0
 10
95.6949921079
 20
277.8686847809
 30
0.0
 10
103.5780792634
 20
279.4429046175
 30
0.0
 10
110.765923374
 20
281.4631172539
 30
0.0
 10
117.0993492837
 20
283.8834566573
 30
0.0
 10
122.4387285077
 20
286.6494819158
 30
0.0
 10
126.1099546263
 20
289.2993675323
 30
0.0
 10
128.3848561781
 20
291.5660471557
 30
0.0
 10
129.70458135
 20
293.247027024
 30
0.0
 10
130.6977125298
 20
294.9683189463
 30
0.0
 10
131.1466836936
 20
296.1672054803
 30
0.0
 10
131.3078984408
 20
296.7621174683
 30
0.0
  0
SPLINE
  5
2CB
100
AcDbEntity
  8
0
100
AcDbSpline
 62
7
  6
CONTINUOUS
 70
0
 71
3
 72
9
 73
5
 74
0
 42
0.0000001
 43
0.0000001
 44
0.0000000001
 40
0.0
 40
0.0
 40
0.0
 40
0.0
 40
0.2529937673
 40
1.0
 40
1.0
 40
1.0
 40
1.0
 10
131.3613790096
 20
296.968273054
 30
0.0
 10
131.4071104313
 20
297.1527806857
 30
0.0
 10
131.5666131055
 20
297.8871589218
 30
0.0
 10
131.6374767521
 20
298.6409775489
 30
0.0
 10
131.6374958859
 20
299.2022516483
 30
0.0
  0
SPLINE
  5
2CC
100
AcDbEntity
  8
0
100
AcDbSpline
 62
7
  6
CONTINUOUS
 70
0
 71
3
 72
9
 73
5
 74
0
 42
0.0000001
 43
0.0000001
 44
0.0000000001
 40
0.0
 40
0.0
 40
0.0
 40
0.0
 40
0.248257997
 40
1.0
 40
1.0
 40
1.0
 40
1.0
 10
14.6376190768
 20
299.202251591
 30
0.0
 10
14.6376127339
 20
299.016189806
 30
0.0
 10
14.6605597785
 20
298.2668422718
 30
0.0
 10
14.7771607158
 20
297.5207929764
 30
0.0
 10
14.9123806861
 20
296.9738526147
 30
0.0
  0
SPLINE
  5
2CD
100
AcDbEntity
  8
0
100
AcDbSpline
 62
7
  6
CONTINUOUS
 70
0
 71
3
 72
11
 73
7
 74
0
 42
0.0000001
 43
0.0000001
 44
0.0000000001
 40
0.0
 40
0.0
 40
0.0
 40
0.0
 40
0.2060660058
 40
0.4371179277
 40
0.7006326907
 40
1.0
 40
1.0
 40
1.0
 40
1.0
 10
14.9553640994
 20
296.8063479309
 30
0.0
 10
15.2161778493
 20
295.8258346032
 30
0.0
 10
16.0978988507
 20
293.8272290275
 30
0.0
 10
18.234571615
 20
291.0878703275
 30
0.0
 10
21.1838873799
 20
288.4958137541
 30
0.0
 10
23.5140576853
 20
286.9797635137
 30
0.0
 10
24.7904483799
 20
286.2425439533
 30
0.0
  0
SPLINE
  5
2CE
100
AcDbEntity
  8
0
100
AcDbSpline
 62
7
  6
CONTINUOUS
 70
0
 71
3
 72
17
 73
13
 74
0
 42
0.0000001
 43
0.0000001
 44
0.0000000001
 40
0.0
 40
0.0
 40
0.0
 40
0.0
 40
0.0469427429
 40
0.0978682007
 40
0.1525278822
 40
0.2106149624
 40
0.3354318344
 40
0.4686918507
 40
0.6061948346
 40
0.7434926563
 40
0.876146703
 40
1.0
 40
1.0
 40
1.0
 40
1.0
 10
19.8317705233
 20
263.3089797514
 30
0.0
 10
21.0735729523
 20
262.5917377308
 30
0.0
 10
23.7340766001
 20
261.2185823138
 30
0.0
 10
28.028353813
 20
259.4011295061
 30
0.0
 10
32.7537107373
 20
257.7567596644
 30
0.0
 10
39.7368215935
 20
255.7688843357
 30
0.0
 10
49.2204522556
 20
253.856337019
 30
0.0
 10
61.2403092859
 20
252.4912530214
 30
0.0
 10
73.7111052333
 20
252.0596022119
 30
0.0
 10
86.1602572825
 20
252.5779695452
 30
0.0
 10
98.115567851
 20
254.0258383657
 30
0.0
 10
105.7974863302
 20
255.6436776534
 30
0.0
 10
109.4520597743
 20
256.623306102
 30
0.0
  0
SPLINE
  5
2CF
100
AcDbEntity
  8
0
100
AcDbSpline
 62
7
  6
CONTINUOUS
 70
0
 71
3
 72
16
 73
12
 74
0
 42
0.0000001
 43
0.0000001
 44
0.0000000001
 40
0.0
 40
0.0
 40
0.0
 40
0.0
 40
0.1738670882
 40
0.3342969571
 40
0.4799866939
 40
0.6102705015
 40
0.7252684671
 40
0.8262694449
 40
0.9161635093
 40
0.9584937943
 40
1.0
 40
1.0
 40
1.0
 40
1.0
 10
109.4520597743
 20
256.623306102
 30
0.0
 10
111.5379732048
 20
257.1824466334
 30
0.0
 10
115.5167129981
 20
258.3835682437
 30
0.0
 10
121.0854490518
 20
260.5299839288
 30
0.0
 10
125.9577680373
 20
262.9249810333
 30
0.0
 10
130.0664884984
 20
265.5357907238
 30
0.0
 10
133.3566826601
 20
268.333543445
 30
0.0
 10
135.7819118437
 20
271.2907060567
 30
0.0
 10
137.0618068987
 20
273.9314435023
 30
0.0
 10
137.555937715
 20
276.0392813114
 30
0.0
 10
137.6375420943
 20
277.08235137
 30
0.0
 10
137.637550796
 20
277.5978882008
 30
0.0
  0
SPLINE
  5
2D0
100
AcDbEntity
  8
0
100
AcDbSpline
 62
7
  6
CONTINUOUS
 70
0
 71
3
 72
13
 73
9
 74
0
 42
0.0000001
 43
0.0000001
 44
0.0000000001
 40
0.0
 40
0.0
 40
0.0
 40
0.0
 40
0.1004256181
 40
0.2038335624
 40
0.3128993351
 40
0.42979788
 40
0.6926143063
 40
1.0
 40
1.0
 40
1.0
 40
1.0
 10
8.6376285476
 20
277.5978882114
 30
0.0
 10
8.6376387123
 20
276.9632350654
 30
0.0
 10
8.7620428585
 20
275.6719092174
 30
0.0
 10
9.3165535005
 20
273.7633756804
 30
0.0
 10
10.2314609145
 20
271.8836097276
 30
0.0
 10
11.9889085724
 20
269.3316181978
 30
0.0
 10
15.1359759484
 20
266.2826597485
 30
0.0
 10
18.1496282255
 20
264.2805539023
 30
0.0
 10
19.8317705233
 20
263.3089797514
 30
0.0
  0
SPLINE
  5
2D1
100
AcDbEntity
  8
0
100
AcDbSpline
 62
7
  6
CONTINUOUS
 70
0
 71
3
 72
9
 73
5
 74
0
 42
0.0000001
 43
0.0000001
 44
0.0000000001
 40
0.0
 40
0.0
 40
0.0
 40
0.0
 40
0.5048366792
 40
1.0
 40
1.0
 40
1.0
 40
1.0
 10
137.1700967901
 20
286.6234581852
 30
0.0
 10
137.3232408239
 20
286.1257996897
 30
0.0
 10
137.5578118332
 20
285.1171716178
 30
0.0
 10
137.6375923143
 20
284.0842751167
 30
0.0
 10
137.6375709253
 20
283.5735631912
 30
0.0
  0
SPLINE
  5
2D2
100
AcDbEntity
  8
0
100
AcDbSpline
 62
7
  6
CONTINUOUS
 70
0
 71
3
 72
9
 73
5
 74
0
 42
0.0000001
 43
0.0000001
 44
0.0000000001
 40
0.0
 40
0.0
 40
0.0
 40
0.0
 40
0.2412380147
 40
1.0
 40
1.0
 40
1.0
 40
1.0
 10
62.229448159
 20
274.1885754633
 30
0.0
 10
61.4261492558
 20
274.3913262372
 30
0.0
 10
58.0837443938
 20
275.1819203452
 30
0.0
 10
54.6974301004
 20
275.7828246386
 30
0.0
 10
52.1171718023
 20
276.147052276
 30
0.0
  0
SPLINE
  5
2D3
100
AcDbEntity
  8
0
100
AcDbSpline
 62
7
  6
CONTINUOUS
 70
0
 71
3
 72
9
 73
5
 74
0
 42
0.0000001
 43
0.0000001
 44
0.0000000001
 40
0.0
 40
0.0
 40
0.0
 40
0.0
 40
0.2455132228
 40
1.0
 40
1.0
 40
1.0
 40
1.0
 10
52.1171718023
 20
276.147052276
 30
0.0
 10
51.2242097187
 20
276.2731022417
 30
0.0
 10
47.5808124088
 20
276.7413808316
 30
0.0
 10
43.9153067578
 20
277.0348214747
 30
0.0
 10
41.1469780758
 20
277.1645636716
 30
0.0
  0
SPLINE
  5
2D4
100
AcDbEntity
  8
0
100
AcDbSpline
 62
7
  6
CONTINUOUS
 70
0
 71
3
 72
9
 73
5
 74
0
 42
0.0000001
 43
0.0000001
 44
0.0000000001
 40
0.0
 40
0.0
 40
0.0
 40
0.0
 40
0.4773865886
 40
1.0
 40
1.0
 40
1.0
 40
1.0
 10
38.7322368192
 20
277.7351384791
 30
0.0
 10
37.6024001469
 20
278.3742674368
 30
0.0
 10
35.1632356576
 20
279.5864781687
 30
0.0
 10
32.6327033098
 20
280.5891582873
 30
0.0
 10
31.2944667318
 20
281.0672112802
 30
0.0
  0
SPLINE
  5
2D5
100
AcDbEntity
  8
0
100
AcDbSpline
 62
7
  6
CONTINUOUS
 70
0
 71
3
 72
9
 73
5
 74
0
 42
0.0000001
 43
0.0000001
 44
0.0000000001
 40
0.0
 40
0.0
 40
0.0
 40
0.0
 40
0.2378513093
 40
1.0
 40
1.0
 40
1.0
 40
1.0
 10
31.2944667318
 20
281.0672112802
 30
0.0
 10
30.5844725664
 20
281.3208397053
 30
0.0
 10
27.5799406535
 20
282.332387253
 30
0.0
 10
24.50798129
 20
283.1383896973
 30
0.0
 10
22.1489299599
 20
283.6591280088
 30
0.0
  0
SPLINE
  5
2D6
100
AcDbEntity
  8
0
100
AcDbSpline
 62
7
  6
CONTINUOUS
 70
0
 71
3
 72
27
 73
23
 74
0
 42
0.0000001
 43
0.0000001
 44
0.0000000001
 40
0.0
 40
0.0
 40
0.0
 40
0.0
 40
0.0554437811
 40
0.1180293866
 40
0.1868272189
 40
0.2605831094
 40
0.3378291005
 40
0.4169564788
 40
0.4962855167
 40
0.5741291508
 40
0.6488561878
 40
0.7189577187
 40
0.7831223276
 40
0.8403293602
 40
0.8661332638
 40
0.8900229871
 40
0.9120271944
 40
0.9322379594
 40
0.9508251487
 40
0.9680524644
 40
0.9842890986
 40
1.0
 40
1.0
 40
1.0
 40
1.0
 10
121.4846665828
 20
312.161959286
 30
0.0
 10
119.6134098132
 20
313.2427624437
 30
0.0
 10
115.450006133
 20
315.2351952512
 30
0.0
 10
108.5657868343
 20
317.6390616151
 30
0.0
 10
100.8029016604
 20
319.5923907258
 30
0.0
 10
92.3527763771
 20
321.0447300945
 30
0.0
 10
83.4235931195
 20
321.9592841158
 30
0.0
 10
74.2377377106
 20
322.3123618868
 30
0.0
 10
65.0244124076
 20
322.0948822202
 30
0.0
 10
56.0135684469
 20
321.3124540042
 30
0.0
 10
47.4298124711
 20
319.9852547851
 30
0.0
 10
39.4851823413
 20
318.1473229309
 30
0.0
 10
32.3759586124
 20
315.8453074316
 30
0.0
 10
27.1177765063
 20
313.513331677
 30
0.0
 10
23.5044343945
 20
311.4316463586
 30
0.0
 10
21.1988264224
 20
309.8465292806
 30
0.0
 10
19.217465052
 20
308.1927541112
 30
0.0
 10
17.5725633191
 20
306.4789097467
 30
0.0
 10
16.275081157
 20
304.7134546054
 30
0.0
 10
15.3359836981
 20
302.9044105332
 30
0.0
 10
14.7657965777
 20
301.0631995334
 30
0.0
 10
14.6376399515
 20
299.8145942147
 30
0.0
 10
14.6376190768
 20
299.202251591
 30
0.0
  0
SPLINE
  5
2D7
100
AcDbEntity
  8
0
100
AcDbSpline
 62
7
  6
CONTINUOUS
 70
0
 71
3
 72
11
 73
7
 74
0
 42
0.0000001
 43
0.0000001
 44
0.0000000001
 40
0.0
 40
0.0
 40
0.0
 40
0.0
 40
0.2539496891
 40
0.49781358
 40
0.7433590755
 40
1.0
 40
1.0
 40
1.0
 40
1.0
 10
131.7311227074
 20
277.3710817368
 30
0.0
 10
132.0454803137
 20
277.7158697625
 30
0.0
 10
132.7378555891
 20
278.3288101861
 30
0.0
 10
133.9645531664
 20
278.960124895
 30
0.0
 10
135.3093752017
 20
279.2795371054
 30
0.0
 10
136.2375555349
 20
279.305164744
 30
0.0
 10
136.7084875596
 20
279.2814769542
 30
0.0
  0
SPLINE
  5
2D8
100
AcDbEntity
  8
0
100
AcDbSpline
 62
7
  6
CONTINUOUS
 70
0
 71
3
 72
9
 73
5
 74
0
 42
0.0000001
 43
0.0000001
 44
0.0000000001
 40
0.0
 40
0.0
 40
0.0
 40
0.0
 40
0.2288921309
 40
1.0
 40
1.0
 40
1.0
 40
1.0
 10
20.472923665
 20
284.5498748707
 30
0.0
 10
20.2666834687
 20
284.921391284
 30
0.0
 10
19.2693351545
 20
286.4913322181
 30
0.0
 10
17.9414899389
 20
287.8315720899
 30
0.0
 10
16.8419929193
 20
288.7482657815
 30
0.0
  0
SPLINE
  5
2D9
100
AcDbEntity
  8
0
100
AcDbSpline
 62
7
  6
CONTINUOUS
 70
0
 71
3
 72
9
 73
5
 74
0
 42
0.0000001
 43
0.0000001
 44
0.0000000001
 40
0.0
 40
0.0
 40
0.0
 40
0.0
 40
0.2389570473
 40
1.0
 40
1.0
 40
1.0
 40
1.0
 10
16.8419929193
 20
288.7482657815
 30
0.0
 10
16.6316778899
 20
288.9236136518
 30
0.0
 10
15.7377108235
 20
289.6407917506
 30
0.0
 10
14.7929572934
 20
290.2936321032
 30
0.0
 10
14.0554911363
 20
290.7591210788
 30
0.0
  0
SPLINE
  5
2DA
100
AcDbEntity
  8
0
100
AcDbSpline
 62
7
  6
CONTINUOUS
 70
0
 71
3
 72
9
 73
5
 74
0
 42
0.0000001
 43
0.0000001
 44
0.0000000001
 40
0.0
 40
0.0
 40
0.0
 40
0.0
 40
0.2406295804
 40
1.0
 40
1.0
 40
1.0
 40
1.0
 10
14.0554911363
 20
290.7591210788
 30
0.0
 10
13.8111280085
 20
290.9133631967
 30
0.0
 10
12.786688225
 20
291.5401826807
 30
0.0
 10
11.729124859
 20
292.1122433387
 30
0.0
 10
10.9134381711
 20
292.5199920169
 30
0.0
  0
SPLINE
  5
2DB
100
AcDbEntity
  8
0
100
AcDbSpline
 62
7
  6
CONTINUOUS
 70
0
 71
3
 72
10
 73
6
 74
0
 42
0.0000001
 43
0.0000001
 44
0.0000000001
 40
0.0
 40
0.0
 40
0.0
 40
0.0
 40
0.4536936658
 40
0.7142571872
 40
1.0
 40
1.0
 40
1.0
 40
1.0
 10
136.7084875596
 20
279.2814769542
 30
0.0
 10
136.0228702523
 20
277.7092696372
 30
0.0
 10
134.4263152705
 20
275.4539959338
 30
0.0
 10
131.6857233106
 20
272.8495687255
 30
0.0
 10
130.0347747775
 20
271.5988477886
 30
0.0
 10
129.145171511
 20
270.9860174008
 30
0.0
  0
SPLINE
  5
2DC
100
AcDbEntity
  8
0
100
AcDbSpline
 62
7
  6
CONTINUOUS
 70
0
 71
3
 72
10
 73
6
 74
0
 42
0.0000001
 43
0.0000001
 44
0.0000000001
 40
0.0
 40
0.0
 40
0.0
 40
0.0
 40
0.4544797052
 40
0.7163779793
 40
1.0
 40
1.0
 40
1.0
 40
1.0
 10
131.7311227074
 20
277.3710817368
 30
0.0
 10
131.0203035771
 20
276.5914539509
 30
0.0
 10
130.1948288991
 20
275.0939172869
 30
0.0
 10
129.4977528651
 20
272.8814925103
 30
0.0
 10
129.2478563915
 20
271.6363598587
 30
0.0
 10
129.145171511
 20
270.9860174008
 30
0.0
  0
SPLINE
  5
2DD
100
AcDbEntity
  8
0
100
AcDbSpline
 62
7
  6
CONTINUOUS
 70
0
 71
3
 72
9
 73
5
 74
0
 42
0.0000001
 43
0.0000001
 44
0.0000000001
 40
0.0
 40
0.0
 40
0.0
 40
0.0
 40
0.5101536178
 40
1.0
 40
1.0
 40
1.0
 40
1.0
 10
136.0437913594
 20
304.809200441
 30
0.0
 10
135.7906941083
 20
304.2545122626
 30
0.0
 10
135.3950241418
 20
303.1167639169
 30
0.0
 10
135.2569186533
 20
301.918012123
 30
0.0
 10
135.2569237776
 20
301.3325794696
 30
0.0
  0
SPLINE
  5
2DE
100
AcDbEntity
  8
0
100
AcDbSpline
 62
7
  6
CONTINUOUS
 70
0
 71
3
 72
9
 73
5
 74
0
 42
0.0000001
 43
0.0000001
 44
0.0000000001
 40
0.0
 40
0.0
 40
0.0
 40
0.0
 40
0.4789031452
 40
1.0
 40
1.0
 40
1.0
 40
1.0
 10
10.9600084908
 20
298.0208448611
 30
0.0
 10
10.8671800308
 20
298.7772478009
 30
0.0
 10
10.4380377552
 20
300.3333215568
 30
0.0
 10
9.6331776756
 20
301.7235468126
 30
0.0
 10
9.1510044843
 20
302.3981694747
 30
0.0
  0
SPLINE
  5
2DF
100
AcDbEntity
  8
0
100
AcDbSpline
 62
7
  6
CONTINUOUS
 70
0
 71
3
 72
10
 73
6
 74
0
 42
0.0000001
 43
0.0000001
 44
0.0000000001
 40
0.0
 40
0.0
 40
0.0
 40
0.0
 40
0.2457044612
 40
0.492813639
 40
1.0
 40
1.0
 40
1.0
 40
1.0
 10
119.2267997893
 20
269.1778336486
 30
0.0
 10
119.8741929016
 20
269.4584176111
 30
0.0
 10
121.2216499364
 20
269.9155049612
 30
0.0
 10
124.0628140106
 20
270.3933328979
 30
0.0
 10
126.257546823
 20
270.2699406031
 30
0.0
 10
127.6950859273
 20
270.0358731175
 30
0.0
  0
SPLINE
  5
2E0
100
AcDbEntity
  8
0
100
AcDbSpline
 62
7
  6
CONTINUOUS
 70
0
 71
3
 72
10
 73
6
 74
0
 42
0.0000001
 43
0.0000001
 44
0.0000000001
 40
0.0
 40
0.0
 40
0.0
 40
0.0
 40
0.2240960573
 40
0.4660306962
 40
1.0
 40
1.0
 40
1.0
 40
1.0
 10
127.6950859273
 20
270.0358731175
 30
0.0
 10
126.6527160728
 20
269.3854890731
 30
0.0
 10
124.4235836916
 20
268.1298735589
 30
0.0
 10
119.4592049858
 20
265.7955128824
 30
0.0
 10
115.4399064346
 20
264.3643666973
 30
0.0
 10
112.6395810179
 20
263.5107292056
 30
0.0
  0
SPLINE
  5
2E1
100
AcDbEntity
  8
0
100
AcDbSpline
 62
7
  6
CONTINUOUS
 70
0
 71
3
 72
10
 73
6
 74
0
 42
0.0000001
 43
0.0000001
 44
0.0000000001
 40
0.0
 40
0.0
 40
0.0
 40
0.0
 40
0.2424715064
 40
0.4891694854
 40
1.0
 40
1.0
 40
1.0
 40
1.0
 10
119.2267997893
 20
269.1778336486
 30
0.0
 10
118.5751381521
 20
268.8953996824
 30
0.0
 10
117.3052415019
 20
268.215567205
 30
0.0
 10
114.9619358027
 20
266.4434912953
 30
0.0
 10
113.4955415801
 20
264.7380155161
 30
0.0
 10
112.6395810179
 20
263.5107292056
 30
0.0
  0
SPLINE
  5
2E2
100
AcDbEntity
  8
0
100
AcDbSpline
 62
7
  6
CONTINUOUS
 70
0
 71
3
 72
13
 73
9
 74
0
 42
0.0000001
 43
0.0000001
 44
0.0000000001
 40
0.0
 40
0.0
 40
0.0
 40
0.0
 40
0.1004251092
 40
0.203832481
 40
0.3128994823
 40
0.4297964767
 40
0.6926151041
 40
1.0
 40
1.0
 40
1.0
 40
1.0
 10
131.6374958859
 20
299.2022516483
 30
0.0
 10
131.6375155086
 20
299.7778644039
 30
0.0
 10
131.524616676
 20
300.9490551183
 30
0.0
 10
131.021770471
 20
302.6800729824
 30
0.0
 10
130.1918838535
 20
304.384932741
 30
0.0
 10
128.5980112734
 20
306.6995975456
 30
0.0
 10
125.7436260009
 20
309.4648860868
 30
0.0
 10
123.0103266436
 20
311.280766369
 30
0.0
 10
121.4846665828
 20
312.161959286
 30
0.0
  0
SPLINE
  5
2E3
100
AcDbEntity
  8
0
100
AcDbSpline
 62
7
  6
CONTINUOUS
 70
0
 71
3
 72
10
 73
6
 74
0
 42
0.0000001
 43
0.0000001
 44
0.0000000001
 40
0.0
 40
0.0
 40
0.0
 40
0.0
 40
0.2476664288
 40
0.4967384466
 40
1.0
 40
1.0
 40
1.0
 40
1.0
 10
99.7058075298
 20
263.4911227705
 30
0.0
 10
100.580083716
 20
263.6534742975
 30
0.0
 10
102.3571457337
 20
263.8647322239
 30
0.0
 10
105.9543884219
 20
263.837351407
 30
0.0
 10
108.6361901465
 20
263.3398364484
 30
0.0
 10
110.3757951543
 20
262.8512598751
 30
0.0
  0
SPLINE
  5
2E4
100
AcDbEntity
  8
0
100
AcDbSpline
 62
7
  6
CONTINUOUS
 70
0
 71
3
 72
9
 73
5
 74
0
 42
0.0000001
 43
0.0000001
 44
0.0000000001
 40
0.0
 40
0.0
 40
0.0
 40
0.0
 40
0.4843411281
 40
1.0
 40
1.0
 40
1.0
 40
1.0
 10
109.4520597743
 20
262.5989810893
 30
0.0
 10
106.3858880511
 20
261.777076948
 30
0.0
 10
99.9759272108
 20
260.3697809804
 30
0.0
 10
93.4805226198
 20
259.45069498
 30
0.0
 10
90.1201655281
 20
259.0898256146
 30
0.0
  0
SPLINE
  5
2E5
100
AcDbEntity
  8
0
100
AcDbSpline
 62
7
  6
CONTINUOUS
 70
0
 71
3
 72
10
 73
6
 74
0
 42
0.0000001
 43
0.0000001
 44
0.0000000001
 40
0.0
 40
0.0
 40
0.0
 40
0.0
 40
0.2500467517
 40
0.4999096263
 40
1.0
 40
1.0
 40
1.0
 40
1.0
 10
99.7058075298
 20
263.4911227705
 30
0.0
 10
98.8344457615
 20
263.3293124457
 30
0.0
 10
97.1112027877
 20
262.8914266907
 30
0.0
 10
93.8081636368
 20
261.5868321603
 30
0.0
 10
91.5274463912
 20
260.1674790364
 30
0.0
 10
90.1201655281
 20
259.0898256146
 30
0.0
  0
SPLINE
  5
2E6
100
AcDbEntity
  8
0
100
AcDbSpline
 62
7
  6
CONTINUOUS
 70
0
 71
3
 72
9
 73
5
 74
0
 42
0.0000001
 43
0.0000001
 44
0.0000000001
 40
0.0
 40
0.0
 40
0.0
 40
0.0
 40
0.5279524462
 40
1.0
 40
1.0
 40
1.0
 40
1.0
 10
136.7084875596
 20
294.9101653826
 30
0.0
 10
135.7918458467
 20
294.347885967
 30
0.0
 10
134.1062227034
 20
293.1962718759
 30
0.0
 10
132.5800572289
 20
291.8344038284
 30
0.0
 10
131.9202159277
 20
291.1350716228
 30
0.0
  0
SPLINE
  5
2E7
100
AcDbEntity
  8
0
100
AcDbSpline
 62
7
  6
CONTINUOUS
 70
0
 71
3
 72
10
 73
6
 74
0
 42
0.0000001
 43
0.0000001
 44
0.0000000001
 40
0.0
 40
0.0
 40
0.0
 40
0.0
 40
0.2500311207
 40
0.5001717342
 40
1.0
 40
1.0
 40
1.0
 40
1.0
 10
76.1400400422
 20
261.1766992837
 30
0.0
 10
77.1040288596
 20
261.1950155879
 30
0.0
 10
79.0367751274
 20
261.1161447618
 30
0.0
 10
82.8516028956
 20
260.5115100609
 30
0.0
 10
85.6197021057
 20
259.5898609283
 30
0.0
 10
87.387320261
 20
258.8214294644
 30
0.0
  0
SPLINE
  5
2E8
100
AcDbEntity
  8
0
100
AcDbSpline
 62
7
  6
CONTINUOUS
 70
0
 71
3
 72
9
 73
5
 74
0
 42
0.0000001
 43
0.0000001
 44
0.0000000001
 40
0.0
 40
0.0
 40
0.0
 40
0.0
 40
0.5264376627
 40
1.0
 40
1.0
 40
1.0
 40
1.0
 10
131.7311227074
 20
290.9312208291
 30
0.0
 10
131.1325129327
 20
290.2746644796
 30
0.0
 10
130.0938601259
 20
288.9296452862
 30
0.0
 10
129.3767328822
 20
287.379668834
 30
0.0
 10
129.145171511
 20
286.6147058291
 30
0.0
  0
SPLINE
  5
2E9
100
AcDbEntity
  8
0
100
AcDbSpline
 62
7
  6
CONTINUOUS
 70
0
 71
3
 72
9
 73
5
 74
0
 42
0.0000001
 43
0.0000001
 44
0.0000000001
 40
0.0
 40
0.0
 40
0.0
 40
0.0
 40
0.5187216361
 40
1.0
 40
1.0
 40
1.0
 40
1.0
 10
127.6950859273
 20
285.6645615459
 30
0.0
 10
126.1999121088
 20
285.2553416219
 30
0.0
 10
123.3398458343
 20
284.3812638794
 30
0.0
 10
120.5464544223
 20
283.3099187796
 30
0.0
 10
119.2267997893
 20
282.7379727409
 30
0.0
  0
SPLINE
  5
2EA
100
AcDbEntity
  8
0
100
AcDbSpline
 62
7
  6
CONTINUOUS
 70
0
 71
3
 72
9
 73
5
 74
0
 42
0.0000001
 43
0.0000001
 44
0.0000000001
 40
0.0
 40
0.0
 40
0.0
 40
0.0
 40
0.5254815859
 40
1.0
 40
1.0
 40
1.0
 40
1.0
 10
119.2267997893
 20
282.7379727409
 30
0.0
 10
118.0189397038
 20
282.2144791131
 30
0.0
 10
115.7578624905
 20
281.1278835046
 30
0.0
 10
113.6128115034
 20
279.8220257999
 30
0.0
 10
112.6395810178
 20
279.1394176339
 30
0.0
  0
SPLINE
  5
2EB
100
AcDbEntity
  8
0
100
AcDbSpline
 62
7
  6
CONTINUOUS
 70
0
 71
3
 72
9
 73
5
 74
0
 42
0.0000001
 43
0.0000001
 44
0.0000000001
 40
0.0
 40
0.0
 40
0.0
 40
0.0
 40
0.500245879
 40
1.0
 40
1.0
 40
1.0
 40
1.0
 10
76.1400400422
 20
261.1766992837
 30
0.0
 10
74.2169542977
 20
261.1401596238
 30
0.0
 10
70.3689175908
 20
260.5999613329
 30
0.0
 10
66.7456459277
 20
259.2319527641
 30
0.0
 10
65.0153019109
 20
258.3963491241
 30
0.0
  0
SPLINE
  5
2EC
100
AcDbEntity
  8
0
100
AcDbSpline
 62
7
  6
CONTINUOUS
 70
0
 71
3
 72
10
 73
6
 74
0
 42
0.0000001
 43
0.0000001
 44
0.0000000001
 40
0.0
 40
0.0
 40
0.0
 40
0.0
 40
0.250545728
 40
0.5006683251
 40
1.0
 40
1.0
 40
1.0
 40
1.0
 10
52.1171718023
 20
262.5869131837
 30
0.0
 10
53.0241188212
 20
262.4588891133
 30
0.0
 10
54.8226395347
 20
262.0884643134
 30
0.0
 10
58.2916689788
 20
260.9139025797
 30
0.0
 10
60.7186348118
 20
259.584429081
 30
0.0
 10
62.229448159
 20
258.5598870349
 30
0.0
  0
SPLINE
  5
2ED
100
AcDbEntity
  8
0
100
AcDbSpline
 62
7
  6
CONTINUOUS
 70
0
 71
3
 72
9
 73
5
 74
0
 42
0.0000001
 43
0.0000001
 44
0.0000000001
 40
0.0
 40
0.0
 40
0.0
 40
0.0
 40
0.5129844808
 40
1.0
 40
1.0
 40
1.0
 40
1.0
 10
62.229448159
 20
258.5598870349
 30
0.0
 10
58.5943490293
 20
258.8053161788
 30
0.0
 10
51.5221638446
 20
259.5273103591
 30
0.0
 10
44.5217318629
 20
260.7774092996
 30
0.0
 10
41.1469780758
 20
261.5358752433
 30
0.0
  0
SPLINE
  5
2EE
100
AcDbEntity
  8
0
100
AcDbSpline
 62
7
  6
CONTINUOUS
 70
0
 71
3
 72
10
 73
6
 74
0
 42
0.0000001
 43
0.0000001
 44
0.0000000001
 40
0.0
 40
0.0
 40
0.0
 40
0.0
 40
0.2482968309
 40
0.4977243043
 40
1.0
 40
1.0
 40
1.0
 40
1.0
 10
52.1171718023
 20
262.5869131837
 30
0.0
 10
51.2074793671
 20
262.7153247954
 30
0.0
 10
49.3654760956
 20
262.8574856077
 30
0.0
 10
45.6624575486
 20
262.6923547207
 30
0.0
 10
42.9200586308
 20
262.0926571241
 30
0.0
 10
41.1469780758
 20
261.5358752433
 30
0.0
  0
SPLINE
  5
2EF
100
AcDbEntity
  8
0
100
AcDbSpline
 62
7
  6
CONTINUOUS
 70
0
 71
3
 72
10
 73
6
 74
0
 42
0.0000001
 43
0.0000001
 44
0.0000000001
 40
0.0
 40
0.0
 40
0.0
 40
0.0
 40
0.2455183911
 40
0.4933889961
 40
1.0
 40
1.0
 40
1.0
 40
1.0
 10
31.2944667318
 20
267.507072188
 30
0.0
 10
32.0102043588
 20
267.2513920486
 30
0.0
 10
33.4114970762
 20
266.6260555734
 30
0.0
 10
36.0291804479
 20
264.958105892
 30
0.0
 10
37.7249050137
 20
263.3084438658
 30
0.0
 10
38.7322368192
 20
262.1064500508
 30
0.0
  0
SPLINE
  5
2F0
100
AcDbEntity
  8
0
100
AcDbSpline
 62
7
  6
CONTINUOUS
 70
0
 71
3
 72
9
 73
5
 74
0
 42
0.0000001
 43
0.0000001
 44
0.0000000001
 40
0.0
 40
0.0
 40
0.0
 40
0.0
 40
0.5296721
 40
1.0
 40
1.0
 40
1.0
 40
1.0
 10
38.7322368192
 20
262.1064500508
 30
0.0
 10
35.709943393
 20
262.8563900294
 30
0.0
 10
30.0601039261
 20
264.5148961531
 30
0.0
 10
24.6142434214
 20
266.7783220869
 30
0.0
 10
22.1489299599
 20
268.0304395804
 30
0.0
  0
SPLINE
  5
2F1
100
AcDbEntity
  8
0
100
AcDbSpline
 62
7
  6
CONTINUOUS
 70
0
 71
3
 72
10
 73
6
 74
0
 42
0.0000001
 43
0.0000001
 44
0.0000000001
 40
0.0
 40
0.0
 40
0.0
 40
0.0
 40
0.2459117504
 40
0.4936084067
 40
1.0
 40
1.0
 40
1.0
 40
1.0
 10
31.2944667318
 20
267.507072188
 30
0.0
 10
30.5799468763
 20
267.7623173076
 30
0.0
 10
29.1037845968
 20
268.1651201419
 30
0.0
 10
26.0314277654
 20
268.5298685675
 30
0.0
 10
23.6838583793
 20
268.322308956
 30
0.0
 10
22.1489299599
 20
268.0304395804
 30
0.0
  0
SPLINE
  5
2F2
100
AcDbEntity
  8
0
100
AcDbSpline
 62
7
  6
CONTINUOUS
 70
0
 71
3
 72
11
 73
7
 74
0
 42
0.0000001
 43
0.0000001
 44
0.0000000001
 40
0.0
 40
0.0
 40
0.0
 40
0.0
 40
0.2251906757
 40
0.4659506709
 40
0.7243131999
 40
1.0
 40
1.0
 40
1.0
 40
1.0
 10
16.8419929193
 20
275.188125823
 30
0.0
 10
17.265324351
 20
274.8351778422
 30
0.0
 10
18.06444948
 20
274.0094710444
 30
0.0
 10
19.0531445804
 20
272.5292314819
 30
0.0
 10
19.8677749871
 20
270.8107740209
 30
0.0
 10
20.2866012867
 20
269.5697070251
 30
0.0
 10
20.472923665
 20
268.9211864424
 30
0.0
  0
SPLINE
  5
2F3
100
AcDbEntity
  8
0
100
AcDbSpline
 62
7
  6
CONTINUOUS
 70
0
 71
3
 72
9
 73
5
 74
0
 42
0.0000001
 43
0.0000001
 44
0.0000000001
 40
0.0
 40
0.0
 40
0.0
 40
0.0
 40
0.2680493672
 40
1.0
 40
1.0
 40
1.0
 40
1.0
 10
14.8072134773
 20
272.7417224434
 30
0.0
 10
14.4160720508
 20
273.0678323571
 30
0.0
 10
12.9908435336
 20
274.3231546211
 30
0.0
 10
11.7059992163
 20
275.7486724574
 30
0.0
 10
10.9134381711
 20
276.8913035886
 30
0.0
  0
SPLINE
  5
2F4
100
AcDbEntity
  8
0
100
AcDbSpline
 62
7
  6
CONTINUOUS
 70
0
 71
3
 72
9
 73
5
 74
0
 42
0.0000001
 43
0.0000001
 44
0.0000000001
 40
0.0
 40
0.0
 40
0.0
 40
0.0
 40
0.5216869087
 40
1.0
 40
1.0
 40
1.0
 40
1.0
 10
20.472923665
 20
268.9211864424
 30
0.0
 10
19.4334320408
 20
269.4996418709
 30
0.0
 10
17.4812728547
 20
270.6836342755
 30
0.0
 10
15.6449428869
 20
272.0432746518
 30
0.0
 10
14.8072134773
 20
272.7417224434
 30
0.0
  0
SPLINE
  5
2F5
100
AcDbEntity
  8
0
100
AcDbSpline
 62
7
  6
CONTINUOUS
 70
0
 71
3
 72
11
 73
7
 74
0
 42
0.0000001
 43
0.0000001
 44
0.0000000001
 40
0.0
 40
0.0
 40
0.0
 40
0.0
 40
0.2489628364
 40
0.493556014
 40
0.7418667123
 40
1.0
 40
1.0
 40
1.0
 40
1.0
 10
16.8419929193
 20
275.188125823
 30
0.0
 10
16.438858759
 20
275.5242345482
 30
0.0
 10
15.5678307441
 20
276.1106880081
 30
0.0
 10
14.0999472067
 20
276.6838663697
 30
0.0
 10
12.5286370946
 20
276.9460310294
 30
0.0
 10
11.4559278576
 20
276.9344290286
 30
0.0
 10
10.9134381711
 20
276.8913035886
 30
0.0
  0
SPLINE
  5
2F6
100
AcDbEntity
  8
0
100
AcDbSpline
 62
7
  6
CONTINUOUS
 70
0
 71
3
 72
9
 73
5
 74
0
 42
0.0000001
 43
0.0000001
 44
0.0000000001
 40
0.0
 40
0.0
 40
0.0
 40
0.0
 40
0.5154723445
 40
1.0
 40
1.0
 40
1.0
 40
1.0
 10
10.2313236033
 20
277.9666143699
 30
0.0
 10
9.7272258637
 20
278.842242607
 30
0.0
 10
8.9256058572
 20
280.6550653116
 30
0.0
 10
8.6375042628
 20
282.623851249
 30
0.0
 10
8.6375440374
 20
283.5735631914
 30
0.0
  0
SPLINE
  5
2F7
100
AcDbEntity
  8
0
100
AcDbSpline
 62
7
  6
CONTINUOUS
 70
0
 71
3
 72
9
 73
5
 74
0
 42
0.0000001
 43
0.0000001
 44
0.0000000001
 40
0.0
 40
0.0
 40
0.0
 40
0.0
 40
0.4944414568
 40
1.0
 40
1.0
 40
1.0
 40
1.0
 10
10.2574497287
 20
286.273019599
 30
0.0
 10
10.1165191106
 20
286.4197995869
 30
0.0
 10
9.7700703966
 20
286.6649393418
 30
0.0
 10
9.3584739339
 20
286.7538250377
 30
0.0
 10
9.1510044843
 20
286.7694810464
 30
0.0
  0
SPLINE
  5
2F8
100
AcDbEntity
  8
0
100
AcDbSpline
 62
7
  6
CONTINUOUS
 70
0
 71
3
 72
9
 73
5
 74
0
 42
0.0000001
 43
0.0000001
 44
0.0000000001
 40
0.0
 40
0.0
 40
0.0
 40
0.0
 40
0.2556903406
 40
1.0
 40
1.0
 40
1.0
 40
1.0
 10
110.3757951543
 20
278.4799483034
 30
0.0
 10
109.4614444479
 20
278.4013621507
 30
0.0
 10
105.8891783054
 20
278.0528594506
 30
0.0
 10
102.3323743309
 20
277.5390106287
 30
0.0
 10
99.7058075298
 20
277.0512618628
 30
0.0
  0
SPLINE
  5
2F9
100
AcDbEntity
  8
0
100
AcDbSpline
 62
7
  6
CONTINUOUS
 70
0
 71
3
 72
9
 73
5
 74
0
 42
0.0000001
 43
0.0000001
 44
0.0000000001
 40
0.0
 40
0.0
 40
0.0
 40
0.0
 40
0.2602016354
 40
1.0
 40
1.0
 40
1.0
 40
1.0
 10
99.7058075298
 20
277.0512618628
 30
0.0
 10
98.864266053
 20
276.8949891129
 30
0.0
 10
95.6382291347
 20
276.2523273596
 30
0.0
 10
92.4447753012
 20
275.4384913149
 30
0.0
 10
90.1201655281
 20
274.718514043
 30
0.0
  0
SPLINE
  5
2FA
100
AcDbEntity
  8
0
100
AcDbSpline
 62
7
  6
CONTINUOUS
 70
0
 71
3
 72
14
 73
10
 74
0
 42
0.0000001
 43
0.0000001
 44
0.0000000001
 40
0.0
 40
0.0
 40
0.0
 40
0.0
 40
0.2790746219
 40
0.4121550958
 40
0.53958491
 40
0.6612140271
 40
0.7775688777
 40
0.8898765952
 40
1.0
 40
1.0
 40
1.0
 40
1.0
 10
-51.9661495573
 20
271.4794951836
 30
0.0
 10
-53.5593179566
 20
267.1604368291
 30
0.0
 10
-55.1174814491
 20
260.4259822196
 30
0.0
 10
-55.1918434837
 20
251.4995155822
 30
0.0
 10
-54.2555591546
 20
245.2357313361
 30
0.0
 10
-52.3457216239
 20
239.4844349254
 30
0.0
 10
-49.505896316
 20
234.4081055341
 30
0.0
 10
-45.811115078
 20
230.1615377315
 30
0.0
 10
-42.8295209126
 20
227.962670357
 30
0.0
 10
-41.2565444434
 20
227.0540245443
 30
0.0
  0
SPLINE
  5
2FB
100
AcDbEntity
  8
0
100
AcDbSpline
 62
7
  6
CONTINUOUS
 70
0
 71
3
 72
13
 73
9
 74
0
 42
0.0000001
 43
0.0000001
 44
0.0000000001
 40
0.0
 40
0.0
 40
0.0
 40
0.0
 40
0.2719533686
 40
0.5317360993
 40
0.6555390173
 40
0.7747086811
 40
0.8893609307
 40
1.0
 40
1.0
 40
1.0
 40
1.0
 10
-32.3311925175
 20
264.5769565386
 30
0.0
 10
-34.0032577719
 20
260.9071413761
 30
0.0
 10
-36.52837245
 20
253.3633575079
 30
0.0
 10
-37.4849006602
 20
243.5886966253
 30
0.0
 10
-36.7677598766
 20
236.1479252734
 30
0.0
 10
-35.534509954
 20
230.9707891929
 30
0.0
 10
-33.6194471586
 20
226.2146879812
 30
0.0
 10
-31.8810911411
 20
223.340168676
 30
0.0
 10
-30.9130182743
 20
222.0155534719
 30
0.0
  0
SPLINE
  5
2FC
100
AcDbEntity
  8
0
100
AcDbSpline
 62
7
  6
CONTINUOUS
 70
0
 71
3
 72
15
 73
11
 74
0
 42
0.0000001
 43
0.0000001
 44
0.0000000001
 40
0.0
 40
0.0
 40
0.0
 40
0.0
 40
0.2782530297
 40
0.4137299023
 40
0.5435954086
 40
0.6666034629
 40
0.7826202858
 40
0.8928390611
 40
0.9466360361
 40
1.0
 40
1.0
 40
1.0
 40
1.0
 10
77.295050402
 20
212.7919623862
 30
0.0
 10
75.2466405216
 20
208.296153614
 30
0.0
 10
71.0873439097
 20
202.0342870791
 30
0.0
 10
63.9068351777
 20
195.5341233792
 30
0.0
 10
58.0225280076
 20
191.8593017084
 30
0.0
 10
51.8520340548
 20
189.5259179191
 30
0.0
 10
45.657287054
 20
188.6485546304
 30
0.0
 10
40.6523560812
 20
189.1981138255
 30
0.0
 10
36.9729597175
 20
190.3969919413
 30
0.0
 10
35.256023009
 20
191.2342446505
 30
0.0
 10
34.4355312002
 20
191.7081004259
 30
0.0
  0
SPLINE
  5
2FD
100
AcDbEntity
  8
0
100
AcDbSpline
 62
7
  6
CONTINUOUS
 70
0
 71
3
 72
19
 73
15
 74
0
 42
0.0000001
 43
0.0000001
 44
0.0000000001
 40
0.0
 40
0.0
 40
0.0
 40
0.0
 40
0.0544173951
 40
0.1109269862
 40
0.1702917177
 40
0.2328215949
 40
0.3659598011
 40
0.5056771063
 40
0.6440083381
 40
0.7735423466
 40
0.8339406934
 40
0.8913266525
 40
0.9463163729
 40
1.0
 40
1.0
 40
1.0
 40
1.0
 10
39.4955892216
 20
220.7876405291
 30
0.0
 10
39.0415259309
 20
220.9575446465
 30
0.0
 10
38.069041092
 20
221.1887490024
 30
0.0
 10
36.5400121804
 20
221.1887439028
 30
0.0
 10
34.9753508495
 20
220.8519834282
 30
0.0
 10
32.8743890325
 20
219.9576189208
 30
0.0
 10
30.4756751087
 20
218.0839966617
 30
0.0
 10
28.3325986003
 20
215.0552470017
 30
0.0
 10
27.1149736418
 20
211.5832693287
 30
0.0
 10
27.0150633884
 20
208.5991723297
 30
0.0
 10
27.5551972421
 20
206.4497785573
 30
0.0
 10
28.2316300871
 20
205.0534532314
 30
0.0
 10
29.1669519656
 20
203.8903515461
 30
0.0
 10
29.9477419358
 20
203.2981933505
 30
0.0
 10
30.3619133293
 20
203.0590133824
 30
0.0
  0
SPLINE
  5
2FE
100
AcDbEntity
  8
0
100
AcDbSpline
 62
7
  6
CONTINUOUS
 70
0
 71
3
 72
19
 73
15
 74
0
 42
0.0000001
 43
0.0000001
 44
0.0000000001
 40
0.0
 40
0.0
 40
0.0
 40
0.0
 40
0.0544173951
 40
0.1109269862
 40
0.1702917177
 40
0.2328215949
 40
0.3659598011
 40
0.5056771063
 40
0.6440083381
 40
0.7735423466
 40
0.8339406934
 40
0.8913266525
 40
0.9463163729
 40
1.0
 40
1.0
 40
1.0
 40
1.0
 10
45.875353375
 20
244.3395273667
 30
0.0
 10
45.4212900844
 20
244.5094314841
 30
0.0
 10
44.4488052454
 20
244.74063584
 30
0.0
 10
42.9197763338
 20
244.7406307404
 30
0.0
 10
41.3551150029
 20
244.4038702658
 30
0.0
 10
39.2541531859
 20
243.5095057584
 30
0.0
 10
36.8554392621
 20
241.6358834993
 30
0.0
 10
34.7123627537
 20
238.6071338393
 30
0.0
 10
33.4947377953
 20
235.1351561663
 30
0.0
 10
33.3948275419
 20
232.1510591673
 30
0.0
 10
33.9349613955
 20
230.0016653949
 30
0.0
 10
34.6113942405
 20
228.605340069
 30
0.0
 10
35.546716119
 20
227.4422383837
 30
0.0
 10
36.3275060893
 20
226.8500801881
 30
0.0
 10
36.7416774828
 20
226.61090022
 30
0.0
  0
SPLINE
  5
2FF
100
AcDbEntity
  8
0
100
AcDbSpline
 62
7
  6
CONTINUOUS
 70
0
 71
3
 72
19
 73
15
 74
0
 42
0.0000001
 43
0.0000001
 44
0.0000000001
 40
0.0
 40
0.0
 40
0.0
 40
0.0
 40
0.0544173951
 40
0.1109269862
 40
0.1702917177
 40
0.2328215949
 40
0.3659598011
 40
0.5056771063
 40
0.6440083381
 40
0.7735423466
 40
0.8339406934
 40
0.8913266525
 40
0.9463163729
 40
1.0
 40
1.0
 40
1.0
 40
1.0
 10
66.520703856
 20
249.873626755
 30
0.0
 10
66.0666405653
 20
250.0435308724
 30
0.0
 10
65.0941557264
 20
250.2747352283
 30
0.0
 10
63.5651268148
 20
250.2747301286
 30
0.0
 10
62.0004654839
 20
249.9379696541
 30
0.0
 10
59.8995036668
 20
249.0436051466
 30
0.0
 10
57.500789743
 20
247.1699828876
 30
0.0
 10
55.3577132347
 20
244.1412332275
 30
0.0
 10
54.1400882762
 20
240.6692555545
 30
0.0
 10
54.0401780228
 20
237.6851585556
 30
0.0
 10
54.5803118764
 20
235.5357647832
 30
0.0
 10
55.2567447214
 20
234.1394394573
 30
0.0
 10
56.1920665999
 20
232.9763377719
 30
0.0
 10
56.9728565702
 20
232.3841795763
 30
0.0
 10
57.3870279637
 20
232.1449996083
 30
0.0
  0
SPLINE
  5
300
100
AcDbEntity
  8
0
100
AcDbSpline
 62
7
  6
CONTINUOUS
 70
0
 71
3
 72
19
 73
15
 74
0
 42
0.0000001
 43
0.0000001
 44
0.0000000001
 40
0.0
 40
0.0
 40
0.0
 40
0.0
 40
0.0544173951
 40
0.1109269862
 40
0.1702917177
 40
0.2328215949
 40
0.3659598011
 40
0.5056771063
 40
0.6440083381
 40
0.7735423466
 40
0.8339406934
 40
0.8913266525
 40
0.9463163729
 40
1.0
 40
1.0
 40
1.0
 40
1.0
 10
72.9004680094
 20
229.7420014364
 30
0.0
 10
72.4464047187
 20
229.9119055538
 30
0.0
 10
71.4739198798
 20
230.1431099097
 30
0.0
 10
69.9448909682
 20
230.1431048101
 30
0.0
 10
68.3802296373
 20
229.8063443355
 30
0.0
 10
66.2792678203
 20
228.9119798281
 30
0.0
 10
63.8805538965
 20
227.038357569
 30
0.0
 10
61.7374773881
 20
224.009607909
 30
0.0
 10
60.5198524296
 20
220.537630236
 30
0.0
 10
60.4199421762
 20
217.553533237
 30
0.0
 10
60.9600760299
 20
215.4041394646
 30
0.0
 10
61.6365088749
 20
214.0078141387
 30
0.0
 10
62.5718307534
 20
212.8447124534
 30
0.0
 10
63.3526207236
 20
212.2525542578
 30
0.0
 10
63.7667921171
 20
212.0133742897
 30
0.0
  0
SPLINE
  5
301
100
AcDbEntity
  8
0
100
AcDbSpline
 62
7
  6
CONTINUOUS
 70
0
 71
3
 72
9
 73
5
 74
0
 42
0.0000001
 43
0.0000001
 44
0.0000000001
 40
0.0
 40
0.0
 40
0.0
 40
0.0
 40
0.4850812699
 40
1.0
 40
1.0
 40
1.0
 40
1.0
 10
53.351957164
 20
210.2020204972
 30
0.0
 10
52.8956767664
 20
210.3727542254
 30
0.0
 10
51.8874474978
 20
210.5599392452
 30
0.0
 10
50.8762597082
 20
210.4252021028
 30
0.0
 10
50.3767504501
 20
210.2913059075
 30
0.0
  0
SPLINE
  5
302
100
AcDbEntity
  8
0
100
AcDbSpline
 62
7
  6
CONTINUOUS
 70
0
 71
3
 72
16
 73
12
 74
0
 42
0.0000001
 43
0.0000001
 44
0.0000000001
 40
0.0
 40
0.0
 40
0.0
 40
0.0
 40
0.1228904407
 40
0.2547994405
 40
0.3918394615
 40
0.5286356098
 40
0.6598932117
 40
0.7818905911
 40
0.8939517433
 40
0.9474090867
 40
1.0
 40
1.0
 40
1.0
 40
1.0
 10
50.3767504501
 20
210.2913059075
 30
0.0
 10
49.7346810771
 20
210.1191956918
 30
0.0
 10
48.4589536257
 20
209.5364726692
 30
0.0
 10
46.8219033197
 20
208.1573436066
 30
0.0
 10
45.5164665453
 20
206.3673809801
 30
0.0
 10
44.6607588066
 20
204.3281016264
 30
0.0
 10
44.3333981501
 20
202.2202441564
 30
0.0
 10
44.5708540075
 20
200.2300991293
 30
0.0
 10
45.2596847078
 20
198.7943437037
 30
0.0
 10
46.0608935859
 20
197.9190164531
 30
0.0
 10
46.5294016437
 20
197.5797369679
 30
0.0
 10
46.7757383488
 20
197.4374569926
 30
0.0
  0
SPLINE
  5
303
100
AcDbEntity
  8
0
100
AcDbSpline
 62
7
  6
CONTINUOUS
 70
0
 71
3
 72
9
 73
5
 74
0
 42
0.0000001
 43
0.0000001
 44
0.0000000001
 40
0.0
 40
0.0
 40
0.0
 40
0.0
 40
0.4850812696
 40
1.0
 40
1.0
 40
1.0
 40
1.0
 10
51.8850149648
 20
226.5182658225
 30
0.0
 10
51.6537061525
 20
226.6048183381
 30
0.0
 10
51.1425899257
 20
226.6997107426
 30
0.0
 10
50.6299738935
 20
226.6314064976
 30
0.0
 10
50.3767504501
 20
226.5635285652
 30
0.0
  0
SPLINE
  5
304
100
AcDbEntity
  8
0
100
AcDbSpline
 62
7
  6
CONTINUOUS
 70
0
 71
3
 72
14
 73
10
 74
0
 42
0.0000001
 43
0.0000001
 44
0.0000000001
 40
0.0
 40
0.0
 40
0.0
 40
0.0
 40
0.2531295251
 40
0.3905744709
 40
0.5277731793
 40
0.6594184851
 40
0.7817755715
 40
0.8941624824
 40
1.0
 40
1.0
 40
1.0
 40
1.0
 10
50.3767504501
 20
226.5635285652
 30
0.0
 10
49.7082776541
 20
226.3843407672
 30
0.0
 10
48.7644561882
 20
225.7469472125
 30
0.0
 10
47.9142208142
 20
224.5751850742
 30
0.0
 10
47.4788204088
 20
223.5403180208
 30
0.0
 10
47.3129066713
 20
222.4721886477
 30
0.0
 10
47.4342599087
 20
221.4627385148
 30
0.0
 10
47.8432292362
 20
220.6048245437
 30
0.0
 10
48.3006930304
 20
220.1921188184
 30
0.0
 10
48.5512526831
 20
220.0473677663
 30
0.0
  0
SPLINE
  5
305
100
AcDbEntity
  8
0
100
AcDbSpline
 62
7
  6
CONTINUOUS
 70
0
 71
3
 72
13
 73
9
 74
0
 42
0.0000001
 43
0.0000001
 44
0.0000000001
 40
0.0
 40
0.0
 40
0.0
 40
0.0
 40
0.1090840245
 40
0.2209707961
 40
0.3374842232
 40
0.4597128016
 40
0.7209220373
 40
1.0
 40
1.0
 40
1.0
 40
1.0
 10
70.4985455486
 20
252.2681798762
 30
0.0
 10
71.8282367284
 20
251.4160204643
 30
0.0
 10
74.3277944341
 20
249.3658859048
 30
0.0
 10
77.3355524397
 20
245.4682330737
 30
0.0
 10
79.5442289318
 20
240.8584038836
 30
0.0
 10
81.3799037567
 20
233.8179343896
 30
0.0
 10
81.2980332762
 20
224.0514540124
 30
0.0
 10
78.970313546
 20
216.4687962124
 30
0.0
 10
77.295050402
 20
212.7919623862
 30
0.0
  0
SPLINE
  5
306
100
AcDbEntity
  8
0
100
AcDbSpline
 62
7
  6
CONTINUOUS
 70
0
 71
3
 72
9
 73
5
 74
0
 42
0.0000001
 43
0.0000001
 44
0.0000000001
 40
0.0
 40
0.0
 40
0.0
 40
0.0
 40
0.4845801116
 40
1.0
 40
1.0
 40
1.0
 40
1.0
 10
7.2075647817
 20
294.3809792548
 30
0.0
 10
4.4921467947
 20
294.3405893918
 30
0.0
 10
-1.1153975903
 20
293.4976552391
 30
0.0
 10
-6.361054548
 20
291.3924171072
 30
0.0
 10
-8.9225448338
 20
290.0573122605
 30
0.0
  0
SPLINE
  5
307
100
AcDbEntity
  8
0
100
AcDbSpline
 62
7
  6
CONTINUOUS
 70
0
 71
3
 72
15
 73
11
 74
0
 42
0.0000001
 43
0.0000001
 44
0.0000000001
 40
0.0
 40
0.0
 40
0.0
 40
0.0
 40
0.0537003359
 40
0.1077934733
 40
0.2183698503
 40
0.3342897878
 40
0.4567932783
 40
0.5859668702
 40
0.72089518
 40
1.0
 40
1.0
 40
1.0
 40
1.0
 10
1.2561580703
 20
300.6587155257
 30
0.0
 10
0.3184747534
 20
301.2002819629
 30
0.0
 10
-1.6386497665
 20
302.163561639
 30
0.0
 10
-5.8201373484
 20
303.5762558067
 30
0.0
 10
-11.494588084
 20
304.3208305258
 30
0.0
 10
-18.5483330023
 20
303.5481372607
 30
0.0
 10
-25.6260141693
 20
301.1823430553
 30
0.0
 10
-32.4550148353
 20
297.3300725359
 30
0.0
 10
-40.9594981965
 20
290.3682627777
 30
0.0
 10
-46.0774205432
 20
283.5479093305
 30
0.0
 10
-48.7502123394
 20
278.5950623437
 30
0.0
  0
SPLINE
  5
308
100
AcDbEntity
  8
0
100
AcDbSpline
 62
7
  6
CONTINUOUS
 70
0
 71
3
 72
19
 73
15
 74
0
 42
0.0000001
 43
0.0000001
 44
0.0000000001
 40
0.0
 40
0.0
 40
0.0
 40
0.0
 40
0.0544173951
 40
0.1109269862
 40
0.1702917177
 40
0.2328215949
 40
0.3659598011
 40
0.5056771063
 40
0.6440083381
 40
0.7735423466
 40
0.8339406934
 40
0.8913266525
 40
0.9463163729
 40
1.0
 40
1.0
 40
1.0
 40
1.0
 10
64.6360049151
 20
211.6033241964
 30
0.0
 10
65.0900682058
 20
211.4334200791
 30
0.0
 10
66.0625530447
 20
211.2022157231
 30
0.0
 10
67.5915819563
 20
211.2022208228
 30
0.0
 10
69.1562432872
 20
211.5389812973
 30
0.0
 10
71.2572051043
 20
212.4333458048
 30
0.0
 10
73.6559190281
 20
214.3069680638
 30
0.0
 10
75.7989955364
 20
217.3357177239
 30
0.0
 10
77.0166204949
 20
220.8076953969
 30
0.0
 10
77.1165307483
 20
223.7917923958
 30
0.0
 10
76.5763968947
 20
225.9411861682
 30
0.0
 10
75.8999640497
 20
227.3375114941
 30
0.0
 10
74.9646421712
 20
228.5006131795
 30
0.0
 10
74.1838522009
 20
229.0927713751
 30
0.0
 10
73.7696808074
 20
229.3319513431
 30
0.0
  0
SPLINE
  5
309
100
AcDbEntity
  8
0
100
AcDbSpline
 62
7
  6
CONTINUOUS
 70
0
 71
3
 72
9
 73
5
 74
0
 42
0.0000001
 43
0.0000001
 44
0.0000000001
 40
0.0
 40
0.0
 40
0.0
 40
0.0
 40
0.4850815717
 40
1.0
 40
1.0
 40
1.0
 40
1.0
 10
47.8509208903
 20
193.4458093401
 30
0.0
 10
48.49731819
 20
193.2039365259
 30
0.0
 10
49.9256439493
 20
192.9387717294
 30
0.0
 10
51.3581597292
 20
193.129635607
 30
0.0
 10
52.0657970684
 20
193.3193216756
 30
0.0
  0
SPLINE
  5
30A
100
AcDbEntity
  8
0
100
AcDbSpline
 62
7
  6
CONTINUOUS
 70
0
 71
3
 72
17
 73
13
 74
0
 42
0.0000001
 43
0.0000001
 44
0.0000000001
 40
0.0
 40
0.0
 40
0.0
 40
0.0
 40
0.1240527107
 40
0.2574961006
 40
0.3958247437
 40
0.5330006033
 40
0.6633348138
 40
0.7833398352
 40
0.8396741708
 40
0.8939956576
 40
0.947128992
 40
1.0
 40
1.0
 40
1.0
 40
1.0
 10
52.0657970684
 20
193.3193216756
 30
0.0
 10
53.0231545115
 20
193.5759465871
 30
0.0
 10
54.9229945714
 20
194.4635860803
 30
0.0
 10
57.3261989643
 20
196.5711979697
 30
0.0
 10
59.1910517261
 20
199.2949378679
 30
0.0
 10
60.3318730281
 20
202.3666007995
 30
0.0
 10
60.6344145716
 20
205.4857635478
 30
0.0
 10
60.1278991193
 20
207.9347465399
 30
0.0
 10
59.2699810178
 20
209.5774409681
 30
0.0
 10
58.442701164
 20
210.6035160135
 30
0.0
 10
57.4404208275
 20
211.4162341479
 30
0.0
 10
56.6763111589
 20
211.7992179611
 30
0.0
 10
56.2806732464
 20
211.9472601249
 30
0.0
  0
SPLINE
  5
30B
100
AcDbEntity
  8
0
100
AcDbSpline
 62
7
  6
CONTINUOUS
 70
0
 71
3
 72
9
 73
5
 74
0
 42
0.0000001
 43
0.0000001
 44
0.0000000001
 40
0.0
 40
0.0
 40
0.0
 40
0.0
 40
0.4850815717
 40
1.0
 40
1.0
 40
1.0
 40
1.0
 10
56.2806732464
 20
211.9472601249
 30
0.0
 10
55.6342759464
 20
212.1891329384
 30
0.0
 10
54.2059501876
 20
212.4542977363
 30
0.0
 10
52.7734344075
 20
212.2634338581
 30
0.0
 10
52.0657970684
 20
212.0737477895
 30
0.0
  0
SPLINE
  5
30C
100
AcDbEntity
  8
0
100
AcDbSpline
 62
7
  6
CONTINUOUS
 70
0
 71
3
 72
17
 73
13
 74
0
 42
0.0000001
 43
0.0000001
 44
0.0000000001
 40
0.0
 40
0.0
 40
0.0
 40
0.0
 40
0.1240527107
 40
0.2574961006
 40
0.3958247437
 40
0.5330006033
 40
0.6633348138
 40
0.7833398353
 40
0.8396741708
 40
0.8939956576
 40
0.947128992
 40
1.0
 40
1.0
 40
1.0
 40
1.0
 10
52.0657970684
 20
212.0737477895
 30
0.0
 10
51.1084396253
 20
211.817122878
 30
0.0
 10
49.2085995653
 20
210.9294833848
 30
0.0
 10
46.8053951724
 20
208.8218714954
 30
0.0
 10
44.9405424106
 20
206.0981315972
 30
0.0
 10
43.7997211086
 20
203.0264686656
 30
0.0
 10
43.4971795651
 20
199.9073059173
 30
0.0
 10
44.0036950174
 20
197.4583229252
 30
0.0
 10
44.861613119
 20
195.8156284971
 30
0.0
 10
45.6888929726
 20
194.7895534514
 30
0.0
 10
46.6911733094
 20
193.9768353173
 30
0.0
 10
47.455282978
 20
193.5938515045
 30
0.0
 10
47.8509208903
 20
193.4458093401
 30
0.0
  0
SPLINE
  5
30D
100
AcDbEntity
  8
0
100
AcDbSpline
 62
7
  6
CONTINUOUS
 70
0
 71
3
 72
9
 73
5
 74
0
 42
0.0000001
 43
0.0000001
 44
0.0000000001
 40
0.0
 40
0.0
 40
0.0
 40
0.0
 40
0.4850815719
 40
1.0
 40
1.0
 40
1.0
 40
1.0
 10
49.3178630895
 20
216.2012850856
 30
0.0
 10
49.7392887751
 20
216.0435934827
 30
0.0
 10
50.6705011652
 20
215.8707164564
 30
0.0
 10
51.6044452739
 20
215.9951522107
 30
0.0
 10
52.0657970684
 20
216.1188200886
 30
0.0
  0
SPLINE
  5
30E
100
AcDbEntity
  8
0
100
AcDbSpline
 62
7
  6
CONTINUOUS
 70
0
 71
3
 72
16
 73
12
 74
0
 42
0.0000001
 43
0.0000001
 44
0.0000000001
 40
0.0
 40
0.0
 40
0.0
 40
0.0
 40
0.1241223351
 40
0.2576343068
 40
0.3960373571
 40
0.5332859613
 40
0.6636908297
 40
0.7837594329
 40
0.8939368693
 40
0.947108017
 40
1.0
 40
1.0
 40
1.0
 40
1.0
 10
52.0657970684
 20
216.1188200886
 30
0.0
 10
52.6899712455
 20
216.286133399
 30
0.0
 10
53.9286024915
 20
216.8648307641
 30
0.0
 10
55.4953411329
 20
218.2389581984
 30
0.0
 10
56.7111585873
 20
220.014746192
 30
0.0
 10
57.4551765709
 20
222.0169815899
 30
0.0
 10
57.6511501268
 20
224.0519934227
 30
0.0
 10
57.2676827378
 20
225.9237712486
 30
0.0
 10
56.4508091573
 20
227.2039805141
 30
0.0
 10
55.5697600958
 20
227.9170694389
 30
0.0
 10
55.0716350943
 20
228.1670013609
 30
0.0
 10
54.8137310472
 20
228.2635054503
 30
0.0
  0
SPLINE
  5
30F
100
AcDbEntity
  8
0
100
AcDbSpline
 62
7
  6
CONTINUOUS
 70
0
 71
3
 72
9
 73
5
 74
0
 42
0.0000001
 43
0.0000001
 44
0.0000000001
 40
0.0
 40
0.0
 40
0.0
 40
0.0
 40
0.4850815718
 40
1.0
 40
1.0
 40
1.0
 40
1.0
 10
54.8137310472
 20
228.2635054503
 30
0.0
 10
54.3923053609
 20
228.4211970513
 30
0.0
 10
53.461092972
 20
228.5940740808
 30
0.0
 10
52.5271488629
 20
228.4696383252
 30
0.0
 10
52.0657970684
 20
228.3459704473
 30
0.0
  0
SPLINE
  5
310
100
AcDbEntity
  8
0
100
AcDbSpline
 62
7
  6
CONTINUOUS
 70
0
 71
3
 72
16
 73
12
 74
0
 42
0.0000001
 43
0.0000001
 44
0.0000000001
 40
0.0
 40
0.0
 40
0.0
 40
0.0
 40
0.1241223351
 40
0.2576343068
 40
0.3960373571
 40
0.5332859613
 40
0.6636908297
 40
0.7837594329
 40
0.8939368693
 40
0.947108017
 40
1.0
 40
1.0
 40
1.0
 40
1.0
 10
52.0657970684
 20
228.3459704473
 30
0.0
 10
51.4416228912
 20
228.1786571369
 30
0.0
 10
50.2029916453
 20
227.5999597718
 30
0.0
 10
48.6362530038
 20
226.2258323375
 30
0.0
 10
47.4204355495
 20
224.4500443439
 30
0.0
 10
46.6764175658
 20
222.4478089461
 30
0.0
 10
46.4804440099
 20
220.4127971132
 30
0.0
 10
46.8639113992
 20
218.5410192875
 30
0.0
 10
47.6807849789
 20
217.2608100213
 30
0.0
 10
48.5618340414
 20
216.5477210974
 30
0.0
 10
49.0599590429
 20
216.2977891762
 30
0.0
 10
49.3178630895
 20
216.2012850856
 30
0.0
  0
SPLINE
  5
311
100
AcDbEntity
  8
0
100
AcDbSpline
 62
7
  6
CONTINUOUS
 70
0
 71
3
 72
15
 73
11
 74
0
 42
0.0000001
 43
0.0000001
 44
0.0000000001
 40
0.0
 40
0.0
 40
0.0
 40
0.0
 40
0.1127752101
 40
0.2349147645
 40
0.3651864118
 40
0.5000913315
 40
0.6349774641
 40
0.7652036621
 40
0.8872766648
 40
1.0
 40
1.0
 40
1.0
 40
1.0
 10
27.1782814753
 20
210.3931764702
 30
0.0
 10
27.6383120558
 20
210.3879748396
 30
0.0
 10
28.6026083904
 20
210.5510128302
 30
0.0
 10
29.9512975419
 20
211.222478316
 30
0.0
 10
31.1588867077
 20
212.2646508309
 30
0.0
 10
32.1310893154
 20
213.5919758028
 30
0.0
 10
32.7926081735
 20
215.0982352746
 30
0.0
 10
33.0891154591
 20
216.6649993927
 30
0.0
 10
32.9941394333
 20
218.1679998298
 30
0.0
 10
32.6513316526
 20
219.0834346072
 30
0.0
 10
32.4161547456
 20
219.4785957676
 30
0.0
  0
SPLINE
  5
312
100
AcDbEntity
  8
0
100
AcDbSpline
 62
7
  6
CONTINUOUS
 70
0
 71
3
 72
15
 73
11
 74
0
 42
0.0000001
 43
0.0000001
 44
0.0000000001
 40
0.0
 40
0.0
 40
0.0
 40
0.0
 40
0.1127752101
 40
0.2349147645
 40
0.3651864118
 40
0.5000913315
 40
0.6349774641
 40
0.7652036621
 40
0.8872766648
 40
1.0
 40
1.0
 40
1.0
 40
1.0
 10
33.5580456287
 20
233.9450633078
 30
0.0
 10
34.0180762092
 20
233.9398616772
 30
0.0
 10
34.9823725438
 20
234.1028996678
 30
0.0
 10
36.3310616954
 20
234.7743651536
 30
0.0
 10
37.5386508611
 20
235.8165376685
 30
0.0
 10
38.5108534688
 20
237.1438626405
 30
0.0
 10
39.1723723269
 20
238.6501221122
 30
0.0
 10
39.4688796125
 20
240.2168862303
 30
0.0
 10
39.3739035867
 20
241.7198866674
 30
0.0
 10
39.0310958061
 20
242.6353214448
 30
0.0
 10
38.795918899
 20
243.0304826052
 30
0.0
  0
SPLINE
  5
313
100
AcDbEntity
  8
0
100
AcDbSpline
 62
7
  6
CONTINUOUS
 70
0
 71
3
 72
15
 73
11
 74
0
 42
0.0000001
 43
0.0000001
 44
0.0000000001
 40
0.0
 40
0.0
 40
0.0
 40
0.0
 40
0.115127634
 40
0.2380562185
 40
0.3672244192
 40
0.4998347996
 40
0.6324711759
 40
0.7617129977
 40
0.8847476575
 40
1.0
 40
1.0
 40
1.0
 40
1.0
 10
42.4509057291
 20
244.6176514127
 30
0.0
 10
42.6999986997
 20
243.9397110576
 30
0.0
 10
43.0177610279
 20
242.4606447064
 30
0.0
 10
42.9593130276
 20
240.1400880436
 30
0.0
 10
42.395559586
 20
237.7764057478
 30
0.0
 10
41.3622087801
 20
235.511764911
 30
0.0
 10
39.9223974942
 20
233.4806019539
 30
0.0
 10
38.1607564951
 20
231.8050372199
 30
0.0
 10
36.1823509062
 20
230.5872508474
 30
0.0
 10
34.7428203348
 20
230.1176247918
 30
0.0
 10
34.0308590944
 20
229.9915598831
 30
0.0
  0
SPLINE
  5
314
100
AcDbEntity
  8
0
100
AcDbSpline
 62
7
  6
CONTINUOUS
 70
0
 71
3
 72
15
 73
11
 74
0
 42
0.0000001
 43
0.0000001
 44
0.0000000001
 40
0.0
 40
0.0
 40
0.0
 40
0.0
 40
0.1127752101
 40
0.2349147645
 40
0.3651864118
 40
0.5000913315
 40
0.6349774641
 40
0.7652036621
 40
0.8872766648
 40
1.0
 40
1.0
 40
1.0
 40
1.0
 10
54.2033961097
 20
239.479162696
 30
0.0
 10
54.6634266902
 20
239.4739610655
 30
0.0
 10
55.6277230247
 20
239.636999056
 30
0.0
 10
56.9764121763
 20
240.3084645419
 30
0.0
 10
58.1840013421
 20
241.3506370568
 30
0.0
 10
59.1562039497
 20
242.6779620287
 30
0.0
 10
59.8177228079
 20
244.1842215005
 30
0.0
 10
60.1142300935
 20
245.7509856185
 30
0.0
 10
60.0192540677
 20
247.2539860556
 30
0.0
 10
59.676446287
 20
248.169420833
 30
0.0
 10
59.4412693799
 20
248.5645819935
 30
0.0
  0
SPLINE
  5
315
100
AcDbEntity
  8
0
100
AcDbSpline
 62
7
  6
CONTINUOUS
 70
0
 71
3
 72
15
 73
11
 74
0
 42
0.0000001
 43
0.0000001
 44
0.0000000001
 40
0.0
 40
0.0
 40
0.0
 40
0.0
 40
0.1127752101
 40
0.2349147645
 40
0.3651864118
 40
0.5000913315
 40
0.6349774641
 40
0.7652036621
 40
0.8872766648
 40
1.0
 40
1.0
 40
1.0
 40
1.0
 10
60.5831602631
 20
219.3475373775
 30
0.0
 10
61.0431908436
 20
219.3423357469
 30
0.0
 10
62.0074871782
 20
219.5053737375
 30
0.0
 10
63.3561763297
 20
220.1768392233
 30
0.0
 10
64.5637654955
 20
221.2190117382
 30
0.0
 10
65.5359681032
 20
222.5463367102
 30
0.0
 10
66.1974869613
 20
224.0525961819
 30
0.0
 10
66.4939942469
 20
225.6193603
 30
0.0
 10
66.3990182211
 20
227.1223607371
 30
0.0
 10
66.0562104404
 20
228.0377955145
 30
0.0
 10
65.8210335334
 20
228.4329566749
 30
0.0
  0
SPLINE
  5
316
100
AcDbEntity
  8
0
100
AcDbSpline
 62
7
  6
CONTINUOUS
 70
0
 71
3
 72
9
 73
5
 74
0
 42
0.0000001
 43
0.0000001
 44
0.0000000001
 40
0.0
 40
0.0
 40
0.0
 40
0.0
 40
0.4850812699
 40
1.0
 40
1.0
 40
1.0
 40
1.0
 10
47.4015437082
 20
197.1421728948
 30
0.0
 10
47.8578241093
 20
196.9714391623
 30
0.0
 10
48.8660533869
 20
196.7842541344
 30
0.0
 10
49.8772411871
 20
196.9189912775
 30
0.0
 10
50.3767504501
 20
197.0528874741
 30
0.0
  0
SPLINE
  5
317
100
AcDbEntity
  8
0
100
AcDbSpline
 62
7
  6
CONTINUOUS
 70
0
 71
3
 72
16
 73
12
 74
0
 42
0.0000001
 43
0.0000001
 44
0.0000000001
 40
0.0
 40
0.0
 40
0.0
 40
0.0
 40
0.1228904407
 40
0.2547994406
 40
0.3918394616
 40
0.5286356098
 40
0.6598932118
 40
0.7818905912
 40
0.8939517433
 40
0.9474090868
 40
1.0
 40
1.0
 40
1.0
 40
1.0
 10
50.3767504501
 20
197.0528874741
 30
0.0
 10
51.0188198231
 20
197.2249976898
 30
0.0
 10
52.2945472744
 20
197.8077207124
 30
0.0
 10
53.9315975804
 20
199.186849775
 30
0.0
 10
55.2370343549
 20
200.9768124015
 30
0.0
 10
56.0927420936
 20
203.0160917552
 30
0.0
 10
56.4201027501
 20
205.1239492252
 30
0.0
 10
56.1826468926
 20
207.1140942523
 30
0.0
 10
55.4938161923
 20
208.5498496781
 30
0.0
 10
54.6926073143
 20
209.4251769281
 30
0.0
 10
54.2240992573
 20
209.7644564132
 30
0.0
 10
53.9777625526
 20
209.9067363883
 30
0.0
  0
SPLINE
  5
318
100
AcDbEntity
  8
0
100
AcDbSpline
 62
7
  6
CONTINUOUS
 70
0
 71
3
 72
9
 73
5
 74
0
 42
0.0000001
 43
0.0000001
 44
0.0000000001
 40
0.0
 40
0.0
 40
0.0
 40
0.0
 40
0.4850812697
 40
1.0
 40
1.0
 40
1.0
 40
1.0
 10
48.8684858756
 20
219.8976486522
 30
0.0
 10
49.0997946954
 20
219.8110961273
 30
0.0
 10
49.6109109416
 20
219.7162037055
 30
0.0
 10
50.1235269962
 20
219.784507952
 30
0.0
 10
50.3767504501
 20
219.8523858872
 30
0.0
  0
SPLINE
  5
319
100
AcDbEntity
  8
0
100
AcDbSpline
 62
7
  6
CONTINUOUS
 70
0
 71
3
 72
14
 73
10
 74
0
 42
0.0000001
 43
0.0000001
 44
0.0000000001
 40
0.0
 40
0.0
 40
0.0
 40
0.0
 40
0.2531295252
 40
0.390574471
 40
0.5277731795
 40
0.6594184854
 40
0.7817755718
 40
0.8941624828
 40
1.0
 40
1.0
 40
1.0
 40
1.0
 10
50.3767504501
 20
219.8523858872
 30
0.0
 10
51.0452232461
 20
220.0315736852
 30
0.0
 10
51.989044712
 20
220.6689672399
 30
0.0
 10
52.839280086
 20
221.8407293782
 30
0.0
 10
53.2746804914
 20
222.8755964315
 30
0.0
 10
53.4405942288
 20
223.9437258046
 30
0.0
 10
53.3192409917
 20
224.9531759379
 30
0.0
 10
52.9102716638
 20
225.8110899072
 30
0.0
 10
52.4528078717
 20
226.2237956329
 30
0.0
 10
52.2022482202
 20
226.3685466842
 30
0.0
  0
SPLINE
  5
31A
100
AcDbEntity
  8
0
100
AcDbSpline
 62
7
  6
CONTINUOUS
 70
0
 71
3
 72
15
 73
11
 74
0
 42
0.0000001
 43
0.0000001
 44
0.0000000001
 40
0.0
 40
0.0
 40
0.0
 40
0.0
 40
0.115127634
 40
0.2380562185
 40
0.3672244192
 40
0.4998347996
 40
0.6324711759
 40
0.7617129977
 40
0.8847476575
 40
1.0
 40
1.0
 40
1.0
 40
1.0
 10
63.09625621
 20
250.151750801
 30
0.0
 10
63.3453491806
 20
249.4738104458
 30
0.0
 10
63.6631115088
 20
247.9947440947
 30
0.0
 10
63.6046635086
 20
245.6741874318
 30
0.0
 10
63.040910067
 20
243.3105051361
 30
0.0
 10
62.0075592611
 20
241.0458642993
 30
0.0
 10
60.5677479751
 20
239.0147013421
 30
0.0
 10
58.8061069761
 20
237.3391366081
 30
0.0
 10
56.8277013872
 20
236.1213502357
 30
0.0
 10
55.3881708158
 20
235.6517241801
 30
0.0
 10
54.6762095754
 20
235.5256592713
 30
0.0
  0
SPLINE
  5
31B
100
AcDbEntity
  8
0
100
AcDbSpline
 62
7
  6
CONTINUOUS
 70
0
 71
3
 72
15
 73
11
 74
0
 42
0.0000001
 43
0.0000001
 44
0.0000000001
 40
0.0
 40
0.0
 40
0.0
 40
0.0
 40
0.115127634
 40
0.2380562185
 40
0.3672244192
 40
0.4998347996
 40
0.6324711759
 40
0.7617129977
 40
0.8847476575
 40
1.0
 40
1.0
 40
1.0
 40
1.0
 10
36.0711415757
 20
221.0657645751
 30
0.0
 10
36.3202345463
 20
220.3878242199
 30
0.0
 10
36.6379968745
 20
218.9087578688
 30
0.0
 10
36.5795488742
 20
216.588201206
 30
0.0
 10
36.0157954326
 20
214.2245189102
 30
0.0
 10
34.9824446267
 20
211.9598780734
 30
0.0
 10
33.5426333407
 20
209.9287151163
 30
0.0
 10
31.7809923417
 20
208.2531503823
 30
0.0
 10
29.8025867528
 20
207.0353640098
 30
0.0
 10
28.3630561814
 20
206.5657379542
 30
0.0
 10
27.651094941
 20
206.4396730455
 30
0.0
  0
SPLINE
  5
31C
100
AcDbEntity
  8
0
100
AcDbSpline
 62
7
  6
CONTINUOUS
 70
0
 71
3
 72
14
 73
10
 74
0
 42
0.0000001
 43
0.0000001
 44
0.0000000001
 40
0.0
 40
0.0
 40
0.0
 40
0.0
 40
0.1090783301
 40
0.2206470423
 40
0.3367322144
 40
0.4585932565
 40
0.5866267867
 40
0.7204392957
 40
1.0
 40
1.0
 40
1.0
 40
1.0
 10
34.4355312002
 20
191.7081004259
 30
0.0
 10
33.0374960403
 20
192.5155028006
 30
0.0
 10
30.3960972978
 20
194.4970839577
 30
0.0
 10
27.1870132326
 20
198.3635952574
 30
0.0
 10
24.8068899632
 20
202.9996583366
 30
0.0
 10
23.3253446571
 20
208.2428949492
 30
0.0
 10
22.7789008292
 20
213.9248203507
 30
0.0
 10
23.3156676248
 20
221.9449389758
 30
0.0
 10
25.1209812861
 20
227.9075462209
 30
0.0
 10
26.8365437347
 20
231.6728281497
 30
0.0
  0
SPLINE
  5
31D
100
AcDbEntity
  8
0
100
AcDbSpline
 62
7
  6
CONTINUOUS
 70
0
 71
3
 72
12
 73
8
 74
0
 42
0.0000001
 43
0.0000001
 44
0.0000000001
 40
0.0
 40
0.0
 40
0.0
 40
0.0
 40
0.2601959828
 40
0.389648142
 40
0.5175372368
 40
0.7654944504
 40
1.0
 40
1.0
 40
1.0
 40
1.0
 10
26.8365437347
 20
231.6728281497
 30
0.0
 10
28.0247069052
 20
234.2805847593
 30
0.0
 10
30.1754382187
 20
238.0317669265
 30
0.0
 10
33.6748002878
 20
242.538757485
 30
0.0
 10
37.4937800921
 20
246.5971378912
 30
0.0
 10
42.79307805
 20
250.8071618791
 30
0.0
 10
47.6092490112
 20
253.1784501537
 30
0.0
 10
50.0506566005
 20
254.0211033345
 30
0.0
  0
SPLINE
  5
31E
100
AcDbEntity
  8
0
100
AcDbSpline
 62
7
  6
CONTINUOUS
 70
0
 71
3
 72
19
 73
15
 74
0
 42
0.0000001
 43
0.0000001
 44
0.0000000001
 40
0.0
 40
0.0
 40
0.0
 40
0.0
 40
0.0544173951
 40
0.1109269862
 40
0.1702917177
 40
0.2328215949
 40
0.3659598011
 40
0.5056771063
 40
0.6440083381
 40
0.7735423466
 40
0.8339406934
 40
0.8913266525
 40
0.9463163729
 40
1.0
 40
1.0
 40
1.0
 40
1.0
 10
31.2311261273
 20
202.6489632891
 30
0.0
 10
31.685189418
 20
202.4790591717
 30
0.0
 10
32.6576742569
 20
202.2478548158
 30
0.0
 10
34.1867031685
 20
202.2478599155
 30
0.0
 10
35.7513644994
 20
202.58462039
 30
0.0
 10
37.8523263165
 20
203.4789848975
 30
0.0
 10
40.2510402403
 20
205.3526071565
 30
0.0
 10
42.3941167486
 20
208.3813568166
 30
0.0
 10
43.6117417071
 20
211.8533344895
 30
0.0
 10
43.7116519605
 20
214.8374314885
 30
0.0
 10
43.1715181069
 20
216.9868252609
 30
0.0
 10
42.4950852619
 20
218.3831505868
 30
0.0
 10
41.5597633834
 20
219.5462522722
 30
0.0
 10
40.7789734131
 20
220.1384104678
 30
0.0
 10
40.3648020196
 20
220.3775904358
 30
0.0
  0
SPLINE
  5
31F
100
AcDbEntity
  8
0
100
AcDbSpline
 62
7
  6
CONTINUOUS
 70
0
 71
3
 72
15
 73
11
 74
0
 42
0.0000001
 43
0.0000001
 44
0.0000000001
 40
0.0
 40
0.0
 40
0.0
 40
0.0
 40
0.115127634
 40
0.2380562185
 40
0.3672244192
 40
0.4998347996
 40
0.6324711759
 40
0.7617129977
 40
0.8847476575
 40
1.0
 40
1.0
 40
1.0
 40
1.0
 10
69.4760203635
 20
230.0201254824
 30
0.0
 10
69.7251133341
 20
229.3421851273
 30
0.0
 10
70.0428756623
 20
227.8631187761
 30
0.0
 10
69.984427662
 20
225.5425621133
 30
0.0
 10
69.4206742204
 20
223.1788798175
 30
0.0
 10
68.3873234145
 20
220.9142389807
 30
0.0
 10
66.9475121285
 20
218.8830760236
 30
0.0
 10
65.1858711295
 20
217.2075112896
 30
0.0
 10
63.2074655406
 20
215.9897249171
 30
0.0
 10
61.7679349692
 20
215.5200988615
 30
0.0
 10
61.0559737288
 20
215.3940339528
 30
0.0
  0
SPLINE
  5
320
100
AcDbEntity
  8
0
100
AcDbSpline
 62
7
  6
CONTINUOUS
 70
0
 71
3
 72
19
 73
15
 74
0
 42
0.0000001
 43
0.0000001
 44
0.0000000001
 40
0.0
 40
0.0
 40
0.0
 40
0.0
 40
0.0544173951
 40
0.1109269862
 40
0.1702917177
 40
0.2328215949
 40
0.3659598011
 40
0.5056771063
 40
0.6440083381
 40
0.7735423466
 40
0.8339406934
 40
0.8913266525
 40
0.9463163729
 40
1.0
 40
1.0
 40
1.0
 40
1.0
 10
37.6108902808
 20
226.2008501267
 30
0.0
 10
38.0649535714
 20
226.0309460094
 30
0.0
 10
39.0374384104
 20
225.7997416534
 30
0.0
 10
40.566467322
 20
225.7997467531
 30
0.0
 10
42.1311286528
 20
226.1365072276
 30
0.0
 10
44.2320904699
 20
227.0308717351
 30
0.0
 10
46.6308043937
 20
228.9044939941
 30
0.0
 10
48.773880902
 20
231.9332436542
 30
0.0
 10
49.9915058605
 20
235.4052213272
 30
0.0
 10
50.0914161139
 20
238.3893183261
 30
0.0
 10
49.5512822603
 20
240.5387120985
 30
0.0
 10
48.8748494153
 20
241.9350374244
 30
0.0
 10
47.9395275368
 20
243.0981391098
 30
0.0
 10
47.1587375665
 20
243.6902973054
 30
0.0
 10
46.744566173
 20
243.9294772734
 30
0.0
  0
SPLINE
  5
321
100
AcDbEntity
  8
0
100
AcDbSpline
 62
7
  6
CONTINUOUS
 70
0
 71
3
 72
19
 73
15
 74
0
 42
0.0000001
 43
0.0000001
 44
0.0000000001
 40
0.0
 40
0.0
 40
0.0
 40
0.0
 40
0.0544173951
 40
0.1109269862
 40
0.1702917177
 40
0.2328215949
 40
0.3659598011
 40
0.5056771063
 40
0.6440083381
 40
0.7735423466
 40
0.8339406934
 40
0.8913266525
 40
0.9463163729
 40
1.0
 40
1.0
 40
1.0
 40
1.0
 10
58.2562407617
 20
231.734949515
 30
0.0
 10
58.7103040523
 20
231.5650453976
 30
0.0
 10
59.6827888913
 20
231.3338410417
 30
0.0
 10
61.2118178029
 20
231.3338461413
 30
0.0
 10
62.7764791338
 20
231.6706066159
 30
0.0
 10
64.8774409508
 20
232.5649711233
 30
0.0
 10
67.2761548746
 20
234.4385933824
 30
0.0
 10
69.419231383
 20
237.4673430424
 30
0.0
 10
70.6368563415
 20
240.9393207154
 30
0.0
 10
70.7367665949
 20
243.9234177144
 30
0.0
 10
70.1966327412
 20
246.0728114868
 30
0.0
 10
69.5201998962
 20
247.4691368127
 30
0.0
 10
68.5848780177
 20
248.632238498
 30
0.0
 10
67.8040880475
 20
249.2243966936
 30
0.0
 10
67.389916654
 20
249.4635766617
 30
0.0
  0
SPLINE
  5
322
100
AcDbEntity
  8
0
100
AcDbSpline
 62
7
  6
CONTINUOUS
 70
0
 71
3
 72
11
 73
7
 74
0
 42
0.0000001
 43
0.0000001
 44
0.0000000001
 40
0.0
 40
0.0
 40
0.0
 40
0.0
 40
0.2577229927
 40
0.5090323275
 40
0.7557096225
 40
1.0
 40
1.0
 40
1.0
 40
1.0
 10
47.2685587341
 20
178.4605797276
 30
0.0
 10
45.8601227587
 20
178.3719984228
 30
0.0
 10
43.0624814304
 20
178.3809275317
 30
0.0
 10
38.9538508703
 20
178.9812922567
 30
0.0
 10
35.0490101778
 20
180.1617195682
 30
0.0
 10
32.6129208404
 20
181.3280918456
 30
0.0
 10
31.4545969357
 20
181.9971471059
 30
0.0
  0
SPLINE
  5
323
100
AcDbEntity
  8
0
100
AcDbSpline
 62
7
  6
CONTINUOUS
 70
0
 71
3
 72
13
 73
9
 74
0
 42
0.0000001
 43
0.0000001
 44
0.0000000001
 40
0.0
 40
0.0
 40
0.0
 40
0.0
 40
0.2458167124
 40
0.373807695
 40
0.5030104373
 40
0.6317957254
 40
0.7585689062
 40
1.0
 40
1.0
 40
1.0
 40
1.0
 10
91.350402327
 20
231.0964755669
 30
0.0
 10
91.350402327
 20
226.1352195072
 30
0.0
 10
90.1328333376
 20
218.5491490825
 30
0.0
 10
86.5526009687
 20
209.0319192906
 30
0.0
 10
82.8647761793
 20
202.1422067502
 30
0.0
 10
78.3186261238
 20
195.8155847825
 30
0.0
 10
71.4238438526
 20
188.5086403592
 30
0.0
 10
65.2086205316
 20
184.1731432638
 30
0.0
 10
60.8041441786
 20
182.0888676173
 30
0.0
  0
SPLINE
  5
324
100
AcDbEntity
  8
0
100
AcDbSpline
 62
7
  6
CONTINUOUS
 70
0
 71
3
 72
14
 73
10
 74
0
 42
0.0000001
 43
0.0000001
 44
0.0000000001
 40
0.0
 40
0.0
 40
0.0
 40
0.0
 40
0.2691268022
 40
0.4064126758
 40
0.539892328
 40
0.6664627261
 40
0.7845265749
 40
0.8946827967
 40
1.0
 40
1.0
 40
1.0
 40
1.0
 10
60.8041441786
 20
182.0888676173
 30
0.0
 10
60.6549268931
 20
180.6911483544
 30
0.0
 10
59.9403795354
 20
178.6082337154
 30
0.0
 10
58.2951181052
 20
176.304798934
 30
0.0
 10
56.7629979163
 20
174.8803311238
 30
0.0
 10
55.0424036397
 20
173.8754823998
 30
0.0
 10
53.2385304778
 20
173.3603230328
 30
0.0
 10
51.4692040101
 20
173.3834665061
 30
0.0
 10
50.3864653311
 20
173.776036122
 30
0.0
 10
49.9101426814
 20
174.0511743213
 30
0.0
  0
SPLINE
  5
325
100
AcDbEntity
  8
0
100
AcDbSpline
 62
7
  6
CONTINUOUS
 70
0
 71
3
 72
11
 73
7
 74
0
 42
0.0000001
 43
0.0000001
 44
0.0000000001
 40
0.0
 40
0.0
 40
0.0
 40
0.0
 40
0.2717350397
 40
0.5268969419
 40
0.7676331593
 40
1.0
 40
1.0
 40
1.0
 40
1.0
 10
49.9041199092
 20
180.0874501052
 30
0.0
 10
49.9041199092
 20
179.7456808835
 30
0.0
 10
49.9706699991
 20
179.080190464
 30
0.0
 10
50.288796607
 20
178.1582798126
 30
0.0
 10
50.8106023508
 20
177.3913649221
 30
0.0
 10
51.2825610448
 20
177.011655349
 30
0.0
 10
51.5356352776
 20
176.8654834476
 30
0.0
  0
SPLINE
  5
326
100
AcDbEntity
  8
0
100
AcDbSpline
 62
7
  6
CONTINUOUS
 70
0
 71
3
 72
13
 73
9
 74
0
 42
0.0000001
 43
0.0000001
 44
0.0000000001
 40
0.0
 40
0.0
 40
0.0
 40
0.0
 40
0.2453464881
 40
0.3725553817
 40
0.5009820002
 40
0.6292741539
 40
0.7560918729
 40
1.0
 40
1.0
 40
1.0
 40
1.0
 10
43.7363006479
 20
255.1098880943
 30
0.0
 10
40.1379973792
 20
252.8982577966
 30
0.0
 10
35.1339517659
 20
248.7329138354
 30
0.0
 10
29.618393384
 20
242.087297653
 30
0.0
 10
26.0309264275
 20
236.5156457787
 30
0.0
 10
23.1404376252
 20
230.5599029166
 30
0.0
 10
20.3475284378
 20
222.4235330909
 30
0.0
 10
19.4082510914
 20
216.0108614152
 30
0.0
 10
19.4082510914
 20
211.8119874924
 30
0.0
  0
SPLINE
  5
327
100
AcDbEntity
  8
0
100
AcDbSpline
 62
7
  6
CONTINUOUS
 70
0
 71
3
 72
13
 73
9
 74
0
 42
0.0000001
 43
0.0000001
 44
0.0000000001
 40
0.0
 40
0.0
 40
0.0
 40
0.0
 40
0.2714323935
 40
0.526217453
 40
0.6482289388
 40
0.7672664568
 40
0.8841850931
 40
1.0
 40
1.0
 40
1.0
 40
1.0
 10
19.4082510914
 20
211.8119874924
 30
0.0
 10
19.4082510914
 20
208.9475623585
 30
0.0
 10
19.9640188103
 20
203.3725823729
 30
0.0
 10
22.2235863314
 20
196.8345748333
 30
0.0
 10
24.8946777555
 20
192.3179266205
 30
0.0
 10
27.26067464
 20
189.3558732006
 30
0.0
 10
29.9852240225
 20
186.8153854539
 30
0.0
 10
32.0217310998
 20
185.4227142409
 30
0.0
 10
33.0800880964
 20
184.8114537164
 30
0.0
  0
SPLINE
  5
328
100
AcDbEntity
  8
0
100
AcDbSpline
 62
7
  6
CONTINUOUS
 70
0
 71
3
 72
10
 73
6
 74
0
 42
0.0000001
 43
0.0000001
 44
0.0000000001
 40
0.0
 40
0.0
 40
0.0
 40
0.0
 40
0.5149103404
 40
0.7596757362
 40
1.0
 40
1.0
 40
1.0
 40
1.0
 10
-18.5875574523
 20
177.7913330232
 30
0.0
 10
-19.2698030561
 20
177.6084533485
 30
0.0
 10
-20.3384692671
 20
177.501195682
 30
0.0
 10
-21.6888367129
 20
177.7823793377
 30
0.0
 10
-22.303247208
 20
178.053687642
 30
0.0
 10
-22.5887406392
 20
178.218531058
 30
0.0
  0
SPLINE
  5
329
100
AcDbEntity
  8
0
100
AcDbSpline
 62
7
  6
CONTINUOUS
 70
0
 71
3
 72
10
 73
6
 74
0
 42
0.0000001
 43
0.0000001
 44
0.0000000001
 40
0.0
 40
0.0
 40
0.0
 40
0.0
 40
0.5252520963
 40
0.7668039053
 40
1.0
 40
1.0
 40
1.0
 40
1.0
 10
-18.4222681904
 20
271.607770286
 30
0.0
 10
-18.4222681904
 20
271.3707999618
 30
0.0
 10
-18.3528810164
 20
271.0141513714
 30
0.0
 10
-18.0959159013
 20
270.6372949318
 30
0.0
 10
-17.9260147013
 20
270.5005015665
 30
0.0
 10
-17.8349251493
 20
270.4478579599
 30
0.0
  0
SPLINE
  5
32A
100
AcDbEntity
  8
0
100
AcDbSpline
 62
7
  6
CONTINUOUS
 70
0
 71
3
 72
10
 73
6
 74
0
 42
0.0000001
 43
0.0000001
 44
0.0000000001
 40
0.0
 40
0.0
 40
0.0
 40
0.0
 40
0.5252520963
 40
0.7668039053
 40
1.0
 40
1.0
 40
1.0
 40
1.0
 10
-18.4222681904
 20
188.8676550772
 30
0.0
 10
-18.4222681904
 20
188.630684753
 30
0.0
 10
-18.3528810164
 20
188.2740361626
 30
0.0
 10
-18.0959159013
 20
187.8971797229
 30
0.0
 10
-17.9260147013
 20
187.7603863577
 30
0.0
 10
-17.8349251493
 20
187.7077427511
 30
0.0
  0
SPLINE
  5
32B
100
AcDbEntity
  8
0
100
AcDbSpline
 62
7
  6
CONTINUOUS
 70
0
 71
3
 72
11
 73
7
 74
0
 42
0.0000001
 43
0.0000001
 44
0.0000000001
 40
0.0
 40
0.0
 40
0.0
 40
0.0
 40
0.271772124
 40
0.5268740629
 40
0.7676338636
 40
1.0
 40
1.0
 40
1.0
 40
1.0
 10
-28.5772211642
 20
185.324866132
 30
0.0
 10
-28.5772211642
 20
184.7779555397
 30
0.0
 10
-28.4708641473
 20
183.7131747441
 30
0.0
 10
-27.96162304
 20
182.2382018101
 30
0.0
 10
-27.1270091211
 20
181.0110439984
 30
0.0
 10
-26.3717880369
 20
180.4034748105
 30
0.0
 10
-25.9668338757
 20
180.1696549745
 30
0.0
  0
SPLINE
  5
32C
100
AcDbEntity
  8
0
100
AcDbSpline
 62
7
  6
CONTINUOUS
 70
0
 71
3
 72
13
 73
9
 74
0
 42
0.0000001
 43
0.0000001
 44
0.0000000001
 40
0.0
 40
0.0
 40
0.0
 40
0.0
 40
0.1054199736
 40
0.2162072625
 40
0.3355571307
 40
0.4637457895
 40
0.7347562963
 40
1.0
 40
1.0
 40
1.0
 40
1.0
 10
-16.0344045176
 20
273.565203084
 30
0.0
 10
-16.1443727812
 20
273.6287573104
 30
0.0
 10
-16.3966353284
 20
273.7171477057
 30
0.0
 10
-16.8078085597
 20
273.7107853257
 30
0.0
 10
-17.2233840678
 20
273.5740303181
 30
0.0
 10
-17.7518066195
 20
273.2304369701
 30
0.0
 10
-18.255703675
 20
272.5769443156
 30
0.0
 10
-18.4222681904
 20
271.9273420672
 30
0.0
 10
-18.4222681904
 20
271.607770286
 30
0.0
  0
SPLINE
  5
32D
100
AcDbEntity
  8
0
100
AcDbSpline
 62
7
  6
CONTINUOUS
 70
0
 71
3
 72
9
 73
5
 74
0
 42
0.0000001
 43
0.0000001
 44
0.0000000001
 40
0.0
 40
0.0
 40
0.0
 40
0.0
 40
0.2401140159
 40
1.0
 40
1.0
 40
1.0
 40
1.0
 10
-16.7010467216
 20
273.6927911526
 30
0.0
 10
-16.6797287661
 20
273.6451055489
 30
0.0
 10
-16.6028124838
 20
273.4412468989
 30
0.0
 10
-16.5730925553
 20
273.2209691509
 30
0.0
 10
-16.5730925553
 20
273.0556653966
 30
0.0
  0
SPLINE
  5
32E
100
AcDbEntity
  8
0
100
AcDbSpline
 62
7
  6
CONTINUOUS
 70
0
 71
3
 72
12
 73
8
 74
0
 42
0.0000001
 43
0.0000001
 44
0.0000000001
 40
0.0
 40
0.0
 40
0.0
 40
0.0
 40
0.2349933756
 40
0.4894753556
 40
0.6202647794
 40
0.7503870015
 40
1.0
 40
1.0
 40
1.0
 40
1.0
 10
-21.9656506888
 20
284.5466028708
 30
0.0
 10
-22.8726047457
 20
284.3034888633
 30
0.0
 10
-24.6603673059
 20
283.3901130323
 30
0.0
 10
-26.412827009
 20
281.5838695101
 30
0.0
 10
-27.4961534437
 20
279.8241913806
 30
0.0
 10
-28.2994635303
 20
277.9443611989
 30
0.0
 10
-28.5772211642
 20
276.4170473753
 30
0.0
 10
-28.5772211642
 20
275.4196582483
 30
0.0
  0
SPLINE
  5
32F
100
AcDbEntity
  8
0
100
AcDbSpline
 62
7
  6
CONTINUOUS
 70
0
 71
3
 72
9
 73
5
 74
0
 42
0.0000001
 43
0.0000001
 44
0.0000000001
 40
0.0
 40
0.0
 40
0.0
 40
0.0
 40
0.2401140159
 40
1.0
 40
1.0
 40
1.0
 40
1.0
 10
-16.7010467216
 20
190.9526759438
 30
0.0
 10
-16.6797287661
 20
190.9049903401
 30
0.0
 10
-16.6028124838
 20
190.7011316901
 30
0.0
 10
-16.5730925553
 20
190.4808539421
 30
0.0
 10
-16.5730925553
 20
190.3155501878
 30
0.0
  0
SPLINE
  5
330
100
AcDbEntity
  8
0
100
AcDbSpline
 62
7
  6
CONTINUOUS
 70
0
 71
3
 72
13
 73
9
 74
0
 42
0.0000001
 43
0.0000001
 44
0.0000000001
 40
0.0
 40
0.0
 40
0.0
 40
0.0
 40
0.1054199736
 40
0.2162072625
 40
0.3355571307
 40
0.4637457895
 40
0.7347562963
 40
1.0
 40
1.0
 40
1.0
 40
1.0
 10
-16.0344045176
 20
190.8250878752
 30
0.0
 10
-16.1443727812
 20
190.8886421016
 30
0.0
 10
-16.3966353284
 20
190.9770324969
 30
0.0
 10
-16.8078085597
 20
190.9706701168
 30
0.0
 10
-17.2233840678
 20
190.8339151093
 30
0.0
 10
-17.7518066195
 20
190.4903217612
 30
0.0
 10
-18.255703675
 20
189.8368291068
 30
0.0
 10
-18.4222681904
 20
189.1872268584
 30
0.0
 10
-18.4222681904
 20
188.8676550772
 30
0.0
  0
SPLINE
  5
331
100
AcDbEntity
  8
0
100
AcDbSpline
 62
7
  6
CONTINUOUS
 70
0
 71
3
 72
10
 73
6
 74
0
 42
0.0000001
 43
0.0000001
 44
0.0000000001
 40
0.0
 40
0.0
 40
0.0
 40
0.0
 40
0.5173663409
 40
0.7629149793
 40
1.0
 40
1.0
 40
1.0
 40
1.0
 10
-35.8137624039
 20
242.2395625613
 30
0.0
 10
-35.8137624039
 20
238.8266623399
 30
0.0
 10
-35.2367648102
 20
233.7542018715
 30
0.0
 10
-33.1607232482
 20
227.4758536763
 30
0.0
 10
-31.7264611822
 20
224.6165539875
 30
0.0
 10
-30.9167590946
 20
223.2784967068
 30
0.0
  0
SPLINE
  5
332
100
AcDbEntity
  8
0
100
AcDbSpline
 62
7
  6
CONTINUOUS
 70
0
 71
3
 72
9
 73
5
 74
0
 42
0.0000001
 43
0.0000001
 44
0.0000000001
 40
0.0
 40
0.0
 40
0.0
 40
0.0
 40
0.5102652013
 40
1.0
 40
1.0
 40
1.0
 40
1.0
 10
-30.9170103184
 20
263.8254123623
 30
0.0
 10
-32.4904395178
 20
260.3816517971
 30
0.0
 10
-34.9164390514
 20
253.3098268263
 30
0.0
 10
-35.8137624039
 20
245.8734074059
 30
0.0
 10
-35.8137624039
 20
242.2395625613
 30
0.0
  0
SPLINE
  5
333
100
AcDbEntity
  8
0
100
AcDbSpline
 62
7
  6
CONTINUOUS
 70
0
 71
3
 72
11
 73
7
 74
0
 42
0.0000001
 43
0.0000001
 44
0.0000000001
 40
0.0
 40
0.0
 40
0.0
 40
0.0
 40
0.2353608636
 40
0.4799005411
 40
0.7347366712
 40
1.0
 40
1.0
 40
1.0
 40
1.0
 10
84.9093841076
 20
252.6823204287
 30
0.0
 10
85.967243072
 20
251.2323220581
 30
0.0
 10
87.8523045572
 20
248.0689234322
 30
0.0
 10
89.8698754702
 20
242.8161808845
 30
0.0
 10
91.08969746
 20
237.0919895155
 30
0.0
 10
91.350402327
 20
233.1193835898
 30
0.0
 10
91.350402327
 20
231.0964755669
 30
0.0
  0
SPLINE
  5
334
100
AcDbEntity
  8
0
100
AcDbSpline
 62
7
  6
CONTINUOUS
 70
0
 71
3
 72
11
 73
7
 74
0
 42
0.0000001
 43
0.0000001
 44
0.0000000001
 40
0.0
 40
0.0
 40
0.0
 40
0.0
 40
0.2426729321
 40
0.4944209206
 40
0.7490952676
 40
1.0
 40
1.0
 40
1.0
 40
1.0
 10
4.8570524231
 20
211.405539938
 30
0.0
 10
4.7838372371
 20
215.8298654039
 30
0.0
 10
5.6906078027
 20
224.8841616491
 30
0.0
 10
9.8354080843
 20
237.990154688
 30
0.0
 10
16.5211094188
 20
250.1696340317
 30
0.0
 10
22.5029773592
 20
257.2824918515
 30
0.0
 10
25.8015845251
 20
260.4526810066
 30
0.0
  0
SPLINE
  5
335
100
AcDbEntity
  8
0
100
AcDbSpline
 62
7
  6
CONTINUOUS
 70
0
 71
3
 72
11
 73
7
 74
0
 42
0.0000001
 43
0.0000001
 44
0.0000000001
 40
0.0
 40
0.0
 40
0.0
 40
0.0
 40
0.2354735348
 40
0.4800560494
 40
0.7348734551
 40
1.0
 40
1.0
 40
1.0
 40
1.0
 10
13.8558312767
 20
184.1010499339
 30
0.0
 10
12.4271163633
 20
185.8967180495
 30
0.0
 10
9.8633207385
 20
189.8472678726
 30
0.0
 10
7.0743238749
 20
196.4789014068
 30
0.0
 10
5.3312955106
 20
203.753077408
 30
0.0
 10
4.8998019941
 20
208.8222231991
 30
0.0
 10
4.8570524231
 20
211.405539938
 30
0.0
  0
SPLINE
  5
336
100
AcDbEntity
  8
0
100
AcDbSpline
 62
7
  6
CONTINUOUS
 70
0
 71
3
 72
12
 73
8
 74
0
 42
0.0000001
 43
0.0000001
 44
0.0000000001
 40
0.0
 40
0.0
 40
0.0
 40
0.0
 40
0.2531637423
 40
0.3851336908
 40
0.5171819317
 40
0.7706988346
 40
1.0
 40
1.0
 40
1.0
 40
1.0
 10
-16.5730925553
 20
190.3155501878
 30
0.0
 10
-16.5730925553
 20
190.0692170143
 30
0.0
 10
-16.6483966066
 20
189.6916632739
 30
0.0
 10
-16.8630909081
 20
189.2351084876
 30
0.0
 10
-17.1491510083
 20
188.8182512882
 30
0.0
 10
-17.6033064005
 20
188.4112686939
 30
0.0
 10
-18.0604552424
 20
188.2433707966
 30
0.0
 10
-18.2824551823
 20
188.2210980549
 30
0.0
  0
SPLINE
  5
337
100
AcDbEntity
  8
0
100
AcDbSpline
 62
7
  6
CONTINUOUS
 70
0
 71
3
 72
12
 73
8
 74
0
 42
0.0000001
 43
0.0000001
 44
0.0000000001
 40
0.0
 40
0.0
 40
0.0
 40
0.0
 40
0.2531637423
 40
0.3851336908
 40
0.5171819317
 40
0.7706988346
 40
1.0
 40
1.0
 40
1.0
 40
1.0
 10
-16.5730925553
 20
273.0556653966
 30
0.0
 10
-16.5730925553
 20
272.8093322231
 30
0.0
 10
-16.6483966066
 20
272.4317784827
 30
0.0
 10
-16.8630909081
 20
271.9752236965
 30
0.0
 10
-17.1491510083
 20
271.558366497
 30
0.0
 10
-17.6033064005
 20
271.1513839027
 30
0.0
 10
-18.0604552424
 20
270.9834860054
 30
0.0
 10
-18.2824551823
 20
270.9612132637
 30
0.0
  0
SPLINE
  5
338
100
AcDbEntity
  8
0
100
AcDbSpline
 62
7
  6
CONTINUOUS
 70
0
 71
3
 72
9
 73
5
 74
0
 42
0.0000001
 43
0.0000001
 44
0.0000000001
 40
0.0
 40
0.0
 40
0.0
 40
0.0
 40
0.4853952627
 40
1.0
 40
1.0
 40
1.0
 40
1.0
 10
93.6445225535
 20
253.6063474326
 30
0.0
 10
95.0021434552
 20
250.6422983392
 30
0.0
 10
97.0467921387
 20
244.1742196479
 30
0.0
 10
97.6701364715
 20
237.437140091
 30
0.0
 10
97.6701364715
 20
233.9807817574
 30
0.0
  0
SPLINE
  5
339
100
AcDbEntity
  8
0
100
AcDbSpline
 62
7
  6
CONTINUOUS
 70
0
 71
3
 72
16
 73
12
 74
0
 42
0.0000001
 43
0.0000001
 44
0.0000000001
 40
0.0
 40
0.0
 40
0.0
 40
0.0
 40
0.1244699688
 40
0.2537085069
 40
0.3194968738
 40
0.3856059355
 40
0.5173601986
 40
0.6465168374
 40
0.7708552578
 40
0.8888454393
 40
1.0
 40
1.0
 40
1.0
 40
1.0
 10
97.6701364715
 20
233.9807817574
 30
0.0
 10
97.6701364715
 20
230.2654176976
 30
0.0
 10
96.9132091524
 20
222.6787909771
 30
0.0
 10
94.2945177543
 20
213.4593332878
 30
0.0
 10
91.2448497091
 20
206.277332728
 30
0.0
 10
87.5764472239
 20
199.3061225432
 30
0.0
 10
81.97675634
 20
191.2516329321
 30
0.0
 10
73.8938114626
 20
182.9950620872
 30
0.0
 10
64.8074533017
 20
176.5265971428
 30
0.0
 10
55.1288210957
 20
172.1533277734
 30
0.0
 10
48.3594453552
 20
170.7451541851
 30
0.0
 10
45.0516417825
 20
170.4864343966
 30
0.0
  0
SPLINE
  5
33A
100
AcDbEntity
  8
0
100
AcDbSpline
 62
7
  6
CONTINUOUS
 70
0
 71
3
 72
14
 73
10
 74
0
 42
0.0000001
 43
0.0000001
 44
0.0000000001
 40
0.0
 40
0.0
 40
0.0
 40
0.0
 40
0.1052579527
 40
0.2158711715
 40
0.3350320969
 40
0.4630268614
 40
0.5976693619
 40
0.7352038426
 40
1.0
 40
1.0
 40
1.0
 40
1.0
 10
51.5356352776
 20
176.8654834476
 30
0.0
 10
51.8411589578
 20
176.6890175277
 30
0.0
 10
52.541817229
 20
176.4433780925
 30
0.0
 10
53.6840568082
 20
176.4610086451
 30
0.0
 10
54.838220267
 20
176.8408994416
 30
0.0
 10
55.9216438267
 20
177.5445546868
 30
0.0
 10
56.8609584489
 20
178.5185416655
 30
0.0
 10
57.8170669139
 20
180.0515607205
 30
0.0
 10
58.1685830035
 20
181.4151890946
 30
0.0
 10
58.1685830035
 20
182.302784749
 30
0.0
  0
SPLINE
  5
33B
100
AcDbEntity
  8
0
100
AcDbSpline
 62
7
  6
CONTINUOUS
 70
0
 71
3
 72
11
 73
7
 74
0
 42
0.0000001
 43
0.0000001
 44
0.0000000001
 40
0.0
 40
0.0
 40
0.0
 40
0.0
 40
0.2323661364
 40
0.4731259371
 40
0.728227876
 40
1.0
 40
1.0
 40
1.0
 40
1.0
 10
-22.5887406392
 20
178.218531058
 30
0.0
 10
-22.9936948003
 20
178.4523508941
 30
0.0
 10
-23.7489158846
 20
179.059920082
 30
0.0
 10
-24.5835298035
 20
180.2870778936
 30
0.0
 10
-25.0927709107
 20
181.7620508277
 30
0.0
 10
-25.1991279277
 20
182.8268316233
 30
0.0
 10
-25.1991279277
 20
183.3737422156
 30
0.0
  0
SPLINE
  5
33C
100
AcDbEntity
  8
0
100
AcDbSpline
 62
7
  6
CONTINUOUS
 70
0
 71
3
 72
11
 73
7
 74
0
 42
0.0000001
 43
0.0000001
 44
0.0000000001
 40
0.0
 40
0.0
 40
0.0
 40
0.0
 40
0.242831931
 40
0.4887090385
 40
0.7403879286
 40
1.0
 40
1.0
 40
1.0
 40
1.0
 10
33.0800880964
 20
184.8114537164
 30
0.0
 10
34.2995766387
 20
184.107130687
 30
0.0
 10
36.8838611865
 20
182.90269874
 30
0.0
 10
41.0494855797
 20
181.7819470383
 30
0.0
 10
45.4390206784
 20
181.3584377785
 30
0.0
 10
48.4119457374
 20
181.5412171568
 30
0.0
 10
49.9041215588
 20
181.7417001895
 30
0.0
  0
SPLINE
  5
33D
100
AcDbEntity
  8
0
100
AcDbSpline
 62
7
  6
CONTINUOUS
 70
0
 71
3
 72
11
 73
7
 74
0
 42
0.0000001
 43
0.0000001
 44
0.0000000001
 40
0.0
 40
0.0
 40
0.0
 40
0.0
 40
0.235737605
 40
0.47798309
 40
0.7318613986
 40
1.0
 40
1.0
 40
1.0
 40
1.0
 10
49.9101426814
 20
174.0511743213
 30
0.0
 10
49.5479659111
 20
174.260378449
 30
0.0
 10
48.867145239
 20
174.7851176224
 30
0.0
 10
48.0676221081
 20
175.8245910312
 30
0.0
 10
47.5122973475
 20
177.0739877049
 30
0.0
 10
47.3220892587
 20
177.9878572644
 30
0.0
 10
47.2685587341
 20
178.4605797276
 30
0.0
  0
SPLINE
  5
33E
100
AcDbEntity
  8
0
100
AcDbSpline
 62
7
  6
CONTINUOUS
 70
0
 71
3
 72
10
 73
6
 74
0
 42
0.0000001
 43
0.0000001
 44
0.0000000001
 40
0.0
 40
0.0
 40
0.0
 40
0.0
 40
0.5252520963
 40
0.7668039053
 40
1.0
 40
1.0
 40
1.0
 40
1.0
 10
-15.4470614764
 20
272.4052907578
 30
0.0
 10
-15.4470614764
 20
272.642261082
 30
0.0
 10
-15.5164486504
 20
272.9989096725
 30
0.0
 10
-15.7734137655
 20
273.3757661121
 30
0.0
 10
-15.9433149655
 20
273.5125594773
 30
0.0
 10
-16.0344045176
 20
273.565203084
 30
0.0
  0
SPLINE
  5
33F
100
AcDbEntity
  8
0
100
AcDbSpline
 62
7
  6
CONTINUOUS
 70
0
 71
3
 72
10
 73
6
 74
0
 42
0.0000001
 43
0.0000001
 44
0.0000000001
 40
0.0
 40
0.0
 40
0.0
 40
0.0
 40
0.5252520963
 40
0.7668039053
 40
1.0
 40
1.0
 40
1.0
 40
1.0
 10
-15.4470614764
 20
189.665175549
 30
0.0
 10
-15.4470614764
 20
189.9021458732
 30
0.0
 10
-15.5164486504
 20
190.2587944636
 30
0.0
 10
-15.7734137655
 20
190.6356509033
 30
0.0
 10
-15.9433149655
 20
190.7724442685
 30
0.0
 10
-16.0344045176
 20
190.8250878752
 30
0.0
  0
SPLINE
  5
340
100
AcDbEntity
  8
0
100
AcDbSpline
 62
7
  6
CONTINUOUS
 70
0
 71
3
 72
13
 73
9
 74
0
 42
0.0000001
 43
0.0000001
 44
0.0000000001
 40
0.0
 40
0.0
 40
0.0
 40
0.0
 40
0.1158149877
 40
0.2327337412
 40
0.3517716225
 40
0.473782908
 40
0.7285691958
 40
1.0
 40
1.0
 40
1.0
 40
1.0
 10
31.4545969357
 20
181.9971471059
 30
0.0
 10
30.3141715755
 20
182.655864053
 30
0.0
 10
28.1196411563
 20
184.1564644492
 30
0.0
 10
25.1837736888
 20
186.8940487271
 30
0.0
 10
22.6342969597
 20
190.0858878185
 30
0.0
 10
19.7560074516
 20
194.9528830975
 30
0.0
 10
17.3211664839
 20
201.9980101038
 30
0.0
 10
16.7223005857
 20
208.0054149878
 30
0.0
 10
16.7223005857
 20
211.0920037332
 30
0.0
  0
SPLINE
  5
341
100
AcDbEntity
  8
0
100
AcDbSpline
 62
7
  6
CONTINUOUS
 70
0
 71
3
 72
11
 73
7
 74
0
 42
0.0000001
 43
0.0000001
 44
0.0000000001
 40
0.0
 40
0.0
 40
0.0
 40
0.0
 40
0.2694611181
 40
0.5248588914
 40
0.7672535713
 40
1.0
 40
1.0
 40
1.0
 40
1.0
 10
15.3147617372
 20
211.9049720317
 30
0.0
 10
15.3147617372
 20
209.2635887302
 30
0.0
 10
15.7563801625
 20
204.1035683818
 30
0.0
 10
17.8492642644
 20
196.8255206925
 30
0.0
 10
21.2925759705
 20
190.478331542
 30
0.0
 10
24.4655577319
 20
186.9910474614
 30
0.0
 10
26.2060344239
 20
185.5159433456
 30
0.0
  0
SPLINE
  5
342
100
AcDbEntity
  8
0
100
AcDbSpline
 62
7
  6
CONTINUOUS
 70
0
 71
3
 72
11
 73
7
 74
0
 42
0.0000001
 43
0.0000001
 44
0.0000000001
 40
0.0
 40
0.0
 40
0.0
 40
0.0
 40
0.2483341622
 40
0.5037232139
 40
0.7571335404
 40
1.0
 40
1.0
 40
1.0
 40
1.0
 10
38.2009546148
 20
256.3192550586
 30
0.0
 10
34.7571887714
 20
253.7902184372
 30
0.0
 10
28.4047712333
 20
247.7548321618
 30
0.0
 10
21.1453941849
 20
236.8167798505
 30
0.0
 10
16.4730665922
 20
224.6475606578
 30
0.0
 10
15.3147617372
 20
216.0835501748
 30
0.0
 10
15.3147617372
 20
211.9049720317
 30
0.0
  0
SPLINE
  5
343
100
AcDbEntity
  8
0
100
AcDbSpline
 62
7
  6
CONTINUOUS
 70
0
 71
3
 72
11
 73
7
 74
0
 42
0.0000001
 43
0.0000001
 44
0.0000000001
 40
0.0
 40
0.0
 40
0.0
 40
0.0
 40
0.2415146301
 40
0.4931126875
 40
0.7483240878
 40
1.0
 40
1.0
 40
1.0
 40
1.0
 10
7.587488744
 20
209.8336341397
 30
0.0
 10
7.587488744
 20
214.2811957126
 30
0.0
 10
8.6740310975
 20
223.384585684
 30
0.0
 10
13.1252100109
 20
236.5192113291
 30
0.0
 10
20.1387268171
 20
248.6970351919
 30
0.0
 10
26.3365697334
 20
255.7774302911
 30
0.0
 10
29.739813392
 20
258.9235760521
 30
0.0
  0
SPLINE
  5
344
100
AcDbEntity
  8
0
100
AcDbSpline
 62
7
  6
CONTINUOUS
 70
0
 71
3
 72
11
 73
7
 74
0
 42
0.0000001
 43
0.0000001
 44
0.0000000001
 40
0.0
 40
0.0
 40
0.0
 40
0.0
 40
0.2348411053
 40
0.4790634961
 40
0.7340376884
 40
1.0
 40
1.0
 40
1.0
 40
1.0
 10
16.0973945698
 20
182.8062399627
 30
0.0
 10
14.7041863788
 20
184.5816307554
 30
0.0
 10
12.214677167
 20
188.4923094908
 30
0.0
 10
9.5465550421
 20
195.0583644856
 30
0.0
 10
7.9318601074
 20
202.2628515585
 30
0.0
 10
7.587488744
 20
207.2777886711
 30
0.0
 10
7.587488744
 20
209.8336341397
 30
0.0
  0
SPLINE
  5
345
100
AcDbEntity
  8
0
100
AcDbSpline
 62
7
  6
CONTINUOUS
 70
0
 71
3
 72
11
 73
7
 74
0
 42
0.0000001
 43
0.0000001
 44
0.0000000001
 40
0.0
 40
0.0
 40
0.0
 40
0.0
 40
0.2672654304
 40
0.5224660055
 40
0.7660710176
 40
1.0
 40
1.0
 40
1.0
 40
1.0
 10
88.6644518213
 20
230.3764918076
 30
0.0
 10
88.6644518213
 20
232.511959175
 30
0.0
 10
88.3523576163
 20
236.6954063921
 30
0.0
 10
86.8835486432
 20
242.6689474228
 30
0.0
 10
84.4601247855
 20
248.0360634631
 30
0.0
 10
82.2068047152
 20
251.155919539
 30
0.0
 10
80.9535015678
 20
252.542567474
 30
0.0
  0
SPLINE
  5
346
100
AcDbEntity
  8
0
100
AcDbSpline
 62
7
  6
CONTINUOUS
 70
0
 71
3
 72
11
 73
7
 74
0
 42
0.0000001
 43
0.0000001
 44
0.0000000001
 40
0.0
 40
0.0
 40
0.0
 40
0.0
 40
0.2430462291
 40
0.4966716699
 40
0.7520709018
 40
1.0
 40
1.0
 40
1.0
 40
1.0
 10
16.7223005857
 20
211.0920037332
 30
0.0
 10
16.7223005857
 20
215.3236617522
 30
0.0
 10
17.9102159191
 20
223.9974096372
 30
0.0
 10
22.6939970439
 20
236.3007214531
 30
0.0
 10
30.114572432
 20
247.3191021628
 30
0.0
 10
36.6011461371
 20
253.3592644023
 30
0.0
 10
40.1117323868
 20
255.8711266935
 30
0.0
  0
SPLINE
  5
347
100
AcDbEntity
  8
0
100
AcDbSpline
 62
7
  6
CONTINUOUS
 70
0
 71
3
 72
12
 73
8
 74
0
 42
0.0000001
 43
0.0000001
 44
0.0000000001
 40
0.0
 40
0.0
 40
0.0
 40
0.0
 40
0.2496129985
 40
0.3797352206
 40
0.5105246444
 40
0.7650066244
 40
1.0
 40
1.0
 40
1.0
 40
1.0
 10
-25.1991279277
 20
273.4685343318
 30
0.0
 10
-25.1991279277
 20
274.4659234589
 30
0.0
 10
-24.9213702937
 20
275.9932372825
 30
0.0
 10
-24.1180602072
 20
277.8730674642
 30
0.0
 10
-23.0347337724
 20
279.6327455937
 30
0.0
 10
-21.2822740693
 20
281.4389891159
 30
0.0
 10
-19.4945115091
 20
282.3523649469
 30
0.0
 10
-18.5875574523
 20
282.5954789543
 30
0.0
  0
SPLINE
  5
348
100
AcDbEntity
  8
0
100
AcDbSpline
 62
7
  6
CONTINUOUS
 70
0
 71
3
 72
13
 73
9
 74
0
 42
0.0000001
 43
0.0000001
 44
0.0000000001
 40
0.0
 40
0.0
 40
0.0
 40
0.0
 40
0.1054199736
 40
0.2162072625
 40
0.3355571307
 40
0.4637457895
 40
0.7347562963
 40
1.0
 40
1.0
 40
1.0
 40
1.0
 10
-17.8349251493
 20
270.4478579599
 30
0.0
 10
-17.7249568856
 20
270.3843037335
 30
0.0
 10
-17.4726943384
 20
270.2959133381
 30
0.0
 10
-17.0615211071
 20
270.3022757182
 30
0.0
 10
-16.645945599
 20
270.4390307257
 30
0.0
 10
-16.1175230473
 20
270.7826240738
 30
0.0
 10
-15.6136259918
 20
271.4361167283
 30
0.0
 10
-15.4470614764
 20
272.0857189767
 30
0.0
 10
-15.4470614764
 20
272.4052907578
 30
0.0
  0
SPLINE
  5
349
100
AcDbEntity
  8
0
100
AcDbSpline
 62
7
  6
CONTINUOUS
 70
0
 71
3
 72
14
 73
10
 74
0
 42
0.0000001
 43
0.0000001
 44
0.0000000001
 40
0.0
 40
0.0
 40
0.0
 40
0.0
 40
0.1173840776
 40
0.2398121865
 40
0.3662027215
 40
0.4950596865
 40
0.6246632338
 40
0.7532258253
 40
1.0
 40
1.0
 40
1.0
 40
1.0
 10
58.1685813507
 20
183.9570339472
 30
0.0
 10
60.2947877966
 20
184.8112475759
 30
0.0
 10
64.4879288721
 20
186.9510138944
 30
0.0
 10
70.2770033453
 20
191.1892961476
 30
0.0
 10
75.535849002
 20
196.3935087925
 30
0.0
 10
80.0949663246
 20
202.393591866
 30
0.0
 10
83.8109773046
 20
209.0020788528
 30
0.0
 10
87.4272173865
 20
218.1893607991
 30
0.0
 10
88.6644518213
 20
225.5593642073
 30
0.0
 10
88.6644518213
 20
230.3764918076
 30
0.0
  0
SPLINE
  5
34A
100
AcDbEntity
  8
0
100
AcDbSpline
 62
7
  6
CONTINUOUS
 70
0
 71
3
 72
11
 73
7
 74
0
 42
0.0000001
 43
0.0000001
 44
0.0000000001
 40
0.0
 40
0.0
 40
0.0
 40
0.0
 40
0.2646563024
 40
0.5174118908
 40
0.7611698132
 40
1.0
 40
1.0
 40
1.0
 40
1.0
 10
45.9989872564
 20
178.4609816875
 30
0.0
 10
46.0876524278
 20
178.0738174808
 30
0.0
 10
46.3258487027
 20
177.3294471125
 30
0.0
 10
46.8790354325
 20
176.3214089095
 30
0.0
 10
47.6043307552
 20
175.4786810756
 30
0.0
 10
48.1922336145
 20
175.0434220071
 30
0.0
 10
48.50260404
 20
174.8641429676
 30
0.0
  0
SPLINE
  5
34B
100
AcDbEntity
  8
0
100
AcDbSpline
 62
7
  6
CONTINUOUS
 70
0
 71
3
 72
13
 73
9
 74
0
 42
0.0000001
 43
0.0000001
 44
0.0000000001
 40
0.0
 40
0.0
 40
0.0
 40
0.0
 40
0.1054199736
 40
0.2162072625
 40
0.3355571307
 40
0.4637457895
 40
0.7347562963
 40
1.0
 40
1.0
 40
1.0
 40
1.0
 10
-17.8349251493
 20
187.7077427511
 30
0.0
 10
-17.7249568856
 20
187.6441885246
 30
0.0
 10
-17.4726943384
 20
187.5557981293
 30
0.0
 10
-17.0615211071
 20
187.5621605094
 30
0.0
 10
-16.645945599
 20
187.6989155169
 30
0.0
 10
-16.1175230473
 20
188.042508865
 30
0.0
 10
-15.6136259918
 20
188.6960015194
 30
0.0
 10
-15.4470614764
 20
189.3456037678
 30
0.0
 10
-15.4470614764
 20
189.665175549
 30
0.0
  0
SPLINE
  5
34C
100
AcDbEntity
  8
0
100
AcDbSpline
 62
7
  6
CONTINUOUS
 70
0
 71
3
 72
12
 73
8
 74
0
 42
0.0000001
 43
0.0000001
 44
0.0000000001
 40
0.0
 40
0.0
 40
0.0
 40
0.0
 40
0.2472547381
 40
0.5025507846
 40
0.6304666265
 40
0.7568026674
 40
1.0
 40
1.0
 40
1.0
 40
1.0
 10
7.03227814
 20
275.8751865278
 30
0.0
 10
3.4290587248
 20
273.3903434833
 30
0.0
 10
-3.2427190103
 20
267.3487479681
 30
0.0
 10
-9.6197741549
 20
258.0696619505
 30
0.0
 10
-13.4034343014
 20
249.8602087589
 30
0.0
 10
-16.1426642483
 20
241.478776507
 30
0.0
 10
-17.0586317798
 20
234.9083616275
 30
0.0
 10
-17.0586317798
 20
230.6032428979
 30
0.0
  0
SPLINE
  5
34D
100
AcDbEntity
  8
0
100
AcDbSpline
 62
7
  6
CONTINUOUS
 70
0
 71
3
 72
13
 73
9
 74
0
 42
0.0000001
 43
0.0000001
 44
0.0000000001
 40
0.0
 40
0.0
 40
0.0
 40
0.0
 40
0.2714308043
 40
0.526217092
 40
0.6482283776
 40
0.7672662589
 40
0.8841850125
 40
1.0
 40
1.0
 40
1.0
 40
1.0
 10
-17.0586317798
 20
230.6032428979
 30
0.0
 10
-17.0586317798
 20
227.5166541521
 30
0.0
 10
-16.4597658815
 20
221.5092492673
 30
0.0
 10
-14.0249249133
 20
214.4641222606
 30
0.0
 10
-11.1466354047
 20
209.5971269809
 30
0.0
 10
-8.5971586732
 20
206.4052878912
 30
0.0
 10
-5.6612912121
 20
203.6677036063
 30
0.0
 10
-3.4667607839
 20
202.1671032251
 30
0.0
 10
-2.3263354252
 20
201.5083862787
 30
0.0
  0
ENDSEC
  0
SECTION
  2
OBJECTS
  0
DICTIONARY
  5
C
100
AcDbDictionary
280
0
281
1
  3
ACAD_GROUP
350
D
  3
ACAD_MLINESTYLE
350
17
  3
ACAD_LAYOUT
350
1A
  3
ACAD_PLOTSETTINGS
350
19
  3
ACAD_PLOTSTYLENAME
350
E
  0
DICTIONARY
  5
D
102
{ACAD_REACTORS
330
C
102
}
100
AcDbDictionary
280
0
281
1
  0
ACDBDICTIONARYWDFLT
  5
E
102
{ACAD_REACTORS
330
C
102
}
100
AcDbDictionary
281
1
  3
Normal
350
F
100
AcDbDictionaryWithDefault
340
F
  0
DICTIONARY
  5
17
102
{ACAD_REACTORS
330
C
102
}
100
AcDbDictionary
280
0
281
1
  3
Standard
350
18
  0
DICTIONARY
  5
19
102
{ACAD_REACTORS
330
C
102
}
100
AcDbDictionary
281
1
  0
DICTIONARY
  5
1A
102
{ACAD_REACTORS
330
C
102
}
100
AcDbDictionary
281
1
  3
Model
350
34E
  3
Layout1
350
34F
  0
ACDBPLACEHOLDER
  5
F
102
{ACAD_REACTORS
330
E
102
}
  0
MLINESTYLE
  5
18
102
{ACAD_REACTORS
330
17
102
}
100
AcDbMlineStyle
  2
STANDARD
 70
0
  3

 62
256
 51
90.0
 52
90.0
 71
2
 49
0.5
 62
256
  6
BYLAYER
 49
-0.5
 62
256
  6
BYLAYER
  0
LAYOUT
  5
34E
102
{ACAD_REACTORS
330
1A
102
}
100
AcDbPlotSettings
  1

  2
none_device
  4
ANSI_C_(22.00_x_17.00_Inches)
  6

 40
0.0
 41
0.0
 42
0.0
 43
0.0
 44
558.8
 45
431.8
 46
0.0
 47
0.0
 48
0.0
 49
0.0
140
0.0
141
0.0
142
1.0
143
1.0
 70
1024
 72
1
 73
0
 74
0
  7

 75
0
147
1.0
148
0.0
149
0.0
100
AcDbLayout
  1
Model
 70
0
 71
0
 10
0.0
 20
0.0
 11
558.8
 21
431.8
 12
0.0
 22
0.0
 32
0.0
 14
0.0
 24
0.0
 34
0.0
 15
0.0
 25
0.0
 35
0.0
146
0.0
 13
0.0
 23
0.0
 33
0.0
 16
1.0
 26
0.0
 36
0.0
 17
0.0
 27
1.0
 37
0.0
 76
0
330
216
345
0
346
0
  0
LAYOUT
  5
34F
102
{ACAD_REACTORS
330
1A
102
}
100
AcDbPlotSettings
  1

  2
none_device
  4
ANSI_C_(22.00_x_17.00_Inches)
  6

 40
0.0
 41
0.0
 42
0.0
 43
0.0
 44
558.8
 45
431.8
 46
0.0
 47
0.0
 48
0.0
 49
0.0
140
0.0
141
0.0
142
1.0
143
1.0
 70
0
 72
1
 73
0
 74
0
  7

 75
0
147
1.0
148
0.0
149
0.0
100
AcDbLayout
  1
Layout1
 70
0
 71
1
 10
0.0
 20
0.0
 11
558.8
 21
431.8
 12
0.0
 22
0.0
 32
0.0
 14
0.0
 24
0.0
 34
0.0
 15
0.0
 25
0.0
 35
0.0
146
0.0
 13
0.0
 23
0.0
 33
0.0
 16
1.0
 26
0.0
 36
0.0
 17
0.0
 27
1.0
 37
0.0
 76
0
330
217
345
0
346
0
  0
ENDSEC
  0
EOF
