999
DXF file: Y:\3D PRATIKA-KAEDRA_OLGA\CAD3D\2D_Views\PKE16M423_2D-isometric.dxf
999
Pro/ENGINEER 2018260 by Parametric Technology Corporation
  0
SECTION
  2
HEADER
  9
$ACADVER
  1
AC1027
  9
$DWGCODEPAGE
  3
ANSI_1252
  9
$EXTMAX
 10
22.0
 20
17.0
 30
0.0
  9
$EXTMIN
 10
0.0
 20
0.0
 30
0.0
  9
$LIMMIN
 10
0.0
 20
0.0
  9
$LIMMAX
 10
22.0
 20
17.0
  9
$VIEWCTR
 10
11.0
 20
8.5
  9
$VIEWSIZE
 40
17.0
  9
$CLAYER
  8
0
  9
$LTSCALE
 40
1.21
  9
$CELTYPE
  6
BYLAYER
  9
$DIMSCALE
 40
1.0
  9
$DIMASZ
 40
0.1875
  9
$DIMEXO
 40
0.0625
  9
$DIMDLI
 40
0.836
  9
$DIMEXE
 40
0.125
  9
$DIMCEN
 40
0.198
  9
$DIMLFAC
 40
1.0
  9
$DIMBLK
  1
_CLOSED
  9
$DIMALT
 70
0
  9
$DIMALTF
 40
25.4
  9
$DIMTXT
 40
0.15625
  9
$DIMTOL
 70
0
  9
$DIMLIM
 70
0
  9
$DIMTFAC
 40
1.0
  9
$DIMGAP
 40
0.09
  9
$DIMDSEP
 70
46
  9
$AUNITS
 70
0
  9
$PDMODE
 70
3
  9
$PDSIZE
 40
0.3125
  9
$HANDSEED
  5
3F3
  9
$TILEMODE
 70
1
  9
$MEASUREMENT
 70
0
  9
$INSUNITS
 70
1
  0
ENDSEC
  0
SECTION
  2
CLASSES
  0
CLASS
  1
ACDBDICTIONARYWDFLT
  2
AcDbDictionaryWithDefault
  3
AutoCAD 2000
 90
0
 91
1
280
0
281
0
  0
CLASS
  1
ACDBPLACEHOLDER
  2
AcDbPlaceHolder
  3
AutoCAD 2000
 90
0
 91
1
280
0
281
0
  0
CLASS
  1
LAYOUT
  2
AcDbLayout
  3
AutoCAD 2000
 90
0
 91
0
280
0
281
0
  0
ENDSEC
  0
SECTION
  2
TABLES
  0
TABLE
  2
VPORT
  5
8
100
AcDbSymbolTable
 70
2
  0
VPORT
  5
1F4
100
AcDbSymbolTableRecord
100
AcDbViewportTableRecord
  2
*ACTIVE
 70
0
 10
0.0
 20
0.0
 11
1.0
 21
1.0
 12
11.0
 22
8.5
 13
0.0
 23
0.0
 14
1.0
 24
1.0
 15
0.0
 25
0.0
 16
0.0
 26
0.0
 36
1.0
 17
0.0
 27
0.0
 37
0.0
 40
17.0
 41
1.2941176471
 42
50.0
 43
0.0
 44
0.0
 50
0.0
 51
0.0
 71
0
 72
100
 73
1
 74
1
 75
0
 76
0
 77
0
 78
0
  0
ENDTAB
  0
TABLE
  2
LTYPE
  5
5
100
AcDbSymbolTable
 70
6
  0
LTYPE
  5
14
100
AcDbSymbolTableRecord
100
AcDbLinetypeTableRecord
  2
BYBLOCK
 70
0
  3

 72
65
 73
0
 40
0.0
  0
LTYPE
  5
15
100
AcDbSymbolTableRecord
100
AcDbLinetypeTableRecord
  2
BYLAYER
 70
0
  3

 72
65
 73
0
 40
0.0
  0
LTYPE
  5
16
100
AcDbSymbolTableRecord
100
AcDbLinetypeTableRecord
  2
CONTINUOUS
 70
64
  3
Solid line
 72
65
 73
0
 40
0.0
  0
LTYPE
  5
1F5
100
AcDbSymbolTableRecord
100
AcDbLinetypeTableRecord
  2
CENTER
 70
64
  3
____ _ ____ _ ____ _ ____ _ ____ _ ____ _ ____
 72
65
 73
4
 40
0.6
 49
0.375
 74
0
 49
-0.075
 74
0
 49
0.075
 74
0
 49
-0.075
 74
0
  0
LTYPE
  5
1F6
100
AcDbSymbolTableRecord
100
AcDbLinetypeTableRecord
  2
HIDDEN
 70
64
  3
- - - - - - - - - - - - - - - - - - - -
 72
65
 73
2
 40
0.2
 49
0.1
 74
0
 49
-0.1
 74
0
  0
LTYPE
  5
1F7
100
AcDbSymbolTableRecord
100
AcDbLinetypeTableRecord
  2
PHANTOM
 70
64
  3
_____ _ _ _____ _ _ _____ _ _ _____
 72
65
 73
6
 40
0.8
 49
0.45
 74
0
 49
-0.05
 74
0
 49
0.1
 74
0
 49
-0.05
 74
0
 49
0.1
 74
0
 49
-0.05
 74
0
  0
LTYPE
  5
1F8
100
AcDbSymbolTableRecord
100
AcDbLinetypeTableRecord
  2
DOT
 70
64
  3
. . . . . . . . . . . . . . . . . . . .
 72
65
 73
2
 40
0.2
 49
0.1
 74
0
 49
-0.1
 74
0
  0
LTYPE
  5
1F9
100
AcDbSymbolTableRecord
100
AcDbLinetypeTableRecord
  2
DASHED
 70
64
  3
- - - - - - - - - - - - - - - - - - - -
 72
65
 73
2
 40
0.2
 49
0.1
 74
0
 49
-0.1
 74
0
  0
ENDTAB
  0
TABLE
  2
LAYER
  5
2
100
AcDbSymbolTable
 70
36
  0
LAYER
  5
10
100
AcDbSymbolTableRecord
100
AcDbLayerTableRecord
  2
0
 70
0
 62
7
  6
CONTINUOUS
370
-3
390
F
  0
LAYER
  5
1FA
100
AcDbSymbolTableRecord
100
AcDbLayerTableRecord
  2
DEFAULT_1
 70
0
 62
7
  6
CENTER
370
-3
390
F
  0
LAYER
  5
1FB
100
AcDbSymbolTableRecord
100
AcDbLayerTableRecord
  2
DEFAULT_2
 70
0
 62
8
  6
HIDDEN
370
-3
390
F
  0
LAYER
  5
1FC
100
AcDbSymbolTableRecord
100
AcDbLayerTableRecord
  2
DEFAULT_3
 70
0
 62
7
  6
PHANTOM
370
-3
390
F
  0
LAYER
  5
1FD
100
AcDbSymbolTableRecord
100
AcDbLayerTableRecord
  2
01_ALL_DTM_PLN
 70
0
 62
7
  6
CONTINUOUS
370
-3
390
F
  0
LAYER
  5
1FE
100
AcDbSymbolTableRecord
100
AcDbLayerTableRecord
  2
01__ASM_ALL_DTM_PLN
 70
0
 62
7
  6
CONTINUOUS
370
-3
390
F
  0
LAYER
  5
1FF
100
AcDbSymbolTableRecord
100
AcDbLayerTableRecord
  2
01__ASM_DEF_DTM_PLN
 70
0
 62
7
  6
CONTINUOUS
370
-3
390
F
  0
LAYER
  5
200
100
AcDbSymbolTableRecord
100
AcDbLayerTableRecord
  2
01___PRT_ALL_DTM_PLN
 70
0
 62
7
  6
CONTINUOUS
370
-3
390
F
  0
LAYER
  5
201
100
AcDbSymbolTableRecord
100
AcDbLayerTableRecord
  2
01___PRT_DEF_DTM_PLN
 70
0
 62
7
  6
CONTINUOUS
370
-3
390
F
  0
LAYER
  5
202
100
AcDbSymbolTableRecord
100
AcDbLayerTableRecord
  2
02_ALL_AXES
 70
0
 62
7
  6
CONTINUOUS
370
-3
390
F
  0
LAYER
  5
203
100
AcDbSymbolTableRecord
100
AcDbLayerTableRecord
  2
02__ASM_ALL_AXES
 70
0
 62
7
  6
CONTINUOUS
370
-3
390
F
  0
LAYER
  5
204
100
AcDbSymbolTableRecord
100
AcDbLayerTableRecord
  2
02___PRT_ALL_AXES
 70
0
 62
7
  6
CONTINUOUS
370
-3
390
F
  0
LAYER
  5
205
100
AcDbSymbolTableRecord
100
AcDbLayerTableRecord
  2
03_ALL_CURVES
 70
0
 62
7
  6
CONTINUOUS
370
-3
390
F
  0
LAYER
  5
206
100
AcDbSymbolTableRecord
100
AcDbLayerTableRecord
  2
03__ASM_ALL_CURVES
 70
0
 62
7
  6
CONTINUOUS
370
-3
390
F
  0
LAYER
  5
207
100
AcDbSymbolTableRecord
100
AcDbLayerTableRecord
  2
03___PRT_ALL_CURVES
 70
0
 62
7
  6
CONTINUOUS
370
-3
390
F
  0
LAYER
  5
208
100
AcDbSymbolTableRecord
100
AcDbLayerTableRecord
  2
04_ALL_DTM_PNT
 70
0
 62
7
  6
CONTINUOUS
370
-3
390
F
  0
LAYER
  5
209
100
AcDbSymbolTableRecord
100
AcDbLayerTableRecord
  2
04__ASM_ALL_DTM_PNT
 70
0
 62
7
  6
CONTINUOUS
370
-3
390
F
  0
LAYER
  5
20A
100
AcDbSymbolTableRecord
100
AcDbLayerTableRecord
  2
04___PRT_ALL_DTM_PNT
 70
0
 62
7
  6
CONTINUOUS
370
-3
390
F
  0
LAYER
  5
20B
100
AcDbSymbolTableRecord
100
AcDbLayerTableRecord
  2
05_ALL_DTM_CSYS
 70
0
 62
7
  6
CONTINUOUS
370
-3
390
F
  0
LAYER
  5
20C
100
AcDbSymbolTableRecord
100
AcDbLayerTableRecord
  2
05__ASM_ALL_DTM_CSYS
 70
0
 62
7
  6
CONTINUOUS
370
-3
390
F
  0
LAYER
  5
20D
100
AcDbSymbolTableRecord
100
AcDbLayerTableRecord
  2
05__ASM_DEF_DTM_CSYS
 70
0
 62
7
  6
CONTINUOUS
370
-3
390
F
  0
LAYER
  5
20E
100
AcDbSymbolTableRecord
100
AcDbLayerTableRecord
  2
05___PRT_ALL_DTM_CSYS
 70
0
 62
7
  6
CONTINUOUS
370
-3
390
F
  0
LAYER
  5
20F
100
AcDbSymbolTableRecord
100
AcDbLayerTableRecord
  2
05___PRT_DEF_DTM_CSYS
 70
0
 62
7
  6
CONTINUOUS
370
-3
390
F
  0
LAYER
  5
210
100
AcDbSymbolTableRecord
100
AcDbLayerTableRecord
  2
06_ALL_SURFS
 70
0
 62
7
  6
CONTINUOUS
370
-3
390
F
  0
LAYER
  5
211
100
AcDbSymbolTableRecord
100
AcDbLayerTableRecord
  2
06__ASM_ALL_SURFS
 70
0
 62
7
  6
CONTINUOUS
370
-3
390
F
  0
LAYER
  5
212
100
AcDbSymbolTableRecord
100
AcDbLayerTableRecord
  2
06___PRT_ALL_SURFS
 70
0
 62
7
  6
CONTINUOUS
370
-3
390
F
  0
LAYER
  5
213
100
AcDbSymbolTableRecord
100
AcDbLayerTableRecord
  2
07__ASM_ALL_SKELETONS
 70
0
 62
7
  6
CONTINUOUS
370
-3
390
F
  0
ENDTAB
  0
TABLE
  2
STYLE
  5
3
100
AcDbSymbolTable
 70
1
  0
STYLE
  5
11
100
AcDbSymbolTableRecord
100
AcDbTextStyleTableRecord
  2
STANDARD
 70
0
 40
0.0
 41
0.8
 50
0.0
 71
0
 42
0.2
  3
txt
  4

  0
STYLE
  5
214
100
AcDbSymbolTableRecord
100
AcDbTextStyleTableRecord
  2
TEXTSTYLE_1
 70
0
 40
0.0
 41
0.8
 50
0.0
 71
0
 42
0.2
  3
gdt
  4

  0
ENDTAB
  0
TABLE
  2
VIEW
  5
6
100
AcDbSymbolTable
 70
0
  0
ENDTAB
  0
TABLE
  2
UCS
  5
7
100
AcDbSymbolTable
 70
0
  0
ENDTAB
  0
TABLE
  2
APPID
  5
9
100
AcDbSymbolTable
 70
1
  0
APPID
  5
215
100
AcDbSymbolTableRecord
100
AcDbRegAppTableRecord
  2
ACAD
 70
0
  0
ENDTAB
  0
TABLE
  2
BLOCK_RECORD
  5
1
100
AcDbSymbolTable
 70
0
  0
BLOCK_RECORD
  5
216
100
AcDbSymbolTableRecord
100
AcDbBlockTableRecord
  2
*Model_Space
  0
BLOCK_RECORD
  5
217
100
AcDbSymbolTableRecord
100
AcDbBlockTableRecord
  2
*Paper_Space
  0
BLOCK_RECORD
  5
218
100
AcDbSymbolTableRecord
100
AcDbBlockTableRecord
  2
_CLOSED
  0
ENDTAB
  0
TABLE
  2
DIMSTYLE
  5
A
100
AcDbSymbolTable
 70
1
100
AcDbDimStyleTable
 71
0
  0
DIMSTYLE
105
219
100
AcDbSymbolTableRecord
100
AcDbDimStyleTableRecord
  2
STANDARD
 70
0
  3

  4

 40
1.0
 41
0.1875
 42
0.0625
 43
0.38
 44
0.125
 45
0.0
 46
0.0
 47
0.01
 48
0.01
140
0.15625
141
0.09
142
0.0
143
25.4
144
1.0
145
0.0
146
1.0
147
0.09
 71
0.0
 72
0.0
 73
1
 74
1
 75
0
 76
0
 77
0
 78
4
 79
1
170
0
171
1
172
0
173
0
174
0
175
0
176
0
177
0
178
0
270
2
179
2
271
2
272
2
273
2
274
2
275
0
280
0
281
0
282
0
283
1
284
4
285
0
286
0
287
3
288
0
340
11
278
46
341
218
342
218
343
218
344
218
  0
ENDTAB
  0
ENDSEC
  0
SECTION
  2
BLOCKS
  0
BLOCK
  5
20
100
AcDbEntity
  8
0
100
AcDbBlockBegin
  2
*Model_Space
 70
0
 10
0.0
 20
0.0
 30
0.0
  3
*Model_Space
  1

  0
ENDBLK
  5
21
100
AcDbEntity
  8
0
100
AcDbBlockEnd
  0
BLOCK
  5
1C
100
AcDbEntity
  8
0
100
AcDbBlockBegin
  2
*Paper_Space
 70
0
 10
0.0
 20
0.0
 30
0.0
  3
*Paper_Space
  1

  0
ENDBLK
  5
1D
100
AcDbEntity
  8
0
100
AcDbBlockEnd
  0
BLOCK
  5
21A
100
AcDbEntity
  8
0
100
AcDbBlockBegin
  2
_CLOSED
 70
64
 10
0.0
 20
0.0
  3
_CLOSED
  1

  0
LINE
  5
21B
100
AcDbEntity
  8
0
  6
BYBLOCK
 62
0
100
AcDbLine
 10
0.0
 20
0.0
 11
-1.0
 21
0.1666666667
  0
LINE
  5
21C
100
AcDbEntity
  8
0
  6
BYBLOCK
 62
0
100
AcDbLine
 10
-1.0
 20
0.1666666667
 11
-1.0
 21
-0.1666666667
  0
LINE
  5
21D
100
AcDbEntity
  8
0
  6
BYBLOCK
 62
0
100
AcDbLine
 10
-1.0
 20
-0.1666666667
 11
0.0
 21
0.0
  0
LINE
  5
21E
100
AcDbEntity
  8
0
  6
BYBLOCK
 62
0
100
AcDbLine
 10
-1.0
 20
0.0
 11
0.0
 21
0.0
  0
ENDBLK
  5
21F
100
AcDbEntity
  8
0
  6
BYBLOCK
 62
0
100
AcDbBlockEnd
  0
ENDSEC
  0
SECTION
  2
ENTITIES
  0
LINE
  5
220
100
AcDbEntity
  8
0
100
AcDbLine
 62
7
  6
CONTINUOUS
 10
-86.8522469149
 20
-18.1680298432
 11
-86.8258864012
 21
-18.428185203
  0
LINE
  5
221
100
AcDbEntity
  8
0
100
AcDbLine
 62
7
  6
CONTINUOUS
 10
-61.5088479091
 20
19.5797640692
 11
-61.560996103
 21
20.2018147326
  0
LINE
  5
222
100
AcDbEntity
  8
0
100
AcDbLine
 62
7
  6
CONTINUOUS
 10
-79.1542368499
 20
-23.1622374469
 11
-79.142002625
 21
-23.3091506887
  0
LINE
  5
223
100
AcDbEntity
  8
0
100
AcDbLine
 62
7
  6
CONTINUOUS
 10
-42.9440660675
 20
-0.5449710305
 11
-43.4017697444
 21
8.2762381673
  0
LINE
  5
224
100
AcDbEntity
  8
0
100
AcDbLine
 62
7
  6
CONTINUOUS
 10
-41.8332295718
 20
4.4611301663
 11
-41.5311361704
 21
-1.3610408563
  0
LINE
  5
225
100
AcDbEntity
  8
0
100
AcDbLine
 62
7
  6
CONTINUOUS
 10
-79.1542368118
 20
-23.1623112923
 11
-79.1542374544
 21
-23.0749277968
  0
LINE
  5
226
100
AcDbEntity
  8
0
100
AcDbLine
 62
7
  6
CONTINUOUS
 10
-78.8349249638
 20
-23.2158673447
 11
-78.8349249638
 21
-23.3454385664
  0
LINE
  5
227
100
AcDbEntity
  8
0
100
AcDbLine
 62
7
  6
CONTINUOUS
 10
-61.5602609229
 20
20.1930451439
 11
-61.5602609229
 21
20.2802634531
  0
LINE
  5
228
100
AcDbEntity
  8
0
100
AcDbLine
 62
7
  6
CONTINUOUS
 10
-56.739693353
 20
10.8461358951
 11
-56.7396933961
 21
10.8002014734
  0
LINE
  5
229
100
AcDbEntity
  8
0
100
AcDbLine
 62
7
  6
CONTINUOUS
 10
-0.5940429546
 20
-63.4026326911
 11
-0.5940429546
 21
-64.4233985439
  0
LINE
  5
22A
100
AcDbEntity
  8
0
100
AcDbLine
 62
7
  6
CONTINUOUS
 10
-90.3633953561
 20
-8.6730357599
 11
-90.3652039555
 21
-8.9800589203
  0
LINE
  5
22B
100
AcDbEntity
  8
0
100
AcDbLine
 62
7
  6
CONTINUOUS
 10
-61.5609980868
 20
20.2054292644
 11
-61.5602609229
 21
20.2802642125
  0
LINE
  5
22C
100
AcDbEntity
  8
0
100
AcDbLine
 62
7
  6
CONTINUOUS
 10
-89.253327241
 20
-3.4760183053
 11
-89.2551058277
 21
-3.5005343599
  0
LINE
  5
22D
100
AcDbEntity
  8
0
100
AcDbLine
 62
7
  6
CONTINUOUS
 10
-89.2524498335
 20
-3.4758635583
 11
-89.2551058277
 21
-3.5005343599
  0
LINE
  5
22E
100
AcDbEntity
  8
0
100
AcDbLine
 62
7
  6
CONTINUOUS
 10
-86.8106797895
 20
-17.9106790422
 11
-86.8522469149
 21
-18.1680298432
  0
LINE
  5
22F
100
AcDbEntity
  8
0
100
AcDbLine
 62
7
  6
CONTINUOUS
 10
-88.4631525602
 20
2.7661267491
 11
-88.4631311353
 21
2.7662284101
  0
LINE
  5
230
100
AcDbEntity
  8
0
100
AcDbLine
 62
7
  6
CONTINUOUS
 10
-73.301046344
 20
-21.8512045952
 11
-73.2980287681
 21
-21.8387155549
  0
LINE
  5
231
100
AcDbEntity
  8
0
100
AcDbLine
 62
7
  6
CONTINUOUS
 10
-90.2815300995
 20
-8.378224856
 11
-90.3633953561
 21
-8.6730357599
  0
LINE
  5
232
100
AcDbEntity
  8
0
100
AcDbLine
 62
7
  6
CONTINUOUS
 10
-88.3996559308
 20
2.9759608938
 11
-88.4631597052
 21
2.766154651
  0
LINE
  5
233
100
AcDbEntity
  8
0
100
AcDbLine
 62
7
  6
CONTINUOUS
 10
-86.7613847192
 20
-17.7789775683
 11
-86.8106797895
 21
-17.9106790422
  0
LINE
  5
234
100
AcDbEntity
  8
0
100
AcDbLine
 62
7
  6
CONTINUOUS
 10
-86.7613795553
 20
-17.7789657319
 11
-86.4705049479
 21
-17.1405561603
  0
LINE
  5
235
100
AcDbEntity
  8
0
100
AcDbLine
 62
7
  6
CONTINUOUS
 10
-86.144054473
 20
-17.3154089272
 11
-86.4414785289
 21
-17.9681931817
  0
LINE
  5
236
100
AcDbEntity
  8
0
100
AcDbLine
 62
7
  6
CONTINUOUS
 10
-67.0254961621
 20
-27.7506901165
 11
-67.0048503918
 21
-27.7053769179
  0
LINE
  5
237
100
AcDbEntity
  8
0
100
AcDbLine
 62
7
  6
CONTINUOUS
 10
-48.1068867248
 20
10.0944041449
 11
-48.1275325077
 21
10.0490909436
  0
LINE
  5
238
100
AcDbEntity
  8
0
100
AcDbLine
 62
7
  6
CONTINUOUS
 10
-88.2464854701
 20
3.2569791736
 11
-88.3996559308
 21
2.9759608938
  0
LINE
  5
239
100
AcDbEntity
  8
0
100
AcDbLine
 62
7
  6
CONTINUOUS
 10
-90.1305333098
 20
-8.1238925401
 11
-90.2815300995
 21
-8.378224856
  0
LINE
  5
23A
100
AcDbEntity
  8
0
100
AcDbLine
 62
7
  6
CONTINUOUS
 10
-82.2371003972
 20
13.284993052
 11
-82.2442558743
 21
13.2735224475
  0
LINE
  5
23B
100
AcDbEntity
  8
0
100
AcDbLine
 62
7
  6
CONTINUOUS
 10
-82.2371003972
 20
13.284993052
 11
-82.2445398082
 21
13.2737281875
  0
LINE
  5
23C
100
AcDbEntity
  8
0
100
AcDbLine
 62
7
  6
CONTINUOUS
 10
-75.190626225
 20
-12.4811702315
 11
-75.1819483861
 21
-12.4697007878
  0
LINE
  5
23D
100
AcDbEntity
  8
0
100
AcDbLine
 62
7
  6
CONTINUOUS
 10
-82.2227465828
 20
13.4964042547
 11
-82.3461979184
 21
13.337119158
  0
LINE
  5
23E
100
AcDbEntity
  8
0
100
AcDbLine
 62
7
  6
CONTINUOUS
 10
-75.2467498465
 20
-12.4455651312
 11
-75.235839754
 21
-12.4315076282
  0
LINE
  5
23F
100
AcDbEntity
  8
0
100
AcDbLine
 62
7
  6
CONTINUOUS
 10
-88.0407610403
 20
3.4777221306
 11
-88.2464854701
 21
3.2569791736
  0
LINE
  5
240
100
AcDbEntity
  8
0
100
AcDbLine
 62
7
  6
CONTINUOUS
 10
-90.0215464615
 20
-8.0073333879
 11
-90.1305333098
 21
-8.1238925401
  0
LINE
  5
241
100
AcDbEntity
  8
0
100
AcDbLine
 62
7
  6
CONTINUOUS
 10
-90.0215435481
 20
-8.0073304746
 11
-89.5136310866
 21
-7.5449757173
  0
LINE
  5
242
100
AcDbEntity
  8
0
100
AcDbLine
 62
7
  6
CONTINUOUS
 10
-89.1803330944
 20
-7.7180791633
 11
-89.695485836
 21
-8.1870247786
  0
LINE
  5
243
100
AcDbEntity
  8
0
100
AcDbLine
 62
7
  6
CONTINUOUS
 10
-73.123745614
 20
-21.9286909376
 11
-73.0879859421
 21
-21.8961387751
  0
LINE
  5
244
100
AcDbEntity
  8
0
100
AcDbLine
 62
7
  6
CONTINUOUS
 10
-82.0044180203
 20
13.6876375604
 11
-82.2227465828
 21
13.4964042547
  0
LINE
  5
245
100
AcDbEntity
  8
0
100
AcDbLine
 62
7
  6
CONTINUOUS
 10
-72.5953451163
 20
20.0777134772
 11
-72.6809979244
 21
20.0197033595
  0
LINE
  5
246
100
AcDbEntity
  8
0
100
AcDbLine
 62
7
  6
CONTINUOUS
 10
-72.5953451163
 20
20.0777134772
 11
-72.6819434521
 21
20.0226129397
  0
LINE
  5
247
100
AcDbEntity
  8
0
100
AcDbLine
 62
7
  6
CONTINUOUS
 10
-87.8048119287
 20
3.6214239844
 11
-88.0407610403
 21
3.4777221306
  0
LINE
  5
248
100
AcDbEntity
  8
0
100
AcDbLine
 62
7
  6
CONTINUOUS
 10
-72.4434211453
 20
-2.1325279875
 11
-72.4325941947
 21
-2.1265884032
  0
LINE
  5
249
100
AcDbEntity
  8
0
100
AcDbLine
 62
7
  6
CONTINUOUS
 10
-72.5478566794
 20
20.1936228085
 11
-72.7340541531
 21
20.0980515543
  0
LINE
  5
24A
100
AcDbEntity
  8
0
100
AcDbLine
 62
7
  6
CONTINUOUS
 10
-81.7645250914
 20
13.8100401273
 11
-82.0044180203
 21
13.6876375604
  0
LINE
  5
24B
100
AcDbEntity
  8
0
100
AcDbLine
 62
7
  6
CONTINUOUS
 10
-87.6941645376
 20
3.659525516
 11
-87.8048119287
 21
3.6214239844
  0
LINE
  5
24C
100
AcDbEntity
  8
0
100
AcDbLine
 62
7
  6
CONTINUOUS
 10
-57.566590866
 20
10.6004690052
 11
-57.4718569255
 21
10.6295300926
  0
LINE
  5
24D
100
AcDbEntity
  8
0
100
AcDbLine
 62
7
  6
CONTINUOUS
 10
-75.775858707
 20
-24.7231670657
 11
-74.9592021564
 21
-24.9265508728
  0
LINE
  5
24E
100
AcDbEntity
  8
0
100
AcDbLine
 62
7
  6
CONTINUOUS
 10
-78.5373263515
 20
-23.9799568427
 11
-75.775858707
 21
-24.7231670657
  0
LINE
  5
24F
100
AcDbEntity
  8
0
100
AcDbLine
 62
7
  6
CONTINUOUS
 10
-65.258178729
 20
-28.3329339355
 11
-65.2569652922
 21
-28.3332707522
  0
LINE
  5
250
100
AcDbEntity
  8
0
100
AcDbLine
 62
7
  6
CONTINUOUS
 10
-78.5373266969
 20
-23.9799581152
 11
-78.537230375
 21
-23.9799850468
  0
LINE
  5
251
100
AcDbEntity
  8
0
100
AcDbLine
 62
7
  6
CONTINUOUS
 10
-67.2023413405
 20
-27.6989735042
 11
-67.0254956744
 21
-27.7506904645
  0
LINE
  5
252
100
AcDbEntity
  8
0
100
AcDbLine
 62
7
  6
CONTINUOUS
 10
-68.3581326586
 20
-27.3809936626
 11
-66.4511763049
 21
-27.9520991702
  0
LINE
  5
253
100
AcDbEntity
  8
0
100
AcDbLine
 62
7
  6
CONTINUOUS
 10
-81.2132460009
 20
13.8130258161
 11
-81.2873743845
 21
13.8363145579
  0
LINE
  5
254
100
AcDbEntity
  8
0
100
AcDbLine
 62
7
  6
CONTINUOUS
 10
-60.8073841812
 20
19.4050793513
 11
-60.8527178523
 21
19.4195760177
  0
LINE
  5
255
100
AcDbEntity
  8
0
100
AcDbLine
 62
7
  6
CONTINUOUS
 10
-66.2967013636
 20
-27.9954851235
 11
-65.258178729
 21
-28.3329339355
  0
LINE
  5
256
100
AcDbEntity
  8
0
100
AcDbLine
 62
7
  6
CONTINUOUS
 10
-56.8421593888
 20
10.9677393934
 11
-56.8354836414
 21
10.965560942
  0
LINE
  5
257
100
AcDbEntity
  8
0
100
AcDbLine
 62
7
  6
CONTINUOUS
 10
-60.8075183821
 20
19.4047611299
 11
-60.8527178523
 21
19.4195760177
  0
LINE
  5
258
100
AcDbEntity
  8
0
100
AcDbLine
 62
7
  6
CONTINUOUS
 10
-72.6905724087
 20
-22.5990240089
 11
-72.8560209399
 21
-22.544344578
  0
LINE
  5
259
100
AcDbEntity
  8
0
100
AcDbLine
 62
7
  6
CONTINUOUS
 10
-61.5226374878
 20
19.720162333
 11
-61.5052802073
 21
19.7142490174
  0
LINE
  5
25A
100
AcDbEntity
  8
0
100
AcDbLine
 62
7
  6
CONTINUOUS
 10
-61.5350270363
 20
19.6916249555
 11
-61.5177244573
 21
19.685648117
  0
LINE
  5
25B
100
AcDbEntity
  8
0
100
AcDbLine
 62
7
  6
CONTINUOUS
 10
-67.0254953264
 20
-27.750690622
 11
-67.2050259198
 21
-27.6880269856
  0
LINE
  5
25C
100
AcDbEntity
  8
0
100
AcDbLine
 62
7
  6
CONTINUOUS
 10
-72.2972913741
 20
-2.2544299941
 11
-72.2615435741
 21
-2.2678063174
  0
LINE
  5
25D
100
AcDbEntity
  8
0
100
AcDbLine
 62
7
  6
CONTINUOUS
 10
-80.5429815985
 20
13.4330762356
 11
-81.0581563771
 21
13.6258469169
  0
LINE
  5
25E
100
AcDbEntity
  8
0
100
AcDbLine
 62
7
  6
CONTINUOUS
 10
-81.2133474967
 20
13.8130633954
 11
-80.666650104
 21
13.6084984781
  0
LINE
  5
25F
100
AcDbEntity
  8
0
100
AcDbLine
 62
7
  6
CONTINUOUS
 10
-78.6917106172
 20
-23.9204347087
 11
-78.5373463667
 21
-23.9799526136
  0
LINE
  5
260
100
AcDbEntity
  8
0
100
AcDbLine
 62
7
  6
CONTINUOUS
 10
-71.7594927342
 20
20.1490335758
 11
-71.9920556295
 21
20.2440509144
  0
LINE
  5
261
100
AcDbEntity
  8
0
100
AcDbLine
 62
7
  6
CONTINUOUS
 10
-75.2004132234
 20
-13.4401249938
 11
-75.0317905787
 21
-13.5099609349
  0
LINE
  5
262
100
AcDbEntity
  8
0
100
AcDbLine
 62
7
  6
CONTINUOUS
 10
-75.2092997233
 20
-12.4672612753
 11
-75.2280911361
 21
-12.459474156
  0
LINE
  5
263
100
AcDbEntity
  8
0
100
AcDbLine
 62
7
  6
CONTINUOUS
 10
-4.3576520289
 20
-37.969671454
 11
-4.1408797497
 21
-38.0718446228
  0
LINE
  5
264
100
AcDbEntity
  8
0
100
AcDbLine
 62
7
  6
CONTINUOUS
 10
8.167449629
 20
-34.6121989081
 11
8.3842219082
 21
-34.7143720769
  0
LINE
  5
265
100
AcDbEntity
  8
0
100
AcDbLine
 62
7
  6
CONTINUOUS
 10
-6.6405302571
 20
-42.4021732722
 11
-6.3358841379
 21
-42.5458492816
  0
LINE
  5
266
100
AcDbEntity
  8
0
100
AcDbLine
 62
7
  6
CONTINUOUS
 10
5.8845714033
 20
-39.0447007263
 11
6.1892175225
 21
-39.1883767382
  0
LINE
  5
267
100
AcDbEntity
  8
0
100
AcDbLine
 62
7
  6
CONTINUOUS
 10
3.4986125735
 20
-48.1219019064
 11
3.7483941695
 21
-48.2441141436
  0
LINE
  5
268
100
AcDbEntity
  8
0
100
AcDbLine
 62
7
  6
CONTINUOUS
 10
-72.8558852709
 20
-3.0787530165
 11
-72.692725013
 21
-3.1704568235
  0
LINE
  5
269
100
AcDbEntity
  8
0
100
AcDbLine
 62
7
  6
CONTINUOUS
 10
-36.1044550477
 20
-50.6715582955
 11
-31.4186781632
 21
-53.3779353948
  0
LINE
  5
26A
100
AcDbEntity
  8
0
100
AcDbLine
 62
7
  6
CONTINUOUS
 10
-23.3234860758
 20
-56.3374351273
 11
-21.9159328025
 21
-57.1503995593
  0
LINE
  5
26B
100
AcDbEntity
  8
0
100
AcDbLine
 62
7
  6
CONTINUOUS
 10
-30.5963901914
 20
-49.2336193248
 11
-8.8678224116
 21
-61.7834482409
  0
LINE
  5
26C
100
AcDbEntity
  8
0
100
AcDbLine
 62
7
  6
CONTINUOUS
 10
-5.1101415551
 20
-63.1828593765
 11
0.3848507035
 21
-66.3566172352
  0
LINE
  5
26D
100
AcDbEntity
  8
0
100
AcDbLine
 62
7
  6
CONTINUOUS
 10
-45.4338161121
 20
-39.2204114976
 11
-63.8818471509
 21
-28.5653312482
  0
LINE
  5
26E
100
AcDbEntity
  8
0
100
AcDbLine
 62
7
  6
CONTINUOUS
 10
-2.2762790618
 20
-63.4517847874
 11
-0.5940429546
 21
-64.4233985439
  0
LINE
  5
26F
100
AcDbEntity
  8
0
100
AcDbLine
 62
7
  6
CONTINUOUS
 10
-68.8765724828
 20
-22.9667062098
 11
-71.1063065958
 21
-21.6788725167
  0
LINE
  5
270
100
AcDbEntity
  8
0
100
AcDbLine
 62
7
  6
CONTINUOUS
 10
-13.9786767187
 20
-46.0891234498
 11
0.2473827209
 21
-54.3057078979
  0
LINE
  5
271
100
AcDbEntity
  8
0
100
AcDbLine
 62
7
  6
CONTINUOUS
 10
-12.3228915162
 20
-39.1201963361
 11
-6.6410662352
 21
-42.4018638596
  0
LINE
  5
272
100
AcDbEntity
  8
0
100
AcDbLine
 62
7
  6
CONTINUOUS
 10
-5.9405519669
 20
-42.6480427602
 11
3.7483941695
 21
-48.2441141436
  0
LINE
  5
273
100
AcDbEntity
  8
0
100
AcDbLine
 62
7
  6
CONTINUOUS
 10
-10.0159638212
 20
-34.6785559306
 11
-4.1403437716
 21
-38.0721540354
  0
LINE
  5
274
100
AcDbEntity
  8
0
100
AcDbLine
 62
7
  6
CONTINUOUS
 10
-7.4301103188
 20
-31.3545033763
 11
5.8840354227
 21
-39.0443913137
  0
LINE
  5
275
100
AcDbEntity
  8
0
100
AcDbLine
 62
7
  6
CONTINUOUS
 10
-3.3816702673
 20
-27.9187130749
 11
8.3847578863
 21
-34.7146814895
  0
LINE
  5
276
100
AcDbEntity
  8
0
100
AcDbLine
 62
7
  6
CONTINUOUS
 10
-35.7442411047
 20
-4.7034026425
 11
-37.4243734874
 21
-3.7329935013
  0
LINE
  5
277
100
AcDbEntity
  8
0
100
AcDbLine
 62
7
  6
CONTINUOUS
 10
-42.9440660675
 20
-0.5449710305
 11
-41.5311361704
 21
-1.3610408563
  0
LINE
  5
278
100
AcDbEntity
  8
0
100
AcDbLine
 62
7
  6
CONTINUOUS
 10
-51.0168025509
 20
8.0602396153
 11
-53.2263644462
 21
9.3364223817
  0
LINE
  5
279
100
AcDbEntity
  8
0
100
AcDbLine
 62
7
  6
CONTINUOUS
 10
-25.1781354018
 20
-4.1496630159
 11
-32.9973851379
 21
0.3665226532
  0
LINE
  5
27A
100
AcDbEntity
  8
0
100
AcDbLine
 62
7
  6
CONTINUOUS
 10
-43.3001164577
 20
6.3170996421
 11
-43.6259951964
 21
6.5053183258
  0
LINE
  5
27B
100
AcDbEntity
  8
0
100
AcDbLine
 62
7
  6
CONTINUOUS
 10
-9.1735293338
 20
-11.9499728052
 11
12.638390776
 21
-24.547943756
  0
LINE
  5
27C
100
AcDbEntity
  8
0
100
AcDbLine
 62
7
  6
CONTINUOUS
 10
-43.0932388857
 20
8.6477822553
 11
-42.1591152193
 21
8.1082578682
  0
LINE
  5
27D
100
AcDbEntity
  8
0
100
AcDbLine
 62
7
  6
CONTINUOUS
 10
-38.9610270104
 20
9.7550191213
 11
-38.026903344
 21
9.2154947343
  0
LINE
  5
27E
100
AcDbEntity
  8
0
100
AcDbLine
 62
7
  6
CONTINUOUS
 10
-10.5970859178
 20
-6.5085180899
 11
-5.9113090358
 21
-9.2148951892
  0
LINE
  5
27F
100
AcDbEntity
  8
0
100
AcDbLine
 62
7
  6
CONTINUOUS
 10
-56.248316957
 20
17.3846935978
 11
-56.253924068
 21
17.387938999
  0
LINE
  5
280
100
AcDbEntity
  8
0
100
AcDbLine
 62
7
  6
CONTINUOUS
 10
-60.852768952
 20
19.4196023347
 11
-60.8140948054
 21
19.3972056815
  0
LINE
  5
281
100
AcDbEntity
  8
0
100
AcDbLine
 62
7
  6
CONTINUOUS
 10
-56.2538944287
 20
17.3879272743
 11
-53.6790127662
 21
15.8349832072
  0
LINE
  5
282
100
AcDbEntity
  8
0
100
AcDbLine
 62
7
  6
CONTINUOUS
 10
-53.6788988675
 20
15.8349116656
 11
-53.6732912003
 21
15.8313818555
  0
LINE
  5
283
100
AcDbEntity
  8
0
100
AcDbLine
 62
7
  6
CONTINUOUS
 10
-75.1906262046
 20
-12.4811698327
 11
-75.246749844
 21
-12.4455651312
  0
LINE
  5
284
100
AcDbEntity
  8
0
100
AcDbLine
 62
7
  6
CONTINUOUS
 10
-60.852768952
 20
19.4196023347
 11
-60.8148526906
 21
19.3955465306
  0
LINE
  5
285
100
AcDbEntity
  8
0
100
AcDbLine
 62
7
  6
CONTINUOUS
 10
-61.8490387146
 20
20.9237266543
 11
-62.0571535029
 21
21.0559453459
  0
LINE
  5
286
100
AcDbEntity
  8
0
100
AcDbLine
 62
7
  6
CONTINUOUS
 10
-86.4574324238
 20
-18.9715626151
 11
-86.4758751403
 21
-18.9596048311
  0
LINE
  5
287
100
AcDbEntity
  8
0
100
AcDbLine
 62
7
  6
CONTINUOUS
 10
-53.4900805304
 20
15.7098280931
 11
-53.6734056501
 21
15.8314538214
  0
LINE
  5
288
100
AcDbEntity
  8
0
100
AcDbLine
 62
7
  6
CONTINUOUS
 10
-75.0120702498
 20
-12.5853410315
 11
-75.1819247971
 21
-12.4695762186
  0
LINE
  5
289
100
AcDbEntity
  8
0
100
AcDbLine
 62
7
  6
CONTINUOUS
 10
-66.451239335
 20
5.7623947291
 11
-66.3007240454
 21
5.6550536306
  0
LINE
  5
28A
100
AcDbEntity
  8
0
100
AcDbLine
 62
7
  6
CONTINUOUS
 10
-78.9062553799
 20
-23.7666775436
 11
-78.6917106172
 21
-23.9204347087
  0
LINE
  5
28B
100
AcDbEntity
  8
0
100
AcDbLine
 62
7
  6
CONTINUOUS
 10
-48.1973248396
 20
10.1970630963
 11
-48.1947987359
 21
10.1952516699
  0
LINE
  5
28C
100
AcDbEntity
  8
0
100
AcDbLine
 62
7
  6
CONTINUOUS
 10
-48.8249516717
 20
10.9095417704
 11
-48.8045130181
 21
10.8947225595
  0
LINE
  5
28D
100
AcDbEntity
  8
0
100
AcDbLine
 62
7
  6
CONTINUOUS
 10
-86.4758751403
 20
-18.9596048311
 11
-86.4762092824
 21
-18.9593619842
  0
LINE
  5
28E
100
AcDbEntity
  8
0
100
AcDbLine
 62
7
  6
CONTINUOUS
 10
-52.5267250885
 20
14.8922522504
 11
-52.4240635489
 21
14.8165251578
  0
LINE
  5
28F
100
AcDbEntity
  8
0
100
AcDbLine
 62
7
  6
CONTINUOUS
 10
-75.1906262148
 20
-12.4811699622
 11
-75.2092997233
 21
-12.4672612753
  0
LINE
  5
290
100
AcDbEntity
  8
0
100
AcDbLine
 62
7
  6
CONTINUOUS
 10
-75.2280911361
 20
-12.459474156
 11
-75.2467497906
 21
-12.4455649407
  0
LINE
  5
291
100
AcDbEntity
  8
0
100
AcDbLine
 62
7
  6
CONTINUOUS
 10
-52.944457865
 20
15.2857396956
 11
-53.4900805304
 21
15.7098280931
  0
LINE
  5
292
100
AcDbEntity
  8
0
100
AcDbLine
 62
7
  6
CONTINUOUS
 10
-86.57642578
 20
-18.874485931
 11
-86.4760509769
 21
-18.9595018442
  0
LINE
  5
293
100
AcDbEntity
  8
0
100
AcDbLine
 62
7
  6
CONTINUOUS
 10
-57.7021398837
 20
10.7154403958
 11
-57.566590866
 21
10.6004690052
  0
LINE
  5
294
100
AcDbEntity
  8
0
100
AcDbLine
 62
7
  6
CONTINUOUS
 10
-71.5766657338
 20
19.9917270019
 11
-71.7594927342
 21
20.1490335758
  0
LINE
  5
295
100
AcDbEntity
  8
0
100
AcDbLine
 62
7
  6
CONTINUOUS
 10
-52.4238199553
 20
14.8162943734
 11
-52.944457865
 21
15.2857396956
  0
LINE
  5
296
100
AcDbEntity
  8
0
100
AcDbLine
 62
7
  6
CONTINUOUS
 10
-52.4240635489
 20
14.8165251578
 11
-52.423815462
 21
14.8162900427
  0
LINE
  5
297
100
AcDbEntity
  8
0
100
AcDbLine
 62
7
  6
CONTINUOUS
 10
-48.8356176498
 20
10.3392740564
 11
-48.9531865613
 21
10.4529097956
  0
LINE
  5
298
100
AcDbEntity
  8
0
100
AcDbLine
 62
7
  6
CONTINUOUS
 10
-44.5141655892
 20
7.5804715502
 11
-44.5143112048
 21
7.5806146868
  0
LINE
  5
299
100
AcDbEntity
  8
0
100
AcDbLine
 62
7
  6
CONTINUOUS
 10
-51.3848464274
 20
13.7668081234
 11
-52.4240635489
 21
14.8165251578
  0
LINE
  5
29A
100
AcDbEntity
  8
0
100
AcDbLine
 62
7
  6
CONTINUOUS
 10
-65.7169087615
 20
6.4547830929
 11
-65.594055761
 21
6.3261365735
  0
LINE
  5
29B
100
AcDbEntity
  8
0
100
AcDbLine
 62
7
  6
CONTINUOUS
 10
-50.158936037
 20
12.4284729159
 11
-51.3848464274
 21
13.7668081234
  0
LINE
  5
29C
100
AcDbEntity
  8
0
100
AcDbLine
 62
7
  6
CONTINUOUS
 10
-66.5659156233
 20
7.3817306802
 11
-66.5278506245
 21
7.3391283575
  0
LINE
  5
29D
100
AcDbEntity
  8
0
100
AcDbLine
 62
7
  6
CONTINUOUS
 10
-49.1720233702
 20
11.3017684053
 11
-48.9417579329
 21
11.0417297661
  0
LINE
  5
29E
100
AcDbEntity
  8
0
100
AcDbLine
 62
7
  6
CONTINUOUS
 10
-66.5659520164
 20
7.3817055748
 11
-66.5282071846
 21
7.3390118756
  0
LINE
  5
29F
100
AcDbEntity
  8
0
100
AcDbLine
 62
7
  6
CONTINUOUS
 10
-48.9417579329
 20
11.0417297661
 11
-48.8249136504
 21
10.9095254026
  0
LINE
  5
2A0
100
AcDbEntity
  8
0
100
AcDbLine
 62
7
  6
CONTINUOUS
 10
-48.8087901317
 20
10.8912439406
 11
-50.158936037
 21
12.4284729159
  0
LINE
  5
2A1
100
AcDbEntity
  8
0
100
AcDbLine
 62
7
  6
CONTINUOUS
 10
-48.1947992718
 20
10.1952523861
 11
-48.804511075
 21
10.8947203395
  0
LINE
  5
2A2
100
AcDbEntity
  8
0
100
AcDbLine
 62
7
  6
CONTINUOUS
 10
-61.6910304023
 20
20.7399806693
 11
-61.8490387146
 21
20.9237266543
  0
LINE
  5
2A3
100
AcDbEntity
  8
0
100
AcDbLine
 62
7
  6
CONTINUOUS
 10
-65.7066158255
 20
6.4551545806
 11
-65.9557046821
 21
6.7457338699
  0
LINE
  5
2A4
100
AcDbEntity
  8
0
100
AcDbLine
 62
7
  6
CONTINUOUS
 10
-65.9557046821
 20
6.7457338699
 11
-66.2477847762
 21
7.0956655754
  0
LINE
  5
2A5
100
AcDbEntity
  8
0
100
AcDbLine
 62
7
  6
CONTINUOUS
 10
-66.2477847762
 20
7.0956655754
 11
-66.4802052765
 21
7.3816992756
  0
LINE
  5
2A6
100
AcDbEntity
  8
0
100
AcDbLine
 62
7
  6
CONTINUOUS
 10
-57.5479584598
 20
11.8298406638
 11
-57.5164756399
 21
11.7907434624
  0
LINE
  5
2A7
100
AcDbEntity
  8
0
100
AcDbLine
 62
7
  6
CONTINUOUS
 10
-66.4802059064
 20
7.3817000681
 11
-66.6614665599
 21
7.6097368358
  0
LINE
  5
2A8
100
AcDbEntity
  8
0
100
AcDbLine
 62
7
  6
CONTINUOUS
 10
-56.8354843349
 20
10.9655599387
 11
-57.0474525063
 21
11.233291796
  0
LINE
  5
2A9
100
AcDbEntity
  8
0
100
AcDbLine
 62
7
  6
CONTINUOUS
 10
-57.0474525063
 20
11.233291796
 11
-57.2954787768
 21
11.5521797967
  0
LINE
  5
2AA
100
AcDbEntity
  8
0
100
AcDbLine
 62
7
  6
CONTINUOUS
 10
-57.2954787768
 20
11.5521797967
 11
-57.4924785708
 21
11.8100669797
  0
LINE
  5
2AB
100
AcDbEntity
  8
0
100
AcDbLine
 62
7
  6
CONTINUOUS
 10
-86.7318022282
 20
-18.6702296085
 11
-86.57642578
 21
-18.874485931
  0
LINE
  5
2AC
100
AcDbEntity
  8
0
100
AcDbLine
 62
7
  6
CONTINUOUS
 10
-79.0599425884
 20
-23.5568882806
 11
-78.9062553799
 21
-23.7666775436
  0
LINE
  5
2AD
100
AcDbEntity
  8
0
100
AcDbLine
 62
7
  6
CONTINUOUS
 10
-71.5077064051
 20
19.895404017
 11
-71.5766657338
 21
19.9917270019
  0
LINE
  5
2AE
100
AcDbEntity
  8
0
100
AcDbLine
 62
7
  6
CONTINUOUS
 10
-57.492479823
 20
11.8100686434
 11
-58.9265358398
 21
13.8408620469
  0
LINE
  5
2AF
100
AcDbEntity
  8
0
100
AcDbLine
 62
7
  6
CONTINUOUS
 10
-86.496406763
 20
-17.1873081522
 11
-86.5095134881
 21
-17.1687307573
  0
LINE
  5
2B0
100
AcDbEntity
  8
0
100
AcDbLine
 62
7
  6
CONTINUOUS
 10
-86.487932815
 20
-17.1788067239
 11
-86.5002343702
 21
-17.1594401129
  0
LINE
  5
2B1
100
AcDbEntity
  8
0
100
AcDbLine
 62
7
  6
CONTINUOUS
 10
-65.5940559668
 20
6.3261367513
 11
-65.5734102448
 21
6.2918921792
  0
LINE
  5
2B2
100
AcDbEntity
  8
0
100
AcDbLine
 62
7
  6
CONTINUOUS
 10
-71.1837493035
 20
19.3194632284
 11
-71.4811723028
 21
19.8127910352
  0
LINE
  5
2B3
100
AcDbEntity
  8
0
100
AcDbLine
 62
7
  6
CONTINUOUS
 10
-71.5080248094
 20
19.8959265052
 11
-71.1967706033
 21
19.3796658131
  0
LINE
  5
2B4
100
AcDbEntity
  8
0
100
AcDbLine
 62
7
  6
CONTINUOUS
 10
-58.9265358398
 20
13.8408620469
 11
-60.0558952804
 21
15.7314573335
  0
LINE
  5
2B5
100
AcDbEntity
  8
0
100
AcDbLine
 62
7
  6
CONTINUOUS
 10
-60.0558952804
 20
15.7314573335
 11
-60.8356487424
 21
17.3523318159
  0
LINE
  5
2B6
100
AcDbEntity
  8
0
100
AcDbLine
 62
7
  6
CONTINUOUS
 10
-61.5926115922
 20
20.518304915
 11
-61.6910304023
 21
20.7399806693
  0
LINE
  5
2B7
100
AcDbEntity
  8
0
100
AcDbLine
 62
7
  6
CONTINUOUS
 10
-60.8356937411
 20
17.35243939
 11
-60.8356487424
 21
17.3523318159
  0
LINE
  5
2B8
100
AcDbEntity
  8
0
100
AcDbLine
 62
7
  6
CONTINUOUS
 10
-86.8258864012
 20
-18.428185203
 11
-86.7318022282
 21
-18.6702296085
  0
LINE
  5
2B9
100
AcDbEntity
  8
0
100
AcDbLine
 62
7
  6
CONTINUOUS
 10
-60.8356927175
 20
17.3524371142
 11
-61.2763123671
 21
18.5719056201
  0
LINE
  5
2BA
100
AcDbEntity
  8
0
100
AcDbLine
 62
7
  6
CONTINUOUS
 10
-79.142002625
 20
-23.3091506887
 11
-79.0599425884
 21
-23.5568882806
  0
LINE
  5
2BB
100
AcDbEntity
  8
0
100
AcDbLine
 62
7
  6
CONTINUOUS
 10
-90.3239492145
 20
-9.1643171471
 11
-90.3240042005
 21
-9.1641466039
  0
LINE
  5
2BC
100
AcDbEntity
  8
0
100
AcDbLine
 62
7
  6
CONTINUOUS
 10
-71.5073692506
 20
19.8948477316
 11
-71.4811723028
 21
19.8127910352
  0
LINE
  5
2BD
100
AcDbEntity
  8
0
100
AcDbLine
 62
7
  6
CONTINUOUS
 10
-67.2023414396
 20
-27.6989734712
 11
-67.2050259275
 21
-27.688026983
  0
LINE
  5
2BE
100
AcDbEntity
  8
0
100
AcDbLine
 62
7
  6
CONTINUOUS
 10
-61.2763123671
 20
18.5719056201
 11
-61.5088479091
 21
19.5797640692
  0
LINE
  5
2BF
100
AcDbEntity
  8
0
100
AcDbLine
 62
7
  6
CONTINUOUS
 10
-90.3652039555
 20
-8.9800589203
 11
-90.3239725089
 21
-9.164303233
  0
LINE
  5
2C0
100
AcDbEntity
  8
0
100
AcDbLine
 62
7
  6
CONTINUOUS
 10
-71.1837493035
 20
19.3194632284
 11
-71.196770771
 21
19.3796660925
  0
LINE
  5
2C1
100
AcDbEntity
  8
0
100
AcDbLine
 62
7
  6
CONTINUOUS
 10
-61.5602549844
 20
20.28128132
 11
-61.5926115922
 21
20.518304915
  0
LINE
  5
2C2
100
AcDbEntity
  8
0
100
AcDbLine
 62
7
  6
CONTINUOUS
 10
-60.8059279434
 20
19.4096136119
 11
-60.8569103179
 21
19.4229898793
  0
LINE
  5
2C3
100
AcDbEntity
  8
0
100
AcDbLine
 62
7
  6
CONTINUOUS
 10
-62.0571535029
 20
21.0559453459
 11
-62.303063514
 21
21.1247976441
  0
LINE
  5
2C4
100
AcDbEntity
  8
0
100
AcDbLine
 62
7
  6
CONTINUOUS
 10
4.3646113191
 20
-63.094184136
 11
4.3646113191
 21
-62.0734182832
  0
LINE
  5
2C5
100
AcDbEntity
  8
0
100
AcDbLine
 62
7
  6
CONTINUOUS
 10
-81.2873743845
 20
13.8363145579
 11
-81.5197734117
 21
13.8591750354
  0
LINE
  5
2C6
100
AcDbEntity
  8
0
100
AcDbLine
 62
7
  6
CONTINUOUS
 10
-65.7169086954
 20
6.4547831793
 11
-65.7066166256
 21
6.4551513497
  0
LINE
  5
2C7
100
AcDbEntity
  8
0
100
AcDbLine
 62
7
  6
CONTINUOUS
 10
-75.0213438889
 20
-12.5878278795
 11
-75.0120692084
 21
-12.5853416868
  0
LINE
  5
2C8
100
AcDbEntity
  8
0
100
AcDbLine
 62
7
  6
CONTINUOUS
 10
-71.9920556295
 20
20.2440509144
 11
-72.2627440111
 21
20.262516849
  0
LINE
  5
2C9
100
AcDbEntity
  8
0
100
AcDbLine
 62
7
  6
CONTINUOUS
 10
-62.303063514
 20
21.1247976441
 11
-62.4562260829
 21
21.1318335762
  0
LINE
  5
2CA
100
AcDbEntity
  8
0
100
AcDbLine
 62
7
  6
CONTINUOUS
 10
-41.3242940314
 20
4.5975007623
 11
-41.8332295718
 21
4.4611301663
  0
LINE
  5
2CB
100
AcDbEntity
  8
0
100
AcDbLine
 62
7
  6
CONTINUOUS
 10
-37.2126111448
 20
8.4159578675
 11
-41.3448230201
 21
7.3087209989
  0
LINE
  5
2CC
100
AcDbEntity
  8
0
100
AcDbLine
 62
7
  6
CONTINUOUS
 10
-42.1591152193
 20
8.1082578682
 11
-38.026903344
 21
9.2154947343
  0
LINE
  5
2CD
100
AcDbEntity
  8
0
100
AcDbLine
 62
7
  6
CONTINUOUS
 10
-38.9610270104
 20
9.7550191213
 11
-43.0932388857
 21
8.6477822553
  0
LINE
  5
2CE
100
AcDbEntity
  8
0
100
AcDbLine
 62
7
  6
CONTINUOUS
 10
-39.1034228572
 20
9.7806321283
 11
-43.2356347325
 21
8.6733952622
  0
LINE
  5
2CF
100
AcDbEntity
  8
0
100
AcDbLine
 62
7
  6
CONTINUOUS
 10
-87.1301776189
 20
3.5366767523
 11
-87.4049279634
 21
3.4630273111
  0
LINE
  5
2D0
100
AcDbEntity
  8
0
100
AcDbLine
 62
7
  6
CONTINUOUS
 10
-87.694241238
 20
3.6595040988
 11
-87.4060554491
 21
3.7367552371
  0
LINE
  5
2D1
100
AcDbEntity
  8
0
100
AcDbLine
 62
7
  6
CONTINUOUS
 10
-72.2627440111
 20
20.262516849
 11
-72.5478566794
 21
20.1936228085
  0
LINE
  5
2D2
100
AcDbEntity
  8
0
100
AcDbLine
 62
7
  6
CONTINUOUS
 10
-81.5197734117
 20
13.8591750354
 11
-81.7645250914
 21
13.8100401273
  0
LINE
  5
2D3
100
AcDbEntity
  8
0
100
AcDbLine
 62
7
  6
CONTINUOUS
 10
-62.4561653007
 20
21.1318169341
 11
-62.4564105276
 21
21.1318081813
  0
ARC
  5
2D4
100
AcDbEntity
  8
0
100
AcDbCircle
 62
7
  6
CONTINUOUS
 10
-320.8207527666
 20
-229.3241450105
 40
362.896598089
100
AcDbArc
 50
41.3018599487
 51
41.4479154434
  0
ARC
  5
2D5
100
AcDbEntity
  8
0
100
AcDbCircle
 62
7
  6
CONTINUOUS
 10
-94.2242761764
 20
-43.0309491724
 40
70.9408979554
100
AcDbArc
 50
45.5147507109
 51
51.9434696986
  0
ARC
  5
2D6
100
AcDbEntity
  8
0
100
AcDbCircle
 62
7
  6
CONTINUOUS
 10
-84.215149324
 20
-25.4147369525
 40
15.7858242449
100
AcDbArc
 50
55.0906607717
 51
55.3319429554
  0
ARC
  5
2D7
100
AcDbEntity
  8
0
100
AcDbCircle
 62
7
  6
CONTINUOUS
 10
-86.2592622639
 20
-18.7165403159
 40
0.3229973753
100
AcDbArc
 50
228.6249837147
 51
232.1372651211
  0
ARC
  5
2D8
100
AcDbEntity
  8
0
100
AcDbCircle
 62
7
  6
CONTINUOUS
 10
-73.8757459896
 20
-7.4655946289
 40
16.0649189902
100
AcDbArc
 50
217.5365451644
 51
217.801637931
  0
ARC
  5
2D9
100
AcDbEntity
  8
0
100
AcDbCircle
 62
7
  6
CONTINUOUS
 10
-74.0687971402
 20
-8.4090756172
 40
15.2152220308
100
AcDbArc
 50
210.2679922235
 51
215.1498281129
  0
ARC
  5
2DA
100
AcDbEntity
  8
0
100
AcDbCircle
 62
7
  6
CONTINUOUS
 10
-60.3627318397
 20
-12.4664067888
 40
33.6878511256
100
AcDbArc
 50
105.7558162016
 51
107.2578585611
  0
ARC
  5
2DB
100
AcDbEntity
  8
0
100
AcDbCircle
 62
7
  6
CONTINUOUS
 10
-60.5476746651
 20
-11.8032542416
 40
32.9993957943
100
AcDbArc
 50
105.0088714218
 51
105.759422642
  0
ARC
  5
2DC
100
AcDbEntity
  8
0
100
AcDbCircle
 62
7
  6
CONTINUOUS
 10
-56.4686544919
 20
-12.9949084344
 40
24.622803213
100
AcDbArc
 50
70.3714154681
 51
72.228365465
  0
ARC
  5
2DD
100
AcDbEntity
  8
0
100
AcDbCircle
 62
7
  6
CONTINUOUS
 10
-55.917419788
 20
-11.9489392334
 40
23.3861799789
100
AcDbArc
 50
70.4894324505
 51
72.3741209612
  0
ARC
  5
2DE
100
AcDbEntity
  8
0
100
AcDbCircle
 62
7
  6
CONTINUOUS
 10
-52.9639555704
 20
-13.5148509784
 40
22.0676981683
100
AcDbArc
 50
177.5859412537
 51
179.9871347225
  0
ARC
  5
2DF
100
AcDbEntity
  8
0
100
AcDbCircle
 62
7
  6
CONTINUOUS
 10
-60.2235289024
 20
-15.0846992129
 40
14.5564406305
100
AcDbArc
 50
207.9002093254
 51
211.0787431796
  0
ARC
  5
2E0
100
AcDbEntity
  8
0
100
AcDbCircle
 62
7
  6
CONTINUOUS
 10
-61.6494252734
 20
-15.2233632104
 40
13.5982597808
100
AcDbArc
 50
260.4754044295
 51
260.6837939735
  0
ARC
  5
2E1
100
AcDbEntity
  8
0
100
AcDbCircle
 62
7
  6
CONTINUOUS
 10
-61.6926232464
 20
-15.4662026536
 40
13.35162017
100
AcDbArc
 50
254.5109936978
 51
260.485787639
  0
ARC
  5
2E2
100
AcDbEntity
  8
0
100
AcDbCircle
 62
7
  6
CONTINUOUS
 10
-61.968912196
 20
-16.4223534413
 40
12.3558606451
100
AcDbArc
 50
245.9474178065
 51
249.4986678641
  0
ARC
  5
2E3
100
AcDbEntity
  8
0
100
AcDbCircle
 62
7
  6
CONTINUOUS
 10
-63.400905588
 20
-14.7474696613
 40
11.2063218342
100
AcDbArc
 50
245.9522798967
 51
247.8297438646
  0
ARC
  5
2E4
100
AcDbEntity
  8
0
100
AcDbCircle
 62
7
  6
CONTINUOUS
 10
-64.5243180301
 20
-1.5620397914
 40
26.7954023502
100
AcDbArc
 50
211.0856714952
 51
212.6091647078
  0
ARC
  5
2E5
100
AcDbEntity
  8
0
100
AcDbCircle
 62
7
  6
CONTINUOUS
 10
-64.758597719
 20
-1.7120667202
 40
26.5172027161
100
AcDbArc
 50
212.6088989539
 51
212.82732389
  0
ARC
  5
2E6
100
AcDbEntity
  8
0
100
AcDbCircle
 62
7
  6
CONTINUOUS
 10
-64.8740607164
 20
-1.7867262991
 40
26.3797045836
100
AcDbArc
 50
212.8270121621
 51
213.706672133
  0
ARC
  5
2E7
100
AcDbEntity
  8
0
100
AcDbCircle
 62
7
  6
CONTINUOUS
 10
-63.3087613603
 20
-6.579788623
 40
26.3480922288
100
AcDbArc
 50
168.6383333049
 51
173.1865663874
  0
ARC
  5
2E8
100
AcDbEntity
  8
0
100
AcDbCircle
 62
7
  6
CONTINUOUS
 10
-65.170349344
 20
-6.3851214228
 40
24.4765721288
100
AcDbArc
 50
173.1220518626
 51
179.9718634683
  0
ARC
  5
2E9
100
AcDbEntity
  8
0
100
AcDbCircle
 62
7
  6
CONTINUOUS
 10
-65.4314559897
 20
-5.1429360484
 40
23.9747605772
100
AcDbArc
 50
175.9882432898
 51
183.3271566998
  0
ARC
  5
2EA
100
AcDbEntity
  8
0
100
AcDbCircle
 62
7
  6
CONTINUOUS
 10
-68.0589226017
 20
-3.1938786918
 40
23.7338937843
100
AcDbArc
 50
71.7905748252
 51
72.209638252
  0
ARC
  5
2EB
100
AcDbEntity
  8
0
100
AcDbCircle
 62
7
  6
CONTINUOUS
 10
-68.0907022943
 20
-3.1606488243
 40
23.71675946
100
AcDbArc
 50
67.807574113
 51
72.1120043178
  0
ARC
  5
2EC
100
AcDbEntity
  8
0
100
AcDbCircle
 62
7
  6
CONTINUOUS
 10
-68.0169534629
 20
-3.0690269552
 40
23.6021795697
100
AcDbArc
 50
69.4873138865
 51
71.7926438043
  0
ARC
  5
2ED
100
AcDbEntity
  8
0
100
AcDbCircle
 62
7
  6
CONTINUOUS
 10
-67.9702232363
 20
-2.9413716581
 40
23.4662433621
100
AcDbArc
 50
69.1114756466
 51
69.4849576598
  0
ARC
  5
2EE
100
AcDbEntity
  8
0
100
AcDbCircle
 62
7
  6
CONTINUOUS
 10
-67.9516168066
 20
-2.8929594968
 40
23.414378909
100
AcDbArc
 50
67.8783158434
 51
69.11177453
  0
ARC
  5
2EF
100
AcDbEntity
  8
0
100
AcDbCircle
 62
7
  6
CONTINUOUS
 10
-67.9339869638
 20
-2.849202579
 40
23.3672041494
100
AcDbArc
 50
67.6594529768
 51
67.8779585585
  0
ARC
  5
2F0
100
AcDbEntity
  8
0
100
AcDbCircle
 62
7
  6
CONTINUOUS
 10
-67.9528988234
 20
-2.8331956768
 40
23.3615132947
100
AcDbArc
 50
59.9546203494
 51
67.8171636394
  0
ARC
  5
2F1
100
AcDbEntity
  8
0
100
AcDbCircle
 62
7
  6
CONTINUOUS
 10
-72.7593896117
 20
-0.0492205234
 40
23.3611774101
100
AcDbArc
 50
234.0450669367
 51
240.03696848
  0
ARC
  5
2F2
100
AcDbEntity
  8
0
100
AcDbCircle
 62
7
  6
CONTINUOUS
 10
-67.8994808378
 20
-2.7668216135
 40
23.2778904749
100
AcDbArc
 50
64.841297567
 51
67.6609353006
  0
ARC
  5
2F3
100
AcDbEntity
  8
0
100
AcDbCircle
 62
7
  6
CONTINUOUS
 10
-67.8565922469
 20
-2.6737409894
 40
23.1754069816
100
AcDbArc
 50
64.2643413522
 51
64.8394404546
  0
ARC
  5
2F4
100
AcDbEntity
  8
0
100
AcDbCircle
 62
7
  6
CONTINUOUS
 10
-72.856214714
 20
-0.2194800889
 40
23.1653560797
100
AcDbArc
 50
234.0459578308
 51
238.9954666383
  0
ARC
  5
2F5
100
AcDbEntity
  8
0
100
AcDbCircle
 62
7
  6
CONTINUOUS
 10
-67.8333379982
 20
-2.6258160865
 40
23.1221384394
100
AcDbArc
 50
59.9538096561
 51
64.2646824368
  0
ARC
  5
2F6
100
AcDbEntity
  8
0
100
AcDbCircle
 62
7
  6
CONTINUOUS
 10
-72.898591853
 20
-0.2871694277
 40
23.0855090816
100
AcDbArc
 50
238.9990787687
 51
240.0348915293
  0
ARC
  5
2F7
100
AcDbEntity
  8
0
100
AcDbCircle
 62
7
  6
CONTINUOUS
 10
-66.7260538933
 20
-6.380100521
 40
22.9208656974
100
AcDbArc
 50
179.9825046189
 51
183.1366347522
  0
ARC
  5
2F8
100
AcDbEntity
  8
0
100
AcDbCircle
 62
7
  6
CONTINUOUS
 10
-67.8907177006
 20
-5.5136249159
 40
22.4435593825
100
AcDbArc
 50
179.9421069927
 51
186.4197186918
  0
ARC
  5
2F9
100
AcDbEntity
  8
0
100
AcDbCircle
 62
7
  6
CONTINUOUS
 10
-68.6790153899
 20
-5.5942991691
 40
21.6511859203
100
AcDbArc
 50
186.4408148721
 51
186.8644465864
  0
ARC
  5
2FA
100
AcDbEntity
  8
0
100
AcDbCircle
 62
7
  6
CONTINUOUS
 10
-66.5928616933
 20
1.1178415849
 40
19.5996961066
100
AcDbArc
 50
104.6293408546
 51
104.9370982571
  0
ARC
  5
2FB
100
AcDbEntity
  8
0
100
AcDbCircle
 62
7
  6
CONTINUOUS
 10
-65.7419020211
 20
1.5735670438
 40
18.937297373
100
AcDbArc
 50
101.5716866467
 51
107.2320011826
  0
ARC
  5
2FC
100
AcDbEntity
  8
0
100
AcDbCircle
 62
7
  6
CONTINUOUS
 10
-65.1248537505
 20
1.5831143653
 40
18.3261015215
100
AcDbArc
 50
46.2156042012
 51
46.5720530912
  0
ARC
  5
2FD
100
AcDbEntity
  8
0
100
AcDbCircle
 62
7
  6
CONTINUOUS
 10
-66.0142134526
 20
2.8284595886
 40
17.6532935783
100
AcDbArc
 50
97.3064600754
 51
101.5228308486
  0
ARC
  5
2FE
100
AcDbEntity
  8
0
100
AcDbCircle
 62
7
  6
CONTINUOUS
 10
-73.3403295065
 20
-7.9791268403
 40
16.0610971259
100
AcDbArc
 50
204.552151484
 51
210.2828194624
  0
ARC
  5
2FF
100
AcDbEntity
  8
0
100
AcDbCircle
 62
7
  6
CONTINUOUS
 10
-66.6751331798
 20
5.5421750908
 40
15.1125922157
100
AcDbArc
 50
67.0554201965
 51
70.0540844054
  0
ARC
  5
300
100
AcDbEntity
  8
0
100
AcDbCircle
 62
7
  6
CONTINUOUS
 10
-66.6602657165
 20
5.5781679424
 40
15.0736510972
100
AcDbArc
 50
66.5105780596
 51
67.0541267319
  0
ARC
  5
301
100
AcDbEntity
  8
0
100
AcDbCircle
 62
7
  6
CONTINUOUS
 10
-65.8753274159
 20
6.9128621513
 40
13.5267445568
100
AcDbArc
 50
67.9230007371
 51
71.1514833238
  0
ARC
  5
302
100
AcDbEntity
  8
0
100
AcDbCircle
 62
7
  6
CONTINUOUS
 10
-65.8258365903
 20
7.0366651753
 40
13.3934175972
100
AcDbArc
 50
65.8598184079
 51
67.9201366266
  0
ARC
  5
303
100
AcDbEntity
  8
0
100
AcDbCircle
 62
7
  6
CONTINUOUS
 10
-72.0578524702
 20
19.4833918642
 40
0.664339982
100
AcDbArc
 50
36.7934520598
 51
48.2846112465
  0
ARC
  5
304
100
AcDbEntity
  8
0
100
AcDbCircle
 62
7
  6
CONTINUOUS
 10
-72.04245339
 20
19.495508764
 40
0.6447513826
100
AcDbArc
 50
29.4787292633
 51
36.7507784186
  0
ARC
  5
305
100
AcDbEntity
  8
0
100
AcDbCircle
 62
7
  6
CONTINUOUS
 10
-59.5678593984
 20
-7.6723519548
 40
30.2598245298
100
AcDbArc
 50
148.5723306656
 51
151.5768753501
  0
ARC
  5
306
100
AcDbEntity
  8
0
100
AcDbCircle
 62
7
  6
CONTINUOUS
 10
-59.8022884495
 20
-7.5525644854
 40
29.9966386731
100
AcDbArc
 50
151.5649651272
 51
157.7520063305
  0
ARC
  5
307
100
AcDbEntity
  8
0
100
AcDbCircle
 62
7
  6
CONTINUOUS
 10
-60.1280303939
 20
-7.415903758
 40
29.6434051911
100
AcDbArc
 50
157.7581057215
 51
158.002307231
  0
ARC
  5
308
100
AcDbEntity
  8
0
100
AcDbCircle
 62
7
  6
CONTINUOUS
 10
-61.3373160094
 20
-6.8238349294
 40
27.9469969177
100
AcDbArc
 50
92.084537538
 51
92.2876673136
  0
ARC
  5
309
100
AcDbEntity
  8
0
100
AcDbCircle
 62
7
  6
CONTINUOUS
 10
-61.7350526231
 20
-5.7482636795
 40
27.3547321535
100
AcDbArc
 50
128.3399101688
 51
134.6155246339
  0
ARC
  5
30A
100
AcDbEntity
  8
0
100
AcDbCircle
 62
7
  6
CONTINUOUS
 10
-62.717614026
 20
-4.542744183
 40
25.7996918092
100
AcDbArc
 50
125.0862235628
 51
128.2891604229
  0
ARC
  5
30B
100
AcDbEntity
  8
0
100
AcDbCircle
 62
7
  6
CONTINUOUS
 10
-59.2149643333
 20
-5.7074215489
 40
23.3861090519
100
AcDbArc
 50
250.4893740876
 51
252.3741015242
  0
ARC
  5
30C
100
AcDbEntity
  8
0
100
AcDbCircle
 62
7
  6
CONTINUOUS
 10
-59.3776566368
 20
-5.7193011085
 40
23.3309170287
100
AcDbArc
 50
250.4044529571
 51
252.3510761266
  0
ARC
  5
30D
100
AcDbEntity
  8
0
100
AcDbCircle
 62
7
  6
CONTINUOUS
 10
-54.0668681932
 20
-2.0956783558
 40
13.5981539797
100
AcDbArc
 50
39.2946684153
 51
39.5095348144
  0
ARC
  5
30E
100
AcDbEntity
  8
0
100
AcDbCircle
 62
7
  6
CONTINUOUS
 10
-53.8195505928
 20
-1.8827650707
 40
13.2718887826
100
AcDbArc
 50
39.479654193
 51
45.4828133276
  0
ARC
  5
30F
100
AcDbEntity
  8
0
100
AcDbCircle
 62
7
  6
CONTINUOUS
 10
-53.1673805154
 20
-1.2439404174
 40
12.3666039434
100
AcDbArc
 50
66.5192264122
 51
69.4978769961
  0
ARC
  5
310
100
AcDbEntity
  8
0
100
AcDbCircle
 62
7
  6
CONTINUOUS
 10
-53.138303111
 20
-1.1752180072
 40
12.2919865539
100
AcDbArc
 50
65.9429979035
 51
66.5159065407
  0
ARC
  5
311
100
AcDbEntity
  8
0
100
AcDbCircle
 62
7
  6
CONTINUOUS
 10
-55.3480708301
 20
-0.8071336863
 40
11.195146045
100
AcDbArc
 50
52.6236935011
 51
54.6486816868
  0
ARC
  5
312
100
AcDbEntity
  8
0
100
AcDbCircle
 62
7
  6
CONTINUOUS
 10
-53.9680028842
 20
21.9070748629
 40
47.8234219882
100
AcDbArc
 50
220.6705581015
 51
231.4507215723
  0
ARC
  5
313
100
AcDbEntity
  8
0
100
AcDbCircle
 62
7
  6
CONTINUOUS
 10
-55.0590159269
 20
19.6758553502
 40
45.3574945147
100
AcDbArc
 50
243.5053578104
 51
244.5263645528
  0
ARC
  5
314
100
AcDbEntity
  8
0
100
AcDbCircle
 62
7
  6
CONTINUOUS
 10
-55.3995483904
 20
18.9620456577
 40
44.5666386339
100
AcDbArc
 50
244.52693751
 51
246.3167986248
  0
ARC
  5
315
100
AcDbEntity
  8
0
100
AcDbCircle
 62
7
  6
CONTINUOUS
 10
-55.1524684731
 20
15.9107338177
 40
41.8454581377
100
AcDbArc
 50
242.3985817759
 51
244.6204153485
  0
ARC
  5
316
100
AcDbEntity
  8
0
100
AcDbCircle
 62
7
  6
CONTINUOUS
 10
-57.2831110444
 20
16.6359656439
 40
34.0857977465
100
AcDbArc
 50
204.1937649214
 51
210.0281711636
  0
ARC
  5
317
100
AcDbEntity
  8
0
100
AcDbCircle
 62
7
  6
CONTINUOUS
 10
-55.8054574973
 20
15.4264447939
 40
33.7883143079
100
AcDbArc
 50
200.7364397579
 51
206.9394417926
  0
ARC
  5
318
100
AcDbEntity
  8
0
100
AcDbCircle
 62
7
  6
CONTINUOUS
 10
-27.5125871184
 20
-34.7994069919
 40
56.2270254909
100
AcDbArc
 50
132.8018864885
 51
133.8303626894
  0
ARC
  5
319
100
AcDbEntity
  8
0
100
AcDbCircle
 62
7
  6
CONTINUOUS
 10
-38.3572481062
 20
-15.6998153385
 40
52.5885975988
100
AcDbArc
 50
146.5679770371
 51
154.88104148
  0
ARC
  5
31A
100
AcDbEntity
  8
0
100
AcDbCircle
 62
7
  6
CONTINUOUS
 10
-38.5928901597
 20
-15.5638855773
 40
52.4368036885
100
AcDbArc
 50
146.5534682546
 51
154.9032506688
  0
ARC
  5
31B
100
AcDbEntity
  8
0
100
AcDbCircle
 62
7
  6
CONTINUOUS
 10
-38.6980457762
 20
-15.5329918012
 40
52.2092136713
100
AcDbArc
 50
154.8880413949
 51
155.5047511572
  0
ARC
  5
31C
100
AcDbEntity
  8
0
100
AcDbCircle
 62
7
  6
CONTINUOUS
 10
-38.9370617421
 20
-15.4232492673
 40
51.9462089801
100
AcDbArc
 50
155.505594894
 51
157.1843335535
  0
ARC
  5
31D
100
AcDbEntity
  8
0
100
AcDbCircle
 62
7
  6
CONTINUOUS
 10
-25.4575865548
 20
-23.0149717191
 40
51.2343443434
100
AcDbArc
 50
156.0958677955
 51
157.2123565615
  0
ARC
  5
31E
100
AcDbEntity
  8
0
100
AcDbCircle
 62
7
  6
CONTINUOUS
 10
-46.251532978
 20
-20.3836553967
 40
48.3141041666
100
AcDbArc
 50
132.3187821907
 51
134.0792178735
  0
ARC
  5
31F
100
AcDbEntity
  8
0
100
AcDbCircle
 62
7
  6
CONTINUOUS
 10
-33.0856972346
 20
-28.6098872831
 40
47.7212653091
100
AcDbArc
 50
132.9385243924
 51
134.1094225421
  0
ARC
  5
320
100
AcDbEntity
  8
0
100
AcDbCircle
 62
7
  6
CONTINUOUS
 10
-46.690193518
 20
-19.9104705519
 40
47.6688963308
100
AcDbArc
 50
131.9665853294
 51
132.3118395322
  0
ARC
  5
321
100
AcDbEntity
  8
0
100
AcDbCircle
 62
7
  6
CONTINUOUS
 10
-47.2738792087
 20
25.7126982956
 40
47.2953706618
100
AcDbArc
 50
233.8354110842
 51
234.0779116036
  0
ARC
  5
322
100
AcDbEntity
  8
0
100
AcDbCircle
 62
7
  6
CONTINUOUS
 10
-27.947694808
 20
-13.442854559
 40
47.2527184941
100
AcDbArc
 50
178.8338391927
 51
179.9966902946
  0
ARC
  5
323
100
AcDbEntity
  8
0
100
AcDbCircle
 62
7
  6
CONTINUOUS
 10
-51.7845300223
 20
19.5677681775
 40
46.6615630902
100
AcDbArc
 50
240.8150915669
 51
242.5451327806
  0
ARC
  5
324
100
AcDbEntity
  8
0
100
AcDbCircle
 62
7
  6
CONTINUOUS
 10
-50.5008985814
 20
26.5176593806
 40
46.1572459937
100
AcDbArc
 50
237.6625516139
 51
237.9109163374
  0
ARC
  5
325
100
AcDbEntity
  8
0
100
AcDbCircle
 62
7
  6
CONTINUOUS
 10
-47.035603353
 20
-6.5582413941
 40
42.3300834093
100
AcDbArc
 50
175.8576404955
 51
179.9705093153
  0
ARC
  5
326
100
AcDbEntity
  8
0
100
AcDbCircle
 62
7
  6
CONTINUOUS
 10
-35.3538734399
 20
-13.4924265046
 40
39.6777835881
100
AcDbArc
 50
178.6936222294
 51
180.0252262233
  0
ARC
  5
327
100
AcDbEntity
  8
0
100
AcDbCircle
 62
7
  6
CONTINUOUS
 10
-46.7402637075
 20
-25.0571499512
 40
37.4144484069
100
AcDbArc
 50
105.6642588064
 51
107.0367548319
  0
ARC
  5
328
100
AcDbEntity
  8
0
100
AcDbCircle
 62
7
  6
CONTINUOUS
 10
-48.5251489896
 20
26.3909127786
 40
37.2245943111
100
AcDbArc
 50
230.0185547649
 51
230.3114626097
  0
ARC
  5
329
100
AcDbEntity
  8
0
100
AcDbCircle
 62
7
  6
CONTINUOUS
 10
-47.3245859145
 20
24.3112557568
 40
36.4605496873
100
AcDbArc
 50
226.4778509353
 51
226.7703707371
  0
ARC
  5
32A
100
AcDbEntity
  8
0
100
AcDbCircle
 62
7
  6
CONTINUOUS
 10
-51.1077458107
 20
23.3190115615
 40
33.2113259318
100
AcDbArc
 50
227.69168513
 51
230.0273604514
  0
ARC
  5
32B
100
AcDbEntity
  8
0
100
AcDbCircle
 62
7
  6
CONTINUOUS
 10
-51.4616790068
 20
22.9285100362
 40
32.6842678394
100
AcDbArc
 50
226.3300695372
 51
227.6897322392
  0
ARC
  5
32C
100
AcDbEntity
  8
0
100
AcDbCircle
 62
7
  6
CONTINUOUS
 10
-50.1930350366
 20
21.7340192908
 40
32.6053169
100
AcDbArc
 50
224.6884383521
 51
227.4029793797
  0
ARC
  5
32D
100
AcDbEntity
  8
0
100
AcDbCircle
 62
7
  6
CONTINUOUS
 10
-50.3923115418
 20
21.0722692579
 40
31.999348912
100
AcDbArc
 50
224.0991427901
 51
226.4671854345
  0
ARC
  5
32E
100
AcDbEntity
  8
0
100
AcDbCircle
 62
7
  6
CONTINUOUS
 10
-42.7498612616
 20
26.3917775927
 40
30.4053806268
100
AcDbArc
 50
220.9742113574
 51
221.2950839978
  0
ARC
  5
32F
100
AcDbEntity
  8
0
100
AcDbCircle
 62
7
  6
CONTINUOUS
 10
-49.3313674178
 20
-6.9510815939
 40
28.2233799133
100
AcDbArc
 50
211.8660685106
 51
213.5383169457
  0
ARC
  5
330
100
AcDbEntity
  8
0
100
AcDbCircle
 62
7
  6
CONTINUOUS
 10
-47.5253552005
 20
-14.6361160638
 40
27.6559957547
100
AcDbArc
 50
153.4345493867
 51
155.5084000508
  0
ARC
  5
331
100
AcDbEntity
  8
0
100
AcDbCircle
 62
7
  6
CONTINUOUS
 10
-51.2323388127
 20
-8.2543916924
 40
25.8112408006
100
AcDbArc
 50
211.990644118
 51
213.7623148498
  0
ARC
  5
332
100
AcDbEntity
  8
0
100
AcDbCircle
 62
7
  6
CONTINUOUS
 10
-49.5461110015
 20
-12.7432610535
 40
24.8839582787
100
AcDbArc
 50
130.0968506092
 51
132.3244283123
  0
ARC
  5
333
100
AcDbEntity
  8
0
100
AcDbCircle
 62
7
  6
CONTINUOUS
 10
-27.0762695024
 20
-26.3682328383
 40
24.5939302101
100
AcDbArc
 50
333.1082060208
 51
342.9566667073
  0
ARC
  5
334
100
AcDbEntity
  8
0
100
AcDbCircle
 62
7
  6
CONTINUOUS
 10
-25.3162857325
 20
-39.8024881897
 40
14.8077165085
100
AcDbArc
 50
232.2116667151
 51
237.2105533522
  0
ARC
  5
335
100
AcDbEntity
  8
0
100
AcDbCircle
 62
7
  6
CONTINUOUS
 10
-25.3516151259
 20
-39.8554258943
 40
14.744080842
100
AcDbArc
 50
237.214562322
 51
239.5415724546
  0
ARC
  5
336
100
AcDbEntity
  8
0
100
AcDbCircle
 62
7
  6
CONTINUOUS
 10
-30.3810015111
 20
-16.4889593609
 40
12.9514422073
100
AcDbArc
 50
95.4541818315
 51
104.9825843007
  0
ARC
  5
337
100
AcDbEntity
  8
0
100
AcDbCircle
 62
7
  6
CONTINUOUS
 10
-30.3979756174
 20
-16.3893865832
 40
12.8508590963
100
AcDbArc
 50
105.0242023806
 51
114.5837388309
  0
ARC
  5
338
100
AcDbEntity
  8
0
100
AcDbCircle
 62
7
  6
CONTINUOUS
 10
-24.613922329
 20
-38.3408653141
 40
12.5246408892
100
AcDbArc
 50
243.3246674956
 51
246.7068409056
  0
ARC
  5
339
100
AcDbEntity
  8
0
100
AcDbCircle
 62
7
  6
CONTINUOUS
 10
-38.9510208328
 20
106.1282376089
 40
135.477521493
100
AcDbArc
 50
252.8787378798
 51
253.2744514351
  0
ARC
  5
33A
100
AcDbEntity
  8
0
100
AcDbCircle
 62
7
  6
CONTINUOUS
 10
-34.8767488417
 20
52.3698712448
 40
83.5649992883
100
AcDbArc
 50
242.6272695758
 51
242.7617504175
  0
ARC
  5
33B
100
AcDbEntity
  8
0
100
AcDbCircle
 62
7
  6
CONTINUOUS
 10
-43.5179009828
 20
50.636305832
 40
81.8768826747
100
AcDbArc
 50
240.0219762386
 51
250.2974670401
  0
ARC
  5
33C
100
AcDbEntity
  8
0
100
AcDbCircle
 62
7
  6
CONTINUOUS
 10
-43.5991235559
 20
50.4435571015
 40
81.6680359778
100
AcDbArc
 50
250.3055243834
 51
252.3520168739
  0
ARC
  5
33D
100
AcDbEntity
  8
0
100
AcDbCircle
 62
7
  6
CONTINUOUS
 10
-45.0269429914
 20
46.9797443314
 40
77.908476992
100
AcDbArc
 50
244.5789606102
 51
250.4497628576
  0
ARC
  5
33E
100
AcDbEntity
  8
0
100
AcDbCircle
 62
7
  6
CONTINUOUS
 10
-41.5254783484
 20
45.4569649792
 40
77.5214851675
100
AcDbArc
 50
249.6411240586
 51
250.6549839819
  0
ARC
  5
33F
100
AcDbEntity
  8
0
100
AcDbCircle
 62
7
  6
CONTINUOUS
 10
-42.3470135379
 20
48.7348604223
 40
77.0749293195
100
AcDbArc
 50
246.3211580435
 51
246.4649967026
  0
ARC
  5
340
100
AcDbEntity
  8
0
100
AcDbCircle
 62
7
  6
CONTINUOUS
 10
-46.0480996232
 20
44.1665421523
 40
74.9157502495
100
AcDbArc
 50
250.4657429524
 51
251.9830697766
  0
ARC
  5
341
100
AcDbEntity
  8
0
100
AcDbCircle
 62
7
  6
CONTINUOUS
 10
-46.7866975694
 20
43.4277777929
 40
73.9450439079
100
AcDbArc
 50
239.430115535
 51
244.6290374865
  0
ARC
  5
342
100
AcDbEntity
  8
0
100
AcDbCircle
 62
7
  6
CONTINUOUS
 10
-46.747357803
 20
42.0382233889
 40
72.6755145471
100
AcDbArc
 50
251.9883425961
 51
252.6026286451
  0
ARC
  5
343
100
AcDbEntity
  8
0
100
AcDbCircle
 62
7
  6
CONTINUOUS
 10
-46.2639033622
 20
39.9761370635
 40
70.9012901758
100
AcDbArc
 50
250.3593640942
 51
251.8466156242
  0
ARC
  5
344
100
AcDbEntity
  8
0
100
AcDbCircle
 62
7
  6
CONTINUOUS
 10
-47.325133889
 20
40.1932100914
 40
70.7421515837
100
AcDbArc
 50
252.6024033754
 51
253.6812347369
  0
ARC
  5
345
100
AcDbEntity
  8
0
100
AcDbCircle
 62
7
  6
CONTINUOUS
 10
-46.5168436488
 20
39.1836428192
 40
70.0694354031
100
AcDbArc
 50
251.8412509976
 51
254.4873665993
  0
ARC
  5
346
100
AcDbEntity
  8
0
100
AcDbCircle
 62
7
  6
CONTINUOUS
 10
-48.909421612
 20
39.8070378107
 40
69.7479599221
100
AcDbArc
 50
237.42911063
 51
239.4187934247
  0
ARC
  5
347
100
AcDbEntity
  8
0
100
AcDbCircle
 62
7
  6
CONTINUOUS
 10
-49.0439006343
 20
30.6438571912
 40
61.0508068796
100
AcDbArc
 50
248.8582044022
 51
251.4200795633
  0
ARC
  5
348
100
AcDbEntity
  8
0
100
AcDbCircle
 62
7
  6
CONTINUOUS
 10
-49.1163528897
 20
30.390372105
 40
60.7874521155
100
AcDbArc
 50
251.4087348502
 51
252.8856665243
  0
ARC
  5
349
100
AcDbEntity
  8
0
100
AcDbCircle
 62
7
  6
CONTINUOUS
 10
-40.891817665
 20
30.0463986756
 40
34.2468959587
100
AcDbArc
 50
221.5328607941
 51
223.5406334968
  0
ARC
  5
34A
100
AcDbEntity
  8
0
100
AcDbCircle
 62
7
  6
CONTINUOUS
 10
-41.6714854859
 20
29.3515294609
 40
33.2024774608
100
AcDbArc
 50
221.0182286409
 51
221.4290038841
  0
ARC
  5
34B
100
AcDbEntity
  8
0
100
AcDbCircle
 62
7
  6
CONTINUOUS
 10
-31.540715054
 20
32.1833960704
 40
33.0191941063
100
AcDbArc
 50
219.980358894
 51
220.2562913241
  0
ARC
  5
34C
100
AcDbEntity
  8
0
100
AcDbCircle
 62
7
  6
CONTINUOUS
 10
-42.0795249111
 20
28.9974631332
 40
32.6622379723
100
AcDbArc
 50
220.1891494339
 51
221.0193733859
  0
ARC
  5
34D
100
AcDbEntity
  8
0
100
AcDbCircle
 62
7
  6
CONTINUOUS
 10
-33.8296067526
 20
29.7712944405
 40
29.7158828617
100
AcDbArc
 50
219.271954755
 51
219.5588317103
  0
ARC
  5
34E
100
AcDbEntity
  8
0
100
AcDbCircle
 62
7
  6
CONTINUOUS
 10
-16.7571440548
 20
-26.9694584354
 40
60.9740483438
100
AcDbArc
 50
155.9623986657
 51
156.9323567113
  0
ARC
  5
34F
100
AcDbEntity
  8
0
100
AcDbCircle
 62
7
  6
CONTINUOUS
 10
-24.3513736619
 20
-29.7163139755
 40
20.3032259238
100
AcDbArc
 50
300.7322276143
 51
303.6396801272
  0
ARC
  5
350
100
AcDbEntity
  8
0
100
AcDbCircle
 62
7
  6
CONTINUOUS
 10
-22.6852245151
 20
-27.1675228348
 40
20.1131550721
100
AcDbArc
 50
356.6255474386
 51
359.3405080679
  0
ARC
  5
351
100
AcDbEntity
  8
0
100
AcDbCircle
 62
7
  6
CONTINUOUS
 10
-24.0292037449
 20
-40.5876685548
 40
14.7714244906
100
AcDbArc
 50
233.6943284393
 51
239.9831692151
  0
ARC
  5
352
100
AcDbEntity
  8
0
100
AcDbCircle
 62
7
  6
CONTINUOUS
 10
-13.2903985398
 20
-21.992872506
 40
14.7555754951
100
AcDbArc
 50
59.9942132233
 51
66.2561690022
  0
ARC
  5
353
100
AcDbEntity
  8
0
100
AcDbCircle
 62
7
  6
CONTINUOUS
 10
-15.5342120227
 20
-22.6202572126
 40
12.521181902
100
AcDbArc
 50
53.7525155987
 51
55.8453444032
  0
ARC
  5
354
100
AcDbEntity
  8
0
100
AcDbCircle
 62
7
  6
CONTINUOUS
 10
-23.2137290283
 20
-39.170035736
 40
12.5068452987
100
AcDbArc
 50
239.9949889701
 51
246.6893236743
  0
ARC
  5
355
100
AcDbEntity
  8
0
100
AcDbCircle
 62
7
  6
CONTINUOUS
 10
-14.1125457474
 20
-23.4133905031
 40
12.4968449047
100
AcDbArc
 50
53.7297540784
 51
59.9881667868
  0
ARC
  5
356
100
AcDbEntity
  8
0
100
AcDbCircle
 62
7
  6
CONTINUOUS
 10
1.5590805242
 20
-52.0333245865
 40
2.6237905868
100
AcDbArc
 50
240.004979592
 51
249.4831768811
  0
ARC
  5
357
100
AcDbEntity
  8
0
100
AcDbCircle
 62
7
  6
CONTINUOUS
 10
2.725711145
 20
-50.0207533945
 40
2.0501252622
100
AcDbArc
 50
67.8518940246
 51
69.4856040982
  0
ARC
  5
358
100
AcDbEntity
  8
0
100
AcDbCircle
 62
7
  6
CONTINUOUS
 10
-6.9947045018
 20
46.4037535885
 40
54.8505274692
100
AcDbArc
 50
221.3073013533
 51
221.4502145365
  0
ARC
  5
359
100
AcDbEntity
  8
0
100
AcDbCircle
 62
7
  6
CONTINUOUS
 10
-21.323513393
 20
40.7685791312
 40
46.3644767349
100
AcDbArc
 50
218.6821205018
 51
219.9973052591
  0
ARC
  5
35A
100
AcDbEntity
  8
0
100
AcDbCircle
 62
7
  6
CONTINUOUS
 10
-23.9232722676
 20
38.688200757
 40
43.0347629448
100
AcDbArc
 50
217.7900048538
 51
218.6167806575
  0
ARC
  5
35B
100
AcDbEntity
  8
0
100
AcDbCircle
 62
7
  6
CONTINUOUS
 10
216.5791610395
 20
531.5406841306
 40
607.9396228178
100
AcDbArc
 50
240.0622059255
 51
241.5695415996
  0
SPLINE
  5
35C
100
AcDbEntity
  8
0
100
AcDbSpline
 62
7
  6
CONTINUOUS
 70
0
 71
3
 72
21
 73
17
 74
0
 42
0.0000001
 43
0.0000001
 44
0.0000000001
 40
0.0
 40
0.0
 40
0.0
 40
0.0
 40
0.0616913747
 40
0.1234696712
 40
0.1854439122
 40
0.2477427453
 40
0.3105058121
 40
0.3737741103
 40
0.5008982745
 40
0.6275799214
 40
0.6904427347
 40
0.7528248521
 40
0.8148383672
 40
0.8766384207
 40
0.9383380413
 40
1.0
 40
1.0
 40
1.0
 40
1.0
 10
6.1892532248
 20
-39.1883900961
 30
0.0
 10
6.3259900455
 20
-39.2395520588
 30
0.0
 10
6.6115807697
 20
-39.3127125068
 30
0.0
 10
7.0530490384
 20
-39.3306203044
 30
0.0
 10
7.4904927102
 20
-39.2594247571
 30
0.0
 10
7.9081761039
 20
-39.1054196803
 30
0.0
 10
8.2937669101
 20
-38.8772010004
 30
0.0
 10
8.751691285
 20
-38.4871692481
 30
0.0
 10
9.1961373507
 20
-37.8657941129
 30
0.0
 10
9.4245870436
 20
-37.1371636321
 30
0.0
 10
9.4549005187
 20
-36.5390993164
 30
0.0
 10
9.3980910209
 20
-36.0970073202
 30
0.0
 10
9.2597586103
 20
-35.6757326281
 30
0.0
 10
9.0411884023
 20
-35.2914017407
 30
0.0
 10
8.7484183579
 20
-34.9611780527
 30
0.0
 10
8.5105881706
 20
-34.7872950476
 30
0.0
 10
8.3841957843
 20
-34.7143625671
 30
0.0
  0
SPLINE
  5
35D
100
AcDbEntity
  8
0
100
AcDbSpline
 62
7
  6
CONTINUOUS
 70
0
 71
3
 72
20
 73
16
 74
0
 42
0.0000001
 43
0.0000001
 44
0.0000000001
 40
0.0
 40
0.0
 40
0.0
 40
0.0
 40
0.0537926109
 40
0.1081422037
 40
0.1643686775
 40
0.223463793
 40
0.2858495352
 40
0.3514358589
 40
0.4893063328
 40
0.6300589049
 40
0.7648956579
 40
0.8282385775
 40
0.8882573103
 40
0.9452543581
 40
1.0
 40
1.0
 40
1.0
 40
1.0
 10
7.4680816247
 20
-38.3324283917
 30
0.0
 10
7.4169267892
 20
-38.313286337
 30
0.0
 10
7.3185542682
 20
-38.2613080361
 30
0.0
 10
7.194772123
 20
-38.146776096
 30
0.0
 10
7.1000185787
 20
-38.0009308276
 30
0.0
 10
7.0375997475
 20
-37.8301811793
 30
0.0
 10
7.0093905736
 20
-37.6411463021
 30
0.0
 10
7.0183753156
 20
-37.3701702552
 30
0.0
 10
7.1176805729
 20
-37.028534177
 30
0.0
 10
7.3489914641
 20
-36.6716773977
 30
0.0
 10
7.6182488021
 20
-36.4465834664
 30
0.0
 10
7.8578890315
 20
-36.336949962
 30
0.0
 10
8.0373647432
 20
-36.2942545026
 30
0.0
 10
8.2132131291
 20
-36.2917285386
 30
0.0
 10
8.3251097608
 20
-36.317684603
 30
0.0
 10
8.3771713508
 20
-36.3371645742
 30
0.0
  0
SPLINE
  5
35E
100
AcDbEntity
  8
0
100
AcDbSpline
 62
7
  6
CONTINUOUS
 70
0
 71
3
 72
19
 73
15
 74
0
 42
0.0000001
 43
0.0000001
 44
0.0000000001
 40
0.0
 40
0.0
 40
0.0
 40
0.0
 40
0.0536751171
 40
0.1086716026
 40
0.1660625581
 40
0.2264644509
 40
0.3559959311
 40
0.4943225843
 40
0.6340295898
 40
0.7671571819
 40
0.8296895341
 40
0.8890636543
 40
0.9455772494
 40
1.0
 40
1.0
 40
1.0
 40
1.0
 10
5.8840438631
 20
-39.0443766985
 30
0.0
 10
5.7805154113
 20
-38.9845943746
 30
0.0
 10
5.5853307394
 20
-38.8365451051
 30
0.0
 10
5.3514780423
 20
-38.5457789276
 30
0.0
 10
5.1823587361
 20
-38.1966618839
 30
0.0
 10
5.0473329203
 20
-37.6592973275
 30
0.0
 10
5.072321735
 20
-36.913282091
 30
0.0
 10
5.3767068692
 20
-36.0453228694
 30
0.0
 10
5.9124249189
 20
-35.2881684858
 30
0.0
 10
6.5120527392
 20
-34.8197703827
 30
0.0
 10
7.0372817725
 20
-34.5961419806
 30
0.0
 10
7.4284799132
 20
-34.5119323649
 30
0.0
 10
7.8107803602
 20
-34.5119088471
 30
0.0
 10
8.0539222056
 20
-34.5697194045
 30
0.0
 10
8.167449629
 20
-34.6121989081
 30
0.0
  0
SPLINE
  5
35F
100
AcDbEntity
  8
0
100
AcDbSpline
 62
7
  6
CONTINUOUS
 70
0
 71
3
 72
20
 73
16
 74
0
 42
0.0000001
 43
0.0000001
 44
0.0000000001
 40
0.0
 40
0.0
 40
0.0
 40
0.0
 40
0.0537926109
 40
0.1081422037
 40
0.1643686775
 40
0.223463793
 40
0.2858495352
 40
0.3514358589
 40
0.4893063328
 40
0.6300589049
 40
0.7648956579
 40
0.8282385775
 40
0.8882573103
 40
0.9452543581
 40
1.0
 40
1.0
 40
1.0
 40
1.0
 10
8.3771713508
 20
-36.3371645742
 30
0.0
 10
8.4283261888
 20
-36.3563066315
 30
0.0
 10
8.5266987099
 20
-36.4082849298
 30
0.0
 10
8.650480855
 20
-36.5228168725
 30
0.0
 10
8.7452343968
 20
-36.6686621409
 30
0.0
 10
8.8076532305
 20
-36.8394117892
 30
0.0
 10
8.8358624045
 20
-37.0284466639
 30
0.0
 10
8.8268776625
 20
-37.2994227132
 30
0.0
 10
8.7275724026
 20
-37.6410587914
 30
0.0
 10
8.4962615114
 20
-37.9979155682
 30
0.0
 10
8.2270041759
 20
-38.2230094995
 30
0.0
 10
7.9873639465
 20
-38.3326430064
 30
0.0
 10
7.8078882323
 20
-38.3753384633
 30
0.0
 10
7.632039849
 20
-38.3778644273
 30
0.0
 10
7.5201432173
 20
-38.3519083629
 30
0.0
 10
7.4680816247
 20
-38.3324283917
 30
0.0
  0
SPLINE
  5
360
100
AcDbEntity
  8
0
100
AcDbSpline
 62
7
  6
CONTINUOUS
 70
0
 71
3
 72
21
 73
17
 74
0
 42
0.0000001
 43
0.0000001
 44
0.0000000001
 40
0.0
 40
0.0
 40
0.0
 40
0.0
 40
0.0616913747
 40
0.1234696712
 40
0.1854439122
 40
0.2477427453
 40
0.3105058121
 40
0.3737741103
 40
0.5008982745
 40
0.6275799214
 40
0.6904427347
 40
0.7528248521
 40
0.8148383672
 40
0.8766384207
 40
0.9383380413
 40
1.0
 40
1.0
 40
1.0
 40
1.0
 10
-6.3358484331
 20
-42.545862642
 30
0.0
 10
-6.1991116149
 20
-42.5970246021
 30
0.0
 10
-5.9135208882
 20
-42.6701850527
 30
0.0
 10
-5.4720526195
 20
-42.6880928477
 30
0.0
 10
-5.0346089503
 20
-42.616897303
 30
0.0
 10
-4.6169255565
 20
-42.4628922237
 30
0.0
 10
-4.2313347478
 20
-42.2346735463
 30
0.0
 10
-3.7734103729
 20
-41.844641794
 30
0.0
 10
-3.3289643098
 20
-41.2232666588
 30
0.0
 10
-3.1005146143
 20
-40.494636178
 30
0.0
 10
-3.0702011392
 20
-39.8965718623
 30
0.0
 10
-3.1270106395
 20
-39.4544798661
 30
0.0
 10
-3.2653430502
 20
-39.033205174
 30
0.0
 10
-3.4839132582
 20
-38.6488742866
 30
0.0
 10
-3.7766833026
 20
-38.318650596
 30
0.0
 10
-4.0145134873
 20
-38.1447675935
 30
0.0
 10
-4.1409058761
 20
-38.0718351105
 30
0.0
  0
SPLINE
  5
361
100
AcDbEntity
  8
0
100
AcDbSpline
 62
7
  6
CONTINUOUS
 70
0
 71
3
 72
20
 73
16
 74
0
 42
0.0000001
 43
0.0000001
 44
0.0000000001
 40
0.0
 40
0.0
 40
0.0
 40
0.0
 40
0.0537926109
 40
0.1081422037
 40
0.1643686775
 40
0.223463793
 40
0.2858495352
 40
0.3514358589
 40
0.4893063328
 40
0.6300589049
 40
0.7648956579
 40
0.8282385775
 40
0.8882573103
 40
0.9452543581
 40
1.0
 40
1.0
 40
1.0
 40
1.0
 10
-5.0570200332
 20
-41.6899009376
 30
0.0
 10
-5.1081748712
 20
-41.6707588804
 30
0.0
 10
-5.2065473923
 20
-41.618780582
 30
0.0
 10
-5.3303295374
 20
-41.5042486393
 30
0.0
 10
-5.4250830792
 20
-41.3584033735
 30
0.0
 10
-5.4875019129
 20
-41.1876537226
 30
0.0
 10
-5.5157110869
 20
-40.998618848
 30
0.0
 10
-5.5067263449
 20
-40.7276428011
 30
0.0
 10
-5.407421085
 20
-40.3860067229
 30
0.0
 10
-5.1761101938
 20
-40.0291499436
 30
0.0
 10
-4.9068528583
 20
-39.8040560123
 30
0.0
 10
-4.6672126289
 20
-39.6944225079
 30
0.0
 10
-4.4877369147
 20
-39.6517270485
 30
0.0
 10
-4.3118885314
 20
-39.6492010845
 30
0.0
 10
-4.1999918997
 20
-39.6751571489
 30
0.0
 10
-4.1479303071
 20
-39.6946371201
 30
0.0
  0
SPLINE
  5
362
100
AcDbEntity
  8
0
100
AcDbSpline
 62
7
  6
CONTINUOUS
 70
0
 71
3
 72
19
 73
15
 74
0
 42
0.0000001
 43
0.0000001
 44
0.0000000001
 40
0.0
 40
0.0
 40
0.0
 40
0.0
 40
0.0536751171
 40
0.1086716026
 40
0.1660625581
 40
0.2264644509
 40
0.3559959311
 40
0.4943225843
 40
0.6340295898
 40
0.7671571819
 40
0.8296895341
 40
0.8890636543
 40
0.9455772494
 40
1.0
 40
1.0
 40
1.0
 40
1.0
 10
-6.6410577948
 20
-42.4018492444
 30
0.0
 10
-6.7445862491
 20
-42.3420669205
 30
0.0
 10
-6.939770921
 20
-42.194017651
 30
0.0
 10
-7.1736236181
 20
-41.903251471
 30
0.0
 10
-7.3427429218
 20
-41.5541344298
 30
0.0
 10
-7.4777687401
 20
-41.0167698734
 30
0.0
 10
-7.4527799229
 20
-40.2707546369
 30
0.0
 10
-7.1483947913
 20
-39.4027954127
 30
0.0
 10
-6.6126767416
 20
-38.6456410317
 30
0.0
 10
-6.0130489213
 20
-38.1772429286
 30
0.0
 10
-5.4878198854
 20
-37.9536145265
 30
0.0
 10
-5.0966217447
 20
-37.8694049108
 30
0.0
 10
-4.7143213003
 20
-37.869381393
 30
0.0
 10
-4.4711794548
 20
-37.9271919504
 30
0.0
 10
-4.3576520289
 20
-37.969671454
 30
0.0
  0
SPLINE
  5
363
100
AcDbEntity
  8
0
100
AcDbSpline
 62
7
  6
CONTINUOUS
 70
0
 71
3
 72
20
 73
16
 74
0
 42
0.0000001
 43
0.0000001
 44
0.0000000001
 40
0.0
 40
0.0
 40
0.0
 40
0.0
 40
0.0537926109
 40
0.1081422037
 40
0.1643686775
 40
0.223463793
 40
0.2858495352
 40
0.3514358589
 40
0.4893063328
 40
0.6300589049
 40
0.7648956579
 40
0.8282385775
 40
0.8882573103
 40
0.9452543581
 40
1.0
 40
1.0
 40
1.0
 40
1.0
 10
-4.1479303071
 20
-39.6946371201
 30
0.0
 10
-4.0967754716
 20
-39.7137791774
 30
0.0
 10
-3.9984029506
 20
-39.7657574757
 30
0.0
 10
-3.8746208054
 20
-39.8802894184
 30
0.0
 10
-3.7798672611
 20
-40.0261346842
 30
0.0
 10
-3.7174484299
 20
-40.1968843351
 30
0.0
 10
-3.689239256
 20
-40.3859192098
 30
0.0
 10
-3.698223998
 20
-40.6568952566
 30
0.0
 10
-3.7975292553
 20
-40.9985313348
 30
0.0
 10
-4.0288401465
 20
-41.3553881141
 30
0.0
 10
-4.2980974845
 20
-41.5804820454
 30
0.0
 10
-4.5377377139
 20
-41.6901155498
 30
0.0
 10
-4.7172134256
 20
-41.7328110092
 30
0.0
 10
-4.8930618115
 20
-41.7353369732
 30
0.0
 10
-5.0049584432
 20
-41.7093809088
 30
0.0
 10
-5.0570200332
 20
-41.6899009376
 30
0.0
  0
SPLINE
  5
364
100
AcDbEntity
  8
0
100
AcDbSpline
 62
7
  6
CONTINUOUS
 70
0
 71
3
 72
22
 73
18
 74
0
 42
0.0000001
 43
0.0000001
 44
0.0000000001
 40
0.0
 40
0.0
 40
0.0
 40
0.0
 40
0.0605401311
 40
0.1213833091
 40
0.1827684667
 40
0.2449382974
 40
0.3080586364
 40
0.3721083515
 40
0.5015296814
 40
0.5664042507
 40
0.6306676753
 40
0.6940388133
 40
0.7564443669
 40
0.8180055655
 40
0.8789602819
 40
0.9395580041
 40
1.0
 40
1.0
 40
1.0
 40
1.0
 10
0.6394881267
 20
-54.490686357
 30
0.0
 10
0.8242972618
 20
-54.5598391651
 30
0.0
 10
1.2118480335
 20
-54.6568600785
 30
0.0
 10
1.811619628
 20
-54.6729627235
 30
0.0
 10
2.4069996387
 20
-54.5650866604
 30
0.0
 10
2.9771629687
 20
-54.3430537872
 30
0.0
 10
3.5061294978
 20
-54.0190371962
 30
0.0
 10
4.1394872862
 20
-53.4684755389
 30
0.0
 10
4.6372486961
 20
-52.7695432131
 30
0.0
 10
4.9594855878
 20
-51.9881936379
 30
0.0
 10
5.1064680802
 20
-51.3752820849
 30
0.0
 10
5.1509550702
 20
-50.7545591608
 30
0.0
 10
5.0877719632
 20
-50.1438562344
 30
0.0
 10
4.9135630152
 20
-49.5628553339
 30
0.0
 10
4.628513062
 20
-49.0334545486
 30
0.0
 10
4.2392783871
 20
-48.5797576633
 30
0.0
 10
3.9189878085
 20
-48.3426443834
 30
0.0
 10
3.7483941695
 20
-48.2441141436
 30
0.0
  0
SPLINE
  5
365
100
AcDbEntity
  8
0
100
AcDbSpline
 62
7
  6
CONTINUOUS
 70
0
 71
3
 72
20
 73
16
 74
0
 42
0.0000001
 43
0.0000001
 44
0.0000000001
 40
0.0
 40
0.0
 40
0.0
 40
0.0
 40
0.0537997465
 40
0.1081372446
 40
0.1643686927
 40
0.2234628801
 40
0.2858512603
 40
0.3514387029
 40
0.4893109116
 40
0.6300650215
 40
0.7649017749
 40
0.8282413989
 40
0.8882636092
 40
0.9452472507
 40
1.0
 40
1.0
 40
1.0
 40
1.0
 10
3.6538827735
 20
-49.82560761
 30
0.0
 10
3.7515554357
 20
-49.8621552534
 30
0.0
 10
3.9393672445
 20
-49.961356038
 30
0.0
 10
4.1756421618
 20
-50.1800447675
 30
0.0
 10
4.3565714291
 20
-50.4584325953
 30
0.0
 10
4.4757066823
 20
-50.7844381587
 30
0.0
 10
4.5295601484
 20
-51.1453256462
 30
0.0
 10
4.5124051002
 20
-51.662655023
 30
0.0
 10
4.3228326625
 20
-52.3148812929
 30
0.0
 10
3.8812110336
 20
-52.9961510581
 30
0.0
 10
3.3671688334
 20
-53.4258484562
 30
0.0
 10
2.9096861187
 20
-53.6351874076
 30
0.0
 10
2.567065125
 20
-53.716639518
 30
0.0
 10
2.2313618289
 20
-53.7215095947
 30
0.0
 10
2.0177566021
 20
-53.671929643
 30
0.0
 10
1.9183537783
 20
-53.6347345968
 30
0.0
  0
SPLINE
  5
366
100
AcDbEntity
  8
0
100
AcDbSpline
 62
7
  6
CONTINUOUS
 70
0
 71
3
 72
20
 73
16
 74
0
 42
0.0000001
 43
0.0000001
 44
0.0000000001
 40
0.0
 40
0.0
 40
0.0
 40
0.0
 40
0.0537997465
 40
0.1081372446
 40
0.1643686927
 40
0.2234628801
 40
0.2858512603
 40
0.3514387029
 40
0.4893109116
 40
0.6300650215
 40
0.7649017749
 40
0.8282413989
 40
0.8882636092
 40
0.9452472507
 40
1.0
 40
1.0
 40
1.0
 40
1.0
 10
1.9183537783
 20
-53.6347345968
 30
0.0
 10
1.8206811186
 20
-53.5981869508
 30
0.0
 10
1.6328693099
 20
-53.4989861687
 30
0.0
 10
1.3965943925
 20
-53.2802974392
 30
0.0
 10
1.2156651252
 20
-53.0019096115
 30
0.0
 10
1.096529872
 20
-52.6759040455
 30
0.0
 10
1.0426764059
 20
-52.315016558
 30
0.0
 10
1.0598314542
 20
-51.7976871812
 30
0.0
 10
1.2494038893
 20
-51.1454609139
 30
0.0
 10
1.6910255207
 20
-50.4641911461
 30
0.0
 10
2.205067721
 20
-50.034493748
 30
0.0
 10
2.6625504357
 20
-49.8251547991
 30
0.0
 10
3.0051714294
 20
-49.7437026887
 30
0.0
 10
3.3408747254
 20
-49.7388326121
 30
0.0
 10
3.5544799523
 20
-49.7884125637
 30
0.0
 10
3.6538827735
 20
-49.82560761
 30
0.0
  0
SPLINE
  5
367
100
AcDbEntity
  8
0
100
AcDbSpline
 62
7
  6
CONTINUOUS
 70
0
 71
3
 72
20
 73
16
 74
0
 42
0.0000001
 43
0.0000001
 44
0.0000000001
 40
0.0
 40
0.0
 40
0.0
 40
0.0
 40
0.0536563147
 40
0.108626348
 40
0.165989806
 40
0.2263665331
 40
0.3558524156
 40
0.424498295
 40
0.4945084713
 40
0.6341743151
 40
0.7672646478
 40
0.8297718942
 40
0.8891169004
 40
0.9455993964
 40
1.0
 40
1.0
 40
1.0
 40
1.0
 10
0.2473944202
 20
-54.3056876389
 30
0.0
 10
0.1024564931
 20
-54.221980359
 30
0.0
 10
-0.1707960947
 20
-54.0147293918
 30
0.0
 10
-0.4981844976
 20
-53.6076998324
 30
0.0
 10
-0.734928238
 20
-53.1189394358
 30
0.0
 10
-0.9240218476
 20
-52.3668616004
 30
0.0
 10
-0.8963378466
 20
-51.5426786082
 30
0.0
 10
-0.6817364089
 20
-50.7323505209
 30
0.0
 10
-0.33885791
 20
-49.9316164353
 30
0.0
 10
0.2873467304
 20
-49.0467113243
 30
0.0
 10
1.1267099209
 20
-48.3911879693
 30
0.0
 10
1.8620774976
 20
-48.0780901449
 30
0.0
 10
2.409706029
 20
-47.9602732533
 30
0.0
 10
2.9448680041
 20
-47.9602285645
 30
0.0
 10
3.285229424
 20
-48.0411681156
 30
0.0
 10
3.4441626062
 20
-48.1006385301
 30
0.0
  0
SPLINE
  5
368
100
AcDbEntity
  8
0
100
AcDbSpline
 62
7
  6
CONTINUOUS
 70
0
 71
3
 72
9
 73
5
 74
0
 42
0.0000001
 43
0.0000001
 44
0.0000000001
 40
0.0
 40
0.0
 40
0.0
 40
0.0
 40
0.4929877436
 40
1.0
 40
1.0
 40
1.0
 40
1.0
 10
-62.4564105276
 20
21.1318081813
 30
0.0
 10
-63.6338331562
 20
21.0889514293
 30
0.0
 10
-66.0186237841
 20
20.8514056661
 30
0.0
 10
-68.3581495039
 20
20.3359149521
 30
0.0
 10
-69.5255357543
 20
20.0111468971
 30
0.0
  0
SPLINE
  5
369
100
AcDbEntity
  8
0
100
AcDbSpline
 62
7
  6
CONTINUOUS
 70
0
 71
3
 72
9
 73
5
 74
0
 42
0.0000001
 43
0.0000001
 44
0.0000000001
 40
0.0
 40
0.0
 40
0.0
 40
0.0
 40
0.2529139027
 40
1.0
 40
1.0
 40
1.0
 40
1.0
 10
-88.4631311353
 20
2.7662284101
 30
0.0
 10
-88.5734278312
 20
2.2469367613
 30
0.0
 10
-88.9750443482
 20
0.1865746514
 30
0.0
 10
-89.2370960136
 20
-1.9013607714
 30
0.0
 10
-89.3474708881
 20
-3.465633594
 30
0.0
  0
SPLINE
  5
36A
100
AcDbEntity
  8
0
100
AcDbSpline
 62
7
  6
CONTINUOUS
 70
0
 71
3
 72
9
 73
5
 74
0
 42
0.0000001
 43
0.0000001
 44
0.0000000001
 40
0.0
 40
0.0
 40
0.0
 40
0.0
 40
0.2464513919
 40
1.0
 40
1.0
 40
1.0
 40
1.0
 10
-72.7340498554
 20
20.0980353288
 30
0.0
 10
-73.2485977544
 20
19.7715163883
 30
0.0
 10
-75.3076134281
 20
18.4016029889
 30
0.0
 10
-77.249532859
 20
16.8570128269
 30
0.0
 10
-78.6370804928
 20
15.6133700792
 30
0.0
  0
SPLINE
  5
36B
100
AcDbEntity
  8
0
100
AcDbSpline
 62
7
  6
CONTINUOUS
 70
0
 71
3
 72
14
 73
10
 74
0
 42
0.0000001
 43
0.0000001
 44
0.0000000001
 40
0.0
 40
0.0
 40
0.0
 40
0.0
 40
0.2491744126
 40
0.3795057819
 40
0.5105485114
 40
0.640033591
 40
0.7658386632
 40
0.886205932
 40
1.0
 40
1.0
 40
1.0
 40
1.0
 10
-73.3975624603
 20
-13.2524842108
 30
0.0
 10
-73.3975564354
 20
-10.8371559655
 30
0.0
 10
-72.721419581
 20
-7.1345006149
 30
0.0
 10
-70.7735828797
 20
-2.5747226682
 30
0.0
 10
-68.7807298474
 20
0.6659565654
 30
0.0
 10
-66.3577336368
 20
3.539397862
 30
0.0
 10
-63.5969702048
 20
5.9381724878
 30
0.0
 10
-60.6075846469
 20
7.7692217569
 30
0.0
 10
-58.4730064573
 20
8.5895061082
 30
0.0
 10
-57.4075774325
 20
8.8751007034
 30
0.0
  0
SPLINE
  5
36C
100
AcDbEntity
  8
0
100
AcDbSpline
 62
7
  6
CONTINUOUS
 70
0
 71
3
 72
13
 73
9
 74
0
 42
0.0000001
 43
0.0000001
 44
0.0000000001
 40
0.0
 40
0.0
 40
0.0
 40
0.0
 40
0.1141100765
 40
0.2296747537
 40
0.3478407226
 40
0.4695408387
 40
0.7254408007
 40
1.0
 40
1.0
 40
1.0
 40
1.0
 10
-67.4662051054
 20
-25.3377906624
 30
0.0
 10
-67.9237219348
 20
-25.0611416856
 30
0.0
 10
-68.8040700319
 20
-24.4340479614
 30
0.0
 10
-69.9811760165
 20
-23.2988867951
 30
0.0
 10
-71.0054990733
 20
-21.978637777
 30
0.0
 10
-72.1682036922
 20
-19.9603804419
 30
0.0
 10
-73.1548326003
 20
-17.033721007
 30
0.0
 10
-73.3975656709
 20
-14.538913421
 30
0.0
 10
-73.3975624603
 20
-13.2524842108
 30
0.0
  0
SPLINE
  5
36D
100
AcDbEntity
  8
0
100
AcDbSpline
 62
7
  6
CONTINUOUS
 70
0
 71
3
 72
11
 73
7
 74
0
 42
0.0000001
 43
0.0000001
 44
0.0000000001
 40
0.0
 40
0.0
 40
0.0
 40
0.0
 40
0.2656485314
 40
0.51881075
 40
0.7622115199
 40
1.0
 40
1.0
 40
1.0
 40
1.0
 10
-57.4075774325
 20
8.8751007034
 30
0.0
 10
-56.5989183234
 20
9.0918665944
 30
0.0
 10
-54.9816970468
 20
9.3896987217
 30
0.0
 10
-52.565826801
 20
9.3958431518
 30
0.0
 10
-50.2791965991
 20
8.9520082991
 30
0.0
 10
-48.8693161118
 20
8.3590006738
 30
0.0
 10
-48.2129729998
 20
7.9973076533
 30
0.0
  0
SPLINE
  5
36E
100
AcDbEntity
  8
0
100
AcDbSpline
 62
7
  6
CONTINUOUS
 70
0
 71
3
 72
9
 73
5
 74
0
 42
0.0000001
 43
0.0000001
 44
0.0000000001
 40
0.0
 40
0.0
 40
0.0
 40
0.0
 40
0.5071949212
 40
1.0
 40
1.0
 40
1.0
 40
1.0
 10
-90.3240042005
 20
-9.1641466039
 30
0.0
 10
-89.931476192
 20
-10.3841847455
 30
0.0
 10
-89.0111317335
 20
-12.7455383997
 30
0.0
 10
-87.7898228147
 20
-14.9676671406
 30
0.0
 10
-87.1151939303
 20
-16.0143596268
 30
0.0
  0
SPLINE
  5
36F
100
AcDbEntity
  8
0
100
AcDbSpline
 62
7
  6
CONTINUOUS
 70
0
 71
3
 72
9
 73
5
 74
0
 42
0.0000001
 43
0.0000001
 44
0.0000000001
 40
0.0
 40
0.0
 40
0.0
 40
0.0
 40
0.4940901586
 40
1.0
 40
1.0
 40
1.0
 40
1.0
 10
-86.614662719
 20
-17.2534249668
 30
0.0
 10
-87.3057973997
 20
-16.3539105098
 30
0.0
 10
-88.513583295
 20
-14.3799332691
 30
0.0
 10
-89.3109540117
 20
-12.2110742591
 30
0.0
 10
-89.6138066673
 20
-11.0897466033
 30
0.0
  0
SPLINE
  5
370
100
AcDbEntity
  8
0
100
AcDbSpline
 62
7
  6
CONTINUOUS
 70
0
 71
3
 72
12
 73
8
 74
0
 42
0.0000001
 43
0.0000001
 44
0.0000000001
 40
0.0
 40
0.0
 40
0.0
 40
0.0
 40
0.243492187
 40
0.4939269619
 40
0.6207431965
 40
0.747790924
 40
1.0
 40
1.0
 40
1.0
 40
1.0
 10
-90.3342656277
 20
-5.49094742
 30
0.0
 10
-90.3342656277
 20
-3.7882461822
 30
0.0
 10
-89.9572317615
 20
-0.326607741
 30
0.0
 10
-88.6523931292
 20
3.8407268859
 30
0.0
 10
-87.1438938729
 20
7.0333569015
 30
0.0
 10
-85.3435672373
 20
10.0840165151
 30
0.0
 10
-83.6831923259
 20
12.1779586493
 30
0.0
 10
-82.4603306213
 20
13.4488226659
 30
0.0
  0
SPLINE
  5
371
100
AcDbEntity
  8
0
100
AcDbSpline
 62
7
  6
CONTINUOUS
 70
0
 71
3
 72
9
 73
5
 74
0
 42
0.0000001
 43
0.0000001
 44
0.0000000001
 40
0.0
 40
0.0
 40
0.0
 40
0.0
 40
0.5089437135
 40
1.0
 40
1.0
 40
1.0
 40
1.0
 10
-82.4603306213
 20
13.4488226659
 30
0.0
 10
-81.2417589284
 20
14.7152282738
 30
0.0
 10
-78.6026951971
 20
16.9813960528
 30
0.0
 10
-75.5429891982
 20
18.6515669924
 30
0.0
 10
-73.9686165532
 20
19.2814512825
 30
0.0
  0
SPLINE
  5
372
100
AcDbEntity
  8
0
100
AcDbSpline
 62
7
  6
CONTINUOUS
 70
0
 71
3
 72
9
 73
5
 74
0
 42
0.0000001
 43
0.0000001
 44
0.0000000001
 40
0.0
 40
0.0
 40
0.0
 40
0.0
 40
0.5046231019
 40
1.0
 40
1.0
 40
1.0
 40
1.0
 10
-71.5430566621
 20
20.0821147663
 30
0.0
 10
-70.709979456
 20
20.29956948
 30
0.0
 10
-69.0284629105
 20
20.6220363611
 30
0.0
 10
-67.3171847151
 20
20.7028498494
 30
0.0
 10
-66.472314416
 20
20.6787371113
 30
0.0
  0
SPLINE
  5
373
100
AcDbEntity
  8
0
100
AcDbSpline
 62
7
  6
CONTINUOUS
 70
0
 71
3
 72
9
 73
5
 74
0
 42
0.0000001
 43
0.0000001
 44
0.0000000001
 40
0.0
 40
0.0
 40
0.0
 40
0.0
 40
0.508817082
 40
1.0
 40
1.0
 40
1.0
 40
1.0
 10
-72.6926571163
 20
-3.1704770292
 30
0.0
 10
-73.3775416698
 20
-4.6739571464
 30
0.0
 10
-74.4613452477
 20
-7.7562733236
 30
0.0
 10
-74.9449831526
 20
-10.9918834183
 30
0.0
 10
-75.0120749184
 20
-12.5853392916
 30
0.0
  0
SPLINE
  5
374
100
AcDbEntity
  8
0
100
AcDbSpline
 62
7
  6
CONTINUOUS
 70
0
 71
3
 72
17
 73
13
 74
0
 42
0.0000001
 43
0.0000001
 44
0.0000000001
 40
0.0
 40
0.0
 40
0.0
 40
0.0
 40
0.0304663339
 40
0.060914382
 40
0.1219516561
 40
0.1832358757
 40
0.24478602
 40
0.3686717842
 40
0.4935794618
 40
0.6193924661
 40
0.7459341241
 40
1.0
 40
1.0
 40
1.0
 40
1.0
 10
-75.2358397032
 20
-12.4315075444
 30
0.0
 10
-75.3752724902
 20
-12.3348590179
 30
0.0
 10
-75.6554800197
 20
-12.1436811071
 30
0.0
 10
-76.2107818631
 20
-11.7527340251
 30
0.0
 10
-76.8958132997
 20
-11.248081067
 30
0.0
 10
-77.7000993594
 20
-10.6141247123
 30
0.0
 10
-78.750461531
 20
-9.7282102611
 30
0.0
 10
-80.0140227732
 20
-8.547036116
 30
0.0
 10
-81.4356440499
 20
-7.01816243
 30
0.0
 10
-82.7531224512
 20
-5.3791830131
 30
0.0
 10
-84.3545218011
 20
-3.0558684242
 30
0.0
 10
-85.3578614226
 20
-1.1767501911
 30
0.0
 10
-85.9271598725
 20
0.1184375411
 30
0.0
  0
SPLINE
  5
375
100
AcDbEntity
  8
0
100
AcDbSpline
 62
7
  6
CONTINUOUS
 70
0
 71
3
 72
9
 73
5
 74
0
 42
0.0000001
 43
0.0000001
 44
0.0000000001
 40
0.0
 40
0.0
 40
0.0
 40
0.0
 40
0.2497732164
 40
1.0
 40
1.0
 40
1.0
 40
1.0
 10
-85.9272621812
 20
0.1186994837
 30
0.0
 10
-86.0487216385
 20
0.3950318876
 30
0.0
 10
-86.5148581891
 20
1.5100610418
 30
0.0
 10
-86.8973603349
 20
2.660440072
 30
0.0
 10
-87.1301781523
 20
3.5366766101
 30
0.0
  0
SPLINE
  5
376
100
AcDbEntity
  8
0
100
AcDbSpline
 62
7
  6
CONTINUOUS
 70
0
 71
3
 72
11
 73
7
 74
0
 42
0.0000001
 43
0.0000001
 44
0.0000000001
 40
0.0
 40
0.0
 40
0.0
 40
0.0
 40
0.2847146011
 40
0.5341973315
 40
0.7632465032
 40
1.0
 40
1.0
 40
1.0
 40
1.0
 10
-87.1301776189
 20
3.5366767523
 30
0.0
 10
-87.1394886594
 20
3.571712476
 30
0.0
 10
-87.1643337812
 20
3.6360361929
 30
0.0
 10
-87.228571354
 20
3.7124529972
 30
0.0
 10
-87.3155949442
 20
3.7498377103
 30
0.0
 10
-87.3769361043
 20
3.744545285
 30
0.0
 10
-87.406053059
 20
3.736739451
 30
0.0
  0
SPLINE
  5
377
100
AcDbEntity
  8
0
100
AcDbSpline
 62
7
  6
CONTINUOUS
 70
0
 71
3
 72
9
 73
5
 74
0
 42
0.0000001
 43
0.0000001
 44
0.0000000001
 40
0.0
 40
0.0
 40
0.0
 40
0.0
 40
0.4447697473
 40
1.0
 40
1.0
 40
1.0
 40
1.0
 10
-53.6729580742
 20
15.8313456123
 30
0.0
 10
-53.486937448
 20
15.7140325347
 30
0.0
 10
-53.0926435224
 20
15.4130217017
 30
0.0
 10
-52.7261142884
 20
15.0809733183
 30
0.0
 10
-52.5267228152
 20
14.8922509982
 30
0.0
  0
SPLINE
  5
378
100
AcDbEntity
  8
0
100
AcDbSpline
 62
7
  6
CONTINUOUS
 70
0
 71
3
 72
9
 73
5
 74
0
 42
0.0000001
 43
0.0000001
 44
0.0000000001
 40
0.0
 40
0.0
 40
0.0
 40
0.0
 40
0.501387301
 40
1.0
 40
1.0
 40
1.0
 40
1.0
 10
-78.8568597358
 20
6.6140080272
 30
0.0
 10
-79.3877256946
 20
7.7252095411
 30
0.0
 10
-80.2976135319
 20
10.0161854062
 30
0.0
 10
-80.8677777942
 20
12.416051023
 30
0.0
 10
-81.0581553433
 20
13.6258465308
 30
0.0
  0
SPLINE
  5
379
100
AcDbEntity
  8
0
100
AcDbSpline
 62
7
  6
CONTINUOUS
 70
0
 71
3
 72
12
 73
8
 74
0
 42
0.0000001
 43
0.0000001
 44
0.0000000001
 40
0.0
 40
0.0
 40
0.0
 40
0.0
 40
0.224187
 40
0.4711753745
 40
0.6014328693
 40
0.7340536748
 40
1.0
 40
1.0
 40
1.0
 40
1.0
 10
-81.058154749
 20
13.6258416387
 30
0.0
 10
-81.1463352736
 20
13.6660074411
 30
0.0
 10
-81.3528508652
 20
13.7052388002
 30
0.0
 10
-81.6133440856
 20
13.6641188139
 30
0.0
 10
-81.8200704667
 20
13.5861736866
 30
0.0
 10
-82.0219503677
 20
13.4779642662
 30
0.0
 10
-82.1575353798
 20
13.3679232519
 30
0.0
 10
-82.2371790838
 20
13.2850404382
 30
0.0
  0
SPLINE
  5
37A
100
AcDbEntity
  8
0
100
AcDbSpline
 62
7
  6
CONTINUOUS
 70
0
 71
3
 72
12
 73
8
 74
0
 42
0.0000001
 43
0.0000001
 44
0.0000000001
 40
0.0
 40
0.0
 40
0.0
 40
0.0
 40
0.4111051283
 40
0.7262086441
 40
0.9230278193
 40
0.9749756307
 40
1.0
 40
1.0
 40
1.0
 40
1.0
 10
-82.2371129295
 20
13.2850034761
 30
0.0
 10
-82.2515654686
 20
13.2933518592
 30
0.0
 10
-82.277339067
 20
13.3078944717
 30
0.0
 10
-82.3101654047
 20
13.3252600098
 30
0.0
 10
-82.3316199668
 20
13.3349307016
 30
0.0
 10
-82.3417115799
 20
13.3379585518
 30
0.0
 10
-82.3454756414
 20
13.3378654888
 30
0.0
 10
-82.3460716245
 20
13.3370426939
 30
0.0
  0
SPLINE
  5
37B
100
AcDbEntity
  8
0
100
AcDbSpline
 62
7
  6
CONTINUOUS
 70
0
 71
3
 72
10
 73
6
 74
0
 42
0.0000001
 43
0.0000001
 44
0.0000000001
 40
0.0
 40
0.0
 40
0.0
 40
0.0
 40
0.2635300585
 40
0.6570657985
 40
1.0
 40
1.0
 40
1.0
 40
1.0
 10
-79.577491406
 20
6.4089119299
 30
0.0
 10
-79.5290144341
 20
6.4576105244
 30
0.0
 10
-79.3908303493
 20
6.5623508483
 30
0.0
 10
-79.1418734355
 20
6.6550932409
 30
0.0
 10
-78.940253224
 20
6.6462732941
 30
0.0
 10
-78.8568595859
 20
6.6140081415
 30
0.0
  0
SPLINE
  5
37C
100
AcDbEntity
  8
0
100
AcDbSpline
 62
7
  6
CONTINUOUS
 70
0
 71
3
 72
9
 73
5
 74
0
 42
0.0000001
 43
0.0000001
 44
0.0000000001
 40
0.0
 40
0.0
 40
0.0
 40
0.0
 40
0.4990138701
 40
1.0
 40
1.0
 40
1.0
 40
1.0
 10
-82.2371434095
 20
13.2852653603
 30
0.0
 10
-81.9625343372
 20
12.0869068909
 30
0.0
 10
-81.2315010164
 20
9.7238353838
 30
0.0
 10
-80.1770594118
 20
7.487782843
 30
0.0
 10
-79.5774908802
 20
6.4089121458
 30
0.0
  0
SPLINE
  5
37D
100
AcDbEntity
  8
0
100
AcDbSpline
 62
7
  6
CONTINUOUS
 70
0
 71
3
 72
9
 73
5
 74
0
 42
0.0000001
 43
0.0000001
 44
0.0000000001
 40
0.0
 40
0.0
 40
0.0
 40
0.0
 40
0.4978819666
 40
1.0
 40
1.0
 40
1.0
 40
1.0
 10
-79.5774912968
 20
6.4089117292
 30
0.0
 10
-78.8476574605
 20
5.0956402689
 30
0.0
 10
-77.1659920837
 20
2.5730965713
 30
0.0
 10
-75.1262385077
 20
0.3333131286
 30
0.0
 10
-74.0302583755
 20
-0.712986059
 30
0.0
  0
SPLINE
  5
37E
100
AcDbEntity
  8
0
100
AcDbSpline
 62
7
  6
CONTINUOUS
 70
0
 71
3
 72
9
 73
5
 74
0
 42
0.0000001
 43
0.0000001
 44
0.0000000001
 40
0.0
 40
0.0
 40
0.0
 40
0.0
 40
0.2845800619
 40
1.0
 40
1.0
 40
1.0
 40
1.0
 10
-73.462948296
 20
-1.241873848
 30
0.0
 10
-73.4576658402
 20
-1.2335618657
 30
0.0
 10
-73.4361251772
 20
-1.2073519816
 30
0.0
 10
-73.3971319506
 20
-1.1881382405
 30
0.0
 10
-73.3735460872
 20
-1.1956681568
 30
0.0
  0
SPLINE
  5
37F
100
AcDbEntity
  8
0
100
AcDbSpline
 62
7
  6
CONTINUOUS
 70
0
 71
3
 72
9
 73
5
 74
0
 42
0.0000001
 43
0.0000001
 44
0.0000000001
 40
0.0
 40
0.0
 40
0.0
 40
0.0
 40
0.5102698619
 40
1.0
 40
1.0
 40
1.0
 40
1.0
 10
-86.7938406588
 20
-0.4213604421
 30
0.0
 10
-85.3650280453
 20
-2.8942958924
 30
0.0
 10
-81.9458035934
 20
-7.4074065944
 30
0.0
 10
-77.5599542879
 20
-10.9750071046
 30
0.0
 10
-75.2467498948
 20
-12.4455654741
 30
0.0
  0
SPLINE
  5
380
100
AcDbEntity
  8
0
100
AcDbSpline
 62
7
  6
CONTINUOUS
 70
0
 71
3
 72
9
 73
5
 74
0
 42
0.0000001
 43
0.0000001
 44
0.0000000001
 40
0.0
 40
0.0
 40
0.0
 40
0.0
 40
0.25292625
 40
1.0
 40
1.0
 40
1.0
 40
1.0
 10
-88.3749701864
 20
2.6666653148
 30
0.0
 10
-88.4836677694
 20
2.1547010784
 30
0.0
 10
-88.8799891408
 20
0.1236256994
 30
0.0
 10
-89.1410313518
 20
-1.9341949856
 30
0.0
 10
-89.253327241
 20
-3.4760183053
 30
0.0
  0
SPLINE
  5
381
100
AcDbEntity
  8
0
100
AcDbSpline
 62
7
  6
CONTINUOUS
 70
0
 71
3
 72
10
 73
6
 74
0
 42
0.0000001
 43
0.0000001
 44
0.0000000001
 40
0.0
 40
0.0
 40
0.0
 40
0.0
 40
0.2421766244
 40
0.5007759609
 40
1.0
 40
1.0
 40
1.0
 40
1.0
 10
-87.4049200513
 20
3.4630145806
 30
0.0
 10
-87.5081064261
 20
3.4461145738
 30
0.0
 10
-87.7154341496
 20
3.3720270181
 30
0.0
 10
-88.0774740402
 20
3.1343207092
 30
0.0
 10
-88.290468011
 20
2.8649276894
 30
0.0
 10
-88.3748503772
 20
2.6665887033
 30
0.0
  0
SPLINE
  5
382
100
AcDbEntity
  8
0
100
AcDbSpline
 62
7
  6
CONTINUOUS
 70
0
 71
3
 72
10
 73
6
 74
0
 42
0.0000001
 43
0.0000001
 44
0.0000000001
 40
0.0
 40
0.0
 40
0.0
 40
0.0
 40
0.3475756224
 40
0.6316994466
 40
1.0
 40
1.0
 40
1.0
 40
1.0
 10
-88.3749830871
 20
2.6666661708
 30
0.0
 10
-88.3888059093
 20
2.6746538612
 30
0.0
 10
-88.4134581282
 20
2.6906933668
 30
0.0
 10
-88.4480040307
 20
2.7190059493
 30
0.0
 10
-88.4663968794
 20
2.7495224516
 30
0.0
 10
-88.4629925504
 20
2.7660930611
 30
0.0
  0
SPLINE
  5
383
100
AcDbEntity
  8
0
100
AcDbSpline
 62
7
  6
CONTINUOUS
 70
0
 71
3
 72
11
 73
7
 74
0
 42
0.0000001
 43
0.0000001
 44
0.0000000001
 40
0.0
 40
0.0
 40
0.0
 40
0.0
 40
0.2290155937
 40
0.4860696204
 40
0.7505244398
 40
1.0
 40
1.0
 40
1.0
 40
1.0
 10
-86.7936699962
 20
-0.4216558161
 30
0.0
 10
-86.7510963349
 20
-0.354093904
 30
0.0
 10
-86.6383138985
 20
-0.2247475384
 30
0.0
 10
-86.4282894519
 20
-0.0663332705
 30
0.0
 10
-86.1868435492
 20
0.0550074571
 30
0.0
 10
-86.0130667619
 20
0.1047930141
 30
0.0
 10
-85.927151902
 20
0.1184353592
 30
0.0
  0
SPLINE
  5
384
100
AcDbEntity
  8
0
100
AcDbSpline
 62
7
  6
CONTINUOUS
 70
0
 71
3
 72
9
 73
5
 74
0
 42
0.0000001
 43
0.0000001
 44
0.0000000001
 40
0.0
 40
0.0
 40
0.0
 40
0.0
 40
0.4931484906
 40
1.0
 40
1.0
 40
1.0
 40
1.0
 10
-62.4528684341
 20
21.1008885149
 30
0.0
 10
-63.5583579579
 20
21.0567266245
 30
0.0
 10
-65.7963615744
 20
20.8340680071
 30
0.0
 10
-67.9951444666
 20
20.3648101674
 30
0.0
 10
-69.0934820489
 20
20.070391597
 30
0.0
  0
SPLINE
  5
385
100
AcDbEntity
  8
0
100
AcDbSpline
 62
7
  6
CONTINUOUS
 70
0
 71
3
 72
9
 73
5
 74
0
 42
0.0000001
 43
0.0000001
 44
0.0000000001
 40
0.0
 40
0.0
 40
0.0
 40
0.0
 40
0.4941396359
 40
1.0
 40
1.0
 40
1.0
 40
1.0
 10
-83.4385667395
 20
-14.8677629894
 30
0.0
 10
-84.5385244456
 20
-13.8271464676
 30
0.0
 10
-86.6356840511
 20
-11.5800026561
 30
0.0
 10
-88.3984873276
 20
-9.0565724756
 30
0.0
 10
-89.1803330944
 20
-7.7180791633
 30
0.0
  0
SPLINE
  5
386
100
AcDbEntity
  8
0
100
AcDbSpline
 62
7
  6
CONTINUOUS
 70
0
 71
3
 72
11
 73
7
 74
0
 42
0.0000001
 43
0.0000001
 44
0.0000000001
 40
0.0
 40
0.0
 40
0.0
 40
0.0
 40
0.3321679299
 40
0.6036639539
 40
0.8122742383
 40
1.0
 40
1.0
 40
1.0
 40
1.0
 10
-89.1803330944
 20
-7.7180791633
 30
0.0
 10
-89.2041590106
 20
-7.6772899967
 30
0.0
 10
-89.2537470166
 20
-7.6063943829
 30
0.0
 10
-89.3415345322
 20
-7.5289756807
 30
0.0
 10
-89.4383284661
 20
-7.500402733
 30
0.0
 10
-89.4938914512
 20
-7.5269966626
 30
0.0
 10
-89.5136279269
 20
-7.5449740434
 30
0.0
  0
SPLINE
  5
387
100
AcDbEntity
  8
0
100
AcDbSpline
 62
7
  6
CONTINUOUS
 70
0
 71
3
 72
9
 73
5
 74
0
 42
0.0000001
 43
0.0000001
 44
0.0000000001
 40
0.0
 40
0.0
 40
0.0
 40
0.0
 40
0.4829861198
 40
1.0
 40
1.0
 40
1.0
 40
1.0
 10
-89.365805205
 20
-6.5343642231
 30
0.0
 10
-87.1670201461
 20
-7.8029304008
 30
0.0
 10
-82.5133054277
 20
-10.2562191518
 30
0.0
 10
-77.7109511818
 20
-12.4003895091
 30
0.0
 10
-75.2004132234
 20
-13.440141839
 30
0.0
  0
SPLINE
  5
388
100
AcDbEntity
  8
0
100
AcDbSpline
 62
7
  6
CONTINUOUS
 70
0
 71
3
 72
9
 73
5
 74
0
 42
0.0000001
 43
0.0000001
 44
0.0000000001
 40
0.0
 40
0.0
 40
0.0
 40
0.0
 40
0.4950562415
 40
1.0
 40
1.0
 40
1.0
 40
1.0
 10
-60.8140948054
 20
19.3972056815
 30
0.0
 10
-58.6894515312
 20
18.1657366052
 30
0.0
 10
-54.5481392321
 20
15.4101369068
 30
0.0
 10
-50.7648075253
 20
12.1826447131
 30
0.0
 10
-48.953193818
 20
10.4529106313
 30
0.0
  0
SPLINE
  5
389
100
AcDbEntity
  8
0
100
AcDbSpline
 62
7
  6
CONTINUOUS
 70
0
 71
3
 72
11
 73
7
 74
0
 42
0.0000001
 43
0.0000001
 44
0.0000000001
 40
0.0
 40
0.0
 40
0.0
 40
0.0
 40
0.2411393806
 40
0.4870565862
 40
0.7395691379
 40
1.0
 40
1.0
 40
1.0
 40
1.0
 10
-48.8356640074
 20
10.3391919179
 30
0.0
 10
-49.4394345829
 20
10.5649883828
 30
0.0
 10
-50.6965949439
 20
10.926182809
 30
0.0
 10
-52.6639536812
 20
11.1814769517
 30
0.0
 10
-54.6987434013
 20
11.1521113843
 30
0.0
 10
-56.0591067284
 20
10.9467617823
 30
0.0
 10
-56.7396835486
 20
10.8001930559
 30
0.0
  0
SPLINE
  5
38A
100
AcDbEntity
  8
0
100
AcDbSpline
 62
7
  6
CONTINUOUS
 70
0
 71
3
 72
9
 73
5
 74
0
 42
0.0000001
 43
0.0000001
 44
0.0000000001
 40
0.0
 40
0.0
 40
0.0
 40
0.0
 40
0.5163578331
 40
1.0
 40
1.0
 40
1.0
 40
1.0
 10
-75.0316353898
 20
-13.5099029416
 30
0.0
 10
-75.0316380085
 20
-15.0025799638
 30
0.0
 10
-74.7331259131
 20
-17.9048413272
 30
0.0
 10
-73.7423004653
 20
-20.6605963338
 30
0.0
 10
-73.0879859421
 20
-21.8961387751
 30
0.0
  0
SPLINE
  5
38B
100
AcDbEntity
  8
0
100
AcDbSpline
 62
7
  6
CONTINUOUS
 70
0
 71
3
 72
10
 73
6
 74
0
 42
0.0000001
 43
0.0000001
 44
0.0000000001
 40
0.0
 40
0.0
 40
0.0
 40
0.0
 40
0.2417243787
 40
0.4892135874
 40
1.0
 40
1.0
 40
1.0
 40
1.0
 10
-74.5402788769
 20
-21.1723495344
 30
0.0
 10
-75.3210706936
 20
-20.7641300917
 30
0.0
 10
-76.8784847898
 20
-19.8926113801
 30
0.0
 10
-79.9331517335
 20
-17.9008520362
 30
0.0
 10
-82.0861143186
 20
-16.1472508901
 30
0.0
 10
-83.4385658378
 20
-14.8677624661
 30
0.0
  0
SPLINE
  5
38C
100
AcDbEntity
  8
0
100
AcDbSpline
 62
7
  6
CONTINUOUS
 70
0
 71
3
 72
9
 73
5
 74
0
 42
0.0000001
 43
0.0000001
 44
0.0000000001
 40
0.0
 40
0.0
 40
0.0
 40
0.0
 40
0.2451583175
 40
1.0
 40
1.0
 40
1.0
 40
1.0
 10
-83.4385667395
 20
-14.8677629894
 30
0.0
 10
-83.9990384608
 20
-14.3714933012
 30
0.0
 10
-86.2395346884
 20
-12.2964518912
 30
0.0
 10
-88.2886038898
 20
-10.0128162553
 30
0.0
 10
-89.6954858385
 20
-8.1870247786
 30
0.0
  0
SPLINE
  5
38D
100
AcDbEntity
  8
0
100
AcDbSpline
 62
7
  6
CONTINUOUS
 70
0
 71
3
 72
11
 73
7
 74
0
 42
0.0000001
 43
0.0000001
 44
0.0000000001
 40
0.0
 40
0.0
 40
0.0
 40
0.0
 40
0.2751653538
 40
0.5452905892
 40
0.7905026408
 40
1.0
 40
1.0
 40
1.0
 40
1.0
 10
-89.6954858233
 20
-8.1870248701
 30
0.0
 10
-89.7863817603
 20
-8.2567572655
 30
0.0
 10
-89.9490552882
 20
-8.4184335894
 30
0.0
 10
-90.1312072785
 20
-8.6953580012
 30
0.0
 10
-90.2378380863
 20
-8.9805406059
 30
0.0
 10
-90.252342167
 20
-9.1736887794
 30
0.0
 10
-90.2404650051
 20
-9.2600989571
 30
0.0
  0
SPLINE
  5
38E
100
AcDbEntity
  8
0
100
AcDbSpline
 62
7
  6
CONTINUOUS
 70
0
 71
3
 72
9
 73
5
 74
0
 42
0.0000001
 43
0.0000001
 44
0.0000000001
 40
0.0
 40
0.0
 40
0.0
 40
0.0
 40
0.2680329864
 40
1.0
 40
1.0
 40
1.0
 40
1.0
 10
-90.2403996814
 20
-9.2601360055
 30
0.0
 10
-90.2503570325
 20
-9.2543920419
 30
0.0
 10
-90.2859297529
 20
-9.2306231842
 30
0.0
 10
-90.314398337
 20
-9.1942207779
 30
0.0
 10
-90.323944292
 20
-9.1643150288
 30
0.0
  0
SPLINE
  5
38F
100
AcDbEntity
  8
0
100
AcDbSpline
 62
7
  6
CONTINUOUS
 70
0
 71
3
 72
10
 73
6
 74
0
 42
0.0000001
 43
0.0000001
 44
0.0000000001
 40
0.0
 40
0.0
 40
0.0
 40
0.0
 40
0.4067570355
 40
0.6966183396
 40
1.0
 40
1.0
 40
1.0
 40
1.0
 10
-79.1542076526
 20
-23.1623112771
 30
0.0
 10
-79.1540527888
 20
-23.2143610002
 30
0.0
 10
-79.0646061681
 20
-23.2833807022
 30
0.0
 10
-78.9488602045
 20
-23.3231761903
 30
0.0
 10
-78.8733028957
 20
-23.3395858857
 30
0.0
 10
-78.834924885
 20
-23.3454384826
 30
0.0
  0
SPLINE
  5
390
100
AcDbEntity
  8
0
100
AcDbSpline
 62
7
  6
CONTINUOUS
 70
0
 71
3
 72
9
 73
5
 74
0
 42
0.0000001
 43
0.0000001
 44
0.0000000001
 40
0.0
 40
0.0
 40
0.0
 40
0.0
 40
0.506747615
 40
1.0
 40
1.0
 40
1.0
 40
1.0
 10
-90.240383781
 20
-9.2601268641
 30
0.0
 10
-89.8915005646
 20
-10.3445146089
 30
0.0
 10
-89.0869903245
 20
-12.4491613064
 30
0.0
 10
-88.0442869057
 20
-14.4474510055
 30
0.0
 10
-87.4717996433
 20
-15.3970199014
 30
0.0
  0
SPLINE
  5
391
100
AcDbEntity
  8
0
100
AcDbSpline
 62
7
  6
CONTINUOUS
 70
0
 71
3
 72
9
 73
5
 74
0
 42
0.0000001
 43
0.0000001
 44
0.0000000001
 40
0.0
 40
0.0
 40
0.0
 40
0.0
 40
0.2589996006
 40
1.0
 40
1.0
 40
1.0
 40
1.0
 10
-83.7709616551
 20
-15.4943079288
 30
0.0
 10
-83.0912059813
 20
-16.0369135213
 30
0.0
 10
-80.4110662921
 20
-18.0612116774
 30
0.0
 10
-77.5207059082
 20
-19.8079224283
 30
0.0
 10
-75.2936361002
 20
-20.9180145922
 30
0.0
  0
SPLINE
  5
392
100
AcDbEntity
  8
0
100
AcDbSpline
 62
7
  6
CONTINUOUS
 70
0
 71
3
 72
14
 73
10
 74
0
 42
0.0000001
 43
0.0000001
 44
0.0000000001
 40
0.0
 40
0.0
 40
0.0
 40
0.0
 40
0.0285944226
 40
0.0941546635
 40
0.1966036402
 40
0.3301195252
 40
0.4855314519
 40
0.6539796827
 40
1.0
 40
1.0
 40
1.0
 40
1.0
 10
-86.7613659079
 20
-17.7789887849
 30
0.0
 10
-86.7628065045
 20
-17.7822564009
 30
0.0
 10
-86.7534032162
 20
-17.793897165
 30
0.0
 10
-86.7358412752
 20
-17.8074796626
 30
0.0
 10
-86.7036333691
 20
-17.8292889332
 30
0.0
 10
-86.6619683394
 20
-17.8539397678
 30
0.0
 10
-86.6119245101
 20
-17.8818216374
 30
0.0
 10
-86.5379584858
 20
-17.920789215
 30
0.0
 10
-86.4803963048
 20
-17.9494098284
 30
0.0
 10
-86.4414784654
 20
-17.9681931893
 30
0.0
  0
SPLINE
  5
393
100
AcDbEntity
  8
0
100
AcDbSpline
 62
7
  6
CONTINUOUS
 70
0
 71
3
 72
10
 73
6
 74
0
 42
0.0000001
 43
0.0000001
 44
0.0000000001
 40
0.0
 40
0.0
 40
0.0
 40
0.0
 40
0.1922182261
 40
0.4368949829
 40
1.0
 40
1.0
 40
1.0
 40
1.0
 10
-83.7709618151
 20
-15.4943078018
 30
0.0
 10
-83.7777720758
 20
-15.4481057276
 30
0.0
 10
-83.763680265
 20
-15.3395476567
 30
0.0
 10
-83.668438967
 20
-15.1152818593
 30
0.0
 10
-83.5411377053
 20
-14.9582985335
 30
0.0
 10
-83.438566742
 20
-14.8677629843
 30
0.0
  0
SPLINE
  5
394
100
AcDbEntity
  8
0
100
AcDbSpline
 62
7
  6
CONTINUOUS
 70
0
 71
3
 72
9
 73
5
 74
0
 42
0.0000001
 43
0.0000001
 44
0.0000000001
 40
0.0
 40
0.0
 40
0.0
 40
0.0
 40
0.4562791649
 40
1.0
 40
1.0
 40
1.0
 40
1.0
 10
-74.5670643707
 20
-21.272163795
 30
0.0
 10
-74.5738268083
 20
-21.2573594786
 30
0.0
 10
-74.5712141821
 20
-21.21850455
 30
0.0
 10
-74.5534207328
 20
-21.1866134174
 30
0.0
 10
-74.5402796516
 20
-21.1723491407
 30
0.0
  0
SPLINE
  5
395
100
AcDbEntity
  8
0
100
AcDbSpline
 62
7
  6
CONTINUOUS
 70
0
 71
3
 72
21
 73
17
 74
0
 42
0.0000001
 43
0.0000001
 44
0.0000000001
 40
0.0
 40
0.0
 40
0.0
 40
0.0
 40
0.2619311184
 40
0.3923451992
 40
0.5221084358
 40
0.6508008393
 40
0.7775442677
 40
0.8395699786
 40
0.8998583265
 40
0.9288476807
 40
0.9563842594
 40
0.9692105451
 40
0.9809061724
 40
0.9905944843
 40
0.9947076303
 40
1.0
 40
1.0
 40
1.0
 40
1.0
 10
-69.5255357137
 20
20.0111553451
 30
0.0
 10
-69.6011548715
 20
19.9901172973
 30
0.0
 10
-69.7141057607
 20
19.9574337533
 30
0.0
 10
-69.8635910701
 20
19.9112406554
 30
0.0
 10
-69.9744519405
 20
19.8753207908
 30
0.0
 10
-70.0836635738
 20
19.8379308249
 30
0.0
 10
-70.172996057
 20
19.8051803976
 30
0.0
 10
-70.2423286336
 20
19.7775388095
 30
0.0
 10
-70.2839671153
 20
19.759575132
 30
0.0
 10
-70.31551596
 20
19.7443629475
 30
0.0
 10
-70.3337790019
 20
19.7344844481
 30
0.0
 10
-70.3469952087
 20
19.7260428495
 30
0.0
 10
-70.3548800214
 20
19.7197219935
 30
0.0
 10
-70.3604981331
 20
19.7138828739
 30
0.0
 10
-70.36075209
 20
19.7077109456
 30
0.0
 10
-70.3583742893
 20
19.7055906705
 30
0.0
 10
-70.356998257
 20
19.7048021884
 30
0.0
  0
SPLINE
  5
396
100
AcDbEntity
  8
0
100
AcDbSpline
 62
7
  6
CONTINUOUS
 70
0
 71
3
 72
11
 73
7
 74
0
 42
0.0000001
 43
0.0000001
 44
0.0000000001
 40
0.0
 40
0.0
 40
0.0
 40
0.0
 40
0.2763602044
 40
0.5357640144
 40
0.7771821349
 40
1.0
 40
1.0
 40
1.0
 40
1.0
 10
-70.5153919102
 20
14.3965640368
 30
0.0
 10
-70.6663145649
 20
14.8326553135
 30
0.0
 10
-70.9241156749
 20
15.6907995662
 30
0.0
 10
-71.1758131319
 20
16.9662991336
 30
0.0
 10
-71.2750649045
 20
18.1733049136
 30
0.0
 10
-71.2345531084
 20
18.9508849434
 30
0.0
 10
-71.183749301
 20
19.3194632233
 30
0.0
  0
SPLINE
  5
397
100
AcDbEntity
  8
0
100
AcDbSpline
 62
7
  6
CONTINUOUS
 70
0
 71
3
 72
11
 73
7
 74
0
 42
0.0000001
 43
0.0000001
 44
0.0000000001
 40
0.0
 40
0.0
 40
0.0
 40
0.0
 40
0.213209952
 40
0.4556484161
 40
0.7240181576
 40
1.0
 40
1.0
 40
1.0
 40
1.0
 10
-87.6940226583
 20
3.6595634255
 30
0.0
 10
-87.6685325442
 20
3.6663895435
 30
0.0
 10
-87.6089464099
 20
3.6633250131
 30
0.0
 10
-87.5295467947
 20
3.6179443546
 30
0.0
 10
-87.4605008444
 20
3.5483132823
 30
0.0
 10
-87.4222331028
 20
3.4924767874
 30
0.0
 10
-87.4049277501
 20
3.463027682
 30
0.0
  0
SPLINE
  5
398
100
AcDbEntity
  8
0
100
AcDbSpline
 62
7
  6
CONTINUOUS
 70
0
 71
3
 72
9
 73
5
 74
0
 42
0.0000001
 43
0.0000001
 44
0.0000000001
 40
0.0
 40
0.0
 40
0.0
 40
0.0
 40
0.4860172551
 40
1.0
 40
1.0
 40
1.0
 40
1.0
 10
-70.356998257
 20
19.7048021884
 30
0.0
 10
-68.1780255309
 20
18.4444725984
 30
0.0
 10
-63.824206367
 20
15.6232837729
 30
0.0
 10
-59.736410626
 20
12.4324594332
 30
0.0
 10
-57.7021234144
 20
10.7154282368
 30
0.0
  0
SPLINE
  5
399
100
AcDbEntity
  8
0
100
AcDbSpline
 62
7
  6
CONTINUOUS
 70
0
 71
3
 72
9
 73
5
 74
0
 42
0.0000001
 43
0.0000001
 44
0.0000000001
 40
0.0
 40
0.0
 40
0.0
 40
0.0
 40
0.4852940909
 40
1.0
 40
1.0
 40
1.0
 40
1.0
 10
-57.5666035965
 20
10.6003061125
 30
0.0
 10
-58.9957331487
 20
10.2172004906
 30
0.0
 10
-61.8464434569
 20
9.0499893325
 30
0.0
 10
-64.3729430902
 20
7.3025676737
 30
0.0
 10
-65.5734018069
 20
6.2918862432
 30
0.0
  0
SPLINE
  5
39A
100
AcDbEntity
  8
0
100
AcDbSpline
 62
7
  6
CONTINUOUS
 70
0
 71
3
 72
9
 73
5
 74
0
 42
0.0000001
 43
0.0000001
 44
0.0000000001
 40
0.0
 40
0.0
 40
0.0
 40
0.0
 40
0.4996162927
 40
1.0
 40
1.0
 40
1.0
 40
1.0
 10
-81.2127525602
 20
13.8128248589
 30
0.0
 10
-81.173882455
 20
13.798238025
 30
0.0
 10
-81.1049023339
 20
13.7432589528
 30
0.0
 10
-81.0698589039
 20
13.6657469691
 30
0.0
 10
-81.0581563136
 20
13.6258469778
 30
0.0
  0
SPLINE
  5
39B
100
AcDbEntity
  8
0
100
AcDbSpline
 62
7
  6
CONTINUOUS
 70
0
 71
3
 72
25
 73
21
 74
0
 42
0.0000001
 43
0.0000001
 44
0.0000000001
 40
0.0
 40
0.0
 40
0.0
 40
0.0
 40
0.1255872849
 40
0.2511890302
 40
0.3768010672
 40
0.5024172292
 40
0.5652243072
 40
0.6280276444
 40
0.6908234653
 40
0.753604774
 40
0.8163565374
 40
0.847711489
 40
0.8790399275
 40
0.9103198962
 40
0.9414949422
 40
0.9569955925
 40
0.9723550885
 40
0.9873097889
 40
0.9942824433
 40
1.0
 40
1.0
 40
1.0
 40
1.0
 10
-86.0792932665
 20
6.6770852721
 30
0.0
 10
-86.1166146676
 20
6.5973737551
 30
0.0
 10
-86.1902804918
 20
6.4374799017
 30
0.0
 10
-86.2977535611
 20
6.1962558096
 30
0.0
 10
-86.4020610741
 20
5.9536232621
 30
0.0
 10
-86.4861432757
 20
5.7502212102
 30
0.0
 10
-86.5514728784
 20
5.5867196855
 30
0.0
 10
-86.5994008623
 20
5.4636814302
 30
0.0
 10
-86.6461191077
 20
5.3401973769
 30
0.0
 10
-86.6913990603
 20
5.2162164895
 30
0.0
 10
-86.7276292825
 20
5.1123979849
 30
0.0
 10
-86.7553180714
 20
5.0289608036
 30
0.0
 10
-86.7752395911
 20
4.9661920645
 30
0.0
 10
-86.7939979255
 20
4.9031897724
 30
0.0
 10
-86.8082061267
 20
4.8504387857
 30
0.0
 10
-86.8179249795
 20
4.8080181289
 30
0.0
 10
-86.823835595
 20
4.7765568786
 30
0.0
 10
-86.8267207886
 20
4.7502024203
 30
0.0
 10
-86.8259188802
 20
4.7313174517
 30
0.0
 10
-86.8223441883
 20
4.7217982734
 30
0.0
 10
-86.8188608221
 20
4.719817683
 30
0.0
  0
SPLINE
  5
39C
100
AcDbEntity
  8
0
100
AcDbSpline
 62
7
  6
CONTINUOUS
 70
0
 71
3
 72
9
 73
5
 74
0
 42
0.0000001
 43
0.0000001
 44
0.0000000001
 40
0.0
 40
0.0
 40
0.0
 40
0.0
 40
0.5161255254
 40
1.0
 40
1.0
 40
1.0
 40
1.0
 10
-70.5153919102
 20
14.3965640368
 30
0.0
 10
-70.8338790558
 20
15.2918443443
 30
0.0
 10
-71.323986163
 20
17.0756289657
 30
0.0
 10
-71.4935908835
 20
18.9220127583
 30
0.0
 10
-71.4811723332
 20
19.8127910911
 30
0.0
  0
SPLINE
  5
39D
100
AcDbEntity
  8
0
100
AcDbSpline
 62
7
  6
CONTINUOUS
 70
0
 71
3
 72
10
 73
6
 74
0
 42
0.0000001
 43
0.0000001
 44
0.0000000001
 40
0.0
 40
0.0
 40
0.0
 40
0.0
 40
0.2687151797
 40
0.5257664071
 40
1.0
 40
1.0
 40
1.0
 40
1.0
 10
-66.6614571314
 20
7.6097425432
 30
0.0
 10
-67.0955415389
 20
8.1612435662
 30
0.0
 10
-67.9141220124
 20
9.2657865184
 30
0.0
 10
-69.2999007319
 20
11.4813159989
 30
0.0
 10
-70.110301392
 20
13.226053241
 30
0.0
 10
-70.515392088
 20
14.3965626195
 30
0.0
  0
SPLINE
  5
39E
100
AcDbEntity
  8
0
100
AcDbSpline
 62
7
  6
CONTINUOUS
 70
0
 71
3
 72
21
 73
17
 74
0
 42
0.0000001
 43
0.0000001
 44
0.0000000001
 40
0.0
 40
0.0
 40
0.0
 40
0.0
 40
0.1267094298
 40
0.2535123663
 40
0.3803725986
 40
0.5072264232
 40
0.6339538584
 40
0.697200533
 40
0.7602966883
 40
0.8231348718
 40
0.885487036
 40
0.9163182284
 40
0.9466882827
 40
0.9760028527
 40
0.9895457752
 40
1.0
 40
1.0
 40
1.0
 40
1.0
 10
-78.6370854915
 20
15.6133779075
 30
0.0
 10
-78.6933643604
 20
15.5629361466
 30
0.0
 10
-78.8053348223
 20
15.4613111352
 30
0.0
 10
-78.9713677465
 20
15.3066919753
 30
0.0
 10
-79.1353764406
 20
15.1498008082
 30
0.0
 10
-79.2970661477
 20
14.990583593
 30
0.0
 10
-79.4295381357
 20
14.8558038778
 30
0.0
 10
-79.5336747398
 20
14.7465293669
 30
0.0
 10
-79.610509468
 20
14.6638974036
 30
0.0
 10
-79.6856708544
 20
14.5804158993
 30
0.0
 10
-79.7464170651
 20
14.5099969012
 30
0.0
 10
-79.7928347193
 20
14.4525501555
 30
0.0
 10
-79.8254832163
 20
14.4101278426
 30
0.0
 10
-79.8499303531
 20
14.3721228208
 30
0.0
 10
-79.864335191
 20
14.3467485942
 30
0.0
 10
-79.8667739694
 20
14.3272614602
 30
0.0
 10
-79.8613562231
 20
14.3241746617
 30
0.0
  0
SPLINE
  5
39F
100
AcDbEntity
  8
0
100
AcDbSpline
 62
7
  6
CONTINUOUS
 70
0
 71
3
 72
10
 73
6
 74
0
 42
0.0000001
 43
0.0000001
 44
0.0000000001
 40
0.0
 40
0.0
 40
0.0
 40
0.0
 40
0.234748787
 40
0.4798608967
 40
1.0
 40
1.0
 40
1.0
 40
1.0
 10
-71.6157801412
 20
19.9792947459
 30
0.0
 10
-71.6759650806
 20
20.0329872268
 30
0.0
 10
-71.8199528139
 20
20.1209139546
 30
0.0
 10
-72.1584149285
 20
20.2001440019
 30
0.0
 10
-72.4311449418
 20
20.1481346038
 30
0.0
 10
-72.5954158325
 20
20.0777673887
 30
0.0
  0
SPLINE
  5
3A0
100
AcDbEntity
  8
0
100
AcDbSpline
 62
7
  6
CONTINUOUS
 70
0
 71
3
 72
10
 73
6
 74
0
 42
0.0000001
 43
0.0000001
 44
0.0000000001
 40
0.0
 40
0.0
 40
0.0
 40
0.0
 40
0.3087445314
 40
0.6935042665
 40
1.0
 40
1.0
 40
1.0
 40
1.0
 10
-72.5953494953
 20
20.0777299922
 30
0.0
 10
-72.6083543207
 20
20.0852476353
 30
0.0
 10
-72.6386326777
 20
20.1001748775
 30
0.0
 10
-72.6863858461
 20
20.1136769511
 30
0.0
 10
-72.7213827306
 20
20.1059055798
 30
0.0
 10
-72.7339610824
 20
20.0978961775
 30
0.0
  0
SPLINE
  5
3A1
100
AcDbEntity
  8
0
100
AcDbSpline
 62
7
  6
CONTINUOUS
 70
0
 71
3
 72
9
 73
5
 74
0
 42
0.0000001
 43
0.0000001
 44
0.0000000001
 40
0.0
 40
0.0
 40
0.0
 40
0.0
 40
0.5014071409
 40
1.0
 40
1.0
 40
1.0
 40
1.0
 10
-44.5143136509
 20
7.5806108336
 30
0.0
 10
-45.037988951
 20
8.095373289
 30
0.0
 10
-46.1743021495
 20
9.0329985816
 30
0.0
 10
-47.4607587562
 20
9.7514247978
 30
0.0
 10
-48.1275261272
 20
10.0490847943
 30
0.0
  0
SPLINE
  5
3A2
100
AcDbEntity
  8
0
100
AcDbSpline
 62
7
  6
CONTINUOUS
 70
0
 71
3
 72
9
 73
5
 74
0
 42
0.0000001
 43
0.0000001
 44
0.0000000001
 40
0.0
 40
0.0
 40
0.0
 40
0.0
 40
0.2464035699
 40
1.0
 40
1.0
 40
1.0
 40
1.0
 10
-72.6819434521
 20
20.0226129397
 30
0.0
 10
-73.1947695995
 20
19.6954389128
 30
0.0
 10
-75.247280163
 20
18.3229663466
 30
0.0
 10
-77.1829522251
 20
16.7770780871
 30
0.0
 10
-78.5662459431
 20
15.5330191071
 30
0.0
  0
SPLINE
  5
3A3
100
AcDbEntity
  8
0
100
AcDbSpline
 62
7
  6
CONTINUOUS
 70
0
 71
3
 72
9
 73
5
 74
0
 42
0.0000001
 43
0.0000001
 44
0.0000000001
 40
0.0
 40
0.0
 40
0.0
 40
0.0
 40
0.2391202519
 40
1.0
 40
1.0
 40
1.0
 40
1.0
 10
-72.5953321141
 20
20.0779176551
 30
0.0
 10
-72.5635812936
 20
19.623498414
 30
0.0
 10
-72.3387904961
 20
17.7297296286
 30
0.0
 10
-71.7709817308
 20
15.8845910735
 30
0.0
 10
-71.2050833045
 20
14.5501370622
 30
0.0
  0
SPLINE
  5
3A4
100
AcDbEntity
  8
0
100
AcDbSpline
 62
7
  6
CONTINUOUS
 70
0
 71
3
 72
16
 73
12
 74
0
 42
0.0000001
 43
0.0000001
 44
0.0000000001
 40
0.0
 40
0.0
 40
0.0
 40
0.0
 40
0.2424176027
 40
0.4876732455
 40
0.6120821267
 40
0.7385257976
 40
0.8029411439
 40
0.8685974903
 40
0.9360211673
 40
0.9701057388
 40
1.0
 40
1.0
 40
1.0
 40
1.0
 10
-87.1151961451
 20
-16.0143614683
 30
0.0
 10
-87.0929559559
 20
-16.0488667029
 30
0.0
 10
-87.0478087031
 20
-16.1180201536
 30
0.0
 10
-86.9899207874
 20
-16.2040069666
 30
0.0
 10
-86.9419291307
 20
-16.2729658102
 30
0.0
 10
-86.9108045016
 20
-16.316343346
 30
0.0
 10
-86.8848696868
 20
-16.3512002689
 30
0.0
 10
-86.864406507
 20
-16.3776323318
 30
0.0
 10
-86.8464915873
 20
-16.3996365474
 30
0.0
 10
-86.8313279854
 20
-16.4158085623
 30
0.0
 10
-86.8234201348
 20
-16.4234682117
 30
0.0
 10
-86.8190279821
 20
-16.4259854736
 30
0.0
  0
SPLINE
  5
3A5
100
AcDbEntity
  8
0
100
AcDbSpline
 62
7
  6
CONTINUOUS
 70
0
 71
3
 72
9
 73
5
 74
0
 42
0.0000001
 43
0.0000001
 44
0.0000000001
 40
0.0
 40
0.0
 40
0.0
 40
0.0
 40
0.2381792454
 40
1.0
 40
1.0
 40
1.0
 40
1.0
 10
-71.2050857201
 20
14.5501359852
 30
0.0
 10
-70.9617115916
 20
13.9762315044
 30
0.0
 10
-69.8331234754
 20
11.6121499435
 30
0.0
 10
-68.3174331489
 20
9.443295376
 30
0.0
 10
-67.0308008962
 20
7.9200978661
 30
0.0
  0
SPLINE
  5
3A6
100
AcDbEntity
  8
0
100
AcDbSpline
 62
7
  6
CONTINUOUS
 70
0
 71
3
 72
12
 73
8
 74
0
 42
0.0000001
 43
0.0000001
 44
0.0000000001
 40
0.0
 40
0.0
 40
0.0
 40
0.0
 40
0.1350485257
 40
0.2407969314
 40
0.3706729918
 40
0.6760980968
 40
1.0
 40
1.0
 40
1.0
 40
1.0
 10
-90.021504239
 20
-8.0073365553
 30
0.0
 10
-90.0086151081
 20
-7.9956546686
 30
0.0
 10
-89.9713764805
 20
-7.9975581649
 30
0.0
 10
-89.9282783701
 20
-8.0143532647
 30
0.0
 10
-89.866047979
 20
-8.0474054084
 30
0.0
 10
-89.7870646419
 20
-8.1050463701
 30
0.0
 10
-89.7258773678
 20
-8.1584416278
 30
0.0
 10
-89.6954858309
 20
-8.1870248624
 30
0.0
  0
SPLINE
  5
3A7
100
AcDbEntity
  8
0
100
AcDbSpline
 62
7
  6
CONTINUOUS
 70
0
 71
3
 72
9
 73
5
 74
0
 42
0.0000001
 43
0.0000001
 44
0.0000000001
 40
0.0
 40
0.0
 40
0.0
 40
0.0
 40
0.2439558787
 40
1.0
 40
1.0
 40
1.0
 40
1.0
 10
-78.4530278663
 20
-22.8089278563
 30
0.0
 10
-79.1259235106
 20
-22.4559757352
 30
0.0
 10
-81.8633210838
 20
-20.9700647573
 30
0.0
 10
-84.5120472747
 20
-19.318210342
 30
0.0
 10
-86.4414786229
 20
-17.9681933874
 30
0.0
  0
SPLINE
  5
3A8
100
AcDbEntity
  8
0
100
AcDbSpline
 62
7
  6
CONTINUOUS
 70
0
 71
3
 72
9
 73
5
 74
0
 42
0.0000001
 43
0.0000001
 44
0.0000000001
 40
0.0
 40
0.0
 40
0.0
 40
0.0
 40
0.2437994346
 40
1.0
 40
1.0
 40
1.0
 40
1.0
 10
-78.4530278663
 20
-22.8089278563
 30
0.0
 10
-79.1215902096
 20
-22.4291722252
 30
0.0
 10
-81.8274161137
 20
-20.809659546
 30
0.0
 10
-84.3760810544
 20
-18.9160201964
 30
0.0
 10
-86.1440544628
 20
-17.3154089069
 30
0.0
  0
SPLINE
  5
3A9
100
AcDbEntity
  8
0
100
AcDbSpline
 62
7
  6
CONTINUOUS
 70
0
 71
3
 72
14
 73
10
 74
0
 42
0.0000001
 43
0.0000001
 44
0.0000000001
 40
0.0
 40
0.0
 40
0.0
 40
0.0
 40
0.3888237076
 40
0.5566112421
 40
0.6990670817
 40
0.8125143062
 40
0.8960710342
 40
0.9537729187
 40
1.0
 40
1.0
 40
1.0
 40
1.0
 10
-86.144054473
 20
-17.3154089272
 30
0.0
 10
-86.1817485099
 20
-17.2812830518
 30
0.0
 10
-86.2373368468
 20
-17.2340925544
 30
0.0
 10
-86.3117614376
 20
-17.1808912816
 30
0.0
 10
-86.3590592475
 20
-17.1519725815
 30
0.0
 10
-86.3993686106
 20
-17.1328598105
 30
0.0
 10
-86.4314123514
 20
-17.1237686628
 30
0.0
 10
-86.4571883781
 20
-17.1245715085
 30
0.0
 10
-86.4679986994
 20
-17.1350522927
 30
0.0
 10
-86.4704996139
 20
-17.1405558885
 30
0.0
  0
SPLINE
  5
3AA
100
AcDbEntity
  8
0
100
AcDbSpline
 62
7
  6
CONTINUOUS
 70
0
 71
3
 72
9
 73
5
 74
0
 42
0.0000001
 43
0.0000001
 44
0.0000000001
 40
0.0
 40
0.0
 40
0.0
 40
0.0
 40
0.4898772538
 40
1.0
 40
1.0
 40
1.0
 40
1.0
 10
-86.8190279821
 20
-16.4259854736
 30
0.0
 10
-84.6594809397
 20
-17.6711964808
 30
0.0
 10
-80.1002100329
 20
-19.9577580646
 30
0.0
 10
-75.3269583526
 20
-21.7488686201
 30
0.0
 10
-72.856006213
 20
-22.5443807832
 30
0.0
  0
SPLINE
  5
3AB
100
AcDbEntity
  8
0
100
AcDbSpline
 62
7
  6
CONTINUOUS
 70
0
 71
3
 72
11
 73
7
 74
0
 42
0.0000001
 43
0.0000001
 44
0.0000000001
 40
0.0
 40
0.0
 40
0.0
 40
0.0
 40
0.2559938964
 40
0.5064892358
 40
0.7536714088
 40
1.0
 40
1.0
 40
1.0
 40
1.0
 10
-72.6905102295
 20
-22.5989505343
 30
0.0
 10
-72.3487312941
 20
-23.1656418317
 30
0.0
 10
-71.5929962041
 20
-24.2414575008
 30
0.0
 10
-70.2438094384
 20
-25.657157913
 30
0.0
 10
-68.7126760033
 20
-26.8335931547
 30
0.0
 10
-67.5863275753
 20
-27.4457916992
 30
0.0
 10
-67.0048462973
 20
-27.7053780583
 30
0.0
  0
SPLINE
  5
3AC
100
AcDbEntity
  8
0
100
AcDbSpline
 62
7
  6
CONTINUOUS
 70
0
 71
3
 72
9
 73
5
 74
0
 42
0.0000001
 43
0.0000001
 44
0.0000000001
 40
0.0
 40
0.0
 40
0.0
 40
0.0
 40
0.2410092202
 40
1.0
 40
1.0
 40
1.0
 40
1.0
 10
-71.0635392747
 20
-26.2976613589
 30
0.0
 10
-71.676056805
 20
-26.0605865879
 30
0.0
 10
-74.2009117325
 20
-25.0349266987
 30
0.0
 10
-76.6545178285
 20
-23.8305112081
 30
0.0
 10
-78.4530256539
 20
-22.8089259056
 30
0.0
  0
SPLINE
  5
3AD
100
AcDbEntity
  8
0
100
AcDbSpline
 62
7
  6
CONTINUOUS
 70
0
 71
3
 72
10
 73
6
 74
0
 42
0.0000001
 43
0.0000001
 44
0.0000000001
 40
0.0
 40
0.0
 40
0.0
 40
0.0
 40
0.2938093861
 40
0.5645010176
 40
1.0
 40
1.0
 40
1.0
 40
1.0
 10
-86.4414793773
 20
-17.9681927499
 30
0.0
 10
-86.4845546531
 20
-18.0450684712
 30
0.0
 10
-86.5541766525
 20
-18.2011224669
 30
0.0
 10
-86.6277979962
 20
-18.4906494495
 30
0.0
 10
-86.6192033373
 20
-18.7175583149
 30
0.0
 10
-86.563461907
 20
-18.8356848859
 30
0.0
  0
SPLINE
  5
3AE
100
AcDbEntity
  8
0
100
AcDbSpline
 62
7
  6
CONTINUOUS
 70
0
 71
3
 72
9
 73
5
 74
0
 42
0.0000001
 43
0.0000001
 44
0.0000000001
 40
0.0
 40
0.0
 40
0.0
 40
0.0
 40
0.261567657
 40
1.0
 40
1.0
 40
1.0
 40
1.0
 10
-86.563461907
 20
-18.8356848859
 30
0.0
 10
-86.5577467241
 20
-18.8477964288
 30
0.0
 10
-86.5338480902
 20
-18.8930753274
 30
0.0
 10
-86.5011331569
 20
-18.9339311588
 30
0.0
 10
-86.4727585933
 20
-18.958917342
 30
0.0
  0
SPLINE
  5
3AF
100
AcDbEntity
  8
0
100
AcDbSpline
 62
7
  6
CONTINUOUS
 70
0
 71
3
 72
13
 73
9
 74
0
 42
0.0000001
 43
0.0000001
 44
0.0000000001
 40
0.0
 40
0.0
 40
0.0
 40
0.0
 40
0.0776288756
 40
0.1648172417
 40
0.2670399184
 40
0.3863569451
 40
0.6716014673
 40
1.0
 40
1.0
 40
1.0
 40
1.0
 10
-78.4704669602
 20
-23.385456528
 30
0.0
 10
-78.4844836962
 20
-23.3777895558
 30
0.0
 10
-78.5108425512
 20
-23.3547994341
 30
0.0
 10
-78.5369606321
 20
-23.3054836298
 30
0.0
 10
-78.5512235576
 20
-23.2430338969
 30
0.0
 10
-78.5548702407
 20
-23.1383592625
 30
0.0
 10
-78.527230235
 20
-22.9885066234
 30
0.0
 10
-78.481981753
 20
-22.8699987045
 30
0.0
 10
-78.4530278713
 20
-22.8089278563
 30
0.0
  0
SPLINE
  5
3B0
100
AcDbEntity
  8
0
100
AcDbSpline
 62
7
  6
CONTINUOUS
 70
0
 71
3
 72
10
 73
6
 74
0
 42
0.0000001
 43
0.0000001
 44
0.0000000001
 40
0.0
 40
0.0
 40
0.0
 40
0.0
 40
0.4206480943
 40
0.6972156658
 40
1.0
 40
1.0
 40
1.0
 40
1.0
 10
-68.4770912878
 20
-27.3126911983
 30
0.0
 10
-68.4897362765
 20
-27.3079051347
 30
0.0
 10
-68.5033323606
 20
-27.2845337717
 30
0.0
 10
-68.5036375746
 20
-27.2526696978
 30
0.0
 10
-68.4996160358
 20
-27.2341571948
 30
0.0
 10
-68.4963472996
 20
-27.2249904898
 30
0.0
  0
SPLINE
  5
3B1
100
AcDbEntity
  8
0
100
AcDbSpline
 62
7
  6
CONTINUOUS
 70
0
 71
3
 72
11
 73
7
 74
0
 42
0.0000001
 43
0.0000001
 44
0.0000000001
 40
0.0
 40
0.0
 40
0.0
 40
0.0
 40
0.2720464933
 40
0.5323651645
 40
0.774250819
 40
1.0
 40
1.0
 40
1.0
 40
1.0
 10
-71.2050857759
 20
14.5501361198
 30
0.0
 10
-71.1414267745
 20
14.5777324629
 30
0.0
 10
-71.0081027942
 20
14.6138584816
 30
0.0
 10
-70.8074933377
 20
14.6057049444
 30
0.0
 10
-70.631390492
 20
14.5345933341
 30
0.0
 10
-70.5449993186
 20
14.445943519
 30
0.0
 10
-70.5153919001
 20
14.3965640419
 30
0.0
  0
SPLINE
  5
3B2
100
AcDbEntity
  8
0
100
AcDbSpline
 62
7
  6
CONTINUOUS
 70
0
 71
3
 72
9
 73
5
 74
0
 42
0.0000001
 43
0.0000001
 44
0.0000000001
 40
0.0
 40
0.0
 40
0.0
 40
0.0
 40
0.5531232893
 40
1.0
 40
1.0
 40
1.0
 40
1.0
 10
-66.5659503984
 20
7.3817037435
 30
0.0
 10
-66.552027838
 20
7.3913553422
 30
0.0
 10
-66.5220079869
 20
7.404420104
 30
0.0
 10
-66.4888227447
 20
7.3923338467
 30
0.0
 10
-66.480216897
 20
7.3816911857
 30
0.0
  0
SPLINE
  5
3B3
100
AcDbEntity
  8
0
100
AcDbSpline
 62
7
  6
CONTINUOUS
 70
0
 71
3
 72
11
 73
7
 74
0
 42
0.0000001
 43
0.0000001
 44
0.0000000001
 40
0.0
 40
0.0
 40
0.0
 40
0.0
 40
0.3069527285
 40
0.5707250651
 40
0.7954717233
 40
1.0
 40
1.0
 40
1.0
 40
1.0
 10
-78.8349285401
 20
-23.3454379238
 30
0.0
 10
-78.8417314145
 20
-23.4224238404
 30
0.0
 10
-78.8395037913
 20
-23.5675402609
 30
0.0
 10
-78.7869194997
 20
-23.7635474838
 30
0.0
 10
-78.6852987936
 20
-23.9110089262
 30
0.0
 10
-78.5869249035
 20
-23.966103576
 30
0.0
 10
-78.5373265826
 20
-23.9799581863
 30
0.0
  0
SPLINE
  5
3B4
100
AcDbEntity
  8
0
100
AcDbSpline
 62
7
  6
CONTINUOUS
 70
0
 71
3
 72
9
 73
5
 74
0
 42
0.0000001
 43
0.0000001
 44
0.0000000001
 40
0.0
 40
0.0
 40
0.0
 40
0.0
 40
0.4810817329
 40
1.0
 40
1.0
 40
1.0
 40
1.0
 10
-79.8613562231
 20
14.3241746617
 30
0.0
 10
-77.6519405479
 20
13.0471845588
 30
0.0
 10
-73.1246595365
 20
10.2789945885
 30
0.0
 10
-68.71344192
 20
7.3305965788
 30
0.0
 10
-66.451219749
 20
5.7624090344
 30
0.0
  0
SPLINE
  5
3B5
100
AcDbEntity
  8
0
100
AcDbSpline
 62
7
  6
CONTINUOUS
 70
0
 71
3
 72
9
 73
5
 74
0
 42
0.0000001
 43
0.0000001
 44
0.0000000001
 40
0.0
 40
0.0
 40
0.0
 40
0.0
 40
0.4960371608
 40
1.0
 40
1.0
 40
1.0
 40
1.0
 10
-66.3006841141
 20
5.6549815048
 30
0.0
 10
-67.5179884994
 20
4.5466715599
 30
0.0
 10
-69.7581565565
 20
2.0683961862
 30
0.0
 10
-71.5135417224
 20
-0.7718210772
 30
0.0
 10
-72.2615389462
 20
-2.267808865
 30
0.0
  0
SPLINE
  5
3B6
100
AcDbEntity
  8
0
100
AcDbSpline
 62
7
  6
CONTINUOUS
 70
0
 71
3
 72
12
 73
8
 74
0
 42
0.0000001
 43
0.0000001
 44
0.0000000001
 40
0.0
 40
0.0
 40
0.0
 40
0.0
 40
0.1280564138
 40
0.2552895997
 40
0.5072635104
 40
0.755701326
 40
1.0
 40
1.0
 40
1.0
 40
1.0
 10
-73.3735463438
 20
-1.195667852
 30
0.0
 10
-73.661415829
 20
-0.9045038573
 30
0.0
 10
-74.2270491757
 20
-0.3156992234
 30
0.0
 10
-75.302461188
 20
0.8989117815
 30
0.0
 10
-76.5349110802
 20
2.4864215376
 30
0.0
 10
-77.8175321294
 20
4.4964532148
 30
0.0
 10
-78.5359335552
 20
5.9018681891
 30
0.0
 10
-78.856858321
 20
6.6140123858
 30
0.0
  0
SPLINE
  5
3B7
100
AcDbEntity
  8
0
100
AcDbSpline
 62
7
  6
CONTINUOUS
 70
0
 71
3
 72
9
 73
5
 74
0
 42
0.0000001
 43
0.0000001
 44
0.0000000001
 40
0.0
 40
0.0
 40
0.0
 40
0.0
 40
0.5093911683
 40
1.0
 40
1.0
 40
1.0
 40
1.0
 10
-78.8568597358
 20
6.6140080272
 30
0.0
 10
-79.3492008237
 20
7.706532088
 30
0.0
 10
-80.145619622
 20
9.9337338083
 30
0.0
 10
-80.5037128835
 20
12.2795939502
 30
0.0
 10
-80.5429817102
 20
13.4330762788
 30
0.0
  0
SPLINE
  5
3B8
100
AcDbEntity
  8
0
100
AcDbSpline
 62
7
  6
CONTINUOUS
 70
0
 71
3
 72
9
 73
5
 74
0
 42
0.0000001
 43
0.0000001
 44
0.0000000001
 40
0.0
 40
0.0
 40
0.0
 40
0.0
 40
0.4995856784
 40
1.0
 40
1.0
 40
1.0
 40
1.0
 10
-80.5429815985
 20
13.4330762356
 30
0.0
 10
-80.5442613978
 20
13.4706223607
 30
0.0
 10
-80.5649737998
 20
13.5485768657
 30
0.0
 10
-80.6314100957
 20
13.5953155555
 30
0.0
 10
-80.6666620064
 20
13.6084813356
 30
0.0
  0
SPLINE
  5
3B9
100
AcDbEntity
  8
0
100
AcDbSpline
 62
7
  6
CONTINUOUS
 70
0
 71
3
 72
9
 73
5
 74
0
 42
0.0000001
 43
0.0000001
 44
0.0000000001
 40
0.0
 40
0.0
 40
0.0
 40
0.0
 40
0.5220751362
 40
1.0
 40
1.0
 40
1.0
 40
1.0
 10
-57.5479964201
 20
11.8298330845
 30
0.0
 10
-57.5374718336
 20
11.8314165687
 30
0.0
 10
-57.5161692473
 20
11.8303260146
 30
0.0
 10
-57.4983505301
 20
11.8178437307
 30
0.0
 10
-57.4924733231
 20
11.8100729944
 30
0.0
  0
SPLINE
  5
3BA
100
AcDbEntity
  8
0
100
AcDbSpline
 62
7
  6
CONTINUOUS
 70
0
 71
3
 72
10
 73
6
 74
0
 42
0.0000001
 43
0.0000001
 44
0.0000000001
 40
0.0
 40
0.0
 40
0.0
 40
0.0
 40
0.2046774589
 40
0.4404856424
 40
1.0
 40
1.0
 40
1.0
 40
1.0
 10
-52.4441704657
 20
14.8136195883
 30
0.0
 10
-52.207683621
 20
14.5869808036
 30
0.0
 10
-51.7107393977
 20
14.0867326956
 30
0.0
 10
-50.6144752834
 20
12.9207479486
 30
0.0
 10
-49.7660845418
 20
11.9717300879
 30
0.0
 10
-49.1720197736
 20
11.3017668203
 30
0.0
  0
SPLINE
  5
3BB
100
AcDbEntity
  8
0
100
AcDbSpline
 62
7
  6
CONTINUOUS
 70
0
 71
3
 72
10
 73
6
 74
0
 42
0.0000001
 43
0.0000001
 44
0.0000000001
 40
0.0
 40
0.0
 40
0.0
 40
0.0
 40
0.507876113
 40
0.7552719139
 40
1.0
 40
1.0
 40
1.0
 40
1.0
 10
-61.3039753826
 20
17.655715296
 30
0.0
 10
-61.2048731373
 20
17.6536122827
 30
0.0
 10
-61.0534566634
 20
17.6103493644
 30
0.0
 10
-60.9052382299
 20
17.4799675195
 30
0.0
 10
-60.854130994
 20
17.3965023219
 30
0.0
 10
-60.8356906093
 20
17.3524407616
 30
0.0
  0
SPLINE
  5
3BC
100
AcDbEntity
  8
0
100
AcDbSpline
 62
7
  6
CONTINUOUS
 70
0
 71
3
 72
9
 73
5
 74
0
 42
0.0000001
 43
0.0000001
 44
0.0000000001
 40
0.0
 40
0.0
 40
0.0
 40
0.0
 40
0.2570823461
 40
1.0
 40
1.0
 40
1.0
 40
1.0
 10
-62.3538564096
 20
21.1046868334
 30
0.0
 10
-62.3617638208
 20
21.1092601491
 30
0.0
 10
-62.3935267951
 20
21.1251883571
 30
0.0
 10
-62.4297815765
 20
21.1326852763
 30
0.0
 10
-62.4561648207
 20
21.1318198805
 30
0.0
  0
SPLINE
  5
3BD
100
AcDbEntity
  8
0
100
AcDbSpline
 62
7
  6
CONTINUOUS
 70
0
 71
3
 72
11
 73
7
 74
0
 42
0.0000001
 43
0.0000001
 44
0.0000000001
 40
0.0
 40
0.0
 40
0.0
 40
0.0
 40
0.2546829258
 40
0.5018346444
 40
0.7480196774
 40
1.0
 40
1.0
 40
1.0
 40
1.0
 10
-61.5602611388
 20
20.2802649771
 30
0.0
 10
-61.5602083652
 20
20.3869888429
 30
0.0
 10
-61.5998495356
 20
20.5998975458
 30
0.0
 10
-61.7764535436
 20
20.8685119591
 30
0.0
 10
-62.0403446744
 20
21.0490536909
 30
0.0
 10
-62.248556417
 20
21.0978347491
 30
0.0
 10
-62.3539227544
 20
21.1047246972
 30
0.0
  0
SPLINE
  5
3BE
100
AcDbEntity
  8
0
100
AcDbSpline
 62
7
  6
CONTINUOUS
 70
0
 71
3
 72
11
 73
7
 74
0
 42
0.0000001
 43
0.0000001
 44
0.0000000001
 40
0.0
 40
0.0
 40
0.0
 40
0.0
 40
0.2511337538
 40
0.5014982423
 40
0.7508595205
 40
1.0
 40
1.0
 40
1.0
 40
1.0
 10
-57.471979737
 20
10.6263036195
 30
0.0
 10
-57.4108071009
 20
10.6451422433
 30
0.0
 10
-57.2894033813
 20
10.6851610914
 30
0.0
 10
-57.1063648929
 20
10.7410808271
 30
0.0
 10
-56.9228580133
 20
10.7935824341
 30
0.0
 10
-56.800794008
 20
10.8288466816
 30
0.0
 10
-56.739693353
 20
10.8461358951
 30
0.0
  0
SPLINE
  5
3BF
100
AcDbEntity
  8
0
100
AcDbSpline
 62
7
  6
CONTINUOUS
 70
0
 71
3
 72
9
 73
5
 74
0
 42
0.0000001
 43
0.0000001
 44
0.0000000001
 40
0.0
 40
0.0
 40
0.0
 40
0.0
 40
0.4987351687
 40
1.0
 40
1.0
 40
1.0
 40
1.0
 10
-56.7396933961
 20
10.8002014734
 30
0.0
 10
-56.8620190926
 20
10.7738574646
 30
0.0
 10
-57.1065493553
 20
10.717640653
 30
0.0
 10
-57.3503228302
 20
10.658184935
 30
0.0
 10
-57.471979737
 20
10.6263036195
 30
0.0
  0
SPLINE
  5
3C0
100
AcDbEntity
  8
0
100
AcDbSpline
 62
7
  6
CONTINUOUS
 70
0
 71
3
 72
11
 73
7
 74
0
 42
0.0000001
 43
0.0000001
 44
0.0000000001
 40
0.0
 40
0.0
 40
0.0
 40
0.0
 40
0.2097221536
 40
0.4464795787
 40
0.7101065642
 40
1.0
 40
1.0
 40
1.0
 40
1.0
 10
-62.3538381013
 20
21.1047716847
 30
0.0
 10
-62.3322294196
 20
20.8525272742
 30
0.0
 10
-62.2492164843
 20
20.318519376
 30
0.0
 10
-62.0326691322
 20
19.4880492082
 30
0.0
 10
-61.7166053194
 20
18.5869678328
 30
0.0
 10
-61.4518397757
 20
17.9728882507
 30
0.0
 10
-61.3039724134
 20
17.6557151741
 30
0.0
  0
SPLINE
  5
3C1
100
AcDbEntity
  8
0
100
AcDbSpline
 62
7
  6
CONTINUOUS
 70
0
 71
3
 72
10
 73
6
 74
0
 42
0.0000001
 43
0.0000001
 44
0.0000000001
 40
0.0
 40
0.0
 40
0.0
 40
0.0
 40
0.2204347155
 40
0.4612891512
 40
1.0
 40
1.0
 40
1.0
 40
1.0
 10
-61.3039753369
 20
17.6557151995
 30
0.0
 10
-61.1076115285
 20
17.2345178809
 30
0.0
 10
-60.6629056208
 20
16.368631698
 30
0.0
 10
-59.5850179087
 20
14.5557793293
 30
0.0
 10
-58.6279001861
 20
13.2153589494
 30
0.0
 10
-57.9320026371
 20
12.3178239093
 30
0.0
  0
SPLINE
  5
3C2
100
AcDbEntity
  8
0
100
AcDbSpline
 62
7
  6
CONTINUOUS
 70
0
 71
3
 72
11
 73
7
 74
0
 42
0.0000001
 43
0.0000001
 44
0.0000000001
 40
0.0
 40
0.0
 40
0.0
 40
0.0
 40
0.2563210258
 40
0.5073753646
 40
0.7546475283
 40
1.0
 40
1.0
 40
1.0
 40
1.0
 10
-23.505706641
 20
-55.4102280181
 30
0.0
 10
-24.2115030907
 20
-55.4141269308
 30
0.0
 10
-25.6108027178
 20
-55.3368675704
 30
0.0
 10
-27.6594503782
 20
-54.9555735807
 30
0.0
 10
-29.6104564254
 20
-54.3138455423
 30
0.0
 10
-30.8336453582
 20
-53.7158371143
 30
0.0
 10
-31.418673482
 20
-53.3779272922
 30
0.0
  0
SPLINE
  5
3C3
100
AcDbEntity
  8
0
100
AcDbSpline
 62
7
  6
CONTINUOUS
 70
0
 71
3
 72
11
 73
7
 74
0
 42
0.0000001
 43
0.0000001
 44
0.0000000001
 40
0.0
 40
0.0
 40
0.0
 40
0.0
 40
0.271386045
 40
0.5263463136
 40
0.7672610684
 40
1.0
 40
1.0
 40
1.0
 40
1.0
 10
-17.2971954258
 20
-56.9338192076
 30
0.0
 10
-17.6779471408
 20
-57.1474186991
 30
0.0
 10
-18.460736576
 20
-57.4898907955
 30
0.0
 10
-19.6867626253
 20
-57.7150059282
 30
0.0
 10
-20.8695685478
 20
-57.6197514476
 30
0.0
 10
-21.5917072991
 20
-57.3376301501
 30
0.0
 10
-21.9159156372
 20
-57.1503698413
 30
0.0
  0
SPLINE
  5
3C4
100
AcDbEntity
  8
0
100
AcDbSpline
 62
7
  6
CONTINUOUS
 70
0
 71
3
 72
13
 73
9
 74
0
 42
0.0000001
 43
0.0000001
 44
0.0000000001
 40
0.0
 40
0.0
 40
0.0
 40
0.0
 40
0.2714315107
 40
0.5262172442
 40
0.6482282516
 40
0.767266085
 40
0.8841848145
 40
1.0
 40
1.0
 40
1.0
 40
1.0
 10
-36.5161489817
 20
-36.081587158
 30
0.0
 10
-36.5161489817
 20
-37.5582357313
 30
0.0
 10
-36.2296475481
 20
-40.4322192518
 30
0.0
 10
-35.0648083437
 20
-43.8026554395
 30
0.0
 10
-33.6878210443
 20
-46.131057153
 30
0.0
 10
-32.4681181014
 20
-47.658040759
 30
0.0
 10
-31.0635682512
 20
-48.9677040883
 30
0.0
 10
-30.0136977195
 20
-49.6856179408
 30
0.0
 10
-29.4680989427
 20
-50.0007345242
 30
0.0
  0
SPLINE
  5
3C5
100
AcDbEntity
  8
0
100
AcDbSpline
 62
7
  6
CONTINUOUS
 70
0
 71
3
 72
20
 73
16
 74
0
 42
0.0000001
 43
0.0000001
 44
0.0000000001
 40
0.0
 40
0.0
 40
0.0
 40
0.0
 40
0.0523187552
 40
0.1053563573
 40
0.1597500132
 40
0.2159917387
 40
0.2743930615
 40
0.3350764117
 40
0.4626714403
 40
0.5292672686
 40
0.597096171
 40
0.7341886621
 40
0.8025392454
 40
0.8699731453
 40
1.0
 40
1.0
 40
1.0
 40
1.0
 10
-7.8618882563
 20
-12.5920960574
 30
0.0
 10
-8.5200153729
 20
-12.2119874907
 30
0.0
 10
-9.9190340227
 20
-11.5670234466
 30
0.0
 10
-12.178408526
 20
-10.9884584772
 30
0.0
 10
-14.5604080267
 20
-10.8047120807
 30
0.0
 10
-17.0167811403
 20
-11.0175822138
 30
0.0
 10
-19.5008035916
 20
-11.620802798
 30
0.0
 10
-22.8392600287
 20
-12.9483620454
 30
0.0
 10
-25.9813936505
 20
-14.9887247388
 30
0.0
 10
-28.783503492
 20
-17.5724648952
 30
0.0
 10
-31.3779617575
 20
-20.5521201017
 30
0.0
 10
-33.4938274419
 20
-23.9520215849
 30
0.0
 10
-35.0361773951
 20
-27.6106366019
 30
0.0
 10
-36.147881989
 20
-31.3133123487
 30
0.0
 10
-36.5161489817
 20
-34.192750321
 30
0.0
 10
-36.5161489817
 20
-36.081587158
 30
0.0
  0
SPLINE
  5
3C6
100
AcDbEntity
  8
0
100
AcDbSpline
 62
7
  6
CONTINUOUS
 70
0
 71
3
 72
13
 73
9
 74
0
 42
0.0000001
 43
0.0000001
 44
0.0000000001
 40
0.0
 40
0.0
 40
0.0
 40
0.0
 40
0.2430986648
 40
0.3700685273
 40
0.4987098137
 40
0.6275286334
 40
0.7550174417
 40
1.0
 40
1.0
 40
1.0
 40
1.0
 10
-24.9132599117
 20
-8.9648364107
 30
0.0
 10
-27.2801131638
 20
-10.220676627
 30
0.0
 10
-30.5982386637
 20
-12.7148947627
 30
0.0
 10
-34.2692718169
 20
-16.8170100764
 30
0.0
 10
-36.6758237449
 20
-20.3196510035
 30
0.0
 10
-38.6224110659
 20
-24.103613494
 30
0.0
 10
-40.5083862017
 20
-29.3057302907
 30
0.0
 10
-41.1468275309
 20
-33.4324584964
 30
0.0
 10
-41.1468275309
 20
-36.1326120928
 30
0.0
  0
SPLINE
  5
3C7
100
AcDbEntity
  8
0
100
AcDbSpline
 62
7
  6
CONTINUOUS
 70
0
 71
3
 72
14
 73
10
 74
0
 42
0.0000001
 43
0.0000001
 44
0.0000000001
 40
0.0
 40
0.0
 40
0.0
 40
0.0
 40
0.2712960871
 40
0.4008827903
 40
0.5264515276
 40
0.6484023732
 40
0.7673813307
 40
0.8842420996
 40
1.0
 40
1.0
 40
1.0
 40
1.0
 10
-41.1468275309
 20
-36.1326120928
 30
0.0
 10
-41.1468275309
 20
-37.875869066
 30
0.0
 10
-40.8872136788
 20
-40.4666150758
 30
0.0
 10
-39.9597140606
 20
-43.7264166867
 30
0.0
 10
-39.0100691653
 20
-45.9633437445
 30
0.0
 10
-37.8077820576
 20
-47.9966750195
 30
0.0
 10
-36.3678992732
 20
-49.7992334743
 30
0.0
 10
-34.7097677101
 20
-51.3454288503
 30
0.0
 10
-33.470326257
 20
-52.1929336526
 30
0.0
 10
-32.8262267553
 20
-52.5649628603
 30
0.0
  0
SPLINE
  5
3C8
100
AcDbEntity
  8
0
100
AcDbSpline
 62
7
  6
CONTINUOUS
 70
0
 71
3
 72
9
 73
5
 74
0
 42
0.0000001
 43
0.0000001
 44
0.0000000001
 40
0.0
 40
0.0
 40
0.0
 40
0.0
 40
0.5040605299
 40
1.0
 40
1.0
 40
1.0
 40
1.0
 10
-24.4490289276
 20
-55.3471181595
 30
0.0
 10
-24.294351147
 20
-55.5474550842
 30
0.0
 10
-23.9497618286
 20
-55.9174347431
 30
0.0
 10
-23.5391066936
 20
-56.2128546424
 30
0.0
 10
-23.323468913
 20
-56.3374054144
 30
0.0
  0
SPLINE
  5
3C9
100
AcDbEntity
  8
0
100
AcDbSpline
 62
7
  6
CONTINUOUS
 70
0
 71
3
 72
13
 73
9
 74
0
 42
0.0000001
 43
0.0000001
 44
0.0000000001
 40
0.0
 40
0.0
 40
0.0
 40
0.0
 40
0.1163812143
 40
0.2337806717
 40
0.3531421603
 40
0.4752719278
 40
0.729659552
 40
1.0
 40
1.0
 40
1.0
 40
1.0
 10
-7.3188789131
 20
-8.4019594745
 30
0.0
 10
-7.9356290842
 20
-8.0457256861
 30
0.0
 10
-9.2286433105
 20
-7.4195593438
 30
0.0
 10
-11.2956341143
 20
-6.765075113
 30
0.0
 10
-13.4688702021
 20
-6.4007429562
 30
0.0
 10
-16.5100830046
 20
-6.3055831288
 30
0.0
 10
-20.4572782979
 20
-6.9560976647
 30
0.0
 10
-23.4517933757
 20
-8.1893897498
 30
0.0
 10
-24.9132599117
 20
-8.9648364107
 30
0.0
  0
SPLINE
  5
3CA
100
AcDbEntity
  8
0
100
AcDbSpline
 62
7
  6
CONTINUOUS
 70
0
 71
3
 72
11
 73
7
 74
0
 42
0.0000001
 43
0.0000001
 44
0.0000000001
 40
0.0
 40
0.0
 40
0.0
 40
0.0
 40
0.2420027995
 40
0.4874366282
 40
0.7393286774
 40
1.0
 40
1.0
 40
1.0
 40
1.0
 10
-5.9113202017
 20
-9.2149144907
 30
0.0
 10
-5.1217917071
 20
-9.6709513866
 30
0.0
 10
-3.6138218096
 20
-10.740770047
 30
0.0
 10
-1.6655144845
 20
-12.7518601549
 30
0.0
 10
-0.0609805105
 20
-15.1307666188
 30
0.0
 10
0.7440992764
 20
-16.896589775
 30
0.0
 10
1.0832227866
 20
-17.8182876497
 30
0.0
  0
SPLINE
  5
3CB
100
AcDbEntity
  8
0
100
AcDbSpline
 62
7
  6
CONTINUOUS
 70
0
 71
3
 72
9
 73
5
 74
0
 42
0.0000001
 43
0.0000001
 44
0.0000000001
 40
0.0
 40
0.0
 40
0.0
 40
0.0
 40
0.490679955
 40
1.0
 40
1.0
 40
1.0
 40
1.0
 10
-21.9159156372
 20
-57.1503698413
 30
0.0
 10
-22.2534887746
 20
-56.9553901271
 30
0.0
 10
-22.881981414
 20
-56.4459303002
 30
0.0
 10
-23.3278761407
 20
-55.7737038824
 30
0.0
 10
-23.505706641
 20
-55.4102280181
 30
0.0
  0
SPLINE
  5
3CC
100
AcDbEntity
  8
0
100
AcDbSpline
 62
7
  6
CONTINUOUS
 70
0
 71
3
 72
19
 73
15
 74
0
 42
0.0000001
 43
0.0000001
 44
0.0000000001
 40
0.0
 40
0.0
 40
0.0
 40
0.0
 40
0.1291102658
 40
0.2636715117
 40
0.3319522363
 40
0.400163674
 40
0.5341883733
 40
0.5992816161
 40
0.6625458719
 40
0.7824948652
 40
0.8393666732
 40
0.8943023541
 40
0.9476734541
 40
1.0
 40
1.0
 40
1.0
 40
1.0
 10
-39.7392742601
 20
-36.9455765248
 30
0.0
 10
-39.7392742601
 20
-34.8009583731
 30
0.0
 10
-39.1994477528
 20
-30.4104177359
 30
0.0
 10
-37.3689178375
 20
-25.1672201806
 30
0.0
 10
-35.2593522548
 20
-21.1816886927
 30
0.0
 10
-32.7636940635
 20
-17.4381176455
 30
0.0
 10
-29.7445251412
 20
-14.1291928003
 30
0.0
 10
-26.3136726176
 20
-11.4278136158
 30
0.0
 10
-22.7983336742
 20
-9.259025769
 30
0.0
 10
-19.0338904945
 20
-7.7844396656
 30
0.0
 10
-15.2207826216
 20
-7.1744500499
 30
0.0
 10
-12.4653219222
 20
-7.1554854091
 30
0.0
 10
-9.8176690336
 20
-7.5701525072
 30
0.0
 10
-8.1446836674
 20
-8.1362627669
 30
0.0
 10
-7.3490935618
 20
-8.4862850996
 30
0.0
  0
SPLINE
  5
3CD
100
AcDbEntity
  8
0
100
AcDbSpline
 62
7
  6
CONTINUOUS
 70
0
 71
3
 72
13
 73
9
 74
0
 42
0.0000001
 43
0.0000001
 44
0.0000000001
 40
0.0
 40
0.0
 40
0.0
 40
0.0
 40
0.115561085
 40
0.2327151017
 40
0.3522237291
 40
0.4747065334
 40
0.7298181351
 40
1.0
 40
1.0
 40
1.0
 40
1.0
 10
-32.7752600881
 20
-52.4915116305
 30
0.0
 10
-33.3233119943
 20
-52.0888826923
 30
0.0
 10
-34.3723034549
 20
-51.2007012047
 30
0.0
 10
-35.7638602577
 20
-49.6567743002
 30
0.0
 10
-36.9666514894
 20
-47.9117389765
 30
0.0
 10
-38.3186807234
 20
-45.3102602704
 30
0.0
 10
-39.4569468466
 20
-41.6365127385
 30
0.0
 10
-39.7392742601
 20
-38.5355387856
 30
0.0
 10
-39.7392742601
 20
-36.9455765248
 30
0.0
  0
SPLINE
  5
3CE
100
AcDbEntity
  8
0
100
AcDbSpline
 62
7
  6
CONTINUOUS
 70
0
 71
3
 72
14
 73
10
 74
0
 42
0.0000001
 43
0.0000001
 44
0.0000000001
 40
0.0
 40
0.0
 40
0.0
 40
0.0
 40
0.2647855411
 40
0.4023136284
 40
0.5369564061
 40
0.6649560094
 40
0.78412197
 40
0.8947380108
 40
1.0
 40
1.0
 40
1.0
 40
1.0
 10
4.3646113191
 20
-63.094184136
 30
0.0
 10
4.3646113191
 20
-63.6267203532
 30
0.0
 10
4.1537055331
 20
-64.4448584629
 30
0.0
 10
3.5800879478
 20
-65.3646581701
 30
0.0
 10
3.0165205837
 20
-65.9490677862
 30
0.0
 10
2.3664698315
 20
-66.3713019709
 30
0.0
 10
1.673956548
 20
-66.5992811492
 30
0.0
 10
0.9885918049
 20
-66.6098789207
 30
0.0
 10
0.5681695266
 20
-66.4625052048
 30
0.0
 10
0.3848604724
 20
-66.3566003595
 30
0.0
  0
SPLINE
  5
3CF
100
AcDbEntity
  8
0
100
AcDbSpline
 62
7
  6
CONTINUOUS
 70
0
 71
3
 72
11
 73
7
 74
0
 42
0.0000001
 43
0.0000001
 44
0.0000000001
 40
0.0
 40
0.0
 40
0.0
 40
0.0
 40
0.2589875305
 40
0.510540572
 40
0.7566828058
 40
1.0
 40
1.0
 40
1.0
 40
1.0
 10
-0.5940429546
 20
-63.4026326911
 30
0.0
 10
-1.3290571107
 20
-63.4844452046
 30
0.0
 10
-2.791922031
 20
-63.5439060839
 30
0.0
 10
-4.9477364799
 20
-63.3014737596
 30
0.0
 10
-6.9942961383
 20
-62.7289205054
 30
0.0
 10
-8.2661471735
 20
-62.1309277313
 30
0.0
 10
-8.8678112712
 20
-61.7834289572
 30
0.0
  0
SPLINE
  5
3D0
100
AcDbEntity
  8
0
100
AcDbSpline
 62
7
  6
CONTINUOUS
 70
0
 71
3
 72
21
 73
17
 74
0
 42
0.0000001
 43
0.0000001
 44
0.0000000001
 40
0.0
 40
0.0
 40
0.0
 40
0.0
 40
0.0602448706
 40
0.1230171126
 40
0.1880763191
 40
0.2549931961
 40
0.3918067207
 40
0.5283773614
 40
0.5950085282
 40
0.6596957025
 40
0.7220400935
 40
0.7818358261
 40
0.8391115179
 40
0.8941582082
 40
0.9475297139
 40
1.0
 40
1.0
 40
1.0
 40
1.0
 10
1.8852841822
 20
-25.4685904313
 30
0.0
 10
1.0423142299
 20
-25.6945565377
 30
0.0
 10
-0.6432240323
 20
-26.2988494439
 30
0.0
 10
-3.0516977624
 20
-27.590730759
 30
0.0
 10
-5.339850006
 20
-29.2557505176
 30
0.0
 10
-8.1757311008
 20
-31.9367836671
 30
0.0
 10
-11.1096624974
 20
-35.95981635
 30
0.0
 10
-13.0337070719
 20
-40.5482528983
 30
0.0
 10
-13.8531426695
 20
-44.35070365
 30
0.0
 10
-14.085628072
 20
-47.155171879
 30
0.0
 10
-13.9340125688
 20
-49.8666895268
 30
0.0
 10
-13.4002145558
 20
-52.4212783191
 30
0.0
 10
-12.4945840354
 20
-54.7573851988
 30
0.0
 10
-11.2356472391
 20
-56.8174963694
 30
0.0
 10
-9.6526493103
 20
-58.5479078311
 30
0.0
 10
-8.4006326907
 20
-59.4547926823
 30
0.0
 10
-7.7424365902
 20
-59.8349737863
 30
0.0
  0
SPLINE
  5
3D1
100
AcDbEntity
  8
0
100
AcDbSpline
 62
7
  6
CONTINUOUS
 70
0
 71
3
 72
11
 73
7
 74
0
 42
0.0000001
 43
0.0000001
 44
0.0000000001
 40
0.0
 40
0.0
 40
0.0
 40
0.0
 40
0.2397948519
 40
0.4840664423
 40
0.7365895565
 40
1.0
 40
1.0
 40
1.0
 40
1.0
 10
11.5130049572
 20
-26.4964182106
 30
0.0
 10
10.8261199861
 20
-26.0996661085
 30
0.0
 10
9.3482876407
 20
-25.4466126902
 30
0.0
 10
6.9461682464
 20
-24.9484786852
 30
0.0
 10
4.4162797451
 20
-24.9360656467
 30
0.0
 10
2.7269259787
 20
-25.2429803466
 30
0.0
 10
1.8852841822
 20
-25.4685904313
 30
0.0
  0
SPLINE
  5
3D2
100
AcDbEntity
  8
0
100
AcDbSpline
 62
7
  6
CONTINUOUS
 70
0
 71
3
 72
20
 73
16
 74
0
 42
0.0000001
 43
0.0000001
 44
0.0000000001
 40
0.0
 40
0.0
 40
0.0
 40
0.0
 40
0.0523512046
 40
0.1055062769
 40
0.1601672717
 40
0.2168577849
 40
0.2758835724
 40
0.337327207
 40
0.4665470652
 40
0.5338475592
 40
0.60217541
 40
0.7392782942
 40
0.8070309006
 40
0.8734122018
 40
1.0
 40
1.0
 40
1.0
 40
1.0
 10
12.6383757672
 20
-24.5479697961
 30
0.0
 10
13.3321284234
 20
-24.9486552304
 30
0.0
 10
14.6549324529
 20
-25.8950895732
 30
0.0
 10
16.3494202044
 20
-27.6850851474
 30
0.0
 10
17.7261509612
 20
-29.8087667979
 30
0.0
 10
18.7561660157
 20
-32.2166828152
 30
0.0
 10
19.4201008397
 20
-34.8562948868
 30
0.0
 10
19.807537469
 20
-38.6683513622
 30
0.0
 10
19.3990858094
 20
-42.6452352169
 30
0.0
 10
18.2882661997
 20
-46.5494847312
 30
0.0
 10
16.6943211376
 20
-50.4149884759
 30
0.0
 10
14.4588457508
 20
-53.9963040971
 30
0.0
 10
11.6934187468
 20
-57.1027367667
 30
0.0
 10
8.7083722759
 20
-59.7582189538
 30
0.0
 10
6.147616257
 20
-61.3159770854
 30
0.0
 10
4.3646113191
 20
-62.0734182832
 30
0.0
  0
SPLINE
  5
3D3
100
AcDbEntity
  8
0
100
AcDbSpline
 62
7
  6
CONTINUOUS
 70
0
 71
3
 72
11
 73
7
 74
0
 42
0.0000001
 43
0.0000001
 44
0.0000000001
 40
0.0
 40
0.0
 40
0.0
 40
0.0
 40
0.2397948519
 40
0.4840664423
 40
0.7365895565
 40
1.0
 40
1.0
 40
1.0
 40
1.0
 10
-7.7424365902
 20
-59.8349737863
 30
0.0
 10
-7.0555516216
 20
-60.2317258909
 30
0.0
 10
-5.5777192763
 20
-60.8847793067
 30
0.0
 10
-3.1755998819
 20
-61.3829133142
 30
0.0
 10
-0.6457113806
 20
-61.3953263527
 30
0.0
 10
1.0436423857
 20
-61.0884116503
 30
0.0
 10
1.8852841822
 20
-60.8628015681
 30
0.0
  0
SPLINE
  5
3D4
100
AcDbEntity
  8
0
100
AcDbSpline
 62
7
  6
CONTINUOUS
 70
0
 71
3
 72
11
 73
7
 74
0
 42
0.0000001
 43
0.0000001
 44
0.0000000001
 40
0.0
 40
0.0
 40
0.0
 40
0.0
 40
0.2323633648
 40
0.4731183852
 40
0.728246463
 40
1.0
 40
1.0
 40
1.0
 40
1.0
 10
0.3848604724
 20
-66.3566003595
 30
0.0
 10
0.2330267578
 20
-66.2688800574
 30
0.0
 10
-0.0501994754
 20
-66.0410940969
 30
0.0
 10
-0.3632132613
 20
-65.5808995309
 30
0.0
 10
-0.5541452849
 20
-65.0277717802
 30
0.0
 10
-0.5940429546
 20
-64.6284761805
 30
0.0
 10
-0.5940429546
 20
-64.4233985439
 30
0.0
  0
SPLINE
  5
3D5
100
AcDbEntity
  8
0
100
AcDbSpline
 62
7
  6
CONTINUOUS
 70
0
 71
3
 72
11
 73
7
 74
0
 42
0.0000001
 43
0.0000001
 44
0.0000000001
 40
0.0
 40
0.0
 40
0.0
 40
0.0
 40
0.2634113886
 40
0.5159324767
 40
0.7602041113
 40
1.0
 40
1.0
 40
1.0
 40
1.0
 10
1.8852841822
 20
-23.4000018101
 30
0.0
 10
2.8253074482
 20
-23.1480196394
 30
0.0
 10
4.7121237432
 20
-22.8052272186
 30
0.0
 10
7.5377198928
 20
-22.8191076175
 30
0.0
 10
10.220624814
 20
-23.3754454253
 30
0.0
 10
11.8711825975
 20
-24.1048678806
 30
0.0
 10
12.6383757672
 20
-24.5479697961
 30
0.0
  0
SPLINE
  5
3D6
100
AcDbEntity
  8
0
100
AcDbSpline
 62
7
  6
CONTINUOUS
 70
0
 71
3
 72
21
 73
17
 74
0
 42
0.0000001
 43
0.0000001
 44
0.0000000001
 40
0.0
 40
0.0
 40
0.0
 40
0.0
 40
0.0602448706
 40
0.1230171126
 40
0.1880763191
 40
0.2549931961
 40
0.3918067207
 40
0.5283773614
 40
0.5950085282
 40
0.6596957025
 40
0.7220400935
 40
0.7818358261
 40
0.8391115179
 40
0.8941582082
 40
0.9475297139
 40
1.0
 40
1.0
 40
1.0
 40
1.0
 10
1.8852841822
 20
-60.8628015681
 30
0.0
 10
2.7282541346
 20
-60.6368354592
 30
0.0
 10
4.4137923993
 20
-60.0325425555
 30
0.0
 10
6.8222661294
 20
-58.7406612378
 30
0.0
 10
9.1104183705
 20
-57.0756414818
 30
0.0
 10
11.9462994653
 20
-54.3946083323
 30
0.0
 10
14.8802308618
 20
-50.3715756468
 30
0.0
 10
16.8042754364
 20
-45.7831391011
 30
0.0
 10
17.623711034
 20
-41.9806883494
 30
0.0
 10
17.8561964364
 20
-39.1762201179
 30
0.0
 10
17.7045809332
 20
-36.46470247
 30
0.0
 10
17.1707829203
 20
-33.9101136778
 30
0.0
 10
16.2651524024
 20
-31.5740067981
 30
0.0
 10
15.0062156035
 20
-29.5138956275
 30
0.0
 10
13.4232176748
 20
-27.7834841683
 30
0.0
 10
12.1712010551
 20
-26.8765993171
 30
0.0
 10
11.5130049572
 20
-26.4964182106
 30
0.0
  0
SPLINE
  5
3D7
100
AcDbEntity
  8
0
100
AcDbSpline
 62
7
  6
CONTINUOUS
 70
0
 71
3
 72
21
 73
17
 74
0
 42
0.0000001
 43
0.0000001
 44
0.0000000001
 40
0.0
 40
0.0
 40
0.0
 40
0.0
 40
0.0524700105
 40
0.1058416607
 40
0.1608883872
 40
0.2181640346
 40
0.2779597475
 40
0.3403041829
 40
0.4049914136
 40
0.471622636
 40
0.6081932025
 40
0.745006195
 40
0.8119231184
 40
0.876982691
 40
0.9397546302
 40
1.0
 40
1.0
 40
1.0
 40
1.0
 10
-8.8678112712
 20
-61.7834289572
 30
0.0
 10
-9.602954637
 20
-61.358837528
 30
0.0
 10
-11.0012906694
 20
-60.3459068107
 30
0.0
 10
-12.7693441564
 20
-58.4132584001
 30
0.0
 10
-14.1754401758
 20
-56.1123387652
 30
0.0
 10
-15.1869363723
 20
-53.5031712632
 30
0.0
 10
-15.7831311591
 20
-50.6499791464
 30
0.0
 10
-15.9524660223
 20
-47.6215134787
 30
0.0
 10
-15.6928002094
 20
-44.4892316457
 30
0.0
 10
-14.7775737798
 20
-40.2423174827
 30
0.0
 10
-12.6286273436
 20
-35.1175540874
 30
0.0
 10
-9.3517579258
 20
-30.6242823119
 30
0.0
 10
-6.1844035595
 20
-27.6298575718
 30
0.0
 10
-3.6287885996
 20
-25.7702170087
 30
0.0
 10
-0.9387914549
 20
-24.3273087515
 30
0.0
 10
0.9437725372
 20
-23.6523829563
 30
0.0
 10
1.8852841822
 20
-23.4000018101
 30
0.0
  0
SPLINE
  5
3D8
100
AcDbEntity
  8
0
100
AcDbSpline
 62
7
  6
CONTINUOUS
 70
0
 71
3
 72
17
 73
13
 74
0
 42
0.0000001
 43
0.0000001
 44
0.0000000001
 40
0.0
 40
0.0
 40
0.0
 40
0.0
 40
0.1197203722
 40
0.2475094346
 40
0.3807017202
 40
0.5154202486
 40
0.647468662
 40
0.7732159367
 40
0.8330959038
 40
0.8907606477
 40
0.9463044978
 40
1.0
 40
1.0
 40
1.0
 40
1.0
 10
-53.752312678
 20
7.5869505466
 30
0.0
 10
-55.3342696233
 20
7.1630610896
 30
0.0
 10
-58.485327662
 20
5.8007761561
 30
0.0
 10
-62.6587704988
 20
2.6154771266
 30
0.0
 10
-66.1796182043
 20
-1.5497800597
 30
0.0
 10
-68.7985708582
 20
-6.3980660299
 30
0.0
 10
-70.3321213395
 20
-11.5850865855
 30
0.0
 10
-70.6125785612
 20
-15.9679433341
 30
0.0
 10
-70.1823675293
 20
-19.2769753012
 30
0.0
 10
-69.5566365303
 20
-21.5692818139
 30
0.0
 10
-68.6334531265
 20
-23.6668037631
 30
0.0
 10
-67.8171475125
 20
-24.9281601203
 30
0.0
 10
-67.3665616953
 20
-25.508276895
 30
0.0
  0
SPLINE
  5
3D9
100
AcDbEntity
  8
0
100
AcDbSpline
 62
7
  6
CONTINUOUS
 70
0
 71
3
 72
9
 73
5
 74
0
 42
0.0000001
 43
0.0000001
 44
0.0000000001
 40
0.0
 40
0.0
 40
0.0
 40
0.0
 40
0.5039615702
 40
1.0
 40
1.0
 40
1.0
 40
1.0
 10
-67.3665616953
 20
-25.508276895
 30
0.0
 10
-66.8866238719
 20
-26.1261835637
 30
0.0
 10
-65.8188681003
 20
-27.2676999852
 30
0.0
 10
-64.5486836709
 20
-28.1801286506
 30
0.0
 10
-63.8818390001
 20
-28.5653174256
 30
0.0
  0
SPLINE
  5
3DA
100
AcDbEntity
  8
0
100
AcDbSpline
 62
7
  6
CONTINUOUS
 70
0
 71
3
 72
9
 73
5
 74
0
 42
0.0000001
 43
0.0000001
 44
0.0000000001
 40
0.0
 40
0.0
 40
0.0
 40
0.0
 40
0.5310265055
 40
1.0
 40
1.0
 40
1.0
 40
1.0
 10
-38.9610270104
 20
9.7550191213
 30
0.0
 10
-38.983647397
 20
9.7680840406
 30
0.0
 10
-39.0300506468
 20
9.7874243931
 30
0.0
 10
-39.081139549
 20
9.7866047097
 30
0.0
 10
-39.1034221816
 20
9.7806298626
 30
0.0
  0
SPLINE
  5
3DB
100
AcDbEntity
  8
0
100
AcDbSpline
 62
7
  6
CONTINUOUS
 70
0
 71
3
 72
10
 73
6
 74
0
 42
0.0000001
 43
0.0000001
 44
0.0000000001
 40
0.0
 40
0.0
 40
0.0
 40
0.0
 40
0.5166663307
 40
0.7641764008
 40
1.0
 40
1.0
 40
1.0
 40
1.0
 10
-31.6120329277
 20
-3.596153714
 30
0.0
 10
-32.2606542542
 20
-1.3992642902
 30
0.0
 10
-33.4512984566
 20
1.7906183877
 30
0.0
 10
-35.478030616
 20
5.7373771744
 30
0.0
 10
-36.6159751677
 20
7.5573858763
 30
0.0
 10
-37.2126111448
 20
8.4159578675
 30
0.0
  0
SPLINE
  5
3DC
100
AcDbEntity
  8
0
100
AcDbSpline
 62
7
  6
CONTINUOUS
 70
0
 71
3
 72
9
 73
5
 74
0
 42
0.0000001
 43
0.0000001
 44
0.0000000001
 40
0.0
 40
0.0
 40
0.0
 40
0.0
 40
0.5372934808
 40
1.0
 40
1.0
 40
1.0
 40
1.0
 10
-37.2126111448
 20
8.4159578675
 30
0.0
 10
-37.3299227466
 20
8.5847717819
 30
0.0
 10
-37.5724370012
 20
8.8832654114
 30
0.0
 10
-37.8736011589
 20
9.1269515687
 30
0.0
 10
-38.026903344
 20
9.2154947343
 30
0.0
  0
SPLINE
  5
3DD
100
AcDbEntity
  8
0
100
AcDbSpline
 62
7
  6
CONTINUOUS
 70
0
 71
3
 72
11
 73
7
 74
0
 42
0.0000001
 43
0.0000001
 44
0.0000000001
 40
0.0
 40
0.0
 40
0.0
 40
0.0
 40
0.3164688903
 40
0.5891326682
 40
0.8124304716
 40
1.0
 40
1.0
 40
1.0
 40
1.0
 10
-43.4017697444
 20
8.2762381673
 30
0.0
 10
-43.4042795463
 20
8.3246089672
 30
0.0
 10
-43.4018458707
 20
8.4153532154
 30
0.0
 10
-43.3726940774
 20
8.5373428165
 30
0.0
 10
-43.3192348396
 20
8.6299621182
 30
0.0
 10
-43.2633622488
 20
8.6659579898
 30
0.0
 10
-43.2356340568
 20
8.6733929965
 30
0.0
  0
SPLINE
  5
3DE
100
AcDbEntity
  8
0
100
AcDbSpline
 62
7
  6
CONTINUOUS
 70
0
 71
3
 72
9
 73
5
 74
0
 42
0.0000001
 43
0.0000001
 44
0.0000000001
 40
0.0
 40
0.0
 40
0.0
 40
0.0
 40
0.5132659491
 40
1.0
 40
1.0
 40
1.0
 40
1.0
 10
-37.4243734874
 20
-3.7329935013
 30
0.0
 10
-37.927437452
 20
-2.2242918349
 30
0.0
 10
-39.0710396835
 20
0.6634237968
 30
0.0
 10
-40.5525288185
 20
3.3961624741
 30
0.0
 10
-41.3644382133
 20
4.6671186825
 30
0.0
  0
SPLINE
  5
3DF
100
AcDbEntity
  8
0
100
AcDbSpline
 62
7
  6
CONTINUOUS
 70
0
 71
3
 72
11
 73
7
 74
0
 42
0.0000001
 43
0.0000001
 44
0.0000000001
 40
0.0
 40
0.0
 40
0.0
 40
0.0
 40
0.3114646324
 40
0.5801256427
 40
0.8046963034
 40
1.0
 40
1.0
 40
1.0
 40
1.0
 10
-41.3644382133
 20
4.6671186825
 30
0.0
 10
-41.3856481988
 20
4.7003206201
 30
0.0
 10
-41.4300287323
 20
4.7593421048
 30
0.0
 10
-41.5071504247
 20
4.8271595308
 30
0.0
 10
-41.5877559708
 20
4.8645706218
 30
0.0
 10
-41.6432194794
 20
4.8646353461
 30
0.0
 10
-41.6670883166
 20
4.8582633599
 30
0.0
  0
SPLINE
  5
3E0
100
AcDbEntity
  8
0
100
AcDbSpline
 62
7
  6
CONTINUOUS
 70
0
 71
3
 72
9
 73
5
 74
0
 42
0.0000001
 43
0.0000001
 44
0.0000000001
 40
0.0
 40
0.0
 40
0.0
 40
0.0
 40
0.4960563235
 40
1.0
 40
1.0
 40
1.0
 40
1.0
 10
-43.6260033472
 20
6.5053045032
 30
0.0
 10
-44.2906253251
 20
6.8892093894
 30
0.0
 10
-45.7106463077
 20
7.531707604
 30
0.0
 10
-47.2274551156
 20
7.8863413779
 30
0.0
 10
-47.9997333602
 20
7.9939251327
 30
0.0
  0
SPLINE
  5
3E1
100
AcDbEntity
  8
0
100
AcDbSpline
 62
7
  6
CONTINUOUS
 70
0
 71
3
 72
9
 73
5
 74
0
 42
0.0000001
 43
0.0000001
 44
0.0000000001
 40
0.0
 40
0.0
 40
0.0
 40
0.0
 40
0.4887459803
 40
1.0
 40
1.0
 40
1.0
 40
1.0
 10
-47.9997333602
 20
7.9939251327
 30
0.0
 10
-48.9349556884
 20
8.1242081361
 30
0.0
 10
-50.8824979731
 20
8.1781555847
 30
0.0
 10
-52.7982311241
 20
7.8425991692
 30
0.0
 10
-53.752312678
 20
7.5869505466
 30
0.0
  0
SPLINE
  5
3E2
100
AcDbEntity
  8
0
100
AcDbSpline
 62
7
  6
CONTINUOUS
 70
0
 71
3
 72
21
 73
17
 74
0
 42
0.0000001
 43
0.0000001
 44
0.0000000001
 40
0.0
 40
0.0
 40
0.0
 40
0.0
 40
0.0614370053
 40
0.1228990542
 40
0.1844237129
 40
0.2460726567
 40
0.3079337972
 40
0.3701100671
 40
0.4326801828
 40
0.4956783496
 40
0.6224135439
 40
0.7494070881
 40
0.8126650257
 40
0.8755190065
 40
0.9379442507
 40
1.0
 40
1.0
 40
1.0
 40
1.0
 10
-36.1044550223
 20
-50.6715583108
 30
0.0
 10
-37.1490918535
 20
-50.0682045315
 30
0.0
 10
-39.1370813472
 20
-48.6745635849
 30
0.0
 10
-41.708506753
 20
-46.1002864551
 30
0.0
 10
-43.806261229
 20
-43.1218990413
 30
0.0
 10
-45.3844047885
 20
-39.8313329097
 30
0.0
 10
-46.4209562054
 20
-36.3200818246
 30
0.0
 10
-46.9123354004
 20
-32.6753310064
 30
0.0
 10
-46.8679810187
 20
-28.9762025042
 30
0.0
 10
-46.1192048277
 20
-24.0654635144
 30
0.0
 10
-43.9479192998
 20
-18.1568703786
 30
0.0
 10
-40.3446515787
 20
-12.991331647
 30
0.0
 10
-36.7505825134
 20
-9.5405713248
 30
0.0
 10
-33.7478401343
 20
-7.3540388982
 30
0.0
 10
-30.4880672559
 20
-5.6238184191
 30
0.0
 10
-28.1728493184
 20
-4.8058034004
 30
0.0
 10
-26.9958609383
 20
-4.4904288317
 30
0.0
  0
SPLINE
  5
3E3
100
AcDbEntity
  8
0
100
AcDbSpline
 62
7
  6
CONTINUOUS
 70
0
 71
3
 72
11
 73
7
 74
0
 42
0.0000001
 43
0.0000001
 44
0.0000000001
 40
0.0
 40
0.0
 40
0.0
 40
0.0
 40
0.2508284046
 40
0.5008545904
 40
0.7504986718
 40
1.0
 40
1.0
 40
1.0
 40
1.0
 10
-26.9954370605
 20
-4.4903152582
 30
0.0
 10
-25.6280873695
 20
-4.1239606899
 30
0.0
 10
-22.8239826476
 20
-3.638723065
 30
0.0
 10
-18.563130138
 20
-3.7226968061
 30
0.0
 10
-14.4081295885
 20
-4.6425057869
 30
0.0
 10
-11.8164087674
 20
-5.804270423
 30
0.0
 10
-10.5970859178
 20
-6.5085180899
 30
0.0
  0
SPLINE
  5
3E4
100
AcDbEntity
  8
0
100
AcDbSpline
 62
7
  6
CONTINUOUS
 70
0
 71
3
 72
9
 73
5
 74
0
 42
0.0000001
 43
0.0000001
 44
0.0000000001
 40
0.0
 40
0.0
 40
0.0
 40
0.0
 40
0.4862933214
 40
1.0
 40
1.0
 40
1.0
 40
1.0
 10
-23.3487449686
 20
-5.1464627013
 30
0.0
 10
-24.9248437265
 20
-5.5687807644
 30
0.0
 10
-28.0710873324
 20
-6.8170322252
 30
0.0
 10
-30.8993581579
 20
-8.6629364481
 30
0.0
 10
-32.2541812878
 20
-9.7285486247
 30
0.0
  0
SPLINE
  5
3E5
100
AcDbEntity
  8
0
100
AcDbSpline
 62
7
  6
CONTINUOUS
 70
0
 71
3
 72
11
 73
7
 74
0
 42
0.0000001
 43
0.0000001
 44
0.0000000001
 40
0.0
 40
0.0
 40
0.0
 40
0.0
 40
0.2469531884
 40
0.4999811846
 40
0.7530327289
 40
1.0
 40
1.0
 40
1.0
 40
1.0
 10
-32.2541812878
 20
-9.7285486247
 30
0.0
 10
-33.8252938224
 20
-10.9642794095
 30
0.0
 10
-36.7549621465
 20
-13.7997170813
 30
0.0
 10
-40.2892311384
 20
-18.8056584384
 30
0.0
 10
-42.8596588906
 20
-24.3684818772
 30
0.0
 10
-43.851932522
 20
-28.3232949505
 30
0.0
 10
-44.1373411257
 20
-30.3017849813
 30
0.0
  0
SPLINE
  5
3E6
100
AcDbEntity
  8
0
100
AcDbSpline
 62
7
  6
CONTINUOUS
 70
0
 71
3
 72
14
 73
10
 74
0
 42
0.0000001
 43
0.0000001
 44
0.0000000001
 40
0.0
 40
0.0
 40
0.0
 40
0.0
 40
0.2752880285
 40
0.4062483437
 40
0.5323738607
 40
0.6539574412
 40
0.7716832692
 40
0.8865869128
 40
1.0
 40
1.0
 40
1.0
 40
1.0
 10
-44.1373411257
 20
-30.3017849813
 30
0.0
 10
-44.4415213377
 20
-32.4104022627
 30
0.0
 10
-44.5499278138
 20
-35.5933879846
 30
0.0
 10
-43.8872149838
 20
-39.6694677852
 30
0.0
 10
-43.0195172755
 20
-42.4796644635
 30
0.0
 10
-41.7871083255
 20
-45.0375177602
 30
0.0
 10
-40.2104303587
 20
-47.2955210344
 30
0.0
 10
-38.3182560379
 20
-49.2088276752
 30
0.0
 10
-36.8644778965
 20
-50.2325568825
 30
0.0
 10
-36.1044523832
 20
-50.6715536854
 30
0.0
  0
SPLINE
  5
3E7
100
AcDbEntity
  8
0
100
AcDbSpline
 62
7
  6
CONTINUOUS
 70
0
 71
3
 72
11
 73
7
 74
0
 42
0.0000001
 43
0.0000001
 44
0.0000000001
 40
0.0
 40
0.0
 40
0.0
 40
0.0
 40
0.2633513371
 40
0.5159036547
 40
0.7602255599
 40
1.0
 40
1.0
 40
1.0
 40
1.0
 10
-19.9706171148
 20
-7.097577336
 30
0.0
 10
-18.8658278435
 20
-6.8015461932
 30
0.0
 10
-16.648484742
 20
-6.3972467732
 30
0.0
 10
-13.3272393602
 20
-6.4052312581
 30
0.0
 10
-10.1706698516
 20
-7.0446275536
 30
0.0
 10
-8.2247910586
 20
-7.8886266607
 30
0.0
 10
-7.3189952273
 20
-8.4024136493
 30
0.0
  0
SPLINE
  5
3E8
100
AcDbEntity
  8
0
100
AcDbSpline
 62
7
  6
CONTINUOUS
 70
0
 71
3
 72
11
 73
7
 74
0
 42
0.0000001
 43
0.0000001
 44
0.0000000001
 40
0.0
 40
0.0
 40
0.0
 40
0.0
 40
0.1876078044
 40
0.4108483599
 40
0.6836283117
 40
1.0
 40
1.0
 40
1.0
 40
1.0
 10
-41.6670883166
 20
4.8582633599
 30
0.0
 10
-41.694829427
 20
4.8508576419
 30
0.0
 10
-41.7506916292
 20
4.8148276809
 30
0.0
 10
-41.8041633917
 20
4.722217729
 30
0.0
 10
-41.8332844714
 20
4.600224417
 30
0.0
 10
-41.8357385203
 20
4.5094845121
 30
0.0
 10
-41.8332295718
 20
4.4611301663
 30
0.0
  0
SPLINE
  5
3E9
100
AcDbEntity
  8
0
100
AcDbSpline
 62
7
  6
CONTINUOUS
 70
0
 71
3
 72
9
 73
5
 74
0
 42
0.0000001
 43
0.0000001
 44
0.0000000001
 40
0.0
 40
0.0
 40
0.0
 40
0.0
 40
0.4627065192
 40
1.0
 40
1.0
 40
1.0
 40
1.0
 10
-42.1591152193
 20
8.1082578682
 30
0.0
 10
-42.0058130341
 20
8.0197147001
 30
0.0
 10
-41.7046488765
 20
7.7760285429
 30
0.0
 10
-41.4621346193
 20
7.4775349133
 30
0.0
 10
-41.3448230201
 20
7.3087209989
 30
0.0
  0
SPLINE
  5
3EA
100
AcDbEntity
  8
0
100
AcDbSpline
 62
7
  6
CONTINUOUS
 70
0
 71
3
 72
10
 73
6
 74
0
 42
0.0000001
 43
0.0000001
 44
0.0000000001
 40
0.0
 40
0.0
 40
0.0
 40
0.0
 40
0.2358235949
 40
0.4833336679
 40
1.0
 40
1.0
 40
1.0
 40
1.0
 10
-41.3448230201
 20
7.3087209989
 30
0.0
 10
-40.7481864892
 20
6.4501482101
 30
0.0
 10
-39.6102409292
 20
4.6301377353
 30
0.0
 10
-37.5835073525
 20
0.6833749583
 30
0.0
 10
-36.3928623525
 20
-2.5065109276
 30
0.0
 10
-35.7442411047
 20
-4.7034026425
 30
0.0
  0
SPLINE
  5
3EB
100
AcDbEntity
  8
0
100
AcDbSpline
 62
7
  6
CONTINUOUS
 70
0
 71
3
 72
19
 73
15
 74
0
 42
0.0000001
 43
0.0000001
 44
0.0000000001
 40
0.0
 40
0.0
 40
0.0
 40
0.0
 40
0.0523660307
 40
0.1058747812
 40
0.1610312972
 40
0.2181843074
 40
0.2775113259
 40
0.3390228266
 40
0.4676997341
 40
0.6019514854
 40
0.6701157959
 40
0.7382267058
 40
0.8720652623
 40
1.0
 40
1.0
 40
1.0
 40
1.0
 10
-34.3896569762
 20
-51.5047273963
 30
0.0
 10
-35.0836114379
 20
-50.9667022798
 30
0.0
 10
-36.3925515505
 20
-49.7516412657
 30
0.0
 10
-38.0369735423
 20
-47.5949377889
 30
0.0
 10
-39.3500963542
 20
-45.130945455
 30
0.0
 10
-40.3090364887
 20
-42.4066488386
 30
0.0
 10
-40.8986795791
 20
-39.4713901041
 30
0.0
 10
-41.1844369985
 20
-35.2872729809
 30
0.0
 10
-40.5516866841
 20
-29.8316831859
 30
0.0
 10
-38.7337409474
 20
-24.5417112996
 30
0.0
 10
-36.6229458319
 20
-20.5187826424
 30
0.0
 10
-34.1170696041
 20
-16.7374614064
 30
0.0
 10
-30.3690842706
 20
-12.6136974899
 30
0.0
 10
-26.747288649
 20
-10.0531462127
 30
0.0
 10
-24.854103078
 20
-9.0442084491
 30
0.0
  0
SPLINE
  5
3EC
100
AcDbEntity
  8
0
100
AcDbSpline
 62
7
  6
CONTINUOUS
 70
0
 71
3
 72
9
 73
5
 74
0
 42
0.0000001
 43
0.0000001
 44
0.0000000001
 40
0.0
 40
0.0
 40
0.0
 40
0.0
 40
0.2560910721
 40
1.0
 40
1.0
 40
1.0
 40
1.0
 10
-24.854103078
 20
-9.0442084491
 30
0.0
 10
-24.4575883593
 20
-8.8328933624
 30
0.0
 10
-22.8878558752
 20
-8.0489632336
 30
0.0
 10
-21.2313213955
 20
-7.4353863124
 30
0.0
 10
-19.9706171148
 20
-7.097577336
 30
0.0
  0
SPLINE
  5
3ED
100
AcDbEntity
  8
0
100
AcDbSpline
 62
7
  6
CONTINUOUS
 70
0
 71
3
 72
9
 73
5
 74
0
 42
0.0000001
 43
0.0000001
 44
0.0000000001
 40
0.0
 40
0.0
 40
0.0
 40
0.0
 40
0.4689732836
 40
1.0
 40
1.0
 40
1.0
 40
1.0
 10
-43.2356340568
 20
8.6733929965
 30
0.0
 10
-43.2133514319
 20
8.679367836
 30
0.0
 10
-43.1622625246
 20
8.6801875905
 30
0.0
 10
-43.115859285
 20
8.6608471796
 30
0.0
 10
-43.0932388857
 20
8.6477822553
 30
0.0
  0
SPLINE
  5
3EE
100
AcDbEntity
  8
0
100
AcDbSpline
 62
7
  6
CONTINUOUS
 70
0
 71
3
 72
15
 73
11
 74
0
 42
0.0000001
 43
0.0000001
 44
0.0000000001
 40
0.0
 40
0.0
 40
0.0
 40
0.0
 40
0.1172839011
 40
0.2409416906
 40
0.3694140192
 40
0.5004343644
 40
0.6313887272
 40
0.7596715098
 40
0.8830399472
 40
1.0
 40
1.0
 40
1.0
 40
1.0
 10
-46.8214965778
 20
-32.9687224287
 30
0.0
 10
-47.1017503683
 20
-31.6759235843
 30
0.0
 10
-47.3744624899
 20
-28.9482057174
 30
0.0
 10
-46.9674018232
 20
-24.7788287197
 30
0.0
 10
-45.7831467647
 20
-20.5998275654
 30
0.0
 10
-43.8783900891
 20
-16.6067461662
 30
0.0
 10
-41.3426980688
 20
-12.983986188
 30
0.0
 10
-38.2923749594
 20
-9.9002382127
 30
0.0
 10
-34.8691647141
 20
-7.5009118201
 30
0.0
 10
-32.3647271906
 20
-6.4027952
 30
0.0
 10
-31.104002181
 20
-6.0144741733
 30
0.0
  0
SPLINE
  5
3EF
100
AcDbEntity
  8
0
100
AcDbSpline
 62
7
  6
CONTINUOUS
 70
0
 71
3
 72
11
 73
7
 74
0
 42
0.0000001
 43
0.0000001
 44
0.0000000001
 40
0.0
 40
0.0
 40
0.0
 40
0.0
 40
0.2398075587
 40
0.4840905514
 40
0.7366121038
 40
1.0
 40
1.0
 40
1.0
 40
1.0
 10
-10.5970885797
 20
-6.5085227
 30
0.0
 10
-11.5068977583
 20
-5.9830096591
 30
0.0
 10
-13.4643412627
 20
-5.1180233525
 30
0.0
 10
-16.6459466928
 20
-4.4581181089
 30
0.0
 10
-19.9966535321
 20
-4.4414996332
 30
0.0
 10
-22.2340776907
 20
-4.8477923817
 30
0.0
 10
-23.3487449686
 20
-5.1464627013
 30
0.0
  0
ELLIPSE
  5
3F0
100
AcDbEntity
  8
0
100
AcDbEllipse
 62
7
  6
CONTINUOUS
 10
-38.4767830208
 20
-19.8536653467
 30
0.0
 11
7.9605902891
 21
18.6801522383
 31
0.0
 40
0.7898509063
 41
6.7898586571
 42
6.9611674069
  0
ENDSEC
  0
SECTION
  2
OBJECTS
  0
DICTIONARY
  5
C
100
AcDbDictionary
280
0
281
1
  3
ACAD_GROUP
350
D
  3
ACAD_MLINESTYLE
350
17
  3
ACAD_LAYOUT
350
1A
  3
ACAD_PLOTSETTINGS
350
19
  3
ACAD_PLOTSTYLENAME
350
E
  0
DICTIONARY
  5
D
102
{ACAD_REACTORS
330
C
102
}
100
AcDbDictionary
280
0
281
1
  0
ACDBDICTIONARYWDFLT
  5
E
102
{ACAD_REACTORS
330
C
102
}
100
AcDbDictionary
281
1
  3
Normal
350
F
100
AcDbDictionaryWithDefault
340
F
  0
DICTIONARY
  5
17
102
{ACAD_REACTORS
330
C
102
}
100
AcDbDictionary
280
0
281
1
  3
Standard
350
18
  0
DICTIONARY
  5
19
102
{ACAD_REACTORS
330
C
102
}
100
AcDbDictionary
281
1
  0
DICTIONARY
  5
1A
102
{ACAD_REACTORS
330
C
102
}
100
AcDbDictionary
281
1
  3
Model
350
3F1
  3
Layout1
350
3F2
  0
ACDBPLACEHOLDER
  5
F
102
{ACAD_REACTORS
330
E
102
}
  0
MLINESTYLE
  5
18
102
{ACAD_REACTORS
330
17
102
}
100
AcDbMlineStyle
  2
STANDARD
 70
0
  3

 62
256
 51
90.0
 52
90.0
 71
2
 49
0.5
 62
256
  6
BYLAYER
 49
-0.5
 62
256
  6
BYLAYER
  0
LAYOUT
  5
3F1
102
{ACAD_REACTORS
330
1A
102
}
100
AcDbPlotSettings
  1

  2
none_device
  4
ANSI_C_(22.00_x_17.00_Inches)
  6

 40
0.0
 41
0.0
 42
0.0
 43
0.0
 44
558.8
 45
431.8
 46
0.0
 47
0.0
 48
0.0
 49
0.0
140
0.0
141
0.0
142
1.0
143
1.0
 70
1024
 72
0
 73
0
 74
0
  7

 75
0
147
1.0
148
0.0
149
0.0
100
AcDbLayout
  1
Model
 70
0
 71
0
 10
0.0
 20
0.0
 11
22.0
 21
17.0
 12
0.0
 22
0.0
 32
0.0
 14
0.0
 24
0.0
 34
0.0
 15
0.0
 25
0.0
 35
0.0
146
0.0
 13
0.0
 23
0.0
 33
0.0
 16
1.0
 26
0.0
 36
0.0
 17
0.0
 27
1.0
 37
0.0
 76
0
330
216
345
0
346
0
  0
LAYOUT
  5
3F2
102
{ACAD_REACTORS
330
1A
102
}
100
AcDbPlotSettings
  1

  2
none_device
  4
ANSI_C_(22.00_x_17.00_Inches)
  6

 40
0.0
 41
0.0
 42
0.0
 43
0.0
 44
558.8
 45
431.8
 46
0.0
 47
0.0
 48
0.0
 49
0.0
140
0.0
141
0.0
142
1.0
143
1.0
 70
0
 72
0
 73
0
 74
0
  7

 75
0
147
1.0
148
0.0
149
0.0
100
AcDbLayout
  1
Layout1
 70
0
 71
1
 10
0.0
 20
0.0
 11
22.0
 21
17.0
 12
0.0
 22
0.0
 32
0.0
 14
0.0
 24
0.0
 34
0.0
 15
0.0
 25
0.0
 35
0.0
146
0.0
 13
0.0
 23
0.0
 33
0.0
 16
1.0
 26
0.0
 36
0.0
 17
0.0
 27
1.0
 37
0.0
 76
0
330
217
345
0
346
0
  0
ENDSEC
  0
EOF
