999
DXF file: Y:\3D PRATIKA-KAEDRA_OLGA\CAD3D\2D_Views\PKE16M434_2D-isometric.dxf
999
Pro/ENGINEER 2018260 by Parametric Technology Corporation
  0
SECTION
  2
HEADER
  9
$ACADVER
  1
AC1027
  9
$DWGCODEPAGE
  3
ANSI_1252
  9
$EXTMAX
 10
22.0
 20
17.0
 30
0.0
  9
$EXTMIN
 10
0.0
 20
0.0
 30
0.0
  9
$LIMMIN
 10
0.0
 20
0.0
  9
$LIMMAX
 10
22.0
 20
17.0
  9
$VIEWCTR
 10
11.0
 20
8.5
  9
$VIEWSIZE
 40
17.0
  9
$CLAYER
  8
0
  9
$LTSCALE
 40
1.21
  9
$CELTYPE
  6
BYLAYER
  9
$DIMSCALE
 40
1.0
  9
$DIMASZ
 40
0.1875
  9
$DIMEXO
 40
0.0625
  9
$DIMDLI
 40
0.836
  9
$DIMEXE
 40
0.125
  9
$DIMCEN
 40
0.198
  9
$DIMLFAC
 40
1.0
  9
$DIMBLK
  1
_CLOSED
  9
$DIMALT
 70
0
  9
$DIMALTF
 40
25.4
  9
$DIMTXT
 40
0.15625
  9
$DIMTOL
 70
0
  9
$DIMLIM
 70
0
  9
$DIMTFAC
 40
1.0
  9
$DIMGAP
 40
0.09
  9
$DIMDSEP
 70
46
  9
$AUNITS
 70
0
  9
$PDMODE
 70
3
  9
$PDSIZE
 40
0.3125
  9
$HANDSEED
  5
3FA
  9
$TILEMODE
 70
1
  9
$MEASUREMENT
 70
0
  9
$INSUNITS
 70
1
  0
ENDSEC
  0
SECTION
  2
CLASSES
  0
CLASS
  1
ACDBDICTIONARYWDFLT
  2
AcDbDictionaryWithDefault
  3
AutoCAD 2000
 90
0
 91
1
280
0
281
0
  0
CLASS
  1
ACDBPLACEHOLDER
  2
AcDbPlaceHolder
  3
AutoCAD 2000
 90
0
 91
1
280
0
281
0
  0
CLASS
  1
LAYOUT
  2
AcDbLayout
  3
AutoCAD 2000
 90
0
 91
0
280
0
281
0
  0
ENDSEC
  0
SECTION
  2
TABLES
  0
TABLE
  2
VPORT
  5
8
100
AcDbSymbolTable
 70
2
  0
VPORT
  5
1F4
100
AcDbSymbolTableRecord
100
AcDbViewportTableRecord
  2
*ACTIVE
 70
0
 10
0.0
 20
0.0
 11
1.0
 21
1.0
 12
11.0
 22
8.5
 13
0.0
 23
0.0
 14
1.0
 24
1.0
 15
0.0
 25
0.0
 16
0.0
 26
0.0
 36
1.0
 17
0.0
 27
0.0
 37
0.0
 40
17.0
 41
1.2941176471
 42
50.0
 43
0.0
 44
0.0
 50
0.0
 51
0.0
 71
0
 72
100
 73
1
 74
1
 75
0
 76
0
 77
0
 78
0
  0
ENDTAB
  0
TABLE
  2
LTYPE
  5
5
100
AcDbSymbolTable
 70
6
  0
LTYPE
  5
14
100
AcDbSymbolTableRecord
100
AcDbLinetypeTableRecord
  2
BYBLOCK
 70
0
  3

 72
65
 73
0
 40
0.0
  0
LTYPE
  5
15
100
AcDbSymbolTableRecord
100
AcDbLinetypeTableRecord
  2
BYLAYER
 70
0
  3

 72
65
 73
0
 40
0.0
  0
LTYPE
  5
16
100
AcDbSymbolTableRecord
100
AcDbLinetypeTableRecord
  2
CONTINUOUS
 70
64
  3
Solid line
 72
65
 73
0
 40
0.0
  0
LTYPE
  5
1F5
100
AcDbSymbolTableRecord
100
AcDbLinetypeTableRecord
  2
CENTER
 70
64
  3
____ _ ____ _ ____ _ ____ _ ____ _ ____ _ ____
 72
65
 73
4
 40
0.6
 49
0.375
 74
0
 49
-0.075
 74
0
 49
0.075
 74
0
 49
-0.075
 74
0
  0
LTYPE
  5
1F6
100
AcDbSymbolTableRecord
100
AcDbLinetypeTableRecord
  2
HIDDEN
 70
64
  3
- - - - - - - - - - - - - - - - - - - -
 72
65
 73
2
 40
0.2
 49
0.1
 74
0
 49
-0.1
 74
0
  0
LTYPE
  5
1F7
100
AcDbSymbolTableRecord
100
AcDbLinetypeTableRecord
  2
PHANTOM
 70
64
  3
_____ _ _ _____ _ _ _____ _ _ _____
 72
65
 73
6
 40
0.8
 49
0.45
 74
0
 49
-0.05
 74
0
 49
0.1
 74
0
 49
-0.05
 74
0
 49
0.1
 74
0
 49
-0.05
 74
0
  0
LTYPE
  5
1F8
100
AcDbSymbolTableRecord
100
AcDbLinetypeTableRecord
  2
DOT
 70
64
  3
. . . . . . . . . . . . . . . . . . . .
 72
65
 73
2
 40
0.2
 49
0.1
 74
0
 49
-0.1
 74
0
  0
LTYPE
  5
1F9
100
AcDbSymbolTableRecord
100
AcDbLinetypeTableRecord
  2
DASHED
 70
64
  3
- - - - - - - - - - - - - - - - - - - -
 72
65
 73
2
 40
0.2
 49
0.1
 74
0
 49
-0.1
 74
0
  0
ENDTAB
  0
TABLE
  2
LAYER
  5
2
100
AcDbSymbolTable
 70
36
  0
LAYER
  5
10
100
AcDbSymbolTableRecord
100
AcDbLayerTableRecord
  2
0
 70
0
 62
7
  6
CONTINUOUS
370
-3
390
F
  0
LAYER
  5
1FA
100
AcDbSymbolTableRecord
100
AcDbLayerTableRecord
  2
DEFAULT_1
 70
0
 62
7
  6
CENTER
370
-3
390
F
  0
LAYER
  5
1FB
100
AcDbSymbolTableRecord
100
AcDbLayerTableRecord
  2
DEFAULT_2
 70
0
 62
8
  6
HIDDEN
370
-3
390
F
  0
LAYER
  5
1FC
100
AcDbSymbolTableRecord
100
AcDbLayerTableRecord
  2
DEFAULT_3
 70
0
 62
7
  6
PHANTOM
370
-3
390
F
  0
LAYER
  5
1FD
100
AcDbSymbolTableRecord
100
AcDbLayerTableRecord
  2
01_ALL_DTM_PLN
 70
0
 62
7
  6
CONTINUOUS
370
-3
390
F
  0
LAYER
  5
1FE
100
AcDbSymbolTableRecord
100
AcDbLayerTableRecord
  2
01__ASM_ALL_DTM_PLN
 70
0
 62
7
  6
CONTINUOUS
370
-3
390
F
  0
LAYER
  5
1FF
100
AcDbSymbolTableRecord
100
AcDbLayerTableRecord
  2
01__ASM_DEF_DTM_PLN
 70
0
 62
7
  6
CONTINUOUS
370
-3
390
F
  0
LAYER
  5
200
100
AcDbSymbolTableRecord
100
AcDbLayerTableRecord
  2
01___PRT_ALL_DTM_PLN
 70
0
 62
7
  6
CONTINUOUS
370
-3
390
F
  0
LAYER
  5
201
100
AcDbSymbolTableRecord
100
AcDbLayerTableRecord
  2
01___PRT_DEF_DTM_PLN
 70
0
 62
7
  6
CONTINUOUS
370
-3
390
F
  0
LAYER
  5
202
100
AcDbSymbolTableRecord
100
AcDbLayerTableRecord
  2
02_ALL_AXES
 70
0
 62
7
  6
CONTINUOUS
370
-3
390
F
  0
LAYER
  5
203
100
AcDbSymbolTableRecord
100
AcDbLayerTableRecord
  2
02__ASM_ALL_AXES
 70
0
 62
7
  6
CONTINUOUS
370
-3
390
F
  0
LAYER
  5
204
100
AcDbSymbolTableRecord
100
AcDbLayerTableRecord
  2
02___PRT_ALL_AXES
 70
0
 62
7
  6
CONTINUOUS
370
-3
390
F
  0
LAYER
  5
205
100
AcDbSymbolTableRecord
100
AcDbLayerTableRecord
  2
03_ALL_CURVES
 70
0
 62
7
  6
CONTINUOUS
370
-3
390
F
  0
LAYER
  5
206
100
AcDbSymbolTableRecord
100
AcDbLayerTableRecord
  2
03__ASM_ALL_CURVES
 70
0
 62
7
  6
CONTINUOUS
370
-3
390
F
  0
LAYER
  5
207
100
AcDbSymbolTableRecord
100
AcDbLayerTableRecord
  2
03___PRT_ALL_CURVES
 70
0
 62
7
  6
CONTINUOUS
370
-3
390
F
  0
LAYER
  5
208
100
AcDbSymbolTableRecord
100
AcDbLayerTableRecord
  2
04_ALL_DTM_PNT
 70
0
 62
7
  6
CONTINUOUS
370
-3
390
F
  0
LAYER
  5
209
100
AcDbSymbolTableRecord
100
AcDbLayerTableRecord
  2
04__ASM_ALL_DTM_PNT
 70
0
 62
7
  6
CONTINUOUS
370
-3
390
F
  0
LAYER
  5
20A
100
AcDbSymbolTableRecord
100
AcDbLayerTableRecord
  2
04___PRT_ALL_DTM_PNT
 70
0
 62
7
  6
CONTINUOUS
370
-3
390
F
  0
LAYER
  5
20B
100
AcDbSymbolTableRecord
100
AcDbLayerTableRecord
  2
05_ALL_DTM_CSYS
 70
0
 62
7
  6
CONTINUOUS
370
-3
390
F
  0
LAYER
  5
20C
100
AcDbSymbolTableRecord
100
AcDbLayerTableRecord
  2
05__ASM_ALL_DTM_CSYS
 70
0
 62
7
  6
CONTINUOUS
370
-3
390
F
  0
LAYER
  5
20D
100
AcDbSymbolTableRecord
100
AcDbLayerTableRecord
  2
05__ASM_DEF_DTM_CSYS
 70
0
 62
7
  6
CONTINUOUS
370
-3
390
F
  0
LAYER
  5
20E
100
AcDbSymbolTableRecord
100
AcDbLayerTableRecord
  2
05___PRT_ALL_DTM_CSYS
 70
0
 62
7
  6
CONTINUOUS
370
-3
390
F
  0
LAYER
  5
20F
100
AcDbSymbolTableRecord
100
AcDbLayerTableRecord
  2
05___PRT_DEF_DTM_CSYS
 70
0
 62
7
  6
CONTINUOUS
370
-3
390
F
  0
LAYER
  5
210
100
AcDbSymbolTableRecord
100
AcDbLayerTableRecord
  2
06_ALL_SURFS
 70
0
 62
7
  6
CONTINUOUS
370
-3
390
F
  0
LAYER
  5
211
100
AcDbSymbolTableRecord
100
AcDbLayerTableRecord
  2
06__ASM_ALL_SURFS
 70
0
 62
7
  6
CONTINUOUS
370
-3
390
F
  0
LAYER
  5
212
100
AcDbSymbolTableRecord
100
AcDbLayerTableRecord
  2
06___PRT_ALL_SURFS
 70
0
 62
7
  6
CONTINUOUS
370
-3
390
F
  0
LAYER
  5
213
100
AcDbSymbolTableRecord
100
AcDbLayerTableRecord
  2
07__ASM_ALL_SKELETONS
 70
0
 62
7
  6
CONTINUOUS
370
-3
390
F
  0
ENDTAB
  0
TABLE
  2
STYLE
  5
3
100
AcDbSymbolTable
 70
1
  0
STYLE
  5
11
100
AcDbSymbolTableRecord
100
AcDbTextStyleTableRecord
  2
STANDARD
 70
0
 40
0.0
 41
0.8
 50
0.0
 71
0
 42
0.2
  3
txt
  4

  0
STYLE
  5
214
100
AcDbSymbolTableRecord
100
AcDbTextStyleTableRecord
  2
TEXTSTYLE_1
 70
0
 40
0.0
 41
0.8
 50
0.0
 71
0
 42
0.2
  3
gdt
  4

  0
ENDTAB
  0
TABLE
  2
VIEW
  5
6
100
AcDbSymbolTable
 70
0
  0
ENDTAB
  0
TABLE
  2
UCS
  5
7
100
AcDbSymbolTable
 70
0
  0
ENDTAB
  0
TABLE
  2
APPID
  5
9
100
AcDbSymbolTable
 70
1
  0
APPID
  5
215
100
AcDbSymbolTableRecord
100
AcDbRegAppTableRecord
  2
ACAD
 70
0
  0
ENDTAB
  0
TABLE
  2
BLOCK_RECORD
  5
1
100
AcDbSymbolTable
 70
0
  0
BLOCK_RECORD
  5
216
100
AcDbSymbolTableRecord
100
AcDbBlockTableRecord
  2
*Model_Space
  0
BLOCK_RECORD
  5
217
100
AcDbSymbolTableRecord
100
AcDbBlockTableRecord
  2
*Paper_Space
  0
BLOCK_RECORD
  5
218
100
AcDbSymbolTableRecord
100
AcDbBlockTableRecord
  2
_CLOSED
  0
ENDTAB
  0
TABLE
  2
DIMSTYLE
  5
A
100
AcDbSymbolTable
 70
1
100
AcDbDimStyleTable
 71
0
  0
DIMSTYLE
105
219
100
AcDbSymbolTableRecord
100
AcDbDimStyleTableRecord
  2
STANDARD
 70
0
  3

  4

 40
1.0
 41
0.1875
 42
0.0625
 43
0.38
 44
0.125
 45
0.0
 46
0.0
 47
0.01
 48
0.01
140
0.15625
141
0.09
142
0.0
143
25.4
144
1.0
145
0.0
146
1.0
147
0.09
 71
0.0
 72
0.0
 73
1
 74
1
 75
0
 76
0
 77
0
 78
4
 79
1
170
0
171
1
172
0
173
0
174
0
175
0
176
0
177
0
178
0
270
2
179
2
271
2
272
2
273
2
274
2
275
0
280
0
281
0
282
0
283
1
284
4
285
0
286
0
287
3
288
0
340
11
278
46
341
218
342
218
343
218
344
218
  0
ENDTAB
  0
ENDSEC
  0
SECTION
  2
BLOCKS
  0
BLOCK
  5
20
100
AcDbEntity
  8
0
100
AcDbBlockBegin
  2
*Model_Space
 70
0
 10
0.0
 20
0.0
 30
0.0
  3
*Model_Space
  1

  0
ENDBLK
  5
21
100
AcDbEntity
  8
0
100
AcDbBlockEnd
  0
BLOCK
  5
1C
100
AcDbEntity
  8
0
100
AcDbBlockBegin
  2
*Paper_Space
 70
0
 10
0.0
 20
0.0
 30
0.0
  3
*Paper_Space
  1

  0
ENDBLK
  5
1D
100
AcDbEntity
  8
0
100
AcDbBlockEnd
  0
BLOCK
  5
21A
100
AcDbEntity
  8
0
100
AcDbBlockBegin
  2
_CLOSED
 70
64
 10
0.0
 20
0.0
  3
_CLOSED
  1

  0
LINE
  5
21B
100
AcDbEntity
  8
0
  6
BYBLOCK
 62
0
100
AcDbLine
 10
0.0
 20
0.0
 11
-1.0
 21
0.1666666667
  0
LINE
  5
21C
100
AcDbEntity
  8
0
  6
BYBLOCK
 62
0
100
AcDbLine
 10
-1.0
 20
0.1666666667
 11
-1.0
 21
-0.1666666667
  0
LINE
  5
21D
100
AcDbEntity
  8
0
  6
BYBLOCK
 62
0
100
AcDbLine
 10
-1.0
 20
-0.1666666667
 11
0.0
 21
0.0
  0
LINE
  5
21E
100
AcDbEntity
  8
0
  6
BYBLOCK
 62
0
100
AcDbLine
 10
-1.0
 20
0.0
 11
0.0
 21
0.0
  0
ENDBLK
  5
21F
100
AcDbEntity
  8
0
  6
BYBLOCK
 62
0
100
AcDbBlockEnd
  0
ENDSEC
  0
SECTION
  2
ENTITIES
  0
LINE
  5
220
100
AcDbEntity
  8
0
100
AcDbLine
 62
7
  6
CONTINUOUS
 10
-45.422766082
 20
15.0826967027
 11
-45.3964055606
 21
14.8225413099
  0
LINE
  5
221
100
AcDbEntity
  8
0
100
AcDbLine
 62
7
  6
CONTINUOUS
 10
-20.0793669848
 20
52.8304900106
 11
-20.1315152676
 21
53.4525412964
  0
LINE
  5
222
100
AcDbEntity
  8
0
100
AcDbLine
 62
7
  6
CONTINUOUS
 10
-37.724756017
 20
10.0884890965
 11
-37.7125217895
 21
9.9415758496
  0
LINE
  5
223
100
AcDbEntity
  8
0
100
AcDbLine
 62
7
  6
CONTINUOUS
 10
-37.7247559789
 20
10.0884152486
 11
-37.7247566215
 21
10.1757988508
  0
LINE
  5
224
100
AcDbEntity
  8
0
100
AcDbLine
 62
7
  6
CONTINUOUS
 10
-37.4054440064
 20
10.0348592393
 11
-37.4054440064
 21
9.9052879567
  0
LINE
  5
225
100
AcDbEntity
  8
0
100
AcDbLine
 62
7
  6
CONTINUOUS
 10
-20.13078009
 20
53.4437717203
 11
-20.13078009
 21
53.5309899431
  0
LINE
  5
226
100
AcDbEntity
  8
0
100
AcDbLine
 62
7
  6
CONTINUOUS
 10
-15.3102127715
 20
44.0968622023
 11
-15.3102127918
 21
44.050927966
  0
LINE
  5
227
100
AcDbEntity
  8
0
100
AcDbLine
 62
7
  6
CONTINUOUS
 10
-48.9339145232
 20
24.5776907683
 11
-48.935723115
 21
24.2706675673
  0
LINE
  5
228
100
AcDbEntity
  8
0
100
AcDbLine
 62
7
  6
CONTINUOUS
 10
-20.1315172538
 20
53.4561562396
 11
-20.13078009
 21
53.5309902657
  0
LINE
  5
229
100
AcDbEntity
  8
0
100
AcDbLine
 62
7
  6
CONTINUOUS
 10
-47.8238348993
 20
29.7747066023
 11
-47.82561723
 21
29.7501388257
  0
LINE
  5
22A
100
AcDbEntity
  8
0
100
AcDbLine
 62
7
  6
CONTINUOUS
 10
-47.8229556656
 20
29.7748616693
 11
-47.82561723
 21
29.7501388257
  0
LINE
  5
22B
100
AcDbEntity
  8
0
100
AcDbLine
 62
7
  6
CONTINUOUS
 10
-45.3811989464
 20
15.3400475393
 11
-45.422766082
 21
15.0826967027
  0
LINE
  5
22C
100
AcDbEntity
  8
0
100
AcDbLine
 62
7
  6
CONTINUOUS
 10
-47.0336717273
 20
36.0168532824
 11
-47.0336503024
 21
36.0169549509
  0
LINE
  5
22D
100
AcDbEntity
  8
0
100
AcDbLine
 62
7
  6
CONTINUOUS
 10
-31.8715654526
 20
11.399521971
 11
-31.8685785371
 21
11.412027501
  0
LINE
  5
22E
100
AcDbEntity
  8
0
100
AcDbLine
 62
7
  6
CONTINUOUS
 10
-48.8520492539
 20
24.8725017128
 11
-48.9339145232
 21
24.5776907683
  0
LINE
  5
22F
100
AcDbEntity
  8
0
100
AcDbLine
 62
7
  6
CONTINUOUS
 10
-46.9701751512
 20
36.226687295
 11
-47.0336788723
 21
36.0168811919
  0
LINE
  5
230
100
AcDbEntity
  8
0
100
AcDbLine
 62
7
  6
CONTINUOUS
 10
-45.3319038837
 20
15.4717489726
 11
-45.3811989464
 21
15.3400475393
  0
LINE
  5
231
100
AcDbEntity
  8
0
100
AcDbLine
 62
7
  6
CONTINUOUS
 10
-45.3318987224
 20
15.4717608115
 11
-45.0410241124
 21
16.1101703805
  0
LINE
  5
232
100
AcDbEntity
  8
0
100
AcDbLine
 62
7
  6
CONTINUOUS
 10
-44.7145730686
 20
15.9353187668
 11
-45.0119976579
 21
15.2825333414
  0
LINE
  5
233
100
AcDbEntity
  8
0
100
AcDbLine
 62
7
  6
CONTINUOUS
 10
-46.8170046117
 20
36.5077057474
 11
-46.9701751512
 21
36.226687295
  0
LINE
  5
234
100
AcDbEntity
  8
0
100
AcDbLine
 62
7
  6
CONTINUOUS
 10
-48.7010524337
 20
25.1268340541
 11
-48.8520492539
 21
24.8725017128
  0
LINE
  5
235
100
AcDbEntity
  8
0
100
AcDbLine
 62
7
  6
CONTINUOUS
 10
-40.8076217867
 20
46.5357208755
 11
-40.8147772182
 21
46.5242503473
  0
LINE
  5
236
100
AcDbEntity
  8
0
100
AcDbLine
 62
7
  6
CONTINUOUS
 10
-40.8076217867
 20
46.5357208755
 11
-40.815061147
 21
46.5244560847
  0
LINE
  5
237
100
AcDbEntity
  8
0
100
AcDbLine
 62
7
  6
CONTINUOUS
 10
-40.7932659226
 20
46.7471306026
 11
-40.9167170854
 21
46.5878456989
  0
LINE
  5
238
100
AcDbEntity
  8
0
100
AcDbLine
 62
7
  6
CONTINUOUS
 10
-33.8172690492
 20
20.8051611734
 11
-33.8063588983
 21
20.8192189228
  0
LINE
  5
239
100
AcDbEntity
  8
0
100
AcDbLine
 62
7
  6
CONTINUOUS
 10
-33.7611453946
 20
20.7695563602
 11
-33.7521858621
 21
20.781077503
  0
LINE
  5
23A
100
AcDbEntity
  8
0
100
AcDbLine
 62
7
  6
CONTINUOUS
 10
-46.6112800499
 20
36.728448801
 11
-46.8170046117
 21
36.5077057474
  0
LINE
  5
23B
100
AcDbEntity
  8
0
100
AcDbLine
 62
7
  6
CONTINUOUS
 10
-48.5920656285
 20
25.2433931529
 11
-48.7010524337
 21
25.1268340541
  0
LINE
  5
23C
100
AcDbEntity
  8
0
100
AcDbLine
 62
7
  6
CONTINUOUS
 10
-48.5920627152
 20
25.2433960663
 11
-48.0841502537
 21
25.7057508236
  0
LINE
  5
23D
100
AcDbEntity
  8
0
100
AcDbLine
 62
7
  6
CONTINUOUS
 10
-47.7508522589
 20
25.532647375
 11
-48.266005003
 21
25.0637017622
  0
LINE
  5
23E
100
AcDbEntity
  8
0
100
AcDbLine
 62
7
  6
CONTINUOUS
 10
-31.6942647684
 20
11.3220355575
 11
-31.6585051091
 21
11.3545877683
  0
LINE
  5
23F
100
AcDbEntity
  8
0
100
AcDbLine
 62
7
  6
CONTINUOUS
 10
-40.574937073
 20
46.93836418
 11
-40.7932659226
 21
46.7471306026
  0
LINE
  5
240
100
AcDbEntity
  8
0
100
AcDbLine
 62
7
  6
CONTINUOUS
 10
-31.165866511
 20
53.3284413058
 11
-31.2515183971
 21
53.2704318181
  0
LINE
  5
241
100
AcDbEntity
  8
0
100
AcDbLine
 62
7
  6
CONTINUOUS
 10
-31.165866511
 20
53.3284413058
 11
-31.252463907
 21
53.2733413474
  0
LINE
  5
242
100
AcDbEntity
  8
0
100
AcDbLine
 62
7
  6
CONTINUOUS
 10
-46.3753307808
 20
36.8721506599
 11
-46.6112800499
 21
36.728448801
  0
LINE
  5
243
100
AcDbEntity
  8
0
100
AcDbLine
 62
7
  6
CONTINUOUS
 10
-31.0139400457
 20
31.1181988658
 11
-31.0031567856
 21
31.124179941
  0
LINE
  5
244
100
AcDbEntity
  8
0
100
AcDbLine
 62
7
  6
CONTINUOUS
 10
-31.1183759151
 20
53.4443493239
 11
-31.3045733202
 21
53.3487780952
  0
LINE
  5
245
100
AcDbEntity
  8
0
100
AcDbLine
 62
7
  6
CONTINUOUS
 10
-40.3350437352
 20
47.0607668511
 11
-40.574937073
 21
46.93836418
  0
LINE
  5
246
100
AcDbEntity
  8
0
100
AcDbLine
 62
7
  6
CONTINUOUS
 10
-46.2646837047
 20
36.9102520569
 11
-46.3753307808
 21
36.8721506599
  0
LINE
  5
247
100
AcDbEntity
  8
0
100
AcDbLine
 62
7
  6
CONTINUOUS
 10
-37.1078317314
 20
9.2707658399
 11
-34.3463760326
 21
8.5275590002
  0
LINE
  5
248
100
AcDbEntity
  8
0
100
AcDbLine
 62
7
  6
CONTINUOUS
 10
-37.1081897825
 20
9.2708648517
 11
-37.1078320591
 21
9.2707645648
  0
LINE
  5
249
100
AcDbEntity
  8
0
100
AcDbLine
 62
7
  6
CONTINUOUS
 10
-37.2622297843
 20
9.3302918321
 11
-37.1078323004
 21
9.2707646309
  0
LINE
  5
24A
100
AcDbEntity
  8
0
100
AcDbLine
 62
7
  6
CONTINUOUS
 10
-31.8686375997
 20
11.4120569472
 11
-33.1106150065
 21
12.0782792876
  0
LINE
  5
24B
100
AcDbEntity
  8
0
100
AcDbLine
 62
7
  6
CONTINUOUS
 10
-33.7223386472
 20
20.7450152968
 11
-33.6831453525
 21
20.7226535559
  0
LINE
  5
24C
100
AcDbEntity
  8
0
100
AcDbLine
 62
7
  6
CONTINUOUS
 10
9.6049734026
 20
-22.7798424235
 11
14.3906545297
 21
-25.5439214927
  0
LINE
  5
24D
100
AcDbEntity
  8
0
100
AcDbLine
 62
7
  6
CONTINUOUS
 10
24.2363523415
 20
-28.6443287641
 11
25.6439056147
 21
-29.4572931961
  0
LINE
  5
24E
100
AcDbEntity
  8
0
100
AcDbLine
 62
7
  6
CONTINUOUS
 10
16.0911458049
 20
-22.5997188112
 11
36.6414235866
 21
-34.4689995201
  0
LINE
  5
24F
100
AcDbEntity
  8
0
100
AcDbLine
 62
7
  6
CONTINUOUS
 10
41.7405691872
 20
-36.1890252545
 11
47.4445446296
 21
-39.4834861078
  0
LINE
  5
250
100
AcDbEntity
  8
0
100
AcDbLine
 62
7
  6
CONTINUOUS
 10
-23.6461572629
 20
2.1991639735
 11
-0.0786650762
 21
-11.412777591
  0
LINE
  5
251
100
AcDbEntity
  8
0
100
AcDbLine
 62
7
  6
CONTINUOUS
 10
44.4339469017
 20
-36.3768104848
 11
46.4656509714
 21
-37.5502674165
  0
LINE
  5
252
100
AcDbEntity
  8
0
100
AcDbLine
 62
7
  6
CONTINUOUS
 10
31.0513806164
 20
-16.756661051
 11
47.9827022147
 21
-26.5357312388
  0
LINE
  5
253
100
AcDbEntity
  8
0
100
AcDbLine
 62
7
  6
CONTINUOUS
 10
-33.6834605411
 20
20.7204831995
 11
-33.8172690466
 21
20.8051611734
  0
LINE
  5
254
100
AcDbEntity
  8
0
100
AcDbLine
 62
7
  6
CONTINUOUS
 10
-45.027953816
 20
14.2791652084
 11
-45.0463943074
 21
14.2911217098
  0
LINE
  5
255
100
AcDbEntity
  8
0
100
AcDbLine
 62
7
  6
CONTINUOUS
 10
-33.5825897268
 20
20.6653857126
 11
-33.7521469493
 21
20.7812691968
  0
LINE
  5
256
100
AcDbEntity
  8
0
100
AcDbLine
 62
7
  6
CONTINUOUS
 10
-33.7517669221
 20
20.7812779192
 11
-33.8063588805
 21
20.819218933
  0
LINE
  5
257
100
AcDbEntity
  8
0
100
AcDbLine
 62
7
  6
CONTINUOUS
 10
-37.4767745394
 20
9.4840489897
 11
-37.2622297843
 21
9.3302918321
  0
LINE
  5
258
100
AcDbEntity
  8
0
100
AcDbLine
 62
7
  6
CONTINUOUS
 10
-45.0463943074
 20
14.2911217098
 11
-45.046713527
 21
14.2913536905
  0
LINE
  5
259
100
AcDbEntity
  8
0
100
AcDbLine
 62
7
  6
CONTINUOUS
 10
-33.7611453819
 20
20.7695564796
 11
-33.7798189234
 21
20.7834650421
  0
LINE
  5
25A
100
AcDbEntity
  8
0
100
AcDbLine
 62
7
  6
CONTINUOUS
 10
-33.7986103362
 20
20.7912521639
 11
-33.8172690111
 21
20.8051612445
  0
LINE
  5
25B
100
AcDbEntity
  8
0
100
AcDbLine
 62
7
  6
CONTINUOUS
 10
-33.6841697522
 20
20.7257413653
 11
-33.7521469493
 21
20.7812691968
  0
LINE
  5
25C
100
AcDbEntity
  8
0
100
AcDbLine
 62
7
  6
CONTINUOUS
 10
-45.1469449013
 20
14.3762405642
 11
-45.046570144
 21
14.2912246966
  0
LINE
  5
25D
100
AcDbEntity
  8
0
100
AcDbLine
 62
7
  6
CONTINUOUS
 10
-45.3023213673
 20
14.5804968841
 11
-45.1469449013
 21
14.3762405642
  0
LINE
  5
25E
100
AcDbEntity
  8
0
100
AcDbLine
 62
7
  6
CONTINUOUS
 10
-37.630461753
 20
9.6938382577
 11
-37.4767745394
 21
9.4840489897
  0
LINE
  5
25F
100
AcDbEntity
  8
0
100
AcDbLine
 62
7
  6
CONTINUOUS
 10
-45.0669259275
 20
16.0634183506
 11
-45.0800326755
 21
16.081995776
  0
LINE
  5
260
100
AcDbEntity
  8
0
100
AcDbLine
 62
7
  6
CONTINUOUS
 10
-45.0584520125
 20
16.0719197484
 11
-45.0707535907
 21
16.0912863899
  0
LINE
  5
261
100
AcDbEntity
  8
0
100
AcDbLine
 62
7
  6
CONTINUOUS
 10
-24.1645752863
 20
39.5768630508
 11
-24.1439295592
 21
39.5426185956
  0
LINE
  5
262
100
AcDbEntity
  8
0
100
AcDbLine
 62
7
  6
CONTINUOUS
 10
-29.7542682902
 20
52.5701894619
 11
-30.0516914673
 21
53.0635175684
  0
LINE
  5
263
100
AcDbEntity
  8
0
100
AcDbLine
 62
7
  6
CONTINUOUS
 10
-30.0785439892
 20
53.1466530689
 11
-29.7672897679
 21
52.6303923539
  0
LINE
  5
264
100
AcDbEntity
  8
0
100
AcDbLine
 62
7
  6
CONTINUOUS
 10
-19.4062129082
 20
50.6031659283
 11
-19.406167907
 21
50.6030583517
  0
LINE
  5
265
100
AcDbEntity
  8
0
100
AcDbLine
 62
7
  6
CONTINUOUS
 10
-45.3964055606
 20
14.8225413099
 11
-45.3023213673
 21
14.5804968841
  0
LINE
  5
266
100
AcDbEntity
  8
0
100
AcDbLine
 62
7
  6
CONTINUOUS
 10
-19.406211882
 20
50.6031636499
 11
-19.8468314097
 21
51.8226317419
  0
LINE
  5
267
100
AcDbEntity
  8
0
100
AcDbLine
 62
7
  6
CONTINUOUS
 10
-37.7125217895
 20
9.9415758496
 11
-37.630461753
 21
9.6938382577
  0
LINE
  5
268
100
AcDbEntity
  8
0
100
AcDbLine
 62
7
  6
CONTINUOUS
 10
-48.8944688693
 20
24.0864109076
 11
-48.8945233675
 21
24.086579937
  0
LINE
  5
269
100
AcDbEntity
  8
0
100
AcDbLine
 62
7
  6
CONTINUOUS
 10
-30.0778884177
 20
53.1455742725
 11
-30.0516914673
 21
53.0635175684
  0
LINE
  5
26A
100
AcDbEntity
  8
0
100
AcDbLine
 62
7
  6
CONTINUOUS
 10
-19.8468314097
 20
51.8226317419
 11
-20.0793669848
 21
52.8304900106
  0
LINE
  5
26B
100
AcDbEntity
  8
0
100
AcDbLine
 62
7
  6
CONTINUOUS
 10
-48.935723115
 20
24.2706675673
 11
-48.894491676
 21
24.0864233079
  0
LINE
  5
26C
100
AcDbEntity
  8
0
100
AcDbLine
 62
7
  6
CONTINUOUS
 10
-20.1307741514
 20
53.5320078608
 11
-20.1631307644
 21
53.7690314736
  0
LINE
  5
26D
100
AcDbEntity
  8
0
100
AcDbLine
 62
7
  6
CONTINUOUS
 10
-34.3463760326
 20
8.5275590002
 11
-33.5297213769
 21
8.3241756706
  0
LINE
  5
26E
100
AcDbEntity
  8
0
100
AcDbLine
 62
7
  6
CONTINUOUS
 10
-31.2610897826
 20
10.6517022856
 11
-31.426519853
 21
10.7063514168
  0
LINE
  5
26F
100
AcDbEntity
  8
0
100
AcDbLine
 62
7
  6
CONTINUOUS
 10
-20.1631307644
 20
53.7690314736
 11
-20.2615495744
 21
53.9907072177
  0
LINE
  5
270
100
AcDbEntity
  8
0
100
AcDbLine
 62
7
  6
CONTINUOUS
 10
-18.6264054584
 20
48.9821671993
 11
-19.406167907
 21
50.6030583517
  0
LINE
  5
271
100
AcDbEntity
  8
0
100
AcDbLine
 62
7
  6
CONTINUOUS
 10
0.6966538507
 20
33.9723402568
 11
0.1481035051
 21
44.5271294774
  0
LINE
  5
272
100
AcDbEntity
  8
0
100
AcDbLine
 62
7
  6
CONTINUOUS
 10
31.4595330792
 20
-13.4675530801
 11
38.4725485172
 21
-17.5180797822
  0
LINE
  5
273
100
AcDbEntity
  8
0
100
AcDbLine
 62
7
  6
CONTINUOUS
 10
1.6930901129
 20
41.1701247182
 11
2.1095837503
 21
33.1562704336
  0
LINE
  5
274
100
AcDbEntity
  8
0
100
AcDbLine
 62
7
  6
CONTINUOUS
 10
-24.8183056628
 20
40.3463942092
 11
-25.0506854902
 21
40.6323772873
  0
LINE
  5
275
100
AcDbEntity
  8
0
100
AcDbLine
 62
7
  6
CONTINUOUS
 10
-25.0506861226
 20
40.6323780823
 11
-25.2319858007
 21
40.8604634732
  0
LINE
  5
276
100
AcDbEntity
  8
0
100
AcDbLine
 62
7
  6
CONTINUOUS
 10
40.7559627236
 20
-13.0858873766
 11
40.9732709808
 21
-13.188369958
  0
LINE
  5
277
100
AcDbEntity
  8
0
100
AcDbLine
 62
7
  6
CONTINUOUS
 10
-24.5262230212
 20
39.9964594329
 11
-24.8183056628
 21
40.3463942092
  0
LINE
  5
278
100
AcDbEntity
  8
0
100
AcDbLine
 62
7
  6
CONTINUOUS
 10
-30.0782255722
 20
53.1461305579
 11
-30.1471849339
 21
53.242453586
  0
LINE
  5
279
100
AcDbEntity
  8
0
100
AcDbLine
 62
7
  6
CONTINUOUS
 10
-33.7709323905
 20
19.8106062385
 11
-33.6023087247
 21
19.7407698707
  0
LINE
  5
27A
100
AcDbEntity
  8
0
100
AcDbLine
 62
7
  6
CONTINUOUS
 10
-24.2771468086
 20
39.7058947435
 11
-24.5262230212
 21
39.9964594329
  0
LINE
  5
27B
100
AcDbEntity
  8
0
100
AcDbLine
 62
7
  6
CONTINUOUS
 10
-33.7798189234
 20
20.7834650421
 11
-33.7986103362
 21
20.7912521639
  0
LINE
  5
27C
100
AcDbEntity
  8
0
100
AcDbLine
 62
7
  6
CONTINUOUS
 10
-25.1364420903
 20
40.6324502234
 11
-25.0983794181
 21
40.5898067171
  0
LINE
  5
27D
100
AcDbEntity
  8
0
100
AcDbLine
 62
7
  6
CONTINUOUS
 10
-25.1368209186
 20
40.6321870997
 11
-25.0990400417
 21
40.5894783256
  0
LINE
  5
27E
100
AcDbEntity
  8
0
100
AcDbLine
 62
7
  6
CONTINUOUS
 10
42.0298473742
 20
-15.0138418163
 11
51.4837136632
 21
-20.4741374845
  0
LINE
  5
27F
100
AcDbEntity
  8
0
100
AcDbLine
 62
7
  6
CONTINUOUS
 10
-17.4970308134
 20
47.0915515114
 11
-18.6264054584
 21
48.9821671993
  0
LINE
  5
280
100
AcDbEntity
  8
0
100
AcDbLine
 62
7
  6
CONTINUOUS
 10
32.8906077558
 20
-8.5200438311
 11
40.9732709808
 21
-13.188369958
  0
LINE
  5
281
100
AcDbEntity
  8
0
100
AcDbLine
 62
7
  6
CONTINUOUS
 10
-24.2874279031
 20
39.7055096084
 11
-24.164574537
 21
39.5768625123
  0
LINE
  5
282
100
AcDbEntity
  8
0
100
AcDbLine
 62
7
  6
CONTINUOUS
 10
-31.2633290288
 20
30.0800679373
 11
-31.4263981489
 21
30.1719882944
  0
LINE
  5
283
100
AcDbEntity
  8
0
100
AcDbLine
 62
7
  6
CONTINUOUS
 10
-16.063000128
 20
45.060796688
 11
-17.4970308134
 21
47.0915515114
  0
LINE
  5
284
100
AcDbEntity
  8
0
100
AcDbLine
 62
7
  6
CONTINUOUS
 10
37.1407145083
 20
-3.8865426562
 11
36.7575851374
 21
-3.7057049356
  0
LINE
  5
285
100
AcDbEntity
  8
0
100
AcDbLine
 62
7
  6
CONTINUOUS
 10
-15.8659993104
 20
44.8029081131
 11
-16.0629988732
 21
45.0607950192
  0
LINE
  5
286
100
AcDbEntity
  8
0
100
AcDbLine
 62
7
  6
CONTINUOUS
 10
-15.4060025672
 20
44.2162853087
 11
-15.6179708936
 21
44.4840173437
  0
LINE
  5
287
100
AcDbEntity
  8
0
100
AcDbLine
 62
7
  6
CONTINUOUS
 10
-15.6179708936
 20
44.4840173437
 11
-15.8659993104
 21
44.8029081131
  0
LINE
  5
288
100
AcDbEntity
  8
0
100
AcDbLine
 62
7
  6
CONTINUOUS
 10
37.6745583123
 20
-2.1180726879
 11
37.8983450479
 21
-2.2237004091
  0
LINE
  5
289
100
AcDbEntity
  8
0
100
AcDbLine
 62
7
  6
CONTINUOUS
 10
35.918613587
 20
-3.2212991149
 11
36.7575153382
 21
-3.7058259158
  0
LINE
  5
28A
100
AcDbEntity
  8
0
100
AcDbLine
 62
7
  6
CONTINUOUS
 10
-16.11848576
 20
45.080564685
 11
-16.0870287185
 21
45.0414631147
  0
LINE
  5
28B
100
AcDbEntity
  8
0
100
AcDbLine
 62
7
  6
CONTINUOUS
 10
6.5551656541
 20
30.5886234124
 11
6.0066409803
 21
32.4020939612
  0
LINE
  5
28C
100
AcDbEntity
  8
0
100
AcDbLine
 62
7
  6
CONTINUOUS
 10
8.0253856245
 20
30.2700703919
 11
8.1847164539
 21
29.6474392546
  0
LINE
  5
28D
100
AcDbEntity
  8
0
100
AcDbLine
 62
7
  6
CONTINUOUS
 10
-25.0217401861
 20
39.0131388519
 11
-24.8714088358
 21
38.9056204741
  0
LINE
  5
28E
100
AcDbEntity
  8
0
100
AcDbLine
 62
7
  6
CONTINUOUS
 10
37.3425395733
 20
-1.8397910347
 11
56.2410596629
 21
-12.7550614876
  0
LINE
  5
28F
100
AcDbEntity
  8
0
100
AcDbLine
 62
7
  6
CONTINUOUS
 10
58.5244738667
 20
-8.322869082
 11
58.7417821265
 21
-8.4253516634
  0
LINE
  5
290
100
AcDbEntity
  8
0
100
AcDbLine
 62
7
  6
CONTINUOUS
 10
-20.2615495744
 20
53.9907072177
 11
-20.4195578741
 21
54.1744531926
  0
LINE
  5
291
100
AcDbEntity
  8
0
100
AcDbLine
 62
7
  6
CONTINUOUS
 10
-30.8320627869
 20
30.9829201295
 11
-30.8678105945
 21
30.9962964248
  0
LINE
  5
292
100
AcDbEntity
  8
0
100
AcDbLine
 62
7
  6
CONTINUOUS
 10
38.2605834395
 20
0.0000057505
 11
47.3568040888
 21
-5.2537235388
  0
LINE
  5
293
100
AcDbEntity
  8
0
100
AcDbLine
 62
7
  6
CONTINUOUS
 10
12.316928347
 20
30.7551179283
 11
12.1575975201
 21
31.3777490655
  0
LINE
  5
294
100
AcDbEntity
  8
0
100
AcDbLine
 62
7
  6
CONTINUOUS
 10
-30.1471849339
 20
53.242453586
 11
-30.3300119495
 21
53.3997601472
  0
LINE
  5
295
100
AcDbEntity
  8
0
100
AcDbLine
 62
7
  6
CONTINUOUS
 10
50.7266698484
 20
-3.7960411252
 11
58.7417821265
 21
-8.4253516634
  0
LINE
  5
296
100
AcDbEntity
  8
0
100
AcDbLine
 62
7
  6
CONTINUOUS
 10
-16.2726558809
 20
43.9661679095
 11
-16.1368246438
 21
43.851357814
  0
LINE
  5
297
100
AcDbEntity
  8
0
100
AcDbLine
 62
7
  6
CONTINUOUS
 10
-7.7425494004
 20
44.5524981186
 11
-7.51241839
 21
44.2926124865
  0
LINE
  5
298
100
AcDbEntity
  8
0
100
AcDbLine
 62
7
  6
CONTINUOUS
 10
-7.51241839
 20
44.2926124865
 11
-7.3954372168
 21
44.1602538383
  0
LINE
  5
299
100
AcDbEntity
  8
0
100
AcDbLine
 62
7
  6
CONTINUOUS
 10
-7.3958161645
 20
44.1604156388
 11
-7.3796390594
 21
44.1421057237
  0
LINE
  5
29A
100
AcDbEntity
  8
0
100
AcDbLine
 62
7
  6
CONTINUOUS
 10
-7.3750327592
 20
44.1454497709
 11
-8.7294305584
 21
45.6791719333
  0
LINE
  5
29B
100
AcDbEntity
  8
0
100
AcDbLine
 62
7
  6
CONTINUOUS
 10
-7.3796390594
 20
44.1421057237
 11
-7.1018973949
 21
43.8273167673
  0
LINE
  5
29C
100
AcDbEntity
  8
0
100
AcDbLine
 62
7
  6
CONTINUOUS
 10
-7.0969363126
 20
43.8268161816
 11
-7.3750359622
 21
44.1454534234
  0
LINE
  5
29D
100
AcDbEntity
  8
0
100
AcDbLine
 62
7
  6
CONTINUOUS
 10
46.4656509714
 20
-37.5502674165
 11
46.4656509714
 21
-36.2782649567
  0
LINE
  5
29E
100
AcDbEntity
  8
0
100
AcDbLine
 62
7
  6
CONTINUOUS
 10
51.4243052426
 20
-34.9490505488
 11
51.4243052426
 21
-36.2210530086
  0
LINE
  5
29F
100
AcDbEntity
  8
0
100
AcDbLine
 62
7
  6
CONTINUOUS
 10
12.1575975201
 20
31.3777490655
 11
8.0253856245
 21
30.2700703919
  0
LINE
  5
2A0
100
AcDbEntity
  8
0
100
AcDbLine
 62
7
  6
CONTINUOUS
 10
-33.5918629468
 20
20.6628987833
 11
-33.5825883679
 21
20.6653849709
  0
LINE
  5
2A1
100
AcDbEntity
  8
0
100
AcDbLine
 62
7
  6
CONTINUOUS
 10
2.2217073284
 20
43.0097876886
 11
6.353919224
 21
44.1174663623
  0
LINE
  5
2A2
100
AcDbEntity
  8
0
100
AcDbLine
 62
7
  6
CONTINUOUS
 10
5.9693793276
 20
44.6592508312
 11
1.837167432
 21
43.5515721601
  0
LINE
  5
2A3
100
AcDbEntity
  8
0
100
AcDbLine
 62
7
  6
CONTINUOUS
 10
4.2803153981
 20
45.6348081511
 11
0.1481035051
 21
44.5271294774
  0
LINE
  5
2A4
100
AcDbEntity
  8
0
100
AcDbLine
 62
7
  6
CONTINUOUS
 10
-45.7007090135
 20
36.7873998312
 11
-45.9754470365
 21
36.713753692
  0
LINE
  5
2A5
100
AcDbEntity
  8
0
100
AcDbLine
 62
7
  6
CONTINUOUS
 10
-46.2647604076
 20
36.9102306396
 11
-45.9765746137
 21
36.987481778
  0
LINE
  5
2A6
100
AcDbEntity
  8
0
100
AcDbLine
 62
7
  6
CONTINUOUS
 10
-30.833263229
 20
53.5132433848
 11
-31.1183759151
 21
53.4443493239
  0
LINE
  5
2A7
100
AcDbEntity
  8
0
100
AcDbLine
 62
7
  6
CONTINUOUS
 10
-40.0902919108
 20
47.1099016118
 11
-40.3350437352
 21
47.0607668511
  0
LINE
  5
2A8
100
AcDbEntity
  8
0
100
AcDbLine
 62
7
  6
CONTINUOUS
 10
-24.287427766
 20
39.705509682
 11
-24.2771481523
 21
39.7058921527
  0
LINE
  5
2A9
100
AcDbEntity
  8
0
100
AcDbLine
 62
7
  6
CONTINUOUS
 10
-21.0266856108
 20
54.3825434343
 11
-21.0269296947
 21
54.3825347221
  0
LINE
  5
2AA
100
AcDbEntity
  8
0
100
AcDbLine
 62
7
  6
CONTINUOUS
 10
-20.8735826633
 20
54.3755241824
 11
-21.02674525
 21
54.382560117
  0
LINE
  5
2AB
100
AcDbEntity
  8
0
100
AcDbLine
 62
7
  6
CONTINUOUS
 10
-30.5625748347
 20
53.4947774654
 11
-30.833263229
 21
53.5132433848
  0
LINE
  5
2AC
100
AcDbEntity
  8
0
100
AcDbLine
 62
7
  6
CONTINUOUS
 10
-39.8578930385
 20
47.0870409667
 11
-40.0902919108
 21
47.1099016118
  0
LINE
  5
2AD
100
AcDbEntity
  8
0
100
AcDbLine
 62
7
  6
CONTINUOUS
 10
-19.3764471104
 20
52.6603401528
 11
-19.4274298787
 21
52.6737155642
  0
LINE
  5
2AE
100
AcDbEntity
  8
0
100
AcDbLine
 62
7
  6
CONTINUOUS
 10
-20.6276726522
 20
54.3066718792
 11
-20.8735826633
 21
54.3755241824
  0
LINE
  5
2AF
100
AcDbEntity
  8
0
100
AcDbLine
 62
7
  6
CONTINUOUS
 10
-39.7837651654
 20
47.0637523569
 11
-39.8578930385
 21
47.0870409667
  0
LINE
  5
2B0
100
AcDbEntity
  8
0
100
AcDbLine
 62
7
  6
CONTINUOUS
 10
-19.3779033509
 20
52.6558058947
 11
-19.423235724
 21
52.6703021446
  0
LINE
  5
2B1
100
AcDbEntity
  8
0
100
AcDbLine
 62
7
  6
CONTINUOUS
 10
-15.4126784822
 20
44.2184658783
 11
-15.4060018967
 21
44.2162864644
  0
LINE
  5
2B2
100
AcDbEntity
  8
0
100
AcDbLine
 62
7
  6
CONTINUOUS
 10
-19.3780375467
 20
52.6554876784
 11
-19.423235724
 21
52.6703021446
  0
LINE
  5
2B3
100
AcDbEntity
  8
0
100
AcDbLine
 62
7
  6
CONTINUOUS
 10
-20.0931553138
 20
52.9708885106
 11
-20.0757994481
 21
52.9649756726
  0
LINE
  5
2B4
100
AcDbEntity
  8
0
100
AcDbLine
 62
7
  6
CONTINUOUS
 10
-20.1055447861
 20
52.9423513236
 11
-20.0882436142
 21
52.9363749678
  0
LINE
  5
2B5
100
AcDbEntity
  8
0
100
AcDbLine
 62
7
  6
CONTINUOUS
 10
-39.1135065034
 20
46.6838050777
 11
-39.628675595
 21
46.8765736304
  0
LINE
  5
2B6
100
AcDbEntity
  8
0
100
AcDbLine
 62
7
  6
CONTINUOUS
 10
-39.7838666841
 20
47.0637899464
 11
-39.2371692711
 21
46.8592250215
  0
LINE
  5
2B7
100
AcDbEntity
  8
0
100
AcDbLine
 62
7
  6
CONTINUOUS
 10
-30.3300119495
 20
53.3997601472
 11
-30.5625748347
 21
53.4947774654
  0
LINE
  5
2B8
100
AcDbEntity
  8
0
100
AcDbLine
 62
7
  6
CONTINUOUS
 10
42.1686453465
 20
3.5168746426
 11
49.8575265524
 21
-0.9240137146
  0
LINE
  5
2B9
100
AcDbEntity
  8
0
100
AcDbLine
 62
7
  6
CONTINUOUS
 10
0.6966538507
 20
33.9723402568
 11
2.1095837503
 21
33.1562704336
  0
LINE
  5
2BA
100
AcDbEntity
  8
0
100
AcDbLine
 62
7
  6
CONTINUOUS
 10
6.5551656541
 20
30.5886234124
 11
8.1847164539
 21
29.6474392546
  0
LINE
  5
2BB
100
AcDbEntity
  8
0
100
AcDbLine
 62
7
  6
CONTINUOUS
 10
-0.6395105966
 20
42.0324943549
 11
0.3061399429
 21
41.4863123587
  0
LINE
  5
2BC
100
AcDbEntity
  8
0
100
AcDbLine
 62
7
  6
CONTINUOUS
 10
10.8196610621
 20
35.4139889229
 11
22.9380772977
 21
28.414721781
  0
LINE
  5
2BD
100
AcDbEntity
  8
0
100
AcDbLine
 62
7
  6
CONTINUOUS
 10
40.6982548456
 20
20.0046258555
 11
61.2485326273
 21
8.1353451491
  0
LINE
  5
2BE
100
AcDbEntity
  8
0
100
AcDbLine
 62
7
  6
CONTINUOUS
 10
0.1481035051
 20
44.5271294774
 11
1.837167432
 21
43.5515721601
  0
LINE
  5
2BF
100
AcDbEntity
  8
0
100
AcDbLine
 62
7
  6
CONTINUOUS
 10
37.6130649936
 20
25.7129076038
 11
42.3987461207
 21
22.9488285371
  0
LINE
  5
2C0
100
AcDbEntity
  8
0
100
AcDbLine
 62
7
  6
CONTINUOUS
 10
4.2803153981
 20
45.6348081511
 11
5.9693793276
 21
44.6592508312
  0
LINE
  5
2C1
100
AcDbEntity
  8
0
100
AcDbLine
 62
7
  6
CONTINUOUS
 10
-14.8188254739
 20
50.635413969
 11
-14.8244454677
 21
50.6386668327
  0
LINE
  5
2C2
100
AcDbEntity
  8
0
100
AcDbLine
 62
7
  6
CONTINUOUS
 10
-19.4232877178
 20
52.6703278341
 11
-19.3846144449
 21
52.6479316711
  0
LINE
  5
2C3
100
AcDbEntity
  8
0
100
AcDbLine
 62
7
  6
CONTINUOUS
 10
-14.8244135932
 20
50.6386538152
 11
-12.2495319333
 21
49.0857097481
  0
LINE
  5
2C4
100
AcDbEntity
  8
0
100
AcDbLine
 62
7
  6
CONTINUOUS
 10
-12.2494306177
 20
49.0856461109
 11
-12.2438216678
 21
49.0821154855
  0
LINE
  5
2C5
100
AcDbEntity
  8
0
100
AcDbLine
 62
7
  6
CONTINUOUS
 10
-19.4232877178
 20
52.6703278341
 11
-19.3853722107
 21
52.6462725127
  0
LINE
  5
2C6
100
AcDbEntity
  8
0
100
AcDbLine
 62
7
  6
CONTINUOUS
 10
-20.4195578741
 20
54.1744531926
 11
-20.6276726522
 21
54.3066718792
  0
LINE
  5
2C7
100
AcDbEntity
  8
0
100
AcDbLine
 62
7
  6
CONTINUOUS
 10
-12.0605419404
 20
48.9605144613
 11
-12.2439237199
 21
49.0821796688
  0
LINE
  5
2C8
100
AcDbEntity
  8
0
100
AcDbLine
 62
7
  6
CONTINUOUS
 10
-7.3954434449
 20
44.1602565155
 11
-7.3750359622
 21
44.1454534234
  0
LINE
  5
2C9
100
AcDbEntity
  8
0
100
AcDbLine
 62
7
  6
CONTINUOUS
 10
-11.0972429678
 20
48.1429780598
 11
-10.9945827058
 21
48.067251691
  0
LINE
  5
2CA
100
AcDbEntity
  8
0
100
AcDbLine
 62
7
  6
CONTINUOUS
 10
-11.5149486907
 20
48.53644217
 11
-12.0605419404
 21
48.9605144613
  0
LINE
  5
2CB
100
AcDbEntity
  8
0
100
AcDbLine
 62
7
  6
CONTINUOUS
 10
-10.994339135
 20
48.067020927
 11
-11.5149486907
 21
48.53644217
  0
LINE
  5
2CC
100
AcDbEntity
  8
0
100
AcDbLine
 62
7
  6
CONTINUOUS
 10
-10.9945827058
 20
48.067251691
 11
-10.9943361632
 21
48.0670180415
  0
LINE
  5
2CD
100
AcDbEntity
  8
0
100
AcDbLine
 62
7
  6
CONTINUOUS
 10
-9.9553549189
 20
47.0175233663
 11
-10.9945827058
 21
48.067251691
  0
LINE
  5
2CE
100
AcDbEntity
  8
0
100
AcDbLine
 62
7
  6
CONTINUOUS
 10
-8.7294305584
 20
45.6791719333
 11
-9.9553549189
 21
47.0175233663
  0
LINE
  5
2CF
100
AcDbEntity
  8
0
100
AcDbLine
 62
7
  6
CONTINUOUS
 10
1.837167432
 20
43.5515721601
 11
2.2217073284
 21
43.0097876886
  0
LINE
  5
2D0
100
AcDbEntity
  8
0
100
AcDbLine
 62
7
  6
CONTINUOUS
 10
6.353919224
 20
44.1174663623
 11
5.9693793276
 21
44.6592508312
  0
LINE
  5
2D1
100
AcDbEntity
  8
0
100
AcDbLine
 62
7
  6
CONTINUOUS
 10
2.1653277917
 20
40.4565926376
 11
1.6930901129
 21
41.1701247182
  0
ARC
  5
2D2
100
AcDbEntity
  8
0
100
AcDbCircle
 62
7
  6
CONTINUOUS
 10
-53.0134563209
 20
-10.0504059723
 40
71.2884324114
100
AcDbArc
 50
49.1351209043
 51
51.938951664
  0
ARC
  5
2D3
100
AcDbEntity
  8
0
100
AcDbCircle
 62
7
  6
CONTINUOUS
 10
-44.8300137572
 20
14.5339255422
 40
0.3226528777
100
AcDbArc
 50
228.6273576748
 51
232.1364085991
  0
ARC
  5
2D4
100
AcDbEntity
  8
0
100
AcDbCircle
 62
7
  6
CONTINUOUS
 10
-31.3299087762
 20
33.20150602
 40
23.3611774127
100
AcDbArc
 50
234.0450669371
 51
240.0369685006
  0
ARC
  5
2D5
100
AcDbEntity
  8
0
100
AcDbCircle
 62
7
  6
CONTINUOUS
 10
-31.4266780747
 20
33.0313356009
 40
23.1654612763
100
AcDbArc
 50
234.0459692377
 51
238.9954582647
  0
ARC
  5
2D6
100
AcDbEntity
  8
0
100
AcDbCircle
 62
7
  6
CONTINUOUS
 10
-31.4691410759
 20
32.9635088049
 40
23.0854522339
100
AcDbArc
 50
238.9990773024
 51
240.0348897728
  0
ARC
  5
2D7
100
AcDbEntity
  8
0
100
AcDbCircle
 62
7
  6
CONTINUOUS
 10
-32.4462651592
 20
25.785131912
 40
16.0649189877
100
AcDbArc
 50
217.5365451644
 51
217.801637931
  0
ARC
  5
2D8
100
AcDbEntity
  8
0
100
AcDbCircle
 62
7
  6
CONTINUOUS
 10
-31.9108386431
 20
25.2716046484
 40
16.0611082968
100
AcDbArc
 50
204.5521493224
 51
210.2828165952
  0
ARC
  5
2D9
100
AcDbEntity
  8
0
100
AcDbCircle
 62
7
  6
CONTINUOUS
 10
-32.6393381767
 20
24.8416367936
 40
15.2151960339
100
AcDbArc
 50
210.2679877036
 51
215.1498319865
  0
ARC
  5
2DA
100
AcDbEntity
  8
0
100
AcDbCircle
 62
7
  6
CONTINUOUS
 10
-30.6285126911
 20
52.7340921694
 40
0.6644586076
100
AcDbArc
 50
36.7842454034
 51
48.3594695778
  0
ARC
  5
2DB
100
AcDbEntity
  8
0
100
AcDbCircle
 62
7
  6
CONTINUOUS
 10
-30.6142697605
 20
52.7452953372
 40
0.6463431599
100
AcDbArc
 50
29.4946647667
 51
36.7448990574
  0
ARC
  5
2DC
100
AcDbEntity
  8
0
100
AcDbCircle
 62
7
  6
CONTINUOUS
 10
-4.8174480852
 20
12.8622267723
 40
48.3207870717
100
AcDbArc
 50
132.3189519638
 51
134.0791039884
  0
ARC
  5
2DD
100
AcDbEntity
  8
0
100
AcDbCircle
 62
7
  6
CONTINUOUS
 10
-5.259648801
 20
13.3390869387
 40
47.6704782225
100
AcDbArc
 50
131.966596358
 51
132.3118397196
  0
ARC
  5
2DE
100
AcDbEntity
  8
0
100
AcDbCircle
 62
7
  6
CONTINUOUS
 10
-5.3107835934
 20
8.1935790789
 40
37.4144458136
100
AcDbArc
 50
105.664259174
 51
107.0367498211
  0
ARC
  5
2DF
100
AcDbEntity
  8
0
100
AcDbCircle
 62
7
  6
CONTINUOUS
 10
-18.9327007513
 20
20.7824640331
 40
33.6897865446
100
AcDbArc
 50
105.7558596725
 51
107.257806108
  0
ARC
  5
2E0
100
AcDbEntity
  8
0
100
AcDbCircle
 62
7
  6
CONTINUOUS
 10
-19.1193162099
 20
21.4518110003
 40
32.9949153562
100
AcDbArc
 50
105.0089415872
 51
105.7595929476
  0
ARC
  5
2E1
100
AcDbEntity
  8
0
100
AcDbCircle
 62
7
  6
CONTINUOUS
 10
-6.1014811052
 20
18.617329989
 40
27.6497647334
100
AcDbArc
 50
153.4343940922
 51
155.5091310649
  0
ARC
  5
2E2
100
AcDbEntity
  8
0
100
AcDbCircle
 62
7
  6
CONTINUOUS
 10
-8.1181957535
 20
20.5093090981
 40
24.8815396298
100
AcDbArc
 50
130.0968276385
 51
132.3251119866
  0
ARC
  5
2E3
100
AcDbEntity
  8
0
100
AcDbCircle
 62
7
  6
CONTINUOUS
 10
-11.5350631336
 20
19.7358983615
 40
22.0671093353
100
AcDbArc
 50
177.5859357422
 51
179.9871769476
  0
ARC
  5
2E4
100
AcDbEntity
  8
0
100
AcDbCircle
 62
7
  6
CONTINUOUS
 10
-18.7944122674
 20
18.1658323398
 40
14.5560275249
100
AcDbArc
 50
207.9002018388
 51
211.0788233667
  0
ARC
  5
2E5
100
AcDbEntity
  8
0
100
AcDbCircle
 62
7
  6
CONTINUOUS
 10
-18.1383785884
 20
25.5783745988
 40
30.2598245044
100
AcDbArc
 50
148.572341134
 51
151.5768753625
  0
ARC
  5
2E6
100
AcDbEntity
  8
0
100
AcDbCircle
 62
7
  6
CONTINUOUS
 10
-18.3728076445
 20
25.6981620681
 40
29.9966386426
100
AcDbArc
 50
151.564965135
 51
157.752006338
  0
ARC
  5
2E7
100
AcDbEntity
  8
0
100
AcDbCircle
 62
7
  6
CONTINUOUS
 10
-18.698549533
 20
25.8348227727
 40
29.6434052216
100
AcDbArc
 50
157.7581057279
 51
158.0023072434
  0
ARC
  5
2E8
100
AcDbEntity
  8
0
100
AcDbCircle
 62
7
  6
CONTINUOUS
 10
-19.9078238506
 20
26.4266818963
 40
27.9472082736
100
AcDbArc
 50
92.0845495653
 51
92.2876758281
  0
ARC
  5
2E9
100
AcDbEntity
  8
0
100
AcDbCircle
 62
7
  6
CONTINUOUS
 10
-20.3055718054
 20
27.5024628791
 40
27.3547321307
100
AcDbArc
 50
128.3399101962
 51
134.6155246539
  0
ARC
  5
2EA
100
AcDbEntity
  8
0
100
AcDbCircle
 62
7
  6
CONTINUOUS
 10
-23.094449456
 20
31.6889570131
 40
26.7958745717
100
AcDbArc
 50
211.0857359283
 51
212.6092048626
  0
ARC
  5
2EB
100
AcDbEntity
  8
0
100
AcDbCircle
 62
7
  6
CONTINUOUS
 10
-23.3298603085
 20
31.5381699461
 40
26.516312441
100
AcDbArc
 50
212.6088731349
 51
212.8273052645
  0
ARC
  5
2EC
100
AcDbEntity
  8
0
100
AcDbCircle
 62
7
  6
CONTINUOUS
 10
-23.4450462808
 20
31.463694248
 40
26.3791467793
100
AcDbArc
 50
212.8270028606
 51
213.7066783943
  0
ARC
  5
2ED
100
AcDbEntity
  8
0
100
AcDbCircle
 62
7
  6
CONTINUOUS
 10
-21.8792776674
 20
26.6709375292
 40
26.3480951142
100
AcDbArc
 50
168.638310672
 51
173.1865662745
  0
ARC
  5
2EE
100
AcDbEntity
  8
0
100
AcDbCircle
 62
7
  6
CONTINUOUS
 10
-21.2881316081
 20
28.7079803055
 40
25.7996944025
100
AcDbArc
 50
125.08624273
 51
128.2891603896
  0
ARC
  5
2EF
100
AcDbEntity
  8
0
100
AcDbCircle
 62
7
  6
CONTINUOUS
 10
-23.7408684908
 20
26.865605118
 40
24.4765721491
100
AcDbArc
 50
173.1220518511
 51
179.9718634661
  0
ARC
  5
2F0
100
AcDbEntity
  8
0
100
AcDbCircle
 62
7
  6
CONTINUOUS
 10
-24.0066548985
 20
28.1079684626
 40
23.9700795934
100
AcDbArc
 50
175.9878853335
 51
183.3277370149
  0
ARC
  5
2F1
100
AcDbEntity
  8
0
100
AcDbCircle
 62
7
  6
CONTINUOUS
 10
-26.6294101305
 20
30.0569420069
 40
23.7337944627
100
AcDbArc
 50
71.7905784057
 51
72.2096415351
  0
ARC
  5
2F2
100
AcDbEntity
  8
0
100
AcDbCircle
 62
7
  6
CONTINUOUS
 10
-26.6612214791
 20
30.0900776683
 40
23.7167595133
100
AcDbArc
 50
67.8075740127
 51
72.1120043129
  0
ARC
  5
2F3
100
AcDbEntity
  8
0
100
AcDbCircle
 62
7
  6
CONTINUOUS
 10
-26.5874545401
 20
30.1817356537
 40
23.6021396613
100
AcDbArc
 50
69.487327395
 51
71.7926602325
  0
ARC
  5
2F4
100
AcDbEntity
  8
0
100
AcDbCircle
 62
7
  6
CONTINUOUS
 10
-26.5407773334
 20
30.3092650887
 40
23.4663399151
100
AcDbArc
 50
69.1114597941
 51
69.4849576959
  0
ARC
  5
2F5
100
AcDbEntity
  8
0
100
AcDbCircle
 62
7
  6
CONTINUOUS
 10
-26.5221536496
 20
30.3577221318
 40
23.4144273773
100
AcDbArc
 50
67.8783167441
 51
69.1117589269
  0
ARC
  5
2F6
100
AcDbEntity
  8
0
100
AcDbCircle
 62
7
  6
CONTINUOUS
 10
-26.5045104641
 20
30.4015121763
 40
23.3672169053
100
AcDbArc
 50
67.6594537313
 51
67.8779591822
  0
ARC
  5
2F7
100
AcDbEntity
  8
0
100
AcDbCircle
 62
7
  6
CONTINUOUS
 10
-26.5234179955
 20
30.4175308463
 40
23.3615133124
100
AcDbArc
 50
59.9546202642
 51
67.8171635301
  0
ARC
  5
2F8
100
AcDbEntity
  8
0
100
AcDbCircle
 62
7
  6
CONTINUOUS
 10
-26.4699895756
 20
30.4839286205
 40
23.2778648056
100
AcDbArc
 50
64.8414010048
 51
67.660936477
  0
ARC
  5
2F9
100
AcDbEntity
  8
0
100
AcDbCircle
 62
7
  6
CONTINUOUS
 10
-26.4270954297
 20
30.5770218532
 40
23.1753675354
100
AcDbArc
 50
64.2643217985
 51
64.839543526
  0
ARC
  5
2FA
100
AcDbEntity
  8
0
100
AcDbCircle
 62
7
  6
CONTINUOUS
 10
-26.4038462662
 20
30.6249361617
 40
23.1221107458
100
AcDbArc
 50
59.9538075375
 51
64.2646628903
  0
ARC
  5
2FB
100
AcDbEntity
  8
0
100
AcDbCircle
 62
7
  6
CONTINUOUS
 10
-25.296542715
 20
26.8706266752
 40
22.9208960403
100
AcDbArc
 50
179.9825062772
 51
183.1366322688
  0
ARC
  5
2FC
100
AcDbEntity
  8
0
100
AcDbCircle
 62
7
  6
CONTINUOUS
 10
-26.4612368677
 20
27.737101625
 40
22.4435593825
100
AcDbArc
 50
179.9421069927
 51
186.4197186919
  0
ARC
  5
2FD
100
AcDbEntity
  8
0
100
AcDbCircle
 62
7
  6
CONTINUOUS
 10
-27.2495345596
 20
27.6564273718
 40
21.6511859178
100
AcDbArc
 50
186.4408148721
 51
186.8644466161
  0
ARC
  5
2FE
100
AcDbEntity
  8
0
100
AcDbCircle
 62
7
  6
CONTINUOUS
 10
-25.1633808579
 20
34.3685681283
 40
19.5996961066
100
AcDbArc
 50
104.6293408555
 51
104.9370982497
  0
ARC
  5
2FF
100
AcDbEntity
  8
0
100
AcDbCircle
 62
7
  6
CONTINUOUS
 10
-24.3124255595
 20
34.8243073032
 40
18.9372830398
100
AcDbArc
 50
101.5716819937
 51
107.2320010237
  0
ARC
  5
300
100
AcDbEntity
  8
0
100
AcDbCircle
 62
7
  6
CONTINUOUS
 10
-23.6953477741
 20
34.8338665627
 40
18.3260659589
100
AcDbArc
 50
46.2156106106
 51
46.5720507833
  0
ARC
  5
301
100
AcDbEntity
  8
0
100
AcDbCircle
 62
7
  6
CONTINUOUS
 10
-24.5847309966
 20
36.079177209
 40
17.6533026258
100
AcDbArc
 50
97.3064500635
 51
101.5228302088
  0
ARC
  5
302
100
AcDbEntity
  8
0
100
AcDbCircle
 62
7
  6
CONTINUOUS
 10
-25.2456523443
 20
38.7929016342
 40
15.1125922132
100
AcDbArc
 50
67.0554201965
 51
70.0540842824
  0
ARC
  5
303
100
AcDbEntity
  8
0
100
AcDbCircle
 62
7
  6
CONTINUOUS
 10
-25.2307848836
 20
38.8288944883
 40
15.0736510947
100
AcDbArc
 50
66.5105773017
 51
67.0541267322
  0
ARC
  5
304
100
AcDbEntity
  8
0
100
AcDbCircle
 62
7
  6
CONTINUOUS
 10
-24.4458429584
 20
40.1636017935
 40
13.526731072
100
AcDbArc
 50
67.922994148
 51
71.1514803753
  0
ARC
  5
305
100
AcDbEntity
  8
0
100
AcDbCircle
 62
7
  6
CONTINUOUS
 10
-24.3963651122
 20
40.2873722089
 40
13.39343921
100
AcDbArc
 50
65.8598172222
 51
67.92013096
  0
ARC
  5
306
100
AcDbEntity
  8
0
100
AcDbCircle
 62
7
  6
CONTINUOUS
 10
-5.6063157099
 20
26.6924851138
 40
42.3298791272
100
AcDbArc
 50
175.8576928329
 51
179.9703159969
  0
ARC
  5
307
100
AcDbEntity
  8
0
100
AcDbCircle
 62
7
  6
CONTINUOUS
 10
-7.9018802196
 20
26.2996491811
 40
28.2233875562
100
AcDbArc
 50
211.8660694844
 51
213.5383913714
  0
ARC
  5
308
100
AcDbEntity
  8
0
100
AcDbCircle
 62
7
  6
CONTINUOUS
 10
-9.8030959168
 20
24.9962031215
 40
25.8109692238
100
AcDbArc
 50
211.99067603
 51
213.7623639356
  0
ARC
  5
309
100
AcDbEntity
  8
0
100
AcDbCircle
 62
7
  6
CONTINUOUS
 10
-7.239717612
 20
24.9695757961
 40
18.936720478
100
AcDbArc
 50
105.0060531162
 51
105.3434453272
  0
ARC
  5
30A
100
AcDbEntity
  8
0
100
AcDbCircle
 62
7
  6
CONTINUOUS
 10
-12.0036304591
 20
27.3061515572
 40
15.3433753965
100
AcDbArc
 50
101.3726904794
 51
105.012790426
  0
ARC
  5
30B
100
AcDbEntity
  8
0
100
AcDbCircle
 62
7
  6
CONTINUOUS
 10
-7.4105278876
 20
30.2194880216
 40
13.6191503969
100
AcDbArc
 50
70.3503241386
 51
73.4265698976
  0
ARC
  5
30C
100
AcDbEntity
  8
0
100
AcDbCircle
 62
7
  6
CONTINUOUS
 10
-7.3282637469
 20
30.4387177737
 40
13.3850249241
100
AcDbArc
 50
61.6728941201
 51
70.3663917268
  0
ARC
  5
30D
100
AcDbEntity
  8
0
100
AcDbCircle
 62
7
  6
CONTINUOUS
 10
-7.2736595939
 20
30.5473203251
 40
13.26351773
100
AcDbArc
 50
59.9881008994
 51
61.6579175717
  0
ARC
  5
30E
100
AcDbEntity
  8
0
100
AcDbCircle
 62
7
  6
CONTINUOUS
 10
-14.1366520935
 20
37.4627360751
 40
6.6944139365
100
AcDbArc
 50
106.5386300918
 51
107.3844813274
  0
ARC
  5
30F
100
AcDbEntity
  8
0
100
AcDbCircle
 62
7
  6
CONTINUOUS
 10
-13.6296548067
 20
52.9264872888
 40
45.3573600725
100
AcDbArc
 50
243.505444667
 51
244.5264557488
  0
ARC
  5
310
100
AcDbEntity
  8
0
100
AcDbCircle
 62
7
  6
CONTINUOUS
 10
-13.9797797428
 20
52.2043041078
 40
44.5550068842
100
AcDbArc
 50
244.533824613
 51
246.3238989517
  0
ARC
  5
311
100
AcDbEntity
  8
0
100
AcDbCircle
 62
7
  6
CONTINUOUS
 10
-13.7226772902
 20
49.1621176725
 40
41.8461849892
100
AcDbArc
 50
242.3988163178
 51
244.6204172778
  0
ARC
  5
312
100
AcDbEntity
  8
0
100
AcDbCircle
 62
7
  6
CONTINUOUS
 10
-15.8537146614
 20
49.8867595887
 40
34.085816954
100
AcDbArc
 50
204.194101471
 51
210.0278812421
  0
ARC
  5
313
100
AcDbEntity
  8
0
100
AcDbCircle
 62
7
  6
CONTINUOUS
 10
-14.379020702
 20
48.6756444341
 40
33.7849140988
100
AcDbArc
 50
200.7358483499
 51
206.9394749385
  0
ARC
  5
314
100
AcDbEntity
  8
0
100
AcDbCircle
 62
7
  6
CONTINUOUS
 10
-9.6801362466
 20
56.5708184964
 40
33.210964025
100
AcDbArc
 50
227.6953566884
 51
230.0310356741
  0
ARC
  5
315
100
AcDbEntity
  8
0
100
AcDbCircle
 62
7
  6
CONTINUOUS
 10
-10.0323951509
 20
56.179353892
 40
32.6842326629
100
AcDbArc
 50
226.3304658236
 51
227.6901292984
  0
ARC
  5
316
100
AcDbEntity
  8
0
100
AcDbCircle
 62
7
  6
CONTINUOUS
 10
-8.7632443313
 20
54.9850804512
 40
32.6057729443
100
AcDbArc
 50
224.6886449641
 51
227.4029772456
  0
ARC
  5
317
100
AcDbEntity
  8
0
100
AcDbCircle
 62
7
  6
CONTINUOUS
 10
-2.0884201422
 20
83.8870323831
 40
81.8768826874
100
AcDbArc
 50
240.0219762416
 51
250.2974670389
  0
ARC
  5
318
100
AcDbEntity
  8
0
100
AcDbCircle
 62
7
  6
CONTINUOUS
 10
-2.1767766661
 20
83.6735600643
 40
81.6461204946
100
AcDbArc
 50
250.3053367977
 51
251.5672491383
  0
ARC
  5
319
100
AcDbEntity
  8
0
100
AcDbCircle
 62
7
  6
CONTINUOUS
 10
-3.5974631516
 20
80.2304678699
 40
77.9084738144
100
AcDbArc
 50
244.5789597104
 51
250.4497629221
  0
ARC
  5
31A
100
AcDbEntity
  8
0
100
AcDbCircle
 62
7
  6
CONTINUOUS
 10
-0.9175321106
 20
81.9855883272
 40
77.0749308054
100
AcDbArc
 50
246.3211580743
 51
246.4649969473
  0
ARC
  5
31B
100
AcDbEntity
  8
0
100
AcDbCircle
 62
7
  6
CONTINUOUS
 10
-4.5883709259
 20
77.503903158
 40
75.0075121615
100
AcDbArc
 50
250.4660953312
 51
251.8333814964
  0
ARC
  5
31C
100
AcDbEntity
  8
0
100
AcDbCircle
 62
7
  6
CONTINUOUS
 10
-5.3572284179
 20
76.6784637294
 40
73.9450016652
100
AcDbArc
 50
239.4301834811
 51
244.629024801
  0
ARC
  5
31D
100
AcDbEntity
  8
0
100
AcDbCircle
 62
7
  6
CONTINUOUS
 10
-7.4799685946
 20
73.0576899676
 40
69.7478803719
100
AcDbArc
 50
237.4290921578
 51
239.4188627445
  0
ARC
  5
31E
100
AcDbEntity
  8
0
100
AcDbCircle
 62
7
  6
CONTINUOUS
 10
-7.9019938694
 20
63.1145391504
 40
60.2195465685
100
AcDbArc
 50
248.8457138774
 51
250.4397674789
  0
ARC
  5
31F
100
AcDbEntity
  8
0
100
AcDbCircle
 62
7
  6
CONTINUOUS
 10
-5.8981682809
 20
61.4402050899
 40
49.2922857485
100
AcDbArc
 50
235.688018834
 51
235.8178164342
  0
ARC
  5
320
100
AcDbEntity
  8
0
100
AcDbCircle
 62
7
  6
CONTINUOUS
 10
-7.0956683573
 20
59.6416390782
 40
37.2245939962
100
AcDbArc
 50
230.0185550136
 51
230.3114633426
  0
ARC
  5
321
100
AcDbEntity
  8
0
100
AcDbCircle
 62
7
  6
CONTINUOUS
 10
-5.8951793766
 20
57.5617876194
 40
36.4603569572
100
AcDbArc
 50
226.477509295
 51
226.7702468796
  0
ARC
  5
322
100
AcDbEntity
  8
0
100
AcDbCircle
 62
7
  6
CONTINUOUS
 10
0.5354863422
 20
63.3088890436
 40
34.2534752445
100
AcDbArc
 50
221.5499828207
 51
223.5573945512
  0
ARC
  5
323
100
AcDbEntity
  8
0
100
AcDbCircle
 62
7
  6
CONTINUOUS
 10
-0.2421884321
 20
62.6022643837
 40
33.2023506462
100
AcDbArc
 50
221.0179683459
 51
221.4292262531
  0
ARC
  5
324
100
AcDbEntity
  8
0
100
AcDbCircle
 62
7
  6
CONTINUOUS
 10
-0.650229262
 20
62.2481980941
 40
32.6621101214
100
AcDbArc
 50
220.1893679818
 51
221.01911046
  0
ARC
  5
325
100
AcDbEntity
  8
0
100
AcDbCircle
 62
7
  6
CONTINUOUS
 10
-1.3204935475
 20
59.6424274662
 40
30.4052450416
100
AcDbArc
 50
220.9740875996
 51
221.2951174106
  0
ARC
  5
326
100
AcDbEntity
  8
0
100
AcDbCircle
 62
7
  6
CONTINUOUS
 10
29.335976196
 20
-6.9014452243
 40
25.4797898633
100
AcDbArc
 50
185.5252810272
 51
190.0282842008
  0
ARC
  5
327
100
AcDbEntity
  8
0
100
AcDbCircle
 62
7
  6
CONTINUOUS
 10
27.8705840824
 20
-7.166055673
 40
23.9907089883
100
AcDbArc
 50
190.0154051788
 51
193.7311114088
  0
ARC
  5
328
100
AcDbEntity
  8
0
100
AcDbCircle
 62
7
  6
CONTINUOUS
 10
26.5165210145
 20
-7.5102749921
 40
22.5936424149
100
AcDbArc
 50
193.6982113648
 51
198.632178807
  0
ARC
  5
329
100
AcDbEntity
  8
0
100
AcDbCircle
 62
7
  6
CONTINUOUS
 10
25.2648799186
 20
-7.93716043
 40
21.2712151359
100
AcDbArc
 50
198.6197257127
 51
202.5741758007
  0
ARC
  5
32A
100
AcDbEntity
  8
0
100
AcDbCircle
 62
7
  6
CONTINUOUS
 10
24.1644927062
 20
-8.4079080051
 40
20.0744294802
100
AcDbArc
 50
202.539170216
 51
208.0013702565
  0
ARC
  5
32B
100
AcDbEntity
  8
0
100
AcDbCircle
 62
7
  6
CONTINUOUS
 10
23.2268227908
 20
-8.9100060027
 40
19.0107955318
100
AcDbArc
 50
207.9920531706
 51
212.1133796084
  0
ARC
  5
32C
100
AcDbEntity
  8
0
100
AcDbCircle
 62
7
  6
CONTINUOUS
 10
22.4526458708
 20
-9.4086172915
 40
18.0900126286
100
AcDbArc
 50
212.0792586521
 51
218.2281131553
  0
ARC
  5
32D
100
AcDbEntity
  8
0
100
AcDbCircle
 62
7
  6
CONTINUOUS
 10
21.8703660016
 20
-9.8684355362
 40
17.3480680089
100
AcDbArc
 50
218.2251389546
 51
222.2995236699
  0
ARC
  5
32E
100
AcDbEntity
  8
0
100
AcDbCircle
 62
7
  6
CONTINUOUS
 10
21.4730590339
 20
-10.2370622513
 40
16.8061178939
100
AcDbArc
 50
222.2815920991
 51
229.5385306331
  0
ARC
  5
32F
100
AcDbEntity
  8
0
100
AcDbCircle
 62
7
  6
CONTINUOUS
 10
21.1864743874
 20
-10.5661686594
 40
16.3697451065
100
AcDbArc
 50
229.5541992516
 51
233.0516675415
  0
ARC
  5
330
100
AcDbEntity
  8
0
100
AcDbCircle
 62
7
  6
CONTINUOUS
 10
22.5308563113
 20
-11.4630954279
 40
16.2646704297
100
AcDbArc
 50
233.3493118595
 51
234.248517587
  0
ARC
  5
331
100
AcDbEntity
  8
0
100
AcDbCircle
 62
7
  6
CONTINUOUS
 10
21.0944465374
 20
-10.6899049829
 40
16.2155403476
100
AcDbArc
 50
233.0487326638
 51
239.9854955527
  0
ARC
  5
332
100
AcDbEntity
  8
0
100
AcDbCircle
 62
7
  6
CONTINUOUS
 10
22.4908204833
 20
-11.5205410508
 40
16.1946581999
100
AcDbArc
 50
234.2447236406
 51
239.98846897
  0
ARC
  5
333
100
AcDbEntity
  8
0
100
AcDbCircle
 62
7
  6
CONTINUOUS
 10
24.6719243862
 20
6.2814478587
 40
60.9735984945
100
AcDbArc
 50
155.9623963264
 51
156.9323451968
  0
ARC
  5
334
100
AcDbEntity
  8
0
100
AcDbCircle
 62
7
  6
CONTINUOUS
 10
13.9168733107
 20
-1.5486587467
 40
56.2269957017
100
AcDbArc
 50
132.8018865706
 51
133.8303371362
  0
ARC
  5
335
100
AcDbEntity
  8
0
100
AcDbCircle
 62
7
  6
CONTINUOUS
 10
3.0721420766
 20
17.5509713775
 40
52.5884913557
100
AcDbArc
 50
146.5679774087
 51
154.8810588371
  0
ARC
  5
336
100
AcDbEntity
  8
0
100
AcDbCircle
 62
7
  6
CONTINUOUS
 10
2.8365906351
 20
17.6868409864
 40
52.4368036428
100
AcDbArc
 50
146.553468251
 51
154.9032506722
  0
ARC
  5
337
100
AcDbEntity
  8
0
100
AcDbCircle
 62
7
  6
CONTINUOUS
 10
2.7329865929
 20
17.7170286248
 40
52.2109196013
100
AcDbArc
 50
154.8880622571
 51
155.5047518291
  0
ARC
  5
338
100
AcDbEntity
  8
0
100
AcDbCircle
 62
7
  6
CONTINUOUS
 10
2.4920765388
 20
17.8276752158
 40
51.9458164587
100
AcDbArc
 50
155.5056367891
 51
157.1843625001
  0
ARC
  5
339
100
AcDbEntity
  8
0
100
AcDbCircle
 62
7
  6
CONTINUOUS
 10
15.9709878791
 20
10.2358862947
 40
51.2334624173
100
AcDbArc
 50
156.0955916252
 51
157.2123256789
  0
ARC
  5
33A
100
AcDbEntity
  8
0
100
AcDbCircle
 62
7
  6
CONTINUOUS
 10
8.3430643237
 20
4.6412216649
 40
47.720495303
100
AcDbArc
 50
132.9382052668
 51
134.109377766
  0
ARC
  5
33B
100
AcDbEntity
  8
0
100
AcDbCircle
 62
7
  6
CONTINUOUS
 10
13.4817845822
 20
19.8078719844
 40
47.2527170514
100
AcDbArc
 50
178.8338392315
 51
179.996684611
  0
ARC
  5
33C
100
AcDbEntity
  8
0
100
AcDbCircle
 62
7
  6
CONTINUOUS
 10
6.0742823538
 20
19.7583291142
 40
39.6764581247
100
AcDbArc
 50
178.6936204098
 51
180.0252598112
  0
ARC
  5
33D
100
AcDbEntity
  8
0
100
AcDbCircle
 62
7
  6
CONTINUOUS
 10
18.9707658572
 20
4.1454998141
 40
28.1934348195
100
AcDbArc
 50
321.7736477654
 51
338.162302584
  0
ARC
  5
33E
100
AcDbEntity
  8
0
100
AcDbCircle
 62
7
  6
CONTINUOUS
 10
32.8375252712
 20
-6.6885991145
 40
28.9907183913
100
AcDbArc
 50
177.9580722273
 51
180.0322718974
  0
ARC
  5
33F
100
AcDbEntity
  8
0
100
AcDbCircle
 62
7
  6
CONTINUOUS
 10
32.0020601755
 20
-6.6916753136
 40
28.1552518174
100
AcDbArc
 50
180.0269694718
 51
182.1036775878
  0
ARC
  5
340
100
AcDbEntity
  8
0
100
AcDbCircle
 62
7
  6
CONTINUOUS
 10
30.8202916602
 20
-6.7441909871
 40
26.9723535634
100
AcDbArc
 50
182.0843467848
 51
185.5541842253
  0
ARC
  5
341
100
AcDbEntity
  8
0
100
AcDbCircle
 62
7
  6
CONTINUOUS
 10
49.2665890373
 20
-24.5564265081
 40
2.3801519021
100
AcDbArc
 50
209.6017822998
 51
211.0807578743
  0
ARC
  5
342
100
AcDbEntity
  8
0
100
AcDbCircle
 62
7
  6
CONTINUOUS
 10
39.4935468232
 20
-15.7494532051
 40
2.0421747015
100
AcDbArc
 50
240.0028847078
 51
249.4810820856
  0
ARC
  5
343
100
AcDbEntity
  8
0
100
AcDbCircle
 62
7
  6
CONTINUOUS
 10
57.2620571281
 20
-10.9864367342
 40
2.0421727025
100
AcDbArc
 50
240.0028795147
 51
249.4797421096
  0
ARC
  5
344
100
AcDbEntity
  8
0
100
AcDbCircle
 62
7
  6
CONTINUOUS
 10
34.6335641988
 20
-1.2929393801
 40
27.6614261198
100
AcDbArc
 50
115.3432816967
 51
119.0917514379
  0
ARC
  5
345
100
AcDbEntity
  8
0
100
AcDbCircle
 62
7
  6
CONTINUOUS
 10
34.1749767822
 20
-0.3524234506
 40
26.6151345217
100
AcDbArc
 50
114.4005589273
 51
115.3177207238
  0
ARC
  5
346
100
AcDbEntity
  8
0
100
AcDbCircle
 62
7
  6
CONTINUOUS
 10
33.883490337
 20
0.2946625958
 40
25.9054295759
100
AcDbArc
 50
111.2702865121
 51
114.4046928497
  0
ARC
  5
347
100
AcDbEntity
  8
0
100
AcDbCircle
 62
7
  6
CONTINUOUS
 10
33.3917260728
 20
1.5556886971
 40
24.5519088946
100
AcDbArc
 50
106.3516077644
 51
111.2684076804
  0
ARC
  5
348
100
AcDbEntity
  8
0
100
AcDbCircle
 62
7
  6
CONTINUOUS
 10
33.0169386309
 20
2.7679307024
 40
23.2831924328
100
AcDbArc
 50
105.0093192931
 51
106.3064658792
  0
ARC
  5
349
100
AcDbEntity
  8
0
100
AcDbCircle
 62
7
  6
CONTINUOUS
 10
32.8761865883
 20
3.2915618166
 40
22.7409742462
100
AcDbArc
 50
102.7386933582
 51
105.0084572906
  0
ARC
  5
34A
100
AcDbEntity
  8
0
100
AcDbCircle
 62
7
  6
CONTINUOUS
 10
32.6636252278
 20
4.2428279685
 40
21.7662520021
100
AcDbArc
 50
97.5878842411
 51
102.7450887377
  0
ARC
  5
34B
100
AcDbEntity
  8
0
100
AcDbCircle
 62
7
  6
CONTINUOUS
 10
32.4757800307
 20
5.5544037349
 40
20.4413608546
100
AcDbArc
 50
93.6444623671
 51
97.5514153666
  0
ARC
  5
34C
100
AcDbEntity
  8
0
100
AcDbCircle
 62
7
  6
CONTINUOUS
 10
32.4062807793
 20
6.5952774444
 40
19.3981746478
100
AcDbArc
 50
88.0880515808
 51
93.635023676
  0
ARC
  5
34D
100
AcDbEntity
  8
0
100
AcDbCircle
 62
7
  6
CONTINUOUS
 10
32.4284681391
 20
7.596697946
 40
18.3965748375
100
AcDbArc
 50
83.8780524846
 51
88.0530573068
  0
ARC
  5
34E
100
AcDbEntity
  8
0
100
AcDbCircle
 62
7
  6
CONTINUOUS
 10
32.5054249422
 20
8.3393188814
 40
17.6499820914
100
AcDbArc
 50
77.8889000481
 51
83.8693563719
  0
ARC
  5
34F
100
AcDbEntity
  8
0
100
AcDbCircle
 62
7
  6
CONTINUOUS
 10
32.6395298048
 20
9.0057441932
 40
16.9702556302
100
AcDbArc
 50
73.5546578824
 51
77.8595222544
  0
ARC
  5
350
100
AcDbEntity
  8
0
100
AcDbCircle
 62
7
  6
CONTINUOUS
 10
32.7569550157
 20
9.4111440479
 40
16.5481975843
100
AcDbArc
 50
67.0957669314
 51
73.5472223172
  0
ARC
  5
351
100
AcDbEntity
  8
0
100
AcDbCircle
 62
7
  6
CONTINUOUS
 10
34.2780116358
 20
8.8794533409
 40
16.2449319144
100
AcDbArc
 50
65.7345079195
 51
65.9676519619
  0
ARC
  5
352
100
AcDbEntity
  8
0
100
AcDbCircle
 62
7
  6
CONTINUOUS
 10
32.8748708835
 20
9.7023701964
 40
16.2340414562
100
AcDbArc
 50
62.1527299183
 51
67.0790945786
  0
ARC
  5
353
100
AcDbEntity
  8
0
100
AcDbCircle
 62
7
  6
CONTINUOUS
 10
34.2951863182
 20
8.9166758318
 40
16.2039397993
100
AcDbArc
 50
59.9935918386
 51
65.7357814157
  0
ARC
  5
354
100
AcDbEntity
  8
0
100
AcDbCircle
 62
7
  6
CONTINUOUS
 10
37.1952015545
 20
-1.0106717734
 40
2.5527023343
100
AcDbArc
 50
235.7137059438
 51
239.9945235548
  0
ARC
  5
355
100
AcDbEntity
  8
0
100
AcDbCircle
 62
7
  6
CONTINUOUS
 10
38.6717504861
 20
-0.6326335455
 40
1.8113543453
100
AcDbArc
 50
206.2463545135
 51
208.9322598628
  0
ARC
  5
356
100
AcDbEntity
  8
0
100
AcDbCircle
 62
7
  6
CONTINUOUS
 10
38.4329484897
 20
-0.7940769107
 40
1.5263106456
100
AcDbArc
 50
249.496866482
 51
256.0250061216
  0
ARC
  5
357
100
AcDbEntity
  8
0
100
AcDbCircle
 62
7
  6
CONTINUOUS
 10
2.4960045929
 20
139.4357599976
 40
135.5369649657
100
AcDbArc
 50
252.8787181491
 51
253.2742630187
  0
ARC
  5
358
100
AcDbEntity
  8
0
100
AcDbCircle
 62
7
  6
CONTINUOUS
 10
6.5530778325
 20
85.6207153673
 40
83.5652621198
100
AcDbArc
 50
242.6270271611
 51
242.7615765212
  0
ARC
  5
359
100
AcDbEntity
  8
0
100
AcDbCircle
 62
7
  6
CONTINUOUS
 10
20.1186937797
 20
74.0455026123
 40
46.3911063616
100
AcDbArc
 50
218.6973282227
 51
220.0119598074
  0
ARC
  5
35A
100
AcDbEntity
  8
0
100
AcDbCircle
 62
7
  6
CONTINUOUS
 10
17.5063684227
 20
71.939245062
 40
43.0350904295
100
AcDbArc
 50
217.7902033307
 51
218.6169770801
  0
ARC
  5
35B
100
AcDbEntity
  8
0
100
AcDbCircle
 62
7
  6
CONTINUOUS
 10
9.8887664799
 20
65.4341232056
 40
33.0191950257
100
AcDbArc
 50
219.9803589565
 51
220.256292737
  0
ARC
  5
35C
100
AcDbEntity
  8
0
100
AcDbCircle
 62
7
  6
CONTINUOUS
 10
7.5997329732
 20
63.0220011541
 40
29.7157614472
100
AcDbArc
 50
219.27195498
 51
219.5589768593
  0
SPLINE
  5
35D
100
AcDbEntity
  8
0
100
AcDbSpline
 62
7
  6
CONTINUOUS
 70
0
 71
3
 72
21
 73
17
 74
0
 42
0.0000001
 43
0.0000001
 44
0.0000000001
 40
0.0
 40
0.0
 40
0.0
 40
0.0
 40
0.0616916206
 40
0.12346893
 40
0.1854436827
 40
0.2477407684
 40
0.3105035179
 40
0.3737728196
 40
0.5008952375
 40
0.6275769077
 40
0.6904401036
 40
0.7528209109
 40
0.8148360046
 40
0.8766376253
 40
0.9383340733
 40
1.0
 40
1.0
 40
1.0
 40
1.0
 10
56.5462507543
 20
-12.8990502776
 30
0.0
 10
56.6829756574
 20
-12.9502099517
 30
0.0
 10
56.9685379488
 20
-13.0233701889
 30
0.0
 10
57.4099667663
 20
-13.0412947988
 30
0.0
 10
57.8473702476
 20
-12.9701266912
 30
0.0
 10
58.2650269586
 20
-12.8161717057
 30
0.0
 10
58.6505989332
 20
-12.5880019411
 30
0.0
 10
59.1085212889
 20
-12.1980523781
 30
0.0
 10
59.5529944538
 20
-11.5767806844
 30
0.0
 10
59.7815220536
 20
-10.8482517528
 30
0.0
 10
59.811943786
 20
-10.2502469874
 30
0.0
 10
59.7552247961
 20
-9.8081816079
 30
0.0
 10
59.6170075338
 20
-9.3869050921
 30
0.0
 10
59.3985532082
 20
-9.0025539812
 30
0.0
 10
59.1059090767
 20
-8.6722605117
 30
0.0
 10
58.8681422091
 20
-8.498333806
 30
0.0
 10
58.7417821265
 20
-8.4253516634
 30
0.0
  0
SPLINE
  5
35E
100
AcDbEntity
  8
0
100
AcDbSpline
 62
7
  6
CONTINUOUS
 70
0
 71
3
 72
20
 73
16
 74
0
 42
0.0000001
 43
0.0000001
 44
0.0000000001
 40
0.0
 40
0.0
 40
0.0
 40
0.0
 40
0.0537926108
 40
0.1081422037
 40
0.1643686775
 40
0.223463793
 40
0.2858495352
 40
0.3514358589
 40
0.4893063328
 40
0.6300589049
 40
0.764895658
 40
0.8282385775
 40
0.8882573103
 40
0.9452543582
 40
1.0
 40
1.0
 40
1.0
 40
1.0
 10
57.8251052197
 20
-12.0430999803
 30
0.0
 10
57.7739503106
 20
-12.0239578977
 30
0.0
 10
57.6755776473
 20
-11.9719795257
 30
0.0
 10
57.5517953269
 20
-11.8574474205
 30
0.0
 10
57.4570416505
 20
-11.7116019463
 30
0.0
 10
57.3946227279
 20
-11.5408520542
 30
0.0
 10
57.3664135158
 20
-11.3518169103
 30
0.0
 10
57.3753982705
 20
-11.0808404774
 30
0.0
 10
57.4747036701
 20
-10.739203914
 30
0.0
 10
57.7060148889
 20
-10.3823466292
 30
0.0
 10
57.975272608
 20
-10.1572523804
 30
0.0
 10
58.2149131777
 20
-10.0476187186
 30
0.0
 10
58.3943891459
 20
-10.0049232007
 30
0.0
 10
58.5702377782
 20
-10.0023972317
 30
0.0
 10
58.6821345699
 20
-10.0283533316
 30
0.0
 10
58.7341962336
 20
-10.0478333333
 30
0.0
  0
SPLINE
  5
35F
100
AcDbEntity
  8
0
100
AcDbSpline
 62
7
  6
CONTINUOUS
 70
0
 71
3
 72
19
 73
15
 74
0
 42
0.0000001
 43
0.0000001
 44
0.0000000001
 40
0.0
 40
0.0
 40
0.0
 40
0.0
 40
0.0536750958
 40
0.1086715961
 40
0.166062546
 40
0.2264644419
 40
0.3559959231
 40
0.4943225772
 40
0.634029585
 40
0.7671571786
 40
0.8296895316
 40
0.8890636526
 40
0.9455772486
 40
1.0
 40
1.0
 40
1.0
 40
1.0
 10
56.2410683624
 20
-12.7550464203
 30
0.0
 10
56.1375397048
 20
-12.6952645459
 30
0.0
 10
55.9423547434
 20
-12.5472155075
 30
0.0
 10
55.7085024476
 20
-12.2564490558
 30
0.0
 10
55.5393829306
 20
-11.9073321188
 30
0.0
 10
55.4043571986
 20
-11.3699675217
 30
0.0
 10
55.4293459523
 20
-10.623952303
 30
0.0
 10
55.7337310992
 20
-9.7559930636
 30
0.0
 10
56.2694491413
 20
-8.9988386749
 30
0.0
 10
56.8690769641
 20
-8.5304405642
 30
0.0
 10
57.394306
 20
-8.306812157
 30
0.0
 10
57.7855041457
 20
-8.2226025388
 30
0.0
 10
58.1678045953
 20
-8.2225790209
 30
0.0
 10
58.4109464407
 20
-8.2803895784
 30
0.0
 10
58.5244738667
 20
-8.322869082
 30
0.0
  0
SPLINE
  5
360
100
AcDbEntity
  8
0
100
AcDbSpline
 62
7
  6
CONTINUOUS
 70
0
 71
3
 72
20
 73
16
 74
0
 42
0.0000001
 43
0.0000001
 44
0.0000000001
 40
0.0
 40
0.0
 40
0.0
 40
0.0
 40
0.0537926108
 40
0.1081422037
 40
0.1643686775
 40
0.223463793
 40
0.2858495352
 40
0.3514358589
 40
0.4893063328
 40
0.6300589049
 40
0.764895658
 40
0.8282385775
 40
0.8882573103
 40
0.9452543582
 40
1.0
 40
1.0
 40
1.0
 40
1.0
 10
58.7341962336
 20
-10.0478333333
 30
0.0
 10
58.7853511427
 20
-10.0669754159
 30
0.0
 10
58.883723806
 20
-10.118953788
 30
0.0
 10
59.0075061264
 20
-10.2334858932
 30
0.0
 10
59.1022598028
 20
-10.3793313673
 30
0.0
 10
59.1646787255
 20
-10.5500812595
 30
0.0
 10
59.1928879375
 20
-10.7391164034
 30
0.0
 10
59.1839031828
 20
-11.0100928363
 30
0.0
 10
59.0845977833
 20
-11.3517293996
 30
0.0
 10
58.8532865644
 20
-11.7085866844
 30
0.0
 10
58.5840288454
 20
-11.9336809358
 30
0.0
 10
58.3443882756
 20
-12.0433145951
 30
0.0
 10
58.1649123074
 20
-12.0860101129
 30
0.0
 10
57.9890636751
 20
-12.088536082
 30
0.0
 10
57.8771668834
 20
-12.062579982
 30
0.0
 10
57.8251052197
 20
-12.0430999803
 30
0.0
  0
SPLINE
  5
361
100
AcDbEntity
  8
0
100
AcDbSpline
 62
7
  6
CONTINUOUS
 70
0
 71
3
 72
19
 73
15
 74
0
 42
0.0000001
 43
0.0000001
 44
0.0000000001
 40
0.0
 40
0.0
 40
0.0
 40
0.0
 40
0.0616197035
 40
0.1232619358
 40
0.1849903972
 40
0.246877032
 40
0.3090328421
 40
0.3715769978
 40
0.4976378827
 40
0.6248172639
 40
0.7513708397
 40
0.8761675478
 40
0.9381969514
 40
1.0
 40
1.0
 40
1.0
 40
1.0
 10
47.3568040888
 20
-5.2537235388
 30
0.0
 10
47.4705154412
 20
-5.3194001181
 30
0.0
 10
47.7114026633
 20
-5.4289452965
 30
0.0
 10
48.0971255088
 20
-5.5208343914
 30
0.0
 10
48.4938186143
 20
-5.5388238931
 30
0.0
 10
48.8880705208
 20
-5.4845295262
 30
0.0
 10
49.2684749441
 20
-5.3621685594
 30
0.0
 10
49.7451454589
 20
-5.1161644743
 30
0.0
 10
50.2629547078
 20
-4.6690438623
 30
0.0
 10
50.7046317594
 20
-3.9781052112
 30
0.0
 10
50.9342750314
 20
-3.1931285185
 30
0.0
 10
50.9204139161
 20
-2.5127390868
 30
0.0
 10
50.7766467538
 20
-2.0004891334
 30
0.0
 10
50.6609918822
 20
-1.7613305261
 30
0.0
 10
50.5929418253
 20
-1.6485668731
 30
0.0
  0
SPLINE
  5
362
100
AcDbEntity
  8
0
100
AcDbSpline
 62
7
  6
CONTINUOUS
 70
0
 71
3
 72
9
 73
5
 74
0
 42
0.0000001
 43
0.0000001
 44
0.0000000001
 40
0.0
 40
0.0
 40
0.0
 40
0.0
 40
0.5002397252
 40
1.0
 40
1.0
 40
1.0
 40
1.0
 10
50.5929174032
 20
-1.6485264058
 30
0.0
 10
50.5032596577
 20
-1.4999647395
 30
0.0
 10
50.2868353255
 20
-1.2237387794
 30
0.0
 10
50.0076405143
 20
-1.0107154513
 30
0.0
 10
49.8575265524
 20
-0.9240137146
 30
0.0
  0
SPLINE
  5
363
100
AcDbEntity
  8
0
100
AcDbSpline
 62
7
  6
CONTINUOUS
 70
0
 71
3
 72
18
 73
14
 74
0
 42
0.0000001
 43
0.0000001
 44
0.0000000001
 40
0.0
 40
0.0
 40
0.0
 40
0.0
 40
0.1188413475
 40
0.1834774748
 40
0.2510072551
 40
0.391001859
 40
0.5309034212
 40
0.6623440279
 40
0.780904688
 40
0.8363592017
 40
0.8903871802
 40
0.9444691285
 40
1.0
 40
1.0
 40
1.0
 40
1.0
 10
50.1825265958
 20
-2.8271783563
 30
0.0
 10
50.2447877743
 20
-2.9303519244
 30
0.0
 10
50.3018641194
 20
-3.1148912632
 30
0.0
 10
50.3080163728
 20
-3.3699227699
 30
0.0
 10
50.2682113241
 20
-3.6442905194
 30
0.0
 10
50.1348518245
 20
-3.9766167356
 30
0.0
 10
49.8712883969
 20
-4.3075540341
 30
0.0
 10
49.5369489487
 20
-4.5316710459
 30
0.0
 10
49.2241844333
 20
-4.5999118721
 30
0.0
 10
48.9931763863
 20
-4.5661899634
 30
0.0
 10
48.8385456567
 20
-4.5011542819
 30
0.0
 10
48.7060582661
 20
-4.3982963799
 30
0.0
 10
48.637357456
 20
-4.3092882471
 30
0.0
 10
48.6082637118
 20
-4.2610790623
 30
0.0
  0
SPLINE
  5
364
100
AcDbEntity
  8
0
100
AcDbSpline
 62
7
  6
CONTINUOUS
 70
0
 71
3
 72
20
 73
16
 74
0
 42
0.0000001
 43
0.0000001
 44
0.0000000001
 40
0.0
 40
0.0
 40
0.0
 40
0.0
 40
0.0568153058
 40
0.1163632255
 40
0.1787579498
 40
0.2438044252
 40
0.3794519157
 40
0.5179327402
 40
0.6525473594
 40
0.7167904771
 40
0.7782870562
 40
0.8369394688
 40
0.8929911433
 40
0.9470410508
 40
1.0
 40
1.0
 40
1.0
 40
1.0
 10
46.8182380361
 20
-4.7182941347
 30
0.0
 10
46.7579369426
 20
-4.6183710528
 30
0.0
 10
46.655563825
 20
-4.4003670972
 30
0.0
 10
46.5633088432
 20
-4.0430905651
 30
0.0
 10
46.5310034849
 20
-3.658599645
 30
0.0
 10
46.5690903429
 20
-3.117776274
 30
0.0
 10
46.7683888064
 20
-2.4402361813
 30
0.0
 10
47.20711673
 20
-1.7144200281
 30
0.0
 10
47.7128716723
 20
-1.2265287814
 30
0.0
 10
48.1713216495
 20
-0.9475896771
 30
0.0
 10
48.5235570461
 20
-0.803534715
 30
0.0
 10
48.8791881789
 20
-0.7261951643
 30
0.0
 10
49.2281176537
 20
-0.7184048243
 30
0.0
 10
49.5596966147
 20
-0.7811174904
 30
0.0
 10
49.7633215922
 20
-0.869607989
 30
0.0
 10
49.8575269613
 20
-0.924013011
 30
0.0
  0
SPLINE
  5
365
100
AcDbEntity
  8
0
100
AcDbSpline
 62
7
  6
CONTINUOUS
 70
0
 71
3
 72
9
 73
5
 74
0
 42
0.0000001
 43
0.0000001
 44
0.0000000001
 40
0.0
 40
0.0
 40
0.0
 40
0.0
 40
0.493274646
 40
1.0
 40
1.0
 40
1.0
 40
1.0
 10
47.3568036824
 20
-5.2537242449
 30
0.0
 10
47.2477971668
 20
-5.1907713355
 30
0.0
 10
47.0428910133
 20
-5.0331901216
 30
0.0
 10
46.8850515271
 20
-4.8290072076
 30
0.0
 10
46.8182380361
 20
-4.7182941347
 30
0.0
  0
SPLINE
  5
366
100
AcDbEntity
  8
0
100
AcDbSpline
 62
7
  6
CONTINUOUS
 70
0
 71
3
 72
18
 73
14
 74
0
 42
0.0000001
 43
0.0000001
 44
0.0000000001
 40
0.0
 40
0.0
 40
0.0
 40
0.0
 40
0.1188413475
 40
0.1834774748
 40
0.2510072551
 40
0.391001859
 40
0.5309034212
 40
0.6623440279
 40
0.780904688
 40
0.8363592017
 40
0.8903871802
 40
0.9444691285
 40
1.0
 40
1.0
 40
1.0
 40
1.0
 10
48.6082637118
 20
-4.2610790623
 30
0.0
 10
48.5460025333
 20
-4.1579054942
 30
0.0
 10
48.4889261883
 20
-3.9733661579
 30
0.0
 10
48.4827739374
 20
-3.7183346487
 30
0.0
 10
48.5225789861
 20
-3.4439668992
 30
0.0
 10
48.6559384857
 20
-3.111640683
 30
0.0
 10
48.9195019133
 20
-2.7807033845
 30
0.0
 10
49.253841359
 20
-2.5565863753
 30
0.0
 10
49.5666058769
 20
-2.4883455466
 30
0.0
 10
49.7976139214
 20
-2.5220674552
 30
0.0
 10
49.952244651
 20
-2.5871031367
 30
0.0
 10
50.0847320416
 20
-2.6899610412
 30
0.0
 10
50.1534328516
 20
-2.7789691741
 30
0.0
 10
50.1825265958
 20
-2.8271783563
 30
0.0
  0
SPLINE
  5
367
100
AcDbEntity
  8
0
100
AcDbSpline
 62
7
  6
CONTINUOUS
 70
0
 71
3
 72
21
 73
17
 74
0
 42
0.0000001
 43
0.0000001
 44
0.0000000001
 40
0.0
 40
0.0
 40
0.0
 40
0.0
 40
0.0616916195
 40
0.1234689327
 40
0.1854436959
 40
0.2477407989
 40
0.3105035686
 40
0.3737728875
 40
0.5008953144
 40
0.6275769581
 40
0.6904401379
 40
0.7528209327
 40
0.8148360182
 40
0.8766376334
 40
0.9383340772
 40
1.0
 40
1.0
 40
1.0
 40
1.0
 10
38.7777674851
 20
-17.6620790014
 30
0.0
 10
38.9144925609
 20
-17.7132364734
 30
0.0
 10
39.2000546644
 20
-17.7863924053
 30
0.0
 10
39.6414818639
 20
-17.8043113408
 30
0.0
 10
40.0788827569
 20
-17.7331385926
 30
0.0
 10
40.4965362803
 20
-17.5791801019
 30
0.0
 10
40.8821047827
 20
-17.351007937
 30
0.0
 10
41.3400223962
 20
-16.9610565452
 30
0.0
 10
41.7844898994
 20
-16.3397848794
 30
0.0
 10
42.0130130111
 20
-15.6112580485
 30
0.0
 10
42.0434321781
 20
-15.0132557926
 30
0.0
 10
41.98671188
 20
-14.5711925568
 30
0.0
 10
41.848493998
 20
-14.1499182737
 30
0.0
 10
41.6300397765
 20
-13.7655692964
 30
0.0
 10
41.3373964527
 20
-13.4352776405
 30
0.0
 10
41.09963053
 20
-13.2613517907
 30
0.0
 10
40.9732709808
 20
-13.188369958
 30
0.0
  0
SPLINE
  5
368
100
AcDbEntity
  8
0
100
AcDbSpline
 62
7
  6
CONTINUOUS
 70
0
 71
3
 72
20
 73
16
 74
0
 42
0.0000001
 43
0.0000001
 44
0.0000000001
 40
0.0
 40
0.0
 40
0.0
 40
0.0
 40
0.0537926108
 40
0.1081422037
 40
0.1643686775
 40
0.223463793
 40
0.2858495352
 40
0.3514358589
 40
0.4893063328
 40
0.6300589049
 40
0.764895658
 40
0.8282385775
 40
0.8882573103
 40
0.9452543582
 40
1.0
 40
1.0
 40
1.0
 40
1.0
 10
40.0565942899
 20
-16.8061178025
 30
0.0
 10
40.0054394037
 20
-16.78697573
 30
0.0
 10
39.9070667886
 20
-16.7349973809
 30
0.0
 10
39.7832845267
 20
-16.6204653315
 30
0.0
 10
39.6885308935
 20
-16.474619926
 30
0.0
 10
39.6261120038
 20
-16.3038701151
 30
0.0
 10
39.5979028019
 20
-16.1148350601
 30
0.0
 10
39.6068875541
 20
-15.8438587567
 30
0.0
 10
39.7061929054
 20
-15.5022223534
 30
0.0
 10
39.937504015
 20
-15.1453652388
 30
0.0
 10
40.2067616071
 20
-14.9202710941
 30
0.0
 10
40.4464020625
 20
-14.8106374856
 30
0.0
 10
40.6258779469
 20
-14.7679419855
 30
0.0
 10
40.8017264979
 20
-14.765416019
 30
0.0
 10
40.9136232337
 20
-14.7913721089
 30
0.0
 10
40.9656848746
 20
-14.8108521004
 30
0.0
  0
SPLINE
  5
369
100
AcDbEntity
  8
0
100
AcDbSpline
 62
7
  6
CONTINUOUS
 70
0
 71
3
 72
19
 73
15
 74
0
 42
0.0000001
 43
0.0000001
 44
0.0000000001
 40
0.0
 40
0.0
 40
0.0
 40
0.0
 40
0.0536751169
 40
0.1086716023
 40
0.1660625577
 40
0.2264644503
 40
0.3559959303
 40
0.4943225842
 40
0.6340295892
 40
0.7671571815
 40
0.8296895337
 40
0.8890636538
 40
0.9455772485
 40
1.0
 40
1.0
 40
1.0
 40
1.0
 10
38.47255695
 20
-17.5180651797
 30
0.0
 10
38.3690285033
 20
-17.4582828456
 30
0.0
 10
38.1738438416
 20
-17.3102335685
 30
0.0
 10
37.9399911317
 20
-17.0194673987
 30
0.0
 10
37.7708718332
 20
-16.670350355
 30
0.0
 10
37.6358460123
 20
-16.132985801
 30
0.0
 10
37.6608348295
 20
-15.3869705621
 30
0.0
 10
37.9652199611
 20
-14.5190113404
 30
0.0
 10
38.5009380109
 20
-13.7618569568
 30
0.0
 10
39.1005658286
 20
-13.2934588537
 30
0.0
 10
39.6257948645
 20
-13.0698304516
 30
0.0
 10
40.0169929975
 20
-12.9856208359
 30
0.0
 10
40.3992934623
 20
-12.9855972851
 30
0.0
 10
40.6424352646
 20
-13.0434079543
 30
0.0
 10
40.7559627236
 20
-13.0858873766
 30
0.0
  0
SPLINE
  5
36A
100
AcDbEntity
  8
0
100
AcDbSpline
 62
7
  6
CONTINUOUS
 70
0
 71
3
 72
20
 73
16
 74
0
 42
0.0000001
 43
0.0000001
 44
0.0000000001
 40
0.0
 40
0.0
 40
0.0
 40
0.0
 40
0.0537926108
 40
0.1081422037
 40
0.1643686775
 40
0.223463793
 40
0.2858495352
 40
0.3514358589
 40
0.4893063328
 40
0.6300589049
 40
0.764895658
 40
0.8282385775
 40
0.8882573103
 40
0.9452543582
 40
1.0
 40
1.0
 40
1.0
 40
1.0
 10
40.9656848746
 20
-14.8108521004
 30
0.0
 10
41.0168397609
 20
-14.8299941728
 30
0.0
 10
41.1152123759
 20
-14.881972522
 30
0.0
 10
41.2389946379
 20
-14.9965045713
 30
0.0
 10
41.3337482685
 20
-15.1423499769
 30
0.0
 10
41.3961671607
 20
-15.3130997878
 30
0.0
 10
41.4243763626
 20
-15.5021348428
 30
0.0
 10
41.4153916104
 20
-15.7731111461
 30
0.0
 10
41.3160862591
 20
-16.1147475469
 30
0.0
 10
41.0847751495
 20
-16.4716046641
 30
0.0
 10
40.8155175575
 20
-16.6966988087
 30
0.0
 10
40.575877102
 20
-16.8063324173
 30
0.0
 10
40.3964012176
 20
-16.8490279148
 30
0.0
 10
40.2205526666
 20
-16.8515538813
 30
0.0
 10
40.1086559283
 20
-16.825597794
 30
0.0
 10
40.0565942899
 20
-16.8061178025
 30
0.0
  0
SPLINE
  5
36B
100
AcDbEntity
  8
0
100
AcDbSpline
 62
7
  6
CONTINUOUS
 70
0
 71
3
 72
9
 73
5
 74
0
 42
0.0000001
 43
0.0000001
 44
0.0000000001
 40
0.0
 40
0.0
 40
0.0
 40
0.0
 40
0.5008740859
 40
1.0
 40
1.0
 40
1.0
 40
1.0
 10
52.4352463017
 20
-21.4140079593
 30
0.0
 10
52.3190347587
 20
-21.2212304836
 30
0.0
 10
52.0394151122
 20
-20.8628059807
 30
0.0
 10
51.6779535491
 20
-20.5863251519
 30
0.0
 10
51.4837136632
 20
-20.4741374845
 30
0.0
  0
SPLINE
  5
36C
100
AcDbEntity
  8
0
100
AcDbSpline
 62
7
  6
CONTINUOUS
 70
0
 71
3
 72
19
 73
15
 74
0
 42
0.0000001
 43
0.0000001
 44
0.0000000001
 40
0.0
 40
0.0
 40
0.0
 40
0.0
 40
0.0603116863
 40
0.1207456442
 40
0.1814669063
 40
0.2426620265
 40
0.3045438929
 40
0.3672625011
 40
0.4948273953
 40
0.6242050744
 40
0.752473203
 40
0.8775446424
 40
0.9390653045
 40
1.0
 40
1.0
 40
1.0
 40
1.0
 10
47.9827022147
 20
-26.5357312388
 30
0.0
 10
48.1368765723
 20
-26.6247781474
 30
0.0
 10
48.4648470721
 20
-26.7717400734
 30
0.0
 10
48.9911911731
 20
-26.8883852986
 30
0.0
 10
49.5327202576
 20
-26.9002451428
 30
0.0
 10
50.0708593287
 20
-26.8108311001
 30
0.0
 10
50.5905132348
 20
-26.627135628
 30
0.0
 10
51.2450580395
 20
-26.2668794677
 30
0.0
 10
51.956946194
 20
-25.6252430903
 30
0.0
 10
52.5671246968
 20
-24.649308367
 30
0.0
 10
52.8892650711
 20
-23.5511952928
 30
0.0
 10
52.8781975545
 20
-22.604466188
 30
0.0
 10
52.6852853901
 20
-21.8964230092
 30
0.0
 10
52.5281146504
 20
-21.568062589
 30
0.0
 10
52.4352463017
 20
-21.4140079593
 30
0.0
  0
SPLINE
  5
36D
100
AcDbEntity
  8
0
100
AcDbSpline
 62
7
  6
CONTINUOUS
 70
0
 71
3
 72
21
 73
17
 74
0
 42
0.0000001
 43
0.0000001
 44
0.0000000001
 40
0.0
 40
0.0
 40
0.0
 40
0.0
 40
0.0580381796
 40
0.1192913537
 40
0.1838226474
 40
0.2512342412
 40
0.390984188
 40
0.5306300724
 40
0.5979234091
 40
0.6623089501
 40
0.7234041912
 40
0.7813053503
 40
0.8366523883
 40
0.8905850452
 40
0.94455737
 40
1.0
 40
1.0
 40
1.0
 40
1.0
 10
49.0183913269
 20
-25.3283356882
 30
0.0
 10
48.9602825658
 20
-25.2319419871
 30
0.0
 10
48.864342298
 20
-25.018935512
 30
0.0
 10
48.78856613
 20
-24.668361923
 30
0.0
 10
48.7790636039
 20
-24.2917410227
 30
0.0
 10
48.8554907968
 20
-23.7683171902
 30
0.0
 10
49.1099632012
 20
-23.1340332391
 30
0.0
 10
49.5357330558
 20
-22.5996881483
 30
0.0
 10
49.9528540249
 20
-22.2754993072
 30
0.0
 10
50.2845553021
 20
-22.0986572326
 30
0.0
 10
50.6264355734
 20
-21.992507036
 30
0.0
 10
50.9659709243
 20
-21.9618504806
 30
0.0
 10
51.2900132836
 20
-22.0091119126
 30
0.0
 10
51.5850577151
 20
-22.1335064136
 30
0.0
 10
51.8379279739
 20
-22.3299553832
 30
0.0
 10
51.9689741608
 20
-22.4999703619
 30
0.0
 10
52.0244842175
 20
-22.5920532004
 30
0.0
  0
SPLINE
  5
36E
100
AcDbEntity
  8
0
100
AcDbSpline
 62
7
  6
CONTINUOUS
 70
0
 71
3
 72
21
 73
17
 74
0
 42
0.0000001
 43
0.0000001
 44
0.0000000001
 40
0.0
 40
0.0
 40
0.0
 40
0.0
 40
0.0580381796
 40
0.1192913537
 40
0.1838226474
 40
0.2512342412
 40
0.390984188
 40
0.5306300724
 40
0.5979234091
 40
0.6623089501
 40
0.7234041912
 40
0.7813053503
 40
0.8366523883
 40
0.8905850452
 40
0.94455737
 40
1.0
 40
1.0
 40
1.0
 40
1.0
 10
52.0244842175
 20
-22.5920532004
 30
0.0
 10
52.0825929786
 20
-22.6884469014
 30
0.0
 10
52.1785332464
 20
-22.9014533766
 30
0.0
 10
52.2543094169
 20
-23.2520269655
 30
0.0
 10
52.2638119405
 20
-23.6286478658
 30
0.0
 10
52.1873847476
 20
-24.1520716983
 30
0.0
 10
51.9329123432
 20
-24.7863556495
 30
0.0
 10
51.5071424912
 20
-25.3207007377
 30
0.0
 10
51.0900215195
 20
-25.6448895788
 30
0.0
 10
50.7583202423
 20
-25.8217316559
 30
0.0
 10
50.416439971
 20
-25.9278818526
 30
0.0
 10
50.0769046227
 20
-25.958538408
 30
0.0
 10
49.7528622608
 20
-25.9112769759
 30
0.0
 10
49.4578178319
 20
-25.7868824749
 30
0.0
 10
49.2049475705
 20
-25.5904335054
 30
0.0
 10
49.0739013836
 20
-25.4204185266
 30
0.0
 10
49.0183913269
 20
-25.3283356882
 30
0.0
  0
SPLINE
  5
36F
100
AcDbEntity
  8
0
100
AcDbSpline
 62
7
  6
CONTINUOUS
 70
0
 71
3
 72
20
 73
16
 74
0
 42
0.0000001
 43
0.0000001
 44
0.0000000001
 40
0.0
 40
0.0
 40
0.0
 40
0.0
 40
0.0570917743
 40
0.1169165969
 40
0.1795525048
 40
0.2447786012
 40
0.3805709963
 40
0.5189116945
 40
0.6532192343
 40
0.7172918955
 40
0.7786355416
 40
0.8371623028
 40
0.893118085
 40
0.9470977044
 40
1.0
 40
1.0
 40
1.0
 40
1.0
 10
47.1970955995
 20
-25.7321475577
 30
0.0
 10
47.1165714273
 20
-25.5904206123
 30
0.0
 10
46.9810969814
 20
-25.2826681112
 30
0.0
 10
46.8626671878
 20
-24.7814129009
 30
0.0
 10
46.8269674903
 20
-24.244385024
 30
0.0
 10
46.8912454365
 20
-23.4920214741
 30
0.0
 10
47.1793064428
 20
-22.5533985025
 30
0.0
 10
47.797878312
 20
-21.5511470551
 30
0.0
 10
48.504672296
 20
-20.8798028301
 30
0.0
 10
49.142937598
 20
-20.4973766506
 30
0.0
 10
49.6325195297
 20
-20.3006464192
 30
0.0
 10
50.1262986057
 20
-20.1959748201
 30
0.0
 10
50.6104435302
 20
-20.1872069636
 30
0.0
 10
51.070400083
 20
-20.2754783923
 30
0.0
 10
51.3529087686
 20
-20.3986110823
 30
0.0
 10
51.4837105797
 20
-20.4741428261
 30
0.0
  0
SPLINE
  5
370
100
AcDbEntity
  8
0
100
AcDbSpline
 62
7
  6
CONTINUOUS
 70
0
 71
3
 72
9
 73
5
 74
0
 42
0.0000001
 43
0.0000001
 44
0.0000000001
 40
0.0
 40
0.0
 40
0.0
 40
0.0
 40
0.4932328966
 40
1.0
 40
1.0
 40
1.0
 40
1.0
 10
47.9827052982
 20
-26.5357258998
 30
0.0
 10
47.829946447
 20
-26.4475150221
 30
0.0
 10
47.5427971687
 20
-26.22663252
 30
0.0
 10
47.3216996251
 20
-25.9403868288
 30
0.0
 10
47.2281305336
 20
-25.7851697707
 30
0.0
  0
SPLINE
  5
371
100
AcDbEntity
  8
0
100
AcDbSpline
 62
7
  6
CONTINUOUS
 70
0
 71
3
 72
9
 73
5
 74
0
 42
0.0000001
 43
0.0000001
 44
0.0000000001
 40
0.0
 40
0.0
 40
0.0
 40
0.0
 40
0.4929877436
 40
1.0
 40
1.0
 40
1.0
 40
1.0
 10
-21.0269296947
 20
54.3825347221
 30
0.0
 10
-22.2043523233
 20
54.3396779727
 30
0.0
 10
-24.5891429512
 20
54.102132207
 30
0.0
 10
-26.9286686709
 20
53.586641493
 30
0.0
 10
-28.0960549214
 20
53.2618734379
 30
0.0
  0
SPLINE
  5
372
100
AcDbEntity
  8
0
100
AcDbSpline
 62
7
  6
CONTINUOUS
 70
0
 71
3
 72
9
 73
5
 74
0
 42
0.0000001
 43
0.0000001
 44
0.0000000001
 40
0.0
 40
0.0
 40
0.0
 40
0.0
 40
0.2529139038
 40
1.0
 40
1.0
 40
1.0
 40
1.0
 10
-47.0336503024
 20
36.0169549509
 30
0.0
 10
-47.1439469982
 20
35.4976632997
 30
0.0
 10
-47.5455635178
 20
33.4373011898
 30
0.0
 10
-47.8076151807
 20
31.3493657644
 30
0.0
 10
-47.9179900552
 20
29.7850929417
 30
0.0
  0
SPLINE
  5
373
100
AcDbEntity
  8
0
100
AcDbSpline
 62
7
  6
CONTINUOUS
 70
0
 71
3
 72
9
 73
5
 74
0
 42
0.0000001
 43
0.0000001
 44
0.0000000001
 40
0.0
 40
0.0
 40
0.0
 40
0.0
 40
0.246451392
 40
1.0
 40
1.0
 40
1.0
 40
1.0
 10
-31.30456902
 20
53.3487618697
 30
0.0
 10
-31.8191169215
 20
53.0222429291
 30
0.0
 10
-33.8781325927
 20
51.6523295298
 30
0.0
 10
-35.8200520261
 20
50.1077393677
 30
0.0
 10
-37.2075996599
 20
48.8640966226
 30
0.0
  0
SPLINE
  5
374
100
AcDbEntity
  8
0
100
AcDbSpline
 62
7
  6
CONTINUOUS
 70
0
 71
3
 72
14
 73
10
 74
0
 42
0.0000001
 43
0.0000001
 44
0.0000000001
 40
0.0
 40
0.0
 40
0.0
 40
0.0
 40
0.2491744126
 40
0.3795057819
 40
0.5105485114
 40
0.640033591
 40
0.7658386632
 40
0.886205932
 40
1.0
 40
1.0
 40
1.0
 40
1.0
 10
-31.9680816274
 20
19.9982423326
 30
0.0
 10
-31.9680756025
 20
22.4135705753
 30
0.0
 10
-31.291938748
 20
26.1162259259
 30
0.0
 10
-29.3441020468
 20
30.6760038726
 30
0.0
 10
-27.3512490145
 20
33.9166831063
 30
0.0
 10
-24.9282528013
 20
36.7901244028
 30
0.0
 10
-22.1674893719
 20
39.1888990287
 30
0.0
 10
-19.1781038114
 20
41.0199482977
 30
0.0
 10
-17.0435256244
 20
41.840232649
 30
0.0
 10
-15.9780965996
 20
42.1258272442
 30
0.0
  0
SPLINE
  5
375
100
AcDbEntity
  8
0
100
AcDbSpline
 62
7
  6
CONTINUOUS
 70
0
 71
3
 72
9
 73
5
 74
0
 42
0.0000001
 43
0.0000001
 44
0.0000000001
 40
0.0
 40
0.0
 40
0.0
 40
0.0
 40
0.4870272291
 40
1.0
 40
1.0
 40
1.0
 40
1.0
 10
-31.0677778222
 20
14.3810494192
 30
0.0
 10
-31.3716157337
 20
15.2565885596
 30
0.0
 10
-31.8269455114
 20
17.1157181891
 30
0.0
 10
-31.9680840633
 20
19.0221095478
 30
0.0
 10
-31.9680816274
 20
19.9982423326
 30
0.0
  0
SPLINE
  5
376
100
AcDbEntity
  8
0
100
AcDbSpline
 62
7
  6
CONTINUOUS
 70
0
 71
3
 72
9
 73
5
 74
0
 42
0.0000001
 43
0.0000001
 44
0.0000000001
 40
0.0
 40
0.0
 40
0.0
 40
0.0
 40
0.5071949213
 40
1.0
 40
1.0
 40
1.0
 40
1.0
 10
-48.8945233675
 20
24.086579937
 30
0.0
 10
-48.5019953591
 20
22.8665417979
 30
0.0
 10
-47.5816509006
 20
20.5051881412
 30
0.0
 10
-46.3603419818
 20
18.2830594003
 30
0.0
 10
-45.6857130973
 20
17.236366914
 30
0.0
  0
SPLINE
  5
377
100
AcDbEntity
  8
0
100
AcDbSpline
 62
7
  6
CONTINUOUS
 70
0
 71
3
 72
9
 73
5
 74
0
 42
0.0000001
 43
0.0000001
 44
0.0000000001
 40
0.0
 40
0.0
 40
0.0
 40
0.0
 40
0.4940901587
 40
1.0
 40
1.0
 40
1.0
 40
1.0
 10
-45.1851818861
 20
15.997301574
 30
0.0
 10
-45.8763165566
 20
16.8968160183
 30
0.0
 10
-47.0841024367
 20
18.8707932286
 30
0.0
 10
-47.8814731508
 20
21.0396522005
 30
0.0
 10
-48.1843258065
 20
22.1609798385
 30
0.0
  0
SPLINE
  5
378
100
AcDbEntity
  8
0
100
AcDbSpline
 62
7
  6
CONTINUOUS
 70
0
 71
3
 72
12
 73
8
 74
0
 42
0.0000001
 43
0.0000001
 44
0.0000000001
 40
0.0
 40
0.0
 40
0.0
 40
0.0
 40
0.243492187
 40
0.4939269619
 40
0.6207431965
 40
0.747790924
 40
1.0
 40
1.0
 40
1.0
 40
1.0
 10
-48.9047847923
 20
27.7597791234
 30
0.0
 10
-48.9047847923
 20
29.4624803586
 30
0.0
 10
-48.5277509261
 20
32.9241187998
 30
0.0
 10
-47.2229122962
 20
37.0914534268
 30
0.0
 10
-45.7144130374
 20
40.2840834423
 30
0.0
 10
-43.9140864044
 20
43.334743056
 30
0.0
 10
-42.2537114904
 20
45.4286851902
 30
0.0
 10
-41.0308497883
 20
46.6995492093
 30
0.0
  0
SPLINE
  5
379
100
AcDbEntity
  8
0
100
AcDbSpline
 62
7
  6
CONTINUOUS
 70
0
 71
3
 72
9
 73
5
 74
0
 42
0.0000001
 43
0.0000001
 44
0.0000000001
 40
0.0
 40
0.0
 40
0.0
 40
0.0
 40
0.5089437127
 40
1.0
 40
1.0
 40
1.0
 40
1.0
 10
-41.0308497883
 20
46.6995492093
 30
0.0
 10
-39.8122781793
 20
47.9659547283
 30
0.0
 10
-37.1732146436
 20
50.2321223676
 30
0.0
 10
-34.1135088961
 20
51.9022932615
 30
0.0
 10
-32.5391363756
 20
52.5321775618
 30
0.0
  0
SPLINE
  5
37A
100
AcDbEntity
  8
0
100
AcDbSpline
 62
7
  6
CONTINUOUS
 70
0
 71
3
 72
9
 73
5
 74
0
 42
0.0000001
 43
0.0000001
 44
0.0000000001
 40
0.0
 40
0.0
 40
0.0
 40
0.0
 40
0.5046231017
 40
1.0
 40
1.0
 40
1.0
 40
1.0
 10
-30.1135758266
 20
53.3328413072
 30
0.0
 10
-29.2804986764
 20
53.5502960056
 30
0.0
 10
-27.5989822401
 20
53.872762874
 30
0.0
 10
-25.8877041565
 20
53.9535763827
 30
0.0
 10
-25.0428339133
 20
53.9294636623
 30
0.0
  0
SPLINE
  5
37B
100
AcDbEntity
  8
0
100
AcDbSpline
 62
7
  6
CONTINUOUS
 70
0
 71
3
 72
9
 73
5
 74
0
 42
0.0000001
 43
0.0000001
 44
0.0000000001
 40
0.0
 40
0.0
 40
0.0
 40
0.0
 40
0.4800869148
 40
1.0
 40
1.0
 40
1.0
 40
1.0
 10
-45.3893666161
 20
37.9705614527
 30
0.0
 10
-43.1729237668
 20
36.6906931412
 30
0.0
 10
-38.5345797212
 20
34.0620994982
 30
0.0
 10
-33.8625974472
 20
31.4939265015
 30
0.0
 10
-31.426402284
 20
30.1719757367
 30
0.0
  0
SPLINE
  5
37C
100
AcDbEntity
  8
0
100
AcDbSpline
 62
7
  6
CONTINUOUS
 70
0
 71
3
 72
9
 73
5
 74
0
 42
0.0000001
 43
0.0000001
 44
0.0000000001
 40
0.0
 40
0.0
 40
0.0
 40
0.0
 40
0.5088170117
 40
1.0
 40
1.0
 40
1.0
 40
1.0
 10
-31.2632662679
 20
30.0800492657
 30
0.0
 10
-31.9481167905
 20
28.5765946704
 30
0.0
 10
-33.0318881434
 20
25.4943468166
 30
0.0
 10
-33.5155038056
 20
22.2588076591
 30
0.0
 10
-33.5825940804
 20
20.6653873432
 30
0.0
  0
SPLINE
  5
37D
100
AcDbEntity
  8
0
100
AcDbSpline
 62
7
  6
CONTINUOUS
 70
0
 71
3
 72
17
 73
13
 74
0
 42
0.0000001
 43
0.0000001
 44
0.0000000001
 40
0.0
 40
0.0
 40
0.0
 40
0.0
 40
0.0304663361
 40
0.0609143849
 40
0.1219516604
 40
0.1832358816
 40
0.2447860275
 40
0.3686717953
 40
0.4935794769
 40
0.6193924857
 40
0.7459341486
 40
1.0
 40
1.0
 40
1.0
 40
1.0
 10
-33.8063588805
 20
20.819218933
 30
0.0
 10
-33.9457917106
 20
20.9158675027
 30
0.0
 10
-34.2259992909
 20
21.1070455328
 30
0.0
 10
-34.7813013223
 20
21.4979927113
 30
0.0
 10
-35.4663329469
 20
22.0026458397
 30
0.0
 10
-36.2706192326
 20
22.6366024
 30
0.0
 10
-37.3209816887
 20
23.522517156
 30
0.0
 10
-38.5845432611
 20
24.7036917203
 30
0.0
 10
-40.0061648349
 20
26.2325659904
 30
0.0
 10
-41.3236435766
 20
27.8715459967
 30
0.0
 10
-42.9250425811
 20
30.194861571
 30
0.0
 10
-43.9283843158
 20
32.0739792758
 30
0.0
 10
-44.4976821485
 20
33.3691675516
 30
0.0
  0
SPLINE
  5
37E
100
AcDbEntity
  8
0
100
AcDbSpline
 62
7
  6
CONTINUOUS
 70
0
 71
3
 72
9
 73
5
 74
0
 42
0.0000001
 43
0.0000001
 44
0.0000000001
 40
0.0
 40
0.0
 40
0.0
 40
0.0
 40
0.2497730341
 40
1.0
 40
1.0
 40
1.0
 40
1.0
 10
-44.4977852903
 20
33.3694221612
 30
0.0
 10
-44.6192447477
 20
33.6457545803
 30
0.0
 10
-45.0853761446
 20
34.7607867978
 30
0.0
 10
-45.4678902792
 20
35.9111625819
 30
0.0
 10
-45.7007090719
 20
36.7873998159
 30
0.0
  0
SPLINE
  5
37F
100
AcDbEntity
  8
0
100
AcDbSpline
 62
7
  6
CONTINUOUS
 70
0
 71
3
 72
11
 73
7
 74
0
 42
0.0000001
 43
0.0000001
 44
0.0000000001
 40
0.0
 40
0.0
 40
0.0
 40
0.0
 40
0.2847492155
 40
0.5340900981
 40
0.7632072621
 40
1.0
 40
1.0
 40
1.0
 40
1.0
 10
-45.7007090135
 20
36.7873998312
 30
0.0
 10
-45.7100215552
 20
36.8224411429
 30
0.0
 10
-45.7348487115
 20
36.8867614359
 30
0.0
 10
-45.7990797439
 20
36.963175601
 30
0.0
 10
-45.8860920387
 20
37.0005924452
 30
0.0
 10
-45.9474521141
 20
36.9952901368
 30
0.0
 10
-45.9765746289
 20
36.9874813208
 30
0.0
  0
SPLINE
  5
380
100
AcDbEntity
  8
0
100
AcDbSpline
 62
7
  6
CONTINUOUS
 70
0
 71
3
 72
9
 73
5
 74
0
 42
0.0000001
 43
0.0000001
 44
0.0000000001
 40
0.0
 40
0.0
 40
0.0
 40
0.0
 40
0.4447695156
 40
1.0
 40
1.0
 40
1.0
 40
1.0
 10
-12.2434546658
 20
49.0820579799
 30
0.0
 10
-12.0574352029
 20
48.9647457939
 30
0.0
 10
-11.6631436902
 20
48.6637367744
 30
0.0
 10
-11.2966168515
 20
48.3316902528
 30
0.0
 10
-11.0972266204
 20
48.142968898
 30
0.0
  0
SPLINE
  5
381
100
AcDbEntity
  8
0
100
AcDbSpline
 62
7
  6
CONTINUOUS
 70
0
 71
3
 72
9
 73
5
 74
0
 42
0.0000001
 43
0.0000001
 44
0.0000000001
 40
0.0
 40
0.0
 40
0.0
 40
0.0
 40
0.5013872744
 40
1.0
 40
1.0
 40
1.0
 40
1.0
 10
-37.4273798401
 20
39.8647349338
 30
0.0
 10
-37.9582457913
 20
40.9759363512
 30
0.0
 10
-38.8681322926
 20
43.2669126481
 30
0.0
 10
-39.4382977233
 20
45.6667779017
 30
0.0
 10
-39.6286751581
 20
46.8765734679
 30
0.0
  0
SPLINE
  5
382
100
AcDbEntity
  8
0
100
AcDbSpline
 62
7
  6
CONTINUOUS
 70
0
 71
3
 72
12
 73
8
 74
0
 42
0.0000001
 43
0.0000001
 44
0.0000000001
 40
0.0
 40
0.0
 40
0.0
 40
0.0
 40
0.2242022674
 40
0.4711857823
 40
0.6014178998
 40
0.7340456651
 40
1.0
 40
1.0
 40
1.0
 40
1.0
 10
-39.6286750971
 20
46.876572208
 30
0.0
 10
-39.7168907195
 20
46.9166770072
 30
0.0
 10
-39.9233724402
 20
46.956003845
 30
0.0
 10
-40.1838653812
 20
46.9148080803
 30
0.0
 10
-40.3905939365
 20
46.8369081091
 30
0.0
 10
-40.5924536395
 20
46.7286646603
 30
0.0
 10
-40.7280589055
 20
46.6186494803
 30
0.0
 10
-40.8077228635
 20
46.5357811954
 30
0.0
  0
SPLINE
  5
383
100
AcDbEntity
  8
0
100
AcDbSpline
 62
7
  6
CONTINUOUS
 70
0
 71
3
 72
12
 73
8
 74
0
 42
0.0000001
 43
0.0000001
 44
0.0000000001
 40
0.0
 40
0.0
 40
0.0
 40
0.0
 40
0.41110548
 40
0.7262086206
 40
0.9230286188
 40
0.9749759645
 40
1.0
 40
1.0
 40
1.0
 40
1.0
 10
-40.8076343191
 20
46.5357313022
 30
0.0
 10
-40.8220865711
 20
46.5440795101
 30
0.0
 10
-40.8478596412
 20
46.5586217873
 30
0.0
 10
-40.8806853592
 20
46.5759869215
 30
0.0
 10
-40.9021394717
 20
46.5856573695
 30
0.0
 10
-40.9122308841
 20
46.588685174
 30
0.0
 10
-40.9159948415
 20
46.5885920093
 30
0.0
 10
-40.9165907763
 20
46.5877692246
 30
0.0
  0
SPLINE
  5
384
100
AcDbEntity
  8
0
100
AcDbSpline
 62
7
  6
CONTINUOUS
 70
0
 71
3
 72
10
 73
6
 74
0
 42
0.0000001
 43
0.0000001
 44
0.0000000001
 40
0.0
 40
0.0
 40
0.0
 40
0.0
 40
0.2635300916
 40
0.6570657253
 40
1.0
 40
1.0
 40
1.0
 40
1.0
 10
-38.1480093437
 20
39.6596396036
 30
0.0
 10
-38.0995324226
 20
39.7083379339
 30
0.0
 10
-37.9613486883
 20
39.8130776838
 30
0.0
 10
-37.7123926026
 20
39.9058196421
 30
0.0
 10
-37.5107731607
 20
39.8969999112
 30
0.0
 10
-37.4273797055
 20
39.8647350837
 30
0.0
  0
SPLINE
  5
385
100
AcDbEntity
  8
0
100
AcDbSpline
 62
7
  6
CONTINUOUS
 70
0
 71
3
 72
9
 73
5
 74
0
 42
0.0000001
 43
0.0000001
 44
0.0000000001
 40
0.0
 40
0.0
 40
0.0
 40
0.0
 40
0.4990138604
 40
1.0
 40
1.0
 40
1.0
 40
1.0
 10
-40.8076536714
 20
46.5359924879
 30
0.0
 10
-40.5330451959
 20
45.3376347982
 30
0.0
 10
-39.8020133077
 20
42.9745646908
 30
0.0
 10
-38.7475735396
 20
40.7385132269
 30
0.0
 10
-38.1480059858
 20
39.6596429538
 30
0.0
  0
SPLINE
  5
386
100
AcDbEntity
  8
0
100
AcDbSpline
 62
7
  6
CONTINUOUS
 70
0
 71
3
 72
9
 73
5
 74
0
 42
0.0000001
 43
0.0000001
 44
0.0000000001
 40
0.0
 40
0.0
 40
0.0
 40
0.0
 40
0.4978819642
 40
1.0
 40
1.0
 40
1.0
 40
1.0
 10
-38.1480093437
 20
39.6596396036
 30
0.0
 10
-37.4181757208
 20
38.3463680417
 30
0.0
 10
-35.7365107504
 20
35.8238241002
 30
0.0
 10
-33.6967575401
 20
33.5840403527
 30
0.0
 10
-32.6007775756
 20
32.5377409924
 30
0.0
  0
SPLINE
  5
387
100
AcDbEntity
  8
0
100
AcDbSpline
 62
7
  6
CONTINUOUS
 70
0
 71
3
 72
9
 73
5
 74
0
 42
0.0000001
 43
0.0000001
 44
0.0000000001
 40
0.0
 40
0.0
 40
0.0
 40
0.0
 40
0.2844386947
 40
1.0
 40
1.0
 40
1.0
 40
1.0
 10
-32.0334629902
 20
32.0088537063
 30
0.0
 10
-32.0281901153
 20
32.0171697476
 30
0.0
 10
-32.0066603387
 20
32.0434108127
 30
0.0
 10
-31.9676083594
 20
32.0625706347
 30
0.0
 10
-31.9440186047
 20
32.0550105304
 30
0.0
  0
SPLINE
  5
388
100
AcDbEntity
  8
0
100
AcDbSpline
 62
7
  6
CONTINUOUS
 70
0
 71
3
 72
9
 73
5
 74
0
 42
0.0000001
 43
0.0000001
 44
0.0000000001
 40
0.0
 40
0.0
 40
0.0
 40
0.0
 40
0.5102700333
 40
1.0
 40
1.0
 40
1.0
 40
1.0
 10
-45.3645105114
 20
32.829630876
 30
0.0
 10
-43.9356939177
 20
30.356637313
 30
0.0
 10
-40.5164359962
 20
25.843421107
 30
0.0
 10
-36.1305140239
 20
22.2757457227
 30
0.0
 10
-33.8172690568
 20
20.8051611074
 30
0.0
  0
SPLINE
  5
389
100
AcDbEntity
  8
0
100
AcDbSpline
 62
7
  6
CONTINUOUS
 70
0
 71
3
 72
9
 73
5
 74
0
 42
0.0000001
 43
0.0000001
 44
0.0000000001
 40
0.0
 40
0.0
 40
0.0
 40
0.0
 40
0.2529262897
 40
1.0
 40
1.0
 40
1.0
 40
1.0
 10
-46.9454782994
 20
35.9173854701
 30
0.0
 10
-47.054175509
 20
35.4054214852
 30
0.0
 10
-47.4504955088
 20
33.3743474904
 30
0.0
 10
-47.711538591
 20
31.3165286038
 30
0.0
 10
-47.8238348993
 20
29.7747066023
 30
0.0
  0
SPLINE
  5
38A
100
AcDbEntity
  8
0
100
AcDbSpline
 62
7
  6
CONTINUOUS
 70
0
 71
3
 72
10
 73
6
 74
0
 42
0.0000001
 43
0.0000001
 44
0.0000000001
 40
0.0
 40
0.0
 40
0.0
 40
0.0
 40
0.242177541
 40
0.500792042
 40
1.0
 40
1.0
 40
1.0
 40
1.0
 10
-45.9754443289
 20
36.7137498185
 30
0.0
 10
-46.0786202719
 20
36.6967840612
 30
0.0
 10
-46.2859750566
 20
36.6227994898
 30
0.0
 10
-46.6479739694
 20
36.3849826833
 30
0.0
 10
-46.8609642139
 20
36.1156430086
 30
0.0
 10
-46.9454103036
 20
35.9173387849
 30
0.0
  0
SPLINE
  5
38B
100
AcDbEntity
  8
0
100
AcDbSpline
 62
7
  6
CONTINUOUS
 70
0
 71
3
 72
10
 73
6
 74
0
 42
0.0000001
 43
0.0000001
 44
0.0000000001
 40
0.0
 40
0.0
 40
0.0
 40
0.0
 40
0.3475778571
 40
0.6317036635
 40
1.0
 40
1.0
 40
1.0
 40
1.0
 10
-46.9454912001
 20
35.9173863261
 30
0.0
 10
-46.959315592
 20
35.9253743924
 30
0.0
 10
-46.9839706862
 20
35.9414148785
 30
0.0
 10
-47.0185201117
 20
35.9697290129
 30
0.0
 10
-47.0369165417
 20
36.0002477199
 30
0.0
 10
-47.0335117505
 20
36.0168195994
 30
0.0
  0
SPLINE
  5
38C
100
AcDbEntity
  8
0
100
AcDbSpline
 62
7
  6
CONTINUOUS
 70
0
 71
3
 72
11
 73
7
 74
0
 42
0.0000001
 43
0.0000001
 44
0.0000000001
 40
0.0
 40
0.0
 40
0.0
 40
0.0
 40
0.2289764594
 40
0.4860379073
 40
0.750516213
 40
1.0
 40
1.0
 40
1.0
 40
1.0
 10
-45.3643090284
 20
32.8292821518
 30
0.0
 10
-45.3216871579
 20
32.8967886716
 30
0.0
 10
-45.208836647
 20
33.0260320352
 30
0.0
 10
-44.9987750732
 20
33.1843434813
 30
0.0
 10
-44.7573357415
 20
33.3056602897
 30
0.0
 10
-44.5835819082
 20
33.3554861718
 30
0.0
 10
-44.4976783639
 20
33.3691660047
 30
0.0
  0
SPLINE
  5
38D
100
AcDbEntity
  8
0
100
AcDbSpline
 62
7
  6
CONTINUOUS
 70
0
 71
3
 72
9
 73
5
 74
0
 42
0.0000001
 43
0.0000001
 44
0.0000000001
 40
0.0
 40
0.0
 40
0.0
 40
0.0
 40
0.4931485774
 40
1.0
 40
1.0
 40
1.0
 40
1.0
 10
-21.023388861
 20
54.3516163638
 30
0.0
 10
-22.1288785779
 20
54.3074543008
 30
0.0
 10
-24.3668823416
 20
54.0847967248
 30
0.0
 10
-26.5656649291
 20
53.6155373026
 30
0.0
 10
-27.6640023285
 20
53.3211187804
 30
0.0
  0
SPLINE
  5
38E
100
AcDbEntity
  8
0
100
AcDbSpline
 62
7
  6
CONTINUOUS
 70
0
 71
3
 72
9
 73
5
 74
0
 42
0.0000001
 43
0.0000001
 44
0.0000000001
 40
0.0
 40
0.0
 40
0.0
 40
0.0
 40
0.4941395869
 40
1.0
 40
1.0
 40
1.0
 40
1.0
 10
-42.0090855281
 20
18.3829638614
 30
0.0
 10
-43.1090431529
 20
19.423580312
 30
0.0
 10
-45.2062059309
 20
21.6707214591
 30
0.0
 10
-46.9690063956
 20
24.1941538976
 30
0.0
 10
-47.7508522589
 20
25.532647375
 30
0.0
  0
SPLINE
  5
38F
100
AcDbEntity
  8
0
100
AcDbSpline
 62
7
  6
CONTINUOUS
 70
0
 71
3
 72
11
 73
7
 74
0
 42
0.0000001
 43
0.0000001
 44
0.0000000001
 40
0.0
 40
0.0
 40
0.0
 40
0.0
 40
0.3321354634
 40
0.6036182885
 40
0.812253476
 40
1.0
 40
1.0
 40
1.0
 40
1.0
 10
-47.7508522589
 20
25.532647375
 30
0.0
 10
-47.7746758308
 20
25.5734325233
 30
0.0
 10
-47.8242607049
 20
25.6443223638
 30
0.0
 10
-47.9120413041
 20
25.7217418305
 30
0.0
 10
-48.0088407371
 20
25.750322995
 30
0.0
 10
-48.0644071741
 20
25.7237250726
 30
0.0
 10
-48.0841499845
 20
25.7057502953
 30
0.0
  0
SPLINE
  5
390
100
AcDbEntity
  8
0
100
AcDbSpline
 62
7
  6
CONTINUOUS
 70
0
 71
3
 72
10
 73
6
 74
0
 42
0.0000001
 43
0.0000001
 44
0.0000000001
 40
0.0
 40
0.0
 40
0.0
 40
0.0
 40
0.2371925144
 40
0.6091008117
 40
1.0
 40
1.0
 40
1.0
 40
1.0
 10
-47.9363169299
 20
26.7165695893
 30
0.0
 10
-46.8563951426
 20
26.0935200963
 30
0.0
 10
-44.0534036873
 20
24.5447400849
 30
0.0
 10
-39.3423133534
 20
22.2084887351
 30
0.0
 10
-35.6692659598
 20
20.5967894058
 30
0.0
 10
-33.7709323905
 20
19.8105847018
 30
0.0
  0
SPLINE
  5
391
100
AcDbEntity
  8
0
100
AcDbSpline
 62
7
  6
CONTINUOUS
 70
0
 71
3
 72
9
 73
5
 74
0
 42
0.0000001
 43
0.0000001
 44
0.0000000001
 40
0.0
 40
0.0
 40
0.0
 40
0.0
 40
0.4951377597
 40
1.0
 40
1.0
 40
1.0
 40
1.0
 10
-19.3846144449
 20
52.6479316711
 30
0.0
 10
-17.2861716085
 20
51.4316477435
 30
0.0
 10
-13.1947927758
 20
48.7137917721
 30
0.0
 10
-9.4520215339
 20
45.5349334054
 30
0.0
 10
-7.6585927077
 20
43.8320630977
 30
0.0
  0
SPLINE
  5
392
100
AcDbEntity
  8
0
100
AcDbSpline
 62
7
  6
CONTINUOUS
 70
0
 71
3
 72
10
 73
6
 74
0
 42
0.0000001
 43
0.0000001
 44
0.0000000001
 40
0.0
 40
0.0
 40
0.0
 40
0.0
 40
0.2417901124
 40
0.4883469743
 40
1.0
 40
1.0
 40
1.0
 40
1.0
 10
-8.2075298268
 20
43.859004451
 30
0.0
 10
-8.7611993951
 20
44.0243969472
 30
0.0
 10
-9.9040759511
 20
44.2817236614
 30
0.0
 10
-12.2891566876
 20
44.4957960298
 30
0.0
 10
-14.1148294879
 20
44.3083546673
 30
0.0
 10
-15.3102028985
 20
44.0509195586
 30
0.0
  0
SPLINE
  5
393
100
AcDbEntity
  8
0
100
AcDbSpline
 62
7
  6
CONTINUOUS
 70
0
 71
3
 72
9
 73
5
 74
0
 42
0.0000001
 43
0.0000001
 44
0.0000000001
 40
0.0
 40
0.0
 40
0.0
 40
0.0
 40
0.516357813
 40
1.0
 40
1.0
 40
1.0
 40
1.0
 10
-33.602153579
 20
19.7408278792
 30
0.0
 10
-33.6021563374
 20
18.2481502016
 30
0.0
 10
-33.3036462283
 20
15.3458872304
 30
0.0
 10
-32.3128199727
 20
12.5901308496
 30
0.0
 10
-31.6585051091
 20
11.3545877683
 30
0.0
  0
SPLINE
  5
394
100
AcDbEntity
  8
0
100
AcDbSpline
 62
7
  6
CONTINUOUS
 70
0
 71
3
 72
10
 73
6
 74
0
 42
0.0000001
 43
0.0000001
 44
0.0000000001
 40
0.0
 40
0.0
 40
0.0
 40
0.0
 40
0.2417243068
 40
0.4892134699
 40
1.0
 40
1.0
 40
1.0
 40
1.0
 10
-33.110707112
 20
12.0783293434
 30
0.0
 10
-33.8915068788
 20
12.4865508511
 30
0.0
 10
-35.4489371269
 20
13.358074122
 30
0.0
 10
-38.5036361331
 20
15.3498469787
 30
0.0
 10
-40.6566204606
 20
17.1034634714
 30
0.0
 10
-42.0090849921
 20
18.3829641738
 30
0.0
  0
SPLINE
  5
395
100
AcDbEntity
  8
0
100
AcDbSpline
 62
7
  6
CONTINUOUS
 70
0
 71
3
 72
9
 73
5
 74
0
 42
0.0000001
 43
0.0000001
 44
0.0000000001
 40
0.0
 40
0.0
 40
0.0
 40
0.0
 40
0.2451582507
 40
1.0
 40
1.0
 40
1.0
 40
1.0
 10
-42.0090855281
 20
18.3829638614
 30
0.0
 10
-42.5695570564
 20
18.8792333971
 30
0.0
 10
-44.8100426719
 20
20.9542858714
 30
0.0
 10
-46.8591230086
 20
23.2379102271
 30
0.0
 10
-48.266005003
 20
25.0637017622
 30
0.0
  0
SPLINE
  5
396
100
AcDbEntity
  8
0
100
AcDbSpline
 62
7
  6
CONTINUOUS
 70
0
 71
3
 72
11
 73
7
 74
0
 42
0.0000001
 43
0.0000001
 44
0.0000000001
 40
0.0
 40
0.0
 40
0.0
 40
0.0
 40
0.2751887023
 40
0.5453233645
 40
0.790514844
 40
1.0
 40
1.0
 40
1.0
 40
1.0
 10
-48.2660049954
 20
25.0637016759
 30
0.0
 10
-48.3568446613
 20
24.9938833446
 30
0.0
 10
-48.5196215215
 20
24.8323215875
 30
0.0
 10
-48.7017055058
 20
24.5553294948
 30
0.0
 10
-48.8083371848
 20
24.2701751832
 30
0.0
 10
-48.8228642398
 20
24.0770483253
 30
0.0
 10
-48.8110088483
 20
23.9906418332
 30
0.0
  0
SPLINE
  5
397
100
AcDbEntity
  8
0
100
AcDbSpline
 62
7
  6
CONTINUOUS
 70
0
 71
3
 72
9
 73
5
 74
0
 42
0.0000001
 43
0.0000001
 44
0.0000000001
 40
0.0
 40
0.0
 40
0.0
 40
0.0
 40
0.2680324693
 40
1.0
 40
1.0
 40
1.0
 40
1.0
 10
-48.8109210735
 20
23.9905918206
 30
0.0
 10
-48.8208783053
 20
23.9963357867
 30
0.0
 10
-48.8564505532
 20
24.0201048426
 30
0.0
 10
-48.8849183347
 20
24.0565073834
 30
0.0
 10
-48.8944640154
 20
24.0864130031
 30
0.0
  0
SPLINE
  5
398
100
AcDbEntity
  8
0
100
AcDbSpline
 62
7
  6
CONTINUOUS
 70
0
 71
3
 72
9
 73
5
 74
0
 42
0.0000001
 43
0.0000001
 44
0.0000000001
 40
0.0
 40
0.0
 40
0.0
 40
0.0
 40
0.5067475138
 40
1.0
 40
1.0
 40
1.0
 40
1.0
 10
-48.8109051731
 20
23.990600962
 30
0.0
 10
-48.462021751
 20
22.9062133289
 30
0.0
 10
-47.6575122246
 20
20.8015659304
 30
0.0
 10
-46.614807391
 20
18.8032765259
 30
0.0
 10
-46.0423199203
 20
17.853707277
 30
0.0
  0
SPLINE
  5
399
100
AcDbEntity
  8
0
100
AcDbSpline
 62
7
  6
CONTINUOUS
 70
0
 71
3
 72
10
 73
6
 74
0
 42
0.0000001
 43
0.0000001
 44
0.0000000001
 40
0.0
 40
0.0
 40
0.0
 40
0.0
 40
0.4067570509
 40
0.6966183443
 40
1.0
 40
1.0
 40
1.0
 40
1.0
 10
-37.7247268172
 20
10.0884152613
 30
0.0
 10
-37.7245719508
 20
10.0363655203
 30
0.0
 10
-37.6351252844
 20
9.9673458133
 30
0.0
 10
-37.5193792827
 20
9.9275503201
 30
0.0
 10
-37.4438219484
 20
9.9111406374
 30
0.0
 10
-37.4054439251
 20
9.9052880405
 30
0.0
  0
SPLINE
  5
39A
100
AcDbEntity
  8
0
100
AcDbSpline
 62
7
  6
CONTINUOUS
 70
0
 71
3
 72
9
 73
5
 74
0
 42
0.0000001
 43
0.0000001
 44
0.0000000001
 40
0.0
 40
0.0
 40
0.0
 40
0.0
 40
0.255661121
 40
1.0
 40
1.0
 40
1.0
 40
1.0
 10
-48.8111149161
 20
23.9908710783
 30
0.0
 10
-48.3119403595
 20
23.4094289951
 30
0.0
 10
-46.3038125546
 20
21.1833964571
 30
0.0
 10
-44.0851713429
 20
19.1483084292
 30
0.0
 10
-42.341482689
 20
17.7564306897
 30
0.0
  0
SPLINE
  5
39B
100
AcDbEntity
  8
0
100
AcDbSpline
 62
7
  6
CONTINUOUS
 70
0
 71
3
 72
9
 73
5
 74
0
 42
0.0000001
 43
0.0000001
 44
0.0000000001
 40
0.0
 40
0.0
 40
0.0
 40
0.0
 40
0.2589995963
 40
1.0
 40
1.0
 40
1.0
 40
1.0
 10
-42.3414810634
 20
17.7564195747
 30
0.0
 10
-41.6617254303
 20
17.2138139492
 30
0.0
 10
-38.9815858478
 20
15.1895156255
 30
0.0
 10
-36.0912255528
 20
13.4428046917
 30
0.0
 10
-33.8641557956
 20
12.3327123652
 30
0.0
  0
SPLINE
  5
39C
100
AcDbEntity
  8
0
100
AcDbSpline
 62
7
  6
CONTINUOUS
 70
0
 71
3
 72
14
 73
10
 74
0
 42
0.0000001
 43
0.0000001
 44
0.0000000001
 40
0.0
 40
0.0
 40
0.0
 40
0.0
 40
0.0285944239
 40
0.094154666
 40
0.1966036464
 40
0.3301195362
 40
0.4855314694
 40
0.6539796925
 40
1.0
 40
1.0
 40
1.0
 40
1.0
 10
-45.3318850725
 20
15.471737756
 30
0.0
 10
-45.3333256716
 20
15.4684701399
 30
0.0
 10
-45.3239223807
 20
15.4568293758
 30
0.0
 10
-45.3063604372
 20
15.4432468757
 30
0.0
 10
-45.274152526
 20
15.4214376026
 30
0.0
 10
-45.2324874912
 20
15.3967867629
 30
0.0
 10
-45.1824436543
 20
15.3689048933
 30
0.0
 10
-45.1084776224
 20
15.3299373106
 30
0.0
 10
-45.0509154363
 20
15.3013166947
 30
0.0
 10
-45.0119975944
 20
15.2825333338
 30
0.0
  0
SPLINE
  5
39D
100
AcDbEntity
  8
0
100
AcDbSpline
 62
7
  6
CONTINUOUS
 70
0
 71
3
 72
10
 73
6
 74
0
 42
0.0000001
 43
0.0000001
 44
0.0000000001
 40
0.0
 40
0.0
 40
0.0
 40
0.0
 40
0.1922184997
 40
0.4368953326
 40
1.0
 40
1.0
 40
1.0
 40
1.0
 10
-42.3414810558
 20
17.7564195671
 30
0.0
 10
-42.3482911616
 20
17.8026217099
 30
0.0
 10
-42.3341991374
 20
17.9111797554
 30
0.0
 10
-42.2389576617
 20
18.1354453521
 30
0.0
 10
-42.1116564304
 20
18.2924284747
 30
0.0
 10
-42.0090855281
 20
18.382963869
 30
0.0
  0
SPLINE
  5
39E
100
AcDbEntity
  8
0
100
AcDbSpline
 62
7
  6
CONTINUOUS
 70
0
 71
3
 72
9
 73
5
 74
0
 42
0.0000001
 43
0.0000001
 44
0.0000000001
 40
0.0
 40
0.0
 40
0.0
 40
0.0
 40
0.4563258196
 40
1.0
 40
1.0
 40
1.0
 40
1.0
 10
-33.1375942084
 20
11.9785847016
 30
0.0
 10
-33.1443507811
 20
11.9933906817
 30
0.0
 10
-33.1417540603
 20
12.0322379065
 30
0.0
 10
-33.123900601
 20
12.0641187952
 30
0.0
 10
-33.11070841
 20
12.0783293459
 30
0.0
  0
SPLINE
  5
39F
100
AcDbEntity
  8
0
100
AcDbSpline
 62
7
  6
CONTINUOUS
 70
0
 71
3
 72
21
 73
17
 74
0
 42
0.0000001
 43
0.0000001
 44
0.0000000001
 40
0.0
 40
0.0
 40
0.0
 40
0.0
 40
0.2619304546
 40
0.3923441995
 40
0.5221070934
 40
0.6507991382
 40
0.7775421654
 40
0.8395676333
 40
0.8998556559
 40
0.9288447702
 40
0.9563809645
 40
0.9692069436
 40
0.9809020896
 40
0.9905893865
 40
0.9947026439
 40
1.0
 40
1.0
 40
1.0
 40
1.0
 10
-28.0960548807
 20
53.261881886
 30
0.0
 10
-28.171674445
 20
53.2408437238
 30
0.0
 10
-28.2846259412
 20
53.2081599995
 30
0.0
 10
-28.4341120405
 20
53.1619666273
 30
0.0
 10
-28.5449734876
 20
53.1260465468
 30
0.0
 10
-28.6541856517
 20
53.0886563421
 30
0.0
 10
-28.7435185414
 20
53.0559056888
 30
0.0
 10
-28.8128513491
 20
53.0282638874
 30
0.0
 10
-28.8544899145
 20
53.0103000498
 30
0.0
 10
-28.8860386322
 20
52.9950877129
 30
0.0
 10
-28.9043015701
 20
52.985209056
 30
0.0
 10
-28.9175172459
 20
52.9767673686
 30
0.0
 10
-28.9254018758
 20
52.970446289
 30
0.0
 10
-28.9310181486
 20
52.9646073599
 30
0.0
 10
-28.9312715898
 20
52.9584318934
 30
0.0
 10
-28.9288863367
 20
52.9563165408
 30
0.0
 10
-28.9275089989
 20
52.9555273069
 30
0.0
  0
SPLINE
  5
3A0
100
AcDbEntity
  8
0
100
AcDbSpline
 62
7
  6
CONTINUOUS
 70
0
 71
3
 72
11
 73
7
 74
0
 42
0.0000001
 43
0.0000001
 44
0.0000000001
 40
0.0
 40
0.0
 40
0.0
 40
0.0
 40
0.2763603686
 40
0.5357643381
 40
0.7771823614
 40
1.0
 40
1.0
 40
1.0
 40
1.0
 10
-29.0859108004
 20
47.6472901129
 30
0.0
 10
-29.2368335542
 20
48.0833816816
 30
0.0
 10
-29.4946348522
 20
48.9415264957
 30
0.0
 10
-29.7463331169
 20
50.217026378
 30
0.0
 10
-29.8455847421
 20
51.4240320615
 30
0.0
 10
-29.8050720596
 20
52.2016115325
 30
0.0
 10
-29.7542682902
 20
52.5701894619
 30
0.0
  0
SPLINE
  5
3A1
100
AcDbEntity
  8
0
100
AcDbSpline
 62
7
  6
CONTINUOUS
 70
0
 71
3
 72
9
 73
5
 74
0
 42
0.0000001
 43
0.0000001
 44
0.0000000001
 40
0.0
 40
0.0
 40
0.0
 40
0.0
 40
0.7365200282
 40
1.0
 40
1.0
 40
1.0
 40
1.0
 10
-29.7542682902
 20
52.5701894619
 30
0.0
 10
-29.7521799403
 20
52.5853398024
 30
0.0
 10
-29.7549928278
 20
52.6071927661
 30
0.0
 10
-29.7644659534
 20
52.6257066737
 30
0.0
 10
-29.7672905121
 20
52.6303922396
 30
0.0
  0
SPLINE
  5
3A2
100
AcDbEntity
  8
0
100
AcDbSpline
 62
7
  6
CONTINUOUS
 70
0
 71
3
 72
11
 73
7
 74
0
 42
0.0000001
 43
0.0000001
 44
0.0000000001
 40
0.0
 40
0.0
 40
0.0
 40
0.0
 40
0.2132099583
 40
0.455648374
 40
0.7240182502
 40
1.0
 40
1.0
 40
1.0
 40
1.0
 10
-46.2645418228
 20
36.9102899664
 30
0.0
 10
-46.2390516935
 20
36.9171160716
 30
0.0
 10
-46.1794655388
 20
36.9140515515
 30
0.0
 10
-46.100065878
 20
36.8686708447
 30
0.0
 10
-46.0310199404
 20
36.7990397012
 30
0.0
 10
-45.9927521531
 20
36.7432031911
 30
0.0
 10
-45.9754468232
 20
36.7137540653
 30
0.0
  0
SPLINE
  5
3A3
100
AcDbEntity
  8
0
100
AcDbSpline
 62
7
  6
CONTINUOUS
 70
0
 71
3
 72
9
 73
5
 74
0
 42
0.0000001
 43
0.0000001
 44
0.0000000001
 40
0.0
 40
0.0
 40
0.0
 40
0.0
 40
0.4860171606
 40
1.0
 40
1.0
 40
1.0
 40
1.0
 10
-28.9275089989
 20
52.9555273069
 30
0.0
 10
-26.7485395773
 20
51.6951955248
 30
0.0
 10
-22.3947228824
 20
48.8740081954
 30
0.0
 10
-18.3069291377
 20
45.6831854229
 30
0.0
 10
-16.2726425815
 20
43.9661547777
 30
0.0
  0
SPLINE
  5
3A4
100
AcDbEntity
  8
0
100
AcDbSpline
 62
7
  6
CONTINUOUS
 70
0
 71
3
 72
9
 73
5
 74
0
 42
0.0000001
 43
0.0000001
 44
0.0000000001
 40
0.0
 40
0.0
 40
0.0
 40
0.0
 40
0.4852910272
 40
1.0
 40
1.0
 40
1.0
 40
1.0
 10
-16.1368385808
 20
43.8511813602
 30
0.0
 10
-17.5660125246
 20
43.4680779659
 30
0.0
 10
-20.4168050424
 20
42.3007821674
 30
0.0
 10
-22.9434132099
 20
40.5533355099
 30
0.0
 10
-24.1439209715
 20
39.542612784
 30
0.0
  0
SPLINE
  5
3A5
100
AcDbEntity
  8
0
100
AcDbSpline
 62
7
  6
CONTINUOUS
 70
0
 71
3
 72
9
 73
5
 74
0
 42
0.0000001
 43
0.0000001
 44
0.0000000001
 40
0.0
 40
0.0
 40
0.0
 40
0.0
 40
0.499616271
 40
1.0
 40
1.0
 40
1.0
 40
1.0
 10
-39.7832717272
 20
47.0635513997
 30
0.0
 10
-39.74440165
 20
47.0489645785
 30
0.0
 10
-39.6754215924
 20
46.9939855495
 30
0.0
 10
-39.6403781116
 20
46.9164736573
 30
0.0
 10
-39.6286755315
 20
46.8765736914
 30
0.0
  0
SPLINE
  5
3A6
100
AcDbEntity
  8
0
100
AcDbSpline
 62
7
  6
CONTINUOUS
 70
0
 71
3
 72
25
 73
21
 74
0
 42
0.0000001
 43
0.0000001
 44
0.0000000001
 40
0.0
 40
0.0
 40
0.0
 40
0.0
 40
0.1255879096
 40
0.2511902797
 40
0.3768029415
 40
0.5024197284
 40
0.5652271187
 40
0.6280307682
 40
0.6908269014
 40
0.753608522
 40
0.8163605968
 40
0.8477157037
 40
0.8790442967
 40
0.9103244184
 40
0.941499613
 40
0.9570003328
 40
0.9723598901
 40
0.9873147467
 40
0.9942876321
 40
1.0
 40
1.0
 40
1.0
 40
1.0
 10
-44.649812431
 20
39.9278118155
 30
0.0
 10
-44.6871338855
 20
39.8481001868
 30
0.0
 10
-44.7607998087
 20
39.6882061174
 30
0.0
 10
-44.8682730152
 20
39.4469816951
 30
0.0
 10
-44.9725806603
 20
39.2043488149
 30
0.0
 10
-45.056662961
 20
39.000946481
 30
0.0
 10
-45.1219926373
 20
38.8374447278
 30
0.0
 10
-45.169920672
 20
38.7144062997
 30
0.0
 10
-45.2166389631
 20
38.5909220738
 30
0.0
 10
-45.2619189487
 20
38.4669410111
 30
0.0
 10
-45.2981491989
 20
38.3631223516
 30
0.0
 10
-45.3258379751
 20
38.2796850559
 30
0.0
 10
-45.3457595304
 20
38.2169161974
 30
0.0
 10
-45.3645176615
 20
38.1539139104
 30
0.0
 10
-45.3787263555
 20
38.1011625402
 30
0.0
 10
-45.3884440043
 20
38.0587424345
 30
0.0
 10
-45.394357805
 20
38.027279231
 30
0.0
 10
-45.3972328361
 20
38.0009300635
 30
0.0
 10
-45.3964492563
 20
37.9820382801
 30
0.0
 10
-45.3928468073
 20
37.9725402371
 30
0.0
 10
-45.3893666161
 20
37.9705614527
 30
0.0
  0
SPLINE
  5
3A7
100
AcDbEntity
  8
0
100
AcDbSpline
 62
7
  6
CONTINUOUS
 70
0
 71
3
 72
9
 73
5
 74
0
 42
0.0000001
 43
0.0000001
 44
0.0000000001
 40
0.0
 40
0.0
 40
0.0
 40
0.0
 40
0.5161258019
 40
1.0
 40
1.0
 40
1.0
 40
1.0
 10
-29.0859108004
 20
47.6472901129
 30
0.0
 10
-29.4043981442
 20
48.5425709868
 30
0.0
 10
-29.8945061683
 20
50.3263556031
 30
0.0
 10
-30.0641100175
 20
52.1727396802
 30
0.0
 10
-30.05169148
 20
53.0635175913
 30
0.0
  0
SPLINE
  5
3A8
100
AcDbEntity
  8
0
100
AcDbSpline
 62
7
  6
CONTINUOUS
 70
0
 71
3
 72
10
 73
6
 74
0
 42
0.0000001
 43
0.0000001
 44
0.0000000001
 40
0.0
 40
0.0
 40
0.0
 40
0.0
 40
0.2687151755
 40
0.5257664071
 40
1.0
 40
1.0
 40
1.0
 40
1.0
 10
-25.2319768548
 20
40.8604689012
 30
0.0
 10
-25.6660599008
 20
41.4119709503
 30
0.0
 10
-26.4846415885
 20
42.5165128433
 30
0.0
 10
-27.870419838
 20
44.7320426515
 30
0.0
 10
-28.6808199596
 20
46.4767799926
 30
0.0
 10
-29.0859107115
 20
47.6472893052
 30
0.0
  0
SPLINE
  5
3A9
100
AcDbEntity
  8
0
100
AcDbSpline
 62
7
  6
CONTINUOUS
 70
0
 71
3
 72
21
 73
17
 74
0
 42
0.0000001
 43
0.0000001
 44
0.0000000001
 40
0.0
 40
0.0
 40
0.0
 40
0.0
 40
0.1267105038
 40
0.2535145148
 40
0.3803758222
 40
0.5072307216
 40
0.6339592303
 40
0.6972064404
 40
0.7603031299
 40
0.8231418444
 40
0.8854945345
 40
0.916325985
 40
0.9466962914
 40
0.976011115
 40
0.9895542734
 40
1.0
 40
1.0
 40
1.0
 40
1.0
 10
-37.2076046561
 20
48.8641044509
 30
0.0
 10
-37.2638835428
 20
48.8136626747
 30
0.0
 10
-37.3758540351
 20
48.7120376329
 30
0.0
 10
-37.5418870076
 20
48.5574184272
 30
0.0
 10
-37.7058957499
 20
48.4005272145
 30
0.0
 10
-37.8675854951
 20
48.241309951
 30
0.0
 10
-38.0000575314
 20
48.1065301926
 30
0.0
 10
-38.1041941329
 20
47.9972556487
 30
0.0
 10
-38.1810289653
 20
47.9146236524
 30
0.0
 10
-38.2561900468
 20
47.831142148
 30
0.0
 10
-38.3169372456
 20
47.7607230407
 30
0.0
 10
-38.3633529288
 20
47.70327645
 30
0.0
 10
-38.3960072399
 20
47.660853591
 30
0.0
 10
-38.4204370767
 20
47.6228500398
 30
0.0
 10
-38.4348707766
 20
47.5974770121
 30
0.0
 10
-38.4372609268
 20
47.5780042443
 30
0.0
 10
-38.431847628
 20
47.5749199782
 30
0.0
  0
SPLINE
  5
3AA
100
AcDbEntity
  8
0
100
AcDbSpline
 62
7
  6
CONTINUOUS
 70
0
 71
3
 72
10
 73
6
 74
0
 42
0.0000001
 43
0.0000001
 44
0.0000000001
 40
0.0
 40
0.0
 40
0.0
 40
0.0
 40
0.2347676917
 40
0.4798491446
 40
1.0
 40
1.0
 40
1.0
 40
1.0
 10
-30.1870098251
 20
53.2306608562
 30
0.0
 10
-30.2472201872
 20
53.2842267384
 30
0.0
 10
-30.3911989188
 20
53.3718492175
 30
0.0
 10
-30.7293799189
 20
53.4508371418
 30
0.0
 10
-31.0018191302
 20
53.398786334
 30
0.0
 10
-31.1659596731
 20
53.3285081865
 30
0.0
  0
SPLINE
  5
3AB
100
AcDbEntity
  8
0
100
AcDbSpline
 62
7
  6
CONTINUOUS
 70
0
 71
3
 72
10
 73
6
 74
0
 42
0.0000001
 43
0.0000001
 44
0.0000000001
 40
0.0
 40
0.0
 40
0.0
 40
0.0
 40
0.3087438755
 40
0.6935034208
 40
1.0
 40
1.0
 40
1.0
 40
1.0
 10
-31.1658708874
 20
53.3284578209
 30
0.0
 10
-31.1788754893
 20
53.3359752684
 30
0.0
 10
-31.2091534145
 20
53.350902033
 30
0.0
 10
-31.2569058361
 20
53.3644033116
 30
0.0
 10
-31.2919021543
 20
53.3566321181
 30
0.0
 10
-31.3044802825
 20
53.3486227742
 30
0.0
  0
SPLINE
  5
3AC
100
AcDbEntity
  8
0
100
AcDbSpline
 62
7
  6
CONTINUOUS
 70
0
 71
3
 72
9
 73
5
 74
0
 42
0.0000001
 43
0.0000001
 44
0.0000000001
 40
0.0
 40
0.0
 40
0.0
 40
0.0
 40
0.2464035835
 40
1.0
 40
1.0
 40
1.0
 40
1.0
 10
-31.252463907
 20
53.2733413474
 30
0.0
 10
-31.7652900492
 20
52.9461672316
 30
0.0
 10
-33.8178008032
 20
51.5736948788
 30
0.0
 10
-35.7534723777
 20
50.0278058903
 30
0.0
 10
-37.1367658569
 20
48.7837466538
 30
0.0
  0
SPLINE
  5
3AD
100
AcDbEntity
  8
0
100
AcDbSpline
 62
7
  6
CONTINUOUS
 70
0
 71
3
 72
9
 73
5
 74
0
 42
0.0000001
 43
0.0000001
 44
0.0000000001
 40
0.0
 40
0.0
 40
0.0
 40
0.0
 40
0.2391202485
 40
1.0
 40
1.0
 40
1.0
 40
1.0
 10
-31.1658214844
 20
53.3286490549
 30
0.0
 10
-31.1340716622
 20
52.8742302
 30
0.0
 10
-30.9092850963
 20
50.9804628014
 30
0.0
 10
-30.3414807048
 20
49.1353248635
 30
0.0
 10
-29.7755855196
 20
47.8008710173
 30
0.0
  0
SPLINE
  5
3AE
100
AcDbEntity
  8
0
100
AcDbSpline
 62
7
  6
CONTINUOUS
 70
0
 71
3
 72
16
 73
12
 74
0
 42
0.0000001
 43
0.0000001
 44
0.0000000001
 40
0.0
 40
0.0
 40
0.0
 40
0.0
 40
0.2424159704
 40
0.4876700448
 40
0.6120782068
 40
0.7385212729
 40
0.8029364098
 40
0.8685926726
 40
0.9360162264
 40
0.9701001154
 40
1.0
 40
1.0
 40
1.0
 40
1.0
 10
-45.6857153122
 20
17.2363650725
 30
0.0
 10
-45.6634747242
 20
17.2018592208
 30
0.0
 10
-45.6183266484
 20
17.1327045204
 30
0.0
 10
-45.5604376354
 20
17.0467161656
 30
0.0
 10
-45.5124450187
 20
16.9777560596
 30
0.0
 10
-45.4813196783
 20
16.9343777415
 30
0.0
 10
-45.455384254
 20
16.8995201099
 30
0.0
 10
-45.4349203172
 20
16.8730877295
 30
0.0
 10
-45.4170053188
 20
16.8510827189
 30
0.0
 10
-45.4018392633
 20
16.8349112831
 30
0.0
 10
-45.3939317454
 20
16.8272495128
 30
0.0
 10
-45.3895386579
 20
16.8247317124
 30
0.0
  0
SPLINE
  5
3AF
100
AcDbEntity
  8
0
100
AcDbSpline
 62
7
  6
CONTINUOUS
 70
0
 71
3
 72
9
 73
5
 74
0
 42
0.0000001
 43
0.0000001
 44
0.0000000001
 40
0.0
 40
0.0
 40
0.0
 40
0.0
 40
0.2381792443
 40
1.0
 40
1.0
 40
1.0
 40
1.0
 10
-29.7756035257
 20
47.8008632297
 30
0.0
 10
-29.5322295116
 20
47.2269587514
 30
0.0
 10
-28.4036418805
 20
44.8628771702
 30
0.0
 10
-26.8879520087
 20
42.6940225163
 30
0.0
 10
-25.6013200887
 20
41.1708249099
 30
0.0
  0
SPLINE
  5
3B0
100
AcDbEntity
  8
0
100
AcDbSpline
 62
7
  6
CONTINUOUS
 70
0
 71
3
 72
12
 73
8
 74
0
 42
0.0000001
 43
0.0000001
 44
0.0000000001
 40
0.0
 40
0.0
 40
0.0
 40
0.0
 40
0.1350485257
 40
0.2407969314
 40
0.370672992
 40
0.6760980971
 40
1.0
 40
1.0
 40
1.0
 40
1.0
 10
-48.5920234061
 20
25.2433899855
 30
0.0
 10
-48.5791342752
 20
25.2550718723
 30
0.0
 10
-48.5418956451
 20
25.2531683759
 30
0.0
 10
-48.4987975347
 20
25.2363732762
 30
0.0
 10
-48.4365671435
 20
25.203321135
 30
0.0
 10
-48.3575838064
 20
25.1456801708
 30
0.0
 10
-48.2963965323
 20
25.0922849131
 30
0.0
 10
-48.266004998
 20
25.0637016784
 30
0.0
  0
SPLINE
  5
3B1
100
AcDbEntity
  8
0
100
AcDbSpline
 62
7
  6
CONTINUOUS
 70
0
 71
3
 72
9
 73
5
 74
0
 42
0.0000001
 43
0.0000001
 44
0.0000000001
 40
0.0
 40
0.0
 40
0.0
 40
0.0
 40
0.2439559049
 40
1.0
 40
1.0
 40
1.0
 40
1.0
 10
-37.0235464923
 20
10.4417997361
 30
0.0
 10
-37.6964421595
 20
10.7947519055
 30
0.0
 10
-40.4338322829
 20
12.2806761345
 30
0.0
 10
-43.0825665028
 20
13.9325164326
 30
0.0
 10
-45.0119976985
 20
15.282533255
 30
0.0
  0
SPLINE
  5
3B2
100
AcDbEntity
  8
0
100
AcDbSpline
 62
7
  6
CONTINUOUS
 70
0
 71
3
 72
9
 73
5
 74
0
 42
0.0000001
 43
0.0000001
 44
0.0000000001
 40
0.0
 40
0.0
 40
0.0
 40
0.0
 40
0.2437997488
 40
1.0
 40
1.0
 40
1.0
 40
1.0
 10
-37.0235464923
 20
10.4417997361
 30
0.0
 10
-37.6921096916
 20
10.8215558829
 30
0.0
 10
-40.3979363933
 20
12.4410673124
 30
0.0
 10
-42.9466004857
 20
14.3347080031
 30
0.0
 10
-44.7145730686
 20
15.9353187643
 30
0.0
  0
SPLINE
  5
3B3
100
AcDbEntity
  8
0
100
AcDbSpline
 62
7
  6
CONTINUOUS
 70
0
 71
3
 72
14
 73
10
 74
0
 42
0.0000001
 43
0.0000001
 44
0.0000000001
 40
0.0
 40
0.0
 40
0.0
 40
0.0
 40
0.3887595643
 40
0.5564995704
 40
0.6990107328
 40
0.8125009905
 40
0.896045937
 40
0.9537625313
 40
1.0
 40
1.0
 40
1.0
 40
1.0
 10
-44.7145730686
 20
15.9353187668
 30
0.0
 10
-44.7522616699
 20
15.9694397298
 30
0.0
 10
-44.807845008
 20
16.0166137503
 30
0.0
 10
-44.8822549633
 20
16.069828767
 30
0.0
 10
-44.9295645233
 20
16.0987385314
 30
0.0
 10
-44.969878626
 20
16.1178802483
 30
0.0
 10
-45.0019297938
 20
16.1269473447
 30
0.0
 10
-45.0277160999
 20
16.1261666147
 30
0.0
 10
-45.0385166092
 20
16.1156721831
 30
0.0
 10
-45.0410231726
 20
16.1101695246
 30
0.0
  0
SPLINE
  5
3B4
100
AcDbEntity
  8
0
100
AcDbSpline
 62
7
  6
CONTINUOUS
 70
0
 71
3
 72
9
 73
5
 74
0
 42
0.0000001
 43
0.0000001
 44
0.0000000001
 40
0.0
 40
0.0
 40
0.0
 40
0.0
 40
0.4898769586
 40
1.0
 40
1.0
 40
1.0
 40
1.0
 10
-45.3895386579
 20
16.8247317124
 30
0.0
 10
-43.2299955704
 20
15.5795207357
 30
0.0
 10
-38.6707228855
 20
13.2929712169
 30
0.0
 10
-33.8974770269
 20
11.5018577608
 30
0.0
 10
-31.4265253801
 20
10.7063457577
 30
0.0
  0
SPLINE
  5
3B5
100
AcDbEntity
  8
0
100
AcDbSpline
 62
7
  6
CONTINUOUS
 70
0
 71
3
 72
9
 73
5
 74
0
 42
0.0000001
 43
0.0000001
 44
0.0000000001
 40
0.0
 40
0.0
 40
0.0
 40
0.0
 40
0.5049394416
 40
1.0
 40
1.0
 40
1.0
 40
1.0
 10
-31.261027611
 20
10.6517758008
 30
0.0
 10
-30.9609646805
 20
10.154252554
 30
0.0
 10
-30.305669448
 20
9.2042664428
 30
0.0
 10
-29.5326794116
 20
8.346806621
 30
0.0
 10
-29.1235950507
 20
7.9504006701
 30
0.0
  0
SPLINE
  5
3B6
100
AcDbEntity
  8
0
100
AcDbSpline
 62
7
  6
CONTINUOUS
 70
0
 71
3
 72
9
 73
5
 74
0
 42
0.0000001
 43
0.0000001
 44
0.0000000001
 40
0.0
 40
0.0
 40
0.0
 40
0.0
 40
0.2410091977
 40
1.0
 40
1.0
 40
1.0
 40
1.0
 10
-29.634059567
 20
6.9530656163
 30
0.0
 10
-30.2465770008
 20
7.1901403695
 30
0.0
 10
-32.7714317962
 20
8.2158002079
 30
0.0
 10
-35.2250376103
 20
9.4202159423
 30
0.0
 10
-37.0235453722
 20
10.4418012601
 30
0.0
  0
SPLINE
  5
3B7
100
AcDbEntity
  8
0
100
AcDbSpline
 62
7
  6
CONTINUOUS
 70
0
 71
3
 72
10
 73
6
 74
0
 42
0.0000001
 43
0.0000001
 44
0.0000000001
 40
0.0
 40
0.0
 40
0.0
 40
0.0
 40
0.2937643214
 40
0.5644900813
 40
1.0
 40
1.0
 40
1.0
 40
1.0
 10
-45.0119978535
 20
15.2825334582
 30
0.0
 10
-45.054974402
 20
15.2056739523
 30
0.0
 10
-45.1247042727
 20
15.0497845359
 30
0.0
 10
-45.1981609838
 20
14.7603692803
 30
0.0
 10
-45.1897574649
 20
14.5336301046
 30
0.0
 10
-45.1341849192
 20
14.4155003993
 30
0.0
  0
SPLINE
  5
3B8
100
AcDbEntity
  8
0
100
AcDbSpline
 62
7
  6
CONTINUOUS
 70
0
 71
3
 72
9
 73
5
 74
0
 42
0.0000001
 43
0.0000001
 44
0.0000000001
 40
0.0
 40
0.0
 40
0.0
 40
0.0
 40
0.2616848324
 40
1.0
 40
1.0
 40
1.0
 40
1.0
 10
-45.1341849192
 20
14.4155003993
 30
0.0
 10
-45.1284626294
 20
14.4033366162
 30
0.0
 10
-45.1045361215
 20
14.3578815788
 30
0.0
 10
-45.0717372184
 20
14.3168618107
 30
0.0
 10
-45.0432723477
 20
14.2917981931
 30
0.0
  0
SPLINE
  5
3B9
100
AcDbEntity
  8
0
100
AcDbSpline
 62
7
  6
CONTINUOUS
 70
0
 71
3
 72
13
 73
9
 74
0
 42
0.0000001
 43
0.0000001
 44
0.0000000001
 40
0.0
 40
0.0
 40
0.0
 40
0.0
 40
0.0776288914
 40
0.1648173567
 40
0.26704014
 40
0.3863572405
 40
0.6716017449
 40
1.0
 40
1.0
 40
1.0
 40
1.0
 10
-37.0409866784
 20
9.8652703202
 30
0.0
 10
-37.0550033814
 20
9.8729373839
 30
0.0
 10
-37.0813621374
 20
9.895927696
 30
0.0
 10
-37.1074800557
 20
9.9452436807
 30
0.0
 10
-37.1217428212
 20
10.0076935634
 30
0.0
 10
-37.125389296
 20
10.1123683249
 30
0.0
 10
-37.0977490744
 20
10.2622210046
 30
0.0
 10
-37.0525004476
 20
10.3807289184
 30
0.0
 10
-37.0235464949
 20
10.4417997386
 30
0.0
  0
SPLINE
  5
3BA
100
AcDbEntity
  8
0
100
AcDbSpline
 62
7
  6
CONTINUOUS
 70
0
 71
3
 72
11
 73
7
 74
0
 42
0.0000001
 43
0.0000001
 44
0.0000000001
 40
0.0
 40
0.0
 40
0.0
 40
0.0
 40
0.2720465381
 40
0.5323651685
 40
0.774250792
 40
1.0
 40
1.0
 40
1.0
 40
1.0
 10
-29.7756035206
 20
47.800863222
 30
0.0
 10
-29.7119445369
 20
47.8284594076
 30
0.0
 10
-29.5786206634
 20
47.8645851342
 30
0.0
 10
-29.3780114888
 20
47.8564312465
 30
0.0
 10
-29.2019090114
 20
47.7853194177
 30
0.0
 10
-29.1155181047
 20
47.6966695772
 30
0.0
 10
-29.0859107903
 20
47.647290118
 30
0.0
  0
SPLINE
  5
3BB
100
AcDbEntity
  8
0
100
AcDbSpline
 62
7
  6
CONTINUOUS
 70
0
 71
3
 72
9
 73
5
 74
0
 42
0.0000001
 43
0.0000001
 44
0.0000000001
 40
0.0
 40
0.0
 40
0.0
 40
0.0
 40
0.5527619928
 40
1.0
 40
1.0
 40
1.0
 40
1.0
 10
-25.1364421132
 20
40.6324502691
 30
0.0
 10
-25.1225232053
 20
40.6420964118
 30
0.0
 10
-25.0924814035
 20
40.6551751436
 30
0.0
 10
-25.0593143451
 20
40.6430225035
 30
0.0
 10
-25.0506977101
 20
40.6323691796
 30
0.0
  0
SPLINE
  5
3BC
100
AcDbEntity
  8
0
100
AcDbSpline
 62
7
  6
CONTINUOUS
 70
0
 71
3
 72
11
 73
7
 74
0
 42
0.0000001
 43
0.0000001
 44
0.0000000001
 40
0.0
 40
0.0
 40
0.0
 40
0.0
 40
0.3069323749
 40
0.5707869181
 40
0.7954567279
 40
1.0
 40
1.0
 40
1.0
 40
1.0
 10
-37.4054449462
 20
9.9052881955
 30
0.0
 10
-37.4121719051
 20
9.8283377169
 30
0.0
 10
-37.4101002836
 20
9.6832752765
 30
0.0
 10
-37.3574381969
 20
9.4873910506
 30
0.0
 10
-37.256021938
 20
9.3399123437
 30
0.0
 10
-37.1577522386
 20
9.2847705516
 30
0.0
 10
-37.1081897825
 20
9.2708648517
 30
0.0
  0
SPLINE
  5
3BD
100
AcDbEntity
  8
0
100
AcDbSpline
 62
7
  6
CONTINUOUS
 70
0
 71
3
 72
9
 73
5
 74
0
 42
0.0000001
 43
0.0000001
 44
0.0000000001
 40
0.0
 40
0.0
 40
0.0
 40
0.0
 40
0.481081392
 40
1.0
 40
1.0
 40
1.0
 40
1.0
 10
-38.431847628
 20
47.5749199782
 30
0.0
 10
-36.2224381301
 20
46.297927315
 30
0.0
 10
-31.6951850688
 20
43.5297009617
 30
0.0
 10
-27.2839605715
 20
40.5813227615
 30
0.0
 10
-25.0217389161
 20
39.0131355753
 30
0.0
  0
SPLINE
  5
3BE
100
AcDbEntity
  8
0
100
AcDbSpline
 62
7
  6
CONTINUOUS
 70
0
 71
3
 72
9
 73
5
 74
0
 42
0.0000001
 43
0.0000001
 44
0.0000000001
 40
0.0
 40
0.0
 40
0.0
 40
0.0
 40
0.4960374091
 40
1.0
 40
1.0
 40
1.0
 40
1.0
 10
-24.8713717975
 20
38.9055537534
 30
0.0
 10
-26.0886336022
 20
37.7972516774
 30
0.0
 10
-28.3287426374
 20
35.319028897
 30
0.0
 10
-30.0840783875
 20
32.4788704803
 30
0.0
 10
-30.8320581489
 20
30.9829176022
 30
0.0
  0
SPLINE
  5
3BF
100
AcDbEntity
  8
0
100
AcDbSpline
 62
7
  6
CONTINUOUS
 70
0
 71
3
 72
12
 73
8
 74
0
 42
0.0000001
 43
0.0000001
 44
0.0000000001
 40
0.0
 40
0.0
 40
0.0
 40
0.0
 40
0.128056469
 40
0.2552896736
 40
0.5072636064
 40
0.7557014305
 40
1.0
 40
1.0
 40
1.0
 40
1.0
 10
-31.9440188637
 20
32.0550092655
 30
0.0
 10
-32.2318910566
 20
32.3461748655
 30
0.0
 10
-32.7975278451
 20
32.9349844448
 30
0.0
 10
-33.8729506726
 20
34.1496013552
 30
0.0
 10
-35.1054120507
 20
35.7371204941
 30
0.0
 10
-36.3880412736
 20
37.7471661768
 30
0.0
 10
-37.1064538983
 20
39.1525875417
 30
0.0
 10
-37.4273807393
 20
39.8647364324
 30
0.0
  0
SPLINE
  5
3C0
100
AcDbEntity
  8
0
100
AcDbSpline
 62
7
  6
CONTINUOUS
 70
0
 71
3
 72
9
 73
5
 74
0
 42
0.0000001
 43
0.0000001
 44
0.0000000001
 40
0.0
 40
0.0
 40
0.0
 40
0.0
 40
0.5093909829
 40
1.0
 40
1.0
 40
1.0
 40
1.0
 10
-37.4273798401
 20
39.8647349338
 30
0.0
 10
-37.9197209611
 20
40.9572589387
 30
0.0
 10
-38.7161359824
 20
43.1844623355
 30
0.0
 10
-39.0742371179
 20
45.5303219465
 30
0.0
 10
-39.1135064932
 20
46.6838050752
 30
0.0
  0
SPLINE
  5
3C1
100
AcDbEntity
  8
0
100
AcDbSpline
 62
7
  6
CONTINUOUS
 70
0
 71
3
 72
9
 73
5
 74
0
 42
0.0000001
 43
0.0000001
 44
0.0000000001
 40
0.0
 40
0.0
 40
0.0
 40
0.0
 40
0.4995034467
 40
1.0
 40
1.0
 40
1.0
 40
1.0
 10
-39.1135065034
 20
46.6838050777
 30
0.0
 10
-39.1147861224
 20
46.7213447334
 30
0.0
 10
-39.1354861978
 20
46.799302995
 30
0.0
 10
-39.2019192095
 20
46.8460375955
 30
0.0
 10
-39.2371693727
 20
46.859224892
 30
0.0
  0
SPLINE
  5
3C2
100
AcDbEntity
  8
0
100
AcDbSpline
 62
7
  6
CONTINUOUS
 70
0
 71
3
 72
10
 73
6
 74
0
 42
0.0000001
 43
0.0000001
 44
0.0000000001
 40
0.0
 40
0.0
 40
0.0
 40
0.0
 40
0.4976917238
 40
0.7483309496
 40
1.0
 40
1.0
 40
1.0
 40
1.0
 10
-31.0032137451
 20
31.1242332937
 30
0.0
 10
-31.1623998682
 20
31.2754276598
 30
0.0
 10
-31.3978954119
 20
31.506811068
 30
0.0
 10
-31.7103068572
 20
31.8182305087
 30
0.0
 10
-31.8666522265
 20
31.9752643221
 30
0.0
 10
-31.9439553993
 20
32.0549460474
 30
0.0
  0
SPLINE
  5
3C3
100
AcDbEntity
  8
0
100
AcDbSpline
 62
7
  6
CONTINUOUS
 70
0
 71
3
 72
9
 73
5
 74
0
 42
0.0000001
 43
0.0000001
 44
0.0000000001
 40
0.0
 40
0.0
 40
0.0
 40
0.0
 40
0.5221171065
 40
1.0
 40
1.0
 40
1.0
 40
1.0
 10
-16.1184857524
 20
45.080564746
 30
0.0
 10
-16.1079651232
 20
45.0821448876
 30
0.0
 10
-16.0866748178
 20
45.0810431829
 30
0.0
 10
-16.0688646984
 20
45.0685688771
 30
0.0
 10
-16.0629927417
 20
45.0608012828
 30
0.0
  0
SPLINE
  5
3C4
100
AcDbEntity
  8
0
100
AcDbSpline
 62
7
  6
CONTINUOUS
 70
0
 71
3
 72
10
 73
6
 74
0
 42
0.0000001
 43
0.0000001
 44
0.0000000001
 40
0.0
 40
0.0
 40
0.0
 40
0.0
 40
0.2046773949
 40
0.4404855584
 40
1.0
 40
1.0
 40
1.0
 40
1.0
 10
-11.0146905777
 20
48.0643475287
 30
0.0
 10
-10.7782037024
 20
47.8377087643
 30
0.0
 10
-10.2812593903
 20
47.337460603
 30
0.0
 10
-9.1849949381
 20
46.1714754394
 30
0.0
 10
-8.336603912
 20
45.2224571241
 30
0.0
 10
-7.7425389051
 20
44.5524934907
 30
0.0
  0
SPLINE
  5
3C5
100
AcDbEntity
  8
0
100
AcDbSpline
 62
7
  6
CONTINUOUS
 70
0
 71
3
 72
10
 73
6
 74
0
 42
0.0000001
 43
0.0000001
 44
0.0000000001
 40
0.0
 40
0.0
 40
0.0
 40
0.0
 40
0.5078760913
 40
0.7552718897
 40
1.0
 40
1.0
 40
1.0
 40
1.0
 10
-19.8744930333
 20
50.9064417734
 30
0.0
 10
-19.7753910522
 20
50.9043385238
 30
0.0
 10
-19.6239750888
 20
50.8610754227
 30
0.0
 10
-19.4757571887
 20
50.730693753
 30
0.0
 10
-19.4246501154
 20
50.647228751
 30
0.0
 10
-19.4062097738
 20
50.6031672999
 30
0.0
  0
SPLINE
  5
3C6
100
AcDbEntity
  8
0
100
AcDbSpline
 62
7
  6
CONTINUOUS
 70
0
 71
3
 72
9
 73
5
 74
0
 42
0.0000001
 43
0.0000001
 44
0.0000000001
 40
0.0
 40
0.0
 40
0.0
 40
0.0
 40
0.2570818805
 40
1.0
 40
1.0
 40
1.0
 40
1.0
 10
-20.9243778017
 20
54.3554146595
 30
0.0
 10
-20.9322851214
 20
54.3599878609
 30
0.0
 10
-20.9640478367
 20
54.3759155863
 30
0.0
 10
-21.0003022219
 20
54.38341184
 30
0.0
 10
-21.0266851308
 20
54.3825463299
 30
0.0
  0
SPLINE
  5
3C7
100
AcDbEntity
  8
0
100
AcDbSpline
 62
7
  6
CONTINUOUS
 70
0
 71
3
 72
11
 73
7
 74
0
 42
0.0000001
 43
0.0000001
 44
0.0000000001
 40
0.0
 40
0.0
 40
0.0
 40
0.0
 40
0.2546953477
 40
0.5018334497
 40
0.7479973318
 40
1.0
 40
1.0
 40
1.0
 40
1.0
 10
-20.1307803186
 20
53.5309903673
 30
0.0
 10
-20.1307279717
 20
53.6377216448
 30
0.0
 10
-20.1703794367
 20
53.8506315365
 30
0.0
 10
-20.3469739451
 20
54.1192496175
 30
0.0
 10
-20.6108787589
 20
54.2997736583
 30
0.0
 10
-20.8190893534
 20
54.3485655825
 30
0.0
 10
-20.9244666077
 20
54.3554655027
 30
0.0
  0
SPLINE
  5
3C8
100
AcDbEntity
  8
0
100
AcDbSpline
 62
7
  6
CONTINUOUS
 70
0
 71
3
 72
11
 73
7
 74
0
 42
0.0000001
 43
0.0000001
 44
0.0000000001
 40
0.0
 40
0.0
 40
0.0
 40
0.0
 40
0.2511168258
 40
0.5014964665
 40
0.7508732021
 40
1.0
 40
1.0
 40
1.0
 40
1.0
 10
-16.0424976087
 20
43.8769824541
 30
0.0
 10
-15.9813281603
 20
43.8958200949
 30
0.0
 10
-15.8599035517
 20
43.9357781582
 30
0.0
 10
-15.6768828027
 20
43.9917752319
 30
0.0
 10
-15.493392649
 20
44.0443625435
 30
0.0
 10
-15.3713110059
 20
44.0795736745
 30
0.0
 10
-15.3102127715
 20
44.0968622023
 30
0.0
  0
SPLINE
  5
3C9
100
AcDbEntity
  8
0
100
AcDbSpline
 62
7
  6
CONTINUOUS
 70
0
 71
3
 72
9
 73
5
 74
0
 42
0.0000001
 43
0.0000001
 44
0.0000000001
 40
0.0
 40
0.0
 40
0.0
 40
0.0
 40
0.4987250984
 40
1.0
 40
1.0
 40
1.0
 40
1.0
 10
-15.3102127918
 20
44.050927966
 30
0.0
 10
-15.4325376577
 20
44.024584135
 30
0.0
 10
-15.677079419
 20
43.968400473
 30
0.0
 10
-15.9208366252
 20
43.9088648237
 30
0.0
 10
-16.0424976087
 20
43.8769824541
 30
0.0
  0
SPLINE
  5
3CA
100
AcDbEntity
  8
0
100
AcDbSpline
 62
7
  6
CONTINUOUS
 70
0
 71
3
 72
11
 73
7
 74
0
 42
0.0000001
 43
0.0000001
 44
0.0000000001
 40
0.0
 40
0.0
 40
0.0
 40
0.0
 40
0.2097221079
 40
0.4464795066
 40
0.7101065031
 40
1.0
 40
1.0
 40
1.0
 40
1.0
 10
-20.924322544
 20
54.3554916393
 30
0.0
 10
-20.9027150002
 20
54.1032478817
 30
0.0
 10
-20.8197043916
 20
53.569241195
 30
0.0
 10
-20.6031604838
 20
52.7387726223
 30
0.0
 10
-20.2871002574
 20
51.8376926922
 30
0.0
 10
-20.0223370887
 20
51.2236139788
 30
0.0
 10
-19.8744709353
 20
50.9064413136
 30
0.0
  0
SPLINE
  5
3CB
100
AcDbEntity
  8
0
100
AcDbSpline
 62
7
  6
CONTINUOUS
 70
0
 71
3
 72
10
 73
6
 74
0
 42
0.0000001
 43
0.0000001
 44
0.0000000001
 40
0.0
 40
0.0
 40
0.0
 40
0.0
 40
0.2204347106
 40
0.4612891446
 40
1.0
 40
1.0
 40
1.0
 40
1.0
 10
-19.8744930359
 20
50.9064417785
 30
0.0
 10
-19.6781293468
 20
50.4852444954
 30
0.0
 10
-19.2334236728
 20
49.6193583785
 30
0.0
 10
-18.1555364382
 20
47.8065061089
 30
0.0
 10
-17.198419056
 20
46.4660857849
 30
0.0
 10
-16.5025217382
 20
45.5685507728
 30
0.0
  0
SPLINE
  5
3CC
100
AcDbEntity
  8
0
100
AcDbSpline
 62
7
  6
CONTINUOUS
 70
0
 71
3
 72
11
 73
7
 74
0
 42
0.0000001
 43
0.0000001
 44
0.0000000001
 40
0.0
 40
0.0
 40
0.0
 40
0.0
 40
0.2437314161
 40
0.4917595059
 40
0.7439224186
 40
1.0
 40
1.0
 40
1.0
 40
1.0
 10
46.7822768838
 20
6.0558799989
 30
0.0
 10
46.845810808
 20
5.6334760787
 30
0.0
 10
46.9459650629
 20
4.7767677972
 30
0.0
 10
47.0154239943
 20
3.4740479795
 30
0.0
 10
47.0053966433
 20
2.1479054629
 30
0.0
 10
46.9460562057
 20
1.2585692354
 30
0.0
 10
46.9034730727
 20
0.8118012821
 30
0.0
  0
SPLINE
  5
3CD
100
AcDbEntity
  8
0
100
AcDbSpline
 62
7
  6
CONTINUOUS
 70
0
 71
3
 72
9
 73
5
 74
0
 42
0.0000001
 43
0.0000001
 44
0.0000000001
 40
0.0
 40
0.0
 40
0.0
 40
0.0
 40
0.5068135119
 40
1.0
 40
1.0
 40
1.0
 40
1.0
 10
34.9025973386
 20
-19.0020144369
 30
0.0
 10
34.3059058294
 20
-19.3851802669
 30
0.0
 10
33.0925727951
 20
-20.0868092574
 30
0.0
 10
31.815320074
 20
-20.6648583095
 30
0.0
 10
31.1723799832
 20
-20.9154717809
 30
0.0
  0
SPLINE
  5
3CE
100
AcDbEntity
  8
0
100
AcDbSpline
 62
7
  6
CONTINUOUS
 70
0
 71
3
 72
11
 73
7
 74
0
 42
0.0000001
 43
0.0000001
 44
0.0000000001
 40
0.0
 40
0.0
 40
0.0
 40
0.0
 40
0.2566169353
 40
0.5076396295
 40
0.7547738152
 40
1.0
 40
1.0
 40
1.0
 40
1.0
 10
37.0864671466
 20
-1.5089219098
 30
0.0
 10
37.1219267887
 20
-1.5730462951
 30
0.0
 10
37.1999973158
 20
-1.695734066
 30
0.0
 10
37.3390336138
 20
-1.8612387007
 30
0.0
 10
37.4969516902
 20
-2.00406889
 30
0.0
 10
37.61389423
 20
-2.0830997556
 30
0.0
 10
37.6745324399
 20
-2.1181174884
 30
0.0
  0
SPLINE
  5
3CF
100
AcDbEntity
  8
0
100
AcDbSpline
 62
7
  6
CONTINUOUS
 70
0
 71
3
 72
16
 73
12
 74
0
 42
0.0000001
 43
0.0000001
 44
0.0000000001
 40
0.0
 40
0.0
 40
0.0
 40
0.0
 40
0.1371439294
 40
0.2706793473
 40
0.4004622919
 40
0.4639711856
 40
0.526560848
 40
0.6490582232
 40
0.7684271269
 40
0.8852301224
 40
1.0
 40
1.0
 40
1.0
 40
1.0
 10
40.0978058788
 20
-3.4350040241
 30
0.0
 10
39.9781190443
 20
-3.5107603851
 30
0.0
 10
39.7348761272
 20
-3.6495684718
 30
0.0
 10
39.3569197533
 20
-3.8191311857
 30
0.0
 10
39.0357001748
 20
-3.9251365719
 30
0.0
 10
38.7786669499
 20
-3.9871353912
 30
0.0
 10
38.5259790403
 20
-4.0333124312
 30
0.0
 10
38.2121449867
 20
-4.0630884474
 30
0.0
 10
37.8408661281
 20
-4.0529382137
 30
0.0
 10
37.4818277707
 20
-3.996467783
 30
0.0
 10
37.2517353556
 20
-3.9280849937
 30
0.0
 10
37.1407145083
 20
-3.8865426562
 30
0.0
  0
SPLINE
  5
3D0
100
AcDbEntity
  8
0
100
AcDbSpline
 62
7
  6
CONTINUOUS
 70
0
 71
3
 72
11
 73
7
 74
0
 42
0.0000001
 43
0.0000001
 44
0.0000000001
 40
0.0
 40
0.0
 40
0.0
 40
0.0
 40
0.2468672115
 40
0.4949634837
 40
0.7455930476
 40
1.0
 40
1.0
 40
1.0
 40
1.0
 10
36.7575408398
 20
-3.7057816385
 30
0.0
 10
36.6740087234
 20
-3.6575429872
 30
0.0
 10
36.5118652758
 20
-3.5512231287
 30
0.0
 10
36.2874882137
 20
-3.3644746681
 30
0.0
 10
36.0831973498
 20
-3.1518632035
 30
0.0
 10
35.9624572941
 20
-2.9952173446
 30
0.0
 10
35.9059426243
 20
-2.9134389306
 30
0.0
  0
SPLINE
  5
3D1
100
AcDbEntity
  8
0
100
AcDbSpline
 62
7
  6
CONTINUOUS
 70
0
 71
3
 72
21
 73
17
 74
0
 42
0.0000001
 43
0.0000001
 44
0.0000000001
 40
0.0
 40
0.0
 40
0.0
 40
0.0
 40
0.0601890153
 40
0.1215893531
 40
0.184017944
 40
0.2473231408
 40
0.3757115902
 40
0.440447477
 40
0.5052239853
 40
0.5698168958
 40
0.6340062844
 40
0.7602665691
 40
0.8220441307
 40
0.8525183904
 40
0.8826934644
 40
1.0
 40
1.0
 40
1.0
 40
1.0
 10
69.2754606248
 20
-7.7170481143
 30
0.0
 10
69.2754606248
 20
-8.4064901593
 30
0.0
 10
69.2181075238
 20
-9.7998252594
 30
0.0
 10
68.9676268919
 20
-11.8946706633
 30
0.0
 10
68.5534258915
 20
-13.9999617664
 30
0.0
 10
67.7844943941
 20
-16.8094472396
 30
0.0
 10
66.7070617712
 20
-19.5543799438
 30
0.0
 10
65.3496972622
 20
-22.1801280247
 30
0.0
 10
64.194679905
 20
-24.0821415334
 30
0.0
 10
62.9150225151
 20
-25.8950180981
 30
0.0
 10
61.067779443
 20
-28.1604442429
 30
0.0
 10
59.0085305719
 20
-30.2041037802
 30
0.0
 10
57.0445154677
 20
-31.7589540487
 30
0.0
 10
55.8960151485
 20
-32.5644467862
 30
0.0
 10
54.1826521668
 20
-33.6685693785
 30
0.0
 10
52.6698551391
 20
-34.4449289104
 30
0.0
 10
51.4243052426
 20
-34.9490505488
 30
0.0
  0
SPLINE
  5
3D2
100
AcDbEntity
  8
0
100
AcDbSpline
 62
7
  6
CONTINUOUS
 70
0
 71
3
 72
23
 73
19
 74
0
 42
0.0000001
 43
0.0000001
 44
0.0000000001
 40
0.0
 40
0.0
 40
0.0
 40
0.0
 40
0.0641625972
 40
0.1302162715
 40
0.1976281385
 40
0.2659466371
 40
0.402994356
 40
0.537165698
 40
0.602066924
 40
0.6337939354
 40
0.6649863213
 40
0.7256476246
 40
0.7840293549
 40
0.8402502481
 40
0.8946257554
 40
0.9476454334
 40
0.9738688869
 40
1.0
 40
1.0
 40
1.0
 40
1.0
 10
51.4243052426
 20
-36.2210530086
 30
0.0
 10
51.4243052426
 20
-36.3505491682
 30
0.0
 10
51.4075706862
 20
-36.6135863739
 30
0.0
 10
51.3360671132
 20
-37.0068025268
 30
0.0
 10
51.2187340433
 20
-37.3976852578
 30
0.0
 10
51.0044407686
 20
-37.9057405409
 30
0.0
 10
50.6396761819
 20
-38.492145045
 30
0.0
 10
50.1644140311
 20
-38.9843625518
 30
0.0
 10
49.7872277039
 20
-39.2594777192
 30
0.0
 10
49.5655583149
 20
-39.3917575283
 30
0.0
 10
49.3436817533
 20
-39.505974361
 30
0.0
 10
49.0610034617
 20
-39.618368025
 30
0.0
 10
48.7160763537
 20
-39.702168942
 30
0.0
 10
48.3748827054
 20
-39.7316687534
 30
0.0
 10
48.0441112105
 20
-39.7062541535
 30
0.0
 10
47.7813814184
 20
-39.6388435035
 30
0.0
 10
47.5841995141
 20
-39.5585496305
 30
0.0
 10
47.4902203244
 20
-39.5098517472
 30
0.0
 10
47.4445545864
 20
-39.4834688993
 30
0.0
  0
SPLINE
  5
3D3
100
AcDbEntity
  8
0
100
AcDbSpline
 62
7
  6
CONTINUOUS
 70
0
 71
3
 72
15
 73
11
 74
0
 42
0.0000001
 43
0.0000001
 44
0.0000000001
 40
0.0
 40
0.0
 40
0.0
 40
0.0
 40
0.1308010224
 40
0.2594995429
 40
0.3862038521
 40
0.5111557942
 40
0.6346701303
 40
0.7570804269
 40
0.878733199
 40
1.0
 40
1.0
 40
1.0
 40
1.0
 10
46.4656509714
 20
-36.2782649567
 30
0.0
 10
46.0260382616
 20
-36.3360216255
 30
0.0
 10
45.149335476
 20
-36.4188922472
 30
0.0
 10
43.8391666791
 20
-36.4432781065
 30
0.0
 10
42.5507682119
 20
-36.3661199245
 30
0.0
 10
41.2901407891
 20
-36.1878353839
 30
0.0
 10
40.0627297412
 20
-35.9090875746
 30
0.0
 10
38.8738141968
 20
-35.5311384398
 30
0.0
 10
37.7287553617
 20
-35.0556359186
 30
0.0
 10
36.9974069438
 20
-34.6745609098
 30
0.0
 10
36.6414394083
 20
-34.4689720881
 30
0.0
  0
SPLINE
  5
3D4
100
AcDbEntity
  8
0
100
AcDbSpline
 62
7
  6
CONTINUOUS
 70
0
 71
3
 72
22
 73
18
 74
0
 42
0.0000001
 43
0.0000001
 44
0.0000000001
 40
0.0
 40
0.0
 40
0.0
 40
0.0
 40
0.1377812641
 40
0.2051824593
 40
0.2715180404
 40
0.3367977475
 40
0.4010437243
 40
0.4642863738
 40
0.5265656884
 40
0.5879378577
 40
0.6484779221
 40
0.7082733635
 40
0.7674259563
 40
0.8260482904
 40
0.8842628457
 40
0.9422013337
 40
1.0
 40
1.0
 40
1.0
 40
1.0
 10
30.9698563674
 20
-17.9852294143
 30
0.0
 10
30.9698563674
 20
-18.7410449537
 30
0.0
 10
31.0273589855
 20
-19.8679600862
 30
0.0
 10
31.2258967444
 20
-21.3446754919
 30
0.0
 10
31.4325176875
 20
-22.4173276088
 30
0.0
 10
31.697047448
 20
-23.4593133074
 30
0.0
 10
32.0188009498
 20
-24.4673260691
 30
0.0
 10
32.3966127214
 20
-25.4380816384
 30
0.0
 10
32.8292669869
 20
-26.3683510123
 30
0.0
 10
33.3154883411
 20
-27.2549410323
 30
0.0
 10
33.8535018854
 20
-28.0949926415
 30
0.0
 10
34.441686899
 20
-28.8856283831
 30
0.0
 10
35.0780602618
 20
-29.6242217497
 30
0.0
 10
35.7604486989
 20
-30.3083612577
 30
0.0
 10
36.4867468018
 20
-30.9356012427
 30
0.0
 10
37.2543321449
 20
-31.5039419425
 30
0.0
 10
37.7922820749
 20
-31.8424822687
 30
0.0
 10
38.066844335
 20
-32.0010494217
 30
0.0
  0
SPLINE
  5
3D5
100
AcDbEntity
  8
0
100
AcDbSpline
 62
7
  6
CONTINUOUS
 70
0
 71
3
 72
36
 73
32
 74
0
 42
0.0000001
 43
0.0000001
 44
0.0000000001
 40
0.0
 40
0.0
 40
0.0
 40
0.0
 40
0.0261127098
 40
0.0523167876
 40
0.0787012551
 40
0.1053494133
 40
0.1187997659
 40
0.1323439145
 40
0.159738964
 40
0.1875974444
 40
0.215963886
 40
0.274302576
 40
0.3349208399
 40
0.3660895988
 40
0.3977938539
 40
0.430002067
 40
0.4626755751
 40
0.4957676226
 40
0.5292262311
 40
0.5629933226
 40
0.5970072048
 40
0.6312024161
 40
0.6655112578
 40
0.7341677682
 40
0.8024454032
 40
0.8362856852
 40
0.8698316497
 40
0.9030257439
 40
0.9358209359
 40
0.9681673478
 40
1.0
 40
1.0
 40
1.0
 40
1.0
 10
59.823111879
 20
5.6673950507
 30
0.0
 10
59.4919943243
 20
5.8586244219
 30
0.0
 10
58.8106687807
 20
6.2116114147
 30
0.0
 10
57.7420257364
 20
6.6470329746
 30
0.0
 10
56.6309548572
 20
6.9866217087
 30
0.0
 10
55.6771187359
 20
7.1879927309
 30
0.0
 10
54.8994593133
 20
7.300105669
 30
0.0
 10
54.1068340355
 20
7.3800224637
 30
0.0
 10
53.0988638416
 20
7.417488594
 30
0.0
 10
51.8743092625
 20
7.3628510578
 30
0.0
 10
50.2079988207
 20
7.1564397079
 30
0.0
 10
48.1034722424
 20
6.645570369
 30
0.0
 10
46.0543854363
 20
5.830489642
 30
0.0
 10
44.4456333147
 20
5.0026219886
 30
0.0
 10
43.2493616992
 20
4.2884709633
 30
0.0
 10
42.0806072777
 20
3.4905589396
 30
0.0
 10
40.9449817461
 20
2.6125593265
 30
0.0
 10
39.8478088274
 20
1.6588614727
 30
0.0
 10
38.7944923615
 20
0.6338765834
 30
0.0
 10
37.7898990723
 20
-0.4573005967
 30
0.0
 10
36.8390330466
 20
-1.6095876038
 30
0.0
 10
35.9462412508
 20
-2.8173454982
 30
0.0
 10
34.83920363
 20
-4.4940995538
 30
0.0
 10
33.6245808167
 20
-6.6934414925
 30
0.0
 10
32.6510223701
 20
-9.0023137835
 30
0.0
 10
32.0295559371
 20
-10.8900121011
 30
0.0
 10
31.6459505499
 20
-12.3127931417
 30
0.0
 10
31.345525418
 20
-13.7397782735
 30
0.0
 10
31.1296199011
 20
-15.1642671086
 30
0.0
 10
30.9994900648
 20
-16.5790882235
 30
0.0
 10
30.9698563674
 20
-17.5191008469
 30
0.0
 10
30.9698563674
 20
-17.9852294143
 30
0.0
  0
SPLINE
  5
3D6
100
AcDbEntity
  8
0
100
AcDbSpline
 62
7
  6
CONTINUOUS
 70
0
 71
3
 72
15
 73
11
 74
0
 42
0.0000001
 43
0.0000001
 44
0.0000000001
 40
0.0
 40
0.0
 40
0.0
 40
0.0
 40
0.1297088452
 40
0.2576901359
 40
0.384052265
 40
0.5089934489
 40
0.6327779032
 40
0.7556846276
 40
0.8779947307
 40
1.0
 40
1.0
 40
1.0
 40
1.0
 10
24.1880156893
 20
-27.7376399933
 30
0.0
 10
23.7485330021
 20
-27.7650680791
 30
0.0
 10
22.8732994542
 20
-27.7904828568
 30
0.0
 10
21.5695316731
 20
-27.738645498
 30
0.0
 10
20.2886805035
 20
-27.5964584392
 30
0.0
 10
19.0354977775
 20
-27.3643753474
 30
0.0
 10
17.8142124248
 20
-27.0432656848
 30
0.0
 10
16.6289539673
 20
-26.634073285
 30
0.0
 10
15.4838059451
 20
-26.1384312791
 30
0.0
 10
14.749325664
 20
-25.7510559299
 30
0.0
 10
14.3906689544
 20
-25.5438965499
 30
0.0
  0
SPLINE
  5
3D7
100
AcDbEntity
  8
0
100
AcDbSpline
 62
7
  6
CONTINUOUS
 70
0
 71
3
 72
15
 73
11
 74
0
 42
0.0000001
 43
0.0000001
 44
0.0000000001
 40
0.0
 40
0.0
 40
0.0
 40
0.0
 40
0.1332155955
 40
0.2634748059
 40
0.3909813982
 40
0.5160211651
 40
0.6389612604
 40
0.7602571091
 40
0.8804173811
 40
1.0
 40
1.0
 40
1.0
 40
1.0
 10
28.4136700346
 20
-29.7457831982
 30
0.0
 10
28.2912106071
 20
-29.7791770405
 30
0.0
 10
28.0461081332
 20
-29.835155722
 30
0.0
 10
27.6765136272
 20
-29.8856417882
 30
0.0
 10
27.3115614895
 20
-29.9014023764
 30
0.0
 10
26.9537167823
 20
-29.8823773243
 30
0.0
 10
26.6054050583
 20
-29.8284489866
 30
0.0
 10
26.2689568894
 20
-29.7401398795
 30
0.0
 10
25.9467205412
 20
-29.6179358491
 30
0.0
 10
25.7425984247
 20
-29.514234403
 30
0.0
 10
25.6439313805
 20
-29.4572485251
 30
0.0
  0
SPLINE
  5
3D8
100
AcDbEntity
  8
0
100
AcDbSpline
 62
7
  6
CONTINUOUS
 70
0
 71
3
 72
21
 73
17
 74
0
 42
0.0000001
 43
0.0000001
 44
0.0000000001
 40
0.0
 40
0.0
 40
0.0
 40
0.0
 40
0.1185869841
 40
0.1490060041
 40
0.1796930572
 40
0.2418016221
 40
0.368358574
 40
0.4325217303
 40
0.4969921322
 40
0.5615665873
 40
0.6260396729
 40
0.7538063089
 40
0.8167865811
 40
0.8789081803
 40
0.9400346261
 40
1.0
 40
1.0
 40
1.0
 40
1.0
 10
22.7804624161
 20
23.7002278699
 30
0.0
 10
21.4371386003
 20
23.0638831863
 30
0.0
 10
19.8121290462
 20
22.1218845191
 30
0.0
 10
17.9757488657
 20
20.8178919811
 30
0.0
 10
16.749858681
 20
19.8777796322
 30
0.0
 10
14.6609800444
 20
18.0870264395
 30
0.0
 10
12.4776524629
 20
15.7737094228
 30
0.0
 10
10.524591538
 20
13.2383881231
 30
0.0
 10
9.1758773139
 20
11.2247044771
 30
0.0
 10
7.9608366172
 20
9.123183811
 30
0.0
 10
6.5356344968
 20
6.2349690845
 30
0.0
 10
5.4063780635
 20
3.2294848821
 30
0.0
 10
4.6015640749
 20
0.1617762271
 30
0.0
 10
4.1684171434
 20
-2.1341050638
 30
0.0
 10
3.9066189091
 20
-4.4175493818
 30
0.0
 10
3.8467604461
 20
-5.935949426
 30
0.0
 10
3.8467604461
 20
-6.6875826167
 30
0.0
  0
SPLINE
  5
3D9
100
AcDbEntity
  8
0
100
AcDbSpline
 62
7
  6
CONTINUOUS
 70
0
 71
3
 72
23
 73
19
 74
0
 42
0.0000001
 43
0.0000001
 44
0.0000000001
 40
0.0
 40
0.0
 40
0.0
 40
0.0
 40
0.0693992013
 40
0.1378293423
 40
0.2052220563
 40
0.2715518674
 40
0.3368289903
 40
0.4010738115
 40
0.464313992
 40
0.5265892574
 40
0.5879586289
 40
0.6484957577
 40
0.708288609
 40
0.7674383981
 40
0.8260573625
 40
0.8842691077
 40
0.9422042333
 40
1.0
 40
1.0
 40
1.0
 40
1.0
 10
3.8467604461
 20
-6.6875826167
 30
0.0
 10
3.8467604461
 20
-7.1776999982
 30
0.0
 10
3.8718273251
 20
-8.1512938803
 30
0.0
 10
3.9860243814
 20
-9.5967989115
 30
0.0
 10
4.1764043588
 20
-11.0124638882
 30
0.0
 10
4.4423610253
 20
-12.393248038
 30
0.0
 10
4.7829263894
 20
-13.734665853
 30
0.0
 10
5.197138614
 20
-15.0323547994
 30
0.0
 10
5.6834632294
 20
-16.2820997954
 30
0.0
 10
6.2405367304
 20
-17.4796423
 30
0.0
 10
6.8664078815
 20
-18.6210291231
 30
0.0
 10
7.559055371
 20
-19.7024625356
 30
0.0
 10
8.3162808238
 20
-20.720275105
 30
0.0
 10
9.1354445271
 20
-21.671176462
 30
0.0
 10
10.014020235
 20
-22.5518051071
 30
0.0
 10
10.9489436128
 20
-23.3593645461
 30
0.0
 10
11.9371183649
 20
-24.0909976625
 30
0.0
 10
12.629667531
 20
-24.5267811927
 30
0.0
 10
12.9831156836
 20
-24.7309321179
 30
0.0
  0
SPLINE
  5
3DA
100
AcDbEntity
  8
0
100
AcDbSpline
 62
7
  6
CONTINUOUS
 70
0
 71
3
 72
11
 73
7
 74
0
 42
0.0000001
 43
0.0000001
 44
0.0000000001
 40
0.0
 40
0.0
 40
0.0
 40
0.0
 40
0.2540797247
 40
0.5046764226
 40
0.7529186682
 40
1.0
 40
1.0
 40
1.0
 40
1.0
 10
23.2217649345
 20
-27.7233137659
 30
0.0
 10
23.2904145229
 20
-27.8178813822
 30
0.0
 10
23.4362460372
 20
-27.9990679261
 30
0.0
 10
23.680399143
 20
-28.2454935572
 30
0.0
 10
23.9466494614
 20
-28.4628326374
 30
0.0
 10
24.137972429
 20
-28.5874491623
 30
0.0
 10
24.2363781123
 20
-28.6442840829
 30
0.0
  0
SPLINE
  5
3DB
100
AcDbEntity
  8
0
100
AcDbSpline
 62
7
  6
CONTINUOUS
 70
0
 71
3
 72
15
 73
11
 74
0
 42
0.0000001
 43
0.0000001
 44
0.0000000001
 40
0.0
 40
0.0
 40
0.0
 40
0.0
 40
0.1216460979
 40
0.2436345765
 40
0.3662993646
 40
0.4899591796
 40
0.6149093547
 40
0.7414156274
 40
0.8697133791
 40
1.0
 40
1.0
 40
1.0
 40
1.0
 10
42.3987256687
 20
22.948793099
 30
0.0
 10
42.7804223043
 20
22.7283403624
 30
0.0
 10
43.527187618
 20
22.2553097489
 30
0.0
 10
44.587787699
 20
21.4549835314
 30
0.0
 10
45.5857784386
 20
20.5667126079
 30
0.0
 10
46.5170240945
 20
19.5938630906
 30
0.0
 10
47.378048377
 20
18.5403682887
 30
0.0
 10
48.1655282219
 20
17.4103147119
 30
0.0
 10
48.8763342628
 20
16.2081556913
 30
0.0
 10
49.2941064423
 20
15.3684218158
 30
0.0
 10
49.4895389851
 20
14.9386786494
 30
0.0
  0
SPLINE
  5
3DC
100
AcDbEntity
  8
0
100
AcDbSpline
 62
7
  6
CONTINUOUS
 70
0
 71
3
 72
23
 73
19
 74
0
 42
0.0000001
 43
0.0000001
 44
0.0000000001
 40
0.0
 40
0.0
 40
0.0
 40
0.0
 40
0.058450057
 40
0.1170157872
 40
0.1758104984
 40
0.2349443857
 40
0.2945214144
 40
0.3546386393
 40
0.415385554
 40
0.4768414807
 40
0.5390767596
 40
0.6021480763
 40
0.6661000016
 40
0.7309699927
 40
0.7967897531
 40
0.8635812596
 40
0.9313319796
 40
1.0
 40
1.0
 40
1.0
 40
1.0
 10
40.9911829643
 20
23.7617758749
 30
0.0
 10
40.6715282976
 20
23.9464106415
 30
0.0
 10
40.0186766213
 20
24.2941941979
 30
0.0
 10
39.0045515375
 20
24.7483285144
 30
0.0
 10
37.9578381115
 20
25.1340707376
 30
0.0
 10
36.8814036553
 20
25.4501731839
 30
0.0
 10
35.7782303092
 20
25.6959608863
 30
0.0
 10
34.6513092788
 20
25.8707129498
 30
0.0
 10
33.5037111092
 20
25.9739176558
 30
0.0
 10
32.3385577271
 20
26.0054607449
 30
0.0
 10
31.1590142543
 20
25.96509777
 30
0.0
 10
29.968304492
 20
25.8530936607
 30
0.0
 10
28.7696588984
 20
25.6697951348
 30
0.0
 10
27.5663059533
 20
25.4155904768
 30
0.0
 10
26.3613725948
 20
25.0912809476
 30
0.0
 10
25.1581477902
 20
24.6975990756
 30
0.0
 10
23.9601363077
 20
24.2358403039
 30
0.0
 10
23.1723906721
 20
23.8858878415
 30
0.0
 10
22.7804624161
 20
23.7002278699
 30
0.0
  0
SPLINE
  5
3DD
100
AcDbEntity
  8
0
100
AcDbSpline
 62
7
  6
CONTINUOUS
 70
0
 71
3
 72
22
 73
18
 74
0
 42
0.0000001
 43
0.0000001
 44
0.0000000001
 40
0.0
 40
0.0
 40
0.0
 40
0.0
 40
0.0577985429
 40
0.1157366677
 40
0.1739511078
 40
0.2325729103
 40
0.2917255785
 40
0.351521081
 40
0.4120610789
 40
0.4734332102
 40
0.5357118902
 40
0.5989551979
 40
0.6632026427
 40
0.7284828359
 40
0.7948169047
 40
0.8622149221
 40
1.0
 40
1.0
 40
1.0
 40
1.0
 10
61.2485146518
 20
8.1353140062
 30
0.0
 10
61.5590490167
 20
7.9559618046
 30
0.0
 10
62.1675182824
 20
7.5731145692
 30
0.0
 10
63.0356679786
 20
6.9302802771
 30
0.0
 10
63.8571025613
 20
6.2208254095
 30
0.0
 10
64.6289631918
 20
5.4470988746
 30
0.0
 10
65.3486664667
 20
4.6116769056
 30
0.0
 10
66.0139576202
 20
3.7174674799
 30
0.0
 10
66.6224692302
 20
2.7673374549
 30
0.0
 10
67.1723725018
 20
1.7645639689
 30
0.0
 10
67.6617709997
 20
0.7124208789
 30
0.0
 10
68.0890554563
 20
-0.3855615962
 30
0.0
 10
68.4529791658
 20
-1.5256718204
 30
0.0
 10
68.7521781661
 20
-2.7041955771
 30
0.0
 10
68.98585841
 20
-3.9173782054
 30
0.0
 10
69.2104470667
 20
-5.587584357
 30
0.0
 10
69.2754606248
 20
-6.8621708629
 30
0.0
 10
69.2754606248
 20
-7.7170481143
 30
0.0
  0
SPLINE
  5
3DE
100
AcDbEntity
  8
0
100
AcDbSpline
 62
7
  6
CONTINUOUS
 70
0
 71
3
 72
36
 73
32
 74
0
 42
0.0000001
 43
0.0000001
 44
0.0000000001
 40
0.0
 40
0.0
 40
0.0
 40
0.0
 40
0.0261127098
 40
0.0523167876
 40
0.0787012551
 40
0.1053494133
 40
0.1187997659
 40
0.1323439145
 40
0.159738964
 40
0.1875974444
 40
0.215963886
 40
0.274302576
 40
0.3349208399
 40
0.3660895988
 40
0.3977938539
 40
0.430002067
 40
0.4626755751
 40
0.4957676226
 40
0.5292262311
 40
0.5629933226
 40
0.5970072048
 40
0.6312024161
 40
0.6655112578
 40
0.7341677682
 40
0.8024454032
 40
0.8362856852
 40
0.8698316497
 40
0.9030257439
 40
0.9358209359
 40
0.9681673478
 40
1.0
 40
1.0
 40
1.0
 40
1.0
 10
38.066844335
 20
-32.0010494217
 30
0.0
 10
38.3979618897
 20
-32.1922787954
 30
0.0
 10
39.0792874333
 20
-32.5452657857
 30
0.0
 10
40.1479304776
 20
-32.9806873481
 30
0.0
 10
41.2590013568
 20
-33.3202760822
 30
0.0
 10
42.2128374781
 20
-33.5216471019
 30
0.0
 10
42.9904969007
 20
-33.63376004
 30
0.0
 10
43.7831221785
 20
-33.7136768347
 30
0.0
 10
44.7910923724
 20
-33.7511429675
 30
0.0
 10
46.0156469514
 20
-33.6965054288
 30
0.0
 10
47.6819573933
 20
-33.4900940789
 30
0.0
 10
49.7864839716
 20
-32.9792247399
 30
0.0
 10
51.8355707777
 20
-32.164144013
 30
0.0
 10
53.4443228992
 20
-31.3362763621
 30
0.0
 10
54.6405945148
 20
-30.6221253368
 30
0.0
 10
55.8093489363
 20
-29.8242133131
 30
0.0
 10
56.9449744679
 20
-28.9462136975
 30
0.0
 10
58.0421473866
 20
-27.9925158437
 30
0.0
 10
59.0954638525
 20
-26.9675309544
 30
0.0
 10
60.1000571417
 20
-25.8763537743
 30
0.0
 10
61.0509231673
 20
-24.7240667697
 30
0.0
 10
61.9437149632
 20
-23.5163088728
 30
0.0
 10
63.050752584
 20
-21.8395548197
 30
0.0
 10
64.2653753973
 20
-19.6402128811
 30
0.0
 10
65.2389338439
 20
-17.3313405875
 30
0.0
 10
65.8604002768
 20
-15.4436422699
 30
0.0
 10
66.2440056641
 20
-14.0208612293
 30
0.0
 10
66.544430796
 20
-12.5938760975
 30
0.0
 10
66.7603363129
 20
-11.1693872624
 30
0.0
 10
66.8904661491
 20
-9.7545661474
 30
0.0
 10
66.9200998465
 20
-8.814553524
 30
0.0
 10
66.9200998465
 20
-8.3484249592
 30
0.0
  0
SPLINE
  5
3DF
100
AcDbEntity
  8
0
100
AcDbSpline
 62
7
  6
CONTINUOUS
 70
0
 71
3
 72
21
 73
17
 74
0
 42
0.0000001
 43
0.0000001
 44
0.0000000001
 40
0.0
 40
0.0
 40
0.0
 40
0.0
 40
0.0596607944
 40
0.120413527
 40
0.1821068374
 40
0.2446234435
 40
0.3714903478
 40
0.4355739637
 40
0.4998416352
 40
0.6281589082
 40
0.6919177869
 40
0.7551641804
 40
0.8177393023
 40
0.8487334479
 40
0.8795065238
 40
1.0
 40
1.0
 40
1.0
 40
1.0
 10
5.2543137194
 20
-7.5005470487
 30
0.0
 10
5.2543137194
 20
-6.8002841871
 30
0.0
 10
5.306269808
 20
-5.3864693515
 30
0.0
 10
5.5337985935
 20
-3.2595751141
 30
0.0
 10
5.9106711087
 20
-1.1198039758
 30
0.0
 10
6.61173754
 20
1.7442403088
 30
0.0
 10
7.5974452333
 20
4.5612296786
 30
0.0
 10
8.8448119613
 20
7.2864063974
 30
0.0
 10
10.265534464
 20
9.944732333
 30
0.0
 10
11.9261434212
 20
12.4646716746
 30
0.0
 10
13.8015723703
 20
14.8040478696
 30
0.0
 10
15.3007721939
 20
16.4504860372
 30
0.0
 10
16.6255843575
 20
17.7302154742
 30
0.0
 10
17.7242841388
 20
18.6913348601
 30
0.0
 10
19.380314111
 20
20.0455331296
 30
0.0
 10
20.8501375315
 20
21.0558172787
 30
0.0
 10
22.0713852947
 20
21.7690799365
 30
0.0
  0
SPLINE
  5
3E0
100
AcDbEntity
  8
0
100
AcDbSpline
 62
7
  6
CONTINUOUS
 70
0
 71
3
 72
20
 73
16
 74
0
 42
0.0000001
 43
0.0000001
 44
0.0000000001
 40
0.0
 40
0.0
 40
0.0
 40
0.0
 40
0.1371056856
 40
0.2704588319
 40
0.3357209697
 40
0.4000287111
 40
0.5258109677
 40
0.5874061551
 40
0.6481859589
 40
0.7082129804
 40
0.767561654
 40
0.8263170934
 40
0.8845725619
 40
0.9424306905
 40
1.0
 40
1.0
 40
1.0
 40
1.0
 10
22.0713852947
 20
21.7690799365
 30
0.0
 10
22.8467986461
 20
22.2219555966
 30
0.0
 10
24.4193028569
 20
23.0443370557
 30
0.0
 10
26.463605286
 20
23.8650753254
 30
0.0
 10
28.108556243
 20
24.3771778597
 30
0.0
 10
29.730749882
 20
24.7865265355
 30
0.0
 10
31.3615348348
 20
25.0555905186
 30
0.0
 10
32.9832563361
 20
25.1749092894
 30
0.0
 10
34.1786146972
 20
25.1896135043
 30
0.0
 10
35.3578264078
 20
25.1299460544
 30
0.0
 10
36.5176174588
 20
24.9960017427
 30
0.0
 10
37.6547215931
 20
24.788310535
 30
0.0
 10
38.7659191954
 20
24.5072390728
 30
0.0
 10
39.8480073182
 20
24.1536826018
 30
0.0
 10
40.549431285
 20
23.8697594613
 30
0.0
 10
40.8937982924
 20
23.7162043252
 30
0.0
  0
SPLINE
  5
3E1
100
AcDbEntity
  8
0
100
AcDbSpline
 62
7
  6
CONTINUOUS
 70
0
 71
3
 72
22
 73
18
 74
0
 42
0.0000001
 43
0.0000001
 44
0.0000000001
 40
0.0
 40
0.0
 40
0.0
 40
0.0
 40
0.1377812641
 40
0.2051824593
 40
0.2715180404
 40
0.3367977475
 40
0.4010437243
 40
0.4642863738
 40
0.5265656884
 40
0.5879378577
 40
0.6484779221
 40
0.7082733635
 40
0.7674259563
 40
0.8260482904
 40
0.8842628457
 40
0.9422013337
 40
1.0
 40
1.0
 40
1.0
 40
1.0
 10
66.9200998465
 20
-8.3484249592
 30
0.0
 10
66.9200998465
 20
-7.5926094173
 30
0.0
 10
66.8625972285
 20
-6.4656942848
 30
0.0
 10
66.6640594696
 20
-4.988978879
 30
0.0
 10
66.4574385265
 20
-3.9163267622
 30
0.0
 10
66.192908766
 20
-2.8743410636
 30
0.0
 10
65.8711552642
 20
-1.8663283019
 30
0.0
 10
65.4933434925
 20
-0.8955727326
 30
0.0
 10
65.060689227
 20
0.0346966413
 30
0.0
 10
64.5744678728
 20
0.9212866588
 30
0.0
 10
64.0364543286
 20
1.7613382705
 30
0.0
 10
63.448269315
 20
2.5519740121
 30
0.0
 10
62.8118959522
 20
3.2905673787
 30
0.0
 10
62.1295075151
 20
3.9747068842
 30
0.0
 10
61.4032094122
 20
4.6019468718
 30
0.0
 10
60.6356240691
 20
5.1702875715
 30
0.0
 10
60.0976741391
 20
5.5088278977
 30
0.0
 10
59.823111879
 20
5.6673950507
 30
0.0
  0
SPLINE
  5
3E2
100
AcDbEntity
  8
0
100
AcDbSpline
 62
7
  6
CONTINUOUS
 70
0
 71
3
 72
38
 73
34
 74
0
 42
0.0000001
 43
0.0000001
 44
0.0000000001
 40
0.0
 40
0.0
 40
0.0
 40
0.0
 40
0.0318312367
 40
0.0641739387
 40
0.0969645518
 40
0.130155292
 40
0.1636987367
 40
0.1975358452
 40
0.2316020039
 40
0.2658310729
 40
0.3001553686
 40
0.3345054995
 40
0.3688112687
 40
0.4030035408
 40
0.4707537517
 40
0.5042092108
 40
0.5372984681
 40
0.5699688595
 40
0.6021743586
 40
0.6338756361
 40
0.6650417398
 40
0.6956503891
 40
0.7256892653
 40
0.7551565493
 40
0.7840616062
 40
0.8124256104
 40
0.8402814721
 40
0.8676742151
 40
0.8946600201
 40
0.9213059227
 40
0.9476879359
 40
0.9738897108
 40
1.0
 40
1.0
 40
1.0
 40
1.0
 10
28.6144955892
 20
-18.6166062567
 30
0.0
 10
28.6144955892
 20
-18.0893742479
 30
0.0
 10
28.6480007318
 20
-17.0261754929
 30
0.0
 10
28.7951881438
 20
-15.4259780634
 30
0.0
 10
29.039391191
 20
-13.8148809834
 30
0.0
 10
29.3791702549
 20
-12.200923683
 30
0.0
 10
29.8130379369
 20
-10.591741354
 30
0.0
 10
30.3387002993
 20
-8.9949153884
 30
0.0
 10
30.9538593484
 20
-7.4182054557
 30
0.0
 10
31.6553661775
 20
-5.8691231411
 30
0.0
 10
32.4400176283
 20
-4.3551528772
 30
0.0
 10
33.3038790578
 20
-2.8834925871
 30
0.0
 10
34.2430083606
 20
-1.461207832
 30
0.0
 10
35.5848385065
 20
0.3542127485
 30
0.0
 10
37.0608627452
 20
2.0496420678
 30
0.0
 10
38.655741778
 20
3.6014611689
 30
0.0
 10
39.8966659154
 20
4.6802227299
 30
0.0
 10
41.1811272987
 20
5.673212019
 30
0.0
 10
42.5030163186
 20
6.5757301403
 30
0.0
 10
43.8560046261
 20
7.3834099601
 30
0.0
 10
45.2336282564
 20
8.0923444503
 30
0.0
 10
46.6292863236
 20
8.699132434
 30
0.0
 10
48.0363234435
 20
9.2007685961
 30
0.0
 10
49.4479817809
 20
9.5948730987
 30
0.0
 10
50.8575246794
 20
9.8793919176
 30
0.0
 10
52.2581649439
 20
10.0530151111
 30
0.0
 10
53.643182565
 20
10.1146777157
 30
0.0
 10
55.0058875384
 20
10.0641763283
 30
0.0
 10
56.339673456
 20
9.9014720487
 30
0.0
 10
57.638072876
 20
9.6274986418
 30
0.0
 10
58.8947291028
 20
9.2432669846
 30
0.0
 10
60.103441044
 20
8.7509194806
 30
0.0
 10
60.8740152382
 20
8.351609855
 30
0.0
 10
61.2485146518
 20
8.1353140062
 30
0.0
  0
SPLINE
  5
3E3
100
AcDbEntity
  8
0
100
AcDbSpline
 62
7
  6
CONTINUOUS
 70
0
 71
3
 72
22
 73
18
 74
0
 42
0.0000001
 43
0.0000001
 44
0.0000000001
 40
0.0
 40
0.0
 40
0.0
 40
0.0
 40
0.1377849396
 40
0.205182619
 40
0.2715164083
 40
0.3367964243
 40
0.401043763
 40
0.464286954
 40
0.526565508
 40
0.5879376106
 40
0.6484776467
 40
0.7082732879
 40
0.7674261542
 40
0.8260481844
 40
0.8842628853
 40
0.9422012488
 40
1.0
 40
1.0
 40
1.0
 40
1.0
 10
8.0642178049
 20
-6.7473255503
 30
0.0
 10
8.0642178049
 20
-7.602201966
 30
0.0
 10
8.1292300473
 20
-8.8767856449
 30
0.0
 10
8.3538190088
 20
-10.5469870543
 30
0.0
 10
8.5874969031
 20
-11.7601651284
 30
0.0
 10
8.8866949179
 20
-12.938685578
 30
0.0
 10
9.2506163364
 20
-14.0787938871
 30
0.0
 10
9.6778970922
 20
-15.17677559
 30
0.0
 10
10.1672962099
 20
-16.2289165337
 30
0.0
 10
10.7171954479
 20
-17.2316913964
 30
0.0
 10
11.3257075227
 20
-18.1818223536
 30
0.0
 10
11.9909990065
 20
-19.0760343345
 30
0.0
 10
12.7107018266
 20
-19.9114614775
 30
0.0
 10
13.4825669987
 20
-20.685189544
 30
0.0
 10
14.304002958
 20
-21.3946496922
 30
0.0
 10
15.1721566548
 20
-22.0374861688
 30
0.0
 10
15.7806283284
 20
-22.4203347351
 30
0.0
 10
16.0911636814
 20
-22.5996878282
 30
0.0
  0
SPLINE
  5
3E4
100
AcDbEntity
  8
0
100
AcDbSpline
 62
7
  6
CONTINUOUS
 70
0
 71
3
 72
14
 73
10
 74
0
 42
0.0000001
 43
0.0000001
 44
0.0000000001
 40
0.0
 40
0.0
 40
0.0
 40
0.0
 40
0.1212308601
 40
0.2428382637
 40
0.365213467
 40
0.4887382315
 40
0.6137707936
 40
0.7405988086
 40
1.0
 40
1.0
 40
1.0
 40
1.0
 10
25.6439313805
 20
-29.4572485251
 30
0.0
 10
25.5636577234
 20
-29.4108858822
 30
0.0
 10
25.4068345522
 20
-29.3109316574
 30
0.0
 10
25.1850849906
 20
-29.1406268495
 30
0.0
 10
24.9776107878
 20
-28.9505649969
 30
0.0
 10
24.785277172
 20
-28.7416520467
 30
0.0
 10
24.608956308
 20
-28.5147051066
 30
0.0
 10
24.3948668987
 20
-28.187231568
 30
0.0
 10
24.2629816608
 20
-27.9212816656
 30
0.0
 10
24.1880156893
 20
-27.7376399933
 30
0.0
  0
SPLINE
  5
3E5
100
AcDbEntity
  8
0
100
AcDbSpline
 62
7
  6
CONTINUOUS
 70
0
 71
3
 72
21
 73
17
 74
0
 42
0.0000001
 43
0.0000001
 44
0.0000000001
 40
0.0
 40
0.0
 40
0.0
 40
0.0
 40
0.0576010489
 40
0.1155022807
 40
0.1738075868
 40
0.2326150151
 40
0.2920136086
 40
0.3520846476
 40
0.4128994141
 40
0.4745184994
 40
0.5369927439
 40
0.6003581521
 40
0.729811108
 40
0.8630552044
 40
0.9310961332
 40
1.0
 40
1.0
 40
1.0
 40
1.0
 10
12.8219073167
 20
-24.5120729214
 30
0.0
 10
12.5244899664
 20
-24.2907835901
 30
0.0
 10
11.9430874487
 20
-23.8265109804
 30
0.0
 10
11.1174786199
 20
-23.0705939476
 30
0.0
 10
10.3387322805
 20
-22.2556548511
 30
0.0
 10
9.6090756728
 20
-21.3839299042
 30
0.0
 10
8.9303290191
 20
-20.457902884
 30
0.0
 10
8.3044594885
 20
-19.4800051039
 30
0.0
 10
7.7330866308
 20
-18.452945883
 30
0.0
 10
7.217685975
 20
-17.3795417407
 30
0.0
 10
6.7597892251
 20
-16.2626156104
 30
0.0
 10
6.2235929772
 20
-14.7087643442
 30
0.0
 10
5.7057020952
 20
-12.6706802492
 30
0.0
 10
5.3985557779
 20
-10.5605241494
 30
0.0
 10
5.27485442
 20
-8.8255250185
 30
0.0
 10
5.2543137194
 20
-7.9440001851
 30
0.0
 10
5.2543137194
 20
-7.5005470487
 30
0.0
  0
SPLINE
  5
3E6
100
AcDbEntity
  8
0
100
AcDbSpline
 62
7
  6
CONTINUOUS
 70
0
 71
3
 72
38
 73
34
 74
0
 42
0.0000001
 43
0.0000001
 44
0.0000000001
 40
0.0
 40
0.0
 40
0.0
 40
0.0
 40
0.0261103052
 40
0.052312075
 40
0.0786940651
 40
0.1053399452
 40
0.1323257259
 40
0.1597184587
 40
0.1875743088
 40
0.2159383089
 40
0.2448433495
 40
0.274310616
 40
0.3043494584
 40
0.3349580777
 40
0.3661241444
 40
0.3978254007
 40
0.43003088
 40
0.4627012607
 40
0.4957904951
 40
0.5292459123
 40
0.5969959427
 40
0.6311880928
 40
0.6654937523
 40
0.6998438086
 40
0.734168075
 40
0.7683971854
 40
0.8024634351
 40
0.8363006571
 40
0.8698442043
 40
0.9030350887
 40
0.9358258947
 40
0.9681687344
 40
1.0
 40
1.0
 40
1.0
 40
1.0
 10
40.6982369691
 20
20.0045948726
 30
0.0
 10
40.3237374945
 20
20.2208911431
 30
0.0
 10
39.5531632318
 20
20.6202011369
 30
0.0
 10
38.3444511102
 20
21.1125475335
 30
0.0
 10
37.0877960416
 20
21.496780161
 30
0.0
 10
35.7893974853
 20
21.7707519245
 30
0.0
 10
34.4556127309
 20
21.9334579491
 30
0.0
 10
33.0929084663
 20
21.9839576398
 30
0.0
 10
31.7078911855
 20
21.9222972704
 30
0.0
 10
30.3072516525
 20
21.7486724766
 30
0.0
 10
28.8977089369
 20
21.4641560124
 30
0.0
 10
27.4860520981
 20
21.0700503084
 30
0.0
 10
26.0790154481
 20
20.5684168793
 30
0.0
 10
24.6833595145
 20
19.9616281843
 30
0.0
 10
23.3057359604
 20
19.2526967676
 30
0.0
 10
21.9527495096
 20
18.4450163636
 30
0.0
 10
20.6308596414
 20
17.5425010338
 30
0.0
 10
19.3463996754
 20
16.5495113434
 30
0.0
 10
18.1054748725
 20
15.4707525154
 30
0.0
 10
16.5105989868
 20
13.9189359238
 30
0.0
 10
15.0345777555
 20
12.2235118496
 30
0.0
 10
13.6927482293
 20
10.4080992345
 30
0.0
 10
12.7536223377
 20
8.9858183478
 30
0.0
 10
11.8897587873
 20
7.5141634222
 30
0.0
 10
11.1051078776
 20
6.0001940397
 30
0.0
 10
10.4035966644
 20
4.4511118597
 30
0.0
 10
9.7884357382
 20
2.8743982644
 30
0.0
 10
9.2627690832
 20
1.2775683973
 30
0.0
 10
8.8288981298
 20
-0.331619258
 30
0.0
 10
8.4891164395
 20
-1.9455834444
 30
0.0
 10
8.2449116269
 20
-3.5566882257
 30
0.0
 10
8.0977236231
 20
-5.1568915684
 30
0.0
 10
8.0642178049
 20
-6.2200930615
 30
0.0
 10
8.0642178049
 20
-6.7473255503
 30
0.0
  0
SPLINE
  5
3E7
100
AcDbEntity
  8
0
100
AcDbSpline
 62
7
  6
CONTINUOUS
 70
0
 71
3
 72
22
 73
18
 74
0
 42
0.0000001
 43
0.0000001
 44
0.0000000001
 40
0.0
 40
0.0
 40
0.0
 40
0.0
 40
0.0577983312
 40
0.1157365187
 40
0.1739510114
 40
0.2325729215
 40
0.2917255285
 40
0.3515210176
 40
0.4120612534
 40
0.4734335887
 40
0.5357124829
 40
0.5989554941
 40
0.6632023087
 40
0.7284821357
 40
0.7948165343
 40
0.8622156077
 40
1.0
 40
1.0
 40
1.0
 40
1.0
 10
36.6414394083
 20
-34.4689720881
 30
0.0
 10
36.3309048427
 20
-34.2896230488
 30
0.0
 10
35.7224419575
 20
-33.9067666796
 30
0.0
 10
34.8543007601
 20
-33.263924201
 30
0.0
 10
34.032849703
 20
-32.5544859857
 30
0.0
 10
33.2610068626
 20
-31.7807410231
 30
0.0
 10
32.541290522
 20
-30.9453312182
 30
0.0
 10
31.8760025104
 20
-30.0511176345
 30
0.0
 10
31.2674959271
 20
-29.1009822272
 30
0.0
 10
30.7175790589
 20
-28.0982116318
 30
0.0
 10
30.2281937487
 20
-27.0460617879
 30
0.0
 10
29.8009017
 20
-25.9480877354
 30
0.0
 10
29.4369795043
 20
-24.8079854462
 30
0.0
 10
29.1377831279
 20
-23.6294657915
 30
0.0
 10
28.904096755
 20
-22.4162781011
 30
0.0
 10
28.6795174582
 20
-20.7460667501
 30
0.0
 10
28.6144955892
 20
-19.4714790351
 30
0.0
 10
28.6144955892
 20
-18.6166062567
 30
0.0
  0
SPLINE
  5
3E8
100
AcDbEntity
  8
0
100
AcDbSpline
 62
7
  6
CONTINUOUS
 70
0
 71
3
 72
15
 73
11
 74
0
 42
0.0000001
 43
0.0000001
 44
0.0000000001
 40
0.0
 40
0.0
 40
0.0
 40
0.0
 40
0.1157062763
 40
0.2325187843
 40
0.3514571074
 40
0.473345307
 40
0.5988428415
 40
0.7284216635
 40
0.8622589469
 40
1.0
 40
1.0
 40
1.0
 40
1.0
 10
47.4445545864
 20
-39.4834688993
 30
0.0
 10
47.3687863178
 20
-39.4396946612
 30
0.0
 10
47.2229733608
 20
-39.3399962018
 30
0.0
 10
47.0278844596
 20
-39.1581003527
 30
0.0
 10
46.8585323548
 20
-38.946012278
 30
0.0
 10
46.7170293663
 20
-38.7068452989
 30
0.0
 10
46.6053233057
 20
-38.4437047177
 30
0.0
 10
46.524647681
 20
-38.1601150233
 30
0.0
 10
46.4762064443
 20
-37.8600010871
 30
0.0
 10
46.4656509714
 20
-37.654435867
 30
0.0
 10
46.4656509714
 20
-37.5502674165
 30
0.0
  0
SPLINE
  5
3E9
100
AcDbEntity
  8
0
100
AcDbSpline
 62
7
  6
CONTINUOUS
 70
0
 71
3
 72
11
 73
7
 74
0
 42
0.0000001
 43
0.0000001
 44
0.0000000001
 40
0.0
 40
0.0
 40
0.0
 40
0.0
 40
0.2589234309
 40
0.5131850404
 40
0.7608146121
 40
1.0
 40
1.0
 40
1.0
 40
1.0
 10
6.0066409803
 20
32.4020939612
 30
0.0
 10
5.7550068506
 20
33.1317864261
 30
0.0
 10
5.2168727122
 20
34.5648158207
 30
0.0
 10
4.3014059884
 20
36.6411885971
 30
0.0
 10
3.2924833733
 20
38.6079543562
 30
0.0
 10
2.5504609889
 20
39.8565320216
 30
0.0
 10
2.1653277917
 20
40.4565926376
 30
0.0
  0
SPLINE
  5
3EA
100
AcDbEntity
  8
0
100
AcDbSpline
 62
7
  6
CONTINUOUS
 70
0
 71
3
 72
15
 73
11
 74
0
 42
0.0000001
 43
0.0000001
 44
0.0000000001
 40
0.0
 40
0.0
 40
0.0
 40
0.0
 40
0.1306484361
 40
0.2607298691
 40
0.3896317108
 40
0.5168572032
 40
0.6419474556
 40
0.7644659791
 40
0.8839776496
 40
1.0
 40
1.0
 40
1.0
 40
1.0
 10
12.1575975201
 20
31.3777490655
 30
0.0
 10
11.9935813914
 20
31.9677819723
 30
0.0
 10
11.6437779127
 20
33.1391698175
 30
0.0
 10
11.0546422406
 20
34.8683656124
 30
0.0
 10
10.4044938914
 20
36.5584212645
 30
0.0
 10
9.6971731471
 20
38.1999249487
 30
0.0
 10
8.9363092053
 20
39.7842026615
 30
0.0
 10
8.1260062818
 20
41.3029619634
 30
0.0
 10
7.2706085793
 20
42.747596943
 30
0.0
 10
6.6640274506
 20
43.6706981194
 30
0.0
 10
6.353919224
 20
44.1174663623
 30
0.0
  0
SPLINE
  5
3EB
100
AcDbEntity
  8
0
100
AcDbSpline
 62
7
  6
CONTINUOUS
 70
0
 71
3
 72
9
 73
5
 74
0
 42
0.0000001
 43
0.0000001
 44
0.0000000001
 40
0.0
 40
0.0
 40
0.0
 40
0.0
 40
0.4937547114
 40
1.0
 40
1.0
 40
1.0
 40
1.0
 10
-12.2722931577
 20
43.2838075572
 30
0.0
 10
-12.8827474486
 20
43.1201694821
 30
0.0
 10
-14.1031795214
 20
42.7268872283
 30
0.0
 10
-15.2814921609
 20
42.2219307096
 30
0.0
 10
-15.8653085574
 20
41.9407637662
 30
0.0
  0
SPLINE
  5
3EC
100
AcDbEntity
  8
0
100
AcDbSpline
 62
7
  6
CONTINUOUS
 70
0
 71
3
 72
33
 73
29
 74
0
 42
0.0000001
 43
0.0000001
 44
0.0000000001
 40
0.0
 40
0.0
 40
0.0
 40
0.0
 40
0.0629344768
 40
0.0951760672
 40
0.1278710689
 40
0.1609701816
 40
0.1944179436
 40
0.2281543279
 40
0.2621139092
 40
0.3303994878
 40
0.3987290448
 40
0.4665279616
 40
0.5000704278
 40
0.5332814988
 40
0.5661046314
 40
0.5984886748
 40
0.6303909923
 40
0.6617761932
 40
0.7228688219
 40
0.7817239721
 40
0.8103618088
 40
0.8384982866
 40
0.8661775834
 40
0.8934553966
 40
0.9203979731
 40
0.9470804822
 40
0.9735852935
 40
1.0
 40
1.0
 40
1.0
 40
1.0
 10
-15.8653085574
 20
41.9407637662
 30
0.0
 10
-16.7759943154
 20
41.5021759998
 30
0.0
 10
-18.109662725
 20
40.743630636
 30
0.0
 10
-19.7930051267
 20
39.5657534871
 30
0.0
 10
-21.0267196722
 20
38.5856947842
 30
0.0
 10
-22.2143745004
 20
37.5213101871
 30
0.0
 10
-23.3503434451
 20
36.3782337661
 30
0.0
 10
-24.4286944939
 20
35.1620922588
 30
0.0
 10
-25.784823171
 20
33.4489522536
 30
0.0
 10
-27.3047189145
 20
31.1623336747
 30
0.0
 10
-28.8164345373
 20
28.2409933045
 30
0.0
 10
-29.7979372479
 20
25.6921274269
 30
0.0
 10
-30.4010831815
 20
23.6159284983
 30
0.0
 10
-30.7582906815
 20
22.056058918
 30
0.0
 10
-31.0202274474
 20
20.4962663785
 30
0.0
 10
-31.1851933176
 20
18.944364801
 30
0.0
 10
-31.2525057789
 20
17.4081664612
 30
0.0
 10
-31.2115010019
 20
15.4097854643
 30
0.0
 10
-30.9213914551
 20
12.9885281529
 30
0.0
 10
-30.2988501119
 20
10.6746566669
 30
0.0
 10
-29.6085414621
 20
8.9487449498
 30
0.0
 10
-29.0042476338
 20
7.7326120531
 30
0.0
 10
-28.3114196494
 20
6.5900893395
 30
0.0
 10
-27.5337192515
 20
5.5271040943
 30
0.0
 10
-26.6747367404
 20
4.5497900673
 30
0.0
 10
-25.7392012709
 20
3.6633116878
 30
0.0
 10
-24.7319337756
 20
2.8730447162
 30
0.0
 10
-24.0156694093
 20
2.4127162388
 30
0.0
 10
-23.6483446652
 20
2.2004440395
 30
0.0
  0
SPLINE
  5
3ED
100
AcDbEntity
  8
0
100
AcDbSpline
 62
7
  6
CONTINUOUS
 70
0
 71
3
 72
15
 73
11
 74
0
 42
0.0000001
 43
0.0000001
 44
0.0000000001
 40
0.0
 40
0.0
 40
0.0
 40
0.0
 40
0.1200548058
 40
0.2406343926
 40
0.3622437625
 40
0.4853461051
 40
0.6103499175
 40
0.7376336214
 40
0.8674901436
 40
1.0
 40
1.0
 40
1.0
 40
1.0
 10
-0.6373231943
 20
42.0312142889
 30
0.0
 10
-1.0534089661
 20
42.2716648545
 30
0.0
 10
-1.9139704759
 20
42.7091957143
 30
0.0
 10
-3.2714375933
 20
43.2262411902
 30
0.0
 10
-4.6875634784
 20
43.6010691274
 30
0.0
 10
-6.1519639201
 20
43.8316874164
 30
0.0
 10
-7.6546043743
 20
43.9166793089
 30
0.0
 10
-9.1853768322
 20
43.8561434077
 30
0.0
 10
-10.7335585593
 20
43.6506896733
 30
0.0
 10
-11.7599586249
 20
43.4211436985
 30
0.0
 10
-12.2722931577
 20
43.2838075572
 30
0.0
  0
SPLINE
  5
3EE
100
AcDbEntity
  8
0
100
AcDbSpline
 62
7
  6
CONTINUOUS
 70
0
 71
3
 72
42
 73
38
 74
0
 42
0.0000001
 43
0.0000001
 44
0.0000000001
 40
0.0
 40
0.0
 40
0.0
 40
0.0
 40
0.0308942422
 40
0.0619078694
 40
0.0930378689
 40
0.1242961597
 40
0.1556907822
 40
0.1872200287
 40
0.2188743533
 40
0.2506403201
 40
0.2824999112
 40
0.3144292195
 40
0.346400006
 40
0.3783825368
 40
0.4103464345
 40
0.442262315
 40
0.47410268
 40
0.5058444709
 40
0.5374706128
 40
0.5689690962
 40
0.6003329608
 40
0.6315621175
 40
0.6626628954
 40
0.6936463994
 40
0.7245232738
 40
0.7553091472
 40
0.786019909
 40
0.8166722444
 40
0.8319835195
 40
0.8472854869
 40
0.8625791376
 40
0.8778654649
 40
0.8931461008
 40
0.9084224468
 40
0.9389554655
 40
0.9694767335
 40
1.0
 40
1.0
 40
1.0
 40
1.0
 10
19.9841622784
 20
27.8598061446
 30
0.0
 10
19.3413881588
 20
27.6875044699
 30
0.0
 10
18.0663678107
 20
27.2916005881
 30
0.0
 10
16.201415945
 20
26.5531384887
 30
0.0
 10
14.3892531177
 20
25.6750012305
 30
0.0
 10
12.6381785376
 20
24.6643385224
 30
0.0
 10
10.9555926749
 20
23.5280341173
 30
0.0
 10
9.3484157344
 20
22.2735601797
 30
0.0
 10
7.8235555151
 20
20.9082801518
 30
0.0
 10
6.3873770895
 20
19.4400950085
 30
0.0
 10
5.0461359442
 20
17.8769336949
 30
0.0
 10
3.8056975818
 20
16.2271453917
 30
0.0
 10
2.6718282494
 20
14.4992231097
 30
0.0
 10
1.6499503642
 20
12.7019475323
 30
0.0
 10
0.7451704136
 20
10.8442748595
 30
0.0
 10
-0.0376665679
 20
8.935307062
 30
0.0
 10
-0.6941742084
 20
6.9843116397
 30
0.0
 10
-1.2201296284
 20
5.0005648223
 30
0.0
 10
-1.6118653981
 20
2.9934662076
 30
0.0
 10
-1.8658394215
 20
0.972476404
 30
0.0
 10
-1.9791111279
 20
-1.0527595557
 30
0.0
 10
-1.948821727
 20
-3.0724429712
 30
0.0
 10
-1.7728034811
 20
-5.0765287954
 30
0.0
 10
-1.4491740166
 20
-7.0545312275
 30
0.0
 10
-0.9769833735
 20
-8.9955312317
 30
0.0
 10
-0.3557509025
 20
-10.8880281985
 30
0.0
 10
0.4136301496
 20
-12.7200706203
 30
0.0
 10
1.1771844391
 20
-14.1869001123
 30
0.0
 10
1.859139222
 20
-15.3170888324
 30
0.0
 10
2.4056947075
 20
-16.1415312119
 30
0.0
 10
2.9866640713
 20
-16.9414154313
 30
0.0
 10
3.6012419455
 20
-17.7151944019
 30
0.0
 10
4.2486384866
 20
-18.461272798
 30
0.0
 10
5.1539909838
 20
-19.416672302
 30
0.0
 10
6.3626697882
 20
-20.5347870558
 30
0.0
 10
7.9258069032
 20
-21.741968228
 30
0.0
 10
9.035637193
 20
-22.4510093372
 30
0.0
 10
9.604973428
 20
-22.7798424387
 30
0.0
  0
SPLINE
  5
3EF
100
AcDbEntity
  8
0
100
AcDbSpline
 62
7
  6
CONTINUOUS
 70
0
 71
3
 72
18
 73
14
 74
0
 42
0.0000001
 43
0.0000001
 44
0.0000000001
 40
0.0
 40
0.0
 40
0.0
 40
0.0
 40
0.1246171863
 40
0.1869400979
 40
0.2492762449
 40
0.3739661683
 40
0.4987440347
 40
0.5612014339
 40
0.6236987945
 40
0.7488182525
 40
0.8114948014
 40
0.8742483408
 40
1.0
 40
1.0
 40
1.0
 40
1.0
 10
37.6130649936
 20
25.7129076038
 30
0.0
 10
36.9575885855
 20
26.0914929248
 30
0.0
 10
35.9440106076
 20
26.6092171624
 30
0.0
 10
34.5462148916
 20
27.1925388254
 30
0.0
 10
33.1198198755
 20
27.7036600561
 30
0.0
 10
31.290025181
 20
28.2056957322
 30
0.0
 10
29.4183207888
 20
28.5208344644
 30
0.0
 10
27.9073473109
 20
28.6611079507
 30
0.0
 10
26.3892802733
 20
28.7270744863
 30
0.0
 10
24.8668312888
 20
28.6820994099
 30
0.0
 10
23.3521938126
 20
28.5290687075
 30
0.0
 10
21.8426383684
 20
28.3046092936
 30
0.0
 10
20.7224206622
 20
28.0576885276
 30
0.0
 10
19.9846217035
 20
27.8599292914
 30
0.0
  0
SPLINE
  5
3F0
100
AcDbEntity
  8
0
100
AcDbSpline
 62
7
  6
CONTINUOUS
 70
0
 71
3
 72
15
 73
11
 74
0
 42
0.0000001
 43
0.0000001
 44
0.0000000001
 40
0.0
 40
0.0
 40
0.0
 40
0.0
 40
0.1160223504
 40
0.2355340209
 40
0.3580525444
 40
0.4831427968
 40
0.6103682892
 40
0.7392701309
 40
0.8693515639
 40
1.0
 40
1.0
 40
1.0
 40
1.0
 10
2.2217073284
 20
43.0097876886
 30
0.0
 10
2.5318155576
 20
42.5630194483
 30
0.0
 10
3.1383966863
 20
41.6399182694
 30
0.0
 10
3.9937943888
 20
40.1952832897
 30
0.0
 10
4.8040973097
 20
38.6765239879
 30
0.0
 10
5.5649612515
 20
37.0922462751
 30
0.0
 10
6.2722819959
 20
35.4507425909
 30
0.0
 10
6.9224303476
 20
33.7606869387
 30
0.0
 10
7.5115660197
 20
32.0314911439
 30
0.0
 10
7.8613694984
 20
30.8601032987
 30
0.0
 10
8.0253856245
 20
30.2700703919
 30
0.0
  0
SPLINE
  5
3F1
100
AcDbEntity
  8
0
100
AcDbSpline
 62
7
  6
CONTINUOUS
 70
0
 71
3
 72
35
 73
31
 74
0
 42
0.0000001
 43
0.0000001
 44
0.0000000001
 40
0.0
 40
0.0
 40
0.0
 40
0.0
 40
0.060186429
 40
0.0912592994
 40
0.1229375418
 40
0.1551907817
 40
0.187969338
 40
0.2212135223
 40
0.2548542804
 40
0.2888171608
 40
0.3230232062
 40
0.391799844
 40
0.4605197705
 40
0.5284857705
 40
0.5950540694
 40
0.6276554257
 40
0.6597117818
 40
0.6911802683
 40
0.7220302039
 40
0.75224233
 40
0.7818104447
 40
0.8107461187
 40
0.8390771538
 40
0.8668495179
 40
0.89412506
 40
0.9076038608
 40
0.9209883406
 40
0.947514562
 40
0.9738144268
 40
1.0
 40
1.0
 40
1.0
 40
1.0
 10
23.6090191968
 20
27.2079017664
 30
0.0
 10
22.3828316619
 20
26.8792105442
 30
0.0
 10
20.5613853734
 20
26.2261541033
 30
0.0
 10
18.2301778819
 20
25.0876850899
 30
0.0
 10
16.495025373
 20
24.0816488724
 30
0.0
 10
14.8034697544
 20
22.9389762174
 30
0.0
 10
13.1651350478
 20
21.6666361485
 30
0.0
 10
11.5902309713
 20
20.2721367937
 30
0.0
 10
10.0880569576
 20
18.764203772
 30
0.0
 10
8.6677778297
 20
17.1517119246
 30
0.0
 10
6.8917308433
 20
14.871923238
 30
0.0
 10
4.9250412791
 20
11.8198370537
 30
0.0
 10
3.017864588
 20
7.9172829005
 30
0.0
 10
1.603589413
 20
3.8593508538
 30
0.0
 10
0.8590065054
 20
0.4030063034
 30
0.0
 10
0.5432858186
 20
-2.348533022
 30
0.0
 10
0.4476392941
 20
-4.3754410561
 30
0.0
 10
0.4920306506
 20
-6.367189831
 30
0.0
 10
0.6764729005
 20
-8.3119251999
 30
0.0
 10
0.9996298539
 20
-10.1979308335
 30
0.0
 10
1.4600087248
 20
-12.0137207985
 30
0.0
 10
2.0546034411
 20
-13.7483379465
 30
0.0
 10
2.7802422896
 20
-15.3912035305
 30
0.0
 10
3.6324058989
 20
-16.9323200241
 30
0.0
 10
4.4474014673
 20
-18.128871286
 30
0.0
 10
5.1568575313
 20
-19.0241695411
 30
0.0
 10
5.8986627431
 20
-19.8719323821
 30
0.0
 10
6.8950475448
 20
-20.8541013728
 30
0.0
 10
8.1958092105
 20
-21.9001951429
 30
0.0
 10
9.1267090073
 20
-22.5035862424
 30
0.0
 10
9.6049763795
 20
-22.7798373308
 30
0.0
  0
SPLINE
  5
3F2
100
AcDbEntity
  8
0
100
AcDbSpline
 62
7
  6
CONTINUOUS
 70
0
 71
3
 72
14
 73
10
 74
0
 42
0.0000001
 43
0.0000001
 44
0.0000000001
 40
0.0
 40
0.0
 40
0.0
 40
0.0
 40
0.1196230996
 40
0.240383172
 40
0.3625111283
 40
0.486223174
 40
0.6117179429
 40
0.7391641255
 40
1.0
 40
1.0
 40
1.0
 40
1.0
 10
-3.5257478823
 20
43.2728301928
 30
0.0
 10
-3.8591818484
 20
43.3720911144
 30
0.0
 10
-4.5370780643
 20
43.5461100425
 30
0.0
 10
-5.5757797309
 20
43.7318475196
 30
0.0
 10
-6.6371115503
 20
43.8427356468
 30
0.0
 10
-7.7173318206
 20
43.8782937367
 30
0.0
 10
-8.8129255045
 20
43.8385801865
 30
0.0
 10
-10.2999106052
 20
43.6840591265
 30
0.0
 10
-11.4101236654
 20
43.4569352221
 30
0.0
 10
-12.1428339297
 20
43.260525272
 30
0.0
  0
SPLINE
  5
3F3
100
AcDbEntity
  8
0
100
AcDbSpline
 62
7
  6
CONTINUOUS
 70
0
 71
3
 72
17
 73
13
 74
0
 42
0.0000001
 43
0.0000001
 44
0.0000000001
 40
0.0
 40
0.0
 40
0.0
 40
0.0
 40
0.0597968926
 40
0.1196692128
 40
0.2398774817
 40
0.30039114
 40
0.3612508477
 40
0.4842059182
 40
0.6092230526
 40
0.7366931224
 40
0.8669218432
 40
1.0
 40
1.0
 40
1.0
 40
1.0
 10
37.6130620447
 20
25.7129024984
 30
0.0
 10
37.3635950023
 20
25.8569966704
 30
0.0
 10
36.8564967836
 20
26.1320578374
 30
0.0
 10
35.8122803046
 20
26.6281816965
 30
0.0
 10
34.7265024025
 20
27.0413680177
 30
0.0
 10
33.6091286937
 20
27.3686258443
 30
0.0
 10
32.4633241425
 20
27.6404582191
 30
0.0
 10
30.9907079412
 20
27.8717778428
 30
0.0
 10
29.1819287419
 20
27.9733420288
 30
0.0
 10
27.3367577586
 20
27.8997536238
 30
0.0
 10
25.4680602286
 20
27.6513262212
 30
0.0
 10
24.2283055808
 20
27.3739042691
 30
0.0
 10
23.6090191968
 20
27.2079017664
 30
0.0
  0
SPLINE
  5
3F4
100
AcDbEntity
  8
0
100
AcDbSpline
 62
7
  6
CONTINUOUS
 70
0
 71
3
 72
23
 73
19
 74
0
 42
0.0000001
 43
0.0000001
 44
0.0000000001
 40
0.0
 40
0.0
 40
0.0
 40
0.0
 40
0.0576655469
 40
0.0871665061
 40
0.1170938325
 40
0.1781481187
 40
0.2406805696
 40
0.3690984815
 40
0.4345262004
 40
0.5002875837
 40
0.566038041
 40
0.6314329291
 40
0.7597246383
 40
0.7911294165
 40
0.8221869503
 40
0.8831360652
 40
0.9424414553
 40
1.0
 40
1.0
 40
1.0
 40
1.0
 10
-1.8638256156
 20
-4.4605501797
 30
0.0
 10
-2.0345795768
 20
-3.7301515542
 30
0.0
 10
-2.2290701962
 20
-2.6100541779
 30
0.0
 10
-2.3691766851
 20
-1.0929424217
 30
0.0
 10
-2.4321505444
 20
0.473624435
 30
0.0
 10
-2.3596372274
 20
2.4728582801
 30
0.0
 10
-1.9272672083
 20
5.7259697113
 30
0.0
 10
-1.0300362341
 20
8.9598645034
 30
0.0
 10
0.2832396229
 20
12.0739968197
 30
0.0
 10
1.4770097094
 20
14.3442422665
 30
0.0
 10
2.8584450567
 20
16.5049800913
 30
0.0
 10
4.9129655451
 20
19.185542876
 30
0.0
 10
6.9910448535
 20
21.2757028511
 30
0.0
 10
8.933184134
 20
22.8206808508
 30
0.0
 10
10.2354809427
 20
23.7602188396
 30
0.0
 10
11.9130992791
 20
24.796157291
 30
0.0
 10
13.9974648106
 20
25.8076081129
 30
0.0
 10
15.431900781
 20
26.3219165712
 30
0.0
 10
16.1501177291
 20
26.5333814518
 30
0.0
  0
SPLINE
  5
3F5
100
AcDbEntity
  8
0
100
AcDbSpline
 62
7
  6
CONTINUOUS
 70
0
 71
3
 72
39
 73
35
 74
0
 42
0.0000001
 43
0.0000001
 44
0.0000000001
 40
0.0
 40
0.0
 40
0.0
 40
0.0
 40
0.0602610289
 40
0.0913666626
 40
0.12307354
 40
0.1553512097
 40
0.1881494048
 40
0.2214080062
 40
0.2550593001
 40
0.2890296903
 40
0.3232389592
 40
0.3576032232
 40
0.3920358732
 40
0.4264492484
 40
0.4607561189
 40
0.4948706787
 40
0.5287108774
 40
0.5621986466
 40
0.59526294
 40
0.627839335
 40
0.6598736649
 40
0.6913211145
 40
0.7221502109
 40
0.7523415165
 40
0.7818916209
 40
0.8108114336
 40
0.8391296438
 40
0.8668904492
 40
0.8805843197
 40
0.8941633173
 40
0.9210096658
 40
0.9475284274
 40
0.9738216369
 40
1.0
 40
1.0
 40
1.0
 40
1.0
 10
-12.2504564729
 20
43.2313358003
 30
0.0
 10
-13.25524028
 20
42.9556419067
 30
0.0
 10
-14.7470986348
 20
42.4116643383
 30
0.0
 10
-16.655613403
 20
41.4681294588
 30
0.0
 10
-18.0755242945
 20
40.6363290802
 30
0.0
 10
-19.4592281666
 20
39.6931263768
 30
0.0
 10
-20.7989598483
 20
38.6443357617
 30
0.0
 10
-22.0863468443
 20
37.4960152669
 30
0.0
 10
-23.3139229083
 20
36.2553412763
 30
0.0
 10
-24.4741012128
 20
34.9295447356
 30
0.0
 10
-25.5601863381
 20
33.5268054888
 30
0.0
 10
-26.5653922728
 20
32.0553464937
 30
0.0
 10
-27.483960997
 20
30.5241935159
 30
0.0
 10
-28.3100981966
 20
28.9423721583
 30
0.0
 10
-29.0391289966
 20
27.3195317591
 30
0.0
 10
-29.6663754714
 20
25.6652774958
 30
0.0
 10
-30.1883621922
 20
23.9896562268
 30
0.0
 10
-30.6016362577
 20
22.3026202613
 30
0.0
 10
-30.9040068848
 20
20.6143728987
 30
0.0
 10
-31.0933187363
 20
18.9349752288
 30
0.0
 10
-31.1687171708
 20
17.2745436271
 30
0.0
 10
-31.1293854816
 20
15.6430130217
 30
0.0
 10
-30.9758219177
 20
14.0501755419
 30
0.0
 10
-30.7085583502
 20
12.5056159971
 30
0.0
 10
-30.3294338608
 20
11.018585438
 30
0.0
 10
-29.8403080623
 20
9.5980975195
 30
0.0
 10
-29.244360547
 20
8.252726413
 30
0.0
 10
-28.6585700346
 20
7.1960341194
 30
0.0
 10
-28.1402184957
 20
6.3977089013
 30
0.0
 10
-27.5941685947
 20
5.6374670359
 30
0.0
 10
-26.8520947753
 20
4.7466178575
 30
0.0
 10
-25.8692329209
 20
3.7785333598
 30
0.0
 10
-24.8030367932
 20
2.9214260113
 30
0.0
 10
-24.0402111687
 20
2.4268890248
 30
0.0
 10
-23.6483140074
 20
2.2004210373
 30
0.0
  0
ELLIPSE
  5
3F6
100
AcDbEntity
  8
0
100
AcDbEllipse
 62
7
  6
CONTINUOUS
 10
16.562550699
 20
5.5363808652
 30
0.0
 11
-5.9424265632
 21
24.9149523442
 31
0.0
 40
0.7681849633
 41
-0.0875775315
 42
0.1302441354
  0
ELLIPSE
  5
3F7
100
AcDbEntity
  8
0
100
AcDbEllipse
 62
7
  6
CONTINUOUS
 10
5.3019107337
 20
12.0402197981
 30
0.0
 11
9.0417907505
 21
21.2168978303
 31
0.0
 40
0.7898557819
 41
0.4924300188
 42
0.6632209679
  0
ENDSEC
  0
SECTION
  2
OBJECTS
  0
DICTIONARY
  5
C
100
AcDbDictionary
280
0
281
1
  3
ACAD_GROUP
350
D
  3
ACAD_MLINESTYLE
350
17
  3
ACAD_LAYOUT
350
1A
  3
ACAD_PLOTSETTINGS
350
19
  3
ACAD_PLOTSTYLENAME
350
E
  0
DICTIONARY
  5
D
102
{ACAD_REACTORS
330
C
102
}
100
AcDbDictionary
280
0
281
1
  0
ACDBDICTIONARYWDFLT
  5
E
102
{ACAD_REACTORS
330
C
102
}
100
AcDbDictionary
281
1
  3
Normal
350
F
100
AcDbDictionaryWithDefault
340
F
  0
DICTIONARY
  5
17
102
{ACAD_REACTORS
330
C
102
}
100
AcDbDictionary
280
0
281
1
  3
Standard
350
18
  0
DICTIONARY
  5
19
102
{ACAD_REACTORS
330
C
102
}
100
AcDbDictionary
281
1
  0
DICTIONARY
  5
1A
102
{ACAD_REACTORS
330
C
102
}
100
AcDbDictionary
281
1
  3
Model
350
3F8
  3
Layout1
350
3F9
  0
ACDBPLACEHOLDER
  5
F
102
{ACAD_REACTORS
330
E
102
}
  0
MLINESTYLE
  5
18
102
{ACAD_REACTORS
330
17
102
}
100
AcDbMlineStyle
  2
STANDARD
 70
0
  3

 62
256
 51
90.0
 52
90.0
 71
2
 49
0.5
 62
256
  6
BYLAYER
 49
-0.5
 62
256
  6
BYLAYER
  0
LAYOUT
  5
3F8
102
{ACAD_REACTORS
330
1A
102
}
100
AcDbPlotSettings
  1

  2
none_device
  4
ANSI_C_(22.00_x_17.00_Inches)
  6

 40
0.0
 41
0.0
 42
0.0
 43
0.0
 44
558.8
 45
431.8
 46
0.0
 47
0.0
 48
0.0
 49
0.0
140
0.0
141
0.0
142
1.0
143
1.0
 70
1024
 72
0
 73
0
 74
0
  7

 75
0
147
1.0
148
0.0
149
0.0
100
AcDbLayout
  1
Model
 70
0
 71
0
 10
0.0
 20
0.0
 11
22.0
 21
17.0
 12
0.0
 22
0.0
 32
0.0
 14
0.0
 24
0.0
 34
0.0
 15
0.0
 25
0.0
 35
0.0
146
0.0
 13
0.0
 23
0.0
 33
0.0
 16
1.0
 26
0.0
 36
0.0
 17
0.0
 27
1.0
 37
0.0
 76
0
330
216
345
0
346
0
  0
LAYOUT
  5
3F9
102
{ACAD_REACTORS
330
1A
102
}
100
AcDbPlotSettings
  1

  2
none_device
  4
ANSI_C_(22.00_x_17.00_Inches)
  6

 40
0.0
 41
0.0
 42
0.0
 43
0.0
 44
558.8
 45
431.8
 46
0.0
 47
0.0
 48
0.0
 49
0.0
140
0.0
141
0.0
142
1.0
143
1.0
 70
0
 72
0
 73
0
 74
0
  7

 75
0
147
1.0
148
0.0
149
0.0
100
AcDbLayout
  1
Layout1
 70
0
 71
1
 10
0.0
 20
0.0
 11
22.0
 21
17.0
 12
0.0
 22
0.0
 32
0.0
 14
0.0
 24
0.0
 34
0.0
 15
0.0
 25
0.0
 35
0.0
146
0.0
 13
0.0
 23
0.0
 33
0.0
 16
1.0
 26
0.0
 36
0.0
 17
0.0
 27
1.0
 37
0.0
 76
0
330
217
345
0
346
0
  0
ENDSEC
  0
EOF
