999
DXF file: Y:\3D PRATIKA-KAEDRA_OLGA\CAD3D\2D_Views\PKE16M435_2D-isometric.dxf
999
Pro/ENGINEER 2018260 by Parametric Technology Corporation
  0
SECTION
  2
HEADER
  9
$ACADVER
  1
AC1027
  9
$DWGCODEPAGE
  3
ANSI_1252
  9
$EXTMAX
 10
22.0
 20
17.0
 30
0.0
  9
$EXTMIN
 10
0.0
 20
0.0
 30
0.0
  9
$LIMMIN
 10
0.0
 20
0.0
  9
$LIMMAX
 10
22.0
 20
17.0
  9
$VIEWCTR
 10
11.0
 20
8.5
  9
$VIEWSIZE
 40
17.0
  9
$CLAYER
  8
0
  9
$LTSCALE
 40
1.21
  9
$CELTYPE
  6
BYLAYER
  9
$DIMSCALE
 40
1.0
  9
$DIMASZ
 40
0.1875
  9
$DIMEXO
 40
0.0625
  9
$DIMDLI
 40
0.836
  9
$DIMEXE
 40
0.125
  9
$DIMCEN
 40
0.198
  9
$DIMLFAC
 40
1.0
  9
$DIMBLK
  1
_CLOSED
  9
$DIMALT
 70
0
  9
$DIMALTF
 40
25.4
  9
$DIMTXT
 40
0.15625
  9
$DIMTOL
 70
0
  9
$DIMLIM
 70
0
  9
$DIMTFAC
 40
1.0
  9
$DIMGAP
 40
0.09
  9
$DIMDSEP
 70
46
  9
$AUNITS
 70
0
  9
$PDMODE
 70
3
  9
$PDSIZE
 40
0.3125
  9
$HANDSEED
  5
3CA
  9
$TILEMODE
 70
1
  9
$MEASUREMENT
 70
0
  9
$INSUNITS
 70
1
  0
ENDSEC
  0
SECTION
  2
CLASSES
  0
CLASS
  1
ACDBDICTIONARYWDFLT
  2
AcDbDictionaryWithDefault
  3
AutoCAD 2000
 90
0
 91
1
280
0
281
0
  0
CLASS
  1
ACDBPLACEHOLDER
  2
AcDbPlaceHolder
  3
AutoCAD 2000
 90
0
 91
1
280
0
281
0
  0
CLASS
  1
LAYOUT
  2
AcDbLayout
  3
AutoCAD 2000
 90
0
 91
0
280
0
281
0
  0
ENDSEC
  0
SECTION
  2
TABLES
  0
TABLE
  2
VPORT
  5
8
100
AcDbSymbolTable
 70
2
  0
VPORT
  5
1F4
100
AcDbSymbolTableRecord
100
AcDbViewportTableRecord
  2
*ACTIVE
 70
0
 10
0.0
 20
0.0
 11
1.0
 21
1.0
 12
11.0
 22
8.5
 13
0.0
 23
0.0
 14
1.0
 24
1.0
 15
0.0
 25
0.0
 16
0.0
 26
0.0
 36
1.0
 17
0.0
 27
0.0
 37
0.0
 40
17.0
 41
1.2941176471
 42
50.0
 43
0.0
 44
0.0
 50
0.0
 51
0.0
 71
0
 72
100
 73
1
 74
1
 75
0
 76
0
 77
0
 78
0
  0
ENDTAB
  0
TABLE
  2
LTYPE
  5
5
100
AcDbSymbolTable
 70
6
  0
LTYPE
  5
14
100
AcDbSymbolTableRecord
100
AcDbLinetypeTableRecord
  2
BYBLOCK
 70
0
  3

 72
65
 73
0
 40
0.0
  0
LTYPE
  5
15
100
AcDbSymbolTableRecord
100
AcDbLinetypeTableRecord
  2
BYLAYER
 70
0
  3

 72
65
 73
0
 40
0.0
  0
LTYPE
  5
16
100
AcDbSymbolTableRecord
100
AcDbLinetypeTableRecord
  2
CONTINUOUS
 70
64
  3
Solid line
 72
65
 73
0
 40
0.0
  0
LTYPE
  5
1F5
100
AcDbSymbolTableRecord
100
AcDbLinetypeTableRecord
  2
CENTER
 70
64
  3
____ _ ____ _ ____ _ ____ _ ____ _ ____ _ ____
 72
65
 73
4
 40
0.6
 49
0.375
 74
0
 49
-0.075
 74
0
 49
0.075
 74
0
 49
-0.075
 74
0
  0
LTYPE
  5
1F6
100
AcDbSymbolTableRecord
100
AcDbLinetypeTableRecord
  2
HIDDEN
 70
64
  3
- - - - - - - - - - - - - - - - - - - -
 72
65
 73
2
 40
0.2
 49
0.1
 74
0
 49
-0.1
 74
0
  0
LTYPE
  5
1F7
100
AcDbSymbolTableRecord
100
AcDbLinetypeTableRecord
  2
PHANTOM
 70
64
  3
_____ _ _ _____ _ _ _____ _ _ _____
 72
65
 73
6
 40
0.8
 49
0.45
 74
0
 49
-0.05
 74
0
 49
0.1
 74
0
 49
-0.05
 74
0
 49
0.1
 74
0
 49
-0.05
 74
0
  0
LTYPE
  5
1F8
100
AcDbSymbolTableRecord
100
AcDbLinetypeTableRecord
  2
DOT
 70
64
  3
. . . . . . . . . . . . . . . . . . . .
 72
65
 73
2
 40
0.2
 49
0.1
 74
0
 49
-0.1
 74
0
  0
LTYPE
  5
1F9
100
AcDbSymbolTableRecord
100
AcDbLinetypeTableRecord
  2
DASHED
 70
64
  3
- - - - - - - - - - - - - - - - - - - -
 72
65
 73
2
 40
0.2
 49
0.1
 74
0
 49
-0.1
 74
0
  0
ENDTAB
  0
TABLE
  2
LAYER
  5
2
100
AcDbSymbolTable
 70
36
  0
LAYER
  5
10
100
AcDbSymbolTableRecord
100
AcDbLayerTableRecord
  2
0
 70
0
 62
7
  6
CONTINUOUS
370
-3
390
F
  0
LAYER
  5
1FA
100
AcDbSymbolTableRecord
100
AcDbLayerTableRecord
  2
DEFAULT_1
 70
0
 62
7
  6
CENTER
370
-3
390
F
  0
LAYER
  5
1FB
100
AcDbSymbolTableRecord
100
AcDbLayerTableRecord
  2
DEFAULT_2
 70
0
 62
8
  6
HIDDEN
370
-3
390
F
  0
LAYER
  5
1FC
100
AcDbSymbolTableRecord
100
AcDbLayerTableRecord
  2
DEFAULT_3
 70
0
 62
7
  6
PHANTOM
370
-3
390
F
  0
LAYER
  5
1FD
100
AcDbSymbolTableRecord
100
AcDbLayerTableRecord
  2
01_ALL_DTM_PLN
 70
0
 62
7
  6
CONTINUOUS
370
-3
390
F
  0
LAYER
  5
1FE
100
AcDbSymbolTableRecord
100
AcDbLayerTableRecord
  2
01__ASM_ALL_DTM_PLN
 70
0
 62
7
  6
CONTINUOUS
370
-3
390
F
  0
LAYER
  5
1FF
100
AcDbSymbolTableRecord
100
AcDbLayerTableRecord
  2
01__ASM_DEF_DTM_PLN
 70
0
 62
7
  6
CONTINUOUS
370
-3
390
F
  0
LAYER
  5
200
100
AcDbSymbolTableRecord
100
AcDbLayerTableRecord
  2
01___PRT_ALL_DTM_PLN
 70
0
 62
7
  6
CONTINUOUS
370
-3
390
F
  0
LAYER
  5
201
100
AcDbSymbolTableRecord
100
AcDbLayerTableRecord
  2
01___PRT_DEF_DTM_PLN
 70
0
 62
7
  6
CONTINUOUS
370
-3
390
F
  0
LAYER
  5
202
100
AcDbSymbolTableRecord
100
AcDbLayerTableRecord
  2
02_ALL_AXES
 70
0
 62
7
  6
CONTINUOUS
370
-3
390
F
  0
LAYER
  5
203
100
AcDbSymbolTableRecord
100
AcDbLayerTableRecord
  2
02__ASM_ALL_AXES
 70
0
 62
7
  6
CONTINUOUS
370
-3
390
F
  0
LAYER
  5
204
100
AcDbSymbolTableRecord
100
AcDbLayerTableRecord
  2
02___PRT_ALL_AXES
 70
0
 62
7
  6
CONTINUOUS
370
-3
390
F
  0
LAYER
  5
205
100
AcDbSymbolTableRecord
100
AcDbLayerTableRecord
  2
03_ALL_CURVES
 70
0
 62
7
  6
CONTINUOUS
370
-3
390
F
  0
LAYER
  5
206
100
AcDbSymbolTableRecord
100
AcDbLayerTableRecord
  2
03__ASM_ALL_CURVES
 70
0
 62
7
  6
CONTINUOUS
370
-3
390
F
  0
LAYER
  5
207
100
AcDbSymbolTableRecord
100
AcDbLayerTableRecord
  2
03___PRT_ALL_CURVES
 70
0
 62
7
  6
CONTINUOUS
370
-3
390
F
  0
LAYER
  5
208
100
AcDbSymbolTableRecord
100
AcDbLayerTableRecord
  2
04_ALL_DTM_PNT
 70
0
 62
7
  6
CONTINUOUS
370
-3
390
F
  0
LAYER
  5
209
100
AcDbSymbolTableRecord
100
AcDbLayerTableRecord
  2
04__ASM_ALL_DTM_PNT
 70
0
 62
7
  6
CONTINUOUS
370
-3
390
F
  0
LAYER
  5
20A
100
AcDbSymbolTableRecord
100
AcDbLayerTableRecord
  2
04___PRT_ALL_DTM_PNT
 70
0
 62
7
  6
CONTINUOUS
370
-3
390
F
  0
LAYER
  5
20B
100
AcDbSymbolTableRecord
100
AcDbLayerTableRecord
  2
05_ALL_DTM_CSYS
 70
0
 62
7
  6
CONTINUOUS
370
-3
390
F
  0
LAYER
  5
20C
100
AcDbSymbolTableRecord
100
AcDbLayerTableRecord
  2
05__ASM_ALL_DTM_CSYS
 70
0
 62
7
  6
CONTINUOUS
370
-3
390
F
  0
LAYER
  5
20D
100
AcDbSymbolTableRecord
100
AcDbLayerTableRecord
  2
05__ASM_DEF_DTM_CSYS
 70
0
 62
7
  6
CONTINUOUS
370
-3
390
F
  0
LAYER
  5
20E
100
AcDbSymbolTableRecord
100
AcDbLayerTableRecord
  2
05___PRT_ALL_DTM_CSYS
 70
0
 62
7
  6
CONTINUOUS
370
-3
390
F
  0
LAYER
  5
20F
100
AcDbSymbolTableRecord
100
AcDbLayerTableRecord
  2
05___PRT_DEF_DTM_CSYS
 70
0
 62
7
  6
CONTINUOUS
370
-3
390
F
  0
LAYER
  5
210
100
AcDbSymbolTableRecord
100
AcDbLayerTableRecord
  2
06_ALL_SURFS
 70
0
 62
7
  6
CONTINUOUS
370
-3
390
F
  0
LAYER
  5
211
100
AcDbSymbolTableRecord
100
AcDbLayerTableRecord
  2
06__ASM_ALL_SURFS
 70
0
 62
7
  6
CONTINUOUS
370
-3
390
F
  0
LAYER
  5
212
100
AcDbSymbolTableRecord
100
AcDbLayerTableRecord
  2
06___PRT_ALL_SURFS
 70
0
 62
7
  6
CONTINUOUS
370
-3
390
F
  0
LAYER
  5
213
100
AcDbSymbolTableRecord
100
AcDbLayerTableRecord
  2
07__ASM_ALL_SKELETONS
 70
0
 62
7
  6
CONTINUOUS
370
-3
390
F
  0
ENDTAB
  0
TABLE
  2
STYLE
  5
3
100
AcDbSymbolTable
 70
1
  0
STYLE
  5
11
100
AcDbSymbolTableRecord
100
AcDbTextStyleTableRecord
  2
STANDARD
 70
0
 40
0.0
 41
0.8
 50
0.0
 71
0
 42
0.2
  3
txt
  4

  0
STYLE
  5
214
100
AcDbSymbolTableRecord
100
AcDbTextStyleTableRecord
  2
TEXTSTYLE_1
 70
0
 40
0.0
 41
0.8
 50
0.0
 71
0
 42
0.2
  3
gdt
  4

  0
ENDTAB
  0
TABLE
  2
VIEW
  5
6
100
AcDbSymbolTable
 70
0
  0
ENDTAB
  0
TABLE
  2
UCS
  5
7
100
AcDbSymbolTable
 70
0
  0
ENDTAB
  0
TABLE
  2
APPID
  5
9
100
AcDbSymbolTable
 70
1
  0
APPID
  5
215
100
AcDbSymbolTableRecord
100
AcDbRegAppTableRecord
  2
ACAD
 70
0
  0
ENDTAB
  0
TABLE
  2
BLOCK_RECORD
  5
1
100
AcDbSymbolTable
 70
0
  0
BLOCK_RECORD
  5
216
100
AcDbSymbolTableRecord
100
AcDbBlockTableRecord
  2
*Model_Space
  0
BLOCK_RECORD
  5
217
100
AcDbSymbolTableRecord
100
AcDbBlockTableRecord
  2
*Paper_Space
  0
BLOCK_RECORD
  5
218
100
AcDbSymbolTableRecord
100
AcDbBlockTableRecord
  2
_CLOSED
  0
ENDTAB
  0
TABLE
  2
DIMSTYLE
  5
A
100
AcDbSymbolTable
 70
1
100
AcDbDimStyleTable
 71
0
  0
DIMSTYLE
105
219
100
AcDbSymbolTableRecord
100
AcDbDimStyleTableRecord
  2
STANDARD
 70
0
  3

  4

 40
1.0
 41
0.1875
 42
0.0625
 43
0.38
 44
0.125
 45
0.0
 46
0.0
 47
0.01
 48
0.01
140
0.15625
141
0.09
142
0.0
143
25.4
144
1.0
145
0.0
146
1.0
147
0.09
 71
0.0
 72
0.0
 73
1
 74
1
 75
0
 76
0
 77
0
 78
4
 79
1
170
0
171
1
172
0
173
0
174
0
175
0
176
0
177
0
178
0
270
2
179
2
271
2
272
2
273
2
274
2
275
0
280
0
281
0
282
0
283
1
284
4
285
0
286
0
287
3
288
0
340
11
278
46
341
218
342
218
343
218
344
218
  0
ENDTAB
  0
ENDSEC
  0
SECTION
  2
BLOCKS
  0
BLOCK
  5
20
100
AcDbEntity
  8
0
100
AcDbBlockBegin
  2
*Model_Space
 70
0
 10
0.0
 20
0.0
 30
0.0
  3
*Model_Space
  1

  0
ENDBLK
  5
21
100
AcDbEntity
  8
0
100
AcDbBlockEnd
  0
BLOCK
  5
1C
100
AcDbEntity
  8
0
100
AcDbBlockBegin
  2
*Paper_Space
 70
0
 10
0.0
 20
0.0
 30
0.0
  3
*Paper_Space
  1

  0
ENDBLK
  5
1D
100
AcDbEntity
  8
0
100
AcDbBlockEnd
  0
BLOCK
  5
21A
100
AcDbEntity
  8
0
100
AcDbBlockBegin
  2
_CLOSED
 70
64
 10
0.0
 20
0.0
  3
_CLOSED
  1

  0
LINE
  5
21B
100
AcDbEntity
  8
0
  6
BYBLOCK
 62
0
100
AcDbLine
 10
0.0
 20
0.0
 11
-1.0
 21
0.1666666667
  0
LINE
  5
21C
100
AcDbEntity
  8
0
  6
BYBLOCK
 62
0
100
AcDbLine
 10
-1.0
 20
0.1666666667
 11
-1.0
 21
-0.1666666667
  0
LINE
  5
21D
100
AcDbEntity
  8
0
  6
BYBLOCK
 62
0
100
AcDbLine
 10
-1.0
 20
-0.1666666667
 11
0.0
 21
0.0
  0
LINE
  5
21E
100
AcDbEntity
  8
0
  6
BYBLOCK
 62
0
100
AcDbLine
 10
-1.0
 20
0.0
 11
0.0
 21
0.0
  0
ENDBLK
  5
21F
100
AcDbEntity
  8
0
  6
BYBLOCK
 62
0
100
AcDbBlockEnd
  0
ENDSEC
  0
SECTION
  2
ENTITIES
  0
LINE
  5
220
100
AcDbEntity
  8
0
100
AcDbLine
 62
7
  6
CONTINUOUS
 10
-26.246231482
 20
40.0556049102
 11
-26.2643158172
 21
40.2355508191
  0
LINE
  5
221
100
AcDbEntity
  8
0
100
AcDbLine
 62
7
  6
CONTINUOUS
 10
-47.8782528178
 20
-12.5530709136
 11
-47.8707379103
 21
-12.6697138147
  0
LINE
  5
222
100
AcDbEntity
  8
0
100
AcDbLine
 62
7
  6
CONTINUOUS
 10
-26.3057387823
 20
38.4198621949
 11
-26.3419645036
 21
39.051416563
  0
LINE
  5
223
100
AcDbEntity
  8
0
100
AcDbLine
 62
7
  6
CONTINUOUS
 10
-6.8402624327
 20
18.3405876571
 11
-7.4865503756
 21
30.7759694817
  0
LINE
  5
224
100
AcDbEntity
  8
0
100
AcDbLine
 62
7
  6
CONTINUOUS
 10
-5.9415637678
 20
27.4189647225
 11
-5.4273325357
 21
17.5245178338
  0
LINE
  5
225
100
AcDbEntity
  8
0
100
AcDbLine
 62
7
  6
CONTINUOUS
 10
-60.2284871724
 20
9.0346995099
 11
-60.225872438
 21
8.6188206338
  0
LINE
  5
226
100
AcDbEntity
  8
0
100
AcDbLine
 62
7
  6
CONTINUOUS
 10
-26.3419720068
 20
39.0519581697
 11
-26.342015108
 21
39.0748289292
  0
LINE
  5
227
100
AcDbEntity
  8
0
100
AcDbLine
 62
7
  6
CONTINUOUS
 10
-47.8782197343
 20
-12.5531110355
 11
-47.8782198892
 21
-12.44235986
  0
LINE
  5
228
100
AcDbEntity
  8
0
100
AcDbLine
 62
7
  6
CONTINUOUS
 10
-47.5367808464
 20
-12.621712313
 11
-47.5367808464
 21
-12.7395394129
  0
LINE
  5
229
100
AcDbEntity
  8
0
100
AcDbLine
 62
7
  6
CONTINUOUS
 10
-26.246266026
 20
40.0558988746
 11
-26.2462641108
 21
39.3634413212
  0
LINE
  5
22A
100
AcDbEntity
  8
0
100
AcDbLine
 62
7
  6
CONTINUOUS
 10
-26.2469407109
 20
40.0451229627
 11
-26.2462641108
 21
40.0553544357
  0
LINE
  5
22B
100
AcDbEntity
  8
0
100
AcDbLine
 62
7
  6
CONTINUOUS
 10
-26.3290933838
 20
39.0427495115
 11
-26.3382341834
 21
38.9358860422
  0
LINE
  5
22C
100
AcDbEntity
  8
0
100
AcDbLine
 62
7
  6
CONTINUOUS
 10
-61.2202476451
 20
5.3972394925
 11
-61.2525957973
 21
5.0884069072
  0
LINE
  5
22D
100
AcDbEntity
  8
0
100
AcDbLine
 62
7
  6
CONTINUOUS
 10
-26.3283086813
 20
39.0494063105
 11
-26.3290933838
 21
39.0427495115
  0
LINE
  5
22E
100
AcDbEntity
  8
0
100
AcDbLine
 62
7
  6
CONTINUOUS
 10
-57.0864390267
 20
-6.0707005078
 11
-57.1248905246
 21
-6.3876542402
  0
LINE
  5
22F
100
AcDbEntity
  8
0
100
AcDbLine
 62
7
  6
CONTINUOUS
 10
-26.2469407109
 20
39.3603142764
 11
-26.2462641108
 21
39.3633986289
  0
LINE
  5
230
100
AcDbEntity
  8
0
100
AcDbLine
 62
7
  6
CONTINUOUS
 10
-59.1600419966
 20
19.0908282216
 11
-59.1600221567
 21
19.0909153233
  0
LINE
  5
231
100
AcDbEntity
  8
0
100
AcDbLine
 62
7
  6
CONTINUOUS
 10
-26.3276683905
 20
39.048257885
 11
-26.3290933838
 21
39.0427495115
  0
LINE
  5
232
100
AcDbEntity
  8
0
100
AcDbLine
 62
7
  6
CONTINUOUS
 10
-59.1039062821
 20
19.2779603569
 11
-59.1600551106
 21
19.0908578075
  0
LINE
  5
233
100
AcDbEntity
  8
0
100
AcDbLine
 62
7
  6
CONTINUOUS
 10
-61.1187995447
 20
5.6797981679
 11
-61.2202476451
 21
5.3972394925
  0
LINE
  5
234
100
AcDbEntity
  8
0
100
AcDbLine
 62
7
  6
CONTINUOUS
 10
-57.0313862793
 20
-5.9199410608
 11
-57.0864390267
 21
-6.0707005078
  0
LINE
  5
235
100
AcDbEntity
  8
0
100
AcDbLine
 62
7
  6
CONTINUOUS
 10
-56.4531122644
 20
22.7320722574
 11
-56.6378804776
 21
22.3204538375
  0
LINE
  5
236
100
AcDbEntity
  8
0
100
AcDbLine
 62
7
  6
CONTINUOUS
 10
-57.0313514458
 20
-5.9199380687
 11
-56.7280059387
 21
-5.2541574571
  0
LINE
  5
237
100
AcDbEntity
  8
0
100
AcDbLine
 62
7
  6
CONTINUOUS
 10
-56.3830333825
 20
-5.4435219196
 11
-56.6908276564
 21
-6.1190666544
  0
LINE
  5
238
100
AcDbEntity
  8
0
100
AcDbLine
 62
7
  6
CONTINUOUS
 10
-58.9633579805
 20
19.5593105003
 11
-59.1039062821
 21
19.2779603569
  0
LINE
  5
239
100
AcDbEntity
  8
0
100
AcDbLine
 62
7
  6
CONTINUOUS
 10
-60.9613553485
 20
5.9141281768
 11
-61.1187995447
 21
5.6797981679
  0
LINE
  5
23A
100
AcDbEntity
  8
0
100
AcDbLine
 62
7
  6
CONTINUOUS
 10
-51.114316559
 20
31.8741406966
 11
-51.1284382554
 21
31.8533164202
  0
LINE
  5
23B
100
AcDbEntity
  8
0
100
AcDbLine
 62
7
  6
CONTINUOUS
 10
-51.114316559
 20
31.8741406966
 11
-51.1290832097
 21
31.8538653346
  0
LINE
  5
23C
100
AcDbEntity
  8
0
100
AcDbLine
 62
7
  6
CONTINUOUS
 10
-58.7763659263
 20
19.7888235846
 11
-58.9633579805
 21
19.5593105003
  0
LINE
  5
23D
100
AcDbEntity
  8
0
100
AcDbLine
 62
7
  6
CONTINUOUS
 10
-51.0913852841
 20
32.0830450642
 11
-51.2279180666
 21
31.9207848832
  0
LINE
  5
23E
100
AcDbEntity
  8
0
100
AcDbLine
 62
7
  6
CONTINUOUS
 10
-60.8822899313
 20
5.9946553919
 11
-60.9613553485
 21
5.9141281768
  0
LINE
  5
23F
100
AcDbEntity
  8
0
100
AcDbLine
 62
7
  6
CONTINUOUS
 10
-47.481750037
 20
34.0229007018
 11
-47.8042323181
 21
33.7258837419
  0
LINE
  5
240
100
AcDbEntity
  8
0
100
AcDbLine
 62
7
  6
CONTINUOUS
 10
-60.8822781203
 20
5.9946236851
 11
-60.3526574219
 21
6.4767395382
  0
LINE
  5
241
100
AcDbEntity
  8
0
100
AcDbLine
 62
7
  6
CONTINUOUS
 10
-60.006675998
 20
6.2844764328
 11
-60.5397385209
 21
5.7992274744
  0
LINE
  5
242
100
AcDbEntity
  8
0
100
AcDbLine
 62
7
  6
CONTINUOUS
 10
-50.8553653548
 20
32.2778406487
 11
-51.0913852841
 21
32.0830450642
  0
LINE
  5
243
100
AcDbEntity
  8
0
100
AcDbLine
 62
7
  6
CONTINUOUS
 10
-58.5598555821
 20
19.9518657629
 11
-58.7763659263
 21
19.7888235846
  0
LINE
  5
244
100
AcDbEntity
  8
0
100
AcDbLine
 62
7
  6
CONTINUOUS
 10
-39.5324261084
 20
39.9197956543
 11
-39.5325198039
 21
39.9197429366
  0
LINE
  5
245
100
AcDbEntity
  8
0
100
AcDbLine
 62
7
  6
CONTINUOUS
 10
-50.6044387523
 20
32.3991776882
 11
-50.8553653548
 21
32.2778406487
  0
LINE
  5
246
100
AcDbEntity
  8
0
100
AcDbLine
 62
7
  6
CONTINUOUS
 10
-39.3376944532
 20
40.0085371608
 11
-39.5324943176
 21
39.919780968
  0
LINE
  5
247
100
AcDbEntity
  8
0
100
AcDbLine
 62
7
  6
CONTINUOUS
 10
-58.3522402239
 20
20.0373971591
 11
-58.5598555821
 21
19.9518657629
  0
LINE
  5
248
100
AcDbEntity
  8
0
100
AcDbLine
 62
7
  6
CONTINUOUS
 10
-47.2318295361
 20
-13.4047527358
 11
-43.5269849138
 21
-14.4039788095
  0
LINE
  5
249
100
AcDbEntity
  8
0
100
AcDbLine
 62
7
  6
CONTINUOUS
 10
-47.2317801534
 20
-13.404771199
 11
-47.2316363869
 21
-13.4048131319
  0
LINE
  5
24A
100
AcDbEntity
  8
0
100
AcDbLine
 62
7
  6
CONTINUOUS
 10
-34.3335681673
 20
-17.8542882563
 11
-34.1601123522
 21
-17.9076431128
  0
LINE
  5
24B
100
AcDbEntity
  8
0
100
AcDbLine
 62
7
  6
CONTINUOUS
 10
-34.7592744559
 20
-17.7213019157
 11
-34.6844740949
 21
-17.744874373
  0
LINE
  5
24C
100
AcDbEntity
  8
0
100
AcDbLine
 62
7
  6
CONTINUOUS
 10
-34.4864997715
 20
-17.795960029
 11
-34.1257626317
 21
-17.9172046634
  0
LINE
  5
24D
100
AcDbEntity
  8
0
100
AcDbLine
 62
7
  6
CONTINUOUS
 10
-38.4934965226
 20
-16.3946744928
 11
-38.2331603529
 21
-16.486956927
  0
LINE
  5
24E
100
AcDbEntity
  8
0
100
AcDbLine
 62
7
  6
CONTINUOUS
 10
-34.7583794132
 20
-17.7186768486
 11
-34.6844740949
 21
-17.744874373
  0
LINE
  5
24F
100
AcDbEntity
  8
0
100
AcDbLine
 62
7
  6
CONTINUOUS
 10
-38.5135918367
 20
-16.4489732818
 11
-38.2536998622
 21
-16.5427645903
  0
LINE
  5
250
100
AcDbEntity
  8
0
100
AcDbLine
 62
7
  6
CONTINUOUS
 10
-44.9617618537
 20
0.0244501111
 11
-44.9746957192
 21
0.0296073576
  0
LINE
  5
251
100
AcDbEntity
  8
0
100
AcDbLine
 62
7
  6
CONTINUOUS
 10
-47.4319311679
 20
-13.3204366789
 11
-47.2316363869
 21
-13.4048131319
  0
LINE
  5
252
100
AcDbEntity
  8
0
100
AcDbLine
 62
7
  6
CONTINUOUS
 10
33.9131096444
 20
-27.2504172059
 11
33.5299493591
 21
-27.0695648956
  0
LINE
  5
253
100
AcDbEntity
  8
0
100
AcDbLine
 62
7
  6
CONTINUOUS
 10
37.0227630263
 20
-21.0221648568
 11
36.7989762882
 21
-20.9165371331
  0
LINE
  5
254
100
AcDbEntity
  8
0
100
AcDbLine
 62
7
  6
CONTINUOUS
 10
37.5567538099
 20
-19.2533722933
 11
37.9399140952
 21
-19.4342246062
  0
LINE
  5
255
100
AcDbEntity
  8
0
100
AcDbLine
 62
7
  6
CONTINUOUS
 10
37.0953821292
 20
-18.946445945
 11
36.7122218465
 21
-18.7655936346
  0
LINE
  5
256
100
AcDbEntity
  8
0
100
AcDbLine
 62
7
  6
CONTINUOUS
 10
55.2973193549
 20
-31.6854040611
 11
55.5086940274
 21
-31.7856517651
  0
LINE
  5
257
100
AcDbEntity
  8
0
100
AcDbLine
 62
7
  6
CONTINUOUS
 10
34.6624413004
 20
-37.3591115605
 11
34.6798686696
 21
-37.3690163693
  0
LINE
  5
258
100
AcDbEntity
  8
0
100
AcDbLine
 62
7
  6
CONTINUOUS
 10
-53.2198250048
 20
-9.6353077144
 11
-53.1290399108
 21
-9.6870748905
  0
LINE
  5
259
100
AcDbEntity
  8
0
100
AcDbLine
 62
7
  6
CONTINUOUS
 10
-53.1160410519
 20
-9.511849183
 11
-53.2546060884
 21
-9.4326759073
  0
LINE
  5
25A
100
AcDbEntity
  8
0
100
AcDbLine
 62
7
  6
CONTINUOUS
 10
4.0169202903
 20
-45.7741717509
 11
8.8026014174
 21
-48.5382508176
  0
LINE
  5
25B
100
AcDbEntity
  8
0
100
AcDbLine
 62
7
  6
CONTINUOUS
 10
20.1487327078
 20
-52.8101041103
 11
21.5562859811
 21
-53.6230685423
  0
LINE
  5
25C
100
AcDbEntity
  8
0
100
AcDbLine
 62
7
  6
CONTINUOUS
 10
10.3530493452
 20
-45.853830728
 11
30.903327127
 21
-57.7231114344
  0
LINE
  5
25D
100
AcDbEntity
  8
0
100
AcDbLine
 62
7
  6
CONTINUOUS
 10
36.6490138728
 20
-59.6830212357
 11
43.356924996
 21
-63.557327993
  0
LINE
  5
25E
100
AcDbEntity
  8
0
100
AcDbLine
 62
7
  6
CONTINUOUS
 10
-30.0787423387
 20
-20.3073866927
 11
-6.5873183843
 21
-33.875393321
  0
LINE
  5
25F
100
AcDbEntity
  8
0
100
AcDbLine
 62
7
  6
CONTINUOUS
 10
39.4310488396
 20
-59.9220124798
 11
42.3780313378
 21
-61.6241093017
  0
LINE
  5
260
100
AcDbEntity
  8
0
100
AcDbLine
 62
7
  6
CONTINUOUS
 10
-40.8432206319
 20
-10.5102006458
 11
-36.5436620529
 21
-12.9935085722
  0
LINE
  5
261
100
AcDbEntity
  8
0
100
AcDbLine
 62
7
  6
CONTINUOUS
 10
24.4604544755
 20
-38.0056593632
 11
43.2194570108
 21
-48.840348278
  0
LINE
  5
262
100
AcDbEntity
  8
0
100
AcDbLine
 62
7
  6
CONTINUOUS
 10
24.4705498351
 20
-37.2464508918
 11
32.179146206
 21
-41.6987261934
  0
LINE
  5
263
100
AcDbEntity
  8
0
100
AcDbLine
 62
7
  6
CONTINUOUS
 10
25.3909927567
 20
-32.0040146482
 11
34.6798686696
 21
-37.3690163693
  0
LINE
  5
264
100
AcDbEntity
  8
0
100
AcDbLine
 62
7
  6
CONTINUOUS
 10
26.2827949406
 20
-30.9745109693
 11
46.7204684594
 21
-42.7787545236
  0
LINE
  5
265
100
AcDbEntity
  8
0
100
AcDbLine
 62
7
  6
CONTINUOUS
 10
32.6853475914
 20
-26.5819072272
 11
33.5298795548
 21
-27.0696858859
  0
LINE
  5
266
100
AcDbEntity
  8
0
100
AcDbLine
 62
7
  6
CONTINUOUS
 10
29.2870115128
 20
-23.0454463601
 11
36.1570978767
 21
-27.0134211216
  0
LINE
  5
267
100
AcDbEntity
  8
0
100
AcDbLine
 62
7
  6
CONTINUOUS
 10
37.6296329809
 20
-27.2332520891
 11
53.0079715638
 21
-36.1153615893
  0
LINE
  5
268
100
AcDbEntity
  8
0
100
AcDbLine
 62
7
  6
CONTINUOUS
 10
32.3209204538
 20
-19.0236905225
 11
38.6578203403
 21
-22.6837112975
  0
LINE
  5
269
100
AcDbEntity
  8
0
100
AcDbLine
 62
7
  6
CONTINUOUS
 10
36.6272509801
 20
-20.8802445437
 11
55.5086940274
 21
-31.7856517651
  0
LINE
  5
26A
100
AcDbEntity
  8
0
100
AcDbLine
 62
7
  6
CONTINUOUS
 10
-53.1171470085
 20
-9.5164265323
 11
-53.2546060884
 21
-9.4326759073
  0
LINE
  5
26B
100
AcDbEntity
  8
0
100
AcDbLine
 62
7
  6
CONTINUOUS
 10
-56.7400261661
 20
-7.1563493373
 11
-56.7717582921
 21
-7.1340418457
  0
LINE
  5
26C
100
AcDbEntity
  8
0
100
AcDbLine
 62
7
  6
CONTINUOUS
 10
-47.64903161
 20
-13.1479458326
 11
-47.4319311679
 21
-13.3204366789
  0
LINE
  5
26D
100
AcDbEntity
  8
0
100
AcDbLine
 62
7
  6
CONTINUOUS
 10
-56.7717582921
 20
-7.1340418457
 11
-56.7719554799
 21
-7.13387353
  0
LINE
  5
26E
100
AcDbEntity
  8
0
100
AcDbLine
 62
7
  6
CONTINUOUS
 10
-56.9045575795
 20
-6.9962725708
 11
-56.7717847742
 21
-7.1340523511
  0
LINE
  5
26F
100
AcDbEntity
  8
0
100
AcDbLine
 62
7
  6
CONTINUOUS
 10
-56.7546796598
 20
-5.3027904358
 11
-56.7685438256
 21
-5.2827134198
  0
LINE
  5
270
100
AcDbEntity
  8
0
100
AcDbLine
 62
7
  6
CONTINUOUS
 10
-38.2805028312
 20
39.6913609092
 11
-38.3305175445
 21
39.7644178142
  0
LINE
  5
271
100
AcDbEntity
  8
0
100
AcDbLine
 62
7
  6
CONTINUOUS
 10
-47.7978491102
 20
-12.9239873524
 11
-47.64903161
 21
-13.1479458326
  0
LINE
  5
272
100
AcDbEntity
  8
0
100
AcDbLine
 62
7
  6
CONTINUOUS
 10
-56.7464541238
 20
-5.2946474092
 11
-56.7594676004
 21
-5.2737440423
  0
LINE
  5
273
100
AcDbEntity
  8
0
100
AcDbLine
 62
7
  6
CONTINUOUS
 10
-37.9455147509
 20
39.08326194
 11
-38.2533014251
 21
39.5937797099
  0
LINE
  5
274
100
AcDbEntity
  8
0
100
AcDbLine
 62
7
  6
CONTINUOUS
 10
-38.280645404
 20
39.6915228215
 11
-37.9563861617
 21
39.1536841182
  0
LINE
  5
275
100
AcDbEntity
  8
0
100
AcDbLine
 62
7
  6
CONTINUOUS
 10
-57.064003415
 20
-6.7086770678
 11
-56.9045575795
 21
-6.9962725708
  0
LINE
  5
276
100
AcDbEntity
  8
0
100
AcDbLine
 62
7
  6
CONTINUOUS
 10
-26.2643158172
 20
40.2355508191
 11
-26.3498581353
 21
40.4731483677
  0
LINE
  5
277
100
AcDbEntity
  8
0
100
AcDbLine
 62
7
  6
CONTINUOUS
 10
-47.8707379103
 20
-12.6697138147
 11
-47.7978491102
 21
-12.9239873524
  0
LINE
  5
278
100
AcDbEntity
  8
0
100
AcDbLine
 62
7
  6
CONTINUOUS
 10
-38.2533014251
 20
39.5937797099
 11
-38.2803560751
 21
39.6910446056
  0
LINE
  5
279
100
AcDbEntity
  8
0
100
AcDbLine
 62
7
  6
CONTINUOUS
 10
-61.2156984492
 20
4.8081872746
 11
-61.2157201636
 21
4.8082728193
  0
LINE
  5
27A
100
AcDbEntity
  8
0
100
AcDbLine
 62
7
  6
CONTINUOUS
 10
-57.1248905246
 20
-6.3876542402
 11
-57.064003415
 21
-6.7086770678
  0
LINE
  5
27B
100
AcDbEntity
  8
0
100
AcDbLine
 62
7
  6
CONTINUOUS
 10
-26.1406408423
 20
37.410173404
 11
-26.3057387823
 21
38.4198621949
  0
LINE
  5
27C
100
AcDbEntity
  8
0
100
AcDbLine
 62
7
  6
CONTINUOUS
 10
-61.2525957973
 20
5.0884069072
 11
-61.2157150151
 21
4.808162055
  0
LINE
  5
27D
100
AcDbEntity
  8
0
100
AcDbLine
 62
7
  6
CONTINUOUS
 10
37.095451936
 20
-18.9463249572
 11
37.9399838995
 21
-19.4341036158
  0
LINE
  5
27E
100
AcDbEntity
  8
0
100
AcDbLine
 62
7
  6
CONTINUOUS
 10
-38.3305175445
 20
39.7644178142
 11
-38.5098689587
 21
39.932324697
  0
LINE
  5
27F
100
AcDbEntity
  8
0
100
AcDbLine
 62
7
  6
CONTINUOUS
 10
-26.3498581353
 20
40.4731483677
 11
-26.5025478045
 21
40.6786150231
  0
LINE
  5
280
100
AcDbEntity
  8
0
100
AcDbLine
 62
7
  6
CONTINUOUS
 10
-0.5042073502
 20
14.6810548187
 11
-0.8955408398
 21
16.3126302322
  0
LINE
  5
281
100
AcDbEntity
  8
0
100
AcDbLine
 62
7
  6
CONTINUOUS
 10
-5.8431152499
 20
-7.8597507778
 11
-5.8356452573
 21
-7.8437290395
  0
LINE
  5
282
100
AcDbEntity
  8
0
100
AcDbLine
 62
7
  6
CONTINUOUS
 10
35.5891393987
 20
-15.7996255457
 11
49.0300198931
 21
-23.5627120236
  0
LINE
  5
283
100
AcDbEntity
  8
0
100
AcDbLine
 62
7
  6
CONTINUOUS
 10
0.915435302
 20
14.4561264725
 11
1.0572866261
 21
13.7791784309
  0
LINE
  5
284
100
AcDbEntity
  8
0
100
AcDbLine
 62
7
  6
CONTINUOUS
 10
51.3335601323
 20
-19.1382194629
 11
51.5307423567
 21
-19.2330021994
  0
LINE
  5
285
100
AcDbEntity
  8
0
100
AcDbLine
 62
7
  6
CONTINUOUS
 10
-13.5020658629
 20
31.0052218553
 11
-13.8988567076
 21
31.5128654171
  0
LINE
  5
286
100
AcDbEntity
  8
0
100
AcDbLine
 62
7
  6
CONTINUOUS
 10
-2.7526104531
 20
-2.505813124
 11
-2.7446849088
 21
-2.4945023033
  0
LINE
  5
287
100
AcDbEntity
  8
0
100
AcDbLine
 62
7
  6
CONTINUOUS
 10
-13.8988567076
 20
31.5128654171
 11
-15.3127000953
 21
33.2372244119
  0
LINE
  5
288
100
AcDbEntity
  8
0
100
AcDbLine
 62
7
  6
CONTINUOUS
 10
40.229416425
 20
-12.7056641619
 11
51.5307423567
 21
-19.2330021994
  0
LINE
  5
289
100
AcDbEntity
  8
0
100
AcDbLine
 62
7
  6
CONTINUOUS
 10
5.1894985192
 20
14.8868571046
 11
5.0476471951
 21
15.5638051461
  0
LINE
  5
28A
100
AcDbEntity
  8
0
100
AcDbLine
 62
7
  6
CONTINUOUS
 10
-5.469326089
 20
26.7054326393
 11
-5.9415637678
 21
27.4189647225
  0
LINE
  5
28B
100
AcDbEntity
  8
0
100
AcDbLine
 62
7
  6
CONTINUOUS
 10
-15.3127000953
 20
33.2372244119
 11
-16.3636576581
 21
34.2963906044
  0
LINE
  5
28C
100
AcDbEntity
  8
0
100
AcDbLine
 62
7
  6
CONTINUOUS
 10
-5.7974864486
 20
29.8004121644
 11
-5.4129465522
 21
29.2586276929
  0
LINE
  5
28D
100
AcDbEntity
  8
0
100
AcDbLine
 62
7
  6
CONTINUOUS
 10
-6.8402624327
 20
18.3405876571
 11
-5.4273325357
 21
17.5245178338
  0
LINE
  5
28E
100
AcDbEntity
  8
0
100
AcDbLine
 62
7
  6
CONTINUOUS
 10
-0.5042073502
 20
14.6810548187
 11
1.0572866261
 21
13.7791784309
  0
LINE
  5
28F
100
AcDbEntity
  8
0
100
AcDbLine
 62
7
  6
CONTINUOUS
 10
-49.3617741789
 20
31.9920922057
 11
-49.8948559296
 21
32.1915634069
  0
LINE
  5
290
100
AcDbEntity
  8
0
100
AcDbLine
 62
7
  6
CONTINUOUS
 10
-50.054695803
 20
32.3973984588
 11
-49.4855142921
 21
32.1844193902
  0
LINE
  5
291
100
AcDbEntity
  8
0
100
AcDbLine
 62
7
  6
CONTINUOUS
 10
-1.2807346567
 20
30.3663063666
 11
-1.6652745556
 21
30.9080908355
  0
LINE
  5
292
100
AcDbEntity
  8
0
100
AcDbLine
 62
7
  6
CONTINUOUS
 10
-50.0547353432
 20
32.3974556139
 11
-50.1045335799
 21
32.4140842827
  0
LINE
  5
293
100
AcDbEntity
  8
0
100
AcDbLine
 62
7
  6
CONTINUOUS
 10
-17.9355059445
 20
29.1493077922
 11
-13.7194462994
 21
26.7142265765
  0
LINE
  5
294
100
AcDbEntity
  8
0
100
AcDbLine
 62
7
  6
CONTINUOUS
 10
-26.5025478045
 20
40.6786150231
 11
-26.7158263111
 21
40.8355967615
  0
LINE
  5
295
100
AcDbEntity
  8
0
100
AcDbLine
 62
7
  6
CONTINUOUS
 10
-16.3636576581
 20
34.2963906044
 11
-16.6903338298
 21
34.5414099798
  0
LINE
  5
296
100
AcDbEntity
  8
0
100
AcDbLine
 62
7
  6
CONTINUOUS
 10
3.6840287285
 20
20.2423700105
 11
19.4172857963
 21
11.1552692642
  0
LINE
  5
297
100
AcDbEntity
  8
0
100
AcDbLine
 62
7
  6
CONTINUOUS
 10
-25.4911885394
 20
39.1440516305
 11
-25.453530248
 21
39.1201965804
  0
LINE
  5
298
100
AcDbEntity
  8
0
100
AcDbLine
 62
7
  6
CONTINUOUS
 10
-16.6890430729
 20
34.5405438245
 11
-16.7120377488
 21
34.5557706953
  0
LINE
  5
299
100
AcDbEntity
  8
0
100
AcDbLine
 62
7
  6
CONTINUOUS
 10
-20.7478329385
 20
37.0470118647
 11
-16.7120377488
 21
34.5557706953
  0
LINE
  5
29A
100
AcDbEntity
  8
0
100
AcDbLine
 62
7
  6
CONTINUOUS
 10
5.0476471951
 20
15.5638051461
 11
0.915435302
 21
14.4561264725
  0
LINE
  5
29B
100
AcDbEntity
  8
0
100
AcDbLine
 62
7
  6
CONTINUOUS
 10
-38.5098689587
 20
39.932324697
 11
-38.7465737253
 21
40.0403869752
  0
LINE
  5
29C
100
AcDbEntity
  8
0
100
AcDbLine
 62
7
  6
CONTINUOUS
 10
38.261112038
 20
2.465730908
 11
58.8113898198
 21
-9.4035497984
  0
LINE
  5
29D
100
AcDbEntity
  8
0
100
AcDbLine
 62
7
  6
CONTINUOUS
 10
-25.4911885394
 20
39.1440516305
 11
-25.4528555478
 21
39.1216654497
  0
LINE
  5
29E
100
AcDbEntity
  8
0
100
AcDbLine
 62
7
  6
CONTINUOUS
 10
-20.6824722463
 20
37.0087095181
 11
-20.7725089598
 21
37.0613793518
  0
LINE
  5
29F
100
AcDbEntity
  8
0
100
AcDbLine
 62
7
  6
CONTINUOUS
 10
-7.4865503756
 20
30.7759694817
 11
-5.7974864486
 21
29.8004121644
  0
LINE
  5
2A0
100
AcDbEntity
  8
0
100
AcDbLine
 62
7
  6
CONTINUOUS
 10
42.3780313378
 20
-59.7286626608
 11
42.3780313378
 21
-61.6241093017
  0
LINE
  5
2A1
100
AcDbEntity
  8
0
100
AcDbLine
 62
7
  6
CONTINUOUS
 10
47.3366856089
 20
-60.2948948938
 11
47.3366856089
 21
-58.3994482529
  0
LINE
  5
2A2
100
AcDbEntity
  8
0
100
AcDbLine
 62
7
  6
CONTINUOUS
 10
39.3760631406
 20
-22.4263574256
 11
39.3785758915
 21
-22.2751813017
  0
LINE
  5
2A3
100
AcDbEntity
  8
0
100
AcDbLine
 62
7
  6
CONTINUOUS
 10
-35.7182697108
 20
39.8818164491
 11
-35.9665074973
 21
39.8137612562
  0
LINE
  5
2A4
100
AcDbEntity
  8
0
100
AcDbLine
 62
7
  6
CONTINUOUS
 10
-5.4129465522
 20
29.2586276929
 11
-1.2807346567
 21
30.3663063666
  0
LINE
  5
2A5
100
AcDbEntity
  8
0
100
AcDbLine
 62
7
  6
CONTINUOUS
 10
-1.6652745556
 20
30.9080908355
 11
-5.7974864486
 21
29.8004121644
  0
LINE
  5
2A6
100
AcDbEntity
  8
0
100
AcDbLine
 62
7
  6
CONTINUOUS
 10
-3.3543384825
 20
31.8836481554
 11
-7.4865503756
 21
30.7759694817
  0
LINE
  5
2A7
100
AcDbEntity
  8
0
100
AcDbLine
 62
7
  6
CONTINUOUS
 10
-57.4366796166
 20
19.9869603283
 11
-58.0522815578
 21
19.8219423779
  0
LINE
  5
2A8
100
AcDbEntity
  8
0
100
AcDbLine
 62
7
  6
CONTINUOUS
 10
-58.3521909885
 20
20.037373692
 11
-57.7183833864
 21
20.2072718612
  0
LINE
  5
2A9
100
AcDbEntity
  8
0
100
AcDbLine
 62
7
  6
CONTINUOUS
 10
-39.0309888918
 20
40.0705084059
 11
-39.3376944532
 21
40.0085371608
  0
LINE
  5
2AA
100
AcDbEntity
  8
0
100
AcDbLine
 62
7
  6
CONTINUOUS
 10
-50.3480957648
 20
32.4451863236
 11
-50.6044387523
 21
32.3991776882
  0
LINE
  5
2AB
100
AcDbEntity
  8
0
100
AcDbLine
 62
7
  6
CONTINUOUS
 10
-38.7465737253
 20
40.0403869752
 11
-39.0309888918
 21
40.0705084059
  0
LINE
  5
2AC
100
AcDbEntity
  8
0
100
AcDbLine
 62
7
  6
CONTINUOUS
 10
-26.9783714477
 20
40.9279698178
 11
-27.1377590309
 21
40.9461091058
  0
LINE
  5
2AD
100
AcDbEntity
  8
0
100
AcDbLine
 62
7
  6
CONTINUOUS
 10
-50.1045335799
 20
32.4140842827
 11
-50.3480957648
 21
32.4451863236
  0
LINE
  5
2AE
100
AcDbEntity
  8
0
100
AcDbLine
 62
7
  6
CONTINUOUS
 10
-25.4444024303
 20
39.1346145653
 11
-25.4958698179
 21
39.1475215422
  0
LINE
  5
2AF
100
AcDbEntity
  8
0
100
AcDbLine
 62
7
  6
CONTINUOUS
 10
-26.2462641108
 20
39.4918750623
 11
-26.2129459478
 21
39.4825554289
  0
LINE
  5
2B0
100
AcDbEntity
  8
0
100
AcDbLine
 62
7
  6
CONTINUOUS
 10
-27.0459797529
 20
40.9186539614
 11
-27.1377690258
 21
40.9460852603
  0
LINE
  5
2B1
100
AcDbEntity
  8
0
100
AcDbLine
 62
7
  6
CONTINUOUS
 10
-25.4459638013
 20
39.1296831172
 11
-25.4910438915
 21
39.1439441275
  0
LINE
  5
2B2
100
AcDbEntity
  8
0
100
AcDbLine
 62
7
  6
CONTINUOUS
 10
-25.4460615634
 20
39.1294505522
 11
-25.4910438915
 21
39.1439441275
  0
LINE
  5
2B3
100
AcDbEntity
  8
0
100
AcDbLine
 62
7
  6
CONTINUOUS
 10
-26.2332527729
 20
39.4722475171
 11
-26.2081257568
 21
39.4636608769
  0
LINE
  5
2B4
100
AcDbEntity
  8
0
100
AcDbLine
 62
7
  6
CONTINUOUS
 10
-26.7158263111
 20
40.8355967615
 11
-26.9783714477
 21
40.9279698178
  0
LINE
  5
2B5
100
AcDbEntity
  8
0
100
AcDbLine
 62
7
  6
CONTINUOUS
 10
-26.2462641108
 20
39.4423172163
 11
-26.2213077142
 21
39.4334166245
  0
LINE
  5
2B6
100
AcDbEntity
  8
0
100
AcDbLine
 62
7
  6
CONTINUOUS
 10
-26.2406234033
 20
39.5058101399
 11
-26.2082431658
 21
39.4941267647
  0
LINE
  5
2B7
100
AcDbEntity
  8
0
100
AcDbLine
 62
7
  6
CONTINUOUS
 10
-23.2015500072
 20
38.2895595167
 11
-23.2682276564
 21
38.3183689791
  0
LINE
  5
2B8
100
AcDbEntity
  8
0
100
AcDbLine
 62
7
  6
CONTINUOUS
 10
-23.2185670141
 20
38.254928128
 11
-23.284926226
 21
38.2842295325
  0
LINE
  5
2B9
100
AcDbEntity
  8
0
100
AcDbLine
 62
7
  6
CONTINUOUS
 10
35.0258788387
 20
7.9142300669
 11
39.8115599658
 21
5.1501509976
  0
LINE
  5
2BA
100
AcDbEntity
  8
0
100
AcDbLine
 62
7
  6
CONTINUOUS
 10
-3.3543384825
 20
31.8836481554
 11
-1.6652745556
 21
30.9080908355
  0
ARC
  5
2BB
100
AcDbEntity
  8
0
100
AcDbCircle
 62
7
  6
CONTINUOUS
 10
-620.9131389708
 20
-432.4139105222
 40
763.9071294547
100
AcDbArc
 50
37.21142804
 51
37.3417107773
  0
ARC
  5
2BC
100
AcDbEntity
  8
0
100
AcDbCircle
 62
7
  6
CONTINUOUS
 10
-161.2087969106
 20
-81.887371089
 40
185.8095344508
100
AcDbArc
 50
37.3915974717
 51
37.5863366587
  0
ARC
  5
2BD
100
AcDbEntity
  8
0
100
AcDbCircle
 62
7
  6
CONTINUOUS
 10
-66.5165203545
 20
-36.8964651122
 40
86.5807902823
100
AcDbArc
 50
46.8588001899
 51
53.1601504767
  0
ARC
  5
2BE
100
AcDbEntity
  8
0
100
AcDbCircle
 62
7
  6
CONTINUOUS
 10
-56.4895783129
 20
-6.8975375206
 40
0.3602168716
100
AcDbArc
 50
220.4999755462
 51
225.9147558932
  0
ARC
  5
2BF
100
AcDbEntity
  8
0
100
AcDbCircle
 62
7
  6
CONTINUOUS
 10
-8.6767308146
 20
0.9611193071
 40
52.502990211
100
AcDbArc
 50
143.9564687315
 51
154.7806025874
  0
ARC
  5
2C0
100
AcDbEntity
  8
0
100
AcDbCircle
 62
7
  6
CONTINUOUS
 10
-8.9062144831
 20
1.0925198673
 40
52.3593979785
100
AcDbArc
 50
143.9294065123
 51
154.7992988592
  0
ARC
  5
2C1
100
AcDbEntity
  8
0
100
AcDbCircle
 62
7
  6
CONTINUOUS
 10
-9.0424012923
 20
1.136298464
 40
52.097533153
100
AcDbArc
 50
154.7835441191
 51
155.5105399569
  0
ARC
  5
2C2
100
AcDbEntity
  8
0
100
AcDbCircle
 62
7
  6
CONTINUOUS
 10
-9.6310030386
 20
1.3849383503
 40
51.4581610179
100
AcDbArc
 50
155.9931795491
 51
157.2924888941
  0
ARC
  5
2C3
100
AcDbEntity
  8
0
100
AcDbCircle
 62
7
  6
CONTINUOUS
 10
-15.2082982874
 20
-1.436481506
 40
47.9467083888
100
AcDbArc
 50
132.8308868234
 51
134.1930454246
  0
ARC
  5
2C4
100
AcDbEntity
  8
0
100
AcDbCircle
 62
7
  6
CONTINUOUS
 10
-15.4794859975
 20
-1.1253377239
 40
47.5346564951
100
AcDbArc
 50
131.8908873236
 51
132.3176767907
  0
ARC
  5
2C5
100
AcDbEntity
  8
0
100
AcDbCircle
 62
7
  6
CONTINUOUS
 10
26.2808021099
 20
-22.8340186016
 40
35.4425586855
100
AcDbArc
 50
145.0015997905
 51
154.9792778373
  0
ARC
  5
2C6
100
AcDbEntity
  8
0
100
AcDbCircle
 62
7
  6
CONTINUOUS
 10
15.3479049511
 20
-15.902257629
 40
29.4081680441
100
AcDbArc
 50
342.4534733051
 51
350.3294006809
  0
ARC
  5
2C7
100
AcDbEntity
  8
0
100
AcDbCircle
 62
7
  6
CONTINUOUS
 10
-17.9948391227
 20
-0.0598151585
 40
26.7847505325
100
AcDbArc
 50
179.637177367
 51
179.9845860826
  0
ARC
  5
2C8
100
AcDbEntity
  8
0
100
AcDbCircle
 62
7
  6
CONTINUOUS
 10
-17.7091992393
 20
-0.1106557528
 40
25.7733052783
100
AcDbArc
 50
179.6524821678
 51
179.9998587289
  0
ARC
  5
2C9
100
AcDbEntity
  8
0
100
AcDbCircle
 62
7
  6
CONTINUOUS
 10
-19.080227084
 20
-0.1405991778
 40
24.4022958816
100
AcDbArc
 50
179.9295446105
 51
186.4412499489
  0
ARC
  5
2CA
100
AcDbEntity
  8
0
100
AcDbCircle
 62
7
  6
CONTINUOUS
 10
28.9456492821
 20
-13.8519606603
 40
22.2871159489
100
AcDbArc
 50
92.8258915374
 51
95.9867635363
  0
ARC
  5
2CB
100
AcDbEntity
  8
0
100
AcDbCircle
 62
7
  6
CONTINUOUS
 10
28.8936933103
 20
-12.7602923229
 40
21.1942137227
100
AcDbArc
 50
86.2864104536
 51
92.8311027618
  0
ARC
  5
2CC
100
AcDbEntity
  8
0
100
AcDbCircle
 62
7
  6
CONTINUOUS
 10
17.3146453636
 20
-10.9341458203
 40
21.0480210332
100
AcDbArc
 50
102.1432200969
 51
105.0099619805
  0
ARC
  5
2CD
100
AcDbEntity
  8
0
100
AcDbCircle
 62
7
  6
CONTINUOUS
 10
28.9499968985
 20
-11.6098147331
 40
20.0425134658
100
AcDbArc
 50
82.186889984
 51
86.2340105081
  0
ARC
  5
2CE
100
AcDbEntity
  8
0
100
AcDbCircle
 62
7
  6
CONTINUOUS
 10
29.0535556779
 20
-10.8446610411
 40
19.2703849136
100
AcDbArc
 50
75.8848168761
 51
82.1826700184
  0
ARC
  5
2CF
100
AcDbEntity
  8
0
100
AcDbCircle
 62
7
  6
CONTINUOUS
 10
29.2162661425
 20
-10.1541475098
 40
18.5610422632
100
AcDbArc
 50
71.3156856196
 51
75.8520986545
  0
ARC
  5
2D0
100
AcDbEntity
  8
0
100
AcDbCircle
 62
7
  6
CONTINUOUS
 10
29.3412873809
 20
-9.7796651904
 40
18.1662449578
100
AcDbArc
 50
64.6500238847
 51
71.3108461307
  0
ARC
  5
2D1
100
AcDbEntity
  8
0
100
AcDbCircle
 62
7
  6
CONTINUOUS
 10
16.3829289212
 20
-32.1685235826
 40
17.9664479507
100
AcDbArc
 50
232.902467397
 51
239.9829335088
  0
ARC
  5
2D2
100
AcDbEntity
  8
0
100
AcDbCircle
 62
7
  6
CONTINUOUS
 10
30.8380881668
 20
-10.3887994687
 40
17.9438224892
100
AcDbArc
 50
59.9943184104
 51
65.1783689949
  0
ARC
  5
2D3
100
AcDbEntity
  8
0
100
AcDbCircle
 62
7
  6
CONTINUOUS
 10
17.7782102327
 20
-33.0007262616
 40
17.9436699876
100
AcDbArc
 50
234.8033254051
 51
239.9861325105
  0
ARC
  5
2D4
100
AcDbEntity
  8
0
100
AcDbCircle
 62
7
  6
CONTINUOUS
 10
29.4423095563
 20
-9.5529943535
 40
17.9181490379
100
AcDbArc
 50
59.9903993636
 51
64.6316260053
  0
ARC
  5
2D5
100
AcDbEntity
  8
0
100
AcDbCircle
 62
7
  6
CONTINUOUS
 10
-28.3994047271
 20
-2.9381131281
 40
16.0285579987
100
AcDbArc
 50
253.1425317051
 51
254.538194303
  0
ARC
  5
2D6
100
AcDbEntity
  8
0
100
AcDbCircle
 62
7
  6
CONTINUOUS
 10
-28.5856771612
 20
-3.5420866852
 40
15.396518803
100
AcDbArc
 50
248.2147045248
 51
253.1543006843
  0
ARC
  5
2D7
100
AcDbEntity
  8
0
100
AcDbCircle
 62
7
  6
CONTINUOUS
 10
-28.6394664415
 20
-3.6789147148
 40
15.2495001105
100
AcDbArc
 50
246.7332644767
 51
248.2115739543
  0
ARC
  5
2D8
100
AcDbEntity
  8
0
100
AcDbCircle
 62
7
  6
CONTINUOUS
 10
-28.6615769408
 20
-3.7305939612
 40
15.1932897175
100
AcDbArc
 50
245.7682084443
 51
246.7328815126
  0
ARC
  5
2D9
100
AcDbEntity
  8
0
100
AcDbCircle
 62
7
  6
CONTINUOUS
 10
-28.0017476534
 20
-3.71082729
 40
14.5104308724
100
AcDbArc
 50
239.9915630273
 51
244.9115701957
  0
ARC
  5
2DA
100
AcDbEntity
  8
0
100
AcDbCircle
 62
7
  6
CONTINUOUS
 10
34.7637027362
 20
-22.2736319779
 40
4.6148882505
100
AcDbArc
 50
357.6307989209
 51
358.1035030072
  0
ARC
  5
2DB
100
AcDbEntity
  8
0
100
AcDbCircle
 62
7
  6
CONTINUOUS
 10
34.6405152304
 20
-23.3566266776
 40
4.0988876036
100
AcDbArc
 50
292.5922762937
 51
294.0857270636
  0
ARC
  5
2DC
100
AcDbEntity
  8
0
100
AcDbCircle
 62
7
  6
CONTINUOUS
 10
44.4933005413
 20
-46.8669760906
 40
2.3684875998
100
AcDbArc
 50
210.0653231457
 51
211.5491503039
  0
ARC
  5
2DD
100
AcDbEntity
  8
0
100
AcDbCircle
 62
7
  6
CONTINUOUS
 10
54.028813995
 20
-34.3470726011
 40
2.0418044
100
AcDbArc
 50
240.0019366732
 51
249.2338621197
  0
ARC
  5
2DE
100
AcDbEntity
  8
0
100
AcDbCircle
 62
7
  6
CONTINUOUS
 10
50.0505017713
 20
-21.7951956247
 40
2.0409550418
100
AcDbArc
 50
239.9998587274
 51
248.6399454717
  0
ARC
  5
2DF
100
AcDbEntity
  8
0
100
AcDbCircle
 62
7
  6
CONTINUOUS
 10
33.1969588313
 20
-39.9365016051
 40
2.0350376012
100
AcDbArc
 50
239.9904472704
 51
240.7848939951
  0
ARC
  5
2E0
100
AcDbEntity
  8
0
100
AcDbCircle
 62
7
  6
CONTINUOUS
 10
-47.1334277695
 20
-13.0669924182
 40
0.3517956337
100
AcDbArc
 50
248.1761883548
 51
253.762295142
  0
ARC
  5
2E1
100
AcDbEntity
  8
0
100
AcDbCircle
 62
7
  6
CONTINUOUS
 10
-33.7436378918
 20
8.6073084038
 40
33.5705050407
100
AcDbArc
 50
28.5037459571
 51
32.6229298772
  0
ARC
  5
2E2
100
AcDbEntity
  8
0
100
AcDbCircle
 62
7
  6
CONTINUOUS
 10
-32.4361150077
 20
7.7053002358
 40
28.0480245998
100
AcDbArc
 50
179.9907706181
 51
182.5210736934
  0
ARC
  5
2E3
100
AcDbEntity
  8
0
100
AcDbCircle
 62
7
  6
CONTINUOUS
 10
-33.8080247556
 20
11.0661438189
 40
28.0117431788
100
AcDbArc
 50
211.4511737806
 51
211.8316305284
  0
ARC
  5
2E4
100
AcDbEntity
  8
0
100
AcDbCircle
 62
7
  6
CONTINUOUS
 10
-32.8969509847
 20
7.6868636052
 40
27.5868237569
100
AcDbArc
 50
182.5249200191
 51
182.7027477155
  0
ARC
  5
2E5
100
AcDbEntity
  8
0
100
AcDbCircle
 62
7
  6
CONTINUOUS
 10
-33.6897267702
 20
8.5766828669
 40
27.4886504353
100
AcDbArc
 50
179.957788476
 51
185.4330431682
  0
ARC
  5
2E6
100
AcDbEntity
  8
0
100
AcDbCircle
 62
7
  6
CONTINUOUS
 10
-34.6811596616
 20
10.5388273754
 40
26.9920667447
100
AcDbArc
 50
210.7967301609
 51
211.0889514164
  0
ARC
  5
2E7
100
AcDbEntity
  8
0
100
AcDbCircle
 62
7
  6
CONTINUOUS
 10
-34.5054792459
 20
8.5062360812
 40
26.6698935791
100
AcDbArc
 50
185.4483116529
 51
185.739803553
  0
ARC
  5
2E8
100
AcDbEntity
  8
0
100
AcDbCircle
 62
7
  6
CONTINUOUS
 10
-35.0988482852
 20
10.2748056657
 40
26.4976872839
100
AcDbArc
 50
211.8499889923
 51
212.5239442558
  0
ARC
  5
2E9
100
AcDbEntity
  8
0
100
AcDbCircle
 62
7
  6
CONTINUOUS
 10
-35.1906093768
 20
10.2162560902
 40
26.3888380782
100
AcDbArc
 50
212.5238758089
 51
213.8731847683
  0
ARC
  5
2EA
100
AcDbEntity
  8
0
100
AcDbCircle
 62
7
  6
CONTINUOUS
 10
-33.5158769655
 20
14.0668924148
 40
26.3319432923
100
AcDbArc
 50
69.5474990762
 51
70.2995934991
  0
ARC
  5
2EB
100
AcDbEntity
  8
0
100
AcDbCircle
 62
7
  6
CONTINUOUS
 10
-32.6360129036
 20
16.4797097101
 40
23.7637981289
100
AcDbArc
 50
71.9920407028
 51
72.3883842179
  0
ARC
  5
2EC
100
AcDbEntity
  8
0
100
AcDbCircle
 62
7
  6
CONTINUOUS
 10
-32.2299164158
 20
16.8995794469
 40
23.7517250111
100
AcDbArc
 50
104.8375600257
 51
105.0474403731
  0
ARC
  5
2ED
100
AcDbEntity
  8
0
100
AcDbCircle
 62
7
  6
CONTINUOUS
 10
-32.6431635446
 20
16.588048678
 40
23.6679055318
100
AcDbArc
 50
66.6648963726
 51
72.2925306547
  0
ARC
  5
2EE
100
AcDbEntity
  8
0
100
AcDbCircle
 62
7
  6
CONTINUOUS
 10
-32.5903688419
 20
16.6182641955
 40
23.6179201174
100
AcDbArc
 50
70.3269194777
 51
71.9934335082
  0
ARC
  5
2EF
100
AcDbEntity
  8
0
100
AcDbCircle
 62
7
  6
CONTINUOUS
 10
-41.5323685017
 20
10.7341176122
 40
23.4842526707
100
AcDbArc
 50
229.5398128191
 51
240.153896061
  0
ARC
  5
2F0
100
AcDbEntity
  8
0
100
AcDbCircle
 62
7
  6
CONTINUOUS
 10
-32.5297761666
 20
16.7826832291
 40
23.4427894085
100
AcDbArc
 50
69.1651013223
 51
69.4862955854
  0
ARC
  5
2F1
100
AcDbEntity
  8
0
100
AcDbCircle
 62
7
  6
CONTINUOUS
 10
-32.5273950969
 20
16.8573385027
 40
23.3747857497
100
AcDbArc
 50
59.8087840907
 51
66.6639922406
  0
ARC
  5
2F2
100
AcDbEntity
  8
0
100
AcDbCircle
 62
7
  6
CONTINUOUS
 10
-32.5029900987
 20
16.8519151607
 40
23.3685574411
100
AcDbArc
 50
66.722863617
 51
69.1661074309
  0
ARC
  5
2F3
100
AcDbEntity
  8
0
100
AcDbCircle
 62
7
  6
CONTINUOUS
 10
-41.633448071
 20
10.5565433014
 40
23.2799327187
100
AcDbArc
 50
229.5405389789
 51
240.1521738274
  0
ARC
  5
2F4
100
AcDbEntity
  8
0
100
AcDbCircle
 62
7
  6
CONTINUOUS
 10
-32.4404161827
 20
16.9963812751
 40
23.2111199175
100
AcDbArc
 50
63.2163730074
 51
66.5445303168
  0
ARC
  5
2F5
100
AcDbEntity
  8
0
100
AcDbCircle
 62
7
  6
CONTINUOUS
 10
-32.3918418603
 20
17.0947103216
 40
23.101451478
100
AcDbArc
 50
59.8033126447
 51
63.214026094
  0
ARC
  5
2F6
100
AcDbEntity
  8
0
100
AcDbCircle
 62
7
  6
CONTINUOUS
 10
-31.3779173806
 20
17.3757257209
 40
23.0642811713
100
AcDbArc
 50
102.0752260432
 51
106.9969988659
  0
ARC
  5
2F7
100
AcDbEntity
  8
0
100
AcDbCircle
 62
7
  6
CONTINUOUS
 10
-31.6951684302
 20
18.8021474147
 40
21.6030564585
100
AcDbArc
 50
97.4924354824
 51
102.0438501442
  0
ARC
  5
2F8
100
AcDbEntity
  8
0
100
AcDbCircle
 62
7
  6
CONTINUOUS
 10
-41.1529532941
 20
6.316704156
 40
19.5990176548
100
AcDbArc
 50
212.6902627184
 51
216.6259944336
  0
ARC
  5
2F9
100
AcDbEntity
  8
0
100
AcDbCircle
 62
7
  6
CONTINUOUS
 10
-40.6539698978
 20
5.744368557
 40
19.5285329571
100
AcDbArc
 50
204.6375049468
 51
210.4293873072
  0
ARC
  5
2FA
100
AcDbEntity
  8
0
100
AcDbCircle
 62
7
  6
CONTINUOUS
 10
-41.3430431628
 20
6.1772649886
 40
19.3632738007
100
AcDbArc
 50
216.6304301493
 51
216.8517435847
  0
ARC
  5
2FB
100
AcDbEntity
  8
0
100
AcDbCircle
 62
7
  6
CONTINUOUS
 10
-41.4817094006
 20
5.2555358821
 40
18.5672293298
100
AcDbArc
 50
210.4223896067
 51
214.5811236754
  0
ARC
  5
2FC
100
AcDbEntity
  8
0
100
AcDbCircle
 62
7
  6
CONTINUOUS
 10
-32.3477915039
 20
22.5282714026
 40
18.0425691599
100
AcDbArc
 50
67.4212567323
 51
70.1059885521
  0
ARC
  5
2FD
100
AcDbEntity
  8
0
100
AcDbCircle
 62
7
  6
CONTINUOUS
 10
-32.3307609944
 20
22.5701862718
 40
17.9973280464
100
AcDbArc
 50
66.9492224521
 51
67.4200846564
  0
ARC
  5
2FE
100
AcDbEntity
  8
0
100
AcDbCircle
 62
7
  6
CONTINUOUS
 10
-31.5470061509
 20
23.8792171335
 40
16.4735706698
100
AcDbArc
 50
68.1951382646
 51
71.0896918005
  0
ARC
  5
2FF
100
AcDbEntity
  8
0
100
AcDbCircle
 62
7
  6
CONTINUOUS
 10
-31.4905490858
 20
24.0216282609
 40
16.3203776665
100
AcDbArc
 50
66.0421329285
 51
68.1934519926
  0
ARC
  5
300
100
AcDbEntity
  8
0
100
AcDbCircle
 62
7
  6
CONTINUOUS
 10
-38.8539675923
 20
39.2539098918
 40
0.690525035
100
AcDbArc
 50
37.2454182611
 51
47.7317144589
  0
ARC
  5
301
100
AcDbEntity
  8
0
100
AcDbCircle
 62
7
  6
CONTINUOUS
 10
-38.8312643535
 20
39.2717716392
 40
0.6616418136
100
AcDbArc
 50
29.1235496872
 51
37.2040110695
  0
ARC
  5
302
100
AcDbEntity
  8
0
100
AcDbCircle
 62
7
  6
CONTINUOUS
 10
-20.3934598601
 20
9.0178146821
 40
39.8344108517
100
AcDbArc
 50
180.5739022345
 51
182.1152225234
  0
ARC
  5
303
100
AcDbEntity
  8
0
100
AcDbCircle
 62
7
  6
CONTINUOUS
 10
-23.8689973058
 20
6.1308236286
 40
36.8347253271
100
AcDbArc
 50
149.0524113675
 51
151.9708114161
  0
ARC
  5
304
100
AcDbEntity
  8
0
100
AcDbCircle
 62
7
  6
CONTINUOUS
 10
-24.1460556493
 20
6.2715490317
 40
36.5240342467
100
AcDbArc
 50
151.9614365643
 51
157.4528460221
  0
ARC
  5
305
100
AcDbEntity
  8
0
100
AcDbCircle
 62
7
  6
CONTINUOUS
 10
-24.4981882775
 20
6.4210859056
 40
36.1414782986
100
AcDbArc
 50
157.4577349795
 51
157.6616389504
  0
ARC
  5
306
100
AcDbEntity
  8
0
100
AcDbCircle
 62
7
  6
CONTINUOUS
 10
-25.9920752593
 20
7.9388104952
 40
34.0404705854
100
AcDbArc
 50
134.0820333299
 51
134.3028071697
  0
ARC
  5
307
100
AcDbEntity
  8
0
100
AcDbCircle
 62
7
  6
CONTINUOUS
 10
-26.9669662483
 20
7.2149032918
 40
33.8182980554
100
AcDbArc
 50
105.4331901953
 51
105.6537673313
  0
ARC
  5
308
100
AcDbEntity
  8
0
100
AcDbCircle
 62
7
  6
CONTINUOUS
 10
-27.0745121063
 20
7.6344964785
 40
33.3852506614
100
AcDbArc
 50
105.6703443957
 51
107.4053467184
  0
ARC
  5
309
100
AcDbEntity
  8
0
100
AcDbCircle
 62
7
  6
CONTINUOUS
 10
-26.5284580499
 20
8.5028078204
 40
33.2621721242
100
AcDbArc
 50
128.7708315267
 51
134.0941916266
  0
ARC
  5
30A
100
AcDbEntity
  8
0
100
AcDbCircle
 62
7
  6
CONTINUOUS
 10
-27.596023456
 20
9.8010555109
 40
31.5814734359
100
AcDbArc
 50
125.4973609367
 51
128.7357028973
  0
ARC
  5
30B
100
AcDbEntity
  8
0
100
AcDbCircle
 62
7
  6
CONTINUOUS
 10
-30.6997480994
 20
7.6965672662
 40
29.7843940938
100
AcDbArc
 50
173.1818826931
 51
179.9745091957
  0
ARC
  5
30C
100
AcDbEntity
  8
0
100
AcDbCircle
 62
7
  6
CONTINUOUS
 10
-27.9644436107
 20
14.1955199909
 40
26.7389129356
100
AcDbArc
 50
88.0315409015
 51
88.2249868578
  0
ARC
  5
30D
100
AcDbEntity
  8
0
100
AcDbCircle
 62
7
  6
CONTINUOUS
 10
-20.6605774717
 20
39.0762856674
 40
5.6812662905
100
AcDbArc
 50
177.0409389429
 51
180.0146420918
  0
ARC
  5
30E
100
AcDbEntity
  8
0
100
AcDbCircle
 62
7
  6
CONTINUOUS
 10
-21.319163457
 20
39.1056126649
 40
5.022046692
100
AcDbArc
 50
175.7735843896
 51
176.9872044171
  0
ARC
  5
30F
100
AcDbEntity
  8
0
100
AcDbCircle
 62
7
  6
CONTINUOUS
 10
-24.7635552474
 20
38.861833183
 40
1.5759558956
100
AcDbArc
 50
172.2288941315
 51
173.1643480069
  0
ARC
  5
310
100
AcDbEntity
  8
0
100
AcDbCircle
 62
7
  6
CONTINUOUS
 10
-27.125248487
 20
40.0494416383
 40
0.8783494803
100
AcDbArc
 50
359.7179035975
 51
0.3950353459
  0
ARC
  5
311
100
AcDbEntity
  8
0
100
AcDbCircle
 62
7
  6
CONTINUOUS
 10
-27.1180564465
 20
40.0496961768
 40
0.8711558802
100
AcDbArc
 50
0.3815559608
 51
14.8745710643
  0
ARC
  5
312
100
AcDbEntity
  8
0
100
AcDbCircle
 62
7
  6
CONTINUOUS
 10
-27.0942899281
 20
40.0549764787
 40
0.8468308895
100
AcDbArc
 50
14.9420676451
 51
18.0488797162
  0
ARC
  5
313
100
AcDbEntity
  8
0
100
AcDbCircle
 62
7
  6
CONTINUOUS
 10
0.8769731895
 20
32.2841032676
 40
68.6719311014
100
AcDbArc
 50
211.3065817341
 51
211.4537373044
  0
ARC
  5
314
100
AcDbEntity
  8
0
100
AcDbCircle
 62
7
  6
CONTINUOUS
 10
-14.6646641346
 20
41.6658643161
 40
59.5707573302
100
AcDbArc
 50
238.0894490342
 51
242.602513669
  0
ARC
  5
315
100
AcDbEntity
  8
0
100
AcDbCircle
 62
7
  6
CONTINUOUS
 10
-16.2282744821
 20
36.8457392802
 40
46.7091384053
100
AcDbArc
 50
226.3680328265
 51
232.0181500971
  0
ARC
  5
316
100
AcDbEntity
  8
0
100
AcDbCircle
 62
7
  6
CONTINUOUS
 10
-19.3055046777
 20
9.0385952095
 40
40.9229826802
100
AcDbArc
 50
179.6944421496
 51
180.0054543231
  0
ARC
  5
317
100
AcDbEntity
  8
0
100
AcDbCircle
 62
7
  6
CONTINUOUS
 10
-19.5491633445
 20
4.5770576556
 40
40.5147135272
100
AcDbArc
 50
119.3260489651
 51
119.4781088896
  0
ARC
  5
318
100
AcDbEntity
  8
0
100
AcDbCircle
 62
7
  6
CONTINUOUS
 10
-19.0462486328
 20
30.8046533817
 40
40.0500917666
100
AcDbArc
 50
204.3480133145
 51
205.1666817575
  0
ARC
  5
319
100
AcDbEntity
  8
0
100
AcDbCircle
 62
7
  6
CONTINUOUS
 10
-12.8326209763
 20
39.5854803615
 40
39.6314658093
100
AcDbArc
 50
216.2080003879
 51
222.4453156722
  0
ARC
  5
31A
100
AcDbEntity
  8
0
100
AcDbCircle
 62
7
  6
CONTINUOUS
 10
-18.2445651739
 20
14.621714531
 40
15.9811845374
100
AcDbArc
 50
46.5044917499
 51
46.8393472389
  0
ARC
  5
31B
100
AcDbEntity
  8
0
100
AcDbCircle
 62
7
  6
CONTINUOUS
 10
-17.4114490068
 20
14.6251960048
 40
14.5148968122
100
AcDbArc
 50
54.7377608089
 51
59.9890130563
  0
ARC
  5
31C
100
AcDbEntity
  8
0
100
AcDbCircle
 62
7
  6
CONTINUOUS
 10
-17.5476565398
 20
88.4822680643
 40
105.57082534
100
AcDbArc
 50
253.496945139
 51
253.8284865235
  0
ARC
  5
31D
100
AcDbEntity
  8
0
100
AcDbCircle
 62
7
  6
CONTINUOUS
 10
-4.0222617822
 20
73.4508890695
 40
96.1980107202
100
AcDbArc
 50
251.2840688691
 51
251.537578102
  0
ARC
  5
31E
100
AcDbEntity
  8
0
100
AcDbCircle
 62
7
  6
CONTINUOUS
 10
-5.9532039782
 20
73.0010774977
 40
95.1993186917
100
AcDbArc
 50
240.2485415675
 51
241.4244520889
  0
ARC
  5
31F
100
AcDbEntity
  8
0
100
AcDbCircle
 62
7
  6
CONTINUOUS
 10
-6.3132635375
 20
72.3235118373
 40
94.4320668911
100
AcDbArc
 50
241.4196639563
 51
250.0628384463
  0
ARC
  5
320
100
AcDbEntity
  8
0
100
AcDbCircle
 62
7
  6
CONTINUOUS
 10
-6.4185697556
 20
72.080230683
 40
94.1674614717
100
AcDbArc
 50
250.2407095246
 51
252.4846861474
  0
ARC
  5
321
100
AcDbEntity
  8
0
100
AcDbCircle
 62
7
  6
CONTINUOUS
 10
-6.6465969551
 20
71.3497842826
 40
93.4017329599
100
AcDbArc
 50
252.5326539246
 51
252.7734903483
  0
ARC
  5
322
100
AcDbEntity
  8
0
100
AcDbCircle
 62
7
  6
CONTINUOUS
 10
-6.7718026509
 20
70.9583854972
 40
92.9907987678
100
AcDbArc
 50
250.2133552822
 51
252.4856998998
  0
ARC
  5
323
100
AcDbEntity
  8
0
100
AcDbCircle
 62
7
  6
CONTINUOUS
 10
-7.215728113
 20
69.6983745298
 40
91.6549026258
100
AcDbArc
 50
250.0340955551
 51
250.2078409433
  0
ARC
  5
324
100
AcDbEntity
  8
0
100
AcDbCircle
 62
7
  6
CONTINUOUS
 10
-8.1041065674
 20
63.994293205
 40
85.9703912034
100
AcDbArc
 50
251.0800410306
 51
251.9895610418
  0
ARC
  5
325
100
AcDbEntity
  8
0
100
AcDbCircle
 62
7
  6
CONTINUOUS
 10
-8.1952600326
 20
63.7155834042
 40
85.6771543654
100
AcDbArc
 50
251.9899038411
 51
252.2534334801
  0
ARC
  5
326
100
AcDbEntity
  8
0
100
AcDbCircle
 62
7
  6
CONTINUOUS
 10
-8.2983029202
 20
63.391473707
 40
85.337059516
100
AcDbArc
 50
252.2529960722
 51
253.1409880781
  0
ARC
  5
327
100
AcDbEntity
  8
0
100
AcDbCircle
 62
7
  6
CONTINUOUS
 10
-10.8924315115
 20
53.3642105713
 40
74.9690440672
100
AcDbArc
 50
248.7165931378
 51
251.3311033569
  0
ARC
  5
328
100
AcDbEntity
  8
0
100
AcDbCircle
 62
7
  6
CONTINUOUS
 10
-15.1420420699
 20
52.9870670051
 40
73.135458565
100
AcDbArc
 50
238.718485353
 51
240.2479448697
  0
ARC
  5
329
100
AcDbEntity
  8
0
100
AcDbCircle
 62
7
  6
CONTINUOUS
 10
-11.9353584731
 20
50.6533363538
 40
72.0644992134
100
AcDbArc
 50
248.3930299516
 51
248.7068923218
  0
ARC
  5
32A
100
AcDbEntity
  8
0
100
AcDbCircle
 62
7
  6
CONTINUOUS
 10
-13.3956739853
 20
49.9059921487
 40
70.921442551
100
AcDbArc
 50
252.5323712105
 51
252.8288760431
  0
ARC
  5
32B
100
AcDbEntity
  8
0
100
AcDbCircle
 62
7
  6
CONTINUOUS
 10
-17.6533190412
 20
48.8859626546
 40
68.3265339613
100
AcDbArc
 50
235.1032205034
 51
238.5975392184
  0
SPLINE
  5
32C
100
AcDbEntity
  8
0
100
AcDbSpline
 62
7
  6
CONTINUOUS
 70
0
 71
3
 72
21
 73
17
 74
0
 42
0.0000001
 43
0.0000001
 44
0.0000000001
 40
0.0
 40
0.0
 40
0.0
 40
0.0
 40
0.0616918667
 40
0.1234680948
 40
0.1854397963
 40
0.247731766
 40
0.3104885528
 40
0.3737527771
 40
0.5008724709
 40
0.6275619927
 40
0.6904299574
 40
0.7528144342
 40
0.8148319644
 40
0.8766352287
 40
0.9383329234
 40
1.0
 40
1.0
 40
1.0
 40
1.0
 10
53.3049197989
 20
-36.2562458237
 30
0.0
 10
53.4415918421
 20
-36.308057625
 30
0.0
 10
53.7272065642
 20
-36.3824933156
 30
0.0
 10
54.169111276
 20
-36.402099347
 30
0.0
 10
54.6072793583
 20
-36.3323072971
 30
0.0
 10
55.0258779242
 20
-36.1793927516
 30
0.0
 10
55.412477593
 20
-35.9519355661
 30
0.0
 10
55.8718038524
 20
-35.5625297333
 30
0.0
 10
56.3179527873
 20
-34.9412518928
 30
0.0
 10
56.5478096225
 20
-34.212102551
 30
0.0
 10
56.5789906371
 20
-33.6133551862
 30
0.0
 10
56.5226593528
 20
-33.1706559039
 30
0.0
 10
56.3846268018
 20
-32.7487188433
 30
0.0
 10
56.166141694
 20
-32.3637363138
 30
0.0
 10
55.8732582919
 20
-32.0329056648
 30
0.0
 10
55.635212103
 20
-31.8587251572
 30
0.0
 10
55.5086940274
 20
-31.7856517651
 30
0.0
  0
SPLINE
  5
32D
100
AcDbEntity
  8
0
100
AcDbSpline
 62
7
  6
CONTINUOUS
 70
0
 71
3
 72
20
 73
16
 74
0
 42
0.0000001
 43
0.0000001
 44
0.0000000001
 40
0.0
 40
0.0
 40
0.0
 40
0.0
 40
0.0537891685
 40
0.1081603332
 40
0.1644286188
 40
0.2235774147
 40
0.2860194303
 40
0.3516563071
 40
0.489587329
 40
0.6303258375
 40
0.7650798988
 40
0.8283673827
 40
0.8883308821
 40
0.9452820333
 40
1.0
 40
1.0
 40
1.0
 40
1.0
 10
54.5894065467
 20
-35.4024162588
 30
0.0
 10
54.5383381195
 20
-35.3830546287
 30
0.0
 10
54.4401798373
 20
-35.3306321021
 30
0.0
 10
54.3168524512
 20
-35.2155250603
 30
0.0
 10
54.2226231756
 20
-35.0692037908
 30
0.0
 10
54.1607704875
 20
-34.8980886086
 30
0.0
 10
54.1331483076
 20
-34.7088054972
 30
0.0
 10
54.1429285268
 20
-34.4376904539
 30
0.0
 10
54.2431295507
 20
-34.0962239283
 30
0.0
 10
54.4752918118
 20
-33.7399620399
 30
0.0
 10
54.7450420774
 20
-33.5156774745
 30
0.0
 10
54.9848501856
 20
-33.406874705
 30
0.0
 10
55.1643233598
 20
-33.3648434353
 30
0.0
 10
55.3400537983
 20
-33.3630065022
 30
0.0
 10
55.4517680021
 20
-33.38942252
 30
0.0
 10
55.503718711
 20
-33.4091172583
 30
0.0
  0
SPLINE
  5
32E
100
AcDbEntity
  8
0
100
AcDbSpline
 62
7
  6
CONTINUOUS
 70
0
 71
3
 72
19
 73
15
 74
0
 42
0.0000001
 43
0.0000001
 44
0.0000000001
 40
0.0
 40
0.0
 40
0.0
 40
0.0
 40
0.0536844493
 40
0.1086926783
 40
0.1661005408
 40
0.2265242823
 40
0.3561067998
 40
0.4944751648
 40
0.6341892135
 40
0.7672764803
 40
0.8297752722
 40
0.8891129015
 40
0.9455948218
 40
1.0
 40
1.0
 40
1.0
 40
1.0
 10
53.0079802734
 20
-36.1153465068
 30
0.0
 10
52.904337387
 20
-36.0554965376
 30
0.0
 10
52.7089461496
 20
-35.9072503672
 30
0.0
 10
52.4749343672
 20
-35.6160447063
 30
0.0
 10
52.3058163946
 20
-35.2663913111
 30
0.0
 10
52.1710228389
 20
-34.7282205739
 30
0.0
 10
52.1967391375
 20
-33.981250366
 30
0.0
 10
52.5024580841
 20
-33.1125868125
 30
0.0
 10
53.0397479468
 20
-32.355422909
 30
0.0
 10
53.6407281469
 20
-31.887751726
 30
0.0
 10
54.1667887178
 20
-31.6653061435
 30
0.0
 10
54.5583939849
 20
-31.5822285372
 30
0.0
 10
54.9408742156
 20
-31.583563391
 30
0.0
 10
55.1839067953
 20
-31.642408206
 30
0.0
 10
55.2973193549
 20
-31.6854040611
 30
0.0
  0
SPLINE
  5
32F
100
AcDbEntity
  8
0
100
AcDbSpline
 62
7
  6
CONTINUOUS
 70
0
 71
3
 72
20
 73
16
 74
0
 42
0.0000001
 43
0.0000001
 44
0.0000000001
 40
0.0
 40
0.0
 40
0.0
 40
0.0
 40
0.0537891685
 40
0.1081603332
 40
0.1644286188
 40
0.2235774147
 40
0.2860194303
 40
0.3516563071
 40
0.489587329
 40
0.6303258375
 40
0.7650798988
 40
0.8283673827
 40
0.8883308821
 40
0.9452820333
 40
1.0
 40
1.0
 40
1.0
 40
1.0
 10
55.503718711
 20
-33.4091172583
 30
0.0
 10
55.5547871382
 20
-33.4284788884
 30
0.0
 10
55.6529454204
 20
-33.4809014125
 30
0.0
 10
55.7762728064
 20
-33.5960084568
 30
0.0
 10
55.870502082
 20
-33.7423297237
 30
0.0
 10
55.9323547701
 20
-33.9134449086
 30
0.0
 10
55.9599769501
 20
-34.10272802
 30
0.0
 10
55.9501967309
 20
-34.3738430607
 30
0.0
 10
55.849995707
 20
-34.7153095888
 30
0.0
 10
55.6178334434
 20
-35.0715714772
 30
0.0
 10
55.3480831802
 20
-35.2958560426
 30
0.0
 10
55.1082750721
 20
-35.4046588095
 30
0.0
 10
54.9288018979
 20
-35.4466900818
 30
0.0
 10
54.7530714594
 20
-35.4485270124
 30
0.0
 10
54.6413572556
 20
-35.4221109971
 30
0.0
 10
54.5894065467
 20
-35.4024162588
 30
0.0
  0
SPLINE
  5
330
100
AcDbEntity
  8
0
100
AcDbSpline
 62
7
  6
CONTINUOUS
 70
0
 71
3
 72
21
 73
17
 74
0
 42
0.0000001
 43
0.0000001
 44
0.0000000001
 40
0.0
 40
0.0
 40
0.0
 40
0.0
 40
0.0616925373
 40
0.1234662891
 40
0.1854307999
 40
0.2477105733
 40
0.3104530335
 40
0.3737049515
 40
0.5008177744
 40
0.6275260606
 40
0.690405512
 40
0.7527988404
 40
0.8148222458
 40
0.8766294681
 40
0.9383301603
 40
1.0
 40
1.0
 40
1.0
 40
1.0
 10
49.3071653434
 20
-23.6959713684
 30
0.0
 10
49.4436972674
 20
-23.7493569564
 30
0.0
 10
49.7294148443
 20
-23.8268745966
 30
0.0
 10
50.1724403133
 20
-23.850552055
 30
0.0
 10
50.6124344168
 20
-23.7840980527
 30
0.0
 10
51.0332939739
 20
-23.6337117393
 30
0.0
 10
51.4223667492
 20
-23.4079899276
 30
0.0
 10
51.885075839
 20
-23.01991475
 30
0.0
 10
52.3352681162
 20
-22.3986391396
 30
0.0
 10
52.5683346198
 20
-21.6680045963
 30
0.0
 10
52.601351262
 20
-21.0674720763
 30
0.0
 10
52.5459585508
 20
-20.6232467443
 30
0.0
 10
52.4083748305
 20
-20.1997182517
 30
0.0
 10
52.1898183436
 20
-19.8132136425
 30
0.0
 10
51.8963599897
 20
-19.4810877586
 30
0.0
 10
51.6576410539
 20
-19.3062954285
 30
0.0
 10
51.5307423567
 20
-19.2330021994
 30
0.0
  0
SPLINE
  5
331
100
AcDbEntity
  8
0
100
AcDbSpline
 62
7
  6
CONTINUOUS
 70
0
 71
3
 72
20
 73
16
 74
0
 42
0.0000001
 43
0.0000001
 44
0.0000000001
 40
0.0
 40
0.0
 40
0.0
 40
0.0
 40
0.0537885551
 40
0.1082190498
 40
0.1645949597
 40
0.2238795433
 40
0.351700152
 40
0.4200840457
 40
0.4902078958
 40
0.6309253818
 40
0.7654938403
 40
0.828654927
 40
0.8884927513
 40
0.9453409532
 40
1.0
 40
1.0
 40
1.0
 40
1.0
 10
50.6052097348
 20
-22.8473630377
 30
0.0
 10
50.5543511065
 20
-22.8274749292
 30
0.0
 10
50.4567123077
 20
-22.7739864712
 30
0.0
 10
50.3344831135
 20
-22.6575138035
 30
0.0
 10
50.2415123037
 20
-22.5100263769
 30
0.0
 10
50.1588998375
 20
-22.2752686498
 30
0.0
 10
50.1503858185
 20
-22.0091374853
 30
0.0
 10
50.2064091888
 20
-21.7439724911
 30
0.0
 10
50.3071478113
 20
-21.4778631326
 30
0.0
 10
50.5031056718
 20
-21.1807346641
 30
0.0
 10
50.7739540328
 20
-20.9585831653
 30
0.0
 10
51.0141628133
 20
-20.8517587714
 30
0.0
 10
51.1936202471
 20
-20.8113278388
 30
0.0
 10
51.3690596829
 20
-20.8111443466
 30
0.0
 10
51.4803300064
 20
-20.8386625873
 30
0.0
 10
51.5320121814
 20
-20.858871348
 30
0.0
  0
SPLINE
  5
332
100
AcDbEntity
  8
0
100
AcDbSpline
 62
7
  6
CONTINUOUS
 70
0
 71
3
 72
19
 73
15
 74
0
 42
0.0000001
 43
0.0000001
 44
0.0000000001
 40
0.0
 40
0.0
 40
0.0
 40
0.0
 40
0.0537067705
 40
0.1087432158
 40
0.1661916786
 40
0.2266678832
 40
0.3563728023
 40
0.4948408226
 40
0.6345709332
 40
0.7675605416
 40
0.8299786277
 40
0.8892289096
 40
0.9456355985
 40
1.0
 40
1.0
 40
1.0
 40
1.0
 10
49.0300291158
 20
-23.5626960546
 30
0.0
 10
48.9261118611
 20
-23.5026836448
 30
0.0
 10
48.7302251104
 20
-23.3539647245
 30
0.0
 10
48.4958323915
 20
-23.0617037089
 30
0.0
 10
48.326719603
 20
-22.7107621501
 30
0.0
 10
48.1924870444
 20
-22.1706563393
 30
0.0
 10
48.2199548076
 20
-21.421397086
 30
0.0
 10
48.5288801207
 20
-20.5510524665
 30
0.0
 10
49.0699432321
 20
-19.793881893
 30
0.0
 10
49.6741652113
 20
-19.3279756493
 30
0.0
 10
50.2022098779
 20
-19.1083888063
 30
0.0
 10
50.5947803373
 20
-19.0280422715
 30
0.0
 10
50.9776758454
 20
-19.0326508373
 30
0.0
 10
51.2204308412
 20
-19.0939829804
 30
0.0
 10
51.3335601323
 20
-19.1382194629
 30
0.0
  0
SPLINE
  5
333
100
AcDbEntity
  8
0
100
AcDbSpline
 62
7
  6
CONTINUOUS
 70
0
 71
3
 72
20
 73
16
 74
0
 42
0.0000001
 43
0.0000001
 44
0.0000000001
 40
0.0
 40
0.0
 40
0.0
 40
0.0
 40
0.0537885551
 40
0.1082190498
 40
0.1645949597
 40
0.2238795433
 40
0.351700152
 40
0.4200840457
 40
0.4902078958
 40
0.6309253818
 40
0.7654938403
 40
0.828654927
 40
0.8884927513
 40
0.9453409532
 40
1.0
 40
1.0
 40
1.0
 40
1.0
 10
51.5320121814
 20
-20.858871348
 30
0.0
 10
51.5828708097
 20
-20.8787594565
 30
0.0
 10
51.6805096086
 20
-20.9322479144
 30
0.0
 10
51.8027388028
 20
-21.0487205796
 30
0.0
 10
51.8957096125
 20
-21.1962080063
 30
0.0
 10
51.9783220788
 20
-21.4309657359
 30
0.0
 10
51.9868360978
 20
-21.6970968978
 30
0.0
 10
51.9308127275
 20
-21.9622618945
 30
0.0
 10
51.830074105
 20
-22.2283712531
 30
0.0
 10
51.6341162444
 20
-22.5254997216
 30
0.0
 10
51.3632678834
 20
-22.7476512204
 30
0.0
 10
51.123059103
 20
-22.8544756118
 30
0.0
 10
50.9436016692
 20
-22.8949065469
 30
0.0
 10
50.7681622334
 20
-22.895090039
 30
0.0
 10
50.6568919098
 20
-22.8675717984
 30
0.0
 10
50.6052097348
 20
-22.8473630377
 30
0.0
  0
SPLINE
  5
334
100
AcDbEntity
  8
0
100
AcDbSpline
 62
7
  6
CONTINUOUS
 70
0
 71
3
 72
21
 73
17
 74
0
 42
0.0000001
 43
0.0000001
 44
0.0000000001
 40
0.0
 40
0.0
 40
0.0
 40
0.0
 40
0.0617099184
 40
0.1234661054
 40
0.1853558348
 40
0.2474946218
 40
0.310054445
 40
0.3731355865
 40
0.500118834
 40
0.62705328
 40
0.6900834776
 40
0.7525947202
 40
0.8146962337
 40
0.8765553622
 40
0.9382947134
 40
1.0
 40
1.0
 40
1.0
 40
1.0
 10
32.2037397611
 20
-41.7127037093
 30
0.0
 10
32.3367075927
 20
-41.7870568245
 30
0.0
 10
32.6205717545
 20
-41.9061734367
 30
0.0
 10
33.0747368304
 20
-41.9860212907
 30
0.0
 10
33.5364655081
 20
-41.9664995797
 30
0.0
 10
33.985891165
 20
-41.8522799935
 30
0.0
 10
34.4070880087
 20
-41.6519190658
 30
0.0
 10
34.9143549825
 20
-41.2841551912
 30
0.0
 10
35.4185896077
 20
-40.6652110062
 30
0.0
 10
35.694876726
 20
-39.916282024
 30
0.0
 10
35.7529044509
 20
-39.2927663191
 30
0.0
 10
35.7104673323
 20
-38.8285988882
 30
0.0
 10
35.5793011354
 20
-38.3841034577
 30
0.0
 10
35.3601712029
 20
-37.9774355995
 30
0.0
 10
35.059335833
 20
-37.6281066131
 30
0.0
 10
34.8117802168
 20
-37.4452048859
 30
0.0
 10
34.6798686696
 20
-37.3690163693
 30
0.0
  0
SPLINE
  5
335
100
AcDbEntity
  8
0
100
AcDbSpline
 62
7
  6
CONTINUOUS
 70
0
 71
3
 72
18
 73
14
 74
0
 42
0.0000001
 43
0.0000001
 44
0.0000000001
 40
0.0
 40
0.0
 40
0.0
 40
0.0
 40
0.053991424
 40
0.1093820326
 40
0.227708717
 40
0.35893329
 40
0.4987346514
 40
0.6387783689
 40
0.7706301898
 40
0.8320857314
 40
0.8903094874
 40
0.9459270796
 40
1.0
 40
1.0
 40
1.0
 40
1.0
 10
33.6752437472
 20
-40.9460302719
 30
0.0
 10
33.6274525322
 20
-40.9193048719
 30
0.0
 10
33.5373430273
 20
-40.8521178308
 30
0.0
 10
33.3914841776
 20
-40.6703277575
 30
0.0
 10
33.2923039035
 20
-40.3663405727
 30
0.0
 10
33.317087509
 20
-39.9651108265
 30
0.0
 10
33.470313611
 20
-39.5706876149
 30
0.0
 10
33.7300550575
 20
-39.2364330154
 30
0.0
 10
34.0149791663
 20
-39.0411633806
 30
0.0
 10
34.2588857041
 20
-38.9613555493
 30
0.0
 10
34.4371283372
 20
-38.9421612265
 30
0.0
 10
34.6076668227
 20
-38.9637616964
 30
0.0
 10
34.7123668089
 20
-39.0054678487
 30
0.0
 10
34.7602307949
 20
-39.0322324561
 30
0.0
  0
SPLINE
  5
336
100
AcDbEntity
  8
0
100
AcDbSpline
 62
7
  6
CONTINUOUS
 70
0
 71
3
 72
19
 73
15
 74
0
 42
0.0000001
 43
0.0000001
 44
0.0000000001
 40
0.0
 40
0.0
 40
0.0
 40
0.0
 40
0.0539752511
 40
0.1093874273
 40
0.1673688398
 40
0.2285352737
 40
0.3598306947
 40
0.4995430245
 40
0.6393702456
 40
0.7709644554
 40
0.8323065347
 40
0.890448082
 40
0.9459799745
 40
1.0
 40
1.0
 40
1.0
 40
1.0
 10
32.1791466912
 20
-41.6987253552
 30
0.0
 10
32.0716569798
 20
-41.6366307195
 30
0.0
 10
31.8693498914
 20
-41.4816244509
 30
0.0
 10
31.6300475785
 20
-41.1754811973
 30
0.0
 10
31.4612578348
 20
-40.8074889741
 30
0.0
 10
31.3348383188
 20
-40.2419482942
 30
0.0
 10
31.3860069592
 20
-39.4630026359
 30
0.0
 10
31.7376961364
 20
-38.5718045707
 30
0.0
 10
32.328400256
 20
-37.8166571732
 30
0.0
 10
32.9746488924
 20
-37.3766092344
 30
0.0
 10
33.5271603375
 20
-37.1971761414
 30
0.0
 10
33.9307909933
 20
-37.154546849
 30
0.0
 10
34.3169449124
 20
-37.2038763617
 30
0.0
 10
34.5540044179
 20
-37.2984749279
 30
0.0
 10
34.6624413004
 20
-37.3591115605
 30
0.0
  0
SPLINE
  5
337
100
AcDbEntity
  8
0
100
AcDbSpline
 62
7
  6
CONTINUOUS
 70
0
 71
3
 72
18
 73
14
 74
0
 42
0.0000001
 43
0.0000001
 44
0.0000000001
 40
0.0
 40
0.0
 40
0.0
 40
0.0
 40
0.053991424
 40
0.1093820326
 40
0.227708717
 40
0.35893329
 40
0.4987346514
 40
0.6387783689
 40
0.7706301898
 40
0.8320857314
 40
0.8903094874
 40
0.9459270796
 40
1.0
 40
1.0
 40
1.0
 40
1.0
 10
34.7602307949
 20
-39.0322324561
 30
0.0
 10
34.80802201
 20
-39.058957856
 30
0.0
 10
34.8981315148
 20
-39.1261448972
 30
0.0
 10
35.0439903646
 20
-39.3079349705
 30
0.0
 10
35.1431706386
 20
-39.6119221552
 30
0.0
 10
35.1183870331
 20
-40.0131519014
 30
0.0
 10
34.9651609312
 20
-40.4075751131
 30
0.0
 10
34.7054194847
 20
-40.7418297125
 30
0.0
 10
34.4204953758
 20
-40.9370993474
 30
0.0
 10
34.176588838
 20
-41.0169071786
 30
0.0
 10
33.9983462049
 20
-41.0361015014
 30
0.0
 10
33.8278077195
 20
-41.0145010315
 30
0.0
 10
33.7231077333
 20
-40.9727948792
 30
0.0
 10
33.6752437472
 20
-40.9460302719
 30
0.0
  0
SPLINE
  5
338
100
AcDbEntity
  8
0
100
AcDbSpline
 62
7
  6
CONTINUOUS
 70
0
 71
3
 72
17
 73
13
 74
0
 42
0.0000001
 43
0.0000001
 44
0.0000000001
 40
0.0
 40
0.0
 40
0.0
 40
0.0
 40
0.0615860908
 40
0.1231869008
 40
0.1848562961
 40
0.2466499634
 40
0.370589088
 40
0.49610578
 40
0.6230201851
 40
0.750064899
 40
0.8758443523
 40
1.0
 40
1.0
 40
1.0
 40
1.0
 10
36.1570978767
 20
-27.0134211216
 30
0.0
 10
36.2613186843
 20
-27.073616221
 30
0.0
 10
36.4810086945
 20
-27.1756792477
 30
0.0
 10
36.8320108068
 20
-27.2682982573
 30
0.0
 10
37.1942240041
 20
-27.2989448584
 30
0.0
 10
37.6779415864
 20
-27.2583372638
 30
0.0
 10
38.264085014
 20
-27.0591119193
 30
0.0
 10
38.8687686865
 20
-26.6239166911
 30
0.0
 10
39.3386046049
 20
-26.0390136191
 30
0.0
 10
39.6419485651
 20
-25.3522928894
 30
0.0
 10
39.7525118187
 20
-24.6148703892
 30
0.0
 10
39.6818975734
 20
-24.1224042316
 30
0.0
 10
39.6096035727
 20
-23.8907919542
 30
0.0
  0
SPLINE
  5
339
100
AcDbEntity
  8
0
100
AcDbSpline
 62
7
  6
CONTINUOUS
 70
0
 71
3
 72
11
 73
7
 74
0
 42
0.0000001
 43
0.0000001
 44
0.0000000001
 40
0.0
 40
0.0
 40
0.0
 40
0.0
 40
0.2506555575
 40
0.5006740303
 40
0.7503914115
 40
1.0
 40
1.0
 40
1.0
 40
1.0
 10
39.6095906085
 20
-23.8907504226
 30
0.0
 10
39.5704732877
 20
-23.7654365508
 30
0.0
 10
39.4703897134
 20
-23.5213188475
 30
0.0
 10
39.2568733993
 20
-23.1887745901
 30
0.0
 10
38.9853824843
 20
-22.9022173425
 30
0.0
 10
38.7710240408
 20
-22.7490946719
 30
0.0
 10
38.6578203403
 20
-22.6837112975
 30
0.0
  0
SPLINE
  5
33A
100
AcDbEntity
  8
0
100
AcDbSpline
 62
7
  6
CONTINUOUS
 70
0
 71
3
 72
19
 73
15
 74
0
 42
0.0000001
 43
0.0000001
 44
0.0000000001
 40
0.0
 40
0.0
 40
0.0
 40
0.0
 40
0.1259292754
 40
0.2629276601
 40
0.4038873652
 40
0.5399475538
 40
0.6041188368
 40
0.6649854164
 40
0.7226893899
 40
0.7779162517
 40
0.8318495206
 40
0.8859407636
 40
0.9416476287
 40
1.0
 40
1.0
 40
1.0
 40
1.0
 10
39.0614213645
 20
-24.7631724979
 30
0.0
 10
39.0994995662
 20
-24.8851616139
 30
0.0
 10
39.1233274637
 20
-25.1583919539
 30
0.0
 10
39.0216681852
 20
-25.5616717823
 30
0.0
 10
38.8030386605
 20
-25.9272511655
 30
0.0
 10
38.5412098827
 20
-26.1636834866
 30
0.0
 10
38.3043117306
 20
-26.2852663321
 30
0.0
 10
38.1250478397
 20
-26.3375261488
 30
0.0
 10
37.9476335895
 20
-26.3500553922
 30
0.0
 10
37.7789259691
 20
-26.3217377476
 30
0.0
 10
37.6260742707
 20
-26.2531403943
 30
0.0
 10
37.4957397308
 20
-26.1470954781
 30
0.0
 10
37.3935057697
 20
-26.0084463295
 30
0.0
 10
37.3476020515
 20
-25.9010063488
 30
0.0
 10
37.3299565191
 20
-25.8444800839
 30
0.0
  0
SPLINE
  5
33B
100
AcDbEntity
  8
0
100
AcDbSpline
 62
7
  6
CONTINUOUS
 70
0
 71
3
 72
17
 73
13
 74
0
 42
0.0000001
 43
0.0000001
 44
0.0000000001
 40
0.0
 40
0.0
 40
0.0
 40
0.0
 40
0.1217405288
 40
0.2529600533
 40
0.3898373514
 40
0.5269039377
 40
0.6586507883
 40
0.7811052646
 40
0.8386392201
 40
0.8938843534
 40
0.9474063411
 40
1.0
 40
1.0
 40
1.0
 40
1.0
 10
35.4398949423
 20
-26.0773188816
 30
0.0
 10
35.3707332366
 20
-25.8557492003
 30
0.0
 10
35.3073436885
 20
-25.368445006
 30
0.0
 10
35.4204126369
 20
-24.6259510477
 30
0.0
 10
35.7221832043
 20
-23.9066490294
 30
0.0
 10
36.1846724368
 20
-23.2773891881
 30
0.0
 10
36.7650906384
 20
-22.796246033
 30
0.0
 10
37.3183932859
 20
-22.5524893399
 30
0.0
 10
37.7629985791
 20
-22.4794343197
 30
0.0
 10
38.0819492493
 20
-22.4851264724
 30
0.0
 10
38.38458347
 20
-22.5505454271
 30
0.0
 10
38.5709886319
 20
-22.633555886
 30
0.0
 10
38.6578204318
 20
-22.68371114
 30
0.0
  0
SPLINE
  5
33C
100
AcDbEntity
  8
0
100
AcDbSpline
 62
7
  6
CONTINUOUS
 70
0
 71
3
 72
11
 73
7
 74
0
 42
0.0000001
 43
0.0000001
 44
0.0000000001
 40
0.0
 40
0.0
 40
0.0
 40
0.0
 40
0.2408319507
 40
0.4856159516
 40
0.7379106025
 40
1.0
 40
1.0
 40
1.0
 40
1.0
 10
36.1570977853
 20
-27.0134212791
 30
0.0
 10
36.073290973
 20
-26.9650132987
 30
0.0
 10
35.913766278
 20
-26.8499322665
 30
0.0
 10
35.7110651112
 20
-26.6310231133
 30
0.0
 10
35.5487267059
 20
-26.3707506874
 30
0.0
 10
35.471279764
 20
-26.1778597117
 30
0.0
 10
35.4398949423
 20
-26.0773188816
 30
0.0
  0
SPLINE
  5
33D
100
AcDbEntity
  8
0
100
AcDbSpline
 62
7
  6
CONTINUOUS
 70
0
 71
3
 72
19
 73
15
 74
0
 42
0.0000001
 43
0.0000001
 44
0.0000000001
 40
0.0
 40
0.0
 40
0.0
 40
0.0
 40
0.1259292754
 40
0.2629276601
 40
0.4038873652
 40
0.5399475538
 40
0.6041188368
 40
0.6649854164
 40
0.7226893899
 40
0.7779162517
 40
0.8318495206
 40
0.8859407636
 40
0.9416476287
 40
1.0
 40
1.0
 40
1.0
 40
1.0
 10
37.3299565191
 20
-25.8444800839
 30
0.0
 10
37.2918783173
 20
-25.7224909679
 30
0.0
 10
37.2680504199
 20
-25.4492606279
 30
0.0
 10
37.3697096984
 20
-25.0459807995
 30
0.0
 10
37.588339223
 20
-24.6804014163
 30
0.0
 10
37.8501680009
 20
-24.4439690927
 30
0.0
 10
38.0870661529
 20
-24.3223862497
 30
0.0
 10
38.2663300438
 20
-24.2701264304
 30
0.0
 10
38.4437442915
 20
-24.2575971896
 30
0.0
 10
38.6124519144
 20
-24.2859148317
 30
0.0
 10
38.7653036103
 20
-24.3545121875
 30
0.0
 10
38.8956381527
 20
-24.4605571037
 30
0.0
 10
38.9978721139
 20
-24.5992062523
 30
0.0
 10
39.0437758295
 20
-24.706646233
 30
0.0
 10
39.0614213645
 20
-24.7631724979
 30
0.0
  0
SPLINE
  5
33E
100
AcDbEntity
  8
0
100
AcDbSpline
 62
7
  6
CONTINUOUS
 70
0
 71
3
 72
9
 73
5
 74
0
 42
0.0000001
 43
0.0000001
 44
0.0000000001
 40
0.0
 40
0.0
 40
0.0
 40
0.0
 40
0.2488760067
 40
1.0
 40
1.0
 40
1.0
 40
1.0
 10
26.282792398
 20
-30.9745153838
 30
0.0
 10
26.2389343552
 20
-30.9491895493
 30
0.0
 10
26.058950956
 20
-30.8540464274
 30
0.0
 10
25.8645995438
 20
-30.7863771012
 30
0.0
 10
25.7156593794
 20
-30.752025811
 30
0.0
  0
SPLINE
  5
33F
100
AcDbEntity
  8
0
100
AcDbSpline
 62
7
  6
CONTINUOUS
 70
0
 71
3
 72
9
 73
5
 74
0
 42
0.0000001
 43
0.0000001
 44
0.0000000001
 40
0.0
 40
0.0
 40
0.0
 40
0.0
 40
0.5008404513
 40
1.0
 40
1.0
 40
1.0
 40
1.0
 10
47.6600465548
 20
-43.6989762265
 30
0.0
 10
47.544264828
 20
-43.5104153361
 30
0.0
 10
47.2672205409
 20
-43.159955783
 30
0.0
 10
46.9114327739
 20
-42.8890503101
 30
0.0
 10
46.7204684594
 20
-42.7787545236
 30
0.0
  0
SPLINE
  5
340
100
AcDbEntity
  8
0
100
AcDbSpline
 62
7
  6
CONTINUOUS
 70
0
 71
3
 72
19
 73
15
 74
0
 42
0.0000001
 43
0.0000001
 44
0.0000000001
 40
0.0
 40
0.0
 40
0.0
 40
0.0
 40
0.0603170348
 40
0.1207570598
 40
0.1814862317
 40
0.2426923024
 40
0.3045890479
 40
0.3673261695
 40
0.4949280917
 40
0.6243198059
 40
0.7525607888
 40
0.8775802578
 40
0.9390796619
 40
1.0
 40
1.0
 40
1.0
 40
1.0
 10
43.2194570108
 20
-48.840348278
 30
0.0
 10
43.3740419696
 20
-48.9296323387
 30
0.0
 10
43.7029426885
 20
-49.0769027401
 30
0.0
 10
44.2308095499
 20
-49.1934375896
 30
0.0
 10
44.7738375241
 20
-49.2046300538
 30
0.0
 10
45.3133197598
 20
-49.1140496051
 30
0.0
 10
45.8340677404
 20
-48.9287695667
 30
0.0
 10
46.4896444658
 20
-48.5659511001
 30
0.0
 10
47.2018119747
 20
-47.9205544635
 30
0.0
 10
47.8104307321
 20
-46.9399915504
 30
0.0
 10
48.1288619367
 20
-45.8378196018
 30
0.0
 10
48.1126138844
 20
-44.8888573265
 30
0.0
 10
47.914464908
 20
-44.180533498
 30
0.0
 10
47.7543912201
 20
-43.8526249463
 30
0.0
 10
47.6600465548
 20
-43.6989762265
 30
0.0
  0
SPLINE
  5
341
100
AcDbEntity
  8
0
100
AcDbSpline
 62
7
  6
CONTINUOUS
 70
0
 71
3
 72
21
 73
17
 74
0
 42
0.0000001
 43
0.0000001
 44
0.0000000001
 40
0.0
 40
0.0
 40
0.0
 40
0.0
 40
0.0579336159
 40
0.1190700186
 40
0.1834905999
 40
0.2508124542
 40
0.3904838086
 40
0.5302091417
 40
0.5975925199
 40
0.6620889329
 40
0.7233009051
 40
0.7813063805
 40
0.8367262221
 40
0.8906849271
 40
0.9446306244
 40
1.0
 40
1.0
 40
1.0
 40
1.0
 10
44.2611520623
 20
-47.6428242671
 30
0.0
 10
44.2023633584
 20
-47.5470816113
 30
0.0
 10
44.1049397458
 20
-47.3352083647
 30
0.0
 10
44.0268628255
 20
-46.9857855812
 30
0.0
 10
44.0150245789
 20
-46.6098359445
 30
0.0
 10
44.0883823646
 20
-46.0865082129
 30
0.0
 10
44.3395394087
 20
-45.4510559329
 30
0.0
 10
44.7626458777
 20
-44.9144149945
 30
0.0
 10
45.1783221304
 20
-44.5875138118
 30
0.0
 10
45.5094426391
 20
-44.4083106777
 30
0.0
 10
45.8511744728
 20
-44.299589267
 30
0.0
 10
46.1910109635
 20
-44.2662303777
 30
0.0
 10
46.5158238572
 20
-44.3107532173
 30
0.0
 10
46.8121146261
 20
-44.4325029992
 30
0.0
 10
47.0666559788
 20
-44.6265547218
 30
0.0
 10
47.1990464583
 20
-44.7952937722
 30
0.0
 10
47.2552330744
 20
-44.8867986971
 30
0.0
  0
SPLINE
  5
342
100
AcDbEntity
  8
0
100
AcDbSpline
 62
7
  6
CONTINUOUS
 70
0
 71
3
 72
21
 73
17
 74
0
 42
0.0000001
 43
0.0000001
 44
0.0000000001
 40
0.0
 40
0.0
 40
0.0
 40
0.0
 40
0.0579336159
 40
0.1190700186
 40
0.1834905999
 40
0.2508124542
 40
0.3904838086
 40
0.5302091417
 40
0.5975925199
 40
0.6620889329
 40
0.7233009051
 40
0.7813063805
 40
0.8367262221
 40
0.8906849271
 40
0.9446306244
 40
1.0
 40
1.0
 40
1.0
 40
1.0
 10
47.2552330744
 20
-44.8867986971
 30
0.0
 10
47.3140217757
 20
-44.982541353
 30
0.0
 10
47.4114453908
 20
-45.1944145996
 30
0.0
 10
47.4895223111
 20
-45.5438373831
 30
0.0
 10
47.5013605577
 20
-45.9197870198
 30
0.0
 10
47.428002772
 20
-46.4431147514
 30
0.0
 10
47.176845728
 20
-47.0785670289
 30
0.0
 10
46.753739259
 20
-47.6152079698
 30
0.0
 10
46.3380630062
 20
-47.9421091524
 30
0.0
 10
46.0069424975
 20
-48.1213122865
 30
0.0
 10
45.6652106613
 20
-48.2300336972
 30
0.0
 10
45.3253741731
 20
-48.263392584
 30
0.0
 10
45.0005612794
 20
-48.218869747
 30
0.0
 10
44.7042705106
 20
-48.0971199651
 30
0.0
 10
44.4497291578
 20
-47.9030682399
 30
0.0
 10
44.3173386758
 20
-47.7343291921
 30
0.0
 10
44.2611520623
 20
-47.6428242671
 30
0.0
  0
SPLINE
  5
343
100
AcDbEntity
  8
0
100
AcDbSpline
 62
7
  6
CONTINUOUS
 70
0
 71
3
 72
20
 73
16
 74
0
 42
0.0000001
 43
0.0000001
 44
0.0000000001
 40
0.0
 40
0.0
 40
0.0
 40
0.0
 40
0.0570072932
 40
0.1167449679
 40
0.1793043095
 40
0.24447287
 40
0.3802199898
 40
0.5186049563
 40
0.6530094751
 40
0.7171357738
 40
0.7785285267
 40
0.8370958552
 40
0.8930818741
 40
0.9470824604
 40
1.0
 40
1.0
 40
1.0
 40
1.0
 10
42.4434816057
 20
-48.0535576671
 30
0.0
 10
42.361751378
 20
-47.9123794964
 30
0.0
 10
42.2238564315
 20
-47.6053865391
 30
0.0
 10
42.1021328345
 20
-47.104435316
 30
0.0
 10
42.0634977936
 20
-46.5670118975
 30
0.0
 10
42.1244160411
 20
-45.8131604944
 30
0.0
 10
42.409697909
 20
-44.871460803
 30
0.0
 10
43.0269432175
 20
-43.8649036746
 30
0.0
 10
43.734142687
 20
-43.1899330586
 30
0.0
 10
44.373525325
 20
-42.8049988374
 30
0.0
 10
44.8642198833
 20
-42.6067405852
 30
0.0
 10
45.3592815348
 20
-42.500954114
 30
0.0
 10
45.8447784099
 20
-42.4915377625
 30
0.0
 10
46.3060441955
 20
-42.579662237
 30
0.0
 10
46.589333286
 20
-42.7030351424
 30
0.0
 10
46.7204661988
 20
-42.7787584377
 30
0.0
  0
SPLINE
  5
344
100
AcDbEntity
  8
0
100
AcDbSpline
 62
7
  6
CONTINUOUS
 70
0
 71
3
 72
9
 73
5
 74
0
 42
0.0000001
 43
0.0000001
 44
0.0000000001
 40
0.0
 40
0.0
 40
0.0
 40
0.0
 40
0.4934527088
 40
1.0
 40
1.0
 40
1.0
 40
1.0
 10
43.2194592714
 20
-48.8403443638
 30
0.0
 10
43.0693555559
 20
-48.7536662923
 30
0.0
 10
42.7869444494
 20
-48.5374701029
 30
0.0
 10
42.5679998936
 20
-48.2578686479
 30
0.0
 10
42.4748952259
 20
-48.1062393753
 30
0.0
  0
SPLINE
  5
345
100
AcDbEntity
  8
0
100
AcDbSpline
 62
7
  6
CONTINUOUS
 70
0
 71
3
 72
9
 73
5
 74
0
 42
0.0000001
 43
0.0000001
 44
0.0000000001
 40
0.0
 40
0.0
 40
0.0
 40
0.0
 40
0.2548603792
 40
1.0
 40
1.0
 40
1.0
 40
1.0
 10
-59.1600221567
 20
19.0909153233
 30
0.0
 10
-59.3481885444
 20
18.2705683458
 30
0.0
 10
-60.0016310272
 20
15.0331882927
 30
0.0
 10
-60.3088560541
 20
11.7235110208
 30
0.0
 10
-60.3158988721
 20
9.262772907
 30
0.0
  0
SPLINE
  5
346
100
AcDbEntity
  8
0
100
AcDbSpline
 62
7
  6
CONTINUOUS
 70
0
 71
3
 72
9
 73
5
 74
0
 42
0.0000001
 43
0.0000001
 44
0.0000000001
 40
0.0
 40
0.0
 40
0.0
 40
0.0
 40
0.5093426959
 40
1.0
 40
1.0
 40
1.0
 40
1.0
 10
-61.2157201636
 20
4.8082728193
 30
0.0
 10
-60.8107380145
 20
3.2106064718
 30
0.0
 10
-59.7818986574
 20
0.1271290828
 30
0.0
 10
-58.261793534
 20
-2.7498439821
 30
0.0
 10
-57.3977207791
 20
-4.0818603986
 30
0.0
  0
SPLINE
  5
347
100
AcDbEntity
  8
0
100
AcDbSpline
 62
7
  6
CONTINUOUS
 70
0
 71
3
 72
18
 73
14
 74
0
 42
0.0000001
 43
0.0000001
 44
0.0000000001
 40
0.0
 40
0.0
 40
0.0
 40
0.0
 40
0.0528868977
 40
0.1062703213
 40
0.1606080089
 40
0.216286108
 40
0.3325045491
 40
0.4562607266
 40
0.5870291666
 40
0.6545939335
 40
0.7231633256
 40
0.8617701274
 40
1.0
 40
1.0
 40
1.0
 40
1.0
 10
-10.1515902779
 20
27.1940734705
 30
0.0
 10
-10.7809417065
 20
27.557550516
 30
0.0
 10
-12.1028471094
 20
28.193412719
 30
0.0
 10
-14.2194517154
 20
28.8452000743
 30
0.0
 10
-16.4463129742
 20
29.1894040341
 30
0.0
 10
-19.5634420612
 20
29.2341923748
 30
0.0
 10
-23.6020371311
 20
28.4743536024
 30
0.0
 10
-28.2927364771
 20
26.3908318131
 30
0.0
 10
-31.913941094
 20
23.7934692888
 30
0.0
 10
-34.5744333727
 20
21.2629327623
 30
0.0
 10
-37.0675733445
 20
18.4214686612
 30
0.0
 10
-39.714852975
 20
14.4519927089
 30
0.0
 10
-41.2607217806
 20
10.9514553792
 30
0.0
 10
-41.8698819034
 20
9.1522211596
 30
0.0
  0
SPLINE
  5
348
100
AcDbEntity
  8
0
100
AcDbSpline
 62
7
  6
CONTINUOUS
 70
0
 71
3
 72
11
 73
7
 74
0
 42
0.0000001
 43
0.0000001
 44
0.0000000001
 40
0.0
 40
0.0
 40
0.0
 40
0.0
 40
0.2595417743
 40
0.5112062262
 40
0.7571141485
 40
1.0
 40
1.0
 40
1.0
 40
1.0
 10
-41.8698819034
 20
-8.5088479327
 30
0.0
 10
-41.5267856325
 20
-9.3382872797
 30
0.0
 10
-40.7317795771
 20
-10.9262794199
 30
0.0
 10
-39.2013590312
 20
-13.0645819226
 30
0.0
 10
-37.3789826581
 20
-14.8804364824
 30
0.0
 10
-35.9861940442
 20
-15.8560276376
 30
0.0
 10
-35.2588134517
 20
-16.2761605566
 30
0.0
  0
SPLINE
  5
349
100
AcDbEntity
  8
0
100
AcDbSpline
 62
7
  6
CONTINUOUS
 70
0
 71
3
 72
11
 73
7
 74
0
 42
0.0000001
 43
0.0000001
 44
0.0000000001
 40
0.0
 40
0.0
 40
0.0
 40
0.0
 40
0.2660669585
 40
0.5228518689
 40
0.7678211851
 40
1.0
 40
1.0
 40
1.0
 40
1.0
 10
-41.8698819034
 20
9.1522211596
 30
0.0
 10
-42.3822221767
 20
7.6389570487
 30
0.0
 10
-43.1662622977
 20
4.5833793676
 30
0.0
 10
-43.581260632
 20
-0.0297109972
 30
0.0
 10
-43.2030448708
 20
-4.4441356532
 30
0.0
 10
-42.4027805684
 20
-7.2205590234
 30
0.0
 10
-41.8698819034
 20
-8.5088479327
 30
0.0
  0
SPLINE
  5
34A
100
AcDbEntity
  8
0
100
AcDbSpline
 62
7
  6
CONTINUOUS
 70
0
 71
3
 72
9
 73
5
 74
0
 42
0.0000001
 43
0.0000001
 44
0.0000000001
 40
0.0
 40
0.0
 40
0.0
 40
0.0
 40
0.4942422002
 40
1.0
 40
1.0
 40
1.0
 40
1.0
 10
-57.6475371629
 20
-4.2686723618
 30
0.0
 10
-58.2570734495
 20
-3.3193483016
 30
0.0
 10
-59.3282850155
 20
-1.2905052397
 30
0.0
 10
-60.065815801
 20
0.8799554435
 30
0.0
 10
-60.3572340091
 20
1.9970167426
 30
0.0
  0
SPLINE
  5
34B
100
AcDbEntity
  8
0
100
AcDbSpline
 62
7
  6
CONTINUOUS
 70
0
 71
3
 72
9
 73
5
 74
0
 42
0.0000001
 43
0.0000001
 44
0.0000000001
 40
0.0
 40
0.0
 40
0.0
 40
0.0
 40
0.4911579955
 40
1.0
 40
1.0
 40
1.0
 40
1.0
 10
-27.1378244918
 20
40.9460871755
 30
0.0
 10
-28.6334961283
 20
40.9974937707
 30
0.0
 10
-31.6915740431
 20
40.8473596208
 30
0.0
 10
-34.6881051138
 20
40.2314208299
 30
0.0
 10
-36.1814257187
 20
39.814466279
 30
0.0
  0
SPLINE
  5
34C
100
AcDbEntity
  8
0
100
AcDbSpline
 62
7
  6
CONTINUOUS
 70
0
 71
3
 72
9
 73
5
 74
0
 42
0.0000001
 43
0.0000001
 44
0.0000000001
 40
0.0
 40
0.0
 40
0.0
 40
0.0
 40
0.2451898021
 40
1.0
 40
1.0
 40
1.0
 40
1.0
 10
-39.5324261084
 20
39.9197956543
 30
0.0
 10
-40.2140569067
 20
39.5368751781
 30
0.0
 10
-42.9485583313
 20
37.8949331711
 30
0.0
 10
-45.4955544615
 20
35.9450607869
 30
0.0
 10
-47.2901216319
 20
34.3412123665
 30
0.0
  0
SPLINE
  5
34D
100
AcDbEntity
  8
0
100
AcDbSpline
 62
7
  6
CONTINUOUS
 70
0
 71
3
 72
9
 73
5
 74
0
 42
0.0000001
 43
0.0000001
 44
0.0000000001
 40
0.0
 40
0.0
 40
0.0
 40
0.0
 40
0.4931529688
 40
1.0
 40
1.0
 40
1.0
 40
1.0
 10
-61.1783697456
 20
8.5969345816
 30
0.0
 10
-61.1783697456
 20
10.3627160944
 30
0.0
 10
-60.846037408
 20
13.9489184166
 30
0.0
 10
-59.919414166
 20
17.425632977
 30
0.0
 10
-59.3158602956
 20
19.1371452004
 30
0.0
  0
SPLINE
  5
34E
100
AcDbEntity
  8
0
100
AcDbSpline
 62
7
  6
CONTINUOUS
 70
0
 71
3
 72
9
 73
5
 74
0
 42
0.0000001
 43
0.0000001
 44
0.0000000001
 40
0.0
 40
0.0
 40
0.0
 40
0.0
 40
0.5009925998
 40
1.0
 40
1.0
 40
1.0
 40
1.0
 10
-59.3158602956
 20
19.1371452004
 30
0.0
 10
-58.4692573838
 20
21.5378774449
 30
0.0
 10
-56.2447993867
 20
26.1554894517
 30
0.0
 10
-53.0903114183
 20
30.1966800739
 30
0.0
 10
-51.3158942356
 20
32.0078787883
 30
0.0
  0
SPLINE
  5
34F
100
AcDbEntity
  8
0
100
AcDbSpline
 62
7
  6
CONTINUOUS
 70
0
 71
3
 72
9
 73
5
 74
0
 42
0.0000001
 43
0.0000001
 44
0.0000000001
 40
0.0
 40
0.0
 40
0.0
 40
0.0
 40
0.5093467158
 40
1.0
 40
1.0
 40
1.0
 40
1.0
 10
-51.3158942356
 20
32.0078787883
 30
0.0
 10
-49.8646211057
 20
33.4892350585
 30
0.0
 10
-46.7387583886
 20
36.141536523
 30
0.0
 10
-43.1353140334
 20
38.1130227375
 30
0.0
 10
-41.2841973521
 20
38.8640874304
 30
0.0
  0
SPLINE
  5
350
100
AcDbEntity
  8
0
100
AcDbSpline
 62
7
  6
CONTINUOUS
 70
0
 71
3
 72
9
 73
5
 74
0
 42
0.0000001
 43
0.0000001
 44
0.0000000001
 40
0.0
 40
0.0
 40
0.0
 40
0.0
 40
0.5050969971
 40
1.0
 40
1.0
 40
1.0
 40
1.0
 10
-38.3122462882
 20
39.8593203955
 30
0.0
 10
-37.3347034046
 20
40.1182833142
 30
0.0
 10
-35.3641592151
 20
40.5078328755
 30
0.0
 10
-33.3576361644
 20
40.6228168289
 30
0.0
 10
-32.3669140793
 20
40.6067126015
 30
0.0
  0
SPLINE
  5
351
100
AcDbEntity
  8
0
100
AcDbSpline
 62
7
  6
CONTINUOUS
 70
0
 71
3
 72
9
 73
5
 74
0
 42
0.0000001
 43
0.0000001
 44
0.0000000001
 40
0.0
 40
0.0
 40
0.0
 40
0.0
 40
0.2720016962
 40
1.0
 40
1.0
 40
1.0
 40
1.0
 10
-13.9667957513
 20
31.4483081421
 30
0.0
 10
-14.0762481232
 20
31.5916791889
 30
0.0
 10
-14.4805816935
 20
32.1172781428
 30
0.0
 10
-14.8926050224
 20
32.6370727801
 30
0.0
 10
-15.2002580698
 20
33.0091083581
 30
0.0
  0
SPLINE
  5
352
100
AcDbEntity
  8
0
100
AcDbSpline
 62
7
  6
CONTINUOUS
 70
0
 71
3
 72
11
 73
7
 74
0
 42
0.0000001
 43
0.0000001
 44
0.0000000001
 40
0.0
 40
0.0
 40
0.0
 40
0.0
 40
0.3177143074
 40
0.5895472122
 40
0.8159153575
 40
1.0
 40
1.0
 40
1.0
 40
1.0
 10
-15.2002580698
 20
33.0091083581
 30
0.0
 10
-15.3448197161
 20
33.1839224128
 30
0.0
 10
-15.6164632445
 20
33.5055145128
 30
0.0
 10
-16.0067619635
 20
33.9382840232
 30
0.0
 10
-16.3527217593
 20
34.2815613809
 30
0.0
 10
-16.5805488881
 20
34.4676239653
 30
0.0
 10
-16.6896152181
 20
34.5409683678
 30
0.0
  0
SPLINE
  5
353
100
AcDbEntity
  8
0
100
AcDbSpline
 62
7
  6
CONTINUOUS
 70
0
 71
3
 72
9
 73
5
 74
0
 42
0.0000001
 43
0.0000001
 44
0.0000000001
 40
0.0
 40
0.0
 40
0.0
 40
0.0
 40
0.4829415662
 40
1.0
 40
1.0
 40
1.0
 40
1.0
 10
-48.6310237811
 20
32.9412717018
 30
0.0
 10
-46.2444273961
 20
31.5574479416
 30
0.0
 10
-41.3654349189
 20
28.5830550055
 30
0.0
 10
-36.5983131222
 20
25.433461325
 30
0.0
 10
-34.1598041613
 20
23.7667936398
 30
0.0
  0
SPLINE
  5
354
100
AcDbEntity
  8
0
100
AcDbSpline
 62
7
  6
CONTINUOUS
 70
0
 71
3
 72
9
 73
5
 74
0
 42
0.0000001
 43
0.0000001
 44
0.0000000001
 40
0.0
 40
0.0
 40
0.0
 40
0.0
 40
0.4786701691
 40
1.0
 40
1.0
 40
1.0
 40
1.0
 10
-37.9455147585
 20
39.0832619552
 30
0.0
 10
-38.0764290357
 20
38.5718500977
 30
0.0
 10
-38.2372506038
 20
37.4734560791
 30
0.0
 10
-38.2173880908
 20
36.3666392046
 30
0.0
 10
-38.1700884242
 20
35.7936387402
 30
0.0
  0
SPLINE
  5
355
100
AcDbEntity
  8
0
100
AcDbSpline
 62
7
  6
CONTINUOUS
 70
0
 71
3
 72
9
 73
5
 74
0
 42
0.0000001
 43
0.0000001
 44
0.0000000001
 40
0.0
 40
0.0
 40
0.0
 40
0.0
 40
0.2586864522
 40
1.0
 40
1.0
 40
1.0
 40
1.0
 10
-38.1700708829
 20
35.7936553874
 30
0.0
 10
-38.214038796
 20
36.118873119
 30
0.0
 10
-38.3507992794
 20
37.380059921
 30
0.0
 10
-38.3496038538
 20
38.6582753147
 30
0.0
 10
-38.2532656467
 20
39.5937776932
 30
0.0
  0
SPLINE
  5
356
100
AcDbEntity
  8
0
100
AcDbSpline
 62
7
  6
CONTINUOUS
 70
0
 71
3
 72
10
 73
6
 74
0
 42
0.0000001
 43
0.0000001
 44
0.0000000001
 40
0.0
 40
0.0
 40
0.0
 40
0.0
 40
0.2354275153
 40
0.480848637
 40
1.0
 40
1.0
 40
1.0
 40
1.0
 10
-38.3895183739
 20
39.7649008409
 30
0.0
 10
-38.4507755133
 20
39.8206470413
 30
0.0
 10
-38.5970784744
 20
39.9127975834
 30
0.0
 10
-38.9412414843
 20
40.002238004
 30
0.0
 10
-39.2208033916
 20
39.9618692125
 30
0.0
 10
-39.3925697308
 20
39.8997844751
 30
0.0
  0
SPLINE
  5
357
100
AcDbEntity
  8
0
100
AcDbSpline
 62
7
  6
CONTINUOUS
 70
0
 71
3
 72
9
 73
5
 74
0
 42
0.0000001
 43
0.0000001
 44
0.0000000001
 40
0.0
 40
0.0
 40
0.0
 40
0.0
 40
0.5657500024
 40
1.0
 40
1.0
 40
1.0
 40
1.0
 10
-39.3924198987
 20
39.8996972083
 30
0.0
 10
-39.4162483525
 20
39.9135261342
 30
0.0
 10
-39.461249695
 20
39.934619808
 30
0.0
 10
-39.5139482155
 20
39.9300790475
 30
0.0
 10
-39.5323525703
 20
39.9196641737
 30
0.0
  0
SPLINE
  5
358
100
AcDbEntity
  8
0
100
AcDbSpline
 62
7
  6
CONTINUOUS
 70
0
 71
3
 72
9
 73
5
 74
0
 42
0.0000001
 43
0.0000001
 44
0.0000000001
 40
0.0
 40
0.0
 40
0.0
 40
0.0
 40
0.2407525127
 40
1.0
 40
1.0
 40
1.0
 40
1.0
 10
-37.0614395569
 20
39.4911909997
 30
0.0
 10
-35.8996417484
 20
38.8146281897
 30
0.0
 10
-31.1368014011
 20
35.8969293287
 30
0.0
 10
-26.6260047483
 20
32.5753930736
 30
0.0
 10
-23.3455689648
 20
29.8892655122
 30
0.0
  0
SPLINE
  5
359
100
AcDbEntity
  8
0
100
AcDbSpline
 62
7
  6
CONTINUOUS
 70
0
 71
3
 72
15
 73
11
 74
0
 42
0.0000001
 43
0.0000001
 44
0.0000000001
 40
0.0
 40
0.0
 40
0.0
 40
0.0
 40
0.2419182206
 40
0.4870217292
 40
0.6115258876
 40
0.7382156814
 40
0.8687104748
 40
0.9363588053
 40
0.9703845607
 40
1.0
 40
1.0
 40
1.0
 40
1.0
 10
-57.3977244392
 20
-4.0818635939
 30
0.0
 10
-57.3754748165
 20
-4.1161614527
 30
0.0
 10
-57.3302969541
 20
-4.1849586329
 30
0.0
 10
-57.2723809891
 20
-4.2705585836
 30
0.0
 10
-57.2243015577
 20
-4.3392772803
 30
0.0
 10
-57.1865564948
 20
-4.3916056313
 30
0.0
 10
-57.1533483163
 20
-4.4352695826
 30
0.0
 10
-57.1283768321
 20
-4.4656640786
 30
0.0
 10
-57.1130765884
 20
-4.4815947884
 30
0.0
 10
-57.1051964848
 20
-4.4892071404
 30
0.0
 10
-57.1007933846
 20
-4.4915864092
 30
0.0
  0
SPLINE
  5
35A
100
AcDbEntity
  8
0
100
AcDbSpline
 62
7
  6
CONTINUOUS
 70
0
 71
3
 72
9
 73
5
 74
0
 42
0.0000001
 43
0.0000001
 44
0.0000000001
 40
0.0
 40
0.0
 40
0.0
 40
0.0
 40
0.245120236
 40
1.0
 40
1.0
 40
1.0
 40
1.0
 10
-39.4860886598
 20
39.8468892596
 30
0.0
 10
-40.1654057137
 20
39.4628931924
 30
0.0
 10
-42.8913282324
 20
37.8167401449
 30
0.0
 10
-45.4301002567
 20
35.8649157199
 30
0.0
 10
-47.2190495667
 20
34.2603044561
 30
0.0
  0
SPLINE
  5
35B
100
AcDbEntity
  8
0
100
AcDbSpline
 62
7
  6
CONTINUOUS
 70
0
 71
3
 72
42
 73
38
 74
0
 42
0.0000001
 43
0.0000001
 44
0.0000000001
 40
0.0
 40
0.0
 40
0.0
 40
0.0
 40
0.1070005333
 40
0.2197974886
 40
0.3380225086
 40
0.3990668887
 40
0.4613373162
 40
0.5247922717
 40
0.5893912428
 40
0.6550947072
 40
0.7218640324
 40
0.7896608318
 40
0.823932772
 40
0.8584466221
 40
0.8757925871
 40
0.8931969274
 40
0.9106588782
 40
0.9281776772
 40
0.9369582052
 40
0.9457527883
 40
0.9545615515
 40
0.9633849658
 40
0.9678026029
 40
0.9722246802
 40
0.9766520439
 40
0.9810865688
 40
0.9855332631
 40
0.9877661527
 40
0.9900136191
 40
0.9911499202
 40
0.9923063207
 40
0.9935214525
 40
0.994220744
 40
0.9949882823
 40
0.9963600627
 40
0.9976084586
 40
1.0
 40
1.0
 40
1.0
 40
1.0
 10
-38.170088955
 20
35.7936444679
 30
0.0
 10
-38.1322538491
 20
35.335378529
 30
0.0
 10
-38.0233044124
 20
34.3963332367
 30
0.0
 10
-37.7626455789
 20
32.9663379534
 30
0.0
 10
-37.4593258757
 20
31.7474827
 30
0.0
 10
-37.1629336465
 20
30.7525742809
 30
0.0
 10
-36.9106729623
 20
29.9904881088
 30
0.0
 10
-36.6310457161
 20
29.2217536519
 30
0.0
 10
-36.3243752931
 20
28.4475145323
 30
0.0
 10
-35.9911737701
 20
27.6688086526
 30
0.0
 10
-35.6321505282
 20
26.8865306617
 30
0.0
 10
-35.3137578427
 20
26.2344831672
 30
0.0
 10
-35.0481775204
 20
25.7110462181
 30
0.0
 10
-34.8778198195
 20
25.3824316404
 30
0.0
 10
-34.7395806573
 20
25.1188232903
 30
0.0
 10
-34.634946419
 20
24.9203365423
 30
0.0
 10
-34.5298129387
 20
24.7212737222
 30
0.0
 10
-34.4422110057
 20
24.5548625691
 30
0.0
 10
-34.3724737715
 20
24.4211414853
 30
0.0
 10
-34.3204626436
 20
24.3203917122
 30
0.0
 10
-34.2690146464
 20
24.2191460447
 30
0.0
 10
-34.2269284009
 20
24.1342447058
 30
0.0
 10
-34.1940595284
 20
24.0658232678
 30
0.0
 10
-34.1699445525
 20
24.0141587559
 30
0.0
 10
-34.1465896411
 20
23.9620637979
 30
0.0
 10
-34.1243731018
 20
23.9093586836
 30
0.0
 10
-34.1073689931
 20
23.8646993266
 30
0.0
 10
-34.095610246
 20
23.8281721073
 30
0.0
 10
-34.0895132808
 20
23.8047933631
 30
0.0
 10
-34.08614313
 20
23.7855464573
 30
0.0
 10
-34.0849687077
 20
23.7705243664
 30
0.0
 10
-34.0860365669
 20
23.757141876
 30
0.0
 10
-34.0916911225
 20
23.7465980947
 30
0.0
 10
-34.1033299283
 20
23.7407619621
 30
0.0
 10
-34.1183590245
 20
23.744077066
 30
0.0
 10
-34.1379757061
 20
23.7525415957
 30
0.0
 10
-34.1513134391
 20
23.7610028487
 30
0.0
 10
-34.1598041613
 20
23.7667936398
 30
0.0
  0
SPLINE
  5
35C
100
AcDbEntity
  8
0
100
AcDbSpline
 62
7
  6
CONTINUOUS
 70
0
 71
3
 72
9
 73
5
 74
0
 42
0.0000001
 43
0.0000001
 44
0.0000000001
 40
0.0
 40
0.0
 40
0.0
 40
0.0
 40
0.254227139
 40
1.0
 40
1.0
 40
1.0
 40
1.0
 10
-34.1600016412
 20
23.7669061161
 30
0.0
 10
-34.3458035683
 20
24.0304208494
 30
0.0
 10
-35.0636465776
 20
25.0760332006
 30
0.0
 10
-35.7271206406
 20
26.1592110114
 30
0.0
 10
-36.1859652067
 20
26.9863118998
 30
0.0
  0
SPLINE
  5
35D
100
AcDbEntity
  8
0
100
AcDbSpline
 62
7
  6
CONTINUOUS
 70
0
 71
3
 72
14
 73
10
 74
0
 42
0.0000001
 43
0.0000001
 44
0.0000000001
 40
0.0
 40
0.0
 40
0.0
 40
0.0
 40
0.2721262703
 40
0.4016211364
 40
0.5268152136
 40
0.6482820116
 40
0.766868975
 40
0.8836905082
 40
1.0
 40
1.0
 40
1.0
 40
1.0
 10
-44.7795692946
 20
-0.0531210926
 30
0.0
 10
-44.7795533561
 20
-1.9825275361
 30
0.0
 10
-44.4691042157
 20
-4.8497929572
 30
0.0
 10
-43.3549338888
 20
-8.4239234569
 30
0.0
 10
-42.2176557748
 20
-10.8466078648
 30
0.0
 10
-40.7814567879
 20
-13.0131393483
 30
0.0
 10
-39.0678056407
 20
-14.8893672088
 30
0.0
 10
-37.1038878718
 20
-16.4432652389
 30
0.0
 10
-35.6493334428
 20
-17.246778849
 30
0.0
 10
-34.8973448071
 20
-17.5852412531
 30
0.0
  0
SPLINE
  5
35E
100
AcDbEntity
  8
0
100
AcDbSpline
 62
7
  6
CONTINUOUS
 70
0
 71
3
 72
14
 73
10
 74
0
 42
0.0000001
 43
0.0000001
 44
0.0000000001
 40
0.0
 40
0.0
 40
0.0
 40
0.0
 40
0.1378824895
 40
0.2722865624
 40
0.4030796172
 40
0.5301818533
 40
0.653507745
 40
0.7729141665
 40
1.0
 40
1.0
 40
1.0
 40
1.0
 10
-36.1859652067
 20
26.9863118998
 30
0.0
 10
-36.4839898863
 20
27.5306697036
 30
0.0
 10
-37.0469687857
 20
28.6199931917
 30
0.0
 10
-37.7875672359
 20
30.2773415432
 30
0.0
 10
-38.4021613458
 20
31.9342456081
 30
0.0
 10
-38.8776499605
 20
33.5845205575
 30
0.0
 10
-39.2180115607
 20
35.2158275057
 30
0.0
 10
-39.4946257675
 20
37.3128595524
 30
0.0
 10
-39.5043440157
 20
38.885662546
 30
0.0
 10
-39.3923086772
 20
39.9016017892
 30
0.0
  0
SPLINE
  5
35F
100
AcDbEntity
  8
0
100
AcDbSpline
 62
7
  6
CONTINUOUS
 70
0
 71
3
 72
14
 73
10
 74
0
 42
0.0000001
 43
0.0000001
 44
0.0000000001
 40
0.0
 40
0.0
 40
0.0
 40
0.0
 40
0.3856878885
 40
0.5536710092
 40
0.6970033953
 40
0.8113990223
 40
0.8955816941
 40
0.9535756356
 40
1.0
 40
1.0
 40
1.0
 40
1.0
 10
-56.3830333825
 20
-5.4435219196
 30
0.0
 10
-56.4222973223
 20
-5.4069673166
 30
0.0
 10
-56.4805077342
 20
-5.3563332472
 30
0.0
 10
-56.5587550021
 20
-5.2989717719
 30
0.0
 10
-56.6089575712
 20
-5.2675156295
 30
0.0
 10
-56.6519146888
 20
-5.2465470482
 30
0.0
 10
-56.6861352122
 20
-5.2364762504
 30
0.0
 10
-56.7137629522
 20
-5.237065025
 30
0.0
 10
-56.7253275087
 20
-5.2482824473
 30
0.0
 10
-56.7280048109
 20
-5.2541585112
 30
0.0
  0
SPLINE
  5
360
100
AcDbEntity
  8
0
100
AcDbSpline
 62
7
  6
CONTINUOUS
 70
0
 71
3
 72
9
 73
5
 74
0
 42
0.0000001
 43
0.0000001
 44
0.0000000001
 40
0.0
 40
0.0
 40
0.0
 40
0.0
 40
0.4910196253
 40
1.0
 40
1.0
 40
1.0
 40
1.0
 10
-57.1007933846
 20
-4.4915864092
 30
0.0
 10
-54.7591786368
 20
-5.8309337788
 30
0.0
 10
-49.8467579638
 20
-8.3133826468
 30
0.0
 10
-44.7225791749
 20
-10.3178647008
 30
0.0
 10
-42.0768982636
 20
-11.2231182497
 30
0.0
  0
SPLINE
  5
361
100
AcDbEntity
  8
0
100
AcDbSpline
 62
7
  6
CONTINUOUS
 70
0
 71
3
 72
11
 73
7
 74
0
 42
0.0000001
 43
0.0000001
 44
0.0000000001
 40
0.0
 40
0.0
 40
0.0
 40
0.0
 40
0.3324060622
 40
0.605399191
 40
0.813838358
 40
1.0
 40
1.0
 40
1.0
 40
1.0
 10
-60.006675998
 20
6.2844764328
 30
0.0
 10
-60.0305849164
 20
6.3283664771
 30
0.0
 10
-60.0809484733
 20
6.4050695241
 30
0.0
 10
-60.1713239085
 20
6.489795697
 30
0.0
 10
-60.2729405404
 20
6.5232127676
 30
0.0
 10
-60.331959287
 20
6.4955823428
 30
0.0
 10
-60.3526569723
 20
6.4767385146
 30
0.0
  0
SPLINE
  5
362
100
AcDbEntity
  8
0
100
AcDbSpline
 62
7
  6
CONTINUOUS
 70
0
 71
3
 72
9
 73
5
 74
0
 42
0.0000001
 43
0.0000001
 44
0.0000000001
 40
0.0
 40
0.0
 40
0.0
 40
0.0
 40
0.4846842927
 40
1.0
 40
1.0
 40
1.0
 40
1.0
 10
-60.2009382079
 20
7.547236554
 30
0.0
 10
-57.820407762
 20
6.1811558876
 30
0.0
 10
-52.8120455105
 20
3.5295529231
 30
0.0
 10
-47.6588898783
 20
1.1743586241
 30
0.0
 10
-44.9746957192
 20
0.0296073576
 30
0.0
  0
SPLINE
  5
363
100
AcDbEntity
  8
0
100
AcDbSpline
 62
7
  6
CONTINUOUS
 70
0
 71
3
 72
13
 73
9
 74
0
 42
0.0000001
 43
0.0000001
 44
0.0000000001
 40
0.0
 40
0.0
 40
0.0
 40
0.0
 40
0.1181154027
 40
0.2365655965
 40
0.356347585
 40
0.4783635616
 40
0.7314282921
 40
1.0
 40
1.0
 40
1.0
 40
1.0
 10
-34.0327990508
 20
-16.9531285981
 30
0.0
 10
-34.6644203504
 20
-16.6654929859
 30
0.0
 10
-35.8900509929
 20
-15.9978126805
 30
0.0
 10
-37.5714708889
 20
-14.7386323997
 30
0.0
 10
-39.0744855917
 20
-13.2379862418
 30
0.0
 10
-40.836359246
 20
-10.9147614216
 30
0.0
 10
-42.4961231147
 20
-7.4692190036
 30
0.0
 10
-43.1507266772
 20
-4.4462063578
 30
0.0
 10
-43.3284812747
 20
-2.878155219
 30
0.0
  0
SPLINE
  5
364
100
AcDbEntity
  8
0
100
AcDbSpline
 62
7
  6
CONTINUOUS
 70
0
 71
3
 72
20
 73
16
 74
0
 42
0.0000001
 43
0.0000001
 44
0.0000000001
 40
0.0
 40
0.0
 40
0.0
 40
0.0
 40
0.1310176798
 40
0.1989717548
 40
0.2677991896
 40
0.4055380102
 40
0.4734795887
 40
0.5400132795
 40
0.6669404864
 40
0.7270987503
 40
0.7849180138
 40
0.84061087
 40
0.8945972758
 40
0.9474821882
 40
1.0
 40
1.0
 40
1.0
 40
1.0
 10
-43.4820304419
 20
0.0456668988
 30
0.0
 10
-43.4682600706
 20
2.316898526
 30
0.0
 10
-42.991989268
 20
5.7772648691
 30
0.0
 10
-41.5938868623
 20
10.2103969782
 30
0.0
 10
-39.6688782968
 20
14.5715846287
 30
0.0
 10
-37.0453555987
 20
18.5950921341
 30
0.0
 10
-33.8453065683
 20
22.0752347191
 30
0.0
 10
-30.4133720072
 20
25.0446638196
 30
0.0
 10
-26.5847098347
 20
27.3218723818
 30
0.0
 10
-22.5526381072
 20
28.6908667126
 30
0.0
 10
-19.577369313
 20
29.2268415208
 30
0.0
 10
-16.6605856901
 20
29.2752984749
 30
0.0
 10
-13.8620363368
 20
28.8321603645
 30
0.0
 10
-11.2429696928
 20
27.904646441
 30
0.0
 10
-9.6547761077
 20
26.9753770982
 30
0.0
 10
-8.9155696841
 20
26.4439121438
 30
0.0
  0
SPLINE
  5
365
100
AcDbEntity
  8
0
100
AcDbSpline
 62
7
  6
CONTINUOUS
 70
0
 71
3
 72
9
 73
5
 74
0
 42
0.0000001
 43
0.0000001
 44
0.0000000001
 40
0.0
 40
0.0
 40
0.0
 40
0.0
 40
0.4912757946
 40
1.0
 40
1.0
 40
1.0
 40
1.0
 10
-27.1362093032
 20
40.9216026245
 30
0.0
 10
-28.554997535
 20
40.9655713834
 30
0.0
 10
-31.4536656061
 20
40.8250207857
 30
0.0
 10
-34.2985426341
 20
40.2625184182
 30
0.0
 10
-35.7182697108
 20
39.8818164491
 30
0.0
  0
SPLINE
  5
366
100
AcDbEntity
  8
0
100
AcDbSpline
 62
7
  6
CONTINUOUS
 70
0
 71
3
 72
21
 73
17
 74
0
 42
0.0000001
 43
0.0000001
 44
0.0000000001
 40
0.0
 40
0.0
 40
0.0
 40
0.0
 40
0.0530472737
 40
0.105945337
 40
0.1595389165
 40
0.2145837527
 40
0.2716562322
 40
0.3311039102
 40
0.3930379342
 40
0.457348048
 40
0.5915118308
 40
0.6606091302
 40
0.7301583512
 40
0.7995077983
 40
0.8680167262
 40
1.0
 40
1.0
 40
1.0
 40
1.0
 10
-7.3126552877
 20
26.2789672769
 30
0.0
 10
-8.0356219292
 20
26.9569432844
 30
0.0
 10
-9.6141630672
 20
28.1758645803
 30
0.0
 10
-12.3023421206
 20
29.5062751275
 30
0.0
 10
-15.2340809333
 20
30.2987244545
 30
0.0
 10
-18.3381101888
 20
30.5364945403
 30
0.0
 10
-21.5430938194
 20
30.2183355475
 30
0.0
 10
-24.7773872543
 20
29.3552292142
 30
0.0
 10
-27.9711246311
 20
27.9688756446
 30
0.0
 10
-32.1373640787
 20
25.4330850367
 30
0.0
 10
-35.8723938476
 20
22.0217223497
 30
0.0
 10
-38.9980739843
 20
17.9861787367
 30
0.0
 10
-41.0196816937
 20
14.6569265052
 30
0.0
 10
-42.6473521265
 20
11.1299904248
 30
0.0
 10
-44.2246233306
 20
6.3348191439
 30
0.0
 10
-44.7641005473
 20
2.5757057655
 30
0.0
 10
-44.779052623
 20
0.1097967883
 30
0.0
  0
SPLINE
  5
367
100
AcDbEntity
  8
0
100
AcDbSpline
 62
7
  6
CONTINUOUS
 70
0
 71
3
 72
9
 73
5
 74
0
 42
0.0000001
 43
0.0000001
 44
0.0000000001
 40
0.0
 40
0.0
 40
0.0
 40
0.0
 40
0.4910644724
 40
1.0
 40
1.0
 40
1.0
 40
1.0
 10
-37.9455147509
 20
39.08326194
 30
0.0
 10
-37.9425612719
 20
39.0948033266
 30
0.0
 10
-37.9409032894
 20
39.11980016
 30
0.0
 10
-37.9500119961
 20
39.1431100093
 30
0.0
 10
-37.9563861896
 20
39.1536842401
 30
0.0
  0
SPLINE
  5
368
100
AcDbEntity
  8
0
100
AcDbSpline
 62
7
  6
CONTINUOUS
 70
0
 71
3
 72
23
 73
19
 74
0
 42
0.0000001
 43
0.0000001
 44
0.0000000001
 40
0.0
 40
0.0
 40
0.0
 40
0.0
 40
0.1242111517
 40
0.2484442721
 40
0.3727438115
 40
0.4971796297
 40
0.6218701686
 40
0.6843749751
 40
0.7470442699
 40
0.8099551328
 40
0.8732455485
 40
0.9051133854
 40
0.937204969
 40
0.9533600852
 40
0.9695846855
 40
0.9857403364
 40
0.99340308
 40
1.0
 40
1.0
 40
1.0
 40
1.0
 10
-60.315947094
 20
9.2627776441
 30
0.0
 10
-60.3161511678
 20
9.1913207867
 30
0.0
 10
-60.3158493269
 20
9.0483912682
 30
0.0
 10
-60.313156457
 20
8.8339693145
 30
0.0
 10
-60.3080588598
 20
8.6194606198
 30
0.0
 10
-60.3002912173
 20
8.4047680444
 30
0.0
 10
-60.2912353934
 20
8.2257104193
 30
0.0
 10
-60.2819961586
 20
8.0822614428
 30
0.0
 10
-60.2738444248
 20
7.9743630911
 30
0.0
 10
-60.2641230092
 20
7.8661395941
 30
0.0
 10
-60.2542101715
 20
7.7757366913
 30
0.0
 10
-60.2443807881
 20
7.7031841923
 30
0.0
 10
-60.2370020271
 20
7.6576951342
 30
0.0
 10
-60.2298180664
 20
7.6212692837
 30
0.0
 10
-60.2232703655
 20
7.5942152129
 30
0.0
 10
-60.2167445975
 20
7.5718026059
 30
0.0
 10
-60.2089100945
 20
7.5565042672
 30
0.0
 10
-60.204317711
 20
7.5489633831
 30
0.0
 10
-60.2009382079
 20
7.547236554
 30
0.0
  0
SPLINE
  5
369
100
AcDbEntity
  8
0
100
AcDbSpline
 62
7
  6
CONTINUOUS
 70
0
 71
3
 72
9
 73
5
 74
0
 42
0.0000001
 43
0.0000001
 44
0.0000000001
 40
0.0
 40
0.0
 40
0.0
 40
0.0
 40
0.4957184657
 40
1.0
 40
1.0
 40
1.0
 40
1.0
 10
-25.4528555478
 20
39.1216654497
 30
0.0
 10
-23.1566309251
 20
37.7797447223
 30
0.0
 10
-18.6706533845
 20
34.8152910906
 30
0.0
 10
-14.5261364869
 20
31.3912474663
 30
0.0
 10
-12.5301595365
 20
29.5647869536
 30
0.0
  0
SPLINE
  5
36A
100
AcDbEntity
  8
0
100
AcDbSpline
 62
7
  6
CONTINUOUS
 70
0
 71
3
 72
9
 73
5
 74
0
 42
0.0000001
 43
0.0000001
 44
0.0000000001
 40
0.0
 40
0.0
 40
0.0
 40
0.0
 40
0.2209551892
 40
1.0
 40
1.0
 40
1.0
 40
1.0
 10
-26.2469407084
 20
39.360314378
 30
0.0
 10
-26.2563965772
 20
39.340623028
 30
0.0
 10
-26.294242595
 20
39.2491171861
 30
0.0
 10
-26.3146172964
 20
39.1512371736
 30
0.0
 10
-26.325037809
 20
39.0749275142
 30
0.0
  0
SPLINE
  5
36B
100
AcDbEntity
  8
0
100
AcDbSpline
 62
7
  6
CONTINUOUS
 70
0
 71
3
 72
27
 73
23
 74
0
 42
0.0000001
 43
0.0000001
 44
0.0000000001
 40
0.0
 40
0.0
 40
0.0
 40
0.0
 40
0.2386406587
 40
0.3619697899
 40
0.4876182175
 40
0.5511724669
 40
0.6150965159
 40
0.6792523276
 40
0.743422147
 40
0.7754039971
 40
0.8072240919
 40
0.8387696983
 40
0.8698581326
 40
0.9001557589
 40
0.928914747
 40
0.9421186299
 40
0.9481453509
 40
0.9534948339
 40
0.9577014932
 40
0.9683382446
 40
0.9855661689
 40
1.0
 40
1.0
 40
1.0
 40
1.0
 10
-13.5020658451
 20
31.0052218477
 30
0.0
 10
-13.4094702442
 20
30.8862199013
 30
0.0
 10
-13.2705969736
 20
30.7044851924
 30
0.0
 10
-13.0865190892
 20
30.4574222753
 30
0.0
 10
-12.9699107576
 20
30.298054024
 30
0.0
 10
-12.8764293723
 20
30.1682819341
 30
0.0
 10
-12.8062123727
 20
30.069637981
 30
0.0
 10
-12.7364293068
 20
29.9702108621
 30
0.0
 10
-12.6789317993
 20
29.8868213083
 30
0.0
 10
-12.6336121541
 20
29.8198575179
 30
0.0
 10
-12.600207057
 20
29.7697215349
 30
0.0
 10
-12.5675779249
 20
29.7197518964
 30
0.0
 10
-12.5361093188
 20
29.6701686301
 30
0.0
 10
-12.5065101019
 20
29.6215260375
 30
0.0
 10
-12.4841344723
 20
29.5816344663
 30
0.0
 10
-12.4708407118
 20
29.5544713481
 30
0.0
 10
-12.4653941923
 20
29.5397264322
 30
0.0
 10
-12.462419357
 20
29.5307991298
 30
0.0
 10
-12.4636569187
 20
29.5152287012
 30
0.0
 10
-12.4913610695
 20
29.5306077281
 30
0.0
 10
-12.5074690942
 20
29.5447041287
 30
0.0
 10
-12.5234276424
 20
29.5586344285
 30
0.0
 10
-12.5301595365
 20
29.5647869536
 30
0.0
  0
SPLINE
  5
36C
100
AcDbEntity
  8
0
100
AcDbSpline
 62
7
  6
CONTINUOUS
 70
0
 71
3
 72
9
 73
5
 74
0
 42
0.0000001
 43
0.0000001
 44
0.0000000001
 40
0.0
 40
0.0
 40
0.0
 40
0.0
 40
0.2598071065
 40
1.0
 40
1.0
 40
1.0
 40
1.0
 10
-23.345075552
 20
29.888996262
 30
0.0
 10
-23.4886074214
 20
30.116282353
 30
0.0
 10
-24.0327367497
 20
30.9963113931
 30
0.0
 10
-24.5428436975
 20
31.897588671
 30
0.0
 10
-24.8964321851
 20
32.5769280972
 30
0.0
  0
SPLINE
  5
36D
100
AcDbEntity
  8
0
100
AcDbSpline
 62
7
  6
CONTINUOUS
 70
0
 71
3
 72
15
 73
11
 74
0
 42
0.0000001
 43
0.0000001
 44
0.0000000001
 40
0.0
 40
0.0
 40
0.0
 40
0.0
 40
0.1647468838
 40
0.3192879574
 40
0.4627265091
 40
0.5943554128
 40
0.7140332625
 40
0.8216280889
 40
0.9168975773
 40
1.0
 40
1.0
 40
1.0
 40
1.0
 10
-24.8964321851
 20
32.5769280972
 30
0.0
 10
-25.1157909209
 20
33.0049325701
 30
0.0
 10
-25.5265887049
 20
33.8419465857
 30
0.0
 10
-26.0661612452
 20
35.0809285858
 30
0.0
 10
-26.501559234
 20
36.2580012558
 30
0.0
 10
-26.8234153441
 20
37.3656776358
 30
0.0
 10
-27.0380759638
 20
38.3921897179
 30
0.0
 10
-27.1558335312
 20
39.3278104273
 30
0.0
 10
-27.1713455982
 20
40.1641901642
 30
0.0
 10
-27.104123881
 20
40.6840538794
 30
0.0
 10
-27.0458649957
 20
40.9195542999
 30
0.0
  0
SPLINE
  5
36E
100
AcDbEntity
  8
0
100
AcDbSpline
 62
7
  6
CONTINUOUS
 70
0
 71
3
 72
11
 73
7
 74
0
 42
0.0000001
 43
0.0000001
 44
0.0000000001
 40
0.0
 40
0.0
 40
0.0
 40
0.0
 40
0.2501361673
 40
0.4977124523
 40
0.7465536291
 40
1.0
 40
1.0
 40
1.0
 40
1.0
 10
-26.2891294328
 20
40.3173486031
 30
0.0
 10
-26.3154099822
 20
40.3979944134
 30
0.0
 10
-26.3925458249
 20
40.551546946
 30
0.0
 10
-26.5705057229
 20
40.7364844756
 30
0.0
 10
-26.7938400261
 20
40.8645140595
 30
0.0
 10
-26.9609024758
 20
40.9076588856
 30
0.0
 10
-27.0461242434
 20
40.918764779
 30
0.0
  0
SPLINE
  5
36F
100
AcDbEntity
  8
0
100
AcDbSpline
 62
7
  6
CONTINUOUS
 70
0
 71
3
 72
38
 73
34
 74
0
 42
0.0000001
 43
0.0000001
 44
0.0000000001
 40
0.0
 40
0.0
 40
0.0
 40
0.0
 40
0.0905252016
 40
0.1918873129
 40
0.3036921886
 40
0.4254810876
 40
0.4899589777
 40
0.556730764
 40
0.6257205079
 40
0.696837537
 40
0.7699604467
 40
0.8072210627
 40
0.8449039221
 40
0.8638875353
 40
0.8829529985
 40
0.9020854883
 40
0.9212622034
 40
0.9308560769
 40
0.9404443073
 40
0.9500158569
 40
0.9595532793
 40
0.9690258253
 40
0.9737205831
 40
0.9783699298
 40
0.982947511
 40
0.9851958877
 40
0.9874065896
 40
0.9896084559
 40
0.9910224103
 40
0.9931257149
 40
0.9949969062
 40
0.9967219685
 40
1.0
 40
1.0
 40
1.0
 40
1.0
 10
-26.140726867
 20
37.4100302776
 30
0.0
 10
-26.0886363844
 20
37.1686889569
 30
0.0
 10
-25.9668652386
 20
36.659521517
 30
0.0
 10
-25.7421424317
 20
35.8620813161
 30
0.0
 10
-25.4595284681
 20
34.9930879741
 30
0.0
 10
-25.1788768654
 20
34.2298978469
 30
0.0
 10
-24.923901325
 20
33.58855995
 30
0.0
 10
-24.713543539
 20
33.0845347985
 30
0.0
 10
-24.4878432487
 20
32.5673760742
 30
0.0
 10
-24.2473112304
 20
32.037864108
 30
0.0
 10
-24.0368191469
 20
31.58980871
 30
0.0
 10
-23.8626486012
 20
31.2254610389
 30
0.0
 10
-23.7515144877
 20
30.9946449804
 30
0.0
 10
-23.6619159496
 20
30.8085383676
 30
0.0
 10
-23.5944351447
 20
30.667935903
 30
0.0
 10
-23.5271344919
 20
30.5266633814
 30
0.0
 10
-23.4715913086
 20
30.408404959
 30
0.0
 10
-23.4278416501
 20
30.3133709784
 30
0.0
 10
-23.3955562791
 20
30.2419013093
 30
0.0
 10
-23.3640486383
 20
30.1702516939
 30
0.0
 10
-23.3337290774
 20
30.0984342175
 30
0.0
 10
-23.3099538189
 20
30.038295463
 30
0.0
 10
-23.2926256264
 20
29.9899880946
 30
0.0
 10
-23.2809662263
 20
29.9538265642
 30
0.0
 10
-23.2729543628
 20
29.9235944123
 30
0.0
 10
-23.2685731168
 20
29.8992000389
 30
0.0
 10
-23.2674246177
 20
29.8813497165
 30
0.0
 10
-23.2688355978
 20
29.8643429763
 30
0.0
 10
-23.2827020954
 20
29.8539105664
 30
0.0
 10
-23.2982193237
 20
29.8584072579
 30
0.0
 10
-23.3118264974
 20
29.8652870968
 30
0.0
 10
-23.3276711698
 20
29.8755301523
 30
0.0
 10
-23.3384038051
 20
29.8839182356
 30
0.0
 10
-23.3455689648
 20
29.8892655122
 30
0.0
  0
SPLINE
  5
370
100
AcDbEntity
  8
0
100
AcDbSpline
 62
7
  6
CONTINUOUS
 70
0
 71
3
 72
9
 73
5
 74
0
 42
0.0000001
 43
0.0000001
 44
0.0000000001
 40
0.0
 40
0.0
 40
0.0
 40
0.0
 40
0.2620012013
 40
1.0
 40
1.0
 40
1.0
 40
1.0
 10
-26.3275532243
 20
39.4757274136
 30
0.0
 10
-26.3238448904
 20
39.5258345956
 30
0.0
 10
-26.3067296058
 20
39.7168333018
 30
0.0
 10
-26.2773126085
 20
39.9068707601
 30
0.0
 10
-26.2469090498
 20
40.0450931837
 30
0.0
  0
SPLINE
  5
371
100
AcDbEntity
  8
0
100
AcDbSpline
 62
7
  6
CONTINUOUS
 70
0
 71
3
 72
20
 73
16
 74
0
 42
0.0000001
 43
0.0000001
 44
0.0000000001
 40
0.0
 40
0.0
 40
0.0
 40
0.0
 40
0.2628421555
 40
0.3935818233
 40
0.523564358
 40
0.6523496163
 40
0.779029783
 40
0.8409501891
 40
0.9010685014
 40
0.9299406328
 40
0.9573279274
 40
0.9700613655
 40
0.9816417525
 40
0.9912038428
 40
1.0
 40
1.0
 40
1.0
 40
1.0
 10
-36.1814437451
 20
39.814492126
 30
0.0
 10
-36.2616671407
 20
39.7920924578
 30
0.0
 10
-36.3814838683
 20
39.7574153745
 30
0.0
 10
-36.5400506835
 20
39.7085854696
 30
0.0
 10
-36.6575343296
 20
39.6707184613
 30
0.0
 10
-36.7731745556
 20
39.6313750043
 30
0.0
 10
-36.8676887328
 20
39.596943727
 30
0.0
 10
-36.9409622845
 20
39.5678811206
 30
0.0
 10
-36.984894696
 20
39.5489889207
 30
0.0
 10
-37.0181584319
 20
39.5329764
 30
0.0
 10
-37.0373169483
 20
39.5225637208
 30
0.0
 10
-37.0512612384
 20
39.5136687068
 30
0.0
 10
-37.0592524569
 20
39.5069705719
 30
0.0
 10
-37.0668121242
 20
39.4997084452
 30
0.0
 10
-37.0638956302
 20
39.492509087
 30
0.0
 10
-37.0614395569
 20
39.4911909997
 30
0.0
  0
SPLINE
  5
372
100
AcDbEntity
  8
0
100
AcDbSpline
 62
7
  6
CONTINUOUS
 70
0
 71
3
 72
21
 73
17
 74
0
 42
0.0000001
 43
0.0000001
 44
0.0000000001
 40
0.0
 40
0.0
 40
0.0
 40
0.0
 40
0.1268748689
 40
0.25380667
 40
0.3807528431
 40
0.5076430571
 40
0.6343502744
 40
0.6975632789
 40
0.7606088701
 40
0.8233789639
 40
0.885645865
 40
0.9164291076
 40
0.946749845
 40
0.9760191988
 40
0.9895428343
 40
1.0
 40
1.0
 40
1.0
 40
1.0
 10
-47.2901381596
 20
34.34123402
 30
0.0
 10
-47.3516566447
 20
34.2862522275
 30
0.0
 10
-47.474099905
 20
34.1755662995
 30
0.0
 10
-47.6558154979
 20
34.0073662117
 30
0.0
 10
-47.8354195557
 20
33.8368967
 30
0.0
 10
-48.0125583277
 20
33.6640741449
 30
0.0
 10
-48.1577383244
 20
33.5178776885
 30
0.0
 10
-48.2718661632
 20
33.3993925559
 30
0.0
 10
-48.356055055
 20
33.3098248001
 30
0.0
 10
-48.4384014994
 20
33.2193393346
 30
0.0
 10
-48.5049383056
 20
33.1430134522
 30
0.0
 10
-48.5557942516
 20
33.0807044887
 30
0.0
 10
-48.5915193389
 20
33.0347493457
 30
0.0
 10
-48.6184296814
 20
32.9933360985
 30
0.0
 10
-48.634048116
 20
32.9660675145
 30
0.0
 10
-48.6370813738
 20
32.9443621172
 30
0.0
 10
-48.6310237811
 20
32.9412717018
 30
0.0
  0
SPLINE
  5
373
100
AcDbEntity
  8
0
100
AcDbSpline
 62
7
  6
CONTINUOUS
 70
0
 71
3
 72
11
 73
7
 74
0
 42
0.0000001
 43
0.0000001
 44
0.0000000001
 40
0.0
 40
0.0
 40
0.0
 40
0.0
 40
0.2870221496
 40
0.5371776496
 40
0.764946429
 40
1.0
 40
1.0
 40
1.0
 40
1.0
 10
-57.4366796166
 20
19.9869603283
 30
0.0
 10
-57.4449001208
 20
20.0247020206
 30
0.0
 10
-57.4681290584
 20
20.094184602
 30
0.0
 10
-57.5324384802
 20
20.1782511573
 30
0.0
 10
-57.6231364598
 20
20.2206709276
 30
0.0
 10
-57.6878299601
 20
20.2154632393
 30
0.0
 10
-57.7183834423
 20
20.2072706369
 30
0.0
  0
SPLINE
  5
374
100
AcDbEntity
  8
0
100
AcDbSpline
 62
7
  6
CONTINUOUS
 70
0
 71
3
 72
25
 73
21
 74
0
 42
0.0000001
 43
0.0000001
 44
0.0000000001
 40
0.0
 40
0.0
 40
0.0
 40
0.0
 40
0.1255885692
 40
0.251184058
 40
0.3767834256
 40
0.5023823727
 40
0.5651799851
 40
0.6279739747
 40
0.6907612748
 40
0.7535358899
 40
0.816284347
 40
0.8476397317
 40
0.878970758
 40
0.9102565801
 40
0.9414431278
 40
0.9569534221
 40
0.9723276585
 40
0.9873072719
 40
0.9942967651
 40
1.0
 40
1.0
 40
1.0
 40
1.0
 10
-56.2821541761
 20
23.3866518347
 30
0.0
 10
-56.3231411375
 20
23.2995470889
 30
0.0
 10
-56.4041416232
 20
23.1248716394
 30
0.0
 10
-56.522590063
 20
22.8614591411
 30
0.0
 10
-56.6377941557
 20
22.5966019949
 30
0.0
 10
-56.7308393595
 20
22.3746204475
 30
0.0
 10
-56.8032221103
 20
22.1961993845
 30
0.0
 10
-56.8563647015
 20
22.0619358938
 30
0.0
 10
-56.9082013898
 20
21.9271809309
 30
0.0
 10
-56.9584729352
 20
21.7918707088
 30
0.0
 10
-56.9987188821
 20
21.6785480043
 30
0.0
 10
-57.0294908882
 20
21.5874543333
 30
0.0
 10
-57.051640788
 20
21.5189115138
 30
0.0
 10
-57.0725121051
 20
21.4500938587
 30
0.0
 10
-57.0883420151
 20
21.3924598515
 30
0.0
 10
-57.0992025521
 20
21.3460811559
 30
0.0
 10
-57.1058436971
 20
21.311688865
 30
0.0
 10
-57.1091423545
 20
21.2827685799
 30
0.0
 10
-57.1083796001
 20
21.2622148948
 30
0.0
 10
-57.1044696028
 20
21.2515776238
 30
0.0
 10
-57.1005603498
 20
21.2496208433
 30
0.0
  0
SPLINE
  5
375
100
AcDbEntity
  8
0
100
AcDbSpline
 62
7
  6
CONTINUOUS
 70
0
 71
3
 72
9
 73
5
 74
0
 42
0.0000001
 43
0.0000001
 44
0.0000000001
 40
0.0
 40
0.0
 40
0.0
 40
0.0
 40
0.2363577294
 40
1.0
 40
1.0
 40
1.0
 40
1.0
 10
-57.1005603498
 20
21.2496208433
 30
0.0
 10
-55.9254074016
 20
20.571877289
 30
0.0
 10
-50.9433354964
 20
17.7220228871
 30
0.0
 10
-45.9237017764
 20
14.9381390924
 30
0.0
 10
-42.0764311753
 20
12.8384260351
 30
0.0
  0
SPLINE
  5
376
100
AcDbEntity
  8
0
100
AcDbSpline
 62
7
  6
CONTINUOUS
 70
0
 71
3
 72
9
 73
5
 74
0
 42
0.0000001
 43
0.0000001
 44
0.0000000001
 40
0.0
 40
0.0
 40
0.0
 40
0.0
 40
0.5026780399
 40
1.0
 40
1.0
 40
1.0
 40
1.0
 10
-49.3617741789
 20
31.9920922057
 30
0.0
 10
-49.3604651467
 20
32.0326164757
 30
0.0
 10
-49.3768664322
 20
32.1182154256
 30
0.0
 10
-49.4479441133
 20
32.1703652502
 30
0.0
 10
-49.4855153386
 20
32.1844182701
 30
0.0
  0
SPLINE
  5
377
100
AcDbEntity
  8
0
100
AcDbSpline
 62
7
  6
CONTINUOUS
 70
0
 71
3
 72
11
 73
7
 74
0
 42
0.0000001
 43
0.0000001
 44
0.0000000001
 40
0.0
 40
0.0
 40
0.0
 40
0.0
 40
0.4029453783
 40
0.7129186477
 40
0.910471765
 40
1.0
 40
1.0
 40
1.0
 40
1.0
 10
-51.1143313748
 20
31.8741528124
 30
0.0
 10
-51.128837645
 20
31.8825403166
 30
0.0
 10
-51.154413441
 20
31.8969432469
 30
0.0
 10
-51.1895254637
 20
31.9136907445
 30
0.0
 10
-51.2107737397
 20
31.9222491323
 30
0.0
 10
-51.2255260064
 20
31.9236591193
 30
0.0
 10
-51.2277864769
 20
31.9207008499
 30
0.0
  0
SPLINE
  5
378
100
AcDbEntity
  8
0
100
AcDbSpline
 62
7
  6
CONTINUOUS
 70
0
 71
3
 72
10
 73
6
 74
0
 42
0.0000001
 43
0.0000001
 44
0.0000000001
 40
0.0
 40
0.0
 40
0.0
 40
0.0
 40
0.4679732188
 40
0.7318829852
 40
1.0
 40
1.0
 40
1.0
 40
1.0
 10
-49.89483754
 20
32.1915920759
 30
0.0
 10
-50.080930447
 20
32.2781967643
 30
0.0
 10
-50.4359167855
 20
32.2677936787
 30
0.0
 10
-50.8379950949
 20
32.0947805754
 30
0.0
 10
-51.0285185289
 20
31.9544891287
 30
0.0
 10
-51.1144815092
 20
31.874240069
 30
0.0
  0
SPLINE
  5
379
100
AcDbEntity
  8
0
100
AcDbSpline
 62
7
  6
CONTINUOUS
 70
0
 71
3
 72
13
 73
9
 74
0
 42
0.0000001
 43
0.0000001
 44
0.0000000001
 40
0.0
 40
0.0
 40
0.0
 40
0.0
 40
0.2534826852
 40
0.3794139173
 40
0.5048665149
 40
0.6297348384
 40
0.7538522255
 40
1.0
 40
1.0
 40
1.0
 40
1.0
 10
-44.8103723521
 20
16.1744466579
 30
0.0
 10
-45.6582555992
 20
17.3454690352
 30
0.0
 10
-46.8421202088
 20
19.1640400234
 30
0.0
 10
-48.1848823925
 20
21.7132071526
 30
0.0
 10
-49.0559087023
 20
23.6762639326
 30
0.0
 10
-49.7922383853
 20
25.6827261071
 30
0.0
 10
-50.5925310037
 20
28.3920017986
 30
0.0
 10
-50.9773854689
 20
30.4796370696
 30
0.0
 10
-51.1146806934
 20
31.8768247273
 30
0.0
  0
SPLINE
  5
37A
100
AcDbEntity
  8
0
100
AcDbSpline
 62
7
  6
CONTINUOUS
 70
0
 71
3
 72
41
 73
37
 74
0
 42
0.0000001
 43
0.0000001
 44
0.0000000001
 40
0.0
 40
0.0
 40
0.0
 40
0.0
 40
0.1187198894
 40
0.2396340599
 40
0.3624504082
 40
0.4245012736
 40
0.4869403247
 40
0.5497458718
 40
0.6128992129
 40
0.6763852182
 40
0.7401937078
 40
0.7722191872
 40
0.8043269493
 40
0.8365205845
 40
0.8688069844
 40
0.9011997071
 40
0.9174440584
 40
0.9337287424
 40
0.9418897466
 40
0.9500662785
 40
0.9582621341
 40
0.9664835477
 40
0.9706071075
 40
0.9747421559
 40
0.9788924578
 40
0.9830645749
 40
0.9872719433
 40
0.989398477
 40
0.9915530878
 40
0.9937672312
 40
0.9949355112
 40
0.9955600446
 40
0.9961597019
 40
0.9971426783
 40
0.9980942679
 40
1.0
 40
1.0
 40
1.0
 40
1.0
 10
-48.88110671
 20
27.0870507382
 30
0.0
 10
-48.7444785403
 20
26.4679634445
 30
0.0
 10
-48.4309717962
 20
25.2263179699
 30
0.0
 10
-47.8431664694
 20
23.3810043479
 30
0.0
 10
-47.2534035468
 20
21.8571241876
 30
0.0
 10
-46.7218981226
 20
20.6479710205
 30
0.0
 10
-46.2923329391
 20
19.7445556518
 30
0.0
 10
-45.8339276812
 20
18.8488253604
 30
0.0
 10
-45.3474259313
 20
17.96165985
 30
0.0
 10
-44.8337226229
 20
17.0837637826
 30
0.0
 10
-44.3843408039
 20
16.361206292
 30
0.0
 10
-44.0125301784
 20
15.7879875832
 30
0.0
 10
-43.7273962427
 20
15.3598275556
 30
0.0
 10
-43.4366552672
 20
14.9337705312
 30
0.0
 10
-43.1407506164
 20
14.5094295536
 30
0.0
 10
-42.8906525162
 20
14.1570050464
 30
0.0
 10
-42.689073059
 20
13.8749379295
 30
0.0
 10
-42.5626580566
 20
13.6982036678
 30
0.0
 10
-42.461584977
 20
13.5563136823
 30
0.0
 10
-42.3858487353
 20
13.4494101268
 30
0.0
 10
-42.3103959551
 20
13.3419116931
 30
0.0
 10
-42.2480235779
 20
13.2516767122
 30
0.0
 10
-42.1986554826
 20
13.1788206756
 30
0.0
 10
-42.1619467803
 20
13.1236505243
 30
0.0
 10
-42.1257424839
 20
13.0678371764
 30
0.0
 10
-42.0902997277
 20
13.0110791975
 30
0.0
 10
-42.0618795763
 20
12.9626912602
 30
0.0
 10
-42.0404680596
 20
12.9227196765
 30
0.0
 10
-42.025462814
 20
12.8914520911
 30
0.0
 10
-42.014644225
 20
12.8638107417
 30
0.0
 10
-42.0104784751
 20
12.8426976851
 30
0.0
 10
-42.0114784935
 20
12.8296692327
 30
0.0
 10
-42.0195126786
 20
12.819527922
 30
0.0
 10
-42.0345975379
 20
12.8203378543
 30
0.0
 10
-42.0538962014
 20
12.8260424784
 30
0.0
 10
-42.067482354
 20
12.8335795322
 30
0.0
 10
-42.0764311753
 20
12.8384260351
 30
0.0
  0
SPLINE
  5
37B
100
AcDbEntity
  8
0
100
AcDbSpline
 62
7
  6
CONTINUOUS
 70
0
 71
3
 72
9
 73
5
 74
0
 42
0.0000001
 43
0.0000001
 44
0.0000000001
 40
0.0
 40
0.0
 40
0.0
 40
0.0
 40
0.2516467803
 40
1.0
 40
1.0
 40
1.0
 40
1.0
 10
-48.8811655262
 20
27.086995356
 30
0.0
 10
-49.005407546
 20
27.5058589785
 30
0.0
 10
-49.4618515581
 20
29.1810805125
 30
0.0
 10
-49.7652217185
 20
30.8987851924
 30
0.0
 10
-49.8948207582
 20
32.1915731986
 30
0.0
  0
SPLINE
  5
37C
100
AcDbEntity
  8
0
100
AcDbSpline
 62
7
  6
CONTINUOUS
 70
0
 71
3
 72
9
 73
5
 74
0
 42
0.0000001
 43
0.0000001
 44
0.0000000001
 40
0.0
 40
0.0
 40
0.0
 40
0.0
 40
0.2461199972
 40
1.0
 40
1.0
 40
1.0
 40
1.0
 10
-49.3617740951
 20
31.9920921752
 30
0.0
 10
-49.3748447192
 20
31.587352657
 30
0.0
 10
-49.3708120476
 20
29.9412002724
 30
0.0
 10
-49.1484523729
 20
28.2982158647
 30
0.0
 10
-48.8811580891
 20
27.0869709771
 30
0.0
  0
SPLINE
  5
37D
100
AcDbEntity
  8
0
100
AcDbSpline
 62
7
  6
CONTINUOUS
 70
0
 71
3
 72
10
 73
6
 74
0
 42
0.0000001
 43
0.0000001
 44
0.0000000001
 40
0.0
 40
0.0
 40
0.0
 40
0.0
 40
0.3017654215
 40
0.5933703796
 40
1.0
 40
1.0
 40
1.0
 40
1.0
 10
-47.5367909277
 20
-12.7395511985
 30
0.0
 10
-47.5772497673
 20
-12.7342287403
 30
0.0
 10
-47.6575400055
 20
-12.7184820154
 30
0.0
 10
-47.7802118683
 20
-12.6791482053
 30
0.0
 10
-47.878146374
 20
-12.6080989748
 30
0.0
 10
-47.8782168844
 20
-12.5531109135
 30
0.0
  0
SPLINE
  5
37E
100
AcDbEntity
  8
0
100
AcDbSpline
 62
7
  6
CONTINUOUS
 70
0
 71
3
 72
9
 73
5
 74
0
 42
0.0000001
 43
0.0000001
 44
0.0000000001
 40
0.0
 40
0.0
 40
0.0
 40
0.0
 40
0.5013287649
 40
1.0
 40
1.0
 40
1.0
 40
1.0
 10
-49.8948345479
 20
32.1915800973
 30
0.0
 10
-49.9055072748
 20
32.2351279223
 30
0.0
 10
-49.9394068641
 20
32.3202516535
 30
0.0
 10
-50.0127234866
 20
32.3816841773
 30
0.0
 10
-50.0544795499
 20
32.3973524391
 30
0.0
  0
SPLINE
  5
37F
100
AcDbEntity
  8
0
100
AcDbSpline
 62
7
  6
CONTINUOUS
 70
0
 71
3
 72
11
 73
7
 74
0
 42
0.0000001
 43
0.0000001
 44
0.0000000001
 40
0.0
 40
0.0
 40
0.0
 40
0.0
 40
0.3074184062
 40
0.5723562902
 40
0.7979833353
 40
1.0
 40
1.0
 40
1.0
 40
1.0
 10
-47.5367783217
 20
-12.739552941
 30
0.0
 10
-47.5440915075
 20
-12.8165227565
 30
0.0
 10
-47.5430494699
 20
-12.9617639926
 30
0.0
 10
-47.4956490186
 20
-13.1591124727
 30
0.0
 10
-47.4028358133
 20
-13.3108982905
 30
0.0
 10
-47.3113710407
 20
-13.3746764154
 30
0.0
 10
-47.2642090903
 20
-13.393575354
 30
0.0
  0
SPLINE
  5
380
100
AcDbEntity
  8
0
100
AcDbSpline
 62
7
  6
CONTINUOUS
 70
0
 71
3
 72
10
 73
6
 74
0
 42
0.0000001
 43
0.0000001
 44
0.0000000001
 40
0.0
 40
0.0
 40
0.0
 40
0.0
 40
0.3529869662
 40
0.639230506
 40
1.0
 40
1.0
 40
1.0
 40
1.0
 10
-59.0708323859
 20
18.9924826779
 30
0.0
 10
-59.084855543
 20
19.0005583463
 30
0.0
 10
-59.109844637
 20
19.0167023145
 30
0.0
 10
-59.1443840345
 20
19.0445516467
 30
0.0
 10
-59.163478957
 20
19.0746481448
 30
0.0
 10
-59.1598876027
 20
19.0907925499
 30
0.0
  0
SPLINE
  5
381
100
AcDbEntity
  8
0
100
AcDbSpline
 62
7
  6
CONTINUOUS
 70
0
 71
3
 72
10
 73
6
 74
0
 42
0.0000001
 43
0.0000001
 44
0.0000000001
 40
0.0
 40
0.0
 40
0.0
 40
0.0
 40
0.2418543858
 40
0.5005823022
 40
1.0
 40
1.0
 40
1.0
 40
1.0
 10
-58.0522636889
 20
19.8219465714
 30
0.0
 10
-58.1598153103
 20
19.8036762422
 30
0.0
 10
-58.3758610072
 20
19.7252099069
 30
0.0
 10
-58.7534261931
 20
19.4757579191
 30
0.0
 10
-58.9773288035
 20
19.1974496721
 30
0.0
 10
-59.0709827818
 20
18.9925697491
 30
0.0
  0
SPLINE
  5
382
100
AcDbEntity
  8
0
100
AcDbSpline
 62
7
  6
CONTINUOUS
 70
0
 71
3
 72
13
 73
9
 74
0
 42
0.0000001
 43
0.0000001
 44
0.0000000001
 40
0.0
 40
0.0
 40
0.0
 40
0.0
 40
0.2450468706
 40
0.3688738453
 40
0.4936555318
 40
0.6192551889
 40
0.745493633
 40
1.0
 40
1.0
 40
1.0
 40
1.0
 10
-48.4586764931
 20
3.0382726992
 30
0.0
 10
-49.5974590314
 20
4.1315004441
 30
0.0
 10
-51.2370977155
 20
5.8587633244
 30
0.0
 10
-53.2339216594
 20
8.3355466055
 30
0.0
 10
-54.6363154205
 20
10.2980186419
 30
0.0
 10
-55.9327529089
 20
12.350472538
 30
0.0
 10
-57.5172679416
 20
15.20274439
 30
0.0
 10
-58.5135893627
 20
17.4539371749
 30
0.0
 10
-59.0719809002
 20
18.9954556463
 30
0.0
  0
SPLINE
  5
383
100
AcDbEntity
  8
0
100
AcDbSpline
 62
7
  6
CONTINUOUS
 70
0
 71
3
 72
25
 73
21
 74
0
 42
0.0000001
 43
0.0000001
 44
0.0000000001
 40
0.0
 40
0.0
 40
0.0
 40
0.0
 40
0.1254341354
 40
0.2511323094
 40
0.376892441
 40
0.4397511609
 40
0.5025705159
 40
0.565339132
 40
0.6280483972
 40
0.6906932546
 40
0.753274975
 40
0.7845470815
 40
0.8158115188
 40
0.8470752759
 40
0.8783500745
 40
0.9096571125
 40
0.9410404848
 40
0.9567914824
 40
0.9726232668
 40
1.0
 40
1.0
 40
1.0
 40
1.0
 10
-55.2947833187
 20
13.7724660339
 30
0.0
 10
-54.9870245057
 20
13.117618672
 30
0.0
 10
-54.3346231054
 20
11.823227527
 30
0.0
 10
-53.2508653593
 20
9.9373543163
 30
0.0
 10
-52.2621742862
 20
8.4163373253
 30
0.0
 10
-51.4231207928
 20
7.2330880128
 30
0.0
 10
-50.7708428137
 20
6.3633215558
 30
0.0
 10
-50.0965197376
 20
5.5116490097
 30
0.0
 10
-49.4011198483
 20
4.6784116642
 30
0.0
 10
-48.6856391126
 20
3.863791866
 30
0.0
 10
-48.0733629711
 20
3.2002904549
 30
0.0
 10
-47.5746437603
 20
2.6785253745
 30
0.0
 10
-47.1964424237
 20
2.2916561812
 30
0.0
 10
-46.8138761785
 20
1.9085931373
 30
0.0
 10
-46.4283209272
 20
1.5300421647
 30
0.0
 10
-46.0356440595
 20
1.150862189
 30
0.0
 10
-45.7167997341
 20
0.8468676662
 30
0.0
 10
-45.4366934439
 20
0.5788177756
 30
0.0
 10
-45.2586490781
 20
0.4083229908
 30
0.0
 10
-44.8141903302
 20
-0.0317799568
 30
0.0
 10
-44.9617618537
 20
0.0244501111
 30
0.0
  0
SPLINE
  5
384
100
AcDbEntity
  8
0
100
AcDbSpline
 62
7
  6
CONTINUOUS
 70
0
 71
3
 72
14
 73
10
 74
0
 42
0.0000001
 43
0.0000001
 44
0.0000000001
 40
0.0
 40
0.0
 40
0.0
 40
0.0
 40
0.3414097916
 40
0.5097043445
 40
0.6661479201
 40
0.8012404116
 40
0.9051402611
 40
0.9714938807
 40
1.0
 40
1.0
 40
1.0
 40
1.0
 10
-56.6908349081
 20
-6.119066055
 30
0.0
 10
-56.7316594213
 20
-6.0995681133
 30
0.0
 10
-56.7922916064
 20
-6.0697207968
 30
0.0
 10
-56.8705090624
 20
-6.028940952
 30
0.0
 10
-56.9240457219
 20
-5.9994472543
 30
0.0
 10
-56.9688179183
 20
-5.9732687469
 30
0.0
 10
-57.0036786995
 20
-5.9500556234
 30
0.0
 10
-57.022471301
 20
-5.9356948367
 30
0.0
 10
-57.0328998298
 20
-5.9233846759
 30
0.0
 10
-57.031363714
 20
-5.919933644
 30
0.0
  0
SPLINE
  5
385
100
AcDbEntity
  8
0
100
AcDbSpline
 62
7
  6
CONTINUOUS
 70
0
 71
3
 72
9
 73
5
 74
0
 42
0.0000001
 43
0.0000001
 44
0.0000000001
 40
0.0
 40
0.0
 40
0.0
 40
0.0
 40
0.2526163378
 40
1.0
 40
1.0
 40
1.0
 40
1.0
 10
-56.3830334155
 20
-5.4435219857
 30
0.0
 10
-55.9658861828
 20
-5.8318956692
 30
0.0
 10
-54.2835677745
 20
-7.3358644418
 30
0.0
 10
-52.4878714294
 20
-8.7113061156
 30
0.0
 10
-51.1011226001
 20
-9.670656206
 30
0.0
  0
SPLINE
  5
386
100
AcDbEntity
  8
0
100
AcDbSpline
 62
7
  6
CONTINUOUS
 70
0
 71
3
 72
9
 73
5
 74
0
 42
0.0000001
 43
0.0000001
 44
0.0000000001
 40
0.0
 40
0.0
 40
0.0
 40
0.0
 40
0.2473762778
 40
1.0
 40
1.0
 40
1.0
 40
1.0
 10
-51.1011403344
 20
-9.6706741105
 30
0.0
 10
-51.575812362
 20
-9.4004259591
 30
0.0
 10
-53.4819997256
 20
-8.2860037378
 30
0.0
 10
-55.3351512187
 20
-7.0801720779
 30
0.0
 10
-56.6908237067
 20
-6.1190469567
 30
0.0
  0
SPLINE
  5
387
100
AcDbEntity
  8
0
100
AcDbSpline
 62
7
  6
CONTINUOUS
 70
0
 71
3
 72
9
 73
5
 74
0
 42
0.0000001
 43
0.0000001
 44
0.0000000001
 40
0.0
 40
0.0
 40
0.0
 40
0.0
 40
0.5096603719
 40
1.0
 40
1.0
 40
1.0
 40
1.0
 10
-51.1010849853
 20
-9.6707130817
 30
0.0
 10
-49.1020204973
 20
-11.0536568868
 30
0.0
 10
-44.9983907823
 20
-13.5121837274
 30
0.0
 10
-40.6465361052
 20
-15.4861254387
 30
0.0
 10
-38.4722208552
 20
-16.3473127612
 30
0.0
  0
SPLINE
  5
388
100
AcDbEntity
  8
0
100
AcDbSpline
 62
7
  6
CONTINUOUS
 70
0
 71
3
 72
9
 73
5
 74
0
 42
0.0000001
 43
0.0000001
 44
0.0000000001
 40
0.0
 40
0.0
 40
0.0
 40
0.0
 40
0.2403000209
 40
1.0
 40
1.0
 40
1.0
 40
1.0
 10
-38.5122928096
 20
-16.4477003278
 30
0.0
 10
-39.5837385153
 20
-16.0584138445
 30
0.0
 10
-44.0115356262
 20
-14.355761677
 30
0.0
 10
-48.3065016311
 20
-12.2963467103
 30
0.0
 10
-51.4353411189
 20
-10.5077496626
 30
0.0
  0
SPLINE
  5
389
100
AcDbEntity
  8
0
100
AcDbSpline
 62
7
  6
CONTINUOUS
 70
0
 71
3
 72
10
 73
6
 74
0
 42
0.0000001
 43
0.0000001
 44
0.0000000001
 40
0.0
 40
0.0
 40
0.0
 40
0.0
 40
0.2925970867
 40
0.5625270233
 40
1.0
 40
1.0
 40
1.0
 40
1.0
 10
-56.6908274862
 20
-6.1190696999
 30
0.0
 10
-56.7351037706
 20
-6.1969814668
 30
0.0
 10
-56.806868834
 20
-6.3551867206
 30
0.0
 10
-56.8866807826
 20
-6.6499793111
 30
0.0
 10
-56.8854495786
 20
-6.8795814377
 30
0.0
 10
-56.8374450645
 20
-7.0046715736
 30
0.0
  0
SPLINE
  5
38A
100
AcDbEntity
  8
0
100
AcDbSpline
 62
7
  6
CONTINUOUS
 70
0
 71
3
 72
9
 73
5
 74
0
 42
0.0000001
 43
0.0000001
 44
0.0000000001
 40
0.0
 40
0.0
 40
0.0
 40
0.0
 40
0.2618106563
 40
1.0
 40
1.0
 40
1.0
 40
1.0
 10
-56.8374450645
 20
-7.0046715736
 30
0.0
 10
-56.8328428309
 20
-7.0166640693
 30
0.0
 10
-56.8135544392
 20
-7.0617742356
 30
0.0
 10
-56.7870244084
 20
-7.1039506105
 30
0.0
 10
-56.763489472
 20
-7.1314795496
 30
0.0
  0
SPLINE
  5
38B
100
AcDbEntity
  8
0
100
AcDbSpline
 62
7
  6
CONTINUOUS
 70
0
 71
3
 72
9
 73
5
 74
0
 42
0.0000001
 43
0.0000001
 44
0.0000000001
 40
0.0
 40
0.0
 40
0.0
 40
0.0
 40
0.5087462944
 40
1.0
 40
1.0
 40
1.0
 40
1.0
 10
-61.1299649453
 20
4.7063315119
 30
0.0
 10
-60.7695057983
 20
3.2843097052
 30
0.0
 10
-59.8753526183
 20
0.5320674271
 30
0.0
 10
-58.5923204828
 20
-2.0641402735
 30
0.0
 10
-57.8670512552
 20
-3.2809446268
 30
0.0
  0
SPLINE
  5
38C
100
AcDbEntity
  8
0
100
AcDbSpline
 62
7
  6
CONTINUOUS
 70
0
 71
3
 72
9
 73
5
 74
0
 42
0.0000001
 43
0.0000001
 44
0.0000000001
 40
0.0
 40
0.0
 40
0.0
 40
0.0
 40
0.2489144864
 40
1.0
 40
1.0
 40
1.0
 40
1.0
 10
-55.5343759206
 20
14.2924427765
 30
0.0
 10
-55.7790750832
 20
14.7335305024
 30
0.0
 10
-56.727857811
 20
16.5243195243
 30
0.0
 10
-57.5357340972
 20
18.3902350381
 30
0.0
 10
-58.052249818
 20
19.8219625683
 30
0.0
  0
SPLINE
  5
38D
100
AcDbEntity
  8
0
100
AcDbSpline
 62
7
  6
CONTINUOUS
 70
0
 71
3
 72
9
 73
5
 74
0
 42
0.0000001
 43
0.0000001
 44
0.0000000001
 40
0.0
 40
0.0
 40
0.0
 40
0.0
 40
0.2505554646
 40
1.0
 40
1.0
 40
1.0
 40
1.0
 10
-57.4366797436
 20
19.9869602978
 30
0.0
 10
-57.3298848492
 20
19.4964822541
 30
0.0
 10
-56.848098335
 20
17.5512279607
 30
0.0
 10
-56.1534492747
 20
15.660311994
 30
0.0
 10
-55.5343411327
 20
14.292436617
 30
0.0
  0
SPLINE
  5
38E
100
AcDbEntity
  8
0
100
AcDbSpline
 62
7
  6
CONTINUOUS
 70
0
 71
3
 72
11
 73
7
 74
0
 42
0.0000001
 43
0.0000001
 44
0.0000000001
 40
0.0
 40
0.0
 40
0.0
 40
0.0
 40
0.2752504293
 40
0.5449641653
 40
0.7883941285
 40
1.0
 40
1.0
 40
1.0
 40
1.0
 10
-58.0522706536
 20
19.821959401
 30
0.0
 10
-58.0696346016
 20
19.8535482659
 30
0.0
 10
-58.108465065
 20
19.9138340458
 30
0.0
 10
-58.1795282706
 20
19.9897079148
 30
0.0
 10
-58.2621835485
 20
20.040271324
 30
0.0
 10
-58.32537297
 20
20.0446189912
 30
0.0
 10
-58.3521344176
 20
20.0374238875
 30
0.0
  0
SPLINE
  5
38F
100
AcDbEntity
  8
0
100
AcDbSpline
 62
7
  6
CONTINUOUS
 70
0
 71
3
 72
12
 73
8
 74
0
 42
0.0000001
 43
0.0000001
 44
0.0000000001
 40
0.0
 40
0.0
 40
0.0
 40
0.0
 40
0.3207361334
 40
0.6275697932
 40
0.7589203459
 40
0.8657502559
 40
1.0
 40
1.0
 40
1.0
 40
1.0
 10
-60.539738079
 20
5.7992386276
 30
0.0
 10
-60.5712091616
 20
5.8296043987
 30
0.0
 10
-60.6350969535
 20
5.8867791688
 30
0.0
 10
-60.7178193027
 20
5.9488444193
 30
0.0
 10
-60.7836504791
 20
5.9851779356
 30
0.0
 10
-60.8290066699
 20
6.0038177968
 30
0.0
 10
-60.8687179265
 20
6.0069197311
 30
0.0
 10
-60.8822793243
 20
5.994625105
 30
0.0
  0
SPLINE
  5
390
100
AcDbEntity
  8
0
100
AcDbSpline
 62
7
  6
CONTINUOUS
 70
0
 71
3
 72
9
 73
5
 74
0
 42
0.0000001
 43
0.0000001
 44
0.0000000001
 40
0.0
 40
0.0
 40
0.0
 40
0.0
 40
0.2521603242
 40
1.0
 40
1.0
 40
1.0
 40
1.0
 10
-60.0066758456
 20
6.2844765725
 30
0.0
 10
-59.7426162976
 20
5.799764626
 30
0.0
 10
-58.6481672876
 20
3.9034676287
 30
0.0
 10
-57.3761321812
 20
2.111145257
 30
0.0
 10
-56.3469409553
 20
0.8381424715
 30
0.0
  0
SPLINE
  5
391
100
AcDbEntity
  8
0
100
AcDbSpline
 62
7
  6
CONTINUOUS
 70
0
 71
3
 72
9
 73
5
 74
0
 42
0.0000001
 43
0.0000001
 44
0.0000000001
 40
0.0
 40
0.0
 40
0.0
 40
0.0
 40
0.2479319225
 40
1.0
 40
1.0
 40
1.0
 40
1.0
 10
-56.3469283163
 20
0.8381637313
 30
0.0
 10
-56.719846176
 20
1.2246099765
 30
0.0
 10
-58.1990157068
 20
2.8071022522
 30
0.0
 10
-59.5748634682
 20
4.4867023601
 30
0.0
 10
-60.5397331615
 20
5.7992420083
 30
0.0
  0
SPLINE
  5
392
100
AcDbEntity
  8
0
100
AcDbSpline
 62
7
  6
CONTINUOUS
 70
0
 71
3
 72
39
 73
35
 74
0
 42
0.0000001
 43
0.0000001
 44
0.0000000001
 40
0.0
 40
0.0
 40
0.0
 40
0.0
 40
0.1281230042
 40
0.2556158147
 40
0.3822845402
 40
0.4452613041
 40
0.5079715863
 40
0.5704014336
 40
0.6325397531
 40
0.6943791874
 40
0.7559189817
 40
0.7865811295
 40
0.8171768075
 40
0.8477138788
 40
0.8782057611
 40
0.9086769925
 40
0.9391789722
 40
0.9544773824
 40
0.9621523178
 40
0.9698557082
 40
0.9737227888
 40
0.977604222
 40
0.9815050635
 40
0.985433704
 40
0.9894061099
 40
0.9934610619
 40
0.9955544902
 40
0.9966284745
 40
0.9971387269
 40
0.9974524298
 40
0.9976577653
 40
0.9979238664
 40
0.9985601435
 40
1.0
 40
1.0
 40
1.0
 40
1.0
 10
-56.3468655834
 20
0.8377691423
 30
0.0
 10
-55.8400295536
 20
0.2108666268
 30
0.0
 10
-54.7962358754
 20
-1.0138903243
 30
0.0
 10
-53.1434345506
 20
-2.7627843728
 30
0.0
 10
-51.7008636562
 20
-4.1427992836
 30
0.0
 10
-50.5137567365
 20
-5.1975022059
 30
0.0
 10
-49.6101062629
 20
-5.9621635011
 30
0.0
 10
-48.6927364644
 20
-6.701913637
 30
0.0
 10
-47.7628160078
 20
-7.416865151
 30
0.0
 10
-46.8214643675
 20
-8.1072554466
 30
0.0
 10
-46.0273563926
 20
-8.6631089755
 30
0.0
 10
-45.3873686251
 20
-9.096029941
 30
0.0
 10
-44.9056375642
 20
-9.4146904873
 30
0.0
 10
-44.4216531092
 20
-9.7279479177
 30
0.0
 10
-43.9353882982
 20
-10.0361917691
 30
0.0
 10
-43.4466690241
 20
-10.3401081767
 30
0.0
 10
-43.0373138738
 20
-10.5905875437
 30
0.0
 10
-42.7498468237
 20
-10.765443417
 30
0.0
 10
-42.5849957284
 20
-10.8658461804
 30
0.0
 10
-42.481670563
 20
-10.9289933922
 30
0.0
 10
-42.3988479448
 20
-10.9799137526
 30
0.0
 10
-42.3365079221
 20
-11.0184706554
 30
0.0
 10
-42.2739965841
 20
-11.0574713521
 30
0.0
 10
-42.2112181626
 20
-11.0971791213
 30
0.0
 10
-42.1481035898
 20
-11.1379554736
 30
0.0
 10
-42.0951033326
 20
-11.173782547
 30
0.0
 10
-42.0587802886
 20
-11.2002367867
 30
0.0
 10
-42.0406376604
 20
-11.2158614087
 30
0.0
 10
-42.0330639215
 20
-11.2236380708
 30
0.0
 10
-42.0289606277
 20
-11.2311813832
 30
0.0
 10
-42.0345518458
 20
-11.2335271341
 30
0.0
 10
-42.0412827595
 20
-11.2329250297
 30
0.0
 10
-42.0559632661
 20
-11.2301090053
 30
0.0
 10
-42.068325822
 20
-11.2260492319
 30
0.0
 10
-42.0768982636
 20
-11.2231182497
 30
0.0
  0
SPLINE
  5
393
100
AcDbEntity
  8
0
100
AcDbSpline
 62
7
  6
CONTINUOUS
 70
0
 71
3
 72
13
 73
9
 74
0
 42
0.0000001
 43
0.0000001
 44
0.0000000001
 40
0.0
 40
0.0
 40
0.0
 40
0.0
 40
0.2408614745
 40
0.363786738
 40
0.4883906215
 40
0.6144672019
 40
0.7417876957
 40
1.0
 40
1.0
 40
1.0
 40
1.0
 10
-46.1534485382
 20
-8.9022242936
 30
0.0
 10
-47.5390315303
 20
-8.0360999603
 30
0.0
 10
-49.5826952585
 20
-6.6461548789
 30
0.0
 10
-52.1973598971
 20
-4.6097621546
 30
0.0
 10
-54.123773042
 20
-2.9612165134
 30
0.0
 10
-55.9935768945
 20
-1.2047704708
 30
0.0
 10
-58.4097597558
 20
1.2879010513
 30
0.0
 10
-60.0886167409
 20
3.3020018491
 30
0.0
 10
-61.132057128
 20
4.7090469751
 30
0.0
  0
SPLINE
  5
394
100
AcDbEntity
  8
0
100
AcDbSpline
 62
7
  6
CONTINUOUS
 70
0
 71
3
 72
10
 73
6
 74
0
 42
0.0000001
 43
0.0000001
 44
0.0000000001
 40
0.0
 40
0.0
 40
0.0
 40
0.0
 40
0.2618488901
 40
0.5238253477
 40
1.0
 40
1.0
 40
1.0
 40
1.0
 10
-60.5397576192
 20
5.7992573601
 30
0.0
 10
-60.6125075753
 20
5.7441855728
 30
0.0
 10
-60.746887652
 20
5.6187090496
 30
0.0
 10
-60.9618461756
 20
5.344114595
 30
0.0
 10
-61.073470283
 20
5.1040866016
 30
0.0
 10
-61.1089993687
 20
4.9420070705
 30
0.0
  0
SPLINE
  5
395
100
AcDbEntity
  8
0
100
AcDbSpline
 62
7
  6
CONTINUOUS
 70
0
 71
3
 72
9
 73
5
 74
0
 42
0.0000001
 43
0.0000001
 44
0.0000000001
 40
0.0
 40
0.0
 40
0.0
 40
0.0
 40
0.2645583269
 40
1.0
 40
1.0
 40
1.0
 40
1.0
 10
-61.1089993687
 20
4.9420070705
 30
0.0
 10
-61.1134733882
 20
4.9215971189
 30
0.0
 10
-61.1280762444
 20
4.8439920773
 30
0.0
 10
-61.1333416746
 20
4.7644026099
 30
0.0
 10
-61.1301354351
 20
4.7064066806
 30
0.0
  0
SPLINE
  5
396
100
AcDbEntity
  8
0
100
AcDbSpline
 62
7
  6
CONTINUOUS
 70
0
 71
3
 72
9
 73
5
 74
0
 42
0.0000001
 43
0.0000001
 44
0.0000000001
 40
0.0
 40
0.0
 40
0.0
 40
0.0
 40
0.5268873922
 40
1.0
 40
1.0
 40
1.0
 40
1.0
 10
-61.1299848716
 20
4.7063199015
 30
0.0
 10
-61.1506796435
 20
4.7181990599
 30
0.0
 10
-61.1874526865
 20
4.7462023567
 30
0.0
 10
-61.2104847639
 20
4.7874044562
 30
0.0
 10
-61.2156658762
 20
4.8081950826
 30
0.0
  0
SPLINE
  5
397
100
AcDbEntity
  8
0
100
AcDbSpline
 62
7
  6
CONTINUOUS
 70
0
 71
3
 72
9
 73
5
 74
0
 42
0.0000001
 43
0.0000001
 44
0.0000000001
 40
0.0
 40
0.0
 40
0.0
 40
0.0
 40
0.2549180793
 40
1.0
 40
1.0
 40
1.0
 40
1.0
 10
-59.0708123148
 20
18.9924823858
 30
0.0
 10
-59.2572722822
 20
18.1795748752
 30
0.0
 10
-59.90558476
 20
14.9724793514
 30
0.0
 10
-60.2149105905
 20
11.694493154
 30
0.0
 10
-60.2279054184
 20
9.2568360558
 30
0.0
  0
SPLINE
  5
398
100
AcDbEntity
  8
0
100
AcDbSpline
 62
7
  6
CONTINUOUS
 70
0
 71
3
 72
11
 73
7
 74
0
 42
0.0000001
 43
0.0000001
 44
0.0000000001
 40
0.0
 40
0.0
 40
0.0
 40
0.0
 40
0.2324147521
 40
0.473158709
 40
0.7282403113
 40
1.0
 40
1.0
 40
1.0
 40
1.0
 10
37.9399583953
 20
-19.4341478982
 30
0.0
 10
38.1631685839
 20
-19.5630487199
 30
0.0
 10
38.5794561308
 20
-19.8978456348
 30
0.0
 10
39.0393267909
 20
-20.5742242693
 30
0.0
 10
39.319983997
 20
-21.38701495
 30
0.0
 10
39.3785758915
 20
-21.9737902789
 30
0.0
 10
39.3785758915
 20
-22.2751813017
 30
0.0
  0
SPLINE
  5
399
100
AcDbEntity
  8
0
100
AcDbSpline
 62
7
  6
CONTINUOUS
 70
0
 71
3
 72
9
 73
5
 74
0
 42
0.0000001
 43
0.0000001
 44
0.0000000001
 40
0.0
 40
0.0
 40
0.0
 40
0.0
 40
0.2451995121
 40
1.0
 40
1.0
 40
1.0
 40
1.0
 10
44.1197233078
 20
-11.0651500642
 30
0.0
 10
44.2001004292
 20
-11.4013660949
 30
0.0
 10
44.4934058421
 20
-12.7806735267
 30
0.0
 10
44.6506622764
 20
-14.1881349689
 30
0.0
 10
44.6987793074
 20
-15.2511886365
 30
0.0
  0
SPLINE
  5
39A
100
AcDbEntity
  8
0
100
AcDbSpline
 62
7
  6
CONTINUOUS
 70
0
 71
3
 72
9
 73
5
 74
0
 42
0.0000001
 43
0.0000001
 44
0.0000000001
 40
0.0
 40
0.0
 40
0.0
 40
0.0
 40
0.2514378749
 40
1.0
 40
1.0
 40
1.0
 40
1.0
 10
41.4827108628
 20
-29.4563308662
 30
0.0
 10
41.1447443327
 20
-30.1288106338
 30
0.0
 10
39.7072737202
 20
-32.7552472834
 30
0.0
 10
37.9024532557
 20
-35.181940906
 30
0.0
 10
36.3772905021
 20
-36.8234296423
 30
0.0
  0
SPLINE
  5
39B
100
AcDbEntity
  8
0
100
AcDbSpline
 62
7
  6
CONTINUOUS
 70
0
 71
3
 72
9
 73
5
 74
0
 42
0.0000001
 43
0.0000001
 44
0.0000000001
 40
0.0
 40
0.0
 40
0.0
 40
0.0
 40
0.2572124953
 40
1.0
 40
1.0
 40
1.0
 40
1.0
 10
30.6450840443
 20
-41.5907197927
 30
0.0
 10
30.1912052518
 20
-41.873904916
 30
0.0
 10
28.393144441
 20
-42.9195699722
 30
0.0
 10
26.4583686611
 20
-43.7362277395
 30
0.0
 10
24.97681263
 20
-44.1741574402
 30
0.0
  0
SPLINE
  5
39C
100
AcDbEntity
  8
0
100
AcDbSpline
 62
7
  6
CONTINUOUS
 70
0
 71
3
 72
9
 73
5
 74
0
 42
0.0000001
 43
0.0000001
 44
0.0000000001
 40
0.0
 40
0.0
 40
0.0
 40
0.0
 40
0.4830806753
 40
1.0
 40
1.0
 40
1.0
 40
1.0
 10
36.7989762882
 20
-20.9165371331
 30
0.0
 10
36.619450254
 20
-20.8493611816
 30
0.0
 10
36.218224488
 20
-20.7822510821
 30
0.0
 10
35.8205764035
 20
-20.8536397582
 30
0.0
 10
35.625529773
 20
-20.9170961007
 30
0.0
  0
SPLINE
  5
39D
100
AcDbEntity
  8
0
100
AcDbSpline
 62
7
  6
CONTINUOUS
 70
0
 71
3
 72
10
 73
6
 74
0
 42
0.0000001
 43
0.0000001
 44
0.0000000001
 40
0.0
 40
0.0
 40
0.0
 40
0.0
 40
0.5188824094
 40
0.7631906615
 40
1.0
 40
1.0
 40
1.0
 40
1.0
 10
36.2151884336
 20
-27.1409738993
 30
0.0
 10
35.8395658016
 20
-27.2972486464
 30
0.0
 10
35.2430336241
 20
-27.4455361756
 30
0.0
 10
34.4558411751
 20
-27.4095249497
 30
0.0
 10
34.0870067185
 20
-27.3154868853
 30
0.0
 10
33.9131096444
 20
-27.2504172059
 30
0.0
  0
SPLINE
  5
39E
100
AcDbEntity
  8
0
100
AcDbSpline
 62
7
  6
CONTINUOUS
 70
0
 71
3
 72
11
 73
7
 74
0
 42
0.0000001
 43
0.0000001
 44
0.0000000001
 40
0.0
 40
0.0
 40
0.0
 40
0.0
 40
0.268328549
 40
0.5221545372
 40
0.7643242386
 40
1.0
 40
1.0
 40
1.0
 40
1.0
 10
31.2721169507
 20
-24.2110121418
 30
0.0
 10
31.2999875681
 20
-24.4652019077
 30
0.0
 10
31.4004652285
 20
-24.9565808792
 30
0.0
 10
31.6971757476
 20
-25.6284500536
 30
0.0
 10
32.1253763948
 20
-26.1875570177
 30
0.0
 10
32.4908791309
 20
-26.4695453488
 30
0.0
 10
32.6853730955
 20
-26.5818629449
 30
0.0
  0
SPLINE
  5
39F
100
AcDbEntity
  8
0
100
AcDbSpline
 62
7
  6
CONTINUOUS
 70
0
 71
3
 72
11
 73
7
 74
0
 42
0.0000001
 43
0.0000001
 44
0.0000000001
 40
0.0
 40
0.0
 40
0.0
 40
0.0
 40
0.2278884611
 40
0.4685621798
 40
0.7260509277
 40
1.0
 40
1.0
 40
1.0
 40
1.0
 10
36.7122218465
 20
-18.7655936346
 30
0.0
 10
36.4500758303
 20
-18.6675025252
 30
0.0
 10
35.8745561126
 20
-18.5542568665
 30
0.0
 10
34.9767090716
 20
-18.6480180887
 30
0.0
 10
34.0814421906
 20
-18.9871353048
 30
0.0
 10
33.5335382826
 20
-19.3523578865
 30
0.0
 10
33.2732202536
 20
-19.5655394261
 30
0.0
  0
SPLINE
  5
3A0
100
AcDbEntity
  8
0
100
AcDbSpline
 62
7
  6
CONTINUOUS
 70
0
 71
3
 72
9
 73
5
 74
0
 42
0.0000001
 43
0.0000001
 44
0.0000000001
 40
0.0
 40
0.0
 40
0.0
 40
0.0
 40
0.252139198
 40
1.0
 40
1.0
 40
1.0
 40
1.0
 10
37.3628077132
 20
-21.2907774971
 30
0.0
 10
37.3376791859
 20
-21.2643157847
 30
0.0
 10
37.234408953
 20
-21.1628580654
 30
0.0
 10
37.1165198339
 20
-21.0762483834
 30
0.0
 10
37.0227888987
 20
-21.0221200537
 30
0.0
  0
SPLINE
  5
3A1
100
AcDbEntity
  8
0
100
AcDbSpline
 62
7
  6
CONTINUOUS
 70
0
 71
3
 72
11
 73
7
 74
0
 42
0.0000001
 43
0.0000001
 44
0.0000000001
 40
0.0
 40
0.0
 40
0.0
 40
0.0
 40
0.2739490723
 40
0.5314378202
 40
0.7721115389
 40
1.0
 40
1.0
 40
1.0
 40
1.0
 10
34.117752217
 20
-20.0533180848
 30
0.0
 10
34.3780702461
 20
-19.8401365452
 30
0.0
 10
34.9259741541
 20
-19.4749139635
 30
0.0
 10
35.8212410351
 20
-19.1357967474
 30
0.0
 10
36.7190880761
 20
-19.0420355252
 30
0.0
 10
37.2946077937
 20
-19.1552811839
 30
0.0
 10
37.5567538099
 20
-19.2533722933
 30
0.0
  0
SPLINE
  5
3A2
100
AcDbEntity
  8
0
100
AcDbSpline
 62
7
  6
CONTINUOUS
 70
0
 71
3
 72
11
 73
7
 74
0
 42
0.0000001
 43
0.0000001
 44
0.0000000001
 40
0.0
 40
0.0
 40
0.0
 40
0.0
 40
0.2356757614
 40
0.4778454628
 40
0.731671451
 40
1.0
 40
1.0
 40
1.0
 40
1.0
 10
33.529905059
 20
-27.0696416036
 30
0.0
 10
33.3354110944
 20
-26.9573240075
 30
0.0
 10
32.9699083583
 20
-26.6753356764
 30
0.0
 10
32.541707711
 20
-26.1162287123
 30
0.0
 10
32.2449971919
 20
-25.4443595379
 30
0.0
 10
32.1445195316
 20
-24.9529805664
 30
0.0
 10
32.1166489142
 20
-24.698790803
 30
0.0
  0
SPLINE
  5
3A3
100
AcDbEntity
  8
0
100
AcDbSpline
 62
7
  6
CONTINUOUS
 70
0
 71
3
 72
14
 73
10
 74
0
 42
0.0000001
 43
0.0000001
 44
0.0000000001
 40
0.0
 40
0.0
 40
0.0
 40
0.0
 40
0.2647885525
 40
0.4023164084
 40
0.5369570059
 40
0.6649560079
 40
0.7841220407
 40
0.8947382651
 40
1.0
 40
1.0
 40
1.0
 40
1.0
 10
47.3366856089
 20
-60.2948948938
 30
0.0
 10
47.3366856089
 20
-60.8274371435
 30
0.0
 10
47.1257749309
 20
-61.6455805999
 30
0.0
 10
46.5521543053
 20
-62.5653796544
 30
0.0
 10
45.9885893237
 20
-63.1497828772
 30
0.0
 10
45.3385429707
 20
-63.5720134374
 30
0.0
 10
44.6460303934
 20
-63.799992509
 30
0.0
 10
43.9606654623
 20
-63.8105892391
 30
0.0
 10
43.540243814
 20
-63.663214906
 30
0.0
 10
43.3569350391
 20
-63.557310622
 30
0.0
  0
SPLINE
  5
3A4
100
AcDbEntity
  8
0
100
AcDbSpline
 62
7
  6
CONTINUOUS
 70
0
 71
3
 72
11
 73
7
 74
0
 42
0.0000001
 43
0.0000001
 44
0.0000000001
 40
0.0
 40
0.0
 40
0.0
 40
0.0
 40
0.2599809329
 40
0.5117338474
 40
0.7574566415
 40
1.0
 40
1.0
 40
1.0
 40
1.0
 10
42.3780313378
 20
-59.7286626608
 30
0.0
 10
41.3613839985
 20
-59.8788713368
 30
0.0
 10
39.3345832769
 20
-60.0280048256
 30
0.0
 10
36.3384518041
 20
-59.7666885665
 30
0.0
 10
33.4955578353
 20
-59.0195357859
 30
0.0
 10
31.7335753293
 20
-58.2025887076
 30
0.0
 10
30.9033369441
 20
-57.7230944393
 30
0.0
  0
SPLINE
  5
3A5
100
AcDbEntity
  8
0
100
AcDbSpline
 62
7
  6
CONTINUOUS
 70
0
 71
3
 72
21
 73
17
 74
0
 42
0.0000001
 43
0.0000001
 44
0.0000000001
 40
0.0
 40
0.0
 40
0.0
 40
0.0
 40
0.0602448726
 40
0.1230171151
 40
0.1880763195
 40
0.2549931968
 40
0.3918067236
 40
0.5283773649
 40
0.5950085308
 40
0.6596957035
 40
0.722040093
 40
0.7818358247
 40
0.8391115166
 40
0.8941582075
 40
0.9475297135
 40
1.0
 40
1.0
 40
1.0
 40
1.0
 10
44.8573584746
 20
-10.8097989341
 30
0.0
 10
43.7735346758
 20
-11.1003282057
 30
0.0
 10
41.606403511
 20
-11.8772800173
 30
0.0
 10
38.5097794248
 20
-13.5382783387
 30
0.0
 10
35.5678551766
 20
-15.6790283955
 30
0.0
 10
31.9217046762
 20
-19.1260877269
 30
0.0
 10
28.1494888678
 20
-24.2985834398
 30
0.0
 10
25.6757053039
 20
-30.1980304877
 30
0.0
 10
24.6221401796
 20
-35.0869193968
 30
0.0
 10
24.3232289512
 20
-38.6926816594
 30
0.0
 10
24.5181641087
 20
-42.1789354489
 30
0.0
 10
25.2044791521
 20
-45.4634226239
 30
0.0
 10
26.3688668741
 20
-48.4670031674
 30
0.0
 10
27.9875077465
 20
-51.115730382
 30
0.0
 10
30.022800666
 20
-53.3405559222
 30
0.0
 10
31.6325441293
 20
-54.5065563867
 30
0.0
 10
32.4788003641
 20
-54.9953630342
 30
0.0
  0
SPLINE
  5
3A6
100
AcDbEntity
  8
0
100
AcDbSpline
 62
7
  6
CONTINUOUS
 70
0
 71
3
 72
11
 73
7
 74
0
 42
0.0000001
 43
0.0000001
 44
0.0000000001
 40
0.0
 40
0.0
 40
0.0
 40
0.0
 40
0.2397948508
 40
0.4840664306
 40
0.7365895446
 40
1.0
 40
1.0
 40
1.0
 40
1.0
 10
57.2359165826
 20
-12.1312982012
 30
0.0
 10
56.3527744881
 20
-11.6211858864
 30
0.0
 10
54.4526951742
 20
-10.7815417262
 30
0.0
 10
51.3642410438
 20
-10.1410806043
 30
0.0
 10
48.1115114939
 20
-10.1251208851
 30
0.0
 10
45.9394746467
 20
-10.5197274086
 30
0.0
 10
44.8573584746
 20
-10.8097989341
 30
0.0
  0
SPLINE
  5
3A7
100
AcDbEntity
  8
0
100
AcDbSpline
 62
7
  6
CONTINUOUS
 70
0
 71
3
 72
11
 73
7
 74
0
 42
0.0000001
 43
0.0000001
 44
0.0000000001
 40
0.0
 40
0.0
 40
0.0
 40
0.0
 40
0.257191897
 40
0.5083704617
 40
0.7552840558
 40
1.0
 40
1.0
 40
1.0
 40
1.0
 10
19.1637294962
 20
-50.9919037462
 30
0.0
 10
18.240067879
 20
-51.0288875636
 30
0.0
 10
16.4070752763
 20
-50.9852998859
 30
0.0
 10
13.7188665607
 20
-50.5496459922
 30
0.0
 10
11.1623035535
 20
-49.7497247904
 30
0.0
 10
9.5642541385
 20
-48.9781506821
 30
0.0
 10
8.8026143841
 20
-48.5382283691
 30
0.0
  0
SPLINE
  5
3A8
100
AcDbEntity
  8
0
100
AcDbSpline
 62
7
  6
CONTINUOUS
 70
0
 71
3
 72
10
 73
6
 74
0
 42
0.0000001
 43
0.0000001
 44
0.0000000001
 40
0.0
 40
0.0
 40
0.0
 40
0.0
 40
0.5148942021
 40
0.7596744744
 40
1.0
 40
1.0
 40
1.0
 40
1.0
 10
24.3070806903
 20
-53.9167281099
 30
0.0
 10
23.838057633
 20
-54.0424542009
 30
0.0
 10
23.1033528489
 20
-54.1162214651
 30
0.0
 10
22.1750074488
 20
-53.9228679834
 30
0.0
 10
21.7525482861
 20
-53.7364203959
 30
0.0
 10
21.5562948584
 20
-53.6230532464
 30
0.0
  0
SPLINE
  5
3A9
100
AcDbEntity
  8
0
100
AcDbSpline
 62
7
  6
CONTINUOUS
 70
0
 71
3
 72
21
 73
17
 74
0
 42
0.0000001
 43
0.0000001
 44
0.0000000001
 40
0.0
 40
0.0
 40
0.0
 40
0.0
 40
0.0602453204
 40
0.1230168915
 40
0.188076233
 40
0.2549931598
 40
0.3918065514
 40
0.5283772569
 40
0.595008533
 40
0.6596957819
 40
0.7220402045
 40
0.7818359424
 40
0.8391116426
 40
0.894158349
 40
0.9475299679
 40
1.0
 40
1.0
 40
1.0
 40
1.0
 10
22.8995274196
 20
7.6182875396
 30
0.0
 10
21.5420001905
 20
7.2543894612
 30
0.0
 10
18.8276143112
 20
6.2812454436
 30
0.0
 10
14.949028487
 20
4.200778619
 30
0.0
 10
11.2641959913
 20
1.519450418
 30
0.0
 10
6.6973048482
 20
-2.7980891155
 30
0.0
 10
1.972499896
 20
-9.2767632981
 30
0.0
 10
-1.1259946512
 20
-16.6659663988
 30
0.0
 10
-2.4456265179
 20
-22.7894282565
 30
0.0
 10
-2.8200248674
 20
-27.3057433361
 30
0.0
 10
-2.57585785
 20
-31.6723683315
 30
0.0
 10
-1.7162217511
 20
-35.7862726742
 30
0.0
 10
-0.2577841143
 20
-39.5483294909
 30
0.0
 10
1.7696087905
 20
-42.8659320353
 30
0.0
 10
4.3188810732
 20
-45.6525602162
 30
0.0
 10
6.3351038988
 20
-47.113032139
 30
0.0
 10
7.3950612937
 20
-47.7252636171
 30
0.0
  0
SPLINE
  5
3AA
100
AcDbEntity
  8
0
100
AcDbSpline
 62
7
  6
CONTINUOUS
 70
0
 71
3
 72
10
 73
6
 74
0
 42
0.0000001
 43
0.0000001
 44
0.0000000001
 40
0.0
 40
0.0
 40
0.0
 40
0.0
 40
0.5117757005
 40
0.7576200159
 40
1.0
 40
1.0
 40
1.0
 40
1.0
 10
18.6373767212
 20
-50.9469984563
 30
0.0
 10
18.7804058204
 20
-51.3381670034
 30
0.0
 10
19.0832610516
 20
-51.8926056863
 30
0.0
 10
19.6516620027
 20
-52.4797215656
 30
0.0
 10
19.9779358561
 20
-52.7114217042
 30
0.0
 10
20.1487415851
 20
-52.8100888145
 30
0.0
  0
SPLINE
  5
3AB
100
AcDbEntity
  8
0
100
AcDbSpline
 62
7
  6
CONTINUOUS
 70
0
 71
3
 72
11
 73
7
 74
0
 42
0.0000001
 43
0.0000001
 44
0.0000000001
 40
0.0
 40
0.0
 40
0.0
 40
0.0
 40
0.2447333664
 40
0.4916697286
 40
0.7428476386
 40
1.0
 40
1.0
 40
1.0
 40
1.0
 10
39.8115403341
 20
5.1501168956
 30
0.0
 10
40.5723731051
 20
4.710696413
 30
0.0
 10
42.0377959502
 20
3.7132795102
 30
0.0
 10
44.0064220968
 20
1.9009400284
 30
0.0
 10
45.725889021
 20
-0.20670298
 30
0.0
 10
46.6792669441
 20
-1.7702049991
 30
0.0
 10
47.108679748
 20
-2.587453583
 30
0.0
  0
SPLINE
  5
3AC
100
AcDbEntity
  8
0
100
AcDbSpline
 62
7
  6
CONTINUOUS
 70
0
 71
3
 72
11
 73
7
 74
0
 42
0.0000001
 43
0.0000001
 44
0.0000000001
 40
0.0
 40
0.0
 40
0.0
 40
0.0
 40
0.239795473
 40
0.4840670356
 40
0.7365882743
 40
1.0
 40
1.0
 40
1.0
 40
1.0
 10
38.4039865351
 20
5.963080464
 30
0.0
 10
37.2977986916
 20
6.6019630749
 30
0.0
 10
34.9179314803
 20
7.6536939357
 30
0.0
 10
31.0495572003
 20
8.4558528114
 30
0.0
 10
26.9754401974
 20
8.4758702568
 30
0.0
 10
24.2549115186
 20
7.9816111284
 30
0.0
 10
22.8995274196
 20
7.6182875396
 30
0.0
  0
SPLINE
  5
3AD
100
AcDbEntity
  8
0
100
AcDbSpline
 62
7
  6
CONTINUOUS
 70
0
 71
3
 72
20
 73
16
 74
0
 42
0.0000001
 43
0.0000001
 44
0.0000000001
 40
0.0
 40
0.0
 40
0.0
 40
0.0
 40
0.0523740894
 40
0.1055739287
 40
0.1603179577
 40
0.2171371085
 40
0.2763345717
 40
0.3379815568
 40
0.4676215815
 40
0.5350967792
 40
0.6035414937
 40
0.7406133454
 40
0.8081946405
 40
0.8742915523
 40
1.0
 40
1.0
 40
1.0
 40
1.0
 10
58.8113691289
 20
-9.4035856632
 30
0.0
 10
59.7240059219
 20
-9.9307001462
 30
0.0
 10
61.4632023597
 20
-11.1785913334
 30
0.0
 10
63.6844861035
 20
-13.5436362147
 30
0.0
 10
65.4805920465
 20
-16.3519484492
 30
0.0
 10
66.8128356304
 20
-19.5363279555
 30
0.0
 10
67.6556477903
 20
-23.0254345866
 30
0.0
 10
68.1136083476
 20
-28.0593419254
 30
0.0
 10
67.5116073799
 20
-33.2990377249
 30
0.0
 10
65.9774434378
 20
-38.4265709928
 30
0.0
 10
63.8050645314
 20
-43.4831529649
 30
0.0
 10
60.7881483681
 20
-48.1430010062
 30
0.0
 10
57.0784428843
 20
-52.148634463
 30
0.0
 10
53.0973466555
 20
-55.5354355507
 30
0.0
 10
49.6947269482
 20
-57.48365583
 30
0.0
 10
47.3366856089
 20
-58.3994482529
 30
0.0
  0
SPLINE
  5
3AE
100
AcDbEntity
  8
0
100
AcDbSpline
 62
7
  6
CONTINUOUS
 70
0
 71
3
 72
11
 73
7
 74
0
 42
0.0000001
 43
0.0000001
 44
0.0000000001
 40
0.0
 40
0.0
 40
0.0
 40
0.0
 40
0.2397948508
 40
0.4840664306
 40
0.7365895446
 40
1.0
 40
1.0
 40
1.0
 40
1.0
 10
32.4788003641
 20
-54.9953630342
 30
0.0
 10
33.3619424587
 20
-55.505475349
 30
0.0
 10
35.2620217725
 20
-56.3451195092
 30
0.0
 10
38.3504759055
 20
-56.9855806311
 30
0.0
 10
41.6032054529
 20
-57.0015403503
 30
0.0
 10
43.7752423
 20
-56.6069338243
 30
0.0
 10
44.8573584746
 20
-56.3168622987
 30
0.0
  0
SPLINE
  5
3AF
100
AcDbEntity
  8
0
100
AcDbSpline
 62
7
  6
CONTINUOUS
 70
0
 71
3
 72
11
 73
7
 74
0
 42
0.0000001
 43
0.0000001
 44
0.0000000001
 40
0.0
 40
0.0
 40
0.0
 40
0.0
 40
0.2626560686
 40
0.5154483034
 40
0.7602984175
 40
1.0
 40
1.0
 40
1.0
 40
1.0
 10
24.3070806903
 20
6.8053231076
 30
0.0
 10
25.5219269449
 20
7.1309741912
 30
0.0
 10
27.958183383
 20
7.5949749472
 30
0.0
 10
31.6148622063
 20
7.6854817131
 30
0.0
 10
35.1238794352
 20
7.1520203289
 30
0.0
 10
37.3290323756
 20
6.3792097358
 30
0.0
 10
38.3708109626
 20
5.8973557821
 30
0.0
  0
SPLINE
  5
3B0
100
AcDbEntity
  8
0
100
AcDbSpline
 62
7
  6
CONTINUOUS
 70
0
 71
3
 72
21
 73
17
 74
0
 42
0.0000001
 43
0.0000001
 44
0.0000000001
 40
0.0
 40
0.0
 40
0.0
 40
0.0
 40
0.0602448726
 40
0.1230171151
 40
0.1880763195
 40
0.2549931968
 40
0.3918067236
 40
0.5283773649
 40
0.5950085308
 40
0.6596957035
 40
0.722040093
 40
0.7818358247
 40
0.8391115166
 40
0.8941582075
 40
0.9475297135
 40
1.0
 40
1.0
 40
1.0
 40
1.0
 10
44.8573584746
 20
-56.3168622987
 30
0.0
 10
45.9411822709
 20
-56.0263330297
 30
0.0
 10
48.1083134358
 20
-55.2493812181
 30
0.0
 10
51.2049375219
 20
-53.5883828941
 30
0.0
 10
54.1468617701
 20
-51.4476328373
 30
0.0
 10
57.7930122705
 20
-48.0005735084
 30
0.0
 10
61.5652280789
 20
-42.8280777955
 30
0.0
 10
64.0390116429
 20
-36.9286307476
 30
0.0
 10
65.0925767671
 20
-32.0397418361
 30
0.0
 10
65.3914879956
 20
-28.4339795759
 30
0.0
 10
65.1965528381
 20
-24.9477257839
 30
0.0
 10
64.5102377947
 20
-21.6632386115
 30
0.0
 10
63.3458500726
 20
-18.659658068
 30
0.0
 10
61.7272092002
 20
-16.0109308534
 30
0.0
 10
59.6919162807
 20
-13.7861053132
 30
0.0
 10
58.0821728174
 20
-12.6201048486
 30
0.0
 10
57.2359165826
 20
-12.1312982012
 30
0.0
  0
SPLINE
  5
3B1
100
AcDbEntity
  8
0
100
AcDbSpline
 62
7
  6
CONTINUOUS
 70
0
 71
3
 72
21
 73
17
 74
0
 42
0.0000001
 43
0.0000001
 44
0.0000000001
 40
0.0
 40
0.0
 40
0.0
 40
0.0
 40
0.0602451785
 40
0.1230168441
 40
0.1880762145
 40
0.254993071
 40
0.3918062874
 40
0.5283769338
 40
0.5950082943
 40
0.6596956778
 40
0.7220402391
 40
0.7818360815
 40
0.8391117818
 40
0.8941584098
 40
0.9475298293
 40
1.0
 40
1.0
 40
1.0
 40
1.0
 10
24.3070806903
 20
3.9553858052
 30
0.0
 10
23.0853090292
 20
3.6278782992
 30
0.0
 10
20.6423628585
 20
2.752048786
 30
0.0
 10
17.1516339192
 20
0.8796323149
 30
0.0
 10
13.8352838616
 20
-1.5335642786
 30
0.0
 10
9.7250849115
 20
-5.4193466238
 30
0.0
 10
5.4727653212
 20
-11.250149397
 30
0.0
 10
2.6841226511
 20
-17.9004296804
 30
0.0
 10
1.4964514425
 20
-23.4115482898
 30
0.0
 10
1.1594874276
 20
-27.4762388396
 30
0.0
 10
1.3792294671
 20
-31.4062098799
 30
0.0
 10
2.1528993473
 20
-35.1087300542
 30
0.0
 10
3.4654935826
 20
-38.4945816492
 30
0.0
 10
5.2901494177
 20
-41.4804175826
 30
0.0
 10
7.5844975417
 20
-43.9883710071
 30
0.0
 10
9.3990894853
 20
-45.3028133795
 30
0.0
 10
10.3530689185
 20
-45.8537968139
 30
0.0
  0
SPLINE
  5
3B2
100
AcDbEntity
  8
0
100
AcDbSpline
 62
7
  6
CONTINUOUS
 70
0
 71
3
 72
11
 73
7
 74
0
 42
0.0000001
 43
0.0000001
 44
0.0000000001
 40
0.0
 40
0.0
 40
0.0
 40
0.0
 40
0.2323613882
 40
0.4731168281
 40
0.7282452266
 40
1.0
 40
1.0
 40
1.0
 40
1.0
 10
43.3569350391
 20
-63.557310622
 30
0.0
 10
43.2051025208
 20
-63.4695913384
 30
0.0
 10
42.9218787413
 20
-63.2418048115
 30
0.0
 10
42.6088616864
 20
-62.7816139438
 30
0.0
 10
42.4179307043
 20
-62.2284841407
 30
0.0
 10
42.3780313378
 20
-61.829187807
 30
0.0
 10
42.3780313378
 20
-61.6241093017
 30
0.0
  0
SPLINE
  5
3B3
100
AcDbEntity
  8
0
100
AcDbSpline
 62
7
  6
CONTINUOUS
 70
0
 71
3
 72
11
 73
7
 74
0
 42
0.0000001
 43
0.0000001
 44
0.0000000001
 40
0.0
 40
0.0
 40
0.0
 40
0.0
 40
0.2399260064
 40
0.4842537973
 40
0.7366880083
 40
1.0
 40
1.0
 40
1.0
 40
1.0
 10
21.5562948584
 20
-53.6230532464
 30
0.0
 10
21.3617897432
 20
-53.5106960239
 30
0.0
 10
20.9923213356
 20
-53.2410892479
 30
0.0
 10
20.5290331995
 20
-52.7239259464
 30
0.0
 10
20.1655566798
 20
-52.1072352164
 30
0.0
 10
19.999497243
 20
-51.6507617021
 30
0.0
 10
19.9343771802
 20
-51.4129986495
 30
0.0
  0
SPLINE
  5
3B4
100
AcDbEntity
  8
0
100
AcDbSpline
 62
7
  6
CONTINUOUS
 70
0
 71
3
 72
21
 73
17
 74
0
 42
0.0000001
 43
0.0000001
 44
0.0000000001
 40
0.0
 40
0.0
 40
0.0
 40
0.0
 40
0.0524701482
 40
0.1058418137
 40
0.1608885577
 40
0.218164232
 40
0.2779599579
 40
0.3403043615
 40
0.404991533
 40
0.4716226951
 40
0.6081932084
 40
0.7450062149
 40
0.8119231256
 40
0.876982648
 40
0.9397546886
 40
1.0
 40
1.0
 40
1.0
 40
1.0
 10
30.9033369441
 20
-57.7230944393
 30
0.0
 10
29.9493474474
 20
-57.1721291937
 30
0.0
 10
28.1347702105
 20
-55.8576531181
 30
0.0
 10
25.8404079793
 20
-53.3497076565
 30
0.0
 10
24.0157579278
 20
-50.3638566965
 30
0.0
 10
22.7031739058
 20
-46.9780022694
 30
0.0
 10
21.9295152321
 20
-43.2754859279
 30
0.0
 10
21.709776459
 20
-39.3455250629
 30
0.0
 10
22.0467376342
 20
-35.2808460803
 30
0.0
 10
23.2344001433
 20
-29.7697369679
 30
0.0
 10
26.0230279747
 20
-23.1194624605
 30
0.0
 10
30.275335053
 20
-17.2886571117
 30
0.0
 10
34.3855297536
 20
-13.4028698947
 30
0.0
 10
37.7018859124
 20
-10.9896599612
 30
0.0
 10
41.1926283975
 20
-9.1172383771
 30
0.0
 10
43.6355840195
 20
-8.2414031565
 30
0.0
 10
44.8573584746
 20
-7.9138949037
 30
0.0
  0
SPLINE
  5
3B5
100
AcDbEntity
  8
0
100
AcDbSpline
 62
7
  6
CONTINUOUS
 70
0
 71
3
 72
11
 73
7
 74
0
 42
0.0000001
 43
0.0000001
 44
0.0000000001
 40
0.0
 40
0.0
 40
0.0
 40
0.0
 40
0.2634112643
 40
0.5159325748
 40
0.7602041638
 40
1.0
 40
1.0
 40
1.0
 40
1.0
 10
44.8573584746
 20
-7.9138949037
 30
0.0
 10
46.0772020573
 20
-7.5869042369
 30
0.0
 10
48.5256755652
 20
-7.142071756
 30
0.0
 10
52.1923804543
 20
-7.1600803991
 30
0.0
 10
55.6739157874
 20
-7.882031099
 30
0.0
 10
57.8158070154
 20
-8.8285757413
 30
0.0
 10
58.8113691289
 20
-9.4035856632
 30
0.0
  0
SPLINE
  5
3B6
100
AcDbEntity
  8
0
100
AcDbSpline
 62
7
  6
CONTINUOUS
 70
0
 71
3
 72
11
 73
7
 74
0
 42
0.0000001
 43
0.0000001
 44
0.0000000001
 40
0.0
 40
0.0
 40
0.0
 40
0.0
 40
0.2397951944
 40
0.484066992
 40
0.7365885927
 40
1.0
 40
1.0
 40
1.0
 40
1.0
 10
38.2610924648
 20
2.4656969939
 30
0.0
 10
37.2655287688
 20
3.0406979724
 30
0.0
 10
35.1236443378
 20
3.9872492696
 30
0.0
 10
31.6421079964
 20
4.7091972262
 30
0.0
 10
27.9754006511
 20
4.7272098344
 30
0.0
 10
25.5269249131
 20
4.2823766422
 30
0.0
 10
24.3070806903
 20
3.9553858052
 30
0.0
  0
SPLINE
  5
3B7
100
AcDbEntity
  8
0
100
AcDbSpline
 62
7
  6
CONTINUOUS
 70
0
 71
3
 72
20
 73
16
 74
0
 42
0.0000001
 43
0.0000001
 44
0.0000000001
 40
0.0
 40
0.0
 40
0.0
 40
0.0
 40
0.0523021536
 40
0.1056122359
 40
0.1604784243
 40
0.2172957617
 40
0.2762850734
 40
0.3374933716
 40
0.4657631808
 40
0.5324361219
 40
0.6001666126
 40
0.7365994805
 40
0.8044297718
 40
0.8712630599
 40
1.0
 40
1.0
 40
1.0
 40
1.0
 10
7.4357500058
 20
-47.6639049412
 30
0.0
 10
6.5595559391
 20
-47.0459063068
 30
0.0
 10
4.8990998264
 20
-45.6357413115
 30
0.0
 10
2.7892663067
 20
-43.0918514311
 30
0.0
 10
1.081117056
 20
-40.1553455134
 30
0.0
 10
-0.1948654568
 20
-36.883648483
 30
0.0
 10
-1.0180156368
 20
-33.3370746414
 30
0.0
 10
-1.5018333686
 20
-28.25448772
 30
0.0
 10
-1.008523992
 20
-22.969005337
 30
0.0
 10
0.3566554518
 20
-17.7526876848
 30
0.0
 10
2.3262048452
 20
-12.5521581418
 30
0.0
 10
5.106831509
 20
-7.6651497217
 30
0.0
 10
8.5732085209
 20
-3.3097646606
 30
0.0
 10
12.3667653762
 20
0.541789653
 30
0.0
 10
15.6423989443
 20
2.9341121683
 30
0.0
 10
17.9520406014
 20
4.2110903256
 30
0.0
  0
SPLINE
  5
3B8
100
AcDbEntity
  8
0
100
AcDbSpline
 62
7
  6
CONTINUOUS
 70
0
 71
3
 72
9
 73
5
 74
0
 42
0.0000001
 43
0.0000001
 44
0.0000000001
 40
0.0
 40
0.0
 40
0.0
 40
0.0
 40
0.2564962321
 40
1.0
 40
1.0
 40
1.0
 40
1.0
 10
17.9520406014
 20
4.2110903256
 30
0.0
 10
18.4663421534
 20
4.4954425966
 30
0.0
 10
20.5019434848
 20
5.5472976989
 30
0.0
 10
22.6616808646
 20
6.3642580436
 30
0.0
 10
24.3070806903
 20
6.8053231076
 30
0.0
  0
SPLINE
  5
3B9
100
AcDbEntity
  8
0
100
AcDbSpline
 62
7
  6
CONTINUOUS
 70
0
 71
3
 72
10
 73
6
 74
0
 42
0.0000001
 43
0.0000001
 44
0.0000000001
 40
0.0
 40
0.0
 40
0.0
 40
0.0
 40
0.2405483275
 40
0.4865773268
 40
1.0
 40
1.0
 40
1.0
 40
1.0
 10
-7.2405057064
 20
26.0955752256
 30
0.0
 10
-8.0032874066
 20
26.3278867828
 30
0.0
 10
-9.5854006737
 20
26.678664542
 30
0.0
 10
-12.9003270867
 20
26.9136803204
 30
0.0
 10
-15.4311198509
 20
26.5504581588
 30
0.0
 10
-17.0749855268
 20
26.1098043411
 30
0.0
  0
SPLINE
  5
3BA
100
AcDbEntity
  8
0
100
AcDbSpline
 62
7
  6
CONTINUOUS
 70
0
 71
3
 72
11
 73
7
 74
0
 42
0.0000001
 43
0.0000001
 44
0.0000000001
 40
0.0
 40
0.0
 40
0.0
 40
0.0
 40
0.2494794114
 40
0.499112759
 40
0.7491439776
 40
1.0
 40
1.0
 40
1.0
 40
1.0
 10
35.0258788387
 20
7.9142300669
 30
0.0
 10
33.5458773613
 20
8.7690386087
 30
0.0
 10
30.3998905189
 20
10.1790319609
 30
0.0
 10
25.3561377845
 20
11.2947589471
 30
0.0
 10
20.1837267425
 20
11.3956350598
 30
0.0
 10
16.7797356765
 20
10.8059652079
 30
0.0
 10
15.1197857706
 20
10.3609998596
 30
0.0
  0
SPLINE
  5
3BB
100
AcDbEntity
  8
0
100
AcDbSpline
 62
7
  6
CONTINUOUS
 70
0
 71
3
 72
15
 73
11
 74
0
 42
0.0000001
 43
0.0000001
 44
0.0000000001
 40
0.0
 40
0.0
 40
0.0
 40
0.0
 40
0.1277224861
 40
0.2546202653
 40
0.38047974
 40
0.5053488583
 40
0.6294762185
 40
0.7531549051
 40
0.8766166963
 40
1.0
 40
1.0
 40
1.0
 40
1.0
 10
-5.8413917101
 20
-7.8560522559
 30
0.0
 10
-6.6144298135
 20
-9.5146625327
 30
0.0
 10
-7.9006188489
 20
-12.9473890988
 30
0.0
 10
-8.982522014
 20
-18.3135960702
 30
0.0
 10
-9.16012364
 20
-23.7476386946
 30
0.0
 10
-8.3899503036
 20
-29.0923979314
 30
0.0
 10
-6.6525299278
 20
-34.1757155727
 30
0.0
 10
-3.9641347255
 20
-38.8076956026
 30
0.0
 10
-0.3973675054
 20
-42.7888095352
 30
0.0
 10
2.4861575149
 20
-44.8900448654
 30
0.0
 10
4.0169203005
 20
-45.774171756
 30
0.0
  0
SPLINE
  5
3BC
100
AcDbEntity
  8
0
100
AcDbSpline
 62
7
  6
CONTINUOUS
 70
0
 71
3
 72
11
 73
7
 74
0
 42
0.0000001
 43
0.0000001
 44
0.0000000001
 40
0.0
 40
0.0
 40
0.0
 40
0.0
 40
0.2470210198
 40
0.4960244184
 40
0.7471601908
 40
1.0
 40
1.0
 40
1.0
 40
1.0
 10
15.1192521852
 20
10.3608568221
 30
0.0
 10
13.3354124153
 20
9.8826445679
 30
0.0
 10
9.8389799797
 20
8.570454223
 30
0.0
 10
5.0293733048
 20
5.674781513
 30
0.0
 10
0.7558506783
 20
1.9706442553
 30
0.0
 10
-1.6596015799
 20
-0.9465921302
 30
0.0
 10
-2.7446726559
 20
-2.4944848332
 30
0.0
  0
SPLINE
  5
3BD
100
AcDbEntity
  8
0
100
AcDbSpline
 62
7
  6
CONTINUOUS
 70
0
 71
3
 72
11
 73
7
 74
0
 42
0.0000001
 43
0.0000001
 44
0.0000000001
 40
0.0
 40
0.0
 40
0.0
 40
0.0
 40
0.259943691
 40
0.5166474433
 40
0.7649140565
 40
1.0
 40
1.0
 40
1.0
 40
1.0
 10
5.0476471951
 20
15.5638051461
 30
0.0
 10
4.7320102647
 20
16.9302994134
 30
0.0
 10
3.9859375354
 20
19.6203510843
 30
0.0
 10
2.5391588186
 20
23.4910184382
 30
0.0
 10
0.8044855925
 20
27.0935236462
 30
0.0
 10
-0.5575000935
 20
29.3243532486
 30
0.0
 10
-1.2807346567
 20
30.3663063666
 30
0.0
  0
SPLINE
  5
3BE
100
AcDbEntity
  8
0
100
AcDbSpline
 62
7
  6
CONTINUOUS
 70
0
 71
3
 72
9
 73
5
 74
0
 42
0.0000001
 43
0.0000001
 44
0.0000000001
 40
0.0
 40
0.0
 40
0.0
 40
0.0
 40
0.5086593959
 40
1.0
 40
1.0
 40
1.0
 40
1.0
 10
-0.8955408398
 20
16.3126302322
 30
0.0
 10
-1.3092058951
 20
17.7774184659
 30
0.0
 10
-2.2734525925
 20
20.6166739634
 30
0.0
 10
-3.540256414
 20
23.335910976
 30
0.0
 10
-4.2423509204
 20
24.6276977803
 30
0.0
  0
SPLINE
  5
3BF
100
AcDbEntity
  8
0
100
AcDbSpline
 62
7
  6
CONTINUOUS
 70
0
 71
3
 72
20
 73
16
 74
0
 42
0.0000001
 43
0.0000001
 44
0.0000000001
 40
0.0
 40
0.0
 40
0.0
 40
0.0
 40
0.1227234548
 40
0.1878062793
 40
0.2547476876
 40
0.3916134424
 40
0.460425718
 40
0.5284817096
 40
0.659570699
 40
0.721937942
 40
0.7817555153
 40
0.8390521217
 40
0.89411899
 40
0.9475102055
 40
1.0
 40
1.0
 40
1.0
 40
1.0
 10
-17.0749855268
 20
26.1098043411
 30
0.0
 10
-19.3934651977
 20
25.488313829
 30
0.0
 10
-22.798708532
 20
23.9327742426
 30
0.0
 10
-26.8324600581
 20
20.9950490766
 30
0.0
 10
-30.6642299434
 20
17.3740623613
 30
0.0
 10
-33.8402389736
 20
13.0168100065
 30
0.0
 10
-36.1951202278
 20
8.1971190236
 30
0.0
 10
-37.9235356864
 20
3.240093723
 30
0.0
 10
-38.7190192237
 20
-1.8827453049
 30
0.0
 10
-38.4414095808
 20
-6.8433477458
 30
0.0
 10
-37.7204435805
 20
-10.2941478572
 30
0.0
 10
-36.497245176
 20
-13.449293302
 30
0.0
 10
-34.7968574236
 20
-16.2318077243
 30
0.0
 10
-32.6587779634
 20
-18.5689933191
 30
0.0
 10
-30.9677216631
 20
-19.7938617051
 30
0.0
 10
-30.0787316834
 20
-20.3073687451
 30
0.0
  0
SPLINE
  5
3C0
100
AcDbEntity
  8
0
100
AcDbSpline
 62
7
  6
CONTINUOUS
 70
0
 71
3
 72
9
 73
5
 74
0
 42
0.0000001
 43
0.0000001
 44
0.0000000001
 40
0.0
 40
0.0
 40
0.0
 40
0.0
 40
0.2539168855
 40
1.0
 40
1.0
 40
1.0
 40
1.0
 10
19.1767805725
 20
6.31788551
 30
0.0
 10
19.483391468
 20
6.450152073
 30
0.0
 10
20.6998533074
 20
6.9499860086
 30
0.0
 10
21.9518206511
 20
7.3642457312
 30
0.0
 10
22.8995274196
 20
7.6182875396
 30
0.0
  0
SPLINE
  5
3C1
100
AcDbEntity
  8
0
100
AcDbSpline
 62
7
  6
CONTINUOUS
 70
0
 71
3
 72
11
 73
7
 74
0
 42
0.0000001
 43
0.0000001
 44
0.0000000001
 40
0.0
 40
0.0
 40
0.0
 40
0.0
 40
0.2350859435
 40
0.4833525567
 40
0.740056309
 40
1.0
 40
1.0
 40
1.0
 40
1.0
 10
-5.4129465522
 20
29.2586276929
 30
0.0
 10
-4.6897119865
 20
28.2166745749
 30
0.0
 10
-3.3277263005
 20
25.9858449726
 30
0.0
 10
-1.5930530744
 20
22.3833397671
 30
0.0
 10
-0.1462743576
 20
18.5126724107
 30
0.0
 10
0.5997983717
 20
15.8226207398
 30
0.0
 10
0.915435302
 20
14.4561264725
 30
0.0
  0
SPLINE
  5
3C2
100
AcDbEntity
  8
0
100
AcDbSpline
 62
7
  6
CONTINUOUS
 70
0
 71
3
 72
11
 73
7
 74
0
 42
0.0000001
 43
0.0000001
 44
0.0000000001
 40
0.0
 40
0.0
 40
0.0
 40
0.0
 40
0.2398050028
 40
0.4840866961
 40
0.7366090092
 40
1.0
 40
1.0
 40
1.0
 40
1.0
 10
35.0258755722
 20
7.9142244154
 30
0.0
 10
33.9196691512
 20
8.5531781565
 30
0.0
 10
31.539649545
 20
9.6048529239
 30
0.0
 10
27.6711725651
 20
10.4070361353
 30
0.0
 10
23.5970964512
 20
10.4269461946
 30
0.0
 10
20.8766796162
 20
9.9326910972
 30
0.0
 10
19.5213995632
 20
9.5694021743
 30
0.0
  0
SPLINE
  5
3C3
100
AcDbEntity
  8
0
100
AcDbSpline
 62
7
  6
CONTINUOUS
 70
0
 71
3
 72
9
 73
5
 74
0
 42
0.0000001
 43
0.0000001
 44
0.0000000001
 40
0.0
 40
0.0
 40
0.0
 40
0.0
 40
0.2537285617
 40
1.0
 40
1.0
 40
1.0
 40
1.0
 10
22.8995274196
 20
7.6182875396
 30
0.0
 10
23.2089915302
 20
7.7012423343
 30
0.0
 10
24.4346719439
 20
8.0051475736
 30
0.0
 10
25.6839269156
 20
8.2153947681
 30
0.0
 10
26.6211319246
 20
8.313601737
 30
0.0
  0
SPLINE
  5
3C4
100
AcDbEntity
  8
0
100
AcDbSpline
 62
7
  6
CONTINUOUS
 70
0
 71
3
 72
15
 73
11
 74
0
 42
0.0000001
 43
0.0000001
 44
0.0000000001
 40
0.0
 40
0.0
 40
0.0
 40
0.0
 40
0.1150939796
 40
0.237495726
 40
0.3657814852
 40
0.497480708
 40
0.6295713961
 40
0.7589705176
 40
0.8830204538
 40
1.0
 40
1.0
 40
1.0
 40
1.0
 10
-8.4636911619
 20
-27.7043121529
 30
0.0
 10
-9.0325925946
 20
-26.0101487822
 30
0.0
 10
-9.7479159646
 20
-22.349727396
 30
0.0
 10
-9.5786369204
 20
-16.634002452
 30
0.0
 10
-8.2298446243
 20
-10.8140711734
 30
0.0
 10
-5.7787914314
 20
-5.2052225893
 30
0.0
 10
-2.3600266434
 20
-0.1074405751
 30
0.0
 10
1.8445149348
 20
4.2039939313
 30
0.0
 10
6.6083573223
 20
7.4928267085
 30
0.0
 10
10.1090132699
 20
8.9254318316
 30
0.0
 10
11.8634818336
 20
9.3957338069
 30
0.0
  0
SPLINE
  5
3C5
100
AcDbEntity
  8
0
100
AcDbSpline
 62
7
  6
CONTINUOUS
 70
0
 71
3
 72
20
 73
16
 74
0
 42
0.0000001
 43
0.0000001
 44
0.0000000001
 40
0.0
 40
0.0
 40
0.0
 40
0.0
 40
0.0602678344
 40
0.1230639042
 40
0.1881478328
 40
0.2550903127
 40
0.3919456548
 40
0.5285707379
 40
0.5952290753
 40
0.6599377501
 40
0.7817682831
 40
0.8390598844
 40
0.8941230592
 40
0.9475118775
 40
1.0
 40
1.0
 40
1.0
 40
1.0
 10
19.5213995632
 20
9.5694021743
 30
0.0
 10
18.163838222
 20
9.2054813731
 30
0.0
 10
15.4493557185
 20
8.2323044675
 30
0.0
 10
11.5706339103
 20
6.1517633861
 30
0.0
 10
7.8857046838
 20
3.4702736284
 30
0.0
 10
3.3188620928
 20
-0.8472537487
 30
0.0
 10
-1.4058519833
 20
-7.3263849433
 30
0.0
 10
-4.5044734365
 20
-14.7146867758
 30
0.0
 10
-5.8236808768
 20
-20.8405302747
 30
0.0
 10
-6.3140051641
 20
-26.7351975582
 30
0.0
 10
-5.6192513797
 20
-32.4832855489
 30
0.0
 10
-3.6358217829
 20
-37.5970405233
 30
0.0
 10
-1.6084288654
 20
-40.9150436003
 30
0.0
 10
0.9407587693
 20
-43.7014598054
 30
0.0
 10
2.9569711834
 20
-45.1619290943
 30
0.0
 10
4.0169235618
 20
-45.7741661121
 30
0.0
  0
ELLIPSE
  5
3C6
100
AcDbEntity
  8
0
100
AcDbEllipse
 62
7
  6
CONTINUOUS
 10
8.7953483687
 20
-12.734895823
 30
0.0
 11
-3.0635480461
 21
27.6902833265
 31
0.0
 40
0.7951578065
 41
6.3078599328
 42
6.5004651969
  0
ELLIPSE
  5
3C7
100
AcDbEntity
  8
0
100
AcDbEllipse
 62
7
  6
CONTINUOUS
 10
-2.0864532383
 20
-6.4498636077
 30
0.0
 11
10.2211547596
 21
23.9843192881
 31
0.0
 40
0.7898557819
 41
6.7562380991
 42
6.9337980738
  0
ENDSEC
  0
SECTION
  2
OBJECTS
  0
DICTIONARY
  5
C
100
AcDbDictionary
280
0
281
1
  3
ACAD_GROUP
350
D
  3
ACAD_MLINESTYLE
350
17
  3
ACAD_LAYOUT
350
1A
  3
ACAD_PLOTSETTINGS
350
19
  3
ACAD_PLOTSTYLENAME
350
E
  0
DICTIONARY
  5
D
102
{ACAD_REACTORS
330
C
102
}
100
AcDbDictionary
280
0
281
1
  0
ACDBDICTIONARYWDFLT
  5
E
102
{ACAD_REACTORS
330
C
102
}
100
AcDbDictionary
281
1
  3
Normal
350
F
100
AcDbDictionaryWithDefault
340
F
  0
DICTIONARY
  5
17
102
{ACAD_REACTORS
330
C
102
}
100
AcDbDictionary
280
0
281
1
  3
Standard
350
18
  0
DICTIONARY
  5
19
102
{ACAD_REACTORS
330
C
102
}
100
AcDbDictionary
281
1
  0
DICTIONARY
  5
1A
102
{ACAD_REACTORS
330
C
102
}
100
AcDbDictionary
281
1
  3
Model
350
3C8
  3
Layout1
350
3C9
  0
ACDBPLACEHOLDER
  5
F
102
{ACAD_REACTORS
330
E
102
}
  0
MLINESTYLE
  5
18
102
{ACAD_REACTORS
330
17
102
}
100
AcDbMlineStyle
  2
STANDARD
 70
0
  3

 62
256
 51
90.0
 52
90.0
 71
2
 49
0.5
 62
256
  6
BYLAYER
 49
-0.5
 62
256
  6
BYLAYER
  0
LAYOUT
  5
3C8
102
{ACAD_REACTORS
330
1A
102
}
100
AcDbPlotSettings
  1

  2
none_device
  4
ANSI_C_(22.00_x_17.00_Inches)
  6

 40
0.0
 41
0.0
 42
0.0
 43
0.0
 44
558.8
 45
431.8
 46
0.0
 47
0.0
 48
0.0
 49
0.0
140
0.0
141
0.0
142
1.0
143
1.0
 70
1024
 72
0
 73
0
 74
0
  7

 75
0
147
1.0
148
0.0
149
0.0
100
AcDbLayout
  1
Model
 70
0
 71
0
 10
0.0
 20
0.0
 11
22.0
 21
17.0
 12
0.0
 22
0.0
 32
0.0
 14
0.0
 24
0.0
 34
0.0
 15
0.0
 25
0.0
 35
0.0
146
0.0
 13
0.0
 23
0.0
 33
0.0
 16
1.0
 26
0.0
 36
0.0
 17
0.0
 27
1.0
 37
0.0
 76
0
330
216
345
0
346
0
  0
LAYOUT
  5
3C9
102
{ACAD_REACTORS
330
1A
102
}
100
AcDbPlotSettings
  1

  2
none_device
  4
ANSI_C_(22.00_x_17.00_Inches)
  6

 40
0.0
 41
0.0
 42
0.0
 43
0.0
 44
558.8
 45
431.8
 46
0.0
 47
0.0
 48
0.0
 49
0.0
140
0.0
141
0.0
142
1.0
143
1.0
 70
0
 72
0
 73
0
 74
0
  7

 75
0
147
1.0
148
0.0
149
0.0
100
AcDbLayout
  1
Layout1
 70
0
 71
1
 10
0.0
 20
0.0
 11
22.0
 21
17.0
 12
0.0
 22
0.0
 32
0.0
 14
0.0
 24
0.0
 34
0.0
 15
0.0
 25
0.0
 35
0.0
146
0.0
 13
0.0
 23
0.0
 33
0.0
 16
1.0
 26
0.0
 36
0.0
 17
0.0
 27
1.0
 37
0.0
 76
0
330
217
345
0
346
0
  0
ENDSEC
  0
EOF
