999
DXF file: Y:\3D PRATIKA-KAEDRA_OLGA\TRAVAIL_PHASE_3\CAD3D\PKE16M723_3D-Simplified\PKE16M723_2D-isometric.dxf
999
Pro/ENGINEER 2018260 by Parametric Technology Corporation
  0
SECTION
  2
HEADER
  9
$ACADVER
  1
AC1027
  9
$DWGCODEPAGE
  3
ANSI_1252
  9
$EXTMAX
 10
558.8
 20
431.8
 30
0.0
  9
$EXTMIN
 10
0.0
 20
0.0
 30
0.0
  9
$LIMMIN
 10
0.0
 20
0.0
  9
$LIMMAX
 10
558.8
 20
431.8
  9
$VIEWCTR
 10
279.4
 20
215.9
  9
$VIEWSIZE
 40
431.8
  9
$CLAYER
  8
0
  9
$LTSCALE
 40
30.734
  9
$CELTYPE
  6
BYLAYER
  9
$DIMSCALE
 40
1.0
  9
$DIMASZ
 40
0.1875
  9
$DIMEXO
 40
0.0625
  9
$DIMDLI
 40
21.2344
  9
$DIMEXE
 40
0.125
  9
$DIMCEN
 40
5.0292
  9
$DIMLFAC
 40
1.0
  9
$DIMBLK
  1
_CLOSED
  9
$DIMALT
 70
0
  9
$DIMALTF
 40
0.0393700787
  9
$DIMTXT
 40
0.15625
  9
$DIMTOL
 70
0
  9
$DIMLIM
 70
0
  9
$DIMTFAC
 40
1.0
  9
$DIMGAP
 40
0.625
  9
$DIMDSEP
 70
46
  9
$AUNITS
 70
0
  9
$PDMODE
 70
3
  9
$PDSIZE
 40
0.3125
  9
$HANDSEED
  5
4CE
  9
$TILEMODE
 70
1
  9
$MEASUREMENT
 70
1
  9
$INSUNITS
 70
4
  0
ENDSEC
  0
SECTION
  2
CLASSES
  0
CLASS
  1
ACDBDICTIONARYWDFLT
  2
AcDbDictionaryWithDefault
  3
AutoCAD 2000
 90
0
 91
1
280
0
281
0
  0
CLASS
  1
ACDBPLACEHOLDER
  2
AcDbPlaceHolder
  3
AutoCAD 2000
 90
0
 91
1
280
0
281
0
  0
CLASS
  1
LAYOUT
  2
AcDbLayout
  3
AutoCAD 2000
 90
0
 91
0
280
0
281
0
  0
ENDSEC
  0
SECTION
  2
TABLES
  0
TABLE
  2
VPORT
  5
8
100
AcDbSymbolTable
 70
2
  0
VPORT
  5
1F4
100
AcDbSymbolTableRecord
100
AcDbViewportTableRecord
  2
*ACTIVE
 70
0
 10
0.0
 20
0.0
 11
1.0
 21
1.0
 12
279.4
 22
215.9
 13
0.0
 23
0.0
 14
1.0
 24
1.0
 15
0.0
 25
0.0
 16
0.0
 26
0.0
 36
1.0
 17
0.0
 27
0.0
 37
0.0
 40
431.8
 41
1.2941176471
 42
50.0
 43
0.0
 44
0.0
 50
0.0
 51
0.0
 71
0
 72
100
 73
1
 74
1
 75
0
 76
0
 77
0
 78
0
  0
ENDTAB
  0
TABLE
  2
LTYPE
  5
5
100
AcDbSymbolTable
 70
6
  0
LTYPE
  5
14
100
AcDbSymbolTableRecord
100
AcDbLinetypeTableRecord
  2
BYBLOCK
 70
0
  3

 72
65
 73
0
 40
0.0
  0
LTYPE
  5
15
100
AcDbSymbolTableRecord
100
AcDbLinetypeTableRecord
  2
BYLAYER
 70
0
  3

 72
65
 73
0
 40
0.0
  0
LTYPE
  5
16
100
AcDbSymbolTableRecord
100
AcDbLinetypeTableRecord
  2
CONTINUOUS
 70
64
  3
Solid line
 72
65
 73
0
 40
0.0
  0
LTYPE
  5
1F5
100
AcDbSymbolTableRecord
100
AcDbLinetypeTableRecord
  2
CENTER
 70
64
  3
____ _ ____ _ ____ _ ____ _ ____ _ ____ _ ____
 72
65
 73
4
 40
0.6
 49
0.375
 74
0
 49
-0.075
 74
0
 49
0.075
 74
0
 49
-0.075
 74
0
  0
LTYPE
  5
1F6
100
AcDbSymbolTableRecord
100
AcDbLinetypeTableRecord
  2
HIDDEN
 70
64
  3
- - - - - - - - - - - - - - - - - - - -
 72
65
 73
2
 40
0.2
 49
0.1
 74
0
 49
-0.1
 74
0
  0
LTYPE
  5
1F7
100
AcDbSymbolTableRecord
100
AcDbLinetypeTableRecord
  2
PHANTOM
 70
64
  3
_____ _ _ _____ _ _ _____ _ _ _____
 72
65
 73
6
 40
0.8
 49
0.45
 74
0
 49
-0.05
 74
0
 49
0.1
 74
0
 49
-0.05
 74
0
 49
0.1
 74
0
 49
-0.05
 74
0
  0
LTYPE
  5
1F8
100
AcDbSymbolTableRecord
100
AcDbLinetypeTableRecord
  2
DOT
 70
64
  3
. . . . . . . . . . . . . . . . . . . .
 72
65
 73
2
 40
0.2
 49
0.1
 74
0
 49
-0.1
 74
0
  0
LTYPE
  5
1F9
100
AcDbSymbolTableRecord
100
AcDbLinetypeTableRecord
  2
DASHED
 70
64
  3
- - - - - - - - - - - - - - - - - - - -
 72
65
 73
2
 40
0.2
 49
0.1
 74
0
 49
-0.1
 74
0
  0
ENDTAB
  0
TABLE
  2
LAYER
  5
2
100
AcDbSymbolTable
 70
36
  0
LAYER
  5
10
100
AcDbSymbolTableRecord
100
AcDbLayerTableRecord
  2
0
 70
0
 62
7
  6
CONTINUOUS
370
-3
390
F
  0
LAYER
  5
1FA
100
AcDbSymbolTableRecord
100
AcDbLayerTableRecord
  2
DEFAULT_1
 70
0
 62
7
  6
CENTER
370
-3
390
F
  0
LAYER
  5
1FB
100
AcDbSymbolTableRecord
100
AcDbLayerTableRecord
  2
DEFAULT_2
 70
0
 62
8
  6
HIDDEN
370
-3
390
F
  0
LAYER
  5
1FC
100
AcDbSymbolTableRecord
100
AcDbLayerTableRecord
  2
DEFAULT_3
 70
0
 62
7
  6
PHANTOM
370
-3
390
F
  0
ENDTAB
  0
TABLE
  2
STYLE
  5
3
100
AcDbSymbolTable
 70
1
  0
STYLE
  5
11
100
AcDbSymbolTableRecord
100
AcDbTextStyleTableRecord
  2
STANDARD
 70
0
 40
0.0
 41
0.8
 50
0.0
 71
0
 42
0.2
  3
txt
  4

  0
STYLE
  5
1FD
100
AcDbSymbolTableRecord
100
AcDbTextStyleTableRecord
  2
TEXTSTYLE_1
 70
0
 40
0.0
 41
0.8
 50
0.0
 71
0
 42
0.2
  3
gdt
  4

  0
ENDTAB
  0
TABLE
  2
VIEW
  5
6
100
AcDbSymbolTable
 70
0
  0
ENDTAB
  0
TABLE
  2
UCS
  5
7
100
AcDbSymbolTable
 70
0
  0
ENDTAB
  0
TABLE
  2
APPID
  5
9
100
AcDbSymbolTable
 70
1
  0
APPID
  5
1FE
100
AcDbSymbolTableRecord
100
AcDbRegAppTableRecord
  2
ACAD
 70
0
  0
ENDTAB
  0
TABLE
  2
BLOCK_RECORD
  5
1
100
AcDbSymbolTable
 70
0
  0
BLOCK_RECORD
  5
1FF
100
AcDbSymbolTableRecord
100
AcDbBlockTableRecord
  2
*Model_Space
  0
BLOCK_RECORD
  5
200
100
AcDbSymbolTableRecord
100
AcDbBlockTableRecord
  2
*Paper_Space
  0
BLOCK_RECORD
  5
201
100
AcDbSymbolTableRecord
100
AcDbBlockTableRecord
  2
_CLOSED
  0
ENDTAB
  0
TABLE
  2
DIMSTYLE
  5
A
100
AcDbSymbolTable
 70
1
100
AcDbDimStyleTable
 71
0
  0
DIMSTYLE
105
202
100
AcDbSymbolTableRecord
100
AcDbDimStyleTableRecord
  2
STANDARD
 70
0
  3

  4

 40
1.0
 41
0.1875
 42
0.0625
 43
0.38
 44
0.125
 45
0.0
 46
0.0
 47
0.01
 48
0.01
140
0.15625
141
0.09
142
0.0
143
25.4
144
1.0
145
0.0
146
1.0
147
0.625
 71
0.0
 72
0.0
 73
1
 74
1
 75
0
 76
0
 77
0
 78
8
 79
2
170
0
171
1
172
0
173
0
174
0
175
0
176
0
177
0
178
0
270
2
179
2
271
2
272
2
273
2
274
2
275
0
280
0
281
0
282
0
283
1
284
8
285
0
286
0
287
3
288
0
340
11
278
46
341
201
342
201
343
201
344
201
  0
ENDTAB
  0
ENDSEC
  0
SECTION
  2
BLOCKS
  0
BLOCK
  5
20
100
AcDbEntity
  8
0
100
AcDbBlockBegin
  2
*Model_Space
 70
0
 10
0.0
 20
0.0
 30
0.0
  3
*Model_Space
  1

  0
ENDBLK
  5
21
100
AcDbEntity
  8
0
100
AcDbBlockEnd
  0
BLOCK
  5
1C
100
AcDbEntity
  8
0
100
AcDbBlockBegin
  2
*Paper_Space
 70
0
 10
0.0
 20
0.0
 30
0.0
  3
*Paper_Space
  1

  0
ENDBLK
  5
1D
100
AcDbEntity
  8
0
100
AcDbBlockEnd
  0
BLOCK
  5
203
100
AcDbEntity
  8
0
100
AcDbBlockBegin
  2
_CLOSED
 70
64
 10
0.0
 20
0.0
  3
_CLOSED
  1

  0
LINE
  5
204
100
AcDbEntity
  8
0
  6
BYBLOCK
 62
0
100
AcDbLine
 10
0.0
 20
0.0
 11
-1.0
 21
0.1666666667
  0
LINE
  5
205
100
AcDbEntity
  8
0
  6
BYBLOCK
 62
0
100
AcDbLine
 10
-1.0
 20
0.1666666667
 11
-1.0
 21
-0.1666666667
  0
LINE
  5
206
100
AcDbEntity
  8
0
  6
BYBLOCK
 62
0
100
AcDbLine
 10
-1.0
 20
-0.1666666667
 11
0.0
 21
0.0
  0
LINE
  5
207
100
AcDbEntity
  8
0
  6
BYBLOCK
 62
0
100
AcDbLine
 10
-1.0
 20
0.0
 11
0.0
 21
0.0
  0
ENDBLK
  5
208
100
AcDbEntity
  8
0
  6
BYBLOCK
 62
0
100
AcDbBlockEnd
  0
ENDSEC
  0
SECTION
  2
ENTITIES
  0
LINE
  5
209
100
AcDbEntity
  8
0
100
AcDbLine
 62
7
  6
CONTINUOUS
 10
-95.200484871
 20
-84.0931535388
 11
-94.8594167794
 21
-84.0011503961
  0
LINE
  5
20A
100
AcDbEntity
  8
0
100
AcDbLine
 62
7
  6
CONTINUOUS
 10
-44.5803765645
 20
-35.6916320074
 11
-44.921434805
 21
-35.7836324928
  0
LINE
  5
20B
100
AcDbEntity
  8
0
100
AcDbLine
 62
7
  6
CONTINUOUS
 10
-135.4332535871
 20
-36.0386101029
 11
-135.4239954565
 21
-36.0361114526
  0
LINE
  5
20C
100
AcDbEntity
  8
0
100
AcDbLine
 62
7
  6
CONTINUOUS
 10
-99.4267091466
 20
-20.1204253573
 11
-99.9370134757
 21
-20.2580917505
  0
LINE
  5
20D
100
AcDbEntity
  8
0
100
AcDbLine
 62
7
  6
CONTINUOUS
 10
-95.3226775756
 20
-16.297437327
 11
-99.4475427425
 21
-17.4102150906
  0
LINE
  5
20E
100
AcDbEntity
  8
0
100
AcDbLine
 62
7
  6
CONTINUOUS
 10
-100.265029885
 20
-16.6115370824
 11
-96.1401647182
 21
-15.4987593187
  0
LINE
  5
20F
100
AcDbEntity
  8
0
100
AcDbLine
 62
7
  6
CONTINUOUS
 10
-97.077856772
 20
-14.9601941514
 11
-101.2027219388
 21
-16.0729719151
  0
LINE
  5
210
100
AcDbEntity
  8
0
100
AcDbLine
 62
7
  6
CONTINUOUS
 10
-97.2210250449
 20
-14.9347887892
 11
-101.3458902117
 21
-16.0475665529
  0
LINE
  5
211
100
AcDbEntity
  8
0
100
AcDbLine
 62
7
  6
CONTINUOUS
 10
-45.5301467774
 20
-46.5657397476
 11
-44.0520229885
 21
-46.418567627
  0
LINE
  5
212
100
AcDbEntity
  8
0
100
AcDbLine
 62
7
  6
CONTINUOUS
 10
-47.1173059891
 20
-48.0727854681
 11
-46.9315194065
 21
-48.0552325982
  0
LINE
  5
213
100
AcDbEntity
  8
0
100
AcDbLine
 62
7
  6
CONTINUOUS
 10
-147.5935113141
 20
-19.9269800025
 11
-147.8677523981
 21
-20.0009922496
  0
LINE
  5
214
100
AcDbEntity
  8
0
100
AcDbLine
 62
7
  6
CONTINUOUS
 10
-148.158398878
 20
-19.8048747799
 11
-147.8708096648
 21
-19.7272599384
  0
LWPOLYLINE
  5
215
100
AcDbEntity
  8
0
100
AcDbPolyline
 62
7
  6
CONTINUOUS
 90
8
 70
0
 10
-77.4056409979
 20
-24.5629199794
 10
-79.5437328824
 20
-24.9211110468
 10
-81.6253040504
 20
-25.6827918677
 10
-83.3822745123
 20
-26.8120865121
 10
-84.7606362934
 20
-28.2780219153
 10
-85.70396301
 20
-30.0308851792
 10
-86.1583186779
 20
-31.9945041325
 10
-86.193685799
 20
-32.7427535578
  0
LINE
  5
216
100
AcDbEntity
  8
0
100
AcDbLine
 62
7
  6
CONTINUOUS
 10
-77.4046665411
 20
-24.5702994471
 11
-77.372717562
 21
-24.5660805928
  0
LINE
  5
217
100
AcDbEntity
  8
0
100
AcDbLine
 62
7
  6
CONTINUOUS
 10
-77.4055284437
 20
-24.5689531568
 11
-77.3438002513
 21
-24.5635798479
  0
LINE
  5
218
100
AcDbEntity
  8
0
100
AcDbLine
 62
7
  6
CONTINUOUS
 10
-77.3783189681
 20
-24.562589143
 11
-77.3767377669
 21
-24.5624665128
  0
LINE
  5
219
100
AcDbEntity
  8
0
100
AcDbLine
 62
7
  6
CONTINUOUS
 10
-44.3237009987
 20
-35.6728188065
 11
-44.9751844596
 21
-35.6884703595
  0
LINE
  5
21A
100
AcDbEntity
  8
0
100
AcDbLine
 62
7
  6
CONTINUOUS
 10
-95.7310318814
 20
-60.3601752756
 11
-92.8512441718
 21
-60.4431402184
  0
LINE
  5
21B
100
AcDbEntity
  8
0
100
AcDbLine
 62
7
  6
CONTINUOUS
 10
-93.0675576199
 20
-59.6660949372
 11
-96.1672558695
 21
-59.5767945582
  0
LINE
  5
21C
100
AcDbEntity
  8
0
100
AcDbLine
 62
7
  6
CONTINUOUS
 10
-96.2032217074
 20
-59.5270606079
 11
-93.2502613714
 21
-59.6121335564
  0
LINE
  5
21D
100
AcDbEntity
  8
0
100
AcDbLine
 62
7
  6
CONTINUOUS
 10
-122.9676250408
 20
-2.299414218
 11
-122.9678708771
 21
-2.2994233411
  0
LWPOLYLINE
  5
21E
100
AcDbEntity
  8
0
100
AcDbPolyline
 62
7
  6
CONTINUOUS
 90
4
 70
0
 10
-75.7521020914
 20
-24.4958370769
 10
-76.2246430663
 20
-24.4979863471
 10
-76.9012333367
 20
-24.5260957281
 10
-77.3763282809
 20
-24.560405513
  0
LINE
  5
21F
100
AcDbEntity
  8
0
100
AcDbLine
 62
7
  6
CONTINUOUS
 10
-88.0488956092
 20
-29.7875217073
 11
-87.9989704974
 21
-29.7870329225
  0
LINE
  5
220
100
AcDbEntity
  8
0
100
AcDbLine
 62
7
  6
CONTINUOUS
 10
-75.7831664496
 20
-24.4958118077
 11
-75.7521733168
 21
-24.4958144827
  0
LINE
  5
221
100
AcDbEntity
  8
0
100
AcDbLine
 62
7
  6
CONTINUOUS
 10
-97.0798480493
 20
-38.9323394162
 11
-97.0362980991
 21
-38.9373208855
  0
LINE
  5
222
100
AcDbEntity
  8
0
100
AcDbLine
 62
7
  6
CONTINUOUS
 10
-98.9264633328
 20
-73.1264910313
 11
-99.2415911012
 21
-73.0660464707
  0
LINE
  5
223
100
AcDbEntity
  8
0
100
AcDbLine
 62
7
  6
CONTINUOUS
 10
-77.3728128615
 20
-24.5682741411
 11
-77.4059689231
 21
-24.5649800931
  0
LINE
  5
224
100
AcDbEntity
  8
0
100
AcDbLine
 62
7
  6
CONTINUOUS
 10
-40.8543882517
 20
-46.6582918573
 11
-40.5392604833
 21
-46.718736418
  0
LWPOLYLINE
  5
225
100
AcDbEntity
  8
0
100
AcDbPolyline
 62
7
  6
CONTINUOUS
 90
3
 70
0
 10
-139.0086249275
 20
-47.4300663888
 10
-136.2440355314
 20
-48.1699707986
 10
-135.3832927816
 20
-48.3830414956
  0
LINE
  5
226
100
AcDbEntity
  8
0
100
AcDbLine
 62
7
  6
CONTINUOUS
 10
-125.6713469294
 20
-51.7725090295
 11
-125.6701447085
 21
-51.7728404122
  0
LINE
  5
227
100
AcDbEntity
  8
0
100
AcDbLine
 62
7
  6
CONTINUOUS
 10
-93.0675576199
 20
-59.6660949372
 11
-93.2502612514
 21
-59.6121472551
  0
LINE
  5
228
100
AcDbEntity
  8
0
100
AcDbLine
 62
7
  6
CONTINUOUS
 10
-127.6351646718
 20
-51.2002809673
 11
-127.6900390234
 21
-51.1833974938
  0
LINE
  5
229
100
AcDbEntity
  8
0
100
AcDbLine
 62
7
  6
CONTINUOUS
 10
-128.9123467561
 20
-50.7814358815
 11
-128.8493582592
 21
-50.8014490602
  0
LINE
  5
22A
100
AcDbEntity
  8
0
100
AcDbLine
 62
7
  6
CONTINUOUS
 10
-126.7192932669
 20
-51.4334542236
 11
-125.6713469294
 21
-51.7725090295
  0
LINE
  5
22B
100
AcDbEntity
  8
0
100
AcDbLine
 62
7
  6
CONTINUOUS
 10
-127.6249556123
 20
-51.1395253419
 11
-127.6796351896
 21
-51.1218103687
  0
LINE
  5
22C
100
AcDbEntity
  8
0
100
AcDbLine
 62
7
  6
CONTINUOUS
 10
-128.8321756696
 20
-50.7484127543
 11
-128.8942363568
 21
-50.7283064648
  0
LINE
  5
22D
100
AcDbEntity
  8
0
100
AcDbLine
 62
7
  6
CONTINUOUS
 10
-128.8449950106
 20
-50.8166745731
 11
-128.9070825854
 21
-50.7963429885
  0
LINE
  5
22E
100
AcDbEntity
  8
0
100
AcDbLine
 62
7
  6
CONTINUOUS
 10
-128.8781013773
 20
-50.6797989596
 11
-128.9212001192
 21
-50.6655893629
  0
LINE
  5
22F
100
AcDbEntity
  8
0
100
AcDbLine
 62
7
  6
CONTINUOUS
 10
-128.9115955752
 20
-50.7792341595
 11
-128.8493582592
 21
-50.8014490602
  0
LWPOLYLINE
  5
230
100
AcDbEntity
  8
0
100
AcDbPolyline
 62
7
  6
CONTINUOUS
 90
4
 70
0
 10
-62.1941953464
 20
-23.896142815
 10
-62.6715020579
 20
-23.794830723
 10
-63.2044782259
 20
-23.9108091377
 10
-63.5527956245
 20
-24.2140514304
  0
LWPOLYLINE
  5
231
100
AcDbEntity
  8
0
100
AcDbPolyline
 62
7
  6
CONTINUOUS
 90
6
 70
0
 10
-68.6076650913
 20
-23.3799954136
 10
-69.6492364538
 20
-23.1452555104
 10
-71.5005524632
 20
-23.0418639128
 10
-73.0555602435
 20
-23.4148258834
 10
-74.2097683669
 20
-24.2188689033
 10
-74.956212791
 20
-25.4693209441
  0
LINE
  5
232
100
AcDbEntity
  8
0
100
AcDbLine
 62
7
  6
CONTINUOUS
 10
-122.0367912537
 20
-3.686343218
 11
-122.0272842902
 21
-3.6889730625
  0
LINE
  5
233
100
AcDbEntity
  8
0
100
AcDbLine
 62
7
  6
CONTINUOUS
 10
-68.6077407004
 20
-23.3799789812
 11
-68.5737884875
 21
-23.3894062248
  0
LWPOLYLINE
  5
234
100
AcDbEntity
  8
0
100
AcDbPolyline
 62
7
  6
CONTINUOUS
 90
7
 70
0
 10
-141.6900661225
 20
-9.6433156205
 10
-141.7640293125
 20
-9.6201299586
 10
-141.9963594189
 20
-9.5974467721
 10
-142.2409499983
 20
-9.6468111861
 10
-142.4806021207
 20
-9.7694660381
 10
-142.6986774062
 20
-9.9609816693
 10
-142.8220660466
 20
-10.1206209302
  0
LINE
  5
235
100
AcDbEntity
  8
0
100
AcDbLine
 62
7
  6
CONTINUOUS
 10
-132.6808093404
 20
-25.7155488867
 11
-132.7164994252
 21
-25.7022221074
  0
LINE
  5
236
100
AcDbEntity
  8
0
100
AcDbLine
 62
7
  6
CONTINUOUS
 10
-135.612531028
 20
-36.8910355517
 11
-135.4434454593
 21
-36.9606886022
  0
LINE
  5
237
100
AcDbEntity
  8
0
100
AcDbLine
 62
7
  6
CONTINUOUS
 10
-135.621739384
 20
-35.9182510289
 11
-135.6405822847
 21
-35.9104843421
  0
LINE
  5
238
100
AcDbEntity
  8
0
100
AcDbLine
 62
7
  6
CONTINUOUS
 10
-88.102357907
 20
-91.5224569388
 11
-88.1055450738
 21
-91.5206972988
  0
LINE
  5
239
100
AcDbEntity
  8
0
100
AcDbLine
 62
7
  6
CONTINUOUS
 10
-121.3214434768
 20
-4.0235570627
 11
-121.3658665584
 21
-4.0093907981
  0
LINE
  5
23A
100
AcDbEntity
  8
0
100
AcDbLine
 62
7
  6
CONTINUOUS
 10
-121.3215752167
 20
-4.0238703626
 11
-121.3658665584
 21
-4.0093907981
  0
LINE
  5
23B
100
AcDbEntity
  8
0
100
AcDbLine
 62
7
  6
CONTINUOUS
 10
-122.0340424006
 20
-3.7103742791
 11
-122.009655277
 21
-3.7186743909
  0
LINE
  5
23C
100
AcDbEntity
  8
0
100
AcDbLine
 62
7
  6
CONTINUOUS
 10
-122.0464108152
 20
-3.7389355902
 11
-122.0220959967
 21
-3.7473146315
  0
LINE
  5
23D
100
AcDbEntity
  8
0
100
AcDbLine
 62
7
  6
CONTINUOUS
 10
-122.0348199413
 20
-3.6814062141
 11
-122.0255950466
 21
-3.6847485572
  0
LINE
  5
23E
100
AcDbEntity
  8
0
100
AcDbLine
 62
7
  6
CONTINUOUS
 10
-62.1952025003
 20
-23.8957820718
 11
-62.1944089546
 21
-23.8960741347
  0
LINE
  5
23F
100
AcDbEntity
  8
0
100
AcDbLine
 62
7
  6
CONTINUOUS
 10
-141.0200942545
 20
-10.0222990633
 11
-141.5344280279
 21
-9.8302455926
  0
LINE
  5
240
100
AcDbEntity
  8
0
100
AcDbLine
 62
7
  6
CONTINUOUS
 10
-141.6901679678
 20
-9.6432779905
 11
-141.1443309667
 21
-9.847093781
  0
LINE
  5
241
100
AcDbEntity
  8
0
100
AcDbLine
 62
7
  6
CONTINUOUS
 10
-62.3081581471
 20
-62.6421351986
 11
-62.0947152362
 21
-62.7423249075
  0
LINE
  5
242
100
AcDbEntity
  8
0
100
AcDbLine
 62
7
  6
CONTINUOUS
 10
-49.8053250713
 20
-59.2692068562
 11
-49.5918821604
 21
-59.3693965651
  0
LINE
  5
243
100
AcDbEntity
  8
0
100
AcDbLine
 62
7
  6
CONTINUOUS
 10
-64.5833592918
 20
-67.0789881701
 11
-64.2825237537
 21
-67.2202929872
  0
LINE
  5
244
100
AcDbEntity
  8
0
100
AcDbLine
 62
7
  6
CONTINUOUS
 10
-52.0805262161
 20
-63.7060598277
 11
-51.779690678
 21
-63.8473646449
  0
LINE
  5
245
100
AcDbEntity
  8
0
100
AcDbLine
 62
7
  6
CONTINUOUS
 10
-54.463074043
 20
-72.7821892877
 11
-54.2120622042
 21
-72.9041014566
  0
LINE
  5
246
100
AcDbEntity
  8
0
100
AcDbLine
 62
7
  6
CONTINUOUS
 10
-89.2856170824
 20
-78.15943587
 11
-87.3075148335
 21
-79.2955625592
  0
LINE
  5
247
100
AcDbEntity
  8
0
100
AcDbLine
 62
7
  6
CONTINUOUS
 10
-79.9686806836
 20
-82.1681857606
 11
-77.9905784347
 21
-83.3043124498
  0
LINE
  5
248
100
AcDbEntity
  8
0
100
AcDbLine
 62
7
  6
CONTINUOUS
 10
-62.2512154294
 20
-88.3297498402
 11
-57.4472528249
 21
-91.0889146567
  0
LINE
  5
249
100
AcDbEntity
  8
0
100
AcDbLine
 62
7
  6
CONTINUOUS
 10
-105.307263256
 20
-62.903051397
 11
-121.9941159776
 21
-53.3189266402
  0
LINE
  5
24A
100
AcDbEntity
  8
0
100
AcDbLine
 62
7
  6
CONTINUOUS
 10
-59.9731141057
 20
-88.2677098198
 11
-58.4280258967
 21
-89.1551340934
  0
LINE
  5
24B
100
AcDbEntity
  8
0
100
AcDbLine
 62
7
  6
CONTINUOUS
 10
-127.6835509382
 20
-48.8979848833
 11
-127.6818595147
 21
-48.8989561574
  0
LINE
  5
24C
100
AcDbEntity
  8
0
100
AcDbLine
 62
7
  6
CONTINUOUS
 10
-126.9932298737
 20
-47.7376463232
 11
-131.5109501509
 21
-45.1428853173
  0
LINE
  5
24D
100
AcDbEntity
  8
0
100
AcDbLine
 62
7
  6
CONTINUOUS
 10
-92.5023855481
 20
-59.9907025631
 11
-93.0675576199
 21
-59.6660949372
  0
LINE
  5
24E
100
AcDbEntity
  8
0
100
AcDbLine
 62
7
  6
CONTINUOUS
 10
-71.7491203435
 20
-70.9040894156
 11
-57.6984029369
 21
-78.9741449733
  0
LINE
  5
24F
100
AcDbEntity
  8
0
100
AcDbLine
 62
7
  6
CONTINUOUS
 10
-87.3387632719
 20
-74.6632642346
 11
-66.9301611904
 21
-86.5017049203
  0
LINE
  5
250
100
AcDbEntity
  8
0
100
AcDbLine
 62
7
  6
CONTINUOUS
 10
-146.9170035257
 20
-42.4326859107
 11
-146.9359387949
 21
-42.420443763
  0
LINE
  5
251
100
AcDbEntity
  8
0
100
AcDbLine
 62
7
  6
CONTINUOUS
 10
-85.4193305386
 20
-92.2357685247
 11
-86.9910676916
 21
-91.2054697587
  0
LWPOLYLINE
  5
252
100
AcDbEntity
  8
0
100
AcDbPolyline
 62
7
  6
CONTINUOUS
 90
4
 70
0
 10
-51.680888987
 20
-28.2608513702
 10
-52.2946315189
 20
-27.9634726964
 10
-52.9721439699
 20
-27.8270262533
 10
-53.5928531638
 20
-28.0272344872
  0
LINE
  5
253
100
AcDbEntity
  8
0
100
AcDbLine
 62
7
  6
CONTINUOUS
 10
-65.9239949677
 20
-37.3781606046
 11
-45.4145722668
 21
-49.0410632135
  0
LINE
  5
254
100
AcDbEntity
  8
0
100
AcDbLine
 62
7
  6
CONTINUOUS
 10
-70.1742947861
 20
-63.8678243581
 11
-64.5841589543
 21
-67.0785292233
  0
LINE
  5
255
100
AcDbEntity
  8
0
100
AcDbLine
 62
7
  6
CONTINUOUS
 10
-63.9733943767
 20
-67.2976622499
 11
-54.2120622042
 21
-72.9041014566
  0
LINE
  5
256
100
AcDbEntity
  8
0
100
AcDbLine
 62
7
  6
CONTINUOUS
 10
-67.841977729
 20
-59.4413737127
 11
-62.0939155738
 21
-62.7427838542
  0
LINE
  5
257
100
AcDbEntity
  8
0
100
AcDbLine
 62
7
  6
CONTINUOUS
 10
-65.3049670985
 20
-56.1105780623
 11
-52.0813258785
 21
-63.705600881
  0
LINE
  5
258
100
AcDbEntity
  8
0
100
AcDbLine
 62
7
  6
CONTINUOUS
 10
-61.2532728766
 20
-52.671654875
 11
-49.591082498
 21
-59.3698555119
  0
LINE
  5
259
100
AcDbEntity
  8
0
100
AcDbLine
 62
7
  6
CONTINUOUS
 10
-101.0506469686
 20
-25.2649443821
 11
-99.632319627
 21
-26.0795633168
  0
LINE
  5
25A
100
AcDbEntity
  8
0
100
AcDbLine
 62
7
  6
CONTINUOUS
 10
-93.8233184263
 20
-29.41598267
 11
-95.5098690169
 21
-28.4472986956
  0
LINE
  5
25B
100
AcDbEntity
  8
0
100
AcDbLine
 62
7
  6
CONTINUOUS
 10
-109.2103864536
 20
-16.6665431062
 11
-113.7021287308
 21
-14.0867026127
  0
LINE
  5
25C
100
AcDbEntity
  8
0
100
AcDbLine
 62
7
  6
CONTINUOUS
 10
-85.1330667728
 20
-27.7853662499
 11
-91.0777156327
 21
-24.3710461706
  0
LINE
  5
25D
100
AcDbEntity
  8
0
100
AcDbLine
 62
7
  6
CONTINUOUS
 10
-101.4079751681
 20
-18.4378424796
 11
-101.8231445956
 21
-18.1993891503
  0
LINE
  5
25E
100
AcDbEntity
  8
0
100
AcDbLine
 62
7
  6
CONTINUOUS
 10
-108.5075157372
 20
-15.5134125552
 11
-108.5086769084
 21
-15.512745541
  0
LINE
  5
25F
100
AcDbEntity
  8
0
100
AcDbLine
 62
7
  6
CONTINUOUS
 10
-135.6030124994
 20
-35.932138847
 11
-135.6592943483
 21
-35.8965960068
  0
LINE
  5
260
100
AcDbEntity
  8
0
100
AcDbLine
 62
7
  6
CONTINUOUS
 10
-146.9359387949
 20
-42.420443763
 11
-146.9362593971
 21
-42.4202108745
  0
LINE
  5
261
100
AcDbEntity
  8
0
100
AcDbLine
 62
7
  6
CONTINUOUS
 10
-135.6030124915
 20
-35.9321388647
 11
-135.6592943168
 21
-35.8965959688
  0
LINE
  5
262
100
AcDbEntity
  8
0
100
AcDbLine
 62
7
  6
CONTINUOUS
 10
-51.6809595929
 20
-28.2609781566
 11
-51.6753065107
 21
-28.2640855899
  0
LINE
  5
263
100
AcDbEntity
  8
0
100
AcDbLine
 62
7
  6
CONTINUOUS
 10
-101.2027219388
 20
-16.0729719151
 11
-100.265029885
 21
-16.6115370824
  0
LINE
  5
264
100
AcDbEntity
  8
0
100
AcDbLine
 62
7
  6
CONTINUOUS
 10
-97.077856772
 20
-14.9601941514
 11
-96.1401647182
 21
-15.4987593187
  0
LINE
  5
265
100
AcDbEntity
  8
0
100
AcDbLine
 62
7
  6
CONTINUOUS
 10
-63.8851346013
 20
-33.934833105
 11
-61.9070323524
 21
-35.0709597941
  0
LINE
  5
266
100
AcDbEntity
  8
0
100
AcDbLine
 62
7
  6
CONTINUOUS
 10
-116.8152449741
 20
-6.0110878139
 11
-116.8173861813
 21
-6.009855942
  0
LINE
  5
267
100
AcDbEntity
  8
0
100
AcDbLine
 62
7
  6
CONTINUOUS
 10
-121.3659183078
 20
-4.0093653518
 11
-121.3279602628
 21
-4.0312243498
  0
LINE
  5
268
100
AcDbEntity
  8
0
100
AcDbLine
 62
7
  6
CONTINUOUS
 10
-116.8152110208
 20
-6.0111019873
 11
-114.1789395868
 21
-7.5936915641
  0
LINE
  5
269
100
AcDbEntity
  8
0
100
AcDbLine
 62
7
  6
CONTINUOUS
 10
-114.1788302265
 20
-7.5937599964
 11
-114.17343976
 21
-7.5971398245
  0
LINE
  5
26A
100
AcDbEntity
  8
0
100
AcDbLine
 62
7
  6
CONTINUOUS
 10
-121.3659183078
 20
-4.0093653518
 11
-121.3286996328
 21
-4.0328478521
  0
LINE
  5
26B
100
AcDbEntity
  8
0
100
AcDbLine
 62
7
  6
CONTINUOUS
 10
-108.6616320769
 20
-13.2187766204
 11
-108.65912433
 21
-13.2205661811
  0
LINE
  5
26C
100
AcDbEntity
  8
0
100
AcDbLine
 62
7
  6
CONTINUOUS
 10
-104.7778395694
 20
-61.2561529986
 11
-104.8936934896
 21
-61.1593826158
  0
LINE
  5
26D
100
AcDbEntity
  8
0
100
AcDbLine
 62
7
  6
CONTINUOUS
 10
-98.5730363835
 20
-60.2370599709
 11
-98.8142484821
 21
-60.0333698443
  0
LINE
  5
26E
100
AcDbEntity
  8
0
100
AcDbLine
 62
7
  6
CONTINUOUS
 10
-104.7790774014
 20
-61.2563979841
 11
-104.8719805687
 21
-61.1778295649
  0
LINE
  5
26F
100
AcDbEntity
  8
0
100
AcDbLine
 62
7
  6
CONTINUOUS
 10
-54.3614263017
 20
-27.5490687952
 11
-52.7897838929
 21
-28.57931313
  0
LINE
  5
270
100
AcDbEntity
  8
0
100
AcDbLine
 62
7
  6
CONTINUOUS
 10
-109.2934560491
 20
-12.5068594831
 11
-109.2732050777
 21
-12.5214784374
  0
LINE
  5
271
100
AcDbEntity
  8
0
100
AcDbLine
 62
7
  6
CONTINUOUS
 10
-113.0267997063
 20
-8.5268946808
 11
-112.9260558015
 21
-8.6006855823
  0
LWPOLYLINE
  5
272
100
AcDbEntity
  8
0
100
AcDbPolyline
 62
7
  6
CONTINUOUS
 90
3
 70
0
 10
-99.88701086
 20
-79.8380754805
 10
-97.7117157769
 20
-82.2258711259
 10
-95.7511034719
 20
-83.9851755593
  0
LWPOLYLINE
  5
273
100
AcDbEntity
  8
0
100
AcDbPolyline
 62
7
  6
CONTINUOUS
 90
4
 70
0
 10
-112.9258167074
 20
-8.6009094784
 10
-113.4490551267
 20
-8.1346146324
 10
-113.9968004373
 20
-7.713509119
 10
-114.1735500918
 20
-7.5970707035
  0
LINE
  5
274
100
AcDbEntity
  8
0
100
AcDbLine
 62
7
  6
CONTINUOUS
 10
-112.9260558015
 20
-8.6006855823
 11
-112.9258170166
 21
-8.6009092553
  0
LINE
  5
275
100
AcDbEntity
  8
0
100
AcDbLine
 62
7
  6
CONTINUOUS
 10
-105.0109323665
 20
-15.803229604
 11
-105.011237459
 21
-15.8029315295
  0
LINE
  5
276
100
AcDbEntity
  8
0
100
AcDbLine
 62
7
  6
CONTINUOUS
 10
-126.1503112339
 20
-16.9846144862
 11
-126.0269153088
 21
-17.1131353522
  0
LINE
  5
277
100
AcDbEntity
  8
0
100
AcDbLine
 62
7
  6
CONTINUOUS
 10
-98.8142484821
 20
-60.0333698443
 11
-98.9138539645
 21
-59.922354483
  0
LINE
  5
278
100
AcDbEntity
  8
0
100
AcDbLine
 62
7
  6
CONTINUOUS
 10
-127.0063587115
 20
-16.0607958637
 11
-126.9686149436
 21
-16.1030209893
  0
LWPOLYLINE
  5
279
100
AcDbEntity
  8
0
100
AcDbPolyline
 62
7
  6
CONTINUOUS
 90
4
 70
0
 10
-126.1400684955
 20
-16.9841897887
 10
-126.390414468
 20
-16.6938569078
 10
-126.6840430039
 20
-16.344173362
 10
-126.9176460746
 20
-16.0584384663
  0
LINE
  5
27A
100
AcDbEntity
  8
0
100
AcDbLine
 62
7
  6
CONTINUOUS
 10
-95.7511535273
 20
-83.9852455872
 11
-95.8941440477
 21
-83.8184784595
  0
LINE
  5
27B
100
AcDbEntity
  8
0
100
AcDbLine
 62
7
  6
CONTINUOUS
 10
-146.9575370254
 20
-40.6489889664
 11
-146.9707434677
 21
-40.6302655673
  0
LWPOLYLINE
  5
27C
100
AcDbEntity
  8
0
100
AcDbPolyline
 62
7
  6
CONTINUOUS
 90
4
 70
0
 10
-109.2803596431
 20
-12.5238213347
 10
-110.6382782337
 20
-10.9884677067
 10
-111.8755088679
 20
-9.65043058
 10
-112.9260558015
 20
-8.6006855823
  0
LINE
  5
27D
100
AcDbEntity
  8
0
100
AcDbLine
 62
7
  6
CONTINUOUS
 10
-108.6591243106
 20
-13.2205661042
 11
-109.2732050777
 21
-12.5214784374
  0
LINE
  5
27E
100
AcDbEntity
  8
0
100
AcDbLine
 62
7
  6
CONTINUOUS
 10
-118.0052674405
 20
-11.5990698093
 11
-117.9739256235
 21
-11.6378113554
  0
LINE
  5
27F
100
AcDbEntity
  8
0
100
AcDbLine
 62
7
  6
CONTINUOUS
 10
-118.0018261503
 20
-11.5984701584
 11
-117.970661048
 21
-11.6373677546
  0
LINE
  5
280
100
AcDbEntity
  8
0
100
AcDbLine
 62
7
  6
CONTINUOUS
 10
-126.9176465
 20
-16.0584379333
 11
-127.1050509149
 21
-15.8240703027
  0
LWPOLYLINE
  5
281
100
AcDbEntity
  8
0
100
AcDbPolyline
 62
7
  6
CONTINUOUS
 90
4
 70
0
 10
-117.2852300526
 20
-12.4620623461
 10
-117.4985424325
 20
-12.1944894237
 10
-117.7481907792
 20
-11.8757768343
 10
-117.9465169933
 20
-11.6180233218
  0
LWPOLYLINE
  5
282
100
AcDbEntity
  8
0
100
AcDbPolyline
 62
7
  6
CONTINUOUS
 90
7
 70
0
 10
-132.0019256239
 20
-3.5487130545
 10
-132.0710175569
 20
-3.4522092361
 10
-132.2538797522
 20
-3.294982554
 10
-132.4864158604
 20
-3.2001520857
 10
-132.7570368617
 20
-3.1819673556
 10
-133.0420103969
 20
-3.2512500593
 10
-133.2281720518
 20
-3.3471984609
  0
LINE
  5
283
100
AcDbEntity
  8
0
100
AcDbLine
 62
7
  6
CONTINUOUS
 10
-105.2146754636
 20
-63.1010171741
 11
-105.240288445
 21
-63.063722294
  0
LINE
  5
284
100
AcDbEntity
  8
0
100
AcDbLine
 62
7
  6
CONTINUOUS
 10
-146.9491010574
 20
-40.6404976218
 11
-146.9614962218
 21
-40.6209763269
  0
LWPOLYLINE
  5
285
100
AcDbEntity
  8
0
100
AcDbPolyline
 62
7
  6
CONTINUOUS
 90
4
 70
0
 10
-117.9465182348
 20
-11.6180216808
 10
-119.3913735816
 20
-9.5882269591
 10
-120.5319971959
 20
-7.6976800158
 10
-121.3225689251
 20
-6.0759530197
  0
LINE
  5
286
100
AcDbEntity
  8
0
100
AcDbLine
 62
7
  6
CONTINUOUS
 10
-126.0269163236
 20
-17.1131349348
 11
-126.0062971538
 21
-17.1473488985
  0
LINE
  5
287
100
AcDbEntity
  8
0
100
AcDbLine
 62
7
  6
CONTINUOUS
 10
-132.0022503694
 20
-3.5481800244
 11
-131.6783554071
 21
-4.123599918
  0
LINE
  5
288
100
AcDbEntity
  8
0
100
AcDbLine
 62
7
  6
CONTINUOUS
 10
-94.4646913198
 20
-45.9663964746
 11
-93.9835154563
 21
-46.9792316607
  0
LINE
  5
289
100
AcDbEntity
  8
0
100
AcDbLine
 62
7
  6
CONTINUOUS
 10
-121.3226138774
 20
-6.0758472582
 11
-121.3225689251
 21
-6.0759530197
  0
LINE
  5
28A
100
AcDbEntity
  8
0
100
AcDbLine
 62
7
  6
CONTINUOUS
 10
-150.7802863334
 20
-32.6306795766
 11
-150.7803405304
 21
-32.6305114096
  0
LINE
  5
28B
100
AcDbEntity
  8
0
100
AcDbLine
 62
7
  6
CONTINUOUS
 10
-94.3083222144
 20
-46.3447090219
 11
-94.4646913198
 21
-45.9663964746
  0
LINE
  5
28C
100
AcDbEntity
  8
0
100
AcDbLine
 62
7
  6
CONTINUOUS
 10
-93.8529419804
 20
-47.2951562522
 11
-93.9835160536
 21
-46.9792305345
  0
LWPOLYLINE
  5
28D
100
AcDbEntity
  8
0
100
AcDbPolyline
 62
7
  6
CONTINUOUS
 90
4
 70
0
 10
-121.3226128012
 20
-6.0758496224
 10
-121.772349613
 20
-4.8549182723
 10
-122.0134471592
 20
-3.8445694898
 10
-122.0715528541
 20
-3.1911798148
  0
LINE
  5
28E
100
AcDbEntity
  8
0
100
AcDbLine
 62
7
  6
CONTINUOUS
 10
-132.0015854499
 20
-3.5492745394
 11
-131.97539641
 21
-3.6307099314
  0
LWPOLYLINE
  5
28F
100
AcDbEntity
  8
0
100
AcDbPolyline
 62
7
  6
CONTINUOUS
 90
9
 70
0
 10
-102.845435214
 20
-75.273969541
 10
-102.4286911598
 20
-76.6502740983
 10
-101.2679169627
 20
-79.1484408456
 10
-99.701691857
 20
-81.6060916503
 10
-97.7494002128
 20
-83.9928681962
 10
-95.454272012
 20
-86.2635767988
 10
-92.9049363936
 20
-88.3582507226
 10
-90.2491324612
 20
-90.2105316886
 10
-88.1023994226
 20
-91.5225311148
  0
LWPOLYLINE
  5
290
100
AcDbEntity
  8
0
100
AcDbPolyline
 62
7
  6
CONTINUOUS
 90
6
 70
0
 10
-139.6260719954
 20
-46.6125948896
 10
-139.6137687375
 20
-46.7597343785
 10
-139.5315733606
 20
-47.0074972023
 10
-139.3777654049
 20
-47.2171816413
 10
-139.1631882609
 20
-47.3706873416
 10
-139.0086148877
 20
-47.4300705381
  0
LINE
  5
291
100
AcDbEntity
  8
0
100
AcDbLine
 62
7
  6
CONTINUOUS
 10
-131.6914035123
 20
-4.0639697158
 11
-131.6783554071
 21
-4.123599918
  0
LINE
  5
292
100
AcDbEntity
  8
0
100
AcDbLine
 62
7
  6
CONTINUOUS
 10
-139.6260719339
 20
-46.6126692495
 11
-139.6260966669
 21
-46.5184589924
  0
LINE
  5
293
100
AcDbEntity
  8
0
100
AcDbLine
 62
7
  6
CONTINUOUS
 10
-139.3055797328
 20
-46.659316379
 11
-139.3055447978
 21
-46.7959601992
  0
LINE
  5
294
100
AcDbEntity
  8
0
100
AcDbLine
 62
7
  6
CONTINUOUS
 10
-149.7111788215
 20
-26.9299841742
 11
-149.7138276538
 21
-26.9666181622
  0
LINE
  5
295
100
AcDbEntity
  8
0
100
AcDbLine
 62
7
  6
CONTINUOUS
 10
-149.7098754009
 20
-26.9297526038
 11
-149.7138276538
 21
-26.9666181622
  0
LWPOLYLINE
  5
296
100
AcDbEntity
  8
0
100
AcDbPolyline
 62
7
  6
CONTINUOUS
 90
7
 70
0
 10
-122.0715622728
 20
-3.1492901621
 10
-122.1052277874
 20
-2.9077841267
 10
-122.2044178193
 20
-2.6874293196
 10
-122.3626499543
 20
-2.5050164301
 10
-122.5704457022
 20
-2.3740184435
 10
-122.8155570518
 20
-2.3061025096
 10
-122.9676848302
 20
-2.2993976257
  0
LINE
  5
297
100
AcDbEntity
  8
0
100
AcDbLine
 62
7
  6
CONTINUOUS
 10
-86.1935720992
 20
-33.4166533322
 11
-86.0652815778
 21
-34.6352252638
  0
LINE
  5
298
100
AcDbEntity
  8
0
100
AcDbLine
 62
7
  6
CONTINUOUS
 10
-101.0506469686
 20
-25.2649443821
 11
-101.5122906011
 21
-16.4447949336
  0
LINE
  5
299
100
AcDbEntity
  8
0
100
AcDbLine
 62
7
  6
CONTINUOUS
 10
-99.9370134757
 20
-20.2580917505
 11
-99.632319627
 21
-26.0795633168
  0
LINE
  5
29A
100
AcDbEntity
  8
0
100
AcDbLine
 62
7
  6
CONTINUOUS
 10
-105.2993975424
 20
-63.0665656861
 11
-105.3010495695
 21
-63.0322229617
  0
LINE
  5
29B
100
AcDbEntity
  8
0
100
AcDbLine
 62
7
  6
CONTINUOUS
 10
-105.3718827743
 20
-63.0832924229
 11
-105.3726804506
 21
-63.048668669
  0
LINE
  5
29C
100
AcDbEntity
  8
0
100
AcDbLine
 62
7
  6
CONTINUOUS
 10
-122.0717329344
 20
-3.1892917834
 11
-122.0715634376
 21
-3.1497836068
  0
LINE
  5
29D
100
AcDbEntity
  8
0
100
AcDbLine
 62
7
  6
CONTINUOUS
 10
-117.1888451328
 20
-12.5814110157
 11
-117.1888334967
 21
-12.6273420127
  0
LINE
  5
29E
100
AcDbEntity
  8
0
100
AcDbLine
 62
7
  6
CONTINUOUS
 10
-122.0717345063
 20
-3.1866762479
 11
-122.0715634376
 21
-3.1497834637
  0
LINE
  5
29F
100
AcDbEntity
  8
0
100
AcDbLine
 62
7
  6
CONTINUOUS
 10
-148.9257245151
 20
-20.6988647123
 11
-148.9257029316
 21
-20.69876196
  0
LINE
  5
2A0
100
AcDbEntity
  8
0
100
AcDbLine
 62
7
  6
CONTINUOUS
 10
-86.1935720278
 20
-33.4170758762
 11
-86.1936867883
 21
-32.7396498219
  0
LINE
  5
2A1
100
AcDbEntity
  8
0
100
AcDbLine
 62
7
  6
CONTINUOUS
 10
-85.4848290372
 20
-35.8910029151
 11
-85.4847717076
 21
-36.2710673961
  0
LWPOLYLINE
  5
2A2
100
AcDbEntity
  8
0
100
AcDbPolyline
 62
7
  6
CONTINUOUS
 90
7
 70
0
 10
-105.2410047855
 20
-63.063600372
 10
-105.4053293429
 20
-65.6401046626
 10
-105.1622105989
 20
-68.5314523348
 10
-104.4763401291
 20
-71.4488388107
 10
-103.3505958546
 20
-74.3516530458
 10
-101.8028453571
 20
-77.1775181259
 10
-99.88701086
 20
-79.8380754805
  0
LINE
  5
2A3
100
AcDbEntity
  8
0
100
AcDbLine
 62
7
  6
CONTINUOUS
 10
-105.240288445
 20
-63.063722294
 11
-105.240133405
 21
-63.0621719257
  0
LINE
  5
2A4
100
AcDbEntity
  8
0
100
AcDbLine
 62
7
  6
CONTINUOUS
 10
-105.2166712276
 20
-63.1010425495
 11
-105.2074654912
 21
-63.0334032354
  0
LWPOLYLINE
  5
2A5
100
AcDbEntity
  8
0
100
AcDbPolyline
 62
7
  6
CONTINUOUS
 90
7
 70
0
 10
-147.2216827327
 20
-41.2404499761
 10
-147.2708608014
 20
-41.3722466646
 10
-147.3122112857
 20
-41.6295873354
 10
-147.285716399
 20
-41.8896467096
 10
-147.1915898885
 20
-42.1315242921
 10
-147.03627053
 20
-42.3355589389
 10
-146.9361161504
 20
-42.4203397212
  0
LINE
  5
2A6
100
AcDbEntity
  8
0
100
AcDbLine
 62
7
  6
CONTINUOUS
 10
-58.4280258967
 20
-89.1551340934
 11
-58.4281830869
 21
-88.2272480799
  0
LINE
  5
2A7
100
AcDbEntity
  8
0
100
AcDbLine
 62
7
  6
CONTINUOUS
 10
-53.4783448867
 20
-86.8919147635
 11
-53.4781876965
 21
-87.819800777
  0
LINE
  5
2A8
100
AcDbEntity
  8
0
100
AcDbLine
 62
7
  6
CONTINUOUS
 10
-105.212038077
 20
-63.0667097083
 11
-105.2071592258
 21
-63.0333605043
  0
LWPOLYLINE
  5
2A9
100
AcDbEntity
  8
0
100
AcDbPolyline
 62
7
  6
CONTINUOUS
 90
4
 70
0
 10
-104.9386453084
 20
-61.2579404535
 10
-105.0169052605
 20
-61.6694135085
 10
-105.1533879296
 20
-62.4701518502
 10
-105.236243876
 20
-63.0291055398
  0
LINE
  5
2AA
100
AcDbEntity
  8
0
100
AcDbLine
 62
7
  6
CONTINUOUS
 10
-104.545762302
 20
-55.0554055993
 11
-104.5409249457
 21
-55.0309256486
  0
LINE
  5
2AB
100
AcDbEntity
  8
0
100
AcDbLine
 62
7
  6
CONTINUOUS
 10
-104.545664594
 20
-55.0554160973
 11
-104.5398386309
 21
-55.0311093148
  0
LINE
  5
2AC
100
AcDbEntity
  8
0
100
AcDbLine
 62
7
  6
CONTINUOUS
 10
-103.1273875909
 20
-50.6347785988
 11
-103.1273284264
 21
-50.6345510853
  0
LINE
  5
2AD
100
AcDbEntity
  8
0
100
AcDbLine
 62
7
  6
CONTINUOUS
 10
-147.2216776519
 20
-41.2404382891
 11
-146.9316100371
 21
-40.6019999129
  0
LINE
  5
2AE
100
AcDbEntity
  8
0
100
AcDbLine
 62
7
  6
CONTINUOUS
 10
-146.6037209696
 20
-40.7762802343
 11
-146.9004706285
 21
-41.4294257794
  0
LINE
  5
2AF
100
AcDbEntity
  8
0
100
AcDbLine
 62
7
  6
CONTINUOUS
 10
-127.447197579
 20
-51.1895575586
 11
-127.4265987484
 21
-51.1442195259
  0
LINE
  5
2B0
100
AcDbEntity
  8
0
100
AcDbLine
 62
7
  6
CONTINUOUS
 10
-142.7121320633
 20
-10.1726174122
 11
-142.7194815094
 21
-10.1844331751
  0
LINE
  5
2B1
100
AcDbEntity
  8
0
100
AcDbLine
 62
7
  6
CONTINUOUS
 10
-142.7121320633
 20
-10.1726174122
 11
-142.7197732704
 21
-10.1842218579
  0
LINE
  5
2B2
100
AcDbEntity
  8
0
100
AcDbLine
 62
7
  6
CONTINUOUS
 10
-133.0885950449
 20
-3.3672585579
 11
-133.1747288119
 21
-3.4258177011
  0
LINE
  5
2B3
100
AcDbEntity
  8
0
100
AcDbLine
 62
7
  6
CONTINUOUS
 10
-133.0885950449
 20
-3.3672585579
 11
-133.1756803121
 21
-3.4228887469
  0
LWPOLYLINE
  5
2B4
100
AcDbEntity
  8
0
100
AcDbPolyline
 62
7
  6
CONTINUOUS
 90
6
 70
0
 10
-148.158322416
 20
-19.8048532881
 10
-148.2687294292
 20
-19.8430752255
 10
-148.5042643316
 20
-19.9870239041
 10
-148.709548518
 20
-20.2078893493
 10
-148.8623693185
 20
-20.4889451732
 10
-148.9257315031
 20
-20.698836092
  0
LINE
  5
2B5
100
AcDbEntity
  8
0
100
AcDbLine
 62
7
  6
CONTINUOUS
 10
-96.3672903538
 20
-73.9232874021
 11
-96.6543502207
 21
-74.8385220503
  0
LINE
  5
2B6
100
AcDbEntity
  8
0
100
AcDbLine
 62
7
  6
CONTINUOUS
 10
-103.4470674793
 20
-50.5304942509
 11
-103.435813364
 21
-50.4961595732
  0
LINE
  5
2B7
100
AcDbEntity
  8
0
100
AcDbLine
 62
7
  6
CONTINUOUS
 10
-75.2319030244
 20
-26.2857360718
 11
-74.9554458042
 21
-25.4670482219
  0
LINE
  5
2B8
100
AcDbEntity
  8
0
100
AcDbLine
 62
7
  6
CONTINUOUS
 10
-74.7425036337
 20
-28.8431109998
 11
-74.6120354903
 21
-28.4567691262
  0
LINE
  5
2B9
100
AcDbEntity
  8
0
100
AcDbLine
 62
7
  6
CONTINUOUS
 10
-103.3851722173
 20
-50.5430814302
 11
-103.3730604052
 21
-50.5090069208
  0
LINE
  5
2BA
100
AcDbEntity
  8
0
100
AcDbLine
 62
7
  6
CONTINUOUS
 10
-102.3224563882
 20
-48.9907783364
 11
-102.3084600418
 21
-48.9544332391
  0
LWPOLYLINE
  5
2BB
100
AcDbEntity
  8
0
100
AcDbPolyline
 62
7
  6
CONTINUOUS
 90
9
 70
0
 10
-103.1277689611
 20
-50.6345756271
 10
-104.1090023556
 20
-53.1351894444
 10
-104.7660741686
 20
-56.0266718428
 10
-104.9694379872
 20
-59.0289095938
 10
-104.7055963673
 20
-62.0959469657
 10
-103.9674494224
 20
-65.1566517969
 10
-102.7732307369
 20
-68.1063198268
 10
-101.1878419065
 20
-70.8098531273
 10
-99.5451383684
 20
-72.8929990958
  0
LINE
  5
2BC
100
AcDbEntity
  8
0
100
AcDbLine
 62
7
  6
CONTINUOUS
 10
-102.2916634519
 20
-48.9988846359
 11
-102.2766847818
 21
-48.9628494017
  0
LINE
  5
2BD
100
AcDbEntity
  8
0
100
AcDbLine
 62
7
  6
CONTINUOUS
 10
-108.5706033362
 20
-13.321355434
 11
-108.5912021633
 21
-13.3666933499
  0
LINE
  5
2BE
100
AcDbEntity
  8
0
100
AcDbLine
 62
7
  6
CONTINUOUS
 10
-103.0972431638
 20
-50.6554108911
 11
-103.0817684343
 21
-50.6228140706
  0
LINE
  5
2BF
100
AcDbEntity
  8
0
100
AcDbLine
 62
7
  6
CONTINUOUS
 10
-103.1116149081
 20
-50.6017558403
 11
-103.1273284264
 21
-50.6345510853
  0
LWPOLYLINE
  5
2C0
100
AcDbEntity
  8
0
100
AcDbPolyline
 62
7
  6
CONTINUOUS
 90
6
 70
0
 10
-150.4789246049
 20
-31.4741416049
 10
-150.5876301132
 20
-31.5907668273
 10
-150.7382053282
 20
-31.8451110194
 10
-150.8197876954
 20
-32.1397900207
 10
-150.82149971
 20
-32.4465940367
 10
-150.7803081603
 20
-32.6306701197
  0
LINE
  5
2C1
100
AcDbEntity
  8
0
100
AcDbLine
 62
7
  6
CONTINUOUS
 10
-150.4789218758
 20
-31.4741388519
 11
-149.9721894338
 21
-31.0113023499
  0
LINE
  5
2C2
100
AcDbEntity
  8
0
100
AcDbLine
 62
7
  6
CONTINUOUS
 10
-149.637263893
 20
-31.1837416337
 11
-150.1514161433
 21
-31.6533551994
  0
LINE
  5
2C3
100
AcDbEntity
  8
0
100
AcDbLine
 62
7
  6
CONTINUOUS
 10
-90.1210622854
 20
-31.045518069
 11
-90.0872140721
 21
-31.0329165421
  0
LINE
  5
2C4
100
AcDbEntity
  8
0
100
AcDbLine
 62
7
  6
CONTINUOUS
 10
-90.1164448396
 20
-31.0994765971
 11
-90.0826566105
 21
-31.0873980436
  0
LWPOLYLINE
  5
2C5
100
AcDbEntity
  8
0
100
AcDbPolyline
 62
7
  6
CONTINUOUS
 90
4
 70
0
 10
-45.9893141546
 20
-46.0819981577
 10
-45.987556828
 20
-46.0726130469
 10
-46.0168255101
 20
-46.1370400034
 10
-46.1408526753
 20
-46.2788391762
  0
LINE
  5
2C6
100
AcDbEntity
  8
0
100
AcDbLine
 62
7
  6
CONTINUOUS
 10
-65.0383479509
 20
-90.9416718889
 11
-65.1688160942
 21
-91.3280137626
  0
LWPOLYLINE
  5
2C7
100
AcDbEntity
  8
0
100
AcDbPolyline
 62
7
  6
CONTINUOUS
 90
4
 70
0
 10
-102.2730891539
 20
-48.9643439869
 10
-102.466318662
 20
-49.3236723769
 10
-102.8527061836
 20
-50.0731321437
 10
-103.1120543803
 20
-50.6017817247
  0
LINE
  5
2C8
100
AcDbEntity
  8
0
100
AcDbLine
 62
7
  6
CONTINUOUS
 10
-97.3930668749
 20
-38.7694753035
 11
-97.3738132733
 21
-38.7400342624
  0
LINE
  5
2C9
100
AcDbEntity
  8
0
100
AcDbLine
 62
7
  6
CONTINUOUS
 10
-97.4082673442
 20
-38.7568101561
 11
-97.3876123181
 21
-38.7285062442
  0
LINE
  5
2CA
100
AcDbEntity
  8
0
100
AcDbLine
 62
7
  6
CONTINUOUS
 10
-95.8719289577
 20
-37.6523347543
 11
-95.8387725496
 21
-37.6103019044
  0
LWPOLYLINE
  5
2CB
100
AcDbEntity
  8
0
100
AcDbPolyline
 62
7
  6
CONTINUOUS
 90
9
 70
0
 10
-97.1045239997
 20
-38.9581741177
 10
-98.7487381863
 20
-41.0213436658
 10
-100.1618322565
 20
-43.5184699426
 10
-101.1378959266
 20
-46.2196851772
 10
-101.6475573815
 20
-49.0793871364
 10
-101.6604265124
 20
-52.0260968494
 10
-101.1614803162
 20
-54.9499928531
 10
-100.1739319094
 20
-57.7024905144
 10
-98.9139515569
 20
-59.922451458
  0
LINE
  5
2CC
100
AcDbEntity
  8
0
100
AcDbLine
 62
7
  6
CONTINUOUS
 10
-95.8486385367
 20
-37.674987044
 11
-95.8145395814
 21
-37.6339690311
  0
LINE
  5
2CD
100
AcDbEntity
  8
0
100
AcDbLine
 62
7
  6
CONTINUOUS
 10
-97.0775882057
 20
-38.9809079734
 11
-97.0614561962
 21
-38.9617942563
  0
LINE
  5
2CE
100
AcDbEntity
  8
0
100
AcDbLine
 62
7
  6
CONTINUOUS
 10
-97.078491019
 20
-38.9802335948
 11
-97.0375509983
 21
-38.9358418048
  0
LINE
  5
2CF
100
AcDbEntity
  8
0
100
AcDbLine
 62
7
  6
CONTINUOUS
 10
-97.0805610932
 20
-38.9330334051
 11
-97.1048171721
 21
-38.9591871651
  0
LWPOLYLINE
  5
2D0
100
AcDbEntity
  8
0
100
AcDbPolyline
 62
7
  6
CONTINUOUS
 90
4
 70
0
 10
-95.8102900575
 20
-37.6375017309
 10
-96.1069363871
 20
-37.9274710014
 10
-96.6841134336
 20
-38.51302117
 10
-97.0802572097
 20
-38.9320115589
  0
LINE
  5
2D1
100
AcDbEntity
  8
0
100
AcDbLine
 62
7
  6
CONTINUOUS
 10
-97.0805610932
 20
-38.9330334051
 11
-97.0798480493
 21
-38.9323394162
  0
LINE
  5
2D2
100
AcDbEntity
  8
0
100
AcDbLine
 62
7
  6
CONTINUOUS
 10
-133.5365111513
 20
-45.3762497414
 11
-133.5008209708
 21
-45.3436511814
  0
LINE
  5
2D3
100
AcDbEntity
  8
0
100
AcDbLine
 62
7
  6
CONTINUOUS
 10
-88.1553470654
 20
-29.6945941741
 11
-88.1287657361
 21
-29.6755519607
  0
LINE
  5
2D4
100
AcDbEntity
  8
0
100
AcDbLine
 62
7
  6
CONTINUOUS
 10
-88.1875086096
 20
-29.6223982986
 11
-88.1607188007
 21
-29.6036131698
  0
LINE
  5
2D5
100
AcDbEntity
  8
0
100
AcDbLine
 62
7
  6
CONTINUOUS
 10
-86.5532773241
 20
-29.0086398081
 11
-86.5193092019
 21
-28.9863141581
  0
LWPOLYLINE
  5
2D6
100
AcDbEntity
  8
0
100
AcDbPolyline
 62
7
  6
CONTINUOUS
 90
9
 70
0
 10
-88.078362104
 20
-29.8020587093
 10
-90.1406307231
 20
-31.1245764158
 10
-92.0602455912
 20
-32.8876073624
 10
-93.5835845405
 20
-34.9456852287
 10
-94.667606637
 20
-37.2586983982
 10
-95.2630947988
 20
-39.7625327801
 10
-95.3277307015
 20
-42.3547056632
 10
-94.8492527781
 20
-44.8884594988
 10
-94.4642230179
 20
-45.9675289618
  0
LINE
  5
2D7
100
AcDbEntity
  8
0
100
AcDbLine
 62
7
  6
CONTINUOUS
 10
-86.5411784653
 20
-29.0440658517
 11
-86.5069115912
 21
-29.0227825719
  0
LINE
  5
2D8
100
AcDbEntity
  8
0
100
AcDbLine
 62
7
  6
CONTINUOUS
 10
-87.9995799018
 20
-29.785059355
 11
-88.0799379851
 21
-29.8040451192
  0
LINE
  5
2D9
100
AcDbEntity
  8
0
100
AcDbLine
 62
7
  6
CONTINUOUS
 10
-88.0509244639
 20
-29.7885418188
 11
-88.0488956092
 21
-29.7875217073
  0
LWPOLYLINE
  5
2DA
100
AcDbEntity
  8
0
100
AcDbPolyline
 62
7
  6
CONTINUOUS
 90
4
 70
0
 10
-86.5042648807
 20
-29.0270438745
 10
-86.8973615617
 20
-29.2083127168
 10
-87.5769615034
 20
-29.5408774827
 10
-88.0492718169
 20
-29.7865187899
  0
LINE
  5
2DB
100
AcDbEntity
  8
0
100
AcDbLine
 62
7
  6
CONTINUOUS
 10
-64.0743192969
 20
-24.9360284886
 11
-63.5526239544
 21
-24.213811735
  0
LINE
  5
2DC
100
AcDbEntity
  8
0
100
AcDbLine
 62
7
  6
CONTINUOUS
 10
-63.261550691
 20
-26.1421260881
 11
-63.0204196685
 21
-25.8083238706
  0
LINE
  5
2DD
100
AcDbEntity
  8
0
100
AcDbLine
 62
7
  6
CONTINUOUS
 10
-95.731031873
 20
-60.360175339
 11
-95.4656486015
 21
-60.0369960698
  0
LINE
  5
2DE
100
AcDbEntity
  8
0
100
AcDbLine
 62
7
  6
CONTINUOUS
 10
-52.7897838929
 20
-28.57931313
 11
-52.4747000022
 21
-28.3488689302
  0
LINE
  5
2DF
100
AcDbEntity
  8
0
100
AcDbLine
 62
7
  6
CONTINUOUS
 10
-46.1408526753
 20
-46.2788391762
 11
-46.2233995364
 21
-46.3352917646
  0
LINE
  5
2E0
100
AcDbEntity
  8
0
100
AcDbLine
 62
7
  6
CONTINUOUS
 10
-92.849332178
 20
-71.7295502905
 11
-95.7288285841
 21
-73.3662153073
  0
LINE
  5
2E1
100
AcDbEntity
  8
0
100
AcDbLine
 62
7
  6
CONTINUOUS
 10
-48.1985467101
 20
-47.457926366
 11
-46.2239128103
 21
-46.3355724311
  0
LINE
  5
2E2
100
AcDbEntity
  8
0
100
AcDbLine
 62
7
  6
CONTINUOUS
 10
-45.9126324538
 20
-46.3570760587
 11
-48.0240322473
 21
-47.557165882
  0
LINE
  5
2E3
100
AcDbEntity
  8
0
100
AcDbLine
 62
7
  6
CONTINUOUS
 10
-46.9315194065
 20
-48.0552325982
 11
-44.0520230004
 21
-46.4185675814
  0
LINE
  5
2E4
100
AcDbEntity
  8
0
100
AcDbLine
 62
7
  6
CONTINUOUS
 10
-76.5193008935
 20
-93.6426568006
 11
-76.7604319161
 21
-93.9764590182
  0
LINE
  5
2E5
100
AcDbEntity
  8
0
100
AcDbLine
 62
7
  6
CONTINUOUS
 10
-86.9910676916
 20
-91.2054697587
 11
-87.3061515823
 21
-91.4359139585
  0
ARC
  5
2E6
100
AcDbEntity
  8
0
100
AcDbCircle
 62
7
  6
CONTINUOUS
 10
-362.9881745502
 20
-238.9323777851
 40
340.0418941526
100
AcDbArc
 50
41.5889648416
 51
41.7456849544
  0
ARC
  5
2E7
100
AcDbEntity
  8
0
100
AcDbCircle
 62
7
  6
CONTINUOUS
 10
-156.4509689409
 20
-154.9801214279
 40
132.2289094915
100
AcDbArc
 50
62.2291963708
 51
62.6378632625
  0
ARC
  5
2E8
100
AcDbEntity
  8
0
100
AcDbCircle
 62
7
  6
CONTINUOUS
 10
-154.7336059388
 20
-66.7357182605
 40
71.1790887017
100
AcDbArc
 50
45.6886348969
 51
52.0481032381
  0
ARC
  5
2E9
100
AcDbEntity
  8
0
100
AcDbCircle
 62
7
  6
CONTINUOUS
 10
-128.5267000344
 20
-26.5415553134
 40
23.6426725917
100
AcDbArc
 50
71.8359287472
 51
72.2564890834
  0
ARC
  5
2EA
100
AcDbEntity
  8
0
100
AcDbCircle
 62
7
  6
CONTINUOUS
 10
-128.5602954749
 20
-26.5138603533
 40
23.6312826077
100
AcDbArc
 50
67.9127426532
 51
72.1584411151
  0
ARC
  5
2EB
100
AcDbEntity
  8
0
100
AcDbCircle
 62
7
  6
CONTINUOUS
 10
-128.485009378
 20
-26.4172357706
 40
23.5115515806
100
AcDbArc
 50
69.5266815963
 51
71.8380192519
  0
ARC
  5
2EC
100
AcDbEntity
  8
0
100
AcDbCircle
 62
7
  6
CONTINUOUS
 10
-128.4389088009
 20
-26.2909781226
 40
23.3771443434
100
AcDbArc
 50
69.1662060186
 51
69.52429772
  0
ARC
  5
2ED
100
AcDbEntity
  8
0
100
AcDbCircle
 62
7
  6
CONTINUOUS
 10
-128.4212579154
 20
-26.2449081329
 40
23.3278089076
100
AcDbArc
 50
67.9834693948
 51
69.16648019
  0
ARC
  5
2EE
100
AcDbEntity
  8
0
100
AcDbCircle
 62
7
  6
CONTINUOUS
 10
-133.2691523987
 20
-23.5707744838
 40
23.2828495321
100
AcDbArc
 50
234.0563417395
 51
240.1749638081
  0
ARC
  5
2EF
100
AcDbEntity
  8
0
100
AcDbCircle
 62
7
  6
CONTINUOUS
 10
-128.4246172973
 20
-26.1898552772
 40
23.280038387
100
AcDbArc
 50
60.0931027226
 51
67.9223147305
  0
ARC
  5
2F0
100
AcDbEntity
  8
0
100
AcDbCircle
 62
7
  6
CONTINUOUS
 10
-133.3649990811
 20
-23.740646334
 40
23.0878575881
100
AcDbArc
 50
234.057334099
 51
239.0107975847
  0
ARC
  5
2F1
100
AcDbEntity
  8
0
100
AcDbCircle
 62
7
  6
CONTINUOUS
 10
-133.4093638675
 20
-23.8115621391
 40
23.0042216597
100
AcDbArc
 50
239.0145820634
 51
240.1733781547
  0
ARC
  5
2F2
100
AcDbEntity
  8
0
100
AcDbCircle
 62
7
  6
CONTINUOUS
 10
-129.1311103328
 20
-29.0528895992
 40
21.6637050493
100
AcDbArc
 50
186.4602653511
 51
186.9091461201
  0
ARC
  5
2F3
100
AcDbEntity
  8
0
100
AcDbCircle
 62
7
  6
CONTINUOUS
 10
-133.8072315862
 20
-31.4486636613
 40
16.0519239082
100
AcDbArc
 50
204.5109715655
 51
210.2488950375
  0
ARC
  5
2F4
100
AcDbEntity
  8
0
100
AcDbCircle
 62
7
  6
CONTINUOUS
 10
-134.362089071
 20
-30.9393917703
 40
16.0396823808
100
AcDbArc
 50
217.5572984268
 51
217.8264471295
  0
ARC
  5
2F5
100
AcDbEntity
  8
0
100
AcDbCircle
 62
7
  6
CONTINUOUS
 10
-134.5453397274
 20
-31.8837751956
 40
15.1951226363
100
AcDbArc
 50
210.233655343
 51
215.1424811789
  0
ARC
  5
2F6
100
AcDbEntity
  8
0
100
AcDbCircle
 62
7
  6
CONTINUOUS
 10
-132.5374656542
 20
-3.9487264281
 40
0.6457987789
100
AcDbArc
 50
29.5010102852
 51
48.4978355265
  0
ARC
  5
2F7
100
AcDbEntity
  8
0
100
AcDbCircle
 62
7
  6
CONTINUOUS
 10
-120.8235721269
 20
-35.8287866322
 40
33.6226761435
100
AcDbArc
 50
105.8503142094
 51
107.3568556301
  0
ARC
  5
2F8
100
AcDbEntity
  8
0
100
AcDbCircle
 62
7
  6
CONTINUOUS
 10
-121.0145139718
 20
-35.1482289271
 40
32.91584331
100
AcDbArc
 50
105.1062642161
 51
105.8541357676
  0
ARC
  5
2F9
100
AcDbEntity
  8
0
100
AcDbCircle
 62
7
  6
CONTINUOUS
 10
-120.6485914314
 20
-38.5416830093
 40
14.541202672
100
AcDbArc
 50
207.8897723522
 51
211.0686492557
  0
ARC
  5
2FA
100
AcDbEntity
  8
0
100
AcDbCircle
 62
7
  6
CONTINUOUS
 10
-122.1103659248
 20
-38.8031848661
 40
13.4493035007
100
AcDbArc
 50
254.6464902829
 51
263.0991190827
  0
ARC
  5
2FB
100
AcDbEntity
  8
0
100
AcDbCircle
 62
7
  6
CONTINUOUS
 10
-122.4171633436
 20
-39.9036111814
 40
12.3063284139
100
AcDbArc
 50
245.9796092093
 51
249.5396102393
  0
ARC
  5
2FC
100
AcDbEntity
  8
0
100
AcDbCircle
 62
7
  6
CONTINUOUS
 10
-123.7355417673
 20
-37.8846531832
 40
11.5228847036
100
AcDbArc
 50
250.2509308089
 51
257.5466848905
  0
ARC
  5
2FD
100
AcDbEntity
  8
0
100
AcDbCircle
 62
7
  6
CONTINUOUS
 10
-123.8342313659
 20
-38.1752107145
 40
11.2160712226
100
AcDbArc
 50
246.0709664323
 51
250.2238821211
  0
ARC
  5
2FE
100
AcDbEntity
  8
0
100
AcDbCircle
 62
7
  6
CONTINUOUS
 10
-122.1454674328
 20
-39.2539038057
 40
11.1210694929
100
AcDbArc
 50
240.1435861357
 51
250.4588723148
  0
ARC
  5
2FF
100
AcDbEntity
  8
0
100
AcDbCircle
 62
7
  6
CONTINUOUS
 10
-126.2864980737
 20
-43.4579026141
 40
7.6741385926
100
AcDbArc
 50
249.9205905685
 51
250.2698726779
  0
ARC
  5
300
100
AcDbEntity
  8
0
100
AcDbCircle
 62
7
  6
CONTINUOUS
 10
-119.9713285853
 20
-31.1286449454
 40
30.3137959079
100
AcDbArc
 50
148.6346907161
 51
151.6275348079
  0
ARC
  5
301
100
AcDbEntity
  8
0
100
AcDbCircle
 62
7
  6
CONTINUOUS
 10
-120.2008800858
 20
-31.0117193229
 40
30.0562562307
100
AcDbArc
 50
151.6157100715
 51
157.8086553477
  0
ARC
  5
302
100
AcDbEntity
  8
0
100
AcDbCircle
 62
7
  6
CONTINUOUS
 10
-120.5262105831
 20
-30.8756112888
 40
29.7036157647
100
AcDbArc
 50
157.8147286659
 51
158.0591259382
  0
ARC
  5
303
100
AcDbEntity
  8
0
100
AcDbCircle
 62
7
  6
CONTINUOUS
 10
-121.8120655651
 20
-30.1639484642
 40
27.8573972557
100
AcDbArc
 50
92.1658946998
 51
92.3704757522
  0
ARC
  5
304
100
AcDbEntity
  8
0
100
AcDbCircle
 62
7
  6
CONTINUOUS
 10
-122.1737280858
 20
-29.1808721874
 40
27.3664941392
100
AcDbArc
 50
128.4250534745
 51
134.7085888302
  0
ARC
  5
305
100
AcDbEntity
  8
0
100
AcDbCircle
 62
7
  6
CONTINUOUS
 10
-125.0074871205
 20
-25.0449048318
 40
26.7641033745
100
AcDbArc
 50
211.0757857741
 51
212.5844580366
  0
ARC
  5
306
100
AcDbEntity
  8
0
100
AcDbCircle
 62
7
  6
CONTINUOUS
 10
-123.7100829331
 20
-30.0408807766
 40
26.4056561813
100
AcDbArc
 50
168.6655111739
 51
173.1858896624
  0
ARC
  5
307
100
AcDbEntity
  8
0
100
AcDbCircle
 62
7
  6
CONTINUOUS
 10
-125.3382631528
 20
-25.2569636744
 40
26.3711893428
100
AcDbArc
 50
212.5832769779
 51
213.6969560208
  0
ARC
  5
308
100
AcDbEntity
  8
0
100
AcDbCircle
 62
7
  6
CONTINUOUS
 10
-123.1678745836
 20
-27.9649348393
 40
25.7960602161
100
AcDbArc
 50
125.1773576379
 51
128.3736512546
  0
ARC
  5
309
100
AcDbEntity
  8
0
100
AcDbCircle
 62
7
  6
CONTINUOUS
 10
-125.5831728015
 20
-29.8452149993
 40
24.5225977062
100
AcDbArc
 50
173.1205727093
 51
179.9862425326
  0
ARC
  5
30A
100
AcDbEntity
  8
0
100
AcDbCircle
 62
7
  6
CONTINUOUS
 10
-125.8737485674
 20
-28.5955334726
 40
23.990959713
100
AcDbArc
 50
175.9938460632
 51
183.3560292601
  0
ARC
  5
30B
100
AcDbEntity
  8
0
100
AcDbCircle
 62
7
  6
CONTINUOUS
 10
-119.6829921889
 20
-29.2277754501
 40
23.2938352085
100
AcDbArc
 50
250.5298394794
 51
252.4190589501
  0
ARC
  5
30C
100
AcDbEntity
  8
0
100
AcDbCircle
 62
7
  6
CONTINUOUS
 10
-119.8446918407
 20
-29.2348520661
 40
23.243804078
100
AcDbArc
 50
250.4454948258
 51
252.3957945133
  0
ARC
  5
30D
100
AcDbEntity
  8
0
100
AcDbCircle
 62
7
  6
CONTINUOUS
 10
-128.3679434516
 20
-26.1155261672
 40
23.1878724071
100
AcDbArc
 50
64.7076141741
 51
67.7602147961
  0
ARC
  5
30E
100
AcDbEntity
  8
0
100
AcDbCircle
 62
7
  6
CONTINUOUS
 10
-128.3249514061
 20
-26.0224515891
 40
23.0853522141
100
AcDbArc
 50
64.330016229
 51
64.7053949228
  0
ARC
  5
30F
100
AcDbEntity
  8
0
100
AcDbCircle
 62
7
  6
CONTINUOUS
 10
-128.3046941186
 20
-25.980627653
 40
23.0388809372
100
AcDbArc
 50
60.0922318524
 51
64.3303653719
  0
ARC
  5
310
100
AcDbEntity
  8
0
100
AcDbCircle
 62
7
  6
CONTINUOUS
 10
-127.1516047855
 20
-29.8404920988
 40
22.9541650449
100
AcDbArc
 50
179.9970913091
 51
183.1476751386
  0
ARC
  5
311
100
AcDbEntity
  8
0
100
AcDbCircle
 62
7
  6
CONTINUOUS
 10
-128.3329482202
 20
-28.9708937542
 40
22.4660261673
100
AcDbArc
 50
179.956291882
 51
186.4390227714
  0
ARC
  5
312
100
AcDbEntity
  8
0
100
AcDbCircle
 62
7
  6
CONTINUOUS
 10
-127.0744505369
 20
-22.2798371086
 40
19.5609839994
100
AcDbArc
 50
104.6998959802
 51
105.0095629956
  0
ARC
  5
313
100
AcDbEntity
  8
0
100
AcDbCircle
 62
7
  6
CONTINUOUS
 10
-126.2203039369
 20
-21.8182042157
 40
18.8936968072
100
AcDbArc
 50
101.6556770458
 51
107.3262284949
  0
ARC
  5
314
100
AcDbEntity
  8
0
100
AcDbCircle
 62
7
  6
CONTINUOUS
 10
-125.4518859198
 20
-21.8047627273
 40
18.1847339071
100
AcDbArc
 50
46.5484305403
 51
46.9002828913
  0
ARC
  5
315
100
AcDbEntity
  8
0
100
AcDbCircle
 62
7
  6
CONTINUOUS
 10
-126.495685606
 20
-20.5582256447
 40
17.6040709986
100
AcDbArc
 50
97.3846204953
 51
101.6063684806
  0
ARC
  5
316
100
AcDbEntity
  8
0
100
AcDbCircle
 62
7
  6
CONTINUOUS
 10
-106.6445237145
 20
-43.8130369953
 40
48.356236085
100
AcDbArc
 50
132.4151785415
 51
134.173338495
  0
ARC
  5
317
100
AcDbEntity
  8
0
100
AcDbCircle
 62
7
  6
CONTINUOUS
 10
-107.0950262671
 20
-43.3289144157
 40
47.6949569906
100
AcDbArc
 50
132.0556165753
 51
132.4079037049
  0
ARC
  5
318
100
AcDbEntity
  8
0
100
AcDbCircle
 62
7
  6
CONTINUOUS
 10
-107.1472228491
 20
-48.4014205083
 40
37.3457724764
100
AcDbArc
 50
105.7619718686
 51
107.135244979
  0
ARC
  5
319
100
AcDbEntity
  8
0
100
AcDbCircle
 62
7
  6
CONTINUOUS
 10
-107.8901062482
 20
-38.0761497751
 40
27.7013251331
100
AcDbArc
 50
153.4992368651
 51
155.5706076587
  0
ARC
  5
31A
100
AcDbEntity
  8
0
100
AcDbCircle
 62
7
  6
CONTINUOUS
 10
-109.9419258387
 20
-36.1604329753
 40
24.8909901745
100
AcDbArc
 50
130.1948477934
 51
132.4217281003
  0
ARC
  5
31B
100
AcDbEntity
  8
0
100
AcDbCircle
 62
7
  6
CONTINUOUS
 10
-116.8837160108
 20
-36.3251850753
 40
24.5256758756
100
AcDbArc
 50
70.412628621
 51
72.2735208952
  0
ARC
  5
31C
100
AcDbEntity
  8
0
100
AcDbCircle
 62
7
  6
CONTINUOUS
 10
-116.3348250896
 20
-35.2832203995
 40
23.2939187815
100
AcDbArc
 50
70.5298694628
 51
72.4190581259
  0
ARC
  5
31D
100
AcDbEntity
  8
0
100
AcDbCircle
 62
7
  6
CONTINUOUS
 10
-113.3397946249
 20
-36.9599229318
 40
22.1035145174
100
AcDbArc
 50
177.6046379063
 51
180.0018088075
  0
ARC
  5
31E
100
AcDbEntity
  8
0
100
AcDbCircle
 62
7
  6
CONTINUOUS
 10
-107.4215693431
 20
-30.0134184609
 40
42.4018644057
100
AcDbArc
 50
175.8794413251
 51
179.9848297659
  0
ARC
  5
31F
100
AcDbEntity
  8
0
100
AcDbCircle
 62
7
  6
CONTINUOUS
 10
-109.7641773551
 20
-30.4169613497
 40
28.197158753
100
AcDbArc
 50
211.8558256628
 51
213.5279395753
  0
ARC
  5
320
100
AcDbEntity
  8
0
100
AcDbCircle
 62
7
  6
CONTINUOUS
 10
-111.6736794893
 20
-31.7250245448
 40
25.7747814277
100
AcDbArc
 50
211.9807935129
 51
213.7530983687
  0
ARC
  5
321
100
AcDbEntity
  8
0
100
AcDbCircle
 62
7
  6
CONTINUOUS
 10
-114.3390781026
 20
-25.3433247165
 40
13.342702034
100
AcDbArc
 50
36.6060783308
 51
45.6455054609
  0
ARC
  5
322
100
AcDbEntity
  8
0
100
AcDbCircle
 62
7
  6
CONTINUOUS
 10
-113.6044127017
 20
-24.6169685665
 40
12.3167051022
100
AcDbArc
 50
66.5559554995
 51
69.5388304328
  0
ARC
  5
323
100
AcDbEntity
  8
0
100
AcDbCircle
 62
7
  6
CONTINUOUS
 10
-113.5767198268
 20
-24.551450731
 40
12.2455781426
100
AcDbArc
 50
65.9754529011
 51
66.5528689107
  0
ARC
  5
324
100
AcDbEntity
  8
0
100
AcDbCircle
 62
7
  6
CONTINUOUS
 10
-115.9832475613
 20
-24.420990016
 40
11.4519689022
100
AcDbArc
 50
42.7739013388
 51
50.0161935006
  0
ARC
  5
325
100
AcDbEntity
  8
0
100
AcDbCircle
 62
7
  6
CONTINUOUS
 10
-115.8347926376
 20
-24.2459023576
 40
11.2224194002
100
AcDbArc
 50
50.0225435348
 51
54.6920941102
  0
ARC
  5
326
100
AcDbEntity
  8
0
100
AcDbCircle
 62
7
  6
CONTINUOUS
 10
-114.0663299439
 20
-25.1815159457
 40
11.1522262338
100
AcDbArc
 50
50.1095238147
 51
60.1026357657
  0
ARC
  5
327
100
AcDbEntity
  8
0
100
AcDbCircle
 62
7
  6
CONTINUOUS
 10
-104.0059766467
 20
27.4382525017
 40
82.0897778482
100
AcDbArc
 50
240.1608647105
 51
250.3334305291
  0
ARC
  5
328
100
AcDbEntity
  8
0
100
AcDbCircle
 62
7
  6
CONTINUOUS
 10
-104.0854141288
 20
27.2490572853
 40
81.8848853423
100
AcDbArc
 50
250.3412188692
 51
252.3505102559
  0
ARC
  5
329
100
AcDbEntity
  8
0
100
AcDbCircle
 62
7
  6
CONTINUOUS
 10
-105.5556667231
 20
23.6557813398
 40
77.9884851607
100
AcDbArc
 50
244.6741939409
 51
250.4838809039
  0
ARC
  5
32A
100
AcDbEntity
  8
0
100
AcDbCircle
 62
7
  6
CONTINUOUS
 10
-102.8406657867
 20
25.4554443985
 40
77.19691585
100
AcDbArc
 50
246.4260197517
 51
246.5698697567
  0
ARC
  5
32B
100
AcDbEntity
  8
0
100
AcDbCircle
 62
7
  6
CONTINUOUS
 10
-106.5347799975
 20
20.947063136
 40
75.108297248
100
AcDbArc
 50
250.4975768159
 51
252.0787755687
  0
ARC
  5
32C
100
AcDbEntity
  8
0
100
AcDbCircle
 62
7
  6
CONTINUOUS
 10
-107.3301505223
 20
20.0556202414
 40
73.9752995607
100
AcDbArc
 50
239.5541836212
 51
244.7236770582
  0
ARC
  5
32D
100
AcDbEntity
  8
0
100
AcDbCircle
 62
7
  6
CONTINUOUS
 10
-107.2415858532
 20
18.7849383179
 40
72.8335878003
100
AcDbArc
 50
252.0844496343
 51
252.6984977369
  0
ARC
  5
32E
100
AcDbEntity
  8
0
100
AcDbCircle
 62
7
  6
CONTINUOUS
 10
-106.7259695279
 20
16.8327146171
 40
71.1736693524
100
AcDbArc
 50
250.3707114623
 51
251.8414410789
  0
ARC
  5
32F
100
AcDbEntity
  8
0
100
AcDbCircle
 62
7
  6
CONTINUOUS
 10
-106.8357517392
 20
16.4970966229
 40
70.8205519748
100
AcDbArc
 50
251.8940699325
 51
252.8744447493
  0
ARC
  5
330
100
AcDbEntity
  8
0
100
AcDbCircle
 62
7
  6
CONTINUOUS
 10
-107.8509123212
 20
16.8305409857
 40
70.7864562278
100
AcDbArc
 50
252.7009496072
 51
253.7793783976
  0
ARC
  5
331
100
AcDbEntity
  8
0
100
AcDbCircle
 62
7
  6
CONTINUOUS
 10
-107.0403002756
 20
15.8229008651
 40
70.1160134523
100
AcDbArc
 50
252.9188686856
 51
254.5914250964
  0
ARC
  5
332
100
AcDbEntity
  8
0
100
AcDbCircle
 62
7
  6
CONTINUOUS
 10
-109.4631304531
 20
16.4006338995
 40
69.7434744744
100
AcDbArc
 50
237.5184594814
 51
239.543334507
  0
ARC
  5
333
100
AcDbEntity
  8
0
100
AcDbCircle
 62
7
  6
CONTINUOUS
 10
-109.5414208937
 20
7.3114172145
 40
61.1302603024
100
AcDbArc
 50
248.8737228591
 51
251.5168446766
  0
ARC
  5
334
100
AcDbEntity
  8
0
100
AcDbCircle
 62
7
  6
CONTINUOUS
 10
-109.5839294286
 20
7.145201904
 40
60.9591470791
100
AcDbArc
 50
251.5481145035
 51
252.801554607
  0
ARC
  5
335
100
AcDbEntity
  8
0
100
AcDbCircle
 62
7
  6
CONTINUOUS
 10
-109.6145306766
 20
7.0474481029
 40
60.8567159625
100
AcDbArc
 50
252.8018642652
 51
252.9810130657
  0
ARC
  5
336
100
AcDbEntity
  8
0
100
AcDbCircle
 62
7
  6
CONTINUOUS
 10
-111.0542925675
 20
5.290917403
 40
58.8474332049
100
AcDbArc
 50
253.6348348634
 51
254.4050478115
  0
ARC
  5
337
100
AcDbEntity
  8
0
100
AcDbCircle
 62
7
  6
CONTINUOUS
 10
-111.0825915299
 20
5.1948623824
 40
58.7472963463
100
AcDbArc
 50
252.3966988856
 51
253.6349208424
  0
ARC
  5
338
100
AcDbEntity
  8
0
100
AcDbCircle
 62
7
  6
CONTINUOUS
 10
-107.8235568686
 20
4.7836535636
 40
49.2823758619
100
AcDbArc
 50
235.7992922133
 51
235.9279682195
  0
ARC
  5
339
100
AcDbEntity
  8
0
100
AcDbCircle
 62
7
  6
CONTINUOUS
 10
-114.4700699163
 20
-1.4840079154
 40
47.8376471853
100
AcDbArc
 50
220.7757121987
 51
231.5609509183
  0
ARC
  5
33A
100
AcDbEntity
  8
0
100
AcDbCircle
 62
7
  6
CONTINUOUS
 10
-115.5085028513
 20
-3.6467573074
 40
45.4575498575
100
AcDbArc
 50
243.612396792
 51
244.6327285767
  0
ARC
  5
33B
100
AcDbEntity
  8
0
100
AcDbCircle
 62
7
  6
CONTINUOUS
 10
-115.9295072922
 20
-4.4316478101
 40
44.5696399736
100
AcDbArc
 50
244.6921557097
 51
246.4825018705
  0
ARC
  5
33C
100
AcDbEntity
  8
0
100
AcDbCircle
 62
7
  6
CONTINUOUS
 10
-115.5934473739
 20
-7.4155829544
 40
41.9429654307
100
AcDbArc
 50
242.5064576068
 51
244.7261111593
  0
ARC
  5
33D
100
AcDbEntity
  8
0
100
AcDbCircle
 62
7
  6
CONTINUOUS
 10
-108.9485705755
 20
3.0732494059
 40
37.3221407999
100
AcDbArc
 50
230.1514374222
 51
230.4440167566
  0
ARC
  5
33E
100
AcDbEntity
  8
0
100
AcDbCircle
 62
7
  6
CONTINUOUS
 10
-107.7457325924
 20
0.9930002704
 40
36.5537150872
100
AcDbArc
 50
226.6192131325
 51
226.9116531414
  0
ARC
  5
33F
100
AcDbEntity
  8
0
100
AcDbCircle
 62
7
  6
CONTINUOUS
 10
-115.5913680121
 20
-6.7495700327
 40
35.3699679901
100
AcDbArc
 50
235.5614295347
 51
235.8944330338
  0
ARC
  5
340
100
AcDbEntity
  8
0
100
AcDbCircle
 62
7
  6
CONTINUOUS
 10
-117.7544465565
 20
-6.744217849
 40
34.1121988602
100
AcDbArc
 50
204.3309199212
 51
210.1638171548
  0
ARC
  5
341
100
AcDbEntity
  8
0
100
AcDbCircle
 62
7
  6
CONTINUOUS
 10
-116.2792401935
 20
-7.9548193136
 40
33.8074488508
100
AcDbArc
 50
200.8741839256
 51
207.0775236558
  0
ARC
  5
342
100
AcDbEntity
  8
0
100
AcDbCircle
 62
7
  6
CONTINUOUS
 10
-102.0559002311
 20
6.0830150585
 40
33.3559141385
100
AcDbArc
 50
221.1712904453
 51
221.5900802323
  0
ARC
  5
343
100
AcDbEntity
  8
0
100
AcDbCircle
 62
7
  6
CONTINUOUS
 10
-111.5305374644
 20
0.0110063284
 40
33.3168051928
100
AcDbArc
 50
227.8545014619
 51
230.1860565047
  0
ARC
  5
344
100
AcDbEntity
  8
0
100
AcDbCircle
 62
7
  6
CONTINUOUS
 10
-102.4646382272
 20
5.726382762
 40
32.8134632667
100
AcDbArc
 50
220.3540634014
 51
221.1723802668
  0
ARC
  5
345
100
AcDbEntity
  8
0
100
AcDbCircle
 62
7
  6
CONTINUOUS
 10
-111.8727413076
 20
-0.390340734
 40
32.7888930477
100
AcDbArc
 50
226.4697545056
 51
227.8270500091
  0
ARC
  5
346
100
AcDbEntity
  8
0
100
AcDbCircle
 62
7
  6
CONTINUOUS
 10
-110.5958244725
 20
-1.5804635448
 40
32.7146584393
100
AcDbArc
 50
224.8307149015
 51
227.5397042526
  0
ARC
  5
347
100
AcDbEntity
  8
0
100
AcDbCircle
 62
7
  6
CONTINUOUS
 10
-103.1531091411
 20
3.0961356573
 40
30.5225432584
100
AcDbArc
 50
221.1406405083
 51
221.4609696654
  0
ARC
  5
348
100
AcDbEntity
  8
0
100
AcDbCircle
 62
7
  6
CONTINUOUS
 10
-127.1638981117
 20
-17.8527299147
 40
15.0709606242
100
AcDbArc
 50
67.0944298732
 51
70.0658062799
  0
ARC
  5
349
100
AcDbEntity
  8
0
100
AcDbCircle
 62
7
  6
CONTINUOUS
 10
-127.149498166
 20
-17.8178168001
 40
15.0331958437
100
AcDbArc
 50
66.6049591348
 51
67.0931943289
  0
ARC
  5
34A
100
AcDbEntity
  8
0
100
AcDbCircle
 62
7
  6
CONTINUOUS
 10
-126.3681775288
 20
-16.4863759759
 40
13.4911422786
100
AcDbArc
 50
68.6505706118
 51
71.1515866665
  0
ARC
  5
34B
100
AcDbEntity
  8
0
100
AcDbCircle
 62
7
  6
CONTINUOUS
 10
-126.3372446886
 20
-16.4059089427
 40
13.4049358519
100
AcDbArc
 50
67.9531097756
 51
68.6485007568
  0
ARC
  5
34C
100
AcDbEntity
  8
0
100
AcDbCircle
 62
7
  6
CONTINUOUS
 10
-126.3137806651
 20
-16.3484295345
 40
13.3428519339
100
AcDbArc
 50
65.9008284608
 51
67.9538504668
  0
ARC
  5
34D
100
AcDbEntity
  8
0
100
AcDbCircle
 62
7
  6
CONTINUOUS
 10
-115.961561448
 20
-19.3546565383
 40
6.8417567369
100
AcDbArc
 50
106.630042653
 51
107.4560453839
  0
ARC
  5
34E
100
AcDbEntity
  8
0
100
AcDbCircle
 62
7
  6
CONTINUOUS
 10
-87.8327986646
 20
-58.2231835617
 40
56.2925514513
100
AcDbArc
 50
132.8972184522
 51
133.9240820427
  0
ARC
  5
34F
100
AcDbEntity
  8
0
100
AcDbCircle
 62
7
  6
CONTINUOUS
 10
-100.8181155383
 20
-66.6739031615
 40
40.3416354817
100
AcDbArc
 50
67.4832614828
 51
69.0589755425
  0
ARC
  5
350
100
AcDbEntity
  8
0
100
AcDbCircle
 62
7
  6
CONTINUOUS
 10
-87.2402020056
 20
-65.4818042944
 40
18.1341364002
100
AcDbArc
 50
175.5264037564
 51
177.9974350282
  0
ARC
  5
351
100
AcDbEntity
  8
0
100
AcDbCircle
 62
7
  6
CONTINUOUS
 10
-87.7007867111
 20
-65.444802125
 40
17.6720687883
100
AcDbArc
 50
172.3785342079
 51
175.5295291409
  0
ARC
  5
352
100
AcDbEntity
  8
0
100
AcDbCircle
 62
7
  6
CONTINUOUS
 10
-98.7153178595
 20
-39.1495799229
 40
52.6819140108
100
AcDbArc
 50
146.6456108047
 51
154.9338875759
  0
ARC
  5
353
100
AcDbEntity
  8
0
100
AcDbCircle
 62
7
  6
CONTINUOUS
 10
-98.9526768679
 20
-39.0134471763
 40
52.5292021846
100
AcDbArc
 50
146.6306965305
 51
154.9557511243
  0
ARC
  5
354
100
AcDbEntity
  8
0
100
AcDbCircle
 62
7
  6
CONTINUOUS
 10
-99.0437598814
 20
-38.9893145779
 40
52.3165065414
100
AcDbArc
 50
154.9404832745
 51
155.5657273597
  0
ARC
  5
355
100
AcDbEntity
  8
0
100
AcDbCircle
 62
7
  6
CONTINUOUS
 10
-99.2864593155
 20
-38.8781122954
 40
52.0495454274
100
AcDbArc
 50
155.5666632564
 51
157.2421543703
  0
ARC
  5
356
100
AcDbEntity
  8
0
100
AcDbCircle
 62
7
  6
CONTINUOUS
 10
-93.4422150703
 20
-52.0152431663
 40
47.7485069375
100
AcDbArc
 50
133.0333121512
 51
134.2035844053
  0
ARC
  5
357
100
AcDbEntity
  8
0
100
AcDbCircle
 62
7
  6
CONTINUOUS
 10
-88.2516159312
 20
-36.881670484
 40
47.3609160227
100
AcDbArc
 50
178.8512088827
 51
180.011329571
  0
ARC
  5
358
100
AcDbEntity
  8
0
100
AcDbCircle
 62
7
  6
CONTINUOUS
 10
-95.7027676767
 20
-36.9329750795
 40
39.7405510705
100
AcDbArc
 50
178.7104440245
 51
180.0398580114
  0
ARC
  5
359
100
AcDbEntity
  8
0
100
AcDbCircle
 62
7
  6
CONTINUOUS
 10
-88.4519345758
 20
-41.1590479768
 40
12.9161452413
100
AcDbArc
 50
95.5381685184
 51
105.0798435635
  0
ARC
  5
35A
100
AcDbEntity
  8
0
100
AcDbCircle
 62
7
  6
CONTINUOUS
 10
-88.4684107341
 20
-41.0617968317
 40
12.8179494143
100
AcDbArc
 50
105.1217807933
 51
114.6935674253
  0
ARC
  5
35B
100
AcDbEntity
  8
0
100
AcDbCircle
 62
7
  6
CONTINUOUS
 10
-79.9097699005
 20
-72.1074714349
 40
51.3631506771
100
AcDbArc
 50
60.1714384642
 51
69.8249055664
  0
ARC
  5
35C
100
AcDbEntity
  8
0
100
AcDbCircle
 62
7
  6
CONTINUOUS
 10
-81.8447109259
 20
-70.8488432116
 40
49.2805158786
100
AcDbArc
 50
68.8418905454
 51
70.5877760586
  0
ARC
  5
35D
100
AcDbEntity
  8
0
100
AcDbCircle
 62
7
  6
CONTINUOUS
 10
-81.7607540625
 20
-70.6100675127
 40
49.0274100546
100
AcDbArc
 50
70.587570388
 51
74.3969470289
  0
ARC
  5
35E
100
AcDbEntity
  8
0
100
AcDbCircle
 62
7
  6
CONTINUOUS
 10
-73.8310968231
 20
-62.1148017176
 40
32.4127875804
100
AcDbArc
 50
223.5939327387
 51
226.7586574381
  0
ARC
  5
35F
100
AcDbEntity
  8
0
100
AcDbCircle
 62
7
  6
CONTINUOUS
 10
-73.3758307901
 20
-67.3988514748
 40
32.1295830361
100
AcDbArc
 50
168.9899235826
 51
172.1910660027
  0
ARC
  5
360
100
AcDbEntity
  8
0
100
AcDbCircle
 62
7
  6
CONTINUOUS
 10
-84.7104555475
 20
-54.33027833
 40
31.1503678193
100
AcDbArc
 50
71.0550036101
 51
73.2866120536
  0
ARC
  5
361
100
AcDbEntity
  8
0
100
AcDbCircle
 62
7
  6
CONTINUOUS
 10
-75.5918898131
 20
-63.7955297342
 40
29.9786084336
100
AcDbArc
 50
221.0047653819
 51
223.5879765253
  0
ARC
  5
362
100
AcDbEntity
  8
0
100
AcDbCircle
 62
7
  6
CONTINUOUS
 10
-77.8238067213
 20
-61.948165355
 40
28.3698351982
100
AcDbArc
 50
223.746479182
 51
230.4347610088
  0
ARC
  5
363
100
AcDbEntity
  8
0
100
AcDbCircle
 62
7
  6
CONTINUOUS
 10
-84.0200583373
 20
-57.3647290812
 40
27.9645774604
100
AcDbArc
 50
290.3776140645
 51
293.316375039
  0
ARC
  5
364
100
AcDbEntity
  8
0
100
AcDbCircle
 62
7
  6
CONTINUOUS
 10
-77.2659487269
 20
-65.2531977531
 40
27.7588637725
100
AcDbArc
 50
217.7781360005
 51
221.001359831
  0
ARC
  5
365
100
AcDbEntity
  8
0
100
AcDbCircle
 62
7
  6
CONTINUOUS
 10
-78.9332184933
 20
-62.6937484992
 40
27.0407773292
100
AcDbArc
 50
213.9860789082
 51
215.0933217241
  0
ARC
  5
366
100
AcDbEntity
  8
0
100
AcDbCircle
 62
7
  6
CONTINUOUS
 10
-79.7097048621
 20
-63.2107374374
 40
26.1079436294
100
AcDbArc
 50
209.1350021108
 51
213.9978764113
  0
ARC
  5
367
100
AcDbEntity
  8
0
100
AcDbCircle
 62
7
  6
CONTINUOUS
 10
-75.7207704466
 20
-52.686135882
 40
25.9851347979
100
AcDbArc
 50
114.5020347674
 51
118.1986984347
  0
ARC
  5
368
100
AcDbEntity
  8
0
100
AcDbCircle
 62
7
  6
CONTINUOUS
 10
-78.9402375947
 20
-66.568270385
 40
25.6299075107
100
AcDbArc
 50
214.5738441363
 51
217.747419752
  0
ARC
  5
369
100
AcDbEntity
  8
0
100
AcDbCircle
 62
7
  6
CONTINUOUS
 10
-78.1380256747
 20
-53.8207873786
 40
25.6009757267
100
AcDbArc
 50
119.0063180222
 51
119.358776624
  0
ARC
  5
36A
100
AcDbEntity
  8
0
100
AcDbCircle
 62
7
  6
CONTINUOUS
 10
-80.5481698948
 20
-63.6934943012
 40
25.1405296311
100
AcDbArc
 50
207.3968280444
 51
209.1043416902
  0
ARC
  5
36B
100
AcDbEntity
  8
0
100
AcDbCircle
 62
7
  6
CONTINUOUS
 10
-81.4458319562
 20
-64.146833978
 40
24.1349463472
100
AcDbArc
 50
202.2813554558
 51
207.4219121327
  0
ARC
  5
36C
100
AcDbEntity
  8
0
100
AcDbCircle
 62
7
  6
CONTINUOUS
 10
-80.402842098
 20
-67.584884565
 40
23.8487106562
100
AcDbArc
 50
211.3132926885
 51
214.5568000294
  0
ARC
  5
36D
100
AcDbEntity
  8
0
100
AcDbCircle
 62
7
  6
CONTINUOUS
 10
-82.5094282644
 20
-64.5940493064
 40
22.9812038931
100
AcDbArc
 50
200.4594404455
 51
202.2550395783
  0
ARC
  5
36E
100
AcDbEntity
  8
0
100
AcDbCircle
 62
7
  6
CONTINUOUS
 10
-83.3573629194
 20
-64.9031326518
 40
22.07871982
100
AcDbArc
 50
194.827317213
 51
200.47709816
  0
ARC
  5
36F
100
AcDbEntity
  8
0
100
AcDbCircle
 62
7
  6
CONTINUOUS
 10
-82.1089594974
 20
-68.6302235396
 40
21.8478294005
100
AcDbArc
 50
207.4279029113
 51
211.2965760934
  0
ARC
  5
370
100
AcDbEntity
  8
0
100
AcDbCircle
 62
7
  6
CONTINUOUS
 10
-84.1158241333
 20
-65.1125855015
 40
21.2919155012
100
AcDbArc
 50
193.121673184
 51
194.8047586302
  0
ARC
  5
371
100
AcDbEntity
  8
0
100
AcDbCircle
 62
7
  6
CONTINUOUS
 10
-84.9617622256
 20
-65.3034723459
 40
20.4247305612
100
AcDbArc
 50
186.9460240683
 51
193.1389022741
  0
ARC
  5
372
100
AcDbEntity
  8
0
100
AcDbCircle
 62
7
  6
CONTINUOUS
 10
-82.4743610368
 20
-54.3278446446
 40
20.4051868364
100
AcDbArc
 50
301.5743618606
 51
303.818057122
  0
ARC
  5
373
100
AcDbEntity
  8
0
100
AcDbCircle
 62
7
  6
CONTINUOUS
 10
-83.4734214009
 20
-69.3573026253
 40
20.3018360892
100
AcDbArc
 50
206.3551337165
 51
207.3803939647
  0
ARC
  5
374
100
AcDbEntity
  8
0
100
AcDbCircle
 62
7
  6
CONTINUOUS
 10
-84.2673500993
 20
-69.7457977189
 40
19.4180084137
100
AcDbArc
 50
201.5936857333
 51
206.3677285297
  0
ARC
  5
375
100
AcDbEntity
  8
0
100
AcDbCircle
 62
7
  6
CONTINUOUS
 10
-86.0043686417
 20
-65.4525469487
 40
19.3717604811
100
AcDbArc
 50
186.3989222498
 51
186.8812693107
  0
ARC
  5
376
100
AcDbEntity
  8
0
100
AcDbCircle
 62
7
  6
CONTINUOUS
 10
-86.2475811846
 20
-65.4777353517
 40
19.1273386901
100
AcDbArc
 50
182.2859298847
 51
186.4050412111
  0
ARC
  5
377
100
AcDbEntity
  8
0
100
AcDbCircle
 62
7
  6
CONTINUOUS
 10
-86.0634294551
 20
-58.6975778392
 40
18.8377859073
100
AcDbArc
 50
159.7447344409
 51
168.7761025987
  0
ARC
  5
378
100
AcDbEntity
  8
0
100
AcDbCircle
 62
7
  6
CONTINUOUS
 10
-86.1623066732
 20
-58.6632100584
 40
18.7331251708
100
AcDbArc
 50
158.8055276085
 51
159.7386505524
  0
ARC
  5
379
100
AcDbEntity
  8
0
100
AcDbCircle
 62
7
  6
CONTINUOUS
 10
-86.6978685516
 20
-65.4966148886
 40
18.6766566374
100
AcDbArc
 50
178.0101659252
 51
182.2831561184
  0
ARC
  5
37A
100
AcDbEntity
  8
0
100
AcDbCircle
 62
7
  6
CONTINUOUS
 10
-86.2935294846
 20
-58.6108513579
 40
18.5918490109
100
AcDbArc
 50
154.6655441345
 51
158.80976658
  0
ARC
  5
37B
100
AcDbEntity
  8
0
100
AcDbCircle
 62
7
  6
CONTINUOUS
 10
-85.444716925
 20
-70.2257171325
 40
18.1466563366
100
AcDbArc
 50
199.3156460672
 51
201.5528284921
  0
ARC
  5
37C
100
AcDbEntity
  8
0
100
AcDbCircle
 62
7
  6
CONTINUOUS
 10
-83.6666092302
 20
-66.7802522832
 40
18.0636381552
100
AcDbArc
 50
243.7226703139
 51
256.2665442678
  0
ARC
  5
37D
100
AcDbEntity
  8
0
100
AcDbCircle
 62
7
  6
CONTINUOUS
 10
-86.2462330243
 20
-70.5060355339
 40
17.2975355496
100
AcDbArc
 50
195.8130098833
 51
199.3175662689
  0
ARC
  5
37E
100
AcDbEntity
  8
0
100
AcDbCircle
 62
7
  6
CONTINUOUS
 10
-79.9748578031
 20
-66.5311742305
 40
14.7206410738
100
AcDbArc
 50
231.2678421159
 51
240.1242661325
  0
ARC
  5
37F
100
AcDbEntity
  8
0
100
AcDbCircle
 62
7
  6
CONTINUOUS
 10
-76.9995872904
 20
-50.4266272743
 40
61.1397297257
100
AcDbArc
 50
156.0221751306
 51
156.9895631395
  0
ARC
  5
380
100
AcDbEntity
  8
0
100
AcDbCircle
 62
7
  6
CONTINUOUS
 10
-85.7645465586
 20
-46.4544417472
 40
51.3336195682
100
AcDbArc
 50
156.1551262043
 51
157.2699703389
  0
ARC
  5
381
100
AcDbEntity
  8
0
100
AcDbCircle
 62
7
  6
CONTINUOUS
 10
-85.6416002584
 20
-50.8346636852
 40
25.14098796
100
AcDbArc
 50
333.3323327199
 51
335.559543947
  0
ARC
  5
382
100
AcDbEntity
  8
0
100
AcDbCircle
 62
7
  6
CONTINUOUS
 10
-76.0996716272
 20
-51.882006878
 40
25.096282925
100
AcDbArc
 50
114.2315365423
 51
114.4762661812
  0
ARC
  5
383
100
AcDbEntity
  8
0
100
AcDbCircle
 62
7
  6
CONTINUOUS
 10
-85.0612251464
 20
-51.0809370123
 40
24.5107294846
100
AcDbArc
 50
335.5223215849
 51
343.0665321298
  0
ARC
  5
384
100
AcDbEntity
  8
0
100
AcDbCircle
 62
7
  6
CONTINUOUS
 10
-80.8966966007
 20
-51.8321290374
 40
20.2639340764
100
AcDbArc
 50
356.743398349
 51
358.7465995784
  0
ARC
  5
385
100
AcDbEntity
  8
0
100
AcDbCircle
 62
7
  6
CONTINUOUS
 10
-75.7578217429
 20
-43.0802521674
 40
18.5844576417
100
AcDbArc
 50
90.078137614
 51
94.8953967451
  0
ARC
  5
386
100
AcDbEntity
  8
0
100
AcDbCircle
 62
7
  6
CONTINUOUS
 10
-84.040744602
 20
-50.9326553288
 40
17.6873745067
100
AcDbArc
 50
137.4867968342
 51
141.548277558
  0
ARC
  5
387
100
AcDbEntity
  8
0
100
AcDbCircle
 62
7
  6
CONTINUOUS
 10
-84.1102474382
 20
-50.8765806065
 40
17.5980742509
100
AcDbArc
 50
141.550534631
 51
142.6723705034
  0
ARC
  5
388
100
AcDbEntity
  8
0
100
AcDbCircle
 62
7
  6
CONTINUOUS
 10
-84.4636614283
 20
-50.6269102187
 40
17.1656602294
100
AcDbArc
 50
142.6197427418
 51
152.1701436644
  0
ARC
  5
389
100
AcDbEntity
  8
0
100
AcDbCircle
 62
7
  6
CONTINUOUS
 10
-80.5908621194
 20
-43.6086117781
 40
15.6838042592
100
AcDbArc
 50
118.3079636746
 51
118.4696777248
  0
ARC
  5
38A
100
AcDbEntity
  8
0
100
AcDbCircle
 62
7
  6
CONTINUOUS
 10
-80.6762735827
 20
-43.4539643429
 40
15.5071433753
100
AcDbArc
 50
118.464641084
 51
121.2973631849
  0
ARC
  5
38B
100
AcDbEntity
  8
0
100
AcDbCircle
 62
7
  6
CONTINUOUS
 10
-80.905524413
 20
-43.0803869986
 40
15.068836921
100
AcDbArc
 50
121.2904240525
 51
124.6394144331
  0
ARC
  5
38C
100
AcDbEntity
  8
0
100
AcDbCircle
 62
7
  6
CONTINUOUS
 10
-76.1466244819
 20
-38.5893350819
 40
14.0767875779
100
AcDbArc
 50
95.1308851202
 51
96.0174864372
  0
ARC
  5
38D
100
AcDbEntity
  8
0
100
AcDbCircle
 62
7
  6
CONTINUOUS
 10
-76.2027264526
 20
-38.0867292913
 40
13.5710702457
100
AcDbArc
 50
96.0043829739
 51
98.4107612739
  0
ARC
  5
38E
100
AcDbEntity
  8
0
100
AcDbCircle
 62
7
  6
CONTINUOUS
 10
-81.8916232594
 20
-41.8464886689
 40
13.4872760843
100
AcDbArc
 50
133.1178948762
 51
134.2102899117
  0
ARC
  5
38F
100
AcDbEntity
  8
0
100
AcDbCircle
 62
7
  6
CONTINUOUS
 10
-81.9591883023
 20
-41.7763531312
 40
13.3897846337
100
AcDbArc
 50
134.2119211975
 51
134.398792861
  0
ARC
  5
390
100
AcDbEntity
  8
0
100
AcDbCircle
 62
7
  6
CONTINUOUS
 10
-76.3543261425
 20
-37.1309724717
 40
12.6034225023
100
AcDbArc
 50
98.3645198366
 51
102.822184718
  0
ARC
  5
391
100
AcDbEntity
  8
0
100
AcDbCircle
 62
7
  6
CONTINUOUS
 10
-76.5630569688
 20
-36.2192306595
 40
11.6680935927
100
AcDbArc
 50
102.8163582244
 51
105.7843180042
  0
ARC
  5
392
100
AcDbEntity
  8
0
100
AcDbCircle
 62
7
  6
CONTINUOUS
 10
-84.9628987755
 20
-41.3702096467
 40
10.0614587507
100
AcDbArc
 50
206.0237225141
 51
207.7615517058
  0
ARC
  5
393
100
AcDbEntity
  8
0
100
AcDbCircle
 62
7
  6
CONTINUOUS
 10
-77.1237061657
 20
-34.5223494975
 40
9.8797285747
100
AcDbArc
 50
111.6794311242
 51
112.9941295918
  0
ARC
  5
394
100
AcDbEntity
  8
0
100
AcDbCircle
 62
7
  6
CONTINUOUS
 10
-85.4350225705
 20
-42.6776740998
 40
9.6011757446
100
AcDbArc
 50
202.4539465827
 51
208.7467170283
  0
ARC
  5
395
100
AcDbEntity
  8
0
100
AcDbCircle
 62
7
  6
CONTINUOUS
 10
-77.7743138761
 20
-33.280829283
 40
8.4759017617
100
AcDbArc
 50
123.2933439573
 51
123.5439102013
  0
ARC
  5
396
100
AcDbEntity
  8
0
100
AcDbCircle
 62
7
  6
CONTINUOUS
 10
-78.9309493361
 20
-32.7391317227
 40
7.2627523831
100
AcDbArc
 50
180.0296577656
 51
185.3186869571
  0
ARC
  5
397
100
AcDbEntity
  8
0
100
AcDbCircle
 62
7
  6
CONTINUOUS
 10
-99.5198725957
 20
82.9996570852
 40
135.7564069075
100
AcDbArc
 50
252.9583600168
 51
253.3756565889
  0
ARC
  5
398
100
AcDbEntity
  8
0
100
AcDbCircle
 62
7
  6
CONTINUOUS
 10
-95.3928870032
 20
29.0699868557
 40
83.6491375118
100
AcDbArc
 50
242.7363800146
 51
242.8709999807
  0
ARC
  5
399
100
AcDbEntity
  8
0
100
AcDbCircle
 62
7
  6
CONTINUOUS
 10
-81.4475629491
 20
17.9505195594
 40
47.0068558462
100
AcDbArc
 50
219.0093452057
 51
220.3111137287
  0
ARC
  5
39A
100
AcDbEntity
  8
0
100
AcDbCircle
 62
7
  6
CONTINUOUS
 10
-84.1668415425
 20
15.6128064672
 40
43.4195738915
100
AcDbArc
 50
217.9864145724
 51
218.8074595944
  0
ARC
  5
39B
100
AcDbEntity
  8
0
100
AcDbCircle
 62
7
  6
CONTINUOUS
 10
-101.2938581653
 20
6.8894987603
 40
34.4651867841
100
AcDbArc
 50
221.8454051254
 51
223.8450630512
  0
ARC
  5
39C
100
AcDbEntity
  8
0
100
AcDbCircle
 62
7
  6
CONTINUOUS
 10
-91.9101979909
 20
8.9602771936
 40
33.2122612935
100
AcDbArc
 50
220.1617786463
 51
220.4366203333
  0
ARC
  5
39D
100
AcDbEntity
  8
0
100
AcDbCircle
 62
7
  6
CONTINUOUS
 10
-94.1958938893
 20
6.5440491592
 40
29.9075075022
100
AcDbArc
 50
219.46781346
 51
219.7535764427
  0
ARC
  5
39E
100
AcDbEntity
  8
0
100
AcDbCircle
 62
7
  6
CONTINUOUS
 10
-61.9266759167
 20
-64.5292164808
 40
43.2812010249
100
AcDbArc
 50
154.9785277059
 51
158.9089546155
  0
ARC
  5
39F
100
AcDbEntity
  8
0
100
AcDbCircle
 62
7
  6
CONTINUOUS
 10
-63.0283461574
 20
-63.8327097558
 40
42.5532574728
100
AcDbArc
 50
143.8938751706
 51
159.2731024375
  0
ARC
  5
3A0
100
AcDbEntity
  8
0
100
AcDbCircle
 62
7
  6
CONTINUOUS
 10
-62.4869055993
 20
-63.9477027471
 40
42.4971259289
100
AcDbArc
 50
137.1536946966
 51
141.702451029
  0
ARC
  5
3A1
100
AcDbEntity
  8
0
100
AcDbCircle
 62
7
  6
CONTINUOUS
 10
-63.4430511398
 20
-63.5198136983
 40
42.0338216068
100
AcDbArc
 50
141.3276353615
 51
143.8575891168
  0
ARC
  5
3A2
100
AcDbEntity
  8
0
100
AcDbCircle
 62
7
  6
CONTINUOUS
 10
-65.0341727788
 20
-81.5993788848
 40
41.4973921322
100
AcDbArc
 50
61.435417553
 51
61.6690051651
  0
ARC
  5
3A3
100
AcDbEntity
  8
0
100
AcDbCircle
 62
7
  6
CONTINUOUS
 10
-64.0550852878
 20
-63.4260235934
 40
41.4490425389
100
AcDbArc
 50
159.2965843181
 51
161.823453862
  0
ARC
  5
3A4
100
AcDbEntity
  8
0
100
AcDbCircle
 62
7
  6
CONTINUOUS
 10
-67.9779220108
 20
-55.2957102711
 40
41.404687885
100
AcDbArc
 50
231.9732818855
 51
233.2645139831
  0
ARC
  5
3A5
100
AcDbEntity
  8
0
100
AcDbCircle
 62
7
  6
CONTINUOUS
 10
-69.7460306978
 20
-57.5459011644
 40
38.5429540374
100
AcDbArc
 50
228.8220310624
 51
231.9830905954
  0
ARC
  5
3A6
100
AcDbEntity
  8
0
100
AcDbCircle
 62
7
  6
CONTINUOUS
 10
-70.4818941549
 20
-66.1405045664
 40
36.1047050855
100
AcDbArc
 50
151.3666073753
 51
151.6182721694
  0
ARC
  5
3A7
100
AcDbEntity
  8
0
100
AcDbCircle
 62
7
  6
CONTINUOUS
 10
-70.5113538108
 20
-66.1251376345
 40
36.0714819038
100
AcDbArc
 50
151.6175039727
 51
154.5472672124
  0
ARC
  5
3A8
100
AcDbEntity
  8
0
100
AcDbCircle
 62
7
  6
CONTINUOUS
 10
-69.0964359888
 20
-63.0000478016
 40
35.9189397248
100
AcDbArc
 50
175.665798733
 51
177.2317799806
  0
ARC
  5
3A9
100
AcDbEntity
  8
0
100
AcDbCircle
 62
7
  6
CONTINUOUS
 10
-67.6734924635
 20
-58.8448656483
 40
35.7040234357
100
AcDbArc
 50
122.3062752208
 51
125.0161436257
  0
ARC
  5
3AA
100
AcDbEntity
  8
0
100
AcDbCircle
 62
7
  6
CONTINUOUS
 10
-67.4578650601
 20
-58.0099795331
 40
34.7233610783
100
AcDbArc
 50
118.5302787416
 51
123.2951170953
  0
ARC
  5
3AB
100
AcDbEntity
  8
0
100
AcDbCircle
 62
7
  6
CONTINUOUS
 10
-72.2525235463
 20
-60.4447002356
 40
34.7108522095
100
AcDbArc
 50
226.7490686603
 51
228.7856962481
  0
ARC
  5
3AC
100
AcDbEntity
  8
0
100
AcDbCircle
 62
7
  6
CONTINUOUS
 10
-71.2590156664
 20
-62.283103881
 40
34.1222539475
100
AcDbArc
 50
178.2230815151
 51
181.2855924509
  0
ARC
  5
3AD
100
AcDbEntity
  8
0
100
AcDbCircle
 62
7
  6
CONTINUOUS
 10
-68.6448408049
 20
-57.2992847366
 40
33.8785615288
100
AcDbArc
 50
115.9874601151
 51
122.3148006845
  0
ARC
  5
3AE
100
AcDbEntity
  8
0
100
AcDbCircle
 62
7
  6
CONTINUOUS
 10
-72.3835659367
 20
-61.6894015344
 40
33.5490907175
100
AcDbArc
 50
135.0761776639
 51
137.2955649609
  0
ARC
  5
3AF
100
AcDbEntity
  8
0
100
AcDbCircle
 62
7
  6
CONTINUOUS
 10
-71.9840551777
 20
-62.2973504923
 40
33.3970767634
100
AcDbArc
 50
181.3484806889
 51
182.2472905929
  0
ARC
  5
3B0
100
AcDbEntity
  8
0
100
AcDbCircle
 62
7
  6
CONTINUOUS
 10
-72.8094859219
 20
-61.2682855119
 40
32.9501419281
100
AcDbArc
 50
133.9476659733
 51
135.0716556048
  0
ARC
  5
3B1
100
AcDbEntity
  8
0
100
AcDbCircle
 62
7
  6
CONTINUOUS
 10
-72.7169703673
 20
-67.5189418132
 40
32.7992522297
100
AcDbArc
 50
168.8198339642
 51
169.0038117102
  0
ARC
  5
3B2
100
AcDbEntity
  8
0
100
AcDbCircle
 62
7
  6
CONTINUOUS
 10
-60.2024052026
 20
-72.5958656779
 40
15.7317506945
100
AcDbArc
 50
275.3307630078
 51
276.4755780196
  0
ARC
  5
3B3
100
AcDbEntity
  8
0
100
AcDbCircle
 62
7
  6
CONTINUOUS
 10
-60.5228917013
 20
-75.8464241836
 40
12.4309455788
100
AcDbArc
 50
238.9852616093
 51
240.1272598822
  0
ARC
  5
3B4
100
AcDbEntity
  8
0
100
AcDbCircle
 62
7
  6
CONTINUOUS
 10
-62.8712138608
 20
-47.8553753304
 40
50.4324412026
100
AcDbArc
 50
237.071481708
 51
239.9007747873
  0
ARC
  5
3B5
100
AcDbEntity
  8
0
100
AcDbCircle
 62
7
  6
CONTINUOUS
 10
-60.3707261249
 20
-48.6221380282
 40
50.2949838631
100
AcDbArc
 50
237.9881922714
 51
240.1299680843
  0
ARC
  5
3B6
100
AcDbEntity
  8
0
100
AcDbCircle
 62
7
  6
CONTINUOUS
 10
-65.3612845483
 20
-51.712518486
 40
45.8413676517
100
AcDbArc
 50
233.3222544822
 51
237.0631401315
  0
ARC
  5
3B7
100
AcDbEntity
  8
0
100
AcDbCircle
 62
7
  6
CONTINUOUS
 10
-71.0305702905
 20
-51.1881750255
 40
27.296181015
100
AcDbArc
 50
101.2084180978
 51
103.3974313586
  0
ARC
  5
3B8
100
AcDbEntity
  8
0
100
AcDbCircle
 62
7
  6
CONTINUOUS
 10
-71.129756969
 20
-50.6952810785
 40
26.7934085138
100
AcDbArc
 50
100.0380299428
 51
101.205238515
  0
ARC
  5
3B9
100
AcDbEntity
  8
0
100
AcDbCircle
 62
7
  6
CONTINUOUS
 10
-71.2452098251
 20
-50.0265011453
 40
26.1147425966
100
AcDbArc
 50
96.0510137044
 51
100.0443574701
  0
ARC
  5
3BA
100
AcDbEntity
  8
0
100
AcDbCircle
 62
7
  6
CONTINUOUS
 10
-70.7617130522
 20
-49.5216768086
 40
25.5649435472
100
AcDbArc
 50
97.7610539381
 51
101.3187876838
  0
ARC
  5
3BB
100
AcDbEntity
  8
0
100
AcDbCircle
 62
7
  6
CONTINUOUS
 10
-71.0379079015
 20
-53.1002174204
 40
24.6286385764
100
AcDbArc
 50
11.5010406744
 51
11.8202624896
  0
ARC
  5
3BC
100
AcDbEntity
  8
0
100
AcDbCircle
 62
7
  6
CONTINUOUS
 10
-69.9789879668
 20
-46.0554196624
 40
23.7658788629
100
AcDbArc
 50
359.3283444832
 51
0.704434274
  0
ARC
  5
3BD
100
AcDbEntity
  8
0
100
AcDbCircle
 62
7
  6
CONTINUOUS
 10
-69.2519374144
 20
-47.8668656648
 40
14.7540571955
100
AcDbArc
 50
60.1439906001
 51
68.9359043692
  0
ARC
  5
3BE
100
AcDbEntity
  8
0
100
AcDbCircle
 62
7
  6
CONTINUOUS
 10
-71.7531731142
 20
-34.7640989007
 40
11.8103933283
100
AcDbArc
 50
74.5534621311
 51
75.2550126537
  0
ARC
  5
3BF
100
AcDbEntity
  8
0
100
AcDbCircle
 62
7
  6
CONTINUOUS
 10
-71.2505703651
 20
-26.9364702031
 40
3.8763427064
100
AcDbArc
 50
103.9055977696
 51
109.1393594243
  0
ARC
  5
3C0
100
AcDbEntity
  8
0
100
AcDbCircle
 62
7
  6
CONTINUOUS
 10
-71.8369704797
 20
-26.4678258775
 40
3.2786810805
100
AcDbArc
 50
172.3750165321
 51
176.5502223008
  0
ARC
  5
3C1
100
AcDbEntity
  8
0
100
AcDbCircle
 62
7
  6
CONTINUOUS
 10
-57.4189342739
 20
-67.9642438925
 40
40.1644931126
100
AcDbArc
 50
166.9188505743
 51
167.6698569352
  0
ARC
  5
3C2
100
AcDbEntity
  8
0
100
AcDbCircle
 62
7
  6
CONTINUOUS
 10
-51.3866216827
 20
-59.9377613332
 40
12.4235294916
100
AcDbArc
 50
60.1273082268
 51
61.2741842415
  0
ARC
  5
3C3
100
AcDbEntity
  8
0
100
AcDbCircle
 62
7
  6
CONTINUOUS
 10
-56.3944578354
 20
-76.7025633901
 40
2.6192280766
100
AcDbArc
 50
240.1430894993
 51
249.5154161788
  0
ARC
  5
3C4
100
AcDbEntity
  8
0
100
AcDbCircle
 62
7
  6
CONTINUOUS
 10
-55.2268076695
 20
-74.6768244186
 40
2.0427753992
100
AcDbArc
 50
68.0454749261
 51
69.5176409887
  0
ARC
  5
3C5
100
AcDbEntity
  8
0
100
AcDbCircle
 62
7
  6
CONTINUOUS
 10
-44.9650740332
 20
-38.2131856956
 40
2.5496135095
100
AcDbArc
 50
89.4150048125
 51
90.2686728594
  0
ARC
  5
3C6
100
AcDbEntity
  8
0
100
AcDbCircle
 62
7
  6
CONTINUOUS
 10
-46.4576861072
 20
-46.1811036385
 40
0.462938817
100
AcDbArc
 50
7.7567127101
 51
11.6276081123
  0
ARC
  5
3C7
100
AcDbEntity
  8
0
100
AcDbCircle
 62
7
  6
CONTINUOUS
 10
-54.7309161434
 20
9.556359911
 40
80.6384128384
100
AcDbArc
 50
239.2274808703
 51
239.6584936782
  0
ARC
  5
3C8
100
AcDbEntity
  8
0
100
AcDbCircle
 62
7
  6
CONTINUOUS
 10
-62.0480176454
 20
9.5659152206
 40
70.8589969335
100
AcDbArc
 50
235.5117104965
 51
236.0226206428
  0
ARC
  5
3C9
100
AcDbEntity
  8
0
100
AcDbCircle
 62
7
  6
CONTINUOUS
 10
-67.063807786
 20
23.6038458385
 40
55.5543383408
100
AcDbArc
 50
221.5154303981
 51
221.6568753526
  0
ARC
  5
3CA
100
AcDbEntity
  8
0
100
AcDbCircle
 62
7
  6
CONTINUOUS
 10
159.6396999202
 20
517.1560999803
 40
617.5680898341
100
AcDbArc
 50
240.1991138603
 51
241.6860261434
  0
SPLINE
  5
3CB
100
AcDbEntity
  8
0
100
AcDbSpline
 62
7
  6
CONTINUOUS
 70
0
 71
3
 72
20
 73
16
 74
0
 42
0.0000001
 43
0.0000001
 44
0.0000000001
 40
0.0
 40
0.0
 40
0.0
 40
0.0
 40
0.0617207117
 40
0.123522987
 40
0.1855233929
 40
0.2478477607
 40
0.3734724095
 40
0.5006670738
 40
0.6274178774
 40
0.6903120913
 40
0.7527188286
 40
0.814759278
 40
0.8765838553
 40
0.9383115298
 40
1.0
 40
1.0
 40
1.0
 40
1.0
 10
-51.7796550218
 20
-63.8473779637
 30
0.0
 10
-51.6428438941
 20
-63.8984801934
 30
0.0
 10
-51.3571058453
 20
-63.9714526334
 30
0.0
 10
-50.9154973101
 20
-63.9889107423
 30
0.0
 10
-50.4779742321
 20
-63.9170254501
 30
0.0
 10
-49.9204686373
 20
-63.7106976667
 30
0.0
 10
-49.3033519724
 20
-63.2637846424
 30
0.0
 10
-48.7746654143
 20
-62.5202616796
 30
0.0
 10
-48.5468277063
 20
-61.7907100624
 30
0.0
 10
-48.5174717745
 20
-61.1924233196
 30
0.0
 10
-48.5749911856
 20
-60.7502808842
 30
0.0
 10
-48.7140612299
 20
-60.3291210041
 30
0.0
 10
-48.9334213073
 20
-59.9450860358
 30
0.0
 10
-49.2269758724
 20
-59.6153814481
 30
0.0
 10
-49.4653009672
 20
-59.4420126434
 30
0.0
 10
-49.5919182016
 20
-59.3693867456
 30
0.0
  0
SPLINE
  5
3CC
100
AcDbEntity
  8
0
100
AcDbSpline
 62
7
  6
CONTINUOUS
 70
0
 71
3
 72
19
 73
15
 74
0
 42
0.0000001
 43
0.0000001
 44
0.0000000001
 40
0.0
 40
0.0
 40
0.0
 40
0.0
 40
0.0537543255
 40
0.1080993821
 40
0.1643332341
 40
0.2234666078
 40
0.3510495839
 40
0.4891035991
 40
0.630021398
 40
0.7649548913
 40
0.8283118615
 40
0.8883176523
 40
0.9452971303
 40
1.0
 40
1.0
 40
1.0
 40
1.0
 10
-50.49855123
 20
-62.9903307481
 30
0.0
 10
-50.5496170134
 20
-62.9712546885
 30
0.0
 10
-50.6478403002
 20
-62.9193730029
 30
0.0
 10
-50.7714429214
 20
-62.8050085729
 30
0.0
 10
-50.866053297
 20
-62.659254763
 30
0.0
 10
-50.9511995354
 20
-62.4261818038
 30
0.0
 10
-50.9654368374
 20
-62.088961445
 30
0.0
 10
-50.8485893649
 20
-61.6872752491
 30
0.0
 10
-50.6177703885
 20
-61.3298237577
 30
0.0
 10
-50.3490425734
 20
-61.1044359711
 30
0.0
 10
-50.1097970765
 20
-60.9944710344
 30
0.0
 10
-49.9306261369
 20
-60.9515416627
 30
0.0
 10
-49.7550695933
 20
-60.9488117007
 30
0.0
 10
-49.6433426884
 20
-60.9746155406
 30
0.0
 10
-49.5913753474
 20
-60.9940269961
 30
0.0
  0
SPLINE
  5
3CD
100
AcDbEntity
  8
0
100
AcDbSpline
 62
7
  6
CONTINUOUS
 70
0
 71
3
 72
19
 73
15
 74
0
 42
0.0000001
 43
0.0000001
 44
0.0000000001
 40
0.0
 40
0.0
 40
0.0
 40
0.0
 40
0.0536255586
 40
0.1085781017
 40
0.1659470258
 40
0.2263469382
 40
0.3559329723
 40
0.4943652834
 40
0.6341667645
 40
0.7673241678
 40
0.8298416709
 40
0.889176976
 40
0.9456411292
 40
1.0
 40
1.0
 40
1.0
 40
1.0
 10
-52.0813140522
 20
-63.7055802882
 30
0.0
 10
-52.1848689528
 20
-63.6461133521
 30
0.0
 10
-52.3801771955
 20
-63.4986348868
 30
0.0
 10
-52.6142720835
 20
-63.2084774645
 30
0.0
 10
-52.783738009
 20
-62.8597793832
 30
0.0
 10
-52.9193437575
 20
-62.3226014648
 30
0.0
 10
-52.8951952836
 20
-61.576369597
 30
0.0
 10
-52.5920036538
 20
-60.7076179184
 30
0.0
 10
-52.0575543313
 20
-59.9492045232
 30
0.0
 10
-51.4588844422
 20
-59.4794333432
 30
0.0
 10
-50.9342655043
 20
-59.2547955189
 30
0.0
 10
-50.5435266528
 20
-59.1698982365
 30
0.0
 10
-50.161631116
 20
-59.1693317867
 30
0.0
 10
-49.918720169
 20
-59.2268494215
 30
0.0
 10
-49.8053250713
 20
-59.2692068562
 30
0.0
  0
SPLINE
  5
3CE
100
AcDbEntity
  8
0
100
AcDbSpline
 62
7
  6
CONTINUOUS
 70
0
 71
3
 72
19
 73
15
 74
0
 42
0.0000001
 43
0.0000001
 44
0.0000000001
 40
0.0
 40
0.0
 40
0.0
 40
0.0
 40
0.0537543255
 40
0.1080993821
 40
0.1643332341
 40
0.2234666078
 40
0.3510495839
 40
0.4891035991
 40
0.630021398
 40
0.7649548913
 40
0.8283118615
 40
0.8883176523
 40
0.9452971303
 40
1.0
 40
1.0
 40
1.0
 40
1.0
 10
-49.5913753474
 20
-60.9940269961
 30
0.0
 10
-49.540309564
 20
-61.0131030556
 30
0.0
 10
-49.4420862772
 20
-61.0649847413
 30
0.0
 10
-49.318483656
 20
-61.1793491713
 30
0.0
 10
-49.2238732804
 20
-61.3251029811
 30
0.0
 10
-49.138727042
 20
-61.5581759404
 30
0.0
 10
-49.12448974
 20
-61.8953962991
 30
0.0
 10
-49.2413372125
 20
-62.297082495
 30
0.0
 10
-49.4721561889
 20
-62.6545339865
 30
0.0
 10
-49.740884004
 20
-62.879921773
 30
0.0
 10
-49.9801295009
 20
-62.9898867098
 30
0.0
 10
-50.1593004404
 20
-63.0328160815
 30
0.0
 10
-50.3348569841
 20
-63.0355460434
 30
0.0
 10
-50.446583889
 20
-63.0097422035
 30
0.0
 10
-50.49855123
 20
-62.9903307481
 30
0.0
  0
SPLINE
  5
3CF
100
AcDbEntity
  8
0
100
AcDbSpline
 62
7
  6
CONTINUOUS
 70
0
 71
3
 72
20
 73
16
 74
0
 42
0.0000001
 43
0.0000001
 44
0.0000000001
 40
0.0
 40
0.0
 40
0.0
 40
0.0
 40
0.0617207117
 40
0.123522987
 40
0.1855233929
 40
0.2478477607
 40
0.3734724095
 40
0.5006670738
 40
0.6274178774
 40
0.6903120913
 40
0.7527188286
 40
0.814759278
 40
0.8765838553
 40
0.9383115298
 40
1.0
 40
1.0
 40
1.0
 40
1.0
 10
-64.2824880976
 20
-67.220306306
 30
0.0
 10
-64.1456769699
 20
-67.2714085357
 30
0.0
 10
-63.8599389211
 20
-67.3443809757
 30
0.0
 10
-63.4183303859
 20
-67.3618390846
 30
0.0
 10
-62.9808073079
 20
-67.2899537925
 30
0.0
 10
-62.4233017131
 20
-67.0836260091
 30
0.0
 10
-61.8061850482
 20
-66.6367129848
 30
0.0
 10
-61.27749849
 20
-65.893190022
 30
0.0
 10
-61.0496607821
 20
-65.1636384047
 30
0.0
 10
-61.0203048503
 20
-64.565351662
 30
0.0
 10
-61.0778242614
 20
-64.1232092265
 30
0.0
 10
-61.2168943057
 20
-63.7020493464
 30
0.0
 10
-61.4362543831
 20
-63.3180143782
 30
0.0
 10
-61.7298089482
 20
-62.9883097904
 30
0.0
 10
-61.968134043
 20
-62.8149409857
 30
0.0
 10
-62.0947512774
 20
-62.742315088
 30
0.0
  0
SPLINE
  5
3D0
100
AcDbEntity
  8
0
100
AcDbSpline
 62
7
  6
CONTINUOUS
 70
0
 71
3
 72
19
 73
15
 74
0
 42
0.0000001
 43
0.0000001
 44
0.0000000001
 40
0.0
 40
0.0
 40
0.0
 40
0.0
 40
0.0537543255
 40
0.1080993821
 40
0.1643332341
 40
0.2234666078
 40
0.3510495839
 40
0.4891035991
 40
0.630021398
 40
0.7649548913
 40
0.8283118615
 40
0.8883176523
 40
0.9452971303
 40
1.0
 40
1.0
 40
1.0
 40
1.0
 10
-63.0013843058
 20
-66.3632590905
 30
0.0
 10
-63.0524500892
 20
-66.3441830309
 30
0.0
 10
-63.150673376
 20
-66.2923013452
 30
0.0
 10
-63.2742759971
 20
-66.1779369152
 30
0.0
 10
-63.3688863727
 20
-66.0321831054
 30
0.0
 10
-63.4540326112
 20
-65.7991101461
 30
0.0
 10
-63.4682699132
 20
-65.4618897874
 30
0.0
 10
-63.3514224407
 20
-65.0602035915
 30
0.0
 10
-63.1206034643
 20
-64.7027521001
 30
0.0
 10
-62.8518756492
 20
-64.4773643135
 30
0.0
 10
-62.6126301523
 20
-64.3673993767
 30
0.0
 10
-62.4334592127
 20
-64.3244700051
 30
0.0
 10
-62.2579026691
 20
-64.3217400431
 30
0.0
 10
-62.1461757642
 20
-64.347543883
 30
0.0
 10
-62.0942084232
 20
-64.3669553384
 30
0.0
  0
SPLINE
  5
3D1
100
AcDbEntity
  8
0
100
AcDbSpline
 62
7
  6
CONTINUOUS
 70
0
 71
3
 72
19
 73
15
 74
0
 42
0.0000001
 43
0.0000001
 44
0.0000000001
 40
0.0
 40
0.0
 40
0.0
 40
0.0
 40
0.0536255586
 40
0.1085781017
 40
0.1659470258
 40
0.2263469382
 40
0.3559329723
 40
0.4943652834
 40
0.6341667645
 40
0.7673241678
 40
0.8298416709
 40
0.889176976
 40
0.9456411292
 40
1.0
 40
1.0
 40
1.0
 40
1.0
 10
-64.5841471279
 20
-67.0785086306
 30
0.0
 10
-64.6877020286
 20
-67.0190416944
 30
0.0
 10
-64.8830102713
 20
-66.8715632291
 30
0.0
 10
-65.1171051593
 20
-66.5814058068
 30
0.0
 10
-65.2865710848
 20
-66.2327077255
 30
0.0
 10
-65.4221768332
 20
-65.6955298072
 30
0.0
 10
-65.3980283593
 20
-64.9492979393
 30
0.0
 10
-65.0948367296
 20
-64.0805462607
 30
0.0
 10
-64.5603874071
 20
-63.3221328656
 30
0.0
 10
-63.961717518
 20
-62.8523616856
 30
0.0
 10
-63.4370985801
 20
-62.6277238612
 30
0.0
 10
-63.0463597285
 20
-62.5428265789
 30
0.0
 10
-62.6644641918
 20
-62.542260129
 30
0.0
 10
-62.4215532448
 20
-62.5997777639
 30
0.0
 10
-62.3081581471
 20
-62.6421351986
 30
0.0
  0
SPLINE
  5
3D2
100
AcDbEntity
  8
0
100
AcDbSpline
 62
7
  6
CONTINUOUS
 70
0
 71
3
 72
19
 73
15
 74
0
 42
0.0000001
 43
0.0000001
 44
0.0000000001
 40
0.0
 40
0.0
 40
0.0
 40
0.0
 40
0.0537543255
 40
0.1080993821
 40
0.1643332341
 40
0.2234666078
 40
0.3510495839
 40
0.4891035991
 40
0.630021398
 40
0.7649548913
 40
0.8283118615
 40
0.8883176523
 40
0.9452971303
 40
1.0
 40
1.0
 40
1.0
 40
1.0
 10
-62.0942084232
 20
-64.3669553384
 30
0.0
 10
-62.0431426398
 20
-64.386031398
 30
0.0
 10
-61.9449193529
 20
-64.4379130837
 30
0.0
 10
-61.8213167318
 20
-64.5522775137
 30
0.0
 10
-61.7267063562
 20
-64.6980313235
 30
0.0
 10
-61.6415601177
 20
-64.9311042828
 30
0.0
 10
-61.6273228157
 20
-65.2683246415
 30
0.0
 10
-61.7441702883
 20
-65.6700108374
 30
0.0
 10
-61.9749892646
 20
-66.0274623288
 30
0.0
 10
-62.2437170798
 20
-66.2528501154
 30
0.0
 10
-62.4829625766
 20
-66.3628150522
 30
0.0
 10
-62.6621335162
 20
-66.4057444238
 30
0.0
 10
-62.8376900599
 20
-66.4084743858
 30
0.0
 10
-62.9494169648
 20
-66.3826705459
 30
0.0
 10
-63.0013843058
 20
-66.3632590905
 30
0.0
  0
SPLINE
  5
3D3
100
AcDbEntity
  8
0
100
AcDbSpline
 62
7
  6
CONTINUOUS
 70
0
 71
3
 72
22
 73
18
 74
0
 42
0.0000001
 43
0.0000001
 44
0.0000000001
 40
0.0
 40
0.0
 40
0.0
 40
0.0
 40
0.0605344024
 40
0.1213664408
 40
0.1827424812
 40
0.2449024069
 40
0.3080189721
 40
0.3720735001
 40
0.5015180021
 40
0.5664077333
 40
0.6306840419
 40
0.6940595222
 40
0.7564657889
 40
0.8180210714
 40
0.8789710086
 40
0.9395619396
 40
1.0
 40
1.0
 40
1.0
 40
1.0
 10
-57.3110706997
 20
-79.1561682022
 30
0.0
 10
-57.1262129403
 20
-79.2252209273
 30
0.0
 10
-56.7385701339
 20
-79.3219506808
 30
0.0
 10
-56.1387605632
 20
-79.3373371132
 30
0.0
 10
-55.5435444507
 20
-79.228551523
 30
0.0
 10
-54.9737488774
 20
-79.0055150637
 30
0.0
 10
-54.4453388162
 20
-78.6804680115
 30
0.0
 10
-53.8128691968
 20
-78.1285771985
 30
0.0
 10
-53.3162238026
 20
-77.4285459258
 30
0.0
 10
-52.9951154465
 20
-76.6464225006
 30
0.0
 10
-52.848977536
 20
-76.0331078584
 30
0.0
 10
-52.8053280885
 20
-75.4121768726
 30
0.0
 10
-52.8693302969
 20
-74.801470662
 30
0.0
 10
-53.0443618283
 20
-74.2206528381
 30
0.0
 10
-53.3302620577
 20
-73.6916635691
 30
0.0
 10
-53.7203681176
 20
-73.2386480153
 30
0.0
 10
-54.0412166297
 20
-73.0022269286
 30
0.0
 10
-54.2120622042
 20
-72.9041014566
 30
0.0
  0
SPLINE
  5
3D4
100
AcDbEntity
  8
0
100
AcDbSpline
 62
7
  6
CONTINUOUS
 70
0
 71
3
 72
20
 73
16
 74
0
 42
0.0000001
 43
0.0000001
 44
0.0000000001
 40
0.0
 40
0.0
 40
0.0
 40
0.0
 40
0.0537372222
 40
0.1080363152
 40
0.1642462101
 40
0.2233469064
 40
0.2857628291
 40
0.3513951998
 40
0.4893804719
 40
0.6302268377
 40
0.7650867912
 40
0.8284060916
 40
0.888384176
 40
0.9453149064
 40
1.0
 40
1.0
 40
1.0
 40
1.0
 10
-54.2980532127
 20
-74.4880159648
 30
0.0
 10
-54.2005425541
 20
-74.5244406014
 30
0.0
 10
-54.0130074441
 20
-74.6234389969
 30
0.0
 10
-53.7770868343
 20
-74.8418362174
 30
0.0
 10
-53.5964557977
 20
-75.1200160812
 30
0.0
 10
-53.4774802269
 20
-75.4458392359
 30
0.0
 10
-53.4236755574
 20
-75.8066236343
 30
0.0
 10
-53.4407101449
 20
-76.3239425565
 30
0.0
 10
-53.6298090292
 20
-76.9762733099
 30
0.0
 10
-54.0704551939
 20
-77.6579730676
 30
0.0
 10
-54.5835204686
 20
-78.0883703604
 30
0.0
 10
-55.0402494945
 20
-78.2983090308
 30
0.0
 10
-55.3822743995
 20
-78.3802244767
 30
0.0
 10
-55.7174227394
 20
-78.3855050915
 30
0.0
 10
-55.930699479
 20
-78.3361989475
 30
0.0
 10
-56.0299301292
 20
-78.2991318164
 30
0.0
  0
SPLINE
  5
3D5
100
AcDbEntity
  8
0
100
AcDbSpline
 62
7
  6
CONTINUOUS
 70
0
 71
3
 72
20
 73
16
 74
0
 42
0.0000001
 43
0.0000001
 44
0.0000000001
 40
0.0
 40
0.0
 40
0.0
 40
0.0
 40
0.0537372222
 40
0.1080363152
 40
0.1642462101
 40
0.2233469064
 40
0.2857628291
 40
0.3513951998
 40
0.4893804719
 40
0.6302268377
 40
0.7650867912
 40
0.8284060916
 40
0.888384176
 40
0.9453149064
 40
1.0
 40
1.0
 40
1.0
 40
1.0
 10
-56.0299301292
 20
-78.2991318164
 30
0.0
 10
-56.1274407879
 20
-78.2627071798
 30
0.0
 10
-56.3149758978
 20
-78.1637087844
 30
0.0
 10
-56.5508965076
 20
-77.9453115639
 30
0.0
 10
-56.7315275442
 20
-77.6671317
 30
0.0
 10
-56.8505031151
 20
-77.3413085454
 30
0.0
 10
-56.9043077846
 20
-76.9805241469
 30
0.0
 10
-56.887273197
 20
-76.4632052247
 30
0.0
 10
-56.6981743128
 20
-75.8108744713
 30
0.0
 10
-56.257528148
 20
-75.1291747136
 30
0.0
 10
-55.7444628734
 20
-74.6987774209
 30
0.0
 10
-55.2877338475
 20
-74.4888387505
 30
0.0
 10
-54.9457089425
 20
-74.4069233046
 30
0.0
 10
-54.6105606026
 20
-74.4016426897
 30
0.0
 10
-54.3972838629
 20
-74.4509488337
 30
0.0
 10
-54.2980532127
 20
-74.4880159648
 30
0.0
  0
SPLINE
  5
3D6
100
AcDbEntity
  8
0
100
AcDbSpline
 62
7
  6
CONTINUOUS
 70
0
 71
3
 72
19
 73
15
 74
0
 42
0.0000001
 43
0.0000001
 44
0.0000000001
 40
0.0
 40
0.0
 40
0.0
 40
0.0
 40
0.053626187
 40
0.1085727977
 40
0.1659342916
 40
0.2263320579
 40
0.3559242945
 40
0.4943604531
 40
0.63417274
 40
0.7673462201
 40
0.8298614
 40
0.8891904569
 40
0.9456420155
 40
1.0
 40
1.0
 40
1.0
 40
1.0
 10
-57.6983879034
 20
-78.9741187984
 30
0.0
 10
-57.8433608637
 20
-78.8908542813
 30
0.0
 10
-58.1167827537
 20
-78.6844046963
 30
0.0
 10
-58.4445079337
 20
-78.2782261803
 30
0.0
 10
-58.6817318412
 20
-77.7900900853
 30
0.0
 10
-58.8716190828
 20
-77.0380633794
 30
0.0
 10
-58.8378301393
 20
-75.9933067534
 30
0.0
 10
-58.4133617004
 20
-74.7769874971
 30
0.0
 10
-57.6650802012
 20
-73.7151176282
 30
0.0
 10
-56.8268514267
 20
-73.057429805
 30
0.0
 10
-56.0923574714
 20
-72.7429301872
 30
0.0
 10
-55.5453719078
 20
-72.6241685413
 30
0.0
 10
-55.0107830927
 20
-72.6233565288
 30
0.0
 10
-54.6707520459
 20
-72.703892952
 30
0.0
 10
-54.5120018068
 20
-72.7631933387
 30
0.0
  0
SPLINE
  5
3D7
100
AcDbEntity
  8
0
100
AcDbSpline
 62
7
  6
CONTINUOUS
 70
0
 71
3
 72
9
 73
5
 74
0
 42
0.0000001
 43
0.0000001
 44
0.0000000001
 40
0.0
 40
0.0
 40
0.0
 40
0.0
 40
0.4929476084
 40
1.0
 40
1.0
 40
1.0
 40
1.0
 10
-122.9678708771
 20
-2.2994233411
 30
0.0
 10
-124.1429617908
 20
-2.3438660503
 30
0.0
 10
-126.5230051771
 20
-2.5845396081
 30
0.0
 10
-128.857392393
 20
-3.1028118892
 30
0.0
 10
-130.0221885827
 20
-3.4288933008
 30
0.0
  0
SPLINE
  5
3D8
100
AcDbEntity
  8
0
100
AcDbSpline
 62
7
  6
CONTINUOUS
 70
0
 71
3
 72
9
 73
5
 74
0
 42
0.0000001
 43
0.0000001
 44
0.0000000001
 40
0.0
 40
0.0
 40
0.0
 40
0.0
 40
0.2529143813
 40
1.0
 40
1.0
 40
1.0
 40
1.0
 10
-148.9257029316
 20
-20.69876196
 30
0.0
 10
-149.0354656484
 20
-21.2171632476
 30
0.0
 10
-149.4351618049
 20
-23.273939387
 30
0.0
 10
-149.6960764961
 20
-25.3580505186
 30
0.0
 10
-149.8060874648
 20
-26.9194377729
 30
0.0
  0
SPLINE
  5
3D9
100
AcDbEntity
  8
0
100
AcDbSpline
 62
7
  6
CONTINUOUS
 70
0
 71
3
 72
9
 73
5
 74
0
 42
0.0000001
 43
0.0000001
 44
0.0000000001
 40
0.0
 40
0.0
 40
0.0
 40
0.0
 40
0.246425386
 40
1.0
 40
1.0
 40
1.0
 40
1.0
 10
-133.228167985
 20
-3.3472148216
 30
0.0
 10
-133.7413113573
 20
-3.6741294527
 30
0.0
 10
-135.7948445386
 20
-5.0456181576
 30
0.0
 10
-137.7312988112
 20
-6.59108789
 30
0.0
 10
-139.114910286
 20
-7.8350522331
 30
0.0
  0
SPLINE
  5
3DA
100
AcDbEntity
  8
0
100
AcDbSpline
 62
7
  6
CONTINUOUS
 70
0
 71
3
 72
14
 73
10
 74
0
 42
0.0000001
 43
0.0000001
 44
0.0000000001
 40
0.0
 40
0.0
 40
0.0
 40
0.0
 40
0.2492709797
 40
0.3796535093
 40
0.5107330077
 40
0.6402293441
 40
0.7660110465
 40
0.8863139203
 40
1.0
 40
1.0
 40
1.0
 40
1.0
 10
-133.8109251704
 20
-36.7020273851
 30
0.0
 10
-133.8115367524
 20
-34.2863713272
 30
0.0
 10
-133.137434265
 20
-30.583146116
 30
0.0
 10
-131.194115025
 20
-26.0209013568
 30
0.0
 10
-129.2055219493
 20
-22.7776600674
 30
0.0
 10
-126.7874571372
 20
-19.9010420502
 30
0.0
 10
-124.0321208863
 20
-17.4986106753
 30
0.0
 10
-121.0484751153
 20
-15.6635636795
 30
0.0
 10
-118.917475273
 20
-14.8402223967
 30
0.0
 10
-117.8538110879
 20
-14.5531642417
 30
0.0
  0
SPLINE
  5
3DB
100
AcDbEntity
  8
0
100
AcDbSpline
 62
7
  6
CONTINUOUS
 70
0
 71
3
 72
13
 73
9
 74
0
 42
0.0000001
 43
0.0000001
 44
0.0000000001
 40
0.0
 40
0.0
 40
0.0
 40
0.0
 40
0.1140816549
 40
0.2295099192
 40
0.3475063554
 40
0.4690695097
 40
0.724955483
 40
1.0
 40
1.0
 40
1.0
 40
1.0
 10
-127.6819192941
 20
-48.8989148948
 30
0.0
 10
-128.1528882664
 20
-48.6285336927
 30
0.0
 10
-129.0601218694
 20
-48.0108313432
 30
0.0
 10
-130.2753528574
 20
-46.8798460749
 30
0.0
 10
-131.3339365969
 20
-45.5549251112
 30
0.0
 10
-132.5370159848
 20
-43.518533033
 30
0.0
 10
-133.5592128769
 20
-40.5485797165
 30
0.0
 10
-133.8105936905
 20
-38.0113227602
 30
0.0
 10
-133.8109251704
 20
-36.7020273851
 30
0.0
  0
SPLINE
  5
3DC
100
AcDbEntity
  8
0
100
AcDbSpline
 62
7
  6
CONTINUOUS
 70
0
 71
3
 72
11
 73
7
 74
0
 42
0.0000001
 43
0.0000001
 44
0.0000000001
 40
0.0
 40
0.0
 40
0.0
 40
0.0
 40
0.2659019111
 40
0.5189903853
 40
0.7622053277
 40
1.0
 40
1.0
 40
1.0
 40
1.0
 10
-117.8538110879
 20
-14.5531642417
 30
0.0
 10
-117.029791343
 20
-14.3307805317
 30
0.0
 10
-115.3816370681
 20
-14.027304772
 30
0.0
 10
-112.9203711463
 20
-14.0322787251
 30
0.0
 10
-110.5959731248
 20
-14.5071295972
 30
0.0
 10
-109.1693921944
 20
-15.1331584284
 30
0.0
 10
-108.5075641593
 20
-15.5133971292
 30
0.0
  0
SPLINE
  5
3DD
100
AcDbEntity
  8
0
100
AcDbSpline
 62
7
  6
CONTINUOUS
 70
0
 71
3
 72
9
 73
5
 74
0
 42
0.0000001
 43
0.0000001
 44
0.0000000001
 40
0.0
 40
0.0
 40
0.0
 40
0.0
 40
0.5072507514
 40
1.0
 40
1.0
 40
1.0
 40
1.0
 10
-150.7803405304
 20
-32.6305114096
 30
0.0
 10
-150.3885357239
 20
-33.848799674
 30
0.0
 10
-149.4701695919
 20
-36.2065973873
 30
0.0
 10
-148.2516045746
 20
-38.4256396594
 30
0.0
 10
-147.5785342763
 20
-39.4708245795
 30
0.0
  0
SPLINE
  5
3DE
100
AcDbEntity
  8
0
100
AcDbSpline
 62
7
  6
CONTINUOUS
 70
0
 71
3
 72
9
 73
5
 74
0
 42
0.0000001
 43
0.0000001
 44
0.0000000001
 40
0.0
 40
0.0
 40
0.0
 40
0.0
 40
0.494008324
 40
1.0
 40
1.0
 40
1.0
 40
1.0
 10
-147.0774535123
 20
-40.7164525761
 30
0.0
 10
-147.771994669
 20
-39.8131820155
 30
0.0
 10
-148.9849126943
 20
-37.8295670128
 30
0.0
 10
-149.7833169219
 20
-35.649580401
 30
0.0
 10
-150.0858796021
 20
-34.5224198531
 30
0.0
  0
SPLINE
  5
3DF
100
AcDbEntity
  8
0
100
AcDbSpline
 62
7
  6
CONTINUOUS
 70
0
 71
3
 72
12
 73
8
 74
0
 42
0.0000001
 43
0.0000001
 44
0.0000000001
 40
0.0
 40
0.0
 40
0.0
 40
0.0
 40
0.2434954683
 40
0.4939518642
 40
0.6207755473
 40
0.7478236513
 40
1.0
 40
1.0
 40
1.0
 40
1.0
 10
-150.7989678505
 20
-28.953755535
 30
0.0
 10
-150.7994031915
 20
-27.2509732446
 30
0.0
 10
-150.423722674
 20
-23.7889785836
 30
0.0
 10
-149.1218567474
 20
-19.620416536
 30
0.0
 10
-147.6163059518
 20
-16.4260487206
 30
0.0
 10
-145.8193914992
 20
-13.3734549553
 30
0.0
 10
-144.1618678585
 20
-11.2774887501
 30
0.0
 10
-142.9408797854
 20
-10.0050582115
 30
0.0
  0
SPLINE
  5
3E0
100
AcDbEntity
  8
0
100
AcDbSpline
 62
7
  6
CONTINUOUS
 70
0
 71
3
 72
9
 73
5
 74
0
 42
0.0000001
 43
0.0000001
 44
0.0000000001
 40
0.0
 40
0.0
 40
0.0
 40
0.0
 40
0.5090232775
 40
1.0
 40
1.0
 40
1.0
 40
1.0
 10
-142.9408797854
 20
-10.0050582115
 30
0.0
 10
-141.7235245561
 20
-8.736413575
 30
0.0
 10
-139.086903274
 20
-6.4658891461
 30
0.0
 10
-136.0283570008
 20
-4.7913611779
 30
0.0
 10
-134.4544491915
 20
-4.1597669234
 30
0.0
  0
SPLINE
  5
3E1
100
AcDbEntity
  8
0
100
AcDbSpline
 62
7
  6
CONTINUOUS
 70
0
 71
3
 72
9
 73
5
 74
0
 42
0.0000001
 43
0.0000001
 44
0.0000000001
 40
0.0
 40
0.0
 40
0.0
 40
0.0
 40
0.5046466685
 40
1.0
 40
1.0
 40
1.0
 40
1.0
 10
-132.0381712803
 20
-3.3591190618
 30
0.0
 10
-131.2041960405
 20
-3.1403326661
 30
0.0
 10
-129.520684366
 20
-2.8157307782
 30
0.0
 10
-127.8070622429
 20
-2.7340794443
 30
0.0
 10
-126.9610865485
 20
-2.7581597117
 30
0.0
  0
SPLINE
  5
3E2
100
AcDbEntity
  8
0
100
AcDbSpline
 62
7
  6
CONTINUOUS
 70
0
 71
3
 72
9
 73
5
 74
0
 42
0.0000001
 43
0.0000001
 44
0.0000000001
 40
0.0
 40
0.0
 40
0.0
 40
0.0
 40
0.5088275614
 40
1.0
 40
1.0
 40
1.0
 40
1.0
 10
-133.1111422442
 20
-26.6191586991
 30
0.0
 10
-133.7944282017
 20
-28.1234564142
 30
0.0
 10
-134.875452873
 20
-31.206758944
 30
0.0
 10
-135.3574292377
 20
-34.4426188094
 30
0.0
 10
-135.4240011836
 20
-36.0361090826
 30
0.0
  0
LINE
  5
3E3
100
AcDbEntity
  8
0
100
AcDbLine
 62
7
  6
CONTINUOUS
 10
-135.5936600594
 20
-35.9204204982
 11
-135.6484047774
 21
-35.8825244462
  0
SPLINE
  5
3E4
100
AcDbEntity
  8
0
100
AcDbSpline
 62
7
  6
CONTINUOUS
 70
0
 71
3
 72
17
 73
13
 74
0
 42
0.0000001
 43
0.0000001
 44
0.0000000001
 40
0.0
 40
0.0
 40
0.0
 40
0.0
 40
0.0304773798
 40
0.060936289
 40
0.1219935627
 40
0.183295083
 40
0.2448596261
 40
0.3687650702
 40
0.4936797843
 40
0.6194868967
 40
0.7460096856
 40
1.0
 40
1.0
 40
1.0
 40
1.0
 10
-135.6484047774
 20
-35.8825244462
 30
0.0
 10
-135.7882393914
 20
-35.786028045
 30
0.0
 10
-136.0692478465
 20
-35.5951616719
 30
0.0
 10
-136.6261600754
 20
-35.2048307077
 30
0.0
 10
-137.3132184686
 20
-34.7009381398
 30
0.0
 10
-138.1199665521
 20
-34.067865745
 30
0.0
 10
-139.1736212323
 20
-33.1831253655
 30
0.0
 10
-140.4413552795
 20
-32.003366484
 30
0.0
 10
-141.8680962389
 20
-30.4760411252
 30
0.0
 10
-143.1907795615
 20
-28.8384831964
 30
0.0
 10
-144.7991563605
 20
-26.5169863195
 30
0.0
 10
-145.8079812839
 20
-24.638825442
 30
0.0
 10
-146.3809978641
 20
-23.3440757534
 30
0.0
  0
SPLINE
  5
3E5
100
AcDbEntity
  8
0
100
AcDbSpline
 62
7
  6
CONTINUOUS
 70
0
 71
3
 72
9
 73
5
 74
0
 42
0.0000001
 43
0.0000001
 44
0.0000000001
 40
0.0
 40
0.0
 40
0.0
 40
0.0
 40
0.249792275
 40
1.0
 40
1.0
 40
1.0
 40
1.0
 10
-146.3811032616
 20
-23.3438231027
 30
0.0
 10
-146.503341093
 20
-23.0676184317
 30
0.0
 10
-146.9725682882
 20
-21.9531299859
 30
0.0
 10
-147.358282523
 20
-20.8030902704
 30
0.0
 10
-147.5935113839
 20
-19.9269800208
 30
0.0
  0
SPLINE
  5
3E6
100
AcDbEntity
  8
0
100
AcDbSpline
 62
7
  6
CONTINUOUS
 70
0
 71
3
 72
9
 73
5
 74
0
 42
0.0000001
 43
0.0000001
 44
0.0000000001
 40
0.0
 40
0.0
 40
0.0
 40
0.0
 40
0.5014546173
 40
1.0
 40
1.0
 40
1.0
 40
1.0
 10
-139.3091809144
 20
-16.8404019398
 30
0.0
 10
-139.843876265
 20
-15.7298182883
 30
0.0
 10
-140.7615678068
 20
-13.4399659867
 30
0.0
 10
-141.339956883
 20
-11.0401624766
 30
0.0
 10
-141.5344278346
 20
-9.8302456645
 30
0.0
  0
SPLINE
  5
3E7
100
AcDbEntity
  8
0
100
AcDbSpline
 62
7
  6
CONTINUOUS
 70
0
 71
3
 72
11
 73
7
 74
0
 42
0.0000001
 43
0.0000001
 44
0.0000000001
 40
0.0
 40
0.0
 40
0.0
 40
0.0
 40
0.2241542346
 40
0.4712151183
 40
0.7337029597
 40
1.0
 40
1.0
 40
1.0
 40
1.0
 10
-141.5344277731
 20
-9.8302461774
 30
0.0
 10
-141.6225543852
 20
-9.7902771734
 30
0.0
 10
-141.8289044908
 20
-9.7512150037
 30
0.0
 10
-142.1459931482
 20
-9.8018743896
 30
0.0
 10
-142.4534630684
 20
-9.9438166375
 30
0.0
 10
-142.6326407798
 20
-10.089608985
 30
0.0
 10
-142.7122389539
 20
-10.1725540446
 30
0.0
  0
SPLINE
  5
3E8
100
AcDbEntity
  8
0
100
AcDbSpline
 62
7
  6
CONTINUOUS
 70
0
 71
3
 72
12
 73
8
 74
0
 42
0.0000001
 43
0.0000001
 44
0.0000000001
 40
0.0
 40
0.0
 40
0.0
 40
0.0
 40
0.4108367371
 40
0.7258289123
 40
0.922656787
 40
0.9747133844
 40
1.0
 40
1.0
 40
1.0
 40
1.0
 10
-142.7121445759
 20
-10.172607005
 30
0.0
 10
-142.7266957818
 20
-10.1642485051
 30
0.0
 10
-142.7526472674
 20
-10.1496949955
 30
0.0
 10
-142.7857269862
 20
-10.1323288842
 30
0.0
 10
-142.8073350306
 20
-10.122704099
 30
0.0
 10
-142.8175458734
 20
-10.1197116147
 30
0.0
 10
-142.8213366828
 20
-10.1198587057
 30
0.0
 10
-142.8219412329
 20
-10.1206961475
 30
0.0
  0
SPLINE
  5
3E9
100
AcDbEntity
  8
0
100
AcDbSpline
 62
7
  6
CONTINUOUS
 70
0
 71
3
 72
10
 73
6
 74
0
 42
0.0000001
 43
0.0000001
 44
0.0000000001
 40
0.0
 40
0.0
 40
0.0
 40
0.0
 40
0.2637488326
 40
0.6573559817
 40
1.0
 40
1.0
 40
1.0
 40
1.0
 10
-140.0291540789
 20
-17.0464163443
 30
0.0
 10
-139.9806960049
 20
-16.9976702621
 30
0.0
 10
-139.8426375274
 20
-16.8928045692
 30
0.0
 10
-139.5939768615
 20
-16.7997275197
 30
0.0
 10
-139.392481492
 20
-16.8082383631
 30
0.0
 10
-139.3091807807
 20
-16.8404017907
 30
0.0
  0
SPLINE
  5
3EA
100
AcDbEntity
  8
0
100
AcDbSpline
 62
7
  6
CONTINUOUS
 70
0
 71
3
 72
9
 73
5
 74
0
 42
0.0000001
 43
0.0000001
 44
0.0000000001
 40
0.0
 40
0.0
 40
0.0
 40
0.0
 40
0.4989533255
 40
1.0
 40
1.0
 40
1.0
 40
1.0
 10
-142.7121523636
 20
-10.1723371075
 30
0.0
 10
-142.433518726
 20
-11.3706903204
 30
0.0
 10
-141.6944392015
 20
-13.7334514709
 30
0.0
 10
-140.6324237781
 20
-15.9682296089
 30
0.0
 10
-140.0291478588
 20
-17.0464101255
 30
0.0
  0
SPLINE
  5
3EB
100
AcDbEntity
  8
0
100
AcDbSpline
 62
7
  6
CONTINUOUS
 70
0
 71
3
 72
9
 73
5
 74
0
 42
0.0000001
 43
0.0000001
 44
0.0000000001
 40
0.0
 40
0.0
 40
0.0
 40
0.0
 40
0.4978369559
 40
1.0
 40
1.0
 40
1.0
 40
1.0
 10
-140.0291540788
 20
-17.0464163444
 30
0.0
 10
-139.2946449179
 20
-18.3591357642
 30
0.0
 10
-137.60378154
 20
-20.8801680717
 30
0.0
 10
-135.5557009983
 20
-23.1175663072
 30
0.0
 10
-134.4556687247
 20
-24.162631449
 30
0.0
  0
SPLINE
  5
3EC
100
AcDbEntity
  8
0
100
AcDbSpline
 62
7
  6
CONTINUOUS
 70
0
 71
3
 72
9
 73
5
 74
0
 42
0.0000001
 43
0.0000001
 44
0.0000000001
 40
0.0
 40
0.0
 40
0.0
 40
0.0
 40
0.2846159263
 40
1.0
 40
1.0
 40
1.0
 40
1.0
 10
-133.8862508474
 20
-24.690906967
 30
0.0
 10
-133.880985284
 20
-24.6825844422
 30
0.0
 10
-133.8595055681
 20
-24.6563333461
 30
0.0
 10
-133.8204507744
 20
-24.6371166231
 30
0.0
 10
-133.7968898703
 20
-24.6447089061
 30
0.0
  0
SPLINE
  5
3ED
100
AcDbEntity
  8
0
100
AcDbSpline
 62
7
  6
CONTINUOUS
 70
0
 71
3
 72
9
 73
5
 74
0
 42
0.0000001
 43
0.0000001
 44
0.0000000001
 40
0.0
 40
0.0
 40
0.0
 40
0.0
 40
0.2441059861
 40
1.0
 40
1.0
 40
1.0
 40
1.0
 10
-135.5248646825
 20
-35.976499969
 30
0.0
 10
-135.5302634995
 20
-35.9716750506
 30
0.0
 10
-135.5526048749
 20
-35.9521662624
 30
0.0
 10
-135.575734873
 20
-35.9335274966
 30
0.0
 10
-135.5938746019
 20
-35.9203493461
 30
0.0
  0
SPLINE
  5
3EE
100
AcDbEntity
  8
0
100
AcDbSpline
 62
7
  6
CONTINUOUS
 70
0
 71
3
 72
9
 73
5
 74
0
 42
0.0000001
 43
0.0000001
 44
0.0000000001
 40
0.0
 40
0.0
 40
0.0
 40
0.0
 40
0.5031686129
 40
1.0
 40
1.0
 40
1.0
 40
1.0
 10
-135.6030124915
 20
-35.9321388647
 30
0.0
 10
-135.5901886839
 20
-35.9402210753
 30
0.0
 10
-135.5647115147
 20
-35.9563249836
 30
0.0
 10
-135.5377353264
 20
-35.9699023919
 30
0.0
 10
-135.5251475275
 20
-35.9779998076
 30
0.0
  0
SPLINE
  5
3EF
100
AcDbEntity
  8
0
100
AcDbSpline
 62
7
  6
CONTINUOUS
 70
0
 71
3
 72
9
 73
5
 74
0
 42
0.0000001
 43
0.0000001
 44
0.0000000001
 40
0.0
 40
0.0
 40
0.0
 40
0.0
 40
0.5101749789
 40
1.0
 40
1.0
 40
1.0
 40
1.0
 10
-147.2474666062
 20
-23.8845176746
 30
0.0
 10
-145.8114109657
 20
-26.3565237212
 30
0.0
 10
-142.377515133
 20
-30.8668037203
 30
0.0
 10
-137.9786927692
 20
-34.4287926347
 30
0.0
 10
-135.6592943402
 20
-35.8965959528
 30
0.0
  0
SPLINE
  5
3F0
100
AcDbEntity
  8
0
100
AcDbSpline
 62
7
  6
CONTINUOUS
 70
0
 71
3
 72
9
 73
5
 74
0
 42
0.0000001
 43
0.0000001
 44
0.0000000001
 40
0.0
 40
0.0
 40
0.0
 40
0.0
 40
0.252926444
 40
1.0
 40
1.0
 40
1.0
 40
1.0
 10
-148.8367696064
 20
-20.7985719342
 30
0.0
 10
-148.944935591
 20
-21.3096372805
 30
0.0
 10
-149.3393445309
 20
-23.3370964965
 30
0.0
 10
-149.5992518144
 20
-25.3910662989
 30
0.0
 10
-149.7111788215
 20
-26.9299841742
 30
0.0
  0
SPLINE
  5
3F1
100
AcDbEntity
  8
0
100
AcDbSpline
 62
7
  6
CONTINUOUS
 70
0
 71
3
 72
9
 73
5
 74
0
 42
0.0000001
 43
0.0000001
 44
0.0000000001
 40
0.0
 40
0.0
 40
0.0
 40
0.0
 40
0.4941906742
 40
1.0
 40
1.0
 40
1.0
 40
1.0
 10
-143.8775588282
 20
-38.3269203698
 30
0.0
 10
-144.9804176684
 20
-37.2876612245
 30
0.0
 10
-147.0834362146
 20
-35.0431580622
 30
0.0
 10
-148.8523758725
 20
-32.5214838071
 30
0.0
 10
-149.637263893
 20
-31.1837416337
 30
0.0
  0
SPLINE
  5
3F2
100
AcDbEntity
  8
0
100
AcDbSpline
 62
7
  6
CONTINUOUS
 70
0
 71
3
 72
10
 73
6
 74
0
 42
0.0000001
 43
0.0000001
 44
0.0000000001
 40
0.0
 40
0.0
 40
0.0
 40
0.0
 40
0.2419954775
 40
0.5005906834
 40
1.0
 40
1.0
 40
1.0
 40
1.0
 10
-147.8677509715
 20
-20.0009939318
 30
0.0
 10
-147.9708011671
 20
-20.0181658534
 30
0.0
 10
-148.1779476772
 20
-20.0923499862
 30
0.0
 10
-148.5395043962
 20
-20.3307852626
 30
0.0
 10
-148.7522485753
 20
-20.6002480434
 30
0.0
 10
-148.8367082812
 20
-20.7986145302
 30
0.0
  0
SPLINE
  5
3F3
100
AcDbEntity
  8
0
100
AcDbSpline
 62
7
  6
CONTINUOUS
 70
0
 71
3
 72
10
 73
6
 74
0
 42
0.0000001
 43
0.0000001
 44
0.0000000001
 40
0.0
 40
0.0
 40
0.0
 40
0.0
 40
0.3479060264
 40
0.6322137581
 40
1.0
 40
1.0
 40
1.0
 40
1.0
 10
-148.8367824851
 20
-20.7985710963
 30
0.0
 10
-148.8507103023
 20
-20.7905686267
 30
0.0
 10
-148.8755552481
 20
-20.7744946962
 30
0.0
 10
-148.9103524936
 20
-20.746147022
 30
0.0
 10
-148.9289675019
 20
-20.7155348115
 30
0.0
 10
-148.9255655744
 20
-20.6988980679
 30
0.0
  0
SPLINE
  5
3F4
100
AcDbEntity
  8
0
100
AcDbSpline
 62
7
  6
CONTINUOUS
 70
0
 71
3
 72
11
 73
7
 74
0
 42
0.0000001
 43
0.0000001
 44
0.0000000001
 40
0.0
 40
0.0
 40
0.0
 40
0.0
 40
0.2291017731
 40
0.486262464
 40
0.7507189713
 40
1.0
 40
1.0
 40
1.0
 40
1.0
 10
-147.2473017062
 20
-23.8848015279
 30
0.0
 10
-147.2045746059
 20
-23.8173121575
 30
0.0
 10
-147.0916293238
 20
-23.6880793192
 30
0.0
 10
-146.8816081478
 20
-23.5296262706
 30
0.0
 10
-146.6403779965
 20
-23.4080309937
 30
0.0
 10
-146.4668014706
 20
-23.3579124584
 30
0.0
 10
-146.3809966791
 20
-23.3440766018
 30
0.0
  0
SPLINE
  5
3F5
100
AcDbEntity
  8
0
100
AcDbSpline
 62
7
  6
CONTINUOUS
 70
0
 71
3
 72
9
 73
5
 74
0
 42
0.0000001
 43
0.0000001
 44
0.0000000001
 40
0.0
 40
0.0
 40
0.0
 40
0.0
 40
0.4931062784
 40
1.0
 40
1.0
 40
1.0
 40
1.0
 10
-122.9642699369
 20
-2.3303894581
 30
0.0
 10
-124.0678525077
 20
-2.37607278
 30
0.0
 10
-126.301989285
 20
-2.6018113005
 30
0.0
 10
-128.4965220924
 20
-3.073981501
 30
0.0
 10
-129.5927139824
 20
-3.3698207639
 30
0.0
  0
SPLINE
  5
3F6
100
AcDbEntity
  8
0
100
AcDbSpline
 62
7
  6
CONTINUOUS
 70
0
 71
3
 72
10
 73
6
 74
0
 42
0.0000001
 43
0.0000001
 44
0.0000000001
 40
0.0
 40
0.0
 40
0.0
 40
0.0
 40
0.237236886
 40
0.6091576064
 40
1.0
 40
1.0
 40
1.0
 40
1.0
 10
-149.8235649289
 20
-29.9999707993
 30
0.0
 10
-148.7395728121
 20
-30.6218819834
 30
0.0
 10
-145.9266485694
 20
-32.1677535597
 30
0.0
 10
-141.2002468348
 20
-34.4989557106
 30
0.0
 10
-137.5162274914
 20
-36.1068501956
 30
0.0
 10
-135.6125310222
 20
-36.8910582587
 30
0.0
  0
SPLINE
  5
3F7
100
AcDbEntity
  8
0
100
AcDbSpline
 62
7
  6
CONTINUOUS
 70
0
 71
3
 72
9
 73
5
 74
0
 42
0.0000001
 43
0.0000001
 44
0.0000000001
 40
0.0
 40
0.0
 40
0.0
 40
0.0
 40
0.5164612061
 40
1.0
 40
1.0
 40
1.0
 40
1.0
 10
-135.4432906991
 20
-36.9606303794
 30
0.0
 10
-135.4429119434
 20
-38.4529953759
 30
0.0
 10
-135.1443506391
 20
-41.3539636343
 30
0.0
 10
-134.154504209
 20
-44.1087597062
 30
0.0
 10
-133.5008209722
 20
-45.3436511784
 30
0.0
  0
SPLINE
  5
3F8
100
AcDbEntity
  8
0
100
AcDbSpline
 62
7
  6
CONTINUOUS
 70
0
 71
3
 72
10
 73
6
 74
0
 42
0.0000001
 43
0.0000001
 44
0.0000000001
 40
0.0
 40
0.0
 40
0.0
 40
0.0
 40
0.2417790139
 40
0.4892868784
 40
1.0
 40
1.0
 40
1.0
 40
1.0
 10
-134.9564493518
 20
-44.6215815617
 30
0.0
 10
-135.7391071805
 20
-44.2142570852
 30
0.0
 10
-137.3002542791
 20
-43.3445525722
 30
0.0
 10
-140.3623846599
 20
-41.3563659934
 30
0.0
 10
-142.5211870835
 20
-39.6050720565
 30
0.0
 10
-143.8775585121
 20
-38.3269201789
 30
0.0
  0
SPLINE
  5
3F9
100
AcDbEntity
  8
0
100
AcDbSpline
 62
7
  6
CONTINUOUS
 70
0
 71
3
 72
9
 73
5
 74
0
 42
0.0000001
 43
0.0000001
 44
0.0000000001
 40
0.0
 40
0.0
 40
0.0
 40
0.0
 40
0.2451933149
 40
1.0
 40
1.0
 40
1.0
 40
1.0
 10
-143.8775588282
 20
-38.3269203698
 30
0.0
 10
-144.4394543444
 20
-37.8313140577
 30
0.0
 10
-146.6854631685
 20
-35.7591085286
 30
0.0
 10
-148.740289119
 20
-33.4777595379
 30
0.0
 10
-150.1514161427
 20
-31.6533551989
 30
0.0
  0
SPLINE
  5
3FA
100
AcDbEntity
  8
0
100
AcDbSpline
 62
7
  6
CONTINUOUS
 70
0
 71
3
 72
9
 73
5
 74
0
 42
0.0000001
 43
0.0000001
 44
0.0000000001
 40
0.0
 40
0.0
 40
0.0
 40
0.0
 40
0.4951174394
 40
1.0
 40
1.0
 40
1.0
 40
1.0
 10
-121.3279602628
 20
-4.0312243498
 30
0.0
 10
-119.1952519076
 20
-5.2604308545
 30
0.0
 10
-115.0375243637
 20
-8.0115101523
 30
0.0
 10
-111.2366889141
 20
-11.2357070739
 30
0.0
 10
-109.4162870106
 20
-12.9639733707
 30
0.0
  0
SPLINE
  5
3FB
100
AcDbEntity
  8
0
100
AcDbSpline
 62
7
  6
CONTINUOUS
 70
0
 71
3
 72
11
 73
7
 74
0
 42
0.0000001
 43
0.0000001
 44
0.0000000001
 40
0.0
 40
0.0
 40
0.0
 40
0.0
 40
0.2411023061
 40
0.4869947989
 40
0.7395144809
 40
1.0
 40
1.0
 40
1.0
 40
1.0
 10
-109.2984914533
 20
-13.0774655926
 30
0.0
 10
-109.9012668299
 20
-12.8525329898
 30
0.0
 10
-111.1563855365
 20
-12.4930949788
 30
0.0
 10
-113.1204520404
 20
-12.2405383765
 30
0.0
 10
-115.1517334597
 20
-12.2727073644
 30
0.0
 10
-116.5095456357
 20
-12.4798878927
 30
0.0
 10
-117.1888235783
 20
-12.6273504124
 30
0.0
  0
SPLINE
  5
3FC
100
AcDbEntity
  8
0
100
AcDbSpline
 62
7
  6
CONTINUOUS
 70
0
 71
3
 72
11
 73
7
 74
0
 42
0.0000001
 43
0.0000001
 44
0.0000000001
 40
0.0
 40
0.0
 40
0.0
 40
0.0
 40
0.2751429766
 40
0.5453245484
 40
0.7905496053
 40
1.0
 40
1.0
 40
1.0
 40
1.0
 10
-150.1514161374
 20
-31.653355284
 30
0.0
 10
-150.242116987
 20
-31.7233400425
 30
0.0
 10
-150.4046979112
 20
-31.8851092443
 30
0.0
 10
-150.5865354723
 20
-32.1623057976
 30
0.0
 10
-150.6931502894
 20
-32.4474922474
 30
0.0
 10
-150.7078295086
 20
-32.6406034481
 30
0.0
 10
-150.6960809319
 20
-32.7270180638
 30
0.0
  0
SPLINE
  5
3FD
100
AcDbEntity
  8
0
100
AcDbSpline
 62
7
  6
CONTINUOUS
 70
0
 71
3
 72
9
 73
5
 74
0
 42
0.0000001
 43
0.0000001
 44
0.0000000001
 40
0.0
 40
0.0
 40
0.0
 40
0.0
 40
0.2681652773
 40
1.0
 40
1.0
 40
1.0
 40
1.0
 10
-150.6959868368
 20
-32.7270714225
 30
0.0
 10
-150.7060362161
 20
-32.7213065285
 30
0.0
 10
-150.7419244483
 20
-32.6974474937
 30
0.0
 10
-150.7706721667
 20
-32.6607992092
 30
0.0
 10
-150.7802791675
 20
-32.6306767429
 30
0.0
  0
SPLINE
  5
3FE
100
AcDbEntity
  8
0
100
AcDbSpline
 62
7
  6
CONTINUOUS
 70
0
 71
3
 72
9
 73
5
 74
0
 42
0.0000001
 43
0.0000001
 44
0.0000000001
 40
0.0
 40
0.0
 40
0.0
 40
0.0
 40
0.5068040179
 40
1.0
 40
1.0
 40
1.0
 40
1.0
 10
-150.6959709666
 20
-32.7270622595
 30
0.0
 10
-150.3474433908
 20
-33.8107873145
 30
0.0
 10
-149.5438913006
 20
-35.9139591114
 30
0.0
 10
-148.5023680839
 20
-37.9109311896
 30
0.0
 10
-147.9305483461
 20
-38.8597697784
 30
0.0
  0
SPLINE
  5
3FF
100
AcDbEntity
  8
0
100
AcDbSpline
 62
7
  6
CONTINUOUS
 70
0
 71
3
 72
10
 73
6
 74
0
 42
0.0000001
 43
0.0000001
 44
0.0000000001
 40
0.0
 40
0.0
 40
0.0
 40
0.0
 40
0.4066857839
 40
0.6966415924
 40
1.0
 40
1.0
 40
1.0
 40
1.0
 10
-139.6260422452
 20
-46.6126692263
 30
0.0
 10
-139.6258700164
 20
-46.6648708274
 30
0.0
 10
-139.5360066034
 20
-46.7340019557
 30
0.0
 10
-139.4198704658
 20
-46.7737721464
 30
0.0
 10
-139.3440461858
 20
-46.7901401712
 30
0.0
 10
-139.3055447175
 20
-46.7959601154
 30
0.0
  0
SPLINE
  5
400
100
AcDbEntity
  8
0
100
AcDbSpline
 62
7
  6
CONTINUOUS
 70
0
 71
3
 72
9
 73
5
 74
0
 42
0.0000001
 43
0.0000001
 44
0.0000000001
 40
0.0
 40
0.0
 40
0.0
 40
0.0
 40
0.2589478783
 40
1.0
 40
1.0
 40
1.0
 40
1.0
 10
-144.2098579984
 20
-38.9538283021
 30
0.0
 10
-143.5283660902
 20
-39.4956952118
 30
0.0
 10
-140.8410483176
 20
-41.5173500915
 30
0.0
 10
-137.9437619659
 20
-43.2606130771
 30
0.0
 10
-135.711721258
 20
-44.3679851719
 30
0.0
  0
SPLINE
  5
401
100
AcDbEntity
  8
0
100
AcDbSpline
 62
7
  6
CONTINUOUS
 70
0
 71
3
 72
14
 73
10
 74
0
 42
0.0000001
 43
0.0000001
 44
0.0000000001
 40
0.0
 40
0.0
 40
0.0
 40
0.0
 40
0.0284564843
 40
0.0939815523
 40
0.1964552062
 40
0.3300312622
 40
0.485515662
 40
0.6540126841
 40
1.0
 40
1.0
 40
1.0
 40
1.0
 10
-147.2216643455
 20
-41.2404604461
 30
0.0
 10
-147.2230978551
 20
-41.243722256
 30
0.0
 10
-147.2135679107
 20
-41.2553166427
 30
0.0
 10
-147.1959731973
 20
-41.2688512455
 30
0.0
 10
-147.1635886792
 20
-41.2906278907
 30
0.0
 10
-147.1217534597
 20
-41.3152519878
 30
0.0
 10
-147.0715014358
 20
-41.3431133455
 30
0.0
 10
-146.9972677077
 20
-41.3820503658
 30
0.0
 10
-146.9395115148
 20
-41.410653727
 30
0.0
 10
-146.9004705649
 20
-41.4294257864
 30
0.0
  0
SPLINE
  5
402
100
AcDbEntity
  8
0
100
AcDbSpline
 62
7
  6
CONTINUOUS
 70
0
 71
3
 72
14
 73
10
 74
0
 42
0.0000001
 43
0.0000001
 44
0.0000000001
 40
0.0
 40
0.0
 40
0.0
 40
0.0
 40
0.046491677
 40
0.1044163819
 40
0.1881768066
 40
0.3015679307
 40
0.4440945617
 40
0.6118155896
 40
1.0
 40
1.0
 40
1.0
 40
1.0
 10
-146.931591161
 20
-40.6020697688
 30
0.0
 10
-146.9290610367
 20
-40.5965205317
 30
0.0
 10
-146.9182639071
 20
-40.585886394
 30
0.0
 10
-146.8922945183
 20
-40.5849538712
 30
0.0
 10
-146.8600633456
 20
-40.5939065817
 30
0.0
 10
-146.8195108589
 20
-40.6129193989
 30
0.0
 10
-146.772019458
 20
-40.6418422056
 30
0.0
 10
-146.6973112305
 20
-40.6949937784
 30
0.0
 10
-146.6415245596
 20
-40.7421631657
 30
0.0
 10
-146.6037209696
 20
-40.7762802343
 30
0.0
  0
SPLINE
  5
403
100
AcDbEntity
  8
0
100
AcDbSpline
 62
7
  6
CONTINUOUS
 70
0
 71
3
 72
10
 73
6
 74
0
 42
0.0000001
 43
0.0000001
 44
0.0000000001
 40
0.0
 40
0.0
 40
0.0
 40
0.0
 40
0.1921916465
 40
0.4369335227
 40
1.0
 40
1.0
 40
1.0
 40
1.0
 10
-144.209857964
 20
-38.9538283295
 30
0.0
 10
-144.2165775118
 20
-38.9076118113
 30
0.0
 10
-144.2023415568
 20
-38.7990662456
 30
0.0
 10
-144.107094113
 20
-38.5747767274
 30
0.0
 10
-143.9799893877
 20
-38.4176342417
 30
0.0
 10
-143.8775588299
 20
-38.3269203639
 30
0.0
  0
SPLINE
  5
404
100
AcDbEntity
  8
0
100
AcDbSpline
 62
7
  6
CONTINUOUS
 70
0
 71
3
 72
9
 73
5
 74
0
 42
0.0000001
 43
0.0000001
 44
0.0000000001
 40
0.0
 40
0.0
 40
0.0
 40
0.0
 40
0.4563475932
 40
1.0
 40
1.0
 40
1.0
 40
1.0
 10
-134.9833820576
 20
-44.7213009414
 30
0.0
 10
-134.9901255774
 20
-44.7064891969
 30
0.0
 10
-134.9875330585
 20
-44.6676578008
 30
0.0
 10
-134.9696755167
 20
-44.6357596034
 30
0.0
 10
-134.9564509225
 20
-44.6215818062
 30
0.0
  0
SPLINE
  5
405
100
AcDbEntity
  8
0
100
AcDbSpline
 62
7
  6
CONTINUOUS
 70
0
 71
3
 72
11
 73
7
 74
0
 42
0.0000001
 43
0.0000001
 44
0.0000000001
 40
0.0
 40
0.0
 40
0.0
 40
0.0
 40
0.2482119712
 40
0.4971380574
 40
0.7478786142
 40
1.0
 40
1.0
 40
1.0
 40
1.0
 10
-133.7113219561
 20
-45.2864238276
 30
0.0
 10
-133.815117965
 20
-45.232914444
 30
0.0
 10
-134.0218196086
 20
-45.1234325495
 30
0.0
 10
-134.330446028
 20
-44.9544481692
 30
0.0
 10
-134.6426105726
 20
-44.7881578402
 30
0.0
 10
-134.8525328506
 20
-44.6789860314
 30
0.0
 10
-134.9563602561
 20
-44.6216302295
 30
0.0
  0
SPLINE
  5
406
100
AcDbEntity
  8
0
100
AcDbSpline
 62
7
  6
CONTINUOUS
 70
0
 71
3
 72
9
 73
5
 74
0
 42
0.0000001
 43
0.0000001
 44
0.0000000001
 40
0.0
 40
0.0
 40
0.0
 40
0.0
 40
0.5013503581
 40
1.0
 40
1.0
 40
1.0
 40
1.0
 10
-133.103904181
 20
-46.0459489342
 30
0.0
 10
-133.1314090017
 20
-46.0362056432
 30
0.0
 10
-133.1869497605
 20
-46.018754503
 30
0.0
 10
-133.2421544586
 20
-46.0003247054
 30
0.0
 10
-133.2697963361
 20
-45.9914802206
 30
0.0
  0
SPLINE
  5
407
100
AcDbEntity
  8
0
100
AcDbSpline
 62
7
  6
CONTINUOUS
 70
0
 71
3
 72
14
 73
10
 74
0
 42
0.0000001
 43
0.0000001
 44
0.0000000001
 40
0.0
 40
0.0
 40
0.0
 40
0.0
 40
0.329545934
 40
0.483623288
 40
0.6270248723
 40
0.7545866136
 40
0.8558845996
 40
0.9062270108
 40
1.0
 40
1.0
 40
1.0
 40
1.0
 10
-121.3200050329
 20
-4.0190672641
 30
0.0
 10
-121.3260024975
 20
-4.0171359636
 30
0.0
 10
-121.3348017315
 20
-4.0143451506
 30
0.0
 10
-121.3463304558
 20
-4.0109121662
 30
0.0
 10
-121.3540302725
 20
-4.008665674
 30
0.0
 10
-121.3612828353
 20
-4.0069528325
 30
0.0
 10
-121.3656101034
 20
-4.0056512592
 30
0.0
 10
-121.3723691449
 20
-4.0056134011
 30
0.0
 10
-121.3674730648
 20
-4.0084724938
 30
0.0
 10
-121.3659183078
 20
-4.0093653518
 30
0.0
  0
SPLINE
  5
408
100
AcDbEntity
  8
0
100
AcDbSpline
 62
7
  6
CONTINUOUS
 70
0
 71
3
 72
21
 73
17
 74
0
 42
0.0000001
 43
0.0000001
 44
0.0000000001
 40
0.0
 40
0.0
 40
0.0
 40
0.0
 40
0.2619198381
 40
0.3923299086
 40
0.5220899088
 40
0.6507793532
 40
0.7775190963
 40
0.8395420931
 40
0.8998265599
 40
0.9288133729
 40
0.956347091
 40
0.9691721204
 40
0.9808672647
 40
0.9905584286
 40
0.9946801702
 40
1.0
 40
1.0
 40
1.0
 40
1.0
 10
-130.0221885439
 20
-3.4288848275
 30
0.0
 10
-130.097857205
 20
-3.4500687776
 30
0.0
 10
-130.2108793091
 20
-3.4829760354
 30
0.0
 10
-130.3604517013
 20
-3.5294773428
 30
0.0
 10
-130.4713738547
 20
-3.5656325284
 30
0.0
 10
-130.5806406675
 20
-3.603261588
 30
0.0
 10
-130.6700123113
 20
-3.6362147542
 30
0.0
 10
-130.7393684891
 20
-3.6640202951
 30
0.0
 10
-130.7810167163
 20
-3.6820861269
 30
0.0
 10
-130.8125676606
 20
-3.6973801227
 30
0.0
 10
-130.8308285987
 20
-3.7073086528
 30
0.0
 10
-130.8440388666
 20
-3.7157904382
 30
0.0
 10
-130.8519173251
 20
-3.7221384976
 30
0.0
 10
-130.8575257963
 20
-3.7280053427
 30
0.0
 10
-130.8577548843
 20
-3.7342009061
 30
0.0
 10
-130.8553501065
 20
-3.7363146658
 30
0.0
 10
-130.8539634431
 20
-3.7371048253
 30
0.0
  0
SPLINE
  5
409
100
AcDbEntity
  8
0
100
AcDbSpline
 62
7
  6
CONTINUOUS
 70
0
 71
3
 72
11
 73
7
 74
0
 42
0.0000001
 43
0.0000001
 44
0.0000000001
 40
0.0
 40
0.0
 40
0.0
 40
0.0
 40
0.2764895403
 40
0.5359528154
 40
0.7773375246
 40
1.0
 40
1.0
 40
1.0
 40
1.0
 10
-130.9839564976
 20
-9.0470449746
 30
0.0
 10
-131.1369411143
 20
-8.6110719591
 30
0.0
 10
-131.398872796
 20
-7.7531496988
 30
0.0
 10
-131.6570616924
 20
-6.4776947068
 30
0.0
 10
-131.7628548271
 20
-5.2705615362
 30
0.0
 10
-131.7269088986
 20
-4.4925047061
 30
0.0
 10
-131.6783554066
 20
-4.1235999189
 30
0.0
  0
SPLINE
  5
40A
100
AcDbEntity
  8
0
100
AcDbSpline
 62
7
  6
CONTINUOUS
 70
0
 71
3
 72
9
 73
5
 74
0
 42
0.0000001
 43
0.0000001
 44
0.0000000001
 40
0.0
 40
0.0
 40
0.0
 40
0.0
 40
0.4860998417
 40
1.0
 40
1.0
 40
1.0
 40
1.0
 10
-130.8539634431
 20
-3.7371048253
 30
0.0
 10
-128.6670533427
 20
-4.9949788207
 30
0.0
 10
-124.2971992104
 20
-7.811145046
 30
0.0
 10
-120.1928393943
 20
-10.9981981926
 30
0.0
 10
-118.1503281924
 20
-12.7133669829
 30
0.0
  0
SPLINE
  5
40B
100
AcDbEntity
  8
0
100
AcDbSpline
 62
7
  6
CONTINUOUS
 70
0
 71
3
 72
11
 73
7
 74
0
 42
0.0000001
 43
0.0000001
 44
0.0000000001
 40
0.0
 40
0.0
 40
0.0
 40
0.0
 40
0.2372747912
 40
0.4664772698
 40
0.715873403
 40
1.0
 40
1.0
 40
1.0
 40
1.0
 10
-147.8708402402
 20
-19.7272678638
 30
0.0
 10
-147.8415962356
 20
-19.7193665207
 30
0.0
 10
-147.780012775
 20
-19.7139886026
 30
0.0
 10
-147.6925891228
 20
-19.7512258338
 30
0.0
 10
-147.6279787954
 20
-19.8276004851
 30
0.0
 10
-147.6029193922
 20
-19.8919471379
 30
0.0
 10
-147.5935113141
 20
-19.9269800025
 30
0.0
  0
SPLINE
  5
40C
100
AcDbEntity
  8
0
100
AcDbSpline
 62
7
  6
CONTINUOUS
 70
0
 71
3
 72
11
 73
7
 74
0
 42
0.0000001
 43
0.0000001
 44
0.0000000001
 40
0.0
 40
0.0
 40
0.0
 40
0.0
 40
0.2135333717
 40
0.456077942
 40
0.7243172809
 40
1.0
 40
1.0
 40
1.0
 40
1.0
 10
-148.1581796834
 20
-19.8048148361
 30
0.0
 10
-148.132595672
 20
-19.797916057
 30
0.0
 10
-148.0728019845
 20
-19.800828102
 30
0.0
 10
-147.9930099009
 20
-19.8460857348
 30
0.0
 10
-147.9236143483
 20
-19.915682194
 30
0.0
 10
-147.8851454474
 20
-19.9715333701
 30
0.0
 10
-147.8677521843
 20
-20.0009918777
 30
0.0
  0
SPLINE
  5
40D
100
AcDbEntity
  8
0
100
AcDbSpline
 62
7
  6
CONTINUOUS
 70
0
 71
3
 72
10
 73
6
 74
0
 42
0.0000001
 43
0.0000001
 44
0.0000000001
 40
0.0
 40
0.0
 40
0.0
 40
0.0
 40
0.4964080961
 40
0.7488653605
 40
1.0
 40
1.0
 40
1.0
 40
1.0
 10
-118.150341205
 20
-12.7133537589
 30
0.0
 10
-118.1277596881
 20
-12.7323162563
 30
0.0
 10
-118.0946545288
 20
-12.7620676953
 30
0.0
 10
-118.0485664103
 20
-12.7995238318
 30
0.0
 10
-118.0248714747
 20
-12.8178611289
 30
0.0
 10
-118.0139110246
 20
-12.8279807794
 30
0.0
  0
SPLINE
  5
40E
100
AcDbEntity
  8
0
100
AcDbSpline
 62
7
  6
CONTINUOUS
 70
0
 71
3
 72
9
 73
5
 74
0
 42
0.0000001
 43
0.0000001
 44
0.0000000001
 40
0.0
 40
0.0
 40
0.0
 40
0.0
 40
0.4851833721
 40
1.0
 40
1.0
 40
1.0
 40
1.0
 10
-118.0139252945
 20
-12.8281606179
 30
0.0
 10
-119.4408875157
 20
-13.213265717
 30
0.0
 10
-122.2870844147
 20
-14.3847788642
 30
0.0
 10
-124.8083044002
 20
-16.1352497328
 30
0.0
 10
-126.0062884857
 20
-17.1473546544
 30
0.0
  0
SPLINE
  5
40F
100
AcDbEntity
  8
0
100
AcDbSpline
 62
7
  6
CONTINUOUS
 70
0
 71
3
 72
9
 73
5
 74
0
 42
0.0000001
 43
0.0000001
 44
0.0000000001
 40
0.0
 40
0.0
 40
0.0
 40
0.0
 40
0.5162539025
 40
1.0
 40
1.0
 40
1.0
 40
1.0
 10
-130.9839564976
 20
-9.0470449746
 30
0.0
 10
-131.3064593619
 20
-8.1521154123
 30
0.0
 10
-131.8047084086
 20
-6.3690543805
 30
0.0
 10
-131.983367581
 20
-4.5220403632
 30
0.0
 10
-131.9753964158
 20
-3.6307099217
 30
0.0
  0
SPLINE
  5
410
100
AcDbEntity
  8
0
100
AcDbSpline
 62
7
  6
CONTINUOUS
 70
0
 71
3
 72
9
 73
5
 74
0
 42
0.0000001
 43
0.0000001
 44
0.0000000001
 40
0.0
 40
0.0
 40
0.0
 40
0.0
 40
0.5008482351
 40
1.0
 40
1.0
 40
1.0
 40
1.0
 10
-141.1443129021
 20
-9.8471040805
 30
0.0
 10
-141.1090089145
 20
-9.860258567
 30
0.0
 10
-141.0425308117
 20
-9.9069193384
 30
0.0
 10
-141.0215132724
 20
-9.9847784146
 30
0.0
 10
-141.0200942545
 20
-10.0222990633
 30
0.0
  0
SPLINE
  5
411
100
AcDbEntity
  8
0
100
AcDbSpline
 62
7
  6
CONTINUOUS
 70
0
 71
3
 72
9
 73
5
 74
0
 42
0.0000001
 43
0.0000001
 44
0.0000000001
 40
0.0
 40
0.0
 40
0.0
 40
0.0
 40
0.4999057766
 40
1.0
 40
1.0
 40
1.0
 40
1.0
 10
-141.6895691725
 20
-9.6435177747
 30
0.0
 10
-141.6506461425
 20
-9.6580937608
 30
0.0
 10
-141.5815407387
 20
-9.7129368615
 30
0.0
 10
-141.5462406746
 20
-9.7903804584
 30
0.0
 10
-141.5344279642
 20
-9.8302455325
 30
0.0
  0
SPLINE
  5
412
100
AcDbEntity
  8
0
100
AcDbSpline
 62
7
  6
CONTINUOUS
 70
0
 71
3
 72
25
 73
21
 74
0
 42
0.0000001
 43
0.0000001
 44
0.0000000001
 40
0.0
 40
0.0
 40
0.0
 40
0.0
 40
0.1255838259
 40
0.2511827114
 40
0.3767924134
 40
0.5024066634
 40
0.5652129055
 40
0.6280154586
 40
0.6908105258
 40
0.7535910922
 40
0.8163421244
 40
0.8476967358
 40
0.8790248943
 40
0.9103047451
 40
0.9414801484
 40
0.956981467
 40
0.9723425338
 40
0.9873018047
 40
0.9942803666
 40
1.0
 40
1.0
 40
1.0
 40
1.0
 10
-146.543150813
 20
-16.7768837846
 30
0.0
 10
-146.5805606501
 20
-16.8569736715
 30
0.0
 10
-146.6543956313
 20
-17.0176273126
 30
0.0
 10
-146.7620992024
 20
-17.2599988023
 30
0.0
 10
-146.8666141395
 20
-17.5037863904
 30
0.0
 10
-146.950849363
 20
-17.7081565968
 30
0.0
 10
-147.0162887653
 20
-17.872435757
 30
0.0
 10
-147.0642923757
 20
-17.996058744
 30
0.0
 10
-147.1110789423
 20
-18.1201288288
 30
0.0
 10
-147.1564189402
 20
-18.2446969213
 30
0.0
 10
-147.1926909652
 20
-18.349005737
 30
0.0
 10
-147.2204064943
 20
-18.432835646
 30
0.0
 10
-147.240344037
 20
-18.4958991336
 30
0.0
 10
-147.2591126246
 20
-18.5591962728
 30
0.0
 10
-147.2733239367
 20
-18.6121936258
 30
0.0
 10
-147.2830358721
 20
-18.6548106426
 30
0.0
 10
-147.2889427407
 20
-18.6864223322
 30
0.0
 10
-147.2917969663
 20
-18.7128960552
 30
0.0
 10
-147.2909996723
 20
-18.7318835192
 30
0.0
 10
-147.2873527294
 20
-18.7414251436
 30
0.0
 10
-147.2838481772
 20
-18.7434066481
 30
0.0
  0
SPLINE
  5
413
100
AcDbEntity
  8
0
100
AcDbSpline
 62
7
  6
CONTINUOUS
 70
0
 71
3
 72
10
 73
6
 74
0
 42
0.0000001
 43
0.0000001
 44
0.0000000001
 40
0.0
 40
0.0
 40
0.0
 40
0.0
 40
0.2687215447
 40
0.5257783113
 40
1.0
 40
1.0
 40
1.0
 40
1.0
 10
-127.1050421272
 20
-15.8240649466
 30
0.0
 10
-127.5408676324
 20
-15.2735075809
 30
0.0
 10
-128.3629540501
 20
-14.1707620348
 30
0.0
 10
-129.7564011473
 20
-11.9586463338
 30
0.0
 10
-130.5736573927
 20
-10.216307536
 30
0.0
 10
-130.9839564259
 20
-9.0470454492
 30
0.0
  0
SPLINE
  5
414
100
AcDbEntity
  8
0
100
AcDbSpline
 62
7
  6
CONTINUOUS
 70
0
 71
3
 72
10
 73
6
 74
0
 42
0.0000001
 43
0.0000001
 44
0.0000000001
 40
0.0
 40
0.0
 40
0.0
 40
0.0
 40
0.234714512
 40
0.4797436529
 40
1.0
 40
1.0
 40
1.0
 40
1.0
 10
-132.1116600386
 20
-3.4628183257
 30
0.0
 10
-132.1718524708
 20
-3.4095321427
 30
0.0
 10
-132.3156916769
 20
-3.3224920023
 30
0.0
 10
-132.6532666198
 20
-3.2443679082
 30
0.0
 10
-132.924982604
 20
-3.296835721
 30
0.0
 10
-133.0886945238
 20
-3.3671883394
 30
0.0
  0
SPLINE
  5
415
100
AcDbEntity
  8
0
100
AcDbSpline
 62
7
  6
CONTINUOUS
 70
0
 71
3
 72
10
 73
6
 74
0
 42
0.0000001
 43
0.0000001
 44
0.0000000001
 40
0.0
 40
0.0
 40
0.0
 40
0.0
 40
0.3096316636
 40
0.5782767848
 40
1.0
 40
1.0
 40
1.0
 40
1.0
 10
-133.0885994202
 20
-3.3672420507
 30
0.0
 10
-133.1016878166
 20
-3.3597184245
 30
0.0
 10
-133.1271976492
 20
-3.3472315989
 30
0.0
 10
-133.1735724211
 20
-3.3328485153
 30
0.0
 10
-133.2107530766
 20
-3.33628095
 30
0.0
 10
-133.2280787935
 20
-3.3473540887
 30
0.0
  0
SPLINE
  5
416
100
AcDbEntity
  8
0
100
AcDbSpline
 62
7
  6
CONTINUOUS
 70
0
 71
3
 72
21
 73
17
 74
0
 42
0.0000001
 43
0.0000001
 44
0.0000000001
 40
0.0
 40
0.0
 40
0.0
 40
0.0
 40
0.1266979375
 40
0.2534919204
 40
0.3803458319
 40
0.5071960515
 40
0.6339226952
 40
0.6971700768
 40
0.7602677242
 40
0.8231082784
 40
0.8854639735
 40
0.9162976328
 40
0.9466711336
 40
0.9759919027
 40
0.9895419221
 40
1.0
 40
1.0
 40
1.0
 40
1.0
 10
-139.1149152721
 20
-7.8350444273
 30
0.0
 10
-139.1712829559
 20
-7.8857226052
 30
0.0
 10
-139.2834271709
 20
-7.9878251351
 30
0.0
 10
-139.4497071572
 20
-8.1431722087
 30
0.0
 10
-139.6139507663
 20
-8.3008042087
 30
0.0
 10
-139.7758623945
 20
-8.4607746006
 30
0.0
 10
-139.9085065846
 20
-8.5961912258
 30
0.0
 10
-140.0127718491
 20
-8.7059809876
 30
0.0
 10
-140.0896982147
 20
-8.7890021084
 30
0.0
 10
-140.1649436035
 20
-8.8728750355
 30
0.0
 10
-140.2257538378
 20
-8.9436218781
 30
0.0
 10
-140.2722096299
 20
-9.0013324057
 30
0.0
 10
-140.3048934353
 20
-9.0439503216
 30
0.0
 10
-140.3293240208
 20
-9.0821237445
 30
0.0
 10
-140.3437771401
 20
-9.1076134974
 30
0.0
 10
-140.3461149396
 20
-9.1271676088
 30
0.0
 10
-140.340671219
 20
-9.1302519242
 30
0.0
  0
SPLINE
  5
417
100
AcDbEntity
  8
0
100
AcDbSpline
 62
7
  6
CONTINUOUS
 70
0
 71
3
 72
9
 73
5
 74
0
 42
0.0000001
 43
0.0000001
 44
0.0000000001
 40
0.0
 40
0.0
 40
0.0
 40
0.0
 40
0.2463772384
 40
1.0
 40
1.0
 40
1.0
 40
1.0
 10
-133.1756803121
 20
-3.4228887469
 30
0.0
 10
-133.6870906792
 20
-3.7504587629
 30
0.0
 10
-135.7340753689
 20
-5.1245082899
 30
0.0
 10
-137.6642420631
 20
-6.6712730227
 30
0.0
 10
-139.0435721904
 20
-7.9156494472
 30
0.0
  0
SPLINE
  5
418
100
AcDbEntity
  8
0
100
AcDbSpline
 62
7
  6
CONTINUOUS
 70
0
 71
3
 72
9
 73
5
 74
0
 42
0.0000001
 43
0.0000001
 44
0.0000000001
 40
0.0
 40
0.0
 40
0.0
 40
0.0
 40
0.5014160082
 40
1.0
 40
1.0
 40
1.0
 40
1.0
 10
-105.011239692
 20
-15.8029348915
 30
0.0
 10
-105.5309899664
 20
-15.2951492346
 30
0.0
 10
-106.6575713401
 20
-14.3701982055
 30
0.0
 10
-107.9312645393
 20
-13.6608595126
 30
0.0
 10
-108.5911957293
 20
-13.3666995018
 30
0.0
  0
SPLINE
  5
419
100
AcDbEntity
  8
0
100
AcDbSpline
 62
7
  6
CONTINUOUS
 70
0
 71
3
 72
9
 73
5
 74
0
 42
0.0000001
 43
0.0000001
 44
0.0000000001
 40
0.0
 40
0.0
 40
0.0
 40
0.0
 40
0.2390372091
 40
1.0
 40
1.0
 40
1.0
 40
1.0
 10
-133.0884940308
 20
-3.367033156
 30
0.0
 10
-133.0545738911
 20
-3.8215903837
 30
0.0
 10
-132.8207820566
 20
-5.7161697587
 30
0.0
 10
-132.2447219703
 20
-7.5606074844
 30
0.0
 10
-131.6730914916
 20
-8.8943544639
 30
0.0
  0
SPLINE
  5
41A
100
AcDbEntity
  8
0
100
AcDbSpline
 62
7
  6
CONTINUOUS
 70
0
 71
3
 72
9
 73
5
 74
0
 42
0.0000001
 43
0.0000001
 44
0.0000000001
 40
0.0
 40
0.0
 40
0.0
 40
0.0
 40
0.2381493357
 40
1.0
 40
1.0
 40
1.0
 40
1.0
 10
-131.6731388627
 20
-8.8943749629
 30
0.0
 10
-131.4272250506
 20
-9.4681408302
 30
0.0
 10
-130.288179636
 20
-11.8316028745
 30
0.0
 10
-128.7634017829
 20
-13.9987705141
 30
0.0
 10
-127.4703818374
 20
-15.5206287613
 30
0.0
  0
SPLINE
  5
41B
100
AcDbEntity
  8
0
100
AcDbSpline
 62
7
  6
CONTINUOUS
 70
0
 71
3
 72
16
 73
12
 74
0
 42
0.0000001
 43
0.0000001
 44
0.0000000001
 40
0.0
 40
0.0
 40
0.0
 40
0.0
 40
0.2423873876
 40
0.4875958749
 40
0.6119738741
 40
0.7383823552
 40
0.8027801825
 40
0.8684236403
 40
0.935859084
 40
0.9699926866
 40
1.0
 40
1.0
 40
1.0
 40
1.0
 10
-147.5785365326
 20
-39.4708264714
 30
0.0
 10
-147.5560265851
 20
-39.5057806426
 30
0.0
 10
-147.5103295867
 20
-39.5758295451
 30
0.0
 10
-147.4517284932
 20
-39.6629231608
 30
0.0
 10
-147.4031424648
 20
-39.7327629374
 30
0.0
 10
-147.3716311198
 20
-39.7766915465
 30
0.0
 10
-147.3453723771
 20
-39.8119909699
 30
0.0
 10
-147.324649427
 20
-39.8387618966
 30
0.0
 10
-147.3064996864
 20
-39.86105813
 30
0.0
 10
-147.2911199324
 20
-39.8774568948
 30
0.0
 10
-147.2830897128
 20
-39.8852398244
 30
0.0
 10
-147.2786179917
 20
-39.8877883344
 30
0.0
  0
SPLINE
  5
41C
100
AcDbEntity
  8
0
100
AcDbSpline
 62
7
  6
CONTINUOUS
 70
0
 71
3
 72
12
 73
8
 74
0
 42
0.0000001
 43
0.0000001
 44
0.0000000001
 40
0.0
 40
0.0
 40
0.0
 40
0.0
 40
0.1354095043
 40
0.2412214934
 40
0.3711079279
 40
0.6764096509
 40
1.0
 40
1.0
 40
1.0
 40
1.0
 10
-150.4788831573
 20
-31.4741449966
 30
0.0
 10
-150.4659395314
 20
-31.4623749648
 30
0.0
 10
-150.4285480854
 20
-31.4640932185
 30
0.0
 10
-150.3851891892
 20
-31.4808112651
 30
0.0
 10
-150.3226790669
 20
-31.5137657043
 30
0.0
 10
-150.2433513428
 20
-31.5713601514
 30
0.0
 10
-150.1819188028
 20
-31.6247636474
 30
0.0
 10
-150.1514161378
 20
-31.6533552837
 30
0.0
  0
SPLINE
  5
41D
100
AcDbEntity
  8
0
100
AcDbSpline
 62
7
  6
CONTINUOUS
 70
0
 71
3
 72
11
 73
7
 74
0
 42
0.0000001
 43
0.0000001
 44
0.0000000001
 40
0.0
 40
0.0
 40
0.0
 40
0.0
 40
0.2722008034
 40
0.5325336386
 40
0.774333792
 40
1.0
 40
1.0
 40
1.0
 40
1.0
 10
-131.6731388506
 20
-8.8943749911
 30
0.0
 10
-131.6095292163
 20
-8.8667066479
 30
0.0
 10
-131.4763226992
 20
-8.8304137323
 30
0.0
 10
-131.275838176
 20
-8.8382922098
 30
0.0
 10
-131.0998350986
 20
-8.9091743841
 30
0.0
 10
-131.0135226502
 20
-8.9977195263
 30
0.0
 10
-130.9839564868
 20
-9.0470449691
 30
0.0
  0
SPLINE
  5
41E
100
AcDbEntity
  8
0
100
AcDbSpline
 62
7
  6
CONTINUOUS
 70
0
 71
3
 72
9
 73
5
 74
0
 42
0.0000001
 43
0.0000001
 44
0.0000000001
 40
0.0
 40
0.0
 40
0.0
 40
0.0
 40
0.2439991545
 40
1.0
 40
1.0
 40
1.0
 40
1.0
 10
-138.8985163879
 20
-46.2607588438
 30
0.0
 10
-139.572598908
 20
-45.9086090027
 30
0.0
 10
-142.3143918672
 20
-44.4261263379
 30
0.0
 10
-144.9676909232
 20
-42.7773609134
 30
0.0
 10
-146.9004706461
 20
-41.4294258181
 30
0.0
  0
SPLINE
  5
41F
100
AcDbEntity
  8
0
100
AcDbSpline
 62
7
  6
CONTINUOUS
 70
0
 71
3
 72
9
 73
5
 74
0
 42
0.0000001
 43
0.0000001
 44
0.0000000001
 40
0.0
 40
0.0
 40
0.0
 40
0.0
 40
0.2438477874
 40
1.0
 40
1.0
 40
1.0
 40
1.0
 10
-138.8985163879
 20
-46.2607588438
 30
0.0
 10
-139.5682977276
 20
-45.8818039037
 30
0.0
 10
-142.2786508466
 20
-44.2657712536
 30
0.0
 10
-144.8321653253
 20
-42.3750736922
 30
0.0
 10
-146.603720968
 20
-40.7762802309
 30
0.0
  0
SPLINE
  5
420
100
AcDbEntity
  8
0
100
AcDbSpline
 62
7
  6
CONTINUOUS
 70
0
 71
3
 72
11
 73
7
 74
0
 42
0.0000001
 43
0.0000001
 44
0.0000000001
 40
0.0
 40
0.0
 40
0.0
 40
0.0
 40
0.1882163278
 40
0.3970901078
 40
0.6685026563
 40
1.0
 40
1.0
 40
1.0
 40
1.0
 10
-149.9721953818
 20
-31.0113730279
 30
0.0
 10
-149.9523685095
 20
-30.9932622457
 30
0.0
 10
-149.8966295367
 20
-30.9663953773
 30
0.0
 10
-149.7992788514
 20
-30.9945873481
 30
0.0
 10
-149.7110667396
 20
-31.0720537607
 30
0.0
 10
-149.6611980275
 20
-31.1429489261
 30
0.0
 10
-149.637263893
 20
-31.1837416337
 30
0.0
  0
SPLINE
  5
421
100
AcDbEntity
  8
0
100
AcDbSpline
 62
7
  6
CONTINUOUS
 70
0
 71
3
 72
9
 73
5
 74
0
 42
0.0000001
 43
0.0000001
 44
0.0000000001
 40
0.0
 40
0.0
 40
0.0
 40
0.0
 40
0.4898986938
 40
1.0
 40
1.0
 40
1.0
 40
1.0
 10
-147.2786179917
 20
-39.8877883344
 30
0.0
 10
-145.1108750446
 20
-41.13075777
 30
0.0
 10
-140.535798817
 20
-43.4124440911
 30
0.0
 10
-135.7479053382
 20
-45.1985722161
 30
0.0
 10
-133.2698040957
 20
-45.9914824956
 30
0.0
  0
SPLINE
  5
422
100
AcDbEntity
  8
0
100
AcDbSpline
 62
7
  6
CONTINUOUS
 70
0
 71
3
 72
11
 73
7
 74
0
 42
0.0000001
 43
0.0000001
 44
0.0000000001
 40
0.0
 40
0.0
 40
0.0
 40
0.0
 40
0.2560846974
 40
0.5066015612
 40
0.7537476783
 40
1.0
 40
1.0
 40
1.0
 40
1.0
 10
-133.1038422167
 20
-46.0458753653
 30
0.0
 10
-132.7625504052
 20
-46.6119833877
 30
0.0
 10
-132.0079572958
 20
-47.6865704042
 30
0.0
 10
-130.6607135659
 20
-49.1003947752
 30
0.0
 10
-129.1318633189
 20
-50.2747329678
 30
0.0
 10
-128.0071769744
 20
-50.8854298785
 30
0.0
 10
-127.4265946526
 20
-51.1442206577
 30
0.0
  0
SPLINE
  5
423
100
AcDbEntity
  8
0
100
AcDbSpline
 62
7
  6
CONTINUOUS
 70
0
 71
3
 72
9
 73
5
 74
0
 42
0.0000001
 43
0.0000001
 44
0.0000000001
 40
0.0
 40
0.0
 40
0.0
 40
0.0
 40
0.241180062
 40
1.0
 40
1.0
 40
1.0
 40
1.0
 10
-131.5742731915
 20
-49.710176452
 30
0.0
 10
-132.1815950678
 20
-49.4752907601
 30
0.0
 10
-134.6834269389
 20
-48.4601709164
 30
0.0
 10
-137.1153992143
 20
-47.2696256435
 30
0.0
 10
-138.8985157378
 20
-46.2607579154
 30
0.0
  0
LINE
  5
424
100
AcDbEntity
  8
0
100
AcDbLine
 62
7
  6
CONTINUOUS
 10
-127.4471964953
 20
-51.1895582624
 11
-127.6272454397
 21
-51.127060474
  0
SPLINE
  5
425
100
AcDbEntity
  8
0
100
AcDbSpline
 62
7
  6
CONTINUOUS
 70
0
 71
3
 72
11
 73
7
 74
0
 42
0.0000001
 43
0.0000001
 44
0.0000000001
 40
0.0
 40
0.0
 40
0.0
 40
0.0
 40
0.2480007807
 40
0.4973701747
 40
0.7480316982
 40
1.0
 40
1.0
 40
1.0
 40
1.0
 10
-127.6272456197
 20
-51.1270609892
 30
0.0
 10
-127.7308686582
 20
-51.0910519465
 30
0.0
 10
-127.9379390817
 20
-51.0166840008
 30
0.0
 10
-128.2480823915
 20
-50.9013710476
 30
0.0
 10
-128.5614239884
 20
-50.7896675754
 30
0.0
 10
-128.7723025844
 20
-50.7191522821
 30
0.0
 10
-128.8772124915
 20
-50.6815168025
 30
0.0
  0
LINE
  5
426
100
AcDbEntity
  8
0
100
AcDbLine
 62
7
  6
CONTINUOUS
 10
-127.6244731132
 20
-51.1380351977
 11
-127.4471967504
 21
-51.1895581102
  0
SPLINE
  5
427
100
AcDbEntity
  8
0
100
AcDbSpline
 62
7
  6
CONTINUOUS
 70
0
 71
3
 72
9
 73
5
 74
0
 42
0.0000001
 43
0.0000001
 44
0.0000000001
 40
0.0
 40
0.0
 40
0.0
 40
0.0
 40
0.5526120748
 40
1.0
 40
1.0
 40
1.0
 40
1.0
 10
-127.0032272856
 20
-16.0585348493
 30
0.0
 10
-126.9893545614
 20
-16.0488908373
 30
0.0
 10
-126.9594042582
 20
-16.0357606278
 30
0.0
 10
-126.9262917664
 20
-16.047837094
 30
0.0
 10
-126.917658499
 20
-16.0584468069
 30
0.0
  0
SPLINE
  5
428
100
AcDbEntity
  8
0
100
AcDbSpline
 62
7
  6
CONTINUOUS
 70
0
 71
3
 72
10
 73
6
 74
0
 42
0.0000001
 43
0.0000001
 44
0.0000000001
 40
0.0
 40
0.0
 40
0.0
 40
0.0
 40
0.2938225214
 40
0.5646412756
 40
1.0
 40
1.0
 40
1.0
 40
1.0
 10
-146.9004706802
 20
-41.4294257309
 30
0.0
 10
-146.9433410307
 20
-41.5063323266
 30
0.0
 10
-147.0130033635
 20
-41.6622346425
 30
0.0
 10
-147.0863022222
 20
-41.9515822904
 30
0.0
 10
-147.0782564909
 20
-42.1781637177
 30
0.0
 10
-147.0229341167
 20
-42.2963147784
 30
0.0
  0
SPLINE
  5
429
100
AcDbEntity
  8
0
100
AcDbSpline
 62
7
  6
CONTINUOUS
 70
0
 71
3
 72
9
 73
5
 74
0
 42
0.0000001
 43
0.0000001
 44
0.0000000001
 40
0.0
 40
0.0
 40
0.0
 40
0.0
 40
0.2618210085
 40
1.0
 40
1.0
 40
1.0
 40
1.0
 10
-147.0229341167
 20
-42.2963147784
 30
0.0
 10
-147.0172541369
 20
-42.3084454154
 30
0.0
 10
-146.9935142744
 20
-42.353760639
 30
0.0
 10
-146.9609549326
 20
-42.3946927338
 30
0.0
 10
-146.9326744954
 20
-42.4197205006
 30
0.0
  0
SPLINE
  5
42A
100
AcDbEntity
  8
0
100
AcDbSpline
 62
7
  6
CONTINUOUS
 70
0
 71
3
 72
13
 73
9
 74
0
 42
0.0000001
 43
0.0000001
 44
0.0000000001
 40
0.0
 40
0.0
 40
0.0
 40
0.0
 40
0.0773861644
 40
0.1644331199
 40
0.2666110847
 40
0.3859556431
 40
0.6713816247
 40
1.0
 40
1.0
 40
1.0
 40
1.0
 10
-138.9164125465
 20
-46.8372286382
 30
0.0
 10
-138.930373044
 20
-46.829579626
 30
0.0
 10
-138.956621479
 20
-46.8066043126
 30
0.0
 10
-138.9825724301
 20
-46.7573345786
 30
0.0
 10
-138.9967119417
 20
-46.6949268819
 30
0.0
 10
-139.0002439452
 20
-46.5902703938
 30
0.0
 10
-138.9725788885
 20
-46.4404235375
 30
0.0
 10
-138.9274110383
 20
-46.3218702036
 30
0.0
 10
-138.8985163927
 20
-46.2607588426
 30
0.0
  0
SPLINE
  5
42B
100
AcDbEntity
  8
0
100
AcDbSpline
 62
7
  6
CONTINUOUS
 70
0
 71
3
 72
9
 73
5
 74
0
 42
0.0000001
 43
0.0000001
 44
0.0000000001
 40
0.0
 40
0.0
 40
0.0
 40
0.0
 40
0.4228724893
 40
1.0
 40
1.0
 40
1.0
 40
1.0
 10
-128.9022849465
 20
-50.7531494847
 30
0.0
 10
-128.9149116875
 20
-50.7483660264
 30
0.0
 10
-128.93380743
 20
-50.7154807172
 30
0.0
 10
-128.9275884411
 20
-50.6828762565
 30
0.0
 10
-128.9212946915
 20
-50.665556482
 30
0.0
  0
SPLINE
  5
42C
100
AcDbEntity
  8
0
100
AcDbSpline
 62
7
  6
CONTINUOUS
 70
0
 71
3
 72
9
 73
5
 74
0
 42
0.0000001
 43
0.0000001
 44
0.0000000001
 40
0.0
 40
0.0
 40
0.0
 40
0.0
 40
0.4997669179
 40
1.0
 40
1.0
 40
1.0
 40
1.0
 10
-126.7325479519
 20
-17.7854636936
 30
0.0
 10
-126.7568652159
 20
-17.7665047576
 30
0.0
 10
-126.8081448989
 20
-17.7320809102
 30
0.0
 10
-126.8577973244
 20
-17.6954586499
 30
0.0
 10
-126.8832018203
 20
-17.6779327638
 30
0.0
  0
SPLINE
  5
42D
100
AcDbEntity
  8
0
100
AcDbSpline
 62
7
  6
CONTINUOUS
 70
0
 71
3
 72
11
 73
7
 74
0
 42
0.0000001
 43
0.0000001
 44
0.0000000001
 40
0.0
 40
0.0
 40
0.0
 40
0.0
 40
0.3073299716
 40
0.5713513048
 40
0.7957963771
 40
1.0
 40
1.0
 40
1.0
 40
1.0
 10
-139.3055451644
 20
-46.7959600479
 30
0.0
 10
-139.3122409421
 20
-46.8729795574
 30
0.0
 10
-139.3102306865
 20
-47.018119511
 30
0.0
 10
-139.2575790406
 20
-47.2139968951
 30
0.0
 10
-139.1563363179
 20
-47.3613943242
 30
0.0
 10
-139.0581185486
 20
-47.4163126596
 30
0.0
 10
-139.0086260645
 20
-47.4300671194
 30
0.0
  0
SPLINE
  5
42E
100
AcDbEntity
  8
0
100
AcDbSpline
 62
7
  6
CONTINUOUS
 70
0
 71
3
 72
9
 73
5
 74
0
 42
0.0000001
 43
0.0000001
 44
0.0000000001
 40
0.0
 40
0.0
 40
0.0
 40
0.0
 40
0.4462454732
 40
1.0
 40
1.0
 40
1.0
 40
1.0
 10
-114.1730343805
 20
-7.5972185537
 30
0.0
 10
-113.9869327701
 20
-7.7141076899
 30
0.0
 10
-113.5928609629
 20
-8.0119792203
 30
0.0
 10
-113.2258888703
 20
-8.3405916941
 30
0.0
 10
-113.0267567134
 20
-8.5269188045
 30
0.0
  0
SPLINE
  5
42F
100
AcDbEntity
  8
0
100
AcDbSpline
 62
7
  6
CONTINUOUS
 70
0
 71
3
 72
9
 73
5
 74
0
 42
0.0000001
 43
0.0000001
 44
0.0000000001
 40
0.0
 40
0.0
 40
0.0
 40
0.0
 40
0.4811690768
 40
1.0
 40
1.0
 40
1.0
 40
1.0
 10
-140.340671219
 20
-9.1302519242
 30
0.0
 10
-138.1232724517
 20
-10.4047194736
 30
0.0
 10
-133.5801948711
 20
-13.1677566374
 30
0.0
 10
-129.1531833208
 20
-16.1119386539
 30
0.0
 10
-126.8832025846
 20
-17.6779379936
 30
0.0
  0
SPLINE
  5
430
100
AcDbEntity
  8
0
100
AcDbSpline
 62
7
  6
CONTINUOUS
 70
0
 71
3
 72
9
 73
5
 74
0
 42
0.0000001
 43
0.0000001
 44
0.0000000001
 40
0.0
 40
0.0
 40
0.0
 40
0.0
 40
0.4959798029
 40
1.0
 40
1.0
 40
1.0
 40
1.0
 10
-126.7325142492
 20
-17.785524499
 30
0.0
 10
-127.9475596218
 20
-18.8955631125
 30
0.0
 10
-130.1832849784
 20
-21.3769139646
 30
0.0
 10
-131.9345595847
 20
-24.2188325334
 30
0.0
 10
-132.6808046913
 20
-25.7155514139
 30
0.0
  0
SPLINE
  5
431
100
AcDbEntity
  8
0
100
AcDbSpline
 62
7
  6
CONTINUOUS
 70
0
 71
3
 72
12
 73
8
 74
0
 42
0.0000001
 43
0.0000001
 44
0.0000000001
 40
0.0
 40
0.0
 40
0.0
 40
0.0
 40
0.1280755543
 40
0.2553240166
 40
0.5073129944
 40
0.7557407233
 40
1.0
 40
1.0
 40
1.0
 40
1.0
 10
-133.7968897917
 20
-24.6447104819
 30
0.0
 10
-134.085890209
 20
-24.3538494211
 30
0.0
 10
-134.6537954267
 20
-23.7656421746
 30
0.0
 10
-135.7338239468
 20
-22.5521660064
 30
0.0
 10
-136.9721742428
 20
-20.9659479645
 30
0.0
 10
-138.262136529
 20
-18.9571676739
 30
0.0
 10
-138.9856659777
 20
-17.5523226363
 30
0.0
 10
-139.3091815069
 20
-16.8404010686
 30
0.0
  0
SPLINE
  5
432
100
AcDbEntity
  8
0
100
AcDbSpline
 62
7
  6
CONTINUOUS
 70
0
 71
3
 72
9
 73
5
 74
0
 42
0.0000001
 43
0.0000001
 44
0.0000000001
 40
0.0
 40
0.0
 40
0.0
 40
0.0
 40
0.5094839178
 40
1.0
 40
1.0
 40
1.0
 40
1.0
 10
-139.3091809144
 20
-16.8404019398
 30
0.0
 10
-139.8053873616
 20
-15.7484602373
 30
0.0
 10
-140.609679432
 20
-13.5223684094
 30
0.0
 10
-140.976504616
 20
-11.1762218344
 30
0.0
 10
-141.0200942717
 20
-10.0222990566
 30
0.0
  0
SPLINE
  5
433
100
AcDbEntity
  8
0
100
AcDbSpline
 62
7
  6
CONTINUOUS
 70
0
 71
3
 72
9
 73
5
 74
0
 42
0.0000001
 43
0.0000001
 44
0.0000000001
 40
0.0
 40
0.0
 40
0.0
 40
0.0
 40
0.4977681512
 40
1.0
 40
1.0
 40
1.0
 40
1.0
 10
-132.8524268358
 20
-25.5744236159
 30
0.0
 10
-133.0122334384
 20
-25.4233875631
 30
0.0
 10
-133.3277592853
 20
-25.1141853484
 30
0.0
 10
-133.6419387538
 20
-24.8036127973
 30
0.0
 10
-133.7968278653
 20
-24.6447718667
 30
0.0
  0
SPLINE
  5
434
100
AcDbEntity
  8
0
100
AcDbSpline
 62
7
  6
CONTINUOUS
 70
0
 71
3
 72
9
 73
5
 74
0
 42
0.0000001
 43
0.0000001
 44
0.0000000001
 40
0.0
 40
0.0
 40
0.0
 40
0.0
 40
0.5001784088
 40
1.0
 40
1.0
 40
1.0
 40
1.0
 10
-133.111199219
 20
-26.6191417918
 30
0.0
 10
-133.1377911798
 20
-26.6026908802
 30
0.0
 10
-133.1930568366
 20
-26.5733482598
 30
0.0
 10
-133.2471581684
 20
-26.5420269228
 30
0.0
 10
-133.27465271
 20
-26.527180357
 30
0.0
  0
SPLINE
  5
435
100
AcDbEntity
  8
0
100
AcDbSpline
 62
7
  6
CONTINUOUS
 70
0
 71
3
 72
9
 73
5
 74
0
 42
0.0000001
 43
0.0000001
 44
0.0000000001
 40
0.0
 40
0.0
 40
0.0
 40
0.0
 40
0.2450319717
 40
1.0
 40
1.0
 40
1.0
 40
1.0
 10
-109.2984527012
 20
-13.077396775
 30
0.0
 10
-109.3079204597
 20
-13.0679705252
 30
0.0
 10
-109.3468972324
 20
-13.029841026
 30
0.0
 10
-109.3864496771
 20
-12.9923088796
 30
0.0
 10
-109.416302576
 20
-12.963966919
 30
0.0
  0
SPLINE
  5
436
100
AcDbEntity
  8
0
100
AcDbSpline
 62
7
  6
CONTINUOUS
 70
0
 71
3
 72
10
 73
6
 74
0
 42
0.0000001
 43
0.0000001
 44
0.0000000001
 40
0.0
 40
0.0
 40
0.0
 40
0.0
 40
0.204858032
 40
0.4407199881
 40
1.0
 40
1.0
 40
1.0
 40
1.0
 10
-112.9454953658
 20
-8.603446786
 30
0.0
 10
-112.7064695508
 20
-8.8298707485
 30
0.0
 10
-112.204405349
 20
-9.3298060845
 30
0.0
 10
-111.0977629449
 20
-10.4954004233
 30
0.0
 10
-110.2419672365
 20
-11.444705111
 30
0.0
 10
-109.6429933211
 20
-12.1149170126
 30
0.0
  0
LINE
  5
437
100
AcDbEntity
  8
0
100
AcDbLine
 62
7
  6
CONTINUOUS
 10
-109.6430014815
 20
-12.1149134229
 11
-109.4112088932
 21
-12.3746448409
  0
LINE
  5
438
100
AcDbEntity
  8
0
100
AcDbLine
 62
7
  6
CONTINUOUS
 10
-109.4112088932
 20
-12.3746448409
 11
-109.2934517807
 21
-12.5068613113
  0
SPLINE
  5
439
100
AcDbEntity
  8
0
100
AcDbSpline
 62
7
  6
CONTINUOUS
 70
0
 71
3
 72
9
 73
5
 74
0
 42
0.0000001
 43
0.0000001
 44
0.0000000001
 40
0.0
 40
0.0
 40
0.0
 40
0.0
 40
0.5221533517
 40
1.0
 40
1.0
 40
1.0
 40
1.0
 10
-118.0018261446
 20
-11.5984700966
 30
0.0
 10
-117.9913514196
 20
-11.5968812387
 30
0.0
 10
-117.9701527696
 20
-11.5979396719
 30
0.0
 10
-117.952385112
 20
-11.6103045928
 30
0.0
 10
-117.9465102999
 20
-11.6180175931
 30
0.0
  0
SPLINE
  5
43A
100
AcDbEntity
  8
0
100
AcDbSpline
 62
7
  6
CONTINUOUS
 70
0
 71
3
 72
10
 73
6
 74
0
 42
0.0000001
 43
0.0000001
 44
0.0000000001
 40
0.0
 40
0.0
 40
0.0
 40
0.0
 40
0.5078914666
 40
0.7552763347
 40
1.0
 40
1.0
 40
1.0
 40
1.0
 10
-121.7897494072
 20
-5.7755521428
 30
0.0
 10
-121.6911366499
 20
-5.7775204621
 30
0.0
 10
-121.5404497865
 20
-5.8202010621
 30
0.0
 10
-121.3924751982
 20
-5.9493376835
 30
0.0
 10
-121.3412088655
 20
-6.0321107365
 30
0.0
 10
-121.322610869
 20
-6.0758459215
 30
0.0
  0
SPLINE
  5
43B
100
AcDbEntity
  8
0
100
AcDbSpline
 62
7
  6
CONTINUOUS
 70
0
 71
3
 72
9
 73
5
 74
0
 42
0.0000001
 43
0.0000001
 44
0.0000000001
 40
0.0
 40
0.0
 40
0.0
 40
0.0
 40
0.2569913223
 40
1.0
 40
1.0
 40
1.0
 40
1.0
 10
-122.8648757882
 20
-2.3264339469
 30
0.0
 10
-122.8728210394
 20
-2.3218645101
 30
0.0
 10
-122.9047412239
 20
-2.3059535255
 30
0.0
 10
-122.941140904
 20
-2.2985043507
 30
0.0
 10
-122.9676245722
 20
-2.2994111469
 30
0.0
  0
SPLINE
  5
43C
100
AcDbEntity
  8
0
100
AcDbSpline
 62
7
  6
CONTINUOUS
 70
0
 71
3
 72
11
 73
7
 74
0
 42
0.0000001
 43
0.0000001
 44
0.0000000001
 40
0.0
 40
0.0
 40
0.0
 40
0.0
 40
0.2548277289
 40
0.5019766459
 40
0.7480599048
 40
1.0
 40
1.0
 40
1.0
 40
1.0
 10
-122.0715636708
 20
-3.1497834222
 30
0.0
 10
-122.0715625248
 20
-3.0430726985
 30
0.0
 10
-122.1112558555
 20
-2.8302708075
 30
0.0
 10
-122.2878180049
 20
-2.5618623768
 30
0.0
 10
-122.5516201593
 20
-2.381661592
 30
0.0
 10
-122.7596866798
 20
-2.3331455261
 30
0.0
 10
-122.8649710183
 20
-2.3263796985
 30
0.0
  0
SPLINE
  5
43D
100
AcDbEntity
  8
0
100
AcDbSpline
 62
7
  6
CONTINUOUS
 70
0
 71
3
 72
11
 73
7
 74
0
 42
0.0000001
 43
0.0000001
 44
0.0000000001
 40
0.0
 40
0.0
 40
0.0
 40
0.0
 40
0.2511015544
 40
0.5014954556
 40
0.7508880474
 40
1.0
 40
1.0
 40
1.0
 40
1.0
 10
-117.9198216301
 20
-12.8022739952
 30
0.0
 10
-117.8587660984
 20
-12.7833559075
 30
0.0
 10
-117.7375364903
 20
-12.7433278776
 30
0.0
 10
-117.554858753
 20
-12.6870312189
 30
0.0
 10
-117.3717141731
 20
-12.6341039761
 30
0.0
 10
-117.2498326007
 20
-12.598780865
 30
0.0
 10
-117.1888451328
 20
-12.5814110157
 30
0.0
  0
SPLINE
  5
43E
100
AcDbEntity
  8
0
100
AcDbSpline
 62
7
  6
CONTINUOUS
 70
0
 71
3
 72
9
 73
5
 74
0
 42
0.0000001
 43
0.0000001
 44
0.0000000001
 40
0.0
 40
0.0
 40
0.0
 40
0.0
 40
0.4987161073
 40
1.0
 40
1.0
 40
1.0
 40
1.0
 10
-117.1888334967
 20
-12.6273420127
 30
0.0
 10
-117.3109447813
 20
-12.6538508047
 30
0.0
 10
-117.5550579339
 20
-12.7103616314
 30
0.0
 10
-117.7983794274
 20
-12.7702291445
 30
0.0
 10
-117.9198216301
 20
-12.8022739952
 30
0.0
  0
SPLINE
  5
43F
100
AcDbEntity
  8
0
100
AcDbSpline
 62
7
  6
CONTINUOUS
 70
0
 71
3
 72
11
 73
7
 74
0
 42
0.0000001
 43
0.0000001
 44
0.0000000001
 40
0.0
 40
0.0
 40
0.0
 40
0.0
 40
0.209627386
 40
0.4463750472
 40
0.7100417139
 40
1.0
 40
1.0
 40
1.0
 40
1.0
 10
-122.8647528262
 20
-2.3263653345
 30
0.0
 10
-122.8408970554
 20
-2.5788008887
 30
0.0
 10
-122.753411174
 20
-3.1130319451
 30
0.0
 10
-122.5306019556
 20
-3.9435184753
 30
0.0
 10
-122.2082828048
 20
-4.8445135472
 30
0.0
 10
-121.9395519341
 20
-5.4584563201
 30
0.0
 10
-121.7896899724
 20
-5.775553366
 30
0.0
  0
SPLINE
  5
440
100
AcDbEntity
  8
0
100
AcDbSpline
 62
7
  6
CONTINUOUS
 70
0
 71
3
 72
10
 73
6
 74
0
 42
0.0000001
 43
0.0000001
 44
0.0000000001
 40
0.0
 40
0.0
 40
0.0
 40
0.0
 40
0.2204578472
 40
0.4613254919
 40
1.0
 40
1.0
 40
1.0
 40
1.0
 10
-121.7897494184
 20
-5.7755521191
 30
0.0
 10
-121.59073217
 20
-6.1966505392
 30
0.0
 10
-121.1408060564
 20
-7.062239578
 30
0.0
 10
-120.0527175439
 20
-8.8742082994
 30
0.0
 10
-119.0886697354
 20
-10.2138473185
 30
0.0
 10
-118.3882609411
 20
-11.1108376877
 30
0.0
  0
SPLINE
  5
441
100
AcDbEntity
  8
0
100
AcDbSpline
 62
7
  6
CONTINUOUS
 70
0
 71
3
 72
9
 73
5
 74
0
 42
0.0000001
 43
0.0000001
 44
0.0000000001
 40
0.0
 40
0.0
 40
0.0
 40
0.0
 40
0.5037326544
 40
1.0
 40
1.0
 40
1.0
 40
1.0
 10
-81.1046619531
 20
-81.1892593908
 30
0.0
 10
-80.9465959543
 20
-81.3866891032
 30
0.0
 10
-80.59700504
 20
-81.7515136419
 30
0.0
 10
-80.184714785
 20
-82.0440456032
 30
0.0
 10
-79.968662843
 20
-82.1681547756
 30
0.0
  0
SPLINE
  5
442
100
AcDbEntity
  8
0
100
AcDbSpline
 62
7
  6
CONTINUOUS
 70
0
 71
3
 72
11
 73
7
 74
0
 42
0.0000001
 43
0.0000001
 44
0.0000000001
 40
0.0
 40
0.0
 40
0.0
 40
0.0
 40
0.2556851825
 40
0.5065934317
 40
0.7541572717
 40
1.0
 40
1.0
 40
1.0
 40
1.0
 10
-94.7310621107
 20
-72.7993055128
 30
0.0
 10
-94.3871950319
 20
-73.3599168572
 30
0.0
 10
-93.640883069
 20
-74.4324979576
 30
0.0
 10
-92.3442009404
 20
-75.8817640125
 30
0.0
 10
-90.8947213858
 20
-77.1401529609
 30
0.0
 10
-89.8339578317
 20
-77.8444866028
 30
0.0
 10
-89.2856137852
 20
-78.1594301293
 30
0.0
  0
SPLINE
  5
443
100
AcDbEntity
  8
0
100
AcDbSpline
 62
7
  6
CONTINUOUS
 70
0
 71
3
 72
11
 73
7
 74
0
 42
0.0000001
 43
0.0000001
 44
0.0000000001
 40
0.0
 40
0.0
 40
0.0
 40
0.0
 40
0.2722405127
 40
0.5275152075
 40
0.7680771471
 40
1.0
 40
1.0
 40
1.0
 40
1.0
 10
-73.0309487978
 20
-82.9843862376
 30
0.0
 10
-73.4362472936
 20
-83.2255732399
 30
0.0
 10
-74.272109732
 20
-83.6157153239
 30
0.0
 10
-75.5890432224
 20
-83.885679682
 30
0.0
 10
-76.8635011071
 20
-83.8023336424
 30
0.0
 10
-77.6421652791
 20
-83.5044141254
 30
0.0
 10
-77.9905605892
 20
-83.3042814562
 30
0.0
  0
SPLINE
  5
444
100
AcDbEntity
  8
0
100
AcDbSpline
 62
7
  6
CONTINUOUS
 70
0
 71
3
 72
11
 73
7
 74
0
 42
0.0000001
 43
0.0000001
 44
0.0000000001
 40
0.0
 40
0.0
 40
0.0
 40
0.0
 40
0.2559162456
 40
0.5068997527
 40
0.7543437725
 40
1.0
 40
1.0
 40
1.0
 40
1.0
 10
-79.7421997447
 20
-81.3013733067
 30
0.0
 10
-80.4167307664
 20
-81.2939981613
 30
0.0
 10
-81.7534781731
 20
-81.2005816212
 30
0.0
 10
-83.7095510763
 20
-80.8157580193
 30
0.0
 10
-85.5744369049
 20
-80.1911775276
 30
0.0
 10
-86.7460096839
 20
-79.6180575817
 30
0.0
 10
-87.3075115362
 20
-79.2955568185
 30
0.0
  0
SPLINE
  5
445
100
AcDbEntity
  8
0
100
AcDbSpline
 62
7
  6
CONTINUOUS
 70
0
 71
3
 72
11
 73
7
 74
0
 42
0.0000001
 43
0.0000001
 44
0.0000000001
 40
0.0
 40
0.0
 40
0.0
 40
0.0
 40
0.2420331655
 40
0.4874819149
 40
0.7393639387
 40
1.0
 40
1.0
 40
1.0
 40
1.0
 10
-61.9070430617
 20
-35.0709784084
 30
0.0
 10
-61.1230494999
 20
-35.5212935928
 30
0.0
 10
-59.6248390578
 20
-36.5777279191
 30
0.0
 10
-57.6856391537
 20
-38.5644049137
 30
0.0
 10
-56.0841342102
 20
-40.9155551319
 30
0.0
 10
-55.2767362308
 20
-42.6618501607
 30
0.0
 10
-54.9354219669
 20
-43.5736725743
 30
0.0
  0
SPLINE
  5
446
100
AcDbEntity
  8
0
100
AcDbSpline
 62
7
  6
CONTINUOUS
 70
0
 71
3
 72
13
 73
9
 74
0
 42
0.0000001
 43
0.0000001
 44
0.0000000001
 40
0.0
 40
0.0
 40
0.0
 40
0.0
 40
0.1187857559
 40
0.2382588116
 40
0.3590735554
 40
0.481821587
 40
0.7346947646
 40
1.0
 40
1.0
 40
1.0
 40
1.0
 10
-63.8851404714
 20
-33.9348433287
 30
0.0
 10
-64.3829384838
 20
-33.648943804
 30
0.0
 10
-65.416180094
 20
-33.1337377052
 30
0.0
 10
-67.0523795972
 20
-32.5447361162
 30
0.0
 10
-68.7641818383
 20
-32.1428107018
 30
0.0
 10
-71.1506681363
 20
-31.857714945
 30
0.0
 10
-74.2686900174
 20
-31.996541191
 30
0.0
 10
-76.7159656119
 20
-32.6006283373
 30
0.0
 10
-77.9295283786
 20
-33.0143382972
 30
0.0
  0
SPLINE
  5
447
100
AcDbEntity
  8
0
100
AcDbSpline
 62
7
  6
CONTINUOUS
 70
0
 71
3
 72
9
 73
5
 74
0
 42
0.0000001
 43
0.0000001
 44
0.0000000001
 40
0.0
 40
0.0
 40
0.0
 40
0.0
 40
0.4909822602
 40
1.0
 40
1.0
 40
1.0
 40
1.0
 10
-89.1852770915
 20
-78.0144425002
 30
0.0
 10
-90.1290585405
 20
-77.2579611511
 30
0.0
 10
-91.8671365433
 20
-75.4749303722
 30
0.0
 10
-93.1487549339
 20
-73.3452459939
 30
0.0
 10
-93.6823513549
 20
-72.2104695448
 30
0.0
  0
SPLINE
  5
448
100
AcDbEntity
  8
0
100
AcDbSpline
 62
7
  6
CONTINUOUS
 70
0
 71
3
 72
10
 73
6
 74
0
 42
0.0000001
 43
0.0000001
 44
0.0000000001
 40
0.0
 40
0.0
 40
0.0
 40
0.0
 40
0.2436236382
 40
0.4900868601
 40
1.0
 40
1.0
 40
1.0
 40
1.0
 10
-77.9905605892
 20
-83.3042814562
 30
0.0
 10
-78.1806711638
 20
-83.1950740828
 30
0.0
 10
-78.545359585
 20
-82.9424752893
 30
0.0
 10
-79.1922061838
 20
-82.3125097056
 30
0.0
 10
-79.5574841605
 20
-81.7214420414
 30
0.0
 10
-79.7421997447
 20
-81.3013733067
 30
0.0
  0
SPLINE
  5
449
100
AcDbEntity
  8
0
100
AcDbSpline
 62
7
  6
CONTINUOUS
 70
0
 71
3
 72
19
 73
15
 74
0
 42
0.0000001
 43
0.0000001
 44
0.0000000001
 40
0.0
 40
0.0
 40
0.0
 40
0.0
 40
0.1320524803
 40
0.267705298
 40
0.3359197752
 40
0.4037654655
 40
0.5365505821
 40
0.6633579925
 40
0.7240223226
 40
0.7826697756
 40
0.8393492624
 40
0.8942389977
 40
0.9476471554
 40
1.0
 40
1.0
 40
1.0
 40
1.0
 10
-95.4409860613
 20
-59.5495447803
 30
0.0
 10
-95.197795952
 20
-57.5475245231
 30
0.0
 10
-94.2758278379
 20
-53.5324314488
 30
0.0
 10
-92.1922065275
 20
-48.8111701297
 30
0.0
 10
-90.0067922299
 20
-45.2773123636
 30
0.0
 10
-87.5283316518
 20
-41.9975054252
 30
0.0
 10
-83.9613892864
 20
-38.4463126796
 30
0.0
 10
-79.8383889441
 20
-35.7394391156
 30
0.0
 10
-76.3817726157
 20
-34.2431049449
 30
0.0
 10
-73.7969484344
 20
-33.4802581178
 30
0.0
 10
-71.2214906954
 20
-33.0733947021
 30
0.0
 10
-68.6934401241
 20
-33.0299278785
 30
0.0
 10
-66.2520666126
 20
-33.3517412957
 30
0.0
 10
-64.6952277314
 20
-33.8112162695
 30
0.0
 10
-63.9491506952
 20
-34.0986901597
 30
0.0
  0
SPLINE
  5
44A
100
AcDbEntity
  8
0
100
AcDbSpline
 62
7
  6
CONTINUOUS
 70
0
 71
3
 72
19
 73
15
 74
0
 42
0.0000001
 43
0.0000001
 44
0.0000000001
 40
0.0
 40
0.0
 40
0.0
 40
0.0
 40
0.0522993332
 40
0.1054109947
 40
0.1600420607
 40
0.2167197866
 40
0.2757510832
 40
0.337217639
 40
0.4665244935
 40
0.6020436057
 40
0.7392476177
 40
0.8070338805
 40
0.873432621
 40
1.0
 40
1.0
 40
1.0
 40
1.0
 10
-45.1987526545
 20
-49.1649081155
 30
0.0
 10
-44.5013690689
 20
-49.5654790269
 30
0.0
 10
-43.1712467019
 20
-50.512807769
 30
0.0
 10
-41.4668888345
 20
-52.307356444
 30
0.0
 10
-40.0815456988
 20
-54.4385515858
 30
0.0
 10
-39.0444067161
 20
-56.8566689819
 30
0.0
 10
-38.374965189
 20
-59.5086720598
 30
0.0
 10
-37.9824692361
 20
-63.3412314481
 30
0.0
 10
-38.4968184975
 20
-68.3917614837
 30
0.0
 10
-40.5524863209
 20
-74.2742948291
 30
0.0
 10
-43.3441491237
 20
-78.7599201746
 30
0.0
 10
-46.1205590713
 20
-81.8874609428
 30
0.0
 10
-49.1166356293
 20
-84.5601978907
 30
0.0
 10
-51.6877977425
 20
-86.1289960481
 30
0.0
 10
-53.4783448867
 20
-86.8919147635
 30
0.0
  0
SPLINE
  5
44B
100
AcDbEntity
  8
0
100
AcDbSpline
 62
7
  6
CONTINUOUS
 70
0
 71
3
 72
11
 73
7
 74
0
 42
0.0000001
 43
0.0000001
 44
0.0000000001
 40
0.0
 40
0.0
 40
0.0
 40
0.0
 40
0.2584651834
 40
0.5099302299
 40
0.7563151997
 40
1.0
 40
1.0
 40
1.0
 40
1.0
 10
-80.5490630847
 20
-85.0379256994
 30
0.0
 10
-81.5490058022
 20
-85.1311980783
 30
0.0
 10
-83.5375510083
 20
-85.1813477525
 30
0.0
 10
-86.4653562044
 20
-84.8239779332
 30
0.0
 10
-89.2489718224
 20
-84.0371927484
 30
0.0
 10
-90.9846927867
 20
-83.2309577586
 30
0.0
 10
-91.808567211
 20
-82.7643079536
 30
0.0
  0
SPLINE
  5
44C
100
AcDbEntity
  8
0
100
AcDbSpline
 62
7
  6
CONTINUOUS
 70
0
 71
3
 72
13
 73
9
 74
0
 42
0.0000001
 43
0.0000001
 44
0.0000000001
 40
0.0
 40
0.0
 40
0.0
 40
0.0
 40
0.1176099156
 40
0.2360958618
 40
0.35622971
 40
0.4786908986
 40
0.7322835125
 40
1.0
 40
1.0
 40
1.0
 40
1.0
 10
-61.1478636136
 20
-29.4533482935
 30
0.0
 10
-60.4889100006
 20
-29.8388557793
 30
0.0
 10
-59.2148858392
 20
-30.6997527142
 30
0.0
 10
-57.476523971
 20
-32.2335948309
 30
0.0
 10
-55.923654743
 20
-33.997551683
 30
0.0
 10
-54.1005526421
 20
-36.661161283
 30
0.0
 10
-52.3685023841
 20
-40.5047678297
 30
0.0
 10
-51.6479082152
 20
-43.8366666712
 30
0.0
 10
-51.4364591673
 20
-45.5615727931
 30
0.0
  0
SPLINE
  5
44D
100
AcDbEntity
  8
0
100
AcDbSpline
 62
7
  6
CONTINUOUS
 70
0
 71
3
 72
9
 73
5
 74
0
 42
0.0000001
 43
0.0000001
 44
0.0000000001
 40
0.0
 40
0.0
 40
0.0
 40
0.0
 40
0.2563023029
 40
1.0
 40
1.0
 40
1.0
 40
1.0
 10
-74.7043939733
 20
-83.7318113998
 30
0.0
 10
-75.1876277387
 20
-83.9021107327
 30
0.0
 10
-77.0913001069
 20
-84.5127230198
 30
0.0
 10
-79.0687919961
 20
-84.8998493842
 30
0.0
 10
-80.5490630847
 20
-85.0379256994
 30
0.0
  0
SPLINE
  5
44E
100
AcDbEntity
  8
0
100
AcDbSpline
 62
7
  6
CONTINUOUS
 70
0
 71
3
 72
11
 73
7
 74
0
 42
0.0000001
 43
0.0000001
 44
0.0000000001
 40
0.0
 40
0.0
 40
0.0
 40
0.0
 40
0.2584818829
 40
0.5099467251
 40
0.7562950283
 40
1.0
 40
1.0
 40
1.0
 40
1.0
 10
-58.740843846
 20
-88.2595759125
 30
0.0
 10
-59.4496358828
 20
-88.3256904192
 30
0.0
 10
-60.8592612808
 20
-88.3603212918
 30
0.0
 10
-62.9340366204
 20
-88.1027944495
 30
0.0
 10
-64.9050698681
 20
-87.5378390381
 30
0.0
 10
-66.1324410601
 20
-86.9600115518
 30
0.0
 10
-66.7144378518
 20
-86.6257174929
 30
0.0
  0
SPLINE
  5
44F
100
AcDbEntity
  8
0
100
AcDbSpline
 62
7
  6
CONTINUOUS
 70
0
 71
3
 72
9
 73
5
 74
0
 42
0.0000001
 43
0.0000001
 44
0.0000000001
 40
0.0
 40
0.0
 40
0.0
 40
0.0
 40
0.2467822703
 40
1.0
 40
1.0
 40
1.0
 40
1.0
 10
-53.4781876965
 20
-87.819800777
 30
0.0
 10
-53.4781815525
 20
-87.8560686805
 30
0.0
 10
-53.4807572272
 20
-88.0030240577
 30
0.0
 10
-53.4935899633
 20
-88.1497730745
 30
0.0
 10
-53.5085849709
 20
-88.2594480077
 30
0.0
  0
SPLINE
  5
450
100
AcDbEntity
  8
0
100
AcDbSpline
 62
7
  6
CONTINUOUS
 70
0
 71
3
 72
13
 73
9
 74
0
 42
0.0000001
 43
0.0000001
 44
0.0000000001
 40
0.0
 40
0.0
 40
0.0
 40
0.0
 40
0.2708305766
 40
0.5402474769
 40
0.6665953154
 40
0.7844868285
 40
0.8946062072
 40
1.0
 40
1.0
 40
1.0
 40
1.0
 10
-53.5085849709
 20
-88.2594480077
 30
0.0
 10
-53.5768576528
 20
-88.7588009953
 30
0.0
 10
-53.9326886998
 20
-89.7312074747
 30
0.0
 10
-54.7807657631
 20
-90.6839498093
 30
0.0
 10
-55.6183768824
 20
-91.160717431
 30
0.0
 10
-56.2618506956
 20
-91.3382286384
 30
0.0
 10
-56.8916496734
 20
-91.3265413653
 30
0.0
 10
-57.2771754372
 20
-91.1865935826
 30
0.0
 10
-57.4472383772
 20
-91.0888897565
 30
0.0
  0
SPLINE
  5
451
100
AcDbEntity
  8
0
100
AcDbSpline
 62
7
  6
CONTINUOUS
 70
0
 71
3
 72
20
 73
16
 74
0
 42
0.0000001
 43
0.0000001
 44
0.0000000001
 40
0.0
 40
0.0
 40
0.0
 40
0.0
 40
0.0580005975
 40
0.118739513
 40
0.1821809982
 40
0.248012557
 40
0.384311453
 40
0.5222478495
 40
0.5899978938
 40
0.6559032505
 40
0.7798885359
 40
0.8379793575
 40
0.8935908363
 40
0.9473100611
 40
1.0
 40
1.0
 40
1.0
 40
1.0
 10
-53.4752625819
 20
-49.7466061237
 30
0.0
 10
-54.3600043442
 20
-49.82913282
 30
0.0
 10
-56.1582806978
 20
-50.1726762721
 30
0.0
 10
-58.7812941899
 20
-51.1597051918
 30
0.0
 10
-61.3237432221
 20
-52.600521409
 30
0.0
 10
-64.5490923378
 20
-55.0994319882
 30
0.0
 10
-67.9831520877
 20
-59.0992950933
 30
0.0
 10
-70.3433065805
 20
-63.8411091258
 30
0.0
 10
-71.4554233611
 20
-67.8627706713
 30
0.0
 10
-71.9918468472
 20
-71.7805964262
 30
0.0
 10
-71.707026217
 20
-75.6435312507
 30
0.0
 10
-70.5104488873
 20
-79.1009071271
 30
0.0
 10
-69.227133172
 20
-81.3412759333
 30
0.0
 10
-67.5723436551
 20
-83.2146212953
 30
0.0
 10
-66.2440007071
 20
-84.1858737444
 30
0.0
 10
-65.5440288145
 20
-84.5879266104
 30
0.0
  0
SPLINE
  5
452
100
AcDbEntity
  8
0
100
AcDbSpline
 62
7
  6
CONTINUOUS
 70
0
 71
3
 72
11
 73
7
 74
0
 42
0.0000001
 43
0.0000001
 44
0.0000000001
 40
0.0
 40
0.0
 40
0.0
 40
0.0
 40
0.2437037014
 40
0.4900475266
 40
0.7415248694
 40
1.0
 40
1.0
 40
1.0
 40
1.0
 10
-46.3691616777
 20
-51.2026990243
 30
0.0
 10
-46.887838153
 20
-50.9047793997
 30
0.0
 10
-47.9816678956
 20
-50.3898373799
 30
0.0
 10
-49.7382700201
 20
-49.8863211028
 30
0.0
 10
-51.5873248928
 20
-49.6568483151
 30
0.0
 10
-52.8436011761
 20
-49.6876861867
 30
0.0
 10
-53.4752625819
 20
-49.7466061237
 30
0.0
  0
SPLINE
  5
453
100
AcDbEntity
  8
0
100
AcDbSpline
 62
7
  6
CONTINUOUS
 70
0
 71
3
 72
11
 73
7
 74
0
 42
0.0000001
 43
0.0000001
 44
0.0000000001
 40
0.0
 40
0.0
 40
0.0
 40
0.0
 40
0.2321944215
 40
0.4728573432
 40
0.7280491871
 40
1.0
 40
1.0
 40
1.0
 40
1.0
 10
-57.4472383772
 20
-91.0888897565
 30
0.0
 10
-57.5992959996
 20
-91.0015302677
 30
0.0
 10
-57.8830456504
 20
-90.7741772475
 30
0.0
 10
-58.1966644075
 20
-90.3139886383
 30
0.0
 10
-58.3879728317
 20
-89.760336353
 30
0.0
 10
-58.4279911019
 20
-89.3605261935
 30
0.0
 10
-58.4280258967
 20
-89.1551340934
 30
0.0
  0
SPLINE
  5
454
100
AcDbEntity
  8
0
100
AcDbSpline
 62
7
  6
CONTINUOUS
 70
0
 71
3
 72
11
 73
7
 74
0
 42
0.0000001
 43
0.0000001
 44
0.0000000001
 40
0.0
 40
0.0
 40
0.0
 40
0.0
 40
0.2436926543
 40
0.4900600523
 40
0.7415406009
 40
1.0
 40
1.0
 40
1.0
 40
1.0
 10
-45.4145784767
 20
-49.0410740872
 30
0.0
 10
-45.9942222102
 20
-48.7114296379
 30
0.0
 10
-47.2157816348
 20
-48.1419412537
 30
0.0
 10
-49.1755423408
 20
-47.585747299
 30
0.0
 10
-51.2372763827
 20
-47.332955748
 30
0.0
 10
-52.6377258571
 20
-47.3679838361
 30
0.0
 10
-53.3418982676
 20
-47.4336674345
 30
0.0
  0
SPLINE
  5
455
100
AcDbEntity
  8
0
100
AcDbSpline
 62
7
  6
CONTINUOUS
 70
0
 71
3
 72
20
 73
16
 74
0
 42
0.0000001
 43
0.0000001
 44
0.0000000001
 40
0.0
 40
0.0
 40
0.0
 40
0.0
 40
0.0579879318
 40
0.1187090268
 40
0.1821301032
 40
0.2479394994
 40
0.3841956041
 40
0.5221113273
 40
0.5898637743
 40
0.6557811919
 40
0.7798163271
 40
0.8379367812
 40
0.8935744513
 40
0.9473095902
 40
1.0
 40
1.0
 40
1.0
 40
1.0
 10
-53.3418982676
 20
-47.4336674345
 30
0.0
 10
-54.3334139874
 20
-47.5261537623
 30
0.0
 10
-56.3486529825
 20
-47.91089223
 30
0.0
 10
-59.2883532615
 20
-49.0160686141
 30
0.0
 10
-62.1380812051
 20
-50.6292668531
 30
0.0
 10
-65.7539679182
 20
-53.4272815978
 30
0.0
 10
-69.6057687001
 20
-57.9065836068
 30
0.0
 10
-72.2564180161
 20
-63.217902483
 30
0.0
 10
-73.5091415446
 20
-67.7240375223
 30
0.0
 10
-74.1176329183
 20
-72.1157442308
 30
0.0
 10
-73.8071105311
 20
-76.4476611456
 30
0.0
 10
-72.4758599067
 20
-80.3283995281
 30
0.0
 10
-71.0449026826
 20
-82.845315124
 30
0.0
 10
-69.1974453562
 20
-84.9526097352
 30
0.0
 10
-67.712836309
 20
-86.0476496223
 30
0.0
 10
-66.9301532423
 20
-86.5016911611
 30
0.0
  0
SPLINE
  5
456
100
AcDbEntity
  8
0
100
AcDbSpline
 62
7
  6
CONTINUOUS
 70
0
 71
3
 72
11
 73
7
 74
0
 42
0.0000001
 43
0.0000001
 44
0.0000000001
 40
0.0
 40
0.0
 40
0.0
 40
0.0
 40
0.2583719584
 40
0.5099071531
 40
0.7563475507
 40
1.0
 40
1.0
 40
1.0
 40
1.0
 10
-53.1723466462
 20
-47.5310497222
 30
0.0
 10
-52.4851188379
 20
-47.4669466776
 30
0.0
 10
-51.1183198697
 20
-47.4305311254
 30
0.0
 10
-49.1044820959
 20
-47.6663169694
 30
0.0
 10
-47.1863094229
 20
-48.190969514
 30
0.0
 10
-45.9864259138
 20
-48.730369686
 30
0.0
 10
-45.4156415311
 20
-49.0431993384
 30
0.0
  0
SPLINE
  5
457
100
AcDbEntity
  8
0
100
AcDbSpline
 62
7
  6
CONTINUOUS
 70
0
 71
3
 72
20
 73
16
 74
0
 42
0.0000001
 43
0.0000001
 44
0.0000000001
 40
0.0
 40
0.0
 40
0.0
 40
0.0
 40
0.0580005975
 40
0.118739513
 40
0.1821809982
 40
0.248012557
 40
0.384311453
 40
0.5222478495
 40
0.5899978938
 40
0.6559032505
 40
0.7798885359
 40
0.8379793575
 40
0.8935908363
 40
0.9473100611
 40
1.0
 40
1.0
 40
1.0
 40
1.0
 10
-58.4379279104
 20
-86.044019511
 30
0.0
 10
-57.553186148
 20
-85.9614928148
 30
0.0
 10
-55.7549097945
 20
-85.6179493626
 30
0.0
 10
-53.1318963023
 20
-84.630920443
 30
0.0
 10
-50.5894472702
 20
-83.1901042257
 30
0.0
 10
-47.3640981544
 20
-80.6911936465
 30
0.0
 10
-43.9300384045
 20
-76.6913305414
 30
0.0
 10
-41.5698839117
 20
-71.9495165089
 30
0.0
 10
-40.4577671311
 20
-67.9278549634
 30
0.0
 10
-39.921343645
 20
-64.0100292085
 30
0.0
 10
-40.2061642752
 20
-60.147094384
 30
0.0
 10
-41.402741605
 20
-56.6897185076
 30
0.0
 10
-42.6860573203
 20
-54.4493497014
 30
0.0
 10
-44.3408468371
 20
-52.5760043394
 30
0.0
 10
-45.6691897851
 20
-51.6047518904
 30
0.0
 10
-46.3691616777
 20
-51.2026990243
 30
0.0
  0
SPLINE
  5
458
100
AcDbEntity
  8
0
100
AcDbSpline
 62
7
  6
CONTINUOUS
 70
0
 71
3
 72
20
 73
16
 74
0
 42
0.0000001
 43
0.0000001
 44
0.0000000001
 40
0.0
 40
0.0
 40
0.0
 40
0.0
 40
0.0526921195
 40
0.1064880342
 40
0.1622217389
 40
0.2204491545
 40
0.344661693
 40
0.4106209803
 40
0.4783808045
 40
0.6162223309
 40
0.7523288266
 40
0.8180559156
 40
0.8814017761
 40
0.9420603004
 40
1.0
 40
1.0
 40
1.0
 40
1.0
 10
-66.9280622463
 20
-86.5001653003
 30
0.0
 10
-67.7006684515
 20
-86.0356661819
 30
0.0
 10
-69.1636497907
 20
-84.9218213408
 30
0.0
 10
-70.9770184256
 20
-82.7957556345
 30
0.0
 10
-72.3751005795
 20
-80.268027937
 30
0.0
 10
-73.6648586103
 20
-76.3830166028
 30
0.0
 10
-73.9424763706
 20
-72.0609012013
 30
0.0
 10
-73.3102105099
 20
-67.6854803504
 30
0.0
 10
-72.0400975902
 20
-63.2030480783
 30
0.0
 10
-69.3810129103
 20
-57.925718572
 30
0.0
 10
-65.5346691586
 20
-53.4785495581
 30
0.0
 10
-61.9304667049
 20
-50.702173745
 30
0.0
 10
-59.0920571644
 20
-49.1017332676
 30
0.0
 10
-56.1652055781
 20
-48.005157609
 30
0.0
 10
-54.1593284135
 20
-47.6231131332
 30
0.0
 10
-53.1723466462
 20
-47.5310497222
 30
0.0
  0
SPLINE
  5
459
100
AcDbEntity
  8
0
100
AcDbSpline
 62
7
  6
CONTINUOUS
 70
0
 71
3
 72
11
 73
7
 74
0
 42
0.0000001
 43
0.0000001
 44
0.0000000001
 40
0.0
 40
0.0
 40
0.0
 40
0.0
 40
0.2437037014
 40
0.4900475266
 40
0.7415248694
 40
1.0
 40
1.0
 40
1.0
 40
1.0
 10
-65.5440288145
 20
-84.5879266104
 30
0.0
 10
-65.0253523392
 20
-84.885846235
 30
0.0
 10
-63.9315225966
 20
-85.4007882548
 30
0.0
 10
-62.1749204722
 20
-85.9043045319
 30
0.0
 10
-60.3258655994
 20
-86.1337773196
 30
0.0
 10
-59.0695893162
 20
-86.102939448
 30
0.0
 10
-58.4379279104
 20
-86.044019511
 30
0.0
  0
SPLINE
  5
45A
100
AcDbEntity
  8
0
100
AcDbSpline
 62
7
  6
CONTINUOUS
 70
0
 71
3
 72
9
 73
5
 74
0
 42
0.0000001
 43
0.0000001
 44
0.0000000001
 40
0.0
 40
0.0
 40
0.0
 40
0.0
 40
0.2547564001
 40
1.0
 40
1.0
 40
1.0
 40
1.0
 10
-60.8658730073
 20
-89.1609240905
 30
0.0
 10
-61.2060290348
 20
-89.3423675745
 30
0.0
 10
-62.5559711139
 20
-90.0264639131
 30
0.0
 10
-63.965134868
 20
-90.5951248803
 30
0.0
 10
-65.0383479509
 20
-90.9416718889
 30
0.0
  0
SPLINE
  5
45B
100
AcDbEntity
  8
0
100
AcDbSpline
 62
7
  6
CONTINUOUS
 70
0
 71
3
 72
9
 73
5
 74
0
 42
0.0000001
 43
0.0000001
 44
0.0000000001
 40
0.0
 40
0.0
 40
0.0
 40
0.0
 40
0.5145493824
 40
1.0
 40
1.0
 40
1.0
 40
1.0
 10
-65.1688160942
 20
-91.3280137626
 30
0.0
 10
-65.2228035897
 20
-91.4878898807
 30
0.0
 10
-65.3972002957
 20
-91.7775957676
 30
0.0
 10
-65.6700144521
 20
-91.9790893761
 30
0.0
 10
-65.8170076716
 20
-92.0402322202
 30
0.0
  0
SPLINE
  5
45C
100
AcDbEntity
  8
0
100
AcDbSpline
 62
7
  6
CONTINUOUS
 70
0
 71
3
 72
9
 73
5
 74
0
 42
0.0000001
 43
0.0000001
 44
0.0000000001
 40
0.0
 40
0.0
 40
0.0
 40
0.0
 40
0.51600226
 40
1.0
 40
1.0
 40
1.0
 40
1.0
 10
-65.8170076716
 20
-92.0402322202
 30
0.0
 10
-67.5504347775
 20
-92.7612653476
 30
0.0
 10
-71.0807019795
 20
-93.7932371412
 30
0.0
 10
-74.7731999921
 20
-93.870960244
 30
0.0
 10
-76.5193008935
 20
-93.6426568006
 30
0.0
  0
SPLINE
  5
45D
100
AcDbEntity
  8
0
100
AcDbSpline
 62
7
  6
CONTINUOUS
 70
0
 71
3
 72
9
 73
5
 74
0
 42
0.0000001
 43
0.0000001
 44
0.0000000001
 40
0.0
 40
0.0
 40
0.0
 40
0.0
 40
0.5307978502
 40
1.0
 40
1.0
 40
1.0
 40
1.0
 10
-76.7604319161
 20
-93.9764590182
 30
0.0
 10
-76.8557800438
 20
-94.1084556266
 30
0.0
 10
-77.0893174794
 20
-94.3235401751
 30
0.0
 10
-77.3999846599
 20
-94.4120187076
 30
0.0
 10
-77.5438593101
 20
-94.407793283
 30
0.0
  0
SPLINE
  5
45E
100
AcDbEntity
  8
0
100
AcDbSpline
 62
7
  6
CONTINUOUS
 70
0
 71
3
 72
9
 73
5
 74
0
 42
0.0000001
 43
0.0000001
 44
0.0000000001
 40
0.0
 40
0.0
 40
0.0
 40
0.0
 40
0.5064536858
 40
1.0
 40
1.0
 40
1.0
 40
1.0
 10
-77.5438593101
 20
-94.407793283
 30
0.0
 10
-78.9330309167
 20
-94.3669968153
 30
0.0
 10
-81.6788276565
 20
-93.9740581622
 30
0.0
 10
-84.2449348094
 20
-92.9103510922
 30
0.0
 10
-85.4193390765
 20
-92.2357833894
 30
0.0
  0
SPLINE
  5
45F
100
AcDbEntity
  8
0
100
AcDbSpline
 62
7
  6
CONTINUOUS
 70
0
 71
3
 72
10
 73
6
 74
0
 42
0.0000001
 43
0.0000001
 44
0.0000000001
 40
0.0
 40
0.0
 40
0.0
 40
0.0
 40
0.5289036268
 40
0.7692302102
 40
1.0
 40
1.0
 40
1.0
 40
1.0
 10
-87.3061515823
 20
-91.4359139585
 30
0.0
 10
-87.425802021
 20
-91.5234264245
 30
0.0
 10
-87.6365357682
 20
-91.6141092575
 30
0.0
 10
-87.9201594154
 20
-91.6022732565
 30
0.0
 10
-88.0463961668
 20
-91.5548865348
 30
0.0
 10
-88.1023989051
 20
-91.5225280746
 30
0.0
  0
SPLINE
  5
460
100
AcDbEntity
  8
0
100
AcDbSpline
 62
7
  6
CONTINUOUS
 70
0
 71
3
 72
9
 73
5
 74
0
 42
0.0000001
 43
0.0000001
 44
0.0000000001
 40
0.0
 40
0.0
 40
0.0
 40
0.0
 40
0.515595796
 40
1.0
 40
1.0
 40
1.0
 40
1.0
 10
-95.200484871
 20
-84.0931535388
 30
0.0
 10
-95.2963740632
 20
-84.1190218663
 30
0.0
 10
-95.4968459547
 20
-84.1310493437
 30
0.0
 10
-95.6788700639
 20
-84.0442438848
 30
0.0
 10
-95.7511151295
 20
-83.9851913671
 30
0.0
  0
SPLINE
  5
461
100
AcDbEntity
  8
0
100
AcDbSpline
 62
7
  6
CONTINUOUS
 70
0
 71
3
 72
9
 73
5
 74
0
 42
0.0000001
 43
0.0000001
 44
0.0000000001
 40
0.0
 40
0.0
 40
0.0
 40
0.0
 40
0.5000817141
 40
1.0
 40
1.0
 40
1.0
 40
1.0
 10
-99.2415911012
 20
-73.0660464707
 30
0.0
 10
-99.2995667095
 20
-73.0549277531
 30
0.0
 10
-99.4127257413
 20
-73.0132681595
 30
0.0
 10
-99.5055946298
 20
-72.9368024041
 30
0.0
 10
-99.5451352055
 20
-72.8929952974
 30
0.0
  0
SPLINE
  5
462
100
AcDbEntity
  8
0
100
AcDbSpline
 62
7
  6
CONTINUOUS
 70
0
 71
3
 72
11
 73
7
 74
0
 42
0.0000001
 43
0.0000001
 44
0.0000000001
 40
0.0
 40
0.0
 40
0.0
 40
0.0
 40
0.2438873875
 40
0.4904046139
 40
0.7418180717
 40
1.0
 40
1.0
 40
1.0
 40
1.0
 10
-51.6753065107
 20
-28.2640855899
 30
0.0
 10
-50.956354431
 20
-28.6854097152
 30
0.0
 10
-49.5751135924
 20
-29.6482182723
 30
0.0
 10
-47.7387854555
 20
-31.409139171
 30
0.0
 10
-46.1579090266
 20
-33.4639685808
 30
0.0
 10
-45.3015446768
 20
-34.9875746606
 30
0.0
 10
-44.921434805
 20
-35.7836324928
 30
0.0
  0
SPLINE
  5
463
100
AcDbEntity
  8
0
100
AcDbSpline
 62
7
  6
CONTINUOUS
 70
0
 71
3
 72
9
 73
5
 74
0
 42
0.0000001
 43
0.0000001
 44
0.0000000001
 40
0.0
 40
0.0
 40
0.0
 40
0.0
 40
0.4835382298
 40
1.0
 40
1.0
 40
1.0
 40
1.0
 10
-43.8867159933
 20
-35.9662902772
 30
0.0
 10
-42.955957445
 20
-37.5130629816
 30
0.0
 10
-41.4936128791
 20
-41.003499072
 30
0.0
 10
-40.9381022174
 20
-44.731975333
 30
0.0
 10
-40.8543882517
 20
-46.6582918573
 30
0.0
  0
SPLINE
  5
464
100
AcDbEntity
  8
0
100
AcDbSpline
 62
7
  6
CONTINUOUS
 70
0
 71
3
 72
10
 73
6
 74
0
 42
0.0000001
 43
0.0000001
 44
0.0000000001
 40
0.0
 40
0.0
 40
0.0
 40
0.0
 40
0.2400373847
 40
0.4811151291
 40
1.0
 40
1.0
 40
1.0
 40
1.0
 10
-40.5392604833
 20
-46.718736418
 30
0.0
 10
-40.475513829
 20
-46.7309619222
 30
0.0
 10
-40.350916971
 20
-46.7793868126
 30
0.0
 10
-40.1471924905
 20
-46.9643931025
 30
0.0
 10
-40.0738970873
 20
-47.1717702862
 30
0.0
 10
-40.0569389432
 20
-47.311053126
 30
0.0
  0
SPLINE
  5
465
100
AcDbEntity
  8
0
100
AcDbSpline
 62
7
  6
CONTINUOUS
 70
0
 71
3
 72
9
 73
5
 74
0
 42
0.0000001
 43
0.0000001
 44
0.0000000001
 40
0.0
 40
0.0
 40
0.0
 40
0.0
 40
0.2437671909
 40
1.0
 40
1.0
 40
1.0
 40
1.0
 10
-40.0569389432
 20
-47.311053126
 30
0.0
 10
-39.9860078144
 20
-47.8936288021
 30
0.0
 10
-39.7769817923
 20
-50.2931438459
 30
0.0
 10
-39.8879973848
 20
-52.7175583749
 30
0.0
 10
-40.1283734242
 20
-54.5222769773
 30
0.0
  0
SPLINE
  5
466
100
AcDbEntity
  8
0
100
AcDbSpline
 62
7
  6
CONTINUOUS
 70
0
 71
3
 72
9
 73
5
 74
0
 42
0.0000001
 43
0.0000001
 44
0.0000000001
 40
0.0
 40
0.0
 40
0.0
 40
0.0
 40
0.4900364455
 40
1.0
 40
1.0
 40
1.0
 40
1.0
 10
-95.7288285841
 20
-73.3662153073
 30
0.0
 10
-95.9260171144
 20
-73.4782944919
 30
0.0
 10
-96.292360327
 20
-73.7708291555
 30
0.0
 10
-96.5556937732
 20
-74.1720107616
 30
0.0
 10
-96.6264951144
 20
-74.3971802086
 30
0.0
  0
SPLINE
  5
467
100
AcDbEntity
  8
0
100
AcDbSpline
 62
7
  6
CONTINUOUS
 70
0
 71
3
 72
9
 73
5
 74
0
 42
0.0000001
 43
0.0000001
 44
0.0000000001
 40
0.0
 40
0.0
 40
0.0
 40
0.0
 40
0.4960993056
 40
1.0
 40
1.0
 40
1.0
 40
1.0
 10
-87.1380880703
 20
-86.8625924619
 30
0.0
 10
-88.087789949
 20
-86.2789304808
 30
0.0
 10
-89.8983140807
 20
-84.9248658728
 30
0.0
 10
-91.4377373927
 20
-83.270507408
 30
0.0
 10
-92.1365017164
 20
-82.3796025769
 30
0.0
  0
SPLINE
  5
468
100
AcDbEntity
  8
0
100
AcDbSpline
 62
7
  6
CONTINUOUS
 70
0
 71
3
 72
9
 73
5
 74
0
 42
0.0000001
 43
0.0000001
 44
0.0000000001
 40
0.0
 40
0.0
 40
0.0
 40
0.0
 40
0.4880717397
 40
1.0
 40
1.0
 40
1.0
 40
1.0
 10
-92.1365017164
 20
-82.3796025769
 30
0.0
 10
-93.0987205324
 20
-81.1528006886
 30
0.0
 10
-94.7812873765
 20
-78.4026978008
 30
0.0
 10
-95.8516486705
 20
-75.3683910059
 30
0.0
 10
-96.2525570748
 20
-73.7829479953
 30
0.0
  0
SPLINE
  5
469
100
AcDbEntity
  8
0
100
AcDbSpline
 62
7
  6
CONTINUOUS
 70
0
 71
3
 72
11
 73
7
 74
0
 42
0.0000001
 43
0.0000001
 44
0.0000000001
 40
0.0
 40
0.0
 40
0.0
 40
0.0
 40
0.2489423914
 40
0.4967659569
 40
0.7462644902
 40
1.0
 40
1.0
 40
1.0
 40
1.0
 10
-95.8455430744
 20
-59.9028167626
 30
0.0
 10
-95.9264700238
 20
-59.8553196269
 30
0.0
 10
-96.0757618847
 20
-59.7373174035
 30
0.0
 10
-96.2373976315
 20
-59.5016602356
 30
0.0
 10
-96.316971803
 20
-59.2247856182
 30
0.0
 10
-96.3067575062
 20
-59.0312969934
 30
0.0
 10
-96.2865137241
 20
-58.9378214892
 30
0.0
  0
SPLINE
  5
46A
100
AcDbEntity
  8
0
100
AcDbSpline
 62
7
  6
CONTINUOUS
 70
0
 71
3
 72
9
 73
5
 74
0
 42
0.0000001
 43
0.0000001
 44
0.0000000001
 40
0.0
 40
0.0
 40
0.0
 40
0.0
 40
0.4964971618
 40
1.0
 40
1.0
 40
1.0
 40
1.0
 10
-44.3236952461
 20
-35.6727991805
 30
0.0
 10
-44.2350076638
 20
-35.6844122621
 30
0.0
 10
-44.0589879727
 20
-35.7501809085
 30
0.0
 10
-43.9334836802
 20
-35.8885696209
 30
0.0
 10
-43.8867159933
 20
-35.9662902772
 30
0.0
  0
SPLINE
  5
46B
100
AcDbEntity
  8
0
100
AcDbSpline
 62
7
  6
CONTINUOUS
 70
0
 71
3
 72
9
 73
5
 74
0
 42
0.0000001
 43
0.0000001
 44
0.0000000001
 40
0.0
 40
0.0
 40
0.0
 40
0.0
 40
0.2455453588
 40
1.0
 40
1.0
 40
1.0
 40
1.0
 10
-105.3648613492
 20
-61.2250373833
 30
0.0
 10
-105.3374448239
 20
-60.3344446144
 30
0.0
 10
-105.0871664044
 20
-56.7124634099
 30
0.0
 10
-104.2986408392
 20
-53.1323854973
 30
0.0
 10
-103.4470674793
 20
-50.5304942509
 30
0.0
  0
SPLINE
  5
46C
100
AcDbEntity
  8
0
100
AcDbSpline
 62
7
  6
CONTINUOUS
 70
0
 71
3
 72
9
 73
5
 74
0
 42
0.0000001
 43
0.0000001
 44
0.0000000001
 40
0.0
 40
0.0
 40
0.0
 40
0.0
 40
0.2541060565
 40
1.0
 40
1.0
 40
1.0
 40
1.0
 10
-96.2601960687
 20
-37.2543009946
 30
0.0
 10
-95.6710962167
 20
-36.5183118442
 30
0.0
 10
-93.2562342904
 20
-33.7011968621
 30
0.0
 10
-90.4525057
 20
-31.2121508893
 30
0.0
 10
-88.1875086096
 20
-29.6223982986
 30
0.0
  0
SPLINE
  5
46D
100
AcDbEntity
  8
0
100
AcDbSpline
 62
7
  6
CONTINUOUS
 70
0
 71
3
 72
13
 73
9
 74
0
 42
0.0000001
 43
0.0000001
 44
0.0000000001
 40
0.0
 40
0.0
 40
0.0
 40
0.0
 40
0.2569409777
 40
0.5162428351
 40
0.6433847056
 40
0.7669618132
 40
0.8860151234
 40
1.0
 40
1.0
 40
1.0
 40
1.0
 10
-96.286513795
 20
-58.9378182865
 30
0.0
 10
-95.5494435492
 20
-55.5596837724
 30
0.0
 10
-93.1460879892
 20
-48.9493337528
 30
0.0
 10
-88.2405597843
 20
-41.7022088153
 30
0.0
 10
-83.3697354967
 20
-36.8426609873
 30
0.0
 10
-79.3951357417
 20
-33.8212725656
 30
0.0
 10
-75.184691048
 20
-31.484414654
 30
0.0
 10
-72.2239975062
 20
-30.4010926257
 30
0.0
 10
-70.7430682321
 20
-30.0015684296
 30
0.0
  0
LINE
  5
46E
100
AcDbEntity
  8
0
100
AcDbLine
 62
7
  6
CONTINUOUS
 10
-92.5005946031
 20
-70.5625676571
 11
-92.849332178
 21
-71.7295502905
  0
SPLINE
  5
46F
100
AcDbEntity
  8
0
100
AcDbSpline
 62
7
  6
CONTINUOUS
 70
0
 71
3
 72
9
 73
5
 74
0
 42
0.0000001
 43
0.0000001
 44
0.0000000001
 40
0.0
 40
0.0
 40
0.0
 40
0.0
 40
0.2554370578
 40
1.0
 40
1.0
 40
1.0
 40
1.0
 10
-93.0124557998
 20
-65.4144799299
 30
0.0
 10
-93.0123811049
 20
-65.8554004031
 30
0.0
 10
-92.9708896038
 20
-67.5811473316
 30
0.0
 10
-92.7607202642
 20
-69.30394641
 30
0.0
 10
-92.5005946031
 20
-70.5625676571
 30
0.0
  0
SPLINE
  5
470
100
AcDbEntity
  8
0
100
AcDbSpline
 62
7
  6
CONTINUOUS
 70
0
 71
3
 72
9
 73
5
 74
0
 42
0.0000001
 43
0.0000001
 44
0.0000000001
 40
0.0
 40
0.0
 40
0.0
 40
0.0
 40
0.254273395
 40
1.0
 40
1.0
 40
1.0
 40
1.0
 10
-92.5023855481
 20
-59.9907025631
 30
0.0
 10
-92.5867259277
 20
-60.4450370026
 30
0.0
 10
-92.8793000355
 20
-62.23877301
 30
0.0
 10
-93.0126853839
 20
-64.0592552732
 30
0.0
 10
-93.0124557998
 20
-65.4144799299
 30
0.0
  0
SPLINE
  5
471
100
AcDbEntity
  8
0
100
AcDbSpline
 62
7
  6
CONTINUOUS
 70
0
 71
3
 72
9
 73
5
 74
0
 42
0.0000001
 43
0.0000001
 44
0.0000000001
 40
0.0
 40
0.0
 40
0.0
 40
0.0
 40
0.5113185212
 40
1.0
 40
1.0
 40
1.0
 40
1.0
 10
-70.7430682321
 20
-30.0015684296
 30
0.0
 10
-69.2399109506
 20
-29.5960701912
 30
0.0
 10
-66.2215589114
 20
-29.0620621184
 30
0.0
 10
-63.1520353924
 20
-29.1424749527
 30
0.0
 10
-61.6780009685
 20
-29.3456048648
 30
0.0
  0
SPLINE
  5
472
100
AcDbEntity
  8
0
100
AcDbSpline
 62
7
  6
CONTINUOUS
 70
0
 71
3
 72
9
 73
5
 74
0
 42
0.0000001
 43
0.0000001
 44
0.0000000001
 40
0.0
 40
0.0
 40
0.0
 40
0.0
 40
0.503898857
 40
1.0
 40
1.0
 40
1.0
 40
1.0
 10
-61.6780009685
 20
-29.3456048648
 30
0.0
 10
-60.5560988167
 20
-29.5002090462
 30
0.0
 10
-58.3508697303
 20
-29.9962603315
 30
0.0
 10
-56.2684497771
 20
-30.877973435
 30
0.0
 10
-55.2855238516
 20
-31.4043153573
 30
0.0
  0
SPLINE
  5
473
100
AcDbEntity
  8
0
100
AcDbSpline
 62
7
  6
CONTINUOUS
 70
0
 71
3
 72
9
 73
5
 74
0
 42
0.0000001
 43
0.0000001
 44
0.0000000001
 40
0.0
 40
0.0
 40
0.0
 40
0.0
 40
0.4835382539
 40
1.0
 40
1.0
 40
1.0
 40
1.0
 10
-95.8941440477
 20
-83.8184784595
 30
0.0
 10
-96.8248998906
 20
-82.2717070975
 30
0.0
 10
-98.2872402705
 20
-78.7812754593
 30
0.0
 10
-98.8427494932
 20
-75.0528046542
 30
0.0
 10
-98.9264633328
 20
-73.1264910313
 30
0.0
  0
SPLINE
  5
474
100
AcDbEntity
  8
0
100
AcDbSpline
 62
7
  6
CONTINUOUS
 70
0
 71
3
 72
8
 73
4
 74
0
 42
0.0000001
 43
0.0000001
 44
0.0000000001
 40
0.0
 40
0.0
 40
0.0
 40
0.0
 40
1.0
 40
1.0
 40
1.0
 40
1.0
 10
-53.5920892359
 20
-28.0266890381
 30
0.0
 10
-53.5723137885
 20
-28.0122214339
 30
0.0
 10
-53.5504147019
 20
-28.0003266937
 30
0.0
 10
-53.5275714102
 20
-27.9914630647
 30
0.0
  0
SPLINE
  5
475
100
AcDbEntity
  8
0
100
AcDbSpline
 62
7
  6
CONTINUOUS
 70
0
 71
3
 72
11
 73
7
 74
0
 42
0.0000001
 43
0.0000001
 44
0.0000000001
 40
0.0
 40
0.0
 40
0.0
 40
0.0
 40
0.1582179873
 40
0.3693887386
 40
0.6489844366
 40
1.0
 40
1.0
 40
1.0
 40
1.0
 10
-53.5275714102
 20
-27.9914630647
 30
0.0
 10
-53.4715715364
 20
-27.969734055
 30
0.0
 10
-53.3258964958
 20
-27.9609389967
 30
0.0
 10
-53.0871503415
 20
-28.0263655475
 30
0.0
 10
-52.7942423433
 20
-28.1564119682
 30
0.0
 10
-52.5872480665
 20
-28.2775106102
 30
0.0
 10
-52.4746995507
 20
-28.3488692267
 30
0.0
  0
SPLINE
  5
476
100
AcDbEntity
  8
0
100
AcDbSpline
 62
7
  6
CONTINUOUS
 70
0
 71
3
 72
9
 73
5
 74
0
 42
0.0000001
 43
0.0000001
 44
0.0000000001
 40
0.0
 40
0.0
 40
0.0
 40
0.0
 40
0.4962885078
 40
1.0
 40
1.0
 40
1.0
 40
1.0
 10
-99.0118033034
 20
-59.2135863569
 30
0.0
 10
-98.5361315129
 20
-57.1092796259
 30
0.0
 10
-97.1643970687
 20
-52.9545029718
 30
0.0
 10
-95.069799545
 20
-49.1155683374
 30
0.0
 10
-93.8529419804
 20
-47.2951562522
 30
0.0
  0
SPLINE
  5
477
100
AcDbEntity
  8
0
100
AcDbSpline
 62
7
  6
CONTINUOUS
 70
0
 71
3
 72
9
 73
5
 74
0
 42
0.0000001
 43
0.0000001
 44
0.0000000001
 40
0.0
 40
0.0
 40
0.0
 40
0.0
 40
0.4742967486
 40
1.0
 40
1.0
 40
1.0
 40
1.0
 10
-93.9835160536
 20
-46.9792305345
 30
0.0
 10
-94.0410702608
 20
-46.839986415
 30
0.0
 10
-94.0627502892
 20
-46.5060738104
 30
0.0
 10
-93.9501290205
 20
-46.2011791858
 30
0.0
 10
-93.8662282254
 20
-46.0567848726
 30
0.0
  0
SPLINE
  5
478
100
AcDbEntity
  8
0
100
AcDbSpline
 62
7
  6
CONTINUOUS
 70
0
 71
3
 72
9
 73
5
 74
0
 42
0.0000001
 43
0.0000001
 44
0.0000000001
 40
0.0
 40
0.0
 40
0.0
 40
0.0
 40
0.5060547469
 40
1.0
 40
1.0
 40
1.0
 40
1.0
 10
-93.8662282254
 20
-46.0567848726
 30
0.0
 10
-92.7696069141
 20
-44.169482317
 30
0.0
 10
-90.2646224046
 20
-40.626155221
 30
0.0
 10
-87.1525741588
 20
-37.5968243157
 30
0.0
 10
-85.4847717076
 20
-36.2710673961
 30
0.0
  0
SPLINE
  5
479
100
AcDbEntity
  8
0
100
AcDbSpline
 62
7
  6
CONTINUOUS
 70
0
 71
3
 72
12
 73
8
 74
0
 42
0.0000001
 43
0.0000001
 44
0.0000000001
 40
0.0
 40
0.0
 40
0.0
 40
0.0
 40
0.1476848245
 40
0.2424643332
 40
0.3546150002
 40
0.6358944516
 40
1.0
 40
1.0
 40
1.0
 40
1.0
 10
-63.5531466464
 20
-24.2145552693
 30
0.0
 10
-63.6037168302
 20
-24.2845708242
 30
0.0
 10
-63.6364123206
 20
-24.4336839759
 30
0.0
 10
-63.6166575652
 20
-24.639423869
 30
0.0
 10
-63.5455302395
 20
-24.9175493835
 30
0.0
 10
-63.3515829735
 20
-25.3192230673
 30
0.0
 10
-63.1433523349
 20
-25.6344602322
 30
0.0
 10
-63.0204193031
 20
-25.8083244145
 30
0.0
  0
SPLINE
  5
47A
100
AcDbEntity
  8
0
100
AcDbSpline
 62
7
  6
CONTINUOUS
 70
0
 71
3
 72
10
 73
6
 74
0
 42
0.0000001
 43
0.0000001
 44
0.0000000001
 40
0.0
 40
0.0
 40
0.0
 40
0.0
 40
0.1164001925
 40
0.3147366748
 40
1.0
 40
1.0
 40
1.0
 40
1.0
 10
-64.0743192419
 20
-24.9360251178
 30
0.0
 10
-64.0870914626
 20
-24.9537058853
 30
0.0
 10
-64.0872651546
 20
-25.0193258956
 30
0.0
 10
-64.0207662662
 20
-25.191713407
 30
0.0
 10
-63.9276507226
 20
-25.3329179555
 30
0.0
 10
-63.8530775331
 20
-25.4374510233
 30
0.0
  0
SPLINE
  5
47B
100
AcDbEntity
  8
0
100
AcDbSpline
 62
7
  6
CONTINUOUS
 70
0
 71
3
 72
9
 73
5
 74
0
 42
0.0000001
 43
0.0000001
 44
0.0000000001
 40
0.0
 40
0.0
 40
0.0
 40
0.0
 40
0.2442115495
 40
1.0
 40
1.0
 40
1.0
 40
1.0
 10
-85.4848290372
 20
-35.8910029151
 30
0.0
 10
-85.4848427256
 20
-35.810202903
 30
0.0
 10
-85.4414873351
 20
-35.4800178902
 30
0.0
 10
-85.2552674716
 20
-35.1748862068
 30
0.0
 10
-85.0705545681
 20
-35.0063290685
 30
0.0
  0
SPLINE
  5
47C
100
AcDbEntity
  8
0
100
AcDbSpline
 62
7
  6
CONTINUOUS
 70
0
 71
3
 72
9
 73
5
 74
0
 42
0.0000001
 43
0.0000001
 44
0.0000000001
 40
0.0
 40
0.0
 40
0.0
 40
0.0
 40
0.5141147661
 40
1.0
 40
1.0
 40
1.0
 40
1.0
 10
-85.0705545681
 20
-35.0063290685
 30
0.0
 10
-83.5394276621
 20
-33.6091184431
 30
0.0
 10
-80.2980364287
 20
-31.1626023374
 30
0.0
 10
-76.6067190986
 20
-29.4450774714
 30
0.0
 10
-74.7425036337
 20
-28.8431109998
 30
0.0
  0
SPLINE
  5
47D
100
AcDbEntity
  8
0
100
AcDbSpline
 62
7
  6
CONTINUOUS
 70
0
 71
3
 72
9
 73
5
 74
0
 42
0.0000001
 43
0.0000001
 44
0.0000000001
 40
0.0
 40
0.0
 40
0.0
 40
0.0
 40
0.2630909065
 40
1.0
 40
1.0
 40
1.0
 40
1.0
 10
-96.6264951144
 20
-74.3971802086
 30
0.0
 10
-96.6382019923
 20
-74.4344115826
 30
0.0
 10
-96.6756811279
 20
-74.5776295548
 30
0.0
 10
-96.6806822228
 20
-74.7324228844
 30
0.0
 10
-96.6543501444
 20
-74.8385217522
 30
0.0
  0
SPLINE
  5
47E
100
AcDbEntity
  8
0
100
AcDbSpline
 62
7
  6
CONTINUOUS
 70
0
 71
3
 72
11
 73
7
 74
0
 42
0.0000001
 43
0.0000001
 44
0.0000000001
 40
0.0
 40
0.0
 40
0.0
 40
0.0
 40
0.2451910045
 40
0.5009801971
 40
0.7599321861
 40
1.0
 40
1.0
 40
1.0
 40
1.0
 10
-44.0520230004
 20
-46.4185675814
 30
0.0
 10
-43.9216178049
 20
-46.3444471042
 30
0.0
 10
-43.6707231666
 20
-46.1642099143
 30
0.0
 10
-43.3542963564
 20
-45.8183225643
 30
0.0
 10
-43.1300062458
 20
-45.4100316115
 30
0.0
 10
-43.0911253892
 20
-45.0888005475
 30
0.0
 10
-43.1265014401
 20
-44.9462611364
 30
0.0
  0
SPLINE
  5
47F
100
AcDbEntity
  8
0
100
AcDbSpline
 62
7
  6
CONTINUOUS
 70
0
 71
3
 72
9
 73
5
 74
0
 42
0.0000001
 43
0.0000001
 44
0.0000000001
 40
0.0
 40
0.0
 40
0.0
 40
0.0
 40
0.2862568848
 40
1.0
 40
1.0
 40
1.0
 40
1.0
 10
-75.7832328044
 20
-24.4929982888
 30
0.0
 10
-75.780246144
 20
-24.4930009663
 30
0.0
 10
-75.7698448164
 20
-24.4931970621
 30
0.0
 10
-75.759232242
 20
-24.4937121601
 30
0.0
 10
-75.7520981882
 20
-24.4958477389
 30
0.0
  0
SPLINE
  5
480
100
AcDbEntity
  8
0
100
AcDbSpline
 62
7
  6
CONTINUOUS
 70
0
 71
3
 72
11
 73
7
 74
0
 42
0.0000001
 43
0.0000001
 44
0.0000000001
 40
0.0
 40
0.0
 40
0.0
 40
0.0
 40
0.2393075122
 40
0.4830732387
 40
0.735649239
 40
1.0
 40
1.0
 40
1.0
 40
1.0
 10
-55.2855238516
 20
-31.4043153573
 30
0.0
 10
-54.0520512585
 20
-32.0648212193
 30
0.0
 10
-51.7073238248
 20
-33.6910496177
 30
0.0
 10
-48.7913855951
 20
-36.8984485298
 30
0.0
 10
-46.547344529
 20
-40.7736308272
 30
0.0
 10
-45.563813226
 20
-43.6530248486
 30
0.0
 10
-45.1921859078
 20
-45.1532922416
 30
0.0
  0
LINE
  5
481
100
AcDbEntity
  8
0
100
AcDbLine
 62
7
  6
CONTINUOUS
 10
-88.1055602667
 20
-91.5206917685
 11
-88.1630346092
 21
-91.4874154945
  0
SPLINE
  5
482
100
AcDbEntity
  8
0
100
AcDbSpline
 62
7
  6
CONTINUOUS
 70
0
 71
3
 72
10
 73
6
 74
0
 42
0.0000001
 43
0.0000001
 44
0.0000000001
 40
0.0
 40
0.0
 40
0.0
 40
0.0
 40
0.539297389
 40
0.798115549
 40
1.0
 40
1.0
 40
1.0
 40
1.0
 10
-86.5042648791
 20
-29.0270438772
 30
0.0
 10
-86.486251908
 20
-29.0189220307
 30
0.0
 10
-86.4590456781
 20
-29.0072604974
 30
0.0
 10
-86.4245105869
 20
-28.9971216307
 30
0.0
 10
-86.4066525224
 20
-28.9942474464
 30
0.0
 10
-86.3997403189
 20
-28.9968808619
 30
0.0
  0
SPLINE
  5
483
100
AcDbEntity
  8
0
100
AcDbSpline
 62
7
  6
CONTINUOUS
 70
0
 71
3
 72
15
 73
11
 74
0
 42
0.0000001
 43
0.0000001
 44
0.0000000001
 40
0.0
 40
0.0
 40
0.0
 40
0.0
 40
0.1322727164
 40
0.2588936179
 40
0.3811597685
 40
0.5009786114
 40
0.620648509
 40
0.7424919838
 40
0.8684811587
 40
1.0
 40
1.0
 40
1.0
 40
1.0
 10
-43.1265014401
 20
-44.9462611364
 30
0.0
 10
-43.4982499678
 20
-43.448389391
 30
0.0
 10
-44.4704806161
 20
-40.568961164
 30
0.0
 10
-46.6586721749
 20
-36.66655132
 30
0.0
 10
-49.4911008465
 20
-33.3870386917
 30
0.0
 10
-52.891871402
 20
-30.8311761772
 30
0.0
 10
-56.7621925519
 20
-29.0768890779
 30
0.0
 10
-60.9864704222
 20
-28.1741236957
 30
0.0
 10
-65.4397224762
 20
-28.141323694
 30
0.0
 10
-68.4140926843
 20
-28.6830638921
 30
0.0
 10
-69.8956451533
 20
-29.0827469306
 30
0.0
  0
SPLINE
  5
484
100
AcDbEntity
  8
0
100
AcDbSpline
 62
7
  6
CONTINUOUS
 70
0
 71
3
 72
9
 73
5
 74
0
 42
0.0000001
 43
0.0000001
 44
0.0000000001
 40
0.0
 40
0.0
 40
0.0
 40
0.0
 40
0.2455116782
 40
1.0
 40
1.0
 40
1.0
 40
1.0
 10
-98.3183587697
 20
-81.5650174344
 30
0.0
 10
-98.5625077718
 20
-81.3103402658
 30
0.0
 10
-99.5379510341
 20
-80.2550095569
 30
0.0
 10
-100.4351360015
 20
-79.1268879843
 30
0.0
 10
-101.0584349848
 20
-78.2397587197
 30
0.0
  0
SPLINE
  5
485
100
AcDbEntity
  8
0
100
AcDbSpline
 62
7
  6
CONTINUOUS
 70
0
 71
3
 72
13
 73
9
 74
0
 42
0.0000001
 43
0.0000001
 44
0.0000000001
 40
0.0
 40
0.0
 40
0.0
 40
0.0
 40
0.1139613722
 40
0.23292969
 40
0.3563870597
 40
0.4834083697
 40
0.7426467084
 40
1.0
 40
1.0
 40
1.0
 40
1.0
 10
-69.8956451533
 20
-29.0827469306
 30
0.0
 10
-71.4272910604
 20
-29.4959438324
 30
0.0
 10
-74.4894482795
 20
-30.6124812466
 30
0.0
 10
-78.8488927526
 20
-33.0154250181
 30
0.0
 10
-82.9704114093
 20
-36.1196288877
 30
0.0
 10
-88.0350967004
 20
-41.1138673702
 30
0.0
 10
-93.1686581752
 20
-48.5718076293
 30
0.0
 10
-95.7303855135
 20
-55.3842432189
 30
0.0
 10
-96.5411782253
 20
-58.8737799215
 30
0.0
  0
SPLINE
  5
486
100
AcDbEntity
  8
0
100
AcDbSpline
 62
7
  6
CONTINUOUS
 70
0
 71
3
 72
10
 73
6
 74
0
 42
0.0000001
 43
0.0000001
 44
0.0000000001
 40
0.0
 40
0.0
 40
0.0
 40
0.0
 40
0.5444691296
 40
0.8038189355
 40
1.0
 40
1.0
 40
1.0
 40
1.0
 10
-95.810290088
 20
-37.6375016854
 30
0.0
 10
-95.7887358636
 20
-37.6166961012
 30
0.0
 10
-95.7551141745
 20
-37.5854364778
 30
0.0
 10
-95.7134918449
 20
-37.5554454513
 30
0.0
 10
-95.686439533
 20
-37.540126874
 30
0.0
 10
-95.676845587
 20
-37.5450736957
 30
0.0
  0
SPLINE
  5
487
100
AcDbEntity
  8
0
100
AcDbSpline
 62
7
  6
CONTINUOUS
 70
0
 71
3
 72
11
 73
7
 74
0
 42
0.0000001
 43
0.0000001
 44
0.0000000001
 40
0.0
 40
0.0
 40
0.0
 40
0.0
 40
0.2775264704
 40
0.5219134116
 40
0.7578370254
 40
1.0
 40
1.0
 40
1.0
 40
1.0
 10
-96.6569676781
 20
-59.3873422625
 30
0.0
 10
-96.6872776079
 20
-59.5260126129
 30
0.0
 10
-96.6731293917
 20
-59.8114881923
 30
0.0
 10
-96.4329847762
 20
-60.1370204633
 30
0.0
 10
-96.1001972358
 20
-60.3161645638
 30
0.0
 10
-95.8548376411
 20
-60.3566084981
 30
0.0
 10
-95.7310318814
 20
-60.3601752756
 30
0.0
  0
SPLINE
  5
488
100
AcDbEntity
  8
0
100
AcDbSpline
 62
7
  6
CONTINUOUS
 70
0
 71
3
 72
9
 73
5
 74
0
 42
0.0000001
 43
0.0000001
 44
0.0000000001
 40
0.0
 40
0.0
 40
0.0
 40
0.0
 40
0.1434819116
 40
1.0
 40
1.0
 40
1.0
 40
1.0
 10
-103.110328643
 20
-50.6041913392
 30
0.0
 10
-103.1091228116
 20
-50.6054217443
 30
0.0
 10
-103.09950722
 20
-50.6127125731
 30
0.0
 10
-103.0889989393
 20
-50.6185572322
 30
0.0
 10
-103.0800313193
 20
-50.6235915472
 30
0.0
  0
SPLINE
  5
489
100
AcDbEntity
  8
0
100
AcDbSpline
 62
7
  6
CONTINUOUS
 70
0
 71
3
 72
10
 73
6
 74
0
 42
0.0000001
 43
0.0000001
 44
0.0000000001
 40
0.0
 40
0.0
 40
0.0
 40
0.0
 40
0.5626067088
 40
0.82065461
 40
1.0
 40
1.0
 40
1.0
 40
1.0
 10
-102.2730892037
 20
-48.9643439115
 30
0.0
 10
-102.2581935492
 20
-48.9370149258
 30
0.0
 10
-102.2333128197
 20
-48.8957440891
 30
0.0
 10
-102.2055523509
 20
-48.8554043968
 30
0.0
 10
-102.1792431782
 20
-48.8334324499
 30
0.0
 10
-102.1710590913
 20
-48.8390416886
 30
0.0
  0
SPLINE
  5
48A
100
AcDbEntity
  8
0
100
AcDbSpline
 62
7
  6
CONTINUOUS
 70
0
 71
3
 72
9
 73
5
 74
0
 42
0.0000001
 43
0.0000001
 44
0.0000000001
 40
0.0
 40
0.0
 40
0.0
 40
0.0
 40
0.7129676341
 40
1.0
 40
1.0
 40
1.0
 40
1.0
 10
-103.0972384337
 20
-50.6554014959
 30
0.0
 10
-103.1049220889
 20
-50.651177179
 30
0.0
 10
-103.112198146
 20
-50.644865698
 30
0.0
 10
-103.1284195286
 20
-50.638108386
 30
0.0
 10
-103.1275506452
 20
-50.6346869689
 30
0.0
  0
SPLINE
  5
48B
100
AcDbEntity
  8
0
100
AcDbSpline
 62
7
  6
CONTINUOUS
 70
0
 71
3
 72
9
 73
5
 74
0
 42
0.0000001
 43
0.0000001
 44
0.0000000001
 40
0.0
 40
0.0
 40
0.0
 40
0.0
 40
0.2383430643
 40
1.0
 40
1.0
 40
1.0
 40
1.0
 10
-99.5451352055
 20
-72.8929952974
 30
0.0
 10
-99.5696226882
 20
-72.8658655515
 30
0.0
 10
-99.6620725147
 20
-72.7427017053
 30
0.0
 10
-99.7097973384
 20
-72.5896634088
 30
0.0
 10
-99.7239126413
 20
-72.4737297627
 30
0.0
  0
SPLINE
  5
48C
100
AcDbEntity
  8
0
100
AcDbSpline
 62
7
  6
CONTINUOUS
 70
0
 71
3
 72
11
 73
7
 74
0
 42
0.0000001
 43
0.0000001
 44
0.0000000001
 40
0.0
 40
0.0
 40
0.0
 40
0.0
 40
0.2327228119
 40
0.480603048
 40
0.7377749145
 40
1.0
 40
1.0
 40
1.0
 40
1.0
 10
-99.7239177934
 20
-72.473712711
 30
0.0
 10
-100.6839377692
 20
-71.3898916369
 30
0.0
 10
-102.4110047535
 20
-68.9162926836
 30
0.0
 10
-104.2175126213
 20
-64.6603258548
 30
0.0
 10
-105.0727771823
 20
-59.9216033237
 30
0.0
 10
-104.8608401798
 20
-56.6560884848
 30
0.0
 10
-104.5456579536
 20
-55.0554157485
 30
0.0
  0
SPLINE
  5
48D
100
AcDbEntity
  8
0
100
AcDbSpline
 62
7
  6
CONTINUOUS
 70
0
 71
3
 72
9
 73
5
 74
0
 42
0.0000001
 43
0.0000001
 44
0.0000000001
 40
0.0
 40
0.0
 40
0.0
 40
0.0
 40
0.2543146888
 40
1.0
 40
1.0
 40
1.0
 40
1.0
 10
-92.8512441718
 20
-60.4431402184
 30
0.0
 10
-92.9423254736
 20
-60.9282780851
 30
0.0
 10
-93.2582600235
 20
-62.8434797407
 30
0.0
 10
-93.4024024327
 20
-64.7878819049
 30
0.0
 10
-93.4021572431
 20
-66.2352246972
 30
0.0
  0
SPLINE
  5
48E
100
AcDbEntity
  8
0
100
AcDbSpline
 62
7
  6
CONTINUOUS
 70
0
 71
3
 72
9
 73
5
 74
0
 42
0.0000001
 43
0.0000001
 44
0.0000000001
 40
0.0
 40
0.0
 40
0.0
 40
0.0
 40
0.6138697123
 40
1.0
 40
1.0
 40
1.0
 40
1.0
 10
-104.9386453102
 20
-61.2579404507
 30
0.0
 10
-104.9342438382
 20
-61.2355844275
 30
0.0
 10
-104.9323152257
 20
-61.2107534747
 30
0.0
 10
-104.9046177066
 20
-61.1501051715
 30
0.0
 10
-104.8936934896
 20
-61.1593826158
 30
0.0
  0
SPLINE
  5
48F
100
AcDbEntity
  8
0
100
AcDbSpline
 62
7
  6
CONTINUOUS
 70
0
 71
3
 72
9
 73
5
 74
0
 42
0.0000001
 43
0.0000001
 44
0.0000000001
 40
0.0
 40
0.0
 40
0.0
 40
0.0
 40
0.2555060665
 40
1.0
 40
1.0
 40
1.0
 40
1.0
 10
-93.4021572431
 20
-66.2352246972
 30
0.0
 10
-93.4020774918
 20
-66.7059931862
 30
0.0
 10
-93.357285193
 20
-68.548054776
 30
0.0
 10
-93.1303226705
 20
-70.3869124802
 30
0.0
 10
-92.849332178
 20
-71.7295502905
 30
0.0
  0
SPLINE
  5
490
100
AcDbEntity
  8
0
100
AcDbSpline
 62
7
  6
CONTINUOUS
 70
0
 71
3
 72
9
 73
5
 74
0
 42
0.0000001
 43
0.0000001
 44
0.0000000001
 40
0.0
 40
0.0
 40
0.0
 40
0.0
 40
0.3469331586
 40
1.0
 40
1.0
 40
1.0
 40
1.0
 10
-97.0614481909
 20
-38.9617856328
 30
0.0
 10
-97.0661280974
 20
-38.9598775549
 30
0.0
 10
-97.0790930582
 20
-38.9553356409
 30
0.0
 10
-97.0974892352
 20
-38.9516691917
 30
0.0
 10
-97.1042788169
 20
-38.9583331874
 30
0.0
  0
SPLINE
  5
491
100
AcDbEntity
  8
0
100
AcDbSpline
 62
7
  6
CONTINUOUS
 70
0
 71
3
 72
11
 73
7
 74
0
 42
0.0000001
 43
0.0000001
 44
0.0000000001
 40
0.0
 40
0.0
 40
0.0
 40
0.0
 40
0.2316400788
 40
0.4773370987
 40
0.733990828
 40
1.0
 40
1.0
 40
1.0
 40
1.0
 10
-99.011801959
 20
-59.2135669865
 30
0.0
 10
-99.7567869223
 20
-58.0988775054
 30
0.0
 10
-100.956471545
 20
-55.5662852164
 30
0.0
 10
-101.7487552072
 20
-51.3474797359
 30
0.0
 10
-101.4107219655
 20
-46.8612873458
 30
0.0
 10
-100.362031418
 20
-43.975019263
 30
0.0
 10
-99.6437799792
 20
-42.6131702617
 30
0.0
  0
SPLINE
  5
492
100
AcDbEntity
  8
0
100
AcDbSpline
 62
7
  6
CONTINUOUS
 70
0
 71
3
 72
9
 73
5
 74
0
 42
0.0000001
 43
0.0000001
 44
0.0000000001
 40
0.0
 40
0.0
 40
0.0
 40
0.0
 40
0.5145493824
 40
1.0
 40
1.0
 40
1.0
 40
1.0
 10
-74.6120354903
 20
-28.4567691262
 30
0.0
 10
-74.5580479948
 20
-28.296893008
 30
0.0
 10
-74.3836512889
 20
-28.0071871211
 30
0.0
 10
-74.1108371325
 20
-27.8056935126
 30
0.0
 10
-73.963843913
 20
-27.7445506685
 30
0.0
  0
SPLINE
  5
493
100
AcDbEntity
  8
0
100
AcDbSpline
 62
7
  6
CONTINUOUS
 70
0
 71
3
 72
15
 73
11
 74
0
 42
0.0000001
 43
0.0000001
 44
0.0000000001
 40
0.0
 40
0.0
 40
0.0
 40
0.0
 40
0.1322727164
 40
0.2588936179
 40
0.3811597685
 40
0.5009786114
 40
0.620648509
 40
0.7424919838
 40
0.8684811587
 40
1.0
 40
1.0
 40
1.0
 40
1.0
 10
-96.6543501444
 20
-74.8385217522
 30
0.0
 10
-96.2826016167
 20
-76.3363934977
 30
0.0
 10
-95.3103709684
 20
-79.2158217247
 30
0.0
 10
-93.1221794096
 20
-83.1182315686
 30
0.0
 10
-90.289750738
 20
-86.397744197
 30
0.0
 10
-86.8889801825
 20
-88.9536067115
 30
0.0
 10
-83.0186590326
 20
-90.7078938107
 30
0.0
 10
-78.7943811623
 20
-91.610659193
 30
0.0
 10
-74.3411291083
 20
-91.6434591947
 30
0.0
 10
-71.3667589002
 20
-91.1017189966
 30
0.0
 10
-69.8852064313
 20
-90.7020359581
 30
0.0
  0
SPLINE
  5
494
100
AcDbEntity
  8
0
100
AcDbSpline
 62
7
  6
CONTINUOUS
 70
0
 71
3
 72
9
 73
5
 74
0
 42
0.0000001
 43
0.0000001
 44
0.0000000001
 40
0.0
 40
0.0
 40
0.0
 40
0.0
 40
0.2439203783
 40
1.0
 40
1.0
 40
1.0
 40
1.0
 10
-69.8852064313
 20
-90.7020359581
 30
0.0
 10
-69.316770587
 20
-90.5486872444
 30
0.0
 10
-67.0067937355
 20
-89.8454090565
 30
0.0
 10
-64.7871971992
 20
-88.8541659338
 30
0.0
 10
-63.1868217339
 20
-87.977060453
 30
0.0
  0
SPLINE
  5
495
100
AcDbEntity
  8
0
100
AcDbSpline
 62
7
  6
CONTINUOUS
 70
0
 71
3
 72
9
 73
5
 74
0
 42
0.0000001
 43
0.0000001
 44
0.0000000001
 40
0.0
 40
0.0
 40
0.0
 40
0.0
 40
0.4723175222
 40
1.0
 40
1.0
 40
1.0
 40
1.0
 10
-98.9139505686
 20
-59.922450062
 30
0.0
 10
-98.9790639167
 20
-59.8276682801
 30
0.0
 10
-99.0587725306
 20
-59.5865690044
 30
0.0
 10
-99.0401294651
 20
-59.3388968928
 30
0.0
 10
-99.0118033034
 20
-59.2135863569
 30
0.0
  0
SPLINE
  5
496
100
AcDbEntity
  8
0
100
AcDbSpline
 62
7
  6
CONTINUOUS
 70
0
 71
3
 72
9
 73
5
 74
0
 42
0.0000001
 43
0.0000001
 44
0.0000000001
 40
0.0
 40
0.0
 40
0.0
 40
0.0
 40
0.2447516221
 40
1.0
 40
1.0
 40
1.0
 40
1.0
 10
-86.0652815778
 20
-34.6352252638
 30
0.0
 10
-86.0361377799
 20
-34.774041613
 30
0.0
 10
-85.8976911636
 20
-35.3370511182
 30
0.0
 10
-85.6823866111
 20
-35.880524627
 30
0.0
 10
-85.484764208
 20
-36.2710650949
 30
0.0
  0
SPLINE
  5
497
100
AcDbEntity
  8
0
100
AcDbSpline
 62
7
  6
CONTINUOUS
 70
0
 71
3
 72
11
 73
7
 74
0
 42
0.0000001
 43
0.0000001
 44
0.0000000001
 40
0.0
 40
0.0
 40
0.0
 40
0.0
 40
0.2346875131
 40
0.4782535955
 40
0.732184061
 40
1.0
 40
1.0
 40
1.0
 40
1.0
 10
-94.0042510536
 20
-45.784606681
 30
0.0
 10
-94.5093609081
 20
-44.7501544317
 30
0.0
 10
-95.1823338303
 20
-42.4534371196
 30
0.0
 10
-95.0938499029
 20
-38.8088471676
 30
0.0
 10
-93.8429616297
 20
-35.2054015393
 30
0.0
 10
-92.2659402813
 20
-33.128638954
 30
0.0
 10
-91.3273281907
 20
-32.209520449
 30
0.0
  0
SPLINE
  5
498
100
AcDbEntity
  8
0
100
AcDbSpline
 62
7
  6
CONTINUOUS
 70
0
 71
3
 72
9
 73
5
 74
0
 42
0.0000001
 43
0.0000001
 44
0.0000000001
 40
0.0
 40
0.0
 40
0.0
 40
0.0
 40
0.247108502
 40
1.0
 40
1.0
 40
1.0
 40
1.0
 10
-91.1102005772
 20
-32.0014671652
 30
0.0
 10
-90.9836291148
 20
-31.8829446647
 30
0.0
 10
-90.4622701383
 20
-31.4131474173
 30
0.0
 10
-89.9054494776
 20
-30.9829030835
 30
0.0
 10
-89.4707998333
 20
-30.682568516
 30
0.0
  0
SPLINE
  5
499
100
AcDbEntity
  8
0
100
AcDbSpline
 62
7
  6
CONTINUOUS
 70
0
 71
3
 72
9
 73
5
 74
0
 42
0.0000001
 43
0.0000001
 44
0.0000000001
 40
0.0
 40
0.0
 40
0.0
 40
0.0
 40
0.51600226
 40
1.0
 40
1.0
 40
1.0
 40
1.0
 10
-73.963843913
 20
-27.7445506685
 30
0.0
 10
-72.2304168071
 20
-27.023517541
 30
0.0
 10
-68.7001496051
 20
-25.9915457475
 30
0.0
 10
-65.0076515925
 20
-25.9138226447
 30
0.0
 10
-63.261550691
 20
-26.1421260881
 30
0.0
  0
SPLINE
  5
49A
100
AcDbEntity
  8
0
100
AcDbSpline
 62
7
  6
CONTINUOUS
 70
0
 71
3
 72
8
 73
4
 74
0
 42
0.0000001
 43
0.0000001
 44
0.0000000001
 40
0.0
 40
0.0
 40
0.0
 40
0.0
 40
1.0
 40
1.0
 40
1.0
 40
1.0
 10
-96.6569677546
 20
-59.3873418973
 30
0.0
 10
-96.5331594424
 20
-59.2377690601
 30
0.0
 10
-96.4103260019
 20
-59.0873910437
 30
0.0
 10
-96.2865137241
 20
-58.9378214892
 30
0.0
  0
SPLINE
  5
49B
100
AcDbEntity
  8
0
100
AcDbSpline
 62
7
  6
CONTINUOUS
 70
0
 71
3
 72
8
 73
4
 74
0
 42
0.0000001
 43
0.0000001
 44
0.0000000001
 40
0.0
 40
0.0
 40
0.0
 40
0.0
 40
1.0
 40
1.0
 40
1.0
 40
1.0
 10
-46.195537995
 20
-45.7799003183
 30
0.0
 10
-46.1368048523
 20
-45.8315186931
 30
0.0
 10
-46.0848254684
 20
-45.8935235108
 30
0.0
 10
-46.0488267546
 20
-45.9629362709
 30
0.0
  0
SPLINE
  5
49C
100
AcDbEntity
  8
0
100
AcDbSpline
 62
7
  6
CONTINUOUS
 70
0
 71
3
 72
8
 73
4
 74
0
 42
0.0000001
 43
0.0000001
 44
0.0000000001
 40
0.0
 40
0.0
 40
0.0
 40
0.0
 40
1.0
 40
1.0
 40
1.0
 40
1.0
 10
-46.0488267546
 20
-45.9629362709
 30
0.0
 10
-46.0284805024
 20
-46.0021679368
 30
0.0
 10
-46.0131521498
 20
-46.0445109195
 30
0.0
 10
-46.0042476067
 20
-46.0877983623
 30
0.0
  0
SPLINE
  5
49D
100
AcDbEntity
  8
0
100
AcDbSpline
 62
7
  6
CONTINUOUS
 70
0
 71
3
 72
13
 73
9
 74
0
 42
0.0000001
 43
0.0000001
 44
0.0000000001
 40
0.0
 40
0.0
 40
0.0
 40
0.0
 40
0.2471076764
 40
0.4890313839
 40
0.6113500251
 40
0.7361398134
 40
0.8650911015
 40
1.0
 40
1.0
 40
1.0
 40
1.0
 10
-85.0705420733
 20
-35.0063136564
 30
0.0
 10
-85.4122550478
 20
-34.2582821427
 30
0.0
 10
-85.8395168303
 20
-32.6480518426
 30
0.0
 10
-85.6392598278
 20
-30.5775870367
 30
0.0
 10
-85.0517901859
 20
-29.0513951034
 30
0.0
 10
-84.3940225787
 20
-27.9782086482
 30
0.0
 10
-83.5271063558
 20
-27.00946931
 30
0.0
 10
-82.8321033014
 20
-26.4645800514
 30
0.0
 10
-82.4578928743
 20
-26.2164822897
 30
0.0
  0
SPLINE
  5
49E
100
AcDbEntity
  8
0
100
AcDbSpline
 62
7
  6
CONTINUOUS
 70
0
 71
3
 72
9
 73
5
 74
0
 42
0.0000001
 43
0.0000001
 44
0.0000000001
 40
0.0
 40
0.0
 40
0.0
 40
0.0
 40
0.2440150988
 40
1.0
 40
1.0
 40
1.0
 40
1.0
 10
-82.426954342
 20
-26.1960676519
 30
0.0
 10
-82.3156663567
 20
-26.1229834238
 30
0.0
 10
-81.8525987874
 20
-25.8342180609
 30
0.0
 10
-81.3627947593
 20
-25.5887607721
 30
0.0
 10
-80.9830918534
 20
-25.4276159212
 30
0.0
  0
SPLINE
  5
49F
100
AcDbEntity
  8
0
100
AcDbSpline
 62
7
  6
CONTINUOUS
 70
0
 71
3
 72
9
 73
5
 74
0
 42
0.0000001
 43
0.0000001
 44
0.0000000001
 40
0.0
 40
0.0
 40
0.0
 40
0.0
 40
0.2459639922
 40
1.0
 40
1.0
 40
1.0
 40
1.0
 10
-80.7735631956
 20
-25.3414374979
 30
0.0
 10
-80.6901788492
 20
-25.3082866622
 30
0.0
 10
-80.349360607
 20
-25.1780841446
 30
0.0
 10
-80.0016791957
 20
-25.0659775456
 30
0.0
 10
-79.7369753299
 20
-24.9911119246
 30
0.0
  0
SPLINE
  5
4A0
100
AcDbEntity
  8
0
100
AcDbSpline
 62
7
  6
CONTINUOUS
 70
0
 71
3
 72
9
 73
5
 74
0
 42
0.0000001
 43
0.0000001
 44
0.0000000001
 40
0.0
 40
0.0
 40
0.0
 40
0.0
 40
0.4946710191
 40
1.0
 40
1.0
 40
1.0
 40
1.0
 10
-86.1624320743
 20
-33.4123550029
 30
0.0
 10
-86.123024179
 20
-33.8357871151
 30
0.0
 10
-85.9674798941
 20
-34.6864136862
 30
0.0
 10
-85.6671003808
 20
-35.4966669803
 30
0.0
 10
-85.4848285929
 20
-35.891003908
 30
0.0
  0
SPLINE
  5
4A1
100
AcDbEntity
  8
0
100
AcDbSpline
 62
7
  6
CONTINUOUS
 70
0
 71
3
 72
9
 73
5
 74
0
 42
0.0000001
 43
0.0000001
 44
0.0000000001
 40
0.0
 40
0.0
 40
0.0
 40
0.0
 40
0.2470764604
 40
1.0
 40
1.0
 40
1.0
 40
1.0
 10
-74.9561157732
 20
-25.469081173
 30
0.0
 10
-74.9713495574
 20
-25.5142789261
 30
0.0
 10
-75.0284687264
 20
-25.6987172596
 30
0.0
 10
-75.0673303835
 20
-25.8887281181
 30
0.0
 10
-75.0866607291
 20
-26.0327823045
 30
0.0
  0
SPLINE
  5
4A2
100
AcDbEntity
  8
0
100
AcDbSpline
 62
7
  6
CONTINUOUS
 70
0
 71
3
 72
9
 73
5
 74
0
 42
0.0000001
 43
0.0000001
 44
0.0000000001
 40
0.0
 40
0.0
 40
0.0
 40
0.0
 40
0.4710535956
 40
1.0
 40
1.0
 40
1.0
 40
1.0
 10
-75.1097103498
 20
-26.2705358119
 30
0.0
 10
-75.1311734455
 20
-26.6248888468
 30
0.0
 10
-75.0558898372
 20
-27.3870190522
 30
0.0
 10
-74.7852749077
 20
-28.097749245
 30
0.0
 10
-74.6120351274
 20
-28.4567699147
 30
0.0
  0
SPLINE
  5
4A3
100
AcDbEntity
  8
0
100
AcDbSpline
 62
7
  6
CONTINUOUS
 70
0
 71
3
 72
9
 73
5
 74
0
 42
0.0000001
 43
0.0000001
 44
0.0000000001
 40
0.0
 40
0.0
 40
0.0
 40
0.0
 40
0.27026856
 40
1.0
 40
1.0
 40
1.0
 40
1.0
 10
-74.7425367523
 20
-28.8432314965
 30
0.0
 10
-74.8014603264
 20
-28.7424711208
 30
0.0
 10
-75.0080067273
 20
-28.3633474665
 30
0.0
 10
-75.1694899271
 20
-27.9575944595
 30
0.0
 10
-75.245674209
 20
-27.6517819189
 30
0.0
  0
SPLINE
  5
4A4
100
AcDbEntity
  8
0
100
AcDbSpline
 62
7
  6
CONTINUOUS
 70
0
 71
3
 72
9
 73
5
 74
0
 42
0.0000001
 43
0.0000001
 44
0.0000000001
 40
0.0
 40
0.0
 40
0.0
 40
0.0
 40
0.5288900032
 40
1.0
 40
1.0
 40
1.0
 40
1.0
 10
-75.245674209
 20
-27.6517819189
 30
0.0
 10
-75.3044891437
 20
-27.4156919521
 30
0.0
 10
-75.3700394216
 20
-26.9550500523
 30
0.0
 10
-75.3012506134
 20
-26.4910909495
 30
0.0
 10
-75.231912023
 20
-26.2857572206
 30
0.0
  0
SPLINE
  5
4A5
100
AcDbEntity
  8
0
100
AcDbSpline
 62
7
  6
CONTINUOUS
 70
0
 71
3
 72
9
 73
5
 74
0
 42
0.0000001
 43
0.0000001
 44
0.0000000001
 40
0.0
 40
0.0
 40
0.0
 40
0.0
 40
0.5307978502
 40
1.0
 40
1.0
 40
1.0
 40
1.0
 10
-63.0204196685
 20
-25.8083238706
 30
0.0
 10
-62.9250715408
 20
-25.6763272622
 30
0.0
 10
-62.6915341052
 20
-25.4612427136
 30
0.0
 10
-62.3808669247
 20
-25.3727641811
 30
0.0
 10
-62.2369922745
 20
-25.3769896056
 30
0.0
  0
SPLINE
  5
4A6
100
AcDbEntity
  8
0
100
AcDbSpline
 62
7
  6
CONTINUOUS
 70
0
 71
3
 72
9
 73
5
 74
0
 42
0.0000001
 43
0.0000001
 44
0.0000000001
 40
0.0
 40
0.0
 40
0.0
 40
0.0
 40
0.2054519376
 40
1.0
 40
1.0
 40
1.0
 40
1.0
 10
-63.8530775331
 20
-25.4374510233
 30
0.0
 10
-63.8164697653
 20
-25.4887660106
 30
0.0
 10
-63.6321407749
 20
-25.7341452782
 30
0.0
 10
-63.4282186011
 20
-25.9642368124
 30
0.0
 10
-63.2615444533
 20
-26.1421296241
 30
0.0
  0
SPLINE
  5
4A7
100
AcDbEntity
  8
0
100
AcDbSpline
 62
7
  6
CONTINUOUS
 70
0
 71
3
 72
13
 73
9
 74
0
 42
0.0000001
 43
0.0000001
 44
0.0000000001
 40
0.0
 40
0.0
 40
0.0
 40
0.0
 40
0.2815907465
 40
0.5236611646
 40
0.6379117538
 40
0.7523609773
 40
0.8715638279
 40
1.0
 40
1.0
 40
1.0
 40
1.0
 10
-73.9638284616
 20
-27.7445409308
 30
0.0
 10
-74.1865773583
 20
-27.291277674
 30
0.0
 10
-74.4909503438
 20
-26.381635144
 30
0.0
 10
-74.4142569615
 20
-25.2015599435
 30
0.0
 10
-74.0613339042
 20
-24.4256422089
 30
0.0
 10
-73.6677242169
 20
-23.9331171154
 30
0.0
 10
-73.1466488866
 20
-23.5358527116
 30
0.0
 10
-72.739081967
 20
-23.3500173147
 30
0.0
 10
-72.521495048
 20
-23.2743965791
 30
0.0
  0
SPLINE
  5
4A8
100
AcDbEntity
  8
0
100
AcDbSpline
 62
7
  6
CONTINUOUS
 70
0
 71
3
 72
9
 73
5
 74
0
 42
0.0000001
 43
0.0000001
 44
0.0000000001
 40
0.0
 40
0.0
 40
0.0
 40
0.0
 40
0.2390059494
 40
1.0
 40
1.0
 40
1.0
 40
1.0
 10
-72.1821442076
 20
-23.1737314461
 30
0.0
 10
-72.1128034201
 20
-23.1564672955
 30
0.0
 10
-71.8208295705
 20
-23.091732227
 30
0.0
 10
-71.5227098736
 20
-23.0561022999
 30
0.0
 10
-71.2955953866
 20
-23.0425094621
 30
0.0
  0
SPLINE
  5
4A9
100
AcDbEntity
  8
0
100
AcDbSpline
 62
7
  6
CONTINUOUS
 70
0
 71
3
 72
9
 73
5
 74
0
 42
0.0000001
 43
0.0000001
 44
0.0000000001
 40
0.0
 40
0.0
 40
0.0
 40
0.0
 40
0.2331085601
 40
1.0
 40
1.0
 40
1.0
 40
1.0
 10
-71.2955953866
 20
-23.0425094621
 30
0.0
 10
-71.1697229549
 20
-23.0349759772
 30
0.0
 10
-70.6287005281
 20
-23.0205188528
 30
0.0
 10
-70.0869832082
 20
-23.0734288829
 30
0.0
 10
-69.6777572719
 20
-23.1414584912
 30
0.0
  0
SPLINE
  5
4AA
100
AcDbEntity
  8
0
100
AcDbSpline
 62
7
  6
CONTINUOUS
 70
0
 71
3
 72
9
 73
5
 74
0
 42
0.0000001
 43
0.0000001
 44
0.0000000001
 40
0.0
 40
0.0
 40
0.0
 40
0.0
 40
0.2419484161
 40
1.0
 40
1.0
 40
1.0
 40
1.0
 10
-69.6779189104
 20
-23.14141593
 30
0.0
 10
-69.6021485574
 20
-23.1540119602
 30
0.0
 10
-69.2896482571
 20
-23.2100522995
 30
0.0
 10
-68.9799550192
 20
-23.2813999029
 30
0.0
 10
-68.7472231848
 20
-23.3426429695
 30
0.0
  0
SPLINE
  5
4AB
100
AcDbEntity
  8
0
100
AcDbSpline
 62
7
  6
CONTINUOUS
 70
0
 71
3
 72
9
 73
5
 74
0
 42
0.0000001
 43
0.0000001
 44
0.0000000001
 40
0.0
 40
0.0
 40
0.0
 40
0.0
 40
0.5064536907
 40
1.0
 40
1.0
 40
1.0
 40
1.0
 10
-62.2369922745
 20
-25.3769896056
 30
0.0
 10
-60.8478023609
 20
-25.417786611
 30
0.0
 10
-58.1019692111
 20
-25.8107346505
 30
0.0
 10
-55.5358328564
 20
-26.8744692942
 30
0.0
 10
-54.3614177592
 20
-27.5490539227
 30
0.0
  0
SPLINE
  5
4AC
100
AcDbEntity
  8
0
100
AcDbSpline
 62
7
  6
CONTINUOUS
 70
0
 71
3
 72
9
 73
5
 74
0
 42
0.0000001
 43
0.0000001
 44
0.0000000001
 40
0.0
 40
0.0
 40
0.0
 40
0.0
 40
0.4938590883
 40
1.0
 40
1.0
 40
1.0
 40
1.0
 10
-45.3409713495
 20
-45.0727445677
 30
0.0
 10
-45.2823316177
 20
-45.3078423824
 30
0.0
 10
-45.3623302013
 20
-45.8315562447
 30
0.0
 10
-45.6984728906
 20
-46.2313881625
 30
0.0
 10
-45.9126251179
 20
-46.3571054741
 30
0.0
  0
SPLINE
  5
4AD
100
AcDbEntity
  8
0
100
AcDbSpline
 62
7
  6
CONTINUOUS
 70
0
 71
3
 72
11
 73
7
 74
0
 42
0.0000001
 43
0.0000001
 44
0.0000000001
 40
0.0
 40
0.0
 40
0.0
 40
0.0
 40
0.2520492766
 40
0.5214485838
 40
0.7776673258
 40
1.0
 40
1.0
 40
1.0
 40
1.0
 10
-45.1921668695
 20
-45.1532909048
 30
0.0
 10
-45.1614692848
 20
-45.2755152499
 30
0.0
 10
-45.1397696173
 20
-45.5390672134
 30
0.0
 10
-45.1944169478
 20
-45.926595459
 30
0.0
 10
-45.3216755396
 20
-46.2808578791
 30
0.0
 10
-45.4541231269
 20
-46.484637406
 30
0.0
 10
-45.5301465724
 20
-46.5657395148
 30
0.0
  0
SPLINE
  5
4AE
100
AcDbEntity
  8
0
100
AcDbSpline
 62
7
  6
CONTINUOUS
 70
0
 71
3
 72
10
 73
6
 74
0
 42
0.0000001
 43
0.0000001
 44
0.0000000001
 40
0.0
 40
0.0
 40
0.0
 40
0.0
 40
0.2514527622
 40
0.6224064273
 40
1.0
 40
1.0
 40
1.0
 40
1.0
 10
-45.5301467774
 20
-46.5657397476
 30
0.0
 10
-45.562119183
 20
-46.5480849088
 30
0.0
 10
-45.642919267
 20
-46.5074294505
 30
0.0
 10
-45.7670518093
 20
-46.4317548697
 30
0.0
 10
-45.8643537686
 20
-46.3830973154
 30
0.0
 10
-45.9126324538
 20
-46.3570760587
 30
0.0
  0
SPLINE
  5
4AF
100
AcDbEntity
  8
0
100
AcDbSpline
 62
7
  6
CONTINUOUS
 70
0
 71
3
 72
8
 73
4
 74
0
 42
0.0000001
 43
0.0000001
 44
0.0000000001
 40
0.0
 40
0.0
 40
0.0
 40
0.0
 40
1.0
 40
1.0
 40
1.0
 40
1.0
 10
-45.1921668695
 20
-45.1532909048
 30
0.0
 10
-44.5036673616
 20
-45.0837281607
 30
0.0
 10
-43.8150013666
 20
-45.0158198819
 30
0.0
 10
-43.1265014923
 20
-44.9462607645
 30
0.0
  0
SPLINE
  5
4B0
100
AcDbEntity
  8
0
100
AcDbSpline
 62
7
  6
CONTINUOUS
 70
0
 71
3
 72
16
 73
12
 74
0
 42
0.0000001
 43
0.0000001
 44
0.0000000001
 40
0.0
 40
0.0
 40
0.0
 40
0.0
 40
0.2175658443
 40
0.3957939881
 40
0.5360886482
 40
0.6415507636
 40
0.7201052706
 40
0.7551729171
 40
0.7915133279
 40
0.8792427554
 40
1.0
 40
1.0
 40
1.0
 40
1.0
 10
-62.2369763143
 20
-25.3769869702
 30
0.0
 10
-62.3334034628
 20
-25.248876801
 30
0.0
 10
-62.500050947
 20
-25.0088904897
 30
0.0
 10
-62.6909919737
 20
-24.6619491603
 30
0.0
 10
-62.8011264787
 20
-24.3678875963
 30
0.0
 10
-62.8377163014
 20
-24.1293439833
 30
0.0
 10
-62.7971623656
 20
-23.9642619751
 30
0.0
 10
-62.720042264
 20
-23.8819221122
 30
0.0
 10
-62.6140328549
 20
-23.8271771758
 30
0.0
 10
-62.4267589739
 20
-23.8219100352
 30
0.0
 10
-62.2785199956
 20
-23.8651088013
 30
0.0
 10
-62.1949987654
 20
-23.8958452463
 30
0.0
  0
SPLINE
  5
4B1
100
AcDbEntity
  8
0
100
AcDbSpline
 62
7
  6
CONTINUOUS
 70
0
 71
3
 72
11
 73
7
 74
0
 42
0.0000001
 43
0.0000001
 44
0.0000000001
 40
0.0
 40
0.0
 40
0.0
 40
0.0
 40
0.2636601332
 40
0.5160617796
 40
0.7601231809
 40
1.0
 40
1.0
 40
1.0
 40
1.0
 10
-70.7330464331
 20
-88.8095870455
 30
0.0
 10
-72.1725592937
 20
-89.1978845502
 30
0.0
 10
-75.0629186127
 20
-89.7199760449
 30
0.0
 10
-79.3889351229
 20
-89.6649549751
 30
0.0
 10
-83.482353391
 20
-88.7493359064
 30
0.0
 10
-85.9824194135
 20
-87.5728362477
 30
0.0
 10
-87.1380880703
 20
-86.8625924619
 30
0.0
  0
SPLINE
  5
4B2
100
AcDbEntity
  8
0
100
AcDbSpline
 62
7
  6
CONTINUOUS
 70
0
 71
3
 72
9
 73
5
 74
0
 42
0.0000001
 43
0.0000001
 44
0.0000000001
 40
0.0
 40
0.0
 40
0.0
 40
0.0
 40
0.5319428687
 40
1.0
 40
1.0
 40
1.0
 40
1.0
 10
-52.4747000022
 20
-28.3488689302
 30
0.0
 10
-52.3554431896
 20
-28.2616443627
 30
0.0
 10
-52.0878480414
 20
-28.1427901304
 30
0.0
 10
-51.7937626143
 20
-28.1963479754
 30
0.0
 10
-51.6808889576
 20
-28.2608548212
 30
0.0
  0
SPLINE
  5
4B3
100
AcDbEntity
  8
0
100
AcDbSpline
 62
7
  6
CONTINUOUS
 70
0
 71
3
 72
8
 73
4
 74
0
 42
0.0000001
 43
0.0000001
 44
0.0000000001
 40
0.0
 40
0.0
 40
0.0
 40
0.0
 40
1.0
 40
1.0
 40
1.0
 40
1.0
 10
-95.4656487668
 20
-60.0369959502
 30
0.0
 10
-95.5983442574
 20
-60.016310743
 30
0.0
 10
-95.729720136
 20
-59.9707948324
 30
0.0
 10
-95.8455430744
 20
-59.9028167626
 30
0.0
  0
LINE
  5
4B4
100
AcDbEntity
  8
0
100
AcDbLine
 62
7
  6
CONTINUOUS
 10
-95.9880135581
 20
-59.7285990485
 11
-96.1107202274
 21
-59.6553756353
  0
SPLINE
  5
4B5
100
AcDbEntity
  8
0
100
AcDbSpline
 62
7
  6
CONTINUOUS
 70
0
 71
3
 72
9
 73
5
 74
0
 42
0.0000001
 43
0.0000001
 44
0.0000000001
 40
0.0
 40
0.0
 40
0.0
 40
0.0
 40
0.4496517515
 40
1.0
 40
1.0
 40
1.0
 40
1.0
 10
-46.2232556582
 20
-46.3352936182
 30
0.0
 10
-46.1812498585
 20
-46.3118209598
 30
0.0
 10
-46.0686685138
 20
-46.2929982983
 30
0.0
 10
-45.9651764191
 20
-46.3305183267
 30
0.0
 10
-45.9126237625
 20
-46.3571050313
 30
0.0
  0
SPLINE
  5
4B6
100
AcDbEntity
  8
0
100
AcDbSpline
 62
7
  6
CONTINUOUS
 70
0
 71
3
 72
9
 73
5
 74
0
 42
0.0000001
 43
0.0000001
 44
0.0000000001
 40
0.0
 40
0.0
 40
0.0
 40
0.0
 40
0.4875094665
 40
1.0
 40
1.0
 40
1.0
 40
1.0
 10
-99.7239126413
 20
-72.4737297627
 30
0.0
 10
-99.9665620313
 20
-70.4807876684
 30
0.0
 10
-99.9857640598
 20
-66.3261610067
 30
0.0
 10
-99.1731443183
 20
-62.2604815186
 30
0.0
 10
-98.5730363835
 20
-60.2370599709
 30
0.0
  0
SPLINE
  5
4B7
100
AcDbEntity
  8
0
100
AcDbSpline
 62
7
  6
CONTINUOUS
 70
0
 71
3
 72
9
 73
5
 74
0
 42
0.0000001
 43
0.0000001
 44
0.0000000001
 40
0.0
 40
0.0
 40
0.0
 40
0.0
 40
0.2588057147
 40
1.0
 40
1.0
 40
1.0
 40
1.0
 10
-44.5803765645
 20
-35.6916320074
 30
0.0
 10
-44.5588628228
 20
-35.6858281779
 30
0.0
 10
-44.4747799228
 20
-35.6672190646
 30
0.0
 10
-44.3869709934
 20
-35.664513619
 30
0.0
 10
-44.3236952461
 20
-35.6727991805
 30
0.0
  0
LINE
  5
4B8
100
AcDbEntity
  8
0
100
AcDbLine
 62
7
  6
CONTINUOUS
 10
-92.8512441718
 20
-60.4431402184
 11
-92.5023855481
 21
-59.9907025631
  0
SPLINE
  5
4B9
100
AcDbEntity
  8
0
100
AcDbSpline
 62
7
  6
CONTINUOUS
 70
0
 71
3
 72
14
 73
10
 74
0
 42
0.0000001
 43
0.0000001
 44
0.0000000001
 40
0.0
 40
0.0
 40
0.0
 40
0.0
 40
0.1412912466
 40
0.262941999
 40
0.3691038917
 40
0.4698573061
 40
0.6959174359
 40
0.8381336658
 40
1.0
 40
1.0
 40
1.0
 40
1.0
 10
-45.3409859385
 20
-45.0725128018
 30
0.0
 10
-45.4015047619
 20
-45.0407201357
 30
0.0
 10
-45.5183520052
 20
-44.9887407164
 30
0.0
 10
-45.6951189021
 20
-44.9515842784
 30
0.0
 10
-45.8565009088
 20
-44.969532224
 30
0.0
 10
-46.0454427223
 20
-45.0719417218
 30
0.0
 10
-46.161863516
 20
-45.2856020769
 30
0.0
 10
-46.207839797
 20
-45.5372443476
 30
0.0
 10
-46.2146178346
 20
-45.6849167775
 30
0.0
 10
-46.2149053015
 20
-45.7632327335
 30
0.0
  0
SPLINE
  5
4BA
100
AcDbEntity
  8
0
100
AcDbSpline
 62
7
  6
CONTINUOUS
 70
0
 71
3
 72
11
 73
7
 74
0
 42
0.0000001
 43
0.0000001
 44
0.0000000001
 40
0.0
 40
0.0
 40
0.0
 40
0.0
 40
0.2438873875
 40
0.4904046139
 40
0.7418180717
 40
1.0
 40
1.0
 40
1.0
 40
1.0
 10
-88.1055450738
 20
-91.5206972988
 30
0.0
 10
-88.8244971535
 20
-91.0993731734
 30
0.0
 10
-90.205737992
 20
-90.1365646164
 30
0.0
 10
-92.0420661289
 20
-88.3756437178
 30
0.0
 10
-93.6229425578
 20
-86.3208143081
 30
0.0
 10
-94.4793069075
 20
-84.7972082283
 30
0.0
 10
-94.8594167794
 20
-84.0011503961
 30
0.0
  0
SPLINE
  5
4BB
100
AcDbEntity
  8
0
100
AcDbSpline
 62
7
  6
CONTINUOUS
 70
0
 71
3
 72
9
 73
5
 74
0
 42
0.0000001
 43
0.0000001
 44
0.0000000001
 40
0.0
 40
0.0
 40
0.0
 40
0.0
 40
0.2547983114
 40
1.0
 40
1.0
 40
1.0
 40
1.0
 10
-65.9912520801
 20
-87.0516808288
 30
0.0
 10
-66.3797587245
 20
-87.2355861477
 30
0.0
 10
-67.9194960145
 20
-87.9250632412
 30
0.0
 10
-69.5193136781
 20
-88.4821358617
 30
0.0
 10
-70.7330464331
 20
-88.8095870455
 30
0.0
  0
SPLINE
  5
4BC
100
AcDbEntity
  8
0
100
AcDbSpline
 62
7
  6
CONTINUOUS
 70
0
 71
3
 72
9
 73
5
 74
0
 42
0.0000001
 43
0.0000001
 44
0.0000000001
 40
0.0
 40
0.0
 40
0.0
 40
0.0
 40
0.245848922
 40
1.0
 40
1.0
 40
1.0
 40
1.0
 10
-44.9390426967
 20
-35.6637050784
 30
0.0
 10
-44.9095504361
 20
-35.6640057751
 30
0.0
 10
-44.7896165416
 20
-35.66729646
 30
0.0
 10
-44.6699316352
 20
-35.6787787683
 30
0.0
 10
-44.5803759566
 20
-35.6916320913
 30
0.0
  0
SPLINE
  5
4BD
100
AcDbEntity
  8
0
100
AcDbSpline
 62
7
  6
CONTINUOUS
 70
0
 71
3
 72
19
 73
15
 74
0
 42
0.0000001
 43
0.0000001
 44
0.0000000001
 40
0.0
 40
0.0
 40
0.0
 40
0.0
 40
0.1226981266
 40
0.1877967017
 40
0.2547703874
 40
0.391736439
 40
0.5284765461
 40
0.659659986
 40
0.7220543714
 40
0.7818815357
 40
0.8391689578
 40
0.8942088946
 40
0.9475591348
 40
1.0
 40
1.0
 40
1.0
 40
1.0
 10
-111.9117839072
 20
-17.1434824036
 30
0.0
 10
-113.7160723946
 20
-17.6302309461
 30
0.0
 10
-116.3654781789
 20
-18.8465947066
 30
0.0
 10
-119.5024150675
 20
-21.1403370328
 30
0.0
 10
-122.4829544347
 20
-23.9677115628
 30
0.0
 10
-125.5632031262
 20
-28.2095312177
 30
0.0
 10
-127.9618683075
 20
-33.9484169015
 30
0.0
 10
-128.7375561202
 20
-38.9831779895
 30
0.0
 10
-128.5172755956
 20
-42.8484349075
 30
0.0
 10
-127.9529419577
 20
-45.5353456801
 30
0.0
 10
-126.9978057535
 20
-47.9909055006
 30
0.0
 10
-125.6713935169
 20
-50.1549512828
 30
0.0
 10
-124.0045389335
 20
-51.9708749506
 30
0.0
 10
-122.686698407
 20
-52.9210854324
 30
0.0
 10
-121.9941083618
 20
-53.3189136552
 30
0.0
  0
SPLINE
  5
4BE
100
AcDbEntity
  8
0
100
AcDbSpline
 62
7
  6
CONTINUOUS
 70
0
 71
3
 72
9
 73
5
 74
0
 42
0.0000001
 43
0.0000001
 44
0.0000000001
 40
0.0
 40
0.0
 40
0.0
 40
0.0
 40
0.530860717
 40
1.0
 40
1.0
 40
1.0
 40
1.0
 10
-97.077856772
 20
-14.9601941514
 30
0.0
 10
-97.1006141031
 20
-14.9471234362
 30
0.0
 10
-97.1472983656
 20
-14.9278087621
 30
0.0
 10
-97.1986333365
 20
-14.9287464917
 30
0.0
 10
-97.2210243571
 20
-14.9347910964
 30
0.0
  0
SPLINE
  5
4BF
100
AcDbEntity
  8
0
100
AcDbSpline
 62
7
  6
CONTINUOUS
 70
0
 71
3
 72
10
 73
6
 74
0
 42
0.0000001
 43
0.0000001
 44
0.0000000001
 40
0.0
 40
0.0
 40
0.0
 40
0.0
 40
0.5165706122
 40
0.7641004062
 40
1.0
 40
1.0
 40
1.0
 40
1.0
 10
-89.6984569884
 20
-28.3031927964
 30
0.0
 10
-90.350102679
 20
-26.1068257265
 30
0.0
 10
-91.5461546992
 20
-22.9179705873
 30
0.0
 10
-93.581231344
 20
-18.9737848773
 30
0.0
 10
-94.7237179474
 20
-17.1552364126
 30
0.0
 10
-95.3226775756
 20
-16.297437327
 30
0.0
  0
SPLINE
  5
4C0
100
AcDbEntity
  8
0
100
AcDbSpline
 62
7
  6
CONTINUOUS
 70
0
 71
3
 72
9
 73
5
 74
0
 42
0.0000001
 43
0.0000001
 44
0.0000000001
 40
0.0
 40
0.0
 40
0.0
 40
0.0
 40
0.5370934959
 40
1.0
 40
1.0
 40
1.0
 40
1.0
 10
-95.3226775756
 20
-16.297437327
 30
0.0
 10
-95.4404983327
 20
-16.1287005159
 30
0.0
 10
-95.6841052246
 20
-15.8303487082
 30
0.0
 10
-95.9863550761
 20
-15.5871001714
 30
0.0
 10
-96.1401647182
 20
-15.4987593187
 30
0.0
  0
SPLINE
  5
4C1
100
AcDbEntity
  8
0
100
AcDbSpline
 62
7
  6
CONTINUOUS
 70
0
 71
3
 72
11
 73
7
 74
0
 42
0.0000001
 43
0.0000001
 44
0.0000000001
 40
0.0
 40
0.0
 40
0.0
 40
0.0
 40
0.316105649
 40
0.5886051061
 40
0.8120309523
 40
1.0
 40
1.0
 40
1.0
 40
1.0
 10
-101.5122906011
 20
-16.4447949336
 30
0.0
 10
-101.5148203941
 20
-16.3964607852
 30
0.0
 10
-101.5124044485
 20
-16.3057570166
 30
0.0
 10
-101.483210955
 20
-16.1837795519
 30
0.0
 10
-101.4296176995
 20
-16.0911210229
 30
0.0
 10
-101.3736756087
 20
-16.0550698905
 30
0.0
 10
-101.3458895246
 20
-16.0475688594
 30
0.0
  0
SPLINE
  5
4C2
100
AcDbEntity
  8
0
100
AcDbSpline
 62
7
  6
CONTINUOUS
 70
0
 71
3
 72
9
 73
5
 74
0
 42
0.0000001
 43
0.0000001
 44
0.0000000001
 40
0.0
 40
0.0
 40
0.0
 40
0.0
 40
0.5131922328
 40
1.0
 40
1.0
 40
1.0
 40
1.0
 10
-95.5098690169
 20
-28.4472986956
 30
0.0
 10
-96.0152205098
 20
-26.9390369425
 30
0.0
 10
-97.1639879591
 20
-24.0521898093
 30
0.0
 10
-98.6514977624
 20
-21.321471605
 30
0.0
 10
-99.4665534188
 20
-20.0516547055
 30
0.0
  0
SPLINE
  5
4C3
100
AcDbEntity
  8
0
100
AcDbSpline
 62
7
  6
CONTINUOUS
 70
0
 71
3
 72
11
 73
7
 74
0
 42
0.0000001
 43
0.0000001
 44
0.0000000001
 40
0.0
 40
0.0
 40
0.0
 40
0.0
 40
0.3111522646
 40
0.5797097393
 40
0.804402369
 40
1.0
 40
1.0
 40
1.0
 40
1.0
 10
-99.4665534188
 20
-20.0516547055
 30
0.0
 10
-99.487873036
 20
-20.0184397833
 30
0.0
 10
-99.5324900755
 20
-19.9594026908
 30
0.0
 10
-99.6099980533
 20
-19.8916425718
 30
0.0
 10
-99.6909841382
 20
-19.8543710896
 30
0.0
 10
-99.7466464825
 20
-19.8544469146
 30
0.0
 10
-99.7706068642
 20
-19.8608870344
 30
0.0
  0
SPLINE
  5
4C4
100
AcDbEntity
  8
0
100
AcDbSpline
 62
7
  6
CONTINUOUS
 70
0
 71
3
 72
11
 73
7
 74
0
 42
0.0000001
 43
0.0000001
 44
0.0000000001
 40
0.0
 40
0.0
 40
0.0
 40
0.0
 40
0.2397576108
 40
0.484006731
 40
0.7365413821
 40
1.0
 40
1.0
 40
1.0
 40
1.0
 10
-101.8231522114
 20
-18.1994021352
 30
0.0
 10
-102.5436127736
 20
-17.7855649063
 30
0.0
 10
-104.0931712546
 20
-17.1051706653
 30
0.0
 10
-106.6105355668
 20
-16.5888120658
 30
0.0
 10
-109.2609411395
 20
-16.5810632239
 30
0.0
 10
-111.0303051123
 20
-16.905683115
 30
0.0
 10
-111.9117839072
 20
-17.1434824036
 30
0.0
  0
SPLINE
  5
4C5
100
AcDbEntity
  8
0
100
AcDbSpline
 62
7
  6
CONTINUOUS
 70
0
 71
3
 72
13
 73
9
 74
0
 42
0.0000001
 43
0.0000001
 44
0.0000000001
 40
0.0
 40
0.0
 40
0.0
 40
0.0
 40
0.1240727001
 40
0.2489833455
 40
0.5000315463
 40
0.7510624442
 40
0.8759526132
 40
1.0
 40
1.0
 40
1.0
 40
1.0
 10
-104.889343186
 20
-56.1781502041
 30
0.0
 10
-104.9062029075
 20
-54.947039577
 30
0.0
 10
-104.7615962908
 20
-52.4704981631
 30
0.0
 10
-103.794408564
 20
-47.5912369874
 30
0.0
 10
-101.3770499914
 20
-41.7770884798
 30
0.0
 10
-97.5640608687
 20
-36.7663944102
 30
0.0
 10
-93.8310591865
 20
-33.4798750262
 30
0.0
 10
-91.7624676902
 20
-32.1113445321
 30
0.0
 10
-90.6895901955
 20
-31.5078273276
 30
0.0
  0
SPLINE
  5
4C6
100
AcDbEntity
  8
0
100
AcDbSpline
 62
7
  6
CONTINUOUS
 70
0
 71
3
 72
11
 73
7
 74
0
 42
0.0000001
 43
0.0000001
 44
0.0000000001
 40
0.0
 40
0.0
 40
0.0
 40
0.0
 40
0.1880074379
 40
0.4113761215
 40
0.6839917279
 40
1.0
 40
1.0
 40
1.0
 40
1.0
 10
-99.7706068642
 20
-19.8608870344
 30
0.0
 10
-99.7984059141
 20
-19.8683589193
 30
0.0
 10
-99.8543376113
 20
-19.9044440244
 30
0.0
 10
-99.9079432895
 20
-19.9970934714
 30
0.0
 10
-99.9371060143
 20
-20.1190746242
 30
0.0
 10
-99.9395424068
 20
-20.2097740684
 30
0.0
 10
-99.9370134757
 20
-20.2580917505
 30
0.0
  0
SPLINE
  5
4C7
100
AcDbEntity
  8
0
100
AcDbSpline
 62
7
  6
CONTINUOUS
 70
0
 71
3
 72
9
 73
5
 74
0
 42
0.0000001
 43
0.0000001
 44
0.0000000001
 40
0.0
 40
0.0
 40
0.0
 40
0.0
 40
0.4629065041
 40
1.0
 40
1.0
 40
1.0
 40
1.0
 10
-100.265029885
 20
-16.6115370824
 30
0.0
 10
-100.1112202429
 20
-16.6998779351
 30
0.0
 10
-99.8089703915
 20
-16.9431264718
 30
0.0
 10
-99.5653634995
 20
-17.2414782795
 30
0.0
 10
-99.4475427424
 20
-17.4102150906
 30
0.0
  0
SPLINE
  5
4C8
100
AcDbEntity
  8
0
100
AcDbSpline
 62
7
  6
CONTINUOUS
 70
0
 71
3
 72
10
 73
6
 74
0
 42
0.0000001
 43
0.0000001
 44
0.0000000001
 40
0.0
 40
0.0
 40
0.0
 40
0.0
 40
0.2358995895
 40
0.4834293864
 40
1.0
 40
1.0
 40
1.0
 40
1.0
 10
-99.4475427424
 20
-17.4102150906
 30
0.0
 10
-98.8485825554
 20
-18.2680149766
 30
0.0
 10
-97.7060949367
 20
-20.0865652195
 30
0.0
 10
-95.6710168625
 20
-24.0307549376
 30
0.0
 10
-94.4749640399
 20
-27.2196132972
 30
0.0
 10
-93.8233184263
 20
-29.41598267
 30
0.0
  0
SPLINE
  5
4C9
100
AcDbEntity
  8
0
100
AcDbSpline
 62
7
  6
CONTINUOUS
 70
0
 71
3
 72
9
 73
5
 74
0
 42
0.0000001
 43
0.0000001
 44
0.0000000001
 40
0.0
 40
0.0
 40
0.0
 40
0.0
 40
0.4691390736
 40
1.0
 40
1.0
 40
1.0
 40
1.0
 10
-101.3458895246
 20
-16.0475688594
 30
0.0
 10
-101.3234985107
 20
-16.041524262
 30
0.0
 10
-101.2721635363
 20
-16.0405864609
 30
0.0
 10
-101.2254792808
 20
-16.0599011936
 30
0.0
 10
-101.2027219388
 20
-16.0729719151
 30
0.0
  0
SPLINE
  5
4CA
100
AcDbEntity
  8
0
100
AcDbSpline
 62
7
  6
CONTINUOUS
 70
0
 71
3
 72
15
 73
11
 74
0
 42
0.0000001
 43
0.0000001
 44
0.0000000001
 40
0.0
 40
0.0
 40
0.0
 40
0.0
 40
0.1177758471
 40
0.2414328446
 40
0.3694909457
 40
0.49989917
 40
0.6303214234
 40
0.7584195991
 40
0.882137636
 40
1.0
 40
1.0
 40
1.0
 40
1.0
 10
-104.9941944485
 20
-56.9958378632
 30
0.0
 10
-105.2113849947
 20
-55.7536327561
 30
0.0
 10
-105.3888146169
 20
-53.1552117521
 30
0.0
 10
-104.932259478
 20
-49.2064965706
 30
0.0
 10
-103.7847249642
 20
-45.2599816428
 30
0.0
 10
-101.9952439144
 20
-41.4812636955
 30
0.0
 10
-99.6391069847
 20
-38.0268327209
 30
0.0
 10
-96.8133619786
 20
-35.0407091225
 30
0.0
 10
-93.635950787
 20
-32.6489108239
 30
0.0
 10
-91.3032935333
 20
-31.487006178
 30
0.0
 10
-90.1210622854
 20
-31.045518069
 30
0.0
  0
ELLIPSE
  5
4CB
100
AcDbEntity
  8
0
100
AcDbEllipse
 62
7
  6
CONTINUOUS
 10
-96.5731329056
 20
-44.5671292101
 30
0.0
 11
7.9200442436
 21
18.6974714592
 31
0.0
 40
0.7885137488
 41
6.7878504991
 42
6.959973394
  0
ENDSEC
  0
SECTION
  2
OBJECTS
  0
DICTIONARY
  5
C
100
AcDbDictionary
280
0
281
1
  3
ACAD_GROUP
350
D
  3
ACAD_MLINESTYLE
350
17
  3
ACAD_LAYOUT
350
1A
  3
ACAD_PLOTSETTINGS
350
19
  3
ACAD_PLOTSTYLENAME
350
E
  0
DICTIONARY
  5
D
102
{ACAD_REACTORS
330
C
102
}
100
AcDbDictionary
280
0
281
1
  0
ACDBDICTIONARYWDFLT
  5
E
102
{ACAD_REACTORS
330
C
102
}
100
AcDbDictionary
281
1
  3
Normal
350
F
100
AcDbDictionaryWithDefault
340
F
  0
DICTIONARY
  5
17
102
{ACAD_REACTORS
330
C
102
}
100
AcDbDictionary
280
0
281
1
  3
Standard
350
18
  0
DICTIONARY
  5
19
102
{ACAD_REACTORS
330
C
102
}
100
AcDbDictionary
281
1
  0
DICTIONARY
  5
1A
102
{ACAD_REACTORS
330
C
102
}
100
AcDbDictionary
281
1
  3
Model
350
4CC
  3
Layout1
350
4CD
  0
ACDBPLACEHOLDER
  5
F
102
{ACAD_REACTORS
330
E
102
}
  0
MLINESTYLE
  5
18
102
{ACAD_REACTORS
330
17
102
}
100
AcDbMlineStyle
  2
STANDARD
 70
0
  3

 62
256
 51
90.0
 52
90.0
 71
2
 49
0.5
 62
256
  6
BYLAYER
 49
-0.5
 62
256
  6
BYLAYER
  0
LAYOUT
  5
4CC
102
{ACAD_REACTORS
330
1A
102
}
100
AcDbPlotSettings
  1

  2
none_device
  4
ANSI_C_(22.00_x_17.00_Inches)
  6

 40
0.0
 41
0.0
 42
0.0
 43
0.0
 44
558.8
 45
431.8
 46
0.0
 47
0.0
 48
0.0
 49
0.0
140
0.0
141
0.0
142
1.0
143
1.0
 70
1024
 72
1
 73
0
 74
0
  7

 75
0
147
1.0
148
0.0
149
0.0
100
AcDbLayout
  1
Model
 70
0
 71
0
 10
0.0
 20
0.0
 11
558.8
 21
431.8
 12
0.0
 22
0.0
 32
0.0
 14
0.0
 24
0.0
 34
0.0
 15
0.0
 25
0.0
 35
0.0
146
0.0
 13
0.0
 23
0.0
 33
0.0
 16
1.0
 26
0.0
 36
0.0
 17
0.0
 27
1.0
 37
0.0
 76
0
330
1FF
345
0
346
0
  0
LAYOUT
  5
4CD
102
{ACAD_REACTORS
330
1A
102
}
100
AcDbPlotSettings
  1

  2
none_device
  4
ANSI_C_(22.00_x_17.00_Inches)
  6

 40
0.0
 41
0.0
 42
0.0
 43
0.0
 44
558.8
 45
431.8
 46
0.0
 47
0.0
 48
0.0
 49
0.0
140
0.0
141
0.0
142
1.0
143
1.0
 70
0
 72
1
 73
0
 74
0
  7

 75
0
147
1.0
148
0.0
149
0.0
100
AcDbLayout
  1
Layout1
 70
0
 71
1
 10
0.0
 20
0.0
 11
558.8
 21
431.8
 12
0.0
 22
0.0
 32
0.0
 14
0.0
 24
0.0
 34
0.0
 15
0.0
 25
0.0
 35
0.0
146
0.0
 13
0.0
 23
0.0
 33
0.0
 16
1.0
 26
0.0
 36
0.0
 17
0.0
 27
1.0
 37
0.0
 76
0
330
200
345
0
346
0
  0
ENDSEC
  0
EOF
