999
DXF file: Y:\3D PRATIKA-KAEDRA_OLGA\TRAVAIL_PHASE_3\CAD3D\PKE16M734_3D-Simplified\PKE16M734_2D-isometric.dxf
999
Pro/ENGINEER 2018260 by Parametric Technology Corporation
  0
SECTION
  2
HEADER
  9
$ACADVER
  1
AC1027
  9
$DWGCODEPAGE
  3
ANSI_1252
  9
$EXTMAX
 10
558.8
 20
431.8
 30
0.0
  9
$EXTMIN
 10
0.0
 20
0.0
 30
0.0
  9
$LIMMIN
 10
0.0
 20
0.0
  9
$LIMMAX
 10
558.8
 20
431.8
  9
$VIEWCTR
 10
279.4
 20
215.9
  9
$VIEWSIZE
 40
431.8
  9
$CLAYER
  8
0
  9
$LTSCALE
 40
30.734
  9
$CELTYPE
  6
BYLAYER
  9
$DIMSCALE
 40
1.0
  9
$DIMASZ
 40
0.1875
  9
$DIMEXO
 40
0.0625
  9
$DIMDLI
 40
21.2344
  9
$DIMEXE
 40
0.125
  9
$DIMCEN
 40
5.0292
  9
$DIMLFAC
 40
1.0
  9
$DIMBLK
  1
_CLOSED
  9
$DIMALT
 70
0
  9
$DIMALTF
 40
0.0393700787
  9
$DIMTXT
 40
0.15625
  9
$DIMTOL
 70
0
  9
$DIMLIM
 70
0
  9
$DIMTFAC
 40
1.0
  9
$DIMGAP
 40
0.625
  9
$DIMDSEP
 70
46
  9
$AUNITS
 70
0
  9
$PDMODE
 70
3
  9
$PDSIZE
 40
0.3125
  9
$HANDSEED
  5
4B5
  9
$TILEMODE
 70
1
  9
$MEASUREMENT
 70
1
  9
$INSUNITS
 70
4
  0
ENDSEC
  0
SECTION
  2
CLASSES
  0
CLASS
  1
ACDBDICTIONARYWDFLT
  2
AcDbDictionaryWithDefault
  3
AutoCAD 2000
 90
0
 91
1
280
0
281
0
  0
CLASS
  1
ACDBPLACEHOLDER
  2
AcDbPlaceHolder
  3
AutoCAD 2000
 90
0
 91
1
280
0
281
0
  0
CLASS
  1
LAYOUT
  2
AcDbLayout
  3
AutoCAD 2000
 90
0
 91
0
280
0
281
0
  0
ENDSEC
  0
SECTION
  2
TABLES
  0
TABLE
  2
VPORT
  5
8
100
AcDbSymbolTable
 70
2
  0
VPORT
  5
1F4
100
AcDbSymbolTableRecord
100
AcDbViewportTableRecord
  2
*ACTIVE
 70
0
 10
0.0
 20
0.0
 11
1.0
 21
1.0
 12
279.4
 22
215.9
 13
0.0
 23
0.0
 14
1.0
 24
1.0
 15
0.0
 25
0.0
 16
0.0
 26
0.0
 36
1.0
 17
0.0
 27
0.0
 37
0.0
 40
431.8
 41
1.2941176471
 42
50.0
 43
0.0
 44
0.0
 50
0.0
 51
0.0
 71
0
 72
100
 73
1
 74
1
 75
0
 76
0
 77
0
 78
0
  0
ENDTAB
  0
TABLE
  2
LTYPE
  5
5
100
AcDbSymbolTable
 70
6
  0
LTYPE
  5
14
100
AcDbSymbolTableRecord
100
AcDbLinetypeTableRecord
  2
BYBLOCK
 70
0
  3

 72
65
 73
0
 40
0.0
  0
LTYPE
  5
15
100
AcDbSymbolTableRecord
100
AcDbLinetypeTableRecord
  2
BYLAYER
 70
0
  3

 72
65
 73
0
 40
0.0
  0
LTYPE
  5
16
100
AcDbSymbolTableRecord
100
AcDbLinetypeTableRecord
  2
CONTINUOUS
 70
64
  3
Solid line
 72
65
 73
0
 40
0.0
  0
LTYPE
  5
1F5
100
AcDbSymbolTableRecord
100
AcDbLinetypeTableRecord
  2
CENTER
 70
64
  3
____ _ ____ _ ____ _ ____ _ ____ _ ____ _ ____
 72
65
 73
4
 40
0.6
 49
0.375
 74
0
 49
-0.075
 74
0
 49
0.075
 74
0
 49
-0.075
 74
0
  0
LTYPE
  5
1F6
100
AcDbSymbolTableRecord
100
AcDbLinetypeTableRecord
  2
HIDDEN
 70
64
  3
- - - - - - - - - - - - - - - - - - - -
 72
65
 73
2
 40
0.2
 49
0.1
 74
0
 49
-0.1
 74
0
  0
LTYPE
  5
1F7
100
AcDbSymbolTableRecord
100
AcDbLinetypeTableRecord
  2
PHANTOM
 70
64
  3
_____ _ _ _____ _ _ _____ _ _ _____
 72
65
 73
6
 40
0.8
 49
0.45
 74
0
 49
-0.05
 74
0
 49
0.1
 74
0
 49
-0.05
 74
0
 49
0.1
 74
0
 49
-0.05
 74
0
  0
LTYPE
  5
1F8
100
AcDbSymbolTableRecord
100
AcDbLinetypeTableRecord
  2
DOT
 70
64
  3
. . . . . . . . . . . . . . . . . . . .
 72
65
 73
2
 40
0.2
 49
0.1
 74
0
 49
-0.1
 74
0
  0
LTYPE
  5
1F9
100
AcDbSymbolTableRecord
100
AcDbLinetypeTableRecord
  2
DASHED
 70
64
  3
- - - - - - - - - - - - - - - - - - - -
 72
65
 73
2
 40
0.2
 49
0.1
 74
0
 49
-0.1
 74
0
  0
ENDTAB
  0
TABLE
  2
LAYER
  5
2
100
AcDbSymbolTable
 70
36
  0
LAYER
  5
10
100
AcDbSymbolTableRecord
100
AcDbLayerTableRecord
  2
0
 70
0
 62
7
  6
CONTINUOUS
370
-3
390
F
  0
LAYER
  5
1FA
100
AcDbSymbolTableRecord
100
AcDbLayerTableRecord
  2
DEFAULT_1
 70
0
 62
7
  6
CENTER
370
-3
390
F
  0
LAYER
  5
1FB
100
AcDbSymbolTableRecord
100
AcDbLayerTableRecord
  2
DEFAULT_2
 70
0
 62
8
  6
HIDDEN
370
-3
390
F
  0
LAYER
  5
1FC
100
AcDbSymbolTableRecord
100
AcDbLayerTableRecord
  2
DEFAULT_3
 70
0
 62
7
  6
PHANTOM
370
-3
390
F
  0
ENDTAB
  0
TABLE
  2
STYLE
  5
3
100
AcDbSymbolTable
 70
1
  0
STYLE
  5
11
100
AcDbSymbolTableRecord
100
AcDbTextStyleTableRecord
  2
STANDARD
 70
0
 40
0.0
 41
0.8
 50
0.0
 71
0
 42
0.2
  3
txt
  4

  0
STYLE
  5
1FD
100
AcDbSymbolTableRecord
100
AcDbTextStyleTableRecord
  2
TEXTSTYLE_1
 70
0
 40
0.0
 41
0.8
 50
0.0
 71
0
 42
0.2
  3
gdt
  4

  0
ENDTAB
  0
TABLE
  2
VIEW
  5
6
100
AcDbSymbolTable
 70
0
  0
ENDTAB
  0
TABLE
  2
UCS
  5
7
100
AcDbSymbolTable
 70
0
  0
ENDTAB
  0
TABLE
  2
APPID
  5
9
100
AcDbSymbolTable
 70
1
  0
APPID
  5
1FE
100
AcDbSymbolTableRecord
100
AcDbRegAppTableRecord
  2
ACAD
 70
0
  0
ENDTAB
  0
TABLE
  2
BLOCK_RECORD
  5
1
100
AcDbSymbolTable
 70
0
  0
BLOCK_RECORD
  5
1FF
100
AcDbSymbolTableRecord
100
AcDbBlockTableRecord
  2
*Model_Space
  0
BLOCK_RECORD
  5
200
100
AcDbSymbolTableRecord
100
AcDbBlockTableRecord
  2
*Paper_Space
  0
BLOCK_RECORD
  5
201
100
AcDbSymbolTableRecord
100
AcDbBlockTableRecord
  2
_CLOSED
  0
ENDTAB
  0
TABLE
  2
DIMSTYLE
  5
A
100
AcDbSymbolTable
 70
1
100
AcDbDimStyleTable
 71
0
  0
DIMSTYLE
105
202
100
AcDbSymbolTableRecord
100
AcDbDimStyleTableRecord
  2
STANDARD
 70
0
  3

  4

 40
1.0
 41
0.1875
 42
0.0625
 43
0.38
 44
0.125
 45
0.0
 46
0.0
 47
0.01
 48
0.01
140
0.15625
141
0.09
142
0.0
143
25.4
144
1.0
145
0.0
146
1.0
147
0.625
 71
0.0
 72
0.0
 73
1
 74
1
 75
0
 76
0
 77
0
 78
8
 79
2
170
0
171
1
172
0
173
0
174
0
175
0
176
0
177
0
178
0
270
2
179
2
271
2
272
2
273
2
274
2
275
0
280
0
281
0
282
0
283
1
284
8
285
0
286
0
287
3
288
0
340
11
278
46
341
201
342
201
343
201
344
201
  0
ENDTAB
  0
ENDSEC
  0
SECTION
  2
BLOCKS
  0
BLOCK
  5
20
100
AcDbEntity
  8
0
100
AcDbBlockBegin
  2
*Model_Space
 70
0
 10
0.0
 20
0.0
 30
0.0
  3
*Model_Space
  1

  0
ENDBLK
  5
21
100
AcDbEntity
  8
0
100
AcDbBlockEnd
  0
BLOCK
  5
1C
100
AcDbEntity
  8
0
100
AcDbBlockBegin
  2
*Paper_Space
 70
0
 10
0.0
 20
0.0
 30
0.0
  3
*Paper_Space
  1

  0
ENDBLK
  5
1D
100
AcDbEntity
  8
0
100
AcDbBlockEnd
  0
BLOCK
  5
203
100
AcDbEntity
  8
0
100
AcDbBlockBegin
  2
_CLOSED
 70
64
 10
0.0
 20
0.0
  3
_CLOSED
  1

  0
LINE
  5
204
100
AcDbEntity
  8
0
  6
BYBLOCK
 62
0
100
AcDbLine
 10
0.0
 20
0.0
 11
-1.0
 21
0.1666666667
  0
LINE
  5
205
100
AcDbEntity
  8
0
  6
BYBLOCK
 62
0
100
AcDbLine
 10
-1.0
 20
0.1666666667
 11
-1.0
 21
-0.1666666667
  0
LINE
  5
206
100
AcDbEntity
  8
0
  6
BYBLOCK
 62
0
100
AcDbLine
 10
-1.0
 20
-0.1666666667
 11
0.0
 21
0.0
  0
LINE
  5
207
100
AcDbEntity
  8
0
  6
BYBLOCK
 62
0
100
AcDbLine
 10
-1.0
 20
0.0
 11
0.0
 21
0.0
  0
ENDBLK
  5
208
100
AcDbEntity
  8
0
  6
BYBLOCK
 62
0
100
AcDbBlockEnd
  0
ENDSEC
  0
SECTION
  2
ENTITIES
  0
LINE
  5
209
100
AcDbEntity
  8
0
100
AcDbLine
 62
7
  6
CONTINUOUS
 10
-94.4201709408
 20
-82.4298594731
 11
-94.260453301
 21
-82.3867718135
  0
LINE
  5
20A
100
AcDbEntity
  8
0
100
AcDbLine
 62
7
  6
CONTINUOUS
 10
-42.7414880868
 20
-22.5807745052
 11
-42.9012253555
 21
-22.6238674602
  0
LINE
  5
20B
100
AcDbEntity
  8
0
100
AcDbLine
 62
7
  6
CONTINUOUS
 10
-91.6113057939
 20
-15.9898374978
 11
-95.7361709607
 21
-17.1026152616
  0
LINE
  5
20C
100
AcDbEntity
  8
0
100
AcDbLine
 62
7
  6
CONTINUOUS
 10
-51.6751499393
 20
-15.8343736721
 11
-51.4530047437
 21
-15.7852229224
  0
LINE
  5
20D
100
AcDbEntity
  8
0
100
AcDbLine
 62
7
  6
CONTINUOUS
 10
-139.7964797076
 20
-25.3914150445
 11
-139.7872215769
 21
-25.3889173857
  0
LINE
  5
20E
100
AcDbEntity
  8
0
100
AcDbLine
 62
7
  6
CONTINUOUS
 10
-101.5636097824
 20
-4.3692864053
 11
-97.4387446156
 21
-3.2565086416
  0
LINE
  5
20F
100
AcDbEntity
  8
0
100
AcDbLine
 62
7
  6
CONTINUOUS
 10
-97.8248076232
 20
-2.715133647
 11
-101.9496727901
 21
-3.8279114107
  0
LINE
  5
210
100
AcDbEntity
  8
0
100
AcDbLine
 62
7
  6
CONTINUOUS
 10
-99.5203238366
 20
-1.7413107706
 11
-103.6451890034
 21
-2.8540885342
  0
LINE
  5
211
100
AcDbEntity
  8
0
100
AcDbLine
 62
7
  6
CONTINUOUS
 10
-151.9559880271
 20
-9.2796386048
 11
-152.2302291173
 21
-9.3536214805
  0
LINE
  5
212
100
AcDbEntity
  8
0
100
AcDbLine
 62
7
  6
CONTINUOUS
 10
-152.5208601402
 20
-9.1574998167
 11
-152.2332658151
 21
-9.0799143988
  0
LWPOLYLINE
  5
213
100
AcDbEntity
  8
0
100
AcDbPolyline
 62
7
  6
CONTINUOUS
 90
4
 70
0
 10
-76.0577545094
 20
-13.592872435
 10
-78.9923662706
 20
-14.2313387345
 10
-81.8493515172
 20
-15.4515627708
 10
-84.3304107849
 20
-17.213780757
  0
LINE
  5
214
100
AcDbEntity
  8
0
100
AcDbLine
 62
7
  6
CONTINUOUS
 10
-76.0564349543
 20
-13.6009327139
 11
-76.0233653651
 21
-13.5955188632
  0
LINE
  5
215
100
AcDbEntity
  8
0
100
AcDbLine
 62
7
  6
CONTINUOUS
 10
-76.0015381006
 20
-13.5924653448
 11
-76.0597778942
 21
-13.593455535
  0
LINE
  5
216
100
AcDbEntity
  8
0
100
AcDbLine
 62
7
  6
CONTINUOUS
 10
-76.0381331401
 20
-13.5900589765
 11
-76.0364385165
 21
-13.5898114112
  0
LINE
  5
217
100
AcDbEntity
  8
0
100
AcDbLine
 62
7
  6
CONTINUOUS
 10
-76.0567652221
 20
-13.5999968752
 11
-76.0232115607
 21
-13.5955595589
  0
LINE
  5
218
100
AcDbEntity
  8
0
100
AcDbLine
 62
7
  6
CONTINUOUS
 10
-41.280883732
 20
-36.4372233647
 11
-39.802543149
 21
-36.2899282809
  0
LINE
  5
219
100
AcDbEntity
  8
0
100
AcDbLine
 62
7
  6
CONTINUOUS
 10
-43.0509684478
 20
-38.1362871997
 11
-44.0431680374
 21
-38.2297519487
  0
LINE
  5
21A
100
AcDbEntity
  8
0
100
AcDbLine
 62
7
  6
CONTINUOUS
 10
-97.3619987833
 20
-51.8179221641
 11
-94.1132450135
 21
-51.9115170864
  0
LINE
  5
21B
100
AcDbEntity
  8
0
100
AcDbLine
 62
7
  6
CONTINUOUS
 10
-94.3308070045
 20
-51.1344358353
 11
-97.7964952419
 21
-51.0345915121
  0
LINE
  5
21C
100
AcDbEntity
  8
0
100
AcDbLine
 62
7
  6
CONTINUOUS
 10
-97.8314762311
 20
-50.9848859354
 11
-94.5151574631
 21
-51.080427014
  0
LWPOLYLINE
  5
21D
100
AcDbEntity
  8
0
100
AcDbPolyline
 62
7
  6
CONTINUOUS
 90
4
 70
0
 10
-74.3970162577
 20
-13.4395906772
 10
-74.8670369747
 20
-13.4679768272
 10
-75.5663440479
 20
-13.5339772695
 10
-76.0359352282
 20
-13.5900365917
  0
LINE
  5
21E
100
AcDbEntity
  8
0
100
AcDbLine
 62
7
  6
CONTINUOUS
 10
-74.443967032
 20
-13.4424673084
 11
-74.3970410174
 21
-13.4395812708
  0
LINE
  5
21F
100
AcDbEntity
  8
0
100
AcDbLine
 62
7
  6
CONTINUOUS
 10
-87.9445504007
 20
-19.4283200848
 11
-87.8965438937
 21
-19.4268641179
  0
LINE
  5
220
100
AcDbEntity
  8
0
100
AcDbLine
 62
7
  6
CONTINUOUS
 10
-100.1899932639
 20
-71.2862837096
 11
-100.3375647072
 21
-71.2579822049
  0
LINE
  5
221
100
AcDbEntity
  8
0
100
AcDbLine
 62
7
  6
CONTINUOUS
 10
-127.3291535227
 20
8.3455130376
 11
-127.3293993364
 21
8.3455039429
  0
LINE
  5
222
100
AcDbEntity
  8
0
100
AcDbLine
 62
7
  6
CONTINUOUS
 10
-76.0582042924
 20
-13.5932244358
 11
-76.0232872138
 21
-13.5958326805
  0
LINE
  5
223
100
AcDbEntity
  8
0
100
AcDbLine
 62
7
  6
CONTINUOUS
 10
-36.9716853926
 20
-33.7243555641
 11
-36.8241139502
 21
-33.7526570686
  0
LWPOLYLINE
  5
224
100
AcDbEntity
  8
0
100
AcDbPolyline
 62
7
  6
CONTINUOUS
 90
3
 70
0
 10
-143.3736471403
 20
-36.7843617447
 10
-140.6090949311
 20
-37.5244083668
 10
-139.7451704944
 20
-37.7383095953
  0
LINE
  5
225
100
AcDbEntity
  8
0
100
AcDbLine
 62
7
  6
CONTINUOUS
 10
-94.3308070045
 20
-51.1344358353
 11
-94.5151577846
 21
-51.0804404404
  0
LINE
  5
226
100
AcDbEntity
  8
0
100
AcDbLine
 62
7
  6
CONTINUOUS
 10
-133.2771211696
 20
-40.1355762419
 11
-133.2210893956
 21
-40.153384033
  0
LINE
  5
227
100
AcDbEntity
  8
0
100
AcDbLine
 62
7
  6
CONTINUOUS
 10
-133.2038468508
 20
-40.1001740995
 11
-133.2589558882
 21
-40.0823161549
  0
LINE
  5
228
100
AcDbEntity
  8
0
100
AcDbLine
 62
7
  6
CONTINUOUS
 10
-133.2167129333
 20
-40.1686158026
 11
-133.2718458655
 21
-40.1505571636
  0
LWPOLYLINE
  5
229
100
AcDbEntity
  8
0
100
AcDbPolyline
 62
7
  6
CONTINUOUS
 90
5
 70
0
 10
-60.1883734755
 20
-12.7500566325
 10
-61.6063584774
 20
-12.4678885161
 10
-63.0609995726
 20
-12.75232078
 10
-64.228777627
 20
-13.6698620782
 10
-64.3677791948
 20
-13.8512265607
  0
LWPOLYLINE
  5
22A
100
AcDbEntity
  8
0
100
AcDbPolyline
 62
7
  6
CONTINUOUS
 90
5
 70
0
 10
-65.637276968
 20
-12.534748348
 10
-67.5492975177
 20
-12.1320738444
 10
-70.0364363674
 20
-12.0370817198
 10
-72.2908141759
 20
-12.493277049
 10
-74.249627494
 20
-13.5024954091
  0
LINE
  5
22B
100
AcDbEntity
  8
0
100
AcDbLine
 62
7
  6
CONTINUOUS
 10
-133.2428239792
 20
-40.0338195246
 11
-133.2859182232
 21
-40.0196101447
  0
LINE
  5
22C
100
AcDbEntity
  8
0
100
AcDbLine
 62
7
  6
CONTINUOUS
 10
-133.2764523798
 20
-40.1336163608
 11
-133.2210893956
 21
-40.153384033
  0
LINE
  5
22D
100
AcDbEntity
  8
0
100
AcDbLine
 62
7
  6
CONTINUOUS
 10
-139.9758364383
 20
-26.2438572849
 11
-139.8067508689
 21
-26.3135138193
  0
LINE
  5
22E
100
AcDbEntity
  8
0
100
AcDbLine
 62
7
  6
CONTINUOUS
 10
-85.4865252481
 20
-89.1762664955
 11
-88.1127431789
 21
-87.9200798239
  0
LINE
  5
22F
100
AcDbEntity
  8
0
100
AcDbLine
 62
7
  6
CONTINUOUS
 10
-65.6372363406
 20
-12.5347623454
 11
-65.6272557263
 21
-12.5375245671
  0
LINE
  5
230
100
AcDbEntity
  8
0
100
AcDbLine
 62
7
  6
CONTINUOUS
 10
-126.398463182
 20
6.9585043401
 11
-126.3888595038
 21
6.9558476349
  0
LWPOLYLINE
  5
231
100
AcDbEntity
  8
0
100
AcDbPolyline
 62
7
  6
CONTINUOUS
 90
7
 70
0
 10
-146.051782498
 20
1.0035622453
 10
-146.1257438878
 20
1.0267574131
 10
-146.3580714576
 20
1.0494683826
 10
-146.6026683239
 20
1.0001306886
 10
-146.8423347194
 20
0.8774977688
 10
-147.0604291314
 20
0.685997786
 10
-147.1838329264
 20
0.5263639361
  0
LINE
  5
232
100
AcDbEntity
  8
0
100
AcDbLine
 62
7
  6
CONTINUOUS
 10
-125.6832434035
 20
6.6211782938
 11
-125.7275919562
 21
6.6353267881
  0
LINE
  5
233
100
AcDbEntity
  8
0
100
AcDbLine
 62
7
  6
CONTINUOUS
 10
-125.6833749814
 20
6.6208654422
 11
-125.7275919562
 21
6.6353267881
  0
LINE
  5
234
100
AcDbEntity
  8
0
100
AcDbLine
 62
7
  6
CONTINUOUS
 10
-126.3957318587
 20
6.9343850185
 11
-126.3712187121
 21
6.9260384348
  0
LINE
  5
235
100
AcDbEntity
  8
0
100
AcDbLine
 62
7
  6
CONTINUOUS
 10
-126.4081025001
 20
6.9058243826
 11
-126.3836619785
 21
6.8973986102
  0
LINE
  5
236
100
AcDbEntity
  8
0
100
AcDbLine
 62
7
  6
CONTINUOUS
 10
-60.1965630356
 20
-12.7471843755
 11
-60.188136986
 21
-12.7501602027
  0
LINE
  5
237
100
AcDbEntity
  8
0
100
AcDbLine
 62
7
  6
CONTINUOUS
 10
-126.3965372328
 20
6.963326538
 11
-126.3872190032
 21
6.9599491652
  0
LINE
  5
238
100
AcDbEntity
  8
0
100
AcDbLine
 62
7
  6
CONTINUOUS
 10
-137.0432091232
 20
-15.0684259277
 11
-137.0788972287
 21
-15.0550947923
  0
LINE
  5
239
100
AcDbEntity
  8
0
100
AcDbLine
 62
7
  6
CONTINUOUS
 10
-145.381869566
 20
0.6245273126
 11
-145.8961748148
 21
0.8166435595
  0
LINE
  5
23A
100
AcDbEntity
  8
0
100
AcDbLine
 62
7
  6
CONTINUOUS
 10
-146.0518843404
 20
1.0035998888
 11
-145.5060759968
 21
0.7997168742
  0
LINE
  5
23B
100
AcDbEntity
  8
0
100
AcDbLine
 62
7
  6
CONTINUOUS
 10
-139.9849618784
 20
-25.2710511933
 11
-140.0038047792
 21
-25.2632841188
  0
LINE
  5
23C
100
AcDbEntity
  8
0
100
AcDbLine
 62
7
  6
CONTINUOUS
 10
-89.7403717518
 20
-73.7952263516
 11
-87.7622695029
 21
-74.9313530408
  0
LINE
  5
23D
100
AcDbEntity
  8
0
100
AcDbLine
 62
7
  6
CONTINUOUS
 10
-78.9287442545
 20
-78.4200531798
 11
-76.9506420056
 21
-79.556179869
  0
LINE
  5
23E
100
AcDbEntity
  8
0
100
AcDbLine
 62
7
  6
CONTINUOUS
 10
-66.9201769813
 20
-81.8279487567
 11
-87.548957577
 21
-69.9797704268
  0
LINE
  5
23F
100
AcDbEntity
  8
0
100
AcDbLine
 62
7
  6
CONTINUOUS
 10
-60.9622702357
 20
-84.0561134607
 11
-56.1583076312
 21
-86.8152782773
  0
LINE
  5
240
100
AcDbEntity
  8
0
100
AcDbLine
 62
7
  6
CONTINUOUS
 10
-127.4444688158
 20
-45.2205828743
 11
-107.2620919112
 21
-56.8123684176
  0
LINE
  5
241
100
AcDbEntity
  8
0
100
AcDbLine
 62
7
  6
CONTINUOUS
 10
-57.139080703
 20
-84.8814977103
 11
-59.1983032996
 21
-83.6987794005
  0
LINE
  5
242
100
AcDbEntity
  8
0
100
AcDbLine
 62
7
  6
CONTINUOUS
 10
-135.874353506
 20
-34.4975213035
 11
-134.399595921
 21
-35.344551053
  0
LINE
  5
243
100
AcDbEntity
  8
0
100
AcDbLine
 62
7
  6
CONTINUOUS
 10
-72.5263081712
 20
-64.156881271
 11
-55.6184348717
 21
-73.867949606
  0
LINE
  5
244
100
AcDbEntity
  8
0
100
AcDbLine
 62
7
  6
CONTINUOUS
 10
-93.7656349326
 20
-51.4590434613
 11
-94.3308070045
 21
-51.1344358353
  0
LINE
  5
245
100
AcDbEntity
  8
0
100
AcDbLine
 62
7
  6
CONTINUOUS
 10
-72.1229841146
 20
-60.8399815286
 11
-65.1208645908
 21
-64.8616618417
  0
LINE
  5
246
100
AcDbEntity
  8
0
100
AcDbLine
 62
7
  6
CONTINUOUS
 10
-61.5789317518
 20
-62.3720974152
 11
-52.132094139
 21
-67.7979060892
  0
LINE
  5
247
100
AcDbEntity
  8
0
100
AcDbLine
 62
7
  6
CONTINUOUS
 10
-70.7044779124
 20
-55.8886819268
 11
-62.6306212103
 21
-60.5259164726
  0
LINE
  5
248
100
AcDbEntity
  8
0
100
AcDbLine
 62
7
  6
CONTINUOUS
 10
-66.697157593
 20
-48.9841376864
 11
-47.3839443735
 21
-60.076717458
  0
LINE
  5
249
100
AcDbEntity
  8
0
100
AcDbLine
 62
7
  6
CONTINUOUS
 10
-65.3745182697
 20
-47.3484526226
 11
-56.2540786264
 21
-52.5867940185
  0
LINE
  5
24A
100
AcDbEntity
  8
0
100
AcDbLine
 62
7
  6
CONTINUOUS
 10
-52.8982694701
 20
-51.1435333633
 11
-44.893700993
 21
-55.7409720888
  0
LINE
  5
24B
100
AcDbEntity
  8
0
100
AcDbLine
 62
7
  6
CONTINUOUS
 10
-61.4223659384
 20
-43.8523573662
 11
-53.7638352459
 21
-48.2510486494
  0
LINE
  5
24C
100
AcDbEntity
  8
0
100
AcDbLine
 62
7
  6
CONTINUOUS
 10
-139.9662355177
 20
-25.2849395259
 11
-140.0225163189
 21
-25.2493952701
  0
LINE
  5
24D
100
AcDbEntity
  8
0
100
AcDbLine
 62
7
  6
CONTINUOUS
 10
-151.2814486968
 20
-31.7859646403
 11
-151.3004054426
 21
-31.7737069205
  0
LINE
  5
24E
100
AcDbEntity
  8
0
100
AcDbLine
 62
7
  6
CONTINUOUS
 10
-151.3004054426
 20
-31.7737069205
 11
-151.3007261634
 21
-31.7734738838
  0
LINE
  5
24F
100
AcDbEntity
  8
0
100
AcDbLine
 62
7
  6
CONTINUOUS
 10
-93.300297129
 20
-84.5434279639
 11
-93.3313492357
 21
-84.5205892457
  0
LINE
  5
250
100
AcDbEntity
  8
0
100
AcDbLine
 62
7
  6
CONTINUOUS
 10
-96.04214631
 20
-82.3393165182
 11
-93.3313505608
 21
-84.5205715079
  0
LWPOLYLINE
  5
251
100
AcDbEntity
  8
0
100
AcDbPolyline
 62
7
  6
CONTINUOUS
 90
4
 70
0
 10
-51.454913591
 20
-15.7842408283
 10
-51.5340048892
 20
-15.74753382
 10
-52.0378445022
 20
-15.6751554519
 10
-52.5238325825
 20
-15.8669638694
  0
LINE
  5
252
100
AcDbEntity
  8
0
100
AcDbLine
 62
7
  6
CONTINUOUS
 10
-51.4530047437
 20
-15.7852229224
 11
-51.4522638506
 21
-15.7856041729
  0
LINE
  5
253
100
AcDbEntity
  8
0
100
AcDbLine
 62
7
  6
CONTINUOUS
 10
-51.4556868902
 20
-15.7838479732
 11
-49.0488665508
 21
-17.0905919624
  0
LINE
  5
254
100
AcDbEntity
  8
0
100
AcDbLine
 62
7
  6
CONTINUOUS
 10
-103.0928088739
 20
-13.407846782
 11
-101.6744815324
 21
-14.2224657167
  0
LINE
  5
255
100
AcDbEntity
  8
0
100
AcDbLine
 62
7
  6
CONTINUOUS
 10
-97.2119173428
 20
-16.7855477215
 11
-95.5761415993
 21
-17.7250585484
  0
LINE
  5
256
100
AcDbEntity
  8
0
100
AcDbLine
 62
7
  6
CONTINUOUS
 10
-118.065293958
 20
-3.4414753681
 11
-116.6034200347
 21
-4.2811053627
  0
LINE
  5
257
100
AcDbEntity
  8
0
100
AcDbLine
 62
7
  6
CONTINUOUS
 10
-104.5342297152
 20
-5.3317254783
 11
-103.4839370782
 21
-5.934962999
  0
LINE
  5
258
100
AcDbEntity
  8
0
100
AcDbLine
 62
7
  6
CONTINUOUS
 10
-92.9403307362
 20
-11.9907028233
 11
-84.3280593579
 21
-16.9371768353
  0
LINE
  5
259
100
AcDbEntity
  8
0
100
AcDbLine
 62
7
  6
CONTINUOUS
 10
-42.4161821171
 20
-39.1642143245
 11
-63.0449627129
 21
-27.3160359946
  0
LINE
  5
25A
100
AcDbEntity
  8
0
100
AcDbLine
 62
7
  6
CONTINUOUS
 10
-103.6451890034
 20
-2.8540885342
 11
-101.9496727901
 21
-3.8279114107
  0
LINE
  5
25B
100
AcDbEntity
  8
0
100
AcDbLine
 62
7
  6
CONTINUOUS
 10
-99.5203238366
 20
-1.7413107706
 11
-97.8248076232
 21
-2.715133647
  0
LINE
  5
25C
100
AcDbEntity
  8
0
100
AcDbLine
 62
7
  6
CONTINUOUS
 10
-60.853548538
 20
-23.5005800698
 11
-58.8754462891
 21
-24.6367067589
  0
LINE
  5
25D
100
AcDbEntity
  8
0
100
AcDbLine
 62
7
  6
CONTINUOUS
 10
-121.1797759114
 20
4.6345215723
 11
-121.1819143672
 21
4.6357518615
  0
LINE
  5
25E
100
AcDbEntity
  8
0
100
AcDbLine
 62
7
  6
CONTINUOUS
 10
-125.7276437025
 20
6.6353522404
 11
-125.6897464338
 21
6.6135282707
  0
LINE
  5
25F
100
AcDbEntity
  8
0
100
AcDbLine
 62
7
  6
CONTINUOUS
 10
-121.1797419512
 20
4.6345073917
 11
-118.5401647358
 21
3.0498485727
  0
LINE
  5
260
100
AcDbEntity
  8
0
100
AcDbLine
 62
7
  6
CONTINUOUS
 10
-118.5400553063
 20
3.04978009
 11
-118.5346798176
 21
3.0464093252
  0
LINE
  5
261
100
AcDbEntity
  8
0
100
AcDbLine
 62
7
  6
CONTINUOUS
 10
-125.7276437025
 20
6.6353522404
 11
-125.6904847525
 21
6.6119073903
  0
LINE
  5
262
100
AcDbEntity
  8
0
100
AcDbLine
 62
7
  6
CONTINUOUS
 10
-139.9662355098
 20
-25.2849395436
 11
-140.0225162874
 21
-25.2493952322
  0
LINE
  5
263
100
AcDbEntity
  8
0
100
AcDbLine
 62
7
  6
CONTINUOUS
 10
-101.3073260782
 20
-57.326564075
 11
-101.4202849084
 21
-57.2311820543
  0
LINE
  5
264
100
AcDbEntity
  8
0
100
AcDbLine
 62
7
  6
CONTINUOUS
 10
-113.0235223422
 20
-2.5741033238
 11
-113.021015354
 21
-2.5758925294
  0
LINE
  5
265
100
AcDbEntity
  8
0
100
AcDbLine
 62
7
  6
CONTINUOUS
 10
-113.6553397224
 20
-1.8622190047
 11
-113.6350952377
 21
-1.8768346471
  0
LINE
  5
266
100
AcDbEntity
  8
0
100
AcDbLine
 62
7
  6
CONTINUOUS
 10
-117.388753644
 20
2.1173905039
 11
-117.2880962083
 21
2.0436647901
  0
LINE
  5
267
100
AcDbEntity
  8
0
100
AcDbLine
 62
7
  6
CONTINUOUS
 10
-95.1103323047
 20
-82.2639408184
 11
-95.2276767973
 21
-82.1480811314
  0
LWPOLYLINE
  5
268
100
AcDbEntity
  8
0
100
AcDbPolyline
 62
7
  6
CONTINUOUS
 90
4
 70
0
 10
-117.2878571955
 20
2.0434410229
 10
-117.810890919
 20
2.5094422188
 10
-118.3584343048
 20
2.9303043829
 10
-118.5347902305
 20
3.0464785041
  0
LINE
  5
269
100
AcDbEntity
  8
0
100
AcDbLine
 62
7
  6
CONTINUOUS
 10
-117.2880962083
 20
2.0436647901
 11
-117.2878575228
 21
2.0434412628
  0
LINE
  5
26A
100
AcDbEntity
  8
0
100
AcDbLine
 62
7
  6
CONTINUOUS
 10
-130.5121196158
 20
-6.3380459675
 11
-130.3887278798
 21
-6.4665668104
  0
LINE
  5
26B
100
AcDbEntity
  8
0
100
AcDbLine
 62
7
  6
CONTINUOUS
 10
-131.3681370569
 20
-5.4142298961
 11
-131.3303939405
 21
-5.4564556038
  0
LINE
  5
26C
100
AcDbEntity
  8
0
100
AcDbLine
 62
7
  6
CONTINUOUS
 10
-94.0957336848
 20
-70.2057083527
 11
-94.0860027316
 21
-70.2168519344
  0
LWPOLYLINE
  5
26D
100
AcDbEntity
  8
0
100
AcDbPolyline
 62
7
  6
CONTINUOUS
 90
4
 70
0
 10
-130.5018774258
 20
-6.3376219712
 10
-130.7522152617
 20
-6.0472909297
 10
-131.0458339458
 20
-5.6976102738
 10
-131.2794289617
 20
-5.4118782431
  0
LINE
  5
26E
100
AcDbEntity
  8
0
100
AcDbLine
 62
7
  6
CONTINUOUS
 10
-151.3218470539
 20
-30.0022587915
 11
-151.3350567488
 21
-29.9835261143
  0
LWPOLYLINE
  5
26F
100
AcDbEntity
  8
0
100
AcDbPolyline
 62
7
  6
CONTINUOUS
 90
4
 70
0
 10
-113.6422472288
 20
-1.8791752123
 10
-115.0001717729
 20
-0.3439219207
 10
-116.2374519425
 20
0.994016619
 10
-117.2880962083
 20
2.0436647901
  0
LINE
  5
270
100
AcDbEntity
  8
0
100
AcDbLine
 62
7
  6
CONTINUOUS
 10
-113.0210153346
 20
-2.5758924525
 11
-113.6350952377
 21
-1.8768346471
  0
LINE
  5
271
100
AcDbEntity
  8
0
100
AcDbLine
 62
7
  6
CONTINUOUS
 10
-122.3668703211
 20
-0.9534206874
 11
-122.3355302889
 21
-0.9921601406
  0
LINE
  5
272
100
AcDbEntity
  8
0
100
AcDbLine
 62
7
  6
CONTINUOUS
 10
-122.3634290304
 20
-0.9528213627
 11
-122.3322657186
 21
-0.9917168499
  0
LINE
  5
273
100
AcDbEntity
  8
0
100
AcDbLine
 62
7
  6
CONTINUOUS
 10
-131.2794293876
 20
-5.4118777094
 11
-131.4670021793
 21
-5.1772917012
  0
LWPOLYLINE
  5
274
100
AcDbEntity
  8
0
100
AcDbPolyline
 62
7
  6
CONTINUOUS
 90
4
 70
0
 10
-121.6468549187
 20
-1.8163931839
 10
-121.8601620921
 20
-1.5488266609
 10
-122.1098044782
 20
-1.2301223352
 10
-122.3081260765
 20
-0.9723760152
  0
LINE
  5
275
100
AcDbEntity
  8
0
100
AcDbLine
 62
7
  6
CONTINUOUS
 10
-94.0949131362
 20
-70.2047673765
 11
-94.0860027316
 21
-70.2168519344
  0
LWPOLYLINE
  5
276
100
AcDbEntity
  8
0
100
AcDbPolyline
 62
7
  6
CONTINUOUS
 90
7
 70
0
 10
-136.3633468601
 20
7.0972148035
 10
-136.4324350288
 20
7.1937354078
 10
-136.6152833966
 20
7.3509826624
 10
-136.8478102815
 20
7.4458368161
 10
-137.1184279742
 20
7.464048056
 10
-137.4034050522
 20
7.3947923236
 10
-137.5895714856
 20
7.29886181
  0
LINE
  5
277
100
AcDbEntity
  8
0
100
AcDbLine
 62
7
  6
CONTINUOUS
 10
-151.3134106081
 20
-29.9937682635
 11
-151.3258086601
 21
-29.9742374544
  0
LINE
  5
278
100
AcDbEntity
  8
0
100
AcDbLine
 62
7
  6
CONTINUOUS
 10
-101.9496727901
 20
-3.8279114107
 11
-101.5636097824
 21
-4.3692864052
  0
LINE
  5
279
100
AcDbEntity
  8
0
100
AcDbLine
 62
7
  6
CONTINUOUS
 10
-97.4387446156
 20
-3.2565086415
 11
-97.8248076232
 21
-2.715133647
  0
LWPOLYLINE
  5
27A
100
AcDbEntity
  8
0
100
AcDbPolyline
 62
7
  6
CONTINUOUS
 90
4
 70
0
 10
-122.308127318
 20
-0.9723743742
 10
-123.7529546519
 20
1.0573486964
 10
-124.893563471
 20
2.9477946962
 10
-125.6841350145
 20
4.5694005865
  0
LINE
  5
27B
100
AcDbEntity
  8
0
100
AcDbLine
 62
7
  6
CONTINUOUS
 10
-101.6197666678
 20
-6.9224212313
 11
-102.093882979
 21
-6.2093942098
  0
LINE
  5
27C
100
AcDbEntity
  8
0
100
AcDbLine
 62
7
  6
CONTINUOUS
 10
-107.1258617207
 20
-56.5761564092
 11
-107.1026783188
 21
-56.6129869192
  0
LINE
  5
27D
100
AcDbEntity
  8
0
100
AcDbLine
 62
7
  6
CONTINUOUS
 10
-130.3887288945
 20
-6.466566393
 11
-130.3681131551
 21
-6.5007834896
  0
LINE
  5
27E
100
AcDbEntity
  8
0
100
AcDbLine
 62
7
  6
CONTINUOUS
 10
-136.363671701
 20
7.097748125
 11
-136.0398391988
 21
6.5223044637
  0
LINE
  5
27F
100
AcDbEntity
  8
0
100
AcDbLine
 62
7
  6
CONTINUOUS
 10
-125.6841799774
 20
4.5695063627
 11
-125.6841350145
 21
4.5694005865
  0
LINE
  5
280
100
AcDbEntity
  8
0
100
AcDbLine
 62
7
  6
CONTINUOUS
 10
-155.1438098099
 20
-21.9832941536
 11
-155.1438639844
 21
-21.9831259973
  0
LINE
  5
281
100
AcDbEntity
  8
0
100
AcDbLine
 62
7
  6
CONTINUOUS
 10
-97.4423479511
 20
-42.6328536795
 11
-97.5034972113
 21
-42.4849121905
  0
LWPOLYLINE
  5
282
100
AcDbEntity
  8
0
100
AcDbPolyline
 62
7
  6
CONTINUOUS
 90
4
 70
0
 10
-125.6841789003
 20
4.5695039966
 10
-126.133936475
 20
5.7903446656
 10
-126.3750507275
 20
6.8005603664
 10
-126.4331797223
 20
7.4542528164
  0
LWPOLYLINE
  5
283
100
AcDbEntity
  8
0
100
AcDbPolyline
 62
7
  6
CONTINUOUS
 90
5
 70
0
 10
-103.8418436379
 20
-71.7723134003
 10
-103.612623717
 20
-72.41710607
 10
-101.7474083899
 20
-75.831707817
 10
-99.2264875458
 20
-79.1536854643
 10
-96.04214631
 20
-82.3393165182
  0
LINE
  5
284
100
AcDbEntity
  8
0
100
AcDbLine
 62
7
  6
CONTINUOUS
 10
-136.3630067308
 20
7.0966532481
 11
-136.3368307835
 21
7.015239584
  0
LWPOLYLINE
  5
285
100
AcDbEntity
  8
0
100
AcDbPolyline
 62
7
  6
CONTINUOUS
 90
6
 70
0
 10
-143.9910588508
 20
-35.9668108649
 10
-143.9787683618
 20
-36.1139534032
 10
-143.8965953833
 20
-36.3617259482
 10
-143.7428073497
 20
-36.5714270142
 10
-143.5282470917
 20
-36.7249544804
 10
-143.3736366054
 20
-36.7843660309
  0
LINE
  5
286
100
AcDbEntity
  8
0
100
AcDbLine
 62
7
  6
CONTINUOUS
 10
-97.5034972113
 20
-42.4849121905
 11
-97.5465815448
 21
-42.3431201357
  0
LINE
  5
287
100
AcDbEntity
  8
0
100
AcDbLine
 62
7
  6
CONTINUOUS
 10
-97.2119173428
 20
-16.7855477215
 11
-97.7627909316
 21
-14.9727088025
  0
LINE
  5
288
100
AcDbEntity
  8
0
100
AcDbLine
 62
7
  6
CONTINUOUS
 10
-136.0528786003
 20
6.5819145974
 11
-136.0398391988
 21
6.5223044637
  0
LINE
  5
289
100
AcDbEntity
  8
0
100
AcDbLine
 62
7
  6
CONTINUOUS
 10
-143.9910587957
 20
-35.9668852211
 11
-143.991075508
 21
-35.8720498375
  0
LINE
  5
28A
100
AcDbEntity
  8
0
100
AcDbLine
 62
7
  6
CONTINUOUS
 10
-143.6705548818
 20
-36.0129325809
 11
-143.6705316307
 21
-36.1501829962
  0
LINE
  5
28B
100
AcDbEntity
  8
0
100
AcDbLine
 62
7
  6
CONTINUOUS
 10
-126.4333546803
 20
7.4560851026
 11
-126.4331866343
 21
7.4950542531
  0
LINE
  5
28C
100
AcDbEntity
  8
0
100
AcDbLine
 62
7
  6
CONTINUOUS
 10
-154.0742128261
 20
-16.2824606892
 11
-154.0768738626
 21
-16.319220287
  0
LINE
  5
28D
100
AcDbEntity
  8
0
100
AcDbLine
 62
7
  6
CONTINUOUS
 10
-154.0729050215
 20
-16.2822284858
 11
-154.0768738626
 21
-16.319220287
  0
LINE
  5
28E
100
AcDbEntity
  8
0
100
AcDbLine
 62
7
  6
CONTINUOUS
 10
-95.7361709607
 20
-17.1026152616
 11
-95.5761415993
 21
-17.7250585484
  0
LINE
  5
28F
100
AcDbEntity
  8
0
100
AcDbLine
 62
7
  6
CONTINUOUS
 10
-91.4512764325
 20
-16.6122807848
 11
-91.6113057939
 21
-15.9898374977
  0
LWPOLYLINE
  5
290
100
AcDbEntity
  8
0
100
AcDbPolyline
 62
7
  6
CONTINUOUS
 90
7
 70
0
 10
-126.4331854674
 20
7.4955409531
 10
-126.4668293153
 20
7.7370509377
 10
-126.5659987789
 20
7.9574174378
 10
-126.7242132921
 20
8.1398477827
 10
-126.9319945179
 20
8.2708673049
 10
-127.1770946161
 20
8.3388084522
 10
-127.3292132574
 20
8.345529639
  0
LINE
  5
291
100
AcDbEntity
  8
0
100
AcDbLine
 62
7
  6
CONTINUOUS
 10
-103.0928088739
 20
-13.407846782
 11
-103.6451890034
 21
-2.8540885342
  0
LINE
  5
292
100
AcDbEntity
  8
0
100
AcDbLine
 62
7
  6
CONTINUOUS
 10
-102.093882979
 20
-6.2093942098
 11
-101.6744815324
 21
-14.2224657167
  0
LINE
  5
293
100
AcDbEntity
  8
0
100
AcDbLine
 62
7
  6
CONTINUOUS
 10
-107.2512447488
 20
-56.5814904459
 11
-107.2524304282
 21
-56.556338371
  0
LINE
  5
294
100
AcDbEntity
  8
0
100
AcDbLine
 62
7
  6
CONTINUOUS
 10
-107.3304454633
 20
-56.6000443381
 11
-107.3309605198
 21
-56.5746745964
  0
LINE
  5
295
100
AcDbEntity
  8
0
100
AcDbLine
 62
7
  6
CONTINUOUS
 10
-121.5504723711
 20
-1.9357391412
 11
-121.5504646967
 21
-1.9816712071
  0
LINE
  5
296
100
AcDbEntity
  8
0
100
AcDbLine
 62
7
  6
CONTINUOUS
 10
-126.4333560113
 20
7.4586821427
 11
-126.4331866343
 21
7.4950543961
  0
LWPOLYLINE
  5
297
100
AcDbEntity
  8
0
100
AcDbPolyline
 62
7
  6
CONTINUOUS
 90
8
 70
0
 10
-107.1260983585
 20
-56.5755909922
 10
-107.2286953337
 20
-60.0811917801
 10
-106.7441972991
 20
-63.9429519017
 10
-105.6290976543
 20
-67.8425315702
 10
-103.8616283986
 20
-71.7412052161
 10
-101.415828001
 20
-75.5868119673
 10
-98.2801862112
 20
-79.3020118283
 10
-95.1116385896
 20
-82.2657404921
  0
LINE
  5
298
100
AcDbEntity
  8
0
100
AcDbLine
 62
7
  6
CONTINUOUS
 10
-153.288260711
 20
-10.0514302217
 11
-153.2882391235
 21
-10.0513274903
  0
LINE
  5
299
100
AcDbEntity
  8
0
100
AcDbLine
 62
7
  6
CONTINUOUS
 10
-89.1860654401
 20
-28.9565572154
 11
-89.1834970556
 21
-29.2641587314
  0
LINE
  5
29A
100
AcDbEntity
  8
0
100
AcDbLine
 62
7
  6
CONTINUOUS
 10
-89.1860392364
 20
-29.1112361862
 11
-89.1860654401
 21
-28.9565572154
  0
LINE
  5
29B
100
AcDbEntity
  8
0
100
AcDbLine
 62
7
  6
CONTINUOUS
 10
-89.183497036
 20
-29.2641585252
 11
-89.183466766
 21
-29.4421367313
  0
LINE
  5
29C
100
AcDbEntity
  8
0
100
AcDbLine
 62
7
  6
CONTINUOUS
 10
-107.1237561308
 20
-56.5508284343
 11
-107.1026783188
 21
-56.6129869192
  0
LINE
  5
29D
100
AcDbEntity
  8
0
100
AcDbLine
 62
7
  6
CONTINUOUS
 10
-107.1237032612
 20
-56.5502701179
 11
-107.1237561308
 21
-56.5508284343
  0
LINE
  5
29E
100
AcDbEntity
  8
0
100
AcDbLine
 62
7
  6
CONTINUOUS
 10
-107.1002596346
 20
-56.5877027769
 11
-107.0966610241
 21
-56.5533091637
  0
LWPOLYLINE
  5
29F
100
AcDbEntity
  8
0
100
AcDbPolyline
 62
7
  6
CONTINUOUS
 90
4
 70
0
 10
-106.8994093897
 20
-54.8284628589
 10
-106.9527187901
 20
-55.1872480226
 10
-107.0611081627
 20
-56.0042961202
 10
-107.100142464
 20
-56.5877889172
  0
LWPOLYLINE
  5
2A0
100
AcDbEntity
  8
0
100
AcDbPolyline
 62
7
  6
CONTINUOUS
 90
7
 70
0
 10
-151.58603124
 20
-30.5936894674
 10
-151.6352177953
 20
-30.7254781523
 10
-151.6765895048
 20
-30.9828124111
 10
-151.6501196046
 20
-31.2428726067
 10
-151.5560194255
 20
-31.4847593152
 10
-151.4007246088
 20
-31.6888114216
 10
-151.3005827563
 20
-31.7736028771
  0
LINE
  5
2A1
100
AcDbEntity
  8
0
100
AcDbLine
 62
7
  6
CONTINUOUS
 10
-151.5860261638
 20
-30.5936777927
 11
-151.2959106329
 21
-29.9552583485
  0
LINE
  5
2A2
100
AcDbEntity
  8
0
100
AcDbLine
 62
7
  6
CONTINUOUS
 10
-150.968018907
 20
-30.1295356849
 11
-151.2648179978
 21
-30.7826627685
  0
LINE
  5
2A3
100
AcDbEntity
  8
0
100
AcDbLine
 62
7
  6
CONTINUOUS
 10
-147.0738926495
 20
0.4743770089
 11
-147.0812536556
 21
0.462544586
  0
LINE
  5
2A4
100
AcDbEntity
  8
0
100
AcDbLine
 62
7
  6
CONTINUOUS
 10
-41.7040012444
 20
-35.9812292778
 11
-41.7039822845
 21
-35.9816145971
  0
LINE
  5
2A5
100
AcDbEntity
  8
0
100
AcDbLine
 62
7
  6
CONTINUOUS
 10
-57.139080703
 20
-84.8814977095
 11
-57.1392961789
 21
-83.6095533619
  0
LINE
  5
2A6
100
AcDbEntity
  8
0
100
AcDbLine
 62
7
  6
CONTINUOUS
 10
-52.1894579787
 20
-82.2742200455
 11
-52.1892425028
 21
-83.5461643949
  0
LINE
  5
2A7
100
AcDbEntity
  8
0
100
AcDbLine
 62
7
  6
CONTINUOUS
 10
-98.151080075
 20
-50.2989507382
 11
-98.1567394539
 21
-50.3209166364
  0
LINE
  5
2A8
100
AcDbEntity
  8
0
100
AcDbLine
 62
7
  6
CONTINUOUS
 10
-105.1495288602
 20
-42.5721645199
 11
-105.1412118798
 21
-42.5468846956
  0
LINE
  5
2A9
100
AcDbEntity
  8
0
100
AcDbLine
 62
7
  6
CONTINUOUS
 10
-112.9324948004
 20
-2.6766778417
 11
-112.9530970589
 21
-2.7220144762
  0
LINE
  5
2AA
100
AcDbEntity
  8
0
100
AcDbLine
 62
7
  6
CONTINUOUS
 10
-147.0738926495
 20
0.4743770089
 11
-147.0815458147
 21
0.4627562475
  0
LWPOLYLINE
  5
2AB
100
AcDbEntity
  8
0
100
AcDbPolyline
 62
7
  6
CONTINUOUS
 90
6
 70
0
 10
-154.8423527468
 20
-20.8267823565
 10
-154.951063365
 20
-20.9433945262
 10
-155.1016575366
 20
-21.1977235656
 10
-155.183264872
 20
-21.4923948188
 10
-155.1850056268
 20
-21.7992001671
 10
-155.1438316169
 20
-21.9832847513
  0
LINE
  5
2AC
100
AcDbEntity
  8
0
100
AcDbLine
 62
7
  6
CONTINUOUS
 10
-154.842350003
 20
-20.8267795904
 11
-154.335587212
 21
-20.3639877585
  0
LINE
  5
2AD
100
AcDbEntity
  8
0
100
AcDbLine
 62
7
  6
CONTINUOUS
 10
-154.0006639523
 20
-20.5364301854
 11
-154.5148447497
 21
-21.0059963757
  0
LINE
  5
2AE
100
AcDbEntity
  8
0
100
AcDbLine
 62
7
  6
CONTINUOUS
 10
-137.4499924672
 20
7.2788029945
 11
-137.5361396315
 21
7.2202452203
  0
LINE
  5
2AF
100
AcDbEntity
  8
0
100
AcDbLine
 62
7
  6
CONTINUOUS
 10
-137.4499924672
 20
7.2788029945
 11
-137.5370909673
 21
7.2231746869
  0
LWPOLYLINE
  5
2B0
100
AcDbEntity
  8
0
100
AcDbPolyline
 62
7
  6
CONTINUOUS
 90
6
 70
0
 10
-152.5207836415
 20
-9.1574783231
 10
-152.6311923885
 20
-9.1956886538
 10
-152.8667393927
 20
-9.3396146852
 10
-153.072041633
 20
-9.5604618893
 10
-153.2248864254
 20
-9.8415075381
 10
-153.2882676965
 20
-10.0514016009
  0
LWPOLYLINE
  5
2B1
100
AcDbEntity
  8
0
100
AcDbPolyline
 62
7
  6
CONTINUOUS
 90
4
 70
0
 10
-41.7042974437
 20
-35.9151507607
 10
-41.7030037559
 20
-35.8987756089
 10
-41.7094913291
 20
-35.9170457139
 10
-41.7705204134
 20
-36.0294001738
  0
LINE
  5
2B2
100
AcDbEntity
  8
0
100
AcDbLine
 62
7
  6
CONTINUOUS
 10
-52.7402530264
 20
-16.0725588806
 11
-52.7337134516
 21
-16.0204710696
  0
LINE
  5
2B3
100
AcDbEntity
  8
0
100
AcDbLine
 62
7
  6
CONTINUOUS
 10
-77.7880221395
 20
-19.7625794505
 11
-77.4139784462
 21
-18.1287009579
  0
LINE
  5
2B4
100
AcDbEntity
  8
0
100
AcDbLine
 62
7
  6
CONTINUOUS
 10
-94.1107102086
 20
-66.874352074
 11
-93.7632210501
 21
-65.7080790228
  0
LINE
  5
2B5
100
AcDbEntity
  8
0
100
AcDbLine
 62
7
  6
CONTINUOUS
 10
-98.1260756139
 20
-50.3008173176
 11
-98.1326451517
 21
-50.3226970113
  0
LINE
  5
2B6
100
AcDbEntity
  8
0
100
AcDbLine
 62
7
  6
CONTINUOUS
 10
-77.4139410185
 20
-18.1285901212
 11
-77.2959511326
 21
-17.7791802346
  0
LINE
  5
2B7
100
AcDbEntity
  8
0
100
AcDbLine
 62
7
  6
CONTINUOUS
 10
-77.7880223176
 20
-19.7625803131
 11
-77.7269289883
 21
-19.5816609576
  0
LINE
  5
2B8
100
AcDbEntity
  8
0
100
AcDbLine
 62
7
  6
CONTINUOUS
 10
-105.0792816443
 20
-42.5863865127
 11
-105.0703512483
 21
-42.561294868
  0
LWPOLYLINE
  5
2B9
100
AcDbEntity
  8
0
100
AcDbPolyline
 62
7
  6
CONTINUOUS
 90
8
 70
0
 10
-104.7660346209
 20
-42.6978746193
 10
-106.0041196258
 20
-46.1571977182
 10
-106.7621166419
 20
-50.1043239687
 10
-106.8919204887
 20
-54.2298838633
 10
-106.3580242701
 20
-58.4967602066
 10
-105.1156720629
 20
-62.854999532
 10
-103.1240278169
 20
-67.2247742468
 10
-100.7437253145
 20
-70.9819547336
  0
LINE
  5
2BA
100
AcDbEntity
  8
0
100
AcDbLine
 62
7
  6
CONTINUOUS
 10
-104.7554567586
 20
-42.6733790013
 11
-104.765782791
 21
-42.6980193228
  0
LINE
  5
2BB
100
AcDbEntity
  8
0
100
AcDbLine
 62
7
  6
CONTINUOUS
 10
-104.7375836249
 20
-42.7203302361
 11
-104.7271115177
 21
-42.6957745166
  0
LWPOLYLINE
  5
2BC
100
AcDbEntity
  8
0
100
AcDbPolyline
 62
7
  6
CONTINUOUS
 90
4
 70
0
 10
-104.00004812
 20
-41.0673241107
 10
-104.1482427049
 20
-41.3694402487
 10
-104.5171099329
 20
-42.1483934163
 10
-104.7551802841
 20
-42.6734677266
  0
LINE
  5
2BD
100
AcDbEntity
  8
0
100
AcDbLine
 62
7
  6
CONTINUOUS
 10
-137.9005867306
 20
-34.7294867736
 11
-137.8648945685
 21
-34.6968915022
  0
LWPOLYLINE
  5
2BE
100
AcDbEntity
  8
0
100
AcDbPolyline
 62
7
  6
CONTINUOUS
 90
4
 70
0
 10
-86.4523082953
 20
-18.6158840972
 10
-86.7960516447
 20
-18.7942678455
 10
-87.4853706131
 20
-19.1678648542
 10
-87.9443519402
 20
-19.4285393258
  0
LINE
  5
2BF
100
AcDbEntity
  8
0
100
AcDbLine
 62
7
  6
CONTINUOUS
 10
-98.3820744131
 20
-29.4382741583
 11
-98.3677682114
 21
-29.4164002822
  0
LINE
  5
2C0
100
AcDbEntity
  8
0
100
AcDbLine
 62
7
  6
CONTINUOUS
 10
-64.5948823429
 20
-14.1656138132
 11
-64.3648578797
 21
-13.8471760058
  0
LINE
  5
2C1
100
AcDbEntity
  8
0
100
AcDbLine
 62
7
  6
CONTINUOUS
 10
-64.9908677214
 20
-15.0678091428
 11
-64.8779516993
 21
-14.91149197
  0
LINE
  5
2C2
100
AcDbEntity
  8
0
100
AcDbLine
 62
7
  6
CONTINUOUS
 10
-98.4002164862
 20
-29.4231431163
 11
-98.3848845263
 21
-29.4020994704
  0
LWPOLYLINE
  5
2C3
100
AcDbEntity
  8
0
100
AcDbPolyline
 62
7
  6
CONTINUOUS
 90
8
 70
0
 10
-98.0407384721
 20
-29.6615185802
 10
-100.2121820825
 20
-32.5633798406
 10
-102.0380544858
 20
-36.040746454
 10
-103.2856341909
 20
-39.8404930181
 10
-103.9080934549
 20
-43.9330818423
 10
-103.8456057557
 20
-48.2788726619
 10
-103.032246804
 20
-52.8077403174
 10
-101.6003836373
 20
-56.9765625402
  0
LINE
  5
2C4
100
AcDbEntity
  8
0
100
AcDbLine
 62
7
  6
CONTINUOUS
 10
-98.4282235282
 20
-29.3345478083
 11
-98.4441352185
 21
-29.3555244321
  0
LINE
  5
2C5
100
AcDbEntity
  8
0
100
AcDbLine
 62
7
  6
CONTINUOUS
 10
-93.7656349326
 20
-51.4590434613
 11
-94.1132450135
 21
-51.9115170864
  0
LINE
  5
2C6
100
AcDbEntity
  8
0
100
AcDbLine
 62
7
  6
CONTINUOUS
 10
-98.4696574
 20
-29.2981566301
 11
-98.4862958971
 21
-29.3185688709
  0
LINE
  5
2C7
100
AcDbEntity
  8
0
100
AcDbLine
 62
7
  6
CONTINUOUS
 10
-97.3619987253
 20
-51.8179225893
 11
-97.0963994291
 21
-51.4947492776
  0
LINE
  5
2C8
100
AcDbEntity
  8
0
100
AcDbLine
 62
7
  6
CONTINUOUS
 10
-98.0236926651
 20
-29.6415891905
 11
-98.0406258299
 21
-29.661831156
  0
LINE
  5
2C9
100
AcDbEntity
  8
0
100
AcDbLine
 62
7
  6
CONTINUOUS
 10
-97.9836474115
 20
-29.6465673533
 11
-98.0006668965
 21
-29.6667721699
  0
LINE
  5
2CA
100
AcDbEntity
  8
0
100
AcDbLine
 62
7
  6
CONTINUOUS
 10
-98.0236926651
 20
-29.6415891905
 11
-98.0235600321
 21
-29.641434893
  0
LWPOLYLINE
  5
2CB
100
AcDbEntity
  8
0
100
AcDbPolyline
 62
7
  6
CONTINUOUS
 90
5
 70
0
 10
-84.3304107849
 20
-17.213780757
 10
-86.3806156529
 20
-19.5123885243
 10
-87.9344913448
 20
-22.345766091
 10
-88.9033969183
 20
-25.6968035827
 10
-89.186065526
 20
-28.9552591686
  0
LWPOLYLINE
  5
2CC
100
AcDbEntity
  8
0
100
AcDbPolyline
 62
7
  6
CONTINUOUS
 90
4
 70
0
 10
-96.8345619374
 20
-28.340588629
 10
-97.0730939395
 20
-28.5928199111
 10
-97.6459887153
 20
-29.2164843929
 10
-98.0233648743
 20
-29.6416508774
  0
LWPOLYLINE
  5
2CD
100
AcDbEntity
  8
0
100
AcDbPolyline
 62
7
  6
CONTINUOUS
 90
4
 70
0
 10
-74.249627494
 20
-13.5024954091
 10
-75.8672421183
 20
-15.0672299194
 10
-77.0819466513
 20
-17.2022551948
 10
-77.2967785642
 20
-17.7816313754
  0
LINE
  5
2CE
100
AcDbEntity
  8
0
100
AcDbLine
 62
7
  6
CONTINUOUS
 10
-52.734978352
 20
-16.0213962133
 11
-52.5229269894
 21
-15.8663016085
  0
LINE
  5
2CF
100
AcDbEntity
  8
0
100
AcDbLine
 62
7
  6
CONTINUOUS
 10
-52.7402537601
 20
-16.0725595734
 11
-52.5927054851
 21
-15.9646424559
  0
LINE
  5
2D0
100
AcDbEntity
  8
0
100
AcDbLine
 62
7
  6
CONTINUOUS
 10
-88.0782116234
 20
-19.2837464694
 11
-88.0583568592
 21
-19.2695127435
  0
LINE
  5
2D1
100
AcDbEntity
  8
0
100
AcDbLine
 62
7
  6
CONTINUOUS
 10
-88.1143850131
 20
-19.202021981
 11
-88.0943972918
 21
-19.1879274023
  0
LWPOLYLINE
  5
2D2
100
AcDbEntity
  8
0
100
AcDbPolyline
 62
7
  6
CONTINUOUS
 90
8
 70
0
 10
-87.9655912233
 20
-19.4408417726
 10
-90.7311933669
 20
-21.3566049302
 10
-93.2916769182
 20
-23.8789816747
 10
-95.362940408
 20
-26.8495466319
 10
-96.8917333197
 20
-30.250850396
 10
-97.8101299969
 20
-34.0612975283
 10
-98.0345737458
 20
-38.232090921
 10
-97.5460642449
 20
-42.3428573854
  0
LINE
  5
2D3
100
AcDbEntity
  8
0
100
AcDbLine
 62
7
  6
CONTINUOUS
 10
-87.952826456
 20
-19.4612662121
 11
-87.9177053222
 21
-19.439316376
  0
LINE
  5
2D4
100
AcDbEntity
  8
0
100
AcDbLine
 62
7
  6
CONTINUOUS
 10
-87.8965438937
 20
-19.4268641179
 11
-87.9662360252
 21
-19.4415619933
  0
LINE
  5
2D5
100
AcDbEntity
  8
0
100
AcDbLine
 62
7
  6
CONTINUOUS
 10
-87.9453302989
 20
-19.4287847159
 11
-87.9445504007
 21
-19.4283200848
  0
LINE
  5
2D6
100
AcDbEntity
  8
0
100
AcDbLine
 62
7
  6
CONTINUOUS
 10
-87.9534661642
 20
-19.4603334549
 11
-87.9175660013
 21
-19.4393602705
  0
LINE
  5
2D7
100
AcDbEntity
  8
0
100
AcDbLine
 62
7
  6
CONTINUOUS
 10
-59.3736563389
 20
-85.2480589605
 11
-59.4347496682
 21
-85.4289783161
  0
LINE
  5
2D8
100
AcDbEntity
  8
0
100
AcDbLine
 62
7
  6
CONTINUOUS
 10
-52.5229269894
 20
-15.8663016085
 11
-52.5927055148
 21
-15.9646424648
  0
LWPOLYLINE
  5
2D9
100
AcDbEntity
  8
0
100
AcDbPolyline
 62
7
  6
CONTINUOUS
 90
3
 70
0
 10
-41.7705204134
 20
-36.0294001738
 10
-41.9137604611
 20
-36.1691249035
 10
-41.9651982055
 20
-36.2016953058
  0
LINE
  5
2DA
100
AcDbEntity
  8
0
100
AcDbLine
 62
7
  6
CONTINUOUS
 10
-44.7843522757
 20
-37.8040514092
 11
-41.9653590136
 21
-36.2017755744
  0
LINE
  5
2DB
100
AcDbEntity
  8
0
100
AcDbLine
 62
7
  6
CONTINUOUS
 10
-41.663371681
 20
-36.2285611976
 11
-44.6107069305
 21
-37.9037849347
  0
LINE
  5
2DC
100
AcDbEntity
  8
0
100
AcDbLine
 62
7
  6
CONTINUOUS
 10
-94.1107102086
 20
-66.874352074
 11
-97.3591354273
 21
-68.7207112985
  0
LINE
  5
2DD
100
AcDbEntity
  8
0
100
AcDbLine
 62
7
  6
CONTINUOUS
 10
-43.0509684478
 20
-38.1362871997
 11
-39.8025432292
 21
-36.2899279752
  0
LINE
  5
2DE
100
AcDbEntity
  8
0
100
AcDbLine
 62
7
  6
CONTINUOUS
 10
-72.1708109351
 20
-89.9428301309
 11
-72.2837269572
 21
-90.0991473036
  0
LINE
  5
2DF
100
AcDbEntity
  8
0
100
AcDbLine
 62
7
  6
CONTINUOUS
 10
-84.4214248963
 20
-88.9380797003
 11
-84.5689731714
 21
-89.0459968177
  0
ARC
  5
2E0
100
AcDbEntity
  8
0
100
AcDbCircle
 62
7
  6
CONTINUOUS
 10
-366.7533408722
 20
-227.7645315799
 40
339.2483160557
100
AcDbArc
 50
41.5897755394
 51
41.7468585236
  0
ARC
  5
2E1
100
AcDbEntity
  8
0
100
AcDbCircle
 62
7
  6
CONTINUOUS
 10
-156.1812193239
 20
-143.1188519629
 40
129.4118086485
100
AcDbArc
 50
62.3396120091
 51
62.6203300816
  0
ARC
  5
2E2
100
AcDbEntity
  8
0
100
AcDbCircle
 62
7
  6
CONTINUOUS
 10
-159.2257440238
 20
-56.2496831244
 40
71.3839116048
100
AcDbArc
 50
47.6190635157
 51
52.0429118592
  0
ARC
  5
2E3
100
AcDbEntity
  8
0
100
AcDbCircle
 62
7
  6
CONTINUOUS
 10
-132.8910039342
 20
-15.8952470893
 40
23.6419378203
100
AcDbArc
 50
71.8291325708
 51
72.2495477464
  0
ARC
  5
2E4
100
AcDbEntity
  8
0
100
AcDbCircle
 62
7
  6
CONTINUOUS
 10
-132.9246846439
 20
-15.8678744902
 40
23.6308804047
100
AcDbArc
 50
67.9096820322
 51
72.1515346602
  0
ARC
  5
2E5
100
AcDbEntity
  8
0
100
AcDbCircle
 62
7
  6
CONTINUOUS
 10
-132.8493201205
 20
-15.7709969024
 40
23.5108847395
100
AcDbArc
 50
69.519501828
 51
71.8312220974
  0
ARC
  5
2E6
100
AcDbEntity
  8
0
100
AcDbCircle
 62
7
  6
CONTINUOUS
 10
-132.8032372442
 20
-15.6448357832
 40
23.3765742458
100
AcDbArc
 50
69.159929735
 51
69.5171187507
  0
ARC
  5
2E7
100
AcDbEntity
  8
0
100
AcDbCircle
 62
7
  6
CONTINUOUS
 10
-132.7856449999
 20
-15.5989330775
 40
23.3274160002
100
AcDbArc
 50
67.9803641231
 51
69.1602022018
  0
ARC
  5
2E8
100
AcDbEntity
  8
0
100
AcDbCircle
 62
7
  6
CONTINUOUS
 10
-137.6311511581
 20
-12.9256426052
 40
23.282998972
100
AcDbArc
 50
234.049106653
 51
240.1749395139
  0
ARC
  5
2E9
100
AcDbEntity
  8
0
100
AcDbCircle
 62
7
  6
CONTINUOUS
 10
-132.7891253963
 20
-15.5442033415
 40
23.2799901164
100
AcDbArc
 50
60.0930913256
 51
67.9192458029
  0
ARC
  5
2EA
100
AcDbEntity
  8
0
100
AcDbCircle
 62
7
  6
CONTINUOUS
 10
-132.732252986
 20
-15.4694003694
 40
23.1873105992
100
AcDbArc
 50
64.6893020489
 51
67.7568001859
  0
ARC
  5
2EB
100
AcDbEntity
  8
0
100
AcDbCircle
 62
7
  6
CONTINUOUS
 10
-137.7269323485
 20
-13.0954233119
 40
23.0881192084
100
AcDbArc
 50
234.0501049511
 51
239.003400817
  0
ARC
  5
2EC
100
AcDbEntity
  8
0
100
AcDbCircle
 62
7
  6
CONTINUOUS
 10
-132.6892509914
 20
-15.3763600352
 40
23.0848174006
100
AcDbArc
 50
64.3250316028
 51
64.687060081
  0
ARC
  5
2ED
100
AcDbEntity
  8
0
100
AcDbCircle
 62
7
  6
CONTINUOUS
 10
-132.6691860067
 20
-15.3349451722
 40
23.0387981136
100
AcDbArc
 50
60.0922175277
 51
64.3253804444
  0
ARC
  5
2EE
100
AcDbEntity
  8
0
100
AcDbCircle
 62
7
  6
CONTINUOUS
 10
-137.7714200625
 20
-13.1665161674
 40
23.0042680115
100
AcDbArc
 50
239.0071937499
 51
240.1733792944
  0
ARC
  5
2EF
100
AcDbEntity
  8
0
100
AcDbCircle
 62
7
  6
CONTINUOUS
 10
-132.6948465977
 20
-18.3254968364
 40
22.4674347929
100
AcDbArc
 50
179.9513615949
 51
186.4335729862
  0
ARC
  5
2F0
100
AcDbEntity
  8
0
100
AcDbCircle
 62
7
  6
CONTINUOUS
 10
-133.4930351909
 20
-18.4074200204
 40
21.6650947421
100
AcDbArc
 50
186.4548111786
 51
186.9040126524
  0
ARC
  5
2F1
100
AcDbEntity
  8
0
100
AcDbCircle
 62
7
  6
CONTINUOUS
 10
-138.1693665066
 20
-20.8027362803
 40
16.0532474276
100
AcDbArc
 50
204.5038781943
 51
210.2415769588
  0
ARC
  5
2F2
100
AcDbEntity
  8
0
100
AcDbCircle
 62
7
  6
CONTINUOUS
 10
-138.7248787357
 20
-20.2936867489
 40
16.0403332182
100
AcDbArc
 50
217.5510440551
 51
217.8202784415
  0
ARC
  5
2F3
100
AcDbEntity
  8
0
100
AcDbCircle
 62
7
  6
CONTINUOUS
 10
-138.9077653958
 20
-21.2378943412
 40
15.1961720668
100
AcDbArc
 50
210.22632627
 51
215.1357373205
  0
ARC
  5
2F4
100
AcDbEntity
  8
0
100
AcDbCircle
 62
7
  6
CONTINUOUS
 10
-136.8989555638
 20
6.6972712203
 40
0.6458234156
100
AcDbArc
 50
29.4948674491
 51
48.4914109113
  0
ARC
  5
2F5
100
AcDbEntity
  8
0
100
AcDbCircle
 62
7
  6
CONTINUOUS
 10
-111.0104451027
 20
-33.1673081648
 40
48.3540449014
100
AcDbArc
 50
132.4107164345
 51
134.1689298173
  0
ARC
  5
2F6
100
AcDbEntity
  8
0
100
AcDbCircle
 62
7
  6
CONTINUOUS
 10
-111.4609342328
 20
-32.6831239109
 40
47.6927297975
100
AcDbArc
 50
132.0512599774
 51
132.4034412658
  0
ARC
  5
2F7
100
AcDbEntity
  8
0
100
AcDbCircle
 62
7
  6
CONTINUOUS
 10
-111.7820743198
 20
-19.3697337162
 40
42.4046660233
100
AcDbArc
 50
175.8746839595
 51
179.9798922517
  0
ARC
  5
2F8
100
AcDbEntity
  8
0
100
AcDbCircle
 62
7
  6
CONTINUOUS
 10
-111.5133375397
 20
-37.7534625785
 40
37.3423503401
100
AcDbArc
 50
105.7562947481
 51
107.1296571724
  0
ARC
  5
2F9
100
AcDbEntity
  8
0
100
AcDbCircle
 62
7
  6
CONTINUOUS
 10
-125.1890107243
 20
-25.1813370419
 40
33.6199209057
100
AcDbArc
 50
105.8449108347
 51
107.3512574367
  0
ARC
  5
2FA
100
AcDbEntity
  8
0
100
AcDbCircle
 62
7
  6
CONTINUOUS
 10
-125.3797693717
 20
-24.50117761
 40
32.9135210279
100
AcDbArc
 50
105.100546183
 51
105.8487341168
  0
ARC
  5
2FB
100
AcDbEntity
  8
0
100
AcDbCircle
 62
7
  6
CONTINUOUS
 10
-124.3346334308
 20
-20.4833371365
 40
30.3137959364
100
AcDbArc
 50
148.6305036638
 51
151.6232973638
  0
ARC
  5
2FC
100
AcDbEntity
  8
0
100
AcDbCircle
 62
7
  6
CONTINUOUS
 10
-124.563791391
 20
-20.366595759
 40
30.0566905362
100
AcDbArc
 50
151.6114840128
 51
157.8043792045
  0
ARC
  5
2FD
100
AcDbEntity
  8
0
100
AcDbCircle
 62
7
  6
CONTINUOUS
 10
-124.888908882
 20
-20.2305486832
 40
29.7042700865
100
AcDbArc
 50
157.8104479673
 51
158.0548518441
  0
ARC
  5
2FE
100
AcDbEntity
  8
0
100
AcDbCircle
 62
7
  6
CONTINUOUS
 10
-114.1246283666
 20
-19.7717541835
 40
28.1994129543
100
AcDbArc
 50
211.8492464495
 51
213.5212638277
  0
ARC
  5
2FF
100
AcDbEntity
  8
0
100
AcDbCircle
 62
7
  6
CONTINUOUS
 10
-126.1767936178
 20
-19.5171106698
 40
27.8553673622
100
AcDbArc
 50
92.1595015272
 51
92.3640709621
  0
ARC
  5
300
100
AcDbEntity
  8
0
100
AcDbCircle
 62
7
  6
CONTINUOUS
 10
-112.2531027721
 20
-27.4309908827
 40
27.701667552
100
AcDbArc
 50
153.4950506558
 51
155.5664043801
  0
ARC
  5
301
100
AcDbEntity
  8
0
100
AcDbCircle
 62
7
  6
CONTINUOUS
 10
-126.5379032588
 20
-18.5346027302
 40
27.3651977327
100
AcDbArc
 50
128.4206066469
 51
134.7041136259
  0
ARC
  5
302
100
AcDbEntity
  8
0
100
AcDbCircle
 62
7
  6
CONTINUOUS
 10
-129.3684279906
 20
-14.3996360432
 40
26.7659688968
100
AcDbArc
 50
211.0692543664
 51
212.5774291951
  0
ARC
  5
303
100
AcDbEntity
  8
0
100
AcDbCircle
 62
7
  6
CONTINUOUS
 10
-128.0718952009
 20
-19.3958020824
 40
26.4071659341
100
AcDbArc
 50
168.660944035
 51
173.1808961736
  0
ARC
  5
304
100
AcDbEntity
  8
0
100
AcDbCircle
 62
7
  6
CONTINUOUS
 10
-129.6992929141
 20
-14.6116963203
 40
26.3729792569
100
AcDbArc
 50
212.5762448543
 51
213.6903050804
  0
ARC
  5
305
100
AcDbEntity
  8
0
100
AcDbCircle
 62
7
  6
CONTINUOUS
 10
-127.5320550857
 20
-17.318466193
 40
25.7946062426
100
AcDbArc
 50
125.1727863401
 51
128.3691964696
  0
ARC
  5
306
100
AcDbEntity
  8
0
100
AcDbCircle
 62
7
  6
CONTINUOUS
 10
-116.0347561689
 20
-21.0798763118
 40
25.7764701212
100
AcDbArc
 50
211.9742185295
 51
213.7464461192
  0
ARC
  5
307
100
AcDbEntity
  8
0
100
AcDbCircle
 62
7
  6
CONTINUOUS
 10
-114.3060454335
 20
-25.5141934248
 40
24.8897524467
100
AcDbArc
 50
130.1903130839
 51
132.4172675282
  0
ARC
  5
308
100
AcDbEntity
  8
0
100
AcDbCircle
 62
7
  6
CONTINUOUS
 10
-121.2481300927
 20
-25.6784741375
 40
24.524602435
100
AcDbArc
 50
70.4054776329
 51
72.2664324174
  0
ARC
  5
309
100
AcDbEntity
  8
0
100
AcDbCircle
 62
7
  6
CONTINUOUS
 10
-129.9448304544
 20
-19.1999903941
 40
24.5242460988
100
AcDbArc
 50
173.1155815594
 51
179.9813019896
  0
ARC
  5
30A
100
AcDbEntity
  8
0
100
AcDbCircle
 62
7
  6
CONTINUOUS
 10
-130.2358191599
 20
-17.9501419191
 40
23.9920783212
100
AcDbArc
 50
175.9889057007
 51
183.3512120058
  0
ARC
  5
30B
100
AcDbEntity
  8
0
100
AcDbCircle
 62
7
  6
CONTINUOUS
 10
-120.6992197265
 20
-24.6368887709
 40
23.2931938586
100
AcDbArc
 50
70.5227082377
 51
72.4119360887
  0
ARC
  5
30C
100
AcDbEntity
  8
0
100
AcDbCircle
 62
7
  6
CONTINUOUS
 10
-131.5132503622
 20
-19.195131561
 40
22.9558251005
100
AcDbArc
 50
179.99215171
 51
183.1425677722
  0
ARC
  5
30D
100
AcDbEntity
  8
0
100
AcDbCircle
 62
7
  6
CONTINUOUS
 10
-117.7016042824
 20
-26.3146542001
 40
22.1050102901
100
AcDbArc
 50
177.5998052806
 51
179.9968682774
  0
ARC
  5
30E
100
AcDbEntity
  8
0
100
AcDbCircle
 62
7
  6
CONTINUOUS
 10
-131.4380788402
 20
-11.633308525
 40
19.5597208831
100
AcDbArc
 50
104.6940696083
 51
105.0032076005
  0
ARC
  5
30F
100
AcDbEntity
  8
0
100
AcDbCircle
 62
7
  6
CONTINUOUS
 10
-111.0716057044
 20
-22.3746823323
 40
18.8944286415
100
AcDbArc
 50
105.0976179892
 51
105.4375189763
  0
ARC
  5
310
100
AcDbEntity
  8
0
100
AcDbCircle
 62
7
  6
CONTINUOUS
 10
-130.5839959459
 20
-11.1714464372
 40
18.892196498
100
AcDbArc
 50
101.6501870497
 51
107.3204789984
  0
ARC
  5
311
100
AcDbEntity
  8
0
100
AcDbCircle
 62
7
  6
CONTINUOUS
 10
-129.8019170458
 20
-11.1507640786
 40
18.1694950855
100
AcDbArc
 50
46.5549634258
 51
46.9068063639
  0
ARC
  5
312
100
AcDbEntity
  8
0
100
AcDbCircle
 62
7
  6
CONTINUOUS
 10
-130.859207418
 20
-9.9116642654
 40
17.6027988664
100
AcDbArc
 50
97.3791744921
 51
101.6008861836
  0
ARC
  5
313
100
AcDbEntity
  8
0
100
AcDbCircle
 62
7
  6
CONTINUOUS
 10
-125.0109925368
 20
-27.895871311
 40
14.5422375541
100
AcDbArc
 50
207.883388767
 51
211.0621144618
  0
ARC
  5
314
100
AcDbEntity
  8
0
100
AcDbCircle
 62
7
  6
CONTINUOUS
 10
-111.250735125
 20
-17.1127190211
 40
13.5641471907
100
AcDbArc
 50
70.3063520563
 51
73.4688985815
  0
ARC
  5
315
100
AcDbEntity
  8
0
100
AcDbCircle
 62
7
  6
CONTINUOUS
 10
-111.1694676654
 20
-16.8963826247
 40
13.3330788581
100
AcDbArc
 50
61.6876665965
 51
70.3218676055
  0
ARC
  5
316
100
AcDbEntity
  8
0
100
AcDbCircle
 62
7
  6
CONTINUOUS
 10
-111.116539507
 20
-16.791089547
 40
13.215279211
100
AcDbArc
 50
60.1267484378
 51
61.6731792026
  0
ARC
  5
317
100
AcDbEntity
  8
0
100
AcDbCircle
 62
7
  6
CONTINUOUS
 10
-107.7975934566
 20
-42.606297893
 40
12.5684472312
100
AcDbArc
 50
320.9745641074
 51
321.8758871767
  0
ARC
  5
318
100
AcDbEntity
  8
0
100
AcDbCircle
 62
7
  6
CONTINUOUS
 10
-117.9676178254
 20
-13.9714097811
 40
12.3164347644
100
AcDbArc
 50
66.5487678294
 51
69.5316498226
  0
ARC
  5
319
100
AcDbEntity
  8
0
100
AcDbCircle
 62
7
  6
CONTINUOUS
 10
-117.9399405462
 20
-13.9059513954
 40
12.2453686339
100
AcDbArc
 50
65.9682238739
 51
66.5456831948
  0
ARC
  5
31A
100
AcDbEntity
  8
0
100
AcDbCircle
 62
7
  6
CONTINUOUS
 10
-117.9200075174
 20
-13.8598079088
 40
12.1951043016
100
AcDbArc
 50
57.7028779378
 51
65.9654294647
  0
ARC
  5
31B
100
AcDbEntity
  8
0
100
AcDbCircle
 62
7
  6
CONTINUOUS
 10
-130.6510459695
 20
-32.8120563622
 40
7.6740721472
100
AcDbArc
 50
249.9190561787
 51
250.2683092347
  0
ARC
  5
31C
100
AcDbEntity
  8
0
100
AcDbCircle
 62
7
  6
CONTINUOUS
 10
-108.3677977083
 20
38.0837903423
 40
82.090367845
100
AcDbArc
 50
240.1608935114
 51
250.3262596243
  0
ARC
  5
31D
100
AcDbEntity
  8
0
100
AcDbCircle
 62
7
  6
CONTINUOUS
 10
-108.4470484643
 20
37.8951272606
 40
81.8860378798
100
AcDbArc
 50
250.334032238
 51
252.3484611806
  0
ARC
  5
31E
100
AcDbEntity
  8
0
100
AcDbCircle
 62
7
  6
CONTINUOUS
 10
-109.9212574825
 20
34.2924491712
 40
77.9793519839
100
AcDbArc
 50
244.6717778807
 51
250.4767223237
  0
ARC
  5
31F
100
AcDbEntity
  8
0
100
AcDbCircle
 62
7
  6
CONTINUOUS
 10
-107.2069013329
 20
36.092299245
 40
77.1869658526
100
AcDbArc
 50
246.4245470995
 51
246.5684164082
  0
ARC
  5
320
100
AcDbEntity
  8
0
100
AcDbCircle
 62
7
  6
CONTINUOUS
 10
-110.8993360446
 20
31.5872987584
 40
75.1028702708
100
AcDbArc
 50
250.4903103169
 51
252.0772983482
  0
ARC
  5
321
100
AcDbEntity
  8
0
100
AcDbCircle
 62
7
  6
CONTINUOUS
 10
-111.6944794425
 20
30.695169042
 40
73.9693074697
100
AcDbArc
 50
239.553535522
 51
244.7212051441
  0
ARC
  5
322
100
AcDbEntity
  8
0
100
AcDbCircle
 62
7
  6
CONTINUOUS
 10
-111.607578193
 20
29.4210964624
 40
72.8238390403
100
AcDbArc
 50
252.0830150048
 51
252.6971518002
  0
ARC
  5
323
100
AcDbEntity
  8
0
100
AcDbCircle
 62
7
  6
CONTINUOUS
 10
-111.08892535
 20
27.4790623702
 40
71.1747666022
100
AcDbArc
 50
250.3606853328
 51
251.8401995102
  0
ARC
  5
324
100
AcDbEntity
  8
0
100
AcDbCircle
 62
7
  6
CONTINUOUS
 10
-112.1312251368
 20
27.7452264103
 40
71.0681136333
100
AcDbArc
 50
252.7003920318
 51
253.5121080523
  0
ARC
  5
325
100
AcDbEntity
  8
0
100
AcDbCircle
 62
7
  6
CONTINUOUS
 10
-111.1854903902
 20
27.1846380992
 40
70.8649107662
100
AcDbArc
 50
251.887099909
 51
252.6488789971
  0
ARC
  5
326
100
AcDbEntity
  8
0
100
AcDbCircle
 62
7
  6
CONTINUOUS
 10
-113.8271653605
 20
27.0408797619
 40
69.7382324485
100
AcDbArc
 50
237.5153181089
 51
239.5427282216
  0
ARC
  5
327
100
AcDbEntity
  8
0
100
AcDbCircle
 62
7
  6
CONTINUOUS
 10
-113.9077235643
 20
17.9476102952
 40
61.1204766341
100
AcDbArc
 50
248.8648414568
 51
251.5153451462
  0
ARC
  5
328
100
AcDbEntity
  8
0
100
AcDbCircle
 62
7
  6
CONTINUOUS
 10
-113.9183687814
 20
17.8792437304
 40
61.0522670747
100
AcDbArc
 50
251.547313101
 51
252.4262744527
  0
ARC
  5
329
100
AcDbEntity
  8
0
100
AcDbCircle
 62
7
  6
CONTINUOUS
 10
-115.4509910049
 20
15.8288676223
 40
58.734902978
100
AcDbArc
 50
252.3894532047
 51
253.3478061424
  0
ARC
  5
32A
100
AcDbEntity
  8
0
100
AcDbCircle
 62
7
  6
CONTINUOUS
 10
-112.1872738567
 20
15.4276298904
 40
49.2794346962
100
AcDbArc
 50
235.7976611239
 51
235.9263443829
  0
ARC
  5
32B
100
AcDbEntity
  8
0
100
AcDbCircle
 62
7
  6
CONTINUOUS
 10
-118.8341584827
 20
9.159609812
 40
47.8347627438
100
AcDbArc
 50
220.7727485035
 51
231.5585689146
  0
ARC
  5
32C
100
AcDbEntity
  8
0
100
AcDbCircle
 62
7
  6
CONTINUOUS
 10
-119.872534692
 20
6.9971972574
 40
45.4549890882
100
AcDbArc
 50
243.610759795
 51
244.6311522578
  0
ARC
  5
32D
100
AcDbEntity
  8
0
100
AcDbCircle
 62
7
  6
CONTINUOUS
 10
-120.2934962195
 20
6.2124660701
 40
44.5672406068
100
AcDbArc
 50
244.6905889151
 51
246.4810394187
  0
ARC
  5
32E
100
AcDbEntity
  8
0
100
AcDbCircle
 62
7
  6
CONTINUOUS
 10
-119.9572694443
 20
3.2289462734
 40
41.9410558894
100
AcDbArc
 50
242.5047389715
 51
244.7244995243
  0
ARC
  5
32F
100
AcDbEntity
  8
0
100
AcDbCircle
 62
7
  6
CONTINUOUS
 10
-113.3110872329
 20
13.7188420026
 40
37.3208818483
100
AcDbArc
 50
230.1500702654
 51
230.4426569799
  0
ARC
  5
330
100
AcDbEntity
  8
0
100
AcDbCircle
 62
7
  6
CONTINUOUS
 10
-112.1086228418
 20
11.6384452884
 40
36.5521501098
100
AcDbArc
 50
226.6179664882
 51
226.9104154596
  0
ARC
  5
331
100
AcDbEntity
  8
0
100
AcDbCircle
 62
7
  6
CONTINUOUS
 10
-119.9541709475
 20
3.8964644365
 40
35.3692451386
100
AcDbArc
 50
235.5598029529
 51
235.8928121156
  0
ARC
  5
332
100
AcDbEntity
  8
0
100
AcDbCircle
 62
7
  6
CONTINUOUS
 10
-105.6547259359
 20
17.5361661201
 40
34.4659336334
100
AcDbArc
 50
221.8445208436
 51
223.844098332
  0
ARC
  5
333
100
AcDbEntity
  8
0
100
AcDbCircle
 62
7
  6
CONTINUOUS
 10
-122.1180536858
 20
3.9010763516
 40
34.11033686
100
AcDbArc
 50
204.3283752093
 51
210.161476888
  0
ARC
  5
334
100
AcDbEntity
  8
0
100
AcDbCircle
 62
7
  6
CONTINUOUS
 10
-120.6429548909
 20
2.6904234156
 40
33.805533906
100
AcDbArc
 50
200.8715615432
 51
207.0751212274
  0
ARC
  5
335
100
AcDbEntity
  8
0
100
AcDbCircle
 62
7
  6
CONTINUOUS
 10
-106.417064983
 20
16.7294379636
 40
33.3562781455
100
AcDbArc
 50
221.1699383168
 51
221.5891973204
  0
ARC
  5
336
100
AcDbEntity
  8
0
100
AcDbCircle
 62
7
  6
CONTINUOUS
 10
-115.8924539235
 20
10.6574691285
 40
33.3165984367
100
AcDbArc
 50
227.8531446863
 51
230.1846916973
  0
ARC
  5
337
100
AcDbEntity
  8
0
100
AcDbCircle
 62
7
  6
CONTINUOUS
 10
-106.825867815
 20
16.3727640457
 40
32.813751054
100
AcDbArc
 50
220.3532225315
 51
221.1710255946
  0
ARC
  5
338
100
AcDbEntity
  8
0
100
AcDbCircle
 62
7
  6
CONTINUOUS
 10
-116.2347506271
 20
10.2560373797
 40
32.7885615443
100
AcDbArc
 50
226.4683983775
 51
227.8256922059
  0
ARC
  5
339
100
AcDbEntity
  8
0
100
AcDbCircle
 62
7
  6
CONTINUOUS
 10
-114.9577314416
 20
9.0660214986
 40
32.714520518
100
AcDbArc
 50
224.8293453357
 51
227.538313276
  0
ARC
  5
33A
100
AcDbEntity
  8
0
100
AcDbCircle
 62
7
  6
CONTINUOUS
 10
-107.5151845509
 20
13.7419638849
 40
30.5218561182
100
AcDbArc
 50
221.1399251152
 51
221.4602548849
  0
ARC
  5
33B
100
AcDbEntity
  8
0
100
AcDbCircle
 62
7
  6
CONTINUOUS
 10
-131.5271462708
 20
-7.2072772277
 40
15.0708047557
100
AcDbArc
 50
67.0882904243
 51
70.0590228285
  0
ARC
  5
33C
100
AcDbEntity
  8
0
100
AcDbCircle
 62
7
  6
CONTINUOUS
 10
-131.5127676052
 20
-7.1724262465
 40
15.0331055262
100
AcDbArc
 50
66.6026667551
 51
67.0870569362
  0
ARC
  5
33D
100
AcDbEntity
  8
0
100
AcDbCircle
 62
7
  6
CONTINUOUS
 10
-130.7313869522
 20
-5.8408051436
 40
13.490862168
100
AcDbArc
 50
68.6473944634
 51
71.1437937616
  0
ARC
  5
33E
100
AcDbEntity
  8
0
100
AcDbCircle
 62
7
  6
CONTINUOUS
 10
-130.7004796656
 20
-5.7604239278
 40
13.404744999
100
AcDbArc
 50
67.9461902748
 51
68.645335984
  0
ARC
  5
33F
100
AcDbEntity
  8
0
100
AcDbCircle
 62
7
  6
CONTINUOUS
 10
-130.676994069
 20
-5.7029094171
 40
13.3426204263
100
AcDbArc
 50
65.8946058118
 51
67.9469280442
  0
ARC
  5
340
100
AcDbEntity
  8
0
100
AcDbCircle
 62
7
  6
CONTINUOUS
 10
-120.3238436538
 20
-8.7090500258
 40
6.8417070316
100
AcDbArc
 50
106.624457948
 51
107.4504448557
  0
ARC
  5
341
100
AcDbEntity
  8
0
100
AcDbCircle
 62
7
  6
CONTINUOUS
 10
-92.1997140141
 20
-47.5775332566
 40
56.2897480439
100
AcDbArc
 50
132.8927741608
 51
133.9196740011
  0
ARC
  5
342
100
AcDbEntity
  8
0
100
AcDbCircle
 62
7
  6
CONTINUOUS
 10
-100.4537802498
 20
-55.4015892809
 40
39.4578548458
100
AcDbArc
 50
68.1022535432
 51
69.0006745541
  0
ARC
  5
343
100
AcDbEntity
  8
0
100
AcDbCircle
 62
7
  6
CONTINUOUS
 10
-103.0791961738
 20
-28.5057926399
 40
52.6819095949
100
AcDbArc
 50
146.6414529495
 51
154.9297104658
  0
ARC
  5
344
100
AcDbEntity
  8
0
100
AcDbCircle
 62
7
  6
CONTINUOUS
 10
-103.3165552455
 20
-28.3696604016
 40
52.5291979798
100
AcDbArc
 50
146.62651653
 51
154.9515524205
  0
ARC
  5
345
100
AcDbEntity
  8
0
100
AcDbCircle
 62
7
  6
CONTINUOUS
 10
-103.4069504801
 20
-28.3458438085
 40
52.3172587261
100
AcDbArc
 50
154.9362820541
 51
155.5615232244
  0
ARC
  5
346
100
AcDbEntity
  8
0
100
AcDbCircle
 62
7
  6
CONTINUOUS
 10
-103.6494955342
 20
-28.2346895835
 40
52.050457981
100
AcDbArc
 50
155.5624596872
 51
157.237931215
  0
ARC
  5
347
100
AcDbEntity
  8
0
100
AcDbCircle
 62
7
  6
CONTINUOUS
 10
-90.1276063986
 20
-35.8111460511
 40
51.3345631565
100
AcDbArc
 50
156.1509159573
 51
157.2657464325
  0
ARC
  5
348
100
AcDbEntity
  8
0
100
AcDbCircle
 62
7
  6
CONTINUOUS
 10
-97.8081681291
 20
-41.3696650566
 40
47.7464054784
100
AcDbArc
 50
133.0288692484
 51
134.1991758426
  0
ARC
  5
349
100
AcDbEntity
  8
0
100
AcDbCircle
 62
7
  6
CONTINUOUS
 10
-92.6112562372
 20
-26.2385765849
 40
47.3645804955
100
AcDbArc
 50
178.8463305419
 51
180.0063879342
  0
ARC
  5
34A
100
AcDbEntity
  8
0
100
AcDbCircle
 62
7
  6
CONTINUOUS
 10
-100.063328664
 20
-26.2892273138
 40
39.7432932547
100
AcDbArc
 50
178.7055619743
 51
180.0349147362
  0
ARC
  5
34B
100
AcDbEntity
  8
0
100
AcDbCircle
 62
7
  6
CONTINUOUS
 10
-78.3635145831
 20
-64.367379999
 40
54.7237015887
100
AcDbArc
 50
62.0608851902
 51
70.6116865389
  0
ARC
  5
34C
100
AcDbEntity
  8
0
100
AcDbCircle
 62
7
  6
CONTINUOUS
 10
-79.626492431
 20
-63.0589046438
 40
52.4250748637
100
AcDbArc
 50
72.1737757976
 51
74.5122212316
  0
ARC
  5
34D
100
AcDbEntity
  8
0
100
AcDbCircle
 62
7
  6
CONTINUOUS
 10
-74.1285768888
 20
-55.9550928464
 40
32.7991698706
100
AcDbArc
 50
296.7344790562
 51
297.2194162148
  0
ARC
  5
34E
100
AcDbEntity
  8
0
100
AcDbCircle
 62
7
  6
CONTINUOUS
 10
-73.9545204554
 20
-49.2919951667
 40
31.6345620933
100
AcDbArc
 50
136.7801557547
 51
140.8003077657
  0
ARC
  5
34F
100
AcDbEntity
  8
0
100
AcDbCircle
 62
7
  6
CONTINUOUS
 10
-80.955697945
 20
-58.6580538608
 40
26.2947912179
100
AcDbArc
 50
192.5454319889
 51
192.8504313219
  0
ARC
  5
350
100
AcDbEntity
  8
0
100
AcDbCircle
 62
7
  6
CONTINUOUS
 10
-81.7091211468
 20
-58.8167207259
 40
25.524893584
100
AcDbArc
 50
185.646980342
 51
192.5651298888
  0
ARC
  5
351
100
AcDbEntity
  8
0
100
AcDbCircle
 62
7
  6
CONTINUOUS
 10
-81.9332972711
 20
-52.7484086938
 40
24.9125249814
100
AcDbArc
 50
162.9653422345
 51
166.1199940316
  0
ARC
  5
352
100
AcDbEntity
  8
0
100
AcDbCircle
 62
7
  6
CONTINUOUS
 10
-81.9963743931
 20
-52.7283703572
 40
24.8463449724
100
AcDbArc
 50
158.1005099983
 51
162.9669120683
  0
ARC
  5
353
100
AcDbEntity
  8
0
100
AcDbCircle
 62
7
  6
CONTINUOUS
 10
-82.1604551883
 20
-52.6639169948
 40
24.6700645724
100
AcDbArc
 50
156.2299658218
 51
158.0972668926
  0
ARC
  5
354
100
AcDbEntity
  8
0
100
AcDbCircle
 62
7
  6
CONTINUOUS
 10
-83.0005125969
 20
-58.9710146682
 40
24.2246012996
100
AcDbArc
 50
184.1513845461
 51
185.5843651373
  0
ARC
  5
355
100
AcDbEntity
  8
0
100
AcDbCircle
 62
7
  6
CONTINUOUS
 10
-83.0943383124
 20
-58.9786423217
 40
24.1304710709
100
AcDbArc
 50
183.7535276526
 51
184.1494464166
  0
ARC
  5
356
100
AcDbEntity
  8
0
100
AcDbCircle
 62
7
  6
CONTINUOUS
 10
-83.24771992
 20
-58.9878026374
 40
23.9768188239
100
AcDbArc
 50
181.3343003313
 51
183.7556792645
  0
ARC
  5
357
100
AcDbEntity
  8
0
100
AcDbCircle
 62
7
  6
CONTINUOUS
 10
-79.9551322671
 20
-45.3358193972
 40
23.8991684421
100
AcDbArc
 50
139.0318573465
 51
140.9646642271
  0
ARC
  5
358
100
AcDbEntity
  8
0
100
AcDbCircle
 62
7
  6
CONTINUOUS
 10
-83.7176729395
 20
-58.9964443489
 40
23.5067921165
100
AcDbArc
 50
175.524976572
 51
181.3399158339
  0
ARC
  5
359
100
AcDbEntity
  8
0
100
AcDbCircle
 62
7
  6
CONTINUOUS
 10
-82.4453859738
 20
-62.9995392554
 40
23.1585131292
100
AcDbArc
 50
204.4457219096
 51
205.02103518
  0
ARC
  5
35A
100
AcDbEntity
  8
0
100
AcDbCircle
 62
7
  6
CONTINUOUS
 10
-82.6871051253
 20
-63.1089669604
 40
22.8931786265
100
AcDbArc
 50
203.3347548958
 51
204.4467554575
  0
ARC
  5
35B
100
AcDbEntity
  8
0
100
AcDbCircle
 62
7
  6
CONTINUOUS
 10
-84.3320571612
 20
-58.9585069039
 40
22.8913230656
100
AcDbArc
 50
174.1190053632
 51
175.4996586652
  0
ARC
  5
35C
100
AcDbEntity
  8
0
100
AcDbCircle
 62
7
  6
CONTINUOUS
 10
-83.1795977437
 20
-63.3194749062
 40
22.3575861496
100
AcDbArc
 50
201.0679280948
 51
203.3393366522
  0
ARC
  5
35D
100
AcDbEntity
  8
0
100
AcDbCircle
 62
7
  6
CONTINUOUS
 10
-82.6757230212
 20
-60.449110687
 40
20.5915616387
100
AcDbArc
 50
239.156676498
 51
240.1231576059
  0
ARC
  5
35E
100
AcDbEntity
  8
0
100
AcDbCircle
 62
7
  6
CONTINUOUS
 10
-82.5863647634
 20
-61.3412012734
 40
19.8625426026
100
AcDbArc
 50
237.0918630827
 51
238.6282556318
  0
ARC
  5
35F
100
AcDbEntity
  8
0
100
AcDbCircle
 62
7
  6
CONTINUOUS
 10
-82.6045624417
 20
-61.3708797819
 40
19.8277293612
100
AcDbArc
 50
238.6285070985
 51
240.1293584514
  0
ARC
  5
360
100
AcDbEntity
  8
0
100
AcDbCircle
 62
7
  6
CONTINUOUS
 10
-83.0580627027
 20
-61.1133311594
 40
19.8252074335
100
AcDbArc
 50
239.0117273703
 51
240.1251963481
  0
ARC
  5
361
100
AcDbEntity
  8
0
100
AcDbCircle
 62
7
  6
CONTINUOUS
 10
-81.1106014872
 20
-58.9071714574
 40
17.2124928451
100
AcDbArc
 50
221.07621156
 51
234.2638136585
  0
ARC
  5
362
100
AcDbEntity
  8
0
100
AcDbCircle
 62
7
  6
CONTINUOUS
 10
-81.4049806788
 20
-59.2862861595
 40
16.7328356655
100
AcDbArc
 50
234.3238339246
 51
240.1226178172
  0
ARC
  5
363
100
AcDbEntity
  8
0
100
AcDbCircle
 62
7
  6
CONTINUOUS
 10
-79.4288540269
 20
-60.4243964411
 40
16.7301315865
100
AcDbArc
 50
232.3315379887
 51
240.1251004197
  0
ARC
  5
364
100
AcDbEntity
  8
0
100
AcDbCircle
 62
7
  6
CONTINUOUS
 10
-81.3626460789
 20
-39.7841181987
 40
61.140999931
100
AcDbArc
 50
156.0179654145
 51
156.9853393964
  0
ARC
  5
365
100
AcDbEntity
  8
0
100
AcDbCircle
 62
7
  6
CONTINUOUS
 10
-83.1997909437
 20
-42.6003203587
 40
30.4604169001
100
AcDbArc
 50
72.8722095011
 51
73.2024645893
  0
ARC
  5
366
100
AcDbEntity
  8
0
100
AcDbCircle
 62
7
  6
CONTINUOUS
 10
-84.808027924
 20
-43.1843457389
 40
28.2524403916
100
AcDbArc
 50
321.9717894259
 51
331.3809861473
  0
ARC
  5
367
100
AcDbEntity
  8
0
100
AcDbCircle
 62
7
  6
CONTINUOUS
 10
-84.6452676916
 20
-43.2626994922
 40
28.0720369114
100
AcDbArc
 50
331.3622523677
 51
338.2866422649
  0
ARC
  5
368
100
AcDbEntity
  8
0
100
AcDbCircle
 62
7
  6
CONTINUOUS
 10
-80.0244188261
 20
-45.2807991398
 40
23.8106978574
100
AcDbArc
 50
140.9625003922
 51
145.8912006341
  0
ARC
  5
369
100
AcDbEntity
  8
0
100
AcDbCircle
 62
7
  6
CONTINUOUS
 10
-80.2246158157
 20
-45.1441512662
 40
23.5683124234
100
AcDbArc
 50
145.8933332009
 51
149.157173106
  0
ARC
  5
36A
100
AcDbEntity
  8
0
100
AcDbCircle
 62
7
  6
CONTINUOUS
 10
-77.3453459799
 20
-37.5779882336
 40
20.9948000354
100
AcDbArc
 50
120.3495225146
 51
121.7435532723
  0
ARC
  5
36B
100
AcDbEntity
  8
0
100
AcDbCircle
 62
7
  6
CONTINUOUS
 10
-77.6321297143
 20
-37.1339904177
 40
20.4663396511
100
AcDbArc
 50
121.7147496026
 51
127.9380739022
  0
ARC
  5
36C
100
AcDbEntity
  8
0
100
AcDbCircle
 62
7
  6
CONTINUOUS
 10
-77.9811950218
 20
-36.6833689644
 40
19.8963368935
100
AcDbArc
 50
127.9431047257
 51
131.0495479758
  0
ARC
  5
36D
100
AcDbEntity
  8
0
100
AcDbCircle
 62
7
  6
CONTINUOUS
 10
-73.6361430412
 20
-31.7762198866
 40
18.3366980317
100
AcDbArc
 50
97.5857412145
 51
98.0806914881
  0
ARC
  5
36E
100
AcDbEntity
  8
0
100
AcDbCircle
 62
7
  6
CONTINUOUS
 10
-73.6842388834
 20
-31.4473567953
 40
18.0043395313
100
AcDbArc
 50
98.0762654667
 51
100.028808871
  0
ARC
  5
36F
100
AcDbEntity
  8
0
100
AcDbCircle
 62
7
  6
CONTINUOUS
 10
-73.7558916012
 20
-31.0363893698
 40
17.5871737442
100
AcDbArc
 50
100.0320971399
 51
101.1500054935
  0
ARC
  5
370
100
AcDbEntity
  8
0
100
AcDbCircle
 62
7
  6
CONTINUOUS
 10
-73.9583168447
 20
-30.0896012968
 40
16.6191195805
100
AcDbArc
 50
101.0965127153
 51
106.4608054457
  0
ARC
  5
371
100
AcDbEntity
  8
0
100
AcDbCircle
 62
7
  6
CONTINUOUS
 10
-74.194020729
 20
-29.2791832857
 40
15.7751290304
100
AcDbArc
 50
106.4738671916
 51
108.611950436
  0
ARC
  5
372
100
AcDbEntity
  8
0
100
AcDbCircle
 62
7
  6
CONTINUOUS
 10
-74.2902835967
 20
-28.9883009383
 40
15.4687364052
100
AcDbArc
 50
108.6179087699
 51
108.9510474739
  0
ARC
  5
373
100
AcDbEntity
  8
0
100
AcDbCircle
 62
7
  6
CONTINUOUS
 10
-74.3707119376
 20
-28.7557928442
 40
15.2227098949
100
AcDbArc
 50
108.9489334668
 51
110.6346502874
  0
ARC
  5
374
100
AcDbEntity
  8
0
100
AcDbCircle
 62
7
  6
CONTINUOUS
 10
-87.3027401307
 20
-29.5381686663
 40
1.9309294028
100
AcDbArc
 50
137.8940875053
 51
150.7684273492
  0
ARC
  5
375
100
AcDbEntity
  8
0
100
AcDbCircle
 62
7
  6
CONTINUOUS
 10
-103.8800404643
 20
93.6353512425
 40
135.7481790762
100
AcDbArc
 50
252.9551681337
 51
253.3743148804
  0
ARC
  5
376
100
AcDbEntity
  8
0
100
AcDbCircle
 62
7
  6
CONTINUOUS
 10
-99.7603127157
 20
39.7052784368
 40
83.6374005676
100
AcDbArc
 50
242.7348199244
 51
242.86945907
  0
ARC
  5
377
100
AcDbEntity
  8
0
100
AcDbCircle
 62
7
  6
CONTINUOUS
 10
-85.8048261891
 20
28.599594873
 40
47.0123846111
100
AcDbArc
 50
219.0092574264
 51
220.3108406293
  0
ARC
  5
378
100
AcDbEntity
  8
0
100
AcDbCircle
 62
7
  6
CONTINUOUS
 10
-88.5246007341
 20
26.2614768459
 40
43.4244627526
100
AcDbArc
 50
217.9864591781
 51
218.8073879864
  0
ARC
  5
379
100
AcDbEntity
  8
0
100
AcDbCircle
 62
7
  6
CONTINUOUS
 10
-96.2710641715
 20
19.6063842942
 40
33.2131228435
100
AcDbArc
 50
220.1615124309
 51
220.4363402366
  0
ARC
  5
37A
100
AcDbEntity
  8
0
100
AcDbCircle
 62
7
  6
CONTINUOUS
 10
-98.5570015579
 20
17.1902596535
 40
29.9082513888
100
AcDbArc
 50
219.4679854404
 51
219.7537332132
  0
ARC
  5
37B
100
AcDbEntity
  8
0
100
AcDbCircle
 62
7
  6
CONTINUOUS
 10
-58.7221200824
 20
-58.2406509252
 40
48.4621113112
100
AcDbArc
 50
154.7603034357
 51
159.2350030826
  0
ARC
  5
37C
100
AcDbEntity
  8
0
100
AcDbCircle
 62
7
  6
CONTINUOUS
 10
-59.7721163911
 20
-57.5637560739
 40
47.791465918
100
AcDbArc
 50
143.9266212458
 51
159.5637745621
  0
ARC
  5
37D
100
AcDbEntity
  8
0
100
AcDbCircle
 62
7
  6
CONTINUOUS
 10
-59.2614990459
 20
-57.6543524093
 40
47.6940335968
100
AcDbArc
 50
137.330765322
 51
142.0340313994
  0
ARC
  5
37E
100
AcDbEntity
  8
0
100
AcDbCircle
 62
7
  6
CONTINUOUS
 10
-60.1947542715
 20
-57.2412959535
 40
47.2599926968
100
AcDbArc
 50
141.7080356136
 51
143.9093308712
  0
ARC
  5
37F
100
AcDbEntity
  8
0
100
AcDbCircle
 62
7
  6
CONTINUOUS
 10
-60.9516019489
 20
-57.1014581039
 40
46.5248023418
100
AcDbArc
 50
159.5900882644
 51
161.7698529398
  0
ARC
  5
380
100
AcDbEntity
  8
0
100
AcDbCircle
 62
7
  6
CONTINUOUS
 10
-64.7984905267
 20
-60.3389493826
 40
43.6528075641
100
AcDbArc
 50
153.5434782595
 51
154.416608817
  0
ARC
  5
381
100
AcDbEntity
  8
0
100
AcDbCircle
 62
7
  6
CONTINUOUS
 10
-64.919000464
 20
-60.2817952322
 40
43.5194321445
100
AcDbArc
 50
154.4159656898
 51
156.1656027663
  0
ARC
  5
382
100
AcDbEntity
  8
0
100
AcDbCircle
 62
7
  6
CONTINUOUS
 10
-66.7779733633
 20
-56.8015358353
 40
41.3662628487
100
AcDbArc
 50
137.1643233681
 51
138.9705000289
  0
ARC
  5
383
100
AcDbEntity
  8
0
100
AcDbCircle
 62
7
  6
CONTINUOUS
 10
-67.1338535266
 20
-56.4731083636
 40
40.8819963766
100
AcDbArc
 50
136.2524199087
 51
137.162747841
  0
ARC
  5
384
100
AcDbEntity
  8
0
100
AcDbCircle
 62
7
  6
CONTINUOUS
 10
-69.3697884702
 20
-51.9545578858
 40
40.4313083061
100
AcDbArc
 50
229.6656957179
 51
233.6549734949
  0
ARC
  5
385
100
AcDbEntity
  8
0
100
AcDbCircle
 62
7
  6
CONTINUOUS
 10
-64.9500163267
 20
-52.0267032654
 40
40.1752108948
100
AcDbArc
 50
122.7814664584
 51
125.1757286786
  0
ARC
  5
386
100
AcDbEntity
  8
0
100
AcDbCircle
 62
7
  6
CONTINUOUS
 10
-67.2093108088
 20
-56.5134402005
 40
39.7610462928
100
AcDbArc
 50
177.0614517542
 51
177.5872509927
  0
ARC
  5
387
100
AcDbEntity
  8
0
100
AcDbCircle
 62
7
  6
CONTINUOUS
 10
-60.7639718937
 20
-81.2741896877
 40
39.1067531117
100
AcDbArc
 50
162.089567055
 51
162.3525497109
  0
ARC
  5
388
100
AcDbEntity
  8
0
100
AcDbCircle
 62
7
  6
CONTINUOUS
 10
-68.4589189405
 20
-55.824489291
 40
38.8796565878
100
AcDbArc
 50
178.4794128199
 51
178.6988024958
  0
ARC
  5
389
100
AcDbEntity
  8
0
100
AcDbCircle
 62
7
  6
CONTINUOUS
 10
-70.6232864908
 20
-52.752915404
 40
38.3196816791
100
AcDbArc
 50
221.5280179795
 51
223.2727879066
  0
ARC
  5
38A
100
AcDbEntity
  8
0
100
AcDbCircle
 62
7
  6
CONTINUOUS
 10
-69.1551053737
 20
-55.814490219
 40
38.1834230579
100
AcDbArc
 50
178.6900803524
 51
181.1407629478
  0
ARC
  5
38B
100
AcDbEntity
  8
0
100
AcDbCircle
 62
7
  6
CONTINUOUS
 10
-69.3637317806
 20
-60.5213016471
 40
37.9409925232
100
AcDbArc
 50
171.3760658573
 51
173.9968433827
  0
ARC
  5
38C
100
AcDbEntity
  8
0
100
AcDbCircle
 62
7
  6
CONTINUOUS
 10
-71.3111639787
 20
-53.3644678562
 40
37.3992640485
100
AcDbArc
 50
220.4226771484
 51
221.525299894
  0
ARC
  5
38D
100
AcDbEntity
  8
0
100
AcDbCircle
 62
7
  6
CONTINUOUS
 10
-70.3385037758
 20
-55.843188965
 40
36.9996835103
100
AcDbArc
 50
181.1721084956
 51
183.716744631
  0
ARC
  5
38E
100
AcDbEntity
  8
0
100
AcDbCircle
 62
7
  6
CONTINUOUS
 10
-59.5305071484
 20
-65.6138768714
 40
18.1538497915
100
AcDbArc
 50
276.4575043679
 51
277.5689508832
  0
ARC
  5
38F
100
AcDbEntity
  8
0
100
AcDbCircle
 62
7
  6
CONTINUOUS
 10
-60.8319536497
 20
-40.33611173
 40
54.8495776633
100
AcDbArc
 50
233.7042407659
 51
240.1735349293
  0
ARC
  5
390
100
AcDbEntity
  8
0
100
AcDbCircle
 62
7
  6
CONTINUOUS
 10
-64.6209169773
 20
-51.3803186502
 40
39.4125786694
100
AcDbArc
 50
120.2416263657
 51
123.6580211194
  0
ARC
  5
391
100
AcDbEntity
  8
0
100
AcDbCircle
 62
7
  6
CONTINUOUS
 10
-66.0595936444
 20
-50.2867032167
 40
38.1115558449
100
AcDbArc
 50
116.1138736642
 51
122.7953442828
  0
ARC
  5
392
100
AcDbEntity
  8
0
100
AcDbCircle
 62
7
  6
CONTINUOUS
 10
-71.3629616493
 20
-47.8650250301
 40
32.8948683909
100
AcDbArc
 50
118.0745598155
 51
120.1733166553
  0
ARC
  5
393
100
AcDbEntity
  8
0
100
AcDbCircle
 62
7
  6
CONTINUOUS
 10
-71.7640768689
 20
-47.1208408818
 40
32.049475294
100
AcDbArc
 50
116.9991444162
 51
118.0679625523
  0
ARC
  5
394
100
AcDbEntity
  8
0
100
AcDbCircle
 62
7
  6
CONTINUOUS
 10
-68.8021136923
 20
-43.404261597
 40
30.6788173387
100
AcDbArc
 50
102.2046502105
 51
103.6241920098
  0
ARC
  5
395
100
AcDbEntity
  8
0
100
AcDbCircle
 62
7
  6
CONTINUOUS
 10
-68.9094283407
 20
-42.906822215
 40
30.1699339557
100
AcDbArc
 50
100.6015133754
 51
102.2051658828
  0
ARC
  5
396
100
AcDbEntity
  8
0
100
AcDbCircle
 62
7
  6
CONTINUOUS
 10
-69.0075575607
 20
-42.3832843864
 40
29.6372791113
100
AcDbArc
 50
99.0825359779
 51
100.6012521584
  0
ARC
  5
397
100
AcDbEntity
  8
0
100
AcDbCircle
 62
7
  6
CONTINUOUS
 10
-68.4870662146
 20
-42.0009180931
 40
29.2134878858
100
AcDbArc
 50
100.904071408
 51
101.7523597339
  0
ARC
  5
398
100
AcDbEntity
  8
0
100
AcDbCircle
 62
7
  6
CONTINUOUS
 10
-69.2330831628
 20
-44.7380699801
 40
27.0016048935
100
AcDbArc
 50
12.5347321213
 51
14.1520473383
  0
ARC
  5
399
100
AcDbEntity
  8
0
100
AcDbCircle
 62
7
  6
CONTINUOUS
 10
-66.7845492053
 20
-36.8869386186
 40
24.8886849784
100
AcDbArc
 50
1.6664497867
 51
3.0160415115
  0
ARC
  5
39A
100
AcDbEntity
  8
0
100
AcDbCircle
 62
7
  6
CONTINUOUS
 10
-72.9691938818
 20
-36.8760371033
 40
23.4799307745
100
AcDbArc
 50
93.6011151736
 51
97.4203686803
  0
ARC
  5
39B
100
AcDbEntity
  8
0
100
AcDbCircle
 62
7
  6
CONTINUOUS
 10
-68.8225360246
 20
-36.3288401678
 40
20.592906028
100
AcDbArc
 50
60.1314560139
 51
61.3157929428
  0
ARC
  5
39C
100
AcDbEntity
  8
0
100
AcDbCircle
 62
7
  6
CONTINUOUS
 10
-68.4566101294
 20
-35.69217011
 40
19.858601688
100
AcDbArc
 50
60.1321164896
 51
61.3987624562
  0
ARC
  5
39D
100
AcDbEntity
  8
0
100
AcDbCircle
 62
7
  6
CONTINUOUS
 10
-68.0043365634
 20
-35.9516974371
 40
19.8583944814
100
AcDbArc
 50
60.1303515394
 51
63.1697626614
  0
ARC
  5
39E
100
AcDbEntity
  8
0
100
AcDbCircle
 62
7
  6
CONTINUOUS
 10
-58.7730712921
 20
-34.0627705873
 40
19.561567549
100
AcDbArc
 50
68.2050306616
 51
68.7246624726
  0
ARC
  5
39F
100
AcDbEntity
  8
0
100
AcDbCircle
 62
7
  6
CONTINUOUS
 10
-58.7245945688
 20
-33.9458225784
 40
19.4349804887
100
AcDbArc
 50
60.1420604421
 51
68.209719092
  0
ARC
  5
3A0
100
AcDbEntity
  8
0
100
AcDbCircle
 62
7
  6
CONTINUOUS
 10
-67.2172998939
 20
-39.1663287753
 40
16.7539732348
100
AcDbArc
 50
60.1386874511
 51
67.8797926183
  0
ARC
  5
3A1
100
AcDbEntity
  8
0
100
AcDbCircle
 62
7
  6
CONTINUOUS
 10
-69.1802735239
 20
-38.0000260804
 40
16.7202572191
100
AcDbArc
 50
60.1321607008
 51
65.9149326348
  0
ARC
  5
3A2
100
AcDbEntity
  8
0
100
AcDbCircle
 62
7
  6
CONTINUOUS
 10
-69.4665633904
 20
-25.8213144419
 40
13.8214505858
100
AcDbArc
 50
79.913009986
 51
80.7560285892
  0
ARC
  5
3A3
100
AcDbEntity
  8
0
100
AcDbCircle
 62
7
  6
CONTINUOUS
 10
-68.0044899555
 20
-20.9151037191
 40
9.806366535
100
AcDbArc
 50
161.3621993896
 51
163.4545653161
  0
ARC
  5
3A4
100
AcDbEntity
  8
0
100
AcDbCircle
 62
7
  6
CONTINUOUS
 10
-69.4805321989
 20
-20.0095401605
 40
7.9711646991
100
AcDbArc
 50
102.2323603737
 51
106.3993040148
  0
ARC
  5
3A5
100
AcDbEntity
  8
0
100
AcDbCircle
 62
7
  6
CONTINUOUS
 10
-66.1083375432
 20
-47.6497837082
 40
1.525651032
100
AcDbArc
 50
245.6207473984
 51
257.2356312103
  0
ARC
  5
3A6
100
AcDbEntity
  8
0
100
AcDbCircle
 62
7
  6
CONTINUOUS
 10
-54.0072782222
 20
-61.684434193
 40
45.5884246088
100
AcDbArc
 50
165.5660823079
 51
166.2183662712
  0
ARC
  5
3A7
100
AcDbEntity
  8
0
100
AcDbCircle
 62
7
  6
CONTINUOUS
 10
-55.3893561512
 20
-83.545125127
 40
3.2001138171
100
AcDbArc
 50
352.9754017187
 51
359.9813926422
  0
ARC
  5
3A8
100
AcDbEntity
  8
0
100
AcDbCircle
 62
7
  6
CONTINUOUS
 10
-53.1319978638
 20
-70.3722739614
 40
2.8554491003
100
AcDbArc
 50
103.9265717769
 51
105.0990511951
  0
ARC
  5
3A9
100
AcDbEntity
  8
0
100
AcDbCircle
 62
7
  6
CONTINUOUS
 10
-42.4139678741
 20
-36.1793916312
 40
0.7718194029
100
AcDbArc
 50
48.6990530667
 51
51.1958127201
  0
ARC
  5
3AA
100
AcDbEntity
  8
0
100
AcDbCircle
 62
7
  6
CONTINUOUS
 10
-42.1821550771
 20
-36.0058382338
 40
0.4784890604
100
AcDbArc
 50
2.9461400085
 51
10.5017545896
  0
ARC
  5
3AB
100
AcDbEntity
  8
0
100
AcDbCircle
 62
7
  6
CONTINUOUS
 10
-56.3727544829
 20
18.0793228597
 40
80.616169417
100
AcDbArc
 50
239.227242134
 51
239.6583711233
  0
ARC
  5
3AC
100
AcDbEntity
  8
0
100
AcDbCircle
 62
7
  6
CONTINUOUS
 10
-63.5658052114
 20
17.8773845647
 40
71.2664520522
100
AcDbArc
 50
235.5506562865
 51
235.9333072365
  0
ARC
  5
3AD
100
AcDbEntity
  8
0
100
AcDbCircle
 62
7
  6
CONTINUOUS
 10
-71.4165428403
 20
34.2577049922
 40
55.567282146
100
AcDbArc
 50
221.5162654788
 51
221.6576733517
  0
ARC
  5
3AE
100
AcDbEntity
  8
0
100
AcDbCircle
 62
7
  6
CONTINUOUS
 10
155.513960122
 20
528.2154703811
 40
618.0432692898
100
AcDbArc
 50
240.1990609254
 51
241.6848312472
  0
SPLINE
  5
3AF
100
AcDbEntity
  8
0
100
AcDbSpline
 62
7
  6
CONTINUOUS
 70
0
 71
3
 72
15
 73
11
 74
0
 42
0.0000001
 43
0.0000001
 44
0.0000000001
 40
0.0
 40
0.0
 40
0.0
 40
0.0
 40
0.1244337153
 40
0.250504248
 40
0.3777221757
 40
0.5046720954
 40
0.6301670554
 40
0.7541207329
 40
0.8771943299
 40
1.0
 40
1.0
 40
1.0
 40
1.0
 10
-45.7739633791
 20
-60.2717332773
 30
0.0
 10
-45.5430861376
 20
-60.2094441572
 30
0.0
 10
-45.095668475
 20
-60.0099697311
 30
0.0
 10
-44.5354698977
 20
-59.5352632519
 30
0.0
 10
-44.1143298799
 20
-58.9281042073
 30
0.0
 10
-43.8614372221
 20
-58.2349546542
 30
0.0
 10
-43.8009619518
 20
-57.5047509761
 30
0.0
 10
-43.9522436867
 20
-56.7933705238
 30
0.0
 10
-44.3177713235
 20
-56.1690572837
 30
0.0
 10
-44.6889882544
 20
-55.8585887452
 30
0.0
 10
-44.8936308452
 20
-55.7410341671
 30
0.0
  0
SPLINE
  5
3B0
100
AcDbEntity
  8
0
100
AcDbSpline
 62
7
  6
CONTINUOUS
 70
0
 71
3
 72
11
 73
7
 74
0
 42
0.0000001
 43
0.0000001
 44
0.0000000001
 40
0.0
 40
0.0
 40
0.0
 40
0.0
 40
0.2495167361
 40
0.4991782013
 40
0.7492409494
 40
1.0
 40
1.0
 40
1.0
 40
1.0
 10
-47.3840145212
 20
-60.0766553797
 30
0.0
 10
-47.2641627964
 20
-60.1455028219
 30
0.0
 10
-47.0095135617
 20
-60.2589823085
 30
0.0
 10
-46.6014776855
 20
-60.348484408
 30
0.0
 10
-46.1832538288
 20
-60.3560186017
 30
0.0
 10
-45.9081173978
 20
-60.3079244259
 30
0.0
 10
-45.7740050169
 20
-60.2717445105
 30
0.0
  0
SPLINE
  5
3B1
100
AcDbEntity
  8
0
100
AcDbSpline
 62
7
  6
CONTINUOUS
 70
0
 71
3
 72
18
 73
14
 74
0
 42
0.0000001
 43
0.0000001
 44
0.0000000001
 40
0.0
 40
0.0
 40
0.0
 40
0.0
 40
0.0589492238
 40
0.1150989862
 40
0.1693632887
 40
0.2231829596
 40
0.2780379389
 40
0.3351940592
 40
0.4584490884
 40
0.5937642424
 40
0.7348161913
 40
0.8727257732
 40
1.0
 40
1.0
 40
1.0
 40
1.0
 10
-45.3477530921
 20
-57.352069823
 30
0.0
 10
-45.2900698117
 20
-57.3365090023
 30
0.0
 10
-45.1739533774
 20
-57.3172477621
 30
0.0
 10
-45.0010587978
 20
-57.3280829693
 30
0.0
 10
-44.8408962216
 20
-57.3797869735
 30
0.0
 10
-44.7005670305
 20
-57.4703613326
 30
0.0
 10
-44.5861445806
 20
-57.5958985705
 30
0.0
 10
-44.4712586103
 20
-57.8071191111
 30
0.0
 10
-44.4170690353
 20
-58.1317830339
 30
0.0
 10
-44.4911420842
 20
-58.5364590183
 30
0.0
 10
-44.6870174247
 20
-58.914769301
 30
0.0
 10
-44.9773758256
 20
-59.2148606615
 30
0.0
 10
-45.2228701094
 20
-59.3409221833
 30
0.0
 10
-45.3474104752
 20
-59.3745210752
 30
0.0
  0
SPLINE
  5
3B2
100
AcDbEntity
  8
0
100
AcDbSpline
 62
7
  6
CONTINUOUS
 70
0
 71
3
 72
11
 73
7
 74
0
 42
0.0000001
 43
0.0000001
 44
0.0000000001
 40
0.0
 40
0.0
 40
0.0
 40
0.0
 40
0.263376308
 40
0.5159646926
 40
0.7602058052
 40
1.0
 40
1.0
 40
1.0
 40
1.0
 10
-46.1392120191
 20
-55.6106132312
 30
0.0
 10
-46.0304219819
 20
-55.5812646028
 30
0.0
 10
-45.8119945898
 20
-55.5412115014
 30
0.0
 10
-45.4847985136
 20
-55.5421131666
 30
0.0
 10
-45.1739877333
 20
-55.6059053266
 30
0.0
 10
-44.9826612947
 20
-55.6898759442
 30
0.0
 10
-44.8937007729
 20
-55.7409717057
 30
0.0
  0
SPLINE
  5
3B3
100
AcDbEntity
  8
0
100
AcDbSpline
 62
7
  6
CONTINUOUS
 70
0
 71
3
 72
17
 73
13
 74
0
 42
0.0000001
 43
0.0000001
 44
0.0000000001
 40
0.0
 40
0.0
 40
0.0
 40
0.0
 40
0.052476388
 40
0.1058617935
 40
0.1609336063
 40
0.2182528695
 40
0.3402051883
 40
0.471465422
 40
0.6082678491
 40
0.7453117643
 40
0.8772048841
 40
1.0
 40
1.0
 40
1.0
 40
1.0
 10
-47.3840156194
 20
-60.0766770437
 30
0.0
 10
-47.4695228318
 20
-60.0275582443
 30
0.0
 10
-47.6322162368
 20
-59.9102281099
 30
0.0
 10
-47.8379681542
 20
-59.6860201281
 30
0.0
 10
-48.0017244187
 20
-59.4188405546
 30
0.0
 10
-48.1621024596
 20
-59.0065807653
 30
0.0
 10
-48.2338642326
 20
-58.4175144045
 30
0.0
 10
-48.1206750988
 20
-57.685695596
 30
0.0
 10
-47.8245551137
 20
-56.9766663893
 30
0.0
 10
-47.3722256851
 20
-56.3540238961
 30
0.0
 10
-46.8046128844
 20
-55.8739303378
 30
0.0
 10
-46.361997751
 20
-55.6707159507
 30
0.0
 10
-46.1392120191
 20
-55.6106132312
 30
0.0
  0
SPLINE
  5
3B4
100
AcDbEntity
  8
0
100
AcDbSpline
 62
7
  6
CONTINUOUS
 70
0
 71
3
 72
18
 73
14
 74
0
 42
0.0000001
 43
0.0000001
 44
0.0000000001
 40
0.0
 40
0.0
 40
0.0
 40
0.0
 40
0.0589492238
 40
0.1150989862
 40
0.1693632887
 40
0.2231829596
 40
0.2780379389
 40
0.3351940592
 40
0.4584490884
 40
0.5937642424
 40
0.7348161913
 40
0.8727257732
 40
1.0
 40
1.0
 40
1.0
 40
1.0
 10
-45.3474104752
 20
-59.3745210752
 30
0.0
 10
-45.4050937556
 20
-59.3900818958
 30
0.0
 10
-45.5212101899
 20
-59.4093431361
 30
0.0
 10
-45.6941047695
 20
-59.3985079289
 30
0.0
 10
-45.8542673457
 20
-59.3468039246
 30
0.0
 10
-45.9945965368
 20
-59.2562295655
 30
0.0
 10
-46.1090189867
 20
-59.1306923277
 30
0.0
 10
-46.223904957
 20
-58.9194717871
 30
0.0
 10
-46.278094532
 20
-58.5948078642
 30
0.0
 10
-46.2040214831
 20
-58.1901318798
 30
0.0
 10
-46.0081461426
 20
-57.8118215971
 30
0.0
 10
-45.7177877417
 20
-57.5117302367
 30
0.0
 10
-45.4722934579
 20
-57.3856687148
 30
0.0
 10
-45.3477530921
 20
-57.352069823
 30
0.0
  0
SPLINE
  5
3B5
100
AcDbEntity
  8
0
100
AcDbSpline
 62
7
  6
CONTINUOUS
 70
0
 71
3
 72
15
 73
11
 74
0
 42
0.0000001
 43
0.0000001
 44
0.0000000001
 40
0.0
 40
0.0
 40
0.0
 40
0.0
 40
0.1244337153
 40
0.250504248
 40
0.3777221757
 40
0.5046720954
 40
0.6301670554
 40
0.7541207329
 40
0.8771943299
 40
1.0
 40
1.0
 40
1.0
 40
1.0
 10
-54.644097632
 20
-52.7818098378
 30
0.0
 10
-54.4132203905
 20
-52.7195207178
 30
0.0
 10
-53.965802728
 20
-52.5200462916
 30
0.0
 10
-53.4056041507
 20
-52.0453398125
 30
0.0
 10
-52.9844641329
 20
-51.4381807678
 30
0.0
 10
-52.7315714751
 20
-50.7450312148
 30
0.0
 10
-52.6710962048
 20
-50.0148275367
 30
0.0
 10
-52.8223779397
 20
-49.3034470843
 30
0.0
 10
-53.1879055764
 20
-48.6791338443
 30
0.0
 10
-53.5591225073
 20
-48.3686653057
 30
0.0
 10
-53.7637650982
 20
-48.2511107276
 30
0.0
  0
SPLINE
  5
3B6
100
AcDbEntity
  8
0
100
AcDbSpline
 62
7
  6
CONTINUOUS
 70
0
 71
3
 72
11
 73
7
 74
0
 42
0.0000001
 43
0.0000001
 44
0.0000000001
 40
0.0
 40
0.0
 40
0.0
 40
0.0
 40
0.2495167361
 40
0.4991782013
 40
0.7492409494
 40
1.0
 40
1.0
 40
1.0
 40
1.0
 10
-56.2541487741
 20
-52.5867319403
 30
0.0
 10
-56.1342970494
 20
-52.6555793825
 30
0.0
 10
-55.8796478146
 20
-52.769058869
 30
0.0
 10
-55.4716119384
 20
-52.8585609686
 30
0.0
 10
-55.0533880817
 20
-52.8660951622
 30
0.0
 10
-54.7782516508
 20
-52.8180009864
 30
0.0
 10
-54.6441392699
 20
-52.781821071
 30
0.0
  0
SPLINE
  5
3B7
100
AcDbEntity
  8
0
100
AcDbSpline
 62
7
  6
CONTINUOUS
 70
0
 71
3
 72
18
 73
14
 74
0
 42
0.0000001
 43
0.0000001
 44
0.0000000001
 40
0.0
 40
0.0
 40
0.0
 40
0.0
 40
0.0589492238
 40
0.1150989862
 40
0.1693632887
 40
0.2231829596
 40
0.2780379389
 40
0.3351940592
 40
0.4584490884
 40
0.5937642424
 40
0.7348161913
 40
0.8727257732
 40
1.0
 40
1.0
 40
1.0
 40
1.0
 10
-54.217887345
 20
-49.8621463835
 30
0.0
 10
-54.1602040646
 20
-49.8465855629
 30
0.0
 10
-54.0440876304
 20
-49.8273243226
 30
0.0
 10
-53.8711930507
 20
-49.8381595298
 30
0.0
 10
-53.7110304746
 20
-49.8898635341
 30
0.0
 10
-53.5707012834
 20
-49.9804378932
 30
0.0
 10
-53.4562788335
 20
-50.105975131
 30
0.0
 10
-53.3413928632
 20
-50.3171956716
 30
0.0
 10
-53.2872032882
 20
-50.6418595944
 30
0.0
 10
-53.3612763371
 20
-51.0465355789
 30
0.0
 10
-53.5571516777
 20
-51.4248458616
 30
0.0
 10
-53.8475100785
 20
-51.724937222
 30
0.0
 10
-54.0930043624
 20
-51.8509987438
 30
0.0
 10
-54.2175447282
 20
-51.8845976357
 30
0.0
  0
SPLINE
  5
3B8
100
AcDbEntity
  8
0
100
AcDbSpline
 62
7
  6
CONTINUOUS
 70
0
 71
3
 72
11
 73
7
 74
0
 42
0.0000001
 43
0.0000001
 44
0.0000000001
 40
0.0
 40
0.0
 40
0.0
 40
0.0
 40
0.263376308
 40
0.5159646926
 40
0.7602058052
 40
1.0
 40
1.0
 40
1.0
 40
1.0
 10
-55.009346272
 20
-48.1206897918
 30
0.0
 10
-54.9005562348
 20
-48.0913411634
 30
0.0
 10
-54.6821288428
 20
-48.051288062
 30
0.0
 10
-54.3549327666
 20
-48.0521897272
 30
0.0
 10
-54.0441219862
 20
-48.1159818872
 30
0.0
 10
-53.8527955477
 20
-48.1999525048
 30
0.0
 10
-53.7638350258
 20
-48.2510482662
 30
0.0
  0
SPLINE
  5
3B9
100
AcDbEntity
  8
0
100
AcDbSpline
 62
7
  6
CONTINUOUS
 70
0
 71
3
 72
17
 73
13
 74
0
 42
0.0000001
 43
0.0000001
 44
0.0000000001
 40
0.0
 40
0.0
 40
0.0
 40
0.0
 40
0.052476388
 40
0.1058617935
 40
0.1609336063
 40
0.2182528695
 40
0.3402051883
 40
0.471465422
 40
0.6082678491
 40
0.7453117643
 40
0.8772048841
 40
1.0
 40
1.0
 40
1.0
 40
1.0
 10
-56.2541498723
 20
-52.5867536043
 30
0.0
 10
-56.3396570848
 20
-52.5376348048
 30
0.0
 10
-56.5023504898
 20
-52.4203046705
 30
0.0
 10
-56.7081024071
 20
-52.1960966886
 30
0.0
 10
-56.8718586717
 20
-51.9289171152
 30
0.0
 10
-57.0322367125
 20
-51.5166573258
 30
0.0
 10
-57.1039984855
 20
-50.9275909651
 30
0.0
 10
-56.9908093517
 20
-50.1957721566
 30
0.0
 10
-56.6946893666
 20
-49.4867429499
 30
0.0
 10
-56.2423599381
 20
-48.8641004567
 30
0.0
 10
-55.6747471373
 20
-48.3840068984
 30
0.0
 10
-55.232132004
 20
-48.1807925112
 30
0.0
 10
-55.009346272
 20
-48.1206897918
 30
0.0
  0
SPLINE
  5
3BA
100
AcDbEntity
  8
0
100
AcDbSpline
 62
7
  6
CONTINUOUS
 70
0
 71
3
 72
18
 73
14
 74
0
 42
0.0000001
 43
0.0000001
 44
0.0000000001
 40
0.0
 40
0.0
 40
0.0
 40
0.0
 40
0.0589492238
 40
0.1150989862
 40
0.1693632887
 40
0.2231829596
 40
0.2780379389
 40
0.3351940592
 40
0.4584490884
 40
0.5937642424
 40
0.7348161913
 40
0.8727257732
 40
1.0
 40
1.0
 40
1.0
 40
1.0
 10
-54.2175447282
 20
-51.8845976357
 30
0.0
 10
-54.2752280085
 20
-51.9001584563
 30
0.0
 10
-54.3913444428
 20
-51.9194196966
 30
0.0
 10
-54.5642390225
 20
-51.9085844894
 30
0.0
 10
-54.7244015986
 20
-51.8568804852
 30
0.0
 10
-54.8647307898
 20
-51.766306126
 30
0.0
 10
-54.9791532396
 20
-51.6407688882
 30
0.0
 10
-55.0940392099
 20
-51.4295483476
 30
0.0
 10
-55.148228785
 20
-51.1048844248
 30
0.0
 10
-55.074155736
 20
-50.7002084403
 30
0.0
 10
-54.8782803955
 20
-50.3218981576
 30
0.0
 10
-54.5879219947
 20
-50.0218067972
 30
0.0
 10
-54.3424277108
 20
-49.8957452754
 30
0.0
 10
-54.217887345
 20
-49.8621463835
 30
0.0
  0
SPLINE
  5
3BB
100
AcDbEntity
  8
0
100
AcDbSpline
 62
7
  6
CONTINUOUS
 70
0
 71
3
 72
15
 73
11
 74
0
 42
0.0000001
 43
0.0000001
 44
0.0000000001
 40
0.0
 40
0.0
 40
0.0
 40
0.0
 40
0.1244337153
 40
0.250504248
 40
0.3777221757
 40
0.5046720954
 40
0.6301670554
 40
0.7541207329
 40
0.8771943299
 40
1.0
 40
1.0
 40
1.0
 40
1.0
 10
-63.5108835964
 20
-65.0566776611
 30
0.0
 10
-63.2800063549
 20
-64.994388541
 30
0.0
 10
-62.8325886924
 20
-64.7949141148
 30
0.0
 10
-62.2723901151
 20
-64.3202076357
 30
0.0
 10
-61.8512500973
 20
-63.7130485911
 30
0.0
 10
-61.5983574395
 20
-63.019899038
 30
0.0
 10
-61.5378821691
 20
-62.2896953599
 30
0.0
 10
-61.6891639041
 20
-61.5783149075
 30
0.0
 10
-62.0546915408
 20
-60.9540016675
 30
0.0
 10
-62.4259084717
 20
-60.643533129
 30
0.0
 10
-62.6305510626
 20
-60.5259785508
 30
0.0
  0
SPLINE
  5
3BC
100
AcDbEntity
  8
0
100
AcDbSpline
 62
7
  6
CONTINUOUS
 70
0
 71
3
 72
11
 73
7
 74
0
 42
0.0000001
 43
0.0000001
 44
0.0000000001
 40
0.0
 40
0.0
 40
0.0
 40
0.0
 40
0.2495167361
 40
0.4991782013
 40
0.7492409494
 40
1.0
 40
1.0
 40
1.0
 40
1.0
 10
-65.1209347385
 20
-64.8615997635
 30
0.0
 10
-65.0010830138
 20
-64.9304472057
 30
0.0
 10
-64.746433779
 20
-65.0439266923
 30
0.0
 10
-64.3383979028
 20
-65.1334287918
 30
0.0
 10
-63.9201740461
 20
-65.1409629855
 30
0.0
 10
-63.6450376152
 20
-65.0928688096
 30
0.0
 10
-63.5109252342
 20
-65.0566888942
 30
0.0
  0
SPLINE
  5
3BD
100
AcDbEntity
  8
0
100
AcDbSpline
 62
7
  6
CONTINUOUS
 70
0
 71
3
 72
18
 73
14
 74
0
 42
0.0000001
 43
0.0000001
 44
0.0000000001
 40
0.0
 40
0.0
 40
0.0
 40
0.0
 40
0.0589492238
 40
0.1150989862
 40
0.1693632887
 40
0.2231829596
 40
0.2780379389
 40
0.3351940592
 40
0.4584490884
 40
0.5937642424
 40
0.7348161913
 40
0.8727257732
 40
1.0
 40
1.0
 40
1.0
 40
1.0
 10
-63.0846733094
 20
-62.1370142067
 30
0.0
 10
-63.026990029
 20
-62.1214533861
 30
0.0
 10
-62.9108735947
 20
-62.1021921458
 30
0.0
 10
-62.7379790151
 20
-62.113027353
 30
0.0
 10
-62.5778164389
 20
-62.1647313573
 30
0.0
 10
-62.4374872478
 20
-62.2553057164
 30
0.0
 10
-62.3230647979
 20
-62.3808429542
 30
0.0
 10
-62.2081788276
 20
-62.5920634948
 30
0.0
 10
-62.1539892526
 20
-62.9167274177
 30
0.0
 10
-62.2280623015
 20
-63.3214034021
 30
0.0
 10
-62.423937642
 20
-63.6997136848
 30
0.0
 10
-62.7142960429
 20
-63.9998050452
 30
0.0
 10
-62.9597903267
 20
-64.1258665671
 30
0.0
 10
-63.0843306925
 20
-64.1594654589
 30
0.0
  0
SPLINE
  5
3BE
100
AcDbEntity
  8
0
100
AcDbSpline
 62
7
  6
CONTINUOUS
 70
0
 71
3
 72
11
 73
7
 74
0
 42
0.0000001
 43
0.0000001
 44
0.0000000001
 40
0.0
 40
0.0
 40
0.0
 40
0.0
 40
0.263376308
 40
0.5159646926
 40
0.7602058052
 40
1.0
 40
1.0
 40
1.0
 40
1.0
 10
-63.8761322364
 20
-60.395557615
 30
0.0
 10
-63.7673421992
 20
-60.3662089866
 30
0.0
 10
-63.5489148072
 20
-60.3261558852
 30
0.0
 10
-63.221718731
 20
-60.3270575504
 30
0.0
 10
-62.9109079506
 20
-60.3908497104
 30
0.0
 10
-62.7195815121
 20
-60.474820328
 30
0.0
 10
-62.6306209902
 20
-60.5259160894
 30
0.0
  0
SPLINE
  5
3BF
100
AcDbEntity
  8
0
100
AcDbSpline
 62
7
  6
CONTINUOUS
 70
0
 71
3
 72
17
 73
13
 74
0
 42
0.0000001
 43
0.0000001
 44
0.0000000001
 40
0.0
 40
0.0
 40
0.0
 40
0.0
 40
0.052476388
 40
0.1058617935
 40
0.1609336063
 40
0.2182528695
 40
0.3402051883
 40
0.471465422
 40
0.6082678491
 40
0.7453117643
 40
0.8772048841
 40
1.0
 40
1.0
 40
1.0
 40
1.0
 10
-65.1209358367
 20
-64.8616214275
 30
0.0
 10
-65.2064430492
 20
-64.812502628
 30
0.0
 10
-65.3691364542
 20
-64.6951724937
 30
0.0
 10
-65.5748883715
 20
-64.4709645119
 30
0.0
 10
-65.738644636
 20
-64.2037849384
 30
0.0
 10
-65.8990226769
 20
-63.791525149
 30
0.0
 10
-65.9707844499
 20
-63.2024587883
 30
0.0
 10
-65.8575953161
 20
-62.4706399798
 30
0.0
 10
-65.561475331
 20
-61.7616107731
 30
0.0
 10
-65.1091459025
 20
-61.1389682799
 30
0.0
 10
-64.5415331017
 20
-60.6588747216
 30
0.0
 10
-64.0989179684
 20
-60.4556603345
 30
0.0
 10
-63.8761322364
 20
-60.395557615
 30
0.0
  0
SPLINE
  5
3C0
100
AcDbEntity
  8
0
100
AcDbSpline
 62
7
  6
CONTINUOUS
 70
0
 71
3
 72
18
 73
14
 74
0
 42
0.0000001
 43
0.0000001
 44
0.0000000001
 40
0.0
 40
0.0
 40
0.0
 40
0.0
 40
0.0589492238
 40
0.1150989862
 40
0.1693632887
 40
0.2231829596
 40
0.2780379389
 40
0.3351940592
 40
0.4584490884
 40
0.5937642424
 40
0.7348161913
 40
0.8727257732
 40
1.0
 40
1.0
 40
1.0
 40
1.0
 10
-63.0843306925
 20
-64.1594654589
 30
0.0
 10
-63.1420139729
 20
-64.1750262796
 30
0.0
 10
-63.2581304072
 20
-64.1942875198
 30
0.0
 10
-63.4310249868
 20
-64.1834523126
 30
0.0
 10
-63.591187563
 20
-64.1317483084
 30
0.0
 10
-63.7315167541
 20
-64.0411739493
 30
0.0
 10
-63.845939204
 20
-63.9156367114
 30
0.0
 10
-63.9608251743
 20
-63.7044161708
 30
0.0
 10
-64.0150147493
 20
-63.379752248
 30
0.0
 10
-63.9409417004
 20
-62.9750762636
 30
0.0
 10
-63.7450663599
 20
-62.5967659809
 30
0.0
 10
-63.454707959
 20
-62.2966746204
 30
0.0
 10
-63.2092136752
 20
-62.1706130986
 30
0.0
 10
-63.0846733094
 20
-62.1370142067
 30
0.0
  0
SPLINE
  5
3C1
100
AcDbEntity
  8
0
100
AcDbSpline
 62
7
  6
CONTINUOUS
 70
0
 71
3
 72
11
 73
7
 74
0
 42
0.0000001
 43
0.0000001
 44
0.0000000001
 40
0.0
 40
0.0
 40
0.0
 40
0.0
 40
0.2484986807
 40
0.4975275213
 40
0.7477463083
 40
1.0
 40
1.0
 40
1.0
 40
1.0
 10
-55.6184348717
 20
-73.867949606
 30
0.0
 10
-55.4621975285
 20
-73.9576848133
 30
0.0
 10
-55.1296487045
 20
-74.1051737915
 30
0.0
 10
-54.5960764523
 20
-74.2197498582
 30
0.0
 10
-54.0479097621
 20
-74.2268728548
 30
0.0
 10
-53.6868744285
 20
-74.1627576365
 30
0.0
 10
-53.5102911044
 20
-74.1151202015
 30
0.0
  0
SPLINE
  5
3C2
100
AcDbEntity
  8
0
100
AcDbSpline
 62
7
  6
CONTINUOUS
 70
0
 71
3
 72
17
 73
13
 74
0
 42
0.0000001
 43
0.0000001
 44
0.0000000001
 40
0.0
 40
0.0
 40
0.0
 40
0.0
 40
0.1239019404
 40
0.2509158749
 40
0.3799626166
 40
0.5087045599
 40
0.6349971213
 40
0.7581802448
 40
0.8190505021
 40
0.879547813
 40
0.9398191208
 40
1.0
 40
1.0
 40
1.0
 40
1.0
 10
-53.5102911044
 20
-74.1151202015
 30
0.0
 10
-53.1902652178
 20
-74.0287858182
 30
0.0
 10
-52.5672457683
 20
-73.7487011049
 30
0.0
 10
-51.782692818
 20
-73.0850252728
 30
0.0
 10
-51.1822810236
 20
-72.2355987286
 30
0.0
 10
-50.8087566941
 20
-71.2667759373
 30
0.0
 10
-50.6961729677
 20
-70.2491893365
 30
0.0
 10
-50.8453625224
 20
-69.417817122
 30
0.0
 10
-51.1145719207
 20
-68.818572515
 30
0.0
 10
-51.3877403981
 20
-68.4135667556
 30
0.0
 10
-51.7273448233
 20
-68.0650455229
 30
0.0
 10
-51.9924849096
 20
-67.8780909086
 30
0.0
 10
-52.132094139
 20
-67.7979060892
 30
0.0
  0
SPLINE
  5
3C3
100
AcDbEntity
  8
0
100
AcDbSpline
 62
7
  6
CONTINUOUS
 70
0
 71
3
 72
20
 73
16
 74
0
 42
0.0000001
 43
0.0000001
 44
0.0000000001
 40
0.0
 40
0.0
 40
0.0
 40
0.0
 40
0.0589030721
 40
0.1149769527
 40
0.1691926489
 40
0.222956341
 40
0.2777558988
 40
0.3348562185
 40
0.3950495842
 40
0.458581407
 40
0.59376306
 40
0.7346724271
 40
0.8047007837
 40
0.8728638851
 40
1.0
 40
1.0
 40
1.0
 40
1.0
 10
-53.0836965636
 20
-73.2178930187
 30
0.0
 10
-53.1938440705
 20
-73.2476078557
 30
0.0
 10
-53.4155071994
 20
-73.2844254514
 30
0.0
 10
-53.7455737638
 20
-73.2636660124
 30
0.0
 10
-54.0513224784
 20
-73.1650074988
 30
0.0
 10
-54.31921481
 20
-72.9920474744
 30
0.0
 10
-54.5376690525
 20
-72.7524385208
 30
0.0
 10
-54.6982880418
 20
-72.4570381812
 30
0.0
 10
-54.7958262717
 20
-72.1180489134
 30
0.0
 10
-54.8389292313
 20
-71.6158151289
 30
0.0
 10
-54.7192465834
 20
-70.9562622308
 30
0.0
 10
-54.4061400802
 20
-70.3522264267
 30
0.0
 10
-54.0566028524
 20
-69.9371472459
 30
0.0
 10
-53.6684493848
 20
-69.5988204007
 30
0.0
 10
-53.3220925108
 20
-69.4210003929
 30
0.0
 10
-53.0843506479
 20
-69.3568640278
 30
0.0
  0
SPLINE
  5
3C4
100
AcDbEntity
  8
0
100
AcDbSpline
 62
7
  6
CONTINUOUS
 70
0
 71
3
 72
20
 73
16
 74
0
 42
0.0000001
 43
0.0000001
 44
0.0000000001
 40
0.0
 40
0.0
 40
0.0
 40
0.0
 40
0.0589030721
 40
0.1149769527
 40
0.1691926489
 40
0.222956341
 40
0.2777558988
 40
0.3348562185
 40
0.3950495842
 40
0.458581407
 40
0.59376306
 40
0.7346724271
 40
0.8047007837
 40
0.8728638851
 40
1.0
 40
1.0
 40
1.0
 40
1.0
 10
-53.0843506479
 20
-69.3568640278
 30
0.0
 10
-52.9742031411
 20
-69.3271491908
 30
0.0
 10
-52.7525400122
 20
-69.2903315951
 30
0.0
 10
-52.4224734477
 20
-69.3110910341
 30
0.0
 10
-52.1167247332
 20
-69.4097495477
 30
0.0
 10
-51.8488324016
 20
-69.5827095721
 30
0.0
 10
-51.6303781591
 20
-69.8223185257
 30
0.0
 10
-51.4697591697
 20
-70.1177188653
 30
0.0
 10
-51.3722209399
 20
-70.4567081331
 30
0.0
 10
-51.3291179803
 20
-70.9589419176
 30
0.0
 10
-51.4488006282
 20
-71.6184948157
 30
0.0
 10
-51.7619071314
 20
-72.2225306198
 30
0.0
 10
-52.1114443592
 20
-72.6376098006
 30
0.0
 10
-52.4995978267
 20
-72.9759366458
 30
0.0
 10
-52.8459547008
 20
-73.1537566535
 30
0.0
 10
-53.0836965636
 20
-73.2178930187
 30
0.0
  0
SPLINE
  5
3C5
100
AcDbEntity
  8
0
100
AcDbSpline
 62
7
  6
CONTINUOUS
 70
0
 71
3
 72
17
 73
13
 74
0
 42
0.0000001
 43
0.0000001
 44
0.0000000001
 40
0.0
 40
0.0
 40
0.0
 40
0.0
 40
0.0524732619
 40
0.1058569419
 40
0.1609314717
 40
0.218254669
 40
0.3402058197
 40
0.4714711132
 40
0.6082946945
 40
0.7453440593
 40
0.8772208963
 40
1.0
 40
1.0
 40
1.0
 40
1.0
 10
-55.6184325767
 20
-73.8679456105
 30
0.0
 10
-55.7381370502
 20
-73.7991819397
 30
0.0
 10
-55.96591983
 20
-73.6349568287
 30
0.0
 10
-56.2540118764
 20
-73.3210950643
 30
0.0
 10
-56.4832674249
 20
-72.9470175083
 30
0.0
 10
-56.7078280487
 20
-72.3698440611
 30
0.0
 10
-56.8083450268
 20
-71.5451187577
 30
0.0
 10
-56.6498359938
 20
-70.5204959866
 30
0.0
 10
-56.2352530568
 20
-69.5277516812
 30
0.0
 10
-55.6019089643
 20
-68.656052555
 30
0.0
 10
-54.8072685262
 20
-67.983994567
 30
0.0
 10
-54.1876739043
 20
-67.6995363029
 30
0.0
 10
-53.8758095755
 20
-67.6154036885
 30
0.0
  0
SPLINE
  5
3C6
100
AcDbEntity
  8
0
100
AcDbSpline
 62
7
  6
CONTINUOUS
 70
0
 71
3
 72
11
 73
7
 74
0
 42
0.0000001
 43
0.0000001
 44
0.0000000001
 40
0.0
 40
0.0
 40
0.0
 40
0.0
 40
0.2627866941
 40
0.5152185392
 40
0.7597136278
 40
1.0
 40
1.0
 40
1.0
 40
1.0
 10
-53.8192422161
 20
-67.6007608793
 30
0.0
 10
-53.6714177136
 20
-67.5641096961
 30
0.0
 10
-53.375048603
 20
-67.5155510506
 30
0.0
 10
-52.9322926644
 20
-67.5233411364
 30
0.0
 10
-52.5119157304
 20
-67.613813339
 30
0.0
 10
-52.2528508086
 20
-67.7285433031
 30
0.0
 10
-52.132096434
 20
-67.7979100847
 30
0.0
  0
SPLINE
  5
3C7
100
AcDbEntity
  8
0
100
AcDbSpline
 62
7
  6
CONTINUOUS
 70
0
 71
3
 72
9
 73
5
 74
0
 42
0.0000001
 43
0.0000001
 44
0.0000000001
 40
0.0
 40
0.0
 40
0.0
 40
0.0
 40
0.4929477908
 40
1.0
 40
1.0
 40
1.0
 40
1.0
 10
-127.3293993364
 20
8.3455039429
 30
0.0
 10
-128.5044930337
 20
8.3011924342
 30
0.0
 10
-130.8845578899
 20
8.060774391
 30
0.0
 10
-133.2189917758
 20
7.5427328826
 30
0.0
 10
-134.3838157607
 20
7.2167623302
 30
0.0
  0
SPLINE
  5
3C8
100
AcDbEntity
  8
0
100
AcDbSpline
 62
7
  6
CONTINUOUS
 70
0
 71
3
 72
9
 73
5
 74
0
 42
0.0000001
 43
0.0000001
 44
0.0000000001
 40
0.0
 40
0.0
 40
0.0
 40
0.0
 40
0.2529138003
 40
1.0
 40
1.0
 40
1.0
 40
1.0
 10
-153.2882391235
 20
-10.0513274903
 30
0.0
 10
-153.3980415382
 20
-10.5697167659
 30
0.0
 10
-153.7978981849
 20
-12.626452406
 30
0.0
 10
-154.0589838967
 20
-14.7105322429
 30
0.0
 10
-154.1691293153
 20
-16.2719043998
 30
0.0
  0
SPLINE
  5
3C9
100
AcDbEntity
  8
0
100
AcDbSpline
 62
7
  6
CONTINUOUS
 70
0
 71
3
 72
9
 73
5
 74
0
 42
0.0000001
 43
0.0000001
 44
0.0000000001
 40
0.0
 40
0.0
 40
0.0
 40
0.0
 40
0.2464248186
 40
1.0
 40
1.0
 40
1.0
 40
1.0
 10
-137.5895674358
 20
7.2988454386
 30
0.0
 10
-138.1027332622
 20
6.971977442
 30
0.0
 10
-140.1563647767
 20
5.6006703522
 30
0.0
 10
-142.0929263709
 20
4.0553645943
 30
0.0
 10
-143.4766232517
 20
2.8115147298
 30
0.0
  0
SPLINE
  5
3CA
100
AcDbEntity
  8
0
100
AcDbSpline
 62
7
  6
CONTINUOUS
 70
0
 71
3
 72
14
 73
10
 74
0
 42
0.0000001
 43
0.0000001
 44
0.0000000001
 40
0.0
 40
0.0
 40
0.0
 40
0.0
 40
0.2492768556
 40
0.3796608763
 40
0.510740754
 40
0.6402363684
 40
0.7660163642
 40
0.8863167777
 40
1.0
 40
1.0
 40
1.0
 40
1.0
 10
-138.1742305427
 20
-26.0550170296
 30
0.0
 10
-138.1746337634
 20
-23.6393154477
 30
0.0
 10
-137.5002388946
 20
-19.9360933675
 30
0.0
 10
-135.5565675495
 20
-15.3739419022
 30
0.0
 10
-133.5677445189
 20
-12.1308498174
 30
0.0
 10
-131.1494918281
 20
-9.2544383179
 30
0.0
 10
-128.3940169145
 20
-6.8522631821
 30
0.0
 10
-125.4102873207
 20
-5.0175118895
 30
0.0
 10
-123.2792670242
 20
-4.1943926261
 30
0.0
 10
-122.2156059667
 20
-3.9074492403
 30
0.0
  0
SPLINE
  5
3CB
100
AcDbEntity
  8
0
100
AcDbSpline
 62
7
  6
CONTINUOUS
 70
0
 71
3
 72
11
 73
7
 74
0
 42
0.0000001
 43
0.0000001
 44
0.0000000001
 40
0.0
 40
0.0
 40
0.0
 40
0.0
 40
0.2302236154
 40
0.4720666158
 40
0.7284537892
 40
1.0
 40
1.0
 40
1.0
 40
1.0
 10
-134.0721927664
 20
-36.7475247026
 30
0.0
 10
-134.7288855986
 20
-36.1291015332
 30
0.0
 10
-135.9228114554
 20
-34.6902305791
 30
0.0
 10
-137.2163633345
 20
-32.1225975141
 30
0.0
 10
-138.0065534299
 20
-29.1928526007
 30
0.0
 10
-138.1740529507
 20
-27.1189740363
 30
0.0
 10
-138.1742305427
 20
-26.0550170296
 30
0.0
  0
SPLINE
  5
3CC
100
AcDbEntity
  8
0
100
AcDbSpline
 62
7
  6
CONTINUOUS
 70
0
 71
3
 72
11
 73
7
 74
0
 42
0.0000001
 43
0.0000001
 44
0.0000000001
 40
0.0
 40
0.0
 40
0.0
 40
0.0
 40
0.2630300728
 40
0.5165151559
 40
0.7615389512
 40
1.0
 40
1.0
 40
1.0
 40
1.0
 10
-122.2156059667
 20
-3.9074492403
 30
0.0
 10
-121.6074485461
 20
-3.7433868747
 30
0.0
 10
-120.3921547523
 20
-3.4929622823
 30
0.0
 10
-118.5676546667
 20
-3.3618838781
 30
0.0
 10
-116.8010738165
 20
-3.4830463917
 30
0.0
 10
-115.6651805368
 20
-3.7329579611
 30
0.0
 10
-115.1186701008
 20
-3.8985991721
 30
0.0
  0
SPLINE
  5
3CD
100
AcDbEntity
  8
0
100
AcDbSpline
 62
7
  6
CONTINUOUS
 70
0
 71
3
 72
9
 73
5
 74
0
 42
0.0000001
 43
0.0000001
 44
0.0000000001
 40
0.0
 40
0.0
 40
0.0
 40
0.0
 40
0.5072511888
 40
1.0
 40
1.0
 40
1.0
 40
1.0
 10
-155.1438639844
 20
-21.9831259973
 30
0.0
 10
-154.7521837247
 20
-23.2014547732
 30
0.0
 10
-153.8340710543
 20
-25.5593485172
 30
0.0
 10
-152.6157676814
 20
-27.778531467
 30
0.0
 10
-151.9428261444
 20
-28.8237972174
 30
0.0
  0
SPLINE
  5
3CE
100
AcDbEntity
  8
0
100
AcDbSpline
 62
7
  6
CONTINUOUS
 70
0
 71
3
 72
9
 73
5
 74
0
 42
0.0000001
 43
0.0000001
 44
0.0000000001
 40
0.0
 40
0.0
 40
0.0
 40
0.0
 40
0.4940068237
 40
1.0
 40
1.0
 40
1.0
 40
1.0
 10
-151.44182635
 20
-30.0697561597
 30
0.0
 10
-152.1363406867
 20
-29.1663164108
 30
0.0
 10
-153.3491587051
 20
-27.1823479638
 30
0.0
 10
-154.1473771543
 20
-25.0020291988
 30
0.0
 10
-154.4498300818
 20
-23.8747070369
 30
0.0
  0
SPLINE
  5
3CF
100
AcDbEntity
  8
0
100
AcDbSpline
 62
7
  6
CONTINUOUS
 70
0
 71
3
 72
12
 73
8
 74
0
 42
0.0000001
 43
0.0000001
 44
0.0000000001
 40
0.0
 40
0.0
 40
0.0
 40
0.0
 40
0.2434978066
 40
0.4939552905
 40
0.6207788537
 40
0.7478263454
 40
1.0
 40
1.0
 40
1.0
 40
1.0
 10
-155.1622732953
 20
-18.3064242263
 30
0.0
 10
-155.1625617644
 20
-16.6036045664
 30
0.0
 10
-154.7865892456
 20
-13.1415758757
 30
0.0
 10
-153.4843760499
 20
-8.9730421596
 30
0.0
 10
-151.9785584406
 20
-5.7787491546
 30
0.0
 10
-150.1813967194
 20
-2.7262781946
 30
0.0
 10
-148.5237000815
 20
-0.6304353292
 30
0.0
 10
-147.302604498
 20
0.641896048
 30
0.0
  0
SPLINE
  5
3D0
100
AcDbEntity
  8
0
100
AcDbSpline
 62
7
  6
CONTINUOUS
 70
0
 71
3
 72
9
 73
5
 74
0
 42
0.0000001
 43
0.0000001
 44
0.0000000001
 40
0.0
 40
0.0
 40
0.0
 40
0.0
 40
0.5090234688
 40
1.0
 40
1.0
 40
1.0
 40
1.0
 10
-147.302604498
 20
0.641896048
 30
0.0
 10
-146.0852452767
 20
1.9103342894
 30
0.0
 10
-143.4486675413
 20
4.1804608815
 30
0.0
 10
-140.3902597751
 20
5.8546306993
 30
0.0
 10
-138.8164419474
 20
6.4860671648
 30
0.0
  0
SPLINE
  5
3D1
100
AcDbEntity
  8
0
100
AcDbSpline
 62
7
  6
CONTINUOUS
 70
0
 71
3
 72
9
 73
5
 74
0
 42
0.0000001
 43
0.0000001
 44
0.0000000001
 40
0.0
 40
0.0
 40
0.0
 40
0.0
 40
0.5046459976
 40
1.0
 40
1.0
 40
1.0
 40
1.0
 10
-136.3995551227
 20
7.2866923768
 30
0.0
 10
-135.5655881233
 20
7.5053859754
 30
0.0
 10
-133.8821018301
 20
7.82980214
 30
0.0
 10
-132.1685310485
 20
7.9112674091
 30
0.0
 10
-131.3225866174
 20
7.8870963462
 30
0.0
  0
SPLINE
  5
3D2
100
AcDbEntity
  8
0
100
AcDbSpline
 62
7
  6
CONTINUOUS
 70
0
 71
3
 72
9
 73
5
 74
0
 42
0.0000001
 43
0.0000001
 44
0.0000000001
 40
0.0
 40
0.0
 40
0.0
 40
0.0
 40
0.5088254016
 40
1.0
 40
1.0
 40
1.0
 40
1.0
 10
-137.4736099547
 20
-15.9720079559
 30
0.0
 10
-138.1570129996
 20
-17.4762702894
 30
0.0
 10
-139.2382802534
 20
-20.5595357367
 30
0.0
 10
-139.7205197097
 20
-23.795400956
 30
0.0
 10
-139.7872273039
 20
-25.3889150156
 30
0.0
  0
LINE
  5
3D3
100
AcDbEntity
  8
0
100
AcDbLine
 62
7
  6
CONTINUOUS
 10
-139.956882331
 20
-25.2732220462
 11
-140.0116257653
 21
-25.2353245783
  0
SPLINE
  5
3D4
100
AcDbEntity
  8
0
100
AcDbSpline
 62
7
  6
CONTINUOUS
 70
0
 71
3
 72
17
 73
13
 74
0
 42
0.0000001
 43
0.0000001
 44
0.0000000001
 40
0.0
 40
0.0
 40
0.0
 40
0.0
 40
0.0304776812
 40
0.0609368781
 40
0.1219946697
 40
0.1832966272
 40
0.244861526
 40
0.3687674379
 40
0.4936823011
 40
0.6194892499
 40
0.7460115664
 40
1.0
 40
1.0
 40
1.0
 40
1.0
 10
-140.0116257653
 20
-25.2353245783
 30
0.0
 10
-140.1514571394
 20
-25.1388245649
 30
0.0
 10
-140.4324592533
 20
-24.9479511777
 30
0.0
 10
-140.989358151
 20
-24.5576064486
 30
0.0
 10
-141.6763986551
 20
-24.0536972276
 30
0.0
 10
-142.4831232878
 20
-23.4206055375
 30
0.0
 10
-143.5367428332
 20
-22.5358412766
 30
0.0
 10
-144.8044272489
 20
-21.3560553279
 30
0.0
 10
-146.2311006137
 20
-19.828701885
 30
0.0
 10
-147.5537075886
 20
-18.1911222021
 30
0.0
 10
-149.1619697384
 20
-15.8696092832
 30
0.0
 10
-150.1707012865
 20
-13.9914453586
 30
0.0
 10
-150.7436527263
 20
-12.6966992259
 30
0.0
  0
SPLINE
  5
3D5
100
AcDbEntity
  8
0
100
AcDbSpline
 62
7
  6
CONTINUOUS
 70
0
 71
3
 72
9
 73
5
 74
0
 42
0.0000001
 43
0.0000001
 44
0.0000000001
 40
0.0
 40
0.0
 40
0.0
 40
0.0
 40
0.2497926848
 40
1.0
 40
1.0
 40
1.0
 40
1.0
 10
-150.743758111
 20
-12.6964465773
 30
0.0
 10
-150.8659816825
 20
-12.4202434865
 30
0.0
 10
-151.3351506147
 20
-11.3057640077
 30
0.0
 10
-151.7208050743
 20
-10.155736686
 30
0.0
 10
-151.9559880968
 20
-9.2796386231
 30
0.0
  0
SPLINE
  5
3D6
100
AcDbEntity
  8
0
100
AcDbSpline
 62
7
  6
CONTINUOUS
 70
0
 71
3
 72
9
 73
5
 74
0
 42
0.0000001
 43
0.0000001
 44
0.0000000001
 40
0.0
 40
0.0
 40
0.0
 40
0.0
 40
0.5014562374
 40
1.0
 40
1.0
 40
1.0
 40
1.0
 10
-143.671232111
 20
-6.1933152992
 30
0.0
 10
-144.2058787588
 20
-5.0827556768
 30
0.0
 10
-145.1234699752
 20
-2.7929634334
 30
0.0
 10
-145.701756544
 20
-0.3932307047
 30
0.0
 10
-145.8961746216
 20
0.8166434875
 30
0.0
  0
SPLINE
  5
3D7
100
AcDbEntity
  8
0
100
AcDbSpline
 62
7
  6
CONTINUOUS
 70
0
 71
3
 72
11
 73
7
 74
0
 42
0.0000001
 43
0.0000001
 44
0.0000000001
 40
0.0
 40
0.0
 40
0.0
 40
0.0
 40
0.2241533159
 40
0.4712123694
 40
0.7337000442
 40
1.0
 40
1.0
 40
1.0
 40
1.0
 10
-145.8961745601
 20
0.8166429747
 30
0.0
 10
-145.9842953306
 20
0.8566219879
 30
0.0
 10
-146.1906387377
 20
0.8957069033
 30
0.0
 10
-146.5077287442
 20
0.8450769412
 30
0.0
 10
-146.8152078046
 20
0.7031594495
 30
0.0
 10
-146.9943952971
 20
0.5573800607
 30
0.0
 10
-147.073999539
 20
0.4744403782
 30
0.0
  0
SPLINE
  5
3D8
100
AcDbEntity
  8
0
100
AcDbSpline
 62
7
  6
CONTINUOUS
 70
0
 71
3
 72
12
 73
8
 74
0
 42
0.0000001
 43
0.0000001
 44
0.0000000001
 40
0.0
 40
0.0
 40
0.0
 40
0.0
 40
0.4108227415
 40
0.7258064674
 40
0.9226345642
 40
0.9746972876
 40
1.0
 40
1.0
 40
1.0
 40
1.0
 10
-147.073905161
 20
0.4743874177
 30
0.0
 10
-147.0884563138
 20
0.4827458884
 30
0.0
 10
-147.1144077398
 20
0.4972989627
 30
0.0
 10
-147.1474892092
 20
0.51466408
 30
0.0
 10
-147.1690977552
 20
0.5242858977
 30
0.0
 10
-147.17931201
 20
0.5272766639
 30
0.0
 10
-147.1831031428
 20
0.5271267029
 30
0.0
 10
-147.1837081115
 20
0.5262887134
 30
0.0
  0
SPLINE
  5
3D9
100
AcDbEntity
  8
0
100
AcDbSpline
 62
7
  6
CONTINUOUS
 70
0
 71
3
 72
10
 73
6
 74
0
 42
0.0000001
 43
0.0000001
 44
0.0000000001
 40
0.0
 40
0.0
 40
0.0
 40
0.0
 40
0.2637530297
 40
0.6573593865
 40
1.0
 40
1.0
 40
1.0
 40
1.0
 10
-144.3912148775
 20
-6.3992677965
 30
0.0
 10
-144.3427530059
 20
-6.3505245046
 30
0.0
 10
-144.2046875929
 20
-6.2456680958
 30
0.0
 10
-143.9560208365
 20
-6.1526099144
 30
0.0
 10
-143.7545273964
 20
-6.1611419068
 30
0.0
 10
-143.6712319773
 20
-6.1933151502
 30
0.0
  0
SPLINE
  5
3DA
100
AcDbEntity
  8
0
100
AcDbSpline
 62
7
  6
CONTINUOUS
 70
0
 71
3
 72
9
 73
5
 74
0
 42
0.0000001
 43
0.0000001
 44
0.0000000001
 40
0.0
 40
0.0
 40
0.0
 40
0.0
 40
0.4989516943
 40
1.0
 40
1.0
 40
1.0
 40
1.0
 10
-147.0739129356
 20
0.4746573043
 30
0.0
 10
-146.7953319038
 20
-0.7236609291
 30
0.0
 10
-146.0563534617
 20
-3.0863659351
 30
0.0
 10
-144.9944369271
 20
-5.3210980773
 30
0.0
 10
-144.3912086569
 20
-6.3992615779
 30
0.0
  0
SPLINE
  5
3DB
100
AcDbEntity
  8
0
100
AcDbSpline
 62
7
  6
CONTINUOUS
 70
0
 71
3
 72
9
 73
5
 74
0
 42
0.0000001
 43
0.0000001
 44
0.0000000001
 40
0.0
 40
0.0
 40
0.0
 40
0.0
 40
0.4978350007
 40
1.0
 40
1.0
 40
1.0
 40
1.0
 10
-144.3912148775
 20
-6.3992677966
 30
0.0
 10
-143.6567583661
 20
-7.7119760873
 30
0.0
 10
-141.965990738
 20
-10.2330014841
 30
0.0
 10
-139.9180026086
 20
-12.4704037279
 30
0.0
 10
-138.8180123765
 20
-13.5154784777
 30
0.0
  0
SPLINE
  5
3DC
100
AcDbEntity
  8
0
100
AcDbSpline
 62
7
  6
CONTINUOUS
 70
0
 71
3
 72
9
 73
5
 74
0
 42
0.0000001
 43
0.0000001
 44
0.0000000001
 40
0.0
 40
0.0
 40
0.0
 40
0.0
 40
0.284621858
 40
1.0
 40
1.0
 40
1.0
 40
1.0
 10
-138.2486134717
 20
-14.0437614881
 30
0.0
 10
-138.2433472869
 20
-14.0354393135
 30
0.0
 10
-138.2218663008
 20
-14.0091901667
 30
0.0
 10
-138.1828096083
 20
-13.989976758
 30
0.0
 10
-138.1592503314
 20
-13.9975720377
 30
0.0
  0
SPLINE
  5
3DD
100
AcDbEntity
  8
0
100
AcDbSpline
 62
7
  6
CONTINUOUS
 70
0
 71
3
 72
9
 73
5
 74
0
 42
0.0000001
 43
0.0000001
 44
0.0000000001
 40
0.0
 40
0.0
 40
0.0
 40
0.0
 40
0.2441054062
 40
1.0
 40
1.0
 40
1.0
 40
1.0
 10
-139.8880887348
 20
-25.3293025145
 30
0.0
 10
-139.8934874057
 20
-25.3244775496
 30
0.0
 10
-139.9158282221
 20
-25.3049684985
 30
0.0
 10
-139.9389576125
 20
-25.2863293862
 30
0.0
 10
-139.9570968589
 20
-25.2731508619
 30
0.0
  0
SPLINE
  5
3DE
100
AcDbEntity
  8
0
100
AcDbSpline
 62
7
  6
CONTINUOUS
 70
0
 71
3
 72
9
 73
5
 74
0
 42
0.0000001
 43
0.0000001
 44
0.0000000001
 40
0.0
 40
0.0
 40
0.0
 40
0.0
 40
0.5031682624
 40
1.0
 40
1.0
 40
1.0
 40
1.0
 10
-139.9662355098
 20
-25.2849395437
 30
0.0
 10
-139.9534119308
 20
-25.2930220825
 30
0.0
 10
-139.9279351984
 20
-25.3091266557
 30
0.0
 10
-139.9009592991
 20
-25.3227046228
 30
0.0
 10
-139.8883717158
 20
-25.330802379
 30
0.0
  0
SPLINE
  5
3DF
100
AcDbEntity
  8
0
100
AcDbSpline
 62
7
  6
CONTINUOUS
 70
0
 71
3
 72
9
 73
5
 74
0
 42
0.0000001
 43
0.0000001
 44
0.0000000001
 40
0.0
 40
0.0
 40
0.0
 40
0.0
 40
0.510172903
 40
1.0
 40
1.0
 40
1.0
 40
1.0
 10
-151.6101638914
 20
-13.2370832598
 30
0.0
 10
-150.1742313676
 20
-15.7091100065
 30
0.0
 10
-146.7405341014
 20
-20.2194664974
 30
0.0
 10
-142.3418596014
 20
-23.7815410282
 30
0.0
 10
-140.0225163108
 20
-25.2493952161
 30
0.0
  0
SPLINE
  5
3E0
100
AcDbEntity
  8
0
100
AcDbSpline
 62
7
  6
CONTINUOUS
 70
0
 71
3
 72
9
 73
5
 74
0
 42
0.0000001
 43
0.0000001
 44
0.0000000001
 40
0.0
 40
0.0
 40
0.0
 40
0.0
 40
0.2529258609
 40
1.0
 40
1.0
 40
1.0
 40
1.0
 10
-153.1993042514
 20
-10.1511301595
 30
0.0
 10
-153.3075096562
 20
-10.6621850097
 30
0.0
 10
-153.7020777348
 20
-12.6896096329
 30
0.0
 10
-153.9621537113
 20
-14.7435538872
 30
0.0
 10
-154.0742128261
 20
-16.2824606892
 30
0.0
  0
SPLINE
  5
3E1
100
AcDbEntity
  8
0
100
AcDbSpline
 62
7
  6
CONTINUOUS
 70
0
 71
3
 72
9
 73
5
 74
0
 42
0.0000001
 43
0.0000001
 44
0.0000000001
 40
0.0
 40
0.0
 40
0.0
 40
0.0
 40
0.4941911929
 40
1.0
 40
1.0
 40
1.0
 40
1.0
 10
-148.2413569189
 20
-27.6798151686
 30
0.0
 10
-149.3441619385
 20
-26.6405176852
 30
0.0
 10
-151.4470592456
 20
-24.3959401096
 30
0.0
 10
-153.2158551859
 20
-21.874199846
 30
0.0
 10
-154.0006639523
 20
-20.5364301854
 30
0.0
  0
SPLINE
  5
3E2
100
AcDbEntity
  8
0
100
AcDbSpline
 62
7
  6
CONTINUOUS
 70
0
 71
3
 72
10
 73
6
 74
0
 42
0.0000001
 43
0.0000001
 44
0.0000000001
 40
0.0
 40
0.0
 40
0.0
 40
0.0
 40
0.2419906248
 40
0.500583654
 40
1.0
 40
1.0
 40
1.0
 40
1.0
 10
-152.2302276907
 20
-9.3536231627
 30
0.0
 10
-152.3332776636
 20
-9.3707845337
 30
0.0
 10
-152.5404284191
 20
-9.4449497447
 30
0.0
 10
-152.9020037585
 20
-9.6833585933
 30
0.0
 10
-153.1147667031
 20
-9.9528096847
 30
0.0
 10
-153.1992429258
 20
-10.151172754
 30
0.0
  0
SPLINE
  5
3E3
100
AcDbEntity
  8
0
100
AcDbSpline
 62
7
  6
CONTINUOUS
 70
0
 71
3
 72
10
 73
6
 74
0
 42
0.0000001
 43
0.0000001
 44
0.0000000001
 40
0.0
 40
0.0
 40
0.0
 40
0.0
 40
0.347926713
 40
0.6322436083
 40
1.0
 40
1.0
 40
1.0
 40
1.0
 10
-153.1993171298
 20
-10.1511293202
 30
0.0
 10
-153.2132452581
 20
-10.1431266725
 30
0.0
 10
-153.2380907581
 20
-10.1270527014
 30
0.0
 10
-153.2728869171
 20
-10.0987077901
 30
0.0
 10
-153.2915045413
 20
-10.0680981109
 30
0.0
 10
-153.2881017822
 20
-10.0514635878
 30
0.0
  0
SPLINE
  5
3E4
100
AcDbEntity
  8
0
100
AcDbSpline
 62
7
  6
CONTINUOUS
 70
0
 71
3
 72
11
 73
7
 74
0
 42
0.0000001
 43
0.0000001
 44
0.0000000001
 40
0.0
 40
0.0
 40
0.0
 40
0.0
 40
0.2291083356
 40
0.4862708484
 40
0.7507247416
 40
1.0
 40
1.0
 40
1.0
 40
1.0
 10
-151.6099990061
 20
-13.2373671147
 30
0.0
 10
-151.5672655987
 20
-13.1698783555
 30
0.0
 10
-151.4543094528
 20
-13.0406495829
 30
0.0
 10
-151.2442746981
 20
-12.8822078403
 30
0.0
 10
-151.003035859
 20
-12.7606303431
 30
0.0
 10
-150.8294563225
 20
-12.7105272461
 30
0.0
 10
-150.7436515414
 20
-12.6967000745
 30
0.0
  0
SPLINE
  5
3E5
100
AcDbEntity
  8
0
100
AcDbSpline
 62
7
  6
CONTINUOUS
 70
0
 71
3
 72
9
 73
5
 74
0
 42
0.0000001
 43
0.0000001
 44
0.0000000001
 40
0.0
 40
0.0
 40
0.0
 40
0.0
 40
0.4931065918
 40
1.0
 40
1.0
 40
1.0
 40
1.0
 10
-127.3258028857
 20
8.3145487953
 30
0.0
 10
-128.4293641484
 20
8.2689899274
 30
0.0
 10
-130.663471182
 20
8.0435000437
 30
0.0
 10
-132.8579991014
 20
7.571566765
 30
0.0
 10
-133.9541929157
 20
7.2758443925
 30
0.0
  0
SPLINE
  5
3E6
100
AcDbEntity
  8
0
100
AcDbSpline
 62
7
  6
CONTINUOUS
 70
0
 71
3
 72
10
 73
6
 74
0
 42
0.0000001
 43
0.0000001
 44
0.0000000001
 40
0.0
 40
0.0
 40
0.0
 40
0.0
 40
0.2372361775
 40
0.6091567921
 40
1.0
 40
1.0
 40
1.0
 40
1.0
 10
-154.1868702128
 20
-19.3526310032
 30
0.0
 10
-153.1028767226
 20
-19.9745430618
 30
0.0
 10
-150.2899482056
 20
-21.5204261112
 30
0.0
 10
-145.5635458269
 20
-23.8516767172
 30
0.0
 10
-141.8795312198
 20
-25.459633403
 30
0.0
 10
-139.9758364345
 20
-26.2438799924
 30
0.0
  0
SPLINE
  5
3E7
100
AcDbEntity
  8
0
100
AcDbSpline
 62
7
  6
CONTINUOUS
 70
0
 71
3
 72
9
 73
5
 74
0
 42
0.0000001
 43
0.0000001
 44
0.0000000001
 40
0.0
 40
0.0
 40
0.0
 40
0.0
 40
0.5164609969
 40
1.0
 40
1.0
 40
1.0
 40
1.0
 10
-139.8065961087
 20
-26.3134556151
 30
0.0
 10
-139.8063460746
 20
-27.8058589244
 30
0.0
 10
-139.5080405989
 20
-30.7069270256
 30
0.0
 10
-138.5184575385
 20
-33.4618944922
 30
0.0
 10
-137.8648945699
 20
-34.6968914992
 30
0.0
  0
SPLINE
  5
3E8
100
AcDbEntity
  8
0
100
AcDbSpline
 62
7
  6
CONTINUOUS
 70
0
 71
3
 72
10
 73
6
 74
0
 42
0.0000001
 43
0.0000001
 44
0.0000000001
 40
0.0
 40
0.0
 40
0.0
 40
0.0
 40
0.2417798945
 40
0.4892880247
 40
1.0
 40
1.0
 40
1.0
 40
1.0
 10
-139.3205058511
 20
-33.974777651
 30
0.0
 10
-140.1031518276
 20
-33.5674294963
 30
0.0
 10
-141.6642707314
 20
-32.6976771123
 30
0.0
 10
-144.7263227801
 20
-30.7093907539
 30
0.0
 10
-146.8850471838
 20
-28.9580179478
 30
0.0
 10
-148.2413566027
 20
-27.6798149777
 30
0.0
  0
SPLINE
  5
3E9
100
AcDbEntity
  8
0
100
AcDbSpline
 62
7
  6
CONTINUOUS
 70
0
 71
3
 72
9
 73
5
 74
0
 42
0.0000001
 43
0.0000001
 44
0.0000000001
 40
0.0
 40
0.0
 40
0.0
 40
0.0
 40
0.2451935345
 40
1.0
 40
1.0
 40
1.0
 40
1.0
 10
-148.2413569189
 20
-27.6798151686
 30
0.0
 10
-148.8032274037
 20
-27.1841878055
 30
0.0
 10
-151.0491275183
 20
-25.1118975724
 30
0.0
 10
-153.103825829
 20
-22.8304620024
 30
0.0
 10
-154.5148447492
 20
-21.0059963752
 30
0.0
  0
SPLINE
  5
3EA
100
AcDbEntity
  8
0
100
AcDbSpline
 62
7
  6
CONTINUOUS
 70
0
 71
3
 72
9
 73
5
 74
0
 42
0.0000001
 43
0.0000001
 44
0.0000000001
 40
0.0
 40
0.0
 40
0.0
 40
0.0
 40
0.4951194294
 40
1.0
 40
1.0
 40
1.0
 40
1.0
 10
-125.6897464338
 20
6.6135282707
 30
0.0
 10
-123.5570362722
 20
5.384323999
 30
0.0
 10
-119.3993232114
 20
2.6332562671
 30
0.0
 10
-115.5985138855
 20
-0.5909436288
 30
0.0
 10
-113.7781379238
 20
-2.3192088941
 30
0.0
  0
SPLINE
  5
3EB
100
AcDbEntity
  8
0
100
AcDbSpline
 62
7
  6
CONTINUOUS
 70
0
 71
3
 72
11
 73
7
 74
0
 42
0.0000001
 43
0.0000001
 44
0.0000000001
 40
0.0
 40
0.0
 40
0.0
 40
0.0
 40
0.2411042306
 40
0.4869970874
 40
0.7395159757
 40
1.0
 40
1.0
 40
1.0
 40
1.0
 10
-113.6603449563
 20
-2.4326998076
 30
0.0
 10
-114.2630846191
 20
-2.2076944948
 30
0.0
 10
-115.5181391661
 20
-1.8481062027
 30
0.0
 10
-117.4821398612
 20
-1.5953200165
 30
0.0
 10
-119.5133787803
 20
-1.6272589767
 30
0.0
 10
-120.8711795256
 20
-1.8342905876
 30
0.0
 10
-121.5504547785
 20
-1.9816796069
 30
0.0
  0
SPLINE
  5
3EC
100
AcDbEntity
  8
0
100
AcDbSpline
 62
7
  6
CONTINUOUS
 70
0
 71
3
 72
11
 73
7
 74
0
 42
0.0000001
 43
0.0000001
 44
0.0000000001
 40
0.0
 40
0.0
 40
0.0
 40
0.0
 40
0.2751360745
 40
0.5453158043
 40
0.7905437566
 40
1.0
 40
1.0
 40
1.0
 40
1.0
 10
-154.5148447439
 20
-21.0059964603
 30
0.0
 10
-154.6055506372
 20
-21.0759737501
 30
0.0
 10
-154.768144007
 20
-21.2377319746
 30
0.0
 10
-154.9500033158
 20
-21.5149192203
 30
0.0
 10
-155.0566427499
 20
-21.8001059209
 30
0.0
 10
-155.071340506
 20
-21.993222657
 30
0.0
 10
-155.059601138
 20
-22.0796427525
 30
0.0
  0
SPLINE
  5
3ED
100
AcDbEntity
  8
0
100
AcDbSpline
 62
7
  6
CONTINUOUS
 70
0
 71
3
 72
9
 73
5
 74
0
 42
0.0000001
 43
0.0000001
 44
0.0000000001
 40
0.0
 40
0.0
 40
0.0
 40
0.0
 40
0.2681734989
 40
1.0
 40
1.0
 40
1.0
 40
1.0
 10
-155.0595070428
 20
-22.0796961112
 30
0.0
 10
-155.0695575266
 20
-22.0739305832
 30
0.0
 10
-155.1054485076
 20
-22.050069693
 30
0.0
 10
-155.1341980998
 20
-22.013416828
 30
0.0
 10
-155.1438025924
 20
-21.9832913043
 30
0.0
  0
SPLINE
  5
3EE
100
AcDbEntity
  8
0
100
AcDbSpline
 62
7
  6
CONTINUOUS
 70
0
 71
3
 72
9
 73
5
 74
0
 42
0.0000001
 43
0.0000001
 44
0.0000000001
 40
0.0
 40
0.0
 40
0.0
 40
0.0
 40
0.5068045075
 40
1.0
 40
1.0
 40
1.0
 40
1.0
 10
-155.0594911722
 20
-22.0796869498
 30
0.0
 10
-154.7110653249
 20
-23.1634762279
 30
0.0
 10
-153.9077144442
 20
-25.2667854704
 30
0.0
 10
-152.8663872747
 20
-27.263923608
 30
0.0
 10
-152.2946617889
 20
-28.2128505427
 30
0.0
  0
SPLINE
  5
3EF
100
AcDbEntity
  8
0
100
AcDbSpline
 62
7
  6
CONTINUOUS
 70
0
 71
3
 72
10
 73
6
 74
0
 42
0.0000001
 43
0.0000001
 44
0.0000000001
 40
0.0
 40
0.0
 40
0.0
 40
0.0
 40
0.4066691659
 40
0.6966322402
 40
1.0
 40
1.0
 40
1.0
 40
1.0
 10
-143.9910290999
 20
-35.9668852005
 30
0.0
 10
-143.990861346
 20
-36.0190849111
 30
0.0
 10
-143.9009938148
 20
-36.0882151329
 30
0.0
 10
-143.7848604126
 20
-36.1279886784
 30
0.0
 10
-143.7090340682
 20
-36.1443607425
 30
0.0
 10
-143.6705315503
 20
-36.1501829124
 30
0.0
  0
SPLINE
  5
3F0
100
AcDbEntity
  8
0
100
AcDbSpline
 62
7
  6
CONTINUOUS
 70
0
 71
3
 72
9
 73
5
 74
0
 42
0.0000001
 43
0.0000001
 44
0.0000000001
 40
0.0
 40
0.0
 40
0.0
 40
0.0
 40
0.2589472326
 40
1.0
 40
1.0
 40
1.0
 40
1.0
 10
-148.5737110057
 20
-28.3067149268
 30
0.0
 10
-147.8922443553
 20
-28.8486078543
 30
0.0
 10
-145.2050114322
 20
-30.870366615
 30
0.0
 10
-142.3077857661
 20
-32.6137243941
 30
0.0
 10
-140.0757783582
 20
-33.7211594391
 30
0.0
  0
SPLINE
  5
3F1
100
AcDbEntity
  8
0
100
AcDbSpline
 62
7
  6
CONTINUOUS
 70
0
 71
3
 72
14
 73
10
 74
0
 42
0.0000001
 43
0.0000001
 44
0.0000000001
 40
0.0
 40
0.0
 40
0.0
 40
0.0
 40
0.0284471247
 40
0.0939693919
 40
0.1964428464
 40
0.3300202443
 40
0.4855069382
 40
0.654006755
 40
1.0
 40
1.0
 40
1.0
 40
1.0
 10
-151.5860128543
 20
-30.5936999354
 30
0.0
 10
-151.5874460879
 20
-30.5969605428
 30
0.0
 10
-151.5779110408
 20
-30.6085509441
 30
0.0
 10
-151.5603195351
 20
-30.6220822273
 30
0.0
 10
-151.5279327793
 20
-30.6438571007
 30
0.0
 10
-151.4860981695
 20
-30.6684806786
 30
0.0
 10
-151.4358461141
 20
-30.6963427571
 30
0.0
 10
-151.3616132476
 20
-30.7352821537
 30
0.0
 10
-151.3038580583
 20
-30.763888411
 30
0.0
 10
-151.2648179342
 20
-30.7826627754
 30
0.0
  0
SPLINE
  5
3F2
100
AcDbEntity
  8
0
100
AcDbSpline
 62
7
  6
CONTINUOUS
 70
0
 71
3
 72
14
 73
10
 74
0
 42
0.0000001
 43
0.0000001
 44
0.0000000001
 40
0.0
 40
0.0
 40
0.0
 40
0.0
 40
0.0465032614
 40
0.104433951
 40
0.1881954865
 40
0.3015848892
 40
0.4441081605
 40
0.611824943
 40
1.0
 40
1.0
 40
1.0
 40
1.0
 10
-151.295891762
 20
-29.955328204
 30
0.0
 10
-151.29336054
 20
-29.9497776364
 30
0.0
 10
-151.2825624166
 20
-29.9391411743
 30
0.0
 10
-151.2565900888
 20
-29.9382043273
 30
0.0
 10
-151.2243565469
 20
-29.9471556101
 30
0.0
 10
-151.1838031151
 20
-29.9661675576
 30
0.0
 10
-151.1363117129
 20
-29.9950907486
 30
0.0
 10
-151.0616048619
 20
-30.0482442125
 30
0.0
 10
-151.0058204888
 20
-30.0954164009
 30
0.0
 10
-150.968018907
 20
-30.1295356849
 30
0.0
  0
SPLINE
  5
3F3
100
AcDbEntity
  8
0
100
AcDbSpline
 62
7
  6
CONTINUOUS
 70
0
 71
3
 72
10
 73
6
 74
0
 42
0.0000001
 43
0.0000001
 44
0.0000000001
 40
0.0
 40
0.0
 40
0.0
 40
0.0
 40
0.1921991176
 40
0.4369444291
 40
1.0
 40
1.0
 40
1.0
 40
1.0
 10
-148.5737109714
 20
-28.3067149541
 30
0.0
 10
-148.5804250349
 20
-28.2604946726
 30
0.0
 10
-148.5661782477
 20
-28.1519457965
 30
0.0
 10
-148.4709119608
 20
-27.9276579522
 30
0.0
 10
-148.3437950228
 20
-27.7705214726
 30
0.0
 10
-148.2413569205
 20
-27.6798151627
 30
0.0
  0
SPLINE
  5
3F4
100
AcDbEntity
  8
0
100
AcDbSpline
 62
7
  6
CONTINUOUS
 70
0
 71
3
 72
9
 73
5
 74
0
 42
0.0000001
 43
0.0000001
 44
0.0000000001
 40
0.0
 40
0.0
 40
0.0
 40
0.0
 40
0.4563564321
 40
1.0
 40
1.0
 40
1.0
 40
1.0
 10
-139.3474467862
 20
-34.0744967391
 30
0.0
 10
-139.3541886705
 20
-34.0596836296
 30
0.0
 10
-139.3515929393
 20
-34.0208523561
 30
0.0
 10
-139.3337331031
 20
-33.9889546537
 30
0.0
 10
-139.3205074217
 20
-33.9747778953
 30
0.0
  0
SPLINE
  5
3F5
100
AcDbEntity
  8
0
100
AcDbSpline
 62
7
  6
CONTINUOUS
 70
0
 71
3
 72
11
 73
7
 74
0
 42
0.0000001
 43
0.0000001
 44
0.0000000001
 40
0.0
 40
0.0
 40
0.0
 40
0.0
 40
0.2482120323
 40
0.497138052
 40
0.7478786136
 40
1.0
 40
1.0
 40
1.0
 40
1.0
 10
-138.0753954787
 20
-34.6396559369
 30
0.0
 10
-138.1791901998
 20
-34.5861436407
 30
0.0
 10
-138.38588915
 20
-34.4766559757
 30
0.0
 10
-138.6945113542
 20
-34.307662886
 30
0.0
 10
-139.0066715478
 20
-34.1413634152
 30
0.0
 10
-139.2165908804
 20
-34.0321852309
 30
0.0
 10
-139.3204167567
 20
-33.9748263213
 30
0.0
  0
SPLINE
  5
3F6
100
AcDbEntity
  8
0
100
AcDbSpline
 62
7
  6
CONTINUOUS
 70
0
 71
3
 72
9
 73
5
 74
0
 42
0.0000001
 43
0.0000001
 44
0.0000000001
 40
0.0
 40
0.0
 40
0.0
 40
0.0
 40
0.5013502584
 40
1.0
 40
1.0
 40
1.0
 40
1.0
 10
-137.4680475796
 20
-35.3992505784
 30
0.0
 10
-137.4955525829
 20
-35.3895067299
 30
0.0
 10
-137.5510938514
 20
-35.3720547729
 30
0.0
 10
-137.6062989927
 20
-35.3536240107
 30
0.0
 10
-137.6339411186
 20
-35.3447790949
 30
0.0
  0
SPLINE
  5
3F7
100
AcDbEntity
  8
0
100
AcDbSpline
 62
7
  6
CONTINUOUS
 70
0
 71
3
 72
14
 73
10
 74
0
 42
0.0000001
 43
0.0000001
 44
0.0000000001
 40
0.0
 40
0.0
 40
0.0
 40
0.0
 40
0.3295869342
 40
0.483672832
 40
0.6270710269
 40
0.7546121796
 40
0.8558613652
 40
0.9061151065
 40
1.0
 40
1.0
 40
1.0
 40
1.0
 10
-125.6818059978
 20
6.6256628421
 30
0.0
 10
-125.6877959563
 20
6.6275925205
 30
0.0
 10
-125.6965840114
 20
6.6303810049
 30
0.0
 10
-125.7080977146
 20
6.6338108376
 30
0.0
 10
-125.7157868593
 20
6.6360554835
 30
0.0
 10
-125.72302766
 20
6.637765197
 30
0.0
 10
-125.7273479647
 20
6.6390674595
 30
0.0
 10
-125.7340931643
 20
6.6390985496
 30
0.0
 10
-125.7291982329
 20
6.6362449697
 30
0.0
 10
-125.7276437025
 20
6.6353522404
 30
0.0
  0
SPLINE
  5
3F8
100
AcDbEntity
  8
0
100
AcDbSpline
 62
7
  6
CONTINUOUS
 70
0
 71
3
 72
21
 73
17
 74
0
 42
0.0000001
 43
0.0000001
 44
0.0000000001
 40
0.0
 40
0.0
 40
0.0
 40
0.0
 40
0.2619229123
 40
0.3923342381
 40
0.5220952297
 40
0.6507852924
 40
0.7775250585
 40
0.8395476897
 40
0.8998313316
 40
0.9288174368
 40
0.9563500869
 40
0.9691743591
 40
0.9808685082
 40
0.9905584228
 40
0.994679872
 40
1.0
 40
1.0
 40
1.0
 40
1.0
 10
-134.3838157208
 20
7.2167708023
 30
0.0
 10
-134.4594715452
 20
7.1955981515
 30
0.0
 10
-134.5724745396
 20
7.1627081287
 30
0.0
 10
-134.722021838
 20
7.1162303756
 30
0.0
 10
-134.8329252446
 20
7.0800931373
 30
0.0
 10
-134.9421734492
 20
7.0424822968
 30
0.0
 10
-135.0315297756
 20
7.0095445682
 30
0.0
 10
-135.1008738612
 20
6.9817515301
 30
0.0
 10
-135.1425145963
 20
6.9636935731
 30
0.0
 10
-135.1740596544
 20
6.9484058983
 30
0.0
 10
-135.1923169488
 20
6.9384813514
 30
0.0
 10
-135.205524406
 20
6.9300026837
 30
0.0
 10
-135.2134007861
 20
6.9236570366
 30
0.0
 10
-135.2190078649
 20
6.9177917464
 30
0.0
 10
-135.2192355895
 20
6.911597803
 30
0.0
 10
-135.2168311748
 20
6.9094848314
 30
0.0
 10
-135.2154447223
 20
6.908694791
 30
0.0
  0
SPLINE
  5
3F9
100
AcDbEntity
  8
0
100
AcDbSpline
 62
7
  6
CONTINUOUS
 70
0
 71
3
 72
11
 73
7
 74
0
 42
0.0000001
 43
0.0000001
 44
0.0000000001
 40
0.0
 40
0.0
 40
0.0
 40
0.0
 40
0.276495323
 40
0.5359606502
 40
0.7773434616
 40
1.0
 40
1.0
 40
1.0
 40
1.0
 10
-135.3455290854
 20
1.5992790296
 30
0.0
 10
-135.4985018351
 20
2.0352245592
 30
0.0
 10
-135.7604115564
 20
2.893086985
 30
0.0
 10
-136.0185745935
 20
4.1684438527
 30
0.0
 10
-136.1243489385
 20
5.3754650442
 30
0.0
 10
-136.0883955268
 20
6.1534421616
 30
0.0
 10
-136.0398391982
 20
6.5223044628
 30
0.0
  0
SPLINE
  5
3FA
100
AcDbEntity
  8
0
100
AcDbSpline
 62
7
  6
CONTINUOUS
 70
0
 71
3
 72
9
 73
5
 74
0
 42
0.0000001
 43
0.0000001
 44
0.0000000001
 40
0.0
 40
0.0
 40
0.0
 40
0.0
 40
0.4861011218
 40
1.0
 40
1.0
 40
1.0
 40
1.0
 10
-135.2154447223
 20
6.908694791
 30
0.0
 10
-133.0285420269
 20
5.6508249228
 30
0.0
 10
-128.6587231369
 20
2.8346590075
 30
0.0
 10
-124.5544227137
 20
-0.3524218054
 30
0.0
 10
-122.5119543911
 20
-2.0676064695
 30
0.0
  0
SPLINE
  5
3FB
100
AcDbEntity
  8
0
100
AcDbSpline
 62
7
  6
CONTINUOUS
 70
0
 71
3
 72
11
 73
7
 74
0
 42
0.0000001
 43
0.0000001
 44
0.0000000001
 40
0.0
 40
0.0
 40
0.0
 40
0.0
 40
0.2372808377
 40
0.4664865468
 40
0.7158803272
 40
1.0
 40
1.0
 40
1.0
 40
1.0
 10
-152.2332963875
 20
-9.079922314
 30
0.0
 10
-152.2040522943
 20
-9.0720241088
 30
0.0
 10
-152.1424705443
 20
-9.0666517743
 30
0.0
 10
-152.0550527017
 20
-9.1038919323
 30
0.0
 10
-151.9904488755
 20
-9.1802644468
 30
0.0
 10
-151.9653938211
 20
-9.2446079077
 30
0.0
 10
-151.9559880271
 20
-9.2796386048
 30
0.0
  0
SPLINE
  5
3FC
100
AcDbEntity
  8
0
100
AcDbSpline
 62
7
  6
CONTINUOUS
 70
0
 71
3
 72
11
 73
7
 74
0
 42
0.0000001
 43
0.0000001
 44
0.0000000001
 40
0.0
 40
0.0
 40
0.0
 40
0.0
 40
0.2135441326
 40
0.4560904038
 40
0.7243245083
 40
1.0
 40
1.0
 40
1.0
 40
1.0
 10
-152.5206408613
 20
-9.1574398765
 30
0.0
 10
-152.4950556706
 20
-9.1505435748
 30
0.0
 10
-152.4352630599
 20
-9.1534588952
 30
0.0
 10
-152.3554739439
 20
-9.1987176869
 30
0.0
 10
-152.2860840361
 20
-9.2683135987
 30
0.0
 10
-152.2476197144
 20
-9.3241634565
 30
0.0
 10
-152.2302289034
 20
-9.3536211086
 30
0.0
  0
SPLINE
  5
3FD
100
AcDbEntity
  8
0
100
AcDbSpline
 62
7
  6
CONTINUOUS
 70
0
 71
3
 72
10
 73
6
 74
0
 42
0.0000001
 43
0.0000001
 44
0.0000000001
 40
0.0
 40
0.0
 40
0.0
 40
0.0
 40
0.4964076956
 40
0.7488652274
 40
1.0
 40
1.0
 40
1.0
 40
1.0
 10
-122.5119674033
 20
-2.0675932456
 30
0.0
 10
-122.4893864222
 20
-2.0865558666
 30
0.0
 10
-122.4562819896
 20
-2.1163074038
 30
0.0
 10
-122.4101949511
 20
-2.1537638911
 30
0.0
 10
-122.38650057
 20
-2.1721014236
 30
0.0
 10
-122.3755403477
 20
-2.1822211034
 30
0.0
  0
SPLINE
  5
3FE
100
AcDbEntity
  8
0
100
AcDbSpline
 62
7
  6
CONTINUOUS
 70
0
 71
3
 72
9
 73
5
 74
0
 42
0.0000001
 43
0.0000001
 44
0.0000000001
 40
0.0
 40
0.0
 40
0.0
 40
0.0
 40
0.4851820911
 40
1.0
 40
1.0
 40
1.0
 40
1.0
 10
-122.3755546341
 20
-2.1824009469
 30
0.0
 10
-123.8025179702
 20
-2.5673535096
 30
0.0
 10
-126.6487597174
 20
-3.7385763888
 30
0.0
 10
-129.1700654857
 20
-5.4888004347
 30
0.0
 10
-130.3681044871
 20
-6.5007892457
 30
0.0
  0
SPLINE
  5
3FF
100
AcDbEntity
  8
0
100
AcDbSpline
 62
7
  6
CONTINUOUS
 70
0
 71
3
 72
9
 73
5
 74
0
 42
0.0000001
 43
0.0000001
 44
0.0000000001
 40
0.0
 40
0.0
 40
0.0
 40
0.0
 40
0.5162582285
 40
1.0
 40
1.0
 40
1.0
 40
1.0
 10
-135.3455290854
 20
1.5992790296
 30
0.0
 10
-135.6680042795
 20
2.4941551306
 30
0.0
 10
-136.1662027557
 20
4.2770939088
 30
0.0
 10
-136.3448216575
 20
6.1239806893
 30
0.0
 10
-136.3368307893
 20
7.0152395936
 30
0.0
  0
SPLINE
  5
400
100
AcDbEntity
  8
0
100
AcDbSpline
 62
7
  6
CONTINUOUS
 70
0
 71
3
 72
9
 73
5
 74
0
 42
0.0000001
 43
0.0000001
 44
0.0000000001
 40
0.0
 40
0.0
 40
0.0
 40
0.0
 40
0.5008522658
 40
1.0
 40
1.0
 40
1.0
 40
1.0
 10
-145.5060579144
 20
0.7997065859
 30
0.0
 10
-145.4707605923
 20
0.7865494814
 30
0.0
 10
-145.4042981095
 20
0.7398895794
 30
0.0
 10
-145.3832869752
 20
0.6620420991
 30
0.0
 10
-145.381869566
 20
0.6245273126
 30
0.0
  0
SPLINE
  5
401
100
AcDbEntity
  8
0
100
AcDbSpline
 62
7
  6
CONTINUOUS
 70
0
 71
3
 72
9
 73
5
 74
0
 42
0.0000001
 43
0.0000001
 44
0.0000000001
 40
0.0
 40
0.0
 40
0.0
 40
0.0
 40
0.4999104187
 40
1.0
 40
1.0
 40
1.0
 40
1.0
 10
-146.0512855659
 20
1.0033599996
 30
0.0
 10
-146.0123687016
 20
0.9887807741
 30
0.0
 10
-145.9432769819
 20
0.9339394619
 30
0.0
 10
-145.9079843011
 20
0.8565039861
 30
0.0
 10
-145.8961747512
 20
0.8166436196
 30
0.0
  0
SPLINE
  5
402
100
AcDbEntity
  8
0
100
AcDbSpline
 62
7
  6
CONTINUOUS
 70
0
 71
3
 72
25
 73
21
 74
0
 42
0.0000001
 43
0.0000001
 44
0.0000000001
 40
0.0
 40
0.0
 40
0.0
 40
0.0
 40
0.1255839525
 40
0.2511829876
 40
0.376792857
 40
0.5024072831
 40
0.5652136117
 40
0.6280162458
 40
0.6908113836
 40
0.7535920019
 40
0.816343053
 40
0.8476976535
 40
0.8790257802
 40
0.9103055673
 40
0.9414808543
 40
0.9569820812
 40
0.9723430173
 40
0.9873020861
 40
0.994280501
 40
1.0
 40
1.0
 40
1.0
 40
1.0
 10
-150.9053957311
 20
-6.1296113621
 30
0.0
 10
-150.9428117654
 20
-6.2096991214
 30
0.0
 10
-151.0166591643
 20
-6.3703486033
 30
0.0
 10
-151.124381419
 20
-6.6127141217
 30
0.0
 10
-151.2289151042
 20
-6.8564960282
 30
0.0
 10
-151.3131660001
 20
-7.0608617412
 30
0.0
 10
-151.3786179679
 20
-7.2251374611
 30
0.0
 10
-151.4266310115
 20
-7.3487579401
 30
0.0
 10
-151.4734270173
 20
-7.4728255899
 30
0.0
 10
-151.518776454
 20
-7.5973913198
 30
0.0
 10
-151.5550563444
 20
-7.7016982467
 30
0.0
 10
-151.5827781553
 20
-7.7855266987
 30
0.0
 10
-151.6027203898
 20
-7.8485891
 30
0.0
 10
-151.6214936421
 20
-7.9118851726
 30
0.0
 10
-151.6357088176
 20
-7.9648816815
 30
0.0
 10
-151.6454237929
 20
-8.0074980689
 30
0.0
 10
-151.6513328812
 20
-8.0391092635
 30
0.0
 10
-151.6541888392
 20
-8.0655826511
 30
0.0
 10
-151.6533928089
 20
-8.08456995
 30
0.0
 10
-151.6497461547
 20
-8.094111658
 30
0.0
 10
-151.6462416608
 20
-8.0960931295
 30
0.0
  0
SPLINE
  5
403
100
AcDbEntity
  8
0
100
AcDbSpline
 62
7
  6
CONTINUOUS
 70
0
 71
3
 72
10
 73
6
 74
0
 42
0.0000001
 43
0.0000001
 44
0.0000000001
 40
0.0
 40
0.0
 40
0.0
 40
0.0
 40
0.268724283
 40
0.5257820356
 40
1.0
 40
1.0
 40
1.0
 40
1.0
 10
-131.4669933942
 20
-5.1772863475
 30
0.0
 10
-131.9027793044
 20
-4.6267557164
 30
0.0
 10
-132.7247863369
 20
-3.5240677084
 30
0.0
 10
-134.1180930495
 20
-1.3120957776
 30
0.0
 10
-134.9352692972
 20
0.4301115303
 30
0.0
 10
-135.3455290136
 20
1.599278555
 30
0.0
  0
SPLINE
  5
404
100
AcDbEntity
  8
0
100
AcDbSpline
 62
7
  6
CONTINUOUS
 70
0
 71
3
 72
10
 73
6
 74
0
 42
0.0000001
 43
0.0000001
 44
0.0000000001
 40
0.0
 40
0.0
 40
0.0
 40
0.0
 40
0.2347166781
 40
0.4797456348
 40
1.0
 40
1.0
 40
1.0
 40
1.0
 10
-136.4730778391
 20
7.1831486677
 30
0.0
 10
-136.5332643885
 20
7.2364416384
 30
0.0
 10
-136.6770933261
 20
7.3234976675
 30
0.0
 10
-137.014657785
 20
7.4016562581
 30
0.0
 10
-137.2863764456
 20
7.34921215
 30
0.0
 10
-137.4500919446
 20
7.2788732139
 30
0.0
  0
SPLINE
  5
405
100
AcDbEntity
  8
0
100
AcDbSpline
 62
7
  6
CONTINUOUS
 70
0
 71
3
 72
10
 73
6
 74
0
 42
0.0000001
 43
0.0000001
 44
0.0000000001
 40
0.0
 40
0.0
 40
0.0
 40
0.0
 40
0.3096158479
 40
0.5782550531
 40
1.0
 40
1.0
 40
1.0
 40
1.0
 10
-137.4499968411
 20
7.2788195026
 30
0.0
 10
-137.4630847012
 20
7.2863428214
 30
0.0
 10
-137.4885938678
 20
7.298829172
 30
0.0
 10
-137.5349696568
 20
7.3132115313
 30
0.0
 10
-137.5721505636
 20
7.3097785664
 30
0.0
 10
-137.5894782605
 20
7.298706171
 30
0.0
  0
SPLINE
  5
406
100
AcDbEntity
  8
0
100
AcDbSpline
 62
7
  6
CONTINUOUS
 70
0
 71
3
 72
21
 73
17
 74
0
 42
0.0000001
 43
0.0000001
 44
0.0000000001
 40
0.0
 40
0.0
 40
0.0
 40
0.0
 40
0.1266982935
 40
0.2534926251
 40
0.3803468695
 40
0.5071973912
 40
0.633924279
 40
0.6971717452
 40
0.7602694365
 40
0.8231099709
 40
0.8854655358
 40
0.9162990567
 40
0.9466723277
 40
0.9759926789
 40
0.9895423262
 40
1.0
 40
1.0
 40
1.0
 40
1.0
 10
-143.4766282372
 20
2.8115225364
 30
0.0
 10
-143.532996068
 20
2.7608520177
 30
0.0
 10
-143.6451406748
 20
2.6587648191
 30
0.0
 10
-143.8114215467
 20
2.5034407589
 30
0.0
 10
-143.9756663317
 20
2.3458317941
 30
0.0
 10
-144.1375794201
 20
2.185884453
 30
0.0
 10
-144.2702250829
 20
2.0504870302
 30
0.0
 10
-144.3744916811
 20
1.9407126198
 30
0.0
 10
-144.4514190984
 20
1.8577030184
 30
0.0
 10
-144.5266655925
 20
1.7738416063
 30
0.0
 10
-144.587476846
 20
1.7031043309
 30
0.0
 10
-144.6339334669
 20
1.6454014335
 30
0.0
 10
-144.6666179379
 20
1.6027892092
 30
0.0
 10
-144.6910488047
 20
1.5646205857
 30
0.0
 10
-144.7055027739
 20
1.5391341084
 30
0.0
 10
-144.7078401776
 20
1.5195818598
 30
0.0
 10
-144.7023970435
 20
1.5164978744
 30
0.0
  0
SPLINE
  5
407
100
AcDbEntity
  8
0
100
AcDbSpline
 62
7
  6
CONTINUOUS
 70
0
 71
3
 72
9
 73
5
 74
0
 42
0.0000001
 43
0.0000001
 44
0.0000000001
 40
0.0
 40
0.0
 40
0.0
 40
0.0
 40
0.2463766516
 40
1.0
 40
1.0
 40
1.0
 40
1.0
 10
-137.5370909673
 20
7.2231746869
 30
0.0
 10
-138.0485237339
 20
6.8956509578
 30
0.0
 10
-140.0956066458
 20
5.5217815767
 30
0.0
 10
-142.0258803407
 20
3.9751794067
 30
0.0
 10
-143.4052955829
 20
2.7309164329
 30
0.0
  0
SPLINE
  5
408
100
AcDbEntity
  8
0
100
AcDbSpline
 62
7
  6
CONTINUOUS
 70
0
 71
3
 72
9
 73
5
 74
0
 42
0.0000001
 43
0.0000001
 44
0.0000000001
 40
0.0
 40
0.0
 40
0.0
 40
0.0
 40
0.2390342311
 40
1.0
 40
1.0
 40
1.0
 40
1.0
 10
-137.4498914452
 20
7.2790283741
 30
0.0
 10
-137.4159825618
 20
6.8245045512
 30
0.0
 10
-137.182236221
 20
4.9300393644
 30
0.0
 10
-136.6062273983
 20
3.0857107853
 30
0.0
 10
-136.0346434586
 20
1.7520362932
 30
0.0
  0
SPLINE
  5
409
100
AcDbEntity
  8
0
100
AcDbSpline
 62
7
  6
CONTINUOUS
 70
0
 71
3
 72
9
 73
5
 74
0
 42
0.0000001
 43
0.0000001
 44
0.0000000001
 40
0.0
 40
0.0
 40
0.0
 40
0.0
 40
0.2381468009
 40
1.0
 40
1.0
 40
1.0
 40
1.0
 10
-136.0346908312
 20
1.7520157977
 30
0.0
 10
-135.7887933101
 20
1.1782724113
 30
0.0
 10
-134.6498073934
 20
-1.1851230836
 30
0.0
 10
-133.1251021807
 20
-3.3522344082
 30
0.0
 10
-131.8321425555
 20
-4.8740668345
 30
0.0
  0
SPLINE
  5
40A
100
AcDbEntity
  8
0
100
AcDbSpline
 62
7
  6
CONTINUOUS
 70
0
 71
3
 72
16
 73
12
 74
0
 42
0.0000001
 43
0.0000001
 44
0.0000000001
 40
0.0
 40
0.0
 40
0.0
 40
0.0
 40
0.2423887593
 40
0.4875976365
 40
0.6119752961
 40
0.7383829164
 40
0.8027800604
 40
0.8684226609
 40
0.9358573593
 40
0.9699913543
 40
1.0
 40
1.0
 40
1.0
 40
1.0
 10
-151.9428284024
 20
-28.8237991106
 30
0.0
 10
-151.9203133567
 20
-28.8587705899
 30
0.0
 10
-151.8746059079
 20
-28.9288540538
 30
0.0
 10
-151.8159909468
 20
-29.0159906027
 30
0.0
 10
-151.7673932127
 20
-29.0858646373
 30
0.0
 10
-151.7358742039
 20
-29.1298146768
 30
0.0
 10
-151.7096089829
 20
-29.1651312957
 30
0.0
 10
-151.6888808263
 20
-29.1919152627
 30
0.0
 10
-151.6707262969
 20
-29.2142226167
 30
0.0
 10
-151.6553419422
 20
-29.2306298368
 30
0.0
 10
-151.6473090142
 20
-29.2384172342
 30
0.0
 10
-151.6428352563
 20
-29.2409669017
 30
0.0
  0
SPLINE
  5
40B
100
AcDbEntity
  8
0
100
AcDbSpline
 62
7
  6
CONTINUOUS
 70
0
 71
3
 72
12
 73
8
 74
0
 42
0.0000001
 43
0.0000001
 44
0.0000000001
 40
0.0
 40
0.0
 40
0.0
 40
0.0
 40
0.1354264906
 40
0.2412402624
 40
0.37112536
 40
0.6764192414
 40
1.0
 40
1.0
 40
1.0
 40
1.0
 10
-154.8423112843
 20
-20.8267857423
 30
0.0
 10
-154.8293650049
 20
-20.8150151033
 30
0.0
 10
-154.7919718453
 20
-20.8167299638
 30
0.0
 10
-154.7486092004
 20
-20.833448316
 30
0.0
 10
-154.6860995453
 20
-20.8664024212
 30
0.0
 10
-154.6067741676
 20
-20.9239982932
 30
0.0
 10
-154.5453452462
 20
-20.9774037093
 30
0.0
 10
-154.5148447442
 20
-21.00599646
 30
0.0
  0
SPLINE
  5
40C
100
AcDbEntity
  8
0
100
AcDbSpline
 62
7
  6
CONTINUOUS
 70
0
 71
3
 72
11
 73
7
 74
0
 42
0.0000001
 43
0.0000001
 44
0.0000000001
 40
0.0
 40
0.0
 40
0.0
 40
0.0
 40
0.2722000201
 40
0.5325309489
 40
0.7743306004
 40
1.0
 40
1.0
 40
1.0
 40
1.0
 10
-136.0346908191
 20
1.7520157695
 30
0.0
 10
-135.971079474
 20
1.7796793402
 30
0.0
 10
-135.8378709529
 20
1.8159618769
 30
0.0
 10
-135.6373880194
 20
1.8080653158
 30
0.0
 10
-135.4613923644
 20
1.73716413
 30
0.0
 10
-135.3750900453
 20
1.6486084079
 30
0.0
 10
-135.3455290745
 20
1.5992790351
 30
0.0
  0
SPLINE
  5
40D
100
AcDbEntity
  8
0
100
AcDbSpline
 62
7
  6
CONTINUOUS
 70
0
 71
3
 72
9
 73
5
 74
0
 42
0.0000001
 43
0.0000001
 44
0.0000000001
 40
0.0
 40
0.0
 40
0.0
 40
0.0
 40
0.2439994179
 40
1.0
 40
1.0
 40
1.0
 40
1.0
 10
-143.2631145992
 20
-35.6144026617
 30
0.0
 10
-143.9371818351
 20
-35.2622224529
 30
0.0
 10
-146.6789050118
 20
-33.779613311
 30
0.0
 10
-149.3321170129
 20
-32.13070768
 30
0.0
 10
-151.2648180154
 20
-30.7826628072
 30
0.0
  0
SPLINE
  5
40E
100
AcDbEntity
  8
0
100
AcDbSpline
 62
7
  6
CONTINUOUS
 70
0
 71
3
 72
9
 73
5
 74
0
 42
0.0000001
 43
0.0000001
 44
0.0000000001
 40
0.0
 40
0.0
 40
0.0
 40
0.0
 40
0.2438481464
 40
1.0
 40
1.0
 40
1.0
 40
1.0
 10
-143.2631145992
 20
-35.6144026617
 30
0.0
 10
-143.9328786213
 20
-35.2354178075
 30
0.0
 10
-146.6431511949
 20
-33.6192618299
 30
0.0
 10
-149.1965613799
 20
-31.7284293442
 30
0.0
 10
-150.9680189055
 20
-30.1295356815
 30
0.0
  0
SPLINE
  5
40F
100
AcDbEntity
  8
0
100
AcDbSpline
 62
7
  6
CONTINUOUS
 70
0
 71
3
 72
11
 73
7
 74
0
 42
0.0000001
 43
0.0000001
 44
0.0000000001
 40
0.0
 40
0.0
 40
0.0
 40
0.0
 40
0.1882288329
 40
0.397106458
 40
0.6685130641
 40
1.0
 40
1.0
 40
1.0
 40
1.0
 10
-154.3355931653
 20
-20.3640584351
 30
0.0
 10
-154.3157635087
 20
-20.3459479303
 30
0.0
 10
-154.2600218344
 20
-20.3190823764
 30
0.0
 10
-154.1626693106
 20
-20.3472736373
 30
0.0
 10
-154.0744594877
 20
-20.4247415796
 30
0.0
 10
-154.0245952471
 20
-20.4956373605
 30
0.0
 10
-154.0006639523
 20
-20.5364301854
 30
0.0
  0
SPLINE
  5
410
100
AcDbEntity
  8
0
100
AcDbSpline
 62
7
  6
CONTINUOUS
 70
0
 71
3
 72
9
 73
5
 74
0
 42
0.0000001
 43
0.0000001
 44
0.0000000001
 40
0.0
 40
0.0
 40
0.0
 40
0.0
 40
0.4898970529
 40
1.0
 40
1.0
 40
1.0
 40
1.0
 10
-151.6428352563
 20
-29.2409669017
 30
0.0
 10
-149.4750836967
 20
-30.4839413603
 30
0.0
 10
-144.8999799469
 20
-32.7656540774
 30
0.0
 10
-140.1120671327
 20
-34.5518341305
 30
0.0
 10
-137.6339488782
 20
-35.344781369
 30
0.0
  0
SPLINE
  5
411
100
AcDbEntity
  8
0
100
AcDbSpline
 62
7
  6
CONTINUOUS
 70
0
 71
3
 72
11
 73
7
 74
0
 42
0.0000001
 43
0.0000001
 44
0.0000000001
 40
0.0
 40
0.0
 40
0.0
 40
0.0
 40
0.2559687996
 40
0.5067832886
 40
0.7541213778
 40
1.0
 40
1.0
 40
1.0
 40
1.0
 10
-137.467985611
 20
-35.399177016
 30
0.0
 10
-137.1616677595
 20
-35.9074040482
 30
0.0
 10
-136.4912940899
 20
-36.876928493
 30
0.0
 10
-135.3117376537
 20
-38.1743141351
 30
0.0
 10
-133.9832516441
 20
-39.2828421636
 30
0.0
 10
-133.0075047714
 20
-39.8874205936
 30
0.0
 10
-132.5030545777
 20
-40.1528283192
 30
0.0
  0
SPLINE
  5
412
100
AcDbEntity
  8
0
100
AcDbSpline
 62
7
  6
CONTINUOUS
 70
0
 71
3
 72
9
 73
5
 74
0
 42
0.0000001
 43
0.0000001
 44
0.0000000001
 40
0.0
 40
0.0
 40
0.0
 40
0.0
 40
0.241190978
 40
1.0
 40
1.0
 40
1.0
 40
1.0
 10
-135.9458868083
 20
-39.0614418352
 30
0.0
 10
-136.5526469359
 20
-38.826664446
 30
0.0
 10
-139.0520554409
 20
-37.812105201
 30
0.0
 10
-141.4816906225
 20
-36.6224170948
 30
0.0
 10
-143.2631139491
 20
-35.6144017333
 30
0.0
  0
SPLINE
  5
413
100
AcDbEntity
  8
0
100
AcDbSpline
 62
7
  6
CONTINUOUS
 70
0
 71
3
 72
9
 73
5
 74
0
 42
0.0000001
 43
0.0000001
 44
0.0000000001
 40
0.0
 40
0.0
 40
0.0
 40
0.0
 40
0.4981139496
 40
1.0
 40
1.0
 40
1.0
 40
1.0
 10
-132.3278263565
 20
-40.3608846378
 30
0.0
 10
-132.4791337571
 20
-40.3055487102
 30
0.0
 10
-132.7818854235
 20
-40.1916069117
 30
0.0
 10
-133.0891423347
 20
-40.0903550229
 30
0.0
 10
-133.2419350657
 20
-40.0355373106
 30
0.0
  0
SPLINE
  5
414
100
AcDbEntity
  8
0
100
AcDbSpline
 62
7
  6
CONTINUOUS
 70
0
 71
3
 72
9
 73
5
 74
0
 42
0.0000001
 43
0.0000001
 44
0.0000000001
 40
0.0
 40
0.0
 40
0.0
 40
0.0
 40
0.5526066922
 40
1.0
 40
1.0
 40
1.0
 40
1.0
 10
-131.3650054791
 20
-5.4119691323
 30
0.0
 10
-131.3511329825
 20
-5.4023268471
 30
0.0
 10
-131.3211834579
 20
-5.389199768
 30
0.0
 10
-131.2880741345
 20
-5.4012772862
 30
0.0
 10
-131.2794414005
 20
-5.4118865933
 30
0.0
  0
SPLINE
  5
415
100
AcDbEntity
  8
0
100
AcDbSpline
 62
7
  6
CONTINUOUS
 70
0
 71
3
 72
10
 73
6
 74
0
 42
0.0000001
 43
0.0000001
 44
0.0000000001
 40
0.0
 40
0.0
 40
0.0
 40
0.0
 40
0.2938170325
 40
0.564634863
 40
1.0
 40
1.0
 40
1.0
 40
1.0
 10
-151.2648180495
 20
-30.78266272
 30
0.0
 10
-151.3076946187
 20
-30.8595672744
 30
0.0
 10
-151.3773698474
 20
-31.0154677003
 30
0.0
 10
-151.4506938822
 20
-31.3048194059
 30
0.0
 10
-151.4426704715
 20
-31.5314082416
 30
0.0
 10
-151.3873617367
 20
-31.6495725378
 30
0.0
  0
SPLINE
  5
416
100
AcDbEntity
  8
0
100
AcDbSpline
 62
7
  6
CONTINUOUS
 70
0
 71
3
 72
9
 73
5
 74
0
 42
0.0000001
 43
0.0000001
 44
0.0000000001
 40
0.0
 40
0.0
 40
0.0
 40
0.0
 40
0.2618216556
 40
1.0
 40
1.0
 40
1.0
 40
1.0
 10
-151.3873617367
 20
-31.6495725378
 30
0.0
 10
-151.3816840471
 20
-31.6617026327
 30
0.0
 10
-151.3579535457
 20
-31.7070163071
 30
0.0
 10
-151.3254062004
 20
-31.7479498007
 30
0.0
 10
-151.2971348042
 20
-31.7729813718
 30
0.0
  0
SPLINE
  5
417
100
AcDbEntity
  8
0
100
AcDbSpline
 62
7
  6
CONTINUOUS
 70
0
 71
3
 72
13
 73
9
 74
0
 42
0.0000001
 43
0.0000001
 44
0.0000000001
 40
0.0
 40
0.0
 40
0.0
 40
0.0
 40
0.0773851839
 40
0.1644338107
 40
0.2666143727
 40
0.3859611731
 40
0.6713879071
 40
1.0
 40
1.0
 40
1.0
 40
1.0
 10
-143.2810686383
 20
-36.1908987593
 30
0.0
 10
-143.2950279282
 20
-36.1832468044
 30
0.0
 10
-143.3212726816
 20
-36.1602653783
 30
0.0
 10
-143.3472167046
 20
-36.1109892909
 30
0.0
 10
-143.3613490183
 20
-36.0485764163
 30
0.0
 10
-143.3648701988
 20
-35.9439148393
 30
0.0
 10
-143.3371919365
 20
-35.7940659604
 30
0.0
 10
-143.2920141899
 20
-35.6755128722
 30
0.0
 10
-143.263114604
 20
-35.6144026604
 30
0.0
  0
SPLINE
  5
418
100
AcDbEntity
  8
0
100
AcDbSpline
 62
7
  6
CONTINUOUS
 70
0
 71
3
 72
9
 73
5
 74
0
 42
0.0000001
 43
0.0000001
 44
0.0000000001
 40
0.0
 40
0.0
 40
0.0
 40
0.0
 40
0.4228742496
 40
1.0
 40
1.0
 40
1.0
 40
1.0
 10
-133.2670113026
 20
-40.1071748996
 30
0.0
 10
-133.279637657
 20
-40.1023894362
 30
0.0
 10
-133.2985289765
 20
-40.069501237
 30
0.0
 10
-133.2923079292
 20
-40.0368968978
 30
0.0
 10
-133.2860127954
 20
-40.0195772609
 30
0.0
  0
SPLINE
  5
419
100
AcDbEntity
  8
0
100
AcDbSpline
 62
7
  6
CONTINUOUS
 70
0
 71
3
 72
9
 73
5
 74
0
 42
0.0000001
 43
0.0000001
 44
0.0000000001
 40
0.0
 40
0.0
 40
0.0
 40
0.0
 40
0.4997668522
 40
1.0
 40
1.0
 40
1.0
 40
1.0
 10
-131.0944021004
 20
-7.1388307784
 30
0.0
 10
-131.1187188864
 20
-7.1198715035
 30
0.0
 10
-131.169997626
 20
-7.0854468463
 30
0.0
 10
-131.2196491042
 20
-7.0488238564
 30
0.0
 10
-131.2450531307
 20
-7.0312975728
 30
0.0
  0
SPLINE
  5
41A
100
AcDbEntity
  8
0
100
AcDbSpline
 62
7
  6
CONTINUOUS
 70
0
 71
3
 72
11
 73
7
 74
0
 42
0.0000001
 43
0.0000001
 44
0.0000000001
 40
0.0
 40
0.0
 40
0.0
 40
0.0
 40
0.3073337069
 40
0.5713574344
 40
0.7958012928
 40
1.0
 40
1.0
 40
1.0
 40
1.0
 10
-143.6705319972
 20
-36.1501828448
 30
0.0
 10
-143.677234906
 20
-36.22720841
 30
0.0
 10
-143.6752368652
 20
-36.3723607894
 30
0.0
 10
-143.6225986356
 20
-36.5682584577
 30
0.0
 10
-143.5213625321
 20
-36.7156754704
 30
0.0
 10
-143.4231425081
 20
-36.7706046097
 30
0.0
 10
-143.3736483091
 20
-36.7843624518
 30
0.0
  0
SPLINE
  5
41B
100
AcDbEntity
  8
0
100
AcDbSpline
 62
7
  6
CONTINUOUS
 70
0
 71
3
 72
9
 73
5
 74
0
 42
0.0000001
 43
0.0000001
 44
0.0000000001
 40
0.0
 40
0.0
 40
0.0
 40
0.0
 40
0.4463023699
 40
1.0
 40
1.0
 40
1.0
 40
1.0
 10
-118.5342741714
 20
3.0463305232
 30
0.0
 10
-118.3482823158
 20
2.9294996798
 30
0.0
 10
-117.9544629132
 20
2.6318659735
 30
0.0
 10
-117.5877058711
 20
2.3035228792
 30
0.0
 10
-117.3887106533
 20
2.1173663761
 30
0.0
  0
SPLINE
  5
41C
100
AcDbEntity
  8
0
100
AcDbSpline
 62
7
  6
CONTINUOUS
 70
0
 71
3
 72
9
 73
5
 74
0
 42
0.0000001
 43
0.0000001
 44
0.0000000001
 40
0.0
 40
0.0
 40
0.0
 40
0.0
 40
0.4811696146
 40
1.0
 40
1.0
 40
1.0
 40
1.0
 10
-144.7023970435
 20
1.5164978744
 30
0.0
 10
-142.4850018559
 20
0.2420321781
 30
0.0
 10
-137.9419514703
 20
-2.521023941
 30
0.0
 10
-133.5149960354
 20
-5.465265626
 30
0.0
 10
-131.2450538954
 20
-7.0313028027
 30
0.0
  0
SPLINE
  5
41D
100
AcDbEntity
  8
0
100
AcDbSpline
 62
7
  6
CONTINUOUS
 70
0
 71
3
 72
9
 73
5
 74
0
 42
0.0000001
 43
0.0000001
 44
0.0000000001
 40
0.0
 40
0.0
 40
0.0
 40
0.0
 40
0.4959774289
 40
1.0
 40
1.0
 40
1.0
 40
1.0
 10
-131.0943684044
 20
-7.1388915902
 30
0.0
 10
-132.309486622
 20
-8.2488231487
 30
0.0
 10
-134.5453830846
 20
-10.7299925069
 30
0.0
 10
-136.2968512548
 20
-13.5717666539
 30
0.0
 10
-137.0432044741
 20
-15.068428455
 30
0.0
  0
SPLINE
  5
41E
100
AcDbEntity
  8
0
100
AcDbSpline
 62
7
  6
CONTINUOUS
 70
0
 71
3
 72
12
 73
8
 74
0
 42
0.0000001
 43
0.0000001
 44
0.0000000001
 40
0.0
 40
0.0
 40
0.0
 40
0.0
 40
0.1280766543
 40
0.2553259334
 40
0.5073156096
 40
0.7557427202
 40
1.0
 40
1.0
 40
1.0
 40
1.0
 10
-138.1592502531
 20
-13.9975736136
 30
0.0
 10
-138.4482395668
 20
-13.7067098054
 30
0.0
 10
-139.0161221238
 20
-13.1184982045
 30
0.0
 10
-140.0961029452
 20
-11.9050182274
 30
0.0
 10
-141.334389499
 20
-10.3188052791
 30
0.0
 10
-142.6242709908
 20
-8.3100453891
 30
0.0
 10
-143.3477453459
 20
-6.9052220865
 30
0.0
 10
-143.6712327034
 20
-6.1933144279
 30
0.0
  0
SPLINE
  5
41F
100
AcDbEntity
  8
0
100
AcDbSpline
 62
7
  6
CONTINUOUS
 70
0
 71
3
 72
9
 73
5
 74
0
 42
0.0000001
 43
0.0000001
 44
0.0000000001
 40
0.0
 40
0.0
 40
0.0
 40
0.0
 40
0.5094868685
 40
1.0
 40
1.0
 40
1.0
 40
1.0
 10
-143.671232111
 20
-6.1933152992
 30
0.0
 10
-144.1673912256
 20
-5.1014040039
 30
0.0
 10
-144.9715890013
 20
-2.8753914324
 30
0.0
 10
-145.3383247638
 20
-0.5293379709
 30
0.0
 10
-145.3818695832
 20
0.6245273192
 30
0.0
  0
SPLINE
  5
420
100
AcDbEntity
  8
0
100
AcDbSpline
 62
7
  6
CONTINUOUS
 70
0
 71
3
 72
9
 73
5
 74
0
 42
0.0000001
 43
0.0000001
 44
0.0000000001
 40
0.0
 40
0.0
 40
0.0
 40
0.0
 40
0.4977682714
 40
1.0
 40
1.0
 40
1.0
 40
1.0
 10
-137.2148202147
 20
-14.9272949088
 30
0.0
 10
-137.3746214341
 20
-14.7762573648
 30
0.0
 10
-137.6901368934
 20
-14.4670529945
 30
0.0
 10
-138.0043048077
 20
-14.1564771617
 30
0.0
 10
-138.1591883288
 20
-13.9976349989
 30
0.0
  0
SPLINE
  5
421
100
AcDbEntity
  8
0
100
AcDbSpline
 62
7
  6
CONTINUOUS
 70
0
 71
3
 72
9
 73
5
 74
0
 42
0.0000001
 43
0.0000001
 44
0.0000000001
 40
0.0
 40
0.0
 40
0.0
 40
0.0
 40
0.5001783115
 40
1.0
 40
1.0
 40
1.0
 40
1.0
 10
-137.4736669261
 20
-15.9719910406
 30
0.0
 10
-137.5002585498
 20
-15.955539568
 30
0.0
 10
-137.5555236479
 20
-15.9261958297
 30
0.0
 10
-137.609624363
 20
-15.8948733695
 30
0.0
 10
-137.6371186238
 20
-15.8800262404
 30
0.0
  0
SPLINE
  5
422
100
AcDbEntity
  8
0
100
AcDbSpline
 62
7
  6
CONTINUOUS
 70
0
 71
3
 72
9
 73
5
 74
0
 42
0.0000001
 43
0.0000001
 44
0.0000000001
 40
0.0
 40
0.0
 40
0.0
 40
0.0
 40
0.245031654
 40
1.0
 40
1.0
 40
1.0
 40
1.0
 10
-113.6603061985
 20
-2.4326309917
 30
0.0
 10
-113.6697737726
 20
-2.4232049018
 30
0.0
 10
-113.7087497594
 20
-2.3850759204
 30
0.0
 10
-113.7483012763
 20
-2.3475441384
 30
0.0
 10
-113.7781534893
 20
-2.319202442
 30
0.0
  0
SPLINE
  5
423
100
AcDbEntity
  8
0
100
AcDbSpline
 62
7
  6
CONTINUOUS
 70
0
 71
3
 72
10
 73
6
 74
0
 42
0.0000001
 43
0.0000001
 44
0.0000000001
 40
0.0
 40
0.0
 40
0.0
 40
0.0
 40
0.2048554986
 40
0.440716423
 40
1.0
 40
1.0
 40
1.0
 40
1.0
 10
-117.3075108957
 20
2.0409138518
 30
0.0
 10
-117.0684669316
 20
1.814524386
 30
0.0
 10
-116.5663700341
 20
1.3146492366
 30
0.0
 10
-115.4596727707
 20
0.1491503175
 30
0.0
 10
-114.6038576222
 20
-0.8001091087
 30
0.0
 10
-114.0048748617
 20
-1.4702970843
 30
0.0
  0
LINE
  5
424
100
AcDbEntity
  8
0
100
AcDbLine
 62
7
  6
CONTINUOUS
 10
-114.0048830217
 20
-1.4702934937
 11
-113.7730917195
 21
-1.7300110841
  0
LINE
  5
425
100
AcDbEntity
  8
0
100
AcDbLine
 62
7
  6
CONTINUOUS
 10
-113.7730917195
 20
-1.7300110841
 11
-113.6553354542
 21
-1.8622208334
  0
SPLINE
  5
426
100
AcDbEntity
  8
0
100
AcDbSpline
 62
7
  6
CONTINUOUS
 70
0
 71
3
 72
9
 73
5
 74
0
 42
0.0000001
 43
0.0000001
 44
0.0000000001
 40
0.0
 40
0.0
 40
0.0
 40
0.0
 40
0.5221479731
 40
1.0
 40
1.0
 40
1.0
 40
1.0
 10
-122.3634290246
 20
-0.9528213009
 30
0.0
 10
-122.3529552857
 20
-0.9512335899
 30
0.0
 10
-122.3317589406
 20
-0.9522938003
 30
0.0
 10
-122.3139937128
 20
-0.9646579767
 30
0.0
 10
-122.3081193778
 20
-0.9723702839
 30
0.0
  0
SPLINE
  5
427
100
AcDbEntity
  8
0
100
AcDbSpline
 62
7
  6
CONTINUOUS
 70
0
 71
3
 72
10
 73
6
 74
0
 42
0.0000001
 43
0.0000001
 44
0.0000000001
 40
0.0
 40
0.0
 40
0.0
 40
0.0
 40
0.507888429
 40
0.7552742275
 40
1.0
 40
1.0
 40
1.0
 40
1.0
 10
-126.1512622418
 20
4.8697905422
 30
0.0
 10
-126.0526602715
 20
4.8678140088
 30
0.0
 10
-125.9019937753
 20
4.8251282398
 30
0.0
 10
-125.7540373353
 20
4.6960020967
 30
0.0
 10
-125.7027747872
 20
4.6132381528
 30
0.0
 10
-125.6841769721
 20
4.5695076981
 30
0.0
  0
SPLINE
  5
428
100
AcDbEntity
  8
0
100
AcDbSpline
 62
7
  6
CONTINUOUS
 70
0
 71
3
 72
9
 73
5
 74
0
 42
0.0000001
 43
0.0000001
 44
0.0000000001
 40
0.0
 40
0.0
 40
0.0
 40
0.0
 40
0.2569861384
 40
1.0
 40
1.0
 40
1.0
 40
1.0
 10
-127.2264211825
 20
8.3184926974
 30
0.0
 10
-127.234365039
 20
8.3230613324
 30
0.0
 10
-127.2662801786
 20
8.3389700752
 30
0.0
 10
-127.3026732111
 20
8.346419739
 30
0.0
 10
-127.3291530522
 20
8.345516067
 30
0.0
  0
SPLINE
  5
429
100
AcDbEntity
  8
0
100
AcDbSpline
 62
7
  6
CONTINUOUS
 70
0
 71
3
 72
11
 73
7
 74
0
 42
0.0000001
 43
0.0000001
 44
0.0000000001
 40
0.0
 40
0.0
 40
0.0
 40
0.0
 40
0.2548308065
 40
0.5019813997
 40
0.7480635793
 40
1.0
 40
1.0
 40
1.0
 40
1.0
 10
-126.4331868675
 20
7.4950544377
 30
0.0
 10
-126.4331768394
 20
7.601767188
 30
0.0
 10
-126.4728517205
 20
7.8145756961
 30
0.0
 10
-126.6493883971
 20
8.0830050029
 30
0.0
 10
-126.9131721674
 20
8.2632343182
 30
0.0
 10
-127.1212335201
 20
8.3117712329
 30
0.0
 10
-127.2265164125
 20
8.3185469458
 30
0.0
  0
SPLINE
  5
42A
100
AcDbEntity
  8
0
100
AcDbSpline
 62
7
  6
CONTINUOUS
 70
0
 71
3
 72
11
 73
7
 74
0
 42
0.0000001
 43
0.0000001
 44
0.0000000001
 40
0.0
 40
0.0
 40
0.0
 40
0.0
 40
0.2511015687
 40
0.5014954732
 40
0.7508880572
 40
1.0
 40
1.0
 40
1.0
 40
1.0
 10
-122.2814509194
 20
-2.1565243809
 30
0.0
 10
-122.2203951734
 20
-2.1376127749
 30
0.0
 10
-122.09916494
 20
-2.0975975614
 30
0.0
 10
-121.9164865937
 20
-2.0413203043
 30
0.0
 10
-121.7333417041
 20
-1.988412594
 30
0.0
 10
-121.6114599192
 20
-1.9531024799
 30
0.0
 10
-121.5504723711
 20
-1.9357391412
 30
0.0
  0
SPLINE
  5
42B
100
AcDbEntity
  8
0
100
AcDbSpline
 62
7
  6
CONTINUOUS
 70
0
 71
3
 72
9
 73
5
 74
0
 42
0.0000001
 43
0.0000001
 44
0.0000000001
 40
0.0
 40
0.0
 40
0.0
 40
0.0
 40
0.4987161225
 40
1.0
 40
1.0
 40
1.0
 40
1.0
 10
-121.5504646967
 20
-1.9816712071
 30
0.0
 10
-121.6725754214
 20
-2.0081667696
 30
0.0
 10
-121.9166877678
 20
-2.0646512328
 30
0.0
 10
-122.1600087745
 20
-2.1244925532
 30
0.0
 10
-122.2814509194
 20
-2.1565243809
 30
0.0
  0
SPLINE
  5
42C
100
AcDbEntity
  8
0
100
AcDbSpline
 62
7
  6
CONTINUOUS
 70
0
 71
3
 72
11
 73
7
 74
0
 42
0.0000001
 43
0.0000001
 44
0.0000000001
 40
0.0
 40
0.0
 40
0.0
 40
0.0
 40
0.2096185301
 40
0.4463634701
 40
0.710033203
 40
1.0
 40
1.0
 40
1.0
 40
1.0
 10
-127.2262982262
 20
8.318561282
 30
0.0
 10
-127.2024342456
 20
8.0661647265
 30
0.0
 10
-127.1149336854
 20
7.5320094526
 30
0.0
 10
-126.8921134021
 20
6.7016327275
 30
0.0
 10
-126.5697898773
 20
5.8007375771
 30
0.0
 10
-126.3010623063
 20
5.1868570777
 30
0.0
 10
-126.1512028075
 20
4.8697893139
 30
0.0
  0
SPLINE
  5
42D
100
AcDbEntity
  8
0
100
AcDbSpline
 62
7
  6
CONTINUOUS
 70
0
 71
3
 72
10
 73
6
 74
0
 42
0.0000001
 43
0.0000001
 44
0.0000000001
 40
0.0
 40
0.0
 40
0.0
 40
0.0
 40
0.2204540291
 40
0.4613205477
 40
1.0
 40
1.0
 40
1.0
 40
1.0
 10
-126.1512622529
 20
4.8697905658
 30
0.0
 10
-125.9522452691
 20
4.4487246715
 30
0.0
 10
-125.5023228768
 20
3.5831963662
 30
0.0
 10
-124.4142528024
 20
1.7713303978
 30
0.0
 10
-123.4502361758
 20
0.4317538129
 30
0.0
 10
-122.7498525143
 20
-0.4652029246
 30
0.0
  0
SPLINE
  5
42E
100
AcDbEntity
  8
0
100
AcDbSpline
 62
7
  6
CONTINUOUS
 70
0
 71
3
 72
9
 73
5
 74
0
 42
0.0000001
 43
0.0000001
 44
0.0000000001
 40
0.0
 40
0.0
 40
0.0
 40
0.0
 40
0.2550649004
 40
1.0
 40
1.0
 40
1.0
 40
1.0
 10
-68.7747169141
 20
-66.3320391939
 30
0.0
 10
-69.0654254053
 20
-66.5198024548
 30
0.0
 10
-70.2216645151
 20
-67.2299061245
 30
0.0
 10
-71.4443453667
 20
-67.8332276129
 30
0.0
 10
-72.3826958475
 20
-68.208826431
 30
0.0
  0
SPLINE
  5
42F
100
AcDbEntity
  8
0
100
AcDbSpline
 62
7
  6
CONTINUOUS
 70
0
 71
3
 72
9
 73
5
 74
0
 42
0.0000001
 43
0.0000001
 44
0.0000000001
 40
0.0
 40
0.0
 40
0.0
 40
0.0
 40
0.2440149752
 40
1.0
 40
1.0
 40
1.0
 40
1.0
 10
-56.9304425516
 20
-41.321886787
 30
0.0
 10
-56.8689154723
 20
-41.7384472683
 30
0.0
 10
-56.6720269977
 20
-43.453490628
 30
0.0
 10
-56.6916363101
 20
-45.1915242694
 30
0.0
 10
-56.8135841399
 20
-46.4903632408
 30
0.0
  0
SPLINE
  5
430
100
AcDbEntity
  8
0
100
AcDbSpline
 62
7
  6
CONTINUOUS
 70
0
 71
3
 72
9
 73
5
 74
0
 42
0.0000001
 43
0.0000001
 44
0.0000000001
 40
0.0
 40
0.0
 40
0.0
 40
0.0
 40
0.5052560706
 40
1.0
 40
1.0
 40
1.0
 40
1.0
 10
-80.3431200827
 20
-77.1073735599
 30
0.0
 10
-80.1570974696
 20
-77.3763353749
 30
0.0
 10
-79.7321253176
 20
-77.8721315784
 30
0.0
 10
-79.2064131563
 20
-78.2605506854
 30
0.0
 10
-78.9287409416
 20
-78.4200474154
 30
0.0
  0
SPLINE
  5
431
100
AcDbEntity
  8
0
100
AcDbSpline
 62
7
  6
CONTINUOUS
 70
0
 71
3
 72
9
 73
5
 74
0
 42
0.0000001
 43
0.0000001
 44
0.0000000001
 40
0.0
 40
0.0
 40
0.0
 40
0.0
 40
0.2526301849
 40
1.0
 40
1.0
 40
1.0
 40
1.0
 10
-95.8356249153
 20
-67.8568295281
 30
0.0
 10
-95.7048470548
 20
-68.0655372961
 30
0.0
 10
-95.1714664851
 20
-68.8816997269
 30
0.0
 10
-94.5747641192
 20
-69.6566786779
 30
0.0
 10
-94.0957336848
 20
-70.2057083527
 30
0.0
  0
SPLINE
  5
432
100
AcDbEntity
  8
0
100
AcDbSpline
 62
7
  6
CONTINUOUS
 70
0
 71
3
 72
11
 73
7
 74
0
 42
0.0000001
 43
0.0000001
 44
0.0000000001
 40
0.0
 40
0.0
 40
0.0
 40
0.0
 40
0.2725644312
 40
0.5279706825
 40
0.7684014121
 40
1.0
 40
1.0
 40
1.0
 40
1.0
 10
-71.5588038335
 20
-79.1720904262
 30
0.0
 10
-71.9977603506
 20
-79.4395583367
 30
0.0
 10
-72.9043938421
 20
-79.8735339505
 30
0.0
 10
-74.336425647
 20
-80.1790944162
 30
0.0
 10
-75.7240294142
 20
-80.0961285833
 30
0.0
 10
-76.5719043815
 20
-79.7737215551
 30
0.0
 10
-76.950638696
 20
-79.5561741104
 30
0.0
  0
SPLINE
  5
433
100
AcDbEntity
  8
0
100
AcDbSpline
 62
7
  6
CONTINUOUS
 70
0
 71
3
 72
11
 73
7
 74
0
 42
0.0000001
 43
0.0000001
 44
0.0000000001
 40
0.0
 40
0.0
 40
0.0
 40
0.0
 40
0.2562062476
 40
0.5072402679
 40
0.7545609248
 40
1.0
 40
1.0
 40
1.0
 40
1.0
 10
-78.9112501879
 20
-77.2136173212
 30
0.0
 10
-79.7003595154
 20
-77.2149183885
 30
0.0
 10
-81.2647024693
 20
-77.1234518397
 30
0.0
 10
-83.5549937448
 20
-76.6929697021
 30
0.0
 10
-85.737304447
 20
-75.9747517398
 30
0.0
 10
-87.1067503607
 20
-75.3078521773
 30
0.0
 10
-87.762265031
 20
-74.9313452567
 30
0.0
  0
SPLINE
  5
434
100
AcDbEntity
  8
0
100
AcDbSpline
 62
7
  6
CONTINUOUS
 70
0
 71
3
 72
11
 73
7
 74
0
 42
0.0000001
 43
0.0000001
 44
0.0000000001
 40
0.0
 40
0.0
 40
0.0
 40
0.0
 40
0.2421730795
 40
0.4876973608
 40
0.7395411198
 40
1.0
 40
1.0
 40
1.0
 40
1.0
 10
-58.8754584683
 20
-24.636727928
 30
0.0
 10
-57.9928092994
 20
-25.1437095443
 30
0.0
 10
-56.3054050023
 20
-26.3311769127
 30
0.0
 10
-54.1169981983
 20
-28.5608750651
 30
0.0
 10
-52.3040607967
 20
-31.1978401198
 30
0.0
 10
-51.3849657288
 20
-33.156626533
 30
0.0
 10
-50.9949051183
 20
-34.1795271637
 30
0.0
  0
SPLINE
  5
435
100
AcDbEntity
  8
0
100
AcDbSpline
 62
7
  6
CONTINUOUS
 70
0
 71
3
 72
13
 73
9
 74
0
 42
0.0000001
 43
0.0000001
 44
0.0000000001
 40
0.0
 40
0.0
 40
0.0
 40
0.0
 40
0.1171560456
 40
0.2355915371
 40
0.3559239907
 40
0.4786828635
 40
0.7327133384
 40
1.0
 40
1.0
 40
1.0
 40
1.0
 10
-62.3568612801
 20
-22.7354249778
 30
0.0
 10
-62.9711613091
 20
-22.4608205379
 30
0.0
 10
-64.2409956758
 20
-21.9825395156
 30
0.0
 10
-66.2299816242
 20
-21.4918019415
 30
0.0
 10
-68.2942450432
 20
-21.2283538641
 30
0.0
 10
-71.1541311948
 20
-21.1823087876
 30
0.0
 10
-74.8415434773
 20
-21.7200776793
 30
0.0
 10
-77.6846882011
 20
-22.7169359502
 30
0.0
 10
-79.0855227406
 20
-23.344921254
 30
0.0
  0
SPLINE
  5
436
100
AcDbEntity
  8
0
100
AcDbSpline
 62
7
  6
CONTINUOUS
 70
0
 71
3
 72
9
 73
5
 74
0
 42
0.0000001
 43
0.0000001
 44
0.0000000001
 40
0.0
 40
0.0
 40
0.0
 40
0.0
 40
0.4914878036
 40
1.0
 40
1.0
 40
1.0
 40
1.0
 10
-89.6524939804
 20
-73.667299786
 30
0.0
 10
-90.7239485246
 20
-72.8405059694
 30
0.0
 10
-92.7057857472
 20
-70.8872115895
 30
0.0
 10
-94.1896208651
 20
-68.5386563859
 30
0.0
 10
-94.8132155989
 20
-67.2849347416
 30
0.0
  0
SPLINE
  5
437
100
AcDbEntity
  8
0
100
AcDbSpline
 62
7
  6
CONTINUOUS
 70
0
 71
3
 72
10
 73
6
 74
0
 42
0.0000001
 43
0.0000001
 44
0.0000000001
 40
0.0
 40
0.0
 40
0.0
 40
0.0
 40
0.2428380122
 40
0.4888838829
 40
1.0
 40
1.0
 40
1.0
 40
1.0
 10
-76.950638696
 20
-79.5561741104
 30
0.0
 10
-77.1685982713
 20
-79.4309767177
 30
0.0
 10
-77.585615213
 20
-79.1384259643
 30
0.0
 10
-78.3176920218
 20
-78.4011030147
 30
0.0
 10
-78.7170358319
 20
-77.7057279913
 30
0.0
 10
-78.9112501879
 20
-77.2136173212
 30
0.0
  0
SPLINE
  5
438
100
AcDbEntity
  8
0
100
AcDbSpline
 62
7
  6
CONTINUOUS
 70
0
 71
3
 72
13
 73
9
 74
0
 42
0.0000001
 43
0.0000001
 44
0.0000000001
 40
0.0
 40
0.0
 40
0.0
 40
0.0
 40
0.252390383
 40
0.3812683629
 40
0.5100728473
 40
0.6375094582
 40
0.7623755081
 40
1.0
 40
1.0
 40
1.0
 40
1.0
 10
-96.8020778811
 20
-51.0188569999
 30
0.0
 10
-96.3205045908
 20
-48.1329382968
 30
0.0
 10
-95.0202136429
 20
-43.8481682421
 30
0.0
 10
-92.3405950816
 20
-38.5680409456
 30
0.0
 10
-89.8643195764
 20
-34.8400954639
 30
0.0
 10
-86.9941641526
 20
-31.4658820033
 30
0.0
 10
-82.8110682603
 20
-27.6132565872
 30
0.0
 10
-79.1818565121
 20
-25.3599405596
 30
0.0
 10
-76.6477080355
 20
-24.2800385615
 30
0.0
  0
SPLINE
  5
439
100
AcDbEntity
  8
0
100
AcDbSpline
 62
7
  6
CONTINUOUS
 70
0
 71
3
 72
11
 73
7
 74
0
 42
0.0000001
 43
0.0000001
 44
0.0000000001
 40
0.0
 40
0.0
 40
0.0
 40
0.0
 40
0.2664809237
 40
0.520579504
 40
0.7640023567
 40
1.0
 40
1.0
 40
1.0
 40
1.0
 10
-76.6477080355
 20
-24.2800385615
 30
0.0
 10
-75.3284096662
 20
-23.717832772
 30
0.0
 10
-72.656233661
 20
-22.824053876
 30
0.0
 10
-68.561973396
 20
-22.2396086926
 30
0.0
 10
-64.5937632725
 20
-22.4656056005
 30
0.0
 10
-62.0850884704
 20
-23.1671577723
 30
0.0
 10
-60.9085743038
 20
-23.6455169221
 30
0.0
  0
SPLINE
  5
43A
100
AcDbEntity
  8
0
100
AcDbSpline
 62
7
  6
CONTINUOUS
 70
0
 71
3
 72
19
 73
15
 74
0
 42
0.0000001
 43
0.0000001
 44
0.0000000001
 40
0.0
 40
0.0
 40
0.0
 40
0.0
 40
0.0523111975
 40
0.1054464242
 40
0.1601213006
 40
0.2168671412
 40
0.2759895079
 40
0.3375640856
 40
0.4670945698
 40
0.6027668859
 40
0.7399559735
 40
0.8076518945
 40
0.873899961
 40
1.0
 40
1.0
 40
1.0
 40
1.0
 10
-42.416195524
 20
-39.1642375855
 30
0.0
 10
-41.6161726897
 20
-39.6237574523
 30
0.0
 10
-40.0907459984
 20
-40.7118459435
 30
0.0
 10
-38.139173019
 20
-42.7752855872
 30
0.0
 10
-36.5568916727
 20
-45.2269354845
 30
0.0
 10
-35.3776522586
 20
-48.0087474512
 30
0.0
 10
-34.6238650582
 20
-51.0588541414
 30
0.0
 10
-34.1975836315
 20
-55.4644626523
 30
0.0
 10
-34.8254187118
 20
-61.2622499681
 30
0.0
 10
-37.2351807984
 20
-67.9980125523
 30
0.0
 10
-40.4827508768
 20
-73.1158986219
 30
0.0
 10
-43.7012867929
 20
-76.6664671036
 30
0.0
 10
-47.163741061
 20
-79.6833445371
 30
0.0
 10
-50.1293171038
 20
-81.4363639475
 30
0.0
 10
-52.1894579787
 20
-82.2742200455
 30
0.0
  0
SPLINE
  5
43B
100
AcDbEntity
  8
0
100
AcDbSpline
 62
7
  6
CONTINUOUS
 70
0
 71
3
 72
13
 73
9
 74
0
 42
0.0000001
 43
0.0000001
 44
0.0000000001
 40
0.0
 40
0.0
 40
0.0
 40
0.0
 40
0.1178811619
 40
0.2365687934
 40
0.3568222829
 40
0.4793152509
 40
0.7327240178
 40
1.0
 40
1.0
 40
1.0
 40
1.0
 10
-58.1142912418
 20
-18.7312783099
 30
0.0
 10
-57.3815568094
 20
-19.1521052454
 30
0.0
 10
-55.963599905
 20
-20.0920485138
 30
0.0
 10
-54.0232645018
 20
-21.7683293775
 30
0.0
 10
-52.2839394056
 20
-23.6975592168
 30
0.0
 10
-50.2329749872
 20
-26.6122238363
 30
0.0
 10
-48.2613983202
 20
-30.8241870273
 30
0.0
 10
-47.4097036662
 20
-34.486068802
 30
0.0
 10
-47.1464103246
 20
-36.3837477322
 30
0.0
  0
SPLINE
  5
43C
100
AcDbEntity
  8
0
100
AcDbSpline
 62
7
  6
CONTINUOUS
 70
0
 71
3
 72
9
 73
5
 74
0
 42
0.0000001
 43
0.0000001
 44
0.0000000001
 40
0.0
 40
0.0
 40
0.0
 40
0.0
 40
0.2545097365
 40
1.0
 40
1.0
 40
1.0
 40
1.0
 10
-74.5397786441
 20
-80.1496208403
 30
0.0
 10
-74.9312070174
 20
-80.2667459501
 30
0.0
 10
-76.4786497783
 20
-80.6943815039
 30
0.0
 10
-78.0635446025
 20
-80.9888697464
 30
0.0
 10
-79.2527245044
 20
-81.1234387507
 30
0.0
  0
SPLINE
  5
43D
100
AcDbEntity
  8
0
100
AcDbSpline
 62
7
  6
CONTINUOUS
 70
0
 71
3
 72
11
 73
7
 74
0
 42
0.0000001
 43
0.0000001
 44
0.0000000001
 40
0.0
 40
0.0
 40
0.0
 40
0.0
 40
0.2590270349
 40
0.5105729891
 40
0.7567071352
 40
1.0
 40
1.0
 40
1.0
 40
1.0
 10
-79.2527245044
 20
-81.1234387507
 30
0.0
 10
-80.4271694504
 20
-81.25634033
 30
0.0
 10
-82.7646768314
 20
-81.3559012737
 30
0.0
 10
-86.2104086003
 20
-80.9756200333
 30
0.0
 10
-89.4825443909
 20
-80.0681591159
 30
0.0
 10
-91.5169673201
 20
-79.1174347338
 30
0.0
 10
-92.4796336745
 20
-78.5645361636
 30
0.0
  0
SPLINE
  5
43E
100
AcDbEntity
  8
0
100
AcDbSpline
 62
7
  6
CONTINUOUS
 70
0
 71
3
 72
13
 73
9
 74
0
 42
0.0000001
 43
0.0000001
 44
0.0000000001
 40
0.0
 40
0.0
 40
0.0
 40
0.0
 40
0.2702783481
 40
0.5398994231
 40
0.6664395234
 40
0.7844689541
 40
0.8946332258
 40
1.0
 40
1.0
 40
1.0
 40
1.0
 10
-52.2132632233
 20
-83.9364844962
 30
0.0
 10
-52.2746131315
 20
-84.4401472382
 30
0.0
 10
-52.622690888
 20
-85.4250924161
 30
0.0
 10
-53.4703155709
 20
-86.3932060778
 30
0.0
 10
-54.3128417745
 20
-86.8805656377
 30
0.0
 10
-54.9616804273
 20
-87.0636153279
 30
0.0
 10
-55.597480654
 20
-87.0544362236
 30
0.0
 10
-55.9867797709
 20
-86.913786287
 30
0.0
 10
-56.1582920962
 20
-86.8152514905
 30
0.0
  0
SPLINE
  5
43F
100
AcDbEntity
  8
0
100
AcDbSpline
 62
7
  6
CONTINUOUS
 70
0
 71
3
 72
11
 73
7
 74
0
 42
0.0000001
 43
0.0000001
 44
0.0000000001
 40
0.0
 40
0.0
 40
0.0
 40
0.0
 40
0.2590138833
 40
0.5105800023
 40
0.7567046973
 40
1.0
 40
1.0
 40
1.0
 40
1.0
 10
-57.4888115272
 20
-83.6525503604
 30
0.0
 10
-58.3261982815
 20
-83.747310036
 30
0.0
 10
-59.9929603497
 20
-83.8182532099
 30
0.0
 10
-62.4499226128
 20
-83.5471935451
 30
0.0
 10
-64.7831008515
 20
-82.9000083068
 30
0.0
 10
-66.2337443213
 20
-82.2221865569
 30
0.0
 10
-66.9201629287
 20
-81.8279242897
 30
0.0
  0
SPLINE
  5
440
100
AcDbEntity
  8
0
100
AcDbSpline
 62
7
  6
CONTINUOUS
 70
0
 71
3
 72
20
 73
16
 74
0
 42
0.0000001
 43
0.0000001
 44
0.0000000001
 40
0.0
 40
0.0
 40
0.0
 40
0.0
 40
0.0582371003
 40
0.1192027256
 40
0.1828335573
 40
0.2488002413
 40
0.3851890401
 40
0.5229977774
 40
0.5906299894
 40
0.6564025879
 40
0.7801391577
 40
0.8381327155
 40
0.8936730268
 40
0.9473443257
 40
1.0
 40
1.0
 40
1.0
 40
1.0
 10
-52.1743281052
 20
-40.0223743523
 30
0.0
 10
-53.1700449278
 20
-40.1350508457
 30
0.0
 10
-55.189867918
 20
-40.5590591158
 30
0.0
 10
-58.1285379878
 20
-41.7169569749
 30
0.0
 10
-60.970426478
 20
-43.3773022444
 30
0.0
 10
-64.5662500261
 20
-46.2290366697
 30
0.0
 10
-68.3825247506
 20
-50.7565225199
 30
0.0
 10
-70.9928281106
 20
-56.0984415818
 30
0.0
 10
-72.2108647432
 20
-60.6169333098
 30
0.0
 10
-72.7860196731
 20
-65.012115892
 30
0.0
 10
-72.4441681537
 20
-69.340002783
 30
0.0
 10
-71.0864747639
 20
-73.2105002818
 30
0.0
 10
-69.6388681615
 20
-75.7185957529
 30
0.0
 10
-67.7777650773
 20
-77.8165095838
 30
0.0
 10
-66.2863808534
 20
-78.9052842055
 30
0.0
 10
-65.5007299425
 20
-79.3565596226
 30
0.0
  0
SPLINE
  5
441
100
AcDbEntity
  8
0
100
AcDbSpline
 62
7
  6
CONTINUOUS
 70
0
 71
3
 72
9
 73
5
 74
0
 42
0.0000001
 43
0.0000001
 44
0.0000000001
 40
0.0
 40
0.0
 40
0.0
 40
0.0
 40
0.2542571569
 40
1.0
 40
1.0
 40
1.0
 40
1.0
 10
-61.4891267195
 20
-83.5913293245
 30
0.0
 10
-61.4528102228
 20
-83.6387932658
 30
0.0
 10
-61.3014295347
 20
-83.8187500232
 30
0.0
 10
-61.1142461503
 20
-83.9687667407
 30
0.0
 10
-60.9622547091
 20
-84.0560866886
 30
0.0
  0
SPLINE
  5
442
100
AcDbEntity
  8
0
100
AcDbSpline
 62
7
  6
CONTINUOUS
 70
0
 71
3
 72
11
 73
7
 74
0
 42
0.0000001
 43
0.0000001
 44
0.0000000001
 40
0.0
 40
0.0
 40
0.0
 40
0.0
 40
0.2432940868
 40
0.4894139141
 40
0.7409919994
 40
1.0
 40
1.0
 40
1.0
 40
1.0
 10
-43.8356291559
 20
-41.6356034585
 30
0.0
 10
-44.4425148484
 20
-41.2870102217
 30
0.0
 10
-45.7250998554
 20
-40.6877677974
 30
0.0
 10
-47.7879715826
 20
-40.1155120825
 30
0.0
 10
-49.9602953651
 20
-39.8758990038
 30
0.0
 10
-51.4339728099
 20
-39.9385948714
 30
0.0
 10
-52.1743281052
 20
-40.0223743523
 30
0.0
  0
SPLINE
  5
443
100
AcDbEntity
  8
0
100
AcDbSpline
 62
7
  6
CONTINUOUS
 70
0
 71
3
 72
20
 73
16
 74
0
 42
0.0000001
 43
0.0000001
 44
0.0000000001
 40
0.0
 40
0.0
 40
0.0
 40
0.0
 40
0.0526562748
 40
0.1063275012
 40
0.1618680317
 40
0.2198618251
 40
0.3435990615
 40
0.4093719236
 40
0.4770041323
 40
0.6148117033
 40
0.7511982369
 40
0.8171651257
 40
0.8807964858
 40
0.9417620021
 40
1.0
 40
1.0
 40
1.0
 40
1.0
 10
-66.9201629287
 20
-81.8279242897
 30
0.0
 10
-67.8087796711
 20
-81.317524298
 30
0.0
 10
-69.4955876915
 20
-80.0860602022
 30
0.0
 10
-71.6005689726
 20
-77.7132391006
 30
0.0
 10
-73.2378707203
 20
-74.8764908294
 30
0.0
 10
-74.7734771155
 20
-70.4988030138
 30
0.0
 10
-75.1601190195
 20
-65.6037863645
 30
0.0
 10
-74.5095702702
 20
-60.6326668611
 30
0.0
 10
-73.1319026986
 20
-55.5221206028
 30
0.0
 10
-70.1795608983
 20
-49.480299648
 30
0.0
 10
-65.8632634152
 20
-44.359608921
 30
0.0
 10
-61.7962967197
 20
-41.1342009549
 30
0.0
 10
-58.5820139818
 20
-39.2562832653
 30
0.0
 10
-55.25826229
 20
-37.9466244602
 30
0.0
 10
-52.9737553346
 20
-37.4670557233
 30
0.0
 10
-51.8475475712
 20
-37.3396127207
 30
0.0
  0
SPLINE
  5
444
100
AcDbEntity
  8
0
100
AcDbSpline
 62
7
  6
CONTINUOUS
 70
0
 71
3
 72
11
 73
7
 74
0
 42
0.0000001
 43
0.0000001
 44
0.0000000001
 40
0.0
 40
0.0
 40
0.0
 40
0.0
 40
0.2321946174
 40
0.4728562746
 40
0.7280507093
 40
1.0
 40
1.0
 40
1.0
 40
1.0
 10
-56.1582920962
 20
-86.8152514905
 30
0.0
 10
-56.3103504131
 20
-86.7278931314
 30
0.0
 10
-56.5940969337
 20
-86.500537898
 30
0.0
 10
-56.9077210379
 20
-86.0403523886
 30
0.0
 10
-57.0990253814
 20
-85.4866986252
 30
0.0
 10
-57.1390459086
 20
-85.0868885329
 30
0.0
 10
-57.139080703
 20
-84.8814977095
 30
0.0
  0
SPLINE
  5
445
100
AcDbEntity
  8
0
100
AcDbSpline
 62
7
  6
CONTINUOUS
 70
0
 71
3
 72
11
 73
7
 74
0
 42
0.0000001
 43
0.0000001
 44
0.0000000001
 40
0.0
 40
0.0
 40
0.0
 40
0.0
 40
0.2590118188
 40
0.5105802971
 40
0.7567044757
 40
1.0
 40
1.0
 40
1.0
 40
1.0
 10
-51.8475475712
 20
-37.3396127207
 30
0.0
 10
-51.0101675987
 20
-37.2448538126
 30
0.0
 10
-49.3434052014
 20
-37.1739163947
 30
0.0
 10
-46.8864418296
 20
-37.4449644988
 30
0.0
 10
-44.5532621444
 20
-38.0921649876
 30
0.0
 10
-43.1026124172
 20
-38.7699710899
 30
0.0
 10
-42.416195524
 20
-39.1642375855
 30
0.0
  0
SPLINE
  5
446
100
AcDbEntity
  8
0
100
AcDbSpline
 62
7
  6
CONTINUOUS
 70
0
 71
3
 72
20
 73
16
 74
0
 42
0.0000001
 43
0.0000001
 44
0.0000000001
 40
0.0
 40
0.0
 40
0.0
 40
0.0
 40
0.0582371003
 40
0.1192027256
 40
0.1828335573
 40
0.2488002413
 40
0.3851890401
 40
0.5229977774
 40
0.5906299894
 40
0.6564025879
 40
0.7801391577
 40
0.8381327155
 40
0.8936730268
 40
0.9473443257
 40
1.0
 40
1.0
 40
1.0
 40
1.0
 10
-57.1620309932
 20
-80.9697887288
 30
0.0
 10
-56.1663141706
 20
-80.8571122354
 30
0.0
 10
-54.1464911804
 20
-80.4331039654
 30
0.0
 10
-51.2078211106
 20
-79.2752061062
 30
0.0
 10
-48.3659326204
 20
-77.6148608367
 30
0.0
 10
-44.7701090723
 20
-74.7631264114
 30
0.0
 10
-40.9538343478
 20
-70.2356405613
 30
0.0
 10
-38.3435309878
 20
-64.8937214993
 30
0.0
 10
-37.1254943552
 20
-60.3752297713
 30
0.0
 10
-36.5503394253
 20
-55.9800471891
 30
0.0
 10
-36.8921909447
 20
-51.6521602982
 30
0.0
 10
-38.2498843345
 20
-47.7816627994
 30
0.0
 10
-39.6974909369
 20
-45.2735673282
 30
0.0
 10
-41.5585940211
 20
-43.1756534973
 30
0.0
 10
-43.049978245
 20
-42.0868788756
 30
0.0
 10
-43.8356291559
 20
-41.6356034585
 30
0.0
  0
SPLINE
  5
447
100
AcDbEntity
  8
0
100
AcDbSpline
 62
7
  6
CONTINUOUS
 70
0
 71
3
 72
11
 73
7
 74
0
 42
0.0000001
 43
0.0000001
 44
0.0000000001
 40
0.0
 40
0.0
 40
0.0
 40
0.0
 40
0.2432940868
 40
0.4894139141
 40
0.7409919994
 40
1.0
 40
1.0
 40
1.0
 40
1.0
 10
-65.5007299425
 20
-79.3565596226
 30
0.0
 10
-64.89384425
 20
-79.7051528595
 30
0.0
 10
-63.611259243
 20
-80.3043952837
 30
0.0
 10
-61.5483875158
 20
-80.8766509986
 30
0.0
 10
-59.3760637333
 20
-81.1162640773
 30
0.0
 10
-57.9023862885
 20
-81.0535682098
 30
0.0
 10
-57.1620309932
 20
-80.9697887288
 30
0.0
  0
SPLINE
  5
448
100
AcDbEntity
  8
0
100
AcDbSpline
 62
7
  6
CONTINUOUS
 70
0
 71
3
 72
9
 73
5
 74
0
 42
0.0000001
 43
0.0000001
 44
0.0000000001
 40
0.0
 40
0.0
 40
0.0
 40
0.0
 40
0.2575374358
 40
1.0
 40
1.0
 40
1.0
 40
1.0
 10
-59.4347496682
 20
-85.4289783161
 30
0.0
 10
-59.4654815366
 20
-85.5199862753
 30
0.0
 10
-59.6288000051
 20
-85.8576576047
 30
0.0
 10
-59.9157850895
 20
-86.1296113164
 30
0.0
 10
-60.1578400695
 20
-86.2641356245
 30
0.0
  0
SPLINE
  5
449
100
AcDbEntity
  8
0
100
AcDbSpline
 62
7
  6
CONTINUOUS
 70
0
 71
3
 72
9
 73
5
 74
0
 42
0.0000001
 43
0.0000001
 44
0.0000000001
 40
0.0
 40
0.0
 40
0.0
 40
0.0
 40
0.5151353346
 40
1.0
 40
1.0
 40
1.0
 40
1.0
 10
-60.1578400695
 20
-86.2641356245
 30
0.0
 10
-62.0552876117
 20
-87.3186605965
 30
0.0
 10
-65.9474115551
 20
-89.0191093946
 30
0.0
 10
-70.1312881185
 20
-89.8198199679
 30
0.0
 10
-72.1708109351
 20
-89.9428301309
 30
0.0
  0
SPLINE
  5
44A
100
AcDbEntity
  8
0
100
AcDbSpline
 62
7
  6
CONTINUOUS
 70
0
 71
3
 72
9
 73
5
 74
0
 42
0.0000001
 43
0.0000001
 44
0.0000000001
 40
0.0
 40
0.0
 40
0.0
 40
0.0
 40
0.5253911849
 40
1.0
 40
1.0
 40
1.0
 40
1.0
 10
-72.2837269572
 20
-90.0991473036
 30
0.0
 10
-72.3915892855
 20
-90.2484681325
 30
0.0
 10
-72.6647860538
 20
-90.4871418569
 30
0.0
 10
-73.0062533461
 20
-90.6032698682
 30
0.0
 10
-73.171636268
 20
-90.6216326235
 30
0.0
  0
SPLINE
  5
44B
100
AcDbEntity
  8
0
100
AcDbSpline
 62
7
  6
CONTINUOUS
 70
0
 71
3
 72
10
 73
6
 74
0
 42
0.0000001
 43
0.0000001
 44
0.0000000001
 40
0.0
 40
0.0
 40
0.0
 40
0.0
 40
0.509610259
 40
0.7564925592
 40
1.0
 40
1.0
 40
1.0
 40
1.0
 10
-73.171636268
 20
-90.6216326235
 30
0.0
 10
-75.1122799442
 20
-90.8371065106
 30
0.0
 10
-78.0542734327
 20
-90.8099204378
 30
0.0
 10
-81.8052119428
 20
-89.9859923999
 30
0.0
 10
-83.5731161522
 20
-89.326482602
 30
0.0
 10
-84.4214248963
 20
-88.9380797003
 30
0.0
  0
SPLINE
  5
44C
100
AcDbEntity
  8
0
100
AcDbSpline
 62
7
  6
CONTINUOUS
 70
0
 71
3
 72
9
 73
5
 74
0
 42
0.0000001
 43
0.0000001
 44
0.0000000001
 40
0.0
 40
0.0
 40
0.0
 40
0.0
 40
0.5281756466
 40
1.0
 40
1.0
 40
1.0
 40
1.0
 10
-84.5689731714
 20
-89.0459968177
 30
0.0
 10
-84.7048626526
 20
-89.1453865374
 30
0.0
 10
-85.015668648
 20
-89.2703876521
 30
0.0
 10
-85.3463797231
 20
-89.2308376694
 30
0.0
 10
-85.4865252481
 20
-89.1762664955
 30
0.0
  0
SPLINE
  5
44D
100
AcDbEntity
  8
0
100
AcDbSpline
 62
7
  6
CONTINUOUS
 70
0
 71
3
 72
9
 73
5
 74
0
 42
0.0000001
 43
0.0000001
 44
0.0000000001
 40
0.0
 40
0.0
 40
0.0
 40
0.0
 40
0.5133041508
 40
1.0
 40
1.0
 40
1.0
 40
1.0
 10
-94.4201709408
 20
-82.4298594731
 30
0.0
 10
-94.541142233
 20
-82.4624942769
 30
0.0
 10
-94.7984158743
 20
-82.4636439097
 30
0.0
 10
-95.0207507874
 20
-82.342252124
 30
0.0
 10
-95.1116124851
 20
-82.265715697
 30
0.0
  0
SPLINE
  5
44E
100
AcDbEntity
  8
0
100
AcDbSpline
 62
7
  6
CONTINUOUS
 70
0
 71
3
 72
9
 73
5
 74
0
 42
0.0000001
 43
0.0000001
 44
0.0000000001
 40
0.0
 40
0.0
 40
0.0
 40
0.0
 40
0.4968876516
 40
1.0
 40
1.0
 40
1.0
 40
1.0
 10
-100.3375647072
 20
-71.2579822049
 30
0.0
 10
-100.4188996552
 20
-71.2423835703
 30
0.0
 10
-100.5765385984
 20
-71.1722112826
 30
0.0
 10
-100.6945953843
 20
-71.0499152633
 30
0.0
 10
-100.7437475904
 20
-70.9819765342
 30
0.0
  0
SPLINE
  5
44F
100
AcDbEntity
  8
0
100
AcDbSpline
 62
7
  6
CONTINUOUS
 70
0
 71
3
 72
9
 73
5
 74
0
 42
0.0000001
 43
0.0000001
 44
0.0000000001
 40
0.0
 40
0.0
 40
0.0
 40
0.0
 40
0.2429353207
 40
1.0
 40
1.0
 40
1.0
 40
1.0
 10
-101.4202849084
 20
-57.2311820543
 30
0.0
 10
-101.4396854527
 20
-57.214800274
 30
0.0
 10
-101.5146231537
 20
-57.1415228203
 30
0.0
 10
-101.5693743649
 20
-57.0493828992
 30
0.0
 10
-101.6004467845
 20
-56.9766098923
 30
0.0
  0
SPLINE
  5
450
100
AcDbEntity
  8
0
100
AcDbSpline
 62
7
  6
CONTINUOUS
 70
0
 71
3
 72
9
 73
5
 74
0
 42
0.0000001
 43
0.0000001
 44
0.0000000001
 40
0.0
 40
0.0
 40
0.0
 40
0.0
 40
0.5096335517
 40
1.0
 40
1.0
 40
1.0
 40
1.0
 10
-42.7414880868
 20
-22.5807745052
 30
0.0
 10
-42.5951059842
 20
-22.5412845471
 30
0.0
 10
-42.2745320891
 20
-22.558848641
 30
0.0
 10
-42.026703485
 20
-22.7499744519
 30
0.0
 10
-41.9339729707
 20
-22.8625932175
 30
0.0
  0
SPLINE
  5
451
100
AcDbEntity
  8
0
100
AcDbSpline
 62
7
  6
CONTINUOUS
 70
0
 71
3
 72
9
 73
5
 74
0
 42
0.0000001
 43
0.0000001
 44
0.0000000001
 40
0.0
 40
0.0
 40
0.0
 40
0.0
 40
0.4856848095
 40
1.0
 40
1.0
 40
1.0
 40
1.0
 10
-41.9339729707
 20
-22.8625932175
 30
0.0
 10
-40.6956861773
 20
-24.3664562144
 30
0.0
 10
-38.5747763513
 20
-27.8328276911
 30
0.0
 10
-37.3735884614
 20
-31.7009838172
 30
0.0
 10
-36.9716853926
 20
-33.7243555641
 30
0.0
  0
SPLINE
  5
452
100
AcDbEntity
  8
0
100
AcDbSpline
 62
7
  6
CONTINUOUS
 70
0
 71
3
 72
10
 73
6
 74
0
 42
0.0000001
 43
0.0000001
 44
0.0000000001
 40
0.0
 40
0.0
 40
0.0
 40
0.0
 40
0.2416332758
 40
0.484618588
 40
1.0
 40
1.0
 40
1.0
 40
1.0
 10
-36.8241139502
 20
-33.7526570686
 30
0.0
 10
-36.7521036418
 20
-33.7664673988
 30
0.0
 10
-36.612270775
 20
-33.8243908255
 30
0.0
 10
-36.3850668312
 20
-34.0314866523
 30
0.0
 10
-36.2869087752
 20
-34.2517127503
 30
0.0
 10
-36.2495897603
 20
-34.4035852318
 30
0.0
  0
SPLINE
  5
453
100
AcDbEntity
  8
0
100
AcDbSpline
 62
7
  6
CONTINUOUS
 70
0
 71
3
 72
9
 73
5
 74
0
 42
0.0000001
 43
0.0000001
 44
0.0000000001
 40
0.0
 40
0.0
 40
0.0
 40
0.0
 40
0.4868604248
 40
1.0
 40
1.0
 40
1.0
 40
1.0
 10
-36.2495897603
 20
-34.4035852318
 30
0.0
 10
-35.754120782
 20
-36.4199294295
 30
0.0
 10
-35.1928998686
 20
-40.6817525365
 30
0.0
 10
-35.4523372563
 20
-44.9642394841
 30
0.0
 10
-35.7691083183
 20
-47.129592121
 30
0.0
  0
SPLINE
  5
454
100
AcDbEntity
  8
0
100
AcDbSpline
 62
7
  6
CONTINUOUS
 70
0
 71
3
 72
9
 73
5
 74
0
 42
0.0000001
 43
0.0000001
 44
0.0000000001
 40
0.0
 40
0.0
 40
0.0
 40
0.0
 40
0.496712071
 40
1.0
 40
1.0
 40
1.0
 40
1.0
 10
-87.8794352234
 20
-82.9091974323
 30
0.0
 10
-88.8502437106
 20
-82.312567928
 30
0.0
 10
-90.7082416157
 20
-80.9471221232
 30
0.0
 10
-92.3192306405
 20
-79.2985373447
 30
0.0
 10
-93.0598047876
 20
-78.412764924
 30
0.0
  0
SPLINE
  5
455
100
AcDbEntity
  8
0
100
AcDbSpline
 62
7
  6
CONTINUOUS
 70
0
 71
3
 72
9
 73
5
 74
0
 42
0.0000001
 43
0.0000001
 44
0.0000000001
 40
0.0
 40
0.0
 40
0.0
 40
0.0
 40
0.4886054961
 40
1.0
 40
1.0
 40
1.0
 40
1.0
 10
-93.0598047876
 20
-78.412764924
 30
0.0
 10
-94.1579317665
 20
-77.0993372327
 30
0.0
 10
-96.0998450935
 20
-74.1445084369
 30
0.0
 10
-97.383084928
 20
-70.856921388
 30
0.0
 10
-97.8792798236
 20
-69.1351349644
 30
0.0
  0
SPLINE
  5
456
100
AcDbEntity
  8
0
100
AcDbSpline
 62
7
  6
CONTINUOUS
 70
0
 71
3
 72
10
 73
6
 74
0
 42
0.0000001
 43
0.0000001
 44
0.0000000001
 40
0.0
 40
0.0
 40
0.0
 40
0.0
 40
0.4939101686
 40
0.7447422652
 40
1.0
 40
1.0
 40
1.0
 40
1.0
 10
-97.476312488
 20
-51.3605560142
 30
0.0
 10
-97.6370760891
 20
-51.2662206472
 30
0.0
 10
-97.8459477815
 20
-51.0456661746
 30
0.0
 10
-97.9483770456
 20
-50.6767618393
 30
0.0
 10
-97.9368252867
 20
-50.4818296089
 30
0.0
 10
-97.9156210659
 20
-50.3878600773
 30
0.0
  0
SPLINE
  5
457
100
AcDbEntity
  8
0
100
AcDbSpline
 62
7
  6
CONTINUOUS
 70
0
 71
3
 72
9
 73
5
 74
0
 42
0.0000001
 43
0.0000001
 44
0.0000000001
 40
0.0
 40
0.0
 40
0.0
 40
0.0
 40
0.5099673466
 40
1.0
 40
1.0
 40
1.0
 40
1.0
 10
-98.2568752971
 20
-69.7515871096
 30
0.0
 10
-98.1860352008
 20
-69.5264333545
 30
0.0
 10
-97.922661796
 20
-69.1252991055
 30
0.0
 10
-97.5563181283
 20
-68.8327872769
 30
0.0
 10
-97.3591354273
 20
-68.7207112985
 30
0.0
  0
SPLINE
  5
458
100
AcDbEntity
  8
0
100
AcDbSpline
 62
7
  6
CONTINUOUS
 70
0
 71
3
 72
9
 73
5
 74
0
 42
0.0000001
 43
0.0000001
 44
0.0000000001
 40
0.0
 40
0.0
 40
0.0
 40
0.0
 40
0.4953910741
 40
1.0
 40
1.0
 40
1.0
 40
1.0
 10
-49.0488657734
 20
-17.0905937495
 30
0.0
 10
-47.8580372565
 20
-17.7745406804
 30
0.0
 10
-45.5962815443
 20
-19.4180919212
 30
0.0
 10
-43.7298449405
 20
-21.4968893931
 30
0.0
 10
-42.9012253555
 20
-22.6238674602
 30
0.0
  0
SPLINE
  5
459
100
AcDbEntity
  8
0
100
AcDbSpline
 62
7
  6
CONTINUOUS
 70
0
 71
3
 72
9
 73
5
 74
0
 42
0.0000001
 43
0.0000001
 44
0.0000000001
 40
0.0
 40
0.0
 40
0.0
 40
0.0
 40
0.24532046
 40
1.0
 40
1.0
 40
1.0
 40
1.0
 10
-107.3248842399
 20
-54.7927733756
 30
0.0
 10
-107.2978960792
 20
-53.7760609824
 30
0.0
 10
-107.0260336485
 20
-49.636809858
 30
0.0
 10
-106.1264831156
 20
-45.5445445743
 30
0.0
 10
-105.1495288602
 20
-42.5721645199
 30
0.0
  0
SPLINE
  5
45A
100
AcDbEntity
  8
0
100
AcDbSpline
 62
7
  6
CONTINUOUS
 70
0
 71
3
 72
9
 73
5
 74
0
 42
0.0000001
 43
0.0000001
 44
0.0000000001
 40
0.0
 40
0.0
 40
0.0
 40
0.0
 40
0.2542103839
 40
1.0
 40
1.0
 40
1.0
 40
1.0
 10
-97.2873874137
 20
-27.9557453136
 30
0.0
 10
-96.6203033252
 20
-27.1108736107
 30
0.0
 10
-93.883784283
 20
-23.878437798
 30
0.0
 10
-90.6947985991
 20
-21.0227929321
 30
0.0
 10
-88.1143850131
 20
-19.202021981
 30
0.0
  0
SPLINE
  5
45B
100
AcDbEntity
  8
0
100
AcDbSpline
 62
7
  6
CONTINUOUS
 70
0
 71
3
 72
13
 73
9
 74
0
 42
0.0000001
 43
0.0000001
 44
0.0000000001
 40
0.0
 40
0.0
 40
0.0
 40
0.0
 40
0.2577271716
 40
0.5168917977
 40
0.64379998
 40
0.7671497888
 40
0.886051104
 40
1.0
 40
1.0
 40
1.0
 40
1.0
 10
-97.9103049844
 20
-50.3656040242
 30
0.0
 10
-97.0008250661
 20
-46.672884464
 30
0.0
 10
-94.2068511739
 20
-39.4797158273
 30
0.0
 10
-88.7041712737
 20
-31.6156329803
 30
0.0
 10
-83.3085153499
 20
-26.3558042776
 30
0.0
 10
-78.928966592
 20
-23.0871316575
 30
0.0
 10
-74.3032962788
 20
-20.554719086
 30
0.0
 10
-71.0575238915
 20
-19.3752910692
 30
0.0
 10
-69.4341125959
 20
-18.9373281567
 30
0.0
  0
SPLINE
  5
45C
100
AcDbEntity
  8
0
100
AcDbSpline
 62
7
  6
CONTINUOUS
 70
0
 71
3
 72
9
 73
5
 74
0
 42
0.0000001
 43
0.0000001
 44
0.0000000001
 40
0.0
 40
0.0
 40
0.0
 40
0.0
 40
0.2566283339
 40
1.0
 40
1.0
 40
1.0
 40
1.0
 10
-94.5902749525
 20
-58.806352557
 30
0.0
 10
-94.5901740794
 20
-59.4018016796
 30
0.0
 10
-94.5236483201
 20
-61.7212609298
 30
0.0
 10
-94.1846398109
 20
-64.0355236192
 30
0.0
 10
-93.7632210501
 20
-65.7080790228
 30
0.0
  0
SPLINE
  5
45D
100
AcDbEntity
  8
0
100
AcDbSpline
 62
7
  6
CONTINUOUS
 70
0
 71
3
 72
9
 73
5
 74
0
 42
0.0000001
 43
0.0000001
 44
0.0000000001
 40
0.0
 40
0.0
 40
0.0
 40
0.0
 40
0.2549471207
 40
1.0
 40
1.0
 40
1.0
 40
1.0
 10
-93.7656349326
 20
-51.4590434613
 30
0.0
 10
-93.9016667007
 20
-52.0731602114
 30
0.0
 10
-94.3730147867
 20
-54.495100381
 30
0.0
 10
-94.5905863535
 20
-56.9681672715
 30
0.0
 10
-94.5902749525
 20
-58.806352557
 30
0.0
  0
SPLINE
  5
45E
100
AcDbEntity
  8
0
100
AcDbSpline
 62
7
  6
CONTINUOUS
 70
0
 71
3
 72
9
 73
5
 74
0
 42
0.0000001
 43
0.0000001
 44
0.0000000001
 40
0.0
 40
0.0
 40
0.0
 40
0.0
 40
0.5119572098
 40
1.0
 40
1.0
 40
1.0
 40
1.0
 10
-69.4341125959
 20
-18.9373281567
 30
0.0
 10
-67.6269228595
 20
-18.4498128081
 30
0.0
 10
-63.9950995439
 20
-17.8297688929
 30
0.0
 10
-60.3071316619
 20
-18.0068501482
 30
0.0
 10
-58.5478398953
 20
-18.3048838713
 30
0.0
  0
SPLINE
  5
45F
100
AcDbEntity
  8
0
100
AcDbSpline
 62
7
  6
CONTINUOUS
 70
0
 71
3
 72
9
 73
5
 74
0
 42
0.0000001
 43
0.0000001
 44
0.0000000001
 40
0.0
 40
0.0
 40
0.0
 40
0.0
 40
0.5032953313
 40
1.0
 40
1.0
 40
1.0
 40
1.0
 10
-58.5478398953
 20
-18.3048838713
 30
0.0
 10
-57.4077746432
 20
-18.4980172095
 30
0.0
 10
-55.168462058
 20
-19.0588445341
 30
0.0
 10
-53.0495002058
 20
-19.9767760234
 30
0.0
 10
-52.0434947644
 20
-20.5154913647
 30
0.0
  0
SPLINE
  5
460
100
AcDbEntity
  8
0
100
AcDbSpline
 62
7
  6
CONTINUOUS
 70
0
 71
3
 72
11
 73
7
 74
0
 42
0.0000001
 43
0.0000001
 44
0.0000000001
 40
0.0
 40
0.0
 40
0.0
 40
0.0
 40
0.278541332
 40
0.5229853977
 40
0.7584015595
 40
1.0
 40
1.0
 40
1.0
 40
1.0
 10
-98.2832436505
 20
-50.8242618322
 30
0.0
 10
-98.3176425348
 20
-50.9645078129
 30
0.0
 10
-98.3104993489
 20
-51.2551964623
 30
0.0
 10
-98.0714000074
 20
-51.589571846
 30
0.0
 10
-97.7353712451
 20
-51.7730366025
 30
0.0
 10
-97.487197665
 20
-51.814315185
 30
0.0
 10
-97.3619987833
 20
-51.8179221641
 30
0.0
  0
SPLINE
  5
461
100
AcDbEntity
  8
0
100
AcDbSpline
 62
7
  6
CONTINUOUS
 70
0
 71
3
 72
9
 73
5
 74
0
 42
0.0000001
 43
0.0000001
 44
0.0000000001
 40
0.0
 40
0.0
 40
0.0
 40
0.0
 40
0.7971259612
 40
1.0
 40
1.0
 40
1.0
 40
1.0
 10
-74.4443642152
 20
-13.438327261
 30
0.0
 10
-74.431769117
 20
-13.4375587189
 30
0.0
 10
-74.4159190977
 20
-13.4367136208
 30
0.0
 10
-74.4000847762
 20
-13.4386635837
 30
0.0
 10
-74.3970099899
 20
-13.4395906374
 30
0.0
  0
SPLINE
  5
462
100
AcDbEntity
  8
0
100
AcDbSpline
 62
7
  6
CONTINUOUS
 70
0
 71
3
 72
11
 73
7
 74
0
 42
0.0000001
 43
0.0000001
 44
0.0000000001
 40
0.0
 40
0.0
 40
0.0
 40
0.0
 40
0.2401918267
 40
0.4844232107
 40
0.7367348137
 40
1.0
 40
1.0
 40
1.0
 40
1.0
 10
-52.0434947644
 20
-20.5154913647
 30
0.0
 10
-50.7221812415
 20
-21.2230540042
 30
0.0
 10
-48.2054749527
 20
-22.9479170727
 30
0.0
 10
-45.0358276821
 20
-26.3229971698
 30
0.0
 10
-42.5424157727
 20
-30.3909357195
 30
0.0
 10
-41.3988776953
 20
-33.419862727
 30
0.0
 10
-40.9494995011
 20
-35.000025557
 30
0.0
  0
SPLINE
  5
463
100
AcDbEntity
  8
0
100
AcDbSpline
 62
7
  6
CONTINUOUS
 70
0
 71
3
 72
9
 73
5
 74
0
 42
0.0000001
 43
0.0000001
 44
0.0000000001
 40
0.0
 40
0.0
 40
0.0
 40
0.0
 40
0.2549505723
 40
1.0
 40
1.0
 40
1.0
 40
1.0
 10
-94.1132450135
 20
-51.9115170864
 30
0.0
 10
-94.2562182433
 20
-52.556405866
 30
0.0
 10
-94.751614056
 20
-55.0996931262
 30
0.0
 10
-94.9803034079
 20
-57.6967605568
 30
0.0
 10
-94.9799763959
 20
-59.6270973243
 30
0.0
  0
SPLINE
  5
464
100
AcDbEntity
  8
0
100
AcDbSpline
 62
7
  6
CONTINUOUS
 70
0
 71
3
 72
10
 73
6
 74
0
 42
0.0000001
 43
0.0000001
 44
0.0000000001
 40
0.0
 40
0.0
 40
0.0
 40
0.0
 40
0.5228816652
 40
0.7832560735
 40
1.0
 40
1.0
 40
1.0
 40
1.0
 10
-86.4523083596
 20
-18.6158840275
 30
0.0
 10
-86.4291962641
 20
-18.6040655597
 30
0.0
 10
-86.3938271311
 20
-18.5861534205
 30
0.0
 10
-86.3487648171
 20
-18.5696863267
 30
0.0
 10
-86.323818328
 20
-18.5604847184
 30
0.0
 10
-86.3137702358
 20
-18.5643343248
 30
0.0
  0
SPLINE
  5
465
100
AcDbEntity
  8
0
100
AcDbSpline
 62
7
  6
CONTINUOUS
 70
0
 71
3
 72
9
 73
5
 74
0
 42
0.0000001
 43
0.0000001
 44
0.0000000001
 40
0.0
 40
0.0
 40
0.0
 40
0.0
 40
0.3463147703
 40
1.0
 40
1.0
 40
1.0
 40
1.0
 10
-98.0235718608
 20
-29.6414249787
 30
0.0
 10
-98.0203912309
 20
-29.6378501944
 30
0.0
 10
-98.0039083962
 20
-29.6379412371
 30
0.0
 10
-97.9919427161
 20
-29.6429951414
 30
0.0
 10
-97.9836474115
 20
-29.6465673533
 30
0.0
  0
SPLINE
  5
466
100
AcDbEntity
  8
0
100
AcDbSpline
 62
7
  6
CONTINUOUS
 70
0
 71
3
 72
12
 73
8
 74
0
 42
0.0000001
 43
0.0000001
 44
0.0000000001
 40
0.0
 40
0.0
 40
0.0
 40
0.0
 40
0.2649877568
 40
0.5286770319
 40
0.7874472361
 40
0.9089244308
 40
1.0
 40
1.0
 40
1.0
 40
1.0
 10
-96.8345619595
 20
-28.3405886041
 30
0.0
 10
-96.8211756798
 20
-28.326553234
 30
0.0
 10
-96.7941317759
 20
-28.2987486753
 30
0.0
 10
-96.7529833581
 20
-28.2589305063
 30
0.0
 10
-96.7166017939
 20
-28.2271288731
 30
0.0
 10
-96.6896551845
 20
-28.2088214973
 30
0.0
 10
-96.6726095521
 20
-28.2008521704
 30
0.0
 10
-96.666688379
 20
-28.2039144433
 30
0.0
  0
SPLINE
  5
467
100
AcDbEntity
  8
0
100
AcDbSpline
 62
7
  6
CONTINUOUS
 70
0
 71
3
 72
9
 73
5
 74
0
 42
0.0000001
 43
0.0000001
 44
0.0000000001
 40
0.0
 40
0.0
 40
0.0
 40
0.0
 40
0.2566348438
 40
1.0
 40
1.0
 40
1.0
 40
1.0
 10
-94.9799763959
 20
-59.6270973243
 30
0.0
 10
-94.9798704683
 20
-60.2523827677
 30
0.0
 10
-94.9099505285
 20
-62.6880000297
 30
0.0
 10
-94.5536437001
 20
-65.1181537303
 30
0.0
 10
-94.1107102086
 20
-66.874352074
 30
0.0
  0
SPLINE
  5
468
100
AcDbEntity
  8
0
100
AcDbSpline
 62
7
  6
CONTINUOUS
 70
0
 71
3
 72
15
 73
11
 74
0
 42
0.0000001
 43
0.0000001
 44
0.0000000001
 40
0.0
 40
0.0
 40
0.0
 40
0.0
 40
0.1314464342
 40
0.2575261117
 40
0.3795800617
 40
0.499494699
 40
0.6194855712
 40
0.7417564216
 40
0.868161905
 40
1.0
 40
1.0
 40
1.0
 40
1.0
 10
-98.2799593534
 20
-70.2113122582
 30
0.0
 10
-97.8243691837
 20
-71.8207264307
 30
0.0
 10
-96.6698885772
 20
-74.9087153815
 30
0.0
 10
-94.1657054721
 20
-79.0722404461
 30
0.0
 10
-90.9853421566
 20
-82.5551235932
 30
0.0
 10
-87.2110920315
 20
-85.2553117088
 30
0.0
 10
-82.9477159469
 20
-87.0950269827
 30
0.0
 10
-78.3160039767
 20
-88.0250565533
 30
0.0
 10
-73.4457627642
 20
-88.0277265119
 30
0.0
 10
-70.1947313093
 20
-87.4290958997
 30
0.0
 10
-68.5749970297
 20
-86.9921351224
 30
0.0
  0
SPLINE
  5
469
100
AcDbEntity
  8
0
100
AcDbSpline
 62
7
  6
CONTINUOUS
 70
0
 71
3
 72
9
 73
5
 74
0
 42
0.0000001
 43
0.0000001
 44
0.0000000001
 40
0.0
 40
0.0
 40
0.0
 40
0.0
 40
0.2439547395
 40
1.0
 40
1.0
 40
1.0
 40
1.0
 10
-68.5749970297
 20
-86.9921351224
 30
0.0
 10
-67.9421564414
 20
-86.8214117397
 30
0.0
 10
-65.3706913282
 20
-86.0390194435
 30
0.0
 10
-62.8992227997
 20
-84.9377350808
 30
0.0
 10
-61.116686506
 20
-83.9635672191
 30
0.0
  0
SPLINE
  5
46A
100
AcDbEntity
  8
0
100
AcDbSpline
 62
7
  6
CONTINUOUS
 70
0
 71
3
 72
9
 73
5
 74
0
 42
0.0000001
 43
0.0000001
 44
0.0000000001
 40
0.0
 40
0.0
 40
0.0
 40
0.0
 40
0.242492744
 40
1.0
 40
1.0
 40
1.0
 40
1.0
 10
-100.7437475904
 20
-70.9819765342
 30
0.0
 10
-100.7632897446
 20
-70.9549651501
 30
0.0
 10
-100.8375814179
 20
-70.8390471216
 30
0.0
 10
-100.8872366906
 20
-70.7081919239
 30
0.0
 10
-100.9120888955
 20
-70.6070540445
 30
0.0
  0
SPLINE
  5
46B
100
AcDbEntity
  8
0
100
AcDbSpline
 62
7
  6
CONTINUOUS
 70
0
 71
3
 72
9
 73
5
 74
0
 42
0.0000001
 43
0.0000001
 44
0.0000000001
 40
0.0
 40
0.0
 40
0.0
 40
0.0
 40
0.5118703169
 40
1.0
 40
1.0
 40
1.0
 40
1.0
 10
-95.5388027863
 20
-82.7745738018
 30
0.0
 10
-97.2018496168
 20
-81.3599780261
 30
0.0
 10
-100.2245202488
 20
-78.3123539119
 30
0.0
 10
-102.5499421927
 20
-74.6811071468
 30
0.0
 10
-103.4305307512
 20
-72.794455837
 30
0.0
  0
SPLINE
  5
46C
100
AcDbEntity
  8
0
100
AcDbSpline
 62
7
  6
CONTINUOUS
 70
0
 71
3
 72
9
 73
5
 74
0
 42
0.0000001
 43
0.0000001
 44
0.0000000001
 40
0.0
 40
0.0
 40
0.0
 40
0.0
 40
0.2490054494
 40
1.0
 40
1.0
 40
1.0
 40
1.0
 10
-95.227684373
 20
-82.1480758343
 30
0.0
 10
-95.5150732998
 20
-81.9036466929
 30
0.0
 10
-96.6562748926
 20
-80.9069474827
 30
0.0
 10
-97.7438763691
 20
-79.848539837
 30
0.0
 10
-98.5237853548
 20
-79.0200082605
 30
0.0
  0
SPLINE
  5
46D
100
AcDbEntity
  8
0
100
AcDbSpline
 62
7
  6
CONTINUOUS
 70
0
 71
3
 72
9
 73
5
 74
0
 42
0.0000001
 43
0.0000001
 44
0.0000000001
 40
0.0
 40
0.0
 40
0.0
 40
0.0
 40
0.5024674856
 40
1.0
 40
1.0
 40
1.0
 40
1.0
 10
-99.7825403369
 20
-77.6149457821
 30
0.0
 10
-101.3983881209
 20
-75.717738787
 30
0.0
 10
-104.24625225
 20
-71.6055559424
 30
0.0
 10
-106.0431048676
 20
-66.9119733109
 30
0.0
 10
-106.5919090657
 20
-64.5061924165
 30
0.0
  0
SPLINE
  5
46E
100
AcDbEntity
  8
0
100
AcDbSpline
 62
7
  6
CONTINUOUS
 70
0
 71
3
 72
9
 73
5
 74
0
 42
0.0000001
 43
0.0000001
 44
0.0000000001
 40
0.0
 40
0.0
 40
0.0
 40
0.0
 40
0.2821183091
 40
1.0
 40
1.0
 40
1.0
 40
1.0
 10
-104.76579874
 20
-42.6980126399
 30
0.0
 10
-104.7670982886
 20
-42.7011775728
 30
0.0
 10
-104.7526361612
 20
-42.7104479514
 30
0.0
 10
-104.7451164671
 20
-42.7159655115
 30
0.0
 10
-104.7375836249
 20
-42.7203302361
 30
0.0
  0
SPLINE
  5
46F
100
AcDbEntity
  8
0
100
AcDbSpline
 62
7
  6
CONTINUOUS
 70
0
 71
3
 72
9
 73
5
 74
0
 42
0.0000001
 43
0.0000001
 44
0.0000000001
 40
0.0
 40
0.0
 40
0.0
 40
0.0
 40
0.1522479627
 40
1.0
 40
1.0
 40
1.0
 40
1.0
 10
-104.7541872735
 20
-42.6768064529
 30
0.0
 10
-104.753122943
 20
-42.678108364
 30
0.0
 10
-104.7448481682
 20
-42.6855293921
 30
0.0
 10
-104.7352150806
 20
-42.6910832552
 30
0.0
 10
-104.7271115177
 20
-42.6957745166
 30
0.0
  0
SPLINE
  5
470
100
AcDbEntity
  8
0
100
AcDbSpline
 62
7
  6
CONTINUOUS
 70
0
 71
3
 72
12
 73
8
 74
0
 42
0.0000001
 43
0.0000001
 44
0.0000000001
 40
0.0
 40
0.0
 40
0.0
 40
0.0
 40
0.0698903493
 40
0.1731879971
 40
0.2961273413
 40
0.4286613055
 40
1.0
 40
1.0
 40
1.0
 40
1.0
 10
-106.8544766298
 20
-54.6935112661
 30
0.0
 10
-106.8571262869
 20
-54.6912647427
 30
0.0
 10
-106.8684121974
 20
-54.6949088306
 30
0.0
 10
-106.8725506376
 20
-54.7094676279
 30
0.0
 10
-106.879067189
 20
-54.7259464346
 30
0.0
 10
-106.8890178438
 20
-54.7659646301
 30
0.0
 10
-106.8951027224
 20
-54.800393366
 30
0.0
 10
-106.8994094495
 20
-54.8284627787
 30
0.0
  0
SPLINE
  5
471
100
AcDbEntity
  8
0
100
AcDbSpline
 62
7
  6
CONTINUOUS
 70
0
 71
3
 72
9
 73
5
 74
0
 42
0.0000001
 43
0.0000001
 44
0.0000000001
 40
0.0
 40
0.0
 40
0.0
 40
0.0
 40
0.5253911849
 40
1.0
 40
1.0
 40
1.0
 40
1.0
 10
-64.8779516993
 20
-14.91149197
 30
0.0
 10
-64.7700893709
 20
-14.7621711412
 30
0.0
 10
-64.4968926026
 20
-14.5234974167
 30
0.0
 10
-64.1554253103
 20
-14.4073694055
 30
0.0
 10
-63.9900423885
 20
-14.3890066502
 30
0.0
  0
SPLINE
  5
472
100
AcDbEntity
  8
0
100
AcDbSpline
 62
7
  6
CONTINUOUS
 70
0
 71
3
 72
9
 73
5
 74
0
 42
0.0000001
 43
0.0000001
 44
0.0000000001
 40
0.0
 40
0.0
 40
0.0
 40
0.0
 40
0.2371039462
 40
1.0
 40
1.0
 40
1.0
 40
1.0
 10
-101.6004467845
 20
-56.9766098923
 30
0.0
 10
-101.6213965842
 20
-56.9275445174
 30
0.0
 10
-101.6907481207
 20
-56.7125390128
 30
0.0
 10
-101.6953864342
 20
-56.4805688128
 30
0.0
 10
-101.6743613316
 20
-56.3102019819
 30
0.0
  0
SPLINE
  5
473
100
AcDbEntity
  8
0
100
AcDbSpline
 62
7
  6
CONTINUOUS
 70
0
 71
3
 72
9
 73
5
 74
0
 42
0.0000001
 43
0.0000001
 44
0.0000000001
 40
0.0
 40
0.0
 40
0.0
 40
0.0
 40
0.1891794827
 40
1.0
 40
1.0
 40
1.0
 40
1.0
 10
-98.0310496852
 20
-29.6584352793
 30
0.0
 10
-98.0290552707
 20
-29.6584282552
 30
0.0
 10
-98.0185203936
 20
-29.6595431536
 30
0.0
 10
-98.0085194986
 20
-29.6633948354
 30
0.0
 10
-98.0006668965
 20
-29.6667721699
 30
0.0
  0
SPLINE
  5
474
100
AcDbEntity
  8
0
100
AcDbSpline
 62
7
  6
CONTINUOUS
 70
0
 71
3
 72
11
 73
7
 74
0
 42
0.0000001
 43
0.0000001
 44
0.0000000001
 40
0.0
 40
0.0
 40
0.0
 40
0.0
 40
0.2468617501
 40
0.4966349356
 40
0.748072874
 40
1.0
 40
1.0
 40
1.0
 40
1.0
 10
-100.9120939431
 20
-70.6070459572
 30
0.0
 10
-102.1076829353
 20
-68.9209394834
 30
0.0
 10
-104.2275840883
 20
-65.3132653307
 30
0.0
 10
-106.3280607567
 20
-59.3671582055
 30
0.0
 10
-107.114839474
 20
-53.0577260549
 30
0.0
 10
-106.6243868253
 20
-48.8199592265
 30
0.0
 10
-106.1183814319
 20
-46.7721612928
 30
0.0
  0
SPLINE
  5
475
100
AcDbEntity
  8
0
100
AcDbSpline
 62
7
  6
CONTINUOUS
 70
0
 71
3
 72
9
 73
5
 74
0
 42
0.0000001
 43
0.0000001
 44
0.0000000001
 40
0.0
 40
0.0
 40
0.0
 40
0.0
 40
0.482955616
 40
1.0
 40
1.0
 40
1.0
 40
1.0
 10
-97.5460175023
 20
-42.3428338303
 30
0.0
 10
-97.5757217014
 20
-42.1958704899
 30
0.0
 10
-97.5639968564
 20
-41.8772677511
 30
0.0
 10
-97.4660334749
 20
-41.5796860117
 30
0.0
 10
-97.3984450357
 20
-41.4340910762
 30
0.0
  0
SPLINE
  5
476
100
AcDbEntity
  8
0
100
AcDbSpline
 62
7
  6
CONTINUOUS
 70
0
 71
3
 72
9
 73
5
 74
0
 42
0.0000001
 43
0.0000001
 44
0.0000000001
 40
0.0
 40
0.0
 40
0.0
 40
0.0
 40
0.4953910725
 40
1.0
 40
1.0
 40
1.0
 40
1.0
 10
-88.1127456555
 20
-87.9200841358
 30
0.0
 10
-89.3035879541
 20
-87.2361356473
 30
0.0
 10
-91.5653699497
 20
-85.5925756924
 30
0.0
 10
-93.4318260314
 20
-83.513760332
 30
0.0
 10
-94.260453301
 20
-82.3867718135
 30
0.0
  0
SPLINE
  5
477
100
AcDbEntity
  8
0
100
AcDbSpline
 62
7
  6
CONTINUOUS
 70
0
 71
3
 72
8
 73
4
 74
0
 42
0.0000001
 43
0.0000001
 44
0.0000000001
 40
0.0
 40
0.0
 40
0.0
 40
0.0
 40
1.0
 40
1.0
 40
1.0
 40
1.0
 10
-87.9464586623
 20
-19.4354934205
 30
0.0
 10
-87.9367526491
 20
-19.4347402952
 30
0.0
 10
-87.9267944349
 20
-19.4365743289
 30
0.0
 10
-87.9175446931
 20
-19.4396101432
 30
0.0
  0
SPLINE
  5
478
100
AcDbEntity
  8
0
100
AcDbSpline
 62
7
  6
CONTINUOUS
 70
0
 71
3
 72
12
 73
8
 74
0
 42
0.0000001
 43
0.0000001
 44
0.0000000001
 40
0.0
 40
0.0
 40
0.0
 40
0.0
 40
0.0809624861
 40
0.1972735914
 40
0.4558287053
 40
0.725613124
 40
1.0
 40
1.0
 40
1.0
 40
1.0
 10
-103.8796205473
 20
-40.8907977015
 30
0.0
 10
-103.8844767936
 20
-40.8874547112
 30
0.0
 10
-103.9008837786
 20
-40.8979544958
 30
0.0
 10
-103.9189942471
 20
-40.9222993881
 30
0.0
 10
-103.9455489599
 20
-40.9630760652
 30
0.0
 10
-103.9730971109
 20
-41.0140131047
 30
0.0
 10
-103.9911796399
 20
-41.049419359
 30
0.0
 10
-104.0000481392
 20
-41.0673240866
 30
0.0
  0
SPLINE
  5
479
100
AcDbEntity
  8
0
100
AcDbSpline
 62
7
  6
CONTINUOUS
 70
0
 71
3
 72
10
 73
6
 74
0
 42
0.0000001
 43
0.0000001
 44
0.0000000001
 40
0.0
 40
0.0
 40
0.0
 40
0.0
 40
0.509610259
 40
0.7564925592
 40
1.0
 40
1.0
 40
1.0
 40
1.0
 10
-63.9900423885
 20
-14.3890066502
 30
0.0
 10
-62.0493987123
 20
-14.1735327631
 30
0.0
 10
-59.1074052238
 20
-14.2007188358
 30
0.0
 10
-55.3564667137
 20
-15.0246468738
 30
0.0
 10
-53.5885625043
 20
-15.6841566717
 30
0.0
 10
-52.7402537601
 20
-16.0725595734
 30
0.0
  0
SPLINE
  5
47A
100
AcDbEntity
  8
0
100
AcDbSpline
 62
7
  6
CONTINUOUS
 70
0
 71
3
 72
11
 73
7
 74
0
 42
0.0000001
 43
0.0000001
 44
0.0000000001
 40
0.0
 40
0.0
 40
0.0
 40
0.0
 40
0.2461349277
 40
0.4947581801
 40
0.7458905102
 40
1.0
 40
1.0
 40
1.0
 40
1.0
 10
-101.67436332
 20
-56.3101922
 30
0.0
 10
-102.4204054868
 20
-54.4800670071
 30
0.0
 10
-103.5714911697
 20
-50.645876088
 30
0.0
 10
-104.0626972769
 20
-44.6285121022
 30
0.0
 10
-103.1353265552
 20
-38.5875451723
 30
0.0
 10
-101.5057949604
 20
-34.812915189
 30
0.0
 10
-100.4598228873
 20
-33.0610368506
 30
0.0
  0
SPLINE
  5
47B
100
AcDbEntity
  8
0
100
AcDbSpline
 62
7
  6
CONTINUOUS
 70
0
 71
3
 72
9
 73
5
 74
0
 42
0.0000001
 43
0.0000001
 44
0.0000000001
 40
0.0
 40
0.0
 40
0.0
 40
0.0
 40
0.2463350355
 40
1.0
 40
1.0
 40
1.0
 40
1.0
 10
-77.4048161722
 20
-18.122489954
 30
0.0
 10
-77.4397859637
 20
-18.2401603233
 30
0.0
 10
-77.5729224003
 20
-18.7204399389
 30
0.0
 10
-77.6711951335
 20
-19.2102439577
 30
0.0
 10
-77.7269290353
 20
-19.5816611078
 30
0.0
  0
SPLINE
  5
47C
100
AcDbEntity
  8
0
100
AcDbSpline
 62
7
  6
CONTINUOUS
 70
0
 71
3
 72
9
 73
5
 74
0
 42
0.0000001
 43
0.0000001
 44
0.0000000001
 40
0.0
 40
0.0
 40
0.0
 40
0.0
 40
0.5281756466
 40
1.0
 40
1.0
 40
1.0
 40
1.0
 10
-52.5927054851
 20
-15.9646424559
 30
0.0
 10
-52.4568160039
 20
-15.8652527363
 30
0.0
 10
-52.1460100084
 20
-15.7402516217
 30
0.0
 10
-51.8152989333
 20
-15.7798016042
 30
0.0
 10
-51.6751534083
 20
-15.8343727781
 30
0.0
  0
SPLINE
  5
47D
100
AcDbEntity
  8
0
100
AcDbSpline
 62
7
  6
CONTINUOUS
 70
0
 71
3
 72
9
 73
5
 74
0
 42
0.0000001
 43
0.0000001
 44
0.0000000001
 40
0.0
 40
0.0
 40
0.0
 40
0.0
 40
0.254902891
 40
1.0
 40
1.0
 40
1.0
 40
1.0
 10
-41.9045560881
 20
-35.599562042
 30
0.0
 10
-41.8805292982
 20
-35.6206784501
 30
0.0
 10
-41.7916813897
 20
-35.709048225
 30
0.0
 10
-41.7287153024
 20
-35.8266899201
 30
0.0
 10
-41.7116810308
 20
-35.9186261209
 30
0.0
  0
SPLINE
  5
47E
100
AcDbEntity
  8
0
100
AcDbSpline
 62
7
  6
CONTINUOUS
 70
0
 71
3
 72
11
 73
7
 74
0
 42
0.0000001
 43
0.0000001
 44
0.0000000001
 40
0.0
 40
0.0
 40
0.0
 40
0.0
 40
0.2483399998
 40
0.496089407
 40
0.7453402803
 40
1.0
 40
1.0
 40
1.0
 40
1.0
 10
-97.3984438986
 20
-41.4340809526
 30
0.0
 10
-97.7197361616
 20
-39.6692358145
 30
0.0
 10
-97.9910504376
 20
-36.0618558025
 30
0.0
 10
-97.1239522186
 20
-30.6924792629
 30
0.0
 10
-94.8557022428
 20
-25.6846181128
 30
0.0
 10
-92.4344604623
 20
-22.8868785624
 30
0.0
 10
-91.0473447482
 20
-21.6787069574
 30
0.0
  0
SPLINE
  5
47F
100
AcDbEntity
  8
0
100
AcDbSpline
 62
7
  6
CONTINUOUS
 70
0
 71
3
 72
9
 73
5
 74
0
 42
0.0000001
 43
0.0000001
 44
0.0000000001
 40
0.0
 40
0.0
 40
0.0
 40
0.0
 40
0.2465848321
 40
1.0
 40
1.0
 40
1.0
 40
1.0
 10
-64.3675633119
 20
-13.8509536098
 30
0.0
 10
-64.3851388309
 20
-13.8753715601
 30
0.0
 10
-64.4548992844
 20
-13.9754811118
 30
0.0
 10
-64.5186106262
 20
-14.0797810487
 30
0.0
 10
-64.5632531803
 20
-14.1601358925
 30
0.0
  0
SPLINE
  5
480
100
AcDbEntity
  8
0
100
AcDbSpline
 62
7
  6
CONTINUOUS
 70
0
 71
3
 72
9
 73
5
 74
0
 42
0.0000001
 43
0.0000001
 44
0.0000000001
 40
0.0
 40
0.0
 40
0.0
 40
0.0
 40
0.2410687864
 40
1.0
 40
1.0
 40
1.0
 40
1.0
 10
-64.5632531803
 20
-14.1601358925
 30
0.0
 10
-64.5950767412
 20
-14.2174170521
 30
0.0
 10
-64.7200988979
 20
-14.4588953196
 30
0.0
 10
-64.8175623001
 20
-14.7142353887
 30
0.0
 10
-64.8779517498
 20
-14.9114920509
 30
0.0
  0
SPLINE
  5
481
100
AcDbEntity
  8
0
100
AcDbSpline
 62
7
  6
CONTINUOUS
 70
0
 71
3
 72
9
 73
5
 74
0
 42
0.0000001
 43
0.0000001
 44
0.0000000001
 40
0.0
 40
0.0
 40
0.0
 40
0.0
 40
0.4934712781
 40
1.0
 40
1.0
 40
1.0
 40
1.0
 10
-101.6743613316
 20
-56.3102019819
 30
0.0
 10
-101.3848458908
 20
-53.9642464636
 30
0.0
 10
-100.3523234332
 20
-49.2576169097
 30
0.0
 10
-98.5375914751
 20
-44.797886195
 30
0.0
 10
-97.4423479511
 20
-42.6328536795
 30
0.0
  0
SPLINE
  5
482
100
AcDbEntity
  8
0
100
AcDbSpline
 62
7
  6
CONTINUOUS
 70
0
 71
3
 72
11
 73
7
 74
0
 42
0.0000001
 43
0.0000001
 44
0.0000000001
 40
0.0
 40
0.0
 40
0.0
 40
0.0
 40
0.2517466875
 40
0.4967376832
 40
0.7422382667
 40
1.0
 40
1.0
 40
1.0
 40
1.0
 10
-88.7353056504
 20
-28.243465298
 30
0.0
 10
-88.7262173765
 20
-26.7785036798
 30
0.0
 10
-88.3697690579
 20
-23.8736755515
 30
0.0
 10
-86.6724515554
 20
-19.8329445925
 30
0.0
 10
-83.7503820735
 20
-16.4970716721
 30
0.0
 10
-81.1390535108
 20
-15.038338633
 30
0.0
 10
-79.7353117677
 20
-14.5096717859
 30
0.0
  0
SPLINE
  5
483
100
AcDbEntity
  8
0
100
AcDbSpline
 62
7
  6
CONTINUOUS
 70
0
 71
3
 72
9
 73
5
 74
0
 42
0.0000001
 43
0.0000001
 44
0.0000000001
 40
0.0
 40
0.0
 40
0.0
 40
0.0
 40
0.4856847636
 40
1.0
 40
1.0
 40
1.0
 40
1.0
 10
-95.2276767973
 20
-82.1480811314
 30
0.0
 10
-96.4659713771
 20
-80.6442153352
 30
0.0
 10
-98.5868946367
 20
-77.1778336647
 30
0.0
 10
-99.7880886543
 20
-73.3096632132
 30
0.0
 10
-100.1899932639
 20
-71.2862837096
 30
0.0
  0
SPLINE
  5
484
100
AcDbEntity
  8
0
100
AcDbSpline
 62
7
  6
CONTINUOUS
 70
0
 71
3
 72
9
 73
5
 74
0
 42
0.0000001
 43
0.0000001
 44
0.0000000001
 40
0.0
 40
0.0
 40
0.0
 40
0.0
 40
0.4390733868
 40
1.0
 40
1.0
 40
1.0
 40
1.0
 10
-41.9650565726
 20
-36.2016860384
 30
0.0
 10
-41.9252275584
 20
-36.1793478859
 30
0.0
 10
-41.8148595925
 20
-36.164395675
 30
0.0
 10
-41.7154147114
 20
-36.2022490943
 30
0.0
 10
-41.663360713
 20
-36.2285891875
 30
0.0
  0
SPLINE
  5
485
100
AcDbEntity
  8
0
100
AcDbSpline
 62
7
  6
CONTINUOUS
 70
0
 71
3
 72
9
 73
5
 74
0
 42
0.0000001
 43
0.0000001
 44
0.0000000001
 40
0.0
 40
0.0
 40
0.0
 40
0.0
 40
0.486432886
 40
1.0
 40
1.0
 40
1.0
 40
1.0
 10
-100.9120888955
 20
-70.6070540445
 30
0.0
 10
-101.4287341614
 20
-68.5045315268
 30
0.0
 10
-101.994075167
 20
-64.0511475831
 30
0.0
 10
-101.6710589149
 20
-59.5832800443
 30
0.0
 10
-101.3073260782
 20
-57.326564075
 30
0.0
  0
SPLINE
  5
486
100
AcDbEntity
  8
0
100
AcDbSpline
 62
7
  6
CONTINUOUS
 70
0
 71
3
 72
9
 73
5
 74
0
 42
0.0000001
 43
0.0000001
 44
0.0000000001
 40
0.0
 40
0.0
 40
0.0
 40
0.0
 40
0.4797851679
 40
1.0
 40
1.0
 40
1.0
 40
1.0
 10
-41.0932719794
 20
-34.9380804776
 30
0.0
 10
-41.0404861758
 20
-35.1431556005
 30
0.0
 10
-41.089078595
 20
-35.610624152
 30
0.0
 10
-41.3528356916
 20
-35.9918723049
 30
0.0
 10
-41.5311360363
 20
-36.1365336398
 30
0.0
  0
SPLINE
  5
487
100
AcDbEntity
  8
0
100
AcDbSpline
 62
7
  6
CONTINUOUS
 70
0
 71
3
 72
9
 73
5
 74
0
 42
0.0000001
 43
0.0000001
 44
0.0000000001
 40
0.0
 40
0.0
 40
0.0
 40
0.0
 40
0.2598908747
 40
1.0
 40
1.0
 40
1.0
 40
1.0
 10
-41.5311360363
 20
-36.1365336398
 30
0.0
 10
-41.5419806981
 20
-36.1453322951
 30
0.0
 10
-41.5843238611
 20
-36.1784186075
 30
0.0
 10
-41.6290680403
 20
-36.2084573328
 30
0.0
 10
-41.663364304
 20
-36.2285909245
 30
0.0
  0
SPLINE
  5
488
100
AcDbEntity
  8
0
100
AcDbSpline
 62
7
  6
CONTINUOUS
 70
0
 71
3
 72
11
 73
7
 74
0
 42
0.0000001
 43
0.0000001
 44
0.0000000001
 40
0.0
 40
0.0
 40
0.0
 40
0.0
 40
0.2515752405
 40
0.5210337718
 40
0.7775391618
 40
1.0
 40
1.0
 40
1.0
 40
1.0
 10
-40.9443809121
 20
-35.0185525433
 30
0.0
 10
-40.9129036135
 20
-35.1408807208
 30
0.0
 10
-40.8903192603
 20
-35.4053396786
 30
0.0
 10
-40.9441921142
 20
-35.7945754415
 30
0.0
 10
-41.0715643731
 20
-36.1507609187
 30
0.0
 10
-41.2044994478
 20
-36.3557267115
 30
0.0
 10
-41.2808823448
 20
-36.437221794
 30
0.0
  0
SPLINE
  5
489
100
AcDbEntity
  8
0
100
AcDbSpline
 62
7
  6
CONTINUOUS
 70
0
 71
3
 72
10
 73
6
 74
0
 42
0.0000001
 43
0.0000001
 44
0.0000000001
 40
0.0
 40
0.0
 40
0.0
 40
0.0
 40
0.2514531362
 40
0.6224057583
 40
1.0
 40
1.0
 40
1.0
 40
1.0
 10
-41.280883732
 20
-36.4372233647
 30
0.0
 10
-41.3128563551
 20
-36.4195685843
 30
0.0
 10
-41.393657179
 20
-36.3789141634
 30
0.0
 10
-41.5177896513
 20
-36.3032385147
 30
0.0
 10
-41.6150925896
 20
-36.2545822471
 30
0.0
 10
-41.663371681
 20
-36.2285611976
 30
0.0
  0
SPLINE
  5
48A
100
AcDbEntity
  8
0
100
AcDbSpline
 62
7
  6
CONTINUOUS
 70
0
 71
3
 72
11
 73
7
 74
0
 42
0.0000001
 43
0.0000001
 44
0.0000000001
 40
0.0
 40
0.0
 40
0.0
 40
0.0
 40
0.2389021145
 40
0.4980732108
 40
0.7543752754
 40
1.0
 40
1.0
 40
1.0
 40
1.0
 10
-38.8817193031
 20
-34.7993270155
 30
0.0
 10
-38.8415129655
 20
-34.9413598972
 30
0.0
 10
-38.8744964915
 20
-35.2671509023
 30
0.0
 10
-39.0980584136
 20
-35.681050615
 30
0.0
 10
-39.4168693739
 20
-36.0322258374
 30
0.0
 10
-39.6705993325
 20
-36.2149328503
 30
0.0
 10
-39.8025432292
 20
-36.2899279752
 30
0.0
  0
SPLINE
  5
48B
100
AcDbEntity
  8
0
100
AcDbSpline
 62
7
  6
CONTINUOUS
 70
0
 71
3
 72
11
 73
7
 74
0
 42
0.0000001
 43
0.0000001
 44
0.0000000001
 40
0.0
 40
0.0
 40
0.0
 40
0.0
 40
0.2613060279
 40
0.5080970928
 40
0.7494667835
 40
1.0
 40
1.0
 40
1.0
 40
1.0
 10
-77.0038328421
 20
-18.746496896
 30
0.0
 10
-76.8703465267
 20
-17.998731221
 30
0.0
 10
-76.461858416
 20
-16.5640411888
 30
0.0
 10
-75.3528568218
 20
-14.6581091512
 30
0.0
 10
-73.7553027527
 20
-13.1730693734
 30
0.0
 10
-72.4296390733
 20
-12.5683913001
 30
0.0
 10
-71.7310295646
 20
-12.3626631334
 30
0.0
  0
SPLINE
  5
48C
100
AcDbEntity
  8
0
100
AcDbSpline
 62
7
  6
CONTINUOUS
 70
0
 71
3
 72
9
 73
5
 74
0
 42
0.0000001
 43
0.0000001
 44
0.0000000001
 40
0.0
 40
0.0
 40
0.0
 40
0.0
 40
0.2431416311
 40
1.0
 40
1.0
 40
1.0
 40
1.0
 10
-71.1694370868
 20
-12.2193497302
 30
0.0
 10
-71.0492633716
 20
-12.1932320102
 30
0.0
 10
-70.5526338703
 20
-12.0968836914
 30
0.0
 10
-70.0477441207
 20
-12.0445758134
 30
0.0
 10
-69.6653383231
 20
-12.0269256161
 30
0.0
  0
SPLINE
  5
48D
100
AcDbEntity
  8
0
100
AcDbSpline
 62
7
  6
CONTINUOUS
 70
0
 71
3
 72
9
 73
5
 74
0
 42
0.0000001
 43
0.0000001
 44
0.0000000001
 40
0.0
 40
0.0
 40
0.0
 40
0.0
 40
0.2444593039
 40
1.0
 40
1.0
 40
1.0
 40
1.0
 10
-69.6653383231
 20
-12.0269256161
 30
0.0
 10
-69.5680639725
 20
-12.0224358529
 30
0.0
 10
-69.169892907
 20
-12.0098605514
 30
0.0
 10
-68.771072029
 20
-12.0200792684
 30
0.0
 10
-68.4707259497
 20
-12.0393247589
 30
0.0
  0
SPLINE
  5
48E
100
AcDbEntity
  8
0
100
AcDbSpline
 62
7
  6
CONTINUOUS
 70
0
 71
3
 72
9
 73
5
 74
0
 42
0.0000001
 43
0.0000001
 44
0.0000000001
 40
0.0
 40
0.0
 40
0.0
 40
0.0
 40
0.2444625901
 40
1.0
 40
1.0
 40
1.0
 40
1.0
 10
-68.4707259497
 20
-12.0393247589
 30
0.0
 10
-68.3704834458
 20
-12.0457480696
 30
0.0
 10
-67.9607782712
 20
-12.0772817844
 30
0.0
 10
-67.5527185273
 20
-12.1294985918
 30
0.0
 10
-67.2463033398
 20
-12.1793592446
 30
0.0
  0
SPLINE
  5
48F
100
AcDbEntity
  8
0
100
AcDbSpline
 62
7
  6
CONTINUOUS
 70
0
 71
3
 72
9
 73
5
 74
0
 42
0.0000001
 43
0.0000001
 44
0.0000000001
 40
0.0
 40
0.0
 40
0.0
 40
0.0
 40
0.2441253086
 40
1.0
 40
1.0
 40
1.0
 40
1.0
 10
-67.0458333182
 20
-12.2135016622
 30
0.0
 10
-66.9300542465
 20
-12.2340944888
 30
0.0
 10
-66.4568623346
 20
-12.3243991611
 30
0.0
 10
-65.9881591082
 20
-12.4378430708
 30
0.0
 10
-65.637213086
 20
-12.534855884
 30
0.0
  0
SPLINE
  5
490
100
AcDbEntity
  8
0
100
AcDbSpline
 62
7
  6
CONTINUOUS
 70
0
 71
3
 72
8
 73
4
 74
0
 42
0.0000001
 43
0.0000001
 44
0.0000000001
 40
0.0
 40
0.0
 40
0.0
 40
0.0
 40
1.0
 40
1.0
 40
1.0
 40
1.0
 10
-98.0335877911
 20
-50.5202134325
 30
0.0
 10
-98.1162476495
 20
-50.6220184624
 30
0.0
 10
-98.2001109193
 20
-50.7228405526
 30
0.0
 10
-98.2832440955
 20
-50.824259443
 30
0.0
  0
SPLINE
  5
491
100
AcDbEntity
  8
0
100
AcDbSpline
 62
7
  6
CONTINUOUS
 70
0
 71
3
 72
8
 73
4
 74
0
 42
0.0000001
 43
0.0000001
 44
0.0000000001
 40
0.0
 40
0.0
 40
0.0
 40
0.0
 40
1.0
 40
1.0
 40
1.0
 40
1.0
 10
-38.881719699
 20
-34.7993246139
 30
0.0
 10
-39.5708141557
 20
-34.8674936622
 30
0.0
 10
-40.259618163
 20
-34.9389336221
 30
0.0
 10
-40.9493761079
 20
-35.0000250858
 30
0.0
  0
SPLINE
  5
492
100
AcDbEntity
  8
0
100
AcDbSpline
 62
7
  6
CONTINUOUS
 70
0
 71
3
 72
9
 73
5
 74
0
 42
0.0000001
 43
0.0000001
 44
0.0000000001
 40
0.0
 40
0.0
 40
0.0
 40
0.0
 40
0.5024079003
 40
1.0
 40
1.0
 40
1.0
 40
1.0
 10
-97.3984450357
 20
-41.4340910762
 30
0.0
 10
-96.3698675837
 20
-39.2183899778
 30
0.0
 10
-93.9521526199
 20
-34.9713759367
 30
0.0
 10
-90.8674173331
 20
-31.1793077811
 30
0.0
 10
-89.183466766
 20
-29.4421367313
 30
0.0
  0
SPLINE
  5
493
100
AcDbEntity
  8
0
100
AcDbSpline
 62
7
  6
CONTINUOUS
 70
0
 71
3
 72
11
 73
7
 74
0
 42
0.0000001
 43
0.0000001
 44
0.0000000001
 40
0.0
 40
0.0
 40
0.0
 40
0.0
 40
0.2636596461
 40
0.5160611481
 40
0.7601229824
 40
1.0
 40
1.0
 40
1.0
 40
1.0
 10
-69.4228374795
 20
-85.0996851971
 30
0.0
 10
-71.0423682411
 20
-85.5365411259
 30
0.0
 10
-74.2941831402
 20
-86.1239199922
 30
0.0
 10
-79.1611946556
 20
-86.0620288681
 30
0.0
 10
-83.7665318663
 20
-85.0319148154
 30
0.0
 10
-86.5792388354
 20
-83.7082587679
 30
0.0
 10
-87.8794352234
 20
-82.9091974323
 30
0.0
  0
SPLINE
  5
494
100
AcDbEntity
  8
0
100
AcDbSpline
 62
7
  6
CONTINUOUS
 70
0
 71
3
 72
9
 73
5
 74
0
 42
0.0000001
 43
0.0000001
 44
0.0000000001
 40
0.0
 40
0.0
 40
0.0
 40
0.0
 40
0.243173729
 40
1.0
 40
1.0
 40
1.0
 40
1.0
 10
-89.183497036
 20
-29.2641585252
 30
0.0
 10
-89.1835014789
 20
-29.2379328262
 30
0.0
 10
-89.1788518788
 20
-29.130091177
 30
0.0
 10
-89.1577398086
 20
-29.0233226525
 30
0.0
 10
-89.1352966122
 20
-28.9448469547
 30
0.0
  0
SPLINE
  5
495
100
AcDbEntity
  8
0
100
AcDbSpline
 62
7
  6
CONTINUOUS
 70
0
 71
3
 72
8
 73
4
 74
0
 42
0.0000001
 43
0.0000001
 44
0.0000000001
 40
0.0
 40
0.0
 40
0.0
 40
0.0
 40
1.0
 40
1.0
 40
1.0
 40
1.0
 10
-89.1352966122
 20
-28.9448469547
 30
0.0
 10
-89.100515399
 20
-28.8232296984
 30
0.0
 10
-89.0494706779
 20
-28.7056426268
 30
0.0
 10
-88.9877716817
 20
-28.5952174318
 30
0.0
  0
SPLINE
  5
496
100
AcDbEntity
  8
0
100
AcDbSpline
 62
7
  6
CONTINUOUS
 70
0
 71
3
 72
9
 73
5
 74
0
 42
0.0000001
 43
0.0000001
 44
0.0000000001
 40
0.0
 40
0.0
 40
0.0
 40
0.0
 40
0.5107175605
 40
1.0
 40
1.0
 40
1.0
 40
1.0
 10
-88.7353095031
 20
-28.243474358
 30
0.0
 10
-87.1478235535
 20
-26.4871270351
 30
0.0
 10
-83.7442127336
 20
-23.3017787975
 30
0.0
 10
-79.8136668276
 20
-20.7828870061
 30
0.0
 10
-77.7880223176
 20
-19.7625803131
 30
0.0
  0
SPLINE
  5
497
100
AcDbEntity
  8
0
100
AcDbSpline
 62
7
  6
CONTINUOUS
 70
0
 71
3
 72
9
 73
5
 74
0
 42
0.0000001
 43
0.0000001
 44
0.0000000001
 40
0.0
 40
0.0
 40
0.0
 40
0.0
 40
0.5235924726
 40
1.0
 40
1.0
 40
1.0
 40
1.0
 10
-63.9900358623
 20
-14.3890030961
 30
0.0
 10
-63.8943880794
 20
-14.1172925498
 30
0.0
 10
-63.658650906
 20
-13.613879513
 30
0.0
 10
-63.292179897
 20
-13.1905028954
 30
0.0
 10
-63.0898235881
 20
-13.023932044
 30
0.0
  0
SPLINE
  5
498
100
AcDbEntity
  8
0
100
AcDbSpline
 62
7
  6
CONTINUOUS
 70
0
 71
3
 72
9
 73
5
 74
0
 42
0.0000001
 43
0.0000001
 44
0.0000000001
 40
0.0
 40
0.0
 40
0.0
 40
0.0
 40
0.4760278277
 40
1.0
 40
1.0
 40
1.0
 40
1.0
 10
-63.0898235881
 20
-13.023932044
 30
0.0
 10
-62.8462163508
 20
-12.8234052348
 30
0.0
 10
-62.2372243591
 20
-12.5073639132
 30
0.0
 10
-61.5566128414
 20
-12.475334054
 30
0.0
 10
-61.2110902815
 20
-12.5104553471
 30
0.0
  0
SPLINE
  5
499
100
AcDbEntity
  8
0
100
AcDbSpline
 62
7
  6
CONTINUOUS
 70
0
 71
3
 72
9
 73
5
 74
0
 42
0.0000001
 43
0.0000001
 44
0.0000000001
 40
0.0
 40
0.0
 40
0.0
 40
0.0
 40
0.2338544549
 40
1.0
 40
1.0
 40
1.0
 40
1.0
 10
-61.2110902815
 20
-12.5104553471
 30
0.0
 10
-61.1301970253
 20
-12.5186778949
 30
0.0
 10
-60.7855242221
 20
-12.5659711542
 30
0.0
 10
-60.4479798789
 20
-12.6588839325
 30
0.0
 10
-60.1967242812
 20
-12.7473806953
 30
0.0
  0
SPLINE
  5
49A
100
AcDbEntity
  8
0
100
AcDbSpline
 62
7
  6
CONTINUOUS
 70
0
 71
3
 72
8
 73
4
 74
0
 42
0.0000001
 43
0.0000001
 44
0.0000000001
 40
0.0
 40
0.0
 40
0.0
 40
0.0
 40
1.0
 40
1.0
 40
1.0
 40
1.0
 10
-97.0964005574
 20
-51.4947484759
 30
0.0
 10
-97.2291026302
 20
-51.4740599644
 30
0.0
 10
-97.3604775279
 20
-51.4285274543
 30
0.0
 10
-97.476312488
 20
-51.3605560142
 30
0.0
  0
LINE
  5
49B
100
AcDbEntity
  8
0
100
AcDbLine
 62
7
  6
CONTINUOUS
 10
-97.6187600897
 20
-51.1863525716
 11
-97.7415510055
 21
-51.1130780423
  0
SPLINE
  5
49C
100
AcDbEntity
  8
0
100
AcDbSpline
 62
7
  6
CONTINUOUS
 70
0
 71
3
 72
9
 73
5
 74
0
 42
0.0000001
 43
0.0000001
 44
0.0000000001
 40
0.0
 40
0.0
 40
0.0
 40
0.0
 40
0.2575374358
 40
1.0
 40
1.0
 40
1.0
 40
1.0
 10
-77.7269289883
 20
-19.5816609576
 30
0.0
 10
-77.6961971199
 20
-19.4906529984
 30
0.0
 10
-77.5328786514
 20
-19.1529816689
 30
0.0
 10
-77.2458935669
 20
-18.8810279574
 30
0.0
 10
-77.003838587
 20
-18.7465036492
 30
0.0
  0
SPLINE
  5
49D
100
AcDbEntity
  8
0
100
AcDbSpline
 62
7
  6
CONTINUOUS
 70
0
 71
3
 72
9
 73
5
 74
0
 42
0.0000001
 43
0.0000001
 44
0.0000000001
 40
0.0
 40
0.0
 40
0.0
 40
0.0
 40
0.233155431
 40
1.0
 40
1.0
 40
1.0
 40
1.0
 10
-64.5948823378
 20
-14.1656048825
 30
0.0
 10
-64.6398820095
 20
-14.2279080502
 30
0.0
 10
-64.8170772864
 20
-14.5065903243
 30
0.0
 10
-64.9308165689
 20
-14.8222707706
 30
0.0
 10
-64.9908672374
 20
-15.0678082957
 30
0.0
  0
SPLINE
  5
49E
100
AcDbEntity
  8
0
100
AcDbSpline
 62
7
  6
CONTINUOUS
 70
0
 71
3
 72
11
 73
7
 74
0
 42
0.0000001
 43
0.0000001
 44
0.0000000001
 40
0.0
 40
0.0
 40
0.0
 40
0.0
 40
0.2431478405
 40
0.489432044
 40
0.7411116768
 40
1.0
 40
1.0
 40
1.0
 40
1.0
 10
-92.6200278643
 20
-78.9403632282
 30
0.0
 10
-91.6752394521
 20
-79.4363790313
 30
0.0
 10
-89.6901091025
 20
-80.2840780627
 30
0.0
 10
-86.523761065
 20
-81.080200943
 30
0.0
 10
-83.2054345298
 20
-81.3960704295
 30
0.0
 10
-80.9589635897
 20
-81.2857535786
 30
0.0
 10
-79.8303799855
 20
-81.1547859883
 30
0.0
  0
SPLINE
  5
49F
100
AcDbEntity
  8
0
100
AcDbSpline
 62
7
  6
CONTINUOUS
 70
0
 71
3
 72
9
 73
5
 74
0
 42
0.0000001
 43
0.0000001
 44
0.0000000001
 40
0.0
 40
0.0
 40
0.0
 40
0.0
 40
0.2363320332
 40
1.0
 40
1.0
 40
1.0
 40
1.0
 10
-98.2799593534
 20
-70.2113122582
 30
0.0
 10
-98.2899203489
 20
-70.1761240519
 30
0.0
 10
-98.3177175256
 20
-70.0230691964
 30
0.0
 10
-98.2923419672
 20
-69.8643121672
 30
0.0
 10
-98.2568752971
 20
-69.7515871096
 30
0.0
  0
SPLINE
  5
4A0
100
AcDbEntity
  8
0
100
AcDbSpline
 62
7
  6
CONTINUOUS
 70
0
 71
3
 72
8
 73
4
 74
0
 42
0.0000001
 43
0.0000001
 44
0.0000000001
 40
0.0
 40
0.0
 40
0.0
 40
0.0
 40
1.0
 40
1.0
 40
1.0
 40
1.0
 10
-98.279959798
 20
-70.211314177
 30
0.0
 10
-98.1966420935
 20
-69.9471191619
 30
0.0
 10
-98.1143239073
 20
-69.6826081462
 30
0.0
 10
-98.0303584334
 20
-69.4186182882
 30
0.0
  0
SPLINE
  5
4A1
100
AcDbEntity
  8
0
100
AcDbSpline
 62
7
  6
CONTINUOUS
 70
0
 71
3
 72
9
 73
5
 74
0
 42
0.0000001
 43
0.0000001
 44
0.0000000001
 40
0.0
 40
0.0
 40
0.0
 40
0.0
 40
0.5151353346
 40
1.0
 40
1.0
 40
1.0
 40
1.0
 10
-77.003838587
 20
-18.7465036492
 30
0.0
 10
-75.1063910447
 20
-17.6919786772
 30
0.0
 10
-71.2142671014
 20
-15.9915298791
 30
0.0
 10
-67.0303905379
 20
-15.1908193058
 30
0.0
 10
-64.9908677214
 20
-15.0678091428
 30
0.0
  0
SPLINE
  5
4A2
100
AcDbEntity
  8
0
100
AcDbSpline
 62
7
  6
CONTINUOUS
 70
0
 71
3
 72
14
 73
10
 74
0
 42
0.0000001
 43
0.0000001
 44
0.0000000001
 40
0.0
 40
0.0
 40
0.0
 40
0.0
 40
0.1448237514
 40
0.2686527475
 40
0.3752100282
 40
0.474676777
 40
0.6964697204
 40
0.8377315681
 40
1.0
 40
1.0
 40
1.0
 40
1.0
 10
-41.0986490851
 20
-34.9180173966
 30
0.0
 10
-41.1588559241
 20
-34.8863512666
 30
0.0
 10
-41.274529681
 20
-34.8344236675
 30
0.0
 10
-41.4483636321
 20
-34.7956393307
 30
0.0
 10
-41.6059243622
 20
-34.8099722118
 30
0.0
 10
-41.7888649017
 20
-34.9061226633
 30
0.0
 10
-41.8967107796
 20
-35.1145645542
 30
0.0
 10
-41.9322837577
 20
-35.3579188969
 30
0.0
 10
-41.9332367405
 20
-35.5012413085
 30
0.0
 10
-41.9303389696
 20
-35.5774068273
 30
0.0
  0
SPLINE
  5
4A3
100
AcDbEntity
  8
0
100
AcDbSpline
 62
7
  6
CONTINUOUS
 70
0
 71
3
 72
8
 73
4
 74
0
 42
0.0000001
 43
0.0000001
 44
0.0000000001
 40
0.0
 40
0.0
 40
0.0
 40
0.0
 40
1.0
 40
1.0
 40
1.0
 40
1.0
 10
-40.9495028101
 20
-35.0000057359
 30
0.0
 10
-40.9993381191
 20
-34.9728955146
 30
0.0
 10
-41.0487090231
 20
-34.9449341635
 30
0.0
 10
-41.0986490851
 20
-34.9180173966
 30
0.0
  0
SPLINE
  5
4A4
100
AcDbEntity
  8
0
100
AcDbSpline
 62
7
  6
CONTINUOUS
 70
0
 71
3
 72
11
 73
7
 74
0
 42
0.0000001
 43
0.0000001
 44
0.0000000001
 40
0.0
 40
0.0
 40
0.0
 40
0.0
 40
0.2575055618
 40
0.5089215327
 40
0.7557958452
 40
1.0
 40
1.0
 40
1.0
 40
1.0
 10
-50.0568409887
 20
-27.1706202483
 30
0.0
 10
-50.5093327527
 20
-26.2673789434
 30
0.0
 10
-51.5143734016
 20
-24.5348293654
 30
0.0
 10
-53.330526674
 20
-22.1800190923
 30
0.0
 10
-55.4141000875
 20
-20.1313957742
 30
0.0
 10
-56.9706515126
 20
-18.9830983566
 30
0.0
 10
-57.780356476
 20
-18.4709875264
 30
0.0
  0
SPLINE
  5
4A5
100
AcDbEntity
  8
0
100
AcDbSpline
 62
7
  6
CONTINUOUS
 70
0
 71
3
 72
9
 73
5
 74
0
 42
0.0000001
 43
0.0000001
 44
0.0000000001
 40
0.0
 40
0.0
 40
0.0
 40
0.0
 40
0.2548684052
 40
1.0
 40
1.0
 40
1.0
 40
1.0
 10
-64.0225493682
 20
-83.090859887
 30
0.0
 10
-64.4648761809
 20
-83.3013847745
 30
0.0
 10
-66.2177330603
 20
-84.0901884601
 30
0.0
 10
-68.0400917837
 20
-84.7266362518
 30
0.0
 10
-69.4228374795
 20
-85.0996851971
 30
0.0
  0
SPLINE
  5
4A6
100
AcDbEntity
  8
0
100
AcDbSpline
 62
7
  6
CONTINUOUS
 70
0
 71
3
 72
15
 73
11
 74
0
 42
0.0000001
 43
0.0000001
 44
0.0000000001
 40
0.0
 40
0.0
 40
0.0
 40
0.0
 40
0.1314464342
 40
0.2575261117
 40
0.3795800617
 40
0.499494699
 40
0.6194855712
 40
0.7417564216
 40
0.868161905
 40
1.0
 40
1.0
 40
1.0
 40
1.0
 10
-38.8817193031
 20
-34.7993270155
 30
0.0
 10
-39.3373094727
 20
-33.189912843
 30
0.0
 10
-40.4917900792
 20
-30.1019238921
 30
0.0
 10
-42.9959731843
 20
-25.9383988276
 30
0.0
 10
-46.1763364999
 20
-22.4555156805
 30
0.0
 10
-49.9505866249
 20
-19.7553275649
 30
0.0
 10
-54.2139627095
 20
-17.915612291
 30
0.0
 10
-58.8456746798
 20
-16.9855827204
 30
0.0
 10
-63.7159158923
 20
-16.9829127618
 30
0.0
 10
-66.9669473472
 20
-17.581543374
 30
0.0
 10
-68.5866816267
 20
-18.0185041513
 30
0.0
  0
SPLINE
  5
4A7
100
AcDbEntity
  8
0
100
AcDbSpline
 62
7
  6
CONTINUOUS
 70
0
 71
3
 72
13
 73
9
 74
0
 42
0.0000001
 43
0.0000001
 44
0.0000000001
 40
0.0
 40
0.0
 40
0.0
 40
0.0
 40
0.1139361595
 40
0.232772637
 40
0.3560294513
 40
0.4828420196
 40
0.7419525562
 40
1.0
 40
1.0
 40
1.0
 40
1.0
 10
-68.5866816267
 20
-18.0185041513
 30
0.0
 10
-70.2607065373
 20
-18.4701110817
 30
0.0
 10
-73.6077004212
 20
-19.6828421139
 30
0.0
 10
-78.3817788655
 20
-22.2816563636
 30
0.0
 10
-82.9073113089
 20
-25.6335586287
 30
0.0
 10
-88.4949485072
 20
-31.0283465402
 30
0.0
 10
-94.2221296781
 20
-39.1026423292
 30
0.0
 10
-97.170380657
 20
-46.4964357954
 30
0.0
 10
-98.151080075
 20
-50.2989507382
 30
0.0
  0
SPLINE
  5
4A8
100
AcDbEntity
  8
0
100
AcDbSpline
 62
7
  6
CONTINUOUS
 70
0
 71
3
 72
11
 73
7
 74
0
 42
0.0000001
 43
0.0000001
 44
0.0000000001
 40
0.0
 40
0.0
 40
0.0
 40
0.0
 40
0.258872696
 40
0.5131138085
 40
0.7607586087
 40
1.0
 40
1.0
 40
1.0
 40
1.0
 10
-97.7627909316
 20
-14.9727088025
 30
0.0
 10
-98.0154975993
 20
-14.2432659351
 30
0.0
 10
-98.5559150352
 20
-12.8107532252
 30
0.0
 10
-99.4751595556
 20
-10.7353700658
 30
0.0
 10
-100.4881927617
 20
-8.7696833998
 30
0.0
 10
-101.2331367406
 20
-7.5220094701
 30
0.0
 10
-101.6197666678
 20
-6.9224212313
 30
0.0
  0
SPLINE
  5
4A9
100
AcDbEntity
  8
0
100
AcDbSpline
 62
7
  6
CONTINUOUS
 70
0
 71
3
 72
15
 73
11
 74
0
 42
0.0000001
 43
0.0000001
 44
0.0000000001
 40
0.0
 40
0.0
 40
0.0
 40
0.0
 40
0.130611664
 40
0.2606640209
 40
0.3895459875
 40
0.5167622024
 40
0.6418551271
 40
0.7643895651
 40
0.8839316432
 40
1.0
 40
1.0
 40
1.0
 40
1.0
 10
-91.6113057939
 20
-15.9898374977
 30
0.0
 10
-91.7760364807
 20
-15.3999809334
 30
0.0
 10
-92.1273524889
 20
-14.2289606004
 30
0.0
 10
-92.7189792958
 20
-12.50042458
 30
0.0
 10
-93.3718400266
 20
-10.8110881933
 30
0.0
 10
-94.0820786767
 20
-9.1703588064
 30
0.0
 10
-94.846051086
 20
-7.5869065909
 30
0.0
 10
-95.6596366947
 20
-6.0690192157
 30
0.0
 10
-96.5184732778
 20
-4.6252987912
 30
0.0
 10
-97.1274308576
 20
-3.7029111776
 30
0.0
 10
-97.4387446156
 20
-3.2565086415
 30
0.0
  0
SPLINE
  5
4AA
100
AcDbEntity
  8
0
100
AcDbSpline
 62
7
  6
CONTINUOUS
 70
0
 71
3
 72
39
 73
35
 74
0
 42
0.0000001
 43
0.0000001
 44
0.0000000001
 40
0.0
 40
0.0
 40
0.0
 40
0.0
 40
0.0602311238
 40
0.0912850288
 40
0.1229185638
 40
0.1551056071
 40
0.1877999698
 40
0.2209446713
 40
0.2544749941
 40
0.2883200751
 40
0.3224023004
 40
0.3566400001
 40
0.3909487266
 40
0.4252427307
 40
0.459436772
 40
0.4934469075
 40
0.5271931108
 40
0.5605993583
 40
0.5935968388
 40
0.6261235163
 40
0.6581276479
 40
0.6895670617
 40
0.7204127924
 40
0.7506481546
 40
0.7802717036
 40
0.809296304
 40
0.8377511849
 40
0.865680724
 40
0.8794704583
 40
0.8931525058
 40
0.920224956
 40
0.9469919616
 40
0.9735492566
 40
1.0
 40
1.0
 40
1.0
 40
1.0
 10
-116.1230841309
 20
-4.1093282045
 30
0.0
 10
-117.1317084547
 20
-4.3814279396
 30
0.0
 10
-118.6290949256
 20
-4.9209493477
 30
0.0
 10
-120.5441859781
 20
-5.8602468337
 30
0.0
 10
-121.9676137089
 20
-6.6889092843
 30
0.0
 10
-123.3540559719
 20
-7.6292190276
 30
0.0
 10
-124.6958967562
 20
-8.6753385886
 30
0.0
 10
-125.984899651
 20
-9.8211896051
 30
0.0
 10
-127.213686776
 20
-11.0596142159
 30
0.0
 10
-128.3747788262
 20
-12.3833834164
 30
0.0
 10
-129.4615357225
 20
-13.7843597746
 30
0.0
 10
-130.4672505629
 20
-15.2543402852
 30
0.0
 10
-131.386179958
 20
-16.7843556661
 30
0.0
 10
-132.2125867815
 20
-18.365410098
 30
0.0
 10
-132.9417749215
 20
-19.9879228945
 30
0.0
 10
-133.5691055952
 20
-21.6423320841
 30
0.0
 10
-134.0910435
 20
-23.318673509
 30
0.0
 10
-134.5041547082
 20
-25.0070555829
 30
0.0
 10
-134.8061414259
 20
-26.6973710726
 30
0.0
 10
-134.9948364198
 20
-28.3796358951
 30
0.0
 10
-135.0692183999
 20
-30.0438294373
 30
0.0
 10
-135.0284146233
 20
-31.6800950839
 30
0.0
 10
-134.8726830979
 20
-33.2787090086
 30
0.0
 10
-134.6024438834
 20
-34.8301314951
 30
0.0
 10
-134.2192353641
 20
-36.3250957398
 30
0.0
 10
-133.7247592432
 20
-37.7545331957
 30
0.0
 10
-133.1218869518
 20
-39.1097005083
 30
0.0
 10
-132.5290403766
 20
-40.1748051661
 30
0.0
 10
-132.0041130568
 20
-40.9800389561
 30
0.0
 10
-131.4505950357
 20
-41.7476238445
 30
0.0
 10
-130.6979553241
 20
-42.6474840425
 30
0.0
 10
-129.7007652849
 20
-43.6254973964
 30
0.0
 10
-128.6186305898
 20
-44.4914155058
 30
0.0
 10
-127.8443897489
 20
-44.990749887
 30
0.0
 10
-127.4466150476
 20
-45.2193350753
 30
0.0
  0
SPLINE
  5
4AB
100
AcDbEntity
  8
0
100
AcDbSpline
 62
7
  6
CONTINUOUS
 70
0
 71
3
 72
15
 73
11
 74
0
 42
0.0000001
 43
0.0000001
 44
0.0000000001
 40
0.0
 40
0.0
 40
0.0
 40
0.0
 40
0.1200393136
 40
0.2406049057
 40
0.36220322
 40
0.4852988053
 40
0.6103018437
 40
0.7375924144
 40
0.8674644559
 40
1.0
 40
1.0
 40
1.0
 40
1.0
 10
-104.5320834834
 20
-5.3329732773
 30
0.0
 10
-104.9470088727
 20
-5.0945322755
 30
0.0
 10
-105.8050123806
 20
-4.6608739735
 30
0.0
 10
-107.1580029179
 20
-4.1490866505
 30
0.0
 10
-108.569087649
 20
-3.7789358643
 30
0.0
 10
-110.0279599862
 20
-3.5523526882
 30
0.0
 10
-111.5246729993
 20
-3.4707308993
 30
0.0
 10
-113.0492061779
 20
-3.5339391074
 30
0.0
 10
-114.5909306505
 20
-3.7413517405
 30
0.0
 10
-115.6129456708
 20
-3.9717065582
 30
0.0
 10
-116.1230841309
 20
-4.1093282045
 30
0.0
  0
SPLINE
  5
4AC
100
AcDbEntity
  8
0
100
AcDbSpline
 62
7
  6
CONTINUOUS
 70
0
 71
3
 72
12
 73
8
 74
0
 42
0.0000001
 43
0.0000001
 44
0.0000000001
 40
0.0
 40
0.0
 40
0.0
 40
0.0
 40
0.2500165152
 40
0.3752336356
 40
0.5004683388
 40
0.7506220403
 40
1.0
 40
1.0
 40
1.0
 40
1.0
 10
-98.4862958971
 20
-29.3185688709
 30
0.0
 10
-99.163995254
 20
-30.1506759782
 30
0.0
 10
-100.1190995323
 20
-31.4519645415
 30
0.0
 10
-101.2578182134
 20
-33.2742458793
 30
0.0
 10
-102.3051220611
 20
-35.1514693686
 30
0.0
 10
-103.4356660996
 20
-37.5882784295
 30
0.0
 10
-104.1403557649
 20
-39.6178315186
 30
0.0
 10
-104.4392930449
 20
-40.6456640801
 30
0.0
  0
SPLINE
  5
4AD
100
AcDbEntity
  8
0
100
AcDbSpline
 62
7
  6
CONTINUOUS
 70
0
 71
3
 72
15
 73
11
 74
0
 42
0.0000001
 43
0.0000001
 44
0.0000000001
 40
0.0
 40
0.0
 40
0.0
 40
0.0
 40
0.1160683568
 40
0.2356104349
 40
0.3581448729
 40
0.4832377976
 40
0.6104540125
 40
0.7393359791
 40
0.869388336
 40
1.0
 40
1.0
 40
1.0
 40
1.0
 10
-101.5636097824
 20
-4.3692864052
 30
0.0
 10
-101.2522960244
 20
-4.8156889413
 30
0.0
 10
-100.6433384445
 20
-5.7380765549
 30
0.0
 10
-99.7845018615
 20
-7.1817969794
 30
0.0
 10
-98.9709162528
 20
-8.6996843546
 30
0.0
 10
-98.2069438435
 20
-10.2831365702
 30
0.0
 10
-97.4967051933
 20
-11.9238659571
 30
0.0
 10
-96.8438444626
 20
-13.6132023438
 30
0.0
 10
-96.2522176557
 20
-15.3417383642
 30
0.0
 10
-95.9009016474
 20
-16.5127586973
 30
0.0
 10
-95.7361709607
 20
-17.1026152616
 30
0.0
  0
SPLINE
  5
4AE
100
AcDbEntity
  8
0
100
AcDbSpline
 62
7
  6
CONTINUOUS
 70
0
 71
3
 72
14
 73
10
 74
0
 42
0.0000001
 43
0.0000001
 44
0.0000000001
 40
0.0
 40
0.0
 40
0.0
 40
0.0
 40
0.1195994208
 40
0.2403381277
 40
0.3624495155
 40
0.4861521075
 40
0.6116466257
 40
0.7391036251
 40
1.0
 40
1.0
 40
1.0
 40
1.0
 10
-107.3912500404
 20
-4.1092401062
 30
0.0
 10
-107.724108878
 20
-4.0104165926
 30
0.0
 10
-108.4008383131
 20
-3.8372804507
 30
0.0
 10
-109.4377302636
 20
-3.6528850446
 30
0.0
 10
-110.4971959134
 20
-3.5433566816
 30
0.0
 10
-111.575499785
 20
-3.5091708692
 30
0.0
 10
-112.6691337508
 20
-3.5502645109
 30
0.0
 10
-114.1535103951
 20
-3.7066503648
 30
0.0
 10
-115.2616443799
 20
-3.93514247
 30
0.0
 10
-115.9929311556
 20
-4.1324239883
 30
0.0
  0
SPLINE
  5
4AF
100
AcDbEntity
  8
0
100
AcDbSpline
 62
7
  6
CONTINUOUS
 70
0
 71
3
 72
21
 73
17
 74
0
 42
0.0000001
 43
0.0000001
 44
0.0000000001
 40
0.0
 40
0.0
 40
0.0
 40
0.0
 40
0.1210363255
 40
0.1829039115
 40
0.2454946093
 40
0.3722525606
 40
0.4361831784
 40
0.5002590674
 40
0.5643243349
 40
0.6282224654
 40
0.6918000625
 40
0.7549083994
 40
0.8174064977
 40
0.8791648158
 40
0.9400645118
 40
1.0
 40
1.0
 40
1.0
 40
1.0
 10
-106.0913323829
 20
-45.9792470941
 30
0.0
 10
-106.0462275005
 20
-44.8815891326
 30
0.0
 10
-105.8657404684
 20
-43.2252424633
 30
0.0
 10
-105.4194244366
 20
-41.0412272412
 30
0.0
 10
-104.827422468
 20
-38.8380023835
 30
0.0
 10
-104.0320214804
 20
-36.6743844757
 30
0.0
 10
-103.0488530846
 20
-34.5804087576
 30
0.0
 10
-102.2178483173
 20
-33.0467013865
 30
0.0
 10
-101.3001981038
 20
-31.5636637758
 30
0.0
 10
-100.3012663242
 20
-30.1395934176
 30
0.0
 10
-99.2266185875
 20
-28.7828118629
 30
0.0
 10
-98.0825946361
 20
-27.5009397904
 30
0.0
 10
-96.8755476035
 20
-26.3015094423
 30
0.0
 10
-95.612543831
 20
-25.1911956246
 30
0.0
 10
-94.3006995758
 20
-24.1766788201
 30
0.0
 10
-93.3908531219
 20
-23.5625786994
 30
0.0
 10
-92.9299220011
 20
-23.273645626
 30
0.0
  0
SPLINE
  5
4B0
100
AcDbEntity
  8
0
100
AcDbSpline
 62
7
  6
CONTINUOUS
 70
0
 71
3
 72
39
 73
35
 74
0
 42
0.0000001
 43
0.0000001
 44
0.0000000001
 40
0.0
 40
0.0
 40
0.0
 40
0.0
 40
0.0602255492
 40
0.0913202541
 40
0.1230208035
 40
0.1552966293
 40
0.1880972369
 40
0.221362227
 40
0.2550235175
 40
0.2890070885
 40
0.32323223
 40
0.3576145413
 40
0.3920668458
 40
0.426500905
 40
0.4608288784
 40
0.4949643551
 40
0.5288246675
 40
0.5623311481
 40
0.5954121634
 40
0.6280027351
 40
0.6600481825
 40
0.6915032238
 40
0.7223359971
 40
0.7525267449
 40
0.7820718561
 40
0.8109821371
 40
0.839286335
 40
0.8670288325
 40
0.8807120612
 40
0.8942794897
 40
0.9211002022
 40
0.9475906159
 40
0.9738535818
 40
1.0
 40
1.0
 40
1.0
 40
1.0
 10
-116.101064138
 20
-4.161940047
 30
0.0
 10
-117.104870209
 20
-4.4391386352
 30
0.0
 10
-118.5951207257
 20
-4.9855327274
 30
0.0
 10
-120.5011841841
 20
-5.9322823786
 30
0.0
 10
-121.9193199659
 20
-6.7666755426
 30
0.0
 10
-123.301217889
 20
-7.7125456861
 30
0.0
 10
-124.6391135901
 20
-8.7640572151
 30
0.0
 10
-125.9246351701
 20
-9.9151261622
 30
0.0
 10
-127.1503185374
 20
-11.1585517151
 30
0.0
 10
-128.3085785831
 20
-12.487076193
 30
0.0
 10
-129.3927229058
 20
-13.8924938226
 30
0.0
 10
-130.3959682332
 20
-15.366554209
 30
0.0
 10
-131.3125615376
 20
-16.9002048781
 30
0.0
 10
-132.1367121422
 20
-18.484393255
 30
0.0
 10
-132.8637523185
 20
-20.1094434959
 30
0.0
 10
-133.4890085394
 20
-21.7657247454
 30
0.0
 10
-134.0090150639
 20
-23.4431648915
 30
0.0
 10
-134.4203238561
 20
-25.1317881181
 30
0.0
 10
-134.7207565514
 20
-26.8213682596
 30
0.0
 10
-134.9081627327
 20
-28.5018235862
 30
0.0
 10
-134.9817030185
 20
-30.163018469
 30
0.0
 10
-134.9405651201
 20
-31.7950006893
 30
0.0
 10
-134.7852652979
 20
-33.387963716
 30
0.0
 10
-134.5163387133
 20
-34.9323089177
 30
0.0
 10
-134.1356449199
 20
-36.4187768906
 30
0.0
 10
-133.6450450195
 20
-37.8383432165
 30
0.0
 10
-133.0477414742
 20
-39.1824323875
 30
0.0
 10
-132.4608901771
 20
-40.2377835253
 30
0.0
 10
-131.9417611259
 20
-41.0348447885
 30
0.0
 10
-131.3950253927
 20
-41.7936526709
 30
0.0
 10
-130.6521827367
 20
-42.6824928858
 30
0.0
 10
-129.6685295528
 20
-43.6478386054
 30
0.0
 10
-128.6017185151
 20
-44.5018374087
 30
0.0
 10
-127.8386088322
 20
-44.9940799955
 30
0.0
 10
-127.4466172182
 20
-45.2193388526
 30
0.0
  0
ELLIPSE
  5
4B1
100
AcDbEntity
  8
0
100
AcDbEllipse
 62
7
  6
CONTINUOUS
 10
-87.1743090149
 20
-41.826125896
 30
0.0
 11
-5.9562588053
 21
24.9114956187
 31
0.0
 40
0.7671435024
 41
-0.086807244
 42
0.1310144229
  0
ELLIPSE
  5
4B2
100
AcDbEntity
  8
0
100
AcDbEllipse
 62
7
  6
CONTINUOUS
 10
-98.4779650389
 20
-35.3338501296
 30
0.0
 11
8.9956058077
 21
21.23663425
 31
0.0
 40
0.7885137488
 41
0.4902892523
 42
0.6619263467
  0
ENDSEC
  0
SECTION
  2
OBJECTS
  0
DICTIONARY
  5
C
100
AcDbDictionary
280
0
281
1
  3
ACAD_GROUP
350
D
  3
ACAD_MLINESTYLE
350
17
  3
ACAD_LAYOUT
350
1A
  3
ACAD_PLOTSETTINGS
350
19
  3
ACAD_PLOTSTYLENAME
350
E
  0
DICTIONARY
  5
D
102
{ACAD_REACTORS
330
C
102
}
100
AcDbDictionary
280
0
281
1
  0
ACDBDICTIONARYWDFLT
  5
E
102
{ACAD_REACTORS
330
C
102
}
100
AcDbDictionary
281
1
  3
Normal
350
F
100
AcDbDictionaryWithDefault
340
F
  0
DICTIONARY
  5
17
102
{ACAD_REACTORS
330
C
102
}
100
AcDbDictionary
280
0
281
1
  3
Standard
350
18
  0
DICTIONARY
  5
19
102
{ACAD_REACTORS
330
C
102
}
100
AcDbDictionary
281
1
  0
DICTIONARY
  5
1A
102
{ACAD_REACTORS
330
C
102
}
100
AcDbDictionary
281
1
  3
Model
350
4B3
  3
Layout1
350
4B4
  0
ACDBPLACEHOLDER
  5
F
102
{ACAD_REACTORS
330
E
102
}
  0
MLINESTYLE
  5
18
102
{ACAD_REACTORS
330
17
102
}
100
AcDbMlineStyle
  2
STANDARD
 70
0
  3

 62
256
 51
90.0
 52
90.0
 71
2
 49
0.5
 62
256
  6
BYLAYER
 49
-0.5
 62
256
  6
BYLAYER
  0
LAYOUT
  5
4B3
102
{ACAD_REACTORS
330
1A
102
}
100
AcDbPlotSettings
  1

  2
none_device
  4
ANSI_C_(22.00_x_17.00_Inches)
  6

 40
0.0
 41
0.0
 42
0.0
 43
0.0
 44
558.8
 45
431.8
 46
0.0
 47
0.0
 48
0.0
 49
0.0
140
0.0
141
0.0
142
1.0
143
1.0
 70
1024
 72
1
 73
0
 74
0
  7

 75
0
147
1.0
148
0.0
149
0.0
100
AcDbLayout
  1
Model
 70
0
 71
0
 10
0.0
 20
0.0
 11
558.8
 21
431.8
 12
0.0
 22
0.0
 32
0.0
 14
0.0
 24
0.0
 34
0.0
 15
0.0
 25
0.0
 35
0.0
146
0.0
 13
0.0
 23
0.0
 33
0.0
 16
1.0
 26
0.0
 36
0.0
 17
0.0
 27
1.0
 37
0.0
 76
0
330
1FF
345
0
346
0
  0
LAYOUT
  5
4B4
102
{ACAD_REACTORS
330
1A
102
}
100
AcDbPlotSettings
  1

  2
none_device
  4
ANSI_C_(22.00_x_17.00_Inches)
  6

 40
0.0
 41
0.0
 42
0.0
 43
0.0
 44
558.8
 45
431.8
 46
0.0
 47
0.0
 48
0.0
 49
0.0
140
0.0
141
0.0
142
1.0
143
1.0
 70
0
 72
1
 73
0
 74
0
  7

 75
0
147
1.0
148
0.0
149
0.0
100
AcDbLayout
  1
Layout1
 70
0
 71
1
 10
0.0
 20
0.0
 11
558.8
 21
431.8
 12
0.0
 22
0.0
 32
0.0
 14
0.0
 24
0.0
 34
0.0
 15
0.0
 25
0.0
 35
0.0
146
0.0
 13
0.0
 23
0.0
 33
0.0
 16
1.0
 26
0.0
 36
0.0
 17
0.0
 27
1.0
 37
0.0
 76
0
330
200
345
0
346
0
  0
ENDSEC
  0
EOF
