999
DXF file: Y:\3D PRATIKA-KAEDRA_OLGA\TRAVAIL_PHASE_3\CAD3D\PKE16M735_3D-Simplified\PKE16M735_2D-isometric.dxf
999
Pro/ENGINEER 2018260 by Parametric Technology Corporation
  0
SECTION
  2
HEADER
  9
$ACADVER
  1
AC1027
  9
$DWGCODEPAGE
  3
ANSI_1252
  9
$EXTMAX
 10
558.8
 20
431.8
 30
0.0
  9
$EXTMIN
 10
0.0
 20
0.0
 30
0.0
  9
$LIMMIN
 10
0.0
 20
0.0
  9
$LIMMAX
 10
558.8
 20
431.8
  9
$VIEWCTR
 10
279.4
 20
215.9
  9
$VIEWSIZE
 40
431.8
  9
$CLAYER
  8
0
  9
$LTSCALE
 40
30.734
  9
$CELTYPE
  6
BYLAYER
  9
$DIMSCALE
 40
1.0
  9
$DIMASZ
 40
0.1875
  9
$DIMEXO
 40
0.0625
  9
$DIMDLI
 40
21.2344
  9
$DIMEXE
 40
0.125
  9
$DIMCEN
 40
5.0292
  9
$DIMLFAC
 40
1.0
  9
$DIMBLK
  1
_CLOSED
  9
$DIMALT
 70
0
  9
$DIMALTF
 40
0.0393700787
  9
$DIMTXT
 40
0.15625
  9
$DIMTOL
 70
0
  9
$DIMLIM
 70
0
  9
$DIMTFAC
 40
1.0
  9
$DIMGAP
 40
0.625
  9
$DIMDSEP
 70
46
  9
$AUNITS
 70
0
  9
$PDMODE
 70
3
  9
$PDSIZE
 40
0.3125
  9
$HANDSEED
  5
47D
  9
$TILEMODE
 70
1
  9
$MEASUREMENT
 70
1
  9
$INSUNITS
 70
4
  0
ENDSEC
  0
SECTION
  2
CLASSES
  0
CLASS
  1
ACDBDICTIONARYWDFLT
  2
AcDbDictionaryWithDefault
  3
AutoCAD 2000
 90
0
 91
1
280
0
281
0
  0
CLASS
  1
ACDBPLACEHOLDER
  2
AcDbPlaceHolder
  3
AutoCAD 2000
 90
0
 91
1
280
0
281
0
  0
CLASS
  1
LAYOUT
  2
AcDbLayout
  3
AutoCAD 2000
 90
0
 91
0
280
0
281
0
  0
ENDSEC
  0
SECTION
  2
TABLES
  0
TABLE
  2
VPORT
  5
8
100
AcDbSymbolTable
 70
2
  0
VPORT
  5
1F4
100
AcDbSymbolTableRecord
100
AcDbViewportTableRecord
  2
*ACTIVE
 70
0
 10
0.0
 20
0.0
 11
1.0
 21
1.0
 12
279.4
 22
215.9
 13
0.0
 23
0.0
 14
1.0
 24
1.0
 15
0.0
 25
0.0
 16
0.0
 26
0.0
 36
1.0
 17
0.0
 27
0.0
 37
0.0
 40
431.8
 41
1.2941176471
 42
50.0
 43
0.0
 44
0.0
 50
0.0
 51
0.0
 71
0
 72
100
 73
1
 74
1
 75
0
 76
0
 77
0
 78
0
  0
ENDTAB
  0
TABLE
  2
LTYPE
  5
5
100
AcDbSymbolTable
 70
6
  0
LTYPE
  5
14
100
AcDbSymbolTableRecord
100
AcDbLinetypeTableRecord
  2
BYBLOCK
 70
0
  3

 72
65
 73
0
 40
0.0
  0
LTYPE
  5
15
100
AcDbSymbolTableRecord
100
AcDbLinetypeTableRecord
  2
BYLAYER
 70
0
  3

 72
65
 73
0
 40
0.0
  0
LTYPE
  5
16
100
AcDbSymbolTableRecord
100
AcDbLinetypeTableRecord
  2
CONTINUOUS
 70
64
  3
Solid line
 72
65
 73
0
 40
0.0
  0
LTYPE
  5
1F5
100
AcDbSymbolTableRecord
100
AcDbLinetypeTableRecord
  2
CENTER
 70
64
  3
____ _ ____ _ ____ _ ____ _ ____ _ ____ _ ____
 72
65
 73
4
 40
0.6
 49
0.375
 74
0
 49
-0.075
 74
0
 49
0.075
 74
0
 49
-0.075
 74
0
  0
LTYPE
  5
1F6
100
AcDbSymbolTableRecord
100
AcDbLinetypeTableRecord
  2
HIDDEN
 70
64
  3
- - - - - - - - - - - - - - - - - - - -
 72
65
 73
2
 40
0.2
 49
0.1
 74
0
 49
-0.1
 74
0
  0
LTYPE
  5
1F7
100
AcDbSymbolTableRecord
100
AcDbLinetypeTableRecord
  2
PHANTOM
 70
64
  3
_____ _ _ _____ _ _ _____ _ _ _____
 72
65
 73
6
 40
0.8
 49
0.45
 74
0
 49
-0.05
 74
0
 49
0.1
 74
0
 49
-0.05
 74
0
 49
0.1
 74
0
 49
-0.05
 74
0
  0
LTYPE
  5
1F8
100
AcDbSymbolTableRecord
100
AcDbLinetypeTableRecord
  2
DOT
 70
64
  3
. . . . . . . . . . . . . . . . . . . .
 72
65
 73
2
 40
0.2
 49
0.1
 74
0
 49
-0.1
 74
0
  0
LTYPE
  5
1F9
100
AcDbSymbolTableRecord
100
AcDbLinetypeTableRecord
  2
DASHED
 70
64
  3
- - - - - - - - - - - - - - - - - - - -
 72
65
 73
2
 40
0.2
 49
0.1
 74
0
 49
-0.1
 74
0
  0
ENDTAB
  0
TABLE
  2
LAYER
  5
2
100
AcDbSymbolTable
 70
36
  0
LAYER
  5
10
100
AcDbSymbolTableRecord
100
AcDbLayerTableRecord
  2
0
 70
0
 62
7
  6
CONTINUOUS
370
-3
390
F
  0
LAYER
  5
1FA
100
AcDbSymbolTableRecord
100
AcDbLayerTableRecord
  2
DEFAULT_1
 70
0
 62
7
  6
CENTER
370
-3
390
F
  0
LAYER
  5
1FB
100
AcDbSymbolTableRecord
100
AcDbLayerTableRecord
  2
DEFAULT_2
 70
0
 62
8
  6
HIDDEN
370
-3
390
F
  0
LAYER
  5
1FC
100
AcDbSymbolTableRecord
100
AcDbLayerTableRecord
  2
DEFAULT_3
 70
0
 62
7
  6
PHANTOM
370
-3
390
F
  0
ENDTAB
  0
TABLE
  2
STYLE
  5
3
100
AcDbSymbolTable
 70
1
  0
STYLE
  5
11
100
AcDbSymbolTableRecord
100
AcDbTextStyleTableRecord
  2
STANDARD
 70
0
 40
0.0
 41
0.8
 50
0.0
 71
0
 42
0.2
  3
txt
  4

  0
STYLE
  5
1FD
100
AcDbSymbolTableRecord
100
AcDbTextStyleTableRecord
  2
TEXTSTYLE_1
 70
0
 40
0.0
 41
0.8
 50
0.0
 71
0
 42
0.2
  3
gdt
  4

  0
ENDTAB
  0
TABLE
  2
VIEW
  5
6
100
AcDbSymbolTable
 70
0
  0
ENDTAB
  0
TABLE
  2
UCS
  5
7
100
AcDbSymbolTable
 70
0
  0
ENDTAB
  0
TABLE
  2
APPID
  5
9
100
AcDbSymbolTable
 70
1
  0
APPID
  5
1FE
100
AcDbSymbolTableRecord
100
AcDbRegAppTableRecord
  2
ACAD
 70
0
  0
ENDTAB
  0
TABLE
  2
BLOCK_RECORD
  5
1
100
AcDbSymbolTable
 70
0
  0
BLOCK_RECORD
  5
1FF
100
AcDbSymbolTableRecord
100
AcDbBlockTableRecord
  2
*Model_Space
  0
BLOCK_RECORD
  5
200
100
AcDbSymbolTableRecord
100
AcDbBlockTableRecord
  2
*Paper_Space
  0
BLOCK_RECORD
  5
201
100
AcDbSymbolTableRecord
100
AcDbBlockTableRecord
  2
_CLOSED
  0
ENDTAB
  0
TABLE
  2
DIMSTYLE
  5
A
100
AcDbSymbolTable
 70
1
100
AcDbDimStyleTable
 71
0
  0
DIMSTYLE
105
202
100
AcDbSymbolTableRecord
100
AcDbDimStyleTableRecord
  2
STANDARD
 70
0
  3

  4

 40
1.0
 41
0.1875
 42
0.0625
 43
0.38
 44
0.125
 45
0.0
 46
0.0
 47
0.01
 48
0.01
140
0.15625
141
0.09
142
0.0
143
25.4
144
1.0
145
0.0
146
1.0
147
0.625
 71
0.0
 72
0.0
 73
1
 74
1
 75
0
 76
0
 77
0
 78
8
 79
2
170
0
171
1
172
0
173
0
174
0
175
0
176
0
177
0
178
0
270
2
179
2
271
2
272
2
273
2
274
2
275
0
280
0
281
0
282
0
283
1
284
8
285
0
286
0
287
3
288
0
340
11
278
46
341
201
342
201
343
201
344
201
  0
ENDTAB
  0
ENDSEC
  0
SECTION
  2
BLOCKS
  0
BLOCK
  5
20
100
AcDbEntity
  8
0
100
AcDbBlockBegin
  2
*Model_Space
 70
0
 10
0.0
 20
0.0
 30
0.0
  3
*Model_Space
  1

  0
ENDBLK
  5
21
100
AcDbEntity
  8
0
100
AcDbBlockEnd
  0
BLOCK
  5
1C
100
AcDbEntity
  8
0
100
AcDbBlockBegin
  2
*Paper_Space
 70
0
 10
0.0
 20
0.0
 30
0.0
  3
*Paper_Space
  1

  0
ENDBLK
  5
1D
100
AcDbEntity
  8
0
100
AcDbBlockEnd
  0
BLOCK
  5
203
100
AcDbEntity
  8
0
100
AcDbBlockBegin
  2
_CLOSED
 70
64
 10
0.0
 20
0.0
  3
_CLOSED
  1

  0
LINE
  5
204
100
AcDbEntity
  8
0
  6
BYBLOCK
 62
0
100
AcDbLine
 10
0.0
 20
0.0
 11
-1.0
 21
0.1666666667
  0
LINE
  5
205
100
AcDbEntity
  8
0
  6
BYBLOCK
 62
0
100
AcDbLine
 10
-1.0
 20
0.1666666667
 11
-1.0
 21
-0.1666666667
  0
LINE
  5
206
100
AcDbEntity
  8
0
  6
BYBLOCK
 62
0
100
AcDbLine
 10
-1.0
 20
-0.1666666667
 11
0.0
 21
0.0
  0
LINE
  5
207
100
AcDbEntity
  8
0
  6
BYBLOCK
 62
0
100
AcDbLine
 10
-1.0
 20
0.0
 11
0.0
 21
0.0
  0
ENDBLK
  5
208
100
AcDbEntity
  8
0
  6
BYBLOCK
 62
0
100
AcDbBlockEnd
  0
ENDSEC
  0
SECTION
  2
ENTITIES
  0
LINE
  5
209
100
AcDbEntity
  8
0
100
AcDbLine
 62
7
  6
CONTINUOUS
 10
-94.895546154
 20
-78.8429940198
 11
-94.7548244574
 21
-78.8050301261
  0
LINE
  5
20A
100
AcDbEntity
  8
0
100
AcDbLine
 62
7
  6
CONTINUOUS
 10
-38.1261706821
 20
-13.0160206295
 11
-38.2673129841
 21
-13.0540980343
  0
LINE
  5
20B
100
AcDbEntity
  8
0
100
AcDbLine
 62
7
  6
CONTINUOUS
 10
-92.5851260651
 20
-4.8294518734
 11
-96.709991232
 21
-5.9422296371
  0
LINE
  5
20C
100
AcDbEntity
  8
0
100
AcDbLine
 62
7
  6
CONTINUOUS
 10
-103.0644360943
 20
8.8532639553
 11
-98.9395709275
 21
9.966041719
  0
LINE
  5
20D
100
AcDbEntity
  8
0
100
AcDbLine
 62
7
  6
CONTINUOUS
 10
-99.3256339353
 20
10.5074167138
 11
-103.4504991021
 21
9.3946389501
  0
LWPOLYLINE
  5
20E
100
AcDbEntity
  8
0
100
AcDbPolyline
 62
7
  6
CONTINUOUS
 90
8
 70
0
 10
-73.9537193273
 20
-3.3690233617
 10
-77.1167840663
 20
-4.0799948359
 10
-80.2481492021
 20
-5.4031952756
 10
-83.0052846416
 20
-7.2903927444
 10
-85.3444738055
 20
-9.7443114733
 10
-87.2091317667
 20
-12.7747350312
 10
-88.5257485478
 20
-16.3959933481
 10
-89.1769690742
 20
-20.3309149487
  0
LINE
  5
20F
100
AcDbEntity
  8
0
100
AcDbLine
 62
7
  6
CONTINUOUS
 10
-73.952264985
 20
-3.3775685181
 11
-73.9089720379
 21
-3.3702002781
  0
LINE
  5
210
100
AcDbEntity
  8
0
100
AcDbLine
 62
7
  6
CONTINUOUS
 10
-36.1365935771
 20
-27.655704293
 11
-34.6580079969
 21
-27.5082702
  0
LINE
  5
211
100
AcDbEntity
  8
0
100
AcDbLine
 62
7
  6
CONTINUOUS
 10
-37.8977260866
 20
-29.3496800628
 11
-39.1535758722
 21
-29.4679920623
  0
LINE
  5
212
100
AcDbEntity
  8
0
100
AcDbLine
 62
7
  6
CONTINUOUS
 10
-98.3674589133
 20
-44.6953672946
 11
-95.1274133655
 21
-44.7887116068
  0
LINE
  5
213
100
AcDbEntity
  8
0
100
AcDbLine
 62
7
  6
CONTINUOUS
 10
-95.3449357485
 20
-44.0116314943
 11
-98.8027014782
 21
-43.9120153955
  0
LINE
  5
214
100
AcDbEntity
  8
0
100
AcDbLine
 62
7
  6
CONTINUOUS
 10
-98.8383686056
 20
-43.8622900722
 11
-95.5298531101
 21
-43.9576063435
  0
LINE
  5
215
100
AcDbEntity
  8
0
100
AcDbLine
 62
7
  6
CONTINUOUS
 10
-101.0211501486
 20
11.4812395902
 11
-105.1460153155
 21
10.3684618266
  0
LINE
  5
216
100
AcDbEntity
  8
0
100
AcDbLine
 62
7
  6
CONTINUOUS
 10
-154.6142623277
 20
-0.7991547225
 11
-155.2287900639
 21
-0.9649377899
  0
LINE
  5
217
100
AcDbEntity
  8
0
100
AcDbLine
 62
7
  6
CONTINUOUS
 10
-155.530049426
 20
-0.7498892612
 11
-154.8974520743
 21
-0.5792314803
  0
LINE
  5
218
100
AcDbEntity
  8
0
100
AcDbLine
 62
7
  6
CONTINUOUS
 10
-73.9528831077
 20
-3.3764071424
 11
-73.9089720379
 21
-3.3702002781
  0
LWPOLYLINE
  5
219
100
AcDbEntity
  8
0
100
AcDbPolyline
 62
7
  6
CONTINUOUS
 90
4
 70
0
 10
-72.3512840357
 20
-3.1909608685
 10
-72.7640669384
 20
-3.2274122214
 10
-73.4871778856
 20
-3.3070556385
 10
-73.9536886174
 20
-3.3690185761
  0
LINE
  5
21A
100
AcDbEntity
  8
0
100
AcDbLine
 62
7
  6
CONTINUOUS
 10
-101.2799780689
 20
-66.5963139567
 11
-101.4099984604
 21
-66.5713793375
  0
LINE
  5
21B
100
AcDbEntity
  8
0
100
AcDbLine
 62
7
  6
CONTINUOUS
 10
-73.9536791988
 20
-3.3690176678
 11
-73.9089672898
 21
-3.3701948067
  0
LINE
  5
21C
100
AcDbEntity
  8
0
100
AcDbLine
 62
7
  6
CONTINUOUS
 10
-144.4218518123
 20
-34.1766996631
 11
-140.6534956169
 21
-35.1877570682
  0
LINE
  5
21D
100
AcDbEntity
  8
0
100
AcDbLine
 62
7
  6
CONTINUOUS
 10
-144.4218038317
 20
-34.1767176365
 11
-144.4216583179
 21
-34.1767598817
  0
LINE
  5
21E
100
AcDbEntity
  8
0
100
AcDbLine
 62
7
  6
CONTINUOUS
 10
-131.5634069323
 20
-38.5849907623
 11
-131.2977252232
 21
-38.6663699256
  0
LINE
  5
21F
100
AcDbEntity
  8
0
100
AcDbLine
 62
7
  6
CONTINUOUS
 10
-124.372812068
 20
20.1968127824
 11
-124.3728706466
 21
20.1968147354
  0
LINE
  5
220
100
AcDbEntity
  8
0
100
AcDbLine
 62
7
  6
CONTINUOUS
 10
-47.9603847346
 20
-5.6272569027
 11
-47.4566733304
 21
-5.7064245365
  0
LINE
  5
221
100
AcDbEntity
  8
0
100
AcDbLine
 62
7
  6
CONTINUOUS
 10
-31.7421593712
 20
-25.2628142053
 11
-31.6121389798
 21
-25.2877488245
  0
LINE
  5
222
100
AcDbEntity
  8
0
100
AcDbLine
 62
7
  6
CONTINUOUS
 10
-95.3449357485
 20
-44.0116314943
 11
-95.5298535811
 21
-43.9576197665
  0
LINE
  5
223
100
AcDbEntity
  8
0
100
AcDbLine
 62
7
  6
CONTINUOUS
 10
-131.9804312082
 20
-38.4549882107
 11
-131.9061137683
 21
-38.4783540799
  0
LINE
  5
224
100
AcDbEntity
  8
0
100
AcDbLine
 62
7
  6
CONTINUOUS
 10
-135.6398783578
 20
-37.1588447921
 11
-135.4813401413
 21
-37.2148720654
  0
LINE
  5
225
100
AcDbEntity
  8
0
100
AcDbLine
 62
7
  6
CONTINUOUS
 10
-131.9795517147
 20
-38.452401171
 11
-131.9061137683
 21
-38.4783540799
  0
LINE
  5
226
100
AcDbEntity
  8
0
100
AcDbLine
 62
7
  6
CONTINUOUS
 10
-135.6597692449
 20
-37.2128305993
 11
-135.5014942238
 21
-37.2697574946
  0
LINE
  5
227
100
AcDbEntity
  8
0
100
AcDbLine
 62
7
  6
CONTINUOUS
 10
-85.0617369197
 20
-86.2318776681
 11
-88.0149089721
 21
-84.8216173854
  0
LWPOLYLINE
  5
228
100
AcDbEntity
  8
0
100
AcDbPolyline
 62
7
  6
CONTINUOUS
 90
5
 70
0
 10
-62.5636370908
 20
-2.1920833235
 10
-63.9732370583
 20
-1.8919050964
 10
-66.7690655642
 20
-1.6855409574
 10
-69.347822822
 20
-2.0553045571
 10
-71.6592324582
 20
-3.0112915482
  0
LINE
  5
229
100
AcDbEntity
  8
0
100
AcDbLine
 62
7
  6
CONTINUOUS
 10
-56.5450652284
 20
-2.5365373373
 11
-56.5225488499
 21
-2.5422504328
  0
LINE
  5
22A
100
AcDbEntity
  8
0
100
AcDbLine
 62
7
  6
CONTINUOUS
 10
-62.5637146217
 20
-2.1920389567
 11
-62.1848888587
 21
-2.2929558857
  0
LINE
  5
22B
100
AcDbEntity
  8
0
100
AcDbLine
 62
7
  6
CONTINUOUS
 10
-123.4812628434
 20
18.7453153915
 11
-123.4477509082
 21
18.7360327238
  0
LWPOLYLINE
  5
22C
100
AcDbEntity
  8
0
100
AcDbPolyline
 62
7
  6
CONTINUOUS
 90
5
 70
0
 10
-56.5137621464
 20
-2.5453502617
 10
-57.4151916397
 20
-2.2915659872
 10
-59.3249980777
 20
-2.258840304
 10
-60.9799727812
 20
-2.9662018305
 10
-62.1983361771
 20
-4.1940358545
  0
LINE
  5
22D
100
AcDbEntity
  8
0
100
AcDbLine
 62
7
  6
CONTINUOUS
 10
-124.2807721376
 20
20.1695189129
 11
-124.372812068
 21
20.1968127824
  0
LWPOLYLINE
  5
22E
100
AcDbEntity
  8
0
100
AcDbPolyline
 62
7
  6
CONTINUOUS
 90
3
 70
0
 10
-47.4569874673
 20
-5.7062694903
 10
-48.0184425645
 20
-5.5317372542
 10
-48.7429837989
 20
-5.6336382196
  0
LWPOLYLINE
  5
22F
100
AcDbEntity
  8
0
100
AcDbPolyline
 62
7
  6
CONTINUOUS
 90
7
 70
0
 10
-147.2480322129
 20
11.6198946268
 10
-147.2976475382
 20
11.6364360582
 10
-147.5411638447
 20
11.6673896042
 10
-147.7974026443
 20
11.621143867
 10
-148.0481336745
 20
11.4995079787
 10
-148.2838761294
 20
11.3043930548
 10
-148.4202654782
 20
11.1418542225
  0
LINE
  5
230
100
AcDbEntity
  8
0
100
AcDbLine
 62
7
  6
CONTINUOUS
 10
-146.5554019744
 20
11.2154612309
 11
-147.0875797176
 21
11.4142536619
  0
LINE
  5
231
100
AcDbEntity
  8
0
100
AcDbLine
 62
7
  6
CONTINUOUS
 10
-147.2479952925
 20
11.6198384792
 11
-146.6797391241
 21
11.4075692536
  0
LINE
  5
232
100
AcDbEntity
  8
0
100
AcDbLine
 62
7
  6
CONTINUOUS
 10
-150.3655882836
 20
-30.4348307753
 11
-150.2680576856
 21
-30.4901623667
  0
LINE
  5
233
100
AcDbEntity
  8
0
100
AcDbLine
 62
7
  6
CONTINUOUS
 10
-150.2520185339
 20
-30.3119826948
 11
-150.3985659158
 21
-30.2285388079
  0
LINE
  5
234
100
AcDbEntity
  8
0
100
AcDbLine
 62
7
  6
CONTINUOUS
 10
-89.7965422177
 20
-70.8995506793
 11
-87.8184399688
 21
-72.0356773685
  0
LINE
  5
235
100
AcDbEntity
  8
0
100
AcDbLine
 62
7
  6
CONTINUOUS
 10
-77.2161800492
 20
-76.3529919171
 11
-75.2380778003
 21
-77.4891186063
  0
LINE
  5
236
100
AcDbEntity
  8
0
100
AcDbLine
 62
7
  6
CONTINUOUS
 10
-66.5032012049
 20
-78.1084814642
 11
-87.1319818006
 21
-66.2603031344
  0
LINE
  5
237
100
AcDbEntity
  8
0
100
AcDbLine
 62
7
  6
CONTINUOUS
 10
-58.9011108908
 20
-81.1522246922
 11
-54.0971482863
 21
-83.9113895087
  0
LINE
  5
238
100
AcDbEntity
  8
0
100
AcDbLine
 62
7
  6
CONTINUOUS
 10
-127.725836543
 20
-40.7540594216
 11
-108.4097283795
 21
-51.8483019096
  0
LINE
  5
239
100
AcDbEntity
  8
0
100
AcDbLine
 62
7
  6
CONTINUOUS
 10
-58.0274781413
 20
-80.2835255458
 11
-55.0779213581
 21
-81.9776089454
  0
LINE
  5
23A
100
AcDbEntity
  8
0
100
AcDbLine
 62
7
  6
CONTINUOUS
 10
-137.952964447
 20
-31.3051563896
 11
-134.1963143075
 21
-33.4627953527
  0
LINE
  5
23B
100
AcDbEntity
  8
0
100
AcDbLine
 62
7
  6
CONTINUOUS
 10
-150.2531684104
 20
-30.3167447826
 11
-150.2858630327
 21
-30.2969516992
  0
LINE
  5
23C
100
AcDbEntity
  8
0
100
AcDbLine
 62
7
  6
CONTINUOUS
 10
-122.6840513922
 20
18.3828668339
 11
-122.7280879452
 21
18.3967646256
  0
LINE
  5
23D
100
AcDbEntity
  8
0
100
AcDbLine
 62
7
  6
CONTINUOUS
 10
-122.6841471456
 20
18.3826382878
 11
-122.7280879452
 21
18.3967646256
  0
LINE
  5
23E
100
AcDbEntity
  8
0
100
AcDbLine
 62
7
  6
CONTINUOUS
 10
-123.4682538585
 20
18.7233938948
 11
-123.4433397074
 21
18.7148930509
  0
LINE
  5
23F
100
AcDbEntity
  8
0
100
AcDbLine
 62
7
  6
CONTINUOUS
 10
-56.5536069683
 20
-2.5314564819
 11
-56.5303237388
 21
-2.5396239127
  0
LINE
  5
240
100
AcDbEntity
  8
0
100
AcDbLine
 62
7
  6
CONTINUOUS
 10
-123.4812540516
 20
18.6934182694
 11
-123.4565074853
 21
18.6846090863
  0
LINE
  5
241
100
AcDbEntity
  8
0
100
AcDbLine
 62
7
  6
CONTINUOUS
 10
-123.4766197829
 20
18.7568182434
 11
-123.4440775997
 21
18.7450962428
  0
LINE
  5
242
100
AcDbEntity
  8
0
100
AcDbLine
 62
7
  6
CONTINUOUS
 10
-120.473635496
 20
17.5587785406
 11
-120.5423084309
 21
17.5882897691
  0
LINE
  5
243
100
AcDbEntity
  8
0
100
AcDbLine
 62
7
  6
CONTINUOUS
 10
-120.4904832361
 20
17.5243333993
 11
-120.5587800581
 21
17.5544538954
  0
LINE
  5
244
100
AcDbEntity
  8
0
100
AcDbLine
 62
7
  6
CONTINUOUS
 10
-72.9609713688
 20
-58.4407074483
 11
-54.2357156136
 21
-69.1955927615
  0
LINE
  5
245
100
AcDbEntity
  8
0
100
AcDbLine
 62
7
  6
CONTINUOUS
 10
-72.9539774323
 20
-57.6511688001
 11
-65.2653336332
 21
-62.0671556018
  0
LINE
  5
246
100
AcDbEntity
  8
0
100
AcDbLine
 62
7
  6
CONTINUOUS
 10
-94.7797636719
 20
-44.336239123
 11
-95.3449357485
 21
-44.0116314943
  0
LINE
  5
247
100
AcDbEntity
  8
0
100
AcDbLine
 62
7
  6
CONTINUOUS
 10
-72.0476871114
 20
-52.4056770584
 11
-62.7750902527
 21
-57.7314102327
  0
LINE
  5
248
100
AcDbEntity
  8
0
100
AcDbLine
 62
7
  6
CONTINUOUS
 10
-71.6985447298
 20
-51.0933547541
 11
-50.7493748809
 21
-63.1255492447
  0
LINE
  5
249
100
AcDbEntity
  8
0
100
AcDbLine
 62
7
  6
CONTINUOUS
 10
-68.1729401352
 20
-43.4282179797
 11
-61.2967614692
 21
-47.3775639279
  0
LINE
  5
24A
100
AcDbEntity
  8
0
100
AcDbLine
 62
7
  6
CONTINUOUS
 10
-59.8894776689
 20
-47.6039162857
 11
-44.4735401858
 21
-56.4580885222
  0
LINE
  5
24B
100
AcDbEntity
  8
0
100
AcDbLine
 62
7
  6
CONTINUOUS
 10
-150.2858630327
 20
-30.2969516992
 11
-150.3985659158
 21
-30.2285388079
  0
LINE
  5
24C
100
AcDbEntity
  8
0
100
AcDbLine
 62
7
  6
CONTINUOUS
 10
-153.9152297552
 20
-27.9402943671
 11
-153.9474804797
 21
-27.9176703496
  0
LINE
  5
24D
100
AcDbEntity
  8
0
100
AcDbLine
 62
7
  6
CONTINUOUS
 10
-93.3142868902
 20
-81.3786234061
 11
-93.3694103496
 21
-81.338208968
  0
LINE
  5
24E
100
AcDbEntity
  8
0
100
AcDbLine
 62
7
  6
CONTINUOUS
 10
-49.0644463931
 20
-5.7945810518
 11
-49.0356873054
 21
-5.8089501476
  0
LINE
  5
24F
100
AcDbEntity
  8
0
100
AcDbLine
 62
7
  6
CONTINUOUS
 10
-47.4566733304
 20
-5.7064245365
 11
-47.452089876
 21
-5.7087917577
  0
LINE
  5
250
100
AcDbEntity
  8
0
100
AcDbLine
 62
7
  6
CONTINUOUS
 10
-49.0623730682
 20
-5.7906912638
 11
-49.0338989247
 21
-5.8056232724
  0
LINE
  5
251
100
AcDbEntity
  8
0
100
AcDbLine
 62
7
  6
CONTINUOUS
 10
-65.1363998411
 20
-39.4062392544
 11
-58.8065180887
 21
-43.0418185588
  0
LINE
  5
252
100
AcDbEntity
  8
0
100
AcDbLine
 62
7
  6
CONTINUOUS
 10
-61.8083427783
 20
-40.7357912919
 11
-41.9832968053
 21
-52.1223431531
  0
LINE
  5
253
100
AcDbEntity
  8
0
100
AcDbLine
 62
7
  6
CONTINUOUS
 10
-61.8819476262
 20
-36.1944256588
 11
-48.4467264317
 21
-43.9109698275
  0
LINE
  5
254
100
AcDbEntity
  8
0
100
AcDbLine
 62
7
  6
CONTINUOUS
 10
-57.2663307365
 20
-33.0793924998
 11
-45.9564830512
 21
-39.5752244584
  0
LINE
  5
255
100
AcDbEntity
  8
0
100
AcDbLine
 62
7
  6
CONTINUOUS
 10
-104.4952152209
 20
-2.0657053327
 11
-103.0768878793
 21
-2.8803242674
  0
LINE
  5
256
100
AcDbEntity
  8
0
100
AcDbLine
 62
7
  6
CONTINUOUS
 10
-98.1349561755
 20
-5.7187318916
 11
-96.5674972354
 21
-6.619004836
  0
LINE
  5
257
100
AcDbEntity
  8
0
100
AcDbLine
 62
7
  6
CONTINUOUS
 10
-115.1365694597
 20
8.406959696
 11
-111.4618732631
 21
6.2963911317
  0
LINE
  5
258
100
AcDbEntity
  8
0
100
AcDbLine
 62
7
  6
CONTINUOUS
 10
-93.9409760969
 20
-0.1918354116
 11
-82.5125832493
 21
-6.7557540035
  0
LINE
  5
259
100
AcDbEntity
  8
0
100
AcDbLine
 62
7
  6
CONTINUOUS
 10
-38.7120850785
 20
-29.7215631448
 11
-59.3408656742
 21
-17.8733848149
  0
LINE
  5
25A
100
AcDbEntity
  8
0
100
AcDbLine
 62
7
  6
CONTINUOUS
 10
-105.1460153155
 20
10.3684618266
 11
-103.4504991021
 21
9.3946389501
  0
LINE
  5
25B
100
AcDbEntity
  8
0
100
AcDbLine
 62
7
  6
CONTINUOUS
 10
-101.0211501486
 20
11.4812395902
 11
-99.3256339353
 21
10.5074167138
  0
LINE
  5
25C
100
AcDbEntity
  8
0
100
AcDbLine
 62
7
  6
CONTINUOUS
 10
-56.6763052571
 20
-13.23413727
 11
-54.6982030082
 21
-14.3702639591
  0
LINE
  5
25D
100
AcDbEntity
  8
0
100
AcDbLine
 62
7
  6
CONTINUOUS
 10
-122.7281152305
 20
18.3967912649
 11
-122.6907308622
 21
18.3750805925
  0
LINE
  5
25E
100
AcDbEntity
  8
0
100
AcDbLine
 62
7
  6
CONTINUOUS
 10
-117.9722079466
 20
16.2938164822
 11
-118.0690152364
 21
16.3501027166
  0
LINE
  5
25F
100
AcDbEntity
  8
0
100
AcDbLine
 62
7
  6
CONTINUOUS
 10
-97.1264380064
 20
-78.2305119906
 11
-93.3694826416
 21
-81.3381446479
  0
LINE
  5
260
100
AcDbEntity
  8
0
100
AcDbLine
 62
7
  6
CONTINUOUS
 10
-108.0655832579
 20
-49.0289872647
 11
-108.0191776802
 21
-49.0676431794
  0
LINE
  5
261
100
AcDbEntity
  8
0
100
AcDbLine
 62
7
  6
CONTINUOUS
 10
-108.0655832579
 20
-49.0289872647
 11
-108.0196953801
 21
-49.0677383687
  0
LINE
  5
262
100
AcDbEntity
  8
0
100
AcDbLine
 62
7
  6
CONTINUOUS
 10
-102.5118804132
 20
-51.2412724632
 11
-102.6114050736
 21
-51.1572354009
  0
LINE
  5
263
100
AcDbEntity
  8
0
100
AcDbLine
 62
7
  6
CONTINUOUS
 10
-153.9474804797
 20
-27.9176703496
 11
-153.9476524824
 21
-27.9175235435
  0
LINE
  5
264
100
AcDbEntity
  8
0
100
AcDbLine
 62
7
  6
CONTINUOUS
 10
-47.4566733304
 20
-5.7064245365
 11
-45.0071416338
 21
-7.0374666611
  0
LINE
  5
265
100
AcDbEntity
  8
0
100
AcDbLine
 62
7
  6
CONTINUOUS
 10
-53.8377759521
 20
-8.338443934
 11
-53.8729175621
 21
-8.3168730958
  0
LINE
  5
266
100
AcDbEntity
  8
0
100
AcDbLine
 62
7
  6
CONTINUOUS
 10
-118.036435594
 20
16.3312437482
 11
-113.9346740076
 21
13.8113049105
  0
LINE
  5
267
100
AcDbEntity
  8
0
100
AcDbLine
 62
7
  6
CONTINUOUS
 10
-122.7281152305
 20
18.3967912649
 11
-122.6913835579
 21
18.3736517789
  0
LINE
  5
268
100
AcDbEntity
  8
0
100
AcDbLine
 62
7
  6
CONTINUOUS
 10
-53.8460823319
 20
-8.3523511033
 11
-53.8805992268
 21
-8.329765655
  0
LINE
  5
269
100
AcDbEntity
  8
0
100
AcDbLine
 62
7
  6
CONTINUOUS
 10
-113.909773331
 20
13.794872767
 11
-113.9346740076
 21
13.8113049105
  0
LINE
  5
26A
100
AcDbEntity
  8
0
100
AcDbLine
 62
7
  6
CONTINUOUS
 10
-95.6501445811
 20
-78.6463958356
 11
-95.7724244191
 21
-78.5208641413
  0
LINE
  5
26B
100
AcDbEntity
  8
0
100
AcDbLine
 62
7
  6
CONTINUOUS
 10
-30.510257027
 20
-40.6178556989
 11
-30.4107323666
 21
-40.7018927611
  0
LWPOLYLINE
  5
26C
100
AcDbEntity
  8
0
100
AcDbPolyline
 62
7
  6
CONTINUOUS
 90
3
 70
0
 10
-102.3063476982
 20
-71.3868797909
 10
-98.9990862166
 20
-75.4223380342
 10
-95.6501691875
 20
-78.6464292468
  0
LINE
  5
26D
100
AcDbEntity
  8
0
100
AcDbLine
 62
7
  6
CONTINUOUS
 10
-153.9312945876
 20
-26.0873051936
 11
-153.9452630848
 21
-26.0670664769
  0
LWPOLYLINE
  5
26E
100
AcDbEntity
  8
0
100
AcDbPolyline
 62
7
  6
CONTINUOUS
 90
4
 70
0
 10
-111.0664302536
 20
10.7379626993
 10
-112.5065154925
 20
12.4767524597
 10
-113.5845474271
 20
13.5524950589
 10
-113.9103119425
 20
13.7952444935
  0
LINE
  5
26F
100
AcDbEntity
  8
0
100
AcDbLine
 62
7
  6
CONTINUOUS
 10
-153.9231091928
 20
-26.0791762773
 11
-153.9362204569
 21
-26.0581021668
  0
LINE
  5
270
100
AcDbEntity
  8
0
100
AcDbLine
 62
7
  6
CONTINUOUS
 10
-110.6825764864
 20
10.2517755776
 11
-111.0664302536
 21
10.7379626993
  0
LINE
  5
271
100
AcDbEntity
  8
0
100
AcDbLine
 62
7
  6
CONTINUOUS
 10
-103.4504991021
 20
9.3946389501
 11
-103.0644360943
 21
8.8532639553
  0
LINE
  5
272
100
AcDbEntity
  8
0
100
AcDbLine
 62
7
  6
CONTINUOUS
 10
-98.9395709274
 20
9.9660417189
 11
-99.3256339353
 21
10.5074167138
  0
LWPOLYLINE
  5
273
100
AcDbEntity
  8
0
100
AcDbPolyline
 62
7
  6
CONTINUOUS
 90
7
 70
0
 10
-135.4946939637
 20
18.9275961476
 10
-135.5448781375
 20
19.0009094804
 10
-135.7242764873
 20
19.1687569243
 10
-135.9609849383
 20
19.2766398483
 10
-136.2453679282
 20
19.3064559823
 10
-136.5518922852
 20
19.2440570856
 10
-136.7465093043
 20
19.1549924985
  0
LINE
  5
274
100
AcDbEntity
  8
0
100
AcDbLine
 62
7
  6
CONTINUOUS
 10
-135.494842978
 20
18.9277688454
 11
-135.1601076195
 21
18.3205399579
  0
LINE
  5
275
100
AcDbEntity
  8
0
100
AcDbLine
 62
7
  6
CONTINUOUS
 10
-103.1205929795
 20
6.3001291289
 11
-103.5947092911
 21
7.013156151
  0
LINE
  5
276
100
AcDbEntity
  8
0
100
AcDbLine
 62
7
  6
CONTINUOUS
 10
-158.3859852426
 20
-15.9812400972
 11
-158.3860056419
 21
-15.9811596713
  0
LINE
  5
277
100
AcDbEntity
  8
0
100
AcDbLine
 62
7
  6
CONTINUOUS
 10
-98.2629855253
 20
-35.0775715192
 11
-98.3168627272
 21
-34.9472258949
  0
LWPOLYLINE
  5
278
100
AcDbEntity
  8
0
100
AcDbPolyline
 62
7
  6
CONTINUOUS
 90
5
 70
0
 10
-104.8094680596
 20
-67.333627674
 10
-104.5333310088
 20
-68.1046040041
 10
-102.677236199
 20
-71.5887368217
 10
-100.2125797801
 20
-74.9738838279
 10
-97.1264380064
 20
-78.2305119906
  0
LINE
  5
279
100
AcDbEntity
  8
0
100
AcDbLine
 62
7
  6
CONTINUOUS
 10
-135.4674516972
 20
18.8306577447
 11
-135.4945449292
 21
18.9272759378
  0
LWPOLYLINE
  5
27A
100
AcDbEntity
  8
0
100
AcDbPolyline
 62
7
  6
CONTINUOUS
 90
6
 70
0
 10
-145.0686897471
 20
-33.3252299317
 10
-145.0611310974
 20
-33.4420949145
 10
-144.9881368091
 20
-33.6964065587
 10
-144.8392209377
 20
-33.9202938944
 10
-144.6221001611
 20
-34.0925646878
 10
-144.4216583179
 20
-34.1767598817
  0
LWPOLYLINE
  5
27B
100
AcDbEntity
  8
0
100
AcDbPolyline
 62
7
  6
CONTINUOUS
 90
3
 70
0
 10
-123.343772468
 20
16.6252835734
 10
-123.5301850049
 20
17.7168341164
 10
-123.5677943965
 20
18.3544787781
  0
LINE
  5
27C
100
AcDbEntity
  8
0
100
AcDbLine
 62
7
  6
CONTINUOUS
 10
-135.1711060318
 20
18.3904445931
 11
-135.1601076195
 21
18.3205399579
  0
LWPOLYLINE
  5
27D
100
AcDbEntity
  8
0
100
AcDbPolyline
 62
7
  6
CONTINUOUS
 90
7
 70
0
 10
-123.4813254148
 20
19.3069250714
 10
-123.4994657965
 20
19.487048006
 10
-123.5851013245
 20
19.7246851502
 10
-123.7378697939
 20
19.9300721762
 10
-123.9511380619
 20
20.0868338836
 10
-124.2135527365
 20
20.1788935096
 10
-124.3728025782
 20
20.1968366549
  0
LINE
  5
27E
100
AcDbEntity
  8
0
100
AcDbLine
 62
7
  6
CONTINUOUS
 10
-145.0686567181
 20
-33.3252674504
 11
-145.0686773361
 21
-33.2044492107
  0
LINE
  5
27F
100
AcDbEntity
  8
0
100
AcDbLine
 62
7
  6
CONTINUOUS
 10
-144.7260050398
 20
-33.3835230136
 11
-144.7259833013
 21
-33.5118444465
  0
LINE
  5
280
100
AcDbEntity
  8
0
100
AcDbLine
 62
7
  6
CONTINUOUS
 10
-98.1349561755
 20
-5.7187318916
 11
-98.5280226733
 21
-4.0876225343
  0
LINE
  5
281
100
AcDbEntity
  8
0
100
AcDbLine
 62
7
  6
CONTINUOUS
 10
-96.709991232
 20
-5.942229637
 11
-96.5674972354
 21
-6.619004836
  0
LINE
  5
282
100
AcDbEntity
  8
0
100
AcDbLine
 62
7
  6
CONTINUOUS
 10
-92.4426320686
 20
-5.5062270724
 11
-92.5851260651
 21
-4.8294518735
  0
LINE
  5
283
100
AcDbEntity
  8
0
100
AcDbLine
 62
7
  6
CONTINUOUS
 10
-108.3520467493
 20
-55.132209294
 11
-108.3541159336
 21
-55.1002516619
  0
LINE
  5
284
100
AcDbEntity
  8
0
100
AcDbLine
 62
7
  6
CONTINUOUS
 10
-104.4952152209
 20
-2.0657053327
 11
-105.1460153155
 21
10.3684618266
  0
LINE
  5
285
100
AcDbEntity
  8
0
100
AcDbLine
 62
7
  6
CONTINUOUS
 10
-103.5947092911
 20
7.013156151
 11
-103.0768878793
 21
-2.8803242674
  0
LWPOLYLINE
  5
286
100
AcDbEntity
  8
0
100
AcDbPolyline
 62
7
  6
CONTINUOUS
 90
3
 70
0
 10
-108.5323895525
 20
-49.1962813363
 10
-108.5347604992
 20
-49.1450198068
 10
-108.5341343023
 20
-49.13814136
  0
LINE
  5
287
100
AcDbEntity
  8
0
100
AcDbLine
 62
7
  6
CONTINUOUS
 10
-108.3520467493
 20
-55.132209294
 11
-108.3532839776
 21
-55.1002719573
  0
LINE
  5
288
100
AcDbEntity
  8
0
100
AcDbLine
 62
7
  6
CONTINUOUS
 10
-123.5678073648
 20
18.3551161751
 11
-123.5678557703
 21
18.3781607541
  0
LINE
  5
289
100
AcDbEntity
  8
0
100
AcDbLine
 62
7
  6
CONTINUOUS
 10
-123.4818524338
 20
18.6121753248
 11
-123.4819684374
 21
19.2969390914
  0
LINE
  5
28A
100
AcDbEntity
  8
0
100
AcDbLine
 62
7
  6
CONTINUOUS
 10
-108.5359509929
 20
-49.1969571414
 11
-108.5346002483
 21
-49.138230942
  0
LWPOLYLINE
  5
28B
100
AcDbEntity
  8
0
100
AcDbPolyline
 62
7
  6
CONTINUOUS
 90
6
 70
0
 10
-108.3140086048
 20
-50.8943146038
 10
-108.407201995
 20
-54.6645162893
 10
-107.8909166891
 20
-58.8370407829
 10
-106.7194944024
 20
-63.0384321402
 10
-104.8684372361
 20
-67.2381400806
 10
-102.3063476982
 20
-71.3868797909
  0
LINE
  5
28C
100
AcDbEntity
  8
0
100
AcDbLine
 62
7
  6
CONTINUOUS
 10
-123.4819684374
 20
19.2969390914
 11
-123.4813579413
 21
19.3066738704
  0
LINE
  5
28D
100
AcDbEntity
  8
0
100
AcDbLine
 62
7
  6
CONTINUOUS
 10
-156.3363187759
 20
-1.697050337
 11
-156.3362988802
 21
-1.6969627522
  0
LINE
  5
28E
100
AcDbEntity
  8
0
100
AcDbLine
 62
7
  6
CONTINUOUS
 10
-89.1801765635
 20
-20.4091778226
 11
-89.1801491356
 21
-20.5659880691
  0
LINE
  5
28F
100
AcDbEntity
  8
0
100
AcDbLine
 62
7
  6
CONTINUOUS
 10
-89.1801765635
 20
-20.4091778226
 11
-89.1772350399
 21
-20.3309589919
  0
LINE
  5
290
100
AcDbEntity
  8
0
100
AcDbLine
 62
7
  6
CONTINUOUS
 10
-108.2902871156
 20
-50.9230485211
 11
-108.2877951607
 21
-50.8970608164
  0
LWPOLYLINE
  5
291
100
AcDbEntity
  8
0
100
AcDbPolyline
 62
7
  6
CONTINUOUS
 90
4
 70
0
 10
-108.1100620379
 20
-49.1767478572
 10
-108.1559265157
 20
-49.5149942337
 10
-108.2579357643
 20
-50.3566582211
 10
-108.3140053959
 20
-50.8942842878
  0
LINE
  5
292
100
AcDbEntity
  8
0
100
AcDbLine
 62
7
  6
CONTINUOUS
 10
-123.4812407541
 20
18.614898022
 11
-123.4818524338
 21
18.6121753248
  0
LWPOLYLINE
  5
293
100
AcDbEntity
  8
0
100
AcDbPolyline
 62
7
  6
CONTINUOUS
 90
6
 70
0
 10
-154.2071810096
 20
-26.7042226189
 10
-154.2621072272
 20
-26.8550690265
 10
-154.3003400658
 20
-27.1719838742
 10
-154.2393710559
 20
-27.4928519206
 10
-154.0800042937
 20
-27.7801987975
 10
-153.9475074635
 20
-27.9176804219
  0
LINE
  5
294
100
AcDbEntity
  8
0
100
AcDbLine
 62
7
  6
CONTINUOUS
 10
-154.2071463266
 20
-26.704219785
 11
-153.9045898517
 21
-26.0384231764
  0
LINE
  5
295
100
AcDbEntity
  8
0
100
AcDbLine
 62
7
  6
CONTINUOUS
 10
-153.5581530467
 20
-26.22714068
 11
-153.8653145997
 21
-26.903071084
  0
LINE
  5
296
100
AcDbEntity
  8
0
100
AcDbLine
 62
7
  6
CONTINUOUS
 10
-148.305878455
 20
11.0954239828
 11
-148.3202319219
 21
11.0741989386
  0
LINE
  5
297
100
AcDbEntity
  8
0
100
AcDbLine
 62
7
  6
CONTINUOUS
 10
-148.305878455
 20
11.0954239828
 11
-148.3208876417
 21
11.0747570413
  0
LINE
  5
298
100
AcDbEntity
  8
0
100
AcDbLine
 62
7
  6
CONTINUOUS
 10
-136.7464402033
 20
19.1550078446
 11
-136.746534206
 21
19.1549547421
  0
LWPOLYLINE
  5
299
100
AcDbEntity
  8
0
100
AcDbPolyline
 62
7
  6
CONTINUOUS
 90
6
 70
0
 10
-155.530100582
 20
-0.7498663979
 10
-155.7374220137
 20
-0.8356658578
 10
-155.953523526
 20
-0.9989169085
 10
-156.1401014713
 20
-1.2285294477
 10
-156.2803155636
 20
-1.5098921515
 10
-156.3363317514
 20
-1.6970202672
  0
LINE
  5
29A
100
AcDbEntity
  8
0
100
AcDbLine
 62
7
  6
CONTINUOUS
 10
-36.5463441429
 20
-27.176712305
 11
-36.546378857
 21
-27.1761747382
  0
LINE
  5
29B
100
AcDbEntity
  8
0
100
AcDbLine
 62
7
  6
CONTINUOUS
 10
-55.0779213581
 20
-81.9776089454
 11
-55.0782424448
 21
-80.0822488907
  0
LINE
  5
29C
100
AcDbEntity
  8
0
100
AcDbLine
 62
7
  6
CONTINUOUS
 10
-50.1284042446
 20
-78.7469155743
 11
-50.1280831579
 21
-80.642275629
  0
LINE
  5
29D
100
AcDbEntity
  8
0
100
AcDbLine
 62
7
  6
CONTINUOUS
 10
-99.1502827518
 20
-43.1666864741
 11
-99.158426265
 21
-43.1974686428
  0
LWPOLYLINE
  5
29E
100
AcDbEntity
  8
0
100
AcDbPolyline
 62
7
  6
CONTINUOUS
 90
8
 70
0
 10
-105.6993106985
 20
-35.5440294543
 10
-107.0212281309
 20
-39.2770531296
 10
-107.8591867679
 20
-43.5504523651
 10
-108.04647558
 20
-48.0046857268
 10
-107.5484579967
 20
-52.6124863028
 10
-106.3176419423
 20
-57.3313523532
 10
-104.2983232101
 20
-62.1059234856
 10
-101.8560289147
 20
-66.2481773855
  0
LWPOLYLINE
  5
29F
100
AcDbEntity
  8
0
100
AcDbPolyline
 62
7
  6
CONTINUOUS
 90
6
 70
0
 10
-158.0535838515
 20
-14.795197238
 10
-158.1324484959
 20
-14.8757651971
 10
-158.2894840863
 20
-15.1101214238
 10
-158.3906333703
 20
-15.3925720083
 10
-158.4228501154
 20
-15.7012132139
 10
-158.386000267
 20
-15.9812712504
  0
LINE
  5
2A0
100
AcDbEntity
  8
0
100
AcDbLine
 62
7
  6
CONTINUOUS
 10
-158.0535723578
 20
-14.7952292044
 11
-157.5251471671
 21
-14.3126545829
  0
LINE
  5
2A1
100
AcDbEntity
  8
0
100
AcDbLine
 62
7
  6
CONTINUOUS
 10
-157.177488234
 20
-14.5042269335
 11
-157.709554801
 21
-14.9901269752
  0
LWPOLYLINE
  5
2A2
100
AcDbEntity
  8
0
100
AcDbPolyline
 62
7
  6
CONTINUOUS
 90
4
 70
0
 10
-36.547807967
 20
-27.1169455054
 10
-36.5468626513
 20
-27.099135457
 10
-36.5535916377
 20
-27.1190918581
 10
-36.6183543925
 20
-27.241054568
  0
LINE
  5
2A3
100
AcDbEntity
  8
0
100
AcDbLine
 62
7
  6
CONTINUOUS
 10
-95.1244113536
 20
-62.5094480993
 11
-94.7768825864
 21
-61.3431525351
  0
LINE
  5
2A4
100
AcDbEntity
  8
0
100
AcDbLine
 62
7
  6
CONTINUOUS
 10
-99.1250833845
 20
-43.1688204059
 11
-99.1345245173
 21
-43.199469618
  0
LINE
  5
2A5
100
AcDbEntity
  8
0
100
AcDbLine
 62
7
  6
CONTINUOUS
 10
-76.6461511677
 20
-9.9157775688
 11
-76.4909824176
 21
-9.4210371199
  0
LINE
  5
2A6
100
AcDbEntity
  8
0
100
AcDbLine
 62
7
  6
CONTINUOUS
 10
-76.491198128
 20
-9.4216759109
 11
-76.4200264825
 21
-9.2109114338
  0
LINE
  5
2A7
100
AcDbEntity
  8
0
100
AcDbLine
 62
7
  6
CONTINUOUS
 10
-76.6461507485
 20
-9.9157791456
 11
-76.5923242266
 21
-9.7563772152
  0
LINE
  5
2A8
100
AcDbEntity
  8
0
100
AcDbLine
 62
7
  6
CONTINUOUS
 10
-103.7637230332
 20
-29.0850007231
 11
-103.7635633226
 21
-29.0846328037
  0
LWPOLYLINE
  5
2A9
100
AcDbEntity
  8
0
100
AcDbPolyline
 62
7
  6
CONTINUOUS
 90
4
 70
0
 10
-104.9656120757
 20
-33.9416417813
 10
-105.0983172612
 20
-34.2203191737
 10
-105.4704503551
 20
-35.0273716132
 10
-105.6993057505
 20
-35.5440212332
  0
LINE
  5
2AA
100
AcDbEntity
  8
0
100
AcDbLine
 62
7
  6
CONTINUOUS
 10
-99.8413067027
 20
-22.2522814147
 11
-99.832106363
 21
-22.2397404792
  0
LWPOLYLINE
  5
2AB
100
AcDbEntity
  8
0
100
AcDbPolyline
 62
7
  6
CONTINUOUS
 90
8
 70
0
 10
-98.2578468007
 20
-21.1286294468
 10
-100.5917383217
 20
-24.2687671823
 10
-102.5952052117
 20
-28.0381942877
 10
-104.0036476483
 20
-32.142476919
 10
-104.7748070591
 20
-36.5624905111
 10
-104.8500393976
 20
-41.269494541
 10
-104.1582369671
 20
-46.224092335
 10
-102.8151685293
 20
-50.8456516275
  0
LWPOLYLINE
  5
2AC
100
AcDbEntity
  8
0
100
AcDbPolyline
 62
7
  6
CONTINUOUS
 90
8
 70
0
 10
-87.1177427525
 20
-9.8318958185
 10
-90.0948543397
 20
-11.9132160984
 10
-92.9014617541
 20
-14.6490711551
 10
-95.2105018028
 20
-17.8526544823
 10
-96.976972585
 20
-21.5167077475
 10
-98.1382042027
 20
-25.6312838152
 10
-98.6160075637
 20
-30.1811316034
 10
-98.3709505911
 20
-34.7348333697
  0
LINE
  5
2AD
100
AcDbEntity
  8
0
100
AcDbLine
 62
7
  6
CONTINUOUS
 10
-87.1047910435
 20
-9.8524745117
 11
-87.0621460194
 21
-9.825634812
  0
LINE
  5
2AE
100
AcDbEntity
  8
0
100
AcDbLine
 62
7
  6
CONTINUOUS
 10
-87.1056908658
 20
-9.8513890026
 11
-87.0621460194
 21
-9.825634812
  0
LWPOLYLINE
  5
2AF
100
AcDbEntity
  8
0
100
AcDbPolyline
 62
7
  6
CONTINUOUS
 90
4
 70
0
 10
-85.6329138344
 20
-8.9992674026
 10
-85.9564957936
 20
-9.1730939237
 10
-86.6653129172
 20
-9.5686555273
 10
-87.1177262672
 20
-9.8318858099
  0
LINE
  5
2B0
100
AcDbEntity
  8
0
100
AcDbLine
 62
7
  6
CONTINUOUS
 10
-62.3374858125
 20
-4.3866549283
 11
-62.5691778564
 21
-4.7483407865
  0
LINE
  5
2B1
100
AcDbEntity
  8
0
100
AcDbLine
 62
7
  6
CONTINUOUS
 10
-62.3378548598
 20
-4.3871658229
 11
-62.1917088337
 21
-4.1848463848
  0
LINE
  5
2B2
100
AcDbEntity
  8
0
100
AcDbLine
 62
7
  6
CONTINUOUS
 10
-62.5691779971
 20
-4.7483425126
 11
-62.4696921257
 21
-4.6106163974
  0
LINE
  5
2B3
100
AcDbEntity
  8
0
100
AcDbLine
 62
7
  6
CONTINUOUS
 10
-94.7797636719
 20
-44.336239123
 11
-95.1274133655
 21
-44.7887116068
  0
LINE
  5
2B4
100
AcDbEntity
  8
0
100
AcDbLine
 62
7
  6
CONTINUOUS
 10
-98.2315553951
 20
-21.1500603655
 11
-98.2148453113
 21
-21.1295604701
  0
LINE
  5
2B5
100
AcDbEntity
  8
0
100
AcDbLine
 62
7
  6
CONTINUOUS
 10
-98.3674588089
 20
-44.6953680476
 11
-98.1016152261
 21
-44.372201527
  0
LINE
  5
2B6
100
AcDbEntity
  8
0
100
AcDbLine
 62
7
  6
CONTINUOUS
 10
-98.2321194323
 20
-21.1496228721
 11
-98.2148453113
 21
-21.1295604701
  0
LWPOLYLINE
  5
2B7
100
AcDbEntity
  8
0
100
AcDbPolyline
 62
7
  6
CONTINUOUS
 90
4
 70
0
 10
-97.0888758134
 20
-19.8221231297
 10
-97.3056624866
 20
-20.0569836894
 10
-97.8908467485
 20
-20.707657717
 10
-98.257842123
 20
-21.1286259909
  0
LWPOLYLINE
  5
2B8
100
AcDbEntity
  8
0
100
AcDbPolyline
 62
7
  6
CONTINUOUS
 90
4
 70
0
 10
-71.6592324582
 20
-3.0112915482
 10
-73.6626592043
 20
-4.5652402616
 10
-75.3176951894
 20
-6.7524859181
 10
-76.4208932428
 20
-9.2134786774
  0
LINE
  5
2B9
100
AcDbEntity
  8
0
100
AcDbLine
 62
7
  6
CONTINUOUS
 10
-49.0923223752
 20
-5.8503735548
 11
-48.962322976
 21
-5.7552908072
  0
LWPOLYLINE
  5
2BA
100
AcDbEntity
  8
0
100
AcDbPolyline
 62
7
  6
CONTINUOUS
 90
3
 70
0
 10
-36.6183543925
 20
-27.241054568
 10
-36.7720400489
 20
-27.3897878307
 10
-36.8180899165
 20
-27.4185757004
  0
LINE
  5
2BB
100
AcDbEntity
  8
0
100
AcDbLine
 62
7
  6
CONTINUOUS
 10
-39.7853668876
 20
-29.1051217505
 11
-36.8182274832
 21
-27.4186417472
  0
LINE
  5
2BC
100
AcDbEntity
  8
0
100
AcDbLine
 62
7
  6
CONTINUOUS
 10
-36.5190840839
 20
-27.4470438311
 11
-39.6117215345
 21
-29.2048552806
  0
LINE
  5
2BD
100
AcDbEntity
  8
0
100
AcDbLine
 62
7
  6
CONTINUOUS
 10
-37.8977260866
 20
-29.3496800628
 11
-34.6580081389
 21
-27.5082696592
  0
LINE
  5
2BE
100
AcDbEntity
  8
0
100
AcDbLine
 62
7
  6
CONTINUOUS
 10
-95.1244113536
 20
-62.5094480993
 11
-98.3641293013
 21
-64.3508585028
  0
LINE
  5
2BF
100
AcDbEntity
  8
0
100
AcDbLine
 62
7
  6
CONTINUOUS
 10
-70.452959443
 20
-87.1107856494
 11
-70.5524453145
 21
-87.2485117647
  0
LINE
  5
2C0
100
AcDbEntity
  8
0
100
AcDbLine
 62
7
  6
CONTINUOUS
 10
-83.9298150649
 20
-86.0087546072
 11
-84.0598144641
 21
-86.1038373549
  0
ARC
  5
2C1
100
AcDbEntity
  8
0
100
AcDbCircle
 62
7
  6
CONTINUOUS
 10
-609.4934789805
 20
-374.2325097914
 40
629.69654842
100
AcDbArc
 50
37.4688714196
 51
37.6252828251
  0
ARC
  5
2C2
100
AcDbEntity
  8
0
100
AcDbCircle
 62
7
  6
CONTINUOUS
 10
-249.3762091953
 20
-96.8360963218
 40
175.1273661588
100
AcDbArc
 50
37.6730792862
 51
37.8880372047
  0
ARC
  5
2C3
100
AcDbEntity
  8
0
100
AcDbCircle
 62
7
  6
CONTINUOUS
 10
-156.9677589552
 20
-135.5654609246
 40
130.5346559023
100
AcDbArc
 50
62.2813670316
 51
62.6062323273
  0
ARC
  5
2C4
100
AcDbEntity
  8
0
100
AcDbCircle
 62
7
  6
CONTINUOUS
 10
-163.7774205915
 20
-58.0124288597
 40
86.9128511656
100
AcDbArc
 50
47.3559818134
 51
53.2702433254
  0
ARC
  5
2C5
100
AcDbEntity
  8
0
100
AcDbCircle
 62
7
  6
CONTINUOUS
 10
-106.5413440112
 20
-37.3362107802
 40
9.6422493225
100
AcDbArc
 50
321.0962898172
 51
322.2896808503
  0
ARC
  5
2C6
100
AcDbEntity
  8
0
100
AcDbCircle
 62
7
  6
CONTINUOUS
 10
-131.238297435
 20
-11.7847136226
 40
33.4315246616
100
AcDbArc
 50
28.7360619003
 51
32.7484541187
  0
ARC
  5
2C7
100
AcDbEntity
  8
0
100
AcDbCircle
 62
7
  6
CONTINUOUS
 10
-129.2472523652
 20
-8.6616705937
 40
30.0435072102
100
AcDbArc
 50
211.3959859754
 51
211.7997507527
  0
ARC
  5
2C8
100
AcDbEntity
  8
0
100
AcDbCircle
 62
7
  6
CONTINUOUS
 10
-129.5654071442
 20
-13.0792333439
 40
28.0914309837
100
AcDbArc
 50
180.0012582895
 51
182.5271254021
  0
ARC
  5
2C9
100
AcDbEntity
  8
0
100
AcDbCircle
 62
7
  6
CONTINUOUS
 10
-130.027615113
 20
-13.0977590945
 40
27.6288557505
100
AcDbArc
 50
182.5310077123
 51
182.7091751749
  0
ARC
  5
2CA
100
AcDbEntity
  8
0
100
AcDbCircle
 62
7
  6
CONTINUOUS
 10
-130.8364568752
 20
-12.2046931676
 40
27.5204938375
100
AcDbArc
 50
179.9671769664
 51
185.4455868972
  0
ARC
  5
2CB
100
AcDbEntity
  8
0
100
AcDbCircle
 62
7
  6
CONTINUOUS
 10
-131.8821917752
 20
-10.2721462533
 40
26.9557484929
100
AcDbArc
 50
210.8197105965
 51
211.0720808602
  0
ARC
  5
2CC
100
AcDbEntity
  8
0
100
AcDbCircle
 62
7
  6
CONTINUOUS
 10
-131.6620040338
 20
-12.2761992249
 40
26.6918875683
100
AcDbArc
 50
185.4609593182
 51
185.7710878444
  0
ARC
  5
2CD
100
AcDbEntity
  8
0
100
AcDbCircle
 62
7
  6
CONTINUOUS
 10
-130.8464780866
 20
-6.9776986205
 40
26.6440216575
100
AcDbArc
 50
69.5879359945
 51
70.3296457149
  0
ARC
  5
2CE
100
AcDbEntity
  8
0
100
AcDbCircle
 62
7
  6
CONTINUOUS
 10
-132.2097866146
 20
-10.4781032643
 40
26.5684968569
100
AcDbArc
 50
211.8371377112
 51
212.5086687341
  0
ARC
  5
2CF
100
AcDbEntity
  8
0
100
AcDbCircle
 62
7
  6
CONTINUOUS
 10
-132.3762168149
 20
-10.5845158035
 40
26.3709555888
100
AcDbArc
 50
212.5080285388
 51
213.8567253767
  0
ARC
  5
2D0
100
AcDbEntity
  8
0
100
AcDbCircle
 62
7
  6
CONTINUOUS
 10
-129.429886046
 20
-3.8062551817
 40
23.7023322445
100
AcDbArc
 50
104.9066984695
 51
105.1172836136
  0
ARC
  5
2D1
100
AcDbEntity
  8
0
100
AcDbCircle
 62
7
  6
CONTINUOUS
 10
-129.8296998467
 20
-4.1822543146
 40
23.6694948041
100
AcDbArc
 50
72.0311789072
 51
72.4286794732
  0
ARC
  5
2D2
100
AcDbEntity
  8
0
100
AcDbCircle
 62
7
  6
CONTINUOUS
 10
-129.8398489074
 20
-4.0828027741
 40
23.5828979504
100
AcDbArc
 50
66.7809252689
 51
72.3322255318
  0
ARC
  5
2D3
100
AcDbEntity
  8
0
100
AcDbCircle
 62
7
  6
CONTINUOUS
 10
-129.7912197092
 20
-4.0650783711
 40
23.5461630765
100
AcDbArc
 50
70.3619290269
 51
72.0322849609
  0
ARC
  5
2D4
100
AcDbEntity
  8
0
100
AcDbCircle
 62
7
  6
CONTINUOUS
 10
-138.7560720692
 20
-10.1075359737
 40
23.4089678538
100
AcDbArc
 50
229.537006312
 51
240.2680412142
  0
ARC
  5
2D5
100
AcDbEntity
  8
0
100
AcDbCircle
 62
7
  6
CONTINUOUS
 10
-129.7254794563
 20
-3.8840203532
 40
23.3536470822
100
AcDbArc
 50
69.210504619
 51
69.5183312369
  0
ARC
  5
2D6
100
AcDbEntity
  8
0
100
AcDbCircle
 62
7
  6
CONTINUOUS
 10
-129.6998587428
 20
-3.8176169837
 40
23.2824734859
100
AcDbArc
 50
59.9707901929
 51
69.2114487447
  0
ARC
  5
2D7
100
AcDbEntity
  8
0
100
AcDbCircle
 62
7
  6
CONTINUOUS
 10
-138.8573126714
 20
-10.2862203841
 40
23.2036030628
100
AcDbArc
 50
229.5377152992
 51
240.2663043951
  0
ARC
  5
2D8
100
AcDbEntity
  8
0
100
AcDbCircle
 62
7
  6
CONTINUOUS
 10
-129.6384929196
 20
-3.6753128447
 40
23.1274998336
100
AcDbArc
 50
63.2577179244
 51
66.6544636611
  0
ARC
  5
2D9
100
AcDbEntity
  8
0
100
AcDbCircle
 62
7
  6
CONTINUOUS
 10
-129.5901513924
 20
-3.5772143093
 40
23.0181413497
100
AcDbArc
 50
59.9653041876
 51
63.255300203
  0
ARC
  5
2DA
100
AcDbEntity
  8
0
100
AcDbCircle
 62
7
  6
CONTINUOUS
 10
-128.5747118533
 20
-3.3241617499
 40
23.0099601746
100
AcDbArc
 50
102.1553428907
 51
107.086180758
  0
ARC
  5
2DB
100
AcDbEntity
  8
0
100
AcDbCircle
 62
7
  6
CONTINUOUS
 10
-128.8953275225
 20
-1.8922706977
 40
21.5426652088
100
AcDbArc
 50
97.5700947767
 51
102.1236282484
  0
ARC
  5
2DC
100
AcDbEntity
  8
0
100
AcDbCircle
 62
7
  6
CONTINUOUS
 10
-137.8361919837
 20
-15.0512320601
 40
19.5176894792
100
AcDbArc
 50
204.5939329282
 51
210.3918001647
  0
ARC
  5
2DD
100
AcDbEntity
  8
0
100
AcDbCircle
 62
7
  6
CONTINUOUS
 10
-138.547259267
 20
-14.6238809737
 40
19.3335518083
100
AcDbArc
 50
216.6398788951
 51
216.8652832425
  0
ARC
  5
2DE
100
AcDbEntity
  8
0
100
AcDbCircle
 62
7
  6
CONTINUOUS
 10
-138.674530326
 20
-15.5456451416
 40
18.5444219621
100
AcDbArc
 50
210.3845400351
 51
214.5665528968
  0
ARC
  5
2DF
100
AcDbEntity
  8
0
100
AcDbCircle
 62
7
  6
CONTINUOUS
 10
-129.5567435472
 20
1.8255002184
 40
17.9899253644
100
AcDbArc
 50
67.4535316467
 51
70.1363626529
  0
ARC
  5
2E0
100
AcDbEntity
  8
0
100
AcDbCircle
 62
7
  6
CONTINUOUS
 10
-129.5403307947
 20
1.8659516756
 40
17.9462724771
100
AcDbArc
 50
67.047277394
 51
67.4524075219
  0
ARC
  5
2E1
100
AcDbEntity
  8
0
100
AcDbCircle
 62
7
  6
CONTINUOUS
 10
-128.757214253
 20
3.1798871924
 40
16.4186987825
100
AcDbArc
 50
68.5219899341
 51
71.1163319286
  0
ARC
  5
2E2
100
AcDbEntity
  8
0
100
AcDbCircle
 62
7
  6
CONTINUOUS
 10
-128.7244426169
 20
3.2649382653
 40
16.3275546837
100
AcDbArc
 50
68.2200611645
 51
68.5197264087
  0
ARC
  5
2E3
100
AcDbEntity
  8
0
100
AcDbCircle
 62
7
  6
CONTINUOUS
 10
-128.6985055524
 20
3.3289718951
 40
16.2584682878
100
AcDbArc
 50
66.0797970362
 51
68.221211261
  0
ARC
  5
2E4
100
AcDbEntity
  8
0
100
AcDbCircle
 62
7
  6
CONTINUOUS
 10
-153.6663097955
 20
-27.6836300346
 40
0.3576292548
100
AcDbArc
 50
220.3259726743
 51
225.8403880838
  0
ARC
  5
2E5
100
AcDbEntity
  8
0
100
AcDbCircle
 62
7
  6
CONTINUOUS
 10
-144.3246493046
 20
-33.8415022308
 40
0.3489994536
100
AcDbArc
 50
248.0432004829
 51
253.8336931762
  0
ARC
  5
2E6
100
AcDbEntity
  8
0
100
AcDbCircle
 62
7
  6
CONTINUOUS
 10
-136.0459466971
 20
18.5081986432
 40
0.6623251063
100
AcDbArc
 50
29.1350583844
 51
47.8612679924
  0
ARC
  5
2E7
100
AcDbEntity
  8
0
100
AcDbCircle
 62
7
  6
CONTINUOUS
 10
-105.7537894981
 20
-19.8131081844
 40
52.59294689
100
AcDbArc
 50
144.0343217634
 51
154.8277372568
  0
ARC
  5
2E8
100
AcDbEntity
  8
0
100
AcDbCircle
 62
7
  6
CONTINUOUS
 10
-105.9859798623
 20
-19.6808015092
 40
52.4471423556
100
AcDbArc
 50
144.0067737454
 51
154.8462939789
  0
ARC
  5
2E9
100
AcDbEntity
  8
0
100
AcDbCircle
 62
7
  6
CONTINUOUS
 10
-106.1031409874
 20
-19.6469952488
 40
52.2061175917
100
AcDbArc
 50
154.8296514086
 51
155.5667976554
  0
ARC
  5
2EA
100
AcDbEntity
  8
0
100
AcDbCircle
 62
7
  6
CONTINUOUS
 10
-106.4799488118
 20
-19.4883899612
 40
51.7967543843
100
AcDbArc
 50
156.0532519432
 51
157.3436445406
  0
ARC
  5
2EB
100
AcDbEntity
  8
0
100
AcDbCircle
 62
7
  6
CONTINUOUS
 10
-112.1882860669
 20
-22.3279860888
 40
48.1803407952
100
AcDbArc
 50
132.9262028076
 51
134.2811250181
  0
ARC
  5
2EC
100
AcDbEntity
  8
0
100
AcDbCircle
 62
7
  6
CONTINUOUS
 10
-112.6058941046
 20
-21.8661851444
 40
47.5583560394
100
AcDbArc
 50
131.9736985207
 51
132.4087774429
  0
ARC
  5
2ED
100
AcDbEntity
  8
0
100
AcDbCircle
 62
7
  6
CONTINUOUS
 10
-113.2641878206
 20
16.3205932892
 40
46.957805539
100
AcDbArc
 50
226.4949242229
 51
232.1219304065
  0
ARC
  5
2EE
100
AcDbEntity
  8
0
100
AcDbCircle
 62
7
  6
CONTINUOUS
 10
-116.4028186267
 20
-11.7438234706
 40
40.997590159
100
AcDbArc
 50
179.6885839357
 51
180.0146718667
  0
ARC
  5
2EF
100
AcDbEntity
  8
0
100
AcDbCircle
 62
7
  6
CONTINUOUS
 10
-116.7177832742
 20
-16.1255109774
 40
40.4826486934
100
AcDbArc
 50
119.4240077065
 51
119.5771250272
  0
ARC
  5
2F0
100
AcDbEntity
  8
0
100
AcDbCircle
 62
7
  6
CONTINUOUS
 10
-116.1743534628
 20
10.1411755281
 40
40.1316544601
100
AcDbArc
 50
204.4854045369
 51
205.3024801254
  0
ARC
  5
2F1
100
AcDbEntity
  8
0
100
AcDbCircle
 62
7
  6
CONTINUOUS
 10
-117.295168103
 20
-11.7587677687
 40
40.1045961081
100
AcDbArc
 50
180.587833558
 51
182.1186004662
  0
ARC
  5
2F2
100
AcDbEntity
  8
0
100
AcDbCircle
 62
7
  6
CONTINUOUS
 10
-120.9739329199
 20
-14.6490155358
 40
36.9008216076
100
AcDbArc
 50
149.1080768001
 51
152.0170966642
  0
ARC
  5
2F3
100
AcDbEntity
  8
0
100
AcDbCircle
 62
7
  6
CONTINUOUS
 10
-121.245784265
 20
-14.5114032577
 40
36.5961847494
100
AcDbArc
 50
152.0076541734
 51
157.5058535671
  0
ARC
  5
2F4
100
AcDbEntity
  8
0
100
AcDbCircle
 62
7
  6
CONTINUOUS
 10
-121.6016739714
 20
-14.3606556754
 40
36.2096973826
100
AcDbArc
 50
157.5107888566
 51
157.7148997452
  0
ARC
  5
2F5
100
AcDbEntity
  8
0
100
AcDbCircle
 62
7
  6
CONTINUOUS
 10
-123.135193471
 20
-12.8154806523
 40
34.0607762526
100
AcDbArc
 50
134.170851049
 51
134.3917086896
  0
ARC
  5
2F6
100
AcDbEntity
  8
0
100
AcDbCircle
 62
7
  6
CONTINUOUS
 10
-124.0967512897
 20
-13.6698555332
 40
33.9621353895
100
AcDbArc
 50
105.5225211543
 51
105.7418713268
  0
ARC
  5
2F7
100
AcDbEntity
  8
0
100
AcDbCircle
 62
7
  6
CONTINUOUS
 10
-124.2213118544
 20
-13.1734782305
 40
33.4505848429
100
AcDbArc
 50
105.7671878011
 51
107.496417273
  0
ARC
  5
2F8
100
AcDbEntity
  8
0
100
AcDbCircle
 62
7
  6
CONTINUOUS
 10
-123.6781756679
 20
-12.2463005191
 40
33.2741737693
100
AcDbArc
 50
128.8516666991
 51
134.183150188
  0
ARC
  5
2F9
100
AcDbEntity
  8
0
100
AcDbCircle
 62
7
  6
CONTINUOUS
 10
-124.7574526456
 20
-10.9376859164
 40
31.5780293764
100
AcDbArc
 50
125.5881757334
 51
128.8160875288
  0
ARC
  5
2FA
100
AcDbEntity
  8
0
100
AcDbCircle
 62
7
  6
CONTINUOUS
 10
-127.8148403665
 20
-13.0878516409
 40
29.8419988273
100
AcDbArc
 50
173.1877338821
 51
179.9846375942
  0
ARC
  5
2FB
100
AcDbEntity
  8
0
100
AcDbCircle
 62
7
  6
CONTINUOUS
 10
-115.0725443684
 20
-20.8349143434
 40
26.8283975332
100
AcDbArc
 50
179.6321780278
 51
179.9790437945
  0
ARC
  5
2FC
100
AcDbEntity
  8
0
100
AcDbCircle
 62
7
  6
CONTINUOUS
 10
-125.1643508323
 20
-6.4610638993
 40
26.6452369519
100
AcDbArc
 50
88.0996748856
 51
88.2942502981
  0
ARC
  5
2FD
100
AcDbEntity
  8
0
100
AcDbCircle
 62
7
  6
CONTINUOUS
 10
-114.7875622821
 20
-20.8775985041
 40
25.8159232689
100
AcDbArc
 50
179.6627763127
 51
180.009564699
  0
ARC
  5
2FE
100
AcDbEntity
  8
0
100
AcDbCircle
 62
7
  6
CONTINUOUS
 10
-125.5797739304
 20
-23.79491675
 40
15.9212821577
100
AcDbArc
 50
253.2495984223
 51
253.5879259168
  0
ARC
  5
2FF
100
AcDbEntity
  8
0
100
AcDbCircle
 62
7
  6
CONTINUOUS
 10
-125.7544505574
 20
-24.361862393
 40
15.32804862
100
AcDbArc
 50
247.9101177976
 51
253.2624814878
  0
ARC
  5
300
100
AcDbEntity
  8
0
100
AcDbCircle
 62
7
  6
CONTINUOUS
 10
-125.8108222026
 20
-24.5033666294
 40
15.1757323692
100
AcDbArc
 50
246.4226880365
 51
247.9064159836
  0
ARC
  5
301
100
AcDbEntity
  8
0
100
AcDbCircle
 62
7
  6
CONTINUOUS
 10
-125.8296743438
 20
-24.5468904588
 40
15.1283012627
100
AcDbArc
 50
245.7926287485
 51
246.4221936332
  0
ARC
  5
302
100
AcDbEntity
  8
0
100
AcDbCircle
 62
7
  6
CONTINUOUS
 10
-114.5592505537
 20
-6.052552007
 40
14.450981674
100
AcDbArc
 50
56.6765741555
 51
60.1297384434
  0
ARC
  5
303
100
AcDbEntity
  8
0
100
AcDbCircle
 62
7
  6
CONTINUOUS
 10
-125.1688124429
 20
-24.5248022012
 40
14.4466845865
100
AcDbArc
 50
240.1282591998
 51
243.3318687568
  0
ARC
  5
304
100
AcDbEntity
  8
0
100
AcDbCircle
 62
7
  6
CONTINUOUS
 10
-114.8425252691
 20
67.8356417445
 40
105.6613990686
100
AcDbArc
 50
253.5712424005
 51
253.9348463453
  0
ARC
  5
305
100
AcDbEntity
  8
0
100
AcDbCircle
 62
7
  6
CONTINUOUS
 10
-103.1611235712
 20
52.53773934
 40
95.4605439265
100
AcDbArc
 50
240.3864890895
 51
241.5476692633
  0
ARC
  5
306
100
AcDbEntity
  8
0
100
AcDbCircle
 62
7
  6
CONTINUOUS
 10
-103.5132704075
 20
51.8716248233
 40
94.7071147562
100
AcDbArc
 50
241.5429849917
 51
250.1578091568
  0
ARC
  5
307
100
AcDbEntity
  8
0
100
AcDbCircle
 62
7
  6
CONTINUOUS
 10
-103.614275408
 20
51.6374713762
 40
94.4525810621
100
AcDbArc
 50
250.2692619233
 51
252.5230762993
  0
ARC
  5
308
100
AcDbEntity
  8
0
100
AcDbCircle
 62
7
  6
CONTINUOUS
 10
-102.1271985126
 20
50.2723149783
 40
93.5969239133
100
AcDbArc
 50
251.3117615952
 51
251.568093451
  0
ARC
  5
309
100
AcDbEntity
  8
0
100
AcDbCircle
 62
7
  6
CONTINUOUS
 10
-103.8775704291
 20
50.7868495903
 40
93.5614507119
100
AcDbArc
 50
252.5693253691
 51
252.8097112011
  0
ARC
  5
30A
100
AcDbEntity
  8
0
100
AcDbCircle
 62
7
  6
CONTINUOUS
 10
-104.0214595569
 20
50.3359754116
 40
93.0881767167
100
AcDbArc
 50
250.2358678565
 51
252.5228854498
  0
ARC
  5
30B
100
AcDbEntity
  8
0
100
AcDbCircle
 62
7
  6
CONTINUOUS
 10
-105.2758347676
 20
43.6123275345
 40
86.3201676361
100
AcDbArc
 50
251.0317399767
 51
252.0303889353
  0
ARC
  5
30C
100
AcDbEntity
  8
0
100
AcDbCircle
 62
7
  6
CONTINUOUS
 10
-105.3709282214
 20
43.3211019142
 40
86.0138104005
100
AcDbArc
 50
252.0307939854
 51
252.2931425553
  0
ARC
  5
30D
100
AcDbEntity
  8
0
100
AcDbCircle
 62
7
  6
CONTINUOUS
 10
-105.4782161784
 20
42.9825808258
 40
85.6586954041
100
AcDbArc
 50
252.2926375471
 51
253.2471414012
  0
ARC
  5
30E
100
AcDbEntity
  8
0
100
AcDbCircle
 62
7
  6
CONTINUOUS
 10
-108.227030176
 20
32.4145186981
 40
74.7261827929
100
AcDbArc
 50
248.6245870527
 51
251.3548951403
  0
ARC
  5
30F
100
AcDbEntity
  8
0
100
AcDbCircle
 62
7
  6
CONTINUOUS
 10
-112.4245446764
 20
32.2243392169
 40
73.0916682081
100
AcDbArc
 50
238.8319183718
 51
240.3469285509
  0
ARC
  5
310
100
AcDbEntity
  8
0
100
AcDbCircle
 62
7
  6
CONTINUOUS
 10
-109.2070078649
 20
29.8754463265
 40
72.0045889642
100
AcDbArc
 50
248.4877532904
 51
248.6143486851
  0
ARC
  5
311
100
AcDbEntity
  8
0
100
AcDbCircle
 62
7
  6
CONTINUOUS
 10
-110.5527367954
 20
29.5351655997
 40
71.2867727028
100
AcDbArc
 50
252.5703424501
 51
252.8583834688
  0
ARC
  5
312
100
AcDbEntity
  8
0
100
AcDbCircle
 62
7
  6
CONTINUOUS
 10
-114.7756437423
 20
28.3656991033
 40
68.5731529141
100
AcDbArc
 50
235.1931191376
 51
238.7020938983
  0
ARC
  5
313
100
AcDbEntity
  8
0
100
AcDbCircle
 62
7
  6
CONTINUOUS
 10
-111.8435638227
 20
21.0235229415
 40
59.6584244287
100
AcDbArc
 50
238.1924600409
 51
242.7041243612
  0
ARC
  5
314
100
AcDbEntity
  8
0
100
AcDbCircle
 62
7
  6
CONTINUOUS
 10
-110.0853076825
 20
18.8499129675
 40
39.5632609449
100
AcDbArc
 50
216.3473213678
 51
222.6020416162
  0
ARC
  5
315
100
AcDbEntity
  8
0
100
AcDbCircle
 62
7
  6
CONTINUOUS
 10
-117.922045381
 20
18.3801190403
 40
5.6456357413
100
AcDbArc
 50
177.5632527147
 51
180.0199536076
  0
ARC
  5
316
100
AcDbEntity
  8
0
100
AcDbCircle
 62
7
  6
CONTINUOUS
 10
-118.5006744899
 20
18.401659626
 40
5.066614955
100
AcDbArc
 50
176.3161621089
 51
177.5284209267
  0
ARC
  5
317
100
AcDbEntity
  8
0
100
AcDbCircle
 62
7
  6
CONTINUOUS
 10
-121.7687230425
 20
18.1155655058
 40
1.7982865491
100
AcDbArc
 50
174.4132286058
 51
176.0231458204
  0
ARC
  5
318
100
AcDbEntity
  8
0
100
AcDbCircle
 62
7
  6
CONTINUOUS
 10
-122.0100875621
 20
18.1397598
 40
1.5557132531
100
AcDbArc
 50
171.8660391366
 51
174.4346551679
  0
ARC
  5
319
100
AcDbEntity
  8
0
100
AcDbCircle
 62
7
  6
CONTINUOUS
 10
-124.3282885081
 20
19.3068422092
 40
0.8457514702
100
AcDbArc
 50
0.3926034772
 51
18.2400958359
  0
ARC
  5
31A
100
AcDbEntity
  8
0
100
AcDbCircle
 62
7
  6
CONTINUOUS
 10
-75.4292820263
 20
-56.1527402834
 40
56.8467225921
100
AcDbArc
 50
62.3658206559
 51
70.5739773517
  0
ARC
  5
31B
100
AcDbEntity
  8
0
100
AcDbCircle
 62
7
  6
CONTINUOUS
 10
-76.8085621305
 20
-55.0014638516
 40
54.699530449
100
AcDbArc
 50
72.7092759785
 51
74.4936316167
  0
ARC
  5
31C
100
AcDbEntity
  8
0
100
AcDbCircle
 62
7
  6
CONTINUOUS
 10
-80.8852446149
 20
-57.6879710066
 40
25.8315998681
100
AcDbArc
 50
204.2204506247
 51
204.7760584751
  0
ARC
  5
31D
100
AcDbEntity
  8
0
100
AcDbCircle
 62
7
  6
CONTINUOUS
 10
-81.234834594
 20
-57.8445926067
 40
25.4485292051
100
AcDbArc
 50
203.1500119008
 51
204.2217654699
  0
ARC
  5
31E
100
AcDbEntity
  8
0
100
AcDbCircle
 62
7
  6
CONTINUOUS
 10
-81.9454028059
 20
-58.1458028984
 40
24.676759225
100
AcDbArc
 50
201.0667388622
 51
203.155575614
  0
ARC
  5
31F
100
AcDbEntity
  8
0
100
AcDbCircle
 62
7
  6
CONTINUOUS
 10
-76.1858086881
 20
-64.9492312833
 40
23.1687614735
100
AcDbArc
 50
216.7295057284
 51
223.7182221077
  0
ARC
  5
320
100
AcDbEntity
  8
0
100
AcDbCircle
 62
7
  6
CONTINUOUS
 10
-81.388187674
 20
-55.3424895091
 40
22.9280053745
100
AcDbArc
 50
237.9890551347
 51
240.1363154628
  0
ARC
  5
321
100
AcDbEntity
  8
0
100
AcDbCircle
 62
7
  6
CONTINUOUS
 10
-82.0266901219
 20
-56.0643473849
 40
22.4032628089
100
AcDbArc
 50
241.212129415
 51
241.8311673722
  0
ARC
  5
322
100
AcDbEntity
  8
0
100
AcDbCircle
 62
7
  6
CONTINUOUS
 10
-81.7633888242
 20
-55.998006656
 40
22.1727281867
100
AcDbArc
 50
237.7838720509
 51
240.1277784835
  0
ARC
  5
323
100
AcDbEntity
  8
0
100
AcDbCircle
 62
7
  6
CONTINUOUS
 10
-81.3714120922
 20
-56.2312672062
 40
22.1656674069
100
AcDbArc
 50
236.4297027545
 51
240.1281759197
  0
ARC
  5
324
100
AcDbEntity
  8
0
100
AcDbCircle
 62
7
  6
CONTINUOUS
 10
-78.2525271039
 20
-55.386339556
 40
19.2017359809
100
AcDbArc
 50
233.3301486871
 51
240.1203859297
  0
ARC
  5
325
100
AcDbEntity
  8
0
100
AcDbCircle
 62
7
  6
CONTINUOUS
 10
-99.673090424
 20
-45.8234536096
 40
39.5206912309
100
AcDbArc
 50
67.9324616966
 51
68.9550386444
  0
ARC
  5
326
100
AcDbEntity
  8
0
100
AcDbCircle
 62
7
  6
CONTINUOUS
 10
-84.9470959395
 20
-35.3405576948
 40
32.2818824663
100
AcDbArc
 50
326.0687429604
 51
333.4125568001
  0
ARC
  5
327
100
AcDbEntity
  8
0
100
AcDbCircle
 62
7
  6
CONTINUOUS
 10
-84.4233470333
 20
-35.6984042642
 40
31.6475750154
100
AcDbArc
 50
317.2996575284
 51
326.0769851682
  0
ARC
  5
328
100
AcDbEntity
  8
0
100
AcDbCircle
 62
7
  6
CONTINUOUS
 10
-77.1037387447
 20
-52.4563446007
 40
31.4218559824
100
AcDbArc
 50
200.4727477674
 51
200.7333010319
  0
ARC
  5
329
100
AcDbEntity
  8
0
100
AcDbCircle
 62
7
  6
CONTINUOUS
 10
-82.2670177
 20
-36.2600494202
 40
29.443452799
100
AcDbArc
 50
342.5136127673
 51
350.4465186426
  0
ARC
  5
32A
100
AcDbEntity
  8
0
100
AcDbCircle
 62
7
  6
CONTINUOUS
 10
-79.5603088029
 20
-46.7713862128
 40
28.4213446284
100
AcDbArc
 50
163.0780431093
 51
165.6338667898
  0
ARC
  5
32B
100
AcDbEntity
  8
0
100
AcDbCircle
 62
7
  6
CONTINUOUS
 10
-80.769138689
 20
-46.3936175799
 40
27.1548995286
100
AcDbArc
 50
158.1242170404
 51
163.0982129296
  0
ARC
  5
32C
100
AcDbEntity
  8
0
100
AcDbCircle
 62
7
  6
CONTINUOUS
 10
-81.2796296917
 20
-53.3607800215
 40
27.1303071647
100
AcDbArc
 50
181.519862309
 51
183.6760657674
  0
ARC
  5
32D
100
AcDbEntity
  8
0
100
AcDbCircle
 62
7
  6
CONTINUOUS
 10
-77.6178852013
 20
-38.7256074858
 40
27.0955910104
100
AcDbArc
 50
145.9866997267
 51
148.6327682163
  0
ARC
  5
32E
100
AcDbEntity
  8
0
100
AcDbCircle
 62
7
  6
CONTINUOUS
 10
-81.4113438158
 20
-46.149224886
 40
26.467880447
100
AcDbArc
 50
156.4396590981
 51
158.0971841586
  0
ARC
  5
32F
100
AcDbEntity
  8
0
100
AcDbCircle
 62
7
  6
CONTINUOUS
 10
-78.3801286401
 20
-38.2039954413
 40
26.1719800767
100
AcDbArc
 50
140.9950348196
 51
145.9997921693
  0
ARC
  5
330
100
AcDbEntity
  8
0
100
AcDbCircle
 62
7
  6
CONTINUOUS
 10
-78.5669187593
 20
-38.0646667181
 40
25.9391369521
100
AcDbArc
 50
139.2994929176
 51
140.9745095812
  0
ARC
  5
331
100
AcDbEntity
  8
0
100
AcDbCircle
 62
7
  6
CONTINUOUS
 10
-82.6890601904
 20
-53.3898092348
 40
25.7206039212
100
AcDbArc
 50
175.6916618418
 51
181.5384941745
  0
ARC
  5
332
100
AcDbEntity
  8
0
100
AcDbCircle
 62
7
  6
CONTINUOUS
 10
-83.343296861
 20
-53.6160643777
 40
25.0546655611
100
AcDbArc
 50
183.4692863618
 51
183.8770184554
  0
ARC
  5
333
100
AcDbEntity
  8
0
100
AcDbCircle
 62
7
  6
CONTINUOUS
 10
-83.788175073
 20
-53.3335890272
 40
24.6203856972
100
AcDbArc
 50
174.3812845893
 51
175.6299723362
  0
ARC
  5
334
100
AcDbEntity
  8
0
100
AcDbCircle
 62
7
  6
CONTINUOUS
 10
-50.1986819227
 20
-56.133803972
 40
50.6399579168
100
AcDbArc
 50
165.1993295605
 51
165.781267674
  0
ARC
  5
335
100
AcDbEntity
  8
0
100
AcDbCircle
 62
7
  6
CONTINUOUS
 10
-61.1056266471
 20
-54.8497398258
 40
48.5589213059
100
AcDbArc
 50
154.2401606192
 51
155.0295118079
  0
ARC
  5
336
100
AcDbEntity
  8
0
100
AcDbCircle
 62
7
  6
CONTINUOUS
 10
-61.2491103497
 20
-54.7834567775
 40
48.4008682142
100
AcDbArc
 50
155.0289381732
 51
156.6109005374
  0
ARC
  5
337
100
AcDbEntity
  8
0
100
AcDbCircle
 62
7
  6
CONTINUOUS
 10
-65.9862544251
 20
-54.9866232655
 40
42.4989942537
100
AcDbArc
 50
171.9415564515
 51
172.8017838387
  0
ARC
  5
338
100
AcDbEntity
  8
0
100
AcDbCircle
 62
7
  6
CONTINUOUS
 10
-66.6254572862
 20
-54.9075477538
 40
41.8549208892
100
AcDbArc
 50
172.7995369976
 51
174.5015532713
  0
ARC
  5
339
100
AcDbEntity
  8
0
100
AcDbCircle
 62
7
  6
CONTINUOUS
 10
-72.5883393061
 20
-73.5135695968
 40
27.7653655649
100
AcDbArc
 50
161.8564828851
 51
162.2643411818
  0
ARC
  5
33A
100
AcDbEntity
  8
0
100
AcDbCircle
 62
7
  6
CONTINUOUS
 10
-51.7513599184
 20
-65.6919512591
 40
2.8472160908
100
AcDbArc
 50
103.5105551171
 51
105.1003703889
  0
ARC
  5
33B
100
AcDbEntity
  8
0
100
AcDbCircle
 62
7
  6
CONTINUOUS
 10
-59.6791330557
 20
-35.409921218
 40
56.9599964853
100
AcDbArc
 50
233.8070851257
 51
240.1673264691
  0
ARC
  5
33C
100
AcDbEntity
  8
0
100
AcDbCircle
 62
7
  6
CONTINUOUS
 10
-54.764821316
 20
-52.7575691444
 40
53.6480227338
100
AcDbArc
 50
154.4888515612
 51
159.4597529446
  0
ARC
  5
33D
100
AcDbEntity
  8
0
100
AcDbCircle
 62
7
  6
CONTINUOUS
 10
-55.7704067433
 20
-52.0976753524
 40
53.0262637466
100
AcDbArc
 50
143.9329830234
 51
159.7589459319
  0
ARC
  5
33E
100
AcDbEntity
  8
0
100
AcDbCircle
 62
7
  6
CONTINUOUS
 10
-55.3444297898
 20
-52.120918275
 40
52.819361222
100
AcDbArc
 50
137.1193267878
 51
142.2648244079
  0
ARC
  5
33F
100
AcDbEntity
  8
0
100
AcDbCircle
 62
7
  6
CONTINUOUS
 10
-56.2064807836
 20
-51.7617914007
 40
52.4760292262
100
AcDbArc
 50
141.9746594245
 51
143.9491143511
  0
ARC
  5
340
100
AcDbEntity
  8
0
100
AcDbCircle
 62
7
  6
CONTINUOUS
 10
-57.1022549247
 20
-51.5794056886
 40
51.5973636059
100
AcDbArc
 50
159.7872442091
 51
161.7404610335
  0
ARC
  5
341
100
AcDbEntity
  8
0
100
AcDbCircle
 62
7
  6
CONTINUOUS
 10
-62.9320488021
 20
-51.3554412249
 40
46.4594578368
100
AcDbArc
 50
138.6066048711
 51
139.4141747563
  0
ARC
  5
342
100
AcDbEntity
  8
0
100
AcDbCircle
 62
7
  6
CONTINUOUS
 10
-63.147862157
 20
-51.1651744384
 40
46.1717481689
100
AcDbArc
 50
137.7957296684
 51
138.6066476294
  0
ARC
  5
343
100
AcDbEntity
  8
0
100
AcDbCircle
 62
7
  6
CONTINUOUS
 10
-63.3854372059
 20
-50.94967525
 40
45.8509962354
100
AcDbArc
 50
136.9809871782
 51
137.7957731939
  0
ARC
  5
344
100
AcDbEntity
  8
0
100
AcDbCircle
 62
7
  6
CONTINUOUS
 10
-61.4863037424
 20
-46.0045085225
 40
44.63411506
100
AcDbArc
 50
123.1322152167
 51
125.2967487104
  0
ARC
  5
345
100
AcDbEntity
  8
0
100
AcDbCircle
 62
7
  6
CONTINUOUS
 10
-64.0538629589
 20
-50.8547444918
 40
44.1235549282
100
AcDbArc
 50
176.5370470096
 51
177.837456212
  0
ARC
  5
346
100
AcDbEntity
  8
0
100
AcDbCircle
 62
7
  6
CONTINUOUS
 10
-61.2663283024
 20
-45.1996315468
 40
43.6778752709
100
AcDbArc
 50
120.0206599962
 51
123.9266867933
  0
ARC
  5
347
100
AcDbEntity
  8
0
100
AcDbCircle
 62
7
  6
CONTINUOUS
 10
-68.2983598747
 20
-47.1729141186
 40
42.3771836669
100
AcDbArc
 50
229.0315568003
 51
233.7282485173
  0
ARC
  5
348
100
AcDbEntity
  8
0
100
AcDbCircle
 62
7
  6
CONTINUOUS
 10
-66.2403444167
 20
-50.1468305866
 40
42.3062713461
100
AcDbArc
 50
178.7134693901
 51
181.0487432001
  0
ARC
  5
349
100
AcDbEntity
  8
0
100
AcDbCircle
 62
7
  6
CONTINUOUS
 10
-71.9518816475
 20
-36.5925475312
 40
42.1196014393
100
AcDbArc
 50
352.533217549
 51
353.0129718193
  0
ARC
  5
34A
100
AcDbEntity
  8
0
100
AcDbCircle
 62
7
  6
CONTINUOUS
 10
-67.5856527193
 20
-50.178175357
 40
40.9606152487
100
AcDbArc
 50
181.0393483691
 51
183.799001423
  0
ARC
  5
34B
100
AcDbEntity
  8
0
100
AcDbCircle
 62
7
  6
CONTINUOUS
 10
-69.2886673458
 20
-47.6843119034
 40
40.6280732248
100
AcDbArc
 50
220.650269638
 51
222.4722439255
  0
ARC
  5
34C
100
AcDbEntity
  8
0
100
AcDbCircle
 62
7
  6
CONTINUOUS
 10
-69.9115999636
 20
-48.2185840488
 40
39.8074079069
100
AcDbArc
 50
218.6624071434
 51
220.6509187794
  0
ARC
  5
34D
100
AcDbEntity
  8
0
100
AcDbCircle
 62
7
  6
CONTINUOUS
 10
-68.1991197478
 20
-41.595860026
 40
36.9481003442
100
AcDbArc
 50
118.8206022893
 51
120.6990095184
  0
ARC
  5
34E
100
AcDbEntity
  8
0
100
AcDbCircle
 62
7
  6
CONTINUOUS
 10
-68.5686040034
 20
-40.9284702887
 40
36.1852611516
100
AcDbArc
 50
117.8649511242
 51
118.8174516959
  0
ARC
  5
34F
100
AcDbEntity
  8
0
100
AcDbCircle
 62
7
  6
CONTINUOUS
 10
-71.2184010564
 20
-43.2259034633
 40
35.484692091
100
AcDbArc
 50
143.767653825
 51
156.4903380466
  0
ARC
  5
350
100
AcDbEntity
  8
0
100
AcDbCircle
 62
7
  6
CONTINUOUS
 10
-73.7192941231
 20
-50.860264303
 40
35.1679631208
100
AcDbArc
 50
208.6575489825
 51
211.3099253136
  0
ARC
  5
351
100
AcDbEntity
  8
0
100
AcDbCircle
 62
7
  6
CONTINUOUS
 10
-71.5616965084
 20
-42.9885498132
 40
35.0674943768
100
AcDbArc
 50
140.6762696833
 51
143.723466372
  0
ARC
  5
352
100
AcDbEntity
  8
0
100
AcDbCircle
 62
7
  6
CONTINUOUS
 10
-71.7421216055
 20
-42.9885752147
 40
34.9097742943
100
AcDbArc
 50
156.5299069751
 51
164.2038695692
  0
ARC
  5
353
100
AcDbEntity
  8
0
100
AcDbCircle
 62
7
  6
CONTINUOUS
 10
-71.7757838113
 20
-42.8124363605
 40
34.7902778659
100
AcDbArc
 50
137.7878379582
 51
140.6772084985
  0
ARC
  5
354
100
AcDbEntity
  8
0
100
AcDbCircle
 62
7
  6
CONTINUOUS
 10
-57.5163925664
 20
-41.121199528
 40
34.5487778743
100
AcDbArc
 50
105.1017675063
 51
106.8987521816
  0
ARC
  5
355
100
AcDbEntity
  8
0
100
AcDbCircle
 62
7
  6
CONTINUOUS
 10
-65.8393328442
 20
-36.3747849438
 40
34.0077446967
100
AcDbArc
 50
102.7308787502
 51
103.7973108119
  0
ARC
  5
356
100
AcDbEntity
  8
0
100
AcDbCircle
 62
7
  6
CONTINUOUS
 10
-65.9521889998
 20
-35.8710235082
 40
33.4914974578
100
AcDbArc
 50
101.0410810674
 51
102.732475203
  0
ARC
  5
357
100
AcDbEntity
  8
0
100
AcDbCircle
 62
7
  6
CONTINUOUS
 10
-66.0682601741
 20
-35.2780647696
 40
32.8872852033
100
AcDbArc
 50
99.5567121134
 51
101.0404477151
  0
ARC
  5
358
100
AcDbEntity
  8
0
100
AcDbCircle
 62
7
  6
CONTINUOUS
 10
-65.5425874295
 20
-34.8966636194
 40
32.4646721773
100
AcDbArc
 50
101.0951276679
 51
102.0910784312
  0
ARC
  5
359
100
AcDbEntity
  8
0
100
AcDbCircle
 62
7
  6
CONTINUOUS
 10
-67.0029494834
 20
-37.1331303782
 40
30.127995748
100
AcDbArc
 50
12.8853999958
 51
14.971948398
  0
ARC
  5
35A
100
AcDbEntity
  8
0
100
AcDbCircle
 62
7
  6
CONTINUOUS
 10
-62.1142958903
 20
-42.8184117845
 40
2.1356414502
100
AcDbArc
 50
105.1027410328
 51
107.0047406371
  0
ARC
  5
35B
100
AcDbEntity
  8
0
100
AcDbCircle
 62
7
  6
CONTINUOUS
 10
-72.3200451164
 20
-53.0518884784
 40
2.082874068
100
AcDbArc
 50
45.0630265224
 51
72.3609003329
  0
ARC
  5
35C
100
AcDbEntity
  8
0
100
AcDbCircle
 62
7
  6
CONTINUOUS
 10
-62.1782468308
 20
-42.2360424893
 40
1.561822647
100
AcDbArc
 50
42.6627863402
 51
43.8855526995
  0
ARC
  5
35D
100
AcDbEntity
  8
0
100
AcDbCircle
 62
7
  6
CONTINUOUS
 10
-57.3904019646
 20
25.1802486889
 40
80.5912291522
100
AcDbArc
 50
239.2269741428
 51
239.6582335444
  0
ARC
  5
35E
100
AcDbEntity
  8
0
100
AcDbCircle
 62
7
  6
CONTINUOUS
 10
-64.3561758061
 20
25.3232194651
 40
71.6102694106
100
AcDbArc
 50
235.5754588997
 51
236.0551575034
  0
ARC
  5
35F
100
AcDbEntity
  8
0
100
AcDbCircle
 62
7
  6
CONTINUOUS
 10
-85.7614974889
 20
-22.6632914876
 40
34.5343624302
100
AcDbArc
 50
229.8700637144
 51
230.0772119923
  0
ARC
  5
360
100
AcDbEntity
  8
0
100
AcDbCircle
 62
7
  6
CONTINUOUS
 10
-81.1700273132
 20
-32.4650831854
 40
30.5889716713
100
AcDbArc
 50
72.5713355015
 51
73.1379933807
  0
ARC
  5
361
100
AcDbEntity
  8
0
100
AcDbCircle
 62
7
  6
CONTINUOUS
 10
-63.8808229527
 20
-28.5997852388
 40
27.1674532081
100
AcDbArc
 50
2.6127017554
 51
2.9830661678
  0
ARC
  5
362
100
AcDbEntity
  8
0
100
AcDbCircle
 62
7
  6
CONTINUOUS
 10
-70.1696161941
 20
-29.6786323766
 40
26.5728616166
100
AcDbArc
 50
95.7524691213
 51
98.0895944373
  0
ARC
  5
363
100
AcDbEntity
  8
0
100
AcDbCircle
 62
7
  6
CONTINUOUS
 10
-63.1516175419
 20
-28.5607245512
 40
26.4372031719
100
AcDbArc
 50
2.9807703664
 51
3.8707811147
  0
ARC
  5
364
100
AcDbEntity
  8
0
100
AcDbCircle
 62
7
  6
CONTINUOUS
 10
-70.2301704149
 20
-29.0973413097
 40
25.9884284848
100
AcDbArc
 50
94.5618441713
 51
95.7480908058
  0
ARC
  5
365
100
AcDbEntity
  8
0
100
AcDbCircle
 62
7
  6
CONTINUOUS
 10
-75.3284222353
 20
-29.6528483274
 40
23.041293254
100
AcDbArc
 50
128.0695584622
 51
130.5200681743
  0
ARC
  5
366
100
AcDbEntity
  8
0
100
AcDbCircle
 62
7
  6
CONTINUOUS
 10
-75.358774787
 20
-29.6642941921
 40
23.0334810528
100
AcDbArc
 50
120.6633691918
 51
121.9156211303
  0
ARC
  5
367
100
AcDbEntity
  8
0
100
AcDbCircle
 62
7
  6
CONTINUOUS
 10
-65.8574391538
 20
-28.3016020764
 40
22.8883727543
100
AcDbArc
 50
60.1186504932
 51
62.7900870275
  0
ARC
  5
368
100
AcDbEntity
  8
0
100
AcDbCircle
 62
7
  6
CONTINUOUS
 10
-75.5102380366
 20
-29.4171777751
 40
22.7436478741
100
AcDbArc
 50
121.9208529972
 51
128.0750549108
  0
ARC
  5
369
100
AcDbEntity
  8
0
100
AcDbCircle
 62
7
  6
CONTINUOUS
 10
-65.4959119073
 20
-27.6734622623
 40
22.1636077611
100
AcDbArc
 50
60.1285084827
 51
62.7625599931
  0
ARC
  5
36A
100
AcDbEntity
  8
0
100
AcDbCircle
 62
7
  6
CONTINUOUS
 10
-65.0995487141
 20
-27.8994034441
 40
22.1621063642
100
AcDbArc
 50
60.1285201447
 51
64.0641345957
  0
ARC
  5
36B
100
AcDbEntity
  8
0
100
AcDbCircle
 62
7
  6
CONTINUOUS
 10
-55.8271647969
 20
-25.9090496446
 40
21.754019329
100
AcDbArc
 50
67.511109274
 51
68.8000667005
  0
ARC
  5
36C
100
AcDbEntity
  8
0
100
AcDbCircle
 62
7
  6
CONTINUOUS
 10
-55.7915880183
 20
-25.8240562192
 40
21.6618810704
100
AcDbArc
 50
60.1420083135
 51
67.5120639802
  0
ARC
  5
36D
100
AcDbEntity
  8
0
100
AcDbCircle
 62
7
  6
CONTINUOUS
 10
-71.0770097754
 20
-23.5652237733
 40
20.3926203412
100
AcDbArc
 50
98.1071744003
 51
98.5742704639
  0
ARC
  5
36E
100
AcDbEntity
  8
0
100
AcDbCircle
 62
7
  6
CONTINUOUS
 10
-67.6418316577
 20
-21.9370021353
 40
20.3879079777
100
AcDbArc
 50
71.0278658438
 51
74.4750694814
  0
ARC
  5
36F
100
AcDbEntity
  8
0
100
AcDbCircle
 62
7
  6
CONTINUOUS
 10
-71.1387501834
 20
-23.1657627538
 40
19.9884190222
100
AcDbArc
 50
98.5699874318
 51
100.3133634392
  0
ARC
  5
370
100
AcDbEntity
  8
0
100
AcDbCircle
 62
7
  6
CONTINUOUS
 10
-71.2300998341
 20
-22.6581179314
 40
19.4726216048
100
AcDbArc
 50
100.3163374954
 51
101.3678081184
  0
ARC
  5
371
100
AcDbEntity
  8
0
100
AcDbCircle
 62
7
  6
CONTINUOUS
 10
-64.2513620317
 20
-31.0070077078
 40
19.1844472304
100
AcDbArc
 50
60.134675012
 51
66.894542759
  0
ARC
  5
372
100
AcDbEntity
  8
0
100
AcDbCircle
 62
7
  6
CONTINUOUS
 10
-71.3741932567
 20
-21.9857627991
 40
18.7850569632
100
AcDbArc
 50
101.3411473906
 51
106.710273221
  0
ARC
  5
373
100
AcDbEntity
  8
0
100
AcDbCircle
 62
7
  6
CONTINUOUS
 10
-71.5069384226
 20
-21.5350835741
 40
18.3152411378
100
AcDbArc
 50
106.7179230352
 51
108.5062487452
  0
ARC
  5
374
100
AcDbEntity
  8
0
100
AcDbCircle
 62
7
  6
CONTINUOUS
 10
-66.8465087054
 20
-18.8924297569
 40
17.2408057707
100
AcDbArc
 50
75.616519395
 51
79.802758175
  0
ARC
  5
375
100
AcDbEntity
  8
0
100
AcDbCircle
 62
7
  6
CONTINUOUS
 10
-66.7042364385
 20
-18.041892837
 40
16.3785197123
100
AcDbArc
 50
79.7658453732
 51
79.9449046792
  0
ARC
  5
376
100
AcDbEntity
  8
0
100
AcDbCircle
 62
7
  6
CONTINUOUS
 10
-62.476942408
 20
-13.913380537
 40
14.7147776646
100
AcDbArc
 50
162.2282878262
 51
163.5902149315
  0
ARC
  5
377
100
AcDbEntity
  8
0
100
AcDbCircle
 62
7
  6
CONTINUOUS
 10
-62.821879892
 20
-13.8033665995
 40
14.3527215121
100
AcDbArc
 50
161.3480904105
 51
162.2262139403
  0
ARC
  5
378
100
AcDbEntity
  8
0
100
AcDbCircle
 62
7
  6
CONTINUOUS
 10
-57.60033144
 20
-7.4808743652
 40
5.6523495637
100
AcDbArc
 50
146.8399651236
 51
149.4826710532
  0
ARC
  5
379
100
AcDbEntity
  8
0
100
AcDbCircle
 62
7
  6
CONTINUOUS
 10
-57.8935698965
 20
-7.2895315938
 40
5.3022055935
100
AcDbArc
 50
144.2781165366
 51
146.8376574055
  0
ARC
  5
37A
100
AcDbEntity
  8
0
100
AcDbCircle
 62
7
  6
CONTINUOUS
 10
-37.2525833409
 20
-27.3758882409
 40
0.7666208635
100
AcDbArc
 50
48.700543768
 51
51.4368989783
  0
ARC
  5
37B
100
AcDbEntity
  8
0
100
AcDbCircle
 62
7
  6
CONTINUOUS
 10
-37.0311432531
 20
-27.2083946937
 40
0.4855258812
100
AcDbArc
 50
3.802588696
 51
9.4596516706
  0
ARC
  5
37C
100
AcDbEntity
  8
0
100
AcDbCircle
 62
7
  6
CONTINUOUS
 10
219.4316423982
 20
653.8206134681
 40
752.6857156411
100
AcDbArc
 50
240.2310179177
 51
241.5444872571
  0
SPLINE
  5
37D
100
AcDbEntity
  8
0
100
AcDbSpline
 62
7
  6
CONTINUOUS
 70
0
 71
3
 72
15
 73
11
 74
0
 42
0.0000001
 43
0.0000001
 44
0.0000000001
 40
0.0
 40
0.0
 40
0.0
 40
0.0
 40
0.1244337174
 40
0.2505042519
 40
0.3777221799
 40
0.5046720984
 40
0.6301670569
 40
0.7541207334
 40
0.8771943301
 40
1.0
 40
1.0
 40
1.0
 40
1.0
 10
-42.8635580911
 20
-56.6531040446
 30
0.0
 10
-42.6326809215
 20
-56.5908148209
 30
0.0
 10
-42.1852634323
 20
-56.3913402362
 30
0.0
 10
-41.6250651269
 20
-55.9166336523
 30
0.0
 10
-41.2039253628
 20
-55.3094746093
 30
0.0
 10
-40.9510329186
 20
-54.616325139
 30
0.0
 10
-40.8905578042
 20
-53.8861216007
 30
0.0
 10
-41.0418396184
 20
-53.174741319
 30
0.0
 10
-41.4073672445
 20
-52.5504282448
 30
0.0
 10
-41.77858411
 20
-52.2399597837
 30
0.0
 10
-41.983226661
 20
-52.1224052293
 30
0.0
  0
SPLINE
  5
37E
100
AcDbEntity
  8
0
100
AcDbSpline
 62
7
  6
CONTINUOUS
 70
0
 71
3
 72
11
 73
7
 74
0
 42
0.0000001
 43
0.0000001
 44
0.0000000001
 40
0.0
 40
0.0
 40
0.0
 40
0.0
 40
0.2495167352
 40
0.4991781997
 40
0.7492409478
 40
1.0
 40
1.0
 40
1.0
 40
1.0
 10
-44.47361033
 20
-56.4580264459
 30
0.0
 10
-44.3537585242
 20
-56.5268739342
 30
0.0
 10
-44.0991091067
 20
-56.6403534808
 30
0.0
 10
-43.6910729323
 20
-56.729855557
 30
0.0
 10
-43.2728487856
 20
-56.7373896165
 30
0.0
 10
-42.9977121864
 20
-56.6892952848
 30
0.0
 10
-42.8635997315
 20
-56.6531152786
 30
0.0
  0
SPLINE
  5
37F
100
AcDbEntity
  8
0
100
AcDbSpline
 62
7
  6
CONTINUOUS
 70
0
 71
3
 72
18
 73
14
 74
0
 42
0.0000001
 43
0.0000001
 44
0.0000000001
 40
0.0
 40
0.0
 40
0.0
 40
0.0
 40
0.0589492238
 40
0.1150989862
 40
0.1693632887
 40
0.2231829596
 40
0.2780379389
 40
0.3351940592
 40
0.4584490884
 40
0.5937642424
 40
0.7348161913
 40
0.8727257732
 40
1.0
 40
1.0
 40
1.0
 40
1.0
 10
-42.4370062873
 20
-55.7558937721
 30
0.0
 10
-42.4946896608
 20
-55.7714546179
 30
0.0
 10
-42.6108062825
 20
-55.7907158892
 30
0.0
 10
-42.7837011413
 20
-55.7798806646
 30
0.0
 10
-42.9438639761
 20
-55.7281765768
 30
0.0
 10
-43.0841933938
 20
-55.6376020715
 30
0.0
 10
-43.1986160284
 20
-55.5120646309
 30
0.0
 10
-43.3135021842
 20
-55.3008437493
 30
0.0
 10
-43.3676918468
 20
-54.9761793023
 30
0.0
 10
-43.2936186782
 20
-54.5715026644
 30
0.0
 10
-43.0977430214
 20
-54.1931917709
 30
0.0
 10
-42.8073841518
 20
-53.893099926
 30
0.0
 10
-42.5618894716
 20
-53.7670382006
 30
0.0
 10
-42.4373489047
 20
-53.7334392544
 30
0.0
  0
SPLINE
  5
380
100
AcDbEntity
  8
0
100
AcDbSpline
 62
7
  6
CONTINUOUS
 70
0
 71
3
 72
11
 73
7
 74
0
 42
0.0000001
 43
0.0000001
 44
0.0000000001
 40
0.0
 40
0.0
 40
0.0
 40
0.0
 40
0.2633763089
 40
0.5159646934
 40
0.7602058049
 40
1.0
 40
1.0
 40
1.0
 40
1.0
 10
-43.2288078314
 20
-51.9919842954
 30
0.0
 10
-43.120017801
 20
-51.9626356401
 30
0.0
 10
-42.9015903998
 20
-51.9225825608
 30
0.0
 10
-42.5743943276
 20
-51.92348424
 30
0.0
 10
-42.2635835442
 20
-51.9872763863
 30
0.0
 10
-42.0722571071
 20
-52.0712470081
 30
0.0
 10
-41.9832965852
 20
-52.12234277
 30
0.0
  0
SPLINE
  5
381
100
AcDbEntity
  8
0
100
AcDbSpline
 62
7
  6
CONTINUOUS
 70
0
 71
3
 72
17
 73
13
 74
0
 42
0.0000001
 43
0.0000001
 44
0.0000000001
 40
0.0
 40
0.0
 40
0.0
 40
0.0
 40
0.052476388
 40
0.1058617934
 40
0.1609336062
 40
0.2182528694
 40
0.3402051882
 40
0.4714654219
 40
0.608267849
 40
0.7453117642
 40
0.877204884
 40
1.0
 40
1.0
 40
1.0
 40
1.0
 10
-44.4736114287
 20
-56.4580481096
 30
0.0
 10
-44.5591186411
 20
-56.40892931
 30
0.0
 10
-44.7218120466
 20
-56.2915991764
 30
0.0
 10
-44.9275639646
 20
-56.067391195
 30
0.0
 10
-45.0913202295
 20
-55.8002116218
 30
0.0
 10
-45.2516982712
 20
-55.3879518326
 30
0.0
 10
-45.323460045
 20
-54.7988854717
 30
0.0
 10
-45.2102709118
 20
-54.0670666627
 30
0.0
 10
-44.914150927
 20
-53.3580374552
 30
0.0
 10
-44.4618214984
 20
-52.7353949613
 30
0.0
 10
-43.8942086973
 20
-52.2553014023
 30
0.0
 10
-43.4515935635
 20
-52.0520870149
 30
0.0
 10
-43.2288078314
 20
-51.9919842954
 30
0.0
  0
SPLINE
  5
382
100
AcDbEntity
  8
0
100
AcDbSpline
 62
7
  6
CONTINUOUS
 70
0
 71
3
 72
18
 73
14
 74
0
 42
0.0000001
 43
0.0000001
 44
0.0000000001
 40
0.0
 40
0.0
 40
0.0
 40
0.0
 40
0.0589492238
 40
0.1150989862
 40
0.1693632887
 40
0.2231829596
 40
0.2780379389
 40
0.3351940592
 40
0.4584490884
 40
0.5937642424
 40
0.7348161913
 40
0.8727257732
 40
1.0
 40
1.0
 40
1.0
 40
1.0
 10
-42.4373489047
 20
-53.7334392544
 30
0.0
 10
-42.3796655312
 20
-53.7178784087
 30
0.0
 10
-42.2635489094
 20
-53.6986171373
 30
0.0
 10
-42.0906540506
 20
-53.709452362
 30
0.0
 10
-41.9304912158
 20
-53.7611564497
 30
0.0
 10
-41.7901617981
 20
-53.8517309551
 30
0.0
 10
-41.6757391635
 20
-53.9772683956
 30
0.0
 10
-41.5608530077
 20
-54.1884892773
 30
0.0
 10
-41.5066633452
 20
-54.5131537243
 30
0.0
 10
-41.5807365137
 20
-54.9178303621
 30
0.0
 10
-41.7766121705
 20
-55.2961412557
 30
0.0
 10
-42.0669710402
 20
-55.5962331006
 30
0.0
 10
-42.3124657204
 20
-55.722294826
 30
0.0
 10
-42.4370062873
 20
-55.7558937721
 30
0.0
  0
SPLINE
  5
383
100
AcDbEntity
  8
0
100
AcDbSpline
 62
7
  6
CONTINUOUS
 70
0
 71
3
 72
15
 73
11
 74
0
 42
0.0000001
 43
0.0000001
 44
0.0000000001
 40
0.0
 40
0.0
 40
0.0
 40
0.0
 40
0.1244337174
 40
0.2505042519
 40
0.3777221799
 40
0.5046720984
 40
0.6301670569
 40
0.7541207334
 40
0.8771943301
 40
1.0
 40
1.0
 40
1.0
 40
1.0
 10
-46.8367443369
 20
-44.10598535
 30
0.0
 10
-46.6058671674
 20
-44.0436961263
 30
0.0
 10
-46.1584496782
 20
-43.8442215416
 30
0.0
 10
-45.5982513728
 20
-43.3695149577
 30
0.0
 10
-45.1771116087
 20
-42.7623559146
 30
0.0
 10
-44.9242191645
 20
-42.0692064443
 30
0.0
 10
-44.8637440501
 20
-41.339002906
 30
0.0
 10
-45.0150258643
 20
-40.6276226244
 30
0.0
 10
-45.3805534903
 20
-40.0033095501
 30
0.0
 10
-45.7517703559
 20
-39.6928410891
 30
0.0
 10
-45.9564129069
 20
-39.5752865347
 30
0.0
  0
SPLINE
  5
384
100
AcDbEntity
  8
0
100
AcDbSpline
 62
7
  6
CONTINUOUS
 70
0
 71
3
 72
11
 73
7
 74
0
 42
0.0000001
 43
0.0000001
 44
0.0000000001
 40
0.0
 40
0.0
 40
0.0
 40
0.0
 40
0.2495167352
 40
0.4991781997
 40
0.7492409478
 40
1.0
 40
1.0
 40
1.0
 40
1.0
 10
-48.4467965759
 20
-43.9109077512
 30
0.0
 10
-48.3269447701
 20
-43.9797552395
 30
0.0
 10
-48.0722953526
 20
-44.0932347861
 30
0.0
 10
-47.6642591782
 20
-44.1827368623
 30
0.0
 10
-47.2460350315
 20
-44.1902709218
 30
0.0
 10
-46.9708984323
 20
-44.1421765902
 30
0.0
 10
-46.8367859774
 20
-44.1059965839
 30
0.0
  0
SPLINE
  5
385
100
AcDbEntity
  8
0
100
AcDbSpline
 62
7
  6
CONTINUOUS
 70
0
 71
3
 72
18
 73
14
 74
0
 42
0.0000001
 43
0.0000001
 44
0.0000000001
 40
0.0
 40
0.0
 40
0.0
 40
0.0
 40
0.0589492238
 40
0.1150989862
 40
0.1693632887
 40
0.2231829596
 40
0.2780379389
 40
0.3351940592
 40
0.4584490884
 40
0.5937642424
 40
0.7348161913
 40
0.8727257732
 40
1.0
 40
1.0
 40
1.0
 40
1.0
 10
-46.4105351506
 20
-41.1863205598
 30
0.0
 10
-46.352851777
 20
-41.170759714
 30
0.0
 10
-46.2367351553
 20
-41.1514984426
 30
0.0
 10
-46.0638402965
 20
-41.1623336673
 30
0.0
 10
-45.9036774617
 20
-41.2140377551
 30
0.0
 10
-45.763348044
 20
-41.3046122604
 30
0.0
 10
-45.6489254094
 20
-41.430149701
 30
0.0
 10
-45.5340392536
 20
-41.6413705826
 30
0.0
 10
-45.4798495911
 20
-41.9660350296
 30
0.0
 10
-45.5539227596
 20
-42.3707116675
 30
0.0
 10
-45.7497984164
 20
-42.749022561
 30
0.0
 10
-46.040157286
 20
-43.0491144059
 30
0.0
 10
-46.2856519663
 20
-43.1751761313
 30
0.0
 10
-46.4101925332
 20
-43.2087750775
 30
0.0
  0
SPLINE
  5
386
100
AcDbEntity
  8
0
100
AcDbSpline
 62
7
  6
CONTINUOUS
 70
0
 71
3
 72
11
 73
7
 74
0
 42
0.0000001
 43
0.0000001
 44
0.0000000001
 40
0.0
 40
0.0
 40
0.0
 40
0.0
 40
0.2633763089
 40
0.5159646934
 40
0.7602058049
 40
1.0
 40
1.0
 40
1.0
 40
1.0
 10
-47.2019940772
 20
-39.4448656008
 30
0.0
 10
-47.0932040469
 20
-39.4155169454
 30
0.0
 10
-46.8747766457
 20
-39.3754638661
 30
0.0
 10
-46.5475805735
 20
-39.3763655454
 30
0.0
 10
-46.2367697901
 20
-39.4401576916
 30
0.0
 10
-46.045443353
 20
-39.5241283134
 30
0.0
 10
-45.9564828311
 20
-39.5752240753
 30
0.0
  0
SPLINE
  5
387
100
AcDbEntity
  8
0
100
AcDbSpline
 62
7
  6
CONTINUOUS
 70
0
 71
3
 72
17
 73
13
 74
0
 42
0.0000001
 43
0.0000001
 44
0.0000000001
 40
0.0
 40
0.0
 40
0.0
 40
0.0
 40
0.052476388
 40
0.1058617934
 40
0.1609336062
 40
0.2182528694
 40
0.3402051882
 40
0.4714654219
 40
0.608267849
 40
0.7453117642
 40
0.877204884
 40
1.0
 40
1.0
 40
1.0
 40
1.0
 10
-48.4467976745
 20
-43.9109294149
 30
0.0
 10
-48.532304887
 20
-43.8618106153
 30
0.0
 10
-48.6949982925
 20
-43.7444804818
 30
0.0
 10
-48.9007502105
 20
-43.5202725004
 30
0.0
 10
-49.0645064754
 20
-43.2530929271
 30
0.0
 10
-49.2248845171
 20
-42.8408331379
 30
0.0
 10
-49.2966462909
 20
-42.251766777
 30
0.0
 10
-49.1834571577
 20
-41.519947968
 30
0.0
 10
-48.8873371729
 20
-40.8109187605
 30
0.0
 10
-48.4350077442
 20
-40.1882762666
 30
0.0
 10
-47.8673949431
 20
-39.7081827077
 30
0.0
 10
-47.4247798094
 20
-39.5049683203
 30
0.0
 10
-47.2019940772
 20
-39.4448656008
 30
0.0
  0
SPLINE
  5
388
100
AcDbEntity
  8
0
100
AcDbSpline
 62
7
  6
CONTINUOUS
 70
0
 71
3
 72
18
 73
14
 74
0
 42
0.0000001
 43
0.0000001
 44
0.0000000001
 40
0.0
 40
0.0
 40
0.0
 40
0.0
 40
0.0589492238
 40
0.1150989862
 40
0.1693632887
 40
0.2231829596
 40
0.2780379389
 40
0.3351940592
 40
0.4584490884
 40
0.5937642424
 40
0.7348161913
 40
0.8727257732
 40
1.0
 40
1.0
 40
1.0
 40
1.0
 10
-46.4101925332
 20
-43.2087750775
 30
0.0
 10
-46.4678759067
 20
-43.2243359232
 30
0.0
 10
-46.5839925284
 20
-43.2435971946
 30
0.0
 10
-46.7568873872
 20
-43.2327619699
 30
0.0
 10
-46.917050222
 20
-43.1810578822
 30
0.0
 10
-47.0573796397
 20
-43.0904833768
 30
0.0
 10
-47.1718022743
 20
-42.9649459363
 30
0.0
 10
-47.2866884301
 20
-42.7537250546
 30
0.0
 10
-47.3408780927
 20
-42.4290606076
 30
0.0
 10
-47.2668049241
 20
-42.0243839698
 30
0.0
 10
-47.0709292673
 20
-41.6460730762
 30
0.0
 10
-46.7805703977
 20
-41.3459812313
 30
0.0
 10
-46.5350757174
 20
-41.2199195059
 30
0.0
 10
-46.4105351506
 20
-41.1863205598
 30
0.0
  0
SPLINE
  5
389
100
AcDbEntity
  8
0
100
AcDbSpline
 62
7
  6
CONTINUOUS
 70
0
 71
3
 72
15
 73
11
 74
0
 42
0.0000001
 43
0.0000001
 44
0.0000000001
 40
0.0
 40
0.0
 40
0.0
 40
0.0
 40
0.1244337174
 40
0.2505042519
 40
0.3777221799
 40
0.5046720984
 40
0.6301670569
 40
0.7541207334
 40
0.8771943301
 40
1.0
 40
1.0
 40
1.0
 40
1.0
 10
-63.6553515385
 20
-62.2621711243
 30
0.0
 10
-63.424474369
 20
-62.1998819006
 30
0.0
 10
-62.9770568797
 20
-62.0004073159
 30
0.0
 10
-62.4168585744
 20
-61.525700732
 30
0.0
 10
-61.9957188102
 20
-60.9185416889
 30
0.0
 10
-61.742826366
 20
-60.2253922186
 30
0.0
 10
-61.6823512516
 20
-59.4951886803
 30
0.0
 10
-61.8336330659
 20
-58.7838083986
 30
0.0
 10
-62.1991606919
 20
-58.1594953244
 30
0.0
 10
-62.5703775574
 20
-57.8490268634
 30
0.0
 10
-62.7750201085
 20
-57.7314723089
 30
0.0
  0
SPLINE
  5
38A
100
AcDbEntity
  8
0
100
AcDbSpline
 62
7
  6
CONTINUOUS
 70
0
 71
3
 72
11
 73
7
 74
0
 42
0.0000001
 43
0.0000001
 44
0.0000000001
 40
0.0
 40
0.0
 40
0.0
 40
0.0
 40
0.2495167352
 40
0.4991781997
 40
0.7492409478
 40
1.0
 40
1.0
 40
1.0
 40
1.0
 10
-65.2654037775
 20
-62.0670935255
 30
0.0
 10
-65.1455519716
 20
-62.1359410138
 30
0.0
 10
-64.8909025541
 20
-62.2494205604
 30
0.0
 10
-64.4828663798
 20
-62.3389226366
 30
0.0
 10
-64.0646422331
 20
-62.3464566961
 30
0.0
 10
-63.7895056339
 20
-62.2983623645
 30
0.0
 10
-63.6553931789
 20
-62.2621823582
 30
0.0
  0
SPLINE
  5
38B
100
AcDbEntity
  8
0
100
AcDbSpline
 62
7
  6
CONTINUOUS
 70
0
 71
3
 72
18
 73
14
 74
0
 42
0.0000001
 43
0.0000001
 44
0.0000000001
 40
0.0
 40
0.0
 40
0.0
 40
0.0
 40
0.0589492238
 40
0.1150989862
 40
0.1693632887
 40
0.2231829596
 40
0.2780379389
 40
0.3351940592
 40
0.4584490884
 40
0.5937642424
 40
0.7348161913
 40
0.8727257732
 40
1.0
 40
1.0
 40
1.0
 40
1.0
 10
-63.2291423521
 20
-59.3425063341
 30
0.0
 10
-63.1714589786
 20
-59.3269454883
 30
0.0
 10
-63.0553423568
 20
-59.3076842169
 30
0.0
 10
-62.882447498
 20
-59.3185194416
 30
0.0
 10
-62.7222846633
 20
-59.3702235294
 30
0.0
 10
-62.5819552455
 20
-59.4607980347
 30
0.0
 10
-62.4675326109
 20
-59.5863354752
 30
0.0
 10
-62.3526464551
 20
-59.7975563569
 30
0.0
 10
-62.2984567926
 20
-60.1222208039
 30
0.0
 10
-62.3725299611
 20
-60.5268974418
 30
0.0
 10
-62.5684056179
 20
-60.9052083353
 30
0.0
 10
-62.8587644876
 20
-61.2053001802
 30
0.0
 10
-63.1042591678
 20
-61.3313619056
 30
0.0
 10
-63.2287997347
 20
-61.3649608517
 30
0.0
  0
SPLINE
  5
38C
100
AcDbEntity
  8
0
100
AcDbSpline
 62
7
  6
CONTINUOUS
 70
0
 71
3
 72
11
 73
7
 74
0
 42
0.0000001
 43
0.0000001
 44
0.0000000001
 40
0.0
 40
0.0
 40
0.0
 40
0.0
 40
0.2633763089
 40
0.5159646934
 40
0.7602058049
 40
1.0
 40
1.0
 40
1.0
 40
1.0
 10
-64.0206012788
 20
-57.601051375
 30
0.0
 10
-63.9118112484
 20
-57.5717027197
 30
0.0
 10
-63.6933838472
 20
-57.5316496404
 30
0.0
 10
-63.3661877751
 20
-57.5325513197
 30
0.0
 10
-63.0553769916
 20
-57.5963434659
 30
0.0
 10
-62.8640505545
 20
-57.6803140877
 30
0.0
 10
-62.7750900327
 20
-57.7314098496
 30
0.0
  0
SPLINE
  5
38D
100
AcDbEntity
  8
0
100
AcDbSpline
 62
7
  6
CONTINUOUS
 70
0
 71
3
 72
17
 73
13
 74
0
 42
0.0000001
 43
0.0000001
 44
0.0000000001
 40
0.0
 40
0.0
 40
0.0
 40
0.0
 40
0.052476388
 40
0.1058617934
 40
0.1609336062
 40
0.2182528694
 40
0.3402051882
 40
0.4714654219
 40
0.608267849
 40
0.7453117642
 40
0.877204884
 40
1.0
 40
1.0
 40
1.0
 40
1.0
 10
-65.2654048761
 20
-62.0671151892
 30
0.0
 10
-65.3509120885
 20
-62.0179963896
 30
0.0
 10
-65.513605494
 20
-61.900666256
 30
0.0
 10
-65.719357412
 20
-61.6764582747
 30
0.0
 10
-65.883113677
 20
-61.4092787014
 30
0.0
 10
-66.0434917186
 20
-60.9970189122
 30
0.0
 10
-66.1152534924
 20
-60.4079525513
 30
0.0
 10
-66.0020643593
 20
-59.6761337423
 30
0.0
 10
-65.7059443744
 20
-58.9671045348
 30
0.0
 10
-65.2536149458
 20
-58.3444620409
 30
0.0
 10
-64.6860021447
 20
-57.864368482
 30
0.0
 10
-64.243387011
 20
-57.6611540946
 30
0.0
 10
-64.0206012788
 20
-57.601051375
 30
0.0
  0
SPLINE
  5
38E
100
AcDbEntity
  8
0
100
AcDbSpline
 62
7
  6
CONTINUOUS
 70
0
 71
3
 72
18
 73
14
 74
0
 42
0.0000001
 43
0.0000001
 44
0.0000000001
 40
0.0
 40
0.0
 40
0.0
 40
0.0
 40
0.0589492238
 40
0.1150989862
 40
0.1693632887
 40
0.2231829596
 40
0.2780379389
 40
0.3351940592
 40
0.4584490884
 40
0.5937642424
 40
0.7348161913
 40
0.8727257732
 40
1.0
 40
1.0
 40
1.0
 40
1.0
 10
-63.2287997347
 20
-61.3649608517
 30
0.0
 10
-63.2864831082
 20
-61.3805216975
 30
0.0
 10
-63.40259973
 20
-61.3997829689
 30
0.0
 10
-63.5754945888
 20
-61.3889477442
 30
0.0
 10
-63.7356574235
 20
-61.3372436564
 30
0.0
 10
-63.8759868412
 20
-61.2466691511
 30
0.0
 10
-63.9904094759
 20
-61.1211317106
 30
0.0
 10
-64.1052956317
 20
-60.9099108289
 30
0.0
 10
-64.1594852942
 20
-60.5852463819
 30
0.0
 10
-64.0854121257
 20
-60.180569744
 30
0.0
 10
-63.8895364689
 20
-59.8022588505
 30
0.0
 10
-63.5991775992
 20
-59.5021670056
 30
0.0
 10
-63.353682919
 20
-59.3761052802
 30
0.0
 10
-63.2291423521
 20
-59.3425063341
 30
0.0
  0
SPLINE
  5
38F
100
AcDbEntity
  8
0
100
AcDbSpline
 62
7
  6
CONTINUOUS
 70
0
 71
3
 72
15
 73
11
 74
0
 42
0.0000001
 43
0.0000001
 44
0.0000000001
 40
0.0
 40
0.0
 40
0.0
 40
0.0
 40
0.1244337174
 40
0.2505042519
 40
0.3777221799
 40
0.5046720984
 40
0.6301670569
 40
0.7541207334
 40
0.8771943301
 40
1.0
 40
1.0
 40
1.0
 40
1.0
 10
-59.6867793745
 20
-47.5725794504
 30
0.0
 10
-59.455902205
 20
-47.5102902267
 30
0.0
 10
-59.0084847157
 20
-47.310815642
 30
0.0
 10
-58.4482864104
 20
-46.8361090581
 30
0.0
 10
-58.0271466463
 20
-46.228950015
 30
0.0
 10
-57.7742542021
 20
-45.5358005447
 30
0.0
 10
-57.7137790876
 20
-44.8055970064
 30
0.0
 10
-57.8650609019
 20
-44.0942167247
 30
0.0
 10
-58.2305885279
 20
-43.4699036505
 30
0.0
 10
-58.6018053934
 20
-43.1594351895
 30
0.0
 10
-58.8064479445
 20
-43.041880635
 30
0.0
  0
SPLINE
  5
390
100
AcDbEntity
  8
0
100
AcDbSpline
 62
7
  6
CONTINUOUS
 70
0
 71
3
 72
11
 73
7
 74
0
 42
0.0000001
 43
0.0000001
 44
0.0000000001
 40
0.0
 40
0.0
 40
0.0
 40
0.0
 40
0.2495167352
 40
0.4991781997
 40
0.7492409478
 40
1.0
 40
1.0
 40
1.0
 40
1.0
 10
-61.2968316135
 20
-47.3775018516
 30
0.0
 10
-61.1769798076
 20
-47.4463493399
 30
0.0
 10
-60.9223303902
 20
-47.5598288865
 30
0.0
 10
-60.5142942158
 20
-47.6493309627
 30
0.0
 10
-60.0960700691
 20
-47.6568650222
 30
0.0
 10
-59.8209334699
 20
-47.6087706906
 30
0.0
 10
-59.686821015
 20
-47.5725906843
 30
0.0
  0
SPLINE
  5
391
100
AcDbEntity
  8
0
100
AcDbSpline
 62
7
  6
CONTINUOUS
 70
0
 71
3
 72
18
 73
14
 74
0
 42
0.0000001
 43
0.0000001
 44
0.0000000001
 40
0.0
 40
0.0
 40
0.0
 40
0.0
 40
0.0589492238
 40
0.1150989862
 40
0.1693632887
 40
0.2231829596
 40
0.2780379389
 40
0.3351940592
 40
0.4584490884
 40
0.5937642424
 40
0.7348161913
 40
0.8727257732
 40
1.0
 40
1.0
 40
1.0
 40
1.0
 10
-59.2605701881
 20
-44.6529146602
 30
0.0
 10
-59.2028868146
 20
-44.6373538144
 30
0.0
 10
-59.0867701929
 20
-44.618092543
 30
0.0
 10
-58.9138753341
 20
-44.6289277677
 30
0.0
 10
-58.7537124993
 20
-44.6806318555
 30
0.0
 10
-58.6133830816
 20
-44.7712063608
 30
0.0
 10
-58.498960447
 20
-44.8967438013
 30
0.0
 10
-58.3840742912
 20
-45.107964683
 30
0.0
 10
-58.3298846286
 20
-45.43262913
 30
0.0
 10
-58.4039577972
 20
-45.8373057679
 30
0.0
 10
-58.5998334539
 20
-46.2156166614
 30
0.0
 10
-58.8901923236
 20
-46.5157085063
 30
0.0
 10
-59.1356870038
 20
-46.6417702317
 30
0.0
 10
-59.2602275707
 20
-46.6753691778
 30
0.0
  0
SPLINE
  5
392
100
AcDbEntity
  8
0
100
AcDbSpline
 62
7
  6
CONTINUOUS
 70
0
 71
3
 72
11
 73
7
 74
0
 42
0.0000001
 43
0.0000001
 44
0.0000000001
 40
0.0
 40
0.0
 40
0.0
 40
0.0
 40
0.2633763089
 40
0.5159646934
 40
0.7602058049
 40
1.0
 40
1.0
 40
1.0
 40
1.0
 10
-60.0520291148
 20
-42.9114597011
 30
0.0
 10
-59.9432390844
 20
-42.8821110458
 30
0.0
 10
-59.7248116832
 20
-42.8420579665
 30
0.0
 10
-59.3976156111
 20
-42.8429596458
 30
0.0
 10
-59.0868048277
 20
-42.906751792
 30
0.0
 10
-58.8954783906
 20
-42.9907224138
 30
0.0
 10
-58.8065178687
 20
-43.0418181757
 30
0.0
  0
SPLINE
  5
393
100
AcDbEntity
  8
0
100
AcDbSpline
 62
7
  6
CONTINUOUS
 70
0
 71
3
 72
17
 73
13
 74
0
 42
0.0000001
 43
0.0000001
 44
0.0000000001
 40
0.0
 40
0.0
 40
0.0
 40
0.0
 40
0.052476388
 40
0.1058617934
 40
0.1609336062
 40
0.2182528694
 40
0.3402051882
 40
0.4714654219
 40
0.608267849
 40
0.7453117642
 40
0.877204884
 40
1.0
 40
1.0
 40
1.0
 40
1.0
 10
-61.2968327121
 20
-47.3775235153
 30
0.0
 10
-61.3823399246
 20
-47.3284047157
 30
0.0
 10
-61.5450333301
 20
-47.2110745821
 30
0.0
 10
-61.750785248
 20
-46.9868666008
 30
0.0
 10
-61.914541513
 20
-46.7196870275
 30
0.0
 10
-62.0749195547
 20
-46.3074272383
 30
0.0
 10
-62.1466813285
 20
-45.7183608774
 30
0.0
 10
-62.0334921953
 20
-44.9865420684
 30
0.0
 10
-61.7373722104
 20
-44.2775128609
 30
0.0
 10
-61.2850427818
 20
-43.654870367
 30
0.0
 10
-60.7174299807
 20
-43.1747768081
 30
0.0
 10
-60.274814847
 20
-42.9715624207
 30
0.0
 10
-60.0520291148
 20
-42.9114597011
 30
0.0
  0
SPLINE
  5
394
100
AcDbEntity
  8
0
100
AcDbSpline
 62
7
  6
CONTINUOUS
 70
0
 71
3
 72
18
 73
14
 74
0
 42
0.0000001
 43
0.0000001
 44
0.0000000001
 40
0.0
 40
0.0
 40
0.0
 40
0.0
 40
0.0589492238
 40
0.1150989862
 40
0.1693632887
 40
0.2231829596
 40
0.2780379389
 40
0.3351940592
 40
0.4584490884
 40
0.5937642424
 40
0.7348161913
 40
0.8727257732
 40
1.0
 40
1.0
 40
1.0
 40
1.0
 10
-59.2602275707
 20
-46.6753691778
 30
0.0
 10
-59.3179109442
 20
-46.6909300236
 30
0.0
 10
-59.434027566
 20
-46.710191295
 30
0.0
 10
-59.6069224248
 20
-46.6993560703
 30
0.0
 10
-59.7670852596
 20
-46.6476519825
 30
0.0
 10
-59.9074146773
 20
-46.5570774772
 30
0.0
 10
-60.0218373119
 20
-46.4315400367
 30
0.0
 10
-60.1367234677
 20
-46.220319155
 30
0.0
 10
-60.1909131302
 20
-45.895654708
 30
0.0
 10
-60.1168399617
 20
-45.4909780701
 30
0.0
 10
-59.9209643049
 20
-45.1126671766
 30
0.0
 10
-59.6306054352
 20
-44.8125753317
 30
0.0
 10
-59.385110755
 20
-44.6865136063
 30
0.0
 10
-59.2605701881
 20
-44.6529146602
 30
0.0
  0
SPLINE
  5
395
100
AcDbEntity
  8
0
100
AcDbSpline
 62
7
  6
CONTINUOUS
 70
0
 71
3
 72
11
 73
7
 74
0
 42
0.0000001
 43
0.0000001
 44
0.0000000001
 40
0.0
 40
0.0
 40
0.0
 40
0.0
 40
0.2484986807
 40
0.4975275213
 40
0.7477463083
 40
1.0
 40
1.0
 40
1.0
 40
1.0
 10
-54.2357156136
 20
-69.1955927615
 30
0.0
 10
-54.0794782705
 20
-69.2853279688
 30
0.0
 10
-53.7469294465
 20
-69.432816947
 30
0.0
 10
-53.2133571944
 20
-69.5473930138
 30
0.0
 10
-52.6651905043
 20
-69.5545160104
 30
0.0
 10
-52.3041551708
 20
-69.4904007921
 30
0.0
 10
-52.1275718467
 20
-69.4427633571
 30
0.0
  0
SPLINE
  5
396
100
AcDbEntity
  8
0
100
AcDbSpline
 62
7
  6
CONTINUOUS
 70
0
 71
3
 72
17
 73
13
 74
0
 42
0.0000001
 43
0.0000001
 44
0.0000000001
 40
0.0
 40
0.0
 40
0.0
 40
0.0
 40
0.1239019404
 40
0.2509158749
 40
0.3799626166
 40
0.5087045599
 40
0.6349971213
 40
0.7581802448
 40
0.8190505021
 40
0.879547813
 40
0.9398191208
 40
1.0
 40
1.0
 40
1.0
 40
1.0
 10
-52.1275718467
 20
-69.4427633571
 30
0.0
 10
-51.80754596
 20
-69.3564289738
 30
0.0
 10
-51.1845265105
 20
-69.0763442606
 30
0.0
 10
-50.3999735601
 20
-68.4126684286
 30
0.0
 10
-49.7995617656
 20
-67.5632418844
 30
0.0
 10
-49.4260374361
 20
-66.594419093
 30
0.0
 10
-49.3134537097
 20
-65.5768324922
 30
0.0
 10
-49.4626432643
 20
-64.7454602777
 30
0.0
 10
-49.7318526626
 20
-64.1462156706
 30
0.0
 10
-50.00502114
 20
-63.7412099112
 30
0.0
 10
-50.3446255652
 20
-63.3926886785
 30
0.0
 10
-50.6097656515
 20
-63.2057340641
 30
0.0
 10
-50.7493748809
 20
-63.1255492447
 30
0.0
  0
SPLINE
  5
397
100
AcDbEntity
  8
0
100
AcDbSpline
 62
7
  6
CONTINUOUS
 70
0
 71
3
 72
20
 73
16
 74
0
 42
0.0000001
 43
0.0000001
 44
0.0000000001
 40
0.0
 40
0.0
 40
0.0
 40
0.0
 40
0.0589030721
 40
0.1149769527
 40
0.1691926489
 40
0.222956341
 40
0.2777558988
 40
0.3348562185
 40
0.3950495842
 40
0.458581407
 40
0.59376306
 40
0.7346724271
 40
0.8047007837
 40
0.8728638851
 40
1.0
 40
1.0
 40
1.0
 40
1.0
 10
-51.7009773056
 20
-68.5455361742
 30
0.0
 10
-51.8111248124
 20
-68.5752510113
 30
0.0
 10
-52.0327879414
 20
-68.612068607
 30
0.0
 10
-52.3628545058
 20
-68.5913091679
 30
0.0
 10
-52.6686032203
 20
-68.4926506544
 30
0.0
 10
-52.9364955519
 20
-68.3196906299
 30
0.0
 10
-53.1549497944
 20
-68.0800816764
 30
0.0
 10
-53.3155687838
 20
-67.7846813368
 30
0.0
 10
-53.4131070136
 20
-67.445692069
 30
0.0
 10
-53.4562099732
 20
-66.9434582845
 30
0.0
 10
-53.3365273253
 20
-66.2839053863
 30
0.0
 10
-53.0234208221
 20
-65.6798695822
 30
0.0
 10
-52.6738835943
 20
-65.2647904014
 30
0.0
 10
-52.2857301268
 20
-64.9264635563
 30
0.0
 10
-51.9393732527
 20
-64.7486435485
 30
0.0
 10
-51.7016313899
 20
-64.6845071834
 30
0.0
  0
SPLINE
  5
398
100
AcDbEntity
  8
0
100
AcDbSpline
 62
7
  6
CONTINUOUS
 70
0
 71
3
 72
20
 73
16
 74
0
 42
0.0000001
 43
0.0000001
 44
0.0000000001
 40
0.0
 40
0.0
 40
0.0
 40
0.0
 40
0.0589030721
 40
0.1149769527
 40
0.1691926489
 40
0.222956341
 40
0.2777558988
 40
0.3348562185
 40
0.3950495842
 40
0.458581407
 40
0.59376306
 40
0.7346724271
 40
0.8047007837
 40
0.8728638851
 40
1.0
 40
1.0
 40
1.0
 40
1.0
 10
-51.7016313899
 20
-64.6845071834
 30
0.0
 10
-51.591483883
 20
-64.6547923463
 30
0.0
 10
-51.3698207541
 20
-64.6179747506
 30
0.0
 10
-51.0397541897
 20
-64.6387341897
 30
0.0
 10
-50.7340054751
 20
-64.7373927032
 30
0.0
 10
-50.4661131435
 20
-64.9103527277
 30
0.0
 10
-50.247658901
 20
-65.1499616812
 30
0.0
 10
-50.0870399117
 20
-65.4453620208
 30
0.0
 10
-49.9895016818
 20
-65.7843512886
 30
0.0
 10
-49.9463987222
 20
-66.2865850731
 30
0.0
 10
-50.0660813701
 20
-66.9461379713
 30
0.0
 10
-50.3791878734
 20
-67.5501737754
 30
0.0
 10
-50.7287251011
 20
-67.9652529562
 30
0.0
 10
-51.1168785687
 20
-68.3035798013
 30
0.0
 10
-51.4632354427
 20
-68.4813998091
 30
0.0
 10
-51.7009773056
 20
-68.5455361742
 30
0.0
  0
SPLINE
  5
399
100
AcDbEntity
  8
0
100
AcDbSpline
 62
7
  6
CONTINUOUS
 70
0
 71
3
 72
17
 73
13
 74
0
 42
0.0000001
 43
0.0000001
 44
0.0000000001
 40
0.0
 40
0.0
 40
0.0
 40
0.0
 40
0.0524733127
 40
0.1058569801
 40
0.1609314747
 40
0.2182546469
 40
0.3402058405
 40
0.4714711154
 40
0.6082947024
 40
0.7453440597
 40
0.8772209589
 40
1.0
 40
1.0
 40
1.0
 40
1.0
 10
-54.2357138441
 20
-69.1955896808
 30
0.0
 10
-54.3554185939
 20
-69.1268262215
 30
0.0
 10
-54.5832008228
 20
-68.9625999096
 30
0.0
 10
-54.8712916068
 20
-68.648737217
 30
0.0
 10
-55.1005478993
 20
-68.2746604507
 30
0.0
 10
-55.3251097844
 20
-67.6974874346
 30
0.0
 10
-55.4256255603
 20
-66.8727617925
 30
0.0
 10
-55.2671163815
 20
-65.8481392254
 30
0.0
 10
-54.8525344632
 20
-64.8553944116
 30
0.0
 10
-54.2191892424
 20
-63.9836958874
 30
0.0
 10
-53.4245492238
 20
-63.3116375248
 30
0.0
 10
-52.8049544884
 20
-63.0271794158
 30
0.0
 10
-52.4930903174
 20
-62.9430468441
 30
0.0
  0
SPLINE
  5
39A
100
AcDbEntity
  8
0
100
AcDbSpline
 62
7
  6
CONTINUOUS
 70
0
 71
3
 72
11
 73
7
 74
0
 42
0.0000001
 43
0.0000001
 44
0.0000000001
 40
0.0
 40
0.0
 40
0.0
 40
0.0
 40
0.2625616187
 40
0.5149422515
 40
0.7595318041
 40
1.0
 40
1.0
 40
1.0
 40
1.0
 10
-52.4165393294
 20
-62.9235264689
 30
0.0
 10
-52.2703222124
 20
-62.8884024208
 30
0.0
 10
-51.9773114635
 20
-62.8424206347
 30
0.0
 10
-51.5399691203
 20
-62.8524086595
 30
0.0
 10
-51.12477742
 20
-62.9432321769
 30
0.0
 10
-50.8687984738
 20
-63.0569513911
 30
0.0
 10
-50.7493766505
 20
-63.1255523254
 30
0.0
  0
SPLINE
  5
39B
100
AcDbEntity
  8
0
100
AcDbSpline
 62
7
  6
CONTINUOUS
 70
0
 71
3
 72
9
 73
5
 74
0
 42
0.0000001
 43
0.0000001
 44
0.0000000001
 40
0.0
 40
0.0
 40
0.0
 40
0.0
 40
0.2571374722
 40
1.0
 40
1.0
 40
1.0
 40
1.0
 10
-66.8797760688
 20
-61.9388686067
 30
0.0
 10
-67.3261266285
 20
-62.2191299288
 30
0.0
 10
-69.0945982658
 20
-63.2554891769
 30
0.0
 10
-70.9963674363
 20
-64.0701268197
 30
0.0
 10
-72.4534023414
 20
-64.5121708305
 30
0.0
  0
SPLINE
  5
39C
100
AcDbEntity
  8
0
100
AcDbSpline
 62
7
  6
CONTINUOUS
 70
0
 71
3
 72
9
 73
5
 74
0
 42
0.0000001
 43
0.0000001
 44
0.0000000001
 40
0.0
 40
0.0
 40
0.0
 40
0.0
 40
0.4836665951
 40
1.0
 40
1.0
 40
1.0
 40
1.0
 10
-61.387867458
 20
-40.8908136396
 30
0.0
 10
-61.5718086258
 20
-40.7852024062
 30
0.0
 10
-62.0048598661
 20
-40.6502492248
 30
0.0
 10
-62.4521247173
 20
-40.69755884
 30
0.0
 10
-62.6707387579
 20
-40.7565350328
 30
0.0
  0
SPLINE
  5
39D
100
AcDbEntity
  8
0
100
AcDbSpline
 62
7
  6
CONTINUOUS
 70
0
 71
3
 72
9
 73
5
 74
0
 42
0.0000001
 43
0.0000001
 44
0.0000000001
 40
0.0
 40
0.0
 40
0.0
 40
0.0
 40
0.2452299203
 40
1.0
 40
1.0
 40
1.0
 40
1.0
 10
-53.4489424102
 20
-31.4560755439
 30
0.0
 10
-53.3702913324
 20
-31.7884141508
 30
0.0
 10
-53.0830828444
 20
-33.1514319798
 30
0.0
 10
-52.9285053764
 20
-34.5416479865
 30
0.0
 10
-52.8805378268
 20
-35.5916808153
 30
0.0
  0
SPLINE
  5
39E
100
AcDbEntity
  8
0
100
AcDbSpline
 62
7
  6
CONTINUOUS
 70
0
 71
3
 72
9
 73
5
 74
0
 42
0.0000001
 43
0.0000001
 44
0.0000000001
 40
0.0
 40
0.0
 40
0.0
 40
0.0
 40
0.2521714228
 40
1.0
 40
1.0
 40
1.0
 40
1.0
 10
-61.0526007477
 20
-41.153355611
 30
0.0
 10
-61.07746103
 20
-41.1275095232
 30
0.0
 10
-61.1795350408
 20
-41.0284357353
 30
0.0
 10
-61.2956387865
 20
-40.9437674393
 30
0.0
 10
-61.387867458
 20
-40.8908136396
 30
0.0
  0
SPLINE
  5
39F
100
AcDbEntity
  8
0
100
AcDbSpline
 62
7
  6
CONTINUOUS
 70
0
 71
3
 72
9
 73
5
 74
0
 42
0.0000001
 43
0.0000001
 44
0.0000000001
 40
0.0
 40
0.0
 40
0.0
 40
0.0
 40
0.254864981
 40
1.0
 40
1.0
 40
1.0
 40
1.0
 10
-156.3362988802
 20
-1.6969627522
 30
0.0
 10
-156.5237828056
 20
-2.516555935
 30
0.0
 10
-157.1748768611
 20
-5.7507949853
 30
0.0
 10
-157.4811899729
 20
-9.0568464314
 30
0.0
 10
-157.4884521782
 20
-11.5149305718
 30
0.0
  0
SPLINE
  5
3A0
100
AcDbEntity
  8
0
100
AcDbSpline
 62
7
  6
CONTINUOUS
 70
0
 71
3
 72
9
 73
5
 74
0
 42
0.0000001
 43
0.0000001
 44
0.0000000001
 40
0.0
 40
0.0
 40
0.0
 40
0.0
 40
0.5094134816
 40
1.0
 40
1.0
 40
1.0
 40
1.0
 10
-158.3860056419
 20
-15.9811596713
 30
0.0
 10
-157.9817881031
 20
-17.5769313032
 30
0.0
 10
-156.9553005636
 20
-20.6564605454
 30
0.0
 10
-155.4387082511
 20
-23.5302269458
 30
0.0
 10
-154.5766439482
 20
-24.8606860554
 30
0.0
  0
LINE
  5
3A1
100
AcDbEntity
  8
0
100
AcDbLine
 62
7
  6
CONTINUOUS
 10
-135.4991195625
 20
-37.2686224416
 11
-135.6583846463
 21
-37.2112113236
  0
SPLINE
  5
3A2
100
AcDbEntity
  8
0
100
AcDbSpline
 62
7
  6
CONTINUOUS
 70
0
 71
3
 72
11
 73
7
 74
0
 42
0.0000001
 43
0.0000001
 44
0.0000000001
 40
0.0
 40
0.0
 40
0.0
 40
0.0
 40
0.2596680207
 40
0.5113564614
 40
0.7572107399
 40
1.0
 40
1.0
 40
1.0
 40
1.0
 10
-138.9922338009
 20
-29.27777048
 30
0.0
 10
-138.6485928945
 20
-30.109160199
 30
0.0
 10
-137.8520876568
 20
-31.7005209396
 30
0.0
 10
-136.317764912
 20
-33.8422185791
 30
0.0
 10
-134.4903293333
 20
-35.6589110386
 30
0.0
 10
-133.0935102575
 20
-36.6331965788
 30
0.0
 10
-132.3641297821
 20
-37.0521364719
 30
0.0
  0
SPLINE
  5
3A3
100
AcDbEntity
  8
0
100
AcDbSpline
 62
7
  6
CONTINUOUS
 70
0
 71
3
 72
11
 73
7
 74
0
 42
0.0000001
 43
0.0000001
 44
0.0000000001
 40
0.0
 40
0.0
 40
0.0
 40
0.0
 40
0.2661252756
 40
0.5229472182
 40
0.7679051693
 40
1.0
 40
1.0
 40
1.0
 40
1.0
 10
-138.9952255681
 20
-11.6175081706
 30
0.0
 10
-139.5064223722
 20
-13.1313431577
 30
0.0
 10
-140.2885466105
 20
-16.1875846105
 30
0.0
 10
-140.7020711436
 20
-20.8007252795
 30
0.0
 10
-140.3238860084
 20
-25.2142320063
 30
0.0
 10
-139.5245344148
 20
-27.9899457489
 30
0.0
 10
-138.9922338009
 20
-29.27777048
 30
0.0
  0
SPLINE
  5
3A4
100
AcDbEntity
  8
0
100
AcDbSpline
 62
7
  6
CONTINUOUS
 70
0
 71
3
 72
18
 73
14
 74
0
 42
0.0000001
 43
0.0000001
 44
0.0000000001
 40
0.0
 40
0.0
 40
0.0
 40
0.0
 40
0.0528295362
 40
0.1061583283
 40
0.1604466005
 40
0.2160825356
 40
0.3322441408
 40
0.4559841876
 40
0.5867768223
 40
0.6543671988
 40
0.7229702771
 40
0.8616648448
 40
1.0
 40
1.0
 40
1.0
 40
1.0
 10
-107.3621165319
 20
6.4786942683
 30
0.0
 10
-107.9906628705
 20
6.8396831208
 30
0.0
 10
-109.3106654904
 20
7.4705903464
 30
0.0
 10
-111.4234914049
 20
8.1151784854
 30
0.0
 10
-113.6457609914
 20
8.4525154598
 30
0.0
 10
-116.7560242319
 20
8.4886175768
 30
0.0
 10
-120.7844951972
 20
7.7190770498
 30
0.0
 10
-125.4616132819
 20
5.6269534539
 30
0.0
 10
-129.0713462059
 20
3.025123282
 30
0.0
 10
-131.7232842684
 20
0.4924166592
 30
0.0
 10
-134.2085625011
 20
-2.3506240409
 30
0.0
 10
-136.8472427278
 20
-6.3203427291
 30
0.0
 10
-138.3879929332
 20
-9.8192770383
 30
0.0
 10
-138.9952255681
 20
-11.6175081706
 30
0.0
  0
SPLINE
  5
3A5
100
AcDbEntity
  8
0
100
AcDbSpline
 62
7
  6
CONTINUOUS
 70
0
 71
3
 72
9
 73
5
 74
0
 42
0.0000001
 43
0.0000001
 44
0.0000000001
 40
0.0
 40
0.0
 40
0.0
 40
0.0
 40
0.493221564
 40
1.0
 40
1.0
 40
1.0
 40
1.0
 10
-154.060545657
 20
-26.161825804
 30
0.0
 10
-154.8688377882
 20
-25.0750417993
 30
0.0
 10
-156.2779904947
 20
-22.6932230386
 30
0.0
 10
-157.1996745374
 20
-20.0880995875
 30
0.0
 10
-157.5480774377
 20
-18.7407759648
 30
0.0
  0
SPLINE
  5
3A6
100
AcDbEntity
  8
0
100
AcDbSpline
 62
7
  6
CONTINUOUS
 70
0
 71
3
 72
9
 73
5
 74
0
 42
0.0000001
 43
0.0000001
 44
0.0000000001
 40
0.0
 40
0.0
 40
0.0
 40
0.0
 40
0.4911087859
 40
1.0
 40
1.0
 40
1.0
 40
1.0
 10
-124.3728706466
 20
20.1968147354
 30
0.0
 10
-125.8656952117
 20
20.2463462526
 30
0.0
 10
-128.9179743606
 20
20.092469246
 30
0.0
 10
-131.908084444
 20
19.4732266481
 30
0.0
 10
-133.3981629275
 20
19.0547395315
 30
0.0
  0
SPLINE
  5
3A7
100
AcDbEntity
  8
0
100
AcDbSpline
 62
7
  6
CONTINUOUS
 70
0
 71
3
 72
9
 73
5
 74
0
 42
0.0000001
 43
0.0000001
 44
0.0000000001
 40
0.0
 40
0.0
 40
0.0
 40
0.0
 40
0.2451539794
 40
1.0
 40
1.0
 40
1.0
 40
1.0
 10
-136.7464402033
 20
19.1550078446
 30
0.0
 10
-137.4263204743
 20
18.7715400719
 30
0.0
 10
-140.1540545547
 20
17.1273941778
 30
0.0
 10
-142.69421488
 20
15.1763947417
 30
0.0
 10
-144.4839327853
 20
13.572233064
 30
0.0
  0
SPLINE
  5
3A8
100
AcDbEntity
  8
0
100
AcDbSpline
 62
7
  6
CONTINUOUS
 70
0
 71
3
 72
9
 73
5
 74
0
 42
0.0000001
 43
0.0000001
 44
0.0000000001
 40
0.0
 40
0.0
 40
0.0
 40
0.0
 40
0.4931350279
 40
1.0
 40
1.0
 40
1.0
 40
1.0
 10
-158.3569461968
 20
-12.188927503
 30
0.0
 10
-158.357245296
 20
-10.4233591021
 30
0.0
 10
-158.0260750335
 20
-6.8374282675
 30
0.0
 10
-157.1017636055
 20
-3.3604837843
 30
0.0
 10
-156.4995895347
 20
-1.6485796909
 30
0.0
  0
SPLINE
  5
3A9
100
AcDbEntity
  8
0
100
AcDbSpline
 62
7
  6
CONTINUOUS
 70
0
 71
3
 72
9
 73
5
 74
0
 42
0.0000001
 43
0.0000001
 44
0.0000000001
 40
0.0
 40
0.0
 40
0.0
 40
0.0
 40
0.5010400544
 40
1.0
 40
1.0
 40
1.0
 40
1.0
 10
-156.4995895347
 20
-1.6485796909
 30
0.0
 10
-155.6547024893
 20
0.7533264383
 30
0.0
 10
-153.4345550415
 20
5.3735120056
 30
0.0
 10
-150.2849368569
 20
9.4191359572
 30
0.0
 10
-148.5129302727
 20
11.2327683
 30
0.0
  0
SPLINE
  5
3AA
100
AcDbEntity
  8
0
100
AcDbSpline
 62
7
  6
CONTINUOUS
 70
0
 71
3
 72
9
 73
5
 74
0
 42
0.0000001
 43
0.0000001
 44
0.0000000001
 40
0.0
 40
0.0
 40
0.0
 40
0.0
 40
0.509429675
 40
1.0
 40
1.0
 40
1.0
 40
1.0
 10
-148.5129302727
 20
11.2327683
 30
0.0
 10
-147.06321383
 20
12.7165396651
 30
0.0
 10
-143.9405735514
 20
15.3735502801
 30
0.0
 10
-140.3390159418
 20
17.3498982386
 30
0.0
 10
-138.4887425182
 20
18.1029080062
 30
0.0
  0
SPLINE
  5
3AB
100
AcDbEntity
  8
0
100
AcDbSpline
 62
7
  6
CONTINUOUS
 70
0
 71
3
 72
9
 73
5
 74
0
 42
0.0000001
 43
0.0000001
 44
0.0000000001
 40
0.0
 40
0.0
 40
0.0
 40
0.0
 40
0.50513119
 40
1.0
 40
1.0
 40
1.0
 40
1.0
 10
-135.527210773
 20
19.0983990397
 30
0.0
 10
-134.5476496875
 20
19.3591619838
 30
0.0
 10
-132.5728343214
 20
19.7514390548
 30
0.0
 10
-130.5615956958
 20
19.8670793495
 30
0.0
 10
-129.5686497209
 20
19.850702541
 30
0.0
  0
SPLINE
  5
3AC
100
AcDbEntity
  8
0
100
AcDbSpline
 62
7
  6
CONTINUOUS
 70
0
 71
3
 72
10
 73
6
 74
0
 42
0.0000001
 43
0.0000001
 44
0.0000000001
 40
0.0
 40
0.0
 40
0.0
 40
0.0
 40
0.2353691627
 40
0.4807077593
 40
1.0
 40
1.0
 40
1.0
 40
1.0
 10
-135.6046447166
 20
19.0026116781
 30
0.0
 10
-135.6658818285
 20
19.0580788154
 30
0.0
 10
-135.8120598654
 20
19.1496081108
 30
0.0
 10
-136.1556147099
 20
19.2382208609
 30
0.0
 10
-136.4344797113
 20
19.1974613367
 30
0.0
 10
-136.6058601785
 20
19.1353439446
 30
0.0
  0
SPLINE
  5
3AD
100
AcDbEntity
  8
0
100
AcDbSpline
 62
7
  6
CONTINUOUS
 70
0
 71
3
 72
9
 73
5
 74
0
 42
0.0000001
 43
0.0000001
 44
0.0000000001
 40
0.0
 40
0.0
 40
0.0
 40
0.0
 40
0.5654097144
 40
1.0
 40
1.0
 40
1.0
 40
1.0
 10
-136.6056495155
 20
19.1352221718
 30
0.0
 10
-136.6296231505
 20
19.149050239
 30
0.0
 10
-136.67493072
 20
19.1701112001
 30
0.0
 10
-136.7278697239
 20
19.1653830493
 30
0.0
 10
-136.7463662639
 20
19.1548761778
 30
0.0
  0
SPLINE
  5
3AE
100
AcDbEntity
  8
0
100
AcDbSpline
 62
7
  6
CONTINUOUS
 70
0
 71
3
 72
24
 73
20
 74
0
 42
0.0000001
 43
0.0000001
 44
0.0000000001
 40
0.0
 40
0.0
 40
0.0
 40
0.0
 40
0.1256452911
 40
0.2512979375
 40
0.3769547943
 40
0.5026114272
 40
0.5654379048
 40
0.6282607345
 40
0.6910768157
 40
0.7538801125
 40
0.8166571076
 40
0.8480267001
 40
0.8793719005
 40
0.9106718936
 40
0.9418727092
 40
0.9573902607
 40
0.9727719455
 40
0.98776127
 40
1.0
 40
1.0
 40
1.0
 40
1.0
 10
-153.4596231718
 20
2.6117641054
 30
0.0
 10
-153.5007353448
 20
2.5242117584
 30
0.0
 10
-153.5819781112
 20
2.3486378129
 30
0.0
 10
-153.7007646356
 20
2.0838686306
 30
0.0
 10
-153.8162808707
 20
1.8176458859
 30
0.0
 10
-153.9095634535
 20
1.5945194517
 30
0.0
 10
-153.9821212156
 20
1.4151785231
 30
0.0
 10
-154.0353869402
 20
1.2802233119
 30
0.0
 10
-154.0873378461
 20
1.1447745927
 30
0.0
 10
-154.1377131395
 20
1.0087697671
 30
0.0
 10
-154.1780352829
 20
0.8948637916
 30
0.0
 10
-154.2088585838
 20
0.8033087451
 30
0.0
 10
-154.2310432156
 20
0.7344024194
 30
0.0
 10
-154.2519337828
 20
0.6652858628
 30
0.0
 10
-154.2677933459
 20
0.6072001331
 30
0.0
 10
-154.2786130098
 20
0.5609094804
 30
0.0
 10
-154.2853536652
 20
0.525376176
 30
0.0
 10
-154.2886963205
 20
0.4955449933
 30
0.0
 10
-154.2879512761
 20
0.4684269893
 30
0.0
 10
-154.2795168829
 20
0.4642283804
 30
0.0
  0
SPLINE
  5
3AF
100
AcDbEntity
  8
0
100
AcDbSpline
 62
7
  6
CONTINUOUS
 70
0
 71
3
 72
9
 73
5
 74
0
 42
0.0000001
 43
0.0000001
 44
0.0000000001
 40
0.0
 40
0.0
 40
0.0
 40
0.0
 40
0.2408043606
 40
1.0
 40
1.0
 40
1.0
 40
1.0
 10
-134.2786412993
 20
18.7294392371
 30
0.0
 10
-133.1125660202
 20
18.0541010046
 30
0.0
 10
-128.3327388756
 20
15.1419487789
 30
0.0
 10
-123.8042958024
 20
11.8248322891
 30
0.0
 10
-120.510383383
 20
9.1417358848
 30
0.0
  0
SPLINE
  5
3B0
100
AcDbEntity
  8
0
100
AcDbSpline
 62
7
  6
CONTINUOUS
 70
0
 71
3
 72
11
 73
7
 74
0
 42
0.0000001
 43
0.0000001
 44
0.0000000001
 40
0.0
 40
0.0
 40
0.0
 40
0.0
 40
0.1866574299
 40
0.3953711799
 40
0.6682647087
 40
1.0
 40
1.0
 40
1.0
 40
1.0
 10
-157.5251545871
 20
-14.3127341635
 30
0.0
 10
-157.5043600924
 20
-14.293756533
 30
0.0
 10
-157.4451707022
 20
-14.2658257674
 30
0.0
 10
-157.3429577912
 20
-14.2988483702
 30
0.0
 10
-157.2521583716
 20
-14.38363617
 30
0.0
 10
-157.2015024613
 20
-14.4603328461
 30
0.0
 10
-157.177488234
 20
-14.5042269335
 30
0.0
  0
SPLINE
  5
3B1
100
AcDbEntity
  8
0
100
AcDbSpline
 62
7
  6
CONTINUOUS
 70
0
 71
3
 72
9
 73
5
 74
0
 42
0.0000001
 43
0.0000001
 44
0.0000000001
 40
0.0
 40
0.0
 40
0.0
 40
0.0
 40
0.2450836553
 40
1.0
 40
1.0
 40
1.0
 40
1.0
 10
-136.6998035828
 20
19.0819272938
 30
0.0
 10
-137.3773546418
 20
18.6973829323
 30
0.0
 10
-140.096454608
 20
17.0490196771
 30
0.0
 10
-142.6283367476
 20
15.096069432
 30
0.0
 10
-144.4124183701
 20
13.491165482
 30
0.0
  0
SPLINE
  5
3B2
100
AcDbEntity
  8
0
100
AcDbSpline
 62
7
  6
CONTINUOUS
 70
0
 71
3
 72
8
 73
4
 74
0
 42
0.0000001
 43
0.0000001
 44
0.0000000001
 40
0.0
 40
0.0
 40
0.0
 40
0.0
 40
1.0
 40
1.0
 40
1.0
 40
1.0
 10
-144.6799869308
 20
13.2486236768
 30
0.0
 10
-144.7871353925
 20
13.1493472507
 30
0.0
 10
-144.8947558498
 20
13.0505805546
 30
0.0
 10
-145.0017870036
 20
12.9511776686
 30
0.0
  0
SPLINE
  5
3B3
100
AcDbEntity
  8
0
100
AcDbSpline
 62
7
  6
CONTINUOUS
 70
0
 71
3
 72
42
 73
38
 74
0
 42
0.0000001
 43
0.0000001
 44
0.0000000001
 40
0.0
 40
0.0
 40
0.0
 40
0.0
 40
0.1069554974
 40
0.2197244199
 40
0.3379373553
 40
0.3989809975
 40
0.461253931
 40
0.5247143543
 40
0.5893214692
 40
0.6550354619
 40
0.721817382
 40
0.7896284189
 40
0.823907901
 40
0.8584294137
 40
0.8757791965
 40
0.8931872987
 40
0.9106529023
 40
0.928175161
 40
0.9369573049
 40
0.945753392
 40
0.9545635032
 40
0.9633880365
 40
0.967806109
 40
0.9722285043
 40
0.976656023
 40
0.9810904597
 40
0.9855366532
 40
0.9877690122
 40
0.9900155765
 40
0.9911511835
 40
0.9923066023
 40
0.9935203965
 40
0.9942135509
 40
0.9949847967
 40
0.9963577522
 40
0.9976073959
 40
1.0
 40
1.0
 40
1.0
 40
1.0
 10
-135.3665199223
 20
15.029978471
 30
0.0
 10
-135.3263599085
 20
14.5716358403
 30
0.0
 10
-135.2127905525
 20
13.6324928349
 30
0.0
 10
-134.9452771886
 20
12.2026437955
 30
0.0
 10
-134.6365870681
 20
10.9840146722
 30
0.0
 10
-134.3359423665
 20
9.9893278831
 30
0.0
 10
-134.0804799457
 20
9.2274169439
 30
0.0
 10
-133.7976669083
 20
8.4588898666
 30
0.0
 10
-133.4878188143
 20
7.6848941614
 30
0.0
 10
-133.1514401182
 20
6.9064717177
 30
0.0
 10
-132.7892350494
 20
6.1245210552
 30
0.0
 10
-132.4681919982
 20
5.4727876971
 30
0.0
 10
-132.2004847409
 20
4.949622975
 30
0.0
 10
-132.0287957426
 20
4.621185171
 30
0.0
 10
-131.889493057
 20
4.3577208942
 30
0.0
 10
-131.7840611153
 20
4.1593437354
 30
0.0
 10
-131.6781313476
 20
3.9603912886
 30
0.0
 10
-131.5898672244
 20
3.7940715075
 30
0.0
 10
-131.5196004226
 20
3.6604227792
 30
0.0
 10
-131.4671920292
 20
3.559727504
 30
0.0
 10
-131.4153465908
 20
3.458535894
 30
0.0
 10
-131.3729285019
 20
3.373678236
 30
0.0
 10
-131.3397932543
 20
3.3052907307
 30
0.0
 10
-131.3154782664
 20
3.2536516846
 30
0.0
 10
-131.2919224415
 20
3.201581778
 30
0.0
 10
-131.2695040098
 20
3.1489010917
 30
0.0
 10
-131.2523290164
 20
3.1042603982
 30
0.0
 10
-131.2404309373
 20
3.067746081
 30
0.0
 10
-131.234243297
 20
3.0443754498
 30
0.0
 10
-131.2307984691
 20
3.0251327058
 30
0.0
 10
-131.2295580301
 20
3.0101149251
 30
0.0
 10
-131.2305687974
 20
2.9967469963
 30
0.0
 10
-131.2361394337
 20
2.9861874678
 30
0.0
 10
-131.2477104116
 20
2.9801682814
 30
0.0
 10
-131.2628146967
 20
2.983524743
 30
0.0
 10
-131.282482711
 20
2.9919220972
 30
0.0
 10
-131.2958402383
 20
3.0004162722
 30
0.0
 10
-131.3043582138
 20
3.0061936933
 30
0.0
  0
SPLINE
  5
3B4
100
AcDbEntity
  8
0
100
AcDbSpline
 62
7
  6
CONTINUOUS
 70
0
 71
3
 72
9
 73
5
 74
0
 42
0.0000001
 43
0.0000001
 44
0.0000000001
 40
0.0
 40
0.0
 40
0.0
 40
0.0
 40
0.2542350971
 40
1.0
 40
1.0
 40
1.0
 40
1.0
 10
-131.304645304
 20
3.0063117171
 30
0.0
 10
-131.4914874627
 20
3.2696388951
 30
0.0
 10
-132.213491576
 20
4.3144743507
 30
0.0
 10
-132.8812706042
 20
5.3970174495
 30
0.0
 10
-133.3434522191
 20
6.223717215
 30
0.0
  0
SPLINE
  5
3B5
100
AcDbEntity
  8
0
100
AcDbSpline
 62
7
  6
CONTINUOUS
 70
0
 71
3
 72
14
 73
10
 74
0
 42
0.0000001
 43
0.0000001
 44
0.0000000001
 40
0.0
 40
0.0
 40
0.0
 40
0.0
 40
0.1379367148
 40
0.2723899965
 40
0.4671838696
 40
0.5614752178
 40
0.6536098012
 40
0.8311389164
 40
1.0
 40
1.0
 40
1.0
 40
1.0
 10
-133.3434522191
 20
6.223717215
 30
0.0
 10
-133.6448453211
 20
6.767116244
 30
0.0
 10
-134.2126068283
 20
7.8558183615
 30
0.0
 10
-135.0773488712
 20
9.775567871
 30
0.0
 10
-135.7198490171
 20
11.5766264505
 30
0.0
 10
-136.1541020009
 20
13.2390508649
 30
0.0
 10
-136.4803466623
 20
14.8464853107
 30
0.0
 10
-136.7121012871
 20
16.8132184402
 30
0.0
 10
-136.6823109501
 20
18.3802371967
 30
0.0
 10
-136.6056564546
 20
19.1370609401
 30
0.0
  0
SPLINE
  5
3B6
100
AcDbEntity
  8
0
100
AcDbSpline
 62
7
  6
CONTINUOUS
 70
0
 71
3
 72
9
 73
5
 74
0
 42
0.0000001
 43
0.0000001
 44
0.0000000001
 40
0.0
 40
0.0
 40
0.0
 40
0.0
 40
0.4912223038
 40
1.0
 40
1.0
 40
1.0
 40
1.0
 10
-124.3712140278
 20
20.1723659631
 30
0.0
 10
-125.7876133441
 20
20.2145468702
 30
0.0
 10
-128.6814574742
 20
20.0703066636
 30
0.0
 10
-131.5208977772
 20
19.5043146935
 30
0.0
 10
-132.9378792119
 20
19.1219318937
 30
0.0
  0
LINE
  5
3B7
100
AcDbEntity
  8
0
100
AcDbLine
 62
7
  6
CONTINUOUS
 10
-132.9378792119
 20
19.1219318937
 11
-133.1856004234
 21
19.0535223737
  0
SPLINE
  5
3B8
100
AcDbEntity
  8
0
100
AcDbSpline
 62
7
  6
CONTINUOUS
 70
0
 71
3
 72
14
 73
10
 74
0
 42
0.0000001
 43
0.0000001
 44
0.0000000001
 40
0.0
 40
0.0
 40
0.0
 40
0.0
 40
0.2723195766
 40
0.4018653858
 40
0.5270756565
 40
0.648522809
 40
0.7670560295
 40
0.8837946742
 40
1.0
 40
1.0
 40
1.0
 40
1.0
 10
-141.9009203817
 20
-20.826112701
 30
0.0
 10
-141.9005723009
 20
-22.7551309118
 30
0.0
 10
-141.5902752027
 20
-25.6214357886
 30
0.0
 10
-140.4774016389
 20
-29.194323004
 30
0.0
 10
-139.3417488795
 20
-31.6154436819
 30
0.0
 10
-137.9077309296
 20
-33.7800993551
 30
0.0
 10
-136.1967604846
 20
-35.6541620064
 30
0.0
 10
-134.2359681193
 20
-37.2056220019
 30
0.0
 10
-132.7836642104
 20
-38.0073909198
 30
0.0
 10
-132.0328886982
 20
-38.3449204185
 30
0.0
  0
SPLINE
  5
3B9
100
AcDbEntity
  8
0
100
AcDbSpline
 62
7
  6
CONTINUOUS
 70
0
 71
3
 72
9
 73
5
 74
0
 42
0.0000001
 43
0.0000001
 44
0.0000000001
 40
0.0
 40
0.0
 40
0.0
 40
0.0
 40
0.4977352621
 40
1.0
 40
1.0
 40
1.0
 40
1.0
 10
-146.6797361553
 20
11.4075492676
 30
0.0
 10
-146.6421000066
 20
11.393547536
 30
0.0
 10
-146.5709742996
 20
11.3414712541
 30
0.0
 10
-146.5542375549
 20
11.2559662232
 30
0.0
 10
-146.5554019744
 20
11.2154612309
 30
0.0
  0
SPLINE
  5
3BA
100
AcDbEntity
  8
0
100
AcDbSpline
 62
7
  6
CONTINUOUS
 70
0
 71
3
 72
9
 73
5
 74
0
 42
0.0000001
 43
0.0000001
 44
0.0000000001
 40
0.0
 40
0.0
 40
0.0
 40
0.0
 40
0.4910347097
 40
1.0
 40
1.0
 40
1.0
 40
1.0
 10
-154.2755879495
 20
-25.2762330236
 30
0.0
 10
-151.9251808299
 20
-26.6131844943
 30
0.0
 10
-146.99558747
 20
-29.0903077534
 30
0.0
 10
-141.8554251481
 20
-31.0893792109
 30
0.0
 10
-139.2019490686
 20
-31.9919672863
 30
0.0
  0
SPLINE
  5
3BB
100
AcDbEntity
  8
0
100
AcDbSpline
 62
7
  6
CONTINUOUS
 70
0
 71
3
 72
9
 73
5
 74
0
 42
0.0000001
 43
0.0000001
 44
0.0000000001
 40
0.0
 40
0.0
 40
0.0
 40
0.0
 40
0.4847383551
 40
1.0
 40
1.0
 40
1.0
 40
1.0
 10
-157.3723989303
 20
-13.2420693819
 30
0.0
 10
-154.9831395913
 20
-14.6056809039
 30
0.0
 10
-149.9578221296
 20
-17.2518273631
 30
0.0
 10
-144.7886128776
 20
-19.6018173019
 30
0.0
 10
-142.0965932369
 20
-20.7438008279
 30
0.0
  0
SPLINE
  5
3BC
100
AcDbEntity
  8
0
100
AcDbSpline
 62
7
  6
CONTINUOUS
 70
0
 71
3
 72
14
 73
10
 74
0
 42
0.0000001
 43
0.0000001
 44
0.0000000001
 40
0.0
 40
0.0
 40
0.0
 40
0.0
 40
0.1159314537
 40
0.2326643924
 40
0.3513625766
 40
0.4730220723
 40
0.5984089007
 40
0.7280054039
 40
1.0
 40
1.0
 40
1.0
 40
1.0
 10
-131.6766448168
 20
-37.4681379944
 30
0.0
 10
-132.3610014463
 20
-37.124088051
 30
0.0
 10
-133.6818665428
 20
-36.3227597917
 30
0.0
 10
-135.4578077104
 20
-34.8134926913
 30
0.0
 10
-137.0042038563
 20
-33.0193861438
 30
0.0
 10
-138.2981141434
 20
-30.9686416216
 30
0.0
 10
-139.3217199737
 20
-28.6915737528
 30
0.0
 10
-140.3234271502
 20
-25.3492900009
 30
0.0
 10
-140.6031807504
 20
-22.6790085219
 30
0.0
 10
-140.6034851913
 20
-20.8819080979
 30
0.0
  0
SPLINE
  5
3BD
100
AcDbEntity
  8
0
100
AcDbSpline
 62
7
  6
CONTINUOUS
 70
0
 71
3
 72
20
 73
16
 74
0
 42
0.0000001
 43
0.0000001
 44
0.0000000001
 40
0.0
 40
0.0
 40
0.0
 40
0.0
 40
0.1307995243
 40
0.1986263998
 40
0.2673336782
 40
0.4049143021
 40
0.4728357619
 40
0.5394013326
 40
0.6665561092
 40
0.726878639
 40
0.7848699753
 40
0.8407095174
 40
0.8947780002
 40
0.9476407539
 40
1.0
 40
1.0
 40
1.0
 40
1.0
 10
-140.6030384071
 20
-20.72565554
 30
0.0
 10
-140.5898519676
 20
-18.4843118314
 30
0.0
 10
-140.1272074656
 20
-15.0699446739
 30
0.0
 10
-138.7669319222
 20
-10.6895916982
 30
0.0
 10
-136.8925010977
 20
-6.3740086778
 30
0.0
 10
-134.3353279898
 20
-2.381191767
 30
0.0
 10
-131.2117189012
 20
1.0910583989
 30
0.0
 10
-127.8545051805
 20
4.0723913229
 30
0.0
 10
-124.1027351529
 20
6.387125983
 30
0.0
 10
-120.1378140349
 20
7.8267904734
 30
0.0
 10
-117.203059952
 20
8.4299335783
 30
0.0
 10
-114.3160849824
 20
8.5595692033
 30
0.0
 10
-111.5342093487
 20
8.2102137419
 30
0.0
 10
-108.9163887267
 20
7.3868880928
 30
0.0
 10
-107.315430868
 20
6.530783374
 30
0.0
 10
-106.5670214846
 20
6.0359067425
 30
0.0
  0
SPLINE
  5
3BE
100
AcDbEntity
  8
0
100
AcDbSpline
 62
7
  6
CONTINUOUS
 70
0
 71
3
 72
15
 73
11
 74
0
 42
0.0000001
 43
0.0000001
 44
0.0000000001
 40
0.0
 40
0.0
 40
0.0
 40
0.0
 40
0.2419061804
 40
0.4869839567
 40
0.6114706687
 40
0.7381432028
 40
0.8686376699
 40
0.9363230168
 40
0.9704007614
 40
1.0
 40
1.0
 40
1.0
 40
1.0
 10
-154.5766502357
 20
-24.860688244
 30
0.0
 10
-154.5541051024
 20
-24.8954813857
 30
0.0
 10
-154.5083249302
 20
-24.9652684268
 30
0.0
 10
-154.4496275933
 20
-25.0520937238
 30
0.0
 10
-154.4008950694
 20
-25.121791191
 30
0.0
 10
-154.3626305207
 20
-25.1748624592
 30
0.0
 10
-154.32896051
 20
-25.2191560915
 30
0.0
 10
-154.3036159454
 20
-25.2499819438
 30
0.0
 10
-154.2880910109
 20
-25.2661503251
 30
0.0
 10
-154.2800567039
 20
-25.2738321815
 30
0.0
 10
-154.2755879495
 20
-25.2762330236
 30
0.0
  0
SPLINE
  5
3BF
100
AcDbEntity
  8
0
100
AcDbSpline
 62
7
  6
CONTINUOUS
 70
0
 71
3
 72
11
 73
7
 74
0
 42
0.0000001
 43
0.0000001
 44
0.0000000001
 40
0.0
 40
0.0
 40
0.0
 40
0.0
 40
0.2355647141
 40
0.4634257499
 40
0.7136243129
 40
1.0
 40
1.0
 40
1.0
 40
1.0
 10
-154.8974888549
 20
-0.5792455483
 30
0.0
 10
-154.8668125248
 20
-0.5709473448
 30
0.0
 10
-154.8018896647
 20
-0.5657073868
 30
0.0
 10
-154.7107556306
 20
-0.6078967367
 30
0.0
 10
-154.6460622547
 20
-0.6919315413
 30
0.0
 10
-154.6225790608
 20
-0.7614269796
 30
0.0
 10
-154.6142623277
 20
-0.7991547225
 30
0.0
  0
SPLINE
  5
3C0
100
AcDbEntity
  8
0
100
AcDbSpline
 62
7
  6
CONTINUOUS
 70
0
 71
3
 72
20
 73
16
 74
0
 42
0.0000001
 43
0.0000001
 44
0.0000000001
 40
0.0
 40
0.0
 40
0.0
 40
0.0
 40
0.0528271567
 40
0.1056441352
 40
0.1592735954
 40
0.2144374848
 40
0.2716736455
 40
0.3312942548
 40
0.3933832602
 40
0.4578113634
 40
0.592080525
 40
0.7304404387
 40
0.7997184397
 40
0.8681474732
 40
1.0
 40
1.0
 40
1.0
 40
1.0
 10
-104.9115993258
 20
5.9211175727
 30
0.0
 10
-105.6470947191
 20
6.5633565366
 30
0.0
 10
-107.2455302667
 20
7.7100569107
 30
0.0
 10
-109.9424528959
 20
8.9344500991
 30
0.0
 10
-112.8661182421
 20
9.6295704001
 30
0.0
 10
-115.9473931142
 20
9.7815920232
 30
0.0
 10
-119.1174925352
 20
9.391195262
 30
0.0
 10
-122.3074793521
 20
8.4704383297
 30
0.0
 10
-125.449948037
 20
7.0417661412
 30
0.0
 10
-129.5406978038
 20
4.4692254588
 30
0.0
 10
-134.1411924489
 20
0.1737146522
 30
0.0
 10
-137.7045603017
 20
-5.111395099
 30
0.0
 10
-139.8212173965
 20
-9.7656445513
 30
0.0
 10
-141.3605280029
 20
-14.5110585002
 30
0.0
 10
-141.8860347561
 20
-18.2256218434
 30
0.0
 10
-141.9003890694
 20
-20.6626851427
 30
0.0
  0
SPLINE
  5
3C1
100
AcDbEntity
  8
0
100
AcDbSpline
 62
7
  6
CONTINUOUS
 70
0
 71
3
 72
9
 73
5
 74
0
 42
0.0000001
 43
0.0000001
 44
0.0000000001
 40
0.0
 40
0.0
 40
0.0
 40
0.0
 40
0.2250990977
 40
1.0
 40
1.0
 40
1.0
 40
1.0
 10
-123.4818524314
 20
18.6121755112
 30
0.0
 10
-123.4892363916
 20
18.5959809838
 30
0.0
 10
-123.5187855772
 20
18.5225488116
 30
0.0
 10
-123.5366167824
 20
18.4448345521
 30
0.0
 10
-123.5464134055
 20
18.3843517926
 30
0.0
  0
SPLINE
  5
3C2
100
AcDbEntity
  8
0
100
AcDbSpline
 62
7
  6
CONTINUOUS
 70
0
 71
3
 72
9
 73
5
 74
0
 42
0.0000001
 43
0.0000001
 44
0.0000000001
 40
0.0
 40
0.0
 40
0.0
 40
0.0
 40
0.4957737132
 40
1.0
 40
1.0
 40
1.0
 40
1.0
 10
-122.6907308622
 20
18.3750805925
 30
0.0
 10
-120.3857710066
 20
17.0355790198
 30
0.0
 10
-115.8820196764
 20
14.0760175731
 30
0.0
 10
-111.7187492793
 20
10.6556121988
 30
0.0
 10
-109.7133074233
 20
8.8308615475
 30
0.0
  0
SPLINE
  5
3C3
100
AcDbEntity
  8
0
100
AcDbSpline
 62
7
  6
CONTINUOUS
 70
0
 71
3
 72
9
 73
5
 74
0
 42
0.0000001
 43
0.0000001
 44
0.0000000001
 40
0.0
 40
0.0
 40
0.0
 40
0.0
 40
0.2597913322
 40
1.0
 40
1.0
 40
1.0
 40
1.0
 10
-120.5096199568
 20
9.1412972
 30
0.0
 10
-120.6542562922
 20
9.3684568032
 30
0.0
 10
-121.2024707467
 20
10.2482206398
 30
0.0
 10
-121.7172311114
 20
11.1490474907
 30
0.0
 10
-122.0744158131
 20
11.8281346291
 30
0.0
  0
SPLINE
  5
3C4
100
AcDbEntity
  8
0
100
AcDbSpline
 62
7
  6
CONTINUOUS
 70
0
 71
3
 72
15
 73
11
 74
0
 42
0.0000001
 43
0.0000001
 44
0.0000000001
 40
0.0
 40
0.0
 40
0.0
 40
0.0
 40
0.1649029972
 40
0.3195003725
 40
0.4629937513
 40
0.5946603732
 40
0.7143403876
 40
0.8218909091
 40
0.9170495596
 40
1.0
 40
1.0
 40
1.0
 40
1.0
 10
-122.0744158131
 20
11.8281346291
 30
0.0
 10
-122.2971810229
 20
12.2555838978
 30
0.0
 10
-122.7129645571
 20
13.0922017838
 30
0.0
 10
-123.2584832304
 20
14.3313054109
 30
0.0
 10
-123.7006071148
 20
15.5080148594
 30
0.0
 10
-124.0293874166
 20
16.615470166
 30
0.0
 10
-124.2506791088
 20
17.6419148434
 30
0.0
 10
-124.3750373071
 20
18.5774239154
 30
0.0
 10
-124.3960510577
 20
19.41391674
 30
0.0
 10
-124.3343781864
 20
19.9339551888
 30
0.0
 10
-124.2807751245
 20
20.1704210808
 30
0.0
  0
SPLINE
  5
3C5
100
AcDbEntity
  8
0
100
AcDbSpline
 62
7
  6
CONTINUOUS
 70
0
 71
3
 72
11
 73
7
 74
0
 42
0.0000001
 43
0.0000001
 44
0.0000000001
 40
0.0
 40
0.0
 40
0.0
 40
0.0
 40
0.2501618838
 40
0.497689073
 40
0.7465092191
 40
1.0
 40
1.0
 40
1.0
 40
1.0
 10
-123.5250333043
 20
19.571562112
 30
0.0
 10
-123.5515011256
 20
19.6518710337
 30
0.0
 10
-123.6288314078
 20
19.8046840877
 30
0.0
 10
-123.806598616
 20
19.9886293352
 30
0.0
 10
-124.0294254161
 20
20.1158526129
 30
0.0
 10
-124.1960021685
 20
20.1586721353
 30
0.0
 10
-124.2809774557
 20
20.1696642538
 30
0.0
  0
SPLINE
  5
3C6
100
AcDbEntity
  8
0
100
AcDbSpline
 62
7
  6
CONTINUOUS
 70
0
 71
3
 72
27
 73
23
 74
0
 42
0.0000001
 43
0.0000001
 44
0.0000000001
 40
0.0
 40
0.0
 40
0.0
 40
0.0
 40
0.2390503656
 40
0.3624782329
 40
0.4881537996
 40
0.5516942019
 40
0.6155855058
 40
0.6796888523
 40
0.7437850705
 40
0.7757213774
 40
0.8074893694
 40
0.8389753384
 40
0.8699947793
 40
0.9002104024
 40
0.928863971
 40
0.9419955739
 40
0.9479746001
 40
0.9532598989
 40
0.9573815299
 40
0.9685722337
 40
0.9856072479
 40
1.0
 40
1.0
 40
1.0
 40
1.0
 10
-110.6825764861
 20
10.2517755775
 30
0.0
 10
-110.5900950264
 20
10.1341172247
 30
0.0
 10
-110.4514077199
 20
9.9544879146
 30
0.0
 10
-110.2675963683
 20
9.7103426596
 30
0.0
 10
-110.1512284855
 20
9.5529624766
 30
0.0
 10
-110.0579718398
 20
9.4248567255
 30
0.0
 10
-109.9879496371
 20
9.3275174309
 30
0.0
 10
-109.9183760448
 20
9.229429898
 30
0.0
 10
-109.8610591739
 20
9.1471780786
 30
0.0
 10
-109.8158889795
 20
9.081140657
 30
0.0
 10
-109.7826014608
 20
9.0317107288
 30
0.0
 10
-109.7500910521
 20
8.9824537571
 30
0.0
 10
-109.7187453351
 20
8.9335905107
 30
0.0
 10
-109.6892628552
 20
8.8856707346
 30
0.0
 10
-109.6670097235
 20
8.8463988351
 30
0.0
 10
-109.6537555314
 20
8.8196523227
 30
0.0
 10
-109.6484103468
 20
8.8051824303
 30
0.0
 10
-109.6453885306
 20
8.7964049361
 30
0.0
 10
-109.647269134
 20
8.7808348641
 30
0.0
 10
-109.6745861501
 20
8.7974113852
 30
0.0
 10
-109.6909648393
 20
8.8110463341
 30
0.0
 10
-109.7066388359
 20
8.8248021152
 30
0.0
 10
-109.7133074233
 20
8.8308615475
 30
0.0
  0
SPLINE
  5
3C7
100
AcDbEntity
  8
0
100
AcDbSpline
 62
7
  6
CONTINUOUS
 70
0
 71
3
 72
14
 73
10
 74
0
 42
0.0000001
 43
0.0000001
 44
0.0000000001
 40
0.0
 40
0.0
 40
0.0
 40
0.0
 40
0.3302636489
 40
0.4840953986
 40
0.6266512878
 40
0.7524942231
 40
0.8505554424
 40
0.8955588838
 40
1.0
 40
1.0
 40
1.0
 40
1.0
 10
-122.6825079181
 20
18.3877462444
 30
0.0
 10
-122.6886333003
 20
18.3896989809
 30
0.0
 10
-122.6976122248
 20
18.3925207876
 30
0.0
 10
-122.709350739
 20
18.3959551085
 30
0.0
 10
-122.717165754
 20
18.3982225351
 30
0.0
 10
-122.7243963668
 20
18.3997882444
 30
0.0
 10
-122.7287831396
 20
18.4012524955
 30
0.0
 10
-122.735366728
 20
18.4006001096
 30
0.0
 10
-122.7298810305
 20
18.3977989868
 30
0.0
 10
-122.7281152305
 20
18.3967912649
 30
0.0
  0
SPLINE
  5
3C8
100
AcDbEntity
  8
0
100
AcDbSpline
 62
7
  6
CONTINUOUS
 70
0
 71
3
 72
14
 73
10
 74
0
 42
0.0000001
 43
0.0000001
 44
0.0000000001
 40
0.0
 40
0.0
 40
0.0
 40
0.0
 40
0.0466915947
 40
0.1048809413
 40
0.1893299021
 40
0.3036184974
 40
0.4469530011
 40
0.6149143231
 40
1.0
 40
1.0
 40
1.0
 40
1.0
 10
-153.904571049
 20
-26.0384977147
 30
0.0
 10
-153.9018636148
 20
-26.0325739832
 30
0.0
 10
-153.890299838
 20
-26.0212219784
 30
0.0
 10
-153.862479179
 20
-26.0204461031
 30
0.0
 10
-153.8280704212
 20
-26.0304207494
 30
0.0
 10
-153.7848574754
 20
-26.0512310113
 30
0.0
 10
-153.7344844571
 20
-26.0827138581
 30
0.0
 10
-153.6559389304
 20
-26.1399855991
 30
0.0
 10
-153.59752184
 20
-26.1905952953
 30
0.0
 10
-153.5581530467
 20
-26.22714068
 30
0.0
  0
SPLINE
  5
3C9
100
AcDbEntity
  8
0
100
AcDbSpline
 62
7
  6
CONTINUOUS
 70
0
 71
3
 72
40
 73
36
 74
0
 42
0.0000001
 43
0.0000001
 44
0.0000000001
 40
0.0
 40
0.0
 40
0.0
 40
0.0
 40
0.0908497536
 40
0.1925061449
 40
0.2472692123
 40
0.3044559474
 40
0.3640811856
 40
0.4262230569
 40
0.490737166
 40
0.5574906635
 40
0.6264124365
 40
0.6974293962
 40
0.7704327119
 40
0.8076271445
 40
0.8452392665
 40
0.864185694
 40
0.8832126721
 40
0.9023052753
 40
0.9214405414
 40
0.9310130213
 40
0.9405793394
 40
0.9501283651
 40
0.9596424908
 40
0.9690906545
 40
0.973772609
 40
0.9784084976
 40
0.9829715189
 40
0.9852119081
 40
0.9874138563
 40
0.9896080796
 40
0.9910442458
 40
0.9931385118
 40
0.9949993348
 40
0.9967194237
 40
1.0
 40
1.0
 40
1.0
 40
1.0
 10
-123.3435490529
 20
16.62523113
 30
0.0
 10
-123.2889634294
 20
16.3842137943
 30
0.0
 10
-123.1631056846
 20
15.8757668284
 30
0.0
 10
-122.974627562
 20
15.2298927866
 30
0.0
 10
-122.7947345507
 20
14.6773874205
 30
0.0
 10
-122.644431284
 20
14.235535654
 30
0.0
 10
-122.4798375393
 20
13.7773923891
 30
0.0
 10
-122.2971967704
 20
13.3047043388
 30
0.0
 10
-122.0989079628
 20
12.817386303
 30
0.0
 10
-121.885989111
 20
12.3161786261
 30
0.0
 10
-121.6584193228
 20
11.8020458408
 30
0.0
 10
-121.4164133754
 20
11.2757791282
 30
0.0
 10
-121.2048165152
 20
10.8305703263
 30
0.0
 10
-121.0298219024
 20
10.4685914941
 30
0.0
 10
-120.9182005902
 20
10.2392987502
 30
0.0
 10
-120.8282278518
 20
10.0544294896
 30
0.0
 10
-120.7604755466
 20
9.9147701881
 30
0.0
 10
-120.6929110193
 20
9.7744494838
 30
0.0
 10
-120.6371524079
 20
9.6569882299
 30
0.0
 10
-120.5932326279
 20
9.5625953535
 30
0.0
 10
-120.5608213986
 20
9.4916098841
 30
0.0
 10
-120.5291885375
 20
9.420445933
 30
0.0
 10
-120.4987440816
 20
9.3491155113
 30
0.0
 10
-120.4748632759
 20
9.2893815496
 30
0.0
 10
-120.4574498154
 20
9.2413978289
 30
0.0
 10
-120.4457290128
 20
9.2054780587
 30
0.0
 10
-120.4376652078
 20
9.1754525858
 30
0.0
 10
-120.4332539526
 20
9.1512062311
 30
0.0
 10
-120.4320856916
 20
9.1335033724
 30
0.0
 10
-120.433559333
 20
9.1164081585
 30
0.0
 10
-120.4478278463
 20
9.1064968885
 30
0.0
 10
-120.463118052
 20
9.1111486303
 30
0.0
 10
-120.4766696121
 20
9.117976141
 30
0.0
 10
-120.4923576869
 20
9.1282654219
 30
0.0
 10
-120.503475745
 20
9.1360866466
 30
0.0
 10
-120.510383383
 20
9.1417358848
 30
0.0
  0
SPLINE
  5
3CA
100
AcDbEntity
  8
0
100
AcDbSpline
 62
7
  6
CONTINUOUS
 70
0
 71
3
 72
9
 73
5
 74
0
 42
0.0000001
 43
0.0000001
 44
0.0000000001
 40
0.0
 40
0.0
 40
0.0
 40
0.0
 40
0.2621257299
 40
1.0
 40
1.0
 40
1.0
 40
1.0
 10
-123.5568207137
 20
18.7271937491
 30
0.0
 10
-123.5535878866
 20
18.7773195686
 30
0.0
 10
-123.5383186211
 20
18.9683286471
 30
0.0
 10
-123.5108551714
 20
19.1585030784
 30
0.0
 10
-123.4819367549
 20
19.2969097593
 30
0.0
  0
SPLINE
  5
3CB
100
AcDbEntity
  8
0
100
AcDbSpline
 62
7
  6
CONTINUOUS
 70
0
 71
3
 72
20
 73
16
 74
0
 42
0.0000001
 43
0.0000001
 44
0.0000000001
 40
0.0
 40
0.0
 40
0.0
 40
0.0
 40
0.2628630108
 40
0.3936135665
 40
0.5236065586
 40
0.6524006805
 40
0.7790854779
 40
0.8410045571
 40
0.9011157707
 40
0.9299797424
 40
0.9573515336
 40
0.9700711004
 40
0.9816273153
 40
0.9911541005
 40
1.0
 40
1.0
 40
1.0
 40
1.0
 10
-133.3981776423
 20
19.0547638261
 30
0.0
 10
-133.4784844028
 20
19.032210323
 30
0.0
 10
-133.5984228216
 20
18.99729746
 30
0.0
 10
-133.757143204
 20
18.9481420966
 30
0.0
 10
-133.8747359922
 20
18.9100266284
 30
0.0
 10
-133.9904763409
 20
18.8704302346
 30
0.0
 10
-134.0850643306
 20
18.8357837298
 30
0.0
 10
-134.1583834735
 20
18.8065448225
 30
0.0
 10
-134.2023356501
 20
18.7875428608
 30
0.0
 10
-134.2355995481
 20
18.7714381129
 30
0.0
 10
-134.2547527835
 20
18.7609722617
 30
0.0
 10
-134.2686655805
 20
18.7520235267
 30
0.0
 10
-134.2766416801
 20
18.7453090179
 30
0.0
 10
-134.2840913869
 20
18.7379369457
 30
0.0
 10
-134.2811176414
 20
18.7307610695
 30
0.0
 10
-134.2786412993
 20
18.7294392371
 30
0.0
  0
SPLINE
  5
3CC
100
AcDbEntity
  8
0
100
AcDbSpline
 62
7
  6
CONTINUOUS
 70
0
 71
3
 72
21
 73
17
 74
0
 42
0.0000001
 43
0.0000001
 44
0.0000000001
 40
0.0
 40
0.0
 40
0.0
 40
0.0
 40
0.1268720169
 40
0.2538031377
 40
0.3807507896
 40
0.5076446498
 40
0.6343576612
 40
0.697574345
 40
0.7606240974
 40
0.8233987574
 40
0.8856704546
 40
0.9164560291
 40
0.9467787297
 40
0.9760480347
 40
0.9895668878
 40
1.0
 40
1.0
 40
1.0
 40
1.0
 10
-144.4839631301
 20
13.5722608425
 30
0.0
 10
-144.5456055964
 20
13.5170083835
 30
0.0
 10
-144.6682926853
 20
13.4057761895
 30
0.0
 10
-144.850359328
 20
13.2367438219
 30
0.0
 10
-145.0303004706
 20
13.0654277835
 30
0.0
 10
-145.207760937
 20
12.8917450409
 30
0.0
 10
-145.3531939099
 20
12.7448209951
 30
0.0
 10
-145.4675124871
 20
12.6257470946
 30
0.0
 10
-145.5518381932
 20
12.535734635
 30
0.0
 10
-145.634309156
 20
12.4448021452
 30
0.0
 10
-145.7009460487
 20
12.3680994893
 30
0.0
 10
-145.751850754
 20
12.3054898086
 30
0.0
 10
-145.7876458643
 20
12.2593038074
 30
0.0
 10
-145.8144523652
 20
12.2177232959
 30
0.0
 10
-145.8302287918
 20
12.1902876544
 30
0.0
 10
-145.8328575386
 20
12.1685872541
 30
0.0
 10
-145.8267869855
 20
12.1655069804
 30
0.0
  0
SPLINE
  5
3CD
100
AcDbEntity
  8
0
100
AcDbSpline
 62
7
  6
CONTINUOUS
 70
0
 71
3
 72
19
 73
15
 74
0
 42
0.0000001
 43
0.0000001
 44
0.0000000001
 40
0.0
 40
0.0
 40
0.0
 40
0.0
 40
0.248538428
 40
0.3728832133
 40
0.4973615599
 40
0.6220915503
 40
0.6846147676
 40
0.7473014893
 40
0.8102287061
 40
0.873534439
 40
0.9054097111
 40
0.9375091904
 40
0.9698920114
 40
1.0
 40
1.0
 40
1.0
 40
1.0
 10
-157.4885421953
 20
-11.5154377457
 30
0.0
 10
-157.4889629701
 20
-11.6592977122
 30
0.0
 10
-157.4874556775
 20
-11.875148239
 30
0.0
 10
-157.4806061151
 20
-12.1629579605
 30
0.0
 10
-157.4727687213
 20
-12.3790441214
 30
0.0
 10
-157.4636309197
 20
-12.5592608207
 30
0.0
 10
-157.4543076079
 20
-12.7036323155
 30
0.0
 10
-157.4460848481
 20
-12.8122284986
 30
0.0
 10
-157.4362712241
 20
-12.9211229334
 30
0.0
 10
-157.4262951935
 20
-13.0121679157
 30
0.0
 10
-157.4163400488
 20
-13.0850463586
 30
0.0
 10
-157.4075352077
 20
-13.1405114703
 30
0.0
 10
-157.3957920536
 20
-13.1926401294
 30
0.0
 10
-157.3855574558
 20
-13.2306429278
 30
0.0
 10
-157.3723989303
 20
-13.2420693819
 30
0.0
  0
SPLINE
  5
3CE
100
AcDbEntity
  8
0
100
AcDbSpline
 62
7
  6
CONTINUOUS
 70
0
 71
3
 72
9
 73
5
 74
0
 42
0.0000001
 43
0.0000001
 44
0.0000000001
 40
0.0
 40
0.0
 40
0.0
 40
0.0
 40
0.483022193
 40
1.0
 40
1.0
 40
1.0
 40
1.0
 10
-145.8267869855
 20
12.1655069804
 30
0.0
 10
-143.4316267718
 20
10.7842522181
 30
0.0
 10
-138.5353633149
 20
7.8156760687
 30
0.0
 10
-133.7512271195
 20
4.6705495564
 30
0.0
 10
-131.3043582138
 20
3.0061936933
 30
0.0
  0
SPLINE
  5
3CF
100
AcDbEntity
  8
0
100
AcDbSpline
 62
7
  6
CONTINUOUS
 70
0
 71
3
 72
9
 73
5
 74
0
 42
0.0000001
 43
0.0000001
 44
0.0000000001
 40
0.0
 40
0.0
 40
0.0
 40
0.0
 40
0.4784862994
 40
1.0
 40
1.0
 40
1.0
 40
1.0
 10
-135.1601077274
 20
18.3205401385
 30
0.0
 10
-135.287937478
 20
17.8086082631
 30
0.0
 10
-135.4424109398
 20
16.7094404619
 30
0.0
 10
-135.4167147998
 20
15.6028772599
 30
0.0
 10
-135.3665247321
 20
15.0299729718
 30
0.0
  0
SPLINE
  5
3D0
100
AcDbEntity
  8
0
100
AcDbSpline
 62
7
  6
CONTINUOUS
 70
0
 71
3
 72
9
 73
5
 74
0
 42
0.0000001
 43
0.0000001
 44
0.0000000001
 40
0.0
 40
0.0
 40
0.0
 40
0.0
 40
0.258757747
 40
1.0
 40
1.0
 40
1.0
 40
1.0
 10
-135.3665074128
 20
15.0299900267
 30
0.0
 10
-135.4119242847
 20
15.355182992
 30
0.0
 10
-135.554332499
 20
16.6160628292
 30
0.0
 10
-135.5592018605
 20
17.8945515932
 30
0.0
 10
-135.4674169196
 20
18.83065766
 30
0.0
  0
SPLINE
  5
3D1
100
AcDbEntity
  8
0
100
AcDbSpline
 62
7
  6
CONTINUOUS
 70
0
 71
3
 72
9
 73
5
 74
0
 42
0.0000001
 43
0.0000001
 44
0.0000000001
 40
0.0
 40
0.0
 40
0.0
 40
0.0
 40
0.2721665458
 40
1.0
 40
1.0
 40
1.0
 40
1.0
 10
-111.163533493
 20
10.7131977387
 30
0.0
 10
-111.2738149094
 20
10.85558409
 30
0.0
 10
-111.6806295707
 20
11.3774712575
 30
0.0
 10
-112.0943416558
 20
11.8941127756
 30
0.0
 10
-112.4034069223
 20
12.2634938162
 30
0.0
  0
SPLINE
  5
3D2
100
AcDbEntity
  8
0
100
AcDbSpline
 62
7
  6
CONTINUOUS
 70
0
 71
3
 72
11
 73
7
 74
0
 42
0.0000001
 43
0.0000001
 44
0.0000000001
 40
0.0
 40
0.0
 40
0.0
 40
0.0
 40
0.3163135624
 40
0.587796315
 40
0.8146576405
 40
1.0
 40
1.0
 40
1.0
 40
1.0
 10
-112.4034069223
 20
12.2634938162
 30
0.0
 10
-112.5491140218
 20
12.4376364516
 30
0.0
 10
-112.8233558764
 20
12.7583515471
 30
0.0
 10
-113.2179355261
 20
13.1902488607
 30
0.0
 10
-113.5685241964
 20
13.5340084166
 30
0.0
 10
-113.7993050161
 20
13.7208604836
 30
0.0
 10
-113.9098086569
 20
13.7949538194
 30
0.0
  0
SPLINE
  5
3D3
100
AcDbEntity
  8
0
100
AcDbSpline
 62
7
  6
CONTINUOUS
 70
0
 71
3
 72
11
 73
7
 74
0
 42
0.0000001
 43
0.0000001
 44
0.0000000001
 40
0.0
 40
0.0
 40
0.0
 40
0.0
 40
0.4026058787
 40
0.7124210894
 40
0.9100102177
 40
1.0
 40
1.0
 40
1.0
 40
1.0
 10
-148.3058932501
 20
11.095436082
 30
0.0
 10
-148.3204890472
 20
11.1038273342
 30
0.0
 10
-148.3462342143
 20
11.1182376706
 30
0.0
 10
-148.3815627077
 20
11.1349358228
 30
0.0
 10
-148.4030151898
 20
11.1434844406
 30
0.0
 10
-148.4178543916
 20
11.1447646046
 30
0.0
 10
-148.4201351462
 20
11.1417713684
 30
0.0
  0
SPLINE
  5
3D4
100
AcDbEntity
  8
0
100
AcDbSpline
 62
7
  6
CONTINUOUS
 70
0
 71
3
 72
10
 73
6
 74
0
 42
0.0000001
 43
0.0000001
 44
0.0000000001
 40
0.0
 40
0.0
 40
0.0
 40
0.0
 40
0.4677248095
 40
0.7316873676
 40
1.0
 40
1.0
 40
1.0
 40
1.0
 10
-147.0875617429
 20
11.4142839584
 30
0.0
 10
-147.2735358588
 20
11.5005849099
 30
0.0
 10
-147.6282195895
 20
11.4897427261
 30
0.0
 10
-148.0297811548
 20
11.316244378
 30
0.0
 10
-148.2201612383
 20
11.1758474247
 30
0.0
 10
-148.3061042458
 20
11.0955578203
 30
0.0
  0
SPLINE
  5
3D5
100
AcDbEntity
  8
0
100
AcDbSpline
 62
7
  6
CONTINUOUS
 70
0
 71
3
 72
14
 73
10
 74
0
 42
0.0000001
 43
0.0000001
 44
0.0000000001
 40
0.0
 40
0.0
 40
0.0
 40
0.0
 40
0.2535033
 40
0.3794417865
 40
0.504885481
 40
0.6297360622
 40
0.7538269832
 40
0.877231584
 40
1.0
 40
1.0
 40
1.0
 40
1.0
 10
-141.9511032163
 20
-4.5983852989
 30
0.0
 10
-142.8049194417
 20
-3.4298507803
 30
0.0
 10
-143.9932037621
 20
-1.6113246052
 30
0.0
 10
-145.3441041012
 20
0.9366140038
 30
0.0
 10
-146.2213541951
 20
2.8990756188
 30
0.0
 10
-146.963674651
 20
4.9048914199
 30
0.0
 10
-147.5719258113
 20
6.9434021335
 30
0.0
 10
-148.0320979358
 20
9.0083399205
 30
0.0
 10
-148.2338108917
 20
10.4008777945
 30
0.0
 10
-148.3063299813
 20
11.0979910499
 30
0.0
  0
SPLINE
  5
3D6
100
AcDbEntity
  8
0
100
AcDbSpline
 62
7
  6
CONTINUOUS
 70
0
 71
3
 72
10
 73
6
 74
0
 42
0.0000001
 43
0.0000001
 44
0.0000000001
 40
0.0
 40
0.0
 40
0.0
 40
0.0
 40
0.3017406127
 40
0.5934470545
 40
1.0
 40
1.0
 40
1.0
 40
1.0
 10
-144.7259933031
 20
-33.511856245
 30
0.0
 10
-144.7665756983
 20
-33.506568202
 30
0.0
 10
-144.8471376348
 20
-33.4908662161
 30
0.0
 10
-144.9701996106
 20
-33.4515624658
 30
0.0
 10
-145.0685712023
 20
-33.3804085712
 30
0.0
 10
-145.0686535278
 20
-33.3252673285
 30
0.0
  0
SPLINE
  5
3D7
100
AcDbEntity
  8
0
100
AcDbSpline
 62
7
  6
CONTINUOUS
 70
0
 71
3
 72
41
 73
37
 74
0
 42
0.0000001
 43
0.0000001
 44
0.0000000001
 40
0.0
 40
0.0
 40
0.0
 40
0.0
 40
0.1186901301
 40
0.239584568
 40
0.3623927715
 40
0.4244439367
 40
0.4868861169
 40
0.5496974656
 40
0.612859051
 40
0.6763552082
 40
0.7401751319
 40
0.7722066342
 40
0.8043205643
 40
0.8365204893
 40
0.8688132451
 40
0.9012122749
 40
0.9174596898
 40
0.9337473035
 40
0.9419096911
 40
0.9500875242
 40
0.958284565
 40
0.9665069925
 40
0.9706309654
 40
0.9747663391
 40
0.9789168435
 40
0.9830889813
 40
0.987296062
 40
0.9894222452
 40
0.9915762322
 40
0.9937892145
 40
0.9949560888
 40
0.9955803278
 40
0.9961816471
 40
0.9980859928
 40
0.9990391425
 40
1.0
 40
1.0
 40
1.0
 40
1.0
 10
-146.0575715117
 20
6.3102203035
 30
0.0
 10
-145.9188031095
 20
5.6912187534
 30
0.0
 10
-145.6009709536
 20
4.449822428
 30
0.0
 10
-145.006838385
 20
2.6051326255
 30
0.0
 10
-144.4119828689
 20
1.0819036548
 30
0.0
 10
-143.8765054955
 20
-0.1266979341
 30
0.0
 10
-143.4439907187
 20
-1.0297036452
 30
0.0
 10
-142.9826822482
 20
-1.9250090309
 30
0.0
 10
-142.4933225599
 20
-2.8117329978
 30
0.0
 10
-141.9767828254
 20
-3.6891535895
 30
0.0
 10
-141.5250398448
 20
-4.411266557
 30
0.0
 10
-141.1513316416
 20
-4.9840958663
 30
0.0
 10
-140.8647687714
 20
-5.4119473009
 30
0.0
 10
-140.5725983892
 20
-5.837680402
 30
0.0
 10
-140.2752653372
 20
-6.2616838594
 30
0.0
 10
-140.0239796836
 20
-6.6138182521
 30
0.0
 10
-139.8214513549
 20
-6.8956495981
 30
0.0
 10
-139.6944435488
 20
-7.0722349771
 30
0.0
 10
-139.5928963795
 20
-7.2140055657
 30
0.0
 10
-139.5168045627
 20
-7.3208187886
 30
0.0
 10
-139.4409961227
 20
-7.4282265792
 30
0.0
 10
-139.3783270515
 20
-7.5183865959
 30
0.0
 10
-139.3287210503
 20
-7.59118292
 30
0.0
 10
-139.291833816
 20
-7.6463078936
 30
0.0
 10
-139.255450604
 20
-7.7020757901
 30
0.0
 10
-139.2198276833
 20
-7.7587883819
 30
0.0
 10
-139.1912578474
 20
-7.8071379233
 30
0.0
 10
-139.1697198185
 20
-7.8470812855
 30
0.0
 10
-139.1546304264
 20
-7.8783177024
 30
0.0
 10
-139.1436930733
 20
-7.9059526114
 30
0.0
 10
-139.1395154811
 20
-7.9270171015
 30
0.0
 10
-139.1403306577
 20
-7.9401170612
 30
0.0
 10
-139.1519893266
 20
-7.9543160902
 30
0.0
 10
-139.1737480523
 20
-7.9463470069
 30
0.0
 10
-139.1923801304
 20
-7.9399484784
 30
0.0
 10
-139.2006683704
 20
-7.9334935473
 30
0.0
 10
-139.2051976145
 20
-7.9310729161
 30
0.0
  0
SPLINE
  5
3D8
100
AcDbEntity
  8
0
100
AcDbSpline
 62
7
  6
CONTINUOUS
 70
0
 71
3
 72
9
 73
5
 74
0
 42
0.0000001
 43
0.0000001
 44
0.0000000001
 40
0.0
 40
0.0
 40
0.0
 40
0.0
 40
0.2516784095
 40
1.0
 40
1.0
 40
1.0
 40
1.0
 10
-146.0575312384
 20
6.3102704354
 30
0.0
 10
-146.1831154499
 20
6.7290217373
 30
0.0
 10
-146.6448820221
 20
8.4036943881
 30
0.0
 10
-146.9537860947
 20
10.1212959475
 30
0.0
 10
-147.0875483926
 20
11.4142654506
 30
0.0
  0
SPLINE
  5
3D9
100
AcDbEntity
  8
0
100
AcDbSpline
 62
7
  6
CONTINUOUS
 70
0
 71
3
 72
9
 73
5
 74
0
 42
0.0000001
 43
0.0000001
 44
0.0000000001
 40
0.0
 40
0.0
 40
0.0
 40
0.0
 40
0.2460673042
 40
1.0
 40
1.0
 40
1.0
 40
1.0
 10
-146.5554014493
 20
11.2154610354
 30
0.0
 10
-146.5670185344
 20
10.8106172739
 30
0.0
 10
-146.5570800098
 20
9.1638942955
 30
0.0
 10
-146.3289739901
 20
7.5211220895
 30
0.0
 10
-146.0575339393
 20
6.3102503867
 30
0.0
  0
SPLINE
  5
3DA
100
AcDbEntity
  8
0
100
AcDbSpline
 62
7
  6
CONTINUOUS
 70
0
 71
3
 72
9
 73
5
 74
0
 42
0.0000001
 43
0.0000001
 44
0.0000000001
 40
0.0
 40
0.0
 40
0.0
 40
0.0
 40
0.501013962
 40
1.0
 40
1.0
 40
1.0
 40
1.0
 10
-147.0875583173
 20
11.4142703746
 30
0.0
 10
-147.0983438199
 20
11.4577828353
 30
0.0
 10
-147.1325146189
 20
11.5428455669
 30
0.0
 10
-147.2059640526
 20
11.6041283145
 30
0.0
 10
-147.2477745481
 20
11.6197906233
 30
0.0
  0
SPLINE
  5
3DB
100
AcDbEntity
  8
0
100
AcDbSpline
 62
7
  6
CONTINUOUS
 70
0
 71
3
 72
11
 73
7
 74
0
 42
0.0000001
 43
0.0000001
 44
0.0000000001
 40
0.0
 40
0.0
 40
0.0
 40
0.0
 40
0.3077043331
 40
0.5728841423
 40
0.7983652236
 40
1.0
 40
1.0
 40
1.0
 40
1.0
 10
-144.725990302
 20
-33.5118567204
 30
0.0
 10
-144.7332172611
 20
-33.5887352545
 30
0.0
 10
-144.732372215
 20
-33.7337805944
 30
0.0
 10
-144.6851414522
 20
-33.930792303
 30
0.0
 10
-144.5930476793
 20
-34.082430035
 30
0.0
 10
-144.5020677017
 20
-34.1462565703
 30
0.0
 10
-144.4551427825
 20
-34.1651873722
 30
0.0
  0
LINE
  5
3DC
100
AcDbEntity
  8
0
100
AcDbLine
 62
7
  6
CONTINUOUS
 10
-153.6338936688
 20
1.9471304234
 11
-153.8181987807
 21
1.5352599273
  0
SPLINE
  5
3DD
100
AcDbEntity
  8
0
100
AcDbSpline
 62
7
  6
CONTINUOUS
 70
0
 71
3
 72
10
 73
6
 74
0
 42
0.0000001
 43
0.0000001
 44
0.0000000001
 40
0.0
 40
0.0
 40
0.0
 40
0.0
 40
0.3533264794
 40
0.6397485086
 40
1.0
 40
1.0
 40
1.0
 40
1.0
 10
-156.2464274812
 20
-1.7955613651
 30
0.0
 10
-156.2605431081
 20
-1.7874749566
 30
0.0
 10
-156.2857021382
 20
-1.7713059979
 30
0.0
 10
-156.3204534707
 20
-1.7434411309
 30
0.0
 10
-156.3397534747
 20
-1.7132795595
 30
0.0
 10
-156.3361655184
 20
-1.6970856471
 30
0.0
  0
SPLINE
  5
3DE
100
AcDbEntity
  8
0
100
AcDbSpline
 62
7
  6
CONTINUOUS
 70
0
 71
3
 72
10
 73
6
 74
0
 42
0.0000001
 43
0.0000001
 44
0.0000000001
 40
0.0
 40
0.0
 40
0.0
 40
0.0
 40
0.2416927579
 40
0.5004015795
 40
1.0
 40
1.0
 40
1.0
 40
1.0
 10
-155.2287707683
 20
-0.964936036
 30
0.0
 10
-155.3361969885
 20
-0.9834451754
 30
0.0
 10
-155.552040643
 20
-1.0620930362
 30
0.0
 10
-155.9291518782
 20
-1.3122063059
 30
0.0
 10
-156.1528352405
 20
-1.5905623956
 30
0.0
 10
-156.2466387509
 20
-1.7954398432
 30
0.0
  0
SPLINE
  5
3DF
100
AcDbEntity
  8
0
100
AcDbSpline
 62
7
  6
CONTINUOUS
 70
0
 71
3
 72
13
 73
9
 74
0
 42
0.0000001
 43
0.0000001
 44
0.0000000001
 40
0.0
 40
0.0
 40
0.0
 40
0.0
 40
0.2450931359
 40
0.3689443496
 40
0.4937355814
 40
0.6193386711
 40
0.7455752773
 40
1.0
 40
1.0
 40
1.0
 40
1.0
 10
-145.5908255194
 20
-17.7385317162
 30
0.0
 10
-146.7343483311
 20
-16.6480988661
 30
0.0
 10
-148.3781621204
 20
-14.9215147729
 30
0.0
 10
-150.3820341395
 20
-12.4467415565
 30
0.0
 10
-151.7898085266
 20
-10.4855605245
 30
0.0
 10
-153.0914773739
 20
-8.434182343
 30
0.0
 10
-154.6829344499
 20
-5.5834395396
 30
0.0
 10
-155.6828716994
 20
-3.3326919843
 30
0.0
 10
-156.24760972
 20
-1.7927262735
 30
0.0
  0
SPLINE
  5
3E0
100
AcDbEntity
  8
0
100
AcDbSpline
 62
7
  6
CONTINUOUS
 70
0
 71
3
 72
14
 73
10
 74
0
 42
0.0000001
 43
0.0000001
 44
0.0000000001
 40
0.0
 40
0.0
 40
0.0
 40
0.0
 40
0.3413797488
 40
0.5097241473
 40
0.6662415631
 40
0.801393905
 40
0.9053181327
 40
0.9716347262
 40
1.0
 40
1.0
 40
1.0
 40
1.0
 10
-153.8653217824
 20
-26.9030704974
 30
0.0
 10
-153.9062654527
 20
-26.8835840772
 30
0.0
 10
-153.9670873896
 20
-26.8537551491
 30
0.0
 10
-154.0455689883
 20
-26.8130091878
 30
0.0
 10
-154.0993155633
 20
-26.7835399701
 30
0.0
 10
-154.144258217
 20
-26.757392666
 30
0.0
 10
-154.1793034771
 20
-26.7342198657
 30
0.0
 10
-154.1981208015
 20
-26.7199117104
 30
0.0
 10
-154.208687882
 20
-26.7076582454
 30
0.0
 10
-154.2071591076
 20
-26.7042146834
 30
0.0
  0
SPLINE
  5
3E1
100
AcDbEntity
  8
0
100
AcDbSpline
 62
7
  6
CONTINUOUS
 70
0
 71
3
 72
9
 73
5
 74
0
 42
0.0000001
 43
0.0000001
 44
0.0000000001
 40
0.0
 40
0.0
 40
0.0
 40
0.0
 40
0.2525908419
 40
1.0
 40
1.0
 40
1.0
 40
1.0
 10
-153.5581534649
 20
-26.2271415892
 30
0.0
 10
-153.1402853291
 20
-26.6150627158
 30
0.0
 10
-151.4549801683
 20
-28.1173355806
 30
0.0
 10
-149.6563092592
 20
-29.4907169564
 30
0.0
 10
-148.2673529712
 20
-30.4484162649
 30
0.0
  0
SPLINE
  5
3E2
100
AcDbEntity
  8
0
100
AcDbSpline
 62
7
  6
CONTINUOUS
 70
0
 71
3
 72
9
 73
5
 74
0
 42
0.0000001
 43
0.0000001
 44
0.0000000001
 40
0.0
 40
0.0
 40
0.0
 40
0.0
 40
0.2474010093
 40
1.0
 40
1.0
 40
1.0
 40
1.0
 10
-148.2673591574
 20
-30.448412389
 30
0.0
 10
-148.7427451833
 20
-30.1787043464
 30
0.0
 10
-150.6516438087
 20
-29.0665280061
 30
0.0
 10
-152.5075772484
 20
-27.8627459683
 30
0.0
 10
-153.8653127052
 20
-26.9030539479
 30
0.0
  0
SPLINE
  5
3E3
100
AcDbEntity
  8
0
100
AcDbSpline
 62
7
  6
CONTINUOUS
 70
0
 71
3
 72
9
 73
5
 74
0
 42
0.0000001
 43
0.0000001
 44
0.0000000001
 40
0.0
 40
0.0
 40
0.0
 40
0.0
 40
0.509596204
 40
1.0
 40
1.0
 40
1.0
 40
1.0
 10
-148.267300303
 20
-30.4484655432
 30
0.0
 10
-146.2637316732
 20
-31.8299439021
 30
0.0
 10
-142.1507886449
 20
-34.2851245267
 30
0.0
 10
-137.7899670192
 20
-36.2544268521
 30
0.0
 10
-135.6110971783
 20
-37.1132459986
 30
0.0
  0
SPLINE
  5
3E4
100
AcDbEntity
  8
0
100
AcDbSpline
 62
7
  6
CONTINUOUS
 70
0
 71
3
 72
9
 73
5
 74
0
 42
0.0000001
 43
0.0000001
 44
0.0000000001
 40
0.0
 40
0.0
 40
0.0
 40
0.0
 40
0.3080097708
 40
1.0
 40
1.0
 40
1.0
 40
1.0
 10
-131.7204298777
 20
-38.5230949448
 30
0.0
 10
-131.6769573804
 20
-38.5375874944
 30
0.0
 10
-131.5792581972
 20
-38.5700837687
 30
0.0
 10
-131.1992254793
 20
-38.6963177777
 30
0.0
 10
-131.2977252232
 20
-38.6663699256
 30
0.0
  0
SPLINE
  5
3E5
100
AcDbEntity
  8
0
100
AcDbSpline
 62
7
  6
CONTINUOUS
 70
0
 71
3
 72
9
 73
5
 74
0
 42
0.0000001
 43
0.0000001
 44
0.0000000001
 40
0.0
 40
0.0
 40
0.0
 40
0.0
 40
0.240326976
 40
1.0
 40
1.0
 40
1.0
 40
1.0
 10
-135.6583846463
 20
-37.2112113236
 30
0.0
 10
-136.7301599765
 20
-36.8237250667
 30
0.0
 10
-141.1589938335
 20
-35.1287921718
 30
0.0
 10
-145.4558028159
 20
-33.0774783956
 30
0.0
 10
-148.586431388
 20
-31.2950272071
 30
0.0
  0
SPLINE
  5
3E6
100
AcDbEntity
  8
0
100
AcDbSpline
 62
7
  6
CONTINUOUS
 70
0
 71
3
 72
10
 73
6
 74
0
 42
0.0000001
 43
0.0000001
 44
0.0000000001
 40
0.0
 40
0.0
 40
0.0
 40
0.0
 40
0.2925838515
 40
0.5626050722
 40
1.0
 40
1.0
 40
1.0
 40
1.0
 10
-153.8653031099
 20
-26.9030794835
 30
0.0
 10
-153.9093956832
 20
-26.9810002814
 30
0.0
 10
-153.9811498017
 20
-27.1390529574
 30
0.0
 10
-154.0607068705
 20
-27.4336478972
 30
0.0
 10
-154.0599859101
 20
-27.6629048689
 30
0.0
 10
-154.0124576667
 20
-27.7880253054
 30
0.0
  0
SPLINE
  5
3E7
100
AcDbEntity
  8
0
100
AcDbSpline
 62
7
  6
CONTINUOUS
 70
0
 71
3
 72
9
 73
5
 74
0
 42
0.0000001
 43
0.0000001
 44
0.0000000001
 40
0.0
 40
0.0
 40
0.0
 40
0.0
 40
0.2620758336
 40
1.0
 40
1.0
 40
1.0
 40
1.0
 10
-154.0124576667
 20
-27.7880253054
 30
0.0
 10
-154.0078925305
 20
-27.8000432509
 30
0.0
 10
-153.9887658817
 20
-27.8452111166
 30
0.0
 10
-153.9623965568
 20
-27.88748024
 30
0.0
 10
-153.9389574186
 20
-27.9150645988
 30
0.0
  0
SPLINE
  5
3E8
100
AcDbEntity
  8
0
100
AcDbSpline
 62
7
  6
CONTINUOUS
 70
0
 71
3
 72
9
 73
5
 74
0
 42
0.0000001
 43
0.0000001
 44
0.0000000001
 40
0.0
 40
0.0
 40
0.0
 40
0.0
 40
0.5088361004
 40
1.0
 40
1.0
 40
1.0
 40
1.0
 10
-158.2995725176
 20
-16.083626205
 30
0.0
 10
-157.9387478032
 20
-17.5080914692
 30
0.0
 10
-157.0435105338
 20
-20.2645741932
 30
0.0
 10
-155.7580609107
 20
-22.864494943
 30
0.0
 10
-155.0313490884
 20
-24.0826094062
 30
0.0
  0
LINE
  5
3E9
100
AcDbEntity
  8
0
100
AcDbLine
 62
7
  6
CONTINUOUS
 10
-154.9702938864
 20
-24.184440015
 11
-154.8920084485
 21
-24.312830644
  0
SPLINE
  5
3EA
100
AcDbEntity
  8
0
100
AcDbSpline
 62
7
  6
CONTINUOUS
 70
0
 71
3
 72
25
 73
21
 74
0
 42
0.0000001
 43
0.0000001
 44
0.0000000001
 40
0.0
 40
0.0
 40
0.0
 40
0.0
 40
0.125410357
 40
0.2510913539
 40
0.3768418564
 40
0.4396986022
 40
0.5025178833
 40
0.5652883067
 40
0.6280012305
 40
0.690651552
 40
0.7532404642
 40
0.7845167678
 40
0.8157857631
 40
0.8470543914
 40
0.8783343008
 40
0.9096465609
 40
0.9410350075
 40
0.9567883084
 40
0.9726219999
 40
1.0
 40
1.0
 40
1.0
 40
1.0
 10
-152.4560934712
 20
-7.0115402702
 30
0.0
 10
-152.146563536
 20
-7.6660950703
 30
0.0
 10
-151.4906814999
 20
-8.959869358
 30
0.0
 10
-150.4017543977
 20
-10.8446041122
 30
0.0
 10
-149.4088513745
 20
-12.3645546725
 30
0.0
 10
-148.5664620986
 20
-13.5468943981
 30
0.0
 10
-147.9116913671
 20
-14.4159653365
 30
0.0
 10
-147.2348930902
 20
-15.2669166279
 30
0.0
 10
-146.5370355467
 20
-16.0994081799
 30
0.0
 10
-145.8191145802
 20
-16.9132587437
 30
0.0
 10
-145.204823091
 20
-17.5760958543
 30
0.0
 10
-144.7045003664
 20
-18.0973197896
 30
0.0
 10
-144.3250989058
 20
-18.4837805518
 30
0.0
 10
-143.9413368367
 20
-18.8664304362
 30
0.0
 10
-143.5545925775
 20
-19.2445624276
 30
0.0
 10
-143.160726069
 20
-19.6233217379
 30
0.0
 10
-142.8409160135
 20
-19.9269521193
 30
0.0
 10
-142.5599965969
 20
-20.1947336866
 30
0.0
 10
-142.381353091
 20
-20.3648959665
 30
0.0
 10
-141.9359207677
 20
-20.8050288878
 30
0.0
 10
-142.0836289767
 20
-20.7487521142
 30
0.0
  0
SPLINE
  5
3EB
100
AcDbEntity
  8
0
100
AcDbSpline
 62
7
  6
CONTINUOUS
 70
0
 71
3
 72
9
 73
5
 74
0
 42
0.0000001
 43
0.0000001
 44
0.0000000001
 40
0.0
 40
0.0
 40
0.0
 40
0.0
 40
0.2489336159
 40
1.0
 40
1.0
 40
1.0
 40
1.0
 10
-152.6969482556
 20
-6.4920815264
 30
0.0
 10
-152.9427980391
 20
-6.0512433296
 30
0.0
 10
-153.8961551541
 20
-4.2615087255
 30
0.0
 10
-154.7087165783
 20
-2.3963000468
 30
0.0
 10
-155.228748188
 20
-0.9649160466
 30
0.0
  0
SPLINE
  5
3EC
100
AcDbEntity
  8
0
100
AcDbSpline
 62
7
  6
CONTINUOUS
 70
0
 71
3
 72
9
 73
5
 74
0
 42
0.0000001
 43
0.0000001
 44
0.0000000001
 40
0.0
 40
0.0
 40
0.0
 40
0.0
 40
0.2505280451
 40
1.0
 40
1.0
 40
1.0
 40
1.0
 10
-154.6142630949
 20
-0.7991549241
 30
0.0
 10
-154.5062088061
 20
-1.2895804404
 30
0.0
 10
-154.0193910791
 20
-3.2347068328
 30
0.0
 10
-153.3196614374
 20
-5.1249125915
 30
0.0
 10
-152.6968925042
 20
-6.4920832935
 30
0.0
  0
SPLINE
  5
3ED
100
AcDbEntity
  8
0
100
AcDbSpline
 62
7
  6
CONTINUOUS
 70
0
 71
3
 72
12
 73
8
 74
0
 42
0.0000001
 43
0.0000001
 44
0.0000000001
 40
0.0
 40
0.0
 40
0.0
 40
0.0
 40
0.3204211725
 40
0.6271256436
 40
0.7584838943
 40
0.8653769678
 40
1.0
 40
1.0
 40
1.0
 40
1.0
 10
-157.7095543033
 20
-14.9901158225
 30
0.0
 10
-157.7411329476
 20
-14.9597408509
 30
0.0
 10
-157.8052632045
 20
-14.9025564726
 30
0.0
 10
-157.8883327525
 20
-14.8405379967
 30
0.0
 10
-157.9544513191
 20
-14.8043073296
 30
0.0
 10
-158.0000812949
 20
-14.785743624
 30
0.0
 10
-158.039954536
 20
-14.7828416741
 30
0.0
 10
-158.0535738625
 20
-14.7952274598
 30
0.0
  0
SPLINE
  5
3EE
100
AcDbEntity
  8
0
100
AcDbSpline
 62
7
  6
CONTINUOUS
 70
0
 71
3
 72
9
 73
5
 74
0
 42
0.0000001
 43
0.0000001
 44
0.0000000001
 40
0.0
 40
0.0
 40
0.0
 40
0.0
 40
0.2521396057
 40
1.0
 40
1.0
 40
1.0
 40
1.0
 10
-157.1774880736
 20
-14.5042267871
 30
0.0
 10
-156.912448439
 20
-14.9886535108
 30
0.0
 10
-155.814051082
 20
-16.8838792908
 30
0.0
 10
-154.5381434988
 20
-18.6747478894
 30
0.0
 10
-153.5060778828
 20
-19.9464909504
 30
0.0
  0
SPLINE
  5
3EF
100
AcDbEntity
  8
0
100
AcDbSpline
 62
7
  6
CONTINUOUS
 70
0
 71
3
 72
9
 73
5
 74
0
 42
0.0000001
 43
0.0000001
 44
0.0000000001
 40
0.0
 40
0.0
 40
0.0
 40
0.0
 40
0.2479506066
 40
1.0
 40
1.0
 40
1.0
 40
1.0
 10
-153.5060404902
 20
-19.9464496174
 30
0.0
 10
-153.8798546262
 20
-19.5604337824
 30
0.0
 10
-155.3625459147
 20
-17.9797307231
 30
0.0
 10
-156.7419967001
 20
-16.3016535912
 30
0.0
 10
-157.7095605971
 20
-14.9901199074
 30
0.0
  0
SPLINE
  5
3F0
100
AcDbEntity
  8
0
100
AcDbSpline
 62
7
  6
CONTINUOUS
 70
0
 71
3
 72
39
 73
35
 74
0
 42
0.0000001
 43
0.0000001
 44
0.0000000001
 40
0.0
 40
0.0
 40
0.0
 40
0.0
 40
0.1280930966
 40
0.255564734
 40
0.3822204397
 40
0.4451940044
 40
0.507903372
 40
0.5703346298
 40
0.6324766973
 40
0.69432221
 40
0.7558703736
 40
0.786537525
 40
0.817138717
 40
0.8476817657
 40
0.878180011
 40
0.908657859
 40
0.9391664315
 40
0.9544679358
 40
0.9621442913
 40
0.9698489536
 40
0.9737165874
 40
0.977598496
 40
0.9814997025
 40
0.9854285475
 40
0.9894008914
 40
0.9934552257
 40
0.9955478932
 40
0.9966209884
 40
0.9971310054
 40
0.9974449037
 40
0.9976510093
 40
0.9979176094
 40
0.9985553889
 40
1.0
 40
1.0
 40
1.0
 40
1.0
 10
-153.5059690099
 20
-19.9468683566
 30
0.0
 10
-152.9976582824
 20
-20.5732284174
 30
0.0
 10
-151.9508744994
 20
-21.7968328141
 30
0.0
 10
-150.293745679
 20
-23.5439284333
 30
0.0
 10
-148.8475789133
 20
-24.9223292885
 30
0.0
 10
-147.6576120962
 20
-25.9757078987
 30
0.0
 10
-146.7518074266
 20
-26.739373994
 30
0.0
 10
-145.8322861094
 20
-27.4781140295
 30
0.0
 10
-144.9002159344
 20
-28.1920415443
 30
0.0
 10
-143.9567162416
 20
-28.8813952617
 30
0.0
 10
-143.1608249821
 20
-29.436369277
 30
0.0
 10
-142.5194117888
 20
-29.8685820061
 30
0.0
 10
-142.0366095333
 20
-30.1867123768
 30
0.0
 10
-141.5515553456
 20
-30.4994370504
 30
0.0
 10
-141.0642230502
 20
-30.8071452813
 30
0.0
 10
-140.5744401884
 20
-31.110522616
 30
0.0
 10
-140.1642038254
 20
-31.3605498294
 30
0.0
 10
-139.87612358
 20
-31.535089407
 30
0.0
 10
-139.7109246725
 20
-31.6353105105
 30
0.0
 10
-139.6073837273
 20
-31.6983436884
 30
0.0
 10
-139.5243896683
 20
-31.7491726474
 30
0.0
 10
-139.4619224418
 20
-31.7876604486
 30
0.0
 10
-139.3992849074
 20
-31.8265913106
 30
0.0
 10
-139.3363835909
 20
-31.8662296489
 30
0.0
 10
-139.2731453939
 20
-31.9069309874
 30
0.0
 10
-139.2200608723
 20
-31.9427078892
 30
0.0
 10
-139.1836550355
 20
-31.9691021076
 30
0.0
 10
-139.1655171234
 20
-31.9847349611
 30
0.0
 10
-139.1578913014
 20
-31.9924730639
 30
0.0
 10
-139.1538149044
 20
-32.0000576171
 30
0.0
 10
-139.1594395722
 20
-32.0023654199
 30
0.0
 10
-139.1661855229
 20
-32.0018025733
 30
0.0
 10
-139.1809344444
 20
-31.9989801197
 30
0.0
 10
-139.1933356459
 20
-31.9948950603
 30
0.0
 10
-139.2019490686
 20
-31.9919672863
 30
0.0
  0
SPLINE
  5
3F1
100
AcDbEntity
  8
0
100
AcDbSpline
 62
7
  6
CONTINUOUS
 70
0
 71
3
 72
13
 73
9
 74
0
 42
0.0000001
 43
0.0000001
 44
0.0000000001
 40
0.0
 40
0.0
 40
0.0
 40
0.0
 40
0.2409131204
 40
0.3638636382
 40
0.4884764617
 40
0.6145542797
 40
0.7418690929
 40
1.0
 40
1.0
 40
1.0
 40
1.0
 10
-143.2875884558
 20
-29.6755985518
 30
0.0
 10
-144.6766240478
 20
-28.8120513718
 30
0.0
 10
-146.7243051959
 20
-27.4237123693
 30
0.0
 10
-149.3449572854
 20
-25.3900943699
 30
0.0
 10
-151.2758722632
 20
-23.743528838
 30
0.0
 10
-153.1500455888
 20
-21.9889199623
 30
0.0
 10
-155.5718461055
 20
-19.4988498597
 30
0.0
 10
-157.2539722243
 20
-17.4858737218
 30
0.0
 10
-158.3016361395
 20
-16.0810337014
 30
0.0
  0
SPLINE
  5
3F2
100
AcDbEntity
  8
0
100
AcDbSpline
 62
7
  6
CONTINUOUS
 70
0
 71
3
 72
10
 73
6
 74
0
 42
0.0000001
 43
0.0000001
 44
0.0000000001
 40
0.0
 40
0.0
 40
0.0
 40
0.0
 40
0.2617210607
 40
0.523713246
 40
1.0
 40
1.0
 40
1.0
 40
1.0
 10
-157.7095578422
 20
-14.990112539
 30
0.0
 10
-157.7820876907
 20
-15.0452701603
 30
0.0
 10
-157.9162756309
 20
-15.1706419563
 30
0.0
 10
-158.1306569755
 20
-15.4453258884
 30
0.0
 10
-158.2423160769
 20
-15.6850138161
 30
0.0
 10
-158.2781068179
 20
-15.8469286872
 30
0.0
  0
SPLINE
  5
3F3
100
AcDbEntity
  8
0
100
AcDbSpline
 62
7
  6
CONTINUOUS
 70
0
 71
3
 72
9
 73
5
 74
0
 42
0.0000001
 43
0.0000001
 44
0.0000000001
 40
0.0
 40
0.0
 40
0.0
 40
0.0
 40
0.2647372301
 40
1.0
 40
1.0
 40
1.0
 40
1.0
 10
-158.2781068179
 20
-15.8469286872
 30
0.0
 10
-158.2826393931
 20
-15.8674337485
 30
0.0
 10
-158.2974500215
 20
-15.9453498424
 30
0.0
 10
-158.3029149732
 20
-16.0252756171
 30
0.0
 10
-158.2998038485
 20
-16.083516638
 30
0.0
  0
SPLINE
  5
3F4
100
AcDbEntity
  8
0
100
AcDbSpline
 62
7
  6
CONTINUOUS
 70
0
 71
3
 72
9
 73
5
 74
0
 42
0.0000001
 43
0.0000001
 44
0.0000000001
 40
0.0
 40
0.0
 40
0.0
 40
0.0
 40
0.527071386
 40
1.0
 40
1.0
 40
1.0
 40
1.0
 10
-158.299592408
 20
-16.0836378373
 30
0.0
 10
-158.3204530224
 20
-16.0717216831
 30
0.0
 10
-158.3575255257
 20
-16.0436120987
 30
0.0
 10
-158.3807425933
 20
-16.0021494844
 30
0.0
 10
-158.3859501236
 20
-15.9812316507
 30
0.0
  0
SPLINE
  5
3F5
100
AcDbEntity
  8
0
100
AcDbSpline
 62
7
  6
CONTINUOUS
 70
0
 71
3
 72
9
 73
5
 74
0
 42
0.0000001
 43
0.0000001
 44
0.0000000001
 40
0.0
 40
0.0
 40
0.0
 40
0.0
 40
0.2549224079
 40
1.0
 40
1.0
 40
1.0
 40
1.0
 10
-156.2464074425
 20
-1.7955616336
 30
0.0
 10
-156.4321883268
 20
-2.6077099069
 30
0.0
 10
-157.0781657258
 20
-5.8116494595
 30
0.0
 10
-157.3865741692
 20
-9.0859989694
 30
0.0
 10
-157.3998032162
 20
-11.5209930035
 30
0.0
  0
SPLINE
  5
3F6
100
AcDbEntity
  8
0
100
AcDbSpline
 62
7
  6
CONTINUOUS
 70
0
 71
3
 72
8
 73
4
 74
0
 42
0.0000001
 43
0.0000001
 44
0.0000000001
 40
0.0
 40
0.0
 40
0.0
 40
0.0
 40
1.0
 40
1.0
 40
1.0
 40
1.0
 10
-157.4004074415
 20
-11.754321821
 30
0.0
 10
-157.3994325766
 20
-11.8929537955
 30
0.0
 10
-157.3989868018
 20
-12.0315899188
 30
0.0
 10
-157.3976535241
 20
-12.1702189095
 30
0.0
  0
SPLINE
  5
3F7
100
AcDbEntity
  8
0
100
AcDbSpline
 62
7
  6
CONTINUOUS
 70
0
 71
3
 72
11
 73
7
 74
0
 42
0.0000001
 43
0.0000001
 44
0.0000000001
 40
0.0
 40
0.0
 40
0.0
 40
0.0
 40
0.2749459589
 40
0.5445178259
 40
0.7880509785
 40
1.0
 40
1.0
 40
1.0
 40
1.0
 10
-155.2287791214
 20
-0.9649207527
 30
0.0
 10
-155.24622861
 20
-0.9333244375
 30
0.0
 10
-155.2852577849
 20
-0.8730271375
 30
0.0
 10
-155.3566730082
 20
-0.7971918631
 30
0.0
 10
-155.4397348165
 20
-0.7467575709
 30
0.0
 10
-155.5031355566
 20
-0.7425715604
 30
0.0
 10
-155.529993934
 20
-0.7498394079
 30
0.0
  0
SPLINE
  5
3F8
100
AcDbEntity
  8
0
100
AcDbSpline
 62
7
  6
CONTINUOUS
 70
0
 71
3
 72
9
 73
5
 74
0
 42
0.0000001
 43
0.0000001
 44
0.0000000001
 40
0.0
 40
0.0
 40
0.0
 40
0.0
 40
0.50735151
 40
1.0
 40
1.0
 40
1.0
 40
1.0
 10
-78.9951308986
 20
-74.5529283968
 30
0.0
 10
-78.7788950226
 20
-74.9266309267
 30
0.0
 10
-78.2619487964
 20
-75.6156689
 30
0.0
 10
-77.5797288578
 20
-76.1441954495
 30
0.0
 10
-77.2161760528
 20
-76.3529849498
 30
0.0
  0
SPLINE
  5
3F9
100
AcDbEntity
  8
0
100
AcDbSpline
 62
7
  6
CONTINUOUS
 70
0
 71
3
 72
11
 73
7
 74
0
 42
0.0000001
 43
0.0000001
 44
0.0000000001
 40
0.0
 40
0.0
 40
0.0
 40
0.0
 40
0.25602158
 40
0.5069904405
 40
0.7544105716
 40
1.0
 40
1.0
 40
1.0
 40
1.0
 10
-97.0697204899
 20
-63.623937146
 30
0.0
 10
-96.6172162325
 20
-64.3870297
 30
0.0
 10
-95.6303995557
 20
-65.8467563371
 30
0.0
 10
-93.9023531704
 20
-67.8175583573
 30
0.0
 10
-91.9607249858
 20
-69.5244168954
 30
0.0
 10
-90.5344900187
 20
-70.4756775549
 30
0.0
 10
-89.7965360698
 20
-70.8995399812
 30
0.0
  0
SPLINE
  5
3FA
100
AcDbEntity
  8
0
100
AcDbSpline
 62
7
  6
CONTINUOUS
 70
0
 71
3
 72
12
 73
8
 74
0
 42
0.0000001
 43
0.0000001
 44
0.0000000001
 40
0.0
 40
0.0
 40
0.0
 40
0.0
 40
0.2742647739
 40
0.5303213656
 40
0.7697858951
 40
0.8855607374
 40
1.0
 40
1.0
 40
1.0
 40
1.0
 10
-68.8724614033
 20
-76.7692761334
 30
0.0
 10
-69.3776417592
 20
-77.1232551635
 30
0.0
 10
-70.4317370089
 20
-77.7075333377
 30
0.0
 10
-72.1230295091
 20
-78.1582201561
 30
0.0
 10
-73.5213807885
 20
-78.1214776799
 30
0.0
 10
-74.5431004598
 20
-77.8376785275
 30
0.0
 10
-75.0148759554
 20
-77.6172948775
 30
0.0
 10
-75.2380738167
 20
-77.4891116629
 30
0.0
  0
SPLINE
  5
3FB
100
AcDbEntity
  8
0
100
AcDbSpline
 62
7
  6
CONTINUOUS
 70
0
 71
3
 72
11
 73
7
 74
0
 42
0.0000001
 43
0.0000001
 44
0.0000000001
 40
0.0
 40
0.0
 40
0.0
 40
0.0
 40
0.2563966144
 40
0.507464137
 40
0.7547038776
 40
1.0
 40
1.0
 40
1.0
 40
1.0
 10
-77.4861547156
 20
-74.6513597699
 30
0.0
 10
-78.4072444927
 20
-74.6603562384
 30
0.0
 10
-80.233650339
 20
-74.5670165758
 30
0.0
 10
-82.9085783917
 20
-74.0793801293
 30
0.0
 10
-85.4565230638
 20
-73.2503890493
 30
0.0
 10
-87.0542629764
 20
-72.4745874306
 30
0.0
 10
-87.8184338209
 20
-72.0356666704
 30
0.0
  0
SPLINE
  5
3FC
100
AcDbEntity
  8
0
100
AcDbSpline
 62
7
  6
CONTINUOUS
 70
0
 71
3
 72
11
 73
7
 74
0
 42
0.0000001
 43
0.0000001
 44
0.0000000001
 40
0.0
 40
0.0
 40
0.0
 40
0.0
 40
0.2417529288
 40
0.4870509342
 40
0.7390102429
 40
1.0
 40
1.0
 40
1.0
 40
1.0
 10
-54.6982169715
 20
-14.3702882295
 30
0.0
 10
-53.6555463122
 20
-14.9691840014
 30
0.0
 10
-51.6645548791
 20
-16.3786739985
 30
0.0
 10
-49.0977369557
 20
-19.0372161931
 30
0.0
 10
-46.9911740407
 20
-22.1876026049
 30
0.0
 10
-45.941156373
 20
-24.5269437808
 30
0.0
 10
-45.5008645344
 20
-25.7481044079
 30
0.0
  0
SPLINE
  5
3FD
100
AcDbEntity
  8
0
100
AcDbSpline
 62
7
  6
CONTINUOUS
 70
0
 71
3
 72
13
 73
9
 74
0
 42
0.0000001
 43
0.0000001
 44
0.0000000001
 40
0.0
 40
0.0
 40
0.0
 40
0.0
 40
0.1177961076
 40
0.2364093285
 40
0.3566098349
 40
0.4790776814
 40
0.7325353555
 40
1.0
 40
1.0
 40
1.0
 40
1.0
 10
-56.676325945
 20
-13.2341732433
 30
0.0
 10
-57.3877453761
 20
-12.825547988
 30
0.0
 10
-58.8702498587
 20
-12.0968512769
 30
0.0
 10
-61.2269090338
 20
-11.292891411
 30
0.0
 10
-63.6978421015
 20
-10.7835819249
 30
0.0
 10
-67.1489551459
 20
-10.4999312282
 30
0.0
 10
-71.649376055
 20
-10.9264280697
 30
0.0
 10
-75.1358266213
 20
-12.0231791802
 30
0.0
 10
-76.854612906
 20
-12.7414418861
 30
0.0
  0
SPLINE
  5
3FE
100
AcDbEntity
  8
0
100
AcDbSpline
 62
7
  6
CONTINUOUS
 70
0
 71
3
 72
11
 73
7
 74
0
 42
0.0000001
 43
0.0000001
 44
0.0000000001
 40
0.0
 40
0.0
 40
0.0
 40
0.0
 40
0.243972988
 40
0.491068702
 40
0.7426894616
 40
1.0
 40
1.0
 40
1.0
 40
1.0
 10
-89.7198647942
 20
-70.7878599672
 30
0.0
 10
-90.3777634217
 20
-70.2980732967
 30
0.0
 10
-91.6402556804
 20
-69.2263018377
 30
0.0
 10
-93.3315585187
 20
-67.3813809431
 30
0.0
 10
-94.8138431511
 20
-65.3095934353
 30
0.0
 10
-95.6434613311
 20
-63.8083477827
 30
0.0
 10
-96.0199743585
 20
-63.0295519763
 30
0.0
  0
SPLINE
  5
3FF
100
AcDbEntity
  8
0
100
AcDbSpline
 62
7
  6
CONTINUOUS
 70
0
 71
3
 72
11
 73
7
 74
0
 42
0.0000001
 43
0.0000001
 44
0.0000000001
 40
0.0
 40
0.0
 40
0.0
 40
0.0
 40
0.2413565925
 40
0.4864145345
 40
0.7385464697
 40
1.0
 40
1.0
 40
1.0
 40
1.0
 10
-75.2380738167
 20
-77.4891116629
 30
0.0
 10
-75.4959242856
 20
-77.3410273497
 30
0.0
 10
-75.9876516872
 20
-76.990846709
 30
0.0
 10
-76.6181872483
 20
-76.3277474146
 30
0.0
 10
-77.1307503287
 20
-75.5404726441
 30
0.0
 10
-77.3820969639
 20
-74.9561957832
 30
0.0
 10
-77.4861547156
 20
-74.6513597699
 30
0.0
  0
SPLINE
  5
400
100
AcDbEntity
  8
0
100
AcDbSpline
 62
7
  6
CONTINUOUS
 70
0
 71
3
 72
11
 73
7
 74
0
 42
0.0000001
 43
0.0000001
 44
0.0000000001
 40
0.0
 40
0.0
 40
0.0
 40
0.0
 40
0.2500679148
 40
0.5048769536
 40
0.7571251811
 40
1.0
 40
1.0
 40
1.0
 40
1.0
 10
-98.0539332784
 20
-43.888208262
 30
0.0
 10
-97.532916457
 20
-41.0959224201
 30
0.0
 10
-95.8636098102
 20
-35.559176176
 30
0.0
 10
-91.7766398808
 20
-27.9317780689
 30
0.0
 10
-86.3298872449
 20
-21.311801421
 30
0.0
 10
-81.8979149201
 20
-17.7635621334
 30
0.0
 10
-79.556626902
 20
-16.3043837796
 30
0.0
  0
SPLINE
  5
401
100
AcDbEntity
  8
0
100
AcDbSpline
 62
7
  6
CONTINUOUS
 70
0
 71
3
 72
13
 73
9
 74
0
 42
0.0000001
 43
0.0000001
 44
0.0000000001
 40
0.0
 40
0.0
 40
0.0
 40
0.0
 40
0.2711032814
 40
0.5266274882
 40
0.649044921
 40
0.7682935605
 40
0.8850113059
 40
1.0
 40
1.0
 40
1.0
 40
1.0
 10
-79.556626902
 20
-16.3043837796
 30
0.0
 10
-77.7234868778
 20
-15.1619022813
 30
0.0
 10
-73.9452103796
 20
-13.2655075041
 30
0.0
 10
-68.8904225342
 20
-11.9650627944
 30
0.0
 10
-64.9291737919
 20
-11.6923376297
 30
0.0
 10
-62.070261443
 20
-11.8605597316
 30
0.0
 10
-59.3177259815
 20
-12.3978166616
 30
0.0
 10
-57.5655650785
 20
-13.0018672375
 30
0.0
 10
-56.7229106049
 20
-13.361457712
 30
0.0
  0
SPLINE
  5
402
100
AcDbEntity
  8
0
100
AcDbSpline
 62
7
  6
CONTINUOUS
 70
0
 71
3
 72
13
 73
9
 74
0
 42
0.0000001
 43
0.0000001
 44
0.0000000001
 40
0.0
 40
0.0
 40
0.0
 40
0.0
 40
0.1105763032
 40
0.2232519318
 40
0.339800656
 40
0.4614426036
 40
0.720880587
 40
1.0
 40
1.0
 40
1.0
 40
1.0
 10
-38.7121053341
 20
-29.7215983448
 30
0.0
 10
-37.7119749439
 20
-30.2960690265
 30
0.0
 10
-35.8128174058
 20
-31.6800422171
 30
0.0
 10
-33.4382240245
 20
-34.3437975069
 30
0.0
 10
-31.5849281721
 20
-37.526712299
 30
0.0
 10
-29.8353697046
 20
-42.4404836616
 30
0.0
 10
-29.239782431
 20
-49.4210622078
 30
0.0
 10
-30.3526123527
 20
-55.0012315594
 30
0.0
 10
-31.2652586924
 20
-57.7658684774
 30
0.0
  0
SPLINE
  5
403
100
AcDbEntity
  8
0
100
AcDbSpline
 62
7
  6
CONTINUOUS
 70
0
 71
3
 72
13
 73
9
 74
0
 42
0.0000001
 43
0.0000001
 44
0.0000000001
 40
0.0
 40
0.0
 40
0.0
 40
0.0
 40
0.118092686
 40
0.2369629809
 40
0.3573457321
 40
0.479895518
 40
0.7331761257
 40
1.0
 40
1.0
 40
1.0
 40
1.0
 10
-54.0615750666
 20
-8.6816487299
 30
0.0
 10
-53.259236042
 20
-9.1424831359
 30
0.0
 10
-51.7056378707
 20
-10.1695073426
 30
0.0
 10
-49.575343152
 20
-11.9967596541
 30
0.0
 10
-47.6602286217
 20
-14.0964214228
 30
0.0
 10
-45.3934104558
 20
-17.2647766006
 30
0.0
 10
-43.1923491078
 20
-21.840862147
 30
0.0
 10
-42.209844371
 20
-25.8257239246
 30
0.0
 10
-41.8933060266
 20
-27.8922073402
 30
0.0
  0
SPLINE
  5
404
100
AcDbEntity
  8
0
100
AcDbSpline
 62
7
  6
CONTINUOUS
 70
0
 71
3
 72
11
 73
7
 74
0
 42
0.0000001
 43
0.0000001
 44
0.0000000001
 40
0.0
 40
0.0
 40
0.0
 40
0.0
 40
0.2620939767
 40
0.5143046081
 40
0.7591313003
 40
1.0
 40
1.0
 40
1.0
 40
1.0
 10
-74.5675479772
 20
-77.7889333471
 30
0.0
 10
-76.1360576838
 20
-78.138436214
 30
0.0
 10
-79.2754904739
 20
-78.5824026129
 30
0.0
 10
-83.9522260314
 20
-78.4195862517
 30
0.0
 10
-88.391173126
 20
-77.4137059438
 30
0.0
 10
-91.1306458752
 20
-76.1875985617
 30
0.0
 10
-92.4112748149
 20
-75.4520435343
 30
0.0
  0
SPLINE
  5
405
100
AcDbEntity
  8
0
100
AcDbSpline
 62
7
  6
CONTINUOUS
 70
0
 71
3
 72
12
 73
8
 74
0
 42
0.0000001
 43
0.0000001
 44
0.0000000001
 40
0.0
 40
0.0
 40
0.0
 40
0.0
 40
0.2573833114
 40
0.3866814827
 40
0.5149505675
 40
0.7643780876
 40
1.0
 40
1.0
 40
1.0
 40
1.0
 10
-31.2652586924
 20
-57.7658684774
 30
0.0
 10
-32.046567491
 20
-60.1326507181
 30
0.0
 10
-33.6026173567
 20
-63.5768786057
 30
0.0
 10
-36.3240553029
 20
-67.7626039003
 30
0.0
 10
-39.4133051453
 20
-71.5885703395
 30
0.0
 10
-43.8488002586
 20
-75.6079259039
 30
0.0
 10
-48.0028836606
 20
-77.9173241962
 30
0.0
 10
-50.1284042446
 20
-78.7469155743
 30
0.0
  0
SPLINE
  5
406
100
AcDbEntity
  8
0
100
AcDbSpline
 62
7
  6
CONTINUOUS
 70
0
 71
3
 72
9
 73
5
 74
0
 42
0.0000001
 43
0.0000001
 44
0.0000000001
 40
0.0
 40
0.0
 40
0.0
 40
0.0
 40
0.24346071
 40
1.0
 40
1.0
 40
1.0
 40
1.0
 10
-50.1280831579
 20
-80.642275629
 30
0.0
 10
-50.1280680452
 20
-80.7314848928
 30
0.0
 10
-50.1439345181
 20
-81.0978249239
 30
0.0
 10
-50.2212229644
 20
-81.4607719445
 30
0.0
 10
-50.3081222097
 20
-81.7240117682
 30
0.0
  0
SPLINE
  5
407
100
AcDbEntity
  8
0
100
AcDbSpline
 62
7
  6
CONTINUOUS
 70
0
 71
3
 72
13
 73
9
 74
0
 42
0.0000001
 43
0.0000001
 44
0.0000000001
 40
0.0
 40
0.0
 40
0.0
 40
0.0
 40
0.2766349791
 40
0.5431997743
 40
0.6673695756
 40
0.783904504
 40
0.8938717387
 40
1.0
 40
1.0
 40
1.0
 40
1.0
 10
-50.3081222097
 20
-81.7240117682
 30
0.0
 10
-50.450652104
 20
-82.1557709181
 30
0.0
 10
-50.8838270595
 20
-82.9590629742
 30
0.0
 10
-51.7192511388
 20
-83.7113678861
 30
0.0
 10
-52.4846620102
 20
-84.0571481049
 30
0.0
 10
-53.0563912122
 20
-84.1683314042
 30
0.0
 10
-53.6085030293
 20
-84.1282673478
 30
0.0
 10
-53.9458832387
 20
-83.9982543307
 30
0.0
 10
-54.0971320782
 20
-83.9113615471
 30
0.0
  0
SPLINE
  5
408
100
AcDbEntity
  8
0
100
AcDbSpline
 62
7
  6
CONTINUOUS
 70
0
 71
3
 72
11
 73
7
 74
0
 42
0.0000001
 43
0.0000001
 44
0.0000000001
 40
0.0
 40
0.0
 40
0.0
 40
0.0
 40
0.26000905
 40
0.5117635379
 40
0.7574752387
 40
1.0
 40
1.0
 40
1.0
 40
1.0
 10
-55.0782424448
 20
-80.0822488907
 30
0.0
 10
-56.089975343
 20
-80.2332508793
 30
0.0
 10
-58.1070469529
 20
-80.384918853
 30
0.0
 10
-61.0895320229
 20
-80.130327934
 30
0.0
 10
-63.920394304
 20
-79.3926405556
 30
0.0
 10
-65.6757874025
 20
-78.5836575328
 30
0.0
 10
-66.5031914504
 20
-78.1084644553
 30
0.0
  0
SPLINE
  5
409
100
AcDbEntity
  8
0
100
AcDbSpline
 62
7
  6
CONTINUOUS
 70
0
 71
3
 72
13
 73
9
 74
0
 42
0.0000001
 43
0.0000001
 44
0.0000000001
 40
0.0
 40
0.0
 40
0.0
 40
0.0
 40
0.2791166607
 40
0.5385537764
 40
0.6601973216
 40
0.7767473195
 40
0.8894240097
 40
1.0
 40
1.0
 40
1.0
 40
1.0
 10
-71.5404035402
 20
-50.4989490866
 30
0.0
 10
-72.3500011603
 20
-52.9514253325
 30
0.0
 10
-73.3371875199
 20
-57.9015397076
 30
0.0
 10
-72.8088675146
 20
-64.0939695995
 30
0.0
 10
-71.2568526312
 20
-68.4529848137
 30
0.0
 10
-69.6127884211
 20
-71.2765748508
 30
0.0
 10
-67.5062793245
 20
-73.6395952339
 30
0.0
 10
-65.8215400762
 20
-74.8673214067
 30
0.0
 10
-64.9343293925
 20
-75.3769296918
 30
0.0
  0
SPLINE
  5
40A
100
AcDbEntity
  8
0
100
AcDbSpline
 62
7
  6
CONTINUOUS
 70
0
 71
3
 72
9
 73
5
 74
0
 42
0.0000001
 43
0.0000001
 44
0.0000000001
 40
0.0
 40
0.0
 40
0.0
 40
0.0
 40
0.5122975942
 40
1.0
 40
1.0
 40
1.0
 40
1.0
 10
-59.712878142
 20
-80.1740535373
 30
0.0
 10
-59.6335004742
 20
-80.3795562469
 30
0.0
 10
-59.4182257869
 20
-80.7616277432
 30
0.0
 10
-59.0829445699
 20
-81.0477235719
 30
0.0
 10
-58.9010946739
 20
-81.1521967152
 30
0.0
  0
SPLINE
  5
40B
100
AcDbEntity
  8
0
100
AcDbSpline
 62
7
  6
CONTINUOUS
 70
0
 71
3
 72
16
 73
12
 74
0
 42
0.0000001
 43
0.0000001
 44
0.0000000001
 40
0.0
 40
0.0
 40
0.0
 40
0.0
 40
0.0528682603
 40
0.1062409214
 40
0.1605828795
 40
0.2162854109
 40
0.332619105
 40
0.4565749396
 40
0.5875980709
 40
0.7238571794
 40
1.0
 40
1.0
 40
1.0
 40
1.0
 10
-40.2809568908
 20
-32.4531149172
 30
0.0
 10
-40.9036743135
 20
-32.0954299122
 30
0.0
 10
-42.2118607731
 20
-31.4708560324
 30
0.0
 10
-44.3061286416
 20
-30.8343371424
 30
0.0
 10
-46.5090863818
 20
-30.5037461281
 30
0.0
 10
-49.5924755162
 20
-30.4749956254
 30
0.0
 10
-53.5848408995
 20
-31.2502357523
 30
0.0
 10
-58.215765669
 20
-33.3419032441
 30
0.0
 10
-62.5425758936
 20
-36.4892900095
 30
0.0
 10
-67.6285703669
 20
-41.8762488349
 30
0.0
 10
-70.3645660841
 20
-46.9370396161
 30
0.0
 10
-71.5404035402
 20
-50.4989490866
 30
0.0
  0
SPLINE
  5
40C
100
AcDbEntity
  8
0
100
AcDbSpline
 62
7
  6
CONTINUOUS
 70
0
 71
3
 72
16
 73
12
 74
0
 42
0.0000001
 43
0.0000001
 44
0.0000000001
 40
0.0
 40
0.0
 40
0.0
 40
0.0
 40
0.2761413639
 40
0.4124003608
 40
0.5434239584
 40
0.6673799658
 40
0.7837134275
 40
0.8394158911
 40
0.8937580349
 40
0.9471312025
 40
1.0
 40
1.0
 40
1.0
 40
1.0
 10
-73.9500275909
 20
-50.0641761316
 30
0.0
 10
-72.6245450625
 20
-46.0489538347
 30
0.0
 10
-69.5403496715
 20
-40.3440827886
 30
0.0
 10
-63.8070706856
 20
-34.2715116295
 30
0.0
 10
-58.9295755688
 20
-30.7235338781
 30
0.0
 10
-53.709258647
 20
-28.3656427377
 30
0.0
 10
-49.2087783276
 20
-27.4917251636
 30
0.0
 10
-45.7329595873
 20
-27.5241250756
 30
0.0
 10
-43.2496144491
 20
-27.8967849956
 30
0.0
 10
-40.888784885
 20
-28.6143187367
 30
0.0
 10
-39.4140842353
 20
-29.3183846219
 30
0.0
 10
-38.7121053341
 20
-29.7215983448
 30
0.0
  0
SPLINE
  5
40D
100
AcDbEntity
  8
0
100
AcDbSpline
 62
7
  6
CONTINUOUS
 70
0
 71
3
 72
13
 73
9
 74
0
 42
0.0000001
 43
0.0000001
 44
0.0000000001
 40
0.0
 40
0.0
 40
0.0
 40
0.0
 40
0.2791166607
 40
0.5385537764
 40
0.6601973216
 40
0.7767473195
 40
0.8894240097
 40
1.0
 40
1.0
 40
1.0
 40
1.0
 10
-33.6748827431
 20
-57.3310955224
 30
0.0
 10
-32.8652851231
 20
-54.8786192765
 30
0.0
 10
-31.8780987635
 20
-49.9285049014
 30
0.0
 10
-32.4064187687
 20
-43.7360750096
 30
0.0
 10
-33.9584336521
 20
-39.3770597953
 30
0.0
 10
-35.6024978623
 20
-36.5534697582
 30
0.0
 10
-37.7090069588
 20
-34.1904493751
 30
0.0
 10
-39.3937462072
 20
-32.9627232023
 30
0.0
 10
-40.2809568908
 20
-32.4531149172
 30
0.0
  0
SPLINE
  5
40E
100
AcDbEntity
  8
0
100
AcDbSpline
 62
7
  6
CONTINUOUS
 70
0
 71
3
 72
11
 73
7
 74
0
 42
0.0000001
 43
0.0000001
 44
0.0000000001
 40
0.0
 40
0.0
 40
0.0
 40
0.0
 40
0.2321946237
 40
0.4728557695
 40
0.7280510479
 40
1.0
 40
1.0
 40
1.0
 40
1.0
 10
-54.0971320782
 20
-83.9113615471
 30
0.0
 10
-54.249190565
 20
-83.8240036194
 30
0.0
 10
-54.5329357883
 20
-83.5966476482
 30
0.0
 10
-54.8465618001
 20
-83.1364636046
 30
0.0
 10
-55.0378651064
 20
-82.5828095283
 30
0.0
 10
-55.0778865635
 20
-82.1829994284
 30
0.0
 10
-55.0779213581
 20
-81.9776089454
 30
0.0
  0
SPLINE
  5
40F
100
AcDbEntity
  8
0
100
AcDbSpline
 62
7
  6
CONTINUOUS
 70
0
 71
3
 72
13
 73
9
 74
0
 42
0.0000001
 43
0.0000001
 44
0.0000000001
 40
0.0
 40
0.0
 40
0.0
 40
0.0
 40
0.1105764675
 40
0.2232524537
 40
0.339801615
 40
0.4614437197
 40
0.7208818404
 40
1.0
 40
1.0
 40
1.0
 40
1.0
 10
-66.5031914504
 20
-78.1084644553
 30
0.0
 10
-67.5033574207
 20
-77.5340510878
 30
0.0
 10
-69.4024811171
 20
-76.1500023172
 30
0.0
 10
-71.7770995379
 20
-73.4862671281
 30
0.0
 10
-73.6303766744
 20
-70.3033212056
 30
0.0
 10
-75.3799185234
 20
-65.3895361277
 30
0.0
 10
-75.9754862507
 20
-58.4089637581
 30
0.0
 10
-74.8626703026
 20
-52.8288020593
 30
0.0
 10
-73.9500275909
 20
-50.0641761316
 30
0.0
  0
SPLINE
  5
410
100
AcDbEntity
  8
0
100
AcDbSpline
 62
7
  6
CONTINUOUS
 70
0
 71
3
 72
16
 73
12
 74
0
 42
0.0000001
 43
0.0000001
 44
0.0000000001
 40
0.0
 40
0.0
 40
0.0
 40
0.0
 40
0.0528682603
 40
0.1062409214
 40
0.1605828795
 40
0.2162854109
 40
0.332619105
 40
0.4565749396
 40
0.5875980709
 40
0.7238571794
 40
1.0
 40
1.0
 40
1.0
 40
1.0
 10
-64.9343293925
 20
-75.3769296918
 30
0.0
 10
-64.3116119699
 20
-75.7346146969
 30
0.0
 10
-63.0034255103
 20
-76.3591885767
 30
0.0
 10
-60.9091576417
 20
-76.9957074666
 30
0.0
 10
-58.7061999016
 20
-77.3262984809
 30
0.0
 10
-55.6228107671
 20
-77.3550489837
 30
0.0
 10
-51.6304453839
 20
-76.5798088568
 30
0.0
 10
-46.9995206143
 20
-74.488141365
 30
0.0
 10
-42.6727103898
 20
-71.3407545995
 30
0.0
 10
-37.5867159164
 20
-65.9537957741
 30
0.0
 10
-34.8507201992
 20
-60.8930049929
 30
0.0
 10
-33.6748827431
 20
-57.3310955224
 30
0.0
  0
SPLINE
  5
411
100
AcDbEntity
  8
0
100
AcDbSpline
 62
7
  6
CONTINUOUS
 70
0
 71
3
 72
9
 73
5
 74
0
 42
0.0000001
 43
0.0000001
 44
0.0000000001
 40
0.0
 40
0.0
 40
0.0
 40
0.0
 40
0.2583645569
 40
1.0
 40
1.0
 40
1.0
 40
1.0
 10
-56.6186730536
 20
-82.4636652527
 30
0.0
 10
-56.659661393
 20
-82.5212297198
 30
0.0
 10
-56.8322307496
 20
-82.7338307302
 30
0.0
 10
-57.0511935444
 20
-82.9083844845
 30
0.0
 10
-57.2284082302
 20
-83.0070860112
 30
0.0
  0
SPLINE
  5
412
100
AcDbEntity
  8
0
100
AcDbSpline
 62
7
  6
CONTINUOUS
 70
0
 71
3
 72
9
 73
5
 74
0
 42
0.0000001
 43
0.0000001
 44
0.0000000001
 40
0.0
 40
0.0
 40
0.0
 40
0.0
 40
0.5149481372
 40
1.0
 40
1.0
 40
1.0
 40
1.0
 10
-57.2284082302
 20
-83.0070860112
 30
0.0
 10
-59.3174401813
 20
-84.1705830641
 30
0.0
 10
-63.6015253265
 20
-86.0528277287
 30
0.0
 10
-68.2057230286
 20
-86.9589041807
 30
0.0
 10
-70.452959443
 20
-87.1107856494
 30
0.0
  0
SPLINE
  5
413
100
AcDbEntity
  8
0
100
AcDbSpline
 62
7
  6
CONTINUOUS
 70
0
 71
3
 72
9
 73
5
 74
0
 42
0.0000001
 43
0.0000001
 44
0.0000000001
 40
0.0
 40
0.0
 40
0.0
 40
0.0
 40
0.2710878248
 40
1.0
 40
1.0
 40
1.0
 40
1.0
 10
-70.5524453145
 20
-87.2485117647
 30
0.0
 10
-70.612873086
 20
-87.3321657994
 30
0.0
 10
-70.8757895218
 20
-87.6105990461
 30
0.0
 10
-71.2511290422
 20
-87.7762955505
 30
0.0
 10
-71.5268783489
 20
-87.807229293
 30
0.0
  0
SPLINE
  5
414
100
AcDbEntity
  8
0
100
AcDbSpline
 62
7
  6
CONTINUOUS
 70
0
 71
3
 72
9
 73
5
 74
0
 42
0.0000001
 43
0.0000001
 44
0.0000000001
 40
0.0
 40
0.0
 40
0.0
 40
0.0
 40
0.5102082273
 40
1.0
 40
1.0
 40
1.0
 40
1.0
 10
-71.5268783489
 20
-87.807229293
 30
0.0
 10
-73.6641289825
 20
-88.0469771357
 30
0.0
 10
-77.9306854207
 20
-88.0231001991
 30
0.0
 10
-82.0455650724
 20
-86.852647255
 30
0.0
 10
-83.9298150649
 20
-86.0087546072
 30
0.0
  0
SPLINE
  5
415
100
AcDbEntity
  8
0
100
AcDbSpline
 62
7
  6
CONTINUOUS
 70
0
 71
3
 72
9
 73
5
 74
0
 42
0.0000001
 43
0.0000001
 44
0.0000000001
 40
0.0
 40
0.0
 40
0.0
 40
0.0
 40
0.5271315513
 40
1.0
 40
1.0
 40
1.0
 40
1.0
 10
-84.0598144641
 20
-86.1038373549
 30
0.0
 10
-84.2075496154
 20
-86.2118909316
 30
0.0
 10
-84.5509762849
 20
-86.3396850898
 30
0.0
 10
-84.9086566445
 20
-86.2912529364
 30
0.0
 10
-85.0617369197
 20
-86.2318776681
 30
0.0
  0
SPLINE
  5
416
100
AcDbEntity
  8
0
100
AcDbSpline
 62
7
  6
CONTINUOUS
 70
0
 71
3
 72
9
 73
5
 74
0
 42
0.0000001
 43
0.0000001
 44
0.0000000001
 40
0.0
 40
0.0
 40
0.0
 40
0.0
 40
0.5120378981
 40
1.0
 40
1.0
 40
1.0
 40
1.0
 10
-94.895546154
 20
-78.8429940198
 30
0.0
 10
-95.0280128483
 20
-78.8787299135
 30
0.0
 10
-95.3119067134
 20
-78.8713641946
 30
0.0
 10
-95.5514115247
 20
-78.7321192923
 30
0.0
 10
-95.6501687559
 20
-78.6464287505
 30
0.0
  0
SPLINE
  5
417
100
AcDbEntity
  8
0
100
AcDbSpline
 62
7
  6
CONTINUOUS
 70
0
 71
3
 72
9
 73
5
 74
0
 42
0.0000001
 43
0.0000001
 44
0.0000000001
 40
0.0
 40
0.0
 40
0.0
 40
0.0
 40
0.4951918423
 40
1.0
 40
1.0
 40
1.0
 40
1.0
 10
-101.4099984604
 20
-66.5713793375
 30
0.0
 10
-101.5010449867
 20
-66.5539181414
 30
0.0
 10
-101.6767000287
 20
-66.4691851
 30
0.0
 10
-101.8032257804
 20
-66.3265562572
 30
0.0
 10
-101.8560293118
 20
-66.2481777797
 30
0.0
  0
SPLINE
  5
418
100
AcDbEntity
  8
0
100
AcDbSpline
 62
7
  6
CONTINUOUS
 70
0
 71
3
 72
9
 73
5
 74
0
 42
0.0000001
 43
0.0000001
 44
0.0000000001
 40
0.0
 40
0.0
 40
0.0
 40
0.0
 40
0.2423732082
 40
1.0
 40
1.0
 40
1.0
 40
1.0
 10
-102.6114050736
 20
-51.1572354009
 30
0.0
 10
-102.6345445295
 20
-51.13769647
 30
0.0
 10
-102.722972331
 20
-51.0486635771
 30
0.0
 10
-102.7827629604
 20
-50.9346011547
 30
0.0
 10
-102.8151698017
 20
-50.8456525794
 30
0.0
  0
SPLINE
  5
419
100
AcDbEntity
  8
0
100
AcDbSpline
 62
7
  6
CONTINUOUS
 70
0
 71
3
 72
9
 73
5
 74
0
 42
0.0000001
 43
0.0000001
 44
0.0000000001
 40
0.0
 40
0.0
 40
0.0
 40
0.0
 40
0.2433266609
 40
1.0
 40
1.0
 40
1.0
 40
1.0
 10
-98.3168627272
 20
-34.9472258949
 30
0.0
 10
-98.3236649421
 20
-34.9307688936
 30
0.0
 10
-98.348871305
 20
-34.8620018623
 30
0.0
 10
-98.3639396581
 20
-34.7897646176
 30
0.0
 10
-98.3709545652
 20
-34.7348350724
 30
0.0
  0
SPLINE
  5
41A
100
AcDbEntity
  8
0
100
AcDbSpline
 62
7
  6
CONTINUOUS
 70
0
 71
3
 72
9
 73
5
 74
0
 42
0.0000001
 43
0.0000001
 44
0.0000000001
 40
0.0
 40
0.0
 40
0.0
 40
0.0
 40
0.2564106612
 40
1.0
 40
1.0
 40
1.0
 40
1.0
 10
-48.962322976
 20
-5.7552908072
 30
0.0
 10
-48.9449942474
 20
-5.7426165648
 30
0.0
 10
-48.8758042212
 20
-5.695412597
 30
0.0
 10
-48.8007150262
 20
-5.6569476634
 30
0.0
 10
-48.7429842846
 20
-5.6336347318
 30
0.0
  0
SPLINE
  5
41B
100
AcDbEntity
  8
0
100
AcDbSpline
 62
7
  6
CONTINUOUS
 70
0
 71
3
 72
10
 73
6
 74
0
 42
0.0000001
 43
0.0000001
 44
0.0000000001
 40
0.0
 40
0.0
 40
0.0
 40
0.0
 40
0.2629578201
 40
0.5114736401
 40
1.0
 40
1.0
 40
1.0
 40
1.0
 10
-38.1261706821
 20
-13.0160206295
 30
0.0
 10
-38.0431495123
 20
-12.9936237493
 30
0.0
 10
-37.8722466099
 20
-12.9793853753
 30
0.0
 10
-37.5511269101
 20
-13.0595301697
 30
0.0
 10
-37.3507414029
 20
-13.2158710948
 30
0.0
 10
-37.2490456407
 20
-13.3390725163
 30
0.0
  0
SPLINE
  5
41C
100
AcDbEntity
  8
0
100
AcDbSpline
 62
7
  6
CONTINUOUS
 70
0
 71
3
 72
9
 73
5
 74
0
 42
0.0000001
 43
0.0000001
 44
0.0000000001
 40
0.0
 40
0.0
 40
0.0
 40
0.0
 40
0.4858963536
 40
1.0
 40
1.0
 40
1.0
 40
1.0
 10
-37.2490456407
 20
-13.3390725163
 30
0.0
 10
-35.8847287417
 20
-14.9919025703
 30
0.0
 10
-33.5419193923
 20
-18.7958267078
 30
0.0
 10
-32.1980017157
 20
-23.0415115775
 30
0.0
 10
-31.7421593712
 20
-25.2628142053
 30
0.0
  0
SPLINE
  5
41D
100
AcDbEntity
  8
0
100
AcDbSpline
 62
7
  6
CONTINUOUS
 70
0
 71
3
 72
10
 73
6
 74
0
 42
0.0000001
 43
0.0000001
 44
0.0000000001
 40
0.0
 40
0.0
 40
0.0
 40
0.0
 40
0.2408316747
 40
0.4839278389
 40
1.0
 40
1.0
 40
1.0
 40
1.0
 10
-31.6121389798
 20
-25.2877488245
 30
0.0
 10
-31.5335636033
 20
-25.3028182633
 30
0.0
 10
-31.3814735292
 20
-25.3695979978
 30
0.0
 10
-31.1396649913
 20
-25.6033398233
 30
0.0
 10
-31.0348859031
 20
-25.8445571356
 30
0.0
 10
-30.9938016716
 20
-26.0110075412
 30
0.0
  0
SPLINE
  5
41E
100
AcDbEntity
  8
0
100
AcDbSpline
 62
7
  6
CONTINUOUS
 70
0
 71
3
 72
9
 73
5
 74
0
 42
0.0000001
 43
0.0000001
 44
0.0000000001
 40
0.0
 40
0.0
 40
0.0
 40
0.0
 40
0.4865505972
 40
1.0
 40
1.0
 40
1.0
 40
1.0
 10
-30.9938016716
 20
-26.0110075412
 30
0.0
 10
-30.4230318868
 20
-28.3234920983
 30
0.0
 10
-29.7896331828
 20
-33.2192509673
 30
0.0
 10
-30.1232844392
 20
-38.1342583822
 30
0.0
 10
-30.510257027
 20
-40.6178556989
 30
0.0
  0
SPLINE
  5
41F
100
AcDbEntity
  8
0
100
AcDbSpline
 62
7
  6
CONTINUOUS
 70
0
 71
3
 72
9
 73
5
 74
0
 42
0.0000001
 43
0.0000001
 44
0.0000000001
 40
0.0
 40
0.0
 40
0.0
 40
0.0
 40
0.468499415
 40
1.0
 40
1.0
 40
1.0
 40
1.0
 10
-30.4107323666
 20
-40.7018927611
 30
0.0
 10
-30.2822456448
 20
-40.8103868063
 30
0.0
 10
-30.1240477108
 20
-41.1651257108
 30
0.0
 10
-30.1218665515
 20
-41.5268073251
 30
0.0
 10
-30.1450722656
 20
-41.7161707329
 30
0.0
  0
SPLINE
  5
420
100
AcDbEntity
  8
0
100
AcDbSpline
 62
7
  6
CONTINUOUS
 70
0
 71
3
 72
9
 73
5
 74
0
 42
0.0000001
 43
0.0000001
 44
0.0000000001
 40
0.0
 40
0.0
 40
0.0
 40
0.0
 40
0.4955764308
 40
1.0
 40
1.0
 40
1.0
 40
1.0
 10
-45.0071769537
 20
-7.0375299437
 30
0.0
 10
-43.706137295
 20
-7.7846580048
 30
0.0
 10
-41.2330927629
 20
-9.5737740484
 30
0.0
 10
-39.181429662
 20
-11.8308319656
 30
0.0
 10
-38.2673129841
 20
-13.0540980343
 30
0.0
  0
SPLINE
  5
421
100
AcDbEntity
  8
0
100
AcDbSpline
 62
7
  6
CONTINUOUS
 70
0
 71
3
 72
9
 73
5
 74
0
 42
0.0000001
 43
0.0000001
 44
0.0000000001
 40
0.0
 40
0.0
 40
0.0
 40
0.0
 40
0.5126714055
 40
1.0
 40
1.0
 40
1.0
 40
1.0
 10
-67.3650963851
 20
-8.68443751
 30
0.0
 10
-65.2046274247
 20
-8.101604161
 30
0.0
 10
-60.8580056202
 20
-7.3911847625
 30
0.0
 10
-56.4541792142
 20
-7.7180750526
 30
0.0
 10
-54.3715563402
 20
-8.1507254949
 30
0.0
  0
SPLINE
  5
422
100
AcDbEntity
  8
0
100
AcDbSpline
 62
7
  6
CONTINUOUS
 70
0
 71
3
 72
9
 73
5
 74
0
 42
0.0000001
 43
0.0000001
 44
0.0000000001
 40
0.0
 40
0.0
 40
0.0
 40
0.0
 40
0.50263738
 40
1.0
 40
1.0
 40
1.0
 40
1.0
 10
-54.3715563402
 20
-8.1507254949
 30
0.0
 10
-53.2645536552
 20
-8.3806976167
 30
0.0
 10
-51.0909409484
 20
-8.9918578285
 30
0.0
 10
-49.0275451382
 20
-9.9098385402
 30
0.0
 10
-48.0412844074
 20
-10.4379885231
 30
0.0
  0
SPLINE
  5
423
100
AcDbEntity
  8
0
100
AcDbSpline
 62
7
  6
CONTINUOUS
 70
0
 71
3
 72
9
 73
5
 74
0
 42
0.0000001
 43
0.0000001
 44
0.0000000001
 40
0.0
 40
0.0
 40
0.0
 40
0.0
 40
0.2551636336
 40
1.0
 40
1.0
 40
1.0
 40
1.0
 10
-94.7797636719
 20
-44.336239123
 30
0.0
 10
-94.9512817314
 20
-45.0697626852
 30
0.0
 10
-95.5453803685
 20
-47.9618737896
 30
0.0
 10
-95.8207689949
 20
-50.9218681959
 30
0.0
 10
-95.8203964778
 20
-53.1208192121
 30
0.0
  0
SPLINE
  5
424
100
AcDbEntity
  8
0
100
AcDbSpline
 62
7
  6
CONTINUOUS
 70
0
 71
3
 72
9
 73
5
 74
0
 42
0.0000001
 43
0.0000001
 44
0.0000000001
 40
0.0
 40
0.0
 40
0.0
 40
0.0
 40
0.2570449088
 40
1.0
 40
1.0
 40
1.0
 40
1.0
 10
-95.8203964778
 20
-53.1208192121
 30
0.0
 10
-95.8202759836
 20
-53.8320905847
 30
0.0
 10
-95.7365598045
 20
-56.5980819675
 30
0.0
 10
-95.3090223925
 20
-59.3573788391
 30
0.0
 10
-94.7768825864
 20
-61.3431525351
 30
0.0
  0
SPLINE
  5
425
100
AcDbEntity
  8
0
100
AcDbSpline
 62
7
  6
CONTINUOUS
 70
0
 71
3
 72
12
 73
8
 74
0
 42
0.0000001
 43
0.0000001
 44
0.0000000001
 40
0.0
 40
0.0
 40
0.0
 40
0.0
 40
0.2581246524
 40
0.517420616
 40
0.6443458831
 40
0.7677133518
 40
1.0
 40
1.0
 40
1.0
 40
1.0
 10
-98.9132741706
 20
-43.234065767
 30
0.0
 10
-97.8775818317
 20
-39.1672080155
 30
0.0
 10
-94.7450731829
 20
-31.2552951096
 30
0.0
 10
-88.6396062794
 20
-22.6133231634
 30
0.0
 10
-82.6696522859
 20
-16.8355647114
 30
0.0
 10
-76.3620556058
 20
-12.1497188022
 30
0.0
 10
-71.0113156433
 20
-9.6681351827
 30
0.0
 10
-67.3650963851
 20
-8.68443751
 30
0.0
  0
SPLINE
  5
426
100
AcDbEntity
  8
0
100
AcDbSpline
 62
7
  6
CONTINUOUS
 70
0
 71
3
 72
9
 73
5
 74
0
 42
0.0000001
 43
0.0000001
 44
0.0000000001
 40
0.0
 40
0.0
 40
0.0
 40
0.0
 40
0.497335219
 40
1.0
 40
1.0
 40
1.0
 40
1.0
 10
-87.8606013495
 20
-79.7671239006
 30
0.0
 10
-88.8192324498
 20
-79.1779822723
 30
0.0
 10
-90.6620382289
 20
-77.8497962307
 30
0.0
 10
-92.292781622
 20
-76.2691314917
 30
0.0
 10
-93.0522767841
 20
-75.4226630848
 30
0.0
  0
SPLINE
  5
427
100
AcDbEntity
  8
0
100
AcDbSpline
 62
7
  6
CONTINUOUS
 70
0
 71
3
 72
9
 73
5
 74
0
 42
0.0000001
 43
0.0000001
 44
0.0000000001
 40
0.0
 40
0.0
 40
0.0
 40
0.0
 40
0.4882830219
 40
1.0
 40
1.0
 40
1.0
 40
1.0
 10
-93.0522767841
 20
-75.4226630848
 30
0.0
 10
-94.3809175184
 20
-73.9418736581
 30
0.0
 10
-96.7364014629
 20
-70.5660204037
 30
0.0
 10
-98.2863520737
 20
-66.7622277777
 30
0.0
 10
-98.8832139388
 20
-64.7645272673
 30
0.0
  0
SPLINE
  5
428
100
AcDbEntity
  8
0
100
AcDbSpline
 62
7
  6
CONTINUOUS
 70
0
 71
3
 72
10
 73
6
 74
0
 42
0.0000001
 43
0.0000001
 44
0.0000000001
 40
0.0
 40
0.0
 40
0.0
 40
0.0
 40
0.4938529532
 40
0.7447440426
 40
1.0
 40
1.0
 40
1.0
 40
1.0
 10
-98.4815437174
 20
-44.2380030014
 30
0.0
 10
-98.6422914402
 20
-44.1436698234
 30
0.0
 10
-98.8511826674
 20
-43.9231321838
 30
0.0
 10
-98.9536393191
 20
-43.554214366
 30
0.0
 10
-98.9420821355
 20
-43.3592534602
 30
0.0
 10
-98.9208772706
 20
-43.2652811637
 30
0.0
  0
SPLINE
  5
429
100
AcDbEntity
  8
0
100
AcDbSpline
 62
7
  6
CONTINUOUS
 70
0
 71
3
 72
9
 73
5
 74
0
 42
0.0000001
 43
0.0000001
 44
0.0000000001
 40
0.0
 40
0.0
 40
0.0
 40
0.0
 40
0.509970546
 40
1.0
 40
1.0
 40
1.0
 40
1.0
 10
-99.261953165
 20
-65.3816336561
 30
0.0
 10
-99.1910672708
 20
-65.1564986982
 30
0.0
 10
-98.9276506521
 20
-64.7554175957
 30
0.0
 10
-98.5613059397
 20
-64.4629311424
 30
0.0
 10
-98.3641293013
 20
-64.3508585028
 30
0.0
  0
SPLINE
  5
42A
100
AcDbEntity
  8
0
100
AcDbSpline
 62
7
  6
CONTINUOUS
 70
0
 71
3
 72
8
 73
4
 74
0
 42
0.0000001
 43
0.0000001
 44
0.0000000001
 40
0.0
 40
0.0
 40
0.0
 40
0.0
 40
1.0
 40
1.0
 40
1.0
 40
1.0
 10
-98.9132315378
 20
-43.2340809118
 30
0.0
 10
-98.9159527988
 20
-43.2444079513
 30
0.0
 10
-98.9187178695
 20
-43.2547510273
 30
0.0
 10
-98.9205545343
 20
-43.2652714678
 30
0.0
  0
SPLINE
  5
42B
100
AcDbEntity
  8
0
100
AcDbSpline
 62
7
  6
CONTINUOUS
 70
0
 71
3
 72
9
 73
5
 74
0
 42
0.0000001
 43
0.0000001
 44
0.0000000001
 40
0.0
 40
0.0
 40
0.0
 40
0.0
 40
0.2451436103
 40
1.0
 40
1.0
 40
1.0
 40
1.0
 10
-108.5346002483
 20
-49.138230942
 30
0.0
 10
-108.5075749337
 20
-47.9971482227
 30
0.0
 10
-108.2127306455
 20
-43.347771313
 30
0.0
 10
-107.2026296309
 20
-38.750542985
 30
0.0
 10
-106.1015352186
 20
-35.4128209608
 30
0.0
  0
SPLINE
  5
42C
100
AcDbEntity
  8
0
100
AcDbSpline
 62
7
  6
CONTINUOUS
 70
0
 71
3
 72
9
 73
5
 74
0
 42
0.0000001
 43
0.0000001
 44
0.0000000001
 40
0.0
 40
0.0
 40
0.0
 40
0.0
 40
0.2542968676
 40
1.0
 40
1.0
 40
1.0
 40
1.0
 10
-97.5438632428
 20
-19.4360361153
 30
0.0
 10
-96.7990596685
 20
-18.4836421545
 30
0.0
 10
-93.7421870765
 20
-14.8412317388
 30
0.0
 10
-90.1701478738
 20
-11.6239250414
 30
0.0
 10
-87.2764002871
 20
-9.5754658861
 30
0.0
  0
SPLINE
  5
42D
100
AcDbEntity
  8
0
100
AcDbSpline
 62
7
  6
CONTINUOUS
 70
0
 71
3
 72
9
 73
5
 74
0
 42
0.0000001
 43
0.0000001
 44
0.0000000001
 40
0.0
 40
0.0
 40
0.0
 40
0.0
 40
0.2526341779
 40
1.0
 40
1.0
 40
1.0
 40
1.0
 10
-85.8821010808
 20
-8.6273858481
 30
0.0
 10
-85.5075537697
 20
-8.3829906801
 30
0.0
 10
-84.0103259994
 20
-7.4383157237
 30
0.0
 10
-82.4543906109
 20
-6.5862274839
 30
0.0
 10
-81.2639124319
 20
-6.0090019921
 30
0.0
  0
SPLINE
  5
42E
100
AcDbEntity
  8
0
100
AcDbSpline
 62
7
  6
CONTINUOUS
 70
0
 71
3
 72
10
 73
6
 74
0
 42
0.0000001
 43
0.0000001
 44
0.0000000001
 40
0.0
 40
0.0
 40
0.0
 40
0.0
 40
0.2583448776
 40
0.6364589644
 40
1.0
 40
1.0
 40
1.0
 40
1.0
 10
-96.0826746414
 20
-79.1706882363
 30
0.0
 10
-96.9642191526
 20
-78.4037054357
 30
0.0
 10
-99.05471668
 20
-76.4183626779
 30
0.0
 10
-101.9501632861
 20
-72.9223466976
 30
0.0
 10
-103.6542638673
 20
-70.0081811047
 30
0.0
 10
-104.339114708
 20
-68.513289912
 30
0.0
  0
SPLINE
  5
42F
100
AcDbEntity
  8
0
100
AcDbSpline
 62
7
  6
CONTINUOUS
 70
0
 71
3
 72
9
 73
5
 74
0
 42
0.0000001
 43
0.0000001
 44
0.0000000001
 40
0.0
 40
0.0
 40
0.0
 40
0.0
 40
0.2547667136
 40
1.0
 40
1.0
 40
1.0
 40
1.0
 10
-61.4814046488
 20
-80.0303289474
 30
0.0
 10
-61.9625870533
 20
-80.2571341938
 30
0.0
 10
-63.8696428488
 20
-81.1076763844
 30
0.0
 10
-65.8501026702
 20
-81.7957850947
 30
0.0
 10
-67.352444315
 20
-82.2010996567
 30
0.0
  0
SPLINE
  5
430
100
AcDbEntity
  8
0
100
AcDbSpline
 62
7
  6
CONTINUOUS
 70
0
 71
3
 72
11
 73
7
 74
0
 42
0.0000001
 43
0.0000001
 44
0.0000000001
 40
0.0
 40
0.0
 40
0.0
 40
0.0
 40
0.261585707
 40
0.5138283337
 40
0.7589606601
 40
1.0
 40
1.0
 40
1.0
 40
1.0
 10
-43.3833459228
 20
-22.0883106903
 30
0.0
 10
-43.864951444
 20
-20.6299965781
 30
0.0
 10
-45.0289467427
 20
-17.8307152087
 30
0.0
 10
-47.4074072586
 20
-14.0373501171
 30
0.0
 10
-50.3383120868
 20
-10.811612779
 30
0.0
 10
-52.6323930516
 20
-9.0798674967
 30
0.0
 10
-53.8377759521
 20
-8.338443934
 30
0.0
  0
SPLINE
  5
431
100
AcDbEntity
  8
0
100
AcDbSpline
 62
7
  6
CONTINUOUS
 70
0
 71
3
 72
8
 73
4
 74
0
 42
0.0000001
 43
0.0000001
 44
0.0000000001
 40
0.0
 40
0.0
 40
0.0
 40
0.0
 40
1.0
 40
1.0
 40
1.0
 40
1.0
 10
-35.8073355814
 20
-26.21110519
 30
0.0
 10
-35.8572885669
 20
-26.1839312758
 30
0.0
 10
-35.9065949714
 20
-26.1555756577
 30
0.0
 10
-35.9566530029
 20
-26.1285957418
 30
0.0
  0
SPLINE
  5
432
100
AcDbEntity
  8
0
100
AcDbSpline
 62
7
  6
CONTINUOUS
 70
0
 71
3
 72
14
 73
10
 74
0
 42
0.0000001
 43
0.0000001
 44
0.0000000001
 40
0.0
 40
0.0
 40
0.0
 40
0.0
 40
0.1460825776
 40
0.2707733747
 40
0.3776055245
 40
0.4767291336
 40
0.6969662848
 40
0.8377361261
 40
1.0
 40
1.0
 40
1.0
 40
1.0
 10
-35.9566530029
 20
-26.1285957418
 30
0.0
 10
-36.0167464375
 20
-26.096991387
 30
0.0
 10
-36.1320376666
 20
-26.0450949625
 30
0.0
 10
-36.3049263341
 20
-26.005745831
 30
0.0
 10
-36.4612713834
 20
-26.0187912556
 30
0.0
 10
-36.6423453919
 20
-26.112513308
 30
0.0
 10
-36.7476145755
 20
-26.3188945249
 30
0.0
 10
-36.7798357987
 20
-26.5591144603
 30
0.0
 10
-36.7787767393
 20
-26.7007323881
 30
0.0
 10
-36.7747220039
 20
-26.7760415738
 30
0.0
  0
SPLINE
  5
433
100
AcDbEntity
  8
0
100
AcDbSpline
 62
7
  6
CONTINUOUS
 70
0
 71
3
 72
9
 73
5
 74
0
 42
0.0000001
 43
0.0000001
 44
0.0000000001
 40
0.0
 40
0.0
 40
0.0
 40
0.0
 40
0.510511891
 40
1.0
 40
1.0
 40
1.0
 40
1.0
 10
-76.5923242266
 20
-9.7563772152
 30
0.0
 10
-76.5256246665
 20
-9.5588563762
 30
0.0
 10
-76.2930375757
 20
-9.2066293109
 30
0.0
 10
-75.968362939
 20
-8.9493061874
 30
0.0
 10
-75.7937292099
 20
-8.8520421508
 30
0.0
  0
SPLINE
  5
434
100
AcDbEntity
  8
0
100
AcDbSpline
 62
7
  6
CONTINUOUS
 70
0
 71
3
 72
9
 73
5
 74
0
 42
0.0000001
 43
0.0000001
 44
0.0000000001
 40
0.0
 40
0.0
 40
0.0
 40
0.0
 40
0.5149481372
 40
1.0
 40
1.0
 40
1.0
 40
1.0
 10
-75.7937292099
 20
-8.8520421508
 30
0.0
 10
-73.7046972589
 20
-7.6885450979
 30
0.0
 10
-69.4206121136
 20
-5.8063004333
 30
0.0
 10
-64.8164144115
 20
-4.9002239813
 30
0.0
 10
-62.5691779971
 20
-4.7483425126
 30
0.0
  0
SPLINE
  5
435
100
AcDbEntity
  8
0
100
AcDbSpline
 62
7
  6
CONTINUOUS
 70
0
 71
3
 72
8
 73
4
 74
0
 42
0.0000001
 43
0.0000001
 44
0.0000000001
 40
0.0
 40
0.0
 40
0.0
 40
0.0
 40
1.0
 40
1.0
 40
1.0
 40
1.0
 10
-99.2835377563
 20
-65.8470076214
 30
0.0
 10
-99.2002326801
 20
-65.5832259742
 30
0.0
 10
-99.1183150758
 20
-65.3190044652
 30
0.0
 10
-99.0340747309
 20
-65.0555200114
 30
0.0
  0
SPLINE
  5
436
100
AcDbEntity
  8
0
100
AcDbSpline
 62
7
  6
CONTINUOUS
 70
0
 71
3
 72
9
 73
5
 74
0
 42
0.0000001
 43
0.0000001
 44
0.0000000001
 40
0.0
 40
0.0
 40
0.0
 40
0.0
 40
0.2360770273
 40
1.0
 40
1.0
 40
1.0
 40
1.0
 10
-99.2835370142
 20
-65.8470043103
 30
0.0
 10
-99.2939657216
 20
-65.8115204155
 30
0.0
 10
-99.3233751954
 20
-65.6567651625
 30
0.0
 10
-99.2978956815
 20
-65.4957877772
 30
0.0
 10
-99.261953165
 20
-65.3816336561
 30
0.0
  0
SPLINE
  5
437
100
AcDbEntity
  8
0
100
AcDbSpline
 62
7
  6
CONTINUOUS
 70
0
 71
3
 72
9
 73
5
 74
0
 42
0.0000001
 43
0.0000001
 44
0.0000000001
 40
0.0
 40
0.0
 40
0.0
 40
0.0
 40
0.4978047498
 40
1.0
 40
1.0
 40
1.0
 40
1.0
 10
-88.0149134701
 20
-84.8216252176
 30
0.0
 10
-88.9166551973
 20
-84.3037988621
 30
0.0
 10
-90.6547271317
 20
-83.1303196854
 30
0.0
 10
-92.2058002085
 20
-81.7194499176
 30
0.0
 10
-92.9309704342
 20
-80.961447442
 30
0.0
  0
SPLINE
  5
438
100
AcDbEntity
  8
0
100
AcDbSpline
 62
7
  6
CONTINUOUS
 70
0
 71
3
 72
9
 73
5
 74
0
 42
0.0000001
 43
0.0000001
 44
0.0000000001
 40
0.0
 40
0.0
 40
0.0
 40
0.0
 40
0.2710878248
 40
1.0
 40
1.0
 40
1.0
 40
1.0
 10
-62.4696921257
 20
-4.6106163974
 30
0.0
 10
-62.4092643542
 20
-4.5269623627
 30
0.0
 10
-62.1463479185
 20
-4.248529116
 30
0.0
 10
-61.7710083982
 20
-4.0828326115
 30
0.0
 10
-61.4952590916
 20
-4.0518988691
 30
0.0
  0
SPLINE
  5
439
100
AcDbEntity
  8
0
100
AcDbSpline
 62
7
  6
CONTINUOUS
 70
0
 71
3
 72
9
 73
5
 74
0
 42
0.0000001
 43
0.0000001
 44
0.0000000001
 40
0.0
 40
0.0
 40
0.0
 40
0.0
 40
0.5219687446
 40
1.0
 40
1.0
 40
1.0
 40
1.0
 10
-108.3140950756
 20
-50.8945371008
 30
0.0
 10
-108.3148080054
 20
-50.9018514159
 30
0.0
 10
-108.3133080779
 20
-50.9187006818
 30
0.0
 10
-108.2970054595
 20
-50.9230516734
 30
0.0
 10
-108.2902750934
 20
-50.9230487833
 30
0.0
  0
SPLINE
  5
43A
100
AcDbEntity
  8
0
100
AcDbSpline
 62
7
  6
CONTINUOUS
 70
0
 71
3
 72
9
 73
5
 74
0
 42
0.0000001
 43
0.0000001
 44
0.0000000001
 40
0.0
 40
0.0
 40
0.0
 40
0.0
 40
0.5102082273
 40
1.0
 40
1.0
 40
1.0
 40
1.0
 10
-61.4952590916
 20
-4.0518988691
 30
0.0
 10
-59.3580084579
 20
-3.8121510264
 30
0.0
 10
-55.0914520196
 20
-3.8360279629
 30
0.0
 10
-50.9765723678
 20
-5.006480907
 30
0.0
 10
-49.0923223752
 20
-5.8503735548
 30
0.0
  0
LINE
  5
43B
100
AcDbEntity
  8
0
100
AcDbLine
 62
7
  6
CONTINUOUS
 10
-98.6239711517
 20
-44.0638051233
 11
-98.7466115245
 21
-43.990619787
  0
SPLINE
  5
43C
100
AcDbEntity
  8
0
100
AcDbSpline
 62
7
  6
CONTINUOUS
 70
0
 71
3
 72
8
 73
4
 74
0
 42
0.0000001
 43
0.0000001
 44
0.0000000001
 40
0.0
 40
0.0
 40
0.0
 40
0.0
 40
1.0
 40
1.0
 40
1.0
 40
1.0
 10
-98.1016172536
 20
-44.3722001084
 30
0.0
 10
-98.2343239568
 20
-44.3515082965
 30
0.0
 10
-98.3657066151
 20
-44.3059808352
 30
0.0
 10
-98.4815437174
 20
-44.2380030014
 30
0.0
  0
SPLINE
  5
43D
100
AcDbEntity
  8
0
100
AcDbSpline
 62
7
  6
CONTINUOUS
 70
0
 71
3
 72
10
 73
6
 74
0
 42
0.0000001
 43
0.0000001
 44
0.0000000001
 40
0.0
 40
0.0
 40
0.0
 40
0.0
 40
0.5760426935
 40
0.837000184
 40
1.0
 40
1.0
 40
1.0
 40
1.0
 10
-108.1100620617
 20
-49.1767478264
 30
0.0
 10
-108.1058609057
 20
-49.146678915
 30
0.0
 10
-108.0960077084
 20
-49.0985586962
 30
0.0
 10
-108.0903841806
 20
-49.0575123031
 30
0.0
 10
-108.0721565015
 20
-49.0234217578
 30
0.0
 10
-108.0655894912
 20
-49.0289608183
 30
0.0
  0
SPLINE
  5
43E
100
AcDbEntity
  8
0
100
AcDbSpline
 62
7
  6
CONTINUOUS
 70
0
 71
3
 72
15
 73
11
 74
0
 42
0.0000001
 43
0.0000001
 44
0.0000000001
 40
0.0
 40
0.0
 40
0.0
 40
0.0
 40
0.1311959516
 40
0.2571142581
 40
0.3791071265
 40
0.4990528799
 40
0.6191411482
 40
0.7415398111
 40
0.8680685804
 40
1.0
 40
1.0
 40
1.0
 40
1.0
 10
-33.7386004259
 20
-26.0121238517
 30
0.0
 10
-34.2554064443
 20
-24.2536856335
 30
0.0
 10
-35.5540467409
 20
-20.881708476
 30
0.0
 10
-38.3420389707
 20
-16.3424497022
 30
0.0
 10
-41.8635348117
 20
-12.5505700346
 30
0.0
 10
-46.0284198298
 20
-9.6155478213
 30
0.0
 10
-50.7227255981
 20
-7.6204497266
 30
0.0
 10
-55.8156007872
 20
-6.6176339992
 30
0.0
 10
-61.1666671324
 20
-6.6257361055
 30
0.0
 10
-64.7380647712
 20
-7.2855247569
 30
0.0
 10
-66.517533956
 20
-7.7655777186
 30
0.0
  0
SPLINE
  5
43F
100
AcDbEntity
  8
0
100
AcDbSpline
 62
7
  6
CONTINUOUS
 70
0
 71
3
 72
12
 73
8
 74
0
 42
0.0000001
 43
0.0000001
 44
0.0000000001
 40
0.0
 40
0.0
 40
0.0
 40
0.0
 40
0.2332849218
 40
0.3567641915
 40
0.4835858438
 40
0.7423324451
 40
1.0
 40
1.0
 40
1.0
 40
1.0
 10
-67.5590781507
 20
-8.0642408224
 30
0.0
 10
-71.2111858198
 20
-9.1734567908
 30
0.0
 10
-76.5452528539
 20
-11.7953016489
 30
0.0
 10
-82.8376214898
 20
-16.6103216395
 30
0.0
 10
-88.7831850374
 20
-22.4731221926
 30
0.0
 10
-94.8883539722
 20
-31.1664194457
 30
0.0
 10
-98.0708048655
 20
-39.0914646921
 30
0.0
 10
-99.1502827518
 20
-43.1666864741
 30
0.0
  0
SPLINE
  5
440
100
AcDbEntity
  8
0
100
AcDbSpline
 62
7
  6
CONTINUOUS
 70
0
 71
3
 72
12
 73
8
 74
0
 42
0.0000001
 43
0.0000001
 44
0.0000000001
 40
0.0
 40
0.0
 40
0.0
 40
0.0
 40
0.2721502583
 40
0.5403514428
 40
0.7990022211
 40
0.9171911712
 40
1.0
 40
1.0
 40
1.0
 40
1.0
 10
-104.9656121142
 20
-33.9416417352
 30
0.0
 10
-104.9562893767
 20
-33.9222236511
 30
0.0
 10
-104.9372788385
 20
-33.8837154597
 30
0.0
 10
-104.9083964934
 20
-33.8283093915
 30
0.0
 10
-104.8804714368
 20
-33.7828243473
 30
0.0
 10
-104.8617703314
 20
-33.7563278151
 30
0.0
 10
-104.8443236616
 20
-33.7423145188
 30
0.0
 10
-104.8389198506
 20
-33.7460233611
 30
0.0
  0
SPLINE
  5
441
100
AcDbEntity
  8
0
100
AcDbSpline
 62
7
  6
CONTINUOUS
 70
0
 71
3
 72
11
 73
7
 74
0
 42
0.0000001
 43
0.0000001
 44
0.0000000001
 40
0.0
 40
0.0
 40
0.0
 40
0.0
 40
0.2636595177
 40
0.5160609459
 40
0.7601228834
 40
1.0
 40
1.0
 40
1.0
 40
1.0
 10
-67.352444315
 20
-82.2010996567
 30
0.0
 10
-69.1519874214
 20
-82.6865413093
 30
0.0
 10
-72.7652707081
 20
-83.3391653526
 30
0.0
 10
-78.1732740262
 20
-83.2704212232
 30
0.0
 10
-83.2905257744
 20
-82.1257990528
 30
0.0
 10
-86.4158771139
 20
-80.6550016133
 30
0.0
 10
-87.8606013495
 20
-79.7671239006
 30
0.0
  0
SPLINE
  5
442
100
AcDbEntity
  8
0
100
AcDbSpline
 62
7
  6
CONTINUOUS
 70
0
 71
3
 72
9
 73
5
 74
0
 42
0.0000001
 43
0.0000001
 44
0.0000000001
 40
0.0
 40
0.0
 40
0.0
 40
0.0
 40
0.7925151919
 40
1.0
 40
1.0
 40
1.0
 40
1.0
 10
-72.3512842383
 20
-3.1909604492
 30
0.0
 10
-72.3369955468
 20
-3.1898112696
 30
0.0
 10
-72.3189576829
 20
-3.1885266892
 30
0.0
 10
-72.3007543717
 20
-3.1901578999
 30
0.0
 10
-72.2971619217
 20
-3.1912436419
 30
0.0
  0
SPLINE
  5
443
100
AcDbEntity
  8
0
100
AcDbSpline
 62
7
  6
CONTINUOUS
 70
0
 71
3
 72
11
 73
7
 74
0
 42
0.0000001
 43
0.0000001
 44
0.0000000001
 40
0.0
 40
0.0
 40
0.0
 40
0.0
 40
0.2788426154
 40
0.5233052927
 40
0.7585701299
 40
1.0
 40
1.0
 40
1.0
 40
1.0
 10
-99.2872896458
 20
-43.695398543
 30
0.0
 10
-99.3229429103
 20
-43.8361092062
 30
0.0
 10
-99.3179567512
 20
-44.1283686878
 30
0.0
 10
-99.079169535
 20
-44.465443049
 30
0.0
 10
-98.7421302143
 20
-44.6502164094
 30
0.0
 10
-98.4930881181
 20
-44.6917478509
 30
0.0
 10
-98.3674589133
 20
-44.6953672946
 30
0.0
  0
SPLINE
  5
444
100
AcDbEntity
  8
0
100
AcDbSpline
 62
7
  6
CONTINUOUS
 70
0
 71
3
 72
8
 73
4
 74
0
 42
0.0000001
 43
0.0000001
 44
0.0000000001
 40
0.0
 40
0.0
 40
0.0
 40
0.0
 40
1.0
 40
1.0
 40
1.0
 40
1.0
 10
-36.5522197542
 20
-27.1285970529
 30
0.0
 10
-36.5600758626
 20
-27.081436697
 30
0.0
 10
-36.5751578006
 20
-27.0350037242
 30
0.0
 10
-36.5962154429
 20
-26.992080615
 30
0.0
  0
SPLINE
  5
445
100
AcDbEntity
  8
0
100
AcDbSpline
 62
7
  6
CONTINUOUS
 70
0
 71
3
 72
8
 73
4
 74
0
 42
0.0000001
 43
0.0000001
 44
0.0000000001
 40
0.0
 40
0.0
 40
0.0
 40
0.0
 40
1.0
 40
1.0
 40
1.0
 40
1.0
 10
-36.5962154429
 20
-26.992080615
 30
0.0
 10
-36.6320379063
 20
-26.9190614475
 30
0.0
 10
-36.685526048
 20
-26.8536411502
 30
0.0
 10
-36.746617741
 20
-26.7999489464
 30
0.0
  0
SPLINE
  5
446
100
AcDbEntity
  8
0
100
AcDbSpline
 62
7
  6
CONTINUOUS
 70
0
 71
3
 72
9
 73
5
 74
0
 42
0.0000001
 43
0.0000001
 44
0.0000000001
 40
0.0
 40
0.0
 40
0.0
 40
0.0
 40
0.2427555779
 40
1.0
 40
1.0
 40
1.0
 40
1.0
 10
-101.8560293118
 20
-66.2481777797
 30
0.0
 10
-101.8757816402
 20
-66.2188585772
 30
0.0
 10
-101.9509078199
 20
-66.0939014533
 30
0.0
 10
-102.0019098355
 20
-65.9551837715
 30
0.0
 10
-102.0283357685
 20
-65.8481206209
 30
0.0
  0
SPLINE
  5
447
100
AcDbEntity
  8
0
100
AcDbSpline
 62
7
  6
CONTINUOUS
 70
0
 71
3
 72
9
 73
5
 74
0
 42
0.0000001
 43
0.0000001
 44
0.0000000001
 40
0.0
 40
0.0
 40
0.0
 40
0.0
 40
0.3776884797
 40
1.0
 40
1.0
 40
1.0
 40
1.0
 10
-105.6992738541
 20
-35.5437295189
 30
0.0
 10
-105.7013342271
 20
-35.5484955692
 30
0.0
 10
-105.6966255655
 20
-35.5652250607
 30
0.0
 10
-105.6810107443
 20
-35.5670363409
 30
0.0
 10
-105.6728572903
 20
-35.5696276634
 30
0.0
  0
SPLINE
  5
448
100
AcDbEntity
  8
0
100
AcDbSpline
 62
7
  6
CONTINUOUS
 70
0
 71
3
 72
9
 73
5
 74
0
 42
0.0000001
 43
0.0000001
 44
0.0000000001
 40
0.0
 40
0.0
 40
0.0
 40
0.0
 40
0.2383635518
 40
1.0
 40
1.0
 40
1.0
 40
1.0
 10
-102.8151698017
 20
-50.8456525794
 30
0.0
 10
-102.8344604642
 20
-50.7927045942
 30
0.0
 10
-102.8972310701
 20
-50.5640014573
 30
0.0
 10
-102.8989671942
 20
-50.3216824215
 30
0.0
 10
-102.8770651745
 20
-50.1429574292
 30
0.0
  0
SPLINE
  5
449
100
AcDbEntity
  8
0
100
AcDbSpline
 62
7
  6
CONTINUOUS
 70
0
 71
3
 72
9
 73
5
 74
0
 42
0.0000001
 43
0.0000001
 44
0.0000000001
 40
0.0
 40
0.0
 40
0.0
 40
0.0
 40
0.255157725
 40
1.0
 40
1.0
 40
1.0
 40
1.0
 10
-95.1274133655
 20
-44.7887116068
 30
0.0
 10
-95.3058665766
 20
-45.5530084405
 30
0.0
 10
-95.9239907125
 20
-48.5664710492
 30
0.0
 10
-96.2104860491
 20
-51.650462879
 30
0.0
 10
-96.2100979212
 20
-53.9415639794
 30
0.0
  0
SPLINE
  5
44A
100
AcDbEntity
  8
0
100
AcDbSpline
 62
7
  6
CONTINUOUS
 70
0
 71
3
 72
9
 73
5
 74
0
 42
0.0000001
 43
0.0000001
 44
0.0000000001
 40
0.0
 40
0.0
 40
0.0
 40
0.0
 40
0.2570333049
 40
1.0
 40
1.0
 40
1.0
 40
1.0
 10
-96.2100979212
 20
-53.9415639794
 30
0.0
 10
-96.2099723725
 20
-54.6826718642
 30
0.0
 10
-96.1228642293
 20
-57.5648257121
 30
0.0
 10
-95.6780453114
 20
-60.4400184076
 30
0.0
 10
-95.1244113536
 20
-62.5094480993
 30
0.0
  0
SPLINE
  5
44B
100
AcDbEntity
  8
0
100
AcDbSpline
 62
7
  6
CONTINUOUS
 70
0
 71
3
 72
9
 73
5
 74
0
 42
0.0000001
 43
0.0000001
 44
0.0000000001
 40
0.0
 40
0.0
 40
0.0
 40
0.0
 40
0.4858954105
 40
1.0
 40
1.0
 40
1.0
 40
1.0
 10
-95.7724244191
 20
-78.5208641413
 30
0.0
 10
-97.1369200114
 20
-76.8679686276
 30
0.0
 10
-99.4800386089
 20
-73.0638098146
 30
0.0
 10
-100.8240990706
 20
-68.8177951974
 30
0.0
 10
-101.2799780689
 20
-66.5963139567
 30
0.0
  0
SPLINE
  5
44C
100
AcDbEntity
  8
0
100
AcDbSpline
 62
7
  6
CONTINUOUS
 70
0
 71
3
 72
9
 73
5
 74
0
 42
0.0000001
 43
0.0000001
 44
0.0000000001
 40
0.0
 40
0.0
 40
0.0
 40
0.0
 40
0.2111512314
 40
1.0
 40
1.0
 40
1.0
 40
1.0
 10
-36.817949995
 20
-27.4185613832
 30
0.0
 10
-36.7990538777
 20
-27.4079606734
 30
0.0
 10
-36.6996238547
 20
-27.3744025572
 30
0.0
 10
-36.5912955081
 20
-27.4105192334
 30
0.0
 10
-36.5190731872
 20
-27.4470707063
 30
0.0
  0
SPLINE
  5
44D
100
AcDbEntity
  8
0
100
AcDbSpline
 62
7
  6
CONTINUOUS
 70
0
 71
3
 72
9
 73
5
 74
0
 42
0.0000001
 43
0.0000001
 44
0.0000000001
 40
0.0
 40
0.0
 40
0.0
 40
0.0
 40
0.2285946234
 40
1.0
 40
1.0
 40
1.0
 40
1.0
 10
-98.2582604521
 20
-21.1290237739
 30
0.0
 10
-98.2605523751
 20
-21.1314306122
 30
0.0
 10
-98.231390179
 20
-21.1300452931
 30
0.0
 10
-98.2260392853
 20
-21.1302230988
 30
0.0
 10
-98.2148439577
 20
-21.1295523515
 30
0.0
  0
SPLINE
  5
44E
100
AcDbEntity
  8
0
100
AcDbSpline
 62
7
  6
CONTINUOUS
 70
0
 71
3
 72
12
 73
8
 74
0
 42
0.0000001
 43
0.0000001
 44
0.0000000001
 40
0.0
 40
0.0
 40
0.0
 40
0.0
 40
0.2630445013
 40
0.5251397067
 40
0.7834793728
 40
0.9063437673
 40
1.0
 40
1.0
 40
1.0
 40
1.0
 10
-97.0888758248
 20
-19.8221231177
 30
0.0
 10
-97.0745386654
 20
-19.8066987515
 30
0.0
 10
-97.0455717145
 20
-19.7760689912
 30
0.0
 10
-97.0015384916
 20
-19.7320918329
 30
0.0
 10
-96.9625088787
 20
-19.6962034186
 30
0.0
 10
-96.9336745656
 20
-19.6755531742
 30
0.0
 10
-96.9150064262
 20
-19.6648008774
 30
0.0
 10
-96.9083421263
 20
-19.6682367161
 30
0.0
  0
SPLINE
  5
44F
100
AcDbEntity
  8
0
100
AcDbSpline
 62
7
  6
CONTINUOUS
 70
0
 71
3
 72
15
 73
11
 74
0
 42
0.0000001
 43
0.0000001
 44
0.0000000001
 40
0.0
 40
0.0
 40
0.0
 40
0.0
 40
0.1311959516
 40
0.2571142581
 40
0.3791071265
 40
0.4990528799
 40
0.6191411482
 40
0.7415398111
 40
0.8680685804
 40
1.0
 40
1.0
 40
1.0
 40
1.0
 10
-99.2835370142
 20
-65.8470043103
 30
0.0
 10
-98.7667309958
 20
-67.6054425285
 30
0.0
 10
-97.4680906992
 20
-70.977419686
 30
0.0
 10
-94.6800984695
 20
-75.5166784598
 30
0.0
 10
-91.1586026285
 20
-79.3085581274
 30
0.0
 10
-86.9937176103
 20
-82.2435803407
 30
0.0
 10
-82.299411842
 20
-84.2386784355
 30
0.0
 10
-77.2065366529
 20
-85.2414941628
 30
0.0
 10
-71.8554703077
 20
-85.2333920566
 30
0.0
 10
-68.2840726689
 20
-84.5736034051
 30
0.0
 10
-66.5046034841
 20
-84.0935504434
 30
0.0
  0
SPLINE
  5
450
100
AcDbEntity
  8
0
100
AcDbSpline
 62
7
  6
CONTINUOUS
 70
0
 71
3
 72
9
 73
5
 74
0
 42
0.0000001
 43
0.0000001
 44
0.0000000001
 40
0.0
 40
0.0
 40
0.0
 40
0.0
 40
0.4855850456
 40
1.0
 40
1.0
 40
1.0
 40
1.0
 10
-98.3709545652
 20
-34.7348350724
 30
0.0
 10
-98.3907320462
 20
-34.5799694381
 30
0.0
 10
-98.3636248578
 20
-34.2527831637
 30
0.0
 10
-98.2589265402
 20
-33.9464131903
 30
0.0
 10
-98.1894012789
 20
-33.796343295
 30
0.0
  0
SPLINE
  5
451
100
AcDbEntity
  8
0
100
AcDbSpline
 62
7
  6
CONTINUOUS
 70
0
 71
3
 72
9
 73
5
 74
0
 42
0.0000001
 43
0.0000001
 44
0.0000000001
 40
0.0
 40
0.0
 40
0.0
 40
0.0
 40
0.2444499512
 40
1.0
 40
1.0
 40
1.0
 40
1.0
 10
-66.5046034841
 20
-84.0935504434
 30
0.0
 10
-65.8684596593
 20
-83.9219359362
 30
0.0
 10
-63.2867302852
 20
-83.1446141246
 30
0.0
 10
-60.7950688999
 20
-82.0756892105
 30
0.0
 10
-58.9885922046
 20
-81.1355001396
 30
0.0
  0
SPLINE
  5
452
100
AcDbEntity
  8
0
100
AcDbSpline
 62
7
  6
CONTINUOUS
 70
0
 71
3
 72
9
 73
5
 74
0
 42
0.0000001
 43
0.0000001
 44
0.0000000001
 40
0.0
 40
0.0
 40
0.0
 40
0.0
 40
0.3744739676
 40
1.0
 40
1.0
 40
1.0
 40
1.0
 10
-87.1178390932
 20
-9.8318838787
 30
0.0
 10
-87.1117756118
 20
-9.8283226394
 30
0.0
 10
-87.0923496933
 20
-9.8259938369
 30
0.0
 10
-87.073885592
 20
-9.8253458717
 30
0.0
 10
-87.0621427256
 20
-9.8256276803
 30
0.0
  0
SPLINE
  5
453
100
AcDbEntity
  8
0
100
AcDbSpline
 62
7
  6
CONTINUOUS
 70
0
 71
3
 72
10
 73
6
 74
0
 42
0.0000001
 43
0.0000001
 44
0.0000000001
 40
0.0
 40
0.0
 40
0.0
 40
0.0
 40
0.5184992136
 40
0.778317793
 40
1.0
 40
1.0
 40
1.0
 40
1.0
 10
-85.6329139021
 20
-8.9992673367
 30
0.0
 10
-85.6078135899
 20
-8.9859461819
 30
0.0
 10
-85.5693301128
 20
-8.9654783022
 30
0.0
 10
-85.5201309703
 20
-8.9465605781
 30
0.0
 10
-85.4925387472
 20
-8.9344821213
 30
0.0
 10
-85.4811928955
 20
-8.938826674
 30
0.0
  0
SPLINE
  5
454
100
AcDbEntity
  8
0
100
AcDbSpline
 62
7
  6
CONTINUOUS
 70
0
 71
3
 72
11
 73
7
 74
0
 42
0.0000001
 43
0.0000001
 44
0.0000000001
 40
0.0
 40
0.0
 40
0.0
 40
0.0
 40
0.241258112
 40
0.4864987523
 40
0.7386802426
 40
1.0
 40
1.0
 40
1.0
 40
1.0
 10
-92.6026272842
 20
-75.8141761847
 30
0.0
 10
-91.3732023588
 20
-76.4725277441
 30
0.0
 10
-88.7630039986
 20
-77.5695480478
 30
0.0
 10
-84.5686287907
 20
-78.4804162011
 30
0.0
 10
-80.1653586354
 20
-78.6505178681
 30
0.0
 10
-77.2061205738
 20
-78.2770654681
 30
0.0
 10
-75.7256432172
 20
-77.9770601754
 30
0.0
  0
SPLINE
  5
455
100
AcDbEntity
  8
0
100
AcDbSpline
 62
7
  6
CONTINUOUS
 70
0
 71
3
 72
9
 73
5
 74
0
 42
0.0000001
 43
0.0000001
 44
0.0000000001
 40
0.0
 40
0.0
 40
0.0
 40
0.0
 40
0.4865505972
 40
1.0
 40
1.0
 40
1.0
 40
1.0
 10
-102.0283357685
 20
-65.8481206209
 30
0.0
 10
-102.5991055533
 20
-63.5356360638
 30
0.0
 10
-103.2325042573
 20
-58.6398771947
 30
0.0
 10
-102.898853001
 20
-53.7248697798
 30
0.0
 10
-102.5118804132
 20
-51.2412724632
 30
0.0
  0
SPLINE
  5
456
100
AcDbEntity
  8
0
100
AcDbSpline
 62
7
  6
CONTINUOUS
 70
0
 71
3
 72
9
 73
5
 74
0
 42
0.0000001
 43
0.0000001
 44
0.0000000001
 40
0.0
 40
0.0
 40
0.0
 40
0.0
 40
0.4948896328
 40
1.0
 40
1.0
 40
1.0
 40
1.0
 10
-89.1769662552
 20
-20.3309139413
 30
0.0
 10
-89.1616261292
 20
-20.1399292475
 30
0.0
 10
-89.0325750077
 20
-19.7630559119
 30
0.0
 10
-88.8100129499
 20
-19.442083485
 30
0.0
 10
-88.678998416
 20
-19.2969020377
 30
0.0
  0
SPLINE
  5
457
100
AcDbEntity
  8
0
100
AcDbSpline
 62
7
  6
CONTINUOUS
 70
0
 71
3
 72
8
 73
4
 74
0
 42
0.0000001
 43
0.0000001
 44
0.0000000001
 40
0.0
 40
0.0
 40
0.0
 40
0.0
 40
1.0
 40
1.0
 40
1.0
 40
1.0
 10
-33.7386011411
 20
-26.0121197037
 30
0.0
 10
-34.4280066973
 20
-26.0802362239
 30
0.0
 10
-35.1170400934
 20
-26.1527549233
 30
0.0
 10
-35.8073412914
 20
-26.2110999089
 30
0.0
  0
SPLINE
  5
458
100
AcDbEntity
  8
0
100
AcDbSpline
 62
7
  6
CONTINUOUS
 70
0
 71
3
 72
8
 73
4
 74
0
 42
0.0000001
 43
0.0000001
 44
0.0000000001
 40
0.0
 40
0.0
 40
0.0
 40
0.0
 40
1.0
 40
1.0
 40
1.0
 40
1.0
 10
-99.0377216448
 20
-43.3916730564
 30
0.0
 10
-99.120142515
 20
-43.4935402981
 30
0.0
 10
-99.2042074759
 20
-43.5940663969
 30
0.0
 10
-99.2872903886
 20
-43.6953944008
 30
0.0
  0
SPLINE
  5
459
100
AcDbEntity
  8
0
100
AcDbSpline
 62
7
  6
CONTINUOUS
 70
0
 71
3
 72
10
 73
6
 74
0
 42
0.0000001
 43
0.0000001
 44
0.0000000001
 40
0.0
 40
0.0
 40
0.0
 40
0.0
 40
0.4920084403
 40
0.7514159
 40
1.0
 40
1.0
 40
1.0
 40
1.0
 10
-33.7386004259
 20
-26.0121238517
 30
0.0
 10
-33.653595052
 20
-26.3013564123
 30
0.0
 10
-33.8616043173
 20
-26.8040342902
 30
0.0
 10
-34.2698974048
 20
-27.2470717602
 30
0.0
 10
-34.525589879
 20
-27.4330048407
 30
0.0
 10
-34.6580081389
 20
-27.5082696592
 30
0.0
  0
SPLINE
  5
45A
100
AcDbEntity
  8
0
100
AcDbSpline
 62
7
  6
CONTINUOUS
 70
0
 71
3
 72
10
 73
6
 74
0
 42
0.0000001
 43
0.0000001
 44
0.0000000001
 40
0.0
 40
0.0
 40
0.0
 40
0.0
 40
0.2514535562
 40
0.6224050086
 40
1.0
 40
1.0
 40
1.0
 40
1.0
 10
-36.1365935771
 20
-27.655704293
 30
0.0
 10
-36.1685664452
 20
-27.6380495779
 30
0.0
 10
-36.249368101
 20
-27.5973963209
 30
0.0
 10
-36.373500498
 20
-27.5217194739
 30
0.0
 10
-36.470804536
 20
-27.4730646483
 30
0.0
 10
-36.5190840839
 20
-27.4470438311
 30
0.0
  0
SPLINE
  5
45B
100
AcDbEntity
  8
0
100
AcDbSpline
 62
7
  6
CONTINUOUS
 70
0
 71
3
 72
11
 73
7
 74
0
 42
0.0000001
 43
0.0000001
 44
0.0000000001
 40
0.0
 40
0.0
 40
0.0
 40
0.0
 40
0.2515820059
 40
0.5210482915
 40
0.7775166433
 40
1.0
 40
1.0
 40
1.0
 40
1.0
 10
-35.8001807328
 20
-26.2370121951
 30
0.0
 10
-35.7687022468
 20
-26.3593448546
 30
0.0
 10
-35.7460130757
 20
-26.6238054141
 30
0.0
 10
-35.7999594354
 20
-27.0130295229
 30
0.0
 10
-35.9272578037
 20
-27.3692367525
 30
0.0
 10
-36.0602050908
 20
-27.5741923221
 30
0.0
 10
-36.1365910901
 20
-27.6557014952
 30
0.0
  0
SPLINE
  5
45C
100
AcDbEntity
  8
0
100
AcDbSpline
 62
7
  6
CONTINUOUS
 70
0
 71
3
 72
9
 73
5
 74
0
 42
0.0000001
 43
0.0000001
 44
0.0000000001
 40
0.0
 40
0.0
 40
0.0
 40
0.0
 40
0.4785218477
 40
1.0
 40
1.0
 40
1.0
 40
1.0
 10
-35.9489877012
 20
-26.1565605973
 30
0.0
 10
-35.8971164765
 20
-26.3580842657
 30
0.0
 10
-35.9424812075
 20
-26.81812799
 30
0.0
 10
-36.1976554657
 20
-27.1961345789
 30
0.0
 10
-36.3712096926
 20
-27.3420958711
 30
0.0
  0
SPLINE
  5
45D
100
AcDbEntity
  8
0
100
AcDbSpline
 62
7
  6
CONTINUOUS
 70
0
 71
3
 72
9
 73
5
 74
0
 42
0.0000001
 43
0.0000001
 44
0.0000000001
 40
0.0
 40
0.0
 40
0.0
 40
0.0
 40
0.260899194
 40
1.0
 40
1.0
 40
1.0
 40
1.0
 10
-36.3712096926
 20
-27.3420958711
 30
0.0
 10
-36.3832873164
 20
-27.3522533049
 30
0.0
 10
-36.4303701089
 20
-27.3902312421
 30
0.0
 10
-36.4805232708
 20
-27.4244394685
 30
0.0
 10
-36.5190769459
 20
-27.4470725713
 30
0.0
  0
SPLINE
  5
45E
100
AcDbEntity
  8
0
100
AcDbSpline
 62
7
  6
CONTINUOUS
 70
0
 71
3
 72
11
 73
7
 74
0
 42
0.0000001
 43
0.0000001
 44
0.0000000001
 40
0.0
 40
0.0
 40
0.0
 40
0.0
 40
0.2404516982
 40
0.4848215539
 40
0.7370572192
 40
1.0
 40
1.0
 40
1.0
 40
1.0
 10
-48.0412844074
 20
-10.4379885231
 30
0.0
 10
-46.5950647024
 20
-11.2124499698
 30
0.0
 10
-43.8387922009
 20
-13.0948052107
 30
0.0
 10
-40.3546545144
 20
-16.7690948473
 30
0.0
 10
-37.5966471498
 20
-21.1940822569
 30
0.0
 10
-36.3158539221
 20
-24.4906780619
 30
0.0
 10
-35.8073453077
 20
-26.2110811836
 30
0.0
  0
SPLINE
  5
45F
100
AcDbEntity
  8
0
100
AcDbSpline
 62
7
  6
CONTINUOUS
 70
0
 71
3
 72
9
 73
5
 74
0
 42
0.0000001
 43
0.0000001
 44
0.0000000001
 40
0.0
 40
0.0
 40
0.0
 40
0.0
 40
0.5185229262
 40
1.0
 40
1.0
 40
1.0
 40
1.0
 10
-48.7429842846
 20
-5.6336347318
 30
0.0
 10
-48.6153297225
 20
-5.5820850377
 30
0.0
 10
-48.3469517649
 20
-5.5309941
 30
0.0
 10
-48.0795836258
 20
-5.5810229257
 30
0.0
 10
-47.9604005204
 20
-5.627250494
 30
0.0
  0
SPLINE
  5
460
100
AcDbEntity
  8
0
100
AcDbSpline
 62
7
  6
CONTINUOUS
 70
0
 71
3
 72
9
 73
5
 74
0
 42
0.0000001
 43
0.0000001
 44
0.0000000001
 40
0.0
 40
0.0
 40
0.0
 40
0.0
 40
0.5022959524
 40
1.0
 40
1.0
 40
1.0
 40
1.0
 10
-98.1894012789
 20
-33.796343295
 30
0.0
 10
-97.058983545
 20
-31.3563636416
 30
0.0
 10
-94.4054296217
 20
-26.6759715977
 30
0.0
 10
-91.0251417628
 20
-22.4884177937
 30
0.0
 10
-89.1801491356
 20
-20.5659880691
 30
0.0
  0
SPLINE
  5
461
100
AcDbEntity
  8
0
100
AcDbSpline
 62
7
  6
CONTINUOUS
 70
0
 71
3
 72
14
 73
10
 74
0
 42
0.0000001
 43
0.0000001
 44
0.0000000001
 40
0.0
 40
0.0
 40
0.0
 40
0.0
 40
0.127872891
 40
0.2529009058
 40
0.3761692331
 40
0.4982251462
 40
0.6203348069
 40
0.7438578975
 40
1.0
 40
1.0
 40
1.0
 40
1.0
 10
-88.6789834264
 20
-19.2968837993
 30
0.0
 10
-88.5822424576
 20
-18.4478675111
 30
0.0
 10
-88.3284891095
 20
-16.773889299
 30
0.0
 10
-87.6582519968
 20
-14.3437788004
 30
0.0
 10
-86.6779805725
 20
-12.0626102506
 30
0.0
 10
-85.3973757655
 20
-9.9575582267
 30
0.0
 10
-83.8064201913
 20
-8.0706856458
 30
0.0
 10
-81.2580220982
 20
-5.875672768
 30
0.0
 10
-78.9461295599
 20
-4.7023198161
 30
0.0
 10
-77.3203439434
 20
-4.1669410659
 30
0.0
  0
SPLINE
  5
462
100
AcDbEntity
  8
0
100
AcDbSpline
 62
7
  6
CONTINUOUS
 70
0
 71
3
 72
9
 73
5
 74
0
 42
0.0000001
 43
0.0000001
 44
0.0000000001
 40
0.0
 40
0.0
 40
0.0
 40
0.0
 40
0.4934716866
 40
1.0
 40
1.0
 40
1.0
 40
1.0
 10
-102.8770651745
 20
-50.1429574292
 30
0.0
 10
-102.5606661033
 20
-47.5611527915
 30
0.0
 10
-101.4347144616
 20
-42.3803736913
 30
0.0
 10
-99.4567673385
 20
-37.4657664536
 30
0.0
 10
-98.2629855253
 20
-35.0775715192
 30
0.0
  0
SPLINE
  5
463
100
AcDbEntity
  8
0
100
AcDbSpline
 62
7
  6
CONTINUOUS
 70
0
 71
3
 72
9
 73
5
 74
0
 42
0.0000001
 43
0.0000001
 44
0.0000000001
 40
0.0
 40
0.0
 40
0.0
 40
0.0
 40
0.510523417
 40
1.0
 40
1.0
 40
1.0
 40
1.0
 10
-88.678998416
 20
-19.2969020377
 30
0.0
 10
-86.9323150379
 20
-17.3613586425
 30
0.0
 10
-83.1894968723
 20
-13.8459571117
 30
0.0
 10
-78.8719980982
 20
-11.0532948202
 30
0.0
 10
-76.6461507485
 20
-9.9157791456
 30
0.0
  0
SPLINE
  5
464
100
AcDbEntity
  8
0
100
AcDbSpline
 62
7
  6
CONTINUOUS
 70
0
 71
3
 72
10
 73
6
 74
0
 42
0.0000001
 43
0.0000001
 44
0.0000000001
 40
0.0
 40
0.0
 40
0.0
 40
0.0
 40
0.2630767644
 40
0.5147949287
 40
1.0
 40
1.0
 40
1.0
 40
1.0
 10
-75.7937109637
 20
-8.852030981
 30
0.0
 10
-75.6063580467
 20
-8.3040229228
 30
0.0
 10
-75.1963831286
 20
-7.2441194279
 30
0.0
 10
-74.1336811068
 20
-5.3108162444
 30
0.0
 10
-72.9960349897
 20
-4.0940193812
 30
0.0
 10
-72.1354928594
 20
-3.4612336937
 30
0.0
  0
SPLINE
  5
465
100
AcDbEntity
  8
0
100
AcDbSpline
 62
7
  6
CONTINUOUS
 70
0
 71
3
 72
10
 73
6
 74
0
 42
0.0000001
 43
0.0000001
 44
0.0000000001
 40
0.0
 40
0.0
 40
0.0
 40
0.0
 40
0.2366805257
 40
0.4796931658
 40
1.0
 40
1.0
 40
1.0
 40
1.0
 10
-72.1354928594
 20
-3.4612336937
 30
0.0
 10
-71.7602960523
 20
-3.1853388118
 30
0.0
 10
-70.952592971
 20
-2.6871216154
 30
0.0
 10
-69.1266386971
 20
-1.936142059
 30
0.0
 10
-67.612192251
 20
-1.7117859169
 30
0.0
 10
-66.5886190313
 20
-1.6899848886
 30
0.0
  0
SPLINE
  5
466
100
AcDbEntity
  8
0
100
AcDbSpline
 62
7
  6
CONTINUOUS
 70
0
 71
3
 72
9
 73
5
 74
0
 42
0.0000001
 43
0.0000001
 44
0.0000000001
 40
0.0
 40
0.0
 40
0.0
 40
0.0
 40
0.2451122844
 40
1.0
 40
1.0
 40
1.0
 40
1.0
 10
-66.5886190313
 20
-1.6899848886
 30
0.0
 10
-66.4799065965
 20
-1.6876694286
 30
0.0
 10
-66.0362729471
 20
-1.6841170176
 30
0.0
 10
-65.5925069611
 20
-1.7039673241
 30
0.0
 10
-65.2587136287
 20
-1.7309786099
 30
0.0
  0
SPLINE
  5
467
100
AcDbEntity
  8
0
100
AcDbSpline
 62
7
  6
CONTINUOUS
 70
0
 71
3
 72
9
 73
5
 74
0
 42
0.0000001
 43
0.0000001
 44
0.0000000001
 40
0.0
 40
0.0
 40
0.0
 40
0.0
 40
0.2442049827
 40
1.0
 40
1.0
 40
1.0
 40
1.0
 10
-65.2587136287
 20
-1.7309786099
 30
0.0
 10
-65.1429882809
 20
-1.7403433579
 30
0.0
 10
-64.6695918644
 20
-1.7846071131
 30
0.0
 10
-64.198439838
 20
-1.8522049954
 30
0.0
 10
-63.8446274266
 20
-1.91494197
 30
0.0
  0
SPLINE
  5
468
100
AcDbEntity
  8
0
100
AcDbSpline
 62
7
  6
CONTINUOUS
 70
0
 71
3
 72
9
 73
5
 74
0
 42
0.0000001
 43
0.0000001
 44
0.0000000001
 40
0.0
 40
0.0
 40
0.0
 40
0.0
 40
0.7497220313
 40
1.0
 40
1.0
 40
1.0
 40
1.0
 10
-95.7724374768
 20
-78.5208483977
 30
0.0
 10
-96.6867360869
 20
-77.7170261035
 30
0.0
 10
-97.8675877441
 20
-76.5989933086
 30
0.0
 10
-98.9817162233
 20
-75.4175046134
 30
0.0
 10
-99.2561181916
 20
-75.1177262693
 30
0.0
  0
SPLINE
  5
469
100
AcDbEntity
  8
0
100
AcDbSpline
 62
7
  6
CONTINUOUS
 70
0
 71
3
 72
9
 73
5
 74
0
 42
0.0000001
 43
0.0000001
 44
0.0000000001
 40
0.0
 40
0.0
 40
0.0
 40
0.0
 40
0.250285133
 40
1.0
 40
1.0
 40
1.0
 40
1.0
 10
-100.994835182
 20
-73.0874845598
 30
0.0
 10
-101.24645598
 20
-72.7729456559
 30
0.0
 10
-102.2324312911
 20
-71.5008996018
 30
0.0
 10
-103.1388362615
 20
-70.1668359859
 30
0.0
 10
-103.7657053231
 20
-69.1358984661
 30
0.0
  0
SPLINE
  5
46A
100
AcDbEntity
  8
0
100
AcDbSpline
 62
7
  6
CONTINUOUS
 70
0
 71
3
 72
9
 73
5
 74
0
 42
0.0000001
 43
0.0000001
 44
0.0000000001
 40
0.0
 40
0.0
 40
0.0
 40
0.0
 40
0.2507968657
 40
1.0
 40
1.0
 40
1.0
 40
1.0
 10
-104.5792424377
 20
-67.7258867369
 30
0.0
 10
-104.7622962195
 20
-67.3908281603
 30
0.0
 10
-105.4699890109
 20
-66.0428858222
 30
0.0
 10
-106.0868900708
 20
-64.6469528153
 30
0.0
 10
-106.4906659633
 20
-63.5802621672
 30
0.0
  0
SPLINE
  5
46B
100
AcDbEntity
  8
0
100
AcDbSpline
 62
7
  6
CONTINUOUS
 70
0
 71
3
 72
9
 73
5
 74
0
 42
0.0000001
 43
0.0000001
 44
0.0000000001
 40
0.0
 40
0.0
 40
0.0
 40
0.0
 40
0.5030855922
 40
1.0
 40
1.0
 40
1.0
 40
1.0
 10
-106.5409480831
 20
-63.4465101931
 30
0.0
 10
-107.0309671911
 20
-62.1339865743
 30
0.0
 10
-107.8309273434
 20
-59.4567081835
 30
0.0
 10
-108.2470635881
 20
-56.6907989861
 30
0.0
 10
-108.3406243129
 20
-55.3101383563
 30
0.0
  0
SPLINE
  5
46C
100
AcDbEntity
  8
0
100
AcDbSpline
 62
7
  6
CONTINUOUS
 70
0
 71
3
 72
11
 73
7
 74
0
 42
0.0000001
 43
0.0000001
 44
0.0000000001
 40
0.0
 40
0.0
 40
0.0
 40
0.0
 40
0.262312227
 40
0.5063584105
 40
0.7479240751
 40
1.0
 40
1.0
 40
1.0
 40
1.0
 10
-61.4952405658
 20
-4.0518963543
 30
0.0
 10
-61.3117115191
 20
-3.7847825038
 30
0.0
 10
-60.927010971
 20
-3.2874118831
 30
0.0
 10
-60.2111896902
 20
-2.6874105901
 30
0.0
 10
-59.3680205332
 20
-2.311987264
 30
0.0
 10
-58.7574608705
 20
-2.2190594015
 30
0.0
 10
-58.446195887
 20
-2.2086038327
 30
0.0
  0
SPLINE
  5
46D
100
AcDbEntity
  8
0
100
AcDbSpline
 62
7
  6
CONTINUOUS
 70
0
 71
3
 72
9
 73
5
 74
0
 42
0.0000001
 43
0.0000001
 44
0.0000000001
 40
0.0
 40
0.0
 40
0.0
 40
0.0
 40
0.2408323542
 40
1.0
 40
1.0
 40
1.0
 40
1.0
 10
-58.446195887
 20
-2.2086038327
 30
0.0
 10
-58.3719187593
 20
-2.2061088215
 30
0.0
 10
-58.0632344424
 20
-2.2042840007
 30
0.0
 10
-57.7546693088
 20
-2.2361955393
 30
0.0
 10
-57.5237975839
 20
-2.2759728712
 30
0.0
  0
SPLINE
  5
46E
100
AcDbEntity
  8
0
100
AcDbSpline
 62
7
  6
CONTINUOUS
 70
0
 71
3
 72
9
 73
5
 74
0
 42
0.0000001
 43
0.0000001
 44
0.0000000001
 40
0.0
 40
0.0
 40
0.0
 40
0.0
 40
0.2392039716
 40
1.0
 40
1.0
 40
1.0
 40
1.0
 10
-57.5237975839
 20
-2.2759728712
 30
0.0
 10
-57.4449126512
 20
-2.2895641074
 30
0.0
 10
-57.1164537378
 20
-2.3539815032
 30
0.0
 10
-56.7939922417
 20
-2.4475972027
 30
0.0
 10
-56.5536069683
 20
-2.5314564819
 30
0.0
  0
SPLINE
  5
46F
100
AcDbEntity
  8
0
100
AcDbSpline
 62
7
  6
CONTINUOUS
 70
0
 71
3
 72
15
 73
11
 74
0
 42
0.0000001
 43
0.0000001
 44
0.0000000001
 40
0.0
 40
0.0
 40
0.0
 40
0.0
 40
0.1240304526
 40
0.2483951312
 40
0.3731636144
 40
0.4982213857
 40
0.6235518591
 40
0.74900792
 40
0.8745520083
 40
1.0
 40
1.0
 40
1.0
 40
1.0
 10
-102.0283416953
 20
-65.8480993262
 30
0.0
 10
-102.6469923612
 20
-64.8991894275
 30
0.0
 10
-103.8193794485
 20
-62.9537619832
 30
0.0
 10
-105.3162604496
 20
-59.8865853906
 30
0.0
 10
-106.5150074717
 20
-56.680435511
 30
0.0
 10
-107.3936168528
 20
-53.3625768915
 30
0.0
 10
-107.9187168871
 20
-49.9635955022
 30
0.0
 10
-108.0645753544
 20
-46.5222221073
 30
0.0
 10
-107.8172438436
 20
-43.0859521396
 30
0.0
 10
-107.3834678556
 20
-40.8278167842
 30
0.0
 10
-107.0929176799
 20
-39.7195581582
 30
0.0
  0
SPLINE
  5
470
100
AcDbEntity
  8
0
100
AcDbSpline
 62
7
  6
CONTINUOUS
 70
0
 71
3
 72
15
 73
11
 74
0
 42
0.0000001
 43
0.0000001
 44
0.0000000001
 40
0.0
 40
0.0
 40
0.0
 40
0.0
 40
0.1239257741
 40
0.2478879153
 40
0.372177354
 40
0.4967453104
 40
0.6217505794
 40
0.7472341686
 40
0.8732916501
 40
1.0
 40
1.0
 40
1.0
 40
1.0
 10
-102.8770632671
 20
-50.1429337113
 30
0.0
 10
-103.2286398289
 20
-49.1078421405
 30
0.0
 10
-103.8594231027
 20
-47.0110999858
 30
0.0
 10
-104.5052395811
 20
-43.7866034197
 30
0.0
 10
-104.8139980613
 20
-40.5063862739
 30
0.0
 10
-104.7760611092
 20
-37.2022341843
 30
0.0
 10
-104.3654822062
 20
-33.9119407077
 30
0.0
 10
-103.5679645725
 20
-30.6792665307
 30
0.0
 10
-102.3839189052
 20
-27.5517500753
 30
0.0
 10
-101.3409801679
 20
-25.5725931419
 30
0.0
 10
-100.7534184643
 20
-24.6217728001
 30
0.0
  0
SPLINE
  5
471
100
AcDbEntity
  8
0
100
AcDbSpline
 62
7
  6
CONTINUOUS
 70
0
 71
3
 72
15
 73
11
 74
0
 42
0.0000001
 43
0.0000001
 44
0.0000000001
 40
0.0
 40
0.0
 40
0.0
 40
0.0
 40
0.1255804754
 40
0.2502085468
 40
0.3744378608
 40
0.4983495316
 40
0.6224132071
 40
0.7470491014
 40
0.8727084887
 40
1.0
 40
1.0
 40
1.0
 40
1.0
 10
-98.1893920266
 20
-33.7963206504
 30
0.0
 10
-98.2892674176
 20
-32.7964370905
 30
0.0
 10
-98.4181389261
 20
-30.7955403006
 30
0.0
 10
-98.3030712172
 20
-27.7955084687
 30
0.0
 10
-97.8472431703
 20
-24.8410142431
 30
0.0
 10
-97.0520800553
 20
-21.9633698708
 30
0.0
 10
-95.9002421297
 20
-19.2042855482
 30
0.0
 10
-94.3887429789
 20
-16.6076803989
 30
0.0
 10
-92.5295486083
 20
-14.2153789668
 30
0.0
 10
-91.0769288865
 20
-12.7944500116
 30
0.0
 10
-90.2986809904
 20
-12.1373538262
 30
0.0
  0
SPLINE
  5
472
100
AcDbEntity
  8
0
100
AcDbSpline
 62
7
  6
CONTINUOUS
 70
0
 71
3
 72
10
 73
6
 74
0
 42
0.0000001
 43
0.0000001
 44
0.0000000001
 40
0.0
 40
0.0
 40
0.0
 40
0.0
 40
0.2404750617
 40
0.4864505857
 40
1.0
 40
1.0
 40
1.0
 40
1.0
 10
-104.8943805064
 20
5.670375862
 30
0.0
 10
-105.6601829823
 20
5.9069445441
 30
0.0
 10
-107.2496126129
 20
6.2646004391
 30
0.0
 10
-110.5825650162
 20
6.5062222178
 30
0.0
 10
-113.1280256961
 20
6.1392500806
 30
0.0
 10
-114.7806200576
 20
5.6934245364
 30
0.0
  0
SPLINE
  5
473
100
AcDbEntity
  8
0
100
AcDbSpline
 62
7
  6
CONTINUOUS
 70
0
 71
3
 72
11
 73
7
 74
0
 42
0.0000001
 43
0.0000001
 44
0.0000000001
 40
0.0
 40
0.0
 40
0.0
 40
0.0
 40
0.2598757116
 40
0.5165473244
 40
0.7648321918
 40
1.0
 40
1.0
 40
1.0
 40
1.0
 10
-92.5851260651
 20
-4.8294518735
 30
0.0
 10
-92.9021841801
 20
-3.463271879
 30
0.0
 10
-93.6515609894
 20
-0.7738809377
 30
0.0
 10
-95.1044508326
 20
3.0952620485
 30
0.0
 10
-96.8462859479
 20
6.6959646684
 30
0.0
 10
-98.2135928918
 20
8.9250391039
 30
0.0
 10
-98.9395709274
 20
9.9660417189
 30
0.0
  0
SPLINE
  5
474
100
AcDbEntity
  8
0
100
AcDbSpline
 62
7
  6
CONTINUOUS
 70
0
 71
3
 72
9
 73
5
 74
0
 42
0.0000001
 43
0.0000001
 44
0.0000000001
 40
0.0
 40
0.0
 40
0.0
 40
0.0
 40
0.5087429978
 40
1.0
 40
1.0
 40
1.0
 40
1.0
 10
-98.5280226733
 20
-4.0876225343
 30
0.0
 10
-98.9470259389
 20
-2.6108015469
 30
0.0
 10
-99.9247045798
 20
0.250634312
 30
0.0
 10
-101.2109543494
 20
2.9888002515
 30
0.0
 10
-101.9240743888
 20
4.2883435972
 30
0.0
  0
SPLINE
  5
475
100
AcDbEntity
  8
0
100
AcDbSpline
 62
7
  6
CONTINUOUS
 70
0
 71
3
 72
18
 73
14
 74
0
 42
0.0000001
 43
0.0000001
 44
0.0000000001
 40
0.0
 40
0.0
 40
0.0
 40
0.0
 40
0.1196699321
 40
0.1827984198
 40
0.2476974212
 40
0.3809586904
 40
0.5157484912
 40
0.6478264176
 40
0.7735279144
 40
0.833353377
 40
0.8909442327
 40
0.9463997033
 40
1.0
 40
1.0
 40
1.0
 40
1.0
 10
-114.7806200576
 20
5.6934245364
 30
0.0
 10
-116.8142254092
 20
5.144812467
 30
0.0
 10
-119.809559108
 20
3.8418237604
 30
0.0
 10
-123.4338217466
 20
1.4089278242
 30
0.0
 10
-126.9398113411
 20
-1.5823447466
 30
0.0
 10
-130.740087004
 20
-6.1061347912
 30
0.0
 10
-134.0911582759
 20
-12.3561980863
 30
0.0
 10
-136.042654324
 20
-19.0377845979
 30
0.0
 10
-136.3823523176
 20
-24.6772149328
 30
0.0
 10
-135.8104516737
 20
-28.9292808218
 30
0.0
 10
-134.9916695833
 20
-31.8709799849
 30
0.0
 10
-133.7902789135
 20
-34.558828644
 30
0.0
 10
-132.7310641015
 20
-36.1721657279
 30
0.0
 10
-132.1470889601
 20
-36.9131168203
 30
0.0
  0
SPLINE
  5
476
100
AcDbEntity
  8
0
100
AcDbSpline
 62
7
  6
CONTINUOUS
 70
0
 71
3
 72
9
 73
5
 74
0
 42
0.0000001
 43
0.0000001
 44
0.0000000001
 40
0.0
 40
0.0
 40
0.0
 40
0.0
 40
0.5038854071
 40
1.0
 40
1.0
 40
1.0
 40
1.0
 10
-132.1470889601
 20
-36.9131168203
 30
0.0
 10
-131.5353767906
 20
-37.689260817
 30
0.0
 10
-130.178029357
 20
-39.1228727347
 30
0.0
 10
-128.5695304564
 20
-40.2694130491
 30
0.0
 10
-127.7258266293
 20
-40.754042629
 30
0.0
  0
SPLINE
  5
477
100
AcDbEntity
  8
0
100
AcDbSpline
 62
7
  6
CONTINUOUS
 70
0
 71
3
 72
11
 73
7
 74
0
 42
0.0000001
 43
0.0000001
 44
0.0000000001
 40
0.0
 40
0.0
 40
0.0
 40
0.0
 40
0.2351678082
 40
0.4834526756
 40
0.7401242884
 40
1.0
 40
1.0
 40
1.0
 40
1.0
 10
-103.0644360943
 20
8.8532639553
 30
0.0
 10
-102.3384580587
 20
7.8122613403
 30
0.0
 10
-100.9711511147
 20
5.5831869048
 30
0.0
 10
-99.2293159995
 20
1.9824842849
 30
0.0
 10
-97.7764261563
 20
-1.8866587013
 30
0.0
 10
-97.027049347
 20
-4.5760496426
 30
0.0
 10
-96.709991232
 20
-5.942229637
 30
0.0
  0
SPLINE
  5
478
100
AcDbEntity
  8
0
100
AcDbSpline
 62
7
  6
CONTINUOUS
 70
0
 71
3
 72
11
 73
7
 74
0
 42
0.0000001
 43
0.0000001
 44
0.0000000001
 40
0.0
 40
0.0
 40
0.0
 40
0.0
 40
0.2457841721
 40
0.500266419
 40
0.7546069632
 40
1.0
 40
1.0
 40
1.0
 40
1.0
 10
-107.1271095241
 20
-39.0345987748
 30
0.0
 10
-106.9811916565
 20
-36.6114620158
 30
0.0
 10
-106.0412944578
 20
-31.7035855029
 30
0.0
 10
-103.0070777551
 20
-24.8331332605
 30
0.0
 10
-98.5626492158
 20
-18.7833456989
 30
0.0
 10
-94.7768484393
 20
-15.5292979443
 30
0.0
 10
-92.7500821367
 20
-14.2002526269
 30
0.0
  0
ELLIPSE
  5
479
100
AcDbEntity
  8
0
100
AcDbEllipse
 62
7
  6
CONTINUOUS
 10
-88.8074114455
 20
-33.1236183544
 30
0.0
 11
-3.0796170876
 21
27.6881724889
 31
0.0
 40
0.7940331328
 41
6.3085044703
 42
6.5011097345
  0
ELLIPSE
  5
47A
100
AcDbEntity
  8
0
100
AcDbEllipse
 62
7
  6
CONTINUOUS
 10
-99.7307819334
 20
-26.8497602898
 30
0.0
 11
10.1689456956
 21
24.0066300217
 31
0.0
 40
0.7885137488
 41
6.7540411455
 42
6.9325034525
  0
ENDSEC
  0
SECTION
  2
OBJECTS
  0
DICTIONARY
  5
C
100
AcDbDictionary
280
0
281
1
  3
ACAD_GROUP
350
D
  3
ACAD_MLINESTYLE
350
17
  3
ACAD_LAYOUT
350
1A
  3
ACAD_PLOTSETTINGS
350
19
  3
ACAD_PLOTSTYLENAME
350
E
  0
DICTIONARY
  5
D
102
{ACAD_REACTORS
330
C
102
}
100
AcDbDictionary
280
0
281
1
  0
ACDBDICTIONARYWDFLT
  5
E
102
{ACAD_REACTORS
330
C
102
}
100
AcDbDictionary
281
1
  3
Normal
350
F
100
AcDbDictionaryWithDefault
340
F
  0
DICTIONARY
  5
17
102
{ACAD_REACTORS
330
C
102
}
100
AcDbDictionary
280
0
281
1
  3
Standard
350
18
  0
DICTIONARY
  5
19
102
{ACAD_REACTORS
330
C
102
}
100
AcDbDictionary
281
1
  0
DICTIONARY
  5
1A
102
{ACAD_REACTORS
330
C
102
}
100
AcDbDictionary
281
1
  3
Model
350
47B
  3
Layout1
350
47C
  0
ACDBPLACEHOLDER
  5
F
102
{ACAD_REACTORS
330
E
102
}
  0
MLINESTYLE
  5
18
102
{ACAD_REACTORS
330
17
102
}
100
AcDbMlineStyle
  2
STANDARD
 70
0
  3

 62
256
 51
90.0
 52
90.0
 71
2
 49
0.5
 62
256
  6
BYLAYER
 49
-0.5
 62
256
  6
BYLAYER
  0
LAYOUT
  5
47B
102
{ACAD_REACTORS
330
1A
102
}
100
AcDbPlotSettings
  1

  2
none_device
  4
ANSI_C_(22.00_x_17.00_Inches)
  6

 40
0.0
 41
0.0
 42
0.0
 43
0.0
 44
558.8
 45
431.8
 46
0.0
 47
0.0
 48
0.0
 49
0.0
140
0.0
141
0.0
142
1.0
143
1.0
 70
1024
 72
1
 73
0
 74
0
  7

 75
0
147
1.0
148
0.0
149
0.0
100
AcDbLayout
  1
Model
 70
0
 71
0
 10
0.0
 20
0.0
 11
558.8
 21
431.8
 12
0.0
 22
0.0
 32
0.0
 14
0.0
 24
0.0
 34
0.0
 15
0.0
 25
0.0
 35
0.0
146
0.0
 13
0.0
 23
0.0
 33
0.0
 16
1.0
 26
0.0
 36
0.0
 17
0.0
 27
1.0
 37
0.0
 76
0
330
1FF
345
0
346
0
  0
LAYOUT
  5
47C
102
{ACAD_REACTORS
330
1A
102
}
100
AcDbPlotSettings
  1

  2
none_device
  4
ANSI_C_(22.00_x_17.00_Inches)
  6

 40
0.0
 41
0.0
 42
0.0
 43
0.0
 44
558.8
 45
431.8
 46
0.0
 47
0.0
 48
0.0
 49
0.0
140
0.0
141
0.0
142
1.0
143
1.0
 70
0
 72
1
 73
0
 74
0
  7

 75
0
147
1.0
148
0.0
149
0.0
100
AcDbLayout
  1
Layout1
 70
0
 71
1
 10
0.0
 20
0.0
 11
558.8
 21
431.8
 12
0.0
 22
0.0
 32
0.0
 14
0.0
 24
0.0
 34
0.0
 15
0.0
 25
0.0
 35
0.0
146
0.0
 13
0.0
 23
0.0
 33
0.0
 16
1.0
 26
0.0
 36
0.0
 17
0.0
 27
1.0
 37
0.0
 76
0
330
200
345
0
346
0
  0
ENDSEC
  0
EOF
