999
DXF file: Y:\3D PRATIKA-KAEDRA_OLGA\CAD3D\2D_Views\PKE32M423_2D-isometric.dxf
999
Pro/ENGINEER 2018260 by Parametric Technology Corporation
  0
SECTION
  2
HEADER
  9
$ACADVER
  1
AC1027
  9
$DWGCODEPAGE
  3
ANSI_1252
  9
$EXTMAX
 10
22.0
 20
17.0
 30
0.0
  9
$EXTMIN
 10
0.0
 20
0.0
 30
0.0
  9
$LIMMIN
 10
0.0
 20
0.0
  9
$LIMMAX
 10
22.0
 20
17.0
  9
$VIEWCTR
 10
11.0
 20
8.5
  9
$VIEWSIZE
 40
17.0
  9
$CLAYER
  8
0
  9
$LTSCALE
 40
1.21
  9
$CELTYPE
  6
BYLAYER
  9
$DIMSCALE
 40
1.0
  9
$DIMASZ
 40
0.1875
  9
$DIMEXO
 40
0.0625
  9
$DIMDLI
 40
0.836
  9
$DIMEXE
 40
0.125
  9
$DIMCEN
 40
0.198
  9
$DIMLFAC
 40
1.0
  9
$DIMBLK
  1
_CLOSED
  9
$DIMALT
 70
0
  9
$DIMALTF
 40
25.4
  9
$DIMTXT
 40
0.15625
  9
$DIMTOL
 70
0
  9
$DIMLIM
 70
0
  9
$DIMTFAC
 40
1.0
  9
$DIMGAP
 40
0.09
  9
$DIMDSEP
 70
46
  9
$AUNITS
 70
0
  9
$PDMODE
 70
3
  9
$PDSIZE
 40
0.3125
  9
$HANDSEED
  5
3B0
  9
$TILEMODE
 70
1
  9
$MEASUREMENT
 70
0
  9
$INSUNITS
 70
1
  0
ENDSEC
  0
SECTION
  2
CLASSES
  0
CLASS
  1
ACDBDICTIONARYWDFLT
  2
AcDbDictionaryWithDefault
  3
AutoCAD 2000
 90
0
 91
1
280
0
281
0
  0
CLASS
  1
ACDBPLACEHOLDER
  2
AcDbPlaceHolder
  3
AutoCAD 2000
 90
0
 91
1
280
0
281
0
  0
CLASS
  1
LAYOUT
  2
AcDbLayout
  3
AutoCAD 2000
 90
0
 91
0
280
0
281
0
  0
ENDSEC
  0
SECTION
  2
TABLES
  0
TABLE
  2
VPORT
  5
8
100
AcDbSymbolTable
 70
2
  0
VPORT
  5
1F4
100
AcDbSymbolTableRecord
100
AcDbViewportTableRecord
  2
*ACTIVE
 70
0
 10
0.0
 20
0.0
 11
1.0
 21
1.0
 12
11.0
 22
8.5
 13
0.0
 23
0.0
 14
1.0
 24
1.0
 15
0.0
 25
0.0
 16
0.0
 26
0.0
 36
1.0
 17
0.0
 27
0.0
 37
0.0
 40
17.0
 41
1.2941176471
 42
50.0
 43
0.0
 44
0.0
 50
0.0
 51
0.0
 71
0
 72
100
 73
1
 74
1
 75
0
 76
0
 77
0
 78
0
  0
ENDTAB
  0
TABLE
  2
LTYPE
  5
5
100
AcDbSymbolTable
 70
6
  0
LTYPE
  5
14
100
AcDbSymbolTableRecord
100
AcDbLinetypeTableRecord
  2
BYBLOCK
 70
0
  3

 72
65
 73
0
 40
0.0
  0
LTYPE
  5
15
100
AcDbSymbolTableRecord
100
AcDbLinetypeTableRecord
  2
BYLAYER
 70
0
  3

 72
65
 73
0
 40
0.0
  0
LTYPE
  5
16
100
AcDbSymbolTableRecord
100
AcDbLinetypeTableRecord
  2
CONTINUOUS
 70
64
  3
Solid line
 72
65
 73
0
 40
0.0
  0
LTYPE
  5
1F5
100
AcDbSymbolTableRecord
100
AcDbLinetypeTableRecord
  2
CENTER
 70
64
  3
____ _ ____ _ ____ _ ____ _ ____ _ ____ _ ____
 72
65
 73
4
 40
0.6
 49
0.375
 74
0
 49
-0.075
 74
0
 49
0.075
 74
0
 49
-0.075
 74
0
  0
LTYPE
  5
1F6
100
AcDbSymbolTableRecord
100
AcDbLinetypeTableRecord
  2
HIDDEN
 70
64
  3
- - - - - - - - - - - - - - - - - - - -
 72
65
 73
2
 40
0.2
 49
0.1
 74
0
 49
-0.1
 74
0
  0
LTYPE
  5
1F7
100
AcDbSymbolTableRecord
100
AcDbLinetypeTableRecord
  2
PHANTOM
 70
64
  3
_____ _ _ _____ _ _ _____ _ _ _____
 72
65
 73
6
 40
0.8
 49
0.45
 74
0
 49
-0.05
 74
0
 49
0.1
 74
0
 49
-0.05
 74
0
 49
0.1
 74
0
 49
-0.05
 74
0
  0
LTYPE
  5
1F8
100
AcDbSymbolTableRecord
100
AcDbLinetypeTableRecord
  2
DOT
 70
64
  3
. . . . . . . . . . . . . . . . . . . .
 72
65
 73
2
 40
0.2
 49
0.1
 74
0
 49
-0.1
 74
0
  0
LTYPE
  5
1F9
100
AcDbSymbolTableRecord
100
AcDbLinetypeTableRecord
  2
DASHED
 70
64
  3
- - - - - - - - - - - - - - - - - - - -
 72
65
 73
2
 40
0.2
 49
0.1
 74
0
 49
-0.1
 74
0
  0
ENDTAB
  0
TABLE
  2
LAYER
  5
2
100
AcDbSymbolTable
 70
36
  0
LAYER
  5
10
100
AcDbSymbolTableRecord
100
AcDbLayerTableRecord
  2
0
 70
0
 62
7
  6
CONTINUOUS
370
-3
390
F
  0
LAYER
  5
1FA
100
AcDbSymbolTableRecord
100
AcDbLayerTableRecord
  2
DEFAULT_1
 70
0
 62
7
  6
CENTER
370
-3
390
F
  0
LAYER
  5
1FB
100
AcDbSymbolTableRecord
100
AcDbLayerTableRecord
  2
DEFAULT_2
 70
0
 62
8
  6
HIDDEN
370
-3
390
F
  0
LAYER
  5
1FC
100
AcDbSymbolTableRecord
100
AcDbLayerTableRecord
  2
DEFAULT_3
 70
0
 62
7
  6
PHANTOM
370
-3
390
F
  0
LAYER
  5
1FD
100
AcDbSymbolTableRecord
100
AcDbLayerTableRecord
  2
01_ALL_DTM_PLN
 70
0
 62
7
  6
CONTINUOUS
370
-3
390
F
  0
LAYER
  5
1FE
100
AcDbSymbolTableRecord
100
AcDbLayerTableRecord
  2
01__ASM_ALL_DTM_PLN
 70
0
 62
7
  6
CONTINUOUS
370
-3
390
F
  0
LAYER
  5
1FF
100
AcDbSymbolTableRecord
100
AcDbLayerTableRecord
  2
01__ASM_DEF_DTM_PLN
 70
0
 62
7
  6
CONTINUOUS
370
-3
390
F
  0
LAYER
  5
200
100
AcDbSymbolTableRecord
100
AcDbLayerTableRecord
  2
01___PRT_ALL_DTM_PLN
 70
0
 62
7
  6
CONTINUOUS
370
-3
390
F
  0
LAYER
  5
201
100
AcDbSymbolTableRecord
100
AcDbLayerTableRecord
  2
01___PRT_DEF_DTM_PLN
 70
0
 62
7
  6
CONTINUOUS
370
-3
390
F
  0
LAYER
  5
202
100
AcDbSymbolTableRecord
100
AcDbLayerTableRecord
  2
02_ALL_AXES
 70
0
 62
7
  6
CONTINUOUS
370
-3
390
F
  0
LAYER
  5
203
100
AcDbSymbolTableRecord
100
AcDbLayerTableRecord
  2
02__ASM_ALL_AXES
 70
0
 62
7
  6
CONTINUOUS
370
-3
390
F
  0
LAYER
  5
204
100
AcDbSymbolTableRecord
100
AcDbLayerTableRecord
  2
02___PRT_ALL_AXES
 70
0
 62
7
  6
CONTINUOUS
370
-3
390
F
  0
LAYER
  5
205
100
AcDbSymbolTableRecord
100
AcDbLayerTableRecord
  2
03_ALL_CURVES
 70
0
 62
7
  6
CONTINUOUS
370
-3
390
F
  0
LAYER
  5
206
100
AcDbSymbolTableRecord
100
AcDbLayerTableRecord
  2
03__ASM_ALL_CURVES
 70
0
 62
7
  6
CONTINUOUS
370
-3
390
F
  0
LAYER
  5
207
100
AcDbSymbolTableRecord
100
AcDbLayerTableRecord
  2
03___PRT_ALL_CURVES
 70
0
 62
7
  6
CONTINUOUS
370
-3
390
F
  0
LAYER
  5
208
100
AcDbSymbolTableRecord
100
AcDbLayerTableRecord
  2
04_ALL_DTM_PNT
 70
0
 62
7
  6
CONTINUOUS
370
-3
390
F
  0
LAYER
  5
209
100
AcDbSymbolTableRecord
100
AcDbLayerTableRecord
  2
04__ASM_ALL_DTM_PNT
 70
0
 62
7
  6
CONTINUOUS
370
-3
390
F
  0
LAYER
  5
20A
100
AcDbSymbolTableRecord
100
AcDbLayerTableRecord
  2
04___PRT_ALL_DTM_PNT
 70
0
 62
7
  6
CONTINUOUS
370
-3
390
F
  0
LAYER
  5
20B
100
AcDbSymbolTableRecord
100
AcDbLayerTableRecord
  2
05_ALL_DTM_CSYS
 70
0
 62
7
  6
CONTINUOUS
370
-3
390
F
  0
LAYER
  5
20C
100
AcDbSymbolTableRecord
100
AcDbLayerTableRecord
  2
05__ASM_ALL_DTM_CSYS
 70
0
 62
7
  6
CONTINUOUS
370
-3
390
F
  0
LAYER
  5
20D
100
AcDbSymbolTableRecord
100
AcDbLayerTableRecord
  2
05__ASM_DEF_DTM_CSYS
 70
0
 62
7
  6
CONTINUOUS
370
-3
390
F
  0
LAYER
  5
20E
100
AcDbSymbolTableRecord
100
AcDbLayerTableRecord
  2
05___PRT_ALL_DTM_CSYS
 70
0
 62
7
  6
CONTINUOUS
370
-3
390
F
  0
LAYER
  5
20F
100
AcDbSymbolTableRecord
100
AcDbLayerTableRecord
  2
05___PRT_DEF_DTM_CSYS
 70
0
 62
7
  6
CONTINUOUS
370
-3
390
F
  0
LAYER
  5
210
100
AcDbSymbolTableRecord
100
AcDbLayerTableRecord
  2
06_ALL_SURFS
 70
0
 62
7
  6
CONTINUOUS
370
-3
390
F
  0
LAYER
  5
211
100
AcDbSymbolTableRecord
100
AcDbLayerTableRecord
  2
06__ASM_ALL_SURFS
 70
0
 62
7
  6
CONTINUOUS
370
-3
390
F
  0
LAYER
  5
212
100
AcDbSymbolTableRecord
100
AcDbLayerTableRecord
  2
06___PRT_ALL_SURFS
 70
0
 62
7
  6
CONTINUOUS
370
-3
390
F
  0
LAYER
  5
213
100
AcDbSymbolTableRecord
100
AcDbLayerTableRecord
  2
07__ASM_ALL_SKELETONS
 70
0
 62
7
  6
CONTINUOUS
370
-3
390
F
  0
ENDTAB
  0
TABLE
  2
STYLE
  5
3
100
AcDbSymbolTable
 70
1
  0
STYLE
  5
11
100
AcDbSymbolTableRecord
100
AcDbTextStyleTableRecord
  2
STANDARD
 70
0
 40
0.0
 41
0.8
 50
0.0
 71
0
 42
0.2
  3
txt
  4

  0
STYLE
  5
214
100
AcDbSymbolTableRecord
100
AcDbTextStyleTableRecord
  2
TEXTSTYLE_1
 70
0
 40
0.0
 41
0.8
 50
0.0
 71
0
 42
0.2
  3
gdt
  4

  0
ENDTAB
  0
TABLE
  2
VIEW
  5
6
100
AcDbSymbolTable
 70
0
  0
ENDTAB
  0
TABLE
  2
UCS
  5
7
100
AcDbSymbolTable
 70
0
  0
ENDTAB
  0
TABLE
  2
APPID
  5
9
100
AcDbSymbolTable
 70
1
  0
APPID
  5
215
100
AcDbSymbolTableRecord
100
AcDbRegAppTableRecord
  2
ACAD
 70
0
  0
ENDTAB
  0
TABLE
  2
BLOCK_RECORD
  5
1
100
AcDbSymbolTable
 70
0
  0
BLOCK_RECORD
  5
216
100
AcDbSymbolTableRecord
100
AcDbBlockTableRecord
  2
*Model_Space
  0
BLOCK_RECORD
  5
217
100
AcDbSymbolTableRecord
100
AcDbBlockTableRecord
  2
*Paper_Space
  0
BLOCK_RECORD
  5
218
100
AcDbSymbolTableRecord
100
AcDbBlockTableRecord
  2
_CLOSED
  0
ENDTAB
  0
TABLE
  2
DIMSTYLE
  5
A
100
AcDbSymbolTable
 70
1
100
AcDbDimStyleTable
 71
0
  0
DIMSTYLE
105
219
100
AcDbSymbolTableRecord
100
AcDbDimStyleTableRecord
  2
STANDARD
 70
0
  3

  4

 40
1.0
 41
0.1875
 42
0.0625
 43
0.38
 44
0.125
 45
0.0
 46
0.0
 47
0.01
 48
0.01
140
0.15625
141
0.09
142
0.0
143
25.4
144
1.0
145
0.0
146
1.0
147
0.09
 71
0.0
 72
0.0
 73
1
 74
1
 75
0
 76
0
 77
0
 78
4
 79
1
170
0
171
1
172
0
173
0
174
0
175
0
176
0
177
0
178
0
270
2
179
2
271
2
272
2
273
2
274
2
275
0
280
0
281
0
282
0
283
1
284
4
285
0
286
0
287
3
288
0
340
11
278
46
341
218
342
218
343
218
344
218
  0
ENDTAB
  0
ENDSEC
  0
SECTION
  2
BLOCKS
  0
BLOCK
  5
20
100
AcDbEntity
  8
0
100
AcDbBlockBegin
  2
*Model_Space
 70
0
 10
0.0
 20
0.0
 30
0.0
  3
*Model_Space
  1

  0
ENDBLK
  5
21
100
AcDbEntity
  8
0
100
AcDbBlockEnd
  0
BLOCK
  5
1C
100
AcDbEntity
  8
0
100
AcDbBlockBegin
  2
*Paper_Space
 70
0
 10
0.0
 20
0.0
 30
0.0
  3
*Paper_Space
  1

  0
ENDBLK
  5
1D
100
AcDbEntity
  8
0
100
AcDbBlockEnd
  0
BLOCK
  5
21A
100
AcDbEntity
  8
0
100
AcDbBlockBegin
  2
_CLOSED
 70
64
 10
0.0
 20
0.0
  3
_CLOSED
  1

  0
LINE
  5
21B
100
AcDbEntity
  8
0
  6
BYBLOCK
 62
0
100
AcDbLine
 10
0.0
 20
0.0
 11
-1.0
 21
0.1666666667
  0
LINE
  5
21C
100
AcDbEntity
  8
0
  6
BYBLOCK
 62
0
100
AcDbLine
 10
-1.0
 20
0.1666666667
 11
-1.0
 21
-0.1666666667
  0
LINE
  5
21D
100
AcDbEntity
  8
0
  6
BYBLOCK
 62
0
100
AcDbLine
 10
-1.0
 20
-0.1666666667
 11
0.0
 21
0.0
  0
LINE
  5
21E
100
AcDbEntity
  8
0
  6
BYBLOCK
 62
0
100
AcDbLine
 10
-1.0
 20
0.0
 11
0.0
 21
0.0
  0
ENDBLK
  5
21F
100
AcDbEntity
  8
0
  6
BYBLOCK
 62
0
100
AcDbBlockEnd
  0
ENDSEC
  0
SECTION
  2
ENTITIES
  0
LINE
  5
220
100
AcDbEntity
  8
0
100
AcDbLine
 62
7
  6
CONTINUOUS
 10
-15.4064975669
 20
-45.1060816275
 11
-15.3989826569
 21
-45.2227245311
  0
LINE
  5
221
100
AcDbEntity
  8
0
100
AcDbLine
 62
7
  6
CONTINUOUS
 10
-27.7567319215
 20
-23.5183112065
 11
-27.7541171846
 21
-23.9341900826
  0
LINE
  5
222
100
AcDbEntity
  8
0
100
AcDbLine
 62
7
  6
CONTINUOUS
 10
-15.4064644809
 20
-45.1061217519
 11
-15.4064646358
 21
-44.9953705764
  0
LINE
  5
223
100
AcDbEntity
  8
0
100
AcDbLine
 62
7
  6
CONTINUOUS
 10
-15.0650255956
 20
-45.1747230295
 11
-15.0650255956
 21
-45.2925501294
  0
LINE
  5
224
100
AcDbEntity
  8
0
100
AcDbLine
 62
7
  6
CONTINUOUS
 10
-28.7484923917
 20
-27.1557712239
 11
-28.7808405439
 21
-27.4646038092
  0
LINE
  5
225
100
AcDbEntity
  8
0
100
AcDbLine
 62
7
  6
CONTINUOUS
 10
-24.6146837733
 20
-38.6237112242
 11
-24.6531352738
 21
-38.9406649566
  0
LINE
  5
226
100
AcDbEntity
  8
0
100
AcDbLine
 62
7
  6
CONTINUOUS
 10
-26.6882867458
 20
-13.4621824948
 11
-26.6882669033
 21
-13.4620953931
  0
LINE
  5
227
100
AcDbEntity
  8
0
100
AcDbLine
 62
7
  6
CONTINUOUS
 10
-26.6321510313
 20
-13.2750503596
 11
-26.6882998572
 21
-13.4621529089
  0
LINE
  5
228
100
AcDbEntity
  8
0
100
AcDbLine
 62
7
  6
CONTINUOUS
 10
-28.6470442913
 20
-26.8732125485
 11
-28.7484923917
 21
-27.1557712239
  0
LINE
  5
229
100
AcDbEntity
  8
0
100
AcDbLine
 62
7
  6
CONTINUOUS
 10
-24.5596310285
 20
-38.4729517772
 11
-24.6146837733
 21
-38.6237112242
  0
LINE
  5
22A
100
AcDbEntity
  8
0
100
AcDbLine
 62
7
  6
CONTINUOUS
 10
-23.9813570136
 20
-9.8209384591
 11
-24.1661252267
 21
-10.2325568789
  0
LINE
  5
22B
100
AcDbEntity
  8
0
100
AcDbLine
 62
7
  6
CONTINUOUS
 10
-24.5595961924
 20
-38.4729487851
 11
-24.2562506853
 21
-37.8071681736
  0
LINE
  5
22C
100
AcDbEntity
  8
0
100
AcDbLine
 62
7
  6
CONTINUOUS
 10
-23.9112781316
 20
-37.9965326361
 11
-24.2190724056
 21
-38.6720773683
  0
LINE
  5
22D
100
AcDbEntity
  8
0
100
AcDbLine
 62
7
  6
CONTINUOUS
 10
-26.4916027271
 20
-12.9937002161
 11
-26.6321510313
 21
-13.2750503596
  0
LINE
  5
22E
100
AcDbEntity
  8
0
100
AcDbLine
 62
7
  6
CONTINUOUS
 10
-28.4896000977
 20
-26.6388825396
 11
-28.6470442913
 21
-26.8732125485
  0
LINE
  5
22F
100
AcDbEntity
  8
0
100
AcDbLine
 62
7
  6
CONTINUOUS
 10
-18.6425613056
 20
-0.6788700198
 11
-18.6566830046
 21
-0.6996942962
  0
LINE
  5
230
100
AcDbEntity
  8
0
100
AcDbLine
 62
7
  6
CONTINUOUS
 10
-18.6425613056
 20
-0.6788700198
 11
-18.6573279588
 21
-0.6991453819
  0
LINE
  5
231
100
AcDbEntity
  8
0
100
AcDbLine
 62
7
  6
CONTINUOUS
 10
-26.3046106729
 20
-12.7641871319
 11
-26.4916027271
 21
-12.9937002161
  0
LINE
  5
232
100
AcDbEntity
  8
0
100
AcDbLine
 62
7
  6
CONTINUOUS
 10
-18.6196300332
 20
-0.4699656523
 11
-18.7561628132
 21
-0.6322258332
  0
LINE
  5
233
100
AcDbEntity
  8
0
100
AcDbLine
 62
7
  6
CONTINUOUS
 10
-15.0099947862
 20
1.4698899854
 11
-15.3324770673
 21
1.1728730255
  0
LINE
  5
234
100
AcDbEntity
  8
0
100
AcDbLine
 62
7
  6
CONTINUOUS
 10
-18.3836101039
 20
-0.2751700678
 11
-18.6196300332
 21
-0.4699656523
  0
LINE
  5
235
100
AcDbEntity
  8
0
100
AcDbLine
 62
7
  6
CONTINUOUS
 10
37.5194024485
 20
-16.9892055703
 11
33.3871905529
 21
-18.0968842439
  0
LINE
  5
236
100
AcDbEntity
  8
0
100
AcDbLine
 62
7
  6
CONTINUOUS
 10
27.0588087012
 20
-3.2943830235
 11
31.1910205942
 21
-2.1867043499
  0
LINE
  5
237
100
AcDbEntity
  8
0
100
AcDbLine
 62
7
  6
CONTINUOUS
 10
30.8064806978
 20
-1.644919881
 11
26.6742688022
 21
-2.7525985521
  0
LINE
  5
238
100
AcDbEntity
  8
0
100
AcDbLine
 62
7
  6
CONTINUOUS
 10
29.1174167709
 20
-0.6693625611
 11
24.9852048753
 21
-1.7770412347
  0
LINE
  5
239
100
AcDbEntity
  8
0
100
AcDbLine
 62
7
  6
CONTINUOUS
 10
-17.6327783265
 20
-0.1389264312
 11
-17.8763405114
 21
-0.1078243928
  0
LINE
  5
23A
100
AcDbEntity
  8
0
100
AcDbLine
 62
7
  6
CONTINUOUS
 10
-14.7600742852
 20
-45.9577634522
 11
-11.0552296629
 21
-46.9569895259
  0
LINE
  5
23B
100
AcDbEntity
  8
0
100
AcDbLine
 62
7
  6
CONTINUOUS
 10
-14.7600249026
 20
-45.9577819155
 11
-14.759881136
 21
-45.9578238483
  0
LINE
  5
23C
100
AcDbEntity
  8
0
100
AcDbLine
 62
7
  6
CONTINUOUS
 10
-1.8618129139
 20
-50.4072989727
 11
-1.6883571013
 21
-50.4606538292
  0
LINE
  5
23D
100
AcDbEntity
  8
0
100
AcDbLine
 62
7
  6
CONTINUOUS
 10
-2.2875192025
 20
-50.2743126322
 11
-2.2127188415
 21
-50.2978850895
  0
LINE
  5
23E
100
AcDbEntity
  8
0
100
AcDbLine
 62
7
  6
CONTINUOUS
 10
-17.5829800923
 20
-0.1555551025
 11
-17.6327783265
 21
-0.1389264312
  0
LINE
  5
23F
100
AcDbEntity
  8
0
100
AcDbLine
 62
7
  6
CONTINUOUS
 10
-2.0147445181
 20
-50.3489707455
 11
-1.6540073783
 21
-50.4702153773
  0
LINE
  5
240
100
AcDbEntity
  8
0
100
AcDbLine
 62
7
  6
CONTINUOUS
 10
-6.0217412692
 20
-48.9476852067
 11
-5.761405102
 21
-49.0399676434
  0
LINE
  5
241
100
AcDbEntity
  8
0
100
AcDbLine
 62
7
  6
CONTINUOUS
 10
-2.2866241623
 20
-50.271687565
 11
-2.2127188415
 21
-50.2978850895
  0
LINE
  5
242
100
AcDbEntity
  8
0
100
AcDbLine
 62
7
  6
CONTINUOUS
 10
-6.0418365833
 20
-49.0019839983
 11
-5.7819446114
 21
-49.0957753042
  0
LINE
  5
243
100
AcDbEntity
  8
0
100
AcDbLine
 62
7
  6
CONTINUOUS
 10
-16.8900189255
 20
-0.5609185108
 11
-17.4231006762
 21
-0.3614473095
  0
LINE
  5
244
100
AcDbEntity
  8
0
100
AcDbLine
 62
7
  6
CONTINUOUS
 10
-17.5829405496
 20
-0.1556122551
 11
-17.0137590387
 21
-0.3685913237
  0
LINE
  5
245
100
AcDbEntity
  8
0
100
AcDbLine
 62
7
  6
CONTINUOUS
 10
-12.4900066029
 20
-32.5285606053
 11
-12.5029404683
 21
-32.5234033563
  0
LINE
  5
246
100
AcDbEntity
  8
0
100
AcDbLine
 62
7
  6
CONTINUOUS
 10
-14.960175917
 20
-45.8734473953
 11
-14.759881136
 21
-45.9578238483
  0
LINE
  5
247
100
AcDbEntity
  8
0
100
AcDbLine
 62
7
  6
CONTINUOUS
 10
73.1130082258
 20
-62.0640414758
 11
73.3734614387
 21
-62.1868377022
  0
LINE
  5
248
100
AcDbEntity
  8
0
100
AcDbLine
 62
7
  6
CONTINUOUS
 10
82.4727305985
 20
-75.9964358055
 11
82.8200138511
 21
-76.1601712083
  0
LINE
  5
249
100
AcDbEntity
  8
0
100
AcDbLine
 62
7
  6
CONTINUOUS
 10
91.0060105957
 20
-57.2676521253
 11
91.2664761504
 21
-57.3904554738
  0
LINE
  5
24A
100
AcDbEntity
  8
0
100
AcDbLine
 62
7
  6
CONTINUOUS
 10
-20.7480697514
 20
-42.1883184308
 11
-20.65728466
 21
-42.2400856069
  0
LINE
  5
24B
100
AcDbEntity
  8
0
100
AcDbLine
 62
7
  6
CONTINUOUS
 10
-20.644285801
 20
-42.0648598995
 11
-20.7828508376
 21
-41.9856866212
  0
LINE
  5
24C
100
AcDbEntity
  8
0
100
AcDbLine
 62
7
  6
CONTINUOUS
 10
36.4886755412
 20
-78.3271824648
 11
41.3869609313
 21
-81.1562986887
  0
LINE
  5
24D
100
AcDbEntity
  8
0
100
AcDbLine
 62
7
  6
CONTINUOUS
 10
54.3907177406
 20
-88.0605152333
 11
52.8705602068
 21
-87.1825136467
  0
LINE
  5
24E
100
AcDbEntity
  8
0
100
AcDbLine
 62
7
  6
CONTINUOUS
 10
42.6373221618
 20
-78.9914437779
 11
68.1421874639
 21
-93.7223592843
  0
LINE
  5
24F
100
AcDbEntity
  8
0
100
AcDbLine
 62
7
  6
CONTINUOUS
 10
73.6891992731
 20
-96.3455681527
 11
80.8958720301
 21
-100.5079460458
  0
LINE
  5
250
100
AcDbEntity
  8
0
100
AcDbLine
 62
7
  6
CONTINUOUS
 10
75.199146276
 20
-95.8498360402
 11
79.916978372
 21
-98.5747273545
  0
LINE
  5
251
100
AcDbEntity
  8
0
100
AcDbLine
 62
7
  6
CONTINUOUS
 10
2.3930129147
 20
-52.8603974092
 11
25.8844368691
 21
-66.4284040374
  0
LINE
  5
252
100
AcDbEntity
  8
0
100
AcDbLine
 62
7
  6
CONTINUOUS
 10
-8.371465381
 20
-43.0632113622
 11
-4.0719067995
 21
-45.5465192887
  0
LINE
  5
253
100
AcDbEntity
  8
0
100
AcDbLine
 62
7
  6
CONTINUOUS
 10
61.5875793717
 20
-73.1353897242
 11
78.8192678699
 21
-83.087943652
  0
LINE
  5
254
100
AcDbEntity
  8
0
100
AcDbLine
 62
7
  6
CONTINUOUS
 10
63.3111335344
 20
-64.8923732537
 11
82.8204238122
 21
-76.1604079338
  0
LINE
  5
255
100
AcDbEntity
  8
0
100
AcDbLine
 62
7
  6
CONTINUOUS
 10
63.8145440364
 20
-63.5947381325
 11
70.3729111787
 21
-67.38267236
  0
LINE
  5
256
100
AcDbEntity
  8
0
100
AcDbLine
 62
7
  6
CONTINUOUS
 10
66.5549640877
 20
-58.2486593073
 11
73.3737781335
 21
-62.187020572
  0
LINE
  5
257
100
AcDbEntity
  8
0
100
AcDbLine
 62
7
  6
CONTINUOUS
 10
71.049466328
 20
-52.6425320283
 11
88.2659135486
 21
-62.5862830094
  0
LINE
  5
258
100
AcDbEntity
  8
0
100
AcDbLine
 62
7
  6
CONTINUOUS
 10
76.0853781967
 20
-48.6222667541
 11
91.2667805059
 21
-57.3906312214
  0
LINE
  5
259
100
AcDbEntity
  8
0
100
AcDbLine
 62
7
  6
CONTINUOUS
 10
25.6314928182
 20
-14.2124230594
 11
27.0444227177
 21
-15.0284928826
  0
LINE
  5
25A
100
AcDbEntity
  8
0
100
AcDbLine
 62
7
  6
CONTINUOUS
 10
31.9833563374
 20
-17.881086418
 11
33.5308094173
 21
-18.7748531699
  0
LINE
  5
25B
100
AcDbEntity
  8
0
100
AcDbLine
 62
7
  6
CONTINUOUS
 10
-20.6453917577
 20
-42.0694372487
 11
-20.7828508376
 21
-41.9856866212
  0
LINE
  5
25C
100
AcDbEntity
  8
0
100
AcDbLine
 62
7
  6
CONTINUOUS
 10
-24.2682709152
 20
-39.7093600537
 11
-24.3000030387
 21
-39.6870525621
  0
LINE
  5
25D
100
AcDbEntity
  8
0
100
AcDbLine
 62
7
  6
CONTINUOUS
 10
-15.1772763566
 20
-45.7009565465
 11
-14.960175917
 21
-45.8734473953
  0
LINE
  5
25E
100
AcDbEntity
  8
0
100
AcDbLine
 62
7
  6
CONTINUOUS
 10
-24.3000030387
 20
-39.6870525621
 11
-24.3002002291
 21
-39.6868842439
  0
LINE
  5
25F
100
AcDbEntity
  8
0
100
AcDbLine
 62
7
  6
CONTINUOUS
 10
-5.8587622936
 20
7.2114070977
 11
-6.0381137079
 21
7.3793139806
  0
LINE
  5
260
100
AcDbEntity
  8
0
100
AcDbLine
 62
7
  6
CONTINUOUS
 10
-24.4328023286
 20
-39.5492832872
 11
-24.3000295208
 21
-39.6870630676
  0
LINE
  5
261
100
AcDbEntity
  8
0
100
AcDbLine
 62
7
  6
CONTINUOUS
 10
-24.2829244064
 20
-37.8558011522
 11
-24.2967885722
 21
-37.8357241363
  0
LINE
  5
262
100
AcDbEntity
  8
0
100
AcDbLine
 62
7
  6
CONTINUOUS
 10
-5.8087475778
 20
7.1383501953
 11
-5.8587622936
 21
7.2114070977
  0
LINE
  5
263
100
AcDbEntity
  8
0
100
AcDbLine
 62
7
  6
CONTINUOUS
 10
-15.3260938568
 20
-45.4769980688
 11
-15.1772763566
 21
-45.7009565465
  0
LINE
  5
264
100
AcDbEntity
  8
0
100
AcDbLine
 62
7
  6
CONTINUOUS
 10
-24.2746988729
 20
-37.8476581231
 11
-24.287712347
 21
-37.8267547587
  0
LINE
  5
265
100
AcDbEntity
  8
0
100
AcDbLine
 62
7
  6
CONTINUOUS
 10
-5.4737594975
 20
6.5302512236
 11
-5.7815461743
 21
7.040768996
  0
LINE
  5
266
100
AcDbEntity
  8
0
100
AcDbLine
 62
7
  6
CONTINUOUS
 10
-5.8088901506
 20
7.1385121051
 11
-5.4846309108
 21
6.6006734017
  0
LINE
  5
267
100
AcDbEntity
  8
0
100
AcDbLine
 62
7
  6
CONTINUOUS
 10
-24.5922481642
 20
-39.2616877842
 11
-24.4328023286
 21
-39.5492832872
  0
LINE
  5
268
100
AcDbEntity
  8
0
100
AcDbLine
 62
7
  6
CONTINUOUS
 10
-15.3989826569
 20
-45.2227245311
 11
-15.3260938568
 21
-45.4769980688
  0
LINE
  5
269
100
AcDbEntity
  8
0
100
AcDbLine
 62
7
  6
CONTINUOUS
 10
-5.7815461743
 20
7.040768996
 11
-5.8086008242
 21
7.1380338891
  0
LINE
  5
26A
100
AcDbEntity
  8
0
100
AcDbLine
 62
7
  6
CONTINUOUS
 10
-28.7439431983
 20
-27.7448234418
 11
-28.7439649128
 21
-27.7447378971
  0
LINE
  5
26B
100
AcDbEntity
  8
0
100
AcDbLine
 62
7
  6
CONTINUOUS
 10
-24.6531352738
 20
-38.9406649566
 11
-24.5922481642
 21
-39.2616877842
  0
LINE
  5
26C
100
AcDbEntity
  8
0
100
AcDbLine
 62
7
  6
CONTINUOUS
 10
-28.7808405439
 20
-27.4646038092
 11
-28.7439597617
 21
-27.7448486615
  0
LINE
  5
26D
100
AcDbEntity
  8
0
100
AcDbLine
 62
7
  6
CONTINUOUS
 10
-24.9649243657
 20
-12.5660503882
 11
-25.580526307
 21
-12.7310683386
  0
LINE
  5
26E
100
AcDbEntity
  8
0
100
AcDbLine
 62
7
  6
CONTINUOUS
 10
-25.8804357351
 20
-12.5156370244
 11
-25.2466281356
 21
-12.3457388552
  0
LINE
  5
26F
100
AcDbEntity
  8
0
100
AcDbLine
 62
7
  6
CONTINUOUS
 10
14.5362493064
 20
-3.4037029242
 11
18.7523089515
 21
-5.8387841399
  0
LINE
  5
270
100
AcDbEntity
  8
0
100
AcDbLine
 62
7
  6
CONTINUOUS
 10
-7.0606708576
 20
7.3667849378
 11
-7.0607645505
 21
7.3667322201
  0
LINE
  5
271
100
AcDbEntity
  8
0
100
AcDbLine
 62
7
  6
CONTINUOUS
 10
-6.0381137079
 20
7.3793139806
 11
-6.2748184745
 21
7.4873762588
  0
LINE
  5
272
100
AcDbEntity
  8
0
100
AcDbLine
 62
7
  6
CONTINUOUS
 10
-6.8659391998
 20
7.4555264444
 11
-7.0607390667
 21
7.3667702516
  0
LINE
  5
273
100
AcDbEntity
  8
0
100
AcDbLine
 62
7
  6
CONTINUOUS
 10
-26.0881003312
 20
-12.6011449535
 11
-26.3046106729
 21
-12.7641871319
  0
LINE
  5
274
100
AcDbEntity
  8
0
100
AcDbLine
 62
7
  6
CONTINUOUS
 10
36.1557839794
 20
-12.310640706
 11
51.8890410472
 21
-21.3977414522
  0
LINE
  5
275
100
AcDbEntity
  8
0
100
AcDbLine
 62
7
  6
CONTINUOUS
 10
6.2255237689
 20
7.5025941938
 11
6.2074394362
 21
7.6825401026
  0
LINE
  5
276
100
AcDbEntity
  8
0
100
AcDbLine
 62
7
  6
CONTINUOUS
 10
6.1660164711
 20
5.8668514785
 11
6.1297907498
 21
6.4984058466
  0
LINE
  5
277
100
AcDbEntity
  8
0
100
AcDbLine
 62
7
  6
CONTINUOUS
 10
6.1297832466
 20
6.4989474533
 11
6.1297401428
 21
6.5218182153
  0
LINE
  5
278
100
AcDbEntity
  8
0
100
AcDbLine
 62
7
  6
CONTINUOUS
 10
6.2254892274
 20
7.5028881581
 11
6.22549114
 21
6.8104306048
  0
LINE
  5
279
100
AcDbEntity
  8
0
100
AcDbLine
 62
7
  6
CONTINUOUS
 10
6.2248145399
 20
7.4921122462
 11
6.22549114
 21
7.5023437193
  0
LINE
  5
27A
100
AcDbEntity
  8
0
100
AcDbLine
 62
7
  6
CONTINUOUS
 10
6.142661867
 20
6.4897387951
 11
6.13352107
 21
6.3828753283
  0
LINE
  5
27B
100
AcDbEntity
  8
0
100
AcDbLine
 62
7
  6
CONTINUOUS
 10
6.1434465721
 20
6.496395594
 11
6.142661867
 21
6.4897387951
  0
LINE
  5
27C
100
AcDbEntity
  8
0
100
AcDbLine
 62
7
  6
CONTINUOUS
 10
-18.1326835014
 20
-0.1538330283
 11
-18.3836101039
 21
-0.2751700678
  0
LINE
  5
27D
100
AcDbEntity
  8
0
100
AcDbLine
 62
7
  6
CONTINUOUS
 10
6.2074394362
 20
7.6825401026
 11
6.1218971156
 21
7.9201376513
  0
LINE
  5
27E
100
AcDbEntity
  8
0
100
AcDbLine
 62
7
  6
CONTINUOUS
 10
6.3311144111
 20
4.8571626876
 11
6.1660164711
 21
5.8668514785
  0
LINE
  5
27F
100
AcDbEntity
  8
0
100
AcDbLine
 62
7
  6
CONTINUOUS
 10
6.2248145399
 20
6.80730356
 11
6.22549114
 21
6.8103879125
  0
LINE
  5
280
100
AcDbEntity
  8
0
100
AcDbLine
 62
7
  6
CONTINUOUS
 10
6.1440868604
 20
6.4952471686
 11
6.142661867
 21
6.4897387951
  0
LINE
  5
281
100
AcDbEntity
  8
0
100
AcDbLine
 62
7
  6
CONTINUOUS
 10
6.980566714
 20
6.591040914
 11
7.0182250029
 21
6.5671858639
  0
LINE
  5
282
100
AcDbEntity
  8
0
100
AcDbLine
 62
7
  6
CONTINUOUS
 10
6.1218971156
 20
7.9201376513
 11
5.9692074464
 21
8.1256043067
  0
LINE
  5
283
100
AcDbEntity
  8
0
100
AcDbLine
 62
7
  6
CONTINUOUS
 10
-28.4105346779
 20
-26.5583553245
 11
-28.4896000977
 21
-26.6388825396
  0
LINE
  5
284
100
AcDbEntity
  8
0
100
AcDbLine
 62
7
  6
CONTINUOUS
 10
-17.8763405114
 20
-0.1078243928
 11
-18.1326835014
 21
-0.1538330283
  0
LINE
  5
285
100
AcDbEntity
  8
0
100
AcDbLine
 62
7
  6
CONTINUOUS
 10
7.0257914495
 20
6.5766724033
 11
6.9807113619
 21
6.5909334111
  0
LINE
  5
286
100
AcDbEntity
  8
0
100
AcDbLine
 62
7
  6
CONTINUOUS
 10
7.02569369
 20
6.5764398358
 11
6.9807113619
 21
6.5909334111
  0
LINE
  5
287
100
AcDbEntity
  8
0
100
AcDbLine
 62
7
  6
CONTINUOUS
 10
6.238502478
 20
6.9192368007
 11
6.2636294966
 21
6.9106501605
  0
LINE
  5
288
100
AcDbEntity
  8
0
100
AcDbLine
 62
7
  6
CONTINUOUS
 10
6.22549114
 20
6.8893064999
 11
6.2504475367
 21
6.8804059081
  0
LINE
  5
289
100
AcDbEntity
  8
0
100
AcDbLine
 62
7
  6
CONTINUOUS
 10
6.2311318476
 20
6.9527994234
 11
6.2635120876
 21
6.9411160483
  0
LINE
  5
28A
100
AcDbEntity
  8
0
100
AcDbLine
 62
7
  6
CONTINUOUS
 10
9.2702052436
 20
5.7365488003
 11
9.203527597
 21
5.7653582626
  0
LINE
  5
28B
100
AcDbEntity
  8
0
100
AcDbLine
 62
7
  6
CONTINUOUS
 10
9.2531882393
 20
5.7019174116
 11
9.1868290274
 21
5.731218816
  0
LINE
  5
28C
100
AcDbEntity
  8
0
100
AcDbLine
 62
7
  6
CONTINUOUS
 10
6.980566714
 20
6.591040914
 11
7.0188997031
 21
6.5686547332
  0
LINE
  5
28D
100
AcDbEntity
  8
0
100
AcDbLine
 62
7
  6
CONTINUOUS
 10
11.7892830071
 20
4.4556988017
 11
11.6992462911
 21
4.5083686354
  0
LINE
  5
28E
100
AcDbEntity
  8
0
100
AcDbLine
 62
7
  6
CONTINUOUS
 10
11.7239223123
 20
4.4940011482
 11
15.7597175021
 21
2.0027599788
  0
LINE
  5
28F
100
AcDbEntity
  8
0
100
AcDbLine
 62
7
  6
CONTINUOUS
 10
5.9692074464
 20
8.1256043067
 11
5.7559289397
 21
8.282586045
  0
LINE
  5
290
100
AcDbEntity
  8
0
100
AcDbLine
 62
7
  6
CONTINUOUS
 10
-6.2748184745
 20
7.4873762588
 11
-6.5592336384
 21
7.5174976895
  0
LINE
  5
291
100
AcDbEntity
  8
0
100
AcDbLine
 62
7
  6
CONTINUOUS
 10
7.0273528205
 20
6.5816038488
 11
6.975885433
 21
6.5945108258
  0
LINE
  5
292
100
AcDbEntity
  8
0
100
AcDbLine
 62
7
  6
CONTINUOUS
 10
6.22549114
 20
6.9388643484
 11
6.258809303
 21
6.9295447125
  0
LINE
  5
293
100
AcDbEntity
  8
0
100
AcDbLine
 62
7
  6
CONTINUOUS
 10
71.1455582466
 20
-29.6327517843
 11
96.6504235486
 21
-44.3636672932
  0
LINE
  5
294
100
AcDbEntity
  8
0
100
AcDbLine
 62
7
  6
CONTINUOUS
 10
15.782712178
 20
1.9875331106
 11
15.7597175021
 21
2.0027599788
  0
LINE
  5
295
100
AcDbEntity
  8
0
100
AcDbLine
 62
7
  6
CONTINUOUS
 10
16.1080975927
 20
1.7433798905
 11
15.7814214211
 21
1.9883992633
  0
LINE
  5
296
100
AcDbEntity
  8
0
100
AcDbLine
 62
7
  6
CONTINUOUS
 10
5.4257754979
 20
8.3656432449
 11
5.3339862276
 21
8.3930745464
  0
LINE
  5
297
100
AcDbEntity
  8
0
100
AcDbLine
 62
7
  6
CONTINUOUS
 10
5.7559289397
 20
8.282586045
 11
5.4933838031
 21
8.3749591013
  0
LINE
  5
298
100
AcDbEntity
  8
0
100
AcDbLine
 62
7
  6
CONTINUOUS
 10
24.9852048753
 20
-1.7770412347
 11
26.6742688022
 21
-2.7525985521
  0
LINE
  5
299
100
AcDbEntity
  8
0
100
AcDbLine
 62
7
  6
CONTINUOUS
 10
5.4933838031
 20
8.3749591013
 11
5.3339962225
 21
8.3930983894
  0
LINE
  5
29A
100
AcDbEntity
  8
0
100
AcDbLine
 62
7
  6
CONTINUOUS
 10
17.1590551555
 20
0.6842136954
 11
16.1080975927
 21
1.7433798905
  0
LINE
  5
29B
100
AcDbEntity
  8
0
100
AcDbLine
 62
7
  6
CONTINUOUS
 10
-28.4105228695
 20
-26.5583870313
 11
-27.8809021685
 21
-26.0762711782
  0
LINE
  5
29C
100
AcDbEntity
  8
0
100
AcDbLine
 62
7
  6
CONTINUOUS
 10
-27.5349207446
 20
-26.2685342836
 11
-28.0679832701
 21
-26.753783242
  0
LINE
  5
29D
100
AcDbEntity
  8
0
100
AcDbLine
 62
7
  6
CONTINUOUS
 10
67.4976340895
 20
-24.6387806496
 11
72.3959194796
 21
-27.4678968709
  0
LINE
  5
29E
100
AcDbEntity
  8
0
100
AcDbLine
 62
7
  6
CONTINUOUS
 10
18.5728985458
 20
-1.0401452993
 11
17.1590551555
 21
0.6842136954
  0
LINE
  5
29F
100
AcDbEntity
  8
0
100
AcDbLine
 62
7
  6
CONTINUOUS
 10
18.9696893879
 20
-1.5477888586
 11
18.5728985458
 21
-1.0401452993
  0
LINE
  5
2A0
100
AcDbEntity
  8
0
100
AcDbLine
 62
7
  6
CONTINUOUS
 10
29.1174167709
 20
-0.6693625611
 11
30.8064806978
 21
-1.644919881
  0
LINE
  5
2A1
100
AcDbEntity
  8
0
100
AcDbLine
 62
7
  6
CONTINUOUS
 10
-3.24651446
 20
7.3288057326
 11
-3.4947522439
 21
7.2607505398
  0
LINE
  5
2A2
100
AcDbEntity
  8
0
100
AcDbLine
 62
7
  6
CONTINUOUS
 10
-6.5592336384
 20
7.5174976895
 11
-6.8659391998
 21
7.4555264444
  0
LINE
  5
2A3
100
AcDbEntity
  8
0
100
AcDbLine
 62
7
  6
CONTINUOUS
 10
-25.8804849705
 20
-12.5156135574
 11
-26.0881003312
 21
-12.6011449535
  0
LINE
  5
2A4
100
AcDbEntity
  8
0
100
AcDbLine
 62
7
  6
CONTINUOUS
 10
27.0024291619
 20
-5.8475780746
 11
26.5301914831
 21
-5.1340459939
  0
LINE
  5
2A5
100
AcDbEntity
  8
0
100
AcDbLine
 62
7
  6
CONTINUOUS
 10
26.6742688022
 20
-2.7525985521
 11
27.0588087012
 21
-3.294383021
  0
LINE
  5
2A6
100
AcDbEntity
  8
0
100
AcDbLine
 62
7
  6
CONTINUOUS
 10
25.6314928182
 20
-14.2124230594
 11
24.9852048753
 21
-1.7770412347
  0
LINE
  5
2A7
100
AcDbEntity
  8
0
100
AcDbLine
 62
7
  6
CONTINUOUS
 10
26.5301914831
 20
-5.1340459939
 11
27.0444227177
 21
-15.0284928826
  0
LINE
  5
2A8
100
AcDbEntity
  8
0
100
AcDbLine
 62
7
  6
CONTINUOUS
 10
79.916978372
 20
-95.7630945348
 11
79.916978372
 21
-98.5747273545
  0
LINE
  5
2A9
100
AcDbEntity
  8
0
100
AcDbLine
 62
7
  6
CONTINUOUS
 10
84.8756326431
 20
-97.2455129466
 11
84.8756326431
 21
-94.4338801269
  0
LINE
  5
2AA
100
AcDbEntity
  8
0
100
AcDbLine
 62
7
  6
CONTINUOUS
 10
26.6286400035
 20
-40.4127614942
 11
26.6361099936
 21
-40.3967397559
  0
LINE
  5
2AB
100
AcDbEntity
  8
0
100
AcDbLine
 62
7
  6
CONTINUOUS
 10
29.7191448003
 20
-35.0588238404
 11
29.7270703446
 21
-35.0475130198
  0
LINE
  5
2AC
100
AcDbEntity
  8
0
100
AcDbLine
 62
7
  6
CONTINUOUS
 10
31.1910205942
 20
-2.1867043499
 11
30.8064806978
 21
-1.644919881
  0
LINE
  5
2AD
100
AcDbEntity
  8
0
100
AcDbLine
 62
7
  6
CONTINUOUS
 10
31.9833563374
 20
-17.881086418
 11
31.5762144111
 21
-16.2403804843
  0
LINE
  5
2AE
100
AcDbEntity
  8
0
100
AcDbLine
 62
7
  6
CONTINUOUS
 10
33.3871905529
 20
-18.0968842439
 11
33.5308094173
 21
-18.7748531699
  0
LINE
  5
2AF
100
AcDbEntity
  8
0
100
AcDbLine
 62
7
  6
CONTINUOUS
 10
37.6630213129
 20
-17.6671744963
 11
37.5194024485
 21
-16.9892055703
  0
ARC
  5
2B0
100
AcDbEntity
  8
0
100
AcDbCircle
 62
7
  6
CONTINUOUS
 10
-588.4413837072
 20
-464.9669212311
 40
763.907129442
100
AcDbArc
 50
37.21142804
 51
37.3417107773
  0
ARC
  5
2B1
100
AcDbEntity
  8
0
100
AcDbCircle
 62
7
  6
CONTINUOUS
 10
-128.7370416699
 20
-114.4403818106
 40
185.809534461
100
AcDbArc
 50
37.3915974717
 51
37.5863366587
  0
ARC
  5
2B2
100
AcDbEntity
  8
0
100
AcDbCircle
 62
7
  6
CONTINUOUS
 10
-34.0447651036
 20
-69.4494758286
 40
86.5807902823
100
AcDbArc
 50
46.8588001899
 51
53.1601504767
  0
ARC
  5
2B3
100
AcDbEntity
  8
0
100
AcDbCircle
 62
7
  6
CONTINUOUS
 10
-24.0178230621
 20
-39.4505482371
 40
0.3602168716
100
AcDbArc
 50
220.4999755462
 51
225.9147558931
  0
ARC
  5
2B4
100
AcDbEntity
  8
0
100
AcDbCircle
 62
7
  6
CONTINUOUS
 10
23.7950244363
 20
-31.5918914093
 40
52.502990211
100
AcDbArc
 50
143.9564687315
 51
154.7806025874
  0
ARC
  5
2B5
100
AcDbEntity
  8
0
100
AcDbCircle
 62
7
  6
CONTINUOUS
 10
23.5655407677
 20
-31.4604908492
 40
52.3593979785
100
AcDbArc
 50
143.9294065123
 51
154.7992988592
  0
ARC
  5
2B6
100
AcDbEntity
  8
0
100
AcDbCircle
 62
7
  6
CONTINUOUS
 10
23.4293539586
 20
-31.4167122524
 40
52.097533153
100
AcDbArc
 50
154.7835441191
 51
155.5105399569
  0
ARC
  5
2B7
100
AcDbEntity
  8
0
100
AcDbCircle
 62
7
  6
CONTINUOUS
 10
22.8407522122
 20
-31.1680723636
 40
51.4581610179
100
AcDbArc
 50
155.9931795491
 51
157.2924888941
  0
ARC
  5
2B8
100
AcDbEntity
  8
0
100
AcDbCircle
 62
7
  6
CONTINUOUS
 10
17.263456966
 20
-33.9894922224
 40
47.9467083888
100
AcDbArc
 50
132.8308868234
 51
134.1930454246
  0
ARC
  5
2B9
100
AcDbEntity
  8
0
100
AcDbCircle
 62
7
  6
CONTINUOUS
 10
16.9922692534
 20
-33.6783484404
 40
47.5346564951
100
AcDbArc
 50
131.8908873236
 51
132.3176767907
  0
ARC
  5
2BA
100
AcDbEntity
  8
0
100
AcDbCircle
 62
7
  6
CONTINUOUS
 10
58.7525573633
 20
-55.3870293155
 40
35.4425586855
100
AcDbArc
 50
145.0015997905
 51
154.9792778373
  0
ARC
  5
2BB
100
AcDbEntity
  8
0
100
AcDbCircle
 62
7
  6
CONTINUOUS
 10
45.0267984446
 20
-47.4477475131
 40
32.701396276
100
AcDbArc
 50
332.2871485019
 51
335.5027042248
  0
ARC
  5
2BC
100
AcDbEntity
  8
0
100
AcDbCircle
 62
7
  6
CONTINUOUS
 10
45.5364080273
 20
-47.8537830841
 40
32.0523516813
100
AcDbArc
 50
319.4261083198
 51
321.9943988904
  0
ARC
  5
2BD
100
AcDbEntity
  8
0
100
AcDbCircle
 62
7
  6
CONTINUOUS
 10
46.1099488894
 20
-47.8958088903
 40
31.5299885198
100
AcDbArc
 50
335.4274702903
 51
345.4070443887
  0
ARC
  5
2BE
100
AcDbEntity
  8
0
100
AcDbCircle
 62
7
  6
CONTINUOUS
 10
14.4769161307
 20
-32.6128258749
 40
26.7847505325
100
AcDbArc
 50
179.637177367
 51
179.9845860826
  0
ARC
  5
2BF
100
AcDbEntity
  8
0
100
AcDbCircle
 62
7
  6
CONTINUOUS
 10
49.4971655414
 20
-52.5682256364
 40
25.8663809316
100
AcDbArc
 50
297.8656334593
 51
302.8770199177
  0
ARC
  5
2C0
100
AcDbEntity
  8
0
100
AcDbCircle
 62
7
  6
CONTINUOUS
 10
14.7625560141
 20
-32.6636664692
 40
25.7733052808
100
AcDbArc
 50
179.6524821678
 51
179.9998587289
  0
ARC
  5
2C1
100
AcDbEntity
  8
0
100
AcDbCircle
 62
7
  6
CONTINUOUS
 10
52.2276964507
 20
-48.7758624617
 40
25.3248673588
100
AcDbArc
 50
358.5245733841
 51
2.1149851528
  0
ARC
  5
2C2
100
AcDbEntity
  8
0
100
AcDbCircle
 62
7
  6
CONTINUOUS
 10
61.4168865508
 20
-46.3988106194
 40
22.2809341249
100
AcDbArc
 50
92.7932286591
 51
95.9678346566
  0
ARC
  5
2C3
100
AcDbEntity
  8
0
100
AcDbCircle
 62
7
  6
CONTINUOUS
 10
61.3654212384
 20
-45.305005662
 40
21.1859208056
100
AcDbArc
 50
86.2451730191
 51
92.798363931
  0
ARC
  5
2C4
100
AcDbEntity
  8
0
100
AcDbCircle
 62
7
  6
CONTINUOUS
 10
49.7864006144
 20
-43.4871565367
 40
21.0480210332
100
AcDbArc
 50
102.1432200969
 51
105.0099619805
  0
ARC
  5
2C5
100
AcDbEntity
  8
0
100
AcDbCircle
 62
7
  6
CONTINUOUS
 10
61.4225105731
 20
-44.1547492731
 40
20.0344033373
100
AcDbArc
 50
82.1275741147
 51
86.1926650123
  0
ARC
  5
2C6
100
AcDbEntity
  8
0
100
AcDbCircle
 62
7
  6
CONTINUOUS
 10
61.5269526172
 20
-43.3887645542
 40
19.2613325009
100
AcDbArc
 50
75.8183808978
 51
82.1232384375
  0
ARC
  5
2C7
100
AcDbEntity
  8
0
100
AcDbCircle
 62
7
  6
CONTINUOUS
 10
61.689800549
 20
-42.7009735752
 40
18.5546085321
100
AcDbArc
 50
71.2330302316
 51
75.7855827652
  0
ARC
  5
2C8
100
AcDbEntity
  8
0
100
AcDbCircle
 62
7
  6
CONTINUOUS
 10
61.8148341115
 20
-42.3281646535
 40
18.1613943172
100
AcDbArc
 50
64.5789401045
 51
71.2281279192
  0
ARC
  5
2C9
100
AcDbEntity
  8
0
100
AcDbCircle
 62
7
  6
CONTINUOUS
 10
63.402315285
 20
-43.0504618729
 40
17.9918611739
100
AcDbArc
 50
65.5929805456
 51
66.2021733295
  0
ARC
  5
2CA
100
AcDbEntity
  8
0
100
AcDbCircle
 62
7
  6
CONTINUOUS
 10
50.3865838083
 20
-65.5848558972
 40
17.9852335367
100
AcDbArc
 50
234.0051433882
 51
234.3867338682
  0
ARC
  5
2CB
100
AcDbEntity
  8
0
100
AcDbCircle
 62
7
  6
CONTINUOUS
 10
48.8553029465
 20
-64.7206706838
 40
17.967505279
100
AcDbArc
 50
233.4058298377
 51
239.9826026642
  0
ARC
  5
2CC
100
AcDbEntity
  8
0
100
AcDbCircle
 62
7
  6
CONTINUOUS
 10
63.4205957082
 20
-43.0103498474
 40
17.9477800708
100
AcDbArc
 50
59.994790236
 51
65.5932098454
  0
ARC
  5
2CD
100
AcDbEntity
  8
0
100
AcDbCircle
 62
7
  6
CONTINUOUS
 10
50.363155082
 20
-65.6176753439
 40
17.9449096346
100
AcDbArc
 50
234.3865283229
 51
239.9862690981
  0
ARC
  5
2CE
100
AcDbEntity
  8
0
100
AcDbCircle
 62
7
  6
CONTINUOUS
 10
61.9144315679
 20
-42.105302605
 40
17.9173573072
100
AcDbArc
 50
59.9902914641
 51
64.5606706578
  0
ARC
  5
2CF
100
AcDbEntity
  8
0
100
AcDbCircle
 62
7
  6
CONTINUOUS
 10
62.8936660534
 20
-43.9224608883
 40
16.5011572821
100
AcDbArc
 50
59.9948134398
 51
65.8693992573
  0
ARC
  5
2D0
100
AcDbEntity
  8
0
100
AcDbCircle
 62
7
  6
CONTINUOUS
 10
50.8880738188
 20
-64.7082178613
 40
16.4949727682
100
AcDbArc
 50
234.100283942
 51
239.9869826444
  0
ARC
  5
2D1
100
AcDbEntity
  8
0
100
AcDbCircle
 62
7
  6
CONTINUOUS
 10
4.0723505263
 20
-35.4911238445
 40
16.0285579987
100
AcDbArc
 50
253.1425317051
 51
254.538194303
  0
ARC
  5
2D2
100
AcDbEntity
  8
0
100
AcDbCircle
 62
7
  6
CONTINUOUS
 10
3.8860780896
 20
-36.0950974016
 40
15.396518803
100
AcDbArc
 50
248.2147045248
 51
253.1543006843
  0
ARC
  5
2D3
100
AcDbEntity
  8
0
100
AcDbCircle
 62
7
  6
CONTINUOUS
 10
3.8322888094
 20
-36.2319254312
 40
15.2495001105
100
AcDbArc
 50
246.7332644767
 51
248.2115739543
  0
ARC
  5
2D4
100
AcDbEntity
  8
0
100
AcDbCircle
 62
7
  6
CONTINUOUS
 10
3.81017831
 20
-36.2836046776
 40
15.1932897175
100
AcDbArc
 50
245.7682084443
 51
246.7328815127
  0
ARC
  5
2D5
100
AcDbEntity
  8
0
100
AcDbCircle
 62
7
  6
CONTINUOUS
 10
4.4700075974
 20
-36.2638380065
 40
14.5104308724
100
AcDbArc
 50
239.9915630273
 51
244.9115701957
  0
ARC
  5
2D6
100
AcDbEntity
  8
0
100
AcDbCircle
 62
7
  6
CONTINUOUS
 10
81.6432432024
 20
-80.5104686571
 40
4.1291668801
100
AcDbArc
 50
178.6573786595
 51
179.9979196359
  0
ARC
  5
2D7
100
AcDbEntity
  8
0
100
AcDbCircle
 62
7
  6
CONTINUOUS
 10
-14.6616725186
 20
-45.6200031346
 40
0.3517956337
100
AcDbArc
 50
248.1761883546
 51
253.762295142
  0
ARC
  5
2D8
100
AcDbEntity
  8
0
100
AcDbCircle
 62
7
  6
CONTINUOUS
 10
-1.2718826409
 20
-23.9457023101
 40
33.5705050407
100
AcDbArc
 50
28.5037459571
 51
32.6229298772
  0
ARC
  5
2D9
100
AcDbEntity
  8
0
100
AcDbCircle
 62
7
  6
CONTINUOUS
 10
0.0356402432
 20
-24.8477104806
 40
28.0480245998
100
AcDbArc
 50
179.9907706181
 51
182.5210736934
  0
ARC
  5
2DA
100
AcDbEntity
  8
0
100
AcDbCircle
 62
7
  6
CONTINUOUS
 10
-1.3362695048
 20
-21.4868668975
 40
28.0117431788
100
AcDbArc
 50
211.4511737806
 51
211.8316305284
  0
ARC
  5
2DB
100
AcDbEntity
  8
0
100
AcDbCircle
 62
7
  6
CONTINUOUS
 10
-0.4251957262
 20
-24.8661471113
 40
27.586823762
100
AcDbArc
 50
182.5249200191
 51
182.7027477155
  0
ARC
  5
2DC
100
AcDbEntity
  8
0
100
AcDbCircle
 62
7
  6
CONTINUOUS
 10
-1.2179715194
 20
-23.976327847
 40
27.4886504353
100
AcDbArc
 50
179.957788476
 51
185.4330431682
  0
ARC
  5
2DD
100
AcDbEntity
  8
0
100
AcDbCircle
 62
7
  6
CONTINUOUS
 10
-2.2094044108
 20
-22.014183341
 40
26.9920667422
100
AcDbArc
 50
210.7967301609
 51
211.0889514164
  0
ARC
  5
2DE
100
AcDbEntity
  8
0
100
AcDbCircle
 62
7
  6
CONTINUOUS
 10
-2.0337239925
 20
-24.0467746352
 40
26.6698935816
100
AcDbArc
 50
185.4483116529
 51
185.739803553
  0
ARC
  5
2DF
100
AcDbEntity
  8
0
100
AcDbCircle
 62
7
  6
CONTINUOUS
 10
-2.6270930318
 20
-22.2782050507
 40
26.4976872839
100
AcDbArc
 50
211.8499889923
 51
212.5239442558
  0
ARC
  5
2E0
100
AcDbEntity
  8
0
100
AcDbCircle
 62
7
  6
CONTINUOUS
 10
-2.7188541234
 20
-22.3367546263
 40
26.3888380782
100
AcDbArc
 50
212.5238758089
 51
213.8731847683
  0
ARC
  5
2E1
100
AcDbEntity
  8
0
100
AcDbCircle
 62
7
  6
CONTINUOUS
 10
-1.0441217147
 20
-18.4861183016
 40
26.3319432923
100
AcDbArc
 50
69.5474990762
 51
70.2995934991
  0
ARC
  5
2E2
100
AcDbEntity
  8
0
100
AcDbCircle
 62
7
  6
CONTINUOUS
 10
-0.1642576552
 20
-16.0733010089
 40
23.763798134
100
AcDbArc
 50
71.9920407028
 51
72.3883842179
  0
ARC
  5
2E3
100
AcDbEntity
  8
0
100
AcDbCircle
 62
7
  6
CONTINUOUS
 10
0.2418388402
 20
-15.6534312797
 40
23.7517250238
100
AcDbArc
 50
104.8375600258
 51
105.0474403731
  0
ARC
  5
2E4
100
AcDbEntity
  8
0
100
AcDbCircle
 62
7
  6
CONTINUOUS
 10
-0.1714082912
 20
-15.9649620384
 40
23.6679055318
100
AcDbArc
 50
66.6648963726
 51
72.2925306546
  0
ARC
  5
2E5
100
AcDbEntity
  8
0
100
AcDbCircle
 62
7
  6
CONTINUOUS
 10
-0.1186135885
 20
-15.934746521
 40
23.6179201174
100
AcDbArc
 50
70.3269194777
 51
71.9934335082
  0
ARC
  5
2E6
100
AcDbEntity
  8
0
100
AcDbCircle
 62
7
  6
CONTINUOUS
 10
-9.0606132509
 20
-21.8188931042
 40
23.4842526707
100
AcDbArc
 50
229.5398128191
 51
240.153896061
  0
ARC
  5
2E7
100
AcDbEntity
  8
0
100
AcDbCircle
 62
7
  6
CONTINUOUS
 10
-0.0580209157
 20
-15.7703274874
 40
23.4427894085
100
AcDbArc
 50
69.1651013223
 51
69.4862955854
  0
ARC
  5
2E8
100
AcDbEntity
  8
0
100
AcDbCircle
 62
7
  6
CONTINUOUS
 10
-0.0556398461
 20
-15.6956722138
 40
23.3747857497
100
AcDbArc
 50
59.8087840907
 51
66.6639922406
  0
ARC
  5
2E9
100
AcDbEntity
  8
0
100
AcDbCircle
 62
7
  6
CONTINUOUS
 10
-0.0312348453
 20
-15.7010955557
 40
23.3685574411
100
AcDbArc
 50
66.722863617
 51
69.1661074309
  0
ARC
  5
2EA
100
AcDbEntity
  8
0
100
AcDbCircle
 62
7
  6
CONTINUOUS
 10
-9.1616928176
 20
-21.996467415
 40
23.2799327187
100
AcDbArc
 50
229.5405389789
 51
240.1521738274
  0
ARC
  5
2EB
100
AcDbEntity
  8
0
100
AcDbCircle
 62
7
  6
CONTINUOUS
 10
0.0313390681
 20
-15.5566294413
 40
23.2111199175
100
AcDbArc
 50
63.2163730074
 51
66.5445303168
  0
ARC
  5
2EC
100
AcDbEntity
  8
0
100
AcDbCircle
 62
7
  6
CONTINUOUS
 10
0.0799133931
 20
-15.4583003923
 40
23.1014514754
100
AcDbArc
 50
59.8033126447
 51
63.214026094
  0
ARC
  5
2ED
100
AcDbEntity
  8
0
100
AcDbCircle
 62
7
  6
CONTINUOUS
 10
1.0938378702
 20
-15.1772849955
 40
23.0642811713
100
AcDbArc
 50
102.0752260432
 51
106.9969988659
  0
ARC
  5
2EE
100
AcDbEntity
  8
0
100
AcDbCircle
 62
7
  6
CONTINUOUS
 10
0.7765868232
 20
-13.7508633018
 40
21.6030564585
100
AcDbArc
 50
97.4924354824
 51
102.0438501442
  0
ARC
  5
2EF
100
AcDbEntity
  8
0
100
AcDbCircle
 62
7
  6
CONTINUOUS
 10
-8.6811980432
 20
-26.2363065604
 40
19.5990176548
100
AcDbArc
 50
212.6902627184
 51
216.6259944336
  0
ARC
  5
2F0
100
AcDbEntity
  8
0
100
AcDbCircle
 62
7
  6
CONTINUOUS
 10
-8.1822146444
 20
-26.8086421595
 40
19.5285329571
100
AcDbArc
 50
204.6375049468
 51
210.4293873072
  0
ARC
  5
2F1
100
AcDbEntity
  8
0
100
AcDbCircle
 62
7
  6
CONTINUOUS
 10
-8.871287912
 20
-26.3757457278
 40
19.3632737981
100
AcDbArc
 50
216.6304301492
 51
216.8517435847
  0
ARC
  5
2F2
100
AcDbEntity
  8
0
100
AcDbCircle
 62
7
  6
CONTINUOUS
 10
-9.0099541497
 20
-27.2974748343
 40
18.5672293298
100
AcDbArc
 50
210.4223896067
 51
214.5811236754
  0
ARC
  5
2F3
100
AcDbEntity
  8
0
100
AcDbCircle
 62
7
  6
CONTINUOUS
 10
0.123963747
 20
-10.0247393113
 40
18.0425691624
100
AcDbArc
 50
67.4212567323
 51
70.1059885521
  0
ARC
  5
2F4
100
AcDbEntity
  8
0
100
AcDbCircle
 62
7
  6
CONTINUOUS
 10
0.1409942565
 20
-9.9828244421
 40
17.9973280439
100
AcDbArc
 50
66.9492224521
 51
67.4200846564
  0
ARC
  5
2F5
100
AcDbEntity
  8
0
100
AcDbCircle
 62
7
  6
CONTINUOUS
 10
0.9247490999
 20
-8.6737935804
 40
16.4735706698
100
AcDbArc
 50
68.1951382646
 51
71.0896918005
  0
ARC
  5
2F6
100
AcDbEntity
  8
0
100
AcDbCircle
 62
7
  6
CONTINUOUS
 10
0.9812061676
 20
-8.5313824555
 40
16.3203776665
100
AcDbArc
 50
66.0421329285
 51
68.1934519925
  0
ARC
  5
2F7
100
AcDbEntity
  8
0
100
AcDbCircle
 62
7
  6
CONTINUOUS
 10
-6.3822123389
 20
6.7008991754
 40
0.690525035
100
AcDbArc
 50
37.2454182611
 51
47.7317144589
  0
ARC
  5
2F8
100
AcDbEntity
  8
0
100
AcDbCircle
 62
7
  6
CONTINUOUS
 10
-6.3595091001
 20
6.7187609227
 40
0.6616418136
100
AcDbArc
 50
29.1235496873
 51
37.2040110694
  0
ARC
  5
2F9
100
AcDbEntity
  8
0
100
AcDbCircle
 62
7
  6
CONTINUOUS
 10
12.0782953933
 20
-23.5351960318
 40
39.8344108517
100
AcDbArc
 50
180.5739022345
 51
182.1152225234
  0
ARC
  5
2FA
100
AcDbEntity
  8
0
100
AcDbCircle
 62
7
  6
CONTINUOUS
 10
8.6027579476
 20
-26.4221870878
 40
36.8347253271
100
AcDbArc
 50
149.0524113675
 51
151.9708114161
  0
ARC
  5
2FB
100
AcDbEntity
  8
0
100
AcDbCircle
 62
7
  6
CONTINUOUS
 10
8.3256996015
 20
-26.2814616848
 40
36.5240342467
100
AcDbArc
 50
151.9614365643
 51
157.4528460221
  0
ARC
  5
2FC
100
AcDbEntity
  8
0
100
AcDbCircle
 62
7
  6
CONTINUOUS
 10
7.9735669708
 20
-26.1319248109
 40
36.141478296
100
AcDbArc
 50
157.4577349795
 51
157.6616389504
  0
ARC
  5
2FD
100
AcDbEntity
  8
0
100
AcDbCircle
 62
7
  6
CONTINUOUS
 10
6.4796800043
 20
-24.6142002314
 40
34.0404706007
100
AcDbArc
 50
134.08203333
 51
134.3028071697
  0
ARC
  5
2FE
100
AcDbEntity
  8
0
100
AcDbCircle
 62
7
  6
CONTINUOUS
 10
5.504789
 20
-25.338107417
 40
33.8182980453
100
AcDbArc
 50
105.4331901953
 51
105.6537673314
  0
ARC
  5
2FF
100
AcDbEntity
  8
0
100
AcDbCircle
 62
7
  6
CONTINUOUS
 10
5.3972431471
 20
-24.9185142379
 40
33.3852506614
100
AcDbArc
 50
105.6703443957
 51
107.4053467184
  0
ARC
  5
300
100
AcDbEntity
  8
0
100
AcDbCircle
 62
7
  6
CONTINUOUS
 10
5.943297201
 20
-24.0502028961
 40
33.2621721242
100
AcDbArc
 50
128.7708315267
 51
134.0941916266
  0
ARC
  5
301
100
AcDbEntity
  8
0
100
AcDbCircle
 62
7
  6
CONTINUOUS
 10
4.8757317974
 20
-22.7519552056
 40
31.5814734359
100
AcDbArc
 50
125.4973609367
 51
128.7357028973
  0
ARC
  5
302
100
AcDbEntity
  8
0
100
AcDbCircle
 62
7
  6
CONTINUOUS
 10
1.772007154
 20
-24.8564434477
 40
29.7843940938
100
AcDbArc
 50
173.1818826931
 51
179.9745091957
  0
ARC
  5
303
100
AcDbEntity
  8
0
100
AcDbCircle
 62
7
  6
CONTINUOUS
 10
4.5073116402
 20
-18.3574907357
 40
26.7389129483
100
AcDbArc
 50
88.0315409015
 51
88.2249868577
  0
ARC
  5
304
100
AcDbEntity
  8
0
100
AcDbCircle
 62
7
  6
CONTINUOUS
 10
11.8111777817
 20
6.523274951
 40
5.6812662905
100
AcDbArc
 50
177.0409389429
 51
180.0146420918
  0
ARC
  5
305
100
AcDbEntity
  8
0
100
AcDbCircle
 62
7
  6
CONTINUOUS
 10
11.1525917938
 20
6.5526019485
 40
5.022046692
100
AcDbArc
 50
175.7735843897
 51
176.9872044171
  0
ARC
  5
306
100
AcDbEntity
  8
0
100
AcDbCircle
 62
7
  6
CONTINUOUS
 10
7.7082000034
 20
6.3088224665
 40
1.5759558956
100
AcDbArc
 50
172.2288941315
 51
173.1643480069
  0
ARC
  5
307
100
AcDbEntity
  8
0
100
AcDbCircle
 62
7
  6
CONTINUOUS
 10
5.3465067639
 20
7.4964309219
 40
0.8783494803
100
AcDbArc
 50
359.7179035975
 51
0.3950353459
  0
ARC
  5
308
100
AcDbEntity
  8
0
100
AcDbCircle
 62
7
  6
CONTINUOUS
 10
5.3536988044
 20
7.4966854629
 40
0.8711558802
100
AcDbArc
 50
0.3815559608
 51
14.8745710643
  0
ARC
  5
309
100
AcDbEntity
  8
0
100
AcDbCircle
 62
7
  6
CONTINUOUS
 10
5.3774653228
 20
7.5019657622
 40
0.8468308895
100
AcDbArc
 50
14.9420676452
 51
18.0488797162
  0
ARC
  5
30A
100
AcDbEntity
  8
0
100
AcDbCircle
 62
7
  6
CONTINUOUS
 10
33.3487284429
 20
-0.2689074489
 40
68.6719311014
100
AcDbArc
 50
211.3065817341
 51
211.4537373043
  0
ARC
  5
30B
100
AcDbEntity
  8
0
100
AcDbCircle
 62
7
  6
CONTINUOUS
 10
17.8070911162
 20
9.1128536022
 40
59.5707573302
100
AcDbArc
 50
238.0894490342
 51
242.602513669
  0
ARC
  5
30C
100
AcDbEntity
  8
0
100
AcDbCircle
 62
7
  6
CONTINUOUS
 10
16.2434807687
 20
4.2927285637
 40
46.7091384053
100
AcDbArc
 50
226.3680328265
 51
232.0181500971
  0
ARC
  5
30D
100
AcDbEntity
  8
0
100
AcDbCircle
 62
7
  6
CONTINUOUS
 10
13.1662505757
 20
-23.5144155069
 40
40.9229826802
100
AcDbArc
 50
179.6944421496
 51
180.0054543231
  0
ARC
  5
30E
100
AcDbEntity
  8
0
100
AcDbCircle
 62
7
  6
CONTINUOUS
 10
12.9225918886
 20
-27.9759530278
 40
40.5147134916
100
AcDbArc
 50
119.326048965
 51
119.4781088897
  0
ARC
  5
30F
100
AcDbEntity
  8
0
100
AcDbCircle
 62
7
  6
CONTINUOUS
 10
13.4255066206
 20
-1.7483573322
 40
40.0500917666
100
AcDbArc
 50
204.3480133145
 51
205.1666817575
  0
ARC
  5
310
100
AcDbEntity
  8
0
100
AcDbCircle
 62
7
  6
CONTINUOUS
 10
19.6391342771
 20
7.0324696451
 40
39.6314658093
100
AcDbArc
 50
216.2080003879
 51
222.4453156722
  0
ARC
  5
311
100
AcDbEntity
  8
0
100
AcDbCircle
 62
7
  6
CONTINUOUS
 10
14.2271900795
 20
-17.9312961829
 40
15.9811845349
100
AcDbArc
 50
46.5044917499
 51
46.839347239
  0
ARC
  5
312
100
AcDbEntity
  8
0
100
AcDbCircle
 62
7
  6
CONTINUOUS
 10
15.0603062466
 20
-17.9278147116
 40
14.5148968122
100
AcDbArc
 50
54.7377608089
 51
59.9890130563
  0
ARC
  5
313
100
AcDbEntity
  8
0
100
AcDbCircle
 62
7
  6
CONTINUOUS
 10
14.9240987136
 20
55.9292573479
 40
105.57082534
100
AcDbArc
 50
253.496945139
 51
253.8284865235
  0
ARC
  5
314
100
AcDbEntity
  8
0
100
AcDbCircle
 62
7
  6
CONTINUOUS
 10
28.4494934788
 20
40.8978783759
 40
96.198010743
100
AcDbArc
 50
251.2840688691
 51
251.537578102
  0
ARC
  5
315
100
AcDbEntity
  8
0
100
AcDbCircle
 62
7
  6
CONTINUOUS
 10
26.5185512727
 20
40.4480667812
 40
95.1993186917
100
AcDbArc
 50
240.2485415675
 51
241.4244520889
  0
ARC
  5
316
100
AcDbEntity
  8
0
100
AcDbCircle
 62
7
  6
CONTINUOUS
 10
26.1584917159
 20
39.7705011234
 40
94.4320668911
100
AcDbArc
 50
241.4196639563
 51
250.0628384463
  0
ARC
  5
317
100
AcDbEntity
  8
0
100
AcDbCircle
 62
7
  6
CONTINUOUS
 10
26.0531854952
 20
39.5272199691
 40
94.1674614717
100
AcDbArc
 50
250.2407095246
 51
252.4846861474
  0
ARC
  5
318
100
AcDbEntity
  8
0
100
AcDbCircle
 62
7
  6
CONTINUOUS
 10
25.8251582983
 20
38.7967735687
 40
93.4017329625
100
AcDbArc
 50
252.5326539246
 51
252.7734903483
  0
ARC
  5
319
100
AcDbEntity
  8
0
100
AcDbCircle
 62
7
  6
CONTINUOUS
 10
25.6999526
 20
38.4053747808
 40
92.9907987678
100
AcDbArc
 50
250.2133552822
 51
252.4856998998
  0
ARC
  5
31A
100
AcDbEntity
  8
0
100
AcDbCircle
 62
7
  6
CONTINUOUS
 10
25.2560271429
 20
37.1453638235
 40
91.654902636
100
AcDbArc
 50
250.0340955551
 51
250.2078409433
  0
ARC
  5
31B
100
AcDbEntity
  8
0
100
AcDbCircle
 62
7
  6
CONTINUOUS
 10
24.3676486834
 20
31.4412824885
 40
85.9703912034
100
AcDbArc
 50
251.0800410306
 51
251.9895610418
  0
ARC
  5
31C
100
AcDbEntity
  8
0
100
AcDbCircle
 62
7
  6
CONTINUOUS
 10
24.2764952234
 20
31.162572698
 40
85.6771543756
100
AcDbArc
 50
251.9899038411
 51
252.25343348
  0
ARC
  5
31D
100
AcDbEntity
  8
0
100
AcDbCircle
 62
7
  6
CONTINUOUS
 10
24.1734523307
 20
30.8384629906
 40
85.337059516
100
AcDbArc
 50
252.2529960722
 51
253.1409880781
  0
ARC
  5
31E
100
AcDbEntity
  8
0
100
AcDbCircle
 62
7
  6
CONTINUOUS
 10
21.5793237394
 20
20.8111998549
 40
74.9690440672
100
AcDbArc
 50
248.7165931378
 51
251.3311033569
  0
ARC
  5
31F
100
AcDbEntity
  8
0
100
AcDbCircle
 62
7
  6
CONTINUOUS
 10
17.329713181
 20
20.4340562886
 40
73.135458565
100
AcDbArc
 50
238.718485353
 51
240.2479448697
  0
ARC
  5
320
100
AcDbEntity
  8
0
100
AcDbCircle
 62
7
  6
CONTINUOUS
 10
20.5363967752
 20
18.1003256297
 40
72.0644992057
100
AcDbArc
 50
248.3930299516
 51
248.7068923218
  0
ARC
  5
321
100
AcDbEntity
  8
0
100
AcDbCircle
 62
7
  6
CONTINUOUS
 10
19.076081263
 20
17.3529814272
 40
70.9214425434
100
AcDbArc
 50
252.5323712105
 51
252.8288760431
  0
ARC
  5
322
100
AcDbEntity
  8
0
100
AcDbCircle
 62
7
  6
CONTINUOUS
 10
14.8184362122
 20
16.3329519382
 40
68.3265339613
100
AcDbArc
 50
235.1032205033
 51
238.5975392184
  0
SPLINE
  5
323
100
AcDbEntity
  8
0
100
AcDbSpline
 62
7
  6
CONTINUOUS
 70
0
 71
3
 72
15
 73
11
 74
0
 42
0.0000001
 43
0.0000001
 44
0.0000000001
 40
0.0
 40
0.0
 40
0.0
 40
0.0
 40
0.1238672073
 40
0.2478089714
 40
0.3719927662
 40
0.4967427528
 40
0.6223003087
 40
0.7484651522
 40
0.8745614025
 40
1.0
 40
1.0
 40
1.0
 40
1.0
 10
88.2662590013
 20
-62.586473324
 30
0.0
 10
88.4843033607
 20
-62.7123345049
 30
0.0
 10
88.9606667997
 20
-62.9007398634
 30
0.0
 10
89.7239769825
 20
-62.9655950245
 30
0.0
 10
90.4768230307
 20
-62.8163807662
 30
0.0
 10
91.1659588407
 20
-62.4739142908
 30
0.0
 10
91.7520699595
 20
-61.9705022877
 30
0.0
 10
92.2055655321
 20
-61.3421074714
 30
0.0
 10
92.5028030326
 20
-60.6271502043
 30
0.0
 10
92.5833853048
 20
-60.1161974111
 30
0.0
 10
92.5913177756
 20
-59.8613644156
 30
0.0
  0
SPLINE
  5
324
100
AcDbEntity
  8
0
100
AcDbSpline
 62
7
  6
CONTINUOUS
 70
0
 71
3
 72
11
 73
7
 74
0
 42
0.0000001
 43
0.0000001
 44
0.0000000001
 40
0.0
 40
0.0
 40
0.0
 40
0.0
 40
0.2510433471
 40
0.5010112938
 40
0.7505501143
 40
1.0
 40
1.0
 40
1.0
 40
1.0
 10
92.5913192843
 20
-59.8613159067
 30
0.0
 10
92.5989613696
 20
-59.6156855089
 30
0.0
 10
92.5544527134
 20
-59.1212117176
 30
0.0
 10
92.300291934
 20
-58.4227955757
 30
0.0
 10
91.8681010127
 20
-57.8192288809
 30
0.0
 10
91.4779205155
 20
-57.5125161161
 30
0.0
 10
91.2664350507
 20
-57.3904409069
 30
0.0
  0
SPLINE
  5
325
100
AcDbEntity
  8
0
100
AcDbSpline
 62
7
  6
CONTINUOUS
 70
0
 71
3
 72
18
 73
14
 74
0
 42
0.0000001
 43
0.0000001
 44
0.0000000001
 40
0.0
 40
0.0
 40
0.0
 40
0.0
 40
0.1360537463
 40
0.2770825724
 40
0.4142499753
 40
0.5403862092
 40
0.598847809
 40
0.6546152469
 40
0.7087616678
 40
0.7627103073
 40
0.817931143
 40
0.8755947806
 40
1.0
 40
1.0
 40
1.0
 40
1.0
 10
91.7183328388
 20
-60.44951122
 30
0.0
 10
91.7144286023
 20
-60.5748950053
 30
0.0
 10
91.6607218567
 20
-60.8299765754
 30
0.0
 10
91.473309971
 20
-61.168653325
 30
0.0
 10
91.2024900757
 20
-61.4330111961
 30
0.0
 10
90.9271790871
 20
-61.562871866
 30
0.0
 10
90.7055964645
 20
-61.5905650466
 30
0.0
 10
90.5497056206
 20
-61.5738594691
 30
0.0
 10
90.4066511213
 20
-61.5202598888
 30
0.0
 10
90.2826917604
 20
-61.4318078736
 30
0.0
 10
90.1831690867
 20
-61.3123999362
 30
0.0
 10
90.0856406711
 20
-61.1147957137
 30
0.0
 10
90.0628783113
 20
-60.9427949502
 30
0.0
 10
90.0664464525
 20
-60.8281461041
 30
0.0
  0
SPLINE
  5
326
100
AcDbEntity
  8
0
100
AcDbSpline
 62
7
  6
CONTINUOUS
 70
0
 71
3
 72
18
 73
14
 74
0
 42
0.0000001
 43
0.0000001
 44
0.0000000001
 40
0.0
 40
0.0
 40
0.0
 40
0.0
 40
0.1360537463
 40
0.2770825724
 40
0.4142499753
 40
0.5403862092
 40
0.598847809
 40
0.6546152469
 40
0.7087616678
 40
0.7627103073
 40
0.817931143
 40
0.8755947806
 40
1.0
 40
1.0
 40
1.0
 40
1.0
 10
90.0664464525
 20
-60.8281461041
 30
0.0
 10
90.0703506865
 20
-60.7027623162
 30
0.0
 10
90.1240574345
 20
-60.4476807461
 30
0.0
 10
90.3114693178
 20
-60.1090039991
 30
0.0
 10
90.5822892155
 20
-59.8446461254
 30
0.0
 10
90.8576002042
 20
-59.7147854581
 30
0.0
 10
91.0791828268
 20
-59.6870922775
 30
0.0
 10
91.2350736707
 20
-59.7037978524
 30
0.0
 10
91.37812817
 20
-59.7573974328
 30
0.0
 10
91.5020875283
 20
-59.8458494504
 30
0.0
 10
91.6016102046
 20
-59.9652573854
 30
0.0
 10
91.6991386201
 20
-60.1628616079
 30
0.0
 10
91.72190098
 20
-60.3348623713
 30
0.0
 10
91.7183328388
 20
-60.44951122
 30
0.0
  0
SPLINE
  5
327
100
AcDbEntity
  8
0
100
AcDbSpline
 62
7
  6
CONTINUOUS
 70
0
 71
3
 72
11
 73
7
 74
0
 42
0.0000001
 43
0.0000001
 44
0.0000000001
 40
0.0
 40
0.0
 40
0.0
 40
0.0
 40
0.2314199852
 40
0.4717820078
 40
0.7272600596
 40
1.0
 40
1.0
 40
1.0
 40
1.0
 10
88.2659207444
 20
-62.5862705482
 30
0.0
 10
88.1082709378
 20
-62.4952374638
 30
0.0
 10
87.8149083444
 20
-62.2563439284
 30
0.0
 10
87.4968566691
 20
-61.7715216824
 30
0.0
 10
87.3113626611
 20
-61.189338351
 30
0.0
 10
87.2818553262
 20
-60.7708520556
 30
0.0
 10
87.2885302303
 20
-60.5564065129
 30
0.0
  0
SPLINE
  5
328
100
AcDbEntity
  8
0
100
AcDbSpline
 62
7
  6
CONTINUOUS
 70
0
 71
3
 72
14
 73
10
 74
0
 42
0.0000001
 43
0.0000001
 44
0.0000000001
 40
0.0
 40
0.0
 40
0.0
 40
0.0
 40
0.2630665301
 40
0.3992381083
 40
0.5331438646
 40
0.6614342363
 40
0.7819099225
 40
0.8941250725
 40
1.0
 40
1.0
 40
1.0
 40
1.0
 10
87.2885302303
 20
-60.5564065129
 30
0.0
 10
87.3039574816
 20
-60.0608188249
 30
0.0
 10
87.5056631692
 20
-59.3065303919
 30
0.0
 10
88.0290629529
 20
-58.4447999056
 30
0.0
 10
88.5391620496
 20
-57.8862516704
 30
0.0
 10
89.1295779147
 20
-57.4623209079
 30
0.0
 10
89.7651594934
 20
-57.2002505227
 30
0.0
 10
90.406682122
 20
-57.1199914249
 30
0.0
 10
90.8191131894
 20
-57.1977180335
 30
0.0
 10
91.0060105957
 20
-57.2676521253
 30
0.0
  0
SPLINE
  5
329
100
AcDbEntity
  8
0
100
AcDbSpline
 62
7
  6
CONTINUOUS
 70
0
 71
3
 72
16
 73
12
 74
0
 42
0.0000001
 43
0.0000001
 44
0.0000000001
 40
0.0
 40
0.0
 40
0.0
 40
0.0
 40
0.1238438241
 40
0.2477810053
 40
0.3720596553
 40
0.4970612054
 40
0.6229370671
 40
0.7491648072
 40
0.8122689989
 40
0.8751594271
 40
1.0
 40
1.0
 40
1.0
 40
1.0
 10
70.3732711018
 20
-67.382870574
 30
0.0
 10
70.6118708329
 20
-67.5205921375
 30
0.0
 10
71.1377536724
 20
-67.7201417232
 30
0.0
 10
71.9776128232
 20
-67.7567413985
 30
0.0
 10
72.7916506465
 20
-67.5395631359
 30
0.0
 10
73.5138286408
 20
-67.1005875876
 30
0.0
 10
74.0974443291
 20
-66.4852517088
 30
0.0
 10
74.4401444641
 20
-65.8641380488
 30
0.0
 10
74.6128908877
 20
-65.3287989697
 30
0.0
 10
74.7141215514
 20
-64.7789733231
 30
0.0
 10
74.7057330845
 20
-64.3543678629
 30
0.0
 10
74.6603761191
 20
-64.0803853324
 30
0.0
  0
SPLINE
  5
32A
100
AcDbEntity
  8
0
100
AcDbSpline
 62
7
  6
CONTINUOUS
 70
0
 71
3
 72
11
 73
7
 74
0
 42
0.0000001
 43
0.0000001
 44
0.0000000001
 40
0.0
 40
0.0
 40
0.0
 40
0.0
 40
0.250486112
 40
0.5004933118
 40
0.7502552974
 40
1.0
 40
1.0
 40
1.0
 40
1.0
 10
74.6603677422
 20
-64.0803347305
 30
0.0
 10
74.6281630898
 20
-63.8858213171
 30
0.0
 10
74.5235715718
 20
-63.5024849083
 30
0.0
 10
74.2478412876
 20
-62.9750504361
 30
0.0
 10
73.862703333
 20
-62.5217782769
 30
0.0
 10
73.5436701001
 20
-62.2850930302
 30
0.0
 10
73.3734182104
 20
-62.186822358
 30
0.0
  0
SPLINE
  5
32B
100
AcDbEntity
  8
0
100
AcDbSpline
 62
7
  6
CONTINUOUS
 70
0
 71
3
 72
17
 73
13
 74
0
 42
0.0000001
 43
0.0000001
 44
0.0000000001
 40
0.0
 40
0.0
 40
0.0
 40
0.0
 40
0.1304625717
 40
0.2699797281
 40
0.4104007426
 40
0.5431594643
 40
0.6632047683
 40
0.7191646125
 40
0.77341851
 40
0.8273763988
 40
0.8824982417
 40
1.0
 40
1.0
 40
1.0
 40
1.0
 10
73.813278334
 20
-65.0574051741
 30
0.0
 10
73.8329090517
 20
-65.1759944721
 30
0.0
 10
73.8240637455
 20
-65.4306369804
 30
0.0
 10
73.6926355451
 20
-65.7907009034
 30
0.0
 10
73.4622104916
 20
-66.1002517092
 30
0.0
 10
73.1636944262
 20
-66.3163634969
 30
0.0
 10
72.880018989
 20
-66.3919739401
 30
0.0
 10
72.6667865935
 20
-66.3725122035
 30
0.0
 10
72.5226443113
 20
-66.3213734006
 30
0.0
 10
72.3972540134
 20
-66.235025651
 30
0.0
 10
72.259514774
 20
-66.0757029242
 30
0.0
 10
72.2031786078
 20
-65.9198385724
 30
0.0
 10
72.1854962149
 20
-65.8130308485
 30
0.0
  0
SPLINE
  5
32C
100
AcDbEntity
  8
0
100
AcDbSpline
 62
7
  6
CONTINUOUS
 70
0
 71
3
 72
17
 73
13
 74
0
 42
0.0000001
 43
0.0000001
 44
0.0000000001
 40
0.0
 40
0.0
 40
0.0
 40
0.0
 40
0.1304625717
 40
0.2699797282
 40
0.4104007426
 40
0.5431594643
 40
0.6632047684
 40
0.7191646125
 40
0.77341851
 40
0.8273763988
 40
0.8824982417
 40
1.0
 40
1.0
 40
1.0
 40
1.0
 10
72.1854962149
 20
-65.8130308485
 30
0.0
 10
72.1658654973
 20
-65.6944415505
 30
0.0
 10
72.1747108034
 20
-65.4397990423
 30
0.0
 10
72.3061390064
 20
-65.0797351218
 30
0.0
 10
72.5365640574
 20
-64.7701843135
 30
0.0
 10
72.8350801228
 20
-64.5540725283
 30
0.0
 10
73.11875556
 20
-64.4784620826
 30
0.0
 10
73.3319879555
 20
-64.4979238191
 30
0.0
 10
73.4761302377
 20
-64.5490626221
 30
0.0
 10
73.6015205381
 20
-64.6354103717
 30
0.0
 10
73.7392597749
 20
-64.7947330985
 30
0.0
 10
73.7955959411
 20
-64.9505974502
 30
0.0
 10
73.813278334
 20
-65.0574051741
 30
0.0
  0
SPLINE
  5
32D
100
AcDbEntity
  8
0
100
AcDbSpline
 62
7
  6
CONTINUOUS
 70
0
 71
3
 72
11
 73
7
 74
0
 42
0.0000001
 43
0.0000001
 44
0.0000000001
 40
0.0
 40
0.0
 40
0.0
 40
0.0
 40
0.2372104092
 40
0.4801614253
 40
0.7335009803
 40
1.0
 40
1.0
 40
1.0
 40
1.0
 10
70.3729172061
 20
-67.3826619231
 30
0.0
 10
70.2499437462
 20
-67.31165253
 30
0.0
 10
70.0179883935
 20
-67.1361735464
 30
0.0
 10
69.739108616
 20
-66.7920333838
 30
0.0
 10
69.5362114119
 20
-66.3791353577
 30
0.0
 10
69.4577404563
 20
-66.0756729801
 30
0.0
 10
69.4316840695
 20
-65.9182791344
 30
0.0
  0
SPLINE
  5
32E
100
AcDbEntity
  8
0
100
AcDbSpline
 62
7
  6
CONTINUOUS
 70
0
 71
3
 72
17
 73
13
 74
0
 42
0.0000001
 43
0.0000001
 44
0.0000000001
 40
0.0
 40
0.0
 40
0.0
 40
0.0
 40
0.1241620773
 40
0.2558658055
 40
0.3235994095
 40
0.3918056561
 40
0.5271453438
 40
0.6576905884
 40
0.7801850663
 40
0.893531342
 40
0.947446888
 40
1.0
 40
1.0
 40
1.0
 40
1.0
 10
69.4316840695
 20
-65.9182791344
 30
0.0
 10
69.3895772246
 20
-65.6639272936
 30
0.0
 10
69.3783208971
 20
-65.1257483674
 30
0.0
 10
69.5257968684
 20
-64.4642583365
 30
0.0
 10
69.7333281195
 20
-63.9476999285
 30
0.0
 10
69.9988640579
 20
-63.4498733981
 30
0.0
 10
70.4221015426
 20
-62.892858439
 30
0.0
 10
71.0445496043
 20
-62.3689463321
 30
0.0
 10
71.7354382047
 20
-62.0307385173
 30
0.0
 10
72.3393119373
 20
-61.9278400718
 30
0.0
 10
72.7960022228
 20
-61.9676152704
 30
0.0
 10
73.0108061772
 20
-62.025798644
 30
0.0
 10
73.1130082258
 20
-62.0640414758
 30
0.0
  0
SPLINE
  5
32F
100
AcDbEntity
  8
0
100
AcDbSpline
 62
7
  6
CONTINUOUS
 70
0
 71
3
 72
16
 73
12
 74
0
 42
0.0000001
 43
0.0000001
 44
0.0000000001
 40
0.0
 40
0.0
 40
0.0
 40
0.0
 40
0.0610909324
 40
0.1222138555
 40
0.2444065348
 40
0.367542746
 40
0.4923399475
 40
0.6189869587
 40
0.7467264228
 40
0.8741272827
 40
1.0
 40
1.0
 40
1.0
 40
1.0
 10
78.8197458649
 20
-83.0882076291
 30
0.0
 10
78.9645183084
 20
-83.1717690672
 30
0.0
 10
79.2680575692
 20
-83.3161530508
 30
0.0
 10
79.9118302466
 20
-83.5053078134
 30
0.0
 10
80.7634776416
 20
-83.5494868462
 30
0.0
 10
81.759250885
 20
-83.3032399829
 30
0.0
 10
82.663691799
 20
-82.7976854974
 30
0.0
 10
83.4269807703
 20
-82.0808959963
 30
0.0
 10
84.0110809153
 20
-81.2039347555
 30
0.0
 10
84.3836286436
 20
-80.2210628732
 30
0.0
 10
84.4727278152
 20
-79.5255506244
 30
0.0
 10
84.472730599
 20
-79.1811370257
 30
0.0
  0
SPLINE
  5
330
100
AcDbEntity
  8
0
100
AcDbSpline
 62
7
  6
CONTINUOUS
 70
0
 71
3
 72
11
 73
7
 74
0
 42
0.0000001
 43
0.0000001
 44
0.0000000001
 40
0.0
 40
0.0
 40
0.0
 40
0.0
 40
0.2528182399
 40
0.5029932621
 40
0.7517483649
 40
1.0
 40
1.0
 40
1.0
 40
1.0
 10
84.472730599
 20
-79.1810716207
 30
0.0
 10
84.4727281479
 20
-78.8778711603
 30
0.0
 10
84.4044126788
 20
-78.2719273506
 30
0.0
 10
84.0841851328
 20
-77.418797896
 30
0.0
 10
83.5539940799
 20
-76.6830023521
 30
0.0
 10
83.0777999192
 20
-76.3089751779
 30
0.0
 10
82.8199458198
 20
-76.1601439567
 30
0.0
  0
SPLINE
  5
331
100
AcDbEntity
  8
0
100
AcDbSpline
 62
7
  6
CONTINUOUS
 70
0
 71
3
 72
15
 73
11
 74
0
 42
0.0000001
 43
0.0000001
 44
0.0000000001
 40
0.0
 40
0.0
 40
0.0
 40
0.0
 40
0.2626566166
 40
0.398791343
 40
0.5327243224
 40
0.6610704934
 40
0.7815820261
 40
0.8938066404
 40
0.9475000206
 40
1.0
 40
1.0
 40
1.0
 40
1.0
 10
77.5152099624
 20
-80.4137180708
 30
0.0
 10
77.5307261696
 20
-79.7508013727
 30
0.0
 10
77.7949533272
 20
-78.7396072839
 30
0.0
 10
78.490335749
 20
-77.5831671025
 30
0.0
 10
79.1707995417
 20
-76.8322936461
 30
0.0
 10
79.9602147549
 20
-76.2617260725
 30
0.0
 10
80.8102307942
 20
-75.9080619615
 30
0.0
 10
81.5389377798
 20
-75.8163834275
 30
0.0
 10
82.0889912212
 20
-75.8773181825
 30
0.0
 10
82.3485958658
 20
-75.9499862871
 30
0.0
 10
82.4727305985
 20
-75.9964358055
 30
0.0
  0
SPLINE
  5
332
100
AcDbEntity
  8
0
100
AcDbSpline
 62
7
  6
CONTINUOUS
 70
0
 71
3
 72
19
 73
15
 74
0
 42
0.0000001
 43
0.0000001
 44
0.0000000001
 40
0.0
 40
0.0
 40
0.0
 40
0.0
 40
0.1351442848
 40
0.276012943
 40
0.4137974815
 40
0.479285922
 40
0.5415593585
 40
0.6005442408
 40
0.6566975193
 40
0.7110071609
 40
0.7648504654
 40
0.819714495
 40
0.8768495193
 40
1.0
 40
1.0
 40
1.0
 40
1.0
 10
83.5987732182
 20
-79.8314758698
 30
0.0
 10
83.5987712014
 20
-80.0808201285
 30
0.0
 10
83.5057148495
 20
-80.5924045968
 30
0.0
 10
83.1492289407
 20
-81.2784230114
 30
0.0
 10
82.6984968221
 20
-81.7418434663
 30
0.0
 10
82.2785505881
 20
-81.9984375734
 30
0.0
 10
81.9548371614
 20
-82.122637292
 30
0.0
 10
81.6293706215
 20
-82.1761799307
 30
0.0
 10
81.3144078199
 20
-82.1560058918
 30
0.0
 10
81.022793534
 20
-82.0617150897
 30
0.0
 10
80.7672528563
 20
-81.8967119069
 30
0.0
 10
80.5588743704
 20
-81.6681557245
 30
0.0
 10
80.3496990762
 20
-81.2843438632
 30
0.0
 10
80.2930055396
 20
-80.9448342272
 30
0.0
 10
80.2930037032
 20
-80.7176188066
 30
0.0
  0
SPLINE
  5
333
100
AcDbEntity
  8
0
100
AcDbSpline
 62
7
  6
CONTINUOUS
 70
0
 71
3
 72
19
 73
15
 74
0
 42
0.0000001
 43
0.0000001
 44
0.0000000001
 40
0.0
 40
0.0
 40
0.0
 40
0.0
 40
0.1351442848
 40
0.276012943
 40
0.4137974815
 40
0.479285922
 40
0.5415593585
 40
0.6005442408
 40
0.6566975193
 40
0.7110071609
 40
0.7648504654
 40
0.819714495
 40
0.8768495193
 40
1.0
 40
1.0
 40
1.0
 40
1.0
 10
80.2930037032
 20
-80.7176188066
 30
0.0
 10
80.2930057174
 20
-80.4682745479
 30
0.0
 10
80.3860620693
 20
-79.9566900796
 30
0.0
 10
80.7425479807
 20
-79.270671665
 30
0.0
 10
81.1932800967
 20
-78.8072512101
 30
0.0
 10
81.6132263307
 20
-78.550657103
 30
0.0
 10
81.9369397575
 20
-78.4264573844
 30
0.0
 10
82.2624062973
 20
-78.3729147457
 30
0.0
 10
82.5773691015
 20
-78.3930887846
 30
0.0
 10
82.8689833874
 20
-78.4873795892
 30
0.0
 10
83.1245240651
 20
-78.6523827695
 30
0.0
 10
83.332902551
 20
-78.8809389545
 30
0.0
 10
83.5420778451
 20
-79.2647508132
 30
0.0
 10
83.5987713817
 20
-79.6042604492
 30
0.0
 10
83.5987732182
 20
-79.8314758698
 30
0.0
  0
SPLINE
  5
334
100
AcDbEntity
  8
0
100
AcDbSpline
 62
7
  6
CONTINUOUS
 70
0
 71
3
 72
11
 73
7
 74
0
 42
0.0000001
 43
0.0000001
 44
0.0000000001
 40
0.0
 40
0.0
 40
0.0
 40
0.0
 40
0.2323741364
 40
0.4731308828
 40
0.7282206545
 40
1.0
 40
1.0
 40
1.0
 40
1.0
 10
78.8192756982
 20
-83.0879301011
 30
0.0
 10
78.6167943709
 20
-82.9710095602
 30
0.0
 10
78.2391623245
 20
-82.6672405919
 30
0.0
 10
77.8218808731
 20
-82.053646127
 30
0.0
 10
77.567249518
 20
-81.3161721206
 30
0.0
 10
77.5140774323
 20
-80.7837823903
 30
0.0
 10
77.5140763274
 20
-80.510318731
 30
0.0
  0
SPLINE
  5
335
100
AcDbEntity
  8
0
100
AcDbSpline
 62
7
  6
CONTINUOUS
 70
0
 71
3
 72
9
 73
5
 74
0
 42
0.0000001
 43
0.0000001
 44
0.0000000001
 40
0.0
 40
0.0
 40
0.0
 40
0.0
 40
0.2548603792
 40
1.0
 40
1.0
 40
1.0
 40
1.0
 10
-26.6882669033
 20
-13.4620953931
 30
0.0
 10
-26.8764332935
 20
-14.2824423681
 30
0.0
 10
-27.5298757763
 20
-17.5198224237
 30
0.0
 10
-27.8371008007
 20
-20.8294996956
 30
0.0
 10
-27.8441436212
 20
-23.2902378095
 30
0.0
  0
SPLINE
  5
336
100
AcDbEntity
  8
0
100
AcDbSpline
 62
7
  6
CONTINUOUS
 70
0
 71
3
 72
9
 73
5
 74
0
 42
0.0000001
 43
0.0000001
 44
0.0000000001
 40
0.0
 40
0.0
 40
0.0
 40
0.0
 40
0.5093426959
 40
1.0
 40
1.0
 40
1.0
 40
1.0
 10
-28.7439649128
 20
-27.7447378971
 30
0.0
 10
-28.3389827611
 20
-29.3424042446
 30
0.0
 10
-27.3101434065
 20
-32.4258816311
 30
0.0
 10
-25.7900382806
 20
-35.3028546986
 30
0.0
 10
-24.9259655257
 20
-36.6348711125
 30
0.0
  0
SPLINE
  5
337
100
AcDbEntity
  8
0
100
AcDbSpline
 62
7
  6
CONTINUOUS
 70
0
 71
3
 72
18
 73
14
 74
0
 42
0.0000001
 43
0.0000001
 44
0.0000000001
 40
0.0
 40
0.0
 40
0.0
 40
0.0
 40
0.0528868977
 40
0.1062703213
 40
0.1606080089
 40
0.216286108
 40
0.3325045491
 40
0.4562607266
 40
0.5870291666
 40
0.6545939335
 40
0.7231633256
 40
0.8617701274
 40
1.0
 40
1.0
 40
1.0
 40
1.0
 10
22.320164973
 20
-5.3589372434
 30
0.0
 10
21.6908135444
 20
-4.9954602005
 30
0.0
 10
20.368908144
 20
-4.3595979949
 30
0.0
 10
18.252303538
 20
-3.7078106422
 30
0.0
 10
16.0254422792
 20
-3.3636066824
 30
0.0
 10
12.9083131922
 20
-3.3188183417
 30
0.0
 10
8.8697181223
 20
-4.0786571141
 30
0.0
 10
4.1790187763
 20
-6.1621789033
 30
0.0
 10
0.5578141569
 20
-8.7595414277
 30
0.0
 10
-2.1026781218
 20
-11.2900779516
 30
0.0
 10
-4.5958180911
 20
-14.1315420553
 30
0.0
 10
-7.2430977216
 20
-18.1010180076
 30
0.0
 10
-8.7889665272
 20
-21.6015553347
 30
0.0
 10
-9.39812665
 20
-23.4007895569
 30
0.0
  0
SPLINE
  5
338
100
AcDbEntity
  8
0
100
AcDbSpline
 62
7
  6
CONTINUOUS
 70
0
 71
3
 72
11
 73
7
 74
0
 42
0.0000001
 43
0.0000001
 44
0.0000000001
 40
0.0
 40
0.0
 40
0.0
 40
0.0
 40
0.2595417743
 40
0.5112062262
 40
0.7571141485
 40
1.0
 40
1.0
 40
1.0
 40
1.0
 10
-9.39812665
 20
-41.0618586492
 30
0.0
 10
-9.0550303817
 20
-41.8912979961
 30
0.0
 10
-8.2600243237
 20
-43.4792901364
 30
0.0
 10
-6.7296037778
 20
-45.617592639
 30
0.0
 10
-4.9072274047
 20
-47.4334471988
 30
0.0
 10
-3.5144387933
 20
-48.4090383541
 30
0.0
 10
-2.7870581983
 20
-48.829171273
 30
0.0
  0
SPLINE
  5
339
100
AcDbEntity
  8
0
100
AcDbSpline
 62
7
  6
CONTINUOUS
 70
0
 71
3
 72
11
 73
7
 74
0
 42
0.0000001
 43
0.0000001
 44
0.0000000001
 40
0.0
 40
0.0
 40
0.0
 40
0.0
 40
0.2660669585
 40
0.5228518689
 40
0.7678211851
 40
1.0
 40
1.0
 40
1.0
 40
1.0
 10
-9.39812665
 20
-23.4007895569
 30
0.0
 10
-9.9104669233
 20
-24.9140536677
 30
0.0
 10
-10.6945070443
 20
-27.9696313488
 30
0.0
 10
-11.1095053812
 20
-32.5827217137
 30
0.0
 10
-10.7312896199
 20
-36.9971463697
 30
0.0
 10
-9.931025315
 20
-39.7735697399
 30
0.0
 10
-9.39812665
 20
-41.0618586492
 30
0.0
  0
SPLINE
  5
33A
100
AcDbEntity
  8
0
100
AcDbSpline
 62
7
  6
CONTINUOUS
 70
0
 71
3
 72
9
 73
5
 74
0
 42
0.0000001
 43
0.0000001
 44
0.0000000001
 40
0.0
 40
0.0
 40
0.0
 40
0.0
 40
0.4942422002
 40
1.0
 40
1.0
 40
1.0
 40
1.0
 10
-25.175781912
 20
-36.8216830757
 30
0.0
 10
-25.7853181986
 20
-35.8723590155
 30
0.0
 10
-26.8565297621
 20
-33.8435159561
 30
0.0
 10
-27.5940605502
 20
-31.6730552729
 30
0.0
 10
-27.8854787583
 20
-30.5559939739
 30
0.0
  0
SPLINE
  5
33B
100
AcDbEntity
  8
0
100
AcDbSpline
 62
7
  6
CONTINUOUS
 70
0
 71
3
 72
9
 73
5
 74
0
 42
0.0000001
 43
0.0000001
 44
0.0000000001
 40
0.0
 40
0.0
 40
0.0
 40
0.0
 40
0.4911579955
 40
1.0
 40
1.0
 40
1.0
 40
1.0
 10
5.3339307591
 20
8.3930764616
 30
0.0
 10
3.8382591225
 20
8.4444830542
 30
0.0
 10
0.7801812077
 20
8.2943489044
 30
0.0
 10
-2.2163498604
 20
7.6784101134
 30
0.0
 10
-3.7096704653
 20
7.2614555625
 30
0.0
  0
SPLINE
  5
33C
100
AcDbEntity
  8
0
100
AcDbSpline
 62
7
  6
CONTINUOUS
 70
0
 71
3
 72
9
 73
5
 74
0
 42
0.0000001
 43
0.0000001
 44
0.0000000001
 40
0.0
 40
0.0
 40
0.0
 40
0.0
 40
0.2451898021
 40
1.0
 40
1.0
 40
1.0
 40
1.0
 10
-7.0606708576
 20
7.3667849378
 30
0.0
 10
-7.7423016558
 20
6.9838644616
 30
0.0
 10
-10.4768030804
 20
5.3419224547
 30
0.0
 10
-13.0237992081
 20
3.3920500705
 30
0.0
 10
-14.8183663785
 20
1.78820165
 30
0.0
  0
SPLINE
  5
33D
100
AcDbEntity
  8
0
100
AcDbSpline
 62
7
  6
CONTINUOUS
 70
0
 71
3
 72
9
 73
5
 74
0
 42
0.0000001
 43
0.0000001
 44
0.0000000001
 40
0.0
 40
0.0
 40
0.0
 40
0.0
 40
0.4931529688
 40
1.0
 40
1.0
 40
1.0
 40
1.0
 10
-28.7066144947
 20
-23.9560761349
 30
0.0
 10
-28.7066144947
 20
-22.190294622
 30
0.0
 10
-28.3742821571
 20
-18.6040922999
 30
0.0
 10
-27.4476589126
 20
-15.1273777395
 30
0.0
 10
-26.8441050447
 20
-13.4158655161
 30
0.0
  0
SPLINE
  5
33E
100
AcDbEntity
  8
0
100
AcDbSpline
 62
7
  6
CONTINUOUS
 70
0
 71
3
 72
9
 73
5
 74
0
 42
0.0000001
 43
0.0000001
 44
0.0000000001
 40
0.0
 40
0.0
 40
0.0
 40
0.0
 40
0.5009925998
 40
1.0
 40
1.0
 40
1.0
 40
1.0
 10
-26.8441050447
 20
-13.4158655161
 30
0.0
 10
-25.9975021329
 20
-11.0151332716
 30
0.0
 10
-23.7730441358
 20
-6.3975212648
 30
0.0
 10
-20.6185561674
 20
-2.3563306426
 30
0.0
 10
-18.8441389822
 20
-0.5451319282
 30
0.0
  0
SPLINE
  5
33F
100
AcDbEntity
  8
0
100
AcDbSpline
 62
7
  6
CONTINUOUS
 70
0
 71
3
 72
9
 73
5
 74
0
 42
0.0000001
 43
0.0000001
 44
0.0000000001
 40
0.0
 40
0.0
 40
0.0
 40
0.0
 40
0.5093467158
 40
1.0
 40
1.0
 40
1.0
 40
1.0
 10
-18.8441389822
 20
-0.5451319282
 30
0.0
 10
-17.3928658548
 20
0.936224342
 30
0.0
 10
-14.2670031352
 20
3.5885258065
 30
0.0
 10
-10.66355878
 20
5.5600120236
 30
0.0
 10
-8.8124420987
 20
6.311076714
 30
0.0
  0
SPLINE
  5
340
100
AcDbEntity
  8
0
100
AcDbSpline
 62
7
  6
CONTINUOUS
 70
0
 71
3
 72
9
 73
5
 74
0
 42
0.0000001
 43
0.0000001
 44
0.0000000001
 40
0.0
 40
0.0
 40
0.0
 40
0.0
 40
0.5050969971
 40
1.0
 40
1.0
 40
1.0
 40
1.0
 10
-5.8404910348
 20
7.3063096791
 30
0.0
 10
-4.8629481512
 20
7.5652725978
 30
0.0
 10
-2.8924039642
 20
7.954822159
 30
0.0
 10
-0.8858809135
 20
8.0698061124
 30
0.0
 10
0.1048411741
 20
8.0537018851
 30
0.0
  0
SPLINE
  5
341
100
AcDbEntity
  8
0
100
AcDbSpline
 62
7
  6
CONTINUOUS
 70
0
 71
3
 72
9
 73
5
 74
0
 42
0.0000001
 43
0.0000001
 44
0.0000000001
 40
0.0
 40
0.0
 40
0.0
 40
0.0
 40
0.2720016962
 40
1.0
 40
1.0
 40
1.0
 40
1.0
 10
18.5049595021
 20
-1.1047025718
 30
0.0
 10
18.3955071302
 20
-0.9613315276
 30
0.0
 10
17.9911735573
 20
-0.4357325737
 30
0.0
 10
17.579150231
 20
0.0840620636
 30
0.0
 10
17.2714971836
 20
0.4560976416
 30
0.0
  0
SPLINE
  5
342
100
AcDbEntity
  8
0
100
AcDbSpline
 62
7
  6
CONTINUOUS
 70
0
 71
3
 72
11
 73
7
 74
0
 42
0.0000001
 43
0.0000001
 44
0.0000000001
 40
0.0
 40
0.0
 40
0.0
 40
0.0
 40
0.3177143074
 40
0.5895472122
 40
0.8159153575
 40
1.0
 40
1.0
 40
1.0
 40
1.0
 10
17.2714971836
 20
0.4560976416
 30
0.0
 10
17.1269355347
 20
0.6309116964
 30
0.0
 10
16.8552920089
 20
0.9525037989
 30
0.0
 10
16.4649932899
 20
1.3852733068
 30
0.0
 10
16.1190334941
 20
1.7285506644
 30
0.0
 10
15.8912063628
 20
1.9146132489
 30
0.0
 10
15.7821400353
 20
1.9879576539
 30
0.0
  0
SPLINE
  5
343
100
AcDbEntity
  8
0
100
AcDbSpline
 62
7
  6
CONTINUOUS
 70
0
 71
3
 72
9
 73
5
 74
0
 42
0.0000001
 43
0.0000001
 44
0.0000000001
 40
0.0
 40
0.0
 40
0.0
 40
0.0
 40
0.4829415662
 40
1.0
 40
1.0
 40
1.0
 40
1.0
 10
-16.1592685303
 20
0.3882609853
 30
0.0
 10
-13.7726721427
 20
-0.9955627748
 30
0.0
 10
-8.8936796655
 20
-3.969955711
 30
0.0
 10
-4.1265578688
 20
-7.1195493914
 30
0.0
 10
-1.6880489104
 20
-8.7862170766
 30
0.0
  0
SPLINE
  5
344
100
AcDbEntity
  8
0
100
AcDbSpline
 62
7
  6
CONTINUOUS
 70
0
 71
3
 72
9
 73
5
 74
0
 42
0.0000001
 43
0.0000001
 44
0.0000000001
 40
0.0
 40
0.0
 40
0.0
 40
0.0
 40
0.4786701691
 40
1.0
 40
1.0
 40
1.0
 40
1.0
 10
-5.4737595051
 20
6.5302512388
 30
0.0
 10
-5.6046737848
 20
6.0188393813
 30
0.0
 10
-5.7654953529
 20
4.9204453627
 30
0.0
 10
-5.7456328399
 20
3.8136284882
 30
0.0
 10
-5.6983331733
 20
3.2406280238
 30
0.0
  0
SPLINE
  5
345
100
AcDbEntity
  8
0
100
AcDbSpline
 62
7
  6
CONTINUOUS
 70
0
 71
3
 72
9
 73
5
 74
0
 42
0.0000001
 43
0.0000001
 44
0.0000000001
 40
0.0
 40
0.0
 40
0.0
 40
0.0
 40
0.2586864522
 40
1.0
 40
1.0
 40
1.0
 40
1.0
 10
-5.6983156321
 20
3.240644671
 30
0.0
 10
-5.7422835451
 20
3.5658624025
 30
0.0
 10
-5.8790440285
 20
4.8270492045
 30
0.0
 10
-5.8778486004
 20
6.1052645983
 30
0.0
 10
-5.7815103958
 20
7.0407669767
 30
0.0
  0
SPLINE
  5
346
100
AcDbEntity
  8
0
100
AcDbSpline
 62
7
  6
CONTINUOUS
 70
0
 71
3
 72
10
 73
6
 74
0
 42
0.0000001
 43
0.0000001
 44
0.0000000001
 40
0.0
 40
0.0
 40
0.0
 40
0.0
 40
0.2354275153
 40
0.480848637
 40
1.0
 40
1.0
 40
1.0
 40
1.0
 10
-5.9177631231
 20
7.2118901244
 30
0.0
 10
-5.9790202599
 20
7.2676363249
 30
0.0
 10
-6.125323221
 20
7.359786867
 30
0.0
 10
-6.4694862335
 20
7.4492272876
 30
0.0
 10
-6.7490481407
 20
7.4088584986
 30
0.0
 10
-6.9208144774
 20
7.3467737612
 30
0.0
  0
SPLINE
  5
347
100
AcDbEntity
  8
0
100
AcDbSpline
 62
7
  6
CONTINUOUS
 70
0
 71
3
 72
9
 73
5
 74
0
 42
0.0000001
 43
0.0000001
 44
0.0000000001
 40
0.0
 40
0.0
 40
0.0
 40
0.0
 40
0.5657500024
 40
1.0
 40
1.0
 40
1.0
 40
1.0
 10
-6.9206646479
 20
7.3466864919
 30
0.0
 10
-6.9444930991
 20
7.3605154177
 30
0.0
 10
-6.9894944442
 20
7.3816090941
 30
0.0
 10
-7.0421929646
 20
7.377068331
 30
0.0
 10
-7.0605973195
 20
7.3666534598
 30
0.0
  0
SPLINE
  5
348
100
AcDbEntity
  8
0
100
AcDbSpline
 62
7
  6
CONTINUOUS
 70
0
 71
3
 72
9
 73
5
 74
0
 42
0.0000001
 43
0.0000001
 44
0.0000000001
 40
0.0
 40
0.0
 40
0.0
 40
0.0
 40
0.2407525127
 40
1.0
 40
1.0
 40
1.0
 40
1.0
 10
-4.589684306
 20
6.9381802832
 30
0.0
 10
-3.4278864975
 20
6.2616174733
 30
0.0
 10
1.3349538523
 20
3.3439186122
 30
0.0
 10
5.8457505025
 20
0.0223823572
 30
0.0
 10
9.1261862861
 20
-2.6637452043
 30
0.0
  0
SPLINE
  5
349
100
AcDbEntity
  8
0
100
AcDbSpline
 62
7
  6
CONTINUOUS
 70
0
 71
3
 72
15
 73
11
 74
0
 42
0.0000001
 43
0.0000001
 44
0.0000000001
 40
0.0
 40
0.0
 40
0.0
 40
0.0
 40
0.2419182206
 40
0.4870217292
 40
0.6115258876
 40
0.7382156814
 40
0.8687104748
 40
0.9363588053
 40
0.9703845607
 40
1.0
 40
1.0
 40
1.0
 40
1.0
 10
-24.9259691858
 20
-36.6348743104
 30
0.0
 10
-24.9037195656
 20
-36.6691721691
 30
0.0
 10
-24.8585417032
 20
-36.7379693493
 30
0.0
 10
-24.8006257383
 20
-36.8235693
 30
0.0
 10
-24.7525463069
 20
-36.8922879967
 30
0.0
 10
-24.7148012439
 20
-36.9446163452
 30
0.0
 10
-24.6815930629
 20
-36.988280299
 30
0.0
 10
-24.6566215813
 20
-37.018674795
 30
0.0
 10
-24.641321335
 20
-37.0346055048
 30
0.0
 10
-24.6334412314
 20
-37.0422178569
 30
0.0
 10
-24.6290381312
 20
-37.0445971257
 30
0.0
  0
SPLINE
  5
34A
100
AcDbEntity
  8
0
100
AcDbSpline
 62
7
  6
CONTINUOUS
 70
0
 71
3
 72
9
 73
5
 74
0
 42
0.0000001
 43
0.0000001
 44
0.0000000001
 40
0.0
 40
0.0
 40
0.0
 40
0.0
 40
0.245120236
 40
1.0
 40
1.0
 40
1.0
 40
1.0
 10
-7.0143334064
 20
7.2938785431
 30
0.0
 10
-7.6936504628
 20
6.9098824785
 30
0.0
 10
-10.4195729815
 20
5.2637294284
 30
0.0
 10
-12.9583450058
 20
3.3119050034
 30
0.0
 10
-14.7472943159
 20
1.7072937397
 30
0.0
  0
SPLINE
  5
34B
100
AcDbEntity
  8
0
100
AcDbSpline
 62
7
  6
CONTINUOUS
 70
0
 71
3
 72
42
 73
38
 74
0
 42
0.0000001
 43
0.0000001
 44
0.0000000001
 40
0.0
 40
0.0
 40
0.0
 40
0.0
 40
0.1070005333
 40
0.2197974886
 40
0.3380225086
 40
0.3990668887
 40
0.4613373162
 40
0.5247922717
 40
0.5893912428
 40
0.6550947072
 40
0.7218640324
 40
0.7896608318
 40
0.823932772
 40
0.8584466221
 40
0.8757925871
 40
0.8931969274
 40
0.9106588782
 40
0.9281776772
 40
0.9369582052
 40
0.9457527883
 40
0.9545615515
 40
0.9633849658
 40
0.9678026029
 40
0.9722246802
 40
0.9766520439
 40
0.9810865688
 40
0.9855332631
 40
0.9877661527
 40
0.9900136191
 40
0.9911499202
 40
0.9923063207
 40
0.9935214525
 40
0.994220744
 40
0.9949882823
 40
0.9963600627
 40
0.9976084586
 40
1.0
 40
1.0
 40
1.0
 40
1.0
 10
-5.6983337016
 20
3.2406337515
 30
0.0
 10
-5.6604985982
 20
2.7823678126
 30
0.0
 10
-5.5515491616
 20
1.8433225202
 30
0.0
 10
-5.290890328
 20
0.413327237
 30
0.0
 10
-4.9875706223
 20
-0.8055280165
 30
0.0
 10
-4.6911783956
 20
-1.8004364356
 30
0.0
 10
-4.4389177114
 20
-2.5625226076
 30
0.0
 10
-4.1592904653
 20
-3.3312570646
 30
0.0
 10
-3.8526200397
 20
-4.1054961841
 30
0.0
 10
-3.5194185192
 20
-4.8842020613
 30
0.0
 10
-3.1603952774
 20
-5.6664800548
 30
0.0
 10
-2.8420025893
 20
-6.3185275492
 30
0.0
 10
-2.576422267
 20
-6.8419644983
 30
0.0
 10
-2.4060645686
 20
-7.170579076
 30
0.0
 10
-2.2678254064
 20
-7.4341874261
 30
0.0
 10
-2.1631911682
 20
-7.6326741716
 30
0.0
 10
-2.0580576878
 20
-7.8317369942
 30
0.0
 10
-1.9704557548
 20
-7.9981481473
 30
0.0
 10
-1.9007185206
 20
-8.1318692312
 30
0.0
 10
-1.8487073902
 20
-8.2326190043
 30
0.0
 10
-1.7972593956
 20
-8.3338646717
 30
0.0
 10
-1.7551731501
 20
-8.4187660107
 30
0.0
 10
-1.722304275
 20
-8.4871874461
 30
0.0
 10
-1.6981893016
 20
-8.5388519605
 30
0.0
 10
-1.6748343877
 20
-8.5909469185
 30
0.0
 10
-1.652617851
 20
-8.6436520328
 30
0.0
 10
-1.6356137422
 20
-8.6883113898
 30
0.0
 10
-1.6238549951
 20
-8.7248386091
 30
0.0
 10
-1.6177580299
 20
-8.7482173533
 30
0.0
 10
-1.6143878766
 20
-8.7674642592
 30
0.0
 10
-1.6132134568
 20
-8.78248635
 30
0.0
 10
-1.6142813135
 20
-8.7958688404
 30
0.0
 10
-1.6199358691
 20
-8.8064126217
 30
0.0
 10
-1.6315746749
 20
-8.8122487543
 30
0.0
 10
-1.6466037736
 20
-8.8089336505
 30
0.0
 10
-1.6662204527
 20
-8.8004691208
 30
0.0
 10
-1.6795581883
 20
-8.7920078677
 30
0.0
 10
-1.6880489104
 20
-8.7862170766
 30
0.0
  0
SPLINE
  5
34C
100
AcDbEntity
  8
0
100
AcDbSpline
 62
7
  6
CONTINUOUS
 70
0
 71
3
 72
9
 73
5
 74
0
 42
0.0000001
 43
0.0000001
 44
0.0000000001
 40
0.0
 40
0.0
 40
0.0
 40
0.0
 40
0.254227139
 40
1.0
 40
1.0
 40
1.0
 40
1.0
 10
-1.6882463878
 20
-8.7861046004
 30
0.0
 10
-1.8740483149
 20
-8.522589867
 30
0.0
 10
-2.5918913268
 20
-7.4769775158
 30
0.0
 10
-3.2553653897
 20
-6.393799705
 30
0.0
 10
-3.7142099533
 20
-5.5666988167
 30
0.0
  0
SPLINE
  5
34D
100
AcDbEntity
  8
0
100
AcDbSpline
 62
7
  6
CONTINUOUS
 70
0
 71
3
 72
14
 73
10
 74
0
 42
0.0000001
 43
0.0000001
 44
0.0000000001
 40
0.0
 40
0.0
 40
0.0
 40
0.0
 40
0.2721262703
 40
0.4016211364
 40
0.5268152136
 40
0.6482820116
 40
0.766868975
 40
0.8836905082
 40
1.0
 40
1.0
 40
1.0
 40
1.0
 10
-12.3078140437
 20
-32.6061318091
 30
0.0
 10
-12.3077981052
 20
-34.53553825
 30
0.0
 10
-11.9973489649
 20
-37.4028036737
 30
0.0
 10
-10.883178638
 20
-40.9769341708
 30
0.0
 10
-9.7459005239
 20
-43.3996185812
 30
0.0
 10
-8.309701537
 20
-45.5661500648
 30
0.0
 10
-6.5960503898
 20
-47.4423779252
 30
0.0
 10
-4.6321326209
 20
-48.9962759553
 30
0.0
 10
-3.1775781894
 20
-49.7997895655
 30
0.0
 10
-2.4255895537
 20
-50.1382519696
 30
0.0
  0
SPLINE
  5
34E
100
AcDbEntity
  8
0
100
AcDbSpline
 62
7
  6
CONTINUOUS
 70
0
 71
3
 72
14
 73
10
 74
0
 42
0.0000001
 43
0.0000001
 44
0.0000000001
 40
0.0
 40
0.0
 40
0.0
 40
0.0
 40
0.1378824895
 40
0.2722865624
 40
0.4030796172
 40
0.5301818533
 40
0.653507745
 40
0.7729141665
 40
1.0
 40
1.0
 40
1.0
 40
1.0
 10
-3.7142099533
 20
-5.5666988167
 30
0.0
 10
-4.0122346354
 20
-5.0223410128
 30
0.0
 10
-4.5752135323
 20
-3.9330175247
 30
0.0
 10
-5.3158119825
 20
-2.2756691732
 30
0.0
 10
-5.930406095
 20
-0.6187651083
 30
0.0
 10
-6.4058947071
 20
1.0315098411
 30
0.0
 10
-6.7462563073
 20
2.6628167893
 30
0.0
 10
-7.0228705141
 20
4.759848836
 30
0.0
 10
-7.0325887649
 20
6.3326518321
 30
0.0
 10
-6.9205534263
 20
7.3485910753
 30
0.0
  0
SPLINE
  5
34F
100
AcDbEntity
  8
0
100
AcDbSpline
 62
7
  6
CONTINUOUS
 70
0
 71
3
 72
14
 73
10
 74
0
 42
0.0000001
 43
0.0000001
 44
0.0000000001
 40
0.0
 40
0.0
 40
0.0
 40
0.0
 40
0.3856878885
 40
0.5536710092
 40
0.6970033953
 40
0.8113990223
 40
0.8955816941
 40
0.9535756356
 40
1.0
 40
1.0
 40
1.0
 40
1.0
 10
-23.9112781316
 20
-37.9965326361
 30
0.0
 10
-23.9505420714
 20
-37.959978033
 30
0.0
 10
-24.0087524833
 20
-37.9093439636
 30
0.0
 10
-24.0869997512
 20
-37.8519824883
 30
0.0
 10
-24.1372023204
 20
-37.820526346
 30
0.0
 10
-24.1801594379
 20
-37.7995577646
 30
0.0
 10
-24.2143799613
 20
-37.7894869669
 30
0.0
 10
-24.2420076988
 20
-37.7900757414
 30
0.0
 10
-24.2535722578
 20
-37.8012931637
 30
0.0
 10
-24.2562495601
 20
-37.8071692277
 30
0.0
  0
SPLINE
  5
350
100
AcDbEntity
  8
0
100
AcDbSpline
 62
7
  6
CONTINUOUS
 70
0
 71
3
 72
9
 73
5
 74
0
 42
0.0000001
 43
0.0000001
 44
0.0000000001
 40
0.0
 40
0.0
 40
0.0
 40
0.0
 40
0.4910196253
 40
1.0
 40
1.0
 40
1.0
 40
1.0
 10
-24.6290381312
 20
-37.0445971257
 30
0.0
 10
-22.2874233834
 20
-38.3839444952
 30
0.0
 10
-17.375002713
 20
-40.8663933632
 30
0.0
 10
-12.2508239215
 20
-42.8708754147
 30
0.0
 10
-9.6051430127
 20
-43.7761289661
 30
0.0
  0
SPLINE
  5
351
100
AcDbEntity
  8
0
100
AcDbSpline
 62
7
  6
CONTINUOUS
 70
0
 71
3
 72
11
 73
7
 74
0
 42
0.0000001
 43
0.0000001
 44
0.0000000001
 40
0.0
 40
0.0
 40
0.0
 40
0.0
 40
0.3324060622
 40
0.605399191
 40
0.813838358
 40
1.0
 40
1.0
 40
1.0
 40
1.0
 10
-27.5349207446
 20
-26.2685342836
 30
0.0
 10
-27.5588296656
 20
-26.2246442393
 30
0.0
 10
-27.6091932199
 20
-26.1479411923
 30
0.0
 10
-27.6995686577
 20
-26.0632150194
 30
0.0
 10
-27.8011852896
 20
-26.0297979488
 30
0.0
 10
-27.8602040362
 20
-26.0574283736
 30
0.0
 10
-27.8809017215
 20
-26.0762722018
 30
0.0
  0
SPLINE
  5
352
100
AcDbEntity
  8
0
100
AcDbSpline
 62
7
  6
CONTINUOUS
 70
0
 71
3
 72
9
 73
5
 74
0
 42
0.0000001
 43
0.0000001
 44
0.0000000001
 40
0.0
 40
0.0
 40
0.0
 40
0.0
 40
0.4846842927
 40
1.0
 40
1.0
 40
1.0
 40
1.0
 10
-27.7291829571
 20
-25.0057741625
 30
0.0
 10
-25.3486525086
 20
-26.3718548288
 30
0.0
 10
-20.3402902571
 20
-29.0234577933
 30
0.0
 10
-15.1871346249
 20
-31.3786520898
 30
0.0
 10
-12.5029404683
 20
-32.5234033563
 30
0.0
  0
SPLINE
  5
353
100
AcDbEntity
  8
0
100
AcDbSpline
 62
7
  6
CONTINUOUS
 70
0
 71
3
 72
14
 73
10
 74
0
 42
0.0000001
 43
0.0000001
 44
0.0000000001
 40
0.0
 40
0.0
 40
0.0
 40
0.0
 40
0.1162804692
 40
0.2330959541
 40
0.351700906
 40
0.4731865242
 40
0.5984032953
 40
0.7278999549
 40
1.0
 40
1.0
 40
1.0
 40
1.0
 10
-1.5610437999
 20
-49.5061393146
 30
0.0
 10
-2.2807129448
 20
-49.1784073716
 30
0.0
 10
-3.6724216879
 20
-48.4020794272
 30
0.0
 10
-5.5506182897
 20
-46.9049785098
 30
0.0
 10
-7.189170278
 20
-45.1005151997
 30
0.0
 10
-8.562098289
 20
-43.0189907242
 30
0.0
 10
-9.6492555254
 20
-40.6932577608
 30
0.0
 10
-10.7140526694
 20
-37.2639304284
 30
0.0
 10
-11.0107492668
 20
-34.5140519734
 30
0.0
 10
-11.0107492668
 20
-32.663602921
 30
0.0
  0
SPLINE
  5
354
100
AcDbEntity
  8
0
100
AcDbSpline
 62
7
  6
CONTINUOUS
 70
0
 71
3
 72
20
 73
16
 74
0
 42
0.0000001
 43
0.0000001
 44
0.0000000001
 40
0.0
 40
0.0
 40
0.0
 40
0.0
 40
0.1310176798
 40
0.1989717548
 40
0.2677991896
 40
0.4055380102
 40
0.4734795887
 40
0.5400132795
 40
0.6669404864
 40
0.7270987503
 40
0.7849180138
 40
0.84061087
 40
0.8945972758
 40
0.9474821882
 40
1.0
 40
1.0
 40
1.0
 40
1.0
 10
-11.010275191
 20
-32.5073438177
 30
0.0
 10
-10.9965048198
 20
-30.2361121905
 30
0.0
 10
-10.5202340172
 20
-26.7757458473
 30
0.0
 10
-9.1221316114
 20
-22.3426137357
 30
0.0
 10
-7.1971230434
 20
-17.9814260878
 30
0.0
 10
-4.5736003453
 20
-13.9579185823
 30
0.0
 10
-1.3735513149
 20
-10.4777759973
 30
0.0
 10
2.0583832436
 20
-7.5083468968
 30
0.0
 10
5.8870454187
 20
-5.2311383346
 30
0.0
 10
9.9191171462
 20
-3.8621440038
 30
0.0
 10
12.8943859379
 20
-3.3261691956
 30
0.0
 10
15.8111695633
 20
-3.2777122415
 30
0.0
 10
18.6097189166
 20
-3.7208503519
 30
0.0
 10
21.2287855581
 20
-4.6483642754
 30
0.0
 10
22.8169791432
 20
-5.5776336183
 30
0.0
 10
23.5561855693
 20
-6.1090985726
 30
0.0
  0
SPLINE
  5
355
100
AcDbEntity
  8
0
100
AcDbSpline
 62
7
  6
CONTINUOUS
 70
0
 71
3
 72
9
 73
5
 74
0
 42
0.0000001
 43
0.0000001
 44
0.0000000001
 40
0.0
 40
0.0
 40
0.0
 40
0.0
 40
0.4912757946
 40
1.0
 40
1.0
 40
1.0
 40
1.0
 10
5.3355459502
 20
8.3685919081
 30
0.0
 10
3.9167577159
 20
8.412560667
 30
0.0
 10
1.0180896448
 20
8.2720100718
 30
0.0
 10
-1.8267873833
 20
7.7095077043
 30
0.0
 10
-3.24651446
 20
7.3288057326
 30
0.0
  0
SPLINE
  5
356
100
AcDbEntity
  8
0
100
AcDbSpline
 62
7
  6
CONTINUOUS
 70
0
 71
3
 72
21
 73
17
 74
0
 42
0.0000001
 43
0.0000001
 44
0.0000000001
 40
0.0
 40
0.0
 40
0.0
 40
0.0
 40
0.0530472737
 40
0.105945337
 40
0.1595389165
 40
0.2145837527
 40
0.2716562322
 40
0.3311039102
 40
0.3930379342
 40
0.457348048
 40
0.5915118308
 40
0.6606091302
 40
0.7301583512
 40
0.7995077983
 40
0.8680167262
 40
1.0
 40
1.0
 40
1.0
 40
1.0
 10
25.1590999631
 20
-6.274043437
 30
0.0
 10
24.4361333217
 20
-5.5960674321
 30
0.0
 10
22.8575921836
 20
-4.3771461361
 30
0.0
 10
20.1694131328
 20
-3.0467355889
 30
0.0
 10
17.2376743201
 20
-2.2542862619
 30
0.0
 10
14.1336450621
 20
-2.0165161761
 30
0.0
 10
10.928661434
 20
-2.334675169
 30
0.0
 10
7.6943679991
 20
-3.1977815022
 30
0.0
 10
4.5006306197
 20
-4.5841350719
 30
0.0
 10
0.3343911747
 20
-7.1199256797
 30
0.0
 10
-3.4006385967
 20
-10.5312883668
 30
0.0
 10
-6.5263187309
 20
-14.5668319797
 30
0.0
 10
-8.5479264403
 20
-17.8960842112
 30
0.0
 10
-10.1755968731
 20
-21.4230202917
 30
0.0
 10
-11.7528680772
 20
-26.2181915725
 30
0.0
 10
-12.2923452964
 20
-29.9773049509
 30
0.0
 10
-12.3072973696
 20
-32.4432139282
 30
0.0
  0
SPLINE
  5
357
100
AcDbEntity
  8
0
100
AcDbSpline
 62
7
  6
CONTINUOUS
 70
0
 71
3
 72
9
 73
5
 74
0
 42
0.0000001
 43
0.0000001
 44
0.0000000001
 40
0.0
 40
0.0
 40
0.0
 40
0.0
 40
0.4910644724
 40
1.0
 40
1.0
 40
1.0
 40
1.0
 10
-5.4737594975
 20
6.5302512236
 30
0.0
 10
-5.470806021
 20
6.5417926102
 30
0.0
 10
-5.469148036
 20
6.5667894436
 30
0.0
 10
-5.4782567427
 20
6.5900992928
 30
0.0
 10
-5.4846309362
 20
6.6006735237
 30
0.0
  0
SPLINE
  5
358
100
AcDbEntity
  8
0
100
AcDbSpline
 62
7
  6
CONTINUOUS
 70
0
 71
3
 72
23
 73
19
 74
0
 42
0.0000001
 43
0.0000001
 44
0.0000000001
 40
0.0
 40
0.0
 40
0.0
 40
0.0
 40
0.1242111517
 40
0.2484442721
 40
0.3727438115
 40
0.4971796297
 40
0.6218701686
 40
0.6843749751
 40
0.7470442699
 40
0.8099551328
 40
0.8732455485
 40
0.9051133854
 40
0.937204969
 40
0.9533600852
 40
0.9695846855
 40
0.9857403364
 40
0.99340308
 40
1.0
 40
1.0
 40
1.0
 40
1.0
 10
-27.8441918406
 20
-23.2902330724
 30
0.0
 10
-27.8443959169
 20
-23.3616899297
 30
0.0
 10
-27.8440940735
 20
-23.5046194483
 30
0.0
 10
-27.8414012061
 20
-23.7190414019
 30
0.0
 10
-27.8363036064
 20
-23.9335500941
 30
0.0
 10
-27.8285359664
 20
-24.1482426721
 30
0.0
 10
-27.8194801425
 20
-24.3273002972
 30
0.0
 10
-27.8102409052
 20
-24.4707492737
 30
0.0
 10
-27.8020891714
 20
-24.5786476253
 30
0.0
 10
-27.7923677583
 20
-24.6868711198
 30
0.0
 10
-27.7824549181
 20
-24.7772740251
 30
0.0
 10
-27.7726255372
 20
-24.8498265242
 30
0.0
 10
-27.7652467737
 20
-24.8953155823
 30
0.0
 10
-27.7580628155
 20
-24.9317414327
 30
0.0
 10
-27.7515151146
 20
-24.958795501
 30
0.0
 10
-27.7449893441
 20
-24.9812081105
 30
0.0
 10
-27.7371548436
 20
-24.9965064492
 30
0.0
 10
-27.7325624601
 20
-25.0040473333
 30
0.0
 10
-27.7291829571
 20
-25.0057741625
 30
0.0
  0
SPLINE
  5
359
100
AcDbEntity
  8
0
100
AcDbSpline
 62
7
  6
CONTINUOUS
 70
0
 71
3
 72
9
 73
5
 74
0
 42
0.0000001
 43
0.0000001
 44
0.0000000001
 40
0.0
 40
0.0
 40
0.0
 40
0.0
 40
0.4957184657
 40
1.0
 40
1.0
 40
1.0
 40
1.0
 10
7.0188997031
 20
6.5686547332
 30
0.0
 10
9.3151243283
 20
5.2267340059
 30
0.0
 10
13.8011018689
 20
2.2622803742
 30
0.0
 10
17.945618764
 20
-1.1617632501
 30
0.0
 10
19.9415957144
 20
-2.9882237628
 30
0.0
  0
SPLINE
  5
35A
100
AcDbEntity
  8
0
100
AcDbSpline
 62
7
  6
CONTINUOUS
 70
0
 71
3
 72
9
 73
5
 74
0
 42
0.0000001
 43
0.0000001
 44
0.0000000001
 40
0.0
 40
0.0
 40
0.0
 40
0.0
 40
0.2209551892
 40
1.0
 40
1.0
 40
1.0
 40
1.0
 10
6.2248145425
 20
6.8073036616
 30
0.0
 10
6.2153586762
 20
6.7876123116
 30
0.0
 10
6.1775126559
 20
6.6961064697
 30
0.0
 10
6.157137957
 20
6.5982264572
 30
0.0
 10
6.1467174419
 20
6.5219167978
 30
0.0
  0
SPLINE
  5
35B
100
AcDbEntity
  8
0
100
AcDbSpline
 62
7
  6
CONTINUOUS
 70
0
 71
3
 72
27
 73
23
 74
0
 42
0.0000001
 43
0.0000001
 44
0.0000000001
 40
0.0
 40
0.0
 40
0.0
 40
0.0
 40
0.2386406587
 40
0.3619697899
 40
0.4876182175
 40
0.5511724669
 40
0.6150965159
 40
0.6792523276
 40
0.743422147
 40
0.7754039971
 40
0.8072240919
 40
0.8387696983
 40
0.8698581326
 40
0.9001557589
 40
0.928914747
 40
0.9421186299
 40
0.9481453509
 40
0.9534948339
 40
0.9577014932
 40
0.9683382446
 40
0.9855661689
 40
1.0
 40
1.0
 40
1.0
 40
1.0
 10
18.9696894057
 20
-1.5477888687
 30
0.0
 10
19.0622850092
 20
-1.6667908126
 30
0.0
 10
19.2011582798
 20
-1.8485255241
 30
0.0
 10
19.3852361616
 20
-2.0955884412
 30
0.0
 10
19.5018444933
 20
-2.2549566924
 30
0.0
 10
19.5953258786
 20
-2.3847287824
 30
0.0
 10
19.6655428781
 20
-2.4833727354
 30
0.0
 10
19.7353259466
 20
-2.5827998543
 30
0.0
 10
19.7928234541
 20
-2.6661894082
 30
0.0
 10
19.8381430993
 20
-2.7331531985
 30
0.0
 10
19.8715481938
 20
-2.7832891816
 30
0.0
 10
19.9041773259
 20
-2.83325882
 30
0.0
 10
19.935645932
 20
-2.8828420864
 30
0.0
 10
19.9652451489
 20
-2.9314846789
 30
0.0
 10
19.9876207785
 20
-2.9713762502
 30
0.0
 10
20.0009145391
 20
-2.9985393683
 30
0.0
 10
20.0063610586
 20
-3.0132842842
 30
0.0
 10
20.0093358939
 20
-3.0222115866
 30
0.0
 10
20.0080983347
 20
-3.0377820152
 30
0.0
 10
19.9803941814
 20
-3.0224029883
 30
0.0
 10
19.9642861592
 20
-3.0083065878
 30
0.0
 10
19.948327611
 20
-2.994376288
 30
0.0
 10
19.9415957144
 20
-2.9882237628
 30
0.0
  0
SPLINE
  5
35C
100
AcDbEntity
  8
0
100
AcDbSpline
 62
7
  6
CONTINUOUS
 70
0
 71
3
 72
9
 73
5
 74
0
 42
0.0000001
 43
0.0000001
 44
0.0000000001
 40
0.0
 40
0.0
 40
0.0
 40
0.0
 40
0.2598071065
 40
1.0
 40
1.0
 40
1.0
 40
1.0
 10
9.1266796988
 20
-2.6640144544
 30
0.0
 10
8.983147832
 20
-2.4367283634
 30
0.0
 10
8.4390185011
 20
-1.5566993234
 30
0.0
 10
7.9289115534
 20
-0.6554220454
 30
0.0
 10
7.5753230683
 20
0.0239173833
 30
0.0
  0
SPLINE
  5
35D
100
AcDbEntity
  8
0
100
AcDbSpline
 62
7
  6
CONTINUOUS
 70
0
 71
3
 72
15
 73
11
 74
0
 42
0.0000001
 43
0.0000001
 44
0.0000000001
 40
0.0
 40
0.0
 40
0.0
 40
0.0
 40
0.1647468838
 40
0.3192879574
 40
0.4627265091
 40
0.5943554128
 40
0.7140332625
 40
0.8216280889
 40
0.9168975773
 40
1.0
 40
1.0
 40
1.0
 40
1.0
 10
7.5753230683
 20
0.0239173833
 30
0.0
 10
7.3559643299
 20
0.4519218537
 30
0.0
 10
6.945166546
 20
1.2889358693
 30
0.0
 10
6.4055940056
 20
2.5279178693
 30
0.0
 10
5.9701960194
 20
3.7049905393
 30
0.0
 10
5.6483399067
 20
4.8126669193
 30
0.0
 10
5.433679287
 20
5.839179004
 30
0.0
 10
5.3159217197
 20
6.7747997108
 30
0.0
 10
5.3004096552
 20
7.6111794478
 30
0.0
 10
5.3676313699
 20
8.1310431629
 30
0.0
 10
5.4258902551
 20
8.3665435835
 30
0.0
  0
SPLINE
  5
35E
100
AcDbEntity
  8
0
100
AcDbSpline
 62
7
  6
CONTINUOUS
 70
0
 71
3
 72
11
 73
7
 74
0
 42
0.0000001
 43
0.0000001
 44
0.0000000001
 40
0.0
 40
0.0
 40
0.0
 40
0.0
 40
0.2501361673
 40
0.4977124523
 40
0.7465536291
 40
1.0
 40
1.0
 40
1.0
 40
1.0
 10
6.1826258181
 20
7.7643378867
 30
0.0
 10
6.1563452687
 20
7.844983697
 30
0.0
 10
6.079209426
 20
7.9985362296
 30
0.0
 10
5.9012495279
 20
8.1834737591
 30
0.0
 10
5.6779152248
 20
8.311503343
 30
0.0
 10
5.5108527751
 20
8.3546481691
 30
0.0
 10
5.42563101
 20
8.3657540626
 30
0.0
  0
SPLINE
  5
35F
100
AcDbEntity
  8
0
100
AcDbSpline
 62
7
  6
CONTINUOUS
 70
0
 71
3
 72
38
 73
34
 74
0
 42
0.0000001
 43
0.0000001
 44
0.0000000001
 40
0.0
 40
0.0
 40
0.0
 40
0.0
 40
0.0905252016
 40
0.1918873129
 40
0.3036921886
 40
0.4254810876
 40
0.4899589777
 40
0.556730764
 40
0.6257205079
 40
0.696837537
 40
0.7699604467
 40
0.8072210627
 40
0.8449039221
 40
0.8638875353
 40
0.8829529985
 40
0.9020854883
 40
0.9212622034
 40
0.9308560769
 40
0.9404443073
 40
0.9500158569
 40
0.9595532793
 40
0.9690258253
 40
0.9737205831
 40
0.9783699298
 40
0.982947511
 40
0.9851958877
 40
0.9874065896
 40
0.9896084559
 40
0.9910224103
 40
0.9931257149
 40
0.9949969062
 40
0.9967219685
 40
1.0
 40
1.0
 40
1.0
 40
1.0
 10
6.3310283839
 20
4.8570195611
 30
0.0
 10
6.3831188664
 20
4.6156782404
 30
0.0
 10
6.5048900123
 20
4.1065108005
 30
0.0
 10
6.7296128217
 20
3.3090705996
 30
0.0
 10
7.0122267853
 20
2.4400772576
 30
0.0
 10
7.2928783855
 20
1.6768871305
 30
0.0
 10
7.5478539284
 20
1.0355492336
 30
0.0
 10
7.7582117144
 20
0.5315240821
 30
0.0
 10
7.9839120022
 20
0.0143653577
 30
0.0
 10
8.2244440205
 20
-0.5151466084
 30
0.0
 10
8.4349361065
 20
-0.9632020064
 30
0.0
 10
8.6091066497
 20
-1.327549675
 30
0.0
 10
8.7202407657
 20
-1.5583657361
 30
0.0
 10
8.8098393013
 20
-1.7444723489
 30
0.0
 10
8.8773201087
 20
-1.8850748134
 30
0.0
 10
8.9446207589
 20
-2.026347335
 30
0.0
 10
9.0001639448
 20
-2.1446057574
 30
0.0
 10
9.0439136007
 20
-2.239639738
 30
0.0
 10
9.0761989743
 20
-2.3111094046
 30
0.0
 10
9.1077066126
 20
-2.3827590225
 30
0.0
 10
9.1380261735
 20
-2.4545764989
 30
0.0
 10
9.1618014345
 20
-2.5147152534
 30
0.0
 10
9.1791296244
 20
-2.5630226193
 30
0.0
 10
9.1907890245
 20
-2.5991841523
 30
0.0
 10
9.1988008881
 20
-2.6294163042
 30
0.0
 10
9.2031821366
 20
-2.6538106775
 30
0.0
 10
9.2043306357
 20
-2.671661
 30
0.0
 10
9.202919653
 20
-2.6886677376
 30
0.0
 10
9.1890531555
 20
-2.6991001501
 30
0.0
 10
9.1735359297
 20
-2.6946034585
 30
0.0
 10
9.1599287535
 20
-2.6877236196
 30
0.0
 10
9.1440840811
 20
-2.6774805641
 30
0.0
 10
9.1333514457
 20
-2.6690924808
 30
0.0
 10
9.1261862861
 20
-2.6637452043
 30
0.0
  0
SPLINE
  5
360
100
AcDbEntity
  8
0
100
AcDbSpline
 62
7
  6
CONTINUOUS
 70
0
 71
3
 72
9
 73
5
 74
0
 42
0.0000001
 43
0.0000001
 44
0.0000000001
 40
0.0
 40
0.0
 40
0.0
 40
0.0
 40
0.2620012013
 40
1.0
 40
1.0
 40
1.0
 40
1.0
 10
6.1442020265
 20
6.9227166972
 30
0.0
 10
6.147910363
 20
6.9728238792
 30
0.0
 10
6.1650256476
 20
7.1638225879
 30
0.0
 10
6.1944426449
 20
7.3538600437
 30
0.0
 10
6.224846201
 20
7.4920824673
 30
0.0
  0
SPLINE
  5
361
100
AcDbEntity
  8
0
100
AcDbSpline
 62
7
  6
CONTINUOUS
 70
0
 71
3
 72
20
 73
16
 74
0
 42
0.0000001
 43
0.0000001
 44
0.0000000001
 40
0.0
 40
0.0
 40
0.0
 40
0.0
 40
0.2628421555
 40
0.3935818233
 40
0.523564358
 40
0.6523496163
 40
0.779029783
 40
0.8409501891
 40
0.9010685014
 40
0.9299406328
 40
0.9573279274
 40
0.9700613655
 40
0.9816417525
 40
0.9912038428
 40
1.0
 40
1.0
 40
1.0
 40
1.0
 10
-3.7096884917
 20
7.2614814096
 30
0.0
 10
-3.7899118898
 20
7.2390817414
 30
0.0
 10
-3.9097286174
 20
7.2044046581
 30
0.0
 10
-4.0682954326
 20
7.1555747532
 30
0.0
 10
-4.1857790788
 20
7.1177077449
 30
0.0
 10
-4.3014193022
 20
7.0783642879
 30
0.0
 10
-4.3959334794
 20
7.0439330105
 30
0.0
 10
-4.4692070336
 20
7.0148704042
 30
0.0
 10
-4.5131394451
 20
6.9959782042
 30
0.0
 10
-4.5464031785
 20
6.9799656835
 30
0.0
 10
-4.5655616949
 20
6.9695530043
 30
0.0
 10
-4.579505985
 20
6.9606579904
 30
0.0
 10
-4.5874972035
 20
6.9539598554
 30
0.0
 10
-4.5950568734
 20
6.9466977287
 30
0.0
 10
-4.5921403793
 20
6.9394983705
 30
0.0
 10
-4.589684306
 20
6.9381802832
 30
0.0
  0
SPLINE
  5
362
100
AcDbEntity
  8
0
100
AcDbSpline
 62
7
  6
CONTINUOUS
 70
0
 71
3
 72
21
 73
17
 74
0
 42
0.0000001
 43
0.0000001
 44
0.0000000001
 40
0.0
 40
0.0
 40
0.0
 40
0.0
 40
0.1268748689
 40
0.25380667
 40
0.3807528431
 40
0.5076430571
 40
0.6343502744
 40
0.6975632789
 40
0.7606088701
 40
0.8233789639
 40
0.885645865
 40
0.9164291076
 40
0.946749845
 40
0.9760191988
 40
0.9895428343
 40
1.0
 40
1.0
 40
1.0
 40
1.0
 10
-14.8183829088
 20
1.7882233035
 30
0.0
 10
-14.8799013938
 20
1.733241511
 30
0.0
 10
-15.0023446541
 20
1.622555583
 30
0.0
 10
-15.184060247
 20
1.4543554953
 30
0.0
 10
-15.3636643049
 20
1.2838859835
 30
0.0
 10
-15.5408030768
 20
1.1110634285
 30
0.0
 10
-15.6859830735
 20
0.9648669721
 30
0.0
 10
-15.8001109123
 20
0.8463818395
 30
0.0
 10
-15.8842998041
 20
0.7568140862
 30
0.0
 10
-15.966646246
 20
0.6663286207
 30
0.0
 10
-16.0331830547
 20
0.5900027358
 30
0.0
 10
-16.0840389982
 20
0.5276937748
 30
0.0
 10
-16.1197640881
 20
0.4817386292
 30
0.0
 10
-16.1466744305
 20
0.4403253821
 30
0.0
 10
-16.1622928651
 20
0.4130567981
 30
0.0
 10
-16.1653261229
 20
0.3913514033
 30
0.0
 10
-16.1592685303
 20
0.3882609853
 30
0.0
  0
SPLINE
  5
363
100
AcDbEntity
  8
0
100
AcDbSpline
 62
7
  6
CONTINUOUS
 70
0
 71
3
 72
11
 73
7
 74
0
 42
0.0000001
 43
0.0000001
 44
0.0000000001
 40
0.0
 40
0.0
 40
0.0
 40
0.0
 40
0.2870221496
 40
0.5371776496
 40
0.764946429
 40
1.0
 40
1.0
 40
1.0
 40
1.0
 10
-24.9649243657
 20
-12.5660503882
 30
0.0
 10
-24.9731448674
 20
-12.5283086933
 30
0.0
 10
-24.9963738075
 20
-12.4588261144
 30
0.0
 10
-25.0606832293
 20
-12.3747595592
 30
0.0
 10
-25.151381209
 20
-12.3323397863
 30
0.0
 10
-25.2160747092
 20
-12.3375474771
 30
0.0
 10
-25.2466281889
 20
-12.3457400795
 30
0.0
  0
SPLINE
  5
364
100
AcDbEntity
  8
0
100
AcDbSpline
 62
7
  6
CONTINUOUS
 70
0
 71
3
 72
25
 73
21
 74
0
 42
0.0000001
 43
0.0000001
 44
0.0000000001
 40
0.0
 40
0.0
 40
0.0
 40
0.0
 40
0.1255885692
 40
0.251184058
 40
0.3767834256
 40
0.5023823727
 40
0.5651799851
 40
0.6279739747
 40
0.6907612748
 40
0.7535358899
 40
0.816284347
 40
0.8476397317
 40
0.878970758
 40
0.9102565801
 40
0.9414431278
 40
0.9569534221
 40
0.9723276585
 40
0.9873072719
 40
0.9942967651
 40
1.0
 40
1.0
 40
1.0
 40
1.0
 10
-23.8103989252
 20
-9.1663588818
 30
0.0
 10
-23.8513858867
 20
-9.253463625
 30
0.0
 10
-23.9323863724
 20
-9.4281390745
 30
0.0
 10
-24.0508348121
 20
-9.6915515753
 30
0.0
 10
-24.1660389023
 20
-9.956408719
 30
0.0
 10
-24.2590841061
 20
-10.1783902689
 30
0.0
 10
-24.3314668595
 20
-10.3568113319
 30
0.0
 10
-24.3846094481
 20
-10.4910748226
 30
0.0
 10
-24.4364461364
 20
-10.625829783
 30
0.0
 10
-24.4867176818
 20
-10.7611400077
 30
0.0
 10
-24.5269636287
 20
-10.8744627122
 30
0.0
 10
-24.5577356373
 20
-10.9655563832
 30
0.0
 10
-24.5798855371
 20
-11.0340992027
 30
0.0
 10
-24.6007568543
 20
-11.1029168578
 30
0.0
 10
-24.6165867617
 20
-11.1605508649
 30
0.0
 10
-24.6274473013
 20
-11.2069295606
 30
0.0
 10
-24.6340884437
 20
-11.2413218489
 30
0.0
 10
-24.6373871036
 20
-11.2702421365
 30
0.0
 10
-24.6366243467
 20
-11.2907958216
 30
0.0
 10
-24.632714352
 20
-11.3014330927
 30
0.0
 10
-24.6288050964
 20
-11.3033898731
 30
0.0
  0
SPLINE
  5
365
100
AcDbEntity
  8
0
100
AcDbSpline
 62
7
  6
CONTINUOUS
 70
0
 71
3
 72
9
 73
5
 74
0
 42
0.0000001
 43
0.0000001
 44
0.0000000001
 40
0.0
 40
0.0
 40
0.0
 40
0.0
 40
0.2363577294
 40
1.0
 40
1.0
 40
1.0
 40
1.0
 10
-24.6288050964
 20
-11.3033898731
 30
0.0
 10
-23.4536521508
 20
-11.9811334275
 30
0.0
 10
-18.4715802455
 20
-14.8309878293
 30
0.0
 10
-13.4519465256
 20
-17.614871624
 30
0.0
 10
-9.6046759245
 20
-19.7145846814
 30
0.0
  0
SPLINE
  5
366
100
AcDbEntity
  8
0
100
AcDbSpline
 62
7
  6
CONTINUOUS
 70
0
 71
3
 72
9
 73
5
 74
0
 42
0.0000001
 43
0.0000001
 44
0.0000000001
 40
0.0
 40
0.0
 40
0.0
 40
0.0
 40
0.5026780399
 40
1.0
 40
1.0
 40
1.0
 40
1.0
 10
-16.8900189255
 20
-0.5609185108
 30
0.0
 10
-16.8887098959
 20
-0.5203942408
 30
0.0
 10
-16.9051111788
 20
-0.4347952883
 30
0.0
 10
-16.9761888624
 20
-0.3826454662
 30
0.0
 10
-17.0137600852
 20
-0.3685924463
 30
0.0
  0
SPLINE
  5
367
100
AcDbEntity
  8
0
100
AcDbSpline
 62
7
  6
CONTINUOUS
 70
0
 71
3
 72
11
 73
7
 74
0
 42
0.0000001
 43
0.0000001
 44
0.0000000001
 40
0.0
 40
0.0
 40
0.0
 40
0.0
 40
0.4029453783
 40
0.7129186477
 40
0.910471765
 40
1.0
 40
1.0
 40
1.0
 40
1.0
 10
-18.6425761214
 20
-0.6788579015
 30
0.0
 10
-18.6570823916
 20
-0.6704703999
 30
0.0
 10
-18.6826581901
 20
-0.6560674696
 30
0.0
 10
-18.7177702103
 20
-0.6393199719
 30
0.0
 10
-18.7390184889
 20
-0.6307615842
 30
0.0
 10
-18.753770753
 20
-0.6293515972
 30
0.0
 10
-18.756031226
 20
-0.6323098666
 30
0.0
  0
SPLINE
  5
368
100
AcDbEntity
  8
0
100
AcDbSpline
 62
7
  6
CONTINUOUS
 70
0
 71
3
 72
10
 73
6
 74
0
 42
0.0000001
 43
0.0000001
 44
0.0000000001
 40
0.0
 40
0.0
 40
0.0
 40
0.0
 40
0.4679732188
 40
0.7318829852
 40
1.0
 40
1.0
 40
1.0
 40
1.0
 10
-17.4230822892
 20
-0.3614186405
 30
0.0
 10
-17.6091751936
 20
-0.2748139522
 30
0.0
 10
-17.9641615321
 20
-0.2852170378
 30
0.0
 10
-18.366239844
 20
-0.4582301411
 30
0.0
 10
-18.5567632755
 20
-0.5985215877
 30
0.0
 10
-18.6427262583
 20
-0.6787706474
 30
0.0
  0
SPLINE
  5
369
100
AcDbEntity
  8
0
100
AcDbSpline
 62
7
  6
CONTINUOUS
 70
0
 71
3
 72
13
 73
9
 74
0
 42
0.0000001
 43
0.0000001
 44
0.0000000001
 40
0.0
 40
0.0
 40
0.0
 40
0.0
 40
0.2534826852
 40
0.3794139173
 40
0.5048665149
 40
0.6297348384
 40
0.7538522255
 40
1.0
 40
1.0
 40
1.0
 40
1.0
 10
-12.3386170987
 20
-16.3785640585
 30
0.0
 10
-13.1865003483
 20
-15.2075416813
 30
0.0
 10
-14.370364958
 20
-13.3889706931
 30
0.0
 10
-15.7131271391
 20
-10.8398035613
 30
0.0
 10
-16.5841534514
 20
-8.8767467838
 30
0.0
 10
-17.3204831344
 20
-6.8702846093
 30
0.0
 10
-18.1207757503
 20
-4.1610089179
 30
0.0
 10
-18.505630218
 20
-2.0733736443
 30
0.0
 10
-18.6429254426
 20
-0.6761859866
 30
0.0
  0
SPLINE
  5
36A
100
AcDbEntity
  8
0
100
AcDbSpline
 62
7
  6
CONTINUOUS
 70
0
 71
3
 72
41
 73
37
 74
0
 42
0.0000001
 43
0.0000001
 44
0.0000000001
 40
0.0
 40
0.0
 40
0.0
 40
0.0
 40
0.1187198894
 40
0.2396340599
 40
0.3624504082
 40
0.4245012736
 40
0.4869403247
 40
0.5497458718
 40
0.6128992129
 40
0.6763852182
 40
0.7401937078
 40
0.7722191872
 40
0.8043269493
 40
0.8365205845
 40
0.8688069844
 40
0.9011997071
 40
0.9174440584
 40
0.9337287424
 40
0.9418897466
 40
0.9500662785
 40
0.9582621341
 40
0.9664835477
 40
0.9706071075
 40
0.9747421559
 40
0.9788924578
 40
0.9830645749
 40
0.9872719433
 40
0.989398477
 40
0.9915530878
 40
0.9937672312
 40
0.9949355112
 40
0.9955600446
 40
0.9961597019
 40
0.9971426783
 40
0.9980942679
 40
1.0
 40
1.0
 40
1.0
 40
1.0
 10
-16.4093514591
 20
-5.4659599783
 30
0.0
 10
-16.2727232894
 20
-6.085047272
 30
0.0
 10
-15.9592165453
 20
-7.326692744
 30
0.0
 10
-15.371411216
 20
-9.1720063686
 30
0.0
 10
-14.7816482959
 20
-10.6958865288
 30
0.0
 10
-14.2501428692
 20
-11.905039696
 30
0.0
 10
-13.8205776857
 20
-12.8084550621
 30
0.0
 10
-13.3621724303
 20
-13.704185356
 30
0.0
 10
-12.8756706804
 20
-14.5913508664
 30
0.0
 10
-12.361967372
 20
-15.4692469338
 30
0.0
 10
-11.9125855505
 20
-16.1918044244
 30
0.0
 10
-11.5407749276
 20
-16.7650231307
 30
0.0
 10
-11.2556409919
 20
-17.1931831608
 30
0.0
 10
-10.9649000138
 20
-17.6192401853
 30
0.0
 10
-10.6689953656
 20
-18.0435811628
 30
0.0
 10
-10.4188972653
 20
-18.3960056701
 30
0.0
 10
-10.2173178056
 20
-18.6780727869
 30
0.0
 10
-10.0909028057
 20
-18.8548070486
 30
0.0
 10
-9.9898297236
 20
-18.9966970341
 30
0.0
 10
-9.9140934845
 20
-19.1036005897
 30
0.0
 10
-9.8386407042
 20
-19.2110990234
 30
0.0
 10
-9.776268327
 20
-19.3013340042
 30
0.0
 10
-9.7269002292
 20
-19.3741900409
 30
0.0
 10
-9.6901915294
 20
-19.4293601921
 30
0.0
 10
-9.653987233
 20
-19.48517354
 30
0.0
 10
-9.6185444769
 20
-19.5419315189
 30
0.0
 10
-9.5901243254
 20
-19.5903194562
 30
0.0
 10
-9.5687128087
 20
-19.63029104
 30
0.0
 10
-9.5537075606
 20
-19.6615586254
 30
0.0
 10
-9.5428889741
 20
-19.6891999747
 30
0.0
 10
-9.5387232243
 20
-19.7103130313
 30
0.0
 10
-9.5397232426
 20
-19.7233414838
 30
0.0
 10
-9.5477574277
 20
-19.7334827945
 30
0.0
 10
-9.5628422845
 20
-19.7326728621
 30
0.0
 10
-9.582140948
 20
-19.726968238
 30
0.0
 10
-9.5957271006
 20
-19.7194311843
 30
0.0
 10
-9.6046759245
 20
-19.7145846814
 30
0.0
  0
SPLINE
  5
36B
100
AcDbEntity
  8
0
100
AcDbSpline
 62
7
  6
CONTINUOUS
 70
0
 71
3
 72
9
 73
5
 74
0
 42
0.0000001
 43
0.0000001
 44
0.0000000001
 40
0.0
 40
0.0
 40
0.0
 40
0.0
 40
0.2516467803
 40
1.0
 40
1.0
 40
1.0
 40
1.0
 10
-16.4094102754
 20
-5.4660153604
 30
0.0
 10
-16.5336522926
 20
-5.0471517379
 30
0.0
 10
-16.9900963047
 20
-3.3719302039
 30
0.0
 10
-17.2934664651
 20
-1.654225524
 30
0.0
 10
-17.4230655074
 20
-0.3614375178
 30
0.0
  0
SPLINE
  5
36C
100
AcDbEntity
  8
0
100
AcDbSpline
 62
7
  6
CONTINUOUS
 70
0
 71
3
 72
9
 73
5
 74
0
 42
0.0000001
 43
0.0000001
 44
0.0000000001
 40
0.0
 40
0.0
 40
0.0
 40
0.0
 40
0.2461199972
 40
1.0
 40
1.0
 40
1.0
 40
1.0
 10
-16.8900188442
 20
-0.5609185412
 30
0.0
 10
-16.9030894658
 20
-0.9656580594
 30
0.0
 10
-16.8990567942
 20
-2.611810444
 30
0.0
 10
-16.676697122
 20
-4.2547948517
 30
0.0
 10
-16.4094028382
 20
-5.4660397394
 30
0.0
  0
SPLINE
  5
36D
100
AcDbEntity
  8
0
100
AcDbSpline
 62
7
  6
CONTINUOUS
 70
0
 71
3
 72
10
 73
6
 74
0
 42
0.0000001
 43
0.0000001
 44
0.0000000001
 40
0.0
 40
0.0
 40
0.0
 40
0.0
 40
0.3017654215
 40
0.5933703796
 40
1.0
 40
1.0
 40
1.0
 40
1.0
 10
-15.0650356768
 20
-45.292561915
 30
0.0
 10
-15.1054945139
 20
-45.2872394567
 30
0.0
 10
-15.1857847521
 20
-45.2714927318
 30
0.0
 10
-15.3084566175
 20
-45.2321589217
 30
0.0
 10
-15.4063911206
 20
-45.1611096912
 30
0.0
 10
-15.406461631
 20
-45.10612163
 30
0.0
  0
SPLINE
  5
36E
100
AcDbEntity
  8
0
100
AcDbSpline
 62
7
  6
CONTINUOUS
 70
0
 71
3
 72
9
 73
5
 74
0
 42
0.0000001
 43
0.0000001
 44
0.0000000001
 40
0.0
 40
0.0
 40
0.0
 40
0.0
 40
0.5013287649
 40
1.0
 40
1.0
 40
1.0
 40
1.0
 10
-17.4230792945
 20
-0.3614306166
 30
0.0
 10
-17.4337520214
 20
-0.3178827941
 30
0.0
 10
-17.4676516133
 20
-0.2327590629
 30
0.0
 10
-17.5409682358
 20
-0.1713265366
 30
0.0
 10
-17.5827242991
 20
-0.1556582773
 30
0.0
  0
SPLINE
  5
36F
100
AcDbEntity
  8
0
100
AcDbSpline
 62
7
  6
CONTINUOUS
 70
0
 71
3
 72
11
 73
7
 74
0
 42
0.0000001
 43
0.0000001
 44
0.0000000001
 40
0.0
 40
0.0
 40
0.0
 40
0.0
 40
0.3074184062
 40
0.5723562902
 40
0.7979833353
 40
1.0
 40
1.0
 40
1.0
 40
1.0
 10
-15.0650230683
 20
-45.2925636574
 30
0.0
 10
-15.0723362566
 20
-45.369533473
 30
0.0
 10
-15.0712942191
 20
-45.514774709
 30
0.0
 10
-15.0238937678
 20
-45.7121231891
 30
0.0
 10
-14.9310805625
 20
-45.863909007
 30
0.0
 10
-14.8396157899
 20
-45.9276871319
 30
0.0
 10
-14.7924538369
 20
-45.9465860705
 30
0.0
  0
SPLINE
  5
370
100
AcDbEntity
  8
0
100
AcDbSpline
 62
7
  6
CONTINUOUS
 70
0
 71
3
 72
10
 73
6
 74
0
 42
0.0000001
 43
0.0000001
 44
0.0000000001
 40
0.0
 40
0.0
 40
0.0
 40
0.0
 40
0.3529869662
 40
0.639230506
 40
1.0
 40
1.0
 40
1.0
 40
1.0
 10
-26.599077135
 20
-13.5605280385
 30
0.0
 10
-26.6131002896
 20
-13.5524523702
 30
0.0
 10
-26.6380893862
 20
-13.5363083994
 30
0.0
 10
-26.6726287811
 20
-13.5084590698
 30
0.0
 10
-26.6917237061
 20
-13.4783625691
 30
0.0
 10
-26.6881323519
 20
-13.4622181666
 30
0.0
  0
SPLINE
  5
371
100
AcDbEntity
  8
0
100
AcDbSpline
 62
7
  6
CONTINUOUS
 70
0
 71
3
 72
10
 73
6
 74
0
 42
0.0000001
 43
0.0000001
 44
0.0000000001
 40
0.0
 40
0.0
 40
0.0
 40
0.0
 40
0.2418543858
 40
0.5005823022
 40
1.0
 40
1.0
 40
1.0
 40
1.0
 10
-25.5805084355
 20
-12.731064145
 30
0.0
 10
-25.6880600594
 20
-12.7493344742
 30
0.0
 10
-25.9041057563
 20
-12.827800807
 30
0.0
 10
-26.2816709423
 20
-13.0772527973
 30
0.0
 10
-26.5055735526
 20
-13.3555610444
 30
0.0
 10
-26.5992275284
 20
-13.5604409673
 30
0.0
  0
SPLINE
  5
372
100
AcDbEntity
  8
0
100
AcDbSpline
 62
7
  6
CONTINUOUS
 70
0
 71
3
 72
13
 73
9
 74
0
 42
0.0000001
 43
0.0000001
 44
0.0000000001
 40
0.0
 40
0.0
 40
0.0
 40
0.0
 40
0.2450468706
 40
0.3688738453
 40
0.4936555318
 40
0.6192551889
 40
0.745493633
 40
1.0
 40
1.0
 40
1.0
 40
1.0
 10
-15.9869212423
 20
-29.5147380173
 30
0.0
 10
-17.1257037805
 20
-28.4215102723
 30
0.0
 10
-18.7653424621
 20
-26.6942473921
 30
0.0
 10
-20.762166406
 20
-24.217464111
 30
0.0
 10
-22.1645601697
 20
-22.2549920745
 30
0.0
 10
-23.4609976581
 20
-20.2025381784
 30
0.0
 10
-25.0455126882
 20
-17.3502663265
 30
0.0
 10
-26.0418341118
 20
-15.0990735416
 30
0.0
 10
-26.6002256493
 20
-13.5575550701
 30
0.0
  0
SPLINE
  5
373
100
AcDbEntity
  8
0
100
AcDbSpline
 62
7
  6
CONTINUOUS
 70
0
 71
3
 72
25
 73
21
 74
0
 42
0.0000001
 43
0.0000001
 44
0.0000000001
 40
0.0
 40
0.0
 40
0.0
 40
0.0
 40
0.1254341354
 40
0.2511323094
 40
0.376892441
 40
0.4397511609
 40
0.5025705159
 40
0.565339132
 40
0.6280483972
 40
0.6906932546
 40
0.753274975
 40
0.7845470815
 40
0.8158115188
 40
0.8470752759
 40
0.8783500745
 40
0.9096571125
 40
0.9410404848
 40
0.9567914824
 40
0.9726232668
 40
1.0
 40
1.0
 40
1.0
 40
1.0
 10
-22.8230280679
 20
-18.7805446826
 30
0.0
 10
-22.5152692549
 20
-19.4353920444
 30
0.0
 10
-21.8628678546
 20
-20.7297831895
 30
0.0
 10
-20.7791101085
 20
-22.6156564002
 30
0.0
 10
-19.7904190353
 20
-24.1366733912
 30
0.0
 10
-18.951365542
 20
-25.3199227036
 30
0.0
 10
-18.2990875628
 20
-26.1896891607
 30
0.0
 10
-17.6247644842
 20
-27.0413617067
 30
0.0
 10
-16.9293645949
 20
-27.8745990522
 30
0.0
 10
-16.2138838592
 20
-28.6892188504
 30
0.0
 10
-15.6016077203
 20
-29.3527202616
 30
0.0
 10
-15.1028885094
 20
-29.874485342
 30
0.0
 10
-14.7246871729
 20
-30.2613545352
 30
0.0
 10
-14.3421209276
 20
-30.6444175791
 30
0.0
 10
-13.9565656764
 20
-31.0229685517
 30
0.0
 10
-13.5638888087
 20
-31.4021485274
 30
0.0
 10
-13.2450444832
 20
-31.7061430503
 30
0.0
 10
-12.964938193
 20
-31.9741929409
 30
0.0
 10
-12.7868938272
 20
-32.1446877256
 30
0.0
 10
-12.3424350768
 20
-32.5847906732
 30
0.0
 10
-12.4900066029
 20
-32.5285606053
 30
0.0
  0
SPLINE
  5
374
100
AcDbEntity
  8
0
100
AcDbSpline
 62
7
  6
CONTINUOUS
 70
0
 71
3
 72
14
 73
10
 74
0
 42
0.0000001
 43
0.0000001
 44
0.0000000001
 40
0.0
 40
0.0
 40
0.0
 40
0.0
 40
0.3414097916
 40
0.5097043445
 40
0.6661479201
 40
0.8012404116
 40
0.9051402611
 40
0.9714938807
 40
1.0
 40
1.0
 40
1.0
 40
1.0
 10
-24.2190796573
 20
-38.6720767714
 30
0.0
 10
-24.2599041705
 20
-38.6525788297
 30
0.0
 10
-24.3205363555
 20
-38.6227315132
 30
0.0
 10
-24.3987538115
 20
-38.5819516684
 30
0.0
 10
-24.452290471
 20
-38.5524579708
 30
0.0
 10
-24.4970626649
 20
-38.5262794608
 30
0.0
 10
-24.5319234486
 20
-38.5030663398
 30
0.0
 10
-24.5507160476
 20
-38.4887055532
 30
0.0
 10
-24.5611445764
 20
-38.4763953924
 30
0.0
 10
-24.5596084606
 20
-38.4729443604
 30
0.0
  0
SPLINE
  5
375
100
AcDbEntity
  8
0
100
AcDbSpline
 62
7
  6
CONTINUOUS
 70
0
 71
3
 72
9
 73
5
 74
0
 42
0.0000001
 43
0.0000001
 44
0.0000000001
 40
0.0
 40
0.0
 40
0.0
 40
0.0
 40
0.2526163378
 40
1.0
 40
1.0
 40
1.0
 40
1.0
 10
-23.9112781621
 20
-37.9965327021
 30
0.0
 10
-23.4941309294
 20
-38.3849063856
 30
0.0
 10
-21.8118125236
 20
-39.8888751582
 30
0.0
 10
-20.0161161785
 20
-41.264316832
 30
0.0
 10
-18.6293673493
 20
-42.2236669225
 30
0.0
  0
SPLINE
  5
376
100
AcDbEntity
  8
0
100
AcDbSpline
 62
7
  6
CONTINUOUS
 70
0
 71
3
 72
9
 73
5
 74
0
 42
0.0000001
 43
0.0000001
 44
0.0000000001
 40
0.0
 40
0.0
 40
0.0
 40
0.0
 40
0.2473762778
 40
1.0
 40
1.0
 40
1.0
 40
1.0
 10
-18.6293850836
 20
-42.2236848269
 30
0.0
 10
-19.1040571111
 20
-41.9534366755
 30
0.0
 10
-21.0102444747
 20
-40.8390144543
 30
0.0
 10
-22.8633959678
 20
-39.6331827943
 30
0.0
 10
-24.2190684533
 20
-38.6720576731
 30
0.0
  0
SPLINE
  5
377
100
AcDbEntity
  8
0
100
AcDbSpline
 62
7
  6
CONTINUOUS
 70
0
 71
3
 72
9
 73
5
 74
0
 42
0.0000001
 43
0.0000001
 44
0.0000000001
 40
0.0
 40
0.0
 40
0.0
 40
0.0
 40
0.5096603719
 40
1.0
 40
1.0
 40
1.0
 40
1.0
 10
-18.6293297344
 20
-42.2237237981
 30
0.0
 10
-16.6302652464
 20
-43.6066676032
 30
0.0
 10
-12.5266355289
 20
-46.0651944413
 30
0.0
 10
-8.1747808518
 20
-48.0391361526
 30
0.0
 10
-6.0004656043
 20
-48.9003234777
 30
0.0
  0
SPLINE
  5
378
100
AcDbEntity
  8
0
100
AcDbSpline
 62
7
  6
CONTINUOUS
 70
0
 71
3
 72
9
 73
5
 74
0
 42
0.0000001
 43
0.0000001
 44
0.0000000001
 40
0.0
 40
0.0
 40
0.0
 40
0.0
 40
0.2403000209
 40
1.0
 40
1.0
 40
1.0
 40
1.0
 10
-6.0405375562
 20
-49.0007110442
 30
0.0
 10
-7.1119832645
 20
-48.6114245609
 30
0.0
 10
-11.5397803728
 20
-46.9087723935
 30
0.0
 10
-15.8347463802
 20
-44.8493574267
 30
0.0
 10
-18.963585868
 20
-43.0607603791
 30
0.0
  0
SPLINE
  5
379
100
AcDbEntity
  8
0
100
AcDbSpline
 62
7
  6
CONTINUOUS
 70
0
 71
3
 72
10
 73
6
 74
0
 42
0.0000001
 43
0.0000001
 44
0.0000000001
 40
0.0
 40
0.0
 40
0.0
 40
0.0
 40
0.2925970867
 40
0.5625270233
 40
1.0
 40
1.0
 40
1.0
 40
1.0
 10
-24.2190722328
 20
-38.6720804163
 30
0.0
 10
-24.2633485197
 20
-38.7499921833
 30
0.0
 10
-24.3351135806
 20
-38.9081974371
 30
0.0
 10
-24.4149255318
 20
-39.202990025
 30
0.0
 10
-24.4136943277
 20
-39.4325921541
 30
0.0
 10
-24.3656898111
 20
-39.5576822875
 30
0.0
  0
SPLINE
  5
37A
100
AcDbEntity
  8
0
100
AcDbSpline
 62
7
  6
CONTINUOUS
 70
0
 71
3
 72
9
 73
5
 74
0
 42
0.0000001
 43
0.0000001
 44
0.0000000001
 40
0.0
 40
0.0
 40
0.0
 40
0.0
 40
0.2618106563
 40
1.0
 40
1.0
 40
1.0
 40
1.0
 10
-24.3656898111
 20
-39.5576822875
 30
0.0
 10
-24.3610875775
 20
-39.5696747857
 30
0.0
 10
-24.3417991883
 20
-39.614784952
 30
0.0
 10
-24.315269155
 20
-39.6569613269
 30
0.0
 10
-24.2917342186
 20
-39.6844902635
 30
0.0
  0
SPLINE
  5
37B
100
AcDbEntity
  8
0
100
AcDbSpline
 62
7
  6
CONTINUOUS
 70
0
 71
3
 72
9
 73
5
 74
0
 42
0.0000001
 43
0.0000001
 44
0.0000000001
 40
0.0
 40
0.0
 40
0.0
 40
0.0
 40
0.5087462944
 40
1.0
 40
1.0
 40
1.0
 40
1.0
 10
-28.6582096944
 20
-27.8466792046
 30
0.0
 10
-28.2977505474
 20
-29.2687010113
 30
0.0
 10
-27.4035973675
 20
-32.0209432893
 30
0.0
 10
-26.1205652294
 20
-34.61715099
 30
0.0
 10
-25.3952960043
 20
-35.8339553433
 30
0.0
  0
SPLINE
  5
37C
100
AcDbEntity
  8
0
100
AcDbSpline
 62
7
  6
CONTINUOUS
 70
0
 71
3
 72
9
 73
5
 74
0
 42
0.0000001
 43
0.0000001
 44
0.0000000001
 40
0.0
 40
0.0
 40
0.0
 40
0.0
 40
0.2489144864
 40
1.0
 40
1.0
 40
1.0
 40
1.0
 10
-23.0626206697
 20
-18.2605679399
 30
0.0
 10
-23.3073198298
 20
-17.819480214
 30
0.0
 10
-24.2561025601
 20
-16.0286911896
 30
0.0
 10
-25.0639788438
 20
-14.1627756783
 30
0.0
 10
-25.5804945671
 20
-12.7310481481
 30
0.0
  0
SPLINE
  5
37D
100
AcDbEntity
  8
0
100
AcDbSpline
 62
7
  6
CONTINUOUS
 70
0
 71
3
 72
9
 73
5
 74
0
 42
0.0000001
 43
0.0000001
 44
0.0000000001
 40
0.0
 40
0.0
 40
0.0
 40
0.0
 40
0.2505554646
 40
1.0
 40
1.0
 40
1.0
 40
1.0
 10
-24.9649244927
 20
-12.5660504187
 30
0.0
 10
-24.8581295958
 20
-13.0565284623
 30
0.0
 10
-24.3763430842
 20
-15.0017827532
 30
0.0
 10
-23.6816940239
 20
-16.8926987224
 30
0.0
 10
-23.0625858793
 20
-18.2605740994
 30
0.0
  0
SPLINE
  5
37E
100
AcDbEntity
  8
0
100
AcDbSpline
 62
7
  6
CONTINUOUS
 70
0
 71
3
 72
11
 73
7
 74
0
 42
0.0000001
 43
0.0000001
 44
0.0000000001
 40
0.0
 40
0.0
 40
0.0
 40
0.0
 40
0.2752504293
 40
0.5449641653
 40
0.7883941285
 40
1.0
 40
1.0
 40
1.0
 40
1.0
 10
-25.5805154028
 20
-12.7310513129
 30
0.0
 10
-25.5978793482
 20
-12.6994624505
 30
0.0
 10
-25.6367098141
 20
-12.6391766707
 30
0.0
 10
-25.7077730172
 20
-12.5633028016
 30
0.0
 10
-25.7904282951
 20
-12.5127393924
 30
0.0
 10
-25.8536177191
 20
-12.5083917252
 30
0.0
 10
-25.8803791668
 20
-12.515586829
 30
0.0
  0
SPLINE
  5
37F
100
AcDbEntity
  8
0
100
AcDbSpline
 62
7
  6
CONTINUOUS
 70
0
 71
3
 72
12
 73
8
 74
0
 42
0.0000001
 43
0.0000001
 44
0.0000000001
 40
0.0
 40
0.0
 40
0.0
 40
0.0
 40
0.3207361334
 40
0.6275697932
 40
0.7589203459
 40
0.8657502559
 40
1.0
 40
1.0
 40
1.0
 40
1.0
 10
-28.0679828281
 20
-26.7537720889
 30
0.0
 10
-28.0994539082
 20
-26.7234063178
 30
0.0
 10
-28.1633417001
 20
-26.6662315477
 30
0.0
 10
-28.2460640493
 20
-26.6041662972
 30
0.0
 10
-28.3118952283
 20
-26.5678327808
 30
0.0
 10
-28.357251419
 20
-26.5491929197
 30
0.0
 10
-28.3969626756
 20
-26.5460909853
 30
0.0
 10
-28.4105240709
 20
-26.5583856115
 30
0.0
  0
SPLINE
  5
380
100
AcDbEntity
  8
0
100
AcDbSpline
 62
7
  6
CONTINUOUS
 70
0
 71
3
 72
9
 73
5
 74
0
 42
0.0000001
 43
0.0000001
 44
0.0000000001
 40
0.0
 40
0.0
 40
0.0
 40
0.0
 40
0.2521603242
 40
1.0
 40
1.0
 40
1.0
 40
1.0
 10
-27.5349205948
 20
-26.2685341439
 30
0.0
 10
-27.2708610442
 20
-26.7532460879
 30
0.0
 10
-26.1764120342
 20
-28.6495430852
 30
0.0
 10
-24.9043769278
 20
-30.4418654594
 30
0.0
 10
-23.8751857045
 20
-31.7148682449
 30
0.0
  0
SPLINE
  5
381
100
AcDbEntity
  8
0
100
AcDbSpline
 62
7
  6
CONTINUOUS
 70
0
 71
3
 72
9
 73
5
 74
0
 42
0.0000001
 43
0.0000001
 44
0.0000000001
 40
0.0
 40
0.0
 40
0.0
 40
0.0
 40
0.2479319225
 40
1.0
 40
1.0
 40
1.0
 40
1.0
 10
-23.8751730629
 20
-31.7148469851
 30
0.0
 10
-24.2480909226
 20
-31.32840074
 30
0.0
 10
-25.7272604534
 20
-29.7459084617
 30
0.0
 10
-27.1031082148
 20
-28.0663083564
 30
0.0
 10
-28.0679779081
 20
-26.7537687081
 30
0.0
  0
SPLINE
  5
382
100
AcDbEntity
  8
0
100
AcDbSpline
 62
7
  6
CONTINUOUS
 70
0
 71
3
 72
39
 73
35
 74
0
 42
0.0000001
 43
0.0000001
 44
0.0000000001
 40
0.0
 40
0.0
 40
0.0
 40
0.0
 40
0.1281230042
 40
0.2556158147
 40
0.3822845402
 40
0.4452613041
 40
0.5079715863
 40
0.5704014336
 40
0.6325397531
 40
0.6943791874
 40
0.7559189817
 40
0.7865811295
 40
0.8171768075
 40
0.8477138788
 40
0.8782057611
 40
0.9086769925
 40
0.9391789722
 40
0.9544773824
 40
0.9621523178
 40
0.9698557082
 40
0.9737227888
 40
0.977604222
 40
0.9815050635
 40
0.985433704
 40
0.9894061099
 40
0.9934610619
 40
0.9955544902
 40
0.9966284745
 40
0.9971387269
 40
0.9974524298
 40
0.9976577653
 40
0.9979238664
 40
0.9985601435
 40
1.0
 40
1.0
 40
1.0
 40
1.0
 10
-23.87511033
 20
-31.7152415716
 30
0.0
 10
-23.3682743002
 20
-32.3421440897
 30
0.0
 10
-22.324480622
 20
-33.5669010382
 30
0.0
 10
-20.6716792997
 20
-35.3157950893
 30
0.0
 10
-19.2291084028
 20
-36.69581
 30
0.0
 10
-18.0420014831
 20
-37.7505129224
 30
0.0
 10
-17.1383510095
 20
-38.5151742175
 30
0.0
 10
-16.220981211
 20
-39.2549243535
 30
0.0
 10
-15.2910607544
 20
-39.9698758674
 30
0.0
 10
-14.3497091166
 20
-40.6602661631
 30
0.0
 10
-13.5556011417
 20
-41.2161196919
 30
0.0
 10
-12.9156133742
 20
-41.6490406574
 30
0.0
 10
-12.4338823133
 20
-41.9677012038
 30
0.0
 10
-11.9498978558
 20
-42.2809586341
 30
0.0
 10
-11.4636330448
 20
-42.5892024855
 30
0.0
 10
-10.9749137733
 20
-42.8931188932
 30
0.0
 10
-10.565558623
 20
-43.1435982601
 30
0.0
 10
-10.2780915703
 20
-43.3184541334
 30
0.0
 10
-10.113240475
 20
-43.4188568968
 30
0.0
 10
-10.0099153121
 20
-43.4820041061
 30
0.0
 10
-9.9270926914
 20
-43.532924469
 30
0.0
 10
-9.8647526713
 20
-43.5714813719
 30
0.0
 10
-9.8022413333
 20
-43.6104820686
 30
0.0
 10
-9.7394629117
 20
-43.6501898378
 30
0.0
 10
-9.6763483389
 20
-43.6909661875
 30
0.0
 10
-9.6233480792
 20
-43.7267932634
 30
0.0
 10
-9.5870250378
 20
-43.7532475031
 30
0.0
 10
-9.568882407
 20
-43.7688721252
 30
0.0
 10
-9.5613086681
 20
-43.7766487873
 30
0.0
 10
-9.5572053768
 20
-43.7841920971
 30
0.0
 10
-9.5627965924
 20
-43.7865378506
 30
0.0
 10
-9.5695275061
 20
-43.7859357461
 30
0.0
 10
-9.5842080152
 20
-43.7831197218
 30
0.0
 10
-9.5965705711
 20
-43.7790599483
 30
0.0
 10
-9.6051430127
 20
-43.7761289661
 30
0.0
  0
SPLINE
  5
383
100
AcDbEntity
  8
0
100
AcDbSpline
 62
7
  6
CONTINUOUS
 70
0
 71
3
 72
13
 73
9
 74
0
 42
0.0000001
 43
0.0000001
 44
0.0000000001
 40
0.0
 40
0.0
 40
0.0
 40
0.0
 40
0.2408614745
 40
0.363786738
 40
0.4883906215
 40
0.6144672019
 40
0.7417876957
 40
1.0
 40
1.0
 40
1.0
 40
1.0
 10
-13.6816932873
 20
-41.45523501
 30
0.0
 10
-15.0672762769
 20
-40.5891106767
 30
0.0
 10
-17.1109400077
 20
-39.1991655953
 30
0.0
 10
-19.7256046463
 20
-37.162772871
 30
0.0
 10
-21.6520177911
 20
-35.5142272299
 30
0.0
 10
-23.5218216436
 20
-33.7577811847
 30
0.0
 10
-25.9380045024
 20
-31.2651096651
 30
0.0
 10
-27.6168614875
 20
-29.2510088673
 30
0.0
 10
-28.6603018772
 20
-27.8439637414
 30
0.0
  0
SPLINE
  5
384
100
AcDbEntity
  8
0
100
AcDbSpline
 62
7
  6
CONTINUOUS
 70
0
 71
3
 72
10
 73
6
 74
0
 42
0.0000001
 43
0.0000001
 44
0.0000000001
 40
0.0
 40
0.0
 40
0.0
 40
0.0
 40
0.2618488901
 40
0.5238253477
 40
1.0
 40
1.0
 40
1.0
 40
1.0
 10
-28.0680023683
 20
-26.7537533538
 30
0.0
 10
-28.1407523219
 20
-26.8088251436
 30
0.0
 10
-28.2751324011
 20
-26.9343016669
 30
0.0
 10
-28.4900909222
 20
-27.2088961215
 30
0.0
 10
-28.6017150322
 20
-27.4489241149
 30
0.0
 10
-28.6372441178
 20
-27.6110036459
 30
0.0
  0
SPLINE
  5
385
100
AcDbEntity
  8
0
100
AcDbSpline
 62
7
  6
CONTINUOUS
 70
0
 71
3
 72
9
 73
5
 74
0
 42
0.0000001
 43
0.0000001
 44
0.0000000001
 40
0.0
 40
0.0
 40
0.0
 40
0.0
 40
0.2645583269
 40
1.0
 40
1.0
 40
1.0
 40
1.0
 10
-28.6372441178
 20
-27.6110036459
 30
0.0
 10
-28.6417181348
 20
-27.6314135975
 30
0.0
 10
-28.6563209936
 20
-27.7090186391
 30
0.0
 10
-28.6615864237
 20
-27.7886081066
 30
0.0
 10
-28.6583801843
 20
-27.8466040358
 30
0.0
  0
SPLINE
  5
386
100
AcDbEntity
  8
0
100
AcDbSpline
 62
7
  6
CONTINUOUS
 70
0
 71
3
 72
9
 73
5
 74
0
 42
0.0000001
 43
0.0000001
 44
0.0000000001
 40
0.0
 40
0.0
 40
0.0
 40
0.0
 40
0.5268873922
 40
1.0
 40
1.0
 40
1.0
 40
1.0
 10
-28.6582296207
 20
-27.8466908149
 30
0.0
 10
-28.6789243901
 20
-27.8348116565
 30
0.0
 10
-28.7156974357
 20
-27.8068083597
 30
0.0
 10
-28.7387295105
 20
-27.7656062603
 30
0.0
 10
-28.7439106228
 20
-27.7448156338
 30
0.0
  0
SPLINE
  5
387
100
AcDbEntity
  8
0
100
AcDbSpline
 62
7
  6
CONTINUOUS
 70
0
 71
3
 72
9
 73
5
 74
0
 42
0.0000001
 43
0.0000001
 44
0.0000000001
 40
0.0
 40
0.0
 40
0.0
 40
0.0
 40
0.2549180793
 40
1.0
 40
1.0
 40
1.0
 40
1.0
 10
-26.5990570639
 20
-13.5605283306
 30
0.0
 10
-26.7855170314
 20
-14.3734358412
 30
0.0
 10
-27.4338295066
 20
-17.580531365
 30
0.0
 10
-27.7431553396
 20
-20.8585175624
 30
0.0
 10
-27.7561501676
 20
-23.2961746607
 30
0.0
  0
SPLINE
  5
388
100
AcDbEntity
  8
0
100
AcDbSpline
 62
7
  6
CONTINUOUS
 70
0
 71
3
 72
11
 73
7
 74
0
 42
0.0000001
 43
0.0000001
 44
0.0000000001
 40
0.0
 40
0.0
 40
0.0
 40
0.0
 40
0.239794852
 40
0.4840665277
 40
0.736589646
 40
1.0
 40
1.0
 40
1.0
 40
1.0
 10
95.0249355093
 20
-47.1780105037
 30
0.0
 10
94.1239521576
 20
-46.6575928806
 30
0.0
 10
92.1854869972
 20
-45.8009860721
 30
0.0
 10
89.0346393746
 20
-45.1475864264
 30
0.0
 10
85.7161981222
 20
-45.1313044574
 30
0.0
 10
83.5002821883
 20
-45.5338828573
 30
0.0
 10
82.3963055063
 20
-45.8298142999
 30
0.0
  0
SPLINE
  5
389
100
AcDbEntity
  8
0
100
AcDbSpline
 62
7
  6
CONTINUOUS
 70
0
 71
3
 72
21
 73
17
 74
0
 42
0.0000001
 43
0.0000001
 44
0.0000000001
 40
0.0
 40
0.0
 40
0.0
 40
0.0
 40
0.06024528
 40
0.1230168847
 40
0.1880762371
 40
0.2549931451
 40
0.3918065216
 40
0.5283772112
 40
0.5950084939
 40
0.6596957664
 40
0.7220402168
 40
0.7818359686
 40
0.8391116658
 40
0.8941583626
 40
0.9475299623
 40
1.0
 40
1.0
 40
1.0
 40
1.0
 10
55.3712826705
 20
-24.9347231768
 30
0.0
 10
54.0137563406
 20
-25.2986210139
 30
0.0
 10
51.2993707076
 20
-26.2717651332
 30
0.0
 10
47.4207840046
 20
-28.3522306395
 30
0.0
 10
43.7359511583
 20
-31.0335595516
 30
0.0
 10
39.1690605665
 20
-35.3510989379
 30
0.0
 10
34.4442574862
 20
-41.8297732805
 30
0.0
 10
31.3457646738
 20
-49.2189764015
 30
0.0
 10
30.0261321925
 20
-55.3424384065
 30
0.0
 10
29.6517306222
 20
-59.8587545148
 30
0.0
 10
29.8958940303
 20
-64.2253813187
 30
0.0
 10
30.7555292198
 20
-68.339287033
 30
0.0
 10
32.2139676568
 20
-72.1013434205
 30
0.0
 10
34.2413617554
 20
-75.4189454162
 30
0.0
 10
36.7906390139
 20
-78.2055660177
 30
0.0
 10
38.8068560559
 20
-79.6660479304
 30
0.0
 10
39.8668189957
 20
-80.2782700943
 30
0.0
  0
SPLINE
  5
38A
100
AcDbEntity
  8
0
100
AcDbSpline
 62
7
  6
CONTINUOUS
 70
0
 71
3
 72
11
 73
7
 74
0
 42
0.0000001
 43
0.0000001
 44
0.0000000001
 40
0.0
 40
0.0
 40
0.0
 40
0.0
 40
0.2717704025
 40
0.5268743026
 40
0.7676369609
 40
1.0
 40
1.0
 40
1.0
 40
1.0
 10
51.2390707774
 20
-83.9604824962
 30
0.0
 10
51.2390707774
 20
-84.3023008067
 30
0.0
 10
51.305540553
 20
-84.9677920767
 30
0.0
 10
51.6238166069
 20
-85.8896578377
 30
0.0
 10
52.1454542961
 20
-86.6566391841
 30
0.0
 10
52.6174774008
 20
-87.0363580437
 30
0.0
 10
52.8705685584
 20
-87.1824989604
 30
0.0
  0
SPLINE
  5
38B
100
AcDbEntity
  8
0
100
AcDbSpline
 62
7
  6
CONTINUOUS
 70
0
 71
3
 72
20
 73
16
 74
0
 42
0.0000001
 43
0.0000001
 44
0.0000000001
 40
0.0
 40
0.0
 40
0.0
 40
0.0
 40
0.0523759029
 40
0.1055791215
 40
0.1603292505
 40
0.2171577382
 40
0.2763675799
 40
0.3380291566
 40
0.4676991187
 40
0.5351866402
 40
0.603639483
 40
0.740708597
 40
0.808277453
 40
0.8743539699
 40
1.0
 40
1.0
 40
1.0
 40
1.0
 10
96.6504023803
 20
-44.363703981
 30
0.0
 10
97.5835575295
 20
-44.9026699998
 30
0.0
 10
99.3617862514
 20
-46.1788229491
 30
0.0
 10
101.6324444583
 20
-48.597782259
 30
0.0
 10
103.4678475617
 20
-51.4702830672
 30
0.0
 10
104.8283992755
 20
-54.7274581201
 30
0.0
 10
105.6879495528
 20
-58.2962015896
 30
0.0
 10
106.15247267
 20
-63.444637818
 30
0.0
 10
105.5322759983
 20
-68.8026791872
 30
0.0
 10
103.9583769337
 20
-74.0448230514
 30
0.0
 10
101.7317433657
 20
-79.2129592861
 30
0.0
 10
98.6415610396
 20
-83.9737819235
 30
0.0
 10
94.843354412
 20
-88.0635364668
 30
0.0
 10
90.7689501376
 20
-91.5187111973
 30
0.0
 10
87.2874877457
 20
-93.503366118
 30
0.0
 10
84.8756326431
 20
-94.4338801269
 30
0.0
  0
SPLINE
  5
38C
100
AcDbEntity
  8
0
100
AcDbSpline
 62
7
  6
CONTINUOUS
 70
0
 71
3
 72
11
 73
7
 74
0
 42
0.0000001
 43
0.0000001
 44
0.0000000001
 40
0.0
 40
0.0
 40
0.0
 40
0.0
 40
0.2558578209
 40
0.5067661073
 40
0.7542639722
 40
1.0
 40
1.0
 40
1.0
 40
1.0
 10
50.5237831935
 20
-83.6240131081
 30
0.0
 10
49.7085194392
 20
-83.6098655063
 30
0.0
 10
48.0935494688
 20
-83.4872640624
 30
0.0
 10
45.7314218639
 20
-83.009705429
 30
0.0
 10
43.4797818002
 20
-82.245290275
 30
0.0
 10
42.0651168876
 20
-81.5479573542
 30
0.0
 10
41.3869761916
 20
-81.1562722677
 30
0.0
  0
SPLINE
  5
38D
100
AcDbEntity
  8
0
100
AcDbSpline
 62
7
  6
CONTINUOUS
 70
0
 71
3
 72
11
 73
7
 74
0
 42
0.0000001
 43
0.0000001
 44
0.0000000001
 40
0.0
 40
0.0
 40
0.0
 40
0.0
 40
0.2716877338
 40
0.5267640864
 40
0.7675557597
 40
1.0
 40
1.0
 40
1.0
 40
1.0
 10
57.9860027826
 20
-87.869851223
 30
0.0
 10
57.6905872343
 20
-88.0393430887
 30
0.0
 10
57.082439078
 20
-88.3119101839
 30
0.0
 10
56.1278544339
 20
-88.4944732326
 30
0.0
 10
55.2059157774
 20
-88.4249532522
 30
0.0
 10
54.6430667964
 20
-88.2062125188
 30
0.0
 10
54.3907261149
 20
-88.0605006588
 30
0.0
  0
SPLINE
  5
38E
100
AcDbEntity
  8
0
100
AcDbSpline
 62
7
  6
CONTINUOUS
 70
0
 71
3
 72
9
 73
5
 74
0
 42
0.0000001
 43
0.0000001
 44
0.0000000001
 40
0.0
 40
0.0
 40
0.0
 40
0.0
 40
0.5090877226
 40
1.0
 40
1.0
 40
1.0
 40
1.0
 10
72.9617206569
 20
-95.555106015
 30
0.0
 10
73.0438092888
 20
-95.7201096754
 30
0.0
 10
73.2486296894
 20
-96.0251764541
 30
0.0
 10
73.5353260121
 20
-96.2566533419
 30
0.0
 10
73.6892070836
 20
-96.3455546373
 30
0.0
  0
SPLINE
  5
38F
100
AcDbEntity
  8
0
100
AcDbSpline
 62
7
  6
CONTINUOUS
 70
0
 71
3
 72
14
 73
10
 74
0
 42
0.0000001
 43
0.0000001
 44
0.0000000001
 40
0.0
 40
0.0
 40
0.0
 40
0.0
 40
0.2647896703
 40
0.4023172675
 40
0.5369571729
 40
0.6649559535
 40
0.7841222721
 40
0.8947385382
 40
1.0
 40
1.0
 40
1.0
 40
1.0
 10
84.8756326431
 20
-97.2455129466
 30
0.0
 10
84.8756326431
 20
-97.7780574391
 30
0.0
 10
84.6647204614
 20
-98.5962026328
 30
0.0
 10
84.0910985607
 20
-99.5160012174
 30
0.0
 10
83.5275347246
 20
-100.1004021492
 30
0.0
 10
82.8774894359
 20
-100.5226319524
 30
0.0
 10
82.1849765258
 20
-100.7506108056
 30
0.0
 10
81.4996114221
 20
-100.7612070862
 30
0.0
 10
81.0791904722
 20
-100.6138325016
 30
0.0
 10
80.8958821165
 20
-100.5079285909
 30
0.0
  0
SPLINE
  5
390
100
AcDbEntity
  8
0
100
AcDbSpline
 62
7
  6
CONTINUOUS
 70
0
 71
3
 72
11
 73
7
 74
0
 42
0.0000001
 43
0.0000001
 44
0.0000000001
 40
0.0
 40
0.0
 40
0.0
 40
0.0
 40
0.2600518043
 40
0.5118193308
 40
0.7575122311
 40
1.0
 40
1.0
 40
1.0
 40
1.0
 10
79.916978372
 20
-95.7630945348
 30
0.0
 10
78.8739659292
 20
-95.9198703477
 30
0.0
 10
76.7943429764
 20
-96.0776993767
 30
0.0
 10
73.7194108128
 20
-95.8149526454
 30
0.0
 10
70.8018120811
 20
-95.0516380354
 30
0.0
 10
68.9938571474
 20
-94.2142085139
 30
0.0
 10
68.1421969863
 20
-93.7223428022
 30
0.0
  0
SPLINE
  5
391
100
AcDbEntity
  8
0
100
AcDbSpline
 62
7
  6
CONTINUOUS
 70
0
 71
3
 72
20
 73
16
 74
0
 42
0.0000001
 43
0.0000001
 44
0.0000000001
 40
0.0
 40
0.0
 40
0.0
 40
0.0
 40
0.0602657217
 40
0.1230597012
 40
0.1881414576
 40
0.255081506
 40
0.3919423924
 40
0.5285603294
 40
0.5952145835
 40
0.6599241786
 40
0.7817602797
 40
0.8390558091
 40
0.8941215591
 40
0.9475115464
 40
1.0
 40
1.0
 40
1.0
 40
1.0
 10
82.3963055063
 20
-45.8298142999
 30
0.0
 10
81.2905865874
 20
-46.1262127648
 30
0.0
 10
79.0796753933
 20
-46.9188606867
 30
0.0
 10
75.9204930198
 20
-48.6134128348
 30
0.0
 10
72.9191366222
 20
-50.7974165796
 30
0.0
 10
69.1993220628
 20
-54.314080829
 30
0.0
 10
65.3509360919
 20
-59.5913245213
 30
0.0
 10
62.8270534206
 20
-65.6090803573
 30
0.0
 10
61.7524473376
 20
-70.5984542546
 30
0.0
 10
61.3529629245
 20
-75.3997884136
 30
0.0
 10
61.9187143178
 20
-80.0819184728
 30
0.0
 10
63.5342729586
 20
-84.2473931619
 30
0.0
 10
65.1856594044
 20
-86.9501041522
 30
0.0
 10
67.2620573496
 20
-89.2197519065
 30
0.0
 10
68.9043232878
 20
-90.4093345946
 30
0.0
 10
69.7676755058
 20
-90.9080160738
 30
0.0
  0
SPLINE
  5
392
100
AcDbEntity
  8
0
100
AcDbSpline
 62
7
  6
CONTINUOUS
 70
0
 71
3
 72
11
 73
7
 74
0
 42
0.0000001
 43
0.0000001
 44
0.0000000001
 40
0.0
 40
0.0
 40
0.0
 40
0.0
 40
0.2457461887
 40
0.4932560181
 40
0.7441878292
 40
1.0
 40
1.0
 40
1.0
 40
1.0
 10
72.3958990149
 20
-27.4679324005
 30
0.0
 10
73.0739183268
 20
-27.8595263468
 30
0.0
 10
74.3846351745
 20
-28.736237268
 30
0.0
 10
76.1716882857
 20
-30.3042668472
 30
0.0
 10
77.765365205
 20
-32.1111992099
 30
0.0
 10
78.6785163404
 20
-33.4483004753
 30
0.0
 10
79.0980765604
 20
-34.1470682776
 30
0.0
  0
SPLINE
  5
393
100
AcDbEntity
  8
0
100
AcDbSpline
 62
7
  6
CONTINUOUS
 70
0
 71
3
 72
11
 73
7
 74
0
 42
0.0000001
 43
0.0000001
 44
0.0000000001
 40
0.0
 40
0.0
 40
0.0
 40
0.0
 40
0.2397954013
 40
0.4840670681
 40
0.7365884099
 40
1.0
 40
1.0
 40
1.0
 40
1.0
 10
70.8757409477
 20
-26.5899316927
 30
0.0
 10
69.7695553166
 20
-25.9510460261
 30
0.0
 10
67.3896861774
 20
-24.8993178171
 30
0.0
 10
63.5213120854
 20
-24.0971568001
 30
0.0
 10
59.4471944272
 20
-24.0771406705
 30
0.0
 10
56.7266660633
 20
-24.571399776
 30
0.0
 10
55.3712826705
 20
-24.9347231768
 30
0.0
  0
SPLINE
  5
394
100
AcDbEntity
  8
0
100
AcDbSpline
 62
7
  6
CONTINUOUS
 70
0
 71
3
 72
11
 73
7
 74
0
 42
0.0000001
 43
0.0000001
 44
0.0000000001
 40
0.0
 40
0.0
 40
0.0
 40
0.0
 40
0.2624786052
 40
0.5153051421
 40
0.7602715307
 40
1.0
 40
1.0
 40
1.0
 40
1.0
 10
56.8914402042
 20
-25.8127247635
 30
0.0
 10
58.0784098191
 20
-25.4945462787
 30
0.0
 10
60.458399179
 20
-25.0371102238
 30
0.0
 10
64.0320209674
 20
-24.9278297972
 30
0.0
 10
67.46798835
 20
-25.4133778888
 30
0.0
 10
69.6352876806
 20
-26.1354729013
 30
0.0
 10
70.6622218015
 20
-26.5883591583
 30
0.0
  0
SPLINE
  5
395
100
AcDbEntity
  8
0
100
AcDbSpline
 62
7
  6
CONTINUOUS
 70
0
 71
3
 72
20
 73
16
 74
0
 42
0.0000001
 43
0.0000001
 44
0.0000000001
 40
0.0
 40
0.0
 40
0.0
 40
0.0
 40
0.0523115709
 40
0.1056676359
 40
0.1606001603
 40
0.2174886117
 40
0.2765410153
 40
0.3377953078
 40
0.4011342273
 40
0.4663076529
 40
0.6004594076
 40
0.6686960379
 40
0.7369600665
 40
0.8713236837
 40
1.0
 40
1.0
 40
1.0
 40
1.0
 10
39.8164349893
 20
-80.1361644095
 30
0.0
 10
38.9532864565
 20
-79.5091690341
 30
0.0
 10
37.3195254695
 20
-78.0839089661
 30
0.0
 10
35.2490921478
 20
-75.5270431807
 30
0.0
 10
33.5775939135
 20
-72.5858334573
 30
0.0
 10
32.334462163
 20
-69.3168017937
 30
0.0
 10
31.5395631077
 20
-65.7799722278
 30
0.0
 10
31.2052552978
 20
-62.0396180347
 30
0.0
 10
31.3361743577
 20
-58.1622007451
 30
0.0
 10
32.1332359666
 20
-52.8558510835
 30
0.0
 10
33.8354613505
 20
-47.620001098
 30
0.0
 10
36.3255116562
 20
-42.6859871586
 30
0.0
 10
39.3089813229
 20
-38.026541903
 30
0.0
 10
43.8074196286
 20
-32.9187822658
 30
0.0
 10
48.1802703647
 20
-29.7165808496
 30
0.0
 10
50.4739396026
 20
-28.4415847
 30
0.0
  0
SPLINE
  5
396
100
AcDbEntity
  8
0
100
AcDbSpline
 62
7
  6
CONTINUOUS
 70
0
 71
3
 72
9
 73
5
 74
0
 42
0.0000001
 43
0.0000001
 44
0.0000000001
 40
0.0
 40
0.0
 40
0.0
 40
0.0
 40
0.2565578432
 40
1.0
 40
1.0
 40
1.0
 40
1.0
 10
50.4739396026
 20
-28.4415847
 30
0.0
 10
50.9930351811
 20
-28.1530318202
 30
0.0
 10
53.0475474627
 20
-27.0860895446
 30
0.0
 10
55.2291357589
 20
-26.2583212713
 30
0.0
 10
56.8914402042
 20
-25.8127247635
 30
0.0
  0
SPLINE
  5
397
100
AcDbEntity
  8
0
100
AcDbSpline
 62
7
  6
CONTINUOUS
 70
0
 71
3
 72
21
 73
17
 74
0
 42
0.0000001
 43
0.0000001
 44
0.0000000001
 40
0.0
 40
0.0
 40
0.0
 40
0.0
 40
0.0524701424
 40
0.1058417992
 40
0.1608885381
 40
0.2181642095
 40
0.2779599388
 40
0.3403043521
 40
0.4049915354
 40
0.4716227053
 40
0.6081932092
 40
0.7450061986
 40
0.8119231114
 40
0.8769826545
 40
0.939754707
 40
1.0
 40
1.0
 40
1.0
 40
1.0
 10
68.1421969863
 20
-93.7223428022
 30
0.0
 10
67.1676914728
 20
-93.1595292873
 30
0.0
 10
65.3140913827
 20
-91.8167848684
 30
0.0
 10
62.9703885314
 20
-89.2549052499
 30
0.0
 10
61.1064991985
 20
-86.2048425236
 30
0.0
 10
59.7656879914
 20
-82.7461739824
 30
0.0
 10
58.9753913474
 20
-78.9640334517
 30
0.0
 10
58.7509267722
 20
-74.949556769
 30
0.0
 10
59.0951342525
 20
-70.797464682
 30
0.0
 10
60.3083376985
 20
-65.1678368176
 30
0.0
 10
63.1569356361
 20
-58.3745459237
 30
0.0
 10
67.500689646
 20
-52.4183471528
 30
0.0
 10
71.6992756888
 20
-48.4489944946
 30
0.0
 10
75.0869518928
 20
-45.9838870347
 30
0.0
 10
78.6527645555
 20
-44.0711984877
 30
0.0
 10
81.148256712
 20
-43.1765281486
 30
0.0
 10
82.3963055063
 20
-42.841976806
 30
0.0
  0
SPLINE
  5
398
100
AcDbEntity
  8
0
100
AcDbSpline
 62
7
  6
CONTINUOUS
 70
0
 71
3
 72
11
 73
7
 74
0
 42
0.0000001
 43
0.0000001
 44
0.0000000001
 40
0.0
 40
0.0
 40
0.0
 40
0.0
 40
0.2634112163
 40
0.5159325632
 40
0.7602042056
 40
1.0
 40
1.0
 40
1.0
 40
1.0
 10
82.3963055063
 20
-42.841976806
 30
0.0
 10
83.6423820616
 20
-42.5079541415
 30
0.0
 10
86.1435108338
 20
-42.053555378
 30
0.0
 10
89.8890698603
 20
-42.0719510181
 30
0.0
 10
93.445477002
 20
-42.8094279277
 30
0.0
 10
95.6334308252
 20
-43.7763277999
 30
0.0
 10
96.6504023803
 20
-44.363703981
 30
0.0
  0
SPLINE
  5
399
100
AcDbEntity
  8
0
100
AcDbSpline
 62
7
  6
CONTINUOUS
 70
0
 71
3
 72
20
 73
16
 74
0
 42
0.0000001
 43
0.0000001
 44
0.0000000001
 40
0.0
 40
0.0
 40
0.0
 40
0.0
 40
0.0602657217
 40
0.1230597012
 40
0.1881414576
 40
0.255081506
 40
0.3919423924
 40
0.5285603294
 40
0.5952145835
 40
0.6599241786
 40
0.7817602797
 40
0.8390558091
 40
0.8941215591
 40
0.9475115464
 40
1.0
 40
1.0
 40
1.0
 40
1.0
 10
82.3963055063
 20
-92.2562122775
 30
0.0
 10
83.5020244277
 20
-91.9598138127
 30
0.0
 10
85.7129356218
 20
-91.1671658907
 30
0.0
 10
88.8721179953
 20
-89.4726137426
 30
0.0
 10
91.8734743929
 20
-87.2886099979
 30
0.0
 10
95.5932889522
 20
-83.7719457485
 30
0.0
 10
99.4416749232
 20
-78.4947020561
 30
0.0
 10
101.9655575945
 20
-72.4769462202
 30
0.0
 10
103.0401636774
 20
-67.4875723229
 30
0.0
 10
103.439648088
 20
-62.6862381639
 30
0.0
 10
102.8738966973
 20
-58.0041081047
 30
0.0
 10
101.2583380564
 20
-53.8386334156
 30
0.0
 10
99.6069516107
 20
-51.1359224279
 30
0.0
 10
97.5305536654
 20
-48.866274671
 30
0.0
 10
95.8882877272
 20
-47.6766919829
 30
0.0
 10
95.0249355093
 20
-47.1780105037
 30
0.0
  0
SPLINE
  5
39A
100
AcDbEntity
  8
0
100
AcDbSpline
 62
7
  6
CONTINUOUS
 70
0
 71
3
 72
11
 73
7
 74
0
 42
0.0000001
 43
0.0000001
 44
0.0000000001
 40
0.0
 40
0.0
 40
0.0
 40
0.0
 40
0.2397177452
 40
0.4846460934
 40
0.7374632908
 40
1.0
 40
1.0
 40
1.0
 40
1.0
 10
69.6396350506
 20
-28.8632413218
 30
0.0
 10
68.6910033817
 20
-28.4382878156
 30
0.0
 10
66.6870560079
 20
-27.7593847665
 30
0.0
 10
63.5062455979
 20
-27.2988215119
 30
0.0
 10
60.1959362317
 20
-27.3937760972
 30
0.0
 10
57.991032102
 20
-27.8163052394
 30
0.0
 10
56.8914402042
 20
-28.1110612971
 30
0.0
  0
SPLINE
  5
39B
100
AcDbEntity
  8
0
100
AcDbSpline
 62
7
  6
CONTINUOUS
 70
0
 71
3
 72
20
 73
16
 74
0
 42
0.0000001
 43
0.0000001
 44
0.0000000001
 40
0.0
 40
0.0
 40
0.0
 40
0.0
 40
0.0599056621
 40
0.1222514994
 40
0.1868226673
 40
0.2532297179
 40
0.3891739244
 40
0.5253900698
 40
0.5921199888
 40
0.6571120659
 40
0.7800628657
 40
0.838018519
 40
0.8936793332
 40
0.9474607398
 40
1.0
 40
1.0
 40
1.0
 40
1.0
 10
56.8914402042
 20
-28.1110612971
 30
0.0
 10
55.6833100449
 20
-28.4349120692
 30
0.0
 10
53.2674859738
 20
-29.2938756752
 30
0.0
 10
49.8072449263
 20
-31.1193935456
 30
0.0
 10
46.5090861505
 20
-33.4666747286
 30
0.0
 10
42.3978359631
 20
-37.2469687555
 30
0.0
 10
38.0869351183
 20
-42.9342154277
 30
0.0
 10
35.1571789204
 20
-49.4471430241
 30
0.0
 10
33.7945957198
 20
-54.8867809866
 30
0.0
 10
33.1450628837
 20
-60.1729556415
 30
0.0
 10
33.5120297444
 20
-65.3770915452
 30
0.0
 10
34.9967751696
 20
-70.1073725697
 30
0.0
 10
36.5917656753
 20
-73.2379976775
 30
0.0
 10
38.6551253281
 20
-75.941160511
 30
0.0
 10
40.3273429464
 20
-77.4266470167
 30
0.0
 10
41.2159439809
 20
-78.0698805918
 30
0.0
  0
SPLINE
  5
39C
100
AcDbEntity
  8
0
100
AcDbSpline
 62
7
  6
CONTINUOUS
 70
0
 71
3
 72
11
 73
7
 74
0
 42
0.0000001
 43
0.0000001
 44
0.0000000001
 40
0.0
 40
0.0
 40
0.0
 40
0.0
 40
0.239794852
 40
0.4840665277
 40
0.736589646
 40
1.0
 40
1.0
 40
1.0
 40
1.0
 10
69.7676755058
 20
-90.9080160738
 30
0.0
 10
70.6686588549
 20
-91.4284336969
 30
0.0
 10
72.6071240179
 20
-92.2850405054
 30
0.0
 10
75.7579716405
 20
-92.9384401511
 30
0.0
 10
79.0764128928
 20
-92.9547221226
 30
0.0
 10
81.2923288242
 20
-92.5521437202
 30
0.0
 10
82.3963055063
 20
-92.2562122775
 30
0.0
  0
SPLINE
  5
39D
100
AcDbEntity
  8
0
100
AcDbSpline
 62
7
  6
CONTINUOUS
 70
0
 71
3
 72
11
 73
7
 74
0
 42
0.0000001
 43
0.0000001
 44
0.0000000001
 40
0.0
 40
0.0
 40
0.0
 40
0.0
 40
0.232361421
 40
0.4731247889
 40
0.7282312477
 40
1.0
 40
1.0
 40
1.0
 40
1.0
 10
54.3907261149
 20
-88.0605006588
 30
0.0
 10
54.1376386074
 20
-87.9143575526
 30
0.0
 10
53.665615048
 20
-87.5346431025
 30
0.0
 10
53.1439734345
 20
-86.7676607909
 30
0.0
 10
52.8256991104
 20
-85.8457923501
 30
0.0
 10
52.7592283111
 20
-85.1803002826
 30
0.0
 10
52.7592283111
 20
-84.8384840828
 30
0.0
  0
SPLINE
  5
39E
100
AcDbEntity
  8
0
100
AcDbSpline
 62
7
  6
CONTINUOUS
 70
0
 71
3
 72
11
 73
7
 74
0
 42
0.0000001
 43
0.0000001
 44
0.0000000001
 40
0.0
 40
0.0
 40
0.0
 40
0.0
 40
0.2323604228
 40
0.4731154217
 40
0.7282442305
 40
1.0
 40
1.0
 40
1.0
 40
1.0
 10
80.8958821165
 20
-100.5079285909
 30
0.0
 10
80.7440501976
 20
-100.4202097646
 30
0.0
 10
80.4608276602
 20
-100.192423606
 30
0.0
 10
80.1478096629
 20
-99.7322344248
 30
0.0
 10
79.9568785487
 20
-99.1791038546
 30
0.0
 10
79.916978372
 20
-98.7798065913
 30
0.0
 10
79.916978372
 20
-98.5747273545
 30
0.0
  0
SPLINE
  5
39F
100
AcDbEntity
  8
0
100
AcDbSpline
 62
7
  6
CONTINUOUS
 70
0
 71
3
 72
10
 73
6
 74
0
 42
0.0000001
 43
0.0000001
 44
0.0000000001
 40
0.0
 40
0.0
 40
0.0
 40
0.0
 40
0.2405483275
 40
0.4865773268
 40
1.0
 40
1.0
 40
1.0
 40
1.0
 10
25.2312495445
 20
-6.4574354909
 30
0.0
 10
24.4684678443
 20
-6.2251239311
 30
0.0
 10
22.8863545797
 20
-5.8743461745
 30
0.0
 10
19.5714281641
 20
-5.6393303961
 30
0.0
 10
17.0406354
 20
-6.0025525576
 30
0.0
 10
15.396769724
 20
-6.4432063753
 30
0.0
  0
SPLINE
  5
3A0
100
AcDbEntity
  8
0
100
AcDbSpline
 62
7
  6
CONTINUOUS
 70
0
 71
3
 72
11
 73
7
 74
0
 42
0.0000001
 43
0.0000001
 44
0.0000000001
 40
0.0
 40
0.0
 40
0.0
 40
0.0
 40
0.2494794114
 40
0.499112759
 40
0.7491439776
 40
1.0
 40
1.0
 40
1.0
 40
1.0
 10
67.4976340895
 20
-24.6387806496
 30
0.0
 10
66.0176326147
 20
-23.7839721077
 30
0.0
 10
62.8716457698
 20
-22.3739787555
 30
0.0
 10
57.8278930379
 20
-21.2582517693
 30
0.0
 10
52.6554819934
 20
-21.1573756566
 30
0.0
 10
49.2514909299
 20
-21.7470455085
 30
0.0
 10
47.591541024
 20
-22.1920108568
 30
0.0
  0
SPLINE
  5
3A1
100
AcDbEntity
  8
0
100
AcDbSpline
 62
7
  6
CONTINUOUS
 70
0
 71
3
 72
15
 73
11
 74
0
 42
0.0000001
 43
0.0000001
 44
0.0000000001
 40
0.0
 40
0.0
 40
0.0
 40
0.0
 40
0.1277224861
 40
0.2546202653
 40
0.38047974
 40
0.5053488583
 40
0.6294762185
 40
0.7531549051
 40
0.8766166963
 40
1.0
 40
1.0
 40
1.0
 40
1.0
 10
26.6303635408
 20
-40.4090629723
 30
0.0
 10
25.8573254374
 20
-42.0676732492
 30
0.0
 10
24.5711364045
 20
-45.5003998153
 30
0.0
 10
23.4892332368
 20
-50.8666067841
 30
0.0
 10
23.3116316108
 20
-56.3006494085
 30
0.0
 10
24.0818049473
 20
-61.6454086479
 30
0.0
 10
25.8192253231
 20
-66.7287262866
 30
0.0
 10
28.5076205254
 20
-71.3607063191
 30
0.0
 10
32.074387748
 20
-75.3418202517
 30
0.0
 10
34.9579127658
 20
-77.4430555818
 30
0.0
 10
36.4886755539
 20
-78.3271824725
 30
0.0
  0
SPLINE
  5
3A2
100
AcDbEntity
  8
0
100
AcDbSpline
 62
7
  6
CONTINUOUS
 70
0
 71
3
 72
20
 73
16
 74
0
 42
0.0000001
 43
0.0000001
 44
0.0000000001
 40
0.0
 40
0.0
 40
0.0
 40
0.0
 40
0.1227234548
 40
0.1878062793
 40
0.2547476876
 40
0.3916134424
 40
0.460425718
 40
0.5284817096
 40
0.659570699
 40
0.721937942
 40
0.7817555153
 40
0.8390521217
 40
0.89411899
 40
0.9475102055
 40
1.0
 40
1.0
 40
1.0
 40
1.0
 10
15.396769724
 20
-6.4432063753
 30
0.0
 10
13.0782900532
 20
-7.0646968875
 30
0.0
 10
9.6730467189
 20
-8.6202364739
 30
0.0
 10
5.6392951953
 20
-11.5579616373
 30
0.0
 10
1.80752531
 20
-15.1789483526
 30
0.0
 10
-1.3684837202
 20
-19.53620071
 30
0.0
 10
-3.7233649769
 20
-24.3558916929
 30
0.0
 10
-5.4517804355
 20
-29.3129169909
 30
0.0
 10
-6.2472639703
 20
-34.4357560213
 30
0.0
 10
-5.9696543299
 20
-39.3963584623
 30
0.0
 10
-5.2486883271
 20
-42.8471585736
 30
0.0
 10
-4.0254899251
 20
-46.0023040159
 30
0.0
 10
-2.3251021702
 20
-48.7848184407
 30
0.0
 10
-0.1870227126
 20
-51.1220040356
 30
0.0
 10
1.5040335903
 20
-52.3468724215
 30
0.0
 10
2.3930235675
 20
-52.860379459
 30
0.0
  0
SPLINE
  5
3A3
100
AcDbEntity
  8
0
100
AcDbSpline
 62
7
  6
CONTINUOUS
 70
0
 71
3
 72
11
 73
7
 74
0
 42
0.0000001
 43
0.0000001
 44
0.0000000001
 40
0.0
 40
0.0
 40
0.0
 40
0.0
 40
0.2470210198
 40
0.4960244184
 40
0.7471601908
 40
1.0
 40
1.0
 40
1.0
 40
1.0
 10
47.591007436
 20
-22.1921538944
 30
0.0
 10
45.8071676687
 20
-22.6703661485
 30
0.0
 10
42.3107352331
 20
-23.9825564934
 30
0.0
 10
37.5011285556
 20
-26.8782292034
 30
0.0
 10
33.2276059292
 20
-30.5823664586
 30
0.0
 10
30.812153671
 20
-33.4996028466
 30
0.0
 10
29.7270825975
 20
-35.0474955497
 30
0.0
  0
SPLINE
  5
3A4
100
AcDbEntity
  8
0
100
AcDbSpline
 62
7
  6
CONTINUOUS
 70
0
 71
3
 72
9
 73
5
 74
0
 42
0.0000001
 43
0.0000001
 44
0.0000000001
 40
0.0
 40
0.0
 40
0.0
 40
0.0
 40
0.5086593959
 40
1.0
 40
1.0
 40
1.0
 40
1.0
 10
31.5762144111
 20
-16.2403804843
 30
0.0
 10
31.1625493583
 20
-14.7755922505
 30
0.0
 10
30.1983026584
 20
-11.936336753
 30
0.0
 10
28.9314988369
 20
-9.2170997404
 30
0.0
 10
28.229404333
 20
-7.9253129361
 30
0.0
  0
SPLINE
  5
3A5
100
AcDbEntity
  8
0
100
AcDbSpline
 62
7
  6
CONTINUOUS
 70
0
 71
3
 72
11
 73
7
 74
0
 42
0.0000001
 43
0.0000001
 44
0.0000000001
 40
0.0
 40
0.0
 40
0.0
 40
0.0
 40
0.259943691
 40
0.5166474433
 40
0.7649140565
 40
1.0
 40
1.0
 40
1.0
 40
1.0
 10
37.5194024485
 20
-16.9892055703
 30
0.0
 10
37.2037655181
 20
-15.622711303
 30
0.0
 10
36.4576927863
 20
-12.9326596321
 30
0.0
 10
35.010914072
 20
-9.0619922782
 30
0.0
 10
33.2762408459
 20
-5.4594870702
 30
0.0
 10
31.9142551599
 20
-3.2286574679
 30
0.0
 10
31.1910205942
 20
-2.1867043499
 30
0.0
  0
SPLINE
  5
3A6
100
AcDbEntity
  8
0
100
AcDbSpline
 62
7
  6
CONTINUOUS
 70
0
 71
3
 72
15
 73
11
 74
0
 42
0.0000001
 43
0.0000001
 44
0.0000000001
 40
0.0
 40
0.0
 40
0.0
 40
0.0
 40
0.1150939796
 40
0.237495726
 40
0.3657814852
 40
0.497480708
 40
0.6295713961
 40
0.7589705176
 40
0.8830204538
 40
1.0
 40
1.0
 40
1.0
 40
1.0
 10
24.0080640915
 20
-60.2573228693
 30
0.0
 10
23.4391626562
 20
-58.5631594987
 30
0.0
 10
22.7238392888
 20
-54.9027381124
 30
0.0
 10
22.8931183305
 20
-49.1870131685
 30
0.0
 10
24.2419106291
 20
-43.3670818873
 30
0.0
 10
26.6929638194
 20
-37.7582333057
 30
0.0
 10
30.1117286075
 20
-32.660451289
 30
0.0
 10
34.3162701857
 20
-28.3490167851
 30
0.0
 10
39.0801125732
 20
-25.0601840079
 30
0.0
 10
42.5807685208
 20
-23.6275788823
 30
0.0
 10
44.3352370845
 20
-23.1572769095
 30
0.0
  0
SPLINE
  5
3A7
100
AcDbEntity
  8
0
100
AcDbSpline
 62
7
  6
CONTINUOUS
 70
0
 71
3
 72
20
 73
16
 74
0
 42
0.0000001
 43
0.0000001
 44
0.0000000001
 40
0.0
 40
0.0
 40
0.0
 40
0.0
 40
0.0602678344
 40
0.1230639042
 40
0.1881478328
 40
0.2550903127
 40
0.3919456548
 40
0.5285707379
 40
0.5952290753
 40
0.6599377501
 40
0.7817682831
 40
0.8390598844
 40
0.8941230592
 40
0.9475118775
 40
1.0
 40
1.0
 40
1.0
 40
1.0
 10
51.9931548166
 20
-22.9836085396
 30
0.0
 10
50.6355934728
 20
-23.3475293408
 30
0.0
 10
47.9211109694
 20
-24.3207062489
 30
0.0
 10
44.0423891612
 20
-26.4012473304
 30
0.0
 10
40.3574599346
 20
-29.082737088
 30
0.0
 10
35.7906173437
 20
-33.4002644652
 30
0.0
 10
31.0659032676
 20
-39.8793956598
 30
0.0
 10
27.9672818169
 20
-47.2676974922
 30
0.0
 10
26.648074374
 20
-53.3935409911
 30
0.0
 10
26.1577500867
 20
-59.2882082746
 30
0.0
 10
26.8525038737
 20
-65.0362962654
 30
0.0
 10
28.8359334705
 20
-70.1500512398
 30
0.0
 10
30.8633263855
 20
-73.4680543167
 30
0.0
 10
33.4125140227
 20
-76.2544705219
 30
0.0
 10
35.4287264342
 20
-77.7149398107
 30
0.0
 10
36.4886788127
 20
-78.3271768286
 30
0.0
  0
SPLINE
  5
3A8
100
AcDbEntity
  8
0
100
AcDbSpline
 62
7
  6
CONTINUOUS
 70
0
 71
3
 72
9
 73
5
 74
0
 42
0.0000001
 43
0.0000001
 44
0.0000000001
 40
0.0
 40
0.0
 40
0.0
 40
0.0
 40
0.2539242336
 40
1.0
 40
1.0
 40
1.0
 40
1.0
 10
51.6411571132
 20
-26.2383094749
 30
0.0
 10
51.9483637175
 20
-26.1056841242
 30
0.0
 10
53.1671770761
 20
-25.6045320633
 30
0.0
 10
54.4216569624
 20
-25.1892793733
 30
0.0
 10
55.3712826705
 20
-24.9347231768
 30
0.0
  0
SPLINE
  5
3A9
100
AcDbEntity
  8
0
100
AcDbSpline
 62
7
  6
CONTINUOUS
 70
0
 71
3
 72
11
 73
7
 74
0
 42
0.0000001
 43
0.0000001
 44
0.0000000001
 40
0.0
 40
0.0
 40
0.0
 40
0.0
 40
0.2350859435
 40
0.4833525567
 40
0.740056309
 40
1.0
 40
1.0
 40
1.0
 40
1.0
 10
27.0588087012
 20
-3.294383021
 30
0.0
 10
27.7820432643
 20
-4.336336139
 30
0.0
 10
29.1440289503
 20
-6.5671657413
 30
0.0
 10
30.8787021764
 20
-10.1696709493
 30
0.0
 10
32.3254808932
 20
-14.0403383057
 30
0.0
 10
33.0715536226
 20
-16.7303899741
 30
0.0
 10
33.3871905529
 20
-18.0968842439
 30
0.0
  0
SPLINE
  5
3AA
100
AcDbEntity
  8
0
100
AcDbSpline
 62
7
  6
CONTINUOUS
 70
0
 71
3
 72
11
 73
7
 74
0
 42
0.0000001
 43
0.0000001
 44
0.0000000001
 40
0.0
 40
0.0
 40
0.0
 40
0.0
 40
0.2398050028
 40
0.4840866961
 40
0.7366090092
 40
1.0
 40
1.0
 40
1.0
 40
1.0
 10
67.4976308256
 20
-24.6387863011
 30
0.0
 10
66.3914244046
 20
-23.9998325599
 30
0.0
 10
64.0114047958
 20
-22.9481577926
 30
0.0
 10
60.142927816
 20
-22.1459745811
 30
0.0
 10
56.0688517046
 20
-22.1260645193
 30
0.0
 10
53.3484348696
 20
-22.6203196192
 30
0.0
 10
51.9931548166
 20
-22.9836085396
 30
0.0
  0
SPLINE
  5
3AB
100
AcDbEntity
  8
0
100
AcDbSpline
 62
7
  6
CONTINUOUS
 70
0
 71
3
 72
9
 73
5
 74
0
 42
0.0000001
 43
0.0000001
 44
0.0000000001
 40
0.0
 40
0.0
 40
0.0
 40
0.0
 40
0.2537364719
 40
1.0
 40
1.0
 40
1.0
 40
1.0
 10
55.3712826705
 20
-24.9347231768
 30
0.0
 10
55.6813673106
 20
-24.8516020426
 30
0.0
 10
56.9094787813
 20
-24.5471432001
 30
0.0
 10
58.1612573674
 20
-24.3367188559
 30
0.0
 10
59.1003349101
 20
-24.2386297989
 30
0.0
  0
ELLIPSE
  5
3AC
100
AcDbEntity
  8
0
100
AcDbEllipse
 62
7
  6
CONTINUOUS
 10
41.3395466243
 20
-45.3297476445
 30
0.0
 11
-3.257750721
 21
27.7168961257
 31
0.0
 40
0.7940555894
 41
6.3022409695
 42
6.4948462337
  0
ELLIPSE
  5
3AD
100
AcDbEntity
  8
0
100
AcDbEllipse
 62
7
  6
CONTINUOUS
 10
30.3853020126
 20
-39.0028743242
 30
0.0
 11
10.2211547596
 21
23.9843192881
 31
0.0
 40
0.7898557819
 41
6.7562380991
 42
6.9337980738
  0
ENDSEC
  0
SECTION
  2
OBJECTS
  0
DICTIONARY
  5
C
100
AcDbDictionary
280
0
281
1
  3
ACAD_GROUP
350
D
  3
ACAD_MLINESTYLE
350
17
  3
ACAD_LAYOUT
350
1A
  3
ACAD_PLOTSETTINGS
350
19
  3
ACAD_PLOTSTYLENAME
350
E
  0
DICTIONARY
  5
D
102
{ACAD_REACTORS
330
C
102
}
100
AcDbDictionary
280
0
281
1
  0
ACDBDICTIONARYWDFLT
  5
E
102
{ACAD_REACTORS
330
C
102
}
100
AcDbDictionary
281
1
  3
Normal
350
F
100
AcDbDictionaryWithDefault
340
F
  0
DICTIONARY
  5
17
102
{ACAD_REACTORS
330
C
102
}
100
AcDbDictionary
280
0
281
1
  3
Standard
350
18
  0
DICTIONARY
  5
19
102
{ACAD_REACTORS
330
C
102
}
100
AcDbDictionary
281
1
  0
DICTIONARY
  5
1A
102
{ACAD_REACTORS
330
C
102
}
100
AcDbDictionary
281
1
  3
Model
350
3AE
  3
Layout1
350
3AF
  0
ACDBPLACEHOLDER
  5
F
102
{ACAD_REACTORS
330
E
102
}
  0
MLINESTYLE
  5
18
102
{ACAD_REACTORS
330
17
102
}
100
AcDbMlineStyle
  2
STANDARD
 70
0
  3

 62
256
 51
90.0
 52
90.0
 71
2
 49
0.5
 62
256
  6
BYLAYER
 49
-0.5
 62
256
  6
BYLAYER
  0
LAYOUT
  5
3AE
102
{ACAD_REACTORS
330
1A
102
}
100
AcDbPlotSettings
  1

  2
none_device
  4
ANSI_C_(22.00_x_17.00_Inches)
  6

 40
0.0
 41
0.0
 42
0.0
 43
0.0
 44
558.8
 45
431.8
 46
0.0
 47
0.0
 48
0.0
 49
0.0
140
0.0
141
0.0
142
1.0
143
1.0
 70
1024
 72
0
 73
0
 74
0
  7

 75
0
147
1.0
148
0.0
149
0.0
100
AcDbLayout
  1
Model
 70
0
 71
0
 10
0.0
 20
0.0
 11
22.0
 21
17.0
 12
0.0
 22
0.0
 32
0.0
 14
0.0
 24
0.0
 34
0.0
 15
0.0
 25
0.0
 35
0.0
146
0.0
 13
0.0
 23
0.0
 33
0.0
 16
1.0
 26
0.0
 36
0.0
 17
0.0
 27
1.0
 37
0.0
 76
0
330
216
345
0
346
0
  0
LAYOUT
  5
3AF
102
{ACAD_REACTORS
330
1A
102
}
100
AcDbPlotSettings
  1

  2
none_device
  4
ANSI_C_(22.00_x_17.00_Inches)
  6

 40
0.0
 41
0.0
 42
0.0
 43
0.0
 44
558.8
 45
431.8
 46
0.0
 47
0.0
 48
0.0
 49
0.0
140
0.0
141
0.0
142
1.0
143
1.0
 70
0
 72
0
 73
0
 74
0
  7

 75
0
147
1.0
148
0.0
149
0.0
100
AcDbLayout
  1
Layout1
 70
0
 71
1
 10
0.0
 20
0.0
 11
22.0
 21
17.0
 12
0.0
 22
0.0
 32
0.0
 14
0.0
 24
0.0
 34
0.0
 15
0.0
 25
0.0
 35
0.0
146
0.0
 13
0.0
 23
0.0
 33
0.0
 16
1.0
 26
0.0
 36
0.0
 17
0.0
 27
1.0
 37
0.0
 76
0
330
217
345
0
346
0
  0
ENDSEC
  0
EOF
