999
DXF file: Y:\3D PRATIKA-KAEDRA_OLGA\CAD3D\2D_Views\PKE32M434_2D-Views\PKE32M434_2D-isometric.dxf
999
Pro/ENGINEER 2018260 by Parametric Technology Corporation
  0
SECTION
  2
HEADER
  9
$ACADVER
  1
AC1027
  9
$DWGCODEPAGE
  3
ANSI_1252
  9
$EXTMAX
 10
22.0
 20
17.0
 30
0.0
  9
$EXTMIN
 10
0.0
 20
0.0
 30
0.0
  9
$LIMMIN
 10
0.0
 20
0.0
  9
$LIMMAX
 10
22.0
 20
17.0
  9
$VIEWCTR
 10
11.0
 20
8.5
  9
$VIEWSIZE
 40
17.0
  9
$CLAYER
  8
0
  9
$LTSCALE
 40
1.21
  9
$CELTYPE
  6
BYLAYER
  9
$DIMSCALE
 40
1.0
  9
$DIMASZ
 40
0.1875
  9
$DIMEXO
 40
0.0625
  9
$DIMDLI
 40
0.836
  9
$DIMEXE
 40
0.125
  9
$DIMCEN
 40
0.198
  9
$DIMLFAC
 40
1.0
  9
$DIMBLK
  1
_CLOSED
  9
$DIMALT
 70
0
  9
$DIMALTF
 40
25.4
  9
$DIMTXT
 40
0.15625
  9
$DIMTOL
 70
0
  9
$DIMLIM
 70
0
  9
$DIMTFAC
 40
1.0
  9
$DIMGAP
 40
0.09
  9
$DIMDSEP
 70
46
  9
$AUNITS
 70
0
  9
$PDMODE
 70
3
  9
$PDSIZE
 40
0.3125
  9
$HANDSEED
  5
3BB
  9
$TILEMODE
 70
1
  9
$MEASUREMENT
 70
0
  9
$INSUNITS
 70
1
  0
ENDSEC
  0
SECTION
  2
CLASSES
  0
CLASS
  1
ACDBDICTIONARYWDFLT
  2
AcDbDictionaryWithDefault
  3
AutoCAD 2000
 90
0
 91
1
280
0
281
0
  0
CLASS
  1
ACDBPLACEHOLDER
  2
AcDbPlaceHolder
  3
AutoCAD 2000
 90
0
 91
1
280
0
281
0
  0
CLASS
  1
LAYOUT
  2
AcDbLayout
  3
AutoCAD 2000
 90
0
 91
0
280
0
281
0
  0
ENDSEC
  0
SECTION
  2
TABLES
  0
TABLE
  2
VPORT
  5
8
100
AcDbSymbolTable
 70
2
  0
VPORT
  5
1F4
100
AcDbSymbolTableRecord
100
AcDbViewportTableRecord
  2
*ACTIVE
 70
0
 10
0.0
 20
0.0
 11
1.0
 21
1.0
 12
11.0
 22
8.5
 13
0.0
 23
0.0
 14
1.0
 24
1.0
 15
0.0
 25
0.0
 16
0.0
 26
0.0
 36
1.0
 17
0.0
 27
0.0
 37
0.0
 40
17.0
 41
1.2941176471
 42
50.0
 43
0.0
 44
0.0
 50
0.0
 51
0.0
 71
0
 72
100
 73
1
 74
1
 75
0
 76
0
 77
0
 78
0
  0
ENDTAB
  0
TABLE
  2
LTYPE
  5
5
100
AcDbSymbolTable
 70
6
  0
LTYPE
  5
14
100
AcDbSymbolTableRecord
100
AcDbLinetypeTableRecord
  2
BYBLOCK
 70
0
  3

 72
65
 73
0
 40
0.0
  0
LTYPE
  5
15
100
AcDbSymbolTableRecord
100
AcDbLinetypeTableRecord
  2
BYLAYER
 70
0
  3

 72
65
 73
0
 40
0.0
  0
LTYPE
  5
16
100
AcDbSymbolTableRecord
100
AcDbLinetypeTableRecord
  2
CONTINUOUS
 70
64
  3
Solid line
 72
65
 73
0
 40
0.0
  0
LTYPE
  5
1F5
100
AcDbSymbolTableRecord
100
AcDbLinetypeTableRecord
  2
CENTER
 70
64
  3
____ _ ____ _ ____ _ ____ _ ____ _ ____ _ ____
 72
65
 73
4
 40
0.6
 49
0.375
 74
0
 49
-0.075
 74
0
 49
0.075
 74
0
 49
-0.075
 74
0
  0
LTYPE
  5
1F6
100
AcDbSymbolTableRecord
100
AcDbLinetypeTableRecord
  2
HIDDEN
 70
64
  3
- - - - - - - - - - - - - - - - - - - -
 72
65
 73
2
 40
0.2
 49
0.1
 74
0
 49
-0.1
 74
0
  0
LTYPE
  5
1F7
100
AcDbSymbolTableRecord
100
AcDbLinetypeTableRecord
  2
PHANTOM
 70
64
  3
_____ _ _ _____ _ _ _____ _ _ _____
 72
65
 73
6
 40
0.8
 49
0.45
 74
0
 49
-0.05
 74
0
 49
0.1
 74
0
 49
-0.05
 74
0
 49
0.1
 74
0
 49
-0.05
 74
0
  0
LTYPE
  5
1F8
100
AcDbSymbolTableRecord
100
AcDbLinetypeTableRecord
  2
DOT
 70
64
  3
. . . . . . . . . . . . . . . . . . . .
 72
65
 73
2
 40
0.2
 49
0.1
 74
0
 49
-0.1
 74
0
  0
LTYPE
  5
1F9
100
AcDbSymbolTableRecord
100
AcDbLinetypeTableRecord
  2
DASHED
 70
64
  3
- - - - - - - - - - - - - - - - - - - -
 72
65
 73
2
 40
0.2
 49
0.1
 74
0
 49
-0.1
 74
0
  0
ENDTAB
  0
TABLE
  2
LAYER
  5
2
100
AcDbSymbolTable
 70
36
  0
LAYER
  5
10
100
AcDbSymbolTableRecord
100
AcDbLayerTableRecord
  2
0
 70
0
 62
7
  6
CONTINUOUS
370
-3
390
F
  0
LAYER
  5
1FA
100
AcDbSymbolTableRecord
100
AcDbLayerTableRecord
  2
DEFAULT_1
 70
0
 62
7
  6
CENTER
370
-3
390
F
  0
LAYER
  5
1FB
100
AcDbSymbolTableRecord
100
AcDbLayerTableRecord
  2
DEFAULT_2
 70
0
 62
8
  6
HIDDEN
370
-3
390
F
  0
LAYER
  5
1FC
100
AcDbSymbolTableRecord
100
AcDbLayerTableRecord
  2
DEFAULT_3
 70
0
 62
7
  6
PHANTOM
370
-3
390
F
  0
LAYER
  5
1FD
100
AcDbSymbolTableRecord
100
AcDbLayerTableRecord
  2
01_ALL_DTM_PLN
 70
0
 62
7
  6
CONTINUOUS
370
-3
390
F
  0
LAYER
  5
1FE
100
AcDbSymbolTableRecord
100
AcDbLayerTableRecord
  2
01__ASM_ALL_DTM_PLN
 70
0
 62
7
  6
CONTINUOUS
370
-3
390
F
  0
LAYER
  5
1FF
100
AcDbSymbolTableRecord
100
AcDbLayerTableRecord
  2
01__ASM_DEF_DTM_PLN
 70
0
 62
7
  6
CONTINUOUS
370
-3
390
F
  0
LAYER
  5
200
100
AcDbSymbolTableRecord
100
AcDbLayerTableRecord
  2
01___PRT_ALL_DTM_PLN
 70
0
 62
7
  6
CONTINUOUS
370
-3
390
F
  0
LAYER
  5
201
100
AcDbSymbolTableRecord
100
AcDbLayerTableRecord
  2
01___PRT_DEF_DTM_PLN
 70
0
 62
7
  6
CONTINUOUS
370
-3
390
F
  0
LAYER
  5
202
100
AcDbSymbolTableRecord
100
AcDbLayerTableRecord
  2
02_ALL_AXES
 70
0
 62
7
  6
CONTINUOUS
370
-3
390
F
  0
LAYER
  5
203
100
AcDbSymbolTableRecord
100
AcDbLayerTableRecord
  2
02__ASM_ALL_AXES
 70
0
 62
7
  6
CONTINUOUS
370
-3
390
F
  0
LAYER
  5
204
100
AcDbSymbolTableRecord
100
AcDbLayerTableRecord
  2
02___PRT_ALL_AXES
 70
0
 62
7
  6
CONTINUOUS
370
-3
390
F
  0
LAYER
  5
205
100
AcDbSymbolTableRecord
100
AcDbLayerTableRecord
  2
03_ALL_CURVES
 70
0
 62
7
  6
CONTINUOUS
370
-3
390
F
  0
LAYER
  5
206
100
AcDbSymbolTableRecord
100
AcDbLayerTableRecord
  2
03__ASM_ALL_CURVES
 70
0
 62
7
  6
CONTINUOUS
370
-3
390
F
  0
LAYER
  5
207
100
AcDbSymbolTableRecord
100
AcDbLayerTableRecord
  2
03___PRT_ALL_CURVES
 70
0
 62
7
  6
CONTINUOUS
370
-3
390
F
  0
LAYER
  5
208
100
AcDbSymbolTableRecord
100
AcDbLayerTableRecord
  2
04_ALL_DTM_PNT
 70
0
 62
7
  6
CONTINUOUS
370
-3
390
F
  0
LAYER
  5
209
100
AcDbSymbolTableRecord
100
AcDbLayerTableRecord
  2
04__ASM_ALL_DTM_PNT
 70
0
 62
7
  6
CONTINUOUS
370
-3
390
F
  0
LAYER
  5
20A
100
AcDbSymbolTableRecord
100
AcDbLayerTableRecord
  2
04___PRT_ALL_DTM_PNT
 70
0
 62
7
  6
CONTINUOUS
370
-3
390
F
  0
LAYER
  5
20B
100
AcDbSymbolTableRecord
100
AcDbLayerTableRecord
  2
05_ALL_DTM_CSYS
 70
0
 62
7
  6
CONTINUOUS
370
-3
390
F
  0
LAYER
  5
20C
100
AcDbSymbolTableRecord
100
AcDbLayerTableRecord
  2
05__ASM_ALL_DTM_CSYS
 70
0
 62
7
  6
CONTINUOUS
370
-3
390
F
  0
LAYER
  5
20D
100
AcDbSymbolTableRecord
100
AcDbLayerTableRecord
  2
05__ASM_DEF_DTM_CSYS
 70
0
 62
7
  6
CONTINUOUS
370
-3
390
F
  0
LAYER
  5
20E
100
AcDbSymbolTableRecord
100
AcDbLayerTableRecord
  2
05___PRT_ALL_DTM_CSYS
 70
0
 62
7
  6
CONTINUOUS
370
-3
390
F
  0
LAYER
  5
20F
100
AcDbSymbolTableRecord
100
AcDbLayerTableRecord
  2
05___PRT_DEF_DTM_CSYS
 70
0
 62
7
  6
CONTINUOUS
370
-3
390
F
  0
LAYER
  5
210
100
AcDbSymbolTableRecord
100
AcDbLayerTableRecord
  2
06_ALL_SURFS
 70
0
 62
7
  6
CONTINUOUS
370
-3
390
F
  0
LAYER
  5
211
100
AcDbSymbolTableRecord
100
AcDbLayerTableRecord
  2
06__ASM_ALL_SURFS
 70
0
 62
7
  6
CONTINUOUS
370
-3
390
F
  0
LAYER
  5
212
100
AcDbSymbolTableRecord
100
AcDbLayerTableRecord
  2
06___PRT_ALL_SURFS
 70
0
 62
7
  6
CONTINUOUS
370
-3
390
F
  0
LAYER
  5
213
100
AcDbSymbolTableRecord
100
AcDbLayerTableRecord
  2
07__ASM_ALL_SKELETONS
 70
0
 62
7
  6
CONTINUOUS
370
-3
390
F
  0
ENDTAB
  0
TABLE
  2
STYLE
  5
3
100
AcDbSymbolTable
 70
1
  0
STYLE
  5
11
100
AcDbSymbolTableRecord
100
AcDbTextStyleTableRecord
  2
STANDARD
 70
0
 40
0.0
 41
0.8
 50
0.0
 71
0
 42
0.2
  3
txt
  4

  0
STYLE
  5
214
100
AcDbSymbolTableRecord
100
AcDbTextStyleTableRecord
  2
TEXTSTYLE_1
 70
0
 40
0.0
 41
0.8
 50
0.0
 71
0
 42
0.2
  3
gdt
  4

  0
ENDTAB
  0
TABLE
  2
VIEW
  5
6
100
AcDbSymbolTable
 70
0
  0
ENDTAB
  0
TABLE
  2
UCS
  5
7
100
AcDbSymbolTable
 70
0
  0
ENDTAB
  0
TABLE
  2
APPID
  5
9
100
AcDbSymbolTable
 70
1
  0
APPID
  5
215
100
AcDbSymbolTableRecord
100
AcDbRegAppTableRecord
  2
ACAD
 70
0
  0
ENDTAB
  0
TABLE
  2
BLOCK_RECORD
  5
1
100
AcDbSymbolTable
 70
0
  0
BLOCK_RECORD
  5
216
100
AcDbSymbolTableRecord
100
AcDbBlockTableRecord
  2
*Model_Space
  0
BLOCK_RECORD
  5
217
100
AcDbSymbolTableRecord
100
AcDbBlockTableRecord
  2
*Paper_Space
  0
BLOCK_RECORD
  5
218
100
AcDbSymbolTableRecord
100
AcDbBlockTableRecord
  2
_CLOSED
  0
ENDTAB
  0
TABLE
  2
DIMSTYLE
  5
A
100
AcDbSymbolTable
 70
1
100
AcDbDimStyleTable
 71
0
  0
DIMSTYLE
105
219
100
AcDbSymbolTableRecord
100
AcDbDimStyleTableRecord
  2
STANDARD
 70
0
  3

  4

 40
1.0
 41
0.1875
 42
0.0625
 43
0.38
 44
0.125
 45
0.0
 46
0.0
 47
0.01
 48
0.01
140
0.15625
141
0.09
142
0.0
143
25.4
144
1.0
145
0.0
146
1.0
147
0.09
 71
0.0
 72
0.0
 73
1
 74
1
 75
0
 76
0
 77
0
 78
4
 79
1
170
0
171
1
172
0
173
0
174
0
175
0
176
0
177
0
178
0
270
2
179
2
271
2
272
2
273
2
274
2
275
0
280
0
281
0
282
0
283
1
284
4
285
0
286
0
287
3
288
0
340
11
278
46
341
218
342
218
343
218
344
218
  0
ENDTAB
  0
ENDSEC
  0
SECTION
  2
BLOCKS
  0
BLOCK
  5
20
100
AcDbEntity
  8
0
100
AcDbBlockBegin
  2
*Model_Space
 70
0
 10
0.0
 20
0.0
 30
0.0
  3
*Model_Space
  1

  0
ENDBLK
  5
21
100
AcDbEntity
  8
0
100
AcDbBlockEnd
  0
BLOCK
  5
1C
100
AcDbEntity
  8
0
100
AcDbBlockBegin
  2
*Paper_Space
 70
0
 10
0.0
 20
0.0
 30
0.0
  3
*Paper_Space
  1

  0
ENDBLK
  5
1D
100
AcDbEntity
  8
0
100
AcDbBlockEnd
  0
BLOCK
  5
21A
100
AcDbEntity
  8
0
100
AcDbBlockBegin
  2
_CLOSED
 70
64
 10
0.0
 20
0.0
  3
_CLOSED
  1

  0
LINE
  5
21B
100
AcDbEntity
  8
0
  6
BYBLOCK
 62
0
100
AcDbLine
 10
0.0
 20
0.0
 11
-1.0
 21
0.1666666667
  0
LINE
  5
21C
100
AcDbEntity
  8
0
  6
BYBLOCK
 62
0
100
AcDbLine
 10
-1.0
 20
0.1666666667
 11
-1.0
 21
-0.1666666667
  0
LINE
  5
21D
100
AcDbEntity
  8
0
  6
BYBLOCK
 62
0
100
AcDbLine
 10
-1.0
 20
-0.1666666667
 11
0.0
 21
0.0
  0
LINE
  5
21E
100
AcDbEntity
  8
0
  6
BYBLOCK
 62
0
100
AcDbLine
 10
-1.0
 20
0.0
 11
0.0
 21
0.0
  0
ENDBLK
  5
21F
100
AcDbEntity
  8
0
  6
BYBLOCK
 62
0
100
AcDbBlockEnd
  0
ENDSEC
  0
SECTION
  2
ENTITIES
  0
LINE
  5
220
100
AcDbEntity
  8
0
100
AcDbLine
 62
7
  6
CONTINUOUS
 10
-30.5620052525
 20
49.105248517
 11
-30.5800895673
 21
49.285194281
  0
LINE
  5
221
100
AcDbEntity
  8
0
100
AcDbLine
 62
7
  6
CONTINUOUS
 10
-52.1940265857
 20
-3.503427505
 11
-52.1865116935
 21
-3.6200701546
  0
LINE
  5
222
100
AcDbEntity
  8
0
100
AcDbLine
 62
7
  6
CONTINUOUS
 10
-30.6215130684
 20
47.4695106988
 11
-30.6577382741
 21
48.1010603729
  0
LINE
  5
223
100
AcDbEntity
  8
0
100
AcDbLine
 62
7
  6
CONTINUOUS
 10
-11.1560362006
 20
27.3902312029
 11
-11.8023241435
 21
39.8256130275
  0
LINE
  5
224
100
AcDbEntity
  8
0
100
AcDbLine
 62
7
  6
CONTINUOUS
 10
-10.2573375357
 20
36.4686082683
 11
-9.7431063036
 21
26.5741613796
  0
LINE
  5
225
100
AcDbEntity
  8
0
100
AcDbLine
 62
7
  6
CONTINUOUS
 10
-30.6577457747
 20
48.1016008697
 11
-30.6577888785
 21
48.1244713624
  0
LINE
  5
226
100
AcDbEntity
  8
0
100
AcDbLine
 62
7
  6
CONTINUOUS
 10
-52.1939935099
 20
-3.5034628593
 11
-52.1939936572
 21
-3.3927326286
  0
LINE
  5
227
100
AcDbEntity
  8
0
100
AcDbLine
 62
7
  6
CONTINUOUS
 10
-51.8525548963
 20
-3.6898858418
 11
-51.8525548963
 21
-3.5720869435
  0
LINE
  5
228
100
AcDbEntity
  8
0
100
AcDbLine
 62
7
  6
CONTINUOUS
 10
-30.5620397253
 20
49.1055326058
 11
-30.5627144586
 21
48.409965018
  0
LINE
  5
229
100
AcDbEntity
  8
0
100
AcDbLine
 62
7
  6
CONTINUOUS
 10
-30.6429798632
 20
48.1007328907
 11
-30.6421869641
 21
48.114221576
  0
LINE
  5
22A
100
AcDbEntity
  8
0
100
AcDbLine
 62
7
  6
CONTINUOUS
 10
-30.5620378788
 20
49.1049979841
 11
-30.5627144611
 21
49.0947666558
  0
LINE
  5
22B
100
AcDbEntity
  8
0
100
AcDbLine
 62
7
  6
CONTINUOUS
 10
-30.6543117633
 20
47.9801173814
 11
-30.6437263311
 21
48.1019769116
  0
LINE
  5
22C
100
AcDbEntity
  8
0
100
AcDbLine
 62
7
  6
CONTINUOUS
 10
-65.5360214486
 20
14.4468828783
 11
-65.5683695652
 21
14.1380504175
  0
LINE
  5
22D
100
AcDbEntity
  8
0
100
AcDbLine
 62
7
  6
CONTINUOUS
 10
-61.4022127286
 20
2.9789432717
 11
-61.4406642977
 21
2.6619894148
  0
LINE
  5
22E
100
AcDbEntity
  8
0
100
AcDbLine
 62
7
  6
CONTINUOUS
 10
-30.6437263311
 20
48.1019769116
 11
-30.6421869641
 21
48.114221576
  0
LINE
  5
22F
100
AcDbEntity
  8
0
100
AcDbLine
 62
7
  6
CONTINUOUS
 10
-30.6421869641
 20
48.114221576
 11
-30.6412932448
 21
48.120996805
  0
LINE
  5
230
100
AcDbEntity
  8
0
100
AcDbLine
 62
7
  6
CONTINUOUS
 10
-30.5627144611
 20
48.409964731
 11
-30.5620378788
 21
48.4130641762
  0
LINE
  5
231
100
AcDbEntity
  8
0
100
AcDbLine
 62
7
  6
CONTINUOUS
 10
-63.4757959246
 20
28.1405588691
 11
-63.475815889
 21
28.1404712238
  0
LINE
  5
232
100
AcDbEntity
  8
0
100
AcDbLine
 62
7
  6
CONTINUOUS
 10
-30.6421869641
 20
48.114221576
 11
-30.6406688823
 21
48.1198708586
  0
LINE
  5
233
100
AcDbEntity
  8
0
100
AcDbLine
 62
7
  6
CONTINUOUS
 10
-63.4196801694
 20
28.3276035877
 11
-63.4758289497
 21
28.1405010434
  0
LINE
  5
234
100
AcDbEntity
  8
0
100
AcDbLine
 62
7
  6
CONTINUOUS
 10
-65.4345734396
 20
14.7294414648
 11
-65.5360214486
 21
14.4468828783
  0
LINE
  5
235
100
AcDbEntity
  8
0
100
AcDbLine
 62
7
  6
CONTINUOUS
 10
-61.3471600651
 20
3.1297024469
 11
-61.4022127286
 21
2.9789432717
  0
LINE
  5
236
100
AcDbEntity
  8
0
100
AcDbLine
 62
7
  6
CONTINUOUS
 10
-61.3471252137
 20
3.1297054771
 11
-61.0437797066
 21
3.7954860887
  0
LINE
  5
237
100
AcDbEntity
  8
0
100
AcDbLine
 62
7
  6
CONTINUOUS
 10
-61.0066092806
 20
2.930591791
 11
-60.6988116107
 21
3.6061439756
  0
LINE
  5
238
100
AcDbEntity
  8
0
100
AcDbLine
 62
7
  6
CONTINUOUS
 10
-10.1588855279
 20
1.1899002508
 11
-10.1501153804
 21
1.2087084352
  0
LINE
  5
239
100
AcDbEntity
  8
0
100
AcDbLine
 62
7
  6
CONTINUOUS
 10
-63.2791318704
 20
28.6089538581
 11
-63.4196801694
 21
28.3276035877
  0
LINE
  5
23A
100
AcDbEntity
  8
0
100
AcDbLine
 62
7
  6
CONTINUOUS
 10
-65.2771293603
 20
14.9637714457
 11
-65.4345734396
 21
14.7294414648
  0
LINE
  5
23B
100
AcDbEntity
  8
0
100
AcDbLine
 62
7
  6
CONTINUOUS
 10
-55.4442257495
 20
40.9029695393
 11
-55.430114777
 21
40.9237780778
  0
LINE
  5
23C
100
AcDbEntity
  8
0
100
AcDbLine
 62
7
  6
CONTINUOUS
 10
-7.0701528738
 20
6.5413050293
 11
-7.0580001346
 21
6.5586479868
  0
LINE
  5
23D
100
AcDbEntity
  8
0
100
AcDbLine
 62
7
  6
CONTINUOUS
 10
-55.4448701983
 20
40.9035180218
 11
-55.430114777
 21
40.9237780778
  0
LINE
  5
23E
100
AcDbEntity
  8
0
100
AcDbLine
 62
7
  6
CONTINUOUS
 10
-63.0921397806
 20
28.8384670491
 11
-63.2791318704
 21
28.6089538581
  0
LINE
  5
23F
100
AcDbEntity
  8
0
100
AcDbLine
 62
7
  6
CONTINUOUS
 10
-55.4071591816
 20
41.1326884779
 11
-55.5436920022
 21
40.9704281979
  0
LINE
  5
240
100
AcDbEntity
  8
0
100
AcDbLine
 62
7
  6
CONTINUOUS
 10
-65.1980637552
 20
15.0442988894
 11
-65.2771293603
 21
14.9637714457
  0
LINE
  5
241
100
AcDbEntity
  8
0
100
AcDbLine
 62
7
  6
CONTINUOUS
 10
-65.1980518883
 20
15.0442672309
 11
-64.6684311898
 21
15.526383084
  0
LINE
  5
242
100
AcDbEntity
  8
0
100
AcDbLine
 62
7
  6
CONTINUOUS
 10
-64.8555132134
 20
14.8488736897
 11
-64.3224478076
 21
15.3341252719
  0
LINE
  5
243
100
AcDbEntity
  8
0
100
AcDbLine
 62
7
  6
CONTINUOUS
 10
-55.1711395647
 20
41.32748391
 11
-55.4071591816
 21
41.1326884779
  0
LINE
  5
244
100
AcDbEntity
  8
0
100
AcDbLine
 62
7
  6
CONTINUOUS
 10
-62.8756293729
 20
29.0015092986
 11
-63.0921397806
 21
28.8384670491
  0
LINE
  5
245
100
AcDbEntity
  8
0
100
AcDbLine
 62
7
  6
CONTINUOUS
 10
-43.8482945472
 20
48.9693859337
 11
-43.8481998789
 21
48.9694392001
  0
LINE
  5
246
100
AcDbEntity
  8
0
100
AcDbLine
 62
7
  6
CONTINUOUS
 10
-54.9202132441
 20
41.4488209977
 11
-55.1711395647
 21
41.32748391
  0
LINE
  5
247
100
AcDbEntity
  8
0
100
AcDbLine
 62
7
  6
CONTINUOUS
 10
-43.653468277
 20
49.0581806863
 11
-43.8482684208
 21
48.9694243284
  0
LINE
  5
248
100
AcDbEntity
  8
0
100
AcDbLine
 62
7
  6
CONTINUOUS
 10
-62.6680142179
 20
29.0870406439
 11
-62.8756293729
 21
29.0015092986
  0
LINE
  5
249
100
AcDbEntity
  8
0
100
AcDbLine
 62
7
  6
CONTINUOUS
 10
-51.5475690877
 20
-4.3551191519
 11
-47.8427421438
 21
-5.3543401887
  0
LINE
  5
24A
100
AcDbEntity
  8
0
100
AcDbLine
 62
7
  6
CONTINUOUS
 10
-39.0730287612
 20
-8.6722956788
 11
-38.9981084082
 21
-8.6953590769
  0
LINE
  5
24B
100
AcDbEntity
  8
0
100
AcDbLine
 62
7
  6
CONTINUOUS
 10
-38.6622962121
 20
-8.80064164
 11
-38.4758887058
 21
-8.8579990818
  0
LINE
  5
24C
100
AcDbEntity
  8
0
100
AcDbLine
 62
7
  6
CONTINUOUS
 10
-39.0721573787
 20
-8.6697398952
 11
-38.9994732746
 21
-8.6928633872
  0
LINE
  5
24D
100
AcDbEntity
  8
0
100
AcDbLine
 62
7
  6
CONTINUOUS
 10
-38.8509963046
 20
-8.7300274861
 11
-38.4627978532
 21
-8.8609645242
  0
LINE
  5
24E
100
AcDbEntity
  8
0
100
AcDbLine
 62
7
  6
CONTINUOUS
 10
-42.8094941585
 20
-7.3449457986
 11
-42.548932353
 21
-7.4373085603
  0
LINE
  5
24F
100
AcDbEntity
  8
0
100
AcDbLine
 62
7
  6
CONTINUOUS
 10
-39.0721573787
 20
-8.6697398952
 11
-39.0002283938
 21
-8.6952369537
  0
LINE
  5
250
100
AcDbEntity
  8
0
100
AcDbLine
 62
7
  6
CONTINUOUS
 10
-42.829590895
 20
-7.3992480573
 11
-42.5694736733
 21
-7.4931210293
  0
LINE
  5
251
100
AcDbEntity
  8
0
100
AcDbLine
 62
7
  6
CONTINUOUS
 10
-49.290463513
 20
9.0790590953
 11
-49.2775326423
 21
9.0739979624
  0
LINE
  5
252
100
AcDbEntity
  8
0
100
AcDbLine
 62
7
  6
CONTINUOUS
 10
-51.7477049536
 20
-4.2707931229
 11
-51.5475010995
 21
-4.3551430888
  0
LINE
  5
253
100
AcDbEntity
  8
0
100
AcDbLine
 62
7
  6
CONTINUOUS
 10
34.9800017557
 20
-26.6042152784
 11
35.2585226947
 21
-26.7337282274
  0
LINE
  5
254
100
AcDbEntity
  8
0
100
AcDbLine
 62
7
  6
CONTINUOUS
 10
-57.4447257541
 20
-0.637494004
 11
-57.5358241521
 21
-0.5855479814
  0
LINE
  5
255
100
AcDbEntity
  8
0
100
AcDbLine
 62
7
  6
CONTINUOUS
 10
-0.2988534802
 20
-36.7245282026
 11
4.5994319099
 21
-39.5536444265
  0
LINE
  5
256
100
AcDbEntity
  8
0
100
AcDbLine
 62
7
  6
CONTINUOUS
 10
17.6031887218
 20
-46.4578609711
 11
16.0830311855
 21
-45.5798593845
  0
LINE
  5
257
100
AcDbEntity
  8
0
100
AcDbLine
 62
7
  6
CONTINUOUS
 10
5.849793143
 20
-37.3887895157
 11
31.3546584451
 21
-52.1197050221
  0
LINE
  5
258
100
AcDbEntity
  8
0
100
AcDbLine
 62
7
  6
CONTINUOUS
 10
36.9016702517
 20
-54.7429138904
 11
44.1083430088
 21
-58.9052917836
  0
LINE
  5
259
100
AcDbEntity
  8
0
100
AcDbLine
 62
7
  6
CONTINUOUS
 10
38.4116172572
 20
-54.2471817755
 11
43.1294493506
 21
-56.9720730923
  0
LINE
  5
25A
100
AcDbEntity
  8
0
100
AcDbLine
 62
7
  6
CONTINUOUS
 10
-34.3945161066
 20
-11.257743147
 11
-10.9031971762
 21
-24.8256891149
  0
LINE
  5
25B
100
AcDbEntity
  8
0
100
AcDbLine
 62
7
  6
CONTINUOUS
 10
-45.1589944023
 20
-1.4605570975
 11
-40.8594358209
 21
-3.9438650239
  0
LINE
  5
25C
100
AcDbEntity
  8
0
100
AcDbLine
 62
7
  6
CONTINUOUS
 10
24.8000503529
 20
-31.532735462
 11
42.0880409813
 21
-41.5178079658
  0
LINE
  5
25D
100
AcDbEntity
  8
0
100
AcDbLine
 62
7
  6
CONTINUOUS
 10
25.2450865393
 20
-27.8791110522
 11
32.2576557399
 21
-31.929380018
  0
LINE
  5
25E
100
AcDbEntity
  8
0
100
AcDbLine
 62
7
  6
CONTINUOUS
 10
36.5764336962
 20
-29.095959312
 11
46.0891969236
 21
-34.5902722476
  0
LINE
  5
25F
100
AcDbEntity
  8
0
100
AcDbLine
 62
7
  6
CONTINUOUS
 10
27.031024278
 20
-21.9817492402
 11
35.2585226947
 21
-26.7337282274
  0
LINE
  5
260
100
AcDbEntity
  8
0
100
AcDbLine
 62
7
  6
CONTINUOUS
 10
-57.4423491345
 20
-0.4608306184
 11
-57.4179711594
 21
-0.4756481732
  0
LINE
  5
261
100
AcDbEntity
  8
0
100
AcDbLine
 62
7
  6
CONTINUOUS
 10
-57.4326780058
 20
-0.424319584
 11
-57.4085044931
 21
-0.4397825452
  0
LINE
  5
262
100
AcDbEntity
  8
0
100
AcDbLine
 62
7
  6
CONTINUOUS
 10
-61.0875320601
 20
1.9156017001
 11
-61.055799934
 21
1.8932942085
  0
LINE
  5
263
100
AcDbEntity
  8
0
100
AcDbLine
 62
7
  6
CONTINUOUS
 10
-51.9648054135
 20
-4.0983022462
 11
-51.7477049536
 21
-4.2707931229
  0
LINE
  5
264
100
AcDbEntity
  8
0
100
AcDbLine
 62
7
  6
CONTINUOUS
 10
-61.2203312331
 20
2.0533708302
 11
-61.0875583364
 21
1.9155910194
  0
LINE
  5
265
100
AcDbEntity
  8
0
100
AcDbLine
 62
7
  6
CONTINUOUS
 10
-61.0704529273
 20
3.7468527645
 11
-61.0843176418
 21
3.7669306136
  0
LINE
  5
266
100
AcDbEntity
  8
0
100
AcDbLine
 62
7
  6
CONTINUOUS
 10
-42.5962767643
 20
48.7410047319
 11
-42.6462913328
 21
48.8140613828
  0
LINE
  5
267
100
AcDbEntity
  8
0
100
AcDbLine
 62
7
  6
CONTINUOUS
 10
-52.1136228959
 20
-3.874343766
 11
-51.9648054135
 21
-4.0983022462
  0
LINE
  5
268
100
AcDbEntity
  8
0
100
AcDbLine
 62
7
  6
CONTINUOUS
 10
-61.0622285978
 20
3.7549945898
 11
-61.0752425672
 21
3.7758988431
  0
LINE
  5
269
100
AcDbEntity
  8
0
100
AcDbLine
 62
7
  6
CONTINUOUS
 10
-42.5690726556
 20
48.6434212491
 11
-42.2612863852
 21
48.1329041497
  0
LINE
  5
26A
100
AcDbEntity
  8
0
100
AcDbLine
 62
7
  6
CONTINUOUS
 10
-42.5964112471
 20
48.7411533142
 11
-42.2721599296
 21
48.203327664
  0
LINE
  5
26B
100
AcDbEntity
  8
0
100
AcDbLine
 62
7
  6
CONTINUOUS
 10
-61.3797771728
 20
2.340966445
 11
-61.2203312331
 21
2.0533708302
  0
LINE
  5
26C
100
AcDbEntity
  8
0
100
AcDbLine
 62
7
  6
CONTINUOUS
 10
-30.5800895673
 20
49.285194281
 11
-30.665631921
 21
49.5227919465
  0
LINE
  5
26D
100
AcDbEntity
  8
0
100
AcDbLine
 62
7
  6
CONTINUOUS
 10
-52.1865116935
 20
-3.6200701546
 11
-52.1136228959
 21
-3.874343766
  0
LINE
  5
26E
100
AcDbEntity
  8
0
100
AcDbLine
 62
7
  6
CONTINUOUS
 10
-42.5961298456
 20
48.7406881513
 11
-42.5690752464
 21
48.6434255442
  0
LINE
  5
26F
100
AcDbEntity
  8
0
100
AcDbLine
 62
7
  6
CONTINUOUS
 10
-65.5314939316
 20
13.8579163651
 11
-65.5314788414
 21
13.8578568935
  0
LINE
  5
270
100
AcDbEntity
  8
0
100
AcDbLine
 62
7
  6
CONTINUOUS
 10
-4.8041726839
 20
23.7215678442
 11
-5.2113146103
 21
25.362273778
  0
LINE
  5
271
100
AcDbEntity
  8
0
100
AcDbLine
 62
7
  6
CONTINUOUS
 10
-61.4406642977
 20
2.6619894148
 11
-61.3797771728
 21
2.340966445
  0
LINE
  5
272
100
AcDbEntity
  8
0
100
AcDbLine
 62
7
  6
CONTINUOUS
 10
-30.4561364294
 20
46.4585293375
 11
-30.6215130684
 21
47.4695106988
  0
LINE
  5
273
100
AcDbEntity
  8
0
100
AcDbLine
 62
7
  6
CONTINUOUS
 10
-42.2612863065
 20
48.1329040202
 11
-42.2721594166
 21
48.2033268105
  0
LINE
  5
274
100
AcDbEntity
  8
0
100
AcDbLine
 62
7
  6
CONTINUOUS
 10
-65.5683695652
 20
14.1380504175
 11
-65.5314886687
 21
13.8578051461
  0
LINE
  5
275
100
AcDbEntity
  8
0
100
AcDbLine
 62
7
  6
CONTINUOUS
 10
-3.4003384659
 20
23.5057700183
 11
-3.2567196041
 21
22.8278010948
  0
LINE
  5
276
100
AcDbEntity
  8
0
100
AcDbLine
 62
7
  6
CONTINUOUS
 10
31.5637979328
 20
-14.056968087
 11
52.9187152102
 21
-26.3909866523
  0
LINE
  5
277
100
AcDbEntity
  8
0
100
AcDbLine
 62
7
  6
CONTINUOUS
 10
-30.665631921
 20
49.5227919465
 11
-30.8183216588
 21
49.7282586527
  0
LINE
  5
278
100
AcDbEntity
  8
0
100
AcDbLine
 62
7
  6
CONTINUOUS
 10
55.641061226
 20
-21.0658219128
 11
55.919582165
 21
-21.1953348618
  0
LINE
  5
279
100
AcDbEntity
  8
0
100
AcDbLine
 62
7
  6
CONTINUOUS
 10
33.1542997556
 20
-12.2197452311
 11
42.5881854751
 21
-17.6685006658
  0
LINE
  5
27A
100
AcDbEntity
  8
0
100
AcDbLine
 62
7
  6
CONTINUOUS
 10
-42.6462913328
 20
48.8140613828
 11
-42.8256427521
 21
48.9819682606
  0
LINE
  5
27B
100
AcDbEntity
  8
0
100
AcDbLine
 62
7
  6
CONTINUOUS
 10
0.8754922915
 20
23.9354797659
 11
0.7318734271
 21
24.6134486919
  0
LINE
  5
27C
100
AcDbEntity
  8
0
100
AcDbLine
 62
7
  6
CONTINUOUS
 10
46.732568822
 20
-15.8891661879
 11
55.919582165
 21
-21.1953348618
  0
LINE
  5
27D
100
AcDbEntity
  8
0
100
AcDbLine
 62
7
  6
CONTINUOUS
 10
-17.8178373398
 20
40.0548624547
 11
-18.214365043
 21
40.562171369
  0
LINE
  5
27E
100
AcDbEntity
  8
0
100
AcDbLine
 62
7
  6
CONTINUOUS
 10
-19.5039434469
 20
42.0439363556
 11
-19.4656574452
 21
41.9973383792
  0
LINE
  5
27F
100
AcDbEntity
  8
0
100
AcDbLine
 62
7
  6
CONTINUOUS
 10
-18.214365043
 20
40.562171369
 11
-19.6282360913
 21
42.2865973486
  0
LINE
  5
280
100
AcDbEntity
  8
0
100
AcDbLine
 62
7
  6
CONTINUOUS
 10
-9.7850998594
 20
35.7550761876
 11
-10.2573375357
 21
36.4686082683
  0
LINE
  5
281
100
AcDbEntity
  8
0
100
AcDbLine
 62
7
  6
CONTINUOUS
 10
37.8791501306
 20
-8.0198193079
 11
45.5890524299
 21
-12.4728488778
  0
LINE
  5
282
100
AcDbEntity
  8
0
100
AcDbLine
 62
7
  6
CONTINUOUS
 10
-10.1132602166
 20
38.8500557101
 11
-9.7287203202
 21
38.3082712413
  0
LINE
  5
283
100
AcDbEntity
  8
0
100
AcDbLine
 62
7
  6
CONTINUOUS
 10
-19.6282360913
 20
42.2865973486
 11
-20.6792463566
 21
43.3458806834
  0
LINE
  5
284
100
AcDbEntity
  8
0
100
AcDbLine
 62
7
  6
CONTINUOUS
 10
-5.5965084271
 20
39.4159499124
 11
-5.9810483235
 21
39.9577343838
  0
LINE
  5
285
100
AcDbEntity
  8
0
100
AcDbLine
 62
7
  6
CONTINUOUS
 10
-11.1560362006
 20
27.3902312029
 11
-9.7431063036
 21
26.5741613796
  0
LINE
  5
286
100
AcDbEntity
  8
0
100
AcDbLine
 62
7
  6
CONTINUOUS
 10
-4.8041726839
 20
23.7215678442
 11
-3.2567196041
 21
22.8278010948
  0
LINE
  5
287
100
AcDbEntity
  8
0
100
AcDbLine
 62
7
  6
CONTINUOUS
 10
-54.2106251129
 20
41.2411992362
 11
-53.6775537177
 21
41.0417319084
  0
LINE
  5
288
100
AcDbEntity
  8
0
100
AcDbLine
 62
7
  6
CONTINUOUS
 10
-54.3704623827
 20
41.4470393249
 11
-53.8012880601
 21
41.2340629386
  0
LINE
  5
289
100
AcDbEntity
  8
0
100
AcDbLine
 62
7
  6
CONTINUOUS
 10
-30.8183216588
 20
49.7282586527
 11
-31.0316001527
 21
49.8852403453
  0
LINE
  5
28A
100
AcDbEntity
  8
0
100
AcDbLine
 62
7
  6
CONTINUOUS
 10
-22.2512797124
 20
38.198951338
 11
-18.0352200699
 21
35.7638701223
  0
LINE
  5
28B
100
AcDbEntity
  8
0
100
AcDbLine
 62
7
  6
CONTINUOUS
 10
-20.6792463566
 20
43.3458806834
 11
-21.0073131808
 21
43.5918553451
  0
LINE
  5
28C
100
AcDbEntity
  8
0
100
AcDbLine
 62
7
  6
CONTINUOUS
 10
43.1294493506
 20
-56.9720730923
 11
43.1294493506
 21
-54.1604402726
  0
LINE
  5
28D
100
AcDbEntity
  8
0
100
AcDbLine
 62
7
  6
CONTINUOUS
 10
48.0881036243
 20
-52.8312258647
 11
48.0881036243
 21
-55.6428586844
  0
LINE
  5
28E
100
AcDbEntity
  8
0
100
AcDbLine
 62
7
  6
CONTINUOUS
 10
0.7318734271
 20
24.6134486919
 11
-3.4003384659
 21
23.5057700183
  0
LINE
  5
28F
100
AcDbEntity
  8
0
100
AcDbLine
 62
7
  6
CONTINUOUS
 10
-9.7287203202
 20
38.3082712413
 11
-5.5965084271
 21
39.4159499124
  0
LINE
  5
290
100
AcDbEntity
  8
0
100
AcDbLine
 62
7
  6
CONTINUOUS
 10
-10.1132602166
 20
38.8500557101
 11
-5.9810483235
 21
39.9577343838
  0
LINE
  5
291
100
AcDbEntity
  8
0
100
AcDbLine
 62
7
  6
CONTINUOUS
 10
-11.8023241435
 20
39.8256130275
 11
-7.6701122505
 21
40.9332917011
  0
LINE
  5
292
100
AcDbEntity
  8
0
100
AcDbLine
 62
7
  6
CONTINUOUS
 10
-62.3680515539
 20
28.8715967364
 11
-61.7524474257
 21
29.0366152736
  0
LINE
  5
293
100
AcDbEntity
  8
0
100
AcDbLine
 62
7
  6
CONTINUOUS
 10
-62.6679583226
 20
29.087018965
 11
-62.0341571569
 21
29.256915407
  0
LINE
  5
294
100
AcDbEntity
  8
0
100
AcDbLine
 62
7
  6
CONTINUOUS
 10
-43.3467626903
 20
49.1201519517
 11
-43.653468277
 21
49.0581806863
  0
LINE
  5
295
100
AcDbEntity
  8
0
100
AcDbLine
 62
7
  6
CONTINUOUS
 10
-54.6638702897
 20
41.4948298465
 11
-54.9202132441
 21
41.4488209977
  0
LINE
  5
296
100
AcDbEntity
  8
0
100
AcDbLine
 62
7
  6
CONTINUOUS
 10
-31.4535982597
 20
49.9957307238
 11
-31.4535367689
 21
49.9957285978
  0
LINE
  5
297
100
AcDbEntity
  8
0
100
AcDbLine
 62
7
  6
CONTINUOUS
 10
-43.0623475085
 20
49.0900305235
 11
-43.3467626903
 21
49.1201519517
  0
LINE
  5
298
100
AcDbEntity
  8
0
100
AcDbLine
 62
7
  6
CONTINUOUS
 10
-31.2941453223
 20
49.9776133839
 11
-31.4535332941
 21
49.9957526694
  0
LINE
  5
299
100
AcDbEntity
  8
0
100
AcDbLine
 62
7
  6
CONTINUOUS
 10
-54.4203078583
 20
41.4637279809
 11
-54.6638702897
 21
41.4948298465
  0
LINE
  5
29A
100
AcDbEntity
  8
0
100
AcDbLine
 62
7
  6
CONTINUOUS
 10
-29.7601761983
 20
48.1842581136
 11
-29.8116492652
 21
48.1970920097
  0
LINE
  5
29B
100
AcDbEntity
  8
0
100
AcDbLine
 62
7
  6
CONTINUOUS
 10
-30.5620378788
 20
48.5415186106
 11
-30.5287197158
 21
48.5321989747
  0
LINE
  5
29C
100
AcDbEntity
  8
0
100
AcDbLine
 62
7
  6
CONTINUOUS
 10
-31.4535367689
 20
49.9957285978
 11
-31.3617535234
 21
49.9682975071
  0
LINE
  5
29D
100
AcDbEntity
  8
0
100
AcDbLine
 62
7
  6
CONTINUOUS
 10
-29.8067155464
 20
48.1935788163
 11
-29.761730851
 21
48.1793466273
  0
LINE
  5
29E
100
AcDbEntity
  8
0
100
AcDbLine
 62
7
  6
CONTINUOUS
 10
-29.8067155464
 20
48.1935788163
 11
-29.7618287578
 21
48.179114893
  0
LINE
  5
29F
100
AcDbEntity
  8
0
100
AcDbLine
 62
7
  6
CONTINUOUS
 10
-54.3705094921
 20
41.4470993019
 11
-54.4203078583
 21
41.4637279809
  0
LINE
  5
2A0
100
AcDbEntity
  8
0
100
AcDbLine
 62
7
  6
CONTINUOUS
 10
-30.5490263122
 20
48.5218901256
 11
-30.523899728
 21
48.5133036353
  0
LINE
  5
2A1
100
AcDbEntity
  8
0
100
AcDbLine
 62
7
  6
CONTINUOUS
 10
-31.0316001527
 20
49.8852403453
 11
-31.2941453223
 21
49.9776133839
  0
LINE
  5
2A2
100
AcDbEntity
  8
0
100
AcDbLine
 62
7
  6
CONTINUOUS
 10
-30.5620378788
 20
48.4919592965
 11
-30.537081919
 21
48.4830588469
  0
LINE
  5
2A3
100
AcDbEntity
  8
0
100
AcDbLine
 62
7
  6
CONTINUOUS
 10
-30.5563971738
 20
48.5554536882
 11
-30.5240169337
 21
48.5437703105
  0
LINE
  5
2A4
100
AcDbEntity
  8
0
100
AcDbLine
 62
7
  6
CONTINUOUS
 10
-27.584025501
 20
47.3680230912
 11
-27.5173479636
 21
47.3392147491
  0
LINE
  5
2A5
100
AcDbEntity
  8
0
100
AcDbLine
 62
7
  6
CONTINUOUS
 10
-27.6007014469
 20
47.3338723086
 11
-27.5343420698
 21
47.3045714274
  0
LINE
  5
2A6
100
AcDbEntity
  8
0
100
AcDbLine
 62
7
  6
CONTINUOUS
 10
-42.8256427521
 20
48.9819682606
 11
-43.0623475085
 21
49.0900305235
  0
LINE
  5
2A7
100
AcDbEntity
  8
0
100
AcDbLine
 62
7
  6
CONTINUOUS
 10
-0.631745042
 20
29.2920135563
 11
15.1014838242
 21
20.204929099
  0
LINE
  5
2A8
100
AcDbEntity
  8
0
100
AcDbLine
 62
7
  6
CONTINUOUS
 10
34.3580292278
 20
11.9699024779
 11
59.8628945298
 21
-2.7610130284
  0
LINE
  5
2A9
100
AcDbEntity
  8
0
100
AcDbLine
 62
7
  6
CONTINUOUS
 10
-10.1132602166
 20
38.8500557101
 11
-11.8023241435
 21
39.8256130275
  0
LINE
  5
2AA
100
AcDbEntity
  8
0
100
AcDbLine
 62
7
  6
CONTINUOUS
 10
30.7101050707
 20
16.9638736152
 11
35.6083904583
 21
14.1347573913
  0
LINE
  5
2AB
100
AcDbEntity
  8
0
100
AcDbLine
 62
7
  6
CONTINUOUS
 10
-5.9810483235
 20
39.9577343838
 11
-7.6701122505
 21
40.9332917011
  0
LINE
  5
2AC
100
AcDbEntity
  8
0
100
AcDbLine
 62
7
  6
CONTINUOUS
 10
-29.8068386729
 20
48.1936240207
 11
-29.7686296485
 21
48.1713098819
  0
LINE
  5
2AD
100
AcDbEntity
  8
0
100
AcDbLine
 62
7
  6
CONTINUOUS
 10
-25.0884808122
 20
46.1111514038
 11
-24.9981458773
 21
46.0583075166
  0
LINE
  5
2AE
100
AcDbEntity
  8
0
100
AcDbLine
 62
7
  6
CONTINUOUS
 10
-25.06385093
 20
46.0967979375
 11
-21.0285220741
 21
43.6058774532
  0
LINE
  5
2AF
100
AcDbEntity
  8
0
100
AcDbLine
 62
7
  6
CONTINUOUS
 10
-29.8068386729
 20
48.1936240207
 11
-29.7693008562
 21
48.1698451782
  0
LINE
  5
2B0
100
AcDbEntity
  8
0
100
AcDbLine
 62
7
  6
CONTINUOUS
 10
-21.0285220741
 20
43.6058774532
 11
-21.0062793195
 21
43.5911570763
  0
ARC
  5
2B1
100
AcDbEntity
  8
0
100
AcDbCircle
 62
7
  6
CONTINUOUS
 10
-448.3312349854
 20
-288.7396388679
 40
541.6089548165
100
AcDbArc
 50
37.186428162
 51
37.3702181732
  0
ARC
  5
2B2
100
AcDbEntity
  8
0
100
AcDbCircle
 62
7
  6
CONTINUOUS
 10
-152.2208140451
 20
-62.6269028849
 40
169.0390311847
100
AcDbArc
 50
37.3801811872
 51
37.5942563341
  0
ARC
  5
2B3
100
AcDbEntity
  8
0
100
AcDbCircle
 62
7
  6
CONTINUOUS
 10
-70.8322934722
 20
-27.8468207993
 40
86.5807892765
100
AcDbArc
 50
46.8588001489
 51
53.1601448311
  0
ARC
  5
2B4
100
AcDbEntity
  8
0
100
AcDbCircle
 62
7
  6
CONTINUOUS
 10
-60.8109105102
 20
2.1493078138
 40
0.3544431824
100
AcDbArc
 50
220.6255494335
 51
226.1147230457
  0
ARC
  5
2B5
100
AcDbEntity
  8
0
100
AcDbCircle
 62
7
  6
CONTINUOUS
 10
-22.736825358
 20
-14.7941366685
 40
66.0312712595
100
AcDbArc
 50
105.1859445427
 51
105.410007605
  0
ARC
  5
2B6
100
AcDbEntity
  8
0
100
AcDbCircle
 62
7
  6
CONTINUOUS
 10
-13.004478808
 20
10.0187634948
 40
52.488616704
100
AcDbArc
 50
143.9558398016
 51
154.7829280599
  0
ARC
  5
2B7
100
AcDbEntity
  8
0
100
AcDbCircle
 62
7
  6
CONTINUOUS
 10
-13.2219886397
 20
10.142163634
 40
52.3593975365
100
AcDbArc
 50
143.9294064574
 51
154.7992988957
  0
ARC
  5
2B8
100
AcDbEntity
  8
0
100
AcDbCircle
 62
7
  6
CONTINUOUS
 10
-13.3878546631
 20
10.2040554407
 40
52.062833263
100
AcDbArc
 50
154.7876567401
 51
155.5151620091
  0
ARC
  5
2B9
100
AcDbEntity
  8
0
100
AcDbCircle
 62
7
  6
CONTINUOUS
 10
-13.729232408
 20
10.3383352635
 40
51.6960437045
100
AcDbArc
 50
155.9938310343
 51
157.2863899548
  0
ARC
  5
2BA
100
AcDbEntity
  8
0
100
AcDbCircle
 62
7
  6
CONTINUOUS
 10
-19.3808684835
 20
7.4594875033
 40
48.1567624417
100
AcDbArc
 50
132.8315310699
 51
134.1876099485
  0
ARC
  5
2BB
100
AcDbEntity
  8
0
100
AcDbCircle
 62
7
  6
CONTINUOUS
 10
-19.8128217471
 20
7.9492870571
 40
47.5041878566
100
AcDbArc
 50
131.8952391137
 51
132.3222273557
  0
ARC
  5
2BC
100
AcDbEntity
  8
0
100
AcDbCircle
 62
7
  6
CONTINUOUS
 10
-23.866591986
 20
13.6298952768
 40
40.5111358026
100
AcDbArc
 50
119.3262410029
 51
119.4782949821
  0
ARC
  5
2BD
100
AcDbEntity
  8
0
100
AcDbCircle
 62
7
  6
CONTINUOUS
 10
-28.1847742132
 20
15.180468137
 40
36.8347221369
100
AcDbArc
 50
149.0525802679
 51
151.9708104317
  0
ARC
  5
2BE
100
AcDbEntity
  8
0
100
AcDbCircle
 62
7
  6
CONTINUOUS
 10
-28.4617690161
 20
15.3211654579
 40
36.52410034
100
AcDbArc
 50
151.9614435466
 51
157.452842938
  0
ARC
  5
2BF
100
AcDbEntity
  8
0
100
AcDbCircle
 62
7
  6
CONTINUOUS
 10
-28.8136349798
 20
15.4705888293
 40
36.1418341932
100
AcDbArc
 50
157.4577277296
 51
157.6616301157
  0
ARC
  5
2C0
100
AcDbEntity
  8
0
100
AcDbCircle
 62
7
  6
CONTINUOUS
 10
-30.3079525881
 20
16.9885653235
 40
34.0403186858
100
AcDbArc
 50
134.0820393798
 51
134.3028128159
  0
ARC
  5
2C1
100
AcDbEntity
  8
0
100
AcDbCircle
 62
7
  6
CONTINUOUS
 10
-31.2865641107
 20
16.3306533881
 40
33.7536181848
100
AcDbArc
 50
105.6777765695
 51
107.3945659143
  0
ARC
  5
2C2
100
AcDbEntity
  8
0
100
AcDbCircle
 62
7
  6
CONTINUOUS
 10
-31.4691995468
 20
16.9546326456
 40
33.103500816
100
AcDbArc
 50
105.4411438628
 51
105.6652719647
  0
ARC
  5
2C3
100
AcDbEntity
  8
0
100
AcDbCircle
 62
7
  6
CONTINUOUS
 10
-35.0146681073
 20
16.7461623513
 40
29.7852477776
100
AcDbArc
 50
173.1819283313
 51
179.9748062062
  0
ARC
  5
2C4
100
AcDbEntity
  8
0
100
AcDbCircle
 62
7
  6
CONTINUOUS
 10
-36.7524858331
 20
16.7549325091
 40
28.0474275068
100
AcDbArc
 50
179.991161028
 51
182.5211043638
  0
ARC
  5
2C5
100
AcDbEntity
  8
0
100
AcDbCircle
 62
7
  6
CONTINUOUS
 10
-37.2099950172
 20
16.7366475342
 40
27.5895569061
100
AcDbArc
 50
182.5249615606
 51
182.7027714123
  0
ARC
  5
2C6
100
AcDbEntity
  8
0
100
AcDbCircle
 62
7
  6
CONTINUOUS
 10
-22.3120410565
 20
8.9864446552
 40
26.783323403
100
AcDbArc
 50
179.6299248841
 51
179.977346747
  0
ARC
  5
2C7
100
AcDbEntity
  8
0
100
AcDbCircle
 62
7
  6
CONTINUOUS
 10
-22.0249730073
 20
8.938987793
 40
25.7733052783
100
AcDbArc
 50
179.6524821678
 51
179.9998587289
  0
ARC
  5
2C8
100
AcDbEntity
  8
0
100
AcDbCircle
 62
7
  6
CONTINUOUS
 10
-45.4687270646
 20
15.3663477018
 40
19.5990176523
100
AcDbArc
 50
212.6902627373
 51
216.6259944336
  0
ARC
  5
2C9
100
AcDbEntity
  8
0
100
AcDbCircle
 62
7
  6
CONTINUOUS
 10
-44.9698521111
 20
14.7939596492
 40
19.5284126271
100
AcDbArc
 50
204.6374375139
 51
210.4294158091
  0
ARC
  5
2CA
100
AcDbEntity
  8
0
100
AcDbCircle
 62
7
  6
CONTINUOUS
 10
-45.6588169333
 20
15.2269085344
 40
19.3632737981
100
AcDbArc
 50
216.6304301492
 51
216.8517435847
  0
ARC
  5
2CB
100
AcDbEntity
  8
0
100
AcDbCircle
 62
7
  6
CONTINUOUS
 10
-45.7971813505
 20
14.3053713935
 40
18.5675865452
100
AcDbArc
 50
210.4224288576
 51
214.5810814486
  0
ARC
  5
2CC
100
AcDbEntity
  8
0
100
AcDbCircle
 62
7
  6
CONTINUOUS
 10
-32.7151723634
 20
6.1115502246
 40
16.0285787353
100
AcDbArc
 50
253.1433316511
 51
254.53826779
  0
ARC
  5
2CD
100
AcDbEntity
  8
0
100
AcDbCircle
 62
7
  6
CONTINUOUS
 10
-32.9019603058
 20
5.5060039275
 40
15.3948848972
100
AcDbArc
 50
248.1645546366
 51
253.1545293742
  0
ARC
  5
2CE
100
AcDbEntity
  8
0
100
AcDbCircle
 62
7
  6
CONTINUOUS
 10
-32.9557031321
 20
5.3695647998
 40
15.2482452718
100
AcDbArc
 50
246.7332112434
 51
248.1613217767
  0
ARC
  5
2CF
100
AcDbEntity
  8
0
100
AcDbCircle
 62
7
  6
CONTINUOUS
 10
-32.9773298909
 20
5.3190387108
 40
15.1932853411
100
AcDbArc
 50
245.7681462462
 51
246.7328699853
  0
ARC
  5
2D0
100
AcDbEntity
  8
0
100
AcDbCircle
 62
7
  6
CONTINUOUS
 10
-32.3175214214
 20
5.3388162583
 40
14.5104308724
100
AcDbArc
 50
239.9915630273
 51
244.9115702031
  0
ARC
  5
2D1
100
AcDbEntity
  8
0
100
AcDbCircle
 62
7
  6
CONTINUOUS
 10
-51.451177693
 20
-4.0226842414
 40
0.3461080632
100
AcDbArc
 50
249.5048959386
 51
253.840043408
  0
ARC
  5
2D2
100
AcDbEntity
  8
0
100
AcDbCircle
 62
7
  6
CONTINUOUS
 10
42.0507278022
 20
-14.669072499
 40
112.8251198256
100
AcDbArc
 50
155.6879981663
 51
155.9171142552
  0
ARC
  5
2D3
100
AcDbEntity
  8
0
100
AcDbCircle
 62
7
  6
CONTINUOUS
 10
13.2164173683
 20
-27.8952980963
 40
96.2455907317
100
AcDbArc
 50
132.4928961086
 51
132.7539244384
  0
ARC
  5
2D4
100
AcDbEntity
  8
0
100
AcDbCircle
 62
7
  6
CONTINUOUS
 10
21.9650091802
 20
-13.7843639103
 40
35.4425371133
100
AcDbArc
 50
145.0065809457
 51
154.9742969872
  0
ARC
  5
2D5
100
AcDbEntity
  8
0
100
AcDbCircle
 62
7
  6
CONTINUOUS
 10
13.5990547844
 20
-23.9822016375
 40
17.9852335342
100
AcDbArc
 50
234.0051433881
 51
234.3867338682
  0
ARC
  5
2D6
100
AcDbEntity
  8
0
100
AcDbCircle
 62
7
  6
CONTINUOUS
 10
12.0677736102
 20
-23.1180170032
 40
17.9675046263
100
AcDbArc
 50
233.4058295397
 51
239.9826026072
  0
ARC
  5
2D7
100
AcDbEntity
  8
0
100
AcDbCircle
 62
7
  6
CONTINUOUS
 10
13.5756260632
 20
-24.0150210817
 40
17.9449096346
100
AcDbArc
 50
234.3865283229
 51
239.986269098
  0
ARC
  5
2D8
100
AcDbEntity
  8
0
100
AcDbCircle
 62
7
  6
CONTINUOUS
 10
14.1005448
 20
-23.1055635991
 40
16.4949727682
100
AcDbArc
 50
234.100283942
 51
239.9869826444
  0
ARC
  5
2D9
100
AcDbEntity
  8
0
100
AcDbCircle
 62
7
  6
CONTINUOUS
 10
31.8690618943
 20
-13.4361780992
 40
3.1507059439
100
AcDbArc
 50
237.0305301184
 51
239.991813452
  0
ARC
  5
2DA
100
AcDbEntity
  8
0
100
AcDbCircle
 62
7
  6
CONTINUOUS
 10
43.7566705854
 20
-39.1542108337
 40
2.9457859093
100
AcDbArc
 50
202.6247869166
 51
204.303694261
  0
ARC
  5
2DB
100
AcDbEntity
  8
0
100
AcDbCircle
 62
7
  6
CONTINUOUS
 10
32.3861322876
 20
-12.5363360711
 40
1.8031012528
100
AcDbArc
 50
241.0837903276
 51
254.0368593922
  0
ARC
  5
2DC
100
AcDbEntity
  8
0
100
AcDbCircle
 62
7
  6
CONTINUOUS
 10
8.1850977459
 20
-5.8255126856
 40
32.7586602331
100
AcDbArc
 50
321.9619108697
 51
338.0144442548
  0
ARC
  5
2DD
100
AcDbEntity
  8
0
100
AcDbCircle
 62
7
  6
CONTINUOUS
 10
12.7184785166
 20
-10.9803040778
 40
25.8492225407
100
AcDbArc
 50
297.8764641256
 51
302.8622125121
  0
ARC
  5
2DE
100
AcDbEntity
  8
0
100
AcDbCircle
 62
7
  6
CONTINUOUS
 10
24.6293575294
 20
-4.7961563572
 40
22.2809341249
100
AcDbArc
 50
92.7932286591
 51
95.9678346566
  0
ARC
  5
2DF
100
AcDbEntity
  8
0
100
AcDbCircle
 62
7
  6
CONTINUOUS
 10
24.5778922171
 20
-3.7023513998
 40
21.1859208056
100
AcDbArc
 50
86.2451730191
 51
92.798363931
  0
ARC
  5
2E0
100
AcDbEntity
  8
0
100
AcDbCircle
 62
7
  6
CONTINUOUS
 10
12.9988562058
 20
-1.8844425007
 40
21.0479593162
100
AcDbArc
 50
102.1426376684
 51
105.0099636564
  0
ARC
  5
2E1
100
AcDbEntity
  8
0
100
AcDbCircle
 62
7
  6
CONTINUOUS
 10
24.6349815517
 20
-2.5520950084
 40
20.0344033373
100
AcDbArc
 50
82.1275741147
 51
86.1926650123
  0
ARC
  5
2E2
100
AcDbEntity
  8
0
100
AcDbCircle
 62
7
  6
CONTINUOUS
 10
24.7394235984
 20
-1.7861102919
 40
19.2613325009
100
AcDbArc
 50
75.8183808978
 51
82.1232384375
  0
ARC
  5
2E3
100
AcDbEntity
  8
0
100
AcDbCircle
 62
7
  6
CONTINUOUS
 10
24.9022715302
 20
-1.0983193129
 40
18.5546085295
100
AcDbArc
 50
71.2330302316
 51
75.7855827652
  0
ARC
  5
2E4
100
AcDbEntity
  8
0
100
AcDbCircle
 62
7
  6
CONTINUOUS
 10
25.0273050902
 20
-0.7255103913
 40
18.1613943172
100
AcDbArc
 50
64.5789401045
 51
71.2281279192
  0
ARC
  5
2E5
100
AcDbEntity
  8
0
100
AcDbCircle
 62
7
  6
CONTINUOUS
 10
26.6147862637
 20
-1.4478076107
 40
17.9918611739
100
AcDbArc
 50
65.5929805456
 51
66.2021733295
  0
ARC
  5
2E6
100
AcDbEntity
  8
0
100
AcDbCircle
 62
7
  6
CONTINUOUS
 10
26.6330666894
 20
-1.4076955852
 40
17.9477800708
100
AcDbArc
 50
59.994790236
 51
65.5932098454
  0
ARC
  5
2E7
100
AcDbEntity
  8
0
100
AcDbCircle
 62
7
  6
CONTINUOUS
 10
25.1269025491
 20
-0.5026483427
 40
17.9173573072
100
AcDbArc
 50
59.9902914641
 51
64.5606706578
  0
ARC
  5
2E8
100
AcDbEntity
  8
0
100
AcDbCircle
 62
7
  6
CONTINUOUS
 10
26.1061370346
 20
-2.3198066261
 40
16.5011572821
100
AcDbArc
 50
59.9948134398
 51
65.8693992573
  0
ARC
  5
2E9
100
AcDbEntity
  8
0
100
AcDbCircle
 62
7
  6
CONTINUOUS
 10
-38.0594116597
 20
17.6569519522
 40
33.5705050407
100
AcDbArc
 50
28.5037459571
 51
32.6229298772
  0
ARC
  5
2EA
100
AcDbEntity
  8
0
100
AcDbCircle
 62
7
  6
CONTINUOUS
 10
-38.0055005585
 20
17.6263264127
 40
27.488650415
100
AcDbArc
 50
179.9577884744
 51
185.4330432659
  0
ARC
  5
2EB
100
AcDbEntity
  8
0
100
AcDbCircle
 62
7
  6
CONTINUOUS
 10
-38.6875684476
 20
19.7719033534
 40
27.3513979819
100
AcDbArc
 50
211.4544296473
 51
211.8425107329
  0
ARC
  5
2EC
100
AcDbEntity
  8
0
100
AcDbCircle
 62
7
  6
CONTINUOUS
 10
-38.9999481352
 20
19.5879778386
 40
26.9891483965
100
AcDbArc
 50
210.8047203243
 51
211.0917194782
  0
ARC
  5
2ED
100
AcDbEntity
  8
0
100
AcDbCircle
 62
7
  6
CONTINUOUS
 10
-38.8212530138
 20
17.555879627
 40
26.6698935816
100
AcDbArc
 50
185.4483117513
 51
185.7398034645
  0
ARC
  5
2EE
100
AcDbEntity
  8
0
100
AcDbCircle
 62
7
  6
CONTINUOUS
 10
-39.3531260344
 20
19.3631061853
 40
26.5703303517
100
AcDbArc
 50
211.8508456221
 51
212.5229971326
  0
ARC
  5
2EF
100
AcDbEntity
  8
0
100
AcDbCircle
 62
7
  6
CONTINUOUS
 10
-39.4810977673
 20
19.2813202223
 40
26.4184564442
100
AcDbArc
 50
212.5226556358
 51
213.8703074152
  0
ARC
  5
2F0
100
AcDbEntity
  8
0
100
AcDbCircle
 62
7
  6
CONTINUOUS
 10
-37.4806122814
 20
24.0837867591
 40
25.3029830134
100
AcDbArc
 50
69.5265155802
 51
70.3095968792
  0
ARC
  5
2F1
100
AcDbEntity
  8
0
100
AcDbCircle
 62
7
  6
CONTINUOUS
 10
-36.9564209371
 20
25.5166754859
 40
23.7773049091
100
AcDbArc
 50
71.9922001888
 51
72.3869827679
  0
ARC
  5
2F2
100
AcDbEntity
  8
0
100
AcDbCircle
 62
7
  6
CONTINUOUS
 10
-36.5456901761
 20
25.9492229647
 40
23.7517250415
100
AcDbArc
 50
104.8375602904
 51
105.0474403687
  0
ARC
  5
2F3
100
AcDbEntity
  8
0
100
AcDbCircle
 62
7
  6
CONTINUOUS
 10
-36.9589373862
 20
25.6376920333
 40
23.667905735
100
AcDbArc
 50
66.664895064
 51
72.2925306232
  0
ARC
  5
2F4
100
AcDbEntity
  8
0
100
AcDbCircle
 62
7
  6
CONTINUOUS
 10
-36.9132979499
 20
25.6476274592
 40
23.6394363786
100
AcDbArc
 50
70.3271085928
 51
71.9934780918
  0
ARC
  5
2F5
100
AcDbEntity
  8
0
100
AcDbCircle
 62
7
  6
CONTINUOUS
 10
-45.8481356606
 20
19.7837696035
 40
23.484263387
100
AcDbArc
 50
229.5398139213
 51
240.1533042442
  0
ARC
  5
2F6
100
AcDbEntity
  8
0
100
AcDbCircle
 62
7
  6
CONTINUOUS
 10
-36.8431714049
 20
25.9069765748
 40
23.3747917822
100
AcDbArc
 50
59.8093391933
 51
66.6639904945
  0
ARC
  5
2F7
100
AcDbEntity
  8
0
100
AcDbCircle
 62
7
  6
CONTINUOUS
 10
-36.8198552158
 20
25.8978740936
 40
23.3723736184
100
AcDbArc
 50
66.724039954
 51
69.4885170329
  0
ARC
  5
2F8
100
AcDbEntity
  8
0
100
AcDbCircle
 62
7
  6
CONTINUOUS
 10
-45.9991052901
 20
19.5354419595
 40
23.1937579228
100
AcDbArc
 50
229.5209371313
 51
240.1714530234
  0
ARC
  5
2F9
100
AcDbEntity
  8
0
100
AcDbCircle
 62
7
  6
CONTINUOUS
 10
-36.7341580643
 20
26.0941210417
 40
23.1582295305
100
AcDbArc
 50
59.8096472253
 51
66.5472374497
  0
ARC
  5
2FA
100
AcDbEntity
  8
0
100
AcDbCircle
 62
7
  6
CONTINUOUS
 10
-35.6936669119
 20
26.4252716926
 40
23.0643816613
100
AcDbArc
 50
102.075234286
 51
106.9969859727
  0
ARC
  5
2FB
100
AcDbEntity
  8
0
100
AcDbCircle
 62
7
  6
CONTINUOUS
 10
-36.0109433741
 20
27.8517966805
 40
21.6030506267
100
AcDbArc
 50
97.4924065691
 51
102.043850334
  0
ARC
  5
2FC
100
AcDbEntity
  8
0
100
AcDbCircle
 62
7
  6
CONTINUOUS
 10
-36.6635652718
 20
31.5779149509
 40
18.0425691599
100
AcDbArc
 50
67.4212567256
 51
70.1059885521
  0
ARC
  5
2FD
100
AcDbEntity
  8
0
100
AcDbCircle
 62
7
  6
CONTINUOUS
 10
-36.6465347268
 20
31.6198299039
 40
17.9973279524
100
AcDbArc
 50
66.9492151597
 51
67.4200846505
  0
ARC
  5
2FE
100
AcDbEntity
  8
0
100
AcDbCircle
 62
7
  6
CONTINUOUS
 10
-35.8628550317
 20
32.9286306874
 40
16.4738117818
100
AcDbArc
 50
68.1951923012
 51
71.0897036865
  0
ARC
  5
2FF
100
AcDbEntity
  8
0
100
AcDbCircle
 62
7
  6
CONTINUOUS
 10
-35.8062461279
 20
33.0714249078
 40
16.3202066915
100
AcDbArc
 50
66.0420880905
 51
68.1935018673
  0
ARC
  5
300
100
AcDbEntity
  8
0
100
AcDbCircle
 62
7
  6
CONTINUOUS
 10
-43.1692366953
 20
48.3040872313
 40
0.6897946047
100
AcDbArc
 50
37.28597575
 51
47.5178586609
  0
ARC
  5
301
100
AcDbEntity
  8
0
100
AcDbCircle
 62
7
  6
CONTINUOUS
 10
-43.1483611516
 20
48.3204953976
 40
0.6632457296
100
AcDbArc
 50
29.1363547576
 51
37.2506933558
  0
ARC
  5
302
100
AcDbEntity
  8
0
100
AcDbCircle
 62
7
  6
CONTINUOUS
 10
-22.9898032442
 20
29.3758840159
 40
45.7540139909
100
AcDbArc
 50
211.2344773804
 51
211.4560781591
  0
ARC
  5
303
100
AcDbEntity
  8
0
100
AcDbCircle
 62
7
  6
CONTINUOUS
 10
-23.6396764149
 20
18.0912430546
 40
40.9044285517
100
AcDbArc
 50
179.6989958575
 51
180.0098023269
  0
ARC
  5
304
100
AcDbEntity
  8
0
100
AcDbCircle
 62
7
  6
CONTINUOUS
 10
-24.5117669999
 20
18.0705527963
 40
40.0318999081
100
AcDbArc
 50
180.5755123631
 51
182.1104380564
  0
ARC
  5
305
100
AcDbEntity
  8
0
100
AcDbCircle
 62
7
  6
CONTINUOUS
 10
-30.8443120335
 20
17.5525379903
 40
33.2620541793
100
AcDbArc
 50
128.7708180107
 51
134.0941972018
  0
ARC
  5
306
100
AcDbEntity
  8
0
100
AcDbCircle
 62
7
  6
CONTINUOUS
 10
-31.9115645066
 20
18.8503998675
 40
31.5818522565
100
AcDbArc
 50
125.497470139
 51
128.7356933987
  0
ARC
  5
307
100
AcDbEntity
  8
0
100
AcDbCircle
 62
7
  6
CONTINUOUS
 10
-32.2800861953
 20
23.2461030954
 40
26.7379895922
100
AcDbArc
 50
88.0317796668
 51
88.2251865933
  0
ARC
  5
308
100
AcDbEntity
  8
0
100
AcDbCircle
 62
7
  6
CONTINUOUS
 10
-22.5603407199
 20
23.6713562962
 40
15.981187052
100
AcDbArc
 50
46.5044917469
 51
46.8393479685
  0
ARC
  5
309
100
AcDbEntity
  8
0
100
AcDbCircle
 62
7
  6
CONTINUOUS
 10
-21.7272227747
 20
23.6748395531
 40
14.5148968122
100
AcDbArc
 50
54.7377608064
 51
59.9890130563
  0
ARC
  5
30A
100
AcDbEntity
  8
0
100
AcDbCircle
 62
7
  6
CONTINUOUS
 10
-20.6201557534
 20
45.8055981186
 40
46.591604683
100
AcDbArc
 50
226.3592511457
 51
232.0244866573
  0
ARC
  5
30B
100
AcDbEntity
  8
0
100
AcDbCircle
 62
7
  6
CONTINUOUS
 10
-23.3531413593
 20
39.8551536212
 40
40.0584818539
100
AcDbArc
 50
204.3440078167
 51
205.1623702951
  0
ARC
  5
30C
100
AcDbEntity
  8
0
100
AcDbCircle
 62
7
  6
CONTINUOUS
 10
-24.9763510542
 20
48.125929198
 40
5.6812664657
100
AcDbArc
 50
177.0409360642
 51
180.0146426639
  0
ARC
  5
30D
100
AcDbEntity
  8
0
100
AcDbCircle
 62
7
  6
CONTINUOUS
 10
-25.6349184747
 20
48.1552550931
 40
5.0220654651
100
AcDbArc
 50
175.7737367689
 51
176.9871997641
  0
ARC
  5
30E
100
AcDbEntity
  8
0
100
AcDbCircle
 62
7
  6
CONTINUOUS
 10
-31.4413002325
 20
49.0990918643
 40
0.8786279862
100
AcDbArc
 50
359.7159265756
 51
0.4134550797
  0
ARC
  5
30F
100
AcDbEntity
  8
0
100
AcDbCircle
 62
7
  6
CONTINUOUS
 10
-31.4338753756
 20
49.0993543225
 40
0.8712014529
100
AcDbArc
 50
0.399718182
 51
14.7409761726
  0
ARC
  5
310
100
AcDbEntity
  8
0
100
AcDbCircle
 62
7
  6
CONTINUOUS
 10
-31.4097796021
 20
49.1046490084
 40
0.8465521372
100
AcDbArc
 50
14.8093846847
 51
17.6077826436
  0
ARC
  5
311
100
AcDbEntity
  8
0
100
AcDbCircle
 62
7
  6
CONTINUOUS
 10
-21.8633603155
 20
97.5321493439
 40
105.5710728605
100
AcDbArc
 50
253.4969451882
 51
253.8285533504
  0
ARC
  5
312
100
AcDbEntity
  8
0
100
AcDbCircle
 62
7
  6
CONTINUOUS
 10
-19.7000516145
 20
61.6119112963
 40
72.6464486108
100
AcDbArc
 50
238.7215032115
 51
240.2493820795
  0
ARC
  5
313
100
AcDbEntity
  8
0
100
AcDbCircle
 62
7
  6
CONTINUOUS
 10
-22.2007816219
 20
57.5839556845
 40
67.9055616105
100
AcDbArc
 50
235.0967780067
 51
238.7362033111
  0
ARC
  5
314
100
AcDbEntity
  8
0
100
AcDbCircle
 62
7
  6
CONTINUOUS
 10
7.0787837711
 20
18.2995675097
 40
71.6232118054
100
AcDbArc
 50
180.1722498739
 51
180.5048713898
  0
ARC
  5
315
100
AcDbEntity
  8
0
100
AcDbCircle
 62
7
  6
CONTINUOUS
 10
-18.9965889777
 20
50.6875523628
 40
59.5384742655
100
AcDbArc
 50
238.0881781117
 51
242.6040101926
  0
ARC
  5
316
100
AcDbEntity
  8
0
100
AcDbCircle
 62
7
  6
CONTINUOUS
 10
-17.5325871076
 20
48.3230248871
 40
39.1370872197
100
AcDbArc
 50
216.17129785
 51
222.4875490087
  0
ARC
  5
317
100
AcDbEntity
  8
0
100
AcDbCircle
 62
7
  6
CONTINUOUS
 10
-7.4046105666
 20
85.2851784023
 40
99.1349288316
100
AcDbArc
 50
251.3221104157
 51
251.5058438066
  0
ARC
  5
318
100
AcDbEntity
  8
0
100
AcDbCircle
 62
7
  6
CONTINUOUS
 10
-10.268962783
 20
82.0507478811
 40
95.199349418
100
AcDbArc
 50
240.2483168064
 51
241.4244511633
  0
ARC
  5
319
100
AcDbEntity
  8
0
100
AcDbCircle
 62
7
  6
CONTINUOUS
 10
-10.6290342219
 20
81.3731616213
 40
94.4320738431
100
AcDbArc
 50
241.4196633745
 51
250.0626925783
  0
ARC
  5
31A
100
AcDbEntity
  8
0
100
AcDbCircle
 62
7
  6
CONTINUOUS
 10
-10.7343261042
 20
81.1299254505
 40
94.167515566
100
AcDbArc
 50
250.2407100583
 51
252.4859738859
  0
ARC
  5
31B
100
AcDbEntity
  8
0
100
AcDbCircle
 62
7
  6
CONTINUOUS
 10
-10.9589733359
 20
80.4104048727
 40
93.4132231808
100
AcDbArc
 50
252.532643906
 51
252.7652651321
  0
ARC
  5
31C
100
AcDbEntity
  8
0
100
AcDbCircle
 62
7
  6
CONTINUOUS
 10
-11.1726099978
 20
79.7560634433
 40
92.7249234169
100
AcDbArc
 50
250.2100917456
 51
252.4902046181
  0
ARC
  5
31D
100
AcDbEntity
  8
0
100
AcDbCircle
 62
7
  6
CONTINUOUS
 10
-11.5213637377
 20
78.7763541657
 40
91.6849971097
100
AcDbArc
 50
250.0340376498
 51
250.2078758868
  0
ARC
  5
31E
100
AcDbEntity
  8
0
100
AcDbCircle
 62
7
  6
CONTINUOUS
 10
-12.4198884075
 20
73.043912448
 40
85.9703655951
100
AcDbArc
 50
251.0801485354
 51
251.9895747316
  0
ARC
  5
31F
100
AcDbEntity
  8
0
100
AcDbCircle
 62
7
  6
CONTINUOUS
 10
-12.5102762887
 20
72.7675689189
 40
85.6796157905
100
AcDbArc
 50
251.9899199479
 51
252.2444839254
  0
ARC
  5
320
100
AcDbEntity
  8
0
100
AcDbCircle
 62
7
  6
CONTINUOUS
 10
-12.6132700603
 20
72.4437302041
 40
85.3397941029
100
AcDbArc
 50
252.2440349409
 51
253.140978581
  0
ARC
  5
321
100
AcDbEntity
  8
0
100
AcDbCircle
 62
7
  6
CONTINUOUS
 10
-15.1900943784
 20
62.4601436258
 40
75.0187464976
100
AcDbArc
 50
248.7064732852
 51
251.3723608247
  0
ARC
  5
322
100
AcDbEntity
  8
0
100
AcDbCircle
 62
7
  6
CONTINUOUS
 10
-16.2544554323
 20
59.6936691308
 40
72.0546157
100
AcDbArc
 50
248.409300186
 51
248.696188123
  0
ARC
  5
323
100
AcDbEntity
  8
0
100
AcDbCircle
 62
7
  6
CONTINUOUS
 10
-17.7181387863
 20
58.9348769882
 40
70.8996347968
100
AcDbArc
 50
252.5325258588
 51
252.818132495
  0
SPLINE
  5
324
100
AcDbEntity
  8
0
100
AcDbSpline
 62
7
  6
CONTINUOUS
 70
0
 71
3
 72
11
 73
7
 74
0
 42
0.0000001
 43
0.0000001
 44
0.0000000001
 40
0.0
 40
0.0
 40
0.0
 40
0.0
 40
0.2504703163
 40
0.5004481985
 40
0.7502444615
 40
1.0
 40
1.0
 40
1.0
 40
1.0
 10
57.2022389596
 20
-23.0654799175
 30
0.0
 10
57.168795915
 20
-22.8732027227
 30
0.0
 10
57.0625109333
 20
-22.4945804294
 30
0.0
 10
56.7867828995
 20
-21.9740259739
 30
0.0
 10
56.4041289709
 20
-21.5266075393
 30
0.0
 10
56.0881005123
 20
-21.2926664705
 30
0.0
 10
55.919582165
 20
-21.1953348618
 30
0.0
  0
SPLINE
  5
325
100
AcDbEntity
  8
0
100
AcDbSpline
 62
7
  6
CONTINUOUS
 70
0
 71
3
 72
16
 73
12
 74
0
 42
0.0000001
 43
0.0000001
 44
0.0000000001
 40
0.0
 40
0.0
 40
0.0
 40
0.0
 40
0.1238424422
 40
0.2477830413
 40
0.3720633618
 40
0.4970745988
 40
0.6229616914
 40
0.7491913712
 40
0.8122898628
 40
0.8751779886
 40
1.0
 40
1.0
 40
1.0
 40
1.0
 10
52.9187152102
 20
-26.3909866523
 30
0.0
 10
53.1581214268
 20
-26.5292611637
 30
0.0
 10
53.6860630151
 20
-26.7292781982
 30
0.0
 10
54.5290453855
 20
-26.7647262655
 30
0.0
 10
55.3455333233
 20
-26.5447044094
 30
0.0
 10
56.0688942108
 20
-26.1016985771
 30
0.0
 10
56.6521572175
 20
-25.4817473456
 30
0.0
 10
56.9930937264
 20
-24.8567037087
 30
0.0
 10
57.1634112191
 20
-24.3184909269
 30
0.0
 10
57.2615218179
 20
-23.7661345259
 30
0.0
 10
57.2499930018
 20
-23.3400656701
 30
0.0
 10
57.2022477658
 20
-23.0655305575
 30
0.0
  0
SPLINE
  5
326
100
AcDbEntity
  8
0
100
AcDbSpline
 62
7
  6
CONTINUOUS
 70
0
 71
3
 72
17
 73
13
 74
0
 42
0.0000001
 43
0.0000001
 44
0.0000000001
 40
0.0
 40
0.0
 40
0.0
 40
0.0
 40
0.1302085361
 40
0.269611017
 40
0.410106733
 40
0.5430975474
 40
0.6634185471
 40
0.7194763576
 40
0.7737754215
 40
0.8277155374
 40
0.8827608069
 40
1.0
 40
1.0
 40
1.0
 40
1.0
 10
54.7325089639
 20
-24.8284833613
 30
0.0
 10
54.7119543339
 20
-24.7102880071
 30
0.0
 10
54.7189700628
 20
-24.4558875152
 30
0.0
 10
54.8480778412
 20
-24.0952607332
 30
0.0
 10
55.0767019102
 20
-23.7841647209
 30
0.0
 10
55.374138628
 20
-23.5657272305
 30
0.0
 10
55.6576310862
 20
-23.4875575468
 30
0.0
 10
55.8714229878
 20
-23.5048879135
 30
0.0
 10
56.0162162136
 20
-23.5544977685
 30
0.0
 10
56.1425115439
 20
-23.6394392801
 30
0.0
 10
56.2817060991
 20
-23.7970649822
 30
0.0
 10
56.3393644547
 20
-23.9521589976
 30
0.0
 10
56.3578736456
 20
-24.058581246
 30
0.0
  0
SPLINE
  5
327
100
AcDbEntity
  8
0
100
AcDbSpline
 62
7
  6
CONTINUOUS
 70
0
 71
3
 72
17
 73
13
 74
0
 42
0.0000001
 43
0.0000001
 44
0.0000000001
 40
0.0
 40
0.0
 40
0.0
 40
0.0
 40
0.1302085361
 40
0.269611017
 40
0.410106733
 40
0.5430975474
 40
0.6634185471
 40
0.7194763576
 40
0.7737754215
 40
0.8277155374
 40
0.8827608069
 40
1.0
 40
1.0
 40
1.0
 40
1.0
 10
56.3578736456
 20
-24.058581246
 30
0.0
 10
56.3784282781
 20
-24.1767765976
 30
0.0
 10
56.3714125491
 20
-24.4311770921
 30
0.0
 10
56.2423047708
 20
-24.7918038715
 30
0.0
 10
56.0136806992
 20
-25.1028998838
 30
0.0
 10
55.7162439839
 20
-25.3213373743
 30
0.0
 10
55.4327515232
 20
-25.3995070605
 30
0.0
 10
55.2189596242
 20
-25.3821766913
 30
0.0
 10
55.0741663959
 20
-25.3325668362
 30
0.0
 10
54.9478710681
 20
-25.2476253246
 30
0.0
 10
54.8086765128
 20
-25.0899996226
 30
0.0
 10
54.7510181572
 20
-24.9349056072
 30
0.0
 10
54.7325089639
 20
-24.8284833613
 30
0.0
  0
SPLINE
  5
328
100
AcDbEntity
  8
0
100
AcDbSpline
 62
7
  6
CONTINUOUS
 70
0
 71
3
 72
17
 73
13
 74
0
 42
0.0000001
 43
0.0000001
 44
0.0000000001
 40
0.0
 40
0.0
 40
0.0
 40
0.0
 40
0.1238503808
 40
0.2553172761
 40
0.3229755847
 40
0.3911392979
 40
0.5264944266
 40
0.6571733475
 40
0.7798740041
 40
0.8934238916
 40
0.9474102796
 40
1.0
 40
1.0
 40
1.0
 40
1.0
 10
51.9811218504
 20
-24.9480035642
 30
0.0
 10
51.937038695
 20
-24.6945252065
 30
0.0
 10
51.9217986442
 20
-24.1572951329
 30
0.0
 10
52.0647120008
 20
-23.4957981882
 30
0.0
 10
52.2687881103
 20
-22.9783859998
 30
0.0
 10
52.5312308645
 20
-22.4788702119
 30
0.0
 10
52.9513081676
 20
-21.9188057059
 30
0.0
 10
53.5710521631
 20
-21.3900446298
 30
0.0
 10
54.2606119447
 20
-21.0459597376
 30
0.0
 10
54.8647118084
 20
-20.9374120172
 30
0.0
 10
55.322619234
 20
-20.9726518477
 30
0.0
 10
55.5383369204
 20
-21.0286343544
 30
0.0
 10
55.641061226
 20
-21.0658219128
 30
0.0
  0
SPLINE
  5
329
100
AcDbEntity
  8
0
100
AcDbSpline
 62
7
  6
CONTINUOUS
 70
0
 71
3
 72
11
 73
7
 74
0
 42
0.0000001
 43
0.0000001
 44
0.0000000001
 40
0.0
 40
0.0
 40
0.0
 40
0.0
 40
0.2374326105
 40
0.4804960248
 40
0.7337630362
 40
1.0
 40
1.0
 40
1.0
 40
1.0
 10
52.9187202038
 20
-26.3909780011
 30
0.0
 10
52.7971113411
 20
-26.3207589467
 30
0.0
 10
52.5676073729
 20
-26.1476302455
 30
0.0
 10
52.2906741295
 20
-25.8086731129
 30
0.0
 10
52.0878429248
 20
-25.402128818
 30
0.0
 10
52.0081023172
 20
-25.1031366321
 30
0.0
 10
51.9811218504
 20
-24.9480035642
 30
0.0
  0
SPLINE
  5
32A
100
AcDbEntity
  8
0
100
AcDbSpline
 62
7
  6
CONTINUOUS
 70
0
 71
3
 72
11
 73
7
 74
0
 42
0.0000001
 43
0.0000001
 44
0.0000000001
 40
0.0
 40
0.0
 40
0.0
 40
0.0
 40
0.2496288208
 40
0.4993323424
 40
0.7493102373
 40
1.0
 40
1.0
 40
1.0
 40
1.0
 10
42.5881854751
 20
-17.6685006658
 30
0.0
 10
42.7757198777
 20
-17.7768154301
 30
0.0
 10
43.1801807808
 20
-17.9465946333
 30
0.0
 10
43.829717498
 20
-18.0421272007
 30
0.0
 10
44.4836508815
 20
-17.9780268971
 30
0.0
 10
44.8984508647
 20
-17.8350093676
 30
0.0
 10
45.0950027804
 20
-17.7419067344
 30
0.0
  0
SPLINE
  5
32B
100
AcDbEntity
  8
0
100
AcDbSpline
 62
7
  6
CONTINUOUS
 70
0
 71
3
 72
15
 73
11
 74
0
 42
0.0000001
 43
0.0000001
 44
0.0000000001
 40
0.0
 40
0.0
 40
0.0
 40
0.0
 40
0.1251272697
 40
0.2510819832
 40
0.377334781
 40
0.5030915351
 40
0.6279778198
 40
0.7521976024
 40
0.8761310327
 40
1.0
 40
1.0
 40
1.0
 40
1.0
 10
45.0950479899
 20
-17.7418853196
 30
0.0
 10
45.3374676905
 20
-17.6270510154
 30
0.0
 10
45.7943617221
 20
-17.3287129735
 30
0.0
 10
46.3433019272
 20
-16.7238437845
 30
0.0
 10
46.7302205412
 20
-16.0026286254
 30
0.0
 10
46.9288589146
 20
-15.2106606183
 30
0.0
 10
46.9184433246
 20
-14.3975146805
 30
0.0
 10
46.6866312228
 20
-13.6205348425
 30
0.0
 10
46.2402842846
 20
-12.9455888289
 30
0.0
 10
45.8189992979
 20
-12.6056599253
 30
0.0
 10
45.5890524299
 20
-12.4728488778
 30
0.0
  0
SPLINE
  5
32C
100
AcDbEntity
  8
0
100
AcDbSpline
 62
7
  6
CONTINUOUS
 70
0
 71
3
 72
13
 73
9
 74
0
 42
0.0000001
 43
0.0000001
 44
0.0000000001
 40
0.0
 40
0.0
 40
0.0
 40
0.0
 40
0.1092671645
 40
0.2210100359
 40
0.3372264656
 40
0.4591679877
 40
0.7202412654
 40
1.0
 40
1.0
 40
1.0
 40
1.0
 10
42.5881860847
 20
-17.6684996091
 30
0.0
 10
42.4698822344
 20
-17.600160109
 30
0.0
 10
42.2462697682
 20
-17.4326711578
 30
0.0
 10
41.974165809
 20
-17.106100231
 30
0.0
 10
41.7717037501
 20
-16.7146115093
 30
0.0
 10
41.5987627193
 20
-16.1112223503
 30
0.0
 10
41.5925724447
 20
-15.2665350379
 30
0.0
 10
41.7882858912
 20
-14.6089330943
 30
0.0
 10
41.9313074772
 20
-14.2897069433
 30
0.0
  0
SPLINE
  5
32D
100
AcDbEntity
  8
0
100
AcDbSpline
 62
7
  6
CONTINUOUS
 70
0
 71
3
 72
17
 73
13
 74
0
 42
0.0000001
 43
0.0000001
 44
0.0000000001
 40
0.0
 40
0.0
 40
0.0
 40
0.0
 40
0.1203352624
 40
0.1763828931
 40
0.230682714
 40
0.2846164466
 40
0.3396672614
 40
0.4568879795
 40
0.587079932
 40
0.7264895256
 40
0.8669895225
 40
1.0
 40
1.0
 40
1.0
 40
1.0
 10
45.3648807472
 20
-16.5848065848
 30
0.0
 10
45.2646805564
 20
-16.6322683364
 30
0.0
 10
45.1020028045
 20
-16.6771022396
 30
0.0
 10
44.888425599
 20
-16.6596678371
 30
0.0
 10
44.7436039404
 20
-16.6100645124
 30
0.0
 10
44.6173326004
 20
-16.5251633843
 30
0.0
 10
44.4780877659
 20
-16.3673044163
 30
0.0
 10
44.3776662573
 20
-16.0968703902
 30
0.0
 10
44.3886394586
 20
-15.7339267854
 30
0.0
 10
44.5175933511
 20
-15.3726520418
 30
0.0
 10
44.7456915868
 20
-15.0618196053
 30
0.0
 10
44.9536887527
 20
-14.9097489392
 30
0.0
 10
45.0644423945
 20
-14.8572860495
 30
0.0
  0
SPLINE
  5
32E
100
AcDbEntity
  8
0
100
AcDbSpline
 62
7
  6
CONTINUOUS
 70
0
 71
3
 72
17
 73
13
 74
0
 42
0.0000001
 43
0.0000001
 44
0.0000000001
 40
0.0
 40
0.0
 40
0.0
 40
0.0
 40
0.1203352624
 40
0.1763828931
 40
0.230682714
 40
0.2846164466
 40
0.3396672613
 40
0.4568879795
 40
0.587079932
 40
0.7264895256
 40
0.8669895225
 40
1.0
 40
1.0
 40
1.0
 40
1.0
 10
45.0644423945
 20
-14.8572860495
 30
0.0
 10
45.1646425827
 20
-14.8098243003
 30
0.0
 10
45.3273203346
 20
-14.7649903971
 30
0.0
 10
45.5408975427
 20
-14.7824247971
 30
0.0
 10
45.6857192012
 20
-14.8320281244
 30
0.0
 10
45.8119905387
 20
-14.9169292525
 30
0.0
 10
45.9512353758
 20
-15.074788218
 30
0.0
 10
46.0516568844
 20
-15.345222244
 30
0.0
 10
46.0406836805
 20
-15.7081658514
 30
0.0
 10
45.9117297906
 20
-16.0694405949
 30
0.0
 10
45.6836315549
 20
-16.3802730289
 30
0.0
 10
45.475634389
 20
-16.5323436976
 30
0.0
 10
45.3648807472
 20
-16.5848065848
 30
0.0
  0
SPLINE
  5
32F
100
AcDbEntity
  8
0
100
AcDbSpline
 62
7
  6
CONTINUOUS
 70
0
 71
3
 72
9
 73
5
 74
0
 42
0.0000001
 43
0.0000001
 44
0.0000000001
 40
0.0
 40
0.0
 40
0.0
 40
0.0
 40
0.5133893512
 40
1.0
 40
1.0
 40
1.0
 40
1.0
 10
41.9313074772
 20
-14.2897069433
 30
0.0
 10
42.1080326558
 20
-13.895253907
 30
0.0
 10
42.5806394856
 20
-13.1786851217
 30
0.0
 10
43.267716369
 20
-12.6547970356
 30
0.0
 10
43.6379658774
 20
-12.4794152299
 30
0.0
  0
SPLINE
  5
330
100
AcDbEntity
  8
0
100
AcDbSpline
 62
7
  6
CONTINUOUS
 70
0
 71
3
 72
11
 73
7
 74
0
 42
0.0000001
 43
0.0000001
 44
0.0000000001
 40
0.0
 40
0.0
 40
0.0
 40
0.0
 40
0.2691970841
 40
0.523394793
 40
0.7652049191
 40
1.0
 40
1.0
 40
1.0
 40
1.0
 10
43.6379658774
 20
-12.4794152299
 30
0.0
 10
43.8022081296
 20
-12.4016170517
 30
0.0
 10
44.1371213764
 20
-12.2801484885
 30
0.0
 10
44.6539371881
 20
-12.2131064331
 30
0.0
 10
45.1492082677
 20
-12.2708922078
 30
0.0
 10
45.4517954552
 20
-12.3935623079
 30
0.0
 10
45.5890518203
 20
-12.4728499344
 30
0.0
  0
SPLINE
  5
331
100
AcDbEntity
  8
0
100
AcDbSpline
 62
7
  6
CONTINUOUS
 70
0
 71
3
 72
16
 73
12
 74
0
 42
0.0000001
 43
0.0000001
 44
0.0000000001
 40
0.0
 40
0.0
 40
0.0
 40
0.0
 40
0.1238424422
 40
0.2477830413
 40
0.3720633618
 40
0.4970745988
 40
0.6229616914
 40
0.7491913712
 40
0.8122898628
 40
0.8751779886
 40
1.0
 40
1.0
 40
1.0
 40
1.0
 10
32.2576557399
 20
-31.929380018
 30
0.0
 10
32.4970619566
 20
-32.0676545268
 30
0.0
 10
33.0250035448
 20
-32.2676715639
 30
0.0
 10
33.8679859152
 20
-32.3031196312
 30
0.0
 10
34.684473853
 20
-32.0830977751
 30
0.0
 10
35.4078347405
 20
-31.6400919402
 30
0.0
 10
35.9910977472
 20
-31.0201407112
 30
0.0
 10
36.3320342561
 20
-30.3950970744
 30
0.0
 10
36.5023517489
 20
-29.8568842925
 30
0.0
 10
36.6004623477
 20
-29.304527889
 30
0.0
 10
36.5889335315
 20
-28.8784590332
 30
0.0
 10
36.5411882955
 20
-28.6039239232
 30
0.0
  0
SPLINE
  5
332
100
AcDbEntity
  8
0
100
AcDbSpline
 62
7
  6
CONTINUOUS
 70
0
 71
3
 72
11
 73
7
 74
0
 42
0.0000001
 43
0.0000001
 44
0.0000000001
 40
0.0
 40
0.0
 40
0.0
 40
0.0
 40
0.2504703163
 40
0.5004481985
 40
0.7502444615
 40
1.0
 40
1.0
 40
1.0
 40
1.0
 10
36.5411794893
 20
-28.6038732832
 30
0.0
 10
36.5077364447
 20
-28.4115960884
 30
0.0
 10
36.401451463
 20
-28.0329737951
 30
0.0
 10
36.1257234267
 20
-27.5124193396
 30
0.0
 10
35.7430694981
 20
-27.065000905
 30
0.0
 10
35.427041042
 20
-26.8310598362
 30
0.0
 10
35.2585226947
 20
-26.7337282274
 30
0.0
  0
SPLINE
  5
333
100
AcDbEntity
  8
0
100
AcDbSpline
 62
7
  6
CONTINUOUS
 70
0
 71
3
 72
17
 73
13
 74
0
 42
0.0000001
 43
0.0000001
 44
0.0000000001
 40
0.0
 40
0.0
 40
0.0
 40
0.0
 40
0.1302085361
 40
0.269611017
 40
0.410106733
 40
0.5430975474
 40
0.6634185471
 40
0.7194763576
 40
0.7737754215
 40
0.8277155374
 40
0.8827608069
 40
1.0
 40
1.0
 40
1.0
 40
1.0
 10
35.6968141753
 20
-29.5969746091
 30
0.0
 10
35.7173688078
 20
-29.7151699633
 30
0.0
 10
35.7103530789
 20
-29.9695704553
 30
0.0
 10
35.5812453005
 20
-30.3301972372
 30
0.0
 10
35.3526212289
 20
-30.6412932495
 30
0.0
 10
35.0551845137
 20
-30.85973074
 30
0.0
 10
34.771692053
 20
-30.9379004236
 30
0.0
 10
34.5579001539
 20
-30.9205700569
 30
0.0
 10
34.4131069256
 20
-30.8709602019
 30
0.0
 10
34.2868115952
 20
-30.7860186903
 30
0.0
 10
34.1476170425
 20
-30.6283929883
 30
0.0
 10
34.0899586869
 20
-30.4732989728
 30
0.0
 10
34.0714494936
 20
-30.3668767269
 30
0.0
  0
SPLINE
  5
334
100
AcDbEntity
  8
0
100
AcDbSpline
 62
7
  6
CONTINUOUS
 70
0
 71
3
 72
17
 73
13
 74
0
 42
0.0000001
 43
0.0000001
 44
0.0000000001
 40
0.0
 40
0.0
 40
0.0
 40
0.0
 40
0.1302085361
 40
0.269611017
 40
0.410106733
 40
0.5430975474
 40
0.6634185471
 40
0.7194763576
 40
0.7737754215
 40
0.8277155374
 40
0.8827608069
 40
1.0
 40
1.0
 40
1.0
 40
1.0
 10
34.0714494936
 20
-30.3668767269
 30
0.0
 10
34.0508948636
 20
-30.2486813728
 30
0.0
 10
34.0579105925
 20
-29.9942808808
 30
0.0
 10
34.1870183709
 20
-29.6336540989
 30
0.0
 10
34.4156424399
 20
-29.3225580866
 30
0.0
 10
34.7130791577
 20
-29.1041205961
 30
0.0
 10
34.9965716159
 20
-29.0259509125
 30
0.0
 10
35.2103635175
 20
-29.0432812791
 30
0.0
 10
35.3551567433
 20
-29.0928911342
 30
0.0
 10
35.4814520736
 20
-29.1778326458
 30
0.0
 10
35.6206466263
 20
-29.3354583478
 30
0.0
 10
35.6783049845
 20
-29.4905523633
 30
0.0
 10
35.6968141753
 20
-29.5969746091
 30
0.0
  0
SPLINE
  5
335
100
AcDbEntity
  8
0
100
AcDbSpline
 62
7
  6
CONTINUOUS
 70
0
 71
3
 72
11
 73
7
 74
0
 42
0.0000001
 43
0.0000001
 44
0.0000000001
 40
0.0
 40
0.0
 40
0.0
 40
0.0
 40
0.2374326105
 40
0.4804960248
 40
0.7337630362
 40
1.0
 40
1.0
 40
1.0
 40
1.0
 10
32.2576607336
 20
-31.9293713667
 30
0.0
 10
32.1360518709
 20
-31.8591523124
 30
0.0
 10
31.9065479026
 20
-31.6860236111
 30
0.0
 10
31.6296146592
 20
-31.3470664785
 30
0.0
 10
31.426783452
 20
-30.9405221837
 30
0.0
 10
31.3470428444
 20
-30.6415299978
 30
0.0
 10
31.3200623802
 20
-30.4863969299
 30
0.0
  0
SPLINE
  5
336
100
AcDbEntity
  8
0
100
AcDbSpline
 62
7
  6
CONTINUOUS
 70
0
 71
3
 72
17
 73
13
 74
0
 42
0.0000001
 43
0.0000001
 44
0.0000000001
 40
0.0
 40
0.0
 40
0.0
 40
0.0
 40
0.1238503808
 40
0.2553172761
 40
0.3229755847
 40
0.3911392979
 40
0.5264944267
 40
0.6571733475
 40
0.7798740041
 40
0.8934238916
 40
0.9474102796
 40
1.0
 40
1.0
 40
1.0
 40
1.0
 10
31.3200623802
 20
-30.4863969299
 30
0.0
 10
31.2759792247
 20
-30.2329185697
 30
0.0
 10
31.2607391739
 20
-29.6956884986
 30
0.0
 10
31.4036525305
 20
-29.0341915539
 30
0.0
 10
31.60772864
 20
-28.5167793629
 30
0.0
 10
31.8701713942
 20
-28.017263575
 30
0.0
 10
32.2902486973
 20
-27.4571990716
 30
0.0
 10
32.9099926928
 20
-26.9284379955
 30
0.0
 10
33.599552477
 20
-26.5843531033
 30
0.0
 10
34.2036523381
 20
-26.4758053803
 30
0.0
 10
34.6615597637
 20
-26.5110452133
 30
0.0
 10
34.8772774501
 20
-26.5670277201
 30
0.0
 10
34.9800017557
 20
-26.6042152784
 30
0.0
  0
SPLINE
  5
337
100
AcDbEntity
  8
0
100
AcDbSpline
 62
7
  6
CONTINUOUS
 70
0
 71
3
 72
19
 73
15
 74
0
 42
0.0000001
 43
0.0000001
 44
0.0000000001
 40
0.0
 40
0.0
 40
0.0
 40
0.0
 40
0.0611618371
 40
0.1223721473
 40
0.1837042326
 40
0.245260019
 40
0.3071735642
 40
0.3695791335
 40
0.4957257187
 40
0.6234559783
 40
0.7508493634
 40
0.8762679093
 40
0.9383397628
 40
1.0
 40
1.0
 40
1.0
 40
1.0
 10
42.0878577356
 20
-41.5177015271
 30
0.0
 10
42.2606610704
 20
-41.6175323053
 30
0.0
 10
42.626405965
 20
-41.7847017907
 30
0.0
 10
43.211917715
 20
-41.9278314714
 30
0.0
 10
43.8150369711
 20
-41.9612771932
 30
0.0
 10
44.4165229563
 20
-41.8874536045
 30
0.0
 10
45.0001541944
 20
-41.7123910412
 30
0.0
 10
45.7382031247
 20
-41.3547182793
 30
0.0
 10
46.5537650953
 20
-40.6968342077
 30
0.0
 10
47.2804356638
 20
-39.668923279
 30
0.0
 10
47.7085034208
 20
-38.4873309483
 30
0.0
 10
47.7756657935
 20
-37.4452048563
 30
0.0
 10
47.6366656575
 20
-36.6412447497
 30
0.0
 10
47.5025036601
 20
-36.2579317622
 30
0.0
 10
47.4196916007
 20
-36.0745712501
 30
0.0
  0
SPLINE
  5
338
100
AcDbEntity
  8
0
100
AcDbSpline
 62
7
  6
CONTINUOUS
 70
0
 71
3
 72
9
 73
5
 74
0
 42
0.0000001
 43
0.0000001
 44
0.0000000001
 40
0.0
 40
0.0
 40
0.0
 40
0.0
 40
0.5007235099
 40
1.0
 40
1.0
 40
1.0
 40
1.0
 10
47.4196630562
 20
-36.0745080472
 30
0.0
 10
47.2810461858
 20
-35.7676022907
 30
0.0
 10
46.9115212404
 20
-35.1916631073
 30
0.0
 10
46.38013242
 20
-34.7583501208
 30
0.0
 10
46.0893801668
 20
-34.5903786889
 30
0.0
  0
SPLINE
  5
339
100
AcDbEntity
  8
0
100
AcDbSpline
 62
7
  6
CONTINUOUS
 70
0
 71
3
 72
10
 73
6
 74
0
 42
0.0000001
 43
0.0000001
 44
0.0000000001
 40
0.0
 40
0.0
 40
0.0
 40
0.0
 40
0.511134229
 40
0.7571759528
 40
1.0
 40
1.0
 40
1.0
 40
1.0
 10
44.4261142503
 20
-34.305447374
 30
0.0
 10
44.7149851204
 20
-34.2609918978
 30
0.0
 10
45.1580533909
 20
-34.2580099708
 30
0.0
 10
45.7135051629
 20
-34.4027749035
 30
0.0
 10
45.9689644031
 20
-34.5208227396
 30
0.0
 10
46.0891950694
 20
-34.5902754607
 30
0.0
  0
SPLINE
  5
33A
100
AcDbEntity
  8
0
100
AcDbSpline
 62
7
  6
CONTINUOUS
 70
0
 71
3
 72
20
 73
16
 74
0
 42
0.0000001
 43
0.0000001
 44
0.0000000001
 40
0.0
 40
0.0
 40
0.0
 40
0.0
 40
0.1221253842
 40
0.1882701556
 40
0.256938159
 40
0.3976199124
 40
0.5358637125
 40
0.6017571855
 40
0.6644875771
 40
0.7239103515
 40
0.7804011745
 40
0.8348779018
 40
0.8886709138
 40
0.9432845819
 40
1.0
 40
1.0
 40
1.0
 40
1.0
 10
46.7229854909
 20
-37.5481312976
 30
0.0
 10
46.8157716528
 20
-37.7535706429
 30
0.0
 10
46.8851298225
 20
-38.1062365974
 30
0.0
 10
46.8536322909
 20
-38.5804402922
 30
0.0
 10
46.7382378328
 20
-39.0779313444
 30
0.0
 10
46.4504758963
 20
-39.6623463097
 30
0.0
 10
46.0092222753
 20
-40.1360799901
 30
0.0
 10
45.5936488647
 20
-40.4045862603
 30
0.0
 10
45.2712032281
 20
-40.5386703508
 30
0.0
 10
44.9452507965
 20
-40.6027550156
 30
0.0
 10
44.6279663663
 20
-40.5934397231
 30
0.0
 10
44.3321518779
 20
-40.5098491207
 30
0.0
 10
44.0705540242
 20
-40.3547585774
 30
0.0
 10
43.8547906812
 20
-40.1350527989
 30
0.0
 10
43.7494297718
 20
-39.9560978253
 30
0.0
 10
43.7063376482
 20
-39.860692009
 30
0.0
  0
SPLINE
  5
33B
100
AcDbEntity
  8
0
100
AcDbSpline
 62
7
  6
CONTINUOUS
 70
0
 71
3
 72
20
 73
16
 74
0
 42
0.0000001
 43
0.0000001
 44
0.0000000001
 40
0.0
 40
0.0
 40
0.0
 40
0.0
 40
0.1221253842
 40
0.1882701556
 40
0.256938159
 40
0.3976199124
 40
0.5358637125
 40
0.6017571855
 40
0.6644875771
 40
0.7239103515
 40
0.7804011745
 40
0.8348779018
 40
0.8886709138
 40
0.9432845819
 40
1.0
 40
1.0
 40
1.0
 40
1.0
 10
43.7063376482
 20
-39.860692009
 30
0.0
 10
43.6135514863
 20
-39.6552526637
 30
0.0
 10
43.5441933192
 20
-39.3025867092
 30
0.0
 10
43.5756908508
 20
-38.8283830145
 30
0.0
 10
43.6910853089
 20
-38.3308919622
 30
0.0
 10
43.9788472429
 20
-37.7464769969
 30
0.0
 10
44.4201008663
 20
-37.2727433165
 30
0.0
 10
44.8356742745
 20
-37.0042370463
 30
0.0
 10
45.158119911
 20
-36.8701529558
 30
0.0
 10
45.4840723452
 20
-36.806068291
 30
0.0
 10
45.8013567754
 20
-36.8153835835
 30
0.0
 10
46.0971712612
 20
-36.898974186
 30
0.0
 10
46.358769115
 20
-37.0540647292
 30
0.0
 10
46.5745324604
 20
-37.2737705077
 30
0.0
 10
46.6798933699
 20
-37.4527254813
 30
0.0
 10
46.7229854909
 20
-37.5481312976
 30
0.0
  0
SPLINE
  5
33C
100
AcDbEntity
  8
0
100
AcDbSpline
 62
7
  6
CONTINUOUS
 70
0
 71
3
 72
9
 73
5
 74
0
 42
0.0000001
 43
0.0000001
 44
0.0000000001
 40
0.0
 40
0.0
 40
0.0
 40
0.0
 40
0.4896939819
 40
1.0
 40
1.0
 40
1.0
 40
1.0
 10
42.087883039
 20
-41.5177124389
 30
0.0
 10
41.8681918147
 20
-41.3907816717
 30
0.0
 10
41.4606028966
 20
-41.0539857184
 30
0.0
 10
41.1807852596
 20
-40.6075816862
 30
0.0
 10
41.0719498233
 20
-40.3666171389
 30
0.0
  0
SPLINE
  5
33D
100
AcDbEntity
  8
0
100
AcDbSpline
 62
7
  6
CONTINUOUS
 70
0
 71
3
 72
15
 73
11
 74
0
 42
0.0000001
 43
0.0000001
 44
0.0000000001
 40
0.0
 40
0.0
 40
0.0
 40
0.0
 40
0.1143893811
 40
0.2368934159
 40
0.3660601154
 40
0.4990148345
 40
0.6321315458
 40
0.7617658849
 40
0.8849141488
 40
1.0
 40
1.0
 40
1.0
 40
1.0
 10
41.0375809309
 20
-40.2874390016
 30
0.0
 10
40.9242638524
 20
-40.015576002
 30
0.0
 10
40.7730436799
 20
-39.4156497241
 30
0.0
 10
40.7741094741
 20
-38.465318051
 30
0.0
 10
40.9900168375
 20
-37.4913444719
 30
0.0
 10
41.4061911157
 20
-36.5555336155
 30
0.0
 10
41.9956302416
 20
-35.7165310416
 30
0.0
 10
42.7217589392
 20
-35.0277735088
 30
0.0
 10
43.5388323673
 20
-34.533666087
 30
0.0
 10
44.1332348843
 20
-34.3505197325
 30
0.0
 10
44.4261142503
 20
-34.305447374
 30
0.0
  0
SPLINE
  5
33E
100
AcDbEntity
  8
0
100
AcDbSpline
 62
7
  6
CONTINUOUS
 70
0
 71
3
 72
9
 73
5
 74
0
 42
0.0000001
 43
0.0000001
 44
0.0000000001
 40
0.0
 40
0.0
 40
0.0
 40
0.0
 40
0.2548605983
 40
1.0
 40
1.0
 40
1.0
 40
1.0
 10
-63.4757959246
 20
28.1405588691
 30
0.0
 10
-63.6639691144
 20
27.3201822472
 30
0.0
 10
-64.3174315972
 20
24.0826873633
 30
0.0
 10
-64.6246516051
 20
20.7728901831
 30
0.0
 10
-64.6316736433
 20
18.3120659201
 30
0.0
  0
SPLINE
  5
33F
100
AcDbEntity
  8
0
100
AcDbSpline
 62
7
  6
CONTINUOUS
 70
0
 71
3
 72
9
 73
5
 74
0
 42
0.0000001
 43
0.0000001
 44
0.0000000001
 40
0.0
 40
0.0
 40
0.0
 40
0.0
 40
0.5093426963
 40
1.0
 40
1.0
 40
1.0
 40
1.0
 10
-65.5314939316
 20
13.8579163651
 30
0.0
 10
-65.1265117824
 20
12.2602500176
 30
0.0
 10
-64.0976724228
 20
9.176772626
 30
0.0
 10
-62.577567302
 20
6.299799556
 30
0.0
 10
-61.7134945445
 20
4.9677831421
 30
0.0
  0
SPLINE
  5
340
100
AcDbEntity
  8
0
100
AcDbSpline
 62
7
  6
CONTINUOUS
 70
0
 71
3
 72
11
 73
7
 74
0
 42
0.0000001
 43
0.0000001
 44
0.0000000001
 40
0.0
 40
0.0
 40
0.0
 40
0.0
 40
0.2595417743
 40
0.5112062262
 40
0.7571141485
 40
1.0
 40
1.0
 40
1.0
 40
1.0
 10
-46.1856556713
 20
0.540795613
 30
0.0
 10
-45.8425594005
 20
-0.2886437314
 30
0.0
 10
-45.0475533451
 20
-1.8766358742
 30
0.0
 10
-43.5171327991
 20
-4.0149383768
 30
0.0
 10
-41.6947564261
 20
-5.8307929366
 30
0.0
 10
-40.3019678147
 20
-6.8063840919
 30
0.0
 10
-39.5745872196
 20
-7.2265170108
 30
0.0
  0
SPLINE
  5
341
100
AcDbEntity
  8
0
100
AcDbSpline
 62
7
  6
CONTINUOUS
 70
0
 71
3
 72
11
 73
7
 74
0
 42
0.0000001
 43
0.0000001
 44
0.0000000001
 40
0.0
 40
0.0
 40
0.0
 40
0.0
 40
0.2660669585
 40
0.5228518689
 40
0.7678211851
 40
1.0
 40
1.0
 40
1.0
 40
1.0
 10
-46.1856556713
 20
18.2018647054
 30
0.0
 10
-46.6979959446
 20
16.6886005945
 30
0.0
 10
-47.4820360656
 20
13.6330229134
 30
0.0
 10
-47.8970344025
 20
9.0199325486
 30
0.0
 10
-47.5188186387
 20
4.6055078951
 30
0.0
 10
-46.7185543363
 20
1.8290845224
 30
0.0
 10
-46.1856556713
 20
0.540795613
 30
0.0
  0
SPLINE
  5
342
100
AcDbEntity
  8
0
100
AcDbSpline
 62
7
  6
CONTINUOUS
 70
0
 71
3
 72
18
 73
14
 74
0
 42
0.0000001
 43
0.0000001
 44
0.0000000001
 40
0.0
 40
0.0
 40
0.0
 40
0.0
 40
0.0528868977
 40
0.1062703213
 40
0.1606080089
 40
0.216286108
 40
0.3325045491
 40
0.4562607266
 40
0.5870291666
 40
0.6545939335
 40
0.7231633256
 40
0.8617701274
 40
1.0
 40
1.0
 40
1.0
 40
1.0
 10
-14.4673640484
 20
36.2437170188
 30
0.0
 10
-15.0967154744
 20
36.6071940643
 30
0.0
 10
-16.4186208774
 20
37.2430562673
 30
0.0
 10
-18.5352254834
 20
37.8948436201
 30
0.0
 10
-20.7620867421
 20
38.2390475799
 30
0.0
 10
-23.8792158291
 20
38.2838359231
 30
0.0
 10
-27.917810899
 20
37.5239971481
 30
0.0
 10
-32.608510245
 20
35.4404753589
 30
0.0
 10
-36.2297148619
 20
32.8431128345
 30
0.0
 10
-38.8902071406
 20
30.3125763107
 30
0.0
 10
-41.3833471124
 20
27.471112207
 30
0.0
 10
-44.0306267429
 20
23.5016362546
 30
0.0
 10
-45.5764955485
 20
20.0010989276
 30
0.0
 10
-46.1856556713
 20
18.2018647054
 30
0.0
  0
SPLINE
  5
343
100
AcDbEntity
  8
0
100
AcDbSpline
 62
7
  6
CONTINUOUS
 70
0
 71
3
 72
9
 73
5
 74
0
 42
0.0000001
 43
0.0000001
 44
0.0000000001
 40
0.0
 40
0.0
 40
0.0
 40
0.0
 40
0.4942422061
 40
1.0
 40
1.0
 40
1.0
 40
1.0
 10
-61.9633109283
 20
4.7809711814
 30
0.0
 10
-62.5728466688
 20
5.7302943882
 30
0.0
 10
-63.6440574042
 20
7.759135502
 30
0.0
 10
-64.3815879662
 20
9.9295940439
 30
0.0
 10
-64.6730061997
 20
11.046654233
 30
0.0
  0
SPLINE
  5
344
100
AcDbEntity
  8
0
100
AcDbSpline
 62
7
  6
CONTINUOUS
 70
0
 71
3
 72
9
 73
5
 74
0
 42
0.0000001
 43
0.0000001
 44
0.0000000001
 40
0.0
 40
0.0
 40
0.0
 40
0.0
 40
0.4911579957
 40
1.0
 40
1.0
 40
1.0
 40
1.0
 10
-31.4535982597
 20
49.9957307238
 30
0.0
 10
-32.9492698988
 20
50.0471373164
 30
0.0
 10
-36.0073478136
 20
49.8970031666
 30
0.0
 10
-39.0038788818
 20
49.2810643782
 30
0.0
 10
-40.4971994867
 20
48.8641098247
 30
0.0
  0
SPLINE
  5
345
100
AcDbEntity
  8
0
100
AcDbSpline
 62
7
  6
CONTINUOUS
 70
0
 71
3
 72
9
 73
5
 74
0
 42
0.0000001
 43
0.0000001
 44
0.0000000001
 40
0.0
 40
0.0
 40
0.0
 40
0.0
 40
0.2451898024
 40
1.0
 40
1.0
 40
1.0
 40
1.0
 10
-43.8481998789
 20
48.9694392001
 30
0.0
 10
-44.5298306772
 20
48.5865187238
 30
0.0
 10
-47.2643321017
 20
46.9445767169
 30
0.0
 10
-49.8113282295
 20
44.9947043327
 30
0.0
 10
-51.6058953998
 20
43.3908559122
 30
0.0
  0
SPLINE
  5
346
100
AcDbEntity
  8
0
100
AcDbSpline
 62
7
  6
CONTINUOUS
 70
0
 71
3
 72
9
 73
5
 74
0
 42
0.0000001
 43
0.0000001
 44
0.0000000001
 40
0.0
 40
0.0
 40
0.0
 40
0.0
 40
0.4931529689
 40
1.0
 40
1.0
 40
1.0
 40
1.0
 10
-65.4941435135
 20
17.6465781273
 30
0.0
 10
-65.4941435135
 20
19.4123595894
 30
0.0
 10
-65.1618111962
 20
22.9985618049
 30
0.0
 10
-64.235188005
 20
26.4752762662
 30
0.0
 10
-63.6316341702
 20
28.1867884464
 30
0.0
  0
SPLINE
  5
347
100
AcDbEntity
  8
0
100
AcDbSpline
 62
7
  6
CONTINUOUS
 70
0
 71
3
 72
9
 73
5
 74
0
 42
0.0000001
 43
0.0000001
 44
0.0000000001
 40
0.0
 40
0.0
 40
0.0
 40
0.0
 40
0.5009925936
 40
1.0
 40
1.0
 40
1.0
 40
1.0
 10
-63.6316341702
 20
28.1867884464
 30
0.0
 10
-62.7850319417
 20
30.587518824
 30
0.0
 10
-60.5605761137
 20
35.2051274298
 30
0.0
 10
-57.4060916632
 20
39.246315705
 30
0.0
 10
-55.6316764719
 20
41.0575136879
 30
0.0
  0
SPLINE
  5
348
100
AcDbEntity
  8
0
100
AcDbSpline
 62
7
  6
CONTINUOUS
 70
0
 71
3
 72
9
 73
5
 74
0
 42
0.0000001
 43
0.0000001
 44
0.0000000001
 40
0.0
 40
0.0
 40
0.0
 40
0.0
 40
0.5093467208
 40
1.0
 40
1.0
 40
1.0
 40
1.0
 10
-55.6316764719
 20
41.0575136879
 30
0.0
 10
-54.1804026054
 20
42.5388717818
 30
0.0
 10
-51.0545379325
 20
45.1911764975
 30
0.0
 10
-47.451090697
 20
47.1626649879
 30
0.0
 10
-45.5999724714
 20
47.9137304301
 30
0.0
  0
SPLINE
  5
349
100
AcDbEntity
  8
0
100
AcDbSpline
 62
7
  6
CONTINUOUS
 70
0
 71
3
 72
9
 73
5
 74
0
 42
0.0000001
 43
0.0000001
 44
0.0000000001
 40
0.0
 40
0.0
 40
0.0
 40
0.0
 40
0.5050969926
 40
1.0
 40
1.0
 40
1.0
 40
1.0
 10
-42.6280201628
 20
48.9089639133
 30
0.0
 10
-41.6504782647
 20
49.167926578
 30
0.0
 10
-39.6799360818
 20
49.5574758828
 30
0.0
 10
-37.6734150758
 20
49.6724601588
 30
0.0
 10
-36.6826939636
 20
49.6563562489
 30
0.0
  0
SPLINE
  5
34A
100
AcDbEntity
  8
0
100
AcDbSpline
 62
7
  6
CONTINUOUS
 70
0
 71
3
 72
11
 73
7
 74
0
 42
0.0000001
 43
0.0000001
 44
0.0000000001
 40
0.0
 40
0.0
 40
0.0
 40
0.0
 40
0.2021263139
 40
0.4272054466
 40
0.6920536429
 40
1.0
 40
1.0
 40
1.0
 40
1.0
 10
-51.5723595893
 20
-4.3468843931
 30
0.0
 10
-51.6204833513
 20
-4.3288919501
 30
0.0
 10
-51.7143095264
 20
-4.2664022986
 30
0.0
 10
-51.8098167014
 20
-4.1139974853
 30
0.0
 10
-51.8587934843
 20
-3.9147475129
 30
0.0
 10
-51.8599099921
 20
-3.7678102198
 30
0.0
 10
-51.8525574414
 20
-3.6898812672
 30
0.0
  0
SPLINE
  5
34B
100
AcDbEntity
  8
0
100
AcDbSpline
 62
7
  6
CONTINUOUS
 70
0
 71
3
 72
9
 73
5
 74
0
 42
0.0000001
 43
0.0000001
 44
0.0000000001
 40
0.0
 40
0.0
 40
0.0
 40
0.0
 40
0.4731169409
 40
1.0
 40
1.0
 40
1.0
 40
1.0
 10
-65.5314477823
 20
13.8578643205
 30
0.0
 10
-65.5262690474
 20
13.8370685988
 30
0.0
 10
-65.5032360633
 20
13.7958561996
 30
0.0
 10
-65.4664582501
 20
13.7678430705
 30
0.0
 10
-65.4457586039
 20
13.7559634676
 30
0.0
  0
SPLINE
  5
34C
100
AcDbEntity
  8
0
100
AcDbSpline
 62
7
  6
CONTINUOUS
 70
0
 71
3
 72
9
 73
5
 74
0
 42
0.0000001
 43
0.0000001
 44
0.0000000001
 40
0.0
 40
0.0
 40
0.0
 40
0.0
 40
0.2497012684
 40
1.0
 40
1.0
 40
1.0
 40
1.0
 10
-59.8500439712
 20
23.3419879836
 30
0.0
 10
-60.0563133021
 20
23.797722429
 30
0.0
 10
-60.8380046851
 20
25.6424047976
 30
0.0
 10
-61.4326578722
 20
27.5679104995
 30
0.0
 10
-61.7524474257
 20
29.0366152736
 30
0.0
  0
SPLINE
  5
34D
100
AcDbEntity
  8
0
100
AcDbSpline
 62
7
  6
CONTINUOUS
 70
0
 71
3
 72
11
 73
7
 74
0
 42
0.0000001
 43
0.0000001
 44
0.0000000001
 40
0.0
 40
0.0
 40
0.0
 40
0.0
 40
0.2870053356
 40
0.5373157564
 40
0.7650099798
 40
1.0
 40
1.0
 40
1.0
 40
1.0
 10
-61.7524467881
 20
29.0366154387
 30
0.0
 10
-61.7606669927
 20
29.074352465
 30
0.0
 10
-61.7839130016
 20
29.1438431947
 30
0.0
 10
-61.8482394363
 20
29.2279080431
 30
0.0
 10
-61.9389505325
 20
29.2702820706
 30
0.0
 10
-62.0036153866
 20
29.265081032
 30
0.0
 10
-62.0341601973
 20
29.2568965907
 30
0.0
  0
SPLINE
  5
34E
100
AcDbEntity
  8
0
100
AcDbSpline
 62
7
  6
CONTINUOUS
 70
0
 71
3
 72
9
 73
5
 74
0
 42
0.0000001
 43
0.0000001
 44
0.0000000001
 40
0.0
 40
0.0
 40
0.0
 40
0.0
 40
0.4986713445
 40
1.0
 40
1.0
 40
1.0
 40
1.0
 10
-54.3702533204
 20
41.4469959874
 30
0.0
 10
-54.3284962132
 20
41.4313273396
 30
0.0
 10
-54.25517812
 20
41.3698924739
 30
0.0
 10
-54.2212790159
 20
41.2847660909
 30
0.0
 10
-54.2106066979
 20
41.241217034
 30
0.0
  0
SPLINE
  5
34F
100
AcDbEntity
  8
0
100
AcDbSpline
 62
7
  6
CONTINUOUS
 70
0
 71
3
 72
10
 73
6
 74
0
 42
0.0000001
 43
0.0000001
 44
0.0000000001
 40
0.0
 40
0.0
 40
0.0
 40
0.0
 40
0.2363559644
 40
0.6082410687
 40
1.0
 40
1.0
 40
1.0
 40
1.0
 10
-61.4161377859
 20
30.2993637412
 30
0.0
 10
-60.2410226101
 20
29.62156943
 30
0.0
 10
-57.2105329815
 20
27.888474405
 30
0.0
 10
-52.2061966909
 20
25.0777840015
 30
0.0
 10
-48.3657254514
 20
22.9655103571
 30
0.0
 10
-46.3920393454
 20
21.8882893086
 30
0.0
  0
SPLINE
  5
350
100
AcDbEntity
  8
0
100
AcDbSpline
 62
7
  6
CONTINUOUS
 70
0
 71
3
 72
9
 73
5
 74
0
 42
0.0000001
 43
0.0000001
 44
0.0000000001
 40
0.0
 40
0.0
 40
0.0
 40
0.0
 40
0.2542615886
 40
1.0
 40
1.0
 40
1.0
 40
1.0
 10
-53.1969126826
 20
36.1365292068
 30
0.0
 10
-53.2870582071
 20
36.5450164569
 30
0.0
 10
-53.5966906486
 20
38.1608331541
 30
0.0
 10
-53.7171539002
 20
39.815468933
 30
0.0
 10
-53.6775537177
 20
41.0417319084
 30
0.0
  0
SPLINE
  5
351
100
AcDbEntity
  8
0
100
AcDbSpline
 62
7
  6
CONTINUOUS
 70
0
 71
3
 72
9
 73
5
 74
0
 42
0.0000001
 43
0.0000001
 44
0.0000000001
 40
0.0
 40
0.0
 40
0.0
 40
0.0
 40
0.5027552325
 40
1.0
 40
1.0
 40
1.0
 40
1.0
 10
-53.6775541749
 20
41.0417320786
 30
0.0
 10
-53.6762440506
 20
41.0822636181
 30
0.0
 10
-53.6926389733
 20
41.1678727661
 30
0.0
 10
-53.7637396058
 20
41.2200041681
 30
0.0
 10
-53.8013106584
 20
41.2340429005
 30
0.0
  0
SPLINE
  5
352
100
AcDbEntity
  8
0
100
AcDbSpline
 62
7
  6
CONTINUOUS
 70
0
 71
3
 72
9
 73
5
 74
0
 42
0.0000001
 43
0.0000001
 44
0.0000000001
 40
0.0
 40
0.0
 40
0.0
 40
0.0
 40
0.4957194206
 40
1.0
 40
1.0
 40
1.0
 40
1.0
 10
-29.7686296485
 20
48.1713098819
 30
0.0
 10
-27.4724108144
 20
46.829374326
 30
0.0
 10
-22.9863953593
 20
43.8649785479
 30
0.0
 10
-18.8419723832
 20
40.4408366408
 30
0.0
 10
-16.8459484022
 20
38.6144390922
 30
0.0
  0
SPLINE
  5
353
100
AcDbEntity
  8
0
100
AcDbSpline
 62
7
  6
CONTINUOUS
 70
0
 71
3
 72
9
 73
5
 74
0
 42
0.0000001
 43
0.0000001
 44
0.0000000001
 40
0.0
 40
0.0
 40
0.0
 40
0.0
 40
0.4829423867
 40
1.0
 40
1.0
 40
1.0
 40
1.0
 10
-52.9466850525
 20
41.9908396699
 30
0.0
 10
-50.5601576945
 20
40.6069154476
 30
0.0
 10
-45.6810114787
 20
37.6328311494
 30
0.0
 10
-40.914098785
 20
34.4829705251
 30
0.0
 10
-38.4755279471
 20
32.81642826
 30
0.0
  0
SPLINE
  5
354
100
AcDbEntity
  8
0
100
AcDbSpline
 62
7
  6
CONTINUOUS
 70
0
 71
3
 72
14
 73
10
 74
0
 42
0.0000001
 43
0.0000001
 44
0.0000000001
 40
0.0
 40
0.0
 40
0.0
 40
0.0
 40
0.2721266355
 40
0.4016214108
 40
0.5268154177
 40
0.6482821577
 40
0.7668690721
 40
0.8836905586
 40
1.0
 40
1.0
 40
1.0
 40
1.0
 10
-49.0953409721
 20
8.9964843887
 30
0.0
 10
-49.095323855
 20
7.0670795074
 30
0.0
 10
-48.7848439401
 20
4.1998218154
 30
0.0
 10
-47.6706787567
 20
0.625697841
 30
0.0
 10
-46.5334011735
 20
-1.7969791018
 30
0.0
 10
-45.097205735
 20
-3.963504502
 30
0.0
 10
-43.3835591572
 20
-5.8397276432
 30
0.0
 10
-41.4196472684
 20
-7.3936226405
 30
0.0
 10
-39.9650973251
 20
-8.1971354734
 30
0.0
 10
-39.2131110008
 20
-8.5355978191
 30
0.0
  0
SPLINE
  5
355
100
AcDbEntity
  8
0
100
AcDbSpline
 62
7
  6
CONTINUOUS
 70
0
 71
3
 72
9
 73
5
 74
0
 42
0.0000001
 43
0.0000001
 44
0.0000000001
 40
0.0
 40
0.0
 40
0.0
 40
0.0
 40
0.2586865041
 40
1.0
 40
1.0
 40
1.0
 40
1.0
 10
-42.4858425604
 20
44.8432786411
 30
0.0
 10
-42.5298111365
 20
45.168498425
 30
0.0
 10
-42.6665737916
 20
46.4296929842
 30
0.0
 10
-42.6653789959
 20
47.7079165009
 30
0.0
 10
-42.5690400598
 20
48.6434246629
 30
0.0
  0
SPLINE
  5
356
100
AcDbEntity
  8
0
100
AcDbSpline
 62
7
  6
CONTINUOUS
 70
0
 71
3
 72
12
 73
8
 74
0
 42
0.0000001
 43
0.0000001
 44
0.0000000001
 40
0.0
 40
0.0
 40
0.0
 40
0.0
 40
0.1342496915
 40
0.2410793759
 40
0.3724297268
 40
0.6792631987
 40
1.0
 40
1.0
 40
1.0
 40
1.0
 10
-65.1980530948
 20
15.0442686507
 30
0.0
 10
-65.1844917833
 20
15.056563188
 30
0.0
 10
-65.144780862
 20
15.0534614289
 30
0.0
 10
-65.0994249456
 20
15.0348218091
 30
0.0
 10
-65.0335942035
 20
14.9984886839
 30
0.0
 10
-64.950872215
 20
14.9364239591
 30
0.0
 10
-64.8869847278
 20
14.8792495624
 30
0.0
 10
-64.855513724
 20
14.8488839793
 30
0.0
  0
SPLINE
  5
357
100
AcDbEntity
  8
0
100
AcDbSpline
 62
7
  6
CONTINUOUS
 70
0
 71
3
 72
9
 73
5
 74
0
 42
0.0000001
 43
0.0000001
 44
0.0000000001
 40
0.0
 40
0.0
 40
0.0
 40
0.0
 40
0.5213335013
 40
1.0
 40
1.0
 40
1.0
 40
1.0
 10
-42.4858601195
 20
44.843262027
 30
0.0
 10
-42.5331611729
 20
45.4162699437
 30
0.0
 10
-42.5530366196
 20
46.5230941334
 30
0.0
 10
-42.3922006649
 20
47.6214931609
 30
0.0
 10
-42.2612863852
 20
48.1329041497
 30
0.0
  0
SPLINE
  5
358
100
AcDbEntity
  8
0
100
AcDbSpline
 62
7
  6
CONTINUOUS
 70
0
 71
3
 72
15
 73
11
 74
0
 42
0.0000001
 43
0.0000001
 44
0.0000000001
 40
0.0
 40
0.0
 40
0.0
 40
0.0
 40
0.2419285267
 40
0.4870447873
 40
0.6115573772
 40
0.7382587888
 40
0.8687728634
 40
0.9364337769
 40
0.9704471056
 40
1.0
 40
1.0
 40
1.0
 40
1.0
 10
-61.7135006633
 20
4.9677810186
 30
0.0
 10
-61.6912432885
 20
4.9334716105
 30
0.0
 10
-61.6460493047
 20
4.8646510293
 30
0.0
 10
-61.5881118057
 20
4.7790221124
 30
0.0
 10
-61.5400130068
 20
4.7102796337
 30
0.0
 10
-61.5022501968
 20
4.6579324816
 30
0.0
 10
-61.4690242613
 20
4.614251332
 30
0.0
 10
-61.4440346999
 20
4.5838536763
 30
0.0
 10
-61.4287268209
 20
4.5679326769
 30
0.0
 10
-61.420834985
 20
4.5603509851
 30
0.0
 10
-61.4164399163
 20
4.5579759607
 30
0.0
  0
SPLINE
  5
359
100
AcDbEntity
  8
0
100
AcDbSpline
 62
7
  6
CONTINUOUS
 70
0
 71
3
 72
25
 73
21
 74
0
 42
0.0000001
 43
0.0000001
 44
0.0000000001
 40
0.0
 40
0.0
 40
0.0
 40
0.0
 40
0.1255964929
 40
0.2511999062
 40
0.3768071983
 40
0.5024140685
 40
0.5652156412
 40
0.6280135891
 40
0.6908048434
 40
0.7535834037
 40
0.8163357836
 40
0.8476931099
 40
0.8790260466
 40
0.910313707
 40
0.941501881
 40
0.9570127485
 40
0.9723870289
 40
0.9873653606
 40
0.9943517801
 40
1.0
 40
1.0
 40
1.0
 40
1.0
 10
-60.5979279466
 20
32.4362953805
 30
0.0
 10
-60.6389179941
 20
32.3491840789
 30
0.0
 10
-60.7199245047
 20
32.1744954392
 30
0.0
 10
-60.8383815144
 20
31.9110629435
 30
0.0
 10
-60.9535936513
 20
31.6461855789
 30
0.0
 10
-61.0466450425
 20
31.4241869703
 30
0.0
 10
-61.1190323273
 20
31.245752105
 30
0.0
 10
-61.1721780528
 20
31.1114781723
 30
0.0
 10
-61.2240175377
 20
30.9767126481
 30
0.0
 10
-61.2742913411
 20
30.8413917402
 30
0.0
 10
-61.3145386114
 20
30.728059879
 30
0.0
 10
-61.3453106326
 20
30.6369588445
 30
0.0
 10
-61.3674605121
 20
30.5684100154
 30
0.0
 10
-61.3883282123
 20
30.4995878289
 30
0.0
 10
-61.4041607156
 20
30.441945135
 30
0.0
 10
-61.4150033609
 20
30.3955702722
 30
0.0
 10
-61.4216717347
 20
30.3611535033
 30
0.0
 10
-61.4248487514
 20
30.3323030759
 30
0.0
 10
-61.4242564031
 20
30.3116659747
 30
0.0
 10
-61.4200092844
 20
30.3013018552
 30
0.0
 10
-61.4161377859
 20
30.2993637412
 30
0.0
  0
SPLINE
  5
35A
100
AcDbEntity
  8
0
100
AcDbSpline
 62
7
  6
CONTINUOUS
 70
0
 71
3
 72
9
 73
5
 74
0
 42
0.0000001
 43
0.0000001
 44
0.0000000001
 40
0.0
 40
0.0
 40
0.0
 40
0.0
 40
0.2473352106
 40
1.0
 40
1.0
 40
1.0
 40
1.0
 10
-55.4168170921
 20
-0.6210803182
 30
0.0
 10
-55.8757305482
 20
-0.3036064624
 30
0.0
 10
-57.710302749
 20
1.0096182873
 30
0.0
 10
-59.4559605734
 20
2.4490187359
 30
0.0
 10
-60.6988116107
 20
3.6061439756
 30
0.0
  0
SPLINE
  5
35B
100
AcDbEntity
  8
0
100
AcDbSpline
 62
7
  6
CONTINUOUS
 70
0
 71
3
 72
14
 73
10
 74
0
 42
0.0000001
 43
0.0000001
 44
0.0000000001
 40
0.0
 40
0.0
 40
0.0
 40
0.0
 40
0.3857980178
 40
0.5538402174
 40
0.697102694
 40
0.8114442777
 40
0.8956255929
 40
0.9535994545
 40
1.0
 40
1.0
 40
1.0
 40
1.0
 10
-60.6988112932
 20
3.606144669
 30
0.0
 10
-60.7380835514
 20
3.6427066025
 30
0.0
 10
-60.796312104
 20
3.6933493638
 30
0.0
 10
-60.8745831946
 20
3.750685335
 30
0.0
 10
-60.9247663556
 20
3.7821510531
 30
0.0
 10
-60.9677149718
 20
3.8030803458
 30
0.0
 10
-61.0019220103
 20
3.8131671887
 30
0.0
 10
-61.0295337686
 20
3.8125605122
 30
0.0
 10
-61.0411046345
 20
3.8013580276
 30
0.0
 10
-61.0437744387
 20
3.7954827536
 30
0.0
  0
SPLINE
  5
35C
100
AcDbEntity
  8
0
100
AcDbSpline
 62
7
  6
CONTINUOUS
 70
0
 71
3
 72
9
 73
5
 74
0
 42
0.0000001
 43
0.0000001
 44
0.0000000001
 40
0.0
 40
0.0
 40
0.0
 40
0.0
 40
0.4910174259
 40
1.0
 40
1.0
 40
1.0
 40
1.0
 10
-61.4164399163
 20
4.5579759607
 30
0.0
 10
-59.0748826513
 20
3.2186100212
 30
0.0
 10
-54.1624398447
 20
0.7363339748
 30
0.0
 10
-49.0383643525
 20
-1.2682444036
 30
0.0
 10
-46.3926854402
 20
-2.173449563
 30
0.0
  0
SPLINE
  5
35D
100
AcDbEntity
  8
0
100
AcDbSpline
 62
7
  6
CONTINUOUS
 70
0
 71
3
 72
9
 73
5
 74
0
 42
0.0000001
 43
0.0000001
 44
0.0000000001
 40
0.0
 40
0.0
 40
0.0
 40
0.0
 40
0.2479872509
 40
1.0
 40
1.0
 40
1.0
 40
1.0
 10
-60.6627429554
 20
9.8877727941
 30
0.0
 10
-61.0040115464
 20
10.3098862272
 30
0.0
 10
-62.3444999449
 20
12.0403731117
 30
0.0
 10
-63.5349877036
 20
13.8886469767
 30
0.0
 10
-64.3224478076
 20
15.3341252719
 30
0.0
  0
SPLINE
  5
35E
100
AcDbEntity
  8
0
100
AcDbSpline
 62
7
  6
CONTINUOUS
 70
0
 71
3
 72
11
 73
7
 74
0
 42
0.0000001
 43
0.0000001
 44
0.0000000001
 40
0.0
 40
0.0
 40
0.0
 40
0.0
 40
0.3324814563
 40
0.6054888901
 40
0.8138866255
 40
1.0
 40
1.0
 40
1.0
 40
1.0
 10
-64.3224481378
 20
15.3341249722
 30
0.0
 10
-64.3463622582
 20
15.3780243561
 30
0.0
 10
-64.3967385531
 20
15.4547336464
 30
0.0
 10
-64.4871302189
 20
15.5394560906
 30
0.0
 10
-64.588735746
 20
15.57284562
 30
0.0
 10
-64.6477438042
 20
15.545226389
 30
0.0
 10
-64.6684303643
 20
15.5263816616
 30
0.0
  0
SPLINE
  5
35F
100
AcDbEntity
  8
0
100
AcDbSpline
 62
7
  6
CONTINUOUS
 70
0
 71
3
 72
9
 73
5
 74
0
 42
0.0000001
 43
0.0000001
 44
0.0000000001
 40
0.0
 40
0.0
 40
0.0
 40
0.0
 40
0.4846848273
 40
1.0
 40
1.0
 40
1.0
 40
1.0
 10
-64.5165925248
 20
16.5966687438
 30
0.0
 10
-62.1361243418
 20
15.2305091673
 30
0.0
 10
-57.1276994844
 20
12.5791087068
 30
0.0
 10
-51.974714238
 20
10.2236218785
 30
0.0
 10
-49.290463513
 20
9.0790590953
 30
0.0
  0
SPLINE
  5
360
100
AcDbEntity
  8
0
100
AcDbSpline
 62
7
  6
CONTINUOUS
 70
0
 71
3
 72
14
 73
10
 74
0
 42
0.0000001
 43
0.0000001
 44
0.0000000001
 40
0.0
 40
0.0
 40
0.0
 40
0.0
 40
0.1162804692
 40
0.2330959541
 40
0.351700906
 40
0.4731865242
 40
0.5984032953
 40
0.7278999549
 40
1.0
 40
1.0
 40
1.0
 40
1.0
 10
-38.3485728162
 20
-7.9034850523
 30
0.0
 10
-39.0682419636
 20
-7.5757531094
 30
0.0
 10
-40.4599507042
 20
-6.799425165
 30
0.0
 10
-42.3381473085
 20
-5.3023242501
 30
0.0
 10
-43.9766992993
 20
-3.4978609375
 30
0.0
 10
-45.3496273104
 20
-1.416336462
 30
0.0
 10
-46.4367845442
 20
0.9093965014
 30
0.0
 10
-47.5015816907
 20
4.3387238338
 30
0.0
 10
-47.7982782856
 20
7.0886022888
 30
0.0
 10
-47.7982782856
 20
8.9390513413
 30
0.0
  0
SPLINE
  5
361
100
AcDbEntity
  8
0
100
AcDbSpline
 62
7
  6
CONTINUOUS
 70
0
 71
3
 72
20
 73
16
 74
0
 42
0.0000001
 43
0.0000001
 44
0.0000000001
 40
0.0
 40
0.0
 40
0.0
 40
0.0
 40
0.1310176798
 40
0.1989717548
 40
0.2677991896
 40
0.4055380102
 40
0.4734795887
 40
0.5400132795
 40
0.6669404864
 40
0.7270987503
 40
0.7849180138
 40
0.84061087
 40
0.8945972758
 40
0.9474821882
 40
1.0
 40
1.0
 40
1.0
 40
1.0
 10
-47.7978042098
 20
9.0953104445
 30
0.0
 10
-47.7840338411
 20
11.3665420717
 30
0.0
 10
-47.3077630385
 20
14.8269084149
 30
0.0
 10
-45.9096606328
 20
19.2600405265
 30
0.0
 10
-43.9846520647
 20
23.6212281745
 30
0.0
 10
-41.3611293666
 20
27.6447356799
 30
0.0
 10
-38.1610803362
 20
31.1248782649
 30
0.0
 10
-34.7291457752
 20
34.0943073654
 30
0.0
 10
-30.9004836027
 20
36.3715159276
 30
0.0
 10
-26.8684118751
 20
37.7405102584
 30
0.0
 10
-23.8931430835
 20
38.2764850666
 30
0.0
 10
-20.9763594581
 20
38.3249420207
 30
0.0
 10
-18.1778101047
 20
37.8818039103
 30
0.0
 10
-15.5587434607
 20
36.9542899868
 30
0.0
 10
-13.9705498782
 20
36.0250206439
 30
0.0
 10
-13.2313434521
 20
35.4935556896
 30
0.0
  0
SPLINE
  5
362
100
AcDbEntity
  8
0
100
AcDbSpline
 62
7
  6
CONTINUOUS
 70
0
 71
3
 72
21
 73
17
 74
0
 42
0.0000001
 43
0.0000001
 44
0.0000000001
 40
0.0
 40
0.0
 40
0.0
 40
0.0
 40
0.0530472739
 40
0.1059453372
 40
0.1595389166
 40
0.2145837524
 40
0.271656231
 40
0.3311039079
 40
0.3930379305
 40
0.4573480427
 40
0.5915118227
 40
0.6606091213
 40
0.7301583423
 40
0.7995077902
 40
0.8680167198
 40
1.0
 40
1.0
 40
1.0
 40
1.0
 10
-11.6284151085
 20
35.3285977442
 30
0.0
 10
-12.3513815595
 20
36.0065735434
 30
0.0
 10
-13.9299222505
 20
37.2254944812
 30
0.0
 10
-16.618100514
 20
38.5559046855
 30
0.0
 10
-19.5498384478
 20
39.3483538906
 30
0.0
 10
-22.6538667762
 20
39.586124078
 30
0.0
 10
-25.8588494645
 20
39.2679654077
 30
0.0
 10
-29.0931419799
 20
38.4048596054
 30
0.0
 10
-32.2868784982
 20
37.0185067596
 30
0.0
 10
-36.4531169119
 20
34.4827173481
 30
0.0
 10
-40.1881459112
 20
31.0713561215
 30
0.0
 10
-43.3138256238
 20
27.0358141088
 30
0.0
 10
-45.3354332036
 20
23.7065631067
 30
0.0
 10
-46.9631037177
 20
20.1796282403
 30
0.0
 10
-48.540375318
 20
15.3844584377
 30
0.0
 10
-49.0798531392
 20
11.6253461084
 30
0.0
 10
-49.0948057763
 20
9.1594377229
 30
0.0
  0
SPLINE
  5
363
100
AcDbEntity
  8
0
100
AcDbSpline
 62
7
  6
CONTINUOUS
 70
0
 71
3
 72
9
 73
5
 74
0
 42
0.0000001
 43
0.0000001
 44
0.0000000001
 40
0.0
 40
0.0
 40
0.0
 40
0.0
 40
0.2549590335
 40
1.0
 40
1.0
 40
1.0
 40
1.0
 10
-51.5347268096
 20
43.3098385686
 30
0.0
 10
-50.9305711701
 20
43.8518232021
 30
0.0
 10
-48.5071134186
 20
45.9163946051
 30
0.0
 10
-45.8665879554
 20
47.7294208444
 30
0.0
 10
-43.8018712771
 20
48.8965475628
 30
0.0
  0
SPLINE
  5
364
100
AcDbEntity
  8
0
100
AcDbSpline
 62
7
  6
CONTINUOUS
 70
0
 71
3
 72
10
 73
6
 74
0
 42
0.0000001
 43
0.0000001
 44
0.0000000001
 40
0.0
 40
0.0
 40
0.0
 40
0.0
 40
0.2274557542
 40
0.4704063495
 40
1.0
 40
1.0
 40
1.0
 40
1.0
 10
-43.7082090438
 20
48.9493284046
 30
0.0
 10
-43.8125002881
 20
47.9326838923
 30
0.0
 10
-43.8064973842
 20
45.8040411468
 30
0.0
 10
-43.0320131623
 20
41.3631874657
 30
0.0
 10
-41.6545698085
 20
38.1177618788
 30
0.0
 10
-40.5017937549
 20
36.0361299613
 30
0.0
  0
SPLINE
  5
365
100
AcDbEntity
  8
0
100
AcDbSpline
 62
7
  6
CONTINUOUS
 70
0
 71
3
 72
9
 73
5
 74
0
 42
0.0000001
 43
0.0000001
 44
0.0000000001
 40
0.0
 40
0.0
 40
0.0
 40
0.0
 40
0.2458133794
 40
1.0
 40
1.0
 40
1.0
 40
1.0
 10
-40.5017937549
 20
36.0361299613
 30
0.0
 10
-40.3505374356
 20
35.7634807276
 30
0.0
 10
-39.7194633942
 20
34.6630850137
 30
0.0
 10
-39.0268279113
 20
33.5982539887
 30
0.0
 10
-38.4755656305
 20
32.8164330759
 30
0.0
  0
SPLINE
  5
366
100
AcDbEntity
  8
0
100
AcDbSpline
 62
7
  6
CONTINUOUS
 70
0
 71
3
 72
11
 73
7
 74
0
 42
0.0000001
 43
0.0000001
 44
0.0000000001
 40
0.0
 40
0.0
 40
0.0
 40
0.0
 40
0.2653134727
 40
0.5209144116
 40
0.7654424713
 40
1.0
 40
1.0
 40
1.0
 40
1.0
 10
-43.7081918226
 20
48.9498616878
 30
0.0
 10
-43.6200938505
 20
48.9823017397
 30
0.0
 10
-43.4390159322
 20
49.0256649779
 30
0.0
 10
-43.1656222499
 20
49.0282558947
 30
0.0
 10
-42.9108017029
 20
48.9616570566
 30
0.0
 10
-42.7645575732
 20
48.8688876384
 30
0.0
 10
-42.7033767558
 20
48.8128023912
 30
0.0
  0
SPLINE
  5
367
100
AcDbEntity
  8
0
100
AcDbSpline
 62
7
  6
CONTINUOUS
 70
0
 71
3
 72
42
 73
38
 74
0
 42
0.0000001
 43
0.0000001
 44
0.0000000001
 40
0.0
 40
0.0
 40
0.0
 40
0.0
 40
0.107001191
 40
0.2197980292
 40
0.3380228253
 40
0.3990671018
 40
0.4613374488
 40
0.5247923448
 40
0.5893912855
 40
0.6550947656
 40
0.7218641771
 40
0.7896611648
 40
0.823933245
 40
0.8584472587
 40
0.8757933129
 40
0.893197746
 40
0.9106597927
 40
0.9281786894
 40
0.9369592665
 40
0.9457538984
 40
0.9545627097
 40
0.9633861705
 40
0.9678038295
 40
0.9722259273
 40
0.9766533087
 40
0.9810878459
 40
0.9855345381
 40
0.9877674103
 40
0.9900148253
 40
0.9911510522
 40
0.9923072355
 40
0.9935212585
 40
0.994220676
 40
0.9949887362
 40
0.9963605525
 40
0.9976091292
 40
1.0
 40
1.0
 40
1.0
 40
1.0
 10
-42.4858465381
 20
44.843270663
 30
0.0
 10
-42.4480114245
 20
44.3850100453
 30
0.0
 10
-42.3391413984
 20
43.4459670136
 30
0.0
 10
-42.0781850674
 20
42.0160451719
 30
0.0
 10
-41.7747090678
 20
40.797258628
 30
0.0
 10
-41.4782828103
 20
39.8023817176
 30
0.0
 10
-41.2260469292
 20
39.0403039758
 30
0.0
 10
-40.9464870235
 20
38.2715615611
 30
0.0
 10
-40.639914073
 20
37.4973002445
 30
0.0
 10
-40.3068230297
 20
36.7185630821
 30
0.0
 10
-39.9479041133
 20
35.936252409
 30
0.0
 10
-39.6295752783
 20
35.2841857223
 30
0.0
 10
-39.3640255097
 20
34.7607424943
 30
0.0
 10
-39.1936803081
 20
34.4321268854
 30
0.0
 10
-39.0554476356
 20
34.1685193912
 30
0.0
 10
-38.9508166054
 20
33.9700340859
 30
0.0
 10
-38.8456847481
 20
33.7709735137
 30
0.0
 10
-38.7580829675
 20
33.60456486
 30
0.0
 10
-38.6883450119
 20
33.470846212
 30
0.0
 10
-38.6363329062
 20
33.3700984938
 30
0.0
 10
-38.5848834866
 20
33.2688551123
 30
0.0
 10
-38.5427954453
 20
33.1839559756
 30
0.0
 10
-38.5099247084
 20
33.1155364985
 30
0.0
 10
-38.4858080154
 20
33.0638736249
 30
0.0
 10
-38.4624508333
 20
33.0117805312
 30
0.0
 10
-38.4402313832
 20
32.9590777131
 30
0.0
 10
-38.4232232232
 20
32.9144205863
 30
0.0
 10
-38.4114600285
 20
32.877896448
 30
0.0
 10
-38.4053560758
 20
32.854519276
 30
0.0
 10
-38.4019819829
 20
32.8352776813
 30
0.0
 10
-38.4007882591
 20
32.8202559918
 30
0.0
 10
-38.4018647086
 20
32.8069021297
 30
0.0
 10
-38.4074055002
 20
32.7962908276
 30
0.0
 10
-38.4190662261
 20
32.7904639381
 30
0.0
 10
-38.4340958303
 20
32.7936890573
 30
0.0
 10
-38.4537275767
 20
32.8021493706
 30
0.0
 10
-38.4670343344
 20
32.8106471514
 30
0.0
 10
-38.4755279471
 20
32.81642826
 30
0.0
  0
SPLINE
  5
368
100
AcDbEntity
  8
0
100
AcDbSpline
 62
7
  6
CONTINUOUS
 70
0
 71
3
 72
10
 73
6
 74
0
 42
0.0000001
 43
0.0000001
 44
0.0000000001
 40
0.0
 40
0.0
 40
0.0
 40
0.0
 40
0.3607740586
 40
0.647013984
 40
1.0
 40
1.0
 40
1.0
 40
1.0
 10
-63.4756619168
 20
28.1404356486
 30
0.0
 10
-63.4792550439
 20
28.1242914848
 30
0.0
 10
-63.4601555012
 20
28.0941955861
 30
0.0
 10
-63.4256188088
 20
28.0663450983
 30
0.0
 10
-63.4006295141
 20
28.0502012723
 30
0.0
 10
-63.3866061182
 20
28.0421262237
 30
0.0
  0
SPLINE
  5
369
100
AcDbEntity
  8
0
100
AcDbSpline
 62
7
  6
CONTINUOUS
 70
0
 71
3
 72
11
 73
7
 74
0
 42
0.0000001
 43
0.0000001
 44
0.0000000001
 40
0.0
 40
0.0
 40
0.0
 40
0.0
 40
0.0895165483
 40
0.287089294
 40
0.5970570257
 40
1.0
 40
1.0
 40
1.0
 40
1.0
 10
-55.5435601432
 20
40.9703444388
 30
0.0
 10
-55.5413008208
 20
40.9733029876
 30
0.0
 10
-55.52654686
 20
40.9718943951
 30
0.0
 10
-55.5053002121
 20
40.9633331219
 30
0.0
 10
-55.4701865587
 20
40.9465873032
 30
0.0
 10
-55.4446112174
 20
40.9321840325
 30
0.0
 10
-55.4301051148
 20
40.9237963379
 30
0.0
  0
SPLINE
  5
36A
100
AcDbEntity
  8
0
100
AcDbSpline
 62
7
  6
CONTINUOUS
 70
0
 71
3
 72
11
 73
7
 74
0
 42
0.0000001
 43
0.0000001
 44
0.0000000001
 40
0.0
 40
0.0
 40
0.0
 40
0.0
 40
0.1831931138
 40
0.4106974571
 40
0.6831988779
 40
1.0
 40
1.0
 40
1.0
 40
1.0
 10
-21.0074277373
 20
43.5919119846
 30
0.0
 10
-20.8977717565
 20
43.518229658
 30
0.0
 10
-20.6677658335
 20
43.3298836059
 30
0.0
 10
-20.3173886983
 20
42.9832116221
 30
0.0
 10
-19.9225790002
 20
42.5457139017
 30
0.0
 10
-19.6491413937
 20
42.2203270239
 30
0.0
 10
-19.5039434469
 20
42.0439363556
 30
0.0
  0
SPLINE
  5
36B
100
AcDbEntity
  8
0
100
AcDbSpline
 62
7
  6
CONTINUOUS
 70
0
 71
3
 72
9
 73
5
 74
0
 42
0.0000001
 43
0.0000001
 44
0.0000000001
 40
0.0
 40
0.0
 40
0.0
 40
0.0
 40
0.2275661037
 40
1.0
 40
1.0
 40
1.0
 40
1.0
 10
-19.4656574452
 20
41.9973383792
 30
0.0
 10
-19.3737861557
 20
41.8853158677
 30
0.0
 10
-18.9732305383
 20
41.390461625
 30
0.0
 10
-18.5824177156
 20
40.8878113857
 30
0.0
 10
-18.2826017951
 20
40.4980182664
 30
0.0
  0
SPLINE
  5
36C
100
AcDbEntity
  8
0
100
AcDbSpline
 62
7
  6
CONTINUOUS
 70
0
 71
3
 72
27
 73
23
 74
0
 42
0.0000001
 43
0.0000001
 44
0.0000000001
 40
0.0
 40
0.0
 40
0.0
 40
0.0
 40
0.2386171958
 40
0.3619421918
 40
0.4875912912
 40
0.5511472532
 40
0.6150737292
 40
0.6792325531
 40
0.7434058581
 40
0.7753895816
 40
0.8072116345
 40
0.8387592659
 40
0.8698497692
 40
0.9001495073
 40
0.9289105904
 40
0.9421155084
 40
0.9481427237
 40
0.9534927784
 40
0.9576996158
 40
0.9683363188
 40
0.9855655198
 40
1.0
 40
1.0
 40
1.0
 40
1.0
 10
-17.8177657169
 20
40.0548220814
 30
0.0
 10
-17.7251928946
 20
39.9358311002
 30
0.0
 10
-17.5863494868
 20
39.754110506
 30
0.0
 10
-17.4023007159
 20
39.5070670555
 30
0.0
 10
-17.285702369
 20
39.3477055708
 30
0.0
 10
-17.1922255151
 20
39.217936694
 30
0.0
 10
-17.1220101132
 20
39.119293767
 30
0.0
 10
-17.0522275553
 20
39.0198671003
 30
0.0
 10
-16.9947297912
 20
38.9364776836
 30
0.0
 10
-16.9494095643
 20
38.8695137662
 30
0.0
 10
-16.9160037967
 20
38.8193775393
 30
0.0
 10
-16.8833738264
 20
38.7694075783
 30
0.0
 10
-16.8519042424
 20
38.7198238929
 30
0.0
 10
-16.8223038622
 20
38.6711808406
 30
0.0
 10
-16.7999271683
 20
38.6312887385
 30
0.0
 10
-16.7866325086
 20
38.6041253486
 30
0.0
 10
-16.7811853592
 20
38.5893800009
 30
0.0
 10
-16.7782101277
 20
38.5804528102
 30
0.0
 10
-16.7794448623
 20
38.5648821403
 30
0.0
 10
-16.8071504686
 20
38.5802599683
 30
0.0
 10
-16.8232588438
 20
38.5943549744
 30
0.0
 10
-16.8392145091
 20
38.6082888454
 30
0.0
 10
-16.8459484022
 20
38.6144390922
 30
0.0
  0
SPLINE
  5
36D
100
AcDbEntity
  8
0
100
AcDbSpline
 62
7
  6
CONTINUOUS
 70
0
 71
3
 72
14
 73
10
 74
0
 42
0.0000001
 43
0.0000001
 44
0.0000000001
 40
0.0
 40
0.0
 40
0.0
 40
0.0
 40
0.0285034525
 40
0.0948537971
 40
0.1987511009
 40
0.333842311
 40
0.4902862128
 40
0.6585825653
 40
1.0
 40
1.0
 40
1.0
 40
1.0
 10
-61.3471371949
 20
3.1297105368
 30
0.0
 10
-61.3486738365
 20
3.1262602567
 30
0.0
 10
-61.3382469104
 20
3.1139497149
 30
0.0
 10
-61.3194557872
 20
3.0995906809
 30
0.0
 10
-61.2845971904
 20
3.07637804
 30
0.0
 10
-61.2398269422
 20
3.050200579
 30
0.0
 10
-61.1862920251
 20
3.020707496
 30
0.0
 10
-61.1080760601
 20
2.9799281465
 30
0.0
 10
-61.0474447691
 20
2.9500810815
 30
0.0
 10
-61.006620703
 20
2.9305832312
 30
0.0
  0
SPLINE
  5
36E
100
AcDbEntity
  8
0
100
AcDbSpline
 62
7
  6
CONTINUOUS
 70
0
 71
3
 72
9
 73
5
 74
0
 42
0.0000001
 43
0.0000001
 44
0.0000000001
 40
0.0
 40
0.0
 40
0.0
 40
0.0
 40
0.2407502021
 40
1.0
 40
1.0
 40
1.0
 40
1.0
 10
-41.3771880747
 20
48.5407399533
 30
0.0
 10
-40.2154342768
 20
47.8641559928
 30
0.0
 10
-35.4526359589
 20
44.9464937331
 30
0.0
 10
-30.9421253101
 20
41.6247074557
 30
0.0
 10
-27.6614936316
 20
38.9388708894
 30
0.0
  0
SPLINE
  5
36F
100
AcDbEntity
  8
0
100
AcDbSpline
 62
7
  6
CONTINUOUS
 70
0
 71
3
 72
10
 73
6
 74
0
 42
0.0000001
 43
0.0000001
 44
0.0000000001
 40
0.0
 40
0.0
 40
0.0
 40
0.0
 40
0.5000057579
 40
0.7486662768
 40
1.0
 40
1.0
 40
1.0
 40
1.0
 10
-31.361754702
 20
49.9685608848
 30
0.0
 10
-31.193261897
 20
49.9471424415
 30
0.0
 10
-30.9419285617
 20
49.8463078299
 30
0.0
 10
-30.7055181963
 20
49.5972413684
 30
0.0
 10
-30.628715848
 20
49.442106751
 30
0.0
 10
-30.60288878
 20
49.3607304901
 30
0.0
  0
SPLINE
  5
370
100
AcDbEntity
  8
0
100
AcDbSpline
 62
7
  6
CONTINUOUS
 70
0
 71
3
 72
11
 73
7
 74
0
 42
0.0000001
 43
0.0000001
 44
0.0000000001
 40
0.0
 40
0.0
 40
0.0
 40
0.0
 40
0.2116060128
 40
0.455035197
 40
0.724748489
 40
1.0
 40
1.0
 40
1.0
 40
1.0
 10
-62.6679081906
 20
29.0870674358
 30
0.0
 10
-62.641147378
 20
29.0942623541
 30
0.0
 10
-62.577959704
 20
29.0899153575
 30
0.0
 10
-62.4953058612
 20
29.0393544426
 30
0.0
 10
-62.4242434303
 20
28.9634833573
 30
0.0
 10
-62.3854131067
 20
28.9031994799
 30
0.0
 10
-62.368049118
 20
28.8716114862
 30
0.0
  0
SPLINE
  5
371
100
AcDbEntity
  8
0
100
AcDbSpline
 62
7
  6
CONTINUOUS
 70
0
 71
3
 72
40
 73
36
 74
0
 42
0.0000001
 43
0.0000001
 44
0.0000000001
 40
0.0
 40
0.0
 40
0.0
 40
0.0
 40
0.0905024422
 40
0.1919162874
 40
0.2465887344
 40
0.3036999943
 40
0.3633200321
 40
0.4254715104
 40
0.4899932791
 40
0.5567729183
 40
0.6257511424
 40
0.6968541256
 40
0.7699681177
 40
0.8072259555
 40
0.844906921
 40
0.8638898656
 40
0.8829548174
 40
0.9020869328
 40
0.9212633917
 40
0.9308571742
 40
0.940445336
 40
0.9500168369
 40
0.959554226
 40
0.9690267523
 40
0.9737215019
 40
0.9783708374
 40
0.9829484005
 40
0.9851967574
 40
0.9874074175
 40
0.9896092702
 40
0.991025556
 40
0.9931266972
 40
0.9949972378
 40
0.9967225714
 40
1.0
 40
1.0
 40
1.0
 40
1.0
 10
-30.4559189013
 20
46.4584776281
 30
0.0
 10
-30.4038623328
 20
46.2172316768
 30
0.0
 10
-30.2829418787
 20
45.7078718675
 30
0.0
 10
-30.0999180969
 20
45.0605816533
 30
0.0
 10
-29.9242448744
 20
44.5063525789
 30
0.0
 10
-29.7775849747
 20
44.0625234919
 30
0.0
 10
-29.6150710783
 20
43.6025324079
 30
0.0
 10
-29.4347516523
 20
43.1275544754
 30
0.0
 10
-29.2390946395
 20
42.6376146984
 30
0.0
 10
-29.0286656064
 20
42.1335971263
 30
0.0
 10
-28.8032168092
 20
41.6164770201
 30
0.0
 10
-28.5629736905
 20
41.0870359911
 30
0.0
 10
-28.3526264505
 20
40.6390745324
 30
0.0
 10
-28.1785341368
 20
40.2748000108
 30
0.0
 10
-28.0674323778
 20
40.044028646
 30
0.0
 10
-27.9778520032
 20
39.8579581724
 30
0.0
 10
-27.9103809469
 20
39.7173825759
 30
0.0
 10
-27.8430867762
 20
39.5761373212
 30
0.0
 10
-27.7875464783
 20
39.4579021272
 30
0.0
 10
-27.7437976478
 20
39.3628868892
 30
0.0
 10
-27.7115120888
 20
39.2914312841
 30
0.0
 10
-27.6800034447
 20
39.2197958292
 30
0.0
 10
-27.6496820423
 20
39.1479925743
 30
0.0
 10
-27.6259043327
 20
39.0878657476
 30
0.0
 10
-27.6085733945
 20
39.0395679905
 30
0.0
 10
-27.5969114875
 20
39.0034134324
 30
0.0
 10
-27.5888967918
 20
38.9731876432
 30
0.0
 10
-27.5845125841
 20
38.9487970748
 30
0.0
 10
-27.583361131
 20
38.9309525283
 30
0.0
 10
-27.5847687304
 20
38.9139330652
 30
0.0
 10
-27.5986597949
 20
38.9035317576
 30
0.0
 10
-27.6141602185
 20
38.9080178523
 30
0.0
 10
-27.6277731987
 20
38.9148854281
 30
0.0
 10
-27.6435464412
 20
38.9252068883
 30
0.0
 10
-27.6545808946
 20
38.9332058436
 30
0.0
 10
-27.6614936316
 20
38.9388708894
 30
0.0
  0
SPLINE
  5
372
100
AcDbEntity
  8
0
100
AcDbSpline
 62
7
  6
CONTINUOUS
 70
0
 71
3
 72
9
 73
5
 74
0
 42
0.0000001
 43
0.0000001
 44
0.0000000001
 40
0.0
 40
0.0
 40
0.0
 40
0.0
 40
0.262001453
 40
1.0
 40
1.0
 40
1.0
 40
1.0
 10
-30.6433279473
 20
48.5253579089
 30
0.0
 10
-30.6396196591
 20
48.5754662872
 30
0.0
 10
-30.6225044507
 20
48.7664693825
 30
0.0
 10
-30.593087042
 20
48.9565112274
 30
0.0
 10
-30.5626828
 20
49.0947367473
 30
0.0
  0
SPLINE
  5
373
100
AcDbEntity
  8
0
100
AcDbSpline
 62
7
  6
CONTINUOUS
 70
0
 71
3
 72
9
 73
5
 74
0
 42
0.0000001
 43
0.0000001
 44
0.0000000001
 40
0.0
 40
0.0
 40
0.0
 40
0.0
 40
0.2810143836
 40
1.0
 40
1.0
 40
1.0
 40
1.0
 10
-30.6412932448
 20
48.120996805
 30
0.0
 10
-30.6375558049
 20
48.1488561092
 30
0.0
 10
-30.6215259437
 20
48.2474789498
 30
0.0
 10
-30.5938460829
 20
48.3451347464
 30
0.0
 10
-30.5627144586
 20
48.409965018
 30
0.0
  0
SPLINE
  5
374
100
AcDbEntity
  8
0
100
AcDbSpline
 62
7
  6
CONTINUOUS
 70
0
 71
3
 72
20
 73
16
 74
0
 42
0.0000001
 43
0.0000001
 44
0.0000000001
 40
0.0
 40
0.0
 40
0.0
 40
0.0
 40
0.2628590368
 40
0.3936068895
 40
0.5235972343
 40
0.6523895493
 40
0.7790749508
 40
0.8409962623
 40
0.9011123424
 40
0.9299804918
 40
0.9573586479
 40
0.9700829484
 40
0.981646136
 40
0.9911793632
 40
1.0
 40
1.0
 40
1.0
 40
1.0
 10
-40.4972175131
 20
48.8641356692
 30
0.0
 10
-40.5774557092
 20
48.8417318685
 30
0.0
 10
-40.6972944256
 20
48.8070482066
 30
0.0
 10
-40.8558899987
 20
48.7582084871
 30
0.0
 10
-40.9733943966
 20
48.7203336302
 30
0.0
 10
-41.0890539291
 20
48.6809815931
 30
0.0
 10
-41.183582658
 20
48.6465424595
 30
0.0
 10
-41.2568644444
 20
48.6174717811
 30
0.0
 10
-41.3007994416
 20
48.5985746408
 30
0.0
 10
-41.3340588874
 20
48.5825548557
 30
0.0
 10
-41.3532121993
 20
48.5721403807
 30
0.0
 10
-41.3671383716
 20
48.5632351585
 30
0.0
 10
-41.3751174311
 20
48.5565465613
 30
0.0
 10
-41.3826171215
 20
48.5492259181
 30
0.0
 10
-41.3796512473
 20
48.5420619243
 30
0.0
 10
-41.3771880747
 20
48.5407399533
 30
0.0
  0
SPLINE
  5
375
100
AcDbEntity
  8
0
100
AcDbSpline
 62
7
  6
CONTINUOUS
 70
0
 71
3
 72
9
 73
5
 74
0
 42
0.0000001
 43
0.0000001
 44
0.0000000001
 40
0.0
 40
0.0
 40
0.0
 40
0.0
 40
0.5087148015
 40
1.0
 40
1.0
 40
1.0
 40
1.0
 10
-40.0338778936
 20
48.931374374
 30
0.0
 10
-38.6142241797
 20
49.3121578009
 30
0.0
 10
-35.7693909946
 20
49.8747063862
 30
0.0
 10
-32.8707673939
 20
50.0152296967
 30
0.0
 10
-31.4519736529
 20
49.9712657156
 30
0.0
  0
SPLINE
  5
376
100
AcDbEntity
  8
0
100
AcDbSpline
 62
7
  6
CONTINUOUS
 70
0
 71
3
 72
21
 73
17
 74
0
 42
0.0000001
 43
0.0000001
 44
0.0000000001
 40
0.0
 40
0.0
 40
0.0
 40
0.0
 40
0.1268807078
 40
0.2538183525
 40
0.3807703604
 40
0.5076663736
 40
0.6343792918
 40
0.6975950664
 40
0.760643317
 40
0.8234158534
 40
0.8856846722
 40
0.9164683812
 40
0.9467886441
 40
0.9760540289
 40
0.9895692198
 40
1.0
 40
1.0
 40
1.0
 40
1.0
 10
-51.6059119301
 20
43.3908775683
 30
0.0
 10
-51.6674365061
 20
43.33589033
 30
0.0
 10
-51.7898918314
 20
43.2251933708
 30
0.0
 10
-51.9716251154
 20
43.0569763082
 30
0.0
 10
-52.1512463944
 20
42.8864893594
 30
0.0
 10
-52.3284017424
 20
42.7136488923
 30
0.0
 10
-52.4735949115
 20
42.5674369723
 30
0.0
 10
-52.587732349
 20
42.4489390661
 30
0.0
 10
-52.6719281725
 20
42.3593614373
 30
0.0
 10
-52.7542786987
 20
42.2688662588
 30
0.0
 10
-52.8208223324
 20
42.1925304933
 30
0.0
 10
-52.871669424
 20
42.1302157919
 30
0.0
 10
-52.9074131981
 20
42.0842498691
 30
0.0
 10
-52.9342394563
 20
42.0428530634
 30
0.0
 10
-52.9499526075
 20
42.015555945
 30
0.0
 10
-52.9527275575
 20
41.9939226965
 30
0.0
 10
-52.9466850525
 20
41.9908396699
 30
0.0
  0
SPLINE
  5
377
100
AcDbEntity
  8
0
100
AcDbSpline
 62
7
  6
CONTINUOUS
 70
0
 71
3
 72
9
 73
5
 74
0
 42
0.0000001
 43
0.0000001
 44
0.0000000001
 40
0.0
 40
0.0
 40
0.0
 40
0.0
 40
0.4342546086
 40
1.0
 40
1.0
 40
1.0
 40
1.0
 10
-43.8481270774
 20
48.9693090378
 30
0.0
 10
-43.8297230909
 20
48.9797250494
 30
0.0
 10
-43.7770234198
 20
48.9842595006
 30
0.0
 10
-43.732021013
 20
48.9631711303
 30
0.0
 10
-43.7081936565
 20
48.949340716
 30
0.0
  0
SPLINE
  5
378
100
AcDbEntity
  8
0
100
AcDbSpline
 62
7
  6
CONTINUOUS
 70
0
 71
3
 72
14
 73
10
 74
0
 42
0.0000001
 43
0.0000001
 44
0.0000000001
 40
0.0
 40
0.0
 40
0.0
 40
0.0
 40
0.0831472963
 40
0.1783758718
 40
0.2859109072
 40
0.4056798191
 40
0.5374295443
 40
0.6807702989
 40
1.0
 40
1.0
 40
1.0
 40
1.0
 10
-31.3617654132
 20
49.9683180938
 30
0.0
 10
-31.4159339993
 20
49.7317773401
 30
0.0
 10
-31.4816619907
 20
49.2125425874
 30
0.0
 10
-31.4710828704
 20
48.3764466751
 30
0.0
 10
-31.3574805068
 20
47.4404422631
 30
0.0
 10
-31.1389519497
 20
46.4144275918
 30
0.0
 10
-30.8136961613
 20
45.3078668509
 30
0.0
 10
-30.2167859835
 20
43.6783301227
 30
0.0
 10
-29.6416864327
 20
42.4534943351
 30
0.0
 10
-29.2122356787
 20
41.6267090875
 30
0.0
  0
SPLINE
  5
379
100
AcDbEntity
  8
0
100
AcDbSpline
 62
7
  6
CONTINUOUS
 70
0
 71
3
 72
9
 73
5
 74
0
 42
0.0000001
 43
0.0000001
 44
0.0000000001
 40
0.0
 40
0.0
 40
0.0
 40
0.0
 40
0.2400903004
 40
1.0
 40
1.0
 40
1.0
 40
1.0
 10
-29.2122356787
 20
41.6267090875
 30
0.0
 10
-29.0975255068
 20
41.4063215806
 30
0.0
 10
-28.6091429758
 20
40.4939216528
 30
0.0
 10
-28.0805689022
 20
39.6032195302
 30
0.0
 10
-27.6606793228
 20
38.9383242865
 30
0.0
  0
SPLINE
  5
37A
100
AcDbEntity
  8
0
100
AcDbSpline
 62
7
  6
CONTINUOUS
 70
0
 71
3
 72
20
 73
16
 74
0
 42
0.0000001
 43
0.0000001
 44
0.0000000001
 40
0.0
 40
0.0
 40
0.0
 40
0.0
 40
0.2484734779
 40
0.3727896439
 40
0.4972423698
 40
0.6219501838
 40
0.6844638111
 40
0.7471421015
 40
0.8100621958
 40
0.8733622277
 40
0.9052351143
 40
0.9373320188
 40
0.9697107687
 40
0.9858646844
 40
1.0
 40
1.0
 40
1.0
 40
1.0
 10
-64.6317452434
 20
18.3115608182
 30
0.0
 10
-64.6321485497
 20
18.1686820717
 30
0.0
 10
-64.6306388372
 20
17.9543018477
 30
0.0
 10
-64.6238384266
 20
17.6684491479
 30
0.0
 10
-64.6160651909
 20
17.4538240247
 30
0.0
 10
-64.6070055037
 20
17.2748229755
 30
0.0
 10
-64.5977631168
 20
17.1314185658
 30
0.0
 10
-64.5896088964
 20
17.0235546896
 30
0.0
 10
-64.5798845826
 20
16.9153608344
 30
0.0
 10
-64.5699691719
 20
16.8249972407
 30
0.0
 10
-64.5601353511
 20
16.7524430652
 30
0.0
 10
-64.5512612362
 20
16.6978358364
 30
0.0
 10
-64.5417396728
 20
16.65214623
 30
0.0
 10
-64.5312954291
 20
16.6181279821
 30
0.0
 10
-64.5230787856
 20
16.601567337
 30
0.0
 10
-64.5165925248
 20
16.5966687438
 30
0.0
  0
SPLINE
  5
37B
100
AcDbEntity
  8
0
100
AcDbSpline
 62
7
  6
CONTINUOUS
 70
0
 71
3
 72
10
 73
6
 74
0
 42
0.0000001
 43
0.0000001
 44
0.0000000001
 40
0.0
 40
0.0
 40
0.0
 40
0.0
 40
0.4066256368
 40
0.6982321308
 40
1.0
 40
1.0
 40
1.0
 40
1.0
 10
-52.19399066
 20
-3.5034627399
 30
0.0
 10
-52.193923416
 20
-3.5584507325
 30
0.0
 10
-52.0959885217
 20
-3.6295039788
 30
0.0
 10
-51.9733159781
 20
-3.6688378193
 30
0.0
 10
-51.8930244877
 20
-3.6845850726
 30
0.0
 10
-51.852564975
 20
-3.6899076172
 30
0.0
  0
SPLINE
  5
37C
100
AcDbEntity
  8
0
100
AcDbSpline
 62
7
  6
CONTINUOUS
 70
0
 71
3
 72
10
 73
6
 74
0
 42
0.0000001
 43
0.0000001
 44
0.0000000001
 40
0.0
 40
0.0
 40
0.0
 40
0.0
 40
0.4945328529
 40
0.7461633184
 40
1.0
 40
1.0
 40
1.0
 40
1.0
 10
-55.430114777
 20
40.9237780778
 30
0.0
 10
-55.1412774349
 20
38.1227675279
 30
0.0
 10
-54.0434589321
 20
33.9408541595
 30
0.0
 10
-51.5488808834
 20
28.8141631353
 30
0.0
 10
-49.9783834783
 20
26.3916810079
 30
0.0
 10
-49.1262384465
 20
25.2242632082
 30
0.0
  0
SPLINE
  5
37D
100
AcDbEntity
  8
0
100
AcDbSpline
 62
7
  6
CONTINUOUS
 70
0
 71
3
 72
41
 73
37
 74
0
 42
0.0000001
 43
0.0000001
 44
0.0000000001
 40
0.0
 40
0.0
 40
0.0
 40
0.0
 40
0.1187237123
 40
0.239641677
 40
0.3624618444
 40
0.4245146306
 40
0.4869556084
 40
0.5497630876
 40
0.612918367
 40
0.6764063168
 40
0.7402167578
 40
0.7722432147
 40
0.8043519563
 40
0.8365465725
 40
0.8688339544
 40
0.9012276598
 40
0.9174725026
 40
0.9337576773
 40
0.9419189264
 40
0.9500957024
 40
0.9582918005
 40
0.9665134543
 40
0.9706371322
 40
0.9747722967
 40
0.9789227113
 40
0.9830949344
 40
0.9873023924
 40
0.9894289554
 40
0.9915835674
 40
0.9937975612
 40
0.9949656485
 40
0.9955941288
 40
0.9961852101
 40
0.9980892999
 40
0.9990413197
 40
1.0
 40
1.0
 40
1.0
 40
1.0
 10
-53.1968593959
 20
36.1366104335
 30
0.0
 10
-53.0602311983
 20
35.5175281055
 30
0.0
 10
-52.7467268799
 20
34.275892636
 30
0.0
 10
-52.1589212356
 20
32.4305959075
 30
0.0
 10
-51.5691615109
 20
30.9067297502
 30
0.0
 10
-51.0376596021
 20
29.6975877819
 30
0.0
 10
-50.6080975326
 20
28.7941808867
 30
0.0
 10
-50.1496960592
 20
27.8984589139
 30
0.0
 10
-49.6631986019
 20
27.0113016026
 30
0.0
 10
-49.1495000434
 20
26.1334136073
 30
0.0
 10
-48.7001226566
 20
25.4108626292
 30
0.0
 10
-48.328315737
 20
24.8376490843
 30
0.0
 10
-48.0431846969
 20
24.4094928997
 30
0.0
 10
-47.7524467186
 20
23.9834396827
 30
0.0
 10
-47.4565451158
 20
23.5591025278
 30
0.0
 10
-47.2064495505
 20
23.2066812489
 30
0.0
 10
-47.0048721076
 20
22.9246167711
 30
0.0
 10
-46.8784582888
 20
22.7478842519
 30
0.0
 10
-46.7773861211
 20
22.6059957142
 30
0.0
 10
-46.7016505169
 20
22.4990933143
 30
0.0
 10
-46.626198265
 20
22.3915961608
 30
0.0
 10
-46.5638262663
 20
22.3013623331
 30
0.0
 10
-46.51445827
 20
22.2285074039
 30
0.0
 10
-46.477749616
 20
22.1733381696
 30
0.0
 10
-46.4415450453
 20
22.1175260231
 30
0.0
 10
-46.4061023247
 20
22.0607692431
 30
0.0
 10
-46.3776798745
 20
22.0123838712
 30
0.0
 10
-46.3562697091
 20
21.9724127599
 30
0.0
 10
-46.3412531935
 20
21.9411538003
 30
0.0
 10
-46.3304603627
 20
21.9135000405
 30
0.0
 10
-46.3262172368
 20
21.8924071668
 30
0.0
 10
-46.3272366277
 20
21.8793560423
 30
0.0
 10
-46.3388543413
 20
21.8652870229
 30
0.0
 10
-46.360602497
 20
21.8731205836
 30
0.0
 10
-46.3790421096
 20
21.8798014643
 30
0.0
 10
-46.38753209
 20
21.8858619652
 30
0.0
 10
-46.3920393454
 20
21.8882893086
 30
0.0
  0
SPLINE
  5
37E
100
AcDbEntity
  8
0
100
AcDbSpline
 62
7
  6
CONTINUOUS
 70
0
 71
3
 72
10
 73
6
 74
0
 42
0.0000001
 43
0.0000001
 44
0.0000000001
 40
0.0
 40
0.0
 40
0.0
 40
0.0
 40
0.2680499693
 40
0.5319523483
 40
1.0
 40
1.0
 40
1.0
 40
1.0
 10
-55.4302217135
 20
40.924531805
 30
0.0
 10
-55.3449066365
 20
41.0053736931
 30
0.0
 10
-55.1530327581
 20
41.1438786511
 30
0.0
 10
-54.7518139467
 20
41.3178747928
 30
0.0
 10
-54.3967090308
 20
41.3277122026
 30
0.0
 10
-54.2105960375
 20
41.2412239961
 30
0.0
  0
SPLINE
  5
37F
100
AcDbEntity
  8
0
100
AcDbSpline
 62
7
  6
CONTINUOUS
 70
0
 71
3
 72
9
 73
5
 74
0
 42
0.0000001
 43
0.0000001
 44
0.0000000001
 40
0.0
 40
0.0
 40
0.0
 40
0.0
 40
0.2516468054
 40
1.0
 40
1.0
 40
1.0
 40
1.0
 10
-53.1969139145
 20
36.1365509263
 30
0.0
 10
-53.3211593124
 20
36.5554211097
 30
0.0
 10
-53.7776155674
 20
38.2306690012
 30
0.0
 10
-54.0809932665
 20
39.9484018345
 30
0.0
 10
-54.2105947446
 20
41.241211098
 30
0.0
  0
SPLINE
  5
380
100
AcDbEntity
  8
0
100
AcDbSpline
 62
7
  6
CONTINUOUS
 70
0
 71
3
 72
9
 73
5
 74
0
 42
0.0000001
 43
0.0000001
 44
0.0000000001
 40
0.0
 40
0.0
 40
0.0
 40
0.0
 40
0.2473762172
 40
1.0
 40
1.0
 40
1.0
 40
1.0
 10
-55.4168273334
 20
-0.6210840292
 30
0.0
 10
-55.8915079081
 20
-0.3508319052
 30
0.0
 10
-57.7977299071
 20
0.7636073645
 30
0.0
 10
-59.6509143897
 20
1.9694591972
 30
0.0
 10
-61.006610421
 20
2.9306014481
 30
0.0
  0
SPLINE
  5
381
100
AcDbEntity
  8
0
100
AcDbSpline
 62
7
  6
CONTINUOUS
 70
0
 71
3
 72
9
 73
5
 74
0
 42
0.0000001
 43
0.0000001
 44
0.0000000001
 40
0.0
 40
0.0
 40
0.0
 40
0.0
 40
0.2416688664
 40
1.0
 40
1.0
 40
1.0
 40
1.0
 10
-61.0799261647
 20
1.9185253468
 30
0.0
 10
-61.0872087536
 20
1.9270101304
 30
0.0
 10
-61.1157173123
 20
1.9635132578
 30
0.0
 10
-61.1374157982
 20
2.005087419
 30
0.0
 10
-61.1503657266
 20
2.0376967518
 30
0.0
  0
SPLINE
  5
382
100
AcDbEntity
  8
0
100
AcDbSpline
 62
7
  6
CONTINUOUS
 70
0
 71
3
 72
10
 73
6
 74
0
 42
0.0000001
 43
0.0000001
 44
0.0000000001
 40
0.0
 40
0.0
 40
0.0
 40
0.0
 40
0.4363535425
 40
0.7066552076
 40
1.0
 40
1.0
 40
1.0
 40
1.0
 10
-61.1503657266
 20
2.0376967518
 30
0.0
 10
-61.2000981113
 20
2.1629283124
 30
0.0
 10
-61.2034229662
 20
2.3944535618
 30
0.0
 10
-61.1237420359
 20
2.6919378182
 30
0.0
 10
-61.0512900929
 20
2.851800765
 30
0.0
 10
-61.006596893
 20
2.9305918571
 30
0.0
  0
SPLINE
  5
383
100
AcDbEntity
  8
0
100
AcDbSpline
 62
7
  6
CONTINUOUS
 70
0
 71
3
 72
9
 73
5
 74
0
 42
0.0000001
 43
0.0000001
 44
0.0000000001
 40
0.0
 40
0.0
 40
0.0
 40
0.0
 40
0.5096657363
 40
1.0
 40
1.0
 40
1.0
 40
1.0
 10
-55.4167707371
 20
-0.6211348317
 30
0.0
 10
-53.4147973675
 20
-2.006085887
 30
0.0
 10
-49.3049112769
 20
-4.4676783857
 30
0.0
 10
-44.9463288841
 20
-6.4435216146
 30
0.0
 10
-42.7686537525
 20
-7.3053228832
 30
0.0
  0
SPLINE
  5
384
100
AcDbEntity
  8
0
100
AcDbSpline
 62
7
  6
CONTINUOUS
 70
0
 71
3
 72
10
 73
6
 74
0
 42
0.0000001
 43
0.0000001
 44
0.0000000001
 40
0.0
 40
0.0
 40
0.0
 40
0.0
 40
0.5059134696
 40
0.7547046743
 40
1.0
 40
1.0
 40
1.0
 40
1.0
 10
-63.3866074416
 20
28.0421069273
 30
0.0
 10
-62.2681274637
 20
24.9854779199
 30
0.0
 10
-60.0054239169
 20
20.6184249573
 30
0.0
 10
-56.1066689992
 20
15.4918532623
 30
0.0
 10
-53.9160550772
 20
13.1779128483
 30
0.0
 10
-52.7746249673
 20
12.0881288125
 30
0.0
  0
SPLINE
  5
385
100
AcDbEntity
  8
0
100
AcDbSpline
 62
7
  6
CONTINUOUS
 70
0
 71
3
 72
9
 73
5
 74
0
 42
0.0000001
 43
0.0000001
 44
0.0000000001
 40
0.0
 40
0.0
 40
0.0
 40
0.0
 40
0.2451593935
 40
1.0
 40
1.0
 40
1.0
 40
1.0
 10
-64.5435404998
 20
18.3061340295
 30
0.0
 10
-64.5393281892
 20
19.1082637384
 30
0.0
 10
-64.426345639
 20
22.3792227108
 30
0.0
 10
-63.9387633705
 20
25.6348449905
 30
0.0
 10
-63.3866074416
 20
28.0421069273
 30
0.0
  0
SPLINE
  5
386
100
AcDbEntity
  8
0
100
AcDbSpline
 62
7
  6
CONTINUOUS
 70
0
 71
3
 72
9
 73
5
 74
0
 42
0.0000001
 43
0.0000001
 44
0.0000000001
 40
0.0
 40
0.0
 40
0.0
 40
0.0
 40
0.5127500094
 40
1.0
 40
1.0
 40
1.0
 40
1.0
 10
-55.7490985561
 20
-1.4592604884
 30
0.0
 10
-53.6372109333
 20
-2.6666708625
 30
0.0
 10
-49.4009528501
 20
-4.8202416151
 30
0.0
 10
-45.0010425465
 20
-6.6086195268
 30
0.0
 10
-42.8282916165
 20
-7.3979747375
 30
0.0
  0
SPLINE
  5
387
100
AcDbEntity
  8
0
100
AcDbSpline
 62
7
  6
CONTINUOUS
 70
0
 71
3
 72
25
 73
21
 74
0
 42
0.0000001
 43
0.0000001
 44
0.0000000001
 40
0.0
 40
0.0
 40
0.0
 40
0.0
 40
0.1254338866
 40
0.2511314226
 40
0.3768909364
 40
0.4397493442
 40
0.5025683863
 40
0.5653366893
 40
0.6280456403
 40
0.6906901825
 40
0.7532715878
 40
0.7845435363
 40
0.8158078156
 40
0.8470714148
 40
0.8783460548
 40
0.9096529344
 40
0.9410361472
 40
0.9567870643
 40
0.9726187675
 40
1.0
 40
1.0
 40
1.0
 40
1.0
 10
-59.6105514428
 20
22.8221267272
 30
0.0
 10
-59.3027916316
 20
22.1672772444
 30
0.0
 10
-58.6504082373
 20
20.8728742528
 30
0.0
 10
-57.566640034
 20
18.9870034323
 30
0.0
 10
-56.5779511402
 20
17.4659848106
 30
0.0
 10
-55.7388971947
 20
16.2827352645
 30
0.0
 10
-55.0866192054
 20
15.412968495
 30
0.0
 10
-54.4122960532
 20
14.5612956848
 30
0.0
 10
-53.7168961003
 20
13.7280580929
 30
0.0
 10
-53.0014152732
 20
12.9134380864
 30
0.0
 10
-52.389139086
 20
12.2499364924
 30
0.0
 10
-51.8904198193
 20
11.7281712824
 30
0.0
 10
-51.5122184142
 20
11.3413020384
 30
0.0
 10
-51.1296522476
 20
10.9582387583
 30
0.0
 10
-50.7440965367
 20
10.5796882251
 30
0.0
 10
-50.3514211371
 20
10.2005062656
 30
0.0
 10
-50.0325720847
 20
9.8965176204
 30
0.0
 10
-49.7524753627
 20
9.6284555581
 30
0.0
 10
-49.5743801563
 20
9.4579938568
 30
0.0
 10
-49.1299877786
 20
9.0176228986
 30
0.0
 10
-49.2775326423
 20
9.0739979624
 30
0.0
  0
SPLINE
  5
388
100
AcDbEntity
  8
0
100
AcDbSpline
 62
7
  6
CONTINUOUS
 70
0
 71
3
 72
11
 73
7
 74
0
 42
0.0000001
 43
0.0000001
 44
0.0000000001
 40
0.0
 40
0.0
 40
0.0
 40
0.0
 40
0.2431469183
 40
0.5008520459
 40
0.7588724578
 40
1.0
 40
1.0
 40
1.0
 40
1.0
 10
-63.3869359372
 20
28.0429519116
 30
0.0
 10
-63.3420793721
 20
28.1433585739
 30
0.0
 10
-63.2192042813
 20
28.3366827567
 30
0.0
 10
-62.9791027245
 20
28.5851234587
 30
0.0
 10
-62.6912733357
 20
28.7750349941
 30
0.0
 10
-62.4755243438
 20
28.8532709463
 30
0.0
 10
-62.3680183231
 20
28.8716017961
 30
0.0
  0
SPLINE
  5
389
100
AcDbEntity
  8
0
100
AcDbSpline
 62
7
  6
CONTINUOUS
 70
0
 71
3
 72
9
 73
5
 74
0
 42
0.0000001
 43
0.0000001
 44
0.0000000001
 40
0.0
 40
0.0
 40
0.0
 40
0.0
 40
0.2489144729
 40
1.0
 40
1.0
 40
1.0
 40
1.0
 10
-59.8500930897
 20
23.3419912069
 30
0.0
 10
-60.0947982289
 20
23.7830868297
 30
0.0
 10
-61.0436038065
 20
25.5739084626
 30
0.0
 10
-61.8514977915
 20
27.439859793
 30
0.0
 10
-62.3680232278
 20
28.8716153927
 30
0.0
  0
SPLINE
  5
38A
100
AcDbEntity
  8
0
100
AcDbSpline
 62
7
  6
CONTINUOUS
 70
0
 71
3
 72
9
 73
5
 74
0
 42
0.0000001
 43
0.0000001
 44
0.0000000001
 40
0.0
 40
0.0
 40
0.0
 40
0.0
 40
0.2479319139
 40
1.0
 40
1.0
 40
1.0
 40
1.0
 10
-60.6627128792
 20
9.8878081483
 30
0.0
 10
-61.0356304367
 20
10.2742541852
 30
0.0
 10
-62.5147988169
 20
11.8567456532
 30
0.0
 10
-63.8906455216
 20
13.5363448289
 30
0.0
 10
-64.8555145342
 20
14.8488837151
 30
0.0
  0
SPLINE
  5
38B
100
AcDbEntity
  8
0
100
AcDbSpline
 62
7
  6
CONTINUOUS
 70
0
 71
3
 72
9
 73
5
 74
0
 42
0.0000001
 43
0.0000001
 44
0.0000000001
 40
0.0
 40
0.0
 40
0.0
 40
0.0
 40
0.2375661133
 40
1.0
 40
1.0
 40
1.0
 40
1.0
 10
-65.4463393343
 20
13.7567309261
 30
0.0
 10
-65.4474904979
 20
13.7746059551
 30
0.0
 10
-65.4491013532
 20
13.8500591824
 30
0.0
 10
-65.4389147619
 20
13.9254473959
 30
0.0
 10
-65.4269153117
 20
13.9816672352
 30
0.0
  0
SPLINE
  5
38C
100
AcDbEntity
  8
0
100
AcDbSpline
 62
7
  6
CONTINUOUS
 70
0
 71
3
 72
10
 73
6
 74
0
 42
0.0000001
 43
0.0000001
 44
0.0000000001
 40
0.0
 40
0.0
 40
0.0
 40
0.0
 40
0.4754030118
 40
0.7377284348
 40
1.0
 40
1.0
 40
1.0
 40
1.0
 10
-65.4269153117
 20
13.9816672352
 30
0.0
 10
-65.392003032
 20
14.1452382974
 30
0.0
 10
-65.2812460399
 20
14.3883486189
 30
0.0
 10
-65.0648733484
 20
14.6662148933
 30
0.0
 10
-64.9290521215
 20
14.7931495746
 30
0.0
 10
-64.8555207445
 20
14.8488921632
 30
0.0
  0
SPLINE
  5
38D
100
AcDbEntity
  8
0
100
AcDbSpline
 62
7
  6
CONTINUOUS
 70
0
 71
3
 72
39
 73
35
 74
0
 42
0.0000001
 43
0.0000001
 44
0.0000000001
 40
0.0
 40
0.0
 40
0.0
 40
0.0
 40
0.1281223143
 40
0.2556153076
 40
0.3822841339
 40
0.4452609501
 40
0.5079712831
 40
0.5704011804
 40
0.6325395505
 40
0.6943790353
 40
0.7559188807
 40
0.7865810531
 40
0.8171767556
 40
0.8477138511
 40
0.8782057559
 40
0.9086770074
 40
0.9391790019
 40
0.9544774149
 40
0.9621523485
 40
0.9698557339
 40
0.973722809
 40
0.9776042355
 40
0.9815050659
 40
0.9854336901
 40
0.9894060663
 40
0.9934609525
 40
0.9955542691
 40
0.996626495
 40
0.9971452797
 40
0.9974529972
 40
0.9976554005
 40
0.9979232233
 40
0.9985590123
 40
1.0
 40
1.0
 40
1.0
 40
1.0
 10
-60.6626504714
 20
9.8873926475
 30
0.0
 10
-60.1558199484
 20
9.2604942087
 30
0.0
 10
-59.1120019674
 20
8.0357681694
 30
0.0
 10
-57.459222413
 20
6.286867588
 30
0.0
 10
-56.016651069
 20
4.9068576861
 30
0.0
 10
-54.8295475072
 20
3.8521559677
 30
0.0
 10
-53.9258991164
 20
3.0874958994
 30
0.0
 10
-53.0085316039
 20
2.3477467616
 30
0.0
 10
-52.0786134307
 20
1.6327961849
 30
0.0
 10
-51.1372640993
 20
0.9424067402
 30
0.0
 10
-50.3431580904
 20
0.386553826
 30
0.0
 10
-49.70317189
 20
-0.0463666645
 30
0.0
 10
-49.2214420178
 20
-0.3650268654
 30
0.0
 10
-48.7374587669
 20
-0.6782839605
 30
0.0
 10
-48.2511951674
 20
-0.9865274563
 30
0.0
 10
-47.7624771532
 20
-1.2904434651
 30
0.0
 10
-47.3531230545
 20
-1.5409224054
 30
0.0
 10
-47.0656567866
 20
-1.7157778977
 30
0.0
 10
-46.9008061257
 20
-1.8161803004
 30
0.0
 10
-46.7974813413
 20
-1.8793272531
 30
0.0
 10
-46.7146588577
 20
-1.9302472478
 30
0.0
 10
-46.652319404
 20
-1.9688039525
 30
0.0
 10
-46.5898070703
 20
-2.0078038872
 30
0.0
 10
-46.5270336017
 20
-2.0475123599
 30
0.0
 10
-46.4639018586
 20
-2.0882828956
 30
0.0
 10
-46.4109585253
 20
-2.1241236037
 30
0.0
 10
-46.3745403304
 20
-2.1505404292
 30
0.0
 10
-46.3565127972
 20
-2.1662316247
 30
0.0
 10
-46.3487225741
 20
-2.1739402021
 30
0.0
 10
-46.3448802272
 20
-2.1814676826
 30
0.0
 10
-46.3503048544
 20
-2.1839328364
 30
0.0
 10
-46.3570686331
 20
-2.1832359417
 30
0.0
 10
-46.371731004
 20
-2.180508477
 30
0.0
 10
-46.3841050433
 20
-2.176379199
 30
0.0
 10
-46.3926854402
 20
-2.173449563
 30
0.0
  0
SPLINE
  5
38E
100
AcDbEntity
  8
0
100
AcDbSpline
 62
7
  6
CONTINUOUS
 70
0
 71
3
 72
9
 73
5
 74
0
 42
0.0000001
 43
0.0000001
 44
0.0000000001
 40
0.0
 40
0.0
 40
0.0
 40
0.0
 40
0.4912611951
 40
1.0
 40
1.0
 40
1.0
 40
1.0
 10
-62.1814056534
 20
5.7664671175
 30
0.0
 10
-62.9070745627
 20
6.9835562352
 30
0.0
 10
-64.1907271313
 20
9.5804507519
 30
0.0
 10
-65.08518329
 20
12.3335194571
 30
0.0
 10
-65.4457512506
 20
13.7559482861
 30
0.0
  0
SPLINE
  5
38F
100
AcDbEntity
  8
0
100
AcDbSpline
 62
7
  6
CONTINUOUS
 70
0
 71
3
 72
9
 73
5
 74
0
 42
0.0000001
 43
0.0000001
 44
0.0000000001
 40
0.0
 40
0.0
 40
0.0
 40
0.0
 40
0.5115545789
 40
1.0
 40
1.0
 40
1.0
 40
1.0
 10
-65.4457512506
 20
13.7559482861
 30
0.0
 10
-63.3761735889
 20
10.97627223
 30
0.0
 10
-58.7415666809
 20
5.9625389504
 30
0.0
 10
-53.2778388022
 20
1.897432468
 30
0.0
 10
-50.4694298013
 20
0.1475661303
 30
0.0
  0
SPLINE
  5
390
100
AcDbEntity
  8
0
100
AcDbSpline
 62
7
  6
CONTINUOUS
 70
0
 71
3
 72
11
 73
7
 74
0
 42
0.0000001
 43
0.0000001
 44
0.0000000001
 40
0.0
 40
0.0
 40
0.0
 40
0.0
 40
0.2735665308
 40
0.5294309844
 40
0.7694544575
 40
1.0
 40
1.0
 40
1.0
 40
1.0
 10
34.5196305606
 20
-15.7716666286
 30
0.0
 10
34.1802234924
 20
-15.9952172382
 30
0.0
 10
33.4753078055
 20
-16.3614678976
 30
0.0
 10
32.3517375203
 20
-16.632391656
 30
0.0
 10
31.2580678255
 20
-16.5862771889
 30
0.0
 10
30.5899128651
 20
-16.3358311264
 30
0.0
 10
30.2933190717
 20
-16.1645443697
 30
0.0
  0
SPLINE
  5
391
100
AcDbEntity
  8
0
100
AcDbSpline
 62
7
  6
CONTINUOUS
 70
0
 71
3
 72
9
 73
5
 74
0
 42
0.0000001
 43
0.0000001
 44
0.0000000001
 40
0.0
 40
0.0
 40
0.0
 40
0.0
 40
0.2468530713
 40
1.0
 40
1.0
 40
1.0
 40
1.0
 10
40.7476730804
 20
-6.2356417586
 30
0.0
 10
40.7579852747
 20
-6.5131514093
 30
0.0
 10
40.7808647641
 20
-7.6379853116
 30
0.0
 10
40.7292878441
 20
-8.7641579741
 30
0.0
 10
40.6514060568
 20
-9.6078351742
 30
0.0
  0
SPLINE
  5
392
100
AcDbEntity
  8
0
100
AcDbSpline
 62
7
  6
CONTINUOUS
 70
0
 71
3
 72
11
 73
7
 74
0
 42
0.0000001
 43
0.0000001
 44
0.0000000001
 40
0.0
 40
0.0
 40
0.0
 40
0.0
 40
0.239794852
 40
0.4840665277
 40
0.736589646
 40
1.0
 40
1.0
 40
1.0
 40
1.0
 10
58.237406488
 20
-5.5753562415
 30
0.0
 10
57.3364231388
 20
-5.0549386184
 30
0.0
 10
55.3979579759
 20
-4.1983318099
 30
0.0
 10
52.2471103533
 20
-3.5449321642
 30
0.0
 10
48.9286691009
 20
-3.5286501927
 30
0.0
 10
46.7127531695
 20
-3.931228595
 30
0.0
 10
45.6087764875
 20
-4.2271600377
 30
0.0
  0
SPLINE
  5
393
100
AcDbEntity
  8
0
100
AcDbSpline
 62
7
  6
CONTINUOUS
 70
0
 71
3
 72
21
 73
17
 74
0
 42
0.0000001
 43
0.0000001
 44
0.0000000001
 40
0.0
 40
0.0
 40
0.0
 40
0.0
 40
0.06024528
 40
0.1230168847
 40
0.1880762371
 40
0.2549931451
 40
0.3918065216
 40
0.5283772112
 40
0.5950084939
 40
0.6596957664
 40
0.7220402168
 40
0.7818359686
 40
0.8391116658
 40
0.8941583626
 40
0.9475299623
 40
1.0
 40
1.0
 40
1.0
 40
1.0
 10
18.5837536491
 20
16.6679310854
 30
0.0
 10
17.2262273192
 20
16.3040332483
 30
0.0
 10
14.5118416863
 20
15.3308891291
 30
0.0
 10
10.6332549858
 20
13.2504236227
 30
0.0
 10
6.948422137
 20
10.5690947106
 30
0.0
 10
2.3815315477
 20
6.2515553243
 30
0.0
 10
-2.3432715326
 20
-0.2271190183
 30
0.0
 10
-5.441764345
 20
-7.6163221392
 30
0.0
 10
-6.7613968263
 20
-13.7397841443
 30
0.0
 10
-7.1357983991
 20
-18.2561002526
 30
0.0
 10
-6.8916349911
 20
-22.6227270565
 30
0.0
 10
-6.0319998015
 20
-26.7366327708
 30
0.0
 10
-4.5735613646
 20
-30.4986891583
 30
0.0
 10
-2.546167266
 20
-33.816291154
 30
0.0
 10
0.0031099926
 20
-36.6029117555
 30
0.0
 10
2.0193270346
 20
-38.0633936681
 30
0.0
 10
3.0792899743
 20
-38.6756158321
 30
0.0
  0
SPLINE
  5
394
100
AcDbEntity
  8
0
100
AcDbSpline
 62
7
  6
CONTINUOUS
 70
0
 71
3
 72
11
 73
7
 74
0
 42
0.0000001
 43
0.0000001
 44
0.0000000001
 40
0.0
 40
0.0
 40
0.0
 40
0.0
 40
0.2717704025
 40
0.5268743026
 40
0.7676369609
 40
1.0
 40
1.0
 40
1.0
 40
1.0
 10
14.4515417561
 20
-42.3578282339
 30
0.0
 10
14.4515417561
 20
-42.6996465445
 30
0.0
 10
14.5180115317
 20
-43.3651378144
 30
0.0
 10
14.8362875881
 20
-44.2870035729
 30
0.0
 10
15.3579252748
 20
-45.0539849219
 30
0.0
 10
15.829948382
 20
-45.4337037814
 30
0.0
 10
16.083039537
 20
-45.5798446982
 30
0.0
  0
SPLINE
  5
395
100
AcDbEntity
  8
0
100
AcDbSpline
 62
7
  6
CONTINUOUS
 70
0
 71
3
 72
20
 73
16
 74
0
 42
0.0000001
 43
0.0000001
 44
0.0000000001
 40
0.0
 40
0.0
 40
0.0
 40
0.0
 40
0.0523759029
 40
0.1055791215
 40
0.1603292505
 40
0.2171577382
 40
0.2763675799
 40
0.3380291566
 40
0.4676991187
 40
0.5351866402
 40
0.603639483
 40
0.740708597
 40
0.808277453
 40
0.8743539699
 40
1.0
 40
1.0
 40
1.0
 40
1.0
 10
59.8628733589
 20
-2.7610497187
 30
0.0
 10
60.7960285107
 20
-3.3000157376
 30
0.0
 10
62.57425723
 20
-4.5761686844
 30
0.0
 10
64.844915437
 20
-6.9951279968
 30
0.0
 10
66.6803185404
 20
-9.867628805
 30
0.0
 10
68.0408702541
 20
-13.1248038578
 30
0.0
 10
68.9004205315
 20
-16.6935473274
 30
0.0
 10
69.3649436486
 20
-21.8419835558
 30
0.0
 10
68.7447469769
 20
-27.200024925
 30
0.0
 10
67.1708479124
 20
-32.4421687892
 30
0.0
 10
64.9442143443
 20
-37.6103050239
 30
0.0
 10
61.8540320182
 20
-42.3711276612
 30
0.0
 10
58.0558253906
 20
-46.4608822046
 30
0.0
 10
53.9814211163
 20
-49.9160569351
 30
0.0
 10
50.4999587269
 20
-51.9007118558
 30
0.0
 10
48.0881036243
 20
-52.8312258647
 30
0.0
  0
SPLINE
  5
396
100
AcDbEntity
  8
0
100
AcDbSpline
 62
7
  6
CONTINUOUS
 70
0
 71
3
 72
11
 73
7
 74
0
 42
0.0000001
 43
0.0000001
 44
0.0000000001
 40
0.0
 40
0.0
 40
0.0
 40
0.0
 40
0.2558578209
 40
0.5067661073
 40
0.7542639722
 40
1.0
 40
1.0
 40
1.0
 40
1.0
 10
13.7362541747
 20
-42.0213588459
 30
0.0
 10
12.9209904179
 20
-42.007211244
 30
0.0
 10
11.3060204474
 20
-41.8846098001
 30
0.0
 10
8.9438928451
 20
-41.4070511667
 30
0.0
 10
6.6922527789
 20
-40.6426360128
 30
0.0
 10
5.2775878688
 20
-39.945303092
 30
0.0
 10
4.5994471702
 20
-39.5536180054
 30
0.0
  0
SPLINE
  5
397
100
AcDbEntity
  8
0
100
AcDbSpline
 62
7
  6
CONTINUOUS
 70
0
 71
3
 72
11
 73
7
 74
0
 42
0.0000001
 43
0.0000001
 44
0.0000000001
 40
0.0
 40
0.0
 40
0.0
 40
0.0
 40
0.2716877338
 40
0.5267640864
 40
0.7675557597
 40
1.0
 40
1.0
 40
1.0
 40
1.0
 10
21.1984737613
 20
-46.2671969608
 30
0.0
 10
20.9030582155
 20
-46.4366888265
 30
0.0
 10
20.2949100566
 20
-46.7092559217
 30
0.0
 10
19.3403254151
 20
-46.8918189704
 30
0.0
 10
18.4183867561
 20
-46.82229899
 30
0.0
 10
17.8555377751
 20
-46.6035582566
 30
0.0
 10
17.6031970936
 20
-46.4578463966
 30
0.0
  0
SPLINE
  5
398
100
AcDbEntity
  8
0
100
AcDbSpline
 62
7
  6
CONTINUOUS
 70
0
 71
3
 72
9
 73
5
 74
0
 42
0.0000001
 43
0.0000001
 44
0.0000000001
 40
0.0
 40
0.0
 40
0.0
 40
0.0
 40
0.5090877226
 40
1.0
 40
1.0
 40
1.0
 40
1.0
 10
36.1741916381
 20
-53.9524517528
 30
0.0
 10
36.2562802674
 20
-54.1174554106
 30
0.0
 10
36.461100668
 20
-54.4225221919
 30
0.0
 10
36.7477969908
 20
-54.6539990772
 30
0.0
 10
36.9016780622
 20
-54.7429003751
 30
0.0
  0
SPLINE
  5
399
100
AcDbEntity
  8
0
100
AcDbSpline
 62
7
  6
CONTINUOUS
 70
0
 71
3
 72
14
 73
10
 74
0
 42
0.0000001
 43
0.0000001
 44
0.0000000001
 40
0.0
 40
0.0
 40
0.0
 40
0.0
 40
0.2647896703
 40
0.4023172675
 40
0.5369571729
 40
0.6649559535
 40
0.7841222721
 40
0.8947385382
 40
1.0
 40
1.0
 40
1.0
 40
1.0
 10
48.0881036243
 20
-55.6428586844
 30
0.0
 10
48.0881036243
 20
-56.1754031768
 30
0.0
 10
47.8771914401
 20
-56.9935483706
 30
0.0
 10
47.3035695419
 20
-57.9133469552
 30
0.0
 10
46.7400057033
 20
-58.497747887
 30
0.0
 10
46.0899604171
 20
-58.9199776902
 30
0.0
 10
45.397447507
 20
-59.1479565434
 30
0.0
 10
44.7120824033
 20
-59.1585528239
 30
0.0
 10
44.2916614534
 20
-59.0111782393
 30
0.0
 10
44.1083530977
 20
-58.9052743287
 30
0.0
  0
SPLINE
  5
39A
100
AcDbEntity
  8
0
100
AcDbSpline
 62
7
  6
CONTINUOUS
 70
0
 71
3
 72
11
 73
7
 74
0
 42
0.0000001
 43
0.0000001
 44
0.0000000001
 40
0.0
 40
0.0
 40
0.0
 40
0.0
 40
0.2600518043
 40
0.5118193308
 40
0.7575122311
 40
1.0
 40
1.0
 40
1.0
 40
1.0
 10
43.1294493506
 20
-54.1604402726
 30
0.0
 10
42.0864369078
 20
-54.3172160855
 30
0.0
 10
40.0068139551
 20
-54.4750451145
 30
0.0
 10
36.9318817915
 20
-54.2122983832
 30
0.0
 10
34.0142830598
 20
-53.4489837732
 30
0.0
 10
32.2063281286
 20
-52.6115542517
 30
0.0
 10
31.354667965
 20
-52.1196885375
 30
0.0
  0
SPLINE
  5
39B
100
AcDbEntity
  8
0
100
AcDbSpline
 62
7
  6
CONTINUOUS
 70
0
 71
3
 72
20
 73
16
 74
0
 42
0.0000001
 43
0.0000001
 44
0.0000000001
 40
0.0
 40
0.0
 40
0.0
 40
0.0
 40
0.0602657217
 40
0.1230597012
 40
0.1881414576
 40
0.255081506
 40
0.3919423924
 40
0.5285603294
 40
0.5952145835
 40
0.6599241786
 40
0.7817602797
 40
0.8390558091
 40
0.8941215591
 40
0.9475115464
 40
1.0
 40
1.0
 40
1.0
 40
1.0
 10
45.6087764875
 20
-4.2271600377
 30
0.0
 10
44.5030575661
 20
-4.5235585026
 30
0.0
 10
42.2921463719
 20
-5.3162064245
 30
0.0
 10
39.1329639984
 20
-7.0107585726
 30
0.0
 10
36.1316076008
 20
-9.1947623174
 30
0.0
 10
32.4117930415
 20
-12.7114265667
 30
0.0
 10
28.5634070705
 20
-17.9886702591
 30
0.0
 10
26.0395243992
 20
-24.0064260951
 30
0.0
 10
24.9649183163
 20
-28.9957999923
 30
0.0
 10
24.5654339057
 20
-33.7971341514
 30
0.0
 10
25.1311852964
 20
-38.4792642105
 30
0.0
 10
26.7467439373
 20
-42.6447388996
 30
0.0
 10
28.398130383
 20
-45.3474498874
 30
0.0
 10
30.4745283308
 20
-47.6170976443
 30
0.0
 10
32.1167942665
 20
-48.8066803324
 30
0.0
 10
32.9801464844
 20
-49.3053618115
 30
0.0
  0
SPLINE
  5
39C
100
AcDbEntity
  8
0
100
AcDbSpline
 62
7
  6
CONTINUOUS
 70
0
 71
3
 72
11
 73
7
 74
0
 42
0.0000001
 43
0.0000001
 44
0.0000000001
 40
0.0
 40
0.0
 40
0.0
 40
0.0
 40
0.2457461887
 40
0.4932560181
 40
0.7441878292
 40
1.0
 40
1.0
 40
1.0
 40
1.0
 10
35.6083699961
 20
14.1347218618
 30
0.0
 10
36.2863893055
 20
13.7431279155
 30
0.0
 10
37.5971061532
 20
12.8664169943
 30
0.0
 10
39.3841592644
 20
11.2983874151
 30
0.0
 10
40.9778361837
 20
9.4914550523
 30
0.0
 10
41.890987319
 20
8.1543537895
 30
0.0
 10
42.3105475391
 20
7.4555859846
 30
0.0
  0
SPLINE
  5
39D
100
AcDbEntity
  8
0
100
AcDbSpline
 62
7
  6
CONTINUOUS
 70
0
 71
3
 72
11
 73
7
 74
0
 42
0.0000001
 43
0.0000001
 44
0.0000000001
 40
0.0
 40
0.0
 40
0.0
 40
0.0
 40
0.2397954013
 40
0.4840670681
 40
0.7365884099
 40
1.0
 40
1.0
 40
1.0
 40
1.0
 10
34.0882119264
 20
15.0127225696
 30
0.0
 10
32.9820262952
 20
15.6516082362
 30
0.0
 10
30.6021571561
 20
16.7033364451
 30
0.0
 10
26.733783064
 20
17.5054974621
 30
0.0
 10
22.6596654058
 20
17.5255135917
 30
0.0
 10
19.9391370445
 20
17.0312544863
 30
0.0
 10
18.5837536491
 20
16.6679310854
 30
0.0
  0
SPLINE
  5
39E
100
AcDbEntity
  8
0
100
AcDbSpline
 62
7
  6
CONTINUOUS
 70
0
 71
3
 72
11
 73
7
 74
0
 42
0.0000001
 43
0.0000001
 44
0.0000000001
 40
0.0
 40
0.0
 40
0.0
 40
0.0
 40
0.2323604228
 40
0.4731154217
 40
0.7282442305
 40
1.0
 40
1.0
 40
1.0
 40
1.0
 10
44.1083530977
 20
-58.9052743287
 30
0.0
 10
43.9565211763
 20
-58.8175555024
 30
0.0
 10
43.6732986388
 20
-58.5897693438
 30
0.0
 10
43.3602806416
 20
-58.1295801626
 30
0.0
 10
43.1693495299
 20
-57.5764495924
 30
0.0
 10
43.1294493506
 20
-57.177152329
 30
0.0
 10
43.1294493506
 20
-56.9720730923
 30
0.0
  0
SPLINE
  5
39F
100
AcDbEntity
  8
0
100
AcDbSpline
 62
7
  6
CONTINUOUS
 70
0
 71
3
 72
11
 73
7
 74
0
 42
0.0000001
 43
0.0000001
 44
0.0000000001
 40
0.0
 40
0.0
 40
0.0
 40
0.0
 40
0.2634112163
 40
0.5159325632
 40
0.7602042056
 40
1.0
 40
1.0
 40
1.0
 40
1.0
 10
45.6087764875
 20
-1.2393225438
 30
0.0
 10
46.8548530428
 20
-0.9052998793
 30
0.0
 10
49.355981815
 20
-0.4509011132
 30
0.0
 10
53.101540839
 20
-0.4692967559
 30
0.0
 10
56.6579479832
 20
-1.2067736655
 30
0.0
 10
58.8459018039
 20
-2.1736735376
 30
0.0
 10
59.8628733589
 20
-2.7610497187
 30
0.0
  0
SPLINE
  5
3A0
100
AcDbEntity
  8
0
100
AcDbSpline
 62
7
  6
CONTINUOUS
 70
0
 71
3
 72
11
 73
7
 74
0
 42
0.0000001
 43
0.0000001
 44
0.0000000001
 40
0.0
 40
0.0
 40
0.0
 40
0.0
 40
0.2624786052
 40
0.5153051421
 40
0.7602715307
 40
1.0
 40
1.0
 40
1.0
 40
1.0
 10
20.1039111854
 20
15.7899294988
 30
0.0
 10
21.2908807977
 20
16.1081079836
 30
0.0
 10
23.6708701576
 20
16.5655440385
 30
0.0
 10
27.2444919461
 20
16.6748244651
 30
0.0
 10
30.6804593287
 20
16.1892763734
 30
0.0
 10
32.8477586593
 20
15.4671813635
 30
0.0
 10
33.8746927802
 20
15.0142951039
 30
0.0
  0
SPLINE
  5
3A1
100
AcDbEntity
  8
0
100
AcDbSpline
 62
7
  6
CONTINUOUS
 70
0
 71
3
 72
21
 73
17
 74
0
 42
0.0000001
 43
0.0000001
 44
0.0000000001
 40
0.0
 40
0.0
 40
0.0
 40
0.0
 40
0.0524701424
 40
0.1058417992
 40
0.1608885381
 40
0.2181642095
 40
0.2779599388
 40
0.3403043521
 40
0.4049915354
 40
0.4716227053
 40
0.6081932092
 40
0.7450061986
 40
0.8119231114
 40
0.8769826545
 40
0.939754707
 40
1.0
 40
1.0
 40
1.0
 40
1.0
 10
31.354667965
 20
-52.1196885375
 30
0.0
 10
30.380162454
 20
-51.556875025
 30
0.0
 10
28.5265623639
 20
-50.2141306061
 30
0.0
 10
26.1828595101
 20
-47.6522509877
 30
0.0
 10
24.3189701771
 20
-44.6021882613
 30
0.0
 10
22.97815897
 20
-41.1435197202
 30
0.0
 10
22.1878623261
 20
-37.3613791895
 30
0.0
 10
21.9633977534
 20
-33.3469025068
 30
0.0
 10
22.3076052311
 20
-29.1948104198
 30
0.0
 10
23.5208086797
 20
-23.5651825554
 30
0.0
 10
26.3694066147
 20
-16.7718916614
 30
0.0
 10
30.7131606272
 20
-10.8156928906
 30
0.0
 10
34.9117466674
 20
-6.8463402324
 30
0.0
 10
38.2994228715
 20
-4.3812327725
 30
0.0
 10
41.8652355367
 20
-2.4685442255
 30
0.0
 10
44.3607276932
 20
-1.5738738838
 30
0.0
 10
45.6087764875
 20
-1.2393225438
 30
0.0
  0
SPLINE
  5
3A2
100
AcDbEntity
  8
0
100
AcDbSpline
 62
7
  6
CONTINUOUS
 70
0
 71
3
 72
20
 73
16
 74
0
 42
0.0000001
 43
0.0000001
 44
0.0000000001
 40
0.0
 40
0.0
 40
0.0
 40
0.0
 40
0.0602657217
 40
0.1230597012
 40
0.1881414576
 40
0.255081506
 40
0.3919423924
 40
0.5285603294
 40
0.5952145835
 40
0.6599241786
 40
0.7817602797
 40
0.8390558091
 40
0.8941215591
 40
0.9475115464
 40
1.0
 40
1.0
 40
1.0
 40
1.0
 10
45.6087764875
 20
-50.6535580153
 30
0.0
 10
46.7144954063
 20
-50.3571595505
 30
0.0
 10
48.9254066004
 20
-49.5645116285
 30
0.0
 10
52.084588974
 20
-47.8699594804
 30
0.0
 10
55.0859453715
 20
-45.6859557357
 30
0.0
 10
58.8057599334
 20
-42.1692914863
 30
0.0
 10
62.6541459019
 20
-36.8920477939
 30
0.0
 10
65.1780285732
 20
-30.874291958
 30
0.0
 10
66.2526346561
 20
-25.8849180607
 30
0.0
 10
66.6521190692
 20
-21.0835839016
 30
0.0
 10
66.0863676785
 20
-16.4014538425
 30
0.0
 10
64.4708090351
 20
-12.2359791534
 30
0.0
 10
62.8194225893
 20
-9.5332681631
 30
0.0
 10
60.7430246441
 20
-7.2636204088
 30
0.0
 10
59.1007587059
 20
-6.0740377206
 30
0.0
 10
58.237406488
 20
-5.5753562415
 30
0.0
  0
SPLINE
  5
3A3
100
AcDbEntity
  8
0
100
AcDbSpline
 62
7
  6
CONTINUOUS
 70
0
 71
3
 72
11
 73
7
 74
0
 42
0.0000001
 43
0.0000001
 44
0.0000000001
 40
0.0
 40
0.0
 40
0.0
 40
0.0
 40
0.2397177452
 40
0.4846460934
 40
0.7374632908
 40
1.0
 40
1.0
 40
1.0
 40
1.0
 10
32.8521060293
 20
12.7394129404
 30
0.0
 10
31.9034743604
 20
13.1643664466
 30
0.0
 10
29.8995269865
 20
13.8432694957
 30
0.0
 10
26.7187165765
 20
14.3038327504
 30
0.0
 10
23.4084072104
 20
14.2088781651
 30
0.0
 10
21.2035030807
 20
13.7863490228
 30
0.0
 10
20.1039111854
 20
13.4915929651
 30
0.0
  0
SPLINE
  5
3A4
100
AcDbEntity
  8
0
100
AcDbSpline
 62
7
  6
CONTINUOUS
 70
0
 71
3
 72
20
 73
16
 74
0
 42
0.0000001
 43
0.0000001
 44
0.0000000001
 40
0.0
 40
0.0
 40
0.0
 40
0.0
 40
0.0599056621
 40
0.1222514994
 40
0.1868226673
 40
0.2532297179
 40
0.3891739244
 40
0.5253900698
 40
0.5921199888
 40
0.6571120659
 40
0.7800628657
 40
0.838018519
 40
0.8936793332
 40
0.9474607398
 40
1.0
 40
1.0
 40
1.0
 40
1.0
 10
20.1039111854
 20
13.4915929651
 30
0.0
 10
18.8957810261
 20
13.167742193
 30
0.0
 10
16.479956955
 20
12.3087785871
 30
0.0
 10
13.019715905
 20
10.4832607166
 30
0.0
 10
9.7215571292
 20
8.1359795336
 30
0.0
 10
5.6103069443
 20
4.3556855067
 30
0.0
 10
1.299406097
 20
-1.3315611655
 30
0.0
 10
-1.6303501009
 20
-7.8444887594
 30
0.0
 10
-2.9929333016
 20
-13.2841267244
 30
0.0
 10
-3.6424661376
 20
-18.5703013793
 30
0.0
 10
-3.2754992769
 20
-23.7744372829
 30
0.0
 10
-1.7907538517
 20
-28.5047183075
 30
0.0
 10
-0.195763346
 20
-31.6353434153
 30
0.0
 10
1.8675963068
 20
-34.3385062487
 30
0.0
 10
3.539813925
 20
-35.823992752
 30
0.0
 10
4.4284149596
 20
-36.4672263296
 30
0.0
  0
SPLINE
  5
3A5
100
AcDbEntity
  8
0
100
AcDbSpline
 62
7
  6
CONTINUOUS
 70
0
 71
3
 72
11
 73
7
 74
0
 42
0.0000001
 43
0.0000001
 44
0.0000000001
 40
0.0
 40
0.0
 40
0.0
 40
0.0
 40
0.239794852
 40
0.4840665277
 40
0.736589646
 40
1.0
 40
1.0
 40
1.0
 40
1.0
 10
32.9801464844
 20
-49.3053618115
 30
0.0
 10
33.8811298361
 20
-49.8257794347
 30
0.0
 10
35.8195949965
 20
-50.6823862432
 30
0.0
 10
38.9704426191
 20
-51.3357858889
 30
0.0
 10
42.2888838715
 20
-51.3520678578
 30
0.0
 10
44.5047998054
 20
-50.949489458
 30
0.0
 10
45.6087764875
 20
-50.6535580153
 30
0.0
  0
SPLINE
  5
3A6
100
AcDbEntity
  8
0
100
AcDbSpline
 62
7
  6
CONTINUOUS
 70
0
 71
3
 72
11
 73
7
 74
0
 42
0.0000001
 43
0.0000001
 44
0.0000000001
 40
0.0
 40
0.0
 40
0.0
 40
0.0
 40
0.232361421
 40
0.4731247889
 40
0.7282312477
 40
1.0
 40
1.0
 40
1.0
 40
1.0
 10
17.6031970936
 20
-46.4578463966
 30
0.0
 10
17.3501095861
 20
-46.3117032904
 30
0.0
 10
16.8780860267
 20
-45.9319888402
 30
0.0
 10
16.3564444157
 20
-45.1650065286
 30
0.0
 10
16.0381700916
 20
-44.2431380879
 30
0.0
 10
15.9716992898
 20
-43.5776460178
 30
0.0
 10
15.9716992898
 20
-43.2358298206
 30
0.0
  0
SPLINE
  5
3A7
100
AcDbEntity
  8
0
100
AcDbSpline
 62
7
  6
CONTINUOUS
 70
0
 71
3
 72
20
 73
16
 74
0
 42
0.0000001
 43
0.0000001
 44
0.0000000001
 40
0.0
 40
0.0
 40
0.0
 40
0.0
 40
0.0523115709
 40
0.1056676359
 40
0.1606001603
 40
0.2174886117
 40
0.2765410153
 40
0.3377953078
 40
0.4011342273
 40
0.4663076529
 40
0.6004594076
 40
0.6686960379
 40
0.7369600665
 40
0.8713236837
 40
1.0
 40
1.0
 40
1.0
 40
1.0
 10
3.0289059705
 20
-38.5335101473
 30
0.0
 10
2.1657574351
 20
-37.9065147718
 30
0.0
 10
0.5319964482
 20
-36.4812547014
 30
0.0
 10
-1.5384368735
 20
-33.9243889185
 30
0.0
 10
-3.2099351053
 20
-30.9831791951
 30
0.0
 10
-4.4530668583
 20
-27.7141475315
 30
0.0
 10
-5.2479659137
 20
-24.1773179656
 30
0.0
 10
-5.5822737236
 20
-20.4369637725
 30
0.0
 10
-5.4513546636
 20
-16.5595464829
 30
0.0
 10
-4.6542930522
 20
-11.2531968213
 30
0.0
 10
-2.9520676683
 20
-6.0173468358
 30
0.0
 10
-0.4620173652
 20
-1.0833328964
 30
0.0
 10
2.5214523041
 20
3.5761123593
 30
0.0
 10
7.0198906098
 20
8.6838719964
 30
0.0
 10
11.3927413433
 20
11.8860734127
 30
0.0
 10
13.6864105812
 20
13.1610695622
 30
0.0
  0
SPLINE
  5
3A8
100
AcDbEntity
  8
0
100
AcDbSpline
 62
7
  6
CONTINUOUS
 70
0
 71
3
 72
9
 73
5
 74
0
 42
0.0000001
 43
0.0000001
 44
0.0000000001
 40
0.0
 40
0.0
 40
0.0
 40
0.0
 40
0.2565578432
 40
1.0
 40
1.0
 40
1.0
 40
1.0
 10
13.6864105812
 20
13.1610695622
 30
0.0
 10
14.2055061598
 20
13.449622442
 30
0.0
 10
16.2600184414
 20
14.5165647176
 30
0.0
 10
18.4416067376
 20
15.3443329909
 30
0.0
 10
20.1039111854
 20
15.7899294988
 30
0.0
  0
SPLINE
  5
3A9
100
AcDbEntity
  8
0
100
AcDbSpline
 62
7
  6
CONTINUOUS
 70
0
 71
3
 72
10
 73
6
 74
0
 42
0.0000001
 43
0.0000001
 44
0.0000000001
 40
0.0
 40
0.0
 40
0.0
 40
0.0
 40
0.2405483275
 40
0.4865773268
 40
1.0
 40
1.0
 40
1.0
 40
1.0
 10
-11.5562794768
 20
35.1452187713
 30
0.0
 10
-12.3190611745
 20
35.3775303311
 30
0.0
 10
-13.9011744416
 20
35.7283080878
 30
0.0
 10
-17.2161008572
 20
35.9633238661
 30
0.0
 10
-19.7468936214
 20
35.6001017046
 30
0.0
 10
-21.3907592948
 20
35.1594478869
 30
0.0
  0
SPLINE
  5
3AA
100
AcDbEntity
  8
0
100
AcDbSpline
 62
7
  6
CONTINUOUS
 70
0
 71
3
 72
11
 73
7
 74
0
 42
0.0000001
 43
0.0000001
 44
0.0000000001
 40
0.0
 40
0.0
 40
0.0
 40
0.0
 40
0.2494794491
 40
0.4991128242
 40
0.7491440409
 40
1.0
 40
1.0
 40
1.0
 40
1.0
 10
30.7101050707
 20
16.9638736152
 30
0.0
 10
29.2301415994
 20
17.8186602038
 30
0.0
 10
26.0842406573
 20
19.2286250369
 30
0.0
 10
21.0406281486
 20
20.3443624193
 30
0.0
 10
15.8683537307
 20
20.4453011278
 30
0.0
 10
12.46444206
 20
19.8557041841
 30
0.0
 10
10.8045271299
 20
19.4107814849
 30
0.0
  0
SPLINE
  5
3AB
100
AcDbEntity
  8
0
100
AcDbSpline
 62
7
  6
CONTINUOUS
 70
0
 71
3
 72
20
 73
16
 74
0
 42
0.0000001
 43
0.0000001
 44
0.0000000001
 40
0.0
 40
0.0
 40
0.0
 40
0.0
 40
0.1227234548
 40
0.1878062793
 40
0.2547476876
 40
0.3916134424
 40
0.460425718
 40
0.5284817096
 40
0.659570699
 40
0.721937942
 40
0.7817555153
 40
0.8390521217
 40
0.89411899
 40
0.9475102055
 40
1.0
 40
1.0
 40
1.0
 40
1.0
 10
-21.3907592948
 20
35.1594478869
 30
0.0
 10
-23.7092389682
 20
34.5379573747
 30
0.0
 10
-27.1144823025
 20
32.9824177883
 30
0.0
 10
-31.148233826
 20
30.0446926249
 30
0.0
 10
-34.9800037113
 20
26.4237059096
 30
0.0
 10
-38.1560127416
 20
22.0664535522
 30
0.0
 10
-40.5108939957
 20
17.2467625693
 30
0.0
 10
-42.2393094543
 20
12.2897372713
 30
0.0
 10
-43.0347929916
 20
7.1668982409
 30
0.0
 10
-42.7571833487
 20
2.2062957999
 30
0.0
 10
-42.0362173484
 20
-1.2445043114
 30
0.0
 10
-40.8130189439
 20
-4.3996497537
 30
0.0
 10
-39.1126311916
 20
-7.1821641785
 30
0.0
 10
-36.9745517314
 20
-9.5193497734
 30
0.0
 10
-35.283495431
 20
-10.7442181593
 30
0.0
 10
-34.3945054513
 20
-11.2577251968
 30
0.0
  0
SPLINE
  5
3AC
100
AcDbEntity
  8
0
100
AcDbSpline
 62
7
  6
CONTINUOUS
 70
0
 71
3
 72
15
 73
11
 74
0
 42
0.0000001
 43
0.0000001
 44
0.0000000001
 40
0.0
 40
0.0
 40
0.0
 40
0.0
 40
0.1277225484
 40
0.2546203132
 40
0.3804797812
 40
0.5053488917
 40
0.6294762445
 40
0.7531549222
 40
0.8766167046
 40
1.0
 40
1.0
 40
1.0
 40
1.0
 10
-10.1571535146
 20
1.1936169541
 30
0.0
 10
-10.9301934443
 20
-0.4649947833
 30
0.0
 10
-12.2163867012
 20
-3.897723069
 30
0.0
 10
-13.2982936027
 20
-9.2639336319
 30
0.0
 10
-13.4758984722
 20
-14.6979792891
 30
0.0
 10
-12.7057272491
 20
-20.0427421403
 30
0.0
 10
-10.9683077648
 20
-25.1260634722
 30
0.0
 10
-8.279912344
 20
-29.7580470607
 30
0.0
 10
-4.7131437626
 20
-33.7391640438
 30
0.0
 10
-1.8296171471
 20
-35.840400804
 30
0.0
 10
-0.2988534599
 20
-36.7245282153
 30
0.0
  0
SPLINE
  5
3AD
100
AcDbEntity
  8
0
100
AcDbSpline
 62
7
  6
CONTINUOUS
 70
0
 71
3
 72
9
 73
5
 74
0
 42
0.0000001
 43
0.0000001
 44
0.0000000001
 40
0.0
 40
0.0
 40
0.0
 40
0.0
 40
0.5086593959
 40
1.0
 40
1.0
 40
1.0
 40
1.0
 10
-5.2113146103
 20
25.362273778
 30
0.0
 10
-5.6249796631
 20
26.8270620142
 30
0.0
 10
-6.5892263604
 20
29.6663175092
 30
0.0
 10
-7.8560301819
 20
32.3855545218
 30
0.0
 10
-8.5581246883
 20
33.6773413261
 30
0.0
  0
SPLINE
  5
3AE
100
AcDbEntity
  8
0
100
AcDbSpline
 62
7
  6
CONTINUOUS
 70
0
 71
3
 72
11
 73
7
 74
0
 42
0.0000001
 43
0.0000001
 44
0.0000000001
 40
0.0
 40
0.0
 40
0.0
 40
0.0
 40
0.24702093
 40
0.4960242583
 40
0.7471600117
 40
1.0
 40
1.0
 40
1.0
 40
1.0
 10
10.8040308825
 20
19.4106484676
 30
0.0
 10
9.0201387784
 20
18.9324605391
 30
0.0
 10
5.523598535
 20
17.6202978065
 30
0.0
 10
0.7138409511
 20
14.7246105982
 30
0.0
 10
-3.5598132346
 20
11.020411875
 30
0.0
 10
-5.9753329298
 20
8.1031089212
 30
0.0
 10
-7.0604325783
 20
6.5551784585
 30
0.0
  0
SPLINE
  5
3AF
100
AcDbEntity
  8
0
100
AcDbSpline
 62
7
  6
CONTINUOUS
 70
0
 71
3
 72
11
 73
7
 74
0
 42
0.0000001
 43
0.0000001
 44
0.0000000001
 40
0.0
 40
0.0
 40
0.0
 40
0.0
 40
0.259943691
 40
0.5166474433
 40
0.7649140565
 40
1.0
 40
1.0
 40
1.0
 40
1.0
 10
0.7318734271
 20
24.6134486919
 30
0.0
 10
0.4162364968
 20
25.9799429592
 30
0.0
 10
-0.3298362325
 20
28.6699946301
 30
0.0
 10
-1.7766149493
 20
32.5406619866
 30
0.0
 10
-3.5112881754
 20
36.143167192
 30
0.0
 10
-4.8732738614
 20
38.3739967943
 30
0.0
 10
-5.5965084271
 20
39.4159499124
 30
0.0
  0
SPLINE
  5
3B0
100
AcDbEntity
  8
0
100
AcDbSpline
 62
7
  6
CONTINUOUS
 70
0
 71
3
 72
15
 73
11
 74
0
 42
0.0000001
 43
0.0000001
 44
0.0000000001
 40
0.0
 40
0.0
 40
0.0
 40
0.0
 40
0.1150938569
 40
0.2374955171
 40
0.3657812418
 40
0.4974804797
 40
0.629571219
 40
0.7589704081
 40
0.8830204082
 40
1.0
 40
1.0
 40
1.0
 40
1.0
 10
-12.7794281532
 20
-18.6547781217
 30
0.0
 10
-13.3483399847
 20
-16.9606156071
 30
0.0
 10
-14.0636824986
 20
-13.3001914674
 30
0.0
 10
-13.8944244526
 20
-7.584455251
 30
0.0
 10
-12.5456459055
 20
-1.7645070763
 30
0.0
 10
-10.0945989661
 20
3.8443614621
 30
0.0
 10
-6.6758333957
 20
8.9421638776
 30
0.0
 10
-2.4712850027
 20
13.2536166745
 30
0.0
 10
2.2925686522
 20
16.5424634014
 30
0.0
 10
5.7932344956
 20
17.9750740363
 30
0.0
 10
7.5477080631
 20
18.4453773527
 30
0.0
  0
SPLINE
  5
3B1
100
AcDbEntity
  8
0
100
AcDbSpline
 62
7
  6
CONTINUOUS
 70
0
 71
3
 72
20
 73
16
 74
0
 42
0.0000001
 43
0.0000001
 44
0.0000000001
 40
0.0
 40
0.0
 40
0.0
 40
0.0
 40
0.0602678358
 40
0.1230639026
 40
0.1881478331
 40
0.2550903122
 40
0.3919456545
 40
0.5285707376
 40
0.5952290752
 40
0.6599377503
 40
0.7817682832
 40
0.8390598845
 40
0.8941230593
 40
0.9475118776
 40
1.0
 40
1.0
 40
1.0
 40
1.0
 10
15.2056257953
 20
18.6190457227
 30
0.0
 10
13.848061025
 20
18.2551375833
 30
0.0
 10
11.1335838124
 20
17.2819413585
 30
0.0
 10
7.254859454
 20
15.2014089892
 30
0.0
 10
3.5699311622
 20
12.5199165595
 30
0.0
 10
-0.9969118402
 20
8.2023901781
 30
0.0
 10
-5.7216256953
 20
1.7232584704
 30
0.0
 10
-8.8202472121
 20
-5.6650432173
 30
0.0
 10
-10.1394546473
 20
-11.7908867441
 30
0.0
 10
-10.6297789346
 20
-17.6855540302
 30
0.0
 10
-9.9350251425
 20
-23.4336420235
 30
0.0
 10
-7.9515955432
 20
-28.5473969953
 30
0.0
 10
-5.9242026155
 20
-31.8654000647
 30
0.0
 10
-3.3750149987
 20
-34.6518162876
 30
0.0
 10
-1.3588025592
 20
-36.1122855282
 30
0.0
 10
-0.2988501909
 20
-36.7245225587
 30
0.0
  0
SPLINE
  5
3B2
100
AcDbEntity
  8
0
100
AcDbSpline
 62
7
  6
CONTINUOUS
 70
0
 71
3
 72
11
 73
7
 74
0
 42
0.0000001
 43
0.0000001
 44
0.0000000001
 40
0.0
 40
0.0
 40
0.0
 40
0.0
 40
0.2350859435
 40
0.4833525567
 40
0.740056309
 40
1.0
 40
1.0
 40
1.0
 40
1.0
 10
-9.7287203202
 20
38.3082712413
 30
0.0
 10
-9.0054857545
 20
37.2663181232
 30
0.0
 10
-7.643500071
 20
35.0354885209
 30
0.0
 10
-5.9088268449
 20
31.4329833129
 30
0.0
 10
-4.4620481281
 20
27.5623159565
 30
0.0
 10
-3.7159753962
 20
24.8722642881
 30
0.0
 10
-3.4003384659
 20
23.5057700183
 30
0.0
  0
SPLINE
  5
3B3
100
AcDbEntity
  8
0
100
AcDbSpline
 62
7
  6
CONTINUOUS
 70
0
 71
3
 72
19
 73
15
 74
0
 42
0.0000001
 43
0.0000001
 44
0.0000000001
 40
0.0
 40
0.0
 40
0.0
 40
0.0
 40
0.0523933749
 40
0.1059438387
 40
0.1612140167
 40
0.2185872291
 40
0.3399163562
 40
0.4039691969
 40
0.4698104642
 40
0.60485694
 40
0.7410624838
 40
0.8082858246
 40
0.8741610889
 40
1.0
 40
1.0
 40
1.0
 40
1.0
 10
1.3565680959
 20
-37.5437335848
 30
0.0
 10
0.4596973522
 20
-36.877820784
 30
0.0
 10
-1.231718028
 20
-35.3582566197
 30
0.0
 10
-3.3463284571
 20
-32.6275037094
 30
0.0
 10
-5.0186195372
 20
-29.4847990575
 30
0.0
 10
-6.6452911429
 20
-24.7513455298
 30
0.0
 10
-7.2144614701
 20
-19.5304139447
 30
0.0
 10
-6.806439675
 20
-14.1817418862
 30
0.0
 10
-5.7151033716
 20
-8.6268950381
 30
0.0
 10
-3.1389416049
 20
-1.8526471185
 30
0.0
 10
0.8201182976
 20
4.2500765968
 30
0.0
 10
4.6935090141
 20
8.5040695899
 30
0.0
 10
8.8491815181
 20
12.1485712621
 30
0.0
 10
12.3904109965
 20
14.3009398123
 30
0.0
 10
14.8536280944
 20
15.3643447873
 30
0.0
  0
SPLINE
  5
3B4
100
AcDbEntity
  8
0
100
AcDbSpline
 62
7
  6
CONTINUOUS
 70
0
 71
3
 72
9
 73
5
 74
0
 42
0.0000001
 43
0.0000001
 44
0.0000000001
 40
0.0
 40
0.0
 40
0.0
 40
0.0
 40
0.2539242336
 40
1.0
 40
1.0
 40
1.0
 40
1.0
 10
14.8536280944
 20
15.3643447873
 30
0.0
 10
15.1608346961
 20
15.496970138
 30
0.0
 10
16.3796480548
 20
15.998122199
 30
0.0
 10
17.6341279436
 20
16.4133748889
 30
0.0
 10
18.5837536491
 20
16.6679310854
 30
0.0
  0
SPLINE
  5
3B5
100
AcDbEntity
  8
0
100
AcDbSpline
 62
7
  6
CONTINUOUS
 70
0
 71
3
 72
11
 73
7
 74
0
 42
0.0000001
 43
0.0000001
 44
0.0000000001
 40
0.0
 40
0.0
 40
0.0
 40
0.0
 40
0.2398050024
 40
0.4840866952
 40
0.7366090084
 40
1.0
 40
1.0
 40
1.0
 40
1.0
 10
30.7101018043
 20
16.9638679611
 30
0.0
 10
29.6038953858
 20
17.6028217023
 30
0.0
 10
27.2238757821
 20
18.6544964671
 30
0.0
 10
23.3553988074
 20
19.4566796811
 30
0.0
 10
19.2813226934
 20
19.4765897429
 30
0.0
 10
16.5609058533
 20
18.982334643
 30
0.0
 10
15.2056257953
 20
18.6190457227
 30
0.0
  0
SPLINE
  5
3B6
100
AcDbEntity
  8
0
100
AcDbSpline
 62
7
  6
CONTINUOUS
 70
0
 71
3
 72
9
 73
5
 74
0
 42
0.0000001
 43
0.0000001
 44
0.0000000001
 40
0.0
 40
0.0
 40
0.0
 40
0.0
 40
0.2537364719
 40
1.0
 40
1.0
 40
1.0
 40
1.0
 10
18.5837536491
 20
16.6679310854
 30
0.0
 10
18.8938382893
 20
16.7510522196
 30
0.0
 10
20.1219497625
 20
17.0555110621
 30
0.0
 10
21.373728346
 20
17.2659354063
 30
0.0
 10
22.3128058887
 20
17.3640244633
 30
0.0
  0
ELLIPSE
  5
3B7
100
AcDbEntity
  8
0
100
AcDbEllipse
 62
7
  6
CONTINUOUS
 10
4.5520176029
 20
-3.7270933823
 30
0.0
 11
-3.257750721
 21
27.7168961257
 31
0.0
 40
0.7940555894
 41
0.0190556624
 42
0.2116609265
  0
ELLIPSE
  5
3B8
100
AcDbEntity
  8
0
100
AcDbEllipse
 62
7
  6
CONTINUOUS
 10
-6.4022270062
 20
2.599779938
 30
0.0
 11
10.2211547596
 21
23.9843192881
 31
0.0
 40
0.7898557819
 41
0.4730526849
 42
0.6506127666
  0
ENDSEC
  0
SECTION
  2
OBJECTS
  0
DICTIONARY
  5
C
100
AcDbDictionary
280
0
281
1
  3
ACAD_GROUP
350
D
  3
ACAD_MLINESTYLE
350
17
  3
ACAD_LAYOUT
350
1A
  3
ACAD_PLOTSETTINGS
350
19
  3
ACAD_PLOTSTYLENAME
350
E
  0
DICTIONARY
  5
D
102
{ACAD_REACTORS
330
C
102
}
100
AcDbDictionary
280
0
281
1
  0
ACDBDICTIONARYWDFLT
  5
E
102
{ACAD_REACTORS
330
C
102
}
100
AcDbDictionary
281
1
  3
Normal
350
F
100
AcDbDictionaryWithDefault
340
F
  0
DICTIONARY
  5
17
102
{ACAD_REACTORS
330
C
102
}
100
AcDbDictionary
280
0
281
1
  3
Standard
350
18
  0
DICTIONARY
  5
19
102
{ACAD_REACTORS
330
C
102
}
100
AcDbDictionary
281
1
  0
DICTIONARY
  5
1A
102
{ACAD_REACTORS
330
C
102
}
100
AcDbDictionary
281
1
  3
Model
350
3B9
  3
Layout1
350
3BA
  0
ACDBPLACEHOLDER
  5
F
102
{ACAD_REACTORS
330
E
102
}
  0
MLINESTYLE
  5
18
102
{ACAD_REACTORS
330
17
102
}
100
AcDbMlineStyle
  2
STANDARD
 70
0
  3

 62
256
 51
90.0
 52
90.0
 71
2
 49
0.5
 62
256
  6
BYLAYER
 49
-0.5
 62
256
  6
BYLAYER
  0
LAYOUT
  5
3B9
102
{ACAD_REACTORS
330
1A
102
}
100
AcDbPlotSettings
  1

  2
none_device
  4
ANSI_C_(22.00_x_17.00_Inches)
  6

 40
0.0
 41
0.0
 42
0.0
 43
0.0
 44
558.8
 45
431.8
 46
0.0
 47
0.0
 48
0.0
 49
0.0
140
0.0
141
0.0
142
1.0
143
1.0
 70
1024
 72
0
 73
0
 74
0
  7

 75
0
147
1.0
148
0.0
149
0.0
100
AcDbLayout
  1
Model
 70
0
 71
0
 10
0.0
 20
0.0
 11
22.0
 21
17.0
 12
0.0
 22
0.0
 32
0.0
 14
0.0
 24
0.0
 34
0.0
 15
0.0
 25
0.0
 35
0.0
146
0.0
 13
0.0
 23
0.0
 33
0.0
 16
1.0
 26
0.0
 36
0.0
 17
0.0
 27
1.0
 37
0.0
 76
0
330
216
345
0
346
0
  0
LAYOUT
  5
3BA
102
{ACAD_REACTORS
330
1A
102
}
100
AcDbPlotSettings
  1

  2
none_device
  4
ANSI_C_(22.00_x_17.00_Inches)
  6

 40
0.0
 41
0.0
 42
0.0
 43
0.0
 44
558.8
 45
431.8
 46
0.0
 47
0.0
 48
0.0
 49
0.0
140
0.0
141
0.0
142
1.0
143
1.0
 70
0
 72
0
 73
0
 74
0
  7

 75
0
147
1.0
148
0.0
149
0.0
100
AcDbLayout
  1
Layout1
 70
0
 71
1
 10
0.0
 20
0.0
 11
22.0
 21
17.0
 12
0.0
 22
0.0
 32
0.0
 14
0.0
 24
0.0
 34
0.0
 15
0.0
 25
0.0
 35
0.0
146
0.0
 13
0.0
 23
0.0
 33
0.0
 16
1.0
 26
0.0
 36
0.0
 17
0.0
 27
1.0
 37
0.0
 76
0
330
217
345
0
346
0
  0
ENDSEC
  0
EOF
