999
DXF file: Y:\3D PRATIKA-KAEDRA_OLGA\CAD3D\2D_Views\PKE32M435_2D-Views\pke32m435_2d-isometric.dxf
999
Pro/ENGINEER 2018260 by Parametric Technology Corporation
  0
SECTION
  2
HEADER
  9
$ACADVER
  1
AC1027
  9
$DWGCODEPAGE
  3
ANSI_1252
  9
$EXTMAX
 10
22.0
 20
17.0
 30
0.0
  9
$EXTMIN
 10
0.0
 20
0.0
 30
0.0
  9
$LIMMIN
 10
0.0
 20
0.0
  9
$LIMMAX
 10
22.0
 20
17.0
  9
$VIEWCTR
 10
11.0
 20
8.5
  9
$VIEWSIZE
 40
17.0
  9
$CLAYER
  8
0
  9
$LTSCALE
 40
1.21
  9
$CELTYPE
  6
BYLAYER
  9
$DIMSCALE
 40
1.0
  9
$DIMASZ
 40
0.1875
  9
$DIMEXO
 40
0.0625
  9
$DIMDLI
 40
0.836
  9
$DIMEXE
 40
0.125
  9
$DIMCEN
 40
0.198
  9
$DIMLFAC
 40
1.0
  9
$DIMBLK
  1
_CLOSED
  9
$DIMALT
 70
0
  9
$DIMALTF
 40
25.4
  9
$DIMTXT
 40
0.15625
  9
$DIMTOL
 70
0
  9
$DIMLIM
 70
0
  9
$DIMTFAC
 40
1.0
  9
$DIMGAP
 40
0.09
  9
$DIMDSEP
 70
46
  9
$AUNITS
 70
0
  9
$PDMODE
 70
3
  9
$PDSIZE
 40
0.3125
  9
$HANDSEED
  5
3B8
  9
$TILEMODE
 70
1
  9
$MEASUREMENT
 70
0
  9
$INSUNITS
 70
1
  0
ENDSEC
  0
SECTION
  2
CLASSES
  0
CLASS
  1
ACDBDICTIONARYWDFLT
  2
AcDbDictionaryWithDefault
  3
AutoCAD 2000
 90
0
 91
1
280
0
281
0
  0
CLASS
  1
ACDBPLACEHOLDER
  2
AcDbPlaceHolder
  3
AutoCAD 2000
 90
0
 91
1
280
0
281
0
  0
CLASS
  1
LAYOUT
  2
AcDbLayout
  3
AutoCAD 2000
 90
0
 91
0
280
0
281
0
  0
ENDSEC
  0
SECTION
  2
TABLES
  0
TABLE
  2
VPORT
  5
8
100
AcDbSymbolTable
 70
2
  0
VPORT
  5
1F4
100
AcDbSymbolTableRecord
100
AcDbViewportTableRecord
  2
*ACTIVE
 70
0
 10
0.0
 20
0.0
 11
1.0
 21
1.0
 12
11.0
 22
8.5
 13
0.0
 23
0.0
 14
1.0
 24
1.0
 15
0.0
 25
0.0
 16
0.0
 26
0.0
 36
1.0
 17
0.0
 27
0.0
 37
0.0
 40
17.0
 41
1.2941176471
 42
50.0
 43
0.0
 44
0.0
 50
0.0
 51
0.0
 71
0
 72
100
 73
1
 74
1
 75
0
 76
0
 77
0
 78
0
  0
ENDTAB
  0
TABLE
  2
LTYPE
  5
5
100
AcDbSymbolTable
 70
6
  0
LTYPE
  5
14
100
AcDbSymbolTableRecord
100
AcDbLinetypeTableRecord
  2
BYBLOCK
 70
0
  3

 72
65
 73
0
 40
0.0
  0
LTYPE
  5
15
100
AcDbSymbolTableRecord
100
AcDbLinetypeTableRecord
  2
BYLAYER
 70
0
  3

 72
65
 73
0
 40
0.0
  0
LTYPE
  5
16
100
AcDbSymbolTableRecord
100
AcDbLinetypeTableRecord
  2
CONTINUOUS
 70
64
  3
Solid line
 72
65
 73
0
 40
0.0
  0
LTYPE
  5
1F5
100
AcDbSymbolTableRecord
100
AcDbLinetypeTableRecord
  2
CENTER
 70
64
  3
____ _ ____ _ ____ _ ____ _ ____ _ ____ _ ____
 72
65
 73
4
 40
0.6
 49
0.375
 74
0
 49
-0.075
 74
0
 49
0.075
 74
0
 49
-0.075
 74
0
  0
LTYPE
  5
1F6
100
AcDbSymbolTableRecord
100
AcDbLinetypeTableRecord
  2
HIDDEN
 70
64
  3
- - - - - - - - - - - - - - - - - - - -
 72
65
 73
2
 40
0.2
 49
0.1
 74
0
 49
-0.1
 74
0
  0
LTYPE
  5
1F7
100
AcDbSymbolTableRecord
100
AcDbLinetypeTableRecord
  2
PHANTOM
 70
64
  3
_____ _ _ _____ _ _ _____ _ _ _____
 72
65
 73
6
 40
0.8
 49
0.45
 74
0
 49
-0.05
 74
0
 49
0.1
 74
0
 49
-0.05
 74
0
 49
0.1
 74
0
 49
-0.05
 74
0
  0
LTYPE
  5
1F8
100
AcDbSymbolTableRecord
100
AcDbLinetypeTableRecord
  2
DOT
 70
64
  3
. . . . . . . . . . . . . . . . . . . .
 72
65
 73
2
 40
0.2
 49
0.1
 74
0
 49
-0.1
 74
0
  0
LTYPE
  5
1F9
100
AcDbSymbolTableRecord
100
AcDbLinetypeTableRecord
  2
DASHED
 70
64
  3
- - - - - - - - - - - - - - - - - - - -
 72
65
 73
2
 40
0.2
 49
0.1
 74
0
 49
-0.1
 74
0
  0
ENDTAB
  0
TABLE
  2
LAYER
  5
2
100
AcDbSymbolTable
 70
36
  0
LAYER
  5
10
100
AcDbSymbolTableRecord
100
AcDbLayerTableRecord
  2
0
 70
0
 62
7
  6
CONTINUOUS
370
-3
390
F
  0
LAYER
  5
1FA
100
AcDbSymbolTableRecord
100
AcDbLayerTableRecord
  2
DEFAULT_1
 70
0
 62
7
  6
CENTER
370
-3
390
F
  0
LAYER
  5
1FB
100
AcDbSymbolTableRecord
100
AcDbLayerTableRecord
  2
DEFAULT_2
 70
0
 62
8
  6
HIDDEN
370
-3
390
F
  0
LAYER
  5
1FC
100
AcDbSymbolTableRecord
100
AcDbLayerTableRecord
  2
DEFAULT_3
 70
0
 62
7
  6
PHANTOM
370
-3
390
F
  0
LAYER
  5
1FD
100
AcDbSymbolTableRecord
100
AcDbLayerTableRecord
  2
01_ALL_DTM_PLN
 70
0
 62
7
  6
CONTINUOUS
370
-3
390
F
  0
LAYER
  5
1FE
100
AcDbSymbolTableRecord
100
AcDbLayerTableRecord
  2
01__ASM_ALL_DTM_PLN
 70
0
 62
7
  6
CONTINUOUS
370
-3
390
F
  0
LAYER
  5
1FF
100
AcDbSymbolTableRecord
100
AcDbLayerTableRecord
  2
01__ASM_DEF_DTM_PLN
 70
0
 62
7
  6
CONTINUOUS
370
-3
390
F
  0
LAYER
  5
200
100
AcDbSymbolTableRecord
100
AcDbLayerTableRecord
  2
01___PRT_ALL_DTM_PLN
 70
0
 62
7
  6
CONTINUOUS
370
-3
390
F
  0
LAYER
  5
201
100
AcDbSymbolTableRecord
100
AcDbLayerTableRecord
  2
01___PRT_DEF_DTM_PLN
 70
0
 62
7
  6
CONTINUOUS
370
-3
390
F
  0
LAYER
  5
202
100
AcDbSymbolTableRecord
100
AcDbLayerTableRecord
  2
02_ALL_AXES
 70
0
 62
7
  6
CONTINUOUS
370
-3
390
F
  0
LAYER
  5
203
100
AcDbSymbolTableRecord
100
AcDbLayerTableRecord
  2
02__ASM_ALL_AXES
 70
0
 62
7
  6
CONTINUOUS
370
-3
390
F
  0
LAYER
  5
204
100
AcDbSymbolTableRecord
100
AcDbLayerTableRecord
  2
02___PRT_ALL_AXES
 70
0
 62
7
  6
CONTINUOUS
370
-3
390
F
  0
LAYER
  5
205
100
AcDbSymbolTableRecord
100
AcDbLayerTableRecord
  2
03_ALL_CURVES
 70
0
 62
7
  6
CONTINUOUS
370
-3
390
F
  0
LAYER
  5
206
100
AcDbSymbolTableRecord
100
AcDbLayerTableRecord
  2
03__ASM_ALL_CURVES
 70
0
 62
7
  6
CONTINUOUS
370
-3
390
F
  0
LAYER
  5
207
100
AcDbSymbolTableRecord
100
AcDbLayerTableRecord
  2
03___PRT_ALL_CURVES
 70
0
 62
7
  6
CONTINUOUS
370
-3
390
F
  0
LAYER
  5
208
100
AcDbSymbolTableRecord
100
AcDbLayerTableRecord
  2
04_ALL_DTM_PNT
 70
0
 62
7
  6
CONTINUOUS
370
-3
390
F
  0
LAYER
  5
209
100
AcDbSymbolTableRecord
100
AcDbLayerTableRecord
  2
04__ASM_ALL_DTM_PNT
 70
0
 62
7
  6
CONTINUOUS
370
-3
390
F
  0
LAYER
  5
20A
100
AcDbSymbolTableRecord
100
AcDbLayerTableRecord
  2
04___PRT_ALL_DTM_PNT
 70
0
 62
7
  6
CONTINUOUS
370
-3
390
F
  0
LAYER
  5
20B
100
AcDbSymbolTableRecord
100
AcDbLayerTableRecord
  2
05_ALL_DTM_CSYS
 70
0
 62
7
  6
CONTINUOUS
370
-3
390
F
  0
LAYER
  5
20C
100
AcDbSymbolTableRecord
100
AcDbLayerTableRecord
  2
05__ASM_ALL_DTM_CSYS
 70
0
 62
7
  6
CONTINUOUS
370
-3
390
F
  0
LAYER
  5
20D
100
AcDbSymbolTableRecord
100
AcDbLayerTableRecord
  2
05__ASM_DEF_DTM_CSYS
 70
0
 62
7
  6
CONTINUOUS
370
-3
390
F
  0
LAYER
  5
20E
100
AcDbSymbolTableRecord
100
AcDbLayerTableRecord
  2
05___PRT_ALL_DTM_CSYS
 70
0
 62
7
  6
CONTINUOUS
370
-3
390
F
  0
LAYER
  5
20F
100
AcDbSymbolTableRecord
100
AcDbLayerTableRecord
  2
05___PRT_DEF_DTM_CSYS
 70
0
 62
7
  6
CONTINUOUS
370
-3
390
F
  0
LAYER
  5
210
100
AcDbSymbolTableRecord
100
AcDbLayerTableRecord
  2
06_ALL_SURFS
 70
0
 62
7
  6
CONTINUOUS
370
-3
390
F
  0
LAYER
  5
211
100
AcDbSymbolTableRecord
100
AcDbLayerTableRecord
  2
06__ASM_ALL_SURFS
 70
0
 62
7
  6
CONTINUOUS
370
-3
390
F
  0
LAYER
  5
212
100
AcDbSymbolTableRecord
100
AcDbLayerTableRecord
  2
06___PRT_ALL_SURFS
 70
0
 62
7
  6
CONTINUOUS
370
-3
390
F
  0
LAYER
  5
213
100
AcDbSymbolTableRecord
100
AcDbLayerTableRecord
  2
07__ASM_ALL_SKELETONS
 70
0
 62
7
  6
CONTINUOUS
370
-3
390
F
  0
ENDTAB
  0
TABLE
  2
STYLE
  5
3
100
AcDbSymbolTable
 70
1
  0
STYLE
  5
11
100
AcDbSymbolTableRecord
100
AcDbTextStyleTableRecord
  2
STANDARD
 70
0
 40
0.0
 41
0.8
 50
0.0
 71
0
 42
0.2
  3
txt
  4

  0
STYLE
  5
214
100
AcDbSymbolTableRecord
100
AcDbTextStyleTableRecord
  2
TEXTSTYLE_1
 70
0
 40
0.0
 41
0.8
 50
0.0
 71
0
 42
0.2
  3
gdt
  4

  0
ENDTAB
  0
TABLE
  2
VIEW
  5
6
100
AcDbSymbolTable
 70
0
  0
ENDTAB
  0
TABLE
  2
UCS
  5
7
100
AcDbSymbolTable
 70
0
  0
ENDTAB
  0
TABLE
  2
APPID
  5
9
100
AcDbSymbolTable
 70
1
  0
APPID
  5
215
100
AcDbSymbolTableRecord
100
AcDbRegAppTableRecord
  2
ACAD
 70
0
  0
ENDTAB
  0
TABLE
  2
BLOCK_RECORD
  5
1
100
AcDbSymbolTable
 70
0
  0
BLOCK_RECORD
  5
216
100
AcDbSymbolTableRecord
100
AcDbBlockTableRecord
  2
*Model_Space
  0
BLOCK_RECORD
  5
217
100
AcDbSymbolTableRecord
100
AcDbBlockTableRecord
  2
*Paper_Space
  0
BLOCK_RECORD
  5
218
100
AcDbSymbolTableRecord
100
AcDbBlockTableRecord
  2
_CLOSED
  0
ENDTAB
  0
TABLE
  2
DIMSTYLE
  5
A
100
AcDbSymbolTable
 70
1
100
AcDbDimStyleTable
 71
0
  0
DIMSTYLE
105
219
100
AcDbSymbolTableRecord
100
AcDbDimStyleTableRecord
  2
STANDARD
 70
0
  3

  4

 40
1.0
 41
0.1875
 42
0.0625
 43
0.38
 44
0.125
 45
0.0
 46
0.0
 47
0.01
 48
0.01
140
0.15625
141
0.09
142
0.0
143
25.4
144
1.0
145
0.0
146
1.0
147
0.09
 71
0.0
 72
0.0
 73
1
 74
1
 75
0
 76
0
 77
0
 78
4
 79
1
170
0
171
1
172
0
173
0
174
0
175
0
176
0
177
0
178
0
270
2
179
2
271
2
272
2
273
2
274
2
275
0
280
0
281
0
282
0
283
1
284
4
285
0
286
0
287
3
288
0
340
11
278
46
341
218
342
218
343
218
344
218
  0
ENDTAB
  0
ENDSEC
  0
SECTION
  2
BLOCKS
  0
BLOCK
  5
20
100
AcDbEntity
  8
0
100
AcDbBlockBegin
  2
*Model_Space
 70
0
 10
0.0
 20
0.0
 30
0.0
  3
*Model_Space
  1

  0
ENDBLK
  5
21
100
AcDbEntity
  8
0
100
AcDbBlockEnd
  0
BLOCK
  5
1C
100
AcDbEntity
  8
0
100
AcDbBlockBegin
  2
*Paper_Space
 70
0
 10
0.0
 20
0.0
 30
0.0
  3
*Paper_Space
  1

  0
ENDBLK
  5
1D
100
AcDbEntity
  8
0
100
AcDbBlockEnd
  0
BLOCK
  5
21A
100
AcDbEntity
  8
0
100
AcDbBlockBegin
  2
_CLOSED
 70
64
 10
0.0
 20
0.0
  3
_CLOSED
  1

  0
LINE
  5
21B
100
AcDbEntity
  8
0
  6
BYBLOCK
 62
0
100
AcDbLine
 10
0.0
 20
0.0
 11
-1.0
 21
0.1666666667
  0
LINE
  5
21C
100
AcDbEntity
  8
0
  6
BYBLOCK
 62
0
100
AcDbLine
 10
-1.0
 20
0.1666666667
 11
-1.0
 21
-0.1666666667
  0
LINE
  5
21D
100
AcDbEntity
  8
0
  6
BYBLOCK
 62
0
100
AcDbLine
 10
-1.0
 20
-0.1666666667
 11
0.0
 21
0.0
  0
LINE
  5
21E
100
AcDbEntity
  8
0
  6
BYBLOCK
 62
0
100
AcDbLine
 10
-1.0
 20
0.0
 11
0.0
 21
0.0
  0
ENDBLK
  5
21F
100
AcDbEntity
  8
0
  6
BYBLOCK
 62
0
100
AcDbBlockEnd
  0
ENDSEC
  0
SECTION
  2
ENTITIES
  0
LINE
  5
220
100
AcDbEntity
  8
0
100
AcDbLine
 62
7
  6
CONTINUOUS
 10
-71.6347071158
 20
75.5087949396
 11
-71.6527914129
 21
75.6887406148
  0
LINE
  5
221
100
AcDbEntity
  8
0
100
AcDbLine
 62
7
  6
CONTINUOUS
 10
-93.2667284491
 20
22.9001189177
 11
-93.2592135746
 21
22.7834764027
  0
LINE
  5
222
100
AcDbEntity
  8
0
100
AcDbLine
 62
7
  6
CONTINUOUS
 10
-71.6942140504
 20
73.8730486861
 11
-71.7304401375
 21
74.5046068693
  0
LINE
  5
223
100
AcDbEntity
  8
0
100
AcDbLine
 62
7
  6
CONTINUOUS
 10
-46.2824609446
 20
53.128876329
 11
-47.0759065256
 21
68.3957536717
  0
LINE
  5
224
100
AcDbEntity
  8
0
100
AcDbLine
 62
7
  6
CONTINUOUS
 10
-45.5321777538
 20
65.062951234
 11
-44.8695310451
 21
52.3128065057
  0
LINE
  5
225
100
AcDbEntity
  8
0
100
AcDbLine
 62
7
  6
CONTINUOUS
 10
-40.737319152
 20
53.4204851768
 11
-40.817674846
 21
54.9666284167
  0
LINE
  5
226
100
AcDbEntity
  8
0
100
AcDbLine
 62
7
  6
CONTINUOUS
 10
-71.7304476406
 20
74.5051479756
 11
-71.7304907419
 21
74.5280183566
  0
LINE
  5
227
100
AcDbEntity
  8
0
100
AcDbLine
 62
7
  6
CONTINUOUS
 10
-93.2666953758
 20
22.9000835609
 11
-93.2666955205
 21
23.0108124326
  0
LINE
  5
228
100
AcDbEntity
  8
0
100
AcDbLine
 62
7
  6
CONTINUOUS
 10
-92.9252585123
 20
22.7136606647
 11
-92.9252585123
 21
22.8314586461
  0
LINE
  5
229
100
AcDbEntity
  8
0
100
AcDbLine
 62
7
  6
CONTINUOUS
 10
-71.6347415785
 20
75.5090775451
 11
-71.6354162254
 21
74.8135247147
  0
LINE
  5
22A
100
AcDbEntity
  8
0
100
AcDbLine
 62
7
  6
CONTINUOUS
 10
-71.6347397421
 20
75.5085444067
 11
-71.6354162279
 21
75.4983138151
  0
LINE
  5
22B
100
AcDbEntity
  8
0
100
AcDbLine
 62
7
  6
CONTINUOUS
 10
-71.7270885414
 20
74.3822972892
 11
-71.7163696271
 21
74.5060026501
  0
LINE
  5
22C
100
AcDbEntity
  8
0
100
AcDbLine
 62
7
  6
CONTINUOUS
 10
-106.6087233246
 20
40.8504292527
 11
-106.6410714286
 21
40.54159683
  0
LINE
  5
22D
100
AcDbEntity
  8
0
100
AcDbLine
 62
7
  6
CONTINUOUS
 10
-102.4749144244
 20
29.3824902989
 11
-102.5133661712
 21
29.0655361271
  0
LINE
  5
22E
100
AcDbEntity
  8
0
100
AcDbLine
 62
7
  6
CONTINUOUS
 10
-71.6354162279
 20
74.8135246893
 11
-71.6347397447
 21
74.8166012262
  0
LINE
  5
22F
100
AcDbEntity
  8
0
100
AcDbLine
 62
7
  6
CONTINUOUS
 10
-104.548497788
 20
54.5441052943
 11
-104.5485177422
 21
54.5440176948
  0
LINE
  5
230
100
AcDbEntity
  8
0
100
AcDbLine
 62
7
  6
CONTINUOUS
 10
-104.4923822716
 20
54.7311493728
 11
-104.5485308131
 21
54.5440474661
  0
LINE
  5
231
100
AcDbEntity
  8
0
100
AcDbLine
 62
7
  6
CONTINUOUS
 10
-106.5072753411
 20
41.1329878087
 11
-106.6087233246
 21
40.8504292527
  0
LINE
  5
232
100
AcDbEntity
  8
0
100
AcDbLine
 62
7
  6
CONTINUOUS
 10
-102.4198619284
 20
29.5332488721
 11
-102.4749144244
 21
29.3824902989
  0
LINE
  5
233
100
AcDbEntity
  8
0
100
AcDbLine
 62
7
  6
CONTINUOUS
 10
-102.4198270771
 20
29.5332518998
 11
-102.11648157
 21
30.1990325113
  0
LINE
  5
234
100
AcDbEntity
  8
0
100
AcDbLine
 62
7
  6
CONTINUOUS
 10
-102.0793343646
 20
29.3341492957
 11
-101.771523761
 21
30.0097298673
  0
LINE
  5
235
100
AcDbEntity
  8
0
100
AcDbLine
 62
7
  6
CONTINUOUS
 10
-50.5498353893
 20
26.8009181493
 11
-50.5474465752
 21
26.8060441995
  0
LINE
  5
236
100
AcDbEntity
  8
0
100
AcDbLine
 62
7
  6
CONTINUOUS
 10
-104.3518339776
 20
55.0124999023
 11
-104.4923822716
 21
54.7311493728
  0
LINE
  5
237
100
AcDbEntity
  8
0
100
AcDbLine
 62
7
  6
CONTINUOUS
 10
-106.3498313024
 20
41.367317782
 11
-106.5072753411
 21
41.1329878087
  0
LINE
  5
238
100
AcDbEntity
  8
0
100
AcDbLine
 62
7
  6
CONTINUOUS
 10
-96.5170015015
 20
67.306566193
 11
-96.5029446081
 21
67.3272950238
  0
LINE
  5
239
100
AcDbEntity
  8
0
100
AcDbLine
 62
7
  6
CONTINUOUS
 10
-47.1110750024
 20
32.7569528819
 11
-47.1036683878
 21
32.7675196705
  0
LINE
  5
23A
100
AcDbEntity
  8
0
100
AcDbLine
 62
7
  6
CONTINUOUS
 10
-96.517643484
 20
67.3071125749
 11
-96.5029446081
 21
67.3272950238
  0
LINE
  5
23B
100
AcDbEntity
  8
0
100
AcDbLine
 62
7
  6
CONTINUOUS
 10
-104.1648418141
 20
55.2420133067
 11
-104.3518339776
 21
55.0124999023
  0
LINE
  5
23C
100
AcDbEntity
  8
0
100
AcDbLine
 62
7
  6
CONTINUOUS
 10
-96.4798613446
 20
67.5362345957
 11
-96.6163938656
 21
67.3739746231
  0
LINE
  5
23D
100
AcDbEntity
  8
0
100
AcDbLine
 62
7
  6
CONTINUOUS
 10
-106.2707656185
 20
41.4478453121
 11
-106.3498313024
 21
41.367317782
  0
LINE
  5
23E
100
AcDbEntity
  8
0
100
AcDbLine
 62
7
  6
CONTINUOUS
 10
-106.2707537542
 20
41.4478136561
 11
-105.7411330532
 21
41.9299295067
  0
LINE
  5
23F
100
AcDbEntity
  8
0
100
AcDbLine
 62
7
  6
CONTINUOUS
 10
-105.928218262
 20
41.2524186291
 11
-105.3951387668
 21
41.7376830383
  0
LINE
  5
240
100
AcDbEntity
  8
0
100
AcDbLine
 62
7
  6
CONTINUOUS
 10
-96.2438425609
 20
67.7310296037
 11
-96.4798613446
 21
67.5362345957
  0
LINE
  5
241
100
AcDbEntity
  8
0
100
AcDbLine
 62
7
  6
CONTINUOUS
 10
-103.9483312718
 20
55.4050557009
 11
-104.1648418141
 21
55.2420133067
  0
LINE
  5
242
100
AcDbEntity
  8
0
100
AcDbLine
 62
7
  6
CONTINUOUS
 10
-84.9209965935
 20
75.3729322548
 11
-84.9209017423
 21
75.3729856253
  0
LINE
  5
243
100
AcDbEntity
  8
0
100
AcDbLine
 62
7
  6
CONTINUOUS
 10
-95.9929169947
 20
67.8523667981
 11
-96.2438425609
 21
67.7310296037
  0
LINE
  5
244
100
AcDbEntity
  8
0
100
AcDbLine
 62
7
  6
CONTINUOUS
 10
-84.7261703537
 20
75.4617270353
 11
-84.9209702842
 21
75.372970751
  0
LINE
  5
245
100
AcDbEntity
  8
0
100
AcDbLine
 62
7
  6
CONTINUOUS
 10
-103.7407160812
 20
55.4905870666
 11
-103.9483312718
 21
55.4050557009
  0
LINE
  5
246
100
AcDbEntity
  8
0
100
AcDbLine
 62
7
  6
CONTINUOUS
 10
-92.6203219619
 20
22.0484421247
 11
-88.9154407433
 21
21.0492054999
  0
LINE
  5
247
100
AcDbEntity
  8
0
100
AcDbLine
 62
7
  6
CONTINUOUS
 10
-83.8821849627
 20
19.0585974593
 11
-83.6216339344
 21
18.9662385736
  0
LINE
  5
248
100
AcDbEntity
  8
0
100
AcDbLine
 62
7
  6
CONTINUOUS
 10
-83.9022819685
 20
19.0042944538
 11
-83.6421755189
 21
18.9104253883
  0
LINE
  5
249
100
AcDbEntity
  8
0
100
AcDbLine
 62
7
  6
CONTINUOUS
 10
-83.8609225236
 20
19.1059703389
 11
-83.7967740515
 21
19.0805978725
  0
LINE
  5
24A
100
AcDbEntity
  8
0
100
AcDbLine
 62
7
  6
CONTINUOUS
 10
-92.8204068246
 20
22.1327533048
 11
-92.6202222999
 21
22.0484089701
  0
LINE
  5
24B
100
AcDbEntity
  8
0
100
AcDbLine
 62
7
  6
CONTINUOUS
 10
8.7788574034
 20
-12.8328465632
 11
9.1261406535
 21
-12.9965819634
  0
LINE
  5
24C
100
AcDbEntity
  8
0
100
AcDbLine
 62
7
  6
CONTINUOUS
 10
-98.518550869
 20
25.7666899155
 11
-98.6167775305
 21
25.8227305629
  0
LINE
  5
24D
100
AcDbEntity
  8
0
100
AcDbLine
 62
7
  6
CONTINUOUS
 10
-40.0568822757
 20
-14.5447365379
 11
-34.1451585289
 21
-17.9591871537
  0
LINE
  5
24E
100
AcDbEntity
  8
0
100
AcDbLine
 62
7
  6
CONTINUOUS
 10
-21.0485215142
 20
-24.6702845189
 11
-19.6409682409
 21
-25.4832489509
  0
LINE
  5
24F
100
AcDbEntity
  8
0
100
AcDbLine
 62
7
  6
CONTINUOUS
 10
-32.8947972984
 20
-15.7943322404
 11
-7.2773277333
 21
-30.5902849039
  0
LINE
  5
250
100
AcDbEntity
  8
0
100
AcDbLine
 62
7
  6
CONTINUOUS
 10
-0.342486711
 20
-33.8602353313
 11
6.9767903091
 21
-38.0876503765
  0
LINE
  5
251
100
AcDbEntity
  8
0
100
AcDbLine
 62
7
  6
CONTINUOUS
 10
0.4140350475
 20
-32.929345316
 11
5.9978966509
 21
-36.1544316852
  0
LINE
  5
252
100
AcDbEntity
  8
0
100
AcDbLine
 62
7
  6
CONTINUOUS
 10
-76.9676514486
 20
12.5479773817
 11
-51.0794406801
 21
-2.4043480247
  0
LINE
  5
253
100
AcDbEntity
  8
0
100
AcDbLine
 62
7
  6
CONTINUOUS
 10
-86.2316962657
 20
24.9429893252
 11
-85.5384339667
 21
24.5425799025
  0
LINE
  5
254
100
AcDbEntity
  8
0
100
AcDbLine
 62
7
  6
CONTINUOUS
 10
-14.7933297066
 20
-8.4198417443
 11
5.1253946748
 21
-19.9243544096
  0
LINE
  5
255
100
AcDbEntity
  8
0
100
AcDbLine
 62
7
  6
CONTINUOUS
 10
-14.7479964495
 20
-7.7368776365
 11
-6.2822609909
 21
-12.6264558507
  0
LINE
  5
256
100
AcDbEntity
  8
0
100
AcDbLine
 62
7
  6
CONTINUOUS
 10
-13.7519008166
 20
-1.3833245372
 11
-3.2813940335
 21
-7.4308040627
  0
LINE
  5
257
100
AcDbEntity
  8
0
100
AcDbLine
 62
7
  6
CONTINUOUS
 10
-13.3157472947
 20
-0.0347586923
 11
9.1265506146
 21
-12.9968186914
  0
LINE
  5
258
100
AcDbEntity
  8
0
100
AcDbLine
 62
7
  6
CONTINUOUS
 10
-7.6454275457
 20
5.4130826015
 11
-5.1118316528
 21
3.9497466255
  0
LINE
  5
259
100
AcDbEntity
  8
0
100
AcDbLine
 62
7
  6
CONTINUOUS
 10
-98.52581216
 20
25.949152464
 11
-98.4935240331
 21
25.9295282411
  0
LINE
  5
25A
100
AcDbEntity
  8
0
100
AcDbLine
 62
7
  6
CONTINUOUS
 10
-98.5195231276
 20
25.9737915003
 11
-98.487511942
 21
25.9531867358
  0
LINE
  5
25B
100
AcDbEntity
  8
0
100
AcDbLine
 62
7
  6
CONTINUOUS
 10
-34.2187535176
 20
-14.9514836568
 11
-34.2084297663
 21
-14.9586933478
  0
LINE
  5
25C
100
AcDbEntity
  8
0
100
AcDbLine
 62
7
  6
CONTINUOUS
 10
-102.1602262526
 20
28.3191415823
 11
-102.1285766563
 21
28.2968835597
  0
LINE
  5
25D
100
AcDbEntity
  8
0
100
AcDbLine
 62
7
  6
CONTINUOUS
 10
-93.0375073124
 20
22.3052442172
 11
-92.8204068246
 21
22.1327533048
  0
LINE
  5
25E
100
AcDbEntity
  8
0
100
AcDbLine
 62
7
  6
CONTINUOUS
 10
-34.2181151953
 20
-14.9504956527
 11
-34.2084297663
 21
-14.9586933478
  0
LINE
  5
25F
100
AcDbEntity
  8
0
100
AcDbLine
 62
7
  6
CONTINUOUS
 10
-83.7189933079
 20
75.2176079503
 11
-83.898344745
 21
75.3855147696
  0
LINE
  5
260
100
AcDbEntity
  8
0
100
AcDbLine
 62
7
  6
CONTINUOUS
 10
-102.2930328044
 20
28.4569168846
 11
-102.1602602023
 21
28.3191374446
  0
LINE
  5
261
100
AcDbEntity
  8
0
100
AcDbLine
 62
7
  6
CONTINUOUS
 10
-59.2870257152
 20
66.9656654041
 11
-60.7009043632
 21
68.6901055417
  0
LINE
  5
262
100
AcDbEntity
  8
0
100
AcDbLine
 62
7
  6
CONTINUOUS
 10
-58.8905388221
 20
66.4584083897
 11
-59.2870257152
 21
66.9656654041
  0
LINE
  5
263
100
AcDbEntity
  8
0
100
AcDbLine
 62
7
  6
CONTINUOUS
 10
-71.7383337971
 20
75.9263383921
 11
-71.8910235984
 21
76.1318051516
  0
LINE
  5
264
100
AcDbEntity
  8
0
100
AcDbLine
 62
7
  6
CONTINUOUS
 10
-102.1431534674
 20
30.1503970917
 11
-102.1570203891
 21
30.1704781184
  0
LINE
  5
265
100
AcDbEntity
  8
0
100
AcDbLine
 62
7
  6
CONTINUOUS
 10
-83.6689786302
 20
75.1445511571
 11
-83.7189933079
 21
75.2176079503
  0
LINE
  5
266
100
AcDbEntity
  8
0
100
AcDbLine
 62
7
  6
CONTINUOUS
 10
-93.1863247872
 20
22.5292027177
 11
-93.0375073124
 21
22.3052442172
  0
LINE
  5
267
100
AcDbEntity
  8
0
100
AcDbLine
 62
7
  6
CONTINUOUS
 10
-45.056226788
 20
64.3213910915
 11
-45.5321777538
 21
65.062951234
  0
LINE
  5
268
100
AcDbEntity
  8
0
100
AcDbLine
 62
7
  6
CONTINUOUS
 10
-102.1349332831
 20
30.1585348199
 11
-102.1479492363
 21
30.1794424743
  0
LINE
  5
269
100
AcDbEntity
  8
0
100
AcDbLine
 62
7
  6
CONTINUOUS
 10
-83.6417750117
 20
75.0469707731
 11
-83.3339868516
 21
74.5364505419
  0
LINE
  5
26A
100
AcDbEntity
  8
0
100
AcDbLine
 62
7
  6
CONTINUOUS
 10
-83.6691131257
 20
75.1446997623
 11
-83.3448617955
 21
74.6068740866
  0
LINE
  5
26B
100
AcDbEntity
  8
0
100
AcDbLine
 62
7
  6
CONTINUOUS
 10
-102.4524790082
 20
28.7445127889
 11
-102.2930328044
 21
28.4569168846
  0
LINE
  5
26C
100
AcDbEntity
  8
0
100
AcDbLine
 62
7
  6
CONTINUOUS
 10
-71.6527914129
 20
75.6887406148
 11
-71.7383337971
 21
75.9263383921
  0
LINE
  5
26D
100
AcDbEntity
  8
0
100
AcDbLine
 62
7
  6
CONTINUOUS
 10
-93.2592135746
 20
22.7834764027
 11
-93.1863247872
 21
22.5292027177
  0
LINE
  5
26E
100
AcDbEntity
  8
0
100
AcDbLine
 62
7
  6
CONTINUOUS
 10
-83.6688317089
 20
75.1442345766
 11
-83.6417771631
 21
75.0469743418
  0
LINE
  5
26F
100
AcDbEntity
  8
0
100
AcDbLine
 62
7
  6
CONTINUOUS
 10
-106.6041957975
 20
40.2614627878
 11
-106.6041809766
 21
40.2614043779
  0
LINE
  5
270
100
AcDbEntity
  8
0
100
AcDbLine
 62
7
  6
CONTINUOUS
 10
-102.5133661712
 20
29.0655361271
 11
-102.4524790082
 21
28.7445127889
  0
LINE
  5
271
100
AcDbEntity
  8
0
100
AcDbLine
 62
7
  6
CONTINUOUS
 10
-39.442901624
 20
49.1785331578
 11
-39.6824692018
 21
50.5898331546
  0
LINE
  5
272
100
AcDbEntity
  8
0
100
AcDbLine
 62
7
  6
CONTINUOUS
 10
-71.5291187977
 20
72.863374137
 11
-71.6942140504
 21
73.8730486861
  0
LINE
  5
273
100
AcDbEntity
  8
0
100
AcDbLine
 62
7
  6
CONTINUOUS
 10
-38.0839867371
 20
49.0898264315
 11
-37.9792992426
 21
48.3331962861
  0
LINE
  5
274
100
AcDbEntity
  8
0
100
AcDbLine
 62
7
  6
CONTINUOUS
 10
-33.847087347
 20
49.4408749598
 11
-33.951774844
 21
50.1975051051
  0
LINE
  5
275
100
AcDbEntity
  8
0
100
AcDbLine
 62
7
  6
CONTINUOUS
 10
-106.6410714286
 20
40.54159683
 11
-106.6041905321
 21
40.2613515713
  0
LINE
  5
276
100
AcDbEntity
  8
0
100
AcDbLine
 62
7
  6
CONTINUOUS
 10
-90.3631534358
 20
35.4822220694
 11
-90.3502285519
 21
35.4773531637
  0
LINE
  5
277
100
AcDbEntity
  8
0
100
AcDbLine
 62
7
  6
CONTINUOUS
 10
-9.3563130114
 20
8.5671727424
 11
-1.7338860618
 21
4.1646665538
  0
LINE
  5
278
100
AcDbEntity
  8
0
100
AcDbLine
 62
7
  6
CONTINUOUS
 10
0.0322711628
 20
3.8656824527
 11
17.5333393229
 21
-6.2424578313
  0
LINE
  5
279
100
AcDbEntity
  8
0
100
AcDbLine
 62
7
  6
CONTINUOUS
 10
-60.7009043632
 20
68.6901055417
 11
-61.7519241789
 21
69.7494071696
  0
LINE
  5
27A
100
AcDbEntity
  8
0
100
AcDbLine
 62
7
  6
CONTINUOUS
 10
5.9978966509
 20
-32.8051278555
 11
5.9978966509
 21
-36.1544316852
  0
LINE
  5
27B
100
AcDbEntity
  8
0
100
AcDbLine
 62
7
  6
CONTINUOUS
 10
20.27343637
 20
-0.9238269446
 11
20.5342062803
 21
-1.0468060408
  0
LINE
  5
27C
100
AcDbEntity
  8
0
100
AcDbLine
 62
7
  6
CONTINUOUS
 10
-5.7606075105
 20
13.4192619892
 11
1.2669808956
 21
9.3603183418
  0
LINE
  5
27D
100
AcDbEntity
  8
0
100
AcDbLine
 62
7
  6
CONTINUOUS
 10
-1.2634944219
 20
11.542952168
 11
20.5342062803
 21
-1.0468060408
  0
LINE
  5
27E
100
AcDbEntity
  8
0
100
AcDbLine
 62
7
  6
CONTINUOUS
 10
-2.1438381248
 20
14.9384442137
 11
0.3897577656
 21
13.4751082376
  0
LINE
  5
27F
100
AcDbEntity
  8
0
100
AcDbLine
 62
7
  6
CONTINUOUS
 10
-45.6629766261
 20
67.5796838484
 11
-45.0023026998
 21
66.8784118855
  0
LINE
  5
280
100
AcDbEntity
  8
0
100
AcDbLine
 62
7
  6
CONTINUOUS
 10
10.9565509221
 20
-34.8252172799
 11
10.9565509221
 21
-31.4759134476
  0
LINE
  5
281
100
AcDbEntity
  8
0
100
AcDbLine
 62
7
  6
CONTINUOUS
 10
-2.1785783753
 20
16.8682436002
 11
12.9849643963
 21
8.1101943142
  0
LINE
  5
282
100
AcDbEntity
  8
0
100
AcDbLine
 62
7
  6
CONTINUOUS
 10
-40.8700908067
 20
67.9860905566
 11
-41.530764733
 21
68.6873625221
  0
LINE
  5
283
100
AcDbEntity
  8
0
100
AcDbLine
 62
7
  6
CONTINUOUS
 10
-71.8910235984
 20
76.1318051516
 11
-72.1043020923
 21
76.2887868087
  0
LINE
  5
284
100
AcDbEntity
  8
0
100
AcDbLine
 62
7
  6
CONTINUOUS
 10
-61.7519241789
 20
69.7494071696
 11
-62.0792967652
 21
69.9949241056
  0
LINE
  5
285
100
AcDbEntity
  8
0
100
AcDbLine
 62
7
  6
CONTINUOUS
 10
3.3093741362
 20
20.6274225157
 11
15.9858313512
 21
13.3058461022
  0
LINE
  5
286
100
AcDbEntity
  8
0
100
AcDbLine
 62
7
  6
CONTINUOUS
 10
-39.442901624
 20
49.1785331578
 11
-37.9792992426
 21
48.3331962861
  0
LINE
  5
287
100
AcDbEntity
  8
0
100
AcDbLine
 62
7
  6
CONTINUOUS
 10
-46.2824609446
 20
53.128876329
 11
-44.8695310451
 21
52.3128065057
  0
LINE
  5
288
100
AcDbEntity
  8
0
100
AcDbLine
 62
7
  6
CONTINUOUS
 10
-33.951774844
 20
50.1975051051
 11
-38.0839867371
 21
49.0898264315
  0
LINE
  5
289
100
AcDbEntity
  8
0
100
AcDbLine
 62
7
  6
CONTINUOUS
 10
-45.0023026998
 20
66.8784118855
 11
-40.8700908067
 21
67.9860905566
  0
LINE
  5
28A
100
AcDbEntity
  8
0
100
AcDbLine
 62
7
  6
CONTINUOUS
 10
-41.530764733
 20
68.6873625221
 11
-45.6629766261
 21
67.5796838484
  0
LINE
  5
28B
100
AcDbEntity
  8
0
100
AcDbLine
 62
7
  6
CONTINUOUS
 10
-42.94369463
 20
69.5034323454
 11
-47.0759065256
 21
68.3957536717
  0
LINE
  5
28C
100
AcDbEntity
  8
0
100
AcDbLine
 62
7
  6
CONTINUOUS
 10
-103.4407681518
 20
55.2751837813
 11
-102.8251232972
 21
55.4402132354
  0
LINE
  5
28D
100
AcDbEntity
  8
0
100
AcDbLine
 62
7
  6
CONTINUOUS
 10
-103.7406602673
 20
55.4905653673
 11
-103.1068590203
 21
55.6604618297
  0
LINE
  5
28E
100
AcDbEntity
  8
0
100
AcDbLine
 62
7
  6
CONTINUOUS
 10
-84.4194646755
 20
75.5236983693
 11
-84.7261703537
 21
75.4617270353
  0
LINE
  5
28F
100
AcDbEntity
  8
0
100
AcDbLine
 62
7
  6
CONTINUOUS
 10
-95.7365741673
 20
67.8983762159
 11
-95.9929169947
 21
67.8523667981
  0
LINE
  5
290
100
AcDbEntity
  8
0
100
AcDbLine
 62
7
  6
CONTINUOUS
 10
-72.5263001256
 20
76.3992771465
 11
-72.5262388583
 21
76.3992750307
  0
LINE
  5
291
100
AcDbEntity
  8
0
100
AcDbLine
 62
7
  6
CONTINUOUS
 10
-84.1350494354
 20
75.493576964
 11
-84.4194646755
 21
75.5236983693
  0
LINE
  5
292
100
AcDbEntity
  8
0
100
AcDbLine
 62
7
  6
CONTINUOUS
 10
-72.3668473051
 20
76.3811598319
 11
-72.5262351575
 21
76.3992990946
  0
LINE
  5
293
100
AcDbEntity
  8
0
100
AcDbLine
 62
7
  6
CONTINUOUS
 10
-95.4930111212
 20
67.8672748176
 11
-95.7365741673
 21
67.8983762159
  0
LINE
  5
294
100
AcDbEntity
  8
0
100
AcDbLine
 62
7
  6
CONTINUOUS
 10
-70.8328764614
 20
74.587803693
 11
-70.8843453679
 21
74.6005950974
  0
LINE
  5
295
100
AcDbEntity
  8
0
100
AcDbLine
 62
7
  6
CONTINUOUS
 10
-71.6347397421
 20
74.9450650333
 11
-71.6014215791
 21
74.9357453974
  0
LINE
  5
296
100
AcDbEntity
  8
0
100
AcDbLine
 62
7
  6
CONTINUOUS
 10
-72.5262388583
 20
76.3992750307
 11
-72.4345300272
 21
76.3718873308
  0
LINE
  5
297
100
AcDbEntity
  8
0
100
AcDbLine
 62
7
  6
CONTINUOUS
 10
-70.8794317226
 20
74.5971297551
 11
-70.8344327194
 21
74.5828930602
  0
LINE
  5
298
100
AcDbEntity
  8
0
100
AcDbLine
 62
7
  6
CONTINUOUS
 10
-70.8794317226
 20
74.5971297551
 11
-70.8345306466
 21
74.5826612268
  0
LINE
  5
299
100
AcDbEntity
  8
0
100
AcDbLine
 62
7
  6
CONTINUOUS
 10
-95.4432113605
 20
67.8506457271
 11
-95.4930111212
 21
67.8672748176
  0
LINE
  5
29A
100
AcDbEntity
  8
0
100
AcDbLine
 62
7
  6
CONTINUOUS
 10
-71.6217290417
 20
74.9254369395
 11
-71.5966018961
 21
74.9168502561
  0
LINE
  5
29B
100
AcDbEntity
  8
0
100
AcDbLine
 62
7
  6
CONTINUOUS
 10
-72.1043020923
 20
76.2887868087
 11
-72.3668473051
 21
76.3811598319
  0
LINE
  5
29C
100
AcDbEntity
  8
0
100
AcDbLine
 62
7
  6
CONTINUOUS
 10
-71.6347397421
 20
74.8955081093
 11
-71.6097831931
 21
74.8866075251
  0
LINE
  5
29D
100
AcDbEntity
  8
0
100
AcDbLine
 62
7
  6
CONTINUOUS
 10
-71.6290990371
 20
74.9590001109
 11
-71.5967187971
 21
74.9473167357
  0
LINE
  5
29E
100
AcDbEntity
  8
0
100
AcDbLine
 62
7
  6
CONTINUOUS
 10
-95.283326011
 20
67.6447423239
 11
-94.7502534704
 21
67.4452745694
  0
LINE
  5
29F
100
AcDbEntity
  8
0
100
AcDbLine
 62
7
  6
CONTINUOUS
 10
-95.4431641572
 20
67.8505857146
 11
-94.8739899234
 21
67.6376093612
  0
LINE
  5
2A0
100
AcDbEntity
  8
0
100
AcDbLine
 62
7
  6
CONTINUOUS
 10
-68.6567278622
 20
73.7715792116
 11
-68.5900504569
 21
73.7427708237
  0
LINE
  5
2A1
100
AcDbEntity
  8
0
100
AcDbLine
 62
7
  6
CONTINUOUS
 10
-68.6734004299
 20
73.7374257138
 11
-68.6070410223
 21
73.7081249266
  0
LINE
  5
2A2
100
AcDbEntity
  8
0
100
AcDbLine
 62
7
  6
CONTINUOUS
 10
-83.898344745
 20
75.3855147696
 11
-84.1350494354
 21
75.493576964
  0
LINE
  5
2A3
100
AcDbEntity
  8
0
100
AcDbLine
 62
7
  6
CONTINUOUS
 10
-63.3239815758
 20
64.6024977607
 11
-62.694450117
 21
64.2388975354
  0
LINE
  5
2A4
100
AcDbEntity
  8
0
100
AcDbLine
 62
7
  6
CONTINUOUS
 10
-47.9592708701
 20
62.7726113417
 11
-46.7472814348
 21
62.0725992543
  0
LINE
  5
2A5
100
AcDbEntity
  8
0
100
AcDbLine
 62
7
  6
CONTINUOUS
 10
-35.1385109948
 20
55.3676896441
 11
-22.0837129871
 21
47.8275938937
  0
LINE
  5
2A6
100
AcDbEntity
  8
0
100
AcDbLine
 62
7
  6
CONTINUOUS
 10
-1.3856942562
 20
38.7600115412
 11
24.2317753063
 21
23.9640588777
  0
LINE
  5
2A7
100
AcDbEntity
  8
0
100
AcDbLine
 62
7
  6
CONTINUOUS
 10
-6.0470567699
 20
44.3393170679
 11
-0.1353330257
 21
40.9248664546
  0
LINE
  5
2A8
100
AcDbEntity
  8
0
100
AcDbLine
 62
7
  6
CONTINUOUS
 10
-47.0759065256
 20
68.3957536717
 11
-45.6629766261
 21
67.5796838484
  0
LINE
  5
2A9
100
AcDbEntity
  8
0
100
AcDbLine
 62
7
  6
CONTINUOUS
 10
-42.94369463
 20
69.5034323454
 11
-41.530764733
 21
68.6873625221
  0
LINE
  5
2AA
100
AcDbEntity
  8
0
100
AcDbLine
 62
7
  6
CONTINUOUS
 10
-70.8794603332
 20
74.5971294427
 11
-70.8413288677
 21
74.5748604499
  0
LINE
  5
2AB
100
AcDbEntity
  8
0
100
AcDbLine
 62
7
  6
CONTINUOUS
 10
-66.1694074267
 20
72.5194820359
 11
-66.0719609617
 21
72.4625081646
  0
LINE
  5
2AC
100
AcDbEntity
  8
0
100
AcDbLine
 62
7
  6
CONTINUOUS
 10
-66.1366535628
 20
72.5004031688
 11
-62.1000767414
 21
70.0086760161
  0
LINE
  5
2AD
100
AcDbEntity
  8
0
100
AcDbLine
 62
7
  6
CONTINUOUS
 10
-70.8794603332
 20
74.5971294427
 11
-70.8419983837
 21
74.5733985199
  0
LINE
  5
2AE
100
AcDbEntity
  8
0
100
AcDbLine
 62
7
  6
CONTINUOUS
 10
-62.1000767414
 20
70.0086760161
 11
-62.0776017774
 21
69.9937964878
  0
ARC
  5
2AF
100
AcDbEntity
  8
0
100
AcDbCircle
 62
7
  6
CONTINUOUS
 10
-491.4546122495
 20
-263.9003526212
 40
544.1881343698
100
AcDbArc
 50
37.1871319063
 51
37.3700580084
  0
ARC
  5
2B0
100
AcDbEntity
  8
0
100
AcDbCircle
 62
7
  6
CONTINUOUS
 10
-193.0363567327
 20
-36.0250734222
 40
168.7143063883
100
AcDbArc
 50
37.3796917124
 51
37.5941768656
  0
ARC
  5
2B1
100
AcDbEntity
  8
0
100
AcDbCircle
 62
7
  6
CONTINUOUS
 10
-112.1249981696
 20
-1.7270844669
 40
86.9398362038
100
AcDbArc
 50
50.1631667511
 51
53.1562524232
  0
ARC
  5
2B2
100
AcDbEntity
  8
0
100
AcDbCircle
 62
7
  6
CONTINUOUS
 10
-101.884245306
 20
28.5523698001
 40
0.3536828385
100
AcDbArc
 50
220.6486630505
 51
226.1208300368
  0
ARC
  5
2B3
100
AcDbEntity
  8
0
100
AcDbCircle
 62
7
  6
CONTINUOUS
 10
-92.5240986745
 20
22.380311687
 40
0.3455140537
100
AcDbArc
 50
248.9254789593
 51
253.8422240857
  0
ARC
  5
2B4
100
AcDbEntity
  8
0
100
AcDbCircle
 62
7
  6
CONTINUOUS
 10
-62.53089526
 20
6.9590379272
 40
70.8542365463
100
AcDbArc
 50
105.1987571896
 51
105.4075499925
  0
ARC
  5
2B5
100
AcDbEntity
  8
0
100
AcDbCircle
 62
7
  6
CONTINUOUS
 10
-54.081367775
 20
36.4249354824
 40
52.4837723271
100
AcDbArc
 50
143.9554711564
 51
154.783570719
  0
ARC
  5
2B6
100
AcDbEntity
  8
0
100
AcDbCircle
 62
7
  6
CONTINUOUS
 10
-54.2946910949
 20
36.545710392
 40
52.3593968609
100
AcDbArc
 50
143.9294063733
 51
154.7992989517
  0
ARC
  5
2B7
100
AcDbEntity
  8
0
100
AcDbCircle
 62
7
  6
CONTINUOUS
 10
-54.4657654848
 20
36.6107736274
 40
52.0568317637
100
AcDbArc
 50
154.7883699169
 51
155.515957236
  0
ARC
  5
2B8
100
AcDbEntity
  8
0
100
AcDbCircle
 62
7
  6
CONTINUOUS
 10
-54.7168569612
 20
36.7056427391
 40
51.788515742
100
AcDbArc
 50
155.995498284
 51
157.2850583047
  0
ARC
  5
2B9
100
AcDbEntity
  8
0
100
AcDbCircle
 62
7
  6
CONTINUOUS
 10
-60.3975527957
 20
33.8046420692
 40
48.2376777942
100
AcDbArc
 50
132.833177903
 51
134.1868632686
  0
ARC
  5
2BA
100
AcDbEntity
  8
0
100
AcDbCircle
 62
7
  6
CONTINUOUS
 10
-60.8886434696
 20
34.3572004205
 40
47.4989097772
100
AcDbArc
 50
131.8959526378
 51
132.3230111454
  0
ARC
  5
2BB
100
AcDbEntity
  8
0
100
AcDbCircle
 62
7
  6
CONTINUOUS
 10
-64.9397760683
 20
40.0342095085
 40
40.5103047425
100
AcDbArc
 50
119.3263576361
 51
119.478241437
  0
ARC
  5
2BC
100
AcDbEntity
  8
0
100
AcDbCircle
 62
7
  6
CONTINUOUS
 10
-69.2578947879
 20
41.5842474752
 40
36.8342431157
100
AcDbArc
 50
149.0526743412
 51
151.9708238918
  0
ARC
  5
2BD
100
AcDbEntity
  8
0
100
AcDbCircle
 62
7
  6
CONTINUOUS
 10
-69.5346489918
 20
41.7247920582
 40
36.5239054763
100
AcDbArc
 50
151.961422933
 51
157.4528480055
  0
ARC
  5
2BE
100
AcDbEntity
  8
0
100
AcDbCircle
 62
7
  6
CONTINUOUS
 10
-69.8877671655
 20
41.8747484156
 40
36.1402784661
100
AcDbArc
 50
157.4577522361
 51
157.6616825496
  0
ARC
  5
2BF
100
AcDbEntity
  8
0
100
AcDbCircle
 62
7
  6
CONTINUOUS
 10
-71.3807812965
 20
43.3922471155
 40
34.0401332912
100
AcDbArc
 50
134.0820468908
 51
134.3028228611
  0
ARC
  5
2C0
100
AcDbEntity
  8
0
100
AcDbCircle
 62
7
  6
CONTINUOUS
 10
-72.3529371653
 20
42.7137667325
 40
33.7750088684
100
AcDbArc
 50
105.6787589801
 51
107.3951362911
  0
ARC
  5
2C1
100
AcDbEntity
  8
0
100
AcDbCircle
 62
7
  6
CONTINUOUS
 10
-76.0856720391
 20
43.1496121346
 40
29.7869455568
100
AcDbArc
 50
173.1820724063
 51
179.9754003667
  0
ARC
  5
2C2
100
AcDbEntity
  8
0
100
AcDbCircle
 62
7
  6
CONTINUOUS
 10
-77.8246111114
 20
43.158488378
 40
28.0480040106
100
AcDbArc
 50
179.9920073964
 51
182.5210718013
  0
ARC
  5
2C3
100
AcDbEntity
  8
0
100
AcDbCircle
 62
7
  6
CONTINUOUS
 10
-78.2842291406
 20
43.1401236903
 40
27.5880231017
100
AcDbArc
 50
182.5249559311
 51
182.7027765503
  0
ARC
  5
2C4
100
AcDbEntity
  8
0
100
AcDbCircle
 62
7
  6
CONTINUOUS
 10
-63.4152515253
 20
35.3840676048
 40
26.7528009164
100
AcDbArc
 50
179.615336533
 51
179.9632432718
  0
ARC
  5
2C5
100
AcDbEntity
  8
0
100
AcDbCircle
 62
7
  6
CONTINUOUS
 10
-63.0976748732
 20
35.3425342157
 40
25.7733052783
100
AcDbArc
 50
179.6524821678
 51
179.9998587289
  0
ARC
  5
2C6
100
AcDbEntity
  8
0
100
AcDbCircle
 62
7
  6
CONTINUOUS
 10
-86.5414289279
 20
41.7698941245
 40
19.5990176523
100
AcDbArc
 50
212.6902627452
 51
216.6259944337
  0
ARC
  5
2C7
100
AcDbEntity
  8
0
100
AcDbCircle
 62
7
  6
CONTINUOUS
 10
-86.0424966289
 20
41.1975342202
 40
19.5284764522
100
AcDbArc
 50
204.6374117765
 51
210.4294010109
  0
ARC
  5
2C8
100
AcDbEntity
  8
0
100
AcDbCircle
 62
7
  6
CONTINUOUS
 10
-86.7315187916
 20
41.6304549621
 40
19.3632738058
100
AcDbArc
 50
216.6304301492
 51
216.8517435846
  0
ARC
  5
2C9
100
AcDbEntity
  8
0
100
AcDbCircle
 62
7
  6
CONTINUOUS
 10
-86.8700288117
 20
40.7088251671
 40
18.5674142011
100
AcDbArc
 50
210.422409
 51
214.5810967714
  0
ARC
  5
2CA
100
AcDbEntity
  8
0
100
AcDbCircle
 62
7
  6
CONTINUOUS
 10
6.9867927986
 20
9.04684445
 40
119.4075788196
100
AcDbArc
 50
155.6997795447
 51
155.9162674631
  0
ARC
  5
2CB
100
AcDbEntity
  8
0
100
AcDbCircle
 62
7
  6
CONTINUOUS
 10
-24.5684706211
 20
-5.0502358444
 40
101.0904462541
100
AcDbArc
 50
132.5045549324
 51
132.7530659331
  0
ARC
  5
2CC
100
AcDbEntity
  8
0
100
AcDbCircle
 62
7
  6
CONTINUOUS
 10
-14.8673201606
 20
10.170064167
 40
39.3678453332
100
AcDbArc
 50
144.9885914502
 51
155.0025545855
  0
ARC
  5
2CD
100
AcDbEntity
  8
0
100
AcDbCircle
 62
7
  6
CONTINUOUS
 10
-24.295008247
 20
-0.9103263925
 40
19.6898770591
100
AcDbArc
 50
234.8799463939
 51
235.2557452452
  0
ARC
  5
2CE
100
AcDbEntity
  8
0
100
AcDbCircle
 62
7
  6
CONTINUOUS
 10
-25.7130124951
 20
-0.1117232297
 40
19.672110008
100
AcDbArc
 50
233.9663593303
 51
239.9878263505
  0
ARC
  5
2CF
100
AcDbEntity
  8
0
100
AcDbCircle
 62
7
  6
CONTINUOUS
 10
-24.3167374339
 20
-0.9425560359
 40
19.6510100604
100
AcDbArc
 50
235.2542489978
 51
239.9902418958
  0
ARC
  5
2D0
100
AcDbEntity
  8
0
100
AcDbCircle
 62
7
  6
CONTINUOUS
 10
-23.78589576
 20
-0.0237459762
 40
18.2121351911
100
AcDbArc
 50
235.0902715306
 51
239.9897848428
  0
ARC
  5
2D1
100
AcDbEntity
  8
0
100
AcDbCircle
 62
7
  6
CONTINUOUS
 10
7.9501198178
 20
-17.3468882132
 40
4.1299166906
100
AcDbArc
 50
178.6575003954
 51
179.9978218777
  0
ARC
  5
2D2
100
AcDbEntity
  8
0
100
AcDbCircle
 62
7
  6
CONTINUOUS
 10
14.6887700743
 20
11.0623651917
 40
2.5914425641
100
AcDbArc
 50
39.3047821929
 51
59.9657840296
  0
ARC
  5
2D3
100
AcDbEntity
  8
0
100
AcDbCircle
 62
7
  6
CONTINUOUS
 10
-1.7257077113
 20
9.815948096
 40
1.8016467142
100
AcDbArc
 50
44.5496196992
 51
59.9344198004
  0
ARC
  5
2D4
100
AcDbEntity
  8
0
100
AcDbCircle
 62
7
  6
CONTINUOUS
 10
-27.347230903
 20
18.024522329
 40
33.6034413706
100
AcDbArc
 50
342.791293949
 51
350.2092499035
  0
ARC
  5
2D5
100
AcDbEntity
  8
0
100
AcDbCircle
 62
7
  6
CONTINUOUS
 10
-19.6575767802
 20
17.5980665424
 40
25.8680145453
100
AcDbArc
 50
3.136017934
 51
9.2239318213
  0
ARC
  5
2D6
100
AcDbEntity
  8
0
100
AcDbCircle
 62
7
  6
CONTINUOUS
 10
-11.9176888691
 20
20.0186555239
 40
24.4304000215
100
AcDbArc
 50
92.7653098073
 51
95.9456809889
  0
ARC
  5
2D7
100
AcDbEntity
  8
0
100
AcDbCircle
 62
7
  6
CONTINUOUS
 10
-24.6243596356
 20
23.2844811665
 40
23.4982032702
100
AcDbArc
 50
102.3258156385
 51
105.0094540024
  0
ARC
  5
2D8
100
AcDbEntity
  8
0
100
AcDbCircle
 62
7
  6
CONTINUOUS
 10
-11.9736317036
 20
21.2204492341
 40
23.2273068956
100
AcDbArc
 50
86.1992173945
 51
92.7704970647
  0
ARC
  5
2D9
100
AcDbEntity
  8
0
100
AcDbCircle
 62
7
  6
CONTINUOUS
 10
-11.9101138297
 20
22.4820308588
 40
21.9642989339
100
AcDbArc
 50
82.0746534455
 51
86.1463962228
  0
ARC
  5
2DA
100
AcDbEntity
  8
0
100
AcDbCircle
 62
7
  6
CONTINUOUS
 10
-11.7946918253
 20
23.3226733583
 40
21.1157711364
100
AcDbArc
 50
75.7479965876
 51
82.0703377354
  0
ARC
  5
2DB
100
AcDbEntity
  8
0
100
AcDbCircle
 62
7
  6
CONTINUOUS
 10
-11.6157957797
 20
24.0745833556
 40
20.3429646607
100
AcDbArc
 50
71.1491189598
 51
75.7149857067
  0
ARC
  5
2DC
100
AcDbEntity
  8
0
100
AcDbCircle
 62
7
  6
CONTINUOUS
 10
-11.4646752438
 20
24.515875008
 40
19.8765147173
100
AcDbArc
 50
64.5010246965
 51
71.1503606564
  0
ARC
  5
2DD
100
AcDbEntity
  8
0
100
AcDbCircle
 62
7
  6
CONTINUOUS
 10
-9.9713794801
 20
23.8934656178
 40
19.6676023233
100
AcDbArc
 50
59.9925255051
 51
64.7228149796
  0
ARC
  5
2DE
100
AcDbEntity
  8
0
100
AcDbCircle
 62
7
  6
CONTINUOUS
 10
-11.3670239811
 20
24.7293320461
 40
19.6418118771
100
AcDbArc
 50
59.9891973528
 51
64.4900775611
  0
ARC
  5
2DF
100
AcDbEntity
  8
0
100
AcDbCircle
 62
7
  6
CONTINUOUS
 10
-79.0782024218
 20
44.0298728379
 40
27.488650415
100
AcDbArc
 50
179.9577884744
 51
185.4330432659
  0
ARC
  5
2E0
100
AcDbEntity
  8
0
100
AcDbCircle
 62
7
  6
CONTINUOUS
 10
-80.0206864094
 20
46.0156890263
 40
27.0458916028
100
AcDbArc
 50
211.4544128555
 51
211.8460394666
  0
ARC
  5
2E1
100
AcDbEntity
  8
0
100
AcDbCircle
 62
7
  6
CONTINUOUS
 10
-80.0729286087
 20
45.9916760085
 40
26.9890143251
100
AcDbArc
 50
210.8033516851
 51
211.0922012124
  0
ARC
  5
2E2
100
AcDbEntity
  8
0
100
AcDbCircle
 62
7
  6
CONTINUOUS
 10
-79.8939548721
 20
43.9594260497
 40
26.6698935842
100
AcDbArc
 50
185.4483117514
 51
185.7398034362
  0
ARC
  5
2E3
100
AcDbEntity
  8
0
100
AcDbCircle
 62
7
  6
CONTINUOUS
 10
-80.3913734429
 20
45.7888422308
 40
26.6113115017
100
AcDbArc
 50
211.8522606297
 51
212.5233679859
  0
ARC
  5
2E4
100
AcDbEntity
  8
0
100
AcDbCircle
 62
7
  6
CONTINUOUS
 10
-80.5478873489
 20
45.6887349964
 40
26.425521317
100
AcDbArc
 50
212.5228065295
 51
213.8699912065
  0
ARC
  5
2E5
100
AcDbEntity
  8
0
100
AcDbCircle
 62
7
  6
CONTINUOUS
 10
-78.582181006
 20
50.4068341861
 40
25.3885032513
100
AcDbArc
 50
69.5291466304
 51
70.3094942731
  0
ARC
  5
2E6
100
AcDbEntity
  8
0
100
AcDbCircle
 62
7
  6
CONTINUOUS
 10
-78.0288561004
 20
51.9210388869
 40
23.7764455357
100
AcDbArc
 50
71.9921000519
 51
72.3869996319
  0
ARC
  5
2E7
100
AcDbEntity
  8
0
100
AcDbCircle
 62
7
  6
CONTINUOUS
 10
-77.6183920395
 20
52.3527693874
 40
23.7517250415
100
AcDbArc
 50
104.8375602919
 51
105.0474403401
  0
ARC
  5
2E8
100
AcDbEntity
  8
0
100
AcDbCircle
 62
7
  6
CONTINUOUS
 10
-78.031638866
 20
52.0412394949
 40
23.6679046275
100
AcDbArc
 50
66.6649047872
 51
72.292530731
  0
ARC
  5
2E9
100
AcDbEntity
  8
0
100
AcDbCircle
 62
7
  6
CONTINUOUS
 10
-77.9883778171
 20
52.044002296
 40
23.6469918449
100
AcDbArc
 50
70.3275579059
 51
71.9932667199
  0
ARC
  5
2EA
100
AcDbEntity
  8
0
100
AcDbCircle
 62
7
  6
CONTINUOUS
 10
-86.9205777099
 20
46.187647735
 40
23.4846843691
100
AcDbArc
 50
229.5398567826
 51
240.1299638722
  0
ARC
  5
2EB
100
AcDbEntity
  8
0
100
AcDbCircle
 62
7
  6
CONTINUOUS
 10
-77.9159827549
 20
52.3102870035
 40
23.3750518426
100
AcDbArc
 50
59.8327250127
 51
66.6639832122
  0
ARC
  5
2EC
100
AcDbEntity
  8
0
100
AcDbCircle
 62
7
  6
CONTINUOUS
 10
-77.892164545
 20
52.3024183629
 40
23.3713105827
100
AcDbArc
 50
66.7239677977
 51
69.4886908025
  0
ARC
  5
2ED
100
AcDbEntity
  8
0
100
AcDbCircle
 62
7
  6
CONTINUOUS
 10
-87.0716360311
 20
45.9393709595
 40
23.1941760271
100
AcDbArc
 50
229.5211906075
 51
240.1480591139
  0
ARC
  5
2EE
100
AcDbEntity
  8
0
100
AcDbCircle
 62
7
  6
CONTINUOUS
 10
-77.8068005374
 20
52.4979249772
 40
23.157978261
100
AcDbArc
 50
59.832994813
 51
66.5471296202
  0
ARC
  5
2EF
100
AcDbEntity
  8
0
100
AcDbCircle
 62
7
  6
CONTINUOUS
 10
-76.76636114
 20
52.8287947574
 40
23.0644062079
100
AcDbArc
 50
102.0755978523
 51
106.9969747217
  0
ARC
  5
2F0
100
AcDbEntity
  8
0
100
AcDbCircle
 62
7
  6
CONTINUOUS
 10
-77.0836216383
 20
54.2552125726
 40
21.603183235
100
AcDbArc
 50
97.4929215814
 51
102.0442206262
  0
ARC
  5
2F1
100
AcDbEntity
  8
0
100
AcDbCircle
 62
7
  6
CONTINUOUS
 10
-77.7362671352
 20
57.9814613736
 40
18.0425691599
100
AcDbArc
 50
67.4212567103
 51
70.1059885521
  0
ARC
  5
2F2
100
AcDbEntity
  8
0
100
AcDbCircle
 62
7
  6
CONTINUOUS
 10
-77.7192367857
 20
58.0233758669
 40
17.9973284528
100
AcDbArc
 50
66.949255217
 51
67.4200846308
  0
ARC
  5
2F3
100
AcDbEntity
  8
0
100
AcDbCircle
 62
7
  6
CONTINUOUS
 10
-76.9355653635
 20
59.3321606788
 40
16.4738301612
100
AcDbArc
 50
68.1951879252
 51
71.0896955701
  0
ARC
  5
2F4
100
AcDbEntity
  8
0
100
AcDbCircle
 62
7
  6
CONTINUOUS
 10
-76.8790140211
 20
59.4748096798
 40
16.3203812809
100
AcDbArc
 50
66.0423856283
 51
68.193499215
  0
ARC
  5
2F5
100
AcDbEntity
  8
0
100
AcDbCircle
 62
7
  6
CONTINUOUS
 10
-84.2404082925
 20
74.7087768648
 40
0.6879260994
100
AcDbArc
 50
37.2944569904
 51
47.4511549531
  0
ARC
  5
2F6
100
AcDbEntity
  8
0
100
AcDbCircle
 62
7
  6
CONTINUOUS
 10
-84.2183337138
 20
74.7261631394
 40
0.6598306793
100
AcDbArc
 50
29.091268676
 51
37.2548518477
  0
ARC
  5
2F7
100
AcDbEntity
  8
0
100
AcDbCircle
 62
7
  6
CONTINUOUS
 10
-61.8843517804
 20
57.1114405127
 40
48.3071788084
100
AcDbArc
 50
211.2456599689
 51
211.4560626942
  0
ARC
  5
2F8
100
AcDbEntity
  8
0
100
AcDbCircle
 62
7
  6
CONTINUOUS
 10
-64.7158935468
 20
44.4953512847
 40
40.9009600166
100
AcDbArc
 50
179.7005076326
 51
180.0105526621
  0
ARC
  5
2F9
100
AcDbEntity
  8
0
100
AcDbCircle
 62
7
  6
CONTINUOUS
 10
-65.552853877
 20
44.4751790466
 40
40.0635332459
100
AcDbArc
 50
180.5765947961
 51
182.1108771714
  0
ARC
  5
2FA
100
AcDbEntity
  8
0
100
AcDbCircle
 62
7
  6
CONTINUOUS
 10
-71.917082708
 20
43.9561586623
 40
33.2619530619
100
AcDbArc
 50
128.7708070914
 51
134.0942034945
  0
ARC
  5
2FB
100
AcDbEntity
  8
0
100
AcDbCircle
 62
7
  6
CONTINUOUS
 10
-72.7231484111
 20
44.0163723137
 40
32.4208237434
100
AcDbArc
 50
105.4421207701
 51
105.6709553394
  0
ARC
  5
2FC
100
AcDbEntity
  8
0
100
AcDbCircle
 62
7
  6
CONTINUOUS
 10
-72.9840853899
 20
45.2537139132
 40
31.5821466248
100
AcDbArc
 50
125.4976720162
 51
128.7356872012
  0
ARC
  5
2FD
100
AcDbEntity
  8
0
100
AcDbCircle
 62
7
  6
CONTINUOUS
 10
-73.3528536008
 20
49.6499646787
 40
26.7377177818
100
AcDbArc
 50
88.0319337777
 51
88.2250332868
  0
ARC
  5
2FE
100
AcDbEntity
  8
0
100
AcDbCircle
 62
7
  6
CONTINUOUS
 10
-63.2051278688
 20
48.2938142973
 40
16.3534610522
100
AcDbArc
 50
83.9239225249
 51
87.2597122168
  0
ARC
  5
2FF
100
AcDbEntity
  8
0
100
AcDbCircle
 62
7
  6
CONTINUOUS
 10
-63.6059489341
 20
83.4752887425
 40
67.2952688001
100
AcDbArc
 50
235.0793752229
 51
238.7411585915
  0
ARC
  5
300
100
AcDbEntity
  8
0
100
AcDbCircle
 62
7
  6
CONTINUOUS
 10
-60.0724459706
 20
77.0857238076
 40
59.5322426523
100
AcDbArc
 50
238.0880339479
 51
242.6041284163
  0
ARC
  5
301
100
AcDbEntity
  8
0
100
AcDbCircle
 62
7
  6
CONTINUOUS
 10
-61.6074027255
 20
72.3035287594
 40
46.7188766738
100
AcDbArc
 50
226.3633278075
 51
232.0134646634
  0
ARC
  5
302
100
AcDbEntity
  8
0
100
AcDbCircle
 62
7
  6
CONTINUOUS
 10
-64.4236991655
 20
66.2630112011
 40
40.0624289301
100
AcDbArc
 50
204.3492441078
 51
205.1669034246
  0
ARC
  5
303
100
AcDbEntity
  8
0
100
AcDbCircle
 62
7
  6
CONTINUOUS
 10
-66.0490501871
 20
74.5294771828
 40
5.6812691785
100
AcDbArc
 50
177.0409505369
 51
180.0146429397
  0
ARC
  5
304
100
AcDbEntity
  8
0
100
AcDbCircle
 62
7
  6
CONTINUOUS
 10
-66.7075840034
 20
74.5588009544
 40
5.022101843
100
AcDbArc
 50
175.7740101973
 51
176.9872120931
  0
ARC
  5
305
100
AcDbEntity
  8
0
100
AcDbCircle
 62
7
  6
CONTINUOUS
 10
-70.1489812862
 20
74.3146889687
 40
1.5790209441
100
AcDbArc
 50
172.4044855123
 51
173.0409639209
  0
ARC
  5
306
100
AcDbEntity
  8
0
100
AcDbCircle
 62
7
  6
CONTINUOUS
 10
-72.5142039141
 20
75.5027342533
 40
0.8788305969
100
AcDbArc
 50
359.7099307544
 51
0.4074384868
  0
ARC
  5
307
100
AcDbEntity
  8
0
100
AcDbCircle
 62
7
  6
CONTINUOUS
 10
-72.5057631182
 20
75.5030211386
 40
0.8703880027
100
AcDbArc
 50
0.392505157
 51
14.7091509004
  0
ARC
  5
308
100
AcDbEntity
  8
0
100
AcDbCircle
 62
7
  6
CONTINUOUS
 10
-72.4824976986
 20
75.5080893708
 40
0.8465987665
100
AcDbArc
 50
14.7771837143
 51
17.4840451947
  0
ARC
  5
309
100
AcDbEntity
  8
0
100
AcDbCircle
 62
7
  6
CONTINUOUS
 10
-62.9360495525
 20
123.935738497
 40
105.571118517
100
AcDbArc
 50
253.4969443227
 51
253.8285601982
  0
ARC
  5
30A
100
AcDbEntity
  8
0
100
AcDbCircle
 62
7
  6
CONTINUOUS
 10
-60.6324108959
 20
88.2670476933
 40
72.9344241055
100
AcDbArc
 50
238.7273148365
 51
240.2527921382
  0
ARC
  5
30B
100
AcDbEntity
  8
0
100
AcDbCircle
 62
7
  6
CONTINUOUS
 10
-31.3386655516
 20
44.7254948858
 40
74.2785675767
100
AcDbArc
 50
180.1833354465
 51
180.504082944
  0
ARC
  5
30C
100
AcDbEntity
  8
0
100
AcDbCircle
 62
7
  6
CONTINUOUS
 10
-58.7330759925
 20
74.6272047191
 40
38.9752892934
100
AcDbArc
 50
216.1642450966
 51
222.5058268719
  0
ARC
  5
30D
100
AcDbEntity
  8
0
100
AcDbCircle
 62
7
  6
CONTINUOUS
 10
-51.3416600312
 20
108.4543026121
 40
95.1993589227
100
AcDbArc
 50
240.2482465047
 51
241.4244509869
  0
ARC
  5
30E
100
AcDbEntity
  8
0
100
AcDbCircle
 62
7
  6
CONTINUOUS
 10
-51.7017361817
 20
107.7767078611
 40
94.4320736374
100
AcDbArc
 50
241.4196632431
 51
250.0626995586
  0
ARC
  5
30F
100
AcDbEntity
  8
0
100
AcDbCircle
 62
7
  6
CONTINUOUS
 10
-51.8279729244
 20
107.4733435022
 40
94.1038466357
100
AcDbArc
 50
250.2403351259
 51
250.5438549095
  0
ARC
  5
310
100
AcDbEntity
  8
0
100
AcDbCircle
 62
7
  6
CONTINUOUS
 10
-52.4901447497
 20
105.4691530274
 40
91.9923511051
100
AcDbArc
 50
250.2079759162
 51
250.5642892104
  0
ARC
  5
311
100
AcDbEntity
  8
0
100
AcDbCircle
 62
7
  6
CONTINUOUS
 10
-52.5940065613
 20
105.1800633999
 40
91.6851702742
100
AcDbArc
 50
250.0340448953
 51
250.2078751312
  0
ARC
  5
312
100
AcDbEntity
  8
0
100
AcDbCircle
 62
7
  6
CONTINUOUS
 10
-57.1262991274
 20
86.6125889423
 40
72.6077466867
100
AcDbArc
 50
248.7332746394
 51
248.9737594403
  0
ARC
  5
313
100
AcDbEntity
  8
0
100
AcDbCircle
 62
7
  6
CONTINUOUS
 10
-57.3023028292
 20
86.1605461812
 40
72.1226488024
100
AcDbArc
 50
248.447537879
 51
248.7333205074
  0
SPLINE
  5
314
100
AcDbEntity
  8
0
100
AcDbSpline
 62
7
  6
CONTINUOUS
 70
0
 71
3
 72
16
 73
12
 74
0
 42
0.0000001
 43
0.0000001
 44
0.0000000001
 40
0.0
 40
0.0
 40
0.0
 40
0.0
 40
0.1238415315
 40
0.2477799722
 40
0.3720539277
 40
0.497052222
 40
0.6229259584
 40
0.7491555416
 40
0.8122598642
 40
0.8751567794
 40
1.0
 40
1.0
 40
1.0
 40
1.0
 10
17.5333393229
 20
-6.2424578313
 30
0.0
 10
17.7719112182
 20
-6.380250459
 30
0.0
 10
18.2978222491
 20
-6.5798402351
 30
0.0
 10
19.1377042295
 20
-6.6165654067
 30
0.0
 10
19.9518086516
 20
-6.3994769509
 30
0.0
 10
20.6740467728
 20
-5.9605439095
 30
0.0
 10
21.2577403679
 20
-5.3452230574
 30
0.0
 10
21.6005042468
 20
-4.7240946095
 30
0.0
 10
21.7732910792
 20
-4.1887125357
 30
0.0
 10
21.874538418
 20
-3.638834903
 30
0.0
 10
21.8661653995
 20
-3.214182689
 30
0.0
 10
21.8208054241
 20
-2.9401777989
 30
0.0
  0
SPLINE
  5
315
100
AcDbEntity
  8
0
100
AcDbSpline
 62
7
  6
CONTINUOUS
 70
0
 71
3
 72
11
 73
7
 74
0
 42
0.0000001
 43
0.0000001
 44
0.0000000001
 40
0.0
 40
0.0
 40
0.0
 40
0.0
 40
0.2504874141
 40
0.5004646619
 40
0.7502534646
 40
1.0
 40
1.0
 40
1.0
 40
1.0
 10
21.8207970498
 20
-2.9401272097
 30
0.0
 10
21.7885982114
 20
-2.7456459146
 30
0.0
 10
21.6840375595
 20
-2.3623946923
 30
0.0
 10
21.4083808794
 20
-1.8350444389
 30
0.0
 10
21.0233774076
 20
-1.3817895923
 30
0.0
 10
20.7044034329
 20
-1.1451072818
 30
0.0
 10
20.5342062803
 20
-1.0468060408
 30
0.0
  0
SPLINE
  5
316
100
AcDbEntity
  8
0
100
AcDbSpline
 62
7
  6
CONTINUOUS
 70
0
 71
3
 72
17
 73
13
 74
0
 42
0.0000001
 43
0.0000001
 44
0.0000000001
 40
0.0
 40
0.0
 40
0.0
 40
0.0
 40
0.1304625717
 40
0.2699797281
 40
0.4104007426
 40
0.5431594643
 40
0.6632047683
 40
0.7191646125
 40
0.77341851
 40
0.8273763988
 40
0.8824982417
 40
1.0
 40
1.0
 40
1.0
 40
1.0
 10
20.973709064
 20
-3.917189444
 30
0.0
 10
20.9933398426
 20
-4.035779118
 30
0.0
 10
20.9844945085
 20
-4.2904224365
 30
0.0
 10
20.8530658915
 20
-4.6504874999
 30
0.0
 10
20.6226401065
 20
-4.9600392913
 30
0.0
 10
20.3241230937
 20
-5.1761517623
 30
0.0
 10
20.0404467573
 20
-5.2517624467
 30
0.0
 10
19.8272136836
 20
-5.2323006492
 30
0.0
 10
19.6830709442
 20
-5.1811616837
 30
0.0
 10
19.557680245
 20
-5.0948136598
 30
0.0
 10
19.4199405713
 20
-4.9354904275
 30
0.0
 10
19.3636042248
 20
-4.7796255805
 30
0.0
 10
19.345921776
 20
-4.6728175188
 30
0.0
  0
SPLINE
  5
317
100
AcDbEntity
  8
0
100
AcDbSpline
 62
7
  6
CONTINUOUS
 70
0
 71
3
 72
17
 73
13
 74
0
 42
0.0000001
 43
0.0000001
 44
0.0000000001
 40
0.0
 40
0.0
 40
0.0
 40
0.0
 40
0.1304625717
 40
0.2699797282
 40
0.4104007426
 40
0.5431594643
 40
0.6632047684
 40
0.7191646125
 40
0.77341851
 40
0.8273763988
 40
0.8824982417
 40
1.0
 40
1.0
 40
1.0
 40
1.0
 10
19.345921776
 20
-4.6728175188
 30
0.0
 10
19.3262909974
 20
-4.5542278448
 30
0.0
 10
19.3351363315
 20
-4.2995845263
 30
0.0
 10
19.466564951
 20
-3.9395194629
 30
0.0
 10
19.6969907335
 20
-3.6299676715
 30
0.0
 10
19.9955077463
 20
-3.4138552005
 30
0.0
 10
20.2791840852
 20
-3.3382445161
 30
0.0
 10
20.4924171564
 20
-3.3577063136
 30
0.0
 10
20.6365598958
 20
-3.4088452791
 30
0.0
 10
20.7619505949
 20
-3.495193303
 30
0.0
 10
20.8996902687
 20
-3.6545165353
 30
0.0
 10
20.9560266152
 20
-3.8103813823
 30
0.0
 10
20.973709064
 20
-3.917189444
 30
0.0
  0
SPLINE
  5
318
100
AcDbEntity
  8
0
100
AcDbSpline
 62
7
  6
CONTINUOUS
 70
0
 71
3
 72
11
 73
7
 74
0
 42
0.0000001
 43
0.0000001
 44
0.0000000001
 40
0.0
 40
0.0
 40
0.0
 40
0.0
 40
0.2372103999
 40
0.4801614101
 40
0.7335009664
 40
1.0
 40
1.0
 40
1.0
 40
1.0
 10
17.5333453529
 20
-6.2424473919
 30
0.0
 10
17.4103718447
 20
-6.1714379708
 30
0.0
 10
17.1784164031
 20
-5.9959589136
 30
0.0
 10
16.8995365875
 20
-5.6518185605
 30
0.0
 10
16.6966392895
 20
-5.2389203337
 30
0.0
 10
16.6181685803
 20
-4.9354577631
 30
0.0
 10
16.5921120919
 20
-4.7780638564
 30
0.0
  0
SPLINE
  5
319
100
AcDbEntity
  8
0
100
AcDbSpline
 62
7
  6
CONTINUOUS
 70
0
 71
3
 72
17
 73
13
 74
0
 42
0.0000001
 43
0.0000001
 44
0.0000000001
 40
0.0
 40
0.0
 40
0.0
 40
0.0
 40
0.1241620804
 40
0.2558658162
 40
0.3235994202
 40
0.3918056672
 40
0.5271453527
 40
0.6576905943
 40
0.7801850692
 40
0.8935313427
 40
0.9474468883
 40
1.0
 40
1.0
 40
1.0
 40
1.0
 10
16.5921120919
 20
-4.7780638564
 30
0.0
 10
16.5500055975
 20
-4.5237119851
 30
0.0
 10
16.5387489372
 20
-3.9855331682
 30
0.0
 10
16.686225226
 20
-3.3240432059
 30
0.0
 10
16.8937565025
 20
-2.807484874
 30
0.0
 10
17.1592924891
 20
-2.3096584478
 30
0.0
 10
17.5825299764
 20
-1.7526436131
 30
0.0
 10
18.2049780051
 20
-1.2287316434
 30
0.0
 10
18.8958665344
 20
-0.8905239378
 30
0.0
 10
19.4997401882
 20
-0.7876255406
 30
0.0
 10
19.9564304102
 20
-0.8274007494
 30
0.0
 10
20.1712343367
 20
-0.8855841179
 30
0.0
 10
20.27343637
 20
-0.9238269446
 30
0.0
  0
SPLINE
  5
31A
100
AcDbEntity
  8
0
100
AcDbSpline
 62
7
  6
CONTINUOUS
 70
0
 71
3
 72
20
 73
16
 74
0
 42
0.0000001
 43
0.0000001
 44
0.0000000001
 40
0.0
 40
0.0
 40
0.0
 40
0.0
 40
0.0621237607
 40
0.124254143
 40
0.1864206747
 40
0.2486514666
 40
0.3110243756
 40
0.3736230066
 40
0.4991948582
 40
0.6253193326
 40
0.7507941302
 40
0.8133298635
 40
0.8756603983
 40
0.9378569715
 40
1.0
 40
1.0
 40
1.0
 40
1.0
 10
12.9849643963
 20
8.1101943142
 30
0.0
 10
13.1303175194
 20
8.0262423079
 30
0.0
 10
13.4383605406
 20
7.8864839158
 30
0.0
 10
13.9316169404
 20
7.7705076326
 30
0.0
 10
14.4382797168
 20
7.7506116221
 30
0.0
 10
14.940242439
 20
7.8250976632
 30
0.0
 10
15.4217075594
 20
7.9887782832
 30
0.0
 10
16.0182383882
 20
8.3146639688
 30
0.0
 10
16.6521953677
 20
8.9034167613
 30
0.0
 10
17.1593014045
 20
9.8049144122
 30
0.0
 10
17.3324211091
 20
10.6523082775
 30
0.0
 10
17.2995746901
 20
11.3307367301
 30
0.0
 10
17.1877755538
 20
11.8265004274
 30
0.0
 10
16.9889010925
 20
12.2929540386
 30
0.0
 10
16.8004804737
 20
12.5740038829
 30
0.0
 10
16.6940328989
 20
12.7038571258
 30
0.0
  0
SPLINE
  5
31B
100
AcDbEntity
  8
0
100
AcDbSpline
 62
7
  6
CONTINUOUS
 70
0
 71
3
 72
17
 73
13
 74
0
 42
0.0000001
 43
0.0000001
 44
0.0000000001
 40
0.0
 40
0.0
 40
0.0
 40
0.0
 40
0.1151905235
 40
0.2432706484
 40
0.3816200574
 40
0.5225764875
 40
0.6573452108
 40
0.7799156446
 40
0.8368324849
 40
0.8915789299
 40
0.9454974295
 40
1.0
 40
1.0
 40
1.0
 40
1.0
 10
14.9495209397
 20
9.3297338411
 30
0.0
 10
14.8822384987
 20
9.4118121478
 30
0.0
 10
14.7850006235
 20
9.623691752
 30
0.0
 10
14.7750113014
 20
9.9820967807
 30
0.0
 10
14.8847510921
 20
10.3471198099
 30
0.0
 10
15.0984278758
 20
10.6698157558
 30
0.0
 10
15.3865853919
 20
10.9064700983
 30
0.0
 10
15.66791678
 20
11.0049294239
 30
0.0
 10
15.8855766114
 20
11.0047546084
 30
0.0
 10
16.0352392889
 20
10.9675533772
 30
0.0
 10
16.1683962108
 20
10.89428519
 30
0.0
 10
16.2415243831
 20
10.8243982457
 30
0.0
 10
16.2733600446
 20
10.7855634847
 30
0.0
  0
SPLINE
  5
31C
100
AcDbEntity
  8
0
100
AcDbSpline
 62
7
  6
CONTINUOUS
 70
0
 71
3
 72
17
 73
13
 74
0
 42
0.0000001
 43
0.0000001
 44
0.0000000001
 40
0.0
 40
0.0
 40
0.0
 40
0.0
 40
0.1151905235
 40
0.2432706484
 40
0.3816200574
 40
0.5225764875
 40
0.6573452108
 40
0.7799156446
 40
0.8368324849
 40
0.8915789299
 40
0.9454974295
 40
1.0
 40
1.0
 40
1.0
 40
1.0
 10
16.2733600446
 20
10.7855634847
 30
0.0
 10
16.3406424856
 20
10.7034851779
 30
0.0
 10
16.4378803607
 20
10.4916055737
 30
0.0
 10
16.4478696803
 20
10.133200545
 30
0.0
 10
16.3381298922
 20
9.7681775159
 30
0.0
 10
16.1244531059
 20
9.44548157
 30
0.0
 10
15.8362955898
 20
9.2088272274
 30
0.0
 10
15.5549642017
 20
9.1103679019
 30
0.0
 10
15.3373043729
 20
9.1105427174
 30
0.0
 10
15.1876416928
 20
9.1477439485
 30
0.0
 10
15.0544847734
 20
9.2210121357
 30
0.0
 10
14.9813565986
 20
9.29089908
 30
0.0
 10
14.9495209397
 20
9.3297338411
 30
0.0
  0
SPLINE
  5
31D
100
AcDbEntity
  8
0
100
AcDbSpline
 62
7
  6
CONTINUOUS
 70
0
 71
3
 72
15
 73
11
 74
0
 42
0.0000001
 43
0.0000001
 44
0.0000000001
 40
0.0
 40
0.0
 40
0.0
 40
0.0
 40
0.1089181951
 40
0.2264475033
 40
0.3527941975
 40
0.4856195278
 40
0.6209445591
 40
0.7542396256
 40
0.8814465242
 40
1.0
 40
1.0
 40
1.0
 40
1.0
 10
12.4996613283
 20
8.5243017715
 30
0.0
 10
12.3554221528
 20
8.700256271
 30
0.0
 10
12.1220050199
 20
9.1236915633
 30
0.0
 10
11.978346087
 20
9.8559573987
 30
0.0
 10
12.0315462371
 20
10.649020311
 30
0.0
 10
12.2750804542
 20
11.4432834748
 30
0.0
 10
12.6890035989
 20
12.1798507037
 30
0.0
 10
13.2424962028
 20
12.8032059619
 30
0.0
 10
13.8938177399
 20
13.2658232409
 30
0.0
 10
14.3819895728
 20
13.4491273269
 30
0.0
 10
14.6245658339
 20
13.498981055
 30
0.0
  0
SPLINE
  5
31E
100
AcDbEntity
  8
0
100
AcDbSpline
 62
7
  6
CONTINUOUS
 70
0
 71
3
 72
10
 73
6
 74
0
 42
0.0000001
 43
0.0000001
 44
0.0000000001
 40
0.0
 40
0.0
 40
0.0
 40
0.0
 40
0.5127934482
 40
0.7582894598
 40
1.0
 40
1.0
 40
1.0
 40
1.0
 10
14.6245658339
 20
13.498981055
 30
0.0
 10
14.8592129923
 20
13.5472052131
 30
0.0
 10
15.2224395683
 20
13.5650853246
 30
0.0
 10
15.6790865544
 20
13.45692643
 30
0.0
 10
15.8880540842
 20
13.3623209778
 30
0.0
 10
15.9858319455
 20
13.3058471334
 30
0.0
  0
SPLINE
  5
31F
100
AcDbEntity
  8
0
100
AcDbSpline
 62
7
  6
CONTINUOUS
 70
0
 71
3
 72
9
 73
5
 74
0
 42
0.0000001
 43
0.0000001
 44
0.0000000001
 40
0.0
 40
0.0
 40
0.0
 40
0.0
 40
0.4966274665
 40
1.0
 40
1.0
 40
1.0
 40
1.0
 10
12.9849637994
 20
8.110193283
 30
0.0
 10
12.8931364012
 20
8.1632303016
 30
0.0
 10
12.7177500413
 20
8.287388956
 30
0.0
 10
12.5678027465
 20
8.4411785113
 30
0.0
 10
12.4996613283
 20
8.5243017715
 30
0.0
  0
SPLINE
  5
320
100
AcDbEntity
  8
0
100
AcDbSpline
 62
7
  6
CONTINUOUS
 70
0
 71
3
 72
19
 73
15
 74
0
 42
0.0000001
 43
0.0000001
 44
0.0000000001
 40
0.0
 40
0.0
 40
0.0
 40
0.0
 40
0.0621088723
 40
0.124221102
 40
0.1863580365
 40
0.248552359
 40
0.3728967359
 40
0.4981737483
 40
0.5613183408
 40
0.6245656503
 40
0.6877790589
 40
0.7508301771
 40
0.8758384216
 40
1.0
 40
1.0
 40
1.0
 40
1.0
 10
-6.2822609909
 20
-12.6264558507
 30
0.0
 10
-6.149499862
 20
-12.7031350649
 30
0.0
 10
-5.8695862867
 20
-12.8329975027
 30
0.0
 10
-5.4223837089
 20
-12.9501809157
 30
0.0
 10
-4.961233572
 20
-12.9874051009
 30
0.0
 10
-4.3473551858
 20
-12.9315674681
 30
0.0
 10
-3.6083342534
 20
-12.6693550969
 30
0.0
 10
-2.9847698592
 20
-12.1940150671
 30
0.0
 10
-2.5814942395
 20
-11.7192303728
 30
0.0
 10
-2.3309831937
 20
-11.3219655844
 30
0.0
 10
-2.1390136792
 20
-10.8935834592
 30
0.0
 10
-1.9678516365
 20
-10.2955755773
 30
0.0
 10
-1.920188412
 20
-9.5142551866
 30
0.0
 10
-2.0787697713
 20
-8.9066344308
 30
0.0
 10
-2.2049199406
 20
-8.6273102371
 30
0.0
  0
SPLINE
  5
321
100
AcDbEntity
  8
0
100
AcDbSpline
 62
7
  6
CONTINUOUS
 70
0
 71
3
 72
9
 73
5
 74
0
 42
0.0000001
 43
0.0000001
 44
0.0000000001
 40
0.0
 40
0.0
 40
0.0
 40
0.0
 40
0.5001602294
 40
1.0
 40
1.0
 40
1.0
 40
1.0
 10
-2.2049430927
 20
-8.6272589749
 30
0.0
 10
-2.3167477154
 20
-8.3797126119
 30
0.0
 10
-2.6166880427
 20
-7.9154417371
 30
0.0
 10
-3.0463343106
 20
-7.5665681575
 30
0.0
 10
-3.2813940335
 20
-7.4308040627
 30
0.0
  0
SPLINE
  5
322
100
AcDbEntity
  8
0
100
AcDbSpline
 62
7
  6
CONTINUOUS
 70
0
 71
3
 72
9
 73
5
 74
0
 42
0.0000001
 43
0.0000001
 44
0.0000000001
 40
0.0
 40
0.0
 40
0.0
 40
0.0
 40
0.5060142505
 40
1.0
 40
1.0
 40
1.0
 40
1.0
 10
-4.1042126063
 20
-7.1939900609
 30
0.0
 10
-3.9589219673
 20
-7.2009643294
 30
0.0
 10
-3.6721522411
 20
-7.2465604053
 30
0.0
 10
-3.4043536759
 20
-7.3597759269
 30
0.0
 10
-3.2813966701
 20
-7.4308086271
 30
0.0
  0
SPLINE
  5
323
100
AcDbEntity
  8
0
100
AcDbSpline
 62
7
  6
CONTINUOUS
 70
0
 71
3
 72
17
 73
13
 74
0
 42
0.0000001
 43
0.0000001
 44
0.0000000001
 40
0.0
 40
0.0
 40
0.0
 40
0.0
 40
0.1223421383
 40
0.2569251427
 40
0.397843306
 40
0.536318173
 40
0.6646310507
 40
0.7800216572
 40
0.8345943863
 40
0.8884746278
 40
0.9432007768
 40
1.0
 40
1.0
 40
1.0
 40
1.0
 10
-2.9016007342
 20
-10.1008687454
 30
0.0
 10
-2.8552064175
 20
-10.2035986416
 30
0.0
 10
-2.8081238117
 20
-10.4432038393
 30
0.0
 10
-2.8670509481
 20
-10.8108334495
 30
0.0
 10
-3.0379343655
 20
-11.1580459758
 30
0.0
 10
-3.2978990805
 20
-11.437108171
 30
0.0
 10
-3.6129069341
 20
-11.6097731216
 30
0.0
 10
-3.8965617008
 20
-11.6385600414
 30
0.0
 10
-4.0970269667
 20
-11.5817059539
 30
0.0
 10
-4.2278763875
 20
-11.5041893145
 30
0.0
 10
-4.3357261133
 20
-11.3942976597
 30
0.0
 10
-4.3884288096
 20
-11.3048277625
 30
0.0
 10
-4.4099690535
 20
-11.2571342612
 30
0.0
  0
SPLINE
  5
324
100
AcDbEntity
  8
0
100
AcDbSpline
 62
7
  6
CONTINUOUS
 70
0
 71
3
 72
17
 73
13
 74
0
 42
0.0000001
 43
0.0000001
 44
0.0000000001
 40
0.0
 40
0.0
 40
0.0
 40
0.0
 40
0.1223421383
 40
0.2569251427
 40
0.397843306
 40
0.536318173
 40
0.6646310507
 40
0.7800216573
 40
0.8345943863
 40
0.8884746278
 40
0.9432007768
 40
1.0
 40
1.0
 40
1.0
 40
1.0
 10
-4.4099690535
 20
-11.2571342612
 30
0.0
 10
-4.4563633702
 20
-11.1544043651
 30
0.0
 10
-4.5034459786
 20
-10.9147991674
 30
0.0
 10
-4.4445188396
 20
-10.5471695572
 30
0.0
 10
-4.2736354247
 20
-10.1999570283
 30
0.0
 10
-4.0136707072
 20
-9.9208948331
 30
0.0
 10
-3.6986628536
 20
-9.7482298825
 30
0.0
 10
-3.4150080894
 20
-9.7194429652
 30
0.0
 10
-3.214542821
 20
-9.7762970502
 30
0.0
 10
-3.0836934028
 20
-9.8538136922
 30
0.0
 10
-2.9758436744
 20
-9.9637053469
 30
0.0
 10
-2.9231409781
 20
-10.0531752442
 30
0.0
 10
-2.9016007342
 20
-10.1008687454
 30
0.0
  0
SPLINE
  5
325
100
AcDbEntity
  8
0
100
AcDbSpline
 62
7
  6
CONTINUOUS
 70
0
 71
3
 72
9
 73
5
 74
0
 42
0.0000001
 43
0.0000001
 44
0.0000000001
 40
0.0
 40
0.0
 40
0.0
 40
0.0
 40
0.4896971053
 40
1.0
 40
1.0
 40
1.0
 40
1.0
 10
-6.2822583544
 20
-12.6264512863
 30
0.0
 10
-6.4470603159
 20
-12.5312446035
 30
0.0
 10
-6.7528269662
 20
-12.2786304834
 30
0.0
 10
-6.96271947
 20
-11.9437621844
 30
0.0
 10
-7.0443544604
 20
-11.763007156
 30
0.0
  0
SPLINE
  5
326
100
AcDbEntity
  8
0
100
AcDbSpline
 62
7
  6
CONTINUOUS
 70
0
 71
3
 72
15
 73
11
 74
0
 42
0.0000001
 43
0.0000001
 44
0.0000000001
 40
0.0
 40
0.0
 40
0.0
 40
0.0
 40
0.1152818272
 40
0.2395494183
 40
0.3709556938
 40
0.5058446383
 40
0.6397182807
 40
0.7683196347
 40
0.8886571751
 40
1.0
 40
1.0
 40
1.0
 40
1.0
 10
-7.0443544604
 20
-11.763007156
 30
0.0
 10
-7.1436701698
 20
-11.5431002857
 30
0.0
 10
-7.2743944346
 20
-11.0499644012
 30
0.0
 10
-7.2642442619
 20
-10.2659994337
 30
0.0
 10
-7.0618618168
 20
-9.4667127189
 30
0.0
 10
-6.6833568842
 20
-8.7124188045
 30
0.0
 10
-6.1578063376
 20
-8.0594309716
 30
0.0
 10
-5.523613735
 20
-7.557549222
 30
0.0
 10
-4.8276251041
 20
-7.245938339
 30
0.0
 10
-4.3369936241
 20
-7.1828160598
 30
0.0
 10
-4.1042126063
 20
-7.1939900609
 30
0.0
  0
SPLINE
  5
327
100
AcDbEntity
  8
0
100
AcDbSpline
 62
7
  6
CONTINUOUS
 70
0
 71
3
 72
13
 73
9
 74
0
 42
0.0000001
 43
0.0000001
 44
0.0000000001
 40
0.0
 40
0.0
 40
0.0
 40
0.0
 40
0.1247084942
 40
0.2494257701
 40
0.3741805464
 40
0.4990307401
 40
0.7486217092
 40
1.0
 40
1.0
 40
1.0
 40
1.0
 10
-1.7338860618
 20
4.1646665538
 30
0.0
 10
-1.6046826524
 20
4.0900421818
 30
0.0
 10
-1.3326638314
 20
3.9630428143
 30
0.0
 10
-0.8983902169
 20
3.8459369423
 30
0.0
 10
-0.4502231935
 20
3.8044354581
 30
0.0
 10
0.1477538453
 20
3.8492554294
 30
0.0
 10
0.8712690683
 20
4.0881450075
 30
0.0
 10
1.365890172
 20
4.4436288483
 30
0.0
 10
1.5832869356
 20
4.651460297
 30
0.0
  0
SPLINE
  5
328
100
AcDbEntity
  8
0
100
AcDbSpline
 62
7
  6
CONTINUOUS
 70
0
 71
3
 72
15
 73
11
 74
0
 42
0.0000001
 43
0.0000001
 44
0.0000000001
 40
0.0
 40
0.0
 40
0.0
 40
0.0
 40
0.1260760504
 40
0.2523515219
 40
0.3782583775
 40
0.5034457545
 40
0.6279681501
 40
0.752095726
 40
0.8760627561
 40
1.0
 40
1.0
 40
1.0
 40
1.0
 10
1.5833204661
 20
4.6514923518
 30
0.0
 10
1.7488611993
 20
4.809753991
 30
0.0
 10
2.0471470924
 20
5.1630966803
 30
0.0
 10
2.3746781417
 20
5.7724459138
 30
0.0
 10
2.5687814619
 20
6.4353004326
 30
0.0
 10
2.6159192493
 20
7.1216036015
 30
0.0
 10
2.5069631477
 20
7.798236805
 30
0.0
 10
2.2396486734
 20
8.4277514947
 30
0.0
 10
1.8238876533
 20
8.9696010409
 30
0.0
 10
1.4619351691
 20
9.247718064
 30
0.0
 10
1.2669808956
 20
9.3603183418
 30
0.0
  0
SPLINE
  5
329
100
AcDbEntity
  8
0
100
AcDbSpline
 62
7
  6
CONTINUOUS
 70
0
 71
3
 72
11
 73
7
 74
0
 42
0.0000001
 43
0.0000001
 44
0.0000000001
 40
0.0
 40
0.0
 40
0.0
 40
0.0
 40
0.2285152849
 40
0.4677949801
 40
0.7245553821
 40
1.0
 40
1.0
 40
1.0
 40
1.0
 10
-1.7338821933
 20
4.1646732517
 30
0.0
 10
-1.9097015725
 20
4.2661958173
 30
0.0
 10
-2.2345618702
 20
4.5411618968
 30
0.0
 10
-2.5646129296
 20
5.1059525579
 30
0.0
 10
-2.7262036961
 20
5.7806237384
 30
0.0
 10
-2.717659065
 20
6.2585159678
 30
0.0
 10
-2.6870219889
 20
6.501310519
 30
0.0
  0
SPLINE
  5
32A
100
AcDbEntity
  8
0
100
AcDbSpline
 62
7
  6
CONTINUOUS
 70
0
 71
3
 72
17
 73
13
 74
0
 42
0.0000001
 43
0.0000001
 44
0.0000000001
 40
0.0
 40
0.0
 40
0.0
 40
0.0
 40
0.1323914507
 40
0.251985992
 40
0.307789643
 40
0.3619723044
 40
0.415958401
 40
0.4712147998
 40
0.5891284453
 40
0.7199824381
 40
0.8596846209
 40
1.0
 40
1.0
 40
1.0
 40
1.0
 10
1.3272828984
 20
5.4467412261
 30
0.0
 10
1.239110611
 20
5.3624496421
 30
0.0
 10
1.045757048
 20
5.225474836
 30
0.0
 10
0.7619772599
 20
5.154225677
 30
0.0
 10
0.5496778395
 20
5.1771402159
 30
0.0
 10
0.4066371883
 20
5.2307935782
 30
0.0
 10
0.2827354422
 20
5.3193382551
 30
0.0
 10
0.1473156572
 20
5.481606277
 30
0.0
 10
0.052938706
 20
5.7555361863
 30
0.0
 10
0.0707454623
 20
6.1196691843
 30
0.0
 10
0.2054566585
 20
6.4791511094
 30
0.0
 10
0.3644488627
 20
6.688162599
 30
0.0
 10
0.4578971721
 20
6.7775005762
 30
0.0
  0
SPLINE
  5
32B
100
AcDbEntity
  8
0
100
AcDbSpline
 62
7
  6
CONTINUOUS
 70
0
 71
3
 72
17
 73
13
 74
0
 42
0.0000001
 43
0.0000001
 44
0.0000000001
 40
0.0
 40
0.0
 40
0.0
 40
0.0
 40
0.1323914507
 40
0.251985992
 40
0.307789643
 40
0.3619723044
 40
0.415958401
 40
0.4712147998
 40
0.5891284453
 40
0.7199824381
 40
0.8596846209
 40
1.0
 40
1.0
 40
1.0
 40
1.0
 10
0.4578971721
 20
6.7775005762
 30
0.0
 10
0.5460694571
 20
6.8617921603
 30
0.0
 10
0.7394230201
 20
6.9987669663
 30
0.0
 10
1.0232028106
 20
7.0700161253
 30
0.0
 10
1.2355022286
 20
7.0471015864
 30
0.0
 10
1.3785428823
 20
6.9934482266
 30
0.0
 10
1.5024446258
 20
6.9049035498
 30
0.0
 10
1.6378644109
 20
6.7426355279
 30
0.0
 10
1.7322413646
 20
6.468705616
 30
0.0
 10
1.7144346057
 20
6.1045726206
 30
0.0
 10
1.5797234096
 20
5.7450906929
 30
0.0
 10
1.4207312053
 20
5.5360792034
 30
0.0
 10
1.3272828984
 20
5.4467412261
 30
0.0
  0
SPLINE
  5
32C
100
AcDbEntity
  8
0
100
AcDbSpline
 62
7
  6
CONTINUOUS
 70
0
 71
3
 72
9
 73
5
 74
0
 42
0.0000001
 43
0.0000001
 44
0.0000000001
 40
0.0
 40
0.0
 40
0.0
 40
0.0
 40
0.4968326798
 40
1.0
 40
1.0
 40
1.0
 40
1.0
 10
-2.6870219889
 20
6.501310519
 30
0.0
 10
-2.6337591769
 20
6.923410894
 30
0.0
 10
-2.3666715932
 20
7.7568237763
 30
0.0
 10
-1.8489611428
 20
8.4608644561
 30
0.0
 10
-1.537515121
 20
8.7586095045
 30
0.0
  0
SPLINE
  5
32D
100
AcDbEntity
  8
0
100
AcDbSpline
 62
7
  6
CONTINUOUS
 70
0
 71
3
 72
13
 73
9
 74
0
 42
0.0000001
 43
0.0000001
 44
0.0000000001
 40
0.0
 40
0.0
 40
0.0
 40
0.0
 40
0.2776297905
 40
0.5356556895
 40
0.6572344613
 40
0.7743191314
 40
0.888057628
 40
1.0
 40
1.0
 40
1.0
 40
1.0
 10
-1.537515121
 20
8.7586095045
 30
0.0
 10
-1.3322933242
 20
8.9548016445
 30
0.0
 10
-0.8901718132
 20
9.2890621749
 30
0.0
 10
-0.2553126029
 20
9.5402506311
 30
0.0
 10
0.2503328984
 20
9.6078293301
 30
0.0
 10
0.6124178562
 20
9.5929077623
 30
0.0
 10
0.9558862473
 20
9.5132965956
 30
0.0
 10
1.1678408297
 20
9.4175553952
 30
0.0
 10
1.2669770272
 20
9.3603116438
 30
0.0
  0
SPLINE
  5
32E
100
AcDbEntity
  8
0
100
AcDbSpline
 62
7
  6
CONTINUOUS
 70
0
 71
3
 72
16
 73
12
 74
0
 42
0.0000001
 43
0.0000001
 44
0.0000000001
 40
0.0
 40
0.0
 40
0.0
 40
0.0
 40
0.0610909311
 40
0.1222138529
 40
0.2444065285
 40
0.3675427261
 40
0.4923399003
 40
0.6189868812
 40
0.7467263348
 40
0.8741272207
 40
1.0
 40
1.0
 40
1.0
 40
1.0
 10
5.1258726723
 20
-19.9246183867
 30
0.0
 10
5.2706445393
 20
-20.0081794947
 30
0.0
 10
5.5741825326
 20
-20.1525629981
 30
0.0
 10
6.2179524567
 20
-20.3417176058
 30
0.0
 10
7.0695962449
 20
-20.3858980179
 30
0.0
 10
8.0653660542
 20
-20.139654995
 30
0.0
 10
8.9698049794
 20
-19.6341058765
 30
0.0
 10
9.7330937881
 20
-18.9173225984
 30
0.0
 10
10.3171958965
 20
-18.0403678016
 30
0.0
 10
10.6897479886
 20
-17.0575018756
 30
0.0
 10
10.778851821
 20
-16.3619928805
 30
0.0
 10
10.7788574014
 20
-16.0175804731
 30
0.0
  0
SPLINE
  5
32F
100
AcDbEntity
  8
0
100
AcDbSpline
 62
7
  6
CONTINUOUS
 70
0
 71
3
 72
11
 73
7
 74
0
 42
0.0000001
 43
0.0000001
 44
0.0000000001
 40
0.0
 40
0.0
 40
0.0
 40
0.0
 40
0.2528183028
 40
0.50299333
 40
0.7517484052
 40
1.0
 40
1.0
 40
1.0
 40
1.0
 10
10.7788574014
 20
-16.0175150833
 30
0.0
 10
10.7788574014
 20
-15.7143118111
 30
0.0
 10
10.7105457981
 20
-15.1083618648
 30
0.0
 10
10.3903202181
 20
-14.2552226922
 30
0.0
 10
9.8601270545
 20
-13.5194184565
 30
0.0
 10
9.3839290025
 20
-13.1453872538
 30
0.0
 10
9.1260726171
 20
-12.9965547143
 30
0.0
  0
SPLINE
  5
330
100
AcDbEntity
  8
0
100
AcDbSpline
 62
7
  6
CONTINUOUS
 70
0
 71
3
 72
19
 73
15
 74
0
 42
0.0000001
 43
0.0000001
 44
0.0000000001
 40
0.0
 40
0.0
 40
0.0
 40
0.0
 40
0.1351442849
 40
0.276012943
 40
0.4137974813
 40
0.4792859218
 40
0.5415593584
 40
0.6005442408
 40
0.6566975193
 40
0.7110071609
 40
0.7648504653
 40
0.8197144949
 40
0.8768495192
 40
1.0
 40
1.0
 40
1.0
 40
1.0
 10
9.9048650371
 20
-16.6678960051
 30
0.0
 10
9.9048630204
 20
-16.9172349882
 30
0.0
 10
9.811808637
 20
-17.4288086285
 30
0.0
 10
9.4553302745
 20
-18.1148125219
 30
0.0
 10
9.0046076962
 20
-18.5782231674
 30
0.0
 10
8.5846703521
 20
-18.8348118439
 30
0.0
 10
8.2609637758
 20
-18.9590089336
 30
0.0
 10
7.9355041244
 20
-19.0125504394
 30
0.0
 10
7.6205479878
 20
-18.9923768273
 30
0.0
 10
7.328939874
 20
-18.8980880217
 30
0.0
 10
7.0734046066
 20
-18.7330883314
 30
0.0
 10
6.8650305301
 20
-18.5045369851
 30
0.0
 10
6.6558596632
 20
-18.1207332492
 30
0.0
 10
6.5991673254
 20
-17.781230799
 30
0.0
 10
6.599165489
 20
-17.5540201866
 30
0.0
  0
SPLINE
  5
331
100
AcDbEntity
  8
0
100
AcDbSpline
 62
7
  6
CONTINUOUS
 70
0
 71
3
 72
19
 73
15
 74
0
 42
0.0000001
 43
0.0000001
 44
0.0000000001
 40
0.0
 40
0.0
 40
0.0
 40
0.0
 40
0.1351442849
 40
0.276012943
 40
0.4137974813
 40
0.4792859218
 40
0.5415593584
 40
0.6005442408
 40
0.6566975193
 40
0.7110071609
 40
0.7648504653
 40
0.8197144949
 40
0.8768495192
 40
1.0
 40
1.0
 40
1.0
 40
1.0
 10
6.599165489
 20
-17.5540201866
 30
0.0
 10
6.5991675058
 20
-17.304681206
 30
0.0
 10
6.6922218891
 20
-16.7931075657
 30
0.0
 10
7.0487002516
 20
-16.1071036722
 30
0.0
 10
7.49942283
 20
-15.6436930243
 30
0.0
 10
7.919360174
 20
-15.3871043502
 30
0.0
 10
8.2430667504
 20
-15.2629072606
 30
0.0
 10
8.5685264017
 20
-15.2093657547
 30
0.0
 10
8.8834825384
 20
-15.2295393669
 30
0.0
 10
9.1750906521
 20
-15.3238281725
 30
0.0
 10
9.4306259196
 20
-15.4888278628
 30
0.0
 10
9.6389999961
 20
-15.7173792091
 30
0.0
 10
9.848170863
 20
-16.1011829449
 30
0.0
 10
9.9048632007
 20
-16.4406853952
 30
0.0
 10
9.9048650371
 20
-16.6678960051
 30
0.0
  0
SPLINE
  5
332
100
AcDbEntity
  8
0
100
AcDbSpline
 62
7
  6
CONTINUOUS
 70
0
 71
3
 72
11
 73
7
 74
0
 42
0.0000001
 43
0.0000001
 44
0.0000000001
 40
0.0
 40
0.0
 40
0.0
 40
0.0
 40
0.2323741507
 40
0.4731309043
 40
0.7282206724
 40
1.0
 40
1.0
 40
1.0
 40
1.0
 10
5.1254025006
 20
-19.9243408587
 30
0.0
 10
4.9229212774
 20
-19.8074203762
 30
0.0
 10
4.545289419
 20
-19.5036516035
 30
0.0
 10
4.1280080158
 20
-18.890057578
 30
0.0
 10
3.8733767394
 20
-18.152584072
 30
0.0
 10
3.8202041534
 20
-17.6201946974
 30
0.0
 10
3.8202031298
 20
-17.3467312108
 30
0.0
  0
SPLINE
  5
333
100
AcDbEntity
  8
0
100
AcDbSpline
 62
7
  6
CONTINUOUS
 70
0
 71
3
 72
15
 73
11
 74
0
 42
0.0000001
 43
0.0000001
 44
0.0000000001
 40
0.0
 40
0.0
 40
0.0
 40
0.0
 40
0.2626566168
 40
0.3987913435
 40
0.5327243231
 40
0.6610704942
 40
0.7815820262
 40
0.8938066406
 40
0.9475000206
 40
1.0
 40
1.0
 40
1.0
 40
1.0
 10
3.8213367648
 20
-17.2501288309
 30
0.0
 10
3.836852972
 20
-16.5872121304
 30
0.0
 10
4.1010801321
 20
-15.576018039
 30
0.0
 10
4.7964625539
 20
-14.4195778576
 30
0.0
 10
5.4769263492
 20
-13.6687044012
 30
0.0
 10
6.2663415623
 20
-13.0981368276
 30
0.0
 10
7.1163575992
 20
-12.7444727216
 30
0.0
 10
7.8450645847
 20
-12.6527941851
 30
0.0
 10
8.3951180261
 20
-12.7137289401
 30
0.0
 10
8.6547226682
 20
-12.7863970447
 30
0.0
 10
8.7788574034
 20
-12.8328465632
 30
0.0
  0
SPLINE
  5
334
100
AcDbEntity
  8
0
100
AcDbSpline
 62
7
  6
CONTINUOUS
 70
0
 71
3
 72
9
 73
5
 74
0
 42
0.0000001
 43
0.0000001
 44
0.0000000001
 40
0.0
 40
0.0
 40
0.0
 40
0.0
 40
0.2548609383
 40
1.0
 40
1.0
 40
1.0
 40
1.0
 10
-104.548497788
 20
54.5441052943
 30
0.0
 10
-104.7366815417
 20
53.7236826146
 30
0.0
 10
-105.3901750937
 20
50.4860093262
 30
0.0
 10
-105.6973873088
 20
47.1760258573
 30
0.0
 10
-105.7043770586
 20
44.7150677566
 30
0.0
  0
SPLINE
  5
335
100
AcDbEntity
  8
0
100
AcDbSpline
 62
7
  6
CONTINUOUS
 70
0
 71
3
 72
9
 73
5
 74
0
 42
0.0000001
 43
0.0000001
 44
0.0000000001
 40
0.0
 40
0.0
 40
0.0
 40
0.0
 40
0.5093426965
 40
1.0
 40
1.0
 40
1.0
 40
1.0
 10
-106.6041957975
 20
40.2614627878
 30
0.0
 10
-106.1992136458
 20
38.6637964378
 30
0.0
 10
-105.1703742836
 20
35.5803190487
 30
0.0
 10
-103.6502691653
 20
32.7033459762
 30
0.0
 10
-102.7861964053
 20
31.3713295648
 30
0.0
  0
SPLINE
  5
336
100
AcDbEntity
  8
0
100
AcDbSpline
 62
7
  6
CONTINUOUS
 70
0
 71
3
 72
9
 73
5
 74
0
 42
0.0000001
 43
0.0000001
 44
0.0000000001
 40
0.0
 40
0.0
 40
0.0
 40
0.0
 40
0.2547102712
 40
1.0
 40
1.0
 40
1.0
 40
1.0
 10
-87.2583575347
 20
26.9443420357
 30
0.0
 10
-87.1294016077
 20
26.632589535
 30
0.0
 10
-86.5901610682
 20
25.4226548988
 30
0.0
 10
-85.9163065993
 20
24.2717569466
 30
0.0
 10
-85.3416641062
 20
23.4690949019
 30
0.0
  0
SPLINE
  5
337
100
AcDbEntity
  8
0
100
AcDbSpline
 62
7
  6
CONTINUOUS
 70
0
 71
3
 72
11
 73
7
 74
0
 42
0.0000001
 43
0.0000001
 44
0.0000000001
 40
0.0
 40
0.0
 40
0.0
 40
0.0
 40
0.2660669585
 40
0.5228518689
 40
0.7678211851
 40
1.0
 40
1.0
 40
1.0
 40
1.0
 10
-87.2583575347
 20
44.6054111306
 30
0.0
 10
-87.770697808
 20
43.0921470172
 30
0.0
 10
-88.554737929
 20
40.0365693386
 30
0.0
 10
-88.9697362659
 20
35.4234789712
 30
0.0
 10
-88.5915205021
 20
31.0090543178
 30
0.0
 10
-87.7912561997
 20
28.2326309476
 30
0.0
 10
-87.2583575347
 20
26.9443420357
 30
0.0
  0
SPLINE
  5
338
100
AcDbEntity
  8
0
100
AcDbSpline
 62
7
  6
CONTINUOUS
 70
0
 71
3
 72
14
 73
10
 74
0
 42
0.0000001
 43
0.0000001
 44
0.0000000001
 40
0.0
 40
0.0
 40
0.0
 40
0.0
 40
0.1091151035
 40
0.2237357161
 40
0.3441791896
 40
0.4700097789
 40
0.6001802705
 40
0.7331999294
 40
1.0
 40
1.0
 40
1.0
 40
1.0
 10
-62.4232883098
 20
64.6285752447
 30
0.0
 10
-63.6581780092
 20
64.6879447119
 30
0.0
 10
-66.2100942262
 20
64.5257091131
 30
0.0
 10
-69.9969986742
 20
63.507505404
 30
0.0
 10
-73.7118981405
 20
61.7507035633
 30
0.0
 10
-77.2350342946
 20
59.3166037071
 30
0.0
 10
-80.4569873198
 20
56.2839724267
 30
0.0
 10
-84.2113723409
 20
51.5808014622
 30
0.0
 10
-86.2889430143
 20
47.4687039079
 30
0.0
 10
-87.2583575347
 20
44.6054111306
 30
0.0
  0
SPLINE
  5
339
100
AcDbEntity
  8
0
100
AcDbSpline
 62
7
  6
CONTINUOUS
 70
0
 71
3
 72
9
 73
5
 74
0
 42
0.0000001
 43
0.0000001
 44
0.0000000001
 40
0.0
 40
0.0
 40
0.0
 40
0.0
 40
0.4942422086
 40
1.0
 40
1.0
 40
1.0
 40
1.0
 10
-103.0360127916
 20
31.1845176016
 30
0.0
 10
-103.645548301
 20
32.1338404502
 30
0.0
 10
-104.7167586884
 20
34.1626807486
 30
0.0
 10
-105.4542891565
 20
36.3331383889
 30
0.0
 10
-105.7457074002
 20
37.4501981157
 30
0.0
  0
SPLINE
  5
33A
100
AcDbEntity
  8
0
100
AcDbSpline
 62
7
  6
CONTINUOUS
 70
0
 71
3
 72
9
 73
5
 74
0
 42
0.0000001
 43
0.0000001
 44
0.0000000001
 40
0.0
 40
0.0
 40
0.0
 40
0.0
 40
0.491157847
 40
1.0
 40
1.0
 40
1.0
 40
1.0
 10
-72.5263001256
 20
76.3992771465
 30
0.0
 10
-74.0219954146
 20
76.4506845545
 30
0.0
 10
-77.0801228696
 20
76.3005439251
 30
0.0
 10
-80.0767003791
 20
75.6845845296
 30
0.0
 10
-81.5700436408
 20
75.2676165193
 30
0.0
  0
SPLINE
  5
33B
100
AcDbEntity
  8
0
100
AcDbSpline
 62
7
  6
CONTINUOUS
 70
0
 71
3
 72
9
 73
5
 74
0
 42
0.0000001
 43
0.0000001
 44
0.0000000001
 40
0.0
 40
0.0
 40
0.0
 40
0.0
 40
0.245189803
 40
1.0
 40
1.0
 40
1.0
 40
1.0
 10
-84.9209017423
 20
75.3729856253
 30
0.0
 10
-85.6025325431
 20
74.9900651465
 30
0.0
 10
-88.3370339676
 20
73.3481231421
 30
0.0
 10
-90.8840300928
 20
71.3982507528
 30
0.0
 10
-92.6785972657
 20
69.7944023375
 30
0.0
  0
SPLINE
  5
33C
100
AcDbEntity
  8
0
100
AcDbSpline
 62
7
  6
CONTINUOUS
 70
0
 71
3
 72
9
 73
5
 74
0
 42
0.0000001
 43
0.0000001
 44
0.0000000001
 40
0.0
 40
0.0
 40
0.0
 40
0.0
 40
0.4931529689
 40
1.0
 40
1.0
 40
1.0
 40
1.0
 10
-106.5668453794
 20
44.0501245526
 30
0.0
 10
-106.5668453794
 20
45.8159060121
 30
0.0
 10
-106.2345130621
 20
49.4021082275
 30
0.0
 10
-105.3078898684
 20
52.8788226914
 30
0.0
 10
-104.7043360336
 20
54.5903348691
 30
0.0
  0
SPLINE
  5
33D
100
AcDbEntity
  8
0
100
AcDbSpline
 62
7
  6
CONTINUOUS
 70
0
 71
3
 72
9
 73
5
 74
0
 42
0.0000001
 43
0.0000001
 44
0.0000000001
 40
0.0
 40
0.0
 40
0.0
 40
0.0
 40
0.5009925936
 40
1.0
 40
1.0
 40
1.0
 40
1.0
 10
-104.7043360336
 20
54.5903348691
 30
0.0
 10
-103.857733805
 20
56.9910652467
 30
0.0
 10
-101.6332779771
 20
61.6086738525
 30
0.0
 10
-98.4787935266
 20
65.6498621277
 30
0.0
 10
-96.7043783353
 20
67.4610601131
 30
0.0
  0
SPLINE
  5
33E
100
AcDbEntity
  8
0
100
AcDbSpline
 62
7
  6
CONTINUOUS
 70
0
 71
3
 72
9
 73
5
 74
0
 42
0.0000001
 43
0.0000001
 44
0.0000000001
 40
0.0
 40
0.0
 40
0.0
 40
0.0
 40
0.5093467178
 40
1.0
 40
1.0
 40
1.0
 40
1.0
 10
-96.7043783353
 20
67.4610601131
 30
0.0
 10
-95.2531048269
 20
68.9424178413
 30
0.0
 10
-92.1272409719
 20
71.5947219829
 30
0.0
 10
-88.5237947752
 20
73.5662102675
 30
0.0
 10
-86.6726770678
 20
74.3172757453
 30
0.0
  0
SPLINE
  5
33F
100
AcDbEntity
  8
0
100
AcDbSpline
 62
7
  6
CONTINUOUS
 70
0
 71
3
 72
9
 73
5
 74
0
 42
0.0000001
 43
0.0000001
 44
0.0000000001
 40
0.0
 40
0.0
 40
0.0
 40
0.0
 40
0.5050969908
 40
1.0
 40
1.0
 40
1.0
 40
1.0
 10
-83.7007220262
 20
75.312510336
 30
0.0
 10
-82.7231805268
 20
75.571472894
 30
0.0
 10
-80.7526391593
 20
75.9610220921
 30
0.0
 10
-78.7461189814
 20
76.0760064951
 30
0.0
 10
-77.7553982653
 20
76.0599027122
 30
0.0
  0
SPLINE
  5
340
100
AcDbEntity
  8
0
100
AcDbSpline
 62
7
  6
CONTINUOUS
 70
0
 71
3
 72
9
 73
5
 74
0
 42
0.0000001
 43
0.0000001
 44
0.0000000001
 40
0.0
 40
0.0
 40
0.0
 40
0.0
 40
0.2497031879
 40
1.0
 40
1.0
 40
1.0
 40
1.0
 10
-100.9225601072
 20
49.7451761393
 30
0.0
 10
-101.1288549397
 20
50.2009436936
 30
0.0
 10
-101.9106537647
 20
52.0457410429
 30
0.0
 10
-102.5053277392
 20
53.9714004377
 30
0.0
 10
-102.8251232972
 20
55.4402132354
 30
0.0
  0
SPLINE
  5
341
100
AcDbEntity
  8
0
100
AcDbSpline
 62
7
  6
CONTINUOUS
 70
0
 71
3
 72
11
 73
7
 74
0
 42
0.0000001
 43
0.0000001
 44
0.0000000001
 40
0.0
 40
0.0
 40
0.0
 40
0.0
 40
0.2870395471
 40
0.5371725285
 40
0.7649408677
 40
1.0
 40
1.0
 40
1.0
 40
1.0
 10
-102.8251334725
 20
55.440254264
 30
0.0
 10
-102.8333592091
 20
55.4779882576
 30
0.0
 10
-102.8566617228
 20
55.5474262442
 30
0.0
 10
-102.9209473728
 20
55.6314705008
 30
0.0
 10
-103.0116353372
 20
55.6738599411
 30
0.0
 10
-103.0763117865
 20
55.6686515441
 30
0.0
 10
-103.1068590685
 20
55.6604606003
 30
0.0
  0
SPLINE
  5
342
100
AcDbEntity
  8
0
100
AcDbSpline
 62
7
  6
CONTINUOUS
 70
0
 71
3
 72
9
 73
5
 74
0
 42
0.0000001
 43
0.0000001
 44
0.0000000001
 40
0.0
 40
0.0
 40
0.0
 40
0.0
 40
0.473139289
 40
1.0
 40
1.0
 40
1.0
 40
1.0
 10
-106.6041502858
 20
40.2614117109
 30
0.0
 10
-106.598974477
 20
40.2406278536
 30
0.0
 10
-106.5759630117
 20
40.1994391145
 30
0.0
 10
-106.5392176216
 20
40.1714312203
 30
0.0
 10
-106.5185353846
 20
40.1595529179
 30
0.0
  0
SPLINE
  5
343
100
AcDbEntity
  8
0
100
AcDbSpline
 62
7
  6
CONTINUOUS
 70
0
 71
3
 72
10
 73
6
 74
0
 42
0.0000001
 43
0.0000001
 44
0.0000000001
 40
0.0
 40
0.0
 40
0.0
 40
0.0
 40
0.2363556065
 40
0.6082408331
 40
1.0
 40
1.0
 40
1.0
 40
1.0
 10
-102.4885523016
 20
56.703395756
 30
0.0
 10
-101.3134521626
 20
56.0255783791
 30
0.0
 10
-98.2828533622
 20
54.292674357
 30
0.0
 10
-93.2786234825
 20
51.4817887215
 30
0.0
 10
-89.4379733863
 20
49.3698336439
 30
0.0
 10
-87.4644043591
 20
48.2923933705
 30
0.0
  0
SPLINE
  5
344
100
AcDbEntity
  8
0
100
AcDbSpline
 62
7
  6
CONTINUOUS
 70
0
 71
3
 72
9
 73
5
 74
0
 42
0.0000001
 43
0.0000001
 44
0.0000000001
 40
0.0
 40
0.0
 40
0.0
 40
0.0
 40
0.2542613176
 40
1.0
 40
1.0
 40
1.0
 40
1.0
 10
-94.2695961309
 20
62.5399578294
 30
0.0
 10
-94.3597472105
 20
62.948453403
 30
0.0
 10
-94.6693805943
 20
64.5643090181
 30
0.0
 10
-94.7898600612
 20
66.2189826836
 30
0.0
 10
-94.7502534704
 20
67.4452745694
 30
0.0
  0
SPLINE
  5
345
100
AcDbEntity
  8
0
100
AcDbSpline
 62
7
  6
CONTINUOUS
 70
0
 71
3
 72
9
 73
5
 74
0
 42
0.0000001
 43
0.0000001
 44
0.0000000001
 40
0.0
 40
0.0
 40
0.0
 40
0.0
 40
0.5026753994
 40
1.0
 40
1.0
 40
1.0
 40
1.0
 10
-94.7502534958
 20
67.4452745795
 30
0.0
 10
-94.7489429624
 20
67.4857996725
 30
0.0
 10
-94.7653376896
 20
67.5714027753
 30
0.0
 10
-94.8364185457
 20
67.6235547615
 30
0.0
 10
-94.8739909648
 20
67.6376082538
 30
0.0
  0
SPLINE
  5
346
100
AcDbEntity
  8
0
100
AcDbSpline
 62
7
  6
CONTINUOUS
 70
0
 71
3
 72
9
 73
5
 74
0
 42
0.0000001
 43
0.0000001
 44
0.0000000001
 40
0.0
 40
0.0
 40
0.0
 40
0.0
 40
0.4986714551
 40
1.0
 40
1.0
 40
1.0
 40
1.0
 10
-95.4429551812
 20
67.8505424177
 30
0.0
 10
-95.4011975482
 20
67.8348735819
 30
0.0
 10
-95.3278786778
 20
67.7734375681
 30
0.0
 10
-95.2939799242
 20
67.6883098364
 30
0.0
 10
-95.2833077586
 20
67.6447601851
 30
0.0
  0
SPLINE
  5
347
100
AcDbEntity
  8
0
100
AcDbSpline
 62
7
  6
CONTINUOUS
 70
0
 71
3
 72
12
 73
8
 74
0
 42
0.0000001
 43
0.0000001
 44
0.0000000001
 40
0.0
 40
0.0
 40
0.0
 40
0.0
 40
0.2691856594
 40
0.5244749262
 40
0.76685927
 40
0.8843517493
 40
1.0
 40
1.0
 40
1.0
 40
1.0
 10
-90.1680261019
 20
35.400135881
 30
0.0
 10
-90.1680154619
 20
33.8865327513
 30
0.0
 10
-89.9168369879
 20
30.9287276128
 30
0.0
 10
-88.7309851787
 20
26.7543728144
 30
0.0
 10
-87.0815517669
 20
23.6762757931
 30
0.0
 10
-85.4147151692
 20
21.5786909281
 30
0.0
 10
-84.4768105959
 20
20.6568935464
 30
0.0
 10
-83.9850766899
 20
20.2313827413
 30
0.0
  0
SPLINE
  5
348
100
AcDbEntity
  8
0
100
AcDbSpline
 62
7
  6
CONTINUOUS
 70
0
 71
3
 72
9
 73
5
 74
0
 42
0.0000001
 43
0.0000001
 44
0.0000000001
 40
0.0
 40
0.0
 40
0.0
 40
0.0
 40
0.4829428288
 40
1.0
 40
1.0
 40
1.0
 40
1.0
 10
-94.0192516989
 20
68.3944315103
 30
0.0
 10
-91.6327522581
 20
67.0104621573
 30
0.0
 10
-86.7535644015
 20
64.0364694363
 30
0.0
 10
-81.9866207681
 20
60.8866629851
 30
0.0
 10
-79.5481033388
 20
59.2200547079
 30
0.0
  0
SPLINE
  5
349
100
AcDbEntity
  8
0
100
AcDbSpline
 62
7
  6
CONTINUOUS
 70
0
 71
3
 72
9
 73
5
 74
0
 42
0.0000001
 43
0.0000001
 44
0.0000000001
 40
0.0
 40
0.0
 40
0.0
 40
0.0
 40
0.2586866091
 40
1.0
 40
1.0
 40
1.0
 40
1.0
 10
-83.5585394733
 20
71.2467811675
 30
0.0
 10
-83.6025094337
 20
71.5720051069
 30
0.0
 10
-83.7392766303
 20
72.8332153962
 30
0.0
 10
-83.7380832748
 20
74.1114553848
 30
0.0
 10
-83.641742995
 20
75.0469752943
 30
0.0
  0
SPLINE
  5
34A
100
AcDbEntity
  8
0
100
AcDbSpline
 62
7
  6
CONTINUOUS
 70
0
 71
3
 72
9
 73
5
 74
0
 42
0.0000001
 43
0.0000001
 44
0.0000000001
 40
0.0
 40
0.0
 40
0.0
 40
0.0
 40
0.4957185293
 40
1.0
 40
1.0
 40
1.0
 40
1.0
 10
-70.8413288677
 20
74.5748604499
 30
0.0
 10
-68.5451204527
 20
73.2329239593
 30
0.0
 10
-64.0591026277
 20
70.2685429995
 30
0.0
 10
-59.9147104136
 20
66.8443782883
 30
0.0
 10
-57.9186688507
 20
65.0179985121
 30
0.0
  0
SPLINE
  5
34B
100
AcDbEntity
  8
0
100
AcDbSpline
 62
7
  6
CONTINUOUS
 70
0
 71
3
 72
12
 73
8
 74
0
 42
0.0000001
 43
0.0000001
 44
0.0000000001
 40
0.0
 40
0.0
 40
0.0
 40
0.0
 40
0.1342496696
 40
0.2410792612
 40
0.3724295355
 40
0.6792629132
 40
1.0
 40
1.0
 40
1.0
 40
1.0
 10
-106.2707549581
 20
41.4478150734
 30
0.0
 10
-106.2571936797
 20
41.4601095726
 30
0.0
 10
-106.2174828955
 20
41.4570078871
 30
0.0
 10
-106.1721270883
 20
41.4383683664
 30
0.0
 10
-106.106296524
 20
41.4020353961
 30
0.0
 10
-106.0235746778
 20
41.3399708898
 30
0.0
 10
-105.9596873176
 20
41.2827966379
 30
0.0
 10
-105.9282163417
 20
41.2524311309
 30
0.0
  0
SPLINE
  5
34C
100
AcDbEntity
  8
0
100
AcDbSpline
 62
7
  6
CONTINUOUS
 70
0
 71
3
 72
9
 73
5
 74
0
 42
0.0000001
 43
0.0000001
 44
0.0000000001
 40
0.0
 40
0.0
 40
0.0
 40
0.0
 40
0.5213352088
 40
1.0
 40
1.0
 40
1.0
 40
1.0
 10
-83.5585573803
 20
71.2467651503
 30
0.0
 10
-83.6058611084
 20
71.8197823329
 30
0.0
 10
-83.6257428162
 20
72.9266213537
 30
0.0
 10
-83.4649017841
 20
74.0250344883
 30
0.0
 10
-83.3339868516
 20
74.5364505419
 30
0.0
  0
SPLINE
  5
34D
100
AcDbEntity
  8
0
100
AcDbSpline
 62
7
  6
CONTINUOUS
 70
0
 71
3
 72
14
 73
10
 74
0
 42
0.0000001
 43
0.0000001
 44
0.0000000001
 40
0.0
 40
0.0
 40
0.0
 40
0.0
 40
0.2419940107
 40
0.48717699
 40
0.6117239259
 40
0.7384611312
 40
0.8690144983
 40
0.9366988152
 40
1.0
 40
1.0
 40
1.0
 40
1.0
 10
-102.7862000654
 20
31.3713263669
 30
0.0
 10
-102.7639386952
 20
31.3370103929
 30
0.0
 10
-102.7187393723
 20
31.2681703654
 30
0.0
 10
-102.6607803239
 20
31.182548779
 30
0.0
 10
-102.6126943622
 20
31.1137445986
 30
0.0
 10
-102.5748538003
 20
31.0615398084
 30
0.0
 10
-102.5418465663
 20
31.0173530362
 30
0.0
 10
-102.5132269716
 20
30.9841495568
 30
0.0
 10
-102.4985228633
 20
30.9666136305
 30
0.0
 10
-102.4891096182
 20
30.9615267496
 30
0.0
  0
SPLINE
  5
34E
100
AcDbEntity
  8
0
100
AcDbSpline
 62
7
  6
CONTINUOUS
 70
0
 71
3
 72
24
 73
20
 74
0
 42
0.0000001
 43
0.0000001
 44
0.0000000001
 40
0.0
 40
0.0
 40
0.0
 40
0.0
 40
0.1256583761
 40
0.2513236621
 40
0.3769928151
 40
0.5026615333
 40
0.5654940242
 40
0.6283228836
 40
0.6911450397
 40
0.7539544858
 40
0.8167377206
 40
0.8481104533
 40
0.8794587703
 40
0.9107617635
 40
0.9419651661
 40
0.9574835569
 40
0.9728652694
 40
0.9878534771
 40
1.0
 40
1.0
 40
1.0
 40
1.0
 10
-101.6706396626
 20
58.83984605
 30
0.0
 10
-101.7116296974
 20
58.7527365214
 30
0.0
 10
-101.7926360531
 20
58.5780513691
 30
0.0
 10
-101.911092057
 20
58.3146237527
 30
0.0
 10
-102.0263022964
 20
58.0497508916
 30
0.0
 10
-102.1193514118
 20
57.827755778
 30
0.0
 10
-102.1917364792
 20
57.6493235492
 30
0.0
 10
-102.2448803251
 20
57.5150515952
 30
0.0
 10
-102.2967177272
 20
57.3802877652
 30
0.0
 10
-102.346989176
 20
57.2449693668
 30
0.0
 10
-102.3872343356
 20
57.1316368706
 30
0.0
 10
-102.4180042207
 20
57.0405413149
 30
0.0
 10
-102.4401529546
 20
56.9719802099
 30
0.0
 10
-102.4610169414
 20
56.9032082215
 30
0.0
 10
-102.4768532368
 20
56.8454136
 30
0.0
 10
-102.4876823821
 20
56.799348607
 30
0.0
 10
-102.4943836768
 20
56.7640045629
 30
0.0
 10
-102.4978786533
 20
56.7343421025
 30
0.0
 10
-102.4968736108
 20
56.7075618157
 30
0.0
 10
-102.4885523016
 20
56.703395756
 30
0.0
  0
SPLINE
  5
34F
100
AcDbEntity
  8
0
100
AcDbSpline
 62
7
  6
CONTINUOUS
 70
0
 71
3
 72
9
 73
5
 74
0
 42
0.0000001
 43
0.0000001
 44
0.0000000001
 40
0.0
 40
0.0
 40
0.0
 40
0.0
 40
0.2473351972
 40
1.0
 40
1.0
 40
1.0
 40
1.0
 10
-96.4894935555
 20
25.7824279918
 30
0.0
 10
-96.9484124827
 20
26.0999049463
 30
0.0
 10
-98.7829918031
 20
27.413163953
 30
0.0
 10
-100.5286600746
 20
28.8525900785
 30
0.0
 10
-101.771523761
 20
30.0097298673
 30
0.0
  0
SPLINE
  5
350
100
AcDbEntity
  8
0
100
AcDbSpline
 62
7
  6
CONTINUOUS
 70
0
 71
3
 72
14
 73
10
 74
0
 42
0.0000001
 43
0.0000001
 44
0.0000000001
 40
0.0
 40
0.0
 40
0.0
 40
0.0
 40
0.3856928652
 40
0.5536744585
 40
0.6970046664
 40
0.8113977328
 40
0.8955790323
 40
0.9535733869
 40
1.0
 40
1.0
 40
1.0
 40
1.0
 10
-101.771523662
 20
30.0097300731
 30
0.0
 10
-101.810783901
 20
30.0462799644
 30
0.0
 10
-101.8690185165
 20
30.0968716743
 30
0.0
 10
-101.9472499298
 20
30.1542338913
 30
0.0
 10
-101.9974482266
 20
30.1856818827
 30
0.0
 10
-102.0403995885
 20
30.2066466439
 30
0.0
 10
-102.0746160733
 20
30.2167143327
 30
0.0
 10
-102.1022405088
 20
30.2161237675
 30
0.0
 10
-102.113803333
 20
30.2049070741
 30
0.0
 10
-102.1164804422
 20
30.1990314547
 30
0.0
  0
SPLINE
  5
351
100
AcDbEntity
  8
0
100
AcDbSpline
 62
7
  6
CONTINUOUS
 70
0
 71
3
 72
9
 73
5
 74
0
 42
0.0000001
 43
0.0000001
 44
0.0000000001
 40
0.0
 40
0.0
 40
0.0
 40
0.0
 40
0.4910168788
 40
1.0
 40
1.0
 40
1.0
 40
1.0
 10
-102.4891096182
 20
30.9615267496
 30
0.0
 10
-100.1475752462
 20
29.6221510362
 30
0.0
 10
-95.2351390081
 20
27.1399028765
 30
0.0
 10
-90.1110625202
 20
25.1354122957
 30
0.0
 10
-87.4654141183
 20
24.230147139
 30
0.0
  0
SPLINE
  5
352
100
AcDbEntity
  8
0
100
AcDbSpline
 62
7
  6
CONTINUOUS
 70
0
 71
3
 72
9
 73
5
 74
0
 42
0.0000001
 43
0.0000001
 44
0.0000000001
 40
0.0
 40
0.0
 40
0.0
 40
0.0
 40
0.2479871695
 40
1.0
 40
1.0
 40
1.0
 40
1.0
 10
-101.7356248717
 20
36.2914727344
 30
0.0
 10
-102.0768793022
 20
36.7135733253
 30
0.0
 10
-103.4172563522
 20
38.4440515178
 30
0.0
 10
-104.6077066942
 20
40.2922538819
 30
0.0
 10
-105.3951387668
 20
41.7376830383
 30
0.0
  0
SPLINE
  5
353
100
AcDbEntity
  8
0
100
AcDbSpline
 62
7
  6
CONTINUOUS
 70
0
 71
3
 72
11
 73
7
 74
0
 42
0.0000001
 43
0.0000001
 44
0.0000000001
 40
0.0
 40
0.0
 40
0.0
 40
0.0
 40
0.3324101832
 40
0.6054000229
 40
0.8138380993
 40
1.0
 40
1.0
 40
1.0
 40
1.0
 10
-105.3951387795
 20
41.7376830256
 30
0.0
 10
-105.4190477487
 20
41.7815728946
 30
0.0
 10
-105.469434986
 20
41.8582582962
 30
0.0
 10
-105.5598015642
 20
41.9429883579
 30
0.0
 10
-105.6614180539
 20
41.9764020681
 30
0.0
 10
-105.7204352053
 20
41.9487720522
 30
0.0
 10
-105.7411326087
 20
41.929928478
 30
0.0
  0
SPLINE
  5
354
100
AcDbEntity
  8
0
100
AcDbSpline
 62
7
  6
CONTINUOUS
 70
0
 71
3
 72
9
 73
5
 74
0
 42
0.0000001
 43
0.0000001
 44
0.0000000001
 40
0.0
 40
0.0
 40
0.0
 40
0.0
 40
0.484688558
 40
1.0
 40
1.0
 40
1.0
 40
1.0
 10
-105.5892413174
 20
42.9999906686
 30
0.0
 10
-103.208771138
 20
41.633778989
 30
0.0
 10
-98.2004443043
 20
38.9821606143
 30
0.0
 10
-93.0474003787
 20
36.6267575934
 30
0.0
 10
-90.3631534358
 20
35.4822220694
 30
0.0
  0
SPLINE
  5
355
100
AcDbEntity
  8
0
100
AcDbSpline
 62
7
  6
CONTINUOUS
 70
0
 71
3
 72
11
 73
7
 74
0
 42
0.0000001
 43
0.0000001
 44
0.0000000001
 40
0.0
 40
0.0
 40
0.0
 40
0.0
 40
0.2353683062
 40
0.479914244
 40
0.7347440986
 40
1.0
 40
1.0
 40
1.0
 40
1.0
 10
-85.2894184881
 20
23.3298580912
 30
0.0
 10
-85.8776974842
 20
24.137035217
 30
0.0
 10
-86.9258777755
 20
25.8978470954
 30
0.0
 10
-88.047730942
 20
28.821108046
 30
0.0
 10
-88.7260236215
 20
32.0064365292
 30
0.0
 10
-88.8709801489
 20
34.2169647142
 30
0.0
 10
-88.8709801489
 20
35.3425977639
 30
0.0
  0
SPLINE
  5
356
100
AcDbEntity
  8
0
100
AcDbSpline
 62
7
  6
CONTINUOUS
 70
0
 71
3
 72
17
 73
13
 74
0
 42
0.0000001
 43
0.0000001
 44
0.0000000001
 40
0.0
 40
0.0
 40
0.0
 40
0.0
 40
0.1265191308
 40
0.2580354001
 40
0.3248891298
 40
0.3919128818
 40
0.5247511073
 40
0.6536987649
 40
0.7764028581
 40
0.8916359775
 40
0.9466113955
 40
1.0
 40
1.0
 40
1.0
 40
1.0
 10
-88.8705060732
 20
35.4988568698
 30
0.0
 10
-88.8591447446
 20
37.3727506963
 30
0.0
 10
-88.4203844867
 20
41.1998458996
 30
0.0
 10
-86.9648501258
 20
45.8156778845
 30
0.0
 10
-85.2871373319
 20
49.375718166
 30
0.0
 10
-83.2866261259
 20
52.7873804181
 30
0.0
 10
-80.2659125534
 20
56.6443716424
 30
0.0
 10
-75.9615281142
 20
60.4261308861
 30
0.0
 10
-71.212027029
 20
63.1464412189
 30
0.0
 10
-67.0133037678
 20
64.4156275527
 30
0.0
 10
-63.7084963185
 20
64.7352027759
 30
0.0
 10
-62.0983023761
 20
64.6681038804
 30
0.0
 10
-61.3128116408
 20
64.5769582664
 30
0.0
  0
SPLINE
  5
357
100
AcDbEntity
  8
0
100
AcDbSpline
 62
7
  6
CONTINUOUS
 70
0
 71
3
 72
9
 73
5
 74
0
 42
0.0000001
 43
0.0000001
 44
0.0000000001
 40
0.0
 40
0.0
 40
0.0
 40
0.0
 40
0.491089598
 40
1.0
 40
1.0
 40
1.0
 40
1.0
 10
-83.3339868414
 20
74.5364505216
 30
0.0
 10
-83.3310335402
 20
74.5479928353
 30
0.0
 10
-83.3293802238
 20
74.572990446
 30
0.0
 10
-83.3384879195
 20
74.5963005035
 30
0.0
 10
-83.3448619429
 20
74.6068744219
 30
0.0
  0
SPLINE
  5
358
100
AcDbEntity
  8
0
100
AcDbSpline
 62
7
  6
CONTINUOUS
 70
0
 71
3
 72
9
 73
5
 74
0
 42
0.0000001
 43
0.0000001
 44
0.0000000001
 40
0.0
 40
0.0
 40
0.0
 40
0.0
 40
0.2549584461
 40
1.0
 40
1.0
 40
1.0
 40
1.0
 10
-92.6074642914
 20
69.7134281027
 30
0.0
 10
-92.0033161804
 20
70.2554195561
 30
0.0
 10
-89.5798746392
 20
72.3200159248
 30
0.0
 10
-86.9393349241
 20
74.1330300635
 30
0.0
 10
-84.8746134427
 20
75.3001569546
 30
0.0
  0
SPLINE
  5
359
100
AcDbEntity
  8
0
100
AcDbSpline
 62
7
  6
CONTINUOUS
 70
0
 71
3
 72
11
 73
7
 74
0
 42
0.0000001
 43
0.0000001
 44
0.0000000001
 40
0.0
 40
0.0
 40
0.0
 40
0.0
 40
0.2271788101
 40
0.4698412707
 40
0.7277070453
 40
1.0
 40
1.0
 40
1.0
 40
1.0
 10
-84.7810579808
 20
75.352877695
 30
0.0
 10
-84.8917092149
 20
74.3370074153
 30
0.0
 10
-84.8757532804
 20
72.2077520015
 30
0.0
 10
-84.3137421031
 20
68.9718415797
 30
0.0
 10
-83.2149910418
 20
65.6608282551
 30
0.0
 10
-82.1639839668
 20
63.5132840514
 30
0.0
 10
-81.5744888593
 20
62.43966883
 30
0.0
  0
SPLINE
  5
35A
100
AcDbEntity
  8
0
100
AcDbSpline
 62
7
  6
CONTINUOUS
 70
0
 71
3
 72
9
 73
5
 74
0
 42
0.0000001
 43
0.0000001
 44
0.0000000001
 40
0.0
 40
0.0
 40
0.0
 40
0.0
 40
0.2458133994
 40
1.0
 40
1.0
 40
1.0
 40
1.0
 10
-81.5744888593
 20
62.43966883
 30
0.0
 10
-81.4232369215
 20
62.1670275922
 30
0.0
 10
-80.7922133804
 20
61.0666451092
 30
0.0
 10
-80.0995186952
 20
60.001895796
 30
0.0
 10
-79.5482724063
 20
59.220097954
 30
0.0
  0
SPLINE
  5
35B
100
AcDbEntity
  8
0
100
AcDbSpline
 62
7
  6
CONTINUOUS
 70
0
 71
3
 72
11
 73
7
 74
0
 42
0.0000001
 43
0.0000001
 44
0.0000000001
 40
0.0
 40
0.0
 40
0.0
 40
0.0
 40
0.2653765082
 40
0.5209947808
 40
0.7654736657
 40
1.0
 40
1.0
 40
1.0
 40
1.0
 10
-84.781036528
 20
75.35344856
 30
0.0
 10
-84.6928082614
 20
75.3859233769
 30
0.0
 10
-84.5114654237
 20
75.4292742859
 30
0.0
 10
-84.2377301012
 20
75.4317450887
 30
0.0
 10
-83.9826716426
 20
75.3648515598
 30
0.0
 10
-83.8363956029
 20
75.2717936788
 30
0.0
 10
-83.7752199391
 20
75.2155727956
 30
0.0
  0
SPLINE
  5
35C
100
AcDbEntity
  8
0
100
AcDbSpline
 62
7
  6
CONTINUOUS
 70
0
 71
3
 72
42
 73
38
 74
0
 42
0.0000001
 43
0.0000001
 44
0.0000000001
 40
0.0
 40
0.0
 40
0.0
 40
0.0
 40
0.1070008985
 40
0.2197979332
 40
0.3380232321
 40
0.3990677792
 40
0.4613383922
 40
0.5247935517
 40
0.5893927493
 40
0.655096469
 40
0.7218660839
 40
0.7896632085
 40
0.8239353198
 40
0.8584493323
 40
0.8757953719
 40
0.8931997799
 40
0.9106617904
 40
0.9281806389
 40
0.9369611871
 40
0.9457557868
 40
0.954564562
 40
0.9633879821
 40
0.9678056187
 40
0.9722276921
 40
0.9766550466
 40
0.9810895529
 40
0.9855362068
 40
0.9877690535
 40
0.9900164296
 40
0.9911526358
 40
0.9923088396
 40
0.9935234863
 40
0.9942200941
 40
0.9949884998
 40
0.9963618025
 40
0.9976106044
 40
1.0
 40
1.0
 40
1.0
 40
1.0
 10
-83.5585551096
 20
71.2467708323
 30
0.0
 10
-83.5207189394
 20
70.7885113068
 30
0.0
 10
-83.4117725964
 20
69.8494775334
 30
0.0
 10
-83.1509517312
 20
68.4195350872
 30
0.0
 10
-82.847719945
 20
67.2006822011
 30
0.0
 10
-82.5514149293
 20
66.2057631012
 30
0.0
 10
-82.2992297872
 20
65.4436640285
 30
0.0
 10
-82.0196731302
 20
64.6749158327
 30
0.0
 10
-81.713059687
 20
63.9006661214
 30
0.0
 10
-81.3798928121
 20
63.121957308
 30
0.0
 10
-81.0208753234
 20
62.3396884433
 30
0.0
 10
-80.7024574614
 20
61.6876630061
 30
0.0
 10
-80.4368399306
 20
61.164253009
 30
0.0
 10
-80.266455387
 20
60.8356575067
 30
0.0
 10
-80.128194015
 20
60.5720650799
 30
0.0
 10
-80.023543127
 20
60.373590473
 30
0.0
 10
-79.9183933526
 20
60.1745397586
 30
0.0
 10
-79.8307783564
 20
60.0081384912
 30
0.0
 10
-79.7610308174
 20
59.8744252763
 30
0.0
 10
-79.7090119781
 20
59.7736814341
 30
0.0
 10
-79.6575561831
 20
59.6724417458
 30
0.0
 10
-79.6154631761
 20
59.5875454868
 30
0.0
 10
-79.5825885403
 20
59.5191282576
 30
0.0
 10
-79.558468934
 20
59.4674670478
 30
0.0
 10
-79.5351089096
 20
59.4153756102
 30
0.0
 10
-79.5128863404
 20
59.3626744176
 30
0.0
 10
-79.4958757648
 20
59.3180189418
 30
0.0
 10
-79.4841091691
 20
59.2814957408
 30
0.0
 10
-79.4780048938
 20
59.2581204764
 30
0.0
 10
-79.474624804
 20
59.2388774262
 30
0.0
 10
-79.4734365234
 20
59.2238603569
 30
0.0
 10
-79.4744846392
 20
59.2104915267
 30
0.0
 10
-79.4800741098
 20
59.199942325
 30
0.0
 10
-79.4916481837
 20
59.1939682755
 30
0.0
 10
-79.5067196573
 20
59.1972898767
 30
0.0
 10
-79.5263512385
 20
59.2057004618
 30
0.0
 10
-79.5396120908
 20
59.2142813845
 30
0.0
 10
-79.5481033388
 20
59.2200547079
 30
0.0
  0
SPLINE
  5
35D
100
AcDbEntity
  8
0
100
AcDbSpline
 62
7
  6
CONTINUOUS
 70
0
 71
3
 72
10
 73
6
 74
0
 42
0.0000001
 43
0.0000001
 44
0.0000000001
 40
0.0
 40
0.0
 40
0.0
 40
0.0
 40
0.3608041054
 40
0.6470285305
 40
1.0
 40
1.0
 40
1.0
 40
1.0
 10
-104.5483638665
 20
54.5439821424
 30
0.0
 10
-104.551955584
 20
54.5278466781
 30
0.0
 10
-104.5328768591
 20
54.4977655419
 30
0.0
 10
-104.4983658258
 20
54.4699246451
 30
0.0
 10
-104.4733958782
 20
54.4537876543
 30
0.0
 10
-104.4593828989
 20
54.445715801
 30
0.0
  0
SPLINE
  5
35E
100
AcDbEntity
  8
0
100
AcDbSpline
 62
7
  6
CONTINUOUS
 70
0
 71
3
 72
14
 73
10
 74
0
 42
0.0000001
 43
0.0000001
 44
0.0000000001
 40
0.0
 40
0.0
 40
0.0
 40
0.0
 40
0.0285031014
 40
0.0948516375
 40
0.198746299
 40
0.3338350555
 40
0.4902777015
 40
0.6585747291
 40
1.0
 40
1.0
 40
1.0
 40
1.0
 10
-102.4198390557
 20
29.5332569519
 30
0.0
 10
-102.4213755754
 20
29.5298069359
 30
0.0
 10
-102.4109500743
 20
29.5174972602
 30
0.0
 10
-102.3921605411
 20
29.5031392549
 30
0.0
 10
-102.3573053124
 20
29.4799283463
 30
0.0
 10
-102.3125387953
 20
29.4537527014
 30
0.0
 10
-102.2590078737
 20
29.4242614167
 30
0.0
 10
-102.180796308
 20
29.3834838707
 30
0.0
 10
-102.1201680574
 20
29.3536379664
 30
0.0
 10
-102.0793457819
 20
29.334140741
 30
0.0
  0
SPLINE
  5
35F
100
AcDbEntity
  8
0
100
AcDbSpline
 62
7
  6
CONTINUOUS
 70
0
 71
3
 72
11
 73
7
 74
0
 42
0.0000001
 43
0.0000001
 44
0.0000000001
 40
0.0
 40
0.0
 40
0.0
 40
0.0
 40
0.183332838
 40
0.4104982155
 40
0.6826970559
 40
1.0
 40
1.0
 40
1.0
 40
1.0
 10
-62.0784199699
 20
69.9943048612
 30
0.0
 10
-61.9685561129
 20
69.920451806
 30
0.0
 10
-61.7383575512
 20
69.7319692035
 30
0.0
 10
-61.388110111
 20
69.3847776932
 30
0.0
 10
-60.9934518629
 20
68.946284214
 30
0.0
 10
-60.7196244578
 20
68.6203463594
 30
0.0
 10
-60.5738615794
 20
68.443577729
 30
0.0
  0
SPLINE
  5
360
100
AcDbEntity
  8
0
100
AcDbSpline
 62
7
  6
CONTINUOUS
 70
0
 71
3
 72
9
 73
5
 74
0
 42
0.0000001
 43
0.0000001
 44
0.0000000001
 40
0.0
 40
0.0
 40
0.0
 40
0.0
 40
0.2272014274
 40
1.0
 40
1.0
 40
1.0
 40
1.0
 10
-60.5738615794
 20
68.443577729
 30
0.0
 10
-60.4791631303
 20
68.328735632
 30
0.0
 10
-60.0656041809
 20
67.8205959828
 30
0.0
 10
-59.6628950727
 20
67.3037044715
 30
0.0
 10
-59.3552976767
 20
66.901558842
 30
0.0
  0
SPLINE
  5
361
100
AcDbEntity
  8
0
100
AcDbSpline
 62
7
  6
CONTINUOUS
 70
0
 71
3
 72
17
 73
13
 74
0
 42
0.0000001
 43
0.0000001
 44
0.0000000001
 40
0.0
 40
0.0
 40
0.0
 40
0.0
 40
0.24131648
 40
0.3658847221
 40
0.4927467412
 40
0.621489328
 40
0.7513406262
 40
0.8162003609
 40
0.880452899
 40
0.9430271755
 40
0.9728156798
 40
1.0
 40
1.0
 40
1.0
 40
1.0
 10
-58.8905188806
 20
66.4583971502
 30
0.0
 10
-58.8020986028
 20
66.344747601
 30
0.0
 10
-58.6694708289
 20
66.1713093525
 30
0.0
 10
-58.4935885086
 20
65.9356901743
 30
0.0
 10
-58.3593813831
 20
65.752794378
 30
0.0
 10
-58.2250158352
 20
65.5661155007
 30
0.0
 10
-58.1140638016
 20
65.408182639
 30
0.0
 10
-58.026923605
 20
65.2805625031
 30
0.0
 10
-57.9637246356
 20
65.1852409767
 30
0.0
 10
-57.9135795086
 20
65.1063146448
 30
0.0
 10
-57.8778834459
 20
65.0446061957
 30
0.0
 10
-57.8620783924
 20
65.0143673509
 30
0.0
 10
-57.8562103752
 20
64.9992449758
 30
0.0
  0
SPLINE
  5
362
100
AcDbEntity
  8
0
100
AcDbSpline
 62
7
  6
CONTINUOUS
 70
0
 71
3
 72
11
 73
7
 74
0
 42
0.0000001
 43
0.0000001
 44
0.0000000001
 40
0.0
 40
0.0
 40
0.0
 40
0.0
 40
0.0895235017
 40
0.2870909215
 40
0.597049065
 40
1.0
 40
1.0
 40
1.0
 40
1.0
 10
-96.6162619939
 20
67.373890859
 30
0.0
 10
-96.6140042641
 20
67.3768477593
 30
0.0
 10
-96.5992608569
 20
67.3754444855
 30
0.0
 10
-96.5780274221
 20
67.3668899027
 30
0.0
 10
-96.5429373221
 20
67.3501593672
 30
0.0
 10
-96.517378689
 20
67.3357673157
 30
0.0
 10
-96.5028818396
 20
67.3273860421
 30
0.0
  0
SPLINE
  5
363
100
AcDbEntity
  8
0
100
AcDbSpline
 62
7
  6
CONTINUOUS
 70
0
 71
3
 72
10
 73
6
 74
0
 42
0.0000001
 43
0.0000001
 44
0.0000000001
 40
0.0
 40
0.0
 40
0.0
 40
0.0
 40
0.5000430903
 40
0.7486592402
 40
1.0
 40
1.0
 40
1.0
 40
1.0
 10
-72.4345991
 20
76.372169982
 30
0.0
 10
-72.2657581448
 20
76.3507078558
 30
0.0
 10
-72.0139144854
 20
76.2495277609
 30
0.0
 10
-71.7773585171
 20
75.9996333255
 30
0.0
 10
-71.7007141314
 20
75.8440380004
 30
0.0
 10
-71.675011244
 20
75.7624416815
 30
0.0
  0
SPLINE
  5
364
100
AcDbEntity
  8
0
100
AcDbSpline
 62
7
  6
CONTINUOUS
 70
0
 71
3
 72
9
 73
5
 74
0
 42
0.0000001
 43
0.0000001
 44
0.0000000001
 40
0.0
 40
0.0
 40
0.0
 40
0.0
 40
0.2407446651
 40
1.0
 40
1.0
 40
1.0
 40
1.0
 10
-82.4500797141
 20
74.9441907628
 30
0.0
 10
-81.2883760508
 20
74.2676153468
 30
0.0
 10
-76.5257651721
 20
71.3497684241
 30
0.0
 10
-72.0154515918
 20
68.0278882124
 30
0.0
 10
-68.734642347
 20
65.3423028952
 30
0.0
  0
SPLINE
  5
365
100
AcDbEntity
  8
0
100
AcDbSpline
 62
7
  6
CONTINUOUS
 70
0
 71
3
 72
38
 73
34
 74
0
 42
0.0000001
 43
0.0000001
 44
0.0000000001
 40
0.0
 40
0.0
 40
0.0
 40
0.0
 40
0.0905210326
 40
0.1918783149
 40
0.3036779232
 40
0.4254611362
 40
0.4899360315
 40
0.5567047252
 40
0.6256912817
 40
0.6968050323
 40
0.7699245765
 40
0.8071834792
 40
0.8448646065
 40
0.8638473468
 40
0.8829119331
 40
0.9020435426
 40
0.9212193736
 40
0.9308128045
 40
0.9404005912
 40
0.9499716959
 40
0.9595086727
 40
0.9689807706
 40
0.9736753018
 40
0.9783244219
 40
0.9829017726
 40
0.9851500344
 40
0.9873606164
 40
0.9895619503
 40
0.990978207
 40
0.9930858939
 40
0.9949553979
 40
0.9966799728
 40
1.0
 40
1.0
 40
1.0
 40
1.0
 10
-71.5292082565
 20
72.8632329892
 30
0.0
 10
-71.4771177891
 20
72.6218907998
 30
0.0
 10
-71.3553421272
 20
72.112723045
 30
0.0
 10
-71.1306213142
 20
71.3152802203
 30
0.0
 10
-70.8480063753
 20
70.4462848716
 30
0.0
 10
-70.567354361
 20
69.6830925982
 30
0.0
 10
-70.3123781298
 20
69.0417527836
 30
0.0
 10
-70.102019724
 20
68.5377260268
 30
0.0
 10
-69.8763186971
 20
68.0205656083
 30
0.0
 10
-69.6357858457
 20
67.4910518692
 30
0.0
 10
-69.4252930104
 20
67.0429949523
 30
0.0
 10
-69.2511218347
 20
66.678646029
 30
0.0
 10
-69.1399873224
 20
66.4478291652
 30
0.0
 10
-69.0503884795
 20
66.2617218997
 30
0.0
 10
-68.9829074512
 20
66.1211189373
 30
0.0
 10
-68.9156065876
 20
65.9798459229
 30
0.0
 10
-68.8600632747
 20
65.8615870713
 30
0.0
 10
-68.8163135172
 20
65.7665527528
 30
0.0
 10
-68.7840281106
 20
65.6950828297
 30
0.0
 10
-68.7525204723
 20
65.6234329451
 30
0.0
 10
-68.7222010155
 20
65.5516152401
 30
0.0
 10
-68.6984258205
 20
65.4914761884
 30
0.0
 10
-68.6810981462
 20
65.4431687743
 30
0.0
 10
-68.6694385506
 20
65.4070066368
 30
0.0
 10
-68.6614288155
 20
65.3767758387
 30
0.0
 10
-68.6570452708
 20
65.3523783564
 30
0.0
 10
-68.6559078867
 20
65.3345379273
 30
0.0
 10
-68.6572952373
 20
65.3174964145
 30
0.0
 10
-68.6712297916
 20
65.3071345785
 30
0.0
 10
-68.6867573043
 20
65.3115634876
 30
0.0
 10
-68.7003490094
 20
65.3185144312
 30
0.0
 10
-68.7162869735
 20
65.3288030797
 30
0.0
 10
-68.7270986715
 20
65.3372933878
 30
0.0
 10
-68.734642347
 20
65.3423028952
 30
0.0
  0
SPLINE
  5
366
100
AcDbEntity
  8
0
100
AcDbSpline
 62
7
  6
CONTINUOUS
 70
0
 71
3
 72
9
 73
5
 74
0
 42
0.0000001
 43
0.0000001
 44
0.0000000001
 40
0.0
 40
0.0
 40
0.0
 40
0.0
 40
0.2620019108
 40
1.0
 40
1.0
 40
1.0
 40
1.0
 10
-71.7160315226
 20
74.928882546
 30
0.0
 10
-71.7123233157
 20
74.9789931062
 30
0.0
 10
-71.6952082318
 20
75.1700041796
 30
0.0
 10
-71.6657900585
 20
75.3600539976
 30
0.0
 10
-71.6353845592
 20
75.4982851512
 30
0.0
  0
SPLINE
  5
367
100
AcDbEntity
  8
0
100
AcDbSpline
 62
7
  6
CONTINUOUS
 70
0
 71
3
 72
9
 73
5
 74
0
 42
0.0000001
 43
0.0000001
 44
0.0000000001
 40
0.0
 40
0.0
 40
0.0
 40
0.0
 40
0.2811042254
 40
1.0
 40
1.0
 40
1.0
 40
1.0
 10
-71.7141477291
 20
74.5234020463
 30
0.0
 10
-71.7104156741
 20
74.5513807127
 30
0.0
 10
-71.6943942863
 20
74.6503948327
 30
0.0
 10
-71.6666641131
 20
74.7484521245
 30
0.0
 10
-71.6354162254
 20
74.8135247147
 30
0.0
  0
SPLINE
  5
368
100
AcDbEntity
  8
0
100
AcDbSpline
 62
7
  6
CONTINUOUS
 70
0
 71
3
 72
9
 73
5
 74
0
 42
0.0000001
 43
0.0000001
 44
0.0000000001
 40
0.0
 40
0.0
 40
0.0
 40
0.0
 40
0.5087132901
 40
1.0
 40
1.0
 40
1.0
 40
1.0
 10
-81.1066261958
 20
75.3349478426
 30
0.0
 10
-79.6869732719
 20
75.7157485618
 30
0.0
 10
-76.84212394
 20
76.2783081072
 30
0.0
 10
-73.9434837581
 20
76.4188215524
 30
0.0
 10
-72.5246779673
 20
76.3748534031
 30
0.0
  0
SPLINE
  5
369
100
AcDbEntity
  8
0
100
AcDbSpline
 62
7
  6
CONTINUOUS
 70
0
 71
3
 72
20
 73
16
 74
0
 42
0.0000001
 43
0.0000001
 44
0.0000000001
 40
0.0
 40
0.0
 40
0.0
 40
0.0
 40
0.262849963
 40
0.3935926674
 40
0.5235774498
 40
0.6523637237
 40
0.7790426197
 40
0.8409605866
 40
0.9010732498
 40
0.9299398403
 40
0.9573171196
 40
0.970045486
 40
0.9816022986
 40
0.9911275819
 40
1.0
 40
1.0
 40
1.0
 40
1.0
 10
-81.5702300413
 20
75.2676028998
 30
0.0
 10
-81.6504695735
 20
75.2451995867
 30
0.0
 10
-81.7703100323
 20
75.2105164481
 30
0.0
 10
-81.928907485
 20
75.1616767743
 30
0.0
 10
-82.0464124925
 20
75.1238018641
 30
0.0
 10
-82.1620722968
 20
75.0844492504
 30
0.0
 10
-82.2565999538
 20
75.0500100533
 30
0.0
 10
-82.3298823879
 20
75.0209375968
 30
0.0
 10
-82.3738136335
 20
75.0020427858
 30
0.0
 10
-82.4070789289
 20
74.9860168717
 30
0.0
 10
-82.4262190049
 20
74.9756146547
 30
0.0
 10
-82.4401726981
 20
74.9666857191
 30
0.0
 10
-82.4480882322
 20
74.9600721991
 30
0.0
 10
-82.4557516891
 20
74.9524855493
 30
0.0
 10
-82.452356593
 20
74.9458410516
 30
0.0
 10
-82.4500797141
 20
74.9441907628
 30
0.0
  0
SPLINE
  5
36A
100
AcDbEntity
  8
0
100
AcDbSpline
 62
7
  6
CONTINUOUS
 70
0
 71
3
 72
14
 73
10
 74
0
 42
0.0000001
 43
0.0000001
 44
0.0000000001
 40
0.0
 40
0.0
 40
0.0
 40
0.0
 40
0.0831208925
 40
0.178429535
 40
0.2859922102
 40
0.4057180317
 40
0.6806137509
 40
0.835161022
 40
1.0
 40
1.0
 40
1.0
 40
1.0
 10
-72.4346140276
 20
76.3719104956
 30
0.0
 10
-72.4921608365
 20
76.1362548734
 30
0.0
 10
-72.5579784824
 20
75.6162470031
 30
0.0
 10
-72.5424097708
 20
74.7802104608
 30
0.0
 10
-72.4283188331
 20
73.8441855053
 30
0.0
 10
-72.1240435413
 20
72.409082216
 30
0.0
 10
-71.6094902955
 20
70.8849350484
 30
0.0
 10
-70.9166120953
 20
69.29475545
 30
0.0
 10
-70.5049304447
 20
68.4580513551
 30
0.0
 10
-70.2849218118
 20
68.0302414233
 30
0.0
  0
SPLINE
  5
36B
100
AcDbEntity
  8
0
100
AcDbSpline
 62
7
  6
CONTINUOUS
 70
0
 71
3
 72
9
 73
5
 74
0
 42
0.0000001
 43
0.0000001
 44
0.0000000001
 40
0.0
 40
0.0
 40
0.0
 40
0.0
 40
0.2401027315
 40
1.0
 40
1.0
 40
1.0
 40
1.0
 10
-70.2849218118
 20
68.0302414233
 30
0.0
 10
-70.1701971569
 20
67.8098263346
 30
0.0
 10
-69.6816758504
 20
66.8974165338
 30
0.0
 10
-69.1534007297
 20
66.0064513612
 30
0.0
 10
-68.7334862076
 20
65.341518622
 30
0.0
  0
SPLINE
  5
36C
100
AcDbEntity
  8
0
100
AcDbSpline
 62
7
  6
CONTINUOUS
 70
0
 71
3
 72
21
 73
17
 74
0
 42
0.0000001
 43
0.0000001
 44
0.0000000001
 40
0.0
 40
0.0
 40
0.0
 40
0.0
 40
0.1268853855
 40
0.253827536
 40
0.3807838515
 40
0.5076839923
 40
0.6344008751
 40
0.6976185697
 40
0.7606686808
 40
0.8234429667
 40
0.88571328
 40
0.916497509
 40
0.9468178787
 40
0.976081961
 40
0.9895941676
 40
1.0
 40
1.0
 40
1.0
 40
1.0
 10
-92.6786274866
 20
69.7944301047
 30
0.0
 10
-92.7401529592
 20
69.7394422391
 30
0.0
 10
-92.8626098542
 20
69.6287439413
 30
0.0
 10
-93.0443447765
 20
69.4605243667
 30
0.0
 10
-93.2239667338
 20
69.2900344232
 30
0.0
 10
-93.4011218633
 20
69.1171905956
 30
0.0
 10
-93.5463142958
 20
68.9709755845
 30
0.0
 10
-93.6604506081
 20
68.8524751306
 30
0.0
 10
-93.7446456797
 20
68.7628955206
 30
0.0
 10
-93.8269935389
 20
68.6723985591
 30
0.0
 10
-93.8935386585
 20
68.5960603958
 30
0.0
 10
-93.9443759483
 20
68.5337452271
 30
0.0
 10
-93.9801363339
 20
68.487774971
 30
0.0
 10
-94.006894604
 20
68.4463889045
 30
0.0
 10
-94.0226994543
 20
68.4190825252
 30
0.0
 10
-94.025279538
 20
68.3975072268
 30
0.0
 10
-94.0192516989
 20
68.3944315103
 30
0.0
  0
SPLINE
  5
36D
100
AcDbEntity
  8
0
100
AcDbSpline
 62
7
  6
CONTINUOUS
 70
0
 71
3
 72
9
 73
5
 74
0
 42
0.0000001
 43
0.0000001
 44
0.0000000001
 40
0.0
 40
0.0
 40
0.0
 40
0.0
 40
0.4342871285
 40
1.0
 40
1.0
 40
1.0
 40
1.0
 10
-84.920829111
 20
75.3728557652
 30
0.0
 10
-84.9024345326
 20
75.3832667655
 30
0.0
 10
-84.8497689534
 20
75.3878087376
 30
0.0
 10
-84.8047859064
 20
75.3667462677
 30
0.0
 10
-84.7809703025
 20
75.3529305219
 30
0.0
  0
SPLINE
  5
36E
100
AcDbEntity
  8
0
100
AcDbSpline
 62
7
  6
CONTINUOUS
 70
0
 71
3
 72
11
 73
7
 74
0
 42
0.0000001
 43
0.0000001
 44
0.0000000001
 40
0.0
 40
0.0
 40
0.0
 40
0.0
 40
0.2116060466
 40
0.4550350707
 40
0.7247485238
 40
1.0
 40
1.0
 40
1.0
 40
1.0
 10
-103.740610054
 20
55.4906138636
 30
0.0
 10
-103.713849282
 20
55.4978087412
 30
0.0
 10
-103.6506617706
 20
55.4934618386
 30
0.0
 10
-103.568008004
 20
55.4429011116
 30
0.0
 10
-103.4969457001
 20
55.3670302017
 30
0.0
 10
-103.4581153028
 20
55.3067465148
 30
0.0
 10
-103.4407513522
 20
55.2751585845
 30
0.0
  0
SPLINE
  5
36F
100
AcDbEntity
  8
0
100
AcDbSpline
 62
7
  6
CONTINUOUS
 70
0
 71
3
 72
19
 73
15
 74
0
 42
0.0000001
 43
0.0000001
 44
0.0000000001
 40
0.0
 40
0.0
 40
0.0
 40
0.0
 40
0.2485107997
 40
0.3728457927
 40
0.4973175378
 40
0.6220445925
 40
0.6845678694
 40
0.7472557738
 40
0.8101854167
 40
0.8734947349
 40
0.9053732276
 40
0.9374697815
 40
0.9698585457
 40
1.0
 40
1.0
 40
1.0
 40
1.0
 10
-105.7044829208
 20
44.7145599141
 30
0.0
 10
-105.7048847005
 20
44.5717196689
 30
0.0
 10
-105.7033732837
 20
44.3573971765
 30
0.0
 10
-105.6965724083
 20
44.0716212025
 30
0.0
 10
-105.6887993631
 20
43.8570536687
 30
0.0
 10
-105.6797404937
 20
43.6780995206
 30
0.0
 10
-105.6704991051
 20
43.5347349077
 30
0.0
 10
-105.6623479428
 20
43.426894783
 30
0.0
 10
-105.6526221837
 20
43.3187489795
 30
0.0
 10
-105.6427247588
 20
43.2283497267
 30
0.0
 10
-105.6328700795
 20
43.1559394601
 30
0.0
 10
-105.6240495485
 20
43.1009729736
 30
0.0
 10
-105.6129559893
 20
43.0487140814
 30
0.0
 10
-105.6017274646
 20
43.0120010408
 30
0.0
 10
-105.5892413174
 20
42.9999906686
 30
0.0
  0
SPLINE
  5
370
100
AcDbEntity
  8
0
100
AcDbSpline
 62
7
  6
CONTINUOUS
 70
0
 71
3
 72
19
 73
15
 74
0
 42
0.0000001
 43
0.0000001
 44
0.0000000001
 40
0.0
 40
0.0
 40
0.0
 40
0.0
 40
0.0524551547
 40
0.1061439314
 40
0.1614993009
 40
0.2188102715
 40
0.3394690166
 40
0.402901519
 40
0.468028508
 40
0.6017585553
 40
0.6696712882
 40
0.737598225
 40
0.8714368647
 40
1.0
 40
1.0
 40
1.0
 40
1.0
 10
-58.1049870608
 20
65.0059156813
 30
0.0
 10
-58.925530106
 20
65.2918581574
 30
0.0
 10
-60.6381732187
 20
65.7302159929
 30
0.0
 10
-63.3134882947
 20
65.9669727
 30
0.0
 10
-66.0739407723
 20
65.7872235268
 30
0.0
 10
-69.8659477628
 20
64.9860434579
 30
0.0
 10
-73.5773911857
 20
63.3689462247
 30
0.0
 10
-77.0310735799
 20
61.0970837225
 30
0.0
 10
-80.3851089343
 20
58.3231748228
 30
0.0
 10
-83.3302113575
 20
54.9805415157
 30
0.0
 10
-85.76365725
 20
51.2299488848
 30
0.0
 10
-87.8199463963
 20
47.2566856274
 30
0.0
 10
-89.6112022118
 20
42.0470397449
 30
0.0
 10
-90.154494859
 20
37.6933300246
 30
0.0
 10
-90.1674495296
 20
35.5636750383
 30
0.0
  0
SPLINE
  5
371
100
AcDbEntity
  8
0
100
AcDbSpline
 62
7
  6
CONTINUOUS
 70
0
 71
3
 72
10
 73
6
 74
0
 42
0.0000001
 43
0.0000001
 44
0.0000000001
 40
0.0
 40
0.0
 40
0.0
 40
0.0
 40
0.4066254515
 40
0.6982318658
 40
1.0
 40
1.0
 40
1.0
 40
1.0
 10
-93.2666925259
 20
22.9000836803
 30
0.0
 10
-93.2666252921
 20
22.8450959442
 30
0.0
 10
-93.168691109
 20
22.77404283
 30
0.0
 10
-93.0460191039
 20
22.7347089589
 30
0.0
 10
-92.9657279589
 20
22.7189616193
 30
0.0
 10
-92.925268591
 20
22.7136390366
 30
0.0
  0
SPLINE
  5
372
100
AcDbEntity
  8
0
100
AcDbSpline
 62
7
  6
CONTINUOUS
 70
0
 71
3
 72
11
 73
7
 74
0
 42
0.0000001
 43
0.0000001
 44
0.0000000001
 40
0.0
 40
0.0
 40
0.0
 40
0.0
 40
0.2461924771
 40
0.4951156445
 40
0.7464728619
 40
1.0
 40
1.0
 40
1.0
 40
1.0
 10
-96.5029446081
 20
67.3272950238
 30
0.0
 10
-96.3644771355
 20
65.9305966539
 30
0.0
 10
-95.8478328678
 20
63.1425051155
 30
0.0
 10
-94.5048378906
 20
59.092430414
 30
0.0
 10
-92.6241880019
 20
55.2146274712
 30
0.0
 10
-91.0477413986
 20
52.7976869609
 30
0.0
 10
-90.1989462941
 20
51.6278094708
 30
0.0
  0
SPLINE
  5
373
100
AcDbEntity
  8
0
100
AcDbSpline
 62
7
  6
CONTINUOUS
 70
0
 71
3
 72
41
 73
37
 74
0
 42
0.0000001
 43
0.0000001
 44
0.0000000001
 40
0.0
 40
0.0
 40
0.0
 40
0.0
 40
0.1187212593
 40
0.2396366494
 40
0.3624552884
 40
0.4245079753
 40
0.4869493243
 40
0.5497576052
 40
0.6129140133
 40
0.676403022
 40
0.7402139894
 40
0.7722404117
 40
0.8043489129
 40
0.836543119
 40
0.8688299529
 40
0.9012229974
 40
0.9174674724
 40
0.9337522549
 40
0.9419132978
 40
0.9500898598
 40
0.9582857343
 40
0.9665071512
 40
0.9706307034
 40
0.9747657352
 40
0.9789160068
 40
0.9830880698
 40
0.9872953338
 40
0.9894217716
 40
0.9915762124
 40
0.9937899233
 40
0.9949576395
 40
0.9955816322
 40
0.9961825592
 40
0.998085617
 40
0.9990380724
 40
1.0
 40
1.0
 40
1.0
 40
1.0
 10
-94.2696591534
 20
62.5399044614
 30
0.0
 10
-94.1330338818
 20
61.9208445235
 30
0.0
 10
-93.8193895307
 20
60.6792895466
 30
0.0
 10
-93.2314936682
 20
58.8340915429
 30
0.0
 10
-92.6416929885
 20
57.3102924391
 30
0.0
 10
-92.110219614
 20
56.1011672322
 30
0.0
 10
-91.6807007499
 20
55.1977501211
 30
0.0
 10
-91.2223628299
 20
54.3019988799
 30
0.0
 10
-90.7359478744
 20
53.4147953609
 30
0.0
 10
-90.2223267833
 20
52.5368624762
 30
0.0
 10
-89.7729878928
 20
51.8142921738
 30
0.0
 10
-89.4011901578
 20
51.2410830586
 30
0.0
 10
-89.1160569816
 20
50.8129417889
 30
0.0
 10
-88.8253096053
 20
50.3869119475
 30
0.0
 10
-88.5293930013
 20
49.9626051152
 30
0.0
 10
-88.2792813069
 20
49.6102134476
 30
0.0
 10
-88.0776893657
 20
49.3281749743
 30
0.0
 10
-87.9512658796
 20
49.1514596712
 30
0.0
 10
-87.8501855205
 20
49.0095854693
 30
0.0
 10
-87.7744435358
 20
48.9026941845
 30
0.0
 10
-87.6989845808
 20
48.7952085168
 30
0.0
 10
-87.6366065674
 20
48.7049846256
 30
0.0
 10
-87.5872333895
 20
48.6321379895
 30
0.0
 10
-87.5505205242
 20
48.5769752855
 30
0.0
 10
-87.5143115897
 20
48.521170025
 30
0.0
 10
-87.4788629459
 20
48.4644208827
 30
0.0
 10
-87.4504373461
 20
48.4160423942
 30
0.0
 10
-87.4290164619
 20
48.3760788267
 30
0.0
 10
-87.4140082546
 20
48.3448252621
 30
0.0
 10
-87.4031589799
 20
48.3171859244
 30
0.0
 10
-87.3989958742
 20
48.2961139498
 30
0.0
 10
-87.3998732816
 20
48.2830484768
 30
0.0
 10
-87.4114276553
 20
48.268789755
 30
0.0
 10
-87.4331324988
 20
48.2769277779
 30
0.0
 10
-87.4519094996
 20
48.2830132039
 30
0.0
 10
-87.4598720212
 20
48.289976276
 30
0.0
 10
-87.4644043591
 20
48.2923933705
 30
0.0
  0
SPLINE
  5
374
100
AcDbEntity
  8
0
100
AcDbSpline
 62
7
  6
CONTINUOUS
 70
0
 71
3
 72
10
 73
6
 74
0
 42
0.0000001
 43
0.0000001
 44
0.0000000001
 40
0.0
 40
0.0
 40
0.0
 40
0.0
 40
0.268073694
 40
0.5319602427
 40
1.0
 40
1.0
 40
1.0
 40
1.0
 10
-96.5030566831
 20
67.3281019208
 30
0.0
 10
-96.4177123122
 20
67.4089382819
 30
0.0
 10
-96.2257606971
 20
67.5473961127
 30
0.0
 10
-95.8245845627
 20
67.7212976648
 30
0.0
 10
-95.4692577448
 20
67.7316019241
 30
0.0
 10
-95.2832997957
 20
67.6447599057
 30
0.0
  0
SPLINE
  5
375
100
AcDbEntity
  8
0
100
AcDbSpline
 62
7
  6
CONTINUOUS
 70
0
 71
3
 72
9
 73
5
 74
0
 42
0.0000001
 43
0.0000001
 44
0.0000000001
 40
0.0
 40
0.0
 40
0.0
 40
0.0
 40
0.2516468387
 40
1.0
 40
1.0
 40
1.0
 40
1.0
 10
-94.2695815107
 20
62.5399727569
 30
0.0
 10
-94.3938318718
 20
62.9588527675
 30
0.0
 10
-94.8503060719
 20
64.6341401637
 30
0.0
 10
-95.1536946244
 20
66.3519151559
 30
0.0
 10
-95.2832994274
 20
67.6447562329
 30
0.0
  0
SPLINE
  5
376
100
AcDbEntity
  8
0
100
AcDbSpline
 62
7
  6
CONTINUOUS
 70
0
 71
3
 72
9
 73
5
 74
0
 42
0.0000001
 43
0.0000001
 44
0.0000000001
 40
0.0
 40
0.0
 40
0.0
 40
0.0
 40
0.2473761831
 40
1.0
 40
1.0
 40
1.0
 40
1.0
 10
-96.4894981554
 20
25.7824349768
 30
0.0
 10
-96.9641835916
 20
26.0526895086
 30
0.0
 10
-98.8704252681
 20
27.167139106
 30
0.0
 10
-100.7236284451
 20
28.3730030722
 30
0.0
 10
-102.0793377758
 20
29.3341555797
 30
0.0
  0
SPLINE
  5
377
100
AcDbEntity
  8
0
100
AcDbSpline
 62
7
  6
CONTINUOUS
 70
0
 71
3
 72
9
 73
5
 74
0
 42
0.0000001
 43
0.0000001
 44
0.0000000001
 40
0.0
 40
0.0
 40
0.0
 40
0.0
 40
0.2413840968
 40
1.0
 40
1.0
 40
1.0
 40
1.0
 10
-102.1525909517
 20
28.3219741293
 30
0.0
 10
-102.1600477135
 20
28.3306547343
 30
0.0
 10
-102.1892315794
 20
28.3680825893
 30
0.0
 10
-102.2112521399
 20
28.4108226994
 30
0.0
 10
-102.2242967011
 20
28.4443383398
 30
0.0
  0
SPLINE
  5
378
100
AcDbEntity
  8
0
100
AcDbSpline
 62
7
  6
CONTINUOUS
 70
0
 71
3
 72
10
 73
6
 74
0
 42
0.0000001
 43
0.0000001
 44
0.0000000001
 40
0.0
 40
0.0
 40
0.0
 40
0.0
 40
0.4367784995
 40
0.7069841414
 40
1.0
 40
1.0
 40
1.0
 40
1.0
 10
-102.2242967011
 20
28.4443383398
 30
0.0
 10
-102.2730456765
 20
28.5695900197
 30
0.0
 10
-102.2756932632
 20
28.8001865079
 30
0.0
 10
-102.1959388965
 20
29.0965357806
 30
0.0
 10
-102.1239676028
 20
29.2558071715
 30
0.0
 10
-102.0793190154
 20
29.3341422777
 30
0.0
  0
SPLINE
  5
379
100
AcDbEntity
  8
0
100
AcDbSpline
 62
7
  6
CONTINUOUS
 70
0
 71
3
 72
9
 73
5
 74
0
 42
0.0000001
 43
0.0000001
 44
0.0000000001
 40
0.0
 40
0.0
 40
0.0
 40
0.0
 40
0.5096457485
 40
1.0
 40
1.0
 40
1.0
 40
1.0
 10
-96.4894360702
 20
25.7823833741
 30
0.0
 10
-94.4904826056
 20
24.3995229064
 30
0.0
 10
-90.3869118516
 20
21.9411689179
 30
0.0
 10
-86.035233509
 20
19.9671776208
 30
0.0
 10
-83.8609225236
 20
19.1059703389
 30
0.0
  0
SPLINE
  5
37A
100
AcDbEntity
  8
0
100
AcDbSpline
 62
7
  6
CONTINUOUS
 70
0
 71
3
 72
11
 73
7
 74
0
 42
0.0000001
 43
0.0000001
 44
0.0000000001
 40
0.0
 40
0.0
 40
0.0
 40
0.0
 40
0.2545373474
 40
0.5063299733
 40
0.7549326873
 40
1.0
 40
1.0
 40
1.0
 40
1.0
 10
-104.4594039199
 20
54.4456109701
 30
0.0
 10
-103.9002525211
 20
52.9048282198
 30
0.0
 10
-102.5744594374
 20
49.9144274569
 30
0.0
 10
-100.0896349125
 20
45.7245824178
 30
0.0
 10
-97.1809739328
 20
41.8927506098
 30
0.0
 10
-94.9864924086
 20
39.5837736377
 30
0.0
 10
-93.8473010446
 20
38.4916611102
 30
0.0
  0
SPLINE
  5
37B
100
AcDbEntity
  8
0
100
AcDbSpline
 62
7
  6
CONTINUOUS
 70
0
 71
3
 72
9
 73
5
 74
0
 42
0.0000001
 43
0.0000001
 44
0.0000000001
 40
0.0
 40
0.0
 40
0.0
 40
0.0
 40
0.2451599773
 40
1.0
 40
1.0
 40
1.0
 40
1.0
 10
-105.6162947989
 20
44.7091448601
 30
0.0
 10
-105.6121034256
 20
45.5113165044
 30
0.0
 10
-105.4991868162
 20
48.7824415217
 30
0.0
 10
-105.0115825209
 20
52.0382301029
 30
0.0
 10
-104.4594039199
 20
54.4456109701
 30
0.0
  0
SPLINE
  5
37C
100
AcDbEntity
  8
0
100
AcDbSpline
 62
7
  6
CONTINUOUS
 70
0
 71
3
 72
9
 73
5
 74
0
 42
0.0000001
 43
0.0000001
 44
0.0000000001
 40
0.0
 40
0.0
 40
0.0
 40
0.0
 40
0.2592946023
 40
1.0
 40
1.0
 40
1.0
 40
1.0
 10
-96.8205899926
 20
24.9437035529
 30
0.0
 10
-95.7528797709
 20
24.3333537093
 30
0.0
 10
-91.5769695452
 20
22.0817011819
 30
0.0
 10
-87.2030086258
 20
20.2052683155
 30
0.0
 10
-83.9009826696
 20
19.0055677812
 30
0.0
  0
SPLINE
  5
37D
100
AcDbEntity
  8
0
100
AcDbSpline
 62
7
  6
CONTINUOUS
 70
0
 71
3
 72
11
 73
7
 74
0
 42
0.0000001
 43
0.0000001
 44
0.0000000001
 40
0.0
 40
0.0
 40
0.0
 40
0.0
 40
0.2020918851
 40
0.4273364736
 40
0.6923023366
 40
1.0
 40
1.0
 40
1.0
 40
1.0
 10
-92.6483392744
 20
22.0579078487
 30
0.0
 10
-92.6960529661
 20
22.0763000649
 30
0.0
 10
-92.788865196
 20
22.1393362863
 30
0.0
 10
-92.8831423837
 20
22.2915316944
 30
0.0
 10
-92.9315017739
 20
22.4899153083
 30
0.0
 10
-92.9327429652
 20
22.636168201
 30
0.0
 10
-92.9252652103
 20
22.71366576
 30
0.0
  0
SPLINE
  5
37E
100
AcDbEntity
  8
0
100
AcDbSpline
 62
7
  6
CONTINUOUS
 70
0
 71
3
 72
25
 73
21
 74
0
 42
0.0000001
 43
0.0000001
 44
0.0000000001
 40
0.0
 40
0.0
 40
0.0
 40
0.0
 40
0.1254408665
 40
0.2511335561
 40
0.3768890994
 40
0.4397480268
 40
0.502568872
 40
0.5653393327
 40
0.6280501801
 40
0.6906959793
 40
0.7532778196
 40
0.7845496647
 40
0.8158136336
 40
0.847076729
 40
0.8783506903
 40
0.9096567365
 40
0.9410389825
 40
0.956789371
 40
0.9726205145
 40
1.0
 40
1.0
 40
1.0
 40
1.0
 10
-100.6832702327
 20
49.2256337316
 30
0.0
 10
-100.3754902133
 20
48.5707414397
 30
0.0
 10
-99.7235117865
 20
47.2761022713
 30
0.0
 10
-98.6393667691
 20
45.3904203454
 30
0.0
 10
-97.6506040679
 20
43.8694963489
 30
0.0
 10
-96.8115787914
 20
42.6862207399
 30
0.0
 10
-96.1593438602
 20
41.8163765994
 30
0.0
 10
-95.4850612006
 20
40.9646149476
 30
0.0
 10
-94.7896912299
 20
40.1312983923
 30
0.0
 10
-94.0742245964
 20
39.3166239154
 30
0.0
 10
-93.4619449218
 20
38.6531007467
 30
0.0
 10
-92.9632161707
 20
38.1313346122
 30
0.0
 10
-92.585006066
 20
37.7444738797
 30
0.0
 10
-92.2024288937
 20
37.361426091
 30
0.0
 10
-91.8168598909
 20
36.9828987201
 30
0.0
 10
-91.4241710217
 20
36.6037414443
 30
0.0
 10
-91.1053051367
 20
36.2997902488
 30
0.0
 10
-90.8252041932
 20
36.0317308866
 30
0.0
 10
-90.6470732033
 20
35.8613756875
 30
0.0
 10
-90.2027944449
 20
35.420712863
 30
0.0
 10
-90.3502285519
 20
35.4773531637
 30
0.0
  0
SPLINE
  5
37F
100
AcDbEntity
  8
0
100
AcDbSpline
 62
7
  6
CONTINUOUS
 70
0
 71
3
 72
11
 73
7
 74
0
 42
0.0000001
 43
0.0000001
 44
0.0000000001
 40
0.0
 40
0.0
 40
0.0
 40
0.0
 40
0.2431467672
 40
0.5008391382
 40
0.7588651579
 40
1.0
 40
1.0
 40
1.0
 40
1.0
 10
-104.4597537948
 20
54.4465152583
 30
0.0
 10
-104.414869879
 20
54.5469127944
 30
0.0
 10
-104.2919059059
 20
54.740170353
 30
0.0
 10
-104.0518200539
 20
54.9886571789
 30
0.0
 10
-103.7639565072
 20
55.1784266622
 30
0.0
 10
-103.5482704057
 20
55.2570423876
 30
0.0
 10
-103.4407229245
 20
55.2751655848
 30
0.0
  0
SPLINE
  5
380
100
AcDbEntity
  8
0
100
AcDbSpline
 62
7
  6
CONTINUOUS
 70
0
 71
3
 72
9
 73
5
 74
0
 42
0.0000001
 43
0.0000001
 44
0.0000000001
 40
0.0
 40
0.0
 40
0.0
 40
0.0
 40
0.2489143895
 40
1.0
 40
1.0
 40
1.0
 40
1.0
 10
-100.9225942524
 20
49.7451824309
 30
0.0
 10
-101.167321957
 20
50.1863079596
 30
0.0
 10
-102.1162138006
 20
51.9772533414
 30
0.0
 10
-102.924174364
 20
53.8433406176
 30
0.0
 10
-103.4407363357
 20
55.2752027577
 30
0.0
  0
SPLINE
  5
381
100
AcDbEntity
  8
0
100
AcDbSpline
 62
7
  6
CONTINUOUS
 70
0
 71
3
 72
9
 73
5
 74
0
 42
0.0000001
 43
0.0000001
 44
0.0000000001
 40
0.0
 40
0.0
 40
0.0
 40
0.0
 40
0.2479319894
 40
1.0
 40
1.0
 40
1.0
 40
1.0
 10
-101.7355864186
 20
36.2915148603
 30
0.0
 10
-102.1084890307
 20
36.6779489667
 30
0.0
 10
-103.5875982569
 20
38.2603901148
 30
0.0
 10
-104.963392531
 20
39.9399318179
 30
0.0
 10
-105.9282270605
 20
41.2524238386
 30
0.0
  0
SPLINE
  5
382
100
AcDbEntity
  8
0
100
AcDbSpline
 62
7
  6
CONTINUOUS
 70
0
 71
3
 72
9
 73
5
 74
0
 42
0.0000001
 43
0.0000001
 44
0.0000000001
 40
0.0
 40
0.0
 40
0.0
 40
0.0
 40
0.237304193
 40
1.0
 40
1.0
 40
1.0
 40
1.0
 10
-106.5191372681
 20
40.1602993096
 30
0.0
 10
-106.5203052439
 20
40.1784968932
 30
0.0
 10
-106.5218662873
 20
40.2554001938
 30
0.0
 10
-106.5111991331
 20
40.3322135353
 30
0.0
 10
-106.4987148197
 20
40.3894758058
 30
0.0
  0
SPLINE
  5
383
100
AcDbEntity
  8
0
100
AcDbSpline
 62
7
  6
CONTINUOUS
 70
0
 71
3
 72
10
 73
6
 74
0
 42
0.0000001
 43
0.0000001
 44
0.0000000001
 40
0.0
 40
0.0
 40
0.0
 40
0.0
 40
0.4756935976
 40
0.737919611
 40
1.0
 40
1.0
 40
1.0
 40
1.0
 10
-106.4987148197
 20
40.3894758058
 30
0.0
 10
-106.4632109766
 20
40.552322615
 30
0.0
 10
-106.3524089147
 20
40.7941751513
 30
0.0
 10
-106.1366108805
 20
41.0706249185
 30
0.0
 10
-106.0015297841
 20
41.1971164994
 30
0.0
 10
-105.9282274466
 20
41.2524243644
 30
0.0
  0
SPLINE
  5
384
100
AcDbEntity
  8
0
100
AcDbSpline
 62
7
  6
CONTINUOUS
 70
0
 71
3
 72
39
 73
35
 74
0
 42
0.0000001
 43
0.0000001
 44
0.0000000001
 40
0.0
 40
0.0
 40
0.0
 40
0.0
 40
0.1281212114
 40
0.2556137902
 40
0.3822821582
 40
0.4452587457
 40
0.5079688522
 40
0.5703985212
 40
0.6325366618
 40
0.694375916
 40
0.7559155272
 40
0.7865775821
 40
0.8171731661
 40
0.847710142
 40
0.8782019273
 40
0.9086730594
 40
0.9391749363
 40
0.9544732926
 40
0.9621482
 40
0.9698515613
 40
0.9737186266
 40
0.9776000438
 40
0.9815008682
 40
0.9854294899
 40
0.9894018734
 40
0.9934567951
 40
0.9955501749
 40
0.9966236266
 40
0.9971349139
 40
0.9974496384
 40
0.9976546073
 40
0.9979202842
 40
0.9985565898
 40
1.0
 40
1.0
 40
1.0
 40
1.0
 10
-101.7355023777
 20
36.2910991004
 30
0.0
 10
-101.2286716616
 20
35.6641913295
 30
0.0
 10
-100.1848239449
 20
34.4394655621
 30
0.0
 10
-98.5320415583
 20
32.6905267968
 30
0.0
 10
-97.0894511211
 20
31.3104950636
 30
0.0
 10
-95.9023336757
 20
30.2557752477
 30
0.0
 10
-94.9986740657
 20
29.4911025251
 30
0.0
 10
-94.0812948819
 20
28.7513413732
 30
0.0
 10
-93.151364593
 20
28.0363794783
 30
0.0
 10
-92.21000278
 20
27.3459793706
 30
0.0
 10
-91.4158860345
 20
26.7901181557
 30
0.0
 10
-90.7758911194
 20
26.357191338
 30
0.0
 10
-90.2941546533
 20
26.0385265702
 30
0.0
 10
-89.8101647323
 20
25.7252650682
 30
0.0
 10
-89.323894412
 20
25.4170172951
 30
0.0
 10
-88.8351695855
 20
25.1130971257
 30
0.0
 10
-88.4258097667
 20
24.8626147565
 30
0.0
 10
-88.1383394323
 20
24.6877568588
 30
0.0
 10
-87.9734864575
 20
24.5873529854
 30
0.0
 10
-87.8701601363
 20
24.5242050853
 30
0.0
 10
-87.7873365529
 20
24.4732842296
 30
0.0
 10
-87.7249959258
 20
24.434726867
 30
0.0
 10
-87.662483554
 20
24.3957261398
 30
0.0
 10
-87.5997057369
 20
24.3560168492
 30
0.0
 10
-87.5365856219
 20
24.3152448885
 30
0.0
 10
-87.4836005539
 20
24.2794031416
 30
0.0
 10
-87.4472510101
 20
24.2529782871
 30
0.0
 10
-87.4291473379
 20
24.2373125425
 30
0.0
 10
-87.4215147852
 20
24.2295797005
 30
0.0
 10
-87.4174288269
 20
24.2219939244
 30
0.0
 10
-87.423028831
 20
24.2196816329
 30
0.0
 10
-87.4297519849
 20
24.2202482459
 30
0.0
 10
-87.4444586433
 20
24.22308648
 30
0.0
 10
-87.4568189361
 20
24.2272131342
 30
0.0
 10
-87.4654141183
 20
24.230147139
 30
0.0
  0
SPLINE
  5
385
100
AcDbEntity
  8
0
100
AcDbSpline
 62
7
  6
CONTINUOUS
 70
0
 71
3
 72
9
 73
5
 74
0
 42
0.0000001
 43
0.0000001
 44
0.0000000001
 40
0.0
 40
0.0
 40
0.0
 40
0.0
 40
0.4912637822
 40
1.0
 40
1.0
 40
1.0
 40
1.0
 10
-103.2546011175
 20
32.170787689
 30
0.0
 10
-103.980167774
 20
33.387771351
 30
0.0
 10
-105.2636353087
 20
35.9844125255
 30
0.0
 10
-106.1579778659
 20
38.7371926054
 30
0.0
 10
-106.5185090245
 20
40.1594623847
 30
0.0
  0
SPLINE
  5
386
100
AcDbEntity
  8
0
100
AcDbSpline
 62
7
  6
CONTINUOUS
 70
0
 71
3
 72
11
 73
7
 74
0
 42
0.0000001
 43
0.0000001
 44
0.0000000001
 40
0.0
 40
0.0
 40
0.0
 40
0.0
 40
0.2582307536
 40
0.5115959454
 40
0.7591378325
 40
1.0
 40
1.0
 40
1.0
 40
1.0
 10
-106.5185090245
 20
40.1594623847
 30
0.0
 10
-105.4748097327
 20
38.7531448519
 30
0.0
 10
-103.2473406595
 20
36.0828757703
 30
0.0
 10
-99.572509231
 20
32.4669419278
 30
0.0
 10
-95.6706371312
 20
29.2808023514
 30
0.0
 10
-92.9275837248
 20
27.4164529863
 30
0.0
 10
-91.5421198308
 20
26.5511065382
 30
0.0
  0
SPLINE
  5
387
100
AcDbEntity
  8
0
100
AcDbSpline
 62
7
  6
CONTINUOUS
 70
0
 71
3
 72
11
 73
7
 74
0
 42
0.0000001
 43
0.0000001
 44
0.0000000001
 40
0.0
 40
0.0
 40
0.0
 40
0.0
 40
0.2512007982
 40
0.5021599471
 40
0.7520359467
 40
1.0
 40
1.0
 40
1.0
 40
1.0
 10
2.4730953084
 20
2.461085427
 30
0.0
 10
2.0895357859
 20
1.7045283752
 30
0.0
 10
1.2699686646
 20
0.2182670069
 30
0.0
 10
-0.1086352178
 20
-1.9166967064
 30
0.0
 10
-1.6260276338
 20
-3.941728605
 30
0.0
 10
-2.727433018
 20
-5.2139390629
 30
0.0
 10
-3.2980094435
 20
-5.8267334177
 30
0.0
  0
SPLINE
  5
388
100
AcDbEntity
  8
0
100
AcDbSpline
 62
7
  6
CONTINUOUS
 70
0
 71
3
 72
9
 73
5
 74
0
 42
0.0000001
 43
0.0000001
 44
0.0000000001
 40
0.0
 40
0.0
 40
0.0
 40
0.0
 40
0.5066349387
 40
1.0
 40
1.0
 40
1.0
 40
1.0
 10
-9.9006190044
 20
-11.2884129921
 30
0.0
 10
-10.6487496823
 20
-11.7505310265
 30
0.0
 10
-12.1675131294
 20
-12.596498349
 30
0.0
 10
-13.7609708544
 20
-13.2926909749
 30
0.0
 10
-14.5622760031
 20
-13.5946624436
 30
0.0
  0
SPLINE
  5
389
100
AcDbEntity
  8
0
100
AcDbSpline
 62
7
  6
CONTINUOUS
 70
0
 71
3
 72
14
 73
10
 74
0
 42
0.0000001
 43
0.0000001
 44
0.0000000001
 40
0.0
 40
0.0
 40
0.0
 40
0.0
 40
0.119208615
 40
0.2390479391
 40
0.3601146774
 40
0.4829653607
 40
0.6080685888
 40
0.7358099545
 40
1.0
 40
1.0
 40
1.0
 40
1.0
 10
-0.8230990746
 20
11.3751878248
 30
0.0
 10
-0.8806703514
 20
11.4084407225
 30
0.0
 10
-0.99999724
 20
11.4686430888
 30
0.0
 10
-1.188645425
 20
11.5386888313
 30
0.0
 10
-1.3858340248
 20
11.5880937973
 30
0.0
 10
-1.5900711729
 20
11.616379283
 30
0.0
 10
-1.7998631231
 20
11.6235232311
 30
0.0
 10
-2.08794766
 20
11.6045426138
 30
0.0
 10
-2.3032742016
 20
11.5584467319
 30
0.0
 10
-2.4442330688
 20
11.5155443056
 30
0.0
  0
SPLINE
  5
38A
100
AcDbEntity
  8
0
100
AcDbSpline
 62
7
  6
CONTINUOUS
 70
0
 71
3
 72
17
 73
13
 74
0
 42
0.0000001
 43
0.0000001
 44
0.0000000001
 40
0.0
 40
0.0
 40
0.0
 40
0.0
 40
0.0572956204
 40
0.1147518779
 40
0.1725244073
 40
0.2307642335
 40
0.349098098
 40
0.4707844955
 40
0.5964856929
 40
0.7265783642
 40
0.8611466996
 40
1.0
 40
1.0
 40
1.0
 40
1.0
 10
0.3897488756
 20
13.4750928732
 30
0.0
 10
0.4645465746
 20
13.4318840874
 30
0.0
 10
0.6108808362
 20
13.3391715982
 30
0.0
 10
0.8187789193
 20
13.1824172482
 30
0.0
 10
1.0144499122
 20
13.0084488204
 30
0.0
 10
1.2591239822
 20
12.7531402963
 30
0.0
 10
1.5311051426
 20
12.3926262599
 30
0.0
 10
1.7948158547
 20
11.9062740728
 30
0.0
 10
1.9943644904
 20
11.3714365268
 30
0.0
 10
2.1266765346
 20
10.7963584516
 30
0.0
 10
2.1901321278
 20
10.1899623899
 30
0.0
 10
2.1860067588
 20
9.7767719742
 30
0.0
 10
2.1728492896
 20
9.5678452394
 30
0.0
  0
SPLINE
  5
38B
100
AcDbEntity
  8
0
100
AcDbSpline
 62
7
  6
CONTINUOUS
 70
0
 71
3
 72
17
 73
13
 74
0
 42
0.0000001
 43
0.0000001
 44
0.0000000001
 40
0.0
 40
0.0
 40
0.0
 40
0.0
 40
0.1368886834
 40
0.2698397366
 40
0.3988757712
 40
0.5242259661
 40
0.6463064178
 40
0.7657323928
 40
0.824721521
 40
0.8833513762
 40
0.9417375154
 40
1.0
 40
1.0
 40
1.0
 40
1.0
 10
-1.41122245
 20
4.0223244204
 30
0.0
 10
-1.5683071524
 20
3.9428802181
 30
0.0
 10
-1.8859289936
 20
3.8013976638
 30
0.0
 10
-2.3747025551
 20
3.6426737141
 30
0.0
 10
-2.8637680438
 20
3.542575484
 30
0.0
 10
-3.3474096521
 20
3.5021398778
 30
0.0
 10
-3.8200111631
 20
3.5222571401
 30
0.0
 10
-4.2018374987
 20
3.5895264163
 30
0.0
 10
-4.4951542502
 20
3.6732501731
 30
0.0
 10
-4.7081472862
 20
3.7503727087
 30
0.0
 10
-4.9143431781
 20
3.8418431075
 30
0.0
 10
-5.0469472792
 20
3.912285024
 30
0.0
 10
-5.1118227628
 20
3.9497619874
 30
0.0
  0
SPLINE
  5
38C
100
AcDbEntity
  8
0
100
AcDbSpline
 62
7
  6
CONTINUOUS
 70
0
 71
3
 72
11
 73
7
 74
0
 42
0.0000001
 43
0.0000001
 44
0.0000000001
 40
0.0
 40
0.0
 40
0.0
 40
0.0
 40
0.2453168169
 40
0.4925825492
 40
0.7436182792
 40
1.0
 40
1.0
 40
1.0
 40
1.0
 10
-2.143846715
 20
14.9384293953
 30
0.0
 10
-2.270508387
 20
15.0115981746
 30
0.0
 10
-2.5354206106
 20
15.140975518
 30
0.0
 10
-2.9579666057
 20
15.2796431071
 30
0.0
 10
-3.4017323273
 20
15.3616098748
 30
0.0
 10
-3.7047977765
 20
15.3778440867
 30
0.0
 10
-3.8576680093
 20
15.3767207666
 30
0.0
  0
SPLINE
  5
38D
100
AcDbEntity
  8
0
100
AcDbSpline
 62
7
  6
CONTINUOUS
 70
0
 71
3
 72
14
 73
10
 74
0
 42
0.0000001
 43
0.0000001
 44
0.0000000001
 40
0.0
 40
0.0
 40
0.0
 40
0.0
 40
0.1168123283
 40
0.2345708065
 40
0.3541627878
 40
0.4763482381
 40
0.6017369591
 40
0.7307422455
 40
1.0
 40
1.0
 40
1.0
 40
1.0
 10
-5.1118227628
 20
3.9497619874
 30
0.0
 10
-5.2398279526
 20
4.0237074275
 30
0.0
 10
-5.4868025666
 20
4.1904498042
 30
0.0
 10
-5.820997123
 20
4.4911242752
 30
0.0
 10
-6.1158334167
 20
4.8394688694
 30
0.0
 10
-6.3680689194
 20
5.2311782536
 30
0.0
 10
-6.5748403473
 20
5.6619135542
 30
0.0
 10
-6.7901133204
 20
6.2898417268
 30
0.0
 10
-6.8721096309
 20
6.7921457489
 30
0.0
 10
-6.8945935864
 20
7.1321545355
 30
0.0
  0
SPLINE
  5
38E
100
AcDbEntity
  8
0
100
AcDbSpline
 62
7
  6
CONTINUOUS
 70
0
 71
3
 72
18
 73
14
 74
0
 42
0.0000001
 43
0.0000001
 44
0.0000000001
 40
0.0
 40
0.0
 40
0.0
 40
0.0
 40
0.1403198486
 40
0.2762947014
 40
0.4074418925
 40
0.4711856496
 40
0.5336982691
 40
0.6551442811
 40
0.7725339589
 40
0.8300855802
 40
0.8870556242
 40
0.9436290634
 40
1.0
 40
1.0
 40
1.0
 40
1.0
 10
-4.4283768856
 20
12.6613278713
 30
0.0
 10
-4.2417917292
 20
12.817367638
 30
0.0
 10
-3.8563924416
 20
13.1039464425
 30
0.0
 10
-3.2410371013
 20
13.4541057955
 30
0.0
 10
-2.7079558942
 20
13.6709506019
 30
0.0
 10
-2.278739826
 20
13.7941439547
 30
0.0
 10
-1.8581084778
 20
13.881954983
 30
0.0
 10
-1.3357076709
 20
13.9304495164
 30
0.0
 10
-0.8206084166
 20
13.8929453395
 30
0.0
 10
-0.42655573
 20
13.8111357139
 30
0.0
 10
-0.1423347745
 20
13.7249429628
 30
0.0
 10
0.130958936
 20
13.6140897301
 30
0.0
 10
0.3051375234
 20
13.5239707637
 30
0.0
 10
0.3897488756
 20
13.4750928732
 30
0.0
  0
SPLINE
  5
38F
100
AcDbEntity
  8
0
100
AcDbSpline
 62
7
  6
CONTINUOUS
 70
0
 71
3
 72
15
 73
11
 74
0
 42
0.0000001
 43
0.0000001
 44
0.0000000001
 40
0.0
 40
0.0
 40
0.0
 40
0.0
 40
0.1362767894
 40
0.2687549244
 40
0.3975113081
 40
0.5228011129
 40
0.6450369774
 40
0.7648121886
 40
0.8828528242
 40
1.0
 40
1.0
 40
1.0
 40
1.0
 10
-9.4182680793
 20
8.4686331985
 30
0.0
 10
-9.4032478325
 20
8.3025578766
 30
0.0
 10
-9.3578479741
 20
7.9762029337
 30
0.0
 10
-9.241762029
 20
7.5029559884
 30
0.0
 10
-9.0794754219
 20
7.0576471
 30
0.0
 10
-8.8728632976
 20
6.6449763404
 30
0.0
 10
-8.6237483907
 20
6.2695054124
 30
0.0
 10
-8.3349046123
 20
5.9351776736
 30
0.0
 10
-8.0092563406
 20
5.6459051889
 30
0.0
 10
-7.7695425452
 20
5.4848000273
 30
0.0
 10
-7.6454189529
 20
5.4130974224
 30
0.0
  0
SPLINE
  5
390
100
AcDbEntity
  8
0
100
AcDbSpline
 62
7
  6
CONTINUOUS
 70
0
 71
3
 72
36
 73
32
 74
0
 42
0.0000001
 43
0.0000001
 44
0.0000000001
 40
0.0
 40
0.0
 40
0.0
 40
0.0
 40
0.0261127162
 40
0.0523168007
 40
0.0787012742
 40
0.1053494365
 40
0.1187997897
 40
0.1323439385
 40
0.159738986
 40
0.1875974599
 40
0.2159638931
 40
0.2743025604
 40
0.3349208026
 40
0.3660895543
 40
0.3977938061
 40
0.4300020203
 40
0.4626755337
 40
0.4957675897
 40
0.5292262087
 40
0.5629933098
 40
0.597007199
 40
0.6312024181
 40
0.6655112715
 40
0.7341677949
 40
0.8024453975
 40
0.8362856529
 40
0.8698315971
 40
0.903025689
 40
0.9358208994
 40
0.9681673355
 40
1.0
 40
1.0
 40
1.0
 40
1.0
 10
22.6062940843
 20
21.1497273562
 30
0.0
 10
22.1762217593
 20
21.3981058105
 30
0.0
 10
21.2912813498
 20
21.8565830571
 30
0.0
 10
19.9032734832
 20
22.4221309786
 30
0.0
 10
18.4601580332
 20
22.8632058216
 30
0.0
 10
17.221267242
 20
23.1247566701
 30
0.0
 10
16.2112037732
 20
23.2703747355
 30
0.0
 10
15.1817019714
 20
23.3741744796
 30
0.0
 10
13.8724994691
 20
23.4228372449
 30
0.0
 10
12.2819863611
 20
23.3518713975
 30
0.0
 10
10.1176988355
 20
23.0837736583
 30
0.0
 10
7.3842342415
 20
22.4202311652
 30
0.0
 10
4.7227775044
 20
21.3615636179
 30
0.0
 10
2.6332493645
 20
20.2862876683
 30
0.0
 10
1.0794713468
 20
19.3587124496
 30
0.0
 10
-0.4385661276
 20
18.3223440321
 30
0.0
 10
-1.9135743155
 20
17.1819536738
 30
0.0
 10
-3.3386384352
 20
15.9432424733
 30
0.0
 10
-4.7067395471
 20
14.6119399086
 30
0.0
 10
-6.0115565412
 20
13.1946634899
 30
0.0
 10
-7.2465897684
 20
11.69801453
 30
0.0
 10
-8.4061931819
 20
10.1293170705
 30
0.0
 10
-9.8440699226
 20
7.9514635598
 30
0.0
 10
-11.4216834197
 20
5.0948471547
 30
0.0
 10
-12.6861898899
 20
2.0959678108
 30
0.0
 10
-13.4933816156
 20
-0.3558687486
 30
0.0
 10
-13.991627373
 20
-2.2038478339
 30
0.0
 10
-14.381835033
 20
-4.0572881428
 30
0.0
 10
-14.6622641318
 20
-5.9074870535
 30
0.0
 10
-14.8312835118
 20
-7.7451292989
 30
0.0
 10
-14.8697734145
 20
-8.9660659249
 30
0.0
 10
-14.8697734145
 20
-9.5714975156
 30
0.0
  0
SPLINE
  5
391
100
AcDbEntity
  8
0
100
AcDbSpline
 62
7
  6
CONTINUOUS
 70
0
 71
3
 72
37
 73
33
 74
0
 42
0.0000001
 43
0.0000001
 44
0.0000000001
 40
0.0
 40
0.0
 40
0.0
 40
0.0
 40
0.0601855301
 40
0.0756464755
 40
0.0912617069
 40
0.1229399363
 40
0.1879347561
 40
0.2211773106
 40
0.2548182323
 40
0.3229609112
 40
0.3917400285
 40
0.4604578119
 40
0.5284206322
 40
0.5619311112
 40
0.5950191486
 40
0.6276199976
 40
0.6596786727
 40
0.6911500579
 40
0.7220019697
 40
0.7522148109
 40
0.781784531
 40
0.8107222016
 40
0.8390559033
 40
0.8530130878
 40
0.86683759
 40
0.8805374878
 40
0.8941219055
 40
0.9209782787
 40
0.93428091
 40
0.9475137007
 40
0.9738146062
 40
1.0
 40
1.0
 40
1.0
 40
1.0
 10
-18.5477990506
 20
43.5531809389
 30
0.0
 10
-20.0366986001
 20
43.1540672642
 30
0.0
 10
-21.8706310282
 20
42.4965324045
 30
0.0
 10
-23.989804923
 20
41.5106226212
 30
0.0
 10
-25.4218980303
 20
40.7799964167
 30
0.0
 10
-27.9115732084
 20
39.3364127862
 30
0.0
 10
-30.6114627921
 20
37.3717835938
 30
0.0
 10
-33.1415812777
 20
35.1316768955
 30
0.0
 10
-35.5836564368
 20
32.6801324031
 30
0.0
 10
-38.3758597322
 20
29.3055867773
 30
0.0
 10
-41.2351226141
 20
24.8681561805
 30
0.0
 10
-43.5510845278
 20
20.1296195844
 30
0.0
 10
-44.9894094667
 20
16.0024353039
 30
0.0
 10
-45.817185515
 20
12.6550084935
 30
0.0
 10
-46.2704693989
 20
10.1532513685
 30
0.0
 10
-46.5560436385
 20
7.6642841316
 30
0.0
 10
-46.6723624305
 20
5.2030209896
 30
0.0
 10
-46.6183792238
 20
2.7843058067
 30
0.0
 10
-46.3946550967
 20
0.4227073092
 30
0.0
 10
-46.002095041
 20
-1.8674907012
 30
0.0
 10
-45.4432603396
 20
-4.0725298166
 30
0.0
 10
-44.7211396934
 20
-6.1788765259
 30
0.0
 10
-43.983140194
 20
-7.8500321905
 30
0.0
 10
-43.3152136559
 20
-9.1230872212
 30
0.0
 10
-42.7792028813
 20
-10.040822358
 30
0.0
 10
-42.2064133944
 20
-10.924746229
 30
0.0
 10
-41.3980172312
 20
-12.0518352753
 30
0.0
 10
-40.5161051748
 20
-13.1120483111
 30
0.0
 10
-39.5656725621
 20
-14.0958637044
 30
0.0
 10
-38.5776869206
 20
-15.0213415715
 30
0.0
 10
-37.2638146766
 20
-16.0781862574
 30
0.0
 10
-36.1334437294
 20
-16.8107654679
 30
0.0
 10
-35.5526934507
 20
-17.1461909489
 30
0.0
  0
SPLINE
  5
392
100
AcDbEntity
  8
0
100
AcDbSpline
 62
7
  6
CONTINUOUS
 70
0
 71
3
 72
15
 73
11
 74
0
 42
0.0000001
 43
0.0000001
 44
0.0000000001
 40
0.0
 40
0.0
 40
0.0
 40
0.0
 40
0.1369651675
 40
0.2700134367
 40
0.3990620895
 40
0.5244002906
 40
0.646484018
 40
0.7659071217
 40
0.8834415891
 40
1.0
 40
1.0
 40
1.0
 40
1.0
 10
-22.672829147
 20
-21.7165666392
 30
0.0
 10
-22.6641989077
 20
-21.8767354146
 30
0.0
 10
-22.6317024093
 20
-22.1919253685
 30
0.0
 10
-22.5349849548
 20
-22.6500575993
 30
0.0
 10
-22.3918194575
 20
-23.0816803657
 30
0.0
 10
-22.203905274
 20
-23.4817329006
 30
0.0
 10
-21.9732415266
 20
-23.8455806819
 30
0.0
 10
-21.7024772091
 20
-24.1689718182
 30
0.0
 10
-21.3946478552
 20
-24.4477237042
 30
0.0
 10
-21.1667240972
 20
-24.6020120215
 30
0.0
 10
-21.0485131703
 20
-24.6702698555
 30
0.0
  0
SPLINE
  5
393
100
AcDbEntity
  8
0
100
AcDbSpline
 62
7
  6
CONTINUOUS
 70
0
 71
3
 72
38
 73
34
 74
0
 42
0.0000001
 43
0.0000001
 44
0.0000000001
 40
0.0
 40
0.0
 40
0.0
 40
0.0
 40
0.0261346533
 40
0.0523758085
 40
0.0788261668
 40
0.1055817855
 40
0.1327282437
 40
0.1603396225
 40
0.188475439
 40
0.2171814053
 40
0.2464872851
 40
0.2764089362
 40
0.3069470055
 40
0.3380895447
 40
0.4020421817
 40
0.434804546
 40
0.4680091867
 40
0.5015933306
 40
0.5354883416
 40
0.5696202369
 40
0.6039116152
 40
0.638282286
 40
0.6726511988
 40
0.7069369948
 40
0.7410598285
 40
0.7749418669
 40
0.8085101926
 40
0.8416963559
 40
0.8744370939
 40
0.906676248
 40
0.9383742215
 40
0.9694977496
 40
1.0
 40
1.0
 40
1.0
 40
1.0
 10
24.2317515979
 20
23.9640178033
 30
0.0
 10
24.7491944721
 20
23.6651544945
 30
0.0
 10
25.7573541398
 20
23.014608135
 30
0.0
 10
27.1704759948
 20
21.8915535688
 30
0.0
 10
28.478489429
 20
20.6269910408
 30
0.0
 10
29.6735292335
 20
19.2280211819
 30
0.0
 10
30.7492835438
 20
17.7029049001
 30
0.0
 10
31.6994633097
 20
16.0601413759
 30
0.0
 10
32.5191726278
 20
14.3092370215
 30
0.0
 10
33.2036388357
 20
12.4599507023
 30
0.0
 10
33.7494447418
 20
10.5227791842
 30
0.0
 10
34.1533926614
 20
8.508551008
 30
0.0
 10
34.4135583133
 20
6.4284409594
 30
0.0
 10
34.5680238768
 20
3.5582188157
 30
0.0
 10
34.4244389849
 20
0.6282566416
 30
0.0
 10
33.9997992043
 20
-2.3130765867
 30
0.0
 10
33.5359422148
 20
-4.5430496503
 30
0.0
 10
32.9319794933
 20
-6.7658483187
 30
0.0
 10
32.1912965576
 20
-8.9692887455
 30
0.0
 10
31.3180056982
 20
-11.1410108282
 30
0.0
 10
30.3170574105
 20
-13.2689400166
 30
0.0
 10
29.1939495018
 20
-15.34115526
 30
0.0
 10
27.9550698866
 20
-17.3461563681
 30
0.0
 10
26.607187891
 20
-19.2726626726
 30
0.0
 10
25.1579897861
 20
-21.110025767
 30
0.0
 10
23.6153834098
 20
-22.8478582755
 30
0.0
 10
21.9881279191
 20
-24.4766136947
 30
0.0
 10
20.2850905835
 20
-25.986977405
 30
0.0
 10
18.5160216248
 20
-27.3707288666
 30
0.0
 10
16.6905318747
 20
-28.6199457382
 30
0.0
 10
14.8187030657
 20
-29.7278765678
 30
0.0
 10
12.9112071067
 20
-30.6877642365
 30
0.0
 10
11.6096687294
 20
-31.2313298855
 30
0.0
 10
10.9565509221
 20
-31.4759134476
 30
0.0
  0
SPLINE
  5
394
100
AcDbEntity
  8
0
100
AcDbSpline
 62
7
  6
CONTINUOUS
 70
0
 71
3
 72
15
 73
11
 74
0
 42
0.0000001
 43
0.0000001
 44
0.0000000001
 40
0.0
 40
0.0
 40
0.0
 40
0.0
 40
0.1283568726
 40
0.2554035815
 40
0.3813047305
 40
0.5062375861
 40
0.6303848482
 40
0.7539312682
 40
0.8770689595
 40
1.0
 40
1.0
 40
1.0
 40
1.0
 10
-24.5674135823
 20
-20.6537489604
 30
0.0
 10
-24.9970269319
 20
-20.637959787
 30
0.0
 10
-25.851190936
 20
-20.5822181027
 30
0.0
 10
-27.1192483034
 20
-20.42470951
 30
0.0
 10
-28.3644993841
 20
-20.1942534913
 30
0.0
 10
-29.584116983
 20
-19.8912423651
 30
0.0
 10
-30.7753500717
 20
-19.5163899525
 30
0.0
 10
-31.9355043503
 20
-19.0706605036
 30
0.0
 10
-33.061763444
 20
-18.5549398103
 30
0.0
 10
-33.7886055336
 20
-18.1650807475
 30
0.0
 10
-34.145140721
 20
-17.9591563181
 30
0.0
  0
SPLINE
  5
395
100
AcDbEntity
  8
0
100
AcDbSpline
 62
7
  6
CONTINUOUS
 70
0
 71
3
 72
14
 73
10
 74
0
 42
0.0000001
 43
0.0000001
 44
0.0000000001
 40
0.0
 40
0.0
 40
0.0
 40
0.0
 40
0.2697370168
 40
0.3988749449
 40
0.5243011236
 40
0.6464280377
 40
0.7658777631
 40
0.8834295
 40
1.0
 40
1.0
 40
1.0
 40
1.0
 10
-16.2581384153
 20
-25.4077834249
 30
0.0
 10
-16.5404503881
 20
-25.552066926
 30
0.0
 10
-16.9809121564
 20
-25.7259345742
 30
0.0
 10
-17.5852819053
 20
-25.8517175282
 30
0.0
 10
-18.0275520494
 20
-25.8900593539
 30
0.0
 10
-18.4597613095
 20
-25.8726843874
 30
0.0
 10
-18.8769079148
 20
-25.8000130011
 30
0.0
 10
-19.2738004053
 20
-25.6724785343
 30
0.0
 10
-19.5223057046
 20
-25.5517502465
 30
0.0
 10
-19.6409598691
 20
-25.4832343815
 30
0.0
  0
SPLINE
  5
396
100
AcDbEntity
  8
0
100
AcDbSpline
 62
7
  6
CONTINUOUS
 70
0
 71
3
 72
24
 73
20
 74
0
 42
0.0000001
 43
0.0000001
 44
0.0000000001
 40
0.0
 40
0.0
 40
0.0
 40
0.0
 40
0.0641262638
 40
0.130166781
 40
0.197563973
 40
0.2658534918
 40
0.3345366822
 40
0.4030434467
 40
0.4708230348
 40
0.5373690811
 40
0.6022473106
 40
0.6651107551
 40
0.7257517884
 40
0.7841092527
 40
0.840311844
 40
0.8946656028
 40
0.9213243654
 40
0.947718634
 40
1.0
 40
1.0
 40
1.0
 40
1.0
 10
10.9565509221
 20
-34.8252172799
 30
0.0
 10
10.9565509221
 20
-34.954686645
 30
0.0
 10
10.9397852482
 20
-35.2177133377
 30
0.0
 10
10.8683269278
 20
-35.6109601712
 30
0.0
 10
10.7509709014
 20
-36.001835841
 30
0.0
 10
10.5903522971
 20
-36.3827470884
 30
0.0
 10
10.3893844465
 20
-36.7465534677
 30
0.0
 10
10.1520101283
 20
-37.0864732527
 30
0.0
 10
9.8825676344
 20
-37.39591954
 30
0.0
 10
9.5862345746
 20
-37.6690814956
 30
0.0
 10
9.2685609681
 20
-37.9007451623
 30
0.0
 10
8.935478378
 20
-38.0864186239
 30
0.0
 10
8.5932753641
 20
-38.2225628982
 30
0.0
 10
8.2482932576
 20
-38.306260488
 30
0.0
 10
7.9071712271
 20
-38.3359126385
 30
0.0
 10
7.6295271646
 20
-38.3144070858
 30
0.0
 10
7.4170972669
 20
-38.2695638126
 30
0.0
 10
7.2135045931
 20
-38.2074197814
 30
0.0
 10
7.0682182695
 20
-38.1404020033
 30
0.0
 10
6.9768127449
 20
-38.0876114053
 30
0.0
  0
SPLINE
  5
397
100
AcDbEntity
  8
0
100
AcDbSpline
 62
7
  6
CONTINUOUS
 70
0
 71
3
 72
16
 73
12
 74
0
 42
0.0000001
 43
0.0000001
 44
0.0000000001
 40
0.0
 40
0.0
 40
0.0
 40
0.0
 40
0.1312975199
 40
0.2603225818
 40
0.387183032
 40
0.4498938819
 40
0.512169656
 40
0.6355600231
 40
0.7577379178
 40
0.8790810712
 40
1.0
 40
1.0
 40
1.0
 40
1.0
 10
5.9978966509
 20
-32.8051278555
 30
0.0
 10
5.4049262367
 20
-32.9009713697
 30
0.0
 10
4.2215338536
 20
-33.0467698741
 30
0.0
 10
2.4501927405
 20
-33.124884803
 30
0.0
 10
0.9918446412
 20
-33.0700396142
 30
0.0
 10
-0.1547527735
 20
-32.9538903672
 30
0.0
 10
-1.2796383495
 20
-32.7912441825
 30
0.0
 10
-2.6594059836
 20
-32.4994724927
 30
0.0
 10
-4.266667204
 20
-32.0077981268
 30
0.0
 10
-5.8126282599
 20
-31.3776763568
 30
0.0
 10
-6.7982857653
 20
-30.866931323
 30
0.0
 10
-7.2773197044
 20
-30.5902709974
 30
0.0
  0
SPLINE
  5
398
100
AcDbEntity
  8
0
100
AcDbSpline
 62
7
  6
CONTINUOUS
 70
0
 71
3
 72
22
 73
18
 74
0
 42
0.0000001
 43
0.0000001
 44
0.0000000001
 40
0.0
 40
0.0
 40
0.0
 40
0.0
 40
0.1377812914
 40
0.2051825236
 40
0.2715181165
 40
0.3367978071
 40
0.4010437446
 40
0.4642863487
 40
0.5265656287
 40
0.5879377826
 40
0.6484778494
 40
0.7082733083
 40
0.7674259267
 40
0.8260482836
 40
0.8842628475
 40
0.9422013354
 40
1.0
 40
1.0
 40
1.0
 40
1.0
 10
-14.8697734145
 20
-9.5714975156
 30
0.0
 10
-14.8697734145
 20
-10.5531891565
 30
0.0
 10
-14.7950858474
 20
-12.0168839609
 30
0.0
 10
-14.5372150804
 20
-13.9349171733
 30
0.0
 10
-14.2688451498
 20
-15.3281321923
 30
0.0
 10
-13.9252604852
 20
-16.6815155765
 30
0.0
 10
-13.5073511025
 20
-17.9907728792
 30
0.0
 10
-13.0166302831
 20
-19.2516384804
 30
0.0
 10
-12.4546773557
 20
-20.4599187766
 30
0.0
 10
-11.8231487255
 20
-21.6114664811
 30
0.0
 10
-11.1243495998
 20
-22.7025680835
 30
0.0
 10
-10.3603850394
 20
-23.7294860906
 30
0.0
 10
-9.5338307362
 20
-24.6888087846
 30
0.0
 10
-8.6475099764
 20
-25.5774041931
 30
0.0
 10
-7.7041571565
 20
-26.3920954339
 30
0.0
 10
-6.7071783072
 20
-27.1302848999
 30
0.0
 10
-6.0084618408
 20
-27.5699983385
 30
0.0
 10
-5.6518465113
 20
-27.7759533825
 30
0.0
  0
SPLINE
  5
399
100
AcDbEntity
  8
0
100
AcDbSpline
 62
7
  6
CONTINUOUS
 70
0
 71
3
 72
11
 73
7
 74
0
 42
0.0000001
 43
0.0000001
 44
0.0000000001
 40
0.0
 40
0.0
 40
0.0
 40
0.0
 40
0.2613782598
 40
0.513409099
 40
0.7585637075
 40
1.0
 40
1.0
 40
1.0
 40
1.0
 10
-1.1845443233
 20
-32.7939300496
 30
0.0
 10
-1.145622839
 20
-32.9083312711
 30
0.0
 10
-1.0516288665
 20
-33.12764734
 30
0.0
 10
-0.8595757352
 20
-33.4232146788
 30
0.0
 10
-0.6234846148
 20
-33.6725899153
 30
0.0
 10
-0.4391234595
 20
-33.8043725372
 30
0.0
 10
-0.3424660582
 20
-33.8601995731
 30
0.0
  0
SPLINE
  5
39A
100
AcDbEntity
  8
0
100
AcDbSpline
 62
7
  6
CONTINUOUS
 70
0
 71
3
 72
15
 73
11
 74
0
 42
0.0000001
 43
0.0000001
 44
0.0000000001
 40
0.0
 40
0.0
 40
0.0
 40
0.0
 40
0.1229452342
 40
0.246094245
 40
0.3696485664
 40
0.4938028491
 40
0.6187450978
 40
0.7446521801
 40
0.8716868494
 40
1.0
 40
1.0
 40
1.0
 40
1.0
 10
-0.1353564166
 20
40.9248258527
 30
0.0
 10
0.2201456283
 20
40.7195020596
 30
0.0
 10
0.9190498947
 20
40.2860763682
 30
0.0
 10
1.9257914068
 20
39.570592963
 30
0.0
 10
2.8891439276
 20
38.7911827768
 30
0.0
 10
3.8069278299
 20
37.9497431491
 30
0.0
 10
4.6769415763
 20
37.0480673172
 30
0.0
 10
5.4972603573
 20
36.0882823178
 30
0.0
 10
6.2660758199
 20
35.0726896728
 30
0.0
 10
6.7405637305
 20
34.3635876569
 30
0.0
 10
6.968653381
 20
34.0008850473
 30
0.0
  0
SPLINE
  5
39B
100
AcDbEntity
  8
0
100
AcDbSpline
 62
7
  6
CONTINUOUS
 70
0
 71
3
 72
18
 73
14
 74
0
 42
0.0000001
 43
0.0000001
 44
0.0000000001
 40
0.0
 40
0.0
 40
0.0
 40
0.0
 40
0.1196227854
 40
0.239818167
 40
0.3003250501
 40
0.3611790731
 40
0.4841292528
 40
0.546372418
 40
0.6091810969
 40
0.6726026707
 40
0.7366805085
 40
0.8669082076
 40
1.0
 40
1.0
 40
1.0
 40
1.0
 10
-1.5429101953
 20
41.7377894592
 30
0.0
 10
-2.1489361029
 20
42.0878068313
 30
0.0
 10
-3.4024223564
 20
42.7249772181
 30
0.0
 10
-5.0478253775
 20
43.35083572
 30
0.0
 10
-6.4045856586
 20
43.7482867539
 30
0.0
 10
-7.7957891881
 20
44.0784380799
 30
0.0
 10
-9.2207437677
 20
44.3021379347
 30
0.0
 10
-10.6672761198
 20
44.4201476327
 30
0.0
 10
-11.7698045802
 20
44.4559477973
 30
0.0
 10
-12.8834732749
 20
44.4386551928
 30
0.0
 10
-14.3888162154
 20
44.3444004105
 30
0.0
 10
-16.29024971
 20
44.091694604
 30
0.0
 10
-17.7957096099
 20
43.7547856614
 30
0.0
 10
-18.5477990506
 20
43.5531809389
 30
0.0
  0
SPLINE
  5
39C
100
AcDbEntity
  8
0
100
AcDbSpline
 62
7
  6
CONTINUOUS
 70
0
 71
3
 72
36
 73
32
 74
0
 42
0.0000001
 43
0.0000001
 44
0.0000000001
 40
0.0
 40
0.0
 40
0.0
 40
0.0
 40
0.0261127162
 40
0.0523168007
 40
0.0787012742
 40
0.1053494365
 40
0.1187997897
 40
0.1323439385
 40
0.159738986
 40
0.1875974599
 40
0.2159638931
 40
0.2743025604
 40
0.3349208026
 40
0.3660895543
 40
0.3977938061
 40
0.4300020203
 40
0.4626755337
 40
0.4957675897
 40
0.5292262087
 40
0.5629933098
 40
0.597007199
 40
0.6312024181
 40
0.6655112715
 40
0.7341677949
 40
0.8024453975
 40
0.8362856529
 40
0.8698315971
 40
0.903025689
 40
0.9358208994
 40
0.9681673355
 40
1.0
 40
1.0
 40
1.0
 40
1.0
 10
-5.6518465113
 20
-27.7759533825
 30
0.0
 10
-5.2217741863
 20
-28.0243318342
 30
0.0
 10
-4.3368337769
 20
-28.4828090808
 30
0.0
 10
-2.9488259103
 20
-29.0483570023
 30
0.0
 10
-1.5057104602
 20
-29.4894318453
 30
0.0
 10
-0.266819669
 20
-29.7509826963
 30
0.0
 10
0.7432437998
 20
-29.8966007592
 30
0.0
 10
1.7727456016
 20
-30.0004005033
 30
0.0
 10
3.0819481039
 20
-30.0490632686
 30
0.0
 10
4.6724612119
 20
-29.9780974237
 30
0.0
 10
6.8367487375
 20
-29.7099996846
 30
0.0
 10
9.5702133315
 20
-29.0464571915
 30
0.0
 10
12.2316700685
 20
-27.9877896441
 30
0.0
 10
14.3211982085
 20
-26.9125136946
 30
0.0
 10
15.8749762262
 20
-25.9849384758
 30
0.0
 10
17.3930137032
 20
-24.9485700584
 30
0.0
 10
18.8680218885
 20
-23.8081796975
 30
0.0
 10
20.2930860107
 20
-22.5694684996
 30
0.0
 10
21.6611871201
 20
-21.2381659323
 30
0.0
 10
22.9660041142
 20
-19.8208895136
 30
0.0
 10
24.2010373413
 20
-18.3242405537
 30
0.0
 10
25.3606407549
 20
-16.7555430942
 30
0.0
 10
26.7985174956
 20
-14.5776895835
 30
0.0
 10
28.3761309927
 20
-11.7210731784
 30
0.0
 10
29.6406374629
 20
-8.7221938345
 30
0.0
 10
30.4478291886
 20
-6.2703572777
 30
0.0
 10
30.946074946
 20
-4.4223781924
 30
0.0
 10
31.336282606
 20
-2.568937881
 30
0.0
 10
31.6167117048
 20
-0.7187389728
 30
0.0
 10
31.7857310848
 20
1.1189032752
 30
0.0
 10
31.8242209875
 20
2.3398399012
 30
0.0
 10
31.8242209875
 20
2.9452714894
 30
0.0
  0
SPLINE
  5
39D
100
AcDbEntity
  8
0
100
AcDbSpline
 62
7
  6
CONTINUOUS
 70
0
 71
3
 72
15
 73
11
 74
0
 42
0.0000001
 43
0.0000001
 44
0.0000000001
 40
0.0
 40
0.0
 40
0.0
 40
0.0
 40
0.1157070165
 40
0.2325257715
 40
0.3514575651
 40
0.4733351849
 40
0.5988392832
 40
0.7284492368
 40
0.8622970149
 40
1.0
 40
1.0
 40
1.0
 40
1.0
 10
6.9768127449
 20
-38.0876114053
 30
0.0
 10
6.9010378571
 20
-38.043848168
 30
0.0
 10
6.755183653
 20
-37.9441915728
 30
0.0
 10
6.5601813303
 20
-37.7622066561
 30
0.0
 10
6.390748611
 20
-37.5501992518
 30
0.0
 10
6.2492960186
 20
-37.3110079065
 30
0.0
 10
6.1375492748
 20
-37.0478660248
 30
0.0
 10
6.0569070409
 20
-36.7642271382
 30
0.0
 10
6.008468583
 20
-36.4641141469
 30
0.0
 10
5.9978966509
 20
-36.2585709562
 30
0.0
 10
5.9978966509
 20
-36.1544316852
 30
0.0
  0
SPLINE
  5
39E
100
AcDbEntity
  8
0
100
AcDbSpline
 62
7
  6
CONTINUOUS
 70
0
 71
3
 72
34
 73
30
 74
0
 42
0.0000001
 43
0.0000001
 44
0.0000000001
 40
0.0
 40
0.0
 40
0.0
 40
0.0
 40
0.013089978
 40
0.026194559
 40
0.0524960279
 40
0.0790238291
 40
0.1058806602
 40
0.1331580776
 40
0.1609330104
 40
0.1892673614
 40
0.2182055037
 40
0.2477758219
 40
0.2779892522
 40
0.3088417192
 40
0.3403137815
 40
0.4049381084
 40
0.4380266912
 40
0.4715378922
 40
0.539502017
 40
0.6082211072
 40
0.6770014245
 40
0.7451452978
 40
0.7787867917
 40
0.8120301226
 40
0.8448083928
 40
0.8770622323
 40
0.9087410564
 40
0.9398132227
 40
1.0
 40
1.0
 40
1.0
 40
1.0
 10
-7.2773197044
 20
-30.5902709974
 30
0.0
 10
-7.5462864359
 20
-30.4349324765
 30
0.0
 10
-8.0766573716
 20
-30.1102011727
 30
0.0
 10
-9.104619814
 20
-29.4059640671
 30
0.0
 10
-10.3261464515
 20
-28.4237422469
 30
0.0
 10
-11.674860066
 20
-27.0941889294
 30
0.0
 10
-12.900903146
 20
-25.6204992682
 30
0.0
 10
-13.9964607873
 20
-24.0116560546
 30
0.0
 10
-14.9553553998
 20
-22.277799055
 30
0.0
 10
-15.7715688449
 20
-20.4293959827
 30
0.0
 10
-16.4406382789
 20
-18.4778730531
 30
0.0
 10
-16.9583826485
 20
-16.4349845964
 30
0.0
 10
-17.3220421422
 20
-14.3131996146
 30
0.0
 10
-17.529368931
 20
-12.1251633964
 30
0.0
 10
-17.5965703206
 20
-9.1116087732
 30
0.0
 10
-17.3424585403
 20
-6.0457576177
 30
0.0
 10
-16.7871053152
 20
-2.9804321329
 30
0.0
 10
-16.0201091784
 20
0.1210175951
 30
0.0
 10
-14.687595755
 20
3.9446505117
 30
0.0
 10
-12.5419151289
 20
8.3347919727
 30
0.0
 10
-9.8929260479
 20
12.4459077865
 30
0.0
 10
-7.3059868505
 20
15.5723837688
 30
0.0
 10
-5.0435943344
 20
17.84354136
 30
0.0
 10
-3.2717860086
 20
19.4122610852
 30
0.0
 10
-1.4287615056
 20
20.8435988981
 30
0.0
 10
0.4742324811
 20
22.1290221769
 30
0.0
 10
2.4262163724
 20
23.260786934
 30
0.0
 10
5.0487508835
 20
24.5415055485
 30
0.0
 10
7.0978015479
 20
25.2761600686
 30
0.0
 10
8.4772237878
 20
25.6459273097
 30
0.0
  0
SPLINE
  5
39F
100
AcDbEntity
  8
0
100
AcDbSpline
 62
7
  6
CONTINUOUS
 70
0
 71
3
 72
22
 73
18
 74
0
 42
0.0000001
 43
0.0000001
 44
0.0000000001
 40
0.0
 40
0.0
 40
0.0
 40
0.0
 40
0.1377812914
 40
0.2051825236
 40
0.2715181165
 40
0.3367978071
 40
0.4010437446
 40
0.4642863487
 40
0.5265656287
 40
0.5879377826
 40
0.6484778494
 40
0.7082733083
 40
0.7674259267
 40
0.8260482836
 40
0.8842628475
 40
0.9422013354
 40
1.0
 40
1.0
 40
1.0
 40
1.0
 10
31.8242209875
 20
2.9452714894
 30
0.0
 10
31.8242209875
 20
3.9269631303
 30
0.0
 10
31.7495334203
 20
5.3906579372
 30
0.0
 10
31.4916626534
 20
7.3086911471
 30
0.0
 10
31.2232927228
 20
8.7019061686
 30
0.0
 10
30.8797080581
 20
10.0552895502
 30
0.0
 10
30.4617986755
 20
11.364546853
 30
0.0
 10
29.9710778561
 20
12.6254124542
 30
0.0
 10
29.4091249312
 20
13.8336927529
 30
0.0
 10
28.7775962984
 20
14.9852404574
 30
0.0
 10
28.0787971728
 20
16.0763420573
 30
0.0
 10
27.3148326149
 20
17.1032600669
 30
0.0
 10
26.4882783091
 20
18.0625827584
 30
0.0
 10
25.6019575519
 20
18.9511781669
 30
0.0
 10
24.6586047295
 20
19.7658694077
 30
0.0
 10
23.6616258802
 20
20.5040588762
 30
0.0
 10
22.9629094163
 20
20.9437723148
 30
0.0
 10
22.6062940843
 20
21.1497273562
 30
0.0
  0
SPLINE
  5
3A0
100
AcDbEntity
  8
0
100
AcDbSpline
 62
7
  6
CONTINUOUS
 70
0
 71
3
 72
33
 73
29
 74
0
 42
0.0000001
 43
0.0000001
 44
0.0000000001
 40
0.0
 40
0.0
 40
0.0
 40
0.0
 40
0.0260665788
 40
0.0391632755
 40
0.0523139468
 40
0.0788107768
 40
0.1056376517
 40
0.1328604375
 40
0.1605344333
 40
0.188704489
 40
0.2174036425
 40
0.2466538562
 40
0.2764655213
 40
0.3068383774
 40
0.3377618551
 40
0.3692157973
 40
0.4011715136
 40
0.4335921298
 40
0.4664341776
 40
0.4996475932
 40
0.5331776279
 40
0.6009223505
 40
0.6691819715
 40
0.7374183763
 40
0.8050947979
 40
0.8717030659
 40
0.936794103
 40
1.0
 40
1.0
 40
1.0
 40
1.0
 10
-35.6224285411
 20
-17.0156301178
 30
0.0
 10
-36.1072128319
 20
-16.6746646072
 30
0.0
 10
-36.8129289312
 20
-16.129056303
 30
0.0
 10
-37.7035919327
 20
-15.3402470398
 30
0.0
 10
-38.5656574654
 20
-14.506026689
 30
0.0
 10
-39.5814802115
 20
-13.3840591158
 30
0.0
 10
-40.6912849616
 20
-11.9245352276
 30
0.0
 10
-41.6897852379
 20
-10.3549359132
 30
0.0
 10
-42.5725825275
 20
-8.682987314
 30
0.0
 10
-43.335348881
 20
-6.9164602171
 30
0.0
 10
-43.9748381964
 20
-5.0638214332
 30
0.0
 10
-44.4879113155
 20
-3.1337212574
 30
0.0
 10
-44.8724322762
 20
-1.1352878628
 30
0.0
 10
-45.1265136528
 20
0.9221331303
 30
0.0
 10
-45.2491406973
 20
3.0288779897
 30
0.0
 10
-45.2397140588
 20
5.1750885715
 30
0.0
 10
-45.0983544762
 20
7.3507080582
 30
0.0
 10
-44.8257608329
 20
9.5455644584
 30
0.0
 10
-44.4232007033
 20
11.7493509957
 30
0.0
 10
-43.8926316476
 20
13.9518458618
 30
0.0
 10
-43.014934739
 20
16.8823749334
 30
0.0
 10
-41.61222853
 20
20.4813306514
 30
0.0
 10
-39.479332303
 20
24.6156022253
 30
0.0
 10
-36.9299975134
 20
28.5054368002
 30
0.0
 10
-34.0115400382
 20
32.0783108203
 30
0.0
 10
-30.7775552768
 20
35.2681758681
 30
0.0
 10
-27.2883436497
 20
38.0150553984
 30
0.0
 10
-24.7929074036
 20
39.5423257653
 30
0.0
 10
-23.5217711346
 20
40.2128150695
 30
0.0
  0
SPLINE
  5
3A1
100
AcDbEntity
  8
0
100
AcDbSpline
 62
7
  6
CONTINUOUS
 70
0
 71
3
 72
11
 73
7
 74
0
 42
0.0000001
 43
0.0000001
 44
0.0000000001
 40
0.0
 40
0.0
 40
0.0
 40
0.0
 40
0.2557651075
 40
0.507770774
 40
0.7559011114
 40
1.0
 40
1.0
 40
1.0
 40
1.0
 10
-23.5217711346
 20
40.2128150695
 30
0.0
 10
-23.0031789765
 20
40.4863581216
 30
0.0
 10
-21.9592424283
 20
41.0027108658
 30
0.0
 10
-20.3659309083
 20
41.6860617902
 30
0.0
 10
-18.7621046113
 20
42.2703668014
 30
0.0
 10
-17.6807340385
 20
42.5953334921
 30
0.0
 10
-17.1402457773
 20
42.7402165069
 30
0.0
  0
SPLINE
  5
3A2
100
AcDbEntity
  8
0
100
AcDbSpline
 62
7
  6
CONTINUOUS
 70
0
 71
3
 72
18
 73
14
 74
0
 42
0.0000001
 43
0.0000001
 44
0.0000000001
 40
0.0
 40
0.0
 40
0.0
 40
0.0
 40
0.1326170084
 40
0.2626586049
 40
0.3901756194
 40
0.4530703198
 40
0.5154274293
 40
0.6386550932
 40
0.7602205528
 40
0.8205129226
 40
0.8805369524
 40
0.9403472313
 40
1.0
 40
1.0
 40
1.0
 40
1.0
 10
-17.1402457773
 20
42.7402165069
 30
0.0
 10
-16.4601064213
 20
42.9225343262
 30
0.0
 10
-15.0987392279
 20
43.2328700911
 30
0.0
 10
-13.0467008783
 20
43.5325118819
 30
0.0
 10
-11.3462798722
 20
43.638581431
 30
0.0
 10
-10.0037977109
 20
43.6355628264
 30
0.0
 10
-8.6854787245
 20
43.575055203
 30
0.0
 10
-7.0625631184
 20
43.392217466
 30
0.0
 10
-5.4736734945
 20
43.0642026611
 30
0.0
 10
-4.2369402047
 20
42.7163851703
 30
0.0
 10
-3.3291442301
 20
42.4141395365
 30
0.0
 10
-2.4399720613
 20
42.0702456955
 30
0.0
 10
-1.8597636789
 20
41.8131964585
 30
0.0
 10
-1.5733560247
 20
41.6779471455
 30
0.0
  0
SPLINE
  5
3A3
100
AcDbEntity
  8
0
100
AcDbSpline
 62
7
  6
CONTINUOUS
 70
0
 71
3
 72
30
 73
26
 74
0
 42
0.0000001
 43
0.0000001
 44
0.0000000001
 40
0.0
 40
0.0
 40
0.0
 40
0.0
 40
0.0290501014
 40
0.0586593406
 40
0.0888029891
 40
0.1194659714
 40
0.1506316291
 40
0.1822700926
 40
0.2467798187
 40
0.3126520083
 40
0.3794446239
 40
0.4466676707
 40
0.5138100629
 40
0.5803647425
 40
0.6458542196
 40
0.7098561446
 40
0.772029368
 40
0.8023672793
 40
0.8321707303
 40
0.8614315659
 40
0.8901509123
 40
0.9183401878
 40
0.9460213594
 40
0.9732268595
 40
1.0
 40
1.0
 40
1.0
 40
1.0
 10
-17.1402457773
 20
40.4418799733
 30
0.0
 10
-17.7292793516
 20
40.2839839238
 30
0.0
 10
-18.9077810433
 20
39.923028537
 30
0.0
 10
-20.6508223426
 20
39.2583926527
 30
0.0
 10
-22.377900735
 20
38.467999156
 30
0.0
 10
-24.0809185761
 20
37.5558492658
 30
0.0
 10
-25.7523428584
 20
36.5258639598
 30
0.0
 10
-27.9427200524
 20
34.9922817793
 30
0.0
 10
-30.5571210034
 20
32.8047095504
 30
0.0
 10
-33.431095065
 20
29.8154946983
 30
0.0
 10
-36.0123734991
 20
26.4977091266
 30
0.0
 10
-38.2547480339
 20
22.9108686244
 30
0.0
 10
-40.1183467882
 20
19.1189174072
 30
0.0
 10
-41.5698263084
 20
15.189503201
 30
0.0
 10
-42.5830849449
 20
11.1924641771
 30
0.0
 10
-43.1396832449
 20
7.1993648887
 30
0.0
 10
-43.2146555334
 20
3.9059897102
 30
0.0
 10
-43.0336233986
 20
1.3432528291
 30
0.0
 10
-42.7818198077
 20
-0.5179232555
 30
0.0
 10
-42.4139975843
 20
-2.3250412186
 30
0.0
 10
-41.9317855845
 20
-4.0700258643
 30
0.0
 10
-41.3372123591
 20
-5.744919055
 30
0.0
 10
-40.6330108618
 20
-7.3422192767
 30
0.0
 10
-39.8221834309
 20
-8.8544399912
 30
0.0
 10
-39.2083878817
 20
-9.8086788244
 30
0.0
 10
-38.8850606569
 20
-10.2683937723
 30
0.0
  0
SPLINE
  5
3A4
100
AcDbEntity
  8
0
100
AcDbSpline
 62
7
  6
CONTINUOUS
 70
0
 71
3
 72
11
 73
7
 74
0
 42
0.0000001
 43
0.0000001
 44
0.0000000001
 40
0.0
 40
0.0
 40
0.0
 40
0.0
 40
0.2539046254
 40
0.5047282225
 40
0.7531704836
 40
1.0
 40
1.0
 40
1.0
 40
1.0
 10
-38.8850606569
 20
-10.2683937723
 30
0.0
 10
-38.5616418371
 20
-10.7282389512
 30
0.0
 10
-37.8805817591
 20
-11.6162507286
 30
0.0
 10
-36.7551597351
 20
-12.849629156
 30
0.0
 10
-35.5377949892
 20
-13.9694012446
 30
0.0
 10
-34.6667205617
 20
-14.6384113975
 30
0.0
 10
-34.2187535176
 20
-14.9514836568
 30
0.0
  0
SPLINE
  5
3A5
100
AcDbEntity
  8
0
100
AcDbSpline
 62
7
  6
CONTINUOUS
 70
0
 71
3
 72
18
 73
14
 74
0
 42
0.0000001
 43
0.0000001
 44
0.0000000001
 40
0.0
 40
0.0
 40
0.0
 40
0.0
 40
0.1196226578
 40
0.2398180057
 40
0.3003249114
 40
0.3611790006
 40
0.4841292869
 40
0.5463724779
 40
0.6091811918
 40
0.6726028194
 40
0.7366807241
 40
0.866908467
 40
1.0
 40
1.0
 40
1.0
 40
1.0
 10
-1.3857163542
 20
38.7599732533
 30
0.0
 10
-1.9471805755
 20
39.084254337
 30
0.0
 10
-3.108498296
 20
39.6745730395
 30
0.0
 10
-4.6329149322
 20
40.2544124158
 30
0.0
 10
-5.8899134469
 20
40.6226403052
 30
0.0
 10
-7.1788242448
 20
40.9285134323
 30
0.0
 10
-8.4990033799
 20
41.1357671682
 30
0.0
 10
-9.8391740345
 20
41.2450996114
 30
0.0
 10
-10.8606348567
 20
41.2782668984
 30
0.0
 10
-11.8924169969
 20
41.2622458916
 30
0.0
 10
-13.2870738494
 20
41.1749213266
 30
0.0
 10
-15.0486951319
 20
40.9407960214
 30
0.0
 10
-16.443458385
 20
40.6286604557
 30
0.0
 10
-17.1402457773
 20
40.4418799733
 30
0.0
  0
SPLINE
  5
3A6
100
AcDbEntity
  8
0
100
AcDbSpline
 62
7
  6
CONTINUOUS
 70
0
 71
3
 72
15
 73
11
 74
0
 42
0.0000001
 43
0.0000001
 44
0.0000000001
 40
0.0
 40
0.0
 40
0.0
 40
0.0
 40
0.1165573757
 40
0.2340917231
 40
0.3535156361
 40
0.4755994647
 40
0.6009379975
 40
0.7299876906
 40
0.8630367402
 40
1.0
 40
1.0
 40
1.0
 40
1.0
 10
-19.6409598691
 20
-25.4832343815
 30
0.0
 10
-19.7591649311
 20
-25.4149778505
 30
0.0
 10
-19.9870774471
 20
-25.2606926371
 30
0.0
 10
-20.2949045505
 20
-24.9819590543
 30
0.0
 10
-20.5656567522
 20
-24.6585748522
 30
0.0
 10
-20.7963273628
 20
-24.2947469439
 30
0.0
 10
-20.9842381579
 20
-23.8947067025
 30
0.0
 10
-21.1274109348
 20
-23.463099806
 30
0.0
 10
-21.224131897
 20
-23.0049841157
 30
0.0
 10
-21.2566354668
 20
-22.6898069178
 30
0.0
 10
-21.2652693814
 20
-22.5296458919
 30
0.0
  0
SPLINE
  5
3A7
100
AcDbEntity
  8
0
100
AcDbSpline
 62
7
  6
CONTINUOUS
 70
0
 71
3
 72
18
 73
14
 74
0
 42
0.0000001
 43
0.0000001
 44
0.0000000001
 40
0.0
 40
0.0
 40
0.0
 40
0.0
 40
0.1330889239
 40
0.2633171214
 40
0.3907811333
 40
0.4535890632
 40
0.5158312685
 40
0.6387801573
 40
0.6996339473
 40
0.7601404913
 40
0.8803352027
 40
0.9402034189
 40
1.0
 40
1.0
 40
1.0
 40
1.0
 10
8.4772237878
 20
25.6459273097
 30
0.0
 10
9.1740026533
 20
25.8327055087
 30
0.0
 10
10.568849701
 20
26.1448368936
 30
0.0
 10
12.6711675309
 20
26.4242868731
 30
0.0
 10
14.4098219632
 20
26.4935846924
 30
0.0
 10
15.7782833868
 20
26.4491480477
 30
0.0
 10
17.1184695685
 20
26.3398200444
 30
0.0
 10
18.4386252314
 20
26.132551513
 30
0.0
 10
19.7275553968
 20
25.8266908623
 30
0.0
 10
20.9844967793
 20
25.4584908977
 30
0.0
 10
22.2059633864
 20
24.9938128837
 30
0.0
 10
23.3806166352
 20
24.4355888211
 30
0.0
 10
23.9510883645
 20
24.1261225439
 30
0.0
 10
24.2317515979
 20
23.9640178033
 30
0.0
  0
SPLINE
  5
3A8
100
AcDbEntity
  8
0
100
AcDbSpline
 62
7
  6
CONTINUOUS
 70
0
 71
3
 72
15
 73
11
 74
0
 42
0.0000001
 43
0.0000001
 44
0.0000000001
 40
0.0
 40
0.0
 40
0.0
 40
0.0
 40
0.1196348436
 40
0.2398429105
 40
0.3611780183
 40
0.4841387628
 40
0.6091643477
 40
0.7366518267
 40
0.866905276
 40
1.0
 40
1.0
 40
1.0
 40
1.0
 10
-47.9592828031
 20
62.7725912782
 30
0.0
 10
-48.4761651272
 20
63.071157976
 30
0.0
 10
-49.545426664
 20
63.6144973364
 30
0.0
 10
-51.2327012194
 20
64.2565492222
 30
0.0
 10
-52.9942339574
 20
64.722091936
 30
0.0
 10
-54.8177332517
 20
65.0085344289
 30
0.0
 10
-56.6911887327
 20
65.1137830119
 30
0.0
 10
-58.6023318395
 20
65.0375858465
 30
0.0
 10
-60.5379002315
 20
64.7802543495
 30
0.0
 10
-61.8220321463
 20
64.4929392955
 30
0.0
 10
-62.4634611581
 20
64.3209981509
 30
0.0
  0
SPLINE
  5
3A9
100
AcDbEntity
  8
0
100
AcDbSpline
 62
7
  6
CONTINUOUS
 70
0
 71
3
 72
18
 73
14
 74
0
 42
0.0000001
 43
0.0000001
 44
0.0000000001
 40
0.0
 40
0.0
 40
0.0
 40
0.0
 40
0.1246171604
 40
0.1869400604
 40
0.2492761966
 40
0.3739660991
 40
0.4987439499
 40
0.5612013456
 40
0.6236987052
 40
0.7488181719
 40
0.8114947325
 40
0.8742482897
 40
1.0
 40
1.0
 40
1.0
 40
1.0
 10
-6.0470567699
 20
44.3393170679
 30
0.0
 10
-6.8430130723
 20
44.7990397476
 30
0.0
 10
-8.0738192747
 20
45.4277196409
 30
0.0
 10
-9.7711891159
 20
46.1360515593
 30
0.0
 10
-11.503288146
 20
46.7567068585
 30
0.0
 10
-13.7252437249
 20
47.3663228884
 30
0.0
 10
-15.9980904949
 20
47.7489806194
 30
0.0
 10
-17.8328937494
 20
47.9192971723
 30
0.0
 10
-19.6763101286
 20
47.9993792245
 30
0.0
 10
-21.5250460984
 20
47.9447398037
 30
0.0
 10
-23.3642943274
 20
47.7588836984
 30
0.0
 10
-25.1973700567
 20
47.4862886708
 30
0.0
 10
-26.5576652736
 20
47.1864241524
 30
0.0
 10
-27.4535833243
 20
46.9462648029
 30
0.0
  0
SPLINE
  5
3AA
100
AcDbEntity
  8
0
100
AcDbSpline
 62
7
  6
CONTINUOUS
 70
0
 71
3
 72
25
 73
21
 74
0
 42
0.0000001
 43
0.0000001
 44
0.0000000001
 40
0.0
 40
0.0
 40
0.0
 40
0.0
 40
0.0642690759
 40
0.1283576516
 40
0.1922000268
 40
0.2557505935
 40
0.3189808999
 40
0.381884182
 40
0.4444765481
 40
0.5067885916
 40
0.568856766
 40
0.6307256587
 40
0.6924451957
 40
0.723270091
 40
0.7540729357
 40
0.8156035399
 40
0.8770859934
 40
0.907823731
 40
0.9385553175
 40
1.0
 40
1.0
 40
1.0
 40
1.0
 10
-50.547452882
 20
26.8060227899
 30
0.0
 10
-50.9714621127
 20
25.8963056482
 30
0.0
 10
-51.7488381424
 20
24.0460913146
 30
0.0
 10
-52.6943709427
 20
21.1942924767
 30
0.0
 10
-53.4098947695
 20
18.2875395627
 30
0.0
 10
-53.8874703091
 20
15.345855535
 30
0.0
 10
-54.1203589823
 20
12.3893087557
 30
0.0
 10
-54.1023536005
 20
9.4384368546
 30
0.0
 10
-53.8285719966
 20
6.5144292177
 30
0.0
 10
-53.2953922197
 20
3.6394712795
 30
0.0
 10
-52.5007468291
 20
0.8369946976
 30
0.0
 10
-51.4452869055
 20
-1.8682107404
 30
0.0
 10
-50.3499595762
 20
-4.0214401474
 30
0.0
 10
-49.3488644816
 20
-5.6680132906
 30
0.0
 10
-48.2665486274
 20
-7.2588111225
 30
0.0
 10
-46.7632517229
 20
-9.1382777979
 30
0.0
 10
-45.0714632066
 20
-10.8488290326
 30
0.0
 10
-43.6163433076
 20
-12.1028933063
 30
0.0
 10
-42.0968613961
 20
-13.2768765895
 30
0.0
 10
-40.8878140047
 20
-14.0648130045
 30
0.0
 10
-40.056882263
 20
-14.5447365455
 30
0.0
  0
SPLINE
  5
3AB
100
AcDbEntity
  8
0
100
AcDbSpline
 62
7
  6
CONTINUOUS
 70
0
 71
3
 72
15
 73
11
 74
0
 42
0.0000001
 43
0.0000001
 44
0.0000000001
 40
0.0
 40
0.0
 40
0.0
 40
0.0
 40
0.1228715495
 40
0.2463321124
 40
0.3704001878
 40
0.4951407481
 40
0.6205503513
 40
0.7465667529
 40
0.8730952743
 40
1.0
 40
1.0
 40
1.0
 40
1.0
 10
-27.4541630184
 20
46.9461094057
 30
0.0
 10
-28.4324694336
 20
46.6838447537
 30
0.0
 10
-30.369174788
 20
46.0613713505
 30
0.0
 10
-33.1785634618
 20
44.8549991201
 30
0.0
 10
-35.8792223785
 20
43.3889787679
 30
0.0
 10
-38.4522947203
 20
41.6804362058
 30
0.0
 10
-40.8811904924
 20
39.7468833724
 30
0.0
 10
-43.1497526914
 20
37.6061236484
 30
0.0
 10
-45.2428639662
 20
35.2773681179
 30
0.0
 10
-46.5107512856
 20
33.6136639422
 30
0.0
 10
-47.111057512
 20
32.7569547336
 30
0.0
  0
SPLINE
  5
3AC
100
AcDbEntity
  8
0
100
AcDbSpline
 62
7
  6
CONTINUOUS
 70
0
 71
3
 72
15
 73
11
 74
0
 42
0.0000001
 43
0.0000001
 44
0.0000000001
 40
0.0
 40
0.0
 40
0.0
 40
0.0
 40
0.1284205782
 40
0.2577528975
 40
0.3869564396
 40
0.5151420526
 40
0.641391091
 40
0.7648169279
 40
0.8846345927
 40
1.0
 40
1.0
 40
1.0
 40
1.0
 10
-33.951774844
 20
50.1975051051
 30
0.0
 10
-34.0851625326
 20
51.0099674451
 30
0.0
 10
-34.3963430507
 20
52.6338344641
 30
0.0
 10
-34.9885402508
 20
55.0440678504
 30
0.0
 10
-35.7034809291
 20
57.4192942455
 30
0.0
 10
-36.5339147267
 20
59.7356625566
 30
0.0
 10
-37.4714950944
 20
61.9707078198
 30
0.0
 10
-38.507330945
 20
64.102585616
 30
0.0
 10
-39.6310862362
 20
66.1098509842
 30
0.0
 10
-40.448339222
 20
67.3784794198
 30
0.0
 10
-40.8700908067
 20
67.9860905566
 30
0.0
  0
SPLINE
  5
3AD
100
AcDbEntity
  8
0
100
AcDbSpline
 62
7
  6
CONTINUOUS
 70
0
 71
3
 72
15
 73
11
 74
0
 42
0.0000001
 43
0.0000001
 44
0.0000000001
 40
0.0
 40
0.0
 40
0.0
 40
0.0
 40
0.1284151023
 40
0.2572674202
 40
0.3857465943
 40
0.5131796746
 40
0.6389363949
 40
0.7624112397
 40
0.8829941743
 40
1.0
 40
1.0
 40
1.0
 40
1.0
 10
-39.6824692018
 20
50.5898331546
 30
0.0
 10
-39.8059152236
 20
51.2124116656
 30
0.0
 10
-40.0811425573
 20
52.4543268729
 30
0.0
 10
-40.574846688
 20
54.2964713166
 30
0.0
 10
-41.1476887174
 20
56.1105208178
 30
0.0
 10
-41.7950968917
 20
57.883039353
 30
0.0
 10
-42.5127040849
 20
59.6015700892
 30
0.0
 10
-43.2952934823
 20
61.2541739011
 30
0.0
 10
-44.1372942317
 20
62.8284181643
 30
0.0
 10
-44.7438820126
 20
63.8346869061
 30
0.0
 10
-45.056226788
 20
64.3213910915
 30
0.0
  0
SPLINE
  5
3AE
100
AcDbEntity
  8
0
100
AcDbSpline
 62
7
  6
CONTINUOUS
 70
0
 71
3
 72
40
 73
36
 74
0
 42
0.0000001
 43
0.0000001
 44
0.0000000001
 40
0.0
 40
0.0
 40
0.0
 40
0.0
 40
0.0601753819
 40
0.0912439905
 40
0.1229169569
 40
0.1551646875
 40
0.1879375202
 40
0.2211753525
 40
0.2548110026
 40
0.288771281
 40
0.3229756266
 40
0.3573394915
 40
0.39177595
 40
0.4261969572
 40
0.4605148635
 40
0.4946432857
 40
0.5284996545
 40
0.5620053101
 40
0.5950886435
 40
0.6276846666
 40
0.6597386529
 40
0.6912052985
 40
0.7220526352
 40
0.7522608614
 40
0.7671264935
 40
0.7818321533
 40
0.8107653367
 40
0.8390948992
 40
0.8668650756
 40
0.8805629249
 40
0.8941454627
 40
0.9209976695
 40
0.9475210513
 40
0.9738181515
 40
1.0
 40
1.0
 40
1.0
 40
1.0
 10
-62.4634611581
 20
64.3209981509
 30
0.0
 10
-63.7333733122
 20
63.9805861292
 30
0.0
 10
-65.6197995267
 20
63.3042322546
 30
0.0
 10
-68.0341856072
 20
62.125172474
 30
0.0
 10
-69.8312762624
 20
61.0832664578
 30
0.0
 10
-71.5831582425
 20
59.8998109329
 30
0.0
 10
-73.2799645746
 20
58.5821482672
 30
0.0
 10
-74.9110559987
 20
57.1379235788
 30
0.0
 10
-76.4669188839
 20
55.5761801644
 30
0.0
 10
-77.9379143519
 20
53.906063342
 30
0.0
 10
-79.3155069561
 20
52.1379288189
 30
0.0
 10
-80.5910399169
 20
50.2821964496
 30
0.0
 10
-81.7571577802
 20
48.3503067167
 30
0.0
 10
-82.8064899183
 20
46.3537073927
 30
0.0
 10
-83.7330503715
 20
44.30462699
 30
0.0
 10
-84.5308934926
 20
42.215259345
 30
0.0
 10
-85.1955451884
 20
40.0983443891
 30
0.0
 10
-85.7226291253
 20
37.9665236261
 30
0.0
 10
-86.1092947808
 20
35.8327421964
 30
0.0
 10
-86.3528238721
 20
33.7097802752
 30
0.0
 10
-86.4520594191
 20
31.61048693
 30
0.0
 10
-86.405988193
 20
29.5474589351
 30
0.0
 10
-86.2151811247
 20
27.5332214345
 30
0.0
 10
-85.9346287013
 20
25.8965303493
 30
0.0
 10
-85.6381375976
 20
24.6242140572
 30
0.0
 10
-85.2983266618
 20
23.3916727809
 30
0.0
 10
-84.7876955444
 20
21.9023731052
 30
0.0
 10
-84.0363206666
 20
20.200779023
 30
0.0
 10
-83.2971669862
 20
18.8642582188
 30
0.0
 10
-82.6428236619
 20
17.8545839846
 30
0.0
 10
-81.9533784546
 20
16.8931383891
 30
0.0
 10
-81.0161596051
 20
15.7665927072
 30
0.0
 10
-79.774428403
 20
14.5425494606
 30
0.0
 10
-78.4271055528
 20
13.4590663876
 30
0.0
 10
-77.4629771941
 20
12.8341193113
 30
0.0
 10
-76.9676395157
 20
12.5479974452
 30
0.0
  0
SPLINE
  5
3AF
100
AcDbEntity
  8
0
100
AcDbSpline
 62
7
  6
CONTINUOUS
 70
0
 71
3
 72
9
 73
5
 74
0
 42
0.0000001
 43
0.0000001
 44
0.0000000001
 40
0.0
 40
0.0
 40
0.0
 40
0.0
 40
0.2539327844
 40
1.0
 40
1.0
 40
1.0
 40
1.0
 10
-22.6483214032
 20
42.1193739005
 30
0.0
 10
-22.3106249565
 20
42.2652923869
 30
0.0
 10
-20.9708612352
 20
42.8166270348
 30
0.0
 10
-19.5917732771
 20
43.2733337236
 30
0.0
 10
-18.5477990506
 20
43.5531809389
 30
0.0
  0
SPLINE
  5
3B0
100
AcDbEntity
  8
0
100
AcDbSpline
 62
7
  6
CONTINUOUS
 70
0
 71
3
 72
15
 73
11
 74
0
 42
0.0000001
 43
0.0000001
 44
0.0000000001
 40
0.0
 40
0.0
 40
0.0
 40
0.0
 40
0.1153654073
 40
0.2351830721
 40
0.358608909
 40
0.4848579474
 40
0.6130435604
 40
0.7422471025
 40
0.8715794218
 40
1.0
 40
1.0
 40
1.0
 40
1.0
 10
-45.0023026998
 20
66.8784118855
 30
0.0
 10
-44.5805511176
 20
66.2708007461
 30
0.0
 10
-43.7632981318
 20
65.0021723131
 30
0.0
 10
-42.6395428406
 20
62.9949069423
 30
0.0
 10
-41.6037069874
 20
60.8630291461
 30
0.0
 10
-40.6661266198
 20
58.6279838829
 30
0.0
 10
-39.8356928222
 20
56.3116155744
 30
0.0
 10
-39.1207521464
 20
53.9363891767
 30
0.0
 10
-38.5285549462
 20
51.5261557905
 30
0.0
 10
-38.2173744256
 20
49.9022887715
 30
0.0
 10
-38.0839867371
 20
49.0898264315
 30
0.0
  0
SPLINE
  5
3B1
100
AcDbEntity
  8
0
100
AcDbSpline
 62
7
  6
CONTINUOUS
 70
0
 71
3
 72
17
 73
13
 74
0
 42
0.0000001
 43
0.0000001
 44
0.0000000001
 40
0.0
 40
0.0
 40
0.0
 40
0.0
 40
0.0597969996
 40
0.1196693764
 40
0.2398776013
 40
0.3003912674
 40
0.3612509954
 40
0.484206027
 40
0.609223146
 40
0.7366934501
 40
0.8669223633
 40
1.0
 40
1.0
 40
1.0
 40
1.0
 10
-6.0470598179
 20
44.3393117898
 30
0.0
 10
-6.3499847747
 20
44.514283322
 30
0.0
 10
-6.9657496595
 20
44.8482830883
 30
0.0
 10
-8.2337265215
 20
45.4507208319
 30
0.0
 10
-9.5521694015
 20
45.9524528688
 30
0.0
 10
-10.9089824613
 20
46.3498298617
 30
0.0
 10
-12.3003162268
 20
46.6799122953
 30
0.0
 10
-14.0884922161
 20
46.9608051345
 30
0.0
 10
-16.2848682577
 20
47.0841293608
 30
0.0
 10
-18.5254353945
 20
46.9947732099
 30
0.0
 10
-20.794567097
 20
46.6931081033
 30
0.0
 10
-22.2999818688
 20
46.3562407988
 30
0.0
 10
-23.0519695215
 20
46.1546671227
 30
0.0
  0
SPLINE
  5
3B2
100
AcDbEntity
  8
0
100
AcDbSpline
 62
7
  6
CONTINUOUS
 70
0
 71
3
 72
34
 73
30
 74
0
 42
0.0000001
 43
0.0000001
 44
0.0000000001
 40
0.0
 40
0.0
 40
0.0
 40
0.0
 40
0.0601866847
 40
0.0912606017
 40
0.1229393722
 40
0.1551908928
 40
0.1879670145
 40
0.2212094816
 40
0.2548504078
 40
0.3229935059
 40
0.391775656
 40
0.4604991645
 40
0.5284673938
 40
0.5950378543
 40
0.6276405476
 40
0.6596981381
 40
0.6911679508
 40
0.7220192095
 40
0.7522325724
 40
0.7818019777
 40
0.8107388408
 40
0.8390709528
 40
0.8668443633
 40
0.8941209862
 40
0.9076002991
 40
0.9209852816
 40
0.9475125017
 40
0.9738133733
 40
1.0
 40
1.0
 40
1.0
 40
1.0
 10
-23.0519695215
 20
46.1546671227
 30
0.0
 10
-24.5408678112
 20
45.7555388887
 30
0.0
 10
-26.7525969412
 20
44.9625870888
 30
0.0
 10
-29.5832957299
 20
43.5801649108
 30
0.0
 10
-31.6902080235
 20
42.358612373
 30
0.0
 10
-33.7441317744
 20
40.9712146195
 30
0.0
 10
-35.7333294293
 20
39.426363955
 30
0.0
 10
-37.6456931102
 20
37.733197349
 30
0.0
 10
-40.0876443427
 20
35.2818640246
 30
0.0
 10
-42.879931072
 20
31.9072168928
 30
0.0
 10
-45.7392385741
 20
27.4698231209
 30
0.0
 10
-48.0554362988
 20
22.7305776845
 30
0.0
 10
-49.7727605096
 20
17.8031508693
 30
0.0
 10
-50.6769264635
 20
13.6061305842
 30
0.0
 10
-51.0603487828
 20
10.2649670125
 30
0.0
 10
-51.1764952967
 20
7.803697678
 30
0.0
 10
-51.1226120669
 20
5.3851212858
 30
0.0
 10
-50.8986575415
 20
3.0236296131
 30
0.0
 10
-50.5062598808
 20
0.7334519811
 30
0.0
 10
-49.9472345599
 20
-1.4714629182
 30
0.0
 10
-49.2252257677
 20
-3.5778063153
 30
0.0
 10
-48.3441023103
 20
-5.5727377941
 30
0.0
 10
-47.3093198358
 20
-7.4441044476
 30
0.0
 10
-46.3196888763
 20
-8.8970795046
 30
0.0
 10
-45.45820017
 20
-9.984236111
 30
0.0
 10
-44.557429622
 20
-11.0136679536
 30
0.0
 10
-43.3475353362
 20
-12.2063200184
 30
0.0
 10
-41.7680210073
 20
-13.4765791086
 30
0.0
 10
-40.6376380611
 20
-14.2092809934
 30
0.0
 10
-40.05687922
 20
-14.544731275
 30
0.0
  0
SPLINE
  5
3B3
100
AcDbEntity
  8
0
100
AcDbSpline
 62
7
  6
CONTINUOUS
 70
0
 71
3
 72
27
 73
23
 74
0
 42
0.0000001
 43
0.0000001
 44
0.0000000001
 40
0.0
 40
0.0
 40
0.0
 40
0.0
 40
0.0566682811
 40
0.1152170682
 40
0.1755994869
 40
0.2064481609
 40
0.2376950466
 40
0.3012419185
 40
0.3659741541
 40
0.4315565446
 40
0.4645606321
 40
0.4976367687
 40
0.5637928014
 40
0.6296497972
 40
0.694827599
 40
0.7270590096
 40
0.7589917699
 40
0.790588183
 40
0.8218140778
 40
0.8830146151
 40
0.9424506722
 40
1.0
 40
1.0
 40
1.0
 40
1.0
 10
-53.4081171479
 20
4.6769068882
 30
0.0
 10
-53.7171809799
 20
5.6082390971
 30
0.0
 10
-54.2237071703
 20
7.5442010266
 30
0.0
 10
-54.6402853288
 20
10.5624533772
 30
0.0
 10
-54.7075626948
 20
13.1607199815
 30
0.0
 10
-54.5964952258
 20
15.2794108774
 30
0.0
 10
-54.3717304176
 20
17.4442523593
 30
0.0
 10
-53.879710124
 20
20.1673656989
 30
0.0
 10
-52.9691774467
 20
23.4033194734
 30
0.0
 10
-51.9532987342
 20
26.0472377136
 30
0.0
 10
-50.9925997362
 20
28.1155553296
 30
0.0
 10
-49.9350253032
 20
30.1472713576
 30
0.0
 10
-48.4447113979
 20
32.5917294582
 30
0.0
 10
-46.4092432996
 20
35.338837741
 30
0.0
 10
-44.5225761281
 20
37.4503668072
 30
0.0
 10
-42.9152657969
 20
39.0111263171
 30
0.0
 10
-41.6712595854
 20
40.108523975
 30
0.0
 10
-40.3885823717
 20
41.1328528357
 30
0.0
 10
-38.6451015864
 20
42.3880167058
 30
0.0
 10
-36.395543416
 20
43.7601402786
 30
0.0
 10
-33.5979307206
 20
45.0754270486
 30
0.0
 10
-31.6724357934
 20
45.7229784687
 30
0.0
 10
-30.7098872537
 20
45.9809987528
 30
0.0
  0
ELLIPSE
  5
3B4
100
AcDbEntity
  8
0
100
AcDbEllipse
 62
7
  6
CONTINUOUS
 10
-31.9189533979
 20
20.0186186355
 30
0.0
 11
3.7798088513
 21
29.5203925314
 31
0.0
 40
0.813135165
 41
6.5187992946
 42
6.6914273576
  0
ELLIPSE
  5
3B5
100
AcDbEntity
  8
0
100
AcDbEllipse
 62
7
  6
CONTINUOUS
 10
-41.3802614958
 20
25.4832124916
 30
0.0
 11
11.4005187712
 21
26.7517407433
 31
0.0
 40
0.7898557819
 41
6.7511814102
 42
6.9238094732
  0
ENDSEC
  0
SECTION
  2
OBJECTS
  0
DICTIONARY
  5
C
100
AcDbDictionary
280
0
281
1
  3
ACAD_GROUP
350
D
  3
ACAD_MLINESTYLE
350
17
  3
ACAD_LAYOUT
350
1A
  3
ACAD_PLOTSETTINGS
350
19
  3
ACAD_PLOTSTYLENAME
350
E
  0
DICTIONARY
  5
D
102
{ACAD_REACTORS
330
C
102
}
100
AcDbDictionary
280
0
281
1
  0
ACDBDICTIONARYWDFLT
  5
E
102
{ACAD_REACTORS
330
C
102
}
100
AcDbDictionary
281
1
  3
Normal
350
F
100
AcDbDictionaryWithDefault
340
F
  0
DICTIONARY
  5
17
102
{ACAD_REACTORS
330
C
102
}
100
AcDbDictionary
280
0
281
1
  3
Standard
350
18
  0
DICTIONARY
  5
19
102
{ACAD_REACTORS
330
C
102
}
100
AcDbDictionary
281
1
  0
DICTIONARY
  5
1A
102
{ACAD_REACTORS
330
C
102
}
100
AcDbDictionary
281
1
  3
Model
350
3B6
  3
Layout1
350
3B7
  0
ACDBPLACEHOLDER
  5
F
102
{ACAD_REACTORS
330
E
102
}
  0
MLINESTYLE
  5
18
102
{ACAD_REACTORS
330
17
102
}
100
AcDbMlineStyle
  2
STANDARD
 70
0
  3

 62
256
 51
90.0
 52
90.0
 71
2
 49
0.5
 62
256
  6
BYLAYER
 49
-0.5
 62
256
  6
BYLAYER
  0
LAYOUT
  5
3B6
102
{ACAD_REACTORS
330
1A
102
}
100
AcDbPlotSettings
  1

  2
none_device
  4
ANSI_C_(22.00_x_17.00_Inches)
  6

 40
0.0
 41
0.0
 42
0.0
 43
0.0
 44
558.8
 45
431.8
 46
0.0
 47
0.0
 48
0.0
 49
0.0
140
0.0
141
0.0
142
1.0
143
1.0
 70
1024
 72
0
 73
0
 74
0
  7

 75
0
147
1.0
148
0.0
149
0.0
100
AcDbLayout
  1
Model
 70
0
 71
0
 10
0.0
 20
0.0
 11
22.0
 21
17.0
 12
0.0
 22
0.0
 32
0.0
 14
0.0
 24
0.0
 34
0.0
 15
0.0
 25
0.0
 35
0.0
146
0.0
 13
0.0
 23
0.0
 33
0.0
 16
1.0
 26
0.0
 36
0.0
 17
0.0
 27
1.0
 37
0.0
 76
0
330
216
345
0
346
0
  0
LAYOUT
  5
3B7
102
{ACAD_REACTORS
330
1A
102
}
100
AcDbPlotSettings
  1

  2
none_device
  4
ANSI_C_(22.00_x_17.00_Inches)
  6

 40
0.0
 41
0.0
 42
0.0
 43
0.0
 44
558.8
 45
431.8
 46
0.0
 47
0.0
 48
0.0
 49
0.0
140
0.0
141
0.0
142
1.0
143
1.0
 70
0
 72
0
 73
0
 74
0
  7

 75
0
147
1.0
148
0.0
149
0.0
100
AcDbLayout
  1
Layout1
 70
0
 71
1
 10
0.0
 20
0.0
 11
22.0
 21
17.0
 12
0.0
 22
0.0
 32
0.0
 14
0.0
 24
0.0
 34
0.0
 15
0.0
 25
0.0
 35
0.0
146
0.0
 13
0.0
 23
0.0
 33
0.0
 16
1.0
 26
0.0
 36
0.0
 17
0.0
 27
1.0
 37
0.0
 76
0
330
217
345
0
346
0
  0
ENDSEC
  0
EOF
