999
DXF file: Y:\3D PRATIKA-KAEDRA_OLGA\TRAVAIL_PHASE_3\CAD3D\PKE32M723_3D-Simplified\PKE32M723_2D-isometric.dxf
999
Pro/ENGINEER 2018260 by Parametric Technology Corporation
  0
SECTION
  2
HEADER
  9
$ACADVER
  1
AC1027
  9
$DWGCODEPAGE
  3
ANSI_1252
  9
$EXTMAX
 10
558.8
 20
431.8
 30
0.0
  9
$EXTMIN
 10
0.0
 20
0.0
 30
0.0
  9
$LIMMIN
 10
0.0
 20
0.0
  9
$LIMMAX
 10
558.8
 20
431.8
  9
$VIEWCTR
 10
279.4
 20
215.9
  9
$VIEWSIZE
 40
431.8
  9
$CLAYER
  8
0
  9
$LTSCALE
 40
30.734
  9
$CELTYPE
  6
BYLAYER
  9
$DIMSCALE
 40
1.0
  9
$DIMASZ
 40
0.1875
  9
$DIMEXO
 40
0.0625
  9
$DIMDLI
 40
21.2344
  9
$DIMEXE
 40
0.125
  9
$DIMCEN
 40
5.0292
  9
$DIMLFAC
 40
1.0
  9
$DIMBLK
  1
_CLOSED
  9
$DIMALT
 70
0
  9
$DIMALTF
 40
0.0393700787
  9
$DIMTXT
 40
0.15625
  9
$DIMTOL
 70
0
  9
$DIMLIM
 70
0
  9
$DIMTFAC
 40
1.0
  9
$DIMGAP
 40
0.625
  9
$DIMDSEP
 70
46
  9
$AUNITS
 70
0
  9
$PDMODE
 70
3
  9
$PDSIZE
 40
0.3125
  9
$HANDSEED
  5
46D
  9
$TILEMODE
 70
1
  9
$MEASUREMENT
 70
1
  9
$INSUNITS
 70
4
  0
ENDSEC
  0
SECTION
  2
CLASSES
  0
CLASS
  1
ACDBDICTIONARYWDFLT
  2
AcDbDictionaryWithDefault
  3
AutoCAD 2000
 90
0
 91
1
280
0
281
0
  0
CLASS
  1
ACDBPLACEHOLDER
  2
AcDbPlaceHolder
  3
AutoCAD 2000
 90
0
 91
1
280
0
281
0
  0
CLASS
  1
LAYOUT
  2
AcDbLayout
  3
AutoCAD 2000
 90
0
 91
0
280
0
281
0
  0
ENDSEC
  0
SECTION
  2
TABLES
  0
TABLE
  2
VPORT
  5
8
100
AcDbSymbolTable
 70
2
  0
VPORT
  5
1F4
100
AcDbSymbolTableRecord
100
AcDbViewportTableRecord
  2
*ACTIVE
 70
0
 10
0.0
 20
0.0
 11
1.0
 21
1.0
 12
279.4
 22
215.9
 13
0.0
 23
0.0
 14
1.0
 24
1.0
 15
0.0
 25
0.0
 16
0.0
 26
0.0
 36
1.0
 17
0.0
 27
0.0
 37
0.0
 40
431.8
 41
1.2941176471
 42
50.0
 43
0.0
 44
0.0
 50
0.0
 51
0.0
 71
0
 72
100
 73
1
 74
1
 75
0
 76
0
 77
0
 78
0
  0
ENDTAB
  0
TABLE
  2
LTYPE
  5
5
100
AcDbSymbolTable
 70
6
  0
LTYPE
  5
14
100
AcDbSymbolTableRecord
100
AcDbLinetypeTableRecord
  2
BYBLOCK
 70
0
  3

 72
65
 73
0
 40
0.0
  0
LTYPE
  5
15
100
AcDbSymbolTableRecord
100
AcDbLinetypeTableRecord
  2
BYLAYER
 70
0
  3

 72
65
 73
0
 40
0.0
  0
LTYPE
  5
16
100
AcDbSymbolTableRecord
100
AcDbLinetypeTableRecord
  2
CONTINUOUS
 70
64
  3
Solid line
 72
65
 73
0
 40
0.0
  0
LTYPE
  5
1F5
100
AcDbSymbolTableRecord
100
AcDbLinetypeTableRecord
  2
CENTER
 70
64
  3
____ _ ____ _ ____ _ ____ _ ____ _ ____ _ ____
 72
65
 73
4
 40
0.6
 49
0.375
 74
0
 49
-0.075
 74
0
 49
0.075
 74
0
 49
-0.075
 74
0
  0
LTYPE
  5
1F6
100
AcDbSymbolTableRecord
100
AcDbLinetypeTableRecord
  2
HIDDEN
 70
64
  3
- - - - - - - - - - - - - - - - - - - -
 72
65
 73
2
 40
0.2
 49
0.1
 74
0
 49
-0.1
 74
0
  0
LTYPE
  5
1F7
100
AcDbSymbolTableRecord
100
AcDbLinetypeTableRecord
  2
PHANTOM
 70
64
  3
_____ _ _ _____ _ _ _____ _ _ _____
 72
65
 73
6
 40
0.8
 49
0.45
 74
0
 49
-0.05
 74
0
 49
0.1
 74
0
 49
-0.05
 74
0
 49
0.1
 74
0
 49
-0.05
 74
0
  0
LTYPE
  5
1F8
100
AcDbSymbolTableRecord
100
AcDbLinetypeTableRecord
  2
DOT
 70
64
  3
. . . . . . . . . . . . . . . . . . . .
 72
65
 73
2
 40
0.2
 49
0.1
 74
0
 49
-0.1
 74
0
  0
LTYPE
  5
1F9
100
AcDbSymbolTableRecord
100
AcDbLinetypeTableRecord
  2
DASHED
 70
64
  3
- - - - - - - - - - - - - - - - - - - -
 72
65
 73
2
 40
0.2
 49
0.1
 74
0
 49
-0.1
 74
0
  0
ENDTAB
  0
TABLE
  2
LAYER
  5
2
100
AcDbSymbolTable
 70
36
  0
LAYER
  5
10
100
AcDbSymbolTableRecord
100
AcDbLayerTableRecord
  2
0
 70
0
 62
7
  6
CONTINUOUS
370
-3
390
F
  0
LAYER
  5
1FA
100
AcDbSymbolTableRecord
100
AcDbLayerTableRecord
  2
DEFAULT_1
 70
0
 62
7
  6
CENTER
370
-3
390
F
  0
LAYER
  5
1FB
100
AcDbSymbolTableRecord
100
AcDbLayerTableRecord
  2
DEFAULT_2
 70
0
 62
8
  6
HIDDEN
370
-3
390
F
  0
LAYER
  5
1FC
100
AcDbSymbolTableRecord
100
AcDbLayerTableRecord
  2
DEFAULT_3
 70
0
 62
7
  6
PHANTOM
370
-3
390
F
  0
ENDTAB
  0
TABLE
  2
STYLE
  5
3
100
AcDbSymbolTable
 70
1
  0
STYLE
  5
11
100
AcDbSymbolTableRecord
100
AcDbTextStyleTableRecord
  2
STANDARD
 70
0
 40
0.0
 41
0.8
 50
0.0
 71
0
 42
0.2
  3
txt
  4

  0
STYLE
  5
1FD
100
AcDbSymbolTableRecord
100
AcDbTextStyleTableRecord
  2
TEXTSTYLE_1
 70
0
 40
0.0
 41
0.8
 50
0.0
 71
0
 42
0.2
  3
gdt
  4

  0
ENDTAB
  0
TABLE
  2
VIEW
  5
6
100
AcDbSymbolTable
 70
0
  0
ENDTAB
  0
TABLE
  2
UCS
  5
7
100
AcDbSymbolTable
 70
0
  0
ENDTAB
  0
TABLE
  2
APPID
  5
9
100
AcDbSymbolTable
 70
1
  0
APPID
  5
1FE
100
AcDbSymbolTableRecord
100
AcDbRegAppTableRecord
  2
ACAD
 70
0
  0
ENDTAB
  0
TABLE
  2
BLOCK_RECORD
  5
1
100
AcDbSymbolTable
 70
0
  0
BLOCK_RECORD
  5
1FF
100
AcDbSymbolTableRecord
100
AcDbBlockTableRecord
  2
*Model_Space
  0
BLOCK_RECORD
  5
200
100
AcDbSymbolTableRecord
100
AcDbBlockTableRecord
  2
*Paper_Space
  0
BLOCK_RECORD
  5
201
100
AcDbSymbolTableRecord
100
AcDbBlockTableRecord
  2
_CLOSED
  0
ENDTAB
  0
TABLE
  2
DIMSTYLE
  5
A
100
AcDbSymbolTable
 70
1
100
AcDbDimStyleTable
 71
0
  0
DIMSTYLE
105
202
100
AcDbSymbolTableRecord
100
AcDbDimStyleTableRecord
  2
STANDARD
 70
0
  3

  4

 40
1.0
 41
0.1875
 42
0.0625
 43
0.38
 44
0.125
 45
0.0
 46
0.0
 47
0.01
 48
0.01
140
0.15625
141
0.09
142
0.0
143
25.4
144
1.0
145
0.0
146
1.0
147
0.625
 71
0.0
 72
0.0
 73
1
 74
1
 75
0
 76
0
 77
0
 78
8
 79
2
170
0
171
1
172
0
173
0
174
0
175
0
176
0
177
0
178
0
270
2
179
2
271
2
272
2
273
2
274
2
275
0
280
0
281
0
282
0
283
1
284
8
285
0
286
0
287
3
288
0
340
11
278
46
341
201
342
201
343
201
344
201
  0
ENDTAB
  0
ENDSEC
  0
SECTION
  2
BLOCKS
  0
BLOCK
  5
20
100
AcDbEntity
  8
0
100
AcDbBlockBegin
  2
*Model_Space
 70
0
 10
0.0
 20
0.0
 30
0.0
  3
*Model_Space
  1

  0
ENDBLK
  5
21
100
AcDbEntity
  8
0
100
AcDbBlockEnd
  0
BLOCK
  5
1C
100
AcDbEntity
  8
0
100
AcDbBlockBegin
  2
*Paper_Space
 70
0
 10
0.0
 20
0.0
 30
0.0
  3
*Paper_Space
  1

  0
ENDBLK
  5
1D
100
AcDbEntity
  8
0
100
AcDbBlockEnd
  0
BLOCK
  5
203
100
AcDbEntity
  8
0
100
AcDbBlockBegin
  2
_CLOSED
 70
64
 10
0.0
 20
0.0
  3
_CLOSED
  1

  0
LINE
  5
204
100
AcDbEntity
  8
0
  6
BYBLOCK
 62
0
100
AcDbLine
 10
0.0
 20
0.0
 11
-1.0
 21
0.1666666667
  0
LINE
  5
205
100
AcDbEntity
  8
0
  6
BYBLOCK
 62
0
100
AcDbLine
 10
-1.0
 20
0.1666666667
 11
-1.0
 21
-0.1666666667
  0
LINE
  5
206
100
AcDbEntity
  8
0
  6
BYBLOCK
 62
0
100
AcDbLine
 10
-1.0
 20
-0.1666666667
 11
0.0
 21
0.0
  0
LINE
  5
207
100
AcDbEntity
  8
0
  6
BYBLOCK
 62
0
100
AcDbLine
 10
-1.0
 20
0.0
 11
0.0
 21
0.0
  0
ENDBLK
  5
208
100
AcDbEntity
  8
0
  6
BYBLOCK
 62
0
100
AcDbBlockEnd
  0
ENDSEC
  0
SECTION
  2
ENTITIES
  0
LINE
  5
209
100
AcDbEntity
  8
0
100
AcDbLine
 62
7
  6
CONTINUOUS
 10
-98.307061776
 20
-25.959595426
 11
-98.2066373083
 21
-25.9325014302
  0
LINE
  5
20A
100
AcDbEntity
  8
0
100
AcDbLine
 62
7
  6
CONTINUOUS
 10
-40.207538165
 20
47.1019256534
 11
-40.3075615301
 21
47.0749399265
  0
LINE
  5
20B
100
AcDbEntity
  8
0
100
AcDbLine
 62
7
  6
CONTINUOUS
 10
-96.4303124505
 20
52.3026335599
 11
-100.5551776173
 21
51.1898557963
  0
LINE
  5
20C
100
AcDbEntity
  8
0
100
AcDbLine
 62
7
  6
CONTINUOUS
 10
-106.9096224797
 20
65.9853493887
 11
-102.7847573128
 21
67.0981271523
  0
LINE
  5
20D
100
AcDbEntity
  8
0
100
AcDbLine
 62
7
  6
CONTINUOUS
 10
-103.1708203207
 20
67.6395021472
 11
-107.2956854875
 21
66.5267243835
  0
LINE
  5
20E
100
AcDbEntity
  8
0
100
AcDbLine
 62
7
  6
CONTINUOUS
 10
-77.6203030795
 20
56.1298088828
 11
-81.2764176649
 21
55.2546543004
  0
LINE
  5
20F
100
AcDbEntity
  8
0
100
AcDbLine
 62
7
  6
CONTINUOUS
 10
-36.36546238
 20
29.7654588846
 11
-34.8872188403
 21
29.9126989628
  0
LINE
  5
210
100
AcDbEntity
  8
0
100
AcDbLine
 62
7
  6
CONTINUOUS
 10
-38.9347592784
 20
27.6121343186
 11
-40.9777689397
 21
27.4196817057
  0
LINE
  5
211
100
AcDbEntity
  8
0
100
AcDbLine
 62
7
  6
CONTINUOUS
 10
-103.6303914101
 20
11.3676386708
 11
-99.5824415712
 21
11.2510195805
  0
LINE
  5
212
100
AcDbEntity
  8
0
100
AcDbLine
 62
7
  6
CONTINUOUS
 10
-99.7999992884
 20
12.0281007172
 11
-104.065340027
 21
12.1509825977
  0
LINE
  5
213
100
AcDbEntity
  8
0
100
AcDbLine
 62
7
  6
CONTINUOUS
 10
-104.1005978251
 20
12.2006960737
 11
-99.9843278004
 21
12.0821088975
  0
LINE
  5
214
100
AcDbEntity
  8
0
100
AcDbLine
 62
7
  6
CONTINUOUS
 10
-158.4594232124
 20
56.3330740025
 11
-159.0739773692
 21
56.1671493091
  0
LINE
  5
215
100
AcDbEntity
  8
0
100
AcDbLine
 62
7
  6
CONTINUOUS
 10
-104.866336534
 20
68.6133250236
 11
-108.9912017009
 21
67.5005472599
  0
LINE
  5
216
100
AcDbEntity
  8
0
100
AcDbLine
 62
7
  6
CONTINUOUS
 10
-159.3752358011
 20
56.3821961749
 11
-158.7426384597
 21
56.5528539531
  0
LINE
  5
217
100
AcDbEntity
  8
0
100
AcDbLine
 62
7
  6
CONTINUOUS
 10
-77.6203030795
 20
56.1298088828
 11
-77.6525000046
 21
56.1247151359
  0
LWPOLYLINE
  5
218
100
AcDbEntity
  8
0
100
AcDbPolyline
 62
7
  6
CONTINUOUS
 90
4
 70
0
 10
-76.04395261
 20
56.3389932549
 10
-76.4536116796
 20
56.2946569932
 10
-77.1873092012
 20
56.2006449059
 10
-77.6534967159
 20
56.1312341403
  0
LINE
  5
219
100
AcDbEntity
  8
0
100
AcDbLine
 62
7
  6
CONTINUOUS
 10
-105.85869136
 20
-13.4648687862
 11
-105.9511089988
 21
-13.4471469644
  0
LINE
  5
21A
100
AcDbEntity
  8
0
100
AcDbLine
 62
7
  6
CONTINUOUS
 10
-77.6531036247
 20
56.131292656
 11
-77.620303318
 21
56.1298160628
  0
LINE
  5
21B
100
AcDbEntity
  8
0
100
AcDbLine
 62
7
  6
CONTINUOUS
 10
-103.5178012999
 20
37.2215328466
 11
-103.4815731122
 21
37.2176226864
  0
LINE
  5
21C
100
AcDbEntity
  8
0
100
AcDbLine
 62
7
  6
CONTINUOUS
 10
-148.2670536992
 20
22.955390262
 11
-144.4986741399
 21
21.9443262326
  0
LINE
  5
21D
100
AcDbEntity
  8
0
100
AcDbLine
 62
7
  6
CONTINUOUS
 10
-148.2670125078
 20
22.9553742629
 11
-148.2668699296
 21
22.9553328664
  0
LINE
  5
21E
100
AcDbEntity
  8
0
100
AcDbLine
 62
7
  6
CONTINUOUS
 10
-99.7999992884
 20
12.0281007172
 11
-99.9843281177
 21
12.0820954558
  0
LINE
  5
21F
100
AcDbEntity
  8
0
100
AcDbLine
 62
7
  6
CONTINUOUS
 10
-134.0138837163
 20
18.0915461127
 11
-134.0128656518
 21
18.0912397034
  0
LINE
  5
220
100
AcDbEntity
  8
0
100
AcDbLine
 62
7
  6
CONTINUOUS
 10
-135.4092208128
 20
18.5472873686
 11
-135.1429168398
 21
18.4657164717
  0
LINE
  5
221
100
AcDbEntity
  8
0
100
AcDbLine
 62
7
  6
CONTINUOUS
 10
-135.825472665
 20
18.6770515907
 11
-135.7512609919
 21
18.6537190585
  0
LINE
  5
222
100
AcDbEntity
  8
0
100
AcDbLine
 62
7
  6
CONTINUOUS
 10
-128.2179984039
 20
77.3288982141
 11
-128.218057032
 21
77.3289001688
  0
LWPOLYLINE
  5
223
100
AcDbEntity
  8
0
100
AcDbPolyline
 62
7
  6
CONTINUOUS
 90
4
 70
0
 10
-65.455449768
 20
57.3353287909
 10
-67.6274735267
 20
57.7430672226
 10
-70.8027636388
 20
57.8379995574
 10
-73.7279957056
 20
57.2708268666
  0
LINE
  5
224
100
AcDbEntity
  8
0
100
AcDbLine
 62
7
  6
CONTINUOUS
 10
-32.6555074811
 20
34.6073072854
 11
-32.5630899905
 21
34.5895854956
  0
LINE
  5
225
100
AcDbEntity
  8
0
100
AcDbLine
 62
7
  6
CONTINUOUS
 10
-139.4850741607
 20
19.9732466612
 11
-139.3265256549
 21
19.917215703
  0
LINE
  5
226
100
AcDbEntity
  8
0
100
AcDbLine
 62
7
  6
CONTINUOUS
 10
-135.8245943929
 20
18.6796350437
 11
-135.7512609919
 21
18.6537190585
  0
LINE
  5
227
100
AcDbEntity
  8
0
100
AcDbLine
 62
7
  6
CONTINUOUS
 10
-139.5049659179
 20
19.9192585441
 11
-139.3466806099
 21
19.8623279386
  0
LINE
  5
228
100
AcDbEntity
  8
0
100
AcDbLine
 62
7
  6
CONTINUOUS
 10
-139.4635410338
 20
20.0217041343
 11
-139.3083243329
 21
19.9608890929
  0
LINE
  5
229
100
AcDbEntity
  8
0
100
AcDbLine
 62
7
  6
CONTINUOUS
 10
-139.4635593207
 20
20.0218975
 11
-139.3898683491
 21
19.9927026219
  0
LINE
  5
22A
100
AcDbEntity
  8
0
100
AcDbLine
 62
7
  6
CONTINUOUS
 10
-65.51008106
 20
57.3486440391
 11
-65.3149297717
 21
57.300960837
  0
LWPOLYLINE
  5
22B
100
AcDbEntity
  8
0
100
AcDbPolyline
 62
7
  6
CONTINUOUS
 90
3
 70
0
 10
-59.6764596473
 20
57.1477423116
 10
-60.7641643651
 20
57.4145592316
 10
-63.0685091713
 20
57.362386764
  0
LWPOLYLINE
  5
22C
100
AcDbEntity
  8
0
100
AcDbPolyline
 62
7
  6
CONTINUOUS
 90
3
 70
0
 10
-50.2468793712
 20
54.1258725859
 10
-51.1311001525
 20
54.3560698091
 10
-51.7740925343
 20
54.2265898222
  0
LINE
  5
22D
100
AcDbEntity
  8
0
100
AcDbLine
 62
7
  6
CONTINUOUS
 10
-65.5100795959
 20
57.3486437174
 11
-65.3159862108
 21
57.296842036
  0
LINE
  5
22E
100
AcDbEntity
  8
0
100
AcDbLine
 62
7
  6
CONTINUOUS
 10
-127.3264492287
 20
75.8774008249
 11
-127.2929372936
 21
75.8681181571
  0
LINE
  5
22F
100
AcDbEntity
  8
0
100
AcDbLine
 62
7
  6
CONTINUOUS
 10
-128.126037297
 20
77.3016498544
 11
-128.2179984039
 21
77.3288982141
  0
LINE
  5
230
100
AcDbEntity
  8
0
100
AcDbLine
 62
7
  6
CONTINUOUS
 10
-126.5292377932
 20
75.5149522775
 11
-126.5732526314
 21
75.5288432368
  0
LINE
  5
231
100
AcDbEntity
  8
0
100
AcDbLine
 62
7
  6
CONTINUOUS
 10
-126.5293334864
 20
75.5147238475
 11
-126.5732526314
 21
75.5288432368
  0
LWPOLYLINE
  5
232
100
AcDbEntity
  8
0
100
AcDbPolyline
 62
7
  6
CONTINUOUS
 90
7
 70
0
 10
-151.0932186018
 20
68.7519800615
 10
-151.1428348038
 20
68.7685217511
 10
-151.3863514998
 20
68.7994750012
 10
-151.6425902219
 20
68.7532289054
 10
-151.8933207761
 20
68.6315929487
 10
-152.1290627046
 20
68.436478292
 10
-152.2654518635
 20
68.273939656
  0
LINE
  5
233
100
AcDbEntity
  8
0
100
AcDbLine
 62
7
  6
CONTINUOUS
 10
-92.6418602756
 20
32.4042544763
 11
-94.1324020311
 21
32.961039491
  0
LINE
  5
234
100
AcDbEntity
  8
0
100
AcDbLine
 62
7
  6
CONTINUOUS
 10
-93.2467832229
 20
34.1182795497
 11
-91.740473556
 21
33.5556048338
  0
LINE
  5
235
100
AcDbEntity
  8
0
100
AcDbLine
 62
7
  6
CONTINUOUS
 10
-150.4005732255
 20
68.3475464057
 11
-150.932767577
 21
68.5463450406
  0
LINE
  5
236
100
AcDbEntity
  8
0
100
AcDbLine
 62
7
  6
CONTINUOUS
 10
-151.0931816814
 20
68.7519239139
 11
-150.5249255095
 21
68.5396546869
  0
LINE
  5
237
100
AcDbEntity
  8
0
100
AcDbLine
 62
7
  6
CONTINUOUS
 10
-154.2194664743
 20
26.7022162607
 11
-154.1148935923
 21
26.6428541942
  0
LINE
  5
238
100
AcDbEntity
  8
0
100
AcDbLine
 62
7
  6
CONTINUOUS
 10
-94.7738158791
 20
-16.0002594556
 11
-92.7957136302
 21
-17.1363861448
  0
LINE
  5
239
100
AcDbEntity
  8
0
100
AcDbLine
 62
7
  6
CONTINUOUS
 10
-81.1968891554
 20
-22.4772803964
 11
-79.2187869065
 21
-23.6134070855
  0
LINE
  5
23A
100
AcDbEntity
  8
0
100
AcDbLine
 62
7
  6
CONTINUOUS
 10
-65.5606681559
 20
-24.4181541044
 11
-91.1629629774
 21
-9.7134286704
  0
LINE
  5
23B
100
AcDbEntity
  8
0
100
AcDbLine
 62
7
  6
CONTINUOUS
 10
-58.111637118
 20
-28.1527899747
 11
-52.8555368567
 21
-31.1716408916
  0
LINE
  5
23C
100
AcDbEntity
  8
0
100
AcDbLine
 62
7
  6
CONTINUOUS
 10
-58.561753781
 20
-26.5237929024
 11
-53.8363099285
 21
-29.2378603283
  0
LINE
  5
23D
100
AcDbEntity
  8
0
100
AcDbLine
 62
7
  6
CONTINUOUS
 10
-131.5710229284
 20
16.3780260118
 11
-114.3459743516
 21
6.484787469
  0
LINE
  5
23E
100
AcDbEntity
  8
0
100
AcDbLine
 62
7
  6
CONTINUOUS
 10
-141.7981508323
 20
25.8269290437
 11
-138.0415006929
 21
23.6692900806
  0
LINE
  5
23F
100
AcDbEntity
  8
0
100
AcDbLine
 62
7
  6
CONTINUOUS
 10
-72.1195342396
 20
-4.2093137662
 11
-54.882438997
 21
-14.1094713337
  0
LINE
  5
240
100
AcDbEntity
  8
0
100
AcDbLine
 62
7
  6
CONTINUOUS
 10
-99.2348272003
 20
11.703493082
 11
-99.7999992884
 21
12.0281007172
  0
LINE
  5
241
100
AcDbEntity
  8
0
100
AcDbLine
 62
7
  6
CONTINUOUS
 10
-154.0847645103
 20
26.807135828
 11
-154.1253425839
 21
26.8316900739
  0
LINE
  5
242
100
AcDbEntity
  8
0
100
AcDbLine
 62
7
  6
CONTINUOUS
 10
-154.0774602557
 20
26.835552583
 11
-154.1176909034
 21
26.8612918937
  0
LINE
  5
243
100
AcDbEntity
  8
0
100
AcDbLine
 62
7
  6
CONTINUOUS
 10
-59.663362035
 20
57.1434965743
 11
-59.6772977633
 21
57.1479790129
  0
LINE
  5
244
100
AcDbEntity
  8
0
100
AcDbLine
 62
7
  6
CONTINUOUS
 10
-127.3134402187
 20
75.8554792885
 11
-127.2885261041
 21
75.846978457
  0
LINE
  5
245
100
AcDbEntity
  8
0
100
AcDbLine
 62
7
  6
CONTINUOUS
 10
-127.326440437
 20
75.8255036051
 11
-127.3016939061
 21
75.8166944368
  0
LINE
  5
246
100
AcDbEntity
  8
0
100
AcDbLine
 62
7
  6
CONTINUOUS
 10
-127.3218061682
 20
75.8889036767
 11
-127.289263985
 21
75.8771816762
  0
LINE
  5
247
100
AcDbEntity
  8
0
100
AcDbLine
 62
7
  6
CONTINUOUS
 10
-124.3188190988
 20
74.6908737338
 11
-124.3874918981
 21
74.7203851587
  0
LINE
  5
248
100
AcDbEntity
  8
0
100
AcDbLine
 62
7
  6
CONTINUOUS
 10
-124.3356659456
 20
74.6564273099
 11
-124.4039627767
 21
74.6865477767
  0
LINE
  5
249
100
AcDbEntity
  8
0
100
AcDbLine
 62
7
  6
CONTINUOUS
 10
-70.562337381
 20
4.1219413596
 11
-50.8980495882
 21
-7.1722787431
  0
LINE
  5
24A
100
AcDbEntity
  8
0
100
AcDbLine
 62
7
  6
CONTINUOUS
 10
-70.0294489103
 20
5.4399672212
 11
-63.3179053941
 21
1.5851797761
  0
LINE
  5
24B
100
AcDbEntity
  8
0
100
AcDbLine
 62
7
  6
CONTINUOUS
 10
-67.3673764849
 20
10.8302265134
 11
-60.3296133375
 21
6.7880742191
  0
LINE
  5
24C
100
AcDbEntity
  8
0
100
AcDbLine
 62
7
  6
CONTINUOUS
 10
-94.1324020311
 20
32.961039491
 11
-94.9801601377
 21
33.4479509292
  0
LINE
  5
24D
100
AcDbEntity
  8
0
100
AcDbLine
 62
7
  6
CONTINUOUS
 10
-62.93923012
 20
16.444763601
 11
-45.4567152859
 21
6.4036488367
  0
LINE
  5
24E
100
AcDbEntity
  8
0
100
AcDbLine
 62
7
  6
CONTINUOUS
 10
-57.9393538378
 20
20.4923009194
 11
-42.4684232293
 21
11.6065432796
  0
LINE
  5
24F
100
AcDbEntity
  8
0
100
AcDbLine
 62
7
  6
CONTINUOUS
 10
-110.593326125
 20
23.6935071074
 11
-110.5802775766
 21
23.6843884549
  0
LINE
  5
250
100
AcDbEntity
  8
0
100
AcDbLine
 62
7
  6
CONTINUOUS
 10
-157.7604951128
 20
29.1918361423
 11
-157.7926668651
 21
29.2144150838
  0
LINE
  5
251
100
AcDbEntity
  8
0
100
AcDbLine
 62
7
  6
CONTINUOUS
 10
-157.7926668651
 20
29.2144150838
 11
-157.7928362245
 21
29.2145596314
  0
LINE
  5
252
100
AcDbEntity
  8
0
100
AcDbLine
 62
7
  6
CONTINUOUS
 10
-52.2800326577
 20
54.1808556788
 11
-52.157362097
 21
54.1263762533
  0
LINE
  5
253
100
AcDbEntity
  8
0
100
AcDbLine
 62
7
  6
CONTINUOUS
 10
-52.2716444598
 20
54.2000208543
 11
-52.1506369274
 21
54.1419024555
  0
LINE
  5
254
100
AcDbEntity
  8
0
100
AcDbLine
 62
7
  6
CONTINUOUS
 10
-50.2462155376
 20
54.1255521701
 11
-50.2512185544
 21
54.1279840809
  0
LINE
  5
255
100
AcDbEntity
  8
0
100
AcDbLine
 62
7
  6
CONTINUOUS
 10
-50.2512185544
 20
54.1279840809
 11
-46.4385924586
 21
52.1137825796
  0
LINE
  5
256
100
AcDbEntity
  8
0
100
AcDbLine
 62
7
  6
CONTINUOUS
 10
-108.3404016063
 20
55.0663801006
 11
-106.9220742647
 21
54.251761166
  0
LINE
  5
257
100
AcDbEntity
  8
0
100
AcDbLine
 62
7
  6
CONTINUOUS
 10
-101.9801425609
 20
51.4133535417
 11
-100.4126836208
 21
50.5130805973
  0
LINE
  5
258
100
AcDbEntity
  8
0
100
AcDbLine
 62
7
  6
CONTINUOUS
 10
-118.9817558452
 20
65.5390451294
 11
-115.3070596485
 21
63.428476565
  0
LINE
  5
259
100
AcDbEntity
  8
0
100
AcDbLine
 62
7
  6
CONTINUOUS
 10
-97.7861624823
 20
56.9402500218
 11
-88.4790642257
 21
51.5947009058
  0
LINE
  5
25A
100
AcDbEntity
  8
0
100
AcDbLine
 62
7
  6
CONTINUOUS
 10
-37.1718936182
 20
25.0093431036
 11
-62.7741884397
 21
39.7140685376
  0
LINE
  5
25B
100
AcDbEntity
  8
0
100
AcDbLine
 62
7
  6
CONTINUOUS
 10
-41.1092692436
 20
27.4952091487
 11
-40.9777689397
 21
27.4196817057
  0
LINE
  5
25C
100
AcDbEntity
  8
0
100
AcDbLine
 62
7
  6
CONTINUOUS
 10
-108.9912017009
 20
67.5005472599
 11
-107.2956854875
 21
66.5267243835
  0
LINE
  5
25D
100
AcDbEntity
  8
0
100
AcDbLine
 62
7
  6
CONTINUOUS
 10
-104.866336534
 20
68.6133250236
 11
-103.1708203207
 21
67.6395021472
  0
LINE
  5
25E
100
AcDbEntity
  8
0
100
AcDbLine
 62
7
  6
CONTINUOUS
 10
-59.163335538
 20
46.0008993228
 11
-57.1852332891
 21
44.8647726337
  0
LINE
  5
25F
100
AcDbEntity
  8
0
100
AcDbLine
 62
7
  6
CONTINUOUS
 10
-126.5732675586
 20
75.5288603464
 11
-126.5359155641
 21
75.5071684293
  0
LINE
  5
260
100
AcDbEntity
  8
0
100
AcDbLine
 62
7
  6
CONTINUOUS
 10
-121.8190297289
 20
73.4268574876
 11
-121.9228699788
 21
73.4871974749
  0
LINE
  5
261
100
AcDbEntity
  8
0
100
AcDbLine
 62
7
  6
CONTINUOUS
 10
-121.8817028957
 20
73.4633761409
 11
-117.7789837791
 21
70.9428211403
  0
LINE
  5
262
100
AcDbEntity
  8
0
100
AcDbLine
 62
7
  6
CONTINUOUS
 10
-126.5732675586
 20
75.5288603464
 11
-126.5365676888
 21
75.5057408245
  0
LINE
  5
263
100
AcDbEntity
  8
0
100
AcDbLine
 62
7
  6
CONTINUOUS
 10
-117.7562122698
 20
70.9278161733
 11
-117.7789837791
 21
70.9428211403
  0
LINE
  5
264
100
AcDbEntity
  8
0
100
AcDbLine
 62
7
  6
CONTINUOUS
 10
-107.9384848305
 20
2.6620403707
 11
-108.0092268335
 21
2.7217717947
  0
LINE
  5
265
100
AcDbEntity
  8
0
100
AcDbLine
 62
7
  6
CONTINUOUS
 10
-113.8870230167
 20
7.3222427575
 11
-113.9897319136
 21
7.4127155637
  0
LINE
  5
266
100
AcDbEntity
  8
0
100
AcDbLine
 62
7
  6
CONTINUOUS
 10
-113.8880427125
 20
7.3220553889
 11
-113.9897319136
 21
7.4127155637
  0
LINE
  5
267
100
AcDbEntity
  8
0
100
AcDbLine
 62
7
  6
CONTINUOUS
 10
-99.0926413153
 20
-25.767944099
 11
-99.1993847138
 21
-25.6690066264
  0
LWPOLYLINE
  5
268
100
AcDbEntity
  8
0
100
AcDbPolyline
 62
7
  6
CONTINUOUS
 90
3
 70
0
 10
-106.9784114094
 20
-17.6376142012
 10
-103.0858976156
 20
-22.1484701574
 10
-99.0926966704
 20
-25.768022407
  0
LINE
  5
269
100
AcDbEntity
  8
0
100
AcDbLine
 62
7
  6
CONTINUOUS
 10
-157.776479654
 20
31.0447783746
 11
-157.7904502167
 21
31.065020087
  0
LINE
  5
26A
100
AcDbEntity
  8
0
100
AcDbLine
 62
7
  6
CONTINUOUS
 10
-30.5757140107
 20
18.4803981292
 11
-30.5049720077
 21
18.4206667045
  0
LINE
  5
26B
100
AcDbEntity
  8
0
100
AcDbLine
 62
7
  6
CONTINUOUS
 10
-92.3563722803
 20
36.7136096463
 11
-91.0900437383
 21
35.4138638463
  0
LWPOLYLINE
  5
26C
100
AcDbEntity
  8
0
100
AcDbPolyline
 62
7
  6
CONTINUOUS
 90
3
 70
0
 10
-110.128251158
 20
-12.6985147186
 10
-110.1303605733
 20
-12.6951777313
 10
-110.1637595278
 20
-12.6219866208
  0
LINE
  5
26D
100
AcDbEntity
  8
0
100
AcDbLine
 62
7
  6
CONTINUOUS
 10
-157.7682982075
 20
31.0529033702
 11
-157.7814113262
 21
31.07398069
  0
LWPOLYLINE
  5
26E
100
AcDbEntity
  8
0
100
AcDbPolyline
 62
7
  6
CONTINUOUS
 90
4
 70
0
 10
-114.9116074267
 20
67.8700365311
 10
-116.3516935178
 20
69.6088284732
 10
-117.429727898
 20
70.6845756351
 10
-117.758640548
 20
70.9294134996
  0
LINE
  5
26F
100
AcDbEntity
  8
0
100
AcDbLine
 62
7
  6
CONTINUOUS
 10
-114.5277627854
 20
67.3838609011
 11
-114.9116074267
 21
67.8700365311
  0
LINE
  5
270
100
AcDbEntity
  8
0
100
AcDbLine
 62
7
  6
CONTINUOUS
 10
-107.2956854875
 20
66.5267243835
 11
-106.9096224797
 21
65.9853493887
  0
LWPOLYLINE
  5
271
100
AcDbEntity
  8
0
100
AcDbPolyline
 62
7
  6
CONTINUOUS
 90
7
 70
0
 10
-139.3398803499
 20
76.0596815823
 10
-139.3900646258
 20
76.132995047
 10
-139.5694629916
 20
76.3008424376
 10
-139.8061713837
 20
76.4087252981
 10
-140.0905544171
 20
76.4385414104
 10
-140.3970788445
 20
76.376142457
 10
-140.5916956901
 20
76.2870779316
  0
LINE
  5
272
100
AcDbEntity
  8
0
100
AcDbLine
 62
7
  6
CONTINUOUS
 10
-139.3400292783
 20
76.0598541386
 11
-139.0052952171
 21
75.4526278646
  0
LINE
  5
273
100
AcDbEntity
  8
0
100
AcDbLine
 62
7
  6
CONTINUOUS
 10
-110.128526913
 20
-12.6986437646
 11
-110.168659729
 21
-12.624294935
  0
LINE
  5
274
100
AcDbEntity
  8
0
100
AcDbLine
 62
7
  6
CONTINUOUS
 10
-114.210283806
 20
5.560136836
 11
-114.1902416269
 21
5.5222548852
  0
LINE
  5
275
100
AcDbEntity
  8
0
100
AcDbLine
 62
7
  6
CONTINUOUS
 10
-102.7847573128
 20
67.0981271523
 11
-103.1708203207
 21
67.6395021472
  0
LINE
  5
276
100
AcDbEntity
  8
0
100
AcDbLine
 62
7
  6
CONTINUOUS
 10
-106.9657793648
 20
63.4322145622
 11
-107.4398956765
 21
64.1452415844
  0
LINE
  5
277
100
AcDbEntity
  8
0
100
AcDbLine
 62
7
  6
CONTINUOUS
 10
-104.1293880199
 20
19.993050315
 11
-104.1676844994
 21
20.0856976217
  0
LWPOLYLINE
  5
278
100
AcDbEntity
  8
0
100
AcDbPolyline
 62
7
  6
CONTINUOUS
 90
6
 70
0
 10
-110.2451147051
 20
-12.4466488906
 10
-110.0357104436
 20
-13.0039946139
 10
-107.8596005847
 20
-16.9181546032
 10
-104.9851682752
 20
-20.7055341356
 10
-101.3970709763
 20
-24.3264677985
 10
-99.987073442
 20
-25.5130693015
  0
LINE
  5
279
100
AcDbEntity
  8
0
100
AcDbLine
 62
7
  6
CONTINUOUS
 10
-162.2311717358
 20
41.1508457608
 11
-162.2311920273
 21
41.1509257621
  0
LWPOLYLINE
  5
27A
100
AcDbEntity
  8
0
100
AcDbPolyline
 62
7
  6
CONTINUOUS
 90
6
 70
0
 10
-148.9138761325
 20
23.8068555011
 10
-148.9063174938
 20
23.6899906038
 10
-148.8333232109
 20
23.4356789102
 10
-148.684407346
 20
23.2117915639
 10
-148.4672865532
 20
23.0395207493
 10
-148.2668699296
 20
22.9553328664
  0
LINE
  5
27B
100
AcDbEntity
  8
0
100
AcDbLine
 62
7
  6
CONTINUOUS
 10
-139.3126380955
 20
75.962743661
 11
-139.3397313145
 21
76.0593613712
  0
LINE
  5
27C
100
AcDbEntity
  8
0
100
AcDbLine
 62
7
  6
CONTINUOUS
 10
-139.0052952171
 20
75.4526278646
 11
-139.0163124259
 21
75.5225632362
  0
LWPOLYLINE
  5
27D
100
AcDbEntity
  8
0
100
AcDbPolyline
 62
7
  6
CONTINUOUS
 90
7
 70
0
 10
-127.3265118001
 20
76.4390105049
 10
-127.3446521696
 20
76.6191333792
 10
-127.4302877159
 20
76.8567705949
 10
-127.5830562262
 20
77.0621576563
 10
-127.7963244974
 20
77.2189193434
 10
-128.0587392008
 20
77.3109789583
 10
-128.2179889628
 20
77.3289220882
  0
LINE
  5
27E
100
AcDbEntity
  8
0
100
AcDbLine
 62
7
  6
CONTINUOUS
 10
-127.4129937518
 20
75.4872033039
 11
-127.413042156
 21
75.5102475372
  0
LINE
  5
27F
100
AcDbEntity
  8
0
100
AcDbLine
 62
7
  6
CONTINUOUS
 10
-148.9138431035
 20
23.8068179824
 11
-148.9138637202
 21
23.9276286594
  0
LINE
  5
280
100
AcDbEntity
  8
0
100
AcDbLine
 62
7
  6
CONTINUOUS
 10
-148.5711931258
 20
23.7485550151
 11
-148.5711713886
 21
23.6202412086
  0
LINE
  5
281
100
AcDbEntity
  8
0
100
AcDbLine
 62
7
  6
CONTINUOUS
 10
-127.3270387366
 20
75.7442717787
 11
-127.3271547384
 21
76.4290251962
  0
LINE
  5
282
100
AcDbEntity
  8
0
100
AcDbLine
 62
7
  6
CONTINUOUS
 10
-160.1815051613
 20
55.4350350961
 11
-160.1814852656
 21
55.4351226811
  0
LINE
  5
283
100
AcDbEntity
  8
0
100
AcDbLine
 62
7
  6
CONTINUOUS
 10
-101.9801425609
 20
51.4133535417
 11
-102.3732090587
 21
53.044462899
  0
LINE
  5
284
100
AcDbEntity
  8
0
100
AcDbLine
 62
7
  6
CONTINUOUS
 10
-100.5551776174
 20
51.1898557963
 11
-100.4126836208
 21
50.5130805973
  0
LINE
  5
285
100
AcDbEntity
  8
0
100
AcDbLine
 62
7
  6
CONTINUOUS
 10
-96.287818454
 20
51.625858361
 11
-96.4303124505
 21
52.3026335599
  0
LWPOLYLINE
  5
286
100
AcDbEntity
  8
0
100
AcDbPolyline
 62
7
  6
CONTINUOUS
 90
3
 70
0
 10
-127.1889588515
 20
73.7573689985
 10
-127.375370658
 20
74.8489127078
 10
-127.4129807832
 20
75.4865645273
  0
LINE
  5
287
100
AcDbEntity
  8
0
100
AcDbLine
 62
7
  6
CONTINUOUS
 10
-108.3404016063
 20
55.0663801006
 11
-108.9912017009
 21
67.5005472599
  0
LINE
  5
288
100
AcDbEntity
  8
0
100
AcDbLine
 62
7
  6
CONTINUOUS
 10
-107.4398956765
 20
64.1452415844
 11
-106.9220742647
 21
54.251761166
  0
LWPOLYLINE
  5
289
100
AcDbEntity
  8
0
100
AcDbPolyline
 62
7
  6
CONTINUOUS
 90
6
 70
0
 10
-114.2102823863
 20
5.5601532821
 10
-114.2628497823
 20
1.2181537537
 10
-113.6043683983
 20
-3.5026632565
 10
-112.1920307754
 20
-8.2506301992
 10
-109.997264825
 20
-12.9808181573
 10
-106.9784114094
 20
-17.6376142012
  0
LINE
  5
28A
100
AcDbEntity
  8
0
100
AcDbLine
 62
7
  6
CONTINUOUS
 10
-127.3271547384
 20
76.4290251962
 11
-127.3265443267
 21
76.4387593038
  0
LINE
  5
28B
100
AcDbEntity
  8
0
100
AcDbLine
 62
7
  6
CONTINUOUS
 10
-127.3270387366
 20
75.7442717787
 11
-127.3264271735
 21
75.7472096905
  0
LWPOLYLINE
  5
28C
100
AcDbEntity
  8
0
100
AcDbPolyline
 62
7
  6
CONTINUOUS
 90
6
 70
0
 10
-158.0523673949
 20
30.4278628145
 10
-158.1072934264
 20
30.2770170738
 10
-158.1455264612
 20
29.9601018752
 10
-158.0845574093
 20
29.6392334236
 10
-157.9251903545
 20
29.3518862263
 10
-157.7926938496
 20
29.214405012
  0
LINE
  5
28D
100
AcDbEntity
  8
0
100
AcDbLine
 62
7
  6
CONTINUOUS
 10
-158.052332712
 20
30.4278656483
 11
-157.7497762371
 21
31.0936622569
  0
LINE
  5
28E
100
AcDbEntity
  8
0
100
AcDbLine
 62
7
  6
CONTINUOUS
 10
-157.4033521875
 20
30.904979492
 11
-157.7105244515
 21
30.2290255179
  0
LINE
  5
28F
100
AcDbEntity
  8
0
100
AcDbLine
 62
7
  6
CONTINUOUS
 10
-152.1511438114
 20
68.2275548135
 11
-152.1654935628
 21
68.2063352636
  0
LINE
  5
290
100
AcDbEntity
  8
0
100
AcDbLine
 62
7
  6
CONTINUOUS
 10
-152.1511438114
 20
68.2275548135
 11
-152.1661491139
 21
68.206893223
  0
LWPOLYLINE
  5
291
100
AcDbEntity
  8
0
100
AcDbPolyline
 62
7
  6
CONTINUOUS
 90
6
 70
0
 10
-161.8987702369
 20
42.3368881954
 10
-161.9776348945
 20
42.2563202212
 10
-162.1346704785
 20
42.021963996
 10
-162.2358197576
 20
41.7395134163
 10
-162.2680365008
 20
41.4308722175
 10
-162.2311866524
 20
41.150814183
  0
LINE
  5
292
100
AcDbEntity
  8
0
100
AcDbLine
 62
7
  6
CONTINUOUS
 10
-161.8987587432
 20
42.336856229
 11
-161.3703335525
 21
42.8194308505
  0
LINE
  5
293
100
AcDbEntity
  8
0
100
AcDbLine
 62
7
  6
CONTINUOUS
 10
-161.0226649954
 20
42.6278681368
 11
-161.5547416387
 21
42.1419588932
  0
LINE
  5
294
100
AcDbEntity
  8
0
100
AcDbLine
 62
7
  6
CONTINUOUS
 10
-140.5916265887
 20
76.287093278
 11
-140.5917206148
 21
76.2870401622
  0
LWPOLYLINE
  5
295
100
AcDbEntity
  8
0
100
AcDbPolyline
 62
7
  6
CONTINUOUS
 90
6
 70
0
 10
-159.375286968
 20
56.3822190353
 10
-159.582608434
 20
56.2964195558
 10
-159.7987100801
 20
56.1331683611
 10
-159.9852880996
 20
55.9035556075
 10
-160.1255021857
 20
55.6221926457
 10
-160.1815181369
 20
55.4350651659
  0
LINE
  5
296
100
AcDbEntity
  8
0
100
AcDbLine
 62
7
  6
CONTINUOUS
 10
-95.0113221645
 20
36.0011304649
 11
-95.0113013881
 21
35.8896718887
  0
LINE
  5
297
100
AcDbEntity
  8
0
100
AcDbLine
 62
7
  6
CONTINUOUS
 10
-95.0113221645
 20
36.0011304649
 11
-95.0078813094
 21
36.0869753676
  0
LWPOLYLINE
  5
298
100
AcDbEntity
  8
0
100
AcDbPolyline
 62
7
  6
CONTINUOUS
 90
4
 70
0
 10
-114.0304525355
 20
7.2580394578
 10
-114.072924121
 20
6.9071536059
 10
-114.1638319698
 20
6.0625040599
 10
-114.2102670078
 20
5.5601936651
  0
LWPOLYLINE
  5
299
100
AcDbEntity
  8
0
100
AcDbPolyline
 62
7
  6
CONTINUOUS
 90
8
 70
0
 10
-111.4338525319
 20
21.877266584
 10
-112.8977728831
 20
17.5899630409
 10
-113.7871427607
 20
12.718546217
 10
-113.9272770874
 20
7.646416289
 10
-113.2767639092
 20
2.4077124527
 10
-111.7789221599
 20
-2.9482566184
 10
-109.3638124892
 20
-8.3625969864
 10
-106.4153683152
 20
-13.1192799234
  0
LINE
  5
29A
100
AcDbEntity
  8
0
100
AcDbLine
 62
7
  6
CONTINUOUS
 10
-91.6059371906
 20
49.2592207855
 11
-91.6314345618
 21
49.2436658542
  0
LWPOLYLINE
  5
29B
100
AcDbEntity
  8
0
100
AcDbPolyline
 62
7
  6
CONTINUOUS
 90
4
 70
0
 10
-90.1849266034
 20
50.1050517802
 10
-90.4921041067
 20
49.9338651935
 10
-91.2025239702
 20
49.5244458931
 10
-91.6435655635
 20
49.2606601279
  0
LINE
  5
29C
100
AcDbEntity
  8
0
100
AcDbLine
 62
7
  6
CONTINUOUS
 10
-73.7279957056
 20
57.2708268666
 11
-76.3525833359
 21
56.0267639765
  0
LWPOLYLINE
  5
29D
100
AcDbEntity
  8
0
100
AcDbPolyline
 62
7
  6
CONTINUOUS
 90
3
 70
0
 10
-63.0685091713
 20
57.362386764
 10
-65.1194964323
 20
56.3933017558
 10
-66.6388517947
 20
54.8126763605
  0
LWPOLYLINE
  5
29E
100
AcDbEntity
  8
0
100
AcDbPolyline
 62
7
  6
CONTINUOUS
 90
3
 70
0
 10
-81.2764176649
 20
55.2546543004
 10
-84.8279161248
 20
53.6783520218
 10
-87.9546478548
 20
51.4551351324
  0
LINE
  5
29F
100
AcDbEntity
  8
0
100
AcDbLine
 62
7
  6
CONTINUOUS
 10
-36.7908077865
 20
30.2216398591
 11
-36.7908301022
 21
30.2220773809
  0
LINE
  5
2A0
100
AcDbEntity
  8
0
100
AcDbLine
 62
7
  6
CONTINUOUS
 10
-53.8363099285
 20
-29.2378603283
 11
-53.8367862162
 21
-26.4263559488
  0
LINE
  5
2A1
100
AcDbEntity
  8
0
100
AcDbLine
 62
7
  6
CONTINUOUS
 10
-48.886948016
 20
-25.0910226324
 11
-48.8864717283
 21
-27.9025270119
  0
LINE
  5
2A2
100
AcDbEntity
  8
0
100
AcDbLine
 62
7
  6
CONTINUOUS
 10
-99.5794395628
 20
-6.4696958193
 11
-99.2319461148
 21
-5.3034203301
  0
LINE
  5
2A3
100
AcDbEntity
  8
0
100
AcDbLine
 62
7
  6
CONTINUOUS
 10
-104.2987664397
 20
-9.4664941192
 11
-104.2468495176
 21
-9.3025366401
  0
LINE
  5
2A4
100
AcDbEntity
  8
0
100
AcDbLine
 62
7
  6
CONTINUOUS
 10
-81.8297960818
 20
48.374143013
 11
-81.7798305684
 21
48.5221086138
  0
LINE
  5
2A5
100
AcDbEntity
  8
0
100
AcDbLine
 62
7
  6
CONTINUOUS
 10
-81.9723709692
 20
47.9317885604
 11
-81.9341128794
 21
48.0450898484
  0
LWPOLYLINE
  5
2A6
100
AcDbEntity
  8
0
100
AcDbPolyline
 62
7
  6
CONTINUOUS
 90
4
 70
0
 10
-110.7212082832
 20
23.482720373
 10
-110.8424796504
 20
23.2194566842
 10
-111.2091235879
 20
22.3993535485
 10
-111.4338409445
 20
21.8773126875
  0
LINE
  5
2A7
100
AcDbEntity
  8
0
100
AcDbLine
 62
7
  6
CONTINUOUS
 10
-94.5092948361
 20
33.1261769901
 11
-94.4841038179
 21
33.1630400635
  0
LWPOLYLINE
  5
2A8
100
AcDbEntity
  8
0
100
AcDbPolyline
 62
7
  6
CONTINUOUS
 90
8
 70
0
 10
-103.5178012999
 20
37.2215328466
 10
-106.1527890284
 20
33.5910206278
 10
-108.3817239094
 20
29.2657352149
 10
-109.926373624
 20
24.5594629298
 10
-110.7369305551
 20
19.4948077222
 10
-110.7454439135
 20
14.1026337821
 10
-109.8681093152
 20
8.4179449549
 10
-108.220957937
 20
3.0404360067
  0
LINE
  5
2A9
100
AcDbEntity
  8
0
100
AcDbLine
 62
7
  6
CONTINUOUS
 10
-94.5203814613
 20
33.1362017244
 11
-94.4936339979
 21
33.1716807947
  0
LINE
  5
2AA
100
AcDbEntity
  8
0
100
AcDbLine
 62
7
  6
CONTINUOUS
 10
-103.517838111
 20
37.2214884813
 11
-103.5178012999
 21
37.2215328466
  0
LWPOLYLINE
  5
2AB
100
AcDbEntity
  8
0
100
AcDbPolyline
 62
7
  6
CONTINUOUS
 90
4
 70
0
 10
-102.3661470298
 20
38.5400872113
 10
-102.5670779097
 20
38.316553388
 10
-103.152380493
 20
37.649888108
 10
-103.5178209963
 20
37.2215176838
  0
LWPOLYLINE
  5
2AC
100
AcDbEntity
  8
0
100
AcDbPolyline
 62
7
  6
CONTINUOUS
 90
5
 70
0
 10
-87.9546478548
 20
51.4551351324
 10
-90.6080990924
 20
48.578228884
 10
-92.7277736664
 20
45.0285842702
 10
-94.2358508367
 20
40.7755038181
 10
-95.0076400885
 20
36.0870140061
  0
LWPOLYLINE
  5
2AD
100
AcDbEntity
  8
0
100
AcDbPolyline
 62
7
  6
CONTINUOUS
 90
4
 70
0
 10
-76.3525833359
 20
56.0267639765
 10
-78.6396900281
 20
54.0792599435
 10
-80.5479580131
 20
51.3691657199
 10
-81.7802330113
 20
48.5209155087
  0
LINE
  5
2AE
100
AcDbEntity
  8
0
100
AcDbLine
 62
7
  6
CONTINUOUS
 10
-52.3669202946
 20
53.9852120016
 11
-52.2745187057
 21
54.0527969129
  0
LWPOLYLINE
  5
2AF
100
AcDbEntity
  8
0
100
AcDbPolyline
 62
7
  6
CONTINUOUS
 90
8
 70
0
 10
-91.6059371906
 20
49.2592207855
 10
-95.04904598
 20
46.8163809798
 10
-98.2118463622
 20
43.646096402
 10
-100.804666822
 20
39.939327628
 10
-102.7754466232
 20
35.7029642451
 10
-104.0537281121
 20
30.9435757899
 10
-104.5522723328
 20
25.6655846667
 10
-104.2240503531
 20
20.3047089663
  0
LWPOLYLINE
  5
2B0
100
AcDbEntity
  8
0
100
AcDbPolyline
 62
7
  6
CONTINUOUS
 90
5
 70
0
 10
-36.7912846206
 20
30.2853427077
 10
-36.7900222631
 20
30.3021345152
 10
-36.7968010247
 20
30.2829836014
 10
-36.8595717239
 20
30.1686354357
 10
-37.0059672576
 20
30.0284447194
  0
LINE
  5
2B1
100
AcDbEntity
  8
0
100
AcDbLine
 62
7
  6
CONTINUOUS
 10
-66.7381413709
 20
54.6752475735
 11
-66.9976560057
 21
54.2861001125
  0
LINE
  5
2B2
100
AcDbEntity
  8
0
100
AcDbLine
 62
7
  6
CONTINUOUS
 10
-66.7381370115
 20
54.6752536085
 11
-66.631500444
 21
54.8228775364
  0
LINE
  5
2B3
100
AcDbEntity
  8
0
100
AcDbLine
 62
7
  6
CONTINUOUS
 10
-66.9976557213
 20
54.286097229
 11
-66.9269432127
 21
54.3839921346
  0
LINE
  5
2B4
100
AcDbEntity
  8
0
100
AcDbLine
 62
7
  6
CONTINUOUS
 10
-99.2348272003
 20
11.703493082
 11
-99.5824415712
 21
11.2510195805
  0
LINE
  5
2B5
100
AcDbEntity
  8
0
100
AcDbLine
 62
7
  6
CONTINUOUS
 10
-103.63039138
 20
11.3676384559
 11
-103.3648886754
 21
11.6908143962
  0
LINE
  5
2B6
100
AcDbEntity
  8
0
100
AcDbLine
 62
7
  6
CONTINUOUS
 10
-37.0059672576
 20
30.0284447194
 11
-37.0509729158
 21
30.0003095479
  0
LINE
  5
2B7
100
AcDbEntity
  8
0
100
AcDbLine
 62
7
  6
CONTINUOUS
 10
-41.3908355394
 20
27.5336019681
 11
-37.0511782301
 21
30.0002017047
  0
LINE
  5
2B8
100
AcDbEntity
  8
0
100
AcDbLine
 62
7
  6
CONTINUOUS
 10
-36.7479493276
 20
29.9741217445
 11
-41.1092692436
 21
27.4952091487
  0
LINE
  5
2B9
100
AcDbEntity
  8
0
100
AcDbLine
 62
7
  6
CONTINUOUS
 10
-99.5794395628
 20
-6.4696958194
 11
-103.6269799604
 21
-8.7702606178
  0
LINE
  5
2BA
100
AcDbEntity
  8
0
100
AcDbLine
 62
7
  6
CONTINUOUS
 10
-38.9347592784
 20
27.6121343186
 11
-34.8872188808
 21
29.912699117
  0
LINE
  5
2BB
100
AcDbEntity
  8
0
100
AcDbLine
 62
7
  6
CONTINUOUS
 10
-71.5165431199
 20
-33.1436587298
 11
-71.5872557449
 21
-33.2415537917
  0
LINE
  5
2BC
100
AcDbEntity
  8
0
100
AcDbLine
 62
7
  6
CONTINUOUS
 10
-86.1472785465
 20
-32.8427735024
 11
-86.239680286
 21
-32.9103585201
  0
LINE
  5
2BD
100
AcDbEntity
  8
0
100
AcDbLine
 62
7
  6
CONTINUOUS
 10
-58.0287637004
 20
-28.23529257
 11
-58.0664121332
 21
-28.2577217517
  0
LINE
  5
2BE
100
AcDbEntity
  8
0
100
AcDbLine
 62
7
  6
CONTINUOUS
 10
-58.0405754079
 20
-28.1936043995
 11
-58.0787180213
 21
-28.2140881971
  0
ARC
  5
2BF
100
AcDbEntity
  8
0
100
AcDbCircle
 62
7
  6
CONTINUOUS
 10
-613.3171930568
 20
-317.085131551
 40
629.6702050367
100
AcDbArc
 50
37.4689527949
 51
37.6253735538
  0
ARC
  5
2C0
100
AcDbEntity
  8
0
100
AcDbCircle
 62
7
  6
CONTINUOUS
 10
-253.1644421841
 20
-39.6591384313
 40
175.0548621967
100
AcDbArc
 50
37.6728471988
 51
37.8878944633
  0
ARC
  5
2C1
100
AcDbEntity
  8
0
100
AcDbCircle
 62
7
  6
CONTINUOUS
 10
-154.1002141761
 20
-63.328164335
 40
114.4874836892
100
AcDbArc
 50
62.6673369381
 51
63.0308582474
  0
ARC
  5
2C2
100
AcDbEntity
  8
0
100
AcDbCircle
 62
7
  6
CONTINUOUS
 10
-167.6226065864
 20
-0.8803429433
 40
86.912850545
100
AcDbArc
 50
47.3559818663
 51
53.2702425757
  0
ARC
  5
2C3
100
AcDbEntity
  8
0
100
AcDbCircle
 62
7
  6
CONTINUOUS
 10
-157.512126941
 20
29.4479134698
 40
0.3568247074
100
AcDbArc
 50
220.3276603391
 51
225.8376064813
  0
ARC
  5
2C4
100
AcDbEntity
  8
0
100
AcDbCircle
 62
7
  6
CONTINUOUS
 10
-148.1699089512
 20
23.2903973362
 40
0.3487999891
100
AcDbArc
 50
247.9813965518
 51
253.8332415784
  0
ARC
  5
2C5
100
AcDbEntity
  8
0
100
AcDbCircle
 62
7
  6
CONTINUOUS
 10
-135.0834838198
 20
45.3473718111
 40
33.4315246609
100
AcDbArc
 50
28.7360619004
 51
32.7484541187
  0
ARC
  5
2C6
100
AcDbEntity
  8
0
100
AcDbCircle
 62
7
  6
CONTINUOUS
 10
-135.2949960779
 20
48.4974429987
 40
28.4073634152
100
AcDbArc
 50
69.6131933395
 51
70.3087136137
  0
ARC
  5
2C7
100
AcDbEntity
  8
0
100
AcDbCircle
 62
7
  6
CONTINUOUS
 10
-133.8734771265
 20
44.0342990022
 40
27.6281795995
100
AcDbArc
 50
182.5310129469
 51
182.7091854598
  0
ARC
  5
2C8
100
AcDbEntity
  8
0
100
AcDbCircle
 62
7
  6
CONTINUOUS
 10
-134.6816432606
 20
44.9273922657
 40
27.5204938374
100
AcDbArc
 50
179.9671769664
 51
185.4455868972
  0
ARC
  5
2C9
100
AcDbEntity
  8
0
100
AcDbCircle
 62
7
  6
CONTINUOUS
 10
-135.7272398137
 20
46.8601908896
 40
26.9560360522
100
AcDbArc
 50
210.8171724218
 51
211.0722387827
  0
ARC
  5
2CA
100
AcDbEntity
  8
0
100
AcDbCircle
 62
7
  6
CONTINUOUS
 10
-135.5071904178
 20
44.8558862086
 40
26.6918875697
100
AcDbArc
 50
185.4609593182
 51
185.7710878402
  0
ARC
  5
2CB
100
AcDbEntity
  8
0
100
AcDbCircle
 62
7
  6
CONTINUOUS
 10
-136.0373322216
 20
46.6653369919
 40
26.5894759011
100
AcDbArc
 50
211.8378621534
 51
212.5088696294
  0
ARC
  5
2CC
100
AcDbEntity
  8
0
100
AcDbCircle
 62
7
  6
CONTINUOUS
 10
-136.2183895172
 20
46.5495404089
 40
26.3745562141
100
AcDbArc
 50
212.5081167598
 51
213.8566085214
  0
ARC
  5
2CD
100
AcDbEntity
  8
0
100
AcDbCircle
 62
7
  6
CONTINUOUS
 10
-142.6009793769
 20
47.0249060176
 40
23.4094202414
100
AcDbArc
 50
229.5370529657
 51
240.2433851947
  0
ARC
  5
2CE
100
AcDbEntity
  8
0
100
AcDbCircle
 62
7
  6
CONTINUOUS
 10
-142.7022840501
 20
46.8462852464
 40
23.2040792443
100
AcDbArc
 50
229.537764103
 51
240.2416455695
  0
ARC
  5
2CF
100
AcDbEntity
  8
0
100
AcDbCircle
 62
7
  6
CONTINUOUS
 10
-141.6813890411
 20
42.0808483707
 40
19.5176777116
100
AcDbArc
 50
204.5939061417
 51
210.3918028036
  0
ARC
  5
2D0
100
AcDbEntity
  8
0
100
AcDbCircle
 62
7
  6
CONTINUOUS
 10
-142.3924456525
 20
42.5082044596
 40
19.3335518082
100
AcDbArc
 50
216.6398788951
 51
216.8652832425
  0
ARC
  5
2D1
100
AcDbEntity
  8
0
100
AcDbCircle
 62
7
  6
CONTINUOUS
 10
-142.5196823212
 20
41.5864621083
 40
18.5444626325
100
AcDbArc
 50
210.3845438675
 51
214.5665439337
  0
ARC
  5
2D2
100
AcDbEntity
  8
0
100
AcDbCircle
 62
7
  6
CONTINUOUS
 10
-139.8920094753
 20
75.6396775456
 40
0.6633872259
100
AcDbArc
 50
29.1441781391
 51
47.9402659537
  0
ARC
  5
2D3
100
AcDbEntity
  8
0
100
AcDbCircle
 62
7
  6
CONTINUOUS
 10
-124.8191342364
 20
42.4830714564
 40
36.9008079604
100
AcDbArc
 50
149.1081799462
 51
152.0170869695
  0
ARC
  5
2D4
100
AcDbEntity
  8
0
100
AcDbCircle
 62
7
  6
CONTINUOUS
 10
-125.0904600824
 20
42.6204534493
 40
36.5967432095
100
AcDbArc
 50
152.007712186
 51
157.5058253451
  0
ARC
  5
2D5
100
AcDbEntity
  8
0
100
AcDbCircle
 62
7
  6
CONTINUOUS
 10
-125.4440985325
 20
42.7702452332
 40
36.212701495
100
AcDbArc
 50
157.5107254752
 51
157.7148304519
  0
ARC
  5
2D6
100
AcDbEntity
  8
0
100
AcDbCircle
 62
7
  6
CONTINUOUS
 10
-126.9795679956
 20
44.3157556092
 40
34.0619506395
100
AcDbArc
 50
134.1708356848
 51
134.3916847908
  0
ARC
  5
2D7
100
AcDbEntity
  8
0
100
AcDbCircle
 62
7
  6
CONTINUOUS
 10
-128.058570832
 20
43.9325118725
 40
33.4778562691
100
AcDbArc
 50
105.7681153986
 51
107.4959240213
  0
ARC
  5
2D8
100
AcDbEntity
  8
0
100
AcDbCircle
 62
7
  6
CONTINUOUS
 10
-127.5233113714
 20
44.8857327966
 40
33.2742460673
100
AcDbArc
 50
128.8516791603
 51
134.1831506547
  0
ARC
  5
2D9
100
AcDbEntity
  8
0
100
AcDbCircle
 62
7
  6
CONTINUOUS
 10
-128.2226681566
 20
44.4759469672
 40
32.910279992
100
AcDbArc
 50
105.5239649351
 51
105.7502763666
  0
ARC
  5
2DA
100
AcDbEntity
  8
0
100
AcDbCircle
 62
7
  6
CONTINUOUS
 10
-128.6023732635
 20
46.1940553776
 40
31.5784640227
100
AcDbArc
 50
125.588244207
 51
128.8160726914
  0
ARC
  5
2DB
100
AcDbEntity
  8
0
100
AcDbCircle
 62
7
  6
CONTINUOUS
 10
-131.6583394134
 20
44.0441379193
 40
29.8436859936
100
AcDbArc
 50
173.1878867623
 51
179.9852313118
  0
ARC
  5
2DC
100
AcDbEntity
  8
0
100
AcDbCircle
 62
7
  6
CONTINUOUS
 10
-133.3770006956
 20
48.2963984676
 40
29.7099637799
100
AcDbArc
 50
211.3961793775
 51
211.8037045603
  0
ARC
  5
2DD
100
AcDbEntity
  8
0
100
AcDbCircle
 62
7
  6
CONTINUOUS
 10
-133.4102338676
 20
44.0528576614
 40
28.0917905667
100
AcDbArc
 50
180.0020950011
 51
182.5271044074
  0
ARC
  5
2DE
100
AcDbEntity
  8
0
100
AcDbCircle
 62
7
  6
CONTINUOUS
 10
-129.009612313
 20
50.6711787231
 40
26.6451252105
100
AcDbArc
 50
88.0996748282
 51
88.294085246
  0
ARC
  5
2DF
100
AcDbEntity
  8
0
100
AcDbCircle
 62
7
  6
CONTINUOUS
 10
-133.2750724308
 20
53.3258302494
 40
23.7023322468
100
AcDbArc
 50
104.9066984708
 51
105.117283587
  0
ARC
  5
2E0
100
AcDbEntity
  8
0
100
AcDbCircle
 62
7
  6
CONTINUOUS
 10
-133.6747529268
 20
52.950240388
 40
23.6690643917
100
AcDbArc
 50
72.0310339533
 51
72.4286880618
  0
ARC
  5
2E1
100
AcDbEntity
  8
0
100
AcDbCircle
 62
7
  6
CONTINUOUS
 10
-133.6850346581
 20
53.04928438
 40
23.5828961183
100
AcDbArc
 50
66.7809398471
 51
72.3322257194
  0
ARC
  5
2E2
100
AcDbEntity
  8
0
100
AcDbCircle
 62
7
  6
CONTINUOUS
 10
-133.6376052773
 20
53.0633824178
 40
23.5499808921
100
AcDbArc
 50
70.3621576357
 51
72.0320830513
  0
ARC
  5
2E3
100
AcDbEntity
  8
0
100
AcDbCircle
 62
7
  6
CONTINUOUS
 10
-133.5705813421
 20
53.2484526528
 40
23.3532677983
100
AcDbArc
 50
69.2106275629
 51
69.5183863707
  0
ARC
  5
2E4
100
AcDbEntity
  8
0
100
AcDbCircle
 62
7
  6
CONTINUOUS
 10
-133.5449722714
 20
53.3148262152
 40
23.2821262016
100
AcDbArc
 50
59.995478008
 51
69.2115713274
  0
ARC
  5
2E5
100
AcDbEntity
  8
0
100
AcDbCircle
 62
7
  6
CONTINUOUS
 10
-133.4836437112
 20
53.4570434962
 40
23.1272470636
100
AcDbArc
 50
63.2567015857
 51
66.6542819143
  0
ARC
  5
2E6
100
AcDbEntity
  8
0
100
AcDbCircle
 62
7
  6
CONTINUOUS
 10
-133.4353738525
 20
53.5549910744
 40
23.0180556567
100
AcDbArc
 50
59.9899975649
 51
63.2542888033
  0
ARC
  5
2E7
100
AcDbEntity
  8
0
100
AcDbCircle
 62
7
  6
CONTINUOUS
 10
-132.4198694981
 20
53.8078226653
 40
23.0100651887
100
AcDbArc
 50
102.1560465844
 51
107.0861752453
  0
ARC
  5
2E8
100
AcDbEntity
  8
0
100
AcDbCircle
 62
7
  6
CONTINUOUS
 10
-129.4249398214
 20
33.3372326166
 40
15.9213492853
100
AcDbArc
 50
253.2516802943
 51
253.5881894587
  0
ARC
  5
2E9
100
AcDbEntity
  8
0
100
AcDbCircle
 62
7
  6
CONTINUOUS
 10
-129.5996278526
 20
32.7701060654
 40
15.3279392296
100
AcDbArc
 50
247.9069334812
 51
253.2624971252
  0
ARC
  5
2EA
100
AcDbEntity
  8
0
100
AcDbCircle
 62
7
  6
CONTINUOUS
 10
-129.6559945978
 20
32.6286317805
 40
15.1756526288
100
AcDbArc
 50
246.4226641093
 51
247.9032250772
  0
ARC
  5
2EB
100
AcDbEntity
  8
0
100
AcDbCircle
 62
7
  6
CONTINUOUS
 10
-129.6748234034
 20
32.5851633896
 40
15.1282816669
100
AcDbArc
 50
245.7916779302
 51
246.4221726113
  0
ARC
  5
2EC
100
AcDbEntity
  8
0
100
AcDbCircle
 62
7
  6
CONTINUOUS
 10
-129.0139988283
 20
32.6072832321
 40
14.4466845864
100
AcDbArc
 50
240.1282591998
 51
243.3318687571
  0
ARC
  5
2ED
100
AcDbEntity
  8
0
100
AcDbCircle
 62
7
  6
CONTINUOUS
 10
-132.7404957131
 20
55.2397043108
 40
21.5427770485
100
AcDbArc
 50
97.5700183106
 51
102.1243473489
  0
ARC
  5
2EE
100
AcDbEntity
  8
0
100
AcDbCircle
 62
7
  6
CONTINUOUS
 10
-133.4019299325
 20
58.9575856519
 40
17.9899253642
100
AcDbArc
 50
67.4535316302
 51
70.1363626529
  0
ARC
  5
2EF
100
AcDbEntity
  8
0
100
AcDbCircle
 62
7
  6
CONTINUOUS
 10
-133.3855174457
 20
58.9980364732
 40
17.9462731662
100
AcDbArc
 50
67.047332184
 51
67.4524075003
  0
ARC
  5
2F0
100
AcDbEntity
  8
0
100
AcDbCircle
 62
7
  6
CONTINUOUS
 10
-132.6024036216
 20
60.3119635456
 40
16.41870831
100
AcDbArc
 50
68.5219906162
 51
71.1163323404
  0
ARC
  5
2F1
100
AcDbEntity
  8
0
100
AcDbCircle
 62
7
  6
CONTINUOUS
 10
-132.5696287471
 20
60.3970230158
 40
16.3275552113
100
AcDbArc
 50
68.2200628668
 51
68.5197268803
  0
ARC
  5
2F2
100
AcDbEntity
  8
0
100
AcDbCircle
 62
7
  6
CONTINUOUS
 10
-132.543691036
 20
60.4610583285
 40
16.2584670128
100
AcDbArc
 50
66.0800232408
 51
68.2212128861
  0
ARC
  5
2F3
100
AcDbEntity
  8
0
100
AcDbCircle
 62
7
  6
CONTINUOUS
 10
-125.6052720695
 20
75.2470233562
 40
1.8069480102
100
AcDbArc
 50
174.6045774327
 51
175.9660388469
  0
ARC
  5
2F4
100
AcDbEntity
  8
0
100
AcDbCircle
 62
7
  6
CONTINUOUS
 10
-125.8462753975
 20
75.270687091
 40
1.5647876378
100
AcDbArc
 50
171.8395296505
 51
174.6374452912
  0
ARC
  5
2F5
100
AcDbEntity
  8
0
100
AcDbCircle
 62
7
  6
CONTINUOUS
 10
-128.1728536375
 20
76.4391140752
 40
0.845105095
100
AcDbArc
 50
0.3935999231
 51
18.2701434188
  0
ARC
  5
2F6
100
AcDbEntity
  8
0
100
AcDbCircle
 62
7
  6
CONTINUOUS
 10
-115.694076324
 20
78.1465605999
 40
59.6479266269
100
AcDbArc
 50
238.1922109337
 51
242.7045350604
  0
ARC
  5
2F7
100
AcDbEntity
  8
0
100
AcDbCircle
 62
7
  6
CONTINUOUS
 10
-109.5995021811
 20
37.3193354975
 40
52.592401099
100
AcDbArc
 50
144.034304207
 51
154.8278441934
  0
ARC
  5
2F8
100
AcDbEntity
  8
0
100
AcDbCircle
 62
7
  6
CONTINUOUS
 10
-109.8311668368
 20
37.4512842583
 40
52.4471416826
100
AcDbArc
 50
144.0067736625
 51
154.8462940348
  0
ARC
  5
2F9
100
AcDbEntity
  8
0
100
AcDbCircle
 62
7
  6
CONTINUOUS
 10
-109.9501268732
 20
37.4861797135
 40
52.204108474
100
AcDbArc
 50
154.8298912336
 51
155.5670611259
  0
ARC
  5
2FA
100
AcDbEntity
  8
0
100
AcDbCircle
 62
7
  6
CONTINUOUS
 10
-110.2817787813
 20
37.6252791554
 40
51.8438590818
100
AcDbArc
 50
156.0540986953
 51
157.3426792947
  0
ARC
  5
2FB
100
AcDbEntity
  8
0
100
AcDbCircle
 62
7
  6
CONTINUOUS
 10
-116.0049979525
 20
34.774515326
 40
48.2214009857
100
AcDbArc
 50
132.9270382499
 51
134.2806812665
  0
ARC
  5
2FC
100
AcDbEntity
  8
0
100
AcDbCircle
 62
7
  6
CONTINUOUS
 10
-116.4521828386
 20
35.2673904874
 40
47.5565887879
100
AcDbArc
 50
131.9739087851
 51
132.4090369624
  0
ARC
  5
2FD
100
AcDbEntity
  8
0
100
AcDbCircle
 62
7
  6
CONTINUOUS
 10
-117.0215618802
 20
73.5501743882
 40
47.0889641223
100
AcDbArc
 50
226.4990888411
 51
232.1107969488
  0
ARC
  5
2FE
100
AcDbEntity
  8
0
100
AcDbCircle
 62
7
  6
CONTINUOUS
 10
-120.2493697664
 20
45.3884795086
 40
40.9962950901
100
AcDbArc
 50
179.6895002696
 51
180.0149207626
  0
ARC
  5
2FF
100
AcDbEntity
  8
0
100
AcDbCircle
 62
7
  6
CONTINUOUS
 10
-120.5631943791
 20
41.0068784627
 40
40.4823518865
100
AcDbArc
 50
119.4240076908
 51
119.5770655462
  0
ARC
  5
300
100
AcDbEntity
  8
0
100
AcDbCircle
 62
7
  6
CONTINUOUS
 10
-121.0986591859
 20
45.374474894
 40
40.1463057395
100
AcDbArc
 50
180.5888706768
 51
182.1180416647
  0
ARC
  5
301
100
AcDbEntity
  8
0
100
AcDbCircle
 62
7
  6
CONTINUOUS
 10
-120.0241815351
 20
67.2710277423
 40
40.1265731019
100
AcDbArc
 50
204.4858310258
 51
205.3025358362
  0
ARC
  5
302
100
AcDbEntity
  8
0
100
AcDbCircle
 62
7
  6
CONTINUOUS
 10
-114.0826669179
 20
75.8627242441
 40
39.3700075093
100
AcDbArc
 50
216.3387199017
 51
222.6232971961
  0
ARC
  5
303
100
AcDbEntity
  8
0
100
AcDbCircle
 62
7
  6
CONTINUOUS
 10
-118.9803487521
 20
36.2920607456
 40
26.765764975
100
AcDbArc
 50
179.6188946488
 51
179.9666645732
  0
ARC
  5
304
100
AcDbEntity
  8
0
100
AcDbCircle
 62
7
  6
CONTINUOUS
 10
-118.6327486728
 20
36.2544869293
 40
25.8159232636
100
AcDbArc
 50
179.6627763127
 51
180.009564699
  0
ARC
  5
305
100
AcDbEntity
  8
0
100
AcDbCircle
 62
7
  6
CONTINUOUS
 10
-118.4044369391
 20
51.0795334263
 40
14.450981674
100
AcDbArc
 50
56.6765741554
 51
60.1297384434
  0
ARC
  5
306
100
AcDbEntity
  8
0
100
AcDbCircle
 62
7
  6
CONTINUOUS
 10
-121.767228507
 20
75.5122063587
 40
5.6456389827
100
AcDbArc
 50
177.5632723988
 51
180.0199538441
  0
ARC
  5
307
100
AcDbEntity
  8
0
100
AcDbCircle
 62
7
  6
CONTINUOUS
 10
-122.3458263328
 20
75.5337452385
 40
5.0666495229
100
AcDbArc
 50
176.3164090994
 51
177.5284388656
  0
ARC
  5
308
100
AcDbEntity
  8
0
100
AcDbCircle
 62
7
  6
CONTINUOUS
 10
-118.6876755491
 20
124.9678504787
 40
105.6615295245
100
AcDbArc
 50
253.5712417514
 51
253.9348774884
  0
ARC
  5
309
100
AcDbEntity
  8
0
100
AcDbCircle
 62
7
  6
CONTINUOUS
 10
-107.0063061772
 20
109.6698315518
 40
95.4605516876
100
AcDbArc
 50
240.3864339085
 51
241.5476689272
  0
ARC
  5
30A
100
AcDbEntity
  8
0
100
AcDbCircle
 62
7
  6
CONTINUOUS
 10
-107.3584565324
 20
109.0037108161
 40
94.707115373
100
AcDbArc
 50
241.5429847321
 51
250.1578025073
  0
ARC
  5
30B
100
AcDbEntity
  8
0
100
AcDbCircle
 62
7
  6
CONTINUOUS
 10
-107.4594604841
 20
108.7695606942
 40
94.4525851611
100
AcDbArc
 50
250.2692619708
 51
252.5231684192
  0
ARC
  5
30C
100
AcDbEntity
  8
0
100
AcDbCircle
 62
7
  6
CONTINUOUS
 10
-105.8499227967
 20
107.7725808541
 40
93.9849361125
100
AcDbArc
 50
251.3372983316
 51
251.5599535858
  0
ARC
  5
30D
100
AcDbEntity
  8
0
100
AcDbCircle
 62
7
  6
CONTINUOUS
 10
-107.7223778664
 20
107.9201510002
 40
93.5627243134
100
AcDbArc
 50
252.569349214
 51
252.8092179448
  0
ARC
  5
30E
100
AcDbEntity
  8
0
100
AcDbCircle
 62
7
  6
CONTINUOUS
 10
-107.8667464464
 20
107.4677626759
 40
93.0878620816
100
AcDbArc
 50
250.2358639231
 51
252.5229799663
  0
ARC
  5
30F
100
AcDbEntity
  8
0
100
AcDbCircle
 62
7
  6
CONTINUOUS
 10
-109.1210279218
 20
100.7443926957
 40
86.3201462628
100
AcDbArc
 50
251.0318244629
 51
252.0304162661
  0
ARC
  5
310
100
AcDbEntity
  8
0
100
AcDbCircle
 62
7
  6
CONTINUOUS
 10
-109.216070919
 20
100.4533227003
 40
86.0139526276
100
AcDbArc
 50
252.030821424
 51
252.2926088837
  0
ARC
  5
311
100
AcDbEntity
  8
0
100
AcDbCircle
 62
7
  6
CONTINUOUS
 10
-109.3233530352
 20
100.1148272321
 40
85.6588638212
100
AcDbArc
 50
252.2921031547
 51
253.247140734
  0
ARC
  5
312
100
AcDbEntity
  8
0
100
AcDbCircle
 62
7
  6
CONTINUOUS
 10
-112.0589452974
 20
89.5807378392
 40
74.7628030132
100
AcDbArc
 50
248.6245676245
 51
251.3842168561
  0
ARC
  5
313
100
AcDbEntity
  8
0
100
AcDbCircle
 62
7
  6
CONTINUOUS
 10
-116.1315584312
 20
89.5936738314
 40
73.3661720831
100
AcDbArc
 50
238.8478776856
 51
240.3475945344
  0
ARC
  5
314
100
AcDbEntity
  8
0
100
AcDbCircle
 62
7
  6
CONTINUOUS
 10
-114.3993079086
 20
86.6629071665
 40
71.2822144766
100
AcDbArc
 50
252.5703731757
 51
252.8578903561
  0
ARC
  5
315
100
AcDbEntity
  8
0
100
AcDbCircle
 62
7
  6
CONTINUOUS
 10
-118.6149637906
 20
85.5064402946
 40
68.5836227937
100
AcDbArc
 50
235.1932058723
 51
238.8173737043
  0
ARC
  5
316
100
AcDbEntity
  8
0
100
AcDbCircle
 62
7
  6
CONTINUOUS
 10
-77.7215594855
 20
1.0425342765
 40
58.9356984695
100
AcDbArc
 50
64.4165573248
 51
72.1576069068
  0
ARC
  5
317
100
AcDbEntity
  8
0
100
AcDbCircle
 62
7
  6
CONTINUOUS
 10
-78.8913608722
 20
2.1608256879
 40
56.7869173814
100
AcDbArc
 50
75.0606763504
 51
76.1679447535
  0
ARC
  5
318
100
AcDbEntity
  8
0
100
AcDbCircle
 62
7
  6
CONTINUOUS
 10
-70.9589019361
 20
9.5174997832
 40
45.0966240933
100
AcDbArc
 50
220.8071685361
 51
223.9116954042
  0
ARC
  5
319
100
AcDbEntity
  8
0
100
AcDbCircle
 62
7
  6
CONTINUOUS
 10
-72.161778524
 20
8.5178637972
 40
43.971069864
100
AcDbArc
 50
229.5292470553
 51
230.7289594436
  0
ARC
  5
31A
100
AcDbEntity
  8
0
100
AcDbCircle
 62
7
  6
CONTINUOUS
 10
-71.0088372036
 20
6.2225916604
 40
43.4194300737
100
AcDbArc
 50
180.9105419622
 51
184.5114541782
  0
ARC
  5
31B
100
AcDbEntity
  8
0
100
AcDbCircle
 62
7
  6
CONTINUOUS
 10
-72.2253210239
 20
8.4170848673
 40
43.4189169738
100
AcDbArc
 50
218.5630225469
 51
220.8001819983
  0
ARC
  5
31C
100
AcDbEntity
  8
0
100
AcDbCircle
 62
7
  6
CONTINUOUS
 10
-72.9679275261
 20
7.5795011964
 40
42.7339836462
100
AcDbArc
 50
227.1732900456
 51
229.5348973045
  0
ARC
  5
31D
100
AcDbEntity
  8
0
100
AcDbCircle
 62
7
  6
CONTINUOUS
 10
-73.0470180719
 20
7.7613722788
 40
42.3676583044
100
AcDbArc
 50
216.2615567165
 51
218.5623582083
  0
ARC
  5
31E
100
AcDbEntity
  8
0
100
AcDbCircle
 62
7
  6
CONTINUOUS
 10
-73.9176252182
 20
7.1228718132
 40
41.2880103815
100
AcDbArc
 50
213.9912664745
 51
216.2616967617
  0
ARC
  5
31F
100
AcDbEntity
  8
0
100
AcDbCircle
 62
7
  6
CONTINUOUS
 10
-75.0834655854
 20
5.3468194371
 40
39.6584127449
100
AcDbArc
 50
222.2541280627
 51
227.2221559236
  0
ARC
  5
320
100
AcDbEntity
  8
0
100
AcDbCircle
 62
7
  6
CONTINUOUS
 10
-75.3596522451
 20
6.1596178809
 40
39.5538705813
100
AcDbArc
 50
208.4749254696
 51
214.0021787611
  0
ARC
  5
321
100
AcDbEntity
  8
0
100
AcDbCircle
 62
7
  6
CONTINUOUS
 10
-75.2985757726
 20
10.1016090772
 40
38.6866725872
100
AcDbArc
 50
193.1958807955
 51
194.9854466639
  0
ARC
  5
322
100
AcDbEntity
  8
0
100
AcDbCircle
 62
7
  6
CONTINUOUS
 10
-76.6565965121
 20
3.906283115
 40
37.5253842431
100
AcDbArc
 50
220.2831001644
 51
222.2412469139
  0
ARC
  5
323
100
AcDbEntity
  8
0
100
AcDbCircle
 62
7
  6
CONTINUOUS
 10
-77.0091493336
 20
9.7290436053
 40
36.9362270404
100
AcDbArc
 50
188.417238647
 51
193.2389473522
  0
ARC
  5
324
100
AcDbEntity
  8
0
100
AcDbCircle
 62
7
  6
CONTINUOUS
 10
-78.6822818428
 20
2.2342288161
 40
34.8989971164
100
AcDbArc
 50
214.8801726366
 51
220.3392402117
  0
ARC
  5
325
100
AcDbEntity
  8
0
100
AcDbCircle
 62
7
  6
CONTINUOUS
 10
-79.4379545774
 20
9.346785365
 40
34.477636269
100
AcDbArc
 50
185.8894492137
 51
188.3796638705
  0
ARC
  5
326
100
AcDbEntity
  8
0
100
AcDbCircle
 62
7
  6
CONTINUOUS
 10
-79.7722154763
 20
9.3107756654
 40
34.1414447912
100
AcDbArc
 50
181.0348139725
 51
185.8868961316
  0
ARC
  5
327
100
AcDbEntity
  8
0
100
AcDbCircle
 62
7
  6
CONTINUOUS
 10
-80.0730199516
 20
9.3030821748
 40
33.8405505068
100
AcDbArc
 50
179.4306952116
 51
181.0309880034
  0
ARC
  5
328
100
AcDbEntity
  8
0
100
AcDbCircle
 62
7
  6
CONTINUOUS
 10
-80.3222468651
 20
1.0799033181
 40
32.893538455
100
AcDbArc
 50
212.8719123739
 51
214.8642921466
  0
ARC
  5
329
100
AcDbEntity
  8
0
100
AcDbCircle
 62
7
  6
CONTINUOUS
 10
-82.3950618291
 20
-0.2132118981
 40
30.4507802342
100
AcDbArc
 50
206.4715774716
 51
212.9452517561
  0
ARC
  5
32A
100
AcDbEntity
  8
0
100
AcDbCircle
 62
7
  6
CONTINUOUS
 10
-84.2006454944
 20
-1.1199726561
 40
28.430310674
100
AcDbArc
 50
203.7374666944
 51
206.4577803509
  0
ARC
  5
32B
100
AcDbEntity
  8
0
100
AcDbCircle
 62
7
  6
CONTINUOUS
 10
-86.2609071105
 20
-0.0384793519
 40
23.9596331888
100
AcDbArc
 50
240.9223076345
 51
241.5178632989
  0
ARC
  5
32C
100
AcDbEntity
  8
0
100
AcDbCircle
 62
7
  6
CONTINUOUS
 10
-80.166456479
 20
-10.1943833014
 40
23.9480873182
100
AcDbArc
 50
240.176916308
 51
252.8053721085
  0
ARC
  5
32D
100
AcDbEntity
  8
0
100
AcDbCircle
 62
7
  6
CONTINUOUS
 10
-85.6909958285
 20
-0.1861586714
 40
23.7368649693
100
AcDbArc
 50
236.820650349
 51
240.1290943664
  0
ARC
  5
32E
100
AcDbEntity
  8
0
100
AcDbCircle
 62
7
  6
CONTINUOUS
 10
-82.5156779351
 20
0.756766479
 40
20.6359770729
100
AcDbArc
 50
233.8050696479
 51
240.1216224938
  0
ARC
  5
32F
100
AcDbEntity
  8
0
100
AcDbCircle
 62
7
  6
CONTINUOUS
 10
-72.667227105
 20
11.3378256531
 40
41.5808310642
100
AcDbArc
 50
202.8835269234
 51
205.3789417309
  0
ARC
  5
330
100
AcDbEntity
  8
0
100
AcDbCircle
 62
7
  6
CONTINUOUS
 10
-70.309887044
 20
14.2978873113
 40
40.9367489252
100
AcDbArc
 50
119.6416404604
 51
121.3469077226
  0
ARC
  5
331
100
AcDbEntity
  8
0
100
AcDbCircle
 62
7
  6
CONTINUOUS
 10
-70.6845656632
 20
14.9525919143
 40
40.1824156369
100
AcDbArc
 50
118.7756461686
 51
119.6390069454
  0
ARC
  5
332
100
AcDbEntity
  8
0
100
AcDbCircle
 62
7
  6
CONTINUOUS
 10
-102.3172911203
 20
15.7397742656
 40
36.5606071786
100
AcDbArc
 50
69.249655505
 51
70.3577960596
  0
ARC
  5
333
100
AcDbEntity
  8
0
100
AcDbCircle
 62
7
  6
CONTINUOUS
 10
-70.5661747641
 20
19.6703879666
 40
32.6131534929
100
AcDbArc
 50
10.8713834535
 51
14.0940090026
  0
ARC
  5
334
100
AcDbEntity
  8
0
100
AcDbCircle
 62
7
  6
CONTINUOUS
 10
-88.3665527235
 20
21.4205886875
 40
32.2797115696
100
AcDbArc
 50
319.1608235488
 51
321.755834238
  0
ARC
  5
335
100
AcDbEntity
  8
0
100
AcDbCircle
 62
7
  6
CONTINUOUS
 10
-79.3287912111
 20
17.245174171
 40
31.3786679434
100
AcDbArc
 50
170.7140993858
 51
171.3133159363
  0
ARC
  5
336
100
AcDbEntity
  8
0
100
AcDbCircle
 62
7
  6
CONTINUOUS
 10
-70.6098352426
 20
19.9762958236
 40
30.5526324033
100
AcDbArc
 50
13.6189128547
 51
14.1005916324
  0
ARC
  5
337
100
AcDbEntity
  8
0
100
AcDbCircle
 62
7
  6
CONTINUOUS
 10
-73.0251335045
 20
26.9644347961
 40
29.5251635744
100
AcDbArc
 50
96.8211642159
 51
98.9536655795
  0
ARC
  5
338
100
AcDbEntity
  8
0
100
AcDbCircle
 62
7
  6
CONTINUOUS
 10
-73.0983050703
 20
27.5600673502
 40
28.9250565056
100
AcDbArc
 50
95.7362918637
 51
96.8173809935
  0
ARC
  5
339
100
AcDbEntity
  8
0
100
AcDbCircle
 62
7
  6
CONTINUOUS
 10
-70.2020956379
 20
29.0318907751
 40
26.1699185219
100
AcDbArc
 50
38.2973968272
 51
38.6169299948
  0
ARC
  5
33A
100
AcDbEntity
  8
0
100
AcDbCircle
 62
7
  6
CONTINUOUS
 10
-84.3750784475
 20
16.6349728906
 40
26.0198334557
100
AcDbArc
 50
297.9946549593
 51
302.7032451418
  0
ARC
  5
33B
100
AcDbEntity
  8
0
100
AcDbCircle
 62
7
  6
CONTINUOUS
 10
-81.8526941907
 20
20.5741943681
 40
25.7601220436
100
AcDbArc
 50
357.5533532284
 51
2.199426755
  0
ARC
  5
33C
100
AcDbEntity
  8
0
100
AcDbCircle
 62
7
  6
CONTINUOUS
 10
-47.4782899646
 20
-1.8251712067
 40
58.1952457458
100
AcDbArc
 50
141.8563276733
 51
143.2910742105
  0
ARC
  5
33D
100
AcDbEntity
  8
0
100
AcDbCircle
 62
7
  6
CONTINUOUS
 10
-48.7640095062
 20
-0.997467224
 40
57.640432085
100
AcDbArc
 50
139.1374256712
 51
143.3024219141
  0
ARC
  5
33E
100
AcDbEntity
  8
0
100
AcDbCircle
 62
7
  6
CONTINUOUS
 10
-57.2167226276
 20
3.5661512806
 40
57.1266824632
100
AcDbArc
 50
154.5397375428
 51
159.5896652482
  0
ARC
  5
33F
100
AcDbEntity
  8
0
100
AcDbCircle
 62
7
  6
CONTINUOUS
 10
-58.1248505511
 20
4.1780316495
 40
56.5708248542
100
AcDbArc
 50
143.9604221208
 51
159.8546858662
  0
ARC
  5
340
100
AcDbEntity
  8
0
100
AcDbCircle
 62
7
  6
CONTINUOUS
 10
-57.789535624
 20
4.2145634645
 40
56.2981474792
100
AcDbArc
 50
137.1533706094
 51
142.39735939
  0
ARC
  5
341
100
AcDbEntity
  8
0
100
AcDbCircle
 62
7
  6
CONTINUOUS
 10
-58.5696660012
 20
4.5235780621
 40
56.0078449433
100
AcDbArc
 50
142.1367347562
 51
143.9785374036
  0
ARC
  5
342
100
AcDbEntity
  8
0
100
AcDbCircle
 62
7
  6
CONTINUOUS
 10
-48.5522873306
 20
-1.1847416477
 40
55.4266281051
100
AcDbArc
 50
141.1869866337
 51
142.6985673759
  0
ARC
  5
343
100
AcDbEntity
  8
0
100
AcDbCircle
 62
7
  6
CONTINUOUS
 10
-59.5653246501
 20
4.7356385619
 40
55.0264415576
100
AcDbArc
 50
159.8832066392
 51
161.7085730886
  0
ARC
  5
344
100
AcDbEntity
  8
0
100
AcDbCircle
 62
7
  6
CONTINUOUS
 10
-52.1073854171
 20
-0.2855499277
 40
53.9475344997
100
AcDbArc
 50
165.873122082
 51
166.4456261742
  0
ARC
  5
345
100
AcDbEntity
  8
0
100
AcDbCircle
 62
7
  6
CONTINUOUS
 10
-62.5850553055
 20
1.2788733404
 40
52.983124455
100
AcDbArc
 50
154.9725483638
 51
155.6976151263
  0
ARC
  5
346
100
AcDbEntity
  8
0
100
AcDbCircle
 62
7
  6
CONTINUOUS
 10
-62.7629454144
 20
1.3587075121
 40
52.7881419395
100
AcDbArc
 50
155.6971252629
 51
157.1506944382
  0
ARC
  5
347
100
AcDbEntity
  8
0
100
AcDbCircle
 62
7
  6
CONTINUOUS
 10
-64.3597688522
 20
4.3637388685
 40
51.0871178536
100
AcDbArc
 50
139.2353375324
 51
139.976981068
  0
ARC
  5
348
100
AcDbEntity
  8
0
100
AcDbCircle
 62
7
  6
CONTINUOUS
 10
-64.5747969179
 20
4.5491139692
 40
50.8032147064
100
AcDbArc
 50
138.4908776583
 51
139.2353368163
  0
ARC
  5
349
100
AcDbEntity
  8
0
100
AcDbCircle
 62
7
  6
CONTINUOUS
 10
-64.7955814027
 20
4.7445466091
 40
50.5083593101
100
AcDbArc
 50
137.7435203946
 51
138.4909085389
  0
ARC
  5
34A
100
AcDbEntity
  8
0
100
AcDbCircle
 62
7
  6
CONTINUOUS
 10
-66.9284167837
 20
5.5788726334
 40
47.1660721539
100
AcDbArc
 50
175.5331043124
 51
177.9781105984
  0
ARC
  5
34B
100
AcDbEntity
  8
0
100
AcDbCircle
 62
7
  6
CONTINUOUS
 10
-68.41689024
 20
1.6188224281
 40
45.9396885893
100
AcDbArc
 50
172.7544918962
 51
173.5488340496
  0
ARC
  5
34C
100
AcDbEntity
  8
0
100
AcDbCircle
 62
7
  6
CONTINUOUS
 10
-69.0582076687
 20
1.6899218012
 40
45.2944435524
100
AcDbArc
 50
173.5470543654
 51
175.1010595331
  0
ARC
  5
34D
100
AcDbEntity
  8
0
100
AcDbCircle
 62
7
  6
CONTINUOUS
 10
-69.2900532871
 20
6.2648272317
 40
45.1386705939
100
AcDbArc
 50
178.7637117615
 51
180.9294759584
  0
ARC
  5
34E
100
AcDbEntity
  8
0
100
AcDbCircle
 62
7
  6
CONTINUOUS
 10
-57.0520345128
 20
-7.6989255656
 40
42.7961957285
100
AcDbArc
 50
61.0939980238
 51
61.6773210895
  0
ARC
  5
34F
100
AcDbEntity
  8
0
100
AcDbCircle
 62
7
  6
CONTINUOUS
 10
-62.9735601686
 20
5.5060257041
 40
41.5324871204
100
AcDbArc
 50
169.9619490752
 51
170.737122259
  0
ARC
  5
350
100
AcDbEntity
  8
0
100
AcDbCircle
 62
7
  6
CONTINUOUS
 10
-62.9196676296
 20
19.895280512
 40
58.6300449551
100
AcDbArc
 50
232.3482618311
 51
240.1784649142
  0
ARC
  5
351
100
AcDbEntity
  8
0
100
AcDbCircle
 62
7
  6
CONTINUOUS
 10
-63.6014594448
 20
18.9891469926
 40
57.4961463375
100
AcDbArc
 50
231.5948067424
 51
232.334589335
  0
ARC
  5
352
100
AcDbEntity
  8
0
100
AcDbCircle
 62
7
  6
CONTINUOUS
 10
-63.702646594
 20
18.8611442698
 40
57.3329792881
100
AcDbArc
 50
231.3306912496
 51
231.5945831978
  0
ARC
  5
353
100
AcDbEntity
  8
0
100
AcDbCircle
 62
7
  6
CONTINUOUS
 10
-63.7675369871
 20
18.7801044482
 40
57.2291611057
100
AcDbArc
 50
230.9740512296
 51
231.3307197769
  0
ARC
  5
354
100
AcDbEntity
  8
0
100
AcDbCircle
 62
7
  6
CONTINUOUS
 10
-63.8325609038
 20
18.6998298868
 40
57.1258551817
100
AcDbArc
 50
230.7258217073
 51
230.9740190036
  0
ARC
  5
355
100
AcDbEntity
  8
0
100
AcDbCircle
 62
7
  6
CONTINUOUS
 10
-42.1683321373
 20
17.2472721675
 40
52.1858114739
100
AcDbArc
 50
159.6280210611
 51
161.7897350204
  0
ARC
  5
356
100
AcDbEntity
  8
0
100
AcDbCircle
 62
7
  6
CONTINUOUS
 10
-68.548721984
 20
11.8916651152
 40
48.4795560298
100
AcDbArc
 50
223.9575439788
 51
230.7844532246
  0
ARC
  5
357
100
AcDbEntity
  8
0
100
AcDbCircle
 62
7
  6
CONTINUOUS
 10
-64.253445717
 20
10.7194746616
 40
47.566915917
100
AcDbArc
 50
123.357215636
 51
125.3749232631
  0
ARC
  5
358
100
AcDbEntity
  8
0
100
AcDbCircle
 62
7
  6
CONTINUOUS
 10
-64.1574664776
 20
11.6588820126
 40
46.466459931
100
AcDbArc
 50
119.5727698818
 51
124.0787760357
  0
ARC
  5
359
100
AcDbEntity
  8
0
100
AcDbCircle
 62
7
  6
CONTINUOUS
 10
-65.502341366
 20
12.6460820917
 40
45.2709889778
100
AcDbArc
 50
116.5514144701
 51
123.37772876
  0
ARC
  5
35A
100
AcDbEntity
  8
0
100
AcDbCircle
 62
7
  6
CONTINUOUS
 10
-59.6240996679
 20
15.76899379
 40
37.0018765216
100
AcDbArc
 50
105.1012454267
 51
106.7793782558
  0
ARC
  5
35B
100
AcDbEntity
  8
0
100
AcDbCircle
 62
7
  6
CONTINUOUS
 10
-68.8977095306
 20
20.9661026534
 40
36.2556225095
100
AcDbArc
 50
102.889480159
 51
103.969197172
  0
ARC
  5
35C
100
AcDbEntity
  8
0
100
AcDbCircle
 62
7
  6
CONTINUOUS
 10
-69.0145056666
 20
21.4795318713
 40
35.7290767541
100
AcDbArc
 50
101.3670092563
 51
102.8905675956
  0
ARC
  5
35D
100
AcDbEntity
  8
0
100
AcDbCircle
 62
7
  6
CONTINUOUS
 10
-69.1320480902
 20
22.0629097486
 40
35.1339751646
100
AcDbArc
 50
99.9929901957
 51
101.3665898395
  0
ARC
  5
35E
100
AcDbEntity
  8
0
100
AcDbCircle
 62
7
  6
CONTINUOUS
 10
-68.647053019
 20
22.436063182
 40
34.7337115788
100
AcDbArc
 50
101.5352023748
 51
102.2780586331
  0
ARC
  5
35F
100
AcDbEntity
  8
0
100
AcDbCircle
 62
7
  6
CONTINUOUS
 10
-66.6988060789
 20
29.0367864932
 40
29.7239255666
100
AcDbArc
 50
1.9361095871
 51
2.2712048028
  0
ARC
  5
360
100
AcDbEntity
  8
0
100
AcDbCircle
 62
7
  6
CONTINUOUS
 10
-66.3920254086
 20
29.0493716032
 40
29.4168871513
100
AcDbArc
 50
2.2703913936
 51
3.0708753009
  0
ARC
  5
361
100
AcDbEntity
  8
0
100
AcDbCircle
 62
7
  6
CONTINUOUS
 10
-68.6588520213
 20
30.6080757797
 40
23.9556501071
100
AcDbArc
 50
58.720971925
 51
59.0839656317
  0
ARC
  5
362
100
AcDbEntity
  8
0
100
AcDbCircle
 62
7
  6
CONTINUOUS
 10
-68.2510812005
 20
30.1758940347
 40
23.7487747322
100
AcDbArc
 50
60.1318922786
 51
63.6341347773
  0
ARC
  5
363
100
AcDbEntity
  8
0
100
AcDbCircle
 62
7
  6
CONTINUOUS
 10
-67.4512435257
 20
26.9877677776
 40
20.6149709627
100
AcDbArc
 50
60.133065264
 51
66.423973091
  0
ARC
  5
364
100
AcDbEntity
  8
0
100
AcDbCircle
 62
7
  6
CONTINUOUS
 10
-37.5003379403
 20
30.0237556332
 40
0.7711775317
100
AcDbArc
 50
48.6992574104
 51
51.2237922821
  0
ARC
  5
365
100
AcDbEntity
  8
0
100
AcDbCircle
 62
7
  6
CONTINUOUS
 10
-37.2689699677
 20
30.1966534862
 40
0.4785169236
100
AcDbArc
 50
3.0436784478
 51
8.9120487686
  0
ARC
  5
366
100
AcDbEntity
  8
0
100
AcDbCircle
 62
7
  6
CONTINUOUS
 10
-62.6362630497
 20
81.2735493463
 40
80.6261616877
100
AcDbArc
 50
239.227349358
 51
239.6584262628
  0
ARC
  5
367
100
AcDbEntity
  8
0
100
AcDbCircle
 62
7
  6
CONTINUOUS
 10
-71.3239044765
 20
79.4580544579
 40
68.2039027938
100
AcDbArc
 50
234.8600233882
 51
235.3329772515
  0
ARC
  5
368
100
AcDbEntity
  8
0
100
AcDbCircle
 62
7
  6
CONTINUOUS
 10
-58.4346135866
 20
31.080274486
 40
24.218850323
100
AcDbArc
 50
70.4651134563
 51
72.7884605773
  0
ARC
  5
369
100
AcDbEntity
  8
0
100
AcDbCircle
 62
7
  6
CONTINUOUS
 10
-58.3111509292
 20
31.4155693416
 40
23.8615725274
100
AcDbArc
 50
60.1612857266
 51
70.4752938569
  0
ARC
  5
36A
100
AcDbEntity
  8
0
100
AcDbCircle
 62
7
  6
CONTINUOUS
 10
-74.0177703491
 20
33.2448540186
 40
23.1667715579
100
AcDbArc
 50
99.0266641024
 51
100.8270017782
  0
ARC
  5
36B
100
AcDbEntity
  8
0
100
AcDbCircle
 62
7
  6
CONTINUOUS
 10
-70.5513680829
 20
36.5609280587
 40
21.3901970466
100
AcDbArc
 50
75.8355975008
 51
76.2227313339
  0
ARC
  5
36C
100
AcDbEntity
  8
0
100
AcDbCircle
 62
7
  6
CONTINUOUS
 10
-63.0490308891
 20
42.2014452749
 40
19.7685232006
100
AcDbArc
 50
161.8042653513
 51
162.8062692272
  0
ARC
  5
36D
100
AcDbEntity
  8
0
100
AcDbCircle
 62
7
  6
CONTINUOUS
 10
-63.3929580188
 20
42.3138918155
 40
19.4066810233
100
AcDbArc
 50
161.3486977251
 51
161.8025752822
  0
ARC
  5
36E
100
AcDbEntity
  8
0
100
AcDbCircle
 62
7
  6
CONTINUOUS
 10
-75.2979916493
 20
37.182959888
 40
19.0097161468
100
AcDbArc
 50
116.8204103433
 51
118.6236069201
  0
ARC
  5
36F
100
AcDbEntity
  8
0
100
AcDbCircle
 62
7
  6
CONTINUOUS
 10
-75.5075205153
 20
37.5607437553
 40
18.5777275648
100
AcDbArc
 50
118.6145312172
 51
126.6941452622
  0
ARC
  5
370
100
AcDbEntity
  8
0
100
AcDbCircle
 62
7
  6
CONTINUOUS
 10
-75.7076131407
 20
37.8449830002
 40
18.230252539
100
AcDbArc
 50
126.7236998591
 51
128.7510565594
  0
ARC
  5
371
100
AcDbEntity
  8
0
100
AcDbCircle
 62
7
  6
CONTINUOUS
 10
-69.7023205667
 20
44.5094148454
 40
13.3631574793
100
AcDbArc
 50
92.582746096
 51
98.2046854435
  0
ARC
  5
372
100
AcDbEntity
  8
0
100
AcDbCircle
 62
7
  6
CONTINUOUS
 10
-69.8726406044
 20
45.757669277
 40
12.1033769018
100
AcDbArc
 50
98.2499482928
 51
104.702045925
  0
ARC
  5
373
100
AcDbEntity
  8
0
100
AcDbCircle
 62
7
  6
CONTINUOUS
 10
-69.9684064821
 20
46.7284258444
 40
11.1663282934
100
AcDbArc
 50
122.3814154241
 51
124.3160269044
  0
ARC
  5
374
100
AcDbEntity
  8
0
100
AcDbCircle
 62
7
  6
CONTINUOUS
 10
-70.3036692519
 20
47.2774968466
 40
10.5230916325
100
AcDbArc
 50
114.4431572181
 51
122.4409081881
  0
ARC
  5
375
100
AcDbEntity
  8
0
100
AcDbCircle
 62
7
  6
CONTINUOUS
 10
-70.3657390343
 20
47.4076455944
 40
10.3789242926
100
AcDbArc
 50
112.2429719057
 51
114.4285153543
  0
ARC
  5
376
100
AcDbEntity
  8
0
100
AcDbCircle
 62
7
  6
CONTINUOUS
 10
-59.9041731456
 20
49.9781355541
 40
8.2904085616
100
AcDbArc
 50
145.4865661664
 51
147.8971805236
  0
ARC
  5
377
100
AcDbEntity
  8
0
100
AcDbCircle
 62
7
  6
CONTINUOUS
 10
-60.2338104286
 20
50.2030977594
 40
7.8913262913
100
AcDbArc
 50
144.2673172193
 51
145.4763654639
  0
ARC
  5
378
100
AcDbEntity
  8
0
100
AcDbCircle
 62
7
  6
CONTINUOUS
 10
215.9397394316
 20
711.5929364152
 40
753.416283239
100
AcDbArc
 50
240.2318685359
 51
241.544067899
  0
SPLINE
  5
379
100
AcDbEntity
  8
0
100
AcDbSpline
 62
7
  6
CONTINUOUS
 70
0
 71
3
 72
11
 73
7
 74
0
 42
0.0000001
 43
0.0000001
 44
0.0000000001
 40
0.0
 40
0.0
 40
0.0
 40
0.0
 40
0.2509415669
 40
0.5009098947
 40
0.7504876767
 40
1.0
 40
1.0
 40
1.0
 40
1.0
 10
-41.1375962626
 20
9.2280445537
 30
0.0
 10
-41.1376408924
 20
9.466263551
 30
0.0
 10
-41.1944268705
 20
9.943984023
 30
0.0
 10
-41.4556498963
 20
10.6152035929
 30
0.0
 10
-41.8831302496
 20
11.1939359207
 30
0.0
 10
-42.263166476
 20
11.4886837988
 30
0.0
 10
-42.4685746522
 20
11.6066295159
 30
0.0
  0
SPLINE
  5
37A
100
AcDbEntity
  8
0
100
AcDbSpline
 62
7
  6
CONTINUOUS
 70
0
 71
3
 72
15
 73
11
 74
0
 42
0.0000001
 43
0.0000001
 44
0.0000000001
 40
0.0
 40
0.0
 40
0.0
 40
0.0
 40
0.1238626254
 40
0.2478036984
 40
0.3719977277
 40
0.4967829491
 40
0.6223958877
 40
0.7485916987
 40
0.8746516462
 40
1.0
 40
1.0
 40
1.0
 40
1.0
 10
-45.456563863
 20
6.4035626003
 30
0.0
 10
-45.2351319272
 20
6.2764160137
 30
0.0
 10
-44.7508656331
 20
6.0874591801
 30
0.0
 10
-43.9758265038
 20
6.028557896
 30
0.0
 10
-43.2139011248
 20
6.1896450128
 30
0.0
 10
-42.5201787297
 20
6.5481921998
 30
0.0
 10
-41.934921732
 20
7.069917542
 30
0.0
 10
-41.4882938274
 20
7.7170126608
 30
0.0
 10
-41.204449397
 20
8.449251588
 30
0.0
 10
-41.137552031
 20
8.9695932041
 30
0.0
 10
-41.1375962538
 20
9.2279956809
 30
0.0
  0
SPLINE
  5
37B
100
AcDbEntity
  8
0
100
AcDbSpline
 62
7
  6
CONTINUOUS
 70
0
 71
3
 72
18
 73
14
 74
0
 42
0.0000001
 43
0.0000001
 44
0.0000000001
 40
0.0
 40
0.0
 40
0.0
 40
0.0
 40
0.1353321935
 40
0.2763758694
 40
0.4142803606
 40
0.5415358398
 40
0.6005021645
 40
0.6566224368
 40
0.7108957446
 40
0.7647144883
 40
0.8195758519
 40
0.8767255891
 40
1.0
 40
1.0
 40
1.0
 40
1.0
 10
-42.007247932
 20
8.5784374795
 30
0.0
 10
-42.0072278146
 20
8.4537465548
 30
0.0
 10
-42.0535708399
 20
8.1979719523
 30
0.0
 10
-42.231719807
 20
7.8546303734
 30
0.0
 10
-42.4958298108
 20
7.581673767
 30
0.0
 10
-42.7681166986
 20
7.4417505003
 30
0.0
 10
-42.9899983734
 20
7.404918061
 30
0.0
 10
-43.1472342419
 20
7.4148052615
 30
0.0
 10
-43.292815609
 20
7.4617554171
 30
0.0
 10
-43.4204030421
 20
7.5441003076
 30
0.0
 10
-43.524423251
 20
7.658261686
 30
0.0
 10
-43.6288844275
 20
7.8500713961
 30
0.0
 10
-43.6571821408
 20
8.0197428809
 30
0.0
 10
-43.6572022987
 20
8.1333241349
 30
0.0
  0
SPLINE
  5
37C
100
AcDbEntity
  8
0
100
AcDbSpline
 62
7
  6
CONTINUOUS
 70
0
 71
3
 72
11
 73
7
 74
0
 42
0.0000001
 43
0.0000001
 44
0.0000000001
 40
0.0
 40
0.0
 40
0.0
 40
0.0
 40
0.2321621434
 40
0.4728487795
 40
0.7280198297
 40
1.0
 40
1.0
 40
1.0
 40
1.0
 10
-45.4567084257
 20
6.4036607822
 30
0.0
 10
-45.6087635946
 20
6.4909773947
 30
0.0
 10
-45.8925091906
 20
6.7183454474
 30
0.0
 10
-46.2060778855
 20
7.1785340797
 30
0.0
 10
-46.3974636293
 20
7.7321878316
 30
0.0
 10
-46.4374527302
 20
8.1320140786
 30
0.0
 10
-46.4374883577
 20
8.3374294
 30
0.0
  0
SPLINE
  5
37D
100
AcDbEntity
  8
0
100
AcDbSpline
 62
7
  6
CONTINUOUS
 70
0
 71
3
 72
15
 73
11
 74
0
 42
0.0000001
 43
0.0000001
 44
0.0000000001
 40
0.0
 40
0.0
 40
0.0
 40
0.0
 40
0.2648465626
 40
0.4023971824
 40
0.5370253474
 40
0.6649659601
 40
0.7840248205
 40
0.894496141
 40
0.9476084658
 40
1.0
 40
1.0
 40
1.0
 40
1.0
 10
-46.4374883577
 20
8.3374294
 30
0.0
 10
-46.4375789785
 20
8.8696296701
 30
0.0
 10
-46.2275195738
 20
9.6872248584
 30
0.0
 10
-45.655840002
 20
10.6072665301
 30
0.0
 10
-45.0941344911
 20
11.1923022839
 30
0.0
 10
-44.4458524625
 20
11.6154646312
 30
0.0
 10
-43.7557649827
 20
11.8453679434
 30
0.0
 10
-43.1765371663
 20
11.8550305206
 30
0.0
 10
-42.7539217084
 20
11.7478762105
 30
0.0
 10
-42.5598662694
 20
11.6590270082
 30
0.0
 10
-42.4685646564
 20
11.6066086001
 30
0.0
  0
SPLINE
  5
37E
100
AcDbEntity
  8
0
100
AcDbSpline
 62
7
  6
CONTINUOUS
 70
0
 71
3
 72
18
 73
14
 74
0
 42
0.0000001
 43
0.0000001
 44
0.0000000001
 40
0.0
 40
0.0
 40
0.0
 40
0.0
 40
0.1353321935
 40
0.2763758694
 40
0.4142803606
 40
0.5415358398
 40
0.6005021645
 40
0.6566224368
 40
0.7108957446
 40
0.7647144883
 40
0.8195758519
 40
0.8767255891
 40
1.0
 40
1.0
 40
1.0
 40
1.0
 10
-43.6572022987
 20
8.1333241349
 30
0.0
 10
-43.6572224161
 20
8.2580150596
 30
0.0
 10
-43.6108793908
 20
8.5137896621
 30
0.0
 10
-43.4327304237
 20
8.8571312409
 30
0.0
 10
-43.1686204199
 20
9.1300878473
 30
0.0
 10
-42.8963335321
 20
9.270011114
 30
0.0
 10
-42.6744518573
 20
9.3068435534
 30
0.0
 10
-42.5172159888
 20
9.2969563528
 30
0.0
 10
-42.3716346217
 20
9.2500061972
 30
0.0
 10
-42.2440471886
 20
9.1676613068
 30
0.0
 10
-42.1400269797
 20
9.0534999284
 30
0.0
 10
-42.0355658032
 20
8.8616902183
 30
0.0
 10
-42.0072680899
 20
8.6920187335
 30
0.0
 10
-42.007247932
 20
8.5784374795
 30
0.0
  0
SPLINE
  5
37F
100
AcDbEntity
  8
0
100
AcDbSpline
 62
7
  6
CONTINUOUS
 70
0
 71
3
 72
11
 73
7
 74
0
 42
0.0000001
 43
0.0000001
 44
0.0000000001
 40
0.0
 40
0.0
 40
0.0
 40
0.0
 40
0.2509415669
 40
0.5009098947
 40
0.7504876767
 40
1.0
 40
1.0
 40
1.0
 40
1.0
 10
-58.9987863708
 20
4.4095754932
 30
0.0
 10
-58.9988310007
 20
4.6477944905
 30
0.0
 10
-59.0556169788
 20
5.1255149625
 30
0.0
 10
-59.3168400046
 20
5.7967345324
 30
0.0
 10
-59.7443203579
 20
6.3754668601
 30
0.0
 10
-60.1243565842
 20
6.6702147383
 30
0.0
 10
-60.3297647605
 20
6.7881604554
 30
0.0
  0
SPLINE
  5
380
100
AcDbEntity
  8
0
100
AcDbSpline
 62
7
  6
CONTINUOUS
 70
0
 71
3
 72
15
 73
11
 74
0
 42
0.0000001
 43
0.0000001
 44
0.0000000001
 40
0.0
 40
0.0
 40
0.0
 40
0.0
 40
0.1238626254
 40
0.2478036984
 40
0.3719977277
 40
0.4967829491
 40
0.6223958877
 40
0.7485916987
 40
0.8746516462
 40
1.0
 40
1.0
 40
1.0
 40
1.0
 10
-63.3177539712
 20
1.5850935398
 30
0.0
 10
-63.0963220354
 20
1.4579469532
 30
0.0
 10
-62.6120557413
 20
1.2689901196
 30
0.0
 10
-61.8370166121
 20
1.2100888355
 30
0.0
 10
-61.075091233
 20
1.3711759523
 30
0.0
 10
-60.381368838
 20
1.7297231393
 30
0.0
 10
-59.7961118403
 20
2.2514484815
 30
0.0
 10
-59.3494839356
 20
2.8985436003
 30
0.0
 10
-59.0656395052
 20
3.6307825274
 30
0.0
 10
-58.9987421392
 20
4.1511241436
 30
0.0
 10
-58.9987863621
 20
4.4095266203
 30
0.0
  0
SPLINE
  5
381
100
AcDbEntity
  8
0
100
AcDbSpline
 62
7
  6
CONTINUOUS
 70
0
 71
3
 72
18
 73
14
 74
0
 42
0.0000001
 43
0.0000001
 44
0.0000000001
 40
0.0
 40
0.0
 40
0.0
 40
0.0
 40
0.1353321935
 40
0.2763758694
 40
0.4142803606
 40
0.5415358398
 40
0.6005021645
 40
0.6566224368
 40
0.7108957446
 40
0.7647144883
 40
0.8195758519
 40
0.8767255891
 40
1.0
 40
1.0
 40
1.0
 40
1.0
 10
-59.8684380403
 20
3.7599684189
 30
0.0
 10
-59.8684179229
 20
3.6352774943
 30
0.0
 10
-59.9147609482
 20
3.3795028918
 30
0.0
 10
-60.0929099153
 20
3.0361613129
 30
0.0
 10
-60.3570199191
 20
2.7632047065
 30
0.0
 10
-60.6293068069
 20
2.6232814398
 30
0.0
 10
-60.8511884817
 20
2.5864490005
 30
0.0
 10
-61.0084243502
 20
2.596336201
 30
0.0
 10
-61.1540057172
 20
2.6432863566
 30
0.0
 10
-61.2815931503
 20
2.7256312471
 30
0.0
 10
-61.3856133593
 20
2.8397926255
 30
0.0
 10
-61.4900745357
 20
3.0316023356
 30
0.0
 10
-61.5183722491
 20
3.2012738203
 30
0.0
 10
-61.5183924069
 20
3.3148550744
 30
0.0
  0
SPLINE
  5
382
100
AcDbEntity
  8
0
100
AcDbSpline
 62
7
  6
CONTINUOUS
 70
0
 71
3
 72
11
 73
7
 74
0
 42
0.0000001
 43
0.0000001
 44
0.0000000001
 40
0.0
 40
0.0
 40
0.0
 40
0.0
 40
0.2321621434
 40
0.4728487795
 40
0.7280198297
 40
1.0
 40
1.0
 40
1.0
 40
1.0
 10
-63.3178985339
 20
1.5851917217
 30
0.0
 10
-63.4699537029
 20
1.6725083342
 30
0.0
 10
-63.7536992988
 20
1.8998763869
 30
0.0
 10
-64.0672679937
 20
2.3600650191
 30
0.0
 10
-64.2586537376
 20
2.9137187711
 30
0.0
 10
-64.2986428385
 20
3.313545018
 30
0.0
 10
-64.2986784659
 20
3.5189603394
 30
0.0
  0
SPLINE
  5
383
100
AcDbEntity
  8
0
100
AcDbSpline
 62
7
  6
CONTINUOUS
 70
0
 71
3
 72
15
 73
11
 74
0
 42
0.0000001
 43
0.0000001
 44
0.0000000001
 40
0.0
 40
0.0
 40
0.0
 40
0.0
 40
0.2648465626
 40
0.4023971824
 40
0.5370253474
 40
0.6649659601
 40
0.7840248205
 40
0.894496141
 40
0.9476084658
 40
1.0
 40
1.0
 40
1.0
 40
1.0
 10
-64.2986784659
 20
3.5189603394
 30
0.0
 10
-64.2987690868
 20
4.0511606096
 30
0.0
 10
-64.088709682
 20
4.8687557978
 30
0.0
 10
-63.5170301103
 20
5.7887974696
 30
0.0
 10
-62.9553245994
 20
6.3738332234
 30
0.0
 10
-62.3070425708
 20
6.7969955707
 30
0.0
 10
-61.6169550909
 20
7.0268988828
 30
0.0
 10
-61.0377272745
 20
7.0365614601
 30
0.0
 10
-60.6151118166
 20
6.92940715
 30
0.0
 10
-60.4210563777
 20
6.8405579477
 30
0.0
 10
-60.3297547646
 20
6.7881395396
 30
0.0
  0
SPLINE
  5
384
100
AcDbEntity
  8
0
100
AcDbSpline
 62
7
  6
CONTINUOUS
 70
0
 71
3
 72
18
 73
14
 74
0
 42
0.0000001
 43
0.0000001
 44
0.0000000001
 40
0.0
 40
0.0
 40
0.0
 40
0.0
 40
0.1353321935
 40
0.2763758694
 40
0.4142803606
 40
0.5415358398
 40
0.6005021645
 40
0.6566224368
 40
0.7108957446
 40
0.7647144883
 40
0.8195758519
 40
0.8767255891
 40
1.0
 40
1.0
 40
1.0
 40
1.0
 10
-61.5183924069
 20
3.3148550744
 30
0.0
 10
-61.5184125243
 20
3.4395459991
 30
0.0
 10
-61.472069499
 20
3.6953206015
 30
0.0
 10
-61.2939205319
 20
4.0386621804
 30
0.0
 10
-61.0298105281
 20
4.3116187868
 30
0.0
 10
-60.7575236404
 20
4.4515420535
 30
0.0
 10
-60.5356419656
 20
4.4883744928
 30
0.0
 10
-60.3784060971
 20
4.4784872923
 30
0.0
 10
-60.23282473
 20
4.4315371367
 30
0.0
 10
-60.1052372969
 20
4.3491922462
 30
0.0
 10
-60.001217088
 20
4.2350308678
 30
0.0
 10
-59.8967559115
 20
4.0432211577
 30
0.0
 10
-59.8684581982
 20
3.873549673
 30
0.0
 10
-59.8684380403
 20
3.7599684189
 30
0.0
  0
SPLINE
  5
385
100
AcDbEntity
  8
0
100
AcDbSpline
 62
7
  6
CONTINUOUS
 70
0
 71
3
 72
11
 73
7
 74
0
 42
0.0000001
 43
0.0000001
 44
0.0000000001
 40
0.0
 40
0.0
 40
0.0
 40
0.0
 40
0.2528346751
 40
0.5030063129
 40
0.7517537947
 40
1.0
 40
1.0
 40
1.0
 40
1.0
 10
-49.2402982662
 20
-10.195359714
 30
0.0
 10
-49.2403546294
 20
-9.8916637416
 30
0.0
 10
-49.3089407549
 20
-9.2847567051
 30
0.0
 10
-49.6302358597
 20
-8.4304537097
 30
0.0
 10
-50.1621901907
 20
-7.6941320116
 30
0.0
 10
-50.6399143225
 20
-7.320453954
 30
0.0
 10
-50.8985271871
 20
-7.172017552
 30
0.0
  0
SPLINE
  5
386
100
AcDbEntity
  8
0
100
AcDbSpline
 62
7
  6
CONTINUOUS
 70
0
 71
3
 72
15
 73
11
 74
0
 42
0.0000001
 43
0.0000001
 44
0.0000000001
 40
0.0
 40
0.0
 40
0.0
 40
0.0
 40
0.1218703847
 40
0.2440981368
 40
0.3672671126
 40
0.4921012883
 40
0.6187970095
 40
0.746597869
 40
0.8740654455
 40
1.0
 40
1.0
 40
1.0
 40
1.0
 10
-54.8819613981
 20
-14.1097325248
 30
0.0
 10
-54.5931997185
 20
-14.2754734859
 30
0.0
 10
-53.9570710679
 20
-14.516239875
 30
0.0
 10
-52.9400044561
 20
-14.5654783848
 30
0.0
 10
-51.9455066174
 20
-14.3175163722
 30
0.0
 10
-51.0434496197
 20
-13.8105609773
 30
0.0
 10
-50.2823478644
 20
-13.0932405228
 30
0.0
 10
-49.7001663317
 20
-12.216421105
 30
0.0
 10
-49.3289478167
 20
-11.2342675496
 30
0.0
 10
-49.2402399707
 20
-10.5394748046
 30
0.0
 10
-49.2402982546
 20
-10.1954251079
 30
0.0
  0
SPLINE
  5
387
100
AcDbEntity
  8
0
100
AcDbSpline
 62
7
  6
CONTINUOUS
 70
0
 71
3
 72
19
 73
15
 74
0
 42
0.0000001
 43
0.0000001
 44
0.0000000001
 40
0.0
 40
0.0
 40
0.0
 40
0.0
 40
0.1352516604
 40
0.2762242868
 40
0.4140578429
 40
0.4795399739
 40
0.5417850678
 40
0.6007219146
 40
0.6568138043
 40
0.7110589248
 40
0.7648467554
 40
0.8196749213
 40
0.8767990002
 40
1.0
 40
1.0
 40
1.0
 40
1.0
 10
-53.4098375933
 20
-11.7351990684
 30
0.0
 10
-53.4098778247
 20
-11.4858335702
 30
0.0
 10
-53.3170667934
 20
-10.974216641
 30
0.0
 10
-52.9614003527
 20
-10.2878913364
 30
0.0
 10
-52.5115626082
 20
-9.823889933
 30
0.0
 10
-52.0923383937
 20
-9.5667333067
 30
0.0
 10
-51.7692087106
 20
-9.4421224529
 30
0.0
 10
-51.4443012195
 20
-9.388161394
 30
0.0
 10
-51.1298504128
 20
-9.4079357839
 30
0.0
 10
-50.8386901449
 20
-9.5018709951
 30
0.0
 10
-50.5835441051
 20
-9.6665745411
 30
0.0
 10
-50.3754918505
 20
-9.8948812798
 30
0.0
 10
-50.1665953759
 20
-10.2785019781
 30
0.0
 10
-50.1100030213
 20
-10.6178339951
 30
0.0
 10
-50.1099627075
 20
-10.8449815104
 30
0.0
  0
SPLINE
  5
388
100
AcDbEntity
  8
0
100
AcDbSpline
 62
7
  6
CONTINUOUS
 70
0
 71
3
 72
11
 73
7
 74
0
 42
0.0000001
 43
0.0000001
 44
0.0000000001
 40
0.0
 40
0.0
 40
0.0
 40
0.0
 40
0.2321671861
 40
0.4728522849
 40
0.7280174637
 40
1.0
 40
1.0
 40
1.0
 40
1.0
 10
-54.882431616
 20
-14.1094584836
 30
0.0
 10
-55.0851607108
 20
-13.9930072832
 30
0.0
 10
-55.463505171
 20
-13.6898756794
 30
0.0
 10
-55.8815792581
 20
-13.076276223
 30
0.0
 10
-56.1367742474
 20
-12.3380862287
 30
0.0
 10
-56.190088922
 20
-11.8049864203
 30
0.0
 10
-56.1901364261
 20
-11.5310972493
 30
0.0
  0
SPLINE
  5
389
100
AcDbEntity
  8
0
100
AcDbSpline
 62
7
  6
CONTINUOUS
 70
0
 71
3
 72
16
 73
12
 74
0
 42
0.0000001
 43
0.0000001
 44
0.0000000001
 40
0.0
 40
0.0
 40
0.0
 40
0.0
 40
0.264746531
 40
0.4022431566
 40
0.536821966
 40
0.6647178334
 40
0.783734734
 40
0.840064532
 40
0.8945315146
 40
0.9476278542
 40
1.0
 40
1.0
 40
1.0
 40
1.0
 10
-56.1901364261
 20
-11.5310972493
 30
0.0
 10
-56.1902566331
 20
-10.8215262084
 30
0.0
 10
-55.9102083076
 20
-9.7314439878
 30
0.0
 10
-55.1480603741
 20
-8.5047636859
 30
0.0
 10
-54.3989729901
 20
-7.7247610179
 30
0.0
 10
-53.5353633692
 20
-7.1603459306
 30
0.0
 10
-52.7525864612
 20
-6.9005539311
 30
0.0
 10
-52.1367759293
 20
-6.845413363
 30
0.0
 10
-51.6965620042
 20
-6.878045959
 30
0.0
 10
-51.2789238029
 20
-6.9837458778
 30
0.0
 10
-51.0201960506
 20
-7.1021659117
 30
0.0
 10
-50.8984658296
 20
-7.1720567922
 30
0.0
  0
SPLINE
  5
38A
100
AcDbEntity
  8
0
100
AcDbSpline
 62
7
  6
CONTINUOUS
 70
0
 71
3
 72
19
 73
15
 74
0
 42
0.0000001
 43
0.0000001
 44
0.0000000001
 40
0.0
 40
0.0
 40
0.0
 40
0.0
 40
0.1352516604
 40
0.2762242868
 40
0.4140578429
 40
0.4795399739
 40
0.5417850678
 40
0.6007219146
 40
0.6568138043
 40
0.7110589248
 40
0.7648467554
 40
0.8196749213
 40
0.8767990002
 40
1.0
 40
1.0
 40
1.0
 40
1.0
 10
-50.1099627075
 20
-10.8449815104
 30
0.0
 10
-50.1099224761
 20
-11.0943470085
 30
0.0
 10
-50.2027335073
 20
-11.6059639378
 30
0.0
 10
-50.5583999481
 20
-12.2922892424
 30
0.0
 10
-51.0082376925
 20
-12.7562906457
 30
0.0
 10
-51.427461907
 20
-13.013447272
 30
0.0
 10
-51.7505915901
 20
-13.1380581259
 30
0.0
 10
-52.0754990812
 20
-13.1920191847
 30
0.0
 10
-52.389949888
 20
-13.1722447949
 30
0.0
 10
-52.6811101558
 20
-13.0783095836
 30
0.0
 10
-52.9362561957
 20
-12.9136060377
 30
0.0
 10
-53.1443084503
 20
-12.6852992989
 30
0.0
 10
-53.3532049248
 20
-12.3016786007
 30
0.0
 10
-53.4097972795
 20
-11.9623465837
 30
0.0
 10
-53.4098375933
 20
-11.7351990684
 30
0.0
  0
SPLINE
  5
38B
100
AcDbEntity
  8
0
100
AcDbSpline
 62
7
  6
CONTINUOUS
 70
0
 71
3
 72
9
 73
5
 74
0
 42
0.0000001
 43
0.0000001
 44
0.0000000001
 40
0.0
 40
0.0
 40
0.0
 40
0.0
 40
0.2548652647
 40
1.0
 40
1.0
 40
1.0
 40
1.0
 10
-160.1814852656
 20
55.4351226811
 30
0.0
 10
-160.3689779612
 20
54.6154911588
 30
0.0
 10
-161.0200978126
 20
51.3811036151
 30
0.0
 10
-161.3264044769
 20
48.0748971477
 30
0.0
 10
-161.3336399002
 20
45.6167016127
 30
0.0
  0
SPLINE
  5
38C
100
AcDbEntity
  8
0
100
AcDbSpline
 62
7
  6
CONTINUOUS
 70
0
 71
3
 72
9
 73
5
 74
0
 42
0.0000001
 43
0.0000001
 44
0.0000000001
 40
0.0
 40
0.0
 40
0.0
 40
0.0
 40
0.5094134817
 40
1.0
 40
1.0
 40
1.0
 40
1.0
 10
-162.2311920273
 20
41.1509257621
 30
0.0
 10
-161.8269744883
 20
39.5551541294
 30
0.0
 10
-160.8004869481
 20
36.475624887
 30
0.0
 10
-159.2838946362
 20
33.6018584854
 30
0.0
 10
-158.4218303327
 20
32.2713993763
 30
0.0
  0
LINE
  5
38D
100
AcDbEntity
  8
0
100
AcDbLine
 62
7
  6
CONTINUOUS
 10
-139.3443060725
 20
19.8634630845
 11
-139.5035812737
 21
19.9208778421
  0
SPLINE
  5
38E
100
AcDbEntity
  8
0
100
AcDbSpline
 62
7
  6
CONTINUOUS
 70
0
 71
3
 72
18
 73
14
 74
0
 42
0.0000001
 43
0.0000001
 44
0.0000000001
 40
0.0
 40
0.0
 40
0.0
 40
0.0
 40
0.0528295362
 40
0.1061583283
 40
0.1604466005
 40
0.2160825356
 40
0.3322441408
 40
0.4559841876
 40
0.5867768223
 40
0.6543671988
 40
0.7229702771
 40
0.8616648448
 40
1.0
 40
1.0
 40
1.0
 40
1.0
 10
-111.2073029172
 20
63.6107797017
 30
0.0
 10
-111.8358492559
 20
63.9717685541
 30
0.0
 10
-113.1558518758
 20
64.6026757798
 30
0.0
 10
-115.2686777902
 20
65.2472639188
 30
0.0
 10
-117.4909473768
 20
65.5846008932
 30
0.0
 10
-120.6012106172
 20
65.6207030101
 30
0.0
 10
-124.6296815826
 20
64.8511624832
 30
0.0
 10
-129.3067996673
 20
62.7590388872
 30
0.0
 10
-132.9165325913
 20
60.1572087153
 30
0.0
 10
-135.5684706538
 20
57.6245020926
 30
0.0
 10
-138.0537488865
 20
54.7814613925
 30
0.0
 10
-140.6924291132
 20
50.8117427043
 30
0.0
 10
-142.2331793186
 20
47.3128083951
 30
0.0
 10
-142.8404119534
 20
45.5145772627
 30
0.0
  0
SPLINE
  5
38F
100
AcDbEntity
  8
0
100
AcDbSpline
 62
7
  6
CONTINUOUS
 70
0
 71
3
 72
11
 73
7
 74
0
 42
0.0000001
 43
0.0000001
 44
0.0000000001
 40
0.0
 40
0.0
 40
0.0
 40
0.0
 40
0.2596680207
 40
0.5113564614
 40
0.7572107399
 40
1.0
 40
1.0
 40
1.0
 40
1.0
 10
-142.8374201862
 20
27.8543149534
 30
0.0
 10
-142.4937792799
 20
27.0229252344
 30
0.0
 10
-141.6972740422
 20
25.4315644938
 30
0.0
 10
-140.1629512974
 20
23.2898668543
 30
0.0
 10
-138.3355157187
 20
21.4731743947
 30
0.0
 10
-136.9386966428
 20
20.4988888545
 30
0.0
 10
-136.2093161675
 20
20.0799489614
 30
0.0
  0
SPLINE
  5
390
100
AcDbEntity
  8
0
100
AcDbSpline
 62
7
  6
CONTINUOUS
 70
0
 71
3
 72
11
 73
7
 74
0
 42
0.0000001
 43
0.0000001
 44
0.0000000001
 40
0.0
 40
0.0
 40
0.0
 40
0.0
 40
0.2661252756
 40
0.5229472182
 40
0.7679051693
 40
1.0
 40
1.0
 40
1.0
 40
1.0
 10
-142.8404119534
 20
45.5145772627
 30
0.0
 10
-143.3516087576
 20
44.0007422757
 30
0.0
 10
-144.1337329959
 20
40.9445008229
 30
0.0
 10
-144.547257529
 20
36.3313601539
 30
0.0
 10
-144.1690723938
 20
31.9178534271
 30
0.0
 10
-143.3697208002
 20
29.1421396844
 30
0.0
 10
-142.8374201862
 20
27.8543149534
 30
0.0
  0
SPLINE
  5
391
100
AcDbEntity
  8
0
100
AcDbSpline
 62
7
  6
CONTINUOUS
 70
0
 71
3
 72
9
 73
5
 74
0
 42
0.0000001
 43
0.0000001
 44
0.0000000001
 40
0.0
 40
0.0
 40
0.0
 40
0.0
 40
0.4932215657
 40
1.0
 40
1.0
 40
1.0
 40
1.0
 10
-157.9057320424
 20
30.9702596294
 30
0.0
 10
-158.7140240076
 20
32.0570434109
 30
0.0
 10
-160.1231764672
 20
34.4388616364
 30
0.0
 10
-161.0448604669
 20
37.0439844843
 30
0.0
 10
-161.3932633906
 20
38.3913077961
 30
0.0
  0
SPLINE
  5
392
100
AcDbEntity
  8
0
100
AcDbSpline
 62
7
  6
CONTINUOUS
 70
0
 71
3
 72
9
 73
5
 74
0
 42
0.0000001
 43
0.0000001
 44
0.0000000001
 40
0.0
 40
0.0
 40
0.0
 40
0.0
 40
0.4911085062
 40
1.0
 40
1.0
 40
1.0
 40
1.0
 10
-128.218057032
 20
77.3289001688
 30
0.0
 10
-129.7109257073
 20
77.3784331495
 30
0.0
 10
-132.7632972417
 20
77.2245439263
 30
0.0
 10
-135.753493885
 20
76.6052627483
 30
0.0
 10
-137.2436145996
 20
76.1867504583
 30
0.0
  0
SPLINE
  5
393
100
AcDbEntity
  8
0
100
AcDbSpline
 62
7
  6
CONTINUOUS
 70
0
 71
3
 72
9
 73
5
 74
0
 42
0.0000001
 43
0.0000001
 44
0.0000000001
 40
0.0
 40
0.0
 40
0.0
 40
0.0
 40
0.2451539801
 40
1.0
 40
1.0
 40
1.0
 40
1.0
 10
-140.5916265887
 20
76.287093278
 30
0.0
 10
-141.2715068618
 20
75.903625504
 30
0.0
 10
-143.999240944
 20
74.259479612
 30
0.0
 10
-146.5394012657
 20
72.308480171
 30
0.0
 10
-148.3291191718
 20
70.7043184977
 30
0.0
  0
SPLINE
  5
394
100
AcDbEntity
  8
0
100
AcDbSpline
 62
7
  6
CONTINUOUS
 70
0
 71
3
 72
9
 73
5
 74
0
 42
0.0000001
 43
0.0000001
 44
0.0000000001
 40
0.0
 40
0.0
 40
0.0
 40
0.0
 40
0.4931350279
 40
1.0
 40
1.0
 40
1.0
 40
1.0
 10
-162.2021325822
 20
44.9431579304
 30
0.0
 10
-162.2024316813
 20
46.7087263312
 30
0.0
 10
-161.8712614189
 20
50.2946571657
 30
0.0
 10
-160.9469499909
 20
53.7716016488
 30
0.0
 10
-160.3447759202
 20
55.4835057422
 30
0.0
  0
SPLINE
  5
395
100
AcDbEntity
  8
0
100
AcDbSpline
 62
7
  6
CONTINUOUS
 70
0
 71
3
 72
9
 73
5
 74
0
 42
0.0000001
 43
0.0000001
 44
0.0000000001
 40
0.0
 40
0.0
 40
0.0
 40
0.0
 40
0.5010400544
 40
1.0
 40
1.0
 40
1.0
 40
1.0
 10
-160.3447759202
 20
55.4835057422
 30
0.0
 10
-159.4998888748
 20
57.8854118714
 30
0.0
 10
-157.2797414269
 20
62.5055974389
 30
0.0
 10
-154.1301232422
 20
66.5512213906
 30
0.0
 10
-152.358116658
 20
68.3648537335
 30
0.0
  0
SPLINE
  5
396
100
AcDbEntity
  8
0
100
AcDbSpline
 62
7
  6
CONTINUOUS
 70
0
 71
3
 72
9
 73
5
 74
0
 42
0.0000001
 43
0.0000001
 44
0.0000000001
 40
0.0
 40
0.0
 40
0.0
 40
0.0
 40
0.5094296713
 40
1.0
 40
1.0
 40
1.0
 40
1.0
 10
-152.358116658
 20
68.3648537335
 30
0.0
 10
-150.9084006709
 20
69.8486246322
 30
0.0
 10
-147.7857614402
 20
72.5056345083
 30
0.0
 10
-144.184205157
 20
74.4819822057
 30
0.0
 10
-142.3339323971
 20
75.2349920178
 30
0.0
  0
SPLINE
  5
397
100
AcDbEntity
  8
0
100
AcDbSpline
 62
7
  6
CONTINUOUS
 70
0
 71
3
 72
9
 73
5
 74
0
 42
0.0000001
 43
0.0000001
 44
0.0000000001
 40
0.0
 40
0.0
 40
0.0
 40
0.0
 40
0.5051311896
 40
1.0
 40
1.0
 40
1.0
 40
1.0
 10
-139.3723971589
 20
76.2304844729
 30
0.0
 10
-138.3928361489
 20
76.491247397
 30
0.0
 10
-136.4180209368
 20
76.8835244476
 30
0.0
 10
-134.4067824682
 20
76.9991647664
 30
0.0
 10
-133.413836568
 20
76.982787982
 30
0.0
  0
SPLINE
  5
398
100
AcDbEntity
  8
0
100
AcDbSpline
 62
7
  6
CONTINUOUS
 70
0
 71
3
 72
9
 73
5
 74
0
 42
0.0000001
 43
0.0000001
 44
0.0000000001
 40
0.0
 40
0.0
 40
0.0
 40
0.0
 40
0.4830226485
 40
1.0
 40
1.0
 40
1.0
 40
1.0
 10
-149.671884759
 20
69.2976473653
 30
0.0
 10
-147.2767284004
 20
67.9163744332
 30
0.0
 10
-142.3804410878
 20
64.9478323109
 30
0.0
 10
-137.5962159922
 20
61.8028211137
 30
0.0
 10
-135.1494182601
 20
60.1383592974
 30
0.0
  0
SPLINE
  5
399
100
AcDbEntity
  8
0
100
AcDbSpline
 62
7
  6
CONTINUOUS
 70
0
 71
3
 72
9
 73
5
 74
0
 42
0.0000001
 43
0.0000001
 44
0.0000000001
 40
0.0
 40
0.0
 40
0.0
 40
0.0
 40
0.4784860656
 40
1.0
 40
1.0
 40
1.0
 40
1.0
 10
-139.0052952497
 20
75.4526279202
 30
0.0
 10
-139.1331264536
 20
74.9406895375
 30
0.0
 10
-139.2875989823
 20
73.8415067335
 30
0.0
 10
-139.2618997302
 20
72.7349291127
 30
0.0
 10
-139.2117072052
 20
72.1620172062
 30
0.0
  0
SPLINE
  5
39A
100
AcDbEntity
  8
0
100
AcDbSpline
 62
7
  6
CONTINUOUS
 70
0
 71
3
 72
9
 73
5
 74
0
 42
0.0000001
 43
0.0000001
 44
0.0000000001
 40
0.0
 40
0.0
 40
0.0
 40
0.0
 40
0.2587578463
 40
1.0
 40
1.0
 40
1.0
 40
1.0
 10
-139.2116886922
 20
72.1620322037
 30
0.0
 10
-139.2571069251
 20
72.4872291245
 30
0.0
 10
-139.3995196342
 20
73.7481239264
 30
0.0
 10
-139.4043905552
 20
75.0266283841
 30
0.0
 10
-139.3126044859
 20
75.9627456684
 30
0.0
  0
SPLINE
  5
39B
100
AcDbEntity
  8
0
100
AcDbSpline
 62
7
  6
CONTINUOUS
 70
0
 71
3
 72
10
 73
6
 74
0
 42
0.0000001
 43
0.0000001
 44
0.0000000001
 40
0.0
 40
0.0
 40
0.0
 40
0.0
 40
0.2353690974
 40
0.4807097512
 40
1.0
 40
1.0
 40
1.0
 40
1.0
 10
-139.4505753078
 20
76.1353821705
 30
0.0
 10
-139.511837777
 20
76.1907137866
 30
0.0
 10
-139.6580180179
 20
76.281933861
 30
0.0
 10
-140.0013008634
 20
76.3702832636
 30
0.0
 10
-140.2798825052
 20
76.3294946169
 30
0.0
 10
-140.4511292216
 20
76.267476959
 30
0.0
  0
SPLINE
  5
39C
100
AcDbEntity
  8
0
100
AcDbSpline
 62
7
  6
CONTINUOUS
 70
0
 71
3
 72
9
 73
5
 74
0
 42
0.0000001
 43
0.0000001
 44
0.0000000001
 40
0.0
 40
0.0
 40
0.0
 40
0.0
 40
0.5653759687
 40
1.0
 40
1.0
 40
1.0
 40
1.0
 10
-140.4509148031
 20
76.2673530988
 30
0.0
 10
-140.4748760908
 20
76.2811656631
 30
0.0
 10
-140.5201631279
 20
76.3021996254
 30
0.0
 10
-140.5730661528
 20
76.29746338
 30
0.0
 10
-140.5915527924
 20
76.2869618651
 30
0.0
  0
SPLINE
  5
39D
100
AcDbEntity
  8
0
100
AcDbSpline
 62
7
  6
CONTINUOUS
 70
0
 71
3
 72
9
 73
5
 74
0
 42
0.0000001
 43
0.0000001
 44
0.0000000001
 40
0.0
 40
0.0
 40
0.0
 40
0.0
 40
0.2407981943
 40
1.0
 40
1.0
 40
1.0
 40
1.0
 10
-138.1240137656
 20
75.8614595372
 30
0.0
 10
-136.9579847911
 20
75.1861412626
 30
0.0
 10
-132.1783722072
 20
72.2737463058
 30
0.0
 10
-127.6501360141
 20
68.9565245494
 30
0.0
 10
-124.3560157807
 20
66.2737063629
 30
0.0
  0
SPLINE
  5
39E
100
AcDbEntity
  8
0
100
AcDbSpline
 62
7
  6
CONTINUOUS
 70
0
 71
3
 72
15
 73
11
 74
0
 42
0.0000001
 43
0.0000001
 44
0.0000000001
 40
0.0
 40
0.0
 40
0.0
 40
0.0
 40
0.2419229073
 40
0.487017808
 40
0.6115133765
 40
0.7381951826
 40
0.8686998938
 40
0.936391807
 40
0.9704745998
 40
1.0
 40
1.0
 40
1.0
 40
1.0
 10
-158.4218366206
 20
32.2713971881
 30
0.0
 10
-158.399290697
 20
32.2366028283
 30
0.0
 10
-158.3535089375
 20
32.166813271
 30
0.0
 10
-158.2948092628
 20
32.0799851278
 30
0.0
 10
-158.2460751594
 20
32.010284753
 30
0.0
 10
-158.2078077875
 20
31.957212823
 30
0.0
 10
-158.1741394846
 20
31.9129130244
 30
0.0
 10
-158.1487861562
 20
31.8820938744
 30
0.0
 10
-158.1332787907
 20
31.8659216854
 30
0.0
 10
-158.1252348238
 20
31.8582716275
 30
0.0
 10
-158.1207773792
 20
31.8558768381
 30
0.0
  0
SPLINE
  5
39F
100
AcDbEntity
  8
0
100
AcDbSpline
 62
7
  6
CONTINUOUS
 70
0
 71
3
 72
9
 73
5
 74
0
 42
0.0000001
 43
0.0000001
 44
0.0000000001
 40
0.0
 40
0.0
 40
0.0
 40
0.0
 40
0.2450837235
 40
1.0
 40
1.0
 40
1.0
 40
1.0
 10
-140.5450316355
 20
76.2140793472
 30
0.0
 10
-141.2225840833
 20
75.8295351272
 30
0.0
 10
-143.9416884583
 20
74.1811721956
 30
0.0
 10
-146.47357725
 20
72.2282227741
 30
0.0
 10
-148.2576549347
 20
70.6233105276
 30
0.0
  0
SPLINE
  5
3A0
100
AcDbEntity
  8
0
100
AcDbSpline
 62
7
  6
CONTINUOUS
 70
0
 71
3
 72
8
 73
4
 74
0
 42
0.0000001
 43
0.0000001
 44
0.0000000001
 40
0.0
 40
0.0
 40
0.0
 40
0.0
 40
1.0
 40
1.0
 40
1.0
 40
1.0
 10
-148.5252428482
 20
70.3807491812
 30
0.0
 10
-148.6323286943
 20
70.2814161331
 30
0.0
 10
-148.7399671258
 20
70.1826795669
 30
0.0
 10
-148.8469780184
 20
70.0832657764
 30
0.0
  0
SPLINE
  5
3A1
100
AcDbEntity
  8
0
100
AcDbSpline
 62
7
  6
CONTINUOUS
 70
0
 71
3
 72
42
 73
38
 74
0
 42
0.0000001
 43
0.0000001
 44
0.0000000001
 40
0.0
 40
0.0
 40
0.0
 40
0.0
 40
0.1069567859
 40
0.2197265601
 40
0.33794005
 40
0.3989839355
 40
0.461257104
 40
0.5247177505
 40
0.5893250831
 40
0.6550393014
 40
0.7218214765
 40
0.7896328314
 40
0.8239125094
 40
0.8584342506
 40
0.8757841619
 40
0.8931924032
 40
0.9106581573
 40
0.9281805788
 40
0.936962809
 40
0.9457589857
 40
0.9545691903
 40
0.9633938212
 40
0.9678119443
 40
0.9722343915
 40
0.9766619638
 40
0.9810964556
 40
0.9855427044
 40
0.9877750883
 40
0.9900216721
 40
0.9911572468
 40
0.9923124656
 40
0.9935248247
 40
0.9942224777
 40
0.9949892762
 40
0.9963622612
 40
0.9976117608
 40
1.0
 40
1.0
 40
1.0
 40
1.0
 10
-139.2117056738
 20
72.1620229415
 30
0.0
 10
-139.1715452065
 20
71.7036834232
 30
0.0
 10
-139.0580271007
 20
70.7645422786
 30
0.0
 10
-138.790388043
 20
69.3347266158
 30
0.0
 10
-138.4814514495
 20
68.1161770804
 30
0.0
 10
-138.1806871184
 20
67.1215430017
 30
0.0
 10
-137.9251758082
 20
66.3596615573
 30
0.0
 10
-137.6423617321
 20
65.5911486102
 30
0.0
 10
-137.3325569923
 20
64.8171496798
 30
0.0
 10
-136.9962576579
 20
64.0387072551
 30
0.0
 10
-136.6341549942
 20
63.2567233006
 30
0.0
 10
-136.313204765
 20
62.6049556812
 30
0.0
 10
-136.0455683792
 20
62.0817634393
 30
0.0
 10
-135.8739208026
 20
61.753309109
 30
0.0
 10
-135.7346484698
 20
61.4898326736
 30
0.0
 10
-135.6292376047
 20
61.291447034
 30
0.0
 10
-135.523326951
 20
61.0924869814
 30
0.0
 10
-135.4350769889
 20
60.9261617291
 30
0.0
 10
-135.3648203734
 20
60.7925091908
 30
0.0
 10
-135.3124191401
 20
60.6918112778
 30
0.0
 10
-135.2605804073
 20
60.5906172668
 30
0.0
 10
-135.2181673494
 20
60.5057579191
 30
0.0
 10
-135.1850359823
 20
60.4373691547
 30
0.0
 10
-135.160723627
 20
60.385729314
 30
0.0
 10
-135.137170301
 20
60.3336586695
 30
0.0
 10
-135.1147539828
 20
60.2809775727
 30
0.0
 10
-135.0975802823
 20
60.2363364544
 30
0.0
 10
-135.0856829133
 20
60.1998227743
 30
0.0
 10
-135.0794939994
 20
60.1764515497
 30
0.0
 10
-135.0760496145
 20
60.1572127834
 30
0.0
 10
-135.0748017628
 20
60.1421950225
 30
0.0
 10
-135.0758227614
 20
60.1288410733
 30
0.0
 10
-135.0813168232
 20
60.1182189608
 30
0.0
 10
-135.0929520505
 20
60.1123248673
 30
0.0
 10
-135.1080113383
 20
60.1155402352
 30
0.0
 10
-135.1277038371
 20
60.1239172268
 30
0.0
 10
-135.1409118049
 20
60.1325986887
 30
0.0
 10
-135.1494182601
 20
60.1383592974
 30
0.0
  0
SPLINE
  5
3A2
100
AcDbEntity
  8
0
100
AcDbSpline
 62
7
  6
CONTINUOUS
 70
0
 71
3
 72
9
 73
5
 74
0
 42
0.0000001
 43
0.0000001
 44
0.0000000001
 40
0.0
 40
0.0
 40
0.0
 40
0.0
 40
0.2542353794
 40
1.0
 40
1.0
 40
1.0
 40
1.0
 10
-135.1498492828
 20
60.1385853847
 30
0.0
 10
-135.3366839599
 20
60.4019024153
 30
0.0
 10
-136.0587629835
 20
61.4466238402
 30
0.0
 10
-136.7264793844
 20
62.5291503555
 30
0.0
 10
-137.1886424663
 20
63.3558165048
 30
0.0
  0
SPLINE
  5
3A3
100
AcDbEntity
  8
0
100
AcDbSpline
 62
7
  6
CONTINUOUS
 70
0
 71
3
 72
14
 73
10
 74
0
 42
0.0000001
 43
0.0000001
 44
0.0000000001
 40
0.0
 40
0.0
 40
0.0
 40
0.0
 40
0.2723205935
 40
0.4018665297
 40
0.5270768495
 40
0.6485239288
 40
0.7670569304
 40
0.8837951991
 40
1.0
 40
1.0
 40
1.0
 40
1.0
 10
-145.7460837847
 20
36.3065051264
 30
0.0
 10
-145.7457528205
 20
34.3774528427
 30
0.0
 10
-145.4355054678
 20
31.5110971609
 30
0.0
 10
-144.3226889829
 20
27.938128237
 30
0.0
 10
-143.1870701159
 20
25.5169497706
 30
0.0
 10
-141.7530777759
 20
23.3522357725
 30
0.0
 10
-140.0421242156
 20
21.4781161418
 30
0.0
 10
-138.0813402582
 20
19.9266019854
 30
0.0
 10
-136.6290356723
 20
19.1247993836
 30
0.0
 10
-135.8782586986
 20
18.7872542461
 30
0.0
  0
SPLINE
  5
3A4
100
AcDbEntity
  8
0
100
AcDbSpline
 62
7
  6
CONTINUOUS
 70
0
 71
3
 72
11
 73
7
 74
0
 42
0.0000001
 43
0.0000001
 44
0.0000000001
 40
0.0
 40
0.0
 40
0.0
 40
0.0
 40
0.2724098709
 40
0.5303249751
 40
0.772969642
 40
1.0
 40
1.0
 40
1.0
 40
1.0
 10
-137.1886424663
 20
63.3558165048
 30
0.0
 10
-137.7829293105
 20
64.4287256216
 30
0.0
 10
-138.8413330743
 20
66.5759849942
 30
0.0
 10
-139.9556173984
 20
69.885790872
 30
0.0
 10
-140.5314546598
 20
73.1222350557
 30
0.0
 10
-140.5550884376
 20
75.2522797885
 30
0.0
 10
-140.4509860117
 20
76.2691508176
 30
0.0
  0
SPLINE
  5
3A5
100
AcDbEntity
  8
0
100
AcDbSpline
 62
7
  6
CONTINUOUS
 70
0
 71
3
 72
14
 73
10
 74
0
 42
0.0000001
 43
0.0000001
 44
0.0000000001
 40
0.0
 40
0.0
 40
0.0
 40
0.0
 40
0.3854948249
 40
0.5534505835
 40
0.6966598047
 40
0.8109931124
 40
0.8952208368
 40
0.9533453876
 40
1.0
 40
1.0
 40
1.0
 40
1.0
 10
-157.4033521875
 20
30.904979492
 30
0.0
 10
-157.4427606151
 20
30.9415607859
 30
0.0
 10
-157.501229529
 20
30.9921879237
 30
0.0
 10
-157.5798121783
 20
31.0494676466
 30
0.0
 10
-157.6302117001
 20
31.0808755441
 30
0.0
 10
-157.6733557217
 20
31.1017114917
 30
0.0
 10
-157.7077398998
 20
31.1116858786
 30
0.0
 10
-157.7354895748
 20
31.1109004421
 30
0.0
 10
-157.7470841922
 20
31.0995861465
 30
0.0
 10
-157.7497705573
 20
31.0936589716
 30
0.0
  0
SPLINE
  5
3A6
100
AcDbEntity
  8
0
100
AcDbSpline
 62
7
  6
CONTINUOUS
 70
0
 71
3
 72
9
 73
5
 74
0
 42
0.0000001
 43
0.0000001
 44
0.0000000001
 40
0.0
 40
0.0
 40
0.0
 40
0.0
 40
0.4910341209
 40
1.0
 40
1.0
 40
1.0
 40
1.0
 10
-158.1207773792
 20
31.8558768381
 30
0.0
 10
-155.7703810339
 20
30.5189238511
 30
0.0
 10
-150.8407905229
 20
28.0418114053
 30
0.0
 10
-145.7006213901
 20
26.0427988947
 30
0.0
 10
-143.0471622057
 20
25.1401683799
 30
0.0
  0
SPLINE
  5
3A7
100
AcDbEntity
  8
0
100
AcDbSpline
 62
7
  6
CONTINUOUS
 70
0
 71
3
 72
11
 73
7
 74
0
 42
0.0000001
 43
0.0000001
 44
0.0000000001
 40
0.0
 40
0.0
 40
0.0
 40
0.0
 40
0.3320971099
 40
0.6049442218
 40
0.8135020917
 40
1.0
 40
1.0
 40
1.0
 40
1.0
 10
-161.0226649954
 20
42.6278681368
 30
0.0
 10
-161.0467042596
 20
42.6718079484
 30
0.0
 10
-161.0973835471
 20
42.7485573415
 30
0.0
 10
-161.188289824
 20
42.8332383474
 30
0.0
 10
-161.2904029312
 20
42.8662959175
 30
0.0
 10
-161.3495699908
 20
42.8384044688
 30
0.0
 10
-161.3703323839
 20
42.8194293988
 30
0.0
  0
SPLINE
  5
3A8
100
AcDbEntity
  8
0
100
AcDbSpline
 62
7
  6
CONTINUOUS
 70
0
 71
3
 72
9
 73
5
 74
0
 42
0.0000001
 43
0.0000001
 44
0.0000000001
 40
0.0
 40
0.0
 40
0.0
 40
0.0
 40
0.4847421432
 40
1.0
 40
1.0
 40
1.0
 40
1.0
 10
-161.2175675478
 20
43.8898152626
 30
0.0
 10
-158.8282852566
 20
42.5261736595
 30
0.0
 10
-153.8030806885
 20
39.8797532091
 30
0.0
 10
-148.6337907767
 20
37.5298577172
 30
0.0
 10
-145.9417675862
 20
36.3879012812
 30
0.0
  0
SPLINE
  5
3A9
100
AcDbEntity
  8
0
100
AcDbSpline
 62
7
  6
CONTINUOUS
 70
0
 71
3
 72
14
 73
10
 74
0
 42
0.0000001
 43
0.0000001
 44
0.0000000001
 40
0.0
 40
0.0
 40
0.0
 40
0.0
 40
0.1159314537
 40
0.2326643924
 40
0.3513625766
 40
0.4730220723
 40
0.5984089007
 40
0.7280054039
 40
1.0
 40
1.0
 40
1.0
 40
1.0
 10
-135.5218312024
 20
19.6639474391
 30
0.0
 10
-136.2061878318
 20
20.0079973824
 30
0.0
 10
-137.5270529283
 20
20.8093256417
 30
0.0
 10
-139.3029940959
 20
22.3185927422
 30
0.0
 10
-140.8493902418
 20
24.1126992897
 30
0.0
 10
-142.1433005289
 20
26.1634438119
 30
0.0
 10
-143.1669063591
 20
28.4405116807
 30
0.0
 10
-144.1686135356
 20
31.7827954325
 30
0.0
 10
-144.4483671358
 20
34.4530769115
 30
0.0
 10
-144.4486715767
 20
36.2501773355
 30
0.0
  0
SPLINE
  5
3AA
100
AcDbEntity
  8
0
100
AcDbSpline
 62
7
  6
CONTINUOUS
 70
0
 71
3
 72
20
 73
16
 74
0
 42
0.0000001
 43
0.0000001
 44
0.0000000001
 40
0.0
 40
0.0
 40
0.0
 40
0.0
 40
0.1307995243
 40
0.1986263998
 40
0.2673336782
 40
0.4049143021
 40
0.4728357619
 40
0.5394013326
 40
0.6665561092
 40
0.726878639
 40
0.7848699753
 40
0.8407095174
 40
0.8947780002
 40
0.9476407539
 40
1.0
 40
1.0
 40
1.0
 40
1.0
 10
-144.4482247925
 20
36.4064298934
 30
0.0
 10
-144.435038353
 20
38.647773602
 30
0.0
 10
-143.972393851
 20
42.0621407594
 30
0.0
 10
-142.6121183076
 20
46.4424937352
 30
0.0
 10
-140.7376874831
 20
50.7580767555
 30
0.0
 10
-138.1805143752
 20
54.7508936663
 30
0.0
 10
-135.0569052866
 20
58.2231438322
 30
0.0
 10
-131.6996915659
 20
61.2044767562
 30
0.0
 10
-127.9479215383
 20
63.5192114163
 30
0.0
 10
-123.9830004204
 20
64.9588759067
 30
0.0
 10
-121.0482463375
 20
65.5620190117
 30
0.0
 10
-118.1612713679
 20
65.6916546366
 30
0.0
 10
-115.3793957342
 20
65.3422991753
 30
0.0
 10
-112.7615751122
 20
64.5189735262
 30
0.0
 10
-111.1606172535
 20
63.6628688074
 30
0.0
 10
-110.4122078701
 20
63.167992176
 30
0.0
  0
SPLINE
  5
3AB
100
AcDbEntity
  8
0
100
AcDbSpline
 62
7
  6
CONTINUOUS
 70
0
 71
3
 72
9
 73
5
 74
0
 42
0.0000001
 43
0.0000001
 44
0.0000000001
 40
0.0
 40
0.0
 40
0.0
 40
0.0
 40
0.4912227603
 40
1.0
 40
1.0
 40
1.0
 40
1.0
 10
-128.2164021119
 20
77.3044946087
 30
0.0
 10
-129.6328138798
 20
77.3466799691
 30
0.0
 10
-132.5266816067
 20
77.2024462122
 30
0.0
 10
-135.3661450154
 20
76.6364483339
 30
0.0
 10
-136.7831349886
 20
76.2540574596
 30
0.0
  0
LINE
  5
3AC
100
AcDbEntity
  8
0
100
AcDbLine
 62
7
  6
CONTINUOUS
 10
-136.7831349886
 20
76.2540574596
 11
-137.0308218159
 21
76.1856136048
  0
SPLINE
  5
3AD
100
AcDbEntity
  8
0
100
AcDbSpline
 62
7
  6
CONTINUOUS
 70
0
 71
3
 72
19
 73
15
 74
0
 42
0.0000001
 43
0.0000001
 44
0.0000000001
 40
0.0
 40
0.0
 40
0.0
 40
0.0
 40
0.2484988275
 40
0.3728239386
 40
0.4972826762
 40
0.6219931354
 40
0.6845065108
 40
0.7471832899
 40
0.8101003436
 40
0.8733955348
 40
0.9052647866
 40
0.9373594055
 40
0.9697415919
 40
1.0
 40
1.0
 40
1.0
 40
1.0
 10
-161.3337585238
 20
45.6161922286
 30
0.0
 10
-161.3341790048
 20
45.4723687309
 30
0.0
 10
-161.3326711961
 20
45.2565728266
 30
0.0
 10
-161.3258228625
 20
44.9688359303
 30
0.0
 10
-161.3179877163
 20
44.7528039607
 30
0.0
 10
-161.3088510164
 20
44.5726331278
 30
0.0
 10
-161.2995326592
 20
44.4282967488
 30
0.0
 10
-161.2913068692
 20
44.3197315418
 30
0.0
 10
-161.281520582
 20
44.2108515174
 30
0.0
 10
-161.2714793397
 20
44.1198719291
 30
0.0
 10
-161.2616801364
 20
44.0469258115
 30
0.0
 10
-161.252453229
 20
43.991734096
 30
0.0
 10
-161.2421574085
 20
43.9385781227
 30
0.0
 10
-161.2296878418
 20
43.9024562118
 30
0.0
 10
-161.2175675478
 20
43.8898152626
 30
0.0
  0
SPLINE
  5
3AE
100
AcDbEntity
  8
0
100
AcDbSpline
 62
7
  6
CONTINUOUS
 70
0
 71
3
 72
9
 73
5
 74
0
 42
0.0000001
 43
0.0000001
 44
0.0000000001
 40
0.0
 40
0.0
 40
0.0
 40
0.0
 40
0.4957729715
 40
1.0
 40
1.0
 40
1.0
 40
1.0
 10
-126.5359155641
 20
75.5071684293
 30
0.0
 10
-124.2309633189
 20
74.1676692419
 30
0.0
 10
-119.7272162791
 20
71.2081137564
 30
0.0
 10
-115.5639634385
 20
67.7877007542
 30
0.0
 10
-113.558512435
 20
65.9629599583
 30
0.0
  0
SPLINE
  5
3AF
100
AcDbEntity
  8
0
100
AcDbSpline
 62
7
  6
CONTINUOUS
 70
0
 71
3
 72
9
 73
5
 74
0
 42
0.0000001
 43
0.0000001
 44
0.0000000001
 40
0.0
 40
0.0
 40
0.0
 40
0.0
 40
0.2251700315
 40
1.0
 40
1.0
 40
1.0
 40
1.0
 10
-127.3270387339
 20
75.7442718569
 30
0.0
 10
-127.3344010436
 20
75.7281247903
 30
0.0
 10
-127.363864807
 20
75.6549357113
 30
0.0
 10
-127.3816789919
 20
75.5774857226
 30
0.0
 10
-127.3914777644
 20
75.5172104014
 30
0.0
  0
SPLINE
  5
3B0
100
AcDbEntity
  8
0
100
AcDbSpline
 62
7
  6
CONTINUOUS
 70
0
 71
3
 72
27
 73
23
 74
0
 42
0.0000001
 43
0.0000001
 44
0.0000000001
 40
0.0
 40
0.0
 40
0.0
 40
0.0
 40
0.2390319794
 40
0.3624574436
 40
0.4881334199
 40
0.5516747628
 40
0.615567355
 40
0.679672247
 40
0.7437701883
 40
0.7757074001
 40
0.8074763159
 40
0.8389632182
 40
0.8699835938
 40
0.9002001358
 40
0.9288545623
 40
0.9419865339
 40
0.9479656917
 40
0.9532510935
 40
0.9573737948
 40
0.9685497609
 40
0.9856067791
 40
1.0
 40
1.0
 40
1.0
 40
1.0
 10
-114.527745961
 20
67.3838514533
 30
0.0
 10
-114.4352787461
 20
67.2661978799
 30
0.0
 10
-114.296606584
 20
67.0865754067
 30
0.0
 10
-114.1128071702
 20
66.842439823
 30
0.0
 10
-113.9964408373
 20
66.6850610296
 30
0.0
 10
-113.9031834629
 20
66.5569551415
 30
0.0
 10
-113.8331597817
 20
66.4596150367
 30
0.0
 10
-113.7635842091
 20
66.3615264461
 30
0.0
 10
-113.7062654113
 20
66.2792736425
 30
0.0
 10
-113.6610935388
 20
66.2132353557
 30
0.0
 10
-113.6278046972
 20
66.163804736
 30
0.0
 10
-113.5952929419
 20
66.1145470623
 30
0.0
 10
-113.563945833
 20
66.0656830941
 30
0.0
 10
-113.5344620708
 20
66.0177626678
 30
0.0
 10
-113.5122076255
 20
65.978490082
 30
0.0
 10
-113.4989530902
 20
65.9517434096
 30
0.0
 10
-113.4936070885
 20
65.9372730576
 30
0.0
 10
-113.4905862651
 20
65.9284955626
 30
0.0
 10
-113.492459964
 20
65.9129326427
 30
0.0
 10
-113.5197820596
 20
65.9294963761
 30
0.0
 10
-113.5361579044
 20
65.9431363642
 30
0.0
 10
-113.5518435792
 20
65.9569004791
 30
0.0
 10
-113.558512435
 20
65.9629599583
 30
0.0
  0
SPLINE
  5
3B1
100
AcDbEntity
  8
0
100
AcDbSpline
 62
7
  6
CONTINUOUS
 70
0
 71
3
 72
9
 73
5
 74
0
 42
0.0000001
 43
0.0000001
 44
0.0000000001
 40
0.0
 40
0.0
 40
0.0
 40
0.0
 40
0.2597664843
 40
1.0
 40
1.0
 40
1.0
 40
1.0
 10
-124.3549467857
 20
66.2729755205
 30
0.0
 10
-124.4994122029
 20
66.5002404425
 30
0.0
 10
-125.0475693377
 20
67.380140134
 30
0.0
 10
-125.5622853716
 20
68.281088805
 30
0.0
 10
-125.919591141
 20
68.960215007
 30
0.0
  0
SPLINE
  5
3B2
100
AcDbEntity
  8
0
100
AcDbSpline
 62
7
  6
CONTINUOUS
 70
0
 71
3
 72
14
 73
10
 74
0
 42
0.0000001
 43
0.0000001
 44
0.0000000001
 40
0.0
 40
0.0
 40
0.0
 40
0.0
 40
0.3301043435
 40
0.483858762
 40
0.626338544
 40
0.7521036996
 40
0.8500889369
 40
0.8949994315
 40
1.0
 40
1.0
 40
1.0
 40
1.0
 10
-126.5276943
 20
75.5198316769
 30
0.0
 10
-126.533820732
 20
75.5217847481
 30
0.0
 10
-126.5428012107
 20
75.5246071205
 30
0.0
 10
-126.5545413801
 20
75.5280416446
 30
0.0
 10
-126.5623577143
 20
75.5303099143
 30
0.0
 10
-126.5695871323
 20
75.5318733987
 30
0.0
 10
-126.5739763171
 20
75.5333418681
 30
0.0
 10
-126.5805655489
 20
75.5326762377
 30
0.0
 10
-126.5750439771
 20
75.5298741312
 30
0.0
 10
-126.5732675586
 20
75.5288603464
 30
0.0
  0
SPLINE
  5
3B3
100
AcDbEntity
  8
0
100
AcDbSpline
 62
7
  6
CONTINUOUS
 70
0
 71
3
 72
13
 73
9
 74
0
 42
0.0000001
 43
0.0000001
 44
0.0000000001
 40
0.0
 40
0.0
 40
0.0
 40
0.0
 40
0.3194847503
 40
0.5945466409
 40
0.7142985986
 40
0.8218338049
 40
0.9170452388
 40
1.0
 40
1.0
 40
1.0
 40
1.0
 10
-125.919591141
 20
68.960215007
 30
0.0
 10
-126.3505467187
 20
69.7884447693
 30
0.0
 10
-127.1016631784
 20
71.357957513
 30
0.0
 10
-127.7845061558
 20
73.3380243538
 30
0.0
 10
-128.0987143795
 20
74.7735665051
 30
0.0
 10
-128.2194661783
 20
75.7097213538
 30
0.0
 10
-128.2409757775
 20
76.5459133623
 30
0.0
 10
-128.1802880001
 20
77.0662630753
 30
0.0
 10
-128.1261043625
 20
77.3025519332
 30
0.0
  0
SPLINE
  5
3B4
100
AcDbEntity
  8
0
100
AcDbSpline
 62
7
  6
CONTINUOUS
 70
0
 71
3
 72
11
 73
7
 74
0
 42
0.0000001
 43
0.0000001
 44
0.0000000001
 40
0.0
 40
0.0
 40
0.0
 40
0.0
 40
0.2501440814
 40
0.4976620704
 40
0.7464681488
 40
1.0
 40
1.0
 40
1.0
 40
1.0
 10
-127.3703511618
 20
76.704052555
 30
0.0
 10
-127.3968506043
 20
76.7843156093
 30
0.0
 10
-127.4742319553
 20
76.9370251041
 30
0.0
 10
-127.6519739663
 20
77.1208541346
 30
0.0
 10
-127.8747608725
 20
77.2479843702
 30
0.0
 10
-128.0412861315
 20
77.2907992828
 30
0.0
 10
-128.1262464135
 20
77.3017972728
 30
0.0
  0
SPLINE
  5
3B5
100
AcDbEntity
  8
0
100
AcDbSpline
 62
7
  6
CONTINUOUS
 70
0
 71
3
 72
41
 73
37
 74
0
 42
0.0000001
 43
0.0000001
 44
0.0000000001
 40
0.0
 40
0.0
 40
0.0
 40
0.0
 40
0.0908468081
 40
0.192499754
 40
0.2472609669
 40
0.3044458999
 40
0.3640690538
 40
0.426208849
 40
0.4907208081
 40
0.5574720922
 40
0.6263915787
 40
0.69740618
 40
0.7704070683
 40
0.8076002627
 40
0.8452111304
 40
0.8641569246
 40
0.883183265
 40
0.9022752258
 40
0.9214098438
 40
0.9309819967
 40
0.9405479852
 40
0.9500966777
 40
0.959610464
 40
0.9690582768
 40
0.9737400475
 40
0.9783757414
 40
0.9829385459
 40
0.9851788133
 40
0.9873806336
 40
0.9895749194
 40
0.9910131143
 40
0.9931077222
 40
0.9949677103
 40
0.9966883956
 40
0.998325129
 40
1.0
 40
1.0
 40
1.0
 40
1.0
 10
-127.1887374904
 20
73.757317093
 30
0.0
 10
-127.1341513867
 20
73.5162987905
 30
0.0
 10
-127.0082905642
 20
73.007850709
 30
0.0
 10
-126.8198124795
 20
72.3619744087
 30
0.0
 10
-126.639920279
 20
71.8094666536
 30
0.0
 10
-126.489612444
 20
71.3676148766
 30
0.0
 10
-126.3250215519
 20
70.9094688688
 30
0.0
 10
-126.1423791791
 20
70.4367798905
 30
0.0
 10
-125.9440898432
 20
69.9494601674
 30
0.0
 10
-125.7311698076
 20
69.4482509468
 30
0.0
 10
-125.5035989842
 20
68.9341164792
 30
0.0
 10
-125.261591964
 20
68.4078480569
 30
0.0
 10
-125.0499942414
 20
67.9626377961
 30
0.0
 10
-124.8749989557
 20
67.6006577788
 30
0.0
 10
-124.7633772528
 20
67.3713642815
 30
0.0
 10
-124.6734042414
 20
67.1864944086
 30
0.0
 10
-124.605651768
 20
67.0468346473
 30
0.0
 10
-124.5380871288
 20
66.9065134802
 30
0.0
 10
-124.4823284944
 20
66.7890518299
 30
0.0
 10
-124.4384087813
 20
66.6946586258
 30
0.0
 10
-124.4059976704
 20
66.6236729168
 30
0.0
 10
-124.374365029
 20
66.5525087242
 30
0.0
 10
-124.3439209624
 20
66.4811780773
 30
0.0
 10
-124.3200407435
 20
66.421443877
 30
0.0
 10
-124.3026281085
 20
66.3734600127
 30
0.0
 10
-124.2909083838
 20
66.3375400107
 30
0.0
 10
-124.2828458457
 20
66.3075148793
 30
0.0
 10
-124.2784372994
 20
66.283267553
 30
0.0
 10
-124.2772712519
 20
66.2655668696
 30
0.0
 10
-124.278756011
 20
66.2484567418
 30
0.0
 10
-124.2930580526
 20
66.2385821742
 30
0.0
 10
-124.3083554448
 20
66.2432333307
 30
0.0
 10
-124.3218496312
 20
66.2501408164
 30
0.0
 10
-124.3339670751
 20
66.257718815
 30
0.0
 10
-124.3446179491
 20
66.2663165753
 30
0.0
 10
-124.3524955053
 20
66.2708141663
 30
0.0
 10
-124.3560157807
 20
66.2737063629
 30
0.0
  0
SPLINE
  5
3B6
100
AcDbEntity
  8
0
100
AcDbSpline
 62
7
  6
CONTINUOUS
 70
0
 71
3
 72
9
 73
5
 74
0
 42
0.0000001
 43
0.0000001
 44
0.0000000001
 40
0.0
 40
0.0
 40
0.0
 40
0.0
 40
0.26212615
 40
1.0
 40
1.0
 40
1.0
 40
1.0
 10
-127.4020084564
 20
75.8592597865
 30
0.0
 10
-127.3987757203
 20
75.9093875916
 30
0.0
 10
-127.3835066313
 20
76.1004039354
 30
0.0
 10
-127.3560425562
 20
76.2905856352
 30
0.0
 10
-127.327123047
 20
76.4289974553
 30
0.0
  0
SPLINE
  5
3B7
100
AcDbEntity
  8
0
100
AcDbSpline
 62
7
  6
CONTINUOUS
 70
0
 71
3
 72
20
 73
16
 74
0
 42
0.0000001
 43
0.0000001
 44
0.0000000001
 40
0.0
 40
0.0
 40
0.0
 40
0.0
 40
0.262839792
 40
0.3935778244
 40
0.5235583338
 40
0.6523398247
 40
0.7790137381
 40
0.8409293243
 40
0.9010410349
 40
0.9299082648
 40
0.9572881683
 40
0.9700017602
 40
0.9817294782
 40
0.9910954394
 40
1.0
 40
1.0
 40
1.0
 40
1.0
 10
-137.2438008806
 20
76.1867454605
 30
0.0
 10
-137.324093379
 20
76.1641974145
 30
0.0
 10
-137.4440101471
 20
76.1292926682
 30
0.0
 10
-137.6027013287
 20
76.0801476687
 30
0.0
 10
-137.7202724501
 20
76.0420413939
 30
0.0
 10
-137.835990512
 20
76.002451866
 30
0.0
 10
-137.9305651278
 20
75.9678182234
 30
0.0
 10
-138.0038688343
 20
75.9385775108
 30
0.0
 10
-138.0478327443
 20
75.9196046243
 30
0.0
 10
-138.0810726267
 20
75.9034611793
 30
0.0
 10
-138.1002932341
 20
75.8931076611
 30
0.0
 10
-138.1141363864
 20
75.883940297
 30
0.0
 10
-138.1223866306
 20
75.87768447
 30
0.0
 10
-138.1295712308
 20
75.8696142312
 30
0.0
 10
-138.1261524979
 20
75.8633057998
 30
0.0
 10
-138.1240137656
 20
75.8614595372
 30
0.0
  0
SPLINE
  5
3B8
100
AcDbEntity
  8
0
100
AcDbSpline
 62
7
  6
CONTINUOUS
 70
0
 71
3
 72
11
 73
7
 74
0
 42
0.0000001
 43
0.0000001
 44
0.0000000001
 40
0.0
 40
0.0
 40
0.0
 40
0.0
 40
0.286676011
 40
0.5368904807
 40
0.7647413215
 40
1.0
 40
1.0
 40
1.0
 40
1.0
 10
-158.4594232124
 20
56.3330740025
 30
0.0
 10
-158.4677554927
 20
56.3708266455
 30
0.0
 10
-158.4913223093
 20
56.4403232359
 30
0.0
 10
-158.5560828128
 20
56.5242904204
 30
0.0
 10
-158.6471717813
 20
56.5664458283
 30
0.0
 10
-158.7120086208
 20
56.5610952904
 30
0.0
 10
-158.7426415589
 20
56.5528352119
 30
0.0
  0
SPLINE
  5
3B9
100
AcDbEntity
  8
0
100
AcDbSpline
 62
7
  6
CONTINUOUS
 70
0
 71
3
 72
21
 73
17
 74
0
 42
0.0000001
 43
0.0000001
 44
0.0000000001
 40
0.0
 40
0.0
 40
0.0
 40
0.0
 40
0.1268751577
 40
0.2538094208
 40
0.3807602151
 40
0.5076572148
 40
0.6343733577
 40
0.6975916006
 40
0.7606429039
 40
0.8234190992
 40
0.8856922987
 40
0.9164785956
 40
0.9468019692
 40
0.976071843
 40
0.9895910485
 40
1.0
 40
1.0
 40
1.0
 40
1.0
 10
-148.329149514
 20
70.7043462743
 30
0.0
 10
-148.3907922339
 20
70.6490935882
 30
0.0
 10
-148.513479825
 20
70.537860934
 30
0.0
 10
-148.6955472028
 20
70.3688278579
 30
0.0
 10
-148.8754890658
 20
70.1975110917
 30
0.0
 10
-149.0529502077
 20
70.0238276024
 30
0.0
 10
-149.1983837708
 20
69.8769029076
 30
0.0
 10
-149.3127026618
 20
69.7578284825
 30
0.0
 10
-149.3970289155
 20
69.6678155858
 30
0.0
 10
-149.4794990821
 20
69.5768827857
 30
0.0
 10
-149.5461392307
 20
69.5001794246
 30
0.0
 10
-149.5970375929
 20
69.4375700949
 30
0.0
 10
-149.6328511811
 20
69.3913818647
 30
0.0
 10
-149.6596017417
 20
69.3498069729
 30
0.0
 10
-149.6754700533
 20
69.3223726732
 30
0.0
 10
-149.677941103
 20
69.3007204937
 30
0.0
 10
-149.671884759
 20
69.2976473653
 30
0.0
  0
SPLINE
  5
3BA
100
AcDbEntity
  8
0
100
AcDbSpline
 62
7
  6
CONTINUOUS
 70
0
 71
3
 72
24
 73
20
 74
0
 42
0.0000001
 43
0.0000001
 44
0.0000000001
 40
0.0
 40
0.0
 40
0.0
 40
0.0
 40
0.1256650519
 40
0.2513374604
 40
0.37701408
 40
0.5026904762
 40
0.5655268353
 40
0.6283595467
 40
0.6911855094
 40
0.7539986877
 40
0.8167855658
 40
0.8481601019
 40
0.8795102497
 40
0.9108152012
 40
0.9420210166
 40
0.9575411165
 40
0.9729255482
 40
0.9879214685
 40
1.0
 40
1.0
 40
1.0
 40
1.0
 10
-157.3048095565
 20
59.7438495396
 30
0.0
 10
-157.3459209141
 20
59.6562989265
 30
0.0
 10
-157.4271620891
 20
59.4807284674
 30
0.0
 10
-157.545946354
 20
59.215964572
 30
0.0
 10
-157.6614604651
 20
58.9497471719
 30
0.0
 10
-157.7547414229
 20
58.7266252498
 30
0.0
 10
-157.8272979845
 20
58.5472879687
 30
0.0
 10
-157.8805628909
 20
58.4123355185
 30
0.0
 10
-157.9325130461
 20
58.2768895942
 30
0.0
 10
-157.9828878
 20
58.1408875801
 30
0.0
 10
-158.0232094209
 20
58.0269840611
 30
0.0
 10
-158.0540330848
 20
57.9354308882
 30
0.0
 10
-158.0762166198
 20
57.8665263737
 30
0.0
 10
-158.0971122767
 20
57.7974101754
 30
0.0
 10
-158.1129583575
 20
57.7393293302
 30
0.0
 10
-158.1238086987
 20
57.6930323536
 30
0.0
 10
-158.1304650465
 20
57.6575183061
 30
0.0
 10
-158.1340974724
 20
57.6277247384
 30
0.0
 10
-158.1327707647
 20
57.6009693332
 30
0.0
 10
-158.1244483099
 20
57.5968262892
 30
0.0
  0
SPLINE
  5
3BB
100
AcDbEntity
  8
0
100
AcDbSpline
 62
7
  6
CONTINUOUS
 70
0
 71
3
 72
9
 73
5
 74
0
 42
0.0000001
 43
0.0000001
 44
0.0000000001
 40
0.0
 40
0.0
 40
0.0
 40
0.0
 40
0.50247476
 40
1.0
 40
1.0
 40
1.0
 40
1.0
 10
-150.4005732255
 20
68.3475464057
 30
0.0
 10
-150.3994089301
 20
68.3880723472
 30
0.0
 10
-150.4161762219
 20
68.473606597
 30
0.0
 10
-150.4873369691
 20
68.5256050977
 30
0.0
 10
-150.524948814
 20
68.5396348572
 30
0.0
  0
SPLINE
  5
3BC
100
AcDbEntity
  8
0
100
AcDbSpline
 62
7
  6
CONTINUOUS
 70
0
 71
3
 72
20
 73
16
 74
0
 42
0.0000001
 43
0.0000001
 44
0.0000000001
 40
0.0
 40
0.0
 40
0.0
 40
0.0
 40
0.052827158
 40
0.1056441414
 40
0.1592735871
 40
0.2144374266
 40
0.2716734935
 40
0.331293967
 40
0.3933828055
 40
0.4578107276
 40
0.59207958
 40
0.7304394088
 40
0.7997175005
 40
0.8681467334
 40
1.0
 40
1.0
 40
1.0
 40
1.0
 10
-108.7567892097
 20
63.0532040414
 30
0.0
 10
-109.4922763277
 20
63.695431546
 30
0.0
 10
-111.0906913853
 20
64.8421123264
 30
0.0
 10
-113.7875744765
 20
66.0664898122
 30
0.0
 10
-116.7111947054
 20
66.7616095236
 30
0.0
 10
-119.7924218928
 20
66.9136459363
 30
0.0
 10
-122.9624739803
 20
66.5232788371
 30
0.0
 10
-126.1524166308
 20
65.602565351
 30
0.0
 10
-129.2948469844
 20
64.1739488061
 30
0.0
 10
-133.3855570833
 20
61.6014964942
 30
0.0
 10
-137.9860318915
 20
57.3061119945
 30
0.0
 10
-141.5494231607
 20
52.0211351011
 30
0.0
 10
-143.6661317668
 20
47.366984683
 30
0.0
 10
-145.2055173542
 20
42.6216492547
 30
0.0
 10
-145.7311027623
 20
38.9071352362
 30
0.0
 10
-145.74552163
 20
36.4700930742
 30
0.0
  0
SPLINE
  5
3BD
100
AcDbEntity
  8
0
100
AcDbSpline
 62
7
  6
CONTINUOUS
 70
0
 71
3
 72
9
 73
5
 74
0
 42
0.0000001
 43
0.0000001
 44
0.0000000001
 40
0.0
 40
0.0
 40
0.0
 40
0.0
 40
0.2716155934
 40
1.0
 40
1.0
 40
1.0
 40
1.0
 10
-115.0087196753
 20
67.8452852766
 30
0.0
 10
-115.117050884
 20
67.9852752318
 30
0.0
 10
-115.5176194891
 20
68.4993192045
 30
0.0
 10
-115.9252948003
 20
69.007924742
 30
0.0
 10
-116.229393511
 20
69.3724108681
 30
0.0
  0
SPLINE
  5
3BE
100
AcDbEntity
  8
0
100
AcDbSpline
 62
7
  6
CONTINUOUS
 70
0
 71
3
 72
11
 73
7
 74
0
 42
0.0000001
 43
0.0000001
 44
0.0000000001
 40
0.0
 40
0.0
 40
0.0
 40
0.0
 40
0.3160316774
 40
0.5879611981
 40
0.8155781082
 40
1.0
 40
1.0
 40
1.0
 40
1.0
 10
-116.229393511
 20
69.3724108681
 30
0.0
 10
-116.3769948583
 20
69.549322645
 30
0.0
 10
-116.6547665397
 20
69.8758401055
 30
0.0
 10
-117.0556303862
 20
70.3153149753
 30
0.0
 10
-117.4120790723
 20
70.6643173633
 30
0.0
 10
-117.6462376364
 20
70.8541927314
 30
0.0
 10
-117.7579930644
 20
70.9289439417
 30
0.0
  0
SPLINE
  5
3BF
100
AcDbEntity
  8
0
100
AcDbSpline
 62
7
  6
CONTINUOUS
 70
0
 71
3
 72
11
 73
7
 74
0
 42
0.0000001
 43
0.0000001
 44
0.0000000001
 40
0.0
 40
0.0
 40
0.0
 40
0.0
 40
0.40261422
 40
0.7124195921
 40
0.9100021606
 40
1.0
 40
1.0
 40
1.0
 40
1.0
 10
-152.1511586109
 20
68.2275669151
 30
0.0
 10
-152.165744666
 20
68.235951409
 30
0.0
 10
-152.1914722387
 20
68.2503499332
 30
0.0
 10
-152.2267758105
 20
68.2670321437
 30
0.0
 10
-152.2482144229
 20
68.2755735589
 30
0.0
 10
-152.2630423859
 20
68.2768482701
 30
0.0
 10
-152.265321519
 20
68.2738567929
 30
0.0
  0
SPLINE
  5
3C0
100
AcDbEntity
  8
0
100
AcDbSpline
 62
7
  6
CONTINUOUS
 70
0
 71
3
 72
10
 73
6
 74
0
 42
0.0000001
 43
0.0000001
 44
0.0000000001
 40
0.0
 40
0.0
 40
0.0
 40
0.0
 40
0.4677423191
 40
0.7316881365
 40
1.0
 40
1.0
 40
1.0
 40
1.0
 10
-150.9327461325
 20
68.5463613409
 30
0.0
 10
-151.1187581189
 20
68.632609479
 30
0.0
 10
-151.4734192459
 20
68.6218048681
 30
0.0
 10
-151.8749958076
 20
68.4482980509
 30
0.0
 10
-152.0654001215
 20
68.3079512967
 30
0.0
 10
-152.1513733219
 20
68.2276907716
 30
0.0
  0
SPLINE
  5
3C1
100
AcDbEntity
  8
0
100
AcDbSpline
 62
7
  6
CONTINUOUS
 70
0
 71
3
 72
11
 73
7
 74
0
 42
0.0000001
 43
0.0000001
 44
0.0000000001
 40
0.0
 40
0.0
 40
0.0
 40
0.0
 40
0.2535995421
 40
0.5049685325
 40
0.7538876156
 40
1.0
 40
1.0
 40
1.0
 40
1.0
 10
-145.7963111851
 20
52.5337238673
 30
0.0
 10
-146.64953859
 20
53.7025670769
 30
0.0
 10
-148.233000622
 20
56.1187261411
 30
0.0
 10
-150.1278896617
 20
59.9944505639
 30
0.0
 10
-151.4835487337
 20
64.0443524961
 30
0.0
 10
-152.0072788766
 20
66.8330819271
 30
0.0
 10
-152.1516414078
 20
68.2300502085
 30
0.0
  0
SPLINE
  5
3C2
100
AcDbEntity
  8
0
100
AcDbSpline
 62
7
  6
CONTINUOUS
 70
0
 71
3
 72
41
 73
37
 74
0
 42
0.0000001
 43
0.0000001
 44
0.0000000001
 40
0.0
 40
0.0
 40
0.0
 40
0.0
 40
0.1186893765
 40
0.239581199
 40
0.3623861282
 40
0.4244351274
 40
0.4868749849
 40
0.5496840252
 40
0.612843495
 40
0.6763378899
 40
0.7401565381
 40
0.8043000914
 40
0.8364998037
 40
0.8687923912
 40
0.884977296
 40
0.9011913074
 40
0.9174386423
 40
0.9337261712
 40
0.9418885139
 40
0.9500663006
 40
0.9582632934
 40
0.9664856704
 40
0.9706096174
 40
0.9747449633
 40
0.9788954383
 40
0.9830675421
 40
0.9872745789
 40
0.9894007285
 40
0.9915546642
 40
0.9937673034
 40
0.994933435
 40
0.9955629966
 40
0.9961539012
 40
0.9971399879
 40
0.9980923261
 40
1.0
 40
1.0
 40
1.0
 40
1.0
 10
-149.9027885377
 20
63.4422036569
 30
0.0
 10
-149.7626075371
 20
62.8235103054
 30
0.0
 10
-149.4470355176
 20
61.5815880826
 30
0.0
 10
-148.851943778
 20
59.7371124016
 30
0.0
 10
-148.257318021
 20
58.2138378521
 30
0.0
 10
-147.7217555446
 20
57.0052805318
 30
0.0
 10
-147.2892060156
 20
56.1023090116
 30
0.0
 10
-146.8278567149
 20
55.2070397079
 30
0.0
 10
-146.3384722843
 20
54.3203428807
 30
0.0
 10
-145.8219214296
 20
53.4429320211
 30
0.0
 10
-145.2791727378
 20
52.5752833971
 30
0.0
 10
-144.8068403756
 20
51.8612397352
 30
0.0
 10
-144.4178387452
 20
51.2943189178
 30
0.0
 10
-144.170280959
 20
50.941246245
 30
0.0
 10
-143.970053207
 20
50.6593544829
 30
0.0
 10
-143.8187959134
 20
50.4478722842
 30
0.0
 10
-143.6667654948
 20
50.2362698937
 30
0.0
 10
-143.5397686859
 20
50.0596721304
 30
0.0
 10
-143.4382306418
 20
49.9178914416
 30
0.0
 10
-143.3621454971
 20
49.8110708416
 30
0.0
 10
-143.2863436306
 20
49.7036558188
 30
0.0
 10
-143.2236798339
 20
49.6134900148
 30
0.0
 10
-143.1740780384
 20
49.5406891395
 30
0.0
 10
-143.1371938613
 20
49.4855609497
 30
0.0
 10
-143.1008134485
 20
49.4297898786
 30
0.0
 10
-143.0651941205
 20
49.3730746431
 30
0.0
 10
-143.0366236857
 20
49.3247227123
 30
0.0
 10
-143.0150922839
 20
49.2847793182
 30
0.0
 10
-142.999986065
 20
49.2535415593
 30
0.0
 10
-142.9891054297
 20
49.2259215882
 30
0.0
 10
-142.984801445
 20
49.2048224544
 30
0.0
 10
-142.9857240616
 20
49.1917904374
 30
0.0
 10
-142.9936846698
 20
49.1816459574
 30
0.0
 10
-143.0087979407
 20
49.1821524712
 30
0.0
 10
-143.0279742492
 20
49.1880567531
 30
0.0
 10
-143.0424536521
 20
49.1947664106
 30
0.0
 10
-143.0500475594
 20
49.2015704686
 30
0.0
  0
SPLINE
  5
3C3
100
AcDbEntity
  8
0
100
AcDbSpline
 62
7
  6
CONTINUOUS
 70
0
 71
3
 72
9
 73
5
 74
0
 42
0.0000001
 43
0.0000001
 44
0.0000000001
 40
0.0
 40
0.0
 40
0.0
 40
0.0
 40
0.2516784267
 40
1.0
 40
1.0
 40
1.0
 40
1.0
 10
-149.9026992199
 20
63.4422808364
 30
0.0
 10
-150.0282866816
 20
63.8610387643
 30
0.0
 10
-150.4900649553
 20
65.5357380782
 30
0.0
 10
-150.7989758971
 20
67.2533680729
 30
0.0
 10
-150.9327401124
 20
68.5463590211
 30
0.0
  0
SPLINE
  5
3C4
100
AcDbEntity
  8
0
100
AcDbSpline
 62
7
  6
CONTINUOUS
 70
0
 71
3
 72
9
 73
5
 74
0
 42
0.0000001
 43
0.0000001
 44
0.0000000001
 40
0.0
 40
0.0
 40
0.0
 40
0.0
 40
0.2460669322
 40
1.0
 40
1.0
 40
1.0
 40
1.0
 10
-150.4005732567
 20
68.3475464172
 30
0.0
 10
-150.4121911312
 20
67.9426979122
 30
0.0
 10
-150.4022761378
 20
66.2959533069
 30
0.0
 10
-150.1741700999
 20
64.6531563563
 30
0.0
 10
-149.9027213383
 20
63.4422690971
 30
0.0
  0
SPLINE
  5
3C5
100
AcDbEntity
  8
0
100
AcDbSpline
 62
7
  6
CONTINUOUS
 70
0
 71
3
 72
9
 73
5
 74
0
 42
0.0000001
 43
0.0000001
 44
0.0000000001
 40
0.0
 40
0.0
 40
0.0
 40
0.0
 40
0.5010140069
 40
1.0
 40
1.0
 40
1.0
 40
1.0
 10
-150.9327461765
 20
68.5463617539
 30
0.0
 10
-150.9435321059
 20
68.5898730869
 30
0.0
 10
-150.9777031979
 20
68.6749334818
 30
0.0
 10
-151.0511513672
 20
68.7362141061
 30
0.0
 10
-151.0929609321
 20
68.7518760605
 30
0.0
  0
SPLINE
  5
3C6
100
AcDbEntity
  8
0
100
AcDbSpline
 62
7
  6
CONTINUOUS
 70
0
 71
3
 72
10
 73
6
 74
0
 42
0.0000001
 43
0.0000001
 44
0.0000000001
 40
0.0
 40
0.0
 40
0.0
 40
0.0
 40
0.3017408821
 40
0.5934472357
 40
1.0
 40
1.0
 40
1.0
 40
1.0
 10
-148.5711813906
 20
23.6202294101
 30
0.0
 10
-148.6117636491
 20
23.6255174951
 30
0.0
 10
-148.6923252499
 20
23.6412195557
 30
0.0
 10
-148.8153867018
 20
23.6805233463
 30
0.0
 10
-148.913757597
 20
23.7516771107
 30
0.0
 10
-148.9138399146
 20
23.8068181044
 30
0.0
  0
LINE
  5
3C7
100
AcDbEntity
  8
0
100
AcDbLine
 62
7
  6
CONTINUOUS
 10
-157.4791496598
 20
59.0792557916
 11
-157.6633897988
 21
58.6673480148
  0
SPLINE
  5
3C8
100
AcDbEntity
  8
0
100
AcDbSpline
 62
7
  6
CONTINUOUS
 70
0
 71
3
 72
11
 73
7
 74
0
 42
0.0000001
 43
0.0000001
 44
0.0000000001
 40
0.0
 40
0.0
 40
0.0
 40
0.0
 40
0.3076806423
 40
0.5729297066
 40
0.7983887123
 40
1.0
 40
1.0
 40
1.0
 40
1.0
 10
-148.571180521
 20
23.6202292125
 30
0.0
 10
-148.5783652063
 20
23.5433915261
 30
0.0
 10
-148.5776334504
 20
23.3984043122
 30
0.0
 10
-148.5303211728
 20
23.2015128371
 30
0.0
 10
-148.4384213837
 20
23.0498763366
 30
0.0
 10
-148.3475522668
 20
22.9860076965
 30
0.0
 10
-148.3006767258
 20
22.9670380599
 30
0.0
  0
SPLINE
  5
3C9
100
AcDbEntity
  8
0
100
AcDbSpline
 62
7
  6
CONTINUOUS
 70
0
 71
3
 72
10
 73
6
 74
0
 42
0.0000001
 43
0.0000001
 44
0.0000000001
 40
0.0
 40
0.0
 40
0.0
 40
0.0
 40
0.3533113069
 40
0.6397172556
 40
1.0
 40
1.0
 40
1.0
 40
1.0
 10
-160.0916928952
 20
55.3365693519
 30
0.0
 10
-160.1057975183
 20
55.3446524344
 30
0.0
 10
-160.1309361143
 20
55.3608142162
 30
0.0
 10
-160.1656605516
 20
55.3886689606
 30
0.0
 10
-160.1849383284
 20
55.4188150302
 30
0.0
 10
-160.1813519801
 20
55.4349998031
 30
0.0
  0
SPLINE
  5
3CA
100
AcDbEntity
  8
0
100
AcDbSpline
 62
7
  6
CONTINUOUS
 70
0
 71
3
 72
10
 73
6
 74
0
 42
0.0000001
 43
0.0000001
 44
0.0000000001
 40
0.0
 40
0.0
 40
0.0
 40
0.0
 40
0.2417054194
 40
0.5004341649
 40
1.0
 40
1.0
 40
1.0
 40
1.0
 10
-159.0739672386
 20
56.1671676588
 30
0.0
 10
-159.1813884165
 20
56.1485946695
 30
0.0
 10
-159.3972595124
 20
56.0700173009
 30
0.0
 10
-159.7743239563
 20
55.8197953298
 30
0.0
 10
-159.9980254316
 20
55.5415185775
 30
0.0
 10
-160.0919078571
 20
55.3366930367
 30
0.0
  0
SPLINE
  5
3CB
100
AcDbEntity
  8
0
100
AcDbSpline
 62
7
  6
CONTINUOUS
 70
0
 71
3
 72
11
 73
7
 74
0
 42
0.0000001
 43
0.0000001
 44
0.0000000001
 40
0.0
 40
0.0
 40
0.0
 40
0.0
 40
0.2451254318
 40
0.4937272644
 40
0.7455183181
 40
1.0
 40
1.0
 40
1.0
 40
1.0
 10
-149.4360089857
 20
39.39356213
 30
0.0
 10
-150.5790873543
 20
40.4842953897
 30
0.0
 10
-152.7800478151
 20
42.7917469412
 30
0.0
 10
-155.7009216503
 20
46.6203028573
 30
0.0
 10
-158.1968041091
 20
50.8086614568
 30
0.0
 10
-159.5288661604
 20
53.7990585359
 30
0.0
 10
-160.0928894952
 20
55.3393207051
 30
0.0
  0
SPLINE
  5
3CC
100
AcDbEntity
  8
0
100
AcDbSpline
 62
7
  6
CONTINUOUS
 70
0
 71
3
 72
41
 73
37
 74
0
 42
0.0000001
 43
0.0000001
 44
0.0000000001
 40
0.0
 40
0.0
 40
0.0
 40
0.0
 40
0.1248580372
 40
0.2499876398
 40
0.3751863002
 40
0.4377672106
 40
0.5003108229
 40
0.5628057926
 40
0.6252435179
 40
0.6876189187
 40
0.7499331789
 40
0.7810722378
 40
0.8122040209
 40
0.843335439
 40
0.8744780906
 40
0.9056529535
 40
0.9369036735
 40
0.9525878559
 40
0.9604563986
 40
0.9683521288
 40
0.9723141776
 40
0.9762891326
 40
0.9802812414
 40
0.9842975175
 40
0.9883511651
 40
0.9904003339
 40
0.9924739323
 40
0.9935247205
 40
0.994589821
 40
0.9956768083
 40
0.9967950755
 40
0.9973357048
 40
0.9977272597
 40
0.9984427664
 40
0.9992208686
 40
1.0
 40
1.0
 40
1.0
 40
1.0
 10
-156.3013110273
 20
50.12044831
 30
0.0
 10
-155.9917861479
 20
49.465903748
 30
0.0
 10
-155.3358012219
 20
48.1721936266
 30
0.0
 10
-154.2469307608
 20
46.287441358
 30
0.0
 10
-153.2540131651
 20
44.7674975618
 30
0.0
 10
-152.4116244306
 20
43.5851576971
 30
0.0
 10
-151.7568523843
 20
42.7160874291
 30
0.0
 10
-151.0800534305
 20
41.8651368492
 30
0.0
 10
-150.3821941904
 20
41.0326451437
 30
0.0
 10
-149.6642750694
 20
40.2187976911
 30
0.0
 10
-149.0499743711
 20
39.5559528235
 30
0.0
 10
-148.5496681642
 20
39.0347459778
 30
0.0
 10
-148.1702141079
 20
38.6482341923
 30
0.0
 10
-147.7866474493
 20
38.2657768865
 30
0.0
 10
-147.3991710181
 20
37.8869262974
 30
0.0
 10
-147.0080403486
 20
37.5108545314
 30
0.0
 10
-146.6796933115
 20
37.1988393951
 30
0.0
 10
-146.4494388495
 20
36.9797959305
 30
0.0
 10
-146.3177675162
 20
36.8536200232
 30
0.0
 10
-146.2355276249
 20
36.7741082924
 30
0.0
 10
-146.1699026219
 20
36.7098979524
 30
0.0
 10
-146.120724518
 20
36.6612475081
 30
0.0
 10
-146.0716969766
 20
36.6119996071
 30
0.0
 10
-146.0229085148
 20
36.5618756033
 30
0.0
 10
-145.9827125539
 20
36.5191161781
 30
0.0
 10
-145.9510905403
 20
36.4837822412
 30
0.0
 10
-145.9316437321
 20
36.4609330389
 30
0.0
 10
-145.9165112278
 20
36.4419150524
 30
0.0
 10
-145.905433805
 20
36.4270271959
 30
0.0
 10
-145.8949037877
 20
36.4111375974
 30
0.0
 10
-145.8876395784
 20
36.3972057214
 30
0.0
 10
-145.8846962216
 20
36.3848963548
 30
0.0
 10
-145.8908131478
 20
36.3761266458
 30
0.0
 10
-145.9032016498
 20
36.3767966426
 30
0.0
 10
-145.9153720584
 20
36.3805758507
 30
0.0
 10
-145.9245902175
 20
36.3815259713
 30
0.0
 10
-145.92880936
 20
36.3831421908
 30
0.0
  0
SPLINE
  5
3CD
100
AcDbEntity
  8
0
100
AcDbSpline
 62
7
  6
CONTINUOUS
 70
0
 71
3
 72
14
 73
10
 74
0
 42
0.0000001
 43
0.0000001
 44
0.0000000001
 40
0.0
 40
0.0
 40
0.0
 40
0.0
 40
0.3413877074
 40
0.5097328319
 40
0.6662489702
 40
0.801398831
 40
0.9053203735
 40
0.9716351183
 40
1.0
 40
1.0
 40
1.0
 40
1.0
 10
-157.7105316359
 20
30.2290261052
 30
0.0
 10
-157.7514735058
 20
30.2485118968
 30
0.0
 10
-157.8122923836
 20
30.2783396616
 30
0.0
 10
-157.8907695481
 20
30.3190838118
 30
0.0
 10
-157.9445120865
 20
30.348551219
 30
0.0
 10
-157.9894509631
 20
30.3746966887
 30
0.0
 10
-158.0244928043
 20
30.3978677514
 30
0.0
 10
-158.043308523
 20
30.412174851
 30
0.0
 10
-158.0538741434
 20
30.4244274583
 30
0.0
 10
-158.0523454861
 20
30.4278707469
 30
0.0
  0
SPLINE
  5
3CE
100
AcDbEntity
  8
0
100
AcDbSpline
 62
7
  6
CONTINUOUS
 70
0
 71
3
 72
9
 73
5
 74
0
 42
0.0000001
 43
0.0000001
 44
0.0000000001
 40
0.0
 40
0.0
 40
0.0
 40
0.0
 40
0.2525911058
 40
1.0
 40
1.0
 40
1.0
 40
1.0
 10
-157.4033526209
 20
30.9049785571
 30
0.0
 10
-156.9854827928
 20
30.517055079
 30
0.0
 10
-155.3001961109
 20
29.0147483948
 30
0.0
 10
-153.5015133285
 20
27.6413649977
 30
0.0
 10
-152.1125520805
 20
26.6836622319
 30
0.0
  0
SPLINE
  5
3CF
100
AcDbEntity
  8
0
100
AcDbSpline
 62
7
  6
CONTINUOUS
 70
0
 71
3
 72
9
 73
5
 74
0
 42
0.0000001
 43
0.0000001
 44
0.0000000001
 40
0.0
 40
0.0
 40
0.0
 40
0.0
 40
0.2474010019
 40
1.0
 40
1.0
 40
1.0
 40
1.0
 10
-152.1125563007
 20
26.683669842
 30
0.0
 10
-152.5879436029
 20
26.9533786784
 30
0.0
 10
-154.4968473711
 20
28.0655583817
 30
0.0
 10
-156.3527856424
 20
29.2693442947
 30
0.0
 10
-157.7105244927
 20
30.2290395439
 30
0.0
  0
SPLINE
  5
3D0
100
AcDbEntity
  8
0
100
AcDbSpline
 62
7
  6
CONTINUOUS
 70
0
 71
3
 72
9
 73
5
 74
0
 42
0.0000001
 43
0.0000001
 44
0.0000000001
 40
0.0
 40
0.0
 40
0.0
 40
0.0
 40
0.5095749561
 40
1.0
 40
1.0
 40
1.0
 40
1.0
 10
-152.1124913181
 20
26.6836213908
 30
0.0
 10
-150.1100963596
 20
25.3029514533
 30
0.0
 10
-145.9994413363
 20
22.8490565603
 30
0.0
 10
-141.6412223931
 20
20.8803411659
 30
0.0
 10
-139.4635410338
 20
20.0217041343
 30
0.0
  0
SPLINE
  5
3D1
100
AcDbEntity
  8
0
100
AcDbSpline
 62
7
  6
CONTINUOUS
 70
0
 71
3
 72
9
 73
5
 74
0
 42
0.0000001
 43
0.0000001
 44
0.0000000001
 40
0.0
 40
0.0
 40
0.0
 40
0.0
 40
0.3060924772
 40
1.0
 40
1.0
 40
1.0
 40
1.0
 10
-135.5785017808
 20
18.6132862872
 30
0.0
 10
-135.5339875354
 20
18.5984403692
 30
0.0
 10
-135.4330488181
 20
18.5648294322
 30
0.0
 10
-135.0411394468
 20
18.4347725298
 30
0.0
 10
-135.1429168398
 20
18.4657164717
 30
0.0
  0
SPLINE
  5
3D2
100
AcDbEntity
  8
0
100
AcDbSpline
 62
7
  6
CONTINUOUS
 70
0
 71
3
 72
9
 73
5
 74
0
 42
0.0000001
 43
0.0000001
 44
0.0000000001
 40
0.0
 40
0.0
 40
0.0
 40
0.0
 40
0.2403073898
 40
1.0
 40
1.0
 40
1.0
 40
1.0
 10
-139.5035812737
 20
19.9208778421
 30
0.0
 10
-140.5750000491
 20
20.3082400054
 30
0.0
 10
-145.0027995717
 20
22.0025569835
 30
0.0
 10
-149.2985616033
 20
24.0533235565
 30
0.0
 10
-152.4285140239
 20
25.8353314688
 30
0.0
  0
SPLINE
  5
3D3
100
AcDbEntity
  8
0
100
AcDbSpline
 62
7
  6
CONTINUOUS
 70
0
 71
3
 72
10
 73
6
 74
0
 42
0.0000001
 43
0.0000001
 44
0.0000000001
 40
0.0
 40
0.0
 40
0.0
 40
0.0
 40
0.2925636994
 40
0.5626165822
 40
1.0
 40
1.0
 40
1.0
 40
1.0
 10
-157.7105099997
 20
30.2290157086
 30
0.0
 10
-157.7545412853
 20
30.1511004315
 30
0.0
 10
-157.8263648693
 20
29.993139607
 30
0.0
 10
-157.9057543328
 20
29.698593542
 30
0.0
 10
-157.9051757005
 20
29.469444416
 30
0.0
 10
-157.8577510143
 20
29.3443345139
 30
0.0
  0
SPLINE
  5
3D4
100
AcDbEntity
  8
0
100
AcDbSpline
 62
7
  6
CONTINUOUS
 70
0
 71
3
 72
9
 73
5
 74
0
 42
0.0000001
 43
0.0000001
 44
0.0000000001
 40
0.0
 40
0.0
 40
0.0
 40
0.0
 40
0.2621738913
 40
1.0
 40
1.0
 40
1.0
 40
1.0
 10
-157.8577510143
 20
29.3443345139
 30
0.0
 10
-157.8531828246
 20
29.3322832847
 30
0.0
 10
-157.8340463868
 20
29.2870065398
 30
0.0
 10
-157.8076412627
 20
29.2446301931
 30
0.0
 10
-157.7841543955
 20
29.216991544
 30
0.0
  0
SPLINE
  5
3D5
100
AcDbEntity
  8
0
100
AcDbSpline
 62
7
  6
CONTINUOUS
 70
0
 71
3
 72
9
 73
5
 74
0
 42
0.0000001
 43
0.0000001
 44
0.0000000001
 40
0.0
 40
0.0
 40
0.0
 40
0.0
 40
0.5088342973
 40
1.0
 40
1.0
 40
1.0
 40
1.0
 10
-162.1448379275
 20
41.0485043923
 30
0.0
 10
-161.7840668404
 20
39.6242508378
 30
0.0
 10
-160.8889888863
 20
36.8681618464
 30
0.0
 10
-159.6038109893
 20
34.2685803092
 30
0.0
 10
-158.8772558587
 20
33.0506059297
 30
0.0
  0
LINE
  5
3D6
100
AcDbEntity
  8
0
100
AcDbLine
 62
7
  6
CONTINUOUS
 10
-158.8155498784
 20
32.9476850763
 11
-158.7369960999
 21
32.8189122087
  0
SPLINE
  5
3D7
100
AcDbEntity
  8
0
100
AcDbSpline
 62
7
  6
CONTINUOUS
 70
0
 71
3
 72
9
 73
5
 74
0
 42
0.0000001
 43
0.0000001
 44
0.0000000001
 40
0.0
 40
0.0
 40
0.0
 40
0.0
 40
0.2489335228
 40
1.0
 40
1.0
 40
1.0
 40
1.0
 10
-156.5419502059
 20
50.6396677385
 30
0.0
 10
-156.7878224414
 20
51.0805360335
 30
0.0
 10
-157.7412653354
 20
52.870395252
 30
0.0
 10
-158.5538926705
 20
54.7357407879
 30
0.0
 10
-159.0739602655
 20
56.1672320083
 30
0.0
  0
SPLINE
  5
3D8
100
AcDbEntity
  8
0
100
AcDbSpline
 62
7
  6
CONTINUOUS
 70
0
 71
3
 72
9
 73
5
 74
0
 42
0.0000001
 43
0.0000001
 44
0.0000000001
 40
0.0
 40
0.0
 40
0.0
 40
0.0
 40
0.2505270961
 40
1.0
 40
1.0
 40
1.0
 40
1.0
 10
-158.459407461
 20
56.3330110427
 30
0.0
 10
-158.3513485681
 20
55.8425509282
 30
0.0
 10
-157.8645809678
 20
53.8972614337
 30
0.0
 10
-157.1647667411
 20
52.0069218926
 30
0.0
 10
-156.5419331191
 20
50.639657985
 30
0.0
  0
SPLINE
  5
3D9
100
AcDbEntity
  8
0
100
AcDbSpline
 62
7
  6
CONTINUOUS
 70
0
 71
3
 72
11
 73
7
 74
0
 42
0.0000001
 43
0.0000001
 44
0.0000000001
 40
0.0
 40
0.0
 40
0.0
 40
0.0
 40
0.2749460337
 40
0.5445180299
 40
0.7880509295
 40
1.0
 40
1.0
 40
1.0
 40
1.0
 10
-159.0739664267
 20
56.1671663464
 30
0.0
 10
-159.0914158774
 20
56.1987624969
 30
0.0
 10
-159.1304451141
 20
56.2590593833
 30
0.0
 10
-159.2018601179
 20
56.3348941614
 30
0.0
 10
-159.2849216842
 20
56.3853279739
 30
0.0
 10
-159.3483220576
 20
56.3895138162
 30
0.0
 10
-159.3751803211
 20
56.3822460316
 30
0.0
  0
SPLINE
  5
3DA
100
AcDbEntity
  8
0
100
AcDbSpline
 62
7
  6
CONTINUOUS
 70
0
 71
3
 72
12
 73
8
 74
0
 42
0.0000001
 43
0.0000001
 44
0.0000000001
 40
0.0
 40
0.0
 40
0.0
 40
0.0
 40
0.3204213411
 40
0.627125759
 40
0.7584839621
 40
0.8653769811
 40
1.0
 40
1.0
 40
1.0
 40
1.0
 10
-161.554741141
 20
42.141970046
 30
0.0
 10
-161.5863197682
 20
42.1723449727
 30
0.0
 10
-161.6504499509
 20
42.2295292618
 30
0.0
 10
-161.733519412
 20
42.2915476097
 30
0.0
 10
-161.7996378728
 20
42.3277781831
 30
0.0
 10
-161.845267782
 20
42.3463418295
 30
0.0
 10
-161.885140942
 20
42.3492437377
 30
0.0
 10
-161.8987602475
 20
42.3368579732
 30
0.0
  0
SPLINE
  5
3DB
100
AcDbEntity
  8
0
100
AcDbSpline
 62
7
  6
CONTINUOUS
 70
0
 71
3
 72
9
 73
5
 74
0
 42
0.0000001
 43
0.0000001
 44
0.0000000001
 40
0.0
 40
0.0
 40
0.0
 40
0.0
 40
0.2521398667
 40
1.0
 40
1.0
 40
1.0
 40
1.0
 10
-161.0226649713
 20
42.6278681586
 30
0.0
 10
-160.7576361233
 20
42.1434607242
 30
0.0
 10
-159.6592977934
 20
40.2483054024
 30
0.0
 10
-158.3834772373
 20
38.4574852109
 30
0.0
 10
-157.3514628762
 20
37.1857878904
 30
0.0
  0
SPLINE
  5
3DC
100
AcDbEntity
  8
0
100
AcDbSpline
 62
7
  6
CONTINUOUS
 70
0
 71
3
 72
9
 73
5
 74
0
 42
0.0000001
 43
0.0000001
 44
0.0000000001
 40
0.0
 40
0.0
 40
0.0
 40
0.0
 40
0.247950702
 40
1.0
 40
1.0
 40
1.0
 40
1.0
 10
-157.3514265157
 20
37.1858283855
 30
0.0
 10
-157.7252228749
 20
37.5718300751
 30
0.0
 10
-159.2078437808
 20
39.1524734255
 30
0.0
 10
-160.5872321725
 20
40.8304823245
 30
0.0
 10
-161.5547550024
 20
42.1419603568
 30
0.0
  0
SPLINE
  5
3DD
100
AcDbEntity
  8
0
100
AcDbSpline
 62
7
  6
CONTINUOUS
 70
0
 71
3
 72
39
 73
35
 74
0
 42
0.0000001
 43
0.0000001
 44
0.0000000001
 40
0.0
 40
0.0
 40
0.0
 40
0.0
 40
0.1280924539
 40
0.2555638972
 40
0.3822194155
 40
0.4451928891
 40
0.5079021737
 40
0.570333348
 40
0.6324753332
 40
0.6943207638
 40
0.7558688403
 40
0.7865359486
 40
0.8171370956
 40
0.847680097
 40
0.8781782948
 40
0.9086560925
 40
0.939164612
 40
0.9544660875
 40
0.9621424282
 40
0.9698470753
 40
0.9737147014
 40
0.9775966009
 40
0.9814977988
 40
0.9854266334
 40
0.9893989652
 40
0.993453286
 40
0.9955458484
 40
0.9966188547
 40
0.997128608
 40
0.9974425284
 40
0.997648577
 40
0.997915315
 40
0.998553031
 40
1.0
 40
1.0
 40
1.0
 40
1.0
 10
-157.35133091
 20
37.1854178518
 30
0.0
 10
-156.8430190321
 20
36.5590473859
 30
0.0
 10
-155.79621506
 20
35.3354333799
 30
0.0
 10
-154.1390789951
 20
33.5883011324
 30
0.0
 10
-152.692895332
 20
32.2098758578
 30
0.0
 10
-151.5029148701
 20
31.156477943
 30
0.0
 10
-150.597099279
 20
30.3927980152
 30
0.0
 10
-149.6775663783
 20
29.654044892
 30
0.0
 10
-148.7454841282
 20
28.9401049429
 30
0.0
 10
-147.8019719502
 20
28.2507394368
 30
0.0
 10
-147.0060698584
 20
27.6957562623
 30
0.0
 10
-146.3646478767
 20
27.2635364986
 30
0.0
 10
-145.8818389516
 20
26.9454010553
 30
0.0
 10
-145.3967780118
 20
26.6326715091
 30
0.0
 10
-144.9094389247
 20
26.3249585459
 30
0.0
 10
-144.419649188
 20
26.0215766822
 30
0.0
 10
-144.0094070647
 20
25.7715458114
 30
0.0
 10
-143.7213227441
 20
25.597003777
 30
0.0
 10
-143.5561215155
 20
25.4967812796
 30
0.0
 10
-143.4525791051
 20
25.4337472481
 30
0.0
 10
-143.3695839033
 20
25.3829175779
 30
0.0
 10
-143.307115758
 20
25.3444293232
 30
0.0
 10
-143.2444774832
 20
25.3054978388
 30
0.0
 10
-143.1815748641
 20
25.2658594327
 30
0.0
 10
-143.1183374217
 20
25.2251561457
 30
0.0
 10
-143.0652475058
 20
25.1893840118
 30
0.0
 10
-143.0288516093
 20
25.1629813687
 30
0.0
 10
-143.0107019366
 20
25.1473629665
 30
0.0
 10
-143.003094886
 20
25.1396098643
 30
0.0
 10
-142.999002132
 20
25.1320434135
 30
0.0
 10
-143.0046184831
 20
25.1297113287
 30
0.0
 10
-143.0113679892
 20
25.1302904293
 30
0.0
 10
-143.0261323804
 20
25.1330925081
 30
0.0
 10
-143.0385341152
 20
25.1372371697
 30
0.0
 10
-143.0471622057
 20
25.1401683799
 30
0.0
  0
SPLINE
  5
3DE
100
AcDbEntity
  8
0
100
AcDbSpline
 62
7
  6
CONTINUOUS
 70
0
 71
3
 72
11
 73
7
 74
0
 42
0.0000001
 43
0.0000001
 44
0.0000000001
 40
0.0
 40
0.0
 40
0.0
 40
0.0
 40
0.24092764
 40
0.4884690672
 40
0.7418282816
 40
1.0
 40
1.0
 40
1.0
 40
1.0
 10
-147.1327882931
 20
27.4564970705
 30
0.0
 10
-148.5215711871
 20
28.3202178428
 30
0.0
 10
-151.2705556021
 20
30.1820931865
 30
0.0
 10
-155.1824427564
 20
33.3639067898
 30
0.0
 10
-158.866573884
 20
36.9766880318
 30
0.0
 10
-161.0995645966
 20
39.645872844
 30
0.0
 10
-162.1468792096
 20
41.051022822
 30
0.0
  0
SPLINE
  5
3DF
100
AcDbEntity
  8
0
100
AcDbSpline
 62
7
  6
CONTINUOUS
 70
0
 71
3
 72
10
 73
6
 74
0
 42
0.0000001
 43
0.0000001
 44
0.0000000001
 40
0.0
 40
0.0
 40
0.0
 40
0.0
 40
0.2617115934
 40
0.5237257955
 40
1.0
 40
1.0
 40
1.0
 40
1.0
 10
-161.5547414461
 20
42.1419702189
 30
0.0
 10
-161.6272182997
 20
42.0868056121
 30
0.0
 10
-161.7614393076
 20
41.9615690381
 30
0.0
 10
-161.9756183238
 20
41.6868834339
 30
0.0
 10
-162.0873539806
 20
41.4473741104
 30
0.0
 10
-162.123211329
 20
41.2855430389
 30
0.0
  0
SPLINE
  5
3E0
100
AcDbEntity
  8
0
100
AcDbSpline
 62
7
  6
CONTINUOUS
 70
0
 71
3
 72
9
 73
5
 74
0
 42
0.0000001
 43
0.0000001
 44
0.0000000001
 40
0.0
 40
0.0
 40
0.0
 40
0.0
 40
0.2648009089
 40
1.0
 40
1.0
 40
1.0
 40
1.0
 10
-162.123211329
 20
41.2855430389
 30
0.0
 10
-162.1277620217
 20
41.2650048926
 30
0.0
 10
-162.1426367879
 20
41.1869816457
 30
0.0
 10
-162.1481637979
 20
41.1069398688
 30
0.0
 10
-162.1450729569
 20
41.0486161719
 30
0.0
  0
SPLINE
  5
3E1
100
AcDbEntity
  8
0
100
AcDbSpline
 62
7
  6
CONTINUOUS
 70
0
 71
3
 72
9
 73
5
 74
0
 42
0.0000001
 43
0.0000001
 44
0.0000000001
 40
0.0
 40
0.0
 40
0.0
 40
0.0
 40
0.5270481979
 40
1.0
 40
1.0
 40
1.0
 40
1.0
 10
-162.1448578223
 20
41.0484927618
 30
0.0
 10
-162.1656999318
 20
41.0604076183
 30
0.0
 10
-162.2027381606
 20
41.0885114514
 30
0.0
 10
-162.2259324586
 20
41.1299489195
 30
0.0
 10
-162.231136939
 20
41.150854126
 30
0.0
  0
SPLINE
  5
3E2
100
AcDbEntity
  8
0
100
AcDbSpline
 62
7
  6
CONTINUOUS
 70
0
 71
3
 72
9
 73
5
 74
0
 42
0.0000001
 43
0.0000001
 44
0.0000000001
 40
0.0
 40
0.0
 40
0.0
 40
0.0
 40
0.254922619
 40
1.0
 40
1.0
 40
1.0
 40
1.0
 10
-160.091672852
 20
55.3365690813
 30
0.0
 10
-160.2774631419
 20
54.5243796909
 30
0.0
 10
-160.923467898
 20
51.3202797862
 30
0.0
 10
-161.2318720812
 20
48.0457621066
 30
0.0
 10
-161.2450628645
 20
45.6106472908
 30
0.0
  0
SPLINE
  5
3E3
100
AcDbEntity
  8
0
100
AcDbSpline
 62
7
  6
CONTINUOUS
 70
0
 71
3
 72
8
 73
4
 74
0
 42
0.0000001
 43
0.0000001
 44
0.0000000001
 40
0.0
 40
0.0
 40
0.0
 40
0.0
 40
1.0
 40
1.0
 40
1.0
 40
1.0
 10
-161.2456634664
 20
45.3778033997
 30
0.0
 10
-161.2446130676
 20
45.2391594547
 30
0.0
 10
-161.2441977043
 20
45.1005105008
 30
0.0
 10
-161.2428445812
 20
44.9618691798
 30
0.0
  0
SPLINE
  5
3E4
100
AcDbEntity
  8
0
100
AcDbSpline
 62
7
  6
CONTINUOUS
 70
0
 71
3
 72
9
 73
5
 74
0
 42
0.0000001
 43
0.0000001
 44
0.0000000001
 40
0.0
 40
0.0
 40
0.0
 40
0.0
 40
0.2477805611
 40
1.0
 40
1.0
 40
1.0
 40
1.0
 10
-57.1170013291
 20
13.1160986269
 30
0.0
 10
-57.2739736723
 20
12.5369053464
 30
0.0
 10
-57.9751577876
 20
10.2181500845
 30
0.0
 10
-58.9406103226
 20
7.9801047958
 30
0.0
 10
-59.7966507048
 20
6.3719949834
 30
0.0
  0
SPLINE
  5
3E5
100
AcDbEntity
  8
0
100
AcDbSpline
 62
7
  6
CONTINUOUS
 70
0
 71
3
 72
10
 73
6
 74
0
 42
0.0000001
 43
0.0000001
 44
0.0000000001
 40
0.0
 40
0.0
 40
0.0
 40
0.0
 40
0.5106113652
 40
0.7568483694
 40
1.0
 40
1.0
 40
1.0
 40
1.0
 10
-83.442664724
 20
-19.8415163511
 30
0.0
 10
-83.2143369051
 20
-20.3949248534
 30
0.0
 10
-82.7522702029
 20
-21.1754663039
 30
0.0
 10
-81.917582834
 20
-22.0048218825
 30
0.0
 10
-81.444078427
 20
-22.3352651828
 30
0.0
 10
-81.1968745527
 20
-22.4772549713
 30
0.0
  0
SPLINE
  5
3E6
100
AcDbEntity
  8
0
100
AcDbSpline
 62
7
  6
CONTINUOUS
 70
0
 71
3
 72
11
 73
7
 74
0
 42
0.0000001
 43
0.0000001
 44
0.0000000001
 40
0.0
 40
0.0
 40
0.0
 40
0.0
 40
0.2560100541
 40
0.5069767943
 40
0.7544018063
 40
1.0
 40
1.0
 40
1.0
 40
1.0
 10
-102.5876029409
 20
-8.1881372853
 30
0.0
 10
-102.1012140047
 20
-9.0074247523
 30
0.0
 10
-101.0406800797
 20
-10.5746557122
 30
0.0
 10
-99.1840456505
 20
-12.6906533609
 30
0.0
 10
-97.0983054712
 20
-14.523417761
 30
0.0
 10
-95.566411124
 20
-15.5450012928
 30
0.0
 10
-94.7738099045
 20
-16.0002490572
 30
0.0
  0
SPLINE
  5
3E7
100
AcDbEntity
  8
0
100
AcDbSpline
 62
7
  6
CONTINUOUS
 70
0
 71
3
 72
14
 73
10
 74
0
 42
0.0000001
 43
0.0000001
 44
0.0000000001
 40
0.0
 40
0.0
 40
0.0
 40
0.0
 40
0.2786628518
 40
0.411290335
 40
0.5383728846
 40
0.6598957626
 40
0.7764499904
 40
0.8892423844
 40
1.0
 40
1.0
 40
1.0
 40
1.0
 10
-70.8214857871
 20
-21.4077003008
 30
0.0
 10
-71.4082320946
 20
-22.0484447772
 30
0.0
 10
-72.3976206109
 20
-22.8954935537
 30
0.0
 10
-73.8789542759
 20
-23.6947200735
 30
0.0
 10
-75.0035663585
 20
-24.0954819914
 30
0.0
 10
-76.1302572808
 20
-24.294936952
 30
0.0
 10
-77.2308932832
 20
-24.2864987168
 30
0.0
 10
-78.2758280501
 20
-24.0687267057
 30
0.0
 10
-78.9193333934
 20
-23.7853699101
 30
0.0
 10
-79.2187711991
 20
-23.613379735
 30
0.0
  0
SPLINE
  5
3E8
100
AcDbEntity
  8
0
100
AcDbSpline
 62
7
  6
CONTINUOUS
 70
0
 71
3
 72
11
 73
7
 74
0
 42
0.0000001
 43
0.0000001
 44
0.0000000001
 40
0.0
 40
0.0
 40
0.0
 40
0.0
 40
0.2562935656
 40
0.5073429187
 40
0.7546264551
 40
1.0
 40
1.0
 40
1.0
 40
1.0
 10
-81.7935291182
 20
-19.949546919
 30
0.0
 10
-82.7743889729
 20
-19.9548297342
 30
0.0
 10
-84.7190660848
 20
-19.8477174186
 30
0.0
 10
-87.5666524903
 20
-19.3199064827
 30
0.0
 10
-90.2795531907
 20
-18.4317510694
 30
0.0
 10
-91.9813909925
 20
-17.6040962485
 30
0.0
 10
-92.7957076556
 20
-17.1363757464
 30
0.0
  0
SPLINE
  5
3E9
100
AcDbEntity
  8
0
100
AcDbSpline
 62
7
  6
CONTINUOUS
 70
0
 71
3
 72
12
 73
8
 74
0
 42
0.0000001
 43
0.0000001
 44
0.0000000001
 40
0.0
 40
0.0
 40
0.0
 40
0.0
 40
0.1197249681
 40
0.2400248946
 40
0.4841938234
 40
0.736641292
 40
1.0
 40
1.0
 40
1.0
 40
1.0
 10
-57.1852482991
 20
44.8647465436
 30
0.0
 10
-56.5501239465
 20
44.4999398017
 30
0.0
 10
-55.3148750798
 20
43.6996719762
 30
0.0
 10
-53.0105062771
 20
41.8313652699
 30
0.0
 10
-50.4714773822
 20
38.9991486702
 30
0.0
 10
-48.1033500696
 20
34.9671122618
 30
0.0
 10
-47.0238743075
 20
31.9814856056
 30
0.0
 10
-46.6021225645
 20
30.4265222025
 30
0.0
  0
SPLINE
  5
3EA
100
AcDbEntity
  8
0
100
AcDbSpline
 62
7
  6
CONTINUOUS
 70
0
 71
3
 72
11
 73
7
 74
0
 42
0.0000001
 43
0.0000001
 44
0.0000000001
 40
0.0
 40
0.0
 40
0.0
 40
0.0
 40
0.2393616449
 40
0.4834048789
 40
0.7360647162
 40
1.0
 40
1.0
 40
1.0
 40
1.0
 10
-59.1633585029
 20
46.0008593867
 30
0.0
 10
-60.4649047238
 20
46.7484394747
 30
0.0
 10
-63.2696199223
 20
47.971537552
 30
0.0
 10
-67.8299328377
 20
48.8722214527
 30
0.0
 10
-72.6293049485
 20
48.8319076591
 30
0.0
 10
-75.8265134405
 20
48.1975705628
 30
0.0
 10
-77.4175506853
 20
47.741693748
 30
0.0
  0
SPLINE
  5
3EB
100
AcDbEntity
  8
0
100
AcDbSpline
 62
7
  6
CONTINUOUS
 70
0
 71
3
 72
11
 73
7
 74
0
 42
0.0000001
 43
0.0000001
 44
0.0000000001
 40
0.0
 40
0.0
 40
0.0
 40
0.0
 40
0.2440819189
 40
0.4912004736
 40
0.7427779284
 40
1.0
 40
1.0
 40
1.0
 40
1.0
 10
-94.7019294638
 20
-15.8967263508
 30
0.0
 10
-95.4145760745
 20
-15.3752968208
 30
0.0
 10
-96.7829062823
 20
-14.2326694143
 30
0.0
 10
-98.6184168498
 20
-12.2610360971
 30
0.0
 10
-100.229271844
 20
-10.0432582636
 30
0.0
 10
-101.1325293253
 20
-8.4340442255
 30
0.0
 10
-101.5428824112
 20
-7.5988314949
 30
0.0
  0
SPLINE
  5
3EC
100
AcDbEntity
  8
0
100
AcDbSpline
 62
7
  6
CONTINUOUS
 70
0
 71
3
 72
11
 73
7
 74
0
 42
0.0000001
 43
0.0000001
 44
0.0000000001
 40
0.0
 40
0.0
 40
0.0
 40
0.0
 40
0.2388915853
 40
0.4826835873
 40
0.7355088959
 40
1.0
 40
1.0
 40
1.0
 40
1.0
 10
-79.2187711991
 20
-23.613379735
 30
0.0
 10
-79.5363654583
 20
-23.4309609116
 30
0.0
 10
-80.138291835
 20
-22.9880008763
 30
0.0
 10
-80.8828420445
 20
-22.1299653879
 30
0.0
 10
-81.4527662177
 20
-21.1030212991
 30
0.0
 10
-81.7006032025
 20
-20.344258529
 30
0.0
 10
-81.7935291182
 20
-19.949546919
 30
0.0
  0
SPLINE
  5
3ED
100
AcDbEntity
  8
0
100
AcDbSpline
 62
7
  6
CONTINUOUS
 70
0
 71
3
 72
9
 73
5
 74
0
 42
0.0000001
 43
0.0000001
 44
0.0000000001
 40
0.0
 40
0.0
 40
0.0
 40
0.0
 40
0.2474558611
 40
1.0
 40
1.0
 40
1.0
 40
1.0
 10
-103.8702768506
 20
12.7452280798
 30
0.0
 10
-103.7767737761
 20
13.2734901625
 30
0.0
 10
-103.3578039272
 20
15.4008286763
 30
0.0
 10
-102.77677472
 20
17.4958696563
 30
0.0
 10
-102.256571643
 20
19.0421954519
 30
0.0
  0
SPLINE
  5
3EE
100
AcDbEntity
  8
0
100
AcDbSpline
 62
7
  6
CONTINUOUS
 70
0
 71
3
 72
13
 73
9
 74
0
 42
0.0000001
 43
0.0000001
 44
0.0000000001
 40
0.0
 40
0.0
 40
0.0
 40
0.0
 40
0.2769236774
 40
0.5358643195
 40
0.6580297238
 40
0.7754667806
 40
0.889027597
 40
1.0
 40
1.0
 40
1.0
 40
1.0
 10
-91.8937477516
 20
36.2403217037
 30
0.0
 10
-89.5894877941
 20
38.6573767282
 30
0.0
 10
-84.5846731883
 20
42.8541744286
 30
0.0
 10
-77.3111599053
 20
46.2948951326
 30
0.0
 10
-71.4129229049
 20
47.5715722234
 30
0.0
 10
-67.13825638
 20
47.7841519733
 30
0.0
 10
-63.0260152982
 20
47.260403581
 30
0.0
 10
-60.4324491179
 20
46.4173257789
 30
0.0
 10
-59.2059646508
 20
45.8820103945
 30
0.0
  0
SPLINE
  5
3EF
100
AcDbEntity
  8
0
100
AcDbSpline
 62
7
  6
CONTINUOUS
 70
0
 71
3
 72
16
 73
12
 74
0
 42
0.0000001
 43
0.0000001
 44
0.0000000001
 40
0.0
 40
0.0
 40
0.0
 40
0.0
 40
0.0532690316
 40
0.108258127
 40
0.2241102733
 40
0.3483281759
 40
0.4791960305
 40
0.61354302
 40
0.7475101695
 40
0.8773109027
 40
1.0
 40
1.0
 40
1.0
 40
1.0
 10
-32.5916483609
 20
21.1286634335
 30
0.0
 10
-31.9613688273
 20
20.36685048
 30
0.0
 10
-30.8083941221
 20
18.7083339063
 30
0.0
 10
-28.9874146012
 20
14.9531934161
 30
0.0
 10
-27.7219561243
 20
9.5474934701
 30
0.0
 10
-27.8611292335
 20
2.604428458
 30
0.0
 10
-29.585093404
 20
-4.4706794763
 30
0.0
 10
-32.7722457194
 20
-11.2133272654
 30
0.0
 10
-37.2115276307
 20
-17.1837071792
 30
0.0
 10
-42.6086627407
 20
-21.9848799914
 30
0.0
 10
-46.763695816
 20
-24.2677653072
 30
0.0
 10
-48.886948016
 20
-25.0910226324
 30
0.0
  0
SPLINE
  5
3F0
100
AcDbEntity
  8
0
100
AcDbSpline
 62
7
  6
CONTINUOUS
 70
0
 71
3
 72
13
 73
9
 74
0
 42
0.0000001
 43
0.0000001
 44
0.0000000001
 40
0.0
 40
0.0
 40
0.0
 40
0.0
 40
0.2653683528
 40
0.536515707
 40
0.6647102081
 40
0.7840101269
 40
0.8947049125
 40
1.0
 40
1.0
 40
1.0
 40
1.0
 10
-48.8864717283
 20
-27.9025270119
 30
0.0
 10
-48.8863815698
 20
-28.4347282435
 30
0.0
 10
-49.1628538536
 20
-29.5165477898
 30
0.0
 10
-49.9996096607
 20
-30.6063496756
 30
0.0
 10
-50.8778634669
 20
-31.180653942
 30
0.0
 10
-51.5686876797
 20
-31.4101849809
 30
0.0
 10
-52.2525540006
 20
-31.4227253811
 30
0.0
 10
-52.6724284847
 20
-31.2768294611
 30
0.0
 10
-52.8555395185
 20
-31.1716455229
 30
0.0
  0
SPLINE
  5
3F1
100
AcDbEntity
  8
0
100
AcDbSpline
 62
7
  6
CONTINUOUS
 70
0
 71
3
 72
11
 73
7
 74
0
 42
0.0000001
 43
0.0000001
 44
0.0000000001
 40
0.0
 40
0.0
 40
0.0
 40
0.0
 40
0.2600824224
 40
0.5118471729
 40
0.7575310255
 40
1.0
 40
1.0
 40
1.0
 40
1.0
 10
-53.8367862162
 20
-26.4263559488
 30
0.0
 10
-54.8747771577
 20
-26.5839404556
 30
0.0
 10
-56.9444319393
 20
-26.7443671533
 30
0.0
 10
-60.0053903922
 20
-26.4884730914
 30
0.0
 10
-62.9106742216
 20
-25.7348847708
 30
0.0
 10
-64.7119001266
 20
-24.9056074454
 30
0.0
 10
-65.560663209
 20
-24.4181454907
 30
0.0
  0
SPLINE
  5
3F2
100
AcDbEntity
  8
0
100
AcDbSpline
 62
7
  6
CONTINUOUS
 70
0
 71
3
 72
9
 73
5
 74
0
 42
0.0000001
 43
0.0000001
 44
0.0000000001
 40
0.0
 40
0.0
 40
0.0
 40
0.0
 40
0.5034026352
 40
1.0
 40
1.0
 40
1.0
 40
1.0
 10
-67.9999465461
 20
-18.1617735911
 30
0.0
 10
-67.4287335374
 20
-18.8521933905
 30
0.0
 10
-66.1736985097
 20
-20.129189745
 30
0.0
 10
-64.708542658
 20
-21.1596602339
 30
0.0
 10
-63.9420110638
 20
-21.5999215842
 30
0.0
  0
SPLINE
  5
3F3
100
AcDbEntity
  8
0
100
AcDbSpline
 62
7
  6
CONTINUOUS
 70
0
 71
3
 72
9
 73
5
 74
0
 42
0.0000001
 43
0.0000001
 44
0.0000000001
 40
0.0
 40
0.0
 40
0.0
 40
0.0
 40
0.4965977133
 40
1.0
 40
1.0
 40
1.0
 40
1.0
 10
-37.1718927875
 20
25.009344627
 30
0.0
 10
-36.3066985134
 20
24.5124150326
 30
0.0
 10
-34.6529591946
 20
23.3493089761
 30
0.0
 10
-33.236383351
 20
21.9079485614
 30
0.0
 10
-32.5916483609
 20
21.1286634335
 30
0.0
  0
SPLINE
  5
3F4
100
AcDbEntity
  8
0
100
AcDbSpline
 62
7
  6
CONTINUOUS
 70
0
 71
3
 72
11
 73
7
 74
0
 42
0.0000001
 43
0.0000001
 44
0.0000000001
 40
0.0
 40
0.0
 40
0.0
 40
0.0
 40
0.2373476569
 40
0.4823844098
 40
0.7364079261
 40
1.0
 40
1.0
 40
1.0
 40
1.0
 10
-49.7947654735
 20
45.1534460222
 30
0.0
 10
-48.8777946157
 20
44.0451119577
 30
0.0
 10
-47.201219492
 20
41.6316054945
 30
0.0
 10
-45.2520864945
 20
37.5985175373
 30
0.0
 10
-43.8632658645
 20
33.174254295
 30
0.0
 10
-43.3353608042
 20
30.0713347416
 30
0.0
 10
-43.1651899334
 20
28.4828799342
 30
0.0
  0
SPLINE
  5
3F5
100
AcDbEntity
  8
0
100
AcDbSpline
 62
7
  6
CONTINUOUS
 70
0
 71
3
 72
11
 73
7
 74
0
 42
0.0000001
 43
0.0000001
 44
0.0000000001
 40
0.0
 40
0.0
 40
0.0
 40
0.0
 40
0.2610344658
 40
0.5130054565
 40
0.7582828359
 40
1.0
 40
1.0
 40
1.0
 40
1.0
 10
-79.5204301631
 20
-23.5033165849
 30
0.0
 10
-81.1084452762
 20
-23.7983458019
 30
0.0
 10
-84.2803518991
 20
-24.1412234423
 30
0.0
 10
-88.9868392878
 20
-23.8578921113
 30
0.0
 10
-93.4533252622
 20
-22.7695445649
 30
0.0
 10
-96.2161026867
 20
-21.5144547599
 30
0.0
 10
-97.5130814161
 20
-20.769575563
 30
0.0
  0
SPLINE
  5
3F6
100
AcDbEntity
  8
0
100
AcDbSpline
 62
7
  6
CONTINUOUS
 70
0
 71
3
 72
20
 73
16
 74
0
 42
0.0000001
 43
0.0000001
 44
0.0000000001
 40
0.0
 40
0.0
 40
0.0
 40
0.0
 40
0.0531873992
 40
0.1075800452
 40
0.1641621851
 40
0.2235487743
 40
0.3507429905
 40
0.4182986811
 40
0.4874593301
 40
0.6266959671
 40
0.761446079
 40
0.8254266093
 40
0.8864538737
 40
0.9445127577
 40
1.0
 40
1.0
 40
1.0
 40
1.0
 10
-38.7905507102
 20
22.1911105833
 30
0.0
 10
-39.7832834354
 20
22.7612917126
 30
0.0
 10
-41.9374369115
 20
23.6778573985
 30
0.0
 10
-45.448472155
 20
24.2782566503
 30
0.0
 10
-49.1385134172
 20
24.1015032569
 30
0.0
 10
-54.2419573046
 20
22.8224679822
 30
0.0
 10
-59.0975844913
 20
20.0589692107
 30
0.0
 10
-63.3161924109
 20
16.2376963734
 30
0.0
 10
-67.128651904
 20
11.6590449554
 30
0.0
 10
-70.6589111375
 20
5.0662086298
 30
0.0
 10
-72.2707323519
 20
-2.140948745
 30
0.0
 10
-72.1937673859
 20
-7.7535503104
 30
0.0
 10
-71.4730887449
 20
-11.6493573485
 30
0.0
 10
-70.1069876291
 20
-15.1742449423
 30
0.0
 10
-68.761277839
 20
-17.2415596068
 30
0.0
 10
-67.9999465461
 20
-18.1617735911
 30
0.0
  0
SPLINE
  5
3F7
100
AcDbEntity
  8
0
100
AcDbSpline
 62
7
  6
CONTINUOUS
 70
0
 71
3
 72
9
 73
5
 74
0
 42
0.0000001
 43
0.0000001
 44
0.0000000001
 40
0.0
 40
0.0
 40
0.0
 40
0.0
 40
0.4965827006
 40
1.0
 40
1.0
 40
1.0
 40
1.0
 10
-56.4240696496
 20
50.7702160448
 30
0.0
 10
-55.1718355783
 20
50.0510261693
 30
0.0
 10
-52.7782538744
 20
48.3675889225
 30
0.0
 10
-50.7279627271
 20
46.2813927792
 30
0.0
 10
-49.7947654735
 20
45.1534460222
 30
0.0
  0
SPLINE
  5
3F8
100
AcDbEntity
  8
0
100
AcDbSpline
 62
7
  6
CONTINUOUS
 70
0
 71
3
 72
9
 73
5
 74
0
 42
0.0000001
 43
0.0000001
 44
0.0000000001
 40
0.0
 40
0.0
 40
0.0
 40
0.0
 40
0.5185098846
 40
1.0
 40
1.0
 40
1.0
 40
1.0
 10
-59.0805178623
 20
-26.4849291597
 30
0.0
 10
-59.0592717632
 20
-26.7199859218
 30
0.0
 10
-58.9621098108
 20
-27.1711903586
 30
0.0
 10
-58.7334758001
 20
-27.5754341109
 30
0.0
 10
-58.5937681978
 20
-27.7442973778
 30
0.0
  0
SPLINE
  5
3F9
100
AcDbEntity
  8
0
100
AcDbSpline
 62
7
  6
CONTINUOUS
 70
0
 71
3
 72
9
 73
5
 74
0
 42
0.0000001
 43
0.0000001
 44
0.0000000001
 40
0.0
 40
0.0
 40
0.0
 40
0.0
 40
0.2530713137
 40
1.0
 40
1.0
 40
1.0
 40
1.0
 10
-58.5937681978
 20
-27.7442973778
 30
0.0
 10
-58.5596856851
 20
-27.7854925908
 30
0.0
 10
-58.4180864093
 20
-27.942397897
 30
0.0
 10
-58.2484748345
 20
-28.0741928438
 30
0.0
 10
-58.1116397799
 20
-28.1527946059
 30
0.0
  0
SPLINE
  5
3FA
100
AcDbEntity
  8
0
100
AcDbSpline
 62
7
  6
CONTINUOUS
 70
0
 71
3
 72
9
 73
5
 74
0
 42
0.0000001
 43
0.0000001
 44
0.0000000001
 40
0.0
 40
0.0
 40
0.0
 40
0.0
 40
0.4779838387
 40
1.0
 40
1.0
 40
1.0
 40
1.0
 10
-53.3376679364
 20
-30.7631482948
 30
0.0
 10
-53.5031011632
 20
-30.563190707
 30
0.0
 10
-53.7617173868
 20
-30.0688357732
 30
0.0
 10
-53.8362619138
 20
-29.5212887281
 30
0.0
 10
-53.8363099285
 20
-29.2378603283
 30
0.0
  0
SPLINE
  5
3FB
100
AcDbEntity
  8
0
100
AcDbSpline
 62
7
  6
CONTINUOUS
 70
0
 71
3
 72
9
 73
5
 74
0
 42
0.0000001
 43
0.0000001
 44
0.0000000001
 40
0.0
 40
0.0
 40
0.0
 40
0.0
 40
0.4967732379
 40
1.0
 40
1.0
 40
1.0
 40
1.0
 10
-63.9420110638
 20
-21.5999215842
 30
0.0
 10
-63.198442914
 20
-22.0269937625
 30
0.0
 10
-61.6219908998
 20
-22.7547502258
 30
0.0
 10
-59.9431993821
 20
-23.1954245383
 30
0.0
 10
-59.0876062209
 20
-23.3453333658
 30
0.0
  0
SPLINE
  5
3FC
100
AcDbEntity
  8
0
100
AcDbSpline
 62
7
  6
CONTINUOUS
 70
0
 71
3
 72
19
 73
15
 74
0
 42
0.0000001
 43
0.0000001
 44
0.0000000001
 40
0.0
 40
0.0
 40
0.0
 40
0.0
 40
0.0544629063
 40
0.1111498734
 40
0.1704396989
 40
0.2324106283
 40
0.3630886604
 40
0.4996093117
 40
0.6362071307
 40
0.7670951981
 40
0.8291985909
 40
0.8886255812
 40
0.9454368809
 40
1.0
 40
1.0
 40
1.0
 40
1.0
 10
-59.0876062209
 20
-23.3453333658
 30
0.0
 10
-58.025133162
 20
-23.5314897047
 30
0.0
 10
-55.8121441198
 20
-23.6863805333
 30
0.0
 10
-52.4435911085
 20
-23.2791875683
 30
0.0
 10
-49.0543102866
 20
-22.2534725533
 30
0.0
 10
-44.5508217854
 20
-20.0653257109
 30
0.0
 10
-39.3815429612
 20
-15.9484552228
 30
0.0
 10
-34.5273379429
 20
-9.4955311594
 30
0.0
 10
-31.351924096
 20
-2.0668053797
 30
0.0
 10
-30.3553470424
 20
4.4738559087
 30
0.0
 10
-30.6967747176
 20
9.4785263038
 30
0.0
 10
-31.4913697416
 20
12.9371974323
 30
0.0
 10
-32.8108781155
 20
16.0708318007
 30
0.0
 10
-34.043753161
 20
17.9203414788
 30
0.0
 10
-34.7326152279
 20
18.7529625902
 30
0.0
  0
SPLINE
  5
3FD
100
AcDbEntity
  8
0
100
AcDbSpline
 62
7
  6
CONTINUOUS
 70
0
 71
3
 72
21
 73
17
 74
0
 42
0.0000001
 43
0.0000001
 44
0.0000000001
 40
0.0
 40
0.0
 40
0.0
 40
0.0
 40
0.0554692679
 40
0.1135092023
 40
0.174516614
 40
0.2384767114
 40
0.3731840622
 40
0.4428335164
 40
0.5126985211
 40
0.5818371492
 40
0.6493718684
 40
0.7765245238
 40
0.8358911738
 40
0.8924543124
 40
0.9468295807
 40
1.0
 40
1.0
 40
1.0
 40
1.0
 10
-70.1409134131
 20
-20.5374744344
 30
0.0
 10
-71.0002367545
 20
-19.4988183814
 30
0.0
 10
-72.5191473627
 20
-17.1654034377
 30
0.0
 10
-74.0611100414
 20
-13.1869071557
 30
0.0
 10
-74.8744446023
 20
-8.7893561281
 30
0.0
 10
-74.961912093
 20
-2.455991837
 30
0.0
 10
-73.5132346963
 20
4.0153265249
 30
0.0
 10
-70.7710475993
 20
10.1037279263
 30
0.0
 10
-68.0774068943
 20
14.4193804876
 30
0.0
 10
-64.8538954365
 20
18.2899816674
 30
0.0
 10
-60.0928199676
 20
22.6026743135
 30
0.0
 10
-54.6119911672
 20
25.7220183898
 30
0.0
 10
-48.8517462763
 20
27.165627377
 30
0.0
 10
-44.6867768165
 20
27.3651360643
 30
0.0
 10
-40.7238371197
 20
26.687457544
 30
0.0
 10
-38.2924063686
 20
25.6529184184
 30
0.0
 10
-37.1718927875
 20
25.009344627
 30
0.0
  0
SPLINE
  5
3FE
100
AcDbEntity
  8
0
100
AcDbSpline
 62
7
  6
CONTINUOUS
 70
0
 71
3
 72
9
 73
5
 74
0
 42
0.0000001
 43
0.0000001
 44
0.0000000001
 40
0.0
 40
0.0
 40
0.0
 40
0.0
 40
0.4965804617
 40
1.0
 40
1.0
 40
1.0
 40
1.0
 10
-65.560663209
 20
-24.4181454907
 30
0.0
 10
-66.4258409772
 20
-23.921256247
 30
0.0
 10
-68.0795911642
 20
-22.758158095
 30
0.0
 10
-69.4961561649
 20
-21.3167864654
 30
0.0
 10
-70.1409134131
 20
-20.5374744344
 30
0.0
  0
SPLINE
  5
3FF
100
AcDbEntity
  8
0
100
AcDbSpline
 62
7
  6
CONTINUOUS
 70
0
 71
3
 72
9
 73
5
 74
0
 42
0.0000001
 43
0.0000001
 44
0.0000000001
 40
0.0
 40
0.0
 40
0.0
 40
0.0
 40
0.5034026352
 40
1.0
 40
1.0
 40
1.0
 40
1.0
 10
-34.7326152279
 20
18.7529625902
 30
0.0
 10
-35.3038282367
 20
19.4433823896
 30
0.0
 10
-36.5588632643
 20
20.7203787441
 30
0.0
 10
-38.024019116
 20
21.750849233
 30
0.0
 10
-38.7905507102
 20
22.1911105833
 30
0.0
  0
SPLINE
  5
400
100
AcDbEntity
  8
0
100
AcDbSpline
 62
7
  6
CONTINUOUS
 70
0
 71
3
 72
9
 73
5
 74
0
 42
0.0000001
 43
0.0000001
 44
0.0000000001
 40
0.0
 40
0.0
 40
0.0
 40
0.0
 40
0.7469286863
 40
1.0
 40
1.0
 40
1.0
 40
1.0
 10
-52.8555395185
 20
-31.1716455229
 30
0.0
 10
-52.9923745732
 20
-31.0930437607
 30
0.0
 10
-53.1619861479
 20
-30.9612488139
 30
0.0
 10
-53.3035854238
 20
-30.8043435077
 30
0.0
 10
-53.3376679364
 20
-30.7631482948
 30
0.0
  0
SPLINE
  5
401
100
AcDbEntity
  8
0
100
AcDbSpline
 62
7
  6
CONTINUOUS
 70
0
 71
3
 72
10
 73
6
 74
0
 42
0.0000001
 43
0.0000001
 44
0.0000000001
 40
0.0
 40
0.0
 40
0.0
 40
0.0
 40
0.2404750617
 40
0.4864505857
 40
1.0
 40
1.0
 40
1.0
 40
1.0
 10
-108.7395668918
 20
62.8024612954
 30
0.0
 10
-109.5053693677
 20
63.0390299775
 30
0.0
 10
-111.0947989983
 20
63.3966858725
 30
0.0
 10
-114.4277514016
 20
63.6383076512
 30
0.0
 10
-116.9732120815
 20
63.271335514
 30
0.0
 10
-118.625806443
 20
62.8255099698
 30
0.0
  0
SPLINE
  5
402
100
AcDbEntity
  8
0
100
AcDbSpline
 62
7
  6
CONTINUOUS
 70
0
 71
3
 72
11
 73
7
 74
0
 42
0.0000001
 43
0.0000001
 44
0.0000000001
 40
0.0
 40
0.0
 40
0.0
 40
0.0
 40
0.2598757116
 40
0.5165473244
 40
0.7648321918
 40
1.0
 40
1.0
 40
1.0
 40
1.0
 10
-96.4303124505
 20
52.3026335599
 30
0.0
 10
-96.7473705655
 20
53.6688135543
 30
0.0
 10
-97.4967473748
 20
56.3582044957
 30
0.0
 10
-98.949637218
 20
60.2273474819
 30
0.0
 10
-100.6914723333
 20
63.8280501018
 30
0.0
 10
-102.0587792773
 20
66.0571245373
 30
0.0
 10
-102.7847573128
 20
67.0981271523
 30
0.0
  0
SPLINE
  5
403
100
AcDbEntity
  8
0
100
AcDbSpline
 62
7
  6
CONTINUOUS
 70
0
 71
3
 72
9
 73
5
 74
0
 42
0.0000001
 43
0.0000001
 44
0.0000000001
 40
0.0
 40
0.0
 40
0.0
 40
0.0
 40
0.5087429978
 40
1.0
 40
1.0
 40
1.0
 40
1.0
 10
-102.3732090587
 20
53.044462899
 30
0.0
 10
-102.7922123243
 20
54.5212838865
 30
0.0
 10
-103.7698909652
 20
57.3827197454
 30
0.0
 10
-105.0561407347
 20
60.1208856849
 30
0.0
 10
-105.7692607742
 20
61.4204290306
 30
0.0
  0
SPLINE
  5
404
100
AcDbEntity
  8
0
100
AcDbSpline
 62
7
  6
CONTINUOUS
 70
0
 71
3
 72
18
 73
14
 74
0
 42
0.0000001
 43
0.0000001
 44
0.0000000001
 40
0.0
 40
0.0
 40
0.0
 40
0.0
 40
0.1196699321
 40
0.1827984198
 40
0.2476974212
 40
0.3809586904
 40
0.5157484912
 40
0.6478264176
 40
0.7735279144
 40
0.833353377
 40
0.8909442327
 40
0.9463997033
 40
1.0
 40
1.0
 40
1.0
 40
1.0
 10
-118.625806443
 20
62.8255099698
 30
0.0
 10
-120.6594117946
 20
62.2768979003
 30
0.0
 10
-123.6547454934
 20
60.9739091938
 30
0.0
 10
-127.279008132
 20
58.5410132575
 30
0.0
 10
-130.7849977265
 20
55.5497406867
 30
0.0
 10
-134.5852733894
 20
51.0259506421
 30
0.0
 10
-137.9363446613
 20
44.7758873471
 30
0.0
 10
-139.8878407094
 20
38.0943008354
 30
0.0
 10
-140.2275387029
 20
32.4548705005
 30
0.0
 10
-139.6556380591
 20
28.2028046116
 30
0.0
 10
-138.8368559686
 20
25.2611054484
 30
0.0
 10
-137.6354652989
 20
22.5732567893
 30
0.0
 10
-136.5762504869
 20
20.9599197054
 30
0.0
 10
-135.9922753455
 20
20.218968613
 30
0.0
  0
SPLINE
  5
405
100
AcDbEntity
  8
0
100
AcDbSpline
 62
7
  6
CONTINUOUS
 70
0
 71
3
 72
9
 73
5
 74
0
 42
0.0000001
 43
0.0000001
 44
0.0000000001
 40
0.0
 40
0.0
 40
0.0
 40
0.0
 40
0.5038854071
 40
1.0
 40
1.0
 40
1.0
 40
1.0
 10
-135.9922753455
 20
20.218968613
 30
0.0
 10
-135.3805631759
 20
19.4428246164
 30
0.0
 10
-134.0232157424
 20
18.0092126987
 30
0.0
 10
-132.4147168418
 20
16.8626723843
 30
0.0
 10
-131.5710130147
 20
16.3780428043
 30
0.0
  0
SPLINE
  5
406
100
AcDbEntity
  8
0
100
AcDbSpline
 62
7
  6
CONTINUOUS
 70
0
 71
3
 72
11
 73
7
 74
0
 42
0.0000001
 43
0.0000001
 44
0.0000000001
 40
0.0
 40
0.0
 40
0.0
 40
0.0
 40
0.2351678082
 40
0.4834526756
 40
0.7401242884
 40
1.0
 40
1.0
 40
1.0
 40
1.0
 10
-106.9096224797
 20
65.9853493887
 30
0.0
 10
-106.1836444441
 20
64.9443467736
 30
0.0
 10
-104.8163375001
 20
62.7152723381
 30
0.0
 10
-103.0745023849
 20
59.1145697183
 30
0.0
 10
-101.6216125417
 20
55.2454267321
 30
0.0
 10
-100.8722357323
 20
52.5560357908
 30
0.0
 10
-100.5551776174
 20
51.1898557963
 30
0.0
  0
SPLINE
  5
407
100
AcDbEntity
  8
0
100
AcDbSpline
 62
7
  6
CONTINUOUS
 70
0
 71
3
 72
9
 73
5
 74
0
 42
0.0000001
 43
0.0000001
 44
0.0000000001
 40
0.0
 40
0.0
 40
0.0
 40
0.0
 40
0.2434731423
 40
1.0
 40
1.0
 40
1.0
 40
1.0
 10
-104.1676844994
 20
20.0856976217
 30
0.0
 10
-104.1747070154
 20
20.1026876127
 30
0.0
 10
-104.2007451854
 20
20.1736267812
 30
0.0
 10
-104.2165120849
 20
20.2480837129
 30
0.0
 10
-104.2240540361
 20
20.3047072932
 30
0.0
  0
SPLINE
  5
408
100
AcDbEntity
  8
0
100
AcDbSpline
 62
7
  6
CONTINUOUS
 70
0
 71
3
 72
8
 73
4
 74
0
 42
0.0000001
 43
0.0000001
 44
0.0000000001
 40
0.0
 40
0.0
 40
0.0
 40
0.0
 40
1.0
 40
1.0
 40
1.0
 40
1.0
 10
-52.2745187057
 20
54.0527969129
 30
0.0
 10
-52.2145375662
 20
54.0966671503
 30
0.0
 10
-52.1494533525
 20
54.134185017
 30
0.0
 10
-52.081675452
 20
54.1646561677
 30
0.0
  0
SPLINE
  5
409
100
AcDbEntity
  8
0
100
AcDbSpline
 62
7
  6
CONTINUOUS
 70
0
 71
3
 72
9
 73
5
 74
0
 42
0.0000001
 43
0.0000001
 44
0.0000000001
 40
0.0
 40
0.0
 40
0.0
 40
0.0
 40
0.509791643
 40
1.0
 40
1.0
 40
1.0
 40
1.0
 10
-40.207538165
 20
47.1019256534
 30
0.0
 10
-40.0479548877
 20
47.1449768525
 30
0.0
 10
-39.7005327196
 20
47.1208254528
 30
0.0
 10
-39.4246844579
 20
46.9275843345
 30
0.0
 10
-39.3154569943
 20
46.8121246874
 30
0.0
  0
SPLINE
  5
40A
100
AcDbEntity
  8
0
100
AcDbSpline
 62
7
  6
CONTINUOUS
 70
0
 71
3
 72
9
 73
5
 74
0
 42
0.0000001
 43
0.0000001
 44
0.0000000001
 40
0.0
 40
0.0
 40
0.0
 40
0.0
 40
0.4869718616
 40
1.0
 40
1.0
 40
1.0
 40
1.0
 10
-39.3154569943
 20
46.8121246874
 30
0.0
 10
-37.7526596052
 20
45.16013364
 30
0.0
 10
-35.0028298592
 20
41.311307119
 30
0.0
 10
-33.2867161299
 20
36.9184113356
 30
0.0
 10
-32.6555074811
 20
34.6073072854
 30
0.0
  0
SPLINE
  5
40B
100
AcDbEntity
  8
0
100
AcDbSpline
 62
7
  6
CONTINUOUS
 70
0
 71
3
 72
9
 73
5
 74
0
 42
0.0000001
 43
0.0000001
 44
0.0000000001
 40
0.0
 40
0.0
 40
0.0
 40
0.0
 40
0.4828031375
 40
1.0
 40
1.0
 40
1.0
 40
1.0
 10
-32.5630899905
 20
34.5895854956
 30
0.0
 10
-32.4079528285
 20
34.5598327823
 30
0.0
 10
-32.1159279225
 20
34.3559145941
 30
0.0
 10
-31.9706625665
 20
34.0540943506
 30
0.0
 10
-31.9210124577
 20
33.8923247353
 30
0.0
  0
SPLINE
  5
40C
100
AcDbEntity
  8
0
100
AcDbSpline
 62
7
  6
CONTINUOUS
 70
0
 71
3
 72
9
 73
5
 74
0
 42
0.0000001
 43
0.0000001
 44
0.0000000001
 40
0.0
 40
0.0
 40
0.0
 40
0.0
 40
0.4862146323
 40
1.0
 40
1.0
 40
1.0
 40
1.0
 10
-31.9210124577
 20
33.8923247353
 30
0.0
 10
-31.1816941238
 20
31.4834287917
 30
0.0
 10
-30.2281588363
 20
26.3443141899
 30
0.0
 10
-30.3052841737
 20
21.1293102624
 30
0.0
 10
-30.5757140107
 20
18.4803981292
 30
0.0
  0
SPLINE
  5
40D
100
AcDbEntity
  8
0
100
AcDbSpline
 62
7
  6
CONTINUOUS
 70
0
 71
3
 72
9
 73
5
 74
0
 42
0.0000001
 43
0.0000001
 44
0.0000000001
 40
0.0
 40
0.0
 40
0.0
 40
0.0
 40
0.4703967522
 40
1.0
 40
1.0
 40
1.0
 40
1.0
 10
-30.5049720077
 20
18.4206667045
 30
0.0
 10
-30.3771835298
 20
18.3127621841
 30
0.0
 10
-30.2136956347
 20
17.9675139862
 30
0.0
 10
-30.1963012081
 20
17.6098538317
 30
0.0
 10
-30.2106487088
 20
17.4220978796
 30
0.0
  0
SPLINE
  5
40E
100
AcDbEntity
  8
0
100
AcDbSpline
 62
7
  6
CONTINUOUS
 70
0
 71
3
 72
9
 73
5
 74
0
 42
0.0000001
 43
0.0000001
 44
0.0000000001
 40
0.0
 40
0.0
 40
0.0
 40
0.0
 40
0.5137519718
 40
1.0
 40
1.0
 40
1.0
 40
1.0
 10
-58.0664121332
 20
-28.2577217517
 30
0.0
 10
-60.1828143726
 20
-29.5170933003
 30
0.0
 10
-64.5259690443
 20
-31.6171522188
 30
0.0
 10
-69.2078880267
 20
-32.822308323
 30
0.0
 10
-71.5165431199
 20
-33.1436587298
 30
0.0
  0
SPLINE
  5
40F
100
AcDbEntity
  8
0
100
AcDbSpline
 62
7
  6
CONTINUOUS
 70
0
 71
3
 72
9
 73
5
 74
0
 42
0.0000001
 43
0.0000001
 44
0.0000000001
 40
0.0
 40
0.0
 40
0.0
 40
0.0
 40
0.2691106254
 40
1.0
 40
1.0
 40
1.0
 40
1.0
 10
-71.5872557449
 20
-33.2415537917
 30
0.0
 10
-71.6475926673
 20
-33.3250820243
 30
0.0
 10
-71.9105080745
 20
-33.6063980893
 30
0.0
 10
-72.2787520149
 20
-33.7826641902
 30
0.0
 10
-72.5545255077
 20
-33.8302821031
 30
0.0
  0
SPLINE
  5
410
100
AcDbEntity
  8
0
100
AcDbSpline
 62
7
  6
CONTINUOUS
 70
0
 71
3
 72
9
 73
5
 74
0
 42
0.0000001
 43
0.0000001
 44
0.0000000001
 40
0.0
 40
0.0
 40
0.0
 40
0.0
 40
0.5114162796
 40
1.0
 40
1.0
 40
1.0
 40
1.0
 10
-72.5545255077
 20
-33.8302821031
 30
0.0
 10
-74.8628015835
 20
-34.228837463
 30
0.0
 10
-79.4850603128
 20
-34.5051516974
 30
0.0
 10
-84.0367430565
 20
-33.5868303792
 30
0.0
 10
-86.1472785465
 20
-32.8427735024
 30
0.0
  0
SPLINE
  5
411
100
AcDbEntity
  8
0
100
AcDbSpline
 62
7
  6
CONTINUOUS
 70
0
 71
3
 72
9
 73
5
 74
0
 42
0.0000001
 43
0.0000001
 44
0.0000000001
 40
0.0
 40
0.0
 40
0.0
 40
0.0
 40
0.5261920019
 40
1.0
 40
1.0
 40
1.0
 40
1.0
 10
-86.239680286
 20
-32.9103585201
 30
0.0
 10
-86.3878285067
 20
-33.0187141674
 30
0.0
 10
-86.7289303797
 20
-33.1503548617
 30
0.0
 10
-87.0880826955
 20
-33.1210431277
 30
0.0
 10
-87.2459536726
 20
-33.0721368118
 30
0.0
  0
SPLINE
  5
412
100
AcDbEntity
  8
0
100
AcDbSpline
 62
7
  6
CONTINUOUS
 70
0
 71
3
 72
9
 73
5
 74
0
 42
0.0000001
 43
0.0000001
 44
0.0000000001
 40
0.0
 40
0.0
 40
0.0
 40
0.0
 40
0.5123114628
 40
1.0
 40
1.0
 40
1.0
 40
1.0
 10
-98.307061776
 20
-25.959595426
 30
0.0
 10
-98.4441866398
 20
-25.9965880287
 30
0.0
 10
-98.7369221189
 20
-25.9900539762
 30
0.0
 10
-98.9877277016
 20
-25.8532327725
 30
0.0
 10
-99.0926960766
 20
-25.7680217501
 30
0.0
  0
SPLINE
  5
413
100
AcDbEntity
  8
0
100
AcDbSpline
 62
7
  6
CONTINUOUS
 70
0
 71
3
 72
9
 73
5
 74
0
 42
0.0000001
 43
0.0000001
 44
0.0000000001
 40
0.0
 40
0.0
 40
0.0
 40
0.0
 40
0.4958080702
 40
1.0
 40
1.0
 40
1.0
 40
1.0
 10
-105.9511089988
 20
-13.4471469644
 30
0.0
 10
-106.0450518931
 20
-13.4291302627
 30
0.0
 10
-106.2260615157
 20
-13.3427714204
 30
0.0
 10
-106.3591205717
 20
-13.1986405421
 30
0.0
 10
-106.4153683142
 20
-13.1192798731
 30
0.0
  0
SPLINE
  5
414
100
AcDbEntity
  8
0
100
AcDbSpline
 62
7
  6
CONTINUOUS
 70
0
 71
3
 72
9
 73
5
 74
0
 42
0.0000001
 43
0.0000001
 44
0.0000000001
 40
0.0
 40
0.0
 40
0.0
 40
0.0
 40
0.2426525517
 40
1.0
 40
1.0
 40
1.0
 40
1.0
 10
-108.0092268335
 20
2.7217717947
 30
0.0
 10
-108.0330249011
 20
2.7418668699
 30
0.0
 10
-108.1239626505
 20
2.8332035446
 30
0.0
 10
-108.1863776225
 20
2.9495790744
 30
0.0
 10
-108.2209590826
 20
3.0404351319
 30
0.0
  0
SPLINE
  5
415
100
AcDbEntity
  8
0
100
AcDbSpline
 62
7
  6
CONTINUOUS
 70
0
 71
3
 72
9
 73
5
 74
0
 42
0.0000001
 43
0.0000001
 44
0.0000000001
 40
0.0
 40
0.0
 40
0.0
 40
0.0
 40
0.497195156
 40
1.0
 40
1.0
 40
1.0
 40
1.0
 10
-103.7447896944
 20
11.8249889317
 30
0.0
 10
-103.9078861965
 20
11.9207078007
 30
0.0
 10
-104.1905501891
 20
12.2159946312
 30
0.0
 10
-104.2259932913
 20
12.6291317834
 30
0.0
 10
-104.1801906197
 20
12.8148095503
 30
0.0
  0
SPLINE
  5
416
100
AcDbEntity
  8
0
100
AcDbSpline
 62
7
  6
CONTINUOUS
 70
0
 71
3
 72
9
 73
5
 74
0
 42
0.0000001
 43
0.0000001
 44
0.0000000001
 40
0.0
 40
0.0
 40
0.0
 40
0.0
 40
0.5099660212
 40
1.0
 40
1.0
 40
1.0
 40
1.0
 10
-104.5246873249
 20
-9.801176342
 30
0.0
 10
-104.4538651374
 20
-9.5760151512
 30
0.0
 10
-104.1905087246
 20
-9.1748597674
 30
0.0
 10
-103.8241651672
 20
-8.8823379647
 30
0.0
 10
-103.6269799604
 20
-8.7702606178
 30
0.0
  0
SPLINE
  5
417
100
AcDbEntity
  8
0
100
AcDbSpline
 62
7
  6
CONTINUOUS
 70
0
 71
3
 72
11
 73
7
 74
0
 42
0.0000001
 43
0.0000001
 44
0.0000000001
 40
0.0
 40
0.0
 40
0.0
 40
0.0
 40
0.2399360557
 40
0.4844988142
 40
0.7370617112
 40
1.0
 40
1.0
 40
1.0
 40
1.0
 10
-92.144837092
 20
-25.8416077509
 30
0.0
 10
-93.5750573164
 20
-24.962635222
 30
0.0
 10
-96.2885763851
 20
-22.8856156187
 30
0.0
 10
-99.6993597547
 20
-18.9760030814
 30
0.0
 10
-102.3951076418
 20
-14.3586661889
 30
0.0
 10
-103.6490206419
 20
-10.9558493036
 30
0.0
 10
-104.1477427284
 20
-9.1850765931
 30
0.0
  0
SPLINE
  5
418
100
AcDbEntity
  8
0
100
AcDbSpline
 62
7
  6
CONTINUOUS
 70
0
 71
3
 72
9
 73
5
 74
0
 42
0.0000001
 43
0.0000001
 44
0.0000000001
 40
0.0
 40
0.0
 40
0.0
 40
0.0
 40
0.4971185774
 40
1.0
 40
1.0
 40
1.0
 40
1.0
 10
-46.4385823853
 20
52.1138001754
 30
0.0
 10
-45.2943119541
 20
51.4566730123
 30
0.0
 10
-43.0999992195
 20
49.9383550744
 30
0.0
 10
-41.187755523
 20
48.0784500095
 30
0.0
 10
-40.3075615301
 20
47.0749399265
 30
0.0
  0
SPLINE
  5
419
100
AcDbEntity
  8
0
100
AcDbSpline
 62
7
  6
CONTINUOUS
 70
0
 71
3
 72
9
 73
5
 74
0
 42
0.0000001
 43
0.0000001
 44
0.0000000001
 40
0.0
 40
0.0
 40
0.0
 40
0.0
 40
0.2450294536
 40
1.0
 40
1.0
 40
1.0
 40
1.0
 10
-114.4182164601
 20
7.2387223056
 30
0.0
 10
-114.3918887334
 20
8.4657805355
 30
0.0
 10
-114.0836218099
 20
13.4681763702
 30
0.0
 10
-112.9981528747
 20
18.4151331364
 30
0.0
 10
-111.8114148905
 20
22.0057087726
 30
0.0
  0
SPLINE
  5
41A
100
AcDbEntity
  8
0
100
AcDbSpline
 62
7
  6
CONTINUOUS
 70
0
 71
3
 72
9
 73
5
 74
0
 42
0.0000001
 43
0.0000001
 44
0.0000000001
 40
0.0
 40
0.0
 40
0.0
 40
0.0
 40
0.2543377596
 40
1.0
 40
1.0
 40
1.0
 40
1.0
 10
-102.7866143583
 20
38.9000260053
 30
0.0
 10
-101.9901196273
 20
39.9244746
 30
0.0
 10
-98.7200558654
 20
43.8418338065
 30
0.0
 10
-94.8933103255
 20
47.3023951717
 30
0.0
 10
-91.7910920031
 20
49.5046461434
 30
0.0
  0
SPLINE
  5
41B
100
AcDbEntity
  8
0
100
AcDbSpline
 62
7
  6
CONTINUOUS
 70
0
 71
3
 72
8
 73
4
 74
0
 42
0.0000001
 43
0.0000001
 44
0.0000000001
 40
0.0
 40
0.0
 40
0.0
 40
0.0
 40
1.0
 40
1.0
 40
1.0
 40
1.0
 10
-41.4523691699
 20
27.474616622
 30
0.0
 10
-41.4366763261
 20
27.4982981869
 30
0.0
 10
-41.4155153938
 20
27.5195313076
 30
0.0
 10
-41.3908125424
 20
27.5335616675
 30
0.0
  0
SPLINE
  5
41C
100
AcDbEntity
  8
0
100
AcDbSpline
 62
7
  6
CONTINUOUS
 70
0
 71
3
 72
9
 73
5
 74
0
 42
0.0000001
 43
0.0000001
 44
0.0000000001
 40
0.0
 40
0.0
 40
0.0
 40
0.0
 40
0.2566084494
 40
1.0
 40
1.0
 40
1.0
 40
1.0
 10
-100.216373245
 20
2.9348530131
 30
0.0
 10
-100.2162528526
 20
2.2241819584
 30
0.0
 10
-100.1370584481
 20
-0.5443234878
 30
0.0
 10
-99.733533188
 20
-3.306650403
 30
0.0
 10
-99.2319461148
 20
-5.3034203301
 30
0.0
  0
SPLINE
  5
41D
100
AcDbEntity
  8
0
100
AcDbSpline
 62
7
  6
CONTINUOUS
 70
0
 71
3
 72
9
 73
5
 74
0
 42
0.0000001
 43
0.0000001
 44
0.0000000001
 40
0.0
 40
0.0
 40
0.0
 40
0.0
 40
0.2549365437
 40
1.0
 40
1.0
 40
1.0
 40
1.0
 10
-99.2348272003
 20
11.703493082
 30
0.0
 10
-99.3967484747
 20
10.9705434073
 30
0.0
 10
-99.9578130951
 20
8.0799126533
 30
0.0
 10
-100.2167448771
 20
5.1285800217
 30
0.0
 10
-100.216373245
 20
2.9348530131
 30
0.0
  0
SPLINE
  5
41E
100
AcDbEntity
  8
0
100
AcDbSpline
 62
7
  6
CONTINUOUS
 70
0
 71
3
 72
11
 73
7
 74
0
 42
0.0000001
 43
0.0000001
 44
0.0000000001
 40
0.0
 40
0.0
 40
0.0
 40
0.0
 40
0.262867245
 40
0.5183414245
 40
0.7644360727
 40
1.0
 40
1.0
 40
1.0
 40
1.0
 10
-91.9373322245
 20
36.313303835
 30
0.0
 10
-90.4108769458
 20
38.0537444681
 30
0.0
 10
-87.1776825875
 20
41.2981007113
 30
0.0
 10
-81.8100621788
 20
45.3965477159
 30
0.0
 10
-76.1184913717
 20
48.5663648602
 30
0.0
 10
-72.1143310471
 20
50.0339293714
 30
0.0
 10
-70.1113959174
 20
50.5742774838
 30
0.0
  0
SPLINE
  5
41F
100
AcDbEntity
  8
0
100
AcDbSpline
 62
7
  6
CONTINUOUS
 70
0
 71
3
 72
9
 73
5
 74
0
 42
0.0000001
 43
0.0000001
 44
0.0000000001
 40
0.0
 40
0.0
 40
0.0
 40
0.0
 40
0.4971345881
 40
1.0
 40
1.0
 40
1.0
 40
1.0
 10
-104.1799794808
 20
12.8150927276
 30
0.0
 10
-103.2993458898
 20
16.4579174174
 30
0.0
 10
-100.7351871072
 20
23.6110909429
 30
0.0
 10
-96.8012855072
 20
30.1081892197
 30
0.0
 10
-94.5203814613
 20
33.1362017244
 30
0.0
  0
SPLINE
  5
420
100
AcDbEntity
  8
0
100
AcDbSpline
 62
7
  6
CONTINUOUS
 70
0
 71
3
 72
9
 73
5
 74
0
 42
0.0000001
 43
0.0000001
 44
0.0000000001
 40
0.0
 40
0.0
 40
0.0
 40
0.0
 40
0.5112957317
 40
1.0
 40
1.0
 40
1.0
 40
1.0
 10
-70.1113959174
 20
50.5742774838
 30
0.0
 10
-68.0959707683
 20
51.1179648057
 30
0.0
 10
-64.049077315
 20
51.8347701121
 30
0.0
 10
-59.9334031447
 20
51.7299578208
 30
0.0
 10
-57.9565661825
 20
51.4596167852
 30
0.0
  0
SPLINE
  5
421
100
AcDbEntity
  8
0
100
AcDbSpline
 62
7
  6
CONTINUOUS
 70
0
 71
3
 72
9
 73
5
 74
0
 42
0.0000001
 43
0.0000001
 44
0.0000000001
 40
0.0
 40
0.0
 40
0.0
 40
0.0
 40
0.5039204029
 40
1.0
 40
1.0
 40
1.0
 40
1.0
 10
-57.9565661825
 20
51.4596167852
 30
0.0
 10
-56.4439230324
 20
51.2527562683
 30
0.0
 10
-53.470562568
 20
50.5864390469
 30
0.0
 10
-50.6629419124
 20
49.3986109757
 30
0.0
 10
-49.3379861626
 20
48.6891027299
 30
0.0
  0
SPLINE
  5
422
100
AcDbEntity
  8
0
100
AcDbSpline
 62
7
  6
CONTINUOUS
 70
0
 71
3
 72
19
 73
15
 74
0
 42
0.0000001
 43
0.0000001
 44
0.0000000001
 40
0.0
 40
0.0
 40
0.0
 40
0.0
 40
0.1279035945
 40
0.2538136992
 40
0.3781985194
 40
0.44007057
 40
0.50174898
 40
0.563392619
 40
0.6252200858
 40
0.6871562609
 40
0.7491487627
 40
0.8113882319
 40
0.8739395825
 40
1.0
 40
1.0
 40
1.0
 40
1.0
 10
-91.6314345618
 20
49.2436658542
 30
0.0
 10
-92.811960977
 20
48.5225820755
 30
0.0
 10
-95.0494496653
 20
46.9096041241
 30
0.0
 10
-97.9626192051
 20
44.0152374768
 30
0.0
 10
-99.9577427452
 20
41.2724105911
 30
0.0
 10
-101.2721628992
 20
38.9326327778
 30
0.0
 10
-102.1140947774
 20
37.112831806
 30
0.0
 10
-102.8147023508
 20
35.2351482806
 30
0.0
 10
-103.3888714312
 20
33.3123249438
 30
0.0
 10
-103.8294248262
 20
31.3503407145
 30
0.0
 10
-104.1245323929
 20
29.3569583406
 30
0.0
 10
-104.2930800109
 20
27.3426167271
 30
0.0
 10
-104.3587094504
 20
24.6289656179
 30
0.0
 10
-104.2218516055
 20
22.588414006
 30
0.0
 10
-104.0694411409
 20
21.2335633805
 30
0.0
  0
SPLINE
  5
423
100
AcDbEntity
  8
0
100
AcDbSpline
 62
7
  6
CONTINUOUS
 70
0
 71
3
 72
9
 73
5
 74
0
 42
0.0000001
 43
0.0000001
 44
0.0000000001
 40
0.0
 40
0.0
 40
0.0
 40
0.0
 40
0.4971186031
 40
1.0
 40
1.0
 40
1.0
 40
1.0
 10
-92.0764038393
 20
-30.9709094805
 30
0.0
 10
-93.2205190542
 20
-30.3138129903
 30
0.0
 10
-95.4145359595
 20
-28.7956062078
 30
0.0
 10
-97.3265433792
 20
-26.9358974298
 30
0.0
 10
-98.2066373083
 20
-25.9325014302
 30
0.0
  0
SPLINE
  5
424
100
AcDbEntity
  8
0
100
AcDbSpline
 62
7
  6
CONTINUOUS
 70
0
 71
3
 72
9
 73
5
 74
0
 42
0.0000001
 43
0.0000001
 44
0.0000000001
 40
0.0
 40
0.0
 40
0.0
 40
0.0
 40
0.4869725138
 40
1.0
 40
1.0
 40
1.0
 40
1.0
 10
-99.1993847138
 20
-25.6690066264
 30
0.0
 10
-100.7620169082
 20
-24.0170624009
 30
0.0
 10
-103.511559992
 20
-20.1684285107
 30
0.0
 10
-105.2275253107
 20
-15.7758168631
 30
0.0
 10
-105.85869136
 20
-13.4648687862
 30
0.0
  0
SPLINE
  5
425
100
AcDbEntity
  8
0
100
AcDbSpline
 62
7
  6
CONTINUOUS
 70
0
 71
3
 72
9
 73
5
 74
0
 42
0.0000001
 43
0.0000001
 44
0.0000000001
 40
0.0
 40
0.0
 40
0.0
 40
0.0
 40
0.7176883121
 40
1.0
 40
1.0
 40
1.0
 40
1.0
 10
-91.6059404965
 20
49.2592305336
 30
0.0
 10
-91.6128607804
 20
49.265544405
 30
0.0
 10
-91.628617088
 20
49.2686166043
 30
0.0
 10
-91.6403022123
 20
49.2626577966
 30
0.0
 10
-91.6434512919
 20
49.2607441525
 30
0.0
  0
SPLINE
  5
426
100
AcDbEntity
  8
0
100
AcDbSpline
 62
7
  6
CONTINUOUS
 70
0
 71
3
 72
9
 73
5
 74
0
 42
0.0000001
 43
0.0000001
 44
0.0000000001
 40
0.0
 40
0.0
 40
0.0
 40
0.0
 40
0.5114162796
 40
1.0
 40
1.0
 40
1.0
 40
1.0
 10
-65.9596733334
 20
54.9727206023
 30
0.0
 10
-63.6513972576
 20
55.3712759623
 30
0.0
 10
-59.0291385283
 20
55.6475901966
 30
0.0
 10
-54.4774557847
 20
54.7292688784
 30
0.0
 10
-52.3669202946
 20
53.9852120016
 30
0.0
  0
SPLINE
  5
427
100
AcDbEntity
  8
0
100
AcDbSpline
 62
7
  6
CONTINUOUS
 70
0
 71
3
 72
9
 73
5
 74
0
 42
0.0000001
 43
0.0000001
 44
0.0000000001
 40
0.0
 40
0.0
 40
0.0
 40
0.0
 40
0.2505046494
 40
1.0
 40
1.0
 40
1.0
 40
1.0
 10
-104.0694457172
 20
21.2335516437
 30
0.0
 10
-103.5173270592
 20
22.5658412862
 30
0.0
 10
-101.098712459
 20
27.7925822879
 30
0.0
 10
-97.8419022206
 20
32.6330243643
 30
0.0
 10
-95.0113013881
 20
35.8896718887
 30
0.0
  0
SPLINE
  5
428
100
AcDbEntity
  8
0
100
AcDbSpline
 62
7
  6
CONTINUOUS
 70
0
 71
3
 72
9
 73
5
 74
0
 42
0.0000001
 43
0.0000001
 44
0.0000000001
 40
0.0
 40
0.0
 40
0.0
 40
0.0
 40
0.4862146324
 40
1.0
 40
1.0
 40
1.0
 40
1.0
 10
-106.5931863835
 20
-12.749886236
 30
0.0
 10
-107.3325047173
 20
-10.3409902926
 30
0.0
 10
-108.2860399065
 20
-5.201875695
 30
0.0
 10
-108.2089148191
 20
0.0131282534
 30
0.0
 10
-107.9384848305
 20
2.6620403707
 30
0.0
  0
SPLINE
  5
429
100
AcDbEntity
  8
0
100
AcDbSpline
 62
7
  6
CONTINUOUS
 70
0
 71
3
 72
9
 73
5
 74
0
 42
0.0000001
 43
0.0000001
 44
0.0000000001
 40
0.0
 40
0.0
 40
0.0
 40
0.0
 40
0.5092400241
 40
1.0
 40
1.0
 40
1.0
 40
1.0
 10
-94.5354771531
 20
37.1235192148
 30
0.0
 10
-92.7327631666
 20
39.2969599796
 30
0.0
 10
-88.8426208732
 20
43.2881100859
 30
0.0
 10
-84.3207676228
 20
46.5568560867
 30
0.0
 10
-81.9723709692
 20
47.9317885604
 30
0.0
  0
SPLINE
  5
42A
100
AcDbEntity
  8
0
100
AcDbSpline
 62
7
  6
CONTINUOUS
 70
0
 71
3
 72
9
 73
5
 74
0
 42
0.0000001
 43
0.0000001
 44
0.0000000001
 40
0.0
 40
0.0
 40
0.0
 40
0.0
 40
0.5211010919
 40
1.0
 40
1.0
 40
1.0
 40
1.0
 10
-50.2518898629
 20
54.1282409539
 30
0.0
 10
-50.4146799018
 20
54.2070726251
 30
0.0
 10
-50.7552721862
 20
54.316079017
 30
0.0
 10
-51.110270507
 20
54.2663135665
 30
0.0
 10
-51.2682371838
 20
54.2145721419
 30
0.0
  0
SPLINE
  5
42B
100
AcDbEntity
  8
0
100
AcDbSpline
 62
7
  6
CONTINUOUS
 70
0
 71
3
 72
9
 73
5
 74
0
 42
0.0000001
 43
0.0000001
 44
0.0000000001
 40
0.0
 40
0.0
 40
0.0
 40
0.0
 40
0.5191296789
 40
1.0
 40
1.0
 40
1.0
 40
1.0
 10
-52.081675452
 20
54.1646561677
 30
0.0
 10
-51.9509681876
 20
54.2234186954
 30
0.0
 10
-51.6750635534
 20
54.2883999896
 30
0.0
 10
-51.3950471993
 20
54.2538568832
 30
0.0
 10
-51.2682451685
 20
54.214575311
 30
0.0
  0
SPLINE
  5
42C
100
AcDbEntity
  8
0
100
AcDbSpline
 62
7
  6
CONTINUOUS
 70
0
 71
3
 72
11
 73
7
 74
0
 42
0.0000001
 43
0.0000001
 44
0.0000000001
 40
0.0
 40
0.0
 40
0.0
 40
0.0
 40
0.1009551277
 40
0.2270907415
 40
0.4858105312
 40
1.0
 40
1.0
 40
1.0
 40
1.0
 10
-90.0276075951
 20
50.1729432378
 30
0.0
 10
-90.0330874278
 20
50.1748640062
 30
0.0
 10
-90.0468125493
 20
50.1710935322
 30
0.0
 10
-90.0726266959
 20
50.1622729949
 30
0.0
 10
-90.1199521536
 20
50.1400950667
 30
0.0
 10
-90.1590300639
 20
50.1193363744
 30
0.0
 10
-90.1849266727
 20
50.1050518395
 30
0.0
  0
SPLINE
  5
42D
100
AcDbEntity
  8
0
100
AcDbSpline
 62
7
  6
CONTINUOUS
 70
0
 71
3
 72
9
 73
5
 74
0
 42
0.0000001
 43
0.0000001
 44
0.0000000001
 40
0.0
 40
0.0
 40
0.0
 40
0.0
 40
0.2569063333
 40
1.0
 40
1.0
 40
1.0
 40
1.0
 10
-78.3695143945
 20
55.9992300412
 30
0.0
 10
-78.8589570767
 20
55.905595237
 30
0.0
 10
-80.7515109374
 20
55.4795316948
 30
0.0
 10
-82.5888016185
 20
54.7981053201
 30
0.0
 10
-83.8750895722
 20
54.1477086101
 30
0.0
  0
SPLINE
  5
42E
100
AcDbEntity
  8
0
100
AcDbSpline
 62
7
  6
CONTINUOUS
 70
0
 71
3
 72
15
 73
11
 74
0
 42
0.0000001
 43
0.0000001
 44
0.0000000001
 40
0.0
 40
0.0
 40
0.0
 40
0.0
 40
0.1231054108
 40
0.24517727
 40
0.3675765621
 40
0.4909171079
 40
0.6151142475
 40
0.7411653556
 40
0.8693505984
 40
1.0
 40
1.0
 40
1.0
 40
1.0
 10
-87.1186182836
 20
52.0622636566
 30
0.0
 10
-87.6667365118
 20
51.6223203145
 30
0.0
 10
-88.7090802193
 20
50.682138204
 30
0.0
 10
-90.0901431549
 20
49.0959970906
 30
0.0
 10
-91.2898584889
 20
47.3680638352
 30
0.0
 10
-92.3151901869
 20
45.5168238609
 30
0.0
 10
-93.1347675046
 20
43.5435480687
 30
0.0
 10
-93.781097537
 20
41.4791476067
 30
0.0
 10
-94.25335116
 20
39.3304033464
 30
0.0
 10
-94.4554497444
 20
37.8651343958
 30
0.0
 10
-94.5354696183
 20
37.1235287012
 30
0.0
  0
SPLINE
  5
42F
100
AcDbEntity
  8
0
100
AcDbSpline
 62
7
  6
CONTINUOUS
 70
0
 71
3
 72
9
 73
5
 74
0
 42
0.0000001
 43
0.0000001
 44
0.0000000001
 40
0.0
 40
0.0
 40
0.0
 40
0.0
 40
0.4303765696
 40
1.0
 40
1.0
 40
1.0
 40
1.0
 10
-41.3908125424
 20
27.5335616675
 30
0.0
 10
-41.3541692831
 20
27.5543737636
 30
0.0
 10
-41.2486191099
 20
27.5649966455
 30
0.0
 10
-41.1576350939
 20
27.5229881561
 30
0.0
 10
-41.1092692436
 20
27.4952091487
 30
0.0
  0
SPLINE
  5
430
100
AcDbEntity
  8
0
100
AcDbSpline
 62
7
  6
CONTINUOUS
 70
0
 71
3
 72
11
 73
7
 74
0
 42
0.0000001
 43
0.0000001
 44
0.0000000001
 40
0.0
 40
0.0
 40
0.0
 40
0.0
 40
0.2785284453
 40
0.5327909542
 40
0.7699795894
 40
1.0
 40
1.0
 40
1.0
 40
1.0
 10
-59.6769167483
 20
57.1478361777
 30
0.0
 10
-60.0820801665
 20
57.2778067258
 30
0.0
 10
-60.8791347732
 20
57.4665290679
 30
0.0
 10
-62.0629103322
 20
57.5093068876
 30
0.0
 10
-63.1562854869
 20
57.3014499133
 30
0.0
 10
-63.8082384395
 20
56.9920077357
 30
0.0
 10
-64.1081437706
 20
56.8088811448
 30
0.0
  0
SPLINE
  5
431
100
AcDbEntity
  8
0
100
AcDbSpline
 62
7
  6
CONTINUOUS
 70
0
 71
3
 72
9
 73
5
 74
0
 42
0.0000001
 43
0.0000001
 44
0.0000000001
 40
0.0
 40
0.0
 40
0.0
 40
0.0
 40
0.4812704235
 40
1.0
 40
1.0
 40
1.0
 40
1.0
 10
-64.1081437706
 20
56.8088811448
 30
0.0
 10
-64.4671994601
 20
56.589636478
 30
0.0
 10
-65.155798157
 20
56.0348327655
 30
0.0
 10
-65.7011563288
 20
55.3452629745
 30
0.0
 10
-65.9596639539
 20
54.9727220216
 30
0.0
  0
SPLINE
  5
432
100
AcDbEntity
  8
0
100
AcDbSpline
 62
7
  6
CONTINUOUS
 70
0
 71
3
 72
9
 73
5
 74
0
 42
0.0000001
 43
0.0000001
 44
0.0000000001
 40
0.0
 40
0.0
 40
0.0
 40
0.0
 40
0.4924167275
 40
1.0
 40
1.0
 40
1.0
 40
1.0
 10
-108.3035501323
 20
3.7203406196
 30
0.0
 10
-108.0926840904
 20
6.4796128553
 30
0.0
 10
-107.1443465072
 20
12.0519783519
 30
0.0
 10
-105.281179725
 20
17.3833707146
 30
0.0
 10
-104.1293880199
 20
19.993050315
 30
0.0
  0
SPLINE
  5
433
100
AcDbEntity
  8
0
100
AcDbSpline
 62
7
  6
CONTINUOUS
 70
0
 71
3
 72
9
 73
5
 74
0
 42
0.0000001
 43
0.0000001
 44
0.0000000001
 40
0.0
 40
0.0
 40
0.0
 40
0.0
 40
0.4403096945
 40
1.0
 40
1.0
 40
1.0
 40
1.0
 10
-37.0509289985
 20
30.00027257
 30
0.0
 10
-37.0108359378
 20
30.0227934317
 30
0.0
 10
-36.9001282071
 20
30.0382820127
 30
0.0
 10
-36.800092892
 20
30.0005047395
 30
0.0
 10
-36.7479431008
 20
29.9741007266
 30
0.0
  0
SPLINE
  5
434
100
AcDbEntity
  8
0
100
AcDbSpline
 62
7
  6
CONTINUOUS
 70
0
 71
3
 72
9
 73
5
 74
0
 42
0.0000001
 43
0.0000001
 44
0.0000000001
 40
0.0
 40
0.0
 40
0.0
 40
0.0
 40
0.2545382701
 40
1.0
 40
1.0
 40
1.0
 40
1.0
 10
-65.5098971682
 20
57.348522041
 30
0.0
 10
-65.6439830551
 20
57.3810370806
 30
0.0
 10
-66.1719937395
 20
57.5036253387
 30
0.0
 10
-66.7049269874
 20
57.6052278177
 30
0.0
 10
-67.1041313856
 20
57.6677835355
 30
0.0
  0
SPLINE
  5
435
100
AcDbEntity
  8
0
100
AcDbSpline
 62
7
  6
CONTINUOUS
 70
0
 71
3
 72
9
 73
5
 74
0
 42
0.0000001
 43
0.0000001
 44
0.0000000001
 40
0.0
 40
0.0
 40
0.0
 40
0.0
 40
0.2546529001
 40
1.0
 40
1.0
 40
1.0
 40
1.0
 10
-67.1041313856
 20
57.6677835355
 30
0.0
 10
-67.2351256605
 20
57.6883104659
 30
0.0
 10
-67.7503783035
 20
57.7633562721
 30
0.0
 10
-68.2689731917
 20
57.8158165328
 30
0.0
 10
-68.6562478637
 20
57.8409249026
 30
0.0
  0
SPLINE
  5
436
100
AcDbEntity
  8
0
100
AcDbSpline
 62
7
  6
CONTINUOUS
 70
0
 71
3
 72
9
 73
5
 74
0
 42
0.0000001
 43
0.0000001
 44
0.0000000001
 40
0.0
 40
0.0
 40
0.0
 40
0.0
 40
0.2550803999
 40
1.0
 40
1.0
 40
1.0
 40
1.0
 10
-68.6562478637
 20
57.8409249026
 30
0.0
 10
-68.7961470972
 20
57.8499950587
 30
0.0
 10
-69.3450275421
 20
57.8784029538
 30
0.0
 10
-69.8955069376
 20
57.8776188923
 30
0.0
 10
-70.304493289
 20
57.8589978288
 30
0.0
  0
SPLINE
  5
437
100
AcDbEntity
  8
0
100
AcDbSpline
 62
7
  6
CONTINUOUS
 70
0
 71
3
 72
9
 73
5
 74
0
 42
0.0000001
 43
0.0000001
 44
0.0000000001
 40
0.0
 40
0.0
 40
0.0
 40
0.0
 40
0.2533857635
 40
1.0
 40
1.0
 40
1.0
 40
1.0
 10
-72.94438669
 20
57.464765775
 30
0.0
 10
-73.0606722126
 20
57.4340879271
 30
0.0
 10
-73.5176595262
 20
57.3058121333
 30
0.0
 10
-73.9665329855
 20
57.1483866525
 30
0.0
 10
-74.2945260191
 20
57.0142424059
 30
0.0
  0
SPLINE
  5
438
100
AcDbEntity
  8
0
100
AcDbSpline
 62
7
  6
CONTINUOUS
 70
0
 71
3
 72
11
 73
7
 74
0
 42
0.0000001
 43
0.0000001
 44
0.0000000001
 40
0.0
 40
0.0
 40
0.0
 40
0.0
 40
0.2400786729
 40
0.4828943682
 40
0.7351995075
 40
1.0
 40
1.0
 40
1.0
 40
1.0
 10
-76.2635033938
 20
55.9511500855
 30
0.0
 10
-76.8364602887
 20
55.5601424365
 30
0.0
 10
-77.9205639005
 20
54.6645016312
 30
0.0
 10
-79.2586415621
 20
53.0003057083
 30
0.0
 10
-80.3552411786
 20
51.088958045
 30
0.0
 10
-80.9050452055
 20
49.6949100472
 30
0.0
 10
-81.153095507
 20
48.9711456767
 30
0.0
  0
SPLINE
  5
439
100
AcDbEntity
  8
0
100
AcDbSpline
 62
7
  6
CONTINUOUS
 70
0
 71
3
 72
9
 73
5
 74
0
 42
0.0000001
 43
0.0000001
 44
0.0000000001
 40
0.0
 40
0.0
 40
0.0
 40
0.0
 40
0.5087556164
 40
1.0
 40
1.0
 40
1.0
 40
1.0
 10
-81.9341128794
 20
48.0450898484
 30
0.0
 10
-81.8675014604
 20
48.242349649
 30
0.0
 10
-81.639420078
 20
48.5968362612
 30
0.0
 10
-81.3238451523
 20
48.8650102458
 30
0.0
 10
-81.1531047284
 20
48.9711398134
 30
0.0
  0
SPLINE
  5
43A
100
AcDbEntity
  8
0
100
AcDbSpline
 62
7
  6
CONTINUOUS
 70
0
 71
3
 72
9
 73
5
 74
0
 42
0.0000001
 43
0.0000001
 44
0.0000000001
 40
0.0
 40
0.0
 40
0.0
 40
0.0
 40
0.5144176016
 40
1.0
 40
1.0
 40
1.0
 40
1.0
 10
-81.1531047284
 20
48.9711398134
 30
0.0
 10
-78.9391018544
 20
50.3473129798
 30
0.0
 10
-74.3805910943
 20
52.6404863862
 30
0.0
 10
-69.4348828831
 20
53.9468503912
 30
0.0
 10
-66.9976557213
 20
54.286097229
 30
0.0
  0
SPLINE
  5
43B
100
AcDbEntity
  8
0
100
AcDbSpline
 62
7
  6
CONTINUOUS
 70
0
 71
3
 72
9
 73
5
 74
0
 42
0.0000001
 43
0.0000001
 44
0.0000000001
 40
0.0
 40
0.0
 40
0.0
 40
0.0
 40
0.5026785101
 40
1.0
 40
1.0
 40
1.0
 40
1.0
 10
-94.6816105936
 20
33.247628262
 30
0.0
 10
-96.9563396615
 20
30.2022840139
 30
0.0
 10
-100.8952686835
 20
23.6852314375
 30
0.0
 10
-103.5055870239
 20
16.5283098337
 30
0.0
 10
-104.4234184443
 20
12.8814226514
 30
0.0
  0
SPLINE
  5
43C
100
AcDbEntity
  8
0
100
AcDbSpline
 62
7
  6
CONTINUOUS
 70
0
 71
3
 72
11
 73
7
 74
0
 42
0.0000001
 43
0.0000001
 44
0.0000000001
 40
0.0
 40
0.0
 40
0.0
 40
0.0
 40
0.278384039
 40
0.5228186726
 40
0.7583136896
 40
1.0
 40
1.0
 40
1.0
 40
1.0
 10
-104.5523700779
 20
12.3580279891
 30
0.0
 10
-104.5861214146
 20
12.2180252844
 30
0.0
 10
-104.5778662629
 20
11.9281527862
 30
0.0
 10
-104.3386047342
 20
11.5951729116
 30
0.0
 10
-104.0030948274
 20
11.4123865218
 30
0.0
 10
-103.7553686695
 20
11.3712392306
 30
0.0
 10
-103.6303914101
 20
11.3676386708
 30
0.0
  0
SPLINE
  5
43D
100
AcDbEntity
  8
0
100
AcDbSpline
 62
7
  6
CONTINUOUS
 70
0
 71
3
 72
9
 73
5
 74
0
 42
0.0000001
 43
0.0000001
 44
0.0000000001
 40
0.0
 40
0.0
 40
0.0
 40
0.0
 40
0.7886999455
 40
1.0
 40
1.0
 40
1.0
 40
1.0
 10
-76.0439533135
 20
56.3389942214
 30
0.0
 10
-76.0296350661
 20
56.3404411246
 30
0.0
 10
-76.0115089696
 20
56.3420543034
 30
0.0
 10
-75.9930764081
 20
56.3412718438
 30
0.0
 10
-75.9893492344
 20
56.3402852978
 30
0.0
  0
SPLINE
  5
43E
100
AcDbEntity
  8
0
100
AcDbSpline
 62
7
  6
CONTINUOUS
 70
0
 71
3
 72
9
 73
5
 74
0
 42
0.0000001
 43
0.0000001
 44
0.0000000001
 40
0.0
 40
0.0
 40
0.0
 40
0.0
 40
0.4942225725
 40
1.0
 40
1.0
 40
1.0
 40
1.0
 10
-95.0076382767
 20
36.08701501
 30
0.0
 10
-94.9918093621
 20
36.2759467602
 30
0.0
 10
-94.8693531709
 20
36.6496821849
 30
0.0
 10
-94.6593446232
 20
36.9741770809
 30
0.0
 10
-94.5354771531
 20
37.1235192148
 30
0.0
  0
SPLINE
  5
43F
100
AcDbEntity
  8
0
100
AcDbSpline
 62
7
  6
CONTINUOUS
 70
0
 71
3
 72
9
 73
5
 74
0
 42
0.0000001
 43
0.0000001
 44
0.0000000001
 40
0.0
 40
0.0
 40
0.0
 40
0.0
 40
0.2549398698
 40
1.0
 40
1.0
 40
1.0
 40
1.0
 10
-99.5824415712
 20
11.2510195805
 30
0.0
 10
-99.7513036199
 20
10.4872977603
 30
0.0
 10
-100.3364133454
 20
7.4753194253
 30
0.0
 10
-100.6064619316
 20
4.3999866043
 30
0.0
 10
-100.6060746884
 20
2.1141082457
 30
0.0
  0
SPLINE
  5
440
100
AcDbEntity
  8
0
100
AcDbSpline
 62
7
  6
CONTINUOUS
 70
0
 71
3
 72
9
 73
5
 74
0
 42
0.0000001
 43
0.0000001
 44
0.0000000001
 40
0.0
 40
0.0
 40
0.0
 40
0.0
 40
0.2566147095
 40
1.0
 40
1.0
 40
1.0
 40
1.0
 10
-100.6060746884
 20
2.1141082457
 30
0.0
 10
-100.6059492415
 20
1.3736008535
 30
0.0
 10
-100.5233606802
 20
-1.5110630947
 30
0.0
 10
-100.102539137
 20
-4.3892815789
 30
0.0
 10
-99.5794395628
 20
-6.4696958194
 30
0.0
  0
SPLINE
  5
441
100
AcDbEntity
  8
0
100
AcDbSpline
 62
7
  6
CONTINUOUS
 70
0
 71
3
 72
15
 73
11
 74
0
 42
0.0000001
 43
0.0000001
 44
0.0000000001
 40
0.0
 40
0.0
 40
0.0
 40
0.0
 40
0.1315763275
 40
0.2577401775
 40
0.3798263919
 40
0.4997252707
 40
0.6196656549
 40
0.741869911
 40
0.8682109327
 40
1.0
 40
1.0
 40
1.0
 40
1.0
 10
-104.5485387739
 20
-10.257986782
 30
0.0
 10
-104.0150822276
 20
-12.1802572189
 30
0.0
 10
-102.6571164599
 20
-15.8696258588
 30
0.0
 10
-99.6953178512
 20
-20.8480469292
 30
0.0
 10
-95.922894218
 20
-25.0156290488
 30
0.0
 10
-91.4380129187
 20
-28.2493274625
 30
0.0
 10
-86.3660721928
 20
-30.4551492578
 30
0.0
 10
-80.8519807567
 20
-31.573502581
 30
0.0
 10
-75.0516064204
 20
-31.5828885223
 30
0.0
 10
-71.1793433327
 20
-30.8710847624
 30
0.0
 10
-69.2501669816
 20
-30.3506448307
 30
0.0
  0
SPLINE
  5
442
100
AcDbEntity
  8
0
100
AcDbSpline
 62
7
  6
CONTINUOUS
 70
0
 71
3
 72
9
 73
5
 74
0
 42
0.0000001
 43
0.0000001
 44
0.0000000001
 40
0.0
 40
0.0
 40
0.0
 40
0.0
 40
0.4857945588
 40
1.0
 40
1.0
 40
1.0
 40
1.0
 10
-104.2240540361
 20
20.3047072932
 30
0.0
 10
-104.2443459827
 20
20.4570554889
 30
0.0
 10
-104.2242015584
 20
20.778635074
 30
0.0
 10
-104.1317264242
 20
21.0832632601
 30
0.0
 10
-104.0694457172
 20
21.2335516437
 30
0.0
  0
SPLINE
  5
443
100
AcDbEntity
  8
0
100
AcDbSpline
 62
7
  6
CONTINUOUS
 70
0
 71
3
 72
11
 73
7
 74
0
 42
0.0000001
 43
0.0000001
 44
0.0000000001
 40
0.0
 40
0.0
 40
0.0
 40
0.0
 40
0.2400497453
 40
0.4842057079
 40
0.7365592263
 40
1.0
 40
1.0
 40
1.0
 40
1.0
 10
-49.3379861626
 20
48.6891027299
 30
0.0
 10
-47.7467983166
 20
47.8370283134
 30
0.0
 10
-44.7170469359
 20
45.7565312299
 30
0.0
 10
-40.9089401722
 20
41.6802306459
 30
0.0
 10
-37.9235918122
 20
36.7650537717
 30
0.0
 10
-36.5640192339
 20
33.1064143155
 30
0.0
 10
-36.032811787
 20
31.1981220557
 30
0.0
  0
SPLINE
  5
444
100
AcDbEntity
  8
0
100
AcDbSpline
 62
7
  6
CONTINUOUS
 70
0
 71
3
 72
9
 73
5
 74
0
 42
0.0000001
 43
0.0000001
 44
0.0000000001
 40
0.0
 40
0.0
 40
0.0
 40
0.0
 40
0.2435875839
 40
1.0
 40
1.0
 40
1.0
 40
1.0
 10
-69.2501669816
 20
-30.3506448307
 30
0.0
 10
-68.4484245462
 20
-30.134356269
 30
0.0
 10
-65.1876871479
 20
-29.1345636743
 30
0.0
 10
-62.0635646762
 20
-27.7039571269
 30
0.0
 10
-59.8193599171
 20
-26.433915557
 30
0.0
  0
SPLINE
  5
445
100
AcDbEntity
  8
0
100
AcDbSpline
 62
7
  6
CONTINUOUS
 70
0
 71
3
 72
11
 73
7
 74
0
 42
0.0000001
 43
0.0000001
 44
0.0000000001
 40
0.0
 40
0.0
 40
0.0
 40
0.0
 40
0.2423155389
 40
0.4880748079
 40
0.7399457968
 40
1.0
 40
1.0
 40
1.0
 40
1.0
 10
-97.686890681
 20
-21.0981783523
 30
0.0
 10
-96.4630897329
 20
-21.7621545125
 30
0.0
 10
-93.875388013
 20
-22.8856907689
 30
0.0
 10
-89.7240260967
 20
-23.8899870887
 30
0.0
 10
-85.363594119
 20
-24.2057731387
 30
0.0
 10
-82.4194651572
 20
-23.9593728733
 30
0.0
 10
-80.9430725673
 20
-23.7290915975
 30
0.0
  0
SPLINE
  5
446
100
AcDbEntity
  8
0
100
AcDbSpline
 62
7
  6
CONTINUOUS
 70
0
 71
3
 72
8
 73
4
 74
0
 42
0.0000001
 43
0.0000001
 44
0.0000000001
 40
0.0
 40
0.0
 40
0.0
 40
0.0
 40
1.0
 40
1.0
 40
1.0
 40
1.0
 10
-36.7962300307
 20
30.2707844387
 30
0.0
 10
-36.8042436734
 20
30.3219074835
 30
0.0
 10
-36.8208974424
 20
30.3722697017
 30
0.0
 10
-36.8444433322
 20
30.4183497978
 30
0.0
  0
SPLINE
  5
447
100
AcDbEntity
  8
0
100
AcDbSpline
 62
7
  6
CONTINUOUS
 70
0
 71
3
 72
8
 73
4
 74
0
 42
0.0000001
 43
0.0000001
 44
0.0000000001
 40
0.0
 40
0.0
 40
0.0
 40
0.0
 40
1.0
 40
1.0
 40
1.0
 40
1.0
 10
-36.8444433322
 20
30.4183497978
 30
0.0
 10
-36.8802447489
 20
30.4884143714
 30
0.0
 10
-36.9322515273
 20
30.5511646393
 30
0.0
 10
-36.9913519318
 20
30.6031062229
 30
0.0
  0
SPLINE
  5
448
100
AcDbEntity
  8
0
100
AcDbSpline
 62
7
  6
CONTINUOUS
 70
0
 71
3
 72
9
 73
5
 74
0
 42
0.0000001
 43
0.0000001
 44
0.0000000001
 40
0.0
 40
0.0
 40
0.0
 40
0.0
 40
0.5067220113
 40
1.0
 40
1.0
 40
1.0
 40
1.0
 10
-110.168659729
 20
-12.624294935
 30
0.0
 10
-111.6723566354
 20
-9.831134986
 30
0.0
 10
-113.9624475354
 20
-3.9132671074
 30
0.0
 10
-114.4510190235
 20
2.4422102456
 30
0.0
 10
-114.1904972606
 20
5.5192374958
 30
0.0
  0
LINE
  5
449
100
AcDbEntity
  8
0
100
AcDbLine
 62
7
  6
CONTINUOUS
 10
-114.1904895582
 20
5.519227096
 11
-114.1871849833
 21
5.5579992648
  0
SPLINE
  5
44A
100
AcDbEntity
  8
0
100
AcDbSpline
 62
7
  6
CONTINUOUS
 70
0
 71
3
 72
9
 73
5
 74
0
 42
0.0000001
 43
0.0000001
 44
0.0000000001
 40
0.0
 40
0.0
 40
0.0
 40
0.0
 40
0.4781680605
 40
1.0
 40
1.0
 40
1.0
 40
1.0
 10
-36.1820330834
 20
31.2802692435
 30
0.0
 10
-36.1246757479
 20
31.0740945325
 30
0.0
 10
-36.1692587283
 20
30.5983700869
 30
0.0
 10
-36.4364968948
 20
30.2107068908
 30
0.0
 10
-36.6182821983
 20
30.0640852032
 30
0.0
  0
SPLINE
  5
44B
100
AcDbEntity
  8
0
100
AcDbSpline
 62
7
  6
CONTINUOUS
 70
0
 71
3
 72
9
 73
5
 74
0
 42
0.0000001
 43
0.0000001
 44
0.0000000001
 40
0.0
 40
0.0
 40
0.0
 40
0.0
 40
0.2597315114
 40
1.0
 40
1.0
 40
1.0
 40
1.0
 10
-36.6182821983
 20
30.0640852032
 30
0.0
 10
-36.6289234568
 20
30.0555023351
 30
0.0
 10
-36.6704826391
 20
30.0231971772
 30
0.0
 10
-36.7143415842
 20
29.993826739
 30
0.0
 10
-36.7479440174
 20
29.9741004573
 30
0.0
  0
SPLINE
  5
44C
100
AcDbEntity
  8
0
100
AcDbSpline
 62
7
  6
CONTINUOUS
 70
0
 71
3
 72
13
 73
9
 74
0
 42
0.0000001
 43
0.0000001
 44
0.0000000001
 40
0.0
 40
0.0
 40
0.0
 40
0.0
 40
0.3018344057
 40
0.5237708955
 40
0.6236705655
 40
0.7306897295
 40
0.8546048549
 40
1.0
 40
1.0
 40
1.0
 40
1.0
 10
-37.0173800022
 20
30.6252703709
 30
0.0
 10
-37.0241909912
 20
30.7667481636
 30
0.0
 10
-37.0189108429
 20
31.0152469337
 30
0.0
 10
-36.874109766
 20
31.294460052
 30
0.0
 10
-36.6900353216
 20
31.3896057634
 30
0.0
 10
-36.5322895023
 20
31.4033560485
 30
0.0
 10
-36.3579282888
 20
31.3654999608
 30
0.0
 10
-36.2420992228
 20
31.3130832105
 30
0.0
 10
-36.1820955266
 20
31.280605223
 30
0.0
  0
SPLINE
  5
44D
100
AcDbEntity
  8
0
100
AcDbSpline
 62
7
  6
CONTINUOUS
 70
0
 71
3
 72
9
 73
5
 74
0
 42
0.0000001
 43
0.0000001
 44
0.0000000001
 40
0.0
 40
0.0
 40
0.0
 40
0.0
 40
0.4995601764
 40
1.0
 40
1.0
 40
1.0
 40
1.0
 10
-111.4087576133
 20
21.8568015136
 30
0.0
 10
-112.2188945979
 20
19.9339163673
 30
0.0
 10
-113.4570201369
 20
15.9123053422
 30
0.0
 10
-113.8910947398
 20
11.7294735209
 30
0.0
 10
-113.9118999516
 20
9.6393245751
 30
0.0
  0
SPLINE
  5
44E
100
AcDbEntity
  8
0
100
AcDbSpline
 62
7
  6
CONTINUOUS
 70
0
 71
3
 72
9
 73
5
 74
0
 42
0.0000001
 43
0.0000001
 44
0.0000000001
 40
0.0
 40
0.0
 40
0.0
 40
0.0
 40
0.2503302359
 40
1.0
 40
1.0
 40
1.0
 40
1.0
 10
-112.669574052
 20
0.0982534665
 30
0.0
 10
-112.5570357319
 20
-0.3220868291
 30
0.0
 10
-112.0792653537
 20
-1.9935961407
 30
0.0
 10
-111.482068062
 20
-3.6305962635
 30
0.0
 10
-110.97553218
 20
-4.8312582504
 30
0.0
  0
SPLINE
  5
44F
100
AcDbEntity
  8
0
100
AcDbSpline
 62
7
  6
CONTINUOUS
 70
0
 71
3
 72
9
 73
5
 74
0
 42
0.0000001
 43
0.0000001
 44
0.0000000001
 40
0.0
 40
0.0
 40
0.0
 40
0.0
 40
0.5003677533
 40
1.0
 40
1.0
 40
1.0
 40
1.0
 10
-110.2352119579
 20
-6.4838472787
 30
0.0
 10
-109.716849841
 20
-7.5770097482
 30
0.0
 10
-108.5859246171
 20
-9.7179860809
 30
0.0
 10
-107.2806187386
 20
-11.756474631
 30
0.0
 10
-106.5931896133
 20
-12.7498752251
 30
0.0
  0
SPLINE
  5
450
100
AcDbEntity
  8
0
100
AcDbSpline
 62
7
  6
CONTINUOUS
 70
0
 71
3
 72
12
 73
8
 74
0
 42
0.0000001
 43
0.0000001
 44
0.0000000001
 40
0.0
 40
0.0
 40
0.0
 40
0.0
 40
0.2614663698
 40
0.5222664468
 40
0.7802381428
 40
0.9042415397
 40
1.0
 40
1.0
 40
1.0
 40
1.0
 10
-102.3661470415
 20
38.540087223
 30
0.0
 10
-102.3512649706
 20
38.5565447144
 30
0.0
 10
-102.3212123789
 20
38.5893142106
 30
0.0
 10
-102.2756263896
 20
38.6364819688
 30
0.0
 10
-102.2352969164
 20
38.675949324
 30
0.0
 10
-102.2055319934
 20
38.6984405164
 30
0.0
 10
-102.1862015354
 20
38.71255268
 30
0.0
 10
-102.1789318273
 20
38.7089213711
 30
0.0
  0
SPLINE
  5
451
100
AcDbEntity
  8
0
100
AcDbSpline
 62
7
  6
CONTINUOUS
 70
0
 71
3
 72
9
 73
5
 74
0
 42
0.0000001
 43
0.0000001
 44
0.0000000001
 40
0.0
 40
0.0
 40
0.0
 40
0.0
 40
0.5022916516
 40
1.0
 40
1.0
 40
1.0
 40
1.0
 10
-103.4815685529
 20
37.217618103
 30
0.0
 10
-105.262628453
 20
35.0966168231
 30
0.0
 10
-108.2464277214
 20
30.3673765259
 30
0.0
 10
-109.8534130005
 20
25.016853521
 30
0.0
 10
-110.2962559605
 20
22.3084664696
 30
0.0
  0
SPLINE
  5
452
100
AcDbEntity
  8
0
100
AcDbSpline
 62
7
  6
CONTINUOUS
 70
0
 71
3
 72
13
 73
9
 74
0
 42
0.0000001
 43
0.0000001
 44
0.0000000001
 40
0.0
 40
0.0
 40
0.0
 40
0.0
 40
0.2502911097
 40
0.3754223569
 40
0.5003299258
 40
0.6251885644
 40
0.7500920017
 40
1.0
 40
1.0
 40
1.0
 40
1.0
 10
-110.3475148994
 20
21.984328384
 30
0.0
 10
-110.5814739446
 20
20.4530622225
 30
0.0
 10
-110.7653284165
 20
18.1275004176
 30
0.0
 10
-110.7134670383
 20
15.0299806255
 30
0.0
 10
-110.510172697
 20
12.716663333
 30
0.0
 10
-110.1602881269
 20
10.4230033343
 30
0.0
 10
-109.5160314018
 20
7.3969320053
 30
0.0
 10
-108.8298743265
 20
5.1747100787
 30
0.0
 10
-108.3035493361
 20
3.7203528919
 30
0.0
  0
SPLINE
  5
453
100
AcDbEntity
  8
0
100
AcDbSpline
 62
7
  6
CONTINUOUS
 70
0
 71
3
 72
9
 73
5
 74
0
 42
0.0000001
 43
0.0000001
 44
0.0000000001
 40
0.0
 40
0.0
 40
0.0
 40
0.0
 40
0.2529887283
 40
1.0
 40
1.0
 40
1.0
 40
1.0
 10
-104.1801906197
 20
12.8148095503
 30
0.0
 10
-104.2112506214
 20
12.776025968
 30
0.0
 10
-104.334369637
 20
12.6229995921
 30
0.0
 10
-104.4598561387
 20
12.4719003513
 30
0.0
 10
-104.5523702983
 20
12.3580291405
 30
0.0
  0
LINE
  5
454
100
AcDbEntity
  8
0
100
AcDbLine
 62
7
  6
CONTINUOUS
 10
-103.8872514052
 20
11.9992113257
 11
-104.0098992694
 21
12.0723999818
  0
SPLINE
  5
455
100
AcDbEntity
  8
0
100
AcDbSpline
 62
7
  6
CONTINUOUS
 70
0
 71
3
 72
8
 73
4
 74
0
 42
0.0000001
 43
0.0000001
 44
0.0000000001
 40
0.0
 40
0.0
 40
0.0
 40
0.0
 40
1.0
 40
1.0
 40
1.0
 40
1.0
 10
-103.3648892593
 20
11.6908148005
 30
0.0
 10
-103.4975859062
 20
11.7115014498
 30
0.0
 10
-103.6289641211
 20
11.7570126554
 30
0.0
 10
-103.7447896944
 20
11.8249889317
 30
0.0
  0
SPLINE
  5
456
100
AcDbEntity
  8
0
100
AcDbSpline
 62
7
  6
CONTINUOUS
 70
0
 71
3
 72
9
 73
5
 74
0
 42
0.0000001
 43
0.0000001
 44
0.0000000001
 40
0.0
 40
0.0
 40
0.0
 40
0.0
 40
0.2391019743
 40
1.0
 40
1.0
 40
1.0
 40
1.0
 10
-108.2209590826
 20
3.0404351319
 30
0.0
 10
-108.240468748
 20
3.0916929817
 30
0.0
 10
-108.3059937605
 20
3.3121474994
 30
0.0
 10
-108.3168485516
 20
3.5463132803
 30
0.0
 10
-108.3035501323
 20
3.7203406196
 30
0.0
  0
SPLINE
  5
457
100
AcDbEntity
  8
0
100
AcDbSpline
 62
7
  6
CONTINUOUS
 70
0
 71
3
 72
9
 73
5
 74
0
 42
0.0000001
 43
0.0000001
 44
0.0000000001
 40
0.0
 40
0.0
 40
0.0
 40
0.0
 40
0.2691106273
 40
1.0
 40
1.0
 40
1.0
 40
1.0
 10
-66.9269432127
 20
54.3839921346
 30
0.0
 10
-66.8666062933
 20
54.4675203911
 30
0.0
 10
-66.6036908706
 20
54.7488365311
 30
0.0
 10
-66.235446871
 20
54.9251026817
 30
0.0
 10
-65.9596733334
 20
54.9727206023
 30
0.0
  0
SPLINE
  5
458
100
AcDbEntity
  8
0
100
AcDbSpline
 62
7
  6
CONTINUOUS
 70
0
 71
3
 72
12
 73
8
 74
0
 42
0.0000001
 43
0.0000001
 44
0.0000000001
 40
0.0
 40
0.0
 40
0.0
 40
0.0
 40
0.2703793487
 40
0.5374088808
 40
0.7963195207
 40
0.9161753797
 40
1.0
 40
1.0
 40
1.0
 40
1.0
 10
-110.7212083051
 20
23.4827203991
 30
0.0
 10
-110.7117189701
 20
23.5031728212
 30
0.0
 10
-110.6923822811
 20
23.5438593
 30
0.0
 10
-110.6631482693
 20
23.6023522799
 30
0.0
 10
-110.6349917067
 20
23.6517880513
 30
0.0
 10
-110.616472327
 20
23.6794770975
 30
0.0
 10
-110.59906293
 20
23.6975048864
 30
0.0
 10
-110.5933202147
 20
23.693519695
 30
0.0
  0
SPLINE
  5
459
100
AcDbEntity
  8
0
100
AcDbSpline
 62
7
  6
CONTINUOUS
 70
0
 71
3
 72
9
 73
5
 74
0
 42
0.0000001
 43
0.0000001
 44
0.0000000001
 40
0.0
 40
0.0
 40
0.0
 40
0.0
 40
0.236464012
 40
1.0
 40
1.0
 40
1.0
 40
1.0
 10
-104.5485387739
 20
-10.257986782
 30
0.0
 10
-104.5582610022
 20
-10.2229534269
 30
0.0
 10
-104.5852366696
 20
-10.0707800376
 30
0.0
 10
-104.5599119625
 20
-9.913164147
 30
0.0
 10
-104.5246873249
 20
-9.801176342
 30
0.0
  0
SPLINE
  5
45A
100
AcDbEntity
  8
0
100
AcDbSpline
 62
7
  6
CONTINUOUS
 70
0
 71
3
 72
8
 73
4
 74
0
 42
0.0000001
 43
0.0000001
 44
0.0000000001
 40
0.0
 40
0.0
 40
0.0
 40
0.0
 40
1.0
 40
1.0
 40
1.0
 40
1.0
 10
-104.5485389934
 20
-10.2579877133
 30
0.0
 10
-104.4647949278
 20
-9.9943105493
 30
0.0
 10
-104.3820347186
 20
-9.7303219211
 30
0.0
 10
-104.2987664397
 20
-9.4664941192
 30
0.0
  0
SPLINE
  5
45B
100
AcDbEntity
  8
0
100
AcDbSpline
 62
7
  6
CONTINUOUS
 70
0
 71
3
 72
11
 73
7
 74
0
 42
0.0000001
 43
0.0000001
 44
0.0000000001
 40
0.0
 40
0.0
 40
0.0
 40
0.0
 40
0.2636598048
 40
0.5160613475
 40
0.7601230898
 40
1.0
 40
1.0
 40
1.0
 40
1.0
 10
-70.0979275613
 20
-28.4581737135
 30
0.0
 10
-72.0325029299
 20
-28.980007907
 30
0.0
 10
-75.9168817704
 20
-29.6816665929
 30
0.0
 10
-81.7306618575
 20
-29.6077388633
 30
0.0
 10
-87.2318613591
 20
-28.3772456699
 30
0.0
 10
-90.5917190322
 20
-26.7961097818
 30
0.0
 10
-92.144837092
 20
-25.8416077509
 30
0.0
  0
SPLINE
  5
45C
100
AcDbEntity
  8
0
100
AcDbSpline
 62
7
  6
CONTINUOUS
 70
0
 71
3
 72
9
 73
5
 74
0
 42
0.0000001
 43
0.0000001
 44
0.0000000001
 40
0.0
 40
0.0
 40
0.0
 40
0.0
 40
0.2437139445
 40
1.0
 40
1.0
 40
1.0
 40
1.0
 10
-106.4153683142
 20
-13.1192798731
 30
0.0
 10
-106.4346739926
 20
-13.0920412412
 30
0.0
 10
-106.508742165
 20
-12.9766527158
 30
0.0
 10
-106.5627879989
 20
-12.8489300265
 30
0.0
 10
-106.5931863835
 20
-12.749886236
 30
0.0
  0
SPLINE
  5
45D
100
AcDbEntity
  8
0
100
AcDbSpline
 62
7
  6
CONTINUOUS
 70
0
 71
3
 72
9
 73
5
 74
0
 42
0.0000001
 43
0.0000001
 44
0.0000000001
 40
0.0
 40
0.0
 40
0.0
 40
0.0
 40
0.3075506273
 40
1.0
 40
1.0
 40
1.0
 40
1.0
 10
-111.4338533645
 20
21.8773052798
 30
0.0
 10
-111.4351691028
 20
21.8741318163
 30
0.0
 10
-111.4248789318
 20
21.8634354505
 30
0.0
 10
-111.4158176769
 20
21.8599767252
 30
0.0
 10
-111.4087636386
 20
21.8568037294
 30
0.0
  0
SPLINE
  5
45E
100
AcDbEntity
  8
0
100
AcDbSpline
 62
7
  6
CONTINUOUS
 70
0
 71
3
 72
15
 73
11
 74
0
 42
0.0000001
 43
0.0000001
 44
0.0000000001
 40
0.0
 40
0.0
 40
0.0
 40
0.0
 40
0.1315763275
 40
0.2577401775
 40
0.3798263919
 40
0.4997252707
 40
0.6196656549
 40
0.741869911
 40
0.8682109327
 40
1.0
 40
1.0
 40
1.0
 40
1.0
 10
-33.9656600673
 20
31.4004252813
 30
0.0
 10
-34.4991166136
 20
33.3226957182
 30
0.0
 10
-35.8570823812
 20
37.0120643581
 30
0.0
 10
-38.8188809899
 20
41.9904854285
 30
0.0
 10
-42.5913046232
 20
46.158067548
 30
0.0
 10
-47.0761859224
 20
49.3917659617
 30
0.0
 10
-52.1481266483
 20
51.597587757
 30
0.0
 10
-57.6622180844
 20
52.7159410802
 30
0.0
 10
-63.4625924207
 20
52.7253270215
 30
0.0
 10
-67.3348555085
 20
52.0135232617
 30
0.0
 10
-69.2640318596
 20
51.49308333
 30
0.0
  0
SPLINE
  5
45F
100
AcDbEntity
  8
0
100
AcDbSpline
 62
7
  6
CONTINUOUS
 70
0
 71
3
 72
8
 73
4
 74
0
 42
0.0000001
 43
0.0000001
 44
0.0000000001
 40
0.0
 40
0.0
 40
0.0
 40
0.0
 40
1.0
 40
1.0
 40
1.0
 40
1.0
 10
-33.9656602547
 20
31.4004264463
 30
0.0
 10
-34.6544064839
 20
31.3339049272
 30
0.0
 10
-35.342778489
 20
31.2635147213
 30
0.0
 10
-36.0316430117
 20
31.1982295779
 30
0.0
  0
SPLINE
  5
460
100
AcDbEntity
  8
0
100
AcDbSpline
 62
7
  6
CONTINUOUS
 70
0
 71
3
 72
10
 73
6
 74
0
 42
0.0000001
 43
0.0000001
 44
0.0000000001
 40
0.0
 40
0.0
 40
0.0
 40
0.0
 40
0.4926114526
 40
0.7516979752
 40
1.0
 40
1.0
 40
1.0
 40
1.0
 10
-33.9656600673
 20
31.4004252813
 30
0.0
 10
-33.8852941721
 20
31.1108325188
 30
0.0
 10
-34.0938690637
 20
30.6131860023
 30
0.0
 10
-34.5011623099
 20
30.17223444
 30
0.0
 10
-34.7555194668
 20
29.9875552442
 30
0.0
 10
-34.8872188808
 20
29.912699117
 30
0.0
  0
SPLINE
  5
461
100
AcDbEntity
  8
0
100
AcDbSpline
 62
7
  6
CONTINUOUS
 70
0
 71
3
 72
11
 73
7
 74
0
 42
0.0000001
 43
0.0000001
 44
0.0000000001
 40
0.0
 40
0.0
 40
0.0
 40
0.0
 40
0.2228244461
 40
0.4799382558
 40
0.7495281871
 40
1.0
 40
1.0
 40
1.0
 40
1.0
 10
-36.3654616668
 20
29.7654596856
 30
0.0
 10
-36.2882248987
 20
29.8478615056
 30
0.0
 10
-36.1541442092
 20
30.0554727237
 30
0.0
 10
-36.0261978668
 20
30.4160648371
 30
0.0
 10
-35.9752741941
 20
30.8090371226
 30
0.0
 10
-35.9979536943
 20
31.0758272637
 30
0.0
 10
-36.0316430117
 20
31.1982295779
 30
0.0
  0
SPLINE
  5
462
100
AcDbEntity
  8
0
100
AcDbSpline
 62
7
  6
CONTINUOUS
 70
0
 71
3
 72
10
 73
6
 74
0
 42
0.0000001
 43
0.0000001
 44
0.0000000001
 40
0.0
 40
0.0
 40
0.0
 40
0.0
 40
0.5728942656
 40
0.8353331028
 40
1.0
 40
1.0
 40
1.0
 40
1.0
 10
-114.0304525352
 20
7.2580394575
 30
0.0
 10
-114.0265950956
 20
7.2889072655
 30
0.0
 10
-114.0178035628
 20
7.3394348743
 30
0.0
 10
-114.0123329063
 20
7.3798261401
 30
0.0
 10
-113.9964235297
 20
7.4186459768
 30
0.0
 10
-113.9897319136
 20
7.4127155637
 30
0.0
  0
SPLINE
  5
463
100
AcDbEntity
  8
0
100
AcDbSpline
 62
7
  6
CONTINUOUS
 70
0
 71
3
 72
11
 73
7
 74
0
 42
0.0000001
 43
0.0000001
 44
0.0000000001
 40
0.0
 40
0.0
 40
0.0
 40
0.0
 40
0.2362777913
 40
0.4826113476
 40
0.7378305505
 40
1.0
 40
1.0
 40
1.0
 40
1.0
 10
-70.3060686226
 20
51.1954585497
 30
0.0
 10
-72.3161638831
 20
50.5895058219
 30
0.0
 10
-76.3236402615
 20
49.0051273839
 30
0.0
 10
-82.0092158852
 20
45.6979911812
 30
0.0
 10
-87.3633059534
 20
41.4962634555
 30
0.0
 10
-90.5903308846
 20
38.2015459668
 30
0.0
 10
-92.1145405765
 20
36.4399075787
 30
0.0
  0
SPLINE
  5
464
100
AcDbEntity
  8
0
100
AcDbSpline
 62
7
  6
CONTINUOUS
 70
0
 71
3
 72
9
 73
5
 74
0
 42
0.0000001
 43
0.0000001
 44
0.0000000001
 40
0.0
 40
0.0
 40
0.0
 40
0.0
 40
0.255362441
 40
1.0
 40
1.0
 40
1.0
 40
1.0
 10
-62.9340261988
 20
-25.7107224675
 30
0.0
 10
-63.5188002001
 20
-26.002908319
 30
0.0
 10
-65.8350968138
 20
-27.0932076057
 30
0.0
 10
-68.2575163721
 20
-27.961654358
 30
0.0
 10
-70.0979275613
 20
-28.4581737135
 30
0.0
  0
SPLINE
  5
465
100
AcDbEntity
  8
0
100
AcDbSpline
 62
7
  6
CONTINUOUS
 70
0
 71
3
 72
9
 73
5
 74
0
 42
0.0000001
 43
0.0000001
 44
0.0000000001
 40
0.0
 40
0.0
 40
0.0
 40
0.0
 40
0.5080370166
 40
1.0
 40
1.0
 40
1.0
 40
1.0
 10
-45.3931404641
 20
37.6244025599
 30
0.0
 10
-45.9193698336
 20
39.012519054
 30
0.0
 10
-47.149086198
 20
41.6762285818
 30
0.0
 10
-48.7729142231
 20
44.1223331806
 30
0.0
 10
-49.6638250655
 20
45.250524421
 30
0.0
  0
SPLINE
  5
466
100
AcDbEntity
  8
0
100
AcDbSpline
 62
7
  6
CONTINUOUS
 70
0
 71
3
 72
9
 73
5
 74
0
 42
0.0000001
 43
0.0000001
 44
0.0000000001
 40
0.0
 40
0.0
 40
0.0
 40
0.0
 40
0.5037259104
 40
1.0
 40
1.0
 40
1.0
 40
1.0
 10
-49.754593778
 20
45.3648116142
 30
0.0
 10
-50.662596318
 20
46.501554717
 30
0.0
 10
-52.6582599946
 20
48.6117341622
 30
0.0
 10
-54.9959160854
 20
50.3375424505
 30
0.0
 10
-56.22092708
 20
51.0817465597
 30
0.0
  0
SPLINE
  5
467
100
AcDbEntity
  8
0
100
AcDbSpline
 62
7
  6
CONTINUOUS
 70
0
 71
3
 72
8
 73
4
 74
0
 42
0.0000001
 43
0.0000001
 44
0.0000000001
 40
0.0
 40
0.0
 40
0.0
 40
0.0
 40
1.0
 40
1.0
 40
1.0
 40
1.0
 10
-36.032913603
 20
31.1984779472
 30
0.0
 10
-36.0827779182
 20
31.225603348
 30
0.0
 10
-36.1321266316
 20
31.2536729591
 30
0.0
 10
-36.1820955266
 20
31.280605223
 30
0.0
  0
ELLIPSE
  5
468
100
AcDbEntity
  8
0
100
AcDbEllipse
 62
7
  6
CONTINUOUS
 10
-92.6525978309
 20
24.008467079
 30
0.0
 11
-3.0796170876
 21
27.6881724889
 31
0.0
 40
0.7940331328
 41
6.3085044703
 42
6.5011097345
  0
ELLIPSE
  5
469
100
AcDbEntity
  8
0
100
AcDbEllipse
 62
7
  6
CONTINUOUS
 10
-103.5759683188
 20
30.2823251436
 30
0.0
 11
10.1689456956
 21
24.0066300217
 31
0.0
 40
0.7885137488
 41
6.7540411455
 42
6.9325034525
  0
ELLIPSE
  5
46A
100
AcDbEntity
  8
0
100
AcDbEllipse
 62
7
  6
CONTINUOUS
 10
-63.8731123385
 20
7.4789163004
 30
0.0
 11
-6.3823164634
 21
50.5347780118
 31
0.0
 40
0.6280863912
 41
0.876960338
 42
0.9383367833
  0
ENDSEC
  0
SECTION
  2
OBJECTS
  0
DICTIONARY
  5
C
100
AcDbDictionary
280
0
281
1
  3
ACAD_GROUP
350
D
  3
ACAD_MLINESTYLE
350
17
  3
ACAD_LAYOUT
350
1A
  3
ACAD_PLOTSETTINGS
350
19
  3
ACAD_PLOTSTYLENAME
350
E
  0
DICTIONARY
  5
D
102
{ACAD_REACTORS
330
C
102
}
100
AcDbDictionary
280
0
281
1
  0
ACDBDICTIONARYWDFLT
  5
E
102
{ACAD_REACTORS
330
C
102
}
100
AcDbDictionary
281
1
  3
Normal
350
F
100
AcDbDictionaryWithDefault
340
F
  0
DICTIONARY
  5
17
102
{ACAD_REACTORS
330
C
102
}
100
AcDbDictionary
280
0
281
1
  3
Standard
350
18
  0
DICTIONARY
  5
19
102
{ACAD_REACTORS
330
C
102
}
100
AcDbDictionary
281
1
  0
DICTIONARY
  5
1A
102
{ACAD_REACTORS
330
C
102
}
100
AcDbDictionary
281
1
  3
Model
350
46B
  3
Layout1
350
46C
  0
ACDBPLACEHOLDER
  5
F
102
{ACAD_REACTORS
330
E
102
}
  0
MLINESTYLE
  5
18
102
{ACAD_REACTORS
330
17
102
}
100
AcDbMlineStyle
  2
STANDARD
 70
0
  3

 62
256
 51
90.0
 52
90.0
 71
2
 49
0.5
 62
256
  6
BYLAYER
 49
-0.5
 62
256
  6
BYLAYER
  0
LAYOUT
  5
46B
102
{ACAD_REACTORS
330
1A
102
}
100
AcDbPlotSettings
  1

  2
none_device
  4
ANSI_C_(22.00_x_17.00_Inches)
  6

 40
0.0
 41
0.0
 42
0.0
 43
0.0
 44
558.8
 45
431.8
 46
0.0
 47
0.0
 48
0.0
 49
0.0
140
0.0
141
0.0
142
1.0
143
1.0
 70
1024
 72
1
 73
0
 74
0
  7

 75
0
147
1.0
148
0.0
149
0.0
100
AcDbLayout
  1
Model
 70
0
 71
0
 10
0.0
 20
0.0
 11
558.8
 21
431.8
 12
0.0
 22
0.0
 32
0.0
 14
0.0
 24
0.0
 34
0.0
 15
0.0
 25
0.0
 35
0.0
146
0.0
 13
0.0
 23
0.0
 33
0.0
 16
1.0
 26
0.0
 36
0.0
 17
0.0
 27
1.0
 37
0.0
 76
0
330
1FF
345
0
346
0
  0
LAYOUT
  5
46C
102
{ACAD_REACTORS
330
1A
102
}
100
AcDbPlotSettings
  1

  2
none_device
  4
ANSI_C_(22.00_x_17.00_Inches)
  6

 40
0.0
 41
0.0
 42
0.0
 43
0.0
 44
558.8
 45
431.8
 46
0.0
 47
0.0
 48
0.0
 49
0.0
140
0.0
141
0.0
142
1.0
143
1.0
 70
0
 72
1
 73
0
 74
0
  7

 75
0
147
1.0
148
0.0
149
0.0
100
AcDbLayout
  1
Layout1
 70
0
 71
1
 10
0.0
 20
0.0
 11
558.8
 21
431.8
 12
0.0
 22
0.0
 32
0.0
 14
0.0
 24
0.0
 34
0.0
 15
0.0
 25
0.0
 35
0.0
146
0.0
 13
0.0
 23
0.0
 33
0.0
 16
1.0
 26
0.0
 36
0.0
 17
0.0
 27
1.0
 37
0.0
 76
0
330
200
345
0
346
0
  0
ENDSEC
  0
EOF
