999
DXF file: Y:\3D PRATIKA-KAEDRA_OLGA\TRAVAIL_PHASE_3\CAD3D\PKE32M734_3D-Simplified\PKE32M734_2D-isometric.dxf
999
Pro/ENGINEER 2018260 by Parametric Technology Corporation
  0
SECTION
  2
HEADER
  9
$ACADVER
  1
AC1027
  9
$DWGCODEPAGE
  3
ANSI_1252
  9
$EXTMAX
 10
558.8
 20
431.8
 30
0.0
  9
$EXTMIN
 10
0.0
 20
0.0
 30
0.0
  9
$LIMMIN
 10
0.0
 20
0.0
  9
$LIMMAX
 10
558.8
 20
431.8
  9
$VIEWCTR
 10
279.4
 20
215.9
  9
$VIEWSIZE
 40
431.8
  9
$CLAYER
  8
0
  9
$LTSCALE
 40
30.734
  9
$CELTYPE
  6
BYLAYER
  9
$DIMSCALE
 40
1.0
  9
$DIMASZ
 40
0.1875
  9
$DIMEXO
 40
0.0625
  9
$DIMDLI
 40
21.2344
  9
$DIMEXE
 40
0.125
  9
$DIMCEN
 40
5.0292
  9
$DIMLFAC
 40
1.0
  9
$DIMBLK
  1
_CLOSED
  9
$DIMALT
 70
0
  9
$DIMALTF
 40
0.0393700787
  9
$DIMTXT
 40
0.15625
  9
$DIMTOL
 70
0
  9
$DIMLIM
 70
0
  9
$DIMTFAC
 40
1.0
  9
$DIMGAP
 40
0.625
  9
$DIMDSEP
 70
46
  9
$AUNITS
 70
0
  9
$PDMODE
 70
3
  9
$PDSIZE
 40
0.3125
  9
$HANDSEED
  5
48C
  9
$TILEMODE
 70
1
  9
$MEASUREMENT
 70
1
  9
$INSUNITS
 70
4
  0
ENDSEC
  0
SECTION
  2
CLASSES
  0
CLASS
  1
ACDBDICTIONARYWDFLT
  2
AcDbDictionaryWithDefault
  3
AutoCAD 2000
 90
0
 91
1
280
0
281
0
  0
CLASS
  1
ACDBPLACEHOLDER
  2
AcDbPlaceHolder
  3
AutoCAD 2000
 90
0
 91
1
280
0
281
0
  0
CLASS
  1
LAYOUT
  2
AcDbLayout
  3
AutoCAD 2000
 90
0
 91
0
280
0
281
0
  0
ENDSEC
  0
SECTION
  2
TABLES
  0
TABLE
  2
VPORT
  5
8
100
AcDbSymbolTable
 70
2
  0
VPORT
  5
1F4
100
AcDbSymbolTableRecord
100
AcDbViewportTableRecord
  2
*ACTIVE
 70
0
 10
0.0
 20
0.0
 11
1.0
 21
1.0
 12
279.4
 22
215.9
 13
0.0
 23
0.0
 14
1.0
 24
1.0
 15
0.0
 25
0.0
 16
0.0
 26
0.0
 36
1.0
 17
0.0
 27
0.0
 37
0.0
 40
431.8
 41
1.2941176471
 42
50.0
 43
0.0
 44
0.0
 50
0.0
 51
0.0
 71
0
 72
100
 73
1
 74
1
 75
0
 76
0
 77
0
 78
0
  0
ENDTAB
  0
TABLE
  2
LTYPE
  5
5
100
AcDbSymbolTable
 70
6
  0
LTYPE
  5
14
100
AcDbSymbolTableRecord
100
AcDbLinetypeTableRecord
  2
BYBLOCK
 70
0
  3

 72
65
 73
0
 40
0.0
  0
LTYPE
  5
15
100
AcDbSymbolTableRecord
100
AcDbLinetypeTableRecord
  2
BYLAYER
 70
0
  3

 72
65
 73
0
 40
0.0
  0
LTYPE
  5
16
100
AcDbSymbolTableRecord
100
AcDbLinetypeTableRecord
  2
CONTINUOUS
 70
64
  3
Solid line
 72
65
 73
0
 40
0.0
  0
LTYPE
  5
1F5
100
AcDbSymbolTableRecord
100
AcDbLinetypeTableRecord
  2
CENTER
 70
64
  3
____ _ ____ _ ____ _ ____ _ ____ _ ____ _ ____
 72
65
 73
4
 40
0.6
 49
0.375
 74
0
 49
-0.075
 74
0
 49
0.075
 74
0
 49
-0.075
 74
0
  0
LTYPE
  5
1F6
100
AcDbSymbolTableRecord
100
AcDbLinetypeTableRecord
  2
HIDDEN
 70
64
  3
- - - - - - - - - - - - - - - - - - - -
 72
65
 73
2
 40
0.2
 49
0.1
 74
0
 49
-0.1
 74
0
  0
LTYPE
  5
1F7
100
AcDbSymbolTableRecord
100
AcDbLinetypeTableRecord
  2
PHANTOM
 70
64
  3
_____ _ _ _____ _ _ _____ _ _ _____
 72
65
 73
6
 40
0.8
 49
0.45
 74
0
 49
-0.05
 74
0
 49
0.1
 74
0
 49
-0.05
 74
0
 49
0.1
 74
0
 49
-0.05
 74
0
  0
LTYPE
  5
1F8
100
AcDbSymbolTableRecord
100
AcDbLinetypeTableRecord
  2
DOT
 70
64
  3
. . . . . . . . . . . . . . . . . . . .
 72
65
 73
2
 40
0.2
 49
0.1
 74
0
 49
-0.1
 74
0
  0
LTYPE
  5
1F9
100
AcDbSymbolTableRecord
100
AcDbLinetypeTableRecord
  2
DASHED
 70
64
  3
- - - - - - - - - - - - - - - - - - - -
 72
65
 73
2
 40
0.2
 49
0.1
 74
0
 49
-0.1
 74
0
  0
ENDTAB
  0
TABLE
  2
LAYER
  5
2
100
AcDbSymbolTable
 70
36
  0
LAYER
  5
10
100
AcDbSymbolTableRecord
100
AcDbLayerTableRecord
  2
0
 70
0
 62
7
  6
CONTINUOUS
370
-3
390
F
  0
LAYER
  5
1FA
100
AcDbSymbolTableRecord
100
AcDbLayerTableRecord
  2
DEFAULT_1
 70
0
 62
7
  6
CENTER
370
-3
390
F
  0
LAYER
  5
1FB
100
AcDbSymbolTableRecord
100
AcDbLayerTableRecord
  2
DEFAULT_2
 70
0
 62
8
  6
HIDDEN
370
-3
390
F
  0
LAYER
  5
1FC
100
AcDbSymbolTableRecord
100
AcDbLayerTableRecord
  2
DEFAULT_3
 70
0
 62
7
  6
PHANTOM
370
-3
390
F
  0
ENDTAB
  0
TABLE
  2
STYLE
  5
3
100
AcDbSymbolTable
 70
1
  0
STYLE
  5
11
100
AcDbSymbolTableRecord
100
AcDbTextStyleTableRecord
  2
STANDARD
 70
0
 40
0.0
 41
0.8
 50
0.0
 71
0
 42
0.2
  3
txt
  4

  0
STYLE
  5
1FD
100
AcDbSymbolTableRecord
100
AcDbTextStyleTableRecord
  2
TEXTSTYLE_1
 70
0
 40
0.0
 41
0.8
 50
0.0
 71
0
 42
0.2
  3
gdt
  4

  0
ENDTAB
  0
TABLE
  2
VIEW
  5
6
100
AcDbSymbolTable
 70
0
  0
ENDTAB
  0
TABLE
  2
UCS
  5
7
100
AcDbSymbolTable
 70
0
  0
ENDTAB
  0
TABLE
  2
APPID
  5
9
100
AcDbSymbolTable
 70
1
  0
APPID
  5
1FE
100
AcDbSymbolTableRecord
100
AcDbRegAppTableRecord
  2
ACAD
 70
0
  0
ENDTAB
  0
TABLE
  2
BLOCK_RECORD
  5
1
100
AcDbSymbolTable
 70
0
  0
BLOCK_RECORD
  5
1FF
100
AcDbSymbolTableRecord
100
AcDbBlockTableRecord
  2
*Model_Space
  0
BLOCK_RECORD
  5
200
100
AcDbSymbolTableRecord
100
AcDbBlockTableRecord
  2
*Paper_Space
  0
BLOCK_RECORD
  5
201
100
AcDbSymbolTableRecord
100
AcDbBlockTableRecord
  2
_CLOSED
  0
ENDTAB
  0
TABLE
  2
DIMSTYLE
  5
A
100
AcDbSymbolTable
 70
1
100
AcDbDimStyleTable
 71
0
  0
DIMSTYLE
105
202
100
AcDbSymbolTableRecord
100
AcDbDimStyleTableRecord
  2
STANDARD
 70
0
  3

  4

 40
1.0
 41
0.1875
 42
0.0625
 43
0.38
 44
0.125
 45
0.0
 46
0.0
 47
0.01
 48
0.01
140
0.15625
141
0.09
142
0.0
143
25.4
144
1.0
145
0.0
146
1.0
147
0.625
 71
0.0
 72
0.0
 73
1
 74
1
 75
0
 76
0
 77
0
 78
8
 79
2
170
0
171
1
172
0
173
0
174
0
175
0
176
0
177
0
178
0
270
2
179
2
271
2
272
2
273
2
274
2
275
0
280
0
281
0
282
0
283
1
284
8
285
0
286
0
287
3
288
0
340
11
278
46
341
201
342
201
343
201
344
201
  0
ENDTAB
  0
ENDSEC
  0
SECTION
  2
BLOCKS
  0
BLOCK
  5
20
100
AcDbEntity
  8
0
100
AcDbBlockBegin
  2
*Model_Space
 70
0
 10
0.0
 20
0.0
 30
0.0
  3
*Model_Space
  1

  0
ENDBLK
  5
21
100
AcDbEntity
  8
0
100
AcDbBlockEnd
  0
BLOCK
  5
1C
100
AcDbEntity
  8
0
100
AcDbBlockBegin
  2
*Paper_Space
 70
0
 10
0.0
 20
0.0
 30
0.0
  3
*Paper_Space
  1

  0
ENDBLK
  5
1D
100
AcDbEntity
  8
0
100
AcDbBlockEnd
  0
BLOCK
  5
203
100
AcDbEntity
  8
0
100
AcDbBlockBegin
  2
_CLOSED
 70
64
 10
0.0
 20
0.0
  3
_CLOSED
  1

  0
LINE
  5
204
100
AcDbEntity
  8
0
  6
BYBLOCK
 62
0
100
AcDbLine
 10
0.0
 20
0.0
 11
-1.0
 21
0.1666666667
  0
LINE
  5
205
100
AcDbEntity
  8
0
  6
BYBLOCK
 62
0
100
AcDbLine
 10
-1.0
 20
0.1666666667
 11
-1.0
 21
-0.1666666667
  0
LINE
  5
206
100
AcDbEntity
  8
0
  6
BYBLOCK
 62
0
100
AcDbLine
 10
-1.0
 20
-0.1666666667
 11
0.0
 21
0.0
  0
LINE
  5
207
100
AcDbEntity
  8
0
  6
BYBLOCK
 62
0
100
AcDbLine
 10
-1.0
 20
0.0
 11
0.0
 21
0.0
  0
ENDBLK
  5
208
100
AcDbEntity
  8
0
  6
BYBLOCK
 62
0
100
AcDbBlockEnd
  0
ENDSEC
  0
SECTION
  2
ENTITIES
  0
LINE
  5
209
100
AcDbEntity
  8
0
100
AcDbLine
 62
7
  6
CONTINUOUS
 10
-98.2026452095
 20
-73.0597839734
 11
-98.3030700421
 21
-73.0868777274
  0
LINE
  5
20A
100
AcDbEntity
  8
0
100
AcDbLine
 62
7
  6
CONTINUOUS
 10
-40.3035699489
 20
-0.0523423612
 11
-40.2035462228
 21
-0.0253568773
  0
LINE
  5
20B
100
AcDbEntity
  8
0
100
AcDbLine
 62
7
  6
CONTINUOUS
 10
-96.4263206112
 20
5.1753511453
 11
-100.551185778
 21
4.0625733816
  0
LWPOLYLINE
  5
20C
100
AcDbEntity
  8
0
100
AcDbPolyline
 62
7
  6
CONTINUOUS
 90
3
 70
0
 10
-77.649491753
 20
9.0039515204
 10
-81.2706866289
 20
8.1279525351
 10
-84.8226215721
 20
6.5518090132
  0
LINE
  5
20D
100
AcDbEntity
  8
0
100
AcDbLine
 62
7
  6
CONTINUOUS
 10
-36.3614706538
 20
-17.3618234701
 11
-34.8832272669
 21
-17.2145836033
  0
LINE
  5
20E
100
AcDbEntity
  8
0
100
AcDbLine
 62
7
  6
CONTINUOUS
 10
-38.9307674391
 20
-19.5151480961
 11
-40.9737771004
 21
-19.7076007089
  0
LINE
  5
20F
100
AcDbEntity
  8
0
100
AcDbLine
 62
7
  6
CONTINUOUS
 10
-106.9056306404
 20
18.858066974
 11
-102.7807654735
 21
19.9708447377
  0
LINE
  5
210
100
AcDbEntity
  8
0
100
AcDbLine
 62
7
  6
CONTINUOUS
 10
-107.2916936482
 20
19.3994419688
 11
-103.1668284814
 21
20.5122197325
  0
LINE
  5
211
100
AcDbEntity
  8
0
100
AcDbLine
 62
7
  6
CONTINUOUS
 10
-108.9872098616
 20
20.3732648453
 11
-104.8623446947
 21
21.4860426089
  0
LINE
  5
212
100
AcDbEntity
  8
0
100
AcDbLine
 62
7
  6
CONTINUOUS
 10
-159.070011467
 20
9.0399616738
 11
-158.4554005678
 21
9.2057671764
  0
LINE
  5
213
100
AcDbEntity
  8
0
100
AcDbLine
 62
7
  6
CONTINUOUS
 10
-159.3712377384
 20
9.2549154423
 11
-158.7386466204
 21
9.4255715384
  0
LINE
  5
214
100
AcDbEntity
  8
0
100
AcDbLine
 62
7
  6
CONTINUOUS
 10
-77.6494774967
 20
9.0039560221
 11
-77.6500414794
 21
9.0038654061
  0
LWPOLYLINE
  5
215
100
AcDbEntity
  8
0
100
AcDbPolyline
 62
7
  6
CONTINUOUS
 90
3
 70
0
 10
-76.4496160318
 20
9.1673750179
 10
-77.1833151066
 20
9.0733628089
 10
-77.6494774967
 20
9.0039560221
  0
LINE
  5
216
100
AcDbEntity
  8
0
100
AcDbLine
 62
7
  6
CONTINUOUS
 10
-76.0399607706
 20
9.2117108403
 11
-76.4496160318
 21
9.1673750179
  0
LINE
  5
217
100
AcDbEntity
  8
0
100
AcDbLine
 62
7
  6
CONTINUOUS
 10
-103.6263993463
 20
-35.7596437357
 11
-99.5784497319
 21
-35.8762628341
  0
LINE
  5
218
100
AcDbEntity
  8
0
100
AcDbLine
 62
7
  6
CONTINUOUS
 10
-104.0619341835
 20
-34.9762829236
 11
-99.7960074708
 21
-35.0991816849
  0
LINE
  5
219
100
AcDbEntity
  8
0
100
AcDbLine
 62
7
  6
CONTINUOUS
 10
-104.0973537451
 20
-34.9265647985
 11
-99.9803359611
 21
-35.0451735172
  0
LINE
  5
21A
100
AcDbEntity
  8
0
100
AcDbLine
 62
7
  6
CONTINUOUS
 10
-105.8546993498
 20
-60.5921514463
 11
-105.9471172042
 21
-60.5744292155
  0
LINE
  5
21B
100
AcDbEntity
  8
0
100
AcDbLine
 62
7
  6
CONTINUOUS
 10
-77.6163107964
 20
9.0025378373
 11
-77.6494774967
 21
9.0039560221
  0
LINE
  5
21C
100
AcDbEntity
  8
0
100
AcDbLine
 62
7
  6
CONTINUOUS
 10
-103.4775837548
 20
-9.9096570525
 11
-103.5137953584
 21
-9.9057252944
  0
LINE
  5
21D
100
AcDbEntity
  8
0
100
AcDbLine
 62
7
  6
CONTINUOUS
 10
-128.2140651927
 20
30.2016177541
 11
-128.2140016014
 21
30.2016156331
  0
LINE
  5
21E
100
AcDbEntity
  8
0
100
AcDbLine
 62
7
  6
CONTINUOUS
 10
-32.651515813
 20
-12.5199748831
 11
-32.5590981055
 21
-12.5376970834
  0
LINE
  5
21F
100
AcDbEntity
  8
0
100
AcDbLine
 62
7
  6
CONTINUOUS
 10
-148.2630578271
 20
-24.1718933212
 11
-144.4946718219
 21
-25.182958911
  0
LINE
  5
220
100
AcDbEntity
  8
0
100
AcDbLine
 62
7
  6
CONTINUOUS
 10
-99.9803352182
 20
-35.0451735386
 11
-99.7960075352
 21
-35.0991816479
  0
LINE
  5
221
100
AcDbEntity
  8
0
100
AcDbLine
 62
7
  6
CONTINUOUS
 10
-134.0098695782
 20
-29.0357430141
 11
-134.0085811234
 21
-29.0361307905
  0
LINE
  5
222
100
AcDbEntity
  8
0
100
AcDbLine
 62
7
  6
CONTINUOUS
 10
-135.414613137
 20
-28.5771011276
 11
-135.1389276153
 21
-28.6615654612
  0
LINE
  5
223
100
AcDbEntity
  8
0
100
AcDbLine
 62
7
  6
CONTINUOUS
 10
-135.8199987593
 20
-28.4506974502
 11
-135.7472495778
 21
-28.4735695018
  0
LINE
  5
224
100
AcDbEntity
  8
0
100
AcDbLine
 62
7
  6
CONTINUOUS
 10
-139.481319872
 20
-27.1539467677
 11
-139.3225322417
 21
-27.2100624137
  0
LINE
  5
225
100
AcDbEntity
  8
0
100
AcDbLine
 62
7
  6
CONTINUOUS
 10
-135.8191375925
 20
-28.4481642332
 11
-135.7472495778
 21
-28.4735695018
  0
LINE
  5
226
100
AcDbEntity
  8
0
100
AcDbLine
 62
7
  6
CONTINUOUS
 10
-139.5012128257
 20
-27.2079377601
 11
-139.3426888067
 21
-27.2649544637
  0
LINE
  5
227
100
AcDbEntity
  8
0
100
AcDbLine
 62
7
  6
CONTINUOUS
 10
-139.4597725787
 20
-27.1054902003
 11
-139.3043022573
 21
-27.166379183
  0
LINE
  5
228
100
AcDbEntity
  8
0
100
AcDbLine
 62
7
  6
CONTINUOUS
 10
-139.4597870435
 20
-27.1053374101
 11
-139.4052595165
 21
-27.1269586806
  0
LWPOLYLINE
  5
229
100
AcDbEntity
  8
0
100
AcDbPolyline
 62
7
  6
CONTINUOUS
 90
4
 70
0
 10
-65.5162804377
 20
10.2238375494
 10
-67.6682218094
 20
10.6214506009
 10
-70.8335035148
 20
10.7080246783
 10
-73.7492678393
 20
10.1353109518
  0
LINE
  5
22A
100
AcDbEntity
  8
0
100
AcDbLine
 62
7
  6
CONTINUOUS
 10
-65.5162390594
 20
10.2238200502
 11
-65.5061720875
 21
10.22138175
  0
LWPOLYLINE
  5
22B
100
AcDbEntity
  8
0
100
AcDbPolyline
 62
7
  6
CONTINUOUS
 90
3
 70
0
 10
-59.6479672823
 20
10.0125648352
 10
-60.7819879557
 20
10.2908856219
 10
-63.0830943352
 20
10.2307422106
  0
LWPOLYLINE
  5
22C
100
AcDbEntity
  8
0
100
AcDbPolyline
 62
7
  6
CONTINUOUS
 90
3
 70
0
 10
-50.2460907399
 20
7.0001524636
 10
-51.1307097214
 20
7.2289234555
 10
-52.0776806034
 20
7.0373703335
  0
LWPOLYLINE
  5
22D
100
AcDbEntity
  8
0
100
AcDbPolyline
 62
7
  6
CONTINUOUS
 90
7
 70
0
 10
-151.0892271406
 20
21.6246977879
 10
-151.1388428482
 20
21.6412393021
 10
-151.3823595205
 20
21.6721925905
 10
-151.6385982642
 20
21.62594653
 10
-151.8893288754
 20
21.5043105737
 10
-152.1250708628
 20
21.3091958799
 10
-152.2614601916
 20
21.1466570109
  0
LINE
  5
22E
100
AcDbEntity
  8
0
100
AcDbLine
 62
7
  6
CONTINUOUS
 10
-92.6378685816
 20
-14.7230281291
 11
-94.1284101918
 21
-14.1662429236
  0
LINE
  5
22F
100
AcDbEntity
  8
0
100
AcDbLine
 62
7
  6
CONTINUOUS
 10
-93.2427913836
 20
-13.0090028649
 11
-91.7364817167
 21
-13.5716775809
  0
LINE
  5
230
100
AcDbEntity
  8
0
100
AcDbLine
 62
7
  6
CONTINUOUS
 10
-154.1105111062
 20
-20.4846617372
 11
-154.1742810732
 21
-20.448549682
  0
LINE
  5
231
100
AcDbEntity
  8
0
100
AcDbLine
 62
7
  6
CONTINUOUS
 10
-94.7698240398
 20
-63.1275418703
 11
-92.7917217909
 21
-64.2636685594
  0
LINE
  5
232
100
AcDbEntity
  8
0
100
AcDbLine
 62
7
  6
CONTINUOUS
 10
-81.1928973161
 20
-69.604562811
 11
-79.5124069911
 21
-70.5697555406
  0
LINE
  5
233
100
AcDbEntity
  8
0
100
AcDbLine
 62
7
  6
CONTINUOUS
 10
-127.3224573894
 20
28.7501184102
 11
-127.2889454543
 21
28.7408357425
  0
LINE
  5
234
100
AcDbEntity
  8
0
100
AcDbLine
 62
7
  6
CONTINUOUS
 10
-128.2140016014
 20
30.2016156331
 11
-128.1220454577
 21
30.1743674397
  0
LINE
  5
235
100
AcDbEntity
  8
0
100
AcDbLine
 62
7
  6
CONTINUOUS
 10
-126.3953523672
 20
28.3456708441
 11
-126.3694914265
 21
28.3373563032
  0
LINE
  5
236
100
AcDbEntity
  8
0
100
AcDbLine
 62
7
  6
CONTINUOUS
 10
-59.6573172296
 20
10.0155524267
 11
-59.6480638665
 21
10.0125606196
  0
LINE
  5
237
100
AcDbEntity
  8
0
100
AcDbLine
 62
7
  6
CONTINUOUS
 10
-127.3094483708
 20
28.7281968682
 11
-127.2845342676
 21
28.7196960406
  0
LINE
  5
238
100
AcDbEntity
  8
0
100
AcDbLine
 62
7
  6
CONTINUOUS
 10
-127.3224485977
 20
28.698221165
 11
-127.2977020777
 21
28.6894120018
  0
LINE
  5
239
100
AcDbEntity
  8
0
100
AcDbLine
 62
7
  6
CONTINUOUS
 10
-127.3178143289
 20
28.7616212621
 11
-127.2852721457
 21
28.7498992615
  0
LINE
  5
23A
100
AcDbEntity
  8
0
100
AcDbLine
 62
7
  6
CONTINUOUS
 10
-150.9287737228
 20
21.4190640263
 11
-150.3965749184
 21
21.220263728
  0
LINE
  5
23B
100
AcDbEntity
  8
0
100
AcDbLine
 62
7
  6
CONTINUOUS
 10
-151.0891824704
 20
21.6246387543
 11
-150.5209336702
 21
21.4123722723
  0
LINE
  5
23C
100
AcDbEntity
  8
0
100
AcDbLine
 62
7
  6
CONTINUOUS
 10
-154.2351527005
 20
-20.226609462
 11
-154.0937935848
 21
-20.3069736064
  0
LINE
  5
23D
100
AcDbEntity
  8
0
100
AcDbLine
 62
7
  6
CONTINUOUS
 10
-154.1742810732
 20
-20.448549682
 11
-154.2154189271
 21
-20.425111246
  0
LINE
  5
23E
100
AcDbEntity
  8
0
100
AcDbLine
 62
7
  6
CONTINUOUS
 10
-65.5566763166
 20
-71.5454365191
 11
-91.1589711381
 21
-56.840711085
  0
LINE
  5
23F
100
AcDbEntity
  8
0
100
AcDbLine
 62
7
  6
CONTINUOUS
 10
-58.1076452787
 20
-75.2800723893
 11
-52.8515450174
 21
-78.2989233063
  0
LINE
  5
240
100
AcDbEntity
  8
0
100
AcDbLine
 62
7
  6
CONTINUOUS
 10
-58.5577619417
 20
-73.651075317
 11
-53.8323180892
 21
-76.365142743
  0
LINE
  5
241
100
AcDbEntity
  8
0
100
AcDbLine
 62
7
  6
CONTINUOUS
 10
-131.5670310891
 20
-30.7492564029
 11
-114.3418432854
 21
-40.6425749109
  0
LINE
  5
242
100
AcDbEntity
  8
0
100
AcDbLine
 62
7
  6
CONTINUOUS
 10
-141.7941589941
 20
-21.3003533703
 11
-138.0375088536
 21
-23.457992334
  0
LINE
  5
243
100
AcDbEntity
  8
0
100
AcDbLine
 62
7
  6
CONTINUOUS
 10
-72.1076313878
 20
-51.0194187759
 11
-54.896587171
 21
-60.9046138885
  0
LINE
  5
244
100
AcDbEntity
  8
0
100
AcDbLine
 62
7
  6
CONTINUOUS
 10
-99.230835361
 20
-35.4237893326
 11
-99.7960074708
 21
-35.0991816849
  0
LINE
  5
245
100
AcDbEntity
  8
0
100
AcDbLine
 62
7
  6
CONTINUOUS
 10
-71.6664211928
 20
-47.3343390571
 11
-64.7126480914
 21
-51.3282515129
  0
LINE
  5
246
100
AcDbEntity
  8
0
100
AcDbLine
 62
7
  6
CONTINUOUS
 10
-60.4023259436
 20
-48.5167486057
 11
-50.9121977622
 21
-53.9674212979
  0
LINE
  5
247
100
AcDbEntity
  8
0
100
AcDbLine
 62
7
  6
CONTINUOUS
 10
-69.9157880611
 20
-41.420592919
 11
-61.7243560348
 21
-46.12535707
  0
LINE
  5
248
100
AcDbEntity
  8
0
100
AcDbLine
 62
7
  6
CONTINUOUS
 10
-154.2351527005
 20
-20.226609462
 11
-154.0949291442
 21
-20.3116584892
  0
LINE
  5
249
100
AcDbEntity
  8
0
100
AcDbLine
 62
7
  6
CONTINUOUS
 10
-157.7886724229
 20
-17.91286955
 11
-157.7565032735
 21
-17.9354462723
  0
LINE
  5
24A
100
AcDbEntity
  8
0
100
AcDbLine
 62
7
  6
CONTINUOUS
 10
-99.9941032289
 20
-72.647594769
 11
-99.9172667198
 21
-72.7058505
  0
LINE
  5
24B
100
AcDbEntity
  8
0
100
AcDbLine
 62
7
  6
CONTINUOUS
 10
-124.3834942843
 20
27.5931127124
 11
-124.3148214889
 21
27.5636011923
  0
LINE
  5
24C
100
AcDbEntity
  8
0
100
AcDbLine
 62
7
  6
CONTINUOUS
 10
-124.3999659934
 20
27.559276317
 11
-124.3316691801
 21
27.5291557946
  0
LINE
  5
24D
100
AcDbEntity
  8
0
100
AcDbLine
 62
7
  6
CONTINUOUS
 10
-52.2760410803
 20
7.0535733654
 11
-52.1533704188
 21
6.9990938984
  0
LINE
  5
24E
100
AcDbEntity
  8
0
100
AcDbLine
 62
7
  6
CONTINUOUS
 10
-52.2676528738
 20
7.0727385609
 11
-52.146645243
 21
7.0146201155
  0
LINE
  5
24F
100
AcDbEntity
  8
0
100
AcDbLine
 62
7
  6
CONTINUOUS
 10
-50.2487099367
 20
7.001420142
 11
-50.2460644488
 21
7.0001364327
  0
LINE
  5
250
100
AcDbEntity
  8
0
100
AcDbLine
 62
7
  6
CONTINUOUS
 10
-65.4096630057
 20
-33.5184111587
 11
-44.0883222573
 21
-45.7643626946
  0
LINE
  5
251
100
AcDbEntity
  8
0
100
AcDbLine
 62
7
  6
CONTINUOUS
 10
-63.8084415165
 20
-31.6527903276
 11
-54.4024318537
 21
-37.0551493929
  0
LINE
  5
252
100
AcDbEntity
  8
0
100
AcDbLine
 62
7
  6
CONTINUOUS
 10
-94.1284101918
 20
-14.1662429236
 11
-94.9761682984
 21
-13.6793314854
  0
LINE
  5
253
100
AcDbEntity
  8
0
100
AcDbLine
 62
7
  6
CONTINUOUS
 10
-50.2753352428
 20
-35.2916148124
 11
-41.1000302007
 21
-40.5614682517
  0
LINE
  5
254
100
AcDbEntity
  8
0
100
AcDbLine
 62
7
  6
CONTINUOUS
 10
-59.1129217913
 20
-27.4304452571
 11
-51.4141397971
 21
-31.85225495
  0
LINE
  5
255
100
AcDbEntity
  8
0
100
AcDbLine
 62
7
  6
CONTINUOUS
 10
-108.336409767
 20
7.939097686
 11
-106.9180824254
 21
7.1244787513
  0
LINE
  5
256
100
AcDbEntity
  8
0
100
AcDbLine
 62
7
  6
CONTINUOUS
 10
-101.9761507216
 20
4.2860711271
 11
-100.4086917815
 21
3.3857981827
  0
LINE
  5
257
100
AcDbEntity
  8
0
100
AcDbLine
 62
7
  6
CONTINUOUS
 10
-118.977764005
 20
18.4117627142
 11
-115.3030678092
 21
16.3011941504
  0
LINE
  5
258
100
AcDbEntity
  8
0
100
AcDbLine
 62
7
  6
CONTINUOUS
 10
-97.782170643
 20
9.8129676071
 11
-88.4751217581
 21
4.4674468479
  0
LINE
  5
259
100
AcDbEntity
  8
0
100
AcDbLine
 62
7
  6
CONTINUOUS
 10
-99.993984683
 20
-72.6476520202
 11
-99.919278476
 21
-72.7086452097
  0
LINE
  5
25A
100
AcDbEntity
  8
0
100
AcDbLine
 62
7
  6
CONTINUOUS
 10
-107.9344929333
 20
-44.4652423707
 11
-108.0052349752
 21
-44.4055104335
  0
LINE
  5
25B
100
AcDbEntity
  8
0
100
AcDbLine
 62
7
  6
CONTINUOUS
 10
-99.1953902418
 20
-72.7962909737
 11
-99.088649419
 21
-72.8952264333
  0
LINE
  5
25C
100
AcDbEntity
  8
0
100
AcDbLine
 62
7
  6
CONTINUOUS
 10
-50.2487099367
 20
7.001420142
 11
-46.4346006161
 21
4.9865001631
  0
LINE
  5
25D
100
AcDbEntity
  8
0
100
AcDbLine
 62
7
  6
CONTINUOUS
 10
-37.1679017789
 20
-22.1179393111
 11
-62.7701966004
 21
-7.413213877
  0
LINE
  5
25E
100
AcDbEntity
  8
0
100
AcDbLine
 62
7
  6
CONTINUOUS
 10
-41.1052774248
 20
-19.6320732542
 11
-40.9737771004
 21
-19.7076007089
  0
LINE
  5
25F
100
AcDbEntity
  8
0
100
AcDbLine
 62
7
  6
CONTINUOUS
 10
-107.2916936482
 20
19.3994419688
 11
-108.9872098616
 21
20.3732648453
  0
LINE
  5
260
100
AcDbEntity
  8
0
100
AcDbLine
 62
7
  6
CONTINUOUS
 10
-103.1668284814
 20
20.5122197325
 11
-104.8623446947
 21
21.4860426089
  0
LINE
  5
261
100
AcDbEntity
  8
0
100
AcDbLine
 62
7
  6
CONTINUOUS
 10
-59.1593436987
 20
-1.1263830918
 11
-57.1812414498
 21
-2.262509781
  0
LINE
  5
262
100
AcDbEntity
  8
0
100
AcDbLine
 62
7
  6
CONTINUOUS
 10
-121.9188032981
 20
26.3598852723
 11
-121.8146392602
 21
26.299355668
  0
LINE
  5
263
100
AcDbEntity
  8
0
100
AcDbLine
 62
7
  6
CONTINUOUS
 10
-121.8779846539
 20
26.3362525062
 11
-117.7739151765
 21
23.8148395426
  0
LINE
  5
264
100
AcDbEntity
  8
0
100
AcDbLine
 62
7
  6
CONTINUOUS
 10
-117.7739151765
 20
23.8148395426
 11
-117.7474727173
 21
23.7973747086
  0
LINE
  5
265
100
AcDbEntity
  8
0
100
AcDbLine
 62
7
  6
CONTINUOUS
 10
-111.4047750288
 20
-25.2704775912
 11
-111.4298772166
 21
-25.2500374447
  0
LWPOLYLINE
  5
266
100
AcDbEntity
  8
0
100
AcDbPolyline
 62
7
  6
CONTINUOUS
 90
6
 70
0
 10
-139.3860728053
 20
29.0057126566
 10
-139.5654711754
 20
29.1735600385
 10
-139.8021795569
 20
29.2814428869
 10
-140.0865626039
 20
29.3112589944
 10
-140.393087051
 20
29.248860026
 10
-140.5877041834
 20
29.1597953293
  0
LWPOLYLINE
  5
267
100
AcDbEntity
  8
0
100
AcDbPolyline
 62
7
  6
CONTINUOUS
 90
3
 70
0
 10
-106.9744394138
 20
-64.7648701496
 10
-103.0819180832
 20
-69.2757400881
 10
-99.088704831
 20
-72.8953048217
  0
LINE
  5
268
100
AcDbEntity
  8
0
100
AcDbLine
 62
7
  6
CONTINUOUS
 10
-157.772487155
 20
-16.0825049919
 11
-157.7864587627
 21
-16.0622617658
  0
LINE
  5
269
100
AcDbEntity
  8
0
100
AcDbLine
 62
7
  6
CONTINUOUS
 10
-30.5717221918
 20
-28.646883045
 11
-30.500980187
 21
-28.7066158915
  0
LINE
  5
26A
100
AcDbEntity
  8
0
100
AcDbLine
 62
7
  6
CONTINUOUS
 10
-91.086044631
 20
-11.7134143781
 11
-92.352380441
 21
-10.4136727683
  0
LINE
  5
26B
100
AcDbEntity
  8
0
100
AcDbLine
 62
7
  6
CONTINUOUS
 10
-157.7643076985
 20
-16.074381972
 11
-157.7774217558
 21
-16.0533030304
  0
LWPOLYLINE
  5
26C
100
AcDbEntity
  8
0
100
AcDbPolyline
 62
7
  6
CONTINUOUS
 90
4
 70
0
 10
-114.9073923071
 20
20.742472925
 10
-116.3475024839
 20
22.4813216096
 10
-117.4255812727
 20
23.5571660991
 10
-117.748890091
 20
23.7983085811
  0
LINE
  5
26D
100
AcDbEntity
  8
0
100
AcDbLine
 62
7
  6
CONTINUOUS
 10
-114.5237688079
 20
20.2565757662
 11
-114.9073923071
 21
20.742472925
  0
LINE
  5
26E
100
AcDbEntity
  8
0
100
AcDbLine
 62
7
  6
CONTINUOUS
 10
-107.2916936482
 20
19.3994419688
 11
-106.9056306404
 21
18.858066974
  0
LINE
  5
26F
100
AcDbEntity
  8
0
100
AcDbLine
 62
7
  6
CONTINUOUS
 10
-139.3358886757
 20
28.9323994413
 11
-139.3860728053
 21
29.0057126566
  0
LINE
  5
270
100
AcDbEntity
  8
0
100
AcDbLine
 62
7
  6
CONTINUOUS
 10
-139.3360293826
 20
28.932558447
 11
-139.0013040104
 21
28.3253468601
  0
LINE
  5
271
100
AcDbEntity
  8
0
100
AcDbLine
 62
7
  6
CONTINUOUS
 10
-114.186327292
 20
-41.606044782
 11
-114.2062750169
 21
-41.5670870018
  0
LINE
  5
272
100
AcDbEntity
  8
0
100
AcDbLine
 62
7
  6
CONTINUOUS
 10
-102.7807654735
 20
19.9708447376
 11
-103.1668284814
 21
20.5122197325
  0
LINE
  5
273
100
AcDbEntity
  8
0
100
AcDbLine
 62
7
  6
CONTINUOUS
 10
-106.9617875255
 20
16.3049321476
 11
-107.4359038372
 21
17.0179591697
  0
LWPOLYLINE
  5
274
100
AcDbEntity
  8
0
100
AcDbPolyline
 62
7
  6
CONTINUOUS
 90
3
 70
0
 10
-112.1880598301
 20
-55.3778574352
 10
-109.9932955834
 20
-60.1080596713
 10
-106.9744394138
 20
-64.7648701496
  0
LINE
  5
275
100
AcDbEntity
  8
0
100
AcDbLine
 62
7
  6
CONTINUOUS
 10
-162.227200188
 20
-5.9763566526
 11
-162.2271856187
 21
-5.9764141149
  0
LINE
  5
276
100
AcDbEntity
  8
0
100
AcDbLine
 62
7
  6
CONTINUOUS
 10
-104.1253962449
 20
-27.1342324586
 11
-104.1636925803
 21
-27.0415846106
  0
LWPOLYLINE
  5
277
100
AcDbEntity
  8
0
100
AcDbPolyline
 62
7
  6
CONTINUOUS
 90
6
 70
0
 10
-110.2411755036
 20
-59.5738236346
 10
-110.0318011474
 20
-60.1310979448
 10
-107.8557037767
 20
-64.0452918108
 10
-104.9812740648
 20
-67.8327042747
 10
-101.3931691477
 20
-71.4536700402
 10
-99.9172667198
 20
-72.7058505
  0
LINE
  5
278
100
AcDbEntity
  8
0
100
AcDbLine
 62
7
  6
CONTINUOUS
 10
-139.3357394752
 20
28.9320789565
 11
-139.3086462663
 21
28.8354616217
  0
LWPOLYLINE
  5
279
100
AcDbEntity
  8
0
100
AcDbPolyline
 62
7
  6
CONTINUOUS
 90
6
 70
0
 10
-148.9098842931
 20
-23.3204270487
 10
-148.9023256582
 20
-23.4372917821
 10
-148.829331377
 20
-23.6916034926
 10
-148.6804155129
 20
-23.915490844
 10
-148.463294713
 20
-24.0877616659
 10
-148.2629506868
 20
-24.1719284938
  0
LWPOLYLINE
  5
27A
100
AcDbEntity
  8
0
100
AcDbPolyline
 62
7
  6
CONTINUOUS
 90
3
 70
0
 10
-127.1849670009
 20
26.630086534
 10
-127.3713782376
 20
27.7216248648
 10
-127.4089889442
 20
28.359282205
  0
LINE
  5
27B
100
AcDbEntity
  8
0
100
AcDbLine
 62
7
  6
CONTINUOUS
 10
-139.0123008489
 20
28.3952480616
 11
-139.0013039831
 21
28.3253468134
  0
LWPOLYLINE
  5
27C
100
AcDbEntity
  8
0
100
AcDbPolyline
 62
7
  6
CONTINUOUS
 90
7
 70
0
 10
-127.3225199609
 20
29.3117281477
 10
-127.3406603268
 20
29.4918509477
 10
-127.4262958794
 20
29.7294881854
 10
-127.5790644031
 20
29.9348752578
 10
-127.7923326772
 20
30.0916369389
 10
-128.0547473914
 20
30.1836965495
 10
-128.2139976209
 20
30.2016396901
  0
LINE
  5
27D
100
AcDbEntity
  8
0
100
AcDbLine
 62
7
  6
CONTINUOUS
 10
-127.4090019132
 20
28.3599218392
 11
-127.4090503168
 21
28.3829659441
  0
LINE
  5
27E
100
AcDbEntity
  8
0
100
AcDbLine
 62
7
  6
CONTINUOUS
 10
-148.9098512741
 20
-23.3204597221
 11
-148.9098718786
 21
-23.1996675856
  0
LINE
  5
27F
100
AcDbEntity
  8
0
100
AcDbLine
 62
7
  6
CONTINUOUS
 10
-148.5671802594
 20
-23.5070319125
 11
-148.5672019924
 21
-23.3787428102
  0
LINE
  5
280
100
AcDbEntity
  8
0
100
AcDbLine
 62
7
  6
CONTINUOUS
 10
-127.3225543434
 20
29.3120001292
 11
-127.3230468602
 21
28.6169930545
  0
LINE
  5
281
100
AcDbEntity
  8
0
100
AcDbLine
 62
7
  6
CONTINUOUS
 10
-101.9761507216
 20
4.2860711271
 11
-102.3692172194
 21
5.9171804843
  0
LINE
  5
282
100
AcDbEntity
  8
0
100
AcDbLine
 62
7
  6
CONTINUOUS
 10
-100.5511857781
 20
4.0625733817
 11
-100.4086917815
 21
3.3857981827
  0
LINE
  5
283
100
AcDbEntity
  8
0
100
AcDbLine
 62
7
  6
CONTINUOUS
 10
-96.2838266147
 20
4.4985759463
 11
-96.4263206112
 21
5.1753511452
  0
LINE
  5
284
100
AcDbEntity
  8
0
100
AcDbLine
 62
7
  6
CONTINUOUS
 10
-108.336409767
 20
7.939097686
 11
-108.9872098616
 21
20.3732648453
  0
LINE
  5
285
100
AcDbEntity
  8
0
100
AcDbLine
 62
7
  6
CONTINUOUS
 10
-107.4359038372
 20
17.0179591697
 11
-106.9180824254
 21
7.1244787513
  0
LWPOLYLINE
  5
286
100
AcDbEntity
  8
0
100
AcDbPolyline
 62
7
  6
CONTINUOUS
 90
4
 70
0
 10
-114.2062898407
 20
-41.5671209858
 10
-114.2588629659
 20
-45.9090466341
 10
-113.6003915552
 20
-50.6298767645
 10
-112.1880598301
 20
-55.3778574352
  0
LINE
  5
287
100
AcDbEntity
  8
0
100
AcDbLine
 62
7
  6
CONTINUOUS
 10
-127.3225524873
 20
29.3114768891
 11
-127.3231628642
 21
29.3017430597
  0
LINE
  5
288
100
AcDbEntity
  8
0
100
AcDbLine
 62
7
  6
CONTINUOUS
 10
-127.322435302
 20
28.6197143299
 11
-127.3230468629
 21
28.6169929845
  0
LINE
  5
289
100
AcDbEntity
  8
0
100
AcDbLine
 62
7
  6
CONTINUOUS
 10
-160.1774934263
 20
8.3078402664
 11
-160.1775134186
 21
8.3077522534
  0
LWPOLYLINE
  5
28A
100
AcDbEntity
  8
0
100
AcDbPolyline
 62
7
  6
CONTINUOUS
 90
6
 70
0
 10
-158.0483755716
 20
-16.6994196354
 10
-158.1033014869
 20
-16.8502649818
 10
-158.1415346272
 20
-17.1671803706
 10
-158.0805655518
 20
-17.4880490416
 10
-157.9211983379
 20
-17.7753964122
 10
-157.7887018029
 20
-17.9128775795
  0
LINE
  5
28B
100
AcDbEntity
  8
0
100
AcDbLine
 62
7
  6
CONTINUOUS
 10
-95.0073097252
 20
-11.2376108612
 11
-95.0073301962
 21
-11.1261518003
  0
LINE
  5
28C
100
AcDbEntity
  8
0
100
AcDbLine
 62
7
  6
CONTINUOUS
 10
-95.0038894185
 20
-11.0403070312
 11
-95.0073301962
 21
-11.1261518003
  0
LINE
  5
28D
100
AcDbEntity
  8
0
100
AcDbLine
 62
7
  6
CONTINUOUS
 10
-114.2062750169
 20
-41.5670870018
 11
-114.2062684204
 21
-41.5670119563
  0
LWPOLYLINE
  5
28E
100
AcDbEntity
  8
0
100
AcDbPolyline
 62
7
  6
CONTINUOUS
 90
4
 70
0
 10
-114.0264606962
 20
-39.8692429567
 10
-114.0689732715
 20
-40.2204788226
 10
-114.1599067047
 20
-41.0654569022
 10
-114.2062750169
 20
-41.5670870018
  0
LINE
  5
28F
100
AcDbEntity
  8
0
100
AcDbLine
 62
7
  6
CONTINUOUS
 10
-158.0483408727
 20
-16.6994167663
 11
-157.7457843978
 21
-16.0336201577
  0
LINE
  5
290
100
AcDbEntity
  8
0
100
AcDbLine
 62
7
  6
CONTINUOUS
 10
-157.7065408196
 20
-16.898242934
 11
-157.3993685967
 21
-16.2222890505
  0
LWPOLYLINE
  5
291
100
AcDbEntity
  8
0
100
AcDbPolyline
 62
7
  6
CONTINUOUS
 90
5
 70
0
 10
-161.9736430442
 20
-4.870962181
 10
-162.1306786336
 20
-5.1053184077
 10
-162.2318279168
 20
-5.3877689917
 10
-162.2640446615
 20
-5.6964101964
 10
-162.2271946983
 20
-5.9764686846
  0
LINE
  5
292
100
AcDbEntity
  8
0
100
AcDbLine
 62
7
  6
CONTINUOUS
 10
-140.5877296699
 20
29.1597572415
 11
-140.5876347494
 21
29.1598108633
  0
LWPOLYLINE
  5
293
100
AcDbEntity
  8
0
100
AcDbPolyline
 62
7
  6
CONTINUOUS
 90
6
 70
0
 10
-159.3712953533
 20
9.25493656
 10
-159.578616625
 20
9.169137124
 10
-159.7947183716
 20
9.0058858195
 10
-159.9812964464
 20
8.7762729031
 10
-160.1215105268
 20
8.494909746
 10
-160.177526368
 20
8.3077824434
  0
LINE
  5
294
100
AcDbEntity
  8
0
100
AcDbLine
 62
7
  6
CONTINUOUS
 10
-36.7868382629
 20
-16.9052050338
 11
-36.7868159935
 21
-16.9056416402
  0
LINE
  5
295
100
AcDbEntity
  8
0
100
AcDbLine
 62
7
  6
CONTINUOUS
 10
-53.8323180892
 20
-76.365142743
 11
-53.8327943769
 21
-73.5536383635
  0
LINE
  5
296
100
AcDbEntity
  8
0
100
AcDbLine
 62
7
  6
CONTINUOUS
 10
-48.8829561767
 20
-72.2183050471
 11
-48.882479889
 21
-75.0298094266
  0
LWPOLYLINE
  5
297
100
AcDbEntity
  8
0
100
AcDbPolyline
 62
7
  6
CONTINUOUS
 90
8
 70
0
 10
-111.4298628319
 20
-25.250020882
 10
-112.8937250765
 20
-29.5371070196
 10
-113.7831315847
 20
-34.4085511957
 10
-113.9232926069
 20
-39.4807122387
 10
-113.2727959204
 20
-44.719450967
 10
-111.7749599457
 20
-50.0754567955
 10
-109.3598532317
 20
-55.4898184962
 10
-106.4113764728
 20
-60.2465623424
  0
LINE
  5
298
100
AcDbEntity
  8
0
100
AcDbLine
 62
7
  6
CONTINUOUS
 10
-111.4298772166
 20
-25.2500374447
 11
-111.4298516386
 21
-25.2499757012
  0
LWPOLYLINE
  5
299
100
AcDbEntity
  8
0
100
AcDbPolyline
 62
7
  6
CONTINUOUS
 90
4
 70
0
 10
-110.7172164438
 20
-23.6445620416
 10
-110.8384773896
 20
-23.9078029426
 10
-111.2051148872
 20
-24.7278902712
 10
-111.4298516386
 20
-25.2499757012
  0
LINE
  5
29A
100
AcDbEntity
  8
0
100
AcDbLine
 62
7
  6
CONTINUOUS
 10
-161.8947784509
 20
-4.790394268
 11
-161.9736430442
 21
-4.870962181
  0
LINE
  5
29B
100
AcDbEntity
  8
0
100
AcDbLine
 62
7
  6
CONTINUOUS
 10
-161.8947669039
 20
-4.7904261857
 11
-161.3663417132
 21
-4.3078515642
  0
LINE
  5
29C
100
AcDbEntity
  8
0
100
AcDbLine
 62
7
  6
CONTINUOUS
 10
-161.55075385
 20
-4.9853267165
 11
-161.0186700233
 21
-4.4994109127
  0
LINE
  5
29D
100
AcDbEntity
  8
0
100
AcDbLine
 62
7
  6
CONTINUOUS
 10
-73.7492678393
 20
10.1353109518
 11
-76.365375574
 21
8.8886251774
  0
LWPOLYLINE
  5
29E
100
AcDbEntity
  8
0
100
AcDbPolyline
 62
7
  6
CONTINUOUS
 90
6
 70
0
 10
-36.7872927348
 20
-16.8419387797
 10
-36.7860303691
 20
-16.8251473864
 10
-36.7928094543
 20
-16.8442995671
 10
-36.855580696
 20
-16.9586480799
 10
-37.0019762047
 20
-17.0988382334
 10
-37.046981128
 20
-17.126972896
  0
LINE
  5
29F
100
AcDbEntity
  8
0
100
AcDbLine
 62
7
  6
CONTINUOUS
 10
-99.5754477235
 20
-53.596978234
 11
-99.2279542755
 21
-52.4307027447
  0
LINE
  5
2A0
100
AcDbEntity
  8
0
100
AcDbLine
 62
7
  6
CONTINUOUS
 10
-81.9301210065
 20
0.9178080414
 11
-81.7768475562
 21
1.3918365657
  0
LINE
  5
2A1
100
AcDbEntity
  8
0
100
AcDbLine
 62
7
  6
CONTINUOUS
 10
-81.8258042425
 20
1.2468605983
 11
-81.7752004121
 21
1.3967164821
  0
LINE
  5
2A2
100
AcDbEntity
  8
0
100
AcDbLine
 62
7
  6
CONTINUOUS
 10
-81.9683793922
 20
0.8045058843
 11
-81.9301208816
 21
0.9178075274
  0
LWPOLYLINE
  5
2A3
100
AcDbEntity
  8
0
100
AcDbPolyline
 62
7
  6
CONTINUOUS
 90
5
 70
0
 10
-100.8007642764
 20
-7.1881095545
 10
-102.7714825293
 20
-11.424394388
 10
-104.0497475332
 20
-16.1837691189
 10
-104.5482809581
 20
-21.4617320456
 10
-104.2200585138
 20
-26.8225734491
  0
LWPOLYLINE
  5
2A4
100
AcDbEntity
  8
0
100
AcDbPolyline
 62
7
  6
CONTINUOUS
 90
4
 70
0
 10
-90.6035689145
 20
1.4516668553
 10
-92.7235078918
 20
-2.0981145721
 10
-94.2317712736
 20
-6.3514327349
 10
-95.0036482485
 20
-11.0402684007
  0
LINE
  5
2A5
100
AcDbEntity
  8
0
100
AcDbLine
 62
7
  6
CONTINUOUS
 10
-94.5053044552
 20
-14.0011066345
 11
-94.4801123082
 21
-13.9642421619
  0
LWPOLYLINE
  5
2A6
100
AcDbEntity
  8
0
100
AcDbPolyline
 62
7
  6
CONTINUOUS
 90
3
 70
0
 10
-78.6452795042
 20
6.9414305231
 10
-80.5478286368
 20
4.2347859565
 10
-81.7770836461
 20
1.3911365596
  0
LWPOLYLINE
  5
2A7
100
AcDbEntity
  8
0
100
AcDbPolyline
 62
7
  6
CONTINUOUS
 90
8
 70
0
 10
-103.5138110393
 20
-9.9057514412
 10
-106.1486674572
 20
-13.5360525621
 10
-108.3776389913
 20
-17.8613250503
 10
-109.9223267934
 20
-22.5675930474
 10
-110.7329284828
 20
-27.6323478403
 10
-110.7414533379
 20
-33.0246319136
 10
-109.8641198025
 20
-38.7093274505
 10
-108.2169660977
 20
-44.086846408
  0
LINE
  5
2A8
100
AcDbEntity
  8
0
100
AcDbLine
 62
7
  6
CONTINUOUS
 10
-94.5163903961
 20
-13.9910825207
 11
-94.4896418483
 21
-13.9556020114
  0
LWPOLYLINE
  5
2A9
100
AcDbEntity
  8
0
100
AcDbPolyline
 62
7
  6
CONTINUOUS
 90
4
 70
0
 10
-102.3621551906
 20
-8.5871952035
 10
-102.5630718607
 20
-8.8107131239
 10
-103.1483644221
 20
-9.477366217
 10
-103.5138317438
 20
-9.9057677971
  0
LINE
  5
2AA
100
AcDbEntity
  8
0
100
AcDbLine
 62
7
  6
CONTINUOUS
 10
-87.9497350856
 20
4.328662091
 11
-90.6035689145
 21
1.4516668553
  0
LINE
  5
2AB
100
AcDbEntity
  8
0
100
AcDbLine
 62
7
  6
CONTINUOUS
 10
-76.365375574
 20
8.8886251774
 11
-78.6452795042
 21
6.9414305231
  0
LWPOLYLINE
  5
2AC
100
AcDbEntity
  8
0
100
AcDbPolyline
 62
7
  6
CONTINUOUS
 90
4
 70
0
 10
-91.6384292955
 20
2.1340921459
 10
-95.0452342206
 20
-0.3110533854
 10
-98.207987293
 20
-3.4813443255
 10
-100.8007642764
 20
-7.1881095545
  0
LINE
  5
2AD
100
AcDbEntity
  8
0
100
AcDbLine
 62
7
  6
CONTINUOUS
 10
-84.8226215721
 20
6.5518090132
 11
-87.9497350856
 21
4.328662091
  0
LWPOLYLINE
  5
2AE
100
AcDbEntity
  8
0
100
AcDbPolyline
 62
7
  6
CONTINUOUS
 90
4
 70
0
 10
-90.1809347642
 20
2.9777693655
 10
-90.4881094441
 20
2.8065843683
 10
-91.1985320903
 20
2.3971635023
 10
-91.6384121954
 20
2.1340821901
  0
LWPOLYLINE
  5
2AF
100
AcDbEntity
  8
0
100
AcDbPolyline
 62
7
  6
CONTINUOUS
 90
3
 70
0
 10
-63.0830943352
 20
10.2307422106
 10
-65.1312921849
 20
9.2541227656
 10
-66.6360578821
 20
7.6837292169
  0
LINE
  5
2B0
100
AcDbEntity
  8
0
100
AcDbLine
 62
7
  6
CONTINUOUS
 10
-66.9936649902
 20
7.1588165622
 11
-66.6355249016
 21
7.6844677292
  0
LINE
  5
2B1
100
AcDbEntity
  8
0
100
AcDbLine
 62
7
  6
CONTINUOUS
 10
-66.7341451722
 20
7.5479711939
 11
-66.6258704416
 21
7.6978629372
  0
LINE
  5
2B2
100
AcDbEntity
  8
0
100
AcDbLine
 62
7
  6
CONTINUOUS
 10
-66.9936641892
 20
7.1588146671
 11
-66.9229512095
 21
7.2567097435
  0
LINE
  5
2B3
100
AcDbEntity
  8
0
100
AcDbLine
 62
7
  6
CONTINUOUS
 10
-99.230835361
 20
-35.4237893326
 11
-99.5784497319
 21
-35.8762628341
  0
LINE
  5
2B4
100
AcDbEntity
  8
0
100
AcDbLine
 62
7
  6
CONTINUOUS
 10
-103.6263993422
 20
-35.7596439521
 11
-103.3608969167
 21
-35.4364679717
  0
LINE
  5
2B5
100
AcDbEntity
  8
0
100
AcDbLine
 62
7
  6
CONTINUOUS
 10
-52.3629287618
 20
6.8579295761
 11
-52.270526722
 21
6.9255144482
  0
LINE
  5
2B6
100
AcDbEntity
  8
0
100
AcDbLine
 62
7
  6
CONTINUOUS
 10
-41.3868437001
 20
-19.5936804466
 11
-37.0471864549
 21
-17.1270807463
  0
LINE
  5
2B7
100
AcDbEntity
  8
0
100
AcDbLine
 62
7
  6
CONTINUOUS
 10
-41.1052774248
 20
-19.6320732542
 11
-36.7439575087
 21
-17.1531606594
  0
LINE
  5
2B8
100
AcDbEntity
  8
0
100
AcDbLine
 62
7
  6
CONTINUOUS
 10
-99.5754477235
 20
-53.596978234
 11
-103.6229878515
 21
-55.8975428939
  0
LINE
  5
2B9
100
AcDbEntity
  8
0
100
AcDbLine
 62
7
  6
CONTINUOUS
 10
-38.9307674391
 20
-19.5151480961
 11
-34.8832273108
 21
-17.2145834361
  0
LINE
  5
2BA
100
AcDbEntity
  8
0
100
AcDbLine
 62
7
  6
CONTINUOUS
 10
-71.512550974
 20
-80.2709409973
 11
-71.5832640682
 21
-80.3688362291
  0
LINE
  5
2BB
100
AcDbEntity
  8
0
100
AcDbLine
 62
7
  6
CONTINUOUS
 10
-86.1432864013
 20
-79.970055906
 11
-86.2356885896
 21
-80.0376408843
  0
LINE
  5
2BC
100
AcDbEntity
  8
0
100
AcDbLine
 62
7
  6
CONTINUOUS
 10
-58.0247722717
 20
-75.3625752169
 11
-58.0624203884
 21
-75.3850042101
  0
LINE
  5
2BD
100
AcDbEntity
  8
0
100
AcDbLine
 62
7
  6
CONTINUOUS
 10
-58.036584137
 20
-75.3208864877
 11
-58.0747264268
 21
-75.3413701226
  0
ARC
  5
2BE
100
AcDbEntity
  8
0
100
AcDbCircle
 62
7
  6
CONTINUOUS
 10
-489.7163489683
 20
-269.2266728369
 40
473.7907419418
100
AcDbArc
 50
37.4446512413
 51
37.6525658791
  0
ARC
  5
2BF
100
AcDbEntity
  8
0
100
AcDbCircle
 62
7
  6
CONTINUOUS
 10
-279.1521928248
 20
-198.431899474
 40
255.824385388
100
AcDbArc
 50
55.742520111
 51
57.5483957413
  0
ARC
  5
2C0
100
AcDbEntity
  8
0
100
AcDbCircle
 62
7
  6
CONTINUOUS
 10
-253.5232508866
 20
-157.7396404056
 40
207.734373014
100
AcDbArc
 50
57.4910033817
 51
60.003752189
  0
ARC
  5
2C1
100
AcDbEntity
  8
0
100
AcDbCircle
 62
7
  6
CONTINUOUS
 10
-240.7237924023
 20
-77.1406874239
 40
159.3160728067
100
AcDbArc
 50
37.6606150273
 51
37.8969268221
  0
ARC
  5
2C2
100
AcDbEntity
  8
0
100
AcDbCircle
 62
7
  6
CONTINUOUS
 10
-198.8874434548
 20
-72.2857242055
 40
117.963226179
100
AcDbArc
 50
50.8131727818
 51
53.1857713759
  0
ARC
  5
2C3
100
AcDbEntity
  8
0
100
AcDbCircle
 62
7
  6
CONTINUOUS
 10
-156.3062976212
 20
-114.7467814497
 40
119.3144883565
100
AcDbArc
 50
62.6707310464
 51
63.0195407869
  0
ARC
  5
2C4
100
AcDbEntity
  8
0
100
AcDbCircle
 62
7
  6
CONTINUOUS
 10
-167.6186140764
 20
-48.0076245522
 40
86.9128494977
100
AcDbArc
 50
47.3559818713
 51
53.2702373337
  0
ARC
  5
2C5
100
AcDbEntity
  8
0
100
AcDbCircle
 62
7
  6
CONTINUOUS
 10
-143.746795813
 20
-0.7815131825
 40
35.8839428059
100
AcDbArc
 50
39.0454576509
 51
39.966043788
  0
ARC
  5
2C6
100
AcDbEntity
  8
0
100
AcDbCircle
 62
7
  6
CONTINUOUS
 10
-142.5969895784
 20
-0.1023789845
 40
23.4094169485
100
AcDbArc
 50
229.5370526562
 51
240.2435726839
  0
ARC
  5
2C7
100
AcDbEntity
  8
0
100
AcDbCircle
 62
7
  6
CONTINUOUS
 10
-142.7494317544
 20
-0.3536434144
 40
23.1156433776
100
AcDbArc
 50
229.5176490003
 51
240.2624880638
  0
ARC
  5
2C8
100
AcDbEntity
  8
0
100
AcDbCircle
 62
7
  6
CONTINUOUS
 10
-141.6773958697
 20
-5.0464332288
 40
19.5176792701
100
AcDbArc
 50
204.5938814552
 51
210.3918026057
  0
ARC
  5
2C9
100
AcDbEntity
  8
0
100
AcDbCircle
 62
7
  6
CONTINUOUS
 10
-142.3884538128
 20
-4.6190779547
 40
19.3335518087
100
AcDbArc
 50
216.6398788951
 51
216.8652832425
  0
ARC
  5
2CA
100
AcDbEntity
  8
0
100
AcDbCircle
 62
7
  6
CONTINUOUS
 10
-142.5156883555
 20
-5.5408189751
 40
18.5444651372
100
AcDbArc
 50
210.3845437939
 51
214.5665414881
  0
ARC
  5
2CB
100
AcDbEntity
  8
0
100
AcDbCircle
 62
7
  6
CONTINUOUS
 10
-148.1679552135
 20
-23.842276895
 40
0.343035837
100
AcDbArc
 50
248.6801513646
 51
253.918027392
  0
ARC
  5
2CC
100
AcDbEntity
  8
0
100
AcDbCircle
 62
7
  6
CONTINUOUS
 10
-124.8151441649
 20
-4.6442108225
 40
36.9008063703
100
AcDbArc
 50
149.1082273147
 51
152.0170854801
  0
ARC
  5
2CD
100
AcDbEntity
  8
0
100
AcDbCircle
 62
7
  6
CONTINUOUS
 10
-125.0864019545
 20
-4.5068586869
 40
36.5968157277
100
AcDbArc
 50
152.0077194171
 51
157.5058203951
  0
ARC
  5
2CE
100
AcDbEntity
  8
0
100
AcDbCircle
 62
7
  6
CONTINUOUS
 10
-125.4397580575
 20
-4.3571867789
 40
36.2130807415
100
AcDbArc
 50
157.5107160981
 51
157.7148254282
  0
ARC
  5
2CF
100
AcDbEntity
  8
0
100
AcDbCircle
 62
7
  6
CONTINUOUS
 10
-126.975500393
 20
-2.811605021
 40
34.0620595079
100
AcDbArc
 50
134.1708357378
 51
134.3916838892
  0
ARC
  5
2D0
100
AcDbEntity
  8
0
100
AcDbCircle
 62
7
  6
CONTINUOUS
 10
-127.9760036763
 20
-3.4616314581
 40
33.7560341855
100
AcDbArc
 50
105.7733646564
 51
107.4892644311
  0
ARC
  5
2D1
100
AcDbEntity
  8
0
100
AcDbCircle
 62
7
  6
CONTINUOUS
 10
-135.0794919801
 20
-1.7799106033
 40
33.4315246604
100
AcDbArc
 50
28.7360619003
 51
32.7484541187
  0
ARC
  5
2D2
100
AcDbEntity
  8
0
100
AcDbCircle
 62
7
  6
CONTINUOUS
 10
-127.5193440884
 20
-2.2415228371
 40
33.274209723
100
AcDbArc
 50
128.85167553
 51
134.1831527987
  0
ARC
  5
2D3
100
AcDbEntity
  8
0
100
AcDbCircle
 62
7
  6
CONTINUOUS
 10
-130.7454408011
 20
1.9900030135
 40
32.4740521096
100
AcDbArc
 50
194.2004273902
 51
199.2995367283
  0
ARC
  5
2D4
100
AcDbEntity
  8
0
100
AcDbCircle
 62
7
  6
CONTINUOUS
 10
-130.910989224
 20
1.8139882073
 40
32.2118135626
100
AcDbArc
 50
194.1836865477
 51
198.5231981344
  0
ARC
  5
2D5
100
AcDbEntity
  8
0
100
AcDbCircle
 62
7
  6
CONTINUOUS
 10
-128.5170662533
 20
-1.4381275984
 40
31.6619058497
100
AcDbArc
 50
98.4903683629
 51
105.1262720261
  0
ARC
  5
2D6
100
AcDbEntity
  8
0
100
AcDbCircle
 62
7
  6
CONTINUOUS
 10
-128.5982506494
 20
-0.9333951407
 40
31.5786768913
100
AcDbArc
 50
125.5882818996
 51
128.8160667752
  0
ARC
  5
2D7
100
AcDbEntity
  8
0
100
AcDbCircle
 62
7
  6
CONTINUOUS
 10
-131.6535050646
 20
-3.0831923803
 40
29.8445284161
100
AcDbArc
 50
173.1879673882
 51
179.9855281234
  0
ARC
  5
2D8
100
AcDbEntity
  8
0
100
AcDbCircle
 62
7
  6
CONTINUOUS
 10
-133.5742983181
 20
1.0456232017
 40
29.4738232047
100
AcDbArc
 50
211.395927124
 51
211.8059179428
  0
ARC
  5
2D9
100
AcDbEntity
  8
0
100
AcDbCircle
 62
7
  6
CONTINUOUS
 10
-135.3137093897
 20
1.3074785929
 40
28.4740420278
100
AcDbArc
 50
69.6143226606
 51
70.3081820587
  0
ARC
  5
2DA
100
AcDbEntity
  8
0
100
AcDbCircle
 62
7
  6
CONTINUOUS
 10
-133.4060411129
 20
-3.0744215792
 40
28.0919914429
100
AcDbArc
 50
180.0025140105
 51
182.527092814
  0
ARC
  5
2DB
100
AcDbEntity
  8
0
100
AcDbCircle
 62
7
  6
CONTINUOUS
 10
-133.8699059427
 20
-3.093001246
 40
27.6277585829
100
AcDbArc
 50
182.5310145304
 51
182.7091901051
  0
ARC
  5
2DC
100
AcDbEntity
  8
0
100
AcDbCircle
 62
7
  6
CONTINUOUS
 10
-134.6776514398
 20
-2.1998901497
 40
27.5204938189
100
AcDbArc
 50
179.9671769648
 51
185.445586993
  0
ARC
  5
2DD
100
AcDbEntity
  8
0
100
AcDbCircle
 62
7
  6
CONTINUOUS
 10
-135.7226577991
 20
-0.2668385275
 40
26.9566880229
100
AcDbArc
 50
210.8159254233
 51
211.0720391174
  0
ARC
  5
2DE
100
AcDbEntity
  8
0
100
AcDbCircle
 62
7
  6
CONTINUOUS
 10
-135.5031986002
 20
-2.2713962082
 40
26.6918875479
100
AcDbArc
 50
185.4609594147
 51
185.7710878438
  0
ARC
  5
2DF
100
AcDbEntity
  8
0
100
AcDbCircle
 62
7
  6
CONTINUOUS
 10
-135.9574468794
 20
-0.4140563847
 40
26.6792221487
100
AcDbArc
 50
211.839273263
 51
212.5080177497
  0
ARC
  5
2E0
100
AcDbEntity
  8
0
100
AcDbCircle
 62
7
  6
CONTINUOUS
 10
-136.1865623599
 20
-0.5606728903
 40
26.4072110519
100
AcDbArc
 50
212.5069038584
 51
213.8535057262
  0
ARC
  5
2E1
100
AcDbEntity
  8
0
100
AcDbCircle
 62
7
  6
CONTINUOUS
 10
-126.1644949507
 20
-12.3914390416
 40
18.0335457956
100
AcDbArc
 50
202.4325758684
 51
209.7118783101
  0
ARC
  5
2E2
100
AcDbEntity
  8
0
100
AcDbCircle
 62
7
  6
CONTINUOUS
 10
-129.4209377333
 20
-13.7900178262
 40
15.9213828546
100
AcDbArc
 50
253.2527212657
 51
253.5883212651
  0
ARC
  5
2E3
100
AcDbEntity
  8
0
100
AcDbCircle
 62
7
  6
CONTINUOUS
 10
-129.5960319852
 20
-14.3583949555
 40
15.3266582208
100
AcDbArc
 50
247.866776308
 51
253.2626897989
  0
ARC
  5
2E4
100
AcDbEntity
  8
0
100
AcDbCircle
 62
7
  6
CONTINUOUS
 10
-129.652359582
 20
-14.4995484969
 40
15.1746842048
100
AcDbArc
 50
246.4226218129
 51
247.8629840218
  0
ARC
  5
2E5
100
AcDbEntity
  8
0
100
AcDbCircle
 62
7
  6
CONTINUOUS
 10
-129.6708159673
 20
-14.5421416818
 40
15.1282643506
100
AcDbArc
 50
245.7906591101
 51
246.422163284
  0
ARC
  5
2E6
100
AcDbEntity
  8
0
100
AcDbCircle
 62
7
  6
CONTINUOUS
 10
-129.0100069887
 20
-14.519999182
 40
14.4466845872
100
AcDbArc
 50
240.1282591997
 51
243.331868753
  0
ARC
  5
2E7
100
AcDbEntity
  8
0
100
AcDbCircle
 62
7
  6
CONTINUOUS
 10
-133.7699190131
 20
5.6624246637
 40
23.8572041698
100
AcDbArc
 50
72.0118966443
 51
72.3180486878
  0
ARC
  5
2E8
100
AcDbEntity
  8
0
100
AcDbCircle
 62
7
  6
CONTINUOUS
 10
-133.2710805835
 20
6.1985478051
 40
23.7023322775
100
AcDbArc
 50
104.9066987326
 51
105.1172835824
  0
ARC
  5
2E9
100
AcDbEntity
  8
0
100
AcDbCircle
 62
7
  6
CONTINUOUS
 10
-133.6783358927
 20
5.801044191
 40
23.6922635775
100
AcDbArc
 50
72.0969854831
 51
72.5388711276
  0
ARC
  5
2EA
100
AcDbEntity
  8
0
100
AcDbCircle
 62
7
  6
CONTINUOUS
 10
-133.6415166404
 20
5.9135050242
 40
23.5739293041
100
AcDbArc
 50
70.3625038623
 51
72.0321041651
  0
ARC
  5
2EB
100
AcDbEntity
  8
0
100
AcDbCircle
 62
7
  6
CONTINUOUS
 10
-133.6768873992
 20
5.9322014345
 40
23.5718844995
100
AcDbArc
 50
66.7804443918
 51
72.0244680361
  0
ARC
  5
2EC
100
AcDbEntity
  8
0
100
AcDbCircle
 62
7
  6
CONTINUOUS
 10
-133.544708321
 20
6.1785230608
 40
23.2918975734
100
AcDbArc
 50
59.9952966221
 51
69.5194646857
  0
ARC
  5
2ED
100
AcDbEntity
  8
0
100
AcDbCircle
 62
7
  6
CONTINUOUS
 10
-133.4603141586
 20
6.3726967062
 40
23.0801748067
100
AcDbArc
 50
59.9959088335
 51
66.6561157248
  0
ARC
  5
2EE
100
AcDbEntity
  8
0
100
AcDbCircle
 62
7
  6
CONTINUOUS
 10
-132.4158668119
 20
6.6805025389
 40
23.0101044239
100
AcDbArc
 50
102.1563326958
 51
107.0861734361
  0
ARC
  5
2EF
100
AcDbEntity
  8
0
100
AcDbCircle
 62
7
  6
CONTINUOUS
 10
-132.7364964043
 20
8.1123766378
 40
21.542822889
100
AcDbArc
 50
97.5699892238
 51
102.124640007
  0
ARC
  5
2F0
100
AcDbEntity
  8
0
100
AcDbCircle
 62
7
  6
CONTINUOUS
 10
-133.3979380932
 20
11.8303032373
 40
17.9899253642
100
AcDbArc
 50
67.4535316326
 51
70.1363626529
  0
ARC
  5
2F1
100
AcDbEntity
  8
0
100
AcDbCircle
 62
7
  6
CONTINUOUS
 10
-133.381525537
 20
11.8707542246
 40
17.9462729862
100
AcDbArc
 50
67.0473177696
 51
67.4524075041
  0
ARC
  5
2F2
100
AcDbEntity
  8
0
100
AcDbCircle
 62
7
  6
CONTINUOUS
 10
-132.5984120464
 20
13.1846803252
 40
16.4187091553
100
AcDbArc
 50
68.5219912144
 51
71.1163323856
  0
ARC
  5
2F3
100
AcDbEntity
  8
0
100
AcDbCircle
 62
7
  6
CONTINUOUS
 10
-132.5656368801
 20
13.2697405538
 40
16.327555244
100
AcDbArc
 50
68.2200630304
 51
68.5197274604
  0
ARC
  5
2F4
100
AcDbEntity
  8
0
100
AcDbCircle
 62
7
  6
CONTINUOUS
 10
-132.5396984494
 20
13.3337776252
 40
16.2584651453
100
AcDbArc
 50
66.0799649447
 51
68.2212131055
  0
ARC
  5
2F5
100
AcDbEntity
  8
0
100
AcDbCircle
 62
7
  6
CONTINUOUS
 10
-127.0813993136
 20
27.7410515034
 40
13.438658154
100
AcDbArc
 50
174.0247582095
 51
175.698097734
  0
ARC
  5
2F6
100
AcDbEntity
  8
0
100
AcDbCircle
 62
7
  6
CONTINUOUS
 10
-125.9553665989
 20
28.1582271405
 40
1.4507387278
100
AcDbArc
 50
171.0333258902
 51
173.1737509932
  0
ARC
  5
2F7
100
AcDbEntity
  8
0
100
AcDbCircle
 62
7
  6
CONTINUOUS
 10
-128.1697734794
 20
29.3114015786
 40
0.8461017415
100
AcDbArc
 50
359.7164103687
 51
17.7680681955
  0
ARC
  5
2F8
100
AcDbEntity
  8
0
100
AcDbCircle
 62
7
  6
CONTINUOUS
 10
-121.2112900381
 20
34.7383918417
 40
63.2316788586
100
AcDbArc
 50
234.7484511833
 51
235.8539817989
  0
ARC
  5
2F9
100
AcDbEntity
  8
0
100
AcDbCircle
 62
7
  6
CONTINUOUS
 10
-115.7121249432
 20
30.9812335762
 40
59.6039658075
100
AcDbArc
 50
238.1906980173
 51
242.7067583792
  0
ARC
  5
2FA
100
AcDbEntity
  8
0
100
AcDbCircle
 62
7
  6
CONTINUOUS
 10
-109.5773109928
 20
-9.8187231139
 40
52.6134712985
100
AcDbArc
 50
144.0088036506
 51
154.8256533167
  0
ARC
  5
2FB
100
AcDbEntity
  8
0
100
AcDbCircle
 62
7
  6
CONTINUOUS
 10
-109.827175243
 20
-9.6759980172
 40
52.4471414021
100
AcDbArc
 50
144.006773628
 51
154.846294058
  0
ARC
  5
2FC
100
AcDbEntity
  8
0
100
AcDbCircle
 62
7
  6
CONTINUOUS
 10
-109.9442381972
 20
-9.6422284999
 40
52.2063196067
100
AcDbArc
 50
154.8296584793
 51
155.5667969948
  0
ARC
  5
2FD
100
AcDbEntity
  8
0
100
AcDbCircle
 62
7
  6
CONTINUOUS
 10
-110.0220298642
 20
-9.6142815325
 40
52.123176854
100
AcDbArc
 50
156.0554091799
 51
157.336048064
  0
ARC
  5
2FE
100
AcDbEntity
  8
0
100
AcDbCircle
 62
7
  6
CONTINUOUS
 10
-115.8331356545
 20
-12.5316336063
 40
48.4667054935
100
AcDbArc
 50
132.9283320261
 51
134.2749053107
  0
ARC
  5
2FF
100
AcDbEntity
  8
0
100
AcDbCircle
 62
7
  6
CONTINUOUS
 10
-116.4470616639
 20
-11.8614539864
 40
47.5585221553
100
AcDbArc
 50
131.9736613645
 51
132.408773583
  0
ARC
  5
300
100
AcDbEntity
  8
0
100
AcDbCircle
 62
7
  6
CONTINUOUS
 10
-117.1197703008
 20
26.3025041284
 40
46.9312584034
100
AcDbArc
 50
226.4880817302
 51
232.1195306402
  0
ARC
  5
301
100
AcDbEntity
  8
0
100
AcDbCircle
 62
7
  6
CONTINUOUS
 10
-120.127524485
 20
-6.8684331904
 40
41.3459799431
100
AcDbArc
 50
119.4359917794
 51
121.9050216038
  0
ARC
  5
302
100
AcDbEntity
  8
0
100
AcDbCircle
 62
7
  6
CONTINUOUS
 10
-120.3640263524
 20
-6.6886970879
 40
41.1595658252
100
AcDbArc
 50
119.4291212522
 51
122.2650204414
  0
ARC
  5
303
100
AcDbEntity
  8
0
100
AcDbCircle
 62
7
  6
CONTINUOUS
 10
-120.2441059618
 20
-1.7389853522
 40
40.997585054
100
AcDbArc
 50
179.6894910863
 51
180.0146624132
  0
ARC
  5
304
100
AcDbEntity
  8
0
100
AcDbCircle
 62
7
  6
CONTINUOUS
 10
-121.0365385097
 20
-1.7528514477
 40
40.2044359016
100
AcDbArc
 50
180.5879656809
 51
182.1173383473
  0
ARC
  5
305
100
AcDbEntity
  8
0
100
AcDbCircle
 62
7
  6
CONTINUOUS
 10
-120.021074266
 20
20.142289487
 40
40.1251718542
100
AcDbArc
 50
204.484575278
 51
205.3012403011
  0
ARC
  5
306
100
AcDbEntity
  8
0
100
AcDbCircle
 62
7
  6
CONTINUOUS
 10
-114.4548547763
 20
28.4292937452
 40
38.8855610877
100
AcDbArc
 50
216.3035228143
 51
222.6666420175
  0
ARC
  5
307
100
AcDbEntity
  8
0
100
AcDbCircle
 62
7
  6
CONTINUOUS
 10
-102.409737021
 20
-31.6501465153
 40
36.8403901429
100
AcDbArc
 50
69.2540945136
 51
70.3538615803
  0
ARC
  5
308
100
AcDbEntity
  8
0
100
AcDbCircle
 62
7
  6
CONTINUOUS
 10
-88.9473738767
 20
-25.2446479758
 40
32.8444991034
100
AcDbArc
 50
322.1551203741
 51
338.1074219758
  0
ARC
  5
309
100
AcDbEntity
  8
0
100
AcDbCircle
 62
7
  6
CONTINUOUS
 10
-80.6159802
 20
-46.2443355516
 40
32.5363593108
100
AcDbArc
 50
212.8753659162
 51
213.2725645305
  0
ARC
  5
30A
100
AcDbEntity
  8
0
100
AcDbCircle
 62
7
  6
CONTINUOUS
 10
-92.6427367702
 20
-15.8806094854
 40
31.9934039201
100
AcDbArc
 50
228.1558747428
 51
228.3998773845
  0
ARC
  5
30B
100
AcDbEntity
  8
0
100
AcDbCircle
 62
7
  6
CONTINUOUS
 10
-82.2325789232
 20
-37.5467667878
 40
31.6500185511
100
AcDbArc
 50
157.1775913125
 51
158.8900772926
  0
ARC
  5
30C
100
AcDbEntity
  8
0
100
AcDbCircle
 62
7
  6
CONTINUOUS
 10
-79.9578696478
 20
-29.6542251574
 40
30.7085546276
100
AcDbArc
 50
141.7965594204
 51
146.2507391263
  0
ARC
  5
30D
100
AcDbEntity
  8
0
100
AcDbCircle
 62
7
  6
CONTINUOUS
 10
-80.0436744457
 20
-29.5939033736
 40
30.6036976912
100
AcDbArc
 50
146.2553942977
 51
154.8538554184
  0
ARC
  5
30E
100
AcDbEntity
  8
0
100
AcDbCircle
 62
7
  6
CONTINUOUS
 10
-83.6289350341
 20
-19.3630505465
 40
29.5806513361
100
AcDbArc
 50
74.6439551663
 51
75.0249953082
  0
ARC
  5
30F
100
AcDbEntity
  8
0
100
AcDbCircle
 62
7
  6
CONTINUOUS
 10
-84.7925332926
 20
-44.0716352076
 40
29.4970290506
100
AcDbArc
 50
175.203196972
 51
182.1195225692
  0
ARC
  5
310
100
AcDbEntity
  8
0
100
AcDbCircle
 62
7
  6
CONTINUOUS
 10
-84.3499231346
 20
-48.314365298
 40
28.2631011703
100
AcDbArc
 50
204.0307550959
 51
204.9718974249
  0
ARC
  5
311
100
AcDbEntity
  8
0
100
AcDbCircle
 62
7
  6
CONTINUOUS
 10
-119.0075457304
 20
-10.8377654041
 40
26.7345693325
100
AcDbArc
 50
179.6122556651
 51
179.9604776662
  0
ARC
  5
312
100
AcDbEntity
  8
0
100
AcDbCircle
 62
7
  6
CONTINUOUS
 10
-84.3544521873
 20
-30.4178634991
 40
25.8806343054
100
AcDbArc
 50
298.1068113982
 51
303.0281422655
  0
ARC
  5
313
100
AcDbEntity
  8
0
100
AcDbCircle
 62
7
  6
CONTINUOUS
 10
-118.62875683
 20
-10.8727954854
 40
25.8159232671
100
AcDbArc
 50
179.6627763127
 51
180.009564699
  0
ARC
  5
314
100
AcDbEntity
  8
0
100
AcDbCircle
 62
7
  6
CONTINUOUS
 10
-86.2569408516
 20
-47.1657391365
 40
23.9596302737
100
AcDbArc
 50
240.9224867659
 51
241.5179381489
  0
ARC
  5
315
100
AcDbEntity
  8
0
100
AcDbCircle
 62
7
  6
CONTINUOUS
 10
-81.9209886541
 20
-43.1263323471
 40
23.9508577167
100
AcDbArc
 50
266.3684642865
 51
270.3144625094
  0
ARC
  5
316
100
AcDbEntity
  8
0
100
AcDbCircle
 62
7
  6
CONTINUOUS
 10
-80.1624643372
 20
-57.3216647777
 40
23.9480882906
100
AcDbArc
 50
240.1769167966
 51
252.8053945483
  0
ARC
  5
317
100
AcDbEntity
  8
0
100
AcDbCircle
 62
7
  6
CONTINUOUS
 10
-85.6870048293
 20
-47.3134424699
 40
23.7368633509
100
AcDbArc
 50
236.8207414035
 51
240.1290944611
  0
ARC
  5
318
100
AcDbEntity
  8
0
100
AcDbCircle
 62
7
  6
CONTINUOUS
 10
-82.5116860958
 20
-46.3705159356
 40
20.6359770729
100
AcDbArc
 50
233.8050696479
 51
240.1216224938
  0
ARC
  5
319
100
AcDbEntity
  8
0
100
AcDbCircle
 62
7
  6
CONTINUOUS
 10
-118.4004450998
 20
3.9522510117
 40
14.450981674
100
AcDbArc
 50
56.676574157
 51
60.1297384434
  0
ARC
  5
31A
100
AcDbEntity
  8
0
100
AcDbCircle
 62
7
  6
CONTINUOUS
 10
-121.7632352113
 20
28.3849251503
 40
5.6456404328
100
AcDbArc
 50
177.5632816946
 51
180.0199537334
  0
ARC
  5
31B
100
AcDbEntity
  8
0
100
AcDbCircle
 62
7
  6
CONTINUOUS
 10
-122.3418171208
 20
28.4064631692
 40
5.0666669109
100
AcDbArc
 50
176.3165336412
 51
177.5284472688
  0
ARC
  5
31C
100
AcDbEntity
  8
0
100
AcDbCircle
 62
7
  6
CONTINUOUS
 10
-122.5556428142
 20
28.4197754624
 40
4.8524277205
100
AcDbArc
 50
175.8347492381
 51
176.3111930631
  0
ARC
  5
31D
100
AcDbEntity
  8
0
100
AcDbCircle
 62
7
  6
CONTINUOUS
 10
-83.5199395633
 20
136.6305709378
 40
160.0435714705
100
AcDbArc
 50
244.471114152
 51
247.0451750689
  0
ARC
  5
31E
100
AcDbEntity
  8
0
100
AcDbCircle
 62
7
  6
CONTINUOUS
 10
-118.6836209167
 20
77.8407826921
 40
105.6617545858
100
AcDbArc
 50
253.5712417411
 51
253.9349382804
  0
ARC
  5
31F
100
AcDbEntity
  8
0
100
AcDbCircle
 62
7
  6
CONTINUOUS
 10
-107.0022984193
 20
62.5425778753
 40
95.46058454
100
AcDbArc
 50
240.3861909513
 51
241.5476680537
  0
ARC
  5
320
100
AcDbEntity
  8
0
100
AcDbCircle
 62
7
  6
CONTINUOUS
 10
-107.1968237394
 20
62.1812206454
 40
95.0501970856
100
AcDbArc
 50
241.546986196
 51
243.9621785681
  0
ARC
  5
321
100
AcDbEntity
  8
0
100
AcDbCircle
 62
7
  6
CONTINUOUS
 10
-107.366408829
 20
61.8379399494
 40
94.667316049
100
AcDbArc
 50
243.9631983697
 51
246.8941497821
  0
ARC
  5
322
100
AcDbEntity
  8
0
100
AcDbCircle
 62
7
  6
CONTINUOUS
 10
-107.4446704819
 20
61.6759037183
 40
94.4879013051
100
AcDbArc
 50
251.6578533429
 51
252.5239885402
  0
ARC
  5
323
100
AcDbEntity
  8
0
100
AcDbCircle
 62
7
  6
CONTINUOUS
 10
-107.4660296005
 20
61.6115454091
 40
94.4200912507
100
AcDbArc
 50
250.2689982802
 51
251.6578660781
  0
ARC
  5
324
100
AcDbEntity
  8
0
100
AcDbCircle
 62
7
  6
CONTINUOUS
 10
-107.4658544973
 20
61.6070830668
 40
94.4159526125
100
AcDbArc
 50
246.8946794809
 51
250.1657514454
  0
ARC
  5
325
100
AcDbEntity
  8
0
100
AcDbCircle
 62
7
  6
CONTINUOUS
 10
-107.718006796
 20
60.794256327
 40
93.5641617461
100
AcDbArc
 50
252.5693524221
 51
252.8026972142
  0
ARC
  5
326
100
AcDbEntity
  8
0
100
AcDbCircle
 62
7
  6
CONTINUOUS
 10
-105.9798374855
 20
60.2461909284
 40
93.5639639832
100
AcDbArc
 50
251.3312318285
 51
251.5565112857
  0
ARC
  5
327
100
AcDbEntity
  8
0
100
AcDbCircle
 62
7
  6
CONTINUOUS
 10
-107.9730967156
 20
60.0124699613
 40
92.7418555029
100
AcDbArc
 50
250.1267388162
 51
252.5280613792
  0
ARC
  5
328
100
AcDbEntity
  8
0
100
AcDbCircle
 62
7
  6
CONTINUOUS
 10
-108.587414631
 20
58.3055035274
 40
90.9277126313
100
AcDbArc
 50
248.9351105864
 51
250.1251420805
  0
ARC
  5
329
100
AcDbEntity
  8
0
100
AcDbCircle
 62
7
  6
CONTINUOUS
 10
-109.0990490852
 20
56.9795095874
 40
89.5064353845
100
AcDbArc
 50
248.0202387253
 51
248.9356537617
  0
ARC
  5
32A
100
AcDbEntity
  8
0
100
AcDbCircle
 62
7
  6
CONTINUOUS
 10
-109.905882638
 20
55.0062851741
 40
87.3746522084
100
AcDbArc
 50
246.5779688486
 51
248.0265687841
  0
ARC
  5
32B
100
AcDbEntity
  8
0
100
AcDbCircle
 62
7
  6
CONTINUOUS
 10
-109.1170435049
 20
53.6170879346
 40
86.3201227157
100
AcDbArc
 50
251.0319264588
 51
252.0304299763
  0
ARC
  5
32C
100
AcDbEntity
  8
0
100
AcDbCircle
 62
7
  6
CONTINUOUS
 10
-109.2114900058
 20
53.3278659265
 40
86.0158709502
100
AcDbArc
 50
252.0308369901
 51
252.2855040968
  0
ARC
  5
32D
100
AcDbEntity
  8
0
100
AcDbCircle
 62
7
  6
CONTINUOUS
 10
-109.3187302768
 20
52.9895992843
 40
85.6610129489
100
AcDbArc
 50
252.2849888377
 51
253.2471327488
  0
ARC
  5
32E
100
AcDbEntity
  8
0
100
AcDbCircle
 62
7
  6
CONTINUOUS
 10
-111.44777353
 20
51.4750004872
 40
83.5214368083
100
AcDbArc
 50
244.7613795155
 51
246.5856202356
  0
ARC
  5
32F
100
AcDbEntity
  8
0
100
AcDbCircle
 62
7
  6
CONTINUOUS
 10
-110.1175395513
 20
48.0051389081
 40
80.6425116776
100
AcDbArc
 50
250.6985008789
 51
251.3324233842
  0
ARC
  5
330
100
AcDbEntity
  8
0
100
AcDbCircle
 62
7
  6
CONTINUOUS
 10
-113.8672857635
 20
46.5019194108
 40
77.9914628792
100
AcDbArc
 50
240.3689429818
 51
244.8113922205
  0
ARC
  5
331
100
AcDbEntity
  8
0
100
AcDbCircle
 62
7
  6
CONTINUOUS
 10
-112.3616335966
 20
41.6512720545
 40
73.9040223808
100
AcDbArc
 50
248.6193281204
 51
250.7122676628
  0
ARC
  5
332
100
AcDbEntity
  8
0
100
AcDbCircle
 62
7
  6
CONTINUOUS
 10
-116.4633386333
 20
41.8992520925
 40
72.7071798365
100
AcDbArc
 50
238.8301142606
 51
240.3539233444
  0
ARC
  5
333
100
AcDbEntity
  8
0
100
AcDbCircle
 62
7
  6
CONTINUOUS
 10
-114.4005334639
 20
39.5193622926
 40
71.2651378645
100
AcDbArc
 50
252.5704884128
 51
252.8501497368
  0
ARC
  5
334
100
AcDbEntity
  8
0
100
AcDbCircle
 62
7
  6
CONTINUOUS
 10
-118.4197304566
 20
38.98335768
 40
68.3118057022
100
AcDbArc
 50
235.9147013275
 51
240.4513179404
  0
ARC
  5
335
100
AcDbEntity
  8
0
100
AcDbCircle
 62
7
  6
CONTINUOUS
 10
-119.3905897512
 20
37.1795147621
 40
67.1536050079
100
AcDbArc
 50
235.1580507684
 51
238.7429453683
  0
ARC
  5
336
100
AcDbEntity
  8
0
100
AcDbCircle
 62
7
  6
CONTINUOUS
 10
-77.717510405
 20
-46.0846206075
 40
58.935558724
100
AcDbArc
 50
64.4165542517
 51
72.1555251235
  0
ARC
  5
337
100
AcDbEntity
  8
0
100
AcDbCircle
 62
7
  6
CONTINUOUS
 10
-78.8880116231
 20
-44.9690720442
 40
56.7896101034
100
AcDbArc
 50
74.7613592352
 51
76.370716581
  0
ARC
  5
338
100
AcDbEntity
  8
0
100
AcDbCircle
 62
7
  6
CONTINUOUS
 10
-76.8481536014
 20
-41.8156392997
 40
37.8376532033
100
AcDbArc
 50
208.273431183
 51
208.4225176859
  0
ARC
  5
339
100
AcDbEntity
  8
0
100
AcDbCircle
 62
7
  6
CONTINUOUS
 10
-76.9407621532
 20
-43.4657938072
 40
37.1475538034
100
AcDbArc
 50
220.9046473667
 51
221.1971174816
  0
ARC
  5
33A
100
AcDbEntity
  8
0
100
AcDbCircle
 62
7
  6
CONTINUOUS
 10
-76.7738075339
 20
-66.4910852245
 40
4.9007394848
100
AcDbArc
 50
236.3951777451
 51
240.1267899931
  0
ARC
  5
33B
100
AcDbEntity
  8
0
100
AcDbCircle
 62
7
  6
CONTINUOUS
 10
-69.2859367694
 20
-40.8624568469
 40
45.1387951976
100
AcDbArc
 50
178.7637137287
 51
180.9294649649
  0
ARC
  5
33C
100
AcDbEntity
  8
0
100
AcDbCircle
 62
7
  6
CONTINUOUS
 10
-70.9549578451
 20
-37.6098241539
 40
45.0965608513
100
AcDbArc
 50
220.8074039186
 51
223.9113020556
  0
ARC
  5
33D
100
AcDbEntity
  8
0
100
AcDbCircle
 62
7
  6
CONTINUOUS
 10
-72.0904547026
 20
-38.531358158
 40
44.0741522823
100
AcDbArc
 50
229.7620110394
 51
230.7203363492
  0
ARC
  5
33E
100
AcDbEntity
  8
0
100
AcDbCircle
 62
7
  6
CONTINUOUS
 10
-72.2212739304
 20
-38.7101531398
 40
43.4189878299
100
AcDbArc
 50
218.5629265864
 51
220.8004234884
  0
ARC
  5
33F
100
AcDbEntity
  8
0
100
AcDbCircle
 62
7
  6
CONTINUOUS
 10
-71.0077245672
 20
-40.9048166918
 40
43.4165492035
100
AcDbArc
 50
180.9104296022
 51
184.5195555572
  0
ARC
  5
340
100
AcDbEntity
  8
0
100
AcDbCircle
 62
7
  6
CONTINUOUS
 10
-72.6827521771
 20
-39.2287095954
 40
43.1592137852
100
AcDbArc
 50
228.166885557
 51
229.7642373037
  0
ARC
  5
341
100
AcDbEntity
  8
0
100
AcDbCircle
 62
7
  6
CONTINUOUS
 10
-73.04316038
 20
-39.3660128717
 40
42.3674893383
100
AcDbArc
 50
216.2607841876
 51
218.5622639387
  0
ARC
  5
342
100
AcDbEntity
  8
0
100
AcDbCircle
 62
7
  6
CONTINUOUS
 10
-73.914306295
 20
-40.0048859115
 40
41.2871866238
100
AcDbArc
 50
213.9886898616
 51
216.2609293492
  0
ARC
  5
343
100
AcDbEntity
  8
0
100
AcDbCircle
 62
7
  6
CONTINUOUS
 10
-70.3721152146
 20
-32.720022307
 40
40.8088922211
100
AcDbArc
 50
118.7866730093
 51
121.3473905566
  0
ARC
  5
344
100
AcDbEntity
  8
0
100
AcDbCircle
 62
7
  6
CONTINUOUS
 10
-75.3565754156
 20
-40.9682223288
 40
39.5527996415
100
AcDbArc
 50
208.4736882231
 51
213.9995864516
  0
ARC
  5
345
100
AcDbEntity
  8
0
100
AcDbCircle
 62
7
  6
CONTINUOUS
 10
-70.5621829248
 20
-27.4568944481
 40
32.6131534929
100
AcDbArc
 50
10.8713834535
 51
14.0940090026
  0
ARC
  5
346
100
AcDbEntity
  8
0
100
AcDbCircle
 62
7
  6
CONTINUOUS
 10
-78.4785581354
 20
-29.9923379754
 40
32.2304174233
100
AcDbArc
 50
170.1721626123
 51
170.9008349131
  0
ARC
  5
347
100
AcDbEntity
  8
0
100
AcDbCircle
 62
7
  6
CONTINUOUS
 10
-79.2711673185
 20
-29.9193818568
 40
31.4422893507
100
AcDbArc
 50
160.4673984441
 51
163.0805712491
  0
ARC
  5
348
100
AcDbEntity
  8
0
100
AcDbCircle
 62
7
  6
CONTINUOUS
 10
-79.5868601449
 20
-29.8015778593
 40
31.1053777237
100
AcDbArc
 50
154.8644369462
 51
160.4774829708
  0
ARC
  5
349
100
AcDbEntity
  8
0
100
AcDbCircle
 62
7
  6
CONTINUOUS
 10
-79.7779859557
 20
-29.7944521626
 40
30.9366349792
100
AcDbArc
 50
140.0021706329
 51
141.7985168803
  0
ARC
  5
34A
100
AcDbEntity
  8
0
100
AcDbCircle
 62
7
  6
CONTINUOUS
 10
-79.7865423042
 20
-29.7528005585
 40
30.9007442263
100
AcDbArc
 50
163.0979690454
 51
170.1958307727
  0
ARC
  5
34B
100
AcDbEntity
  8
0
100
AcDbCircle
 62
7
  6
CONTINUOUS
 10
-70.6058434044
 20
-27.1509865914
 40
30.5526324045
100
AcDbArc
 50
13.6189128547
 51
14.1005916324
  0
ARC
  5
34C
100
AcDbEntity
  8
0
100
AcDbCircle
 62
7
  6
CONTINUOUS
 10
-72.9924697436
 20
-20.3565250782
 40
29.7209434803
100
AcDbArc
 50
97.8532514863
 51
98.950156178
  0
ARC
  5
34D
100
AcDbEntity
  8
0
100
AcDbCircle
 62
7
  6
CONTINUOUS
 10
-73.0733071506
 20
-19.7581789897
 40
29.1171638359
100
AcDbArc
 50
95.7398587127
 51
97.8565505595
  0
ARC
  5
34E
100
AcDbEntity
  8
0
100
AcDbCircle
 62
7
  6
CONTINUOUS
 10
-77.3986468666
 20
-21.1740510415
 40
27.2929077908
100
AcDbArc
 50
121.3592561689
 51
122.7266500245
  0
ARC
  5
34F
100
AcDbEntity
  8
0
100
AcDbCircle
 62
7
  6
CONTINUOUS
 10
-77.7760411575
 20
-20.6078840867
 40
26.612585647
100
AcDbArc
 50
122.7021090815
 51
128.5088100221
  0
ARC
  5
350
100
AcDbEntity
  8
0
100
AcDbCircle
 62
7
  6
CONTINUOUS
 10
-70.1981763993
 20
-18.095411644
 40
26.1699659286
100
AcDbArc
 50
38.2973292587
 51
38.6165022826
  0
ARC
  5
351
100
AcDbEntity
  8
0
100
AcDbCircle
 62
7
  6
CONTINUOUS
 10
-78.0829115004
 20
-20.2203991452
 40
26.1183056839
100
AcDbArc
 50
128.5112928904
 51
132.4353156033
  0
ARC
  5
352
100
AcDbEntity
  8
0
100
AcDbCircle
 62
7
  6
CONTINUOUS
 10
-78.2324668127
 20
-20.023730435
 40
25.8739703678
100
AcDbArc
 50
143.6695291139
 51
146.1920148218
  0
ARC
  5
353
100
AcDbEntity
  8
0
100
AcDbCircle
 62
7
  6
CONTINUOUS
 10
-78.2993880054
 20
-19.971725742
 40
25.7892481124
100
AcDbArc
 50
137.6463975886
 51
143.6745251859
  0
ARC
  5
354
100
AcDbEntity
  8
0
100
AcDbCircle
 62
7
  6
CONTINUOUS
 10
-78.3526505025
 20
-19.9269715469
 40
25.7197361318
100
AcDbArc
 50
132.4328971953
 51
137.6401382829
  0
ARC
  5
355
100
AcDbEntity
  8
0
100
AcDbCircle
 62
7
  6
CONTINUOUS
 10
-58.5656615074
 20
-42.6037106777
 40
56.0078588589
100
AcDbArc
 50
142.1367219663
 51
143.9785153144
  0
ARC
  5
356
100
AcDbEntity
  8
0
100
AcDbCircle
 62
7
  6
CONTINUOUS
 10
-59.561412556
 20
-42.3916180181
 40
55.0263578106
100
AcDbArc
 50
159.8831707454
 51
161.7085349676
  0
ARC
  5
357
100
AcDbEntity
  8
0
100
AcDbCircle
 62
7
  6
CONTINUOUS
 10
-62.6965068306
 20
-45.7956840514
 40
52.8562152552
100
AcDbArc
 50
154.9713908756
 51
157.1498995707
  0
ARC
  5
358
100
AcDbEntity
  8
0
100
AcDbCircle
 62
7
  6
CONTINUOUS
 10
-64.5717042393
 20
-42.5790355611
 40
50.8031077103
100
AcDbArc
 50
137.7464199176
 51
139.9797237594
  0
ARC
  5
359
100
AcDbEntity
  8
0
100
AcDbCircle
 62
7
  6
CONTINUOUS
 10
-66.9263895427
 20
-41.5483144405
 40
47.1641079132
100
AcDbArc
 50
175.5331602812
 51
177.9781434054
  0
ARC
  5
35A
100
AcDbEntity
  8
0
100
AcDbCircle
 62
7
  6
CONTINUOUS
 10
-68.95814795
 20
-45.4455271056
 40
45.3908563025
100
AcDbArc
 50
172.7464967617
 51
175.1464409774
  0
ARC
  5
35B
100
AcDbEntity
  8
0
100
AcDbCircle
 62
7
  6
CONTINUOUS
 10
-62.9693456181
 20
-41.6212940659
 40
41.5327129404
100
AcDbArc
 50
169.9610218161
 51
170.7371208523
  0
ARC
  5
35C
100
AcDbEntity
  8
0
100
AcDbCircle
 62
7
  6
CONTINUOUS
 10
-62.9156779492
 20
-27.2320052042
 40
58.6300410171
100
AcDbArc
 50
232.3482407574
 51
240.178465154
  0
ARC
  5
35D
100
AcDbEntity
  8
0
100
AcDbCircle
 62
7
  6
CONTINUOUS
 10
-63.5974707795
 20
-28.1381394772
 40
57.4961411879
100
AcDbArc
 50
231.5947952147
 51
232.3345681865
  0
ARC
  5
35E
100
AcDbEntity
  8
0
100
AcDbCircle
 62
7
  6
CONTINUOUS
 10
-63.7519141547
 20
-28.3329077613
 40
57.2475703941
100
AcDbArc
 50
230.8190827998
 51
231.5948290382
  0
ARC
  5
35F
100
AcDbEntity
  8
0
100
AcDbCircle
 62
7
  6
CONTINUOUS
 10
-66.6914677978
 20
-32.2823018717
 40
48.5108774655
100
AcDbArc
 50
211.6708092737
 51
214.6692864302
  0
ARC
  5
360
100
AcDbEntity
  8
0
100
AcDbCircle
 62
7
  6
CONTINUOUS
 10
-68.5448151978
 20
-35.2357133704
 40
48.4794278225
100
AcDbArc
 50
223.957162333
 51
230.7844590317
  0
ARC
  5
361
100
AcDbEntity
  8
0
100
AcDbCircle
 62
7
  6
CONTINUOUS
 10
-64.249720202
 20
-36.4074152922
 40
47.5664416526
100
AcDbArc
 50
123.3571902042
 51
125.3732975991
  0
ARC
  5
362
100
AcDbEntity
  8
0
100
AcDbCircle
 62
7
  6
CONTINUOUS
 10
-64.1573372601
 20
-35.4622801149
 40
46.459231367
100
AcDbArc
 50
119.5737924427
 51
124.0790686635
  0
ARC
  5
363
100
AcDbEntity
  8
0
100
AcDbCircle
 62
7
  6
CONTINUOUS
 10
-65.4984423874
 20
-34.4810513557
 40
45.2708134701
100
AcDbArc
 50
116.5506945157
 51
123.3777160404
  0
ARC
  5
364
100
AcDbEntity
  8
0
100
AcDbCircle
 62
7
  6
CONTINUOUS
 10
-59.6201075931
 20
-31.3582894667
 40
37.0018773959
100
AcDbArc
 50
105.1012454391
 51
106.7793810523
  0
ARC
  5
365
100
AcDbEntity
  8
0
100
AcDbCircle
 62
7
  6
CONTINUOUS
 10
-68.8936544571
 20
-26.1614338519
 40
36.255884364
100
AcDbArc
 50
102.8906366821
 51
103.9691565905
  0
ARC
  5
366
100
AcDbEntity
  8
0
100
AcDbCircle
 62
7
  6
CONTINUOUS
 10
-69.0104605684
 20
-25.6479927768
 40
35.7293248386
100
AcDbArc
 50
101.3670409796
 51
102.8917298034
  0
ARC
  5
367
100
AcDbEntity
  8
0
100
AcDbCircle
 62
7
  6
CONTINUOUS
 10
-69.1280835057
 20
-25.0642211329
 40
35.1338213376
100
AcDbArc
 50
99.9923691414
 51
101.3666199367
  0
ARC
  5
368
100
AcDbEntity
  8
0
100
AcDbCircle
 62
7
  6
CONTINUOUS
 10
-68.64383365
 20
-24.6875605417
 40
34.7299765668
100
AcDbArc
 50
101.5295710601
 51
102.2780941824
  0
ARC
  5
369
100
AcDbEntity
  8
0
100
AcDbCircle
 62
7
  6
CONTINUOUS
 10
-66.5024115897
 20
-18.0835954582
 40
29.5313899903
100
AcDbArc
 50
1.9353270406
 51
3.0700397469
  0
ARC
  5
36A
100
AcDbEntity
  8
0
100
AcDbCircle
 62
7
  6
CONTINUOUS
 10
-68.6548912861
 20
-16.5191934073
 40
23.9556443293
100
AcDbArc
 50
58.7208873271
 51
59.0838566561
  0
ARC
  5
36B
100
AcDbEntity
  8
0
100
AcDbCircle
 62
7
  6
CONTINUOUS
 10
-68.2470896767
 20
-16.9513889626
 40
23.7487753946
100
AcDbArc
 50
60.1318923187
 51
63.634167818
  0
ARC
  5
36C
100
AcDbEntity
  8
0
100
AcDbCircle
 62
7
  6
CONTINUOUS
 10
-67.4472516864
 20
-20.1395146371
 40
20.6149709627
100
AcDbArc
 50
60.133065264
 51
66.423973091
  0
ARC
  5
36D
100
AcDbEntity
  8
0
100
AcDbCircle
 62
7
  6
CONTINUOUS
 10
-62.8364874256
 20
33.7996230484
 40
80.2238372576
100
AcDbArc
 50
239.1235240165
 51
239.6592375484
  0
ARC
  5
36E
100
AcDbEntity
  8
0
100
AcDbCircle
 62
7
  6
CONTINUOUS
 10
-73.6877288737
 20
28.9092065049
 40
64.0429457087
100
AcDbArc
 50
234.8162767063
 51
235.3341135202
  0
ARC
  5
36F
100
AcDbEntity
  8
0
100
AcDbCircle
 62
7
  6
CONTINUOUS
 10
-73.9427936632
 20
-14.2874608395
 40
23.5779183517
100
AcDbArc
 50
98.9633873623
 51
99.5347124775
  0
ARC
  5
370
100
AcDbEntity
  8
0
100
AcDbCircle
 62
7
  6
CONTINUOUS
 10
-73.9944527114
 20
-13.983703641
 40
23.2698003687
100
AcDbArc
 50
99.5331624871
 51
100.8076567505
  0
ARC
  5
371
100
AcDbEntity
  8
0
100
AcDbCircle
 62
7
  6
CONTINUOUS
 10
-70.7010082321
 20
-11.1814116256
 40
22.0242117419
100
AcDbArc
 50
73.1282036772
 51
76.3570884505
  0
ARC
  5
372
100
AcDbEntity
  8
0
100
AcDbCircle
 62
7
  6
CONTINUOUS
 10
-74.2994535551
 20
-12.5434793726
 40
21.7979510164
100
AcDbArc
 50
100.7300356487
 51
107.5898990614
  0
ARC
  5
373
100
AcDbEntity
  8
0
100
AcDbCircle
 62
7
  6
CONTINUOUS
 10
-74.6054132721
 20
-11.5534564614
 40
20.7617574327
100
AcDbArc
 50
107.6106863337
 51
109.7364406143
  0
ARC
  5
374
100
AcDbEntity
  8
0
100
AcDbCircle
 62
7
  6
CONTINUOUS
 10
-75.030547574
 20
-10.4443288112
 40
19.5742358904
100
AcDbArc
 50
109.6614644293
 51
118.0795936476
  0
ARC
  5
375
100
AcDbEntity
  8
0
100
AcDbCircle
 62
7
  6
CONTINUOUS
 10
-75.3681420102
 20
-9.8050816174
 40
18.8513268938
100
AcDbArc
 50
118.0888163473
 51
122.7295712857
  0
ARC
  5
376
100
AcDbEntity
  8
0
100
AcDbCircle
 62
7
  6
CONTINUOUS
 10
-75.458697598
 20
-9.662267709
 40
18.6822262121
100
AcDbArc
 50
122.7327534721
 51
123.7882154116
  0
ARC
  5
377
100
AcDbEntity
  8
0
100
AcDbCircle
 62
7
  6
CONTINUOUS
 10
-75.5941241816
 20
-9.4628791211
 40
18.441200591
100
AcDbArc
 50
123.7830331385
 51
128.0628310456
  0
ARC
  5
378
100
AcDbEntity
  8
0
100
AcDbCircle
 62
7
  6
CONTINUOUS
 10
-70.1448541315
 20
-0.1678623133
 40
10.8755964434
100
AcDbArc
 50
117.9199750767
 51
122.136661423
  0
ARC
  5
379
100
AcDbEntity
  8
0
100
AcDbCircle
 62
7
  6
CONTINUOUS
 10
-61.7495177073
 20
3.9565483828
 40
6.4021175921
100
AcDbArc
 50
80.7029020342
 51
82.2996007044
  0
ARC
  5
37A
100
AcDbEntity
  8
0
100
AcDbCircle
 62
7
  6
CONTINUOUS
 10
-61.6055584473
 20
5.6004665371
 40
4.7869872914
100
AcDbArc
 50
118.4716771927
 51
125.1867067793
  0
ARC
  5
37B
100
AcDbEntity
  8
0
100
AcDbCircle
 62
7
  6
CONTINUOUS
 10
-61.7643658701
 20
5.8905865661
 40
4.4562492785
100
AcDbArc
 50
102.3022894207
 51
118.4550543726
  0
ARC
  5
37C
100
AcDbEntity
  8
0
100
AcDbCircle
 62
7
  6
CONTINUOUS
 10
-47.4742981255
 20
-48.9524536213
 40
58.1952457456
100
AcDbArc
 50
141.8563276733
 51
143.2910742105
  0
ARC
  5
37D
100
AcDbEntity
  8
0
100
AcDbCircle
 62
7
  6
CONTINUOUS
 10
-48.7600176669
 20
-48.1247496387
 40
57.6404320851
100
AcDbArc
 50
139.1374256712
 51
143.3024219141
  0
ARC
  5
37E
100
AcDbEntity
  8
0
100
AcDbCircle
 62
7
  6
CONTINUOUS
 10
-57.2190978082
 20
-43.558371157
 40
57.1197465966
100
AcDbArc
 50
154.5400313714
 51
159.590028373
  0
ARC
  5
37F
100
AcDbEntity
  8
0
100
AcDbCircle
 62
7
  6
CONTINUOUS
 10
-58.1208603765
 20
-42.9492501466
 40
56.5708231126
100
AcDbArc
 50
143.9603974101
 51
159.8546541691
  0
ARC
  5
380
100
AcDbEntity
  8
0
100
AcDbCircle
 62
7
  6
CONTINUOUS
 10
-57.7862535272
 20
-42.9117757733
 40
56.2969882589
100
AcDbArc
 50
137.1536746059
 51
142.3976788868
  0
ARC
  5
381
100
AcDbEntity
  8
0
100
AcDbCircle
 62
7
  6
CONTINUOUS
 10
-48.5483489048
 20
-48.3119822435
 40
55.4265602742
100
AcDbArc
 50
141.1869857101
 51
142.6985685501
  0
ARC
  5
382
100
AcDbEntity
  8
0
100
AcDbCircle
 62
7
  6
CONTINUOUS
 10
-52.1031781292
 20
-47.4128851049
 40
53.9477563068
100
AcDbArc
 50
165.8724532709
 51
166.4456257796
  0
ARC
  5
383
100
AcDbEntity
  8
0
100
AcDbCircle
 62
7
  6
CONTINUOUS
 10
-42.5913454318
 20
-29.7304675448
 40
51.7334561428
100
AcDbArc
 50
159.618661919
 51
161.7992728584
  0
ARC
  5
384
100
AcDbEntity
  8
0
100
AcDbCircle
 62
7
  6
CONTINUOUS
 10
-37.4963536325
 20
-17.103535614
 40
0.771189138
100
AcDbArc
 50
48.6992701571
 51
51.2253081276
  0
ARC
  5
385
100
AcDbEntity
  8
0
100
AcDbCircle
 62
7
  6
CONTINUOUS
 10
-37.2649767991
 20
-16.9306287998
 40
0.4785155891
100
AcDbArc
 50
3.0436715168
 51
8.9095788782
  0
ARC
  5
386
100
AcDbEntity
  8
0
100
AcDbCircle
 62
7
  6
CONTINUOUS
 10
-58.4307067891
 20
-16.0472712717
 40
24.219127021
100
AcDbArc
 50
70.4735831479
 51
72.7884749625
  0
ARC
  5
387
100
AcDbEntity
  8
0
100
AcDbCircle
 62
7
  6
CONTINUOUS
 10
-58.3072922643
 20
-15.7119935075
 40
23.8618820547
100
AcDbArc
 50
60.161343378
 51
70.4837950216
  0
ARC
  5
388
100
AcDbEntity
  8
0
100
AcDbCircle
 62
7
  6
CONTINUOUS
 10
-51.6288866079
 20
6.0387685844
 40
1.094820112
100
AcDbArc
 50
114.2001532937
 51
118.6325993006
  0
ARC
  5
389
100
AcDbEntity
  8
0
100
AcDbCircle
 62
7
  6
CONTINUOUS
 10
-51.6484939309
 20
6.0738100088
 40
1.0546683105
100
AcDbArc
 50
118.6098907406
 51
126.1421052411
  0
ARC
  5
38A
100
AcDbEntity
  8
0
100
AcDbCircle
 62
7
  6
CONTINUOUS
 10
244.2140885328
 20
715.991581633
 40
812.1870430657
100
AcDbArc
 50
240.9269286647
 51
241.5226494514
  0
ARC
  5
38B
100
AcDbEntity
  8
0
100
AcDbCircle
 62
7
  6
CONTINUOUS
 10
167.3919902649
 20
578.2717528499
 40
654.4901015779
100
AcDbArc
 50
240.1750003963
 51
240.9462849422
  0
SPLINE
  5
38C
100
AcDbEntity
  8
0
100
AcDbSpline
 62
7
  6
CONTINUOUS
 70
0
 71
3
 72
31
 73
27
 74
0
 42
0.0000001
 43
0.0000001
 44
0.0000000001
 40
0.0
 40
0.0
 40
0.0
 40
0.0
 40
0.0622272882
 40
0.0934343187
 40
0.124684387
 40
0.1873087751
 40
0.2501581892
 40
0.281668567
 40
0.3132081877
 40
0.3447638564
 40
0.3763208583
 40
0.4393458962
 40
0.5022148626
 40
0.5335882415
 40
0.564905022
 40
0.6273347912
 40
0.6895855999
 40
0.7206810908
 40
0.7517541465
 40
0.7828083082
 40
0.813850561
 40
0.8448873809
 40
0.8759197554
 40
0.9379335107
 40
0.9689663747
 40
1.0
 40
1.0
 40
1.0
 40
1.0
 10
-42.0647673342
 20
-46.0146545893
 30
0.0
 10
-41.9251104511
 20
-45.9769789156
 30
0.0
 10
-41.7193676388
 20
-45.9040878614
 30
0.0
 10
-41.4583957949
 20
-45.7776001958
 30
0.0
 10
-41.2064810697
 20
-45.6319399219
 30
0.0
 10
-40.9113987225
 20
-45.4161071748
 30
0.0
 10
-40.648609557
 20
-45.161184082
 30
0.0
 10
-40.4600673272
 20
-44.9371147455
 30
0.0
 10
-40.3299867236
 20
-44.7595870147
 30
0.0
 10
-40.2119512596
 20
-44.5737072929
 30
0.0
 10
-40.0714796584
 20
-44.316128884
 30
0.0
 10
-39.9286695208
 20
-43.9778807028
 30
0.0
 10
-39.8326860366
 20
-43.6238843895
 30
0.0
 10
-39.7857463581
 20
-43.3356044589
 30
0.0
 10
-39.7591667907
 20
-43.0457690567
 30
0.0
 10
-39.764630456
 20
-42.6818542226
 30
0.0
 10
-39.8234941488
 20
-42.3230823748
 30
0.0
 10
-39.9026146268
 20
-42.0446454482
 30
0.0
 10
-39.9779384832
 20
-41.841213935
 30
0.0
 10
-40.0689349941
 20
-41.6444343223
 30
0.0
 10
-40.1753068805
 20
-41.4556130412
 30
0.0
 10
-40.2965799572
 20
-41.2760319365
 30
0.0
 10
-40.4770334169
 20
-41.0507104059
 30
0.0
 10
-40.6849247761
 20
-40.848493608
 30
0.0
 10
-40.9152880127
 20
-40.6745357824
 30
0.0
 10
-41.0374762654
 20
-40.5974193979
 30
0.0
 10
-41.1000314377
 20
-40.5614909329
 30
0.0
  0
SPLINE
  5
38D
100
AcDbEntity
  8
0
100
AcDbSpline
 62
7
  6
CONTINUOUS
 70
0
 71
3
 72
14
 73
10
 74
0
 42
0.0000001
 43
0.0000001
 44
0.0000000001
 40
0.0
 40
0.0
 40
0.0
 40
0.0
 40
0.1249583536
 40
0.2499151198
 40
0.3748848424
 40
0.4998694052
 40
0.6248972121
 40
0.7499761038
 40
1.0
 40
1.0
 40
1.0
 40
1.0
 10
-44.0883210203
 20
-45.7643400133
 30
0.0
 10
-44.0127901692
 20
-45.807721039
 30
0.0
 10
-43.8572479075
 20
-45.886942762
 30
0.0
 10
-43.6132056201
 20
-45.9815371427
 30
0.0
 10
-43.3608926786
 20
-46.0512866526
 30
0.0
 10
-43.1028482561
 20
-46.0954935529
 30
0.0
 10
-42.8415985946
 20
-46.1140656088
 30
0.0
 10
-42.4927200911
 20
-46.1048506859
 30
0.0
 10
-42.2330313928
 20
-46.0600477101
 30
0.0
 10
-42.0647673342
 20
-46.0146545893
 30
0.0
  0
SPLINE
  5
38E
100
AcDbEntity
  8
0
100
AcDbSpline
 62
7
  6
CONTINUOUS
 70
0
 71
3
 72
33
 73
29
 74
0
 42
0.0000001
 43
0.0000001
 44
0.0000000001
 40
0.0
 40
0.0
 40
0.0
 40
0.0
 40
0.029774937
 40
0.058830743
 40
0.0871867302
 40
0.1149140695
 40
0.1421634109
 40
0.1691114025
 40
0.195949662
 40
0.2228662606
 40
0.2500422611
 40
0.2776503107
 40
0.3058350641
 40
0.3347135994
 40
0.3643718001
 40
0.3948524552
 40
0.4582408352
 40
0.5246971283
 40
0.5589104225
 40
0.5936139678
 40
0.66393347
 40
0.7346039224
 40
0.7697372813
 40
0.8045295399
 40
0.8725355193
 40
0.9056132781
 40
0.9379515726
 40
1.0
 40
1.0
 40
1.0
 40
1.0
 10
-41.4455958307
 20
-44.7123868147
 30
0.0
 10
-41.4713177796
 20
-44.7193259053
 30
0.0
 10
-41.5228822646
 20
-44.7304614372
 30
0.0
 10
-41.6006077938
 20
-44.7386994923
 30
0.0
 10
-41.6769598197
 20
-44.7381468811
 30
0.0
 10
-41.7511033651
 20
-44.7286591093
 30
0.0
 10
-41.8222967103
 20
-44.7104088678
 30
0.0
 10
-41.8898649059
 20
-44.6835540905
 30
0.0
 10
-41.953121978
 20
-44.6483102212
 30
0.0
 10
-42.0114827796
 20
-44.6051054457
 30
0.0
 10
-42.0643475847
 20
-44.5543295709
 30
0.0
 10
-42.1111540683
 20
-44.4964677713
 30
0.0
 10
-42.1515292299
 20
-44.4321575221
 30
0.0
 10
-42.185053259
 20
-44.3619976627
 30
0.0
 10
-42.2113981072
 20
-44.2866702854
 30
0.0
 10
-42.2370612059
 20
-44.1789930182
 30
0.0
 10
-42.2493968659
 20
-44.0351683382
 30
0.0
 10
-42.2362326854
 20
-43.8882557549
 30
0.0
 10
-42.2110216917
 20
-43.7696742402
 30
0.0
 10
-42.1756786043
 20
-43.6500914348
 30
0.0
 10
-42.1138391631
 20
-43.5048743398
 30
0.0
 10
-42.0310791248
 20
-43.3700458362
 30
0.0
 10
-41.9535748147
 20
-43.2708166158
 30
0.0
 10
-41.8704183305
 20
-43.1795023719
 30
0.0
 10
-41.77823067
 20
-43.0992913137
 30
0.0
 10
-41.678945303
 20
-43.0327567356
 30
0.0
 10
-41.5789219111
 20
-42.9777755053
 30
0.0
 10
-41.4994996762
 20
-42.9471099938
 30
0.0
 10
-41.4458973302
 20
-42.9326495215
 30
0.0
  0
SPLINE
  5
38F
100
AcDbEntity
  8
0
100
AcDbSpline
 62
7
  6
CONTINUOUS
 70
0
 71
3
 72
27
 73
23
 74
0
 42
0.0000001
 43
0.0000001
 44
0.0000000001
 40
0.0
 40
0.0
 40
0.0
 40
0.0
 40
0.0261688964
 40
0.0524528641
 40
0.0789649223
 40
0.1058097186
 40
0.1330768851
 40
0.1608441377
 40
0.2180626445
 40
0.2476442325
 40
0.2778735514
 40
0.340192583
 40
0.4048673584
 40
0.4714998754
 40
0.5395243171
 40
0.6083077849
 40
0.7451120123
 40
0.7787835617
 40
0.8120536622
 40
0.8770808873
 40
0.9398316953
 40
1.0
 40
1.0
 40
1.0
 40
1.0
 10
-44.0883320347
 20
-45.7643576903
 30
0.0
 10
-44.1395928267
 20
-45.7349148788
 30
0.0
 10
-44.2393674964
 20
-45.6705471097
 30
0.0
 10
-44.3788345174
 20
-45.5588664714
 30
0.0
 10
-44.5074070371
 20
-45.4325896337
 30
0.0
 10
-44.6242653299
 20
-45.2925251763
 30
0.0
 10
-44.7287823537
 20
-45.1395750908
 30
0.0
 10
-44.8519146644
 20
-44.9175694846
 30
0.0
 10
-44.9463326588
 20
-44.6749720168
 30
0.0
 10
-45.011546753
 20
-44.4185752912
 30
0.0
 10
-45.0585121773
 20
-44.1464500209
 30
0.0
 10
-45.0788025693
 20
-43.7905072922
 30
0.0
 10
-45.0430355744
 20
-43.3533084462
 30
0.0
 10
-44.9485394822
 20
-42.9118457903
 30
0.0
 10
-44.7974953967
 20
-42.4765336419
 30
0.0
 10
-44.5265835015
 20
-41.9199037584
 30
0.0
 10
-44.2052138957
 20
-41.4773184906
 30
0.0
 10
-43.8808763668
 20
-41.1505726042
 30
0.0
 10
-43.6579451368
 20
-40.9523810665
 30
0.0
 10
-43.3632720113
 20
-40.7370570223
 30
0.0
 10
-42.988324839
 20
-40.5350939652
 30
0.0
 10
-42.7258703812
 20
-40.4404391266
 30
0.0
 10
-42.594643432
 20
-40.4050376225
 30
0.0
  0
SPLINE
  5
390
100
AcDbEntity
  8
0
100
AcDbSpline
 62
7
  6
CONTINUOUS
 70
0
 71
3
 72
14
 73
10
 74
0
 42
0.0000001
 43
0.0000001
 44
0.0000000001
 40
0.0
 40
0.0
 40
0.0
 40
0.0
 40
0.263126023
 40
0.3906954238
 40
0.5157651975
 40
0.6387413558
 40
0.7600954942
 40
0.8803374465
 40
1.0
 40
1.0
 40
1.0
 40
1.0
 10
-42.594643432
 20
-40.4050376225
 30
0.0
 10
-42.4640953874
 20
-40.3698192686
 30
0.0
 10
-42.2652478414
 20
-40.3334065072
 30
0.0
 10
-42.0001456965
 20
-40.3222797297
 30
0.0
 10
-41.8070820035
 20
-40.3327477572
 30
0.0
 10
-41.619172394
 20
-40.3618202467
 30
0.0
 10
-41.437618958
 20
-40.4094228713
 30
0.0
 10
-41.2636495809
 20
-40.4751480622
 30
0.0
 10
-41.1533525065
 20
-40.5308412031
 30
0.0
 10
-41.1000299366
 20
-40.5614677919
 30
0.0
  0
SPLINE
  5
391
100
AcDbEntity
  8
0
100
AcDbSpline
 62
7
  6
CONTINUOUS
 70
0
 71
3
 72
33
 73
29
 74
0
 42
0.0000001
 43
0.0000001
 44
0.0000000001
 40
0.0
 40
0.0
 40
0.0
 40
0.0
 40
0.029774937
 40
0.058830743
 40
0.0871867302
 40
0.1149140695
 40
0.1421634109
 40
0.1691114025
 40
0.195949662
 40
0.2228662606
 40
0.2500422611
 40
0.2776503107
 40
0.3058350641
 40
0.3347135994
 40
0.3643718001
 40
0.3948524552
 40
0.4582408352
 40
0.5246971283
 40
0.5589104225
 40
0.5936139678
 40
0.66393347
 40
0.7346039224
 40
0.7697372813
 40
0.8045295399
 40
0.8725355193
 40
0.9056132781
 40
0.9379515726
 40
1.0
 40
1.0
 40
1.0
 40
1.0
 10
-41.4458973302
 20
-42.9326495215
 30
0.0
 10
-41.4201753813
 20
-42.925710431
 30
0.0
 10
-41.3686108963
 20
-42.914574899
 30
0.0
 10
-41.2908853671
 20
-42.9063368439
 30
0.0
 10
-41.2145333412
 20
-42.9068894551
 30
0.0
 10
-41.1403897959
 20
-42.916377227
 30
0.0
 10
-41.0691964507
 20
-42.9346274684
 30
0.0
 10
-41.001628255
 20
-42.9614822457
 30
0.0
 10
-40.9383711829
 20
-42.996726115
 30
0.0
 10
-40.8800103813
 20
-43.0399308905
 30
0.0
 10
-40.8271455762
 20
-43.0907067653
 30
0.0
 10
-40.7803390926
 20
-43.1485685649
 30
0.0
 10
-40.739963931
 20
-43.2128788141
 30
0.0
 10
-40.7064399019
 20
-43.2830386735
 30
0.0
 10
-40.6800950537
 20
-43.3583660508
 30
0.0
 10
-40.654431955
 20
-43.466043318
 30
0.0
 10
-40.642096295
 20
-43.609867998
 30
0.0
 10
-40.6552604755
 20
-43.7567805813
 30
0.0
 10
-40.6804714692
 20
-43.875362096
 30
0.0
 10
-40.7158145567
 20
-43.9949449014
 30
0.0
 10
-40.7776539978
 20
-44.1401619964
 30
0.0
 10
-40.8604140361
 20
-44.2749905
 30
0.0
 10
-40.9379183462
 20
-44.3742197204
 30
0.0
 10
-41.0210748304
 20
-44.4655339643
 30
0.0
 10
-41.1132624909
 20
-44.5457450225
 30
0.0
 10
-41.2125478579
 20
-44.6122796007
 30
0.0
 10
-41.3125712498
 20
-44.6672608309
 30
0.0
 10
-41.3919934847
 20
-44.6979263424
 30
0.0
 10
-41.4455958307
 20
-44.7123868147
 30
0.0
  0
SPLINE
  5
392
100
AcDbEntity
  8
0
100
AcDbSpline
 62
7
  6
CONTINUOUS
 70
0
 71
3
 72
31
 73
27
 74
0
 42
0.0000001
 43
0.0000001
 44
0.0000000001
 40
0.0
 40
0.0
 40
0.0
 40
0.0
 40
0.0622272882
 40
0.0934343187
 40
0.124684387
 40
0.1873087751
 40
0.2501581892
 40
0.281668567
 40
0.3132081877
 40
0.3447638564
 40
0.3763208583
 40
0.4393458962
 40
0.5022148626
 40
0.5335882415
 40
0.564905022
 40
0.6273347912
 40
0.6895855999
 40
0.7206810908
 40
0.7517541465
 40
0.7828083082
 40
0.813850561
 40
0.8448873809
 40
0.8759197554
 40
0.9379335107
 40
0.9689663747
 40
1.0
 40
1.0
 40
1.0
 40
1.0
 10
-52.3788769306
 20
-37.3054412876
 30
0.0
 10
-52.2392200475
 20
-37.2677656139
 30
0.0
 10
-52.0334772353
 20
-37.1948745597
 30
0.0
 10
-51.7725053914
 20
-37.0683868941
 30
0.0
 10
-51.5205906662
 20
-36.9227266202
 30
0.0
 10
-51.225508319
 20
-36.7068938732
 30
0.0
 10
-50.9627191534
 20
-36.4519707803
 30
0.0
 10
-50.7741769237
 20
-36.2279014438
 30
0.0
 10
-50.64409632
 20
-36.050373713
 30
0.0
 10
-50.526060856
 20
-35.8644939912
 30
0.0
 10
-50.3855892549
 20
-35.6069155823
 30
0.0
 10
-50.2427791172
 20
-35.2686674011
 30
0.0
 10
-50.1467956331
 20
-34.9146710878
 30
0.0
 10
-50.0998559545
 20
-34.6263911572
 30
0.0
 10
-50.0732763872
 20
-34.336555755
 30
0.0
 10
-50.0787400524
 20
-33.9726409209
 30
0.0
 10
-50.1376037453
 20
-33.6138690731
 30
0.0
 10
-50.2167242233
 20
-33.3354321465
 30
0.0
 10
-50.2920480796
 20
-33.1320006333
 30
0.0
 10
-50.3830445905
 20
-32.9352210206
 30
0.0
 10
-50.489416477
 20
-32.7463997395
 30
0.0
 10
-50.6106895536
 20
-32.5668186348
 30
0.0
 10
-50.7911430133
 20
-32.3414971042
 30
0.0
 10
-50.9990343725
 20
-32.1392803063
 30
0.0
 10
-51.2293976092
 20
-31.9653224807
 30
0.0
 10
-51.3515858618
 20
-31.8882060962
 30
0.0
 10
-51.4141410341
 20
-31.8522776312
 30
0.0
  0
SPLINE
  5
393
100
AcDbEntity
  8
0
100
AcDbSpline
 62
7
  6
CONTINUOUS
 70
0
 71
3
 72
14
 73
10
 74
0
 42
0.0000001
 43
0.0000001
 44
0.0000000001
 40
0.0
 40
0.0
 40
0.0
 40
0.0
 40
0.1249583536
 40
0.2499151198
 40
0.3748848424
 40
0.4998694052
 40
0.6248972121
 40
0.7499761038
 40
1.0
 40
1.0
 40
1.0
 40
1.0
 10
-54.4024306167
 20
-37.0551267116
 30
0.0
 10
-54.3268997657
 20
-37.0985077373
 30
0.0
 10
-54.171357504
 20
-37.1777294603
 30
0.0
 10
-53.9273152165
 20
-37.272323841
 30
0.0
 10
-53.675002275
 20
-37.3420733509
 30
0.0
 10
-53.4169578526
 20
-37.3862802512
 30
0.0
 10
-53.155708191
 20
-37.4048523071
 30
0.0
 10
-52.8068296876
 20
-37.3956373842
 30
0.0
 10
-52.5471409892
 20
-37.3508344084
 30
0.0
 10
-52.3788769306
 20
-37.3054412876
 30
0.0
  0
SPLINE
  5
394
100
AcDbEntity
  8
0
100
AcDbSpline
 62
7
  6
CONTINUOUS
 70
0
 71
3
 72
33
 73
29
 74
0
 42
0.0000001
 43
0.0000001
 44
0.0000000001
 40
0.0
 40
0.0
 40
0.0
 40
0.0
 40
0.029774937
 40
0.058830743
 40
0.0871867302
 40
0.1149140695
 40
0.1421634109
 40
0.1691114025
 40
0.195949662
 40
0.2228662606
 40
0.2500422611
 40
0.2776503107
 40
0.3058350641
 40
0.3347135994
 40
0.3643718001
 40
0.3948524552
 40
0.4582408352
 40
0.5246971283
 40
0.5589104225
 40
0.5936139678
 40
0.66393347
 40
0.7346039224
 40
0.7697372813
 40
0.8045295399
 40
0.8725355193
 40
0.9056132781
 40
0.9379515726
 40
1.0
 40
1.0
 40
1.0
 40
1.0
 10
-51.7597054272
 20
-36.003173513
 30
0.0
 10
-51.785427376
 20
-36.0101126036
 30
0.0
 10
-51.8369918611
 20
-36.0212481355
 30
0.0
 10
-51.9147173903
 20
-36.0294861906
 30
0.0
 10
-51.9910694162
 20
-36.0289335794
 30
0.0
 10
-52.0652129615
 20
-36.0194458076
 30
0.0
 10
-52.1364063067
 20
-36.0011955661
 30
0.0
 10
-52.2039745023
 20
-35.9743407888
 30
0.0
 10
-52.2672315745
 20
-35.9390969195
 30
0.0
 10
-52.325592376
 20
-35.895892144
 30
0.0
 10
-52.3784571811
 20
-35.8451162692
 30
0.0
 10
-52.4252636648
 20
-35.7872544696
 30
0.0
 10
-52.4656388264
 20
-35.7229442204
 30
0.0
 10
-52.4991628554
 20
-35.652784361
 30
0.0
 10
-52.5255077036
 20
-35.5774569837
 30
0.0
 10
-52.5511708024
 20
-35.4697797165
 30
0.0
 10
-52.5635064624
 20
-35.3259550365
 30
0.0
 10
-52.5503422819
 20
-35.1790424532
 30
0.0
 10
-52.5251312881
 20
-35.0604609385
 30
0.0
 10
-52.4897882007
 20
-34.9408781331
 30
0.0
 10
-52.4279487595
 20
-34.7956610381
 30
0.0
 10
-52.3451887212
 20
-34.6608325345
 30
0.0
 10
-52.2676844111
 20
-34.5616033141
 30
0.0
 10
-52.184527927
 20
-34.4702890702
 30
0.0
 10
-52.0923402664
 20
-34.390078012
 30
0.0
 10
-51.9930548994
 20
-34.3235434339
 30
0.0
 10
-51.8930315076
 20
-34.2685622036
 30
0.0
 10
-51.8136092727
 20
-34.2378966921
 30
0.0
 10
-51.7600069266
 20
-34.2234362198
 30
0.0
  0
SPLINE
  5
395
100
AcDbEntity
  8
0
100
AcDbSpline
 62
7
  6
CONTINUOUS
 70
0
 71
3
 72
27
 73
23
 74
0
 42
0.0000001
 43
0.0000001
 44
0.0000000001
 40
0.0
 40
0.0
 40
0.0
 40
0.0
 40
0.0261688964
 40
0.0524528641
 40
0.0789649223
 40
0.1058097186
 40
0.1330768851
 40
0.1608441377
 40
0.2180626445
 40
0.2476442325
 40
0.2778735514
 40
0.340192583
 40
0.4048673584
 40
0.4714998754
 40
0.5395243171
 40
0.6083077849
 40
0.7451120123
 40
0.7787835617
 40
0.8120536622
 40
0.8770808873
 40
0.9398316953
 40
1.0
 40
1.0
 40
1.0
 40
1.0
 10
-54.4024416311
 20
-37.0551443886
 30
0.0
 10
-54.4537024231
 20
-37.0257015771
 30
0.0
 10
-54.5534770929
 20
-36.961333808
 30
0.0
 10
-54.6929441139
 20
-36.8496531697
 30
0.0
 10
-54.8215166336
 20
-36.723376332
 30
0.0
 10
-54.9383749264
 20
-36.5833118746
 30
0.0
 10
-55.0428919502
 20
-36.4303617891
 30
0.0
 10
-55.1660242609
 20
-36.2083561829
 30
0.0
 10
-55.2604422552
 20
-35.9657587151
 30
0.0
 10
-55.3256563494
 20
-35.7093619895
 30
0.0
 10
-55.3726217738
 20
-35.4372367192
 30
0.0
 10
-55.3929121657
 20
-35.0812939905
 30
0.0
 10
-55.3571451709
 20
-34.6440951445
 30
0.0
 10
-55.2626490787
 20
-34.2026324886
 30
0.0
 10
-55.1116049931
 20
-33.7673203402
 30
0.0
 10
-54.8406930979
 20
-33.2106904567
 30
0.0
 10
-54.5193234921
 20
-32.7681051889
 30
0.0
 10
-54.1949859632
 20
-32.4413593025
 30
0.0
 10
-53.9720547332
 20
-32.2431677648
 30
0.0
 10
-53.6773816077
 20
-32.0278437206
 30
0.0
 10
-53.3024344355
 20
-31.8258806635
 30
0.0
 10
-53.0399799777
 20
-31.7312258249
 30
0.0
 10
-52.9087530285
 20
-31.6958243208
 30
0.0
  0
SPLINE
  5
396
100
AcDbEntity
  8
0
100
AcDbSpline
 62
7
  6
CONTINUOUS
 70
0
 71
3
 72
14
 73
10
 74
0
 42
0.0000001
 43
0.0000001
 44
0.0000000001
 40
0.0
 40
0.0
 40
0.0
 40
0.0
 40
0.263126023
 40
0.3906954238
 40
0.5157651975
 40
0.6387413558
 40
0.7600954942
 40
0.8803374465
 40
1.0
 40
1.0
 40
1.0
 40
1.0
 10
-52.9087530285
 20
-31.6958243208
 30
0.0
 10
-52.7782049838
 20
-31.6606059669
 30
0.0
 10
-52.5793574379
 20
-31.6241932055
 30
0.0
 10
-52.314255293
 20
-31.613066428
 30
0.0
 10
-52.1211916
 20
-31.6235344555
 30
0.0
 10
-51.9332819905
 20
-31.652606945
 30
0.0
 10
-51.7517285544
 20
-31.7002095696
 30
0.0
 10
-51.5777591774
 20
-31.7659347605
 30
0.0
 10
-51.467462103
 20
-31.8216279014
 30
0.0
 10
-51.414139533
 20
-31.8522544902
 30
0.0
  0
SPLINE
  5
397
100
AcDbEntity
  8
0
100
AcDbSpline
 62
7
  6
CONTINUOUS
 70
0
 71
3
 72
33
 73
29
 74
0
 42
0.0000001
 43
0.0000001
 44
0.0000000001
 40
0.0
 40
0.0
 40
0.0
 40
0.0
 40
0.029774937
 40
0.0588307431
 40
0.0871867302
 40
0.1149140695
 40
0.1421634109
 40
0.1691114025
 40
0.195949662
 40
0.2228662606
 40
0.2500422611
 40
0.2776503107
 40
0.3058350641
 40
0.3347135994
 40
0.3643718001
 40
0.3948524552
 40
0.4582408352
 40
0.5246971283
 40
0.5589104225
 40
0.5936139678
 40
0.66393347
 40
0.7346039224
 40
0.7697372813
 40
0.8045295399
 40
0.8725355193
 40
0.9056132781
 40
0.9379515726
 40
1.0
 40
1.0
 40
1.0
 40
1.0
 10
-51.7600069266
 20
-34.2234362198
 30
0.0
 10
-51.7342849778
 20
-34.2164971293
 30
0.0
 10
-51.6827204927
 20
-34.2053615973
 30
0.0
 10
-51.6049949635
 20
-34.1971235422
 30
0.0
 10
-51.5286429376
 20
-34.1976761534
 30
0.0
 10
-51.4544993923
 20
-34.2071639253
 30
0.0
 10
-51.3833060471
 20
-34.2254141667
 30
0.0
 10
-51.3157378515
 20
-34.252268944
 30
0.0
 10
-51.2524807793
 20
-34.2875128133
 30
0.0
 10
-51.1941199778
 20
-34.3307175888
 30
0.0
 10
-51.1412551727
 20
-34.3814934636
 30
0.0
 10
-51.094448689
 20
-34.4393552632
 30
0.0
 10
-51.0540735274
 20
-34.5036655124
 30
0.0
 10
-51.0205494984
 20
-34.5738253718
 30
0.0
 10
-50.9942046502
 20
-34.6491527491
 30
0.0
 10
-50.9685415515
 20
-34.7568300163
 30
0.0
 10
-50.9562058914
 20
-34.9006546963
 30
0.0
 10
-50.9693700719
 20
-35.0475672796
 30
0.0
 10
-50.9945810657
 20
-35.1661487943
 30
0.0
 10
-51.0299241531
 20
-35.2857315997
 30
0.0
 10
-51.0917635943
 20
-35.4309486947
 30
0.0
 10
-51.1745236326
 20
-35.5657771983
 30
0.0
 10
-51.2520279427
 20
-35.6650064187
 30
0.0
 10
-51.3351844268
 20
-35.7563206626
 30
0.0
 10
-51.4273720874
 20
-35.8365317208
 30
0.0
 10
-51.5266574544
 20
-35.903066299
 30
0.0
 10
-51.6266808462
 20
-35.9580475292
 30
0.0
 10
-51.7061030812
 20
-35.9887130407
 30
0.0
 10
-51.7597054272
 20
-36.003173513
 30
0.0
  0
SPLINE
  5
398
100
AcDbEntity
  8
0
100
AcDbSpline
 62
7
  6
CONTINUOUS
 70
0
 71
3
 72
31
 73
27
 74
0
 42
0.0000001
 43
0.0000001
 44
0.0000000001
 40
0.0
 40
0.0
 40
0.0
 40
0.0
 40
0.0622272882
 40
0.0934343187
 40
0.124684387
 40
0.1873087751
 40
0.2501581892
 40
0.281668567
 40
0.3132081877
 40
0.3447638564
 40
0.3763208583
 40
0.4393458962
 40
0.5022148626
 40
0.5335882415
 40
0.564905022
 40
0.6273347912
 40
0.6895855999
 40
0.7206810908
 40
0.7517541465
 40
0.7828083082
 40
0.813850561
 40
0.8448873809
 40
0.8759197554
 40
0.9379335107
 40
0.9689663747
 40
1.0
 40
1.0
 40
1.0
 40
1.0
 10
-62.6890931683
 20
-51.5785434076
 30
0.0
 10
-62.5494362852
 20
-51.5408677339
 30
0.0
 10
-62.3436934729
 20
-51.4679766797
 30
0.0
 10
-62.082721629
 20
-51.3414890142
 30
0.0
 10
-61.8308069038
 20
-51.1958287403
 30
0.0
 10
-61.5357245566
 20
-50.9799959932
 30
0.0
 10
-61.2729353911
 20
-50.7250729004
 30
0.0
 10
-61.0843931613
 20
-50.5010035638
 30
0.0
 10
-60.9543125577
 20
-50.3234758331
 30
0.0
 10
-60.8362770937
 20
-50.1375961113
 30
0.0
 10
-60.6958054925
 20
-49.8800177024
 30
0.0
 10
-60.5529953549
 20
-49.5417695211
 30
0.0
 10
-60.4570118707
 20
-49.1877732078
 30
0.0
 10
-60.4100721922
 20
-48.8994932773
 30
0.0
 10
-60.3834926248
 20
-48.609657875
 30
0.0
 10
-60.3889562901
 20
-48.2457430409
 30
0.0
 10
-60.4478199829
 20
-47.8869711932
 30
0.0
 10
-60.5269404609
 20
-47.6085342666
 30
0.0
 10
-60.6022643173
 20
-47.4051027533
 30
0.0
 10
-60.6932608282
 20
-47.2083231406
 30
0.0
 10
-60.7996327146
 20
-47.0195018595
 30
0.0
 10
-60.9209057913
 20
-46.8399207548
 30
0.0
 10
-61.101359251
 20
-46.6145992242
 30
0.0
 10
-61.3092506102
 20
-46.4123824263
 30
0.0
 10
-61.5396138468
 20
-46.2384246008
 30
0.0
 10
-61.6618020995
 20
-46.1613082162
 30
0.0
 10
-61.7243572718
 20
-46.1253797513
 30
0.0
  0
SPLINE
  5
399
100
AcDbEntity
  8
0
100
AcDbSpline
 62
7
  6
CONTINUOUS
 70
0
 71
3
 72
14
 73
10
 74
0
 42
0.0000001
 43
0.0000001
 44
0.0000000001
 40
0.0
 40
0.0
 40
0.0
 40
0.0
 40
0.1249583536
 40
0.2499151198
 40
0.3748848424
 40
0.4998694052
 40
0.6248972121
 40
0.7499761038
 40
1.0
 40
1.0
 40
1.0
 40
1.0
 10
-64.7126468544
 20
-51.3282288317
 30
0.0
 10
-64.6371160033
 20
-51.3716098573
 30
0.0
 10
-64.4815737416
 20
-51.4508315804
 30
0.0
 10
-64.2375314541
 20
-51.545425961
 30
0.0
 10
-63.9852185127
 20
-51.615175471
 30
0.0
 10
-63.7271740902
 20
-51.6593823713
 30
0.0
 10
-63.4659244287
 20
-51.6779544272
 30
0.0
 10
-63.1170459252
 20
-51.6687395043
 30
0.0
 10
-62.8573572269
 20
-51.6239365284
 30
0.0
 10
-62.6890931683
 20
-51.5785434076
 30
0.0
  0
SPLINE
  5
39A
100
AcDbEntity
  8
0
100
AcDbSpline
 62
7
  6
CONTINUOUS
 70
0
 71
3
 72
33
 73
29
 74
0
 42
0.0000001
 43
0.0000001
 44
0.0000000001
 40
0.0
 40
0.0
 40
0.0
 40
0.0
 40
0.029774937
 40
0.058830743
 40
0.0871867302
 40
0.1149140695
 40
0.1421634109
 40
0.1691114025
 40
0.195949662
 40
0.2228662606
 40
0.2500422611
 40
0.2776503107
 40
0.3058350641
 40
0.3347135994
 40
0.3643718001
 40
0.3948524552
 40
0.4582408352
 40
0.5246971283
 40
0.5589104225
 40
0.5936139678
 40
0.66393347
 40
0.7346039224
 40
0.7697372813
 40
0.8045295399
 40
0.8725355193
 40
0.9056132781
 40
0.9379515726
 40
1.0
 40
1.0
 40
1.0
 40
1.0
 10
-62.0699216648
 20
-50.2762756331
 30
0.0
 10
-62.0956436137
 20
-50.2832147236
 30
0.0
 10
-62.1472080987
 20
-50.2943502556
 30
0.0
 10
-62.2249336279
 20
-50.3025883106
 30
0.0
 10
-62.3012856538
 20
-50.3020356995
 30
0.0
 10
-62.3754291992
 20
-50.2925479276
 30
0.0
 10
-62.4466225444
 20
-50.2742976861
 30
0.0
 10
-62.51419074
 20
-50.2474429088
 30
0.0
 10
-62.5774478121
 20
-50.2121990395
 30
0.0
 10
-62.6358086137
 20
-50.168994264
 30
0.0
 10
-62.6886734188
 20
-50.1182183892
 30
0.0
 10
-62.7354799024
 20
-50.0603565896
 30
0.0
 10
-62.775855064
 20
-49.9960463404
 30
0.0
 10
-62.8093790931
 20
-49.925886481
 30
0.0
 10
-62.8357239413
 20
-49.8505591038
 30
0.0
 10
-62.86138704
 20
-49.7428818365
 30
0.0
 10
-62.8737227
 20
-49.5990571565
 30
0.0
 10
-62.8605585195
 20
-49.4521445732
 30
0.0
 10
-62.8353475258
 20
-49.3335630585
 30
0.0
 10
-62.8000044383
 20
-49.2139802532
 30
0.0
 10
-62.7381649972
 20
-49.0687631581
 30
0.0
 10
-62.6554049589
 20
-48.9339346546
 30
0.0
 10
-62.5779006488
 20
-48.8347054341
 30
0.0
 10
-62.4947441646
 20
-48.7433911902
 30
0.0
 10
-62.4025565041
 20
-48.663180132
 30
0.0
 10
-62.3032711371
 20
-48.5966455539
 30
0.0
 10
-62.2032477452
 20
-48.5416643237
 30
0.0
 10
-62.1238255103
 20
-48.5109988122
 30
0.0
 10
-62.0702231643
 20
-48.4965383398
 30
0.0
  0
SPLINE
  5
39B
100
AcDbEntity
  8
0
100
AcDbSpline
 62
7
  6
CONTINUOUS
 70
0
 71
3
 72
27
 73
23
 74
0
 42
0.0000001
 43
0.0000001
 44
0.0000000001
 40
0.0
 40
0.0
 40
0.0
 40
0.0
 40
0.0261688964
 40
0.0524528641
 40
0.0789649223
 40
0.1058097186
 40
0.1330768851
 40
0.1608441377
 40
0.2180626445
 40
0.2476442325
 40
0.2778735514
 40
0.340192583
 40
0.4048673584
 40
0.4714998754
 40
0.5395243171
 40
0.6083077849
 40
0.7451120123
 40
0.7787835617
 40
0.8120536622
 40
0.8770808873
 40
0.9398316953
 40
1.0
 40
1.0
 40
1.0
 40
1.0
 10
-64.7126578688
 20
-51.3282465086
 30
0.0
 10
-64.7639186608
 20
-51.2988036972
 30
0.0
 10
-64.8636933305
 20
-51.2344359281
 30
0.0
 10
-65.0031603515
 20
-51.1227552898
 30
0.0
 10
-65.1317328712
 20
-50.996478452
 30
0.0
 10
-65.248591164
 20
-50.8564139947
 30
0.0
 10
-65.3531081878
 20
-50.7034639092
 30
0.0
 10
-65.4762404985
 20
-50.481458303
 30
0.0
 10
-65.5706584929
 20
-50.2388608351
 30
0.0
 10
-65.6358725871
 20
-49.9824641096
 30
0.0
 10
-65.6828380114
 20
-49.7103388392
 30
0.0
 10
-65.7031284034
 20
-49.3543961105
 30
0.0
 10
-65.6673614085
 20
-48.9171972646
 30
0.0
 10
-65.5728653163
 20
-48.4757346086
 30
0.0
 10
-65.4218212308
 20
-48.0404224602
 30
0.0
 10
-65.1509093356
 20
-47.4837925768
 30
0.0
 10
-64.8295397298
 20
-47.041207309
 30
0.0
 10
-64.5052022009
 20
-46.7144614225
 30
0.0
 10
-64.2822709709
 20
-46.5162698849
 30
0.0
 10
-63.9875978454
 20
-46.3009458407
 30
0.0
 10
-63.6126506731
 20
-46.0989827835
 30
0.0
 10
-63.3501962153
 20
-46.0043279449
 30
0.0
 10
-63.2189692661
 20
-45.9689264408
 30
0.0
  0
SPLINE
  5
39C
100
AcDbEntity
  8
0
100
AcDbSpline
 62
7
  6
CONTINUOUS
 70
0
 71
3
 72
14
 73
10
 74
0
 42
0.0000001
 43
0.0000001
 44
0.0000000001
 40
0.0
 40
0.0
 40
0.0
 40
0.0
 40
0.263126023
 40
0.3906954238
 40
0.5157651975
 40
0.6387413558
 40
0.7600954942
 40
0.8803374465
 40
1.0
 40
1.0
 40
1.0
 40
1.0
 10
-63.2189692661
 20
-45.9689264408
 30
0.0
 10
-63.0884212215
 20
-45.933708087
 30
0.0
 10
-62.8895736755
 20
-45.8972953256
 30
0.0
 10
-62.6244715306
 20
-45.8861685481
 30
0.0
 10
-62.4314078376
 20
-45.8966365756
 30
0.0
 10
-62.2434982281
 20
-45.9257090651
 30
0.0
 10
-62.0619447921
 20
-45.9733116896
 30
0.0
 10
-61.887975415
 20
-46.0390368805
 30
0.0
 10
-61.7776783406
 20
-46.0947300215
 30
0.0
 10
-61.7243557707
 20
-46.1253566102
 30
0.0
  0
SPLINE
  5
39D
100
AcDbEntity
  8
0
100
AcDbSpline
 62
7
  6
CONTINUOUS
 70
0
 71
3
 72
33
 73
29
 74
0
 42
0.0000001
 43
0.0000001
 44
0.0000000001
 40
0.0
 40
0.0
 40
0.0
 40
0.0
 40
0.029774937
 40
0.0588307431
 40
0.0871867302
 40
0.1149140695
 40
0.1421634109
 40
0.1691114025
 40
0.195949662
 40
0.2228662606
 40
0.2500422611
 40
0.2776503107
 40
0.3058350641
 40
0.3347135994
 40
0.3643718001
 40
0.3948524552
 40
0.4582408352
 40
0.5246971283
 40
0.5589104225
 40
0.5936139678
 40
0.66393347
 40
0.7346039224
 40
0.7697372813
 40
0.8045295399
 40
0.8725355193
 40
0.9056132781
 40
0.9379515726
 40
1.0
 40
1.0
 40
1.0
 40
1.0
 10
-62.0702231643
 20
-48.4965383398
 30
0.0
 10
-62.0445012154
 20
-48.4895992493
 30
0.0
 10
-61.9929367304
 20
-48.4784637173
 30
0.0
 10
-61.9152112012
 20
-48.4702256622
 30
0.0
 10
-61.8388591753
 20
-48.4707782734
 30
0.0
 10
-61.7647156299
 20
-48.4802660453
 30
0.0
 10
-61.6935222848
 20
-48.4985162868
 30
0.0
 10
-61.6259540891
 20
-48.525371064
 30
0.0
 10
-61.562697017
 20
-48.5606149334
 30
0.0
 10
-61.5043362154
 20
-48.6038197089
 30
0.0
 10
-61.4514714103
 20
-48.6545955836
 30
0.0
 10
-61.4046649267
 20
-48.7124573832
 30
0.0
 10
-61.3642897651
 20
-48.7767676324
 30
0.0
 10
-61.330765736
 20
-48.8469274919
 30
0.0
 10
-61.3044208878
 20
-48.9222548691
 30
0.0
 10
-61.2787577891
 20
-49.0299321363
 30
0.0
 10
-61.2664221291
 20
-49.1737568164
 30
0.0
 10
-61.2795863096
 20
-49.3206693996
 30
0.0
 10
-61.3047973033
 20
-49.4392509144
 30
0.0
 10
-61.3401403908
 20
-49.5588337197
 30
0.0
 10
-61.4019798319
 20
-49.7040508148
 30
0.0
 10
-61.4847398702
 20
-49.8388793183
 30
0.0
 10
-61.5622441803
 20
-49.9381085388
 30
0.0
 10
-61.6454006645
 20
-50.0294227826
 30
0.0
 10
-61.737588325
 20
-50.1096338408
 30
0.0
 10
-61.836873692
 20
-50.176168419
 30
0.0
 10
-61.9368970839
 20
-50.2311496492
 30
0.0
 10
-62.0163193188
 20
-50.2618151607
 30
0.0
 10
-62.0699216648
 20
-50.2762756331
 30
0.0
  0
SPLINE
  5
39E
100
AcDbEntity
  8
0
100
AcDbSpline
 62
7
  6
CONTINUOUS
 70
0
 71
3
 72
15
 73
11
 74
0
 42
0.0000001
 43
0.0000001
 44
0.0000000001
 40
0.0
 40
0.0
 40
0.0
 40
0.0
 40
0.1246463529
 40
0.2493098603
 40
0.3740296436
 40
0.498831868
 40
0.6237732556
 40
0.7489124372
 40
0.8742989643
 40
1.0
 40
1.0
 40
1.0
 40
1.0
 10
-54.8962008936
 20
-60.9048130073
 30
0.0
 10
-54.8023221986
 20
-60.9587040054
 30
0.0
 10
-54.6088891664
 20
-61.0569626276
 30
0.0
 10
-54.3052291468
 20
-61.1737952278
 30
0.0
 10
-53.9911274425
 20
-61.2592435296
 30
0.0
 10
-53.6698127607
 20
-61.3127448715
 30
0.0
 10
-53.3444369376
 20
-61.3341877341
 30
0.0
 10
-53.0180181243
 20
-61.3240379112
 30
0.0
 10
-52.6934383707
 20
-61.2828240512
 30
0.0
 10
-52.4802230736
 20
-61.2354821284
 30
0.0
 10
-52.3748278375
 20
-61.2070493262
 30
0.0
  0
SPLINE
  5
39F
100
AcDbEntity
  8
0
100
AcDbSpline
 62
7
  6
CONTINUOUS
 70
0
 71
3
 72
28
 73
24
 74
0
 42
0.0000001
 43
0.0000001
 44
0.0000000001
 40
0.0
 40
0.0
 40
0.0
 40
0.0
 40
0.0618963216
 40
0.1242754653
 40
0.1871657192
 40
0.2505540633
 40
0.3143031277
 40
0.3782130621
 40
0.4420494395
 40
0.5055902991
 40
0.5686824551
 40
0.6000520037
 40
0.631289909
 40
0.6624017073
 40
0.6934017281
 40
0.755067519
 40
0.8164397057
 40
0.8470814361
 40
0.8776946285
 40
0.9082853908
 40
0.9388642917
 40
0.9694341267
 40
1.0
 40
1.0
 40
1.0
 40
1.0
 10
-52.3748278375
 20
-61.2070493262
 30
0.0
 10
-52.1909097737
 20
-61.1574331755
 30
0.0
 10
-51.8289162607
 20
-61.0286110046
 30
0.0
 10
-51.3190480725
 20
-60.7565322125
 30
0.0
 10
-50.8488334729
 20
-60.4127512684
 30
0.0
 10
-50.4261543383
 20
-60.0061034428
 30
0.0
 10
-50.0580414897
 20
-59.5455325731
 30
0.0
 10
-49.7509734884
 20
-59.040637099
 30
0.0
 10
-49.5107991814
 20
-58.5013730393
 30
0.0
 10
-49.3427844987
 20
-57.9380785594
 30
0.0
 10
-49.2665483945
 20
-57.4561641555
 30
0.0
 10
-49.2460496163
 20
-57.0695841557
 30
0.0
 10
-49.2512420428
 20
-56.7809451407
 30
0.0
 10
-49.277265232
 20
-56.4945594977
 30
0.0
 10
-49.3399829414
 20
-56.1185197773
 30
0.0
 10
-49.4714402833
 20
-55.6609077025
 30
0.0
 10
-49.674310446
 20
-55.2311021598
 30
0.0
 10
-49.877259645
 20
-54.9124590405
 30
0.0
 10
-50.049124581
 20
-54.6875875961
 30
0.0
 10
-50.2396730435
 20
-54.4785816542
 30
0.0
 10
-50.4478046844
 20
-54.2872525423
 30
0.0
 10
-50.6719088043
 20
-54.1150647672
 30
0.0
 10
-50.831000659
 20
-54.0140550606
 30
0.0
 10
-50.9125840396
 20
-53.967222179
 30
0.0
  0
SPLINE
  5
3A0
100
AcDbEntity
  8
0
100
AcDbSpline
 62
7
  6
CONTINUOUS
 70
0
 71
3
 72
32
 73
28
 74
0
 42
0.0000001
 43
0.0000001
 44
0.0000000001
 40
0.0
 40
0.0
 40
0.0
 40
0.0
 40
0.0298029079
 40
0.0588598218
 40
0.0871946449
 40
0.1149104632
 40
0.1421604389
 40
0.1691167802
 40
0.1959588139
 40
0.2228749563
 40
0.2500512569
 40
0.2776599942
 40
0.3058470383
 40
0.3347286701
 40
0.3643877322
 40
0.3948704676
 40
0.4261921399
 40
0.4583318268
 40
0.4912442353
 40
0.5248546196
 40
0.5937229166
 40
0.6640466902
 40
0.7347162893
 40
0.8045915909
 40
0.8726059405
 40
0.9379249098
 40
1.0
 40
1.0
 40
1.0
 40
1.0
 10
-51.7562693004
 20
-56.2864697205
 30
0.0
 10
-51.7039276962
 20
-56.2723493624
 30
0.0
 10
-51.5990523629
 20
-56.2496780352
 30
0.0
 10
-51.4410219761
 20
-56.2328909583
 30
0.0
 10
-51.2858577241
 20
-56.2341190273
 30
0.0
 10
-51.1351826022
 20
-56.25336986
 30
0.0
 10
-50.9904485199
 20
-56.2904747297
 30
0.0
 10
-50.8530755549
 20
-56.3451014367
 30
0.0
 10
-50.7244024059
 20
-56.4166690762
 30
0.0
 10
-50.6057880632
 20
-56.5045669036
 30
0.0
 10
-50.4983273062
 20
-56.6078023746
 30
0.0
 10
-50.4031467607
 20
-56.7254244389
 30
0.0
 10
-50.3210679369
 20
-56.8561832688
 30
0.0
 10
-50.2529256756
 20
-56.9988354607
 30
0.0
 10
-50.199316327
 20
-57.1519619868
 30
0.0
 10
-50.1607115379
 20
-57.3140847485
 30
0.0
 10
-50.1375096853
 20
-57.4836500119
 30
0.0
 10
-50.1298220136
 20
-57.6590253505
 30
0.0
 10
-50.1378146167
 20
-57.8385479514
 30
0.0
 10
-50.1693626366
 20
-58.083042163
 30
0.0
 10
-50.2476247777
 20
-58.388947452
 30
0.0
 10
-50.397703958
 20
-58.7414531925
 30
0.0
 10
-50.5991223053
 20
-59.0695618818
 30
0.0
 10
-50.8443668144
 20
-59.3609008044
 30
0.0
 10
-51.1243973428
 20
-59.6046482815
 30
0.0
 10
-51.428800878
 20
-59.7913957491
 30
0.0
 10
-51.646636444
 20
-59.8753602189
 30
0.0
 10
-51.7556563358
 20
-59.9047708558
 30
0.0
  0
SPLINE
  5
3A1
100
AcDbEntity
  8
0
100
AcDbSpline
 62
7
  6
CONTINUOUS
 70
0
 71
3
 72
33
 73
29
 74
0
 42
0.0000001
 43
0.0000001
 44
0.0000000001
 40
0.0
 40
0.0
 40
0.0
 40
0.0
 40
0.0261619399
 40
0.0524393439
 40
0.0789454366
 40
0.1057827646
 40
0.133042913
 40
0.160804389
 40
0.1891293252
 40
0.2180647111
 40
0.2476363628
 40
0.2778551947
 40
0.3087166696
 40
0.3402007823
 40
0.3722761949
 40
0.4048967671
 40
0.47150925
 40
0.5395209102
 40
0.6082878625
 40
0.7450583432
 40
0.7787203402
 40
0.8119821964
 40
0.8447720002
 40
0.8770299499
 40
0.9087156641
 40
0.939797871
 40
0.9702396542
 40
1.0
 40
1.0
 40
1.0
 40
1.0
 10
-54.8965839772
 20
-60.9046083282
 30
0.0
 10
-54.9649287479
 20
-60.8653481558
 30
0.0
 10
-55.0979711966
 20
-60.7795425786
 30
0.0
 10
-55.283933752
 20
-60.6306364141
 30
0.0
 10
-55.4553374879
 20
-60.4622443146
 30
0.0
 10
-55.6111994152
 20
-60.2755290262
 30
0.0
 10
-55.7505144359
 20
-60.0715823754
 30
0.0
 10
-55.8724662844
 20
-59.8516892866
 30
0.0
 10
-55.97637803
 20
-59.6172077014
 30
0.0
 10
-56.0615507105
 20
-59.3695366626
 30
0.0
 10
-56.1275994719
 20
-59.1102237335
 30
0.0
 10
-56.1740533686
 20
-58.8408206835
 30
0.0
 10
-56.2006720028
 20
-58.5629703961
 30
0.0
 10
-56.2073480834
 20
-58.2783487063
 30
0.0
 10
-56.1939668231
 20
-57.9886618988
 30
0.0
 10
-56.1493301039
 20
-57.5953434013
 30
0.0
 10
-56.0435147147
 20
-57.1012344976
 30
0.0
 10
-55.842146654
 20
-56.520850997
 30
0.0
 10
-55.4809397501
 20
-55.7786368828
 30
0.0
 10
-55.0524106575
 20
-55.1885378842
 30
0.0
 10
-54.6199986365
 20
-54.7528711287
 30
0.0
 10
-54.3952867403
 20
-54.5531479087
 30
0.0
 10
-54.1615837046
 20
-54.3708702541
 30
0.0
 10
-53.9202028695
 20
-54.2071712073
 30
0.0
 10
-53.6726214474
 20
-54.0629630968
 30
0.0
 10
-53.4202649974
 20
-53.939207939
 30
0.0
 10
-53.1648186269
 20
-53.8366623452
 30
0.0
 10
-52.9915802996
 20
-53.782200008
 30
0.0
 10
-52.905015404
 20
-53.7588471257
 30
0.0
  0
SPLINE
  5
3A2
100
AcDbEntity
  8
0
100
AcDbSpline
 62
7
  6
CONTINUOUS
 70
0
 71
3
 72
15
 73
11
 74
0
 42
0.0000001
 43
0.0000001
 44
0.0000000001
 40
0.0
 40
0.0
 40
0.0
 40
0.0
 40
0.1330649032
 40
0.2633335692
 40
0.3908556915
 40
0.5158875621
 40
0.6388346632
 40
0.7601635933
 40
0.8803736668
 40
1.0
 40
1.0
 40
1.0
 40
1.0
 10
-52.905015404
 20
-53.7588471257
 30
0.0
 10
-52.816983361
 20
-53.7350984464
 30
0.0
 10
-52.6407033018
 20
-53.6953600746
 30
0.0
 10
-52.3749403185
 20
-53.6595235029
 30
0.0
 10
-52.1124604617
 20
-53.6485099154
 30
0.0
 10
-51.8551265003
 20
-53.6624368697
 30
0.0
 10
-51.6046161354
 20
-53.701187137
 30
0.0
 10
-51.3625803601
 20
-53.7646162632
 30
0.0
 10
-51.1306364647
 20
-53.8521666949
 30
0.0
 10
-50.9836104895
 20
-53.9264215761
 30
0.0
 10
-50.9125257856
 20
-53.9672402973
 30
0.0
  0
SPLINE
  5
3A3
100
AcDbEntity
  8
0
100
AcDbSpline
 62
7
  6
CONTINUOUS
 70
0
 71
3
 72
32
 73
28
 74
0
 42
0.0000001
 43
0.0000001
 44
0.0000000001
 40
0.0
 40
0.0
 40
0.0
 40
0.0
 40
0.0298029079
 40
0.0588598218
 40
0.0871946449
 40
0.1149104632
 40
0.1421604389
 40
0.1691167802
 40
0.1959588139
 40
0.2228749563
 40
0.2500512569
 40
0.2776599942
 40
0.3058470383
 40
0.3347286701
 40
0.3643877322
 40
0.3948704676
 40
0.4261921399
 40
0.4583318268
 40
0.4912442353
 40
0.5248546196
 40
0.5937229166
 40
0.6640466902
 40
0.7347162893
 40
0.8045915909
 40
0.8726059405
 40
0.9379249098
 40
1.0
 40
1.0
 40
1.0
 40
1.0
 10
-51.7556563358
 20
-59.9047708558
 30
0.0
 10
-51.80799794
 20
-59.9188912138
 30
0.0
 10
-51.9128732733
 20
-59.9415625411
 30
0.0
 10
-52.0709036601
 20
-59.9583496179
 30
0.0
 10
-52.2260679121
 20
-59.9571215489
 30
0.0
 10
-52.376743034
 20
-59.9378707163
 30
0.0
 10
-52.5214771163
 20
-59.9007658466
 30
0.0
 10
-52.6588500813
 20
-59.8461391395
 30
0.0
 10
-52.7875232303
 20
-59.7745715
 30
0.0
 10
-52.906137573
 20
-59.6866736727
 30
0.0
 10
-53.01359833
 20
-59.5834382016
 30
0.0
 10
-53.1087788755
 20
-59.4658161374
 30
0.0
 10
-53.1908576993
 20
-59.3350573075
 30
0.0
 10
-53.2589999606
 20
-59.1924051156
 30
0.0
 10
-53.3126093092
 20
-59.0392785894
 30
0.0
 10
-53.3512140983
 20
-58.8771558278
 30
0.0
 10
-53.3744159509
 20
-58.7075905644
 30
0.0
 10
-53.3821036226
 20
-58.5322152258
 30
0.0
 10
-53.3741110195
 20
-58.3526926249
 30
0.0
 10
-53.3425629996
 20
-58.1081984133
 30
0.0
 10
-53.2643008585
 20
-57.8022931243
 30
0.0
 10
-53.1142216782
 20
-57.4497873838
 30
0.0
 10
-52.9128033309
 20
-57.1216786945
 30
0.0
 10
-52.6675588218
 20
-56.8303397718
 30
0.0
 10
-52.3875282934
 20
-56.5865922948
 30
0.0
 10
-52.0831247582
 20
-56.3998448272
 30
0.0
 10
-51.8652891922
 20
-56.3158803574
 30
0.0
 10
-51.7562693004
 20
-56.2864697205
 30
0.0
  0
SPLINE
  5
3A4
100
AcDbEntity
  8
0
100
AcDbSpline
 62
7
  6
CONTINUOUS
 70
0
 71
3
 72
9
 73
5
 74
0
 42
0.0000001
 43
0.0000001
 44
0.0000000001
 40
0.0
 40
0.0
 40
0.0
 40
0.0
 40
0.24688587
 40
1.0
 40
1.0
 40
1.0
 40
1.0
 10
-56.3010302018
 20
-25.6640070052
 30
0.0
 10
-56.2908899152
 20
-25.9370561216
 30
0.0
 10
-56.2680804856
 20
-27.0436529901
 30
0.0
 10
-56.3173038792
 20
-28.151563888
 30
0.0
 10
-56.3920871007
 20
-28.9817003542
 30
0.0
  0
SPLINE
  5
3A5
100
AcDbEntity
  8
0
100
AcDbSpline
 62
7
  6
CONTINUOUS
 70
0
 71
3
 72
9
 73
5
 74
0
 42
0.0000001
 43
0.0000001
 44
0.0000000001
 40
0.0
 40
0.0
 40
0.0
 40
0.0
 40
0.2548653716
 40
1.0
 40
1.0
 40
1.0
 40
1.0
 10
-160.1774934263
 20
8.3078402664
 30
0.0
 10
-160.3649894288
 20
7.4881942879
 30
0.0
 10
-161.0161190067
 20
4.253750753
 30
0.0
 10
-161.3224232394
 20
0.9474858328
 30
0.0
 10
-161.3296485636
 20
-1.5107517047
 30
0.0
  0
SPLINE
  5
3A6
100
AcDbEntity
  8
0
100
AcDbSpline
 62
7
  6
CONTINUOUS
 70
0
 71
3
 72
9
 73
5
 74
0
 42
0.0000001
 43
0.0000001
 44
0.0000000001
 40
0.0
 40
0.0
 40
0.0
 40
0.0
 40
0.5064663936
 40
1.0
 40
1.0
 40
1.0
 40
1.0
 10
-161.394568867
 20
-8.7428907817
 30
0.0
 10
-161.0136877027
 20
-9.8278638429
 30
0.0
 10
-160.1422406467
 20
-11.9304196336
 30
0.0
 10
-159.0271512835
 20
-13.915505683
 30
0.0
 10
-158.417838492
 20
-14.8558830413
 30
0.0
  0
SPLINE
  5
3A7
100
AcDbEntity
  8
0
100
AcDbSpline
 62
7
  6
CONTINUOUS
 70
0
 71
3
 72
11
 73
7
 74
0
 42
0.0000001
 43
0.0000001
 44
0.0000000001
 40
0.0
 40
0.0
 40
0.0
 40
0.0
 40
0.2564066402
 40
0.5074180105
 40
0.7546839082
 40
1.0
 40
1.0
 40
1.0
 40
1.0
 10
-141.8271484697
 20
-21.3295629333
 30
0.0
 10
-141.4828703077
 20
-21.9309776325
 30
0.0
 10
-140.7282893886
 20
-23.0811886311
 30
0.0
 10
-139.3956518229
 20
-24.6328516955
 30
0.0
 10
-137.8903391476
 20
-25.9732911192
 30
0.0
 10
-136.7802464386
 20
-26.7171110034
 30
0.0
 10
-136.2053243282
 20
-27.0473334532
 30
0.0
  0
SPLINE
  5
3A8
100
AcDbEntity
  8
0
100
AcDbSpline
 62
7
  6
CONTINUOUS
 70
0
 71
3
 72
11
 73
7
 74
0
 42
0.0000001
 43
0.0000001
 44
0.0000000001
 40
0.0
 40
0.0
 40
0.0
 40
0.0
 40
0.2661252756
 40
0.5229472182
 40
0.7679051693
 40
1.0
 40
1.0
 40
1.0
 40
1.0
 10
-142.8364201141
 20
-1.6127051519
 30
0.0
 10
-143.3476169183
 20
-3.126540139
 30
0.0
 10
-144.1297411566
 20
-6.1827815918
 30
0.0
 10
-144.5432656897
 20
-10.7959222608
 30
0.0
 10
-144.1650805545
 20
-15.2094289876
 30
0.0
 10
-143.3657289609
 20
-17.9851427302
 30
0.0
 10
-142.8334283469
 20
-19.2729674613
 30
0.0
  0
SPLINE
  5
3A9
100
AcDbEntity
  8
0
100
AcDbSpline
 62
7
  6
CONTINUOUS
 70
0
 71
3
 72
11
 73
7
 74
0
 42
0.0000001
 43
0.0000001
 44
0.0000000001
 40
0.0
 40
0.0
 40
0.0
 40
0.0
 40
0.2453297846
 40
0.4926027833
 40
0.743633917
 40
1.0
 40
1.0
 40
1.0
 40
1.0
 10
-111.2033110779
 20
16.483497287
 30
0.0
 10
-111.7778217555
 20
16.8134521964
 30
0.0
 10
-112.97873398
 20
17.397122996
 30
0.0
 10
-114.8935479548
 20
18.0217821866
 30
0.0
 10
-116.9036138088
 20
18.391086392
 30
0.0
 10
-118.2761688219
 20
18.463735839
 30
0.0
 10
-118.9684717052
 20
18.4583486702
 30
0.0
  0
SPLINE
  5
3AA
100
AcDbEntity
  8
0
100
AcDbSpline
 62
7
  6
CONTINUOUS
 70
0
 71
3
 72
14
 73
10
 74
0
 42
0.0000001
 43
0.0000001
 44
0.0000000001
 40
0.0
 40
0.0
 40
0.0
 40
0.0
 40
0.1097215632
 40
0.2249173343
 40
0.3457365472
 40
0.4716633145
 40
0.6016472222
 40
0.7342555052
 40
1.0
 40
1.0
 40
1.0
 40
1.0
 10
-118.9684717052
 20
18.4583486702
 30
0.0
 10
-120.1773983317
 20
18.4489413831
 30
0.0
 10
-122.6589261242
 20
18.1658938133
 30
0.0
 10
-126.3138787975
 20
17.0260180805
 30
0.0
 10
-129.8808288206
 20
15.2025583224
 30
0.0
 10
-133.2517077628
 20
12.7543763893
 30
0.0
 10
-136.3280309861
 20
9.7555745796
 30
0.0
 10
-139.9104844292
 20
5.1522122686
 30
0.0
 10
-141.8996208796
 20
1.1614895334
 30
0.0
 10
-142.8364201141
 20
-1.6127051519
 30
0.0
  0
SPLINE
  5
3AB
100
AcDbEntity
  8
0
100
AcDbSpline
 62
7
  6
CONTINUOUS
 70
0
 71
3
 72
9
 73
5
 74
0
 42
0.0000001
 43
0.0000001
 44
0.0000000001
 40
0.0
 40
0.0
 40
0.0
 40
0.0
 40
0.4932215686
 40
1.0
 40
1.0
 40
1.0
 40
1.0
 10
-157.9017402031
 20
-16.1570227853
 30
0.0
 10
-158.7100318824
 20
-15.0702393882
 30
0.0
 10
-160.1191839169
 20
-12.6884220842
 30
0.0
 10
-161.0408678424
 20
-10.0833002751
 30
0.0
 10
-161.3892708065
 20
-8.7359774987
 30
0.0
  0
SPLINE
  5
3AC
100
AcDbEntity
  8
0
100
AcDbSpline
 62
7
  6
CONTINUOUS
 70
0
 71
3
 72
9
 73
5
 74
0
 42
0.0000001
 43
0.0000001
 44
0.0000000001
 40
0.0
 40
0.0
 40
0.0
 40
0.0
 40
0.2464726933
 40
1.0
 40
1.0
 40
1.0
 40
1.0
 10
-128.2140651927
 20
30.2016177541
 30
0.0
 10
-128.6416581159
 20
30.2158051722
 30
0.0
 10
-130.3777215457
 20
30.2318506235
 30
0.0
 10
-132.1146096439
 20
30.0836145787
 30
0.0
 10
-133.4078770778
 20
29.8880146749
 30
0.0
  0
SPLINE
  5
3AD
100
AcDbEntity
  8
0
100
AcDbSpline
 62
7
  6
CONTINUOUS
 70
0
 71
3
 72
9
 73
5
 74
0
 42
0.0000001
 43
0.0000001
 44
0.0000000001
 40
0.0
 40
0.0
 40
0.0
 40
0.0
 40
0.2471381753
 40
1.0
 40
1.0
 40
1.0
 40
1.0
 10
-133.4078770778
 20
29.8880146749
 30
0.0
 10
-133.727322206
 20
29.8397002778
 30
0.0
 10
-135.0167090654
 20
29.6235162807
 30
0.0
 10
-136.2921946442
 20
29.3255642334
 30
0.0
 10
-137.2397307357
 20
29.0594377177
 30
0.0
  0
SPLINE
  5
3AE
100
AcDbEntity
  8
0
100
AcDbSpline
 62
7
  6
CONTINUOUS
 70
0
 71
3
 72
9
 73
5
 74
0
 42
0.0000001
 43
0.0000001
 44
0.0000000001
 40
0.0
 40
0.0
 40
0.0
 40
0.0
 40
0.2463834478
 40
1.0
 40
1.0
 40
1.0
 40
1.0
 10
-142.3364929915
 20
28.1153338383
 30
0.0
 10
-142.8587431532
 20
27.7858136022
 30
0.0
 10
-144.9488741016
 20
26.4019596571
 30
0.0
 10
-146.9186143895
 20
24.8377231139
 30
0.0
 10
-148.3251273332
 20
23.5770360833
 30
0.0
  0
SPLINE
  5
3AF
100
AcDbEntity
  8
0
100
AcDbSpline
 62
7
  6
CONTINUOUS
 70
0
 71
3
 72
9
 73
5
 74
0
 42
0.0000001
 43
0.0000001
 44
0.0000000001
 40
0.0
 40
0.0
 40
0.0
 40
0.0
 40
0.493135028
 40
1.0
 40
1.0
 40
1.0
 40
1.0
 10
-162.1981407429
 20
-2.1841244843
 30
0.0
 10
-162.198439842
 20
-0.4185561348
 30
0.0
 10
-161.867269599
 20
3.1673745942
 30
0.0
 10
-160.942958223
 20
6.644318981
 30
0.0
 10
-160.3407841858
 20
8.3562230292
 30
0.0
  0
SPLINE
  5
3B0
100
AcDbEntity
  8
0
100
AcDbSpline
 62
7
  6
CONTINUOUS
 70
0
 71
3
 72
9
 73
5
 74
0
 42
0.0000001
 43
0.0000001
 44
0.0000000001
 40
0.0
 40
0.0
 40
0.0
 40
0.0
 40
0.5010400481
 40
1.0
 40
1.0
 40
1.0
 40
1.0
 10
-160.3407841858
 20
8.3562230292
 30
0.0
 10
-159.4958978215
 20
10.7581272927
 30
0.0
 10
-157.2757525353
 20
15.3783094599
 30
0.0
 10
-154.1261378602
 20
19.4239310605
 30
0.0
 10
-152.3541332669
 20
21.2375626722
 30
0.0
  0
SPLINE
  5
3B1
100
AcDbEntity
  8
0
100
AcDbSpline
 62
7
  6
CONTINUOUS
 70
0
 71
3
 72
9
 73
5
 74
0
 42
0.0000001
 43
0.0000001
 44
0.0000000001
 40
0.0
 40
0.0
 40
0.0
 40
0.0
 40
0.5094296755
 40
1.0
 40
1.0
 40
1.0
 40
1.0
 10
-152.3541332669
 20
21.2375626722
 30
0.0
 10
-150.904416642
 20
22.7213352926
 30
0.0
 10
-147.7817756872
 20
25.3783482599
 30
0.0
 10
-144.1802168167
 20
27.3546981779
 30
0.0
 10
-142.3299426582
 20
28.1077087483
 30
0.0
  0
SPLINE
  5
3B2
100
AcDbEntity
  8
0
100
AcDbSpline
 62
7
  6
CONTINUOUS
 70
0
 71
3
 72
9
 73
5
 74
0
 42
0.0000001
 43
0.0000001
 44
0.0000000001
 40
0.0
 40
0.0
 40
0.0
 40
0.0
 40
0.5051311898
 40
1.0
 40
1.0
 40
1.0
 40
1.0
 10
-139.3684054242
 20
29.1032020304
 30
0.0
 10
-138.3888443861
 20
29.3639649667
 30
0.0
 10
-136.4140291162
 20
29.7562420347
 30
0.0
 10
-134.4027905875
 20
29.8718823546
 30
0.0
 10
-133.4098446583
 20
29.8555055662
 30
0.0
  0
SPLINE
  5
3B3
100
AcDbEntity
  8
0
100
AcDbSpline
 62
7
  6
CONTINUOUS
 70
0
 71
3
 72
11
 73
7
 74
0
 42
0.0000001
 43
0.0000001
 44
0.0000000001
 40
0.0
 40
0.0
 40
0.0
 40
0.0
 40
0.2017158951
 40
0.4268800938
 40
0.6920657406
 40
1.0
 40
1.0
 40
1.0
 40
1.0
 10
-148.2926741142
 20
-24.1618371886
 30
0.0
 10
-148.3400709543
 20
-24.1433332175
 30
0.0
 10
-148.4322024089
 20
-24.0801336815
 30
0.0
 10
-148.525522537
 20
-23.9281265396
 30
0.0
 10
-148.5734992438
 20
-23.7302516705
 30
0.0
 10
-148.5746783767
 20
-23.5843396225
 30
0.0
 10
-148.5671882109
 20
-23.5070282754
 30
0.0
  0
SPLINE
  5
3B4
100
AcDbEntity
  8
0
100
AcDbSpline
 62
7
  6
CONTINUOUS
 70
0
 71
3
 72
9
 73
5
 74
0
 42
0.0000001
 43
0.0000001
 44
0.0000000001
 40
0.0
 40
0.0
 40
0.0
 40
0.0
 40
0.2497280635
 40
1.0
 40
1.0
 40
1.0
 40
1.0
 10
-156.5379171995
 20
3.5123058288
 30
0.0
 10
-156.745441666
 20
3.9678669452
 30
0.0
 10
-157.5321081792
 20
5.8117723577
 30
0.0
 10
-158.1318041494
 20
7.7370056393
 30
0.0
 10
-158.4554005678
 20
9.2057671764
 30
0.0
  0
SPLINE
  5
3B5
100
AcDbEntity
  8
0
100
AcDbSpline
 62
7
  6
CONTINUOUS
 70
0
 71
3
 72
19
 73
15
 74
0
 42
0.0000001
 43
0.0000001
 44
0.0000000001
 40
0.0
 40
0.0
 40
0.0
 40
0.0
 40
0.2484850912
 40
0.37280336
 40
0.4972552551
 40
0.6219588922
 40
0.6844688474
 40
0.7471421582
 40
0.8100556834
 40
0.8733517254
 40
0.9052049807
 40
0.9373178764
 40
0.9696821323
 40
1.0
 40
1.0
 40
1.0
 40
1.0
 10
-161.3297778918
 20
-1.5112618675
 30
0.0
 10
-161.3301982915
 20
-1.6550743928
 30
0.0
 10
-161.3286914154
 20
-1.8708538712
 30
0.0
 10
-161.3218438745
 20
-2.1585688175
 30
0.0
 10
-161.3140108464
 20
-2.3745845638
 30
0.0
 10
-161.3048727825
 20
-2.5547412806
 30
0.0
 10
-161.2955609722
 20
-2.699067726
 30
0.0
 10
-161.2873202507
 20
-2.8076216701
 30
0.0
 10
-161.2775970342
 20
-2.9165073743
 30
0.0
 10
-161.2673656102
 20
-3.00743864
 30
0.0
 10
-161.2578906642
 20
-3.0804505692
 30
0.0
 10
-161.2481834009
 20
-3.1355001744
 30
0.0
 10
-161.2386431947
 20
-3.1890109955
 30
0.0
 10
-161.2254088884
 20
-3.2246105379
 30
0.0
 10
-161.2135742304
 20
-3.2375654436
 30
0.0
  0
SPLINE
  5
3B6
100
AcDbEntity
  8
0
100
AcDbSpline
 62
7
  6
CONTINUOUS
 70
0
 71
3
 72
9
 73
5
 74
0
 42
0.0000001
 43
0.0000001
 44
0.0000000001
 40
0.0
 40
0.0
 40
0.0
 40
0.0
 40
0.2543096876
 40
1.0
 40
1.0
 40
1.0
 40
1.0
 10
-149.8987407415
 20
16.3150074056
 30
0.0
 10
-149.990294376
 20
16.7234141117
 30
0.0
 10
-150.3054309932
 20
18.3387578869
 30
0.0
 10
-150.4317792605
 20
19.9935117809
 30
0.0
 10
-150.3965749184
 20
21.220263728
 30
0.0
  0
SPLINE
  5
3B7
100
AcDbEntity
  8
0
100
AcDbSpline
 62
7
  6
CONTINUOUS
 70
0
 71
3
 72
9
 73
5
 74
0
 42
0.0000001
 43
0.0000001
 44
0.0000000001
 40
0.0
 40
0.0
 40
0.0
 40
0.0
 40
0.4976894838
 40
1.0
 40
1.0
 40
1.0
 40
1.0
 10
-150.5209307955
 20
21.4123521678
 30
0.0
 10
-150.4832973083
 20
21.3983516531
 30
0.0
 10
-150.412182043
 20
21.3462718374
 30
0.0
 10
-150.3954112854
 20
21.2607731814
 30
0.0
 10
-150.3965748067
 20
21.2202636864
 30
0.0
  0
SPLINE
  5
3B8
100
AcDbEntity
  8
0
100
AcDbSpline
 62
7
  6
CONTINUOUS
 70
0
 71
3
 72
9
 73
5
 74
0
 42
0.0000001
 43
0.0000001
 44
0.0000000001
 40
0.0
 40
0.0
 40
0.0
 40
0.0
 40
0.2587578849
 40
1.0
 40
1.0
 40
1.0
 40
1.0
 10
-139.2076949775
 20
25.034733289
 30
0.0
 10
-139.2531137364
 20
25.3599317474
 30
0.0
 10
-139.3955281809
 20
26.6208323669
 30
0.0
 10
-139.4003996944
 20
27.8993429246
 30
0.0
 10
-139.3086131753
 20
28.8354645678
 30
0.0
  0
SPLINE
  5
3B9
100
AcDbEntity
  8
0
100
AcDbSpline
 62
7
  6
CONTINUOUS
 70
0
 71
3
 72
9
 73
5
 74
0
 42
0.0000001
 43
0.0000001
 44
0.0000000001
 40
0.0
 40
0.0
 40
0.0
 40
0.0
 40
0.4957658917
 40
1.0
 40
1.0
 40
1.0
 40
1.0
 10
-126.5692708087
 20
28.4015757959
 30
0.0
 10
-124.2573954922
 20
27.059885926
 30
0.0
 10
-119.7402381962
 20
24.0943791677
 30
0.0
 10
-115.5654093581
 20
20.6652831275
 30
0.0
 10
-113.5545299125
 20
18.835684034
 30
0.0
  0
SPLINE
  5
3BA
100
AcDbEntity
  8
0
100
AcDbSpline
 62
7
  6
CONTINUOUS
 70
0
 71
3
 72
9
 73
5
 74
0
 42
0.0000001
 43
0.0000001
 44
0.0000000001
 40
0.0
 40
0.0
 40
0.0
 40
0.0
 40
0.4729556922
 40
1.0
 40
1.0
 40
1.0
 40
1.0
 10
-162.2271521944
 20
-5.9764060964
 30
0.0
 10
-162.2219497868
 20
-5.9973157188
 30
0.0
 10
-162.198754564
 20
-6.0387620098
 30
0.0
 10
-162.1617123049
 20
-6.0668744659
 30
0.0
 10
-162.1408659464
 20
-6.0787896325
 30
0.0
  0
SPLINE
  5
3BB
100
AcDbEntity
  8
0
100
AcDbSpline
 62
7
  6
CONTINUOUS
 70
0
 71
3
 72
14
 73
10
 74
0
 42
0.0000001
 43
0.0000001
 44
0.0000000001
 40
0.0
 40
0.0
 40
0.0
 40
0.0
 40
0.2723208533
 40
0.4018668359
 40
0.5270772146
 40
0.6485243289
 40
0.7670573056
 40
0.8837954511
 40
1.0
 40
1.0
 40
1.0
 40
1.0
 10
-145.7420781874
 20
-10.820626956
 30
0.0
 10
-145.7417521563
 20
-12.7496710419
 30
0.0
 10
-145.4315211915
 20
-15.6160138717
 30
0.0
 10
-144.3187438701
 20
-19.1889770682
 30
0.0
 10
-143.183156635
 20
-21.610155892
 30
0.0
 10
-141.7491990302
 20
-23.7748769815
 30
0.0
 10
-140.038282063
 20
-25.6490107423
 30
0.0
 10
-138.0775355996
 20
-27.2005464006
 30
0.0
 10
-136.6252549469
 20
-28.0023687186
 30
0.0
 10
-135.8744895118
 20
-28.3399247217
 30
0.0
  0
SPLINE
  5
3BC
100
AcDbEntity
  8
0
100
AcDbSpline
 62
7
  6
CONTINUOUS
 70
0
 71
3
 72
9
 73
5
 74
0
 42
0.0000001
 43
0.0000001
 44
0.0000000001
 40
0.0
 40
0.0
 40
0.0
 40
0.0
 40
0.4989859522
 40
1.0
 40
1.0
 40
1.0
 40
1.0
 10
-151.0889690951
 20
21.6245936463
 30
0.0
 10
-151.0471599054
 20
21.6089318316
 30
0.0
 10
-150.9737122586
 20
21.5476520495
 30
0.0
 10
-150.9395410103
 20
21.4625926015
 30
0.0
 10
-150.9287549275
 20
21.4190817132
 30
0.0
  0
SPLINE
  5
3BD
100
AcDbEntity
  8
0
100
AcDbSpline
 62
7
  6
CONTINUOUS
 70
0
 71
3
 72
9
 73
5
 74
0
 42
0.0000001
 43
0.0000001
 44
0.0000000001
 40
0.0
 40
0.0
 40
0.0
 40
0.0
 40
0.5215163685
 40
1.0
 40
1.0
 40
1.0
 40
1.0
 10
-139.2077139846
 20
25.034719143
 30
0.0
 10
-139.2579076922
 20
25.6076367436
 30
0.0
 10
-139.283617873
 20
26.7142206274
 30
0.0
 10
-139.1291352399
 20
27.8134083272
 30
0.0
 10
-139.0013040104
 20
28.3253468601
 30
0.0
  0
SPLINE
  5
3BE
100
AcDbEntity
  8
0
100
AcDbSpline
 62
7
  6
CONTINUOUS
 70
0
 71
3
 72
11
 73
7
 74
0
 42
0.0000001
 43
0.0000001
 44
0.0000000001
 40
0.0
 40
0.0
 40
0.0
 40
0.0
 40
0.1866547636
 40
0.395367753
 40
0.6682611736
 40
1.0
 40
1.0
 40
1.0
 40
1.0
 10
-161.3663484442
 20
-4.3079306971
 30
0.0
 10
-161.3455545026
 20
-4.2889535823
 30
0.0
 10
-161.2863662976
 20
-4.2610239896
 30
0.0
 10
-161.1841545209
 20
-4.2940457041
 30
0.0
 10
-161.0933603313
 20
-4.3788344593
 30
0.0
 10
-161.0426842363
 20
-4.4555169267
 30
0.0
 10
-161.0186700236
 20
-4.4994109127
 30
0.0
  0
SPLINE
  5
3BF
100
AcDbEntity
  8
0
100
AcDbSpline
 62
7
  6
CONTINUOUS
 70
0
 71
3
 72
12
 73
8
 74
0
 42
0.0000001
 43
0.0000001
 44
0.0000000001
 40
0.0
 40
0.0
 40
0.0
 40
0.0
 40
0.1346230106
 40
0.2415159985
 40
0.3728741706
 40
0.6795785661
 40
1.0
 40
1.0
 40
1.0
 40
1.0
 10
-161.89476841
 20
-4.7904244434
 30
0.0
 10
-161.8811491176
 20
-4.7780386908
 30
0.0
 10
-161.8412760047
 20
-4.7809405751
 30
0.0
 10
-161.7956461361
 20
-4.7995041868
 30
0.0
 10
-161.7295277363
 20
-4.8357347033
 30
0.0
 10
-161.6464583298
 20
-4.8977529785
 30
0.0
 10
-161.5823281877
 20
-4.9549372109
 30
0.0
 10
-161.5507495727
 20
-4.9853121117
 30
0.0
  0
SPLINE
  5
3C0
100
AcDbEntity
  8
0
100
AcDbSpline
 62
7
  6
CONTINUOUS
 70
0
 71
3
 72
24
 73
20
 74
0
 42
0.0000001
 43
0.0000001
 44
0.0000000001
 40
0.0
 40
0.0
 40
0.0
 40
0.0
 40
0.1256760373
 40
0.2513594319
 40
0.377047038
 40
0.5027344212
 40
0.5655762736
 40
0.6284144785
 40
0.6912459346
 40
0.7540646062
 40
0.8168569789
 40
0.8482342635
 40
0.8795871622
 40
0.910894871
 40
0.9421034684
 40
0.9576249892
 40
0.9730109618
 40
0.9880105183
 40
1.0
 40
1.0
 40
1.0
 40
1.0
 10
-157.3008177184
 20
12.6165671259
 30
0.0
 10
-157.3419286087
 20
12.5290175061
 30
0.0
 10
-157.4231688725
 20
12.3534490443
 30
0.0
 10
-157.5419518448
 20
12.0886881783
 30
0.0
 10
-157.6574647392
 20
11.8224738398
 30
0.0
 10
-157.7507447694
 20
11.5993545035
 30
0.0
 10
-157.8233006413
 20
11.4200193109
 30
0.0
 10
-157.8765650806
 20
11.2850684428
 30
0.0
 10
-157.9285148068
 20
11.1496241197
 30
0.0
 10
-157.9788892487
 20
11.0136237155
 30
0.0
 10
-158.0192105769
 20
10.8997216035
 30
0.0
 10
-158.0500344385
 20
10.8081695049
 30
0.0
 10
-158.0722173824
 20
10.7392660248
 30
0.0
 10
-158.0931158173
 20
10.6701500411
 30
0.0
 10
-158.1089546028
 20
10.612071959
 30
0.0
 10
-158.1198216586
 20
10.5657714179
 30
0.0
 10
-158.1264322767
 20
10.5302682775
 30
0.0
 10
-158.1302211592
 20
10.5004952725
 30
0.0
 10
-158.1285856061
 20
10.473940503
 30
0.0
 10
-158.1203253471
 20
10.4698283654
 30
0.0
  0
SPLINE
  5
3C1
100
AcDbEntity
  8
0
100
AcDbSpline
 62
7
  6
CONTINUOUS
 70
0
 71
3
 72
8
 73
4
 74
0
 42
0.0000001
 43
0.0000001
 44
0.0000000001
 40
0.0
 40
0.0
 40
0.0
 40
0.0
 40
1.0
 40
1.0
 40
1.0
 40
1.0
 10
-148.8429857415
 20
22.9559887235
 30
0.0
 10
-148.7359816696
 20
23.055407471
 30
0.0
 10
-148.6283324671
 20
23.1541300858
 30
0.0
 10
-148.5212641556
 20
23.2534796476
 30
0.0
  0
SPLINE
  5
3C2
100
AcDbEntity
  8
0
100
AcDbSpline
 62
7
  6
CONTINUOUS
 70
0
 71
3
 72
9
 73
5
 74
0
 42
0.0000001
 43
0.0000001
 44
0.0000000001
 40
0.0
 40
0.0
 40
0.0
 40
0.0
 40
0.2539389637
 40
1.0
 40
1.0
 40
1.0
 40
1.0
 10
-148.2536740967
 20
23.4960407657
 30
0.0
 10
-147.7586497849
 20
23.9413485516
 30
0.0
 10
-145.7727503542
 20
25.6537487545
 30
0.0
 10
-143.6401522556
 20
27.1974389116
 30
0.0
 10
-141.9794016145
 20
28.231218138
 30
0.0
  0
SPLINE
  5
3C3
100
AcDbEntity
  8
0
100
AcDbSpline
 62
7
  6
CONTINUOUS
 70
0
 71
3
 72
9
 73
5
 74
0
 42
0.0000001
 43
0.0000001
 44
0.0000000001
 40
0.0
 40
0.0
 40
0.0
 40
0.0
 40
0.2473616839
 40
1.0
 40
1.0
 40
1.0
 40
1.0
 10
-152.1085735146
 20
-20.4436158932
 30
0.0
 10
-152.5682437572
 20
-20.1266684771
 30
0.0
 10
-154.4056783918
 20
-18.8156143946
 30
0.0
 10
-156.1543057566
 20
-17.3781263391
 30
0.0
 10
-157.3993685967
 20
-16.2222890505
 30
0.0
  0
SPLINE
  5
3C4
100
AcDbEntity
  8
0
100
AcDbSpline
 62
7
  6
CONTINUOUS
 70
0
 71
3
 72
9
 73
5
 74
0
 42
0.0000001
 43
0.0000001
 44
0.0000000001
 40
0.0
 40
0.0
 40
0.0
 40
0.0
 40
0.4910331133
 40
1.0
 40
1.0
 40
1.0
 40
1.0
 10
-158.1167940153
 20
-15.2713899
 30
0.0
 10
-155.7664041039
 20
-16.6083398676
 30
0.0
 10
-150.83679171
 20
-19.0853884869
 30
0.0
 10
-145.6966741145
 20
-21.084537829
 30
0.0
 10
-143.0431837374
 20
-21.9870889284
 30
0.0
  0
SPLINE
  5
3C5
100
AcDbEntity
  8
0
100
AcDbSpline
 62
7
  6
CONTINUOUS
 70
0
 71
3
 72
9
 73
5
 74
0
 42
0.0000001
 43
0.0000001
 44
0.0000000001
 40
0.0
 40
0.0
 40
0.0
 40
0.0
 40
0.2480077258
 40
1.0
 40
1.0
 40
1.0
 40
1.0
 10
-157.3475599714
 20
-9.9414004583
 30
0.0
 10
-157.6897754129
 20
-9.5197035065
 30
0.0
 10
-159.0339128448
 20
-7.7908866745
 30
0.0
 10
-160.2282905074
 20
-5.9440302796
 30
0.0
 10
-161.0186700233
 20
-4.4994109127
 30
0.0
  0
SPLINE
  5
3C6
100
AcDbEntity
  8
0
100
AcDbSpline
 62
7
  6
CONTINUOUS
 70
0
 71
3
 72
9
 73
5
 74
0
 42
0.0000001
 43
0.0000001
 44
0.0000000001
 40
0.0
 40
0.0
 40
0.0
 40
0.0
 40
0.242969927
 40
1.0
 40
1.0
 40
1.0
 40
1.0
 10
-161.2135742304
 20
-3.2375654436
 30
0.0
 10
-160.5216229882
 20
-3.6324850818
 30
0.0
 10
-157.6579527713
 20
-5.2301485052
 30
0.0
 10
-154.7330654439
 20
-6.7173575651
 30
0.0
 10
-152.4932907166
 20
-7.7876467486
 30
0.0
  0
SPLINE
  5
3C7
100
AcDbEntity
  8
0
100
AcDbSpline
 62
7
  6
CONTINUOUS
 70
0
 71
3
 72
11
 73
7
 74
0
 42
0.0000001
 43
0.0000001
 44
0.0000000001
 40
0.0
 40
0.0
 40
0.0
 40
0.0
 40
0.2455155271
 40
0.4925528091
 40
0.7433885851
 40
1.0
 40
1.0
 40
1.0
 40
1.0
 10
-135.5178393604
 20
-27.4633349769
 30
0.0
 10
-136.1732894664
 20
-27.1338173512
 30
0.0
 10
-137.4399663169
 20
-26.3712253565
 30
0.0
 10
-139.1532207852
 20
-24.944650639
 30
0.0
 10
-140.6579020503
 20
-23.2553239522
 30
0.0
 10
-141.4976927153
 20
-21.985925113
 30
0.0
 10
-141.8770633957
 20
-21.3195763651
 30
0.0
  0
SPLINE
  5
3C8
100
AcDbEntity
  8
0
100
AcDbSpline
 62
7
  6
CONTINUOUS
 70
0
 71
3
 72
10
 73
6
 74
0
 42
0.0000001
 43
0.0000001
 44
0.0000000001
 40
0.0
 40
0.0
 40
0.0
 40
0.0
 40
0.2374765598
 40
0.4832115452
 40
1.0
 40
1.0
 40
1.0
 40
1.0
 10
-141.8770633957
 20
-21.3195763651
 30
0.0
 10
-142.3022374737
 20
-20.5727758634
 30
0.0
 10
-143.0541961346
 20
-18.9858877852
 30
0.0
 10
-144.1413098743
 20
-15.5261244434
 30
0.0
 10
-144.4443629315
 20
-12.747195427
 30
0.0
 10
-144.4446797374
 20
-10.8771050792
 30
0.0
  0
SPLINE
  5
3C9
100
AcDbEntity
  8
0
100
AcDbSpline
 62
7
  6
CONTINUOUS
 70
0
 71
3
 72
17
 73
13
 74
0
 42
0.0000001
 43
0.0000001
 44
0.0000000001
 40
0.0
 40
0.0
 40
0.0
 40
0.0
 40
0.1253428184
 40
0.2555058576
 40
0.3217145245
 40
0.3881799627
 40
0.5203497799
 40
0.6494155225
 40
0.7731007328
 40
0.8899670351
 40
0.9458172179
 40
1.0
 40
1.0
 40
1.0
 40
1.0
 10
-144.4442329532
 20
-10.7208525213
 30
0.0
 10
-144.4338237116
 20
-8.951558532
 30
0.0
 10
-144.0429091091
 20
-5.3403863697
 30
0.0
 10
-142.7409541052
 20
-0.9650923799
 30
0.0
 10
-141.2363731735
 20
2.4306477277
 30
0.0
 10
-139.4352314989
 20
5.7110269728
 30
0.0
 10
-136.7008534308
 20
9.4721509
 30
0.0
 10
-132.7756539289
 20
13.270473102
 30
0.0
 10
-128.3967223718
 20
16.1647832264
 30
0.0
 10
-124.4741559793
 20
17.7251747047
 30
0.0
 10
-121.3297031886
 20
18.3676507662
 30
0.0
 10
-119.7759930241
 20
18.4881507625
 30
0.0
 10
-119.0111989504
 20
18.4963323083
 30
0.0
  0
SPLINE
  5
3CA
100
AcDbEntity
  8
0
100
AcDbSpline
 62
7
  6
CONTINUOUS
 70
0
 71
3
 72
11
 73
7
 74
0
 42
0.0000001
 43
0.0000001
 44
0.0000000001
 40
0.0
 40
0.0
 40
0.0
 40
0.0
 40
0.256632442
 40
0.5074353857
 40
0.7544446781
 40
1.0
 40
1.0
 40
1.0
 40
1.0
 10
-119.0111989504
 20
18.4963323083
 30
0.0
 10
-118.2350795135
 20
18.5046350095
 30
0.0
 10
-116.6969133996
 20
18.4168140946
 30
0.0
 10
-114.4536314799
 20
17.9572126528
 30
0.0
 10
-112.3359551649
 20
17.1773793475
 30
0.0
 10
-111.0276959459
 20
16.450333345
 30
0.0
 10
-110.4082160293
 20
16.0407097603
 30
0.0
  0
SPLINE
  5
3CB
100
AcDbEntity
  8
0
100
AcDbSpline
 62
7
  6
CONTINUOUS
 70
0
 71
3
 72
11
 73
7
 74
0
 42
0.0000001
 43
0.0000001
 44
0.0000000001
 40
0.0
 40
0.0
 40
0.0
 40
0.0
 40
0.2328870678
 40
0.4771771679
 40
0.7330908713
 40
1.0
 40
1.0
 40
1.0
 40
1.0
 10
-140.4821959783
 20
28.7491098998
 30
0.0
 10
-140.5373963702
 20
28.0163322264
 30
0.0
 10
-140.5303722316
 20
26.5044177804
 30
0.0
 10
-140.2233614076
 20
24.2074634401
 30
0.0
 10
-139.6627216556
 20
21.8481259556
 30
0.0
 10
-139.1007442011
 20
20.2930901393
 30
0.0
 10
-138.7783087752
 20
19.5150485924
 30
0.0
  0
SPLINE
  5
3CC
100
AcDbEntity
  8
0
100
AcDbSpline
 62
7
  6
CONTINUOUS
 70
0
 71
3
 72
9
 73
5
 74
0
 42
0.0000001
 43
0.0000001
 44
0.0000000001
 40
0.0
 40
0.0
 40
0.0
 40
0.0
 40
0.2452615607
 40
1.0
 40
1.0
 40
1.0
 40
1.0
 10
-138.7783087752
 20
19.5150485924
 30
0.0
 10
-138.663959432
 20
19.2391219022
 30
0.0
 10
-138.1796229751
 20
18.1216162267
 30
0.0
 10
-137.6287359996
 20
17.0334705141
 30
0.0
 10
-137.1847115043
 20
16.2287083093
 30
0.0
  0
SPLINE
  5
3CD
100
AcDbEntity
  8
0
100
AcDbSpline
 62
7
  6
CONTINUOUS
 70
0
 71
3
 72
9
 73
5
 74
0
 42
0.0000001
 43
0.0000001
 44
0.0000000001
 40
0.0
 40
0.0
 40
0.0
 40
0.0
 40
0.245804157
 40
1.0
 40
1.0
 40
1.0
 40
1.0
 10
-137.1847115043
 20
16.2287083093
 30
0.0
 10
-137.0323668849
 20
15.9562122323
 30
0.0
 10
-136.3969760626
 20
14.8563874553
 30
0.0
 10
-135.6999468568
 20
13.7924526443
 30
0.0
 10
-135.1456375149
 20
13.0112415298
 30
0.0
  0
SPLINE
  5
3CE
100
AcDbEntity
  8
0
100
AcDbSpline
 62
7
  6
CONTINUOUS
 70
0
 71
3
 72
11
 73
7
 74
0
 42
0.0000001
 43
0.0000001
 44
0.0000000001
 40
0.0
 40
0.0
 40
0.0
 40
0.0
 40
0.2639034854
 40
0.5192467834
 40
0.7643932293
 40
1.0
 40
1.0
 40
1.0
 40
1.0
 10
-140.4470181527
 20
29.1405765777
 30
0.0
 10
-140.3667382424
 20
29.170226001
 30
0.0
 10
-140.2020301066
 20
29.2115243483
 30
0.0
 10
-139.9525024774
 20
29.2219934549
 30
0.0
 10
-139.7158587124
 20
29.1757024244
 30
0.0
 10
-139.5741552128
 20
29.104756575
 30
0.0
 10
-139.5119021791
 20
29.0604608399
 30
0.0
  0
SPLINE
  5
3CF
100
AcDbEntity
  8
0
100
AcDbSpline
 62
7
  6
CONTINUOUS
 70
0
 71
3
 72
9
 73
5
 74
0
 42
0.0000001
 43
0.0000001
 44
0.0000000001
 40
0.0
 40
0.0
 40
0.0
 40
0.0
 40
0.252466371
 40
1.0
 40
1.0
 40
1.0
 40
1.0
 10
-139.5119021791
 20
29.0604608399
 30
0.0
 10
-139.4910141003
 20
29.0455980654
 30
0.0
 10
-139.411343466
 20
28.982570585
 30
0.0
 10
-139.3454757121
 20
28.9018192956
 30
0.0
 10
-139.3086132087
 20
28.8354642271
 30
0.0
  0
SPLINE
  5
3D0
100
AcDbEntity
  8
0
100
AcDbSpline
 62
7
  6
CONTINUOUS
 70
0
 71
3
 72
10
 73
6
 74
0
 42
0.0000001
 43
0.0000001
 44
0.0000000001
 40
0.0
 40
0.0
 40
0.0
 40
0.0
 40
0.2334457449
 40
0.4783953611
 40
1.0
 40
1.0
 40
1.0
 40
1.0
 10
-139.2077126538
 20
25.0347248726
 30
0.0
 10
-139.1703656949
 20
24.6243153446
 30
0.0
 10
-139.0740808541
 20
23.7847541473
 30
0.0
 10
-138.7651341547
 20
22.0458843741
 30
0.0
 10
-138.4135934038
 20
20.7353460965
 30
0.0
 10
-138.1291806514
 20
19.8595746317
 30
0.0
  0
SPLINE
  5
3D1
100
AcDbEntity
  8
0
100
AcDbSpline
 62
7
  6
CONTINUOUS
 70
0
 71
3
 72
34
 73
30
 74
0
 42
0.0000001
 43
0.0000001
 44
0.0000000001
 40
0.0
 40
0.0
 40
0.0
 40
0.0
 40
0.1169288053
 40
0.2362788388
 40
0.3579583117
 40
0.4818778703
 40
0.6079496508
 40
0.6717659628
 40
0.7360863671
 40
0.7684318407
 40
0.8008985775
 40
0.8334847961
 40
0.8661886012
 40
0.8825840174
 40
0.8990081963
 40
0.9154611219
 40
0.9319432189
 40
0.9401957331
 40
0.9484565206
 40
0.9567267269
 40
0.9650089381
 40
0.9733100766
 40
0.981656113
 40
0.9858931488
 40
0.9904221358
 40
0.9918569975
 40
0.9931598834
 40
0.9955291685
 40
1.0
 40
1.0
 40
1.0
 40
1.0
 10
-138.1291806514
 20
19.8595746317
 30
0.0
 10
-138.0376010008
 20
19.5775800866
 30
0.0
 10
-137.8430895958
 20
19.0107791477
 30
0.0
 10
-137.5213434317
 20
18.1619076298
 30
0.0
 10
-137.1670424433
 20
17.3068779074
 30
0.0
 10
-136.7809414142
 20
16.4470278208
 30
0.0
 10
-136.4351866064
 20
15.730256671
 30
0.0
 10
-136.1447977257
 20
15.1547739751
 30
0.0
 10
-135.957662433
 20
14.7934187949
 30
0.0
 10
-135.8053044382
 20
14.5035871439
 30
0.0
 10
-135.6896986178
 20
14.2853450653
 30
0.0
 10
-135.5732618918
 20
14.0665158665
 30
0.0
 10
-135.4759915212
 20
13.8836493857
 30
0.0
 10
-135.3983701324
 20
13.7367505154
 30
0.0
 10
-135.3403655481
 20
13.6260921885
 30
0.0
 10
-135.2828580417
 20
13.5149273969
 30
0.0
 10
-135.2356744672
 20
13.4217513968
 30
0.0
 10
-135.1987002721
 20
13.3467009197
 30
0.0
 10
-135.1714875514
 20
13.2900464692
 30
0.0
 10
-135.1450310885
 20
13.2329872914
 30
0.0
 10
-135.1196468267
 20
13.1751904244
 30
0.0
 10
-135.0961621586
 20
13.1168863168
 30
0.0
 10
-135.0790066307
 20
13.0654878928
 30
0.0
 10
-135.070555404
 20
13.0252680214
 30
0.0
 10
-135.0703085166
 20
12.9929533366
 30
0.0
 10
-135.0890380259
 20
12.9857949373
 30
0.0
 10
-135.1020038863
 20
12.9877212357
 30
0.0
 10
-135.1213469869
 20
12.9952240163
 30
0.0
 10
-135.1362766779
 20
13.0043382508
 30
0.0
 10
-135.1453632678
 20
13.0111169632
 30
0.0
  0
SPLINE
  5
3D2
100
AcDbEntity
  8
0
100
AcDbSpline
 62
7
  6
CONTINUOUS
 70
0
 71
3
 72
15
 73
11
 74
0
 42
0.0000001
 43
0.0000001
 44
0.0000000001
 40
0.0
 40
0.0
 40
0.0
 40
0.0
 40
0.2419294042
 40
0.4870308603
 40
0.6115297373
 40
0.7382148721
 40
0.8687229404
 40
0.9364170018
 40
0.9705024364
 40
1.0
 40
1.0
 40
1.0
 40
1.0
 10
-158.4178447803
 20
-14.8558852289
 30
0.0
 10
-158.3952989711
 20
-14.8906794142
 30
0.0
 10
-158.349517463
 20
-14.9604686387
 30
0.0
 10
-158.2908180314
 20
-15.0472962605
 30
0.0
 10
-158.2420843463
 20
-15.1169964484
 30
0.0
 10
-158.203816771
 20
-15.1700675574
 30
0.0
 10
-158.170150129
 20
-15.2143689292
 30
0.0
 10
-158.1447941229
 20
-15.2451850257
 30
0.0
 10
-158.1292944906
 20
-15.2613591883
 30
0.0
 10
-158.1212471147
 20
-15.2689974433
 30
0.0
 10
-158.1167940153
 20
-15.2713899
 30
0.0
  0
SPLINE
  5
3D3
100
AcDbEntity
  8
0
100
AcDbSpline
 62
7
  6
CONTINUOUS
 70
0
 71
3
 72
11
 73
7
 74
0
 42
0.0000001
 43
0.0000001
 44
0.0000000001
 40
0.0
 40
0.0
 40
0.0
 40
0.0
 40
0.0899875725
 40
0.2875875958
 40
0.5973880594
 40
1.0
 40
1.0
 40
1.0
 40
1.0
 10
-152.2613295703
 20
21.1465744253
 30
0.0
 10
-152.259051438
 20
21.1495661377
 30
0.0
 10
-152.2442220142
 20
21.1482926961
 30
0.0
 10
-152.2227848017
 20
21.1397486563
 30
0.0
 10
-152.1874798097
 20
21.1230679721
 30
0.0
 10
-152.1617526401
 20
21.1086691452
 30
0.0
 10
-152.1471667441
 20
21.1002844783
 30
0.0
  0
SPLINE
  5
3D4
100
AcDbEntity
  8
0
100
AcDbSpline
 62
7
  6
CONTINUOUS
 70
0
 71
3
 72
10
 73
6
 74
0
 42
0.0000001
 43
0.0000001
 44
0.0000000001
 40
0.0
 40
0.0
 40
0.0
 40
0.0
 40
0.3602866274
 40
0.6466894268
 40
1.0
 40
1.0
 40
1.0
 40
1.0
 10
-160.1773605968
 20
8.3077170423
 30
0.0
 10
-160.1809485601
 20
8.2915324918
 30
0.0
 10
-160.1616666977
 20
8.2613869171
 30
0.0
 10
-160.1269446532
 20
8.2335311382
 30
0.0
 10
-160.1018058668
 20
8.2173694673
 30
0.0
 10
-160.087701019
 20
8.2092869363
 30
0.0
  0
SPLINE
  5
3D5
100
AcDbEntity
  8
0
100
AcDbSpline
 62
7
  6
CONTINUOUS
 70
0
 71
3
 72
9
 73
5
 74
0
 42
0.0000001
 43
0.0000001
 44
0.0000000001
 40
0.0
 40
0.0
 40
0.0
 40
0.0
 40
0.4909712982
 40
1.0
 40
1.0
 40
1.0
 40
1.0
 10
-138.1201333566
 20
28.7341458255
 30
0.0
 10
-136.4336670409
 20
27.7574098068
 30
0.0
 10
-133.0622737806
 20
25.6567993139
 30
0.0
 10
-129.81909053
 20
23.364051836
 30
0.0
 10
-128.2012323259
 20
22.1535805717
 30
0.0
  0
SPLINE
  5
3D6
100
AcDbEntity
  8
0
100
AcDbSpline
 62
7
  6
CONTINUOUS
 70
0
 71
3
 72
10
 73
6
 74
0
 42
0.0000001
 43
0.0000001
 44
0.0000000001
 40
0.0
 40
0.0
 40
0.0
 40
0.0
 40
0.50005832
 40
0.748661351
 40
1.0
 40
1.0
 40
1.0
 40
1.0
 10
-128.1221433699
 20
30.1746523194
 30
0.0
 10
-127.9540364702
 20
30.1534595361
 30
0.0
 10
-127.7032314579
 20
30.0532390559
 30
0.0
 10
-127.4669811828
 20
29.8052326583
 30
0.0
 10
-127.390020497
 20
29.6507018015
 30
0.0
 10
-127.3640311181
 20
29.5696018962
 30
0.0
  0
SPLINE
  5
3D7
100
AcDbEntity
  8
0
100
AcDbSpline
 62
7
  6
CONTINUOUS
 70
0
 71
3
 72
14
 73
10
 74
0
 42
0.0000001
 43
0.0000001
 44
0.0000000001
 40
0.0
 40
0.0
 40
0.0
 40
0.0
 40
0.028362343
 40
0.094673967
 40
0.1985930436
 40
0.3337416275
 40
0.4902579989
 40
0.6586049104
 40
1.0
 40
1.0
 40
1.0
 40
1.0
 10
-158.0483533807
 20
-16.6994110784
 30
0.0
 10
-158.0498825336
 20
-16.7028536463
 30
0.0
 10
-158.0393184507
 20
-16.7151066117
 30
0.0
 10
-158.0205041787
 20
-16.7294120122
 30
0.0
 10
-157.9854644828
 20
-16.7525825877
 30
0.0
 10
-157.9405275498
 20
-16.7787270153
 30
0.0
 10
-157.8867867588
 20
-16.8081937996
 30
0.0
 10
-157.8083111141
 20
-16.8489374327
 30
0.0
 10
-157.7474931569
 20
-16.8787649361
 30
0.0
 10
-157.7065517547
 20
-16.8982506209
 30
0.0
  0
SPLINE
  5
3D8
100
AcDbEntity
  8
0
100
AcDbSpline
 62
7
  6
CONTINUOUS
 70
0
 71
3
 72
11
 73
7
 74
0
 42
0.0000001
 43
0.0000001
 44
0.0000000001
 40
0.0
 40
0.0
 40
0.0
 40
0.0
 40
0.1856588632
 40
0.4116861053
 40
0.6828369661
 40
1.0
 40
1.0
 40
1.0
 40
1.0
 10
-117.7480091709
 20
23.7978133918
 30
0.0
 10
-117.6375405685
 20
23.7236144271
 30
0.0
 10
-117.4074083172
 20
23.5372411333
 30
0.0
 10
-117.0584007895
 20
23.1937601464
 30
0.0
 10
-116.6649304647
 20
22.7623596602
 30
0.0
 10
-116.3904976041
 20
22.4421464768
 30
0.0
 10
-116.2444357915
 20
22.2679454782
 30
0.0
  0
SPLINE
  5
3D9
100
AcDbEntity
  8
0
100
AcDbSpline
 62
7
  6
CONTINUOUS
 70
0
 71
3
 72
9
 73
5
 74
0
 42
0.0000001
 43
0.0000001
 44
0.0000000001
 40
0.0
 40
0.0
 40
0.0
 40
0.0
 40
0.2358732572
 40
1.0
 40
1.0
 40
1.0
 40
1.0
 10
-115.8776599848
 20
21.8231018218
 30
0.0
 10
-115.8078613973
 20
21.7371529787
 30
0.0
 10
-115.5133605979
 20
21.3716183761
 30
0.0
 10
-115.2239380502
 20
21.002011015
 30
0.0
 10
-115.0047658537
 20
20.7180751793
 30
0.0
  0
SPLINE
  5
3DA
100
AcDbEntity
  8
0
100
AcDbSpline
 62
7
  6
CONTINUOUS
 70
0
 71
3
 72
27
 73
23
 74
0
 42
0.0000001
 43
0.0000001
 44
0.0000000001
 40
0.0
 40
0.0
 40
0.0
 40
0.0
 40
0.2390316652
 40
0.3624569647
 40
0.4881327688
 40
0.5516740182
 40
0.6155665145
 40
0.6796713074
 40
0.7437691339
 40
0.775706281
 40
0.8074751279
 40
0.8389619476
 40
0.8699822252
 40
0.9001986269
 40
0.9288528167
 40
0.9419845608
 40
0.947963529
 40
0.9532485556
 40
0.9573703482
 40
0.968558472
 40
0.985604503
 40
1.0
 40
1.0
 40
1.0
 40
1.0
 10
-114.5237519583
 20
20.2565663045
 30
0.0
 10
-114.4312846806
 20
20.1389125857
 30
0.0
 10
-114.2926123872
 20
19.9592899226
 30
0.0
 10
-114.1088128315
 20
19.7151540615
 30
0.0
 10
-113.9924464104
 20
19.5577750993
 30
0.0
 10
-113.8991889813
 20
19.4296690727
 30
0.0
 10
-113.8291652658
 20
19.3323288698
 30
0.0
 10
-113.7595896665
 20
19.2342401911
 30
0.0
 10
-113.7022708675
 20
19.1519873152
 30
0.0
 10
-113.6570990142
 20
19.0859489767
 30
0.0
 10
-113.6238102001
 20
19.0365183346
 30
0.0
 10
-113.591298499
 20
18.9872606433
 30
0.0
 10
-113.5599514921
 20
18.9383967002
 30
0.0
 10
-113.5304678785
 20
18.8904763305
 30
0.0
 10
-113.5082138333
 20
18.8512039581
 30
0.0
 10
-113.4949595105
 20
18.8244573552
 30
0.0
 10
-113.4896142804
 20
18.8099874399
 30
0.0
 10
-113.4865935365
 20
18.801210281
 30
0.0
 10
-113.4884737225
 20
18.785640327
 30
0.0
 10
-113.5157900736
 20
18.8022380536
 30
0.0
 10
-113.5321801895
 20
18.8158593477
 30
0.0
 10
-113.5478583323
 20
18.8296254034
 30
0.0
 10
-113.5545299125
 20
18.835684034
 30
0.0
  0
SPLINE
  5
3DB
100
AcDbEntity
  8
0
100
AcDbSpline
 62
7
  6
CONTINUOUS
 70
0
 71
3
 72
14
 73
10
 74
0
 42
0.0000001
 43
0.0000001
 44
0.0000000001
 40
0.0
 40
0.0
 40
0.0
 40
0.0
 40
0.3300763647
 40
0.4838175628
 40
0.6262848355
 40
0.7520381447
 40
0.8500143163
 40
0.8949182456
 40
1.0
 40
1.0
 40
1.0
 40
1.0
 10
-126.5237024628
 20
28.3925492632
 30
0.0
 10
-126.5298289584
 20
28.3945023547
 30
0.0
 10
-126.5388095351
 20
28.3973247634
 30
0.0
 10
-126.5505497958
 20
28.4007592949
 30
0.0
 10
-126.5583662314
 20
28.403027628
 30
0.0
 10
-126.56559552
 20
28.4045909422
 30
0.0
 10
-126.5699850628
 20
28.4060597704
 30
0.0
 10
-126.5765757189
 20
28.4053930043
 30
0.0
 10
-126.5710487698
 20
28.4025904613
 30
0.0
 10
-126.5692708087
 20
28.4015757959
 30
0.0
  0
SPLINE
  5
3DC
100
AcDbEntity
  8
0
100
AcDbSpline
 62
7
  6
CONTINUOUS
 70
0
 71
3
 72
8
 73
4
 74
0
 42
0.0000001
 43
0.0000001
 44
0.0000000001
 40
0.0
 40
0.0
 40
0.0
 40
0.0
 40
1.0
 40
1.0
 40
1.0
 40
1.0
 10
-137.1520045805
 20
29.0233012236
 30
0.0
 10
-137.0278590142
 20
29.0582940599
 30
0.0
 10
-136.9034540949
 20
29.0923602641
 30
0.0
 10
-136.779151382
 20
29.1267907126
 30
0.0
  0
SPLINE
  5
3DD
100
AcDbEntity
  8
0
100
AcDbSpline
 62
7
  6
CONTINUOUS
 70
0
 71
3
 72
9
 73
5
 74
0
 42
0.0000001
 43
0.0000001
 44
0.0000000001
 40
0.0
 40
0.0
 40
0.0
 40
0.0
 40
0.2539421968
 40
1.0
 40
1.0
 40
1.0
 40
1.0
 10
-133.1917298229
 20
29.8767858223
 30
0.0
 10
-132.7661716827
 20
29.9397293054
 30
0.0
 10
-131.0853143565
 20
30.151620183
 30
0.0
 10
-129.3853194916
 20
30.2162926439
 30
0.0
 10
-128.1221635508
 20
30.1743917778
 30
0.0
  0
SPLINE
  5
3DE
100
AcDbEntity
  8
0
100
AcDbSpline
 62
7
  6
CONTINUOUS
 70
0
 71
3
 72
9
 73
5
 74
0
 42
0.0000001
 43
0.0000001
 44
0.0000000001
 40
0.0
 40
0.0
 40
0.0
 40
0.0
 40
0.2299005413
 40
1.0
 40
1.0
 40
1.0
 40
1.0
 10
-128.1221635508
 20
30.1743917778
 30
0.0
 10
-128.1428708954
 20
30.0863126268
 30
0.0
 10
-128.2164134599
 20
29.6992893394
 30
0.0
 10
-128.2314082467
 20
29.302948561
 30
0.0
 10
-128.2232694888
 20
28.9999745035
 30
0.0
  0
SPLINE
  5
3DF
100
AcDbEntity
  8
0
100
AcDbSpline
 62
7
  6
CONTINUOUS
 70
0
 71
3
 72
13
 73
9
 74
0
 42
0.0000001
 43
0.0000001
 44
0.0000000001
 40
0.0
 40
0.0
 40
0.0
 40
0.0
 40
0.0939506743
 40
0.1971145809
 40
0.4301564342
 40
0.5602658411
 40
0.6990256075
 40
1.0
 40
1.0
 40
1.0
 40
1.0
 10
-128.2232694888
 20
28.9999745035
 30
0.0
 10
-128.2168891822
 20
28.7624606963
 30
0.0
 10
-128.1773392782
 20
28.2647195224
 30
0.0
 10
-128.0091705826
 20
27.1894237929
 30
0.0
 10
-127.7194324865
 20
26.0425814093
 30
0.0
 10
-127.2974265693
 20
24.8449318057
 30
0.0
 10
-126.7507787471
 20
23.511004815
 30
0.0
 10
-126.2657297379
 20
22.5089493204
 30
0.0
 10
-125.9156351371
 20
21.8330823574
 30
0.0
  0
SPLINE
  5
3E0
100
AcDbEntity
  8
0
100
AcDbSpline
 62
7
  6
CONTINUOUS
 70
0
 71
3
 72
9
 73
5
 74
0
 42
0.0000001
 43
0.0000001
 44
0.0000000001
 40
0.0
 40
0.0
 40
0.0
 40
0.0
 40
0.2401270909
 40
1.0
 40
1.0
 40
1.0
 40
1.0
 10
-125.9156351371
 20
21.8330823574
 30
0.0
 10
-125.7997030462
 20
21.6127456568
 30
0.0
 10
-125.3063724824
 20
20.7007218575
 30
0.0
 10
-124.7735346607
 20
19.8102561644
 30
0.0
 10
-124.3508630213
 20
19.1453575051
 30
0.0
  0
SPLINE
  5
3E1
100
AcDbEntity
  8
0
100
AcDbSpline
 62
7
  6
CONTINUOUS
 70
0
 71
3
 72
12
 73
8
 74
0
 42
0.0000001
 43
0.0000001
 44
0.0000000001
 40
0.0
 40
0.0
 40
0.0
 40
0.0
 40
0.2028469169
 40
0.4385944547
 40
0.56792852
 40
0.7049679142
 40
1.0
 40
1.0
 40
1.0
 40
1.0
 10
-127.1847459422
 20
26.6300347073
 30
0.0
 10
-127.105146365
 20
26.2785730215
 30
0.0
 10
-126.9111214635
 20
25.5233758405
 30
0.0
 10
-126.6001999548
 20
24.5630584979
 30
0.0
 10
-126.3009136613
 20
23.7226484893
 30
0.0
 10
-125.9345785342
 20
22.7948584961
 30
0.0
 10
-125.6285418848
 20
22.0906177177
 30
0.0
 10
-125.4104843984
 20
21.6139988317
 30
0.0
  0
SPLINE
  5
3E2
100
AcDbEntity
  8
0
100
AcDbSpline
 62
7
  6
CONTINUOUS
 70
0
 71
3
 72
32
 73
28
 74
0
 42
0.0000001
 43
0.0000001
 44
0.0000000001
 40
0.0
 40
0.0
 40
0.0
 40
0.0
 40
0.2395371354
 40
0.3621002566
 40
0.4863791873
 40
0.5491094668
 40
0.6121923255
 40
0.675581147
 40
0.7392049399
 40
0.771070683
 40
0.8029436596
 40
0.8347900638
 40
0.8665566554
 40
0.8981501312
 40
0.9138298488
 40
0.9293782066
 40
0.9447156675
 40
0.9522619689
 40
0.9596839402
 40
0.9633411335
 40
0.9669766483
 40
0.9707529591
 40
0.9763429087
 40
0.983024056
 40
0.9888976264
 40
0.9943862323
 40
1.0
 40
1.0
 40
1.0
 40
1.0
 10
-125.4104843984
 20
21.6139988317
 30
0.0
 10
-125.3164487399
 20
21.4084605056
 30
0.0
 10
-125.1717605264
 20
21.0989114587
 30
0.0
 10
-124.973499933
 20
20.684993858
 30
0.0
 10
-124.8460645695
 20
20.4221420138
 30
0.0
 10
-124.7427792463
 20
20.2099573352
 30
0.0
 10
-124.6646453336
 20
20.0494311318
 30
0.0
 10
-124.5863919654
 20
19.8880256116
 30
0.0
 10
-124.5215134844
 20
19.7528717892
 30
0.0
 10
-124.4701652851
 20
19.6442133882
 30
0.0
 10
-124.432107428
 20
19.5624407946
 30
0.0
 10
-124.3947760178
 20
19.4804355585
 30
0.0
 10
-124.3585881998
 20
19.3982065501
 30
0.0
 10
-124.3298959915
 20
19.3293529732
 30
0.0
 10
-124.3085959231
 20
19.2740270504
 30
0.0
 10
-124.293947278
 20
19.2325965021
 30
0.0
 10
-124.283332441
 20
19.1978907554
 30
0.0
 10
-124.2768241455
 20
19.1700263631
 30
0.0
 10
-124.2740846348
 20
19.1526499422
 30
0.0
 10
-124.2735018732
 20
19.1387049954
 30
0.0
 10
-124.2744495195
 20
19.1284107279
 30
0.0
 10
-124.2786742126
 20
19.1159279986
 30
0.0
 10
-124.2960078887
 20
19.1117255596
 30
0.0
 10
-124.3115592198
 20
19.1195164007
 30
0.0
 10
-124.3263970011
 20
19.1278320019
 30
0.0
 10
-124.3388923659
 20
19.1379417133
 30
0.0
 10
-124.3481559382
 20
19.1430013648
 30
0.0
 10
-124.3522469097
 20
19.1463664769
 30
0.0
  0
SPLINE
  5
3E3
100
AcDbEntity
  8
0
100
AcDbSpline
 62
7
  6
CONTINUOUS
 70
0
 71
3
 72
9
 73
5
 74
0
 42
0.0000001
 43
0.0000001
 44
0.0000000001
 40
0.0
 40
0.0
 40
0.0
 40
0.0
 40
0.2613411961
 40
1.0
 40
1.0
 40
1.0
 40
1.0
 10
-127.3952538753
 20
28.7722234163
 30
0.0
 10
-127.39187051
 20
28.8186711117
 30
0.0
 10
-127.3763332204
 20
28.9961869044
 30
0.0
 10
-127.3500520098
 20
29.1728704674
 30
0.0
 10
-127.3231311662
 20
29.3017164263
 30
0.0
  0
SPLINE
  5
3E4
100
AcDbEntity
  8
0
100
AcDbSpline
 62
7
  6
CONTINUOUS
 70
0
 71
3
 72
9
 73
5
 74
0
 42
0.0000001
 43
0.0000001
 44
0.0000000001
 40
0.0
 40
0.0
 40
0.0
 40
0.0
 40
0.2572047
 40
1.0
 40
1.0
 40
1.0
 40
1.0
 10
-127.4045552506
 20
28.2349020622
 30
0.0
 10
-127.4040246323
 20
28.2431294461
 30
0.0
 10
-127.4017585448
 20
28.2751034452
 30
0.0
 10
-127.3986616187
 20
28.3070206546
 30
0.0
 10
-127.395821271
 20
28.3306602987
 30
0.0
  0
SPLINE
  5
3E5
100
AcDbEntity
  8
0
100
AcDbSpline
 62
7
  6
CONTINUOUS
 70
0
 71
3
 72
9
 73
5
 74
0
 42
0.0000001
 43
0.0000001
 44
0.0000000001
 40
0.0
 40
0.0
 40
0.0
 40
0.0
 40
0.2765994598
 40
1.0
 40
1.0
 40
1.0
 40
1.0
 10
-127.3883760853
 20
28.3843392106
 30
0.0
 10
-127.3848883252
 20
28.4063800692
 30
0.0
 10
-127.3702983291
 20
28.4856727643
 30
0.0
 10
-127.3472589603
 20
28.5638909004
 30
0.0
 10
-127.3230468602
 20
28.6169930545
 30
0.0
  0
SPLINE
  5
3E6
100
AcDbEntity
  8
0
100
AcDbSpline
 62
7
  6
CONTINUOUS
 70
0
 71
3
 72
14
 73
10
 74
0
 42
0.0000001
 43
0.0000001
 44
0.0000000001
 40
0.0
 40
0.0
 40
0.0
 40
0.0
 40
0.0466917368
 40
0.1048813896
 40
0.1893308143
 40
0.3036172334
 40
0.4469487685
 40
0.6149097447
 40
1.0
 40
1.0
 40
1.0
 40
1.0
 10
-157.7457654446
 20
-16.0336941616
 30
0.0
 10
-157.7430582592
 20
-16.027771142
 30
0.0
 10
-157.7314957262
 20
-16.0164207715
 30
0.0
 10
-157.7036786027
 20
-16.015643264
 30
0.0
 10
-157.6692733541
 20
-16.0256148471
 30
0.0
 10
-157.6260658625
 20
-16.0464220536
 30
0.0
 10
-157.5757010487
 20
-16.0779033303
 30
0.0
 10
-157.4971608958
 20
-16.1351622769
 30
0.0
 10
-157.4387333531
 20
-16.1857471679
 30
0.0
 10
-157.399368084
 20
-16.2222879449
 30
0.0
  0
SPLINE
  5
3E7
100
AcDbEntity
  8
0
100
AcDbSpline
 62
7
  6
CONTINUOUS
 70
0
 71
3
 72
20
 73
16
 74
0
 42
0.0000001
 43
0.0000001
 44
0.0000000001
 40
0.0
 40
0.0
 40
0.0
 40
0.0
 40
0.2628588493
 40
0.3936063919
 40
0.5235964574
 40
0.6523879186
 40
0.7790728332
 40
0.8409947199
 40
0.9011061777
 40
0.9300241558
 40
0.9573086031
 40
0.9701697329
 40
0.9819934081
 40
0.9911544044
 40
1.0
 40
1.0
 40
1.0
 40
1.0
 10
-137.2399185313
 20
29.0594404002
 30
0.0
 10
-137.3202097176
 20
29.0368936581
 30
0.0
 10
-137.4401245877
 20
29.0019911521
 30
0.0
 10
-137.5988137034
 20
28.9528499049
 30
0.0
 10
-137.7163825446
 20
28.9147442564
 30
0.0
 10
-137.8321028568
 20
28.8751639718
 30
0.0
 10
-137.9266686996
 20
28.8405128935
 30
0.0
 10
-137.9999898968
 20
28.811315669
 30
0.0
 10
-138.0439235933
 20
28.7922431223
 30
0.0
 10
-138.0772263711
 20
28.776280799
 30
0.0
 10
-138.0963801201
 20
28.7656924426
 30
0.0
 10
-138.1103008447
 20
28.7566650956
 30
0.0
 10
-138.1188965971
 20
28.7506525551
 30
0.0
 10
-138.125284674
 20
28.7421815033
 30
0.0
 10
-138.1221288983
 20
28.7361191107
 30
0.0
 10
-138.1201333566
 20
28.7341458255
 30
0.0
  0
SPLINE
  5
3E8
100
AcDbEntity
  8
0
100
AcDbSpline
 62
7
  6
CONTINUOUS
 70
0
 71
3
 72
11
 73
7
 74
0
 42
0.0000001
 43
0.0000001
 44
0.0000000001
 40
0.0
 40
0.0
 40
0.0
 40
0.0
 40
0.2355867907
 40
0.4634132808
 40
0.7136183517
 40
1.0
 40
1.0
 40
1.0
 40
1.0
 10
-158.7386838124
 20
9.4255574225
 30
0.0
 10
-158.708017519
 20
9.4338527961
 30
0.0
 10
-158.6431256911
 20
9.4391013146
 30
0.0
 10
-158.5520245647
 20
9.3969459575
 30
0.0
 10
-158.4873298813
 20
9.3129891151
 30
0.0
 10
-158.4637470972
 20
9.2435561033
 30
0.0
 10
-158.4554204653
 20
9.2058464087
 30
0.0
  0
SPLINE
  5
3E9
100
AcDbEntity
  8
0
100
AcDbSpline
 62
7
  6
CONTINUOUS
 70
0
 71
3
 72
11
 73
7
 74
0
 42
0.0000001
 43
0.0000001
 44
0.0000000001
 40
0.0
 40
0.0
 40
0.0
 40
0.0
 40
0.211949308
 40
0.4554808469
 40
0.7250521232
 40
1.0
 40
1.0
 40
1.0
 40
1.0
 10
-159.3711884854
 20
9.254963621
 30
0.0
 10
-159.3443313304
 20
9.2622310808
 30
0.0
 10
-159.2809340095
 20
9.2580463964
 30
0.0
 10
-159.1978749516
 20
9.2076169202
 30
0.0
 10
-159.1264613048
 20
9.1317869848
 30
0.0
 10
-159.0874323056
 20
9.0714934159
 30
0.0
 10
-159.0699827914
 20
9.039898782
 30
0.0
  0
SPLINE
  5
3EA
100
AcDbEntity
  8
0
100
AcDbSpline
 62
7
  6
CONTINUOUS
 70
0
 71
3
 72
21
 73
17
 74
0
 42
0.0000001
 43
0.0000001
 44
0.0000000001
 40
0.0
 40
0.0
 40
0.0
 40
0.0
 40
0.1268767017
 40
0.2538125094
 40
0.3807648488
 40
0.5076633946
 40
0.6343810858
 40
0.6976001048
 40
0.7606521875
 40
0.823429169
 40
0.8857031739
 40
0.9164898929
 40
0.9468137299
 40
0.9760842687
 40
0.9896043333
 40
1.0
 40
1.0
 40
1.0
 40
1.0
 10
-148.325157678
 20
23.5770638607
 30
0.0
 10
-148.3868000911
 20
23.5218114503
 30
0.0
 10
-148.5094870744
 20
23.410579354
 30
0.0
 10
-148.6915535597
 20
23.2415471367
 30
0.0
 10
-148.871494557
 20
23.0702312526
 30
0.0
 10
-149.0489548541
 20
22.8965486697
 30
0.0
 10
-149.1943877796
 20
22.7496247548
 30
0.0
 10
-149.3087061327
 20
22.6305509804
 30
0.0
 10
-149.3930322004
 20
22.5405385676
 30
0.0
 10
-149.4755015541
 20
22.4496063175
 30
0.0
 10
-149.5421432275
 20
22.3729032733
 30
0.0
 10
-149.5930382834
 20
22.3102946033
 30
0.0
 10
-149.6288620509
 20
22.2641057993
 30
0.0
 10
-149.6555839109
 20
22.2225331848
 30
0.0
 10
-149.6715026377
 20
22.1951019767
 30
0.0
 10
-149.6738946216
 20
22.1734746998
 30
0.0
 10
-149.6678461154
 20
22.1704055377
 30
0.0
  0
SPLINE
  5
3EB
100
AcDbEntity
  8
0
100
AcDbSpline
 62
7
  6
CONTINUOUS
 70
0
 71
3
 72
9
 73
5
 74
0
 42
0.0000001
 43
0.0000001
 44
0.0000000001
 40
0.0
 40
0.0
 40
0.0
 40
0.0
 40
0.4346281072
 40
1.0
 40
1.0
 40
1.0
 40
1.0
 10
-140.5875616118
 20
29.159680621
 30
0.0
 10
-140.5690753061
 20
29.1701831582
 30
0.0
 10
-140.5161712416
 20
29.1749137614
 30
0.0
 10
-140.470883257
 20
29.1538845579
 30
0.0
 10
-140.4469229528
 20
29.1400706465
 30
0.0
  0
SPLINE
  5
3EC
100
AcDbEntity
  8
0
100
AcDbSpline
 62
7
  6
CONTINUOUS
 70
0
 71
3
 72
20
 73
16
 74
0
 42
0.0000001
 43
0.0000001
 44
0.0000000001
 40
0.0
 40
0.0
 40
0.0
 40
0.0
 40
0.0528271593
 40
0.1056441453
 40
0.1592735834
 40
0.2144373973
 40
0.2716734166
 40
0.3312938214
 40
0.3933825758
 40
0.4578104069
 40
0.5920791045
 40
0.7304388916
 40
0.7997170292
 40
0.8681463623
 40
1.0
 40
1.0
 40
1.0
 40
1.0
 10
-108.7527974805
 20
15.9259207123
 30
0.0
 10
-109.4882804061
 20
16.5681426249
 30
0.0
 10
-111.0866851328
 20
17.7148138815
 30
0.0
 10
-113.7835484035
 20
18.9391839229
 30
0.0
 10
-116.7071460882
 20
19.634303706
 30
0.0
 10
-119.7883495019
 20
19.7863478373
 30
0.0
 10
-122.9583780375
 20
19.3959958387
 30
0.0
 10
-126.1482987549
 20
18.4753042885
 30
0.0
 10
-129.2907101212
 20
17.0467157245
 30
0.0
 10
-133.3814006472
 20
14.4743077163
 30
0.0
 10
-137.9818658696
 20
10.178986375
 30
0.0
 10
-141.5452691535
 20
4.8940758011
 30
0.0
 10
-143.6620036899
 20
0.2399747337
 30
0.0
 10
-145.2014269476
 20
-4.5053216154
 30
0.0
 10
-145.7270517222
 20
-8.2198111465
 30
0.0
 10
-145.7415028715
 20
-10.6568428516
 30
0.0
  0
SPLINE
  5
3ED
100
AcDbEntity
  8
0
100
AcDbSpline
 62
7
  6
CONTINUOUS
 70
0
 71
3
 72
10
 73
6
 74
0
 42
0.0000001
 43
0.0000001
 44
0.0000000001
 40
0.0
 40
0.0
 40
0.0
 40
0.0
 40
0.4065486703
 40
0.6982565264
 40
1.0
 40
1.0
 40
1.0
 40
1.0
 10
-148.9098480826
 20
-23.3204596027
 30
0.0
 10
-148.9097690819
 20
-23.3756004646
 30
0.0
 10
-148.8113979746
 20
-23.4467582727
 30
0.0
 10
-148.6883359677
 20
-23.4860621326
 30
0.0
 10
-148.60777317
 20
-23.5017647193
 30
0.0
 10
-148.567190258
 20
-23.5070529149
 30
0.0
  0
SPLINE
  5
3EE
100
AcDbEntity
  8
0
100
AcDbSpline
 62
7
  6
CONTINUOUS
 70
0
 71
3
 72
13
 73
9
 74
0
 42
0.0000001
 43
0.0000001
 44
0.0000000001
 40
0.0
 40
0.0
 40
0.0
 40
0.0
 40
0.2471674012
 40
0.4960591943
 40
0.6213907008
 40
0.7472571138
 40
0.873484291
 40
1.0
 40
1.0
 40
1.0
 40
1.0
 10
-152.1472546782
 20
21.1001587659
 30
0.0
 10
-152.0475495823
 20
20.1211962997
 30
0.0
 10
-151.731409535
 20
18.1668458942
 30
0.0
 10
-151.0824522614
 20
15.7755943644
 30
0.0
 10
-150.4325944063
 20
13.8931505365
 30
0.0
 10
-149.8803574956
 20
12.4951145882
 30
0.0
 10
-149.260881677
 20
11.1203431293
 30
0.0
 10
-148.8028718679
 20
10.2239030706
 30
0.0
 10
-148.5637573719
 20
9.7805926011
 30
0.0
  0
SPLINE
  5
3EF
100
AcDbEntity
  8
0
100
AcDbSpline
 62
7
  6
CONTINUOUS
 70
0
 71
3
 72
9
 73
5
 74
0
 42
0.0000001
 43
0.0000001
 44
0.0000000001
 40
0.0
 40
0.0
 40
0.0
 40
0.0
 40
0.248978427
 40
1.0
 40
1.0
 40
1.0
 40
1.0
 10
-148.5637573719
 20
9.7805926011
 30
0.0
 10
-148.3596576212
 20
9.4021983264
 30
0.0
 10
-147.510842019
 20
7.8981565582
 30
0.0
 10
-146.555647115
 20
6.4550655575
 30
0.0
 10
-145.7924127438
 20
5.4066022921
 30
0.0
  0
LINE
  5
3F0
100
AcDbEntity
  8
0
100
AcDbLine
 62
7
  6
CONTINUOUS
 10
-157.6594013798
 20
11.5400655489
 11
-157.4751745529
 21
11.9519812802
  0
SPLINE
  5
3F1
100
AcDbEntity
  8
0
100
AcDbSpline
 62
7
  6
CONTINUOUS
 70
0
 71
3
 72
41
 73
37
 74
0
 42
0.0000001
 43
0.0000001
 44
0.0000000001
 40
0.0
 40
0.0
 40
0.0
 40
0.0
 40
0.1186884955
 40
0.2395825069
 40
0.3623901793
 40
0.4244410724
 40
0.4868829804
 40
0.5496940532
 40
0.6128553599
 40
0.6763512381
 40
0.7401708795
 40
0.7722022405
 40
0.8043160282
 40
0.8365158094
 40
0.8688084207
 40
0.9012073036
 40
0.917454644
 40
0.9337421812
 40
0.9419045296
 40
0.9500823226
 40
0.9582793219
 40
0.9665017053
 40
0.9706256546
 40
0.9747610025
 40
0.9789114782
 40
0.9830835813
 40
0.987290614
 40
0.9894167608
 40
0.9915706939
 40
0.9937834385
 40
0.9949504147
 40
0.9955740606
 40
0.9961733426
 40
0.9980789053
 40
0.9990331034
 40
1.0
 40
1.0
 40
1.0
 40
1.0
 10
-149.8988070822
 20
16.314934593
 30
0.0
 10
-149.7600439555
 20
15.6959420467
 30
0.0
 10
-149.4421084712
 20
14.4545860487
 30
0.0
 10
-148.8480322934
 20
12.609899384
 30
0.0
 10
-148.2531660511
 20
11.0866833966
 30
0.0
 10
-147.7176929176
 20
9.8780892678
 30
0.0
 10
-147.2851802367
 20
8.9750894473
 30
0.0
 10
-146.8238744983
 20
8.0797897983
 30
0.0
 10
-146.3345178218
 20
7.1930714493
 30
0.0
 10
-145.8179815362
 20
6.3156562815
 30
0.0
 10
-145.3662415373
 20
5.5935477852
 30
0.0
 10
-144.9925359534
 20
5.0207219283
 30
0.0
 10
-144.7059750905
 20
4.5928730741
 30
0.0
 10
-144.413806742
 20
4.167142557
 30
0.0
 10
-144.1164758181
 20
3.7431416476
 30
0.0
 10
-143.8651918981
 20
3.3910094288
 30
0.0
 10
-143.6626649468
 20
3.1091798636
 30
0.0
 10
-143.5356579654
 20
2.9325956521
 30
0.0
 10
-143.4341113726
 20
2.7908260808
 30
0.0
 10
-143.3580199885
 20
2.684013649
 30
0.0
 10
-143.2822119086
 20
2.5766067295
 30
0.0
 10
-143.2195430601
 20
2.486447529
 30
0.0
 10
-143.1699371544
 20
2.4136519357
 30
0.0
 10
-143.1330499007
 20
2.3585276656
 30
0.0
 10
-143.0966664602
 20
2.3027605037
 30
0.0
 10
-143.0610437164
 20
2.2460491552
 30
0.0
 10
-143.0324715151
 20
2.1977003811
 30
0.0
 10
-143.0109357836
 20
2.157759667
 30
0.0
 10
-142.9958340104
 20
2.12652268
 30
0.0
 10
-142.98493002
 20
2.0989005605
 30
0.0
 10
-142.9806749052
 20
2.0778234939
 30
0.0
 10
-142.9815683433
 20
2.0647740713
 30
0.0
 10
-142.9930694083
 20
2.0504222549
 30
0.0
 10
-143.0147060745
 20
2.0588184858
 30
0.0
 10
-143.0339341981
 20
2.0642372561
 30
0.0
 10
-143.041310582
 20
2.072167511
 30
0.0
 10
-143.0458875502
 20
2.0745669541
 30
0.0
  0
SPLINE
  5
3F2
100
AcDbEntity
  8
0
100
AcDbSpline
 62
7
  6
CONTINUOUS
 70
0
 71
3
 72
11
 73
7
 74
0
 42
0.0000001
 43
0.0000001
 44
0.0000000001
 40
0.0
 40
0.0
 40
0.0
 40
0.0
 40
0.1868464265
 40
0.4148625198
 40
0.6897561259
 40
1.0
 40
1.0
 40
1.0
 40
1.0
 10
-157.7573098581
 20
-17.9349103392
 30
0.0
 10
-157.806626891
 20
-17.8874080162
 30
0.0
 10
-157.8824126467
 20
-17.7472087253
 30
0.0
 10
-157.9051592879
 20
-17.4913364142
 30
0.0
 10
-157.8477768313
 20
-17.196059645
 30
0.0
 10
-157.7627573978
 20
-16.9970680204
 30
0.0
 10
-157.7065246171
 20
-16.8982527476
 30
0.0
  0
SPLINE
  5
3F3
100
AcDbEntity
  8
0
100
AcDbSpline
 62
7
  6
CONTINUOUS
 70
0
 71
3
 72
9
 73
5
 74
0
 42
0.0000001
 43
0.0000001
 44
0.0000000001
 40
0.0
 40
0.0
 40
0.0
 40
0.0
 40
0.5095746641
 40
1.0
 40
1.0
 40
1.0
 40
1.0
 10
-152.1085103006
 20
-20.4436540048
 30
0.0
 10
-150.1061485764
 20
-21.8243018031
 30
0.0
 10
-145.9955619037
 20
-24.2781623697
 30
0.0
 10
-141.6374178639
 20
-26.2468589854
 30
0.0
 10
-139.4597725787
 20
-27.1054902003
 30
0.0
  0
SPLINE
  5
3F4
100
AcDbEntity
  8
0
100
AcDbSpline
 62
7
  6
CONTINUOUS
 70
0
 71
3
 72
9
 73
5
 74
0
 42
0.0000001
 43
0.0000001
 44
0.0000000001
 40
0.0
 40
0.0
 40
0.0
 40
0.0
 40
0.3052376284
 40
1.0
 40
1.0
 40
1.0
 40
1.0
 10
-135.580590459
 20
-28.5119680186
 30
0.0
 10
-135.5355830152
 20
-28.5269813793
 30
0.0
 10
-135.4331176224
 20
-28.5611191379
 30
0.0
 10
-135.0356037035
 20
-28.6929741759
 30
0.0
 10
-135.1389276153
 20
-28.6615654612
 30
0.0
  0
SPLINE
  5
3F5
100
AcDbEntity
  8
0
100
AcDbSpline
 62
7
  6
CONTINUOUS
 70
0
 71
3
 72
10
 73
6
 74
0
 42
0.0000001
 43
0.0000001
 44
0.0000000001
 40
0.0
 40
0.0
 40
0.0
 40
0.0
 40
0.268270474
 40
0.5322121318
 40
1.0
 40
1.0
 40
1.0
 40
1.0
 10
-152.1473640675
 20
21.1009773777
 30
0.0
 10
-152.0620615532
 20
21.1818781954
 30
0.0
 10
-151.8702774269
 20
21.3205057823
 30
0.0
 10
-151.4696309254
 20
21.4948196741
 30
0.0
 10
-151.1145072879
 20
21.5057920061
 30
0.0
 10
-150.9287507985
 20
21.419077698
 30
0.0
  0
SPLINE
  5
3F6
100
AcDbEntity
  8
0
100
AcDbSpline
 62
7
  6
CONTINUOUS
 70
0
 71
3
 72
9
 73
5
 74
0
 42
0.0000001
 43
0.0000001
 44
0.0000000001
 40
0.0
 40
0.0
 40
0.0
 40
0.0
 40
0.2516784181
 40
1.0
 40
1.0
 40
1.0
 40
1.0
 10
-149.8987153803
 20
16.3150177571
 30
0.0
 10
-150.0243021683
 20
16.7337744158
 30
0.0
 10
-150.4860779916
 20
18.4084686582
 30
0.0
 10
-150.7949873696
 20
20.1260932295
 30
0.0
 10
-150.928751045
 20
21.4190800809
 30
0.0
  0
SPLINE
  5
3F7
100
AcDbEntity
  8
0
100
AcDbSpline
 62
7
  6
CONTINUOUS
 70
0
 71
3
 72
12
 73
8
 74
0
 42
0.0000001
 43
0.0000001
 44
0.0000000001
 40
0.0
 40
0.0
 40
0.0
 40
0.0
 40
0.2531968857
 40
0.5042290595
 40
0.6291348366
 40
0.7535092365
 40
1.0
 40
1.0
 40
1.0
 40
1.0
 10
-160.0877314041
 20
8.209141406
 30
0.0
 10
-159.6665649792
 20
7.0555431031
 30
0.0
 10
-158.7086218582
 20
4.8001742793
 30
0.0
 10
-157.2560597107
 20
2.1121500839
 30
0.0
 10
-155.9718315455
 20
0.0524718309
 30
0.0
 10
-154.6158515731
 20
-1.9340568577
 30
0.0
 10
-153.5025454897
 20
-3.3506859542
 30
0.0
 10
-152.7257080183
 20
-4.2594551952
 30
0.0
  0
SPLINE
  5
3F8
100
AcDbEntity
  8
0
100
AcDbSpline
 62
7
  6
CONTINUOUS
 70
0
 71
3
 72
9
 73
5
 74
0
 42
0.0000001
 43
0.0000001
 44
0.0000000001
 40
0.0
 40
0.0
 40
0.0
 40
0.0
 40
0.2512139981
 40
1.0
 40
1.0
 40
1.0
 40
1.0
 10
-152.7257080183
 20
-4.2594551952
 30
0.0
 10
-152.4651751449
 20
-4.5642348567
 30
0.0
 10
-151.4116497852
 20
-5.7633604399
 30
0.0
 10
-150.2960834328
 20
-6.9076578654
 30
0.0
 10
-149.4321973993
 20
-7.7335072466
 30
0.0
  0
SPLINE
  5
3F9
100
AcDbEntity
  8
0
100
AcDbSpline
 62
7
  6
CONTINUOUS
 70
0
 71
3
 72
9
 73
5
 74
0
 42
0.0000001
 43
0.0000001
 44
0.0000000001
 40
0.0
 40
0.0
 40
0.0
 40
0.0
 40
0.2451448089
 40
1.0
 40
1.0
 40
1.0
 40
1.0
 10
-161.2410889693
 20
-1.5168040084
 30
0.0
 10
-161.2367486768
 20
-0.7155784537
 30
0.0
 10
-161.1236867672
 20
2.5518738272
 30
0.0
 10
-160.6378818282
 20
5.8040743883
 30
0.0
 10
-160.0877314041
 20
8.209141406
 30
0.0
  0
SPLINE
  5
3FA
100
AcDbEntity
  8
0
100
AcDbSpline
 62
7
  6
CONTINUOUS
 70
0
 71
3
 72
8
 73
4
 74
0
 42
0.0000001
 43
0.0000001
 44
0.0000000001
 40
0.0
 40
0.0
 40
0.0
 40
0.0
 40
1.0
 40
1.0
 40
1.0
 40
1.0
 10
-161.2388575185
 20
-2.1654195957
 30
0.0
 10
-161.2402181715
 20
-2.0267755054
 30
0.0
 10
-161.2406175744
 20
-1.8881235589
 30
0.0
 10
-161.2416896734
 20
-1.7494769369
 30
0.0
  0
SPLINE
  5
3FB
100
AcDbEntity
  8
0
100
AcDbSpline
 62
7
  6
CONTINUOUS
 70
0
 71
3
 72
41
 73
37
 74
0
 42
0.0000001
 43
0.0000001
 44
0.0000000001
 40
0.0
 40
0.0
 40
0.0
 40
0.0
 40
0.1248648669
 40
0.2499892615
 40
0.3751835956
 40
0.4377648185
 40
0.5003100194
 40
0.5628069274
 40
0.6252463326
 40
0.6876227836
 40
0.7499372802
 40
0.7810761399
 40
0.8122075189
 40
0.843338341
 40
0.8744802225
 40
0.9056541611
 40
0.9369038211
 40
0.9525874255
 40
0.9604556664
 40
0.9683510845
 40
0.9723129727
 40
0.976287763
 40
0.9802797019
 40
0.9842958008
 40
0.9883492594
 40
0.990398326
 40
0.9924718125
 40
0.9935225387
 40
0.9945875701
 40
0.9956744755
 40
0.9967926641
 40
0.9973343674
 40
0.9977253353
 40
0.9984409421
 40
0.9992188073
 40
1.0
 40
1.0
 40
1.0
 40
1.0
 10
-156.2973246867
 20
2.9931292469
 30
0.0
 10
-155.9877796336
 20
2.338541694
 30
0.0
 10
-155.3322167724
 20
1.0445868851
 30
0.0
 10
-154.2429627801
 20
-0.8399688741
 30
0.0
 10
-153.2499753959
 20
-2.3598158226
 30
0.0
 10
-152.4076166891
 20
-3.5421792642
 30
0.0
 10
-151.7528894054
 20
-4.4113254372
 30
0.0
 10
-151.0761325554
 20
-5.262363352
 30
0.0
 10
-150.3783050117
 20
-6.0949326007
 30
0.0
 10
-149.6604018633
 20
-6.9088331832
 30
0.0
 10
-149.0460991577
 20
-7.5716985233
 30
0.0
 10
-148.5457846697
 20
-8.0929054178
 30
0.0
 10
-148.1663228429
 20
-8.4794081312
 30
0.0
 10
-147.7827460229
 20
-8.8618490901
 30
0.0
 10
-147.3952574928
 20
-9.24067677
 30
0.0
 10
-147.0041131997
 20
-9.6167198613
 30
0.0
 10
-146.6757535002
 20
-9.9287072656
 30
0.0
 10
-146.4454895263
 20
-10.1477294286
 30
0.0
 10
-146.3138126388
 20
-10.2738924186
 30
0.0
 10
-146.2315691353
 20
-10.3533957418
 30
0.0
 10
-146.1659411151
 20
-10.4175991414
 30
0.0
 10
-146.1167606626
 20
-10.4662441983
 30
0.0
 10
-146.067730652
 20
-10.5154865218
 30
0.0
 10
-146.0189395312
 20
-10.56560465
 30
0.0
 10
-145.9787410247
 20
-10.6083588534
 30
0.0
 10
-145.9471166824
 20
-10.6436881969
 30
0.0
 10
-145.9276678939
 20
-10.6665341836
 30
0.0
 10
-145.9125339461
 20
-10.6855492561
 30
0.0
 10
-145.9014536239
 20
-10.7004345344
 30
0.0
 10
-145.8909254412
 20
-10.7163209281
 30
0.0
 10
-145.8836385587
 20
-10.7302543714
 30
0.0
 10
-145.8807094667
 20
-10.7425624852
 30
0.0
 10
-145.8868017196
 20
-10.7513524471
 30
0.0
 10
-145.899193949
 20
-10.750662088
 30
0.0
 10
-145.9113885
 20
-10.746959739
 30
0.0
 10
-145.9205856204
 20
-10.7458600296
 30
0.0
 10
-145.9248145204
 20
-10.744235734
 30
0.0
  0
SPLINE
  5
3FC
100
AcDbEntity
  8
0
100
AcDbSpline
 62
7
  6
CONTINUOUS
 70
0
 71
3
 72
11
 73
7
 74
0
 42
0.0000001
 43
0.0000001
 44
0.0000000001
 40
0.0
 40
0.0
 40
0.0
 40
0.0
 40
0.2432672693
 40
0.5010239916
 40
0.7590332882
 40
1.0
 40
1.0
 40
1.0
 40
1.0
 10
-160.0880829982
 20
8.210058913
 30
0.0
 10
-160.0431531339
 20
8.3104833546
 30
0.0
 10
-159.9202093661
 20
8.5038033614
 30
0.0
 10
-159.6803361482
 20
8.7525425075
 30
0.0
 10
-159.3928316895
 20
8.9426468598
 30
0.0
 10
-159.1773968768
 20
9.021672524
 30
0.0
 10
-159.0699563114
 20
9.0399054643
 30
0.0
  0
SPLINE
  5
3FD
100
AcDbEntity
  8
0
100
AcDbSpline
 62
7
  6
CONTINUOUS
 70
0
 71
3
 72
9
 73
5
 74
0
 42
0.0000001
 43
0.0000001
 44
0.0000000001
 40
0.0
 40
0.0
 40
0.0
 40
0.0
 40
0.2479507486
 40
1.0
 40
1.0
 40
1.0
 40
1.0
 10
-157.3475268483
 20
-9.9413625891
 30
0.0
 10
-157.7213148713
 20
-9.5553675317
 30
0.0
 10
-159.2039027631
 20
-7.9747521903
 30
0.0
 10
-160.5832618896
 20
-6.2967752993
 30
0.0
 10
-161.5507654511
 20
-4.9853233732
 30
0.0
  0
SPLINE
  5
3FE
100
AcDbEntity
  8
0
100
AcDbSpline
 62
7
  6
CONTINUOUS
 70
0
 71
3
 72
11
 73
7
 74
0
 42
0.0000001
 43
0.0000001
 44
0.0000000001
 40
0.0
 40
0.0
 40
0.0
 40
0.0
 40
0.2114060291
 40
0.456993997
 40
0.7262019382
 40
1.0
 40
1.0
 40
1.0
 40
1.0
 10
-162.1414656704
 20
-6.0780676539
 30
0.0
 10
-162.1471190762
 20
-5.9878796205
 30
0.0
 10
-162.1187099641
 20
-5.7907885206
 30
0.0
 10
-162.0021746744
 20
-5.5008699301
 30
0.0
 10
-161.8108050868
 20
-5.22064195
 30
0.0
 10
-161.6441134949
 20
-5.0559151333
 30
0.0
 10
-161.5507642992
 20
-4.9853249346
 30
0.0
  0
SPLINE
  5
3FF
100
AcDbEntity
  8
0
100
AcDbSpline
 62
7
  6
CONTINUOUS
 70
0
 71
3
 72
39
 73
35
 74
0
 42
0.0000001
 43
0.0000001
 44
0.0000000001
 40
0.0
 40
0.0
 40
0.0
 40
0.0
 40
0.12809254
 40
0.2555641682
 40
0.3822198484
 40
0.4451934013
 40
0.5079027594
 40
0.5703340071
 40
0.6324760626
 40
0.6943215599
 40
0.7558697022
 40
0.7865368412
 40
0.817138018
 40
0.8476810484
 40
0.8781792723
 40
0.908657093
 40
0.9391656288
 40
0.9544671075
 40
0.9621434463
 40
0.9698480879
 40
0.9737157085
 40
0.977597601
 40
0.9814987874
 40
0.9854276047
 40
0.989399906
 40
0.9934541615
 40
0.9955465622
 40
0.9966180087
 40
0.9971365686
 40
0.9974428431
 40
0.9976459176
 40
0.9979147296
 40
0.998551952
 40
1.0
 40
1.0
 40
1.0
 40
1.0
 10
-157.3474209002
 20
-9.9417679287
 30
0.0
 10
-156.8391088345
 20
-10.5681423496
 30
0.0
 10
-155.7922998115
 20
-11.7917612394
 30
0.0
 10
-154.1351625756
 20
-13.5389069077
 30
0.0
 10
-152.6889745136
 20
-14.9173410518
 30
0.0
 10
-151.498990763
 20
-15.9707460948
 30
0.0
 10
-150.5931723849
 20
-16.7344309635
 30
0.0
 10
-149.6736366192
 20
-17.4731888836
 30
0.0
 10
-148.7415513198
 20
-18.1871333703
 30
0.0
 10
-147.7980359314
 20
-18.8765031487
 30
0.0
 10
-147.0021310925
 20
-19.4314897485
 30
0.0
 10
-146.3607068249
 20
-19.8637120849
 30
0.0
 10
-145.8778961789
 20
-20.1818493878
 30
0.0
 10
-145.3928335093
 20
-20.4945807325
 30
0.0
 10
-144.9054926669
 20
-20.80229538
 30
0.0
 10
-144.4157012014
 20
-21.1056788224
 30
0.0
 10
-144.0054576176
 20
-21.3557108505
 30
0.0
 10
-143.7173723068
 20
-21.5302535805
 30
0.0
 10
-143.5521705056
 20
-21.6304763325
 30
0.0
 10
-143.4486278297
 20
-21.6935104657
 30
0.0
 10
-143.3656322717
 20
-21.7443400919
 30
0.0
 10
-143.3031642682
 20
-21.7828283082
 30
0.0
 10
-143.2405247784
 20
-21.8217595143
 30
0.0
 10
-143.1776261193
 20
-21.8613978388
 30
0.0
 10
-143.1143734101
 20
-21.9020993218
 30
0.0
 10
-143.0613330039
 20
-21.9378729989
 30
0.0
 10
-143.0248545298
 20
-21.9642612227
 30
0.0
 10
-143.0067971898
 20
-21.9799147791
 30
0.0
 10
-142.9989989825
 20
-21.9876323445
 30
0.0
 10
-142.9951816097
 20
-21.9951406103
 30
0.0
 10
-143.0005964664
 20
-21.997643237
 30
0.0
 10
-143.0073908693
 20
-21.9969271511
 30
0.0
 10
-143.0221308563
 20
-21.9942485977
 30
0.0
 10
-143.0345474426
 20
-21.9900172026
 30
0.0
 10
-143.0431837374
 20
-21.9870889284
 30
0.0
  0
SPLINE
  5
400
100
AcDbEntity
  8
0
100
AcDbSpline
 62
7
  6
CONTINUOUS
 70
0
 71
3
 72
9
 73
5
 74
0
 42
0.0000001
 43
0.0000001
 44
0.0000000001
 40
0.0
 40
0.0
 40
0.0
 40
0.0
 40
0.2489334998
 40
1.0
 40
1.0
 40
1.0
 40
1.0
 10
-156.5379246375
 20
3.5123175754
 30
0.0
 10
-156.7838021614
 20
3.9531933238
 30
0.0
 10
-157.7372652086
 20
5.7430833791
 30
0.0
 10
-158.5499077902
 20
7.608462691
 30
0.0
 10
-159.0699835085
 20
9.0399803246
 30
0.0
  0
LINE
  5
401
100
AcDbEntity
  8
0
100
AcDbLine
 62
7
  6
CONTINUOUS
 10
-158.7327951428
 20
-14.3087342197
 11
-158.8115747715
 21
-14.1796003744
  0
SPLINE
  5
402
100
AcDbEntity
  8
0
100
AcDbSpline
 62
7
  6
CONTINUOUS
 70
0
 71
3
 72
9
 73
5
 74
0
 42
0.0000001
 43
0.0000001
 44
0.0000000001
 40
0.0
 40
0.0
 40
0.0
 40
0.0
 40
0.2455470648
 40
1.0
 40
1.0
 40
1.0
 40
1.0
 10
-158.8735343175
 20
-14.0762536344
 30
0.0
 10
-159.134526331
 20
-13.6387131216
 30
0.0
 10
-160.1469968056
 20
-11.827007911
 30
0.0
 10
-160.9564939252
 20
-9.9035127043
 30
0.0
 10
-161.4540731981
 20
-8.4193374665
 30
0.0
  0
SPLINE
  5
403
100
AcDbEntity
  8
0
100
AcDbSpline
 62
7
  6
CONTINUOUS
 70
0
 71
3
 72
13
 73
9
 74
0
 42
0.0000001
 43
0.0000001
 44
0.0000000001
 40
0.0
 40
0.0
 40
0.0
 40
0.0
 40
0.2581243278
 40
0.3854124663
 40
0.5115260439
 40
0.6361722709
 40
0.7590885746
 40
1.0
 40
1.0
 40
1.0
 40
1.0
 10
-162.1408306548
 20
-6.0789160238
 30
0.0
 10
-161.0945216687
 20
-7.4843214321
 30
0.0
 10
-159.4116017881
 20
-9.4959329853
 30
0.0
 10
-156.9892202578
 20
-11.984516214
 30
0.0
 10
-155.1158151942
 20
-13.7396686667
 30
0.0
 10
-153.1858533179
 20
-15.3870555306
 30
0.0
 10
-150.5646906007
 20
-17.4190956922
 30
0.0
 10
-148.5172032327
 20
-18.8063223977
 30
0.0
 10
-147.1290039173
 20
-19.6706415669
 30
0.0
  0
SPLINE
  5
404
100
AcDbEntity
  8
0
100
AcDbSpline
 62
7
  6
CONTINUOUS
 70
0
 71
3
 72
10
 73
6
 74
0
 42
0.0000001
 43
0.0000001
 44
0.0000000001
 40
0.0
 40
0.0
 40
0.0
 40
0.0
 40
0.5106113652
 40
0.7568483694
 40
1.0
 40
1.0
 40
1.0
 40
1.0
 10
-83.4386728847
 20
-66.9687987658
 30
0.0
 10
-83.2103450658
 20
-67.5222072681
 30
0.0
 10
-82.7482783636
 20
-68.3027487186
 30
0.0
 10
-81.9135909947
 20
-69.1321042972
 30
0.0
 10
-81.4400865877
 20
-69.4625475975
 30
0.0
 10
-81.1928827134
 20
-69.604537386
 30
0.0
  0
SPLINE
  5
405
100
AcDbEntity
  8
0
100
AcDbSpline
 62
7
  6
CONTINUOUS
 70
0
 71
3
 72
11
 73
7
 74
0
 42
0.0000001
 43
0.0000001
 44
0.0000000001
 40
0.0
 40
0.0
 40
0.0
 40
0.0
 40
0.2560100541
 40
0.5069767942
 40
0.7544018063
 40
1.0
 40
1.0
 40
1.0
 40
1.0
 10
-102.5836110969
 20
-55.315419708
 30
0.0
 10
-102.0972221607
 20
-56.1347071741
 30
0.0
 10
-101.0366882361
 20
-57.7019381323
 30
0.0
 10
-99.1800538079
 20
-59.8179357787
 30
0.0
 10
-97.0943136301
 20
-61.650700177
 30
0.0
 10
-95.5624192841
 20
-62.6722837078
 30
0.0
 10
-94.7698180652
 20
-63.1275314719
 30
0.0
  0
SPLINE
  5
406
100
AcDbEntity
  8
0
100
AcDbSpline
 62
7
  6
CONTINUOUS
 70
0
 71
3
 72
14
 73
10
 74
0
 42
0.0000001
 43
0.0000001
 44
0.0000000001
 40
0.0
 40
0.0
 40
0.0
 40
0.0
 40
0.2786628518
 40
0.411290335
 40
0.5383728846
 40
0.6598957626
 40
0.7764499904
 40
0.8892423844
 40
1.0
 40
1.0
 40
1.0
 40
1.0
 10
-70.8174939478
 20
-68.5349827155
 30
0.0
 10
-71.4042402553
 20
-69.1757271919
 30
0.0
 10
-72.3936287716
 20
-70.0227759684
 30
0.0
 10
-73.8749624366
 20
-70.8220024881
 30
0.0
 10
-74.9995745192
 20
-71.2227644061
 30
0.0
 10
-76.1262654415
 20
-71.4222193667
 30
0.0
 10
-77.2269014439
 20
-71.4137811314
 30
0.0
 10
-78.2718362108
 20
-71.1960091203
 30
0.0
 10
-78.9153415541
 20
-70.9126523247
 30
0.0
 10
-79.2147793598
 20
-70.7406621497
 30
0.0
  0
SPLINE
  5
407
100
AcDbEntity
  8
0
100
AcDbSpline
 62
7
  6
CONTINUOUS
 70
0
 71
3
 72
9
 73
5
 74
0
 42
0.0000001
 43
0.0000001
 44
0.0000000001
 40
0.0
 40
0.0
 40
0.0
 40
0.0
 40
0.5056132603
 40
1.0
 40
1.0
 40
1.0
 40
1.0
 10
-83.4380318128
 20
-67.0290971542
 30
0.0
 10
-85.089505756
 20
-66.9237624287
 30
0.0
 10
-88.3457331892
 20
-66.3655975232
 30
0.0
 10
-91.3886058348
 20
-65.0695649229
 30
0.0
 10
-92.7917158163
 20
-64.2636581611
 30
0.0
  0
SPLINE
  5
408
100
AcDbEntity
  8
0
100
AcDbSpline
 62
7
  6
CONTINUOUS
 70
0
 71
3
 72
12
 73
8
 74
0
 42
0.0000001
 43
0.0000001
 44
0.0000000001
 40
0.0
 40
0.0
 40
0.0
 40
0.0
 40
0.1197249681
 40
0.2400248946
 40
0.4841938234
 40
0.736641292
 40
1.0
 40
1.0
 40
1.0
 40
1.0
 10
-57.1812564598
 20
-2.2625358711
 30
0.0
 10
-56.5461321072
 20
-2.627342613
 30
0.0
 10
-55.3108832405
 20
-3.4276104384
 30
0.0
 10
-53.0065144378
 20
-5.2959171448
 30
0.0
 10
-50.4674855429
 20
-8.1281337444
 30
0.0
 10
-48.0993582303
 20
-12.1601701529
 30
0.0
 10
-47.0198824682
 20
-15.145796809
 30
0.0
 10
-46.5981307252
 20
-16.7007602121
 30
0.0
  0
SPLINE
  5
409
100
AcDbEntity
  8
0
100
AcDbSpline
 62
7
  6
CONTINUOUS
 70
0
 71
3
 72
11
 73
7
 74
0
 42
0.0000001
 43
0.0000001
 44
0.0000000001
 40
0.0
 40
0.0
 40
0.0
 40
0.0
 40
0.2393616484
 40
0.4834048843
 40
0.7360647205
 40
1.0
 40
1.0
 40
1.0
 40
1.0
 10
-59.1593666636
 20
-1.1264230279
 30
0.0
 10
-60.460912626
 20
-0.3788430885
 30
0.0
 10
-63.2656272195
 20
0.8442547989
 30
0.0
 10
-67.8259391189
 20
1.744938802
 30
0.0
 10
-72.6253101779
 20
1.7046254903
 30
0.0
 10
-75.8225180293
 20
1.0702889386
 30
0.0
 10
-77.4135549707
 20
0.6144124437
 30
0.0
  0
SPLINE
  5
40A
100
AcDbEntity
  8
0
100
AcDbSpline
 62
7
  6
CONTINUOUS
 70
0
 71
3
 72
9
 73
5
 74
0
 42
0.0000001
 43
0.0000001
 44
0.0000000001
 40
0.0
 40
0.0
 40
0.0
 40
0.0
 40
0.2474560783
 40
1.0
 40
1.0
 40
1.0
 40
1.0
 10
-103.8661675
 20
-34.3813904655
 30
0.0
 10
-103.7726601144
 20
-33.8531537639
 30
0.0
 10
-103.3536774664
 20
-31.7259195969
 30
0.0
 10
-102.7726522559
 20
-29.6309821053
 30
0.0
 10
-102.2524604868
 20
-28.084732293
 30
0.0
  0
SPLINE
  5
40B
100
AcDbEntity
  8
0
100
AcDbSpline
 62
7
  6
CONTINUOUS
 70
0
 71
3
 72
9
 73
5
 74
0
 42
0.0000001
 43
0.0000001
 44
0.0000000001
 40
0.0
 40
0.0
 40
0.0
 40
0.0
 40
0.5114686993
 40
1.0
 40
1.0
 40
1.0
 40
1.0
 10
-91.8897538245
 20
-10.886958521
 30
0.0
 10
-90.1442052015
 20
-9.0559643753
 30
0.0
 10
-86.4181800556
 20
-5.7594019884
 30
0.0
 10
-82.1373680946
 20
-3.2087177775
 30
0.0
 10
-79.9417718285
 20
-2.1998951368
 30
0.0
  0
SPLINE
  5
40C
100
AcDbEntity
  8
0
100
AcDbSpline
 62
7
  6
CONTINUOUS
 70
0
 71
3
 72
12
 73
8
 74
0
 42
0.0000001
 43
0.0000001
 44
0.0000000001
 40
0.0
 40
0.0
 40
0.0
 40
0.0
 40
0.2675492926
 40
0.5217921702
 40
0.7645634877
 40
0.8829488176
 40
1.0
 40
1.0
 40
1.0
 40
1.0
 10
-79.9417718285
 20
-2.1998951368
 30
0.0
 10
-78.2105859248
 20
-1.4044576687
 30
0.0
 10
-74.6928825343
 20
-0.1346729377
 30
0.0
 10
-69.2794928445
 20
0.7101041943
 30
0.0
 10
-64.8644047898
 20
0.4531834544
 30
0.0
 10
-61.5447092334
 20
-0.3335625393
 30
0.0
 10
-59.9658862571
 20
-0.9118518825
 30
0.0
 10
-59.2019728115
 20
-1.2452720201
 30
0.0
  0
SPLINE
  5
40D
100
AcDbEntity
  8
0
100
AcDbSpline
 62
7
  6
CONTINUOUS
 70
0
 71
3
 72
11
 73
7
 74
0
 42
0.0000001
 43
0.0000001
 44
0.0000000001
 40
0.0
 40
0.0
 40
0.0
 40
0.0
 40
0.2387913119
 40
0.4830137113
 40
0.7360684804
 40
1.0
 40
1.0
 40
1.0
 40
1.0
 10
-79.4861788927
 20
-70.5727869664
 30
0.0
 10
-79.7700486184
 20
-70.3841510276
 30
0.0
 10
-80.3055594422
 20
-69.9408299006
 30
0.0
 10
-80.9672164932
 20
-69.116353113
 30
0.0
 10
-81.4770295217
 20
-68.1501505394
 30
0.0
 10
-81.7032087308
 20
-67.443518001
 30
0.0
 10
-81.7895372789
 20
-67.0768293337
 30
0.0
  0
SPLINE
  5
40E
100
AcDbEntity
  8
0
100
AcDbSpline
 62
7
  6
CONTINUOUS
 70
0
 71
3
 72
11
 73
7
 74
0
 42
0.0000001
 43
0.0000001
 44
0.0000000001
 40
0.0
 40
0.0
 40
0.0
 40
0.0
 40
0.2440819189
 40
0.4912004736
 40
0.7427779284
 40
1.0
 40
1.0
 40
1.0
 40
1.0
 10
-94.6979376245
 20
-63.0240087655
 30
0.0
 10
-95.4105842349
 20
-62.5025792358
 30
0.0
 10
-96.7789144419
 20
-61.35995183
 30
0.0
 10
-98.6144250085
 20
-59.388318514
 30
0.0
 10
-100.2252800022
 20
-57.170540682
 30
0.0
 10
-101.1285374834
 20
-55.561326645
 30
0.0
 10
-101.5388905693
 20
-54.726113915
 30
0.0
  0
SPLINE
  5
40F
100
AcDbEntity
  8
0
100
AcDbSpline
 62
7
  6
CONTINUOUS
 70
0
 71
3
 72
16
 73
12
 74
0
 42
0.0000001
 43
0.0000001
 44
0.0000000001
 40
0.0
 40
0.0
 40
0.0
 40
0.0
 40
0.0532690316
 40
0.108258127
 40
0.2241102733
 40
0.3483281759
 40
0.4791960305
 40
0.61354302
 40
0.7475101695
 40
0.8773109027
 40
1.0
 40
1.0
 40
1.0
 40
1.0
 10
-32.5876565216
 20
-25.9986189811
 30
0.0
 10
-31.957376988
 20
-26.7604319346
 30
0.0
 10
-30.8044022828
 20
-28.4189485083
 30
0.0
 10
-28.9834227619
 20
-32.1740889986
 30
0.0
 10
-27.717964285
 20
-37.5797889445
 30
0.0
 10
-27.8571373942
 20
-44.5228539566
 30
0.0
 10
-29.5811015647
 20
-51.597961891
 30
0.0
 10
-32.7682538801
 20
-58.3406096801
 30
0.0
 10
-37.2075357914
 20
-64.3109895939
 30
0.0
 10
-42.6046709014
 20
-69.112162406
 30
0.0
 10
-46.7597039767
 20
-71.3950477219
 30
0.0
 10
-48.8829561767
 20
-72.2183050471
 30
0.0
  0
SPLINE
  5
410
100
AcDbEntity
  8
0
100
AcDbSpline
 62
7
  6
CONTINUOUS
 70
0
 71
3
 72
13
 73
9
 74
0
 42
0.0000001
 43
0.0000001
 44
0.0000000001
 40
0.0
 40
0.0
 40
0.0
 40
0.0
 40
0.2653683528
 40
0.536515707
 40
0.6647102081
 40
0.7840101269
 40
0.8947049125
 40
1.0
 40
1.0
 40
1.0
 40
1.0
 10
-48.882479889
 20
-75.0298094266
 30
0.0
 10
-48.8823897305
 20
-75.5620106581
 30
0.0
 10
-49.1588620143
 20
-76.6438302045
 30
0.0
 10
-49.9956178214
 20
-77.7336320902
 30
0.0
 10
-50.8738716276
 20
-78.3079363567
 30
0.0
 10
-51.5646958404
 20
-78.5374673956
 30
0.0
 10
-52.2485621613
 20
-78.5500077958
 30
0.0
 10
-52.6684366454
 20
-78.4041118757
 30
0.0
 10
-52.8515476792
 20
-78.2989279375
 30
0.0
  0
SPLINE
  5
411
100
AcDbEntity
  8
0
100
AcDbSpline
 62
7
  6
CONTINUOUS
 70
0
 71
3
 72
9
 73
5
 74
0
 42
0.0000001
 43
0.0000001
 44
0.0000000001
 40
0.0
 40
0.0
 40
0.0
 40
0.0
 40
0.2556367303
 40
1.0
 40
1.0
 40
1.0
 40
1.0
 10
-53.8327943769
 20
-73.5536383635
 30
0.0
 10
-54.2755270119
 20
-73.620852634
 30
0.0
 10
-56.0149637903
 20
-73.8296562192
 30
0.0
 10
-57.7831607052
 20
-73.8138398627
 30
0.0
 10
-59.0781603358
 20
-73.6615701412
 30
0.0
  0
SPLINE
  5
412
100
AcDbEntity
  8
0
100
AcDbSpline
 62
7
  6
CONTINUOUS
 70
0
 71
3
 72
9
 73
5
 74
0
 42
0.0000001
 43
0.0000001
 44
0.0000000001
 40
0.0
 40
0.0
 40
0.0
 40
0.0
 40
0.5043477426
 40
1.0
 40
1.0
 40
1.0
 40
1.0
 10
-59.0781603358
 20
-73.6615701412
 30
0.0
 10
-60.2219742245
 20
-73.5270772672
 30
0.0
 10
-62.4707594013
 20
-73.0422149485
 30
0.0
 10
-64.5751863197
 20
-72.1091147939
 30
0.0
 10
-65.5566713697
 20
-71.5454279053
 30
0.0
  0
SPLINE
  5
413
100
AcDbEntity
  8
0
100
AcDbSpline
 62
7
  6
CONTINUOUS
 70
0
 71
3
 72
9
 73
5
 74
0
 42
0.0000001
 43
0.0000001
 44
0.0000000001
 40
0.0
 40
0.0
 40
0.0
 40
0.0
 40
0.5034026352
 40
1.0
 40
1.0
 40
1.0
 40
1.0
 10
-67.9959547068
 20
-65.2890560057
 30
0.0
 10
-67.4247416981
 20
-65.9794758052
 30
0.0
 10
-66.1697066704
 20
-67.2564721597
 30
0.0
 10
-64.7045508187
 20
-68.2869426486
 30
0.0
 10
-63.9380192245
 20
-68.7272039988
 30
0.0
  0
SPLINE
  5
414
100
AcDbEntity
  8
0
100
AcDbSpline
 62
7
  6
CONTINUOUS
 70
0
 71
3
 72
9
 73
5
 74
0
 42
0.0000001
 43
0.0000001
 44
0.0000000001
 40
0.0
 40
0.0
 40
0.0
 40
0.0
 40
0.4965977133
 40
1.0
 40
1.0
 40
1.0
 40
1.0
 10
-37.1679009482
 20
-22.1179377877
 30
0.0
 10
-36.3027066741
 20
-22.6148673821
 30
0.0
 10
-34.6489673552
 20
-23.7779734385
 30
0.0
 10
-33.2323915117
 20
-25.2193338533
 30
0.0
 10
-32.5876565216
 20
-25.9986189811
 30
0.0
  0
SPLINE
  5
415
100
AcDbEntity
  8
0
100
AcDbSpline
 62
7
  6
CONTINUOUS
 70
0
 71
3
 72
11
 73
7
 74
0
 42
0.0000001
 43
0.0000001
 44
0.0000000001
 40
0.0
 40
0.0
 40
0.0
 40
0.0
 40
0.2373476569
 40
0.4823844098
 40
0.7364079261
 40
1.0
 40
1.0
 40
1.0
 40
1.0
 10
-49.7907736341
 20
-1.9738363924
 30
0.0
 10
-48.8738027764
 20
-3.082170457
 30
0.0
 10
-47.1972276527
 20
-5.4956769202
 30
0.0
 10
-45.2480946552
 20
-9.5287648774
 30
0.0
 10
-43.8592740252
 20
-13.9530281196
 30
0.0
 10
-43.3313689649
 20
-17.055947673
 30
0.0
 10
-43.1611980941
 20
-18.6444024805
 30
0.0
  0
SPLINE
  5
416
100
AcDbEntity
  8
0
100
AcDbSpline
 62
7
  6
CONTINUOUS
 70
0
 71
3
 72
11
 73
7
 74
0
 42
0.0000001
 43
0.0000001
 44
0.0000000001
 40
0.0
 40
0.0
 40
0.0
 40
0.0
 40
0.2610344658
 40
0.5130054565
 40
0.7582828359
 40
1.0
 40
1.0
 40
1.0
 40
1.0
 10
-79.5164383238
 20
-70.6305989996
 30
0.0
 10
-81.1044534369
 20
-70.9256282165
 30
0.0
 10
-84.2763600598
 20
-71.268505857
 30
0.0
 10
-88.9828474485
 20
-70.9851745259
 30
0.0
 10
-93.4493334229
 20
-69.8968269796
 30
0.0
 10
-96.2121108474
 20
-68.6417371746
 30
0.0
 10
-97.5090895768
 20
-67.8968579776
 30
0.0
  0
SPLINE
  5
417
100
AcDbEntity
  8
0
100
AcDbSpline
 62
7
  6
CONTINUOUS
 70
0
 71
3
 72
20
 73
16
 74
0
 42
0.0000001
 43
0.0000001
 44
0.0000000001
 40
0.0
 40
0.0
 40
0.0
 40
0.0
 40
0.0531873992
 40
0.1075800452
 40
0.1641621851
 40
0.2235487743
 40
0.3507429905
 40
0.4182986811
 40
0.4874593301
 40
0.6266959671
 40
0.761446079
 40
0.8254266093
 40
0.8864538737
 40
0.9445127577
 40
1.0
 40
1.0
 40
1.0
 40
1.0
 10
-38.7865588709
 20
-24.9361718314
 30
0.0
 10
-39.7792915961
 20
-24.3659907021
 30
0.0
 10
-41.9334450722
 20
-23.4494250161
 30
0.0
 10
-45.4444803157
 20
-22.8490257644
 30
0.0
 10
-49.1345215779
 20
-23.0257791577
 30
0.0
 10
-54.2379654653
 20
-24.3048144325
 30
0.0
 10
-59.093592652
 20
-27.068313204
 30
0.0
 10
-63.3122005716
 20
-30.8895860413
 30
0.0
 10
-67.1246600647
 20
-35.4682374592
 30
0.0
 10
-70.6549192981
 20
-42.0610737849
 30
0.0
 10
-72.2667405126
 20
-49.2682311596
 30
0.0
 10
-72.1897755466
 20
-54.880832725
 30
0.0
 10
-71.4690969056
 20
-58.7766397632
 30
0.0
 10
-70.1029957898
 20
-62.301527357
 30
0.0
 10
-68.7572859997
 20
-64.3688420215
 30
0.0
 10
-67.9959547068
 20
-65.2890560057
 30
0.0
  0
SPLINE
  5
418
100
AcDbEntity
  8
0
100
AcDbSpline
 62
7
  6
CONTINUOUS
 70
0
 71
3
 72
9
 73
5
 74
0
 42
0.0000001
 43
0.0000001
 44
0.0000000001
 40
0.0
 40
0.0
 40
0.0
 40
0.0
 40
0.4965827006
 40
1.0
 40
1.0
 40
1.0
 40
1.0
 10
-56.4200778103
 20
3.6429336301
 30
0.0
 10
-55.167843739
 20
2.9237437547
 30
0.0
 10
-52.7742620351
 20
1.2403065079
 30
0.0
 10
-50.7239708878
 20
-0.8458896354
 30
0.0
 10
-49.7907736341
 20
-1.9738363924
 30
0.0
  0
SPLINE
  5
419
100
AcDbEntity
  8
0
100
AcDbSpline
 62
7
  6
CONTINUOUS
 70
0
 71
3
 72
9
 73
5
 74
0
 42
0.0000001
 43
0.0000001
 44
0.0000000001
 40
0.0
 40
0.0
 40
0.0
 40
0.0
 40
0.5185098846
 40
1.0
 40
1.0
 40
1.0
 40
1.0
 10
-59.076526023
 20
-73.6122115744
 30
0.0
 10
-59.0552799239
 20
-73.8472683365
 30
0.0
 10
-58.9581179715
 20
-74.2984727732
 30
0.0
 10
-58.7294839608
 20
-74.7027165255
 30
0.0
 10
-58.5897763584
 20
-74.8715797925
 30
0.0
  0
SPLINE
  5
41A
100
AcDbEntity
  8
0
100
AcDbSpline
 62
7
  6
CONTINUOUS
 70
0
 71
3
 72
9
 73
5
 74
0
 42
0.0000001
 43
0.0000001
 44
0.0000000001
 40
0.0
 40
0.0
 40
0.0
 40
0.0
 40
0.2530713137
 40
1.0
 40
1.0
 40
1.0
 40
1.0
 10
-58.5897763584
 20
-74.8715797925
 30
0.0
 10
-58.5556938458
 20
-74.9127750054
 30
0.0
 10
-58.41409457
 20
-75.0696803117
 30
0.0
 10
-58.2444829952
 20
-75.2014752584
 30
0.0
 10
-58.1076479406
 20
-75.2800770206
 30
0.0
  0
SPLINE
  5
41B
100
AcDbEntity
  8
0
100
AcDbSpline
 62
7
  6
CONTINUOUS
 70
0
 71
3
 72
9
 73
5
 74
0
 42
0.0000001
 43
0.0000001
 44
0.0000000001
 40
0.0
 40
0.0
 40
0.0
 40
0.0
 40
0.7469286863
 40
1.0
 40
1.0
 40
1.0
 40
1.0
 10
-52.8515476792
 20
-78.2989279375
 30
0.0
 10
-52.9883827339
 20
-78.2203261753
 30
0.0
 10
-53.1579943086
 20
-78.0885312286
 30
0.0
 10
-53.2995935845
 20
-77.9316259224
 30
0.0
 10
-53.3336760971
 20
-77.8904307094
 30
0.0
  0
SPLINE
  5
41C
100
AcDbEntity
  8
0
100
AcDbSpline
 62
7
  6
CONTINUOUS
 70
0
 71
3
 72
9
 73
5
 74
0
 42
0.0000001
 43
0.0000001
 44
0.0000000001
 40
0.0
 40
0.0
 40
0.0
 40
0.0
 40
0.4967732379
 40
1.0
 40
1.0
 40
1.0
 40
1.0
 10
-63.9380192245
 20
-68.7272039988
 30
0.0
 10
-63.1944510747
 20
-69.1542761771
 30
0.0
 10
-61.6179990605
 20
-69.8820326405
 30
0.0
 10
-59.9392075428
 20
-70.322706953
 30
0.0
 10
-59.0836143816
 20
-70.4726157805
 30
0.0
  0
SPLINE
  5
41D
100
AcDbEntity
  8
0
100
AcDbSpline
 62
7
  6
CONTINUOUS
 70
0
 71
3
 72
19
 73
15
 74
0
 42
0.0000001
 43
0.0000001
 44
0.0000000001
 40
0.0
 40
0.0
 40
0.0
 40
0.0
 40
0.0544629063
 40
0.1111498734
 40
0.1704396989
 40
0.2324106283
 40
0.3630886604
 40
0.4996093117
 40
0.6362071307
 40
0.7670951981
 40
0.8291985909
 40
0.8886255812
 40
0.9454368809
 40
1.0
 40
1.0
 40
1.0
 40
1.0
 10
-59.0836143816
 20
-70.4726157805
 30
0.0
 10
-58.0211413227
 20
-70.6587721194
 30
0.0
 10
-55.8081522805
 20
-70.813662948
 30
0.0
 10
-52.4395992692
 20
-70.406469983
 30
0.0
 10
-49.0503184473
 20
-69.3807549679
 30
0.0
 10
-44.5468299461
 20
-67.1926081256
 30
0.0
 10
-39.3775511219
 20
-63.0757376375
 30
0.0
 10
-34.5233461036
 20
-56.622813574
 30
0.0
 10
-31.3479322567
 20
-49.1940877944
 30
0.0
 10
-30.3513552031
 20
-42.653426506
 30
0.0
 10
-30.6927828783
 20
-37.6487561108
 30
0.0
 10
-31.4873779022
 20
-34.1900849823
 30
0.0
 10
-32.8068862762
 20
-31.0564506139
 30
0.0
 10
-34.0397613217
 20
-29.2069409358
 30
0.0
 10
-34.7286233886
 20
-28.3743198245
 30
0.0
  0
SPLINE
  5
41E
100
AcDbEntity
  8
0
100
AcDbSpline
 62
7
  6
CONTINUOUS
 70
0
 71
3
 72
9
 73
5
 74
0
 42
0.0000001
 43
0.0000001
 44
0.0000000001
 40
0.0
 40
0.0
 40
0.0
 40
0.0
 40
0.4779838387
 40
1.0
 40
1.0
 40
1.0
 40
1.0
 10
-53.3336760971
 20
-77.8904307094
 30
0.0
 10
-53.4991093239
 20
-77.6904731217
 30
0.0
 10
-53.7577255475
 20
-77.1961181879
 30
0.0
 10
-53.8322700745
 20
-76.6485711427
 30
0.0
 10
-53.8323180892
 20
-76.365142743
 30
0.0
  0
SPLINE
  5
41F
100
AcDbEntity
  8
0
100
AcDbSpline
 62
7
  6
CONTINUOUS
 70
0
 71
3
 72
21
 73
17
 74
0
 42
0.0000001
 43
0.0000001
 44
0.0000000001
 40
0.0
 40
0.0
 40
0.0
 40
0.0
 40
0.0554692679
 40
0.1135092023
 40
0.174516614
 40
0.2384767114
 40
0.3731840622
 40
0.4428335164
 40
0.5126985211
 40
0.5818371492
 40
0.6493718684
 40
0.7765245238
 40
0.8358911738
 40
0.8924543124
 40
0.9468295807
 40
1.0
 40
1.0
 40
1.0
 40
1.0
 10
-70.1369215738
 20
-67.6647568491
 30
0.0
 10
-70.9962449152
 20
-66.6261007961
 30
0.0
 10
-72.5151555234
 20
-64.2926858524
 30
0.0
 10
-74.0571182021
 20
-60.3141895704
 30
0.0
 10
-74.870452763
 20
-55.9166385428
 30
0.0
 10
-74.9579202537
 20
-49.5832742517
 30
0.0
 10
-73.509242857
 20
-43.1119558897
 30
0.0
 10
-70.76705576
 20
-37.0235544883
 30
0.0
 10
-68.073415055
 20
-32.7079019271
 30
0.0
 10
-64.8499035972
 20
-28.8373007472
 30
0.0
 10
-60.0888281283
 20
-24.5246081011
 30
0.0
 10
-54.6079993279
 20
-21.4052640248
 30
0.0
 10
-48.847754437
 20
-19.9616550376
 30
0.0
 10
-44.6827849772
 20
-19.7621463504
 30
0.0
 10
-40.7198452804
 20
-20.4398248707
 30
0.0
 10
-38.2884145293
 20
-21.4743639963
 30
0.0
 10
-37.1679009482
 20
-22.1179377877
 30
0.0
  0
SPLINE
  5
420
100
AcDbEntity
  8
0
100
AcDbSpline
 62
7
  6
CONTINUOUS
 70
0
 71
3
 72
9
 73
5
 74
0
 42
0.0000001
 43
0.0000001
 44
0.0000000001
 40
0.0
 40
0.0
 40
0.0
 40
0.0
 40
0.4965804617
 40
1.0
 40
1.0
 40
1.0
 40
1.0
 10
-65.5566713697
 20
-71.5454279053
 30
0.0
 10
-66.4218491379
 20
-71.0485386617
 30
0.0
 10
-68.0755993249
 20
-69.8854405097
 30
0.0
 10
-69.4921643256
 20
-68.4440688801
 30
0.0
 10
-70.1369215738
 20
-67.6647568491
 30
0.0
  0
SPLINE
  5
421
100
AcDbEntity
  8
0
100
AcDbSpline
 62
7
  6
CONTINUOUS
 70
0
 71
3
 72
9
 73
5
 74
0
 42
0.0000001
 43
0.0000001
 44
0.0000000001
 40
0.0
 40
0.0
 40
0.0
 40
0.0
 40
0.5034026352
 40
1.0
 40
1.0
 40
1.0
 40
1.0
 10
-34.7286233886
 20
-28.3743198245
 30
0.0
 10
-35.2998363974
 20
-27.683900025
 30
0.0
 10
-36.554871425
 20
-26.4069036705
 30
0.0
 10
-38.0200272767
 20
-25.3764331816
 30
0.0
 10
-38.7865588709
 20
-24.9361718314
 30
0.0
  0
SPLINE
  5
422
100
AcDbEntity
  8
0
100
AcDbSpline
 62
7
  6
CONTINUOUS
 70
0
 71
3
 72
10
 73
6
 74
0
 42
0.0000001
 43
0.0000001
 44
0.0000000001
 40
0.0
 40
0.0
 40
0.0
 40
0.0
 40
0.2404750617
 40
0.4864505857
 40
1.0
 40
1.0
 40
1.0
 40
1.0
 10
-108.7355750525
 20
15.6751788807
 30
0.0
 10
-109.5013775284
 20
15.9117475628
 30
0.0
 10
-111.090807159
 20
16.2694034578
 30
0.0
 10
-114.4237595623
 20
16.5110252365
 30
0.0
 10
-116.9692202422
 20
16.1440530993
 30
0.0
 10
-118.6218146037
 20
15.6982275551
 30
0.0
  0
SPLINE
  5
423
100
AcDbEntity
  8
0
100
AcDbSpline
 62
7
  6
CONTINUOUS
 70
0
 71
3
 72
11
 73
7
 74
0
 42
0.0000001
 43
0.0000001
 44
0.0000000001
 40
0.0
 40
0.0
 40
0.0
 40
0.0
 40
0.2598757116
 40
0.5165473244
 40
0.7648321918
 40
1.0
 40
1.0
 40
1.0
 40
1.0
 10
-96.4263206112
 20
5.1753511452
 30
0.0
 10
-96.7433787262
 20
6.5415311397
 30
0.0
 10
-97.4927555355
 20
9.230922081
 30
0.0
 10
-98.9456453787
 20
13.1000650672
 30
0.0
 10
-100.687480494
 20
16.7007676871
 30
0.0
 10
-102.0547874379
 20
18.9298421226
 30
0.0
 10
-102.7807654735
 20
19.9708447376
 30
0.0
  0
SPLINE
  5
424
100
AcDbEntity
  8
0
100
AcDbSpline
 62
7
  6
CONTINUOUS
 70
0
 71
3
 72
9
 73
5
 74
0
 42
0.0000001
 43
0.0000001
 44
0.0000000001
 40
0.0
 40
0.0
 40
0.0
 40
0.0
 40
0.5087429978
 40
1.0
 40
1.0
 40
1.0
 40
1.0
 10
-102.3692172194
 20
5.9171804843
 30
0.0
 10
-102.788220485
 20
7.3940014718
 30
0.0
 10
-103.7658991259
 20
10.2554373307
 30
0.0
 10
-105.0521488954
 20
12.9936032702
 30
0.0
 10
-105.7652689349
 20
14.293146616
 30
0.0
  0
SPLINE
  5
425
100
AcDbEntity
  8
0
100
AcDbSpline
 62
7
  6
CONTINUOUS
 70
0
 71
3
 72
18
 73
14
 74
0
 42
0.0000001
 43
0.0000001
 44
0.0000000001
 40
0.0
 40
0.0
 40
0.0
 40
0.0
 40
0.1196699321
 40
0.1827984198
 40
0.2476974212
 40
0.3809586904
 40
0.5157484912
 40
0.6478264176
 40
0.7735279144
 40
0.833353377
 40
0.8909442327
 40
0.9463997033
 40
1.0
 40
1.0
 40
1.0
 40
1.0
 10
-118.6218146037
 20
15.6982275551
 30
0.0
 10
-120.6554199553
 20
15.1496154857
 30
0.0
 10
-123.6507536541
 20
13.8466267792
 30
0.0
 10
-127.2750162926
 20
11.4137308429
 30
0.0
 10
-130.7810058871
 20
8.4224582721
 30
0.0
 10
-134.58128155
 20
3.8986682275
 30
0.0
 10
-137.932352822
 20
-2.3513950675
 30
0.0
 10
-139.8838488701
 20
-9.0329815791
 30
0.0
 10
-140.2235468636
 20
-14.672411914
 30
0.0
 10
-139.6516462198
 20
-18.9244778029
 30
0.0
 10
-138.8328641294
 20
-21.8661769661
 30
0.0
 10
-137.6314734597
 20
-24.5540256252
 30
0.0
 10
-136.5722586477
 20
-26.1673627091
 30
0.0
 10
-135.9882835063
 20
-26.9083138015
 30
0.0
  0
SPLINE
  5
426
100
AcDbEntity
  8
0
100
AcDbSpline
 62
7
  6
CONTINUOUS
 70
0
 71
3
 72
9
 73
5
 74
0
 42
0.0000001
 43
0.0000001
 44
0.0000000001
 40
0.0
 40
0.0
 40
0.0
 40
0.0
 40
0.5038854071
 40
1.0
 40
1.0
 40
1.0
 40
1.0
 10
-135.9882835063
 20
-26.9083138015
 30
0.0
 10
-135.3765713368
 20
-27.6844577982
 30
0.0
 10
-134.0192239032
 20
-29.1180697159
 30
0.0
 10
-132.4107250025
 20
-30.2646100303
 30
0.0
 10
-131.5670211754
 20
-30.7492396103
 30
0.0
  0
SPLINE
  5
427
100
AcDbEntity
  8
0
100
AcDbSpline
 62
7
  6
CONTINUOUS
 70
0
 71
3
 72
11
 73
7
 74
0
 42
0.0000001
 43
0.0000001
 44
0.0000000001
 40
0.0
 40
0.0
 40
0.0
 40
0.0
 40
0.2351678082
 40
0.4834526756
 40
0.7401242884
 40
1.0
 40
1.0
 40
1.0
 40
1.0
 10
-106.9056306404
 20
18.858066974
 30
0.0
 10
-106.1796526048
 20
17.817064359
 30
0.0
 10
-104.8123456608
 20
15.5879899235
 30
0.0
 10
-103.0705105456
 20
11.9872873036
 30
0.0
 10
-101.6176207024
 20
8.1181443174
 30
0.0
 10
-100.868243893
 20
5.4287533761
 30
0.0
 10
-100.5511857781
 20
4.0625733817
 30
0.0
  0
SPLINE
  5
428
100
AcDbEntity
  8
0
100
AcDbSpline
 62
7
  6
CONTINUOUS
 70
0
 71
3
 72
9
 73
5
 74
0
 42
0.0000001
 43
0.0000001
 44
0.0000000001
 40
0.0
 40
0.0
 40
0.0
 40
0.0
 40
0.4869718544
 40
1.0
 40
1.0
 40
1.0
 40
1.0
 10
-39.3114716671
 20
-0.315150867
 30
0.0
 10
-37.7486726487
 20
-1.967142358
 30
0.0
 10
-34.9988399233
 20
-5.8159706688
 30
0.0
 10
-33.282724943
 20
-10.2088693179
 30
0.0
 10
-32.651515813
 20
-12.5199748831
 30
0.0
  0
SPLINE
  5
429
100
AcDbEntity
  8
0
100
AcDbSpline
 62
7
  6
CONTINUOUS
 70
0
 71
3
 72
9
 73
5
 74
0
 42
0.0000001
 43
0.0000001
 44
0.0000000001
 40
0.0
 40
0.0
 40
0.0
 40
0.0
 40
0.486214621
 40
1.0
 40
1.0
 40
1.0
 40
1.0
 10
-31.9170236761
 20
-13.2349477667
 30
0.0
 10
-31.1777041542
 20
-15.6438448229
 30
0.0
 10
-30.2241671375
 20
-20.7829622736
 30
0.0
 10
-30.3012921231
 20
-25.9979693141
 30
0.0
 10
-30.5717221918
 20
-28.646883045
 30
0.0
  0
SPLINE
  5
42A
100
AcDbEntity
  8
0
100
AcDbSpline
 62
7
  6
CONTINUOUS
 70
0
 71
3
 72
9
 73
5
 74
0
 42
0.0000001
 43
0.0000001
 44
0.0000000001
 40
0.0
 40
0.0
 40
0.0
 40
0.0
 40
0.5137519733
 40
1.0
 40
1.0
 40
1.0
 40
1.0
 10
-58.0624203884
 20
-75.3850042101
 30
0.0
 10
-60.1788225697
 20
-76.6443757248
 30
0.0
 10
-64.5219770782
 20
-78.7444346909
 30
0.0
 10
-69.2038959669
 20
-79.9495905342
 30
0.0
 10
-71.512550974
 20
-80.2709409973
 30
0.0
  0
SPLINE
  5
42B
100
AcDbEntity
  8
0
100
AcDbSpline
 62
7
  6
CONTINUOUS
 70
0
 71
3
 72
9
 73
5
 74
0
 42
0.0000001
 43
0.0000001
 44
0.0000000001
 40
0.0
 40
0.0
 40
0.0
 40
0.0
 40
0.5114162919
 40
1.0
 40
1.0
 40
1.0
 40
1.0
 10
-72.5505235966
 20
-80.9575627635
 30
0.0
 10
-74.8588012511
 20
-81.3561191833
 30
0.0
 10
-79.4810633
 20
-81.6324349924
 30
0.0
 10
-84.0327494256
 20
-80.7141132261
 30
0.0
 10
-86.1432864013
 20
-79.970055906
 30
0.0
  0
SPLINE
  5
42C
100
AcDbEntity
  8
0
100
AcDbSpline
 62
7
  6
CONTINUOUS
 70
0
 71
3
 72
8
 73
4
 74
0
 42
0.0000001
 43
0.0000001
 44
0.0000000001
 40
0.0
 40
0.0
 40
0.0
 40
0.0
 40
1.0
 40
1.0
 40
1.0
 40
1.0
 10
-41.3868407634
 20
-19.593686678
 30
0.0
 10
-41.4115281925
 20
-19.6077044791
 30
0.0
 10
-41.4326768117
 20
-19.628920462
 30
0.0
 10
-41.4483620992
 20
-19.6525835062
 30
0.0
  0
SPLINE
  5
42D
100
AcDbEntity
  8
0
100
AcDbSpline
 62
7
  6
CONTINUOUS
 70
0
 71
3
 72
8
 73
4
 74
0
 42
0.0000001
 43
0.0000001
 44
0.0000000001
 40
0.0
 40
0.0
 40
0.0
 40
0.0
 40
1.0
 40
1.0
 40
1.0
 40
1.0
 10
-104.5206954857
 20
-56.9284587566
 30
0.0
 10
-104.4476899401
 20
-56.696356133
 30
0.0
 10
-104.3052778032
 20
-56.4840249075
 30
0.0
 10
-104.1393895068
 20
-56.306029091
 30
0.0
  0
SPLINE
  5
42E
100
AcDbEntity
  8
0
100
AcDbSpline
 62
7
  6
CONTINUOUS
 70
0
 71
3
 72
9
 73
5
 74
0
 42
0.0000001
 43
0.0000001
 44
0.0000000001
 40
0.0
 40
0.0
 40
0.0
 40
0.0
 40
0.2565918535
 40
1.0
 40
1.0
 40
1.0
 40
1.0
 10
-104.1393895068
 20
-56.306029091
 30
0.0
 10
-104.1009108865
 20
-56.2647420709
 30
0.0
 10
-103.9445681976
 20
-56.1099111326
 30
0.0
 10
-103.7651434908
 20
-55.978342189
 30
0.0
 10
-103.6229878515
 20
-55.8975428939
 30
0.0
  0
SPLINE
  5
42F
100
AcDbEntity
  8
0
100
AcDbSpline
 62
7
  6
CONTINUOUS
 70
0
 71
3
 72
11
 73
7
 74
0
 42
0.0000001
 43
0.0000001
 44
0.0000000001
 40
0.0
 40
0.0
 40
0.0
 40
0.0
 40
0.2399360475
 40
0.4844988135
 40
0.7370616344
 40
1.0
 40
1.0
 40
1.0
 40
1.0
 10
-92.1408453914
 20
-72.9688865812
 30
0.0
 10
-93.5710649283
 20
-72.0899144377
 30
0.0
 10
-96.284583553
 20
-70.0128963346
 30
0.0
 10
-99.6953630105
 20
-66.1032849576
 30
0.0
 10
-102.391117713
 20
-61.4859534024
 30
0.0
 10
-103.6450179758
 20
-58.0831342629
 30
0.0
 10
-104.1437476416
 20
-56.3123639603
 30
0.0
  0
SPLINE
  5
430
100
AcDbEntity
  8
0
100
AcDbSpline
 62
7
  6
CONTINUOUS
 70
0
 71
3
 72
9
 73
5
 74
0
 42
0.0000001
 43
0.0000001
 44
0.0000000001
 40
0.0
 40
0.0
 40
0.0
 40
0.0
 40
0.2598814352
 40
1.0
 40
1.0
 40
1.0
 40
1.0
 10
-108.2169672416
 20
-44.0868472815
 30
0.0
 10
-108.2051143923
 20
-44.1179883304
 30
0.0
 10
-108.1542723731
 20
-44.2354305955
 30
0.0
 10
-108.0777382118
 20
-44.3442887389
 30
0.0
 10
-108.0052349752
 20
-44.4055104335
 30
0.0
  0
SPLINE
  5
431
100
AcDbEntity
  8
0
100
AcDbSpline
 62
7
  6
CONTINUOUS
 70
0
 71
3
 72
9
 73
5
 74
0
 42
0.0000001
 43
0.0000001
 44
0.0000000001
 40
0.0
 40
0.0
 40
0.0
 40
0.0
 40
0.4902081731
 40
1.0
 40
1.0
 40
1.0
 40
1.0
 10
-39.3114716671
 20
-0.315150867
 30
0.0
 10
-39.4206996985
 20
-0.1996939244
 30
0.0
 10
-39.6965455045
 20
-0.0064556642
 30
0.0
 10
-40.0439644085
 20
0.0176939254
 30
0.0
 10
-40.2035462228
 20
-0.0253568773
 30
0.0
  0
SPLINE
  5
432
100
AcDbEntity
  8
0
100
AcDbSpline
 62
7
  6
CONTINUOUS
 70
0
 71
3
 72
9
 73
5
 74
0
 42
0.0000001
 43
0.0000001
 44
0.0000000001
 40
0.0
 40
0.0
 40
0.0
 40
0.0
 40
0.5041919352
 40
1.0
 40
1.0
 40
1.0
 40
1.0
 10
-106.41137647
 20
-60.2465622903
 30
0.0
 10
-106.3551287106
 20
-60.3259229248
 30
0.0
 10
-106.2220697523
 20
-60.4700538633
 30
0.0
 10
-106.0410600785
 20
-60.5564125165
 30
0.0
 10
-105.9471172042
 20
-60.5744292155
 30
0.0
  0
SPLINE
  5
433
100
AcDbEntity
  8
0
100
AcDbSpline
 62
7
  6
CONTINUOUS
 70
0
 71
3
 72
9
 73
5
 74
0
 42
0.0000001
 43
0.0000001
 44
0.0000000001
 40
0.0
 40
0.0
 40
0.0
 40
0.0
 40
0.4876885286
 40
1.0
 40
1.0
 40
1.0
 40
1.0
 10
-99.088704174
 20
-72.8953040753
 30
0.0
 10
-98.9837360575
 20
-72.9805153808
 30
0.0
 10
-98.7329302282
 20
-73.117336321
 30
0.0
 10
-98.4401948887
 20
-73.1238703232
 30
0.0
 10
-98.3030700421
 20
-73.0868777274
 30
0.0
  0
SPLINE
  5
434
100
AcDbEntity
  8
0
100
AcDbSpline
 62
7
  6
CONTINUOUS
 70
0
 71
3
 72
9
 73
5
 74
0
 42
0.0000001
 43
0.0000001
 44
0.0000000001
 40
0.0
 40
0.0
 40
0.0
 40
0.0
 40
0.517196552
 40
1.0
 40
1.0
 40
1.0
 40
1.0
 10
-31.9170236761
 20
-13.2349477667
 30
0.0
 10
-31.9666751597
 20
-13.0731805217
 30
0.0
 10
-32.1119396899
 20
-12.771363966
 30
0.0
 10
-32.4039624586
 20
-12.5674495081
 30
0.0
 10
-32.5590981055
 20
-12.5376970834
 30
0.0
  0
SPLINE
  5
435
100
AcDbEntity
  8
0
100
AcDbSpline
 62
7
  6
CONTINUOUS
 70
0
 71
3
 72
9
 73
5
 74
0
 42
0.0000001
 43
0.0000001
 44
0.0000000001
 40
0.0
 40
0.0
 40
0.0
 40
0.0
 40
0.5296030617
 40
1.0
 40
1.0
 40
1.0
 40
1.0
 10
-30.2066560074
 20
-29.705173079
 30
0.0
 10
-30.1923104836
 20
-29.5174190631
 30
0.0
 10
-30.2097053217
 20
-29.1597628496
 30
0.0
 10
-30.3731930273
 20
-28.8145193015
 30
0.0
 10
-30.500980187
 20
-28.7066158915
 30
0.0
  0
SPLINE
  5
436
100
AcDbEntity
  8
0
100
AcDbSpline
 62
7
  6
CONTINUOUS
 70
0
 71
3
 72
9
 73
5
 74
0
 42
0.0000001
 43
0.0000001
 44
0.0000000001
 40
0.0
 40
0.0
 40
0.0
 40
0.0
 40
0.497118577
 40
1.0
 40
1.0
 40
1.0
 40
1.0
 10
-46.4345905389
 20
4.9865177658
 30
0.0
 10
-45.2903201423
 20
4.3293906372
 30
0.0
 10
-43.0960074646
 20
2.8110727601
 30
0.0
 10
-41.1837639448
 20
0.9511676583
 30
0.0
 10
-40.3035699489
 20
-0.0523423612
 30
0.0
  0
SPLINE
  5
437
100
AcDbEntity
  8
0
100
AcDbSpline
 62
7
  6
CONTINUOUS
 70
0
 71
3
 72
9
 73
5
 74
0
 42
0.0000001
 43
0.0000001
 44
0.0000000001
 40
0.0
 40
0.0
 40
0.0
 40
0.0
 40
0.2450294445
 40
1.0
 40
1.0
 40
1.0
 40
1.0
 10
-114.4142245506
 20
-39.888560634
 30
0.0
 10
-114.3878968232
 20
-38.661499469
 30
0.0
 10
-114.0796288874
 20
-33.6590914867
 30
0.0
 10
-112.9941550321
 20
-28.712122946
 30
0.0
 10
-111.8074117906
 20
-25.1215393303
 30
0.0
  0
SPLINE
  5
438
100
AcDbEntity
  8
0
100
AcDbSpline
 62
7
  6
CONTINUOUS
 70
0
 71
3
 72
9
 73
5
 74
0
 42
0.0000001
 43
0.0000001
 44
0.0000000001
 40
0.0
 40
0.0
 40
0.0
 40
0.0
 40
0.254338333
 40
1.0
 40
1.0
 40
1.0
 40
1.0
 10
-102.7826131767
 20
-8.2272443232
 30
0.0
 10
-101.9860467925
 20
-7.20270409
 30
0.0
 10
-98.7156838802
 20
-3.2850136845
 30
0.0
 10
-94.8885407396
 20
0.175796736
 30
0.0
 10
-91.7859914658
 20
2.3781507908
 30
0.0
  0
SPLINE
  5
439
100
AcDbEntity
  8
0
100
AcDbSpline
 62
7
  6
CONTINUOUS
 70
0
 71
3
 72
9
 73
5
 74
0
 42
0.0000001
 43
0.0000001
 44
0.0000000001
 40
0.0
 40
0.0
 40
0.0
 40
0.0
 40
0.2566778046
 40
1.0
 40
1.0
 40
1.0
 40
1.0
 10
-104.2200622123
 20
-26.8225751289
 30
0.0
 10
-104.2175038435
 20
-26.8417829219
 30
0.0
 10
-104.2055706566
 20
-26.9163075508
 30
0.0
 10
-104.1851281451
 20
-26.9897242714
 30
0.0
 10
-104.1636925803
 20
-27.0415846106
 30
0.0
  0
SPLINE
  5
43A
100
AcDbEntity
  8
0
100
AcDbSpline
 62
7
  6
CONTINUOUS
 70
0
 71
3
 72
9
 73
5
 74
0
 42
0.0000001
 43
0.0000001
 44
0.0000000001
 40
0.0
 40
0.0
 40
0.0
 40
0.0
 40
0.2348912253
 40
1.0
 40
1.0
 40
1.0
 40
1.0
 10
-72.5505235966
 20
-80.9575627635
 30
0.0
 10
-72.4620659141
 20
-80.9422876265
 30
0.0
 10
-72.0930410996
 20
-80.8426551058
 30
0.0
 10
-71.7544800524
 20
-80.6058613832
 30
0.0
 10
-71.5832640682
 20
-80.3688362291
 30
0.0
  0
SPLINE
  5
43B
100
AcDbEntity
  8
0
100
AcDbSpline
 62
7
  6
CONTINUOUS
 70
0
 71
3
 72
9
 73
5
 74
0
 42
0.0000001
 43
0.0000001
 44
0.0000000001
 40
0.0
 40
0.0
 40
0.0
 40
0.0
 40
0.473808109
 40
1.0
 40
1.0
 40
1.0
 40
1.0
 10
-87.2419528583
 20
-80.1994219899
 30
0.0
 10
-87.0840825309
 20
-80.2483255943
 30
0.0
 10
-86.7249338841
 20
-80.2776363917
 30
0.0
 10
-86.3838354697
 20
-80.1459955493
 30
0.0
 10
-86.2356885896
 20
-80.0376408843
 30
0.0
  0
SPLINE
  5
43C
100
AcDbEntity
  8
0
100
AcDbSpline
 62
7
  6
CONTINUOUS
 70
0
 71
3
 72
9
 73
5
 74
0
 42
0.0000001
 43
0.0000001
 44
0.0000000001
 40
0.0
 40
0.0
 40
0.0
 40
0.0
 40
0.2566084494
 40
1.0
 40
1.0
 40
1.0
 40
1.0
 10
-100.2123814057
 20
-44.1924294016
 30
0.0
 10
-100.2122610133
 20
-44.9031004563
 30
0.0
 10
-100.1330666088
 20
-47.6716059024
 30
0.0
 10
-99.7295413486
 20
-50.4339328176
 30
0.0
 10
-99.2279542755
 20
-52.4307027447
 30
0.0
  0
SPLINE
  5
43D
100
AcDbEntity
  8
0
100
AcDbSpline
 62
7
  6
CONTINUOUS
 70
0
 71
3
 72
9
 73
5
 74
0
 42
0.0000001
 43
0.0000001
 44
0.0000000001
 40
0.0
 40
0.0
 40
0.0
 40
0.0
 40
0.2549365437
 40
1.0
 40
1.0
 40
1.0
 40
1.0
 10
-99.230835361
 20
-35.4237893326
 30
0.0
 10
-99.3927566354
 20
-36.1567390073
 30
0.0
 10
-99.9538212558
 20
-39.0473697613
 30
0.0
 10
-100.2127530378
 20
-41.9987023929
 30
0.0
 10
-100.2123814057
 20
-44.1924294016
 30
0.0
  0
SPLINE
  5
43E
100
AcDbEntity
  8
0
100
AcDbSpline
 62
7
  6
CONTINUOUS
 70
0
 71
3
 72
9
 73
5
 74
0
 42
0.0000001
 43
0.0000001
 44
0.0000000001
 40
0.0
 40
0.0
 40
0.0
 40
0.0
 40
0.5047111677
 40
1.0
 40
1.0
 40
1.0
 40
1.0
 10
-104.1760171785
 20
-34.3118219016
 30
0.0
 10
-104.2015578093
 20
-34.4150494557
 30
0.0
 10
-104.2154061543
 20
-34.6307029077
 30
0.0
 10
-104.1503115462
 20
-34.8366081277
 30
0.0
 10
-104.1017368562
 20
-34.9289686722
 30
0.0
  0
SPLINE
  5
43F
100
AcDbEntity
  8
0
100
AcDbSpline
 62
7
  6
CONTINUOUS
 70
0
 71
3
 72
9
 73
5
 74
0
 42
0.0000001
 43
0.0000001
 44
0.0000000001
 40
0.0
 40
0.0
 40
0.0
 40
0.0
 40
0.7475846662
 40
1.0
 40
1.0
 40
1.0
 40
1.0
 10
-104.1017368562
 20
-34.9289686722
 30
0.0
 10
-104.0410728294
 20
-35.0443160383
 30
0.0
 10
-103.9233194691
 20
-35.1823711454
 30
0.0
 10
-103.7787505454
 20
-35.2800145862
 30
0.0
 10
-103.7407999773
 20
-35.302287581
 30
0.0
  0
SPLINE
  5
440
100
AcDbEntity
  8
0
100
AcDbSpline
 62
7
  6
CONTINUOUS
 70
0
 71
3
 72
11
 73
7
 74
0
 42
0.0000001
 43
0.0000001
 44
0.0000000001
 40
0.0
 40
0.0
 40
0.0
 40
0.0
 40
0.262867248
 40
0.5183414297
 40
0.7644360825
 40
1.0
 40
1.0
 40
1.0
 40
1.0
 10
-91.9333400946
 20
-10.8139787016
 30
0.0
 10
-90.4068849139
 20
-9.0735382055
 30
0.0
 10
-87.1736907545
 20
-5.8291822332
 30
0.0
 10
-81.806070683
 20
-1.7307355974
 30
0.0
 10
-76.1145004175
 20
1.4390813868
 30
0.0
 10
-72.1103403727
 20
2.9066454877
 30
0.0
 10
-70.107405494
 20
3.4469935339
 30
0.0
  0
SPLINE
  5
441
100
AcDbEntity
  8
0
100
AcDbSpline
 62
7
  6
CONTINUOUS
 70
0
 71
3
 72
9
 73
5
 74
0
 42
0.0000001
 43
0.0000001
 44
0.0000000001
 40
0.0
 40
0.0
 40
0.0
 40
0.0
 40
0.4971349103
 40
1.0
 40
1.0
 40
1.0
 40
1.0
 10
-104.1758373468
 20
-34.3115706436
 30
0.0
 10
-103.2951868559
 20
-30.668855919
 30
0.0
 10
-100.7310347926
 20
-23.5159102727
 30
0.0
 10
-96.7972287965
 20
-17.0190080254
 30
0.0
 10
-94.5163903961
 20
-13.9910825207
 30
0.0
  0
SPLINE
  5
442
100
AcDbEntity
  8
0
100
AcDbSpline
 62
7
  6
CONTINUOUS
 70
0
 71
3
 72
9
 73
5
 74
0
 42
0.0000001
 43
0.0000001
 44
0.0000000001
 40
0.0
 40
0.0
 40
0.0
 40
0.0
 40
0.5112954804
 40
1.0
 40
1.0
 40
1.0
 40
1.0
 10
-70.107405494
 20
3.4469935339
 30
0.0
 10
-68.0919862441
 20
3.9906994833
 30
0.0
 10
-64.0450843588
 20
4.7074709652
 30
0.0
 10
-59.929412135
 20
4.6026747365
 30
0.0
 10
-57.9525741172
 20
4.3323325648
 30
0.0
  0
SPLINE
  5
443
100
AcDbEntity
  8
0
100
AcDbSpline
 62
7
  6
CONTINUOUS
 70
0
 71
3
 72
9
 73
5
 74
0
 42
0.0000001
 43
0.0000001
 44
0.0000000001
 40
0.0
 40
0.0
 40
0.0
 40
0.0
 40
0.5039203828
 40
1.0
 40
1.0
 40
1.0
 40
1.0
 10
-57.9525741172
 20
4.3323325648
 30
0.0
 10
-56.4399316469
 20
4.1254713821
 30
0.0
 10
-53.46657234
 20
3.4591542411
 30
0.0
 10
-50.6589525752
 20
2.2713266574
 30
0.0
 10
-49.3339972591
 20
1.5618185622
 30
0.0
  0
SPLINE
  5
444
100
AcDbEntity
  8
0
100
AcDbSpline
 62
7
  6
CONTINUOUS
 70
0
 71
3
 72
9
 73
5
 74
0
 42
0.0000001
 43
0.0000001
 44
0.0000000001
 40
0.0
 40
0.0
 40
0.0
 40
0.0
 40
0.4971186028
 40
1.0
 40
1.0
 40
1.0
 40
1.0
 10
-92.072412004
 20
-78.0981919021
 30
0.0
 10
-93.2165271845
 20
-77.4410954463
 30
0.0
 10
-95.4105440335
 20
-75.9228887247
 30
0.0
 10
-97.3225512772
 20
-74.0631799097
 30
0.0
 10
-98.2026452095
 20
-73.0597839734
 30
0.0
  0
SPLINE
  5
445
100
AcDbEntity
  8
0
100
AcDbSpline
 62
7
  6
CONTINUOUS
 70
0
 71
3
 72
9
 73
5
 74
0
 42
0.0000001
 43
0.0000001
 44
0.0000000001
 40
0.0
 40
0.0
 40
0.0
 40
0.0
 40
0.2520747256
 40
1.0
 40
1.0
 40
1.0
 40
1.0
 10
-101.4683599993
 20
-71.3862361927
 30
0.0
 10
-101.7728957061
 20
-71.1135988749
 30
0.0
 10
-102.9653439262
 20
-70.0147123177
 30
0.0
 10
-104.0935692445
 20
-68.845646284
 30
0.0
 10
-104.8923664351
 20
-67.9330897682
 30
0.0
  0
SPLINE
  5
446
100
AcDbEntity
  8
0
100
AcDbSpline
 62
7
  6
CONTINUOUS
 70
0
 71
3
 72
9
 73
5
 74
0
 42
0.0000001
 43
0.0000001
 44
0.0000000001
 40
0.0
 40
0.0
 40
0.0
 40
0.0
 40
0.2529713041
 40
1.0
 40
1.0
 40
1.0
 40
1.0
 10
-105.0168966702
 20
-67.7900907993
 30
0.0
 10
-105.2730666005
 20
-67.4944069144
 30
0.0
 10
-106.2670787562
 20
-66.3096055077
 30
0.0
 10
-107.1848528568
 20
-65.0604092401
 30
0.0
 10
-107.8186593097
 20
-64.0945155636
 30
0.0
  0
SPLINE
  5
447
100
AcDbEntity
  8
0
100
AcDbSpline
 62
7
  6
CONTINUOUS
 70
0
 71
3
 72
9
 73
5
 74
0
 42
0.0000001
 43
0.0000001
 44
0.0000000001
 40
0.0
 40
0.0
 40
0.0
 40
0.0
 40
0.2533212447
 40
1.0
 40
1.0
 40
1.0
 40
1.0
 10
-107.9417496704
 20
-63.9055076547
 30
0.0
 10
-108.1336146192
 20
-63.6086473359
 30
0.0
 10
-108.8718146904
 20
-62.4245265162
 30
0.0
 10
-109.5310185938
 20
-61.1907736811
 30
0.0
 10
-109.9708472988
 20
-60.2463028078
 30
0.0
  0
SPLINE
  5
448
100
AcDbEntity
  8
0
100
AcDbSpline
 62
7
  6
CONTINUOUS
 70
0
 71
3
 72
9
 73
5
 74
0
 42
0.0000001
 43
0.0000001
 44
0.0000000001
 40
0.0
 40
0.0
 40
0.0
 40
0.0
 40
0.5057775386
 40
1.0
 40
1.0
 40
1.0
 40
1.0
 10
-94.5314930451
 20
-10.0037725408
 30
0.0
 10
-94.6553579466
 20
-10.1531142224
 30
0.0
 10
-94.8653637972
 20
-10.4776057941
 30
0.0
 10
-94.9878178357
 20
-10.851337639
 30
0.0
 10
-95.003646375
 20
-11.0402673867
 30
0.0
  0
SPLINE
  5
449
100
AcDbEntity
  8
0
100
AcDbSpline
 62
7
  6
CONTINUOUS
 70
0
 71
3
 72
9
 73
5
 74
0
 42
0.0000001
 43
0.0000001
 44
0.0000000001
 40
0.0
 40
0.0
 40
0.0
 40
0.0
 40
0.4403096997
 40
1.0
 40
1.0
 40
1.0
 40
1.0
 10
-37.0469372096
 20
-17.1270098734
 30
0.0
 10
-37.0068441512
 20
-17.1044890153
 30
0.0
 10
-36.8961364321
 20
-17.0890004366
 30
0.0
 10
-36.7961011253
 20
-17.1267777027
 30
0.0
 10
-36.7439513386
 20
-17.1531817112
 30
0.0
  0
SPLINE
  5
44A
100
AcDbEntity
  8
0
100
AcDbSpline
 62
7
  6
CONTINUOUS
 70
0
 71
3
 72
9
 73
5
 74
0
 42
0.0000001
 43
0.0000001
 44
0.0000000001
 40
0.0
 40
0.0
 40
0.0
 40
0.0
 40
0.5092400287
 40
1.0
 40
1.0
 40
1.0
 40
1.0
 10
-94.5314930451
 20
-10.0037725408
 30
0.0
 10
-92.7287782836
 20
-7.8303298008
 30
0.0
 10
-88.8386340064
 20
-3.8391760733
 30
0.0
 10
-84.3167776454
 20
-0.5704275999
 30
0.0
 10
-81.9683793922
 20
0.8045058843
 30
0.0
  0
SPLINE
  5
44B
100
AcDbEntity
  8
0
100
AcDbSpline
 62
7
  6
CONTINUOUS
 70
0
 71
3
 72
11
 73
7
 74
0
 42
0.0000001
 43
0.0000001
 44
0.0000000001
 40
0.0
 40
0.0
 40
0.0
 40
0.0
 40
0.2578389932
 40
0.5094420885
 40
0.7562508595
 40
1.0
 40
1.0
 40
1.0
 40
1.0
 10
-94.5314856664
 20
-10.0037632229
 30
0.0
 10
-94.4266388429
 20
-9.0502217827
 30
0.0
 10
-94.1498065869
 20
-7.1721579353
 30
0.0
 10
-93.4496788002
 20
-4.440964906
 30
0.0
 10
-92.4508617522
 20
-1.8593048011
 30
0.0
 10
-91.5681197758
 20
-0.2540356844
 30
0.0
 10
-91.0765606331
 20
0.5080519868
 30
0.0
  0
SPLINE
  5
44C
100
AcDbEntity
  8
0
100
AcDbSpline
 62
7
  6
CONTINUOUS
 70
0
 71
3
 72
9
 73
5
 74
0
 42
0.0000001
 43
0.0000001
 44
0.0000000001
 40
0.0
 40
0.0
 40
0.0
 40
0.0
 40
0.498924858
 40
1.0
 40
1.0
 40
1.0
 40
1.0
 10
-91.0765606331
 20
0.5080519868
 30
0.0
 10
-90.5218317386
 20
1.3680747482
 30
0.0
 10
-89.2760577875
 20
3.009723376
 30
0.0
 10
-87.7725424518
 20
4.422486372
 30
0.0
 10
-86.9635898821
 20
5.0565261326
 30
0.0
  0
SPLINE
  5
44D
100
AcDbEntity
  8
0
100
AcDbSpline
 62
7
  6
CONTINUOUS
 70
0
 71
3
 72
8
 73
4
 74
0
 42
0.0000001
 43
0.0000001
 44
0.0000000001
 40
0.0
 40
0.0
 40
0.0
 40
0.0
 40
1.0
 40
1.0
 40
1.0
 40
1.0
 10
-103.7407999773
 20
-35.302287581
 30
0.0
 10
-103.6249737577
 20
-35.370265398
 30
0.0
 10
-103.4935953324
 20
-35.4157807375
 30
0.0
 10
-103.3608973639
 20
-35.4364675908
 30
0.0
  0
SPLINE
  5
44E
100
AcDbEntity
  8
0
100
AcDbSpline
 62
7
  6
CONTINUOUS
 70
0
 71
3
 72
9
 73
5
 74
0
 42
0.0000001
 43
0.0000001
 44
0.0000000001
 40
0.0
 40
0.0
 40
0.0
 40
0.0
 40
0.5026730441
 40
1.0
 40
1.0
 40
1.0
 40
1.0
 10
-94.6621527121
 20
-13.8589583235
 30
0.0
 10
-96.9407391039
 20
-16.9066152123
 30
0.0
 10
-100.8862346935
 20
-23.4296769605
 30
0.0
 10
-103.5003736077
 20
-30.5942987028
 30
0.0
 10
-104.4192725537
 20
-34.245247705
 30
0.0
  0
SPLINE
  5
44F
100
AcDbEntity
  8
0
100
AcDbSpline
 62
7
  6
CONTINUOUS
 70
0
 71
3
 72
11
 73
7
 74
0
 42
0.0000001
 43
0.0000001
 44
0.0000000001
 40
0.0
 40
0.0
 40
0.0
 40
0.0
 40
0.2783840153
 40
0.5228186433
 40
0.7583136714
 40
1.0
 40
1.0
 40
1.0
 40
1.0
 10
-104.548378332
 20
-34.7692548425
 30
0.0
 10
-104.5821296038
 20
-34.9092575312
 30
0.0
 10
-104.573874289
 20
-35.1991299745
 30
0.0
 10
-104.3346126666
 20
-35.5321096814
 30
0.0
 10
-103.9991027515
 20
-35.7148959849
 30
0.0
 10
-103.7513765991
 20
-35.7560431794
 30
0.0
 10
-103.6263993463
 20
-35.7596437357
 30
0.0
  0
SPLINE
  5
450
100
AcDbEntity
  8
0
100
AcDbSpline
 62
7
  6
CONTINUOUS
 70
0
 71
3
 72
9
 73
5
 74
0
 42
0.0000001
 43
0.0000001
 44
0.0000000001
 40
0.0
 40
0.0
 40
0.0
 40
0.0
 40
0.4912446063
 40
1.0
 40
1.0
 40
1.0
 40
1.0
 10
-81.149122524
 20
1.8438513941
 30
0.0
 10
-81.3198603912
 20
1.7377210653
 30
0.0
 10
-81.6354319834
 20
1.4695494895
 30
0.0
 10
-81.8635101067
 20
1.1150654154
 30
0.0
 10
-81.9301208816
 20
0.9178075274
 30
0.0
  0
SPLINE
  5
451
100
AcDbEntity
  8
0
100
AcDbSpline
 62
7
  6
CONTINUOUS
 70
0
 71
3
 72
9
 73
5
 74
0
 42
0.0000001
 43
0.0000001
 44
0.0000000001
 40
0.0
 40
0.0
 40
0.0
 40
0.0
 40
0.2549398698
 40
1.0
 40
1.0
 40
1.0
 40
1.0
 10
-99.5784497319
 20
-35.8762628341
 30
0.0
 10
-99.7473117806
 20
-36.6399846544
 30
0.0
 10
-100.3324215061
 20
-39.6519629894
 30
0.0
 10
-100.6024700923
 20
-42.7272958103
 30
0.0
 10
-100.6020828491
 20
-45.0131741689
 30
0.0
  0
SPLINE
  5
452
100
AcDbEntity
  8
0
100
AcDbSpline
 62
7
  6
CONTINUOUS
 70
0
 71
3
 72
9
 73
5
 74
0
 42
0.0000001
 43
0.0000001
 44
0.0000000001
 40
0.0
 40
0.0
 40
0.0
 40
0.0
 40
0.5142411546
 40
1.0
 40
1.0
 40
1.0
 40
1.0
 10
-81.1491134901
 20
1.8438571567
 30
0.0
 10
-80.8512302905
 20
2.7069041939
 30
0.0
 10
-80.1797791926
 20
4.3573044213
 30
0.0
 10
-79.2273109503
 20
5.8714998814
 30
0.0
 10
-78.6923396652
 20
6.5479671108
 30
0.0
  0
SPLINE
  5
453
100
AcDbEntity
  8
0
100
AcDbSpline
 62
7
  6
CONTINUOUS
 70
0
 71
3
 72
9
 73
5
 74
0
 42
0.0000001
 43
0.0000001
 44
0.0000000001
 40
0.0
 40
0.0
 40
0.0
 40
0.0
 40
0.5018155025
 40
1.0
 40
1.0
 40
1.0
 40
1.0
 10
-78.6923396652
 20
6.5479671108
 30
0.0
 10
-78.3048020463
 20
7.0380055608
 30
0.0
 10
-77.4535720107
 20
7.9554311771
 30
0.0
 10
-76.4552123257
 20
8.711435387
 30
0.0
 10
-75.930024475
 20
9.0413940137
 30
0.0
  0
SPLINE
  5
454
100
AcDbEntity
  8
0
100
AcDbSpline
 62
7
  6
CONTINUOUS
 70
0
 71
3
 72
11
 73
7
 74
0
 42
0.0000001
 43
0.0000001
 44
0.0000000001
 40
0.0
 40
0.0
 40
0.0
 40
0.0
 40
0.224596639
 40
0.4632369819
 40
0.7203525661
 40
1.0
 40
1.0
 40
1.0
 40
1.0
 10
-75.2372205038
 20
9.4418412581
 30
0.0
 10
-74.5784517642
 20
9.7909610041
 30
0.0
 10
-73.1388943982
 20
10.3689896301
 30
0.0
 10
-70.767513752
 20
10.7777257881
 30
0.0
 10
-68.1815585868
 20
10.7485183246
 30
0.0
 10
-66.4184952311
 20
10.4421183446
 30
0.0
 10
-65.5162234905
 20
10.2238166309
 30
0.0
  0
SPLINE
  5
455
100
AcDbEntity
  8
0
100
AcDbSpline
 62
7
  6
CONTINUOUS
 70
0
 71
3
 72
9
 73
5
 74
0
 42
0.0000001
 43
0.0000001
 44
0.0000000001
 40
0.0
 40
0.0
 40
0.0
 40
0.0
 40
0.2566147095
 40
1.0
 40
1.0
 40
1.0
 40
1.0
 10
-100.6020828491
 20
-45.0131741689
 30
0.0
 10
-100.6019574022
 20
-45.7536815611
 30
0.0
 10
-100.5193688409
 20
-48.6383455094
 30
0.0
 10
-100.0985472977
 20
-51.5165639935
 30
0.0
 10
-99.5754477235
 20
-53.596978234
 30
0.0
  0
SPLINE
  5
456
100
AcDbEntity
  8
0
100
AcDbSpline
 62
7
  6
CONTINUOUS
 70
0
 71
3
 72
15
 73
11
 74
0
 42
0.0000001
 43
0.0000001
 44
0.0000000001
 40
0.0
 40
0.0
 40
0.0
 40
0.0
 40
0.1315763278
 40
0.257740178
 40
0.3798263925
 40
0.4997252712
 40
0.6196656553
 40
0.7418699113
 40
0.8682109328
 40
1.0
 40
1.0
 40
1.0
 40
1.0
 10
-104.5445470282
 20
-57.3852688306
 30
0.0
 10
-104.0110904926
 20
-59.3075392923
 30
0.0
 10
-102.6531247669
 20
-62.9969079896
 30
0.0
 10
-99.6913261679
 20
-67.9753291325
 30
0.0
 10
-95.9189025405
 20
-72.1429113233
 30
0.0
 10
-91.4340212278
 20
-75.376609796
 30
0.0
 10
-86.3620804762
 20
-77.5824316372
 30
0.0
 10
-80.8479890038
 20
-78.70078499
 30
0.0
 10
-75.0476146248
 20
-78.7101709438
 30
0.0
 10
-71.1753515078
 20
-77.998367181
 30
0.0
 10
-69.2461751423
 20
-77.4779272454
 30
0.0
  0
SPLINE
  5
457
100
AcDbEntity
  8
0
100
AcDbSpline
 62
7
  6
CONTINUOUS
 70
0
 71
3
 72
9
 73
5
 74
0
 42
0.0000001
 43
0.0000001
 44
0.0000000001
 40
0.0
 40
0.0
 40
0.0
 40
0.0
 40
0.243587584
 40
1.0
 40
1.0
 40
1.0
 40
1.0
 10
-69.2461751423
 20
-77.4779272454
 30
0.0
 10
-68.4444327292
 20
-77.2616386897
 30
0.0
 10
-65.1836954224
 20
-76.261846126
 30
0.0
 10
-62.0595730336
 20
-74.8312396341
 30
0.0
 10
-59.8153683302
 20
-73.5611981146
 30
0.0
  0
SPLINE
  5
458
100
AcDbEntity
  8
0
100
AcDbSpline
 62
7
  6
CONTINUOUS
 70
0
 71
3
 72
9
 73
5
 74
0
 42
0.0000001
 43
0.0000001
 44
0.0000000001
 40
0.0
 40
0.0
 40
0.0
 40
0.0
 40
0.2348912241
 40
1.0
 40
1.0
 40
1.0
 40
1.0
 10
-65.9556915658
 20
7.8454364335
 30
0.0
 10
-66.0441492623
 20
7.8301612941
 30
0.0
 10
-66.4131741347
 20
7.730528752
 30
0.0
 10
-66.7517352349
 20
7.4937349638
 30
0.0
 10
-66.9229512095
 20
7.2567097435
 30
0.0
  0
SPLINE
  5
459
100
AcDbEntity
  8
0
100
AcDbSpline
 62
7
  6
CONTINUOUS
 70
0
 71
3
 72
9
 73
5
 74
0
 42
0.0000001
 43
0.0000001
 44
0.0000000001
 40
0.0
 40
0.0
 40
0.0
 40
0.0
 40
0.7888789815
 40
1.0
 40
1.0
 40
1.0
 40
1.0
 10
-76.0399613492
 20
9.2117116453
 30
0.0
 10
-76.0256417941
 20
9.2131595823
 30
0.0
 10
-76.0075173697
 20
9.2147788847
 30
0.0
 10
-75.9890882304
 20
9.2139873215
 30
0.0
 10
-75.985364689
 20
9.2130017674
 30
0.0
  0
SPLINE
  5
45A
100
AcDbEntity
  8
0
100
AcDbSpline
 62
7
  6
CONTINUOUS
 70
0
 71
3
 72
11
 73
7
 74
0
 42
0.0000001
 43
0.0000001
 44
0.0000000001
 40
0.0
 40
0.0
 40
0.0
 40
0.0
 40
0.240050115
 40
0.4842062734
 40
0.7365596826
 40
1.0
 40
1.0
 40
1.0
 40
1.0
 10
-49.3339972591
 20
1.5618185622
 30
0.0
 10
-47.7428429478
 20
0.7097620055
 30
0.0
 10
-44.7131527753
 20
-1.370682552
 30
0.0
 10
-40.9051030151
 20
-5.4468665541
 30
0.0
 10
-37.9197723747
 20
-10.3618974664
 30
0.0
 10
-36.5601829607
 20
-14.0204313042
 30
0.0
 10
-36.0289607667
 20
-15.9286694492
 30
0.0
  0
SPLINE
  5
45B
100
AcDbEntity
  8
0
100
AcDbSpline
 62
7
  6
CONTINUOUS
 70
0
 71
3
 72
9
 73
5
 74
0
 42
0.0000001
 43
0.0000001
 44
0.0000000001
 40
0.0
 40
0.0
 40
0.0
 40
0.0
 40
0.5179939813
 40
1.0
 40
1.0
 40
1.0
 40
1.0
 10
-65.9556823768
 20
7.8454378351
 30
0.0
 10
-65.726776847
 20
8.1729310171
 30
0.0
 10
-65.2502464834
 20
8.7832000614
 30
0.0
 10
-64.6680684412
 20
9.2987730572
 30
0.0
 10
-64.3640249983
 20
9.5127688791
 30
0.0
  0
SPLINE
  5
45C
100
AcDbEntity
  8
0
100
AcDbSpline
 62
7
  6
CONTINUOUS
 70
0
 71
3
 72
9
 73
5
 74
0
 42
0.0000001
 43
0.0000001
 44
0.0000000001
 40
0.0
 40
0.0
 40
0.0
 40
0.0
 40
0.2395003837
 40
1.0
 40
1.0
 40
1.0
 40
1.0
 10
-62.7138563496
 20
10.2445072661
 30
0.0
 10
-62.5712553104
 20
10.2756948683
 30
0.0
 10
-61.9696614171
 20
10.3774494058
 30
0.0
 10
-61.3510158516
 20
10.3630026692
 30
0.0
 10
-60.8916781784
 20
10.300933381
 30
0.0
  0
SPLINE
  5
45D
100
AcDbEntity
  8
0
100
AcDbSpline
 62
7
  6
CONTINUOUS
 70
0
 71
3
 72
9
 73
5
 74
0
 42
0.0000001
 43
0.0000001
 44
0.0000000001
 40
0.0
 40
0.0
 40
0.0
 40
0.0
 40
0.2418429081
 40
1.0
 40
1.0
 40
1.0
 40
1.0
 10
-60.7152310479
 20
10.2745671204
 30
0.0
 10
-60.6285344201
 20
10.2603817878
 30
0.0
 10
-60.2712509581
 20
10.1944850565
 30
0.0
 10
-59.9194059555
 20
10.1001231953
 30
0.0
 10
-59.6573124579
 20
10.015550607
 30
0.0
  0
SPLINE
  5
45E
100
AcDbEntity
  8
0
100
AcDbSpline
 62
7
  6
CONTINUOUS
 70
0
 71
3
 72
8
 73
4
 74
0
 42
0.0000001
 43
0.0000001
 44
0.0000000001
 40
0.0
 40
0.0
 40
0.0
 40
0.0
 40
1.0
 40
1.0
 40
1.0
 40
1.0
 10
-91.6383001493
 20
2.1341692933
 30
0.0
 10
-91.6278968222
 20
2.1404266673
 30
0.0
 10
-91.6120813065
 20
2.1386297994
 30
0.0
 10
-91.6019476246
 20
2.1319445594
 30
0.0
  0
SPLINE
  5
45F
100
AcDbEntity
  8
0
100
AcDbSpline
 62
7
  6
CONTINUOUS
 70
0
 71
3
 72
11
 73
7
 74
0
 42
0.0000001
 43
0.0000001
 44
0.0000000001
 40
0.0
 40
0.0
 40
0.0
 40
0.0
 40
0.5142048673
 40
0.7729317072
 40
0.8990811468
 40
1.0
 40
1.0
 40
1.0
 40
1.0
 10
-90.1809348332
 20
2.9777694245
 30
0.0
 10
-90.1550391805
 20
2.9920534361
 30
0.0
 10
-90.1159631103
 20
3.0128134272
 30
0.0
 10
-90.0686381778
 20
3.0349861447
 30
0.0
 10
-90.0428279289
 20
3.04381318
 30
0.0
 10
-90.0291044504
 20
3.0475745287
 30
0.0
 10
-90.0236269091
 20
3.0456547029
 30
0.0
  0
SPLINE
  5
460
100
AcDbEntity
  8
0
100
AcDbSpline
 62
7
  6
CONTINUOUS
 70
0
 71
3
 72
9
 73
5
 74
0
 42
0.0000001
 43
0.0000001
 44
0.0000000001
 40
0.0
 40
0.0
 40
0.0
 40
0.0
 40
0.5144176122
 40
1.0
 40
1.0
 40
1.0
 40
1.0
 10
-81.149122524
 20
1.8438513941
 30
0.0
 10
-78.9351183771
 20
3.2200261758
 30
0.0
 10
-74.3766048196
 20
5.5132023497
 30
0.0
 10
-69.430893046
 20
6.8195675212
 30
0.0
 10
-66.9936641892
 20
7.1588146671
 30
0.0
  0
SPLINE
  5
461
100
AcDbEntity
  8
0
100
AcDbSpline
 62
7
  6
CONTINUOUS
 70
0
 71
3
 72
11
 73
7
 74
0
 42
0.0000001
 43
0.0000001
 44
0.0000000001
 40
0.0
 40
0.0
 40
0.0
 40
0.0
 40
0.2423158149
 40
0.48807524
 40
0.7399461558
 40
1.0
 40
1.0
 40
1.0
 40
1.0
 10
-97.68289552
 20
-68.2254505013
 30
0.0
 10
-96.4591225342
 20
-68.889409421
 30
0.0
 10
-93.871483979
 20
-70.0129205318
 30
0.0
 10
-89.7202281754
 20
-71.0172119902
 30
0.0
 10
-85.3599088329
 20
-71.3330261108
 30
0.0
 10
-82.4158527521
 20
-71.0866653864
 30
0.0
 10
-80.9394957968
 20
-70.8564084859
 30
0.0
  0
SPLINE
  5
462
100
AcDbEntity
  8
0
100
AcDbSpline
 62
7
  6
CONTINUOUS
 70
0
 71
3
 72
9
 73
5
 74
0
 42
0.0000001
 43
0.0000001
 44
0.0000000001
 40
0.0
 40
0.0
 40
0.0
 40
0.0
 40
0.4808705106
 40
1.0
 40
1.0
 40
1.0
 40
1.0
 10
-51.2642623043
 20
7.0872956598
 30
0.0
 10
-51.3910631515
 20
7.1265748491
 30
0.0
 10
-51.6710751699
 20
7.1611170542
 30
0.0
 10
-51.94697576
 20
7.0961361823
 30
0.0
 10
-52.0776812614
 20
7.0373748314
 30
0.0
  0
SPLINE
  5
463
100
AcDbEntity
  8
0
100
AcDbSpline
 62
7
  6
CONTINUOUS
 70
0
 71
3
 72
9
 73
5
 74
0
 42
0.0000001
 43
0.0000001
 44
0.0000000001
 40
0.0
 40
0.0
 40
0.0
 40
0.0
 40
0.2550854784
 40
1.0
 40
1.0
 40
1.0
 40
1.0
 10
-36.9873600925
 20
-16.5241761918
 30
0.0
 10
-36.9624847349
 20
-16.546038402
 30
0.0
 10
-36.8707277195
 20
-16.6376195335
 30
0.0
 10
-36.8072075194
 20
-16.7609742312
 30
0.0
 10
-36.7922349853
 20
-16.8565184328
 30
0.0
  0
SPLINE
  5
464
100
AcDbEntity
  8
0
100
AcDbSpline
 62
7
  6
CONTINUOUS
 70
0
 71
3
 72
9
 73
5
 74
0
 42
0.0000001
 43
0.0000001
 44
0.0000000001
 40
0.0
 40
0.0
 40
0.0
 40
0.0
 40
0.2554120083
 40
1.0
 40
1.0
 40
1.0
 40
1.0
 10
-51.2642544841
 20
7.0872925587
 30
0.0
 10
-51.2259295079
 20
7.0995925566
 30
0.0
 10
-51.0741787412
 20
7.1421093391
 30
0.0
 10
-50.9144942993
 20
7.1577581671
 30
0.0
 10
-50.7973237165
 20
7.151461496
 30
0.0
  0
SPLINE
  5
465
100
AcDbEntity
  8
0
100
AcDbSpline
 62
7
  6
CONTINUOUS
 70
0
 71
3
 72
9
 73
5
 74
0
 42
0.0000001
 43
0.0000001
 44
0.0000000001
 40
0.0
 40
0.0
 40
0.0
 40
0.0
 40
0.2360491769
 40
1.0
 40
1.0
 40
1.0
 40
1.0
 10
-50.7973237165
 20
7.151461496
 30
0.0
 10
-50.7524669832
 20
7.1490509242
 30
0.0
 10
-50.5629892588
 20
7.1282237647
 30
0.0
 10
-50.3796040636
 20
7.0648007276
 30
0.0
 10
-50.2487528846
 20
7.0014407223
 30
0.0
  0
SPLINE
  5
466
100
AcDbEntity
  8
0
100
AcDbSpline
 62
7
  6
CONTINUOUS
 70
0
 71
3
 72
9
 73
5
 74
0
 42
0.0000001
 43
0.0000001
 44
0.0000000001
 40
0.0
 40
0.0
 40
0.0
 40
0.0
 40
0.4869725041
 40
1.0
 40
1.0
 40
1.0
 40
1.0
 10
-99.1953902418
 20
-72.7962909737
 30
0.0
 10
-100.7580227134
 20
-71.1443464369
 30
0.0
 10
-103.5075680414
 20
-67.2957129808
 30
0.0
 10
-105.2235330975
 20
-62.9031000192
 30
0.0
 10
-105.8546993498
 20
-60.5921514463
 30
0.0
  0
SPLINE
  5
467
100
AcDbEntity
  8
0
100
AcDbSpline
 62
7
  6
CONTINUOUS
 70
0
 71
3
 72
9
 73
5
 74
0
 42
0.0000001
 43
0.0000001
 44
0.0000000001
 40
0.0
 40
0.0
 40
0.0
 40
0.0
 40
0.5696043023
 40
1.0
 40
1.0
 40
1.0
 40
1.0
 10
-41.1052774858
 20
-19.6320732192
 30
0.0
 10
-41.1536455834
 20
-19.6042929233
 30
0.0
 10
-41.2446286734
 20
-19.5622694834
 30
0.0
 10
-41.3501905207
 20
-19.5728762564
 30
0.0
 10
-41.3868407634
 20
-19.593686678
 30
0.0
  0
SPLINE
  5
468
100
AcDbEntity
  8
0
100
AcDbSpline
 62
7
  6
CONTINUOUS
 70
0
 71
3
 72
12
 73
8
 74
0
 42
0.0000001
 43
0.0000001
 44
0.0000000001
 40
0.0
 40
0.0
 40
0.0
 40
0.0
 40
0.2614407201
 40
0.5222151444
 40
0.7801608352
 40
0.90415529
 40
1.0
 40
1.0
 40
1.0
 40
1.0
 10
-102.3621552024
 20
-8.5871951918
 30
0.0
 10
-102.3472724397
 20
-8.5707369355
 30
0.0
 10
-102.3172187537
 20
-8.5379651838
 30
0.0
 10
-102.2716292149
 20
-8.4907987033
 30
0.0
 10
-102.2313016414
 20
-8.4513195775
 30
0.0
 10
-102.2015208457
 20
-8.4288421367
 30
0.0
 10
-102.1821910728
 20
-8.4146911472
 30
0.0
 10
-102.1749137107
 20
-8.4183261439
 30
0.0
  0
SPLINE
  5
469
100
AcDbEntity
  8
0
100
AcDbSpline
 62
7
  6
CONTINUOUS
 70
0
 71
3
 72
9
 73
5
 74
0
 42
0.0000001
 43
0.0000001
 44
0.0000000001
 40
0.0
 40
0.0
 40
0.0
 40
0.0
 40
0.4917930625
 40
1.0
 40
1.0
 40
1.0
 40
1.0
 10
-36.1780412441
 20
-15.8470131712
 30
0.0
 10
-36.112443033
 20
-16.082810587
 30
0.0
 10
-36.186257617
 20
-16.6171115373
 30
0.0
 10
-36.525838158
 20
-17.0251382952
 30
0.0
 10
-36.7439521781
 20
-17.1531819573
 30
0.0
  0
SPLINE
  5
46A
100
AcDbEntity
  8
0
100
AcDbSpline
 62
7
  6
CONTINUOUS
 70
0
 71
3
 72
10
 73
6
 74
0
 42
0.0000001
 43
0.0000001
 44
0.0000000001
 40
0.0
 40
0.0
 40
0.0
 40
0.0
 40
0.2514529684
 40
0.6224060596
 40
1.0
 40
1.0
 40
1.0
 40
1.0
 10
-36.3614706538
 20
-17.3618234701
 30
0.0
 10
-36.3934431731
 20
-17.3441686669
 30
0.0
 10
-36.4742436493
 20
-17.3035137877
 30
0.0
 10
-36.5983761297
 20
-17.227838634
 30
0.0
 10
-36.6956786091
 20
-17.1791817968
 30
0.0
 10
-36.7439575087
 20
-17.1531606594
 30
0.0
  0
SPLINE
  5
46B
100
AcDbEntity
  8
0
100
AcDbSpline
 62
7
  6
CONTINUOUS
 70
0
 71
3
 72
11
 73
7
 74
0
 42
0.0000001
 43
0.0000001
 44
0.0000000001
 40
0.0
 40
0.0
 40
0.0
 40
0.0
 40
0.2504891308
 40
0.5200465967
 40
0.777151314
 40
1.0
 40
1.0
 40
1.0
 40
1.0
 10
-36.0277276966
 20
-15.9285581446
 30
0.0
 10
-35.9940832396
 20
-16.0510256735
 30
0.0
 10
-35.9712386212
 20
-16.3178601715
 30
0.0
 10
-36.0221376934
 20
-16.710975312
 30
0.0
 10
-36.150063895
 20
-17.0716970679
 30
0.0
 10
-36.284199144
 20
-17.2793845928
 30
0.0
 10
-36.3614699962
 20
-17.3618227728
 30
0.0
  0
SPLINE
  5
46C
100
AcDbEntity
  8
0
100
AcDbSpline
 62
7
  6
CONTINUOUS
 70
0
 71
3
 72
10
 73
6
 74
0
 42
0.0000001
 43
0.0000001
 44
0.0000000001
 40
0.0
 40
0.0
 40
0.0
 40
0.0
 40
0.5046422205
 40
0.7537259256
 40
1.0
 40
1.0
 40
1.0
 40
1.0
 10
-110.1716650431
 20
-59.7385739123
 30
0.0
 10
-111.3871095269
 20
-57.4787363666
 30
0.0
 10
-112.8650590349
 20
-53.899132674
 30
0.0
 10
-113.9740875556
 20
-48.9283118774
 30
0.0
 10
-114.2234001217
 20
-46.4139495415
 30
0.0
 10
-114.2693819521
 20
-45.1625595493
 30
0.0
  0
SPLINE
  5
46D
100
AcDbEntity
  8
0
100
AcDbSpline
 62
7
  6
CONTINUOUS
 70
0
 71
3
 72
15
 73
11
 74
0
 42
0.0000001
 43
0.0000001
 44
0.0000000001
 40
0.0
 40
0.0
 40
0.0
 40
0.0
 40
0.1315763278
 40
0.257740178
 40
0.3798263925
 40
0.4997252712
 40
0.6196656553
 40
0.7418699113
 40
0.8682109328
 40
1.0
 40
1.0
 40
1.0
 40
1.0
 10
-33.9616681343
 20
-15.7268574995
 30
0.0
 10
-34.49512467
 20
-13.8045870378
 30
0.0
 10
-35.8530903957
 20
-10.1152183405
 30
0.0
 10
-38.8148889947
 20
-5.1367971975
 30
0.0
 10
-42.587312622
 20
-0.9692150068
 30
0.0
 10
-47.0721939347
 20
2.2644834659
 30
0.0
 10
-52.1441346864
 20
4.4703053071
 30
0.0
 10
-57.6582261588
 20
5.5886586599
 30
0.0
 10
-63.4586005378
 20
5.5980446137
 30
0.0
 10
-67.3308636547
 20
4.8862408509
 30
0.0
 10
-69.2600400203
 20
4.3658009153
 30
0.0
  0
SPLINE
  5
46E
100
AcDbEntity
  8
0
100
AcDbSpline
 62
7
  6
CONTINUOUS
 70
0
 71
3
 72
11
 73
7
 74
0
 42
0.0000001
 43
0.0000001
 44
0.0000000001
 40
0.0
 40
0.0
 40
0.0
 40
0.0
 40
0.2362777909
 40
0.4826113475
 40
0.7378305508
 40
1.0
 40
1.0
 40
1.0
 40
1.0
 10
-70.3020785294
 20
4.0681756087
 30
0.0
 10
-72.3121740444
 20
3.4622226976
 30
0.0
 10
-76.3196509047
 20
1.8778437978
 30
0.0
 10
-82.0052271329
 20
-1.4292932614
 30
0.0
 10
-87.3593175666
 20
-5.6310220912
 30
0.0
 10
-90.5863427721
 20
-8.9257402495
 30
0.0
 10
-92.1105524295
 20
-10.6873791035
 30
0.0
  0
SPLINE
  5
46F
100
AcDbEntity
  8
0
100
AcDbSpline
 62
7
  6
CONTINUOUS
 70
0
 71
3
 72
9
 73
5
 74
0
 42
0.0000001
 43
0.0000001
 44
0.0000000001
 40
0.0
 40
0.0
 40
0.0
 40
0.0
 40
0.2572342003
 40
1.0
 40
1.0
 40
1.0
 40
1.0
 10
-106.5891914865
 20
-59.8771785634
 30
0.0
 10
-106.5788537564
 20
-59.9108594524
 30
0.0
 10
-106.5340872118
 20
-60.0402853336
 30
0.0
 10
-106.4702028411
 20
-60.1635634617
 30
0.0
 10
-106.41137647
 20
-60.2465622903
 30
0.0
  0
SPLINE
  5
470
100
AcDbEntity
  8
0
100
AcDbSpline
 62
7
  6
CONTINUOUS
 70
0
 71
3
 72
14
 73
10
 74
0
 42
0.0000001
 43
0.0000001
 44
0.0000000001
 40
0.0
 40
0.0
 40
0.0
 40
0.0
 40
0.2490688307
 40
0.3740956822
 40
0.4992731571
 40
0.624532627
 40
0.7498082683
 40
0.8749945649
 40
1.0
 40
1.0
 40
1.0
 40
1.0
 10
-107.9780429715
 20
-57.7523616066
 30
0.0
 10
-109.4140865594
 20
-55.4218331045
 30
0.0
 10
-111.2616896472
 20
-51.7088201488
 30
0.0
 10
-112.892253159
 20
-46.46045435
 30
0.0
 10
-113.6799147533
 20
-42.4005167986
 30
0.0
 10
-113.9939492233
 20
-38.2731255354
 30
0.0
 10
-113.7913241331
 20
-34.1376892783
 30
0.0
 10
-113.0773374062
 20
-30.0626236046
 30
0.0
 10
-112.2534245192
 20
-27.4294435769
 30
0.0
 10
-111.7586019237
 20
-26.1477475293
 30
0.0
  0
SPLINE
  5
471
100
AcDbEntity
  8
0
100
AcDbSpline
 62
7
  6
CONTINUOUS
 70
0
 71
3
 72
9
 73
5
 74
0
 42
0.0000001
 43
0.0000001
 44
0.0000000001
 40
0.0
 40
0.0
 40
0.0
 40
0.0
 40
0.2535950134
 40
1.0
 40
1.0
 40
1.0
 40
1.0
 10
-104.1760171785
 20
-34.3118219016
 30
0.0
 10
-104.2071017385
 20
-34.3508054959
 30
0.0
 10
-104.3301074123
 20
-34.5041896908
 30
0.0
 10
-104.4558381986
 20
-34.6553579862
 30
0.0
 10
-104.5483785412
 20
-34.7692536147
 30
0.0
  0
SPLINE
  5
472
100
AcDbEntity
  8
0
100
AcDbSpline
 62
7
  6
CONTINUOUS
 70
0
 71
3
 72
12
 73
8
 74
0
 42
0.0000001
 43
0.0000001
 44
0.0000000001
 40
0.0
 40
0.0
 40
0.0
 40
0.0
 40
0.2703106675
 40
0.5372715016
 40
0.7961132904
 40
0.9159468861
 40
1.0
 40
1.0
 40
1.0
 40
1.0
 10
-110.7172164658
 20
-23.6445620155
 30
0.0
 10
-110.707725837
 20
-23.6241068025
 30
0.0
 10
-110.688388341
 20
-23.5834119898
 30
0.0
 10
-110.6591420141
 20
-23.5249241288
 30
0.0
 10
-110.6310042642
 20
-23.4754448663
 30
0.0
 10
-110.6124279701
 20
-23.4478036424
 30
0.0
 10
-110.5950448921
 20
-23.4296474962
 30
0.0
 10
-110.589284224
 20
-23.4336450393
 30
0.0
  0
SPLINE
  5
473
100
AcDbEntity
  8
0
100
AcDbSpline
 62
7
  6
CONTINUOUS
 70
0
 71
3
 72
9
 73
5
 74
0
 42
0.0000001
 43
0.0000001
 44
0.0000000001
 40
0.0
 40
0.0
 40
0.0
 40
0.0
 40
0.2616169468
 40
1.0
 40
1.0
 40
1.0
 40
1.0
 10
-108.2995591552
 20
-43.4069532511
 30
0.0
 10
-108.3041279106
 20
-43.4667490588
 30
0.0
 10
-108.3114134148
 20
-43.6955962811
 30
0.0
 10
-108.2771763197
 20
-43.9286596767
 30
0.0
 10
-108.2169672416
 20
-44.0868472815
 30
0.0
  0
SPLINE
  5
474
100
AcDbEntity
  8
0
100
AcDbSpline
 62
7
  6
CONTINUOUS
 70
0
 71
3
 72
11
 73
7
 74
0
 42
0.0000001
 43
0.0000001
 44
0.0000000001
 40
0.0
 40
0.0
 40
0.0
 40
0.0
 40
0.2499831427
 40
0.4996501357
 40
0.7496181666
 40
1.0
 40
1.0
 40
1.0
 40
1.0
 10
-108.2995583891
 20
-43.4069411992
 30
0.0
 10
-108.8312897213
 20
-41.9322813932
 30
0.0
 10
-109.7545051623
 20
-38.9309613062
 30
0.0
 10
-110.5992399341
 20
-34.294214859
 30
0.0
 10
-110.829491802
 20
-29.5829837826
 30
0.0
 10
-110.5517113995
 20
-26.445637166
 30
0.0
 10
-110.3033915739
 20
-24.8953011993
 30
0.0
  0
SPLINE
  5
475
100
AcDbEntity
  8
0
100
AcDbSpline
 62
7
  6
CONTINUOUS
 70
0
 71
3
 72
9
 73
5
 74
0
 42
0.0000001
 43
0.0000001
 44
0.0000000001
 40
0.0
 40
0.0
 40
0.0
 40
0.0
 40
0.5142053903
 40
1.0
 40
1.0
 40
1.0
 40
1.0
 10
-104.0654585286
 20
-25.8937420262
 30
0.0
 10
-104.1277371406
 20
-26.0440290183
 30
0.0
 10
-104.2202107053
 20
-26.348653331
 30
0.0
 10
-104.2403538701
 20
-26.6702288527
 30
0.0
 10
-104.2200622123
 20
-26.8225751289
 30
0.0
  0
SPLINE
  5
476
100
AcDbEntity
  8
0
100
AcDbSpline
 62
7
  6
CONTINUOUS
 70
0
 71
3
 72
9
 73
5
 74
0
 42
0.0000001
 43
0.0000001
 44
0.0000000001
 40
0.0
 40
0.0
 40
0.0
 40
0.0
 40
0.236464025
 40
1.0
 40
1.0
 40
1.0
 40
1.0
 10
-104.5445470282
 20
-57.3852688306
 30
0.0
 10
-104.5542692304
 20
-57.3502354965
 30
0.0
 10
-104.5812448021
 20
-57.1980622178
 30
0.0
 10
-104.5559200944
 20
-57.0404464697
 30
0.0
 10
-104.5206954857
 20
-56.9284587566
 30
0.0
  0
SPLINE
  5
477
100
AcDbEntity
  8
0
100
AcDbSpline
 62
7
  6
CONTINUOUS
 70
0
 71
3
 72
8
 73
4
 74
0
 42
0.0000001
 43
0.0000001
 44
0.0000000001
 40
0.0
 40
0.0
 40
0.0
 40
0.0
 40
1.0
 40
1.0
 40
1.0
 40
1.0
 10
-104.5445472368
 20
-57.385269831
 30
0.0
 10
-104.4434326654
 20
-57.0668716014
 30
0.0
 10
-104.3439954577
 20
-56.7479419964
 30
0.0
 10
-104.2427329658
 20
-56.4295907802
 30
0.0
  0
SPLINE
  5
478
100
AcDbEntity
  8
0
100
AcDbSpline
 62
7
  6
CONTINUOUS
 70
0
 71
3
 72
11
 73
7
 74
0
 42
0.0000001
 43
0.0000001
 44
0.0000000001
 40
0.0
 40
0.0
 40
0.0
 40
0.0
 40
0.2636599909
 40
0.5160614507
 40
0.7601231765
 40
1.0
 40
1.0
 40
1.0
 40
1.0
 10
-70.0938176025
 20
-75.5854207181
 30
0.0
 10
-72.028390601
 20
-76.1073100004
 30
0.0
 10
-75.9128076413
 20
-76.8089099803
 30
0.0
 10
-81.7266126904
 20
-76.7350348502
 30
0.0
 10
-87.2278439486
 20
-75.5045330907
 30
0.0
 10
-90.5877196598
 20
-73.9233933672
 30
0.0
 10
-92.1408453914
 20
-72.9688865812
 30
0.0
  0
SPLINE
  5
479
100
AcDbEntity
  8
0
100
AcDbSpline
 62
7
  6
CONTINUOUS
 70
0
 71
3
 72
11
 73
7
 74
0
 42
0.0000001
 43
0.0000001
 44
0.0000000001
 40
0.0
 40
0.0
 40
0.0
 40
0.0
 40
0.2530666559
 40
0.5034632887
 40
0.7521806394
 40
1.0
 40
1.0
 40
1.0
 40
1.0
 10
-104.0654540531
 20
-25.8937304998
 30
0.0
 10
-104.2082398735
 20
-24.6104293284
 30
0.0
 10
-104.3852737875
 20
-22.0429607137
 30
0.0
 10
-104.2261439577
 20
-18.1997024838
 30
0.0
 10
-103.6017828185
 20
-14.4297806657
 30
0.0
 10
-102.8539187542
 20
-11.9996735532
 30
0.0
 10
-102.4024138422
 20
-10.8185852779
 30
0.0
  0
SPLINE
  5
47A
100
AcDbEntity
  8
0
100
AcDbSpline
 62
7
  6
CONTINUOUS
 70
0
 71
3
 72
9
 73
5
 74
0
 42
0.0000001
 43
0.0000001
 44
0.0000000001
 40
0.0
 40
0.0
 40
0.0
 40
0.0
 40
0.4990044248
 40
1.0
 40
1.0
 40
1.0
 40
1.0
 10
-102.4024138422
 20
-10.8185852779
 30
0.0
 10
-102.0550939729
 20
-9.9100338653
 30
0.0
 10
-101.2654453889
 20
-8.1232050346
 30
0.0
 10
-100.2746598019
 20
-6.4386088526
 30
0.0
 10
-99.7313281391
 20
-5.6271577782
 30
0.0
  0
SPLINE
  5
47B
100
AcDbEntity
  8
0
100
AcDbSpline
 62
7
  6
CONTINUOUS
 70
0
 71
3
 72
10
 73
6
 74
0
 42
0.0000001
 43
0.0000001
 44
0.0000000001
 40
0.0
 40
0.0
 40
0.0
 40
0.0
 40
0.572776094
 40
0.8351506603
 40
1.0
 40
1.0
 40
1.0
 40
1.0
 10
-114.0264606959
 20
-39.8692429571
 30
0.0
 10
-114.0226030061
 20
-39.8383731569
 30
0.0
 10
-114.0138274584
 20
-39.7878336635
 30
0.0
 10
-114.0083169473
 20
-39.747452493
 30
0.0
 10
-113.9924398717
 20
-39.7085728028
 30
0.0
 10
-113.9857389592
 20
-39.7145113181
 30
0.0
  0
SPLINE
  5
47C
100
AcDbEntity
  8
0
100
AcDbSpline
 62
7
  6
CONTINUOUS
 70
0
 71
3
 72
9
 73
5
 74
0
 42
0.0000001
 43
0.0000001
 44
0.0000000001
 40
0.0
 40
0.0
 40
0.0
 40
0.0
 40
0.4862146208
 40
1.0
 40
1.0
 40
1.0
 40
1.0
 10
-106.5891914865
 20
-59.8771785634
 30
0.0
 10
-107.3285110514
 20
-57.4682813669
 30
0.0
 10
-108.282048069
 20
-52.3291636008
 30
0.0
 10
-108.204923043
 20
-47.114156256
 30
0.0
 10
-107.9344929333
 20
-44.4652423707
 30
0.0
  0
SPLINE
  5
47D
100
AcDbEntity
  8
0
100
AcDbSpline
 62
7
  6
CONTINUOUS
 70
0
 71
3
 72
8
 73
4
 74
0
 42
0.0000001
 43
0.0000001
 44
0.0000000001
 40
0.0
 40
0.0
 40
0.0
 40
0.0
 40
1.0
 40
1.0
 40
1.0
 40
1.0
 10
-33.961668332
 20
-15.7268562657
 30
0.0
 10
-34.6504222621
 20
-15.7933954437
 30
0.0
 10
-35.338776889
 20
-15.8640893684
 30
0.0
 10
-36.0277276966
 20
-15.9285581446
 30
0.0
  0
SPLINE
  5
47E
100
AcDbEntity
  8
0
100
AcDbSpline
 62
7
  6
CONTINUOUS
 70
0
 71
3
 72
10
 73
6
 74
0
 42
0.0000001
 43
0.0000001
 44
0.0000000001
 40
0.0
 40
0.0
 40
0.0
 40
0.0
 40
0.4926114842
 40
0.7516979936
 40
1.0
 40
1.0
 40
1.0
 40
1.0
 10
-33.9616681343
 20
-15.7268574995
 30
0.0
 10
-33.8813023922
 20
-16.0164503158
 30
0.0
 10
-34.0898774339
 20
-16.5140967029
 30
0.0
 10
-34.4971707215
 20
-16.9550482199
 30
0.0
 10
-34.7515279078
 20
-17.1397273207
 30
0.0
 10
-34.8832273108
 20
-17.2145834361
 30
0.0
  0
SPLINE
  5
47F
100
AcDbEntity
  8
0
100
AcDbSpline
 62
7
  6
CONTINUOUS
 70
0
 71
3
 72
9
 73
5
 74
0
 42
0.0000001
 43
0.0000001
 44
0.0000000001
 40
0.0
 40
0.0
 40
0.0
 40
0.0
 40
0.5114162919
 40
1.0
 40
1.0
 40
1.0
 40
1.0
 10
-65.9556915658
 20
7.8454364335
 30
0.0
 10
-63.6474139115
 20
8.2439928532
 30
0.0
 10
-59.0251518628
 20
8.5203086623
 30
0.0
 10
-54.4734657375
 20
7.6019868961
 30
0.0
 10
-52.3629287618
 20
6.8579295761
 30
0.0
  0
SPLINE
  5
480
100
AcDbEntity
  8
0
100
AcDbSpline
 62
7
  6
CONTINUOUS
 70
0
 71
3
 72
9
 73
5
 74
0
 42
0.0000001
 43
0.0000001
 44
0.0000000001
 40
0.0
 40
0.0
 40
0.0
 40
0.0
 40
0.4924167191
 40
1.0
 40
1.0
 40
1.0
 40
1.0
 10
-108.2995591552
 20
-43.4069532511
 30
0.0
 10
-108.0886937009
 20
-40.6476791935
 30
0.0
 10
-107.1403565757
 20
-35.0753097831
 30
0.0
 10
-105.2771886745
 20
-29.7439138414
 30
0.0
 10
-104.1253962449
 20
-27.1342324586
 30
0.0
  0
SPLINE
  5
481
100
AcDbEntity
  8
0
100
AcDbSpline
 62
7
  6
CONTINUOUS
 70
0
 71
3
 72
9
 73
5
 74
0
 42
0.0000001
 43
0.0000001
 44
0.0000000001
 40
0.0
 40
0.0
 40
0.0
 40
0.0
 40
0.255362333
 40
1.0
 40
1.0
 40
1.0
 40
1.0
 10
-62.9300346504
 20
-72.8380040146
 30
0.0
 10
-63.514798881
 20
-73.1301853225
 30
0.0
 10
-65.8310580861
 20
-74.2204688967
 30
0.0
 10
-68.2534418927
 20
-75.0888862821
 30
0.0
 10
-70.0938176025
 20
-75.5854207181
 30
0.0
  0
SPLINE
  5
482
100
AcDbEntity
  8
0
100
AcDbSpline
 62
7
  6
CONTINUOUS
 70
0
 71
3
 72
9
 73
5
 74
0
 42
0.0000001
 43
0.0000001
 44
0.0000000001
 40
0.0
 40
0.0
 40
0.0
 40
0.0
 40
0.5080363475
 40
1.0
 40
1.0
 40
1.0
 40
1.0
 10
-45.3894086012
 20
-9.5022791756
 30
0.0
 10
-45.9156251717
 20
-8.1142797396
 30
0.0
 10
-47.1452895373
 20
-5.4507917901
 30
0.0
 10
-48.769006013
 20
-3.0048815208
 30
0.0
 10
-49.6598494954
 20
-1.8767728388
 30
0.0
  0
SPLINE
  5
483
100
AcDbEntity
  8
0
100
AcDbSpline
 62
7
  6
CONTINUOUS
 70
0
 71
3
 72
9
 73
5
 74
0
 42
0.0000001
 43
0.0000001
 44
0.0000000001
 40
0.0
 40
0.0
 40
0.0
 40
0.0
 40
0.5037260549
 40
1.0
 40
1.0
 40
1.0
 40
1.0
 10
-49.7505155742
 20
-1.762613859
 30
0.0
 10
-50.6585263852
 20
-0.6258429929
 30
0.0
 10
-52.654213596
 20
1.4843875709
 30
0.0
 10
-54.9919073156
 20
3.2102348455
 30
0.0
 10
-56.216939115
 20
3.95445407
 30
0.0
  0
SPLINE
  5
484
100
AcDbEntity
  8
0
100
AcDbSpline
 62
7
  6
CONTINUOUS
 70
0
 71
3
 72
8
 73
4
 74
0
 42
0.0000001
 43
0.0000001
 44
0.0000000001
 40
0.0
 40
0.0
 40
0.0
 40
0.0
 40
1.0
 40
1.0
 40
1.0
 40
1.0
 10
-36.0290619214
 20
-15.9283113972
 30
0.0
 10
-36.0788231859
 20
-15.9012420825
 30
0.0
 10
-36.1282452807
 20
-15.8735498671
 30
0.0
 10
-36.1781108995
 20
-15.8466732732
 30
0.0
  0
SPLINE
  5
485
100
AcDbEntity
  8
0
100
AcDbSpline
 62
7
  6
CONTINUOUS
 70
0
 71
3
 72
14
 73
10
 74
0
 42
0.0000001
 43
0.0000001
 44
0.0000000001
 40
0.0
 40
0.0
 40
0.0
 40
0.0
 40
0.1452477812
 40
0.2691669117
 40
0.3760262351
 40
0.4757931314
 40
0.6974376781
 40
0.8381686805
 40
1.0
 40
1.0
 40
1.0
 40
1.0
 10
-36.1781108995
 20
-15.8466732732
 30
0.0
 10
-36.2382299856
 20
-15.8143723348
 30
0.0
 10
-36.3540407324
 20
-15.7618493663
 30
0.0
 10
-36.5283881189
 20
-15.7233262486
 30
0.0
 10
-36.6862587125
 20
-15.7374199466
 30
0.0
 10
-36.8699707116
 20
-15.8325946807
 30
0.0
 10
-36.9791264479
 20
-16.0402615847
 30
0.0
 10
-37.0157016929
 20
-16.2830689784
 30
0.0
 10
-37.0166064947
 20
-16.4260210563
 30
0.0
 10
-37.0134046991
 20
-16.5019926757
 30
0.0
  0
SPLINE
  5
486
100
AcDbEntity
  8
0
100
AcDbSpline
 62
7
  6
CONTINUOUS
 70
0
 71
3
 72
9
 73
5
 74
0
 42
0.0000001
 43
0.0000001
 44
0.0000000001
 40
0.0
 40
0.0
 40
0.0
 40
0.0
 40
0.2505046472
 40
1.0
 40
1.0
 40
1.0
 40
1.0
 10
-104.0654585286
 20
-25.8937420262
 30
0.0
 10
-103.5133398112
 20
-24.5614513619
 30
0.0
 10
-101.0947246306
 20
-19.3347063084
 30
0.0
 10
-97.8379124223
 20
-14.4942606651
 30
0.0
 10
-95.0073097252
 20
-11.2376108612
 30
0.0
  0
ELLIPSE
  5
487
100
AcDbEntity
  8
0
100
AcDbEllipse
 62
7
  6
CONTINUOUS
 10
-92.6486059916
 20
-23.1188153357
 30
0.0
 11
-3.0796170876
 21
27.6881724889
 31
0.0
 40
0.7940331328
 41
0.0253191632
 42
0.2179244273
  0
ELLIPSE
  5
488
100
AcDbEntity
  8
0
100
AcDbEllipse
 62
7
  6
CONTINUOUS
 10
-103.5719764795
 20
-16.8449572711
 30
0.0
 11
10.1689456956
 21
24.0066300217
 31
0.0
 40
0.7885137488
 41
0.470855737
 42
0.6493181453
  0
ELLIPSE
  5
489
100
AcDbEntity
  8
0
100
AcDbEllipse
 62
7
  6
CONTINUOUS
 10
-63.8691204992
 20
-39.6483661142
 30
0.0
 11
-6.3823164634
 21
50.5347780118
 31
0.0
 40
0.6280863912
 41
0.876960338
 42
0.9383367833
  0
ENDSEC
  0
SECTION
  2
OBJECTS
  0
DICTIONARY
  5
C
100
AcDbDictionary
280
0
281
1
  3
ACAD_GROUP
350
D
  3
ACAD_MLINESTYLE
350
17
  3
ACAD_LAYOUT
350
1A
  3
ACAD_PLOTSETTINGS
350
19
  3
ACAD_PLOTSTYLENAME
350
E
  0
DICTIONARY
  5
D
102
{ACAD_REACTORS
330
C
102
}
100
AcDbDictionary
280
0
281
1
  0
ACDBDICTIONARYWDFLT
  5
E
102
{ACAD_REACTORS
330
C
102
}
100
AcDbDictionary
281
1
  3
Normal
350
F
100
AcDbDictionaryWithDefault
340
F
  0
DICTIONARY
  5
17
102
{ACAD_REACTORS
330
C
102
}
100
AcDbDictionary
280
0
281
1
  3
Standard
350
18
  0
DICTIONARY
  5
19
102
{ACAD_REACTORS
330
C
102
}
100
AcDbDictionary
281
1
  0
DICTIONARY
  5
1A
102
{ACAD_REACTORS
330
C
102
}
100
AcDbDictionary
281
1
  3
Model
350
48A
  3
Layout1
350
48B
  0
ACDBPLACEHOLDER
  5
F
102
{ACAD_REACTORS
330
E
102
}
  0
MLINESTYLE
  5
18
102
{ACAD_REACTORS
330
17
102
}
100
AcDbMlineStyle
  2
STANDARD
 70
0
  3

 62
256
 51
90.0
 52
90.0
 71
2
 49
0.5
 62
256
  6
BYLAYER
 49
-0.5
 62
256
  6
BYLAYER
  0
LAYOUT
  5
48A
102
{ACAD_REACTORS
330
1A
102
}
100
AcDbPlotSettings
  1

  2
none_device
  4
ANSI_C_(22.00_x_17.00_Inches)
  6

 40
0.0
 41
0.0
 42
0.0
 43
0.0
 44
558.8
 45
431.8
 46
0.0
 47
0.0
 48
0.0
 49
0.0
140
0.0
141
0.0
142
1.0
143
1.0
 70
1024
 72
1
 73
0
 74
0
  7

 75
0
147
1.0
148
0.0
149
0.0
100
AcDbLayout
  1
Model
 70
0
 71
0
 10
0.0
 20
0.0
 11
558.8
 21
431.8
 12
0.0
 22
0.0
 32
0.0
 14
0.0
 24
0.0
 34
0.0
 15
0.0
 25
0.0
 35
0.0
146
0.0
 13
0.0
 23
0.0
 33
0.0
 16
1.0
 26
0.0
 36
0.0
 17
0.0
 27
1.0
 37
0.0
 76
0
330
1FF
345
0
346
0
  0
LAYOUT
  5
48B
102
{ACAD_REACTORS
330
1A
102
}
100
AcDbPlotSettings
  1

  2
none_device
  4
ANSI_C_(22.00_x_17.00_Inches)
  6

 40
0.0
 41
0.0
 42
0.0
 43
0.0
 44
558.8
 45
431.8
 46
0.0
 47
0.0
 48
0.0
 49
0.0
140
0.0
141
0.0
142
1.0
143
1.0
 70
0
 72
1
 73
0
 74
0
  7

 75
0
147
1.0
148
0.0
149
0.0
100
AcDbLayout
  1
Layout1
 70
0
 71
1
 10
0.0
 20
0.0
 11
558.8
 21
431.8
 12
0.0
 22
0.0
 32
0.0
 14
0.0
 24
0.0
 34
0.0
 15
0.0
 25
0.0
 35
0.0
146
0.0
 13
0.0
 23
0.0
 33
0.0
 16
1.0
 26
0.0
 36
0.0
 17
0.0
 27
1.0
 37
0.0
 76
0
330
200
345
0
346
0
  0
ENDSEC
  0
EOF
