999
DXF file: Y:\3D PRATIKA-KAEDRA_OLGA\TRAVAIL_PHASE_3\CAD3D\PKE32M735_3D-Simplified\PKE32M735_2D-isometric.dxf
999
Pro/ENGINEER 2018260 by Parametric Technology Corporation
  0
SECTION
  2
HEADER
  9
$ACADVER
  1
AC1027
  9
$DWGCODEPAGE
  3
ANSI_1252
  9
$EXTMAX
 10
558.8
 20
431.8
 30
0.0
  9
$EXTMIN
 10
0.0
 20
0.0
 30
0.0
  9
$LIMMIN
 10
0.0
 20
0.0
  9
$LIMMAX
 10
558.8
 20
431.8
  9
$VIEWCTR
 10
279.4
 20
215.9
  9
$VIEWSIZE
 40
431.8
  9
$CLAYER
  8
0
  9
$LTSCALE
 40
30.734
  9
$CELTYPE
  6
BYLAYER
  9
$DIMSCALE
 40
1.0
  9
$DIMASZ
 40
0.1875
  9
$DIMEXO
 40
0.0625
  9
$DIMDLI
 40
21.2344
  9
$DIMEXE
 40
0.125
  9
$DIMCEN
 40
5.0292
  9
$DIMLFAC
 40
1.0
  9
$DIMBLK
  1
_CLOSED
  9
$DIMALT
 70
0
  9
$DIMALTF
 40
0.0393700787
  9
$DIMTXT
 40
0.15625
  9
$DIMTOL
 70
0
  9
$DIMLIM
 70
0
  9
$DIMTFAC
 40
1.0
  9
$DIMGAP
 40
0.625
  9
$DIMDSEP
 70
46
  9
$AUNITS
 70
0
  9
$PDMODE
 70
3
  9
$PDSIZE
 40
0.3125
  9
$HANDSEED
  5
482
  9
$TILEMODE
 70
1
  9
$MEASUREMENT
 70
1
  9
$INSUNITS
 70
4
  0
ENDSEC
  0
SECTION
  2
CLASSES
  0
CLASS
  1
ACDBDICTIONARYWDFLT
  2
AcDbDictionaryWithDefault
  3
AutoCAD 2000
 90
0
 91
1
280
0
281
0
  0
CLASS
  1
ACDBPLACEHOLDER
  2
AcDbPlaceHolder
  3
AutoCAD 2000
 90
0
 91
1
280
0
281
0
  0
CLASS
  1
LAYOUT
  2
AcDbLayout
  3
AutoCAD 2000
 90
0
 91
0
280
0
281
0
  0
ENDSEC
  0
SECTION
  2
TABLES
  0
TABLE
  2
VPORT
  5
8
100
AcDbSymbolTable
 70
2
  0
VPORT
  5
1F4
100
AcDbSymbolTableRecord
100
AcDbViewportTableRecord
  2
*ACTIVE
 70
0
 10
0.0
 20
0.0
 11
1.0
 21
1.0
 12
279.4
 22
215.9
 13
0.0
 23
0.0
 14
1.0
 24
1.0
 15
0.0
 25
0.0
 16
0.0
 26
0.0
 36
1.0
 17
0.0
 27
0.0
 37
0.0
 40
431.8
 41
1.2941176471
 42
50.0
 43
0.0
 44
0.0
 50
0.0
 51
0.0
 71
0
 72
100
 73
1
 74
1
 75
0
 76
0
 77
0
 78
0
  0
ENDTAB
  0
TABLE
  2
LTYPE
  5
5
100
AcDbSymbolTable
 70
6
  0
LTYPE
  5
14
100
AcDbSymbolTableRecord
100
AcDbLinetypeTableRecord
  2
BYBLOCK
 70
0
  3

 72
65
 73
0
 40
0.0
  0
LTYPE
  5
15
100
AcDbSymbolTableRecord
100
AcDbLinetypeTableRecord
  2
BYLAYER
 70
0
  3

 72
65
 73
0
 40
0.0
  0
LTYPE
  5
16
100
AcDbSymbolTableRecord
100
AcDbLinetypeTableRecord
  2
CONTINUOUS
 70
64
  3
Solid line
 72
65
 73
0
 40
0.0
  0
LTYPE
  5
1F5
100
AcDbSymbolTableRecord
100
AcDbLinetypeTableRecord
  2
CENTER
 70
64
  3
____ _ ____ _ ____ _ ____ _ ____ _ ____ _ ____
 72
65
 73
4
 40
0.6
 49
0.375
 74
0
 49
-0.075
 74
0
 49
0.075
 74
0
 49
-0.075
 74
0
  0
LTYPE
  5
1F6
100
AcDbSymbolTableRecord
100
AcDbLinetypeTableRecord
  2
HIDDEN
 70
64
  3
- - - - - - - - - - - - - - - - - - - -
 72
65
 73
2
 40
0.2
 49
0.1
 74
0
 49
-0.1
 74
0
  0
LTYPE
  5
1F7
100
AcDbSymbolTableRecord
100
AcDbLinetypeTableRecord
  2
PHANTOM
 70
64
  3
_____ _ _ _____ _ _ _____ _ _ _____
 72
65
 73
6
 40
0.8
 49
0.45
 74
0
 49
-0.05
 74
0
 49
0.1
 74
0
 49
-0.05
 74
0
 49
0.1
 74
0
 49
-0.05
 74
0
  0
LTYPE
  5
1F8
100
AcDbSymbolTableRecord
100
AcDbLinetypeTableRecord
  2
DOT
 70
64
  3
. . . . . . . . . . . . . . . . . . . .
 72
65
 73
2
 40
0.2
 49
0.1
 74
0
 49
-0.1
 74
0
  0
LTYPE
  5
1F9
100
AcDbSymbolTableRecord
100
AcDbLinetypeTableRecord
  2
DASHED
 70
64
  3
- - - - - - - - - - - - - - - - - - - -
 72
65
 73
2
 40
0.2
 49
0.1
 74
0
 49
-0.1
 74
0
  0
ENDTAB
  0
TABLE
  2
LAYER
  5
2
100
AcDbSymbolTable
 70
36
  0
LAYER
  5
10
100
AcDbSymbolTableRecord
100
AcDbLayerTableRecord
  2
0
 70
0
 62
7
  6
CONTINUOUS
370
-3
390
F
  0
LAYER
  5
1FA
100
AcDbSymbolTableRecord
100
AcDbLayerTableRecord
  2
DEFAULT_1
 70
0
 62
7
  6
CENTER
370
-3
390
F
  0
LAYER
  5
1FB
100
AcDbSymbolTableRecord
100
AcDbLayerTableRecord
  2
DEFAULT_2
 70
0
 62
8
  6
HIDDEN
370
-3
390
F
  0
LAYER
  5
1FC
100
AcDbSymbolTableRecord
100
AcDbLayerTableRecord
  2
DEFAULT_3
 70
0
 62
7
  6
PHANTOM
370
-3
390
F
  0
ENDTAB
  0
TABLE
  2
STYLE
  5
3
100
AcDbSymbolTable
 70
1
  0
STYLE
  5
11
100
AcDbSymbolTableRecord
100
AcDbTextStyleTableRecord
  2
STANDARD
 70
0
 40
0.0
 41
0.8
 50
0.0
 71
0
 42
0.2
  3
txt
  4

  0
STYLE
  5
1FD
100
AcDbSymbolTableRecord
100
AcDbTextStyleTableRecord
  2
TEXTSTYLE_1
 70
0
 40
0.0
 41
0.8
 50
0.0
 71
0
 42
0.2
  3
gdt
  4

  0
ENDTAB
  0
TABLE
  2
VIEW
  5
6
100
AcDbSymbolTable
 70
0
  0
ENDTAB
  0
TABLE
  2
UCS
  5
7
100
AcDbSymbolTable
 70
0
  0
ENDTAB
  0
TABLE
  2
APPID
  5
9
100
AcDbSymbolTable
 70
1
  0
APPID
  5
1FE
100
AcDbSymbolTableRecord
100
AcDbRegAppTableRecord
  2
ACAD
 70
0
  0
ENDTAB
  0
TABLE
  2
BLOCK_RECORD
  5
1
100
AcDbSymbolTable
 70
0
  0
BLOCK_RECORD
  5
1FF
100
AcDbSymbolTableRecord
100
AcDbBlockTableRecord
  2
*Model_Space
  0
BLOCK_RECORD
  5
200
100
AcDbSymbolTableRecord
100
AcDbBlockTableRecord
  2
*Paper_Space
  0
BLOCK_RECORD
  5
201
100
AcDbSymbolTableRecord
100
AcDbBlockTableRecord
  2
_CLOSED
  0
ENDTAB
  0
TABLE
  2
DIMSTYLE
  5
A
100
AcDbSymbolTable
 70
1
100
AcDbDimStyleTable
 71
0
  0
DIMSTYLE
105
202
100
AcDbSymbolTableRecord
100
AcDbDimStyleTableRecord
  2
STANDARD
 70
0
  3

  4

 40
1.0
 41
0.1875
 42
0.0625
 43
0.38
 44
0.125
 45
0.0
 46
0.0
 47
0.01
 48
0.01
140
0.15625
141
0.09
142
0.0
143
25.4
144
1.0
145
0.0
146
1.0
147
0.625
 71
0.0
 72
0.0
 73
1
 74
1
 75
0
 76
0
 77
0
 78
8
 79
2
170
0
171
1
172
0
173
0
174
0
175
0
176
0
177
0
178
0
270
2
179
2
271
2
272
2
273
2
274
2
275
0
280
0
281
0
282
0
283
1
284
8
285
0
286
0
287
3
288
0
340
11
278
46
341
201
342
201
343
201
344
201
  0
ENDTAB
  0
ENDSEC
  0
SECTION
  2
BLOCKS
  0
BLOCK
  5
20
100
AcDbEntity
  8
0
100
AcDbBlockBegin
  2
*Model_Space
 70
0
 10
0.0
 20
0.0
 30
0.0
  3
*Model_Space
  1

  0
ENDBLK
  5
21
100
AcDbEntity
  8
0
100
AcDbBlockEnd
  0
BLOCK
  5
1C
100
AcDbEntity
  8
0
100
AcDbBlockBegin
  2
*Paper_Space
 70
0
 10
0.0
 20
0.0
 30
0.0
  3
*Paper_Space
  1

  0
ENDBLK
  5
1D
100
AcDbEntity
  8
0
100
AcDbBlockEnd
  0
BLOCK
  5
203
100
AcDbEntity
  8
0
100
AcDbBlockBegin
  2
_CLOSED
 70
64
 10
0.0
 20
0.0
  3
_CLOSED
  1

  0
LINE
  5
204
100
AcDbEntity
  8
0
  6
BYBLOCK
 62
0
100
AcDbLine
 10
0.0
 20
0.0
 11
-1.0
 21
0.1666666667
  0
LINE
  5
205
100
AcDbEntity
  8
0
  6
BYBLOCK
 62
0
100
AcDbLine
 10
-1.0
 20
0.1666666667
 11
-1.0
 21
-0.1666666667
  0
LINE
  5
206
100
AcDbEntity
  8
0
  6
BYBLOCK
 62
0
100
AcDbLine
 10
-1.0
 20
-0.1666666667
 11
0.0
 21
0.0
  0
LINE
  5
207
100
AcDbEntity
  8
0
  6
BYBLOCK
 62
0
100
AcDbLine
 10
-1.0
 20
0.0
 11
0.0
 21
0.0
  0
ENDBLK
  5
208
100
AcDbEntity
  8
0
  6
BYBLOCK
 62
0
100
AcDbBlockEnd
  0
ENDSEC
  0
SECTION
  2
ENTITIES
  0
LINE
  5
209
100
AcDbEntity
  8
0
100
AcDbLine
 62
7
  6
CONTINUOUS
 10
-100.6325968539
 20
-15.6796024381
 11
-100.4730375697
 21
-15.6365556666
  0
LINE
  5
20A
100
AcDbEntity
  8
0
100
AcDbLine
 62
7
  6
CONTINUOUS
 10
-35.0277386215
 20
59.3234945821
 11
-35.1869768434
 21
59.2805345073
  0
LINE
  5
20B
100
AcDbEntity
  8
0
100
AcDbLine
 62
7
  6
CONTINUOUS
 10
-92.5013489974
 20
64.9866922395
 11
-96.6262141642
 21
63.8739144758
  0
LINE
  5
20C
100
AcDbEntity
  8
0
100
AcDbLine
 62
7
  6
CONTINUOUS
 10
-32.2924501886
 20
43.1059813451
 11
-30.8139496481
 21
43.2533672627
  0
LINE
  5
20D
100
AcDbEntity
  8
0
100
AcDbLine
 62
7
  6
CONTINUOUS
 10
-34.8514967358
 20
40.9584826995
 11
-36.8945495809
 21
40.7660055416
  0
LINE
  5
20E
100
AcDbEntity
  8
0
100
AcDbLine
 62
7
  6
CONTINUOUS
 10
-103.573294825
 20
81.6547656731
 11
-99.4484296582
 21
82.7675434367
  0
LINE
  5
20F
100
AcDbEntity
  8
0
100
AcDbLine
 62
7
  6
CONTINUOUS
 10
-100.111681538
 20
83.4681223735
 11
-104.2365467048
 21
82.3553446098
  0
LINE
  5
210
100
AcDbEntity
  8
0
100
AcDbLine
 62
7
  6
CONTINUOUS
 10
-101.5300088795
 20
84.2827413082
 11
-105.6548740463
 21
83.1699635445
  0
LINE
  5
211
100
AcDbEntity
  8
0
100
AcDbLine
 62
7
  6
CONTINUOUS
 10
-163.2535297915
 20
70.6381860907
 11
-162.6389188923
 21
70.8039915933
  0
LINE
  5
212
100
AcDbEntity
  8
0
100
AcDbLine
 62
7
  6
CONTINUOUS
 10
-163.5547560629
 20
70.8531398592
 11
-162.9221649449
 21
71.0237959553
  0
LWPOLYLINE
  5
213
100
AcDbEntity
  8
0
100
AcDbPolyline
 62
7
  6
CONTINUOUS
 90
3
 70
0
 10
-76.194830355
 20
70.5950581709
 10
-79.8103580854
 20
69.7424837604
 10
-83.3752692161
 20
68.2132818324
  0
LINE
  5
214
100
AcDbEntity
  8
0
100
AcDbLine
 62
7
  6
CONTINUOUS
 10
-91.3050108959
 20
63.1728925601
 11
-91.2496434246
 21
63.1820725041
  0
LWPOLYLINE
  5
215
100
AcDbEntity
  8
0
100
AcDbPolyline
 62
7
  6
CONTINUOUS
 90
3
 70
0
 10
-74.9864067086
 20
70.7582338439
 10
-75.7357797601
 20
70.6626623504
 10
-76.1948079688
 20
70.595063528
  0
LINE
  5
216
100
AcDbEntity
  8
0
100
AcDbLine
 62
7
  6
CONTINUOUS
 10
-74.58535368
 20
70.8018022006
 11
-74.9864067086
 21
70.7582338439
  0
LINE
  5
217
100
AcDbEntity
  8
0
100
AcDbLine
 62
7
  6
CONTINUOUS
 10
-104.849942245
 20
23.2804465971
 11
-100.8119868956
 21
23.164115184
  0
LINE
  5
218
100
AcDbEntity
  8
0
100
AcDbLine
 62
7
  6
CONTINUOUS
 10
-101.0295014222
 20
23.941195075
 11
-105.2841584743
 21
24.0637691549
  0
LINE
  5
219
100
AcDbEntity
  8
0
100
AcDbLine
 62
7
  6
CONTINUOUS
 10
-105.319023092
 20
24.1134713152
 11
-101.2144480732
 21
23.9952210648
  0
LINE
  5
21A
100
AcDbEntity
  8
0
100
AcDbLine
 62
7
  6
CONTINUOUS
 10
-107.8299291112
 20
-1.5173547661
 11
-107.9770581951
 21
-1.489139992
  0
LINE
  5
21B
100
AcDbEntity
  8
0
100
AcDbLine
 62
7
  6
CONTINUOUS
 10
-132.3975835172
 20
91.799842171
 11
-132.3975199259
 21
91.79984005
  0
LINE
  5
21C
100
AcDbEntity
  8
0
100
AcDbLine
 62
7
  6
CONTINUOUS
 10
-76.1948029717
 20
70.5950624142
 11
-76.1615883844
 21
70.5935941384
  0
LINE
  5
21D
100
AcDbEntity
  8
0
100
AcDbLine
 62
7
  6
CONTINUOUS
 10
-27.8300853043
 20
45.1613336098
 11
-27.6829562205
 21
45.1331188357
  0
LINE
  5
21E
100
AcDbEntity
  8
0
100
AcDbLine
 62
7
  6
CONTINUOUS
 10
-112.6508448272
 20
33.6312716177
 11
-112.6199766123
 21
33.6241453229
  0
LINE
  5
21F
100
AcDbEntity
  8
0
100
AcDbLine
 62
7
  6
CONTINUOUS
 10
-152.4465761516
 20
37.4263310957
 11
-148.6781901464
 21
36.4152655059
  0
LINE
  5
220
100
AcDbEntity
  8
0
100
AcDbLine
 62
7
  6
CONTINUOUS
 10
-101.0295014222
 20
23.941195075
 11
-101.2144485532
 21
23.9952076294
  0
LINE
  5
221
100
AcDbEntity
  8
0
100
AcDbLine
 62
7
  6
CONTINUOUS
 10
-143.6648381966
 20
34.4442776492
 11
-143.5060505662
 21
34.3881620032
  0
LINE
  5
222
100
AcDbEntity
  8
0
100
AcDbLine
 62
7
  6
CONTINUOUS
 10
-143.6847311503
 20
34.3902866568
 11
-143.5262071312
 21
34.3332699532
  0
LINE
  5
223
100
AcDbEntity
  8
0
100
AcDbLine
 62
7
  6
CONTINUOUS
 10
-143.6432909032
 20
34.4927342166
 11
-143.4878205818
 21
34.4318452338
  0
LINE
  5
224
100
AcDbEntity
  8
0
100
AcDbLine
 62
7
  6
CONTINUOUS
 10
-143.643305368
 20
34.4928870068
 11
-143.588777841
 21
34.4712657363
  0
LINE
  5
225
100
AcDbEntity
  8
0
100
AcDbLine
 62
7
  6
CONTINUOUS
 10
-89.3057222975
 20
-24.2841594401
 11
-92.5784316217
 21
-22.707257092
  0
LINE
  5
226
100
AcDbEntity
  8
0
100
AcDbLine
 62
7
  6
CONTINUOUS
 10
-46.3542840681
 20
67.9281341802
 11
-45.8210226423
 21
67.8347114546
  0
LWPOLYLINE
  5
227
100
AcDbEntity
  8
0
100
AcDbPolyline
 62
7
  6
CONTINUOUS
 90
4
 70
0
 10
-63.094069699
 20
71.8254733991
 10
-65.6123740572
 20
72.3631775984
 10
-69.2312392997
 20
72.3539326089
 10
-72.4678715229
 20
71.4734926146
  0
LWPOLYLINE
  5
228
100
AcDbEntity
  8
0
100
AcDbPolyline
 62
7
  6
CONTINUOUS
 90
7
 70
0
 10
-155.2727454651
 20
83.2229222047
 10
-155.3223611728
 20
83.239463719
 10
-155.565877845
 20
83.2704170074
 10
-155.8221165888
 20
83.2241709469
 10
-156.0728472
 20
83.1025349906
 10
-156.3085891873
 20
82.9074202968
 10
-156.4449785161
 20
82.7448814277
  0
LINE
  5
229
100
AcDbEntity
  8
0
100
AcDbLine
 62
7
  6
CONTINUOUS
 10
-158.4186710251
 20
41.3716149549
 11
-158.2773119093
 21
41.2912508105
  0
LINE
  5
22A
100
AcDbEntity
  8
0
100
AcDbLine
 62
7
  6
CONTINUOUS
 10
-158.2940294307
 20
41.1135626797
 11
-158.3989372516
 21
41.1731131709
  0
LINE
  5
22B
100
AcDbEntity
  8
0
100
AcDbLine
 62
7
  6
CONTINUOUS
 10
-92.8061876778
 20
-8.2312588252
 11
-94.7842899267
 21
-7.0951321361
  0
LINE
  5
22C
100
AcDbEntity
  8
0
100
AcDbLine
 62
7
  6
CONTINUOUS
 10
-78.1082698836
 20
-15.0094612612
 11
-80.0863721325
 21
-13.873334572
  0
LINE
  5
22D
100
AcDbEntity
  8
0
100
AcDbLine
 62
7
  6
CONTINUOUS
 10
-65.5826199582
 20
-15.7947355785
 11
-89.0372609095
 21
-2.3235191212
  0
LINE
  5
22E
100
AcDbEntity
  8
0
100
AcDbLine
 62
7
  6
CONTINUOUS
 10
-56.7519166626
 20
-20.1724561229
 11
-51.382781987
 21
-23.2562285649
  0
LINE
  5
22F
100
AcDbEntity
  8
0
100
AcDbLine
 62
7
  6
CONTINUOUS
 10
-57.7326897344
 20
-18.2386755596
 11
-52.3635550588
 21
-21.3224480016
  0
LINE
  5
230
100
AcDbEntity
  8
0
100
AcDbLine
 62
7
  6
CONTINUOUS
 10
-135.5491792286
 20
27.2736979161
 11
-115.7483186724
 21
15.9010369938
  0
LINE
  5
231
100
AcDbEntity
  8
0
100
AcDbLine
 62
7
  6
CONTINUOUS
 10
-131.505975714
 20
90.3483428271
 11
-131.4724637788
 21
90.3390601594
  0
LWPOLYLINE
  5
232
100
AcDbEntity
  8
0
100
AcDbPolyline
 62
7
  6
CONTINUOUS
 90
3
 70
0
 10
-56.3717692226
 20
71.5152645753
 10
-57.1067140537
 20
71.7210578069
 10
-59.3703839615
 20
71.7938433871
  0
LINE
  5
233
100
AcDbEntity
  8
0
100
AcDbLine
 62
7
  6
CONTINUOUS
 10
-132.3975199259
 20
91.79984005
 11
-132.3055637822
 21
91.7725918566
  0
LWPOLYLINE
  5
234
100
AcDbEntity
  8
0
100
AcDbPolyline
 62
7
  6
CONTINUOUS
 90
3
 70
0
 10
-45.826442287
 20
67.8374795218
 10
-46.3765218036
 20
68.0141752254
 10
-47.0772434502
 20
67.9512039314
  0
LINE
  5
235
100
AcDbEntity
  8
0
100
AcDbLine
 62
7
  6
CONTINUOUS
 10
-130.5788706918
 20
89.943895261
 11
-130.553009751
 21
89.9355807201
  0
LINE
  5
236
100
AcDbEntity
  8
0
100
AcDbLine
 62
7
  6
CONTINUOUS
 10
-56.3787580794
 20
71.5175557184
 11
-56.371482237
 21
71.5151391933
  0
LINE
  5
237
100
AcDbEntity
  8
0
100
AcDbLine
 62
7
  6
CONTINUOUS
 10
-131.4929666953
 20
90.3264212851
 11
-131.4680525921
 21
90.3179204575
  0
LINE
  5
238
100
AcDbEntity
  8
0
100
AcDbLine
 62
7
  6
CONTINUOUS
 10
-131.5059669222
 20
90.2964455819
 11
-131.4812204022
 21
90.2876364187
  0
LINE
  5
239
100
AcDbEntity
  8
0
100
AcDbLine
 62
7
  6
CONTINUOUS
 10
-131.5013326535
 20
90.359845679
 11
-131.4687904702
 21
90.3481236784
  0
LINE
  5
23A
100
AcDbEntity
  8
0
100
AcDbLine
 62
7
  6
CONTINUOUS
 10
-155.1122920473
 20
83.0172884432
 11
-154.5800932429
 21
82.8184881449
  0
LINE
  5
23B
100
AcDbEntity
  8
0
100
AcDbLine
 62
7
  6
CONTINUOUS
 10
-155.2727007949
 20
83.2228631712
 11
-154.7044519947
 21
83.0105966891
  0
LINE
  5
23C
100
AcDbEntity
  8
0
100
AcDbLine
 62
7
  6
CONTINUOUS
 10
-145.9776773186
 20
40.2978710466
 11
-144.1296003095
 21
39.2364245947
  0
LINE
  5
23D
100
AcDbEntity
  8
0
100
AcDbLine
 62
7
  6
CONTINUOUS
 10
-73.1429346083
 20
6.0130129554
 11
-52.7497110959
 21
-5.6998727275
  0
LINE
  5
23E
100
AcDbEntity
  8
0
100
AcDbLine
 62
7
  6
CONTINUOUS
 10
-73.0951404251
 20
6.7275456507
 11
-64.1399217923
 21
1.5840992481
  0
LINE
  5
23F
100
AcDbEntity
  8
0
100
AcDbLine
 62
7
  6
CONTINUOUS
 10
-100.4643293366
 20
23.6165874412
 11
-101.0295014222
 21
23.941195075
  0
LINE
  5
240
100
AcDbEntity
  8
0
100
AcDbLine
 62
7
  6
CONTINUOUS
 10
-72.1570440355
 20
13.107973771
 11
-61.1516297357
 21
6.7869936911
  0
LINE
  5
241
100
AcDbEntity
  8
0
100
AcDbLine
 62
7
  6
CONTINUOUS
 10
-71.7608314497
 20
14.444833472
 11
-48.7653216871
 21
1.2373198631
  0
LINE
  5
242
100
AcDbEntity
  8
0
100
AcDbLine
 62
7
  6
CONTINUOUS
 10
-65.4137160686
 20
19.9629140826
 11
-62.8704417485
 21
18.5021797679
  0
LINE
  5
243
100
AcDbEntity
  8
0
100
AcDbLine
 62
7
  6
CONTINUOUS
 10
-67.8493318947
 20
23.1168374258
 11
-59.6022713557
 21
18.3801229357
  0
LINE
  5
244
100
AcDbEntity
  8
0
100
AcDbLine
 62
7
  6
CONTINUOUS
 10
-57.9065058309
 20
18.0715262276
 11
-40.3666636241
 21
7.9974853807
  0
LINE
  5
245
100
AcDbEntity
  8
0
100
AcDbLine
 62
7
  6
CONTINUOUS
 10
-158.4186710251
 20
41.3716149549
 11
-158.2784474688
 21
41.2865659277
  0
LINE
  5
246
100
AcDbEntity
  8
0
100
AcDbLine
 62
7
  6
CONTINUOUS
 10
-161.9721907474
 20
43.6853548669
 11
-161.940021598
 21
43.6627781445
  0
LINE
  5
247
100
AcDbEntity
  8
0
100
AcDbLine
 62
7
  6
CONTINUOUS
 10
-99.3695270334
 20
-18.1738300466
 11
-99.4019128051
 21
-18.1488395518
  0
LINE
  5
248
100
AcDbEntity
  8
0
100
AcDbLine
 62
7
  6
CONTINUOUS
 10
-102.8455137795
 20
-15.2181926798
 11
-99.3699607806
 21
-18.1734814395
  0
LINE
  5
249
100
AcDbEntity
  8
0
100
AcDbLine
 62
7
  6
CONTINUOUS
 10
-128.5670126088
 20
89.1913371293
 11
-128.4983398134
 21
89.1618256092
  0
LINE
  5
24A
100
AcDbEntity
  8
0
100
AcDbLine
 62
7
  6
CONTINUOUS
 10
-128.5834843179
 20
89.1575007339
 11
-128.5151875046
 21
89.1273802115
  0
LINE
  5
24B
100
AcDbEntity
  8
0
100
AcDbLine
 62
7
  6
CONTINUOUS
 10
-46.3542921181
 20
67.9281382838
 11
-43.0832337272
 21
66.352183643
  0
LINE
  5
24C
100
AcDbEntity
  8
0
100
AcDbLine
 62
7
  6
CONTINUOUS
 10
-64.2865352214
 20
27.9897640785
 11
-56.6139792991
 21
23.5830173786
  0
LINE
  5
24D
100
AcDbEntity
  8
0
100
AcDbLine
 62
7
  6
CONTINUOUS
 10
-59.2359260841
 20
25.7543067301
 11
-37.3783715675
 21
13.2003798236
  0
LINE
  5
24E
100
AcDbEntity
  8
0
100
AcDbLine
 62
7
  6
CONTINUOUS
 10
-60.3347741553
 20
28.8058243992
 11
-57.7914998353
 21
27.3450900846
  0
LINE
  5
24F
100
AcDbEntity
  8
0
100
AcDbLine
 62
7
  6
CONTINUOUS
 10
-60.8186869696
 20
31.4812329729
 11
-44.9095897845
 21
22.3438135485
  0
LINE
  5
250
100
AcDbEntity
  8
0
100
AcDbLine
 62
7
  6
CONTINUOUS
 10
-55.3115993459
 20
35.2374525183
 11
-41.9212977279
 21
27.5467079915
  0
LINE
  5
251
100
AcDbEntity
  8
0
100
AcDbLine
 62
7
  6
CONTINUOUS
 10
-104.8558889119
 20
67.904577442
 11
-103.4375615704
 21
67.0899585073
  0
LINE
  5
252
100
AcDbEntity
  8
0
100
AcDbLine
 62
7
  6
CONTINUOUS
 10
-97.9902022239
 20
63.9612575808
 11
-96.5210088277
 21
63.1174236334
  0
LINE
  5
253
100
AcDbEntity
  8
0
100
AcDbLine
 62
7
  6
CONTINUOUS
 10
-123.1612823295
 20
80.0099871311
 11
-121.3770296609
 21
78.9851983073
  0
LINE
  5
254
100
AcDbEntity
  8
0
100
AcDbLine
 62
7
  6
CONTINUOUS
 10
-106.6623560148
 20
77.5683441979
 11
-105.3213754607
 21
76.7981495339
  0
LINE
  5
255
100
AcDbEntity
  8
0
100
AcDbLine
 62
7
  6
CONTINUOUS
 10
-93.6805429078
 20
70.1122158038
 11
-86.8776945611
 21
66.2049872602
  0
LINE
  5
256
100
AcDbEntity
  8
0
100
AcDbLine
 62
7
  6
CONTINUOUS
 10
-34.2055533639
 20
38.8356560725
 11
-57.6601943152
 21
52.3068725298
  0
LINE
  5
257
100
AcDbEntity
  8
0
100
AcDbLine
 62
7
  6
CONTINUOUS
 10
-37.0260498835
 20
40.8415329839
 11
-36.8945495809
 21
40.7660055416
  0
LINE
  5
258
100
AcDbEntity
  8
0
100
AcDbLine
 62
7
  6
CONTINUOUS
 10
-126.1023216226
 20
87.9581096892
 11
-125.9981575847
 21
87.8975800849
  0
LINE
  5
259
100
AcDbEntity
  8
0
100
AcDbLine
 62
7
  6
CONTINUOUS
 10
-109.0971951407
 20
16.1550497124
 11
-109.2098159257
 21
16.2501438103
  0
LINE
  5
25A
100
AcDbEntity
  8
0
100
AcDbLine
 62
7
  6
CONTINUOUS
 10
-101.3914988934
 20
-15.4775187199
 11
-101.5165615261
 21
-15.3475884763
  0
LINE
  5
25B
100
AcDbEntity
  8
0
100
AcDbLine
 62
7
  6
CONTINUOUS
 10
-45.8210226423
 20
67.8347114546
 11
-45.8200172336
 21
67.8341969927
  0
LINE
  5
25C
100
AcDbEntity
  8
0
100
AcDbLine
 62
7
  6
CONTINUOUS
 10
-53.5877060001
 20
65.5826388977
 11
-53.6670096939
 21
65.6254644721
  0
LINE
  5
25D
100
AcDbEntity
  8
0
100
AcDbLine
 62
7
  6
CONTINUOUS
 10
-45.8210226423
 20
67.8347114546
 11
-43.083173833
 21
66.352287962
  0
LINE
  5
25E
100
AcDbEntity
  8
0
100
AcDbLine
 62
7
  6
CONTINUOUS
 10
-53.5386564695
 20
65.6681045547
 11
-53.617072613
 21
65.7128806144
  0
LINE
  5
25F
100
AcDbEntity
  8
0
100
AcDbLine
 62
7
  6
CONTINUOUS
 10
-105.6548740463
 20
83.1699635445
 11
-104.2365467048
 21
82.3553446098
  0
LINE
  5
260
100
AcDbEntity
  8
0
100
AcDbLine
 62
7
  6
CONTINUOUS
 10
-101.5300088795
 20
84.2827413082
 11
-100.111681538
 21
83.4681223735
  0
LINE
  5
261
100
AcDbEntity
  8
0
100
AcDbLine
 62
7
  6
CONTINUOUS
 10
-54.4564396181
 20
58.5392198593
 11
-56.434541867
 21
59.6753465484
  0
LINE
  5
262
100
AcDbEntity
  8
0
100
AcDbLine
 62
7
  6
CONTINUOUS
 10
-126.0615029784
 20
87.9344769231
 11
-121.9574335011
 21
85.4130639595
  0
LINE
  5
263
100
AcDbEntity
  8
0
100
AcDbLine
 62
7
  6
CONTINUOUS
 10
-121.9574335011
 20
85.4130639595
 11
-121.9309910418
 21
85.3955991255
  0
LWPOLYLINE
  5
264
100
AcDbEntity
  8
0
100
AcDbPolyline
 62
7
  6
CONTINUOUS
 90
3
 70
0
 10
-108.8135215556
 20
-7.2897517531
 10
-105.1301716318
 20
-11.8364345068
 10
-101.3915257823
 20
-15.4775549833
  0
LINE
  5
265
100
AcDbEntity
  8
0
100
AcDbLine
 62
7
  6
CONTINUOUS
 10
-161.9560054795
 20
45.515719425
 11
-161.9699770872
 21
45.5359626511
  0
LWPOLYLINE
  5
266
100
AcDbEntity
  8
0
100
AcDbPolyline
 62
7
  6
CONTINUOUS
 90
6
 70
0
 10
-143.5695911298
 20
90.6039370735
 10
-143.7489894999
 20
90.7717844554
 10
-143.9856978814
 20
90.8796673038
 10
-144.2700809284
 20
90.9094834113
 10
-144.5766053755
 20
90.8470844429
 10
-144.7712225079
 20
90.7580197462
  0
LINE
  5
267
100
AcDbEntity
  8
0
100
AcDbLine
 62
7
  6
CONTINUOUS
 10
-161.9478260231
 20
45.5238424449
 11
-161.9609400803
 21
45.5449213865
  0
LINE
  5
268
100
AcDbEntity
  8
0
100
AcDbLine
 62
7
  6
CONTINUOUS
 10
-104.2365467048
 20
82.3553446098
 11
-103.573294825
 21
81.6547656731
  0
LINE
  5
269
100
AcDbEntity
  8
0
100
AcDbLine
 62
7
  6
CONTINUOUS
 10
-99.4484296582
 20
82.7675434367
 11
-100.111681538
 21
83.4681223735
  0
LWPOLYLINE
  5
26A
100
AcDbEntity
  8
0
100
AcDbPolyline
 62
7
  6
CONTINUOUS
 90
4
 70
0
 10
-119.0909106316
 20
82.3406973419
 10
-120.5310208085
 20
84.0795460265
 10
-121.6090995972
 20
85.155390516
 10
-121.9324084155
 20
85.396532998
  0
LINE
  5
26B
100
AcDbEntity
  8
0
100
AcDbLine
 62
7
  6
CONTINUOUS
 10
-118.7072871324
 20
81.854800183
 11
-119.0909106316
 21
82.3406973419
  0
LINE
  5
26C
100
AcDbEntity
  8
0
100
AcDbLine
 62
7
  6
CONTINUOUS
 10
-143.5194070002
 20
90.5306238582
 11
-143.5695911298
 21
90.6039370735
  0
LINE
  5
26D
100
AcDbEntity
  8
0
100
AcDbLine
 62
7
  6
CONTINUOUS
 10
-143.5195477071
 20
90.5307828639
 11
-143.1848223349
 21
89.923571277
  0
LINE
  5
26E
100
AcDbEntity
  8
0
100
AcDbLine
 62
7
  6
CONTINUOUS
 10
-103.6269861141
 20
79.0978071129
 11
-104.1048346395
 21
79.8388578261
  0
LWPOLYLINE
  5
26F
100
AcDbEntity
  8
0
100
AcDbPolyline
 62
7
  6
CONTINUOUS
 90
3
 70
0
 10
-113.7710230197
 20
2.1566818578
 10
-111.6824359992
 20
-2.601762963
 10
-108.8135215556
 20
-7.2897517531
  0
LWPOLYLINE
  5
270
100
AcDbEntity
  8
0
100
AcDbPolyline
 62
7
  6
CONTINUOUS
 90
5
 70
0
 10
-111.7656452883
 20
-2.4121865618
 10
-111.2795261349
 20
-3.7288722519
 10
-109.1429584675
 20
-7.6833102614
 10
-106.3344974466
 20
-11.5256702285
 10
-102.8455137795
 20
-15.2181926798
  0
LINE
  5
271
100
AcDbEntity
  8
0
100
AcDbLine
 62
7
  6
CONTINUOUS
 10
-166.4107185125
 20
55.6218677643
 11
-166.4107039432
 21
55.621810302
  0
LWPOLYLINE
  5
272
100
AcDbEntity
  8
0
100
AcDbPolyline
 62
7
  6
CONTINUOUS
 90
6
 70
0
 10
-153.0934026177
 20
38.2777973682
 10
-153.0858439828
 20
38.1609326348
 10
-153.0128497015
 20
37.9066209242
 10
-152.8639338374
 20
37.6827335729
 10
-152.6468130375
 20
37.510462751
 10
-152.4464690113
 20
37.4262959231
  0
LINE
  5
273
100
AcDbEntity
  8
0
100
AcDbLine
 62
7
  6
CONTINUOUS
 10
-153.0933695986
 20
38.2777646948
 11
-153.0933902031
 21
38.3985568313
  0
LINE
  5
274
100
AcDbEntity
  8
0
100
AcDbLine
 62
7
  6
CONTINUOUS
 10
-152.7506985839
 20
38.0911925044
 11
-152.7507203169
 21
38.2194816067
  0
LINE
  5
275
100
AcDbEntity
  8
0
100
AcDbLine
 62
7
  6
CONTINUOUS
 10
-104.0819058956
 20
34.6901943901
 11
-104.1428730088
 21
34.8376906244
  0
LINE
  5
276
100
AcDbEntity
  8
0
100
AcDbLine
 62
7
  6
CONTINUOUS
 10
-115.6507626693
 20
16.0136320274
 11
-115.6322822882
 21
15.9563742351
  0
LINE
  5
277
100
AcDbEntity
  8
0
100
AcDbLine
 62
7
  6
CONTINUOUS
 10
-143.5192577997
 20
90.5303033734
 11
-143.4921645908
 21
90.4336860386
  0
LINE
  5
278
100
AcDbEntity
  8
0
100
AcDbLine
 62
7
  6
CONTINUOUS
 10
-143.1958191734
 20
89.9934724785
 11
-143.1848223076
 21
89.9235712303
  0
LWPOLYLINE
  5
279
100
AcDbEntity
  8
0
100
AcDbPolyline
 62
7
  6
CONTINUOUS
 90
7
 70
0
 10
-131.5060382854
 20
90.9099525646
 10
-131.5241786514
 20
91.0900753646
 10
-131.6098142039
 20
91.3277126023
 10
-131.7625827276
 20
91.5330996747
 10
-131.9758510017
 20
91.6898613558
 10
-132.238265716
 20
91.7819209664
 10
-132.3975159454
 20
91.799864107
  0
LINE
  5
27A
100
AcDbEntity
  8
0
100
AcDbLine
 62
7
  6
CONTINUOUS
 10
-131.5925202377
 20
89.9581462561
 11
-131.5925686413
 21
89.9811903609
  0
LINE
  5
27B
100
AcDbEntity
  8
0
100
AcDbLine
 62
7
  6
CONTINUOUS
 10
-131.506072668
 20
90.9102245461
 11
-131.5065651847
 21
90.2152174714
  0
LINE
  5
27C
100
AcDbEntity
  8
0
100
AcDbLine
 62
7
  6
CONTINUOUS
 10
-131.5060708119
 20
90.909701306
 11
-131.5066811887
 21
90.8999674766
  0
LINE
  5
27D
100
AcDbEntity
  8
0
100
AcDbLine
 62
7
  6
CONTINUOUS
 10
-164.3610117508
 20
69.9060646833
 11
-164.3610317431
 21
69.9059766702
  0
LINE
  5
27E
100
AcDbEntity
  8
0
100
AcDbLine
 62
7
  6
CONTINUOUS
 10
-144.7712479944
 20
90.7579816584
 11
-144.7711530739
 21
90.7580352802
  0
LWPOLYLINE
  5
27F
100
AcDbEntity
  8
0
100
AcDbPolyline
 62
7
  6
CONTINUOUS
 90
6
 70
0
 10
-163.5548136778
 20
70.8531609769
 10
-163.7621349495
 20
70.7673615409
 10
-163.9782366961
 20
70.6041102364
 10
-164.164814771
 20
70.3744973199
 10
-164.3050288513
 20
70.0931341629
 10
-164.3610446925
 20
69.9060068603
  0
LWPOLYLINE
  5
280
100
AcDbEntity
  8
0
100
AcDbPolyline
 62
7
  6
CONTINUOUS
 90
3
 70
0
 10
-131.3684853254
 20
88.2283109509
 10
-131.5548965621
 20
89.3198492817
 10
-131.5925072687
 20
89.9575066219
  0
LINE
  5
281
100
AcDbEntity
  8
0
100
AcDbLine
 62
7
  6
CONTINUOUS
 10
-104.8558889119
 20
67.904577442
 11
-105.6548740463
 21
83.1699635445
  0
LINE
  5
282
100
AcDbEntity
  8
0
100
AcDbLine
 62
7
  6
CONTINUOUS
 10
-104.1048346395
 20
79.8388578261
 11
-103.4375615704
 21
67.0899585073
  0
LINE
  5
283
100
AcDbEntity
  8
0
100
AcDbLine
 62
7
  6
CONTINUOUS
 10
-99.3126964035
 20
68.202736271
 11
-99.3976233811
 21
69.8253485658
  0
LWPOLYLINE
  5
284
100
AcDbEntity
  8
0
100
AcDbPolyline
 62
7
  6
CONTINUOUS
 90
4
 70
0
 10
-115.6507626693
 20
16.0136320274
 10
-115.7230686349
 20
11.6730232251
 10
-115.1103454587
 20
6.9293901236
 10
-113.7710230197
 20
2.1566818578
  0
LWPOLYLINE
  5
285
100
AcDbEntity
  8
0
100
AcDbPolyline
 62
7
  6
CONTINUOUS
 90
4
 70
0
 10
-115.4697803214
 20
17.7127324774
 10
-115.5123651419
 20
17.3601599083
 10
-115.6060377542
 20
16.4917195162
 10
-115.6507621864
 20
16.0136375572
  0
LINE
  5
286
100
AcDbEntity
  8
0
100
AcDbLine
 62
7
  6
CONTINUOUS
 10
-131.5059536265
 20
90.2179387468
 11
-131.5065651874
 21
90.2152174014
  0
LWPOLYLINE
  5
287
100
AcDbEntity
  8
0
100
AcDbPolyline
 62
7
  6
CONTINUOUS
 90
6
 70
0
 10
-162.2318938962
 20
44.8988047815
 10
-162.2868198114
 20
44.7479594351
 10
-162.3250529518
 20
44.4310440462
 10
-162.2640838764
 20
44.1101753753
 10
-162.1047166624
 20
43.8228280047
 10
-161.9722201274
 20
43.6853468374
  0
LINE
  5
288
100
AcDbEntity
  8
0
100
AcDbLine
 62
7
  6
CONTINUOUS
 10
-162.2318591972
 20
44.8988076506
 11
-161.9293027223
 21
45.5646042592
  0
LINE
  5
289
100
AcDbEntity
  8
0
100
AcDbLine
 62
7
  6
CONTINUOUS
 10
-161.8900591441
 20
44.6999814828
 11
-161.5828869213
 21
45.3759353664
  0
LWPOLYLINE
  5
28A
100
AcDbEntity
  8
0
100
AcDbPolyline
 62
7
  6
CONTINUOUS
 90
5
 70
0
 10
-166.1571613687
 20
56.7272622359
 10
-166.3141969582
 20
56.4929060092
 10
-166.4153462413
 20
56.2104554252
 10
-166.447562986
 20
55.9018142205
 10
-166.4107130228
 20
55.6217557323
  0
LINE
  5
28B
100
AcDbEntity
  8
0
100
AcDbLine
 62
7
  6
CONTINUOUS
 10
-166.0782967754
 20
56.8078301489
 11
-166.1571613687
 21
56.7272622359
  0
LINE
  5
28C
100
AcDbEntity
  8
0
100
AcDbLine
 62
7
  6
CONTINUOUS
 10
-166.0782852284
 20
56.8077982312
 11
-165.5498600377
 21
57.2903728527
  0
LINE
  5
28D
100
AcDbEntity
  8
0
100
AcDbLine
 62
7
  6
CONTINUOUS
 10
-165.7342721746
 20
56.6128977004
 11
-165.2021883478
 21
57.0988135042
  0
LINE
  5
28E
100
AcDbEntity
  8
0
100
AcDbLine
 62
7
  6
CONTINUOUS
 10
-59.3703839615
 20
71.7938433871
 11
-61.3067440392
 21
70.9495849165
  0
LINE
  5
28F
100
AcDbEntity
  8
0
100
AcDbLine
 62
7
  6
CONTINUOUS
 10
-97.9902022239
 20
63.9612575808
 11
-98.2309006153
 21
65.372253512
  0
LINE
  5
290
100
AcDbEntity
  8
0
100
AcDbLine
 62
7
  6
CONTINUOUS
 10
-96.6262141642
 20
63.8739144759
 11
-96.5210088277
 21
63.1174236334
  0
LINE
  5
291
100
AcDbEntity
  8
0
100
AcDbLine
 62
7
  6
CONTINUOUS
 10
-92.3961436608
 20
64.230201397
 11
-92.5013489974
 21
64.9866922394
  0
LINE
  5
292
100
AcDbEntity
  8
0
100
AcDbLine
 62
7
  6
CONTINUOUS
 10
-93.5476254482
 20
51.4437150659
 11
-93.5475936991
 21
51.266271513
  0
LINE
  5
293
100
AcDbEntity
  8
0
100
AcDbLine
 62
7
  6
CONTINUOUS
 10
-93.5476254482
 20
51.4437150659
 11
-93.5437139548
 21
51.5328385367
  0
LWPOLYLINE
  5
294
100
AcDbEntity
  8
0
100
AcDbPolyline
 62
7
  6
CONTINUOUS
 90
4
 70
0
 10
-102.5273487548
 20
49.8360986674
 10
-103.8572669631
 20
45.2158196496
 10
-104.4271811007
 20
40.1339949075
 10
-104.1977371395
 20
35.0582643516
  0
LWPOLYLINE
  5
295
100
AcDbEntity
  8
0
100
AcDbPolyline
 62
7
  6
CONTINUOUS
 90
8
 70
0
 10
-112.6508448272
 20
33.6312716177
 10
-114.1299744508
 20
29.3600760828
 10
-115.0668173769
 20
24.4850581248
 10
-115.2771596649
 20
19.4185820902
 10
-114.7252415334
 20
14.1972484078
 10
-113.3636108136
 20
8.874043801
 10
-111.1361677528
 20
3.5108805843
 10
-108.4257337655
 20
-1.1602772609
  0
LWPOLYLINE
  5
296
100
AcDbEntity
  8
0
100
AcDbPolyline
 62
7
  6
CONTINUOUS
 90
5
 70
0
 10
-91.3050267566
 20
63.1728829655
 10
-94.7002938262
 20
60.7585032812
 10
-97.8910033169
 20
57.6223148624
 10
-100.5166524689
 20
53.9770048698
 10
-102.5273487548
 20
49.8360986674
  0
LWPOLYLINE
  5
297
100
AcDbEntity
  8
0
100
AcDbPolyline
 62
7
  6
CONTINUOUS
 90
3
 70
0
 10
-83.3752692161
 20
68.2132818324
 10
-86.509387681
 20
66.0664212914
 10
-89.1633586601
 20
63.3024065368
  0
LINE
  5
298
100
AcDbEntity
  8
0
100
AcDbLine
 62
7
  6
CONTINUOUS
 10
-72.4678715229
 20
71.4734926146
 11
-75.2400012906
 21
69.7071213704
  0
LINE
  5
299
100
AcDbEntity
  8
0
100
AcDbLine
 62
7
  6
CONTINUOUS
 10
-80.9612706887
 20
57.5398782861
 11
-80.9216253672
 21
57.5621476724
  0
LWPOLYLINE
  5
29A
100
AcDbEntity
  8
0
100
AcDbPolyline
 62
7
  6
CONTINUOUS
 90
4
 70
0
 10
-89.8337952333
 20
64.0237394634
 10
-90.1362192128
 20
63.8550926937
 10
-90.8640435413
 20
63.4360022334
 10
-91.3050133467
 20
63.1728910885
  0
LINE
  5
29B
100
AcDbEntity
  8
0
100
AcDbLine
 62
7
  6
CONTINUOUS
 10
-80.9768438688
 20
57.6086799332
 11
-80.9368910255
 21
57.6300038905
  0
LINE
  5
29C
100
AcDbEntity
  8
0
100
AcDbLine
 62
7
  6
CONTINUOUS
 10
-32.7028657959
 20
43.5871814728
 11
-32.7029034166
 21
43.5877422581
  0
LINE
  5
29D
100
AcDbEntity
  8
0
100
AcDbLine
 62
7
  6
CONTINUOUS
 10
-52.3641224275
 20
-17.9732971728
 11
-52.3635550588
 21
-21.3224480016
  0
LINE
  5
29E
100
AcDbEntity
  8
0
100
AcDbLine
 62
7
  6
CONTINUOUS
 10
-47.4137168587
 20
-19.9871146842
 11
-47.4142842273
 21
-16.6379638564
  0
LINE
  5
29F
100
AcDbEntity
  8
0
100
AcDbLine
 62
7
  6
CONTINUOUS
 10
-100.8085176798
 20
2.6854961442
 11
-100.460981048
 21
3.8517961785
  0
LINE
  5
2A0
100
AcDbEntity
  8
0
100
AcDbLine
 62
7
  6
CONTINUOUS
 10
-79.0371036187
 20
63.5401006213
 11
-78.9107657883
 21
63.9305149434
  0
LINE
  5
2A1
100
AcDbEntity
  8
0
100
AcDbLine
 62
7
  6
CONTINUOUS
 10
-78.981689497
 20
63.7204870727
 11
-78.9091706426
 21
63.9352411127
  0
LINE
  5
2A2
100
AcDbEntity
  8
0
100
AcDbLine
 62
7
  6
CONTINUOUS
 10
-79.09801209
 20
63.3597236001
 11
-79.0371035931
 21
63.5401001756
  0
LWPOLYLINE
  5
2A3
100
AcDbEntity
  8
0
100
AcDbPolyline
 62
7
  6
CONTINUOUS
 90
4
 70
0
 10
-111.938066976
 20
35.2342660672
 10
-112.0560753986
 20
34.9780134068
 10
-112.429906828
 20
34.142847703
 10
-112.6508443487
 20
33.6312738172
  0
LWPOLYLINE
  5
2A4
100
AcDbEntity
  8
0
100
AcDbPolyline
 62
7
  6
CONTINUOUS
 90
4
 70
0
 10
-89.1633586601
 20
63.3024065368
 10
-91.2772690069
 20
59.9151159351
 10
-92.7777720715
 20
55.8905418117
 10
-93.5434494155
 20
51.532878115
  0
LINE
  5
2A5
100
AcDbEntity
  8
0
100
AcDbLine
 62
7
  6
CONTINUOUS
 10
-62.72782086
 20
69.4397959067
 11
-62.5796167485
 21
69.644964486
  0
LINE
  5
2A6
100
AcDbEntity
  8
0
100
AcDbLine
 62
7
  6
CONTINUOUS
 10
-62.9329788823
 20
69.129432199
 11
-62.8204030011
 21
69.285280971
  0
LWPOLYLINE
  5
2A7
100
AcDbEntity
  8
0
100
AcDbPolyline
 62
7
  6
CONTINUOUS
 90
8
 70
0
 10
-104.1043975969
 20
50.1919367269
 10
-106.7491735702
 20
46.5806548383
 10
-109.0186231042
 20
42.2721172104
 10
-110.6189238789
 20
37.6026041251
 10
-111.5045743611
 20
32.5991033142
 10
-111.6147379865
 20
27.3000622694
 10
-110.8772477347
 20
21.7487789579
 10
-109.4152789398
 20
16.5681896074
  0
LINE
  5
2A8
100
AcDbEntity
  8
0
100
AcDbLine
 62
7
  6
CONTINUOUS
 10
-100.4643293366
 20
23.6165874412
 11
-100.8119868956
 21
23.164115184
  0
LINE
  5
2A9
100
AcDbEntity
  8
0
100
AcDbLine
 62
7
  6
CONTINUOUS
 10
-104.8499421693
 20
23.2804460666
 11
-104.5841831496
 21
23.6036148624
  0
LWPOLYLINE
  5
2AA
100
AcDbEntity
  8
0
100
AcDbPolyline
 62
7
  6
CONTINUOUS
 90
3
 70
0
 10
-75.2400012906
 20
69.7071213704
 10
-77.4862686651
 20
67.0126115223
 10
-78.9110246085
 20
63.9297472511
  0
LWPOLYLINE
  5
2AB
100
AcDbEntity
  8
0
100
AcDbPolyline
 62
7
  6
CONTINUOUS
 90
4
 70
0
 10
-102.9536022181
 20
51.5078113676
 10
-103.1490983551
 20
51.2902711882
 10
-103.7454642404
 20
50.6116437253
 10
-104.1043953021
 20
50.1919401414
  0
LINE
  5
2AC
100
AcDbEntity
  8
0
100
AcDbLine
 62
7
  6
CONTINUOUS
 10
-61.3067440392
 20
70.9495849165
 11
-62.5898505443
 21
69.6307454954
  0
LINE
  5
2AD
100
AcDbEntity
  8
0
100
AcDbLine
 62
7
  6
CONTINUOUS
 10
-47.5134738456
 20
67.6970114782
 11
-47.3663691845
 21
67.804606033
  0
LINE
  5
2AE
100
AcDbEntity
  8
0
100
AcDbLine
 62
7
  6
CONTINUOUS
 10
-37.3054053413
 20
40.8811824137
 11
-32.9747626086
 21
43.3426583927
  0
LINE
  5
2AF
100
AcDbEntity
  8
0
100
AcDbLine
 62
7
  6
CONTINUOUS
 10
-32.6749398315
 20
43.3146424277
 11
-37.0260498835
 21
40.8415329839
  0
LINE
  5
2B0
100
AcDbEntity
  8
0
100
AcDbLine
 62
7
  6
CONTINUOUS
 10
-34.8514967358
 20
40.9584826995
 11
-30.8139497485
 21
43.253367643
  0
LINE
  5
2B1
100
AcDbEntity
  8
0
100
AcDbLine
 62
7
  6
CONTINUOUS
 10
-100.8085176798
 20
2.6854961442
 11
-104.8460646669
 21
0.3906112008
  0
LWPOLYLINE
  5
2B2
100
AcDbEntity
  8
0
100
AcDbPolyline
 62
7
  6
CONTINUOUS
 90
6
 70
0
 10
-32.7044382631
 20
43.645793027
 10
-32.7035310348
 20
43.6634070319
 10
-32.7108956649
 20
43.6408753802
 10
-32.777587198
 20
43.5167546461
 10
-32.9336941547
 20
43.3680524262
 10
-32.9745848128
 20
43.3427494287
  0
LINE
  5
2B3
100
AcDbEntity
  8
0
100
AcDbLine
 62
7
  6
CONTINUOUS
 10
-62.5903339599
 20
69.6300791358
 11
-62.820403005
 21
69.2852812608
  0
LINE
  5
2B4
100
AcDbEntity
  8
0
100
AcDbLine
 62
7
  6
CONTINUOUS
 10
-72.7270355332
 20
-25.4854533553
 11
-72.8396114145
 21
-25.6413021273
  0
LINE
  5
2B5
100
AcDbEntity
  8
0
100
AcDbLine
 62
7
  6
CONTINUOUS
 10
-88.14654057
 20
-24.0530326345
 11
-88.293645231
 21
-24.1606271893
  0
ARC
  5
2B6
100
AcDbEntity
  8
0
100
AcDbCircle
 62
7
  6
CONTINUOUS
 10
-493.8998673048
 20
-207.6284484293
 40
473.790741957
100
AcDbArc
 50
37.4446512413
 51
37.6525658791
  0
ARC
  5
2B7
100
AcDbEntity
  8
0
100
AcDbCircle
 62
7
  6
CONTINUOUS
 10
-286.6467086059
 20
-141.821963646
 40
261.8110997481
100
AcDbArc
 50
55.758140843
 51
57.0959240235
  0
ARC
  5
2B8
100
AcDbEntity
  8
0
100
AcDbCircle
 62
7
  6
CONTINUOUS
 10
-155.6385831548
 20
-52.1633441896
 40
116.5201241411
100
AcDbArc
 50
62.5156386917
 51
63.0169268953
  0
ARC
  5
2B9
100
AcDbEntity
  8
0
100
AcDbCircle
 62
7
  6
CONTINUOUS
 10
-244.9073107171
 20
-15.5424629995
 40
159.3160727944
100
AcDbArc
 50
37.6606150273
 51
37.8969268221
  0
ARC
  5
2BA
100
AcDbEntity
  8
0
100
AcDbCircle
 62
7
  6
CONTINUOUS
 10
-204.5657634291
 20
-12.5781199693
 40
120.3731240283
100
AcDbArc
 50
50.830301096
 51
52.4084612996
  0
ARC
  5
2BB
100
AcDbEntity
  8
0
100
AcDbCircle
 62
7
  6
CONTINUOUS
 10
-171.952821851
 20
13.3955570678
 40
87.1592881422
100
AcDbArc
 50
49.637103905
 51
53.2675232972
  0
ARC
  5
2BC
100
AcDbEntity
  8
0
100
AcDbCircle
 62
7
  6
CONTINUOUS
 10
-147.9303141374
 20
60.8167112345
 40
35.8839428058
100
AcDbArc
 50
39.0454576509
 51
39.966043788
  0
ARC
  5
2BD
100
AcDbEntity
  8
0
100
AcDbCircle
 62
7
  6
CONTINUOUS
 10
-146.7805079029
 20
61.4958454324
 40
23.4094169485
100
AcDbArc
 50
229.5370526562
 51
240.2435726839
  0
ARC
  5
2BE
100
AcDbEntity
  8
0
100
AcDbCircle
 62
7
  6
CONTINUOUS
 10
-146.9329500789
 20
61.2445810025
 40
23.1156433775
100
AcDbArc
 50
229.5176490003
 51
240.2624880638
  0
ARC
  5
2BF
100
AcDbEntity
  8
0
100
AcDbCircle
 62
7
  6
CONTINUOUS
 10
-145.8609141943
 20
56.5517911881
 40
19.5176792701
100
AcDbArc
 50
204.5938814552
 51
210.3918026057
  0
ARC
  5
2C0
100
AcDbEntity
  8
0
100
AcDbCircle
 62
7
  6
CONTINUOUS
 10
-146.5719721368
 20
56.9791464625
 40
19.3335518093
100
AcDbArc
 50
216.6398788952
 51
216.8652832425
  0
ARC
  5
2C1
100
AcDbEntity
  8
0
100
AcDbCircle
 62
7
  6
CONTINUOUS
 10
-146.69920668
 20
56.0574054418
 40
18.5444651372
100
AcDbArc
 50
210.3845437939
 51
214.5665414881
  0
ARC
  5
2C2
100
AcDbEntity
  8
0
100
AcDbCircle
 62
7
  6
CONTINUOUS
 10
-152.351473538
 20
37.7559475219
 40
0.343035837
100
AcDbArc
 50
248.6801513646
 51
253.9180273921
  0
ARC
  5
2C3
100
AcDbEntity
  8
0
100
AcDbCircle
 62
7
  6
CONTINUOUS
 10
-113.7608293173
 20
51.779501303
 40
52.6134712985
100
AcDbArc
 50
144.0088036506
 51
154.8256533167
  0
ARC
  5
2C4
100
AcDbEntity
  8
0
100
AcDbCircle
 62
7
  6
CONTINUOUS
 10
-114.0106935675
 20
51.9222263997
 40
52.4471414021
100
AcDbArc
 50
144.006773628
 51
154.846294058
  0
ARC
  5
2C5
100
AcDbEntity
  8
0
100
AcDbCircle
 62
7
  6
CONTINUOUS
 10
-114.1277565221
 20
51.9559959172
 40
52.2063196062
100
AcDbArc
 50
154.8296584793
 51
155.5667969948
  0
ARC
  5
2C6
100
AcDbEntity
  8
0
100
AcDbCircle
 62
7
  6
CONTINUOUS
 10
-114.2055481883
 20
51.9839428843
 40
52.1231768544
100
AcDbArc
 50
156.0554091799
 51
157.336048064
  0
ARC
  5
2C7
100
AcDbEntity
  8
0
100
AcDbCircle
 62
7
  6
CONTINUOUS
 10
-120.016653979
 20
49.0665908106
 40
48.4667054935
100
AcDbArc
 50
132.9283320261
 51
134.2749053107
  0
ARC
  5
2C8
100
AcDbEntity
  8
0
100
AcDbCircle
 62
7
  6
CONTINUOUS
 10
-120.6305799901
 20
49.7367704324
 40
47.5585221527
100
AcDbArc
 50
131.9736613645
 51
132.408773583
  0
ARC
  5
2C9
100
AcDbEntity
  8
0
100
AcDbCircle
 62
7
  6
CONTINUOUS
 10
-140.628845005
 20
56.9138558588
 40
43.2334382085
100
AcDbArc
 50
11.2823938484
 51
17.3918572421
  0
ARC
  5
2CA
100
AcDbEntity
  8
0
100
AcDbCircle
 62
7
  6
CONTINUOUS
 10
-124.3110428095
 20
54.7297912266
 40
41.3459799431
100
AcDbArc
 50
119.4359917794
 51
121.9050216038
  0
ARC
  5
2CB
100
AcDbEntity
  8
0
100
AcDbCircle
 62
7
  6
CONTINUOUS
 10
-124.547544677
 20
54.909527329
 40
41.1595658252
100
AcDbArc
 50
119.4291212522
 51
122.2650204414
  0
ARC
  5
2CC
100
AcDbEntity
  8
0
100
AcDbCircle
 62
7
  6
CONTINUOUS
 10
-124.4276242863
 20
59.8592390647
 40
40.997585054
100
AcDbArc
 50
179.6894910863
 51
180.0146624132
  0
ARC
  5
2CD
100
AcDbEntity
  8
0
100
AcDbCircle
 62
7
  6
CONTINUOUS
 10
-125.2200568342
 20
59.8453729692
 40
40.2044359016
100
AcDbArc
 50
180.5879656809
 51
182.1173383473
  0
ARC
  5
2CE
100
AcDbEntity
  8
0
100
AcDbCircle
 62
7
  6
CONTINUOUS
 10
-128.9986624894
 20
56.9540135944
 40
36.9008063703
100
AcDbArc
 50
149.1082273147
 51
152.0170854801
  0
ARC
  5
2CF
100
AcDbEntity
  8
0
100
AcDbCircle
 62
7
  6
CONTINUOUS
 10
-129.269920279
 20
57.09136573
 40
36.5968157277
100
AcDbArc
 50
152.0077194171
 51
157.5058203951
  0
ARC
  5
2D0
100
AcDbEntity
  8
0
100
AcDbCircle
 62
7
  6
CONTINUOUS
 10
-129.6232763897
 20
57.2410376412
 40
36.2130807332
100
AcDbArc
 50
157.5107160981
 51
157.7148254282
  0
ARC
  5
2D1
100
AcDbEntity
  8
0
100
AcDbCircle
 62
7
  6
CONTINUOUS
 10
-131.1590187143
 20
58.7866193926
 40
34.0620595125
100
AcDbArc
 50
134.1708357378
 51
134.3916838892
  0
ARC
  5
2D2
100
AcDbEntity
  8
0
100
AcDbCircle
 62
7
  6
CONTINUOUS
 10
-132.1595220009
 20
58.1365929589
 40
33.7560341853
100
AcDbArc
 50
105.7733646564
 51
107.4892644311
  0
ARC
  5
2D3
100
AcDbEntity
  8
0
100
AcDbCircle
 62
7
  6
CONTINUOUS
 10
-131.7028624129
 20
59.3567015798
 40
33.274209723
100
AcDbArc
 50
128.85167553
 51
134.1831527987
  0
ARC
  5
2D4
100
AcDbEntity
  8
0
100
AcDbCircle
 62
7
  6
CONTINUOUS
 10
-132.7005845778
 20
60.1600968185
 40
31.6619058497
100
AcDbArc
 50
98.4903683629
 51
105.1262720261
  0
ARC
  5
2D5
100
AcDbEntity
  8
0
100
AcDbCircle
 62
7
  6
CONTINUOUS
 10
-132.7817689738
 20
60.6648292762
 40
31.5786768914
100
AcDbArc
 50
125.5882818996
 51
128.8160667752
  0
ARC
  5
2D6
100
AcDbEntity
  8
0
100
AcDbCircle
 62
7
  6
CONTINUOUS
 10
-135.8370233891
 20
58.5150320366
 40
29.8445284161
100
AcDbArc
 50
173.1879673882
 51
179.9855281234
  0
ARC
  5
2D7
100
AcDbEntity
  8
0
100
AcDbCircle
 62
7
  6
CONTINUOUS
 10
-137.5895594374
 20
58.5238028377
 40
28.0919914429
100
AcDbArc
 50
180.0025140105
 51
182.527092814
  0
ARC
  5
2D8
100
AcDbEntity
  8
0
100
AcDbCircle
 62
7
  6
CONTINUOUS
 10
-138.0534242542
 20
58.5052231715
 40
27.627758596
100
AcDbArc
 50
182.5310145304
 51
182.7091901051
  0
ARC
  5
2D9
100
AcDbEntity
  8
0
100
AcDbCircle
 62
7
  6
CONTINUOUS
 10
-138.8611697643
 20
59.3983342672
 40
27.5204938189
100
AcDbArc
 50
179.9671769648
 51
185.445586993
  0
ARC
  5
2DA
100
AcDbEntity
  8
0
100
AcDbCircle
 62
7
  6
CONTINUOUS
 10
-139.9061761235
 20
61.3313858895
 40
26.9566880231
100
AcDbArc
 50
210.8159254233
 51
211.0720391174
  0
ARC
  5
2DB
100
AcDbEntity
  8
0
100
AcDbCircle
 62
7
  6
CONTINUOUS
 10
-123.1910640549
 20
50.7604590128
 40
26.7345693325
100
AcDbArc
 50
179.6122556651
 51
179.9604776662
  0
ARC
  5
2DC
100
AcDbEntity
  8
0
100
AcDbCircle
 62
7
  6
CONTINUOUS
 10
-139.686716929
 20
59.3268282083
 40
26.6918875436
100
AcDbArc
 50
185.4609594146
 51
185.7710878438
  0
ARC
  5
2DD
100
AcDbEntity
  8
0
100
AcDbCircle
 62
7
  6
CONTINUOUS
 10
-140.1409652039
 20
61.1841680322
 40
26.6792221487
100
AcDbArc
 50
211.839273263
 51
212.5080177497
  0
ARC
  5
2DE
100
AcDbEntity
  8
0
100
AcDbCircle
 62
7
  6
CONTINUOUS
 10
-140.3700806841
 20
61.0375515268
 40
26.4072110522
100
AcDbArc
 50
212.5069038584
 51
213.8535057262
  0
ARC
  5
2DF
100
AcDbEntity
  8
0
100
AcDbCircle
 62
7
  6
CONTINUOUS
 10
-122.8122751545
 20
50.7254289315
 40
25.8159232671
100
AcDbArc
 50
179.6627763127
 51
180.009564699
  0
ARC
  5
2E0
100
AcDbEntity
  8
0
100
AcDbCircle
 62
7
  6
CONTINUOUS
 10
-115.1465396052
 20
57.0490908605
 40
22.8243190692
100
AcDbArc
 50
99.4841626327
 51
105.1465626918
  0
ARC
  5
2E1
100
AcDbEntity
  8
0
100
AcDbCircle
 62
7
  6
CONTINUOUS
 10
-130.7932591639
 20
49.2444189078
 40
18.9199393417
100
AcDbArc
 50
204.5510609987
 51
205.0215785702
  0
ARC
  5
2E2
100
AcDbEntity
  8
0
100
AcDbCircle
 62
7
  6
CONTINUOUS
 10
-130.3480132752
 20
49.2067853753
 40
18.0335457956
100
AcDbArc
 50
202.4325758684
 51
209.7118783101
  0
ARC
  5
2E3
100
AcDbEntity
  8
0
100
AcDbCircle
 62
7
  6
CONTINUOUS
 10
-134.9289591256
 20
63.5882274304
 40
32.4740521096
100
AcDbArc
 50
194.2004273902
 51
199.2995367283
  0
ARC
  5
2E4
100
AcDbEntity
  8
0
100
AcDbCircle
 62
7
  6
CONTINUOUS
 10
-135.0945075486
 20
63.4122126242
 40
32.2118135626
100
AcDbArc
 50
194.1836865477
 51
198.5231981344
  0
ARC
  5
2E5
100
AcDbEntity
  8
0
100
AcDbCircle
 62
7
  6
CONTINUOUS
 10
-137.7578166443
 20
62.6438476176
 40
29.4738232027
100
AcDbArc
 50
211.395927124
 51
211.8059179428
  0
ARC
  5
2E6
100
AcDbEntity
  8
0
100
AcDbCircle
 62
7
  6
CONTINUOUS
 10
-139.4972277141
 20
62.9057030102
 40
28.4740420274
100
AcDbArc
 50
69.6143226606
 51
70.3081820587
  0
ARC
  5
2E7
100
AcDbEntity
  8
0
100
AcDbCircle
 62
7
  6
CONTINUOUS
 10
-137.9534373363
 20
67.2606490846
 40
23.8572041657
100
AcDbArc
 50
72.0118966443
 51
72.3180486878
  0
ARC
  5
2E8
100
AcDbEntity
  8
0
100
AcDbCircle
 62
7
  6
CONTINUOUS
 10
-137.4545989086
 20
67.7967722242
 40
23.7023322752
100
AcDbArc
 50
104.9066987326
 51
105.1172835824
  0
ARC
  5
2E9
100
AcDbEntity
  8
0
100
AcDbCircle
 62
7
  6
CONTINUOUS
 10
-137.8618542172
 20
67.3992686079
 40
23.6922635775
100
AcDbArc
 50
72.0969854831
 51
72.5388711276
  0
ARC
  5
2EA
100
AcDbEntity
  8
0
100
AcDbCircle
 62
7
  6
CONTINUOUS
 10
-137.8250349649
 20
67.511729441
 40
23.5739293041
100
AcDbArc
 50
70.3625038623
 51
72.0321041651
  0
ARC
  5
2EB
100
AcDbEntity
  8
0
100
AcDbCircle
 62
7
  6
CONTINUOUS
 10
-137.8604057237
 20
67.5304258514
 40
23.5718844995
100
AcDbArc
 50
66.7804443918
 51
72.0244680361
  0
ARC
  5
2EC
100
AcDbEntity
  8
0
100
AcDbCircle
 62
7
  6
CONTINUOUS
 10
-137.7282266455
 20
67.7767474777
 40
23.2918975734
100
AcDbArc
 50
59.9952966221
 51
69.5194646857
  0
ARC
  5
2ED
100
AcDbEntity
  8
0
100
AcDbCircle
 62
7
  6
CONTINUOUS
 10
-137.6438324831
 20
67.9709211231
 40
23.0801748067
100
AcDbArc
 50
59.9959088335
 51
66.6561157248
  0
ARC
  5
2EE
100
AcDbEntity
  8
0
100
AcDbCircle
 62
7
  6
CONTINUOUS
 10
-136.5993851364
 20
68.2787269557
 40
23.0101044239
100
AcDbArc
 50
102.1563326958
 51
107.0861734361
  0
ARC
  5
2EF
100
AcDbEntity
  8
0
100
AcDbCircle
 62
7
  6
CONTINUOUS
 10
-136.9200147288
 20
69.7106010547
 40
21.542822889
100
AcDbArc
 50
97.5699892238
 51
102.124640007
  0
ARC
  5
2F0
100
AcDbEntity
  8
0
100
AcDbCircle
 62
7
  6
CONTINUOUS
 10
-137.5814564177
 20
73.4285276541
 40
17.9899253642
100
AcDbArc
 50
67.4535316326
 51
70.1363626529
  0
ARC
  5
2F1
100
AcDbEntity
  8
0
100
AcDbCircle
 62
7
  6
CONTINUOUS
 10
-137.5650438613
 20
73.4689786422
 40
17.9462729855
100
AcDbArc
 50
67.0473177696
 51
67.4524075041
  0
ARC
  5
2F2
100
AcDbEntity
  8
0
100
AcDbCircle
 62
7
  6
CONTINUOUS
 10
-136.7819303709
 20
74.782904742
 40
16.4187091553
100
AcDbArc
 50
68.5219912144
 51
71.1163323856
  0
ARC
  5
2F3
100
AcDbEntity
  8
0
100
AcDbCircle
 62
7
  6
CONTINUOUS
 10
-136.7491552056
 20
74.8679649682
 40
16.3275552466
100
AcDbArc
 50
68.2200630304
 51
68.5197274604
  0
ARC
  5
2F4
100
AcDbEntity
  8
0
100
AcDbCircle
 62
7
  6
CONTINUOUS
 10
-136.723216774
 20
74.932002042
 40
16.2584651454
100
AcDbArc
 50
66.0799649447
 51
68.2212131055
  0
ARC
  5
2F5
100
AcDbEntity
  8
0
100
AcDbCircle
 62
7
  6
CONTINUOUS
 10
-131.2649176382
 20
89.3392759203
 40
13.4386581538
100
AcDbArc
 50
174.0247582095
 51
175.698097734
  0
ARC
  5
2F6
100
AcDbEntity
  8
0
100
AcDbCircle
 62
7
  6
CONTINUOUS
 10
-126.5253354453
 20
90.0046875861
 40
5.0666669109
100
AcDbArc
 50
176.3165336412
 51
177.5284472688
  0
ARC
  5
2F7
100
AcDbEntity
  8
0
100
AcDbCircle
 62
7
  6
CONTINUOUS
 10
-126.7391611389
 20
90.0179998793
 40
4.8524277203
100
AcDbArc
 50
175.8347492381
 51
176.3111930631
  0
ARC
  5
2F8
100
AcDbEntity
  8
0
100
AcDbCircle
 62
7
  6
CONTINUOUS
 10
-130.1388849234
 20
89.7564515574
 40
1.4507387278
100
AcDbArc
 50
171.0333258902
 51
173.1737509932
  0
ARC
  5
2F9
100
AcDbEntity
  8
0
100
AcDbCircle
 62
7
  6
CONTINUOUS
 10
-132.3532918039
 20
90.9096259955
 40
0.8461017414
100
AcDbArc
 50
359.7164103687
 51
17.7680681955
  0
ARC
  5
2FA
100
AcDbEntity
  8
0
100
AcDbCircle
 62
7
  6
CONTINUOUS
 10
-122.6032487811
 20
100.5815820969
 40
68.3118057021
100
AcDbArc
 50
235.9147013275
 51
240.4513179404
  0
ARC
  5
2FB
100
AcDbEntity
  8
0
100
AcDbCircle
 62
7
  6
CONTINUOUS
 10
-123.5741080757
 20
98.777739179
 40
67.1536050079
100
AcDbArc
 50
235.1580507684
 51
238.7429453683
  0
ARC
  5
2FC
100
AcDbEntity
  8
0
100
AcDbCircle
 62
7
  6
CONTINUOUS
 10
-125.3948083626
 20
96.3366162585
 40
63.2316788586
100
AcDbArc
 50
234.7484511832
 51
235.8539817989
  0
ARC
  5
2FD
100
AcDbEntity
  8
0
100
AcDbCircle
 62
7
  6
CONTINUOUS
 10
-119.8956432677
 20
92.5794579931
 40
59.6039658075
100
AcDbArc
 50
238.1906980173
 51
242.7067583792
  0
ARC
  5
2FE
100
AcDbEntity
  8
0
100
AcDbCircle
 62
7
  6
CONTINUOUS
 10
-119.7257620273
 20
89.341707983
 40
49.0626725594
100
AcDbArc
 50
223.6662304085
 51
226.3106338859
  0
ARC
  5
2FF
100
AcDbEntity
  8
0
100
AcDbCircle
 62
7
  6
CONTINUOUS
 10
-121.3032886253
 20
87.9007285453
 40
46.9312584033
100
AcDbArc
 50
226.4880817302
 51
232.1195306402
  0
ARC
  5
300
100
AcDbEntity
  8
0
100
AcDbCircle
 62
7
  6
CONTINUOUS
 10
-117.4402650263
 20
90.7486022503
 40
40.2782378184
100
AcDbArc
 50
211.961661815
 51
216.1211021099
  0
ARC
  5
301
100
AcDbEntity
  8
0
100
AcDbCircle
 62
7
  6
CONTINUOUS
 10
-124.2045925904
 20
81.7405139039
 40
40.1251718544
100
AcDbArc
 50
204.484575278
 51
205.3012403011
  0
ARC
  5
302
100
AcDbEntity
  8
0
100
AcDbCircle
 62
7
  6
CONTINUOUS
 10
-118.6383731008
 20
90.0275181621
 40
38.8855610877
100
AcDbArc
 50
216.3035228143
 51
222.6666420175
  0
ARC
  5
303
100
AcDbEntity
  8
0
100
AcDbCircle
 62
7
  6
CONTINUOUS
 10
-125.9467535358
 20
89.9831495672
 40
5.6456404328
100
AcDbArc
 50
177.5632816946
 51
180.0199537334
  0
ARC
  5
304
100
AcDbEntity
  8
0
100
AcDbCircle
 62
7
  6
CONTINUOUS
 10
-122.8671392416
 20
139.4390071076
 40
105.6617545843
100
AcDbArc
 50
253.5712417411
 51
253.9349382804
  0
ARC
  5
305
100
AcDbEntity
  8
0
100
AcDbCircle
 62
7
  6
CONTINUOUS
 10
-113.2825674098
 20
118.5777340041
 40
89.5064353843
100
AcDbArc
 50
248.0202387253
 51
248.9356537617
  0
ARC
  5
306
100
AcDbEntity
  8
0
100
AcDbCircle
 62
7
  6
CONTINUOUS
 10
-114.0894009624
 20
116.6045095912
 40
87.3746522087
100
AcDbArc
 50
246.5779688486
 51
248.0265687841
  0
ARC
  5
307
100
AcDbEntity
  8
0
100
AcDbCircle
 62
7
  6
CONTINUOUS
 10
-115.6312918545
 20
113.0732249042
 40
83.5214368083
100
AcDbArc
 50
244.7613795155
 51
246.5856202356
  0
ARC
  5
308
100
AcDbEntity
  8
0
100
AcDbCircle
 62
7
  6
CONTINUOUS
 10
-118.050804088
 20
108.1001438277
 40
77.9914628792
100
AcDbArc
 50
240.3689429818
 51
244.8113922205
  0
ARC
  5
309
100
AcDbEntity
  8
0
100
AcDbCircle
 62
7
  6
CONTINUOUS
 10
-116.8233163189
 20
102.5267268843
 40
73.1295864057
100
AcDbArc
 50
248.6158228063
 51
249.8950335683
  0
ARC
  5
30A
100
AcDbEntity
  8
0
100
AcDbCircle
 62
7
  6
CONTINUOUS
 10
-120.6468569578
 20
103.4974765094
 40
72.7071798366
100
AcDbArc
 50
238.8301142606
 51
240.3539233444
  0
ARC
  5
30B
100
AcDbEntity
  8
0
100
AcDbCircle
 62
7
  6
CONTINUOUS
 10
-75.2649427109
 20
14.4250633484
 40
60.1351842304
100
AcDbArc
 50
62.4567311945
 51
71.6961324439
  0
ARC
  5
30C
100
AcDbEntity
  8
0
100
AcDbCircle
 62
7
  6
CONTINUOUS
 10
-76.9032370609
 20
15.254865883
 40
58.3174095333
100
AcDbArc
 50
73.78273813
 51
74.8751315023
  0
ARC
  5
30D
100
AcDbEntity
  8
0
100
AcDbCircle
 62
7
  6
CONTINUOUS
 10
-76.8948273771
 20
15.2860166974
 40
58.2851435152
100
AcDbArc
 50
74.8751220527
 51
76.2853070843
  0
ARC
  5
30E
100
AcDbEntity
  8
0
100
AcDbCircle
 62
7
  6
CONTINUOUS
 10
-74.1371086585
 20
17.1798650663
 40
42.4202523701
100
AcDbArc
 50
212.8153483411
 51
214.58799721
  0
ARC
  5
30F
100
AcDbEntity
  8
0
100
AcDbCircle
 62
7
  6
CONTINUOUS
 10
-102.1335630695
 20
29.2899010081
 40
36.9622447809
100
AcDbArc
 50
68.7614725397
 51
70.307927326
  0
ARC
  5
310
100
AcDbEntity
  8
0
100
AcDbCircle
 62
7
  6
CONTINUOUS
 10
-76.2331249153
 20
26.8376325436
 40
36.8778800733
100
AcDbArc
 50
138.8662887021
 51
140.0344262562
  0
ARC
  5
311
100
AcDbEntity
  8
0
100
AcDbCircle
 62
7
  6
CONTINUOUS
 10
-85.322734137
 20
19.4622984408
 40
35.6821445932
100
AcDbArc
 50
281.7717123704
 51
282.5637295708
  0
ARC
  5
312
100
AcDbEntity
  8
0
100
AcDbCircle
 62
7
  6
CONTINUOUS
 10
-110.7755713047
 20
94.7527187979
 40
34.9627371601
100
AcDbArc
 50
205.7106120997
 51
208.954132375
  0
ARC
  5
313
100
AcDbEntity
  8
0
100
AcDbCircle
 62
7
  6
CONTINUOUS
 10
-84.6978339343
 20
18.8498154229
 40
34.6805327141
100
AcDbArc
 50
280.9780640488
 51
281.1962886922
  0
ARC
  5
314
100
AcDbEntity
  8
0
100
AcDbCircle
 62
7
  6
CONTINUOUS
 10
-85.741736432
 20
32.6384931325
 40
33.3856664498
100
AcDbArc
 50
342.6466629076
 51
350.1463985312
  0
ARC
  5
315
100
AcDbEntity
  8
0
100
AcDbCircle
 62
7
  6
CONTINUOUS
 10
-93.8516992185
 20
42.0135193822
 40
32.3860169364
100
AcDbArc
 50
228.2198504949
 51
229.0397418519
  0
ARC
  5
316
100
AcDbEntity
  8
0
100
AcDbCircle
 62
7
  6
CONTINUOUS
 10
-84.6168337444
 20
32.1808373251
 40
31.8142825469
100
AcDbArc
 50
342.989753641
 51
350.8308714235
  0
ARC
  5
317
100
AcDbEntity
  8
0
100
AcDbCircle
 62
7
  6
CONTINUOUS
 10
-85.2218491858
 20
13.3645184416
 40
30.5206841059
100
AcDbArc
 50
175.1285202659
 51
180.7231116182
  0
ARC
  5
318
100
AcDbEntity
  8
0
100
AcDbCircle
 62
7
  6
CONTINUOUS
 10
-83.8443345466
 20
8.6133190219
 40
30.0762939976
100
AcDbArc
 50
204.4181659325
 51
204.6173706889
  0
ARC
  5
319
100
AcDbEntity
  8
0
100
AcDbCircle
 62
7
  6
CONTINUOUS
 10
-82.232888219
 20
42.1424049096
 40
29.6774618427
100
AcDbArc
 50
73.5540182127
 51
74.9584373794
  0
ARC
  5
31A
100
AcDbEntity
  8
0
100
AcDbCircle
 62
7
  6
CONTINUOUS
 10
-84.421263019
 20
8.3542343449
 40
29.4438665391
100
AcDbArc
 50
201.8598797047
 51
204.4232020842
  0
ARC
  5
31B
100
AcDbEntity
  8
0
100
AcDbCircle
 62
7
  6
CONTINUOUS
 10
-77.0264138984
 20
6.7579161666
 40
28.9096057597
100
AcDbArc
 50
218.3416827543
 51
221.6105617524
  0
ARC
  5
31C
100
AcDbEntity
  8
0
100
AcDbCircle
 62
7
  6
CONTINUOUS
 10
-85.0173323007
 20
10.824372503
 40
26.4032524522
100
AcDbArc
 50
236.3139700339
 51
240.1217357249
  0
ARC
  5
31D
100
AcDbEntity
  8
0
100
AcDbCircle
 62
7
  6
CONTINUOUS
 10
-78.4238805386
 20
32.1379133794
 40
26.0191053172
100
AcDbArc
 50
3.2101803761
 51
9.5810272704
  0
ARC
  5
31E
100
AcDbEntity
  8
0
100
AcDbCircle
 62
7
  6
CONTINUOUS
 10
-85.5456028562
 20
9.9018394292
 40
25.9791383997
100
AcDbArc
 50
239.7151595789
 51
241.163160896
  0
ARC
  5
31F
100
AcDbEntity
  8
0
100
AcDbCircle
 62
7
  6
CONTINUOUS
 10
-81.0972146041
 20
14.6573641289
 40
25.9185624967
100
AcDbArc
 50
267.0575971188
 51
270.6508771291
  0
ARC
  5
320
100
AcDbEntity
  8
0
100
AcDbCircle
 62
7
  6
CONTINUOUS
 10
-84.9949269212
 20
9.9451033156
 40
25.6520085818
100
AcDbArc
 50
234.6233296119
 51
239.1063124586
  0
ARC
  5
321
100
AcDbEntity
  8
0
100
AcDbCircle
 62
7
  6
CONTINUOUS
 10
-85.3987366983
 20
10.1592866328
 40
25.6366154328
100
AcDbArc
 50
235.9030920937
 51
240.1205288058
  0
ARC
  5
322
100
AcDbEntity
  8
0
100
AcDbCircle
 62
7
  6
CONTINUOUS
 10
-85.0331674564
 20
9.8821031879
 40
25.5783123463
100
AcDbArc
 50
239.1073603733
 51
240.1285953736
  0
ARC
  5
323
100
AcDbEntity
  8
0
100
AcDbCircle
 62
7
  6
CONTINUOUS
 10
-77.0974752187
 20
31.9090409512
 40
24.2557390223
100
AcDbArc
 50
4.6242143245
 51
10.4302236762
  0
ARC
  5
324
100
AcDbEntity
  8
0
100
AcDbCircle
 62
7
  6
CONTINUOUS
 10
-81.7399978659
 20
11.0310852139
 40
22.2148103091
100
AcDbArc
 50
234.254841353
 51
240.12269249
  0
ARC
  5
325
100
AcDbEntity
  8
0
100
AcDbCircle
 62
7
  6
CONTINUOUS
 10
-75.5261877638
 20
-10.513878579
 40
5.1843110909
100
AcDbArc
 50
240.1286709937
 51
241.9724157536
  0
ARC
  5
326
100
AcDbEntity
  8
0
100
AcDbCircle
 62
7
  6
CONTINUOUS
 10
-77.3214206868
 20
62.8098199353
 40
1.8738675155
100
AcDbArc
 50
118.8896274725
 51
126.1805530361
  0
ARC
  5
327
100
AcDbEntity
  8
0
100
AcDbCircle
 62
7
  6
CONTINUOUS
 10
-86.7794485858
 20
200.31204992
 40
162.3222316023
100
AcDbArc
 50
245.1490865414
 51
247.0316351856
  0
ARC
  5
328
100
AcDbEntity
  8
0
100
AcDbCircle
 62
7
  6
CONTINUOUS
 10
-111.1858167439
 20
124.140802292
 40
95.4605845399
100
AcDbArc
 50
240.3861909513
 51
241.5476680537
  0
ARC
  5
329
100
AcDbEntity
  8
0
100
AcDbCircle
 62
7
  6
CONTINUOUS
 10
-111.380342064
 20
123.7794450622
 40
95.0501970856
100
AcDbArc
 50
241.546986196
 51
243.9621785681
  0
ARC
  5
32A
100
AcDbEntity
  8
0
100
AcDbCircle
 62
7
  6
CONTINUOUS
 10
-111.5499271535
 20
123.4361643663
 40
94.667316049
100
AcDbArc
 50
243.9631983697
 51
246.8941497821
  0
ARC
  5
32B
100
AcDbEntity
  8
0
100
AcDbCircle
 62
7
  6
CONTINUOUS
 10
-111.6493728218
 20
123.2053074837
 40
94.4159526125
100
AcDbArc
 50
246.8946794809
 51
250.1657514453
  0
ARC
  5
32C
100
AcDbEntity
  8
0
100
AcDbCircle
 62
7
  6
CONTINUOUS
 10
-111.6536458084
 20
123.1980382472
 40
94.4076649919
100
AcDbArc
 50
250.2689355594
 51
251.2699643029
  0
ARC
  5
32D
100
AcDbEntity
  8
0
100
AcDbCircle
 62
7
  6
CONTINUOUS
 10
-112.3161743608
 20
121.1600583177
 40
92.263815575
100
AcDbArc
 50
250.124793552
 51
251.2930840463
  0
ARC
  5
32E
100
AcDbEntity
  8
0
100
AcDbCircle
 62
7
  6
CONTINUOUS
 10
-112.7709329554
 20
119.9037279445
 40
90.9277126316
100
AcDbArc
 50
248.9351105864
 51
250.1251420805
  0
ARC
  5
32F
100
AcDbEntity
  8
0
100
AcDbCircle
 62
7
  6
CONTINUOUS
 10
-64.0058105785
 20
15.9993729145
 40
51.5266196088
100
AcDbArc
 50
173.2007110984
 51
178.1116755929
  0
ARC
  5
330
100
AcDbEntity
  8
0
100
AcDbCircle
 62
7
  6
CONTINUOUS
 10
-68.9087788172
 20
21.5735413165
 40
49.2588803967
100
AcDbArc
 50
221.9976476699
 51
228.5498600427
  0
ARC
  5
331
100
AcDbEntity
  8
0
100
AcDbCircle
 62
7
  6
CONTINUOUS
 10
-67.0282239379
 20
16.7173196878
 40
48.838951874
100
AcDbArc
 50
178.8566918185
 51
180.860013619
  0
ARC
  5
332
100
AcDbEntity
  8
0
100
AcDbCircle
 62
7
  6
CONTINUOUS
 10
-67.6668563581
 20
11.8235642448
 40
48.1431313315
100
AcDbArc
 50
172.7933139783
 51
175.0754492503
  0
ARC
  5
333
100
AcDbEntity
  8
0
100
AcDbCircle
 62
7
  6
CONTINUOUS
 10
-70.1016007721
 20
19.8039608954
 40
47.9471011542
100
AcDbArc
 50
229.5713691831
 51
232.3312301916
  0
ARC
  5
334
100
AcDbEntity
  8
0
100
AcDbCircle
 62
7
  6
CONTINUOUS
 10
-68.6400411397
 20
16.6864494935
 40
47.226853367
100
AcDbArc
 50
180.8519165327
 51
183.5873493568
  0
ARC
  5
335
100
AcDbEntity
  8
0
100
AcDbCircle
 62
7
  6
CONTINUOUS
 10
-71.1770157835
 20
18.5304485608
 40
46.2802788393
100
AcDbArc
 50
228.3913116058
 51
229.5623912359
  0
ARC
  5
336
100
AcDbEntity
  8
0
100
AcDbCircle
 62
7
  6
CONTINUOUS
 10
-71.2432929212
 20
19.4019487033
 40
46.0709505341
100
AcDbArc
 50
219.5924635442
 51
221.9331724426
  0
ARC
  5
337
100
AcDbEntity
  8
0
100
AcDbCircle
 62
7
  6
CONTINUOUS
 10
-71.8814588399
 20
18.867632683
 40
45.2386503261
100
AcDbArc
 50
219.3224145594
 51
219.5860995449
  0
ARC
  5
338
100
AcDbEntity
  8
0
100
AcDbCircle
 62
7
  6
CONTINUOUS
 10
-71.9961961626
 20
17.6106431032
 40
45.0485745067
100
AcDbArc
 50
226.7585770348
 51
228.3934887774
  0
ARC
  5
339
100
AcDbEntity
  8
0
100
AcDbCircle
 62
7
  6
CONTINUOUS
 10
-72.9171228996
 20
18.0380996756
 40
43.9118095032
100
AcDbArc
 50
214.6062581675
 51
219.3414160925
  0
ARC
  5
33A
100
AcDbEntity
  8
0
100
AcDbCircle
 62
7
  6
CONTINUOUS
 10
-72.9666795531
 20
16.5793444013
 40
43.6324478141
100
AcDbArc
 50
224.8495130482
 51
226.7591752918
  0
ARC
  5
33B
100
AcDbEntity
  8
0
100
AcDbCircle
 62
7
  6
CONTINUOUS
 10
-68.8285763362
 20
26.2192171105
 40
43.2314353523
100
AcDbArc
 50
118.8349589072
 51
121.2403201305
  0
ARC
  5
33C
100
AcDbEntity
  8
0
100
AcDbCircle
 62
7
  6
CONTINUOUS
 10
-66.6968231369
 20
32.6670721034
 40
39.1135152044
100
AcDbArc
 50
102.989485064
 51
104.0470998089
  0
ARC
  5
33D
100
AcDbEntity
  8
0
100
AcDbCircle
 62
7
  6
CONTINUOUS
 10
-66.815334088
 20
33.1828656885
 40
38.5842821218
100
AcDbArc
 50
101.6358057094
 51
102.9901646708
  0
ARC
  5
33E
100
AcDbEntity
  8
0
100
AcDbCircle
 62
7
  6
CONTINUOUS
 10
-66.9719068877
 20
33.9480229861
 40
37.8032701038
100
AcDbArc
 50
99.0659661139
 51
101.6372750758
  0
ARC
  5
33F
100
AcDbEntity
  8
0
100
AcDbCircle
 62
7
  6
CONTINUOUS
 10
-66.5115369062
 20
34.4436654677
 40
37.2772596094
100
AcDbArc
 50
100.2577771347
 51
102.4920539935
  0
ARC
  5
340
100
AcDbEntity
  8
0
100
AcDbCircle
 62
7
  6
CONTINUOUS
 10
-68.8410180275
 20
31.8527377381
 40
35.188096694
100
AcDbArc
 50
11.6706591846
 51
14.9972950853
  0
ARC
  5
341
100
AcDbEntity
  8
0
100
AcDbCircle
 62
7
  6
CONTINUOUS
 10
-68.8685005461
 20
32.1748122905
 40
33.1080374199
100
AcDbArc
 50
14.2662298652
 51
15.039782319
  0
ARC
  5
342
100
AcDbEntity
  8
0
100
AcDbCircle
 62
7
  6
CONTINUOUS
 10
-71.3354951815
 20
39.5193683006
 40
31.4467603191
100
AcDbArc
 50
97.7179324561
 51
98.8279996401
  0
ARC
  5
343
100
AcDbEntity
  8
0
100
AcDbCircle
 62
7
  6
CONTINUOUS
 10
-71.4148986849
 20
40.1154952826
 40
30.8453699534
100
AcDbArc
 50
95.7981176277
 51
97.7204836916
  0
ARC
  5
344
100
AcDbEntity
  8
0
100
AcDbCircle
 62
7
  6
CONTINUOUS
 10
-66.9959890536
 20
42.1988540779
 40
26.4148262153
100
AcDbArc
 50
60.1403159482
 51
64.366282193
  0
ARC
  5
345
100
AcDbEntity
  8
0
100
AcDbCircle
 62
7
  6
CONTINUOUS
 10
-66.4588133397
 20
43.1321229508
 40
25.9769305423
100
AcDbArc
 50
59.1595024501
 51
60.1738196139
  0
ARC
  5
346
100
AcDbEntity
  8
0
100
AcDbCircle
 62
7
  6
CONTINUOUS
 10
-66.2344643203
 20
42.6063914234
 40
25.6821658872
100
AcDbArc
 50
61.1568602425
 51
65.571406428
  0
ARC
  5
347
100
AcDbEntity
  8
0
100
AcDbCircle
 62
7
  6
CONTINUOUS
 10
-66.6079345933
 20
42.8766498701
 40
25.6337946334
100
AcDbArc
 50
60.1380642301
 51
64.372429097
  0
ARC
  5
348
100
AcDbEntity
  8
0
100
AcDbCircle
 62
7
  6
CONTINUOUS
 10
-66.2005954916
 20
42.6702958142
 40
25.6098504901
100
AcDbArc
 50
60.1306224859
 51
61.1542624689
  0
ARC
  5
349
100
AcDbEntity
  8
0
100
AcDbCircle
 62
7
  6
CONTINUOUS
 10
-72.567955141
 20
47.2114221162
 40
23.6567081828
100
AcDbArc
 50
98.7374890714
 51
100.5930104866
  0
ARC
  5
34A
100
AcDbEntity
  8
0
100
AcDbCircle
 62
7
  6
CONTINUOUS
 10
-72.6197278177
 20
47.4961142243
 40
23.3673504585
100
AcDbArc
 50
100.5965535793
 51
100.7714051612
  0
ARC
  5
34B
100
AcDbEntity
  8
0
100
AcDbCircle
 62
7
  6
CONTINUOUS
 10
-65.5119389313
 20
39.286610822
 40
22.2010441748
100
AcDbArc
 50
60.1341000909
 51
65.9865752787
  0
ARC
  5
34C
100
AcDbEntity
  8
0
100
AcDbCircle
 62
7
  6
CONTINUOUS
 10
-54.0970969352
 20
13.8433397909
 40
61.7053238247
100
AcDbArc
 50
153.9605764278
 51
159.711099951
  0
ARC
  5
34D
100
AcDbEntity
  8
0
100
AcDbCircle
 62
7
  6
CONTINUOUS
 10
-55.000086493
 20
14.4536648215
 40
61.1561618747
100
AcDbArc
 50
143.9642654314
 51
159.9585819584
  0
ARC
  5
34E
100
AcDbEntity
  8
0
100
AcDbCircle
 62
7
  6
CONTINUOUS
 10
-54.8020881739
 20
14.5993584814
 40
60.7067551738
100
AcDbArc
 50
136.6040346113
 51
142.5249174825
  0
ARC
  5
34F
100
AcDbEntity
  8
0
100
AcDbCircle
 62
7
  6
CONTINUOUS
 10
-55.4607937455
 20
14.8139766722
 40
60.5716465024
100
AcDbArc
 50
142.2836404092
 51
143.9835024892
  0
ARC
  5
350
100
AcDbEntity
  8
0
100
AcDbCircle
 62
7
  6
CONTINUOUS
 10
-62.7323055072
 20
29.35322845
 40
60.0091642316
100
AcDbArc
 50
232.3333171729
 51
240.1744771175
  0
ARC
  5
351
100
AcDbEntity
  8
0
100
AcDbCircle
 62
7
  6
CONTINUOUS
 10
-56.5704796708
 20
15.0593615987
 40
59.4732997567
100
AcDbArc
 50
159.9882987609
 51
161.6748877059
  0
ARC
  5
352
100
AcDbEntity
  8
0
100
AcDbCircle
 62
7
  6
CONTINUOUS
 10
-61.0150908269
 20
11.7672754666
 40
56.0427252826
100
AcDbArc
 50
155.014013686
 51
157.0452704635
  0
ARC
  5
353
100
AcDbEntity
  8
0
100
AcDbCircle
 62
7
  6
CONTINUOUS
 10
-62.8905583326
 20
15.4987314816
 40
53.8417060672
100
AcDbArc
 50
137.7897059734
 51
139.8754224344
  0
ARC
  5
354
100
AcDbEntity
  8
0
100
AcDbCircle
 62
7
  6
CONTINUOUS
 10
-61.6052033495
 20
21.489075013
 40
51.463855968
100
AcDbArc
 50
123.5626531783
 51
125.4440663714
  0
ARC
  5
355
100
AcDbEntity
  8
0
100
AcDbCircle
 62
7
  6
CONTINUOUS
 10
-61.6607425799
 20
22.6521721398
 40
50.0920585909
100
AcDbArc
 50
119.1374686379
 51
124.2365795142
  0
ARC
  5
356
100
AcDbEntity
  8
0
100
AcDbCircle
 62
7
  6
CONTINUOUS
 10
-58.0621722033
 20
16.2121873396
 40
41.5187345206
100
AcDbArc
 50
151.6017753577
 51
152.6763867485
  0
ARC
  5
357
100
AcDbEntity
  8
0
100
AcDbCircle
 62
7
  6
CONTINUOUS
 10
-58.1027173144
 20
16.2357723208
 40
41.4718515547
100
AcDbArc
 50
147.1023972341
 51
151.6037975603
  0
ARC
  5
358
100
AcDbEntity
  8
0
100
AcDbCircle
 62
7
  6
CONTINUOUS
 10
-58.1516875891
 20
16.2671062547
 40
41.4137153358
100
AcDbArc
 50
146.7213029667
 51
147.1019982662
  0
ARC
  5
359
100
AcDbEntity
  8
0
100
AcDbCircle
 62
7
  6
CONTINUOUS
 10
-57.4478482137
 20
27.4575181485
 40
39.8809700237
100
AcDbArc
 50
105.1006904601
 51
106.6559856923
  0
ARC
  5
35A
100
AcDbEntity
  8
0
100
AcDbCircle
 62
7
  6
CONTINUOUS
 10
-62.8236663224
 20
23.6462289179
 40
38.5095563984
100
AcDbArc
 50
118.1248284684
 51
118.9448162243
  0
ARC
  5
35B
100
AcDbEntity
  8
0
100
AcDbCircle
 62
7
  6
CONTINUOUS
 10
-59.6898249937
 20
24.0417337956
 40
1.7861152139
100
AcDbArc
 50
46.0410795098
 51
75.1451370019
  0
ARC
  5
35C
100
AcDbEntity
  8
0
100
AcDbCircle
 62
7
  6
CONTINUOUS
 10
-63.3339011301
 20
41.8771438947
 40
30.4754720867
100
AcDbArc
 50
2.8689938694
 51
3.9703970025
  0
ARC
  5
35D
100
AcDbEntity
  8
0
100
AcDbCircle
 62
7
  6
CONTINUOUS
 10
-59.4646586817
 20
37.2894392967
 40
28.9775232921
100
AcDbArc
 50
78.5064862498
 51
82.3073037679
  0
ARC
  5
35E
100
AcDbEntity
  8
0
100
AcDbCircle
 62
7
  6
CONTINUOUS
 10
-64.072260765
 20
92.8179680656
 40
80.198768972
100
AcDbArc
 50
239.1234703675
 51
239.6590919124
  0
ARC
  5
35F
100
AcDbEntity
  8
0
100
AcDbCircle
 62
7
  6
CONTINUOUS
 10
-72.4874255755
 20
91.3379634131
 40
68.3456127384
100
AcDbArc
 50
234.8730277064
 51
235.6084083818
  0
ARC
  5
360
100
AcDbEntity
  8
0
100
AcDbCircle
 62
7
  6
CONTINUOUS
 10
-67.4891525809
 20
55.1178856854
 40
17.3456892646
100
AcDbArc
 50
81.8065513731
 51
86.3779458592
  0
ARC
  5
361
100
AcDbEntity
  8
0
100
AcDbCircle
 62
7
  6
CONTINUOUS
 10
-58.8960878297
 20
63.9286928491
 40
7.9954215465
100
AcDbArc
 50
71.6525595987
 51
71.9634915253
  0
ARC
  5
362
100
AcDbEntity
  8
0
100
AcDbCircle
 62
7
  6
CONTINUOUS
 10
-58.3442797252
 20
67.969112567
 40
3.8935107822
100
AcDbArc
 50
124.4619216056
 51
128.1923328547
  0
ARC
  5
363
100
AcDbEntity
  8
0
100
AcDbCircle
 62
7
  6
CONTINUOUS
 10
-58.430330777
 20
68.0930440934
 40
3.7426297761
100
AcDbArc
 50
119.2520318288
 51
124.4410937429
  0
ARC
  5
364
100
AcDbEntity
  8
0
100
AcDbCircle
 62
7
  6
CONTINUOUS
 10
-49.0586645974
 20
10.0441932273
 40
58.470625276
100
AcDbArc
 50
165.4048608333
 51
165.9100605003
  0
ARC
  5
365
100
AcDbEntity
  8
0
100
AcDbCircle
 62
7
  6
CONTINUOUS
 10
-52.7627050058
 20
6.259809726
 40
43.574970741
100
AcDbArc
 50
61.4888393134
 51
61.7111269005
  0
ARC
  5
366
100
AcDbEntity
  8
0
100
AcDbCircle
 62
7
  6
CONTINUOUS
 10
-52.9728028885
 20
5.6524143762
 40
42.7837196429
100
AcDbArc
 50
61.094286872
 51
61.67778207
  0
ARC
  5
367
100
AcDbEntity
  8
0
100
AcDbCircle
 62
7
  6
CONTINUOUS
 10
-33.4085011709
 20
43.38773827
 40
0.7657986628
100
AcDbArc
 50
48.7007323822
 51
51.4763768235
  0
ARC
  5
368
100
AcDbEntity
  8
0
100
AcDbCircle
 62
7
  6
CONTINUOUS
 10
-33.1887781615
 20
43.5542563128
 40
0.4867187234
100
AcDbArc
 50
3.9425262793
 51
9.3887868202
  0
ARC
  5
369
100
AcDbEntity
  8
0
100
AcDbCircle
 62
7
  6
CONTINUOUS
 10
268.1433181213
 20
828.9300679608
 40
870.7199315586
100
AcDbArc
 50
241.0817765672
 51
241.5074064564
  0
ARC
  5
36A
100
AcDbEntity
  8
0
100
AcDbCircle
 62
7
  6
CONTINUOUS
 10
182.4340204624
 20
673.8906064435
 40
693.5665657044
100
AcDbArc
 50
240.1949218891
 51
241.0860115103
  0
SPLINE
  5
36B
100
AcDbEntity
  8
0
100
AcDbSpline
 62
7
  6
CONTINUOUS
 70
0
 71
3
 72
27
 73
23
 74
0
 42
0.0000001
 43
0.0000001
 44
0.0000000001
 40
0.0
 40
0.0
 40
0.0
 40
0.0
 40
0.0620215652
 40
0.0930485014
 40
0.1240751906
 40
0.1861032907
 40
0.2481486812
 40
0.3102289878
 40
0.3723591953
 40
0.4034718451
 40
0.434609065
 40
0.4969553267
 40
0.5281989445
 40
0.5594810968
 40
0.5908056773
 40
0.6221750617
 40
0.6850195825
 40
0.748002174
 40
0.8110541333
 40
0.8741225501
 40
0.9371561257
 40
1.0
 40
1.0
 40
1.0
 40
1.0
 10
-40.3662886044
 20
7.9972788105
 30
0.0
 10
-40.2670763407
 20
7.9403332509
 30
0.0
 10
-40.1123104886
 20
7.8646514013
 30
0.0
 10
-39.8976704658
 20
7.7849330257
 30
0.0
 10
-39.6781879749
 20
7.7195733859
 30
0.0
 10
-39.3964648576
 20
7.6650342375
 30
0.0
 10
-39.0528226357
 20
7.6440901105
 30
0.0
 10
-38.7091447441
 20
7.6669400859
 30
0.0
 10
-38.4271497634
 20
7.7217355723
 30
0.0
 10
-38.2067572713
 20
7.7858485723
 30
0.0
 10
-37.990262521
 20
7.8632654552
 30
0.0
 10
-37.7808369991
 20
7.9599700823
 30
0.0
 10
-37.5807634219
 20
8.0742434584
 30
0.0
 10
-37.4355091874
 20
8.1685756408
 30
0.0
 10
-37.2956000037
 20
8.2710494014
 30
0.0
 10
-37.1165802806
 20
8.418054279
 30
0.0
 10
-36.9079550179
 20
8.620290561
 30
0.0
 10
-36.6848265401
 20
8.8886639977
 30
0.0
 10
-36.4910963246
 20
9.1794787894
 30
0.0
 10
-36.3290178212
 20
9.4891659942
 30
0.0
 10
-36.200763214
 20
9.8138704852
 30
0.0
 10
-36.1387898761
 20
10.0381692929
 30
0.0
 10
-36.1140743389
 20
10.1514137584
 30
0.0
  0
SPLINE
  5
36C
100
AcDbEntity
  8
0
100
AcDbSpline
 62
7
  6
CONTINUOUS
 70
0
 71
3
 72
20
 73
16
 74
0
 42
0.0000001
 43
0.0000001
 44
0.0000000001
 40
0.0
 40
0.0
 40
0.0
 40
0.0
 40
0.1258865693
 40
0.1887335259
 40
0.2514566342
 40
0.314067246
 40
0.3765937788
 40
0.5013753184
 40
0.6260185076
 40
0.6883570156
 40
0.7506849449
 40
0.8130071018
 40
0.8753346501
 40
0.9376665918
 40
1.0
 40
1.0
 40
1.0
 40
1.0
 10
-36.1140743389
 20
10.1514137584
 30
0.0
 10
-36.082468373
 20
10.2962295763
 30
0.0
 10
-36.0502122732
 20
10.5170955691
 30
0.0
 10
-36.0392245164
 20
10.8131508745
 30
0.0
 10
-36.0472968197
 20
11.0347922148
 30
0.0
 10
-36.0718175696
 20
11.254841039
 30
0.0
 10
-36.1265839782
 20
11.5442072365
 30
0.0
 10
-36.2366219357
 20
11.8963253734
 30
0.0
 10
-36.4014160026
 20
12.2262778714
 30
0.0
 10
-36.563968452
 20
12.4710500586
 30
0.0
 10
-36.7007410965
 20
12.6439214024
 30
0.0
 10
-36.8514409657
 20
12.8047665968
 30
0.0
 10
-37.0152135386
 20
12.9523032655
 30
0.0
 10
-37.1908433916
 20
13.0854982035
 30
0.0
 10
-37.3150925318
 20
13.1640504286
 30
0.0
 10
-37.3787465872
 20
13.2005863938
 30
0.0
  0
SPLINE
  5
36D
100
AcDbEntity
  8
0
100
AcDbSpline
 62
7
  6
CONTINUOUS
 70
0
 71
3
 72
31
 73
27
 74
0
 42
0.0000001
 43
0.0000001
 44
0.0000000001
 40
0.0
 40
0.0
 40
0.0
 40
0.0
 40
0.0344737174
 40
0.0694340701
 40
0.1400164232
 40
0.2105679948
 40
0.2800166144
 40
0.3473294696
 40
0.4117426079
 40
0.4728581919
 40
0.5022244701
 40
0.5308405368
 40
0.5588000226
 40
0.5862338267
 40
0.6132960323
 40
0.6401653825
 40
0.6670295788
 40
0.6940770672
 40
0.7214873982
 40
0.7494172796
 40
0.7779999573
 40
0.8073272
 40
0.8683470255
 40
0.9327156095
 40
0.9660686628
 40
1.0
 40
1.0
 40
1.0
 40
1.0
 10
-38.4972591778
 20
9.953565103
 30
0.0
 10
-38.4906827941
 20
9.9836975273
 30
0.0
 10
-38.4749802579
 20
10.0438799235
 30
0.0
 10
-38.4341443241
 20
10.1624010386
 30
0.0
 10
-38.3660062964
 20
10.3051623858
 30
0.0
 10
-38.2602626004
 20
10.4618980841
 30
0.0
 10
-38.13422962
 20
10.598962678
 30
0.0
 10
-37.9924681429
 20
10.7111622893
 30
0.0
 10
-37.840253366
 20
10.7942226464
 30
0.0
 10
-37.7073748447
 20
10.8370159163
 30
0.0
 10
-37.6018640492
 20
10.8531317931
 30
0.0
 10
-37.5248702719
 20
10.856289737
 30
0.0
 10
-37.4497533042
 20
10.8505387057
 30
0.0
 10
-37.3772397381
 20
10.8359989696
 30
0.0
 10
-37.3080464361
 20
10.8127568768
 30
0.0
 10
-37.2428815217
 20
10.781013957
 30
0.0
 10
-37.1823599177
 20
10.741146892
 30
0.0
 10
-37.1271259896
 20
10.6934868335
 30
0.0
 10
-37.077698604
 20
10.6385537486
 30
0.0
 10
-37.0345348586
 20
10.5769009716
 30
0.0
 10
-36.9981046073
 20
10.5091010581
 30
0.0
 10
-36.9583435552
 20
10.4102092197
 30
0.0
 10
-36.9276425161
 20
10.2742018117
 30
0.0
 10
-36.9229279597
 20
10.1314752661
 30
0.0
 10
-36.9339405246
 20
10.0141087122
 30
0.0
 10
-36.9444438004
 20
9.9547530576
 30
0.0
 10
-36.9509167168
 20
9.9250947114
 30
0.0
  0
SPLINE
  5
36E
100
AcDbEntity
  8
0
100
AcDbSpline
 62
7
  6
CONTINUOUS
 70
0
 71
3
 72
26
 73
22
 74
0
 42
0.0000001
 43
0.0000001
 44
0.0000000001
 40
0.0
 40
0.0
 40
0.0
 40
0.0
 40
0.0674580346
 40
0.1359249595
 40
0.2738172211
 40
0.3082645661
 40
0.342571307
 40
0.4105270619
 40
0.4773133067
 40
0.5425912721
 40
0.6060841623
 40
0.6676092225
 40
0.7270973072
 40
0.7845873779
 40
0.8402389784
 40
0.8674892905
 40
0.8944098062
 40
0.9210578977
 40
0.9474946263
 40
0.9737850539
 40
1.0
 40
1.0
 40
1.0
 40
1.0
 10
-41.268721661
 20
10.6430501699
 30
0.0
 10
-41.2431552089
 20
10.7601934547
 30
0.0
 10
-41.179722625
 20
10.9938169602
 30
0.0
 10
-41.0078087896
 20
11.4496463087
 30
0.0
 10
-40.8005320036
 20
11.8277179871
 30
0.0
 10
-40.5877551541
 20
12.127154706
 30
0.0
 10
-40.4378219299
 20
12.318484801
 30
0.0
 10
-40.2357988059
 20
12.5415691173
 30
0.0
 10
-39.9722242357
 20
12.7810090887
 30
0.0
 10
-39.6920250924
 20
12.9877541963
 30
0.0
 10
-39.3994196351
 20
13.1587675074
 30
0.0
 10
-39.0986767559
 20
13.2914125066
 30
0.0
 10
-38.7942084713
 20
13.3835790869
 30
0.0
 10
-38.4906211572
 20
13.433914723
 30
0.0
 10
-38.240214582
 20
13.4401188282
 30
0.0
 10
-38.0455929719
 20
13.4231895078
 30
0.0
 10
-37.9036997766
 20
13.3998754885
 30
0.0
 10
-37.7654518884
 20
13.3659659383
 30
0.0
 10
-37.631361551
 20
13.3216181925
 30
0.0
 10
-37.5019696532
 20
13.266972659
 30
0.0
 10
-37.4191149825
 20
13.2237638241
 30
0.0
 10
-37.3787059854
 20
13.2005649858
 30
0.0
  0
SPLINE
  5
36F
100
AcDbEntity
  8
0
100
AcDbSpline
 62
7
  6
CONTINUOUS
 70
0
 71
3
 72
22
 73
18
 74
0
 42
0.0000001
 43
0.0000001
 44
0.0000000001
 40
0.0
 40
0.0
 40
0.0
 40
0.0
 40
0.0559339698
 40
0.1120903684
 40
0.1686863118
 40
0.2259180548
 40
0.2839648104
 40
0.3429836119
 40
0.4031027095
 40
0.4644255126
 40
0.5270143516
 40
0.5908969636
 40
0.7224738585
 40
0.7902069339
 40
0.8591404607
 40
0.9291316512
 40
1.0
 40
1.0
 40
1.0
 40
1.0
 10
-40.366660654
 20
7.9974905517
 30
0.0
 10
-40.414981251
 20
8.0252456631
 30
0.0
 10
-40.5091840449
 20
8.0855969288
 30
0.0
 10
-40.6414688192
 20
8.1896468461
 30
0.0
 10
-40.7641576598
 20
8.3067482238
 30
0.0
 10
-40.8766184083
 20
8.4361928227
 30
0.0
 10
-40.9781908299
 20
8.577321971
 30
0.0
 10
-41.0683465175
 20
8.7293416011
 30
0.0
 10
-41.1466483842
 20
8.891414282
 30
0.0
 10
-41.2126054254
 20
9.0626924623
 30
0.0
 10
-41.2659330891
 20
9.2422241204
 30
0.0
 10
-41.3203768494
 20
9.4936729853
 30
0.0
 10
-41.3474340782
 20
9.7555139082
 30
0.0
 10
-41.3483177377
 20
10.0228797948
 30
0.0
 10
-41.3355847868
 20
10.228525596
 30
0.0
 10
-41.3096322547
 20
10.4360385447
 30
0.0
 10
-41.2837763511
 20
10.5740708743
 30
0.0
 10
-41.268721661
 20
10.6430501699
 30
0.0
  0
SPLINE
  5
370
100
AcDbEntity
  8
0
100
AcDbSpline
 62
7
  6
CONTINUOUS
 70
0
 71
3
 72
31
 73
27
 74
0
 42
0.0000001
 43
0.0000001
 44
0.0000000001
 40
0.0
 40
0.0
 40
0.0
 40
0.0
 40
0.0344737174
 40
0.0694340701
 40
0.1400164232
 40
0.2105679948
 40
0.2800166144
 40
0.3473294696
 40
0.4117426079
 40
0.4728581919
 40
0.5022244701
 40
0.5308405368
 40
0.5588000226
 40
0.5862338267
 40
0.6132960323
 40
0.6401653825
 40
0.6670295788
 40
0.6940770672
 40
0.7214873982
 40
0.7494172796
 40
0.7779999573
 40
0.8073272
 40
0.8683470255
 40
0.9327156095
 40
0.9660686628
 40
1.0
 40
1.0
 40
1.0
 40
1.0
 10
-36.9509167168
 20
9.9250947114
 30
0.0
 10
-36.9574931004
 20
9.8949622871
 30
0.0
 10
-36.9731956367
 20
9.8347798909
 30
0.0
 10
-37.0140315704
 20
9.7162587758
 30
0.0
 10
-37.0821695982
 20
9.5734974285
 30
0.0
 10
-37.1879132941
 20
9.4167617303
 30
0.0
 10
-37.3139462746
 20
9.2796971364
 30
0.0
 10
-37.4557077517
 20
9.1674975251
 30
0.0
 10
-37.6079225285
 20
9.084437168
 30
0.0
 10
-37.7408010498
 20
9.0416438981
 30
0.0
 10
-37.8463118454
 20
9.0255280213
 30
0.0
 10
-37.9233056227
 20
9.0223700774
 30
0.0
 10
-37.9984225903
 20
9.0281211087
 30
0.0
 10
-38.0709361565
 20
9.0426608448
 30
0.0
 10
-38.1401294584
 20
9.0659029376
 30
0.0
 10
-38.2052943728
 20
9.0976458574
 30
0.0
 10
-38.2658159768
 20
9.1375129224
 30
0.0
 10
-38.321049905
 20
9.1851729809
 30
0.0
 10
-38.3704772906
 20
9.2401060658
 30
0.0
 10
-38.413641036
 20
9.3017588428
 30
0.0
 10
-38.4500712873
 20
9.3695587563
 30
0.0
 10
-38.4898323394
 20
9.4684505947
 30
0.0
 10
-38.5205333785
 20
9.6044580027
 30
0.0
 10
-38.5252479349
 20
9.7471845483
 30
0.0
 10
-38.51423537
 20
9.8645511022
 30
0.0
 10
-38.5037320942
 20
9.9239067568
 30
0.0
 10
-38.4972591778
 20
9.953565103
 30
0.0
  0
SPLINE
  5
371
100
AcDbEntity
  8
0
100
AcDbSpline
 62
7
  6
CONTINUOUS
 70
0
 71
3
 72
27
 73
23
 74
0
 42
0.0000001
 43
0.0000001
 44
0.0000000001
 40
0.0
 40
0.0
 40
0.0
 40
0.0
 40
0.0620215652
 40
0.0930485014
 40
0.1240751906
 40
0.1861032907
 40
0.2481486812
 40
0.3102289878
 40
0.3723591953
 40
0.4034718451
 40
0.434609065
 40
0.4969553267
 40
0.5281989445
 40
0.5594810968
 40
0.5908056773
 40
0.6221750617
 40
0.6850195825
 40
0.748002174
 40
0.8110541333
 40
0.8741225501
 40
0.9371561257
 40
1.0
 40
1.0
 40
1.0
 40
1.0
 10
-44.9092147648
 20
22.3436069784
 30
0.0
 10
-44.810002501
 20
22.2866614188
 30
0.0
 10
-44.655236649
 20
22.2109795691
 30
0.0
 10
-44.4405966262
 20
22.1312611936
 30
0.0
 10
-44.2211141353
 20
22.0659015537
 30
0.0
 10
-43.939391018
 20
22.0113624054
 30
0.0
 10
-43.5957487961
 20
21.9904182784
 30
0.0
 10
-43.2520709045
 20
22.0132682537
 30
0.0
 10
-42.9700759238
 20
22.0680637401
 30
0.0
 10
-42.7496834317
 20
22.1321767401
 30
0.0
 10
-42.5331886814
 20
22.2095936231
 30
0.0
 10
-42.3237631595
 20
22.3062982502
 30
0.0
 10
-42.1236895823
 20
22.4205716262
 30
0.0
 10
-41.9784353478
 20
22.5149038086
 30
0.0
 10
-41.8385261641
 20
22.6173775692
 30
0.0
 10
-41.659506441
 20
22.7643824469
 30
0.0
 10
-41.4508811783
 20
22.9666187288
 30
0.0
 10
-41.2277527005
 20
23.2349921655
 30
0.0
 10
-41.034022485
 20
23.5258069573
 30
0.0
 10
-40.8719439816
 20
23.8354941621
 30
0.0
 10
-40.7436893744
 20
24.1601986531
 30
0.0
 10
-40.6817160365
 20
24.3844974607
 30
0.0
 10
-40.6570004993
 20
24.4977419263
 30
0.0
  0
SPLINE
  5
372
100
AcDbEntity
  8
0
100
AcDbSpline
 62
7
  6
CONTINUOUS
 70
0
 71
3
 72
20
 73
16
 74
0
 42
0.0000001
 43
0.0000001
 44
0.0000000001
 40
0.0
 40
0.0
 40
0.0
 40
0.0
 40
0.1258865693
 40
0.1887335259
 40
0.2514566342
 40
0.314067246
 40
0.3765937788
 40
0.5013753184
 40
0.6260185076
 40
0.6883570156
 40
0.7506849449
 40
0.8130071018
 40
0.8753346501
 40
0.9376665918
 40
1.0
 40
1.0
 40
1.0
 40
1.0
 10
-40.6570004993
 20
24.4977419263
 30
0.0
 10
-40.6253945334
 20
24.6425577442
 30
0.0
 10
-40.5931384336
 20
24.863423737
 30
0.0
 10
-40.5821506768
 20
25.1594790423
 30
0.0
 10
-40.5902229801
 20
25.3811203827
 30
0.0
 10
-40.61474373
 20
25.6011692069
 30
0.0
 10
-40.6695101386
 20
25.8905354044
 30
0.0
 10
-40.779548096
 20
26.2426535412
 30
0.0
 10
-40.944342163
 20
26.5726060392
 30
0.0
 10
-41.1068946124
 20
26.8173782265
 30
0.0
 10
-41.2436672569
 20
26.9902495702
 30
0.0
 10
-41.3943671261
 20
27.1510947647
 30
0.0
 10
-41.558139699
 20
27.2986314333
 30
0.0
 10
-41.7337695519
 20
27.4318263714
 30
0.0
 10
-41.8580186922
 20
27.5103785965
 30
0.0
 10
-41.9216727476
 20
27.5469145616
 30
0.0
  0
SPLINE
  5
373
100
AcDbEntity
  8
0
100
AcDbSpline
 62
7
  6
CONTINUOUS
 70
0
 71
3
 72
31
 73
27
 74
0
 42
0.0000001
 43
0.0000001
 44
0.0000000001
 40
0.0
 40
0.0
 40
0.0
 40
0.0
 40
0.0344737174
 40
0.0694340701
 40
0.1400164232
 40
0.2105679948
 40
0.2800166144
 40
0.3473294696
 40
0.4117426079
 40
0.4728581919
 40
0.5022244701
 40
0.5308405368
 40
0.5588000226
 40
0.5862338267
 40
0.6132960323
 40
0.6401653825
 40
0.6670295788
 40
0.6940770672
 40
0.7214873982
 40
0.7494172796
 40
0.7779999573
 40
0.8073272
 40
0.8683470255
 40
0.9327156095
 40
0.9660686628
 40
1.0
 40
1.0
 40
1.0
 40
1.0
 10
-43.0401853382
 20
24.2998932709
 30
0.0
 10
-43.0336089545
 20
24.3300256951
 30
0.0
 10
-43.0179064183
 20
24.3902080914
 30
0.0
 10
-42.9770704845
 20
24.5087292065
 30
0.0
 10
-42.9089324568
 20
24.6514905537
 30
0.0
 10
-42.8031887608
 20
24.8082262519
 30
0.0
 10
-42.6771557804
 20
24.9452908459
 30
0.0
 10
-42.5353943033
 20
25.0574904572
 30
0.0
 10
-42.3831795264
 20
25.1405508143
 30
0.0
 10
-42.2503010051
 20
25.1833440842
 30
0.0
 10
-42.1447902096
 20
25.199459961
 30
0.0
 10
-42.0677964323
 20
25.2026179048
 30
0.0
 10
-41.9926794646
 20
25.1968668735
 30
0.0
 10
-41.9201658985
 20
25.1823271375
 30
0.0
 10
-41.8509725965
 20
25.1590850446
 30
0.0
 10
-41.7858076821
 20
25.1273421249
 30
0.0
 10
-41.7252860781
 20
25.0874750599
 30
0.0
 10
-41.67005215
 20
25.0398150013
 30
0.0
 10
-41.6206247644
 20
24.9848819165
 30
0.0
 10
-41.577461019
 20
24.9232291394
 30
0.0
 10
-41.5410307677
 20
24.8554292259
 30
0.0
 10
-41.5012697156
 20
24.7565373875
 30
0.0
 10
-41.4705686765
 20
24.6205299795
 30
0.0
 10
-41.4658541201
 20
24.477803434
 30
0.0
 10
-41.476866685
 20
24.3604368801
 30
0.0
 10
-41.4873699608
 20
24.3010812255
 30
0.0
 10
-41.4938428772
 20
24.2714228792
 30
0.0
  0
SPLINE
  5
374
100
AcDbEntity
  8
0
100
AcDbSpline
 62
7
  6
CONTINUOUS
 70
0
 71
3
 72
26
 73
22
 74
0
 42
0.0000001
 43
0.0000001
 44
0.0000000001
 40
0.0
 40
0.0
 40
0.0
 40
0.0
 40
0.0674580346
 40
0.1359249595
 40
0.2738172211
 40
0.3082645661
 40
0.342571307
 40
0.4105270619
 40
0.4773133067
 40
0.5425912721
 40
0.6060841623
 40
0.6676092225
 40
0.7270973072
 40
0.7845873779
 40
0.8402389784
 40
0.8674892905
 40
0.8944098062
 40
0.9210578977
 40
0.9474946263
 40
0.9737850539
 40
1.0
 40
1.0
 40
1.0
 40
1.0
 10
-45.8116478214
 20
24.9893783377
 30
0.0
 10
-45.7860813692
 20
25.1065216225
 30
0.0
 10
-45.7226487854
 20
25.3401451281
 30
0.0
 10
-45.55073495
 20
25.7959744766
 30
0.0
 10
-45.343458164
 20
26.174046155
 30
0.0
 10
-45.1306813145
 20
26.4734828739
 30
0.0
 10
-44.9807480903
 20
26.6648129689
 30
0.0
 10
-44.7787249663
 20
26.8878972851
 30
0.0
 10
-44.5151503961
 20
27.1273372566
 30
0.0
 10
-44.2349512528
 20
27.3340823642
 30
0.0
 10
-43.9423457955
 20
27.5050956753
 30
0.0
 10
-43.6416029163
 20
27.6377406745
 30
0.0
 10
-43.3371346317
 20
27.7299072548
 30
0.0
 10
-43.0335473176
 20
27.7802428909
 30
0.0
 10
-42.7831407423
 20
27.786446996
 30
0.0
 10
-42.5885191323
 20
27.7695176757
 30
0.0
 10
-42.446625937
 20
27.7462036564
 30
0.0
 10
-42.3083780488
 20
27.7122941062
 30
0.0
 10
-42.1742877113
 20
27.6679463604
 30
0.0
 10
-42.0448958136
 20
27.6133008269
 30
0.0
 10
-41.9620411429
 20
27.570091992
 30
0.0
 10
-41.9216321458
 20
27.5468931537
 30
0.0
  0
SPLINE
  5
375
100
AcDbEntity
  8
0
100
AcDbSpline
 62
7
  6
CONTINUOUS
 70
0
 71
3
 72
22
 73
18
 74
0
 42
0.0000001
 43
0.0000001
 44
0.0000000001
 40
0.0
 40
0.0
 40
0.0
 40
0.0
 40
0.0559339698
 40
0.1120903684
 40
0.1686863118
 40
0.2259180548
 40
0.2839648104
 40
0.3429836119
 40
0.4031027095
 40
0.4644255126
 40
0.5270143516
 40
0.5908969636
 40
0.7224738585
 40
0.7902069339
 40
0.8591404607
 40
0.9291316512
 40
1.0
 40
1.0
 40
1.0
 40
1.0
 10
-44.9095868143
 20
22.3438187196
 30
0.0
 10
-44.9579074114
 20
22.3715738309
 30
0.0
 10
-45.0521102053
 20
22.4319250966
 30
0.0
 10
-45.1843949796
 20
22.5359750139
 30
0.0
 10
-45.3070838202
 20
22.6530763916
 30
0.0
 10
-45.4195445687
 20
22.7825209906
 30
0.0
 10
-45.5211169903
 20
22.9236501389
 30
0.0
 10
-45.6112726779
 20
23.0756697689
 30
0.0
 10
-45.6895745446
 20
23.2377424499
 30
0.0
 10
-45.7555315858
 20
23.4090206302
 30
0.0
 10
-45.8088592495
 20
23.5885522882
 30
0.0
 10
-45.8633030098
 20
23.8400011531
 30
0.0
 10
-45.8903602386
 20
24.1018420761
 30
0.0
 10
-45.8912438981
 20
24.3692079626
 30
0.0
 10
-45.8785109471
 20
24.5748537639
 30
0.0
 10
-45.8525584151
 20
24.7823667126
 30
0.0
 10
-45.8267025115
 20
24.9203990422
 30
0.0
 10
-45.8116478214
 20
24.9893783377
 30
0.0
  0
SPLINE
  5
376
100
AcDbEntity
  8
0
100
AcDbSpline
 62
7
  6
CONTINUOUS
 70
0
 71
3
 72
31
 73
27
 74
0
 42
0.0000001
 43
0.0000001
 44
0.0000000001
 40
0.0
 40
0.0
 40
0.0
 40
0.0
 40
0.0344737174
 40
0.0694340701
 40
0.1400164232
 40
0.2105679948
 40
0.2800166144
 40
0.3473294696
 40
0.4117426079
 40
0.4728581919
 40
0.5022244701
 40
0.5308405368
 40
0.5588000226
 40
0.5862338267
 40
0.6132960323
 40
0.6401653825
 40
0.6670295788
 40
0.6940770672
 40
0.7214873982
 40
0.7494172796
 40
0.7779999573
 40
0.8073272
 40
0.8683470255
 40
0.9327156095
 40
0.9660686628
 40
1.0
 40
1.0
 40
1.0
 40
1.0
 10
-41.4938428772
 20
24.2714228792
 30
0.0
 10
-41.5004192608
 20
24.241290455
 30
0.0
 10
-41.5161217971
 20
24.1811080587
 30
0.0
 10
-41.5569577308
 20
24.0625869436
 30
0.0
 10
-41.6250957586
 20
23.9198255964
 30
0.0
 10
-41.7308394545
 20
23.7630898982
 30
0.0
 10
-41.856872435
 20
23.6260253042
 30
0.0
 10
-41.9986339121
 20
23.5138256929
 30
0.0
 10
-42.1508486889
 20
23.4307653358
 30
0.0
 10
-42.2837272102
 20
23.3879720659
 30
0.0
 10
-42.3892380058
 20
23.3718561892
 30
0.0
 10
-42.4662317831
 20
23.3686982453
 30
0.0
 10
-42.5413487507
 20
23.3744492766
 30
0.0
 10
-42.6138623168
 20
23.3889890126
 30
0.0
 10
-42.6830556188
 20
23.4122311055
 30
0.0
 10
-42.7482205332
 20
23.4439740252
 30
0.0
 10
-42.8087421372
 20
23.4838410903
 30
0.0
 10
-42.8639760653
 20
23.5315011488
 30
0.0
 10
-42.913403451
 20
23.5864342337
 30
0.0
 10
-42.9565671964
 20
23.6480870107
 30
0.0
 10
-42.9929974477
 20
23.7158869242
 30
0.0
 10
-43.0327584998
 20
23.8147787626
 30
0.0
 10
-43.0634595389
 20
23.9507861706
 30
0.0
 10
-43.0681740953
 20
24.0935127161
 30
0.0
 10
-43.0571615304
 20
24.21087927
 30
0.0
 10
-43.0466582546
 20
24.2702349246
 30
0.0
 10
-43.0401853382
 20
24.2998932709
 30
0.0
  0
SPLINE
  5
377
100
AcDbEntity
  8
0
100
AcDbSpline
 62
7
  6
CONTINUOUS
 70
0
 71
3
 72
27
 73
23
 74
0
 42
0.0000001
 43
0.0000001
 44
0.0000000001
 40
0.0
 40
0.0
 40
0.0
 40
0.0
 40
0.0620215652
 40
0.0930485014
 40
0.1240751906
 40
0.1861032907
 40
0.2481486812
 40
0.3102289878
 40
0.3723591953
 40
0.4034718451
 40
0.434609065
 40
0.4969553267
 40
0.5281989445
 40
0.5594810968
 40
0.5908056773
 40
0.6221750617
 40
0.6850195825
 40
0.748002174
 40
0.8110541333
 40
0.8741225501
 40
0.9371561257
 40
1.0
 40
1.0
 40
1.0
 40
1.0
 10
-64.1395467726
 20
1.583892678
 30
0.0
 10
-64.0403345088
 20
1.5269471184
 30
0.0
 10
-63.8855686568
 20
1.4512652687
 30
0.0
 10
-63.670928634
 20
1.3715468932
 30
0.0
 10
-63.4514461431
 20
1.3061872533
 30
0.0
 10
-63.1697230258
 20
1.251648105
 30
0.0
 10
-62.8260808039
 20
1.230703978
 30
0.0
 10
-62.4824029123
 20
1.2535539533
 30
0.0
 10
-62.2004079316
 20
1.3083494397
 30
0.0
 10
-61.9800154395
 20
1.3724624397
 30
0.0
 10
-61.7635206892
 20
1.4498793227
 30
0.0
 10
-61.5540951673
 20
1.5465839498
 30
0.0
 10
-61.3540215901
 20
1.6608573258
 30
0.0
 10
-61.2087673556
 20
1.7551895082
 30
0.0
 10
-61.0688581719
 20
1.8576632688
 30
0.0
 10
-60.8898384488
 20
2.0046681465
 30
0.0
 10
-60.6812131861
 20
2.2069044284
 30
0.0
 10
-60.4580847083
 20
2.4752778651
 30
0.0
 10
-60.2643544928
 20
2.7660926569
 30
0.0
 10
-60.1022759894
 20
3.0757798617
 30
0.0
 10
-59.9740213822
 20
3.4004843527
 30
0.0
 10
-59.9120480443
 20
3.6247831603
 30
0.0
 10
-59.8873325071
 20
3.7380276259
 30
0.0
  0
SPLINE
  5
378
100
AcDbEntity
  8
0
100
AcDbSpline
 62
7
  6
CONTINUOUS
 70
0
 71
3
 72
20
 73
16
 74
0
 42
0.0000001
 43
0.0000001
 44
0.0000000001
 40
0.0
 40
0.0
 40
0.0
 40
0.0
 40
0.1258865693
 40
0.1887335259
 40
0.2514566342
 40
0.314067246
 40
0.3765937788
 40
0.5013753184
 40
0.6260185076
 40
0.6883570156
 40
0.7506849449
 40
0.8130071018
 40
0.8753346501
 40
0.9376665918
 40
1.0
 40
1.0
 40
1.0
 40
1.0
 10
-59.8873325071
 20
3.7380276259
 30
0.0
 10
-59.8557265412
 20
3.8828434437
 30
0.0
 10
-59.8234704414
 20
4.1037094366
 30
0.0
 10
-59.8124826846
 20
4.3997647419
 30
0.0
 10
-59.8205549879
 20
4.6214060823
 30
0.0
 10
-59.8450757378
 20
4.8414549065
 30
0.0
 10
-59.8998421464
 20
5.130821104
 30
0.0
 10
-60.0098801039
 20
5.4829392408
 30
0.0
 10
-60.1746741708
 20
5.8128917388
 30
0.0
 10
-60.3372266202
 20
6.0576639261
 30
0.0
 10
-60.4739992647
 20
6.2305352698
 30
0.0
 10
-60.6246991339
 20
6.3913804643
 30
0.0
 10
-60.7884717068
 20
6.5389171329
 30
0.0
 10
-60.9641015597
 20
6.672112071
 30
0.0
 10
-61.0883507
 20
6.7506642961
 30
0.0
 10
-61.1520047554
 20
6.7872002612
 30
0.0
  0
SPLINE
  5
379
100
AcDbEntity
  8
0
100
AcDbSpline
 62
7
  6
CONTINUOUS
 70
0
 71
3
 72
31
 73
27
 74
0
 42
0.0000001
 43
0.0000001
 44
0.0000000001
 40
0.0
 40
0.0
 40
0.0
 40
0.0
 40
0.0344737174
 40
0.0694340701
 40
0.1400164232
 40
0.2105679948
 40
0.2800166144
 40
0.3473294696
 40
0.4117426079
 40
0.4728581919
 40
0.5022244701
 40
0.5308405368
 40
0.5588000226
 40
0.5862338267
 40
0.6132960323
 40
0.6401653825
 40
0.6670295788
 40
0.6940770672
 40
0.7214873982
 40
0.7494172796
 40
0.7779999573
 40
0.8073272
 40
0.8683470255
 40
0.9327156095
 40
0.9660686628
 40
1.0
 40
1.0
 40
1.0
 40
1.0
 10
-62.270517346
 20
3.5401789705
 30
0.0
 10
-62.2639409623
 20
3.5703113947
 30
0.0
 10
-62.2482384261
 20
3.630493791
 30
0.0
 10
-62.2074024923
 20
3.7490149061
 30
0.0
 10
-62.1392644646
 20
3.8917762533
 30
0.0
 10
-62.0335207686
 20
4.0485119515
 30
0.0
 10
-61.9074877882
 20
4.1855765455
 30
0.0
 10
-61.7657263111
 20
4.2977761568
 30
0.0
 10
-61.6135115342
 20
4.3808365139
 30
0.0
 10
-61.4806330129
 20
4.4236297838
 30
0.0
 10
-61.3751222174
 20
4.4397456606
 30
0.0
 10
-61.2981284401
 20
4.4429036044
 30
0.0
 10
-61.2230114724
 20
4.4371525731
 30
0.0
 10
-61.1504979063
 20
4.4226128371
 30
0.0
 10
-61.0813046043
 20
4.3993707442
 30
0.0
 10
-61.0161396899
 20
4.3676278245
 30
0.0
 10
-60.9556180859
 20
4.3277607595
 30
0.0
 10
-60.9003841578
 20
4.2801007009
 30
0.0
 10
-60.8509567722
 20
4.2251676161
 30
0.0
 10
-60.8077930268
 20
4.163514839
 30
0.0
 10
-60.7713627755
 20
4.0957149255
 30
0.0
 10
-60.7316017234
 20
3.9968230871
 30
0.0
 10
-60.7009006843
 20
3.8608156791
 30
0.0
 10
-60.6961861279
 20
3.7180891336
 30
0.0
 10
-60.7071986928
 20
3.6007225797
 30
0.0
 10
-60.7177019686
 20
3.5413669251
 30
0.0
 10
-60.724174885
 20
3.5117085788
 30
0.0
  0
SPLINE
  5
37A
100
AcDbEntity
  8
0
100
AcDbSpline
 62
7
  6
CONTINUOUS
 70
0
 71
3
 72
26
 73
22
 74
0
 42
0.0000001
 43
0.0000001
 44
0.0000000001
 40
0.0
 40
0.0
 40
0.0
 40
0.0
 40
0.0674580346
 40
0.1359249595
 40
0.2738172211
 40
0.3082645661
 40
0.342571307
 40
0.4105270619
 40
0.4773133067
 40
0.5425912721
 40
0.6060841623
 40
0.6676092225
 40
0.7270973072
 40
0.7845873779
 40
0.8402389784
 40
0.8674892905
 40
0.8944098062
 40
0.9210578977
 40
0.9474946263
 40
0.9737850539
 40
1.0
 40
1.0
 40
1.0
 40
1.0
 10
-65.0419798292
 20
4.2296640373
 30
0.0
 10
-65.0164133771
 20
4.3468073221
 30
0.0
 10
-64.9529807932
 20
4.5804308277
 30
0.0
 10
-64.7810669578
 20
5.0362601762
 30
0.0
 10
-64.5737901718
 20
5.4143318546
 30
0.0
 10
-64.3610133223
 20
5.7137685735
 30
0.0
 10
-64.2110800981
 20
5.9050986684
 30
0.0
 10
-64.0090569741
 20
6.1281829847
 30
0.0
 10
-63.7454824039
 20
6.3676229562
 30
0.0
 10
-63.4652832606
 20
6.5743680638
 30
0.0
 10
-63.1726778033
 20
6.7453813749
 30
0.0
 10
-62.8719349241
 20
6.8780263741
 30
0.0
 10
-62.5674666395
 20
6.9701929544
 30
0.0
 10
-62.2638793254
 20
7.0205285905
 30
0.0
 10
-62.0134727501
 20
7.0267326956
 30
0.0
 10
-61.8188511401
 20
7.0098033753
 30
0.0
 10
-61.6769579448
 20
6.986489356
 30
0.0
 10
-61.5387100566
 20
6.9525798058
 30
0.0
 10
-61.4046197191
 20
6.90823206
 30
0.0
 10
-61.2752278214
 20
6.8535865265
 30
0.0
 10
-61.1923731507
 20
6.8103776916
 30
0.0
 10
-61.1519641536
 20
6.7871788533
 30
0.0
  0
SPLINE
  5
37B
100
AcDbEntity
  8
0
100
AcDbSpline
 62
7
  6
CONTINUOUS
 70
0
 71
3
 72
22
 73
18
 74
0
 42
0.0000001
 43
0.0000001
 44
0.0000000001
 40
0.0
 40
0.0
 40
0.0
 40
0.0
 40
0.0559339698
 40
0.1120903684
 40
0.1686863118
 40
0.2259180548
 40
0.2839648104
 40
0.3429836119
 40
0.4031027095
 40
0.4644255126
 40
0.5270143516
 40
0.5908969636
 40
0.7224738585
 40
0.7902069339
 40
0.8591404607
 40
0.9291316512
 40
1.0
 40
1.0
 40
1.0
 40
1.0
 10
-64.1399188222
 20
1.5841044192
 30
0.0
 10
-64.1882394192
 20
1.6118595305
 30
0.0
 10
-64.2824422131
 20
1.6722107962
 30
0.0
 10
-64.4147269874
 20
1.7762607135
 30
0.0
 10
-64.537415828
 20
1.8933620912
 30
0.0
 10
-64.6498765765
 20
2.0228066902
 30
0.0
 10
-64.7514489981
 20
2.1639358385
 30
0.0
 10
-64.8416046857
 20
2.3159554685
 30
0.0
 10
-64.9199065524
 20
2.4780281494
 30
0.0
 10
-64.9858635936
 20
2.6493063298
 30
0.0
 10
-65.0391912573
 20
2.8288379878
 30
0.0
 10
-65.0936350176
 20
3.0802868527
 30
0.0
 10
-65.1206922464
 20
3.3421277757
 30
0.0
 10
-65.1215759059
 20
3.6094936622
 30
0.0
 10
-65.108842955
 20
3.8151394635
 30
0.0
 10
-65.0828904229
 20
4.0226524122
 30
0.0
 10
-65.0570345193
 20
4.1606847417
 30
0.0
 10
-65.0419798292
 20
4.2296640373
 30
0.0
  0
SPLINE
  5
37C
100
AcDbEntity
  8
0
100
AcDbSpline
 62
7
  6
CONTINUOUS
 70
0
 71
3
 72
31
 73
27
 74
0
 42
0.0000001
 43
0.0000001
 44
0.0000000001
 40
0.0
 40
0.0
 40
0.0
 40
0.0
 40
0.0344737174
 40
0.0694340701
 40
0.1400164232
 40
0.2105679948
 40
0.2800166144
 40
0.3473294696
 40
0.4117426079
 40
0.4728581919
 40
0.5022244701
 40
0.5308405368
 40
0.5588000226
 40
0.5862338267
 40
0.6132960323
 40
0.6401653825
 40
0.6670295788
 40
0.6940770672
 40
0.7214873982
 40
0.7494172796
 40
0.7779999573
 40
0.8073272
 40
0.8683470255
 40
0.9327156095
 40
0.9660686628
 40
1.0
 40
1.0
 40
1.0
 40
1.0
 10
-60.724174885
 20
3.5117085788
 30
0.0
 10
-60.7307512686
 20
3.4815761546
 30
0.0
 10
-60.7464538049
 20
3.4213937583
 30
0.0
 10
-60.7872897386
 20
3.3028726432
 30
0.0
 10
-60.8554277664
 20
3.160111296
 30
0.0
 10
-60.9611714623
 20
3.0033755978
 30
0.0
 10
-61.0872044428
 20
2.8663110038
 30
0.0
 10
-61.2289659199
 20
2.7541113925
 30
0.0
 10
-61.3811806967
 20
2.6710510354
 30
0.0
 10
-61.514059218
 20
2.6282577655
 30
0.0
 10
-61.6195700136
 20
2.6121418888
 30
0.0
 10
-61.6965637909
 20
2.6089839449
 30
0.0
 10
-61.7716807585
 20
2.6147349762
 30
0.0
 10
-61.8441943247
 20
2.6292747122
 30
0.0
 10
-61.9133876266
 20
2.6525168051
 30
0.0
 10
-61.978552541
 20
2.6842597248
 30
0.0
 10
-62.039074145
 20
2.7241267899
 30
0.0
 10
-62.0943080732
 20
2.7717868484
 30
0.0
 10
-62.1437354588
 20
2.8267199332
 30
0.0
 10
-62.1868992042
 20
2.8883727103
 30
0.0
 10
-62.2233294555
 20
2.9561726238
 30
0.0
 10
-62.2630905076
 20
3.0550644622
 30
0.0
 10
-62.2937915467
 20
3.1910718702
 30
0.0
 10
-62.2985061031
 20
3.3337984157
 30
0.0
 10
-62.2874935382
 20
3.4511649696
 30
0.0
 10
-62.2769902624
 20
3.5105206242
 30
0.0
 10
-62.270517346
 20
3.5401789705
 30
0.0
  0
SPLINE
  5
37D
100
AcDbEntity
  8
0
100
AcDbSpline
 62
7
  6
CONTINUOUS
 70
0
 71
3
 72
27
 73
23
 74
0
 42
0.0000001
 43
0.0000001
 44
0.0000000001
 40
0.0
 40
0.0
 40
0.0
 40
0.0
 40
0.0620215652
 40
0.0930485014
 40
0.1240751906
 40
0.1861032907
 40
0.2481486812
 40
0.3102289878
 40
0.3723591953
 40
0.4034718451
 40
0.434609065
 40
0.4969553267
 40
0.5281989445
 40
0.5594810968
 40
0.5908056773
 40
0.6221750617
 40
0.6850195825
 40
0.748002174
 40
0.8110541333
 40
0.8741225501
 40
0.9371561257
 40
1.0
 40
1.0
 40
1.0
 40
1.0
 10
-59.601896336
 20
18.3799163655
 30
0.0
 10
-59.5026840723
 20
18.3229708059
 30
0.0
 10
-59.3479182202
 20
18.2472889562
 30
0.0
 10
-59.1332781975
 20
18.1675705807
 30
0.0
 10
-58.9137957065
 20
18.1022109408
 30
0.0
 10
-58.6320725892
 20
18.0476717925
 30
0.0
 10
-58.2884303674
 20
18.0267276655
 30
0.0
 10
-57.9447524757
 20
18.0495776408
 30
0.0
 10
-57.662757495
 20
18.1043731273
 30
0.0
 10
-57.4423650029
 20
18.1684861272
 30
0.0
 10
-57.2258702526
 20
18.2459030102
 30
0.0
 10
-57.0164447307
 20
18.3426076373
 30
0.0
 10
-56.8163711536
 20
18.4568810133
 30
0.0
 10
-56.6711169191
 20
18.5512131957
 30
0.0
 10
-56.5312077354
 20
18.6536869564
 30
0.0
 10
-56.3521880123
 20
18.800691834
 30
0.0
 10
-56.1435627496
 20
19.0029281159
 30
0.0
 10
-55.9204342717
 20
19.2713015527
 30
0.0
 10
-55.7267040563
 20
19.5621163444
 30
0.0
 10
-55.5646255528
 20
19.8718035492
 30
0.0
 10
-55.4363709457
 20
20.1965080402
 30
0.0
 10
-55.3743976077
 20
20.4208068478
 30
0.0
 10
-55.3496820706
 20
20.5340513134
 30
0.0
  0
SPLINE
  5
37E
100
AcDbEntity
  8
0
100
AcDbSpline
 62
7
  6
CONTINUOUS
 70
0
 71
3
 72
20
 73
16
 74
0
 42
0.0000001
 43
0.0000001
 44
0.0000000001
 40
0.0
 40
0.0
 40
0.0
 40
0.0
 40
0.1258865693
 40
0.1887335259
 40
0.2514566342
 40
0.314067246
 40
0.3765937788
 40
0.5013753184
 40
0.6260185076
 40
0.6883570156
 40
0.7506849449
 40
0.8130071018
 40
0.8753346501
 40
0.9376665918
 40
1.0
 40
1.0
 40
1.0
 40
1.0
 10
-55.3496820706
 20
20.5340513134
 30
0.0
 10
-55.3180761046
 20
20.6788671313
 30
0.0
 10
-55.2858200049
 20
20.8997331241
 30
0.0
 10
-55.2748322481
 20
21.1957884294
 30
0.0
 10
-55.2829045513
 20
21.4174297698
 30
0.0
 10
-55.3074253013
 20
21.637478594
 30
0.0
 10
-55.3621917099
 20
21.9268447915
 30
0.0
 10
-55.4722296673
 20
22.2789629284
 30
0.0
 10
-55.6370237342
 20
22.6089154264
 30
0.0
 10
-55.7995761837
 20
22.8536876136
 30
0.0
 10
-55.9363488281
 20
23.0265589573
 30
0.0
 10
-56.0870486974
 20
23.1874041518
 30
0.0
 10
-56.2508212703
 20
23.3349408204
 30
0.0
 10
-56.4264511232
 20
23.4681357585
 30
0.0
 10
-56.5507002634
 20
23.5466879836
 30
0.0
 10
-56.6143543189
 20
23.5832239488
 30
0.0
  0
SPLINE
  5
37F
100
AcDbEntity
  8
0
100
AcDbSpline
 62
7
  6
CONTINUOUS
 70
0
 71
3
 72
31
 73
27
 74
0
 42
0.0000001
 43
0.0000001
 44
0.0000000001
 40
0.0
 40
0.0
 40
0.0
 40
0.0
 40
0.0344737174
 40
0.0694340701
 40
0.1400164232
 40
0.2105679948
 40
0.2800166144
 40
0.3473294696
 40
0.4117426079
 40
0.4728581919
 40
0.5022244701
 40
0.5308405368
 40
0.5588000226
 40
0.5862338267
 40
0.6132960323
 40
0.6401653825
 40
0.6670295788
 40
0.6940770672
 40
0.7214873982
 40
0.7494172796
 40
0.7779999573
 40
0.8073272
 40
0.8683470255
 40
0.9327156095
 40
0.9660686628
 40
1.0
 40
1.0
 40
1.0
 40
1.0
 10
-57.7328669094
 20
20.336202658
 30
0.0
 10
-57.7262905258
 20
20.3663350822
 30
0.0
 10
-57.7105879896
 20
20.4265174785
 30
0.0
 10
-57.6697520558
 20
20.5450385936
 30
0.0
 10
-57.601614028
 20
20.6877999408
 30
0.0
 10
-57.4958703321
 20
20.8445356391
 30
0.0
 10
-57.3698373517
 20
20.981600233
 30
0.0
 10
-57.2280758745
 20
21.0937998443
 30
0.0
 10
-57.0758610977
 20
21.1768602014
 30
0.0
 10
-56.9429825764
 20
21.2196534713
 30
0.0
 10
-56.8374717809
 20
21.2357693481
 30
0.0
 10
-56.7604780035
 20
21.2389272919
 30
0.0
 10
-56.6853610359
 20
21.2331762606
 30
0.0
 10
-56.6128474698
 20
21.2186365246
 30
0.0
 10
-56.5436541678
 20
21.1953944318
 30
0.0
 10
-56.4784892534
 20
21.163651512
 30
0.0
 10
-56.4179676494
 20
21.123784447
 30
0.0
 10
-56.3627337213
 20
21.0761243884
 30
0.0
 10
-56.3133063356
 20
21.0211913036
 30
0.0
 10
-56.2701425902
 20
20.9595385265
 30
0.0
 10
-56.2337123389
 20
20.8917386131
 30
0.0
 10
-56.1939512869
 20
20.7928467746
 30
0.0
 10
-56.1632502477
 20
20.6568393666
 30
0.0
 10
-56.1585356913
 20
20.5141128211
 30
0.0
 10
-56.1695482562
 20
20.3967462672
 30
0.0
 10
-56.1800515321
 20
20.3373906126
 30
0.0
 10
-56.1865244485
 20
20.3077322663
 30
0.0
  0
SPLINE
  5
380
100
AcDbEntity
  8
0
100
AcDbSpline
 62
7
  6
CONTINUOUS
 70
0
 71
3
 72
26
 73
22
 74
0
 42
0.0000001
 43
0.0000001
 44
0.0000000001
 40
0.0
 40
0.0
 40
0.0
 40
0.0
 40
0.0674580346
 40
0.1359249595
 40
0.2738172211
 40
0.3082645661
 40
0.342571307
 40
0.4105270619
 40
0.4773133067
 40
0.5425912721
 40
0.6060841623
 40
0.6676092225
 40
0.7270973072
 40
0.7845873779
 40
0.8402389784
 40
0.8674892905
 40
0.8944098062
 40
0.9210578977
 40
0.9474946263
 40
0.9737850539
 40
1.0
 40
1.0
 40
1.0
 40
1.0
 10
-60.5043293926
 20
21.0256877249
 30
0.0
 10
-60.4787629405
 20
21.1428310096
 30
0.0
 10
-60.4153303567
 20
21.3764545152
 30
0.0
 10
-60.2434165213
 20
21.8322838637
 30
0.0
 10
-60.0361397352
 20
22.2103555421
 30
0.0
 10
-59.8233628857
 20
22.509792261
 30
0.0
 10
-59.6734296616
 20
22.701122356
 30
0.0
 10
-59.4714065376
 20
22.9242066723
 30
0.0
 10
-59.2078319674
 20
23.1636466437
 30
0.0
 10
-58.9276328241
 20
23.3703917513
 30
0.0
 10
-58.6350273668
 20
23.5414050624
 30
0.0
 10
-58.3342844876
 20
23.6740500616
 30
0.0
 10
-58.029816203
 20
23.7662166419
 30
0.0
 10
-57.7262288889
 20
23.816552278
 30
0.0
 10
-57.4758223136
 20
23.8227563832
 30
0.0
 10
-57.2812007036
 20
23.8058270628
 30
0.0
 10
-57.1393075083
 20
23.7825130435
 30
0.0
 10
-57.0010596201
 20
23.7486034933
 30
0.0
 10
-56.8669692826
 20
23.7042557475
 30
0.0
 10
-56.7375773849
 20
23.649610214
 30
0.0
 10
-56.6547227142
 20
23.6064013791
 30
0.0
 10
-56.6143137171
 20
23.5832025408
 30
0.0
  0
SPLINE
  5
381
100
AcDbEntity
  8
0
100
AcDbSpline
 62
7
  6
CONTINUOUS
 70
0
 71
3
 72
22
 73
18
 74
0
 42
0.0000001
 43
0.0000001
 44
0.0000000001
 40
0.0
 40
0.0
 40
0.0
 40
0.0
 40
0.0559339698
 40
0.1120903684
 40
0.1686863118
 40
0.2259180548
 40
0.2839648104
 40
0.3429836119
 40
0.4031027095
 40
0.4644255126
 40
0.5270143516
 40
0.5908969636
 40
0.7224738585
 40
0.7902069339
 40
0.8591404607
 40
0.9291316512
 40
1.0
 40
1.0
 40
1.0
 40
1.0
 10
-59.6022683856
 20
18.3801281067
 30
0.0
 10
-59.6505889827
 20
18.4078832181
 30
0.0
 10
-59.7447917765
 20
18.4682344837
 30
0.0
 10
-59.8770765509
 20
18.572284401
 30
0.0
 10
-59.9997653914
 20
18.6893857787
 30
0.0
 10
-60.11222614
 20
18.8188303777
 30
0.0
 10
-60.2137985615
 20
18.959959526
 30
0.0
 10
-60.3039542492
 20
19.1119791561
 30
0.0
 10
-60.3822561158
 20
19.274051837
 30
0.0
 10
-60.4482131571
 20
19.4453300173
 30
0.0
 10
-60.5015408208
 20
19.6248616753
 30
0.0
 10
-60.5559845811
 20
19.8763105402
 30
0.0
 10
-60.5830418099
 20
20.1381514632
 30
0.0
 10
-60.5839254694
 20
20.4055173498
 30
0.0
 10
-60.5711925184
 20
20.611163151
 30
0.0
 10
-60.5452399864
 20
20.8186760997
 30
0.0
 10
-60.5193840828
 20
20.9567084293
 30
0.0
 10
-60.5043293926
 20
21.0256877249
 30
0.0
  0
SPLINE
  5
382
100
AcDbEntity
  8
0
100
AcDbSpline
 62
7
  6
CONTINUOUS
 70
0
 71
3
 72
31
 73
27
 74
0
 42
0.0000001
 43
0.0000001
 44
0.0000000001
 40
0.0
 40
0.0
 40
0.0
 40
0.0
 40
0.0344737174
 40
0.0694340701
 40
0.1400164232
 40
0.2105679948
 40
0.2800166144
 40
0.3473294696
 40
0.4117426079
 40
0.4728581919
 40
0.5022244701
 40
0.5308405368
 40
0.5588000226
 40
0.5862338267
 40
0.6132960323
 40
0.6401653825
 40
0.6670295788
 40
0.6940770672
 40
0.7214873982
 40
0.7494172796
 40
0.7779999573
 40
0.8073272
 40
0.8683470255
 40
0.9327156095
 40
0.9660686628
 40
1.0
 40
1.0
 40
1.0
 40
1.0
 10
-56.1865244485
 20
20.3077322663
 30
0.0
 10
-56.1931008321
 20
20.2775998421
 30
0.0
 10
-56.2088033683
 20
20.2174174459
 30
0.0
 10
-56.2496393021
 20
20.0988963308
 30
0.0
 10
-56.3177773299
 20
19.9561349835
 30
0.0
 10
-56.4235210258
 20
19.7993992853
 30
0.0
 10
-56.5495540062
 20
19.6623346914
 30
0.0
 10
-56.6913154834
 20
19.5501350801
 30
0.0
 10
-56.8435302602
 20
19.4670747229
 30
0.0
 10
-56.9764087815
 20
19.424281453
 30
0.0
 10
-57.081919577
 20
19.4081655763
 30
0.0
 10
-57.1589133544
 20
19.4050076324
 30
0.0
 10
-57.234030322
 20
19.4107586637
 30
0.0
 10
-57.3065438881
 20
19.4252983997
 30
0.0
 10
-57.3757371901
 20
19.4485404926
 30
0.0
 10
-57.4409021045
 20
19.4802834123
 30
0.0
 10
-57.5014237085
 20
19.5201504774
 30
0.0
 10
-57.5566576366
 20
19.5678105359
 30
0.0
 10
-57.6060850222
 20
19.6227436208
 30
0.0
 10
-57.6492487677
 20
19.6843963978
 30
0.0
 10
-57.685679019
 20
19.7521963113
 30
0.0
 10
-57.725440071
 20
19.8510881497
 30
0.0
 10
-57.7561411102
 20
19.9870955577
 30
0.0
 10
-57.7608556666
 20
20.1298221032
 30
0.0
 10
-57.7498431017
 20
20.2471886571
 30
0.0
 10
-57.7393398258
 20
20.3065443117
 30
0.0
 10
-57.7328669094
 20
20.336202658
 30
0.0
  0
SPLINE
  5
383
100
AcDbEntity
  8
0
100
AcDbSpline
 62
7
  6
CONTINUOUS
 70
0
 71
3
 72
29
 73
25
 74
0
 42
0.0000001
 43
0.0000001
 44
0.0000000001
 40
0.0
 40
0.0
 40
0.0
 40
0.0
 40
0.0305357818
 40
0.0610747825
 40
0.0916196135
 40
0.1221776955
 40
0.1527528674
 40
0.1833506411
 40
0.2139822024
 40
0.2446520971
 40
0.2753692229
 40
0.3061517874
 40
0.3370106174
 40
0.3679571153
 40
0.4301241258
 40
0.4927350425
 40
0.5558066519
 40
0.6192788857
 40
0.6830264668
 40
0.7468840536
 40
0.8106597816
 40
0.8741727056
 40
0.9373349066
 40
1.0
 40
1.0
 40
1.0
 40
1.0
 10
-52.7492392285
 20
-5.7001299734
 30
0.0
 10
-52.6766911513
 20
-5.7417708912
 30
0.0
 10
-52.528218354
 20
-5.8193373364
 30
0.0
 10
-52.2970591766
 20
-5.9177367859
 30
0.0
 10
-52.0587640278
 20
-5.9975500915
 30
0.0
 10
-51.8148766506
 20
-6.0585224161
 30
0.0
 10
-51.5668576201
 20
-6.1004489405
 30
0.0
 10
-51.31615452
 20
-6.1231801602
 30
0.0
 10
-51.0642016186
 20
-6.126976938
 30
0.0
 10
-50.8123406781
 20
-6.112040336
 30
0.0
 10
-50.5618459744
 20
-6.0786640092
 30
0.0
 10
-50.3138742358
 20
-6.027408006
 30
0.0
 10
-50.0694894689
 20
-5.9587530534
 30
0.0
 10
-49.7493908695
 20
-5.8446539174
 30
0.0
 10
-49.3627198216
 20
-5.6613346736
 30
0.0
 10
-48.9285764939
 20
-5.3826428254
 30
0.0
 10
-48.529004154
 20
-5.0507656271
 30
0.0
 10
-48.169233085
 20
-4.6719158249
 30
0.0
 10
-47.8541190456
 20
-4.2525346443
 30
0.0
 10
-47.5881516188
 20
-3.7994400739
 30
0.0
 10
-47.3753973622
 20
-3.3197555943
 30
0.0
 10
-47.2195081918
 20
-2.8206235908
 30
0.0
 10
-47.1239028376
 20
-2.3096491122
 30
0.0
 10
-47.1019404101
 20
-1.9646065667
 30
0.0
 10
-47.1019694911
 20
-1.79294287
 30
0.0
  0
SPLINE
  5
384
100
AcDbEntity
  8
0
100
AcDbSpline
 62
7
  6
CONTINUOUS
 70
0
 71
3
 72
21
 73
17
 74
0
 42
0.0000001
 43
0.0000001
 44
0.0000000001
 40
0.0
 40
0.0
 40
0.0
 40
0.0
 40
0.1265941242
 40
0.1896621495
 40
0.2525555685
 40
0.3778038946
 40
0.4402701257
 40
0.5026434382
 40
0.564936896
 40
0.6271742059
 40
0.689370122
 40
0.7515293045
 40
0.8136648513
 40
0.87578622
 40
0.9378956936
 40
1.0
 40
1.0
 40
1.0
 40
1.0
 10
-47.1019694911
 20
-1.79294287
 30
0.0
 10
-47.101995385
 20
-1.6400922462
 30
0.0
 10
-47.1150681903
 20
-1.4107900342
 30
0.0
 10
-47.1593568445
 20
-1.1089432342
 30
0.0
 10
-47.2214965948
 20
-0.8119123696
 30
0.0
 10
-47.3108094829
 20
-0.5218106702
 30
0.0
 10
-47.4270941084
 20
-0.2429619009
 30
0.0
 10
-47.5275670456
 20
-0.0403923343
 30
0.0
 10
-47.6410927446
 20
0.1548346447
 30
0.0
 10
-47.7674379405
 20
0.3417730147
 30
0.0
 10
-47.9061715479
 20
0.5195074982
 30
0.0
 10
-48.0567430518
 20
0.6871727638
 30
0.0
 10
-48.2186251907
 20
0.8438212993
 30
0.0
 10
-48.3910922335
 20
0.9886454833
 30
0.0
 10
-48.5732996526
 20
1.1209264046
 30
0.0
 10
-48.7007597028
 20
1.2002491827
 30
0.0
 10
-48.7657935546
 20
1.2375771089
 30
0.0
  0
SPLINE
  5
385
100
AcDbEntity
  8
0
100
AcDbSpline
 62
7
  6
CONTINUOUS
 70
0
 71
3
 72
35
 73
31
 74
0
 42
0.0000001
 43
0.0000001
 44
0.0000000001
 40
0.0
 40
0.0
 40
0.0
 40
0.0
 40
0.0328805215
 40
0.0665048645
 40
0.1353702021
 40
0.2056763265
 40
0.2763337894
 40
0.3461914033
 40
0.3805119402
 40
0.4142499505
 40
0.4473081288
 40
0.4796077923
 40
0.5110957172
 40
0.5417479907
 40
0.5715693067
 40
0.6006021923
 40
0.6289197154
 40
0.6566331907
 40
0.6838820443
 40
0.7108332377
 40
0.7376691116
 40
0.7645802259
 40
0.7917525927
 40
0.819358483
 40
0.8475411512
 40
0.876413532
 40
0.9060647506
 40
0.9365556245
 40
0.9678919846
 40
1.0
 40
1.0
 40
1.0
 40
1.0
 10
-47.9855553405
 20
-2.4528939882
 30
0.0
 10
-47.9855452062
 20
-2.5127164219
 30
0.0
 10
-47.9909500379
 20
-2.6337772753
 30
0.0
 10
-48.0224738253
 20
-2.8782680032
 30
0.0
 10
-48.1007381439
 20
-3.1842296044
 30
0.0
 10
-48.2508551697
 20
-3.5367422138
 30
0.0
 10
-48.4522286412
 20
-3.8648101125
 30
0.0
 10
-48.6579578572
 20
-4.1091830863
 30
0.0
 10
-48.8410353996
 20
-4.2811025774
 30
0.0
 10
-48.9849909195
 20
-4.3959959265
 30
0.0
 10
-49.1349620266
 20
-4.4964558657
 30
0.0
 10
-49.2895265883
 20
-4.5815393883
 30
0.0
 10
-49.4472372329
 20
-4.6503649166
 30
0.0
 10
-49.6065612753
 20
-4.7023428019
 30
0.0
 10
-49.7660173079
 20
-4.7368398326
 30
0.0
 10
-49.9240520494
 20
-4.7536123127
 30
0.0
 10
-50.0791613922
 20
-4.7523576558
 30
0.0
 10
-50.2298293879
 20
-4.7331251219
 30
0.0
 10
-50.374580195
 20
-4.6960335845
 30
0.0
 10
-50.5119602042
 20
-4.6414085027
 30
0.0
 10
-50.6406288128
 20
-4.5698369562
 30
0.0
 10
-50.7592465475
 20
-4.4819438653
 30
0.0
 10
-50.8667162773
 20
-4.3787074912
 30
0.0
 10
-50.961896996
 20
-4.261074638
 30
0.0
 10
-51.0439760136
 20
-4.1303177296
 30
0.0
 10
-51.1121297993
 20
-3.987681427
 30
0.0
 10
-51.165752788
 20
-3.8345442304
 30
0.0
 10
-51.204347798
 20
-3.6723549304
 30
0.0
 10
-51.2275305884
 20
-3.5027828741
 30
0.0
 10
-51.2326082493
 20
-3.3872812115
 30
0.0
 10
-51.2326181456
 20
-3.3288642662
 30
0.0
  0
SPLINE
  5
386
100
AcDbEntity
  8
0
100
AcDbSpline
 62
7
  6
CONTINUOUS
 70
0
 71
3
 72
17
 73
13
 74
0
 42
0.0000001
 43
0.0000001
 44
0.0000000001
 40
0.0
 40
0.0
 40
0.0
 40
0.0
 40
0.1155880283
 40
0.232292079
 40
0.2914296196
 40
0.3512226665
 40
0.4730923308
 40
0.5353917297
 40
0.5986603577
 40
0.7282331896
 40
0.8620997309
 40
1.0
 40
1.0
 40
1.0
 40
1.0
 10
-52.7497037157
 20
-5.6998598787
 30
0.0
 10
-52.8508675453
 20
-5.641749575
 30
0.0
 10
-53.0455807945
 20
-5.5092722102
 30
0.0
 10
-53.261824442
 20
-5.3082200774
 30
0.0
 10
-53.4174260574
 20
-5.1281121863
 30
0.0
 10
-53.5628068689
 20
-4.933124591
 30
0.0
 10
-53.6887538803
 20
-4.7204784871
 30
0.0
 10
-53.7943028123
 20
-4.4939908053
 30
0.0
 10
-53.8878757074
 20
-4.2538998206
 30
0.0
 10
-53.97846604
 20
-3.9359080225
 30
0.0
 10
-54.0432937419
 20
-3.5352352472
 30
0.0
 10
-54.0573849459
 20
-3.2606848236
 30
0.0
 10
-54.057408525
 20
-3.1214986431
 30
0.0
  0
SPLINE
  5
387
100
AcDbEntity
  8
0
100
AcDbSpline
 62
7
  6
CONTINUOUS
 70
0
 71
3
 72
33
 73
29
 74
0
 42
0.0000001
 43
0.0000001
 44
0.0000000001
 40
0.0
 40
0.0
 40
0.0
 40
0.0
 40
0.129992676
 40
0.163567482
 40
0.1974361189
 40
0.231538665
 40
0.2658055614
 40
0.334523868
 40
0.4030554385
 40
0.4370923278
 40
0.470879968
 40
0.537434109
 40
0.5701185743
 40
0.6023356043
 40
0.6340466413
 40
0.6652190618
 40
0.6958291967
 40
0.7258663111
 40
0.7553281719
 40
0.7842243621
 40
0.8125771716
 40
0.8404186744
 40
0.8677943259
 40
0.8947605484
 40
0.9213832177
 40
0.9477400504
 40
0.973915668
 40
1.0
 40
1.0
 40
1.0
 40
1.0
 10
-54.057408525
 20
-3.1214986431
 30
0.0
 10
-54.0574677354
 20
-2.771982139
 30
0.0
 10
-54.0011469046
 20
-2.3301486796
 30
0.0
 10
-53.8634084951
 20
-1.8175457966
 30
0.0
 10
-53.7782362632
 20
-1.5579514052
 30
0.0
 10
-53.6785524724
 20
-1.3016381858
 30
0.0
 10
-53.5268953624
 20
-0.965527457
 30
0.0
 10
-53.3041176171
 20
-0.5607101383
 30
0.0
 10
-53.040543977
 20
-0.1819359367
 30
0.0
 10
-52.807610998
 20
0.1013934268
 30
0.0
 10
-52.563386908
 20
0.3678410459
 30
0.0
 10
-52.3002657184
 20
0.6114402323
 30
0.0
 10
-52.0210458251
 20
0.8284065174
 30
0.0
 10
-51.8067328803
 20
0.9754896218
 30
0.0
 10
-51.5873803811
 20
1.1072046496
 30
0.0
 10
-51.3640275498
 20
1.2229287727
 30
0.0
 10
-51.1377163842
 20
1.3220349592
 30
0.0
 10
-50.9095605448
 20
1.4041135598
 30
0.0
 10
-50.6806328488
 20
1.4687420072
 30
0.0
 10
-50.4520199117
 20
1.5155615088
 30
0.0
 10
-50.2248311347
 20
1.5444142546
 30
0.0
 10
-50.0001443553
 20
1.5550854363
 30
0.0
 10
-49.7790516041
 20
1.5475118191
 30
0.0
 10
-49.56261724
 20
1.5217836282
 30
0.0
 10
-49.3519032091
 20
1.4779284361
 30
0.0
 10
-49.1479266966
 20
1.4161911656
 30
0.0
 10
-48.9516857016
 20
1.336892686
 30
0.0
 10
-48.8265549484
 20
1.272459844
 30
0.0
 10
-48.7657329974
 20
1.2375389845
 30
0.0
  0
SPLINE
  5
388
100
AcDbEntity
  8
0
100
AcDbSpline
 62
7
  6
CONTINUOUS
 70
0
 71
3
 72
35
 73
31
 74
0
 42
0.0000001
 43
0.0000001
 44
0.0000000001
 40
0.0
 40
0.0
 40
0.0
 40
0.0
 40
0.0328805215
 40
0.0665048645
 40
0.1353702021
 40
0.2056763265
 40
0.2763337894
 40
0.3461914033
 40
0.3805119402
 40
0.4142499505
 40
0.4473081288
 40
0.4796077923
 40
0.5110957172
 40
0.5417479907
 40
0.5715693067
 40
0.6006021923
 40
0.6289197154
 40
0.6566331907
 40
0.6838820443
 40
0.7108332377
 40
0.7376691116
 40
0.7645802259
 40
0.7917525927
 40
0.819358483
 40
0.8475411512
 40
0.876413532
 40
0.9060647506
 40
0.9365556245
 40
0.9678919846
 40
1.0
 40
1.0
 40
1.0
 40
1.0
 10
-51.2326181456
 20
-3.3288642662
 30
0.0
 10
-51.2326282799
 20
-3.2690418324
 30
0.0
 10
-51.2272234482
 20
-3.1479809791
 30
0.0
 10
-51.1956996608
 20
-2.9034902511
 30
0.0
 10
-51.1174353422
 20
-2.59752865
 30
0.0
 10
-50.9673183165
 20
-2.2450160406
 30
0.0
 10
-50.7659448449
 20
-1.9169481419
 30
0.0
 10
-50.5602156289
 20
-1.6725751681
 30
0.0
 10
-50.3771380865
 20
-1.5006556769
 30
0.0
 10
-50.2331825666
 20
-1.3857623278
 30
0.0
 10
-50.0832114595
 20
-1.2853023887
 30
0.0
 10
-49.9286468978
 20
-1.200218866
 30
0.0
 10
-49.7709362532
 20
-1.1313933378
 30
0.0
 10
-49.6116122108
 20
-1.0794154525
 30
0.0
 10
-49.4521561782
 20
-1.0449184218
 30
0.0
 10
-49.2941214367
 20
-1.0281459417
 30
0.0
 10
-49.139012094
 20
-1.0294005985
 30
0.0
 10
-48.9883440982
 20
-1.0486331324
 30
0.0
 10
-48.8435932911
 20
-1.0857246699
 30
0.0
 10
-48.7062132819
 20
-1.1403497517
 30
0.0
 10
-48.5775446733
 20
-1.2119212982
 30
0.0
 10
-48.4589269386
 20
-1.2998143891
 30
0.0
 10
-48.3514572088
 20
-1.4030507631
 30
0.0
 10
-48.2562764901
 20
-1.5206836163
 30
0.0
 10
-48.1741974725
 20
-1.6514405248
 30
0.0
 10
-48.1060436869
 20
-1.7940768274
 30
0.0
 10
-48.0524206981
 20
-1.947214024
 30
0.0
 10
-48.0138256881
 20
-2.109403324
 30
0.0
 10
-47.9906428977
 20
-2.2789753802
 30
0.0
 10
-47.9855652368
 20
-2.3944770429
 30
0.0
 10
-47.9855553405
 20
-2.4528939882
 30
0.0
  0
SPLINE
  5
389
100
AcDbEntity
  8
0
100
AcDbSpline
 62
7
  6
CONTINUOUS
 70
0
 71
3
 72
9
 73
5
 74
0
 42
0.0000001
 43
0.0000001
 44
0.0000000001
 40
0.0
 40
0.0
 40
0.0
 40
0.0
 40
0.2548653716
 40
1.0
 40
1.0
 40
1.0
 40
1.0
 10
-164.3610117508
 20
69.9060646833
 30
0.0
 10
-164.5485077533
 20
69.0864187047
 30
0.0
 10
-165.1996373312
 20
65.8519751699
 30
0.0
 10
-165.5059415639
 20
62.5457102497
 30
0.0
 10
-165.5131668881
 20
60.0874727122
 30
0.0
  0
SPLINE
  5
38A
100
AcDbEntity
  8
0
100
AcDbSpline
 62
7
  6
CONTINUOUS
 70
0
 71
3
 72
9
 73
5
 74
0
 42
0.0000001
 43
0.0000001
 44
0.0000000001
 40
0.0
 40
0.0
 40
0.0
 40
0.0
 40
0.5064663936
 40
1.0
 40
1.0
 40
1.0
 40
1.0
 10
-165.5780871916
 20
52.8553336352
 30
0.0
 10
-165.1972060273
 20
51.770360574
 30
0.0
 10
-164.3257589712
 20
49.6678047832
 30
0.0
 10
-163.210669608
 20
47.6827187339
 30
0.0
 10
-162.6013568166
 20
46.7423413756
 30
0.0
  0
SPLINE
  5
38B
100
AcDbEntity
  8
0
100
AcDbSpline
 62
7
  6
CONTINUOUS
 70
0
 71
3
 72
9
 73
5
 74
0
 42
0.0000001
 43
0.0000001
 44
0.0000000001
 40
0.0
 40
0.0
 40
0.0
 40
0.0
 40
0.5054705008
 40
1.0
 40
1.0
 40
1.0
 40
1.0
 10
-146.0106667942
 20
40.2686614836
 30
0.0
 10
-145.6526475249
 20
39.6432426364
 30
0.0
 10
-144.8652562006
 20
38.4492655714
 30
0.0
 10
-143.9244963226
 20
37.3712649352
 30
0.0
 10
-143.4247625163
 20
36.8739178429
 30
0.0
  0
SPLINE
  5
38C
100
AcDbEntity
  8
0
100
AcDbSpline
 62
7
  6
CONTINUOUS
 70
0
 71
3
 72
11
 73
7
 74
0
 42
0.0000001
 43
0.0000001
 44
0.0000000001
 40
0.0
 40
0.0
 40
0.0
 40
0.0
 40
0.2661252756
 40
0.5229472182
 40
0.7679051693
 40
1.0
 40
1.0
 40
1.0
 40
1.0
 10
-147.0199384387
 20
59.985519265
 30
0.0
 10
-147.5311352428
 20
58.4716842779
 30
0.0
 10
-148.3132594811
 20
55.4154428251
 30
0.0
 10
-148.7267840142
 20
50.8023021561
 30
0.0
 10
-148.348598879
 20
46.3887954293
 30
0.0
 10
-147.5492472854
 20
43.6130816867
 30
0.0
 10
-147.0169466714
 20
42.3252569556
 30
0.0
  0
SPLINE
  5
38D
100
AcDbEntity
  8
0
100
AcDbSpline
 62
7
  6
CONTINUOUS
 70
0
 71
3
 72
9
 73
5
 74
0
 42
0.0000001
 43
0.0000001
 44
0.0000000001
 40
0.0
 40
0.0
 40
0.0
 40
0.0
 40
0.4945625582
 40
1.0
 40
1.0
 40
1.0
 40
1.0
 10
-118.8959456265
 20
79.5262399819
 30
0.0
 10
-119.5805056103
 20
79.7094845264
 30
0.0
 10
-120.9924749923
 20
79.9822539043
 30
0.0
 10
-122.4277679082
 20
80.0622086361
 30
0.0
 10
-123.1519900297
 20
80.056573087
 30
0.0
  0
SPLINE
  5
38E
100
AcDbEntity
  8
0
100
AcDbSpline
 62
7
  6
CONTINUOUS
 70
0
 71
3
 72
14
 73
10
 74
0
 42
0.0000001
 43
0.0000001
 44
0.0000000001
 40
0.0
 40
0.0
 40
0.0
 40
0.0
 40
0.1097215632
 40
0.2249173343
 40
0.3457365472
 40
0.4716633145
 40
0.6016472222
 40
0.7342555052
 40
1.0
 40
1.0
 40
1.0
 40
1.0
 10
-123.1519900297
 20
80.056573087
 30
0.0
 10
-124.3609166562
 20
80.0471658
 30
0.0
 10
-126.8424444487
 20
79.7641182302
 30
0.0
 10
-130.4973971221
 20
78.6242424974
 30
0.0
 10
-134.0643471451
 20
76.8007827393
 30
0.0
 10
-137.4352260873
 20
74.3526008062
 30
0.0
 10
-140.5115493106
 20
71.3537989965
 30
0.0
 10
-144.0940027538
 20
66.7504366855
 30
0.0
 10
-146.0831392041
 20
62.7597139503
 30
0.0
 10
-147.0199384387
 20
59.985519265
 30
0.0
  0
SPLINE
  5
38F
100
AcDbEntity
  8
0
100
AcDbSpline
 62
7
  6
CONTINUOUS
 70
0
 71
3
 72
9
 73
5
 74
0
 42
0.0000001
 43
0.0000001
 44
0.0000000001
 40
0.0
 40
0.0
 40
0.0
 40
0.0
 40
0.4932215686
 40
1.0
 40
1.0
 40
1.0
 40
1.0
 10
-162.0852585276
 20
45.4412016316
 30
0.0
 10
-162.8935502069
 20
46.5279850287
 30
0.0
 10
-164.3027022414
 20
48.9098023327
 30
0.0
 10
-165.2243861669
 20
51.5149241418
 30
0.0
 10
-165.572789131
 20
52.8622469181
 30
0.0
  0
SPLINE
  5
390
100
AcDbEntity
  8
0
100
AcDbSpline
 62
7
  6
CONTINUOUS
 70
0
 71
3
 72
9
 73
5
 74
0
 42
0.0000001
 43
0.0000001
 44
0.0000000001
 40
0.0
 40
0.0
 40
0.0
 40
0.0
 40
0.2464726933
 40
1.0
 40
1.0
 40
1.0
 40
1.0
 10
-132.3975835172
 20
91.799842171
 30
0.0
 10
-132.8251764404
 20
91.8140295891
 30
0.0
 10
-134.5612398702
 20
91.8300750404
 30
0.0
 10
-136.2981279684
 20
91.6818389956
 30
0.0
 10
-137.5913954023
 20
91.4862390918
 30
0.0
  0
SPLINE
  5
391
100
AcDbEntity
  8
0
100
AcDbSpline
 62
7
  6
CONTINUOUS
 70
0
 71
3
 72
9
 73
5
 74
0
 42
0.0000001
 43
0.0000001
 44
0.0000000001
 40
0.0
 40
0.0
 40
0.0
 40
0.0
 40
0.2471381753
 40
1.0
 40
1.0
 40
1.0
 40
1.0
 10
-137.5913954023
 20
91.4862390918
 30
0.0
 10
-137.9108405305
 20
91.4379246947
 30
0.0
 10
-139.20022739
 20
91.2217406976
 30
0.0
 10
-140.4757129687
 20
90.9237886503
 30
0.0
 10
-141.4232490602
 20
90.6576621345
 30
0.0
  0
SPLINE
  5
392
100
AcDbEntity
  8
0
100
AcDbSpline
 62
7
  6
CONTINUOUS
 70
0
 71
3
 72
9
 73
5
 74
0
 42
0.0000001
 43
0.0000001
 44
0.0000000001
 40
0.0
 40
0.0
 40
0.0
 40
0.0
 40
0.2463834478
 40
1.0
 40
1.0
 40
1.0
 40
1.0
 10
-146.520011316
 20
89.7135582552
 30
0.0
 10
-147.0422614777
 20
89.3840380191
 30
0.0
 10
-149.1323924261
 20
88.000184074
 30
0.0
 10
-151.102132714
 20
86.4359475308
 30
0.0
 10
-152.5086456577
 20
85.1752605002
 30
0.0
  0
SPLINE
  5
393
100
AcDbEntity
  8
0
100
AcDbSpline
 62
7
  6
CONTINUOUS
 70
0
 71
3
 72
9
 73
5
 74
0
 42
0.0000001
 43
0.0000001
 44
0.0000000001
 40
0.0
 40
0.0
 40
0.0
 40
0.0
 40
0.493135028
 40
1.0
 40
1.0
 40
1.0
 40
1.0
 10
-166.3816590674
 20
59.4140999326
 30
0.0
 10
-166.3819581665
 20
61.1796682821
 30
0.0
 10
-166.0507879235
 20
64.7655990111
 30
0.0
 10
-165.1264765476
 20
68.2425433978
 30
0.0
 10
-164.5243025103
 20
69.954447446
 30
0.0
  0
SPLINE
  5
394
100
AcDbEntity
  8
0
100
AcDbSpline
 62
7
  6
CONTINUOUS
 70
0
 71
3
 72
9
 73
5
 74
0
 42
0.0000001
 43
0.0000001
 44
0.0000000001
 40
0.0
 40
0.0
 40
0.0
 40
0.0
 40
0.5010400481
 40
1.0
 40
1.0
 40
1.0
 40
1.0
 10
-164.5243025103
 20
69.954447446
 30
0.0
 10
-163.679416146
 20
72.3563517096
 30
0.0
 10
-161.4592708598
 20
76.9765338768
 30
0.0
 10
-158.3096561847
 20
81.0221554774
 30
0.0
 10
-156.5376515914
 20
82.8357870891
 30
0.0
  0
SPLINE
  5
395
100
AcDbEntity
  8
0
100
AcDbSpline
 62
7
  6
CONTINUOUS
 70
0
 71
3
 72
9
 73
5
 74
0
 42
0.0000001
 43
0.0000001
 44
0.0000000001
 40
0.0
 40
0.0
 40
0.0
 40
0.0
 40
0.5094296755
 40
1.0
 40
1.0
 40
1.0
 40
1.0
 10
-156.5376515914
 20
82.8357870891
 30
0.0
 10
-155.0879349665
 20
84.3195597095
 30
0.0
 10
-151.9652940117
 20
86.9765726768
 30
0.0
 10
-148.3637351412
 20
88.9529225948
 30
0.0
 10
-146.5134609827
 20
89.7059331652
 30
0.0
  0
SPLINE
  5
396
100
AcDbEntity
  8
0
100
AcDbSpline
 62
7
  6
CONTINUOUS
 70
0
 71
3
 72
9
 73
5
 74
0
 42
0.0000001
 43
0.0000001
 44
0.0000000001
 40
0.0
 40
0.0
 40
0.0
 40
0.0
 40
0.5051311898
 40
1.0
 40
1.0
 40
1.0
 40
1.0
 10
-143.5519237487
 20
90.7014264473
 30
0.0
 10
-142.5723627106
 20
90.9621893836
 30
0.0
 10
-140.5975474407
 20
91.3544664515
 30
0.0
 10
-138.586308912
 20
91.4701067714
 30
0.0
 10
-137.5933629828
 20
91.4537299831
 30
0.0
  0
SPLINE
  5
397
100
AcDbEntity
  8
0
100
AcDbSpline
 62
7
  6
CONTINUOUS
 70
0
 71
3
 72
11
 73
7
 74
0
 42
0.0000001
 43
0.0000001
 44
0.0000000001
 40
0.0
 40
0.0
 40
0.0
 40
0.0
 40
0.2017158951
 40
0.4268800938
 40
0.6920657406
 40
1.0
 40
1.0
 40
1.0
 40
1.0
 10
-152.4761924387
 20
37.4363872283
 30
0.0
 10
-152.5235892788
 20
37.4548911994
 30
0.0
 10
-152.6157207334
 20
37.5180907354
 30
0.0
 10
-152.7090408615
 20
37.6700978773
 30
0.0
 10
-152.7570175683
 20
37.8679727464
 30
0.0
 10
-152.7581967012
 20
38.0138847944
 30
0.0
 10
-152.7507065355
 20
38.0911961414
 30
0.0
  0
SPLINE
  5
398
100
AcDbEntity
  8
0
100
AcDbSpline
 62
7
  6
CONTINUOUS
 70
0
 71
3
 72
9
 73
5
 74
0
 42
0.0000001
 43
0.0000001
 44
0.0000000001
 40
0.0
 40
0.0
 40
0.0
 40
0.0
 40
0.2497280635
 40
1.0
 40
1.0
 40
1.0
 40
1.0
 10
-160.721435524
 20
65.1105302456
 30
0.0
 10
-160.9289599905
 20
65.566091362
 30
0.0
 10
-161.7156265037
 20
67.4099967746
 30
0.0
 10
-162.3153224739
 20
69.3352300562
 30
0.0
 10
-162.6389188923
 20
70.8039915933
 30
0.0
  0
SPLINE
  5
399
100
AcDbEntity
  8
0
100
AcDbSpline
 62
7
  6
CONTINUOUS
 70
0
 71
3
 72
19
 73
15
 74
0
 42
0.0000001
 43
0.0000001
 44
0.0000000001
 40
0.0
 40
0.0
 40
0.0
 40
0.0
 40
0.2484850912
 40
0.37280336
 40
0.4972552551
 40
0.6219588922
 40
0.6844688474
 40
0.7471421582
 40
0.8100556834
 40
0.8733517254
 40
0.9052049807
 40
0.9373178764
 40
0.9696821323
 40
1.0
 40
1.0
 40
1.0
 40
1.0
 10
-165.5132962163
 20
60.0869625494
 30
0.0
 10
-165.513716616
 20
59.9431500241
 30
0.0
 10
-165.51220974
 20
59.7273705457
 30
0.0
 10
-165.505362199
 20
59.4396555994
 30
0.0
 10
-165.4975291709
 20
59.223639853
 30
0.0
 10
-165.4883911071
 20
59.0434831363
 30
0.0
 10
-165.4790792968
 20
58.8991566909
 30
0.0
 10
-165.4708385753
 20
58.7906027467
 30
0.0
 10
-165.4611153587
 20
58.6817170426
 30
0.0
 10
-165.4508839348
 20
58.5907857769
 30
0.0
 10
-165.4414089887
 20
58.5177738477
 30
0.0
 10
-165.4317017255
 20
58.4627242425
 30
0.0
 10
-165.4221615192
 20
58.4092134214
 30
0.0
 10
-165.408927213
 20
58.373613879
 30
0.0
 10
-165.3970925549
 20
58.3606589733
 30
0.0
  0
SPLINE
  5
39A
100
AcDbEntity
  8
0
100
AcDbSpline
 62
7
  6
CONTINUOUS
 70
0
 71
3
 72
9
 73
5
 74
0
 42
0.0000001
 43
0.0000001
 44
0.0000000001
 40
0.0
 40
0.0
 40
0.0
 40
0.0
 40
0.2543096876
 40
1.0
 40
1.0
 40
1.0
 40
1.0
 10
-154.082259066
 20
77.9132318225
 30
0.0
 10
-154.1738127006
 20
78.3216385286
 30
0.0
 10
-154.4889493177
 20
79.9369823038
 30
0.0
 10
-154.615297585
 20
81.5917361978
 30
0.0
 10
-154.5800932429
 20
82.8184881449
 30
0.0
  0
SPLINE
  5
39B
100
AcDbEntity
  8
0
100
AcDbSpline
 62
7
  6
CONTINUOUS
 70
0
 71
3
 72
9
 73
5
 74
0
 42
0.0000001
 43
0.0000001
 44
0.0000000001
 40
0.0
 40
0.0
 40
0.0
 40
0.0
 40
0.4976894838
 40
1.0
 40
1.0
 40
1.0
 40
1.0
 10
-154.70444912
 20
83.0105765847
 30
0.0
 10
-154.6668156328
 20
82.99657607
 30
0.0
 10
-154.5957003675
 20
82.9444962543
 30
0.0
 10
-154.5789296099
 20
82.8589975983
 30
0.0
 10
-154.5800931312
 20
82.8184881033
 30
0.0
  0
SPLINE
  5
39C
100
AcDbEntity
  8
0
100
AcDbSpline
 62
7
  6
CONTINUOUS
 70
0
 71
3
 72
9
 73
5
 74
0
 42
0.0000001
 43
0.0000001
 44
0.0000000001
 40
0.0
 40
0.0
 40
0.0
 40
0.0
 40
0.2412008211
 40
1.0
 40
1.0
 40
1.0
 40
1.0
 10
-153.8513644399
 20
83.7686299546
 30
0.0
 10
-153.0810498453
 20
83.3243933983
 30
0.0
 10
-149.9004283923
 20
81.4600384688
 30
0.0
 10
-146.7708304882
 20
79.5091226012
 30
0.0
 10
-144.42197092
 20
77.9897192589
 30
0.0
  0
SPLINE
  5
39D
100
AcDbEntity
  8
0
100
AcDbSpline
 62
7
  6
CONTINUOUS
 70
0
 71
3
 72
9
 73
5
 74
0
 42
0.0000001
 43
0.0000001
 44
0.0000000001
 40
0.0
 40
0.0
 40
0.0
 40
0.0
 40
0.2587578849
 40
1.0
 40
1.0
 40
1.0
 40
1.0
 10
-143.391213302
 20
86.6329577059
 30
0.0
 10
-143.4366320609
 20
86.9581561643
 30
0.0
 10
-143.5790465054
 20
88.2190567838
 30
0.0
 10
-143.5839180189
 20
89.4975673415
 30
0.0
 10
-143.4921314998
 20
90.4336889847
 30
0.0
  0
SPLINE
  5
39E
100
AcDbEntity
  8
0
100
AcDbSpline
 62
7
  6
CONTINUOUS
 70
0
 71
3
 72
9
 73
5
 74
0
 42
0.0000001
 43
0.0000001
 44
0.0000000001
 40
0.0
 40
0.0
 40
0.0
 40
0.0
 40
0.4957658917
 40
1.0
 40
1.0
 40
1.0
 40
1.0
 10
-130.7527891332
 20
89.9998002128
 30
0.0
 10
-128.4409138167
 20
88.6581103429
 30
0.0
 10
-123.9237565207
 20
85.6926035846
 30
0.0
 10
-119.7489276826
 20
82.2635075444
 30
0.0
 10
-117.738048237
 20
80.4339084509
 30
0.0
  0
SPLINE
  5
39F
100
AcDbEntity
  8
0
100
AcDbSpline
 62
7
  6
CONTINUOUS
 70
0
 71
3
 72
9
 73
5
 74
0
 42
0.0000001
 43
0.0000001
 44
0.0000000001
 40
0.0
 40
0.0
 40
0.0
 40
0.0
 40
0.4729556922
 40
1.0
 40
1.0
 40
1.0
 40
1.0
 10
-166.4106705189
 20
55.6218183205
 30
0.0
 10
-166.4054681113
 20
55.6009086981
 30
0.0
 10
-166.3822728885
 20
55.5594624071
 30
0.0
 10
-166.3452306294
 20
55.531349951
 30
0.0
 10
-166.3243842709
 20
55.5194347844
 30
0.0
  0
SPLINE
  5
3A0
100
AcDbEntity
  8
0
100
AcDbSpline
 62
7
  6
CONTINUOUS
 70
0
 71
3
 72
9
 73
5
 74
0
 42
0.0000001
 43
0.0000001
 44
0.0000000001
 40
0.0
 40
0.0
 40
0.0
 40
0.0
 40
0.5146661126
 40
1.0
 40
1.0
 40
1.0
 40
1.0
 10
-149.9255965119
 20
50.7775974609
 30
0.0
 10
-149.9253168797
 20
49.1230839808
 30
0.0
 10
-149.6272670743
 20
45.8986318937
 30
0.0
 10
-148.6509546629
 20
42.8022665709
 30
0.0
 10
-148.002672184
 20
41.3831080631
 30
0.0
  0
SPLINE
  5
3A1
100
AcDbEntity
  8
0
100
AcDbSpline
 62
7
  6
CONTINUOUS
 70
0
 71
3
 72
11
 73
7
 74
0
 42
0.0000001
 43
0.0000001
 44
0.0000000001
 40
0.0
 40
0.0
 40
0.0
 40
0.0
 40
0.2579328762
 40
0.5095843622
 40
0.7563537609
 40
1.0
 40
1.0
 40
1.0
 40
1.0
 10
-147.9375349064
 20
41.2420496362
 30
0.0
 10
-147.6203814576
 20
40.5625870486
 30
0.0
 10
-146.9127734006
 20
39.2560076448
 30
0.0
 10
-145.624099492
 20
37.4668929217
 30
0.0
 10
-144.1370169509
 20
35.895256917
 30
0.0
 10
-143.0193586834
 20
35.0013459346
 30
0.0
 10
-142.4364168607
 20
34.5990102764
 30
0.0
  0
SPLINE
  5
3A2
100
AcDbEntity
  8
0
100
AcDbSpline
 62
7
  6
CONTINUOUS
 70
0
 71
3
 72
9
 73
5
 74
0
 42
0.0000001
 43
0.0000001
 44
0.0000000001
 40
0.0
 40
0.0
 40
0.0
 40
0.0
 40
0.4989859522
 40
1.0
 40
1.0
 40
1.0
 40
1.0
 10
-155.2724874197
 20
83.2228180631
 30
0.0
 10
-155.23067823
 20
83.2071562485
 30
0.0
 10
-155.1572305832
 20
83.1458764664
 30
0.0
 10
-155.1230593348
 20
83.0608170184
 30
0.0
 10
-155.112273252
 20
83.01730613
 30
0.0
  0
SPLINE
  5
3A3
100
AcDbEntity
  8
0
100
AcDbSpline
 62
7
  6
CONTINUOUS
 70
0
 71
3
 72
9
 73
5
 74
0
 42
0.0000001
 43
0.0000001
 44
0.0000000001
 40
0.0
 40
0.0
 40
0.0
 40
0.0
 40
0.5215163685
 40
1.0
 40
1.0
 40
1.0
 40
1.0
 10
-143.3912323091
 20
86.6329435599
 30
0.0
 10
-143.4414260167
 20
87.2058611605
 30
0.0
 10
-143.4671361975
 20
88.3124450443
 30
0.0
 10
-143.3126535644
 20
89.4116327441
 30
0.0
 10
-143.1848223349
 20
89.923571277
 30
0.0
  0
SPLINE
  5
3A4
100
AcDbEntity
  8
0
100
AcDbSpline
 62
7
  6
CONTINUOUS
 70
0
 71
3
 72
11
 73
7
 74
0
 42
0.0000001
 43
0.0000001
 44
0.0000000001
 40
0.0
 40
0.0
 40
0.0
 40
0.0
 40
0.1866547636
 40
0.395367753
 40
0.6682611736
 40
1.0
 40
1.0
 40
1.0
 40
1.0
 10
-165.5498667687
 20
57.2902937198
 30
0.0
 10
-165.5290728271
 20
57.3092708346
 30
0.0
 10
-165.4698846221
 20
57.3372004273
 30
0.0
 10
-165.3676728454
 20
57.3041787128
 30
0.0
 10
-165.2768786558
 20
57.2193899576
 30
0.0
 10
-165.2262025608
 20
57.1427074902
 30
0.0
 10
-165.2021883481
 20
57.0988135042
 30
0.0
  0
SPLINE
  5
3A5
100
AcDbEntity
  8
0
100
AcDbSpline
 62
7
  6
CONTINUOUS
 70
0
 71
3
 72
12
 73
8
 74
0
 42
0.0000001
 43
0.0000001
 44
0.0000000001
 40
0.0
 40
0.0
 40
0.0
 40
0.0
 40
0.1346230106
 40
0.2415159985
 40
0.3728741706
 40
0.6795785661
 40
1.0
 40
1.0
 40
1.0
 40
1.0
 10
-166.0782867346
 20
56.8077999735
 30
0.0
 10
-166.0646674421
 20
56.8201857261
 30
0.0
 10
-166.0247943293
 20
56.8172838418
 30
0.0
 10
-165.9791644606
 20
56.7987202301
 30
0.0
 10
-165.9130460608
 20
56.7624897136
 30
0.0
 10
-165.8299766543
 20
56.7004714384
 30
0.0
 10
-165.7658465122
 20
56.643287206
 30
0.0
 10
-165.7342678972
 20
56.6129123052
 30
0.0
  0
SPLINE
  5
3A6
100
AcDbEntity
  8
0
100
AcDbSpline
 62
7
  6
CONTINUOUS
 70
0
 71
3
 72
24
 73
20
 74
0
 42
0.0000001
 43
0.0000001
 44
0.0000000001
 40
0.0
 40
0.0
 40
0.0
 40
0.0
 40
0.1256760373
 40
0.2513594319
 40
0.377047038
 40
0.5027344212
 40
0.5655762736
 40
0.6284144785
 40
0.6912459346
 40
0.7540646062
 40
0.8168569789
 40
0.8482342635
 40
0.8795871622
 40
0.910894871
 40
0.9421034684
 40
0.9576249892
 40
0.9730109618
 40
0.9880105183
 40
1.0
 40
1.0
 40
1.0
 40
1.0
 10
-161.4843360429
 20
74.2147915428
 30
0.0
 10
-161.5254469332
 20
74.127241923
 30
0.0
 10
-161.606687197
 20
73.9516734612
 30
0.0
 10
-161.7254701693
 20
73.6869125952
 30
0.0
 10
-161.8409830637
 20
73.4206982567
 30
0.0
 10
-161.9342630939
 20
73.1975789204
 30
0.0
 10
-162.0068189659
 20
73.0182437278
 30
0.0
 10
-162.0600834051
 20
72.8832928597
 30
0.0
 10
-162.1120331313
 20
72.7478485366
 30
0.0
 10
-162.1624075732
 20
72.6118481324
 30
0.0
 10
-162.2027289014
 20
72.4979460203
 30
0.0
 10
-162.2335527631
 20
72.4063939217
 30
0.0
 10
-162.2557357069
 20
72.3374904417
 30
0.0
 10
-162.2766341418
 20
72.268374458
 30
0.0
 10
-162.2924729273
 20
72.2102963759
 30
0.0
 10
-162.3033399831
 20
72.1639958348
 30
0.0
 10
-162.3099506012
 20
72.1284926944
 30
0.0
 10
-162.3137394837
 20
72.0987196894
 30
0.0
 10
-162.3121039306
 20
72.0721649199
 30
0.0
 10
-162.3038436716
 20
72.0680527823
 30
0.0
  0
SPLINE
  5
3A7
100
AcDbEntity
  8
0
100
AcDbSpline
 62
7
  6
CONTINUOUS
 70
0
 71
3
 72
8
 73
4
 74
0
 42
0.0000001
 43
0.0000001
 44
0.0000000001
 40
0.0
 40
0.0
 40
0.0
 40
0.0
 40
1.0
 40
1.0
 40
1.0
 40
1.0
 10
-153.026504066
 20
84.5542131404
 30
0.0
 10
-152.9194999941
 20
84.6536318879
 30
0.0
 10
-152.8118507916
 20
84.7523545027
 30
0.0
 10
-152.7047824801
 20
84.8517040645
 30
0.0
  0
SPLINE
  5
3A8
100
AcDbEntity
  8
0
100
AcDbSpline
 62
7
  6
CONTINUOUS
 70
0
 71
3
 72
9
 73
5
 74
0
 42
0.0000001
 43
0.0000001
 44
0.0000000001
 40
0.0
 40
0.0
 40
0.0
 40
0.0
 40
0.2539389637
 40
1.0
 40
1.0
 40
1.0
 40
1.0
 10
-152.4371924213
 20
85.0942651826
 30
0.0
 10
-151.9421681094
 20
85.5395729685
 30
0.0
 10
-149.9562686787
 20
87.2519731714
 30
0.0
 10
-147.8236705801
 20
88.7956633285
 30
0.0
 10
-146.162919939
 20
89.8294425549
 30
0.0
  0
SPLINE
  5
3A9
100
AcDbEntity
  8
0
100
AcDbSpline
 62
7
  6
CONTINUOUS
 70
0
 71
3
 72
9
 73
5
 74
0
 42
0.0000001
 43
0.0000001
 44
0.0000000001
 40
0.0
 40
0.0
 40
0.0
 40
0.0
 40
0.2473616839
 40
1.0
 40
1.0
 40
1.0
 40
1.0
 10
-156.2920918391
 20
41.1546085237
 30
0.0
 10
-156.7517620817
 20
41.4715559398
 30
0.0
 10
-158.5891967163
 20
42.7826100222
 30
0.0
 10
-160.3378240811
 20
44.2200980778
 30
0.0
 10
-161.5828869213
 20
45.3759353664
 30
0.0
  0
SPLINE
  5
3AA
100
AcDbEntity
  8
0
100
AcDbSpline
 62
7
  6
CONTINUOUS
 70
0
 71
3
 72
9
 73
5
 74
0
 42
0.0000001
 43
0.0000001
 44
0.0000000001
 40
0.0
 40
0.0
 40
0.0
 40
0.0
 40
0.4910331133
 40
1.0
 40
1.0
 40
1.0
 40
1.0
 10
-162.3003123398
 20
46.3268345169
 30
0.0
 10
-159.9499224285
 20
44.9898845493
 30
0.0
 10
-155.0203100345
 20
42.51283593
 30
0.0
 10
-149.880192439
 20
40.5136865879
 30
0.0
 10
-147.2267020619
 20
39.6111354885
 30
0.0
  0
SPLINE
  5
3AB
100
AcDbEntity
  8
0
100
AcDbSpline
 62
7
  6
CONTINUOUS
 70
0
 71
3
 72
9
 73
5
 74
0
 42
0.0000001
 43
0.0000001
 44
0.0000000001
 40
0.0
 40
0.0
 40
0.0
 40
0.0
 40
0.2480077258
 40
1.0
 40
1.0
 40
1.0
 40
1.0
 10
-161.5310782959
 20
51.6568239586
 30
0.0
 10
-161.8732937374
 20
52.0785209104
 30
0.0
 10
-163.2174311693
 20
53.8073377423
 30
0.0
 10
-164.411808832
 20
55.6541941373
 30
0.0
 10
-165.2021883478
 20
57.0988135042
 30
0.0
  0
SPLINE
  5
3AC
100
AcDbEntity
  8
0
100
AcDbSpline
 62
7
  6
CONTINUOUS
 70
0
 71
3
 72
9
 73
5
 74
0
 42
0.0000001
 43
0.0000001
 44
0.0000000001
 40
0.0
 40
0.0
 40
0.0
 40
0.0
 40
0.2417792692
 40
1.0
 40
1.0
 40
1.0
 40
1.0
 10
-165.3970925549
 20
58.3606589733
 30
0.0
 10
-164.5786099502
 20
57.893523669
 30
0.0
 10
-161.1711761375
 20
56.0004102252
 30
0.0
 10
-157.6783824422
 20
54.2624066001
 30
0.0
 10
-154.9967582647
 20
53.0201440577
 30
0.0
  0
SPLINE
  5
3AD
100
AcDbEntity
  8
0
100
AcDbSpline
 62
7
  6
CONTINUOUS
 70
0
 71
3
 72
9
 73
5
 74
0
 42
0.0000001
 43
0.0000001
 44
0.0000000001
 40
0.0
 40
0.0
 40
0.0
 40
0.0
 40
0.4943761745
 40
1.0
 40
1.0
 40
1.0
 40
1.0
 10
-143.3428920236
 20
36.7369150732
 30
0.0
 10
-143.8707753802
 20
37.2519188849
 30
0.0
 10
-144.8628649106
 20
38.3737731478
 30
0.0
 10
-145.6873988695
 20
39.6231679682
 30
0.0
 10
-146.0605817202
 20
40.2786480518
 30
0.0
  0
SPLINE
  5
3AE
100
AcDbEntity
  8
0
100
AcDbSpline
 62
7
  6
CONTINUOUS
 70
0
 71
3
 72
10
 73
6
 74
0
 42
0.0000001
 43
0.0000001
 44
0.0000000001
 40
0.0
 40
0.0
 40
0.0
 40
0.0
 40
0.2374765598
 40
0.4832115452
 40
1.0
 40
1.0
 40
1.0
 40
1.0
 10
-146.0605817202
 20
40.2786480518
 30
0.0
 10
-146.4857557982
 20
41.0254485535
 30
0.0
 10
-147.2377144591
 20
42.6123366317
 30
0.0
 10
-148.3248281988
 20
46.0720999735
 30
0.0
 10
-148.627881256
 20
48.8510289899
 30
0.0
 10
-148.6281980619
 20
50.7211193377
 30
0.0
  0
SPLINE
  5
3AF
100
AcDbEntity
  8
0
100
AcDbSpline
 62
7
  6
CONTINUOUS
 70
0
 71
3
 72
17
 73
13
 74
0
 42
0.0000001
 43
0.0000001
 44
0.0000000001
 40
0.0
 40
0.0
 40
0.0
 40
0.0
 40
0.1253428184
 40
0.2555058576
 40
0.3217145245
 40
0.3881799627
 40
0.5203497799
 40
0.6494155225
 40
0.7731007328
 40
0.8899670351
 40
0.9458172179
 40
1.0
 40
1.0
 40
1.0
 40
1.0
 10
-148.6277512777
 20
50.8773718956
 30
0.0
 10
-148.6173420361
 20
52.6466658849
 30
0.0
 10
-148.2264274336
 20
56.2578380472
 30
0.0
 10
-146.9244724297
 20
60.633132037
 30
0.0
 10
-145.419891498
 20
64.0288721445
 30
0.0
 10
-143.6187498234
 20
67.3092513897
 30
0.0
 10
-140.8843717553
 20
71.0703753169
 30
0.0
 10
-136.9591722534
 20
74.8686975189
 30
0.0
 10
-132.5802406963
 20
77.7630076433
 30
0.0
 10
-128.6576743038
 20
79.3233991216
 30
0.0
 10
-125.5132215131
 20
79.965875183
 30
0.0
 10
-123.9595113486
 20
80.0863751794
 30
0.0
 10
-123.1947172749
 20
80.0945567252
 30
0.0
  0
SPLINE
  5
3B0
100
AcDbEntity
  8
0
100
AcDbSpline
 62
7
  6
CONTINUOUS
 70
0
 71
3
 72
9
 73
5
 74
0
 42
0.0000001
 43
0.0000001
 44
0.0000000001
 40
0.0
 40
0.0
 40
0.0
 40
0.0
 40
0.5056169358
 40
1.0
 40
1.0
 40
1.0
 40
1.0
 10
-123.1947172749
 20
80.0945567252
 30
0.0
 10
-122.4424114818
 20
80.1026046749
 30
0.0
 10
-120.9515333431
 20
80.0206428339
 30
0.0
 10
-119.4861471633
 20
79.7308017316
 30
0.0
 10
-118.7769167466
 20
79.53548612
 30
0.0
  0
SPLINE
  5
3B1
100
AcDbEntity
  8
0
100
AcDbSpline
 62
7
  6
CONTINUOUS
 70
0
 71
3
 72
14
 73
10
 74
0
 42
0.0000001
 43
0.0000001
 44
0.0000000001
 40
0.0
 40
0.0
 40
0.0
 40
0.0
 40
0.2303979371
 40
0.3505580611
 40
0.4740936042
 40
0.6008962921
 40
0.7308325651
 40
0.8638905475
 40
1.0
 40
1.0
 40
1.0
 40
1.0
 10
-144.6657143028
 20
90.3473343167
 30
0.0
 10
-144.7299951475
 20
89.4940148715
 30
0.0
 10
-144.7069175343
 20
88.1846562201
 30
0.0
 10
-144.4889933938
 20
86.4368675818
 30
0.0
 10
-144.234370063
 20
85.0835555023
 30
0.0
 10
-143.8913604509
 20
83.7125377353
 30
0.0
 10
-143.4484105151
 20
82.3330793597
 30
0.0
 10
-142.9085460094
 20
80.9517129747
 30
0.0
 10
-142.4960120654
 20
80.0405477184
 30
0.0
 10
-142.2768815925
 20
79.5849753971
 30
0.0
  0
SPLINE
  5
3B2
100
AcDbEntity
  8
0
100
AcDbSpline
 62
7
  6
CONTINUOUS
 70
0
 71
3
 72
9
 73
5
 74
0
 42
0.0000001
 43
0.0000001
 44
0.0000000001
 40
0.0
 40
0.0
 40
0.0
 40
0.0
 40
0.245804157
 40
1.0
 40
1.0
 40
1.0
 40
1.0
 10
-141.3682298289
 20
77.8269327262
 30
0.0
 10
-141.2158852094
 20
77.5544366492
 30
0.0
 10
-140.5804943872
 20
76.4546118722
 30
0.0
 10
-139.8834651813
 20
75.3906770612
 30
0.0
 10
-139.3291558394
 20
74.6094659467
 30
0.0
  0
SPLINE
  5
3B3
100
AcDbEntity
  8
0
100
AcDbSpline
 62
7
  6
CONTINUOUS
 70
0
 71
3
 72
11
 73
7
 74
0
 42
0.0000001
 43
0.0000001
 44
0.0000000001
 40
0.0
 40
0.0
 40
0.0
 40
0.0
 40
0.2639034854
 40
0.5192467834
 40
0.7643932293
 40
1.0
 40
1.0
 40
1.0
 40
1.0
 10
-144.6305364772
 20
90.7388009946
 30
0.0
 10
-144.5502565669
 20
90.7684504179
 30
0.0
 10
-144.3855484311
 20
90.8097487652
 30
0.0
 10
-144.1360208019
 20
90.8202178718
 30
0.0
 10
-143.8993770369
 20
90.7739268412
 30
0.0
 10
-143.7576735373
 20
90.7029809919
 30
0.0
 10
-143.6954205036
 20
90.6586852568
 30
0.0
  0
SPLINE
  5
3B4
100
AcDbEntity
  8
0
100
AcDbSpline
 62
7
  6
CONTINUOUS
 70
0
 71
3
 72
9
 73
5
 74
0
 42
0.0000001
 43
0.0000001
 44
0.0000000001
 40
0.0
 40
0.0
 40
0.0
 40
0.0
 40
0.252466371
 40
1.0
 40
1.0
 40
1.0
 40
1.0
 10
-143.6954205036
 20
90.6586852568
 30
0.0
 10
-143.6745324248
 20
90.6438224823
 30
0.0
 10
-143.5948617905
 20
90.5807950019
 30
0.0
 10
-143.5289940366
 20
90.5000437125
 30
0.0
 10
-143.4921315332
 20
90.433688644
 30
0.0
  0
SPLINE
  5
3B5
100
AcDbEntity
  8
0
100
AcDbSpline
 62
7
  6
CONTINUOUS
 70
0
 71
3
 72
11
 73
7
 74
0
 42
0.0000001
 43
0.0000001
 44
0.0000000001
 40
0.0
 40
0.0
 40
0.0
 40
0.0
 40
0.1130318824
 40
0.2297655961
 40
0.4737443954
 40
1.0
 40
1.0
 40
1.0
 40
1.0
 10
-143.3912309783
 20
86.6329492895
 30
0.0
 10
-143.3673674978
 20
86.370711076
 30
0.0
 10
-143.3115000309
 20
85.8382461344
 30
0.0
 10
-143.1536373735
 20
84.7456666461
 30
0.0
 10
-142.7415573876
 20
82.7192346811
 30
0.0
 10
-142.1883270232
 20
81.0042809111
 30
0.0
 10
-141.7404484471
 20
79.8630422386
 30
0.0
  0
SPLINE
  5
3B6
100
AcDbEntity
  8
0
100
AcDbSpline
 62
7
  6
CONTINUOUS
 70
0
 71
3
 72
37
 73
33
 74
0
 42
0.0000001
 43
0.0000001
 44
0.0000000001
 40
0.0
 40
0.0
 40
0.0
 40
0.0
 40
0.1190802754
 40
0.2398657774
 40
0.3623058641
 40
0.486350097
 40
0.611947324
 40
0.6753120789
 40
0.7390443312
 40
0.7710458113
 40
0.803136098
 40
0.8353140889
 40
0.8675787838
 40
0.8837435159
 40
0.8999299713
 40
0.9161386709
 40
0.9323710795
 40
0.9404974132
 40
0.9486318497
 40
0.9567767249
 40
0.9649372877
 40
0.9690275415
 40
0.9731292247
 40
0.9772516268
 40
0.9814213155
 40
0.9835554554
 40
0.9857875198
 40
0.9883765485
 40
0.9910148565
 40
0.9933731646
 40
0.9956297647
 40
1.0
 40
1.0
 40
1.0
 40
1.0
 10
-141.7404484471
 20
79.8630422386
 30
0.0
 10
-141.6547001729
 20
79.6445472005
 30
0.0
 10
-141.4767709925
 20
79.2064527707
 30
0.0
 10
-141.1930898693
 20
78.5510137153
 30
0.0
 10
-140.8910877556
 20
77.8930311121
 30
0.0
 10
-140.5715309982
 20
77.2328493755
 30
0.0
 10
-140.2924800765
 20
76.6825632197
 30
0.0
 10
-140.0622757327
 20
76.2408658476
 30
0.0
 10
-139.9157209732
 20
75.9636177637
 30
0.0
 10
-139.79745091
 20
75.7411482591
 30
0.0
 10
-139.7082984784
 20
75.5736383965
 30
0.0
 10
-139.6190837145
 20
75.4055741661
 30
0.0
 10
-139.5450721792
 20
75.2649788851
 30
0.0
 10
-139.4863987971
 20
75.1519339405
 30
0.0
 10
-139.4427876685
 20
75.0667293927
 30
0.0
 10
-139.399822337
 20
74.9810476678
 30
0.0
 10
-139.364862176
 20
74.9091282762
 30
0.0
 10
-139.3377304383
 20
74.8511104254
 30
0.0
 10
-139.3179382677
 20
74.8072623045
 30
0.0
 10
-139.2989363569
 20
74.7629919988
 30
0.0
 10
-139.2840787117
 20
74.7256252008
 30
0.0
 10
-139.2731912844
 20
74.6952847928
 30
0.0
 10
-139.2657083346
 20
74.6721846818
 30
0.0
 10
-139.2593083928
 20
74.6486074222
 30
0.0
 10
-139.255370908
 20
74.6283695751
 30
0.0
 10
-139.2544870277
 20
74.6115336585
 30
0.0
 10
-139.2554848817
 20
74.5978150096
 30
0.0
 10
-139.2650539371
 20
74.5841124246
 30
0.0
 10
-139.2815638544
 20
74.584793966
 30
0.0
 10
-139.2948838548
 20
74.58942295
 30
0.0
 10
-139.3108745966
 20
74.5972433945
 30
0.0
 10
-139.3219770779
 20
74.6041905239
 30
0.0
 10
-139.3288815923
 20
74.6093413801
 30
0.0
  0
SPLINE
  5
3B7
100
AcDbEntity
  8
0
100
AcDbSpline
 62
7
  6
CONTINUOUS
 70
0
 71
3
 72
15
 73
11
 74
0
 42
0.0000001
 43
0.0000001
 44
0.0000000001
 40
0.0
 40
0.0
 40
0.0
 40
0.0
 40
0.2419294042
 40
0.4870308603
 40
0.6115297373
 40
0.7382148721
 40
0.8687229404
 40
0.9364170018
 40
0.9705024364
 40
1.0
 40
1.0
 40
1.0
 40
1.0
 10
-162.6013631048
 20
46.742339188
 30
0.0
 10
-162.5788172956
 20
46.7075450027
 30
0.0
 10
-162.5330357875
 20
46.6377557782
 30
0.0
 10
-162.4743363559
 20
46.5509281564
 30
0.0
 10
-162.4256026708
 20
46.4812279685
 30
0.0
 10
-162.3873350955
 20
46.4281568595
 30
0.0
 10
-162.3536684535
 20
46.3838554877
 30
0.0
 10
-162.3283124474
 20
46.3530393911
 30
0.0
 10
-162.3128128151
 20
46.3368652286
 30
0.0
 10
-162.3047654392
 20
46.3292269736
 30
0.0
 10
-162.3003123398
 20
46.3268345169
 30
0.0
  0
SPLINE
  5
3B8
100
AcDbEntity
  8
0
100
AcDbSpline
 62
7
  6
CONTINUOUS
 70
0
 71
3
 72
11
 73
7
 74
0
 42
0.0000001
 43
0.0000001
 44
0.0000000001
 40
0.0
 40
0.0
 40
0.0
 40
0.0
 40
0.0899875725
 40
0.2875875958
 40
0.5973880594
 40
1.0
 40
1.0
 40
1.0
 40
1.0
 10
-156.4448478948
 20
82.7447988422
 30
0.0
 10
-156.4425697625
 20
82.7477905546
 30
0.0
 10
-156.4277403387
 20
82.746517113
 30
0.0
 10
-156.4063031262
 20
82.7379730732
 30
0.0
 10
-156.3709981342
 20
82.721292389
 30
0.0
 10
-156.3452709646
 20
82.7068935621
 30
0.0
 10
-156.3306850686
 20
82.6985088952
 30
0.0
  0
SPLINE
  5
3B9
100
AcDbEntity
  8
0
100
AcDbSpline
 62
7
  6
CONTINUOUS
 70
0
 71
3
 72
10
 73
6
 74
0
 42
0.0000001
 43
0.0000001
 44
0.0000000001
 40
0.0
 40
0.0
 40
0.0
 40
0.0
 40
0.3602866274
 40
0.6466894268
 40
1.0
 40
1.0
 40
1.0
 40
1.0
 10
-164.3608789213
 20
69.9059414591
 30
0.0
 10
-164.3644668847
 20
69.8897569087
 30
0.0
 10
-164.3451850222
 20
69.859611334
 30
0.0
 10
-164.3104629777
 20
69.8317555551
 30
0.0
 10
-164.2853241913
 20
69.8155938841
 30
0.0
 10
-164.2712193435
 20
69.8075113532
 30
0.0
  0
SPLINE
  5
3BA
100
AcDbEntity
  8
0
100
AcDbSpline
 62
7
  6
CONTINUOUS
 70
0
 71
3
 72
9
 73
5
 74
0
 42
0.0000001
 43
0.0000001
 44
0.0000000001
 40
0.0
 40
0.0
 40
0.0
 40
0.0
 40
0.2424874044
 40
1.0
 40
1.0
 40
1.0
 40
1.0
 10
-142.3036516811
 20
90.3323702424
 30
0.0
 10
-141.3611235097
 20
89.7864944042
 30
0.0
 10
-137.5150784732
 20
87.4651001846
 30
0.0
 10
-133.8310573065
 20
84.878535343
 30
0.0
 10
-131.1347688032
 20
82.8031046852
 30
0.0
  0
SPLINE
  5
3BB
100
AcDbEntity
  8
0
100
AcDbSpline
 62
7
  6
CONTINUOUS
 70
0
 71
3
 72
10
 73
6
 74
0
 42
0.0000001
 43
0.0000001
 44
0.0000000001
 40
0.0
 40
0.0
 40
0.0
 40
0.0
 40
0.50005832
 40
0.748661351
 40
1.0
 40
1.0
 40
1.0
 40
1.0
 10
-132.3056616944
 20
91.7728767363
 30
0.0
 10
-132.1375547947
 20
91.751683953
 30
0.0
 10
-131.8867497824
 20
91.6514634728
 30
0.0
 10
-131.6504995073
 20
91.4034570752
 30
0.0
 10
-131.5735388215
 20
91.2489262184
 30
0.0
 10
-131.5475494426
 20
91.1678263131
 30
0.0
  0
SPLINE
  5
3BC
100
AcDbEntity
  8
0
100
AcDbSpline
 62
7
  6
CONTINUOUS
 70
0
 71
3
 72
14
 73
10
 74
0
 42
0.0000001
 43
0.0000001
 44
0.0000000001
 40
0.0
 40
0.0
 40
0.0
 40
0.0
 40
0.028362343
 40
0.094673967
 40
0.1985930436
 40
0.3337416275
 40
0.4902579989
 40
0.6586049104
 40
1.0
 40
1.0
 40
1.0
 40
1.0
 10
-162.2318717052
 20
44.8988133385
 30
0.0
 10
-162.2334008581
 20
44.8953707706
 30
0.0
 10
-162.2228367753
 20
44.8831178052
 30
0.0
 10
-162.2040225032
 20
44.8688124047
 30
0.0
 10
-162.1689828073
 20
44.8456418292
 30
0.0
 10
-162.1240458743
 20
44.8194974016
 30
0.0
 10
-162.0703050833
 20
44.7900306173
 30
0.0
 10
-161.9918294386
 20
44.7492869842
 30
0.0
 10
-161.9310114814
 20
44.7194594808
 30
0.0
 10
-161.8900700793
 20
44.699973796
 30
0.0
  0
SPLINE
  5
3BD
100
AcDbEntity
  8
0
100
AcDbSpline
 62
7
  6
CONTINUOUS
 70
0
 71
3
 72
11
 73
7
 74
0
 42
0.0000001
 43
0.0000001
 44
0.0000000001
 40
0.0
 40
0.0
 40
0.0
 40
0.0
 40
0.1856588632
 40
0.4116861053
 40
0.6828369661
 40
1.0
 40
1.0
 40
1.0
 40
1.0
 10
-121.9315274954
 20
85.3960378087
 30
0.0
 10
-121.821058893
 20
85.321838844
 30
0.0
 10
-121.5909266417
 20
85.1354655502
 30
0.0
 10
-121.241919114
 20
84.7919845633
 30
0.0
 10
-120.8484487892
 20
84.3605840771
 30
0.0
 10
-120.5740159286
 20
84.0403708937
 30
0.0
 10
-120.427954116
 20
83.8661698951
 30
0.0
  0
SPLINE
  5
3BE
100
AcDbEntity
  8
0
100
AcDbSpline
 62
7
  6
CONTINUOUS
 70
0
 71
3
 72
9
 73
5
 74
0
 42
0.0000001
 43
0.0000001
 44
0.0000000001
 40
0.0
 40
0.0
 40
0.0
 40
0.0
 40
0.2358732572
 40
1.0
 40
1.0
 40
1.0
 40
1.0
 10
-120.0611783093
 20
83.4213262387
 30
0.0
 10
-119.9913797218
 20
83.3353773956
 30
0.0
 10
-119.6968789224
 20
82.969842793
 30
0.0
 10
-119.4074563747
 20
82.6002354319
 30
0.0
 10
-119.1882841782
 20
82.3162995962
 30
0.0
  0
SPLINE
  5
3BF
100
AcDbEntity
  8
0
100
AcDbSpline
 62
7
  6
CONTINUOUS
 70
0
 71
3
 72
27
 73
23
 74
0
 42
0.0000001
 43
0.0000001
 44
0.0000000001
 40
0.0
 40
0.0
 40
0.0
 40
0.0
 40
0.2390316652
 40
0.3624569647
 40
0.4881327688
 40
0.5516740182
 40
0.6155665145
 40
0.6796713074
 40
0.7437691339
 40
0.775706281
 40
0.8074751279
 40
0.8389619476
 40
0.8699822252
 40
0.9001986269
 40
0.9288528167
 40
0.9419845608
 40
0.947963529
 40
0.9532485556
 40
0.9573703482
 40
0.968558472
 40
0.985604503
 40
1.0
 40
1.0
 40
1.0
 40
1.0
 10
-118.7072702828
 20
81.8547907214
 30
0.0
 10
-118.6148030052
 20
81.7371370026
 30
0.0
 10
-118.4761307117
 20
81.5575143395
 30
0.0
 10
-118.292331156
 20
81.3133784784
 30
0.0
 10
-118.1759647349
 20
81.1559995162
 30
0.0
 10
-118.0827073059
 20
81.0278934896
 30
0.0
 10
-118.0126835903
 20
80.9305532867
 30
0.0
 10
-117.943107991
 20
80.832464608
 30
0.0
 10
-117.8857891921
 20
80.7502117321
 30
0.0
 10
-117.8406173387
 20
80.6841733936
 30
0.0
 10
-117.8073285246
 20
80.6347427515
 30
0.0
 10
-117.7748168235
 20
80.5854850602
 30
0.0
 10
-117.7434698166
 20
80.5366211171
 30
0.0
 10
-117.713986203
 20
80.4887007474
 30
0.0
 10
-117.6917321578
 20
80.449428375
 30
0.0
 10
-117.678477835
 20
80.4226817721
 30
0.0
 10
-117.6731326049
 20
80.4082118568
 30
0.0
 10
-117.670111861
 20
80.3994346979
 30
0.0
 10
-117.671992047
 20
80.3838647439
 30
0.0
 10
-117.6993083982
 20
80.4004624705
 30
0.0
 10
-117.715698514
 20
80.4140837646
 30
0.0
 10
-117.7313766568
 20
80.4278498203
 30
0.0
 10
-117.738048237
 20
80.4339084509
 30
0.0
  0
SPLINE
  5
3C0
100
AcDbEntity
  8
0
100
AcDbSpline
 62
7
  6
CONTINUOUS
 70
0
 71
3
 72
14
 73
10
 74
0
 42
0.0000001
 43
0.0000001
 44
0.0000000001
 40
0.0
 40
0.0
 40
0.0
 40
0.0
 40
0.3300763647
 40
0.4838175628
 40
0.6262848355
 40
0.7520381447
 40
0.8500143163
 40
0.8949182456
 40
1.0
 40
1.0
 40
1.0
 40
1.0
 10
-130.7072207873
 20
89.9907736801
 30
0.0
 10
-130.7133472829
 20
89.9927267716
 30
0.0
 10
-130.7223278596
 20
89.9955491803
 30
0.0
 10
-130.7340681203
 20
89.9989837118
 30
0.0
 10
-130.7418845559
 20
90.0012520449
 30
0.0
 10
-130.7491138445
 20
90.0028153591
 30
0.0
 10
-130.7535033873
 20
90.0042841873
 30
0.0
 10
-130.7600940434
 20
90.0036174212
 30
0.0
 10
-130.7545670943
 20
90.0008148782
 30
0.0
 10
-130.7527891332
 20
89.9998002128
 30
0.0
  0
SPLINE
  5
3C1
100
AcDbEntity
  8
0
100
AcDbSpline
 62
7
  6
CONTINUOUS
 70
0
 71
3
 72
8
 73
4
 74
0
 42
0.0000001
 43
0.0000001
 44
0.0000000001
 40
0.0
 40
0.0
 40
0.0
 40
0.0
 40
1.0
 40
1.0
 40
1.0
 40
1.0
 10
-141.335522905
 20
90.6215256405
 30
0.0
 10
-141.2113773387
 20
90.6565184768
 30
0.0
 10
-141.0869724194
 20
90.690584681
 30
0.0
 10
-140.9626697066
 20
90.7250151295
 30
0.0
  0
SPLINE
  5
3C2
100
AcDbEntity
  8
0
100
AcDbSpline
 62
7
  6
CONTINUOUS
 70
0
 71
3
 72
9
 73
5
 74
0
 42
0.0000001
 43
0.0000001
 44
0.0000000001
 40
0.0
 40
0.0
 40
0.0
 40
0.0
 40
0.2539421968
 40
1.0
 40
1.0
 40
1.0
 40
1.0
 10
-137.3752481474
 20
91.4750102392
 30
0.0
 10
-136.9496900072
 20
91.5379537223
 30
0.0
 10
-135.268832681
 20
91.7498445999
 30
0.0
 10
-133.5688378161
 20
91.8145170608
 30
0.0
 10
-132.3056818753
 20
91.7726161947
 30
0.0
  0
SPLINE
  5
3C3
100
AcDbEntity
  8
0
100
AcDbSpline
 62
7
  6
CONTINUOUS
 70
0
 71
3
 72
9
 73
5
 74
0
 42
0.0000001
 43
0.0000001
 44
0.0000000001
 40
0.0
 40
0.0
 40
0.0
 40
0.0
 40
0.2299005413
 40
1.0
 40
1.0
 40
1.0
 40
1.0
 10
-132.3056818753
 20
91.7726161947
 30
0.0
 10
-132.3263892199
 20
91.6845370437
 30
0.0
 10
-132.3999317844
 20
91.2975137563
 30
0.0
 10
-132.4149265712
 20
90.9011729779
 30
0.0
 10
-132.4067878133
 20
90.5981989203
 30
0.0
  0
SPLINE
  5
3C4
100
AcDbEntity
  8
0
100
AcDbSpline
 62
7
  6
CONTINUOUS
 70
0
 71
3
 72
13
 73
9
 74
0
 42
0.0000001
 43
0.0000001
 44
0.0000000001
 40
0.0
 40
0.0
 40
0.0
 40
0.0
 40
0.0939506743
 40
0.1971145809
 40
0.4301564342
 40
0.5602658411
 40
0.6990256075
 40
1.0
 40
1.0
 40
1.0
 40
1.0
 10
-132.4067878133
 20
90.5981989203
 30
0.0
 10
-132.4004075067
 20
90.3606851131
 30
0.0
 10
-132.3608576027
 20
89.8629439393
 30
0.0
 10
-132.1926889071
 20
88.7876482098
 30
0.0
 10
-131.902950811
 20
87.6408058262
 30
0.0
 10
-131.4809448938
 20
86.4431562226
 30
0.0
 10
-130.9342970716
 20
85.1092292319
 30
0.0
 10
-130.4492480624
 20
84.1071737373
 30
0.0
 10
-130.0991534616
 20
83.4313067743
 30
0.0
  0
SPLINE
  5
3C5
100
AcDbEntity
  8
0
100
AcDbSpline
 62
7
  6
CONTINUOUS
 70
0
 71
3
 72
9
 73
5
 74
0
 42
0.0000001
 43
0.0000001
 44
0.0000000001
 40
0.0
 40
0.0
 40
0.0
 40
0.0
 40
0.2401270909
 40
1.0
 40
1.0
 40
1.0
 40
1.0
 10
-130.0991534616
 20
83.4313067743
 30
0.0
 10
-129.9832213707
 20
83.2109700737
 30
0.0
 10
-129.4898908069
 20
82.2989462744
 30
0.0
 10
-128.9570529852
 20
81.4084805813
 30
0.0
 10
-128.5343813458
 20
80.743581922
 30
0.0
  0
SPLINE
  5
3C6
100
AcDbEntity
  8
0
100
AcDbSpline
 62
7
  6
CONTINUOUS
 70
0
 71
3
 72
13
 73
9
 74
0
 42
0.0000001
 43
0.0000001
 44
0.0000000001
 40
0.0
 40
0.0
 40
0.0
 40
0.0
 40
0.1996249235
 40
0.3727329371
 40
0.4662210441
 40
0.5644423201
 40
0.7741189048
 40
1.0
 40
1.0
 40
1.0
 40
1.0
 10
-131.3682642667
 20
88.2282591242
 30
0.0
 10
-131.2790809438
 20
87.8344816428
 30
0.0
 10
-131.0887987901
 20
87.1043190156
 30
0.0
 10
-130.7972257995
 20
86.2073175844
 30
0.0
 10
-130.5535230464
 20
85.5108195171
 30
0.0
 10
-130.2638483357
 20
84.7523363962
 30
0.0
 10
-129.8464106717
 20
83.7564154446
 30
0.0
 10
-129.4779902262
 20
82.9560499523
 30
0.0
 10
-129.2815056902
 20
82.5436059987
 30
0.0
  0
SPLINE
  5
3C7
100
AcDbEntity
  8
0
100
AcDbSpline
 62
7
  6
CONTINUOUS
 70
0
 71
3
 72
30
 73
26
 74
0
 42
0.0000001
 43
0.0000001
 44
0.0000000001
 40
0.0
 40
0.0
 40
0.0
 40
0.0
 40
0.2428111701
 40
0.3659970146
 40
0.4902212851
 40
0.5526663396
 40
0.6152872588
 40
0.6780305817
 40
0.740813321
 40
0.7721789388
 40
0.8034929781
 40
0.8347144662
 40
0.8657781772
 40
0.8965681185
 40
0.9268358091
 40
0.9416043856
 40
0.9488437379
 40
0.9560029193
 40
0.9597306692
 40
0.9645059278
 40
0.9714437444
 40
0.9777646801
 40
0.989079672
 40
0.9944434571
 40
1.0
 40
1.0
 40
1.0
 40
1.0
 10
-129.2815056902
 20
82.5436059987
 30
0.0
 10
-129.2086447358
 20
82.390662359
 30
0.0
 10
-129.0977699699
 20
82.1606252144
 30
0.0
 10
-128.9481613495
 20
81.8530481423
 30
0.0
 10
-128.8534979092
 20
81.6586856031
 30
0.0
 10
-128.7776532815
 20
81.5021602199
 30
0.0
 10
-128.7208316289
 20
81.3840839741
 30
0.0
 10
-128.6644526147
 20
81.2655345607
 30
0.0
 10
-128.6181878562
 20
81.1663243132
 30
0.0
 10
-128.5819696357
 20
81.086631007
 30
0.0
 10
-128.5553924653
 20
81.0267464851
 30
0.0
 10
-128.5296378043
 20
80.96673224
 30
0.0
 10
-128.5050901056
 20
80.9066038695
 30
0.0
 10
-128.4825157425
 20
80.8464156972
 30
0.0
 10
-128.4663782357
 20
80.7959779712
 30
0.0
 10
-128.4586814183
 20
80.7602333782
 30
0.0
 10
-128.4568428807
 20
80.7399409724
 30
0.0
 10
-128.457657082
 20
80.7272015953
 30
0.0
 10
-128.4617085849
 20
80.7167548968
 30
0.0
 10
-128.4715867602
 20
80.7103111132
 30
0.0
 10
-128.4847637633
 20
80.7130556711
 30
0.0
 10
-128.5001979988
 20
80.7201253541
 30
0.0
 10
-128.5138837116
 20
80.728799826
 30
0.0
 10
-128.5259748615
 20
80.7385221694
 30
0.0
 10
-128.5327711572
 20
80.7421280546
 30
0.0
 10
-128.5357652342
 20
80.7445908937
 30
0.0
  0
SPLINE
  5
3C8
100
AcDbEntity
  8
0
100
AcDbSpline
 62
7
  6
CONTINUOUS
 70
0
 71
3
 72
9
 73
5
 74
0
 42
0.0000001
 43
0.0000001
 44
0.0000000001
 40
0.0
 40
0.0
 40
0.0
 40
0.0
 40
0.2613411961
 40
1.0
 40
1.0
 40
1.0
 40
1.0
 10
-131.5787721998
 20
90.3704478332
 30
0.0
 10
-131.5753888345
 20
90.4168955286
 30
0.0
 10
-131.5598515449
 20
90.5944113212
 30
0.0
 10
-131.5335703343
 20
90.7710948843
 30
0.0
 10
-131.5066494907
 20
90.8999408432
 30
0.0
  0
SPLINE
  5
3C9
100
AcDbEntity
  8
0
100
AcDbSpline
 62
7
  6
CONTINUOUS
 70
0
 71
3
 72
9
 73
5
 74
0
 42
0.0000001
 43
0.0000001
 44
0.0000000001
 40
0.0
 40
0.0
 40
0.0
 40
0.0
 40
0.2572047
 40
1.0
 40
1.0
 40
1.0
 40
1.0
 10
-131.5880735751
 20
89.833126479
 30
0.0
 10
-131.5875429568
 20
89.841353863
 30
0.0
 10
-131.5852768693
 20
89.8733278621
 30
0.0
 10
-131.5821799432
 20
89.9052450715
 30
0.0
 10
-131.5793395955
 20
89.9288847156
 30
0.0
  0
SPLINE
  5
3CA
100
AcDbEntity
  8
0
100
AcDbSpline
 62
7
  6
CONTINUOUS
 70
0
 71
3
 72
9
 73
5
 74
0
 42
0.0000001
 43
0.0000001
 44
0.0000000001
 40
0.0
 40
0.0
 40
0.0
 40
0.0
 40
0.2765994598
 40
1.0
 40
1.0
 40
1.0
 40
1.0
 10
-131.5718944098
 20
89.9825636275
 30
0.0
 10
-131.5684066497
 20
90.0046044861
 30
0.0
 10
-131.5538166536
 20
90.0838971812
 30
0.0
 10
-131.5307772848
 20
90.1621153173
 30
0.0
 10
-131.5065651847
 20
90.2152174714
 30
0.0
  0
SPLINE
  5
3CB
100
AcDbEntity
  8
0
100
AcDbSpline
 62
7
  6
CONTINUOUS
 70
0
 71
3
 72
14
 73
10
 74
0
 42
0.0000001
 43
0.0000001
 44
0.0000000001
 40
0.0
 40
0.0
 40
0.0
 40
0.0
 40
0.0466917368
 40
0.1048813896
 40
0.1893308143
 40
0.3036172334
 40
0.4469487685
 40
0.6149097447
 40
1.0
 40
1.0
 40
1.0
 40
1.0
 10
-161.9292837691
 20
45.5645302553
 30
0.0
 10
-161.9265765838
 20
45.5704532749
 30
0.0
 10
-161.9150140507
 20
45.5818036454
 30
0.0
 10
-161.8871969272
 20
45.5825811529
 30
0.0
 10
-161.8527916786
 20
45.5726095698
 30
0.0
 10
-161.809584187
 20
45.5518023633
 30
0.0
 10
-161.7592193732
 20
45.5203210866
 30
0.0
 10
-161.6806792203
 20
45.46306214
 30
0.0
 10
-161.6222516777
 20
45.412477249
 30
0.0
 10
-161.5828864085
 20
45.375936472
 30
0.0
  0
SPLINE
  5
3CC
100
AcDbEntity
  8
0
100
AcDbSpline
 62
7
  6
CONTINUOUS
 70
0
 71
3
 72
20
 73
16
 74
0
 42
0.0000001
 43
0.0000001
 44
0.0000000001
 40
0.0
 40
0.0
 40
0.0
 40
0.0
 40
0.2628588493
 40
0.3936063919
 40
0.5235964574
 40
0.6523879186
 40
0.7790728332
 40
0.8409947199
 40
0.9011061777
 40
0.9300241558
 40
0.9573086031
 40
0.9701697329
 40
0.9819934081
 40
0.9911544044
 40
1.0
 40
1.0
 40
1.0
 40
1.0
 10
-141.4234368559
 20
90.6576648171
 30
0.0
 10
-141.5037280421
 20
90.635118075
 30
0.0
 10
-141.6236429122
 20
90.600215569
 30
0.0
 10
-141.782332028
 20
90.5510743218
 30
0.0
 10
-141.8999008691
 20
90.5129686733
 30
0.0
 10
-142.0156211813
 20
90.4733883887
 30
0.0
 10
-142.1101870241
 20
90.4387373104
 30
0.0
 10
-142.1835082213
 20
90.4095400859
 30
0.0
 10
-142.2274419178
 20
90.3904675392
 30
0.0
 10
-142.2607446957
 20
90.3745052159
 30
0.0
 10
-142.2798984446
 20
90.3639168595
 30
0.0
 10
-142.2938191692
 20
90.3548895125
 30
0.0
 10
-142.3024149217
 20
90.348876972
 30
0.0
 10
-142.3088029985
 20
90.3404059202
 30
0.0
 10
-142.3056472228
 20
90.3343435276
 30
0.0
 10
-142.3036516811
 20
90.3323702424
 30
0.0
  0
SPLINE
  5
3CD
100
AcDbEntity
  8
0
100
AcDbSpline
 62
7
  6
CONTINUOUS
 70
0
 71
3
 72
11
 73
7
 74
0
 42
0.0000001
 43
0.0000001
 44
0.0000000001
 40
0.0
 40
0.0
 40
0.0
 40
0.0
 40
0.2355867907
 40
0.4634132808
 40
0.7136183517
 40
1.0
 40
1.0
 40
1.0
 40
1.0
 10
-162.9222021369
 20
71.0237818394
 30
0.0
 10
-162.8915358435
 20
71.032077213
 30
0.0
 10
-162.8266440157
 20
71.0373257315
 30
0.0
 10
-162.7355428892
 20
70.9951703744
 30
0.0
 10
-162.6708482058
 20
70.911213532
 30
0.0
 10
-162.6472654217
 20
70.8417805202
 30
0.0
 10
-162.6389387898
 20
70.8040708256
 30
0.0
  0
SPLINE
  5
3CE
100
AcDbEntity
  8
0
100
AcDbSpline
 62
7
  6
CONTINUOUS
 70
0
 71
3
 72
11
 73
7
 74
0
 42
0.0000001
 43
0.0000001
 44
0.0000000001
 40
0.0
 40
0.0
 40
0.0
 40
0.0
 40
0.211949308
 40
0.4554808469
 40
0.7250521232
 40
1.0
 40
1.0
 40
1.0
 40
1.0
 10
-163.5547068099
 20
70.8531880379
 30
0.0
 10
-163.527849655
 20
70.8604554977
 30
0.0
 10
-163.464452334
 20
70.8562708133
 30
0.0
 10
-163.3813932761
 20
70.8058413371
 30
0.0
 10
-163.3099796293
 20
70.7300114017
 30
0.0
 10
-163.2709506301
 20
70.6697178328
 30
0.0
 10
-163.2535011159
 20
70.6381231989
 30
0.0
  0
SPLINE
  5
3CF
100
AcDbEntity
  8
0
100
AcDbSpline
 62
7
  6
CONTINUOUS
 70
0
 71
3
 72
21
 73
17
 74
0
 42
0.0000001
 43
0.0000001
 44
0.0000000001
 40
0.0
 40
0.0
 40
0.0
 40
0.0
 40
0.1268767017
 40
0.2538125094
 40
0.3807648488
 40
0.5076633946
 40
0.6343810858
 40
0.6976001048
 40
0.7606521875
 40
0.823429169
 40
0.8857031739
 40
0.9164898929
 40
0.9468137299
 40
0.9760842687
 40
0.9896043333
 40
1.0
 40
1.0
 40
1.0
 40
1.0
 10
-152.5086760025
 20
85.1752882776
 30
0.0
 10
-152.5703184156
 20
85.1200358672
 30
0.0
 10
-152.6930053989
 20
85.0088037709
 30
0.0
 10
-152.8750718842
 20
84.8397715535
 30
0.0
 10
-153.0550128815
 20
84.6684556694
 30
0.0
 10
-153.2324731786
 20
84.4947730866
 30
0.0
 10
-153.3779061041
 20
84.3478491717
 30
0.0
 10
-153.4922244572
 20
84.2287753973
 30
0.0
 10
-153.5765505249
 20
84.1387629845
 30
0.0
 10
-153.6590198786
 20
84.0478307344
 30
0.0
 10
-153.725661552
 20
83.9711276902
 30
0.0
 10
-153.7765566079
 20
83.9085190202
 30
0.0
 10
-153.8123803754
 20
83.8623302162
 30
0.0
 10
-153.8391022354
 20
83.8207576017
 30
0.0
 10
-153.8550209622
 20
83.7933263936
 30
0.0
 10
-153.8574129461
 20
83.7716991167
 30
0.0
 10
-153.8513644399
 20
83.7686299546
 30
0.0
  0
SPLINE
  5
3D0
100
AcDbEntity
  8
0
100
AcDbSpline
 62
7
  6
CONTINUOUS
 70
0
 71
3
 72
9
 73
5
 74
0
 42
0.0000001
 43
0.0000001
 44
0.0000000001
 40
0.0
 40
0.0
 40
0.0
 40
0.0
 40
0.4346281072
 40
1.0
 40
1.0
 40
1.0
 40
1.0
 10
-144.7710799364
 20
90.7579050379
 30
0.0
 10
-144.7525936306
 20
90.7684075751
 30
0.0
 10
-144.6996895661
 20
90.7731381783
 30
0.0
 10
-144.6544015815
 20
90.7521089748
 30
0.0
 10
-144.6304412773
 20
90.7382950634
 30
0.0
  0
SPLINE
  5
3D1
100
AcDbEntity
  8
0
100
AcDbSpline
 62
7
  6
CONTINUOUS
 70
0
 71
3
 72
11
 73
7
 74
0
 42
0.0000001
 43
0.0000001
 44
0.0000000001
 40
0.0
 40
0.0
 40
0.0
 40
0.0
 40
0.2436360471
 40
0.4903735972
 40
0.7420044151
 40
1.0
 40
1.0
 40
1.0
 40
1.0
 10
-116.3545384562
 20
79.7760950641
 30
0.0
 10
-117.002067186
 20
80.0859704681
 30
0.0
 10
-118.3519495884
 20
80.6169638003
 30
0.0
 10
-120.4849612862
 20
81.1261614765
 30
0.0
 10
-122.7090361217
 20
81.3463846343
 30
0.0
 10
-124.2145480124
 20
81.2997157721
 30
0.0
 10
-124.9715376385
 20
81.2303117957
 30
0.0
  0
SPLINE
  5
3D2
100
AcDbEntity
  8
0
100
AcDbSpline
 62
7
  6
CONTINUOUS
 70
0
 71
3
 72
16
 73
12
 74
0
 42
0.0000001
 43
0.0000001
 44
0.0000000001
 40
0.0
 40
0.0
 40
0.0
 40
0.0
 40
0.1112217875
 40
0.2292545824
 40
0.3535777362
 40
0.4826734014
 40
0.6143505773
 40
0.6804266101
 40
0.7461928921
 40
0.8754428824
 40
1.0
 40
1.0
 40
1.0
 40
1.0
 10
-124.9715376385
 20
81.2303117957
 30
0.0
 10
-126.5416646369
 20
81.0863559825
 30
0.0
 10
-129.7492231602
 20
80.3802516155
 30
0.0
 10
-134.3284410951
 20
78.2640814252
 30
0.0
 10
-138.6243672817
 20
75.1670658372
 30
0.0
 10
-142.4460971473
 20
71.2330580836
 30
0.0
 10
-145.0965543502
 20
67.4051638256
 30
0.0
 10
-146.8363918469
 20
64.0953175066
 30
0.0
 10
-148.2861840925
 20
60.6857727098
 30
0.0
 10
-149.5389939651
 20
56.3092788311
 30
0.0
 10
-149.9145507606
 20
52.7071084644
 30
0.0
 10
-149.925021196
 20
50.9413815653
 30
0.0
  0
SPLINE
  5
3D3
100
AcDbEntity
  8
0
100
AcDbSpline
 62
7
  6
CONTINUOUS
 70
0
 71
3
 72
10
 73
6
 74
0
 42
0.0000001
 43
0.0000001
 44
0.0000000001
 40
0.0
 40
0.0
 40
0.0
 40
0.0
 40
0.4065486703
 40
0.6982565264
 40
1.0
 40
1.0
 40
1.0
 40
1.0
 10
-153.0933664071
 20
38.2777648142
 30
0.0
 10
-153.0932874064
 20
38.2226239523
 30
0.0
 10
-152.9949162991
 20
38.1514661442
 30
0.0
 10
-152.8718542922
 20
38.1121622843
 30
0.0
 10
-152.7912914945
 20
38.0964596976
 30
0.0
 10
-152.7507085825
 20
38.091171502
 30
0.0
  0
SPLINE
  5
3D4
100
AcDbEntity
  8
0
100
AcDbSpline
 62
7
  6
CONTINUOUS
 70
0
 71
3
 72
12
 73
8
 74
0
 42
0.0000001
 43
0.0000001
 44
0.0000000001
 40
0.0
 40
0.0
 40
0.0
 40
0.0
 40
0.2467025778
 40
0.4956007883
 40
0.6210989839
 40
0.7470392113
 40
1.0
 40
1.0
 40
1.0
 40
1.0
 10
-156.3307730028
 20
82.6983831828
 30
0.0
 10
-156.2124679971
 20
81.5367960139
 30
0.0
 10
-155.810878177
 20
79.217800091
 30
0.0
 10
-154.9623379376
 20
76.3973087215
 30
0.0
 10
-154.1087017397
 20
74.1875187133
 30
0.0
 10
-153.1249096518
 20
72.0111982642
 30
0.0
 10
-152.2457624642
 20
70.4432233574
 30
0.0
 10
-151.6124222787
 20
69.4272488583
 30
0.0
  0
LINE
  5
3D5
100
AcDbEntity
  8
0
100
AcDbLine
 62
7
  6
CONTINUOUS
 10
-161.8429197043
 20
73.1382899658
 11
-161.6586928774
 21
73.5502056971
  0
SPLINE
  5
3D6
100
AcDbEntity
  8
0
100
AcDbSpline
 62
7
  6
CONTINUOUS
 70
0
 71
3
 72
9
 73
5
 74
0
 42
0.0000001
 43
0.0000001
 44
0.0000000001
 40
0.0
 40
0.0
 40
0.0
 40
0.0
 40
0.4917024073
 40
1.0
 40
1.0
 40
1.0
 40
1.0
 10
-154.0823254068
 20
77.9131590099
 30
0.0
 10
-153.7827062539
 20
76.5766222315
 30
0.0
 10
-152.994194909
 20
73.8956243873
 30
0.0
 10
-151.8645486134
 20
71.3400348329
 30
0.0
 10
-151.2142791656
 20
70.082248068
 30
0.0
  0
SPLINE
  5
3D7
100
AcDbEntity
  8
0
100
AcDbSpline
 62
7
  6
CONTINUOUS
 70
0
 71
3
 72
37
 73
33
 74
0
 42
0.0000001
 43
0.0000001
 44
0.0000000001
 40
0.0
 40
0.0
 40
0.0
 40
0.0
 40
0.1225583956
 40
0.2457365712
 40
0.3695110594
 40
0.4938688762
 40
0.6188196975
 40
0.6815318106
 40
0.7444184441
 40
0.8075077529
 40
0.839145079
 40
0.8708612582
 40
0.8867561549
 40
0.9026819064
 40
0.9186463025
 40
0.9346621841
 40
0.9426961997
 40
0.9507536774
 40
0.9588425136
 40
0.9669766155
 40
0.9751849412
 40
0.9793382641
 40
0.9835538927
 40
0.985705025
 40
0.987913937
 40
0.9902480983
 40
0.991473067
 40
0.9925239437
 40
0.9944059936
 40
0.9962575133
 40
0.9981147169
 40
1.0
 40
1.0
 40
1.0
 40
1.0
 10
-151.2142791656
 20
70.082248068
 30
0.0
 10
-151.0703188683
 20
69.8037921798
 30
0.0
 10
-150.774155406
 20
69.2493227647
 30
0.0
 10
-150.3071172202
 20
68.4275693734
 30
0.0
 10
-149.8168434494
 20
67.6140828254
 30
0.0
 10
-149.3042092755
 20
66.8091320713
 30
0.0
 10
-148.8600174435
 20
66.146035777
 30
0.0
 10
-148.4952969091
 20
65.6191077402
 30
0.0
 10
-148.2171147795
 20
65.224733573
 30
0.0
 10
-147.9824657754
 20
64.8969327168
 30
0.0
 10
-147.7936413536
 20
64.6343781107
 30
0.0
 10
-147.6753612539
 20
64.4697733291
 30
0.0
 10
-147.580885605
 20
64.337548613
 30
0.0
 10
-147.5101437324
 20
64.2378821598
 30
0.0
 10
-147.4397264097
 20
64.1376074805
 30
0.0
 10
-147.3815806805
 20
64.0533817848
 30
0.0
 10
-147.3356119446
 20
63.9853310634
 30
0.0
 10
-147.301463876
 20
63.9337657888
 30
0.0
 10
-147.2678301892
 20
63.881556631
 30
0.0
 10
-147.2349770823
 20
63.8283979439
 30
0.0
 10
-147.2087307878
 20
63.7829993476
 30
0.0
 10
-147.189136279
 20
63.7453855218
 30
0.0
 10
-147.1778720139
 20
63.7209390397
 30
0.0
 10
-147.1700896956
 20
63.7003846148
 30
0.0
 10
-147.1655617641
 20
63.6839306677
 30
0.0
 10
-147.1634502361
 20
63.6689670464
 30
0.0
 10
-147.168328201
 20
63.6573336482
 30
0.0
 10
-147.178546737
 20
63.6525174812
 30
0.0
 10
-147.1911698512
 20
63.6541079639
 30
0.0
 10
-147.2044527465
 20
63.658970107
 30
0.0
 10
-147.2185508676
 20
63.66301515
 30
0.0
 10
-147.2251351596
 20
63.6705524789
 30
0.0
 10
-147.2294058747
 20
63.672791371
 30
0.0
  0
SPLINE
  5
3D8
100
AcDbEntity
  8
0
100
AcDbSpline
 62
7
  6
CONTINUOUS
 70
0
 71
3
 72
11
 73
7
 74
0
 42
0.0000001
 43
0.0000001
 44
0.0000000001
 40
0.0
 40
0.0
 40
0.0
 40
0.0
 40
0.1868464265
 40
0.4148625198
 40
0.6897561259
 40
1.0
 40
1.0
 40
1.0
 40
1.0
 10
-161.9408281826
 20
43.6633140777
 30
0.0
 10
-161.9901452155
 20
43.7108164007
 30
0.0
 10
-162.0659309712
 20
43.8510156916
 30
0.0
 10
-162.0886776124
 20
44.1068880026
 30
0.0
 10
-162.0312951558
 20
44.4021647718
 30
0.0
 10
-161.9462757223
 20
44.6011563965
 30
0.0
 10
-161.8900429416
 20
44.6999716693
 30
0.0
  0
SPLINE
  5
3D9
100
AcDbEntity
  8
0
100
AcDbSpline
 62
7
  6
CONTINUOUS
 70
0
 71
3
 72
9
 73
5
 74
0
 42
0.0000001
 43
0.0000001
 44
0.0000000001
 40
0.0
 40
0.0
 40
0.0
 40
0.0
 40
0.5095746641
 40
1.0
 40
1.0
 40
1.0
 40
1.0
 10
-156.2920286252
 20
41.1545704121
 30
0.0
 10
-154.2896669009
 20
39.7739226137
 30
0.0
 10
-150.1790802282
 20
37.3200620472
 30
0.0
 10
-145.8209361884
 20
35.3513654315
 30
0.0
 10
-143.6432909032
 20
34.4927342166
 30
0.0
  0
SPLINE
  5
3DA
100
AcDbEntity
  8
0
100
AcDbSpline
 62
7
  6
CONTINUOUS
 70
0
 71
3
 72
10
 73
6
 74
0
 42
0.0000001
 43
0.0000001
 44
0.0000000001
 40
0.0
 40
0.0
 40
0.0
 40
0.0
 40
0.268270474
 40
0.5322121318
 40
1.0
 40
1.0
 40
1.0
 40
1.0
 10
-156.330882392
 20
82.6992017946
 30
0.0
 10
-156.2455798777
 20
82.7801026123
 30
0.0
 10
-156.0537957514
 20
82.9187301992
 30
0.0
 10
-155.6531492499
 20
83.093044091
 30
0.0
 10
-155.2980256124
 20
83.104016423
 30
0.0
 10
-155.112269123
 20
83.0173021149
 30
0.0
  0
SPLINE
  5
3DB
100
AcDbEntity
  8
0
100
AcDbSpline
 62
7
  6
CONTINUOUS
 70
0
 71
3
 72
9
 73
5
 74
0
 42
0.0000001
 43
0.0000001
 44
0.0000000001
 40
0.0
 40
0.0
 40
0.0
 40
0.0
 40
0.2516784181
 40
1.0
 40
1.0
 40
1.0
 40
1.0
 10
-154.0822337048
 20
77.913242174
 30
0.0
 10
-154.2078204928
 20
78.3319988326
 30
0.0
 10
-154.6695963161
 20
80.0066930751
 30
0.0
 10
-154.9785056941
 20
81.7243176463
 30
0.0
 10
-155.1122693696
 20
83.0173044977
 30
0.0
  0
SPLINE
  5
3DC
100
AcDbEntity
  8
0
100
AcDbSpline
 62
7
  6
CONTINUOUS
 70
0
 71
3
 72
13
 73
9
 74
0
 42
0.0000001
 43
0.0000001
 44
0.0000000001
 40
0.0
 40
0.0
 40
0.0
 40
0.0
 40
0.1272994137
 40
0.2539265972
 40
0.4426865929
 40
0.630265721
 40
0.8160301268
 40
1.0
 40
1.0
 40
1.0
 40
1.0
 10
-164.2712497286
 20
69.8073658229
 30
0.0
 10
-164.0227525211
 20
69.1267181267
 30
0.0
 10
-163.485521932
 20
67.7838174889
 30
0.0
 10
-162.416309971
 20
65.5008246089
 30
0.0
 10
-161.0279116568
 20
62.9938087957
 30
0.0
 10
-159.2796627143
 20
60.310699222
 30
0.0
 10
-157.343538624
 20
57.7938632554
 30
0.0
 10
-155.9393605724
 20
56.2236595383
 30
0.0
 10
-155.2164345155
 20
55.4660824534
 30
0.0
  0
SPLINE
  5
3DD
100
AcDbEntity
  8
0
100
AcDbSpline
 62
7
  6
CONTINUOUS
 70
0
 71
3
 72
9
 73
5
 74
0
 42
0.0000001
 43
0.0000001
 44
0.0000000001
 40
0.0
 40
0.0
 40
0.0
 40
0.0
 40
0.2451448089
 40
1.0
 40
1.0
 40
1.0
 40
1.0
 10
-165.4246072938
 20
60.0814204085
 30
0.0
 10
-165.4202670013
 20
60.8826459632
 30
0.0
 10
-165.3072050917
 20
64.1500982441
 30
0.0
 10
-164.8214001527
 20
67.4022988052
 30
0.0
 10
-164.2712497286
 20
69.8073658229
 30
0.0
  0
SPLINE
  5
3DE
100
AcDbEntity
  8
0
100
AcDbSpline
 62
7
  6
CONTINUOUS
 70
0
 71
3
 72
8
 73
4
 74
0
 42
0.0000001
 43
0.0000001
 44
0.0000000001
 40
0.0
 40
0.0
 40
0.0
 40
0.0
 40
1.0
 40
1.0
 40
1.0
 40
1.0
 10
-165.422375843
 20
59.4328048212
 30
0.0
 10
-165.423736496
 20
59.5714489115
 30
0.0
 10
-165.4241358989
 20
59.710100858
 30
0.0
 10
-165.4252079979
 20
59.84874748
 30
0.0
  0
SPLINE
  5
3DF
100
AcDbEntity
  8
0
100
AcDbSpline
 62
7
  6
CONTINUOUS
 70
0
 71
3
 72
9
 73
5
 74
0
 42
0.0000001
 43
0.0000001
 44
0.0000000001
 40
0.0
 40
0.0
 40
0.0
 40
0.0
 40
0.4998133268
 40
1.0
 40
1.0
 40
1.0
 40
1.0
 10
-160.4808430112
 20
64.5913536638
 30
0.0
 10
-159.7769389464
 20
63.1028244993
 30
0.0
 10
-158.1809846851
 20
60.2097016519
 30
0.0
 10
-156.2392645259
 20
57.5372278427
 30
0.0
 10
-155.1941837109
 20
56.2632349115
 30
0.0
  0
SPLINE
  5
3E0
100
AcDbEntity
  8
0
100
AcDbSpline
 62
7
  6
CONTINUOUS
 70
0
 71
3
 72
36
 73
32
 74
0
 42
0.0000001
 43
0.0000001
 44
0.0000000001
 40
0.0
 40
0.0
 40
0.0
 40
0.0
 40
0.1249640233
 40
0.2498192495
 40
0.3745650405
 40
0.4992184793
 40
0.5615242856
 40
0.6238282617
 40
0.6861465228
 40
0.7485054242
 40
0.8109518677
 40
0.842234385
 40
0.873582558
 40
0.8892920121
 40
0.9050342063
 40
0.9208201521
 40
0.9366674944
 40
0.9446231529
 40
0.9526079473
 40
0.9606315853
 40
0.9687103063
 40
0.9768753188
 40
0.9852036693
 40
0.9895036349
 40
0.9917276232
 40
0.9938911588
 40
0.994671346
 40
0.9953813866
 40
0.996864594
 40
0.9984406559
 40
1.0
 40
1.0
 40
1.0
 40
1.0
 10
-155.1941837109
 20
56.2632349115
 30
0.0
 10
-154.9958189057
 20
56.0214207321
 30
0.0
 10
-154.5938799164
 20
55.542390365
 30
0.0
 10
-153.9757247374
 20
54.8374907965
 30
0.0
 10
-153.3431904367
 20
54.1465195172
 30
0.0
 10
-152.8046275426
 20
53.5820080935
 30
0.0
 10
-152.3674560651
 20
53.1369215073
 30
0.0
 10
-152.0365403223
 20
52.8061839909
 30
0.0
 10
-151.7026882608
 20
52.4782232208
 30
0.0
 10
-151.3660659251
 20
52.1525951648
 30
0.0
 10
-151.0835912819
 20
51.8827285016
 30
0.0
 10
-150.8567188056
 20
51.6670234042
 30
0.0
 10
-150.7145952567
 20
51.5319464402
 30
0.0
 10
-150.6008424168
 20
51.4234780147
 30
0.0
 10
-150.5154490371
 20
51.3417100016
 30
0.0
 10
-150.4300932236
 20
51.2594044951
 30
0.0
 10
-150.3591571456
 20
51.1902227159
 30
0.0
 10
-150.3026024121
 20
51.1342628241
 30
0.0
 10
-150.2602451024
 20
51.091799073
 30
0.0
 10
-150.2180513162
 20
51.0487297338
 30
0.0
 10
-150.1761323232
 20
51.0048029643
 30
0.0
 10
-150.1345459376
 20
50.959374945
 30
0.0
 10
-150.1010626495
 20
50.9198439247
 30
0.0
 10
-150.0787816472
 20
50.8894187429
 30
0.0
 10
-150.068769689
 20
50.8709130874
 30
0.0
 10
-150.0630786888
 20
50.8573182934
 30
0.0
 10
-150.068751748
 20
50.8490206534
 30
0.0
 10
-150.07629609
 20
50.847239437
 30
0.0
 10
-150.0857951201
 20
50.8480232624
 30
0.0
 10
-150.096737535
 20
50.8518962101
 30
0.0
 10
-150.1046895438
 20
50.8525893124
 30
0.0
 10
-150.1083328449
 20
50.8539886829
 30
0.0
  0
SPLINE
  5
3E1
100
AcDbEntity
  8
0
100
AcDbSpline
 62
7
  6
CONTINUOUS
 70
0
 71
3
 72
11
 73
7
 74
0
 42
0.0000001
 43
0.0000001
 44
0.0000000001
 40
0.0
 40
0.0
 40
0.0
 40
0.0
 40
0.2432672693
 40
0.5010239916
 40
0.7590332882
 40
1.0
 40
1.0
 40
1.0
 40
1.0
 10
-164.2716013228
 20
69.8082833299
 30
0.0
 10
-164.2266714585
 20
69.9087077714
 30
0.0
 10
-164.1037276906
 20
70.1020277783
 30
0.0
 10
-163.8638544727
 20
70.3507669244
 30
0.0
 10
-163.576350014
 20
70.5408712767
 30
0.0
 10
-163.3609152013
 20
70.6198969409
 30
0.0
 10
-163.2534746359
 20
70.6381298812
 30
0.0
  0
SPLINE
  5
3E2
100
AcDbEntity
  8
0
100
AcDbSpline
 62
7
  6
CONTINUOUS
 70
0
 71
3
 72
9
 73
5
 74
0
 42
0.0000001
 43
0.0000001
 44
0.0000000001
 40
0.0
 40
0.0
 40
0.0
 40
0.0
 40
0.2479507486
 40
1.0
 40
1.0
 40
1.0
 40
1.0
 10
-161.5310451728
 20
51.6568618278
 30
0.0
 10
-161.9048331958
 20
52.0428568852
 30
0.0
 10
-163.3874210876
 20
53.6234722266
 30
0.0
 10
-164.7667802141
 20
55.3014491176
 30
0.0
 10
-165.7342837756
 20
56.6129010437
 30
0.0
  0
SPLINE
  5
3E3
100
AcDbEntity
  8
0
100
AcDbSpline
 62
7
  6
CONTINUOUS
 70
0
 71
3
 72
11
 73
7
 74
0
 42
0.0000001
 43
0.0000001
 44
0.0000000001
 40
0.0
 40
0.0
 40
0.0
 40
0.0
 40
0.2114060291
 40
0.456993997
 40
0.7262019382
 40
1.0
 40
1.0
 40
1.0
 40
1.0
 10
-166.324983995
 20
55.520156763
 30
0.0
 10
-166.3306374007
 20
55.6103447964
 30
0.0
 10
-166.3022282886
 20
55.8074358963
 30
0.0
 10
-166.1856929989
 20
56.0973544868
 30
0.0
 10
-165.9943234114
 20
56.3775824669
 30
0.0
 10
-165.8276318194
 20
56.5423092836
 30
0.0
 10
-165.7342826237
 20
56.6128994823
 30
0.0
  0
SPLINE
  5
3E4
100
AcDbEntity
  8
0
100
AcDbSpline
 62
7
  6
CONTINUOUS
 70
0
 71
3
 72
39
 73
35
 74
0
 42
0.0000001
 43
0.0000001
 44
0.0000000001
 40
0.0
 40
0.0
 40
0.0
 40
0.0
 40
0.12809254
 40
0.2555641682
 40
0.3822198484
 40
0.4451934013
 40
0.5079027594
 40
0.5703340071
 40
0.6324760626
 40
0.6943215599
 40
0.7558697022
 40
0.7865368412
 40
0.817138018
 40
0.8476810484
 40
0.8781792723
 40
0.908657093
 40
0.9391656288
 40
0.9544671075
 40
0.9621434463
 40
0.9698480879
 40
0.9737157085
 40
0.977597601
 40
0.9814987874
 40
0.9854276047
 40
0.989399906
 40
0.9934541615
 40
0.9955465622
 40
0.9966180087
 40
0.9971365686
 40
0.9974428431
 40
0.9976459176
 40
0.9979147296
 40
0.998551952
 40
1.0
 40
1.0
 40
1.0
 40
1.0
 10
-161.5309392247
 20
51.6564564882
 30
0.0
 10
-161.022627159
 20
51.0300820673
 30
0.0
 10
-159.975818136
 20
49.8064631775
 30
0.0
 10
-158.3186809001
 20
48.0593175092
 30
0.0
 10
-156.8724928381
 20
46.6808833651
 30
0.0
 10
-155.6825090875
 20
45.627478322
 30
0.0
 10
-154.7766907094
 20
44.8637934534
 30
0.0
 10
-153.8571549437
 20
44.1250355333
 30
0.0
 10
-152.9250696443
 20
43.4110910466
 30
0.0
 10
-151.9815542559
 20
42.7217212682
 30
0.0
 10
-151.185649417
 20
42.1667346684
 30
0.0
 10
-150.5442251494
 20
41.734512332
 30
0.0
 10
-150.0614145034
 20
41.4163750291
 30
0.0
 10
-149.5763518338
 20
41.1036436844
 30
0.0
 10
-149.0890109914
 20
40.7959290369
 30
0.0
 10
-148.5992195259
 20
40.4925455945
 30
0.0
 10
-148.1889759421
 20
40.2425135663
 30
0.0
 10
-147.9008906314
 20
40.0679708364
 30
0.0
 10
-147.7356888301
 20
39.9677480844
 30
0.0
 10
-147.6321461542
 20
39.9047139512
 30
0.0
 10
-147.5491505962
 20
39.853884325
 30
0.0
 10
-147.4866825927
 20
39.8153961087
 30
0.0
 10
-147.4240431029
 20
39.7764649025
 30
0.0
 10
-147.3611444438
 20
39.7368265781
 30
0.0
 10
-147.2978917346
 20
39.6961250951
 30
0.0
 10
-147.2448513285
 20
39.660351418
 30
0.0
 10
-147.2083728543
 20
39.6339631942
 30
0.0
 10
-147.1903155143
 20
39.6183096378
 30
0.0
 10
-147.182517307
 20
39.6105920724
 30
0.0
 10
-147.1786999342
 20
39.6030838066
 30
0.0
 10
-147.1841147909
 20
39.6005811799
 30
0.0
 10
-147.1909091938
 20
39.6012972658
 30
0.0
 10
-147.2056491808
 20
39.6039758192
 30
0.0
 10
-147.2180657671
 20
39.6082072143
 30
0.0
 10
-147.2267020619
 20
39.6111354885
 30
0.0
  0
SPLINE
  5
3E5
100
AcDbEntity
  8
0
100
AcDbSpline
 62
7
  6
CONTINUOUS
 70
0
 71
3
 72
9
 73
5
 74
0
 42
0.0000001
 43
0.0000001
 44
0.0000000001
 40
0.0
 40
0.0
 40
0.0
 40
0.0
 40
0.2489334998
 40
1.0
 40
1.0
 40
1.0
 40
1.0
 10
-160.721442962
 20
65.1105419923
 30
0.0
 10
-160.9673204859
 20
65.5514177407
 30
0.0
 10
-161.9207835331
 20
67.341307796
 30
0.0
 10
-162.7334261147
 20
69.2066871079
 30
0.0
 10
-163.253501833
 20
70.6382047414
 30
0.0
  0
LINE
  5
3E6
100
AcDbEntity
  8
0
100
AcDbLine
 62
7
  6
CONTINUOUS
 10
-162.9163134673
 20
47.2894901972
 11
-162.995093096
 21
47.4186240425
  0
SPLINE
  5
3E7
100
AcDbEntity
  8
0
100
AcDbSpline
 62
7
  6
CONTINUOUS
 70
0
 71
3
 72
9
 73
5
 74
0
 42
0.0000001
 43
0.0000001
 44
0.0000000001
 40
0.0
 40
0.0
 40
0.0
 40
0.0
 40
0.2455470648
 40
1.0
 40
1.0
 40
1.0
 40
1.0
 10
-163.057052642
 20
47.5219707824
 30
0.0
 10
-163.3180446555
 20
47.9595112953
 30
0.0
 10
-164.3305151302
 20
49.7712165059
 30
0.0
 10
-165.1400122497
 20
51.6947117126
 30
0.0
 10
-165.6375915226
 20
53.1788869504
 30
0.0
  0
SPLINE
  5
3E8
100
AcDbEntity
  8
0
100
AcDbSpline
 62
7
  6
CONTINUOUS
 70
0
 71
3
 72
13
 73
9
 74
0
 42
0.0000001
 43
0.0000001
 44
0.0000000001
 40
0.0
 40
0.0
 40
0.0
 40
0.0
 40
0.2581243278
 40
0.3854124663
 40
0.5115260439
 40
0.6361722709
 40
0.7590885746
 40
1.0
 40
1.0
 40
1.0
 40
1.0
 10
-166.3243489793
 20
55.5193083931
 30
0.0
 10
-165.2780399932
 20
54.1139029848
 30
0.0
 10
-163.5951201126
 20
52.1022914316
 30
0.0
 10
-161.1727385823
 20
49.6137082029
 30
0.0
 10
-159.2993335187
 20
47.8585557502
 30
0.0
 10
-157.3693716424
 20
46.2111688863
 30
0.0
 10
-154.7482089252
 20
44.1791287246
 30
0.0
 10
-152.7007215572
 20
42.7919020192
 30
0.0
 10
-151.3125222419
 20
41.92758285
 30
0.0
  0
SPLINE
  5
3E9
100
AcDbEntity
  8
0
100
AcDbSpline
 62
7
  6
CONTINUOUS
 70
0
 71
3
 72
9
 73
5
 74
0
 42
0.0000001
 43
0.0000001
 44
0.0000000001
 40
0.0
 40
0.0
 40
0.0
 40
0.0
 40
0.4956848826
 40
1.0
 40
1.0
 40
1.0
 40
1.0
 10
-59.2308467979
 20
25.7674440928
 30
0.0
 10
-59.3059997087
 20
25.7874672958
 30
0.0
 10
-59.460300217
 20
25.8183145649
 30
0.0
 10
-59.6171571049
 20
25.8303116965
 30
0.0
 10
-59.6962724108
 20
25.8317683232
 30
0.0
  0
SPLINE
  5
3EA
100
AcDbEntity
  8
0
100
AcDbSpline
 62
7
  6
CONTINUOUS
 70
0
 71
3
 72
17
 73
13
 74
0
 42
0.0000001
 43
0.0000001
 44
0.0000000001
 40
0.0
 40
0.0
 40
0.0
 40
0.0
 40
0.0576496094
 40
0.1154507066
 40
0.1735421603
 40
0.2320572869
 40
0.3507811584
 40
0.4725866917
 40
0.5981373612
 40
0.7278286045
 40
0.8618129553
 40
1.0
 40
1.0
 40
1.0
 40
1.0
 10
-57.7914995879
 20
27.3450904566
 30
0.0
 10
-57.7259632534
 20
27.3074491326
 30
0.0
 10
-57.5975890119
 20
27.2269382267
 30
0.0
 10
-57.4145770931
 20
27.0914290932
 30
0.0
 10
-57.2415681147
 20
26.9415907516
 30
0.0
 10
-57.0240955104
 20
26.72241694
 30
0.0
 10
-56.7800140623
 20
26.413675361
 30
0.0
 10
-56.5380227185
 20
25.9975069567
 30
0.0
 10
-56.3485714661
 20
25.5394312942
 30
0.0
 10
-56.2140060929
 20
25.0459127029
 30
0.0
 10
-56.1360324169
 20
24.5237722577
 30
0.0
 10
-56.1225910857
 20
24.1664108944
 30
0.0
 10
-56.1250906655
 20
23.9852688897
 30
0.0
  0
SPLINE
  5
3EB
100
AcDbEntity
  8
0
100
AcDbSpline
 62
7
  6
CONTINUOUS
 70
0
 71
3
 72
9
 73
5
 74
0
 42
0.0000001
 43
0.0000001
 44
0.0000000001
 40
0.0
 40
0.0
 40
0.0
 40
0.0
 40
0.5136662591
 40
1.0
 40
1.0
 40
1.0
 40
1.0
 10
-59.7325709335
 20
18.445075438
 30
0.0
 10
-59.9993276846
 20
18.3304436463
 30
0.0
 10
-60.5408116804
 20
18.1544948192
 30
0.0
 10
-61.1085540488
 20
18.0964251521
 30
0.0
 10
-61.3834020311
 20
18.1014854993
 30
0.0
  0
SPLINE
  5
3EC
100
AcDbEntity
  8
0
100
AcDbSpline
 62
7
  6
CONTINUOUS
 70
0
 71
3
 72
11
 73
7
 74
0
 42
0.0000001
 43
0.0000001
 44
0.0000000001
 40
0.0
 40
0.0
 40
0.0
 40
0.0
 40
0.2556000805
 40
0.506667019
 40
0.7542514947
 40
1.0
 40
1.0
 40
1.0
 40
1.0
 10
-61.3834020311
 20
18.1014854993
 30
0.0
 10
-61.5159119911
 20
18.1039251985
 30
0.0
 10
-61.7785870479
 20
18.1241413109
 30
0.0
 10
-62.1629292699
 20
18.2016428492
 30
0.0
 10
-62.5295215966
 20
18.3256890948
 30
0.0
 10
-62.7599464907
 20
18.4387154082
 30
0.0
 10
-62.8704419959
 20
18.5021793958
 30
0.0
  0
SPLINE
  5
3ED
100
AcDbEntity
  8
0
100
AcDbSpline
 62
7
  6
CONTINUOUS
 70
0
 71
3
 72
9
 73
5
 74
0
 42
0.0000001
 43
0.0000001
 44
0.0000000001
 40
0.0
 40
0.0
 40
0.0
 40
0.0
 40
0.4907539454
 40
1.0
 40
1.0
 40
1.0
 40
1.0
 10
-59.6962724108
 20
25.8317683232
 30
0.0
 10
-59.806299492
 20
25.8337940802
 30
0.0
 10
-60.0310969284
 20
25.8198464372
 30
0.0
 10
-60.251296656
 20
25.7733235063
 30
0.0
 10
-60.3611799726
 20
25.7422501641
 30
0.0
  0
SPLINE
  5
3EE
100
AcDbEntity
  8
0
100
AcDbSpline
 62
7
  6
CONTINUOUS
 70
0
 71
3
 72
9
 73
5
 74
0
 42
0.0000001
 43
0.0000001
 44
0.0000000001
 40
0.0
 40
0.0
 40
0.0
 40
0.0
 40
0.4943858775
 40
1.0
 40
1.0
 40
1.0
 40
1.0
 10
-72.9185842344
 20
1.4211849224
 30
0.0
 10
-72.2004375561
 20
1.6902119836
 30
0.0
 10
-70.7725474474
 20
2.3023650224
 30
0.0
 10
-69.4041559816
 20
3.0373575198
 30
0.0
 10
-68.7291563911
 20
3.4367355976
 30
0.0
  0
SPLINE
  5
3EF
100
AcDbEntity
  8
0
100
AcDbSpline
 62
7
  6
CONTINUOUS
 70
0
 71
3
 72
11
 73
7
 74
0
 42
0.0000001
 43
0.0000001
 44
0.0000000001
 40
0.0
 40
0.0
 40
0.0
 40
0.0
 40
0.2478531849
 40
0.4976991207
 40
0.7487037098
 40
1.0
 40
1.0
 40
1.0
 40
1.0
 10
-62.0041360035
 20
8.8381677235
 30
0.0
 10
-61.4275603483
 20
9.4446793181
 30
0.0
 10
-60.314381096
 20
10.7058163776
 30
0.0
 10
-58.7808185902
 20
12.7179781932
 30
0.0
 10
-57.3874808886
 20
14.8435581764
 30
0.0
 10
-56.5593120272
 20
16.3254431422
 30
0.0
 10
-56.1718225921
 20
17.0802540443
 30
0.0
  0
SPLINE
  5
3F0
100
AcDbEntity
  8
0
100
AcDbSpline
 62
7
  6
CONTINUOUS
 70
0
 71
3
 72
11
 73
7
 74
0
 42
0.0000001
 43
0.0000001
 44
0.0000000001
 40
0.0
 40
0.0
 40
0.0
 40
0.0
 40
0.23886957
 40
0.4850215206
 40
0.7386613942
 40
1.0
 40
1.0
 40
1.0
 40
1.0
 10
-61.8218138727
 20
29.2065186679
 30
0.0
 10
-61.9717085254
 20
29.2092784443
 30
0.0
 10
-62.2767312866
 20
29.1947607926
 30
0.0
 10
-62.7346989142
 20
29.1162907667
 30
0.0
 10
-63.1940004888
 20
28.9814611878
 30
0.0
 10
-63.4930967067
 20
28.8571270289
 30
0.0
 10
-63.6411786541
 20
28.7865933501
 30
0.0
  0
SPLINE
  5
3F1
100
AcDbEntity
  8
0
100
AcDbSpline
 62
7
  6
CONTINUOUS
 70
0
 71
3
 72
15
 73
11
 74
0
 42
0.0000001
 43
0.0000001
 44
0.0000000001
 40
0.0
 40
0.0
 40
0.0
 40
0.0
 40
0.1357568734
 40
0.2678351566
 40
0.3963544102
 40
0.5215757076
 40
0.6439253541
 40
0.7639723992
 40
0.8824081309
 40
1.0
 40
1.0
 40
1.0
 40
1.0
 10
-67.0427060763
 20
22.6327264671
 30
0.0
 10
-67.0244447315
 20
22.4871703557
 30
0.0
 10
-66.9750116051
 20
22.2014599168
 30
0.0
 10
-66.859976942
 20
21.7881506239
 30
0.0
 10
-66.7062054005
 20
21.399746149
 30
0.0
 10
-66.5150522597
 20
21.0401044529
 30
0.0
 10
-66.288306952
 20
20.7127763292
 30
0.0
 10
-66.0281065196
 20
20.421008487
 30
0.0
 10
-65.7370058941
 20
20.1678698607
 30
0.0
 10
-65.5239030791
 20
20.0262006212
 30
0.0
 10
-65.4137159934
 20
19.9629143145
 30
0.0
  0
SPLINE
  5
3F2
100
AcDbEntity
  8
0
100
AcDbSpline
 62
7
  6
CONTINUOUS
 70
0
 71
3
 72
11
 73
7
 74
0
 42
0.0000001
 43
0.0000001
 44
0.0000000001
 40
0.0
 40
0.0
 40
0.0
 40
0.0
 40
0.2556000805
 40
0.506667019
 40
0.7542514947
 40
1.0
 40
1.0
 40
1.0
 40
1.0
 10
-59.2785395527
 20
27.7457843532
 30
0.0
 10
-59.1460295927
 20
27.743344654
 30
0.0
 10
-58.883354536
 20
27.7231285416
 30
0.0
 10
-58.4990123139
 20
27.6456270033
 30
0.0
 10
-58.1324199872
 20
27.5215807577
 30
0.0
 10
-57.9019950931
 20
27.4085544442
 30
0.0
 10
-57.7914995879
 20
27.3450904566
 30
0.0
  0
SPLINE
  5
3F3
100
AcDbEntity
  8
0
100
AcDbSpline
 62
7
  6
CONTINUOUS
 70
0
 71
3
 72
11
 73
7
 74
0
 42
0.0000001
 43
0.0000001
 44
0.0000000001
 40
0.0
 40
0.0
 40
0.0
 40
0.0
 40
0.2514622581
 40
0.5025929464
 40
0.7524192446
 40
1.0
 40
1.0
 40
1.0
 40
1.0
 10
-56.4738320133
 20
17.2498897908
 30
0.0
 10
-56.8611656445
 20
16.4930405614
 30
0.0
 10
-57.6908349232
 20
15.0080340265
 30
0.0
 10
-59.0908893537
 20
12.8813803401
 30
0.0
 10
-60.6346914622
 20
10.8731557856
 30
0.0
 10
-61.7570603464
 20
9.6182161765
 30
0.0
 10
-62.338476443
 20
9.0160033601
 30
0.0
  0
SPLINE
  5
3F4
100
AcDbEntity
  8
0
100
AcDbSpline
 62
7
  6
CONTINUOUS
 70
0
 71
3
 72
9
 73
5
 74
0
 42
0.0000001
 43
0.0000001
 44
0.0000000001
 40
0.0
 40
0.0
 40
0.0
 40
0.0
 40
0.5058130831
 40
1.0
 40
1.0
 40
1.0
 40
1.0
 10
-69.1570454925
 20
3.6895954249
 30
0.0
 10
-69.7724223479
 20
3.342424182
 30
0.0
 10
-71.0165698658
 20
2.703590153
 30
0.0
 10
-72.3098060309
 20
2.1705043002
 30
0.0
 10
-72.9590040784
 20
1.9358277218
 30
0.0
  0
SPLINE
  5
3F5
100
AcDbEntity
  8
0
100
AcDbSpline
 62
7
  6
CONTINUOUS
 70
0
 71
3
 72
11
 73
7
 74
0
 42
0.0000001
 43
0.0000001
 44
0.0000000001
 40
0.0
 40
0.0
 40
0.0
 40
0.0
 40
0.2457490598
 40
0.4933358848
 40
0.7444033626
 40
1.0
 40
1.0
 40
1.0
 40
1.0
 10
-60.3347742305
 20
28.8058241673
 30
0.0
 10
-60.4452701952
 20
28.8692878796
 30
0.0
 10
-60.675695811
 20
28.9823159844
 30
0.0
 10
-61.042290452
 20
29.1063611327
 30
0.0
 10
-61.4266322996
 20
29.1838619739
 30
0.0
 10
-61.689305725
 20
29.204079002
 30
0.0
 10
-61.8218138727
 20
29.2065186679
 30
0.0
  0
SPLINE
  5
3F6
100
AcDbEntity
  8
0
100
AcDbSpline
 62
7
  6
CONTINUOUS
 70
0
 71
3
 72
15
 73
11
 74
0
 42
0.0000001
 43
0.0000001
 44
0.0000000001
 40
0.0
 40
0.0
 40
0.0
 40
0.0
 40
0.1175897217
 40
0.236023175
 40
0.3560684684
 40
0.4784170578
 40
0.6036388678
 40
0.7321593984
 40
0.8642401645
 40
1.0
 40
1.0
 40
1.0
 40
1.0
 10
-62.8704419959
 20
18.5021793958
 30
0.0
 10
-62.9806345537
 20
18.5654693831
 30
0.0
 10
-63.1937474192
 20
18.707146911
 30
0.0
 10
-63.4848645387
 20
18.9602981474
 30
0.0
 10
-63.745069853
 20
19.2520909239
 30
0.0
 10
-63.9718279226
 20
19.5794412328
 30
0.0
 10
-64.1629781111
 20
19.9391178717
 30
0.0
 10
-64.3167550885
 20
20.3275565829
 30
0.0
 10
-64.4317773433
 20
20.7409083911
 30
0.0
 10
-64.4812040696
 20
21.0266463522
 30
0.0
 10
-64.4994606653
 20
21.1722166394
 30
0.0
  0
SPLINE
  5
3F7
100
AcDbEntity
  8
0
100
AcDbSpline
 62
7
  6
CONTINUOUS
 70
0
 71
3
 72
11
 73
7
 74
0
 42
0.0000001
 43
0.0000001
 44
0.0000000001
 40
0.0
 40
0.0
 40
0.0
 40
0.0
 40
0.2667575099
 40
0.5226073227
 40
0.7668886142
 40
1.0
 40
1.0
 40
1.0
 40
1.0
 10
-62.0668671343
 20
26.7254573185
 30
0.0
 10
-61.8543961781
 20
26.8900225041
 30
0.0
 10
-61.4148421029
 20
27.1838538699
 30
0.0
 10
-60.7117477881
 20
27.5118489333
 30
0.0
 10
-59.9961441475
 20
27.7091832298
 30
0.0
 10
-59.5133507684
 20
27.7501075659
 30
0.0
 10
-59.2785395527
 20
27.7457843532
 30
0.0
  0
SPLINE
  5
3F8
100
AcDbEntity
  8
0
100
AcDbSpline
 62
7
  6
CONTINUOUS
 70
0
 71
3
 72
13
 73
9
 74
0
 42
0.0000001
 43
0.0000001
 44
0.0000000001
 40
0.0
 40
0.0
 40
0.0
 40
0.0
 40
0.2769373378
 40
0.5348053374
 40
0.6565476572
 40
0.7739087864
 40
0.8879225153
 40
1.0
 40
1.0
 40
1.0
 40
1.0
 10
-69.8782828608
 20
-13.3376301314
 30
0.0
 10
-70.4756931614
 20
-13.8878656467
 30
0.0
 10
-71.7543398706
 20
-14.8257548185
 30
0.0
 10
-73.5744270858
 20
-15.5356698728
 30
0.0
 10
-75.0237543294
 20
-15.7372768339
 30
0.0
 10
-76.0642428981
 20
-15.7080279359
 30
0.0
 10
-77.0553869048
 20
-15.5006538403
 30
0.0
 10
-77.6721295023
 20
-15.2446349705
 30
0.0
 10
-77.9622778723
 20
-15.0901812865
 30
0.0
  0
SPLINE
  5
3F9
100
AcDbEntity
  8
0
100
AcDbSpline
 62
7
  6
CONTINUOUS
 70
0
 71
3
 72
9
 73
5
 74
0
 42
0.0000001
 43
0.0000001
 44
0.0000000001
 40
0.0
 40
0.0
 40
0.0
 40
0.0
 40
0.5059124931
 40
1.0
 40
1.0
 40
1.0
 40
1.0
 10
-82.4276675055
 20
-11.2270284073
 30
0.0
 10
-84.2596492841
 20
-11.1323830996
 30
0.0
 10
-87.8746951453
 20
-10.5488286353
 30
0.0
 10
-91.2526575523
 20
-9.1235525037
 30
0.0
 10
-92.8061803008
 20
-8.2312459894
 30
0.0
  0
SPLINE
  5
3FA
100
AcDbEntity
  8
0
100
AcDbSpline
 62
7
  6
CONTINUOUS
 70
0
 71
3
 72
10
 73
6
 74
0
 42
0.0000001
 43
0.0000001
 44
0.0000000001
 40
0.0
 40
0.0
 40
0.0
 40
0.0
 40
0.5101960808
 40
0.7565731589
 40
1.0
 40
1.0
 40
1.0
 40
1.0
 10
-82.4298499891
 20
-11.1643291354
 30
0.0
 10
-82.1864240498
 20
-11.7327739725
 30
0.0
 10
-81.7003781788
 20
-12.5333783227
 30
0.0
 10
-80.8326512635
 20
-13.3855319632
 30
0.0
 10
-80.342199438
 20
-13.7263600887
 30
0.0
 10
-80.0863560276
 20
-13.873306554
 30
0.0
  0
SPLINE
  5
3FB
100
AcDbEntity
  8
0
100
AcDbSpline
 62
7
  6
CONTINUOUS
 70
0
 71
3
 72
11
 73
7
 74
0
 42
0.0000001
 43
0.0000001
 44
0.0000000001
 40
0.0
 40
0.0
 40
0.0
 40
0.0
 40
0.2560089045
 40
0.5069754861
 40
0.7544010592
 40
1.0
 40
1.0
 40
1.0
 40
1.0
 10
-103.198486936
 20
1.316829208
 30
0.0
 10
-102.6746990615
 20
0.43464176
 30
0.0
 10
-101.5326329206
 20
-1.2529101063
 30
0.0
 10
-99.5333227315
 20
-3.5313689972
 30
0.0
 10
-97.2873378198
 20
-5.5048666339
 30
0.0
 10
-95.6377638996
 20
-6.604899914
 30
0.0
 10
-94.7842825498
 20
-7.0951193002
 30
0.0
  0
SPLINE
  5
3FC
100
AcDbEntity
  8
0
100
AcDbSpline
 62
7
  6
CONTINUOUS
 70
0
 71
3
 72
13
 73
9
 74
0
 42
0.0000001
 43
0.0000001
 44
0.0000000001
 40
0.0
 40
0.0
 40
0.0
 40
0.0
 40
0.1177336212
 40
0.2362929369
 40
0.3564559476
 40
0.4789097337
 40
0.732410441
 40
1.0
 40
1.0
 40
1.0
 40
1.0
 10
-56.434557697
 20
59.6753190355
 30
0.0
 10
-57.2629483647
 20
60.1511355278
 30
0.0
 10
-58.9896612207
 20
60.999059286
 30
0.0
 10
-61.7351700744
 20
61.9323413631
 30
0.0
 10
-64.6141714699
 20
62.5205578996
 30
0.0
 10
-68.635649118
 20
62.8414782182
 30
0.0
 10
-73.8788706342
 20
62.3278134429
 30
0.0
 10
-77.9371047909
 20
61.0334146732
 30
0.0
 10
-79.9369642718
 20
60.1878167739
 30
0.0
  0
SPLINE
  5
3FD
100
AcDbEntity
  8
0
100
AcDbSpline
 62
7
  6
CONTINUOUS
 70
0
 71
3
 72
11
 73
7
 74
0
 42
0.0000001
 43
0.0000001
 44
0.0000000001
 40
0.0
 40
0.0
 40
0.0
 40
0.0
 40
0.2407766449
 40
0.4855553564
 40
0.7377912046
 40
1.0
 40
1.0
 40
1.0
 40
1.0
 10
-54.456446995
 20
58.5392070234
 30
0.0
 10
-53.1684275762
 20
57.7993993064
 30
0.0
 10
-50.7154311831
 20
56.039143419
 30
0.0
 10
-47.5967280728
 20
52.6862544318
 30
0.0
 10
-45.0942605737
 20
48.6969881416
 30
0.0
 10
-43.8982502634
 20
45.7383864483
 30
0.0
 10
-43.4122359497
 20
44.1955451445
 30
0.0
  0
SPLINE
  5
3FE
100
AcDbEntity
  8
0
100
AcDbSpline
 62
7
  6
CONTINUOUS
 70
0
 71
3
 72
11
 73
7
 74
0
 42
0.0000001
 43
0.0000001
 44
0.0000000001
 40
0.0
 40
0.0
 40
0.0
 40
0.0
 40
0.2441780134
 40
0.4913143319
 40
0.7428524495
 40
1.0
 40
1.0
 40
1.0
 40
1.0
 10
-94.7174699117
 20
-6.9989734762
 30
0.0
 10
-95.4910863417
 20
-6.4421936756
 30
0.0
 10
-96.9772139285
 20
-5.2203152155
 30
0.0
 10
-98.9729396408
 20
-3.1068016416
 30
0.0
 10
-100.7263048773
 20
-0.7254557157
 30
0.0
 10
-101.7108883909
 20
1.0047389126
 30
0.0
 10
-102.1585356386
 20
1.9031651735
 30
0.0
  0
SPLINE
  5
3FF
100
AcDbEntity
  8
0
100
AcDbSpline
 62
7
  6
CONTINUOUS
 70
0
 71
3
 72
12
 73
8
 74
0
 42
0.0000001
 43
0.0000001
 44
0.0000000001
 40
0.0
 40
0.0
 40
0.0
 40
0.0
 40
0.2508016061
 40
0.5063913476
 40
0.6335724024
 40
0.7588763552
 40
1.0
 40
1.0
 40
1.0
 40
1.0
 10
-104.707230185
 20
24.0911619699
 30
0.0
 10
-104.0871846675
 20
27.5297993796
 30
0.0
 10
-102.0249898814
 20
34.3451169956
 30
0.0
 10
-97.7240303037
 20
42.1287614557
 30
0.0
 10
-93.3602100544
 20
47.718667817
 30
0.0
 10
-88.5634370365
 20
52.6573935216
 30
0.0
 10
-84.4006887166
 20
55.7196815971
 30
0.0
 10
-81.461021402
 20
57.3454118403
 30
0.0
  0
SPLINE
  5
400
100
AcDbEntity
  8
0
100
AcDbSpline
 62
7
  6
CONTINUOUS
 70
0
 71
3
 72
9
 73
5
 74
0
 42
0.0000001
 43
0.0000001
 44
0.0000000001
 40
0.0
 40
0.0
 40
0.0
 40
0.0
 40
0.2533304089
 40
1.0
 40
1.0
 40
1.0
 40
1.0
 10
-80.9368910255
 20
57.6300038905
 30
0.0
 10
-80.5977665457
 20
57.8107463144
 30
0.0
 10
-79.2484589265
 20
58.5039996217
 30
0.0
 10
-77.8565233435
 20
59.1147705563
 30
0.0
 10
-76.7981897947
 20
59.5182607162
 30
0.0
  0
SPLINE
  5
401
100
AcDbEntity
  8
0
100
AcDbSpline
 62
7
  6
CONTINUOUS
 70
0
 71
3
 72
9
 73
5
 74
0
 42
0.0000001
 43
0.0000001
 44
0.0000000001
 40
0.0
 40
0.0
 40
0.0
 40
0.0
 40
0.253196271
 40
1.0
 40
1.0
 40
1.0
 40
1.0
 10
-76.7981897947
 20
59.5182607162
 30
0.0
 10
-76.4846579021
 20
59.6377948968
 30
0.0
 10
-75.2395592666
 20
60.0917915608
 30
0.0
 10
-73.9673613223
 20
60.4719829331
 30
0.0
 10
-73.0066889462
 20
60.7098909893
 30
0.0
  0
SPLINE
  5
402
100
AcDbEntity
  8
0
100
AcDbSpline
 62
7
  6
CONTINUOUS
 70
0
 71
3
 72
9
 73
5
 74
0
 42
0.0000001
 43
0.0000001
 44
0.0000000001
 40
0.0
 40
0.0
 40
0.0
 40
0.0
 40
0.2555429011
 40
1.0
 40
1.0
 40
1.0
 40
1.0
 10
-73.0066889462
 20
60.7098909893
 30
0.0
 10
-72.4600726909
 20
60.8452591065
 30
0.0
 10
-70.3073237645
 20
61.3170417127
 30
0.0
 10
-68.1002629584
 20
61.5489919589
 30
0.0
 10
-66.4598399053
 20
61.5674870447
 30
0.0
  0
SPLINE
  5
403
100
AcDbEntity
  8
0
100
AcDbSpline
 62
7
  6
CONTINUOUS
 70
0
 71
3
 72
9
 73
5
 74
0
 42
0.0000001
 43
0.0000001
 44
0.0000000001
 40
0.0
 40
0.0
 40
0.0
 40
0.0
 40
0.5071815165
 40
1.0
 40
1.0
 40
1.0
 40
1.0
 10
-66.4598399053
 20
61.5674870447
 30
0.0
 10
-64.7286110822
 20
61.5870059277
 30
0.0
 10
-61.3001902249
 20
61.2871762259
 30
0.0
 10
-58.0138796796
 20
60.25085081
 30
0.0
 10
-56.4772088918
 20
59.5661575517
 30
0.0
  0
SPLINE
  5
404
100
AcDbEntity
  8
0
100
AcDbSpline
 62
7
  6
CONTINUOUS
 70
0
 71
3
 72
11
 73
7
 74
0
 42
0.0000001
 43
0.0000001
 44
0.0000000001
 40
0.0
 40
0.0
 40
0.0
 40
0.0
 40
0.2393560549
 40
0.483381791
 40
0.7360661426
 40
1.0
 40
1.0
 40
1.0
 40
1.0
 10
-78.1082540147
 20
-15.0094336463
 30
0.0
 10
-78.4360066128
 20
-14.8211850062
 30
0.0
 10
-79.0578887326
 20
-14.3663072003
 30
0.0
 10
-79.8324540221
 20
-13.4886387602
 30
0.0
 10
-80.4325110489
 20
-12.4394688254
 30
0.0
 10
-80.7001344005
 20
-11.6634646348
 30
0.0
 10
-80.8027873905
 20
-11.2595260107
 30
0.0
  0
SPLINE
  5
405
100
AcDbEntity
  8
0
100
AcDbSpline
 62
7
  6
CONTINUOUS
 70
0
 71
3
 72
11
 73
7
 74
0
 42
0.0000001
 43
0.0000001
 44
0.0000000001
 40
0.0
 40
0.0
 40
0.0
 40
0.0
 40
0.2474620976
 40
0.4959600637
 40
0.7464966984
 40
1.0
 40
1.0
 40
1.0
 40
1.0
 10
-57.6602166441
 20
52.3068337775
 30
0.0
 10
-58.1821964244
 20
52.6066546102
 30
0.0
 10
-59.2591146085
 20
53.1556850423
 30
0.0
 10
-60.9534314326
 20
53.8167828482
 30
0.0
 10
-62.7184461907
 20
54.3127439083
 30
0.0
 10
-63.9273686518
 20
54.5297999817
 30
0.0
 10
-64.5387162608
 20
54.6105315528
 30
0.0
  0
SPLINE
  5
406
100
AcDbEntity
  8
0
100
AcDbSpline
 62
7
  6
CONTINUOUS
 70
0
 71
3
 72
12
 73
8
 74
0
 42
0.0000001
 43
0.0000001
 44
0.0000000001
 40
0.0
 40
0.0
 40
0.0
 40
0.0
 40
0.1204439442
 40
0.2420178977
 40
0.4889068573
 40
0.7414823923
 40
1.0
 40
1.0
 40
1.0
 40
1.0
 10
-64.5387162608
 20
54.6105315528
 30
0.0
 10
-64.8927398679
 20
54.6572821765
 30
0.0
 10
-65.6067896864
 20
54.7321254767
 30
0.0
 10
-67.0548954916
 20
54.8071651407
 30
0.0
 10
-68.8990601474
 20
54.7593084658
 30
0.0
 10
-71.1320463041
 20
54.4788401302
 30
0.0
 10
-72.6136248598
 20
54.1490285097
 30
0.0
 10
-73.3536332445
 20
53.9493941357
 30
0.0
  0
SPLINE
  5
407
100
AcDbEntity
  8
0
100
AcDbSpline
 62
7
  6
CONTINUOUS
 70
0
 71
3
 72
39
 73
35
 74
0
 42
0.0000001
 43
0.0000001
 44
0.0000000001
 40
0.0
 40
0.0
 40
0.0
 40
0.0
 40
0.0261023527
 40
0.0523120336
 40
0.078732792
 40
0.1054610786
 40
0.132583726
 40
0.1601746301
 40
0.1882944102
 40
0.2169881371
 40
0.24628654
 40
0.2762044971
 40
0.3067434326
 40
0.3378902183
 40
0.3696202249
 40
0.401896429
 40
0.4346726889
 40
0.4678930167
 40
0.5014947783
 40
0.5354082098
 40
0.5695592889
 40
0.6038695799
 40
0.638258744
 40
0.6726449457
 40
0.7069464821
 40
0.741082414
 40
0.7749745648
 40
0.8085499431
 40
0.8417397143
 40
0.874479705
 40
0.9067143862
 40
0.9384050693
 40
0.9695165502
 40
1.0
 40
1.0
 40
1.0
 40
1.0
 10
-34.2055741125
 20
38.8356208028
 30
0.0
 10
-33.6879768477
 20
38.5383100565
 30
0.0
 10
-32.6794091492
 20
37.8907226737
 30
0.0
 10
-31.2653508371
 20
36.7717904233
 30
0.0
 10
-29.9563478994
 20
35.5107244396
 30
0.0
 10
-28.7599484103
 20
34.1149419484
 30
0.0
 10
-27.6828591616
 20
32.5923922413
 30
0.0
 10
-26.7309642051
 20
30.9518530144
 30
0.0
 10
-25.909624153
 20
29.2025912335
 30
0.0
 10
-25.2231603191
 20
27.3545710838
 30
0.0
 10
-24.6754750054
 20
25.4181483179
 30
0.0
 10
-24.2693109593
 20
23.4042427253
 30
0.0
 10
-24.0070596296
 20
21.3241012771
 30
0.0
 10
-23.8898597197
 20
19.1893750943
 30
0.0
 10
-23.9185453256
 20
17.0119878028
 30
0.0
 10
-24.092636105
 20
14.8040825595
 30
0.0
 10
-24.4113834185
 20
12.5780176669
 30
0.0
 10
-24.8726948198
 20
10.3461701121
 30
0.0
 10
-25.4742467991
 20
8.1210686332
 30
0.0
 10
-26.212375128
 20
5.9150521947
 30
0.0
 10
-27.0832277094
 20
3.7405467744
 30
0.0
 10
-28.0816385893
 20
1.6095764643
 30
0.0
 10
-29.2023146973
 20
-0.4658118602
 30
0.0
 10
-30.438705969
 20
-2.4741812342
 30
0.0
 10
-31.7841917558
 20
-4.4041136647
 30
0.0
 10
-33.2309432068
 20
-6.2450202139
 30
0.0
 10
-34.7711769977
 20
-7.9863851469
 30
0.0
 10
-36.39605588
 20
-9.6187106147
 30
0.0
 10
-38.0967690681
 20
-11.1325892189
 30
0.0
 10
-39.8635030242
 20
-12.519853939
 30
0.0
 10
-41.6867492552
 20
-13.7724771426
 30
0.0
 10
-43.5563894434
 20
-14.8837293072
 30
0.0
 10
-45.4617142952
 20
-15.846761742
 30
0.0
 10
-46.7618715668
 20
-16.3924014485
 30
0.0
 10
-47.4142842273
 20
-16.6379638564
 30
0.0
  0
SPLINE
  5
408
100
AcDbEntity
  8
0
100
AcDbSpline
 62
7
  6
CONTINUOUS
 70
0
 71
3
 72
16
 73
12
 74
0
 42
0.0000001
 43
0.0000001
 44
0.0000000001
 40
0.0
 40
0.0
 40
0.0
 40
0.0
 40
0.1318986429
 40
0.2612413309
 40
0.3882571677
 40
0.5132343606
 40
0.5750730523
 40
0.6365273515
 40
0.7584501567
 40
0.8794574215
 40
1.0
 40
1.0
 40
1.0
 40
1.0
 10
-78.0935104663
 20
-15.1960692163
 30
0.0
 10
-78.9705111903
 20
-15.3661916195
 30
0.0
 10
-80.7214306732
 20
-15.636059575
 30
0.0
 10
-83.3473098958
 20
-15.8237966641
 30
0.0
 10
-85.9330108694
 20
-15.7896966761
 30
0.0
 10
-88.0508418612
 20
-15.5755106595
 30
0.0
 10
-89.7090166701
 20
-15.2931177434
 30
0.0
 10
-91.3322972914
 20
-14.939586279
 30
0.0
 10
-93.3146983744
 20
-14.3617807273
 30
0.0
 10
-95.6058774344
 20
-13.4518866379
 30
0.0
 10
-97.0646066421
 20
-12.7046414252
 30
0.0
 10
-97.7725744232
 20
-12.2980134172
 30
0.0
  0
SPLINE
  5
409
100
AcDbEntity
  8
0
100
AcDbSpline
 62
7
  6
CONTINUOUS
 70
0
 71
3
 72
21
 73
17
 74
0
 42
0.0000001
 43
0.0000001
 44
0.0000000001
 40
0.0
 40
0.0
 40
0.0
 40
0.0
 40
0.0588048684
 40
0.1177132007
 40
0.1768266564
 40
0.2362441456
 40
0.2960604478
 40
0.3563638542
 40
0.41723696
 40
0.4787542058
 40
0.5409811976
 40
0.6039760552
 40
0.7324031987
 40
0.7979505604
 40
0.8644001571
 40
1.0
 40
1.0
 40
1.0
 40
1.0
 10
-53.4462664971
 20
64.8782118359
 30
0.0
 10
-52.9694168431
 20
64.6043494866
 30
0.0
 10
-52.0322820875
 20
64.0251764885
 30
0.0
 10
-50.6837128144
 20
63.0664584423
 30
0.0
 10
-49.3946790711
 20
62.0198670728
 30
0.0
 10
-48.1684632351
 20
60.8878258937
 30
0.0
 10
-47.0079941337
 20
59.6730719085
 30
0.0
 10
-45.9159086543
 20
58.3786640282
 30
0.0
 10
-44.8949893767
 20
57.007563171
 30
0.0
 10
-43.9475850742
 20
55.563174754
 30
0.0
 10
-43.0758288853
 20
54.0489356352
 30
0.0
 10
-42.0107737082
 20
51.9284614958
 30
0.0
 10
-41.1132201449
 20
49.6933964679
 30
0.0
 10
-40.3852326725
 20
47.3686078041
 30
0.0
 10
-39.7600299101
 20
44.9447375046
 30
0.0
 10
-39.426149982
 20
43.0811021501
 30
0.0
 10
-39.2607461378
 20
41.8239140252
 30
0.0
  0
SPLINE
  5
40A
100
AcDbEntity
  8
0
100
AcDbSpline
 62
7
  6
CONTINUOUS
 70
0
 71
3
 72
18
 73
14
 74
0
 42
0.0000001
 43
0.0000001
 44
0.0000000001
 40
0.0
 40
0.0
 40
0.0
 40
0.0
 40
0.1150425769
 40
0.1738738602
 40
0.2335255466
 40
0.3551863492
 40
0.4171793719
 40
0.4798809705
 40
0.6071752034
 40
0.7366461516
 40
0.8020513456
 40
0.8677992214
 40
1.0
 40
1.0
 40
1.0
 40
1.0
 10
-73.3536332445
 20
53.9493941357
 30
0.0
 10
-74.2806560611
 20
53.6993082941
 30
0.0
 10
-75.6619614352
 20
53.2428731667
 30
0.0
 10
-77.4607574868
 20
52.4910574663
 30
0.0
 10
-79.2694770556
 20
51.6258226151
 30
0.0
 10
-81.0350302982
 20
50.6152739534
 30
0.0
 10
-82.7451111669
 20
49.4727182062
 30
0.0
 10
-84.4397808089
 20
48.2261015958
 30
0.0
 10
-86.4800142654
 20
46.5039179521
 30
0.0
 10
-88.3820409461
 20
44.5986041093
 30
0.0
 10
-89.8209817045
 20
42.9666190103
 30
0.0
 10
-91.2063098455
 20
41.2595787498
 30
0.0
 10
-92.1685951375
 20
39.913738365
 30
0.0
 10
-92.7740271372
 20
38.9913096981
 30
0.0
  0
SPLINE
  5
40B
100
AcDbEntity
  8
0
100
AcDbSpline
 62
7
  6
CONTINUOUS
 70
0
 71
3
 72
24
 73
20
 74
0
 42
0.0000001
 43
0.0000001
 44
0.0000000001
 40
0.0
 40
0.0
 40
0.0
 40
0.0
 40
0.0687830624
 40
0.1372713379
 40
0.2053044642
 40
0.2727289952
 40
0.3394019254
 40
0.4051921051
 40
0.4699845115
 40
0.5336810807
 40
0.596205421
 40
0.6575031944
 40
0.7175467882
 40
0.7471022638
 40
0.7763466869
 40
0.8339097481
 40
0.890306938
 40
0.945629824
 40
1.0
 40
1.0
 40
1.0
 40
1.0
 10
-94.9485840569
 20
35.2699400078
 30
0.0
 10
-95.3123651524
 20
34.5658333208
 30
0.0
 10
-95.9982753207
 20
33.1394896516
 30
0.0
 10
-96.8990206901
 20
30.9507752597
 30
0.0
 10
-97.6655993849
 20
28.7279778578
 30
0.0
 10
-98.2932746097
 20
26.4837313348
 30
0.0
 10
-98.7787803991
 20
24.2308736667
 30
0.0
 10
-99.1190047258
 20
21.9821577849
 30
0.0
 10
-99.3122930384
 20
19.75042619
 30
0.0
 10
-99.3571823748
 20
17.5483498922
 30
0.0
 10
-99.2536689316
 20
15.3884468422
 30
0.0
 10
-99.001970675
 20
13.2831072244
 30
0.0
 10
-98.668325882
 20
11.5749148682
 30
0.0
 10
-98.3279284022
 20
10.2482410983
 30
0.0
 10
-97.9437803887
 20
8.9633947599
 30
0.0
 10
-97.3764170855
 20
7.4118506299
 30
0.0
 10
-96.5541404317
 20
5.6405178836
 30
0.0
 10
-95.5988650504
 20
3.9794968048
 30
0.0
 10
-94.8707543731
 20
2.9437941401
 30
0.0
 10
-94.4867287324
 20
2.4488408422
 30
0.0
  0
SPLINE
  5
40C
100
AcDbEntity
  8
0
100
AcDbSpline
 62
7
  6
CONTINUOUS
 70
0
 71
3
 72
11
 73
7
 74
0
 42
0.0000001
 43
0.0000001
 44
0.0000000001
 40
0.0
 40
0.0
 40
0.0
 40
0.0
 40
0.2534896421
 40
0.5040229976
 40
0.7525274403
 40
1.0
 40
1.0
 40
1.0
 40
1.0
 10
-94.4867287324
 20
2.4488408422
 30
0.0
 10
-94.1092760855
 20
1.962359179
 30
0.0
 10
-93.3133193657
 20
1.0292787185
 30
0.0
 10
-91.997009095
 20
-0.2430534584
 30
0.0
 10
-90.5740232844
 20
-1.3715542878
 30
0.0
 10
-89.5584933205
 20
-2.0240759935
 30
0.0
 10
-89.0372385806
 20
-2.323480369
 30
0.0
  0
SPLINE
  5
40D
100
AcDbEntity
  8
0
100
AcDbSpline
 62
7
  6
CONTINUOUS
 70
0
 71
3
 72
15
 73
11
 74
0
 42
0.0000001
 43
0.0000001
 44
0.0000000001
 40
0.0
 40
0.0
 40
0.0
 40
0.0
 40
0.1378238606
 40
0.2717577042
 40
0.4014129773
 40
0.5269243014
 40
0.648774547
 40
0.7676485714
 40
0.8843853775
 40
1.0
 40
1.0
 40
1.0
 40
1.0
 10
-57.7326897344
 20
-18.2386755596
 30
0.0
 10
-57.7326720626
 20
-18.3429916154
 30
0.0
 10
-57.7220486038
 20
-18.5488583064
 30
0.0
 10
-57.6734742622
 20
-18.8493964483
 30
0.0
 10
-57.5926406246
 20
-19.1333428177
 30
0.0
 10
-57.4806623468
 20
-19.396664961
 30
0.0
 10
-57.3389266867
 20
-19.6358885615
 30
0.0
 10
-57.1691973236
 20
-19.8477879375
 30
0.0
 10
-56.9738572864
 20
-20.0294824068
 30
0.0
 10
-56.8277767836
 20
-20.1288372849
 30
0.0
 10
-56.7518961061
 20
-20.1724203355
 30
0.0
  0
SPLINE
  5
40E
100
AcDbEntity
  8
0
100
AcDbSpline
 62
7
  6
CONTINUOUS
 70
0
 71
3
 72
24
 73
20
 74
0
 42
0.0000001
 43
0.0000001
 44
0.0000000001
 40
0.0
 40
0.0
 40
0.0
 40
0.0
 40
0.0641609596
 40
0.1302412247
 40
0.1976802284
 40
0.266010754
 40
0.3347317723
 40
0.403271051
 40
0.4710757502
 40
0.5376378356
 40
0.6025215643
 40
0.6653789631
 40
0.726001651
 40
0.7843284428
 40
0.8404886422
 40
0.8947898467
 40
0.921419308
 40
0.9477828271
 40
1.0
 40
1.0
 40
1.0
 40
1.0
 10
-47.4137168587
 20
-19.9871146852
 30
0.0
 10
-47.4136949419
 20
-20.1164883745
 30
0.0
 10
-47.430363996
 20
-20.379330367
 30
0.0
 10
-47.501525822
 20
-20.7723456134
 30
0.0
 10
-47.6184397834
 20
-21.1630625875
 30
0.0
 10
-47.7784831951
 20
-21.5439021795
 30
0.0
 10
-47.9787597551
 20
-21.9077349256
 30
0.0
 10
-48.2153428844
 20
-22.2477902155
 30
0.0
 10
-48.4839191753
 20
-22.5574862621
 30
0.0
 10
-48.7793315052
 20
-22.8310191637
 30
0.0
 10
-49.0960595797
 20
-23.0631717936
 30
0.0
 10
-49.4281951642
 20
-23.2494558702
 30
0.0
 10
-49.7694813372
 20
-23.386319717
 30
0.0
 10
-50.1136026548
 20
-23.4708442278
 30
0.0
 10
-50.4539490223
 20
-23.5014085447
 30
0.0
 10
-50.7310478041
 20
-23.4807316427
 30
0.0
 10
-50.9431044705
 20
-23.4365671705
 30
0.0
 10
-51.1463607107
 20
-23.3751144915
 30
0.0
 10
-51.2914563147
 20
-23.30862765
 30
0.0
 10
-51.3827596057
 20
-23.2561894773
 30
0.0
  0
SPLINE
  5
40F
100
AcDbEntity
  8
0
100
AcDbSpline
 62
7
  6
CONTINUOUS
 70
0
 71
3
 72
10
 73
6
 74
0
 42
0.0000001
 43
0.0000001
 44
0.0000000001
 40
0.0
 40
0.0
 40
0.0
 40
0.0
 40
0.5064729537
 40
0.7548082902
 40
1.0
 40
1.0
 40
1.0
 40
1.0
 10
-52.3641224275
 20
-17.9732971728
 30
0.0
 10
-53.2649908619
 20
-18.1202818427
 30
0.0
 10
-54.6222302722
 20
-18.2624454006
 30
0.0
 10
-56.4251125358
 20
-18.283684157
 30
0.0
 10
-57.3141573157
 20
-18.2379315195
 30
0.0
 10
-57.7544949191
 20
-18.2009025681
 30
0.0
  0
SPLINE
  5
410
100
AcDbEntity
  8
0
100
AcDbSpline
 62
7
  6
CONTINUOUS
 70
0
 71
3
 72
11
 73
7
 74
0
 42
0.0000001
 43
0.0000001
 44
0.0000000001
 40
0.0
 40
0.0
 40
0.0
 40
0.0
 40
0.2543754401
 40
0.5050571631
 40
0.7531869736
 40
1.0
 40
1.0
 40
1.0
 40
1.0
 10
-57.7544949191
 20
-18.2009025681
 30
0.0
 10
-58.4517013129
 20
-18.1422729587
 30
0.0
 10
-59.8311894908
 20
-17.9544731385
 30
0.0
 10
-61.8458915248
 20
-17.4552330112
 30
0.0
 10
-63.7741678108
 20
-16.7449452558
 30
0.0
 10
-64.9939168902
 20
-16.1328013527
 30
0.0
 10
-65.5826018009
 20
-15.7947039203
 30
0.0
  0
SPLINE
  5
411
100
AcDbEntity
  8
0
100
AcDbSpline
 62
7
  6
CONTINUOUS
 70
0
 71
3
 72
41
 73
37
 74
0
 42
0.0000001
 43
0.0000001
 44
0.0000000001
 40
0.0
 40
0.0
 40
0.0
 40
0.0
 40
0.0297573072
 40
0.0601812001
 40
0.0912369918
 40
0.1229017302
 40
0.1551457228
 40
0.1879190955
 40
0.2211614777
 40
0.2548053537
 40
0.2887771345
 40
0.3229957272
 40
0.3573760235
 40
0.3918305506
 40
0.4262707138
 40
0.4606082557
 40
0.4947561784
 40
0.5286312962
 40
0.5621543475
 40
0.5952531352
 40
0.6278621059
 40
0.6599260169
 40
0.6913990875
 40
0.7222489577
 40
0.7524554964
 40
0.7673186386
 40
0.7820206785
 40
0.8109432118
 40
0.8392576432
 40
0.8670083896
 40
0.8806950333
 40
0.8942654351
 40
0.9210908619
 40
0.947584754
 40
0.9738504918
 40
1.0
 40
1.0
 40
1.0
 40
1.0
 10
-49.8984861565
 20
37.4904766736
 30
0.0
 10
-50.5100414543
 20
37.3254954902
 30
0.0
 10
-51.7336531115
 20
36.9409501632
 30
0.0
 10
-53.5375769782
 20
36.2168225498
 30
0.0
 10
-55.3191932831
 20
35.3427832704
 30
0.0
 10
-57.0674596647
 20
34.32476314
 30
0.0
 10
-58.7719071442
 20
33.1686481001
 30
0.0
 10
-60.4225978678
 20
31.8817532197
 30
0.0
 10
-62.0092583238
 20
30.4715195346
 30
0.0
 10
-63.5225991337
 20
28.9467962032
 30
0.0
 10
-64.9532381904
 20
27.3165214617
 30
0.0
 10
-66.2928629192
 20
25.5908187543
 30
0.0
 10
-67.5330413184
 20
23.7798722572
 30
0.0
 10
-68.6666145068
 20
21.8948605526
 30
0.0
 10
-69.6864069298
 20
19.9469679522
 30
0.0
 10
-70.5865969553
 20
17.9481398946
 30
0.0
 10
-71.3613963998
 20
15.9102864018
 30
0.0
 10
-72.0064596781
 20
13.8458502224
 30
0.0
 10
-72.5175279208
 20
11.7671748501
 30
0.0
 10
-72.8918409403
 20
9.6868999096
 30
0.0
 10
-73.1267547917
 20
7.6175007248
 30
0.0
 10
-73.2211626787
 20
5.5715188528
 30
0.0
 10
-73.1740812599
 20
3.5612470542
 30
0.0
 10
-72.986090434
 20
1.5989051749
 30
0.0
 10
-72.7110800919
 20
0.0046701465
 30
0.0
 10
-72.4209350413
 20
-1.2344232834
 30
0.0
 10
-72.088664237
 20
-2.434532743
 30
0.0
 10
-71.5897621269
 20
-3.88434838
 30
0.0
 10
-70.8561539519
 20
-5.5403944414
 30
0.0
 10
-70.1348110813
 20
-6.8407282314
 30
0.0
 10
-69.4964318265
 20
-7.8227557822
 30
0.0
 10
-68.8239711419
 20
-8.7575910871
 30
0.0
 10
-67.9100403777
 20
-9.8525521227
 30
0.0
 10
-66.6994402172
 20
-11.0415924172
 30
0.0
 10
-65.3861808464
 20
-12.0932583863
 30
0.0
 10
-64.4466135166
 20
-12.6992374641
 30
0.0
 10
-63.9639508401
 20
-12.9764827209
 30
0.0
  0
SPLINE
  5
412
100
AcDbEntity
  8
0
100
AcDbSpline
 62
7
  6
CONTINUOUS
 70
0
 71
3
 72
15
 73
11
 74
0
 42
0.0000001
 43
0.0000001
 44
0.0000000001
 40
0.0
 40
0.0
 40
0.0
 40
0.0
 40
0.1196162591
 40
0.2398075036
 40
0.3611294468
 40
0.4840822762
 40
0.6091072166
 40
0.7366031228
 40
0.8668751597
 40
1.0
 40
1.0
 40
1.0
 40
1.0
 10
-35.8242224821
 20
36.017403215
 30
0.0
 10
-36.3262690228
 20
36.3057827166
 30
0.0
 10
-37.3646497608
 20
36.8303239393
 30
0.0
 10
-39.0026675187
 20
37.4493330249
 30
0.0
 10
-40.7123347873
 20
37.8971236187
 30
0.0
 10
-42.4817778865
 20
38.1712380069
 30
0.0
 10
-44.2994048318
 20
38.2696664177
 30
0.0
 10
-46.1533727475
 20
38.1921991432
 30
0.0
 10
-48.0308760918
 20
37.9391579211
 30
0.0
 10
-49.2763652788
 20
37.6583081665
 30
0.0
 10
-49.8984861565
 20
37.4904766736
 30
0.0
  0
SPLINE
  5
413
100
AcDbEntity
  8
0
100
AcDbSpline
 62
7
  6
CONTINUOUS
 70
0
 71
3
 72
15
 73
11
 74
0
 42
0.0000001
 43
0.0000001
 44
0.0000000001
 40
0.0
 40
0.0
 40
0.0
 40
0.0
 40
0.1156147485
 40
0.2323533737
 40
0.3512283577
 40
0.4730800864
 40
0.5985938026
 40
0.7282504861
 40
0.8621817429
 40
1.0
 40
1.0
 40
1.0
 40
1.0
 10
-51.3827596057
 20
-23.2561894773
 30
0.0
 10
-51.4586413975
 20
-23.2126083264
 30
0.0
 10
-51.604724775
 20
-23.1132541235
 30
0.0
 10
-51.8000587984
 20
-22.9315510098
 30
0.0
 10
-51.9697990715
 20
-22.7196566877
 30
0.0
 10
-52.1115297977
 20
-22.4804255885
 30
0.0
 10
-52.2235107517
 20
-22.2171008881
 30
0.0
 10
-52.304341779
 20
-21.9331528573
 30
0.0
 10
-52.3529143191
 20
-21.6326200453
 30
0.0
 10
-52.3635373877
 20
-21.4267597266
 30
0.0
 10
-52.3635550588
 20
-21.3224480016
 30
0.0
  0
SPLINE
  5
414
100
AcDbEntity
  8
0
100
AcDbSpline
 62
7
  6
CONTINUOUS
 70
0
 71
3
 72
17
 73
13
 74
0
 42
0.0000001
 43
0.0000001
 44
0.0000000001
 40
0.0
 40
0.0
 40
0.0
 40
0.0
 40
0.1331174364
 40
0.2633734279
 40
0.3908542933
 40
0.5158696488
 40
0.6388141429
 40
0.6996647858
 40
0.7601668229
 40
0.8803491315
 40
0.940210394
 40
1.0
 40
1.0
 40
1.0
 40
1.0
 10
-49.8989922932
 20
40.4781776784
 30
0.0
 10
-49.2052805023
 20
40.6653224757
 30
0.0
 10
-47.816515614
 20
40.9785042831
 30
0.0
 10
-45.7230496507
 20
41.2606248171
 30
0.0
 10
-43.6558173284
 20
41.3470086116
 30
0.0
 10
-41.6291774156
 20
41.2372651165
 30
0.0
 10
-39.9789364126
 20
40.9816134807
 30
0.0
 10
-38.6947612469
 20
40.6799008204
 30
0.0
 10
-37.4423676434
 20
40.3161047695
 30
0.0
 10
-36.225110621
 20
39.8561324587
 30
0.0
 10
-35.0541628754
 20
39.3031437216
 30
0.0
 10
-34.4854131828
 20
38.9963619203
 30
0.0
 10
-34.2055741125
 20
38.8356208028
 30
0.0
  0
SPLINE
  5
415
100
AcDbEntity
  8
0
100
AcDbSpline
 62
7
  6
CONTINUOUS
 70
0
 71
3
 72
41
 73
37
 74
0
 42
0.0000001
 43
0.0000001
 44
0.0000000001
 40
0.0
 40
0.0
 40
0.0
 40
0.0
 40
0.0297573072
 40
0.0601812001
 40
0.0912369918
 40
0.1229017302
 40
0.1551457228
 40
0.1879190955
 40
0.2211614777
 40
0.2548053537
 40
0.2887771345
 40
0.3229957272
 40
0.3573760235
 40
0.3918305506
 40
0.4262707138
 40
0.4606082557
 40
0.4947561784
 40
0.5286312962
 40
0.5621543475
 40
0.5952531352
 40
0.6278621059
 40
0.6599260169
 40
0.6913990875
 40
0.7222489577
 40
0.7524554964
 40
0.7673186386
 40
0.7820206785
 40
0.8109432118
 40
0.8392576432
 40
0.8670083896
 40
0.8806950333
 40
0.8942654351
 40
0.9210908619
 40
0.947584754
 40
0.9738504918
 40
1.0
 40
1.0
 40
1.0
 40
1.0
 10
-49.8896871656
 20
-14.4495561795
 30
0.0
 10
-49.2781318679
 20
-14.2845749961
 30
0.0
 10
-48.0545202107
 20
-13.9000296691
 30
0.0
 10
-46.2505963439
 20
-13.1759020557
 30
0.0
 10
-44.468980039
 20
-12.3018627764
 30
0.0
 10
-42.7207136574
 20
-11.283842646
 30
0.0
 10
-41.016266178
 20
-10.127727606
 30
0.0
 10
-39.3655754544
 20
-8.8408327256
 30
0.0
 10
-37.7789149984
 20
-7.4305990405
 30
0.0
 10
-36.2655741884
 20
-5.9058757092
 30
0.0
 10
-34.8349351317
 20
-4.2756009677
 30
0.0
 10
-33.4953104029
 20
-2.5498982602
 30
0.0
 10
-32.2551320037
 20
-0.7389517632
 30
0.0
 10
-31.1215588153
 20
1.1460599414
 30
0.0
 10
-30.1017663923
 20
3.0939525418
 30
0.0
 10
-29.2015763668
 20
5.0927805995
 30
0.0
 10
-28.4267769224
 20
7.1306340923
 30
0.0
 10
-27.7817136441
 20
9.1950702716
 30
0.0
 10
-27.2706454013
 20
11.273745644
 30
0.0
 10
-26.8963323819
 20
13.3540205845
 30
0.0
 10
-26.6614185304
 20
15.4234197692
 30
0.0
 10
-26.5670106434
 20
17.4694016413
 30
0.0
 10
-26.6140920623
 20
19.4796734398
 30
0.0
 10
-26.8020828881
 20
21.4420153192
 30
0.0
 10
-27.0770932302
 20
23.0362503476
 30
0.0
 10
-27.3672382808
 20
24.2753437775
 30
0.0
 10
-27.6995090852
 20
25.475453237
 30
0.0
 10
-28.1984111953
 20
26.9252688741
 30
0.0
 10
-28.9320193702
 20
28.5813149354
 30
0.0
 10
-29.6533622408
 20
29.8816487254
 30
0.0
 10
-30.2917414956
 20
30.8636762762
 30
0.0
 10
-30.9642021803
 20
31.7985115812
 30
0.0
 10
-31.8781329445
 20
32.8934726168
 30
0.0
 10
-33.0887331049
 20
34.0825129112
 30
0.0
 10
-34.4019924757
 20
35.1341788804
 30
0.0
 10
-35.3415598055
 20
35.7401579582
 30
0.0
 10
-35.8242224821
 20
36.017403215
 30
0.0
  0
SPLINE
  5
416
100
AcDbEntity
  8
0
100
AcDbSpline
 62
7
  6
CONTINUOUS
 70
0
 71
3
 72
40
 73
36
 74
0
 42
0.0000001
 43
0.0000001
 44
0.0000000001
 40
0.0
 40
0.0
 40
0.0
 40
0.0
 40
0.0261512167
 40
0.0524193188
 40
0.0656363909
 40
0.0789238828
 40
0.1057520356
 40
0.1193235378
 40
0.1330114217
 40
0.1468249421
 40
0.1607721733
 40
0.1890889781
 40
0.2180143827
 40
0.2475759793
 40
0.2777853567
 40
0.3400727224
 40
0.3721389239
 40
0.4047505261
 40
0.4378515277
 40
0.471377047
 40
0.5052542742
 40
0.5394044831
 40
0.5737440491
 40
0.6081863952
 40
0.6426429283
 40
0.6770252822
 40
0.7112458891
 40
0.745219977
 40
0.7788662176
 40
0.8121108257
 40
0.844886492
 40
0.8771331889
 40
0.9088004991
 40
0.9398581685
 40
1.0
 40
1.0
 40
1.0
 40
1.0
 10
-65.5826018009
 20
-15.7947039203
 30
0.0
 10
-66.1208051402
 20
-15.4855993997
 30
0.0
 10
-67.168469431
 20
-14.8099891296
 30
0.0
 10
-68.3864431646
 20
-13.834385494
 30
0.0
 10
-69.3024698424
 20
-12.9795514974
 30
0.0
 10
-70.1838093784
 20
-12.0704538028
 30
0.0
 10
-71.0017472761
 20
-11.0903374207
 30
0.0
 10
-71.7516599205
 20
-10.0480609512
 30
0.0
 10
-72.2831225994
 20
-9.2304369612
 30
0.0
 10
-72.7805325674
 20
-8.3813440157
 30
0.0
 10
-73.4005223001
 20
-7.2032419728
 30
0.0
 10
-74.0859012584
 20
-5.6563423618
 30
0.0
 10
-74.7568412076
 20
-3.7060768891
 30
0.0
 10
-75.2768209436
 20
-1.6638077434
 30
0.0
 10
-75.7695418706
 20
1.1931779478
 30
0.0
 10
-75.9385043478
 20
4.1570144406
 30
0.0
 10
-75.7995590122
 20
7.1686371452
 30
0.0
 10
-75.5375262786
 20
9.4762557863
 30
0.0
 10
-75.1202103763
 20
11.7958138811
 30
0.0
 10
-74.5502666351
 20
14.1136010585
 30
0.0
 10
-73.8310481138
 20
16.4155307606
 30
0.0
 10
-72.9670560818
 20
18.6877726522
 30
0.0
 10
-71.9633585956
 20
20.9165432777
 30
0.0
 10
-70.8262098017
 20
23.0884676814
 30
0.0
 10
-69.5622793802
 20
25.1903264624
 30
0.0
 10
-68.1794127032
 20
27.2095524692
 30
0.0
 10
-66.6857231726
 20
29.1337842708
 30
0.0
 10
-65.0904837233
 20
30.9515670667
 30
0.0
 10
-63.403076804
 20
32.6517109959
 30
0.0
 10
-61.6338869207
 20
34.2241595839
 30
0.0
 10
-59.7932979951
 20
35.6591289881
 30
0.0
 10
-57.8928066646
 20
36.9482045723
 30
0.0
 10
-55.9431988551
 20
38.0834494556
 30
0.0
 10
-53.3239768725
 20
39.3685009424
 30
0.0
 10
-51.277083022
 20
40.1064058368
 30
0.0
 10
-49.8989922932
 20
40.4781776784
 30
0.0
  0
SPLINE
  5
417
100
AcDbEntity
  8
0
100
AcDbSpline
 62
7
  6
CONTINUOUS
 70
0
 71
3
 72
15
 73
11
 74
0
 42
0.0000001
 43
0.0000001
 44
0.0000000001
 40
0.0
 40
0.0
 40
0.0
 40
0.0
 40
0.1196162591
 40
0.2398075036
 40
0.3611294468
 40
0.4840822762
 40
0.6091072166
 40
0.7366031228
 40
0.8668751597
 40
1.0
 40
1.0
 40
1.0
 40
1.0
 10
-63.9639508401
 20
-12.9764827209
 30
0.0
 10
-63.4619042993
 20
-13.2648622226
 30
0.0
 10
-62.4235235613
 20
-13.7894034452
 30
0.0
 10
-60.7855058034
 20
-14.4084125308
 30
0.0
 10
-59.0758385348
 20
-14.8562031246
 30
0.0
 10
-57.3063954356
 20
-15.1303175129
 30
0.0
 10
-55.4887684904
 20
-15.2287459236
 30
0.0
 10
-53.6348005746
 20
-15.1512786492
 30
0.0
 10
-51.7572972303
 20
-14.898237427
 30
0.0
 10
-50.5118080433
 20
-14.6173876724
 30
0.0
 10
-49.8896871656
 20
-14.4495561795
 30
0.0
  0
SPLINE
  5
418
100
AcDbEntity
  8
0
100
AcDbSpline
 62
7
  6
CONTINUOUS
 70
0
 71
3
 72
15
 73
11
 74
0
 42
0.0000001
 43
0.0000001
 44
0.0000000001
 40
0.0
 40
0.0
 40
0.0
 40
0.0
 40
0.1208639643
 40
0.242156183
 40
0.3642951119
 40
0.4876712466
 40
0.6126306679
 40
0.7394905032
 40
0.8685390215
 40
1.0
 40
1.0
 40
1.0
 40
1.0
 10
-106.6623671177
 20
77.5683254296
 30
0.0
 10
-107.1043903129
 20
77.8222268406
 30
0.0
 10
-108.0139528735
 20
78.2904625016
 30
0.0
 10
-109.4403742417
 20
78.8668312022
 30
0.0
 10
-110.9232875977
 20
79.3149948227
 30
0.0
 10
-112.4552035316
 20
79.6327193572
 30
0.0
 10
-114.0285951536
 20
79.8188104745
 30
0.0
 10
-115.6359296751
 20
79.8720903461
 30
0.0
 10
-117.2694534983
 20
79.7926955565
 30
0.0
 10
-118.3605181271
 20
79.6526225814
 30
0.0
 10
-118.9074162368
 20
79.561428543
 30
0.0
  0
SPLINE
  5
419
100
AcDbEntity
  8
0
100
AcDbSpline
 62
7
  6
CONTINUOUS
 70
0
 71
3
 72
15
 73
11
 74
0
 42
0.0000001
 43
0.0000001
 44
0.0000000001
 40
0.0
 40
0.0
 40
0.0
 40
0.0
 40
0.1283838568
 40
0.2576846796
 40
0.3868647814
 40
0.5150376564
 40
0.641287168
 40
0.7647290893
 40
0.8845807151
 40
1.0
 40
1.0
 40
1.0
 40
1.0
 10
-92.5013489974
 20
64.9866922394
 30
0.0
 10
-92.6353726485
 20
65.7989951516
 30
0.0
 10
-92.9479957602
 20
67.4225173414
 30
0.0
 10
-93.5428146023
 20
69.8320707725
 30
0.0
 10
-94.2608302512
 20
72.2064953929
 30
0.0
 10
-95.094761362
 20
74.5219480551
 30
0.0
 10
-96.0362270554
 20
76.7559739969
 30
0.0
 10
-97.076299942
 20
78.8867384087
 30
0.0
 10
-98.20460177
 20
80.8928065619
 30
0.0
 10
-99.0250497435
 20
82.160445733
 30
0.0
 10
-99.4484296582
 20
82.7675434367
 30
0.0
  0
SPLINE
  5
41A
100
AcDbEntity
  8
0
100
AcDbSpline
 62
7
  6
CONTINUOUS
 70
0
 71
3
 72
12
 73
8
 74
0
 42
0.0000001
 43
0.0000001
 44
0.0000000001
 40
0.0
 40
0.0
 40
0.0
 40
0.0
 40
0.2589794477
 40
0.5135854215
 40
0.7614199417
 40
0.8820410318
 40
1.0
 40
1.0
 40
1.0
 40
1.0
 10
-99.3719177622
 20
69.8365542538
 30
0.0
 10
-99.6356938087
 20
70.6785150277
 30
0.0
 10
-100.2101743217
 20
72.3326725585
 30
0.0
 10
-101.2145485225
 20
74.7261894198
 30
0.0
 10
-102.1637324984
 20
76.6269095004
 30
0.0
 10
-102.9821300426
 20
78.068208028
 30
0.0
 10
-103.4092351839
 20
78.7600409529
 30
0.0
 10
-103.6269861141
 20
79.0978071129
 30
0.0
  0
SPLINE
  5
41B
100
AcDbEntity
  8
0
100
AcDbSpline
 62
7
  6
CONTINUOUS
 70
0
 71
3
 72
40
 73
36
 74
0
 42
0.0000001
 43
0.0000001
 44
0.0000000001
 40
0.0
 40
0.0
 40
0.0
 40
0.0
 40
0.0601388126
 40
0.0911959838
 40
0.1228621446
 40
0.1551075996
 40
0.1878824656
 40
0.221126366
 40
0.2547717561
 40
0.2887450229
 40
0.3229651086
 40
0.3573469481
 40
0.3918030469
 40
0.4262447778
 40
0.4605838763
 40
0.4947333473
 40
0.5286099997
 40
0.5621345657
 40
0.5952348452
 40
0.6278452835
 40
0.6599106368
 40
0.6913851233
 40
0.722236383
 40
0.7524442841
 40
0.7673080985
 40
0.7820108038
 40
0.8109346494
 40
0.8392503695
 40
0.8670023795
 40
0.8806896478
 40
0.8942606704
 40
0.9210873298
 40
0.9475824314
 40
0.9738493382
 40
1.0
 40
1.0
 40
1.0
 40
1.0
 10
-121.1102839179
 20
79.0805069462
 30
0.0
 10
-122.378978033
 20
78.7382473709
 30
0.0
 10
-124.2634047316
 20
78.0589096315
 30
0.0
 10
-126.6747390577
 20
76.875863702
 30
0.0
 10
-128.4696261267
 20
75.8307310898
 30
0.0
 10
-130.2192680065
 20
74.6439462946
 30
0.0
 10
-131.9137989506
 20
73.3228791696
 30
0.0
 10
-133.5425792241
 20
71.8752067279
 30
0.0
 10
-135.0960980875
 20
70.3100041067
 30
0.0
 10
-136.5647175531
 20
68.6364499395
 30
0.0
 10
-137.9399062549
 20
66.8649337923
 30
0.0
 10
-139.2130092433
 20
65.005909749
 30
0.0
 10
-140.3766783443
 20
63.0708534006
 30
0.0
 10
-141.4235454683
 20
61.0712460662
 30
0.0
 10
-142.3476350459
 20
59.019351291
 30
0.0
 10
-143.1430045453
 20
56.9273949523
 30
0.0
 10
-143.8051939949
 20
54.8081504479
 30
0.0
 10
-144.3298304788
 20
52.6742887586
 30
0.0
 10
-144.7140814108
 20
50.5387853179
 30
0.0
 10
-144.9552318761
 20
48.414446442
 30
0.0
 10
-145.0521466398
 20
46.3141466558
 30
0.0
 10
-145.0038152208
 20
44.2505049584
 30
0.0
 10
-144.8108340959
 20
42.2360655045
 30
0.0
 10
-144.5285224488
 20
40.5995056276
 30
0.0
 10
-144.2306748527
 20
39.3275156832
 30
0.0
 10
-143.8895827784
 20
38.0955445693
 30
0.0
 10
-143.3774351848
 20
36.6072378139
 30
0.0
 10
-142.6243509572
 20
34.9072249923
 30
0.0
 10
-141.8838568808
 20
33.572368518
 30
0.0
 10
-141.228529389
 20
32.5642687464
 30
0.0
 10
-140.5382152748
 20
31.6046140608
 30
0.0
 10
-139.6000197807
 20
30.4805827949
 30
0.0
 10
-138.3572794697
 20
29.259974672
 30
0.0
 10
-137.0091553966
 20
28.1803884841
 30
0.0
 10
-136.0446444821
 20
27.5583219887
 30
0.0
 10
-135.5491681257
 20
27.2737166844
 30
0.0
  0
SPLINE
  5
41C
100
AcDbEntity
  8
0
100
AcDbSpline
 62
7
  6
CONTINUOUS
 70
0
 71
3
 72
15
 73
11
 74
0
 42
0.0000001
 43
0.0000001
 44
0.0000000001
 40
0.0
 40
0.0
 40
0.0
 40
0.0
 40
0.1154192849
 40
0.2352709107
 40
0.358712832
 40
0.4849623436
 40
0.6131352186
 40
0.7423153204
 40
0.8716161432
 40
1.0
 40
1.0
 40
1.0
 40
1.0
 10
-103.573294825
 20
81.6547656731
 30
0.0
 10
-103.1499149103
 20
81.0476679693
 30
0.0
 10
-102.3294669369
 20
79.7800287983
 30
0.0
 10
-101.2011651088
 20
77.7739606451
 30
0.0
 10
-100.1610922223
 20
75.6431962333
 30
0.0
 10
-99.2196265288
 20
73.4091702915
 30
0.0
 10
-98.385695418
 20
71.0937176293
 30
0.0
 10
-97.6676797692
 20
68.7192930089
 30
0.0
 10
-97.072860927
 20
66.3097395778
 30
0.0
 10
-96.7602378154
 20
64.686217388
 30
0.0
 10
-96.6262141642
 20
63.8739144759
 30
0.0
  0
SPLINE
  5
41D
100
AcDbEntity
  8
0
100
AcDbSpline
 62
7
  6
CONTINUOUS
 70
0
 71
3
 72
13
 73
9
 74
0
 42
0.0000001
 43
0.0000001
 44
0.0000000001
 40
0.0
 40
0.0
 40
0.0
 40
0.0
 40
0.2488509437
 40
0.3740902186
 40
0.4995836265
 40
0.625129806
 40
0.7505265219
 40
1.0
 40
1.0
 40
1.0
 40
1.0
 10
-111.3991835722
 20
38.1631892832
 30
0.0
 10
-111.0274243457
 20
39.2842355805
 30
0.0
 10
-110.3865912132
 20
40.9438279993
 30
0.0
 10
-109.3785297888
 20
43.0905862836
 30
0.0
 10
-108.5443817238
 20
44.6704665478
 30
0.0
 10
-107.6368094446
 20
46.210206437
 30
0.0
 10
-106.3363246447
 20
48.1982379213
 30
0.0
 10
-105.2580020201
 20
49.617823802
 30
0.0
 10
-104.4974578908
 20
50.5252985357
 30
0.0
  0
SPLINE
  5
41E
100
AcDbEntity
  8
0
100
AcDbSpline
 62
7
  6
CONTINUOUS
 70
0
 71
3
 72
9
 73
5
 74
0
 42
0.0000001
 43
0.0000001
 44
0.0000000001
 40
0.0
 40
0.0
 40
0.0
 40
0.0
 40
0.2430825861
 40
1.0
 40
1.0
 40
1.0
 40
1.0
 10
-104.1428730088
 20
34.8376906244
 30
0.0
 10
-104.1499211658
 20
34.854742652
 30
0.0
 10
-104.1759332761
 20
34.9261226845
 30
0.0
 10
-104.190998772
 20
35.0012056653
 30
0.0
 10
-104.1977410637
 20
35.0582626697
 30
0.0
  0
SPLINE
  5
41F
100
AcDbEntity
  8
0
100
AcDbSpline
 62
7
  6
CONTINUOUS
 70
0
 71
3
 72
9
 73
5
 74
0
 42
0.0000001
 43
0.0000001
 44
0.0000000001
 40
0.0
 40
0.0
 40
0.0
 40
0.0
 40
0.2586006764
 40
1.0
 40
1.0
 40
1.0
 40
1.0
 10
-47.3663691845
 20
67.804606033
 30
0.0
 10
-47.3437587222
 20
67.8211433361
 30
0.0
 10
-47.2535934487
 20
67.8813075606
 30
0.0
 10
-47.1536921624
 20
67.9265953594
 30
0.0
 10
-47.0772436132
 20
67.951203945
 30
0.0
  0
SPLINE
  5
420
100
AcDbEntity
  8
0
100
AcDbSpline
 62
7
  6
CONTINUOUS
 70
0
 71
3
 72
9
 73
5
 74
0
 42
0.0000001
 43
0.0000001
 44
0.0000000001
 40
0.0
 40
0.0
 40
0.0
 40
0.0
 40
0.5077968475
 40
1.0
 40
1.0
 40
1.0
 40
1.0
 10
-35.0277386215
 20
59.3234945821
 30
0.0
 10
-34.8668924487
 20
59.3668864371
 30
0.0
 10
-34.5120157377
 20
59.3331540493
 30
0.0
 10
-34.2459448038
 20
59.1174041807
 30
0.0
 10
-34.1439669419
 20
58.9921985797
 30
0.0
  0
SPLINE
  5
421
100
AcDbEntity
  8
0
100
AcDbSpline
 62
7
  6
CONTINUOUS
 70
0
 71
3
 72
9
 73
5
 74
0
 42
0.0000001
 43
0.0000001
 44
0.0000000001
 40
0.0
 40
0.0
 40
0.0
 40
0.0
 40
0.4859395442
 40
1.0
 40
1.0
 40
1.0
 40
1.0
 10
-34.1439669419
 20
58.9921985797
 30
0.0
 10
-32.5772770963
 20
57.0686308597
 30
0.0
 10
-29.8900529218
 20
52.6520762837
 30
0.0
 10
-28.3511002228
 20
47.7335137442
 30
0.0
 10
-27.8300853043
 20
45.1613336098
 30
0.0
  0
SPLINE
  5
422
100
AcDbEntity
  8
0
100
AcDbSpline
 62
7
  6
CONTINUOUS
 70
0
 71
3
 72
10
 73
6
 74
0
 42
0.0000001
 43
0.0000001
 44
0.0000000001
 40
0.0
 40
0.0
 40
0.0
 40
0.0
 40
0.2405423034
 40
0.4835858074
 40
1.0
 40
1.0
 40
1.0
 40
1.0
 10
-27.6829562205
 20
45.1331188357
 30
0.0
 10
-27.6035321982
 20
45.1178866141
 30
0.0
 10
-27.4498892279
 20
45.0495620511
 30
0.0
 10
-27.2070658341
 20
44.8110574248
 30
0.0
 10
-27.1027270414
 20
44.5662167567
 30
0.0
 10
-27.0620360314
 20
44.39743148
 30
0.0
  0
SPLINE
  5
423
100
AcDbEntity
  8
0
100
AcDbSpline
 62
7
  6
CONTINUOUS
 70
0
 71
3
 72
9
 73
5
 74
0
 42
0.0000001
 43
0.0000001
 44
0.0000000001
 40
0.0
 40
0.0
 40
0.0
 40
0.0
 40
0.4881681195
 40
1.0
 40
1.0
 40
1.0
 40
1.0
 10
-27.0620360314
 20
44.39743148
 30
0.0
 10
-26.5060247983
 20
42.0910492145
 30
0.0
 10
-25.8241829645
 20
37.24859091
 30
0.0
 10
-25.9760816426
 20
32.3674820247
 30
0.0
 10
-26.2429435534
 20
29.8943783864
 30
0.0
  0
SPLINE
  5
424
100
AcDbEntity
  8
0
100
AcDbSpline
 62
7
  6
CONTINUOUS
 70
0
 71
3
 72
9
 73
5
 74
0
 42
0.0000001
 43
0.0000001
 44
0.0000000001
 40
0.0
 40
0.0
 40
0.0
 40
0.0
 40
0.258850338
 40
1.0
 40
1.0
 40
1.0
 40
1.0
 10
-56.7544736904
 20
-20.1704361942
 30
0.0
 10
-56.7970917501
 20
-20.2390391692
 30
0.0
 10
-56.9821149287
 20
-20.4910157871
 30
0.0
 10
-57.2307224112
 20
-20.6949631705
 30
0.0
 10
-57.4332835731
 20
-20.8065095492
 30
0.0
  0
SPLINE
  5
425
100
AcDbEntity
  8
0
100
AcDbSpline
 62
7
  6
CONTINUOUS
 70
0
 71
3
 72
9
 73
5
 74
0
 42
0.0000001
 43
0.0000001
 44
0.0000000001
 40
0.0
 40
0.0
 40
0.0
 40
0.0
 40
0.5148619079
 40
1.0
 40
1.0
 40
1.0
 40
1.0
 10
-57.4332835731
 20
-20.8065095492
 30
0.0
 10
-59.8521140285
 20
-22.1384939778
 30
0.0
 10
-64.8095720648
 20
-24.2901697823
 30
0.0
 10
-70.1305470449
 20
-25.3175671497
 30
0.0
 10
-72.7270355332
 20
-25.4854533553
 30
0.0
  0
SPLINE
  5
426
100
AcDbEntity
  8
0
100
AcDbSpline
 62
7
  6
CONTINUOUS
 70
0
 71
3
 72
9
 73
5
 74
0
 42
0.0000001
 43
0.0000001
 44
0.0000000001
 40
0.0
 40
0.0
 40
0.0
 40
0.0
 40
0.2713046035
 40
1.0
 40
1.0
 40
1.0
 40
1.0
 10
-72.8396114145
 20
-25.6413021273
 30
0.0
 10
-72.9006820749
 20
-25.7258461436
 30
0.0
 10
-73.1670400779
 20
-26.006412774
 30
0.0
 10
-73.5473558788
 20
-26.1712836334
 30
0.0
 10
-73.8259141769
 20
-26.2008559332
 30
0.0
  0
SPLINE
  5
427
100
AcDbEntity
  8
0
100
AcDbSpline
 62
7
  6
CONTINUOUS
 70
0
 71
3
 72
9
 73
5
 74
0
 42
0.0000001
 43
0.0000001
 44
0.0000000001
 40
0.0
 40
0.0
 40
0.0
 40
0.0
 40
0.5100388597
 40
1.0
 40
1.0
 40
1.0
 40
1.0
 10
-73.8259141769
 20
-26.2008559332
 30
0.0
 10
-76.2959582511
 20
-26.4630639235
 30
0.0
 10
-81.224588932
 20
-26.4079070153
 30
0.0
 10
-85.9720979888
 20
-25.0356191318
 30
0.0
 10
-88.14654057
 20
-24.0530326345
 30
0.0
  0
SPLINE
  5
428
100
AcDbEntity
  8
0
100
AcDbSpline
 62
7
  6
CONTINUOUS
 70
0
 71
3
 72
9
 73
5
 74
0
 42
0.0000001
 43
0.0000001
 44
0.0000000001
 40
0.0
 40
0.0
 40
0.0
 40
0.0
 40
0.5270568002
 40
1.0
 40
1.0
 40
1.0
 40
1.0
 10
-88.293645231
 20
-24.1606271893
 30
0.0
 10
-88.4428099469
 20
-24.2697263351
 30
0.0
 10
-88.7908208077
 20
-24.3970491972
 30
0.0
 10
-89.1515325931
 20
-24.3451944938
 30
0.0
 10
-89.3057222975
 20
-24.2841594401
 30
0.0
  0
SPLINE
  5
429
100
AcDbEntity
  8
0
100
AcDbSpline
 62
7
  6
CONTINUOUS
 70
0
 71
3
 72
9
 73
5
 74
0
 42
0.0000001
 43
0.0000001
 44
0.0000000001
 40
0.0
 40
0.0
 40
0.0
 40
0.0
 40
0.5117844072
 40
1.0
 40
1.0
 40
1.0
 40
1.0
 10
-100.6325968539
 20
-15.6796024381
 30
0.0
 10
-100.7659794803
 20
-15.7155854857
 30
0.0
 10
-101.0523386488
 20
-15.706490935
 30
0.0
 10
-101.2924322543
 20
-15.5644386887
 30
0.0
 10
-101.3915253099
 20
-15.4775544578
 30
0.0
  0
SPLINE
  5
42A
100
AcDbEntity
  8
0
100
AcDbSpline
 62
7
  6
CONTINUOUS
 70
0
 71
3
 72
9
 73
5
 74
0
 42
0.0000001
 43
0.0000001
 44
0.0000000001
 40
0.0
 40
0.0
 40
0.0
 40
0.0
 40
0.4949104186
 40
1.0
 40
1.0
 40
1.0
 40
1.0
 10
-107.9770581951
 20
-1.489139992
 30
0.0
 10
-108.0689845309
 20
-1.4715100322
 30
0.0
 10
-108.2461973198
 20
-1.3849053105
 30
0.0
 10
-108.3728956682
 20
-1.2398607174
 30
0.0
 10
-108.4257341622
 20
-1.1602776507
 30
0.0
  0
SPLINE
  5
42B
100
AcDbEntity
  8
0
100
AcDbSpline
 62
7
  6
CONTINUOUS
 70
0
 71
3
 72
9
 73
5
 74
0
 42
0.0000001
 43
0.0000001
 44
0.0000000001
 40
0.0
 40
0.0
 40
0.0
 40
0.0
 40
0.2421744038
 40
1.0
 40
1.0
 40
1.0
 40
1.0
 10
-109.2098159257
 20
16.2501438103
 30
0.0
 10
-109.2333358084
 20
16.2700039773
 30
0.0
 10
-109.3231010354
 20
16.3608074933
 30
0.0
 10
-109.3830396633
 20
16.4774153817
 30
0.0
 10
-109.4152802825
 20
16.5681886058
 30
0.0
  0
SPLINE
  5
42C
100
AcDbEntity
  8
0
100
AcDbSpline
 62
7
  6
CONTINUOUS
 70
0
 71
3
 72
8
 73
4
 74
0
 42
0.0000001
 43
0.0000001
 44
0.0000000001
 40
0.0
 40
0.0
 40
0.0
 40
0.0
 40
1.0
 40
1.0
 40
1.0
 40
1.0
 10
-105.7438623021
 20
-0.6401984282
 30
0.0
 10
-105.6707284552
 20
-0.4078805297
 30
0.0
 10
-105.5280967628
 20
-0.195370721
 30
0.0
 10
-105.3619505385
 20
-0.0172819857
 30
0.0
  0
SPLINE
  5
42D
100
AcDbEntity
  8
0
100
AcDbSpline
 62
7
  6
CONTINUOUS
 70
0
 71
3
 72
9
 73
5
 74
0
 42
0.0000001
 43
0.0000001
 44
0.0000000001
 40
0.0
 40
0.0
 40
0.0
 40
0.0
 40
0.2565776232
 40
1.0
 40
1.0
 40
1.0
 40
1.0
 10
-105.3619505385
 20
-0.0172819857
 30
0.0
 10
-105.3234981887
 20
0.0239343006
 30
0.0
 10
-105.1672946337
 20
0.1785362746
 30
0.0
 10
-104.9880554314
 20
0.3099055357
 30
0.0
 10
-104.8460646669
 20
0.3906112008
 30
0.0
  0
SPLINE
  5
42E
100
AcDbEntity
  8
0
100
AcDbSpline
 62
7
  6
CONTINUOUS
 70
0
 71
3
 72
8
 73
4
 74
0
 42
0.0000001
 43
0.0000001
 44
0.0000000001
 40
0.0
 40
0.0
 40
0.0
 40
0.0
 40
1.0
 40
1.0
 40
1.0
 40
1.0
 10
-104.9641049587
 20
23.7378054619
 30
0.0
 10
-105.1131606354
 20
23.8252719857
 30
0.0
 10
-105.2440412063
 20
23.9575153439
 30
0.0
 10
-105.3246531114
 20
24.1103868858
 30
0.0
  0
SPLINE
  5
42F
100
AcDbEntity
  8
0
100
AcDbSpline
 62
7
  6
CONTINUOUS
 70
0
 71
3
 72
9
 73
5
 74
0
 42
0.0000001
 43
0.0000001
 44
0.0000000001
 40
0.0
 40
0.0
 40
0.0
 40
0.0
 40
0.4954478366
 40
1.0
 40
1.0
 40
1.0
 40
1.0
 10
-105.3246531114
 20
24.1103868858
 30
0.0
 10
-105.372025338
 20
24.2002230621
 30
0.0
 10
-105.4365178598
 20
24.399916505
 30
0.0
 10
-105.4262029814
 20
24.6096268721
 30
0.0
 10
-105.4034369896
 20
24.7105176187
 30
0.0
  0
SPLINE
  5
430
100
AcDbEntity
  8
0
100
AcDbSpline
 62
7
  6
CONTINUOUS
 70
0
 71
3
 72
9
 73
5
 74
0
 42
0.0000001
 43
0.0000001
 44
0.0000000001
 40
0.0
 40
0.0
 40
0.0
 40
0.0
 40
0.4972513489
 40
1.0
 40
1.0
 40
1.0
 40
1.0
 10
-92.5123136041
 20
-17.5953077832
 30
0.0
 10
-93.6463600499
 20
-16.8983603716
 30
0.0
 10
-95.8250108909
 20
-15.3238187617
 30
0.0
 10
-97.7475910255
 20
-13.4460215706
 30
0.0
 10
-98.6414233727
 20
-12.4399136745
 30
0.0
  0
SPLINE
  5
431
100
AcDbEntity
  8
0
100
AcDbSpline
 62
7
  6
CONTINUOUS
 70
0
 71
3
 72
9
 73
5
 74
0
 42
0.0000001
 43
0.0000001
 44
0.0000000001
 40
0.0
 40
0.0
 40
0.0
 40
0.0
 40
0.4893766423
 40
1.0
 40
1.0
 40
1.0
 40
1.0
 10
-99.7009483237
 20
-11.1761517985
 30
0.0
 10
-100.9727564947
 20
-9.5685651363
 30
0.0
 10
-103.2294754638
 20
-6.0017653517
 30
0.0
 10
-104.7605524285
 20
-2.0752782528
 30
0.0
 10
-105.3653805137
 20
-0.0237455541
 30
0.0
  0
SPLINE
  5
432
100
AcDbEntity
  8
0
100
AcDbSpline
 62
7
  6
CONTINUOUS
 70
0
 71
3
 72
9
 73
5
 74
0
 42
0.0000001
 43
0.0000001
 44
0.0000000001
 40
0.0
 40
0.0
 40
0.0
 40
0.0
 40
0.4955094749
 40
1.0
 40
1.0
 40
1.0
 40
1.0
 10
-43.0832199665
 20
66.3522076063
 30
0.0
 10
-41.5567831074
 20
65.4757870464
 30
0.0
 10
-38.6562799957
 20
63.3739577136
 30
0.0
 10
-36.2552099644
 20
60.7193967149
 30
0.0
 10
-35.1869768434
 20
59.2805345073
 30
0.0
  0
SPLINE
  5
433
100
AcDbEntity
  8
0
100
AcDbSpline
 62
7
  6
CONTINUOUS
 70
0
 71
3
 72
9
 73
5
 74
0
 42
0.0000001
 43
0.0000001
 44
0.0000000001
 40
0.0
 40
0.0
 40
0.0
 40
0.0
 40
0.2449179595
 40
1.0
 40
1.0
 40
1.0
 40
1.0
 10
-115.8574527448
 20
17.691811495
 30
0.0
 10
-115.8309163917
 20
19.0262338234
 30
0.0
 10
-115.5022703721
 20
24.4690991138
 30
0.0
 10
-114.3213812177
 20
29.8520731006
 30
0.0
 10
-113.0277555338
 20
33.7582756335
 30
0.0
  0
SPLINE
  5
434
100
AcDbEntity
  8
0
100
AcDbSpline
 62
7
  6
CONTINUOUS
 70
0
 71
3
 72
9
 73
5
 74
0
 42
0.0000001
 43
0.0000001
 44
0.0000000001
 40
0.0
 40
0.0
 40
0.0
 40
0.0
 40
0.2543840959
 40
1.0
 40
1.0
 40
1.0
 40
1.0
 10
-103.3759276089
 20
51.8688590344
 30
0.0
 10
-102.5130766973
 20
52.9845530437
 30
0.0
 10
-98.9697229669
 20
57.2500937001
 30
0.0
 10
-94.8175727854
 20
61.0186091227
 30
0.0
 10
-91.449500937
 20
63.4157535435
 30
0.0
  0
SPLINE
  5
435
100
AcDbEntity
  8
0
100
AcDbSpline
 62
7
  6
CONTINUOUS
 70
0
 71
3
 72
9
 73
5
 74
0
 42
0.0000001
 43
0.0000001
 44
0.0000000001
 40
0.0
 40
0.0
 40
0.0
 40
0.0
 40
0.252864966
 40
1.0
 40
1.0
 40
1.0
 40
1.0
 10
-90.0569195858
 20
64.3729684265
 30
0.0
 10
-89.602262933
 20
64.6745717974
 30
0.0
 10
-87.7852133787
 20
65.838298907
 30
0.0
 10
-85.8918465692
 20
66.8835216596
 30
0.0
 10
-84.4416126891
 20
67.5874988699
 30
0.0
  0
SPLINE
  5
436
100
AcDbEntity
  8
0
100
AcDbSpline
 62
7
  6
CONTINUOUS
 70
0
 71
3
 72
9
 73
5
 74
0
 42
0.0000001
 43
0.0000001
 44
0.0000000001
 40
0.0
 40
0.0
 40
0.0
 40
0.0
 40
0.2570638801
 40
1.0
 40
1.0
 40
1.0
 40
1.0
 10
-101.676686649
 20
13.4066787507
 30
0.0
 10
-101.6765466099
 20
12.5800344673
 30
0.0
 10
-101.5790279668
 20
9.3656260606
 30
0.0
 10
-101.0809516302
 20
6.159023419
 30
0.0
 10
-100.460981048
 20
3.8517961785
 30
0.0
  0
SPLINE
  5
437
100
AcDbEntity
  8
0
100
AcDbSpline
 62
7
  6
CONTINUOUS
 70
0
 71
3
 72
9
 73
5
 74
0
 42
0.0000001
 43
0.0000001
 44
0.0000000001
 40
0.0
 40
0.0
 40
0.0
 40
0.0
 40
0.2551732652
 40
1.0
 40
1.0
 40
1.0
 40
1.0
 10
-100.4643293366
 20
23.6165874412
 30
0.0
 10
-100.6641435437
 20
22.7640878066
 30
0.0
 10
-101.3562427844
 20
19.4029164214
 30
0.0
 10
-101.6771196194
 20
15.9624826453
 30
0.0
 10
-101.676686649
 20
13.4066787507
 30
0.0
  0
SPLINE
  5
438
100
AcDbEntity
  8
0
100
AcDbSpline
 62
7
  6
CONTINUOUS
 70
0
 71
3
 72
9
 73
5
 74
0
 42
0.0000001
 43
0.0000001
 44
0.0000000001
 40
0.0
 40
0.0
 40
0.0
 40
0.0
 40
0.3018391257
 40
1.0
 40
1.0
 40
1.0
 40
1.0
 10
-37.4110824149
 20
40.6809439046
 30
0.0
 10
-37.4083071294
 20
40.7039775236
 30
0.0
 10
-37.395263571
 20
40.7788088774
 30
0.0
 10
-37.3520435527
 20
40.8546401853
 30
0.0
 10
-37.3053816593
 20
40.8811419793
 30
0.0
  0
SPLINE
  5
439
100
AcDbEntity
  8
0
100
AcDbSpline
 62
7
  6
CONTINUOUS
 70
0
 71
3
 72
9
 73
5
 74
0
 42
0.0000001
 43
0.0000001
 44
0.0000000001
 40
0.0
 40
0.0
 40
0.0
 40
0.0
 40
0.5112618898
 40
1.0
 40
1.0
 40
1.0
 40
1.0
 10
-68.6848497941
 20
65.0425710404
 30
0.0
 10
-66.5129669517
 20
65.6284761691
 30
0.0
 10
-62.1520678193
 20
66.4022579826
 30
0.0
 10
-57.7167739422
 20
66.2942152365
 30
0.0
 10
-55.5857315012
 20
66.0061727473
 30
0.0
  0
SPLINE
  5
43A
100
AcDbEntity
  8
0
100
AcDbSpline
 62
7
  6
CONTINUOUS
 70
0
 71
3
 72
9
 73
5
 74
0
 42
0.0000001
 43
0.0000001
 44
0.0000000001
 40
0.0
 40
0.0
 40
0.0
 40
0.0
 40
0.502704911
 40
1.0
 40
1.0
 40
1.0
 40
1.0
 10
-53.6906843412
 20
65.6858840822
 30
0.0
 10
-52.3838781661
 20
65.4198381344
 30
0.0
 10
-49.8179197495
 20
64.7069006869
 30
0.0
 10
-47.3830125648
 20
63.6266964351
 30
0.0
 10
-46.2200088948
 20
63.0039024311
 30
0.0
  0
SPLINE
  5
43B
100
AcDbEntity
  8
0
100
AcDbSpline
 62
7
  6
CONTINUOUS
 70
0
 71
3
 72
13
 73
9
 74
0
 42
0.0000001
 43
0.0000001
 44
0.0000000001
 40
0.0
 40
0.0
 40
0.0
 40
0.0
 40
0.2578806516
 40
0.5170167029
 40
0.6438786104
 40
0.767184072
 40
0.8860563472
 40
1.0
 40
1.0
 40
1.0
 40
1.0
 10
-105.3967027506
 20
24.7383425661
 30
0.0
 10
-104.2018889856
 20
29.4798536767
 30
0.0
 10
-100.570766343
 20
38.7078485682
 30
0.0
 10
-93.4680391488
 20
48.7909865864
 30
0.0
 10
-86.5206566074
 20
55.5316453198
 30
0.0
 10
-80.8875402377
 20
59.7202232422
 30
0.0
 10
-74.9413663888
 20
62.966494419
 30
0.0
 10
-70.7707873847
 20
64.4798306748
 30
0.0
 10
-68.6848497941
 20
65.0425710404
 30
0.0
  0
SPLINE
  5
43C
100
AcDbEntity
  8
0
100
AcDbSpline
 62
7
  6
CONTINUOUS
 70
0
 71
3
 72
9
 73
5
 74
0
 42
0.0000001
 43
0.0000001
 44
0.0000000001
 40
0.0
 40
0.0
 40
0.0
 40
0.0
 40
0.5105266741
 40
1.0
 40
1.0
 40
1.0
 40
1.0
 10
-93.0365545194
 20
52.5663394689
 30
0.0
 10
-91.0092080567
 20
54.7942373905
 30
0.0
 10
-86.6699910352
 20
58.8394941336
 30
0.0
 10
-81.6727660333
 20
62.0515311561
 30
0.0
 10
-79.09801209
 20
63.3597236001
 30
0.0
  0
SPLINE
  5
43D
100
AcDbEntity
  8
0
100
AcDbSpline
 62
7
  6
CONTINUOUS
 70
0
 71
3
 72
9
 73
5
 74
0
 42
0.0000001
 43
0.0000001
 44
0.0000000001
 40
0.0
 40
0.0
 40
0.0
 40
0.0
 40
0.5067332598
 40
1.0
 40
1.0
 40
1.0
 40
1.0
 10
-93.036546246
 20
52.5663474294
 30
0.0
 10
-92.8755911724
 20
53.918713294
 30
0.0
 10
-92.4047689314
 20
56.5765884944
 30
0.0
 10
-91.4431598105
 20
59.1083018807
 30
0.0
 10
-90.851381902
 20
60.2946094209
 30
0.0
  0
SPLINE
  5
43E
100
AcDbEntity
  8
0
100
AcDbSpline
 62
7
  6
CONTINUOUS
 70
0
 71
3
 72
9
 73
5
 74
0
 42
0.0000001
 43
0.0000001
 44
0.0000000001
 40
0.0
 40
0.0
 40
0.0
 40
0.0
 40
0.4957384066
 40
1.0
 40
1.0
 40
1.0
 40
1.0
 10
-90.851381902
 20
60.2946094209
 30
0.0
 10
-90.0981000124
 20
61.8046759046
 30
0.0
 10
-88.176202425
 20
64.6723148796
 30
0.0
 10
-85.5094532767
 20
66.8743554439
 30
0.0
 10
-84.0472384216
 20
67.7734803412
 30
0.0
  0
SPLINE
  5
43F
100
AcDbEntity
  8
0
100
AcDbSpline
 62
7
  6
CONTINUOUS
 70
0
 71
3
 72
9
 73
5
 74
0
 42
0.0000001
 43
0.0000001
 44
0.0000000001
 40
0.0
 40
0.0
 40
0.0
 40
0.0
 40
0.4882649183
 40
1.0
 40
1.0
 40
1.0
 40
1.0
 10
-84.0472384216
 20
67.7734803412
 30
0.0
 10
-82.9960117313
 20
68.4198860911
 30
0.0
 10
-80.706428832
 20
69.5300178789
 30
0.0
 10
-78.2574732117
 20
70.2100242446
 30
0.0
 10
-76.9868766479
 20
70.4517470526
 30
0.0
  0
SPLINE
  5
440
100
AcDbEntity
  8
0
100
AcDbSpline
 62
7
  6
CONTINUOUS
 70
0
 71
3
 72
9
 73
5
 74
0
 42
0.0000001
 43
0.0000001
 44
0.0000000001
 40
0.0
 40
0.0
 40
0.0
 40
0.0
 40
0.4935960981
 40
1.0
 40
1.0
 40
1.0
 40
1.0
 10
-109.4733552455
 20
17.2782208695
 30
0.0
 10
-109.0939402338
 20
20.2639311985
 30
0.0
 10
-107.7696428264
 20
26.251673975
 30
0.0
 10
-105.467862176
 20
31.9308935816
 30
0.0
 10
-104.0819058956
 20
34.6901943901
 30
0.0
  0
SPLINE
  5
441
100
AcDbEntity
  8
0
100
AcDbSpline
 62
7
  6
CONTINUOUS
 70
0
 71
3
 72
9
 73
5
 74
0
 42
0.0000001
 43
0.0000001
 44
0.0000000001
 40
0.0
 40
0.0
 40
0.0
 40
0.0
 40
0.5159974417
 40
1.0
 40
1.0
 40
1.0
 40
1.0
 10
-47.0772436132
 20
67.951203945
 30
0.0
 10
-46.9570639821
 20
67.98988945
 30
0.0
 10
-46.7087598376
 20
68.0232080362
 30
0.0
 10
-46.4644032951
 20
67.9717251214
 30
0.0
 10
-46.3542921181
 20
67.9281382838
 30
0.0
  0
SPLINE
  5
442
100
AcDbEntity
  8
0
100
AcDbSpline
 62
7
  6
CONTINUOUS
 70
0
 71
3
 72
9
 73
5
 74
0
 42
0.0000001
 43
0.0000001
 44
0.0000000001
 40
0.0
 40
0.0
 40
0.0
 40
0.0
 40
0.2108713836
 40
1.0
 40
1.0
 40
1.0
 40
1.0
 10
-74.5309935945
 20
70.8030717359
 30
0.0
 10
-74.5346934975
 20
70.8040640147
 30
0.0
 10
-74.5530483662
 20
70.8048528193
 30
0.0
 10
-74.5710928976
 20
70.8032560334
 30
0.0
 10
-74.5853542434
 20
70.8018030435
 30
0.0
  0
SPLINE
  5
443
100
AcDbEntity
  8
0
100
AcDbSpline
 62
7
  6
CONTINUOUS
 70
0
 71
3
 72
9
 73
5
 74
0
 42
0.0000001
 43
0.0000001
 44
0.0000000001
 40
0.0
 40
0.0
 40
0.0
 40
0.0
 40
0.7456576583
 40
1.0
 40
1.0
 40
1.0
 40
1.0
 10
-32.7085794701
 20
43.63365614
 30
0.0
 10
-32.7242486947
 20
43.7284390293
 30
0.0
 10
-32.7873985605
 20
43.8505208645
 30
0.0
 10
-32.8784662796
 20
43.9414287102
 30
0.0
 10
-32.9030801005
 20
43.963061358
 30
0.0
  0
SPLINE
  5
444
100
AcDbEntity
  8
0
100
AcDbSpline
 62
7
  6
CONTINUOUS
 70
0
 71
3
 72
8
 73
4
 74
0
 42
0.0000001
 43
0.0000001
 44
0.0000000001
 40
0.0
 40
0.0
 40
0.0
 40
0.0
 40
1.0
 40
1.0
 40
1.0
 40
1.0
 10
-79.0371035931
 20
63.5401001756
 30
0.0
 10
-78.9790584778
 20
63.7119920477
 30
0.0
 10
-78.8797086649
 20
63.8714510823
 30
0.0
 10
-78.7628731491
 20
64.0102513466
 30
0.0
  0
SPLINE
  5
445
100
AcDbEntity
  8
0
100
AcDbSpline
 62
7
  6
CONTINUOUS
 70
0
 71
3
 72
9
 73
5
 74
0
 42
0.0000001
 43
0.0000001
 44
0.0000000001
 40
0.0
 40
0.0
 40
0.0
 40
0.0
 40
0.2543994185
 40
1.0
 40
1.0
 40
1.0
 40
1.0
 10
-78.7628731491
 20
64.0102513466
 30
0.0
 10
-78.7378264405
 20
64.040006766
 30
0.0
 10
-78.6356219474
 20
64.1537729222
 30
0.0
 10
-78.5196818055
 20
64.255106531
 30
0.0
 10
-78.4276241584
 20
64.3223321981
 30
0.0
  0
SPLINE
  5
446
100
AcDbEntity
  8
0
100
AcDbSpline
 62
7
  6
CONTINUOUS
 70
0
 71
3
 72
15
 73
11
 74
0
 42
0.0000001
 43
0.0000001
 44
0.0000000001
 40
0.0
 40
0.0
 40
0.0
 40
0.0
 40
0.1312697584
 40
0.2572354852
 40
0.3792461968
 40
0.4991826822
 40
0.6192422467
 40
0.7416033311
 40
0.8680959124
 40
1.0
 40
1.0
 40
1.0
 40
1.0
 10
-105.7658880794
 20
-1.1039009884
 30
0.0
 10
-105.1724389678
 20
-3.1453585376
 30
0.0
 10
-103.6775832234
 20
-7.0607185779
 30
0.0
 10
-100.4587074948
 20
-12.3339182938
 30
0.0
 10
-96.3864634135
 20
-16.740716515
 30
0.0
 10
-91.5654030882
 20
-20.1533235355
 30
0.0
 10
-86.1280084667
 20
-22.474651906
 30
0.0
 10
-80.226575218
 20
-23.6434369067
 30
0.0
 10
-74.0245687118
 20
-23.6378146659
 30
0.0
 10
-69.8850347231
 20
-22.8738075795
 30
0.0
 10
-67.8225296985
 20
-22.317399155
 30
0.0
  0
SPLINE
  5
447
100
AcDbEntity
  8
0
100
AcDbSpline
 62
7
  6
CONTINUOUS
 70
0
 71
3
 72
9
 73
5
 74
0
 42
0.0000001
 43
0.0000001
 44
0.0000000001
 40
0.0
 40
0.0
 40
0.0
 40
0.0
 40
0.2436749532
 40
1.0
 40
1.0
 40
1.0
 40
1.0
 10
-67.8225296985
 20
-22.317399155
 30
0.0
 10
-66.9696621063
 20
-22.0873183999
 30
0.0
 10
-63.5017800556
 20
-21.025820575
 30
0.0
 10
-60.1769164223
 20
-19.5122095223
 30
0.0
 10
-57.7864077121
 20
-18.1694975764
 30
0.0
  0
SPLINE
  5
448
100
AcDbEntity
  8
0
100
AcDbSpline
 62
7
  6
CONTINUOUS
 70
0
 71
3
 72
9
 73
5
 74
0
 42
0.0000001
 43
0.0000001
 44
0.0000000001
 40
0.0
 40
0.0
 40
0.0
 40
0.0
 40
0.2579395235
 40
1.0
 40
1.0
 40
1.0
 40
1.0
 10
-78.2267211941
 20
64.4504927963
 30
0.0
 10
-78.13558981
 20
64.7118020442
 30
0.0
 10
-77.7635820452
 20
65.7178055443
 30
0.0
 10
-77.3008572834
 20
66.6936794094
 30
0.0
 10
-76.8865180069
 20
67.3735274176
 30
0.0
  0
SPLINE
  5
449
100
AcDbEntity
  8
0
100
AcDbSpline
 62
7
  6
CONTINUOUS
 70
0
 71
3
 72
9
 73
5
 74
0
 42
0.0000001
 43
0.0000001
 44
0.0000000001
 40
0.0
 40
0.0
 40
0.0
 40
0.0
 40
0.5026921414
 40
1.0
 40
1.0
 40
1.0
 40
1.0
 10
-76.8865180069
 20
67.3735274176
 30
0.0
 10
-76.3973273833
 20
68.1761915386
 30
0.0
 10
-75.2216152274
 20
69.6607132314
 30
0.0
 10
-73.6828684868
 20
70.7722953455
 30
0.0
 10
-72.8593708569
 20
71.2042703137
 30
0.0
  0
SPLINE
  5
44A
100
AcDbEntity
  8
0
100
AcDbSpline
 62
7
  6
CONTINUOUS
 70
0
 71
3
 72
9
 73
5
 74
0
 42
0.0000001
 43
0.0000001
 44
0.0000000001
 40
0.0
 40
0.0
 40
0.0
 40
0.0
 40
0.2464410279
 40
1.0
 40
1.0
 40
1.0
 40
1.0
 10
-72.8593708569
 20
71.2042703137
 30
0.0
 10
-72.7244389789
 20
71.2750503519
 30
0.0
 10
-72.1704028011
 20
71.5497134346
 30
0.0
 10
-71.5913018762
 20
71.7734216002
 30
0.0
 10
-71.1468004301
 20
71.9130298789
 30
0.0
  0
SPLINE
  5
44B
100
AcDbEntity
  8
0
100
AcDbSpline
 62
7
  6
CONTINUOUS
 70
0
 71
3
 72
9
 73
5
 74
0
 42
0.0000001
 43
0.0000001
 44
0.0000000001
 40
0.0
 40
0.0
 40
0.0
 40
0.0
 40
0.246376605
 40
1.0
 40
1.0
 40
1.0
 40
1.0
 10
-71.1468004301
 20
71.9130298789
 30
0.0
 10
-71.0414740741
 20
71.9461106065
 30
0.0
 10
-70.6119527444
 20
72.0738855451
 30
0.0
 10
-70.1747452177
 20
72.1756246075
 30
0.0
 10
-69.8428956891
 20
72.2381684937
 30
0.0
  0
SPLINE
  5
44C
100
AcDbEntity
  8
0
100
AcDbSpline
 62
7
  6
CONTINUOUS
 70
0
 71
3
 72
9
 73
5
 74
0
 42
0.0000001
 43
0.0000001
 44
0.0000000001
 40
0.0
 40
0.0
 40
0.0
 40
0.0
 40
0.2455085966
 40
1.0
 40
1.0
 40
1.0
 40
1.0
 10
-69.8428956891
 20
72.2381684937
 30
0.0
 10
-69.7248403599
 20
72.2604184547
 30
0.0
 10
-69.2426364318
 20
72.343819062
 30
0.0
 10
-68.7555498002
 20
72.3985375777
 30
0.0
 10
-68.3872922686
 20
72.4247935021
 30
0.0
  0
SPLINE
  5
44D
100
AcDbEntity
  8
0
100
AcDbSpline
 62
7
  6
CONTINUOUS
 70
0
 71
3
 72
9
 73
5
 74
0
 42
0.0000001
 43
0.0000001
 44
0.0000000001
 40
0.0
 40
0.0
 40
0.0
 40
0.0
 40
0.2435967254
 40
1.0
 40
1.0
 40
1.0
 40
1.0
 10
-68.3872922686
 20
72.4247935021
 30
0.0
 10
-68.2257264999
 20
72.4363127739
 30
0.0
 10
-67.5616586408
 20
72.4717713447
 30
0.0
 10
-66.8953119424
 20
72.4604862479
 30
0.0
 10
-66.393344339
 20
72.4289266813
 30
0.0
  0
SPLINE
  5
44E
100
AcDbEntity
  8
0
100
AcDbSpline
 62
7
  6
CONTINUOUS
 70
0
 71
3
 72
9
 73
5
 74
0
 42
0.0000001
 43
0.0000001
 44
0.0000000001
 40
0.0
 40
0.0
 40
0.0
 40
0.0
 40
0.2444527351
 40
1.0
 40
1.0
 40
1.0
 40
1.0
 10
-65.0171185142
 20
72.2865194003
 30
0.0
 10
-64.8575230231
 20
72.2637409593
 30
0.0
 10
-64.2058765431
 20
72.1621052339
 30
0.0
 10
-63.5595120335
 20
72.0272654369
 30
0.0
 10
-63.0754508431
 20
71.9091146846
 30
0.0
  0
SPLINE
  5
44F
100
AcDbEntity
  8
0
100
AcDbSpline
 62
7
  6
CONTINUOUS
 70
0
 71
3
 72
9
 73
5
 74
0
 42
0.0000001
 43
0.0000001
 44
0.0000000001
 40
0.0
 40
0.0
 40
0.0
 40
0.0
 40
0.5148619079
 40
1.0
 40
1.0
 40
1.0
 40
1.0
 10
-78.2267308424
 20
64.4504883929
 30
0.0
 10
-75.8079003871
 20
65.7824728215
 30
0.0
 10
-70.8504423508
 20
67.934148626
 30
0.0
 10
-65.5294673707
 20
68.9615459934
 30
0.0
 10
-62.9329788823
 20
69.129432199
 30
0.0
  0
SPLINE
  5
450
100
AcDbEntity
  8
0
100
AcDbSpline
 62
7
  6
CONTINUOUS
 70
0
 71
3
 72
9
 73
5
 74
0
 42
0.0000001
 43
0.0000001
 44
0.0000000001
 40
0.0
 40
0.0
 40
0.0
 40
0.0
 40
0.2064524765
 40
1.0
 40
1.0
 40
1.0
 40
1.0
 10
-37.3053816593
 20
40.8811419793
 30
0.0
 10
-37.288010655
 20
40.8910079051
 30
0.0
 10
-37.1934629713
 20
40.9218061106
 30
0.0
 10
-37.0926356078
 20
40.8797766074
 30
0.0
 10
-37.0260498836
 20
40.8415329839
 30
0.0
  0
SPLINE
  5
451
100
AcDbEntity
  8
0
100
AcDbSpline
 62
7
  6
CONTINUOUS
 70
0
 71
3
 72
9
 73
5
 74
0
 42
0.0000001
 43
0.0000001
 44
0.0000000001
 40
0.0
 40
0.0
 40
0.0
 40
0.0
 40
0.2115990635
 40
1.0
 40
1.0
 40
1.0
 40
1.0
 10
-32.9745449577
 20
43.3427141583
 30
0.0
 10
-32.9555709612
 20
43.353373364
 30
0.0
 10
-32.8559794614
 20
43.387161309
 30
0.0
 10
-32.7472763229
 20
43.3512501018
 30
0.0
 10
-32.6749328698
 20
43.3146222927
 30
0.0
  0
SPLINE
  5
452
100
AcDbEntity
  8
0
100
AcDbSpline
 62
7
  6
CONTINUOUS
 70
0
 71
3
 72
9
 73
5
 74
0
 42
0.0000001
 43
0.0000001
 44
0.0000000001
 40
0.0
 40
0.0
 40
0.0
 40
0.0
 40
0.4953265547
 40
1.0
 40
1.0
 40
1.0
 40
1.0
 10
-93.5434463691
 20
51.5328795064
 30
0.0
 10
-93.5259322737
 20
51.7243684346
 30
0.0
 10
-93.39329774
 20
52.100911424
 30
0.0
 10
-93.1684123438
 20
52.4214364935
 30
0.0
 10
-93.0365545194
 20
52.5663394689
 30
0.0
  0
SPLINE
  5
453
100
AcDbEntity
  8
0
100
AcDbSpline
 62
7
  6
CONTINUOUS
 70
0
 71
3
 72
11
 73
7
 74
0
 42
0.0000001
 43
0.0000001
 44
0.0000000001
 40
0.0
 40
0.0
 40
0.0
 40
0.0
 40
0.2403699899
 40
0.4846961507
 40
0.7369557935
 40
1.0
 40
1.0
 40
1.0
 40
1.0
 10
-46.2200088948
 20
63.0039024311
 30
0.0
 10
-44.5306466702
 20
62.0992409143
 30
0.0
 10
-41.3115895568
 20
59.8983760665
 30
0.0
 10
-37.2471684719
 20
55.5990379334
 30
0.0
 10
-34.0360270834
 20
50.4199900192
 30
0.0
 10
-32.5507575162
 20
46.5622176565
 30
0.0
 10
-31.9628003396
 20
44.5492170373
 30
0.0
  0
SPLINE
  5
454
100
AcDbEntity
  8
0
100
AcDbSpline
 62
7
  6
CONTINUOUS
 70
0
 71
3
 72
9
 73
5
 74
0
 42
0.0000001
 43
0.0000001
 44
0.0000000001
 40
0.0
 40
0.0
 40
0.0
 40
0.0
 40
0.2628698841
 40
1.0
 40
1.0
 40
1.0
 40
1.0
 10
-61.8340906688
 20
69.8448349439
 30
0.0
 10
-61.7531890584
 20
69.9601297285
 30
0.0
 10
-61.4348284982
 20
70.3906683094
 30
0.0
 10
-61.0621499081
 20
70.7850822198
 30
0.0
 10
-60.7516500134
 20
71.0291770281
 30
0.0
  0
SPLINE
  5
455
100
AcDbEntity
  8
0
100
AcDbSpline
 62
7
  6
CONTINUOUS
 70
0
 71
3
 72
9
 73
5
 74
0
 42
0.0000001
 43
0.0000001
 44
0.0000000001
 40
0.0
 40
0.0
 40
0.0
 40
0.0
 40
0.247125919
 40
1.0
 40
1.0
 40
1.0
 40
1.0
 10
-60.2591749825
 20
71.3584087763
 30
0.0
 10
-60.1659749381
 20
71.4106014513
 30
0.0
 10
-59.7799366304
 20
71.6056673061
 30
0.0
 10
-59.3601047779
 20
71.7323968847
 30
0.0
 10
-59.039540435
 20
71.7884411937
 30
0.0
  0
SPLINE
  5
456
100
AcDbEntity
  8
0
100
AcDbSpline
 62
7
  6
CONTINUOUS
 70
0
 71
3
 72
9
 73
5
 74
0
 42
0.0000001
 43
0.0000001
 44
0.0000000001
 40
0.0
 40
0.0
 40
0.0
 40
0.0
 40
0.2350716958
 40
1.0
 40
1.0
 40
1.0
 40
1.0
 10
-59.039540435
 20
71.7884411937
 30
0.0
 10
-58.8916515215
 20
71.8142966332
 30
0.0
 10
-58.2564974261
 20
71.8899874113
 30
0.0
 10
-57.60916269
 20
71.8267866772
 30
0.0
 10
-57.1315263061
 20
71.724181176
 30
0.0
  0
SPLINE
  5
457
100
AcDbEntity
  8
0
100
AcDbSpline
 62
7
  6
CONTINUOUS
 70
0
 71
3
 72
9
 73
5
 74
0
 42
0.0000001
 43
0.0000001
 44
0.0000000001
 40
0.0
 40
0.0
 40
0.0
 40
0.0
 40
0.242913597
 40
1.0
 40
1.0
 40
1.0
 40
1.0
 10
-57.1315263061
 20
71.724181176
 30
0.0
 10
-57.0731885946
 20
71.7116491111
 30
0.0
 10
-56.8337537747
 20
71.6567178547
 30
0.0
 10
-56.5973521515
 20
71.5887938938
 30
0.0
 10
-56.420521918
 20
71.5312147414
 30
0.0
  0
SPLINE
  5
458
100
AcDbEntity
  8
0
100
AcDbSpline
 62
7
  6
CONTINUOUS
 70
0
 71
3
 72
9
 73
5
 74
0
 42
0.0000001
 43
0.0000001
 44
0.0000000001
 40
0.0
 40
0.0
 40
0.0
 40
0.0
 40
0.4859134628
 40
1.0
 40
1.0
 40
1.0
 40
1.0
 10
-104.1977410637
 20
35.0582626697
 30
0.0
 10
-104.2161903108
 20
35.2143904089
 30
0.0
 10
-104.186334026
 20
35.5433003364
 30
0.0
 10
-104.0794371604
 20
35.8510055977
 30
0.0
 10
-104.0089098661
 20
36.0016419483
 30
0.0
  0
SPLINE
  5
459
100
AcDbEntity
  8
0
100
AcDbSpline
 62
7
  6
CONTINUOUS
 70
0
 71
3
 72
15
 73
11
 74
0
 42
0.0000001
 43
0.0000001
 44
0.0000000001
 40
0.0
 40
0.0
 40
0.0
 40
0.0
 40
0.1312697584
 40
0.2572354852
 40
0.3792461968
 40
0.4991826822
 40
0.6192422467
 40
0.7416033311
 40
0.8680959124
 40
1.0
 40
1.0
 40
1.0
 40
1.0
 10
-29.8941263362
 20
44.7478798321
 30
0.0
 10
-30.4875754478
 20
46.7893373813
 30
0.0
 10
-31.9824311921
 20
50.7046974216
 30
0.0
 10
-35.2013069208
 20
55.9778971375
 30
0.0
 10
-39.2735510021
 20
60.3846953587
 30
0.0
 10
-44.0946113274
 20
63.7973023792
 30
0.0
 10
-49.5320059489
 20
66.1186307496
 30
0.0
 10
-55.4334391976
 20
67.2874157504
 30
0.0
 10
-61.6354457038
 20
67.2817935096
 30
0.0
 10
-65.7749796924
 20
66.5177864232
 30
0.0
 10
-67.8374847171
 20
65.9613779987
 30
0.0
  0
SPLINE
  5
45A
100
AcDbEntity
  8
0
100
AcDbSpline
 62
7
  6
CONTINUOUS
 70
0
 71
3
 72
12
 73
8
 74
0
 42
0.0000001
 43
0.0000001
 44
0.0000000001
 40
0.0
 40
0.0
 40
0.0
 40
0.0
 40
0.2331647265
 40
0.3566524916
 40
0.4835128205
 40
0.74235017
 40
1.0
 40
1.0
 40
1.0
 40
1.0
 10
-68.8787169326
 20
65.6652007577
 30
0.0
 10
-73.1367516736
 20
64.391549581
 30
0.0
 10
-79.3590163273
 20
61.3529178106
 30
0.0
 10
-86.6941814763
 20
55.7510226766
 30
0.0
 10
-93.6230283733
 20
48.9184805791
 30
0.0
 10
-100.724388711
 20
38.7779102156
 30
0.0
 10
-104.4049462334
 20
29.5307305938
 30
0.0
 10
-105.6424750683
 20
24.7780458381
 30
0.0
  0
SPLINE
  5
45B
100
AcDbEntity
  8
0
100
AcDbSpline
 62
7
  6
CONTINUOUS
 70
0
 71
3
 72
11
 73
7
 74
0
 42
0.0000001
 43
0.0000001
 44
0.0000000001
 40
0.0
 40
0.0
 40
0.0
 40
0.0
 40
0.2411362982
 40
0.4862308994
 40
0.7383993885
 40
1.0
 40
1.0
 40
1.0
 40
1.0
 10
-98.0757056381
 20
-12.8558447474
 30
0.0
 10
-96.6245043089
 20
-13.6548656288
 30
0.0
 10
-93.5352279518
 20
-14.9873039098
 30
0.0
 10
-88.5556848658
 20
-16.0919739978
 30
0.0
 10
-83.3203653564
 20
-16.2944194516
 30
0.0
 10
-79.8025481527
 20
-15.8360225686
 30
0.0
 10
-78.0431217606
 20
-15.4693875537
 30
0.0
  0
SPLINE
  5
45C
100
AcDbEntity
  8
0
100
AcDbSpline
 62
7
  6
CONTINUOUS
 70
0
 71
3
 72
11
 73
7
 74
0
 42
0.0000001
 43
0.0000001
 44
0.0000000001
 40
0.0
 40
0.0
 40
0.0
 40
0.0
 40
0.2787748482
 40
0.5232273615
 40
0.7585278882
 40
1.0
 40
1.0
 40
1.0
 40
1.0
 10
-105.7701880388
 20
24.278557601
 30
0.0
 10
-105.8054736361
 20
24.1379724188
 30
0.0
 10
-105.7998459506
 20
23.8461621937
 30
0.0
 10
-105.5609514267
 20
23.5098913324
 30
0.0
 10
-105.2242202396
 20
23.325508215
 30
0.0
 10
-104.975440786
 20
23.2840622414
 30
0.0
 10
-104.849942245
 20
23.2804465971
 30
0.0
  0
SPLINE
  5
45D
100
AcDbEntity
  8
0
100
AcDbSpline
 62
7
  6
CONTINUOUS
 70
0
 71
3
 72
9
 73
5
 74
0
 42
0.0000001
 43
0.0000001
 44
0.0000000001
 40
0.0
 40
0.0
 40
0.0
 40
0.0
 40
0.2551677967
 40
1.0
 40
1.0
 40
1.0
 40
1.0
 10
-100.8119868956
 20
23.164115184
 30
0.0
 10
-101.0187349995
 20
22.2808420398
 30
0.0
 10
-101.7348550912
 20
18.7983182325
 30
0.0
 10
-102.0668366735
 20
15.2338876901
 30
0.0
 10
-102.0663880924
 20
12.5859339834
 30
0.0
  0
SPLINE
  5
45E
100
AcDbEntity
  8
0
100
AcDbSpline
 62
7
  6
CONTINUOUS
 70
0
 71
3
 72
11
 73
7
 74
0
 42
0.0000001
 43
0.0000001
 44
0.0000000001
 40
0.0
 40
0.0
 40
0.0
 40
0.0
 40
0.253921337
 40
0.5058762066
 40
0.754788392
 40
1.0
 40
1.0
 40
1.0
 40
1.0
 10
-109.787999133
 20
-5.8090848776
 30
0.0
 10
-110.7031621937
 20
-4.389704354
 30
0.0
 10
-112.3582582674
 20
-1.4483471471
 30
0.0
 10
-114.2302498496
 20
3.2258575758
 30
0.0
 10
-115.4206336649
 20
8.060339129
 30
0.0
 10
-115.7198207818
 20
11.3485563497
 30
0.0
 10
-115.7401026333
 20
12.9793369225
 30
0.0
  0
SPLINE
  5
45F
100
AcDbEntity
  8
0
100
AcDbSpline
 62
7
  6
CONTINUOUS
 70
0
 71
3
 72
9
 73
5
 74
0
 42
0.0000001
 43
0.0000001
 44
0.0000000001
 40
0.0
 40
0.0
 40
0.0
 40
0.0
 40
0.2570531195
 40
1.0
 40
1.0
 40
1.0
 40
1.0
 10
-102.0663880924
 20
12.5859339834
 30
0.0
 10
-102.0662429988
 20
11.7294531615
 30
0.0
 10
-101.9653325812
 20
8.3988814194
 30
0.0
 10
-101.4499783297
 20
5.0763819813
 30
0.0
 10
-100.8085176798
 20
2.6854961442
 30
0.0
  0
SPLINE
  5
460
100
AcDbEntity
  8
0
100
AcDbSpline
 62
7
  6
CONTINUOUS
 70
0
 71
3
 72
10
 73
6
 74
0
 42
0.0000001
 43
0.0000001
 44
0.0000000001
 40
0.0
 40
0.0
 40
0.0
 40
0.0
 40
0.1634203004
 40
0.4255810328
 40
1.0
 40
1.0
 40
1.0
 40
1.0
 10
-115.4296652947
 20
17.863043755
 30
0.0
 10
-115.4361070429
 20
17.868803181
 30
0.0
 10
-115.4522066558
 20
17.8316444289
 30
0.0
 10
-115.4572643537
 20
17.7920223579
 30
0.0
 10
-115.4660275835
 20
17.7428727461
 30
0.0
 10
-115.4697803325
 20
17.7127324922
 30
0.0
  0
SPLINE
  5
461
100
AcDbEntity
  8
0
100
AcDbSpline
 62
7
  6
CONTINUOUS
 70
0
 71
3
 72
9
 73
5
 74
0
 42
0.0000001
 43
0.0000001
 44
0.0000000001
 40
0.0
 40
0.0
 40
0.0
 40
0.0
 40
0.2384421151
 40
1.0
 40
1.0
 40
1.0
 40
1.0
 10
-109.4152802825
 20
16.5681886058
 30
0.0
 10
-109.4343326572
 20
16.6218304252
 30
0.0
 10
-109.4959172288
 20
16.8532591047
 30
0.0
 10
-109.4962740986
 20
17.0978595221
 30
0.0
 10
-109.4733552455
 20
17.2782208695
 30
0.0
  0
SPLINE
  5
462
100
AcDbEntity
  8
0
100
AcDbSpline
 62
7
  6
CONTINUOUS
 70
0
 71
3
 72
9
 73
5
 74
0
 42
0.0000001
 43
0.0000001
 44
0.0000000001
 40
0.0
 40
0.0
 40
0.0
 40
0.0
 40
0.2361456277
 40
1.0
 40
1.0
 40
1.0
 40
1.0
 10
-105.7658880794
 20
-1.1039009884
 30
0.0
 10
-105.7761776293
 20
-1.0685049999
 30
0.0
 10
-105.805099089
 20
-0.9142504579
 30
0.0
 10
-105.7796651698
 20
-0.7539302684
 30
0.0
 10
-105.7438623021
 20
-0.6401984282
 30
0.0
  0
SPLINE
  5
463
100
AcDbEntity
  8
0
100
AcDbSpline
 62
7
  6
CONTINUOUS
 70
0
 71
3
 72
15
 73
11
 74
0
 42
0.0000001
 43
0.0000001
 44
0.0000000001
 40
0.0
 40
0.0
 40
0.0
 40
0.0
 40
0.1240469061
 40
0.2485053112
 40
0.3733891801
 40
0.4985708202
 40
0.6239711246
 40
0.7494371367
 40
0.8748344238
 40
1.0
 40
1.0
 40
1.0
 40
1.0
 10
-108.5979799772
 20
-0.7534425117
 30
0.0
 10
-109.4061613679
 20
0.4980615195
 30
0.0
 10
-110.9186695586
 20
3.0772220067
 30
0.0
 10
-112.7670910584
 20
7.1726433078
 30
0.0
 10
-114.1491931379
 20
11.4633413687
 30
0.0
 10
-115.0219580391
 20
15.8985551283
 30
0.0
 10
-115.3372851361
 20
20.4159573007
 30
0.0
 10
-115.0646838438
 20
24.9401957549
 30
0.0
 10
-114.1870804496
 20
29.383036704
 30
0.0
 10
-113.2102398376
 20
32.2416770853
 30
0.0
 10
-112.6199707637
 20
33.6241431469
 30
0.0
  0
SPLINE
  5
464
100
AcDbEntity
  8
0
100
AcDbSpline
 62
7
  6
CONTINUOUS
 70
0
 71
3
 72
12
 73
8
 74
0
 42
0.0000001
 43
0.0000001
 44
0.0000000001
 40
0.0
 40
0.0
 40
0.0
 40
0.0
 40
0.0832986361
 40
0.2027223679
 40
0.4616066819
 40
0.7290216478
 40
1.0
 40
1.0
 40
1.0
 40
1.0
 10
-111.8128263185
 20
35.4395412139
 30
0.0
 10
-111.818374304
 20
35.4434377575
 30
0.0
 10
-111.8355699663
 20
35.4263941789
 30
0.0
 10
-111.8536746027
 20
35.3993091399
 30
0.0
 10
-111.8812983897
 20
35.3512339019
 30
0.0
 10
-111.9098918764
 20
35.2940561594
 30
0.0
 10
-111.9287913677
 20
35.2542754577
 30
0.0
 10
-111.938067022
 20
35.2342661223
 30
0.0
  0
SPLINE
  5
465
100
AcDbEntity
  8
0
100
AcDbSpline
 62
7
  6
CONTINUOUS
 70
0
 71
3
 72
9
 73
5
 74
0
 42
0.0000001
 43
0.0000001
 44
0.0000000001
 40
0.0
 40
0.0
 40
0.0
 40
0.0
 40
0.7514903055
 40
1.0
 40
1.0
 40
1.0
 40
1.0
 10
-105.765888648
 20
-1.1039030826
 30
0.0
 10
-105.6887493043
 20
-0.8594269857
 30
0.0
 10
-105.5873495398
 20
-0.533711551
 30
0.0
 10
-105.483449461
 20
-0.2087846197
 30
0.0
 10
-105.4572888194
 20
-0.1281474858
 30
0.0
  0
SPLINE
  5
466
100
AcDbEntity
  8
0
100
AcDbSpline
 62
7
  6
CONTINUOUS
 70
0
 71
3
 72
9
 73
5
 74
0
 42
0.0000001
 43
0.0000001
 44
0.0000000001
 40
0.0
 40
0.0
 40
0.0
 40
0.0
 40
0.2713046035
 40
1.0
 40
1.0
 40
1.0
 40
1.0
 10
-62.8204030011
 20
69.285280971
 30
0.0
 10
-62.7593323406
 20
69.3698249873
 30
0.0
 10
-62.4929743376
 20
69.6503916177
 30
0.0
 10
-62.1126585367
 20
69.8152624771
 30
0.0
 10
-61.8341002387
 20
69.8448347769
 30
0.0
  0
SPLINE
  5
467
100
AcDbEntity
  8
0
100
AcDbSpline
 62
7
  6
CONTINUOUS
 70
0
 71
3
 72
15
 73
11
 74
0
 42
0.0000001
 43
0.0000001
 44
0.0000000001
 40
0.0
 40
0.0
 40
0.0
 40
0.0
 40
0.1235268675
 40
0.2471686304
 40
0.3711685225
 40
0.4955653705
 40
0.6205573188
 40
0.7462579137
 40
0.8727469209
 40
1.0
 40
1.0
 40
1.0
 40
1.0
 10
-109.473353056
 20
17.2782319264
 30
0.0
 10
-109.9294225652
 20
18.6408496871
 30
0.0
 10
-110.7250336975
 20
21.4097580577
 30
0.0
 10
-111.4372492853
 20
25.678380719
 30
0.0
 10
-111.6317396253
 20
30.0125421843
 30
0.0
 10
-111.2824112708
 20
34.3539943918
 30
0.0
 10
-110.3570058782
 20
38.6314849919
 30
0.0
 10
-108.8467094016
 20
42.7663522934
 30
0.0
 10
-106.7602499079
 20
46.6710318165
 30
0.0
 10
-105.0175826741
 20
49.0680278614
 30
0.0
 10
-104.0602893373
 20
50.1970808033
 30
0.0
  0
SPLINE
  5
468
100
AcDbEntity
  8
0
100
AcDbSpline
 62
7
  6
CONTINUOUS
 70
0
 71
3
 72
9
 73
5
 74
0
 42
0.0000001
 43
0.0000001
 44
0.0000000001
 40
0.0
 40
0.0
 40
0.0
 40
0.0
 40
0.6660321201
 40
1.0
 40
1.0
 40
1.0
 40
1.0
 10
-104.0602937596
 20
50.1970852097
 30
0.0
 10
-104.0702237791
 20
50.1975977254
 30
0.0
 10
-104.0841422288
 20
50.1972838759
 30
0.0
 10
-104.1011186765
 20
50.1958198202
 30
0.0
 10
-104.1043334113
 20
50.1920087885
 30
0.0
  0
SPLINE
  5
469
100
AcDbEntity
  8
0
100
AcDbSpline
 62
7
  6
CONTINUOUS
 70
0
 71
3
 72
9
 73
5
 74
0
 42
0.0000001
 43
0.0000001
 44
0.0000000001
 40
0.0
 40
0.0
 40
0.0
 40
0.0
 40
0.2427214878
 40
1.0
 40
1.0
 40
1.0
 40
1.0
 10
-108.4257341622
 20
-1.1602776507
 30
0.0
 10
-108.4455634753
 20
-1.1304115924
 30
0.0
 10
-108.5209053818
 20
-1.0031702138
 30
0.0
 10
-108.5717648065
 20
-0.8621858912
 30
0.0
 10
-108.5979783842
 20
-0.7534526363
 30
0.0
  0
SPLINE
  5
46A
100
AcDbEntity
  8
0
100
AcDbSpline
 62
7
  6
CONTINUOUS
 70
0
 71
3
 72
12
 73
8
 74
0
 42
0.0000001
 43
0.0000001
 44
0.0000000001
 40
0.0
 40
0.0
 40
0.0
 40
0.0
 40
0.0951851933
 40
0.2189166459
 40
0.4769742074
 40
0.7381054396
 40
1.0
 40
1.0
 40
1.0
 40
1.0
 10
-102.7702332274
 20
51.6724872817
 30
0.0
 10
-102.7772675604
 20
51.6760835291
 30
0.0
 10
-102.7962744608
 20
51.6626321535
 30
0.0
 10
-102.8253930189
 20
51.6407062896
 30
0.0
 10
-102.8649390061
 20
51.6022046586
 30
0.0
 10
-102.9095999444
 20
51.5560421759
 30
0.0
 10
-102.9390287145
 20
51.5239393952
 30
0.0
 10
-102.9536022418
 20
51.5078113915
 30
0.0
  0
SPLINE
  5
46B
100
AcDbEntity
  8
0
100
AcDbSpline
 62
7
  6
CONTINUOUS
 70
0
 71
3
 72
9
 73
5
 74
0
 42
0.0000001
 43
0.0000001
 44
0.0000000001
 40
0.0
 40
0.0
 40
0.0
 40
0.0
 40
0.5021130599
 40
1.0
 40
1.0
 40
1.0
 40
1.0
 10
-104.0089042119
 20
36.0016522453
 30
0.0
 10
-104.1940210669
 20
37.9452053719
 30
0.0
 10
-104.3023258435
 20
41.8524547742
 30
0.0
 10
-103.6366772475
 20
45.7156759261
 30
0.0
 10
-103.1166733883
 20
47.5804466704
 30
0.0
  0
SPLINE
  5
46C
100
AcDbEntity
  8
0
100
AcDbSpline
 62
7
  6
CONTINUOUS
 70
0
 71
3
 72
11
 73
7
 74
0
 42
0.0000001
 43
0.0000001
 44
0.0000000001
 40
0.0
 40
0.0
 40
0.0
 40
0.0
 40
0.2452098812
 40
0.4923217066
 40
0.7434161868
 40
1.0
 40
1.0
 40
1.0
 40
1.0
 10
-103.1166733883
 20
47.5804466704
 30
0.0
 10
-102.6763693338
 20
49.1594082588
 30
0.0
 10
-101.5086894746
 20
52.259234042
 30
0.0
 10
-98.9000745952
 20
56.5247979595
 30
0.0
 10
-95.4634036269
 20
60.2598675834
 30
0.0
 10
-92.7185461355
 20
62.2964281663
 30
0.0
 10
-91.2496409477
 20
63.1820663641
 30
0.0
  0
SPLINE
  5
46D
100
AcDbEntity
  8
0
100
AcDbSpline
 62
7
  6
CONTINUOUS
 70
0
 71
3
 72
9
 73
5
 74
0
 42
0.0000001
 43
0.0000001
 44
0.0000000001
 40
0.0
 40
0.0
 40
0.0
 40
0.0
 40
0.485940176
 40
1.0
 40
1.0
 40
1.0
 40
1.0
 10
-101.5165615261
 20
-15.3475884763
 30
0.0
 10
-103.0831119966
 20
-13.4240717659
 30
0.0
 10
-105.7701004201
 20
-9.0077030173
 30
0.0
 10
-107.3089423014
 20
-4.0893961321
 30
0.0
 10
-107.8299291112
 20
-1.5173547661
 30
0.0
  0
SPLINE
  5
46E
100
AcDbEntity
  8
0
100
AcDbSpline
 62
7
  6
CONTINUOUS
 70
0
 71
3
 72
9
 73
5
 74
0
 42
0.0000001
 43
0.0000001
 44
0.0000000001
 40
0.0
 40
0.0
 40
0.0
 40
0.0
 40
0.4939156662
 40
1.0
 40
1.0
 40
1.0
 40
1.0
 10
-32.1048333533
 20
44.6051300583
 30
0.0
 10
-32.0441886205
 20
44.3695017571
 30
0.0
 10
-32.1227429517
 20
43.8427438995
 30
0.0
 10
-32.4599420022
 20
43.4408338561
 30
0.0
 10
-32.6749346001
 20
43.3146215048
 30
0.0
  0
SPLINE
  5
46F
100
AcDbEntity
  8
0
100
AcDbSpline
 62
7
  6
CONTINUOUS
 70
0
 71
3
 72
13
 73
9
 74
0
 42
0.0000001
 43
0.0000001
 44
0.0000000001
 40
0.0
 40
0.0
 40
0.0
 40
0.0
 40
0.3015646468
 40
0.5218493179
 40
0.6213392613
 40
0.7286404612
 40
0.8534195723
 40
1.0
 40
1.0
 40
1.0
 40
1.0
 10
-32.9315714511
 20
43.9872976807
 30
0.0
 10
-32.9405389127
 20
44.1268514527
 30
0.0
 10
-32.9393696879
 20
44.371651349
 30
0.0
 10
-32.7983628878
 20
44.6483440596
 30
0.0
 10
-32.6164100528
 20
44.7408598476
 30
0.0
 10
-32.4601168724
 20
44.7531128214
 30
0.0
 10
-32.2869726335
 20
44.7148415462
 30
0.0
 10
-32.1716252234
 20
44.6627668164
 30
0.0
 10
-32.1117660381
 20
44.6305626175
 30
0.0
  0
SPLINE
  5
470
100
AcDbEntity
  8
0
100
AcDbSpline
 62
7
  6
CONTINUOUS
 70
0
 71
3
 72
9
 73
5
 74
0
 42
0.0000001
 43
0.0000001
 44
0.0000000001
 40
0.0
 40
0.0
 40
0.0
 40
0.0
 40
0.5100388597
 40
1.0
 40
1.0
 40
1.0
 40
1.0
 10
-61.8341002387
 20
69.8448347769
 30
0.0
 10
-59.3640561645
 20
70.1070427672
 30
0.0
 10
-54.4354254836
 20
70.051885859
 30
0.0
 10
-49.6879164267
 20
68.6795979755
 30
0.0
 10
-47.5134738456
 20
67.6970114782
 30
0.0
  0
SPLINE
  5
471
100
AcDbEntity
  8
0
100
AcDbSpline
 62
7
  6
CONTINUOUS
 70
0
 71
3
 72
11
 73
7
 74
0
 42
0.0000001
 43
0.0000001
 44
0.0000000001
 40
0.0
 40
0.0
 40
0.0
 40
0.0
 40
0.268046545
 40
0.5219510337
 40
0.7643270025
 40
1.0
 40
1.0
 40
1.0
 40
1.0
 10
-39.0615470413
 20
41.706589328
 30
0.0
 10
-39.3595224218
 20
44.2383379668
 30
0.0
 10
-40.3914820136
 20
49.1321738237
 30
0.0
 10
-43.3574026189
 20
55.8319123679
 30
0.0
 10
-47.6038169891
 20
61.4309697482
 30
0.0
 10
-51.217335376
 20
64.2868345118
 30
0.0
 10
-53.141743452
 20
65.4358573916
 30
0.0
  0
SPLINE
  5
472
100
AcDbEntity
  8
0
100
AcDbSpline
 62
7
  6
CONTINUOUS
 70
0
 71
3
 72
9
 73
5
 74
0
 42
0.0000001
 43
0.0000001
 44
0.0000000001
 40
0.0
 40
0.0
 40
0.0
 40
0.0
 40
0.255178787
 40
1.0
 40
1.0
 40
1.0
 40
1.0
 10
-61.2236008608
 20
-17.6025239524
 30
0.0
 10
-61.8322979064
 20
-17.9010233295
 30
0.0
 10
-64.243677645
 20
-19.0165750739
 30
0.0
 10
-66.7596431862
 20
-19.9094371072
 30
0.0
 10
-68.6701410172
 20
-20.4248852112
 30
0.0
  0
SPLINE
  5
473
100
AcDbEntity
  8
0
100
AcDbSpline
 62
7
  6
CONTINUOUS
 70
0
 71
3
 72
9
 73
5
 74
0
 42
0.0000001
 43
0.0000001
 44
0.0000000001
 40
0.0
 40
0.0
 40
0.0
 40
0.0
 40
0.5023696822
 40
1.0
 40
1.0
 40
1.0
 40
1.0
 10
-104.0089098661
 20
36.0016419483
 30
0.0
 10
-102.6905056738
 20
38.8175339539
 30
0.0
 10
-99.6043103088
 20
44.2173772654
 30
0.0
 10
-95.6846746744
 20
49.0484398766
 30
0.0
 10
-93.5475936991
 20
51.266271513
 30
0.0
  0
SPLINE
  5
474
100
AcDbEntity
  8
0
100
AcDbSpline
 62
7
  6
CONTINUOUS
 70
0
 71
3
 72
9
 73
5
 74
0
 42
0.0000001
 43
0.0000001
 44
0.0000000001
 40
0.0
 40
0.0
 40
0.0
 40
0.0
 40
0.4866827584
 40
1.0
 40
1.0
 40
1.0
 40
1.0
 10
-108.5979783842
 20
-0.7534526363
 30
0.0
 10
-109.244210351
 20
1.9271729678
 30
0.0
 10
-109.9525347643
 20
7.5955711105
 30
0.0
 10
-109.5510046558
 20
13.282348683
 30
0.0
 10
-109.0971951407
 20
16.1550497124
 30
0.0
  0
SPLINE
  5
475
100
AcDbEntity
  8
0
100
AcDbSpline
 62
7
  6
CONTINUOUS
 70
0
 71
3
 72
9
 73
5
 74
0
 42
0.0000001
 43
0.0000001
 44
0.0000000001
 40
0.0
 40
0.0
 40
0.0
 40
0.0
 40
0.4955094986
 40
1.0
 40
1.0
 40
1.0
 40
1.0
 10
-92.5784452636
 20
-22.707280846
 30
0.0
 10
-94.1045445197
 20
-21.8309001754
 30
0.0
 10
-97.0044033537
 20
-19.7292852593
 30
0.0
 10
-99.4049942868
 20
-17.0751621704
 30
0.0
 10
-100.4730375697
 20
-15.6365556666
 30
0.0
  0
SPLINE
  5
476
100
AcDbEntity
  8
0
100
AcDbSpline
 62
7
  6
CONTINUOUS
 70
0
 71
3
 72
9
 73
5
 74
0
 42
0.0000001
 43
0.0000001
 44
0.0000000001
 40
0.0
 40
0.0
 40
0.0
 40
0.0
 40
0.5109889856
 40
1.0
 40
1.0
 40
1.0
 40
1.0
 10
-103.9004074267
 20
-14.1923143465
 30
0.0
 10
-105.4195076717
 20
-12.6649385494
 30
0.0
 10
-108.1743074209
 20
-9.4470897624
 30
0.0
 10
-110.3282445067
 20
-5.789320525
 30
0.0
 10
-111.1869900033
 20
-3.9151546764
 30
0.0
  0
SPLINE
  5
477
100
AcDbEntity
  8
0
100
AcDbSpline
 62
7
  6
CONTINUOUS
 70
0
 71
3
 72
11
 73
7
 74
0
 42
0.0000001
 43
0.0000001
 44
0.0000000001
 40
0.0
 40
0.0
 40
0.0
 40
0.0
 40
0.1006091226
 40
0.2263905775
 40
0.4851734371
 40
1.0
 40
1.0
 40
1.0
 40
1.0
 10
-89.6785767964
 20
64.0905109791
 30
0.0
 10
-89.683952936
 20
64.0924285938
 30
0.0
 10
-89.6974732822
 20
64.0888222137
 30
0.0
 10
-89.7229284022
 20
64.0801956409
 30
0.0
 10
-89.7696495954
 20
64.0583607552
 30
0.0
 10
-89.8082285881
 20
64.0378619776
 30
0.0
 10
-89.8337952767
 20
64.0237395013
 30
0.0
  0
SPLINE
  5
478
100
AcDbEntity
  8
0
100
AcDbSpline
 62
7
  6
CONTINUOUS
 70
0
 71
3
 72
11
 73
7
 74
0
 42
0.0000001
 43
0.0000001
 44
0.0000000001
 40
0.0
 40
0.0
 40
0.0
 40
0.0
 40
0.2636597473
 40
0.516061264
 40
0.7601230795
 40
1.0
 40
1.0
 40
1.0
 40
1.0
 10
-68.6701410172
 20
-20.4248852112
 30
0.0
 10
-70.7622397889
 20
-20.9892389792
 30
0.0
 10
-74.9629254416
 20
-21.7480179376
 30
0.0
 10
-81.2501146221
 20
-21.6681085022
 30
0.0
 10
-87.1992801985
 20
-20.3374268849
 30
0.0
 10
-90.8327227032
 20
-18.6275287607
 30
0.0
 10
-92.5123136041
 20
-17.5953077832
 30
0.0
  0
SPLINE
  5
479
100
AcDbEntity
  8
0
100
AcDbSpline
 62
7
  6
CONTINUOUS
 70
0
 71
3
 72
11
 73
7
 74
0
 42
0.0000001
 43
0.0000001
 44
0.0000000001
 40
0.0
 40
0.0
 40
0.0
 40
0.0
 40
0.2224436761
 40
0.478940652
 40
0.7484573575
 40
1.0
 40
1.0
 40
1.0
 40
1.0
 10
-32.2924484108
 20
43.1059833307
 30
0.0
 10
-32.2160743736
 20
43.1874760458
 30
0.0
 10
-32.0831231559
 20
43.3924176223
 30
0.0
 10
-31.9557743615
 20
43.748632752
 30
0.0
 10
-31.9018936903
 20
44.1378863793
 30
0.0
 10
-31.9245642246
 20
44.4023495808
 30
0.0
 10
-31.9560376882
 20
44.524662815
 30
0.0
  0
SPLINE
  5
47A
100
AcDbEntity
  8
0
100
AcDbSpline
 62
7
  6
CONTINUOUS
 70
0
 71
3
 72
10
 73
6
 74
0
 42
0.0000001
 43
0.0000001
 44
0.0000000001
 40
0.0
 40
0.0
 40
0.0
 40
0.0
 40
0.4921438805
 40
0.7514793998
 40
1.0
 40
1.0
 40
1.0
 40
1.0
 10
-29.8941263362
 20
44.7478798321
 30
0.0
 10
-29.8100217063
 20
44.4585604204
 30
0.0
 10
-30.0181513755
 20
43.9568607361
 30
0.0
 10
-30.4262481093
 20
43.5142257995
 30
0.0
 10
-30.6816760776
 20
43.3285502413
 30
0.0
 10
-30.8139497485
 20
43.253367643
 30
0.0
  0
SPLINE
  5
47B
100
AcDbEntity
  8
0
100
AcDbSpline
 62
7
  6
CONTINUOUS
 70
0
 71
3
 72
8
 73
4
 74
0
 42
0.0000001
 43
0.0000001
 44
0.0000000001
 40
0.0
 40
0.0
 40
0.0
 40
0.0
 40
1.0
 40
1.0
 40
1.0
 40
1.0
 10
-104.5841846065
 20
23.6036158597
 30
0.0
 10
-104.7168887238
 20
23.6243063798
 30
0.0
 10
-104.8482684355
 20
23.6698320828
 30
0.0
 10
-104.9641049587
 20
23.7378054619
 30
0.0
  0
SPLINE
  5
47C
100
AcDbEntity
  8
0
100
AcDbSpline
 62
7
  6
CONTINUOUS
 70
0
 71
3
 72
9
 73
5
 74
0
 42
0.0000001
 43
0.0000001
 44
0.0000000001
 40
0.0
 40
0.0
 40
0.0
 40
0.0
 40
0.2572871227
 40
1.0
 40
1.0
 40
1.0
 40
1.0
 10
-105.3966886321
 20
24.7383094306
 30
0.0
 10
-105.4279756718
 20
24.6982844397
 30
0.0
 10
-105.5503180246
 20
24.5432866189
 30
0.0
 10
-105.6771883102
 20
24.3919517036
 30
0.0
 10
-105.770188608
 20
24.2785602295
 30
0.0
  0
SPLINE
  5
47D
100
AcDbEntity
  8
0
100
AcDbSpline
 62
7
  6
CONTINUOUS
 70
0
 71
3
 72
8
 73
4
 74
0
 42
0.0000001
 43
0.0000001
 44
0.0000000001
 40
0.0
 40
0.0
 40
0.0
 40
0.0
 40
1.0
 40
1.0
 40
1.0
 40
1.0
 10
-29.8941267636
 20
44.7478824984
 30
0.0
 10
-30.5834894371
 20
44.6796718131
 30
0.0
 10
-31.2724888537
 20
44.607090329
 30
0.0
 10
-31.9627945554
 20
44.5491970526
 30
0.0
  0
ELLIPSE
  5
47E
100
AcDbEntity
  8
0
100
AcDbEllipse
 62
7
  6
CONTINUOUS
 10
-90.4445787209
 20
34.8107104419
 30
0.0
 11
3.7444804121
 21
29.5250741481
 31
0.0
 40
0.811865734
 41
6.5186727279
 42
6.6913007909
  0
ELLIPSE
  5
47F
100
AcDbEntity
  8
0
100
AcDbEllipse
 62
7
  6
CONTINUOUS
 10
-99.9420293632
 20
40.265588803
 30
0.0
 11
11.3422855836
 21
26.7766257934
 31
0.0
 40
0.7885137488
 41
6.749886789
 42
6.922514852
  0
ENDSEC
  0
SECTION
  2
OBJECTS
  0
DICTIONARY
  5
C
100
AcDbDictionary
280
0
281
1
  3
ACAD_GROUP
350
D
  3
ACAD_MLINESTYLE
350
17
  3
ACAD_LAYOUT
350
1A
  3
ACAD_PLOTSETTINGS
350
19
  3
ACAD_PLOTSTYLENAME
350
E
  0
DICTIONARY
  5
D
102
{ACAD_REACTORS
330
C
102
}
100
AcDbDictionary
280
0
281
1
  0
ACDBDICTIONARYWDFLT
  5
E
102
{ACAD_REACTORS
330
C
102
}
100
AcDbDictionary
281
1
  3
Normal
350
F
100
AcDbDictionaryWithDefault
340
F
  0
DICTIONARY
  5
17
102
{ACAD_REACTORS
330
C
102
}
100
AcDbDictionary
280
0
281
1
  3
Standard
350
18
  0
DICTIONARY
  5
19
102
{ACAD_REACTORS
330
C
102
}
100
AcDbDictionary
281
1
  0
DICTIONARY
  5
1A
102
{ACAD_REACTORS
330
C
102
}
100
AcDbDictionary
281
1
  3
Model
350
480
  3
Layout1
350
481
  0
ACDBPLACEHOLDER
  5
F
102
{ACAD_REACTORS
330
E
102
}
  0
MLINESTYLE
  5
18
102
{ACAD_REACTORS
330
17
102
}
100
AcDbMlineStyle
  2
STANDARD
 70
0
  3

 62
256
 51
90.0
 52
90.0
 71
2
 49
0.5
 62
256
  6
BYLAYER
 49
-0.5
 62
256
  6
BYLAYER
  0
LAYOUT
  5
480
102
{ACAD_REACTORS
330
1A
102
}
100
AcDbPlotSettings
  1

  2
none_device
  4
ANSI_C_(22.00_x_17.00_Inches)
  6

 40
0.0
 41
0.0
 42
0.0
 43
0.0
 44
558.8
 45
431.8
 46
0.0
 47
0.0
 48
0.0
 49
0.0
140
0.0
141
0.0
142
1.0
143
1.0
 70
1024
 72
1
 73
0
 74
0
  7

 75
0
147
1.0
148
0.0
149
0.0
100
AcDbLayout
  1
Model
 70
0
 71
0
 10
0.0
 20
0.0
 11
558.8
 21
431.8
 12
0.0
 22
0.0
 32
0.0
 14
0.0
 24
0.0
 34
0.0
 15
0.0
 25
0.0
 35
0.0
146
0.0
 13
0.0
 23
0.0
 33
0.0
 16
1.0
 26
0.0
 36
0.0
 17
0.0
 27
1.0
 37
0.0
 76
0
330
1FF
345
0
346
0
  0
LAYOUT
  5
481
102
{ACAD_REACTORS
330
1A
102
}
100
AcDbPlotSettings
  1

  2
none_device
  4
ANSI_C_(22.00_x_17.00_Inches)
  6

 40
0.0
 41
0.0
 42
0.0
 43
0.0
 44
558.8
 45
431.8
 46
0.0
 47
0.0
 48
0.0
 49
0.0
140
0.0
141
0.0
142
1.0
143
1.0
 70
0
 72
1
 73
0
 74
0
  7

 75
0
147
1.0
148
0.0
149
0.0
100
AcDbLayout
  1
Layout1
 70
0
 71
1
 10
0.0
 20
0.0
 11
558.8
 21
431.8
 12
0.0
 22
0.0
 32
0.0
 14
0.0
 24
0.0
 34
0.0
 15
0.0
 25
0.0
 35
0.0
146
0.0
 13
0.0
 23
0.0
 33
0.0
 16
1.0
 26
0.0
 36
0.0
 17
0.0
 27
1.0
 37
0.0
 76
0
330
200
345
0
346
0
  0
ENDSEC
  0
EOF
