999
DXF file: Y:\3D PRATIKA-KAEDRA_OLGA\TRAVAIL_PHASE_5\CAD3D\PKF16F423_3D-Simplified\pkf16f423_2d-isometric.dxf
999
Pro/ENGINEER 2018260 by Parametric Technology Corporation
  0
SECTION
  2
HEADER
  9
$ACADVER
  1
AC1027
  9
$DWGCODEPAGE
  3
ANSI_1252
  9
$EXTMAX
 10
558.8
 20
431.8
 30
0.0
  9
$EXTMIN
 10
0.0
 20
0.0
 30
0.0
  9
$LIMMIN
 10
0.0
 20
0.0
  9
$LIMMAX
 10
558.8
 20
431.8
  9
$VIEWCTR
 10
279.4
 20
215.9
  9
$VIEWSIZE
 40
431.8
  9
$CLAYER
  8
0
  9
$LTSCALE
 40
30.734
  9
$CELTYPE
  6
BYLAYER
  9
$DIMSCALE
 40
1.0
  9
$DIMASZ
 40
0.1875
  9
$DIMEXO
 40
0.0625
  9
$DIMDLI
 40
21.2344
  9
$DIMEXE
 40
0.125
  9
$DIMCEN
 40
5.0292
  9
$DIMLFAC
 40
1.0
  9
$DIMBLK
  1
_CLOSED
  9
$DIMALT
 70
0
  9
$DIMALTF
 40
0.0393700787
  9
$DIMTXT
 40
0.15625
  9
$DIMTOL
 70
0
  9
$DIMLIM
 70
0
  9
$DIMTFAC
 40
1.0
  9
$DIMGAP
 40
0.625
  9
$DIMDSEP
 70
46
  9
$AUNITS
 70
0
  9
$PDMODE
 70
3
  9
$PDSIZE
 40
0.3125
  9
$HANDSEED
  5
30D
  9
$TILEMODE
 70
1
  9
$MEASUREMENT
 70
1
  9
$INSUNITS
 70
4
  0
ENDSEC
  0
SECTION
  2
CLASSES
  0
CLASS
  1
ACDBDICTIONARYWDFLT
  2
AcDbDictionaryWithDefault
  3
AutoCAD 2000
 90
0
 91
1
280
0
281
0
  0
CLASS
  1
ACDBPLACEHOLDER
  2
AcDbPlaceHolder
  3
AutoCAD 2000
 90
0
 91
1
280
0
281
0
  0
CLASS
  1
LAYOUT
  2
AcDbLayout
  3
AutoCAD 2000
 90
0
 91
0
280
0
281
0
  0
ENDSEC
  0
SECTION
  2
TABLES
  0
TABLE
  2
VPORT
  5
8
100
AcDbSymbolTable
 70
2
  0
VPORT
  5
1F4
100
AcDbSymbolTableRecord
100
AcDbViewportTableRecord
  2
*ACTIVE
 70
0
 10
0.0
 20
0.0
 11
1.0
 21
1.0
 12
279.4
 22
215.9
 13
0.0
 23
0.0
 14
1.0
 24
1.0
 15
0.0
 25
0.0
 16
0.0
 26
0.0
 36
1.0
 17
0.0
 27
0.0
 37
0.0
 40
431.8
 41
1.2941176471
 42
50.0
 43
0.0
 44
0.0
 50
0.0
 51
0.0
 71
0
 72
100
 73
1
 74
1
 75
0
 76
0
 77
0
 78
0
  0
ENDTAB
  0
TABLE
  2
LTYPE
  5
5
100
AcDbSymbolTable
 70
6
  0
LTYPE
  5
14
100
AcDbSymbolTableRecord
100
AcDbLinetypeTableRecord
  2
BYBLOCK
 70
0
  3

 72
65
 73
0
 40
0.0
  0
LTYPE
  5
15
100
AcDbSymbolTableRecord
100
AcDbLinetypeTableRecord
  2
BYLAYER
 70
0
  3

 72
65
 73
0
 40
0.0
  0
LTYPE
  5
16
100
AcDbSymbolTableRecord
100
AcDbLinetypeTableRecord
  2
CONTINUOUS
 70
64
  3
Solid line
 72
65
 73
0
 40
0.0
  0
LTYPE
  5
1F5
100
AcDbSymbolTableRecord
100
AcDbLinetypeTableRecord
  2
CENTER
 70
64
  3
____ _ ____ _ ____ _ ____ _ ____ _ ____ _ ____
 72
65
 73
4
 40
0.6
 49
0.375
 74
0
 49
-0.075
 74
0
 49
0.075
 74
0
 49
-0.075
 74
0
  0
LTYPE
  5
1F6
100
AcDbSymbolTableRecord
100
AcDbLinetypeTableRecord
  2
HIDDEN
 70
64
  3
- - - - - - - - - - - - - - - - - - - -
 72
65
 73
2
 40
0.2
 49
0.1
 74
0
 49
-0.1
 74
0
  0
LTYPE
  5
1F7
100
AcDbSymbolTableRecord
100
AcDbLinetypeTableRecord
  2
PHANTOM
 70
64
  3
_____ _ _ _____ _ _ _____ _ _ _____
 72
65
 73
6
 40
0.8
 49
0.45
 74
0
 49
-0.05
 74
0
 49
0.1
 74
0
 49
-0.05
 74
0
 49
0.1
 74
0
 49
-0.05
 74
0
  0
LTYPE
  5
1F8
100
AcDbSymbolTableRecord
100
AcDbLinetypeTableRecord
  2
DOT
 70
64
  3
. . . . . . . . . . . . . . . . . . . .
 72
65
 73
2
 40
0.2
 49
0.1
 74
0
 49
-0.1
 74
0
  0
LTYPE
  5
1F9
100
AcDbSymbolTableRecord
100
AcDbLinetypeTableRecord
  2
DASHED
 70
64
  3
- - - - - - - - - - - - - - - - - - - -
 72
65
 73
2
 40
0.2
 49
0.1
 74
0
 49
-0.1
 74
0
  0
ENDTAB
  0
TABLE
  2
LAYER
  5
2
100
AcDbSymbolTable
 70
36
  0
LAYER
  5
10
100
AcDbSymbolTableRecord
100
AcDbLayerTableRecord
  2
0
 70
0
 62
7
  6
CONTINUOUS
370
-3
390
F
  0
LAYER
  5
1FA
100
AcDbSymbolTableRecord
100
AcDbLayerTableRecord
  2
DEFAULT_1
 70
0
 62
7
  6
CENTER
370
-3
390
F
  0
LAYER
  5
1FB
100
AcDbSymbolTableRecord
100
AcDbLayerTableRecord
  2
DEFAULT_2
 70
0
 62
8
  6
HIDDEN
370
-3
390
F
  0
LAYER
  5
1FC
100
AcDbSymbolTableRecord
100
AcDbLayerTableRecord
  2
DEFAULT_3
 70
0
 62
7
  6
PHANTOM
370
-3
390
F
  0
LAYER
  5
1FD
100
AcDbSymbolTableRecord
100
AcDbLayerTableRecord
  2
01_ALL_DTM_PLN
 70
0
 62
7
  6
CONTINUOUS
370
-3
390
F
  0
LAYER
  5
1FE
100
AcDbSymbolTableRecord
100
AcDbLayerTableRecord
  2
01__ASM_ALL_DTM_PLN
 70
0
 62
7
  6
CONTINUOUS
370
-3
390
F
  0
LAYER
  5
1FF
100
AcDbSymbolTableRecord
100
AcDbLayerTableRecord
  2
01__ASM_DEF_DTM_PLN
 70
0
 62
7
  6
CONTINUOUS
370
-3
390
F
  0
LAYER
  5
200
100
AcDbSymbolTableRecord
100
AcDbLayerTableRecord
  2
01___PRT_ALL_DTM_PLN
 70
0
 62
7
  6
CONTINUOUS
370
-3
390
F
  0
LAYER
  5
201
100
AcDbSymbolTableRecord
100
AcDbLayerTableRecord
  2
01___PRT_DEF_DTM_PLN
 70
0
 62
7
  6
CONTINUOUS
370
-3
390
F
  0
LAYER
  5
202
100
AcDbSymbolTableRecord
100
AcDbLayerTableRecord
  2
02_ALL_AXES
 70
0
 62
7
  6
CONTINUOUS
370
-3
390
F
  0
LAYER
  5
203
100
AcDbSymbolTableRecord
100
AcDbLayerTableRecord
  2
02__ASM_ALL_AXES
 70
0
 62
7
  6
CONTINUOUS
370
-3
390
F
  0
LAYER
  5
204
100
AcDbSymbolTableRecord
100
AcDbLayerTableRecord
  2
02___PRT_ALL_AXES
 70
0
 62
7
  6
CONTINUOUS
370
-3
390
F
  0
LAYER
  5
205
100
AcDbSymbolTableRecord
100
AcDbLayerTableRecord
  2
03_ALL_CURVES
 70
0
 62
7
  6
CONTINUOUS
370
-3
390
F
  0
LAYER
  5
206
100
AcDbSymbolTableRecord
100
AcDbLayerTableRecord
  2
03__ASM_ALL_CURVES
 70
0
 62
7
  6
CONTINUOUS
370
-3
390
F
  0
LAYER
  5
207
100
AcDbSymbolTableRecord
100
AcDbLayerTableRecord
  2
03___PRT_ALL_CURVES
 70
0
 62
7
  6
CONTINUOUS
370
-3
390
F
  0
LAYER
  5
208
100
AcDbSymbolTableRecord
100
AcDbLayerTableRecord
  2
04_ALL_DTM_PNT
 70
0
 62
7
  6
CONTINUOUS
370
-3
390
F
  0
LAYER
  5
209
100
AcDbSymbolTableRecord
100
AcDbLayerTableRecord
  2
04__ASM_ALL_DTM_PNT
 70
0
 62
7
  6
CONTINUOUS
370
-3
390
F
  0
LAYER
  5
20A
100
AcDbSymbolTableRecord
100
AcDbLayerTableRecord
  2
04___PRT_ALL_DTM_PNT
 70
0
 62
7
  6
CONTINUOUS
370
-3
390
F
  0
LAYER
  5
20B
100
AcDbSymbolTableRecord
100
AcDbLayerTableRecord
  2
05_ALL_DTM_CSYS
 70
0
 62
7
  6
CONTINUOUS
370
-3
390
F
  0
LAYER
  5
20C
100
AcDbSymbolTableRecord
100
AcDbLayerTableRecord
  2
05__ASM_ALL_DTM_CSYS
 70
0
 62
7
  6
CONTINUOUS
370
-3
390
F
  0
LAYER
  5
20D
100
AcDbSymbolTableRecord
100
AcDbLayerTableRecord
  2
05__ASM_DEF_DTM_CSYS
 70
0
 62
7
  6
CONTINUOUS
370
-3
390
F
  0
LAYER
  5
20E
100
AcDbSymbolTableRecord
100
AcDbLayerTableRecord
  2
05___PRT_ALL_DTM_CSYS
 70
0
 62
7
  6
CONTINUOUS
370
-3
390
F
  0
LAYER
  5
20F
100
AcDbSymbolTableRecord
100
AcDbLayerTableRecord
  2
05___PRT_DEF_DTM_CSYS
 70
0
 62
7
  6
CONTINUOUS
370
-3
390
F
  0
LAYER
  5
210
100
AcDbSymbolTableRecord
100
AcDbLayerTableRecord
  2
06_ALL_SURFS
 70
0
 62
7
  6
CONTINUOUS
370
-3
390
F
  0
LAYER
  5
211
100
AcDbSymbolTableRecord
100
AcDbLayerTableRecord
  2
06__ASM_ALL_SURFS
 70
0
 62
7
  6
CONTINUOUS
370
-3
390
F
  0
LAYER
  5
212
100
AcDbSymbolTableRecord
100
AcDbLayerTableRecord
  2
06___PRT_ALL_SURFS
 70
0
 62
7
  6
CONTINUOUS
370
-3
390
F
  0
LAYER
  5
213
100
AcDbSymbolTableRecord
100
AcDbLayerTableRecord
  2
07__ASM_ALL_SKELETONS
 70
0
 62
7
  6
CONTINUOUS
370
-3
390
F
  0
ENDTAB
  0
TABLE
  2
STYLE
  5
3
100
AcDbSymbolTable
 70
1
  0
STYLE
  5
11
100
AcDbSymbolTableRecord
100
AcDbTextStyleTableRecord
  2
STANDARD
 70
0
 40
0.0
 41
0.8
 50
0.0
 71
0
 42
0.2
  3
txt
  4

  0
STYLE
  5
214
100
AcDbSymbolTableRecord
100
AcDbTextStyleTableRecord
  2
TEXTSTYLE_1
 70
0
 40
0.0
 41
0.8
 50
0.0
 71
0
 42
0.2
  3
gdt
  4

  0
ENDTAB
  0
TABLE
  2
VIEW
  5
6
100
AcDbSymbolTable
 70
0
  0
ENDTAB
  0
TABLE
  2
UCS
  5
7
100
AcDbSymbolTable
 70
0
  0
ENDTAB
  0
TABLE
  2
APPID
  5
9
100
AcDbSymbolTable
 70
1
  0
APPID
  5
215
100
AcDbSymbolTableRecord
100
AcDbRegAppTableRecord
  2
ACAD
 70
0
  0
ENDTAB
  0
TABLE
  2
BLOCK_RECORD
  5
1
100
AcDbSymbolTable
 70
0
  0
BLOCK_RECORD
  5
216
100
AcDbSymbolTableRecord
100
AcDbBlockTableRecord
  2
*Model_Space
  0
BLOCK_RECORD
  5
217
100
AcDbSymbolTableRecord
100
AcDbBlockTableRecord
  2
*Paper_Space
  0
BLOCK_RECORD
  5
218
100
AcDbSymbolTableRecord
100
AcDbBlockTableRecord
  2
_CLOSED
  0
ENDTAB
  0
TABLE
  2
DIMSTYLE
  5
A
100
AcDbSymbolTable
 70
1
100
AcDbDimStyleTable
 71
0
  0
DIMSTYLE
105
219
100
AcDbSymbolTableRecord
100
AcDbDimStyleTableRecord
  2
STANDARD
 70
0
  3

  4

 40
1.0
 41
0.1875
 42
0.0625
 43
0.38
 44
0.125
 45
0.0
 46
0.0
 47
0.01
 48
0.01
140
0.15625
141
0.09
142
0.0
143
25.4
144
1.0
145
0.0
146
1.0
147
0.625
 71
0.0
 72
0.0
 73
1
 74
1
 75
0
 76
0
 77
0
 78
8
 79
2
170
0
171
1
172
0
173
0
174
0
175
0
176
0
177
0
178
0
270
2
179
2
271
2
272
2
273
2
274
2
275
0
280
0
281
0
282
0
283
1
284
8
285
0
286
0
287
3
288
0
340
11
278
46
341
218
342
218
343
218
344
218
  0
ENDTAB
  0
ENDSEC
  0
SECTION
  2
BLOCKS
  0
BLOCK
  5
20
100
AcDbEntity
  8
0
100
AcDbBlockBegin
  2
*Model_Space
 70
0
 10
0.0
 20
0.0
 30
0.0
  3
*Model_Space
  1

  0
ENDBLK
  5
21
100
AcDbEntity
  8
0
100
AcDbBlockEnd
  0
BLOCK
  5
1C
100
AcDbEntity
  8
0
100
AcDbBlockBegin
  2
*Paper_Space
 70
0
 10
0.0
 20
0.0
 30
0.0
  3
*Paper_Space
  1

  0
ENDBLK
  5
1D
100
AcDbEntity
  8
0
100
AcDbBlockEnd
  0
BLOCK
  5
21A
100
AcDbEntity
  8
0
100
AcDbBlockBegin
  2
_CLOSED
 70
64
 10
0.0
 20
0.0
  3
_CLOSED
  1

  0
LINE
  5
21B
100
AcDbEntity
  8
0
  6
BYBLOCK
 62
0
100
AcDbLine
 10
0.0
 20
0.0
 11
-1.0
 21
0.1666666667
  0
LINE
  5
21C
100
AcDbEntity
  8
0
  6
BYBLOCK
 62
0
100
AcDbLine
 10
-1.0
 20
0.1666666667
 11
-1.0
 21
-0.1666666667
  0
LINE
  5
21D
100
AcDbEntity
  8
0
  6
BYBLOCK
 62
0
100
AcDbLine
 10
-1.0
 20
-0.1666666667
 11
0.0
 21
0.0
  0
LINE
  5
21E
100
AcDbEntity
  8
0
  6
BYBLOCK
 62
0
100
AcDbLine
 10
-1.0
 20
0.0
 11
0.0
 21
0.0
  0
ENDBLK
  5
21F
100
AcDbEntity
  8
0
  6
BYBLOCK
 62
0
100
AcDbBlockEnd
  0
ENDSEC
  0
SECTION
  2
ENTITIES
  0
LINE
  5
220
100
AcDbEntity
  8
0
100
AcDbLine
 62
7
  6
CONTINUOUS
 10
-1.1889793619
 20
266.3976048053
 11
-0.799166117
 21
266.5641987438
  0
LINE
  5
221
100
AcDbEntity
  8
0
100
AcDbLine
 62
7
  6
CONTINUOUS
 10
6.2256275131
 20
268.447233191
 11
5.8358142682
 21
268.2806392525
  0
LINE
  5
222
100
AcDbEntity
  8
0
100
AcDbLine
 62
7
  6
CONTINUOUS
 10
-7.7105916766
 20
191.9102998129
 11
27.0001533129
 21
201.2147053152
  0
LINE
  5
223
100
AcDbEntity
  8
0
100
AcDbLine
 62
7
  6
CONTINUOUS
 10
-12.8066504992
 20
190.8479591911
 11
-8.6744189522
 21
191.955626513
  0
LINE
  5
224
100
AcDbEntity
  8
0
100
AcDbLine
 62
7
  6
CONTINUOUS
 10
26.9484278741
 20
201.5045259134
 11
30.1685575908
 21
202.3676993389
  0
LINE
  5
225
100
AcDbEntity
  8
0
100
AcDbLine
 62
7
  6
CONTINUOUS
 10
3.5895835112
 20
269.8994653811
 11
-1.8304904437
 21
266.6338339662
  0
LINE
  5
226
100
AcDbEntity
  8
0
100
AcDbLine
 62
7
  6
CONTINUOUS
 10
-0.799166117
 20
266.5641987438
 11
4.1795376376
 21
269.5639016116
  0
LINE
  5
227
100
AcDbEntity
  8
0
100
AcDbLine
 62
7
  6
CONTINUOUS
 10
6.3250820214
 20
268.5071552085
 11
6.2256275131
 21
268.447233191
  0
LINE
  5
228
100
AcDbEntity
  8
0
100
AcDbLine
 62
7
  6
CONTINUOUS
 10
-16.2240733095
 20
190.7846858821
 11
-14.2428727986
 21
190.6915143318
  0
LINE
  5
229
100
AcDbEntity
  8
0
100
AcDbLine
 62
7
  6
CONTINUOUS
 10
-7.7105916766
 20
191.9102998129
 11
-8.6744189522
 21
191.955626513
  0
LINE
  5
22A
100
AcDbEntity
  8
0
100
AcDbLine
 62
7
  6
CONTINUOUS
 10
-4.5454547992
 20
208.0208221601
 11
1.4082706429
 21
209.6167509072
  0
LINE
  5
22B
100
AcDbEntity
  8
0
100
AcDbLine
 62
7
  6
CONTINUOUS
 10
-20.2593982062
 20
206.4221476717
 11
-14.8874971949
 21
207.8621151902
  0
LINE
  5
22C
100
AcDbEntity
  8
0
100
AcDbLine
 62
7
  6
CONTINUOUS
 10
-21.2906309251
 20
195.8375425112
 11
-19.3094304142
 21
195.7443709609
  0
LINE
  5
22D
100
AcDbEntity
  8
0
100
AcDbLine
 62
7
  6
CONTINUOUS
 10
-9.8853587989
 20
204.095644598
 11
-10.8491860745
 21
204.1409712982
  0
LINE
  5
22E
100
AcDbEntity
  8
0
100
AcDbLine
 62
7
  6
CONTINUOUS
 10
-20.2593982062
 20
206.4221476717
 11
-21.2232254818
 21
206.4674743718
  0
LINE
  5
22F
100
AcDbEntity
  8
0
100
AcDbLine
 62
7
  6
CONTINUOUS
 10
-30.6761398072
 20
242.3475236823
 11
-30.6726795592
 21
242.3066161984
  0
LINE
  5
230
100
AcDbEntity
  8
0
100
AcDbLine
 62
7
  6
CONTINUOUS
 10
34.0817741794
 20
252.2249117346
 11
28.2034509872
 21
250.6491949739
  0
LINE
  5
231
100
AcDbEntity
  8
0
100
AcDbLine
 62
7
  6
CONTINUOUS
 10
32.8485112606
 20
252.9371865787
 11
26.9782224746
 21
251.3635886553
  0
LINE
  5
232
100
AcDbEntity
  8
0
100
AcDbLine
 62
7
  6
CONTINUOUS
 10
-5.7164593261
 20
208.6972118993
 11
-4.5454547992
 21
208.0208221601
  0
LINE
  5
233
100
AcDbEntity
  8
0
100
AcDbLine
 62
7
  6
CONTINUOUS
 10
-30.6657203982
 20
242.3513682348
 11
-30.6609172086
 21
242.310989794
  0
LINE
  5
234
100
AcDbEntity
  8
0
100
AcDbLine
 62
7
  6
CONTINUOUS
 10
-7.212039624
 20
276.6170847311
 11
-4.5093594337
 21
290.9196363744
  0
LINE
  5
235
100
AcDbEntity
  8
0
100
AcDbLine
 62
7
  6
CONTINUOUS
 10
43.8254851977
 20
262.1828383712
 11
39.2800304959
 21
260.9644043171
  0
LINE
  5
236
100
AcDbEntity
  8
0
100
AcDbLine
 62
7
  6
CONTINUOUS
 10
14.7681974086
 20
202.7726723084
 11
12.3422764763
 21
204.1726968645
  0
LINE
  5
237
100
AcDbEntity
  8
0
100
AcDbLine
 62
7
  6
CONTINUOUS
 10
3.6405505548
 20
208.2570039069
 11
1.3249918981
 21
209.5944275831
  0
LINE
  5
238
100
AcDbEntity
  8
0
100
AcDbLine
 62
7
  6
CONTINUOUS
 10
9.1314372011
 20
206.4788181416
 11
13.0433728052
 21
204.219356788
  0
LINE
  5
239
100
AcDbEntity
  8
0
100
AcDbLine
 62
7
  6
CONTINUOUS
 10
-0.7998176526
 20
216.421995729
 11
13.0023528141
 21
208.4501183973
  0
LINE
  5
23A
100
AcDbEntity
  8
0
100
AcDbLine
 62
7
  6
CONTINUOUS
 10
-1.884191721
 20
219.5317948927
 11
6.5786246175
 21
214.6438293445
  0
LINE
  5
23B
100
AcDbEntity
  8
0
100
AcDbLine
 62
7
  6
CONTINUOUS
 10
-21.2906309251
 20
195.8375425112
 11
-33.8172895493
 21
266.0251284737
  0
LINE
  5
23C
100
AcDbEntity
  8
0
100
AcDbLine
 62
7
  6
CONTINUOUS
 10
-31.8360890383
 20
265.9319569234
 11
-29.9222939708
 21
255.2088535125
  0
LINE
  5
23D
100
AcDbEntity
  8
0
100
AcDbLine
 62
7
  6
CONTINUOUS
 10
-21.2232254818
 20
206.4674743718
 11
-19.3094304142
 21
195.7443709609
  0
LINE
  5
23E
100
AcDbEntity
  8
0
100
AcDbLine
 62
7
  6
CONTINUOUS
 10
-28.9584666952
 20
255.1635268123
 11
-20.2593982062
 21
206.4221476717
  0
LINE
  5
23F
100
AcDbEntity
  8
0
100
AcDbLine
 62
7
  6
CONTINUOUS
 10
-28.9584666952
 20
255.1635268123
 11
-23.5865656841
 21
256.6034943308
  0
LINE
  5
240
100
AcDbEntity
  8
0
100
AcDbLine
 62
7
  6
CONTINUOUS
 10
-29.9222939708
 20
255.2088535125
 11
-24.5503929595
 21
256.648821031
  0
LINE
  5
241
100
AcDbEntity
  8
0
100
AcDbLine
 62
7
  6
CONTINUOUS
 10
18.7861041607
 20
210.0004846562
 11
13.0711544705
 21
213.3013334609
  0
LINE
  5
242
100
AcDbEntity
  8
0
100
AcDbLine
 62
7
  6
CONTINUOUS
 10
-8.6744189522
 20
191.955626513
 11
-10.8491860745
 21
204.1409712982
  0
LINE
  5
243
100
AcDbEntity
  8
0
100
AcDbLine
 62
7
  6
CONTINUOUS
 10
-21.2880682613
 20
262.6306262669
 11
-23.4628353835
 21
274.8159710521
  0
LINE
  5
244
100
AcDbEntity
  8
0
100
AcDbLine
 62
7
  6
CONTINUOUS
 10
-22.4990081079
 20
274.770644352
 11
-20.3242409857
 21
262.5852995668
  0
LINE
  5
245
100
AcDbEntity
  8
0
100
AcDbLine
 62
7
  6
CONTINUOUS
 10
-7.7105916766
 20
191.9102998129
 11
-9.8853587989
 21
204.095644598
  0
LINE
  5
246
100
AcDbEntity
  8
0
100
AcDbLine
 62
7
  6
CONTINUOUS
 10
-4.9296222456
 20
268.4703822574
 11
-4.9296222456
 21
259.7402943626
  0
LINE
  5
247
100
AcDbEntity
  8
0
100
AcDbLine
 62
7
  6
CONTINUOUS
 10
-1.8305233068
 20
260.5699972771
 11
-1.8304759883
 21
269.3011254038
  0
LINE
  5
248
100
AcDbEntity
  8
0
100
AcDbLine
 62
7
  6
CONTINUOUS
 10
-1.8304926565
 20
266.2255375802
 11
-1.1889528081
 21
266.3975058539
  0
LINE
  5
249
100
AcDbEntity
  8
0
100
AcDbLine
 62
7
  6
CONTINUOUS
 10
5.835840822
 20
268.2805403012
 11
6.4560361145
 21
268.4467870497
  0
LINE
  5
24A
100
AcDbEntity
  8
0
100
AcDbLine
 62
7
  6
CONTINUOUS
 10
-1.8304923193
 20
266.2877461008
 11
-0.799166117
 21
266.5641987438
  0
LINE
  5
24B
100
AcDbEntity
  8
0
100
AcDbLine
 62
7
  6
CONTINUOUS
 10
6.2256275132
 20
268.4472331911
 11
6.3707071853
 21
268.4861225926
  0
LINE
  5
24C
100
AcDbEntity
  8
0
100
AcDbLine
 62
7
  6
CONTINUOUS
 10
-1.8304666763
 20
269.3011278996
 11
-4.9296222456
 21
268.4703822575
  0
LINE
  5
24D
100
AcDbEntity
  8
0
100
AcDbLine
 62
7
  6
CONTINUOUS
 10
-28.9584666952
 20
255.1635268123
 11
-29.9222939708
 21
255.2088535125
  0
LINE
  5
24E
100
AcDbEntity
  8
0
100
AcDbLine
 62
7
  6
CONTINUOUS
 10
-23.586565684
 20
256.6034943308
 11
-24.5503929595
 21
256.648821031
  0
LINE
  5
24F
100
AcDbEntity
  8
0
100
AcDbLine
 62
7
  6
CONTINUOUS
 10
-9.2860834096
 20
240.3261343617
 11
-17.4255596647
 21
245.0273446826
  0
LINE
  5
250
100
AcDbEntity
  8
0
100
AcDbLine
 62
7
  6
CONTINUOUS
 10
-16.6998763995
 20
266.5385745681
 11
-17.8329381195
 21
272.8871843022
  0
LINE
  5
251
100
AcDbEntity
  8
0
100
AcDbLine
 62
7
  6
CONTINUOUS
 10
-8.7202342236
 20
275.5874768527
 11
-5.621068626
 21
276.4182251829
  0
LINE
  5
252
100
AcDbEntity
  8
0
100
AcDbLine
 62
7
  6
CONTINUOUS
 10
-7.1520361575
 20
276.9346223675
 11
-8.3051333117
 21
276.6255283532
  0
LINE
  5
253
100
AcDbEntity
  8
0
100
AcDbLine
 62
7
  6
CONTINUOUS
 10
-7.1090565959
 20
277.1620696993
 11
-13.3657210157
 21
275.4849364983
  0
LINE
  5
254
100
AcDbEntity
  8
0
100
AcDbLine
 62
7
  6
CONTINUOUS
 10
-22.4990081079
 20
274.770644352
 11
-6.7639214926
 21
278.9885205896
  0
LINE
  5
255
100
AcDbEntity
  8
0
100
AcDbLine
 62
7
  6
CONTINUOUS
 10
-23.4628353835
 20
274.8159710521
 11
-27.5950669306
 21
273.7083037302
  0
LINE
  5
256
100
AcDbEntity
  8
0
100
AcDbLine
 62
7
  6
CONTINUOUS
 10
-29.5762674416
 20
273.8014752805
 11
-6.579219756
 21
279.965959998
  0
LINE
  5
257
100
AcDbEntity
  8
0
100
AcDbLine
 62
7
  6
CONTINUOUS
 10
-21.2880682613
 20
262.6306262669
 11
-20.3242409857
 21
262.5852995668
  0
LINE
  5
258
100
AcDbEntity
  8
0
100
AcDbLine
 62
7
  6
CONTINUOUS
 10
-31.8360890383
 20
265.9319569234
 11
-33.8172895493
 21
266.0251284737
  0
LINE
  5
259
100
AcDbEntity
  8
0
100
AcDbLine
 62
7
  6
CONTINUOUS
 10
14.7681974086
 20
203.7991084369
 11
14.7681974086
 21
202.7726723084
  0
LINE
  5
25A
100
AcDbEntity
  8
0
100
AcDbLine
 62
7
  6
CONTINUOUS
 10
12.3422764763
 20
204.1726968645
 11
12.3544535816
 21
204.6172637372
  0
LINE
  5
25B
100
AcDbEntity
  8
0
100
AcDbLine
 62
7
  6
CONTINUOUS
 10
24.7268754371
 20
295.7177702848
 11
23.5502588599
 21
295.4023717603
  0
LINE
  5
25C
100
AcDbEntity
  8
0
100
AcDbLine
 62
7
  6
CONTINUOUS
 10
6.0687805883
 20
290.7163656642
 11
4.8921640108
 21
290.4009671397
  0
LINE
  5
25D
100
AcDbEntity
  8
0
100
AcDbLine
 62
7
  6
CONTINUOUS
 10
-29.5762674416
 20
273.8014752805
 11
-27.5950669306
 21
273.7083037302
  0
LINE
  5
25E
100
AcDbEntity
  8
0
100
AcDbLine
 62
7
  6
CONTINUOUS
 10
-22.4990081079
 20
274.770644352
 11
-23.4628353835
 21
274.8159710521
  0
LINE
  5
25F
100
AcDbEntity
  8
0
100
AcDbLine
 62
7
  6
CONTINUOUS
 10
-16.6998763995
 20
266.5385745681
 11
-4.9296222456
 21
259.7402943626
  0
LINE
  5
260
100
AcDbEntity
  8
0
100
AcDbLine
 62
7
  6
CONTINUOUS
 10
15.5813120544
 20
249.8624300027
 11
24.0838012785
 21
244.9515501326
  0
LINE
  5
261
100
AcDbEntity
  8
0
100
AcDbLine
 62
7
  6
CONTINUOUS
 10
4.4048774607
 20
252.1469260537
 11
2.0627993232
 21
253.5002353171
  0
LINE
  5
262
100
AcDbEntity
  8
0
100
AcDbLine
 62
7
  6
CONTINUOUS
 10
-2.2347778396
 20
292.9202677362
 11
17.5999335866
 21
298.2370708814
  0
LINE
  5
263
100
AcDbEntity
  8
0
100
AcDbLine
 62
7
  6
CONTINUOUS
 10
-3.0795075561
 20
292.949533067
 11
16.7552038701
 21
298.2663362121
  0
LINE
  5
264
100
AcDbEntity
  8
0
100
AcDbLine
 62
7
  6
CONTINUOUS
 10
20.5470068467
 20
255.0777011239
 11
19.760055927
 21
255.5001123531
  0
LINE
  5
265
100
AcDbEntity
  8
0
100
AcDbLine
 62
7
  6
CONTINUOUS
 10
19.760055927
 20
255.5001123531
 11
10.1504699171
 21
261.0504307659
  0
LINE
  5
266
100
AcDbEntity
  8
0
100
AcDbLine
 62
7
  6
CONTINUOUS
 10
20.5471966378
 20
255.0780297435
 11
28.1625239457
 21
250.6795112434
  0
LINE
  5
267
100
AcDbEntity
  8
0
100
AcDbLine
 62
7
  6
CONTINUOUS
 10
28.1476193338
 20
250.6875043356
 11
28.1615988344
 21
250.6779121829
  0
LINE
  5
268
100
AcDbEntity
  8
0
100
AcDbLine
 62
7
  6
CONTINUOUS
 10
27.0001533129
 20
201.2147053152
 11
25.682877917
 21
208.5954748522
  0
LINE
  5
269
100
AcDbEntity
  8
0
100
AcDbLine
 62
7
  6
CONTINUOUS
 10
32.8483226528
 20
252.9370389395
 11
34.0817741794
 21
252.2249117346
  0
LINE
  5
26A
100
AcDbEntity
  8
0
100
AcDbLine
 62
7
  6
CONTINUOUS
 10
34.4095796985
 20
210.1440461457
 11
33.1906852302
 21
216.9735816859
  0
LINE
  5
26B
100
AcDbEntity
  8
0
100
AcDbLine
 62
7
  6
CONTINUOUS
 10
27.9616518368
 20
251.6272081225
 11
25.6350491189
 21
264.6632964491
  0
LINE
  5
26C
100
AcDbEntity
  8
0
100
AcDbLine
 62
7
  6
CONTINUOUS
 10
36.5966654757
 20
269.3838875092
 11
36.5966654757
 21
271.1939545447
  0
LINE
  5
26D
100
AcDbEntity
  8
0
100
AcDbLine
 62
7
  6
CONTINUOUS
 10
39.2800304959
 20
260.9644043171
 11
39.2800304959
 21
265.3846021135
  0
LINE
  5
26E
100
AcDbEntity
  8
0
100
AcDbLine
 62
7
  6
CONTINUOUS
 10
43.8254851977
 20
262.1828383712
 11
43.8254851977
 21
266.2411989634
  0
LINE
  5
26F
100
AcDbEntity
  8
0
100
AcDbLine
 62
7
  6
CONTINUOUS
 10
39.2800304959
 20
260.9644043171
 11
37.8724916473
 21
261.7773726156
  0
LINE
  5
270
100
AcDbEntity
  8
0
100
AcDbLine
 62
7
  6
CONTINUOUS
 10
36.5966654757
 20
269.3838875092
 11
33.6360467475
 21
271.0938738746
  0
LINE
  5
271
100
AcDbEntity
  8
0
100
AcDbLine
 62
7
  6
CONTINUOUS
 10
37.8724916473
 20
261.7773726156
 11
37.3079415087
 21
265.1186504548
  0
LINE
  5
272
100
AcDbEntity
  8
0
100
AcDbLine
 62
7
  6
CONTINUOUS
 10
4.8921640108
 20
290.4009671397
 11
5.2665602554
 21
290.184722822
  0
LINE
  5
273
100
AcDbEntity
  8
0
100
AcDbLine
 62
7
  6
CONTINUOUS
 10
56.4313769019
 20
276.5107576899
 11
56.4313769019
 21
274.7006906543
  0
LINE
  5
274
100
AcDbEntity
  8
0
100
AcDbLine
 62
7
  6
CONTINUOUS
 10
24.7268754371
 20
295.7177702848
 11
25.1012716817
 21
295.5015259671
  0
ARC
  5
275
100
AcDbEntity
  8
0
100
AcDbCircle
 62
7
  6
CONTINUOUS
 10
-62.7021176342
 20
148.0117416976
 40
158.2216985403
100
AcDbArc
 50
51.1272611631
 51
53.1868316006
  0
ARC
  5
276
100
AcDbEntity
  8
0
100
AcDbCircle
 62
7
  6
CONTINUOUS
 10
-41.7073552563
 20
154.8217606783
 40
156.331131715
100
AcDbArc
 50
51.1148062463
 51
53.1992865179
  0
ARC
  5
277
100
AcDbEntity
  8
0
100
AcDbCircle
 62
7
  6
CONTINUOUS
 10
-9.7745382066
 20
209.4559398075
 40
92.9056023107
100
AcDbArc
 50
68.2004907156
 51
72.8635547433
  0
ARC
  5
278
100
AcDbEntity
  8
0
100
AcDbCircle
 62
7
  6
CONTINUOUS
 10
-29.0470248218
 20
205.7296350487
 40
91.2200801177
100
AcDbArc
 50
68.1573852925
 51
72.9066601663
  0
ARC
  5
279
100
AcDbEntity
  8
0
100
AcDbCircle
 62
7
  6
CONTINUOUS
 10
28.5529471527
 20
227.5474113027
 40
68.1469555576
100
AcDbArc
 50
92.9083202754
 51
93.0374363345
  0
ARC
  5
27A
100
AcDbEntity
  8
0
100
AcDbCircle
 62
7
  6
CONTINUOUS
 10
28.5423455316
 20
229.4367814703
 40
66.154300349
100
AcDbArc
 50
92.9816357097
 51
93.3593842074
  0
ARC
  5
27B
100
AcDbEntity
  8
0
100
AcDbCircle
 62
7
  6
CONTINUOUS
 10
28.4925386495
 20
230.2513815018
 40
65.3381792001
100
AcDbArc
 50
93.430673102
 51
94.3380839314
  0
ARC
  5
27C
100
AcDbEntity
  8
0
100
AcDbCircle
 62
7
  6
CONTINUOUS
 10
28.2955653294
 20
232.7424974027
 40
62.839301301
100
AcDbArc
 50
94.3308104683
 51
97.3721203329
  0
ARC
  5
27D
100
AcDbEntity
  8
0
100
AcDbCircle
 62
7
  6
CONTINUOUS
 10
27.8740978706
 20
236.2658711239
 40
59.2909828287
100
AcDbArc
 50
97.4050837652
 51
97.5844923911
  0
ARC
  5
27E
100
AcDbEntity
  8
0
100
AcDbCircle
 62
7
  6
CONTINUOUS
 10
-45.5725838166
 20
257.2254467041
 40
50.2348286587
100
AcDbArc
 50
346.634579149
 51
354.1976765113
  0
ARC
  5
27F
100
AcDbEntity
  8
0
100
AcDbCircle
 62
7
  6
CONTINUOUS
 10
-8.9017614834
 20
264.1187321887
 40
43.105889744
100
AcDbArc
 50
9.312210035
 51
11.0200858275
  0
ARC
  5
280
100
AcDbEntity
  8
0
100
AcDbCircle
 62
7
  6
CONTINUOUS
 10
32.7941009706
 20
276.4049897639
 40
25.8092996021
100
AcDbArc
 50
0.0058092841
 51
19.6827677483
  0
ARC
  5
281
100
AcDbEntity
  8
0
100
AcDbCircle
 62
7
  6
CONTINUOUS
 10
24.4126883136
 20
276.404991776
 40
25.8092880061
100
AcDbArc
 50
160.3172278007
 51
179.9941951802
  0
ARC
  5
282
100
AcDbEntity
  8
0
100
AcDbCircle
 62
7
  6
CONTINUOUS
 10
14.3949575167
 20
277.2815394119
 40
15.8056881746
100
AcDbArc
 50
121.7883904584
 51
125.2776163948
  0
ARC
  5
283
100
AcDbEntity
  8
0
100
AcDbCircle
 62
7
  6
CONTINUOUS
 10
-14.9306453725
 20
204.3883943527
 40
3.6451874789
100
AcDbArc
 50
72.5024646013
 51
74.6831107242
  0
ARC
  5
284
100
AcDbEntity
  8
0
100
AcDbCircle
 62
7
  6
CONTINUOUS
 10
-14.9217488426
 20
204.4208959938
 40
3.6114902254
100
AcDbArc
 50
74.6830309816
 51
79.0622538081
  0
ARC
  5
285
100
AcDbEntity
  8
0
100
AcDbCircle
 62
7
  6
CONTINUOUS
 10
16.6091407748
 20
208.3797483186
 40
3.6074743715
100
AcDbArc
 50
178.8822750103
 51
179.9985385164
  0
ARC
  5
286
100
AcDbEntity
  8
0
100
AcDbCircle
 62
7
  6
CONTINUOUS
 10
15.1793162001
 20
209.930666606
 40
3.6074743715
100
AcDbArc
 50
358.8822750103
 51
359.9985385164
  0
ARC
  5
287
100
AcDbEntity
  8
0
100
AcDbCircle
 62
7
  6
CONTINUOUS
 10
15.2356790132
 20
209.930666521
 40
3.5511115584
100
AcDbArc
 50
359.9985166912
 51
1.1265605646
  0
ARC
  5
288
100
AcDbEntity
  8
0
100
AcDbCircle
 62
7
  6
CONTINUOUS
 10
6.9097101271
 20
234.9000544168
 40
1.8406547958
100
AcDbArc
 50
60.03648498
 51
71.5000219514
  0
ARC
  5
289
100
AcDbEntity
  8
0
100
AcDbCircle
 62
7
  6
CONTINUOUS
 10
19.4349290656
 20
238.2576174827
 40
1.8405177435
100
AcDbArc
 50
60.036099006
 51
71.4584247868
  0
ARC
  5
28A
100
AcDbEntity
  8
0
100
AcDbCircle
 62
7
  6
CONTINUOUS
 10
5.5985104393
 20
232.630377909
 40
1.8381276259
100
AcDbArc
 50
228.4329255176
 51
239.951051091
  0
ARC
  5
28B
100
AcDbEntity
  8
0
100
AcDbCircle
 62
7
  6
CONTINUOUS
 10
18.1233648961
 20
235.9873795093
 40
1.8375961463
100
AcDbArc
 50
228.5720239542
 51
239.9525149668
  0
ARC
  5
28C
100
AcDbEntity
  8
0
100
AcDbCircle
 62
7
  6
CONTINUOUS
 10
-7.6494430012
 20
268.8561328564
 40
0.5474994856
100
AcDbArc
 50
272.4289136332
 51
284.9307052384
  0
ARC
  5
28D
100
AcDbEntity
  8
0
100
AcDbCircle
 62
7
  6
CONTINUOUS
 10
-8.4031719447
 20
271.6630444538
 40
0.5461351506
100
AcDbArc
 50
92.4138854997
 51
104.947009238
  0
SPLINE
  5
28E
100
AcDbEntity
  8
0
100
AcDbSpline
 62
7
  6
CONTINUOUS
 70
0
 71
3
 72
20
 73
16
 74
0
 42
0.0000001
 43
0.0000001
 44
0.0000000001
 40
0.0
 40
0.0
 40
0.0
 40
0.0
 40
0.0527860015
 40
0.1117095947
 40
0.1763666303
 40
0.2459442301
 40
0.3948280941
 40
0.5471737835
 40
0.6908580996
 40
0.7562119328
 40
0.815900553
 40
0.8694870362
 40
0.9171655787
 40
0.9599859103
 40
1.0
 40
1.0
 40
1.0
 40
1.0
 10
-8.0262077125
 20
268.4202432884
 30
0.0
 10
-8.092375092
 20
268.458460338
 30
0.0
 10
-8.2238711424
 20
268.5544031551
 30
0.0
 10
-8.4041367939
 20
268.7362718656
 30
0.0
 10
-8.5739872816
 20
268.959263496
 30
0.0
 10
-8.7851924303
 20
269.3112255893
 30
0.0
 10
-8.9921062993
 20
269.8100810056
 30
0.0
 10
-9.1368817586
 20
270.4403279185
 30
0.0
 10
-9.1647976051
 20
270.9664413596
 30
0.0
 10
-9.1213743635
 20
271.3538277322
 30
0.0
 10
-9.0599633173
 20
271.6058799256
 30
0.0
 10
-8.9701345103
 20
271.8220956286
 30
0.0
 10
-8.853325483
 20
271.9969354916
 30
0.0
 10
-8.7112924424
 20
272.1249997748
 30
0.0
 10
-8.5999792815
 20
272.1756937618
 30
0.0
 10
-8.544034173
 20
272.1907010043
 30
0.0
  0
SPLINE
  5
28F
100
AcDbEntity
  8
0
100
AcDbSpline
 62
7
  6
CONTINUOUS
 70
0
 71
3
 72
10
 73
6
 74
0
 42
0.0000001
 43
0.0000001
 44
0.0000000001
 40
0.0
 40
0.0
 40
0.0
 40
0.0
 40
0.2307026303
 40
0.4700767339
 40
1.0
 40
1.0
 40
1.0
 40
1.0
 10
-7.508381252
 20
268.3271240262
 30
0.0
 10
-7.5483610008
 20
268.316399482
 30
0.0
 10
-7.6327151986
 20
268.3041100477
 30
0.0
 10
-7.8127184956
 20
268.3186106041
 30
0.0
 10
-7.9438742284
 20
268.3726889971
 30
0.0
 10
-8.0262077125
 20
268.4202432884
 30
0.0
  0
SPLINE
  5
290
100
AcDbEntity
  8
0
100
AcDbSpline
 62
7
  6
CONTINUOUS
 70
0
 71
3
 72
18
 73
14
 74
0
 42
0.0000001
 43
0.0000001
 44
0.0000000001
 40
0.0
 40
0.0
 40
0.0
 40
0.0
 40
0.1266265411
 40
0.2692571754
 40
0.4194785342
 40
0.5675453569
 40
0.7040780342
 40
0.7657218874
 40
0.8220833496
 40
0.8729999887
 40
0.9188267659
 40
0.9605789904
 40
1.0
 40
1.0
 40
1.0
 40
1.0
 10
-7.7392186927
 20
271.8711038493
 30
0.0
 10
-7.6211325077
 20
271.7520730792
 30
0.0
 10
-7.4044566675
 20
271.46456687
 30
0.0
 10
-7.1562331512
 20
270.9652369822
 30
0.0
 10
-6.9805306736
 20
270.4059242993
 30
0.0
 10
-6.8926798574
 20
269.8347693358
 30
0.0
 10
-6.8986217154
 20
269.3732566932
 30
0.0
 10
-6.9575807777
 20
269.0407080239
 30
0.0
 10
-7.0241747184
 20
268.8264321608
 30
0.0
 10
-7.1133870632
 20
268.6433334934
 30
0.0
 10
-7.2239816356
 20
268.495350882
 30
0.0
 10
-7.3543665518
 20
268.3863928
 30
0.0
 10
-7.4542120757
 20
268.3420727677
 30
0.0
 10
-7.5045255914
 20
268.3281737116
 30
0.0
  0
SPLINE
  5
291
100
AcDbEntity
  8
0
100
AcDbSpline
 62
7
  6
CONTINUOUS
 70
0
 71
3
 72
9
 73
5
 74
0
 42
0.0000001
 43
0.0000001
 44
0.0000000001
 40
0.0
 40
0.0
 40
0.0
 40
0.0
 40
0.2461632592
 40
1.0
 40
1.0
 40
1.0
 40
1.0
 10
-8.4261739489
 20
272.2086949926
 30
0.0
 10
-8.4168240797
 20
272.2090956145
 30
0.0
 10
-8.3788048858
 20
272.2097809215
 30
0.0
 10
-8.3407365812
 20
272.2067119564
 30
0.0
 10
-8.3123884903
 20
272.2025033696
 30
0.0
  0
SPLINE
  5
292
100
AcDbEntity
  8
0
100
AcDbSpline
 62
7
  6
CONTINUOUS
 70
0
 71
3
 72
9
 73
5
 74
0
 42
0.0000001
 43
0.0000001
 44
0.0000000001
 40
0.0
 40
0.0
 40
0.0
 40
0.0
 40
0.2353495061
 40
1.0
 40
1.0
 40
1.0
 40
1.0
 10
-8.3123884903
 20
272.2025033696
 30
0.0
 10
-8.28865371
 20
272.1989796796
 30
0.0
 10
-8.1886409395
 20
272.1783532451
 30
0.0
 10
-8.0937158529
 20
272.1365731903
 30
0.0
 10
-8.0262077125
 20
272.0975817421
 30
0.0
  0
SPLINE
  5
293
100
AcDbEntity
  8
0
100
AcDbSpline
 62
7
  6
CONTINUOUS
 70
0
 71
3
 72
11
 73
7
 74
0
 42
0.0000001
 43
0.0000001
 44
0.0000000001
 40
0.0
 40
0.0
 40
0.0
 40
0.0
 40
0.2634075328
 40
0.515933487
 40
0.7602044579
 40
1.0
 40
1.0
 40
1.0
 40
1.0
 10
15.331212948
 20
213.7094052567
 30
0.0
 10
14.5660819165
 20
213.5043076887
 30
0.0
 10
13.0302854428
 20
213.2253026797
 30
0.0
 10
10.7303577503
 20
213.2365766244
 30
0.0
 10
8.546582982
 20
213.6894574378
 30
0.0
 10
7.2030746286
 20
214.2831382143
 30
0.0
 10
6.5786320873
 20
214.6438417078
 30
0.0
  0
SPLINE
  5
294
100
AcDbEntity
  8
0
100
AcDbSpline
 62
7
  6
CONTINUOUS
 70
0
 71
3
 72
11
 73
7
 74
0
 42
0.0000001
 43
0.0000001
 44
0.0000000001
 40
0.0
 40
0.0
 40
0.0
 40
0.0
 40
0.2717772429
 40
0.5268691304
 40
0.7676330732
 40
1.0
 40
1.0
 40
1.0
 40
1.0
 10
4.3560059588
 20
230.8778142653
 30
0.0
 10
4.3560059588
 20
230.4881334888
 30
0.0
 10
4.4317673305
 20
229.7294780666
 30
0.0
 10
4.7946454198
 20
228.6785871317
 30
0.0
 10
5.3892621737
 20
227.8041976338
 30
0.0
 10
5.9274108047
 20
227.371382779
 30
0.0
 10
6.2159066613
 20
227.2047256536
 30
0.0
  0
SPLINE
  5
295
100
AcDbEntity
  8
0
100
AcDbSpline
 62
7
  6
CONTINUOUS
 70
0
 71
3
 72
11
 73
7
 74
0
 42
0.0000001
 43
0.0000001
 44
0.0000000001
 40
0.0
 40
0.0
 40
0.0
 40
0.0
 40
0.2717772429
 40
0.5268691304
 40
0.7676330732
 40
1.0
 40
1.0
 40
1.0
 40
1.0
 10
16.8849320097
 20
234.2362615854
 30
0.0
 10
16.8849320097
 20
233.8465808088
 30
0.0
 10
16.9606933815
 20
233.0879253866
 30
0.0
 10
17.3235714707
 20
232.0370344517
 30
0.0
 10
17.9181882246
 20
231.1626449538
 30
0.0
 10
18.4563368556
 20
230.729830099
 30
0.0
 10
18.7448327122
 20
230.5631729736
 30
0.0
  0
SPLINE
  5
296
100
AcDbEntity
  8
0
100
AcDbSpline
 62
7
  6
CONTINUOUS
 70
0
 71
3
 72
10
 73
6
 74
0
 42
0.0000001
 43
0.0000001
 44
0.0000000001
 40
0.0
 40
0.0
 40
0.0
 40
0.0
 40
0.2403281524
 40
0.485096085
 40
1.0
 40
1.0
 40
1.0
 40
1.0
 10
16.2307863533
 20
225.9109322428
 30
0.0
 10
16.0862525143
 20
225.9943854777
 30
0.0
 10
15.7752008584
 20
226.1317343565
 30
0.0
 10
15.0915744011
 20
226.2740765972
 30
0.0
 10
14.5505651061
 20
226.2197735646
 30
0.0
 10
14.2051818692
 20
226.1271916943
 30
0.0
  0
SPLINE
  5
297
100
AcDbEntity
  8
0
100
AcDbSpline
 62
7
  6
CONTINUOUS
 70
0
 71
3
 72
15
 73
11
 74
0
 42
0.0000001
 43
0.0000001
 44
0.0000000001
 40
0.0
 40
0.0
 40
0.0
 40
0.0
 40
0.0524622549
 40
0.1056452393
 40
0.2162149894
 40
0.3353287824
 40
0.4632716504
 40
0.5978590347
 40
0.735324951
 40
1.0
 40
1.0
 40
1.0
 40
1.0
 10
24.4465192348
 20
240.4348316911
 30
0.0
 10
24.2728537802
 20
240.535154052
 30
0.0
 10
23.9035785611
 20
240.7052842028
 30
0.0
 10
23.0992769914
 20
240.9116707038
 30
0.0
 10
21.9963990174
 20
240.8963895236
 30
0.0
 10
20.6816604212
 20
240.4626837486
 30
0.0
 10
19.446240245
 20
239.6606138032
 30
0.0
 10
18.3755586754
 20
238.5501851764
 30
0.0
 10
17.2856024777
 20
236.8025898942
 30
0.0
 10
16.8849320097
 20
235.2480975556
 30
0.0
 10
16.8849320097
 20
234.2362615854
 30
0.0
  0
SPLINE
  5
298
100
AcDbEntity
  8
0
100
AcDbSpline
 62
7
  6
CONTINUOUS
 70
0
 71
3
 72
15
 73
11
 74
0
 42
0.0000001
 43
0.0000001
 44
0.0000000001
 40
0.0
 40
0.0
 40
0.0
 40
0.0
 40
0.0524622549
 40
0.1056452393
 40
0.2162149894
 40
0.3353287824
 40
0.4632716504
 40
0.5978590347
 40
0.735324951
 40
1.0
 40
1.0
 40
1.0
 40
1.0
 10
11.9175931838
 20
237.076384371
 30
0.0
 10
11.7439277293
 20
237.1767067319
 30
0.0
 10
11.3746525102
 20
237.3468368827
 30
0.0
 10
10.5703509405
 20
237.5532233838
 30
0.0
 10
9.4674729665
 20
237.5379422036
 30
0.0
 10
8.1527343703
 20
237.1042364286
 30
0.0
 10
6.9173141941
 20
236.3021664832
 30
0.0
 10
5.8466326245
 20
235.1917378564
 30
0.0
 10
4.7566764268
 20
233.4441425742
 30
0.0
 10
4.3560059588
 20
231.8896502356
 30
0.0
 10
4.3560059588
 20
230.8778142653
 30
0.0
  0
SPLINE
  5
299
100
AcDbEntity
  8
0
100
AcDbSpline
 62
7
  6
CONTINUOUS
 70
0
 71
3
 72
11
 73
7
 74
0
 42
0.0000001
 43
0.0000001
 44
0.0000000001
 40
0.0
 40
0.0
 40
0.0
 40
0.0
 40
0.2717668072
 40
0.5268680782
 40
0.7676307415
 40
1.0
 40
1.0
 40
1.0
 40
1.0
 10
10.858074316
 20
221.5066759842
 30
0.0
 10
10.8580743156
 20
221.2298072421
 30
0.0
 10
10.9119129571
 20
220.6907667656
 30
0.0
 10
11.1697086154
 20
219.9440605472
 30
0.0
 10
11.5922295068
 20
219.3228010544
 30
0.0
 10
11.9745658712
 20
219.0152135685
 30
0.0
 10
12.179577385
 20
218.8968407769
 30
0.0
  0
SPLINE
  5
29A
100
AcDbEntity
  8
0
100
AcDbSpline
 62
7
  6
CONTINUOUS
 70
0
 71
3
 72
13
 73
9
 74
0
 42
0.0000001
 43
0.0000001
 44
0.0000000001
 40
0.0
 40
0.0
 40
0.0
 40
0.0
 40
0.2348069779
 40
0.3606340311
 40
0.4898728456
 40
0.6205624979
 40
0.75058487
 40
1.0
 40
1.0
 40
1.0
 40
1.0
 10
14.2051818692
 20
226.1271916943
 30
0.0
 10
13.7460425345
 20
226.0041168783
 30
0.0
 10
13.0768810834
 20
225.6621243624
 30
0.0
 10
12.3268462307
 20
225.0105241274
 30
0.0
 10
11.8206366736
 20
224.4114167818
 30
0.0
 10
11.4053490749
 20
223.7363575439
 30
0.0
 10
10.998684105
 20
222.7848590841
 30
0.0
 10
10.8580743166
 20
222.0115977133
 30
0.0
 10
10.858074316
 20
221.5066759842
 30
0.0
  0
SPLINE
  5
29B
100
AcDbEntity
  8
0
100
AcDbSpline
 62
7
  6
CONTINUOUS
 70
0
 71
3
 72
20
 73
16
 74
0
 42
0.0000001
 43
0.0000001
 44
0.0000000001
 40
0.0
 40
0.0
 40
0.0
 40
0.0
 40
0.0524894976
 40
0.1058803543
 40
0.1609468326
 40
0.2182428661
 40
0.3400791524
 40
0.4047884693
 40
0.4714423007
 40
0.6080592299
 40
0.7449194086
 40
0.8118584184
 40
0.8769392961
 40
0.9397345156
 40
1.0
 40
1.0
 40
1.0
 40
1.0
 10
24.0837938087
 20
244.9515377694
 30
0.0
 10
24.6821582892
 20
244.605898028
 30
0.0
 10
25.8203822385
 20
243.7814316438
 30
0.0
 10
27.2594704466
 20
242.2083705183
 30
0.0
 10
28.4039889745
 20
240.3351797212
 30
0.0
 10
29.5236563193
 20
237.4482001856
 30
0.0
 10
29.9157308741
 20
234.2031649183
 30
0.0
 10
29.6388331185
 20
230.8755309315
 30
0.0
 10
28.8940364927
 20
227.4175916977
 30
0.0
 10
27.1447965133
 20
223.2469291438
 30
0.0
 10
24.4776117631
 20
219.589490447
 30
0.0
 10
21.8995337745
 20
217.1522605895
 30
0.0
 10
19.8194061285
 20
215.63859989
 30
0.0
 10
17.6298659976
 20
214.4641903482
 30
0.0
 10
16.097547291
 20
213.9148253789
 30
0.0
 10
15.331212948
 20
213.7094052567
 30
0.0
  0
SPLINE
  5
29C
100
AcDbEntity
  8
0
100
AcDbSpline
 62
7
  6
CONTINUOUS
 70
0
 71
3
 72
9
 73
5
 74
0
 42
0.0000001
 43
0.0000001
 44
0.0000000001
 40
0.0
 40
0.0
 40
0.0
 40
0.0
 40
0.5114373428
 40
1.0
 40
1.0
 40
1.0
 40
1.0
 10
-30.6706780856
 20
248.1890688862
 30
0.0
 10
-30.8471372552
 20
247.2042556063
 30
0.0
 10
-31.0428054277
 20
245.2480986325
 30
0.0
 10
-30.9005011924
 20
243.2846508177
 30
0.0
 10
-30.7390439414
 20
242.342638361
 30
0.0
  0
SPLINE
  5
29D
100
AcDbEntity
  8
0
100
AcDbSpline
 62
7
  6
CONTINUOUS
 70
0
 71
3
 72
10
 73
6
 74
0
 42
0.0000001
 43
0.0000001
 44
0.0000000001
 40
0.0
 40
0.0
 40
0.0
 40
0.0
 40
0.2403281525
 40
0.4850960851
 40
1.0
 40
1.0
 40
1.0
 40
1.0
 10
12.179577385
 20
218.8968407769
 30
0.0
 10
12.3241112237
 20
218.8133875422
 30
0.0
 10
12.6351628788
 20
218.6760386637
 30
0.0
 10
13.3187893346
 20
218.5336964227
 30
0.0
 10
13.8597986282
 20
218.5879994549
 30
0.0
 10
14.2051818645
 20
218.6805813242
 30
0.0
  0
SPLINE
  5
29E
100
AcDbEntity
  8
0
100
AcDbSpline
 62
7
  6
CONTINUOUS
 70
0
 71
3
 72
11
 73
7
 74
0
 42
0.0000001
 43
0.0000001
 44
0.0000000001
 40
0.0
 40
0.0
 40
0.0
 40
0.0
 40
0.2717772429
 40
0.5268691304
 40
0.7676330732
 40
1.0
 40
1.0
 40
1.0
 40
1.0
 10
26.3064199372
 20
236.7617430793
 30
0.0
 10
26.3064199372
 20
237.1514238559
 30
0.0
 10
26.2306585655
 20
237.9100792781
 30
0.0
 10
25.8677804762
 20
238.960970213
 30
0.0
 10
25.2731637223
 20
239.8353597109
 30
0.0
 10
24.7350150913
 20
240.2681745657
 30
0.0
 10
24.4465192348
 20
240.4348316911
 30
0.0
  0
SPLINE
  5
29F
100
AcDbEntity
  8
0
100
AcDbSpline
 62
7
  6
CONTINUOUS
 70
0
 71
3
 72
11
 73
7
 74
0
 42
0.0000001
 43
0.0000001
 44
0.0000000001
 40
0.0
 40
0.0
 40
0.0
 40
0.0
 40
0.2717772429
 40
0.5268691304
 40
0.7676330732
 40
1.0
 40
1.0
 40
1.0
 40
1.0
 10
13.7774938863
 20
233.4032957593
 30
0.0
 10
13.7774938863
 20
233.7929765358
 30
0.0
 10
13.7017325146
 20
234.5516319581
 30
0.0
 10
13.3388544253
 20
235.6025228929
 30
0.0
 10
12.7442376714
 20
236.4769123909
 30
0.0
 10
12.2060890404
 20
236.9097272456
 30
0.0
 10
11.9175931838
 20
237.076384371
 30
0.0
  0
SPLINE
  5
2A0
100
AcDbEntity
  8
0
100
AcDbSpline
 62
7
  6
CONTINUOUS
 70
0
 71
3
 72
9
 73
5
 74
0
 42
0.0000001
 43
0.0000001
 44
0.0000000001
 40
0.0
 40
0.0
 40
0.0
 40
0.0
 40
0.2464797674
 40
1.0
 40
1.0
 40
1.0
 40
1.0
 10
13.8510549431
 20
225.9887879817
 30
0.0
 10
13.8580088466
 20
225.9419960866
 30
0.0
 10
13.8825586612
 20
225.7516237794
 30
0.0
 10
13.8926884161
 20
225.5594344933
 30
0.0
 10
13.8926884161
 20
225.4148146168
 30
0.0
  0
SPLINE
  5
2A1
100
AcDbEntity
  8
0
100
AcDbSpline
 62
7
  6
CONTINUOUS
 70
0
 71
3
 72
14
 73
10
 74
0
 42
0.0000001
 43
0.0000001
 44
0.0000000001
 40
0.0
 40
0.0
 40
0.0
 40
0.0
 40
0.105261025
 40
0.2158781366
 40
0.3350441295
 40
0.4630415132
 40
0.5976839205
 40
0.7352112512
 40
1.0
 40
1.0
 40
1.0
 40
1.0
 10
17.2032482297
 20
234.3967365836
 30
0.0
 10
17.395747247
 20
234.2855811568
 30
0.0
 10
17.8371626436
 20
234.1307937914
 30
0.0
 10
18.5568098185
 20
234.1419395306
 30
0.0
 10
19.2839546873
 20
234.3812788047
 30
0.0
 10
19.9665234024
 20
234.8246065545
 30
0.0
 10
20.5582555481
 20
235.4382453205
 30
0.0
 10
21.1605607347
 20
236.4040392945
 30
0.0
 10
21.3820217403
 20
237.2630926246
 30
0.0
 10
21.3820217403
 20
237.8222647517
 30
0.0
  0
SPLINE
  5
2A2
100
AcDbEntity
  8
0
100
AcDbSpline
 62
7
  6
CONTINUOUS
 70
0
 71
3
 72
14
 73
10
 74
0
 42
0.0000001
 43
0.0000001
 44
0.0000000001
 40
0.0
 40
0.0
 40
0.0
 40
0.0
 40
0.2552909996
 40
0.3883996519
 40
0.5210163367
 40
0.6503134264
 40
0.7739539084
 40
0.8905365446
 40
1.0
 40
1.0
 40
1.0
 40
1.0
 10
10.9624161892
 20
235.0292323563
 30
0.0
 10
10.9624161892
 20
234.1962843838
 30
0.0
 10
10.6904331037
 20
232.9184131324
 30
0.0
 10
9.923537491
 20
231.3963792981
 30
0.0
 10
9.150801455
 20
230.3556787124
 30
0.0
 10
8.2287370847
 20
229.489913789
 30
0.0
 10
7.2020553051
 20
228.8421229658
 30
0.0
 10
6.1219618502
 20
228.4471314447
 30
0.0
 10
5.3789338912
 20
228.3666640884
 30
0.0
 10
5.0219752183
 20
228.3783747497
 30
0.0
  0
SPLINE
  5
2A3
100
AcDbEntity
  8
0
100
AcDbSpline
 62
7
  6
CONTINUOUS
 70
0
 71
3
 72
11
 73
7
 74
0
 42
0.0000001
 43
0.0000001
 44
0.0000000001
 40
0.0
 40
0.0
 40
0.0
 40
0.0
 40
0.2717741281
 40
0.5268782238
 40
0.7676401145
 40
1.0
 40
1.0
 40
1.0
 40
1.0
 10
8.8568605108
 20
234.4648266127
 30
0.0
 10
8.8568605108
 20
234.6801744922
 30
0.0
 10
8.8149831025
 20
235.0994359194
 30
0.0
 10
8.6144674056
 20
235.6802115138
 30
0.0
 10
8.2858368694
 20
236.163404951
 30
0.0
 10
7.9884664174
 20
236.4026255265
 30
0.0
 10
7.829022272
 20
236.4946939551
 30
0.0
  0
SPLINE
  5
2A4
100
AcDbEntity
  8
0
100
AcDbSpline
 62
7
  6
CONTINUOUS
 70
0
 71
3
 72
15
 73
11
 74
0
 42
0.0000001
 43
0.0000001
 44
0.0000000001
 40
0.0
 40
0.0
 40
0.0
 40
0.0
 40
0.1383951981
 40
0.2695587326
 40
0.3940347268
 40
0.5135537928
 40
0.6308546392
 40
0.7491689886
 40
0.8715002297
 40
1.0
 40
1.0
 40
1.0
 40
1.0
 10
10.331212776
 20
220.4132344115
 30
0.0
 10
10.3312127755
 20
220.0586723922
 30
0.0
 10
10.3906223641
 20
219.3660180332
 30
0.0
 10
10.6719651447
 20
218.3893395039
 30
0.0
 10
11.1353990596
 20
217.5375806261
 30
0.0
 10
11.7657672569
 20
216.846569471
 30
0.0
 10
12.5387419911
 20
216.3472914073
 30
0.0
 10
13.4209773665
 20
216.0621082049
 30
0.0
 10
14.3734291536
 20
216.0009870139
 30
0.0
 10
15.0132285751
 20
216.1063000052
 30
0.0
 10
15.331212948
 20
216.1915374598
 30
0.0
  0
SPLINE
  5
2A5
100
AcDbEntity
  8
0
100
AcDbSpline
 62
7
  6
CONTINUOUS
 70
0
 71
3
 72
14
 73
10
 74
0
 42
0.0000001
 43
0.0000001
 44
0.0000000001
 40
0.0
 40
0.0
 40
0.0
 40
0.0
 40
0.2552909996
 40
0.3883996519
 40
0.5210163367
 40
0.6503134264
 40
0.7739539084
 40
0.8905365446
 40
1.0
 40
1.0
 40
1.0
 40
1.0
 10
23.4913422401
 20
238.3876796764
 30
0.0
 10
23.4913422401
 20
237.5547317038
 30
0.0
 10
23.2193591546
 20
236.2768604525
 30
0.0
 10
22.4524635419
 20
234.7548266181
 30
0.0
 10
21.6797275059
 20
233.7141260324
 30
0.0
 10
20.7576631356
 20
232.8483611091
 30
0.0
 10
19.730981356
 20
232.2005702858
 30
0.0
 10
18.6508879011
 20
231.8055787647
 30
0.0
 10
17.9078599421
 20
231.7251114085
 30
0.0
 10
17.5509012692
 20
231.7368220697
 30
0.0
  0
SPLINE
  5
2A6
100
AcDbEntity
  8
0
100
AcDbSpline
 62
7
  6
CONTINUOUS
 70
0
 71
3
 72
11
 73
7
 74
0
 42
0.0000001
 43
0.0000001
 44
0.0000000001
 40
0.0
 40
0.0
 40
0.0
 40
0.0
 40
0.2717741281
 40
0.5268782238
 40
0.7676401145
 40
1.0
 40
1.0
 40
1.0
 40
1.0
 10
21.3820217403
 20
237.8222647517
 30
0.0
 10
21.3820217403
 20
238.0376126312
 30
0.0
 10
21.3401443319
 20
238.4568740584
 30
0.0
 10
21.1396286351
 20
239.0376496528
 30
0.0
 10
20.8109980989
 20
239.52084309
 30
0.0
 10
20.5136276469
 20
239.7600636655
 30
0.0
 10
20.3541835015
 20
239.8521320941
 30
0.0
  0
SPLINE
  5
2A7
100
AcDbEntity
  8
0
100
AcDbSpline
 62
7
  6
CONTINUOUS
 70
0
 71
3
 72
14
 73
10
 74
0
 42
0.0000001
 43
0.0000001
 44
0.0000000001
 40
0.0
 40
0.0
 40
0.0
 40
0.0
 40
0.2346073929
 40
0.3603379301
 40
0.4894684284
 40
0.6200482101
 40
0.7499714674
 40
0.8772023527
 40
1.0
 40
1.0
 40
1.0
 40
1.0
 10
15.331212948
 20
216.1915374598
 30
0.0
 10
16.0170716411
 20
216.3753856428
 30
0.0
 10
17.016666082
 20
216.8863110375
 30
0.0
 10
18.1371493042
 20
217.8595656179
 30
0.0
 10
18.8933282325
 20
218.7547367678
 30
0.0
 10
19.5136405769
 20
219.7625424843
 30
0.0
 10
19.9761250185
 20
220.8460159069
 30
0.0
 10
20.2630161451
 20
221.9641554862
 30
0.0
 10
20.3312131198
 20
222.7221251014
 30
0.0
 10
20.33121312
 20
223.0937893306
 30
0.0
  0
SPLINE
  5
2A8
100
AcDbEntity
  8
0
100
AcDbSpline
 62
7
  6
CONTINUOUS
 70
0
 71
3
 72
15
 73
11
 74
0
 42
0.0000001
 43
0.0000001
 44
0.0000000001
 40
0.0
 40
0.0
 40
0.0
 40
0.0
 40
0.0524622549
 40
0.1056452393
 40
0.2162149894
 40
0.3353287824
 40
0.4632716504
 40
0.5978590347
 40
0.735324951
 40
1.0
 40
1.0
 40
1.0
 40
1.0
 10
18.7448327122
 20
230.5631729736
 30
0.0
 10
18.9184981668
 20
230.4628506127
 30
0.0
 10
19.2877733858
 20
230.2927204619
 30
0.0
 10
20.0920749556
 20
230.0863339609
 30
0.0
 10
21.1949529295
 20
230.101615141
 30
0.0
 10
22.5096915257
 20
230.5353209161
 30
0.0
 10
23.7451117019
 20
231.3373908615
 30
0.0
 10
24.8157932715
 20
232.4478194882
 30
0.0
 10
25.9057494693
 20
234.1954147705
 30
0.0
 10
26.3064199372
 20
235.7499071091
 30
0.0
 10
26.3064199372
 20
236.7617430793
 30
0.0
  0
SPLINE
  5
2A9
100
AcDbEntity
  8
0
100
AcDbSpline
 62
7
  6
CONTINUOUS
 70
0
 71
3
 72
13
 73
9
 74
0
 42
0.0000001
 43
0.0000001
 44
0.0000000001
 40
0.0
 40
0.0
 40
0.0
 40
0.0
 40
0.2348069779
 40
0.3606340311
 40
0.4898728456
 40
0.6205624979
 40
0.75058487
 40
1.0
 40
1.0
 40
1.0
 40
1.0
 10
14.2051818645
 20
218.6805813242
 30
0.0
 10
14.6643212001
 20
218.8036561394
 30
0.0
 10
15.3334826525
 20
219.1456486557
 30
0.0
 10
16.0835175067
 20
219.7972488913
 30
0.0
 10
16.5897270648
 20
220.3963562378
 30
0.0
 10
17.0050146641
 20
221.071415477
 30
0.0
 10
17.4116796342
 20
222.0229139385
 30
0.0
 10
17.5522894226
 20
222.7961753107
 30
0.0
 10
17.5522894223
 20
223.3010970406
 30
0.0
  0
SPLINE
  5
2AA
100
AcDbEntity
  8
0
100
AcDbSpline
 62
7
  6
CONTINUOUS
 70
0
 71
3
 72
11
 73
7
 74
0
 42
0.0000001
 43
0.0000001
 44
0.0000000001
 40
0.0
 40
0.0
 40
0.0
 40
0.0
 40
0.2717668072
 40
0.5268680781
 40
0.7676307415
 40
1.0
 40
1.0
 40
1.0
 40
1.0
 10
17.5522894223
 20
223.3010970406
 30
0.0
 10
17.5522894222
 20
223.5779657822
 30
0.0
 10
17.4984507804
 20
224.1170062577
 30
0.0
 10
17.2406551218
 20
224.8637124746
 30
0.0
 10
16.8181342307
 20
225.4849719661
 30
0.0
 10
16.4357978668
 20
225.7925594514
 30
0.0
 10
16.2307863533
 20
225.9109322428
 30
0.0
  0
SPLINE
  5
2AB
100
AcDbEntity
  8
0
100
AcDbSpline
 62
7
  6
CONTINUOUS
 70
0
 71
3
 72
15
 73
11
 74
0
 42
0.0000001
 43
0.0000001
 44
0.0000000001
 40
0.0
 40
0.0
 40
0.0
 40
0.0
 40
0.1383951981
 40
0.2695587326
 40
0.3940347268
 40
0.5135537928
 40
0.6308546392
 40
0.7491689886
 40
0.8715002297
 40
1.0
 40
1.0
 40
1.0
 40
1.0
 10
20.33121312
 20
223.0937893306
 30
0.0
 10
20.3312131203
 20
223.4483513499
 30
0.0
 10
20.271803532
 20
224.1410057088
 30
0.0
 10
19.9904607513
 20
225.1176842381
 30
0.0
 10
19.5270268364
 20
225.969443116
 30
0.0
 10
18.8966586391
 20
226.6604542711
 30
0.0
 10
18.1236839049
 20
227.1597323348
 30
0.0
 10
17.2414485295
 20
227.4449155372
 30
0.0
 10
16.2889967425
 20
227.5060367282
 30
0.0
 10
15.6491973209
 20
227.4007237369
 30
0.0
 10
15.331212948
 20
227.3154862823
 30
0.0
  0
SPLINE
  5
2AC
100
AcDbEntity
  8
0
100
AcDbSpline
 62
7
  6
CONTINUOUS
 70
0
 71
3
 72
9
 73
5
 74
0
 42
0.0000001
 43
0.0000001
 44
0.0000000001
 40
0.0
 40
0.0
 40
0.0
 40
0.0
 40
0.2561128638
 40
1.0
 40
1.0
 40
1.0
 40
1.0
 10
-30.4616308613
 20
247.0688894748
 30
0.0
 10
-30.5283811986
 20
246.6703815985
 30
0.0
 10
-30.7437970471
 20
245.1073842681
 30
0.0
 10
-30.7736600977
 20
243.5170675194
 30
0.0
 10
-30.6761398072
 20
242.3475236823
 30
0.0
  0
SPLINE
  5
2AD
100
AcDbEntity
  8
0
100
AcDbSpline
 62
7
  6
CONTINUOUS
 70
0
 71
3
 72
11
 73
7
 74
0
 42
0.0000001
 43
0.0000001
 44
0.0000000001
 40
0.0
 40
0.0
 40
0.0
 40
0.0
 40
0.2474425102
 40
0.505648224
 40
0.7607489892
 40
1.0
 40
1.0
 40
1.0
 40
1.0
 10
13.8926884161
 20
225.4148146168
 30
0.0
 10
13.8926884161
 20
224.9466453319
 30
0.0
 10
13.7307645252
 20
223.9860949808
 30
0.0
 10
13.0994658167
 20
222.6737094818
 30
0.0
 10
12.1510877211
 20
221.5884191908
 30
0.0
 10
11.340669792
 20
221.0834232724
 30
0.0
 10
10.9193766498
 20
220.9178248053
 30
0.0
  0
SPLINE
  5
2AE
100
AcDbEntity
  8
0
100
AcDbSpline
 62
7
  6
CONTINUOUS
 70
0
 71
3
 72
9
 73
5
 74
0
 42
0.0000001
 43
0.0000001
 44
0.0000000001
 40
0.0
 40
0.0
 40
0.0
 40
0.0
 40
0.4816467583
 40
1.0
 40
1.0
 40
1.0
 40
1.0
 10
22.8355163864
 20
240.8789702784
 30
0.0
 10
23.0554938267
 20
240.524020159
 30
0.0
 10
23.3915736919
 20
239.7086477063
 30
0.0
 10
23.4913422401
 20
238.837092119
 30
0.0
 10
23.4913422401
 20
238.3876796764
 30
0.0
  0
SPLINE
  5
2AF
100
AcDbEntity
  8
0
100
AcDbSpline
 62
7
  6
CONTINUOUS
 70
0
 71
3
 72
14
 73
10
 74
0
 42
0.0000001
 43
0.0000001
 44
0.0000000001
 40
0.0
 40
0.0
 40
0.0
 40
0.0
 40
0.105261025
 40
0.2158781366
 40
0.3350441295
 40
0.4630415132
 40
0.5976839205
 40
0.7352112512
 40
1.0
 40
1.0
 40
1.0
 40
1.0
 10
4.6780870003
 20
231.0392984446
 30
0.0
 10
4.8705860176
 20
230.9281430178
 30
0.0
 10
5.3120014142
 20
230.7733556524
 30
0.0
 10
6.0316485891
 20
230.7845013916
 30
0.0
 10
6.7587934578
 20
231.0238406657
 30
0.0
 10
7.4413621729
 20
231.4671684155
 30
0.0
 10
8.0330943186
 20
232.0808071815
 30
0.0
 10
8.6353995052
 20
233.0466011555
 30
0.0
 10
8.8568605108
 20
233.9056544856
 30
0.0
 10
8.8568605108
 20
234.4648266127
 30
0.0
  0
SPLINE
  5
2B0
100
AcDbEntity
  8
0
100
AcDbSpline
 62
7
  6
CONTINUOUS
 70
0
 71
3
 72
14
 73
10
 74
0
 42
0.0000001
 43
0.0000001
 44
0.0000000001
 40
0.0
 40
0.0
 40
0.0
 40
0.0
 40
0.2346073929
 40
0.3603379301
 40
0.4894684284
 40
0.6200482101
 40
0.7499714674
 40
0.8772023527
 40
1.0
 40
1.0
 40
1.0
 40
1.0
 10
15.331212948
 20
227.3154862823
 30
0.0
 10
14.645354255
 20
227.1316380993
 30
0.0
 10
13.645759814
 20
226.6207127046
 30
0.0
 10
12.5252765918
 20
225.6474581242
 30
0.0
 10
11.7690976636
 20
224.7522869742
 30
0.0
 10
11.1487853191
 20
223.7444812578
 30
0.0
 10
10.6863008776
 20
222.6610078352
 30
0.0
 10
10.3994097508
 20
221.5428682559
 30
0.0
 10
10.3312127764
 20
220.7848986407
 30
0.0
 10
10.331212776
 20
220.4132344115
 30
0.0
  0
SPLINE
  5
2B1
100
AcDbEntity
  8
0
100
AcDbSpline
 62
7
  6
CONTINUOUS
 70
0
 71
3
 72
20
 73
16
 74
0
 42
0.0000001
 43
0.0000001
 44
0.0000000001
 40
0.0
 40
0.0
 40
0.0
 40
0.0
 40
0.0524894976
 40
0.1058803543
 40
0.1609468326
 40
0.2182428661
 40
0.3400791524
 40
0.4047884693
 40
0.4714423007
 40
0.6080592299
 40
0.7449194086
 40
0.8118584184
 40
0.8769392961
 40
0.9397345156
 40
1.0
 40
1.0
 40
1.0
 40
1.0
 10
6.5786320873
 20
214.6438417078
 30
0.0
 10
5.9802676069
 20
214.9894814491
 30
0.0
 10
4.8420436575
 20
215.8139478334
 30
0.0
 10
3.4029554494
 20
217.3870089588
 30
0.0
 10
2.2584369215
 20
219.2601997559
 30
0.0
 10
1.1387695767
 20
222.1471792915
 30
0.0
 10
0.7466950219
 20
225.3922145588
 30
0.0
 10
1.0235927775
 20
228.7198485456
 30
0.0
 10
1.7683894033
 20
232.1777877794
 30
0.0
 10
3.5176293828
 20
236.3484503334
 30
0.0
 10
6.1848141329
 20
240.0058890301
 30
0.0
 10
8.7628921216
 20
242.4431188877
 30
0.0
 10
10.8430197676
 20
243.9567795871
 30
0.0
 10
13.0325598984
 20
245.1311891289
 30
0.0
 10
14.5648786051
 20
245.6805540983
 30
0.0
 10
15.331212948
 20
245.8859742205
 30
0.0
  0
SPLINE
  5
2B2
100
AcDbEntity
  8
0
100
AcDbSpline
 62
7
  6
CONTINUOUS
 70
0
 71
3
 72
15
 73
11
 74
0
 42
0.0000001
 43
0.0000001
 44
0.0000000001
 40
0.0
 40
0.0
 40
0.0
 40
0.0
 40
0.0524622549
 40
0.1056452393
 40
0.2162149894
 40
0.3353287824
 40
0.4632716504
 40
0.5978590347
 40
0.735324951
 40
1.0
 40
1.0
 40
1.0
 40
1.0
 10
6.2159066613
 20
227.2047256536
 30
0.0
 10
6.3895721159
 20
227.1044032927
 30
0.0
 10
6.7588473349
 20
226.9342731419
 30
0.0
 10
7.5631489047
 20
226.7278866409
 30
0.0
 10
8.6660268786
 20
226.743167821
 30
0.0
 10
9.9807654748
 20
227.176873596
 30
0.0
 10
11.216185651
 20
227.9789435415
 30
0.0
 10
12.2868672206
 20
229.0893721682
 30
0.0
 10
13.3768234183
 20
230.8369674504
 30
0.0
 10
13.7774938863
 20
232.3914597891
 30
0.0
 10
13.7774938863
 20
233.4032957593
 30
0.0
  0
SPLINE
  5
2B3
100
AcDbEntity
  8
0
100
AcDbSpline
 62
7
  6
CONTINUOUS
 70
0
 71
3
 72
9
 73
5
 74
0
 42
0.0000001
 43
0.0000001
 44
0.0000000001
 40
0.0
 40
0.0
 40
0.0
 40
0.0
 40
0.4816467583
 40
1.0
 40
1.0
 40
1.0
 40
1.0
 10
10.3065903355
 20
237.5205229583
 30
0.0
 10
10.5265677758
 20
237.1655728389
 30
0.0
 10
10.862647641
 20
236.3502003863
 30
0.0
 10
10.9624161892
 20
235.4786447989
 30
0.0
 10
10.9624161892
 20
235.0292323563
 30
0.0
  0
SPLINE
  5
2B4
100
AcDbEntity
  8
0
100
AcDbSpline
 62
7
  6
CONTINUOUS
 70
0
 71
3
 72
11
 73
7
 74
0
 42
0.0000001
 43
0.0000001
 44
0.0000000001
 40
0.0
 40
0.0
 40
0.0
 40
0.0
 40
0.2634075328
 40
0.515933487
 40
0.7602044579
 40
1.0
 40
1.0
 40
1.0
 40
1.0
 10
15.331212948
 20
245.8859742205
 30
0.0
 10
16.0963439795
 20
246.0910717884
 30
0.0
 10
17.6321404532
 20
246.3700767975
 30
0.0
 10
19.9320681457
 20
246.3588028527
 30
0.0
 10
22.115842914
 20
245.9059220393
 30
0.0
 10
23.4593512674
 20
245.3122412628
 30
0.0
 10
24.0837938087
 20
244.9515377694
 30
0.0
  0
SPLINE
  5
2B5
100
AcDbEntity
  8
0
100
AcDbSpline
 62
7
  6
CONTINUOUS
 70
0
 71
3
 72
9
 73
5
 74
0
 42
0.0000001
 43
0.0000001
 44
0.0000000001
 40
0.0
 40
0.0
 40
0.0
 40
0.0
 40
0.51502308
 40
1.0
 40
1.0
 40
1.0
 40
1.0
 10
17.5999336124
 20
298.2370708735
 30
0.0
 10
17.459825648
 20
298.2800981166
 30
0.0
 10
17.1764035743
 20
298.3326936479
 30
0.0
 10
16.8885111581
 20
298.3020774042
 30
0.0
 10
16.7552042514
 20
298.2663350087
 30
0.0
  0
SPLINE
  5
2B6
100
AcDbEntity
  8
0
100
AcDbSpline
 62
7
  6
CONTINUOUS
 70
0
 71
3
 72
9
 73
5
 74
0
 42
0.0000001
 43
0.0000001
 44
0.0000000001
 40
0.0
 40
0.0
 40
0.0
 40
0.0
 40
0.5164283701
 40
1.0
 40
1.0
 40
1.0
 40
1.0
 10
36.5966654757
 20
269.3838875092
 30
0.0
 10
38.5378652809
 20
269.5686359034
 30
0.0
 10
42.285362133
 20
270.062105865
 30
0.0
 10
45.9822836242
 20
270.8580073818
 30
0.0
 10
47.7459287805
 20
271.3307621354
 30
0.0
  0
SPLINE
  5
2B7
100
AcDbEntity
  8
0
100
AcDbSpline
 62
7
  6
CONTINUOUS
 70
0
 71
3
 72
10
 73
6
 74
0
 42
0.0000001
 43
0.0000001
 44
0.0000000001
 40
0.0
 40
0.0
 40
0.0
 40
0.0
 40
0.5324760137
 40
0.7749009491
 40
1.0
 40
1.0
 40
1.0
 40
1.0
 10
47.7459287805
 20
271.3307621354
 30
0.0
 10
49.3465498184
 20
271.7598173803
 30
0.0
 10
51.6518006997
 20
272.4897837637
 30
0.0
 10
54.5206677678
 20
273.7001682376
 30
0.0
 10
55.8202923929
 20
274.3581630666
 30
0.0
 10
56.4313769019
 20
274.7006906543
 30
0.0
  0
SPLINE
  5
2B8
100
AcDbEntity
  8
0
100
AcDbSpline
 62
7
  6
CONTINUOUS
 70
0
 71
3
 72
11
 73
7
 74
0
 42
0.0000001
 43
0.0000001
 44
0.0000000001
 40
0.0
 40
0.0
 40
0.0
 40
0.0
 40
0.3013163286
 40
0.5641174217
 40
0.7925828777
 40
1.0
 40
1.0
 40
1.0
 40
1.0
 10
-4.5093594337
 20
290.9196363744
 30
0.0
 10
-4.4594707114
 20
291.1765038415
 30
0.0
 10
-4.3300597743
 20
291.6520456518
 30
0.0
 10
-4.0166894978
 20
292.2716817293
 30
0.0
 10
-3.6012893028
 20
292.7271327752
 30
0.0
 10
-3.2534860485
 20
292.902884459
 30
0.0
 10
-3.079507175
 20
292.9495318634
 30
0.0
  0
SPLINE
  5
2B9
100
AcDbEntity
  8
0
100
AcDbSpline
 62
7
  6
CONTINUOUS
 70
0
 71
3
 72
9
 73
5
 74
0
 42
0.0000001
 43
0.0000001
 44
0.0000000001
 40
0.0
 40
0.0
 40
0.0
 40
0.0
 40
0.2331758036
 40
1.0
 40
1.0
 40
1.0
 40
1.0
 10
4.4118092444
 20
268.5366507803
 30
0.0
 10
4.3409585352
 20
268.5775728342
 30
0.0
 10
4.0445626019
 20
268.7659569738
 30
0.0
 10
3.7782636957
 20
268.9993254743
 30
0.0
 10
3.5905227568
 20
269.192077567
 30
0.0
  0
SPLINE
  5
2BA
100
AcDbEntity
  8
0
100
AcDbSpline
 62
7
  6
CONTINUOUS
 70
0
 71
3
 72
10
 73
6
 74
0
 42
0.0000001
 43
0.0000001
 44
0.0000000001
 40
0.0
 40
0.0
 40
0.0
 40
0.0
 40
0.2307854346
 40
0.4701208345
 40
1.0
 40
1.0
 40
1.0
 40
1.0
 10
5.8358246809
 20
268.2806004172
 30
0.0
 10
5.7258424396
 20
268.2510909457
 30
0.0
 10
5.4938499762
 20
268.2172390809
 30
0.0
 10
4.9988426543
 20
268.2572072509
 30
0.0
 10
4.6382078375
 20
268.4058871576
 30
0.0
 10
4.4118092444
 20
268.5366507803
 30
0.0
  0
SPLINE
  5
2BB
100
AcDbEntity
  8
0
100
AcDbSpline
 62
7
  6
CONTINUOUS
 70
0
 71
3
 72
11
 73
7
 74
0
 42
0.0000001
 43
0.0000001
 44
0.0000000001
 40
0.0
 40
0.0
 40
0.0
 40
0.0
 40
0.2673933452
 40
0.5205848957
 40
0.7629052057
 40
1.0
 40
1.0
 40
1.0
 40
1.0
 10
4.4363162583
 20
290.1358291172
 30
0.0
 10
3.9371629587
 20
289.8007006916
 30
0.0
 10
2.9972599712
 20
289.0981034943
 30
0.0
 10
1.7618841687
 20
287.8998787748
 30
0.0
 10
0.7676829095
 20
286.5770315169
 30
0.0
 10
0.2909434981
 20
285.600053404
 30
0.0
 10
0.1114628232
 20
285.0980803465
 30
0.0
  0
SPLINE
  5
2BC
100
AcDbEntity
  8
0
100
AcDbSpline
 62
7
  6
CONTINUOUS
 70
0
 71
3
 72
9
 73
5
 74
0
 42
0.0000001
 43
0.0000001
 44
0.0000000001
 40
0.0
 40
0.0
 40
0.0
 40
0.0
 40
0.2584141298
 40
1.0
 40
1.0
 40
1.0
 40
1.0
 10
20.2237751341
 20
295.1788306994
 30
0.0
 10
19.6484800271
 20
295.1061867447
 30
0.0
 10
17.4264429291
 20
294.7936464029
 30
0.0
 10
15.221237144
 20
294.3540424191
 30
0.0
 10
13.6089604577
 20
293.9421149742
 30
0.0
  0
LINE
  5
2BD
100
AcDbEntity
  8
0
100
AcDbLine
 62
7
  6
CONTINUOUS
 10
13.6089604577
 20
293.9421149742
 11
13.5321060588
 21
293.9224083968
  0
SPLINE
  5
2BE
100
AcDbEntity
  8
0
100
AcDbSpline
 62
7
  6
CONTINUOUS
 70
0
 71
3
 72
9
 73
5
 74
0
 42
0.0000001
 43
0.0000001
 44
0.0000000001
 40
0.0
 40
0.0
 40
0.0
 40
0.0
 40
0.2582875563
 40
1.0
 40
1.0
 40
1.0
 40
1.0
 10
13.5321060588
 20
293.9224083968
 30
0.0
 10
13.1981883476
 20
293.8364791757
 30
0.0
 10
11.9092288083
 20
293.489187786
 30
0.0
 10
10.6360422624
 20
293.0818526825
 30
0.0
 10
9.7068673283
 20
292.7397918713
 30
0.0
  0
SPLINE
  5
2BF
100
AcDbEntity
  8
0
100
AcDbSpline
 62
7
  6
CONTINUOUS
 70
0
 71
3
 72
20
 73
16
 74
0
 42
0.0000001
 43
0.0000001
 44
0.0000000001
 40
0.0
 40
0.0
 40
0.0
 40
0.0
 40
0.0326997285
 40
0.0674335765
 40
0.1058287067
 40
0.148951831
 40
0.1973686859
 40
0.251264036
 40
0.3105446103
 40
0.3749128583
 40
0.4439187355
 40
0.5169946089
 40
0.6726050234
 40
0.8357978843
 40
1.0
 40
1.0
 40
1.0
 40
1.0
 10
-1.3965893619
 20
276.4076064108
 30
0.0
 10
-1.3965890459
 20
275.9721246076
 30
0.0
 10
-1.2664331358
 20
275.0697759429
 30
0.0
 10
-0.698248292
 20
273.7653146333
 30
0.0
 10
0.2231541232
 20
272.5084653338
 30
0.0
 10
1.4797936086
 20
271.3088654394
 30
0.0
 10
3.0558906394
 20
270.1747498567
 30
0.0
 10
4.9338763467
 20
269.1166412839
 30
0.0
 10
7.0927157413
 20
268.1456973125
 30
0.0
 10
9.5076408194
 20
267.2729784797
 30
0.0
 10
12.1505116434
 20
266.5086828971
 30
0.0
 10
16.0179023758
 20
265.628404286
 30
0.0
 10
21.1911997663
 20
264.8738403681
 30
0.0
 10
27.6208918595
 20
264.5167804481
 30
0.0
 10
31.9856384401
 20
264.6461063389
 30
0.0
 10
34.166412688
 20
264.808031988
 30
0.0
  0
SPLINE
  5
2C0
100
AcDbEntity
  8
0
100
AcDbSpline
 62
7
  6
CONTINUOUS
 70
0
 71
3
 72
18
 73
14
 74
0
 42
0.0000001
 43
0.0000001
 44
0.0000000001
 40
0.0
 40
0.0
 40
0.0
 40
0.0
 40
0.0439316761
 40
0.0887643283
 40
0.1354964876
 40
0.1847458625
 40
0.2371055802
 40
0.2929043163
 40
0.4150191033
 40
0.5501463641
 40
0.6954196239
 40
0.8468745861
 40
1.0
 40
1.0
 40
1.0
 40
1.0
 10
57.0953330341
 20
285.0980943939
 30
0.0
 10
56.9210139583
 20
285.5856282846
 30
0.0
 10
56.4617025358
 20
286.5349186696
 30
0.0
 10
55.5078905391
 20
287.8244192317
 30
0.0
 10
54.3251399634
 20
288.9963507492
 30
0.0
 10
52.9346547286
 20
290.0623002386
 30
0.0
 10
51.3505807152
 20
291.0331993747
 30
0.0
 10
48.9198865216
 20
292.2463703624
 30
0.0
 10
45.4433330951
 20
293.5155785998
 30
0.0
 10
40.8277908483
 20
294.6416678394
 30
0.0
 10
35.7867974528
 20
295.3899403018
 30
0.0
 10
30.4913741289
 20
295.7391816885
 30
0.0
 10
26.8976587753
 20
295.6981598102
 30
0.0
 10
25.0953089814
 20
295.6065935638
 30
0.0
  0
SPLINE
  5
2C1
100
AcDbEntity
  8
0
100
AcDbSpline
 62
7
  6
CONTINUOUS
 70
0
 71
3
 72
21
 73
17
 74
0
 42
0.0000001
 43
0.0000001
 44
0.0000000001
 40
0.0
 40
0.0
 40
0.0
 40
0.0
 40
0.1742372263
 40
0.3393381179
 40
0.4172560353
 40
0.4914987498
 40
0.5616979317
 40
0.6275482686
 40
0.6888249489
 40
0.7454024684
 40
0.797279633
 40
0.8446175115
 40
0.8877829005
 40
0.9274027072
 40
0.9644030126
 40
1.0
 40
1.0
 40
1.0
 40
1.0
 10
34.166412688
 20
264.808031988
 30
0.0
 10
35.8360689288
 20
264.9320063842
 30
0.0
 10
39.0807797464
 20
265.2848060029
 30
0.0
 10
43.0276980768
 20
266.0162771816
 30
0.0
 10
45.9831378914
 20
266.7679596747
 30
0.0
 10
48.0274488913
 20
267.392426604
 30
0.0
 10
49.9273419687
 20
268.0836887512
 30
0.0
 10
51.6688879607
 20
268.8367065574
 30
0.0
 10
53.2394324215
 20
269.6459617691
 30
0.0
 10
54.6276517047
 20
270.5057857338
 30
0.0
 10
55.8236841007
 20
271.4103375292
 30
0.0
 10
56.8189567858
 20
272.3540039527
 30
0.0
 10
57.6058597006
 20
273.3314262266
 30
0.0
 10
58.1771280668
 20
274.3376020889
 30
0.0
 10
58.5248624374
 20
275.3657362736
 30
0.0
 10
58.6034032364
 20
276.0655536663
 30
0.0
 10
58.6033922448
 20
276.407606558
 30
0.0
  0
SPLINE
  5
2C2
100
AcDbEntity
  8
0
100
AcDbSpline
 62
7
  6
CONTINUOUS
 70
0
 71
3
 72
9
 73
5
 74
0
 42
0.0000001
 43
0.0000001
 44
0.0000000001
 40
0.0
 40
0.0
 40
0.0
 40
0.0
 40
0.4835714652
 40
1.0
 40
1.0
 40
1.0
 40
1.0
 10
47.7459287805
 20
273.140829171
 30
0.0
 10
45.9822841945
 20
272.6680745702
 30
0.0
 10
42.2853635742
 20
271.872168367
 30
0.0
 10
38.5378659333
 20
271.3787030011
 30
0.0
 10
36.5966654757
 20
271.1939545447
 30
0.0
  0
SPLINE
  5
2C3
100
AcDbEntity
  8
0
100
AcDbSpline
 62
7
  6
CONTINUOUS
 70
0
 71
3
 72
9
 73
5
 74
0
 42
0.0000001
 43
0.0000001
 44
0.0000000001
 40
0.0
 40
0.0
 40
0.0
 40
0.0
 40
0.4849768742
 40
1.0
 40
1.0
 40
1.0
 40
1.0
 10
-3.079507175
 20
292.9495318634
 30
0.0
 10
-2.9462002788
 20
292.985274253
 30
0.0
 10
-2.658307865
 20
293.0158905618
 30
0.0
 10
-2.374885792
 20
292.9632949757
 30
0.0
 10
-2.2347778139
 20
292.9202677283
 30
0.0
  0
SPLINE
  5
2C4
100
AcDbEntity
  8
0
100
AcDbSpline
 62
7
  6
CONTINUOUS
 70
0
 71
3
 72
9
 73
5
 74
0
 42
0.0000001
 43
0.0000001
 44
0.0000000001
 40
0.0
 40
0.0
 40
0.0
 40
0.0
 40
0.5137766731
 40
1.0
 40
1.0
 40
1.0
 40
1.0
 10
20.0483934526
 20
295.0381349492
 30
0.0
 10
18.92868809
 20
294.8890407733
 30
0.0
 10
16.7570421966
 20
294.5366475533
 30
0.0
 10
14.6116890523
 20
294.0467997425
 30
0.0
 10
13.579132766
 20
293.7700173688
 30
0.0
  0
SPLINE
  5
2C5
100
AcDbEntity
  8
0
100
AcDbSpline
 62
7
  6
CONTINUOUS
 70
0
 71
3
 72
9
 73
5
 74
0
 42
0.0000001
 43
0.0000001
 44
0.0000000001
 40
0.0
 40
0.0
 40
0.0
 40
0.0
 40
0.4764924918
 40
1.0
 40
1.0
 40
1.0
 40
1.0
 10
6.0687805882
 20
290.7163656642
 30
0.0
 10
6.6241636239
 20
291.0608970464
 30
0.0
 10
7.8313405514
 20
291.7176239702
 30
0.0
 10
9.0908803271
 20
292.264594572
 30
0.0
 10
9.759311106
 20
292.5269004446
 30
0.0
  0
SPLINE
  5
2C6
100
AcDbEntity
  8
0
100
AcDbSpline
 62
7
  6
CONTINUOUS
 70
0
 71
3
 72
9
 73
5
 74
0
 42
0.0000001
 43
0.0000001
 44
0.0000000001
 40
0.0
 40
0.0
 40
0.0
 40
0.0
 40
0.2388608528
 40
1.0
 40
1.0
 40
1.0
 40
1.0
 10
9.759311106
 20
292.5269004446
 30
0.0
 10
10.0571322507
 20
292.6437715369
 30
0.0
 10
11.3118346415
 20
293.1129529373
 30
0.0
 10
12.5944222475
 20
293.5060603154
 30
0.0
 10
13.579132766
 20
293.7700173688
 30
0.0
  0
SPLINE
  5
2C7
100
AcDbEntity
  8
0
100
AcDbSpline
 62
7
  6
CONTINUOUS
 70
0
 71
3
 72
24
 73
20
 74
0
 42
0.0000001
 43
0.0000001
 44
0.0000000001
 40
0.0
 40
0.0
 40
0.0
 40
0.0
 40
0.1817587022
 40
0.2711097483
 40
0.3575221634
 40
0.4396654913
 40
0.5163464319
 40
0.5865599191
 40
0.6495635142
 40
0.70498243
 40
0.7529759991
 40
0.7944969889
 40
0.8134832335
 40
0.8317287681
 40
0.8496680459
 40
0.8677633132
 40
0.906045796
 40
0.9495734924
 40
1.0
 40
1.0
 40
1.0
 40
1.0
 10
32.1055291998
 20
274.6830328062
 30
0.0
 10
29.6607612865
 20
274.55568591
 30
0.0
 10
25.9996342886
 20
274.5642357683
 30
0.0
 10
21.199638222
 20
274.9700320581
 30
0.0
 10
17.7587262727
 20
275.4622763739
 30
0.0
 10
14.5223257558
 20
276.1342266387
 30
0.0
 10
11.5506334748
 20
276.9730536699
 30
0.0
 10
8.8984642385
 20
277.9629567223
 30
0.0
 10
6.6135799477
 20
279.0856779839
 30
0.0
 10
4.7354008568
 20
280.3232368443
 30
0.0
 10
3.2955773896
 20
281.657313797
 30
0.0
 10
2.4612128424
 20
282.8801485899
 30
0.0
 10
2.0768744817
 20
283.8733174603
 30
0.0
 10
1.9252713006
 20
284.6044957831
 30
0.0
 10
1.9039383616
 20
285.3391305768
 30
0.0
 10
2.0514586862
 20
286.3340231818
 30
0.0
 10
2.5946498254
 20
287.5914280401
 30
0.0
 10
3.7284498066
 20
288.9845976082
 30
0.0
 10
4.7126321645
 20
289.7917096167
 30
0.0
 10
5.2665602555
 20
290.184722822
 30
0.0
  0
SPLINE
  5
2C8
100
AcDbEntity
  8
0
100
AcDbSpline
 62
7
  6
CONTINUOUS
 70
0
 71
3
 72
25
 73
21
 74
0
 42
0.0000001
 43
0.0000001
 44
0.0000000001
 40
0.0
 40
0.0
 40
0.0
 40
0.0
 40
0.1517751763
 40
0.2979273542
 40
0.4380273881
 40
0.5056408262
 40
0.5715112648
 40
0.6975166434
 40
0.8145352161
 40
0.8420691901
 40
0.8687568657
 40
0.8944660939
 40
0.9190003612
 40
0.9420455431
 40
0.952857663
 40
0.9630664484
 40
0.9725343091
 40
0.9811204719
 40
0.9890671666
 40
1.0
 40
1.0
 40
1.0
 40
1.0
 10
9.7067642128
 20
292.7397831116
 30
0.0
 10
9.5030923337
 20
292.6648135372
 30
0.0
 10
9.104902184
 20
292.5132215645
 30
0.0
 10
8.5252305501
 20
292.2757558436
 30
0.0
 10
8.0625343025
 20
292.0706923968
 30
0.0
 10
7.7089748354
 20
291.9031896358
 30
0.0
 10
7.3766074749
 20
291.7381685214
 30
0.0
 10
6.9869969528
 20
291.5298219256
 30
0.0
 10
6.6555703883
 20
291.3295175668
 30
0.0
 10
6.4532686894
 20
291.1915156063
 30
0.0
 10
6.3605853159
 20
291.1246036353
 30
0.0
 10
6.273512785
 20
291.0573265641
 30
0.0
 10
6.1933805269
 20
290.9897358347
 30
0.0
 10
6.1327966801
 20
290.9321351593
 30
0.0
 10
6.0905355925
 20
290.8853426553
 30
0.0
 10
6.0636008113
 20
290.8510168537
 30
0.0
 10
6.0421710569
 20
290.8165404965
 30
0.0
 10
6.028008449
 20
290.7821136937
 30
0.0
 10
6.0280775035
 20
290.7397074071
 30
0.0
 10
6.0540878567
 20
290.7217068549
 30
0.0
 10
6.0687805881
 20
290.7163656642
 30
0.0
  0
SPLINE
  5
2C9
100
AcDbEntity
  8
0
100
AcDbSpline
 62
7
  6
CONTINUOUS
 70
0
 71
3
 72
20
 73
16
 74
0
 42
0.0000001
 43
0.0000001
 44
0.0000000001
 40
0.0
 40
0.0
 40
0.0
 40
0.0
 40
0.2513793039
 40
0.3777814717
 40
0.5045725222
 40
0.6316435323
 40
0.695222469
 40
0.7587626064
 40
0.8221521875
 40
0.8851209715
 40
0.9162290698
 40
0.9467512998
 40
0.9758463973
 40
0.9890490714
 40
1.0
 40
1.0
 40
1.0
 40
1.0
 10
20.2237775759
 20
295.1788339512
 30
0.0
 10
20.5015074776
 20
295.2139076292
 30
0.0
 10
20.9193430021
 20
295.2631502761
 30
0.0
 10
21.4782780662
 20
295.3207932632
 30
0.0
 10
21.8999695795
 20
295.3595797064
 30
0.0
 10
22.2523937413
 20
295.3873540162
 30
0.0
 10
22.5348512755
 20
295.4059611609
 30
0.0
 10
22.7466820238
 20
295.4176888603
 30
0.0
 10
22.957976668
 20
295.4265268116
 30
0.0
 10
23.1332995765
 20
295.4305473436
 30
0.0
 10
23.2720753045
 20
295.4303506977
 30
0.0
 10
23.3730468151
 20
295.4276325218
 30
0.0
 10
23.4541105826
 20
295.4223058675
 30
0.0
 10
23.5127095214
 20
295.4137063294
 30
0.0
 10
23.5390961442
 20
295.4072820041
 30
0.0
 10
23.5502588599
 20
295.4023717603
 30
0.0
  0
SPLINE
  5
2CA
100
AcDbEntity
  8
0
100
AcDbSpline
 62
7
  6
CONTINUOUS
 70
0
 71
3
 72
11
 73
7
 74
0
 42
0.0000001
 43
0.0000001
 44
0.0000000001
 40
0.0
 40
0.0
 40
0.0
 40
0.0
 40
0.2113478796
 40
0.4543318782
 40
0.7218890289
 40
1.0
 40
1.0
 40
1.0
 40
1.0
 10
32.1055291994
 20
274.6830328052
 30
0.0
 10
32.2587673218
 20
274.568418693
 30
0.0
 10
32.5547812609
 20
274.2768144683
 30
0.0
 10
32.9247148548
 20
273.7343060766
 30
0.0
 10
33.2257615575
 20
273.0835248507
 30
0.0
 10
33.36114974
 20
272.6057250772
 30
0.0
 10
33.4092656715
 20
272.358556927
 30
0.0
  0
SPLINE
  5
2CB
100
AcDbEntity
  8
0
100
AcDbSpline
 62
7
  6
CONTINUOUS
 70
0
 71
3
 72
14
 73
10
 74
0
 42
0.0000001
 43
0.0000001
 44
0.0000000001
 40
0.0
 40
0.0
 40
0.0
 40
0.0
 40
0.1105577881
 40
0.2183733413
 40
0.3274175716
 40
0.4414952502
 40
0.5638052215
 40
0.6967519988
 40
1.0
 40
1.0
 40
1.0
 40
1.0
 10
0.111429658
 20
285.0979447712
 30
0.0
 10
0.0037852991
 20
284.7969228248
 30
0.0
 10
-0.1538378985
 20
284.1803356535
 30
0.0
 10
-0.1930022761
 20
283.227496605
 30
0.0
 10
-0.0287061189
 20
282.2777033686
 30
0.0
 10
0.335456615
 20
281.3413056044
 30
0.0
 10
0.8933163408
 20
280.42499119
 30
0.0
 10
1.9329361159
 20
279.1832479338
 30
0.0
 10
2.9243563086
 20
278.3822469256
 30
0.0
 10
3.6475445727
 20
277.8863567495
 30
0.0
  0
SPLINE
  5
2CC
100
AcDbEntity
  8
0
100
AcDbSpline
 62
7
  6
CONTINUOUS
 70
0
 71
3
 72
15
 73
11
 74
0
 42
0.0000001
 43
0.0000001
 44
0.0000000001
 40
0.0
 40
0.0
 40
0.0
 40
0.0
 40
0.0925007682
 40
0.197812795
 40
0.3147817556
 40
0.4416327231
 40
0.5761586611
 40
0.7158831624
 40
0.858089983
 40
1.0
 40
1.0
 40
1.0
 40
1.0
 10
3.6475445727
 20
277.8863567495
 30
0.0
 10
4.4287731041
 20
277.3506683635
 30
0.0
 10
6.1990684659
 20
276.3492139357
 30
0.0
 10
9.1805303192
 20
275.1100081995
 30
0.0
 10
12.6030694772
 20
274.0597904702
 30
0.0
 10
16.389550025
 20
273.2226533184
 30
0.0
 10
20.4553120414
 20
272.6179271729
 30
0.0
 10
24.7077323147
 20
272.2601393567
 30
0.0
 10
29.0492817197
 20
272.1576507448
 30
0.0
 10
31.9589788829
 20
272.2618979647
 30
0.0
 10
33.408982292
 20
272.358551678
 30
0.0
  0
SPLINE
  5
2CD
100
AcDbEntity
  8
0
100
AcDbSpline
 62
7
  6
CONTINUOUS
 70
0
 71
3
 72
14
 73
10
 74
0
 42
0.0000001
 43
0.0000001
 44
0.0000000001
 40
0.0
 40
0.0
 40
0.0
 40
0.0
 40
0.1550095029
 40
0.2977303517
 40
0.5507077359
 40
0.665727339
 40
0.776641373
 40
0.8868931258
 40
1.0
 40
1.0
 40
1.0
 40
1.0
 10
54.1723425745
 20
278.3292471176
 30
0.0
 10
54.4976699615
 20
278.5773349171
 30
0.0
 10
55.1026880032
 20
279.0817799651
 30
0.0
 10
56.114652093
 20
280.1262233653
 30
0.0
 10
56.875714158
 20
281.2677150274
 30
0.0
 10
57.2812191572
 20
282.4717978807
 30
0.0
 10
57.4019487018
 20
283.3566713518
 30
0.0
 10
57.346440496
 20
284.2427180483
 30
0.0
 10
57.1958869658
 20
284.8168324634
 30
0.0
 10
57.0953885645
 20
285.0979389832
 30
0.0
  0
SPLINE
  5
2CE
100
AcDbEntity
  8
0
100
AcDbSpline
 62
7
  6
CONTINUOUS
 70
0
 71
3
 72
10
 73
6
 74
0
 42
0.0000001
 43
0.0000001
 44
0.0000000001
 40
0.0
 40
0.0
 40
0.0
 40
0.0
 40
0.5158945497
 40
0.7565045512
 40
1.0
 40
1.0
 40
1.0
 40
1.0
 10
5.2665602554
 20
290.184722822
 30
0.0
 10
5.1291218348
 20
290.24068982
 30
0.0
 10
4.9071519898
 20
290.2900370986
 30
0.0
 10
4.6210956489
 20
290.2376770075
 30
0.0
 10
4.4944896385
 20
290.1747760704
 30
0.0
 10
4.4363499783
 20
290.1357174948
 30
0.0
  0
LINE
  5
2CF
100
AcDbEntity
  8
0
100
AcDbLine
 62
7
  6
CONTINUOUS
 10
24.665787734
 20
295.4774034716
 11
24.5826517368
 21
295.4724704647
  0
SPLINE
  5
2D0
100
AcDbEntity
  8
0
100
AcDbSpline
 62
7
  6
CONTINUOUS
 70
0
 71
3
 72
24
 73
20
 74
0
 42
0.0000001
 43
0.0000001
 44
0.0000000001
 40
0.0
 40
0.0
 40
0.0
 40
0.0
 40
0.0504265076
 40
0.093954204
 40
0.1322366868
 40
0.1503319541
 40
0.1682712319
 40
0.1865167665
 40
0.2055030111
 40
0.2470240009
 40
0.29501757
 40
0.3504364858
 40
0.4134400809
 40
0.4836535681
 40
0.5603345087
 40
0.6424778366
 40
0.7288902517
 40
0.8182412978
 40
1.0
 40
1.0
 40
1.0
 40
1.0
 10
51.9402406245
 20
279.9998359513
 30
0.0
 10
52.4941687154
 20
280.3928491565
 30
0.0
 10
53.4783510734
 20
281.199961165
 30
0.0
 10
54.6121510546
 20
282.593130733
 30
0.0
 10
55.1553421937
 20
283.8505355913
 30
0.0
 10
55.3028625183
 20
284.8454281963
 30
0.0
 10
55.2815295794
 20
285.5800629899
 30
0.0
 10
55.1299263983
 20
286.3112413128
 30
0.0
 10
54.7455880377
 20
287.3044101832
 30
0.0
 10
53.9112234906
 20
288.527244976
 30
0.0
 10
52.4714000235
 20
289.8613219287
 30
0.0
 10
50.5932209327
 20
291.0988807891
 30
0.0
 10
48.3083366421
 20
292.2216020507
 30
0.0
 10
45.6561674059
 20
293.2115051031
 30
0.0
 10
42.6844751251
 20
294.0503321344
 30
0.0
 10
39.4480746083
 20
294.7222823992
 30
0.0
 10
36.0071626592
 20
295.2145267151
 30
0.0
 10
31.2071665928
 20
295.6203230049
 30
0.0
 10
27.5460395949
 20
295.6288728634
 30
0.0
 10
25.1012716817
 20
295.5015259671
 30
0.0
  0
SPLINE
  5
2D1
100
AcDbEntity
  8
0
100
AcDbSpline
 62
7
  6
CONTINUOUS
 70
0
 71
3
 72
10
 73
6
 74
0
 42
0.0000001
 43
0.0000001
 44
0.0000000001
 40
0.0
 40
0.0
 40
0.0
 40
0.0
 40
0.2250988684
 40
0.4675236618
 40
1.0
 40
1.0
 40
1.0
 40
1.0
 10
56.4313769019
 20
276.5107576899
 30
0.0
 10
55.820292864
 20
276.1682303663
 30
0.0
 10
54.5206700994
 20
275.5102340864
 30
0.0
 10
51.651803566
 20
274.2998476287
 30
0.0
 10
49.3465508574
 20
273.5698846944
 30
0.0
 10
47.7459287805
 20
273.140829171
 30
0.0
  0
SPLINE
  5
2D2
100
AcDbEntity
  8
0
100
AcDbSpline
 62
7
  6
CONTINUOUS
 70
0
 71
3
 72
17
 73
13
 74
0
 42
0.0000001
 43
0.0000001
 44
0.0000000001
 40
0.0
 40
0.0
 40
0.0
 40
0.0
 40
0.040037271
 40
0.0828916922
 40
0.1306078836
 40
0.1842328439
 40
0.3091200408
 40
0.4529231193
 40
0.6053940697
 40
0.7544097566
 40
0.8885512168
 40
1.0
 40
1.0
 40
1.0
 40
1.0
 10
-7.5083794059
 20
268.3271179711
 30
0.0
 10
-7.4524456727
 20
268.342108104
 30
0.0
 10
-7.3411824413
 20
268.3928697978
 30
0.0
 10
-7.1991274431
 20
268.5208528352
 30
0.0
 10
-7.0823094082
 20
268.6956888655
 30
0.0
 10
-6.9562950738
 20
268.9993523381
 30
0.0
 10
-6.883313222
 20
269.4658156378
 30
0.0
 10
-6.9154738486
 20
270.0770720741
 30
0.0
 10
-7.060259585
 20
270.7078358783
 30
0.0
 10
-7.3033747482
 20
271.2928754193
 30
0.0
 10
-7.6185174765
 20
271.7725130675
 30
0.0
 10
-7.8866244465
 20
272.01696104
 30
0.0
 10
-8.0262077125
 20
272.0975817421
 30
0.0
  0
SPLINE
  5
2D3
100
AcDbEntity
  8
0
100
AcDbSpline
 62
7
  6
CONTINUOUS
 70
0
 71
3
 72
14
 73
10
 74
0
 42
0.0000001
 43
0.0000001
 44
0.0000000001
 40
0.0
 40
0.0
 40
0.0
 40
0.0
 40
0.114088324
 40
0.2315233684
 40
0.3529032548
 40
0.4781993011
 40
0.6068147942
 40
0.7377090688
 40
1.0
 40
1.0
 40
1.0
 40
1.0
 10
-29.5762674416
 20
273.8014752805
 30
0.0
 10
-29.9312205717
 20
273.7063281478
 30
0.0
 10
-30.631491688
 20
273.4294356328
 30
0.0
 10
-31.5807444738
 20
272.7899154156
 30
0.0
 10
-32.4075018256
 20
271.947369247
 30
0.0
 10
-33.0807884951
 20
270.9354260057
 30
0.0
 10
-33.5763873794
 20
269.7920203907
 30
0.0
 10
-33.9765024169
 20
268.1541206293
 30
0.0
 10
-33.9657281588
 20
266.8568385076
 30
0.0
 10
-33.8172895493
 20
266.0251284737
 30
0.0
  0
SPLINE
  5
2D4
100
AcDbEntity
  8
0
100
AcDbSpline
 62
7
  6
CONTINUOUS
 70
0
 71
3
 72
13
 73
9
 74
0
 42
0.0000001
 43
0.0000001
 44
0.0000000001
 40
0.0
 40
0.0
 40
0.0
 40
0.0
 40
0.267702785
 40
0.523095256
 40
0.64603859
 40
0.7659487402
 40
0.8835892837
 40
1.0
 40
1.0
 40
1.0
 40
1.0
 10
-21.2906309251
 20
195.8375425112
 30
0.0
 10
-21.169816111
 20
195.1606101859
 30
0.0
 10
-20.7494728996
 20
193.8621141792
 30
0.0
 10
-19.774564543
 20
192.4820438389
 30
0.0
 10
-18.791932729
 20
191.6530043184
 30
0.0
 10
-17.9851722649
 20
191.1877842936
 30
0.0
 10
-17.1221112963
 20
190.8857613258
 30
0.0
 10
-16.5227585654
 20
190.7987419429
 30
0.0
 10
-16.2240732555
 20
190.7846858331
 30
0.0
  0
SPLINE
  5
2D5
100
AcDbEntity
  8
0
100
AcDbSpline
 62
7
  6
CONTINUOUS
 70
0
 71
3
 72
18
 73
14
 74
0
 42
0.0000001
 43
0.0000001
 44
0.0000000001
 40
0.0
 40
0.0
 40
0.0
 40
0.0
 40
0.052340737
 40
0.1054351502
 40
0.1599429335
 40
0.216366752
 40
0.2750156433
 40
0.335997569
 40
0.4642341698
 40
0.5989476652
 40
0.7361167772
 40
0.871165813
 40
1.0
 40
1.0
 40
1.0
 40
1.0
 10
28.1625239457
 20
250.6795112434
 30
0.0
 10
28.9244242255
 20
250.2381937542
 30
0.0
 10
30.3791985168
 20
249.2024543009
 30
0.0
 10
32.2561856522
 20
247.2551200758
 30
0.0
 10
33.7991460696
 20
244.9509651827
 30
0.0
 10
34.9775985614
 20
242.339785627
 30
0.0
 10
35.7706395477
 20
239.4748640022
 30
0.0
 10
36.3045114663
 20
235.3277285503
 30
0.0
 10
35.9106554586
 20
229.8311827933
 30
0.0
 10
33.8961467313
 20
223.3542822384
 30
0.0
 10
30.4929911798
 20
217.3533097663
 30
0.0
 10
25.9627415712
 20
212.2862309709
 30
0.0
 10
22.2881403622
 20
209.7029769539
 30
0.0
 10
20.3652252263
 20
208.7032482264
 30
0.0
  0
SPLINE
  5
2D6
100
AcDbEntity
  8
0
100
AcDbSpline
 62
7
  6
CONTINUOUS
 70
0
 71
3
 72
14
 73
10
 74
0
 42
0.0000001
 43
0.0000001
 44
0.0000000001
 40
0.0
 40
0.0
 40
0.0
 40
0.0
 40
0.2622909583
 40
0.393185238
 40
0.5218007329
 40
0.6470967759
 40
0.7684766562
 40
0.8859116878
 40
1.0
 40
1.0
 40
1.0
 40
1.0
 10
34.4095796985
 20
210.1440461457
 30
0.0
 10
34.5580183234
 20
209.3123360259
 30
0.0
 10
34.5687925627
 20
208.0150537906
 30
0.0
 10
34.1686774277
 20
206.3771539398
 30
0.0
 10
33.6730784927
 20
205.2337483348
 30
0.0
 10
32.9997917943
 20
204.2218051407
 30
0.0
 10
32.1730344479
 20
203.3792590696
 30
0.0
 10
31.2237817325
 20
202.7397389284
 30
0.0
 10
30.5235106843
 20
202.4628464617
 30
0.0
 10
30.1685575907
 20
202.3676993389
 30
0.0
  0
SPLINE
  5
2D7
100
AcDbEntity
  8
0
100
AcDbSpline
 62
7
  6
CONTINUOUS
 70
0
 71
3
 72
11
 73
7
 74
0
 42
0.0000001
 43
0.0000001
 44
0.0000000001
 40
0.0
 40
0.0
 40
0.0
 40
0.0
 40
0.2397934599
 40
0.4840637622
 40
0.7365906122
 40
1.0
 40
1.0
 40
1.0
 40
1.0
 10
27.0475668806
 20
248.7829199579
 30
0.0
 10
26.2518508004
 20
249.2425551234
 30
0.0
 10
24.5398416256
 20
249.9990759449
 30
0.0
 10
21.757084432
 20
250.5761838877
 30
0.0
 10
18.8262984073
 20
250.5905530611
 30
0.0
 10
16.8692352075
 20
250.2350201956
 30
0.0
 10
15.8942284874
 20
249.9736642987
 30
0.0
  0
SPLINE
  5
2D8
100
AcDbEntity
  8
0
100
AcDbSpline
 62
7
  6
CONTINUOUS
 70
0
 71
3
 72
9
 73
5
 74
0
 42
0.0000001
 43
0.0000001
 44
0.0000000001
 40
0.0
 40
0.0
 40
0.0
 40
0.0
 40
0.251640531
 40
1.0
 40
1.0
 40
1.0
 40
1.0
 10
-12.806650499
 20
190.8479591912
 30
0.0
 10
-12.9239629191
 20
190.8165129538
 30
0.0
 10
-13.3946965603
 20
190.7092033454
 30
0.0
 10
-13.8820772936
 20
190.674535273
 30
0.0
 10
-14.2428727445
 20
190.6915142832
 30
0.0
  0
SPLINE
  5
2D9
100
AcDbEntity
  8
0
100
AcDbSpline
 62
7
  6
CONTINUOUS
 70
0
 71
3
 72
9
 73
5
 74
0
 42
0.0000001
 43
0.0000001
 44
0.0000000001
 40
0.0
 40
0.0
 40
0.0
 40
0.0
 40
0.2532452021
 40
1.0
 40
1.0
 40
1.0
 40
1.0
 10
-30.2718262942
 20
245.857600462
 30
0.0
 10
-30.3301487737
 20
245.5628098318
 30
0.0
 10
-30.5400160009
 20
244.3948384183
 30
0.0
 10
-30.6667804732
 20
243.2116957404
 30
0.0
 10
-30.7105622684
 20
242.3266673701
 30
0.0
  0
SPLINE
  5
2DA
100
AcDbEntity
  8
0
100
AcDbSpline
 62
7
  6
CONTINUOUS
 70
0
 71
3
 72
11
 73
7
 74
0
 42
0.0000001
 43
0.0000001
 44
0.0000000001
 40
0.0
 40
0.0
 40
0.0
 40
0.0
 40
0.2667925474
 40
0.5222175316
 40
0.7662037645
 40
1.0
 40
1.0
 40
1.0
 40
1.0
 10
-30.7105622684
 20
242.3266673701
 30
0.0
 10
-30.7646496751
 20
241.2333159169
 30
0.0
 10
-30.718727472
 20
239.0816575676
 30
0.0
 10
-30.1589513159
 20
235.9739987266
 30
0.0
 10
-29.1223301511
 20
233.1333181989
 30
0.0
 10
-28.1086025742
 20
231.4378034227
 30
0.0
 10
-27.5337491046
 20
230.6698192827
 30
0.0
  0
SPLINE
  5
2DB
100
AcDbEntity
  8
0
100
AcDbSpline
 62
7
  6
CONTINUOUS
 70
0
 71
3
 72
11
 73
7
 74
0
 42
0.0000001
 43
0.0000001
 44
0.0000000001
 40
0.0
 40
0.0
 40
0.0
 40
0.0
 40
0.2565516803
 40
0.5076779853
 40
0.7548388662
 40
1.0
 40
1.0
 40
1.0
 40
1.0
 10
11.4232317486
 20
206.3062978486
 30
0.0
 10
10.7292190159
 20
206.2950490904
 30
0.0
 10
9.3527185694
 20
206.3577663485
 30
0.0
 10
7.3364565113
 20
206.7179283187
 30
0.0
 10
5.4170554109
 20
207.339718196
 30
0.0
 10
4.2149481577
 20
207.9253166937
 30
0.0
 10
3.6405655253
 20
208.2570300163
 30
0.0
  0
SPLINE
  5
2DC
100
AcDbEntity
  8
0
100
AcDbSpline
 62
7
  6
CONTINUOUS
 70
0
 71
3
 72
13
 73
9
 74
0
 42
0.0000001
 43
0.0000001
 44
0.0000000001
 40
0.0
 40
0.0
 40
0.0
 40
0.0
 40
0.2750757844
 40
0.5423820257
 40
0.6671161281
 40
0.7840067547
 40
0.894030456
 40
1.0
 40
1.0
 40
1.0
 40
1.0
 10
20.3652252263
 20
208.7032482264
 30
0.0
 10
20.1275604179
 20
207.8428517386
 30
0.0
 10
19.3345904853
 20
206.2240264852
 30
0.0
 10
17.7287410258
 20
204.6898250485
 30
0.0
 10
16.229087656
 20
203.9685020252
 30
0.0
 10
15.1010301857
 20
203.7266913076
 30
0.0
 10
14.0084524949
 20
203.7923850573
 30
0.0
 10
13.3411538572
 20
204.0473885106
 30
0.0
 10
13.0434022548
 20
204.2194075768
 30
0.0
  0
SPLINE
  5
2DD
100
AcDbEntity
  8
0
100
AcDbSpline
 62
7
  6
CONTINUOUS
 70
0
 71
3
 72
11
 73
7
 74
0
 42
0.0000001
 43
0.0000001
 44
0.0000000001
 40
0.0
 40
0.0
 40
0.0
 40
0.0
 40
0.2717611204
 40
0.5268826283
 40
0.7676339456
 40
1.0
 40
1.0
 40
1.0
 40
1.0
 10
13.0016664044
 20
208.379840337
 30
0.0
 10
13.0016664044
 20
208.1405768422
 30
0.0
 10
13.0482134024
 20
207.674731103
 30
0.0
 10
13.2709728731
 20
207.0294223265
 30
0.0
 10
13.6361410635
 20
206.4925288249
 30
0.0
 10
13.9665714282
 20
206.2267795369
 30
0.0
 10
14.1437123327
 20
206.1244378945
 30
0.0
  0
SPLINE
  5
2DE
100
AcDbEntity
  8
0
100
AcDbSpline
 62
7
  6
CONTINUOUS
 70
0
 71
3
 72
20
 73
16
 74
0
 42
0.0000001
 43
0.0000001
 44
0.0000000001
 40
0.0
 40
0.0
 40
0.0
 40
0.0
 40
0.122724013
 40
0.1878070584
 40
0.2547486599
 40
0.3916139811
 40
0.4604260366
 40
0.5284817862
 40
0.6595703672
 40
0.7219375362
 40
0.7817551652
 40
0.8390519888
 40
0.8941192057
 40
0.9475108518
 40
1.0
 40
1.0
 40
1.0
 40
1.0
 10
15.8942284874
 20
249.9736642987
 30
0.0
 10
13.9056760103
 20
249.4406219046
 30
0.0
 10
10.98500849
 20
248.1064544555
 30
0.0
 10
7.5252698453
 20
245.586793836
 30
0.0
 10
4.2387814917
 20
242.481113584
 30
0.0
 10
1.5147362695
 20
238.7439485336
 30
0.0
 10
-0.5050325779
 20
234.6101578577
 30
0.0
 10
-1.9874880343
 20
230.3585750315
 30
0.0
 10
-2.6697773611
 20
225.9647707978
 30
0.0
 10
-2.4316844675
 20
221.7101085986
 30
0.0
 10
-1.8133248769
 20
218.7503797005
 30
0.0
 10
-0.7641981023
 20
216.0442261931
 30
0.0
 10
0.6942094236
 20
213.6576629035
 30
0.0
 10
2.5280326075
 20
211.6530880449
 30
0.0
 10
3.97841077
 20
210.6024946788
 30
0.0
 10
4.7408854427
 20
210.1620769903
 30
0.0
  0
SPLINE
  5
2DF
100
AcDbEntity
  8
0
100
AcDbSpline
 62
7
  6
CONTINUOUS
 70
0
 71
3
 72
9
 73
5
 74
0
 42
0.0000001
 43
0.0000001
 44
0.0000000001
 40
0.0
 40
0.0
 40
0.0
 40
0.0
 40
0.748453333
 40
1.0
 40
1.0
 40
1.0
 40
1.0
 10
-13.7827105771
 20
207.9824626772
 30
0.0
 10
-14.0602800613
 20
207.9955183754
 30
0.0
 10
-14.4351811304
 20
207.968805414
 30
0.0
 10
-14.797290728
 20
207.8862955282
 30
0.0
 10
-14.8874971948
 20
207.8621151902
 30
0.0
  0
SPLINE
  5
2E0
100
AcDbEntity
  8
0
100
AcDbSpline
 62
7
  6
CONTINUOUS
 70
0
 71
3
 72
11
 73
7
 74
0
 42
0.0000001
 43
0.0000001
 44
0.0000000001
 40
0.0
 40
0.0
 40
0.0
 40
0.0
 40
0.2341347356
 40
0.4778815177
 40
0.7330361518
 40
1.0
 40
1.0
 40
1.0
 40
1.0
 10
34.0817947318
 20
252.2250231969
 30
0.0
 10
34.9404622116
 20
251.2427200137
 30
0.0
 10
36.4818604151
 20
249.0443957232
 30
0.0
 10
38.1380582235
 20
245.2855223626
 30
0.0
 10
39.141566033
 20
241.1165371354
 30
0.0
 10
39.354975114
 20
238.201130084
 30
0.0
 10
39.354975114
 20
236.7134976233
 30
0.0
  0
SPLINE
  5
2E1
100
AcDbEntity
  8
0
100
AcDbSpline
 62
7
  6
CONTINUOUS
 70
0
 71
3
 72
14
 73
10
 74
0
 42
0.0000001
 43
0.0000001
 44
0.0000000001
 40
0.0
 40
0.0
 40
0.0
 40
0.0
 40
0.2491613242
 40
0.3790638972
 40
0.5096227349
 40
0.6387325639
 40
0.7644429917
 40
0.8851815827
 40
1.0
 40
1.0
 40
1.0
 40
1.0
 10
39.354975114
 20
236.7134976233
 30
0.0
 10
39.354975114
 20
233.004606379
 30
0.0
 10
38.3217816135
 20
227.3244813615
 30
0.0
 10
35.3353911559
 20
220.3349841285
 30
0.0
 10
32.283453122
 20
215.3758513524
 30
0.0
 10
28.5689406453
 20
210.976444168
 30
0.0
 10
24.3273056034
 20
207.2973742226
 30
0.0
 10
19.7173713822
 20
204.4797755319
 30
0.0
 10
16.4190460641
 20
203.2151913416
 30
0.0
 10
14.7681974086
 20
202.7726723084
 30
0.0
  0
SPLINE
  5
2E2
100
AcDbEntity
  8
0
100
AcDbSpline
 62
7
  6
CONTINUOUS
 70
0
 71
3
 72
9
 73
5
 74
0
 42
0.0000001
 43
0.0000001
 44
0.0000000001
 40
0.0
 40
0.0
 40
0.0
 40
0.0
 40
0.5122819341
 40
1.0
 40
1.0
 40
1.0
 40
1.0
 10
-17.8329381195
 20
272.8871843022
 30
0.0
 10
-17.1925506431
 20
273.5047432944
 30
0.0
 10
-15.8058503947
 20
274.5811891759
 30
0.0
 10
-14.1838295289
 20
275.2656395997
 30
0.0
 10
-13.3657178522
 20
275.4849246855
 30
0.0
  0
SPLINE
  5
2E3
100
AcDbEntity
  8
0
100
AcDbSpline
 62
7
  6
CONTINUOUS
 70
0
 71
3
 72
9
 73
5
 74
0
 42
0.0000001
 43
0.0000001
 44
0.0000000001
 40
0.0
 40
0.0
 40
0.0
 40
0.0
 40
0.5312871198
 40
1.0
 40
1.0
 40
1.0
 40
1.0
 10
-8.0262077125
 20
272.0975817421
 30
0.0
 10
-8.1085130353
 20
272.1451197681
 30
0.0
 10
-8.2772475213
 20
272.2156046534
 30
0.0
 10
-8.4630412751
 20
272.2124134949
 30
0.0
 10
-8.5440360191
 20
272.1907070594
 30
0.0
  0
SPLINE
  5
2E4
100
AcDbEntity
  8
0
100
AcDbSpline
 62
7
  6
CONTINUOUS
 70
0
 71
3
 72
9
 73
5
 74
0
 42
0.0000001
 43
0.0000001
 44
0.0000000001
 40
0.0
 40
0.0
 40
0.0
 40
0.0
 40
0.5123678665
 40
1.0
 40
1.0
 40
1.0
 40
1.0
 10
21.5623425719
 20
264.9100507167
 30
0.0
 10
21.6635128246
 20
262.7984349447
 30
0.0
 10
22.19305757
 20
258.6839680392
 30
0.0
 10
23.4598320051
 20
254.726685074
 30
0.0
 10
24.2662008535
 20
252.8833661744
 30
0.0
  0
SPLINE
  5
2E5
100
AcDbEntity
  8
0
100
AcDbSpline
 62
7
  6
CONTINUOUS
 70
0
 71
3
 72
11
 73
7
 74
0
 42
0.0000001
 43
0.0000001
 44
0.0000000001
 40
0.0
 40
0.0
 40
0.0
 40
0.0
 40
0.265528585
 40
0.5204448587
 40
0.7648300136
 40
1.0
 40
1.0
 40
1.0
 40
1.0
 10
-11.4642266479
 20
224.4768035641
 30
0.0
 10
-11.4222654776
 20
222.9622635277
 30
0.0
 10
-11.1235807592
 20
219.9938941163
 30
0.0
 10
-9.9945399233
 20
215.7577444498
 30
0.0
 10
-8.2211967738
 20
211.9362623471
 30
0.0
 10
-6.6092304853
 20
209.6990836334
 30
0.0
 10
-5.7165810946
 20
208.6971581219
 30
0.0
  0
SPLINE
  5
2E6
100
AcDbEntity
  8
0
100
AcDbSpline
 62
7
  6
CONTINUOUS
 70
0
 71
3
 72
11
 73
7
 74
0
 42
0.0000001
 43
0.0000001
 44
0.0000000001
 40
0.0
 40
0.0
 40
0.0
 40
0.0
 40
0.2476342106
 40
0.502045682
 40
0.7553716285
 40
1.0
 40
1.0
 40
1.0
 40
1.0
 10
2.0629492679
 20
253.5008528363
 30
0.0
 10
-0.061980415
 20
251.7899510892
 30
0.0
 10
-3.9463905747
 20
247.7691019708
 30
0.0
 10
-8.2934836275
 20
240.5988814604
 30
0.0
 10
-10.9829683247
 20
232.6907074086
 30
0.0
 10
-11.5388639856
 20
227.1707521644
 30
0.0
 10
-11.4642266479
 20
224.4768035641
 30
0.0
  0
SPLINE
  5
2E7
100
AcDbEntity
  8
0
100
AcDbSpline
 62
7
  6
CONTINUOUS
 70
0
 71
3
 72
9
 73
5
 74
0
 42
0.0000001
 43
0.0000001
 44
0.0000000001
 40
0.0
 40
0.0
 40
0.0
 40
0.0
 40
0.2448906797
 40
1.0
 40
1.0
 40
1.0
 40
1.0
 10
-1.8305232983
 20
260.5698896528
 30
0.0
 10
-1.8305232983
 20
259.6465240912
 30
0.0
 10
-1.9471449211
 20
255.8765203451
 30
0.0
 10
-2.5187559667
 20
252.1237358305
 30
0.0
 10
-3.1730212025
 20
249.352773241
 30
0.0
  0
SPLINE
  5
2E8
100
AcDbEntity
  8
0
100
AcDbSpline
 62
7
  6
CONTINUOUS
 70
0
 71
3
 72
13
 73
9
 74
0
 42
0.0000001
 43
0.0000001
 44
0.0000000001
 40
0.0
 40
0.0
 40
0.0
 40
0.0
 40
0.2678813638
 40
0.5423971448
 40
0.6728098359
 40
0.7940021904
 40
0.9035027469
 40
1.0
 40
1.0
 40
1.0
 40
1.0
 10
-1.8304759883
 20
269.3011254038
 30
0.0
 10
-1.8304722225
 20
269.9959840971
 30
0.0
 10
-2.0028864581
 20
271.404770216
 30
0.0
 10
-2.5494576401
 20
273.0749442173
 30
0.0
 10
-3.1773518873
 20
274.2895840343
 30
0.0
 10
-3.7062403278
 20
275.0660723654
 30
0.0
 10
-4.2811321552
 20
275.6945921284
 30
0.0
 10
-4.7102855524
 20
276.0208134722
 30
0.0
 10
-4.9270340528
 20
276.1460033807
 30
0.0
  0
SPLINE
  5
2E9
100
AcDbEntity
  8
0
100
AcDbSpline
 62
7
  6
CONTINUOUS
 70
0
 71
3
 72
9
 73
5
 74
0
 42
0.0000001
 43
0.0000001
 44
0.0000000001
 40
0.0
 40
0.0
 40
0.0
 40
0.0
 40
0.2650411768
 40
1.0
 40
1.0
 40
1.0
 40
1.0
 10
-4.9270340528
 20
276.1460033807
 30
0.0
 10
-4.9842029238
 20
276.1790230588
 30
0.0
 10
-5.2039094879
 20
276.2962450169
 30
0.0
 10
-5.4416156376
 20
276.3819689923
 30
0.0
 10
-5.6210612613
 20
276.4182271575
 30
0.0
  0
SPLINE
  5
2EA
100
AcDbEntity
  8
0
100
AcDbSpline
 62
7
  6
CONTINUOUS
 70
0
 71
3
 72
9
 73
5
 74
0
 42
0.0000001
 43
0.0000001
 44
0.0000000001
 40
0.0
 40
0.0
 40
0.0
 40
0.0
 40
0.2564897654
 40
1.0
 40
1.0
 40
1.0
 40
1.0
 10
-5.6210612613
 20
276.4182271575
 30
0.0
 10
-5.8469980358
 20
276.4638791645
 30
0.0
 10
-6.7327418014
 20
276.6162740354
 30
0.0
 10
-7.6378985051
 20
276.6610075656
 30
0.0
 10
-8.3051352641
 20
276.6255278299
 30
0.0
  0
SPLINE
  5
2EB
100
AcDbEntity
  8
0
100
AcDbSpline
 62
7
  6
CONTINUOUS
 70
0
 71
3
 72
10
 73
6
 74
0
 42
0.0000001
 43
0.0000001
 44
0.0000000001
 40
0.0
 40
0.0
 40
0.0
 40
0.0
 40
0.2415472703
 40
0.4869353179
 40
1.0
 40
1.0
 40
1.0
 40
1.0
 10
13.0434022548
 20
204.2194075768
 30
0.0
 10
12.8555808776
 20
204.327917011
 30
0.0
 10
12.497650449
 20
204.585157237
 30
0.0
 10
11.880999222
 20
205.2437521037
 30
0.0
 10
11.5653400364
 20
205.8680218321
 30
0.0
 10
11.4232317486
 20
206.3062978486
 30
0.0
  0
SPLINE
  5
2EC
100
AcDbEntity
  8
0
100
AcDbSpline
 62
7
  6
CONTINUOUS
 70
0
 71
3
 72
11
 73
7
 74
0
 42
0.0000001
 43
0.0000001
 44
0.0000000001
 40
0.0
 40
0.0
 40
0.0
 40
0.0
 40
0.263408553
 40
0.5159327653
 40
0.7602043661
 40
1.0
 40
1.0
 40
1.0
 40
1.0
 10
15.8942284874
 20
251.9962004482
 30
0.0
 10
16.965420588
 20
252.2833393638
 30
0.0
 10
19.1155417304
 20
252.6739522778
 30
0.0
 10
22.3354527958
 20
252.6581535451
 30
0.0
 10
25.3927484296
 20
252.0241278327
 30
0.0
 10
27.2736666466
 20
251.1929605162
 30
0.0
 10
28.1478913422
 20
250.6879752527
 30
0.0
  0
SPLINE
  5
2ED
100
AcDbEntity
  8
0
100
AcDbSpline
 62
7
  6
CONTINUOUS
 70
0
 71
3
 72
14
 73
10
 74
0
 42
0.0000001
 43
0.0000001
 44
0.0000000001
 40
0.0
 40
0.0
 40
0.0
 40
0.0
 40
0.2622909583
 40
0.393185238
 40
0.5218007329
 40
0.6470967759
 40
0.7684766562
 40
0.8859116878
 40
1.0
 40
1.0
 40
1.0
 40
1.0
 10
-31.8360890384
 20
265.9319569234
 30
0.0
 10
-31.9845276632
 20
266.7636670432
 30
0.0
 10
-31.9953019025
 20
268.0609492785
 30
0.0
 10
-31.5951867675
 20
269.6988491294
 30
0.0
 10
-31.0995878325
 20
270.8422547343
 30
0.0
 10
-30.4263011341
 20
271.8541979284
 30
0.0
 10
-29.5995437877
 20
272.6967439995
 30
0.0
 10
-28.6502910723
 20
273.3362641407
 30
0.0
 10
-27.9500200241
 20
273.6131566074
 30
0.0
 10
-27.5950669306
 20
273.7083037302
 30
0.0
  0
SPLINE
  5
2EE
100
AcDbEntity
  8
0
100
AcDbSpline
 62
7
  6
CONTINUOUS
 70
0
 71
3
 72
20
 73
16
 74
0
 42
0.0000001
 43
0.0000001
 44
0.0000000001
 40
0.0
 40
0.0
 40
0.0
 40
0.0
 40
0.052489766
 40
0.1058815715
 40
0.1609494842
 40
0.2182470166
 40
0.2780652601
 40
0.3404327965
 40
0.47152114
 40
0.5395762246
 40
0.6083873714
 40
0.7452510336
 40
0.8121922066
 40
0.8772753151
 40
1.0
 40
1.0
 40
1.0
 40
1.0
 10
3.6405655253
 20
208.2570300163
 30
0.0
 10
2.8028218814
 20
208.7408376943
 30
0.0
 10
1.2093817333
 20
209.8951565166
 30
0.0
 10
-0.8053730088
 20
212.097498458
 30
0.0
 10
-2.4076662121
 20
214.7195419379
 30
0.0
 10
-3.5602894192
 20
217.6927108262
 30
0.0
 10
-4.2396393942
 20
220.9444656871
 30
0.0
 10
-4.5011904719
 20
225.6188852066
 30
0.0
 10
-3.7515645293
 20
230.4461435031
 30
0.0
 10
-2.1228480369
 20
235.1171252376
 30
0.0
 10
0.0961683835
 20
239.658672716
 30
0.0
 10
3.0889277574
 20
243.7644726167
 30
0.0
 10
6.6996064655
 20
247.1765271773
 30
0.0
 10
10.5006714537
 20
249.9447633054
 30
0.0
 10
13.7094842537
 20
251.4105677781
 30
0.0
 10
15.8942284874
 20
251.9962004482
 30
0.0
  0
SPLINE
  5
2EF
100
AcDbEntity
  8
0
100
AcDbSpline
 62
7
  6
CONTINUOUS
 70
0
 71
3
 72
19
 73
15
 74
0
 42
0.0000001
 43
0.0000001
 44
0.0000000001
 40
0.0
 40
0.0
 40
0.0
 40
0.0
 40
0.127090966
 40
0.1936364397
 40
0.2614933869
 40
0.3986384656
 40
0.5339172069
 40
0.662939321
 40
0.7242879099
 40
0.7832357475
 40
0.8398714495
 40
0.8945020381
 40
0.9476471126
 40
1.0
 40
1.0
 40
1.0
 40
1.0
 10
18.7861041607
 20
210.0004846562
 30
0.0
 10
20.615431672
 20
210.8141595646
 30
0.0
 10
23.236259544
 20
212.4601889692
 30
0.0
 10
26.2849990702
 20
215.2384251296
 30
0.0
 10
29.100904819
 20
218.470388417
 30
0.0
 10
31.9230521846
 20
223.08385114
 30
0.0
 10
33.9863727823
 20
229.1146643026
 30
0.0
 10
34.4825492543
 20
234.2809481709
 30
0.0
 10
34.06174616
 20
238.1973993158
 30
0.0
 10
33.3652436923
 20
240.9074085123
 30
0.0
 10
32.2952456178
 20
243.3790532261
 30
0.0
 10
30.8716127692
 20
245.5590132186
 30
0.0
 10
29.123922936
 20
247.3973589048
 30
0.0
 10
27.76172422
 20
248.3703961506
 30
0.0
 10
27.0475668806
 20
248.7829199579
 30
0.0
  0
SPLINE
  5
2F0
100
AcDbEntity
  8
0
100
AcDbSpline
 62
7
  6
CONTINUOUS
 70
0
 71
3
 72
12
 73
8
 74
0
 42
0.0000001
 43
0.0000001
 44
0.0000000001
 40
0.0
 40
0.0
 40
0.0
 40
0.0
 40
0.2628401161
 40
0.5219246848
 40
0.7679923073
 40
0.8856858454
 40
1.0
 40
1.0
 40
1.0
 40
1.0
 10
-21.2880682613
 20
262.6306262669
 30
0.0
 10
-21.1738806985
 20
261.9908268108
 30
0.0
 10
-21.1626804669
 20
260.6723350973
 30
0.0
 10
-21.7677954388
 20
258.8374546184
 30
0.0
 10
-22.7517789608
 20
257.5993148345
 30
0.0
 10
-23.7386522017
 20
256.9351808797
 30
0.0
 10
-24.2773736468
 20
256.7220053546
 30
0.0
 10
-24.5503929596
 20
256.6488210309
 30
0.0
  0
SPLINE
  5
2F1
100
AcDbEntity
  8
0
100
AcDbSpline
 62
7
  6
CONTINUOUS
 70
0
 71
3
 72
14
 73
10
 74
0
 42
0.0000001
 43
0.0000001
 44
0.0000000001
 40
0.0
 40
0.0
 40
0.0
 40
0.0
 40
0.1052572763
 40
0.2157751388
 40
0.3347277135
 40
0.4624587835
 40
0.5968923192
 40
0.7343889013
 40
1.0
 40
1.0
 40
1.0
 40
1.0
 10
14.1437123327
 20
206.1244378945
 30
0.0
 10
14.3554593678
 20
206.0021028562
 30
0.0
 10
14.8403321012
 20
205.831092186
 30
0.0
 10
15.6311527248
 20
205.8392906505
 30
0.0
 10
16.4315625382
 20
206.096523272
 30
0.0
 10
17.1851373415
 20
206.5770298284
 30
0.0
 10
17.8417514908
 20
207.2448531349
 30
0.0
 10
18.516966061
 20
208.3010901976
 30
0.0
 10
18.7740820342
 20
209.2433153126
 30
0.0
 10
18.7861041607
 20
209.8602965274
 30
0.0
  0
SPLINE
  5
2F2
100
AcDbEntity
  8
0
100
AcDbSpline
 62
7
  6
CONTINUOUS
 70
0
 71
3
 72
13
 73
9
 74
0
 42
0.0000001
 43
0.0000001
 44
0.0000000001
 40
0.0
 40
0.0
 40
0.0
 40
0.0
 40
0.1164107274
 40
0.234051279
 40
0.3539614352
 40
0.4769047712
 40
0.7322972383
 40
1.0
 40
1.0
 40
1.0
 40
1.0
 10
-14.2428727445
 20
190.6915142832
 30
0.0
 10
-14.5415580828
 20
190.7055703957
 30
0.0
 10
-15.140910864
 20
190.7925897848
 30
0.0
 10
-16.0039718841
 20
191.0946128062
 30
0.0
 10
-16.8107323676
 20
191.5598328799
 30
0.0
 10
-17.7933641627
 20
192.3888724392
 30
0.0
 10
-18.7682724437
 20
193.7689427523
 30
0.0
 10
-19.1886156106
 20
195.0674386945
 30
0.0
 10
-19.3094304142
 20
195.7443709609
 30
0.0
  0
SPLINE
  5
2F3
100
AcDbEntity
  8
0
100
AcDbSpline
 62
7
  6
CONTINUOUS
 70
0
 71
3
 72
11
 73
7
 74
0
 42
0.0000001
 43
0.0000001
 44
0.0000000001
 40
0.0
 40
0.0
 40
0.0
 40
0.0
 40
0.2437277177
 40
0.4900856645
 40
0.7415573497
 40
1.0
 40
1.0
 40
1.0
 40
1.0
 10
4.7408854427
 20
210.1620769903
 30
0.0
 10
5.3433989252
 20
209.8140554695
 30
0.0
 10
6.6143623912
 20
209.2120283991
 30
0.0
 10
8.6563083428
 20
208.6216803821
 30
0.0
 10
10.8063920245
 20
208.3501189455
 30
0.0
 10
12.2675984172
 20
208.3830232601
 30
0.0
 10
13.0023528141
 20
208.4501183973
 30
0.0
  0
SPLINE
  5
2F4
100
AcDbEntity
  8
0
100
AcDbSpline
 62
7
  6
CONTINUOUS
 70
0
 71
3
 72
11
 73
7
 74
0
 42
0.0000001
 43
0.0000001
 44
0.0000000001
 40
0.0
 40
0.0
 40
0.0
 40
0.0
 40
0.234528167
 40
0.4789299116
 40
0.7346579947
 40
1.0
 40
1.0
 40
1.0
 40
1.0
 10
-13.8346659004
 20
207.8649185872
 30
0.0
 10
-13.461922285
 20
207.7474239764
 30
0.0
 10
-12.7355056663
 20
207.3820686408
 30
0.0
 10
-11.8401796468
 20
206.5242531549
 30
0.0
 10
-11.1790187364
 20
205.4173327503
 30
0.0
 10
-10.9268746897
 20
204.5762650603
 30
0.0
 10
-10.8491860745
 20
204.1409712982
 30
0.0
  0
SPLINE
  5
2F5
100
AcDbEntity
  8
0
100
AcDbSpline
 62
7
  6
CONTINUOUS
 70
0
 71
3
 72
9
 73
5
 74
0
 42
0.0000001
 43
0.0000001
 44
0.0000000001
 40
0.0
 40
0.0
 40
0.0
 40
0.0
 40
0.2366137403
 40
1.0
 40
1.0
 40
1.0
 40
1.0
 10
-8.7202342234
 20
275.5874768527
 30
0.0
 10
-8.6624524864
 20
275.5758016185
 30
0.0
 10
-8.4205949798
 20
275.5148750993
 30
0.0
 10
-8.1908993145
 20
275.4103756996
 30
0.0
 10
-8.026207713
 20
275.3152528892
 30
0.0
  0
SPLINE
  5
2F6
100
AcDbEntity
  8
0
100
AcDbSpline
 62
7
  6
CONTINUOUS
 70
0
 71
3
 72
13
 73
9
 74
0
 42
0.0000001
 43
0.0000001
 44
0.0000000001
 40
0.0
 40
0.0
 40
0.0
 40
0.0
 40
0.0964972761
 40
0.2059979065
 40
0.3271903479
 40
0.4576031096
 40
0.7321189001
 40
1.0
 40
1.0
 40
1.0
 40
1.0
 10
-8.026207713
 20
275.3152528892
 30
0.0
 10
-7.8094591145
 20
275.1900629241
 30
0.0
 10
-7.3803052781
 20
274.863841633
 30
0.0
 10
-6.8054119509
 20
274.2353224058
 30
0.0
 10
-6.2765210114
 20
273.4588348481
 30
0.0
 10
-5.6486222795
 20
272.2441965684
 30
0.0
 10
-5.1020438339
 20
270.5740252024
 30
0.0
 10
-4.9296222456
 20
269.1652404151
 30
0.0
 10
-4.9296222456
 20
268.4703822574
 30
0.0
  0
SPLINE
  5
2F7
100
AcDbEntity
  8
0
100
AcDbSpline
 62
7
  6
CONTINUOUS
 70
0
 71
3
 72
8
 73
4
 74
0
 42
0.0000001
 43
0.0000001
 44
0.0000000001
 40
0.0
 40
0.0
 40
0.0
 40
0.0
 40
1.0
 40
1.0
 40
1.0
 40
1.0
 10
-7.7400321981
 20
268.3153456397
 30
0.0
 10
-7.7024607664
 20
268.309739771
 30
0.0
 10
-7.664192297
 20
268.307492524
 30
0.0
 10
-7.6262400585
 20
268.3091252603
 30
0.0
  0
SPLINE
  5
2F8
100
AcDbEntity
  8
0
100
AcDbSpline
 62
7
  6
CONTINUOUS
 70
0
 71
3
 72
12
 73
8
 74
0
 42
0.0000001
 43
0.0000001
 44
0.0000000001
 40
0.0
 40
0.0
 40
0.0
 40
0.0
 40
0.2679717915
 40
0.5235996096
 40
0.7657264731
 40
0.8834729015
 40
1.0
 40
1.0
 40
1.0
 40
1.0
 10
-9.8853587989
 20
204.095644598
 30
0.0
 10
-9.9782974059
 20
204.6163849378
 30
0.0
 10
-10.3025630864
 20
205.6156451952
 30
0.0
 10
-11.1866918897
 20
206.8709360505
 30
0.0
 10
-12.1995733943
 20
207.5927871831
 30
0.0
 10
-13.0918388208
 20
207.9046287087
 30
0.0
 10
-13.5529433382
 20
207.9716553951
 30
0.0
 10
-13.7827105771
 20
207.9824626772
 30
0.0
  0
SPLINE
  5
2F9
100
AcDbEntity
  8
0
100
AcDbSpline
 62
7
  6
CONTINUOUS
 70
0
 71
3
 72
11
 73
7
 74
0
 42
0.0000001
 43
0.0000001
 44
0.0000000001
 40
0.0
 40
0.0
 40
0.0
 40
0.0
 40
0.242432369
 40
0.4953013569
 40
0.7506590259
 40
1.0
 40
1.0
 40
1.0
 40
1.0
 10
-9.8185802969
 20
223.5322564926
 30
0.0
 10
-9.8185802969
 20
226.1943394288
 30
0.0
 10
-9.1051637703
 20
231.6485615492
 30
0.0
 10
-6.2147436601
 20
239.4338101921
 30
0.0
 10
-1.7056540618
 20
246.4962913819
 30
0.0
 10
2.2513261586
 20
250.456140933
 30
0.0
 10
4.4048722194
 20
252.1468742138
 30
0.0
  0
SPLINE
  5
2FA
100
AcDbEntity
  8
0
100
AcDbSpline
 62
7
  6
CONTINUOUS
 70
0
 71
3
 72
9
 73
5
 74
0
 42
0.0000001
 43
0.0000001
 44
0.0000000001
 40
0.0
 40
0.0
 40
0.0
 40
0.0
 40
0.4913935551
 40
1.0
 40
1.0
 40
1.0
 40
1.0
 10
19.760055927
 20
255.5001123531
 30
0.0
 10
19.3364202891
 20
257.0672674694
 30
0.0
 10
18.6895024204
 20
260.3176106262
 30
0.0
 10
18.4493215266
 20
263.6212424904
 30
0.0
 10
18.422947826
 20
265.3013058309
 30
0.0
  0
SPLINE
  5
2FB
100
AcDbEntity
  8
0
100
AcDbSpline
 62
7
  6
CONTINUOUS
 70
0
 71
3
 72
11
 73
7
 74
0
 42
0.0000001
 43
0.0000001
 44
0.0000000001
 40
0.0
 40
0.0
 40
0.0
 40
0.0
 40
0.2341347689
 40
0.4778816257
 40
0.7330362388
 40
1.0
 40
1.0
 40
1.0
 40
1.0
 10
-4.5454590518
 20
208.020800957
 30
0.0
 10
-5.4041119384
 20
209.0031076842
 30
0.0
 10
-6.9455035107
 20
211.20141783
 30
0.0
 10
-8.6016759501
 20
214.9602797335
 30
0.0
 10
-9.6051742028
 20
219.1292418566
 30
0.0
 10
-9.8185802969
 20
222.044632637
 30
0.0
 10
-9.8185802969
 20
223.5322564926
 30
0.0
  0
SPLINE
  5
2FC
100
AcDbEntity
  8
0
100
AcDbSpline
 62
7
  6
CONTINUOUS
 70
0
 71
3
 72
16
 73
12
 74
0
 42
0.0000001
 43
0.0000001
 44
0.0000000001
 40
0.0
 40
0.0
 40
0.0
 40
0.0
 40
0.2731818852
 40
0.4091139816
 40
0.5405551101
 40
0.6654732784
 40
0.7829513245
 40
0.8391314583
 40
0.8937982346
 40
0.9472930047
 40
1.0
 40
1.0
 40
1.0
 40
1.0
 10
3.3016629175
 20
245.6131249489
 30
0.0
 10
0.7444801222
 20
242.9731825996
 30
0.0
 10
-2.4029490379
 20
238.2795145347
 30
0.0
 10
-4.7962101571
 20
231.3858486244
 30
0.0
 10
-5.6100223117
 20
226.1368251628
 30
0.0
 10
-5.3904212221
 20
221.0775378901
 30
0.0
 10
-4.3257079824
 20
217.1603282014
 30
0.0
 10
-2.9649965173
 20
214.3975665352
 30
0.0
 10
-1.7279897267
 20
212.5561868992
 30
0.0
 10
-0.2755647711
 20
210.9420493384
 30
0.0
 10
0.8297210866
 20
210.0268038644
 30
0.0
 10
1.4082731001
 20
209.6167692096
 30
0.0
  0
SPLINE
  5
2FD
100
AcDbEntity
  8
0
100
AcDbSpline
 62
7
  6
CONTINUOUS
 70
0
 71
3
 72
9
 73
5
 74
0
 42
0.0000001
 43
0.0000001
 44
0.0000000001
 40
0.0
 40
0.0
 40
0.0
 40
0.0
 40
0.4898614451
 40
1.0
 40
1.0
 40
1.0
 40
1.0
 10
-13.3657178522
 20
275.4849246855
 30
0.0
 10
-12.6278749675
 20
275.6826946782
 30
0.0
 10
-11.0660531693
 20
275.9001284284
 30
0.0
 10
-9.49998413
 20
275.7450311812
 30
0.0
 10
-8.7202342234
 20
275.5874768527
 30
0.0
  0
SPLINE
  5
2FE
100
AcDbEntity
  8
0
100
AcDbSpline
 62
7
  6
CONTINUOUS
 70
0
 71
3
 72
12
 73
8
 74
0
 42
0.0000001
 43
0.0000001
 44
0.0000000001
 40
0.0
 40
0.0
 40
0.0
 40
0.0
 40
0.1143141546
 40
0.2320076927
 40
0.4780753152
 40
0.7371598839
 40
1.0
 40
1.0
 40
1.0
 40
1.0
 10
-23.5865656841
 20
256.6034943308
 30
0.0
 10
-23.3135463713
 20
256.6766786544
 30
0.0
 10
-22.7748249262
 20
256.8898541796
 30
0.0
 10
-21.7879516853
 20
257.5539881344
 30
0.0
 10
-20.8039681633
 20
258.7921279182
 30
0.0
 10
-20.1988531913
 20
260.6270083971
 30
0.0
 10
-20.2100534229
 20
261.9455001106
 30
0.0
 10
-20.3242409857
 20
262.5852995668
 30
0.0
  0
SPLINE
  5
2FF
100
AcDbEntity
  8
0
100
AcDbSpline
 62
7
  6
CONTINUOUS
 70
0
 71
3
 72
9
 73
5
 74
0
 42
0.0000001
 43
0.0000001
 44
0.0000000001
 40
0.0
 40
0.0
 40
0.0
 40
0.0
 40
0.4977787941
 40
1.0
 40
1.0
 40
1.0
 40
1.0
 10
-3.1730212025
 20
249.352773241
 30
0.0
 10
-4.4362185007
 20
248.0486668218
 30
0.0
 10
-6.7427534358
 20
245.1964982085
 30
0.0
 10
-8.532205459
 20
241.9956037692
 30
0.0
 10
-9.2860834083
 20
240.3261343642
 30
0.0
  0
SPLINE
  5
300
100
AcDbEntity
  8
0
100
AcDbSpline
 62
7
  6
CONTINUOUS
 70
0
 71
3
 72
9
 73
5
 74
0
 42
0.0000001
 43
0.0000001
 44
0.0000000001
 40
0.0
 40
0.0
 40
0.0
 40
0.0
 40
0.5102285424
 40
1.0
 40
1.0
 40
1.0
 40
1.0
 10
-9.2860834083
 20
240.3261343642
 30
0.0
 10
-7.8856387609
 20
243.4274314588
 30
0.0
 10
-5.727162763
 20
249.7901660861
 30
0.0
 10
-4.9296222456
 20
256.4738921062
 30
0.0
 10
-4.9296222456
 20
259.7402943626
 30
0.0
  0
SPLINE
  5
301
100
AcDbEntity
  8
0
100
AcDbSpline
 62
7
  6
CONTINUOUS
 70
0
 71
3
 72
17
 73
13
 74
0
 42
0.0000001
 43
0.0000001
 44
0.0000000001
 40
0.0
 40
0.0
 40
0.0
 40
0.0
 40
0.0394125775
 40
0.0811217338
 40
0.126880819
 40
0.1777298233
 40
0.2954028867
 40
0.4319333202
 40
0.5800819531
 40
0.7304383759
 40
0.8732244342
 40
1.0
 40
1.0
 40
1.0
 40
1.0
 10
-8.5440360191
 20
272.1907070594
 30
0.0
 10
-8.5944816877
 20
272.1771877173
 30
0.0
 10
-8.6946479317
 20
272.1335296817
 30
0.0
 10
-8.8256789094
 20
272.0253895392
 30
0.0
 10
-8.9369472233
 20
271.8780006487
 30
0.0
 10
-9.0626179844
 20
271.6219085026
 30
0.0
 10
-9.1523154066
 20
271.2225701442
 30
0.0
 10
-9.1600739683
 20
270.6869853466
 30
0.0
 10
-9.0725905821
 20
270.1146906314
 30
0.0
 10
-8.8969734818
 20
269.5544605321
 30
0.0
 10
-8.6485274688
 20
269.0541053613
 30
0.0
 10
-8.4315490447
 20
268.7659555138
 30
0.0
 10
-8.3131913196
 20
268.646739575
 30
0.0
  0
SPLINE
  5
302
100
AcDbEntity
  8
0
100
AcDbSpline
 62
7
  6
CONTINUOUS
 70
0
 71
3
 72
9
 73
5
 74
0
 42
0.0000001
 43
0.0000001
 44
0.0000000001
 40
0.0
 40
0.0
 40
0.0
 40
0.0
 40
0.2668760426
 40
1.0
 40
1.0
 40
1.0
 40
1.0
 10
-8.3131913196
 20
268.646739575
 30
0.0
 10
-8.2902417736
 20
268.6236236215
 30
0.0
 10
-8.2019218889
 20
268.5394322114
 30
0.0
 10
-8.1036928844
 20
268.4649972846
 30
0.0
 10
-8.0262077125
 20
268.4202432884
 30
0.0
  0
ELLIPSE
  5
303
100
AcDbEntity
  8
0
100
AcDbEllipse
 62
7
  6
CONTINUOUS
 10
-27.5428252539
 20
262.4079822005
 30
0.0
 11
-0.0205533054
 21
1.7815272725
 31
0.0
 40
0.8071250907
 41
3.7019953766
 42
4.8317553207
  0
ELLIPSE
  5
304
100
AcDbEntity
  8
0
100
AcDbEllipse
 62
7
  6
CONTINUOUS
 10
-17.1039430671
 20
203.9183272317
 30
0.0
 11
-0.0205533054
 21
1.7815272725
 31
0.0
 40
0.8071250907
 41
3.7019953766
 42
4.8317553207
  0
ELLIPSE
  5
305
100
AcDbEntity
  8
0
100
AcDbEllipse
 62
7
  6
CONTINUOUS
 10
2.3778939144
 20
237.2792862471
 30
0.0
 11
-0.2963955675
 21
25.6910884064
 31
0.0
 40
0.8071250907
 41
-0.3984717301
 42
0.190113161
  0
ELLIPSE
  5
306
100
AcDbEntity
  8
0
100
AcDbEllipse
 62
7
  6
CONTINUOUS
 10
-25.3524638398
 20
261.1428701265
 30
0.0
 11
-0.0205533054
 21
1.7815272725
 31
0.0
 40
0.8071250907
 41
0.0
 42
6.2831853072
  0
ELLIPSE
  5
307
100
AcDbEntity
  8
0
100
AcDbEllipse
 62
7
  6
CONTINUOUS
 10
-14.913581653
 20
202.6532151577
 30
0.0
 11
-0.0205533054
 21
1.7815272725
 31
0.0
 40
0.8071250907
 41
0.0
 42
6.2831853072
  0
ELLIPSE
  5
308
100
AcDbEntity
  8
0
100
AcDbEllipse
 62
7
  6
CONTINUOUS
 10
-49.7577287765
 20
257.6772359928
 30
0.0
 11
-0.4839111306
 21
41.9446341329
 31
0.0
 40
0.8071250907
 41
-1.8864491596
 42
-1.367250466
  0
ELLIPSE
  5
309
100
AcDbEntity
  8
0
100
AcDbEllipse
 62
7
  6
CONTINUOUS
 10
42.8031509737
 20
282.4886068175
 30
0.0
 11
-0.5292613952
 21
45.8755217219
 31
0.0
 40
0.8071250907
 41
-4.3983016596
 42
-4.2354755703
  0
ELLIPSE
  5
30A
100
AcDbEntity
  8
0
100
AcDbEllipse
 62
7
  6
CONTINUOUS
 10
2.3778939144
 20
237.2792862471
 30
0.0
 11
-0.2963955675
 21
25.6910884064
 31
0.0
 40
0.8071250907
 41
1.255143494
 42
2.4718325706
  0
ENDSEC
  0
SECTION
  2
OBJECTS
  0
DICTIONARY
  5
C
100
AcDbDictionary
280
0
281
1
  3
ACAD_GROUP
350
D
  3
ACAD_MLINESTYLE
350
17
  3
ACAD_LAYOUT
350
1A
  3
ACAD_PLOTSETTINGS
350
19
  3
ACAD_PLOTSTYLENAME
350
E
  0
DICTIONARY
  5
D
102
{ACAD_REACTORS
330
C
102
}
100
AcDbDictionary
280
0
281
1
  0
ACDBDICTIONARYWDFLT
  5
E
102
{ACAD_REACTORS
330
C
102
}
100
AcDbDictionary
281
1
  3
Normal
350
F
100
AcDbDictionaryWithDefault
340
F
  0
DICTIONARY
  5
17
102
{ACAD_REACTORS
330
C
102
}
100
AcDbDictionary
280
0
281
1
  3
Standard
350
18
  0
DICTIONARY
  5
19
102
{ACAD_REACTORS
330
C
102
}
100
AcDbDictionary
281
1
  0
DICTIONARY
  5
1A
102
{ACAD_REACTORS
330
C
102
}
100
AcDbDictionary
281
1
  3
Model
350
30B
  3
Layout1
350
30C
  0
ACDBPLACEHOLDER
  5
F
102
{ACAD_REACTORS
330
E
102
}
  0
MLINESTYLE
  5
18
102
{ACAD_REACTORS
330
17
102
}
100
AcDbMlineStyle
  2
STANDARD
 70
0
  3

 62
256
 51
90.0
 52
90.0
 71
2
 49
0.5
 62
256
  6
BYLAYER
 49
-0.5
 62
256
  6
BYLAYER
  0
LAYOUT
  5
30B
102
{ACAD_REACTORS
330
1A
102
}
100
AcDbPlotSettings
  1

  2
none_device
  4
ANSI_C_(22.00_x_17.00_Inches)
  6

 40
0.0
 41
0.0
 42
0.0
 43
0.0
 44
558.8
 45
431.8
 46
0.0
 47
0.0
 48
0.0
 49
0.0
140
0.0
141
0.0
142
1.0
143
1.0
 70
1024
 72
1
 73
0
 74
0
  7

 75
0
147
1.0
148
0.0
149
0.0
100
AcDbLayout
  1
Model
 70
0
 71
0
 10
0.0
 20
0.0
 11
558.8
 21
431.8
 12
0.0
 22
0.0
 32
0.0
 14
0.0
 24
0.0
 34
0.0
 15
0.0
 25
0.0
 35
0.0
146
0.0
 13
0.0
 23
0.0
 33
0.0
 16
1.0
 26
0.0
 36
0.0
 17
0.0
 27
1.0
 37
0.0
 76
0
330
216
345
0
346
0
  0
LAYOUT
  5
30C
102
{ACAD_REACTORS
330
1A
102
}
100
AcDbPlotSettings
  1

  2
none_device
  4
ANSI_C_(22.00_x_17.00_Inches)
  6

 40
0.0
 41
0.0
 42
0.0
 43
0.0
 44
558.8
 45
431.8
 46
0.0
 47
0.0
 48
0.0
 49
0.0
140
0.0
141
0.0
142
1.0
143
1.0
 70
0
 72
1
 73
0
 74
0
  7

 75
0
147
1.0
148
0.0
149
0.0
100
AcDbLayout
  1
Layout1
 70
0
 71
1
 10
0.0
 20
0.0
 11
558.8
 21
431.8
 12
0.0
 22
0.0
 32
0.0
 14
0.0
 24
0.0
 34
0.0
 15
0.0
 25
0.0
 35
0.0
146
0.0
 13
0.0
 23
0.0
 33
0.0
 16
1.0
 26
0.0
 36
0.0
 17
0.0
 27
1.0
 37
0.0
 76
0
330
217
345
0
346
0
  0
ENDSEC
  0
EOF
