999
DXF file: Y:\3D PRATIKA-KAEDRA_OLGA\TRAVAIL_PHASE_5\CAD3D\PKF16F434_3D-Simplified\pkf16f434_2d-isometric.dxf
999
Pro/ENGINEER 2018260 by Parametric Technology Corporation
  0
SECTION
  2
HEADER
  9
$ACADVER
  1
AC1027
  9
$DWGCODEPAGE
  3
ANSI_1252
  9
$EXTMAX
 10
558.8
 20
431.8
 30
0.0
  9
$EXTMIN
 10
0.0
 20
0.0
 30
0.0
  9
$LIMMIN
 10
0.0
 20
0.0
  9
$LIMMAX
 10
558.8
 20
431.8
  9
$VIEWCTR
 10
279.4
 20
215.9
  9
$VIEWSIZE
 40
431.8
  9
$CLAYER
  8
0
  9
$LTSCALE
 40
30.734
  9
$CELTYPE
  6
BYLAYER
  9
$DIMSCALE
 40
1.0
  9
$DIMASZ
 40
0.1875
  9
$DIMEXO
 40
0.0625
  9
$DIMDLI
 40
21.2344
  9
$DIMEXE
 40
0.125
  9
$DIMCEN
 40
5.0292
  9
$DIMLFAC
 40
1.0
  9
$DIMBLK
  1
_CLOSED
  9
$DIMALT
 70
0
  9
$DIMALTF
 40
0.0393700787
  9
$DIMTXT
 40
0.15625
  9
$DIMTOL
 70
0
  9
$DIMLIM
 70
0
  9
$DIMTFAC
 40
1.0
  9
$DIMGAP
 40
0.625
  9
$DIMDSEP
 70
46
  9
$AUNITS
 70
0
  9
$PDMODE
 70
3
  9
$PDSIZE
 40
0.3125
  9
$HANDSEED
  5
313
  9
$TILEMODE
 70
1
  9
$MEASUREMENT
 70
1
  9
$INSUNITS
 70
4
  0
ENDSEC
  0
SECTION
  2
CLASSES
  0
CLASS
  1
ACDBDICTIONARYWDFLT
  2
AcDbDictionaryWithDefault
  3
AutoCAD 2000
 90
0
 91
1
280
0
281
0
  0
CLASS
  1
ACDBPLACEHOLDER
  2
AcDbPlaceHolder
  3
AutoCAD 2000
 90
0
 91
1
280
0
281
0
  0
CLASS
  1
LAYOUT
  2
AcDbLayout
  3
AutoCAD 2000
 90
0
 91
0
280
0
281
0
  0
ENDSEC
  0
SECTION
  2
TABLES
  0
TABLE
  2
VPORT
  5
8
100
AcDbSymbolTable
 70
2
  0
VPORT
  5
1F4
100
AcDbSymbolTableRecord
100
AcDbViewportTableRecord
  2
*ACTIVE
 70
0
 10
0.0
 20
0.0
 11
1.0
 21
1.0
 12
279.4
 22
215.9
 13
0.0
 23
0.0
 14
1.0
 24
1.0
 15
0.0
 25
0.0
 16
0.0
 26
0.0
 36
1.0
 17
0.0
 27
0.0
 37
0.0
 40
431.8
 41
1.2941176471
 42
50.0
 43
0.0
 44
0.0
 50
0.0
 51
0.0
 71
0
 72
100
 73
1
 74
1
 75
0
 76
0
 77
0
 78
0
  0
ENDTAB
  0
TABLE
  2
LTYPE
  5
5
100
AcDbSymbolTable
 70
6
  0
LTYPE
  5
14
100
AcDbSymbolTableRecord
100
AcDbLinetypeTableRecord
  2
BYBLOCK
 70
0
  3

 72
65
 73
0
 40
0.0
  0
LTYPE
  5
15
100
AcDbSymbolTableRecord
100
AcDbLinetypeTableRecord
  2
BYLAYER
 70
0
  3

 72
65
 73
0
 40
0.0
  0
LTYPE
  5
16
100
AcDbSymbolTableRecord
100
AcDbLinetypeTableRecord
  2
CONTINUOUS
 70
64
  3
Solid line
 72
65
 73
0
 40
0.0
  0
LTYPE
  5
1F5
100
AcDbSymbolTableRecord
100
AcDbLinetypeTableRecord
  2
CENTER
 70
64
  3
____ _ ____ _ ____ _ ____ _ ____ _ ____ _ ____
 72
65
 73
4
 40
0.6
 49
0.375
 74
0
 49
-0.075
 74
0
 49
0.075
 74
0
 49
-0.075
 74
0
  0
LTYPE
  5
1F6
100
AcDbSymbolTableRecord
100
AcDbLinetypeTableRecord
  2
HIDDEN
 70
64
  3
- - - - - - - - - - - - - - - - - - - -
 72
65
 73
2
 40
0.2
 49
0.1
 74
0
 49
-0.1
 74
0
  0
LTYPE
  5
1F7
100
AcDbSymbolTableRecord
100
AcDbLinetypeTableRecord
  2
PHANTOM
 70
64
  3
_____ _ _ _____ _ _ _____ _ _ _____
 72
65
 73
6
 40
0.8
 49
0.45
 74
0
 49
-0.05
 74
0
 49
0.1
 74
0
 49
-0.05
 74
0
 49
0.1
 74
0
 49
-0.05
 74
0
  0
LTYPE
  5
1F8
100
AcDbSymbolTableRecord
100
AcDbLinetypeTableRecord
  2
DOT
 70
64
  3
. . . . . . . . . . . . . . . . . . . .
 72
65
 73
2
 40
0.2
 49
0.1
 74
0
 49
-0.1
 74
0
  0
LTYPE
  5
1F9
100
AcDbSymbolTableRecord
100
AcDbLinetypeTableRecord
  2
DASHED
 70
64
  3
- - - - - - - - - - - - - - - - - - - -
 72
65
 73
2
 40
0.2
 49
0.1
 74
0
 49
-0.1
 74
0
  0
ENDTAB
  0
TABLE
  2
LAYER
  5
2
100
AcDbSymbolTable
 70
36
  0
LAYER
  5
10
100
AcDbSymbolTableRecord
100
AcDbLayerTableRecord
  2
0
 70
0
 62
7
  6
CONTINUOUS
370
-3
390
F
  0
LAYER
  5
1FA
100
AcDbSymbolTableRecord
100
AcDbLayerTableRecord
  2
DEFAULT_1
 70
0
 62
7
  6
CENTER
370
-3
390
F
  0
LAYER
  5
1FB
100
AcDbSymbolTableRecord
100
AcDbLayerTableRecord
  2
DEFAULT_2
 70
0
 62
8
  6
HIDDEN
370
-3
390
F
  0
LAYER
  5
1FC
100
AcDbSymbolTableRecord
100
AcDbLayerTableRecord
  2
DEFAULT_3
 70
0
 62
7
  6
PHANTOM
370
-3
390
F
  0
LAYER
  5
1FD
100
AcDbSymbolTableRecord
100
AcDbLayerTableRecord
  2
01_ALL_DTM_PLN
 70
0
 62
7
  6
CONTINUOUS
370
-3
390
F
  0
LAYER
  5
1FE
100
AcDbSymbolTableRecord
100
AcDbLayerTableRecord
  2
01__ASM_ALL_DTM_PLN
 70
0
 62
7
  6
CONTINUOUS
370
-3
390
F
  0
LAYER
  5
1FF
100
AcDbSymbolTableRecord
100
AcDbLayerTableRecord
  2
01__ASM_DEF_DTM_PLN
 70
0
 62
7
  6
CONTINUOUS
370
-3
390
F
  0
LAYER
  5
200
100
AcDbSymbolTableRecord
100
AcDbLayerTableRecord
  2
01___PRT_ALL_DTM_PLN
 70
0
 62
7
  6
CONTINUOUS
370
-3
390
F
  0
LAYER
  5
201
100
AcDbSymbolTableRecord
100
AcDbLayerTableRecord
  2
01___PRT_DEF_DTM_PLN
 70
0
 62
7
  6
CONTINUOUS
370
-3
390
F
  0
LAYER
  5
202
100
AcDbSymbolTableRecord
100
AcDbLayerTableRecord
  2
02_ALL_AXES
 70
0
 62
7
  6
CONTINUOUS
370
-3
390
F
  0
LAYER
  5
203
100
AcDbSymbolTableRecord
100
AcDbLayerTableRecord
  2
02__ASM_ALL_AXES
 70
0
 62
7
  6
CONTINUOUS
370
-3
390
F
  0
LAYER
  5
204
100
AcDbSymbolTableRecord
100
AcDbLayerTableRecord
  2
02___PRT_ALL_AXES
 70
0
 62
7
  6
CONTINUOUS
370
-3
390
F
  0
LAYER
  5
205
100
AcDbSymbolTableRecord
100
AcDbLayerTableRecord
  2
03_ALL_CURVES
 70
0
 62
7
  6
CONTINUOUS
370
-3
390
F
  0
LAYER
  5
206
100
AcDbSymbolTableRecord
100
AcDbLayerTableRecord
  2
03__ASM_ALL_CURVES
 70
0
 62
7
  6
CONTINUOUS
370
-3
390
F
  0
LAYER
  5
207
100
AcDbSymbolTableRecord
100
AcDbLayerTableRecord
  2
03___PRT_ALL_CURVES
 70
0
 62
7
  6
CONTINUOUS
370
-3
390
F
  0
LAYER
  5
208
100
AcDbSymbolTableRecord
100
AcDbLayerTableRecord
  2
04_ALL_DTM_PNT
 70
0
 62
7
  6
CONTINUOUS
370
-3
390
F
  0
LAYER
  5
209
100
AcDbSymbolTableRecord
100
AcDbLayerTableRecord
  2
04__ASM_ALL_DTM_PNT
 70
0
 62
7
  6
CONTINUOUS
370
-3
390
F
  0
LAYER
  5
20A
100
AcDbSymbolTableRecord
100
AcDbLayerTableRecord
  2
04___PRT_ALL_DTM_PNT
 70
0
 62
7
  6
CONTINUOUS
370
-3
390
F
  0
LAYER
  5
20B
100
AcDbSymbolTableRecord
100
AcDbLayerTableRecord
  2
05_ALL_DTM_CSYS
 70
0
 62
7
  6
CONTINUOUS
370
-3
390
F
  0
LAYER
  5
20C
100
AcDbSymbolTableRecord
100
AcDbLayerTableRecord
  2
05__ASM_ALL_DTM_CSYS
 70
0
 62
7
  6
CONTINUOUS
370
-3
390
F
  0
LAYER
  5
20D
100
AcDbSymbolTableRecord
100
AcDbLayerTableRecord
  2
05__ASM_DEF_DTM_CSYS
 70
0
 62
7
  6
CONTINUOUS
370
-3
390
F
  0
LAYER
  5
20E
100
AcDbSymbolTableRecord
100
AcDbLayerTableRecord
  2
05___PRT_ALL_DTM_CSYS
 70
0
 62
7
  6
CONTINUOUS
370
-3
390
F
  0
LAYER
  5
20F
100
AcDbSymbolTableRecord
100
AcDbLayerTableRecord
  2
05___PRT_DEF_DTM_CSYS
 70
0
 62
7
  6
CONTINUOUS
370
-3
390
F
  0
LAYER
  5
210
100
AcDbSymbolTableRecord
100
AcDbLayerTableRecord
  2
06_ALL_SURFS
 70
0
 62
7
  6
CONTINUOUS
370
-3
390
F
  0
LAYER
  5
211
100
AcDbSymbolTableRecord
100
AcDbLayerTableRecord
  2
06__ASM_ALL_SURFS
 70
0
 62
7
  6
CONTINUOUS
370
-3
390
F
  0
LAYER
  5
212
100
AcDbSymbolTableRecord
100
AcDbLayerTableRecord
  2
06___PRT_ALL_SURFS
 70
0
 62
7
  6
CONTINUOUS
370
-3
390
F
  0
LAYER
  5
213
100
AcDbSymbolTableRecord
100
AcDbLayerTableRecord
  2
07__ASM_ALL_SKELETONS
 70
0
 62
7
  6
CONTINUOUS
370
-3
390
F
  0
ENDTAB
  0
TABLE
  2
STYLE
  5
3
100
AcDbSymbolTable
 70
1
  0
STYLE
  5
11
100
AcDbSymbolTableRecord
100
AcDbTextStyleTableRecord
  2
STANDARD
 70
0
 40
0.0
 41
0.8
 50
0.0
 71
0
 42
0.2
  3
txt
  4

  0
STYLE
  5
214
100
AcDbSymbolTableRecord
100
AcDbTextStyleTableRecord
  2
TEXTSTYLE_1
 70
0
 40
0.0
 41
0.8
 50
0.0
 71
0
 42
0.2
  3
gdt
  4

  0
ENDTAB
  0
TABLE
  2
VIEW
  5
6
100
AcDbSymbolTable
 70
0
  0
ENDTAB
  0
TABLE
  2
UCS
  5
7
100
AcDbSymbolTable
 70
0
  0
ENDTAB
  0
TABLE
  2
APPID
  5
9
100
AcDbSymbolTable
 70
1
  0
APPID
  5
215
100
AcDbSymbolTableRecord
100
AcDbRegAppTableRecord
  2
ACAD
 70
0
  0
ENDTAB
  0
TABLE
  2
BLOCK_RECORD
  5
1
100
AcDbSymbolTable
 70
0
  0
BLOCK_RECORD
  5
216
100
AcDbSymbolTableRecord
100
AcDbBlockTableRecord
  2
*Model_Space
  0
BLOCK_RECORD
  5
217
100
AcDbSymbolTableRecord
100
AcDbBlockTableRecord
  2
*Paper_Space
  0
BLOCK_RECORD
  5
218
100
AcDbSymbolTableRecord
100
AcDbBlockTableRecord
  2
_CLOSED
  0
ENDTAB
  0
TABLE
  2
DIMSTYLE
  5
A
100
AcDbSymbolTable
 70
1
100
AcDbDimStyleTable
 71
0
  0
DIMSTYLE
105
219
100
AcDbSymbolTableRecord
100
AcDbDimStyleTableRecord
  2
STANDARD
 70
0
  3

  4

 40
1.0
 41
0.1875
 42
0.0625
 43
0.38
 44
0.125
 45
0.0
 46
0.0
 47
0.01
 48
0.01
140
0.15625
141
0.09
142
0.0
143
25.4
144
1.0
145
0.0
146
1.0
147
0.625
 71
0.0
 72
0.0
 73
1
 74
1
 75
0
 76
0
 77
0
 78
8
 79
2
170
0
171
1
172
0
173
0
174
0
175
0
176
0
177
0
178
0
270
2
179
2
271
2
272
2
273
2
274
2
275
0
280
0
281
0
282
0
283
1
284
8
285
0
286
0
287
3
288
0
340
11
278
46
341
218
342
218
343
218
344
218
  0
ENDTAB
  0
ENDSEC
  0
SECTION
  2
BLOCKS
  0
BLOCK
  5
20
100
AcDbEntity
  8
0
100
AcDbBlockBegin
  2
*Model_Space
 70
0
 10
0.0
 20
0.0
 30
0.0
  3
*Model_Space
  1

  0
ENDBLK
  5
21
100
AcDbEntity
  8
0
100
AcDbBlockEnd
  0
BLOCK
  5
1C
100
AcDbEntity
  8
0
100
AcDbBlockBegin
  2
*Paper_Space
 70
0
 10
0.0
 20
0.0
 30
0.0
  3
*Paper_Space
  1

  0
ENDBLK
  5
1D
100
AcDbEntity
  8
0
100
AcDbBlockEnd
  0
BLOCK
  5
21A
100
AcDbEntity
  8
0
100
AcDbBlockBegin
  2
_CLOSED
 70
64
 10
0.0
 20
0.0
  3
_CLOSED
  1

  0
LINE
  5
21B
100
AcDbEntity
  8
0
  6
BYBLOCK
 62
0
100
AcDbLine
 10
0.0
 20
0.0
 11
-1.0
 21
0.1666666667
  0
LINE
  5
21C
100
AcDbEntity
  8
0
  6
BYBLOCK
 62
0
100
AcDbLine
 10
-1.0
 20
0.1666666667
 11
-1.0
 21
-0.1666666667
  0
LINE
  5
21D
100
AcDbEntity
  8
0
  6
BYBLOCK
 62
0
100
AcDbLine
 10
-1.0
 20
-0.1666666667
 11
0.0
 21
0.0
  0
LINE
  5
21E
100
AcDbEntity
  8
0
  6
BYBLOCK
 62
0
100
AcDbLine
 10
-1.0
 20
0.0
 11
0.0
 21
0.0
  0
ENDBLK
  5
21F
100
AcDbEntity
  8
0
  6
BYBLOCK
 62
0
100
AcDbBlockEnd
  0
ENDSEC
  0
SECTION
  2
ENTITIES
  0
LINE
  5
220
100
AcDbEntity
  8
0
100
AcDbLine
 62
7
  6
CONTINUOUS
 10
36.3082456979
 20
209.5926533641
 11
1.5975007087
 21
200.2882478618
  0
LINE
  5
221
100
AcDbEntity
  8
0
100
AcDbLine
 62
7
  6
CONTINUOUS
 10
39.4766499761
 20
210.7456473879
 11
36.2565202591
 21
209.8824739623
  0
LINE
  5
222
100
AcDbEntity
  8
0
100
AcDbLine
 62
7
  6
CONTINUOUS
 10
0.6336734331
 20
200.333574562
 11
-3.498558114
 21
199.2259072401
  0
LINE
  5
223
100
AcDbEntity
  8
0
100
AcDbLine
 62
7
  6
CONTINUOUS
 10
8.8767345009
 20
216.1253452725
 11
2.1132677399
 21
214.3123388844
  0
LINE
  5
224
100
AcDbEntity
  8
0
100
AcDbLine
 62
7
  6
CONTINUOUS
 10
-6.9159809242
 20
199.1626339311
 11
-4.9347804133
 21
199.0694623808
  0
LINE
  5
225
100
AcDbEntity
  8
0
100
AcDbLine
 62
7
  6
CONTINUOUS
 10
0.6336734331
 20
200.333574562
 11
1.5975007087
 21
200.2882478618
  0
LINE
  5
226
100
AcDbEntity
  8
0
100
AcDbLine
 62
7
  6
CONTINUOUS
 10
9.3213584701
 20
275.5002993348
 11
8.7919168076
 21
274.9389795402
  0
LINE
  5
227
100
AcDbEntity
  8
0
100
AcDbLine
 62
7
  6
CONTINUOUS
 10
10.2022863545
 20
274.7975839373
 11
10.9109148413
 21
275.5488795471
  0
LINE
  5
228
100
AcDbEntity
  8
0
100
AcDbLine
 62
7
  6
CONTINUOUS
 10
-5.5794048095
 20
216.2400632392
 11
-10.9513058209
 21
214.8000957207
  0
LINE
  5
229
100
AcDbEntity
  8
0
100
AcDbLine
 62
7
  6
CONTINUOUS
 10
-11.9825385398
 20
204.2154905601
 11
-10.0013380289
 21
204.1223190099
  0
LINE
  5
22A
100
AcDbEntity
  8
0
100
AcDbLine
 62
7
  6
CONTINUOUS
 10
-0.5772664136
 20
212.473592647
 11
-1.5410936892
 21
212.5189193471
  0
LINE
  5
22B
100
AcDbEntity
  8
0
100
AcDbLine
 62
7
  6
CONTINUOUS
 10
-11.9151330965
 20
214.8454224208
 11
-10.9513058209
 21
214.8000957207
  0
LINE
  5
22C
100
AcDbEntity
  8
0
100
AcDbLine
 62
7
  6
CONTINUOUS
 10
40.3246607631
 20
261.4333842893
 11
46.9787785445
 21
263.217098092
  0
LINE
  5
22D
100
AcDbEntity
  8
0
100
AcDbLine
 62
7
  6
CONTINUOUS
 10
39.1813213017
 20
262.1845530285
 11
45.7275735279
 21
263.939313237
  0
LINE
  5
22E
100
AcDbEntity
  8
0
100
AcDbLine
 62
7
  6
CONTINUOUS
 10
52.0137041616
 20
266.2901529244
 11
56.5591588634
 21
267.5085869785
  0
LINE
  5
22F
100
AcDbEntity
  8
0
100
AcDbLine
 62
7
  6
CONTINUOUS
 10
22.119408423
 20
209.1375785576
 11
24.5460394923
 21
207.7371514623
  0
LINE
  5
230
100
AcDbEntity
  8
0
100
AcDbLine
 62
7
  6
CONTINUOUS
 10
8.6600035675
 20
216.0672486512
 11
11.8679272675
 21
214.2144114987
  0
LINE
  5
231
100
AcDbEntity
  8
0
100
AcDbLine
 62
7
  6
CONTINUOUS
 10
2.1132696229
 20
214.3123616512
 11
0.8626177453
 21
215.0347987247
  0
LINE
  5
232
100
AcDbEntity
  8
0
100
AcDbLine
 62
7
  6
CONTINUOUS
 10
3.4307422809
 20
284.698125437
 11
5.819838929
 21
297.5923743612
  0
LINE
  5
233
100
AcDbEntity
  8
0
100
AcDbLine
 62
7
  6
CONTINUOUS
 10
19.1684047402
 20
212.1221619707
 11
22.9212449128
 21
209.9545911837
  0
LINE
  5
234
100
AcDbEntity
  8
0
100
AcDbLine
 62
7
  6
CONTINUOUS
 10
22.7932270711
 20
214.2585715776
 11
6.4879679553
 21
223.6761864264
  0
LINE
  5
235
100
AcDbEntity
  8
0
100
AcDbLine
 62
7
  6
CONTINUOUS
 10
5.4625142386
 20
226.6906617329
 11
16.2320837166
 21
220.4703584117
  0
LINE
  5
236
100
AcDbEntity
  8
0
100
AcDbLine
 62
7
  6
CONTINUOUS
 10
23.1208836179
 20
218.9382358904
 11
28.5509140712
 21
215.8019511455
  0
LINE
  5
237
100
AcDbEntity
  8
0
100
AcDbLine
 62
7
  6
CONTINUOUS
 10
-24.509197164
 20
274.4030765227
 11
-11.9825385398
 21
204.2154905601
  0
LINE
  5
238
100
AcDbEntity
  8
0
100
AcDbLine
 62
7
  6
CONTINUOUS
 10
-10.0013380289
 20
204.1223190099
 11
-11.9151330965
 21
214.8454224208
  0
LINE
  5
239
100
AcDbEntity
  8
0
100
AcDbLine
 62
7
  6
CONTINUOUS
 10
-20.6142015855
 20
263.5868015614
 11
-22.527996653
 21
274.3099049724
  0
LINE
  5
23A
100
AcDbEntity
  8
0
100
AcDbLine
 62
7
  6
CONTINUOUS
 10
-10.9513058209
 20
214.8000957207
 11
-19.6503743099
 21
263.5414748613
  0
LINE
  5
23B
100
AcDbEntity
  8
0
100
AcDbLine
 62
7
  6
CONTINUOUS
 10
5.6927431472
 20
270.3420633009
 11
5.6927431472
 21
276.3945852337
  0
LINE
  5
23C
100
AcDbEntity
  8
0
100
AcDbLine
 62
7
  6
CONTINUOUS
 10
-14.2784732986
 20
264.9814423798
 11
-19.6503743099
 21
263.5414748613
  0
LINE
  5
23D
100
AcDbEntity
  8
0
100
AcDbLine
 62
7
  6
CONTINUOUS
 10
-15.2423005742
 20
265.0267690799
 11
-20.6142015855
 21
263.5868015614
  0
LINE
  5
23E
100
AcDbEntity
  8
0
100
AcDbLine
 62
7
  6
CONTINUOUS
 10
9.4334125847
 20
274.3217088291
 11
8.7919168076
 21
274.1497523689
  0
LINE
  5
23F
100
AcDbEntity
  8
0
100
AcDbLine
 62
7
  6
CONTINUOUS
 10
8.7919168076
 20
274.4195266476
 11
10.2022863545
 21
274.7975839373
  0
LINE
  5
240
100
AcDbEntity
  8
0
100
AcDbLine
 62
7
  6
CONTINUOUS
 10
10.4876315805
 20
275.8129252364
 11
9.3213584701
 21
275.5002993348
  0
LINE
  5
241
100
AcDbEntity
  8
0
100
AcDbLine
 62
7
  6
CONTINUOUS
 10
8.5413580605
 20
277.1581720792
 11
5.6927431472
 21
276.3945852337
  0
LINE
  5
242
100
AcDbEntity
  8
0
100
AcDbLine
 62
7
  6
CONTINUOUS
 10
-14.1547429982
 20
283.1939191011
 11
-11.9799758759
 21
271.0085743159
  0
LINE
  5
243
100
AcDbEntity
  8
0
100
AcDbLine
 62
7
  6
CONTINUOUS
 10
-1.5410936892
 20
212.5189193471
 11
0.6336734331
 21
200.333574562
  0
LINE
  5
244
100
AcDbEntity
  8
0
100
AcDbLine
 62
7
  6
CONTINUOUS
 10
-0.5772664136
 20
212.473592647
 11
1.5975007087
 21
200.2882478618
  0
LINE
  5
245
100
AcDbEntity
  8
0
100
AcDbLine
 62
7
  6
CONTINUOUS
 10
-11.0161486004
 20
270.9632476157
 11
-13.1909157226
 21
283.1485924009
  0
LINE
  5
246
100
AcDbEntity
  8
0
100
AcDbLine
 62
7
  6
CONTINUOUS
 10
-7.9853438382
 20
278.2422723183
 11
-8.4558516125
 21
280.8785543343
  0
LINE
  5
247
100
AcDbEntity
  8
0
100
AcDbLine
 62
7
  6
CONTINUOUS
 10
8.7919168076
 20
276.9720146977
 11
8.7919168076
 21
271.1728137924
  0
LINE
  5
248
100
AcDbEntity
  8
0
100
AcDbLine
 62
7
  6
CONTINUOUS
 10
9.3213584701
 20
276.582859177
 11
9.3213584701
 21
275.5002993348
  0
LINE
  5
249
100
AcDbEntity
  8
0
100
AcDbLine
 62
7
  6
CONTINUOUS
 10
5.1475534379
 20
284.2796749905
 11
2.0964433029
 21
283.4618081905
  0
LINE
  5
24A
100
AcDbEntity
  8
0
100
AcDbLine
 62
7
  6
CONTINUOUS
 10
3.5123743047
 20
285.1387035259
 11
2.3172381042
 21
284.8183407148
  0
LINE
  5
24B
100
AcDbEntity
  8
0
100
AcDbLine
 62
7
  6
CONTINUOUS
 10
3.6087241078
 20
285.6587152826
 11
-3.7855752445
 21
283.6766328006
  0
LINE
  5
24C
100
AcDbEntity
  8
0
100
AcDbLine
 62
7
  6
CONTINUOUS
 10
3.9973157185
 20
287.7559920763
 11
-13.1909157226
 21
283.1485924009
  0
LINE
  5
24D
100
AcDbEntity
  8
0
100
AcDbLine
 62
7
  6
CONTINUOUS
 10
-18.2869745453
 20
282.0862517792
 11
-14.1547429982
 21
283.1939191011
  0
LINE
  5
24E
100
AcDbEntity
  8
0
100
AcDbLine
 62
7
  6
CONTINUOUS
 10
4.1782314615
 20
288.7324166283
 11
-20.2681750563
 21
282.1794233294
  0
LINE
  5
24F
100
AcDbEntity
  8
0
100
AcDbLine
 62
7
  6
CONTINUOUS
 10
-20.6142015855
 20
263.5868015614
 11
-19.6503743099
 21
263.5414748613
  0
LINE
  5
250
100
AcDbEntity
  8
0
100
AcDbLine
 62
7
  6
CONTINUOUS
 10
-14.2784732986
 20
264.9814423798
 11
-15.2423005742
 21
265.0267690799
  0
LINE
  5
251
100
AcDbEntity
  8
0
100
AcDbLine
 62
7
  6
CONTINUOUS
 10
-11.9799758759
 20
271.0085743159
 11
-11.0161486004
 21
270.9632476157
  0
LINE
  5
252
100
AcDbEntity
  8
0
100
AcDbLine
 62
7
  6
CONTINUOUS
 10
0.1724411139
 20
252.709152071
 11
-9.675491256
 21
258.3971349149
  0
LINE
  5
253
100
AcDbEntity
  8
0
100
AcDbLine
 62
7
  6
CONTINUOUS
 10
24.5460394923
 20
207.7371514623
 11
24.5460394923
 21
209.5498824452
  0
LINE
  5
254
100
AcDbEntity
  8
0
100
AcDbLine
 62
7
  6
CONTINUOUS
 10
22.119408423
 20
209.1375785576
 11
22.1498526094
 21
210.4001330521
  0
LINE
  5
255
100
AcDbEntity
  8
0
100
AcDbLine
 62
7
  6
CONTINUOUS
 10
14.2011352628
 20
298.2570529896
 11
13.0184309163
 21
297.940022605
  0
LINE
  5
256
100
AcDbEntity
  8
0
100
AcDbLine
 62
7
  6
CONTINUOUS
 10
31.6704379953
 20
302.9397953656
 11
32.8531423426
 21
303.2568257502
  0
LINE
  5
257
100
AcDbEntity
  8
0
100
AcDbLine
 62
7
  6
CONTINUOUS
 10
27.9181402373
 20
304.9351372327
 11
8.0834288111
 21
299.6183340875
  0
LINE
  5
258
100
AcDbEntity
  8
0
100
AcDbLine
 62
7
  6
CONTINUOUS
 10
27.0771516769
 20
304.965979345
 11
7.2445987762
 21
299.6460372577
  0
LINE
  5
259
100
AcDbEntity
  8
0
100
AcDbLine
 62
7
  6
CONTINUOUS
 10
-22.527996653
 20
274.3099049724
 11
-24.509197164
 21
274.4030765227
  0
LINE
  5
25A
100
AcDbEntity
  8
0
100
AcDbLine
 62
7
  6
CONTINUOUS
 10
-20.2681750563
 20
282.1794233294
 11
-18.2869745453
 21
282.0862517792
  0
LINE
  5
25B
100
AcDbEntity
  8
0
100
AcDbLine
 62
7
  6
CONTINUOUS
 10
-14.1547429982
 20
283.1939191011
 11
-13.1909157226
 21
283.1485924009
  0
LINE
  5
25C
100
AcDbEntity
  8
0
100
AcDbLine
 62
7
  6
CONTINUOUS
 10
11.9151901929
 20
266.2412189028
 11
14.2901232133
 21
264.8695016968
  0
LINE
  5
25D
100
AcDbEntity
  8
0
100
AcDbLine
 62
7
  6
CONTINUOUS
 10
-7.9853438382
 20
278.2422723183
 11
5.6927431472
 21
270.3420633009
  0
LINE
  5
25E
100
AcDbEntity
  8
0
100
AcDbLine
 62
7
  6
CONTINUOUS
 10
25.4439216316
 20
261.3424173228
 11
36.2380885046
 21
255.1079070031
  0
LINE
  5
25F
100
AcDbEntity
  8
0
100
AcDbLine
 62
7
  6
CONTINUOUS
 10
35.6441663684
 20
213.3135279065
 11
36.3082456979
 21
209.5926533641
  0
LINE
  5
260
100
AcDbEntity
  8
0
100
AcDbLine
 62
7
  6
CONTINUOUS
 10
32.6921471633
 20
303.0330109556
 11
32.6704870837
 21
303.0311850512
  0
LINE
  5
261
100
AcDbEntity
  8
0
100
AcDbLine
 62
7
  6
CONTINUOUS
 10
32.7200193922
 20
265.9164625191
 11
30.5400045471
 21
266.9641204459
  0
LINE
  5
262
100
AcDbEntity
  8
0
100
AcDbLine
 62
7
  6
CONTINUOUS
 10
46.9787718899
 20
263.2170176356
 11
45.7275735279
 21
263.939313237
  0
LINE
  5
263
100
AcDbEntity
  8
0
100
AcDbLine
 62
7
  6
CONTINUOUS
 10
30.5400045471
 20
266.9641204459
 11
23.1793340081
 21
271.215507049
  0
LINE
  5
264
100
AcDbEntity
  8
0
100
AcDbLine
 62
7
  6
CONTINUOUS
 10
32.7200274017
 20
265.9164763879
 11
39.0437141455
 21
262.2640323664
  0
LINE
  5
265
100
AcDbEntity
  8
0
100
AcDbLine
 62
7
  6
CONTINUOUS
 10
43.2966419876
 20
220.8810499462
 11
43.7176720838
 21
218.5219941947
  0
LINE
  5
266
100
AcDbEntity
  8
0
100
AcDbLine
 62
7
  6
CONTINUOUS
 10
35.5333423724
 20
269.7343152196
 11
36.6163755929
 21
263.6660180345
  0
LINE
  5
267
100
AcDbEntity
  8
0
100
AcDbLine
 62
7
  6
CONTINUOUS
 10
49.4674701977
 20
274.1669147545
 11
49.4674701977
 21
275.8577093578
  0
LINE
  5
268
100
AcDbEntity
  8
0
100
AcDbLine
 62
7
  6
CONTINUOUS
 10
52.0137039924
 20
270.665419142
 11
52.0137041616
 21
266.2901529244
  0
LINE
  5
269
100
AcDbEntity
  8
0
100
AcDbLine
 62
7
  6
CONTINUOUS
 10
8.0834288111
 20
299.6183340875
 11
13.0184309163
 21
297.940022605
  0
LINE
  5
26A
100
AcDbEntity
  8
0
100
AcDbLine
 62
7
  6
CONTINUOUS
 10
50.606165313
 20
267.1031212229
 11
52.0137041616
 21
266.2901529244
  0
LINE
  5
26B
100
AcDbEntity
  8
0
100
AcDbLine
 62
7
  6
CONTINUOUS
 10
46.6379136996
 20
275.8012167085
 11
49.4674701977
 21
274.1669147545
  0
LINE
  5
26C
100
AcDbEntity
  8
0
100
AcDbLine
 62
7
  6
CONTINUOUS
 10
56.5591619185
 20
271.5651722857
 11
56.5591588634
 21
267.5085869785
  0
LINE
  5
26D
100
AcDbEntity
  8
0
100
AcDbLine
 62
7
  6
CONTINUOUS
 10
32.8531423426
 20
303.2568257502
 11
27.9181402373
 21
304.9351372327
  0
LINE
  5
26E
100
AcDbEntity
  8
0
100
AcDbLine
 62
7
  6
CONTINUOUS
 10
13.0184309163
 20
297.940022605
 11
13.3385841564
 21
297.7551080393
  0
LINE
  5
26F
100
AcDbEntity
  8
0
100
AcDbLine
 62
7
  6
CONTINUOUS
 10
50.606165313
 20
267.1031212229
 11
50.1140384466
 21
270.386374138
  0
LINE
  5
270
100
AcDbEntity
  8
0
100
AcDbLine
 62
7
  6
CONTINUOUS
 10
69.3021816239
 20
281.174512503
 11
69.3021816239
 21
279.4837178997
  0
LINE
  5
271
100
AcDbEntity
  8
0
100
AcDbLine
 62
7
  6
CONTINUOUS
 10
32.8531423426
 20
303.2568257502
 11
33.1732955828
 21
303.0719111845
  0
ARC
  5
272
100
AcDbEntity
  8
0
100
AcDbCircle
 62
7
  6
CONTINUOUS
 10
-56.0339609356
 20
149.8551653654
 40
164.3386535899
100
AcDbArc
 50
50.0606951985
 51
52.0646948984
  0
ARC
  5
273
100
AcDbEntity
  8
0
100
AcDbCircle
 62
7
  6
CONTINUOUS
 10
-34.9838911012
 20
156.6761736258
 40
162.4051149059
100
AcDbArc
 50
50.0487644995
 51
52.0766255975
  0
ARC
  5
274
100
AcDbEntity
  8
0
100
AcDbCircle
 62
7
  6
CONTINUOUS
 10
38.9045725425
 20
227.2607482102
 40
76.1425569096
100
AcDbArc
 50
94.324878486
 51
94.4433274394
  0
ARC
  5
275
100
AcDbEntity
  8
0
100
AcDbCircle
 62
7
  6
CONTINUOUS
 10
38.8744134329
 20
229.560972106
 40
73.7316818535
100
AcDbArc
 50
94.434679314
 51
94.8097931629
  0
ARC
  5
276
100
AcDbEntity
  8
0
100
AcDbCircle
 62
7
  6
CONTINUOUS
 10
38.7859104175
 20
230.5946883702
 40
72.6941844577
100
AcDbArc
 50
94.8257306719
 51
95.6172356613
  0
ARC
  5
277
100
AcDbEntity
  8
0
100
AcDbCircle
 62
7
  6
CONTINUOUS
 10
38.5061576334
 20
233.3741397421
 40
69.9006974594
100
AcDbArc
 50
95.6120304221
 51
98.0530473612
  0
ARC
  5
278
100
AcDbEntity
  8
0
100
AcDbCircle
 62
7
  6
CONTINUOUS
 10
3.7160018698
 20
269.4297503982
 40
43.3922323375
100
AcDbArc
 50
8.443520643
 51
9.5289240295
  0
ARC
  5
279
100
AcDbEntity
  8
0
100
AcDbCircle
 62
7
  6
CONTINUOUS
 10
-18.9735547879
 20
270.2374728711
 40
27.7812216354
100
AcDbArc
 50
359.9934149834
 51
1.929404606
  0
ARC
  5
27A
100
AcDbEntity
  8
0
100
AcDbCircle
 62
7
  6
CONTINUOUS
 10
46.6430007115
 20
283.0308997326
 40
26.4420114307
100
AcDbArc
 50
0.0069442021
 51
17.2272370349
  0
ARC
  5
27B
100
AcDbEntity
  8
0
100
AcDbCircle
 62
7
  6
CONTINUOUS
 10
31.5270123621
 20
283.0309013726
 40
26.4420006081
100
AcDbArc
 50
162.7727594249
 51
179.9930593488
  0
ARC
  5
27C
100
AcDbEntity
  8
0
100
AcDbCircle
 62
7
  6
CONTINUOUS
 10
0.2587335453
 20
252.1628291353
 40
22.3980821591
100
AcDbArc
 50
166.4480378485
 51
171.933314376
  0
ARC
  5
27D
100
AcDbEntity
  8
0
100
AcDbCircle
 62
7
  6
CONTINUOUS
 10
24.5262584133
 20
279.5220941757
 40
21.3917472364
100
AcDbArc
 50
118.8598333081
 51
121.5330430731
  0
ARC
  5
27E
100
AcDbEntity
  8
0
100
AcDbCircle
 62
7
  6
CONTINUOUS
 10
23.9613969815
 20
302.0665463317
 40
20.2838480642
100
AcDbArc
 50
238.3317354002
 51
240.007150792
  0
ARC
  5
27F
100
AcDbEntity
  8
0
100
AcDbCircle
 62
7
  6
CONTINUOUS
 10
11.4630553084
 20
256.3138797621
 40
18.8830938564
100
AcDbArc
 50
89.3798555185
 51
92.8840687715
  0
ARC
  5
280
100
AcDbEntity
  8
0
100
AcDbCircle
 62
7
  6
CONTINUOUS
 10
23.1335179845
 20
281.8149872667
 40
18.7090400328
100
AcDbArc
 50
121.5700194938
 51
123.9349683022
  0
ARC
  5
281
100
AcDbEntity
  8
0
100
AcDbCircle
 62
7
  6
CONTINUOUS
 10
31.5085473441
 20
248.2188845472
 40
15.9309291606
100
AcDbArc
 50
56.5434868975
 51
59.9909021624
  0
ARC
  5
282
100
AcDbEntity
  8
0
100
AcDbCircle
 62
7
  6
CONTINUOUS
 10
2.3410327311
 20
228.1920056351
 40
4.5700314644
100
AcDbArc
 50
320.9474660063
 51
333.2881390216
  0
ARC
  5
283
100
AcDbEntity
  8
0
100
AcDbCircle
 62
7
  6
CONTINUOUS
 10
26.4839341167
 20
213.9400529676
 40
3.7044260826
100
AcDbArc
 50
175.0674317931
 51
179.9716334662
  0
ARC
  5
284
100
AcDbEntity
  8
0
100
AcDbCircle
 62
7
  6
CONTINUOUS
 10
24.8602070256
 20
215.4944552624
 40
3.7044260826
100
AcDbArc
 50
355.0674317931
 51
359.9716334662
  0
ARC
  5
285
100
AcDbEntity
  8
0
100
AcDbCircle
 62
7
  6
CONTINUOUS
 10
-5.6225529872
 20
212.7663424016
 40
3.6451874789
100
AcDbArc
 50
72.5024646013
 51
74.6831107241
  0
ARC
  5
286
100
AcDbEntity
  8
0
100
AcDbCircle
 62
7
  6
CONTINUOUS
 10
-5.6136564573
 20
212.7988440427
 40
3.6114902255
100
AcDbArc
 50
74.6830309816
 51
79.062253808
  0
ARC
  5
287
100
AcDbEntity
  8
0
100
AcDbCircle
 62
7
  6
CONTINUOUS
 10
25.0913764052
 20
215.4935537101
 40
3.4732563741
100
AcDbArc
 50
359.984617725
 51
5.0941164699
  0
ARC
  5
288
100
AcDbEntity
  8
0
100
AcDbCircle
 62
7
  6
CONTINUOUS
 10
2.9729223917
 20
276.7803358316
 40
0.5474994856
100
AcDbArc
 50
272.4289136332
 51
284.9307052386
  0
ARC
  5
289
100
AcDbEntity
  8
0
100
AcDbCircle
 62
7
  6
CONTINUOUS
 10
2.2191934482
 20
279.587247429
 40
0.5461351506
100
AcDbArc
 50
92.4138854996
 51
104.9470092382
  0
SPLINE
  5
28A
100
AcDbEntity
  8
0
100
AcDbSpline
 62
7
  6
CONTINUOUS
 70
0
 71
3
 72
20
 73
16
 74
0
 42
0.0000001
 43
0.0000001
 44
0.0000000001
 40
0.0
 40
0.0
 40
0.0
 40
0.0
 40
0.0527860015
 40
0.1117095947
 40
0.1763666303
 40
0.2459442301
 40
0.3948280941
 40
0.5471737835
 40
0.6908580996
 40
0.7562119328
 40
0.815900553
 40
0.8694870362
 40
0.9171655787
 40
0.9599859103
 40
1.0
 40
1.0
 40
1.0
 40
1.0
 10
2.5961576804
 20
276.3444462636
 30
0.0
 10
2.5299903009
 20
276.3826633132
 30
0.0
 10
2.3984942504
 20
276.4786061303
 30
0.0
 10
2.218228599
 20
276.6604748408
 30
0.0
 10
2.0483781113
 20
276.8834664712
 30
0.0
 10
1.8371729626
 20
277.2354285645
 30
0.0
 10
1.6302590935
 20
277.7342839808
 30
0.0
 10
1.4854836342
 20
278.3645308937
 30
0.0
 10
1.4575677878
 20
278.8906443348
 30
0.0
 10
1.5009910294
 20
279.2780307074
 30
0.0
 10
1.5624020755
 20
279.5300829008
 30
0.0
 10
1.6522308826
 20
279.7462986038
 30
0.0
 10
1.7690399099
 20
279.9211384668
 30
0.0
 10
1.9110729505
 20
280.04920275
 30
0.0
 10
2.0223861114
 20
280.099896737
 30
0.0
 10
2.0783312199
 20
280.1149039795
 30
0.0
  0
SPLINE
  5
28B
100
AcDbEntity
  8
0
100
AcDbSpline
 62
7
  6
CONTINUOUS
 70
0
 71
3
 72
10
 73
6
 74
0
 42
0.0000001
 43
0.0000001
 44
0.0000000001
 40
0.0
 40
0.0
 40
0.0
 40
0.0
 40
0.2307026303
 40
0.4700767339
 40
1.0
 40
1.0
 40
1.0
 40
1.0
 10
3.1139841409
 20
276.2513270014
 30
0.0
 10
3.074004392
 20
276.2406024572
 30
0.0
 10
2.9896501942
 20
276.2283130229
 30
0.0
 10
2.8096468973
 20
276.2428135793
 30
0.0
 10
2.6784911644
 20
276.2968919723
 30
0.0
 10
2.5961576804
 20
276.3444462636
 30
0.0
  0
SPLINE
  5
28C
100
AcDbEntity
  8
0
100
AcDbSpline
 62
7
  6
CONTINUOUS
 70
0
 71
3
 72
9
 73
5
 74
0
 42
0.0000001
 43
0.0000001
 44
0.0000000001
 40
0.0
 40
0.0
 40
0.0
 40
0.0
 40
0.2461632592
 40
1.0
 40
1.0
 40
1.0
 40
1.0
 10
2.1961914439
 20
280.1328979678
 30
0.0
 10
2.2055413131
 20
280.1332985897
 30
0.0
 10
2.2435605071
 20
280.1339838967
 30
0.0
 10
2.2816288116
 20
280.1309149316
 30
0.0
 10
2.3099769025
 20
280.1267063448
 30
0.0
  0
SPLINE
  5
28D
100
AcDbEntity
  8
0
100
AcDbSpline
 62
7
  6
CONTINUOUS
 70
0
 71
3
 72
9
 73
5
 74
0
 42
0.0000001
 43
0.0000001
 44
0.0000000001
 40
0.0
 40
0.0
 40
0.0
 40
0.0
 40
0.2353495061
 40
1.0
 40
1.0
 40
1.0
 40
1.0
 10
2.3099769025
 20
280.1267063448
 30
0.0
 10
2.3337116828
 20
280.1231826548
 30
0.0
 10
2.4337244534
 20
280.1025562203
 30
0.0
 10
2.5286495399
 20
280.0607761655
 30
0.0
 10
2.5961576804
 20
280.0217847173
 30
0.0
  0
SPLINE
  5
28E
100
AcDbEntity
  8
0
100
AcDbSpline
 62
7
  6
CONTINUOUS
 70
0
 71
3
 72
18
 73
14
 74
0
 42
0.0000001
 43
0.0000001
 44
0.0000000001
 40
0.0
 40
0.0
 40
0.0
 40
0.0
 40
0.1266265411
 40
0.2692571754
 40
0.4194785342
 40
0.5675453569
 40
0.7040780342
 40
0.7657218874
 40
0.8220833496
 40
0.8729999887
 40
0.9188267659
 40
0.9605789904
 40
1.0
 40
1.0
 40
1.0
 40
1.0
 10
2.8831467002
 20
279.7953068245
 30
0.0
 10
3.0012328852
 20
279.6762760544
 30
0.0
 10
3.2179087254
 20
279.3887698452
 30
0.0
 10
3.4661322416
 20
278.8894399574
 30
0.0
 10
3.6418347192
 20
278.3301272745
 30
0.0
 10
3.7296855355
 20
277.758972311
 30
0.0
 10
3.7237436775
 20
277.2974596684
 30
0.0
 10
3.6647846151
 20
276.9649109991
 30
0.0
 10
3.5981906745
 20
276.750635136
 30
0.0
 10
3.5089783297
 20
276.5675364686
 30
0.0
 10
3.3983837572
 20
276.4195538572
 30
0.0
 10
3.2679988411
 20
276.3105957752
 30
0.0
 10
3.1681533172
 20
276.2662757429
 30
0.0
 10
3.1178398014
 20
276.2523766868
 30
0.0
  0
SPLINE
  5
28F
100
AcDbEntity
  8
0
100
AcDbSpline
 62
7
  6
CONTINUOUS
 70
0
 71
3
 72
11
 73
7
 74
0
 42
0.0000001
 43
0.0000001
 44
0.0000000001
 40
0.0
 40
0.0
 40
0.0
 40
0.0
 40
0.2634102209
 40
0.5159328187
 40
0.7602044916
 40
1.0
 40
1.0
 40
1.0
 40
1.0
 10
26.2350861106
 20
219.4024404388
 30
0.0
 10
25.360638218
 20
219.1680398869
 30
0.0
 10
23.6054370544
 20
218.8491693527
 30
0.0
 10
20.976939639
 20
218.8620794268
 30
0.0
 10
18.4811905257
 20
219.3796415334
 30
0.0
 10
16.9457567754
 20
220.0581617051
 30
0.0
 10
16.2320982703
 20
220.4703835255
 30
0.0
  0
SPLINE
  5
290
100
AcDbEntity
  8
0
100
AcDbSpline
 62
7
  6
CONTINUOUS
 70
0
 71
3
 72
11
 73
7
 74
0
 42
0.0000001
 43
0.0000001
 44
0.0000000001
 40
0.0
 40
0.0
 40
0.0
 40
0.0
 40
0.2717775313
 40
0.5268694486
 40
0.7676333348
 40
1.0
 40
1.0
 40
1.0
 40
1.0
 10
21.2997167134
 20
246.3490269759
 30
0.0
 10
21.2997167134
 20
245.9407643665
 30
0.0
 10
21.3790907622
 20
245.1459329915
 30
0.0
 10
21.759272733
 20
244.0449314979
 30
0.0
 10
22.38224302
 20
243.1288485028
 30
0.0
 10
22.9460521578
 20
242.6753957923
 30
0.0
 10
23.2483042184
 20
242.5007920627
 30
0.0
  0
SPLINE
  5
291
100
AcDbEntity
  8
0
100
AcDbSpline
 62
7
  6
CONTINUOUS
 70
0
 71
3
 72
11
 73
7
 74
0
 42
0.0000001
 43
0.0000001
 44
0.0000000001
 40
0.0
 40
0.0
 40
0.0
 40
0.0
 40
0.2717775313
 40
0.5268694486
 40
0.7676333348
 40
1.0
 40
1.0
 40
1.0
 40
1.0
 10
30.1840145398
 20
238.8476646236
 30
0.0
 10
30.1840145398
 20
238.4394020143
 30
0.0
 10
30.2633885885
 20
237.6445706392
 30
0.0
 10
30.6435705593
 20
236.5435691456
 30
0.0
 10
31.2665408464
 20
235.6274861506
 30
0.0
 10
31.8303499842
 20
235.17403344
 30
0.0
 10
32.1326020447
 20
234.9994297104
 30
0.0
  0
SPLINE
  5
292
100
AcDbEntity
  8
0
100
AcDbSpline
 62
7
  6
CONTINUOUS
 70
0
 71
3
 72
11
 73
7
 74
0
 42
0.0000001
 43
0.0000001
 44
0.0000000001
 40
0.0
 40
0.0
 40
0.0
 40
0.0
 40
0.2717775313
 40
0.5268694486
 40
0.7676333348
 40
1.0
 40
1.0
 40
1.0
 40
1.0
 10
12.4154188871
 20
234.0846951394
 30
0.0
 10
12.4154188871
 20
233.67643253
 30
0.0
 10
12.4947929359
 20
232.881601155
 30
0.0
 10
12.8749749066
 20
231.7805996614
 30
0.0
 10
13.4979451937
 20
230.8645166664
 30
0.0
 10
14.0617543315
 20
230.4110639558
 30
0.0
 10
14.3640063921
 20
230.2364602262
 30
0.0
  0
SPLINE
  5
293
100
AcDbEntity
  8
0
100
AcDbSpline
 62
7
  6
CONTINUOUS
 70
0
 71
3
 72
10
 73
6
 74
0
 42
0.0000001
 43
0.0000001
 44
0.0000000001
 40
0.0
 40
0.0
 40
0.0
 40
0.0
 40
0.2403281524
 40
0.485096085
 40
1.0
 40
1.0
 40
1.0
 40
1.0
 10
27.1346595159
 20
232.0637059848
 30
0.0
 10
26.9901256768
 20
232.1471592197
 30
0.0
 10
26.679074021
 20
232.2845080985
 30
0.0
 10
25.9954475636
 20
232.4268503392
 30
0.0
 10
25.4544382687
 20
232.3725473065
 30
0.0
 10
25.1090550317
 20
232.2799654363
 30
0.0
  0
SPLINE
  5
294
100
AcDbEntity
  8
0
100
AcDbSpline
 62
7
  6
CONTINUOUS
 70
0
 71
3
 72
9
 73
5
 74
0
 42
0.0000001
 43
0.0000001
 44
0.0000000001
 40
0.0
 40
0.0
 40
0.0
 40
0.0
 40
0.2483301759
 40
1.0
 40
1.0
 40
1.0
 40
1.0
 10
16.1111751968
 20
239.7612772012
 30
0.0
 10
16.062861716
 20
239.7891898293
 30
0.0
 10
15.8632199365
 20
239.8926341668
 30
0.0
 10
15.6444663741
 20
239.9584353554
 30
0.0
 10
15.4777957929
 20
239.985736701
 30
0.0
  0
SPLINE
  5
295
100
AcDbEntity
  8
0
100
AcDbSpline
 62
7
  6
CONTINUOUS
 70
0
 71
3
 72
15
 73
11
 74
0
 42
0.0000001
 43
0.0000001
 44
0.0000000001
 40
0.0
 40
0.0
 40
0.0
 40
0.0
 40
0.0524622067
 40
0.1056451731
 40
0.2162149228
 40
0.3353287396
 40
0.4632716105
 40
0.5978589133
 40
0.7353247898
 40
1.0
 40
1.0
 40
1.0
 40
1.0
 10
20.3375701764
 20
240.5788357044
 30
0.0
 10
20.1556238819
 20
240.683941693
 30
0.0
 10
19.7687405103
 20
240.8621841208
 30
0.0
 10
18.9260872319
 20
241.0784120043
 30
0.0
 10
17.7706199907
 20
241.0624023787
 30
0.0
 10
16.3931896912
 20
240.6080161013
 30
0.0
 10
15.0988603481
 20
239.7677007099
 30
0.0
 10
13.977124866
 20
238.6043234039
 30
0.0
 10
12.8351953462
 20
236.7733964015
 30
0.0
 10
12.4154188871
 20
235.1447797752
 30
0.0
 10
12.4154188871
 20
234.0846951394
 30
0.0
  0
SPLINE
  5
296
100
AcDbEntity
  8
0
100
AcDbSpline
 62
7
  6
CONTINUOUS
 70
0
 71
3
 72
9
 73
5
 74
0
 42
0.0000001
 43
0.0000001
 44
0.0000000001
 40
0.0
 40
0.0
 40
0.0
 40
0.0
 40
0.2483301759
 40
1.0
 40
1.0
 40
1.0
 40
1.0
 10
33.8797708495
 20
244.5242466854
 30
0.0
 10
33.8314573687
 20
244.5521593135
 30
0.0
 10
33.6318155891
 20
244.655603651
 30
0.0
 10
33.4130620267
 20
244.7214048396
 30
0.0
 10
33.2463914456
 20
244.7487061852
 30
0.0
  0
SPLINE
  5
297
100
AcDbEntity
  8
0
100
AcDbSpline
 62
7
  6
CONTINUOUS
 70
0
 71
3
 72
15
 73
11
 74
0
 42
0.0000001
 43
0.0000001
 44
0.0000000001
 40
0.0
 40
0.0
 40
0.0
 40
0.0
 40
0.0524622067
 40
0.1056451731
 40
0.2162149228
 40
0.3353287396
 40
0.4632716105
 40
0.5978589133
 40
0.7353247898
 40
1.0
 40
1.0
 40
1.0
 40
1.0
 10
38.1061658291
 20
245.3418051886
 30
0.0
 10
37.9242195346
 20
245.4469111772
 30
0.0
 10
37.537336163
 20
245.625153605
 30
0.0
 10
36.6946828846
 20
245.8413814886
 30
0.0
 10
35.5392156434
 20
245.8253718629
 30
0.0
 10
34.1617853439
 20
245.3709855855
 30
0.0
 10
32.8674560008
 20
244.5306701941
 30
0.0
 10
31.7457205186
 20
243.3672928881
 30
0.0
 10
30.6037909989
 20
241.5363658857
 30
0.0
 10
30.1840145398
 20
239.9077492594
 30
0.0
 10
30.1840145398
 20
238.8476646236
 30
0.0
  0
SPLINE
  5
298
100
AcDbEntity
  8
0
100
AcDbSpline
 62
7
  6
CONTINUOUS
 70
0
 71
3
 72
9
 73
5
 74
0
 42
0.0000001
 43
0.0000001
 44
0.0000000001
 40
0.0
 40
0.0
 40
0.0
 40
0.0
 40
0.2483301759
 40
1.0
 40
1.0
 40
1.0
 40
1.0
 10
24.9954730232
 20
252.0256090377
 30
0.0
 10
24.9471595424
 20
252.0535216658
 30
0.0
 10
24.7475177628
 20
252.1569660033
 30
0.0
 10
24.5287642004
 20
252.2227671919
 30
0.0
 10
24.3620936193
 20
252.2500685375
 30
0.0
  0
SPLINE
  5
299
100
AcDbEntity
  8
0
100
AcDbSpline
 62
7
  6
CONTINUOUS
 70
0
 71
3
 72
15
 73
11
 74
0
 42
0.0000001
 43
0.0000001
 44
0.0000000001
 40
0.0
 40
0.0
 40
0.0
 40
0.0
 40
0.0524622067
 40
0.1056451731
 40
0.2162149228
 40
0.3353287396
 40
0.4632716105
 40
0.5978589133
 40
0.7353247898
 40
1.0
 40
1.0
 40
1.0
 40
1.0
 10
29.2218680028
 20
252.8431675409
 30
0.0
 10
29.0399217082
 20
252.9482735295
 30
0.0
 10
28.6530383366
 20
253.1265159573
 30
0.0
 10
27.8103850582
 20
253.3427438408
 30
0.0
 10
26.6549178171
 20
253.3267342152
 30
0.0
 10
25.2774875176
 20
252.8723479378
 30
0.0
 10
23.9831581745
 20
252.0320325464
 30
0.0
 10
22.8614226923
 20
250.8686552404
 30
0.0
 10
21.7194931726
 20
249.037728238
 30
0.0
 10
21.2997167134
 20
247.4091116116
 30
0.0
 10
21.2997167134
 20
246.3490269759
 30
0.0
  0
SPLINE
  5
29A
100
AcDbEntity
  8
0
100
AcDbSpline
 62
7
  6
CONTINUOUS
 70
0
 71
3
 72
9
 73
5
 74
0
 42
0.0000001
 43
0.0000001
 44
0.0000000001
 40
0.0
 40
0.0
 40
0.0
 40
0.0
 40
0.2533757694
 40
1.0
 40
1.0
 40
1.0
 40
1.0
 10
21.3439572023
 20
246.9941968462
 30
0.0
 10
21.3794849914
 20
246.9514703482
 30
0.0
 10
21.5267036075
 20
246.7887997176
 30
0.0
 10
21.7027630335
 20
246.6521361755
 30
0.0
 10
21.8445438037
 20
246.57022376
 30
0.0
  0
SPLINE
  5
29B
100
AcDbEntity
  8
0
100
AcDbSpline
 62
7
  6
CONTINUOUS
 70
0
 71
3
 72
9
 73
5
 74
0
 42
0.0000001
 43
0.0000001
 44
0.0000000001
 40
0.0
 40
0.0
 40
0.0
 40
0.0
 40
0.2533757694
 40
1.0
 40
1.0
 40
1.0
 40
1.0
 10
30.2282550287
 20
239.4928344939
 30
0.0
 10
30.2637828177
 20
239.4501079959
 30
0.0
 10
30.4110014339
 20
239.2874373653
 30
0.0
 10
30.5870608599
 20
239.1507738232
 30
0.0
 10
30.7288416301
 20
239.0688614078
 30
0.0
  0
SPLINE
  5
29C
100
AcDbEntity
  8
0
100
AcDbSpline
 62
7
  6
CONTINUOUS
 70
0
 71
3
 72
9
 73
5
 74
0
 42
0.0000001
 43
0.0000001
 44
0.0000000001
 40
0.0
 40
0.0
 40
0.0
 40
0.0
 40
0.2533757694
 40
1.0
 40
1.0
 40
1.0
 40
1.0
 10
12.459659376
 20
234.7298650097
 30
0.0
 10
12.4951871651
 20
234.6871385117
 30
0.0
 10
12.6424057812
 20
234.5244678811
 30
0.0
 10
12.8184652072
 20
234.387804339
 30
0.0
 10
12.9602459774
 20
234.3058919235
 30
0.0
  0
SPLINE
  5
29D
100
AcDbEntity
  8
0
100
AcDbSpline
 62
7
  6
CONTINUOUS
 70
0
 71
3
 72
11
 73
7
 74
0
 42
0.0000001
 43
0.0000001
 44
0.0000000001
 40
0.0
 40
0.0
 40
0.0
 40
0.0
 40
0.2717668072
 40
0.5268680782
 40
0.7676307415
 40
1.0
 40
1.0
 40
1.0
 40
1.0
 10
21.7619474786
 20
227.6594497272
 30
0.0
 10
21.7619474781
 20
227.3825809851
 30
0.0
 10
21.8157861195
 20
226.8435405083
 30
0.0
 10
22.0735817777
 20
226.0968342896
 30
0.0
 10
22.4961026692
 20
225.4755747966
 30
0.0
 10
22.8784390337
 20
225.1679873105
 30
0.0
 10
23.0834505475
 20
225.0496145189
 30
0.0
  0
SPLINE
  5
29E
100
AcDbEntity
  8
0
100
AcDbSpline
 62
7
  6
CONTINUOUS
 70
0
 71
3
 72
12
 73
8
 74
0
 42
0.0000001
 43
0.0000001
 44
0.0000000001
 40
0.0
 40
0.0
 40
0.0
 40
0.0
 40
0.2349899833
 40
0.4894752595
 40
0.6202667695
 40
0.7503904793
 40
1.0
 40
1.0
 40
1.0
 40
1.0
 10
25.1090550317
 20
232.2799654363
 30
0.0
 10
24.6499156971
 20
232.1568906203
 30
0.0
 10
23.7448568616
 20
231.6945029245
 30
0.0
 10
22.8576661013
 20
230.7800899283
 30
0.0
 10
22.3092254086
 20
229.8892393015
 30
0.0
 10
21.902555452
 20
228.9375709683
 30
0.0
 10
21.7619474794
 20
228.1643714563
 30
0.0
 10
21.7619474786
 20
227.6594497272
 30
0.0
  0
SPLINE
  5
29F
100
AcDbEntity
  8
0
100
AcDbSpline
 62
7
  6
CONTINUOUS
 70
0
 71
3
 72
20
 73
16
 74
0
 42
0.0000001
 43
0.0000001
 44
0.0000000001
 40
0.0
 40
0.0
 40
0.0
 40
0.0
 40
0.0524886651
 40
0.1058788637
 40
0.1609446763
 40
0.218240177
 40
0.340076156
 40
0.4047856255
 40
0.4714397363
 40
0.6080572842
 40
0.7449175192
 40
0.8118576135
 40
0.8769396523
 40
0.9397340236
 40
1.0
 40
1.0
 40
1.0
 40
1.0
 10
36.2380739509
 20
255.1078818893
 30
0.0
 10
36.9219176835
 20
254.7128816106
 30
0.0
 10
38.2227205839
 20
253.7706256078
 30
0.0
 10
39.867388343
 20
251.9728730748
 30
0.0
 10
41.1754103896
 20
249.8321046263
 30
0.0
 10
42.4550499094
 20
246.5327176668
 30
0.0
 10
42.9031604811
 20
242.8241045318
 30
0.0
 10
42.586727877
 20
239.0210757298
 30
0.0
 10
41.7355458555
 20
235.0691100981
 30
0.0
 10
39.7364229523
 20
230.3025956655
 30
0.0
 10
36.6881925089
 20
226.1226249614
 30
0.0
 10
33.7417999642
 20
223.3371628686
 30
0.0
 10
31.3644745171
 20
221.6072608177
 30
0.0
 10
28.8621348849
 20
220.2650455269
 30
0.0
 10
27.1109073061
 20
219.6372091121
 30
0.0
 10
26.2350861106
 20
219.4024404388
 30
0.0
  0
SPLINE
  5
2A0
100
AcDbEntity
  8
0
100
AcDbSpline
 62
7
  6
CONTINUOUS
 70
0
 71
3
 72
11
 73
7
 74
0
 42
0.0000001
 43
0.0000001
 44
0.0000000001
 40
0.0
 40
0.0
 40
0.0
 40
0.0
 40
0.2717775313
 40
0.5268694486
 40
0.7676333348
 40
1.0
 40
1.0
 40
1.0
 40
1.0
 10
31.1704555077
 20
248.9949326278
 30
0.0
 10
31.1704555077
 20
249.4031952371
 30
0.0
 10
31.091081459
 20
250.1980266121
 30
0.0
 10
30.7108994882
 20
251.2990281057
 30
0.0
 10
30.0879292011
 20
252.2151111008
 30
0.0
 10
29.5241200633
 20
252.6685638113
 30
0.0
 10
29.2218680028
 20
252.8431675409
 30
0.0
  0
SPLINE
  5
2A1
100
AcDbEntity
  8
0
100
AcDbSpline
 62
7
  6
CONTINUOUS
 70
0
 71
3
 72
11
 73
7
 74
0
 42
0.0000001
 43
0.0000001
 44
0.0000000001
 40
0.0
 40
0.0
 40
0.0
 40
0.0
 40
0.2717775313
 40
0.5268694486
 40
0.7676333348
 40
1.0
 40
1.0
 40
1.0
 40
1.0
 10
22.2861576814
 20
236.7306007913
 30
0.0
 10
22.2861576814
 20
237.1388634006
 30
0.0
 10
22.2067836326
 20
237.9336947756
 30
0.0
 10
21.8266016619
 20
239.0346962692
 30
0.0
 10
21.2036313748
 20
239.9507792643
 30
0.0
 10
20.639822237
 20
240.4042319748
 30
0.0
 10
20.3375701764
 20
240.5788357044
 30
0.0
  0
SPLINE
  5
2A2
100
AcDbEntity
  8
0
100
AcDbSpline
 62
7
  6
CONTINUOUS
 70
0
 71
3
 72
14
 73
10
 74
0
 42
0.0000001
 43
0.0000001
 44
0.0000000001
 40
0.0
 40
0.0
 40
0.0
 40
0.0
 40
0.1052607121
 40
0.2158763284
 40
0.3350400042
 40
0.4630364262
 40
0.5976785521
 40
0.735210095
 40
1.0
 40
1.0
 40
1.0
 40
1.0
 10
12.9602459774
 20
234.3058919235
 30
0.0
 10
13.1527187706
 20
234.1946927011
 30
0.0
 10
13.5941580798
 20
234.0399462756
 30
0.0
 10
14.3137852921
 20
234.0510683745
 30
0.0
 10
15.0409180698
 20
234.290431252
 30
0.0
 10
15.7234713076
 20
234.7337584276
 30
0.0
 10
16.3152305635
 20
235.347378623
 30
0.0
 10
16.9175543633
 20
236.313175615
 30
0.0
 10
17.1390164618
 20
237.1722407667
 30
0.0
 10
17.1390164618
 20
237.7314149752
 30
0.0
  0
SPLINE
  5
2A3
100
AcDbEntity
  8
0
100
AcDbSpline
 62
7
  6
CONTINUOUS
 70
0
 71
3
 72
11
 73
7
 74
0
 42
0.0000001
 43
0.0000001
 44
0.0000000001
 40
0.0
 40
0.0
 40
0.0
 40
0.0
 40
0.2634102209
 40
0.5159328187
 40
0.7602044916
 40
1.0
 40
1.0
 40
1.0
 40
1.0
 10
26.2350861106
 20
256.175824976
 30
0.0
 10
27.1095340032
 20
256.410225528
 30
0.0
 10
28.8647351668
 20
256.7290960622
 30
0.0
 10
31.4932325822
 20
256.716185988
 30
0.0
 10
33.9889816955
 20
256.1986238814
 30
0.0
 10
35.5244154458
 20
255.5201037098
 30
0.0
 10
36.2380739509
 20
255.1078818893
 30
0.0
  0
SPLINE
  5
2A4
100
AcDbEntity
  8
0
100
AcDbSpline
 62
7
  6
CONTINUOUS
 70
0
 71
3
 72
15
 73
11
 74
0
 42
0.0000001
 43
0.0000001
 44
0.0000000001
 40
0.0
 40
0.0
 40
0.0
 40
0.0
 40
0.1383951981
 40
0.2695587326
 40
0.3940347268
 40
0.5135537928
 40
0.6308546392
 40
0.7491689886
 40
0.8715002297
 40
1.0
 40
1.0
 40
1.0
 40
1.0
 10
21.2350859385
 20
226.5660081535
 30
0.0
 10
21.235085938
 20
226.2114461342
 30
0.0
 10
21.2944955268
 20
225.5187917752
 30
0.0
 10
21.5758383072
 20
224.5421132459
 30
0.0
 10
22.0392722222
 20
223.6903543681
 30
0.0
 10
22.6696404195
 20
222.999343213
 30
0.0
 10
23.4426151537
 20
222.5000651493
 30
0.0
 10
24.3248505291
 20
222.2148819469
 30
0.0
 10
25.2773023161
 20
222.1537607559
 30
0.0
 10
25.9171017377
 20
222.2590737472
 30
0.0
 10
26.2350861106
 20
222.3443112018
 30
0.0
  0
SPLINE
  5
2A5
100
AcDbEntity
  8
0
100
AcDbSpline
 62
7
  6
CONTINUOUS
 70
0
 71
3
 72
15
 73
11
 74
0
 42
0.0000001
 43
0.0000001
 44
0.0000000001
 40
0.0
 40
0.0
 40
0.0
 40
0.0
 40
0.0524622067
 40
0.1056451731
 40
0.2162149228
 40
0.3353287396
 40
0.4632716105
 40
0.5978589133
 40
0.7353247898
 40
1.0
 40
1.0
 40
1.0
 40
1.0
 10
14.3640063921
 20
230.2364602262
 30
0.0
 10
14.5459526866
 20
230.1313542377
 30
0.0
 10
14.9328360582
 20
229.9531118099
 30
0.0
 10
15.7754893366
 20
229.7368839263
 30
0.0
 10
16.9309565777
 20
229.752893552
 30
0.0
 10
18.3083868772
 20
230.2072798293
 30
0.0
 10
19.6027162203
 20
231.0475952207
 30
0.0
 10
20.7244517025
 20
232.2109725267
 30
0.0
 10
21.8663812223
 20
234.0418995292
 30
0.0
 10
22.2861576814
 20
235.6705161555
 30
0.0
 10
22.2861576814
 20
236.7306007913
 30
0.0
  0
SPLINE
  5
2A6
100
AcDbEntity
  8
0
100
AcDbSpline
 62
7
  6
CONTINUOUS
 70
0
 71
3
 72
14
 73
10
 74
0
 42
0.0000001
 43
0.0000001
 44
0.0000000001
 40
0.0
 40
0.0
 40
0.0
 40
0.0
 40
0.2346073929
 40
0.3603379301
 40
0.4894684284
 40
0.6200482101
 40
0.7499714674
 40
0.8772023527
 40
1.0
 40
1.0
 40
1.0
 40
1.0
 10
26.2350861106
 20
222.3443112018
 30
0.0
 10
26.9209448036
 20
222.5281593848
 30
0.0
 10
27.9205392446
 20
223.0390847795
 30
0.0
 10
29.0410224668
 20
224.0123393599
 30
0.0
 10
29.797201395
 20
224.9075105098
 30
0.0
 10
30.4175137395
 20
225.9153162263
 30
0.0
 10
30.879998181
 20
226.9987896489
 30
0.0
 10
31.1668893078
 20
228.1169292282
 30
0.0
 10
31.2350862822
 20
228.8748988434
 30
0.0
 10
31.2350862826
 20
229.2465630725
 30
0.0
  0
SPLINE
  5
2A7
100
AcDbEntity
  8
0
100
AcDbSpline
 62
7
  6
CONTINUOUS
 70
0
 71
3
 72
14
 73
10
 74
0
 42
0.0000001
 43
0.0000001
 44
0.0000000001
 40
0.0
 40
0.0
 40
0.0
 40
0.0
 40
0.2557912116
 40
0.3891490899
 40
0.5219109416
 40
0.6511936057
 40
0.7746421239
 40
0.890894578
 40
1.0
 40
1.0
 40
1.0
 40
1.0
 10
28.3553778106
 20
250.6208692248
 30
0.0
 10
28.3553778106
 20
249.738402251
 30
0.0
 10
28.0639997705
 20
248.3844184796
 30
0.0
 10
27.2439710536
 20
246.7761030208
 30
0.0
 10
26.4186807694
 20
245.6799558719
 30
0.0
 10
25.4355091133
 20
244.7733249383
 30
0.0
 10
24.3430733468
 20
244.1023089942
 30
0.0
 10
23.1969551654
 20
243.7039154283
 30
0.0
 10
22.4116173185
 20
243.6357571503
 30
0.0
 10
22.0358188848
 20
243.6571752545
 30
0.0
  0
SPLINE
  5
2A8
100
AcDbEntity
  8
0
100
AcDbSpline
 62
7
  6
CONTINUOUS
 70
0
 71
3
 72
11
 73
7
 74
0
 42
0.0000001
 43
0.0000001
 44
0.0000000001
 40
0.0
 40
0.0
 40
0.0
 40
0.0
 40
0.2717570839
 40
0.5268813873
 40
0.7676358954
 40
1.0
 40
1.0
 40
1.0
 40
1.0
 10
26.0233142881
 20
249.9957468117
 30
0.0
 10
26.0233142881
 20
250.2110807282
 30
0.0
 10
25.9814224468
 20
250.6303404858
 30
0.0
 10
25.7809418662
 20
251.2111216261
 30
0.0
 10
25.4522844689
 20
251.6943253769
 30
0.0
 10
25.1548985801
 20
251.9335025239
 30
0.0
 10
24.9954730232
 20
252.0256090377
 30
0.0
  0
SPLINE
  5
2A9
100
AcDbEntity
  8
0
100
AcDbSpline
 62
7
  6
CONTINUOUS
 70
0
 71
3
 72
9
 73
5
 74
0
 42
0.0000001
 43
0.0000001
 44
0.0000000001
 40
0.0
 40
0.0
 40
0.0
 40
0.0
 40
0.481087829
 40
1.0
 40
1.0
 40
1.0
 40
1.0
 10
18.7408967483
 20
241.0346010359
 30
0.0
 10
18.9854998088
 20
240.6571821889
 30
0.0
 10
19.3602900292
 20
239.7818142326
 30
0.0
 10
19.4710799843
 20
238.8416485674
 30
0.0
 10
19.4710799843
 20
238.3565373883
 30
0.0
  0
SPLINE
  5
2AA
100
AcDbEntity
  8
0
100
AcDbSpline
 62
7
  6
CONTINUOUS
 70
0
 71
3
 72
14
 73
10
 74
0
 42
0.0000001
 43
0.0000001
 44
0.0000000001
 40
0.0
 40
0.0
 40
0.0
 40
0.0
 40
0.1052607121
 40
0.2158763284
 40
0.3350400042
 40
0.4630364262
 40
0.5976785521
 40
0.735210095
 40
1.0
 40
1.0
 40
1.0
 40
1.0
 10
30.7288416301
 20
239.0688614078
 30
0.0
 10
30.9213144232
 20
238.9576621853
 30
0.0
 10
31.3627537325
 20
238.8029157598
 30
0.0
 10
32.0823809448
 20
238.8140378587
 30
0.0
 10
32.8095137225
 20
239.0534007362
 30
0.0
 10
33.4920669603
 20
239.4967279118
 30
0.0
 10
34.0838262162
 20
240.1103481073
 30
0.0
 10
34.686150016
 20
241.0761450992
 30
0.0
 10
34.9076121145
 20
241.9352102509
 30
0.0
 10
34.9076121145
 20
242.4943844594
 30
0.0
  0
SPLINE
  5
2AB
100
AcDbEntity
  8
0
100
AcDbSpline
 62
7
  6
CONTINUOUS
 70
0
 71
3
 72
15
 73
11
 74
0
 42
0.0000001
 43
0.0000001
 44
0.0000000001
 40
0.0
 40
0.0
 40
0.0
 40
0.0
 40
0.1383951981
 40
0.2695587326
 40
0.3940347268
 40
0.5135537928
 40
0.6308546392
 40
0.7491689886
 40
0.8715002297
 40
1.0
 40
1.0
 40
1.0
 40
1.0
 10
31.2350862826
 20
229.2465630725
 30
0.0
 10
31.235086283
 20
229.6011250918
 30
0.0
 10
31.1756766945
 20
230.2937794508
 30
0.0
 10
30.8943339139
 20
231.2704579801
 30
0.0
 10
30.430899999
 20
232.122216858
 30
0.0
 10
29.8005318017
 20
232.8132280131
 30
0.0
 10
29.0275570675
 20
233.3125060768
 30
0.0
 10
28.1453216921
 20
233.5976892792
 30
0.0
 10
27.192869905
 20
233.6588104702
 30
0.0
 10
26.5530704835
 20
233.5534974789
 30
0.0
 10
26.2350861106
 20
233.4682600243
 30
0.0
  0
SPLINE
  5
2AC
100
AcDbEntity
  8
0
100
AcDbSpline
 62
7
  6
CONTINUOUS
 70
0
 71
3
 72
14
 73
10
 74
0
 42
0.0000001
 43
0.0000001
 44
0.0000000001
 40
0.0
 40
0.0
 40
0.0
 40
0.0
 40
0.2557912116
 40
0.3891490899
 40
0.5219109416
 40
0.6511936057
 40
0.7746421239
 40
0.890894578
 40
1.0
 40
1.0
 40
1.0
 40
1.0
 10
37.2396756369
 20
243.1195068725
 30
0.0
 10
37.2396756369
 20
242.2370398988
 30
0.0
 10
36.9482975968
 20
240.8830561274
 30
0.0
 10
36.1282688799
 20
239.2747406685
 30
0.0
 10
35.3029785957
 20
238.1785935196
 30
0.0
 10
34.3198069397
 20
237.271962586
 30
0.0
 10
33.2273711732
 20
236.6009466419
 30
0.0
 10
32.0812529917
 20
236.202553076
 30
0.0
 10
31.2959151448
 20
236.134394798
 30
0.0
 10
30.9201167111
 20
236.1558129022
 30
0.0
  0
SPLINE
  5
2AD
100
AcDbEntity
  8
0
100
AcDbSpline
 62
7
  6
CONTINUOUS
 70
0
 71
3
 72
11
 73
7
 74
0
 42
0.0000001
 43
0.0000001
 44
0.0000000001
 40
0.0
 40
0.0
 40
0.0
 40
0.0
 40
0.2717570839
 40
0.5268813873
 40
0.7676358954
 40
1.0
 40
1.0
 40
1.0
 40
1.0
 10
34.9076121145
 20
242.4943844594
 30
0.0
 10
34.9076121145
 20
242.7097183759
 30
0.0
 10
34.8657202731
 20
243.1289781335
 30
0.0
 10
34.6652396926
 20
243.7097592738
 30
0.0
 10
34.3365822952
 20
244.1929630247
 30
0.0
 10
34.0391964064
 20
244.4321401717
 30
0.0
 10
33.8797708495
 20
244.5242466854
 30
0.0
  0
SPLINE
  5
2AE
100
AcDbEntity
  8
0
100
AcDbSpline
 62
7
  6
CONTINUOUS
 70
0
 71
3
 72
15
 73
11
 74
0
 42
0.0000001
 43
0.0000001
 44
0.0000000001
 40
0.0
 40
0.0
 40
0.0
 40
0.0
 40
0.0524622067
 40
0.1056451731
 40
0.2162149228
 40
0.3353287396
 40
0.4632716105
 40
0.5978589133
 40
0.7353247898
 40
1.0
 40
1.0
 40
1.0
 40
1.0
 10
32.1326020447
 20
234.9994297104
 30
0.0
 10
32.3145483393
 20
234.8943237219
 30
0.0
 10
32.7014317108
 20
234.7160812941
 30
0.0
 10
33.5440849893
 20
234.4998534105
 30
0.0
 10
34.6995522304
 20
234.5158630362
 30
0.0
 10
36.0769825299
 20
234.9702493135
 30
0.0
 10
37.371311873
 20
235.8105647049
 30
0.0
 10
38.4930473552
 20
236.9739420109
 30
0.0
 10
39.6349768749
 20
238.8048690134
 30
0.0
 10
40.0547533341
 20
240.4334856397
 30
0.0
 10
40.0547533341
 20
241.4935702755
 30
0.0
  0
SPLINE
  5
2AF
100
AcDbEntity
  8
0
100
AcDbSpline
 62
7
  6
CONTINUOUS
 70
0
 71
3
 72
14
 73
10
 74
0
 42
0.0000001
 43
0.0000001
 44
0.0000000001
 40
0.0
 40
0.0
 40
0.0
 40
0.0
 40
0.2346073929
 40
0.3603379301
 40
0.4894684284
 40
0.6200482101
 40
0.7499714674
 40
0.8772023527
 40
1.0
 40
1.0
 40
1.0
 40
1.0
 10
26.2350861106
 20
233.4682600243
 30
0.0
 10
25.5492274175
 20
233.2844118413
 30
0.0
 10
24.5496329766
 20
232.7734864466
 30
0.0
 10
23.4291497544
 20
231.8002318662
 30
0.0
 10
22.6729708261
 20
230.9050607162
 30
0.0
 10
22.0526584817
 20
229.8972549998
 30
0.0
 10
21.5901740402
 20
228.8137815772
 30
0.0
 10
21.3032829133
 20
227.6956419978
 30
0.0
 10
21.2350859392
 20
226.9376723827
 30
0.0
 10
21.2350859385
 20
226.5660081535
 30
0.0
  0
SPLINE
  5
2B0
100
AcDbEntity
  8
0
100
AcDbSpline
 62
7
  6
CONTINUOUS
 70
0
 71
3
 72
14
 73
10
 74
0
 42
0.0000001
 43
0.0000001
 44
0.0000000001
 40
0.0
 40
0.0
 40
0.0
 40
0.0
 40
0.2557912116
 40
0.3891490899
 40
0.5219109416
 40
0.6511936057
 40
0.7746421239
 40
0.890894578
 40
1.0
 40
1.0
 40
1.0
 40
1.0
 10
19.4710799843
 20
238.3565373883
 30
0.0
 10
19.4710799843
 20
237.4740704145
 30
0.0
 10
19.1797019441
 20
236.1200866432
 30
0.0
 10
18.3596732272
 20
234.5117711843
 30
0.0
 10
17.5343829431
 20
233.4156240354
 30
0.0
 10
16.551211287
 20
232.5089931018
 30
0.0
 10
15.4587755205
 20
231.8379771577
 30
0.0
 10
14.312657339
 20
231.4395835918
 30
0.0
 10
13.5273194921
 20
231.3714253138
 30
0.0
 10
13.1515210584
 20
231.392843418
 30
0.0
  0
SPLINE
  5
2B1
100
AcDbEntity
  8
0
100
AcDbSpline
 62
7
  6
CONTINUOUS
 70
0
 71
3
 72
11
 73
7
 74
0
 42
0.0000001
 43
0.0000001
 44
0.0000000001
 40
0.0
 40
0.0
 40
0.0
 40
0.0
 40
0.2717570839
 40
0.5268813873
 40
0.7676358954
 40
1.0
 40
1.0
 40
1.0
 40
1.0
 10
17.1390164618
 20
237.7314149752
 30
0.0
 10
17.1390164618
 20
237.9467488917
 30
0.0
 10
17.0971246205
 20
238.3660086493
 30
0.0
 10
16.8966440399
 20
238.9467897896
 30
0.0
 10
16.5679866425
 20
239.4299935404
 30
0.0
 10
16.2706007538
 20
239.6691706875
 30
0.0
 10
16.1111751968
 20
239.7612772012
 30
0.0
  0
SPLINE
  5
2B2
100
AcDbEntity
  8
0
100
AcDbSpline
 62
7
  6
CONTINUOUS
 70
0
 71
3
 72
9
 73
5
 74
0
 42
0.0000001
 43
0.0000001
 44
0.0000000001
 40
0.0
 40
0.0
 40
0.0
 40
0.0
 40
0.481087829
 40
1.0
 40
1.0
 40
1.0
 40
1.0
 10
36.509492401
 20
245.7975705201
 30
0.0
 10
36.7540954615
 20
245.4201516731
 30
0.0
 10
37.1288856818
 20
244.5447837168
 30
0.0
 10
37.2396756369
 20
243.6046180516
 30
0.0
 10
37.2396756369
 20
243.1195068725
 30
0.0
  0
SPLINE
  5
2B3
100
AcDbEntity
  8
0
100
AcDbSpline
 62
7
  6
CONTINUOUS
 70
0
 71
3
 72
12
 73
8
 74
0
 42
0.0000001
 43
0.0000001
 44
0.0000000001
 40
0.0
 40
0.0
 40
0.0
 40
0.0
 40
0.2349899833
 40
0.4894752595
 40
0.6202667695
 40
0.7503904793
 40
1.0
 40
1.0
 40
1.0
 40
1.0
 10
25.1090550275
 20
224.8333550663
 30
0.0
 10
25.5681943631
 20
224.9564298816
 30
0.0
 10
26.4732532005
 20
225.418817578
 30
0.0
 10
27.3604439625
 20
226.3332305755
 30
0.0
 10
27.908884656
 20
227.2240812042
 30
0.0
 10
28.3155546126
 20
228.1757495392
 30
0.0
 10
28.4561625853
 20
228.9489490528
 30
0.0
 10
28.4561625849
 20
229.4538707826
 30
0.0
  0
SPLINE
  5
2B4
100
AcDbEntity
  8
0
100
AcDbSpline
 62
7
  6
CONTINUOUS
 70
0
 71
3
 72
11
 73
7
 74
0
 42
0.0000001
 43
0.0000001
 44
0.0000000001
 40
0.0
 40
0.0
 40
0.0
 40
0.0
 40
0.2717668071
 40
0.5268680781
 40
0.7676307415
 40
1.0
 40
1.0
 40
1.0
 40
1.0
 10
28.4561625849
 20
229.4538707826
 30
0.0
 10
28.4561625847
 20
229.7307395242
 30
0.0
 10
28.402323943
 20
230.2697799997
 30
0.0
 10
28.1445282844
 20
231.0164862166
 30
0.0
 10
27.7220073933
 20
231.6377457081
 30
0.0
 10
27.3396710294
 20
231.9453331934
 30
0.0
 10
27.1346595159
 20
232.0637059848
 30
0.0
  0
SPLINE
  5
2B5
100
AcDbEntity
  8
0
100
AcDbSpline
 62
7
  6
CONTINUOUS
 70
0
 71
3
 72
14
 73
10
 74
0
 42
0.0000001
 43
0.0000001
 44
0.0000000001
 40
0.0
 40
0.0
 40
0.0
 40
0.0
 40
0.1052607121
 40
0.2158763284
 40
0.3350400042
 40
0.4630364262
 40
0.5976785521
 40
0.735210095
 40
1.0
 40
1.0
 40
1.0
 40
1.0
 10
21.8445438037
 20
246.57022376
 30
0.0
 10
22.0370165969
 20
246.4590245376
 30
0.0
 10
22.4784559061
 20
246.304278112
 30
0.0
 10
23.1980831184
 20
246.315400211
 30
0.0
 10
23.9252158961
 20
246.5547630885
 30
0.0
 10
24.6077691339
 20
246.9980902641
 30
0.0
 10
25.1995283898
 20
247.6117104595
 30
0.0
 10
25.8018521897
 20
248.5775074515
 30
0.0
 10
26.0233142881
 20
249.4365726031
 30
0.0
 10
26.0233142881
 20
249.9957468117
 30
0.0
  0
SPLINE
  5
2B6
100
AcDbEntity
  8
0
100
AcDbSpline
 62
7
  6
CONTINUOUS
 70
0
 71
3
 72
11
 73
7
 74
0
 42
0.0000001
 43
0.0000001
 44
0.0000000001
 40
0.0
 40
0.0
 40
0.0
 40
0.0
 40
0.2717775313
 40
0.5268694486
 40
0.7676333348
 40
1.0
 40
1.0
 40
1.0
 40
1.0
 10
40.0547533341
 20
241.4935702755
 30
0.0
 10
40.0547533341
 20
241.9018328848
 30
0.0
 10
39.9753792853
 20
242.6966642598
 30
0.0
 10
39.5951973145
 20
243.7976657535
 30
0.0
 10
38.9722270275
 20
244.7137487485
 30
0.0
 10
38.4084178897
 20
245.167201459
 30
0.0
 10
38.1061658291
 20
245.3418051886
 30
0.0
  0
SPLINE
  5
2B7
100
AcDbEntity
  8
0
100
AcDbSpline
 62
7
  6
CONTINUOUS
 70
0
 71
3
 72
20
 73
16
 74
0
 42
0.0000001
 43
0.0000001
 44
0.0000000001
 40
0.0
 40
0.0
 40
0.0
 40
0.0
 40
0.0524886651
 40
0.1058788637
 40
0.1609446763
 40
0.218240177
 40
0.340076156
 40
0.4047856255
 40
0.4714397363
 40
0.6080572842
 40
0.7449175192
 40
0.8118576135
 40
0.8769396523
 40
0.9397340236
 40
1.0
 40
1.0
 40
1.0
 40
1.0
 10
16.2320982703
 20
220.4703835255
 30
0.0
 10
15.5482545376
 20
220.8653838042
 30
0.0
 10
14.2474516373
 20
221.807639807
 30
0.0
 10
12.6027838782
 20
223.60539234
 30
0.0
 10
11.2947618316
 20
225.7461607886
 30
0.0
 10
10.0151223118
 20
229.0455477481
 30
0.0
 10
9.56701174
 20
232.754160883
 30
0.0
 10
9.8834443441
 20
236.557189685
 30
0.0
 10
10.7346263657
 20
240.5091553167
 30
0.0
 10
12.7337492688
 20
245.2756697494
 30
0.0
 10
15.7819797123
 20
249.4556404535
 30
0.0
 10
18.728372257
 20
252.2411025463
 30
0.0
 10
21.1056977041
 20
253.9710045971
 30
0.0
 10
23.6080373362
 20
255.313219888
 30
0.0
 10
25.359264915
 20
255.9410563027
 30
0.0
 10
26.2350861106
 20
256.175824976
 30
0.0
  0
SPLINE
  5
2B8
100
AcDbEntity
  8
0
100
AcDbSpline
 62
7
  6
CONTINUOUS
 70
0
 71
3
 72
15
 73
11
 74
0
 42
0.0000001
 43
0.0000001
 44
0.0000000001
 40
0.0
 40
0.0
 40
0.0
 40
0.0
 40
0.0524622067
 40
0.1056451731
 40
0.2162149228
 40
0.3353287396
 40
0.4632716105
 40
0.5978589133
 40
0.7353247898
 40
1.0
 40
1.0
 40
1.0
 40
1.0
 10
23.2483042184
 20
242.5007920627
 30
0.0
 10
23.4302505129
 20
242.3956860741
 30
0.0
 10
23.8171338845
 20
242.2174436464
 30
0.0
 10
24.6597871629
 20
242.0012157628
 30
0.0
 10
25.8152544041
 20
242.0172253884
 30
0.0
 10
27.1926847036
 20
242.4716116658
 30
0.0
 10
28.4870140467
 20
243.3119270572
 30
0.0
 10
29.6087495289
 20
244.4753043632
 30
0.0
 10
30.7506790486
 20
246.3062313657
 30
0.0
 10
31.1704555077
 20
247.934847992
 30
0.0
 10
31.1704555077
 20
248.9949326278
 30
0.0
  0
SPLINE
  5
2B9
100
AcDbEntity
  8
0
100
AcDbSpline
 62
7
  6
CONTINUOUS
 70
0
 71
3
 72
10
 73
6
 74
0
 42
0.0000001
 43
0.0000001
 44
0.0000000001
 40
0.0
 40
0.0
 40
0.0
 40
0.0
 40
0.2403281525
 40
0.4850960851
 40
1.0
 40
1.0
 40
1.0
 40
1.0
 10
23.0834505475
 20
225.0496145189
 30
0.0
 10
23.2279843863
 20
224.9661612842
 30
0.0
 10
23.5390360415
 20
224.8288124056
 30
0.0
 10
24.2226624974
 20
224.6864701647
 30
0.0
 10
24.7636717911
 20
224.7407731969
 30
0.0
 10
25.1090550275
 20
224.8333550663
 30
0.0
  0
SPLINE
  5
2BA
100
AcDbEntity
  8
0
100
AcDbSpline
 62
7
  6
CONTINUOUS
 70
0
 71
3
 72
9
 73
5
 74
0
 42
0.0000001
 43
0.0000001
 44
0.0000000001
 40
0.0
 40
0.0
 40
0.0
 40
0.0
 40
0.481087829
 40
1.0
 40
1.0
 40
1.0
 40
1.0
 10
27.6251945746
 20
253.2989328724
 30
0.0
 10
27.8697976352
 20
252.9215140254
 30
0.0
 10
28.2445878555
 20
252.0461460691
 30
0.0
 10
28.3553778106
 20
251.1059804039
 30
0.0
 10
28.3553778106
 20
250.6208692248
 30
0.0
  0
SPLINE
  5
2BB
100
AcDbEntity
  8
0
100
AcDbSpline
 62
7
  6
CONTINUOUS
 70
0
 71
3
 72
9
 73
5
 74
0
 42
0.0000001
 43
0.0000001
 44
0.0000000001
 40
0.0
 40
0.0
 40
0.0
 40
0.0
 40
0.5152104923
 40
1.0
 40
1.0
 40
1.0
 40
1.0
 10
27.9181402373
 20
304.9351372327
 30
0.0
 10
27.7787223507
 20
304.9784759758
 30
0.0
 10
27.4966217825
 20
305.0317052758
 30
0.0
 10
27.2098430431
 20
305.0015565452
 30
0.0
 10
27.0771517563
 20
304.9659792939
 30
0.0
  0
SPLINE
  5
2BC
100
AcDbEntity
  8
0
100
AcDbSpline
 62
7
  6
CONTINUOUS
 70
0
 71
3
 72
9
 73
5
 74
0
 42
0.0000001
 43
0.0000001
 44
0.0000000001
 40
0.0
 40
0.0
 40
0.0
 40
0.0
 40
0.5218793058
 40
1.0
 40
1.0
 40
1.0
 40
1.0
 10
28.7152069083
 20
302.7148553446
 30
0.0
 10
26.7268822412
 20
302.4412270414
 30
0.0
 10
22.9371245271
 20
301.753198934
 30
0.0
 10
19.2335838657
 20
300.6791035047
 30
0.0
 10
17.5068219619
 20
300.0471307124
 30
0.0
  0
SPLINE
  5
2BD
100
AcDbEntity
  8
0
100
AcDbSpline
 62
7
  6
CONTINUOUS
 70
0
 71
3
 72
11
 73
7
 74
0
 42
0.0000001
 43
0.0000001
 44
0.0000000001
 40
0.0
 40
0.0
 40
0.0
 40
0.0
 40
0.271532346
 40
0.5248345552
 40
0.7655876128
 40
1.0
 40
1.0
 40
1.0
 40
1.0
 10
12.4651110227
 20
297.7105234565
 30
0.0
 10
11.7297822764
 20
297.2768732638
 30
0.0
 10
10.3515242454
 20
296.3608293568
 30
0.0
 10
8.5466860589
 20
294.7531995157
 30
0.0
 10
7.1278000287
 20
292.937079774
 30
0.0
 10
6.4893857124
 20
291.5659751888
 30
0.0
 10
6.2712614515
 20
290.8620214784
 30
0.0
  0
SPLINE
  5
2BE
100
AcDbEntity
  8
0
100
AcDbSpline
 62
7
  6
CONTINUOUS
 70
0
 71
3
 72
11
 73
7
 74
0
 42
0.0000001
 43
0.0000001
 44
0.0000000001
 40
0.0
 40
0.0
 40
0.0
 40
0.0
 40
0.230963152
 40
0.4697024841
 40
0.7240459117
 40
1.0
 40
1.0
 40
1.0
 40
1.0
 10
71.898762442
 20
290.8620214867
 30
0.0
 10
71.6541660456
 20
291.6514088697
 30
0.0
 10
70.9083600605
 20
293.1862356085
 30
0.0
 10
69.2242230053
 20
295.1793036463
 30
0.0
 10
67.0751269146
 20
296.9176098008
 30
0.0
 10
65.437435674
 20
297.8873744646
 30
0.0
 10
64.5620716762
 20
298.3442008224
 30
0.0
  0
SPLINE
  5
2BF
100
AcDbEntity
  8
0
100
AcDbSpline
 62
7
  6
CONTINUOUS
 70
0
 71
3
 72
13
 73
9
 74
0
 42
0.0000001
 43
0.0000001
 44
0.0000000001
 40
0.0
 40
0.0
 40
0.0
 40
0.0
 40
0.1029014118
 40
0.2145493793
 40
0.3342783415
 40
0.4608616378
 40
0.7277668188
 40
1.0
 40
1.0
 40
1.0
 40
1.0
 10
64.5620716762
 20
298.3442008224
 30
0.0
 10
63.5854622909
 20
298.8538641277
 30
0.0
 10
61.4841610683
 20
299.7937194862
 30
0.0
 10
58.0919997438
 20
300.9455334694
 30
0.0
 10
54.3749606999
 20
301.8919875283
 30
0.0
 10
48.9673805743
 20
302.8828228564
 30
0.0
 10
41.8522201615
 20
303.5164104805
 30
0.0
 10
36.0685964638
 20
303.4062663803
 30
0.0
 10
33.162532199
 20
303.1864878868
 30
0.0
  0
SPLINE
  5
2C0
100
AcDbEntity
  8
0
100
AcDbSpline
 62
7
  6
CONTINUOUS
 70
0
 71
3
 72
9
 73
5
 74
0
 42
0.0000001
 43
0.0000001
 44
0.0000000001
 40
0.0
 40
0.0
 40
0.0
 40
0.0
 40
0.4852858129
 40
1.0
 40
1.0
 40
1.0
 40
1.0
 10
9.4334081734
 20
274.321725208
 30
0.0
 10
9.5760768069
 20
274.359966943
 30
0.0
 10
9.8592974471
 20
274.4847539881
 30
0.0
 10
10.0947929798
 20
274.6836182952
 30
0.0
 10
10.2022863545
 20
274.7975839373
 30
0.0
  0
SPLINE
  5
2C1
100
AcDbEntity
  8
0
100
AcDbSpline
 62
7
  6
CONTINUOUS
 70
0
 71
3
 72
17
 73
13
 74
0
 42
0.0000001
 43
0.0000001
 44
0.0000000001
 40
0.0
 40
0.0
 40
0.0
 40
0.0
 40
0.174960061
 40
0.3399555193
 40
0.4914903393
 40
0.6267631161
 40
0.743998475
 40
0.8429971492
 40
0.886363393
 40
0.926342418
 40
0.9638342961
 40
1.0
 40
1.0
 40
1.0
 40
1.0
 10
47.0782769837
 20
270.0308609967
 30
0.0
 10
48.8761087455
 20
270.2019647296
 30
0.0
 10
52.3597350481
 20
270.6514172987
 30
0.0
 10
57.3340665487
 20
271.6741299079
 30
0.0
 10
61.8114706102
 20
273.0019706998
 30
0.0
 10
65.6747221525
 20
274.5996100222
 30
0.0
 10
68.8243938026
 20
276.4247275711
 30
0.0
 10
70.8814461479
 20
278.1818623712
 30
0.0
 10
72.0372407082
 20
279.6755300561
 30
0.0
 10
72.6376362234
 20
280.7759529833
 30
0.0
 10
73.0027188542
 20
281.8982210004
 30
0.0
 10
73.0849959287
 20
282.6607984766
 30
0.0
 10
73.085006692
 20
283.034104556
 30
0.0
  0
SPLINE
  5
2C2
100
AcDbEntity
  8
0
100
AcDbSpline
 62
7
  6
CONTINUOUS
 70
0
 71
3
 72
19
 73
15
 74
0
 42
0.0000001
 43
0.0000001
 44
0.0000000001
 40
0.0
 40
0.0
 40
0.0
 40
0.0
 40
0.0324491275
 40
0.0670281483
 40
0.1054204874
 40
0.1487055722
 40
0.1974320595
 40
0.251750259
 40
0.3115240093
 40
0.3764080678
 40
0.5193187261
 40
0.6752633584
 40
0.8378075753
 40
1.0
 40
1.0
 40
1.0
 40
1.0
 10
5.0850156052
 20
283.0341043832
 30
0.0
 10
5.0850072545
 20
282.5260611139
 30
0.0
 10
5.2418758626
 20
281.4713838524
 30
0.0
 10
5.9248179492
 20
279.9507624966
 30
0.0
 10
7.0300489568
 20
278.4891421778
 30
0.0
 10
8.5353228948
 20
277.0977470399
 30
0.0
 10
10.421080978
 20
275.7865937279
 30
0.0
 10
12.6652012076
 20
274.5686624727
 30
0.0
 10
15.2410846926
 20
273.4574807954
 30
0.0
 10
19.2051616288
 20
272.0928170473
 30
0.0
 10
24.7613435673
 20
270.779370835
 30
0.0
 10
31.9343853903
 20
269.8414626905
 30
0.0
 10
39.463888796
 20
269.5455876696
 30
0.0
 10
44.5503167894
 20
269.7902692823
 30
0.0
 10
47.0782769837
 20
270.0308609967
 30
0.0
  0
SPLINE
  5
2C3
100
AcDbEntity
  8
0
100
AcDbSpline
 62
7
  6
CONTINUOUS
 70
0
 71
3
 72
11
 73
7
 74
0
 42
0.0000001
 43
0.0000001
 44
0.0000000001
 40
0.0
 40
0.0
 40
0.0
 40
0.0
 40
0.3021719565
 40
0.5651886039
 40
0.7932630923
 40
1.0
 40
1.0
 40
1.0
 40
1.0
 10
5.819838929
 20
297.5923743612
 30
0.0
 10
5.8676550085
 20
297.852407574
 30
0.0
 10
5.9935950719
 20
298.33375732
 30
0.0
 10
6.3047534631
 20
298.9611555799
 30
0.0
 10
6.7203883486
 20
299.4219393923
 30
0.0
 10
7.0698774719
 20
299.5992022635
 30
0.0
 10
7.2445988414
 20
299.6460372752
 30
0.0
  0
SPLINE
  5
2C4
100
AcDbEntity
  8
0
100
AcDbSpline
 62
7
  6
CONTINUOUS
 70
0
 71
3
 72
11
 73
7
 74
0
 42
0.0000001
 43
0.0000001
 44
0.0000000001
 40
0.0
 40
0.0
 40
0.0
 40
0.0
 40
0.2798579167
 40
0.5430173894
 40
0.7844043283
 40
1.0
 40
1.0
 40
1.0
 40
1.0
 10
49.4674701977
 20
274.1669147545
 30
0.0
 10
51.3804447517
 20
274.3807069608
 30
0.0
 10
55.0801645693
 20
274.9171987264
 30
0.0
 10
60.3536084356
 20
276.0831188386
 30
0.0
 10
65.0879188386
 20
277.5603073539
 30
0.0
 10
67.9843961769
 20
278.8037290077
 30
0.0
 10
69.3021816239
 20
279.4837178997
 30
0.0
  0
SPLINE
  5
2C5
100
AcDbEntity
  8
0
100
AcDbSpline
 62
7
  6
CONTINUOUS
 70
0
 71
3
 72
14
 73
10
 74
0
 42
0.0000001
 43
0.0000001
 44
0.0000000001
 40
0.0
 40
0.0
 40
0.0
 40
0.0
 40
0.3048386506
 40
0.4385985047
 40
0.5615607139
 40
0.6759179824
 40
0.7846622853
 40
0.8914058303
 40
1.0
 40
1.0
 40
1.0
 40
1.0
 10
67.5381617514
 20
282.6667053579
 30
0.0
 10
68.3824876011
 20
283.2285004969
 30
0.0
 10
69.5436554674
 20
284.1354435793
 30
0.0
 10
70.7801651714
 20
285.5422956206
 30
0.0
 10
71.4563244664
 20
286.58131686
 30
0.0
 10
71.9147148576
 20
287.6443155529
 30
0.0
 10
72.1485294673
 20
288.7242581602
 30
0.0
 10
72.1529903672
 20
289.8101401765
 30
0.0
 10
72.0056288627
 20
290.5170833602
 30
0.0
 10
71.8986992524
 20
290.8621719064
 30
0.0
  0
SPLINE
  5
2C6
100
AcDbEntity
  8
0
100
AcDbSpline
 62
7
  6
CONTINUOUS
 70
0
 71
3
 72
14
 73
10
 74
0
 42
0.0000001
 43
0.0000001
 44
0.0000000001
 40
0.0
 40
0.0
 40
0.0
 40
0.0
 40
0.0966566114
 40
0.2051736224
 40
0.324151286
 40
0.4516989258
 40
0.5855854111
 40
0.723355145
 40
1.0
 40
1.0
 40
1.0
 40
1.0
 10
11.7654131267
 20
281.9646634521
 30
0.0
 10
12.7587699415
 20
281.3909197094
 30
0.0
 10
14.9572604126
 20
280.327063808
 30
0.0
 10
18.5821833456
 20
279.0237794947
 30
0.0
 10
22.6602521859
 20
277.9448087275
 30
0.0
 10
27.1015106387
 20
277.114099178
 30
0.0
 10
31.809169349
 20
276.5503816706
 30
0.0
 10
38.3080122714
 20
276.1727894974
 30
0.0
 10
43.2396545609
 20
276.3166598727
 30
0.0
 10
46.5095231627
 20
276.6132088606
 30
0.0
  0
SPLINE
  5
2C7
100
AcDbEntity
  8
0
100
AcDbSpline
 62
7
  6
CONTINUOUS
 70
0
 71
3
 72
9
 73
5
 74
0
 42
0.0000001
 43
0.0000001
 44
0.0000000001
 40
0.0
 40
0.0
 40
0.0
 40
0.0
 40
0.5172569977
 40
1.0
 40
1.0
 40
1.0
 40
1.0
 10
13.3385841564
 20
297.7551080393
 30
0.0
 10
13.1936365517
 20
297.8096365827
 30
0.0
 10
12.8907184962
 20
297.8723187226
 30
0.0
 10
12.5896110814
 20
297.7839494358
 30
0.0
 10
12.4651327595
 20
297.7105019034
 30
0.0
  0
SPLINE
  5
2C8
100
AcDbEntity
  8
0
100
AcDbSpline
 62
7
  6
CONTINUOUS
 70
0
 71
3
 72
9
 73
5
 74
0
 42
0.0000001
 43
0.0000001
 44
0.0000000001
 40
0.0
 40
0.0
 40
0.0
 40
0.0
 40
0.4850594028
 40
1.0
 40
1.0
 40
1.0
 40
1.0
 10
7.2445988414
 20
299.6460372752
 30
0.0
 10
7.3769773674
 20
299.6815220578
 30
0.0
 10
7.6627361863
 20
299.712153479
 30
0.0
 10
7.9442080417
 20
299.6605989353
 30
0.0
 10
8.0834288111
 20
299.6183340875
 30
0.0
  0
SPLINE
  5
2C9
100
AcDbEntity
  8
0
100
AcDbSpline
 62
7
  6
CONTINUOUS
 70
0
 71
3
 72
9
 73
5
 74
0
 42
0.0000001
 43
0.0000001
 44
0.0000000001
 40
0.0
 40
0.0
 40
0.0
 40
0.0
 40
0.4850594975
 40
1.0
 40
1.0
 40
1.0
 40
1.0
 10
9.3107463207
 20
300.1998794346
 30
0.0
 10
9.4431206615
 20
300.2353596521
 30
0.0
 10
9.7288686531
 20
300.265984686
 30
0.0
 10
10.0103291752
 20
300.2144309691
 30
0.0
 10
10.1495445846
 20
300.1721677485
 30
0.0
  0
SPLINE
  5
2CA
100
AcDbEntity
  8
0
100
AcDbSpline
 62
7
  6
CONTINUOUS
 70
0
 71
3
 72
9
 73
5
 74
0
 42
0.0000001
 43
0.0000001
 44
0.0000000001
 40
0.0
 40
0.0
 40
0.0
 40
0.0
 40
0.5273921938
 40
1.0
 40
1.0
 40
1.0
 40
1.0
 10
28.7137771766
 20
302.5855317979
 30
0.0
 10
26.7102873345
 20
302.3012411185
 30
0.0
 10
22.9331142062
 20
301.5912317356
 30
0.0
 10
19.2505447339
 20
300.4710223089
 30
0.0
 10
17.5612174573
 20
299.8119057959
 30
0.0
  0
SPLINE
  5
2CB
100
AcDbEntity
  8
0
100
AcDbSpline
 62
7
  6
CONTINUOUS
 70
0
 71
3
 72
9
 73
5
 74
0
 42
0.0000001
 43
0.0000001
 44
0.0000000001
 40
0.0
 40
0.0
 40
0.0
 40
0.0
 40
0.2630395594
 40
1.0
 40
1.0
 40
1.0
 40
1.0
 10
17.5612174573
 20
299.8119057959
 30
0.0
 10
17.2586776019
 20
299.6938653088
 30
0.0
 10
16.1150644876
 20
299.2287965337
 30
0.0
 10
14.9978757886
 20
298.6964293963
 30
0.0
 10
14.2011352626
 20
298.2570529896
 30
0.0
  0
SPLINE
  5
2CC
100
AcDbEntity
  8
0
100
AcDbSpline
 62
7
  6
CONTINUOUS
 70
0
 71
3
 72
24
 73
20
 74
0
 42
0.0000001
 43
0.0000001
 44
0.0000000001
 40
0.0
 40
0.0
 40
0.0
 40
0.0
 40
0.0164312308
 40
0.0252056681
 40
0.0401775598
 40
0.0589446787
 40
0.080553616
 40
0.1041686204
 40
0.1293006972
 40
0.1556481207
 40
0.1830108263
 40
0.240257384
 40
0.3003040177
 40
0.3627062547
 40
0.4271711124
 40
0.5615087104
 40
0.702198441
 40
0.8485292337
 40
1.0
 40
1.0
 40
1.0
 40
1.0
 10
14.2011352628
 20
298.2570529896
 30
0.0
 10
14.1795565664
 20
298.2593631682
 30
0.0
 10
14.1450809086
 20
298.2638002783
 30
0.0
 10
14.1043942711
 20
298.3059682882
 30
0.0
 10
14.1264361815
 20
298.3677364071
 30
0.0
 10
14.1718638773
 20
298.4221078271
 30
0.0
 10
14.2332971823
 20
298.4815093221
 30
0.0
 10
14.3052250697
 20
298.5400568886
 30
0.0
 10
14.3850763034
 20
298.5990469333
 30
0.0
 10
14.4710557615
 20
298.6577917699
 30
0.0
 10
14.5943157689
 20
298.7370987971
 30
0.0
 10
14.7584461708
 20
298.8349936503
 30
0.0
 10
14.9660689598
 20
298.9500382745
 30
0.0
 10
15.1849750315
 20
299.0642166883
 30
0.0
 10
15.4941472928
 20
299.2173385678
 30
0.0
 10
15.901281015
 20
299.4054231126
 30
0.0
 10
16.4129119035
 20
299.6245390323
 30
0.0
 10
16.9506167687
 20
299.8398114598
 30
0.0
 10
17.3187630282
 20
299.9783742018
 30
0.0
 10
17.5066397311
 20
300.0471204186
 30
0.0
  0
SPLINE
  5
2CD
100
AcDbEntity
  8
0
100
AcDbSpline
 62
7
  6
CONTINUOUS
 70
0
 71
3
 72
10
 73
6
 74
0
 42
0.0000001
 43
0.0000001
 44
0.0000000001
 40
0.0
 40
0.0
 40
0.0
 40
0.0
 40
0.2129124221
 40
0.4578988852
 40
1.0
 40
1.0
 40
1.0
 40
1.0
 10
44.9967283137
 20
279.4699519199
 30
0.0
 10
45.1808994047
 20
279.3264885334
 30
0.0
 10
45.5338372418
 20
278.9616256314
 30
0.0
 10
46.1292604889
 20
278.0368771327
 30
0.0
 10
46.4111192628
 20
277.199340019
 30
0.0
 10
46.5095149812
 20
276.6131383748
 30
0.0
  0
SPLINE
  5
2CE
100
AcDbEntity
  8
0
100
AcDbSpline
 62
7
  6
CONTINUOUS
 70
0
 71
3
 72
15
 73
11
 74
0
 42
0.0000001
 43
0.0000001
 44
0.0000000001
 40
0.0
 40
0.0
 40
0.0
 40
0.0
 40
0.1481287401
 40
0.2760866886
 40
0.3880506711
 40
0.4914988101
 40
0.5964259248
 40
0.7123451603
 40
0.8457656158
 40
1.0
 40
1.0
 40
1.0
 40
1.0
 10
12.6891669843
 20
297.3373489147
 30
0.0
 10
12.0329280764
 20
296.8952146665
 30
0.0
 10
10.8608547223
 20
295.9875531885
 30
0.0
 10
9.481033027
 20
294.4190385264
 30
0.0
 10
8.6478780551
 20
292.7547089086
 30
0.0
 10
8.4203035013
 20
291.0221676445
 30
0.0
 10
8.8267964577
 20
289.3028363784
 30
0.0
 10
9.8211780509
 20
287.6649873128
 30
0.0
 10
11.3498956476
 20
286.1249989253
 30
0.0
 10
12.6111908378
 20
285.2355417094
 30
0.0
 10
13.312370316
 20
284.8029220492
 30
0.0
  0
SPLINE
  5
2CF
100
AcDbEntity
  8
0
100
AcDbSpline
 62
7
  6
CONTINUOUS
 70
0
 71
3
 72
11
 73
7
 74
0
 42
0.0000001
 43
0.0000001
 44
0.0000000001
 40
0.0
 40
0.0
 40
0.0
 40
0.0
 40
0.2155955398
 40
0.4569823856
 40
0.7201419644
 40
1.0
 40
1.0
 40
1.0
 40
1.0
 10
69.3021816239
 20
281.174512503
 30
0.0
 10
67.9843969251
 20
280.4945239971
 30
0.0
 10
65.0879225261
 20
279.2510993858
 30
0.0
 10
60.3536131154
 20
277.7739089136
 30
0.0
 10
55.0801674549
 20
276.607991224
 30
0.0
 10
51.3804456486
 20
276.0715016644
 30
0.0
 10
49.4674701977
 20
275.8577093579
 30
0.0
  0
SPLINE
  5
2D0
100
AcDbEntity
  8
0
100
AcDbSpline
 62
7
  6
CONTINUOUS
 70
0
 71
3
 72
15
 73
11
 74
0
 42
0.0000001
 43
0.0000001
 44
0.0000000001
 40
0.0
 40
0.0
 40
0.0
 40
0.0
 40
0.1049507607
 40
0.2083295385
 40
0.3146225617
 40
0.4278906436
 40
0.5513008125
 40
0.6870313435
 40
0.8364333763
 40
1.0
 40
1.0
 40
1.0
 40
1.0
 10
6.2712673688
 20
290.862022717
 30
0.0
 10
6.1541014368
 20
290.4839097073
 30
0.0
 10
5.9994417447
 20
289.7056927098
 30
0.0
 10
6.0416527156
 20
288.5094756959
 30
0.0
 10
6.3612644243
 20
287.3239294139
 30
0.0
 10
6.9499606999
 20
286.163283122
 30
0.0
 10
7.7974222104
 20
285.0356848402
 30
0.0
 10
8.8945152548
 20
283.9473456681
 30
0.0
 10
10.2317182655
 20
282.9048243869
 30
0.0
 10
11.2311845067
 20
282.2732236022
 30
0.0
 10
11.7654131267
 20
281.9646634521
 30
0.0
  0
SPLINE
  5
2D1
100
AcDbEntity
  8
0
100
AcDbSpline
 62
7
  6
CONTINUOUS
 70
0
 71
3
 72
9
 73
5
 74
0
 42
0.0000001
 43
0.0000001
 44
0.0000000001
 40
0.0
 40
0.0
 40
0.0
 40
0.0
 40
0.2387107288
 40
1.0
 40
1.0
 40
1.0
 40
1.0
 10
66.6215228267
 20
286.0481634402
 30
0.0
 10
66.4864790906
 20
285.9379281814
 30
0.0
 10
65.9119337198
 20
285.486968411
 30
0.0
 10
65.3050501535
 20
285.0779080937
 30
0.0
 10
64.8314397397
 20
284.7867550652
 30
0.0
  0
SPLINE
  5
2D2
100
AcDbEntity
  8
0
100
AcDbSpline
 62
7
  6
CONTINUOUS
 70
0
 71
3
 72
15
 73
11
 74
0
 42
0.0000001
 43
0.0000001
 44
0.0000000001
 40
0.0
 40
0.0
 40
0.0
 40
0.0
 40
0.1605602729
 40
0.3007164611
 40
0.4227445203
 40
0.5315782215
 40
0.6350824429
 40
0.7426603929
 40
0.8625180115
 40
1.0
 40
1.0
 40
1.0
 40
1.0
 10
64.3483585044
 20
298.0429101076
 30
0.0
 10
65.0529951916
 20
297.6359250434
 30
0.0
 10
66.3325399995
 20
296.79815032
 30
0.0
 10
67.930635356
 20
295.3549562338
 30
0.0
 10
69.0499534967
 20
293.8223856441
 30
0.0
 10
69.6531211311
 20
292.2103330639
 30
0.0
 10
69.6927843646
 20
290.5574343325
 30
0.0
 10
69.1642902519
 20
288.9362976312
 30
0.0
 10
68.1135577005
 20
287.3923455556
 30
0.0
 10
67.1612878465
 20
286.4887698567
 30
0.0
 10
66.6215228267
 20
286.0481634402
 30
0.0
  0
SPLINE
  5
2D3
100
AcDbEntity
  8
0
100
AcDbSpline
 62
7
  6
CONTINUOUS
 70
0
 71
3
 72
13
 73
9
 74
0
 42
0.0000001
 43
0.0000001
 44
0.0000000001
 40
0.0
 40
0.0
 40
0.0
 40
0.0
 40
0.2778330687
 40
0.549046571
 40
0.6762274333
 40
0.7948837553
 40
0.9032454745
 40
1.0
 40
1.0
 40
1.0
 40
1.0
 10
44.9967283135
 20
279.46995192
 30
0.0
 10
42.0453237166
 20
279.2410432761
 30
0.0
 10
36.1821162221
 20
279.1329864478
 30
0.0
 10
28.9902388537
 20
279.8079907411
 30
0.0
 10
23.5778846929
 20
280.8564345535
 30
0.0
 10
19.9309493244
 20
281.842969796
 30
0.0
 10
16.6852094564
 20
283.0244248838
 30
0.0
 10
14.7143654828
 20
283.9833460032
 30
0.0
 10
13.8216653915
 20
284.498952997
 30
0.0
  0
SPLINE
  5
2D4
100
AcDbEntity
  8
0
100
AcDbSpline
 62
7
  6
CONTINUOUS
 70
0
 71
3
 72
13
 73
9
 74
0
 42
0.0000001
 43
0.0000001
 44
0.0000000001
 40
0.0
 40
0.0
 40
0.0
 40
0.0
 40
0.0967545255
 40
0.2051162447
 40
0.3237725667
 40
0.450953429
 40
0.7221669313
 40
1.0
 40
1.0
 40
1.0
 40
1.0
 10
64.3483585044
 20
298.0429101076
 30
0.0
 10
63.4556584131
 20
298.5585171013
 30
0.0
 10
61.4848144396
 20
299.5174382208
 30
0.0
 10
58.2390745716
 20
300.6988933085
 30
0.0
 10
54.5921392031
 20
301.6854285511
 30
0.0
 10
49.1797850423
 20
302.7338723635
 30
0.0
 10
41.9879076739
 20
303.4088766567
 30
0.0
 10
36.1247001794
 20
303.3008198285
 30
0.0
 10
33.1732955825
 20
303.0719111846
 30
0.0
  0
SPLINE
  5
2D5
100
AcDbEntity
  8
0
100
AcDbSpline
 62
7
  6
CONTINUOUS
 70
0
 71
3
 72
20
 73
16
 74
0
 42
0.0000001
 43
0.0000001
 44
0.0000000001
 40
0.0
 40
0.0
 40
0.0
 40
0.0
 40
0.2550411524
 40
0.3833005317
 40
0.511973476
 40
0.6409271312
 40
0.7054180507
 40
0.7698033189
 40
0.833871685
 40
0.8970599153
 40
0.9278281873
 40
0.9572298626
 40
0.9831883465
 40
0.9932354707
 40
1.0
 40
1.0
 40
1.0
 40
1.0
 10
28.7152071953
 20
302.7148839226
 30
0.0
 10
28.9657348985
 20
302.7493586479
 30
0.0
 10
29.3426362924
 20
302.7984649898
 30
0.0
 10
29.8468665297
 20
302.8573663523
 30
0.0
 10
30.227363155
 20
302.8977806341
 30
0.0
 10
30.5453996497
 20
302.9274000434
 30
0.0
 10
30.8002555524
 20
302.9476414221
 30
0.0
 10
30.9911369299
 20
302.9605848957
 30
0.0
 10
31.1809221217
 20
302.9704663186
 30
0.0
 10
31.3375469044
 20
302.974988406
 30
0.0
 10
31.4599447205
 20
302.974455812
 30
0.0
 10
31.5451181366
 20
302.9708619496
 30
0.0
 10
31.6101749272
 20
302.9640793092
 30
0.0
 10
31.65082081
 20
302.9533697841
 30
0.0
 10
31.6664214315
 20
302.9451672286
 30
0.0
 10
31.6704379958
 20
302.9397953657
 30
0.0
  0
SPLINE
  5
2D6
100
AcDbEntity
  8
0
100
AcDbSpline
 62
7
  6
CONTINUOUS
 70
0
 71
3
 72
17
 73
13
 74
0
 42
0.0000001
 43
0.0000001
 44
0.0000000001
 40
0.0
 40
0.0
 40
0.0
 40
0.0
 40
0.040037271
 40
0.0828916922
 40
0.1306078836
 40
0.1842328439
 40
0.3091200408
 40
0.4529231193
 40
0.6053940697
 40
0.7544097566
 40
0.8885512168
 40
1.0
 40
1.0
 40
1.0
 40
1.0
 10
3.113985987
 20
276.2513209463
 30
0.0
 10
3.1699197202
 20
276.2663110792
 30
0.0
 10
3.2811829515
 20
276.317072773
 30
0.0
 10
3.4232379498
 20
276.4450558104
 30
0.0
 10
3.5400559846
 20
276.6198918407
 30
0.0
 10
3.6660703191
 20
276.9235553133
 30
0.0
 10
3.7390521708
 20
277.390018613
 30
0.0
 10
3.7068915443
 20
278.0012750493
 30
0.0
 10
3.5621058079
 20
278.6320388535
 30
0.0
 10
3.3189906446
 20
279.2170783945
 30
0.0
 10
3.0038479164
 20
279.6967160427
 30
0.0
 10
2.7357409464
 20
279.9411640152
 30
0.0
 10
2.5961576804
 20
280.0217847173
 30
0.0
  0
SPLINE
  5
2D7
100
AcDbEntity
  8
0
100
AcDbSpline
 62
7
  6
CONTINUOUS
 70
0
 71
3
 72
14
 73
10
 74
0
 42
0.0000001
 43
0.0000001
 44
0.0000000001
 40
0.0
 40
0.0
 40
0.0
 40
0.0
 40
0.114088324
 40
0.2315233684
 40
0.3529032548
 40
0.4781993011
 40
0.6068147942
 40
0.7377090688
 40
1.0
 40
1.0
 40
1.0
 40
1.0
 10
-20.2681750563
 20
282.1794233294
 30
0.0
 10
-20.6231281864
 20
282.0842761968
 30
0.0
 10
-21.3233993026
 20
281.8073836818
 30
0.0
 10
-22.2726520884
 20
281.1678634646
 30
0.0
 10
-23.0994094403
 20
280.325317296
 30
0.0
 10
-23.7726961097
 20
279.3133740546
 30
0.0
 10
-24.2682949941
 20
278.1699684397
 30
0.0
 10
-24.6684100316
 20
276.5320686783
 30
0.0
 10
-24.6576357735
 20
275.2347865566
 30
0.0
 10
-24.509197164
 20
274.4030765227
 30
0.0
  0
SPLINE
  5
2D8
100
AcDbEntity
  8
0
100
AcDbSpline
 62
7
  6
CONTINUOUS
 70
0
 71
3
 72
13
 73
9
 74
0
 42
0.0000001
 43
0.0000001
 44
0.0000000001
 40
0.0
 40
0.0
 40
0.0
 40
0.0
 40
0.267702785
 40
0.523095256
 40
0.64603859
 40
0.7659487402
 40
0.8835892837
 40
1.0
 40
1.0
 40
1.0
 40
1.0
 10
-11.9825385398
 20
204.2154905601
 30
0.0
 10
-11.8617237257
 20
203.5385582349
 30
0.0
 10
-11.4413805143
 20
202.2400622282
 30
0.0
 10
-10.4664721577
 20
200.8599918878
 30
0.0
 10
-9.4838403437
 20
200.0309523674
 30
0.0
 10
-8.6770798796
 20
199.5657323425
 30
0.0
 10
-7.8140189109
 20
199.2637093747
 30
0.0
 10
-7.2146661801
 20
199.1766899918
 30
0.0
 10
-6.9159808701
 20
199.1626338821
 30
0.0
  0
SPLINE
  5
2D9
100
AcDbEntity
  8
0
100
AcDbSpline
 62
7
  6
CONTINUOUS
 70
0
 71
3
 72
13
 73
9
 74
0
 42
0.0000001
 43
0.0000001
 44
0.0000000001
 40
0.0
 40
0.0
 40
0.0
 40
0.0
 40
0.1156303765
 40
0.2326531402
 40
0.3519406492
 40
0.4742161065
 40
0.7292113543
 40
1.0
 40
1.0
 40
1.0
 40
1.0
 10
40.2913309723
 20
261.5101303751
 30
0.0
 10
40.9312792094
 20
261.0872609633
 30
0.0
 10
42.159145761
 20
260.1419999462
 30
0.0
 10
43.7937943392
 20
258.4650636276
 30
0.0
 10
45.2096544253
 20
256.5444165604
 30
0.0
 10
46.8043034596
 20
253.6528369094
 30
0.0
 10
48.1495635426
 20
249.5249210692
 30
0.0
 10
48.4819887113
 20
246.024936873
 30
0.0
 10
48.4819887113
 20
244.2286436438
 30
0.0
  0
SPLINE
  5
2DA
100
AcDbEntity
  8
0
100
AcDbSpline
 62
7
  6
CONTINUOUS
 70
0
 71
3
 72
19
 73
15
 74
0
 42
0.0000001
 43
0.0000001
 44
0.0000000001
 40
0.0
 40
0.0
 40
0.0
 40
0.0
 40
0.0523306407
 40
0.1053801112
 40
0.1597856103
 40
0.216039309
 40
0.2744529009
 40
0.3351488923
 40
0.462770409
 40
0.5970192393
 40
0.6655874642
 40
0.7343313919
 40
0.8699440465
 40
1.0
 40
1.0
 40
1.0
 40
1.0
 10
38.3508637057
 20
260.0658450521
 30
0.0
 10
37.5784858575
 20
260.511993362
 30
0.0
 10
35.93651691
 20
261.2688828711
 30
0.0
 10
33.2848603562
 20
261.9479254066
 30
0.0
 10
30.4892923195
 20
262.1635768749
 30
0.0
 10
27.6064213139
 20
261.9137436707
 30
0.0
 10
24.691234152
 20
261.2058950375
 30
0.0
 10
20.7726125715
 20
259.647455012
 30
0.0
 10
16.1110945914
 20
256.6210878892
 30
0.0
 10
12.1686345103
 20
252.5343275808
 30
0.0
 10
9.5137063015
 20
248.7337660971
 30
0.0
 10
7.2613193952
 20
244.6547440024
 30
0.0
 10
5.301890576
 20
239.2552925212
 30
0.0
 10
4.7216566272
 20
234.7152435756
 30
0.0
 10
4.7216566272
 20
232.4984467048
 30
0.0
  0
SPLINE
  5
2DB
100
AcDbEntity
  8
0
100
AcDbSpline
 62
7
  6
CONTINUOUS
 70
0
 71
3
 72
14
 73
10
 74
0
 42
0.0000001
 43
0.0000001
 44
0.0000000001
 40
0.0
 40
0.0
 40
0.0
 40
0.0
 40
0.2622909583
 40
0.393185238
 40
0.5218007329
 40
0.6470967759
 40
0.7684766562
 40
0.8859116878
 40
1.0
 40
1.0
 40
1.0
 40
1.0
 10
43.7176720838
 20
218.5219941947
 30
0.0
 10
43.8661107087
 20
217.6902840749
 30
0.0
 10
43.876884948
 20
216.3930018396
 30
0.0
 10
43.476769813
 20
214.7551019888
 30
0.0
 10
42.981170878
 20
213.6116963838
 30
0.0
 10
42.3078841797
 20
212.5997531897
 30
0.0
 10
41.4811268333
 20
211.7572071186
 30
0.0
 10
40.5318741178
 20
211.1176869774
 30
0.0
 10
39.8316030696
 20
210.8407945107
 30
0.0
 10
39.4766499761
 20
210.7456473879
 30
0.0
  0
SPLINE
  5
2DC
100
AcDbEntity
  8
0
100
AcDbSpline
 62
7
  6
CONTINUOUS
 70
0
 71
3
 72
9
 73
5
 74
0
 42
0.0000001
 43
0.0000001
 44
0.0000000001
 40
0.0
 40
0.0
 40
0.0
 40
0.0
 40
0.2561254921
 40
1.0
 40
1.0
 40
1.0
 40
1.0
 10
-21.4558118608
 20
257.1029354463
 30
0.0
 10
-21.6456860721
 20
256.4646952381
 30
0.0
 10
-22.302482177
 20
253.9489359846
 30
0.0
 10
-22.6135202345
 20
251.3388885202
 30
0.0
 10
-22.6135202345
 20
249.4049348058
 30
0.0
  0
SPLINE
  5
2DD
100
AcDbEntity
  8
0
100
AcDbSpline
 62
7
  6
CONTINUOUS
 70
0
 71
3
 72
9
 73
5
 74
0
 42
0.0000001
 43
0.0000001
 44
0.0000000001
 40
0.0
 40
0.0
 40
0.0
 40
0.0
 40
0.251640531
 40
1.0
 40
1.0
 40
1.0
 40
1.0
 10
-3.498558114
 20
199.2259072401
 30
0.0
 10
-3.6158705341
 20
199.1944610027
 30
0.0
 10
-4.0866041751
 20
199.0871513943
 30
0.0
 10
-4.5739849083
 20
199.0524833219
 30
0.0
 10
-4.9347803592
 20
199.0694623322
 30
0.0
  0
SPLINE
  5
2DE
100
AcDbEntity
  8
0
100
AcDbSpline
 62
7
  6
CONTINUOUS
 70
0
 71
3
 72
9
 73
5
 74
0
 42
0.0000001
 43
0.0000001
 44
0.0000000001
 40
0.0
 40
0.0
 40
0.0
 40
0.0
 40
0.2530700892
 40
1.0
 40
1.0
 40
1.0
 40
1.0
 10
-19.9888066659
 20
249.0099440709
 30
0.0
 10
-20.0273768301
 20
248.7014115086
 30
0.0
 10
-20.1614271676
 20
247.4800506123
 30
0.0
 10
-20.2214846855
 20
246.250390497
 30
0.0
 10
-20.2214846855
 20
245.3326765058
 30
0.0
  0
SPLINE
  5
2DF
100
AcDbEntity
  8
0
100
AcDbSpline
 62
7
  6
CONTINUOUS
 70
0
 71
3
 72
10
 73
6
 74
0
 42
0.0000001
 43
0.0000001
 44
0.0000000001
 40
0.0
 40
0.0
 40
0.0
 40
0.0
 40
0.5169864512
 40
0.7626600685
 40
1.0
 40
1.0
 40
1.0
 40
1.0
 10
-20.2214846855
 20
245.3326765058
 30
0.0
 10
-20.2214846855
 20
243.2403058038
 30
0.0
 10
-19.8757719108
 20
240.1305800116
 30
0.0
 10
-18.6336606472
 20
236.2689395785
 30
0.0
 10
-17.7749185034
 20
234.5030623282
 30
0.0
 10
-17.2897063357
 20
233.6740452946
 30
0.0
  0
SPLINE
  5
2E0
100
AcDbEntity
  8
0
100
AcDbSpline
 62
7
  6
CONTINUOUS
 70
0
 71
3
 72
11
 73
7
 74
0
 42
0.0000001
 43
0.0000001
 44
0.0000000001
 40
0.0
 40
0.0
 40
0.0
 40
0.0
 40
0.2654371783
 40
0.5203159609
 40
0.7647753693
 40
1.0
 40
1.0
 40
1.0
 40
1.0
 10
-22.6135202345
 20
249.4049348058
 30
0.0
 10
-22.6135202345
 20
248.328264025
 30
0.0
 10
-22.4731454828
 20
246.2143040614
 30
0.0
 10
-21.8160964098
 20
243.1705388723
 30
0.0
 10
-20.7295012478
 20
240.3822209182
 30
0.0
 10
-19.7146241268
 20
238.7075949493
 30
0.0
 10
-19.1455108124
 20
237.9417887856
 30
0.0
  0
SPLINE
  5
2E1
100
AcDbEntity
  8
0
100
AcDbSpline
 62
7
  6
CONTINUOUS
 70
0
 71
3
 72
11
 73
7
 74
0
 42
0.0000001
 43
0.0000001
 44
0.0000000001
 40
0.0
 40
0.0
 40
0.0
 40
0.0
 40
0.2574480825
 40
0.5087305987
 40
0.755511071
 40
1.0
 40
1.0
 40
1.0
 40
1.0
 10
21.3350778454
 20
212.0410032555
 30
0.0
 10
20.4916323779
 20
211.9966221508
 30
0.0
 10
18.8167679953
 20
212.0176213687
 30
0.0
 10
16.3586329277
 20
212.3943221412
 30
0.0
 10
14.0216546737
 20
213.1119696576
 30
0.0
 10
12.5625069419
 20
213.8132646282
 30
0.0
 10
11.8679345861
 20
214.2144241712
 30
0.0
  0
SPLINE
  5
2E2
100
AcDbEntity
  8
0
100
AcDbSpline
 62
7
  6
CONTINUOUS
 70
0
 71
3
 72
13
 73
9
 74
0
 42
0.0000001
 43
0.0000001
 44
0.0000000001
 40
0.0
 40
0.0
 40
0.0
 40
0.0
 40
0.245661
 40
0.3735600528
 40
0.5026925708
 40
0.6314522685
 40
0.7582632519
 40
1.0
 40
1.0
 40
1.0
 40
1.0
 10
48.4819887113
 20
244.2286436438
 30
0.0
 10
48.4819887113
 20
241.2157761443
 30
0.0
 10
47.747465901
 20
236.6092949487
 30
0.0
 10
45.5858062282
 20
230.8250803052
 30
0.0
 10
43.3583272926
 20
226.6340833505
 30
0.0
 10
40.611047348
 20
222.7798648412
 30
0.0
 10
36.4399944466
 20
218.3169326413
 30
0.0
 10
32.6781970077
 20
215.6566177982
 30
0.0
 10
30.0090632969
 20
214.3661126124
 30
0.0
  0
SPLINE
  5
2E3
100
AcDbEntity
  8
0
100
AcDbSpline
 62
7
  6
CONTINUOUS
 70
0
 71
3
 72
13
 73
9
 74
0
 42
0.0000001
 43
0.0000001
 44
0.0000000001
 40
0.0
 40
0.0
 40
0.0
 40
0.0
 40
0.274692903
 40
0.542207907
 40
0.6670905742
 40
0.784068139
 40
0.8940924654
 40
1.0
 40
1.0
 40
1.0
 40
1.0
 10
30.0090632969
 20
214.3661126124
 30
0.0
 10
29.7888780078
 20
213.5264410108
 30
0.0
 10
29.0329401595
 20
211.9417330071
 30
0.0
 10
27.480893414
 20
210.4348015785
 30
0.0
 10
26.0239017622
 20
209.7217742309
 30
0.0
 10
24.9258142043
 20
209.4799409364
 30
0.0
 10
23.8612891142
 20
209.5397962491
 30
0.0
 10
23.2110624344
 20
209.7872097468
 30
0.0
 10
22.9212726589
 20
209.9546389787
 30
0.0
  0
SPLINE
  5
2E4
100
AcDbEntity
  8
0
100
AcDbSpline
 62
7
  6
CONTINUOUS
 70
0
 71
3
 72
11
 73
7
 74
0
 42
0.0000001
 43
0.0000001
 44
0.0000000001
 40
0.0
 40
0.0
 40
0.0
 40
0.0
 40
0.2717439845
 40
0.52688753
 40
0.7676297984
 40
1.0
 40
1.0
 40
1.0
 40
1.0
 10
22.7795084882
 20
213.9418869897
 30
0.0
 10
22.7795084882
 20
213.702639881
 30
0.0
 10
22.8260762628
 20
213.2367984373
 30
0.0
 10
23.0487921272
 20
212.5914771274
 30
0.0
 10
23.4140127059
 20
212.0546071688
 30
0.0
 10
23.7444197533
 20
211.7888419096
 30
0.0
 10
23.9215664085
 20
211.6865051436
 30
0.0
  0
SPLINE
  5
2E5
100
AcDbEntity
  8
0
100
AcDbSpline
 62
7
  6
CONTINUOUS
 70
0
 71
3
 72
13
 73
9
 74
0
 42
0.0000001
 43
0.0000001
 44
0.0000000001
 40
0.0
 40
0.0
 40
0.0
 40
0.0
 40
0.2714319311
 40
0.526217362
 40
0.648228798
 40
0.7672664471
 40
0.8841851166
 40
1.0
 40
1.0
 40
1.0
 40
1.0
 10
4.7216566272
 20
232.4984467048
 30
0.0
 10
4.7216566272
 20
230.7654381524
 30
0.0
 10
5.0579005236
 20
227.3925086416
 30
0.0
 10
6.4249694758
 20
223.4369379795
 30
0.0
 10
8.0410103288
 20
220.7043078786
 30
0.0
 10
9.4724606975
 20
218.9122248537
 30
0.0
 10
11.1208460111
 20
217.3751955085
 30
0.0
 10
12.3529674041
 20
216.5326296588
 30
0.0
 10
12.9932818628
 20
216.1628027553
 30
0.0
  0
SPLINE
  5
2E6
100
AcDbEntity
  8
0
100
AcDbSpline
 62
7
  6
CONTINUOUS
 70
0
 71
3
 72
9
 73
5
 74
0
 42
0.0000001
 43
0.0000001
 44
0.0000000001
 40
0.0
 40
0.0
 40
0.0
 40
0.0
 40
0.748453333
 40
1.0
 40
1.0
 40
1.0
 40
1.0
 10
-4.4746181918
 20
216.3604107262
 30
0.0
 10
-4.752187676
 20
216.3734664243
 30
0.0
 10
-5.1270887451
 20
216.3467534629
 30
0.0
 10
-5.4891983426
 20
216.2642435772
 30
0.0
 10
-5.5794048095
 20
216.2400632392
 30
0.0
  0
SPLINE
  5
2E7
100
AcDbEntity
  8
0
100
AcDbSpline
 62
7
  6
CONTINUOUS
 70
0
 71
3
 72
11
 73
7
 74
0
 42
0.0000001
 43
0.0000001
 44
0.0000000001
 40
0.0
 40
0.0
 40
0.0
 40
0.0
 40
0.2346393861
 40
0.4787332272
 40
0.7337609286
 40
1.0
 40
1.0
 40
1.0
 40
1.0
 10
46.9787785445
 20
263.217098092
 30
0.0
 10
47.871399364
 20
262.1126117694
 30
0.0
 10
49.4682997133
 20
259.669654185
 30
0.0
 10
51.1808981455
 20
255.5483859892
 30
0.0
 10
52.217659046
 20
251.0134200239
 30
0.0
 10
52.4386024355
 20
247.852789985
 30
0.0
 10
52.4386024355
 20
246.2414490885
 30
0.0
  0
SPLINE
  5
2E8
100
AcDbEntity
  8
0
100
AcDbSpline
 62
7
  6
CONTINUOUS
 70
0
 71
3
 72
15
 73
11
 74
0
 42
0.0000001
 43
0.0000001
 44
0.0000000001
 40
0.0
 40
0.0
 40
0.0
 40
0.0
 40
0.1226793102
 40
0.2497804871
 40
0.3795759387
 40
0.5100271139
 40
0.6390304753
 40
0.7646372387
 40
0.8852762652
 40
1.0
 40
1.0
 40
1.0
 40
1.0
 10
52.4386024355
 20
246.2414490885
 30
0.0
 10
52.4386024355
 20
244.1680644341
 30
0.0
 10
52.0581989193
 20
239.9397407569
 30
0.0
 10
50.4576381385
 20
233.7021709377
 30
0.0
 10
47.8780555244
 20
227.6581612229
 30
0.0
 10
44.4164242088
 20
222.0355714818
 30
0.0
 10
40.2023094075
 20
217.04377099
 30
0.0
 10
35.3904149665
 20
212.8702626722
 30
0.0
 10
30.1606462187
 20
209.6737689295
 30
0.0
 10
26.4188509923
 20
208.2391688529
 30
0.0
 10
24.5460394923
 20
207.7371514623
 30
0.0
  0
SPLINE
  5
2E9
100
AcDbEntity
  8
0
100
AcDbSpline
 62
7
  6
CONTINUOUS
 70
0
 71
3
 72
9
 73
5
 74
0
 42
0.0000001
 43
0.0000001
 44
0.0000000001
 40
0.0
 40
0.0
 40
0.0
 40
0.0
 40
0.2461947976
 40
1.0
 40
1.0
 40
1.0
 40
1.0
 10
14.2899747974
 20
264.8693930768
 30
0.0
 10
14.2372267481
 20
264.2544386826
 30
0.0
 10
13.9603270688
 20
261.7622422613
 30
0.0
 10
13.438164837
 20
259.2983504289
 30
0.0
 10
12.9219233784
 20
257.4804328347
 30
0.0
  0
SPLINE
  5
2EA
100
AcDbEntity
  8
0
100
AcDbSpline
 62
7
  6
CONTINUOUS
 70
0
 71
3
 72
10
 73
6
 74
0
 42
0.0000001
 43
0.0000001
 44
0.0000000001
 40
0.0
 40
0.0
 40
0.0
 40
0.0
 40
0.5128582812
 40
0.7581768243
 40
1.0
 40
1.0
 40
1.0
 40
1.0
 10
-8.4558516125
 20
280.8785543343
 30
0.0
 10
-7.7940508584
 20
281.5463345378
 30
0.0
 10
-6.6967691243
 20
282.4310356932
 30
0.0
 10
-5.061168952
 20
283.2685597862
 30
0.0
 10
-4.2137566692
 20
283.5618203668
 30
0.0
 10
-3.7855639442
 20
283.6765906252
 30
0.0
  0
SPLINE
  5
2EB
100
AcDbEntity
  8
0
100
AcDbSpline
 62
7
  6
CONTINUOUS
 70
0
 71
3
 72
9
 73
5
 74
0
 42
0.0000001
 43
0.0000001
 44
0.0000000001
 40
0.0
 40
0.0
 40
0.0
 40
0.0
 40
0.5312871198
 40
1.0
 40
1.0
 40
1.0
 40
1.0
 10
2.5961576804
 20
280.0217847173
 30
0.0
 10
2.5138523575
 20
280.0693227433
 30
0.0
 10
2.3451178716
 20
280.1398076286
 30
0.0
 10
2.1593241178
 20
280.1366164701
 30
0.0
 10
2.0783293738
 20
280.1149100346
 30
0.0
  0
SPLINE
  5
2EC
100
AcDbEntity
  8
0
100
AcDbSpline
 62
7
  6
CONTINUOUS
 70
0
 71
3
 72
12
 73
8
 74
0
 42
0.0000001
 43
0.0000001
 44
0.0000000001
 40
0.0
 40
0.0
 40
0.0
 40
0.0
 40
0.2449237063
 40
0.3715032635
 40
0.4993249064
 40
0.7537705149
 40
1.0
 40
1.0
 40
1.0
 40
1.0
 10
-5.0354355684
 20
232.258880293
 30
0.0
 10
-5.1109693108
 20
235.4697488951
 30
0.0
 10
-4.5598451762
 20
240.3777197484
 30
0.0
 10
-2.6921874505
 20
246.6629671323
 30
0.0
 10
-0.0573410432
 20
252.808904041
 30
0.0
 10
4.474453605
 20
259.7814426693
 30
0.0
 10
9.2966609667
 20
264.3527965024
 30
0.0
 10
11.9151831718
 20
266.2419781815
 30
0.0
  0
SPLINE
  5
2ED
100
AcDbEntity
  8
0
100
AcDbSpline
 62
7
  6
CONTINUOUS
 70
0
 71
3
 72
9
 73
5
 74
0
 42
0.0000001
 43
0.0000001
 44
0.0000000001
 40
0.0
 40
0.0
 40
0.0
 40
0.0
 40
0.508318089
 40
1.0
 40
1.0
 40
1.0
 40
1.0
 10
33.1685152411
 20
269.8422282913
 30
0.0
 10
33.4610168942
 20
268.8271132818
 30
0.0
 10
34.1671291885
 20
266.8648562791
 30
0.0
 10
35.1449413672
 20
265.0212868518
 30
0.0
 10
35.691554817
 20
264.1579357408
 30
0.0
  0
SPLINE
  5
2EE
100
AcDbEntity
  8
0
100
AcDbSpline
 62
7
  6
CONTINUOUS
 70
0
 71
3
 72
11
 73
7
 74
0
 42
0.0000001
 43
0.0000001
 44
0.0000000001
 40
0.0
 40
0.0
 40
0.0
 40
0.0
 40
0.2355324193
 40
0.4801456634
 40
0.7349562773
 40
1.0
 40
1.0
 40
1.0
 40
1.0
 10
0.8626239917
 20
215.0347763386
 30
0.0
 10
-0.0617268265
 20
216.1574711793
 30
0.0
 10
-1.7249538817
 20
218.6362328932
 30
0.0
 10
-3.5457768792
 20
222.8161869624
 30
0.0
 10
-4.6976823393
 20
227.4135691548
 30
0.0
 10
-4.9969492108
 20
230.6228612982
 30
0.0
 10
-5.0354355684
 20
232.258880293
 30
0.0
  0
SPLINE
  5
2EF
100
AcDbEntity
  8
0
100
AcDbSpline
 62
7
  6
CONTINUOUS
 70
0
 71
3
 72
9
 73
5
 74
0
 42
0.0000001
 43
0.0000001
 44
0.0000000001
 40
0.0
 40
0.0
 40
0.0
 40
0.0
 40
0.2580835297
 40
1.0
 40
1.0
 40
1.0
 40
1.0
 10
5.1486447175
 20
284.3070518967
 30
0.0
 10
4.9116592088
 20
284.3796930153
 30
0.0
 10
3.9858835774
 20
284.6354370339
 30
0.0
 10
3.0289003619
 20
284.7827515414
 30
0.0
 10
2.3172381042
 20
284.8183407148
 30
0.0
  0
SPLINE
  5
2F0
100
AcDbEntity
  8
0
100
AcDbSpline
 62
7
  6
CONTINUOUS
 70
0
 71
3
 72
9
 73
5
 74
0
 42
0.0000001
 43
0.0000001
 44
0.0000000001
 40
0.0
 40
0.0
 40
0.0
 40
0.0
 40
0.244638102
 40
1.0
 40
1.0
 40
1.0
 40
1.0
 10
8.8076666641
 20
270.2342799691
 30
0.0
 10
8.8076666641
 20
269.6183259451
 30
0.0
 10
8.7252766369
 20
267.100887895
 30
0.0
 10
8.3222746556
 20
264.5963600205
 30
0.0
 10
7.8620960361
 20
262.7510093157
 30
0.0
  0
SPLINE
  5
2F1
100
AcDbEntity
  8
0
100
AcDbSpline
 62
7
  6
CONTINUOUS
 70
0
 71
3
 72
12
 73
8
 74
0
 42
0.0000001
 43
0.0000001
 44
0.0000000001
 40
0.0
 40
0.0
 40
0.0
 40
0.0
 40
0.1143141546
 40
0.2320076927
 40
0.4780753152
 40
0.7371598839
 40
1.0
 40
1.0
 40
1.0
 40
1.0
 10
-14.2784732986
 20
264.9814423798
 30
0.0
 10
-14.0054539858
 20
265.0546267035
 30
0.0
 10
-13.4667325407
 20
265.2678022286
 30
0.0
 10
-12.4798592999
 20
265.9319361834
 30
0.0
 10
-11.4958757779
 20
267.1700759673
 30
0.0
 10
-10.890760806
 20
269.0049564461
 30
0.0
 10
-10.9019610376
 20
270.3234481596
 30
0.0
 10
-11.0161486004
 20
270.9632476157
 30
0.0
  0
SPLINE
  5
2F2
100
AcDbEntity
  8
0
100
AcDbSpline
 62
7
  6
CONTINUOUS
 70
0
 71
3
 72
13
 73
9
 74
0
 42
0.0000001
 43
0.0000001
 44
0.0000000001
 40
0.0
 40
0.0
 40
0.0
 40
0.0
 40
0.1158157883
 40
0.2327342893
 40
0.3517715333
 40
0.4737832966
 40
0.7285664037
 40
1.0
 40
1.0
 40
1.0
 40
1.0
 10
11.8679345861
 20
214.2144241712
 30
0.0
 10
11.1707799586
 20
214.6170751398
 30
0.0
 10
9.8293000287
 20
215.5344411206
 30
0.0
 10
8.0346555616
 20
217.2079431668
 30
0.0
 10
6.4761323002
 20
219.1590624782
 30
0.0
 10
4.7166292657
 20
222.134201177
 30
0.0
 10
3.2282514954
 20
226.4408662289
 30
0.0
 10
2.862152431
 20
230.1131593729
 30
0.0
 10
2.862152431
 20
231.9999964099
 30
0.0
  0
SPLINE
  5
2F3
100
AcDbEntity
  8
0
100
AcDbSpline
 62
7
  6
CONTINUOUS
 70
0
 71
3
 72
9
 73
5
 74
0
 42
0.0000001
 43
0.0000001
 44
0.0000000001
 40
0.0
 40
0.0
 40
0.0
 40
0.0
 40
0.4896178141
 40
1.0
 40
1.0
 40
1.0
 40
1.0
 10
-4.0533817364
 20
224.8425310092
 30
0.0
 10
-5.9057783218
 20
226.9204489613
 30
0.0
 10
-9.0248761121
 20
231.7837931796
 30
0.0
 10
-10.7208199042
 20
237.2829079113
 30
0.0
 10
-11.2306557602
 20
240.1395476551
 30
0.0
  0
SPLINE
  5
2F4
100
AcDbEntity
  8
0
100
AcDbSpline
 62
7
  6
CONTINUOUS
 70
0
 71
3
 72
13
 73
9
 74
0
 42
0.0000001
 43
0.0000001
 44
0.0000000001
 40
0.0
 40
0.0
 40
0.0
 40
0.0
 40
0.1054436707
 40
0.215833518
 40
0.3342698815
 40
0.4612955632
 40
0.731291013
 40
1.0
 40
1.0
 40
1.0
 40
1.0
 10
23.9215664085
 20
211.6865051436
 30
0.0
 10
24.1259829475
 20
211.5684146975
 30
0.0
 10
24.5914941447
 20
211.4007736426
 30
0.0
 10
25.3518154301
 20
211.3951636542
 30
0.0
 10
26.1258374036
 20
211.6228489063
 30
0.0
 10
27.124973928
 20
212.2197988437
 30
0.0
 10
28.1150249458
 20
213.3916856795
 30
0.0
 10
28.4994592868
 20
214.5765354297
 30
0.0
 10
28.5509140712
 20
215.1759366524
 30
0.0
  0
SPLINE
  5
2F5
100
AcDbEntity
  8
0
100
AcDbSpline
 62
7
  6
CONTINUOUS
 70
0
 71
3
 72
17
 73
13
 74
0
 42
0.0000001
 43
0.0000001
 44
0.0000000001
 40
0.0
 40
0.0
 40
0.0
 40
0.0
 40
0.0394125775
 40
0.0811217338
 40
0.126880819
 40
0.1777298233
 40
0.2954028867
 40
0.4319333202
 40
0.5800819531
 40
0.7304383759
 40
0.8732244342
 40
1.0
 40
1.0
 40
1.0
 40
1.0
 10
2.0783293738
 20
280.1149100346
 30
0.0
 10
2.0278837052
 20
280.1013906925
 30
0.0
 10
1.9277174612
 20
280.0577326569
 30
0.0
 10
1.7966864834
 20
279.9495925144
 30
0.0
 10
1.6854181696
 20
279.8022036239
 30
0.0
 10
1.5597474085
 20
279.5461114778
 30
0.0
 10
1.4700499863
 20
279.1467731194
 30
0.0
 10
1.4622914245
 20
278.6111883218
 30
0.0
 10
1.5497748107
 20
278.0388936066
 30
0.0
 10
1.725391911
 20
277.4786635073
 30
0.0
 10
1.973837924
 20
276.9783083365
 30
0.0
 10
2.1908163482
 20
276.690158489
 30
0.0
 10
2.3091740732
 20
276.5709425502
 30
0.0
  0
SPLINE
  5
2F6
100
AcDbEntity
  8
0
100
AcDbSpline
 62
7
  6
CONTINUOUS
 70
0
 71
3
 72
9
 73
5
 74
0
 42
0.0000001
 43
0.0000001
 44
0.0000000001
 40
0.0
 40
0.0
 40
0.0
 40
0.0
 40
0.2668760426
 40
1.0
 40
1.0
 40
1.0
 40
1.0
 10
2.3091740732
 20
276.5709425502
 30
0.0
 10
2.3321236193
 20
276.5478265967
 30
0.0
 10
2.420443504
 20
276.4636351866
 30
0.0
 10
2.5186725085
 20
276.3892002599
 30
0.0
 10
2.5961576804
 20
276.3444462636
 30
0.0
  0
SPLINE
  5
2F7
100
AcDbEntity
  8
0
100
AcDbSpline
 62
7
  6
CONTINUOUS
 70
0
 71
3
 72
13
 73
9
 74
0
 42
0.0000001
 43
0.0000001
 44
0.0000000001
 40
0.0
 40
0.0
 40
0.0
 40
0.0
 40
0.1164107274
 40
0.234051279
 40
0.3539614352
 40
0.4769047712
 40
0.7322972383
 40
1.0
 40
1.0
 40
1.0
 40
1.0
 10
-4.9347803592
 20
199.0694623322
 30
0.0
 10
-5.2334656975
 20
199.0835184447
 30
0.0
 10
-5.8328184787
 20
199.1705378338
 30
0.0
 10
-6.6958794988
 20
199.4725608552
 30
0.0
 10
-7.5026399823
 20
199.9377809289
 30
0.0
 10
-8.4852717774
 20
200.7668204881
 30
0.0
 10
-9.4601800584
 20
202.1468908012
 30
0.0
 10
-9.8805232253
 20
203.4453867435
 30
0.0
 10
-10.0013380289
 20
204.1223190099
 30
0.0
  0
SPLINE
  5
2F8
100
AcDbEntity
  8
0
100
AcDbSpline
 62
7
  6
CONTINUOUS
 70
0
 71
3
 72
11
 73
7
 74
0
 42
0.0000001
 43
0.0000001
 44
0.0000000001
 40
0.0
 40
0.0
 40
0.0
 40
0.0
 40
0.2499038974
 40
0.5010075295
 40
0.7516187387
 40
1.0
 40
1.0
 40
1.0
 40
1.0
 10
-7.9853438382
 20
278.2422723183
 30
0.0
 10
-7.6906547481
 20
276.5911124628
 30
0.0
 10
-7.3135262521
 20
273.2383298388
 30
0.0
 10
-7.4130302805
 20
268.1812152674
 30
0.0
 10
-8.1552390651
 20
263.1877356482
 30
0.0
 10
-9.0983219836
 20
259.9610597475
 30
0.0
 10
-9.6754920574
 20
258.3971323162
 30
0.0
  0
SPLINE
  5
2F9
100
AcDbEntity
  8
0
100
AcDbSpline
 62
7
  6
CONTINUOUS
 70
0
 71
3
 72
11
 73
7
 74
0
 42
0.0000001
 43
0.0000001
 44
0.0000000001
 40
0.0
 40
0.0
 40
0.0
 40
0.0
 40
0.2432668573
 40
0.4893806767
 40
0.7409469418
 40
1.0
 40
1.0
 40
1.0
 40
1.0
 10
12.9932818628
 20
216.1628027553
 30
0.0
 10
13.7056799485
 20
215.7513424572
 30
0.0
 10
15.2120014514
 20
215.0437485348
 30
0.0
 10
17.6363079944
 20
214.3682412704
 30
0.0
 10
20.1901473349
 20
214.0853435579
 30
0.0
 10
21.9227678428
 20
214.1595699741
 30
0.0
 10
22.7932270711
 20
214.2585715776
 30
0.0
  0
SPLINE
  5
2FA
100
AcDbEntity
  8
0
100
AcDbSpline
 62
7
  6
CONTINUOUS
 70
0
 71
3
 72
20
 73
16
 74
0
 42
0.0000001
 43
0.0000001
 44
0.0000000001
 40
0.0
 40
0.0
 40
0.0
 40
0.0
 40
0.1300232861
 40
0.2656053788
 40
0.3343337003
 40
0.4028854753
 40
0.5371027382
 40
0.60202398
 40
0.6649316678
 40
0.725613496
 40
0.7840133879
 40
0.840253726
 40
0.8946460687
 40
0.9476824535
 40
1.0
 40
1.0
 40
1.0
 40
1.0
 10
2.862152431
 20
231.9999964099
 30
0.0
 10
2.862152431
 20
234.4135180216
 30
0.0
 10
3.4939109278
 20
239.3565513793
 30
0.0
 10
5.6271137453
 20
245.2351716031
 30
0.0
 10
8.0796938121
 20
249.6764639903
 30
0.0
 10
10.9692496935
 20
253.8135988817
 30
0.0
 10
14.4536278462
 20
257.4234763821
 30
0.0
 10
18.3913668888
 20
260.2947183487
 30
0.0
 10
21.4559680271
 20
262.0034032681
 30
0.0
 10
24.6044139913
 20
263.2555419859
 30
0.0
 10
27.7781563017
 20
264.0261505084
 30
0.0
 10
30.9169553079
 20
264.2981786948
 30
0.0
 10
33.9606186302
 20
264.0633570527
 30
0.0
 10
36.8476256624
 20
263.3240675147
 30
0.0
 10
38.6352470837
 20
262.4998915462
 30
0.0
 10
39.476202546
 20
262.0142089182
 30
0.0
  0
SPLINE
  5
2FB
100
AcDbEntity
  8
0
100
AcDbSpline
 62
7
  6
CONTINUOUS
 70
0
 71
3
 72
9
 73
5
 74
0
 42
0.0000001
 43
0.0000001
 44
0.0000000001
 40
0.0
 40
0.0
 40
0.0
 40
0.0
 40
0.4989546868
 40
1.0
 40
1.0
 40
1.0
 40
1.0
 10
-9.6754920574
 20
258.3971323162
 30
0.0
 10
-10.7398038635
 20
255.5132225228
 30
0.0
 10
-12.0601817479
 20
249.4093122431
 30
0.0
 10
-11.7730196849
 20
243.1784440463
 30
0.0
 10
-11.2306557602
 20
240.1395476551
 30
0.0
  0
SPLINE
  5
2FC
100
AcDbEntity
  8
0
100
AcDbSpline
 62
7
  6
CONTINUOUS
 70
0
 71
3
 72
13
 73
9
 74
0
 42
0.0000001
 43
0.0000001
 44
0.0000000001
 40
0.0
 40
0.0
 40
0.0
 40
0.0
 40
0.2398731579
 40
0.3664484843
 40
0.4953570736
 40
0.6249142241
 40
0.753377947
 40
1.0
 40
1.0
 40
1.0
 40
1.0
 10
28.5509140712
 20
215.8019511455
 30
0.0
 10
31.1286542532
 20
216.8907268709
 30
0.0
 10
34.7902697342
 20
219.2718733868
 30
0.0
 10
38.8622849072
 20
223.3853272269
 30
0.0
 10
41.5617766701
 20
226.9948609173
 30
0.0
 10
43.7574557981
 20
230.9558028816
 30
0.0
 10
45.8931545545
 20
236.4523284743
 30
0.0
 10
46.6224845151
 20
240.8532186235
 30
0.0
 10
46.6224845151
 20
243.7301933489
 30
0.0
  0
SPLINE
  5
2FD
100
AcDbEntity
  8
0
100
AcDbSpline
 62
7
  6
CONTINUOUS
 70
0
 71
3
 72
13
 73
9
 74
0
 42
0.0000001
 43
0.0000001
 44
0.0000000001
 40
0.0
 40
0.0
 40
0.0
 40
0.0
 40
0.2714323902
 40
0.526214124
 40
0.6482246317
 40
0.7672619907
 40
0.8841830741
 40
1.0
 40
1.0
 40
1.0
 40
1.0
 10
46.6224845151
 20
243.7301933489
 30
0.0
 10
46.6224845151
 20
245.4632047748
 30
0.0
 10
46.2862394828
 20
248.8361112131
 30
0.0
 10
44.9192080679
 20
252.7916667534
 30
0.0
 10
43.3031601771
 20
255.5242608129
 30
0.0
 10
41.8716890561
 20
257.316327569
 30
0.0
 10
40.223362142
 20
258.8534669704
 30
0.0
 10
38.9911731149
 20
259.6959833822
 30
0.0
 10
38.3508637057
 20
260.0658450521
 30
0.0
  0
SPLINE
  5
2FE
100
AcDbEntity
  8
0
100
AcDbSpline
 62
7
  6
CONTINUOUS
 70
0
 71
3
 72
11
 73
7
 74
0
 42
0.0000001
 43
0.0000001
 44
0.0000000001
 40
0.0
 40
0.0
 40
0.0
 40
0.0
 40
0.234528167
 40
0.4789299116
 40
0.7346579947
 40
1.0
 40
1.0
 40
1.0
 40
1.0
 10
-4.5265735151
 20
216.2428666362
 30
0.0
 10
-4.1538298997
 20
216.1253720254
 30
0.0
 10
-3.427413281
 20
215.7600166898
 30
0.0
 10
-2.5320872615
 20
214.9022012039
 30
0.0
 10
-1.8709263511
 20
213.7952807993
 30
0.0
 10
-1.6187823044
 20
212.9542131093
 30
0.0
 10
-1.5410936892
 20
212.5189193471
 30
0.0
  0
SPLINE
  5
2FF
100
AcDbEntity
  8
0
100
AcDbSpline
 62
7
  6
CONTINUOUS
 70
0
 71
3
 72
14
 73
10
 74
0
 42
0.0000001
 43
0.0000001
 44
0.0000000001
 40
0.0
 40
0.0
 40
0.0
 40
0.0
 40
0.2622909583
 40
0.393185238
 40
0.5218007329
 40
0.6470967759
 40
0.7684766562
 40
0.8859116878
 40
1.0
 40
1.0
 40
1.0
 40
1.0
 10
-22.527996653
 20
274.3099049724
 30
0.0
 10
-22.6764352779
 20
275.1416150922
 30
0.0
 10
-22.6872095172
 20
276.4388973275
 30
0.0
 10
-22.2870943822
 20
278.0767971783
 30
0.0
 10
-21.7914954472
 20
279.2202027833
 30
0.0
 10
-21.1182087488
 20
280.2321459773
 30
0.0
 10
-20.2914514025
 20
281.0746920484
 30
0.0
 10
-19.342198687
 20
281.7142121897
 30
0.0
 10
-18.6419276388
 20
281.9911046563
 30
0.0
 10
-18.2869745453
 20
282.0862517792
 30
0.0
  0
SPLINE
  5
300
100
AcDbEntity
  8
0
100
AcDbSpline
 62
7
  6
CONTINUOUS
 70
0
 71
3
 72
12
 73
8
 74
0
 42
0.0000001
 43
0.0000001
 44
0.0000000001
 40
0.0
 40
0.0
 40
0.0
 40
0.0
 40
0.2698905869
 40
0.5251560445
 40
0.7670813007
 40
0.8844031756
 40
1.0
 40
1.0
 40
1.0
 40
1.0
 10
1.7361213521
 20
232.6503710487
 30
0.0
 10
1.7361213521
 20
230.9766802694
 30
0.0
 10
2.0263044271
 20
227.7092525313
 30
0.0
 10
3.4006982854
 20
223.1196636026
 30
0.0
 10
5.3110582424
 20
219.7748554175
 30
0.0
 10
7.2337568322
 20
217.5356911798
 30
0.0
 10
8.31244609
 20
216.5674590367
 30
0.0
 10
8.8767345009
 20
216.1253452725
 30
0.0
  0
SPLINE
  5
301
100
AcDbEntity
  8
0
100
AcDbSpline
 62
7
  6
CONTINUOUS
 70
0
 71
3
 72
11
 73
7
 74
0
 42
0.0000001
 43
0.0000001
 44
0.0000000001
 40
0.0
 40
0.0
 40
0.0
 40
0.0
 40
0.251714641
 40
0.5069205347
 40
0.7584965801
 40
1.0
 40
1.0
 40
1.0
 40
1.0
 10
12.9219233784
 20
257.4804328347
 30
0.0
 10
11.2030021851
 20
255.8871600272
 30
0.0
 10
8.0731687856
 20
252.303481712
 30
0.0
 10
4.5318050579
 20
246.1433758109
 30
0.0
 10
2.2845705188
 20
239.5015907153
 30
0.0
 10
1.7361213521
 20
234.8990520064
 30
0.0
 10
1.7361213521
 20
232.6503710487
 30
0.0
  0
SPLINE
  5
302
100
AcDbEntity
  8
0
100
AcDbSpline
 62
7
  6
CONTINUOUS
 70
0
 71
3
 72
13
 73
9
 74
0
 42
0.0000001
 43
0.0000001
 44
0.0000000001
 40
0.0
 40
0.0
 40
0.0
 40
0.0
 40
0.2429150773
 40
0.3690778074
 40
0.4968400115
 40
0.6250282468
 40
0.7524430649
 40
1.0
 40
1.0
 40
1.0
 40
1.0
 10
-3.3465222557
 20
231.2879365008
 30
0.0
 10
-3.3465222557
 20
234.4671545253
 30
0.0
 10
-2.6782753913
 20
239.3186511218
 30
0.0
 10
-0.6774729196
 20
245.5141789321
 30
0.0
 10
1.398732231
 20
250.0768867681
 30
0.0
 10
3.9857452541
 20
254.3894305046
 30
0.0
 10
7.9945057537
 20
259.6243611554
 30
0.0
 10
11.6455240854
 20
262.9974199043
 30
0.0
 10
14.2899747974
 20
264.8693930768
 30
0.0
  0
SPLINE
  5
303
100
AcDbEntity
  8
0
100
AcDbSpline
 62
7
  6
CONTINUOUS
 70
0
 71
3
 72
11
 73
7
 74
0
 42
0.0000001
 43
0.0000001
 44
0.0000000001
 40
0.0
 40
0.0
 40
0.0
 40
0.0
 40
0.2346393656
 40
0.4787332756
 40
0.7337609669
 40
1.0
 40
1.0
 40
1.0
 40
1.0
 10
2.1132677399
 20
214.3123388844
 30
0.0
 10
1.2206581447
 20
215.4168279209
 30
0.0
 10
-0.3762463781
 20
217.8597699882
 30
0.0
 10
-2.0888243543
 20
221.9810322819
 30
0.0
 10
-3.125581129
 20
226.5159819263
 30
0.0
 10
-3.3465222557
 20
229.6766013057
 30
0.0
 10
-3.3465222557
 20
231.2879365008
 30
0.0
  0
SPLINE
  5
304
100
AcDbEntity
  8
0
100
AcDbSpline
 62
7
  6
CONTINUOUS
 70
0
 71
3
 72
9
 73
5
 74
0
 42
0.0000001
 43
0.0000001
 44
0.0000000001
 40
0.0
 40
0.0
 40
0.0
 40
0.0
 40
0.2398977809
 40
1.0
 40
1.0
 40
1.0
 40
1.0
 10
2.0964433028
 20
283.4618081906
 30
0.0
 10
2.1382624534
 20
283.4488202134
 30
0.0
 10
2.3108743053
 20
283.3892136626
 30
0.0
 10
2.4760131825
 20
283.308849095
 30
0.0
 10
2.5961576804
 20
283.2394558643
 30
0.0
  0
SPLINE
  5
305
100
AcDbEntity
  8
0
100
AcDbSpline
 62
7
  6
CONTINUOUS
 70
0
 71
3
 72
13
 73
9
 74
0
 42
0.0000001
 43
0.0000001
 44
0.0000000001
 40
0.0
 40
0.0
 40
0.0
 40
0.0
 40
0.0964972761
 40
0.2059979065
 40
0.3271903479
 40
0.4576031096
 40
0.7321189001
 40
1.0
 40
1.0
 40
1.0
 40
1.0
 10
2.5961576804
 20
283.2394558643
 30
0.0
 10
2.8129062789
 20
283.1142658992
 30
0.0
 10
3.2420601151
 20
282.7880446082
 30
0.0
 10
3.8169534422
 20
282.1595253811
 30
0.0
 10
4.3458443817
 20
281.3830378235
 30
0.0
 10
4.9737431134
 20
280.1683995441
 30
0.0
 10
5.5203215589
 20
278.4982281783
 30
0.0
 10
5.6927431472
 20
277.0894433912
 30
0.0
 10
5.6927431472
 20
276.3945852337
 30
0.0
  0
SPLINE
  5
306
100
AcDbEntity
  8
0
100
AcDbSpline
 62
7
  6
CONTINUOUS
 70
0
 71
3
 72
8
 73
4
 74
0
 42
0.0000001
 43
0.0000001
 44
0.0000000001
 40
0.0
 40
0.0
 40
0.0
 40
0.0
 40
1.0
 40
1.0
 40
1.0
 40
1.0
 10
2.8823331948
 20
276.2395486149
 30
0.0
 10
2.9199046264
 20
276.2339427462
 30
0.0
 10
2.9581730958
 20
276.2316954992
 30
0.0
 10
2.9961253344
 20
276.2333282355
 30
0.0
  0
SPLINE
  5
307
100
AcDbEntity
  8
0
100
AcDbSpline
 62
7
  6
CONTINUOUS
 70
0
 71
3
 72
12
 73
8
 74
0
 42
0.0000001
 43
0.0000001
 44
0.0000000001
 40
0.0
 40
0.0
 40
0.0
 40
0.0
 40
0.2628401161
 40
0.5219246848
 40
0.7679923073
 40
0.8856858454
 40
1.0
 40
1.0
 40
1.0
 40
1.0
 10
-11.9799758759
 20
271.0085743159
 30
0.0
 10
-11.8657883132
 20
270.3687748597
 30
0.0
 10
-11.8545880816
 20
269.0502831462
 30
0.0
 10
-12.4597030535
 20
267.2154026674
 30
0.0
 10
-13.4436865755
 20
265.9772628835
 30
0.0
 10
-14.4305598164
 20
265.3131289287
 30
0.0
 10
-14.9692812614
 20
265.0999534036
 30
0.0
 10
-15.2423005742
 20
265.0267690799
 30
0.0
  0
SPLINE
  5
308
100
AcDbEntity
  8
0
100
AcDbSpline
 62
7
  6
CONTINUOUS
 70
0
 71
3
 72
9
 73
5
 74
0
 42
0.0000001
 43
0.0000001
 44
0.0000000001
 40
0.0
 40
0.0
 40
0.0
 40
0.0
 40
0.2469843914
 40
1.0
 40
1.0
 40
1.0
 40
1.0
 10
30.5400045471
 20
266.9641204459
 30
0.0
 10
30.4528873351
 20
267.2241851569
 30
0.0
 10
30.1165583681
 20
268.2825851766
 30
0.0
 10
29.8452312925
 20
269.3614888941
 30
0.0
 10
29.6763371058
 20
270.1804544549
 30
0.0
  0
SPLINE
  5
309
100
AcDbEntity
  8
0
100
AcDbSpline
 62
7
  6
CONTINUOUS
 70
0
 71
3
 72
12
 73
8
 74
0
 42
0.0000001
 43
0.0000001
 44
0.0000000001
 40
0.0
 40
0.0
 40
0.0
 40
0.0
 40
0.2679717915
 40
0.5235996096
 40
0.7657264731
 40
0.8834729015
 40
1.0
 40
1.0
 40
1.0
 40
1.0
 10
-0.5772664136
 20
212.473592647
 30
0.0
 10
-0.6702050206
 20
212.9943329867
 30
0.0
 10
-0.9944707011
 20
213.9935932442
 30
0.0
 10
-1.8785995044
 20
215.2488840995
 30
0.0
 10
-2.8914810089
 20
215.970735232
 30
0.0
 10
-3.7837464355
 20
216.2825767577
 30
0.0
 10
-4.2448509529
 20
216.3496034441
 30
0.0
 10
-4.4746181918
 20
216.3604107262
 30
0.0
  0
SPLINE
  5
30A
100
AcDbEntity
  8
0
100
AcDbSpline
 62
7
  6
CONTINUOUS
 70
0
 71
3
 72
10
 73
6
 74
0
 42
0.0000001
 43
0.0000001
 44
0.0000000001
 40
0.0
 40
0.0
 40
0.0
 40
0.0
 40
0.2406348603
 40
0.485286952
 40
1.0
 40
1.0
 40
1.0
 40
1.0
 10
-3.7855639442
 20
283.6765906252
 30
0.0
 10
-3.3242589376
 20
283.8002361047
 30
0.0
 10
-2.3730315657
 20
283.9783305841
 30
0.0
 10
-0.3839579376
 20
284.0467990597
 30
0.0
 10
1.1208596959
 20
283.7647999405
 30
0.0
 10
2.0964433028
 20
283.4618081906
 30
0.0
  0
SPLINE
  5
30B
100
AcDbEntity
  8
0
100
AcDbSpline
 62
7
  6
CONTINUOUS
 70
0
 71
3
 72
9
 73
5
 74
0
 42
0.0000001
 43
0.0000001
 44
0.0000000001
 40
0.0
 40
0.0
 40
0.0
 40
0.0
 40
0.5097692724
 40
1.0
 40
1.0
 40
1.0
 40
1.0
 10
3.0244830725
 20
257.1803803228
 30
0.0
 10
3.8854423347
 20
259.3050232174
 30
0.0
 10
5.2086247626
 20
263.6320647273
 30
0.0
 10
5.6927431472
 20
268.1374722507
 30
0.0
 10
5.6927431472
 20
270.3420633009
 30
0.0
  0
SPLINE
  5
30C
100
AcDbEntity
  8
0
100
AcDbSpline
 62
7
  6
CONTINUOUS
 70
0
 71
3
 72
10
 73
6
 74
0
 42
0.0000001
 43
0.0000001
 44
0.0000000001
 40
0.0
 40
0.0
 40
0.0
 40
0.0
 40
0.2411468078
 40
0.4863296488
 40
1.0
 40
1.0
 40
1.0
 40
1.0
 10
22.9212726589
 20
209.9546389787
 30
0.0
 10
22.7350862383
 20
210.0622102322
 30
0.0
 10
22.3806734513
 20
210.3184079649
 30
0.0
 10
21.7734188135
 20
210.9773893639
 30
0.0
 10
21.4687505261
 20
211.6029089118
 30
0.0
 10
21.3350778454
 20
212.0410032555
 30
0.0
  0
ELLIPSE
  5
30D
100
AcDbEntity
  8
0
100
AcDbEllipse
 62
7
  6
CONTINUOUS
 10
-18.1863225781
 20
270.5146846182
 30
0.0
 11
-0.0210126995
 21
1.8213468032
 31
0.0
 40
0.8071250907
 41
3.6668152938
 42
4.8640038528
  0
ELLIPSE
  5
30E
100
AcDbEntity
  8
0
100
AcDbEllipse
 62
7
  6
CONTINUOUS
 10
-7.7675894485
 20
212.1379259716
 30
0.0
 11
-0.0205662231
 21
1.7826469519
 31
0.0
 40
0.8071250907
 41
3.7009877555
 42
4.8326839356
  0
ELLIPSE
  5
30F
100
AcDbEntity
  8
0
100
AcDbEllipse
 62
7
  6
CONTINUOUS
 10
-15.995961164
 20
269.2495725442
 30
0.0
 11
-0.0210126995
 21
1.8213468032
 31
0.0
 40
0.8071250907
 41
0.0
 42
6.2831853072
  0
ELLIPSE
  5
310
100
AcDbEntity
  8
0
100
AcDbEllipse
 62
7
  6
CONTINUOUS
 10
-5.5772280345
 20
210.8728138976
 30
0.0
 11
-0.0205662231
 21
1.7826469519
 31
0.0
 40
0.8071250907
 41
0.0
 42
6.2831853072
  0
ENDSEC
  0
SECTION
  2
OBJECTS
  0
DICTIONARY
  5
C
100
AcDbDictionary
280
0
281
1
  3
ACAD_GROUP
350
D
  3
ACAD_MLINESTYLE
350
17
  3
ACAD_LAYOUT
350
1A
  3
ACAD_PLOTSETTINGS
350
19
  3
ACAD_PLOTSTYLENAME
350
E
  0
DICTIONARY
  5
D
102
{ACAD_REACTORS
330
C
102
}
100
AcDbDictionary
280
0
281
1
  0
ACDBDICTIONARYWDFLT
  5
E
102
{ACAD_REACTORS
330
C
102
}
100
AcDbDictionary
281
1
  3
Normal
350
F
100
AcDbDictionaryWithDefault
340
F
  0
DICTIONARY
  5
17
102
{ACAD_REACTORS
330
C
102
}
100
AcDbDictionary
280
0
281
1
  3
Standard
350
18
  0
DICTIONARY
  5
19
102
{ACAD_REACTORS
330
C
102
}
100
AcDbDictionary
281
1
  0
DICTIONARY
  5
1A
102
{ACAD_REACTORS
330
C
102
}
100
AcDbDictionary
281
1
  3
Model
350
311
  3
Layout1
350
312
  0
ACDBPLACEHOLDER
  5
F
102
{ACAD_REACTORS
330
E
102
}
  0
MLINESTYLE
  5
18
102
{ACAD_REACTORS
330
17
102
}
100
AcDbMlineStyle
  2
STANDARD
 70
0
  3

 62
256
 51
90.0
 52
90.0
 71
2
 49
0.5
 62
256
  6
BYLAYER
 49
-0.5
 62
256
  6
BYLAYER
  0
LAYOUT
  5
311
102
{ACAD_REACTORS
330
1A
102
}
100
AcDbPlotSettings
  1

  2
none_device
  4
ANSI_C_(22.00_x_17.00_Inches)
  6

 40
0.0
 41
0.0
 42
0.0
 43
0.0
 44
558.8
 45
431.8
 46
0.0
 47
0.0
 48
0.0
 49
0.0
140
0.0
141
0.0
142
1.0
143
1.0
 70
1024
 72
1
 73
0
 74
0
  7

 75
0
147
1.0
148
0.0
149
0.0
100
AcDbLayout
  1
Model
 70
0
 71
0
 10
0.0
 20
0.0
 11
558.8
 21
431.8
 12
0.0
 22
0.0
 32
0.0
 14
0.0
 24
0.0
 34
0.0
 15
0.0
 25
0.0
 35
0.0
146
0.0
 13
0.0
 23
0.0
 33
0.0
 16
1.0
 26
0.0
 36
0.0
 17
0.0
 27
1.0
 37
0.0
 76
0
330
216
345
0
346
0
  0
LAYOUT
  5
312
102
{ACAD_REACTORS
330
1A
102
}
100
AcDbPlotSettings
  1

  2
none_device
  4
ANSI_C_(22.00_x_17.00_Inches)
  6

 40
0.0
 41
0.0
 42
0.0
 43
0.0
 44
558.8
 45
431.8
 46
0.0
 47
0.0
 48
0.0
 49
0.0
140
0.0
141
0.0
142
1.0
143
1.0
 70
0
 72
1
 73
0
 74
0
  7

 75
0
147
1.0
148
0.0
149
0.0
100
AcDbLayout
  1
Layout1
 70
0
 71
1
 10
0.0
 20
0.0
 11
558.8
 21
431.8
 12
0.0
 22
0.0
 32
0.0
 14
0.0
 24
0.0
 34
0.0
 15
0.0
 25
0.0
 35
0.0
146
0.0
 13
0.0
 23
0.0
 33
0.0
 16
1.0
 26
0.0
 36
0.0
 17
0.0
 27
1.0
 37
0.0
 76
0
330
217
345
0
346
0
  0
ENDSEC
  0
EOF
