999
DXF file: Y:\3D PRATIKA-KAEDRA_OLGA\TRAVAIL_PHASE_5\CAD3D\PKF16F435_3D-Simplified\pkf16f435_2d-isometric.dxf
999
Pro/ENGINEER 2018260 by Parametric Technology Corporation
  0
SECTION
  2
HEADER
  9
$ACADVER
  1
AC1027
  9
$DWGCODEPAGE
  3
ANSI_1252
  9
$EXTMAX
 10
558.8
 20
431.8
 30
0.0
  9
$EXTMIN
 10
0.0
 20
0.0
 30
0.0
  9
$LIMMIN
 10
0.0
 20
0.0
  9
$LIMMAX
 10
558.8
 20
431.8
  9
$VIEWCTR
 10
279.4
 20
215.9
  9
$VIEWSIZE
 40
431.8
  9
$CLAYER
  8
0
  9
$LTSCALE
 40
30.734
  9
$CELTYPE
  6
BYLAYER
  9
$DIMSCALE
 40
1.0
  9
$DIMASZ
 40
0.1875
  9
$DIMEXO
 40
0.0625
  9
$DIMDLI
 40
21.2344
  9
$DIMEXE
 40
0.125
  9
$DIMCEN
 40
5.0292
  9
$DIMLFAC
 40
1.0
  9
$DIMBLK
  1
_CLOSED
  9
$DIMALT
 70
0
  9
$DIMALTF
 40
0.0393700787
  9
$DIMTXT
 40
0.15625
  9
$DIMTOL
 70
0
  9
$DIMLIM
 70
0
  9
$DIMTFAC
 40
1.0
  9
$DIMGAP
 40
0.625
  9
$DIMDSEP
 70
46
  9
$AUNITS
 70
0
  9
$PDMODE
 70
3
  9
$PDSIZE
 40
0.3125
  9
$HANDSEED
  5
320
  9
$TILEMODE
 70
1
  9
$MEASUREMENT
 70
1
  9
$INSUNITS
 70
4
  0
ENDSEC
  0
SECTION
  2
CLASSES
  0
CLASS
  1
ACDBDICTIONARYWDFLT
  2
AcDbDictionaryWithDefault
  3
AutoCAD 2000
 90
0
 91
1
280
0
281
0
  0
CLASS
  1
ACDBPLACEHOLDER
  2
AcDbPlaceHolder
  3
AutoCAD 2000
 90
0
 91
1
280
0
281
0
  0
CLASS
  1
LAYOUT
  2
AcDbLayout
  3
AutoCAD 2000
 90
0
 91
0
280
0
281
0
  0
ENDSEC
  0
SECTION
  2
TABLES
  0
TABLE
  2
VPORT
  5
8
100
AcDbSymbolTable
 70
2
  0
VPORT
  5
1F4
100
AcDbSymbolTableRecord
100
AcDbViewportTableRecord
  2
*ACTIVE
 70
0
 10
0.0
 20
0.0
 11
1.0
 21
1.0
 12
279.4
 22
215.9
 13
0.0
 23
0.0
 14
1.0
 24
1.0
 15
0.0
 25
0.0
 16
0.0
 26
0.0
 36
1.0
 17
0.0
 27
0.0
 37
0.0
 40
431.8
 41
1.2941176471
 42
50.0
 43
0.0
 44
0.0
 50
0.0
 51
0.0
 71
0
 72
100
 73
1
 74
1
 75
0
 76
0
 77
0
 78
0
  0
ENDTAB
  0
TABLE
  2
LTYPE
  5
5
100
AcDbSymbolTable
 70
6
  0
LTYPE
  5
14
100
AcDbSymbolTableRecord
100
AcDbLinetypeTableRecord
  2
BYBLOCK
 70
0
  3

 72
65
 73
0
 40
0.0
  0
LTYPE
  5
15
100
AcDbSymbolTableRecord
100
AcDbLinetypeTableRecord
  2
BYLAYER
 70
0
  3

 72
65
 73
0
 40
0.0
  0
LTYPE
  5
16
100
AcDbSymbolTableRecord
100
AcDbLinetypeTableRecord
  2
CONTINUOUS
 70
64
  3
Solid line
 72
65
 73
0
 40
0.0
  0
LTYPE
  5
1F5
100
AcDbSymbolTableRecord
100
AcDbLinetypeTableRecord
  2
CENTER
 70
64
  3
____ _ ____ _ ____ _ ____ _ ____ _ ____ _ ____
 72
65
 73
4
 40
0.6
 49
0.375
 74
0
 49
-0.075
 74
0
 49
0.075
 74
0
 49
-0.075
 74
0
  0
LTYPE
  5
1F6
100
AcDbSymbolTableRecord
100
AcDbLinetypeTableRecord
  2
HIDDEN
 70
64
  3
- - - - - - - - - - - - - - - - - - - -
 72
65
 73
2
 40
0.2
 49
0.1
 74
0
 49
-0.1
 74
0
  0
LTYPE
  5
1F7
100
AcDbSymbolTableRecord
100
AcDbLinetypeTableRecord
  2
PHANTOM
 70
64
  3
_____ _ _ _____ _ _ _____ _ _ _____
 72
65
 73
6
 40
0.8
 49
0.45
 74
0
 49
-0.05
 74
0
 49
0.1
 74
0
 49
-0.05
 74
0
 49
0.1
 74
0
 49
-0.05
 74
0
  0
LTYPE
  5
1F8
100
AcDbSymbolTableRecord
100
AcDbLinetypeTableRecord
  2
DOT
 70
64
  3
. . . . . . . . . . . . . . . . . . . .
 72
65
 73
2
 40
0.2
 49
0.1
 74
0
 49
-0.1
 74
0
  0
LTYPE
  5
1F9
100
AcDbSymbolTableRecord
100
AcDbLinetypeTableRecord
  2
DASHED
 70
64
  3
- - - - - - - - - - - - - - - - - - - -
 72
65
 73
2
 40
0.2
 49
0.1
 74
0
 49
-0.1
 74
0
  0
ENDTAB
  0
TABLE
  2
LAYER
  5
2
100
AcDbSymbolTable
 70
36
  0
LAYER
  5
10
100
AcDbSymbolTableRecord
100
AcDbLayerTableRecord
  2
0
 70
0
 62
7
  6
CONTINUOUS
370
-3
390
F
  0
LAYER
  5
1FA
100
AcDbSymbolTableRecord
100
AcDbLayerTableRecord
  2
DEFAULT_1
 70
0
 62
7
  6
CENTER
370
-3
390
F
  0
LAYER
  5
1FB
100
AcDbSymbolTableRecord
100
AcDbLayerTableRecord
  2
DEFAULT_2
 70
0
 62
8
  6
HIDDEN
370
-3
390
F
  0
LAYER
  5
1FC
100
AcDbSymbolTableRecord
100
AcDbLayerTableRecord
  2
DEFAULT_3
 70
0
 62
7
  6
PHANTOM
370
-3
390
F
  0
LAYER
  5
1FD
100
AcDbSymbolTableRecord
100
AcDbLayerTableRecord
  2
01_ALL_DTM_PLN
 70
0
 62
7
  6
CONTINUOUS
370
-3
390
F
  0
LAYER
  5
1FE
100
AcDbSymbolTableRecord
100
AcDbLayerTableRecord
  2
01__ASM_ALL_DTM_PLN
 70
0
 62
7
  6
CONTINUOUS
370
-3
390
F
  0
LAYER
  5
1FF
100
AcDbSymbolTableRecord
100
AcDbLayerTableRecord
  2
01__ASM_DEF_DTM_PLN
 70
0
 62
7
  6
CONTINUOUS
370
-3
390
F
  0
LAYER
  5
200
100
AcDbSymbolTableRecord
100
AcDbLayerTableRecord
  2
01___PRT_ALL_DTM_PLN
 70
0
 62
7
  6
CONTINUOUS
370
-3
390
F
  0
LAYER
  5
201
100
AcDbSymbolTableRecord
100
AcDbLayerTableRecord
  2
01___PRT_DEF_DTM_PLN
 70
0
 62
7
  6
CONTINUOUS
370
-3
390
F
  0
LAYER
  5
202
100
AcDbSymbolTableRecord
100
AcDbLayerTableRecord
  2
02_ALL_AXES
 70
0
 62
7
  6
CONTINUOUS
370
-3
390
F
  0
LAYER
  5
203
100
AcDbSymbolTableRecord
100
AcDbLayerTableRecord
  2
02__ASM_ALL_AXES
 70
0
 62
7
  6
CONTINUOUS
370
-3
390
F
  0
LAYER
  5
204
100
AcDbSymbolTableRecord
100
AcDbLayerTableRecord
  2
02___PRT_ALL_AXES
 70
0
 62
7
  6
CONTINUOUS
370
-3
390
F
  0
LAYER
  5
205
100
AcDbSymbolTableRecord
100
AcDbLayerTableRecord
  2
03_ALL_CURVES
 70
0
 62
7
  6
CONTINUOUS
370
-3
390
F
  0
LAYER
  5
206
100
AcDbSymbolTableRecord
100
AcDbLayerTableRecord
  2
03__ASM_ALL_CURVES
 70
0
 62
7
  6
CONTINUOUS
370
-3
390
F
  0
LAYER
  5
207
100
AcDbSymbolTableRecord
100
AcDbLayerTableRecord
  2
03___PRT_ALL_CURVES
 70
0
 62
7
  6
CONTINUOUS
370
-3
390
F
  0
LAYER
  5
208
100
AcDbSymbolTableRecord
100
AcDbLayerTableRecord
  2
04_ALL_DTM_PNT
 70
0
 62
7
  6
CONTINUOUS
370
-3
390
F
  0
LAYER
  5
209
100
AcDbSymbolTableRecord
100
AcDbLayerTableRecord
  2
04__ASM_ALL_DTM_PNT
 70
0
 62
7
  6
CONTINUOUS
370
-3
390
F
  0
LAYER
  5
20A
100
AcDbSymbolTableRecord
100
AcDbLayerTableRecord
  2
04___PRT_ALL_DTM_PNT
 70
0
 62
7
  6
CONTINUOUS
370
-3
390
F
  0
LAYER
  5
20B
100
AcDbSymbolTableRecord
100
AcDbLayerTableRecord
  2
05_ALL_DTM_CSYS
 70
0
 62
7
  6
CONTINUOUS
370
-3
390
F
  0
LAYER
  5
20C
100
AcDbSymbolTableRecord
100
AcDbLayerTableRecord
  2
05__ASM_ALL_DTM_CSYS
 70
0
 62
7
  6
CONTINUOUS
370
-3
390
F
  0
LAYER
  5
20D
100
AcDbSymbolTableRecord
100
AcDbLayerTableRecord
  2
05__ASM_DEF_DTM_CSYS
 70
0
 62
7
  6
CONTINUOUS
370
-3
390
F
  0
LAYER
  5
20E
100
AcDbSymbolTableRecord
100
AcDbLayerTableRecord
  2
05___PRT_ALL_DTM_CSYS
 70
0
 62
7
  6
CONTINUOUS
370
-3
390
F
  0
LAYER
  5
20F
100
AcDbSymbolTableRecord
100
AcDbLayerTableRecord
  2
05___PRT_DEF_DTM_CSYS
 70
0
 62
7
  6
CONTINUOUS
370
-3
390
F
  0
LAYER
  5
210
100
AcDbSymbolTableRecord
100
AcDbLayerTableRecord
  2
06_ALL_SURFS
 70
0
 62
7
  6
CONTINUOUS
370
-3
390
F
  0
LAYER
  5
211
100
AcDbSymbolTableRecord
100
AcDbLayerTableRecord
  2
06__ASM_ALL_SURFS
 70
0
 62
7
  6
CONTINUOUS
370
-3
390
F
  0
LAYER
  5
212
100
AcDbSymbolTableRecord
100
AcDbLayerTableRecord
  2
06___PRT_ALL_SURFS
 70
0
 62
7
  6
CONTINUOUS
370
-3
390
F
  0
LAYER
  5
213
100
AcDbSymbolTableRecord
100
AcDbLayerTableRecord
  2
07__ASM_ALL_SKELETONS
 70
0
 62
7
  6
CONTINUOUS
370
-3
390
F
  0
ENDTAB
  0
TABLE
  2
STYLE
  5
3
100
AcDbSymbolTable
 70
1
  0
STYLE
  5
11
100
AcDbSymbolTableRecord
100
AcDbTextStyleTableRecord
  2
STANDARD
 70
0
 40
0.0
 41
0.8
 50
0.0
 71
0
 42
0.2
  3
txt
  4

  0
STYLE
  5
214
100
AcDbSymbolTableRecord
100
AcDbTextStyleTableRecord
  2
TEXTSTYLE_1
 70
0
 40
0.0
 41
0.8
 50
0.0
 71
0
 42
0.2
  3
gdt
  4

  0
ENDTAB
  0
TABLE
  2
VIEW
  5
6
100
AcDbSymbolTable
 70
0
  0
ENDTAB
  0
TABLE
  2
UCS
  5
7
100
AcDbSymbolTable
 70
0
  0
ENDTAB
  0
TABLE
  2
APPID
  5
9
100
AcDbSymbolTable
 70
1
  0
APPID
  5
215
100
AcDbSymbolTableRecord
100
AcDbRegAppTableRecord
  2
ACAD
 70
0
  0
ENDTAB
  0
TABLE
  2
BLOCK_RECORD
  5
1
100
AcDbSymbolTable
 70
0
  0
BLOCK_RECORD
  5
216
100
AcDbSymbolTableRecord
100
AcDbBlockTableRecord
  2
*Model_Space
  0
BLOCK_RECORD
  5
217
100
AcDbSymbolTableRecord
100
AcDbBlockTableRecord
  2
*Paper_Space
  0
BLOCK_RECORD
  5
218
100
AcDbSymbolTableRecord
100
AcDbBlockTableRecord
  2
_CLOSED
  0
ENDTAB
  0
TABLE
  2
DIMSTYLE
  5
A
100
AcDbSymbolTable
 70
1
100
AcDbDimStyleTable
 71
0
  0
DIMSTYLE
105
219
100
AcDbSymbolTableRecord
100
AcDbDimStyleTableRecord
  2
STANDARD
 70
0
  3

  4

 40
1.0
 41
0.1875
 42
0.0625
 43
0.38
 44
0.125
 45
0.0
 46
0.0
 47
0.01
 48
0.01
140
0.15625
141
0.09
142
0.0
143
25.4
144
1.0
145
0.0
146
1.0
147
0.625
 71
0.0
 72
0.0
 73
1
 74
1
 75
0
 76
0
 77
0
 78
8
 79
2
170
0
171
1
172
0
173
0
174
0
175
0
176
0
177
0
178
0
270
2
179
2
271
2
272
2
273
2
274
2
275
0
280
0
281
0
282
0
283
1
284
8
285
0
286
0
287
3
288
0
340
11
278
46
341
218
342
218
343
218
344
218
  0
ENDTAB
  0
ENDSEC
  0
SECTION
  2
BLOCKS
  0
BLOCK
  5
20
100
AcDbEntity
  8
0
100
AcDbBlockBegin
  2
*Model_Space
 70
0
 10
0.0
 20
0.0
 30
0.0
  3
*Model_Space
  1

  0
ENDBLK
  5
21
100
AcDbEntity
  8
0
100
AcDbBlockEnd
  0
BLOCK
  5
1C
100
AcDbEntity
  8
0
100
AcDbBlockBegin
  2
*Paper_Space
 70
0
 10
0.0
 20
0.0
 30
0.0
  3
*Paper_Space
  1

  0
ENDBLK
  5
1D
100
AcDbEntity
  8
0
100
AcDbBlockEnd
  0
BLOCK
  5
21A
100
AcDbEntity
  8
0
100
AcDbBlockBegin
  2
_CLOSED
 70
64
 10
0.0
 20
0.0
  3
_CLOSED
  1

  0
LINE
  5
21B
100
AcDbEntity
  8
0
  6
BYBLOCK
 62
0
100
AcDbLine
 10
0.0
 20
0.0
 11
-1.0
 21
0.1666666667
  0
LINE
  5
21C
100
AcDbEntity
  8
0
  6
BYBLOCK
 62
0
100
AcDbLine
 10
-1.0
 20
0.1666666667
 11
-1.0
 21
-0.1666666667
  0
LINE
  5
21D
100
AcDbEntity
  8
0
  6
BYBLOCK
 62
0
100
AcDbLine
 10
-1.0
 20
-0.1666666667
 11
0.0
 21
0.0
  0
LINE
  5
21E
100
AcDbEntity
  8
0
  6
BYBLOCK
 62
0
100
AcDbLine
 10
-1.0
 20
0.0
 11
0.0
 21
0.0
  0
ENDBLK
  5
21F
100
AcDbEntity
  8
0
  6
BYBLOCK
 62
0
100
AcDbBlockEnd
  0
ENDSEC
  0
SECTION
  2
ENTITIES
  0
LINE
  5
220
100
AcDbEntity
  8
0
100
AcDbLine
 62
7
  6
CONTINUOUS
 10
-9.0718648785
 20
192.6169504017
 11
46.300037853
 21
207.4596925153
  0
LINE
  5
221
100
AcDbEntity
  8
0
100
AcDbLine
 62
7
  6
CONTINUOUS
 10
-13.1808395125
 20
191.7685887943
 11
-9.8750542749
 21
192.6547226518
  0
LINE
  5
222
100
AcDbEntity
  8
0
100
AcDbLine
 62
7
  6
CONTINUOUS
 10
46.2569333205
 20
207.7012096805
 11
48.8026336944
 21
208.3835986229
  0
LINE
  5
223
100
AcDbEntity
  8
0
100
AcDbLine
 62
7
  6
CONTINUOUS
 10
6.8695786902
 20
284.3318052643
 11
6.5647185604
 21
284.0215504691
  0
LINE
  5
224
100
AcDbEntity
  8
0
100
AcDbLine
 62
7
  6
CONTINUOUS
 10
53.6294032892
 20
222.1926721409
 11
48.2575022781
 21
220.7527046224
  0
LINE
  5
225
100
AcDbEntity
  8
0
100
AcDbLine
 62
7
  6
CONTINUOUS
 10
-20.7507645592
 20
202.2546603465
 11
-15.3788635479
 21
203.694627865
  0
LINE
  5
226
100
AcDbEntity
  8
0
100
AcDbLine
 62
7
  6
CONTINUOUS
 10
-17.2475872776
 20
191.7013922455
 11
-14.8380190886
 21
191.5880754952
  0
LINE
  5
227
100
AcDbEntity
  8
0
100
AcDbLine
 62
7
  6
CONTINUOUS
 10
-9.0718648785
 20
192.6169504017
 11
-9.8750542749
 21
192.6547226518
  0
LINE
  5
228
100
AcDbEntity
  8
0
100
AcDbLine
 62
7
  6
CONTINUOUS
 10
-23.0936152956
 20
197.5316114329
 11
-20.6840471066
 21
197.4182946825
  0
LINE
  5
229
100
AcDbEntity
  8
0
100
AcDbLine
 62
7
  6
CONTINUOUS
 10
-10.3767251519
 20
199.9281572728
 11
-11.1799145482
 21
199.9659295229
  0
LINE
  5
22A
100
AcDbEntity
  8
0
100
AcDbLine
 62
7
  6
CONTINUOUS
 10
-20.7507645592
 20
202.2546603465
 11
-21.5539539555
 21
202.2924325966
  0
LINE
  5
22B
100
AcDbEntity
  8
0
100
AcDbLine
 62
7
  6
CONTINUOUS
 10
-1.6289637849
 20
215.7677131583
 11
5.6040699731
 21
217.7065675135
  0
LINE
  5
22C
100
AcDbEntity
  8
0
100
AcDbLine
 62
7
  6
CONTINUOUS
 10
-23.0936152956
 20
197.5316114329
 11
-37.8820317269
 21
280.391955972
  0
LINE
  5
22D
100
AcDbEntity
  8
0
100
AcDbLine
 62
7
  6
CONTINUOUS
 10
-35.4724635379
 20
280.2786392216
 11
-34.602556689
 21
275.4045013076
  0
LINE
  5
22E
100
AcDbEntity
  8
0
100
AcDbLine
 62
7
  6
CONTINUOUS
 10
-21.5539539555
 20
202.2924325966
 11
-20.6840471066
 21
197.4182946825
  0
LINE
  5
22F
100
AcDbEntity
  8
0
100
AcDbLine
 62
7
  6
CONTINUOUS
 10
-33.7993672927
 20
275.3667290575
 11
-20.7507645592
 21
202.2546603465
  0
LINE
  5
230
100
AcDbEntity
  8
0
100
AcDbLine
 62
7
  6
CONTINUOUS
 10
1.2215819129
 20
293.8840121568
 11
1.3866460273
 21
294.7671712021
  0
LINE
  5
231
100
AcDbEntity
  8
0
100
AcDbLine
 62
7
  6
CONTINUOUS
 10
2.2552506081
 20
299.4145531924
 11
3.7409279305
 21
307.3635212085
  0
LINE
  5
232
100
AcDbEntity
  8
0
100
AcDbLine
 62
7
  6
CONTINUOUS
 10
47.9556449696
 20
271.19387984
 11
40.8193789043
 21
269.2809645954
  0
LINE
  5
233
100
AcDbEntity
  8
0
100
AcDbLine
 62
7
  6
CONTINUOUS
 10
46.7078867413
 20
271.9145285582
 11
39.6781847424
 21
270.0301537176
  0
LINE
  5
234
100
AcDbEntity
  8
0
100
AcDbLine
 62
7
  6
CONTINUOUS
 10
23.1633645542
 20
208.7759212652
 11
20.7471071503
 21
210.170643549
  0
LINE
  5
235
100
AcDbEntity
  8
0
100
AcDbLine
 62
7
  6
CONTINUOUS
 10
-2.876520698
 20
216.4883380801
 11
-1.6289637849
 21
215.7677131583
  0
LINE
  5
236
100
AcDbEntity
  8
0
100
AcDbLine
 62
7
  6
CONTINUOUS
 10
8.6597043925
 20
215.7698434464
 11
5.4008546539
 21
217.652094533
  0
LINE
  5
237
100
AcDbEntity
  8
0
100
AcDbLine
 62
7
  6
CONTINUOUS
 10
17.2440754988
 20
213.3818477784
 11
21.5385699748
 21
210.9014275252
  0
LINE
  5
238
100
AcDbEntity
  8
0
100
AcDbLine
 62
7
  6
CONTINUOUS
 10
-9.8750542749
 20
192.6547226518
 11
-11.1799145482
 21
199.9659295229
  0
LINE
  5
239
100
AcDbEntity
  8
0
100
AcDbLine
 62
7
  6
CONTINUOUS
 10
-25.9683309795
 20
282.826274062
 11
-27.2731912528
 21
290.1374809331
  0
LINE
  5
23A
100
AcDbEntity
  8
0
100
AcDbLine
 62
7
  6
CONTINUOUS
 10
-26.4700018565
 20
290.099708683
 11
-25.1651415832
 21
282.7885018119
  0
LINE
  5
23B
100
AcDbEntity
  8
0
100
AcDbLine
 62
7
  6
CONTINUOUS
 10
-9.0718648785
 20
192.6169504017
 11
-10.3767251519
 21
199.9281572728
  0
LINE
  5
23C
100
AcDbEntity
  8
0
100
AcDbLine
 62
7
  6
CONTINUOUS
 10
58.1323155073
 20
275.8036358354
 11
53.5868608055
 21
274.5852017813
  0
LINE
  5
23D
100
AcDbEntity
  8
0
100
AcDbLine
 62
7
  6
CONTINUOUS
 10
2.3767326091
 20
226.7601268538
 11
21.3968335501
 21
215.7744697861
  0
LINE
  5
23E
100
AcDbEntity
  8
0
100
AcDbLine
 62
7
  6
CONTINUOUS
 10
13.3489584195
 20
222.5886505239
 11
1.4110769736
 21
229.4837491402
  0
LINE
  5
23F
100
AcDbEntity
  8
0
100
AcDbLine
 62
7
  6
CONTINUOUS
 10
19.8588385761
 20
220.8070553863
 11
27.1819577161
 21
216.5773577739
  0
LINE
  5
240
100
AcDbEntity
  8
0
100
AcDbLine
 62
7
  6
CONTINUOUS
 10
27.1819577161
 20
217.3252040368
 11
21.1232201101
 21
220.8246183569
  0
LINE
  5
241
100
AcDbEntity
  8
0
100
AcDbLine
 62
7
  6
CONTINUOUS
 10
3.4655449
 20
285.5056465765
 11
3.4655449
 21
279.0800037246
  0
LINE
  5
242
100
AcDbEntity
  8
0
100
AcDbLine
 62
7
  6
CONTINUOUS
 10
6.5647185604
 20
279.9107355623
 11
6.5647185604
 21
284.521499852
  0
LINE
  5
243
100
AcDbEntity
  8
0
100
AcDbLine
 62
7
  6
CONTINUOUS
 10
7.2062143375
 20
283.4327701719
 11
6.5647185604
 21
283.2608137118
  0
LINE
  5
244
100
AcDbEntity
  8
0
100
AcDbLine
 62
7
  6
CONTINUOUS
 10
-10.8212787858
 20
287.3318077548
 11
-11.30180711
 21
290.0242354864
  0
LINE
  5
245
100
AcDbEntity
  8
0
100
AcDbLine
 62
7
  6
CONTINUOUS
 10
6.5647185604
 20
283.5082833229
 11
7.7027928798
 21
283.8133503839
  0
LINE
  5
246
100
AcDbEntity
  8
0
100
AcDbLine
 62
7
  6
CONTINUOUS
 10
-33.7993672927
 20
275.3667290575
 11
-28.4274662815
 21
276.8066965759
  0
LINE
  5
247
100
AcDbEntity
  8
0
100
AcDbLine
 62
7
  6
CONTINUOUS
 10
4.7903554606
 20
285.8607693108
 11
3.4655449
 21
285.5056465765
  0
LINE
  5
248
100
AcDbEntity
  8
0
100
AcDbLine
 62
7
  6
CONTINUOUS
 10
-34.602556689
 20
275.4045013076
 11
-29.2306556777
 21
276.844468826
  0
LINE
  5
249
100
AcDbEntity
  8
0
100
AcDbLine
 62
7
  6
CONTINUOUS
 10
-0.0391303578
 20
292.542121162
 11
1.2846423518
 21
292.8969656946
  0
LINE
  5
24A
100
AcDbEntity
  8
0
100
AcDbLine
 62
7
  6
CONTINUOUS
 10
-33.7993672927
 20
275.3667290575
 11
-34.602556689
 21
275.4045013076
  0
LINE
  5
24B
100
AcDbEntity
  8
0
100
AcDbLine
 62
7
  6
CONTINUOUS
 10
-28.4274662814
 20
276.8066965759
 11
-29.2306556777
 21
276.844468826
  0
LINE
  5
24C
100
AcDbEntity
  8
0
100
AcDbLine
 62
7
  6
CONTINUOUS
 10
-2.1359257552
 20
261.8433497721
 11
-13.2916729899
 21
268.2867021935
  0
LINE
  5
24D
100
AcDbEntity
  8
0
100
AcDbLine
 62
7
  6
CONTINUOUS
 10
21.3968335501
 20
215.7744697861
 11
21.3968335501
 21
215.0266235232
  0
LINE
  5
24E
100
AcDbEntity
  8
0
100
AcDbLine
 62
7
  6
CONTINUOUS
 10
23.1633645542
 20
210.4776303653
 11
23.1633645542
 21
208.7759212652
  0
LINE
  5
24F
100
AcDbEntity
  8
0
100
AcDbLine
 62
7
  6
CONTINUOUS
 10
27.1819577161
 20
216.5773577739
 11
27.1819577161
 21
217.3252040368
  0
LINE
  5
250
100
AcDbEntity
  8
0
100
AcDbLine
 62
7
  6
CONTINUOUS
 10
20.7471071503
 20
210.170643549
 11
20.7720099674
 21
211.3441783492
  0
LINE
  5
251
100
AcDbEntity
  8
0
100
AcDbLine
 62
7
  6
CONTINUOUS
 10
1.3155414458
 20
294.386733246
 11
0.090039857
 21
294.0582308261
  0
LINE
  5
252
100
AcDbEntity
  8
0
100
AcDbLine
 62
7
  6
CONTINUOUS
 10
1.4290296606
 20
295.0791668062
 11
-6.5042144546
 21
292.9526172257
  0
LINE
  5
253
100
AcDbEntity
  8
0
100
AcDbLine
 62
7
  6
CONTINUOUS
 10
-26.4700018565
 20
290.099708683
 11
1.8496760395
 21
297.6909536107
  0
LINE
  5
254
100
AcDbEntity
  8
0
100
AcDbLine
 62
7
  6
CONTINUOUS
 10
-27.2731912528
 20
290.1374809331
 11
-30.5789764906
 21
289.2513470756
  0
LINE
  5
255
100
AcDbEntity
  8
0
100
AcDbLine
 62
7
  6
CONTINUOUS
 10
-32.9885446796
 20
289.3646638259
 11
2.0963446244
 21
298.769360763
  0
LINE
  5
256
100
AcDbEntity
  8
0
100
AcDbLine
 62
7
  6
CONTINUOUS
 10
-35.4724635379
 20
280.2786392216
 11
-37.8820317269
 21
280.391955972
  0
LINE
  5
257
100
AcDbEntity
  8
0
100
AcDbLine
 62
7
  6
CONTINUOUS
 10
-25.9683309795
 20
282.826274062
 11
-25.1651415832
 21
282.7885018119
  0
LINE
  5
258
100
AcDbEntity
  8
0
100
AcDbLine
 62
7
  6
CONTINUOUS
 10
30.5102853032
 20
313.2575347611
 11
29.3275809588
 21
312.9405043771
  0
LINE
  5
259
100
AcDbEntity
  8
0
100
AcDbLine
 62
7
  6
CONTINUOUS
 10
11.8582782214
 20
308.2577619998
 11
10.675573877
 21
307.9407316159
  0
LINE
  5
25A
100
AcDbEntity
  8
0
100
AcDbLine
 62
7
  6
CONTINUOUS
 10
5.9421787012
 20
309.4013230323
 11
25.7768901275
 21
314.7181261774
  0
LINE
  5
25B
100
AcDbEntity
  8
0
100
AcDbLine
 62
7
  6
CONTINUOUS
 10
24.9971755395
 20
314.7310467855
 11
5.1624641133
 21
309.4142436403
  0
LINE
  5
25C
100
AcDbEntity
  8
0
100
AcDbLine
 62
7
  6
CONTINUOUS
 10
-32.9885446796
 20
289.3646638259
 11
-30.5789764906
 21
289.2513470756
  0
LINE
  5
25D
100
AcDbEntity
  8
0
100
AcDbLine
 62
7
  6
CONTINUOUS
 10
-26.4700018565
 20
290.099708683
 11
-27.2731912528
 21
290.1374809331
  0
LINE
  5
25E
100
AcDbEntity
  8
0
100
AcDbLine
 62
7
  6
CONTINUOUS
 10
12.9221900359
 20
273.5176214606
 11
10.5462564472
 21
274.8899165763
  0
LINE
  5
25F
100
AcDbEntity
  8
0
100
AcDbLine
 62
7
  6
CONTINUOUS
 10
-10.8212787858
 20
287.3318077548
 11
3.4655449
 21
279.0800037246
  0
LINE
  5
260
100
AcDbEntity
  8
0
100
AcDbLine
 62
7
  6
CONTINUOUS
 10
36.3558639256
 20
262.4218314041
 11
24.406265284
 21
269.323697655
  0
LINE
  5
261
100
AcDbEntity
  8
0
100
AcDbLine
 62
7
  6
CONTINUOUS
 10
30.3422691956
 20
313.0527864802
 11
30.2984078873
 21
313.0482018891
  0
LINE
  5
262
100
AcDbEntity
  8
0
100
AcDbLine
 62
7
  6
CONTINUOUS
 10
28.5330358095
 20
275.9252069974
 11
24.2239284863
 21
278.4140673598
  0
LINE
  5
263
100
AcDbEntity
  8
0
100
AcDbLine
 62
7
  6
CONTINUOUS
 10
39.5493059874
 20
270.104591693
 11
32.3183770914
 21
274.2810419326
  0
LINE
  5
264
100
AcDbEntity
  8
0
100
AcDbLine
 62
7
  6
CONTINUOUS
 10
46.300037853
 20
207.4596925153
 11
44.9951775797
 21
214.7708993864
  0
LINE
  5
265
100
AcDbEntity
  8
0
100
AcDbLine
 62
7
  6
CONTINUOUS
 10
51.9942123641
 20
281.4515233105
 11
51.9942123641
 21
282.9525249804
  0
LINE
  5
266
100
AcDbEntity
  8
0
100
AcDbLine
 62
7
  6
CONTINUOUS
 10
53.5868608055
 20
274.5852017813
 11
53.5868608055
 21
278.3046803663
  0
LINE
  5
267
100
AcDbEntity
  8
0
100
AcDbLine
 62
7
  6
CONTINUOUS
 10
58.1323155073
 20
275.8036358354
 11
58.1323155074
 21
279.1763221518
  0
LINE
  5
268
100
AcDbEntity
  8
0
100
AcDbLine
 62
7
  6
CONTINUOUS
 10
46.7077503288
 20
271.9144165601
 11
47.9556449696
 21
271.19387984
  0
LINE
  5
269
100
AcDbEntity
  8
0
100
AcDbLine
 62
7
  6
CONTINUOUS
 10
53.5868608055
 20
274.5852017813
 11
52.4608297266
 21
275.2355764201
  0
LINE
  5
26A
100
AcDbEntity
  8
0
100
AcDbLine
 62
7
  6
CONTINUOUS
 10
53.6961207418
 20
217.3563064769
 11
52.8693184254
 21
221.9889272258
  0
LINE
  5
26B
100
AcDbEntity
  8
0
100
AcDbLine
 62
7
  6
CONTINUOUS
 10
53.6294032892
 20
222.1926721409
 11
51.1903688936
 21
235.858721599
  0
LINE
  5
26C
100
AcDbEntity
  8
0
100
AcDbLine
 62
7
  6
CONTINUOUS
 10
44.8444927783
 20
271.4150290485
 11
43.793469674
 21
277.3039717185
  0
LINE
  5
26D
100
AcDbEntity
  8
0
100
AcDbLine
 62
7
  6
CONTINUOUS
 10
52.4608297266
 20
275.2355764201
 11
52.0366678768
 21
278.0653967877
  0
LINE
  5
26E
100
AcDbEntity
  8
0
100
AcDbLine
 62
7
  6
CONTINUOUS
 10
71.8289237903
 20
288.2693281255
 11
71.8289237903
 21
286.7683264556
  0
LINE
  5
26F
100
AcDbEntity
  8
0
100
AcDbLine
 62
7
  6
CONTINUOUS
 10
49.2693394105
 20
283.0253725069
 11
51.9942123641
 21
281.4515233105
  0
LINE
  5
270
100
AcDbEntity
  8
0
100
AcDbLine
 62
7
  6
CONTINUOUS
 10
10.9519841
 20
307.7810822045
 11
10.675573877
 21
307.9407316159
  0
LINE
  5
271
100
AcDbEntity
  8
0
100
AcDbLine
 62
7
  6
CONTINUOUS
 10
30.5102853032
 20
313.2575347611
 11
30.3791454117
 21
313.3007144927
  0
LINE
  5
272
100
AcDbEntity
  8
0
100
AcDbLine
 62
7
  6
CONTINUOUS
 10
30.5102853032
 20
313.2575347611
 11
30.3790362008
 21
313.3019923188
  0
LINE
  5
273
100
AcDbEntity
  8
0
100
AcDbLine
 62
7
  6
CONTINUOUS
 10
30.7866955262
 20
313.0978853497
 11
30.5102853032
 21
313.2575347611
  0
ARC
  5
274
100
AcDbEntity
  8
0
100
AcDbCircle
 62
7
  6
CONTINUOUS
 10
-40.1206107303
 20
159.3508572707
 40
170.7415309962
100
AcDbArc
 50
49.0297787086
 51
50.9054770413
  0
ARC
  5
275
100
AcDbEntity
  8
0
100
AcDbCircle
 62
7
  6
CONTINUOUS
 10
-58.7394360582
 20
155.4814291985
 40
168.8514766081
100
AcDbArc
 50
49.019279855
 51
50.9159758949
  0
ARC
  5
276
100
AcDbEntity
  8
0
100
AcDbCircle
 62
7
  6
CONTINUOUS
 10
2.3097615287
 20
230.2686620265
 40
87.6494045619
100
AcDbArc
 50
71.3222640464
 51
74.4702556017
  0
ARC
  5
277
100
AcDbEntity
  8
0
100
AcDbCircle
 62
7
  6
CONTINUOUS
 10
-17.25041238
 20
225.8400505522
 40
86.7201391809
100
AcDbArc
 50
71.2146138584
 51
74.4879037556
  0
ARC
  5
278
100
AcDbEntity
  8
0
100
AcDbCircle
 62
7
  6
CONTINUOUS
 10
38.7928391603
 20
231.9890810956
 40
81.5029843835
100
AcDbArc
 50
95.6373296113
 51
95.9513617413
  0
ARC
  5
279
100
AcDbEntity
  8
0
100
AcDbCircle
 62
7
  6
CONTINUOUS
 10
38.6632622364
 20
233.2146241036
 40
80.2706106262
100
AcDbArc
 50
95.9815484284
 51
96.678763121
  0
ARC
  5
27A
100
AcDbEntity
  8
0
100
AcDbCircle
 62
7
  6
CONTINUOUS
 10
38.0983304817
 20
237.75664727
 40
75.6937145125
100
AcDbArc
 50
96.6538984004
 51
99.1856010065
  0
ARC
  5
27B
100
AcDbEntity
  8
0
100
AcDbCircle
 62
7
  6
CONTINUOUS
 10
6.298017378
 20
277.2449071455
 40
43.3583493103
100
AcDbArc
 50
7.6614080085
 51
8.4955222724
  0
ARC
  5
27C
100
AcDbEntity
  8
0
100
AcDbCircle
 62
7
  6
CONTINUOUS
 10
24.2834148044
 20
283.5344053786
 40
27.6699906347
100
AcDbArc
 50
116.6825807513
 51
118.8030980218
  0
ARC
  5
27D
100
AcDbEntity
  8
0
100
AcDbCircle
 62
7
  6
CONTINUOUS
 10
50.181401332
 20
292.1387578088
 40
27.0692286204
100
AcDbArc
 50
0.0071200123
 51
15.4646170845
  0
ARC
  5
27E
100
AcDbEntity
  8
0
100
AcDbCircle
 62
7
  6
CONTINUOUS
 10
28.3198486127
 20
292.138759105
 40
27.0692190782
100
AcDbArc
 50
164.5353801828
 51
179.9928827286
  0
ARC
  5
27F
100
AcDbEntity
  8
0
100
AcDbCircle
 62
7
  6
CONTINUOUS
 10
22.7878055033
 20
286.2669912994
 40
24.5548931124
100
AcDbArc
 50
118.8170733561
 51
120.4805749939
  0
ARC
  5
280
100
AcDbEntity
  8
0
100
AcDbCircle
 62
7
  6
CONTINUOUS
 10
3.0485495172
 20
262.5669197963
 40
23.288759802
100
AcDbArc
 50
15.2922002071
 51
17.3104968842
  0
ARC
  5
281
100
AcDbEntity
  8
0
100
AcDbCircle
 62
7
  6
CONTINUOUS
 10
49.1790107734
 20
284.196643174
 40
22.2412440891
100
AcDbArc
 50
196.5646650884
 51
201.8326140645
  0
ARC
  5
282
100
AcDbEntity
  8
0
100
AcDbCircle
 62
7
  6
CONTINUOUS
 10
23.2337370213
 20
258.5450390685
 40
18.1701074538
100
AcDbArc
 50
60.0014894411
 51
73.0432780577
  0
ARC
  5
283
100
AcDbEntity
  8
0
100
AcDbCircle
 62
7
  6
CONTINUOUS
 10
30.899047086
 20
254.2733968364
 40
18.0352469267
100
AcDbArc
 50
56.7319793822
 51
59.9911826919
  0
ARC
  5
284
100
AcDbEntity
  8
0
100
AcDbCircle
 62
7
  6
CONTINUOUS
 10
18.0490922553
 20
306.296330509
 40
16.0255739067
100
AcDbArc
 50
231.2020099093
 51
231.7312070222
  0
ARC
  5
285
100
AcDbEntity
  8
0
100
AcDbCircle
 62
7
  6
CONTINUOUS
 10
64.809228183
 20
301.5024256447
 40
12.8614635264
100
AcDbArc
 50
315.4043083584
 51
315.6705740429
  0
ARC
  5
286
100
AcDbEntity
  8
0
100
AcDbCircle
 62
7
  6
CONTINUOUS
 10
-1.0264606749
 20
282.6765770162
 40
11.4362850999
100
AcDbArc
 50
78.1247972858
 51
84.397409136
  0
ARC
  5
287
100
AcDbEntity
  8
0
100
AcDbCircle
 62
7
  6
CONTINUOUS
 10
-2.3101320566
 20
288.2838245741
 40
4.88770863
100
AcDbArc
 50
42.6106004556
 51
46.3867626308
  0
ARC
  5
288
100
AcDbEntity
  8
0
100
AcDbCircle
 62
7
  6
CONTINUOUS
 10
-15.251513079
 20
200.249645519
 40
3.6075788839
100
AcDbArc
 50
74.6818951274
 51
80.6616708646
  0
ARC
  5
289
100
AcDbEntity
  8
0
100
AcDbCircle
 62
7
  6
CONTINUOUS
 10
0.7457241445
 20
285.8913971744
 40
0.5474994856
100
AcDbArc
 50
272.4289136332
 51
284.9307052385
  0
ARC
  5
28A
100
AcDbEntity
  8
0
100
AcDbCircle
 62
7
  6
CONTINUOUS
 10
-0.008004799
 20
288.6983087718
 40
0.5461351506
100
AcDbArc
 50
92.4138854998
 51
104.9470092381
  0
SPLINE
  5
28B
100
AcDbEntity
  8
0
100
AcDbSpline
 62
7
  6
CONTINUOUS
 70
0
 71
3
 72
20
 73
16
 74
0
 42
0.0000001
 43
0.0000001
 44
0.0000000001
 40
0.0
 40
0.0
 40
0.0
 40
0.0
 40
0.0527860015
 40
0.1117095947
 40
0.1763666303
 40
0.2459442301
 40
0.3948280941
 40
0.5471737835
 40
0.6908580996
 40
0.7562119328
 40
0.815900553
 40
0.8694870362
 40
0.9171655787
 40
0.9599859103
 40
1.0
 40
1.0
 40
1.0
 40
1.0
 10
0.3689594332
 20
285.4555076064
 30
0.0
 10
0.3027920537
 20
285.493724656
 30
0.0
 10
0.1712960033
 20
285.5896674731
 30
0.0
 10
-0.0089696482
 20
285.7715361836
 30
0.0
 10
-0.1788201359
 20
285.994527814
 30
0.0
 10
-0.3900252846
 20
286.3464899073
 30
0.0
 10
-0.5969391537
 20
286.8453453236
 30
0.0
 10
-0.741714613
 20
287.4755922366
 30
0.0
 10
-0.7696304594
 20
288.0017056776
 30
0.0
 10
-0.7262072178
 20
288.3890920502
 30
0.0
 10
-0.6647961717
 20
288.6411442436
 30
0.0
 10
-0.5749673646
 20
288.8573599466
 30
0.0
 10
-0.4581583373
 20
289.0321998097
 30
0.0
 10
-0.3161252967
 20
289.1602640928
 30
0.0
 10
-0.2048121358
 20
289.2109580798
 30
0.0
 10
-0.1488670273
 20
289.2259653224
 30
0.0
  0
SPLINE
  5
28C
100
AcDbEntity
  8
0
100
AcDbSpline
 62
7
  6
CONTINUOUS
 70
0
 71
3
 72
10
 73
6
 74
0
 42
0.0000001
 43
0.0000001
 44
0.0000000001
 40
0.0
 40
0.0
 40
0.0
 40
0.0
 40
0.2307026303
 40
0.4700767339
 40
1.0
 40
1.0
 40
1.0
 40
1.0
 10
0.8867858937
 20
285.3623883442
 30
0.0
 10
0.8468061448
 20
285.3516638
 30
0.0
 10
0.7624519471
 20
285.3393743657
 30
0.0
 10
0.5824486501
 20
285.3538749221
 30
0.0
 10
0.4512929172
 20
285.4079533151
 30
0.0
 10
0.3689594332
 20
285.4555076064
 30
0.0
  0
SPLINE
  5
28D
100
AcDbEntity
  8
0
100
AcDbSpline
 62
7
  6
CONTINUOUS
 70
0
 71
3
 72
9
 73
5
 74
0
 42
0.0000001
 43
0.0000001
 44
0.0000000001
 40
0.0
 40
0.0
 40
0.0
 40
0.0
 40
0.2461632592
 40
1.0
 40
1.0
 40
1.0
 40
1.0
 10
-0.0310068033
 20
289.2439593106
 30
0.0
 10
-0.021656934
 20
289.2443599325
 30
0.0
 10
0.0163622599
 20
289.2450452395
 30
0.0
 10
0.0544305644
 20
289.2419762745
 30
0.0
 10
0.0827786553
 20
289.2377676876
 30
0.0
  0
SPLINE
  5
28E
100
AcDbEntity
  8
0
100
AcDbSpline
 62
7
  6
CONTINUOUS
 70
0
 71
3
 72
9
 73
5
 74
0
 42
0.0000001
 43
0.0000001
 44
0.0000000001
 40
0.0
 40
0.0
 40
0.0
 40
0.0
 40
0.2353495061
 40
1.0
 40
1.0
 40
1.0
 40
1.0
 10
0.0827786553
 20
289.2377676876
 30
0.0
 10
0.1065134356
 20
289.2342439976
 30
0.0
 10
0.2065262062
 20
289.2136175631
 30
0.0
 10
0.3014512927
 20
289.1718375083
 30
0.0
 10
0.3689594332
 20
289.1328460601
 30
0.0
  0
SPLINE
  5
28F
100
AcDbEntity
  8
0
100
AcDbSpline
 62
7
  6
CONTINUOUS
 70
0
 71
3
 72
9
 73
5
 74
0
 42
0.0000001
 43
0.0000001
 44
0.0000000001
 40
0.0
 40
0.0
 40
0.0
 40
0.0
 40
0.2337698955
 40
1.0
 40
1.0
 40
1.0
 40
1.0
 10
0.3689594332
 20
289.1328460601
 30
0.0
 10
0.3936701923
 20
289.1185735846
 30
0.0
 10
0.4968908468
 20
289.053226228
 30
0.0
 10
0.5900739134
 20
288.972769645
 30
0.0
 10
0.655948453
 20
288.9063681673
 30
0.0
  0
SPLINE
  5
290
100
AcDbEntity
  8
0
100
AcDbSpline
 62
7
  6
CONTINUOUS
 70
0
 71
3
 72
18
 73
14
 74
0
 42
0.0000001
 43
0.0000001
 44
0.0000000001
 40
0.0
 40
0.0
 40
0.0
 40
0.0
 40
0.1266265411
 40
0.2692571754
 40
0.4194785342
 40
0.5675453569
 40
0.7040780342
 40
0.7657218874
 40
0.8220833496
 40
0.8729999887
 40
0.9188267659
 40
0.9605789904
 40
1.0
 40
1.0
 40
1.0
 40
1.0
 10
0.655948453
 20
288.9063681673
 30
0.0
 10
0.774034638
 20
288.7873373972
 30
0.0
 10
0.9907104782
 20
288.499831188
 30
0.0
 10
1.2389339944
 20
288.0005013002
 30
0.0
 10
1.414636472
 20
287.4411886173
 30
0.0
 10
1.5024872883
 20
286.8700336538
 30
0.0
 10
1.4965454303
 20
286.4085210112
 30
0.0
 10
1.4375863679
 20
286.075972342
 30
0.0
 10
1.3709924273
 20
285.8616964788
 30
0.0
 10
1.2817800825
 20
285.6785978114
 30
0.0
 10
1.17118551
 20
285.5306152001
 30
0.0
 10
1.0408005939
 20
285.421657118
 30
0.0
 10
0.94095507
 20
285.3773370857
 30
0.0
 10
0.8906415542
 20
285.3634380296
 30
0.0
  0
SPLINE
  5
291
100
AcDbEntity
  8
0
100
AcDbSpline
 62
7
  6
CONTINUOUS
 70
0
 71
3
 72
11
 73
7
 74
0
 42
0.0000001
 43
0.0000001
 44
0.0000000001
 40
0.0
 40
0.0
 40
0.0
 40
0.0
 40
0.3020032443
 40
0.5650897538
 40
0.7932930559
 40
1.0
 40
1.0
 40
1.0
 40
1.0
 10
3.7409279305
 20
307.3635212085
 30
0.0
 10
3.7889365563
 20
307.622847523
 30
0.0
 10
3.9151077094
 20
308.1030074338
 30
0.0
 10
4.2252917003
 20
308.7293108057
 30
0.0
 10
4.6394145801
 20
309.1899683974
 30
0.0
 10
4.9881094769
 20
309.3674970914
 30
0.0
 10
5.162463747
 20
309.4142452276
 30
0.0
  0
SPLINE
  5
292
100
AcDbEntity
  8
0
100
AcDbSpline
 62
7
  6
CONTINUOUS
 70
0
 71
3
 72
17
 73
13
 74
0
 42
0.0000001
 43
0.0000001
 44
0.0000000001
 40
0.0
 40
0.0
 40
0.0
 40
0.0
 40
0.1753450694
 40
0.3401372829
 40
0.4911487812
 40
0.6258376077
 40
0.7426716689
 40
0.8416551834
 40
0.885198214
 40
0.9254777177
 40
0.9633724996
 40
1.0
 40
1.0
 40
1.0
 40
1.0
 10
49.6330879931
 20
277.7589245232
 30
0.0
 10
51.5589108798
 20
277.9741535321
 30
0.0
 10
55.2824701694
 20
278.514947151
 30
0.0
 10
60.586856797
 20
279.6919465039
 30
0.0
 10
65.3439434989
 20
281.1842915919
 30
0.0
 10
69.4366910779
 20
282.9548459477
 30
0.0
 10
72.7661933812
 20
284.9598864274
 30
0.0
 10
74.9334650082
 20
286.877141076
 30
0.0
 10
76.1488326073
 20
288.4994010924
 30
0.0
 10
76.7805110658
 20
289.6943727917
 30
0.0
 10
77.1642611536
 20
290.9114170528
 30
0.0
 10
77.2506072973
 20
291.7373355924
 30
0.0
 10
77.250610718
 20
292.1421215878
 30
0.0
  0
SPLINE
  5
293
100
AcDbEntity
  8
0
100
AcDbSpline
 62
7
  6
CONTINUOUS
 70
0
 71
3
 72
9
 73
5
 74
0
 42
0.0000001
 43
0.0000001
 44
0.0000000001
 40
0.0
 40
0.0
 40
0.0
 40
0.0
 40
0.245279015
 40
1.0
 40
1.0
 40
1.0
 40
1.0
 10
7.2062103257
 20
283.4327851041
 30
0.0
 10
7.2588922329
 20
283.4469053325
 30
0.0
 10
7.4704814407
 20
283.5162505091
 30
0.0
 10
7.6651120889
 20
283.63390798
 30
0.0
 10
7.7949601774
 20
283.7402289103
 30
0.0
  0
SPLINE
  5
294
100
AcDbEntity
  8
0
100
AcDbSpline
 62
7
  6
CONTINUOUS
 70
0
 71
3
 72
11
 73
7
 74
0
 42
0.0000001
 43
0.0000001
 44
0.0000000001
 40
0.0
 40
0.0
 40
0.0
 40
0.0
 40
0.2771667788
 40
0.5388191785
 40
0.780869468
 40
1.0
 40
1.0
 40
1.0
 40
1.0
 10
51.9942123641
 20
281.4515233105
 30
0.0
 10
53.8840461073
 20
281.6883097984
 30
0.0
 10
57.5453488602
 20
282.2591406016
 30
0.0
 10
62.784064436
 20
283.441550164
 30
0.0
 10
67.5360253375
 20
284.9050399752
 30
0.0
 10
70.4733125448
 20
286.1127679391
 30
0.0
 10
71.8289237903
 20
286.7683264556
 30
0.0
  0
SPLINE
  5
295
100
AcDbEntity
  8
0
100
AcDbSpline
 62
7
  6
CONTINUOUS
 70
0
 71
3
 72
9
 73
5
 74
0
 42
0.0000001
 43
0.0000001
 44
0.0000000001
 40
0.0
 40
0.0
 40
0.0
 40
0.0
 40
0.5188765139
 40
1.0
 40
1.0
 40
1.0
 40
1.0
 10
26.0109690627
 20
312.5981263298
 30
0.0
 10
24.1605086661
 20
312.3063038529
 30
0.0
 10
20.6133676925
 20
311.6119218965
 30
0.0
 10
17.1375090686
 20
310.6116236873
 30
0.0
 10
15.4973045078
 20
310.0397894662
 30
0.0
  0
SPLINE
  5
296
100
AcDbEntity
  8
0
100
AcDbSpline
 62
7
  6
CONTINUOUS
 70
0
 71
3
 72
12
 73
8
 74
0
 42
0.0000001
 43
0.0000001
 44
0.0000000001
 40
0.0
 40
0.0
 40
0.0
 40
0.0
 40
0.2775838379
 40
0.5322323953
 40
0.7702589271
 40
0.885450999
 40
1.0
 40
1.0
 40
1.0
 40
1.0
 10
10.1723730104
 20
307.7408852017
 30
0.0
 10
9.2056286937
 20
307.223259746
 30
0.0
 10
7.4034983913
 20
306.1266133038
 30
0.0
 10
5.0551496978
 20
304.1711242135
 30
0.0
 10
3.5306339727
 20
302.2861287735
 30
0.0
 10
2.6605947238
 20
300.6502871454
 30
0.0
 10
2.351239582
 20
299.7927511583
 30
0.0
 10
2.2306624023
 20
299.3565831794
 30
0.0
  0
SPLINE
  5
297
100
AcDbEntity
  8
0
100
AcDbSpline
 62
7
  6
CONTINUOUS
 70
0
 71
3
 72
12
 73
8
 74
0
 42
0.0000001
 43
0.0000001
 44
0.0000000001
 40
0.0
 40
0.0
 40
0.0
 40
0.0
 40
0.1144867492
 40
0.2294861023
 40
0.4672320459
 40
0.722066699
 40
1.0
 40
1.0
 40
1.0
 40
1.0
 10
76.2705970491
 20
299.3565833072
 30
0.0
 10
76.1487234739
 20
299.7974407438
 30
0.0
 10
75.8355892057
 20
300.6635591502
 30
0.0
 10
74.9532146468
 20
302.3142556229
 30
0.0
 10
73.4048070767
 20
304.2139049821
 30
0.0
 10
71.0215586284
 20
306.1830965238
 30
0.0
 10
69.1916811971
 20
307.2842229613
 30
0.0
 10
68.2104184157
 20
307.803921008
 30
0.0
  0
SPLINE
  5
298
100
AcDbEntity
  8
0
100
AcDbSpline
 62
7
  6
CONTINUOUS
 70
0
 71
3
 72
14
 73
10
 74
0
 42
0.0000001
 43
0.0000001
 44
0.0000000001
 40
0.0
 40
0.0
 40
0.0
 40
0.0
 40
0.1020702959
 40
0.2135403852
 40
0.333583294
 40
0.4607539624
 40
0.5931898263
 40
0.7287552583
 40
1.0
 40
1.0
 40
1.0
 40
1.0
 10
68.2104184157
 20
307.803921008
 30
0.0
 10
67.0596182625
 20
308.413409723
 30
0.0
 10
64.5686077807
 20
309.5332527498
 30
0.0
 10
60.5301761295
 20
310.8918940713
 30
0.0
 10
56.0843268583
 20
311.99507938
 30
0.0
 10
51.3093363655
 20
312.8280609809
 30
0.0
 10
46.2942557141
 20
313.3779617621
 30
0.0
 10
39.4204994375
 20
313.7198675619
 30
0.0
 10
34.2179777721
 20
313.5334423496
 30
0.0
 10
30.773417753
 20
313.2006294489
 30
0.0
  0
LINE
  5
299
100
AcDbEntity
  8
0
100
AcDbLine
 62
7
  6
CONTINUOUS
 10
30.773417753
 20
313.2006294489
 11
30.6404849333
 21
313.1876787073
  0
SPLINE
  5
29A
100
AcDbEntity
  8
0
100
AcDbSpline
 62
7
  6
CONTINUOUS
 70
0
 71
3
 72
20
 73
16
 74
0
 42
0.0000001
 43
0.0000001
 44
0.0000000001
 40
0.0
 40
0.0
 40
0.0
 40
0.0
 40
0.0322718733
 40
0.0667499532
 40
0.1051614055
 40
0.1485934828
 40
0.1975796265
 40
0.2522430022
 40
0.3124130817
 40
0.3777056627
 40
0.4475767988
 40
0.5213613672
 40
0.677525088
 40
0.8394852799
 40
1.0
 40
1.0
 40
1.0
 40
1.0
 10
1.2506374839
 20
292.1421217556
 30
0.0
 10
1.2506496946
 20
291.5617249844
 30
0.0
 10
1.4342717452
 20
290.3550545243
 30
0.0
 10
2.2323240951
 20
288.618999995
 30
0.0
 10
3.521748005
 20
286.9534921052
 30
0.0
 10
5.275972261
 20
285.3712776895
 30
0.0
 10
7.4715718681
 20
283.8841659012
 30
0.0
 10
10.0818228857
 20
282.5076003435
 30
0.0
 10
13.0744432939
 20
281.2578438434
 30
0.0
 10
16.4114291498
 20
280.1508294787
 30
0.0
 10
20.0497045018
 20
279.2009350271
 30
0.0
 10
25.3391370249
 20
278.1413422137
 30
0.0
 10
32.350695765
 20
277.3071189506
 30
0.0
 10
40.9659295717
 20
277.0755219832
 30
0.0
 10
46.764155914
 20
277.4382940994
 30
0.0
 10
49.6330879931
 20
277.7589245232
 30
0.0
  0
SPLINE
  5
29B
100
AcDbEntity
  8
0
100
AcDbSpline
 62
7
  6
CONTINUOUS
 70
0
 71
3
 72
9
 73
5
 74
0
 42
0.0000001
 43
0.0000001
 44
0.0000000001
 40
0.0
 40
0.0
 40
0.0
 40
0.0
 40
0.5132819571
 40
1.0
 40
1.0
 40
1.0
 40
1.0
 10
25.7768901276
 20
314.7181261774
 30
0.0
 10
25.6470457019
 20
314.7536588616
 30
0.0
 10
25.3849432879
 20
314.7949705886
 30
0.0
 10
25.1204718373
 20
314.764106865
 30
0.0
 10
24.9971751731
 20
314.7310483733
 30
0.0
  0
SPLINE
  5
29C
100
AcDbEntity
  8
0
100
AcDbSpline
 62
7
  6
CONTINUOUS
 70
0
 71
3
 72
24
 73
20
 74
0
 42
0.0000001
 43
0.0000001
 44
0.0000000001
 40
0.0
 40
0.0
 40
0.0
 40
0.0
 40
0.0099299368
 40
0.0168846908
 40
0.0248300277
 40
0.0339687737
 40
0.0548770425
 40
0.0782290651
 40
0.1032765188
 40
0.1296063575
 40
0.1569660023
 40
0.1851882793
 40
0.2437820427
 40
0.3047686652
 40
0.3677739564
 40
0.4325501712
 40
0.5667565968
 40
0.706440405
 40
1.0
 40
1.0
 40
1.0
 40
1.0
 10
11.8582782214
 20
308.2577619998
 30
0.0
 10
11.8452460437
 20
308.2621883807
 30
0.0
 10
11.8208814214
 20
308.2758577432
 30
0.0
 10
11.8217283456
 20
308.3139328866
 30
0.0
 10
11.8381349494
 20
308.3431224798
 30
0.0
 10
11.8709236949
 20
308.3845323764
 30
0.0
 10
11.9259058484
 20
308.4345464573
 30
0.0
 10
12.0019443487
 20
308.4932465266
 30
0.0
 10
12.0873249053
 20
308.551982472
 30
0.0
 10
12.1793993734
 20
308.6105871467
 30
0.0
 10
12.2768113812
 20
308.6689286316
 30
0.0
 10
12.4142932482
 20
308.7473213948
 30
0.0
 10
12.5949143623
 20
308.8440631976
 30
0.0
 10
12.8210102414
 20
308.9578002295
 30
0.0
 10
13.0571352201
 20
309.0705386522
 30
0.0
 10
13.3875027393
 20
309.2213009351
 30
0.0
 10
13.8189038741
 20
309.4064991049
 30
0.0
 10
14.5488854869
 20
309.6994228241
 30
0.0
 10
15.112976756
 20
309.9058491986
 30
0.0
 10
15.4971900018
 20
310.0397817521
 30
0.0
  0
SPLINE
  5
29D
100
AcDbEntity
  8
0
100
AcDbSpline
 62
7
  6
CONTINUOUS
 70
0
 71
3
 72
11
 73
7
 74
0
 42
0.0000001
 43
0.0000001
 44
0.0000000001
 40
0.0
 40
0.0
 40
0.0
 40
0.0
 40
0.2191304352
 40
0.4611806561
 40
0.7228331332
 40
1.0
 40
1.0
 40
1.0
 40
1.0
 10
71.8289237903
 20
288.2693281256
 30
0.0
 10
70.4733131041
 20
287.6137698795
 30
0.0
 10
67.5360279836
 20
286.4060397957
 30
0.0
 10
62.7840678637
 20
284.9425485148
 30
0.0
 10
57.5453509848
 20
283.7601407298
 30
0.0
 10
53.884046762
 20
283.1893115504
 30
0.0
 10
51.9942123641
 20
282.9525249804
 30
0.0
  0
SPLINE
  5
29E
100
AcDbEntity
  8
0
100
AcDbSpline
 62
7
  6
CONTINUOUS
 70
0
 71
3
 72
9
 73
5
 74
0
 42
0.0000001
 43
0.0000001
 44
0.0000000001
 40
0.0
 40
0.0
 40
0.0
 40
0.0
 40
0.4710644707
 40
1.0
 40
1.0
 40
1.0
 40
1.0
 10
8.4750741512
 20
289.522617192
 30
0.0
 10
9.5957033999
 20
288.87535864
 30
0.0
 10
12.0759968489
 20
287.6753497271
 30
0.0
 10
14.6653647068
 20
286.745197446
 30
0.0
 10
16.0519766047
 20
286.310651917
 30
0.0
  0
SPLINE
  5
29F
100
AcDbEntity
  8
0
100
AcDbSpline
 62
7
  6
CONTINUOUS
 70
0
 71
3
 72
11
 73
7
 74
0
 42
0.0000001
 43
0.0000001
 44
0.0000000001
 40
0.0
 40
0.0
 40
0.0
 40
0.0
 40
0.2290486566
 40
0.4797195687
 40
0.7407489488
 40
1.0
 40
1.0
 40
1.0
 40
1.0
 10
16.0519766047
 20
286.310651917
 30
0.0
 10
18.4880608293
 20
285.5472158685
 30
0.0
 10
23.7066467615
 20
284.3131056519
 30
0.0
 10
31.9091168715
 20
283.2728428012
 30
0.0
 10
40.5092147842
 20
282.9961407516
 30
0.0
 10
46.3081345975
 20
283.3376952145
 30
0.0
 10
49.1806971737
 20
283.6504223206
 30
0.0
  0
SPLINE
  5
2A0
100
AcDbEntity
  8
0
100
AcDbSpline
 62
7
  6
CONTINUOUS
 70
0
 71
3
 72
9
 73
5
 74
0
 42
0.0000001
 43
0.0000001
 44
0.0000000001
 40
0.0
 40
0.0
 40
0.0
 40
0.0
 40
0.2575048772
 40
1.0
 40
1.0
 40
1.0
 40
1.0
 10
67.5492753867
 20
291.8645019662
 30
0.0
 10
67.6896697894
 20
291.9417937965
 30
0.0
 10
68.2320647365
 20
292.2470119907
 30
0.0
 10
68.7628956765
 20
292.5729720272
 30
0.0
 10
69.1482645826
 20
292.827993168
 30
0.0
  0
SPLINE
  5
2A1
100
AcDbEntity
  8
0
100
AcDbSpline
 62
7
  6
CONTINUOUS
 70
0
 71
3
 72
9
 73
5
 74
0
 42
0.0000001
 43
0.0000001
 44
0.0000000001
 40
0.0
 40
0.0
 40
0.0
 40
0.0
 40
0.2581136304
 40
1.0
 40
1.0
 40
1.0
 40
1.0
 10
69.1482645826
 20
292.827993168
 30
0.0
 10
69.27315855
 20
292.9106428098
 30
0.0
 10
69.753451287
 20
293.2361941635
 30
0.0
 10
70.2190443976
 20
293.5836721715
 30
0.0
 10
70.5532046718
 20
293.8550305818
 30
0.0
  0
SPLINE
  5
2A2
100
AcDbEntity
  8
0
100
AcDbSpline
 62
7
  6
CONTINUOUS
 70
0
 71
3
 72
16
 73
12
 74
0
 42
0.0000001
 43
0.0000001
 44
0.0000000001
 40
0.0
 40
0.0
 40
0.0
 40
0.0
 40
0.1376861165
 40
0.2576435883
 40
0.3652372148
 40
0.4170563832
 40
0.4690201672
 40
0.5777120729
 40
0.6995729484
 40
0.8395778207
 40
1.0
 40
1.0
 40
1.0
 40
1.0
 10
70.5532046718
 20
293.8550305818
 30
0.0
 10
71.1711992674
 20
294.3568796762
 30
0.0
 10
72.2616019564
 20
295.3861749616
 30
0.0
 10
73.4672241243
 20
297.1444574044
 30
0.0
 10
73.9803287842
 20
298.7065401586
 30
0.0
 10
74.0580876025
 20
299.9316287971
 30
0.0
 10
73.9304874778
 20
301.1589433565
 30
0.0
 10
73.3532426442
 20
302.7169292884
 30
0.0
 10
72.0792476411
 20
304.4637150465
 30
0.0
 10
70.2588142723
 20
306.1096157142
 30
0.0
 10
68.8004747563
 20
307.0645690128
 30
0.0
 10
67.9972682834
 20
307.5284861546
 30
0.0
  0
SPLINE
  5
2A3
100
AcDbEntity
  8
0
100
AcDbSpline
 62
7
  6
CONTINUOUS
 70
0
 71
3
 72
9
 73
5
 74
0
 42
0.0000001
 43
0.0000001
 44
0.0000000001
 40
0.0
 40
0.0
 40
0.0
 40
0.0
 40
0.4867179938
 40
1.0
 40
1.0
 40
1.0
 40
1.0
 10
5.162463747
 20
309.4142452276
 30
0.0
 10
5.2857603998
 20
309.4473037166
 30
0.0
 10
5.5502318483
 20
309.4781674966
 30
0.0
 10
5.8123342621
 20
309.4368557201
 30
0.0
 10
5.9421787014
 20
309.4013230322
 30
0.0
  0
SPLINE
  5
2A4
100
AcDbEntity
  8
0
100
AcDbSpline
 62
7
  6
CONTINUOUS
 70
0
 71
3
 72
17
 73
13
 74
0
 42
0.0000001
 43
0.0000001
 44
0.0000000001
 40
0.0
 40
0.0
 40
0.0
 40
0.0
 40
0.2497063773
 40
0.3755354444
 40
0.5019948216
 40
0.6290483017
 40
0.7565718867
 40
0.8203740813
 40
0.8839264203
 40
0.9462780313
 40
0.9756829214
 40
1.0
 40
1.0
 40
1.0
 40
1.0
 10
26.0109738808
 20
312.5981446488
 30
0.0
 10
26.28560186
 20
312.6414548303
 30
0.0
 10
26.6990837935
 20
312.7037040364
 30
0.0
 10
27.2527853937
 20
312.7799414698
 30
0.0
 10
27.6717451453
 20
312.8334662491
 30
0.0
 10
28.0931949923
 20
312.8822255653
 30
0.0
 10
28.4459348635
 20
312.9174038439
 30
0.0
 10
28.7288417279
 20
312.9402817394
 30
0.0
 10
28.939571101
 20
312.9531093663
 30
0.0
 10
29.1127716671
 20
312.9590690007
 30
0.0
 10
29.2415058621
 20
312.9547655925
 30
0.0
 10
29.3019437191
 20
312.9492085572
 30
0.0
 10
29.3275809588
 20
312.9405043772
 30
0.0
  0
SPLINE
  5
2A5
100
AcDbEntity
  8
0
100
AcDbSpline
 62
7
  6
CONTINUOUS
 70
0
 71
3
 72
11
 73
7
 74
0
 42
0.0000001
 43
0.0000001
 44
0.0000000001
 40
0.0
 40
0.0
 40
0.0
 40
0.0
 40
0.2318530289
 40
0.4653529868
 40
0.7172169489
 40
1.0
 40
1.0
 40
1.0
 40
1.0
 10
2.2306577406
 20
299.3565778572
 30
0.0
 10
2.0743347218
 20
298.791096948
 30
0.0
 10
1.921403926
 20
297.6019698485
 30
0.0
 10
2.2611471357
 20
295.7918281178
 30
0.0
 10
3.1482932579
 20
294.0388764866
 30
0.0
 10
4.021857688
 20
292.9924600759
 30
0.0
 10
4.5237249961
 20
292.4823978057
 30
0.0
  0
SPLINE
  5
2A6
100
AcDbEntity
  8
0
100
AcDbSpline
 62
7
  6
CONTINUOUS
 70
0
 71
3
 72
9
 73
5
 74
0
 42
0.0000001
 43
0.0000001
 44
0.0000000001
 40
0.0
 40
0.0
 40
0.0
 40
0.0
 40
0.4706735993
 40
1.0
 40
1.0
 40
1.0
 40
1.0
 10
4.5237249961
 20
292.4823978057
 30
0.0
 10
5.0681809461
 20
291.9290514661
 30
0.0
 10
6.3303308156
 20
290.8559855794
 30
0.0
 10
7.719088431
 20
289.9592631418
 30
0.0
 10
8.4750741512
 20
289.522617192
 30
0.0
  0
SPLINE
  5
2A7
100
AcDbEntity
  8
0
100
AcDbSpline
 62
7
  6
CONTINUOUS
 70
0
 71
3
 72
9
 73
5
 74
0
 42
0.0000001
 43
0.0000001
 44
0.0000000001
 40
0.0
 40
0.0
 40
0.0
 40
0.0
 40
0.4841633096
 40
1.0
 40
1.0
 40
1.0
 40
1.0
 10
10.1723821245
 20
307.7408967721
 30
0.0
 10
10.2859763528
 20
307.801672283
 30
0.0
 10
10.5528773611
 20
307.8743516148
 30
0.0
 10
10.8221547337
 20
307.8256268954
 30
0.0
 10
10.9519841
 20
307.7810822045
 30
0.0
  0
SPLINE
  5
2A8
100
AcDbEntity
  8
0
100
AcDbSpline
 62
7
  6
CONTINUOUS
 70
0
 71
3
 72
10
 73
6
 74
0
 42
0.0000001
 43
0.0000001
 44
0.0000000001
 40
0.0
 40
0.0
 40
0.0
 40
0.0
 40
0.5393744054
 40
0.7856082311
 40
1.0
 40
1.0
 40
1.0
 40
1.0
 10
49.1806133766
 20
283.6503279226
 30
0.0
 10
49.0928597328
 20
284.2377821006
 30
0.0
 10
48.8250062122
 20
285.081818899
 30
0.0
 10
48.2465307042
 20
286.0227129582
 30
0.0
 10
47.8978387756
 20
286.3988684833
 30
0.0
 10
47.7145639606
 20
286.5476988209
 30
0.0
  0
SPLINE
  5
2A9
100
AcDbEntity
  8
0
100
AcDbSpline
 62
7
  6
CONTINUOUS
 70
0
 71
3
 72
9
 73
5
 74
0
 42
0.0000001
 43
0.0000001
 44
0.0000000001
 40
0.0
 40
0.0
 40
0.0
 40
0.0
 40
0.5280148545
 40
1.0
 40
1.0
 40
1.0
 40
1.0
 10
70.2582505877
 20
289.6584966927
 30
0.0
 10
70.9649438867
 20
290.0766503474
 30
0.0
 10
72.2666295291
 20
290.9337033326
 30
0.0
 10
73.4522624519
 20
291.9497276429
 30
0.0
 10
73.9676042425
 20
292.4723984026
 30
0.0
  0
SPLINE
  5
2AA
100
AcDbEntity
  8
0
100
AcDbSpline
 62
7
  6
CONTINUOUS
 70
0
 71
3
 72
11
 73
7
 74
0
 42
0.0000001
 43
0.0000001
 44
0.0000000001
 40
0.0
 40
0.0
 40
0.0
 40
0.0
 40
0.2824538625
 40
0.5342373284
 40
0.7679006845
 40
1.0
 40
1.0
 40
1.0
 40
1.0
 10
74.0094696557
 20
292.5150566813
 30
0.0
 10
74.5059310972
 20
293.0232812024
 30
0.0
 10
75.3699206194
 20
294.0657326659
 30
0.0
 10
76.2455115797
 20
295.8105780415
 30
0.0
 10
76.5790908724
 20
297.6112991327
 30
0.0
 10
76.426091036
 20
298.7940382532
 30
0.0
 10
76.2705340319
 20
299.3567424373
 30
0.0
  0
SPLINE
  5
2AB
100
AcDbEntity
  8
0
100
AcDbSpline
 62
7
  6
CONTINUOUS
 70
0
 71
3
 72
14
 73
10
 74
0
 42
0.0000001
 43
0.0000001
 44
0.0000000001
 40
0.0
 40
0.0
 40
0.0
 40
0.0
 40
0.0966258983
 40
0.2052649003
 40
0.3244627927
 40
0.4522508799
 40
0.58631477
 40
0.7241084326
 40
1.0
 40
1.0
 40
1.0
 40
1.0
 10
10.5039912033
 20
292.1170980161
 30
0.0
 10
11.56714289
 20
291.5030413464
 30
0.0
 10
13.9232774183
 20
290.3659026011
 30
0.0
 10
17.8115006533
 20
288.9790853281
 30
0.0
 10
22.1884433466
 20
287.8361371513
 30
0.0
 10
26.9548071891
 20
286.9641473731
 30
0.0
 10
32.0032166893
 20
286.3831295917
 30
0.0
 10
38.9559402284
 20
286.0158448338
 30
0.0
 10
44.2259952692
 20
286.2033331175
 30
0.0
 10
47.7145639605
 20
286.547698821
 30
0.0
  0
SPLINE
  5
2AC
100
AcDbEntity
  8
0
100
AcDbSpline
 62
7
  6
CONTINUOUS
 70
0
 71
3
 72
14
 73
10
 74
0
 42
0.0000001
 43
0.0000001
 44
0.0000000001
 40
0.0
 40
0.0
 40
0.0
 40
0.0
 40
0.2758915674
 40
0.41368523
 40
0.5477491201
 40
0.6755372073
 40
0.7947350997
 40
0.9033741017
 40
1.0
 40
1.0
 40
1.0
 40
1.0
 10
30.7866955262
 20
313.0978853497
 30
0.0
 10
34.2752642176
 20
313.4422510531
 30
0.0
 10
39.5453192584
 20
313.6297393369
 30
0.0
 10
46.4980427974
 20
313.2624545789
 30
0.0
 10
51.5464522977
 20
312.6814367976
 30
0.0
 10
56.3128161401
 20
311.8094470194
 30
0.0
 10
60.6897588334
 20
310.6664988426
 30
0.0
 10
64.5779820684
 20
309.2796815696
 30
0.0
 10
66.9341165967
 20
308.1425428243
 30
0.0
 10
67.9972682834
 20
307.5284861546
 30
0.0
  0
SPLINE
  5
2AD
100
AcDbEntity
  8
0
100
AcDbSpline
 62
7
  6
CONTINUOUS
 70
0
 71
3
 72
9
 73
5
 74
0
 42
0.0000001
 43
0.0000001
 44
0.0000000001
 40
0.0
 40
0.0
 40
0.0
 40
0.0
 40
0.2625694763
 40
1.0
 40
1.0
 40
1.0
 40
1.0
 10
10.5039912033
 20
292.1170980161
 30
0.0
 10
10.2866282988
 20
292.2426427929
 30
0.0
 10
9.4663869699
 20
292.7336021917
 30
0.0
 10
8.6771086738
 20
293.2777922252
 30
0.0
 10
8.1236290269
 20
293.7144308615
 30
0.0
  0
SPLINE
  5
2AE
100
AcDbEntity
  8
0
100
AcDbSpline
 62
7
  6
CONTINUOUS
 70
0
 71
3
 72
15
 73
11
 74
0
 42
0.0000001
 43
0.0000001
 44
0.0000000001
 40
0.0
 40
0.0
 40
0.0
 40
0.0
 40
0.1386650245
 40
0.2595376149
 40
0.3677927417
 40
0.4714821482
 40
0.5799841516
 40
0.7012853349
 40
0.8404733186
 40
1.0
 40
1.0
 40
1.0
 40
1.0
 10
8.0078446924
 20
293.8066401037
 30
0.0
 10
7.3875874422
 20
294.305322188
 30
0.0
 10
6.2914477286
 20
295.3278802558
 30
0.0
 10
5.0713848274
 20
297.0749977965
 30
0.0
 10
4.4394557336
 20
298.9104232947
 30
0.0
 10
4.448339749
 20
300.7857553871
 30
0.0
 10
5.0968511841
 20
302.6191163693
 30
0.0
 10
6.3326176821
 20
304.3639210123
 30
0.0
 10
8.112351642
 20
306.0084832108
 30
0.0
 10
9.5434103091
 20
306.9639108404
 30
0.0
 10
10.3324289027
 20
307.4284272029
 30
0.0
  0
SPLINE
  5
2AF
100
AcDbEntity
  8
0
100
AcDbSpline
 62
7
  6
CONTINUOUS
 70
0
 71
3
 72
9
 73
5
 74
0
 42
0.0000001
 43
0.0000001
 44
0.0000000001
 40
0.0
 40
0.0
 40
0.0
 40
0.0
 40
0.2384621154
 40
1.0
 40
1.0
 40
1.0
 40
1.0
 10
11.8582782214
 20
308.2577619998
 30
0.0
 10
12.1426703662
 20
308.4007505589
 30
0.0
 10
13.3451623035
 20
308.9806700568
 30
0.0
 10
14.5830733876
 20
309.4858400829
 30
0.0
 10
15.5374929323
 20
309.8357848897
 30
0.0
  0
SPLINE
  5
2B0
100
AcDbEntity
  8
0
100
AcDbSpline
 62
7
  6
CONTINUOUS
 70
0
 71
3
 72
9
 73
5
 74
0
 42
0.0000001
 43
0.0000001
 44
0.0000000001
 40
0.0
 40
0.0
 40
0.0
 40
0.0
 40
0.4770633339
 40
1.0
 40
1.0
 40
1.0
 40
1.0
 10
15.5374929323
 20
309.8357848897
 30
0.0
 10
17.1526443917
 20
310.4279918165
 30
0.0
 10
20.6143497334
 20
311.4647050407
 30
0.0
 10
24.1536246764
 20
312.1783488154
 30
0.0
 10
26.015107761
 20
312.4796968958
 30
0.0
  0
SPLINE
  5
2B1
100
AcDbEntity
  8
0
100
AcDbSpline
 62
7
  6
CONTINUOUS
 70
0
 71
3
 72
11
 73
7
 74
0
 42
0.0000001
 43
0.0000001
 44
0.0000000001
 40
0.0
 40
0.0
 40
0.0
 40
0.0
 40
0.2634103434
 40
0.5159329171
 40
0.760204413
 40
1.0
 40
1.0
 40
1.0
 40
1.0
 10
24.8524111725
 20
221.3605448551
 30
0.0
 10
23.8467956293
 20
221.0909840953
 30
0.0
 10
21.8283138787
 20
220.7242830687
 30
0.0
 10
18.8055421539
 20
220.7391296912
 30
0.0
 10
15.9354312481
 20
221.3343262531
 30
0.0
 10
14.169682695
 20
222.1146241239
 30
0.0
 10
13.3489752137
 20
222.5886794888
 30
0.0
  0
SPLINE
  5
2B2
100
AcDbEntity
  8
0
100
AcDbSpline
 62
7
  6
CONTINUOUS
 70
0
 71
3
 72
11
 73
7
 74
0
 42
0.0000001
 43
0.0000001
 44
0.0000000001
 40
0.0
 40
0.0
 40
0.0
 40
0.0
 40
0.2717748105
 40
0.5268698752
 40
0.7676346318
 40
1.0
 40
1.0
 40
1.0
 40
1.0
 10
9.5025795681
 20
234.6264416916
 30
0.0
 10
9.5025795681
 20
234.218183187
 30
0.0
 10
9.5819554122
 20
233.423353514
 30
0.0
 10
9.9621230648
 20
232.3223400082
 30
0.0
 10
10.5851128208
 20
231.4062750848
 30
0.0
 10
11.1489023042
 20
230.9527849614
 30
0.0
 10
11.4511742593
 20
230.7782196011
 30
0.0
  0
SPLINE
  5
2B3
100
AcDbEntity
  8
0
100
AcDbSpline
 62
7
  6
CONTINUOUS
 70
0
 71
3
 72
11
 73
7
 74
0
 42
0.0000001
 43
0.0000001
 44
0.0000000001
 40
0.0
 40
0.0
 40
0.0
 40
0.0
 40
0.2717748086
 40
0.5268698864
 40
0.7676346258
 40
1.0
 40
1.0
 40
1.0
 40
1.0
 10
13.4572416954
 20
249.3054878763
 30
0.0
 10
13.4572416954
 20
248.8953012764
 30
0.0
 10
13.536992422
 20
248.0967178176
 30
0.0
 10
13.9189554859
 20
246.99050451
 30
0.0
 10
14.544887486
 20
246.0701132757
 30
0.0
 10
15.1113395686
 20
245.6144814166
 30
0.0
 10
15.4150390978
 20
245.4390916511
 30
0.0
  0
SPLINE
  5
2B4
100
AcDbEntity
  8
0
100
AcDbSpline
 62
7
  6
CONTINUOUS
 70
0
 71
3
 72
11
 73
7
 74
0
 42
0.0000001
 43
0.0000001
 44
0.0000000001
 40
0.0
 40
0.0
 40
0.0
 40
0.0
 40
0.2717748086
 40
0.5268698864
 40
0.7676346258
 40
1.0
 40
1.0
 40
1.0
 40
1.0
 10
26.3302249365
 20
252.7561616125
 30
0.0
 10
26.3302249365
 20
252.3459750126
 30
0.0
 10
26.409975663
 20
251.5473915538
 30
0.0
 10
26.7919387269
 20
250.4411782462
 30
0.0
 10
27.4178707271
 20
249.520787012
 30
0.0
 10
27.9843228097
 20
249.0651551528
 30
0.0
 10
28.2880223389
 20
248.8897653873
 30
0.0
  0
SPLINE
  5
2B5
100
AcDbEntity
  8
0
100
AcDbSpline
 62
7
  6
CONTINUOUS
 70
0
 71
3
 72
11
 73
7
 74
0
 42
0.0000001
 43
0.0000001
 44
0.0000000001
 40
0.0
 40
0.0
 40
0.0
 40
0.0
 40
0.2717748086
 40
0.5268698864
 40
0.7676346258
 40
1.0
 40
1.0
 40
1.0
 40
1.0
 10
30.3081955263
 20
240.2035011197
 30
0.0
 10
30.3081955263
 20
239.7933145199
 30
0.0
 10
30.3879462528
 20
238.9947310611
 30
0.0
 10
30.7699093167
 20
237.8885177535
 30
0.0
 10
31.3958413168
 20
236.9681265192
 30
0.0
 10
31.9622933995
 20
236.5124946601
 30
0.0
 10
32.2659929287
 20
236.3371048946
 30
0.0
  0
SPLINE
  5
2B6
100
AcDbEntity
  8
0
100
AcDbSpline
 62
7
  6
CONTINUOUS
 70
0
 71
3
 72
10
 73
6
 74
0
 42
0.0000001
 43
0.0000001
 44
0.0000000001
 40
0.0
 40
0.0
 40
0.0
 40
0.0
 40
0.2403281524
 40
0.485096085
 40
1.0
 40
1.0
 40
1.0
 40
1.0
 10
25.7519845779
 20
234.4814777079
 30
0.0
 10
25.6074507388
 20
234.5649309427
 30
0.0
 10
25.296399083
 20
234.7022798215
 30
0.0
 10
24.6127726256
 20
234.8446220622
 30
0.0
 10
24.0717633306
 20
234.7903190296
 30
0.0
 10
23.7263800937
 20
234.6977371593
 30
0.0
  0
SPLINE
  5
2B7
100
AcDbEntity
  8
0
100
AcDbSpline
 62
7
  6
CONTINUOUS
 70
0
 71
3
 72
9
 73
5
 74
0
 42
0.0000001
 43
0.0000001
 44
0.0000000001
 40
0.0
 40
0.0
 40
0.0
 40
0.0
 40
0.2483373341
 40
1.0
 40
1.0
 40
1.0
 40
1.0
 10
34.0272603206
 20
245.8863311851
 30
0.0
 10
33.9790566617
 20
245.9141803304
 30
0.0
 10
33.7798859141
 20
246.0174066514
 30
0.0
 10
33.5616863218
 20
246.0831671437
 30
0.0
 10
33.3954227258
 20
246.110537501
 30
0.0
  0
SPLINE
  5
2B8
100
AcDbEntity
  8
0
100
AcDbSpline
 62
7
  6
CONTINUOUS
 70
0
 71
3
 72
15
 73
11
 74
0
 42
0.0000001
 43
0.0000001
 44
0.0000000001
 40
0.0
 40
0.0
 40
0.0
 40
0.0
 40
0.0524624807
 40
0.1056459719
 40
0.2162146376
 40
0.3353287776
 40
0.4632708635
 40
0.5978578246
 40
0.7353251938
 40
1.0
 40
1.0
 40
1.0
 40
1.0
 10
38.267753837
 20
246.7282989175
 30
0.0
 10
38.084934366
 20
246.8338791409
 30
0.0
 10
37.696262604
 20
247.0130530133
 30
0.0
 10
36.8495931628
 20
247.2301794131
 30
0.0
 10
35.6886855569
 20
247.2142241967
 30
0.0
 10
34.3047745289
 20
246.7575805302
 30
0.0
 10
33.0043172083
 20
245.9133587528
 30
0.0
 10
31.8772650641
 20
244.7444896716
 30
0.0
 10
30.7299964242
 20
242.9048851174
 30
0.0
 10
30.3081955263
 20
241.268589858
 30
0.0
 10
30.3081955263
 20
240.2035011197
 30
0.0
  0
SPLINE
  5
2B9
100
AcDbEntity
  8
0
100
AcDbSpline
 62
7
  6
CONTINUOUS
 70
0
 71
3
 72
9
 73
5
 74
0
 42
0.0000001
 43
0.0000001
 44
0.0000000001
 40
0.0
 40
0.0
 40
0.0
 40
0.0
 40
0.2483373341
 40
1.0
 40
1.0
 40
1.0
 40
1.0
 10
30.0492897309
 20
258.4389916778
 30
0.0
 10
30.001086072
 20
258.4668408231
 30
0.0
 10
29.8019153243
 20
258.5700671442
 30
0.0
 10
29.583715732
 20
258.6358276365
 30
0.0
 10
29.417452136
 20
258.6631979937
 30
0.0
  0
SPLINE
  5
2BA
100
AcDbEntity
  8
0
100
AcDbSpline
 62
7
  6
CONTINUOUS
 70
0
 71
3
 72
15
 73
11
 74
0
 42
0.0000001
 43
0.0000001
 44
0.0000000001
 40
0.0
 40
0.0
 40
0.0
 40
0.0
 40
0.0524624807
 40
0.1056459719
 40
0.2162146376
 40
0.3353287776
 40
0.4632708635
 40
0.5978578246
 40
0.7353251938
 40
1.0
 40
1.0
 40
1.0
 40
1.0
 10
34.2897832472
 20
259.2809594102
 30
0.0
 10
34.1069637762
 20
259.3865396337
 30
0.0
 10
33.7182920142
 20
259.565713506
 30
0.0
 10
32.871622573
 20
259.7828399058
 30
0.0
 10
31.7107149671
 20
259.7668846895
 30
0.0
 10
30.3268039391
 20
259.3102410229
 30
0.0
 10
29.0263466185
 20
258.4660192455
 30
0.0
 10
27.8992944743
 20
257.2971501643
 30
0.0
 10
26.7520258344
 20
255.4575456101
 30
0.0
 10
26.3302249365
 20
253.8212503508
 30
0.0
 10
26.3302249365
 20
252.7561616125
 30
0.0
  0
SPLINE
  5
2BB
100
AcDbEntity
  8
0
100
AcDbSpline
 62
7
  6
CONTINUOUS
 70
0
 71
3
 72
9
 73
5
 74
0
 42
0.0000001
 43
0.0000001
 44
0.0000000001
 40
0.0
 40
0.0
 40
0.0
 40
0.0
 40
0.2483373341
 40
1.0
 40
1.0
 40
1.0
 40
1.0
 10
17.1763064898
 20
254.9883179416
 30
0.0
 10
17.1281028309
 20
255.0161670869
 30
0.0
 10
16.9289320832
 20
255.119393408
 30
0.0
 10
16.710732491
 20
255.1851539003
 30
0.0
 10
16.544468895
 20
255.2125242575
 30
0.0
  0
SPLINE
  5
2BC
100
AcDbEntity
  8
0
100
AcDbSpline
 62
7
  6
CONTINUOUS
 70
0
 71
3
 72
15
 73
11
 74
0
 42
0.0000001
 43
0.0000001
 44
0.0000000001
 40
0.0
 40
0.0
 40
0.0
 40
0.0
 40
0.0524624807
 40
0.1056459719
 40
0.2162146376
 40
0.3353287776
 40
0.4632708635
 40
0.5978578246
 40
0.7353251938
 40
1.0
 40
1.0
 40
1.0
 40
1.0
 10
21.4168000062
 20
255.830285674
 30
0.0
 10
21.2339805352
 20
255.9358658975
 30
0.0
 10
20.8453087732
 20
256.1150397698
 30
0.0
 10
19.9986393319
 20
256.3321661696
 30
0.0
 10
18.8377317261
 20
256.3162109533
 30
0.0
 10
17.4538206981
 20
255.8595672867
 30
0.0
 10
16.1533633774
 20
255.0153455093
 30
0.0
 10
15.0263112333
 20
253.8464764281
 30
0.0
 10
13.8790425933
 20
252.0068718739
 30
0.0
 10
13.4572416954
 20
250.3705766146
 30
0.0
 10
13.4572416954
 20
249.3054878763
 30
0.0
  0
SPLINE
  5
2BD
100
AcDbEntity
  8
0
100
AcDbSpline
 62
7
  6
CONTINUOUS
 70
0
 71
3
 72
9
 73
5
 74
0
 42
0.0000001
 43
0.0000001
 44
0.0000000001
 40
0.0
 40
0.0
 40
0.0
 40
0.0
 40
0.2484649706
 40
1.0
 40
1.0
 40
1.0
 40
1.0
 10
13.1983359
 20
240.3030237958
 30
0.0
 10
13.1520854438
 20
240.3297444993
 30
0.0
 10
12.9612784814
 20
240.4290821507
 30
0.0
 10
12.7528897615
 20
240.494026515
 30
0.0
 10
12.5938600996
 20
240.5225265805
 30
0.0
  0
SPLINE
  5
2BE
100
AcDbEntity
  8
0
100
AcDbSpline
 62
7
  6
CONTINUOUS
 70
0
 71
3
 72
15
 73
11
 74
0
 42
0.0000001
 43
0.0000001
 44
0.0000000001
 40
0.0
 40
0.0
 40
0.0
 40
0.0
 40
0.0524624725
 40
0.1056459662
 40
0.2162146426
 40
0.335328794
 40
0.4632708983
 40
0.5978578562
 40
0.7353252271
 40
1.0
 40
1.0
 40
1.0
 40
1.0
 10
17.4247236651
 20
241.1205694324
 30
0.0
 10
17.2427635817
 20
241.2256533708
 30
0.0
 10
16.8559187883
 20
241.4039849799
 30
0.0
 10
16.0132291513
 20
241.6200908389
 30
0.0
 10
14.8577783234
 20
241.6042105744
 30
0.0
 10
13.4803722804
 20
241.1497133029
 30
0.0
 10
12.1860277636
 20
240.3094596871
 30
0.0
 10
11.0642733774
 20
239.1460848263
 30
0.0
 10
9.9223976869
 20
237.3151274607
 30
0.0
 10
9.5025795681
 20
235.686523805
 30
0.0
 10
9.5025795681
 20
234.6264416916
 30
0.0
  0
SPLINE
  5
2BF
100
AcDbEntity
  8
0
100
AcDbSpline
 62
7
  6
CONTINUOUS
 70
0
 71
3
 72
9
 73
5
 74
0
 42
0.0000001
 43
0.0000001
 44
0.0000000001
 40
0.0
 40
0.0
 40
0.0
 40
0.0
 40
0.2533234948
 40
1.0
 40
1.0
 40
1.0
 40
1.0
 10
9.5503223272
 20
235.2674118612
 30
0.0
 10
9.5856670933
 20
235.225144894
 30
0.0
 10
9.7320708056
 20
235.0641820081
 30
0.0
 10
9.9067865252
 20
234.9288801843
 30
0.0
 10
10.0474066302
 20
234.8476384318
 30
0.0
  0
SPLINE
  5
2C0
100
AcDbEntity
  8
0
100
AcDbSpline
 62
7
  6
CONTINUOUS
 70
0
 71
3
 72
9
 73
5
 74
0
 42
0.0000001
 43
0.0000001
 44
0.0000000001
 40
0.0
 40
0.0
 40
0.0
 40
0.0
 40
0.2536548829
 40
1.0
 40
1.0
 40
1.0
 40
1.0
 10
13.5068514148
 20
249.9787975186
 30
0.0
 10
13.5432951121
 20
249.9336702026
 30
0.0
 10
13.6946142137
 20
249.7620887126
 30
0.0
 10
13.8775951297
 20
249.6183120901
 30
0.0
 10
14.0253772199
 20
249.5329325776
 30
0.0
  0
SPLINE
  5
2C1
100
AcDbEntity
  8
0
100
AcDbSpline
 62
7
  6
CONTINUOUS
 70
0
 71
3
 72
9
 73
5
 74
0
 42
0.0000001
 43
0.0000001
 44
0.0000000001
 40
0.0
 40
0.0
 40
0.0
 40
0.0
 40
0.2536548829
 40
1.0
 40
1.0
 40
1.0
 40
1.0
 10
26.3798346558
 20
253.4294712548
 30
0.0
 10
26.4162783532
 20
253.3843439388
 30
0.0
 10
26.5675974547
 20
253.2127624488
 30
0.0
 10
26.7505783708
 20
253.0689858263
 30
0.0
 10
26.898360461
 20
252.9836063138
 30
0.0
  0
SPLINE
  5
2C2
100
AcDbEntity
  8
0
100
AcDbSpline
 62
7
  6
CONTINUOUS
 70
0
 71
3
 72
9
 73
5
 74
0
 42
0.0000001
 43
0.0000001
 44
0.0000000001
 40
0.0
 40
0.0
 40
0.0
 40
0.0
 40
0.2536548829
 40
1.0
 40
1.0
 40
1.0
 40
1.0
 10
30.3578052456
 20
240.8768107621
 30
0.0
 10
30.394248943
 20
240.8316834461
 30
0.0
 10
30.5455680445
 20
240.660101956
 30
0.0
 10
30.7285489606
 20
240.5163253335
 30
0.0
 10
30.8763310508
 20
240.4309458211
 30
0.0
  0
SPLINE
  5
2C3
100
AcDbEntity
  8
0
100
AcDbSpline
 62
7
  6
CONTINUOUS
 70
0
 71
3
 72
11
 73
7
 74
0
 42
0.0000001
 43
0.0000001
 44
0.0000000001
 40
0.0
 40
0.0
 40
0.0
 40
0.0
 40
0.2717668072
 40
0.5268680782
 40
0.7676307415
 40
1.0
 40
1.0
 40
1.0
 40
1.0
 10
20.3792725405
 20
230.0772214503
 30
0.0
 10
20.3792725401
 20
229.8003527081
 30
0.0
 10
20.4331111815
 20
229.2613122314
 30
0.0
 10
20.6909068397
 20
228.5146060126
 30
0.0
 10
21.1134277311
 20
227.8933465196
 30
0.0
 10
21.4957640957
 20
227.5857590336
 30
0.0
 10
21.7007756095
 20
227.4673862419
 30
0.0
  0
SPLINE
  5
2C4
100
AcDbEntity
  8
0
100
AcDbSpline
 62
7
  6
CONTINUOUS
 70
0
 71
3
 72
12
 73
8
 74
0
 42
0.0000001
 43
0.0000001
 44
0.0000000001
 40
0.0
 40
0.0
 40
0.0
 40
0.0
 40
0.2349899833
 40
0.4894752595
 40
0.6202667695
 40
0.7503904793
 40
1.0
 40
1.0
 40
1.0
 40
1.0
 10
23.7263800937
 20
234.6977371593
 30
0.0
 10
23.2672407591
 20
234.5746623433
 30
0.0
 10
22.3621819236
 20
234.1122746475
 30
0.0
 10
21.4749911632
 20
233.1978616514
 30
0.0
 10
20.9265504705
 20
232.3070110245
 30
0.0
 10
20.5198805139
 20
231.3553426913
 30
0.0
 10
20.3792725412
 20
230.5821431793
 30
0.0
 10
20.3792725405
 20
230.0772214503
 30
0.0
  0
SPLINE
  5
2C5
100
AcDbEntity
  8
0
100
AcDbSpline
 62
7
  6
CONTINUOUS
 70
0
 71
3
 72
21
 73
17
 74
0
 42
0.0000001
 43
0.0000001
 44
0.0000000001
 40
0.0
 40
0.0
 40
0.0
 40
0.0
 40
0.0524705347
 40
0.1058422668
 40
0.1608890322
 40
0.2181647006
 40
0.2779603765
 40
0.3403046685
 40
0.404991693
 40
0.4716227035
 40
0.6081929828
 40
0.7450058844
 40
0.811922784
 40
0.8769822192
 40
0.9397548461
 40
1.0
 40
1.0
 40
1.0
 40
1.0
 10
36.3558471314
 20
262.4218024392
 30
0.0
 10
37.1422679995
 20
261.9675516372
 30
0.0
 10
38.6381899651
 20
260.8839811152
 30
0.0
 10
40.5295691257
 20
258.8164517099
 30
0.0
 10
42.0337526343
 20
256.3549991493
 30
0.0
 10
43.1158005141
 20
253.5637908838
 30
0.0
 10
43.7535790183
 20
250.5115427133
 30
0.0
 10
43.9347221666
 20
247.2717977913
 30
0.0
 10
43.6569378582
 20
243.920997425
 30
0.0
 10
42.6778569566
 20
239.3778034282
 30
0.0
 10
40.3789778182
 20
233.8955169872
 30
0.0
 10
36.8734791584
 20
229.0887810674
 30
0.0
 10
33.4851321706
 20
225.8854707886
 30
0.0
 10
30.7512084555
 20
223.8960899728
 30
0.0
 10
27.8735186305
 20
222.3525410282
 30
0.0
 10
25.8596062733
 20
221.630529024
 30
0.0
 10
24.8524111725
 20
221.3605448551
 30
0.0
  0
SPLINE
  5
2C6
100
AcDbEntity
  8
0
100
AcDbSpline
 62
7
  6
CONTINUOUS
 70
0
 71
3
 72
11
 73
7
 74
0
 42
0.0000001
 43
0.0000001
 44
0.0000000001
 40
0.0
 40
0.0
 40
0.0
 40
0.0
 40
0.2717748086
 40
0.5268698864
 40
0.7676346258
 40
1.0
 40
1.0
 40
1.0
 40
1.0
 10
36.2475806496
 20
255.4145631851
 30
0.0
 10
36.2475806496
 20
255.8247497849
 30
0.0
 10
36.1678299231
 20
256.6233332437
 30
0.0
 10
35.7858668592
 20
257.7295465513
 30
0.0
 10
35.1599348591
 20
258.6499377856
 30
0.0
 10
34.5934827764
 20
259.1055696447
 30
0.0
 10
34.2897832472
 20
259.2809594102
 30
0.0
  0
SPLINE
  5
2C7
100
AcDbEntity
  8
0
100
AcDbSpline
 62
7
  6
CONTINUOUS
 70
0
 71
3
 72
9
 73
5
 74
0
 42
0.0000001
 43
0.0000001
 44
0.0000000001
 40
0.0
 40
0.0
 40
0.0
 40
0.0
 40
0.4809295891
 40
1.0
 40
1.0
 40
1.0
 40
1.0
 10
15.8160194087
 20
241.5947647825
 30
0.0
 10
16.064560052
 20
241.2159306494
 30
0.0
 10
16.4457180729
 20
240.3348706142
 30
0.0
 10
16.5582406592
 20
239.387303571
 30
0.0
 10
16.5582406592
 20
238.898283939
 30
0.0
  0
SPLINE
  5
2C8
100
AcDbEntity
  8
0
100
AcDbSpline
 62
7
  6
CONTINUOUS
 70
0
 71
3
 72
11
 73
7
 74
0
 42
0.0000001
 43
0.0000001
 44
0.0000000001
 40
0.0
 40
0.0
 40
0.0
 40
0.0
 40
0.2634103434
 40
0.5159329171
 40
0.760204413
 40
1.0
 40
1.0
 40
1.0
 40
1.0
 10
24.8524111725
 20
263.649937073
 30
0.0
 10
25.8580267158
 20
263.9194978328
 30
0.0
 10
27.8765084664
 20
264.2861988594
 30
0.0
 10
30.8992801912
 20
264.2713522369
 30
0.0
 10
33.769391097
 20
263.676155675
 30
0.0
 10
35.53513965
 20
262.8958578042
 30
0.0
 10
36.3558471314
 20
262.4218024392
 30
0.0
  0
SPLINE
  5
2C9
100
AcDbEntity
  8
0
100
AcDbSpline
 62
7
  6
CONTINUOUS
 70
0
 71
3
 72
14
 73
10
 74
0
 42
0.0000001
 43
0.0000001
 44
0.0000000001
 40
0.0
 40
0.0
 40
0.0
 40
0.0
 40
0.1052604354
 40
0.2158759227
 40
0.3350393976
 40
0.4630357673
 40
0.5976778338
 40
0.735209708
 40
1.0
 40
1.0
 40
1.0
 40
1.0
 10
30.8763310508
 20
240.4309458211
 30
0.0
 10
31.068803395
 20
240.3197469952
 30
0.0
 10
31.5102416376
 20
240.1650004852
 30
0.0
 10
32.2298675907
 20
240.1761219348
 30
0.0
 10
32.9569998076
 20
240.4154837523
 30
0.0
 10
33.6395530193
 20
240.8588097157
 30
0.0
 10
34.231313452
 20
241.472429436
 30
0.0
 10
34.8336385119
 20
242.438227309
 30
0.0
 10
35.0551015604
 20
243.2972938975
 30
0.0
 10
35.0551015604
 20
243.8564689159
 30
0.0
  0
SPLINE
  5
2CA
100
AcDbEntity
  8
0
100
AcDbSpline
 62
7
  6
CONTINUOUS
 70
0
 71
3
 72
11
 73
7
 74
0
 42
0.0000001
 43
0.0000001
 44
0.0000000001
 40
0.0
 40
0.0
 40
0.0
 40
0.0
 40
0.2717748086
 40
0.5268698864
 40
0.7676346258
 40
1.0
 40
1.0
 40
1.0
 40
1.0
 10
40.2255512394
 20
242.8619026923
 30
0.0
 10
40.2255512394
 20
243.2720892921
 30
0.0
 10
40.1458005129
 20
244.070672751
 30
0.0
 10
39.763837449
 20
245.1768860586
 30
0.0
 10
39.1379054488
 20
246.0972772928
 30
0.0
 10
38.5714533662
 20
246.552909152
 30
0.0
 10
38.267753837
 20
246.7282989175
 30
0.0
  0
SPLINE
  5
2CB
100
AcDbEntity
  8
0
100
AcDbSpline
 62
7
  6
CONTINUOUS
 70
0
 71
3
 72
15
 73
11
 74
0
 42
0.0000001
 43
0.0000001
 44
0.0000000001
 40
0.0
 40
0.0
 40
0.0
 40
0.0
 40
0.0524624807
 40
0.1056459719
 40
0.2162146376
 40
0.3353287776
 40
0.4632708635
 40
0.5978578246
 40
0.7353251938
 40
1.0
 40
1.0
 40
1.0
 40
1.0
 10
32.2659929287
 20
236.3371048946
 30
0.0
 10
32.4488123997
 20
236.2315246711
 30
0.0
 10
32.8374841617
 20
236.0523507988
 30
0.0
 10
33.6841536029
 20
235.835224399
 30
0.0
 10
34.8450612088
 20
235.8511796153
 30
0.0
 10
36.2289722368
 20
236.3078232818
 30
0.0
 10
37.5294295574
 20
237.1520450593
 30
0.0
 10
38.6564817015
 20
238.3209141405
 30
0.0
 10
39.8037503415
 20
240.1605186947
 30
0.0
 10
40.2255512394
 20
241.796813954
 30
0.0
 10
40.2255512394
 20
242.8619026923
 30
0.0
  0
SPLINE
  5
2CC
100
AcDbEntity
  8
0
100
AcDbSpline
 62
7
  6
CONTINUOUS
 70
0
 71
3
 72
11
 73
7
 74
0
 42
0.0000001
 43
0.0000001
 44
0.0000000001
 40
0.0
 40
0.0
 40
0.0
 40
0.0
 40
0.2717748086
 40
0.5268698864
 40
0.7676346258
 40
1.0
 40
1.0
 40
1.0
 40
1.0
 10
23.3745974086
 20
251.9638894489
 30
0.0
 10
23.3745974086
 20
252.3740760487
 30
0.0
 10
23.294846682
 20
253.1726595075
 30
0.0
 10
22.9128836181
 20
254.2788728151
 30
0.0
 10
22.286951618
 20
255.1992640494
 30
0.0
 10
21.7204995354
 20
255.6548959085
 30
0.0
 10
21.4168000062
 20
255.830285674
 30
0.0
  0
SPLINE
  5
2CD
100
AcDbEntity
  8
0
100
AcDbSpline
 62
7
  6
CONTINUOUS
 70
0
 71
3
 72
9
 73
5
 74
0
 42
0.0000001
 43
0.0000001
 44
0.0000000001
 40
0.0
 40
0.0
 40
0.0
 40
0.0
 40
0.4808658739
 40
1.0
 40
1.0
 40
1.0
 40
1.0
 10
36.6596416815
 20
247.204816726
 30
0.0
 10
36.9110238995
 20
246.8236020337
 30
0.0
 10
37.2966801605
 20
245.9359840172
 30
0.0
 10
37.4104735423
 20
244.9808167282
 30
0.0
 10
37.4104735423
 20
244.4878392894
 30
0.0
  0
SPLINE
  5
2CE
100
AcDbEntity
  8
0
100
AcDbSpline
 62
7
  6
CONTINUOUS
 70
0
 71
3
 72
14
 73
10
 74
0
 42
0.0000001
 43
0.0000001
 44
0.0000000001
 40
0.0
 40
0.0
 40
0.0
 40
0.0
 40
0.1052604354
 40
0.2158759227
 40
0.3350393976
 40
0.4630357673
 40
0.5976778338
 40
0.735209708
 40
1.0
 40
1.0
 40
1.0
 40
1.0
 10
26.898360461
 20
252.9836063138
 30
0.0
 10
27.0908328052
 20
252.872407488
 30
0.0
 10
27.5322710478
 20
252.717660978
 30
0.0
 10
28.2518970009
 20
252.7287824276
 30
0.0
 10
28.9790292178
 20
252.9681442451
 30
0.0
 10
29.6615824295
 20
253.4114702085
 30
0.0
 10
30.2533428623
 20
254.0250899288
 30
0.0
 10
30.8556679221
 20
254.9908878018
 30
0.0
 10
31.0771309706
 20
255.8499543903
 30
0.0
 10
31.0771309706
 20
256.4091294086
 30
0.0
  0
SPLINE
  5
2CF
100
AcDbEntity
  8
0
100
AcDbSpline
 62
7
  6
CONTINUOUS
 70
0
 71
3
 72
14
 73
10
 74
0
 42
0.0000001
 43
0.0000001
 44
0.0000000001
 40
0.0
 40
0.0
 40
0.0
 40
0.0
 40
0.2686164723
 40
0.3932530389
 40
0.5129262831
 40
0.6303784462
 40
0.7488454196
 40
0.8713344666
 40
1.0
 40
1.0
 40
1.0
 40
1.0
 10
19.8524110005
 20
228.9837798766
 30
0.0
 10
19.8524109995
 20
228.2964836524
 30
0.0
 10
20.0239556061
 20
227.269507852
 30
0.0
 10
20.6565696786
 20
226.1084122441
 30
0.0
 10
21.2869725981
 20
225.4170411662
 30
0.0
 10
22.0599383073
 20
224.9178566536
 30
0.0
 10
22.9421761253
 20
224.6326481319
 30
0.0
 10
23.8946272149
 20
224.5715341706
 30
0.0
 10
24.5344267996
 20
224.6768454703
 30
0.0
 10
24.8524111725
 20
224.7620829248
 30
0.0
  0
SPLINE
  5
2D0
100
AcDbEntity
  8
0
100
AcDbSpline
 62
7
  6
CONTINUOUS
 70
0
 71
3
 72
15
 73
11
 74
0
 42
0.0000001
 43
0.0000001
 44
0.0000000001
 40
0.0
 40
0.0
 40
0.0
 40
0.0
 40
0.0524624807
 40
0.1056459719
 40
0.2162146376
 40
0.3353287776
 40
0.4632708635
 40
0.5978578246
 40
0.7353251938
 40
1.0
 40
1.0
 40
1.0
 40
1.0
 10
28.2880223389
 20
248.8897653873
 30
0.0
 10
28.4708418099
 20
248.7841851639
 30
0.0
 10
28.8595135719
 20
248.6050112915
 30
0.0
 10
29.7061830131
 20
248.3878848917
 30
0.0
 10
30.867090619
 20
248.403840108
 30
0.0
 10
32.251001647
 20
248.8604837746
 30
0.0
 10
33.5514589676
 20
249.704705552
 30
0.0
 10
34.6785111118
 20
250.8735746332
 30
0.0
 10
35.8257797517
 20
252.7131791874
 30
0.0
 10
36.2475806496
 20
254.3494744467
 30
0.0
 10
36.2475806496
 20
255.4145631851
 30
0.0
  0
SPLINE
  5
2D1
100
AcDbEntity
  8
0
100
AcDbSpline
 62
7
  6
CONTINUOUS
 70
0
 71
3
 72
14
 73
10
 74
0
 42
0.0000001
 43
0.0000001
 44
0.0000000001
 40
0.0
 40
0.0
 40
0.0
 40
0.0
 40
0.2346073929
 40
0.3603379301
 40
0.4894684284
 40
0.6200482101
 40
0.7499714674
 40
0.8772023527
 40
1.0
 40
1.0
 40
1.0
 40
1.0
 10
24.8524111725
 20
224.7620829248
 30
0.0
 10
25.5382698656
 20
224.9459311078
 30
0.0
 10
26.5378643065
 20
225.4568565025
 30
0.0
 10
27.6583475287
 20
226.4301110829
 30
0.0
 10
28.414526457
 20
227.3252822329
 30
0.0
 10
29.0348388014
 20
228.3330879493
 30
0.0
 10
29.497323243
 20
229.4165613719
 30
0.0
 10
29.7842143696
 20
230.5347009513
 30
0.0
 10
29.8524113443
 20
231.2926705664
 30
0.0
 10
29.8524113446
 20
231.6643347956
 30
0.0
  0
SPLINE
  5
2D2
100
AcDbEntity
  8
0
100
AcDbSpline
 62
7
  6
CONTINUOUS
 70
0
 71
3
 72
14
 73
10
 74
0
 42
0.0000001
 43
0.0000001
 44
0.0000000001
 40
0.0
 40
0.0
 40
0.0
 40
0.0
 40
0.2556690249
 40
0.3889668627
 40
0.521692845
 40
0.6509794578
 40
0.7744748713
 40
0.8908079919
 40
1.0
 40
1.0
 40
1.0
 40
1.0
 10
16.5582406592
 20
238.898283939
 30
0.0
 10
16.5582406592
 20
238.0182106045
 30
0.0
 10
16.2684447871
 20
236.6679301173
 30
0.0
 10
15.4524687863
 20
235.0629501426
 30
0.0
 10
14.6310091528
 20
233.9682167184
 30
0.0
 10
13.6520227487
 20
233.0614624332
 30
0.0
 10
12.563684105
 20
232.3885459177
 30
0.0
 10
11.4211013446
 20
231.9862920914
 30
0.0
 10
10.6374156047
 20
231.9141917413
 30
0.0
 10
10.2620377956
 20
231.9333179628
 30
0.0
  0
SPLINE
  5
2D3
100
AcDbEntity
  8
0
100
AcDbSpline
 62
7
  6
CONTINUOUS
 70
0
 71
3
 72
11
 73
7
 74
0
 42
0.0000001
 43
0.0000001
 44
0.0000000001
 40
0.0
 40
0.0
 40
0.0
 40
0.0
 40
0.2717575042
 40
0.5268818
 40
0.7676364318
 40
1.0
 40
1.0
 40
1.0
 40
1.0
 10
14.2261771398
 20
238.2731615266
 30
0.0
 10
14.2261771398
 20
238.4884957713
 30
0.0
 10
14.1842849914
 20
238.9077558025
 30
0.0
 10
13.9838043959
 20
239.4885374267
 30
0.0
 10
13.6551464857
 20
239.9717403703
 30
0.0
 10
13.3577611345
 20
240.210917582
 30
0.0
 10
13.1983359
 20
240.3030237958
 30
0.0
  0
SPLINE
  5
2D4
100
AcDbEntity
  8
0
100
AcDbSpline
 62
7
  6
CONTINUOUS
 70
0
 71
3
 72
9
 73
5
 74
0
 42
0.0000001
 43
0.0000001
 44
0.0000000001
 40
0.0
 40
0.0
 40
0.0
 40
0.0
 40
0.4808658739
 40
1.0
 40
1.0
 40
1.0
 40
1.0
 10
32.6816710917
 20
259.7574772187
 30
0.0
 10
32.9330533097
 20
259.3762625264
 30
0.0
 10
33.3187095707
 20
258.4886445099
 30
0.0
 10
33.4325029525
 20
257.533477221
 30
0.0
 10
33.4325029525
 20
257.0404997821
 30
0.0
  0
SPLINE
  5
2D5
100
AcDbEntity
  8
0
100
AcDbSpline
 62
7
  6
CONTINUOUS
 70
0
 71
3
 72
14
 73
10
 74
0
 42
0.0000001
 43
0.0000001
 44
0.0000000001
 40
0.0
 40
0.0
 40
0.0
 40
0.0
 40
0.1052604354
 40
0.2158759227
 40
0.3350393976
 40
0.4630357673
 40
0.5976778338
 40
0.735209708
 40
1.0
 40
1.0
 40
1.0
 40
1.0
 10
14.0253772199
 20
249.5329325776
 30
0.0
 10
14.2178495641
 20
249.4217337518
 30
0.0
 10
14.6592878067
 20
249.2669872418
 30
0.0
 10
15.3789137598
 20
249.2781086914
 30
0.0
 10
16.1060459767
 20
249.5174705089
 30
0.0
 10
16.7885991885
 20
249.9607964723
 30
0.0
 10
17.3803596212
 20
250.5744161926
 30
0.0
 10
17.9826846811
 20
251.5402140656
 30
0.0
 10
18.2041477296
 20
252.3992806541
 30
0.0
 10
18.2041477296
 20
252.9584556724
 30
0.0
  0
SPLINE
  5
2D6
100
AcDbEntity
  8
0
100
AcDbSpline
 62
7
  6
CONTINUOUS
 70
0
 71
3
 72
14
 73
10
 74
0
 42
0.0000001
 43
0.0000001
 44
0.0000000001
 40
0.0
 40
0.0
 40
0.0
 40
0.0
 40
0.2686164723
 40
0.3932530389
 40
0.5129262831
 40
0.6303784462
 40
0.7488454196
 40
0.8713344666
 40
1.0
 40
1.0
 40
1.0
 40
1.0
 10
29.8524113446
 20
231.6643347956
 30
0.0
 10
29.8524113451
 20
232.3516310198
 30
0.0
 10
29.680866739
 20
233.3786068201
 30
0.0
 10
29.0482526664
 20
234.5397024281
 30
0.0
 10
28.417849747
 20
235.231073506
 30
0.0
 10
27.6448840378
 20
235.7302580186
 30
0.0
 10
26.7626462198
 20
236.0154665402
 30
0.0
 10
25.8101951302
 20
236.0765805016
 30
0.0
 10
25.1703955454
 20
235.9712692019
 30
0.0
 10
24.8524111725
 20
235.8860317473
 30
0.0
  0
SPLINE
  5
2D7
100
AcDbEntity
  8
0
100
AcDbSpline
 62
7
  6
CONTINUOUS
 70
0
 71
3
 72
14
 73
10
 74
0
 42
0.0000001
 43
0.0000001
 44
0.0000000001
 40
0.0
 40
0.0
 40
0.0
 40
0.0
 40
0.2557124446
 40
0.3890318847
 40
0.5217703936
 40
0.6510556316
 40
0.7745342754
 40
0.8908387655
 40
1.0
 40
1.0
 40
1.0
 40
1.0
 10
20.5595197114
 20
253.5898260459
 30
0.0
 10
20.5595197114
 20
252.7047428578
 30
0.0
 10
20.2677937173
 20
251.3467635367
 30
0.0
 10
19.4465180144
 20
249.733013749
 30
0.0
 10
18.619808529
 20
248.6326087749
 30
0.0
 10
17.6347054188
 20
247.7216170772
 30
0.0
 10
16.5397664047
 20
247.0462006473
 30
0.0
 10
15.3905286382
 20
246.6434056887
 30
0.0
 10
14.6025515566
 20
246.5723800731
 30
0.0
 10
14.2252486249
 20
246.5923997104
 30
0.0
  0
SPLINE
  5
2D8
100
AcDbEntity
  8
0
100
AcDbSpline
 62
7
  6
CONTINUOUS
 70
0
 71
3
 72
11
 73
7
 74
0
 42
0.0000001
 43
0.0000001
 44
0.0000000001
 40
0.0
 40
0.0
 40
0.0
 40
0.0
 40
0.2717575042
 40
0.5268818
 40
0.7676364318
 40
1.0
 40
1.0
 40
1.0
 40
1.0
 10
18.2041477296
 20
252.9584556724
 30
0.0
 10
18.2041477296
 20
253.1737899171
 30
0.0
 10
18.1622555812
 20
253.5930499483
 30
0.0
 10
17.9617749857
 20
254.1738315725
 30
0.0
 10
17.6331170755
 20
254.6570345161
 30
0.0
 10
17.3357317243
 20
254.8962117278
 30
0.0
 10
17.1763064898
 20
254.9883179416
 30
0.0
  0
SPLINE
  5
2D9
100
AcDbEntity
  8
0
100
AcDbSpline
 62
7
  6
CONTINUOUS
 70
0
 71
3
 72
14
 73
10
 74
0
 42
0.0000001
 43
0.0000001
 44
0.0000000001
 40
0.0
 40
0.0
 40
0.0
 40
0.0
 40
0.2346073929
 40
0.3603379301
 40
0.4894684284
 40
0.6200482101
 40
0.7499714674
 40
0.8772023527
 40
1.0
 40
1.0
 40
1.0
 40
1.0
 10
24.8524111725
 20
235.8860317473
 30
0.0
 10
24.1665524795
 20
235.7021835643
 30
0.0
 10
23.1669580386
 20
235.1912581696
 30
0.0
 10
22.0464748163
 20
234.2180035892
 30
0.0
 10
21.2902958881
 20
233.3228324393
 30
0.0
 10
20.6699835436
 20
232.3150267228
 30
0.0
 10
20.2074991021
 20
231.2315533002
 30
0.0
 10
19.9206079753
 20
230.1134137209
 30
0.0
 10
19.8524110011
 20
229.3554441057
 30
0.0
 10
19.8524110005
 20
228.9837798766
 30
0.0
  0
SPLINE
  5
2DA
100
AcDbEntity
  8
0
100
AcDbSpline
 62
7
  6
CONTINUOUS
 70
0
 71
3
 72
14
 73
10
 74
0
 42
0.0000001
 43
0.0000001
 44
0.0000000001
 40
0.0
 40
0.0
 40
0.0
 40
0.0
 40
0.2557124446
 40
0.3890318847
 40
0.5217703936
 40
0.6510556316
 40
0.7745342754
 40
0.8908387655
 40
1.0
 40
1.0
 40
1.0
 40
1.0
 10
33.4325029525
 20
257.0404997821
 30
0.0
 10
33.4325029525
 20
256.155416594
 30
0.0
 10
33.1407769584
 20
254.7974372729
 30
0.0
 10
32.3195012554
 20
253.1836874852
 30
0.0
 10
31.49279177
 20
252.0832825111
 30
0.0
 10
30.5076886599
 20
251.1722908134
 30
0.0
 10
29.4127496458
 20
250.4968743835
 30
0.0
 10
28.2635118793
 20
250.0940794249
 30
0.0
 10
27.4755347977
 20
250.0230538093
 30
0.0
 10
27.098231866
 20
250.0430734466
 30
0.0
  0
SPLINE
  5
2DB
100
AcDbEntity
  8
0
100
AcDbSpline
 62
7
  6
CONTINUOUS
 70
0
 71
3
 72
11
 73
7
 74
0
 42
0.0000001
 43
0.0000001
 44
0.0000000001
 40
0.0
 40
0.0
 40
0.0
 40
0.0
 40
0.2717575042
 40
0.5268818
 40
0.7676364318
 40
1.0
 40
1.0
 40
1.0
 40
1.0
 10
31.0771309706
 20
256.4091294086
 30
0.0
 10
31.0771309706
 20
256.6244636533
 30
0.0
 10
31.0352388223
 20
257.0437236845
 30
0.0
 10
30.8347582267
 20
257.6245053087
 30
0.0
 10
30.5061003165
 20
258.1077082523
 30
0.0
 10
30.2087149653
 20
258.346885464
 30
0.0
 10
30.0492897309
 20
258.4389916778
 30
0.0
  0
SPLINE
  5
2DC
100
AcDbEntity
  8
0
100
AcDbSpline
 62
7
  6
CONTINUOUS
 70
0
 71
3
 72
14
 73
10
 74
0
 42
0.0000001
 43
0.0000001
 44
0.0000000001
 40
0.0
 40
0.0
 40
0.0
 40
0.0
 40
0.2557124446
 40
0.3890318847
 40
0.5217703936
 40
0.6510556316
 40
0.7745342754
 40
0.8908387655
 40
1.0
 40
1.0
 40
1.0
 40
1.0
 10
37.4104735423
 20
244.4878392894
 30
0.0
 10
37.4104735423
 20
243.6027561012
 30
0.0
 10
37.1187475482
 20
242.2447767802
 30
0.0
 10
36.2974718452
 20
240.6310269924
 30
0.0
 10
35.4707623598
 20
239.5306220184
 30
0.0
 10
34.4856592497
 20
238.6196303207
 30
0.0
 10
33.3907202356
 20
237.9442138908
 30
0.0
 10
32.241482469
 20
237.5414189322
 30
0.0
 10
31.4535053874
 20
237.4703933165
 30
0.0
 10
31.0762024558
 20
237.4904129539
 30
0.0
  0
SPLINE
  5
2DD
100
AcDbEntity
  8
0
100
AcDbSpline
 62
7
  6
CONTINUOUS
 70
0
 71
3
 72
11
 73
7
 74
0
 42
0.0000001
 43
0.0000001
 44
0.0000000001
 40
0.0
 40
0.0
 40
0.0
 40
0.0
 40
0.2717575042
 40
0.5268818
 40
0.7676364318
 40
1.0
 40
1.0
 40
1.0
 40
1.0
 10
35.0551015604
 20
243.8564689159
 30
0.0
 10
35.0551015604
 20
244.0718031606
 30
0.0
 10
35.0132094121
 20
244.4910631917
 30
0.0
 10
34.8127288165
 20
245.0718448159
 30
0.0
 10
34.4840709063
 20
245.5550477595
 30
0.0
 10
34.1866855551
 20
245.7942249713
 30
0.0
 10
34.0272603206
 20
245.8863311851
 30
0.0
  0
SPLINE
  5
2DE
100
AcDbEntity
  8
0
100
AcDbSpline
 62
7
  6
CONTINUOUS
 70
0
 71
3
 72
15
 73
11
 74
0
 42
0.0000001
 43
0.0000001
 44
0.0000000001
 40
0.0
 40
0.0
 40
0.0
 40
0.0
 40
0.0524624807
 40
0.1056459719
 40
0.2162146376
 40
0.3353287776
 40
0.4632708635
 40
0.5978578246
 40
0.7353251938
 40
1.0
 40
1.0
 40
1.0
 40
1.0
 10
15.4150390978
 20
245.4390916511
 30
0.0
 10
15.5978585688
 20
245.3335114277
 30
0.0
 10
15.9865303308
 20
245.1543375553
 30
0.0
 10
16.8331997721
 20
244.9372111555
 30
0.0
 10
17.9941073779
 20
244.9531663718
 30
0.0
 10
19.3780184059
 20
245.4098100384
 30
0.0
 10
20.6784757266
 20
246.2540318158
 30
0.0
 10
21.8055278707
 20
247.422900897
 30
0.0
 10
22.9527965107
 20
249.2625054512
 30
0.0
 10
23.3745974086
 20
250.8988007105
 30
0.0
 10
23.3745974086
 20
251.9638894489
 30
0.0
  0
SPLINE
  5
2DF
100
AcDbEntity
  8
0
100
AcDbSpline
 62
7
  6
CONTINUOUS
 70
0
 71
3
 72
12
 73
8
 74
0
 42
0.0000001
 43
0.0000001
 44
0.0000000001
 40
0.0
 40
0.0
 40
0.0
 40
0.0
 40
0.2349899833
 40
0.4894752595
 40
0.6202667696
 40
0.7503904793
 40
1.0
 40
1.0
 40
1.0
 40
1.0
 10
23.7263800937
 20
227.2511267905
 30
0.0
 10
24.1855194288
 20
227.3742016066
 30
0.0
 10
25.0905782652
 20
227.8365893031
 30
0.0
 10
25.9777690261
 20
228.7510023008
 30
0.0
 10
26.5262097188
 20
229.6418529289
 30
0.0
 10
26.9328796748
 20
230.5935212633
 30
0.0
 10
27.0734876471
 20
231.3667207762
 30
0.0
 10
27.0734876469
 20
231.8716425056
 30
0.0
  0
SPLINE
  5
2E0
100
AcDbEntity
  8
0
100
AcDbSpline
 62
7
  6
CONTINUOUS
 70
0
 71
3
 72
11
 73
7
 74
0
 42
0.0000001
 43
0.0000001
 44
0.0000000001
 40
0.0
 40
0.0
 40
0.0
 40
0.0
 40
0.2717668071
 40
0.5268680781
 40
0.7676307415
 40
1.0
 40
1.0
 40
1.0
 40
1.0
 10
27.0734876469
 20
231.8716425056
 30
0.0
 10
27.0734876467
 20
232.1485112472
 30
0.0
 10
27.0196490049
 20
232.6875517227
 30
0.0
 10
26.7618533463
 20
233.4342579396
 30
0.0
 10
26.3393324552
 20
234.0555174311
 30
0.0
 10
25.9569960913
 20
234.3631049164
 30
0.0
 10
25.7519845779
 20
234.4814777079
 30
0.0
  0
SPLINE
  5
2E1
100
AcDbEntity
  8
0
100
AcDbSpline
 62
7
  6
CONTINUOUS
 70
0
 71
3
 72
9
 73
5
 74
0
 42
0.0000001
 43
0.0000001
 44
0.0000000001
 40
0.0
 40
0.0
 40
0.0
 40
0.0
 40
0.4808658739
 40
1.0
 40
1.0
 40
1.0
 40
1.0
 10
19.8086878507
 20
256.3068034825
 30
0.0
 10
20.0600700686
 20
255.9255887902
 30
0.0
 10
20.4457263296
 20
255.0379707737
 30
0.0
 10
20.5595197114
 20
254.0828034848
 30
0.0
 10
20.5595197114
 20
253.5898260459
 30
0.0
  0
SPLINE
  5
2E2
100
AcDbEntity
  8
0
100
AcDbSpline
 62
7
  6
CONTINUOUS
 70
0
 71
3
 72
21
 73
17
 74
0
 42
0.0000001
 43
0.0000001
 44
0.0000000001
 40
0.0
 40
0.0
 40
0.0
 40
0.0
 40
0.0524705347
 40
0.1058422668
 40
0.1608890322
 40
0.2181647006
 40
0.2779603765
 40
0.3403046685
 40
0.404991693
 40
0.4716227035
 40
0.6081929828
 40
0.7450058844
 40
0.811922784
 40
0.8769822192
 40
0.9397548461
 40
1.0
 40
1.0
 40
1.0
 40
1.0
 10
13.3489752137
 20
222.5886794888
 30
0.0
 10
12.5625543456
 20
223.0429302909
 30
0.0
 10
11.06663238
 20
224.1265008128
 30
0.0
 10
9.1752532193
 20
226.1940302182
 30
0.0
 10
7.6710697107
 20
228.6554827788
 30
0.0
 10
6.5890218309
 20
231.4466910443
 30
0.0
 10
5.9512433267
 20
234.4989392148
 30
0.0
 10
5.7701001785
 20
237.7386841368
 30
0.0
 10
6.0478844869
 20
241.0894845031
 30
0.0
 10
7.0269653885
 20
245.6326784999
 30
0.0
 10
9.3258445269
 20
251.1149649408
 30
0.0
 10
12.8313431867
 20
255.9217008607
 30
0.0
 10
16.2196901745
 20
259.1250111395
 30
0.0
 10
18.9536138895
 20
261.1143919553
 30
0.0
 10
21.8313037145
 20
262.6579408999
 30
0.0
 10
23.8452160717
 20
263.3799529041
 30
0.0
 10
24.8524111725
 20
263.649937073
 30
0.0
  0
SPLINE
  5
2E3
100
AcDbEntity
  8
0
100
AcDbSpline
 62
7
  6
CONTINUOUS
 70
0
 71
3
 72
14
 73
10
 74
0
 42
0.0000001
 43
0.0000001
 44
0.0000000001
 40
0.0
 40
0.0
 40
0.0
 40
0.0
 40
0.1052604354
 40
0.2158759227
 40
0.3350393976
 40
0.4630357673
 40
0.5976778338
 40
0.735209708
 40
1.0
 40
1.0
 40
1.0
 40
1.0
 10
10.0474066302
 20
234.8476384318
 30
0.0
 10
10.2398789743
 20
234.736439606
 30
0.0
 10
10.681317217
 20
234.581693096
 30
0.0
 10
11.40094317
 20
234.5928145456
 30
0.0
 10
12.1280753869
 20
234.8321763631
 30
0.0
 10
12.8106285987
 20
235.2755023265
 30
0.0
 10
13.4023890314
 20
235.8891220468
 30
0.0
 10
14.0047140913
 20
236.8549199198
 30
0.0
 10
14.2261771398
 20
237.7139865083
 30
0.0
 10
14.2261771398
 20
238.2731615266
 30
0.0
  0
SPLINE
  5
2E4
100
AcDbEntity
  8
0
100
AcDbSpline
 62
7
  6
CONTINUOUS
 70
0
 71
3
 72
11
 73
7
 74
0
 42
0.0000001
 43
0.0000001
 44
0.0000000001
 40
0.0
 40
0.0
 40
0.0
 40
0.0
 40
0.2717748105
 40
0.5268698752
 40
0.7676346318
 40
1.0
 40
1.0
 40
1.0
 40
1.0
 10
19.3733183563
 20
237.2723473419
 30
0.0
 10
19.3733183563
 20
237.6806058465
 30
0.0
 10
19.2939425122
 20
238.4754355196
 30
0.0
 10
18.9137748596
 20
239.5764490253
 30
0.0
 10
18.2907851037
 20
240.4925139488
 30
0.0
 10
17.7269956202
 20
240.9460040721
 30
0.0
 10
17.4247236651
 20
241.1205694324
 30
0.0
  0
SPLINE
  5
2E5
100
AcDbEntity
  8
0
100
AcDbSpline
 62
7
  6
CONTINUOUS
 70
0
 71
3
 72
10
 73
6
 74
0
 42
0.0000001
 43
0.0000001
 44
0.0000000001
 40
0.0
 40
0.0
 40
0.0
 40
0.0
 40
0.2403281524
 40
0.485096085
 40
1.0
 40
1.0
 40
1.0
 40
1.0
 10
21.7007756095
 20
227.4673862419
 30
0.0
 10
21.8453094486
 20
227.383933007
 30
0.0
 10
22.1563611044
 20
227.2465841283
 30
0.0
 10
22.8399875618
 20
227.1042418876
 30
0.0
 10
23.3809968567
 20
227.1585449202
 30
0.0
 10
23.7263800937
 20
227.2511267905
 30
0.0
  0
SPLINE
  5
2E6
100
AcDbEntity
  8
0
100
AcDbSpline
 62
7
  6
CONTINUOUS
 70
0
 71
3
 72
15
 73
11
 74
0
 42
0.0000001
 43
0.0000001
 44
0.0000000001
 40
0.0
 40
0.0
 40
0.0
 40
0.0
 40
0.0524624725
 40
0.1056459662
 40
0.2162146426
 40
0.335328794
 40
0.4632708983
 40
0.5978578562
 40
0.7353252271
 40
1.0
 40
1.0
 40
1.0
 40
1.0
 10
11.4511742593
 20
230.7782196011
 30
0.0
 10
11.6331343428
 20
230.6731356627
 30
0.0
 10
12.0199791361
 20
230.4948040537
 30
0.0
 10
12.8626687731
 20
230.2786981947
 30
0.0
 10
14.018119601
 20
230.2945784591
 30
0.0
 10
15.395525644
 20
230.7490757306
 30
0.0
 10
16.6898701608
 20
231.5893293464
 30
0.0
 10
17.811624547
 20
232.7527042072
 30
0.0
 10
18.9535002376
 20
234.5836615728
 30
0.0
 10
19.3733183563
 20
236.2122652285
 30
0.0
 10
19.3733183563
 20
237.2723473419
 30
0.0
  0
SPLINE
  5
2E7
100
AcDbEntity
  8
0
100
AcDbSpline
 62
7
  6
CONTINUOUS
 70
0
 71
3
 72
12
 73
8
 74
0
 42
0.0000001
 43
0.0000001
 44
0.0000000001
 40
0.0
 40
0.0
 40
0.0
 40
0.0
 40
0.1143141546
 40
0.2320076927
 40
0.4780753152
 40
0.7371598839
 40
1.0
 40
1.0
 40
1.0
 40
1.0
 10
48.2575022781
 20
220.7527046224
 30
0.0
 10
47.9844829653
 20
220.6795202988
 30
0.0
 10
47.4457615202
 20
220.4663447736
 30
0.0
 10
46.4588882793
 20
219.8022108189
 30
0.0
 10
45.4749047573
 20
218.564071035
 30
0.0
 10
44.8697897853
 20
216.729190556
 30
0.0
 10
44.880990017
 20
215.4106988425
 30
0.0
 10
44.9951775797
 20
214.7708993863
 30
0.0
  0
SPLINE
  5
2E8
100
AcDbEntity
  8
0
100
AcDbSpline
 62
7
  6
CONTINUOUS
 70
0
 71
3
 72
14
 73
10
 74
0
 42
0.0000001
 43
0.0000001
 44
0.0000000001
 40
0.0
 40
0.0
 40
0.0
 40
0.0
 40
0.114088324
 40
0.2315233684
 40
0.3529032548
 40
0.4781993011
 40
0.6068147942
 40
0.7377090688
 40
1.0
 40
1.0
 40
1.0
 40
1.0
 10
-32.9885446796
 20
289.3646638259
 30
0.0
 10
-33.3981059836
 20
289.2548786729
 30
0.0
 10
-34.2061111177
 20
288.9353873094
 30
0.0
 10
-35.3014027936
 20
288.1974793665
 30
0.0
 10
-36.2553535843
 20
287.2253107104
 30
0.0
 10
-37.0322228182
 20
286.0576838934
 30
0.0
 10
-37.6040676848
 20
284.7383697224
 30
0.0
 10
-38.0657388819
 20
282.8484853823
 30
0.0
 10
-38.0533070456
 20
281.3516213957
 30
0.0
 10
-37.8820317269
 20
280.391955972
 30
0.0
  0
SPLINE
  5
2E9
100
AcDbEntity
  8
0
100
AcDbSpline
 62
7
  6
CONTINUOUS
 70
0
 71
3
 72
13
 73
9
 74
0
 42
0.0000001
 43
0.0000001
 44
0.0000000001
 40
0.0
 40
0.0
 40
0.0
 40
0.0
 40
0.267702785
 40
0.523095256
 40
0.64603859
 40
0.7659487402
 40
0.8835892837
 40
1.0
 40
1.0
 40
1.0
 40
1.0
 10
-23.0936152956
 20
197.5316114329
 30
0.0
 10
-22.954213587
 20
196.750535673
 30
0.0
 10
-22.4692021892
 20
195.2522710498
 30
0.0
 10
-21.3443079315
 20
193.6598821956
 30
0.0
 10
-20.2105019924
 20
192.7032981335
 30
0.0
 10
-19.2796245337
 20
192.1665057972
 30
0.0
 10
-18.2837849546
 20
191.8180177574
 30
0.0
 10
-17.5922241112
 20
191.7176107771
 30
0.0
 10
-17.2475872152
 20
191.701392189
 30
0.0
  0
SPLINE
  5
2EA
100
AcDbEntity
  8
0
100
AcDbSpline
 62
7
  6
CONTINUOUS
 70
0
 71
3
 72
17
 73
13
 74
0
 42
0.0000001
 43
0.0000001
 44
0.0000000001
 40
0.0
 40
0.0
 40
0.0
 40
0.0
 40
0.040037271
 40
0.0828916922
 40
0.1306078836
 40
0.1842328439
 40
0.3091200408
 40
0.4529231193
 40
0.6053940697
 40
0.7544097566
 40
0.8885512168
 40
1.0
 40
1.0
 40
1.0
 40
1.0
 10
0.8867877398
 20
285.3623822891
 30
0.0
 10
0.942721473
 20
285.377372422
 30
0.0
 10
1.0539847044
 20
285.4281341158
 30
0.0
 10
1.1960397026
 20
285.5561171532
 30
0.0
 10
1.3128577374
 20
285.7309531836
 30
0.0
 10
1.4388720719
 20
286.0346166561
 30
0.0
 10
1.5118539236
 20
286.5010799558
 30
0.0
 10
1.4796932971
 20
287.1123363921
 30
0.0
 10
1.3349075607
 20
287.7431001963
 30
0.0
 10
1.0917923975
 20
288.3281397373
 30
0.0
 10
0.7766496692
 20
288.8077773855
 30
0.0
 10
0.5085426992
 20
289.052225358
 30
0.0
 10
0.3689594332
 20
289.1328460601
 30
0.0
  0
SPLINE
  5
2EB
100
AcDbEntity
  8
0
100
AcDbSpline
 62
7
  6
CONTINUOUS
 70
0
 71
3
 72
13
 73
9
 74
0
 42
0.0000001
 43
0.0000001
 44
0.0000000001
 40
0.0
 40
0.0
 40
0.0
 40
0.0
 40
0.1156375563
 40
0.2326529977
 40
0.3519263286
 40
0.47418771
 40
0.7291737118
 40
1.0
 40
1.0
 40
1.0
 40
1.0
 10
40.792394154
 20
269.3529132576
 30
0.0
 10
41.5204929261
 20
268.8752262788
 30
0.0
 10
42.9177064495
 20
267.8064041376
 30
0.0
 10
44.7782847591
 20
265.9075790214
 30
0.0
 10
46.3900584738
 20
263.7307892974
 30
0.0
 10
48.205594444
 20
260.4513766053
 30
0.0
 10
49.7374113703
 20
255.7663568579
 30
0.0
 10
50.1158428027
 20
251.792813164
 30
0.0
 10
50.1158428027
 20
249.7533490454
 30
0.0
  0
SPLINE
  5
2EC
100
AcDbEntity
  8
0
100
AcDbSpline
 62
7
  6
CONTINUOUS
 70
0
 71
3
 72
14
 73
10
 74
0
 42
0.0000001
 43
0.0000001
 44
0.0000000001
 40
0.0
 40
0.0
 40
0.0
 40
0.0
 40
0.2622909583
 40
0.393185238
 40
0.5218007329
 40
0.6470967759
 40
0.7684766562
 40
0.8859116878
 40
1.0
 40
1.0
 40
1.0
 40
1.0
 10
53.6961207418
 20
217.3563064769
 30
0.0
 10
53.8673960782
 20
216.3966409541
 30
0.0
 10
53.8798278927
 20
214.8997768364
 30
0.0
 10
53.4181565831
 20
213.0098923931
 30
0.0
 10
52.8463116581
 20
211.6905782336
 30
0.0
 10
52.0694423908
 20
210.5229514712
 30
0.0
 10
51.1154916065
 20
209.5507829276
 30
0.0
 10
50.0202000117
 20
208.8128750723
 30
0.0
 10
49.2121949561
 20
208.4933837646
 30
0.0
 10
48.8026336943
 20
208.3835986229
 30
0.0
  0
SPLINE
  5
2ED
100
AcDbEntity
  8
0
100
AcDbSpline
 62
7
  6
CONTINUOUS
 70
0
 71
3
 72
19
 73
15
 74
0
 42
0.0000001
 43
0.0000001
 44
0.0000000001
 40
0.0
 40
0.0
 40
0.0
 40
0.0
 40
0.0523306522
 40
0.1053801264
 40
0.1597856217
 40
0.2160393058
 40
0.2744528782
 40
0.3351488517
 40
0.4627703703
 40
0.597019266
 40
0.6655874449
 40
0.734331356
 40
0.8699441233
 40
1.0
 40
1.0
 40
1.0
 40
1.0
 10
38.6937050534
 20
267.7694390771
 30
0.0
 10
37.8162105285
 20
268.2763059534
 30
0.0
 10
35.9507780741
 20
269.1362042499
 30
0.0
 10
32.9382448754
 20
269.9076605295
 30
0.0
 10
29.7622152109
 20
270.1526609467
 30
0.0
 10
26.4870015608
 20
269.8688267032
 30
0.0
 10
23.1750739272
 20
269.0646439486
 30
0.0
 10
18.7231493849
 20
267.294109055
 30
0.0
 10
13.4272223011
 20
263.8558696407
 30
0.0
 10
8.948214658
 20
259.2129222232
 30
0.0
 10
5.9319639372
 20
254.8951251377
 30
0.0
 10
3.3730396057
 20
250.2609685068
 30
0.0
 10
1.1469420414
 20
244.1266803502
 30
0.0
 10
0.4877419216
 20
238.968754139
 30
0.0
 10
0.4877419216
 20
236.4502645092
 30
0.0
  0
SPLINE
  5
2EE
100
AcDbEntity
  8
0
100
AcDbSpline
 62
7
  6
CONTINUOUS
 70
0
 71
3
 72
9
 73
5
 74
0
 42
0.0000001
 43
0.0000001
 44
0.0000000001
 40
0.0
 40
0.0
 40
0.0
 40
0.0
 40
0.251640531
 40
1.0
 40
1.0
 40
1.0
 40
1.0
 10
-13.1808395124
 20
191.7685887944
 30
0.0
 10
-13.3161999971
 20
191.7323046743
 30
0.0
 10
-13.8593541984
 20
191.6084858954
 30
0.0
 10
-14.4217165829
 20
191.5684842734
 30
0.0
 10
-14.8380190262
 20
191.5880754391
 30
0.0
  0
SPLINE
  5
2EF
100
AcDbEntity
  8
0
100
AcDbSpline
 62
7
  6
CONTINUOUS
 70
0
 71
3
 72
9
 73
5
 74
0
 42
0.0000001
 43
0.0000001
 44
0.0000000001
 40
0.0
 40
0.0
 40
0.0
 40
0.0
 40
0.748453333
 40
1.0
 40
1.0
 40
1.0
 40
1.0
 10
-14.2740769301
 20
203.814975352
 30
0.0
 10
-14.5516464143
 20
203.8280310501
 30
0.0
 10
-14.9265474835
 20
203.8013180887
 30
0.0
 10
-15.2886570811
 20
203.718808203
 30
0.0
 10
-15.378863548
 20
203.6946278649
 30
0.0
  0
SPLINE
  5
2F0
100
AcDbEntity
  8
0
100
AcDbSpline
 62
7
  6
CONTINUOUS
 70
0
 71
3
 72
11
 73
7
 74
0
 42
0.0000001
 43
0.0000001
 44
0.0000000001
 40
0.0
 40
0.0
 40
0.0
 40
0.0
 40
0.2580028507
 40
0.5093891506
 40
0.7559336872
 40
1.0
 40
1.0
 40
1.0
 40
1.0
 10
19.8604072606
 20
213.3396075904
 30
0.0
 10
18.8633985916
 20
213.2654083208
 30
0.0
 10
16.8819899207
 20
213.251103484
 30
0.0
 10
13.9699051228
 20
213.653142223
 30
0.0
 10
11.2031196358
 20
214.4747698224
 30
0.0
 10
9.4786775796
 20
215.2968235646
 30
0.0
 10
8.6597134429
 20
215.7698591082
 30
0.0
  0
SPLINE
  5
2F1
100
AcDbEntity
  8
0
100
AcDbSpline
 62
7
  6
CONTINUOUS
 70
0
 71
3
 72
13
 73
9
 74
0
 42
0.0000001
 43
0.0000001
 44
0.0000000001
 40
0.0
 40
0.0
 40
0.0
 40
0.0
 40
0.2459935595
 40
0.3740900668
 40
0.5033719513
 40
0.6321855239
 40
0.7589163515
 40
1.0
 40
1.0
 40
1.0
 40
1.0
 10
50.1158428027
 20
249.7533490454
 30
0.0
 10
50.1158428027
 20
246.2940843936
 30
0.0
 10
49.2605782158
 20
241.0041412554
 30
0.0
 10
46.7480224408
 20
234.374172762
 30
0.0
 10
44.161024251
 20
229.5794589496
 30
0.0
 10
40.9739071774
 20
225.1839845075
 30
0.0
 10
36.1460285684
 20
220.1223816426
 30
0.0
 10
31.7963891326
 20
217.1351181632
 30
0.0
 10
28.7183840056
 20
215.7140368223
 30
0.0
  0
SPLINE
  5
2F2
100
AcDbEntity
  8
0
100
AcDbSpline
 62
7
  6
CONTINUOUS
 70
0
 71
3
 72
13
 73
9
 74
0
 42
0.0000001
 43
0.0000001
 44
0.0000000001
 40
0.0
 40
0.0
 40
0.0
 40
0.0
 40
0.2727009736
 40
0.5411794552
 40
0.6668054337
 40
0.784250349
 40
0.8943347783
 40
1.0
 40
1.0
 40
1.0
 40
1.0
 10
28.7183840056
 20
215.7140368223
 30
0.0
 10
28.5450367237
 20
214.8322045163
 30
0.0
 10
27.8379927211
 20
213.1418319902
 30
0.0
 10
26.2784136386
 20
211.5096192515
 30
0.0
 10
24.7764029045
 20
210.7147095807
 30
0.0
 10
23.6334830743
 20
210.4314199503
 30
0.0
 10
22.5203853685
 20
210.4735745777
 30
0.0
 10
21.8401321156
 20
210.7272914074
 30
0.0
 10
21.5385760798
 20
210.9014381232
 30
0.0
  0
SPLINE
  5
2F3
100
AcDbEntity
  8
0
100
AcDbSpline
 62
7
  6
CONTINUOUS
 70
0
 71
3
 72
11
 73
7
 74
0
 42
0.0000001
 43
0.0000001
 44
0.0000000001
 40
0.0
 40
0.0
 40
0.0
 40
0.0
 40
0.2717350397
 40
0.5268969419
 40
0.7676331593
 40
1.0
 40
1.0
 40
1.0
 40
1.0
 10
21.3968335501
 20
215.0266235232
 30
0.0
 10
21.3968335501
 20
214.787385068
 30
0.0
 10
21.443418613
 20
214.3215417744
 30
0.0
 10
21.6661072385
 20
213.6762043184
 30
0.0
 10
22.0313712592
 20
213.139363895
 30
0.0
 10
22.361742345
 20
212.8735671939
 30
0.0
 10
22.5388943079
 20
212.7712468629
 30
0.0
  0
SPLINE
  5
2F4
100
AcDbEntity
  8
0
100
AcDbSpline
 62
7
  6
CONTINUOUS
 70
0
 71
3
 72
13
 73
9
 74
0
 42
0.0000001
 43
0.0000001
 44
0.0000000001
 40
0.0
 40
0.0
 40
0.0
 40
0.0
 40
0.2714323375
 40
0.526217443
 40
0.6482289235
 40
0.7672664579
 40
0.8841850979
 40
1.0
 40
1.0
 40
1.0
 40
1.0
 10
0.4877419216
 20
236.4502645092
 30
0.0
 10
0.4877419216
 20
234.4813998914
 30
0.0
 10
0.8697489957
 20
230.649432703
 30
0.0
 10
2.4228652423
 20
226.1555280856
 30
0.0
 10
4.2588417515
 20
223.051005456
 30
0.0
 10
5.8851109865
 20
221.0150348913
 30
0.0
 10
7.7578324719
 20
219.2688281667
 30
0.0
 10
9.1576286449
 20
218.3115766556
 30
0.0
 10
9.8850906784
 20
217.8914253577
 30
0.0
  0
SPLINE
  5
2F5
100
AcDbEntity
  8
0
100
AcDbSpline
 62
7
  6
CONTINUOUS
 70
0
 71
3
 72
9
 73
5
 74
0
 42
0.0000001
 43
0.0000001
 44
0.0000000001
 40
0.0
 40
0.0
 40
0.0
 40
0.0
 40
0.2456092179
 40
1.0
 40
1.0
 40
1.0
 40
1.0
 10
12.9221669781
 20
273.5173598175
 30
0.0
 10
12.8660829022
 20
272.8765474744
 30
0.0
 10
12.5578166614
 20
270.2748597473
 30
0.0
 10
11.9382186502
 20
267.7119162037
 30
0.0
 10
11.3190148459
 20
265.8356671446
 30
0.0
  0
SPLINE
  5
2F6
100
AcDbEntity
  8
0
100
AcDbSpline
 62
7
  6
CONTINUOUS
 70
0
 71
3
 72
11
 73
7
 74
0
 42
0.0000001
 43
0.0000001
 44
0.0000000001
 40
0.0
 40
0.0
 40
0.0
 40
0.0
 40
0.234371939
 40
0.478287004
 40
0.733383336
 40
1.0
 40
1.0
 40
1.0
 40
1.0
 10
47.9556600879
 20
271.1939644298
 30
0.0
 10
49.0008639894
 20
269.9521143796
 30
0.0
 10
50.8739793195
 20
267.1889950542
 30
0.0
 10
52.8846833032
 20
262.4956766522
 30
0.0
 10
54.1024718721
 20
257.3103428471
 30
0.0
 10
54.3617127351
 20
253.6901624254
 30
0.0
 10
54.3617127351
 20
251.8436912027
 30
0.0
  0
SPLINE
  5
2F7
100
AcDbEntity
  8
0
100
AcDbSpline
 62
7
  6
CONTINUOUS
 70
0
 71
3
 72
14
 73
10
 74
0
 42
0.0000001
 43
0.0000001
 44
0.0000000001
 40
0.0
 40
0.0
 40
0.0
 40
0.0
 40
0.2491613242
 40
0.3790638972
 40
0.5096227349
 40
0.6387325639
 40
0.7644429917
 40
0.8851815827
 40
1.0
 40
1.0
 40
1.0
 40
1.0
 10
54.3617127351
 20
251.8436912027
 30
0.0
 10
54.3617127351
 20
247.1374510523
 30
0.0
 10
53.0506856882
 20
239.9298974587
 30
0.0
 10
49.2612322505
 20
231.060871558
 30
0.0
 10
45.3886049973
 20
224.7681904723
 30
0.0
 10
40.6752320227
 20
219.1857494233
 30
0.0
 10
35.2929892385
 20
214.5173497446
 30
0.0
 10
29.4434088401
 20
210.9420774564
 30
0.0
 10
25.2581388987
 20
209.3374370132
 30
0.0
 10
23.1633645542
 20
208.7759212652
 30
0.0
  0
SPLINE
  5
2F8
100
AcDbEntity
  8
0
100
AcDbSpline
 62
7
  6
CONTINUOUS
 70
0
 71
3
 72
11
 73
7
 74
0
 42
0.0000001
 43
0.0000001
 44
0.0000000001
 40
0.0
 40
0.0
 40
0.0
 40
0.0
 40
0.265548532
 40
0.5204583644
 40
0.7648429954
 40
1.0
 40
1.0
 40
1.0
 40
1.0
 10
-9.7235655495
 20
236.0854911334
 30
0.0
 10
-9.6846629818
 20
234.2142982948
 30
0.0
 10
-9.3463213274
 20
230.5454187943
 30
0.0
 10
-8.01198223
 20
225.2981931508
 30
0.0
 10
-5.8923658081
 20
220.5470306585
 30
0.0
 10
-3.9534101155
 20
217.7482327448
 30
0.0
 10
-2.8766063125
 20
216.4882896898
 30
0.0
  0
SPLINE
  5
2F9
100
AcDbEntity
  8
0
100
AcDbSpline
 62
7
  6
CONTINUOUS
 70
0
 71
3
 72
13
 73
9
 74
0
 42
0.0000001
 43
0.0000001
 44
0.0000000001
 40
0.0
 40
0.0
 40
0.0
 40
0.0
 40
0.2450944837
 40
0.371918189
 40
0.4999613461
 40
0.628009741
 40
0.7548481713
 40
1.0
 40
1.0
 40
1.0
 40
1.0
 10
10.5463825144
 20
274.8905074442
 30
0.0
 10
7.4515012332
 20
272.8333733416
 30
0.0
 10
3.1779202544
 20
269.0272253088
 30
0.0
 10
-1.4808409931
 20
263.0340022707
 30
0.0
 10
-4.4783358743
 20
258.0441883156
 30
0.0
 10
-6.8613507568
 20
252.7332176056
 30
0.0
 10
-9.1197117354
 20
245.4845808928
 30
0.0
 10
-9.8008275147
 20
239.8017506136
 30
0.0
 10
-9.7235655495
 20
236.0854911334
 30
0.0
  0
SPLINE
  5
2FA
100
AcDbEntity
  8
0
100
AcDbSpline
 62
7
  6
CONTINUOUS
 70
0
 71
3
 72
10
 73
6
 74
0
 42
0.0000001
 43
0.0000001
 44
0.0000000001
 40
0.0
 40
0.0
 40
0.0
 40
0.0
 40
0.5135914483
 40
0.7586498354
 40
1.0
 40
1.0
 40
1.0
 40
1.0
 10
-11.30180711
 20
290.0242354864
 30
0.0
 10
-10.6270508387
 20
290.7246431079
 30
0.0
 10
-9.5034108965
 20
291.6535664869
 30
0.0
 10
-7.8192323485
 20
292.5297487499
 30
0.0
 10
-6.9456517729
 20
292.8342549297
 30
0.0
 10
-6.504201477
 20
292.9525687708
 30
0.0
  0
SPLINE
  5
2FB
100
AcDbEntity
  8
0
100
AcDbSpline
 62
7
  6
CONTINUOUS
 70
0
 71
3
 72
9
 73
5
 74
0
 42
0.0000001
 43
0.0000001
 44
0.0000000001
 40
0.0
 40
0.0
 40
0.0
 40
0.0
 40
0.5312871198
 40
1.0
 40
1.0
 40
1.0
 40
1.0
 10
0.3689594332
 20
289.1328460601
 30
0.0
 10
0.2866541103
 20
289.1803840861
 30
0.0
 10
0.1179196244
 20
289.2508689714
 30
0.0
 10
-0.0678741294
 20
289.2476778129
 30
0.0
 10
-0.1488688734
 20
289.2259713774
 30
0.0
  0
SPLINE
  5
2FC
100
AcDbEntity
  8
0
100
AcDbSpline
 62
7
  6
CONTINUOUS
 70
0
 71
3
 72
9
 73
5
 74
0
 42
0.0000001
 43
0.0000001
 44
0.0000000001
 40
0.0
 40
0.0
 40
0.0
 40
0.0
 40
0.5076072926
 40
1.0
 40
1.0
 40
1.0
 40
1.0
 10
31.6264594934
 20
277.4616776282
 30
0.0
 10
31.9924962692
 20
276.6235435068
 30
0.0
 10
32.8384691791
 20
275.0234076606
 30
0.0
 10
33.9343783724
 20
273.5811111403
 30
0.0
 10
34.5303618252
 20
272.9239469766
 30
0.0
  0
SPLINE
  5
2FD
100
AcDbEntity
  8
0
100
AcDbSpline
 62
7
  6
CONTINUOUS
 70
0
 71
3
 72
9
 73
5
 74
0
 42
0.0000001
 43
0.0000001
 44
0.0000000001
 40
0.0
 40
0.0
 40
0.0
 40
0.0
 40
0.2438434687
 40
1.0
 40
1.0
 40
1.0
 40
1.0
 10
6.5647185604
 20
279.9107348446
 30
0.0
 10
6.5647185604
 20
279.1305748688
 30
0.0
 10
6.4375399115
 20
275.9317859619
 30
0.0
 10
5.8180982871
 20
272.7576993457
 30
0.0
 10
5.1182365851
 20
270.4418715447
 30
0.0
  0
SPLINE
  5
2FE
100
AcDbEntity
  8
0
100
AcDbSpline
 62
7
  6
CONTINUOUS
 70
0
 71
3
 72
13
 73
9
 74
0
 42
0.0000001
 43
0.0000001
 44
0.0000000001
 40
0.0
 40
0.0
 40
0.0
 40
0.0
 40
0.1164107274
 40
0.234051279
 40
0.3539614352
 40
0.4769047712
 40
0.7322972383
 40
1.0
 40
1.0
 40
1.0
 40
1.0
 10
-14.8380190262
 20
191.5880754391
 30
0.0
 10
-15.182655955
 20
191.6042940304
 30
0.0
 10
-15.8742168564
 20
191.7047010178
 30
0.0
 10
-16.8700564949
 20
192.0531891194
 30
0.0
 10
-17.800933976
 20
192.5899815122
 30
0.0
 10
-18.9347398934
 20
193.546565619
 30
0.0
 10
-20.0596340638
 20
195.1389544418
 30
0.0
 10
-20.5446454102
 20
196.6372189906
 30
0.0
 10
-20.6840471066
 20
197.4182946825
 30
0.0
  0
SPLINE
  5
2FF
100
AcDbEntity
  8
0
100
AcDbSpline
 62
7
  6
CONTINUOUS
 70
0
 71
3
 72
11
 73
7
 74
0
 42
0.0000001
 43
0.0000001
 44
0.0000000001
 40
0.0
 40
0.0
 40
0.0
 40
0.0
 40
0.2682595766
 40
0.5241619233
 40
0.7665488161
 40
1.0
 40
1.0
 40
1.0
 40
1.0
 10
-10.3767251519
 20
199.9281572728
 30
0.0
 10
-10.4696637589
 20
200.4488976125
 30
0.0
 10
-10.7935686172
 20
201.4481351682
 30
0.0
 10
-11.6792318353
 20
202.7035225642
 30
0.0
 10
-12.876887051
 20
203.5604484602
 30
0.0
 10
-13.8142534987
 20
203.7933471967
 30
0.0
 10
-14.2740769301
 20
203.814975352
 30
0.0
  0
SPLINE
  5
300
100
AcDbEntity
  8
0
100
AcDbSpline
 62
7
  6
CONTINUOUS
 70
0
 71
3
 72
10
 73
6
 74
0
 42
0.0000001
 43
0.0000001
 44
0.0000000001
 40
0.0
 40
0.0
 40
0.0
 40
0.0
 40
0.2392061844
 40
0.4834298669
 40
1.0
 40
1.0
 40
1.0
 40
1.0
 10
21.5385760798
 20
210.9014381232
 30
0.0
 10
21.3289950981
 20
211.0224698232
 30
0.0
 10
20.9323241663
 20
211.3174253519
 30
0.0
 10
20.2707165405
 20
212.0912960803
 30
0.0
 10
19.9725733481
 20
212.8291426719
 30
0.0
 10
19.8604072606
 20
213.3396075904
 30
0.0
  0
SPLINE
  5
301
100
AcDbEntity
  8
0
100
AcDbSpline
 62
7
  6
CONTINUOUS
 70
0
 71
3
 72
12
 73
8
 74
0
 42
0.0000001
 43
0.0000001
 44
0.0000000001
 40
0.0
 40
0.0
 40
0.0
 40
0.0
 40
0.1143141546
 40
0.2320076927
 40
0.4780753152
 40
0.7371598839
 40
1.0
 40
1.0
 40
1.0
 40
1.0
 10
-28.4274662815
 20
276.8066965759
 30
0.0
 10
-28.1544469687
 20
276.8798808996
 30
0.0
 10
-27.6157255236
 20
277.0930564247
 30
0.0
 10
-26.6288522827
 20
277.7571903795
 30
0.0
 10
-25.6448687608
 20
278.9953301634
 30
0.0
 10
-25.0397537888
 20
280.8302106422
 30
0.0
 10
-25.0509540204
 20
282.1487023557
 30
0.0
 10
-25.1651415832
 20
282.7885018118
 30
0.0
  0
SPLINE
  5
302
100
AcDbEntity
  8
0
100
AcDbSpline
 62
7
  6
CONTINUOUS
 70
0
 71
3
 72
9
 73
5
 74
0
 42
0.0000001
 43
0.0000001
 44
0.0000000001
 40
0.0
 40
0.0
 40
0.0
 40
0.0
 40
0.2531764553
 40
1.0
 40
1.0
 40
1.0
 40
1.0
 10
5.1033004851
 20
227.3517300666
 30
0.0
 10
5.0354936883
 20
227.2060034709
 30
0.0
 10
4.7377354735
 20
226.6449960216
 30
0.0
 10
4.3226450059
 20
226.1448405442
 30
0.0
 10
3.9621470585
 20
225.8368903176
 30
0.0
  0
SPLINE
  5
303
100
AcDbEntity
  8
0
100
AcDbSpline
 62
7
  6
CONTINUOUS
 70
0
 71
3
 72
19
 73
15
 74
0
 42
0.0000001
 43
0.0000001
 44
0.0000000001
 40
0.0
 40
0.0
 40
0.0
 40
0.0
 40
0.1300536288
 40
0.2656677678
 40
0.3344128376
 40
0.4029817221
 40
0.5372322756
 40
0.6648537273
 40
0.725549109
 40
0.7839624886
 40
0.8402161251
 40
0.8946213495
 40
0.9476701956
 40
1.0
 40
1.0
 40
1.0
 40
1.0
 10
-1.5370515365
 20
235.9075075215
 30
0.0
 10
-1.5370515365
 20
238.6401975657
 30
0.0
 10
-0.8217863968
 20
244.2368878262
 30
0.0
 10
1.5936569533
 20
250.8930374255
 30
0.0
 10
4.3703001043
 20
255.9214829729
 30
0.0
 10
7.64321175
 20
260.6066379369
 30
0.0
 10
12.5033161766
 20
265.6445616004
 30
0.0
 10
18.2497916665
 20
269.3752872125
 30
0.0
 10
23.0804240908
 20
271.2964353067
 30
0.0
 10
26.6740790534
 20
272.1690266881
 30
0.0
 10
30.2279072374
 20
272.4770039594
 30
0.0
 10
33.674093515
 20
272.2111299751
 30
0.0
 10
36.9428856287
 20
271.3740696468
 30
0.0
 10
38.9669080898
 20
270.4409013253
 30
0.0
 10
39.9190740642
 20
269.8909909219
 30
0.0
  0
SPLINE
  5
304
100
AcDbEntity
  8
0
100
AcDbSpline
 62
7
  6
CONTINUOUS
 70
0
 71
3
 72
13
 73
9
 74
0
 42
0.0000001
 43
0.0000001
 44
0.0000000001
 40
0.0
 40
0.0
 40
0.0
 40
0.0
 40
0.1054228116
 40
0.2162092768
 40
0.3355568365
 40
0.4637520711
 40
0.7347891091
 40
1.0
 40
1.0
 40
1.0
 40
1.0
 10
22.5388943079
 20
212.7712468629
 30
0.0
 10
22.7527608841
 20
212.647720719
 30
0.0
 10
23.2432301967
 20
212.4757713475
 30
0.0
 10
24.0427568743
 20
212.4881212397
 30
0.0
 10
24.8508388447
 20
212.754010063
 30
0.0
 10
25.8783875716
 20
213.4221791305
 30
0.0
 10
26.8581025123
 20
214.6929464242
 30
0.0
 10
27.1819577161
 20
215.9560408158
 30
0.0
 10
27.1819577161
 20
216.5773577739
 30
0.0
  0
SPLINE
  5
305
100
AcDbEntity
  8
0
100
AcDbSpline
 62
7
  6
CONTINUOUS
 70
0
 71
3
 72
13
 73
9
 74
0
 42
0.0000001
 43
0.0000001
 44
0.0000000001
 40
0.0
 40
0.0
 40
0.0
 40
0.0
 40
0.2393015345
 40
0.3658008654
 40
0.4947520418
 40
0.6244382932
 40
0.7530764118
 40
1.0
 40
1.0
 40
1.0
 40
1.0
 10
27.1819577161
 20
217.3252040368
 30
0.0
 10
30.1522806905
 20
218.5259625624
 30
0.0
 10
34.3823632829
 20
221.2062126977
 30
0.0
 10
39.0907936731
 20
225.8809301224
 30
0.0
 10
42.2183990512
 20
230.0035686898
 30
0.0
 10
44.7647849747
 20
234.5404766263
 30
0.0
 10
47.2433636016
 20
240.8469636532
 30
0.0
 10
48.0910493446
 20
245.9046978704
 30
0.0
 10
48.0910493446
 20
249.2105920576
 30
0.0
  0
SPLINE
  5
306
100
AcDbEntity
  8
0
100
AcDbSpline
 62
7
  6
CONTINUOUS
 70
0
 71
3
 72
13
 73
9
 74
0
 42
0.0000001
 43
0.0000001
 44
0.0000000001
 40
0.0
 40
0.0
 40
0.0
 40
0.0
 40
0.2714323089
 40
0.526214158
 40
0.6482247531
 40
0.7672620457
 40
0.8841830092
 40
1.0
 40
1.0
 40
1.0
 40
1.0
 10
48.0910493446
 20
249.2105920576
 30
0.0
 10
48.0910493446
 20
251.1794565251
 30
0.0
 10
47.7090431202
 20
255.0113977145
 30
0.0
 10
46.1559663347
 20
259.5052845687
 30
0.0
 10
44.3199813749
 20
262.6097703067
 30
0.0
 10
42.6936959043
 20
264.6457279159
 30
0.0
 10
40.8210402582
 20
266.3920622962
 30
0.0
 10
39.4211575503
 20
267.3492409285
 30
0.0
 10
38.6937050534
 20
267.7694390771
 30
0.0
  0
SPLINE
  5
307
100
AcDbEntity
  8
0
100
AcDbSpline
 62
7
  6
CONTINUOUS
 70
0
 71
3
 72
15
 73
11
 74
0
 42
0.0000001
 43
0.0000001
 44
0.0000000001
 40
0.0
 40
0.0
 40
0.0
 40
0.0
 40
0.080465869
 40
0.1767472117
 40
0.2945608942
 40
0.4312544813
 40
0.5795801517
 40
0.7301162501
 40
0.8730729376
 40
1.0
 40
1.0
 40
1.0
 40
1.0
 10
-0.1488688734
 20
289.2259713774
 30
0.0
 10
-0.2517372956
 20
289.1984028383
 30
0.0
 10
-0.4590956459
 20
289.0629069625
 30
0.0
 10
-0.6538917655
 20
288.7151320478
 30
0.0
 10
-0.7572281216
 20
288.2583003513
 30
0.0
 10
-0.7648819551
 20
287.722104593
 30
0.0
 10
-0.6774304586
 20
287.1499959149
 30
0.0
 10
-0.5018045325
 20
286.5897143277
 30
0.0
 10
-0.2533607667
 20
286.0893722666
 30
0.0
 10
-0.036381899
 20
285.8012198319
 30
0.0
 10
0.081975826
 20
285.6820038931
 30
0.0
  0
SPLINE
  5
308
100
AcDbEntity
  8
0
100
AcDbSpline
 62
7
  6
CONTINUOUS
 70
0
 71
3
 72
9
 73
5
 74
0
 42
0.0000001
 43
0.0000001
 44
0.0000000001
 40
0.0
 40
0.0
 40
0.0
 40
0.0
 40
0.2668760426
 40
1.0
 40
1.0
 40
1.0
 40
1.0
 10
0.081975826
 20
285.6820038931
 30
0.0
 10
0.1049253721
 20
285.6588879395
 30
0.0
 10
0.1932452568
 20
285.5746965294
 30
0.0
 10
0.2914742613
 20
285.5002616027
 30
0.0
 10
0.3689594332
 20
285.4555076064
 30
0.0
  0
SPLINE
  5
309
100
AcDbEntity
  8
0
100
AcDbSpline
 62
7
  6
CONTINUOUS
 70
0
 71
3
 72
9
 73
5
 74
0
 42
0.0000001
 43
0.0000001
 44
0.0000000001
 40
0.0
 40
0.0
 40
0.0
 40
0.0
 40
0.489991918
 40
1.0
 40
1.0
 40
1.0
 40
1.0
 10
-8.5729150362
 20
227.524500259
 30
0.0
 10
-10.5823332463
 20
229.8533887338
 30
0.0
 10
-13.9644657182
 20
235.2548435926
 30
0.0
 10
-15.8173221694
 20
241.3284764288
 30
0.0
 10
-16.3798367767
 20
244.4802778047
 30
0.0
  0
SPLINE
  5
30A
100
AcDbEntity
  8
0
100
AcDbSpline
 62
7
  6
CONTINUOUS
 70
0
 71
3
 72
11
 73
7
 74
0
 42
0.0000001
 43
0.0000001
 44
0.0000000001
 40
0.0
 40
0.0
 40
0.0
 40
0.0
 40
0.2342429697
 40
0.4783622923
 40
0.7341736475
 40
1.0
 40
1.0
 40
1.0
 40
1.0
 10
-14.298470729
 20
203.7290615164
 30
0.0
 10
-13.9116534918
 20
203.6231327307
 30
0.0
 10
-13.1534025754
 20
203.2719561021
 30
0.0
 10
-12.2150747931
 20
202.4096524838
 30
0.0
 10
-11.5222792584
 20
201.2788011446
 30
0.0
 10
-11.2598806599
 20
200.4139842284
 30
0.0
 10
-11.1799145482
 20
199.9659295229
 30
0.0
  0
SPLINE
  5
30B
100
AcDbEntity
  8
0
100
AcDbSpline
 62
7
  6
CONTINUOUS
 70
0
 71
3
 72
13
 73
9
 74
0
 42
0.0000001
 43
0.0000001
 44
0.0000000001
 40
0.0
 40
0.0
 40
0.0
 40
0.0
 40
0.1158155921
 40
0.2327342474
 40
0.351771422
 40
0.4737833006
 40
0.7285658641
 40
1.0
 40
1.0
 40
1.0
 40
1.0
 10
8.6597134429
 20
215.7698591082
 30
0.0
 10
7.8703773204
 20
216.2257814436
 30
0.0
 10
6.3514637486
 20
217.264419639
 30
0.0
 10
4.3195037107
 20
219.1592628739
 30
0.0
 10
2.554872659
 20
221.3684099063
 30
0.0
 10
0.5626758203
 20
224.7369925623
 30
0.0
 10
-1.1225370873
 20
229.6131984719
 30
0.0
 10
-1.5370515365
 20
233.7711389834
 30
0.0
 10
-1.5370515365
 20
235.9075075215
 30
0.0
  0
SPLINE
  5
30C
100
AcDbEntity
  8
0
100
AcDbSpline
 62
7
  6
CONTINUOUS
 70
0
 71
3
 72
9
 73
5
 74
0
 42
0.0000001
 43
0.0000001
 44
0.0000000001
 40
0.0
 40
0.0
 40
0.0
 40
0.0
 40
0.5025823777
 40
1.0
 40
1.0
 40
1.0
 40
1.0
 10
-16.3798367767
 20
244.4802778047
 30
0.0
 10
-17.0949323666
 20
248.4869991147
 30
0.0
 10
-17.3032833071
 20
256.7179653862
 30
0.0
 10
-15.0382830059
 20
264.6568487539
 30
0.0
 10
-13.2916737101
 20
268.2867000922
 30
0.0
  0
SPLINE
  5
30D
100
AcDbEntity
  8
0
100
AcDbSpline
 62
7
  6
CONTINUOUS
 70
0
 71
3
 72
12
 73
8
 74
0
 42
0.0000001
 43
0.0000001
 44
0.0000000001
 40
0.0
 40
0.0
 40
0.0
 40
0.0
 40
0.270063371
 40
0.525316331
 40
0.7671229024
 40
0.8844032301
 40
1.0
 40
1.0
 40
1.0
 40
1.0
 10
-2.6630826153
 20
236.5578821603
 30
0.0
 10
-2.6630826153
 20
234.6410247471
 30
0.0
 10
-2.3270082305
 20
230.899802748
 30
0.0
 10
-0.734257033
 20
225.6512275697
 30
0.0
 10
1.4791766617
 20
221.8382191399
 30
0.0
 10
3.7044291045
 20
219.2979246759
 30
0.0
 10
4.951874303
 20
218.2043922902
 30
0.0
 10
5.6040690865
 20
217.7065619481
 30
0.0
  0
SPLINE
  5
30E
100
AcDbEntity
  8
0
100
AcDbSpline
 62
7
  6
CONTINUOUS
 70
0
 71
3
 72
11
 73
7
 74
0
 42
0.0000001
 43
0.0000001
 44
0.0000000001
 40
0.0
 40
0.0
 40
0.0
 40
0.0
 40
0.2503738107
 40
0.5056801613
 40
0.7579905007
 40
1.0
 40
1.0
 40
1.0
 40
1.0
 10
11.3190148459
 20
265.8356671446
 30
0.0
 10
9.1884321082
 20
264.0414194745
 30
0.0
 10
5.2891792658
 20
259.9146140063
 30
0.0
 10
0.8591234834
 20
252.6722514223
 30
0.0
 10
-1.968450759
 20
244.7644541859
 30
0.0
 10
-2.6630826153
 20
239.2502736155
 30
0.0
 10
-2.6630826153
 20
236.5578821603
 30
0.0
  0
SPLINE
  5
30F
100
AcDbEntity
  8
0
100
AcDbSpline
 62
7
  6
CONTINUOUS
 70
0
 71
3
 72
13
 73
9
 74
0
 42
0.0000001
 43
0.0000001
 44
0.0000000001
 40
0.0
 40
0.0
 40
0.0
 40
0.0
 40
0.2434555445
 40
0.3699801945
 40
0.4980374843
 40
0.6263608477
 40
0.7536663218
 40
1.0
 40
1.0
 40
1.0
 40
1.0
 10
-8.0349779224
 20
235.1179078644
 30
0.0
 10
-8.0349779224
 20
238.8020133981
 30
0.0
 10
-7.23252243
 20
244.4265683902
 30
0.0
 10
-4.8392634176
 20
251.5835029165
 30
0.0
 10
-2.3594482307
 20
256.836593898
 30
0.0
 10
0.723680904
 20
261.7735615806
 30
0.0
 10
5.480441773
 20
267.7086541416
 30
0.0
 10
9.8033456484
 20
271.4756949077
 30
0.0
 10
12.9221669781
 20
273.5173598175
 30
0.0
  0
SPLINE
  5
310
100
AcDbEntity
  8
0
100
AcDbSpline
 62
7
  6
CONTINUOUS
 70
0
 71
3
 72
11
 73
7
 74
0
 42
0.0000001
 43
0.0000001
 44
0.0000000001
 40
0.0
 40
0.0
 40
0.0
 40
0.0
 40
0.2343719626
 40
0.4782870687
 40
0.7333833882
 40
1.0
 40
1.0
 40
1.0
 40
1.0
 10
-1.628968555
 20
215.7676875817
 30
0.0
 10
-2.6741622716
 20
217.0095394644
 30
0.0
 10
-4.5472716923
 20
219.7726491041
 30
0.0
 10
-6.5579577898
 20
224.4659581302
 30
0.0
 10
-7.7757391834
 20
229.6512748038
 30
0.0
 10
-8.0349779224
 20
233.2714430543
 30
0.0
 10
-8.0349779224
 20
235.1179078644
 30
0.0
  0
SPLINE
  5
311
100
AcDbEntity
  8
0
100
AcDbSpline
 62
7
  6
CONTINUOUS
 70
0
 71
3
 72
11
 73
7
 74
0
 42
0.0000001
 43
0.0000001
 44
0.0000000001
 40
0.0
 40
0.0
 40
0.0
 40
0.0
 40
0.242885163
 40
0.4887911563
 40
0.7404561496
 40
1.0
 40
1.0
 40
1.0
 40
1.0
 10
9.8850906784
 20
217.8914253577
 30
0.0
 10
10.7198045411
 20
217.40932994
 30
0.0
 10
12.4882120957
 20
216.5843543977
 30
0.0
 10
15.3381963209
 20
215.8142639085
 30
0.0
 10
18.3412783401
 20
215.5193298341
 30
0.0
 10
20.3756290789
 20
215.639814657
 30
0.0
 10
21.3968335501
 20
215.7744697861
 30
0.0
  0
SPLINE
  5
312
100
AcDbEntity
  8
0
100
AcDbSpline
 62
7
  6
CONTINUOUS
 70
0
 71
3
 72
10
 73
6
 74
0
 42
0.0000001
 43
0.0000001
 44
0.0000000001
 40
0.0
 40
0.0
 40
0.0
 40
0.0
 40
0.2389706298
 40
0.4827039436
 40
1.0
 40
1.0
 40
1.0
 40
1.0
 10
-6.504201477
 20
292.9525687708
 30
0.0
 10
-5.9990047931
 20
293.0879673893
 30
0.0
 10
-4.9532384627
 20
293.2757803203
 30
0.0
 10
-2.7573512394
 20
293.3045101773
 30
0.0
 10
-1.1042222807
 20
292.9260826861
 30
0.0
 10
-0.0391303578
 20
292.542121162
 30
0.0
  0
SPLINE
  5
313
100
AcDbEntity
  8
0
100
AcDbSpline
 62
7
  6
CONTINUOUS
 70
0
 71
3
 72
9
 73
5
 74
0
 42
0.0000001
 43
0.0000001
 44
0.0000000001
 40
0.0
 40
0.0
 40
0.0
 40
0.0
 40
0.497412445
 40
1.0
 40
1.0
 40
1.0
 40
1.0
 10
-13.2916737101
 20
268.2867000922
 30
0.0
 10
-11.8944020713
 20
271.190547298
 30
0.0
 10
-10.0823019902
 20
277.5416363541
 30
0.0
 10
-10.2491971343
 20
284.1264014851
 30
0.0
 10
-10.8212787858
 20
287.3318077548
 30
0.0
  0
SPLINE
  5
314
100
AcDbEntity
  8
0
100
AcDbSpline
 62
7
  6
CONTINUOUS
 70
0
 71
3
 72
9
 73
5
 74
0
 42
0.0000001
 43
0.0000001
 44
0.0000000001
 40
0.0
 40
0.0
 40
0.0
 40
0.0
 40
0.2416126336
 40
1.0
 40
1.0
 40
1.0
 40
1.0
 10
-0.0391303578
 20
292.542121162
 30
0.0
 10
-0.0049473248
 20
292.5297983107
 30
0.0
 10
0.1352714025
 20
292.4753236065
 30
0.0
 10
0.2701950743
 20
292.4075616666
 30
0.0
 10
0.3689594332
 20
292.3505172071
 30
0.0
  0
SPLINE
  5
315
100
AcDbEntity
  8
0
100
AcDbSpline
 62
7
  6
CONTINUOUS
 70
0
 71
3
 72
9
 73
5
 74
0
 42
0.0000001
 43
0.0000001
 44
0.0000000001
 40
0.0
 40
0.0
 40
0.0
 40
0.0
 40
0.2355575744
 40
1.0
 40
1.0
 40
1.0
 40
1.0
 10
0.3689594332
 20
292.3505172071
 30
0.0
 10
0.4282404821
 20
292.3162775743
 30
0.0
 10
0.6747310705
 20
292.1619920968
 30
0.0
 10
0.9004327696
 20
291.9757687702
 30
0.0
 10
1.061345009
 20
291.8225867938
 30
0.0
  0
SPLINE
  5
316
100
AcDbEntity
  8
0
100
AcDbSpline
 62
7
  6
CONTINUOUS
 70
0
 71
3
 72
9
 73
5
 74
0
 42
0.0000001
 43
0.0000001
 44
0.0000000001
 40
0.0
 40
0.0
 40
0.0
 40
0.0
 40
0.2567901514
 40
1.0
 40
1.0
 40
1.0
 40
1.0
 10
3.2766384915
 20
287.353761314
 30
0.0
 10
3.3076393558
 20
287.1976540422
 30
0.0
 10
3.4144183582
 20
286.5871248874
 30
0.0
 10
3.4655449
 20
285.9662798062
 30
0.0
 10
3.4655449
 20
285.5056465765
 30
0.0
  0
SPLINE
  5
317
100
AcDbEntity
  8
0
100
AcDbSpline
 62
7
  6
CONTINUOUS
 70
0
 71
3
 72
8
 73
4
 74
0
 42
0.0000001
 43
0.0000001
 44
0.0000000001
 40
0.0
 40
0.0
 40
0.0
 40
0.0
 40
1.0
 40
1.0
 40
1.0
 40
1.0
 10
0.6551349476
 20
285.3506099577
 30
0.0
 10
0.6927063792
 20
285.345004089
 30
0.0
 10
0.7309748486
 20
285.342756842
 30
0.0
 10
0.7689270872
 20
285.3443895783
 30
0.0
  0
SPLINE
  5
318
100
AcDbEntity
  8
0
100
AcDbSpline
 62
7
  6
CONTINUOUS
 70
0
 71
3
 72
12
 73
8
 74
0
 42
0.0000001
 43
0.0000001
 44
0.0000000001
 40
0.0
 40
0.0
 40
0.0
 40
0.0
 40
0.2628401161
 40
0.5219246848
 40
0.7679923073
 40
0.8856858454
 40
1.0
 40
1.0
 40
1.0
 40
1.0
 10
-25.9683309795
 20
282.826274062
 30
0.0
 10
-25.8541434168
 20
282.1864746058
 30
0.0
 10
-25.8429431851
 20
280.8679828923
 30
0.0
 10
-26.4480581571
 20
279.0331024135
 30
0.0
 10
-27.432041679
 20
277.7949626296
 30
0.0
 10
-28.4189149199
 20
277.1308286748
 30
0.0
 10
-28.957636365
 20
276.9176531497
 30
0.0
 10
-29.2306556778
 20
276.844468826
 30
0.0
  0
SPLINE
  5
319
100
AcDbEntity
  8
0
100
AcDbSpline
 62
7
  6
CONTINUOUS
 70
0
 71
3
 72
14
 73
10
 74
0
 42
0.0000001
 43
0.0000001
 44
0.0000000001
 40
0.0
 40
0.0
 40
0.0
 40
0.0
 40
0.2622909583
 40
0.393185238
 40
0.5218007329
 40
0.6470967759
 40
0.7684766562
 40
0.8859116878
 40
1.0
 40
1.0
 40
1.0
 40
1.0
 10
-35.4724635379
 20
280.2786392216
 30
0.0
 10
-35.6437388743
 20
281.2383047445
 30
0.0
 10
-35.6561706889
 20
282.7351688621
 30
0.0
 10
-35.1944993793
 20
284.6250533053
 30
0.0
 10
-34.6226544542
 20
285.9443674649
 30
0.0
 10
-33.845785187
 20
287.1119942273
 30
0.0
 10
-32.8918344027
 20
288.0841627709
 30
0.0
 10
-31.796542808
 20
288.8220706262
 30
0.0
 10
-30.9885377524
 20
289.1415619339
 30
0.0
 10
-30.5789764906
 20
289.2513470756
 30
0.0
  0
SPLINE
  5
31A
100
AcDbEntity
  8
0
100
AcDbSpline
 62
7
  6
CONTINUOUS
 70
0
 71
3
 72
9
 73
5
 74
0
 42
0.0000001
 43
0.0000001
 44
0.0000000001
 40
0.0
 40
0.0
 40
0.0
 40
0.0
 40
0.5105633289
 40
1.0
 40
1.0
 40
1.0
 40
1.0
 10
-2.1359245262
 20
261.843351556
 30
0.0
 10
-0.3672320622
 20
264.4121279872
 30
0.0
 10
2.3985368377
 20
269.9599316501
 30
0.0
 10
3.4655449
 20
276.0902612145
 30
0.0
 10
3.4655449
 20
279.0800037246
 30
0.0
  0
ELLIPSE
  5
31B
100
AcDbEntity
  8
0
100
AcDbEllipse
 62
7
  6
CONTINUOUS
 10
48.3920556991
 20
215.5362501399
 30
0.0
 11
-0.0199613341
 21
1.730216158
 31
0.0
 40
0.8071250907
 41
0.0
 42
6.2831853072
  0
ELLIPSE
  5
31C
100
AcDbEntity
  8
0
100
AcDbEllipse
 62
7
  6
CONTINUOUS
 10
-15.2443101268
 20
198.4781733825
 30
0.0
 11
-0.019961335
 21
1.7302162288
 31
0.0
 40
0.8071250907
 41
0.0
 42
6.2831853072
  0
ELLIPSE
  5
31D
100
AcDbEntity
  8
0
100
AcDbEllipse
 62
7
  6
CONTINUOUS
 10
-30.032726558
 20
281.3385179216
 30
0.0
 11
-0.0199613341
 21
1.730216158
 31
0.0
 40
0.8071250907
 41
0.0
 42
6.2831853072
  0
ENDSEC
  0
SECTION
  2
OBJECTS
  0
DICTIONARY
  5
C
100
AcDbDictionary
280
0
281
1
  3
ACAD_GROUP
350
D
  3
ACAD_MLINESTYLE
350
17
  3
ACAD_LAYOUT
350
1A
  3
ACAD_PLOTSETTINGS
350
19
  3
ACAD_PLOTSTYLENAME
350
E
  0
DICTIONARY
  5
D
102
{ACAD_REACTORS
330
C
102
}
100
AcDbDictionary
280
0
281
1
  0
ACDBDICTIONARYWDFLT
  5
E
102
{ACAD_REACTORS
330
C
102
}
100
AcDbDictionary
281
1
  3
Normal
350
F
100
AcDbDictionaryWithDefault
340
F
  0
DICTIONARY
  5
17
102
{ACAD_REACTORS
330
C
102
}
100
AcDbDictionary
280
0
281
1
  3
Standard
350
18
  0
DICTIONARY
  5
19
102
{ACAD_REACTORS
330
C
102
}
100
AcDbDictionary
281
1
  0
DICTIONARY
  5
1A
102
{ACAD_REACTORS
330
C
102
}
100
AcDbDictionary
281
1
  3
Model
350
31E
  3
Layout1
350
31F
  0
ACDBPLACEHOLDER
  5
F
102
{ACAD_REACTORS
330
E
102
}
  0
MLINESTYLE
  5
18
102
{ACAD_REACTORS
330
17
102
}
100
AcDbMlineStyle
  2
STANDARD
 70
0
  3

 62
256
 51
90.0
 52
90.0
 71
2
 49
0.5
 62
256
  6
BYLAYER
 49
-0.5
 62
256
  6
BYLAYER
  0
LAYOUT
  5
31E
102
{ACAD_REACTORS
330
1A
102
}
100
AcDbPlotSettings
  1

  2
none_device
  4
ANSI_C_(22.00_x_17.00_Inches)
  6

 40
0.0
 41
0.0
 42
0.0
 43
0.0
 44
558.8
 45
431.8
 46
0.0
 47
0.0
 48
0.0
 49
0.0
140
0.0
141
0.0
142
1.0
143
1.0
 70
1024
 72
1
 73
0
 74
0
  7

 75
0
147
1.0
148
0.0
149
0.0
100
AcDbLayout
  1
Model
 70
0
 71
0
 10
0.0
 20
0.0
 11
558.8
 21
431.8
 12
0.0
 22
0.0
 32
0.0
 14
0.0
 24
0.0
 34
0.0
 15
0.0
 25
0.0
 35
0.0
146
0.0
 13
0.0
 23
0.0
 33
0.0
 16
1.0
 26
0.0
 36
0.0
 17
0.0
 27
1.0
 37
0.0
 76
0
330
216
345
0
346
0
  0
LAYOUT
  5
31F
102
{ACAD_REACTORS
330
1A
102
}
100
AcDbPlotSettings
  1

  2
none_device
  4
ANSI_C_(22.00_x_17.00_Inches)
  6

 40
0.0
 41
0.0
 42
0.0
 43
0.0
 44
558.8
 45
431.8
 46
0.0
 47
0.0
 48
0.0
 49
0.0
140
0.0
141
0.0
142
1.0
143
1.0
 70
0
 72
1
 73
0
 74
0
  7

 75
0
147
1.0
148
0.0
149
0.0
100
AcDbLayout
  1
Layout1
 70
0
 71
1
 10
0.0
 20
0.0
 11
558.8
 21
431.8
 12
0.0
 22
0.0
 32
0.0
 14
0.0
 24
0.0
 34
0.0
 15
0.0
 25
0.0
 35
0.0
146
0.0
 13
0.0
 23
0.0
 33
0.0
 16
1.0
 26
0.0
 36
0.0
 17
0.0
 27
1.0
 37
0.0
 76
0
330
217
345
0
346
0
  0
ENDSEC
  0
EOF
