999
DXF file: Y:\3D PRATIKA-KAEDRA_OLGA\TRAVAIL_PHASE_5\CAD3D\PKF16F723_3D-Simplified\pkf16f723_2d-isometric.dxf
999
Pro/ENGINEER 2018260 by Parametric Technology Corporation
  0
SECTION
  2
HEADER
  9
$ACADVER
  1
AC1027
  9
$DWGCODEPAGE
  3
ANSI_1252
  9
$EXTMAX
 10
558.8
 20
431.8
 30
0.0
  9
$EXTMIN
 10
0.0
 20
0.0
 30
0.0
  9
$LIMMIN
 10
0.0
 20
0.0
  9
$LIMMAX
 10
558.8
 20
431.8
  9
$VIEWCTR
 10
279.4
 20
215.9
  9
$VIEWSIZE
 40
431.8
  9
$CLAYER
  8
0
  9
$LTSCALE
 40
30.734
  9
$CELTYPE
  6
BYLAYER
  9
$DIMSCALE
 40
1.0
  9
$DIMASZ
 40
0.1875
  9
$DIMEXO
 40
0.0625
  9
$DIMDLI
 40
21.2344
  9
$DIMEXE
 40
0.125
  9
$DIMCEN
 40
5.0292
  9
$DIMLFAC
 40
1.0
  9
$DIMBLK
  1
_CLOSED
  9
$DIMALT
 70
0
  9
$DIMALTF
 40
0.0393700787
  9
$DIMTXT
 40
0.15625
  9
$DIMTOL
 70
0
  9
$DIMLIM
 70
0
  9
$DIMTFAC
 40
1.0
  9
$DIMGAP
 40
0.625
  9
$DIMDSEP
 70
46
  9
$AUNITS
 70
0
  9
$PDMODE
 70
3
  9
$PDSIZE
 40
0.3125
  9
$HANDSEED
  5
3E7
  9
$TILEMODE
 70
1
  9
$MEASUREMENT
 70
1
  9
$INSUNITS
 70
4
  0
ENDSEC
  0
SECTION
  2
CLASSES
  0
CLASS
  1
ACDBDICTIONARYWDFLT
  2
AcDbDictionaryWithDefault
  3
AutoCAD 2000
 90
0
 91
1
280
0
281
0
  0
CLASS
  1
ACDBPLACEHOLDER
  2
AcDbPlaceHolder
  3
AutoCAD 2000
 90
0
 91
1
280
0
281
0
  0
CLASS
  1
LAYOUT
  2
AcDbLayout
  3
AutoCAD 2000
 90
0
 91
0
280
0
281
0
  0
ENDSEC
  0
SECTION
  2
TABLES
  0
TABLE
  2
VPORT
  5
8
100
AcDbSymbolTable
 70
2
  0
VPORT
  5
1F4
100
AcDbSymbolTableRecord
100
AcDbViewportTableRecord
  2
*ACTIVE
 70
0
 10
0.0
 20
0.0
 11
1.0
 21
1.0
 12
279.4
 22
215.9
 13
0.0
 23
0.0
 14
1.0
 24
1.0
 15
0.0
 25
0.0
 16
0.0
 26
0.0
 36
1.0
 17
0.0
 27
0.0
 37
0.0
 40
431.8
 41
1.2941176471
 42
50.0
 43
0.0
 44
0.0
 50
0.0
 51
0.0
 71
0
 72
100
 73
1
 74
1
 75
0
 76
0
 77
0
 78
0
  0
ENDTAB
  0
TABLE
  2
LTYPE
  5
5
100
AcDbSymbolTable
 70
6
  0
LTYPE
  5
14
100
AcDbSymbolTableRecord
100
AcDbLinetypeTableRecord
  2
BYBLOCK
 70
0
  3

 72
65
 73
0
 40
0.0
  0
LTYPE
  5
15
100
AcDbSymbolTableRecord
100
AcDbLinetypeTableRecord
  2
BYLAYER
 70
0
  3

 72
65
 73
0
 40
0.0
  0
LTYPE
  5
16
100
AcDbSymbolTableRecord
100
AcDbLinetypeTableRecord
  2
CONTINUOUS
 70
64
  3
Solid line
 72
65
 73
0
 40
0.0
  0
LTYPE
  5
1F5
100
AcDbSymbolTableRecord
100
AcDbLinetypeTableRecord
  2
CENTER
 70
64
  3
____ _ ____ _ ____ _ ____ _ ____ _ ____ _ ____
 72
65
 73
4
 40
0.6
 49
0.375
 74
0
 49
-0.075
 74
0
 49
0.075
 74
0
 49
-0.075
 74
0
  0
LTYPE
  5
1F6
100
AcDbSymbolTableRecord
100
AcDbLinetypeTableRecord
  2
HIDDEN
 70
64
  3
- - - - - - - - - - - - - - - - - - - -
 72
65
 73
2
 40
0.2
 49
0.1
 74
0
 49
-0.1
 74
0
  0
LTYPE
  5
1F7
100
AcDbSymbolTableRecord
100
AcDbLinetypeTableRecord
  2
PHANTOM
 70
64
  3
_____ _ _ _____ _ _ _____ _ _ _____
 72
65
 73
6
 40
0.8
 49
0.45
 74
0
 49
-0.05
 74
0
 49
0.1
 74
0
 49
-0.05
 74
0
 49
0.1
 74
0
 49
-0.05
 74
0
  0
LTYPE
  5
1F8
100
AcDbSymbolTableRecord
100
AcDbLinetypeTableRecord
  2
DOT
 70
64
  3
. . . . . . . . . . . . . . . . . . . .
 72
65
 73
2
 40
0.2
 49
0.1
 74
0
 49
-0.1
 74
0
  0
LTYPE
  5
1F9
100
AcDbSymbolTableRecord
100
AcDbLinetypeTableRecord
  2
DASHED
 70
64
  3
- - - - - - - - - - - - - - - - - - - -
 72
65
 73
2
 40
0.2
 49
0.1
 74
0
 49
-0.1
 74
0
  0
ENDTAB
  0
TABLE
  2
LAYER
  5
2
100
AcDbSymbolTable
 70
36
  0
LAYER
  5
10
100
AcDbSymbolTableRecord
100
AcDbLayerTableRecord
  2
0
 70
0
 62
7
  6
CONTINUOUS
370
-3
390
F
  0
LAYER
  5
1FA
100
AcDbSymbolTableRecord
100
AcDbLayerTableRecord
  2
DEFAULT_1
 70
0
 62
7
  6
CENTER
370
-3
390
F
  0
LAYER
  5
1FB
100
AcDbSymbolTableRecord
100
AcDbLayerTableRecord
  2
DEFAULT_2
 70
0
 62
8
  6
HIDDEN
370
-3
390
F
  0
LAYER
  5
1FC
100
AcDbSymbolTableRecord
100
AcDbLayerTableRecord
  2
DEFAULT_3
 70
0
 62
7
  6
PHANTOM
370
-3
390
F
  0
LAYER
  5
1FD
100
AcDbSymbolTableRecord
100
AcDbLayerTableRecord
  2
01_ALL_DTM_PLN
 70
0
 62
7
  6
CONTINUOUS
370
-3
390
F
  0
LAYER
  5
1FE
100
AcDbSymbolTableRecord
100
AcDbLayerTableRecord
  2
01__ASM_ALL_DTM_PLN
 70
0
 62
7
  6
CONTINUOUS
370
-3
390
F
  0
LAYER
  5
1FF
100
AcDbSymbolTableRecord
100
AcDbLayerTableRecord
  2
01__ASM_DEF_DTM_PLN
 70
0
 62
7
  6
CONTINUOUS
370
-3
390
F
  0
LAYER
  5
200
100
AcDbSymbolTableRecord
100
AcDbLayerTableRecord
  2
01___PRT_ALL_DTM_PLN
 70
0
 62
7
  6
CONTINUOUS
370
-3
390
F
  0
LAYER
  5
201
100
AcDbSymbolTableRecord
100
AcDbLayerTableRecord
  2
01___PRT_DEF_DTM_PLN
 70
0
 62
7
  6
CONTINUOUS
370
-3
390
F
  0
LAYER
  5
202
100
AcDbSymbolTableRecord
100
AcDbLayerTableRecord
  2
02_ALL_AXES
 70
0
 62
7
  6
CONTINUOUS
370
-3
390
F
  0
LAYER
  5
203
100
AcDbSymbolTableRecord
100
AcDbLayerTableRecord
  2
02__ASM_ALL_AXES
 70
0
 62
7
  6
CONTINUOUS
370
-3
390
F
  0
LAYER
  5
204
100
AcDbSymbolTableRecord
100
AcDbLayerTableRecord
  2
02___PRT_ALL_AXES
 70
0
 62
7
  6
CONTINUOUS
370
-3
390
F
  0
LAYER
  5
205
100
AcDbSymbolTableRecord
100
AcDbLayerTableRecord
  2
03_ALL_CURVES
 70
0
 62
7
  6
CONTINUOUS
370
-3
390
F
  0
LAYER
  5
206
100
AcDbSymbolTableRecord
100
AcDbLayerTableRecord
  2
03__ASM_ALL_CURVES
 70
0
 62
7
  6
CONTINUOUS
370
-3
390
F
  0
LAYER
  5
207
100
AcDbSymbolTableRecord
100
AcDbLayerTableRecord
  2
03___PRT_ALL_CURVES
 70
0
 62
7
  6
CONTINUOUS
370
-3
390
F
  0
LAYER
  5
208
100
AcDbSymbolTableRecord
100
AcDbLayerTableRecord
  2
04_ALL_DTM_PNT
 70
0
 62
7
  6
CONTINUOUS
370
-3
390
F
  0
LAYER
  5
209
100
AcDbSymbolTableRecord
100
AcDbLayerTableRecord
  2
04__ASM_ALL_DTM_PNT
 70
0
 62
7
  6
CONTINUOUS
370
-3
390
F
  0
LAYER
  5
20A
100
AcDbSymbolTableRecord
100
AcDbLayerTableRecord
  2
04___PRT_ALL_DTM_PNT
 70
0
 62
7
  6
CONTINUOUS
370
-3
390
F
  0
LAYER
  5
20B
100
AcDbSymbolTableRecord
100
AcDbLayerTableRecord
  2
05_ALL_DTM_CSYS
 70
0
 62
7
  6
CONTINUOUS
370
-3
390
F
  0
LAYER
  5
20C
100
AcDbSymbolTableRecord
100
AcDbLayerTableRecord
  2
05__ASM_ALL_DTM_CSYS
 70
0
 62
7
  6
CONTINUOUS
370
-3
390
F
  0
LAYER
  5
20D
100
AcDbSymbolTableRecord
100
AcDbLayerTableRecord
  2
05__ASM_DEF_DTM_CSYS
 70
0
 62
7
  6
CONTINUOUS
370
-3
390
F
  0
LAYER
  5
20E
100
AcDbSymbolTableRecord
100
AcDbLayerTableRecord
  2
05___PRT_ALL_DTM_CSYS
 70
0
 62
7
  6
CONTINUOUS
370
-3
390
F
  0
LAYER
  5
20F
100
AcDbSymbolTableRecord
100
AcDbLayerTableRecord
  2
05___PRT_DEF_DTM_CSYS
 70
0
 62
7
  6
CONTINUOUS
370
-3
390
F
  0
LAYER
  5
210
100
AcDbSymbolTableRecord
100
AcDbLayerTableRecord
  2
06_ALL_SURFS
 70
0
 62
7
  6
CONTINUOUS
370
-3
390
F
  0
LAYER
  5
211
100
AcDbSymbolTableRecord
100
AcDbLayerTableRecord
  2
06__ASM_ALL_SURFS
 70
0
 62
7
  6
CONTINUOUS
370
-3
390
F
  0
LAYER
  5
212
100
AcDbSymbolTableRecord
100
AcDbLayerTableRecord
  2
06___PRT_ALL_SURFS
 70
0
 62
7
  6
CONTINUOUS
370
-3
390
F
  0
LAYER
  5
213
100
AcDbSymbolTableRecord
100
AcDbLayerTableRecord
  2
07__ASM_ALL_SKELETONS
 70
0
 62
7
  6
CONTINUOUS
370
-3
390
F
  0
ENDTAB
  0
TABLE
  2
STYLE
  5
3
100
AcDbSymbolTable
 70
1
  0
STYLE
  5
11
100
AcDbSymbolTableRecord
100
AcDbTextStyleTableRecord
  2
STANDARD
 70
0
 40
0.0
 41
0.8
 50
0.0
 71
0
 42
0.2
  3
txt
  4

  0
STYLE
  5
214
100
AcDbSymbolTableRecord
100
AcDbTextStyleTableRecord
  2
TEXTSTYLE_1
 70
0
 40
0.0
 41
0.8
 50
0.0
 71
0
 42
0.2
  3
gdt
  4

  0
ENDTAB
  0
TABLE
  2
VIEW
  5
6
100
AcDbSymbolTable
 70
0
  0
ENDTAB
  0
TABLE
  2
UCS
  5
7
100
AcDbSymbolTable
 70
0
  0
ENDTAB
  0
TABLE
  2
APPID
  5
9
100
AcDbSymbolTable
 70
1
  0
APPID
  5
215
100
AcDbSymbolTableRecord
100
AcDbRegAppTableRecord
  2
ACAD
 70
0
  0
ENDTAB
  0
TABLE
  2
BLOCK_RECORD
  5
1
100
AcDbSymbolTable
 70
0
  0
BLOCK_RECORD
  5
216
100
AcDbSymbolTableRecord
100
AcDbBlockTableRecord
  2
*Model_Space
  0
BLOCK_RECORD
  5
217
100
AcDbSymbolTableRecord
100
AcDbBlockTableRecord
  2
*Paper_Space
  0
BLOCK_RECORD
  5
218
100
AcDbSymbolTableRecord
100
AcDbBlockTableRecord
  2
_CLOSED
  0
ENDTAB
  0
TABLE
  2
DIMSTYLE
  5
A
100
AcDbSymbolTable
 70
1
100
AcDbDimStyleTable
 71
0
  0
DIMSTYLE
105
219
100
AcDbSymbolTableRecord
100
AcDbDimStyleTableRecord
  2
STANDARD
 70
0
  3

  4

 40
1.0
 41
0.1875
 42
0.0625
 43
0.38
 44
0.125
 45
0.0
 46
0.0
 47
0.01
 48
0.01
140
0.15625
141
0.09
142
0.0
143
25.4
144
1.0
145
0.0
146
1.0
147
0.625
 71
0.0
 72
0.0
 73
1
 74
1
 75
0
 76
0
 77
0
 78
8
 79
2
170
0
171
1
172
0
173
0
174
0
175
0
176
0
177
0
178
0
270
2
179
2
271
2
272
2
273
2
274
2
275
0
280
0
281
0
282
0
283
1
284
8
285
0
286
0
287
3
288
0
340
11
278
46
341
218
342
218
343
218
344
218
  0
ENDTAB
  0
ENDSEC
  0
SECTION
  2
BLOCKS
  0
BLOCK
  5
20
100
AcDbEntity
  8
0
100
AcDbBlockBegin
  2
*Model_Space
 70
0
 10
0.0
 20
0.0
 30
0.0
  3
*Model_Space
  1

  0
ENDBLK
  5
21
100
AcDbEntity
  8
0
100
AcDbBlockEnd
  0
BLOCK
  5
1C
100
AcDbEntity
  8
0
100
AcDbBlockBegin
  2
*Paper_Space
 70
0
 10
0.0
 20
0.0
 30
0.0
  3
*Paper_Space
  1

  0
ENDBLK
  5
1D
100
AcDbEntity
  8
0
100
AcDbBlockEnd
  0
BLOCK
  5
21A
100
AcDbEntity
  8
0
100
AcDbBlockBegin
  2
_CLOSED
 70
64
 10
0.0
 20
0.0
  3
_CLOSED
  1

  0
LINE
  5
21B
100
AcDbEntity
  8
0
  6
BYBLOCK
 62
0
100
AcDbLine
 10
0.0
 20
0.0
 11
-1.0
 21
0.1666666667
  0
LINE
  5
21C
100
AcDbEntity
  8
0
  6
BYBLOCK
 62
0
100
AcDbLine
 10
-1.0
 20
0.1666666667
 11
-1.0
 21
-0.1666666667
  0
LINE
  5
21D
100
AcDbEntity
  8
0
  6
BYBLOCK
 62
0
100
AcDbLine
 10
-1.0
 20
-0.1666666667
 11
0.0
 21
0.0
  0
LINE
  5
21E
100
AcDbEntity
  8
0
  6
BYBLOCK
 62
0
100
AcDbLine
 10
-1.0
 20
0.0
 11
0.0
 21
0.0
  0
ENDBLK
  5
21F
100
AcDbEntity
  8
0
  6
BYBLOCK
 62
0
100
AcDbBlockEnd
  0
ENDSEC
  0
SECTION
  2
ENTITIES
  0
LWPOLYLINE
  5
220
100
AcDbEntity
  8
0
100
AcDbPolyline
 62
7
  6
CONTINUOUS
 90
6
 70
0
 10
1.813098828
 20
279.6896179098
 10
1.1032450661
 20
279.4219624776
 10
-0.0475647333
 20
278.5209480651
 10
-0.9093761274
 20
277.0528151094
 10
-1.4377405006
 20
274.983348572
 10
-1.6219200431
 20
272.8420213971
  0
LINE
  5
221
100
AcDbEntity
  8
0
100
AcDbLine
 62
7
  6
CONTINUOUS
 10
7.0164150359
 20
274.4751322826
 11
7.9791164486
 21
274.9869088649
  0
LINE
  5
222
100
AcDbEntity
  8
0
100
AcDbLine
 62
7
  6
CONTINUOUS
 10
6.6561377079
 20
293.3426923957
 11
6.6696233283
 21
293.3566795616
  0
LWPOLYLINE
  5
223
100
AcDbEntity
  8
0
100
AcDbPolyline
 62
7
  6
CONTINUOUS
 90
5
 70
0
 10
6.3541383651
 20
274.0774325045
 10
4.9830596436
 20
273.0628108088
 10
3.6376063116
 20
271.5137335372
 10
2.6229661498
 20
269.6021650891
 10
2.0173792608
 20
267.6521784265
  0
LINE
  5
224
100
AcDbEntity
  8
0
100
AcDbLine
 62
7
  6
CONTINUOUS
 10
16.4264980577
 20
275.1838335578
 11
16.5025797887
 21
275.2297353736
  0
LINE
  5
225
100
AcDbEntity
  8
0
100
AcDbLine
 62
7
  6
CONTINUOUS
 10
7.0158666918
 20
274.4748030101
 11
6.3432109421
 21
274.070883141
  0
LINE
  5
226
100
AcDbEntity
  8
0
100
AcDbLine
 62
7
  6
CONTINUOUS
 10
53.7953889736
 20
275.0404248814
 11
53.821348193
 21
275.0509784371
  0
LINE
  5
227
100
AcDbEntity
  8
0
100
AcDbLine
 62
7
  6
CONTINUOUS
 10
53.6221360798
 20
275.3056357181
 11
53.6489276069
 21
275.3153388787
  0
LINE
  5
228
100
AcDbEntity
  8
0
100
AcDbLine
 62
7
  6
CONTINUOUS
 10
-1.5263226593
 20
196.2416144353
 11
33.1844223303
 21
205.5460199377
  0
LINE
  5
229
100
AcDbEntity
  8
0
100
AcDbLine
 62
7
  6
CONTINUOUS
 10
-6.6223814818
 20
195.1792738136
 11
-2.4901499348
 21
196.2869411355
  0
LINE
  5
22A
100
AcDbEntity
  8
0
100
AcDbLine
 62
7
  6
CONTINUOUS
 10
33.1326968915
 20
205.8358405359
 11
36.3528266081
 21
206.6990139614
  0
LINE
  5
22B
100
AcDbEntity
  8
0
100
AcDbLine
 62
7
  6
CONTINUOUS
 10
6.651528144
 20
293.3433739785
 11
6.6648030306
 21
293.3573950429
  0
LINE
  5
22C
100
AcDbEntity
  8
0
100
AcDbLine
 62
7
  6
CONTINUOUS
 10
1.6388142182
 20
212.3521367826
 11
7.5925396603
 21
213.9480655297
  0
LINE
  5
22D
100
AcDbEntity
  8
0
100
AcDbLine
 62
7
  6
CONTINUOUS
 10
-14.0751291888
 20
210.7534622942
 11
-8.7032281775
 21
212.1934298127
  0
LINE
  5
22E
100
AcDbEntity
  8
0
100
AcDbLine
 62
7
  6
CONTINUOUS
 10
-10.0398042921
 20
195.1160005046
 11
-8.0586037812
 21
195.0228289543
  0
LINE
  5
22F
100
AcDbEntity
  8
0
100
AcDbLine
 62
7
  6
CONTINUOUS
 10
-1.5263226592
 20
196.2416144353
 11
-2.4901499348
 21
196.2869411355
  0
LINE
  5
230
100
AcDbEntity
  8
0
100
AcDbLine
 62
7
  6
CONTINUOUS
 10
-15.1063619077
 20
200.1688571336
 11
-13.1251613968
 21
200.0756855834
  0
LINE
  5
231
100
AcDbEntity
  8
0
100
AcDbLine
 62
7
  6
CONTINUOUS
 10
-3.7010897815
 20
208.4269592205
 11
-4.6649170571
 21
208.4722859206
  0
LINE
  5
232
100
AcDbEntity
  8
0
100
AcDbLine
 62
7
  6
CONTINUOUS
 10
-14.0751291888
 20
210.7534622942
 11
-15.0389564644
 21
210.7987889943
  0
LINE
  5
233
100
AcDbEntity
  8
0
100
AcDbLine
 62
7
  6
CONTINUOUS
 10
2.0054019373
 20
288.8573659538
 11
1.9999887518
 21
288.8437309724
  0
LINE
  5
234
100
AcDbEntity
  8
0
100
AcDbLine
 62
7
  6
CONTINUOUS
 10
62.7929440843
 20
278.9716591017
 11
62.8081217056
 21
278.9844951504
  0
LINE
  5
235
100
AcDbEntity
  8
0
100
AcDbLine
 62
7
  6
CONTINUOUS
 10
40.2660431968
 20
256.556226357
 11
34.3877200046
 21
254.9805095964
  0
LINE
  5
236
100
AcDbEntity
  8
0
100
AcDbLine
 62
7
  6
CONTINUOUS
 10
-24.4918707898
 20
246.6788383047
 11
-24.4884105418
 21
246.6379308209
  0
LINE
  5
237
100
AcDbEntity
  8
0
100
AcDbLine
 62
7
  6
CONTINUOUS
 10
2.0645040264
 20
288.830614132
 11
2.059892281
 21
288.8166441391
  0
LINE
  5
238
100
AcDbEntity
  8
0
100
AcDbLine
 62
7
  6
CONTINUOUS
 10
11.0865996024
 20
264.7085243709
 11
10.9831167737
 21
264.4937000413
  0
LINE
  5
239
100
AcDbEntity
  8
0
100
AcDbLine
 62
7
  6
CONTINUOUS
 10
63.0217254521
 20
278.7379144404
 11
63.0360873088
 21
278.7516278422
  0
LINE
  5
23A
100
AcDbEntity
  8
0
100
AcDbLine
 62
7
  6
CONTINUOUS
 10
39.032780278
 20
257.2685012012
 11
33.162491492
 21
255.6949032777
  0
LINE
  5
23B
100
AcDbEntity
  8
0
100
AcDbLine
 62
7
  6
CONTINUOUS
 10
20.952466426
 20
207.1039869309
 11
18.5265454937
 21
208.5040114869
  0
LINE
  5
23C
100
AcDbEntity
  8
0
100
AcDbLine
 62
7
  6
CONTINUOUS
 10
0.4678096913
 20
213.0285265218
 11
1.6388142182
 21
212.3521367826
  0
LINE
  5
23D
100
AcDbEntity
  8
0
100
AcDbLine
 62
7
  6
CONTINUOUS
 10
9.8248195722
 20
212.5883185294
 11
7.5092609155
 21
213.9257422056
  0
LINE
  5
23E
100
AcDbEntity
  8
0
100
AcDbLine
 62
7
  6
CONTINUOUS
 10
15.3157062184
 20
210.8101327641
 11
19.2276418226
 21
208.5506714105
  0
LINE
  5
23F
100
AcDbEntity
  8
0
100
AcDbLine
 62
7
  6
CONTINUOUS
 10
-15.1063619077
 20
200.1688571336
 11
-27.6330205319
 21
270.3564430962
  0
LINE
  5
240
100
AcDbEntity
  8
0
100
AcDbLine
 62
7
  6
CONTINUOUS
 10
-25.651820021
 20
270.2632715459
 11
-23.7380249534
 21
259.540168135
  0
LINE
  5
241
100
AcDbEntity
  8
0
100
AcDbLine
 62
7
  6
CONTINUOUS
 10
-15.0389564644
 20
210.7987889943
 11
-13.1251613968
 21
200.0756855834
  0
LINE
  5
242
100
AcDbEntity
  8
0
100
AcDbLine
 62
7
  6
CONTINUOUS
 10
-24.4814513808
 20
246.6826828573
 11
-24.4766481912
 21
246.6423044164
  0
LINE
  5
243
100
AcDbEntity
  8
0
100
AcDbLine
 62
7
  6
CONTINUOUS
 10
1.6725479338
 20
288.9445846728
 11
1.6717158057
 21
288.9364486816
  0
LINE
  5
244
100
AcDbEntity
  8
0
100
AcDbLine
 62
7
  6
CONTINUOUS
 10
1.8751360159
 20
288.6789073096
 11
1.8735699231
 21
288.66481228
  0
LINE
  5
245
100
AcDbEntity
  8
0
100
AcDbLine
 62
7
  6
CONTINUOUS
 10
-0.6503695974
 20
284.0883237438
 11
-0.6501341793
 21
284.0902208546
  0
LINE
  5
246
100
AcDbEntity
  8
0
100
AcDbLine
 62
7
  6
CONTINUOUS
 10
1.6751225653
 20
288.9591559412
 11
1.6725479338
 21
288.9445846728
  0
LINE
  5
247
100
AcDbEntity
  8
0
100
AcDbLine
 62
7
  6
CONTINUOUS
 10
10.9841008522
 20
264.4957455484
 11
10.4995375484
 21
263.3524672645
  0
LINE
  5
248
100
AcDbEntity
  8
0
100
AcDbLine
 62
7
  6
CONTINUOUS
 10
-22.7741976778
 20
259.4948414348
 11
-17.4022966667
 21
260.9348089533
  0
LINE
  5
249
100
AcDbEntity
  8
0
100
AcDbLine
 62
7
  6
CONTINUOUS
 10
-23.7380249534
 20
259.5401681349
 11
-18.3661239421
 21
260.9801356534
  0
LINE
  5
24A
100
AcDbEntity
  8
0
100
AcDbLine
 62
7
  6
CONTINUOUS
 10
5.3844513648
 20
220.7533103514
 11
19.1866218315
 21
212.7814330198
  0
LINE
  5
24B
100
AcDbEntity
  8
0
100
AcDbLine
 62
7
  6
CONTINUOUS
 10
4.3000772964
 20
223.8631095151
 11
12.7628936349
 21
218.975143967
  0
LINE
  5
24C
100
AcDbEntity
  8
0
100
AcDbLine
 62
7
  6
CONTINUOUS
 10
24.9703731781
 20
214.3317992787
 11
19.2554234879
 21
217.6326480834
  0
LINE
  5
24D
100
AcDbEntity
  8
0
100
AcDbLine
 62
7
  6
CONTINUOUS
 10
-22.7741976778
 20
259.4948414348
 11
-14.0751291888
 21
210.7534622942
  0
LINE
  5
24E
100
AcDbEntity
  8
0
100
AcDbLine
 62
7
  6
CONTINUOUS
 10
-2.4901499348
 20
196.2869411355
 11
-4.6649170571
 21
208.4722859206
  0
LINE
  5
24F
100
AcDbEntity
  8
0
100
AcDbLine
 62
7
  6
CONTINUOUS
 10
-15.1037992439
 20
266.9619408894
 11
-17.2785663661
 21
279.1472856746
  0
LINE
  5
250
100
AcDbEntity
  8
0
100
AcDbLine
 62
7
  6
CONTINUOUS
 10
-1.6236501575
 20
272.8782587755
 11
-1.6219206427
 21
272.8420202424
  0
LINE
  5
251
100
AcDbEntity
  8
0
100
AcDbLine
 62
7
  6
CONTINUOUS
 10
1.2546467718
 20
268.793451804
 11
1.2546467718
 21
264.071608985
  0
LINE
  5
252
100
AcDbEntity
  8
0
100
AcDbLine
 62
7
  6
CONTINUOUS
 10
4.3537457106
 20
264.9013118996
 11
4.3537517557
 21
266.0167519837
  0
LINE
  5
253
100
AcDbEntity
  8
0
100
AcDbLine
 62
7
  6
CONTINUOUS
 10
-1.6219223521
 20
272.8420155998
 11
-1.6203366148
 21
272.8802979942
  0
LINE
  5
254
100
AcDbEntity
  8
0
100
AcDbLine
 62
7
  6
CONTINUOUS
 10
1.625656065
 20
288.4861073693
 11
1.6250861765
 21
288.4725395721
  0
LINE
  5
255
100
AcDbEntity
  8
0
100
AcDbLine
 62
7
  6
CONTINUOUS
 10
28.5471668266
 20
273.2583232868
 11
28.5728528439
 21
273.3121829984
  0
LINE
  5
256
100
AcDbEntity
  8
0
100
AcDbLine
 62
7
  6
CONTINUOUS
 10
7.101281676
 20
278.7878147248
 11
7.2162989779
 21
278.81870335
  0
LINE
  5
257
100
AcDbEntity
  8
0
100
AcDbLine
 62
7
  6
CONTINUOUS
 10
41.6752995002
 20
273.0136639513
 11
41.7088985113
 21
273.0195534137
  0
LINE
  5
258
100
AcDbEntity
  8
0
100
AcDbLine
 62
7
  6
CONTINUOUS
 10
41.5839512625
 20
273.2995844328
 11
41.6177539943
 21
273.3044567461
  0
LINE
  5
259
100
AcDbEntity
  8
0
100
AcDbLine
 62
7
  6
CONTINUOUS
 10
68.2747631056
 20
268.9929722466
 11
68.6795083452
 21
269.0261483728
  0
LINE
  5
25A
100
AcDbEntity
  8
0
100
AcDbLine
 62
7
  6
CONTINUOUS
 10
-22.7741976778
 20
259.4948414348
 11
-23.7380249534
 21
259.5401681349
  0
LINE
  5
25B
100
AcDbEntity
  8
0
100
AcDbLine
 62
7
  6
CONTINUOUS
 10
-17.4022966666
 20
260.9348089533
 11
-18.3661239421
 21
260.9801356534
  0
LINE
  5
25C
100
AcDbEntity
  8
0
100
AcDbLine
 62
7
  6
CONTINUOUS
 10
-3.1018143922
 20
244.6574489841
 11
-11.2412906473
 21
249.3586593051
  0
LINE
  5
25D
100
AcDbEntity
  8
0
100
AcDbLine
 62
7
  6
CONTINUOUS
 10
-16.3147390905
 20
279.1019589744
 11
-14.1399719683
 21
266.9166141893
  0
LINE
  5
25E
100
AcDbEntity
  8
0
100
AcDbLine
 62
7
  6
CONTINUOUS
 10
-1.5263226593
 20
196.2416144353
 11
-3.7010897815
 21
208.4269592205
  0
LINE
  5
25F
100
AcDbEntity
  8
0
100
AcDbLine
 62
7
  6
CONTINUOUS
 10
-10.5156073821
 20
270.8698891906
 11
-11.6486691021
 21
277.2184989247
  0
LINE
  5
260
100
AcDbEntity
  8
0
100
AcDbLine
 62
7
  6
CONTINUOUS
 10
8.6876694574
 20
288.1014761172
 11
8.6876694574
 21
289.737146227
  0
LINE
  5
261
100
AcDbEntity
  8
0
100
AcDbLine
 62
7
  6
CONTINUOUS
 10
1.8107882195
 20
279.6889990596
 11
2.8062687767
 21
279.955843144
  0
LINE
  5
262
100
AcDbEntity
  8
0
100
AcDbLine
 62
7
  6
CONTINUOUS
 10
-2.5359652062
 20
279.9187914752
 11
-0.995659003
 21
280.331678998
  0
LINE
  5
263
100
AcDbEntity
  8
0
100
AcDbLine
 62
7
  6
CONTINUOUS
 10
-0.9119837251
 20
281.2808900402
 11
-2.1208642943
 21
280.9568429757
  0
LINE
  5
264
100
AcDbEntity
  8
0
100
AcDbLine
 62
7
  6
CONTINUOUS
 10
-0.8924886175
 20
281.5020422354
 11
-7.1814519983
 21
279.8162511208
  0
LINE
  5
265
100
AcDbEntity
  8
0
100
AcDbLine
 62
7
  6
CONTINUOUS
 10
-16.3147390905
 20
279.1019589744
 11
-0.7359387193
 21
283.2779418275
  0
LINE
  5
266
100
AcDbEntity
  8
0
100
AcDbLine
 62
7
  6
CONTINUOUS
 10
-17.2785663661
 20
279.1472856746
 11
-21.4107979132
 21
278.0396183527
  0
LINE
  5
267
100
AcDbEntity
  8
0
100
AcDbLine
 62
7
  6
CONTINUOUS
 10
-23.3919984242
 20
278.1327899029
 11
-0.6026431208
 21
284.2416015387
  0
LINE
  5
268
100
AcDbEntity
  8
0
100
AcDbLine
 62
7
  6
CONTINUOUS
 10
28.506630791
 20
272.9661875722
 11
28.5427520612
 21
272.9666190089
  0
LINE
  5
269
100
AcDbEntity
  8
0
100
AcDbLine
 62
7
  6
CONTINUOUS
 10
-15.1037992439
 20
266.9619408894
 11
-14.1399719683
 21
266.9166141893
  0
LINE
  5
26A
100
AcDbEntity
  8
0
100
AcDbLine
 62
7
  6
CONTINUOUS
 10
-25.651820021
 20
270.2632715459
 11
-27.6330205319
 21
270.3564430962
  0
LINE
  5
26B
100
AcDbEntity
  8
0
100
AcDbLine
 62
7
  6
CONTINUOUS
 10
61.0078335732
 20
264.3198426821
 11
61.4140356938
 21
264.2895476742
  0
LINE
  5
26C
100
AcDbEntity
  8
0
100
AcDbLine
 62
7
  6
CONTINUOUS
 10
20.952466426
 20
208.1304230594
 11
20.952466426
 21
207.1039869309
  0
LINE
  5
26D
100
AcDbEntity
  8
0
100
AcDbLine
 62
7
  6
CONTINUOUS
 10
18.5265454937
 20
208.5040114869
 11
18.538722599
 21
208.9485783596
  0
LWPOLYLINE
  5
26E
100
AcDbEntity
  8
0
100
AcDbPolyline
 62
7
  6
CONTINUOUS
 90
4
 70
0
 10
0.1184268232
 20
285.0484121748
 10
-0.0814424529
 20
285.0043324311
 10
-0.4673978428
 20
284.6727803234
 10
-0.6501615783
 20
284.0901067802
  0
LWPOLYLINE
  5
26F
100
AcDbEntity
  8
0
100
AcDbPolyline
 62
7
  6
CONTINUOUS
 90
4
 70
0
 10
2.7260593137
 20
290.1637911101
 10
2.3703672468
 20
290.0921017541
 10
1.8674428326
 20
289.5572551802
 10
1.6725332973
 20
288.9445182922
  0
LINE
  5
270
100
AcDbEntity
  8
0
100
AcDbLine
 62
7
  6
CONTINUOUS
 10
1.9908696132
 20
283.5217276475
 11
2.1271543192
 21
283.5330174617
  0
LINE
  5
271
100
AcDbEntity
  8
0
100
AcDbLine
 62
7
  6
CONTINUOUS
 10
1.1799194618
 20
285.1355177413
 11
0.1114101103
 21
285.0479556782
  0
LINE
  5
272
100
AcDbEntity
  8
0
100
AcDbLine
 62
7
  6
CONTINUOUS
 10
0.1114101103
 20
285.0479556782
 11
0.1194577099
 21
285.0484977241
  0
LINE
  5
273
100
AcDbEntity
  8
0
100
AcDbLine
 62
7
  6
CONTINUOUS
 10
28.5110941479
 20
273.2589083718
 11
28.5470333226
 21
273.2583218622
  0
LINE
  5
274
100
AcDbEntity
  8
0
100
AcDbLine
 62
7
  6
CONTINUOUS
 10
-23.3919984242
 20
278.1327899029
 11
-21.4107979132
 21
278.0396183527
  0
LINE
  5
275
100
AcDbEntity
  8
0
100
AcDbLine
 62
7
  6
CONTINUOUS
 10
-16.3147390905
 20
279.1019589744
 11
-17.2785663661
 21
279.1472856746
  0
LINE
  5
276
100
AcDbEntity
  8
0
100
AcDbLine
 62
7
  6
CONTINUOUS
 10
-10.5156073821
 20
270.8698891906
 11
1.2546467718
 21
264.071608985
  0
LINE
  5
277
100
AcDbEntity
  8
0
100
AcDbLine
 62
7
  6
CONTINUOUS
 10
21.7655810718
 20
254.1937446252
 11
30.2680702959
 21
249.2828647551
  0
LINE
  5
278
100
AcDbEntity
  8
0
100
AcDbLine
 62
7
  6
CONTINUOUS
 10
10.5891464781
 20
256.4782406762
 11
8.2470683406
 21
257.8315499396
  0
LINE
  5
279
100
AcDbEntity
  8
0
100
AcDbLine
 62
7
  6
CONTINUOUS
 10
67.7017654452
 20
283.7537559201
 11
67.5648746666
 21
283.7638468366
  0
LINE
  5
27A
100
AcDbEntity
  8
0
100
AcDbLine
 62
7
  6
CONTINUOUS
 10
16.2941933096
 20
274.9052237509
 11
16.3273265531
 21
274.9002364196
  0
LINE
  5
27B
100
AcDbEntity
  8
0
100
AcDbLine
 62
7
  6
CONTINUOUS
 10
16.393788762
 20
275.1898000911
 11
16.4263543711
 21
275.1838552006
  0
LINE
  5
27C
100
AcDbEntity
  8
0
100
AcDbLine
 62
7
  6
CONTINUOUS
 10
49.7491217583
 20
261.0966653472
 11
50.094939821
 21
261.0075121403
  0
LINE
  5
27D
100
AcDbEntity
  8
0
100
AcDbLine
 62
7
  6
CONTINUOUS
 10
26.7312758641
 20
259.4090157464
 11
25.9443249444
 21
259.8314269755
  0
LINE
  5
27E
100
AcDbEntity
  8
0
100
AcDbLine
 62
7
  6
CONTINUOUS
 10
25.9443249444
 20
259.8314269755
 11
25.7149846739
 21
259.9638896566
  0
LINE
  5
27F
100
AcDbEntity
  8
0
100
AcDbLine
 62
7
  6
CONTINUOUS
 10
34.3321754374
 20
255.0193155539
 11
26.7314656552
 21
259.4093443659
  0
LINE
  5
280
100
AcDbEntity
  8
0
100
AcDbLine
 62
7
  6
CONTINUOUS
 10
33.1844223303
 20
205.5460199377
 11
31.8671469344
 21
212.9267894746
  0
LINE
  5
281
100
AcDbEntity
  8
0
100
AcDbLine
 62
7
  6
CONTINUOUS
 10
6.9224291083
 20
278.5259366504
 11
6.8972197767
 21
278.5355705182
  0
LINE
  5
282
100
AcDbEntity
  8
0
100
AcDbLine
 62
7
  6
CONTINUOUS
 10
39.0325916702
 20
257.268353562
 11
40.2660431968
 21
256.556226357
  0
LINE
  5
283
100
AcDbEntity
  8
0
100
AcDbLine
 62
7
  6
CONTINUOUS
 10
36.445451233
 20
259.6797021402
 11
36.2126653405
 21
259.8141415628
  0
LINE
  5
284
100
AcDbEntity
  8
0
100
AcDbLine
 62
7
  6
CONTINUOUS
 10
1.7463145929
 20
283.3045438367
 11
1.7596310906
 21
283.2919648099
  0
LINE
  5
285
100
AcDbEntity
  8
0
100
AcDbLine
 62
7
  6
CONTINUOUS
 10
1.9785120655
 20
283.5350433922
 11
1.9908065339
 21
283.5217832623
  0
LINE
  5
286
100
AcDbEntity
  8
0
100
AcDbLine
 62
7
  6
CONTINUOUS
 10
22.4592645646
 20
260.6675224284
 11
22.5435799206
 21
260.5082646308
  0
LINE
  5
287
100
AcDbEntity
  8
0
100
AcDbLine
 62
7
  6
CONTINUOUS
 10
40.5938487159
 20
214.4753607682
 11
39.3749542476
 21
221.3048963084
  0
LINE
  5
288
100
AcDbEntity
  8
0
100
AcDbLine
 62
7
  6
CONTINUOUS
 10
34.1459208542
 20
255.958522745
 11
33.4767318543
 21
259.7080270517
  0
LINE
  5
289
100
AcDbEntity
  8
0
100
AcDbLine
 62
7
  6
CONTINUOUS
 10
62.8081869144
 20
278.9845621692
 11
62.6915004383
 21
279.0144799424
  0
LINE
  5
28A
100
AcDbEntity
  8
0
100
AcDbLine
 62
7
  6
CONTINUOUS
 10
61.0376694574
 20
288.9831059594
 11
61.0376561719
 21
288.99349769
  0
LINE
  5
28B
100
AcDbEntity
  8
0
100
AcDbLine
 62
7
  6
CONTINUOUS
 10
60.8876694574
 20
288.2881833975
 11
60.8876694574
 21
289.737146227
  0
LINE
  5
28C
100
AcDbEntity
  8
0
100
AcDbLine
 62
7
  6
CONTINUOUS
 10
67.7002028991
 20
283.7395357594
 11
67.7017696296
 21
283.7536950336
  0
LINE
  5
28D
100
AcDbEntity
  8
0
100
AcDbLine
 62
7
  6
CONTINUOUS
 10
53.6489315541
 20
275.3153399367
 11
53.5705443009
 21
275.3606117673
  0
LINE
  5
28E
100
AcDbEntity
  8
0
100
AcDbLine
 62
7
  6
CONTINUOUS
 10
41.6178759329
 20
273.3044781633
 11
41.5892246001
 21
273.3581054806
  0
LINE
  5
28F
100
AcDbEntity
  8
0
100
AcDbLine
 62
7
  6
CONTINUOUS
 10
67.9496828488
 20
283.5432233653
 11
67.9502529597
 21
283.5581105802
  0
LWPOLYLINE
  5
290
100
AcDbEntity
  8
0
100
AcDbPolyline
 62
7
  6
CONTINUOUS
 90
3
 70
0
 10
71.2001059616
 20
274.8197114205
 10
71.0480203033
 20
277.6069467444
 10
70.6322504928
 20
280.9253885404
  0
LINE
  5
291
100
AcDbEntity
  8
0
100
AcDbLine
 62
7
  6
CONTINUOUS
 10
68.0598644013
 20
287.1674927802
 11
68.1525100084
 21
286.6594098307
  0
LWPOLYLINE
  5
292
100
AcDbEntity
  8
0
100
AcDbPolyline
 62
7
  6
CONTINUOUS
 90
5
 70
0
 10
69.984451616
 20
283.4823738611
 10
69.8216018964
 20
284.4025258316
 10
69.3040543299
 20
286.2565543557
 10
68.5860296521
 20
287.768361505
 10
67.778943461
 20
288.8264220469
  0
LINE
  5
293
100
AcDbEntity
  8
0
100
AcDbLine
 62
7
  6
CONTINUOUS
 10
69.9851972502
 20
283.4772336418
 11
69.9844245064
 21
283.4823777184
  0
LINE
  5
294
100
AcDbEntity
  8
0
100
AcDbLine
 62
7
  6
CONTINUOUS
 10
68.3699628927
 20
281.4214941079
 11
68.3585748524
 21
281.505578709
  0
LINE
  5
295
100
AcDbEntity
  8
0
100
AcDbLine
 62
7
  6
CONTINUOUS
 10
62.5641143957
 20
293.6237220655
 11
62.5825551672
 21
293.6058088237
  0
LINE
  5
296
100
AcDbEntity
  8
0
100
AcDbLine
 62
7
  6
CONTINUOUS
 10
62.6368353189
 20
293.6352340007
 11
62.6551789932
 21
293.6172510033
  0
LWPOLYLINE
  5
297
100
AcDbEntity
  8
0
100
AcDbPolyline
 62
7
  6
CONTINUOUS
 90
3
 70
0
 10
67.7652057113
 20
288.8406466476
 10
67.5413104973
 20
289.0644491006
 10
67.368409468
 20
289.2250299268
  0
LINE
  5
298
100
AcDbEntity
  8
0
100
AcDbLine
 62
7
  6
CONTINUOUS
 10
67.7756445727
 20
288.8291866993
 11
67.7624291992
 21
288.8428729021
  0
LINE
  5
299
100
AcDbEntity
  8
0
100
AcDbLine
 62
7
  6
CONTINUOUS
 10
67.7787019467
 20
288.8259373211
 11
67.7756445727
 21
288.8291866993
  0
LINE
  5
29A
100
AcDbEntity
  8
0
100
AcDbLine
 62
7
  6
CONTINUOUS
 10
67.5968268493
 20
288.8833996906
 11
67.5845323837
 21
288.8967193274
  0
LINE
  5
29B
100
AcDbEntity
  8
0
100
AcDbLine
 62
7
  6
CONTINUOUS
 10
67.6926194592
 20
288.7764967645
 11
67.6801880644
 21
288.7907343191
  0
LINE
  5
29C
100
AcDbEntity
  8
0
100
AcDbLine
 62
7
  6
CONTINUOUS
 10
67.6523690637
 20
289.206072618
 11
66.5581472061
 21
290.5991138844
  0
LINE
  5
29D
100
AcDbEntity
  8
0
100
AcDbLine
 62
7
  6
CONTINUOUS
 10
67.6830981127
 20
288.7594144008
 11
67.6717992183
 21
288.775652678
  0
LINE
  5
29E
100
AcDbEntity
  8
0
100
AcDbLine
 62
7
  6
CONTINUOUS
 10
68.038954681
 20
288.4855568265
 11
67.6523690637
 21
289.206072618
  0
LINE
  5
29F
100
AcDbEntity
  8
0
100
AcDbLine
 62
7
  6
CONTINUOUS
 10
67.6020916521
 20
288.7756640757
 11
67.595639972
 21
288.7922855218
  0
LINE
  5
2A0
100
AcDbEntity
  8
0
100
AcDbLine
 62
7
  6
CONTINUOUS
 10
67.5304304844
 20
288.7429073426
 11
67.5247412411
 21
288.759836706
  0
LWPOLYLINE
  5
2A1
100
AcDbEntity
  8
0
100
AcDbPolyline
 62
7
  6
CONTINUOUS
 90
3
 70
0
 10
70.6322504928
 20
280.9253885404
 10
69.9264952308
 20
284.0462491868
 10
69.8439795231
 20
284.2760852254
  0
ARC
  5
2A2
100
AcDbEntity
  8
0
100
AcDbCircle
 62
7
  6
CONTINUOUS
 10
-337.4221812546
 20
260.0471839549
 40
381.1971379213
100
AcDbArc
 50
1.5360402971
 51
2.0038739058
  0
ARC
  5
2A3
100
AcDbEntity
  8
0
100
AcDbCircle
 62
7
  6
CONTINUOUS
 10
-69.5558841878
 20
280.7092660389
 40
138.3275772099
100
AcDbArc
 50
355.1412440237
 51
356.4287429301
  0
ARC
  5
2A4
100
AcDbEntity
  8
0
100
AcDbCircle
 62
7
  6
CONTINUOUS
 10
-80.4547797657
 20
262.4230274349
 40
136.3051693942
100
AcDbArc
 50
4.272173263
 51
5.5728507689
  0
ARC
  5
2A5
100
AcDbEntity
  8
0
100
AcDbCircle
 62
7
  6
CONTINUOUS
 10
-23.8217116974
 20
266.5871319746
 40
88.5341648251
100
AcDbArc
 50
6.4251068449
 51
8.4033809995
  0
ARC
  5
2A6
100
AcDbEntity
  8
0
100
AcDbCircle
 62
7
  6
CONTINUOUS
 10
-1.7415747176
 20
272.7205750288
 40
72.5288550574
100
AcDbArc
 50
359.978192971
 51
8.5289585862
  0
ARC
  5
2A7
100
AcDbEntity
  8
0
100
AcDbCircle
 62
7
  6
CONTINUOUS
 10
-2.353532512
 20
271.8843225235
 40
71.3636521509
100
AcDbArc
 50
7.7482202835
 51
10.0888901934
  0
ARC
  5
2A8
100
AcDbEntity
  8
0
100
AcDbCircle
 62
7
  6
CONTINUOUS
 10
-39.3883147992
 20
261.5567613266
 40
50.2348286587
100
AcDbArc
 50
346.634579149
 51
354.1976765113
  0
ARC
  5
2A9
100
AcDbEntity
  8
0
100
AcDbCircle
 62
7
  6
CONTINUOUS
 10
30.6281252387
 20
251.4887388672
 40
49.1787616178
100
AcDbArc
 50
105.0156125773
 51
105.5282627853
  0
ARC
  5
2AA
100
AcDbEntity
  8
0
100
AcDbCircle
 62
7
  6
CONTINUOUS
 10
30.3230753564
 20
252.5932884489
 40
48.032894329
100
AcDbArc
 50
104.8099060786
 51
105.0055153244
  0
ARC
  5
2AB
100
AcDbEntity
  8
0
100
AcDbCircle
 62
7
  6
CONTINUOUS
 10
30.8602640345
 20
256.2579978093
 40
43.6452721605
100
AcDbArc
 50
104.3987156985
 51
105.0039799313
  0
ARC
  5
2AC
100
AcDbEntity
  8
0
100
AcDbCircle
 62
7
  6
CONTINUOUS
 10
27.5662057027
 20
262.3948348454
 40
37.8510488508
100
AcDbArc
 50
105.482179464
 51
106.1419260416
  0
ARC
  5
2AD
100
AcDbEntity
  8
0
100
AcDbCircle
 62
7
  6
CONTINUOUS
 10
-1.8086336297
 20
245.5320977973
 40
22.7455418447
100
AcDbArc
 50
177.1627998724
 51
180.0971260893
  0
ARC
  5
2AE
100
AcDbEntity
  8
0
100
AcDbCircle
 62
7
  6
CONTINUOUS
 10
-2.4864387802
 20
245.5370027361
 40
22.0677468132
100
AcDbArc
 50
180.1128442515
 51
180.7878928413
  0
ARC
  5
2AF
100
AcDbEntity
  8
0
100
AcDbCircle
 62
7
  6
CONTINUOUS
 10
23.6478563029
 20
258.6553740543
 40
13.9436643478
100
AcDbArc
 50
149.0000448165
 51
154.2708589354
  0
ARC
  5
2B0
100
AcDbEntity
  8
0
100
AcDbCircle
 62
7
  6
CONTINUOUS
 10
15.2119656574
 20
264.3006332089
 40
13.4582224776
100
AcDbArc
 50
165.7686744008
 51
166.5287586489
  0
ARC
  5
2B1
100
AcDbEntity
  8
0
100
AcDbCircle
 62
7
  6
CONTINUOUS
 10
1.9531805818
 20
266.7903684919
 40
13.0553329306
100
AcDbArc
 50
66.7760264582
 51
66.8927811311
  0
ARC
  5
2B2
100
AcDbEntity
  8
0
100
AcDbCircle
 62
7
  6
CONTINUOUS
 10
22.9639341363
 20
258.3563637818
 40
12.9821432944
100
AcDbArc
 50
152.8052550756
 51
159.0166931478
  0
ARC
  5
2B3
100
AcDbEntity
  8
0
100
AcDbCircle
 62
7
  6
CONTINUOUS
 10
-1.5886189021
 20
270.7605616536
 40
10.210163043
100
AcDbArc
 50
86.3766398568
 51
92.9881359356
  0
ARC
  5
2B4
100
AcDbEntity
  8
0
100
AcDbCircle
 62
7
  6
CONTINUOUS
 10
10.9192636305
 20
266.4449766268
 40
8.8935167183
100
AcDbArc
 50
115.9868496865
 51
120.8841144382
  0
ARC
  5
2B5
100
AcDbEntity
  8
0
100
AcDbCircle
 62
7
  6
CONTINUOUS
 10
6.646874749
 20
273.8634702133
 40
8.131033256
100
AcDbArc
 50
162.3029529331
 51
165.1546699102
  0
ARC
  5
2B6
100
AcDbEntity
  8
0
100
AcDbCircle
 62
7
  6
CONTINUOUS
 10
-8.7463763551
 20
208.719708975
 40
3.6451874791
100
AcDbArc
 50
72.5024646013
 51
74.6831107241
  0
ARC
  5
2B7
100
AcDbEntity
  8
0
100
AcDbCircle
 62
7
  6
CONTINUOUS
 10
-8.7374798252
 20
208.7522106163
 40
3.6114902254
100
AcDbArc
 50
74.6830309816
 51
79.0622538082
  0
ARC
  5
2B8
100
AcDbEntity
  8
0
100
AcDbCircle
 62
7
  6
CONTINUOUS
 10
22.7934097923
 20
212.7110629411
 40
3.6074743716
100
AcDbArc
 50
178.8822750103
 51
179.9985385164
  0
ARC
  5
2B9
100
AcDbEntity
  8
0
100
AcDbCircle
 62
7
  6
CONTINUOUS
 10
21.3635852175
 20
214.2619812285
 40
3.6074743715
100
AcDbArc
 50
358.8822750103
 51
359.9985385164
  0
ARC
  5
2BA
100
AcDbEntity
  8
0
100
AcDbCircle
 62
7
  6
CONTINUOUS
 10
21.4199480306
 20
214.2619811435
 40
3.5511115584
100
AcDbArc
 50
359.9985166912
 51
1.1265605646
  0
ARC
  5
2BB
100
AcDbEntity
  8
0
100
AcDbCircle
 62
7
  6
CONTINUOUS
 10
13.0939791445
 20
239.2313690392
 40
1.8406547958
100
AcDbArc
 50
60.03648498
 51
71.5000219514
  0
ARC
  5
2BC
100
AcDbEntity
  8
0
100
AcDbCircle
 62
7
  6
CONTINUOUS
 10
25.619198083
 20
242.5889321051
 40
1.8405177435
100
AcDbArc
 50
60.036099006
 51
71.4584247868
  0
ARC
  5
2BD
100
AcDbEntity
  8
0
100
AcDbCircle
 62
7
  6
CONTINUOUS
 10
11.7827794567
 20
236.9616925314
 40
1.8381276259
100
AcDbArc
 50
228.4329255176
 51
239.951051091
  0
ARC
  5
2BE
100
AcDbEntity
  8
0
100
AcDbCircle
 62
7
  6
CONTINUOUS
 10
24.3076339135
 20
240.3186941318
 40
1.8375961462
100
AcDbArc
 50
228.5720239542
 51
239.9525149668
  0
ARC
  5
2BF
100
AcDbEntity
  8
0
100
AcDbCircle
 62
7
  6
CONTINUOUS
 10
-2.2189029273
 20
275.9943590763
 40
0.5461351506
100
AcDbArc
 50
92.4138854996
 51
104.9470092381
  0
ARC
  5
2C0
100
AcDbEntity
  8
0
100
AcDbCircle
 62
7
  6
CONTINUOUS
 10
18.1520672608
 20
308.3632159113
 40
31.8805094405
100
AcDbArc
 50
249.3755238562
 51
252.129230341
  0
ARC
  5
2C1
100
AcDbEntity
  8
0
100
AcDbCircle
 62
7
  6
CONTINUOUS
 10
18.4358114225
 20
305.3695616456
 40
28.8974190252
100
AcDbArc
 50
246.9064675851
 51
248.2834695773
  0
ARC
  5
2C2
100
AcDbEntity
  8
0
100
AcDbCircle
 62
7
  6
CONTINUOUS
 10
22.3052685458
 20
304.1385169302
 40
24.8383852419
100
AcDbArc
 50
243.009478793
 51
243.3255546264
  0
ARC
  5
2C3
100
AcDbEntity
  8
0
100
AcDbCircle
 62
7
  6
CONTINUOUS
 10
19.2442204375
 20
299.6468469633
 40
24.0516623337
100
AcDbArc
 50
239.9942500165
 51
241.4337825316
  0
ARC
  5
2C4
100
AcDbEntity
  8
0
100
AcDbCircle
 62
7
  6
CONTINUOUS
 10
22.2622361902
 20
300.651006267
 40
19.6538969211
100
AcDbArc
 50
240.4825945476
 51
241.1036034759
  0
ARC
  5
2C5
100
AcDbEntity
  8
0
100
AcDbCircle
 62
7
  6
CONTINUOUS
 10
22.003764556
 20
300.1940571922
 40
19.1289112093
100
AcDbArc
 50
239.9912055723
 51
240.4819664071
  0
ARC
  5
2C6
100
AcDbEntity
  8
0
100
AcDbCircle
 62
7
  6
CONTINUOUS
 10
14.2896673534
 20
286.120886766
 40
10.5121647619
100
AcDbArc
 50
134.4084712944
 51
136.4969074607
  0
ARC
  5
2C7
100
AcDbEntity
  8
0
100
AcDbCircle
 62
7
  6
CONTINUOUS
 10
13.809447461
 20
286.5784799535
 40
9.8488375009
100
AcDbArc
 50
136.6169657165
 51
137.7352261246
  0
ARC
  5
2C8
100
AcDbEntity
  8
0
100
AcDbCircle
 62
7
  6
CONTINUOUS
 10
8.9230243754
 20
290.0051416544
 40
9.4911457952
100
AcDbArc
 50
223.0858952483
 51
225.9846505513
  0
ARC
  5
2C9
100
AcDbEntity
  8
0
100
AcDbCircle
 62
7
  6
CONTINUOUS
 10
10.4279670766
 20
285.499492923
 40
9.067234792
100
AcDbArc
 50
158.3567265904
 51
169.3996989102
  0
ARC
  5
2CA
100
AcDbEntity
  8
0
100
AcDbCircle
 62
7
  6
CONTINUOUS
 10
12.4882950191
 20
287.7042383603
 40
8.1125890647
100
AcDbArc
 50
141.8515016541
 51
142.7236885202
  0
ARC
  5
2CB
100
AcDbEntity
  8
0
100
AcDbCircle
 62
7
  6
CONTINUOUS
 10
8.6079831101
 20
286.9674083642
 40
7.3345881062
100
AcDbArc
 50
207.9204950555
 51
211.0948050351
  0
ARC
  5
2CC
100
AcDbEntity
  8
0
100
AcDbCircle
 62
7
  6
CONTINUOUS
 10
12.9372401272
 20
288.9276002753
 40
4.404547249
100
AcDbArc
 50
162.942739236
 51
169.3192198428
  0
ARC
  5
2CD
100
AcDbEntity
  8
0
100
AcDbCircle
 62
7
  6
CONTINUOUS
 10
12.9037464326
 20
288.0868586259
 40
4.370480765
100
AcDbArc
 50
165.5414396165
 51
166.8657157905
  0
ARC
  5
2CE
100
AcDbEntity
  8
0
100
AcDbCircle
 62
7
  6
CONTINUOUS
 10
12.8410059737
 20
288.1014767197
 40
4.306059857
100
AcDbArc
 50
166.8654352685
 51
168.4790365198
  0
ARC
  5
2CF
100
AcDbEntity
  8
0
100
AcDbCircle
 62
7
  6
CONTINUOUS
 10
6.0750413414
 20
288.2319920451
 40
4.2235626872
100
AcDbArc
 50
174.1189997723
 51
179.0957605773
  0
ARC
  5
2D0
100
AcDbEntity
  8
0
100
AcDbCircle
 62
7
  6
CONTINUOUS
 10
12.7423583327
 20
288.12092654
 40
4.2055152045
100
AcDbArc
 50
168.4702544516
 51
172.9759390604
  0
ARC
  5
2D1
100
AcDbEntity
  8
0
100
AcDbCircle
 62
7
  6
CONTINUOUS
 10
12.6745690372
 20
288.9790617417
 40
4.1368896468
100
AcDbArc
 50
169.345357901
 51
179.9439877152
  0
ARC
  5
2D2
100
AcDbEntity
  8
0
100
AcDbCircle
 62
7
  6
CONTINUOUS
 10
5.4848153203
 20
288.3224646229
 40
3.8626479332
100
AcDbArc
 50
177.7732609956
 51
188.904050674
  0
ARC
  5
2D3
100
AcDbEntity
  8
0
100
AcDbCircle
 62
7
  6
CONTINUOUS
 10
27.5665314189
 20
342.4815335627
 40
69.5217629434
100
AcDbArc
 50
270.8045703696
 51
272.4552551879
  0
ARC
  5
2D4
100
AcDbEntity
  8
0
100
AcDbCircle
 62
7
  6
CONTINUOUS
 10
29.6456313769
 20
342.1288161875
 40
68.8790508497
100
AcDbArc
 50
269.0862408991
 51
269.8619150587
  0
ARC
  5
2D5
100
AcDbEntity
  8
0
100
AcDbCircle
 62
7
  6
CONTINUOUS
 10
24.9013276184
 20
332.7937244096
 40
58.5249397382
100
AcDbArc
 50
261.5757523278
 51
263.4187681177
  0
ARC
  5
2D6
100
AcDbEntity
  8
0
100
AcDbCircle
 62
7
  6
CONTINUOUS
 10
30.3860140141
 20
329.0802785825
 40
55.611426432
100
AcDbArc
 50
255.5431537581
 51
256.3664437637
  0
ARC
  5
2D7
100
AcDbEntity
  8
0
100
AcDbCircle
 62
7
  6
CONTINUOUS
 10
26.329819662
 20
329.6286785754
 40
55.3381478693
100
AcDbArc
 50
259.6908635367
 51
260.5855115027
  0
ARC
  5
2D8
100
AcDbEntity
  8
0
100
AcDbCircle
 62
7
  6
CONTINUOUS
 10
42.8723265739
 20
305.0356168561
 40
31.6135066918
100
AcDbArc
 50
289.930199469
 51
291.2360862714
  0
ARC
  5
2D9
100
AcDbEntity
  8
0
100
AcDbCircle
 62
7
  6
CONTINUOUS
 10
42.7122017906
 20
302.1923559061
 40
29.3269051951
100
AcDbArc
 50
292.2596170547
 51
295.2154264047
  0
ARC
  5
2DA
100
AcDbEntity
  8
0
100
AcDbCircle
 62
7
  6
CONTINUOUS
 10
51.6581485165
 20
297.3930448566
 40
21.4361027926
100
AcDbArc
 50
300.9779964288
 51
302.5307729502
  0
ARC
  5
2DB
100
AcDbEntity
  8
0
100
AcDbCircle
 62
7
  6
CONTINUOUS
 10
55.7982565713
 20
287.234608569
 40
10.825639176
100
AcDbArc
 50
310.3524246866
 51
313.0240900288
  0
ARC
  5
2DC
100
AcDbEntity
  8
0
100
AcDbCircle
 62
7
  6
CONTINUOUS
 10
55.3933486227
 20
290.6234029259
 40
6.675059798
100
AcDbArc
 50
324.8313403197
 51
326.6628187219
  0
ARC
  5
2DD
100
AcDbEntity
  8
0
100
AcDbCircle
 62
7
  6
CONTINUOUS
 10
56.743105251
 20
288.1030393141
 40
4.2971444912
100
AcDbArc
 50
11.4641132334
 51
12.4529928339
  0
ARC
  5
2DE
100
AcDbEntity
  8
0
100
AcDbCircle
 62
7
  6
CONTINUOUS
 10
56.7754845058
 20
288.9572083075
 40
4.2640483646
100
AcDbArc
 50
10.5847043793
 51
11.4739518719
  0
ARC
  5
2DF
100
AcDbEntity
  8
0
100
AcDbCircle
 62
7
  6
CONTINUOUS
 10
34.7824821604
 20
357.2200250578
 40
84.1376771014
100
AcDbArc
 50
266.3864884935
 51
274.6403019629
  0
ARC
  5
2E0
100
AcDbEntity
  8
0
100
AcDbCircle
 62
7
  6
CONTINUOUS
 10
34.6423344648
 20
354.677215173
 40
81.5910967442
100
AcDbArc
 50
265.7338824125
 51
266.372162964
  0
ARC
  5
2E1
100
AcDbEntity
  8
0
100
AcDbCircle
 62
7
  6
CONTINUOUS
 10
35.0774693561
 20
352.8414460794
 40
79.7496356675
100
AcDbArc
 50
274.6835564601
 51
275.3316239519
  0
ARC
  5
2E2
100
AcDbEntity
  8
0
100
AcDbCircle
 62
7
  6
CONTINUOUS
 10
33.3401503513
 20
330.5646769713
 40
57.8552204144
100
AcDbArc
 50
278.2257354104
 51
279.0970562139
  0
ARC
  5
2E3
100
AcDbEntity
  8
0
100
AcDbCircle
 62
7
  6
CONTINUOUS
 10
31.9830917227
 20
327.8200027343
 40
55.6568060999
100
AcDbArc
 50
280.063880529
 51
281.9863595228
  0
ARC
  5
2E4
100
AcDbEntity
  8
0
100
AcDbCircle
 62
7
  6
CONTINUOUS
 10
40.0769780302
 20
325.7051376158
 40
52.1214697952
100
AcDbArc
 50
285.0040255892
 51
285.862970356
  0
ARC
  5
2E5
100
AcDbEntity
  8
0
100
AcDbCircle
 62
7
  6
CONTINUOUS
 10
41.1766285178
 20
321.8563623802
 40
48.1186816154
100
AcDbArc
 50
285.8561233245
 51
288.2183872728
  0
ARC
  5
2E6
100
AcDbEntity
  8
0
100
AcDbCircle
 62
7
  6
CONTINUOUS
 10
39.2274861635
 20
325.8301184479
 40
48.0103712207
100
AcDbArc
 50
284.8476759615
 51
285.0432847285
  0
ARC
  5
2E7
100
AcDbEntity
  8
0
100
AcDbCircle
 62
7
  6
CONTINUOUS
 10
40.2090888052
 20
322.3979831495
 40
44.4411628802
100
AcDbArc
 50
284.9696361427
 51
287.3803861946
  0
ARC
  5
2E8
100
AcDbEntity
  8
0
100
AcDbCircle
 62
7
  6
CONTINUOUS
 10
451.0560414886
 20
259.5959121562
 40
420.7255751069
100
AcDbArc
 50
178.1710847914
 51
178.5950236434
  0
ARC
  5
2E9
100
AcDbEntity
  8
0
100
AcDbCircle
 62
7
  6
CONTINUOUS
 10
157.9440190216
 20
261.3915256234
 40
140.3782658668
100
AcDbArc
 50
174.5786818072
 51
175.8421310252
  0
ARC
  5
2EA
100
AcDbEntity
  8
0
100
AcDbCircle
 62
7
  6
CONTINUOUS
 10
97.2738538705
 20
265.0581523737
 40
89.8450246452
100
AcDbArc
 50
171.7045207273
 51
173.655336329
  0
ARC
  5
2EB
100
AcDbEntity
  8
0
100
AcDbCircle
 62
7
  6
CONTINUOUS
 10
73.1357641606
 20
274.9649823512
 40
74.3480242418
100
AcDbArc
 50
172.9515339999
 51
179.2169901143
  0
ARC
  5
2EC
100
AcDbEntity
  8
0
100
AcDbCircle
 62
7
  6
CONTINUOUS
 10
72.9850825068
 20
273.8731033952
 40
72.6955683392
100
AcDbArc
 50
169.4625844099
 51
171.0858982454
  0
ARC
  5
2ED
100
AcDbEntity
  8
0
100
AcDbCircle
 62
7
  6
CONTINUOUS
 10
72.6014731596
 20
276.2335190114
 40
72.0589903126
100
AcDbArc
 50
171.2556094716
 51
172.8936333578
  0
ARC
  5
2EE
100
AcDbEntity
  8
0
100
AcDbCircle
 62
7
  6
CONTINUOUS
 10
72.4069966087
 20
276.2633645348
 40
71.8622369655
100
AcDbArc
 50
169.8242325269
 51
171.2555560509
  0
ARC
  5
2EF
100
AcDbEntity
  8
0
100
AcDbCircle
 62
7
  6
CONTINUOUS
 10
73.2964707509
 20
270.0860503036
 40
71.8307137105
100
AcDbArc
 50
169.9586170031
 51
172.2498846598
  0
ARC
  5
2F0
100
AcDbEntity
  8
0
100
AcDbCircle
 62
7
  6
CONTINUOUS
 10
60.6831999927
 20
269.2220629756
 40
35.9857400105
100
AcDbArc
 50
194.9478075924
 51
195.1266984243
  0
ARC
  5
2F1
100
AcDbEntity
  8
0
100
AcDbCircle
 62
7
  6
CONTINUOUS
 10
58.401228582
 20
269.4180353227
 40
30.4986356122
100
AcDbArc
 50
198.6281492683
 51
203.5861733535
  0
ARC
  5
2F2
100
AcDbEntity
  8
0
100
AcDbCircle
 62
7
  6
CONTINUOUS
 10
59.0984313457
 20
254.7100543721
 40
21.3776220585
100
AcDbArc
 50
104.9859659403
 51
105.475048239
  0
ARC
  5
2F3
100
AcDbEntity
  8
0
100
AcDbCircle
 62
7
  6
CONTINUOUS
 10
58.2813060884
 20
285.1312873556
 40
10.0089728064
100
AcDbArc
 50
26.3154099886
 51
26.7298272309
  0
ARC
  5
2F4
100
AcDbEntity
  8
0
100
AcDbCircle
 62
7
  6
CONTINUOUS
 10
58.6144032756
 20
285.2911012877
 40
9.6395489334
100
AcDbArc
 50
21.2974878782
 51
26.3416466493
  0
ARC
  5
2F5
100
AcDbEntity
  8
0
100
AcDbCircle
 62
7
  6
CONTINUOUS
 10
59.2297048684
 20
285.5231897256
 40
8.9819513389
100
AcDbArc
 50
10.5483224839
 51
21.2299715481
  0
ARC
  5
2F6
100
AcDbEntity
  8
0
100
AcDbCircle
 62
7
  6
CONTINUOUS
 10
61.728536922
 20
286.5786257519
 40
6.4796464881
100
AcDbArc
 50
334.2526778451
 51
337.7074395528
  0
ARC
  5
2F7
100
AcDbEntity
  8
0
100
AcDbCircle
 62
7
  6
CONTINUOUS
 10
62.856588183
 20
286.1980611912
 40
5.2928223428
100
AcDbArc
 50
4.9736977266
 51
10.5536566744
  0
ARC
  5
2F8
100
AcDbEntity
  8
0
100
AcDbCircle
 62
7
  6
CONTINUOUS
 10
64.0596457818
 20
285.6175444042
 40
4.8142975246
100
AcDbArc
 50
41.2326372882
 51
42.716080513
  0
ARC
  5
2F9
100
AcDbEntity
  8
0
100
AcDbCircle
 62
7
  6
CONTINUOUS
 10
63.234768317
 20
283.7244065004
 40
4.7184179286
100
AcDbArc
 50
357.9803076476
 51
8.0560141641
  0
ARC
  5
2FA
100
AcDbEntity
  8
0
100
AcDbCircle
 62
7
  6
CONTINUOUS
 10
63.5000046313
 20
284.1869306229
 40
4.2235186944
100
AcDbArc
 50
354.1133545033
 51
359.1009992614
  0
ARC
  5
2FB
100
AcDbEntity
  8
0
100
AcDbCircle
 62
7
  6
CONTINUOUS
 10
56.8308051909
 20
288.1201303065
 40
4.2077973688
100
AcDbArc
 50
7.3754072856
 51
11.4733821493
  0
ARC
  5
2FC
100
AcDbEntity
  8
0
100
AcDbCircle
 62
7
  6
CONTINUOUS
 10
56.9009853506
 20
288.1300261711
 40
4.1369276017
100
AcDbArc
 50
6.6954444424
 51
7.364258621
  0
ARC
  5
2FD
100
AcDbEntity
  8
0
100
AcDbCircle
 62
7
  6
CONTINUOUS
 10
56.9025057538
 20
288.9790564917
 40
4.1351756032
100
AcDbArc
 50
0.2000934119
 51
10.6104202082
  0
SPLINE
  5
2FE
100
AcDbEntity
  8
0
100
AcDbSpline
 62
7
  6
CONTINUOUS
 70
0
 71
3
 72
20
 73
16
 74
0
 42
0.0000001
 43
0.0000001
 44
0.0000000001
 40
0.0
 40
0.0
 40
0.0
 40
0.0
 40
0.0527860015
 40
0.1117095947
 40
0.1763666303
 40
0.2459442301
 40
0.3948280941
 40
0.5471737835
 40
0.6908580996
 40
0.7562119328
 40
0.815900553
 40
0.8694870362
 40
0.9171655787
 40
0.9599859103
 40
1.0
 40
1.0
 40
1.0
 40
1.0
 10
-1.8419386951
 20
272.7515579109
 30
0.0
 10
-1.9081060746
 20
272.7897749604
 30
0.0
 10
-2.039602125
 20
272.8857177776
 30
0.0
 10
-2.2198677765
 20
273.0675864881
 30
0.0
 10
-2.3897182642
 20
273.2905781184
 30
0.0
 10
-2.6009234129
 20
273.6425402117
 30
0.0
 10
-2.8078372819
 20
274.141395628
 30
0.0
 10
-2.9526127412
 20
274.771642541
 30
0.0
 10
-2.9805285877
 20
275.2977559821
 30
0.0
 10
-2.9371053461
 20
275.6851423546
 30
0.0
 10
-2.8756942999
 20
275.937194548
 30
0.0
 10
-2.7858654929
 20
276.153410251
 30
0.0
 10
-2.6690564656
 20
276.3282501141
 30
0.0
 10
-2.527023425
 20
276.4563143973
 30
0.0
 10
-2.4157102641
 20
276.5070083843
 30
0.0
 10
-2.3597651556
 20
276.5220156268
 30
0.0
  0
SPLINE
  5
2FF
100
AcDbEntity
  8
0
100
AcDbSpline
 62
7
  6
CONTINUOUS
 70
0
 71
3
 72
9
 73
5
 74
0
 42
0.0000001
 43
0.0000001
 44
0.0000000001
 40
0.0
 40
0.0
 40
0.0
 40
0.0
 40
0.2353703474
 40
1.0
 40
1.0
 40
1.0
 40
1.0
 10
-1.5562887631
 20
272.6467153194
 30
0.0
 10
-1.5799814053
 20
272.6502529309
 30
0.0
 10
-1.6798048206
 20
272.6709132961
 30
0.0
 10
-1.7745498515
 20
272.7126353663
 30
0.0
 10
-1.8419386951
 20
272.7515579109
 30
0.0
  0
SPLINE
  5
300
100
AcDbEntity
  8
0
100
AcDbSpline
 62
7
  6
CONTINUOUS
 70
0
 71
3
 72
9
 73
5
 74
0
 42
0.0000001
 43
0.0000001
 44
0.0000000001
 40
0.0
 40
0.0
 40
0.0
 40
0.0
 40
0.2337698955
 40
1.0
 40
1.0
 40
1.0
 40
1.0
 10
-1.8419386951
 20
276.4288963646
 30
0.0
 10
-1.817227936
 20
276.4146238891
 30
0.0
 10
-1.7140072815
 20
276.3492765324
 30
0.0
 10
-1.6208242149
 20
276.2688199495
 30
0.0
 10
-1.5549496753
 20
276.2024184717
 30
0.0
  0
SPLINE
  5
301
100
AcDbEntity
  8
0
100
AcDbSpline
 62
7
  6
CONTINUOUS
 70
0
 71
3
 72
9
 73
5
 74
0
 42
0.0000001
 43
0.0000001
 44
0.0000000001
 40
0.0
 40
0.0
 40
0.0
 40
0.0
 40
0.2350771816
 40
1.0
 40
1.0
 40
1.0
 40
1.0
 10
-1.5549496753
 20
276.2024184717
 30
0.0
 10
-1.5257308171
 20
276.1729658886
 30
0.0
 10
-1.405815128
 20
276.0433436455
 30
0.0
 10
-1.3027103123
 20
275.8987057882
 30
0.0
 10
-1.2320963753
 20
275.7836505264
 30
0.0
  0
SPLINE
  5
302
100
AcDbEntity
  8
0
100
AcDbSpline
 62
7
  6
CONTINUOUS
 70
0
 71
3
 72
9
 73
5
 74
0
 42
0.0000001
 43
0.0000001
 44
0.0000000001
 40
0.0
 40
0.0
 40
0.0
 40
0.0
 40
0.2461632592
 40
1.0
 40
1.0
 40
1.0
 40
1.0
 10
-2.2419049315
 20
276.5400096151
 30
0.0
 10
-2.2325550623
 20
276.5404102369
 30
0.0
 10
-2.1945358684
 20
276.541095544
 30
0.0
 10
-2.1564675638
 20
276.5380265789
 30
0.0
 10
-2.1281194729
 20
276.5338179921
 30
0.0
  0
SPLINE
  5
303
100
AcDbEntity
  8
0
100
AcDbSpline
 62
7
  6
CONTINUOUS
 70
0
 71
3
 72
9
 73
5
 74
0
 42
0.0000001
 43
0.0000001
 44
0.0000000001
 40
0.0
 40
0.0
 40
0.0
 40
0.0
 40
0.2353495061
 40
1.0
 40
1.0
 40
1.0
 40
1.0
 10
-2.1281194729
 20
276.5338179921
 30
0.0
 10
-2.1043846927
 20
276.5302943021
 30
0.0
 10
-2.0043719221
 20
276.5096678675
 30
0.0
 10
-1.9094468356
 20
276.4678878128
 30
0.0
 10
-1.8419386951
 20
276.4288963646
 30
0.0
  0
SPLINE
  5
304
100
AcDbEntity
  8
0
100
AcDbSpline
 62
7
  6
CONTINUOUS
 70
0
 71
3
 72
11
 73
7
 74
0
 42
0.0000001
 43
0.0000001
 44
0.0000000001
 40
0.0
 40
0.0
 40
0.0
 40
0.0
 40
0.2157177335
 40
0.4470353478
 40
0.7060015758
 40
1.0
 40
1.0
 40
1.0
 40
1.0
 10
8.6877038653
 20
289.737146227
 30
0.0
 10
8.687704277
 20
290.1481370511
 30
0.0
 10
8.8222877119
 20
291.0044277632
 30
0.0
 10
9.405450113
 20
292.2325488323
 30
0.0
 10
10.3452216433
 20
293.407324485
 30
0.0
 10
11.1432507318
 20
294.1026752084
 30
0.0
 10
11.588483615
 20
294.4425528789
 30
0.0
  0
SPLINE
  5
305
100
AcDbEntity
  8
0
100
AcDbSpline
 62
7
  6
CONTINUOUS
 70
0
 71
3
 72
11
 73
7
 74
0
 42
0.0000001
 43
0.0000001
 44
0.0000000001
 40
0.0
 40
0.0
 40
0.0
 40
0.0
 40
0.2124761398
 40
0.4508687613
 40
0.7141255582
 40
1.0
 40
1.0
 40
1.0
 40
1.0
 10
11.588483615
 20
294.4425528789
 30
0.0
 10
12.1153835513
 20
294.8447727725
 30
0.0
 10
13.2997828726
 20
295.6123438237
 30
0.0
 10
15.2972074524
 20
296.6066948053
 30
0.0
 10
17.5902046267
 20
297.4969947534
 30
0.0
 10
19.2315148382
 20
297.9936191253
 30
0.0
 10
20.0929638784
 20
298.2245352636
 30
0.0
  0
SPLINE
  5
306
100
AcDbEntity
  8
0
100
AcDbSpline
 62
7
  6
CONTINUOUS
 70
0
 71
3
 72
15
 73
11
 74
0
 42
0.0000001
 43
0.0000001
 44
0.0000000001
 40
0.0
 40
0.0
 40
0.0
 40
0.0
 40
0.1196024893
 40
0.2471152718
 40
0.3794885984
 40
0.5134325863
 40
0.6455972157
 40
0.7727082599
 40
0.8917229976
 40
1.0
 40
1.0
 40
1.0
 40
1.0
 10
20.0929638784
 20
298.2245352636
 30
0.0
 10
21.384923903
 20
298.5708522316
 30
0.0
 10
24.0892375077
 20
299.1593332408
 30
0.0
 10
28.2974336039
 20
299.7360054531
 30
0.0
 10
32.6959539707
 20
300.0241586062
 30
0.0
 10
37.1556975342
 20
300.014864565
 30
0.0
 10
41.5460290813
 20
299.7084888099
 30
0.0
 10
45.7387787803
 20
299.1142720295
 30
0.0
 10
49.6112094677
 20
298.2503739454
 30
0.0
 10
52.0361482731
 20
297.4699901402
 30
0.0
 10
53.1642415941
 20
297.0298593606
 30
0.0
  0
SPLINE
  5
307
100
AcDbEntity
  8
0
100
AcDbSpline
 62
7
  6
CONTINUOUS
 70
0
 71
3
 72
15
 73
11
 74
0
 42
0.0000001
 43
0.0000001
 44
0.0000000001
 40
0.0
 40
0.0
 40
0.0
 40
0.0
 40
0.1687432056
 40
0.3241608406
 40
0.465872883
 40
0.5939865781
 40
0.7092698423
 40
0.8133664884
 40
0.908993973
 40
1.0
 40
1.0
 40
1.0
 40
1.0
 10
53.1642415941
 20
297.0298593606
 30
0.0
 10
53.7515512601
 20
296.8007178026
 30
0.0
 10
54.8662905006
 20
296.3243271073
 30
0.0
 10
56.4109395888
 20
295.5179225714
 30
0.0
 10
57.7482162475
 20
294.6552267913
 30
0.0
 10
58.8658054136
 20
293.7433469274
 30
0.0
 10
59.7532314522
 20
292.7889625588
 30
0.0
 10
60.4008011558
 20
291.7978117607
 30
0.0
 10
60.7975006373
 20
290.7772184736
 30
0.0
 10
60.8876353901
 20
290.0771461556
 30
0.0
 10
60.8876350495
 20
289.737146227
 30
0.0
  0
SPLINE
  5
308
100
AcDbEntity
  8
0
100
AcDbSpline
 62
7
  6
CONTINUOUS
 70
0
 71
3
 72
19
 73
15
 74
0
 42
0.0000001
 43
0.0000001
 44
0.0000000001
 40
0.0
 40
0.0
 40
0.0
 40
0.0
 40
0.1381211515
 40
0.2870674898
 40
0.439038734
 40
0.5859388758
 40
0.6550999764
 40
0.7202294497
 40
0.780595744
 40
0.8356206473
 40
0.884933284
 40
0.9284506604
 40
0.966501267
 40
1.0
 40
1.0
 40
1.0
 40
1.0
 10
49.4823750364
 20
281.2497571903
 30
0.0
 10
47.5631868795
 20
280.7353082826
 30
0.0
 10
43.4978262034
 20
279.9447244326
 30
0.0
 10
37.1953668515
 20
279.4052432394
 30
0.0
 10
30.7438152627
 20
279.4848816778
 30
0.0
 10
25.4712722681
 20
280.0732532036
 30
0.0
 10
21.5024541711
 20
280.8660498572
 30
0.0
 10
18.7944856907
 20
281.5873340255
 30
0.0
 10
16.3372312343
 20
282.4353810553
 30
0.0
 10
14.1681292399
 20
283.3972348086
 30
0.0
 10
12.319475544
 20
284.4584901163
 30
0.0
 10
10.8177258803
 20
285.6058961726
 30
0.0
 10
9.6850031009
 20
286.8258469607
 30
0.0
 10
9.1650815746
 20
287.7298816471
 30
0.0
 10
8.9899288056
 20
288.1788197987
 30
0.0
  0
SPLINE
  5
309
100
AcDbEntity
  8
0
100
AcDbSpline
 62
7
  6
CONTINUOUS
 70
0
 71
3
 72
9
 73
5
 74
0
 42
0.0000001
 43
0.0000001
 44
0.0000000001
 40
0.0
 40
0.0
 40
0.0
 40
0.0
 40
0.5075849009
 40
1.0
 40
1.0
 40
1.0
 40
1.0
 10
8.9899288056
 20
288.1788197987
 30
0.0
 10
8.8918818513
 20
288.4301262365
 30
0.0
 10
8.7399643725
 20
288.942784207
 30
0.0
 10
8.6877036031
 20
289.4754525214
 30
0.0
 10
8.6877038653
 20
289.737146227
 30
0.0
  0
SPLINE
  5
30A
100
AcDbEntity
  8
0
100
AcDbSpline
 62
7
  6
CONTINUOUS
 70
0
 71
3
 72
9
 73
5
 74
0
 42
0.0000001
 43
0.0000001
 44
0.0000000001
 40
0.0
 40
0.0
 40
0.0
 40
0.0
 40
0.4924172801
 40
1.0
 40
1.0
 40
1.0
 40
1.0
 10
60.8876350495
 20
289.737146227
 30
0.0
 10
60.8876347874
 20
289.4754903811
 30
0.0
 10
60.8353901224
 20
288.942901925
 30
0.0
 10
60.6835171157
 20
288.4303146412
 30
0.0
 10
60.5854973044
 20
288.1790420312
 30
0.0
  0
SPLINE
  5
30B
100
AcDbEntity
  8
0
100
AcDbSpline
 62
7
  6
CONTINUOUS
 70
0
 71
3
 72
14
 73
10
 74
0
 42
0.0000001
 43
0.0000001
 44
0.0000000001
 40
0.0
 40
0.0
 40
0.0
 40
0.0
 40
0.0863415036
 40
0.1818243795
 40
0.2883603323
 40
0.4069356455
 40
0.5378285083
 40
0.680792122
 40
1.0
 40
1.0
 40
1.0
 40
1.0
 10
60.5854973044
 20
288.1790420312
 30
0.0
 10
60.4444510719
 20
287.8174717067
 30
0.0
 10
60.0543063918
 20
287.0908216379
 30
0.0
 10
59.2290875531
 20
286.0836530929
 30
0.0
 10
58.151634932
 20
285.119613136
 30
0.0
 10
56.8335057734
 20
284.2065627838
 30
0.0
 10
55.2875210821
 20
283.3518548052
 30
0.0
 10
52.8525625123
 20
282.2611790436
 30
0.0
 10
50.868294019
 20
281.6212603722
 30
0.0
 10
49.4823750364
 20
281.2497571903
 30
0.0
  0
SPLINE
  5
30C
100
AcDbEntity
  8
0
100
AcDbSpline
 62
7
  6
CONTINUOUS
 70
0
 71
3
 72
11
 73
7
 74
0
 42
0.0000001
 43
0.0000001
 44
0.0000000001
 40
0.0
 40
0.0
 40
0.0
 40
0.0
 40
0.2634075328
 40
0.515933487
 40
0.7602044579
 40
1.0
 40
1.0
 40
1.0
 40
1.0
 10
21.5154819654
 20
218.0407198792
 30
0.0
 10
20.7503509339
 20
217.8356223112
 30
0.0
 10
19.2145544602
 20
217.5566173021
 30
0.0
 10
16.9146267677
 20
217.5678912469
 30
0.0
 10
14.7308519994
 20
218.0207720603
 30
0.0
 10
13.387343646
 20
218.6144528368
 30
0.0
 10
12.7629011047
 20
218.9751563302
 30
0.0
  0
SPLINE
  5
30D
100
AcDbEntity
  8
0
100
AcDbSpline
 62
7
  6
CONTINUOUS
 70
0
 71
3
 72
11
 73
7
 74
0
 42
0.0000001
 43
0.0000001
 44
0.0000000001
 40
0.0
 40
0.0
 40
0.0
 40
0.0
 40
0.2717772429
 40
0.5268691304
 40
0.7676330732
 40
1.0
 40
1.0
 40
1.0
 40
1.0
 10
10.5402749762
 20
235.2091288878
 30
0.0
 10
10.5402749762
 20
234.8194481113
 30
0.0
 10
10.6160363479
 20
234.060792689
 30
0.0
 10
10.9789144372
 20
233.0099017542
 30
0.0
 10
11.5735311911
 20
232.1355122562
 30
0.0
 10
12.1116798221
 20
231.7026974015
 30
0.0
 10
12.4001756787
 20
231.5360402761
 30
0.0
  0
SPLINE
  5
30E
100
AcDbEntity
  8
0
100
AcDbSpline
 62
7
  6
CONTINUOUS
 70
0
 71
3
 72
11
 73
7
 74
0
 42
0.0000001
 43
0.0000001
 44
0.0000000001
 40
0.0
 40
0.0
 40
0.0
 40
0.0
 40
0.2717772429
 40
0.5268691304
 40
0.7676330732
 40
1.0
 40
1.0
 40
1.0
 40
1.0
 10
23.0692010271
 20
238.5675762078
 30
0.0
 10
23.0692010271
 20
238.1778954313
 30
0.0
 10
23.1449623988
 20
237.4192400091
 30
0.0
 10
23.5078404881
 20
236.3683490742
 30
0.0
 10
24.102457242
 20
235.4939595763
 30
0.0
 10
24.640605873
 20
235.0611447215
 30
0.0
 10
24.9291017296
 20
234.8944875961
 30
0.0
  0
SPLINE
  5
30F
100
AcDbEntity
  8
0
100
AcDbSpline
 62
7
  6
CONTINUOUS
 70
0
 71
3
 72
10
 73
6
 74
0
 42
0.0000001
 43
0.0000001
 44
0.0000000001
 40
0.0
 40
0.0
 40
0.0
 40
0.0
 40
0.2403281524
 40
0.485096085
 40
1.0
 40
1.0
 40
1.0
 40
1.0
 10
22.4150553707
 20
230.2422468653
 30
0.0
 10
22.2705215317
 20
230.3257001002
 30
0.0
 10
21.9594698758
 20
230.4630489789
 30
0.0
 10
21.2758434185
 20
230.6053912197
 30
0.0
 10
20.7348341235
 20
230.551088187
 30
0.0
 10
20.3894508866
 20
230.4585063167
 30
0.0
  0
SPLINE
  5
310
100
AcDbEntity
  8
0
100
AcDbSpline
 62
7
  6
CONTINUOUS
 70
0
 71
3
 72
15
 73
11
 74
0
 42
0.0000001
 43
0.0000001
 44
0.0000000001
 40
0.0
 40
0.0
 40
0.0
 40
0.0
 40
0.0524622549
 40
0.1056452393
 40
0.2162149894
 40
0.3353287824
 40
0.4632716504
 40
0.5978590347
 40
0.735324951
 40
1.0
 40
1.0
 40
1.0
 40
1.0
 10
30.6307882521
 20
244.7661463135
 30
0.0
 10
30.4571227976
 20
244.8664686744
 30
0.0
 10
30.0878475785
 20
245.0365988252
 30
0.0
 10
29.2835460088
 20
245.2429853263
 30
0.0
 10
28.1806680348
 20
245.2277041461
 30
0.0
 10
26.8659294386
 20
244.7939983711
 30
0.0
 10
25.6305092624
 20
243.9919284257
 30
0.0
 10
24.5598276928
 20
242.8814997989
 30
0.0
 10
23.4698714951
 20
241.1339045167
 30
0.0
 10
23.0692010271
 20
239.5794121781
 30
0.0
 10
23.0692010271
 20
238.5675762078
 30
0.0
  0
SPLINE
  5
311
100
AcDbEntity
  8
0
100
AcDbSpline
 62
7
  6
CONTINUOUS
 70
0
 71
3
 72
15
 73
11
 74
0
 42
0.0000001
 43
0.0000001
 44
0.0000000001
 40
0.0
 40
0.0
 40
0.0
 40
0.0
 40
0.0524622549
 40
0.1056452393
 40
0.2162149894
 40
0.3353287824
 40
0.4632716504
 40
0.5978590347
 40
0.735324951
 40
1.0
 40
1.0
 40
1.0
 40
1.0
 10
18.1018622012
 20
241.4076989935
 30
0.0
 10
17.9281967466
 20
241.5080213544
 30
0.0
 10
17.5589215276
 20
241.6781515052
 30
0.0
 10
16.7546199578
 20
241.8845380062
 30
0.0
 10
15.6517419839
 20
241.8692568261
 30
0.0
 10
14.3370033877
 20
241.4355510511
 30
0.0
 10
13.1015832115
 20
240.6334811056
 30
0.0
 10
12.0309016419
 20
239.5230524789
 30
0.0
 10
10.9409454442
 20
237.7754571967
 30
0.0
 10
10.5402749762
 20
236.220964858
 30
0.0
 10
10.5402749762
 20
235.2091288878
 30
0.0
  0
SPLINE
  5
312
100
AcDbEntity
  8
0
100
AcDbSpline
 62
7
  6
CONTINUOUS
 70
0
 71
3
 72
11
 73
7
 74
0
 42
0.0000001
 43
0.0000001
 44
0.0000000001
 40
0.0
 40
0.0
 40
0.0
 40
0.0
 40
0.2717668072
 40
0.5268680782
 40
0.7676307415
 40
1.0
 40
1.0
 40
1.0
 40
1.0
 10
17.0423433334
 20
225.8379906066
 30
0.0
 10
17.042343333
 20
225.5611218646
 30
0.0
 10
17.0961819745
 20
225.0220813881
 30
0.0
 10
17.3539776328
 20
224.2753751697
 30
0.0
 10
17.7764985242
 20
223.6541156769
 30
0.0
 10
18.1588348886
 20
223.346528191
 30
0.0
 10
18.3638464024
 20
223.2281553994
 30
0.0
  0
SPLINE
  5
313
100
AcDbEntity
  8
0
100
AcDbSpline
 62
7
  6
CONTINUOUS
 70
0
 71
3
 72
13
 73
9
 74
0
 42
0.0000001
 43
0.0000001
 44
0.0000000001
 40
0.0
 40
0.0
 40
0.0
 40
0.0
 40
0.2348069779
 40
0.3606340311
 40
0.4898728456
 40
0.6205624979
 40
0.75058487
 40
1.0
 40
1.0
 40
1.0
 40
1.0
 10
20.3894508866
 20
230.4585063167
 30
0.0
 10
19.9303115519
 20
230.3354315008
 30
0.0
 10
19.2611501008
 20
229.9934389849
 30
0.0
 10
18.5111152481
 20
229.3418387499
 30
0.0
 10
18.0049056909
 20
228.7427314043
 30
0.0
 10
17.5896180923
 20
228.0676721663
 30
0.0
 10
17.1829531224
 20
227.1161737066
 30
0.0
 10
17.042343334
 20
226.3429123357
 30
0.0
 10
17.0423433334
 20
225.8379906066
 30
0.0
  0
SPLINE
  5
314
100
AcDbEntity
  8
0
100
AcDbSpline
 62
7
  6
CONTINUOUS
 70
0
 71
3
 72
20
 73
16
 74
0
 42
0.0000001
 43
0.0000001
 44
0.0000000001
 40
0.0
 40
0.0
 40
0.0
 40
0.0
 40
0.0524894976
 40
0.1058803543
 40
0.1609468326
 40
0.2182428661
 40
0.3400791524
 40
0.4047884693
 40
0.4714423007
 40
0.6080592299
 40
0.7449194086
 40
0.8118584184
 40
0.8769392961
 40
0.9397345156
 40
1.0
 40
1.0
 40
1.0
 40
1.0
 10
30.2680628261
 20
249.2828523918
 30
0.0
 10
30.8664273066
 20
248.9372126505
 30
0.0
 10
32.0046512559
 20
248.1127462662
 30
0.0
 10
33.443739464
 20
246.5396851408
 30
0.0
 10
34.5882579919
 20
244.6664943437
 30
0.0
 10
35.7079253367
 20
241.7795148081
 30
0.0
 10
36.0999998915
 20
238.5344795408
 30
0.0
 10
35.8231021359
 20
235.206845554
 30
0.0
 10
35.0783055101
 20
231.7489063202
 30
0.0
 10
33.3290655307
 20
227.5782437662
 30
0.0
 10
30.6618807805
 20
223.9208050695
 30
0.0
 10
28.0838027918
 20
221.4835752119
 30
0.0
 10
26.0036751459
 20
219.9699145125
 30
0.0
 10
23.814135015
 20
218.7955049707
 30
0.0
 10
22.2818163084
 20
218.2461400013
 30
0.0
 10
21.5154819654
 20
218.0407198792
 30
0.0
  0
SPLINE
  5
315
100
AcDbEntity
  8
0
100
AcDbSpline
 62
7
  6
CONTINUOUS
 70
0
 71
3
 72
9
 73
5
 74
0
 42
0.0000001
 43
0.0000001
 44
0.0000000001
 40
0.0
 40
0.0
 40
0.0
 40
0.0
 40
0.5114373428
 40
1.0
 40
1.0
 40
1.0
 40
1.0
 10
-24.4864090682
 20
252.5203835087
 30
0.0
 10
-24.6628682378
 20
251.5355702288
 30
0.0
 10
-24.8585364103
 20
249.5794132549
 30
0.0
 10
-24.716232175
 20
247.6159654401
 30
0.0
 10
-24.554774924
 20
246.6739529834
 30
0.0
  0
SPLINE
  5
316
100
AcDbEntity
  8
0
100
AcDbSpline
 62
7
  6
CONTINUOUS
 70
0
 71
3
 72
10
 73
6
 74
0
 42
0.0000001
 43
0.0000001
 44
0.0000000001
 40
0.0
 40
0.0
 40
0.0
 40
0.0
 40
0.2403281525
 40
0.4850960851
 40
1.0
 40
1.0
 40
1.0
 40
1.0
 10
18.3638464024
 20
223.2281553994
 30
0.0
 10
18.5083802411
 20
223.1447021647
 30
0.0
 10
18.8194318962
 20
223.0073532862
 30
0.0
 10
19.503058352
 20
222.8650110452
 30
0.0
 10
20.0440676456
 20
222.9193140774
 30
0.0
 10
20.3894508819
 20
223.0118959467
 30
0.0
  0
SPLINE
  5
317
100
AcDbEntity
  8
0
100
AcDbSpline
 62
7
  6
CONTINUOUS
 70
0
 71
3
 72
11
 73
7
 74
0
 42
0.0000001
 43
0.0000001
 44
0.0000000001
 40
0.0
 40
0.0
 40
0.0
 40
0.0
 40
0.2717772429
 40
0.5268691304
 40
0.7676330732
 40
1.0
 40
1.0
 40
1.0
 40
1.0
 10
32.4906889546
 20
241.0930577018
 30
0.0
 10
32.4906889546
 20
241.4827384784
 30
0.0
 10
32.4149275829
 20
242.2413939006
 30
0.0
 10
32.0520494936
 20
243.2922848354
 30
0.0
 10
31.4574327397
 20
244.1666743334
 30
0.0
 10
30.9192841087
 20
244.5994891881
 30
0.0
 10
30.6307882521
 20
244.7661463135
 30
0.0
  0
SPLINE
  5
318
100
AcDbEntity
  8
0
100
AcDbSpline
 62
7
  6
CONTINUOUS
 70
0
 71
3
 72
11
 73
7
 74
0
 42
0.0000001
 43
0.0000001
 44
0.0000000001
 40
0.0
 40
0.0
 40
0.0
 40
0.0
 40
0.2717772429
 40
0.5268691304
 40
0.7676330732
 40
1.0
 40
1.0
 40
1.0
 40
1.0
 10
19.9617629037
 20
237.7346103818
 30
0.0
 10
19.9617629037
 20
238.1242911583
 30
0.0
 10
19.886001532
 20
238.8829465805
 30
0.0
 10
19.5231234427
 20
239.9338375154
 30
0.0
 10
18.9285066888
 20
240.8082270133
 30
0.0
 10
18.3903580578
 20
241.2410418681
 30
0.0
 10
18.1018622012
 20
241.4076989935
 30
0.0
  0
SPLINE
  5
319
100
AcDbEntity
  8
0
100
AcDbSpline
 62
7
  6
CONTINUOUS
 70
0
 71
3
 72
9
 73
5
 74
0
 42
0.0000001
 43
0.0000001
 44
0.0000000001
 40
0.0
 40
0.0
 40
0.0
 40
0.0
 40
0.2464797674
 40
1.0
 40
1.0
 40
1.0
 40
1.0
 10
20.0353239605
 20
230.3201026042
 30
0.0
 10
20.042277864
 20
230.2733107091
 30
0.0
 10
20.0668276786
 20
230.0829384019
 30
0.0
 10
20.0769574335
 20
229.8907491157
 30
0.0
 10
20.0769574335
 20
229.7461292393
 30
0.0
  0
SPLINE
  5
31A
100
AcDbEntity
  8
0
100
AcDbSpline
 62
7
  6
CONTINUOUS
 70
0
 71
3
 72
14
 73
10
 74
0
 42
0.0000001
 43
0.0000001
 44
0.0000000001
 40
0.0
 40
0.0
 40
0.0
 40
0.0
 40
0.105261025
 40
0.2158781366
 40
0.3350441295
 40
0.4630415132
 40
0.5976839205
 40
0.7352112512
 40
1.0
 40
1.0
 40
1.0
 40
1.0
 10
23.3875172471
 20
238.7280512061
 30
0.0
 10
23.5800162644
 20
238.6168957793
 30
0.0
 10
24.021431661
 20
238.4621084139
 30
0.0
 10
24.7410788359
 20
238.473254153
 30
0.0
 10
25.4682237047
 20
238.7125934272
 30
0.0
 10
26.1507924198
 20
239.155921177
 30
0.0
 10
26.7425245655
 20
239.769559943
 30
0.0
 10
27.3448297521
 20
240.735353917
 30
0.0
 10
27.5662907577
 20
241.5944072471
 30
0.0
 10
27.5662907577
 20
242.1535793742
 30
0.0
  0
SPLINE
  5
31B
100
AcDbEntity
  8
0
100
AcDbSpline
 62
7
  6
CONTINUOUS
 70
0
 71
3
 72
14
 73
10
 74
0
 42
0.0000001
 43
0.0000001
 44
0.0000000001
 40
0.0
 40
0.0
 40
0.0
 40
0.0
 40
0.2552909996
 40
0.3883996519
 40
0.5210163367
 40
0.6503134264
 40
0.7739539084
 40
0.8905365446
 40
1.0
 40
1.0
 40
1.0
 40
1.0
 10
17.1466852066
 20
239.3605469788
 30
0.0
 10
17.1466852066
 20
238.5275990063
 30
0.0
 10
16.8747021211
 20
237.2497277549
 30
0.0
 10
16.1078065084
 20
235.7276939206
 30
0.0
 10
15.3350704723
 20
234.6869933349
 30
0.0
 10
14.4130061021
 20
233.8212284115
 30
0.0
 10
13.3863243225
 20
233.1734375883
 30
0.0
 10
12.3062308676
 20
232.7784460672
 30
0.0
 10
11.5632029086
 20
232.6979787109
 30
0.0
 10
11.2062442357
 20
232.7096893721
 30
0.0
  0
SPLINE
  5
31C
100
AcDbEntity
  8
0
100
AcDbSpline
 62
7
  6
CONTINUOUS
 70
0
 71
3
 72
11
 73
7
 74
0
 42
0.0000001
 43
0.0000001
 44
0.0000000001
 40
0.0
 40
0.0
 40
0.0
 40
0.0
 40
0.2717741281
 40
0.5268782238
 40
0.7676401145
 40
1.0
 40
1.0
 40
1.0
 40
1.0
 10
15.0411295282
 20
238.7961412352
 30
0.0
 10
15.0411295282
 20
239.0114891147
 30
0.0
 10
14.9992521199
 20
239.4307505419
 30
0.0
 10
14.798736423
 20
240.0115261363
 30
0.0
 10
14.4701058868
 20
240.4947195735
 30
0.0
 10
14.1727354348
 20
240.733940149
 30
0.0
 10
14.0132912894
 20
240.8260085776
 30
0.0
  0
SPLINE
  5
31D
100
AcDbEntity
  8
0
100
AcDbSpline
 62
7
  6
CONTINUOUS
 70
0
 71
3
 72
15
 73
11
 74
0
 42
0.0000001
 43
0.0000001
 44
0.0000000001
 40
0.0
 40
0.0
 40
0.0
 40
0.0
 40
0.1383951981
 40
0.2695587326
 40
0.3940347268
 40
0.5135537928
 40
0.6308546392
 40
0.7491689886
 40
0.8715002297
 40
1.0
 40
1.0
 40
1.0
 40
1.0
 10
16.5154817934
 20
224.744549034
 30
0.0
 10
16.5154817929
 20
224.3899870147
 30
0.0
 10
16.5748913815
 20
223.6973326557
 30
0.0
 10
16.8562341621
 20
222.7206541264
 30
0.0
 10
17.319668077
 20
221.8688952486
 30
0.0
 10
17.9500362743
 20
221.1778840934
 30
0.0
 10
18.7230110085
 20
220.6786060297
 30
0.0
 10
19.6052463839
 20
220.3934228273
 30
0.0
 10
20.557698171
 20
220.3323016364
 30
0.0
 10
21.1974975925
 20
220.4376146277
 30
0.0
 10
21.5154819654
 20
220.5228520823
 30
0.0
  0
SPLINE
  5
31E
100
AcDbEntity
  8
0
100
AcDbSpline
 62
7
  6
CONTINUOUS
 70
0
 71
3
 72
14
 73
10
 74
0
 42
0.0000001
 43
0.0000001
 44
0.0000000001
 40
0.0
 40
0.0
 40
0.0
 40
0.0
 40
0.2552909996
 40
0.3883996519
 40
0.5210163367
 40
0.6503134264
 40
0.7739539084
 40
0.8905365446
 40
1.0
 40
1.0
 40
1.0
 40
1.0
 10
29.6756112575
 20
242.7189942989
 30
0.0
 10
29.6756112575
 20
241.8860463263
 30
0.0
 10
29.403628172
 20
240.6081750749
 30
0.0
 10
28.6367325593
 20
239.0861412406
 30
0.0
 10
27.8639965233
 20
238.0454406549
 30
0.0
 10
26.941932153
 20
237.1796757315
 30
0.0
 10
25.9152503734
 20
236.5318849083
 30
0.0
 10
24.8351569185
 20
236.1368933872
 30
0.0
 10
24.0921289595
 20
236.0564260309
 30
0.0
 10
23.7351702866
 20
236.0681366922
 30
0.0
  0
SPLINE
  5
31F
100
AcDbEntity
  8
0
100
AcDbSpline
 62
7
  6
CONTINUOUS
 70
0
 71
3
 72
11
 73
7
 74
0
 42
0.0000001
 43
0.0000001
 44
0.0000000001
 40
0.0
 40
0.0
 40
0.0
 40
0.0
 40
0.2717741281
 40
0.5268782238
 40
0.7676401145
 40
1.0
 40
1.0
 40
1.0
 40
1.0
 10
27.5662907577
 20
242.1535793742
 30
0.0
 10
27.5662907577
 20
242.3689272537
 30
0.0
 10
27.5244133493
 20
242.7881886809
 30
0.0
 10
27.3238976525
 20
243.3689642753
 30
0.0
 10
26.9952671163
 20
243.8521577125
 30
0.0
 10
26.6978966643
 20
244.091378288
 30
0.0
 10
26.5384525189
 20
244.1834467166
 30
0.0
  0
SPLINE
  5
320
100
AcDbEntity
  8
0
100
AcDbSpline
 62
7
  6
CONTINUOUS
 70
0
 71
3
 72
14
 73
10
 74
0
 42
0.0000001
 43
0.0000001
 44
0.0000000001
 40
0.0
 40
0.0
 40
0.0
 40
0.0
 40
0.2346073929
 40
0.3603379301
 40
0.4894684284
 40
0.6200482101
 40
0.7499714674
 40
0.8772023527
 40
1.0
 40
1.0
 40
1.0
 40
1.0
 10
21.5154819654
 20
220.5228520823
 30
0.0
 10
22.2013406585
 20
220.7067002653
 30
0.0
 10
23.2009350994
 20
221.2176256599
 30
0.0
 10
24.3214183216
 20
222.1908802403
 30
0.0
 10
25.0775972499
 20
223.0860513903
 30
0.0
 10
25.6979095943
 20
224.0938571068
 30
0.0
 10
26.1603940359
 20
225.1773305293
 30
0.0
 10
26.4472851625
 20
226.2954701087
 30
0.0
 10
26.5154821372
 20
227.0534397239
 30
0.0
 10
26.5154821374
 20
227.425103953
 30
0.0
  0
SPLINE
  5
321
100
AcDbEntity
  8
0
100
AcDbSpline
 62
7
  6
CONTINUOUS
 70
0
 71
3
 72
15
 73
11
 74
0
 42
0.0000001
 43
0.0000001
 44
0.0000000001
 40
0.0
 40
0.0
 40
0.0
 40
0.0
 40
0.0524622549
 40
0.1056452393
 40
0.2162149894
 40
0.3353287824
 40
0.4632716504
 40
0.5978590347
 40
0.735324951
 40
1.0
 40
1.0
 40
1.0
 40
1.0
 10
24.9291017296
 20
234.8944875961
 30
0.0
 10
25.1027671842
 20
234.7941652352
 30
0.0
 10
25.4720424032
 20
234.6240350844
 30
0.0
 10
26.276343973
 20
234.4176485834
 30
0.0
 10
27.3792219469
 20
234.4329297635
 30
0.0
 10
28.6939605431
 20
234.8666355385
 30
0.0
 10
29.9293807193
 20
235.668705484
 30
0.0
 10
31.0000622889
 20
236.7791341107
 30
0.0
 10
32.0900184866
 20
238.5267293929
 30
0.0
 10
32.4906889546
 20
240.0812217316
 30
0.0
 10
32.4906889546
 20
241.0930577018
 30
0.0
  0
SPLINE
  5
322
100
AcDbEntity
  8
0
100
AcDbSpline
 62
7
  6
CONTINUOUS
 70
0
 71
3
 72
13
 73
9
 74
0
 42
0.0000001
 43
0.0000001
 44
0.0000000001
 40
0.0
 40
0.0
 40
0.0
 40
0.0
 40
0.2348069779
 40
0.3606340311
 40
0.4898728456
 40
0.6205624979
 40
0.75058487
 40
1.0
 40
1.0
 40
1.0
 40
1.0
 10
20.3894508819
 20
223.0118959467
 30
0.0
 10
20.8485902175
 20
223.1349707618
 30
0.0
 10
21.5177516699
 20
223.4769632782
 30
0.0
 10
22.2677865241
 20
224.1285635137
 30
0.0
 10
22.7739960822
 20
224.7276708603
 30
0.0
 10
23.1892836815
 20
225.4027300994
 30
0.0
 10
23.5959486516
 20
226.3542285609
 30
0.0
 10
23.73655844
 20
227.1274899332
 30
0.0
 10
23.7365584397
 20
227.6324116631
 30
0.0
  0
SPLINE
  5
323
100
AcDbEntity
  8
0
100
AcDbSpline
 62
7
  6
CONTINUOUS
 70
0
 71
3
 72
11
 73
7
 74
0
 42
0.0000001
 43
0.0000001
 44
0.0000000001
 40
0.0
 40
0.0
 40
0.0
 40
0.0
 40
0.2717668072
 40
0.5268680781
 40
0.7676307415
 40
1.0
 40
1.0
 40
1.0
 40
1.0
 10
23.7365584397
 20
227.6324116631
 30
0.0
 10
23.7365584396
 20
227.9092804046
 30
0.0
 10
23.6827197978
 20
228.4483208802
 30
0.0
 10
23.4249241392
 20
229.195027097
 30
0.0
 10
23.0024032481
 20
229.8162865886
 30
0.0
 10
22.6200668842
 20
230.1238740739
 30
0.0
 10
22.4150553707
 20
230.2422468653
 30
0.0
  0
SPLINE
  5
324
100
AcDbEntity
  8
0
100
AcDbSpline
 62
7
  6
CONTINUOUS
 70
0
 71
3
 72
15
 73
11
 74
0
 42
0.0000001
 43
0.0000001
 44
0.0000000001
 40
0.0
 40
0.0
 40
0.0
 40
0.0
 40
0.1383951981
 40
0.2695587326
 40
0.3940347268
 40
0.5135537928
 40
0.6308546392
 40
0.7491689886
 40
0.8715002297
 40
1.0
 40
1.0
 40
1.0
 40
1.0
 10
26.5154821374
 20
227.425103953
 30
0.0
 10
26.5154821377
 20
227.7796659723
 30
0.0
 10
26.4560725494
 20
228.4723203313
 30
0.0
 10
26.1747297687
 20
229.4489988606
 30
0.0
 10
25.7112958538
 20
230.3007577385
 30
0.0
 10
25.0809276565
 20
230.9917688936
 30
0.0
 10
24.3079529223
 20
231.4910469573
 30
0.0
 10
23.4257175469
 20
231.7762301597
 30
0.0
 10
22.4732657599
 20
231.8373513507
 30
0.0
 10
21.8334663383
 20
231.7320383593
 30
0.0
 10
21.5154819654
 20
231.6468009048
 30
0.0
  0
SPLINE
  5
325
100
AcDbEntity
  8
0
100
AcDbSpline
 62
7
  6
CONTINUOUS
 70
0
 71
3
 72
9
 73
5
 74
0
 42
0.0000001
 43
0.0000001
 44
0.0000000001
 40
0.0
 40
0.0
 40
0.0
 40
0.0
 40
0.2561128638
 40
1.0
 40
1.0
 40
1.0
 40
1.0
 10
-24.2773618439
 20
251.4002040973
 30
0.0
 10
-24.3441121812
 20
251.001696221
 30
0.0
 10
-24.5595280297
 20
249.4386988906
 30
0.0
 10
-24.5893910803
 20
247.8483821419
 30
0.0
 10
-24.4918707898
 20
246.6788383047
 30
0.0
  0
SPLINE
  5
326
100
AcDbEntity
  8
0
100
AcDbSpline
 62
7
  6
CONTINUOUS
 70
0
 71
3
 72
11
 73
7
 74
0
 42
0.0000001
 43
0.0000001
 44
0.0000000001
 40
0.0
 40
0.0
 40
0.0
 40
0.0
 40
0.2474425102
 40
0.505648224
 40
0.7607489892
 40
1.0
 40
1.0
 40
1.0
 40
1.0
 10
20.0769574335
 20
229.7461292393
 30
0.0
 10
20.0769574335
 20
229.2779599544
 30
0.0
 10
19.9150335426
 20
228.3174096033
 30
0.0
 10
19.2837348341
 20
227.0050241043
 30
0.0
 10
18.3353567384
 20
225.9197338133
 30
0.0
 10
17.5249388094
 20
225.4147378949
 30
0.0
 10
17.1036456672
 20
225.2491394278
 30
0.0
  0
SPLINE
  5
327
100
AcDbEntity
  8
0
100
AcDbSpline
 62
7
  6
CONTINUOUS
 70
0
 71
3
 72
9
 73
5
 74
0
 42
0.0000001
 43
0.0000001
 44
0.0000000001
 40
0.0
 40
0.0
 40
0.0
 40
0.0
 40
0.4816467583
 40
1.0
 40
1.0
 40
1.0
 40
1.0
 10
29.0197854038
 20
245.2102849008
 30
0.0
 10
29.2397628441
 20
244.8553347815
 30
0.0
 10
29.5758427093
 20
244.0399623288
 30
0.0
 10
29.6756112575
 20
243.1684067414
 30
0.0
 10
29.6756112575
 20
242.7189942989
 30
0.0
  0
SPLINE
  5
328
100
AcDbEntity
  8
0
100
AcDbSpline
 62
7
  6
CONTINUOUS
 70
0
 71
3
 72
14
 73
10
 74
0
 42
0.0000001
 43
0.0000001
 44
0.0000000001
 40
0.0
 40
0.0
 40
0.0
 40
0.0
 40
0.105261025
 40
0.2158781366
 40
0.3350441295
 40
0.4630415132
 40
0.5976839205
 40
0.7352112512
 40
1.0
 40
1.0
 40
1.0
 40
1.0
 10
10.8623560176
 20
235.3706130671
 30
0.0
 10
11.054855035
 20
235.2594576403
 30
0.0
 10
11.4962704316
 20
235.1046702749
 30
0.0
 10
12.2159176065
 20
235.115816014
 30
0.0
 10
12.9430624752
 20
235.3551552881
 30
0.0
 10
13.6256311903
 20
235.798483038
 30
0.0
 10
14.217363336
 20
236.412121804
 30
0.0
 10
14.8196685226
 20
237.377915778
 30
0.0
 10
15.0411295282
 20
238.2369691081
 30
0.0
 10
15.0411295282
 20
238.7961412352
 30
0.0
  0
SPLINE
  5
329
100
AcDbEntity
  8
0
100
AcDbSpline
 62
7
  6
CONTINUOUS
 70
0
 71
3
 72
14
 73
10
 74
0
 42
0.0000001
 43
0.0000001
 44
0.0000000001
 40
0.0
 40
0.0
 40
0.0
 40
0.0
 40
0.2346073929
 40
0.3603379301
 40
0.4894684284
 40
0.6200482101
 40
0.7499714674
 40
0.8772023527
 40
1.0
 40
1.0
 40
1.0
 40
1.0
 10
21.5154819654
 20
231.6468009048
 30
0.0
 10
20.8296232724
 20
231.4629527218
 30
0.0
 10
19.8300288314
 20
230.9520273271
 30
0.0
 10
18.7095456092
 20
229.9787727467
 30
0.0
 10
17.953366681
 20
229.0836015967
 30
0.0
 10
17.3330543365
 20
228.0757958802
 30
0.0
 10
16.870569895
 20
226.9923224577
 30
0.0
 10
16.5836787682
 20
225.8741828783
 30
0.0
 10
16.5154817938
 20
225.1162132632
 30
0.0
 10
16.5154817934
 20
224.744549034
 30
0.0
  0
SPLINE
  5
32A
100
AcDbEntity
  8
0
100
AcDbSpline
 62
7
  6
CONTINUOUS
 70
0
 71
3
 72
20
 73
16
 74
0
 42
0.0000001
 43
0.0000001
 44
0.0000000001
 40
0.0
 40
0.0
 40
0.0
 40
0.0
 40
0.0524894976
 40
0.1058803543
 40
0.1609468326
 40
0.2182428661
 40
0.3400791524
 40
0.4047884693
 40
0.4714423007
 40
0.6080592299
 40
0.7449194086
 40
0.8118584184
 40
0.8769392961
 40
0.9397345156
 40
1.0
 40
1.0
 40
1.0
 40
1.0
 10
12.7629011047
 20
218.9751563302
 30
0.0
 10
12.1645366243
 20
219.3207960716
 30
0.0
 10
11.0263126749
 20
220.1452624559
 30
0.0
 10
9.5872244668
 20
221.7183235813
 30
0.0
 10
8.4427059389
 20
223.5915143784
 30
0.0
 10
7.3230385941
 20
226.478493914
 30
0.0
 10
6.9309640393
 20
229.7235291813
 30
0.0
 10
7.2078617949
 20
233.0511631681
 30
0.0
 10
7.9526584207
 20
236.5091024019
 30
0.0
 10
9.7018984002
 20
240.6797649558
 30
0.0
 10
12.3690831503
 20
244.3372036526
 30
0.0
 10
14.947161139
 20
246.7744335101
 30
0.0
 10
17.027288785
 20
248.2880942096
 30
0.0
 10
19.2168289158
 20
249.4625037514
 30
0.0
 10
20.7491476225
 20
250.0118687207
 30
0.0
 10
21.5154819654
 20
250.2172888429
 30
0.0
  0
SPLINE
  5
32B
100
AcDbEntity
  8
0
100
AcDbSpline
 62
7
  6
CONTINUOUS
 70
0
 71
3
 72
15
 73
11
 74
0
 42
0.0000001
 43
0.0000001
 44
0.0000000001
 40
0.0
 40
0.0
 40
0.0
 40
0.0
 40
0.0524622549
 40
0.1056452393
 40
0.2162149894
 40
0.3353287824
 40
0.4632716504
 40
0.5978590347
 40
0.735324951
 40
1.0
 40
1.0
 40
1.0
 40
1.0
 10
12.4001756787
 20
231.5360402761
 30
0.0
 10
12.5738411333
 20
231.4357179152
 30
0.0
 10
12.9431163523
 20
231.2655877644
 30
0.0
 10
13.7474179221
 20
231.0592012633
 30
0.0
 10
14.850295896
 20
231.0744824435
 30
0.0
 10
16.1650344922
 20
231.5081882185
 30
0.0
 10
17.4004546684
 20
232.3102581639
 30
0.0
 10
18.471136238
 20
233.4206867907
 30
0.0
 10
19.5610924357
 20
235.1682820729
 30
0.0
 10
19.9617629037
 20
236.7227744115
 30
0.0
 10
19.9617629037
 20
237.7346103818
 30
0.0
  0
SPLINE
  5
32C
100
AcDbEntity
  8
0
100
AcDbSpline
 62
7
  6
CONTINUOUS
 70
0
 71
3
 72
9
 73
5
 74
0
 42
0.0000001
 43
0.0000001
 44
0.0000000001
 40
0.0
 40
0.0
 40
0.0
 40
0.0
 40
0.4816467583
 40
1.0
 40
1.0
 40
1.0
 40
1.0
 10
16.4908593529
 20
241.8518375808
 30
0.0
 10
16.7108367932
 20
241.4968874614
 30
0.0
 10
17.0469166584
 20
240.6815150088
 30
0.0
 10
17.1466852066
 20
239.8099594214
 30
0.0
 10
17.1466852066
 20
239.3605469788
 30
0.0
  0
SPLINE
  5
32D
100
AcDbEntity
  8
0
100
AcDbSpline
 62
7
  6
CONTINUOUS
 70
0
 71
3
 72
11
 73
7
 74
0
 42
0.0000001
 43
0.0000001
 44
0.0000000001
 40
0.0
 40
0.0
 40
0.0
 40
0.0
 40
0.2634075328
 40
0.515933487
 40
0.7602044579
 40
1.0
 40
1.0
 40
1.0
 40
1.0
 10
21.5154819654
 20
250.2172888429
 30
0.0
 10
22.2806129969
 20
250.4223864109
 30
0.0
 10
23.8164094706
 20
250.7013914199
 30
0.0
 10
26.1163371631
 20
250.6901174752
 30
0.0
 10
28.3001119314
 20
250.2372366618
 30
0.0
 10
29.6436202848
 20
249.6435558853
 30
0.0
 10
30.2680628261
 20
249.2828523918
 30
0.0
  0
SPLINE
  5
32E
100
AcDbEntity
  8
0
100
AcDbSpline
 62
7
  6
CONTINUOUS
 70
0
 71
3
 72
10
 73
6
 74
0
 42
0.0000001
 43
0.0000001
 44
0.0000000001
 40
0.0
 40
0.0
 40
0.0
 40
0.0
 40
0.173734312
 40
0.4030459235
 40
1.0
 40
1.0
 40
1.0
 40
1.0
 10
22.5435799206
 20
260.5082646308
 30
0.0
 10
22.5636011861
 20
260.4704384997
 30
0.0
 10
22.6380454564
 20
260.3989601708
 30
0.0
 10
22.8581139183
 20
260.2868338719
 30
0.0
 10
23.0609381912
 20
260.2435809163
 30
0.0
 10
23.2067762673
 20
260.2247047116
 30
0.0
  0
SPLINE
  5
32F
100
AcDbEntity
  8
0
100
AcDbSpline
 62
7
  6
CONTINUOUS
 70
0
 71
3
 72
9
 73
5
 74
0
 42
0.0000001
 43
0.0000001
 44
0.0000000001
 40
0.0
 40
0.0
 40
0.0
 40
0.0
 40
0.4959638416
 40
1.0
 40
1.0
 40
1.0
 40
1.0
 10
23.2067762673
 20
260.2247047116
 30
0.0
 10
25.3425812909
 20
259.948258582
 30
0.0
 10
29.6795115032
 20
259.6125722667
 30
0.0
 10
34.0282627378
 20
259.6774717571
 30
0.0
 10
36.2126653405
 20
259.8141415628
 30
0.0
  0
SPLINE
  5
330
100
AcDbEntity
  8
0
100
AcDbSpline
 62
7
  6
CONTINUOUS
 70
0
 71
3
 72
10
 73
6
 74
0
 42
0.0000001
 43
0.0000001
 44
0.0000000001
 40
0.0
 40
0.0
 40
0.0
 40
0.0
 40
0.2057618149
 40
0.4505783838
 40
1.0
 40
1.0
 40
1.0
 40
1.0
 10
36.445451233
 20
259.6797021402
 30
0.0
 10
36.4995861788
 20
259.6484347971
 30
0.0
 10
36.6276294883
 20
259.5966752182
 30
0.0
 10
36.9238051335
 20
259.5270559823
 30
0.0
 10
37.1670900972
 20
259.5126621981
 30
0.0
 10
37.3339462709
 20
259.5175890438
 30
0.0
  0
SPLINE
  5
331
100
AcDbEntity
  8
0
100
AcDbSpline
 62
7
  6
CONTINUOUS
 70
0
 71
3
 72
9
 73
5
 74
0
 42
0.0000001
 43
0.0000001
 44
0.0000000001
 40
0.0
 40
0.0
 40
0.0
 40
0.0
 40
0.5160131757
 40
1.0
 40
1.0
 40
1.0
 40
1.0
 10
37.3339462709
 20
259.5175890438
 30
0.0
 10
39.4884848112
 20
259.5812041758
 30
0.0
 10
43.6605385476
 20
259.8955746955
 30
0.0
 10
47.7838978257
 20
260.6221583299
 30
0.0
 10
49.7491217583
 20
261.0966653472
 30
0.0
  0
SPLINE
  5
332
100
AcDbEntity
  8
0
100
AcDbSpline
 62
7
  6
CONTINUOUS
 70
0
 71
3
 72
9
 73
5
 74
0
 42
0.0000001
 43
0.0000001
 44
0.0000000001
 40
0.0
 40
0.0
 40
0.0
 40
0.0
 40
0.4948739574
 40
1.0
 40
1.0
 40
1.0
 40
1.0
 10
50.094939821
 20
261.0075121403
 30
0.0
 10
50.2521246215
 20
260.9669849807
 30
0.0
 10
50.5818008896
 20
260.933261576
 30
0.0
 10
50.9109572015
 20
260.9592372323
 30
0.0
 10
51.0734687117
 20
260.9915261197
 30
0.0
  0
SPLINE
  5
333
100
AcDbEntity
  8
0
100
AcDbSpline
 62
7
  6
CONTINUOUS
 70
0
 71
3
 72
10
 73
6
 74
0
 42
0.0000001
 43
0.0000001
 44
0.0000000001
 40
0.0
 40
0.0
 40
0.0
 40
0.0
 40
0.5382025795
 40
0.7797104418
 40
1.0
 40
1.0
 40
1.0
 40
1.0
 10
51.0734687117
 20
260.9915261197
 30
0.0
 10
52.9227399498
 20
261.358948635
 30
0.0
 10
55.580770993
 20
262.0308542089
 30
0.0
 10
58.8648239249
 20
263.2579359397
 30
0.0
 10
60.3294433336
 20
263.9519732036
 30
0.0
 10
61.0078335732
 20
264.3198426821
 30
0.0
  0
SPLINE
  5
334
100
AcDbEntity
  8
0
100
AcDbSpline
 62
7
  6
CONTINUOUS
 70
0
 71
3
 72
9
 73
5
 74
0
 42
0.0000001
 43
0.0000001
 44
0.0000000001
 40
0.0
 40
0.0
 40
0.0
 40
0.0
 40
0.539372481
 40
1.0
 40
1.0
 40
1.0
 40
1.0
 10
61.4140356938
 20
264.2895476742
 30
0.0
 10
61.5817498337
 20
264.2770361953
 30
0.0
 10
61.895226107
 20
264.288488564
 30
0.0
 10
62.2030097078
 20
264.3623886394
 30
0.0
 10
62.3336258469
 20
264.4221223808
 30
0.0
  0
SPLINE
  5
335
100
AcDbEntity
  8
0
100
AcDbSpline
 62
7
  6
CONTINUOUS
 70
0
 71
3
 72
11
 73
7
 74
0
 42
0.0000001
 43
0.0000001
 44
0.0000000001
 40
0.0
 40
0.0
 40
0.0
 40
0.0
 40
0.2956111434
 40
0.5601021106
 40
0.7939632941
 40
1.0
 40
1.0
 40
1.0
 40
1.0
 10
62.3336258469
 20
264.4221223808
 30
0.0
 10
63.0140711458
 20
264.7333033287
 30
0.0
 10
64.2794166709
 20
265.3784202982
 30
0.0
 10
65.9626735215
 20
266.4856215393
 30
0.0
 10
67.3069709146
 20
267.6666725016
 30
0.0
 10
68.0036690867
 20
268.5474705108
 30
0.0
 10
68.2747631056
 20
268.9929722466
 30
0.0
  0
SPLINE
  5
336
100
AcDbEntity
  8
0
100
AcDbSpline
 62
7
  6
CONTINUOUS
 70
0
 71
3
 72
10
 73
6
 74
0
 42
0.0000001
 43
0.0000001
 44
0.0000000001
 40
0.0
 40
0.0
 40
0.0
 40
0.0
 40
0.586543922
 40
0.8178677753
 40
1.0
 40
1.0
 40
1.0
 40
1.0
 10
68.6795083452
 20
269.0261483728
 30
0.0
 10
68.8315909847
 20
269.0386112167
 30
0.0
 10
69.0447501294
 20
269.076742056
 30
0.0
 10
69.2827924236
 20
269.1837669975
 30
0.0
 10
69.3697700441
 20
269.2507479974
 30
0.0
 10
69.4001608268
 20
269.2871006448
 30
0.0
  0
SPLINE
  5
337
100
AcDbEntity
  8
0
100
AcDbSpline
 62
7
  6
CONTINUOUS
 70
0
 71
3
 72
10
 73
6
 74
0
 42
0.0000001
 43
0.0000001
 44
0.0000000001
 40
0.0
 40
0.0
 40
0.0
 40
0.0
 40
0.5277832042
 40
0.7677725024
 40
1.0
 40
1.0
 40
1.0
 40
1.0
 10
69.4001608268
 20
269.2871006448
 30
0.0
 10
69.8226177538
 20
269.7924264075
 30
0.0
 10
70.3560005201
 20
270.6139013339
 30
0.0
 10
70.7265182889
 20
271.8121273984
 30
0.0
 10
70.7872611074
 20
272.4031592348
 30
0.0
 10
70.7872690737
 20
272.6929702277
 30
0.0
  0
SPLINE
  5
338
100
AcDbEntity
  8
0
100
AcDbSpline
 62
7
  6
CONTINUOUS
 70
0
 71
3
 72
11
 73
7
 74
0
 42
0.0000001
 43
0.0000001
 44
0.0000000001
 40
0.0
 40
0.0
 40
0.0
 40
0.0
 40
0.3380588807
 40
0.6127768218
 40
0.8264139451
 40
1.0
 40
1.0
 40
1.0
 40
1.0
 10
70.78525593
 20
274.4962100276
 30
0.0
 10
70.8460416776
 20
274.5125039785
 30
0.0
 10
70.9547113832
 20
274.549170273
 30
0.0
 10
71.0896180598
 20
274.625237277
 30
0.0
 10
71.1786981371
 20
274.7142825488
 30
0.0
 10
71.2009756715
 20
274.7874119699
 30
0.0
 10
71.2000958445
 20
274.8197140857
 30
0.0
  0
SPLINE
  5
339
100
AcDbEntity
  8
0
100
AcDbSpline
 62
7
  6
CONTINUOUS
 70
0
 71
3
 72
11
 73
7
 74
0
 42
0.0000001
 43
0.0000001
 44
0.0000000001
 40
0.0
 40
0.0
 40
0.0
 40
0.0
 40
0.2109861892
 40
0.4431462976
 40
0.7046431926
 40
1.0
 40
1.0
 40
1.0
 40
1.0
 10
-1.6219206427
 20
272.8420202424
 30
0.0
 10
-1.5404093223
 20
272.4146004795
 30
0.0
 10
-1.2350717105
 20
271.5394459734
 30
0.0
 10
-0.4299927841
 20
270.3166662351
 30
0.0
 10
0.7147346858
 20
269.1492351597
 30
0.0
 10
1.6361722053
 20
268.4572990451
 30
0.0
 10
2.1429152877
 20
268.1193023968
 30
0.0
  0
SPLINE
  5
33A
100
AcDbEntity
  8
0
100
AcDbSpline
 62
7
  6
CONTINUOUS
 70
0
 71
3
 72
11
 73
7
 74
0
 42
0.0000001
 43
0.0000001
 44
0.0000000001
 40
0.0
 40
0.0
 40
0.0
 40
0.0
 40
0.213273932
 40
0.4517844574
 40
0.7146464602
 40
1.0
 40
1.0
 40
1.0
 40
1.0
 10
2.1240139891
 20
267.4358300016
 30
0.0
 10
2.6493744827
 20
267.0264466517
 30
0.0
 10
3.8277925473
 20
266.2423437913
 30
0.0
 10
5.8145513136
 20
265.218544688
 30
0.0
 10
8.0937461628
 20
264.2937476687
 30
0.0
 10
9.7258652094
 20
263.7715413274
 30
0.0
 10
10.5827525643
 20
263.5268894634
 30
0.0
  0
SPLINE
  5
33B
100
AcDbEntity
  8
0
100
AcDbSpline
 62
7
  6
CONTINUOUS
 70
0
 71
3
 72
9
 73
5
 74
0
 42
0.0000001
 43
0.0000001
 44
0.0000000001
 40
0.0
 40
0.0
 40
0.0
 40
0.0
 40
0.4752720563
 40
1.0
 40
1.0
 40
1.0
 40
1.0
 10
10.8426922709
 20
263.0052211727
 30
0.0
 10
12.6236877892
 20
262.4022716439
 30
0.0
 10
16.4684155168
 20
261.4178806886
 30
0.0
 10
20.3924666259
 20
260.8622405929
 30
0.0
 10
22.4592645646
 20
260.6675224284
 30
0.0
  0
SPLINE
  5
33C
100
AcDbEntity
  8
0
100
AcDbSpline
 62
7
  6
CONTINUOUS
 70
0
 71
3
 72
9
 73
5
 74
0
 42
0.0000001
 43
0.0000001
 44
0.0000000001
 40
0.0
 40
0.0
 40
0.0
 40
0.0
 40
0.2448736985
 40
1.0
 40
1.0
 40
1.0
 40
1.0
 10
8.5372129518
 20
288.9734554402
 30
0.0
 10
8.5373379459
 20
288.8757999061
 30
0.0
 10
8.5545968283
 20
288.477075476
 30
0.0
 10
8.6423305039
 20
288.082400982
 30
0.0
 10
8.7400174305
 20
287.7975410795
 30
0.0
  0
SPLINE
  5
33D
100
AcDbEntity
  8
0
100
AcDbSpline
 62
7
  6
CONTINUOUS
 70
0
 71
3
 72
10
 73
6
 74
0
 42
0.0000001
 43
0.0000001
 44
0.0000000001
 40
0.0
 40
0.0
 40
0.0
 40
0.0
 40
0.4249400378
 40
0.6927346949
 40
1.0
 40
1.0
 40
1.0
 40
1.0
 10
8.7400174305
 20
287.7975410795
 30
0.0
 10
9.0142267825
 20
286.9979330668
 30
0.0
 10
9.8584147252
 20
285.8361532905
 30
0.0
 10
11.3708712418
 20
284.5486787021
 30
0.0
 10
12.3357567113
 20
283.9246441481
 30
0.0
 10
12.8650465021
 20
283.6189361947
 30
0.0
  0
SPLINE
  5
33E
100
AcDbEntity
  8
0
100
AcDbSpline
 62
7
  6
CONTINUOUS
 70
0
 71
3
 72
22
 73
18
 74
0
 42
0.0000001
 43
0.0000001
 44
0.0000000001
 40
0.0
 40
0.0
 40
0.0
 40
0.0
 40
0.0539363753
 40
0.1150647596
 40
0.1824112382
 40
0.2547706975
 40
0.4088461637
 40
0.5653122599
 40
0.6405886658
 40
0.7118919369
 40
0.7778828046
 40
0.837403194
 40
0.8895475598
 40
0.9126857475
 40
0.9338230172
 40
0.9702130164
 40
1.0
 40
1.0
 40
1.0
 40
1.0
 10
12.8650465021
 20
283.6189361947
 30
0.0
 10
13.666507107
 20
283.1560274338
 30
0.0
 10
15.450797114
 20
282.296257105
 30
0.0
 10
18.4035022882
 20
281.2450068791
 30
0.0
 10
21.7422083381
 20
280.3749280209
 30
0.0
 10
26.7052600529
 20
279.4698243353
 30
0.0
 10
33.2725142573
 20
278.9413901759
 30
0.0
 10
39.9054217008
 20
279.1763223981
 30
0.0
 10
45.0655985522
 20
279.8462813085
 30
0.0
 10
48.645748014
 20
280.5612266206
 30
0.0
 10
51.9009875898
 20
281.4759558702
 30
0.0
 10
54.7529684555
 20
282.5659413745
 30
0.0
 10
56.8136756891
 20
283.6332772895
 30
0.0
 10
58.1861839726
 20
284.5608942044
 30
0.0
 10
59.2607800714
 20
285.4353619393
 30
0.0
 10
60.2830560047
 20
286.5487258879
 30
0.0
 10
60.7946152018
 20
287.5907064185
 30
0.0
 10
60.9221306015
 20
288.0856850348
 30
0.0
  0
SPLINE
  5
33F
100
AcDbEntity
  8
0
100
AcDbSpline
 62
7
  6
CONTINUOUS
 70
0
 71
3
 72
9
 73
5
 74
0
 42
0.0000001
 43
0.0000001
 44
0.0000000001
 40
0.0
 40
0.0
 40
0.0
 40
0.0
 40
0.254660053
 40
1.0
 40
1.0
 40
1.0
 40
1.0
 10
60.9221306015
 20
288.0856850348
 30
0.0
 10
60.9415170795
 20
288.160937844
 30
0.0
 10
61.0086023871
 20
288.4586889974
 30
0.0
 10
61.0381564956
 20
288.7649554499
 30
0.0
 10
61.0378871172
 20
288.9923967557
 30
0.0
  0
SPLINE
  5
340
100
AcDbEntity
  8
0
100
AcDbSpline
 62
7
  6
CONTINUOUS
 70
0
 71
3
 72
9
 73
5
 74
0
 42
0.0000001
 43
0.0000001
 44
0.0000000001
 40
0.0
 40
0.0
 40
0.0
 40
0.0
 40
0.445127488
 40
1.0
 40
1.0
 40
1.0
 40
1.0
 10
2.0173654591
 20
267.6521788186
 30
0.0
 10
2.0090343852
 20
267.6157651925
 30
0.0
 10
2.0245165384
 20
267.5253071151
 30
0.0
 10
2.0872844361
 20
267.4644509885
 30
0.0
 10
2.1240139891
 20
267.4358300016
 30
0.0
  0
SPLINE
  5
341
100
AcDbEntity
  8
0
100
AcDbSpline
 62
7
  6
CONTINUOUS
 70
0
 71
3
 72
18
 73
14
 74
0
 42
0.0000001
 43
0.0000001
 44
0.0000000001
 40
0.0
 40
0.0
 40
0.0
 40
0.0
 40
0.0453450291
 40
0.09192293
 40
0.1408689133
 40
0.1931196055
 40
0.2491582332
 40
0.3090770796
 40
0.4394059654
 40
0.5800416083
 40
0.7248342435
 40
0.866946642
 40
1.0
 40
1.0
 40
1.0
 40
1.0
 10
67.2206936298
 20
289.6331633006
 30
0.0
 10
66.8565002889
 20
290.3563493905
 30
0.0
 10
65.9381289438
 20
291.7358745215
 30
0.0
 10
64.1524294074
 20
293.5241558369
 30
0.0
 10
62.0125879474
 20
295.0828092746
 30
0.0
 10
59.5542940045
 20
296.4503887498
 30
0.0
 10
56.79402423
 20
297.6452098745
 30
0.0
 10
52.6242531777
 20
299.0553114892
 30
0.0
 10
46.8401006068
 20
300.3433425906
 30
0.0
 10
39.4484351306
 20
301.1536908292
 30
0.0
 10
31.8017456615
 20
301.2346814907
 30
0.0
 10
24.3197105299
 20
300.5830753426
 30
0.0
 10
19.4840166267
 20
299.636145624
 30
0.0
 10
17.1891395621
 20
299.0209912448
 30
0.0
  0
SPLINE
  5
342
100
AcDbEntity
  8
0
100
AcDbSpline
 62
7
  6
CONTINUOUS
 70
0
 71
3
 72
13
 73
9
 74
0
 42
0.0000001
 43
0.0000001
 44
0.0000000001
 40
0.0
 40
0.0
 40
0.0
 40
0.0
 40
0.287284169
 40
0.546795583
 40
0.6668094967
 40
0.7813555721
 40
0.8918184673
 40
1.0
 40
1.0
 40
1.0
 40
1.0
 10
17.1891395621
 20
299.0209912448
 30
0.0
 10
15.6057394483
 20
298.596552163
 30
0.0
 10
12.6276531369
 20
297.6445180574
 30
0.0
 10
9.1614691057
 20
296.0382166483
 30
0.0
 10
6.7756949718
 20
294.5290430118
 30
0.0
 10
5.2224184544
 20
293.3126767205
 30
0.0
 10
3.8753463815
 20
291.9636519001
 30
0.0
 10
3.1275798029
 20
290.9572154846
 30
0.0
 10
2.8027060866
 20
290.4323129541
 30
0.0
  0
SPLINE
  5
343
100
AcDbEntity
  8
0
100
AcDbSpline
 62
7
  6
CONTINUOUS
 70
0
 71
3
 72
9
 73
5
 74
0
 42
0.0000001
 43
0.0000001
 44
0.0000000001
 40
0.0
 40
0.0
 40
0.0
 40
0.0
 40
0.2509273174
 40
1.0
 40
1.0
 40
1.0
 40
1.0
 10
2.8027060866
 20
290.4323129541
 30
0.0
 10
2.7249458798
 20
290.3066748146
 30
0.0
 10
2.4252822157
 20
289.7997612224
 30
0.0
 10
2.1684773748
 20
289.2671941853
 30
0.0
 10
2.0054019373
 20
288.8573659538
 30
0.0
  0
SPLINE
  5
344
100
AcDbEntity
  8
0
100
AcDbSpline
 62
7
  6
CONTINUOUS
 70
0
 71
3
 72
11
 73
7
 74
0
 42
0.0000001
 43
0.0000001
 44
0.0000000001
 40
0.0
 40
0.0
 40
0.0
 40
0.0
 40
0.1810365627
 40
0.3902266692
 40
0.6619744306
 40
1.0
 40
1.0
 40
1.0
 40
1.0
 10
10.4995434246
 20
263.3524679886
 30
0.0
 10
10.4883013394
 20
263.3221715181
 30
0.0
 10
10.4872997537
 20
263.2461475285
 30
0.0
 10
10.56208032
 20
263.1480935989
 30
0.0
 10
10.6842186561
 20
263.0662769601
 30
0.0
 10
10.7855410058
 20
263.0245693868
 30
0.0
 10
10.8426922709
 20
263.0052211727
 30
0.0
  0
SPLINE
  5
345
100
AcDbEntity
  8
0
100
AcDbSpline
 62
7
  6
CONTINUOUS
 70
0
 71
3
 72
10
 73
6
 74
0
 42
0.0000001
 43
0.0000001
 44
0.0000000001
 40
0.0
 40
0.0
 40
0.0
 40
0.0
 40
0.5207207685
 40
0.767204888
 40
1.0
 40
1.0
 40
1.0
 40
1.0
 10
68.5030750124
 20
272.0928630007
 30
0.0
 10
68.6023988923
 20
273.7113957559
 30
0.0
 10
68.6974711422
 20
276.101389915
 30
0.0
 10
68.6041117602
 20
279.2152909378
 30
0.0
 10
68.467102578
 20
280.7031202948
 30
0.0
 10
68.3699411533
 20
281.4215274139
 30
0.0
  0
SPLINE
  5
346
100
AcDbEntity
  8
0
100
AcDbSpline
 62
7
  6
CONTINUOUS
 70
0
 71
3
 72
9
 73
5
 74
0
 42
0.0000001
 43
0.0000001
 44
0.0000000001
 40
0.0
 40
0.0
 40
0.0
 40
0.0
 40
0.5408451562
 40
1.0
 40
1.0
 40
1.0
 40
1.0
 10
68.3699411533
 20
281.4215274139
 30
0.0
 10
68.4141132802
 20
282.3669761662
 30
0.0
 10
68.4429205755
 20
284.1180288267
 30
0.0
 10
68.2938328973
 20
285.8683949779
 30
0.0
 10
68.1524625914
 20
286.6593828554
 30
0.0
  0
SPLINE
  5
347
100
AcDbEntity
  8
0
100
AcDbSpline
 62
7
  6
CONTINUOUS
 70
0
 71
3
 72
9
 73
5
 74
0
 42
0.0000001
 43
0.0000001
 44
0.0000000001
 40
0.0
 40
0.0
 40
0.0
 40
0.0
 40
0.5153075693
 40
1.0
 40
1.0
 40
1.0
 40
1.0
 10
67.5844590493
 20
288.8947291101
 30
0.0
 10
67.6168837856
 20
288.8992745192
 30
0.0
 10
67.682489012
 20
288.8977808013
 30
0.0
 10
67.7407112062
 20
288.8647115972
 30
0.0
 10
67.7623298693
 20
288.8427785009
 30
0.0
  0
SPLINE
  5
348
100
AcDbEntity
  8
0
100
AcDbSpline
 62
7
  6
CONTINUOUS
 70
0
 71
3
 72
11
 73
7
 74
0
 42
0.0000001
 43
0.0000001
 44
0.0000000001
 40
0.0
 40
0.0
 40
0.0
 40
0.0
 40
0.2688638763
 40
0.530763501
 40
0.7770499142
 40
1.0
 40
1.0
 40
1.0
 40
1.0
 10
69.4001694303
 20
269.2871081515
 30
0.0
 10
69.5520742083
 20
270.5541765163
 30
0.0
 10
69.8496150522
 20
273.0557510832
 30
0.0
 10
70.1838688291
 20
276.7300816481
 30
0.0
 10
70.2923909186
 20
280.2010689131
 30
0.0
 10
70.142497056
 20
282.4307321059
 30
0.0
 10
69.9850938745
 20
283.477175557
 30
0.0
  0
SPLINE
  5
349
100
AcDbEntity
  8
0
100
AcDbSpline
 62
7
  6
CONTINUOUS
 70
0
 71
3
 72
14
 73
10
 74
0
 42
0.0000001
 43
0.0000001
 44
0.0000000001
 40
0.0
 40
0.0
 40
0.0
 40
0.0
 40
0.1157661599
 40
0.2343619187
 40
0.3566612934
 40
0.4828070141
 40
0.6120642478
 40
0.7429879278
 40
1.0
 40
1.0
 40
1.0
 40
1.0
 10
22.5435786767
 20
260.5082603732
 30
0.0
 10
22.9181737725
 20
261.348939781
 30
0.0
 10
23.8197688745
 20
262.9908732665
 30
0.0
 10
25.5718429366
 20
265.2334305768
 30
0.0
 10
27.6808067891
 20
267.2629249713
 30
0.0
 10
30.0989314105
 20
269.0557232275
 30
0.0
 10
32.7708275364
 20
270.5847996019
 30
0.0
 10
36.5461848739
 20
272.2267929605
 30
0.0
 10
39.5619074191
 20
273.005697555
 30
0.0
 10
41.5839512625
 20
273.2995844328
 30
0.0
  0
SPLINE
  5
34A
100
AcDbEntity
  8
0
100
AcDbSpline
 62
7
  6
CONTINUOUS
 70
0
 71
3
 72
9
 73
5
 74
0
 42
0.0000001
 43
0.0000001
 44
0.0000000001
 40
0.0
 40
0.0
 40
0.0
 40
0.0
 40
0.5019166891
 40
1.0
 40
1.0
 40
1.0
 40
1.0
 10
43.6379704548
 20
270.2654671166
 30
0.0
 10
42.4274553763
 20
269.1311426798
 30
0.0
 10
40.1676930961
 20
266.7029661932
 30
0.0
 10
38.2967848632
 20
263.956350975
 30
0.0
 10
37.5004867371
 20
262.5154931638
 30
0.0
  0
SPLINE
  5
34B
100
AcDbEntity
  8
0
100
AcDbSpline
 62
7
  6
CONTINUOUS
 70
0
 71
3
 72
9
 73
5
 74
0
 42
0.0000001
 43
0.0000001
 44
0.0000000001
 40
0.0
 40
0.0
 40
0.0
 40
0.0
 40
0.2525243646
 40
1.0
 40
1.0
 40
1.0
 40
1.0
 10
37.5004867371
 20
262.5154931638
 30
0.0
 10
37.3785983313
 20
262.2949427746
 30
0.0
 10
36.9084429343
 20
261.4147308815
 30
0.0
 10
36.490427907
 20
260.5064008537
 30
0.0
 10
36.2126558853
 20
259.8141559304
 30
0.0
  0
SPLINE
  5
34C
100
AcDbEntity
  8
0
100
AcDbSpline
 62
7
  6
CONTINUOUS
 70
0
 71
3
 72
11
 73
7
 74
0
 42
0.0000001
 43
0.0000001
 44
0.0000000001
 40
0.0
 40
0.0
 40
0.0
 40
0.0
 40
0.2338925693
 40
0.4796400975
 40
0.7372949129
 40
1.0
 40
1.0
 40
1.0
 40
1.0
 10
23.2067928549
 20
260.224702306
 30
0.0
 10
23.8068508235
 20
261.5573876042
 30
0.0
 10
25.4332325622
 20
264.1215499038
 30
0.0
 10
28.7509725556
 20
267.3625639975
 30
0.0
 10
32.7663820229
 20
270.0140370558
 30
0.0
 10
35.7575284786
 20
271.3325803314
 30
0.0
 10
37.3087512412
 20
271.8697279157
 30
0.0
  0
SPLINE
  5
34D
100
AcDbEntity
  8
0
100
AcDbSpline
 62
7
  6
CONTINUOUS
 70
0
 71
3
 72
9
 73
5
 74
0
 42
0.0000001
 43
0.0000001
 44
0.0000000001
 40
0.0
 40
0.0
 40
0.0
 40
0.0
 40
0.2342890086
 40
1.0
 40
1.0
 40
1.0
 40
1.0
 10
1.6714393428
 20
288.9369527829
 30
0.0
 10
1.6654473746
 20
288.9020640376
 30
0.0
 10
1.642714483
 20
288.7526641965
 30
0.0
 10
1.6305811956
 20
288.601757546
 30
0.0
 10
1.6256639624
 20
288.4861681198
 30
0.0
  0
SPLINE
  5
34E
100
AcDbEntity
  8
0
100
AcDbSpline
 62
7
  6
CONTINUOUS
 70
0
 71
3
 72
11
 73
7
 74
0
 42
0.0000001
 43
0.0000001
 44
0.0000000001
 40
0.0
 40
0.0
 40
0.0
 40
0.0
 40
0.1967135195
 40
0.4172494541
 40
0.6814760646
 40
1.0
 40
1.0
 40
1.0
 40
1.0
 10
2.7012141099
 20
290.1891580277
 30
0.0
 10
2.5899675225
 20
290.1487201736
 30
0.0
 10
2.3706413183
 20
290.0107771793
 30
0.0
 10
2.1257660498
 20
289.6731910969
 30
0.0
 10
1.9555348517
 20
289.2166633473
 30
0.0
 10
1.8959451475
 20
288.8694393239
 30
0.0
 10
1.8751360159
 20
288.6789073096
 30
0.0
  0
SPLINE
  5
34F
100
AcDbEntity
  8
0
100
AcDbSpline
 62
7
  6
CONTINUOUS
 70
0
 71
3
 72
9
 73
5
 74
0
 42
0.0000001
 43
0.0000001
 44
0.0000000001
 40
0.0
 40
0.0
 40
0.0
 40
0.0
 40
0.2544541364
 40
1.0
 40
1.0
 40
1.0
 40
1.0
 10
37.3086960073
 20
271.8699079279
 30
0.0
 10
37.6706893749
 20
271.9952510431
 30
0.0
 10
39.1027516506
 20
272.4600491756
 30
0.0
 10
40.5704165757
 20
272.8160855093
 30
0.0
 10
41.6752951742
 20
273.013726843
 30
0.0
  0
SPLINE
  5
350
100
AcDbEntity
  8
0
100
AcDbSpline
 62
7
  6
CONTINUOUS
 70
0
 71
3
 72
14
 73
10
 74
0
 42
0.0000001
 43
0.0000001
 44
0.0000000001
 40
0.0
 40
0.0
 40
0.0
 40
0.0
 40
0.1454299261
 40
0.2655218354
 40
0.3666092727
 40
0.4599954885
 40
0.6769629655
 40
0.8229041848
 40
1.0
 40
1.0
 40
1.0
 40
1.0
 10
-0.6501628205
 20
284.0899600022
 30
0.0
 10
-0.6419879902
 20
284.1554864291
 30
0.0
 10
-0.6206803522
 20
284.2746317645
 30
0.0
 10
-0.5624269013
 20
284.4318915852
 30
0.0
 10
-0.4765848698
 20
284.5495052944
 30
0.0
 10
-0.3111880021
 20
284.6482790389
 30
0.0
 10
-0.0890987537
 20
284.6274289272
 30
0.0
 10
0.1387295422
 20
284.5416500093
 30
0.0
 10
0.2693354156
 20
284.4729383764
 30
0.0
 10
0.3388643934
 20
284.4325412909
 30
0.0
  0
SPLINE
  5
351
100
AcDbEntity
  8
0
100
AcDbSpline
 62
7
  6
CONTINUOUS
 70
0
 71
3
 72
12
 73
8
 74
0
 42
0.0000001
 43
0.0000001
 44
0.0000000001
 40
0.0
 40
0.0
 40
0.0
 40
0.0
 40
0.0543688667
 40
0.1256587785
 40
0.3294254186
 40
0.6209784768
 40
1.0
 40
1.0
 40
1.0
 40
1.0
 10
0.11846959
 20
285.0484048556
 30
0.0
 10
0.1624917328
 20
285.0506746463
 30
0.0
 10
0.2650038864
 20
285.0314852379
 30
0.0
 10
0.508106288
 20
284.9186963753
 30
0.0
 10
0.8760033908
 20
284.6373278929
 30
0.0
 10
1.3931175193
 20
284.1534119409
 30
0.0
 10
1.769041621
 20
283.7598874854
 30
0.0
 10
1.9785120655
 20
283.5350433922
 30
0.0
  0
SPLINE
  5
352
100
AcDbEntity
  8
0
100
AcDbSpline
 62
7
  6
CONTINUOUS
 70
0
 71
3
 72
14
 73
10
 74
0
 42
0.0000001
 43
0.0000001
 44
0.0000000001
 40
0.0
 40
0.0
 40
0.0
 40
0.0
 40
0.2531262766
 40
0.505218088
 40
0.6307622359
 40
0.7558112667
 40
0.8799977133
 40
0.941473962
 40
1.0
 40
1.0
 40
1.0
 40
1.0
 10
42.4878260116
 20
273.4368488184
 30
0.0
 10
42.5786041974
 20
273.4452958606
 30
0.0
 10
42.7600383956
 20
273.4598272404
 30
0.0
 10
42.9869735125
 20
273.4702969298
 30
0.0
 10
43.1682722284
 20
273.4704078216
 30
0.0
 10
43.3025744024
 20
273.4649965873
 30
0.0
 10
43.4157931989
 20
273.4499735487
 30
0.0
 10
43.4972896659
 20
273.4291170491
 30
0.0
 10
43.5410847038
 20
273.3975963078
 30
0.0
 10
43.5418413115
 20
273.3765301391
 30
0.0
  0
SPLINE
  5
353
100
AcDbEntity
  8
0
100
AcDbSpline
 62
7
  6
CONTINUOUS
 70
0
 71
3
 72
10
 73
6
 74
0
 42
0.0000001
 43
0.0000001
 44
0.0000000001
 40
0.0
 40
0.0
 40
0.0
 40
0.0
 40
0.2184469656
 40
0.5842673236
 40
1.0
 40
1.0
 40
1.0
 40
1.0
 10
7.0224372349
 20
274.4393110995
 30
0.0
 10
7.6465739918
 20
274.7440400433
 30
0.0
 10
9.4118936244
 20
275.369414658
 30
0.0
 10
12.6083717259
 20
275.6928459981
 30
0.0
 10
15.0931556334
 20
275.4255555006
 30
0.0
 10
16.393788762
 20
275.1898000911
 30
0.0
  0
SPLINE
  5
354
100
AcDbEntity
  8
0
100
AcDbSpline
 62
7
  6
CONTINUOUS
 70
0
 71
3
 72
9
 73
5
 74
0
 42
0.0000001
 43
0.0000001
 44
0.0000000001
 40
0.0
 40
0.0
 40
0.0
 40
0.0
 40
0.5760601405
 40
1.0
 40
1.0
 40
1.0
 40
1.0
 10
41.6744980561
 20
273.0141273142
 30
0.0
 10
41.6695436437
 20
273.0715960745
 30
0.0
 10
41.6511867043
 20
273.169527343
 30
0.0
 10
41.6126916915
 20
273.2662955414
 30
0.0
 10
41.5839511275
 20
273.2975360586
 30
0.0
  0
SPLINE
  5
355
100
AcDbEntity
  8
0
100
AcDbSpline
 62
7
  6
CONTINUOUS
 70
0
 71
3
 72
9
 73
5
 74
0
 42
0.0000001
 43
0.0000001
 44
0.0000000001
 40
0.0
 40
0.0
 40
0.0
 40
0.0
 40
0.4242703884
 40
1.0
 40
1.0
 40
1.0
 40
1.0
 10
41.6178741531
 20
273.3024370706
 30
0.0
 10
41.6467081875
 20
273.2714253633
 30
0.0
 10
41.6852660028
 20
273.1749427166
 30
0.0
 10
41.7033389507
 20
273.0772877357
 30
0.0
 10
41.7080986544
 20
273.0200231109
 30
0.0
  0
SPLINE
  5
356
100
AcDbEntity
  8
0
100
AcDbSpline
 62
7
  6
CONTINUOUS
 70
0
 71
3
 72
9
 73
5
 74
0
 42
0.0000001
 43
0.0000001
 44
0.0000000001
 40
0.0
 40
0.0
 40
0.0
 40
0.0
 40
0.2479604561
 40
1.0
 40
1.0
 40
1.0
 40
1.0
 10
22.4592534797
 20
260.6675757229
 30
0.0
 10
22.5497041384
 20
260.8822183991
 30
0.0
 10
22.9325498792
 20
261.7401582966
 30
0.0
 10
23.384914619
 20
262.5668143547
 30
0.0
 10
23.7585858141
 20
263.1663255162
 30
0.0
  0
SPLINE
  5
357
100
AcDbEntity
  8
0
100
AcDbSpline
 62
7
  6
CONTINUOUS
 70
0
 71
3
 72
9
 73
5
 74
0
 42
0.0000001
 43
0.0000001
 44
0.0000000001
 40
0.0
 40
0.0
 40
0.0
 40
0.0
 40
0.489318671
 40
1.0
 40
1.0
 40
1.0
 40
1.0
 10
23.7585858141
 20
263.1663255162
 30
0.0
 10
24.5833084242
 20
264.4894952343
 30
0.0
 10
26.6107742197
 20
266.9886143955
 30
0.0
 10
29.1052548463
 20
269.0057497543
 30
0.0
 10
30.456935737
 20
269.9117287577
 30
0.0
  0
SPLINE
  5
358
100
AcDbEntity
  8
0
100
AcDbSpline
 62
7
  6
CONTINUOUS
 70
0
 71
3
 72
9
 73
5
 74
0
 42
0.0000001
 43
0.0000001
 44
0.0000000001
 40
0.0
 40
0.0
 40
0.0
 40
0.0
 40
0.2476872615
 40
1.0
 40
1.0
 40
1.0
 40
1.0
 10
30.456935737
 20
269.9117287577
 30
0.0
 10
31.2945727703
 20
270.3938338479
 30
0.0
 10
34.7871703811
 20
272.1415826495
 30
0.0
 10
38.6636613308
 20
273.1183224724
 30
0.0
 10
41.5893530738
 20
273.3581145226
 30
0.0
  0
SPLINE
  5
359
100
AcDbEntity
  8
0
100
AcDbSpline
 62
7
  6
CONTINUOUS
 70
0
 71
3
 72
10
 73
6
 74
0
 42
0.0000001
 43
0.0000001
 44
0.0000000001
 40
0.0
 40
0.0
 40
0.0
 40
0.0
 40
0.4273282313
 40
0.6945422989
 40
1.0
 40
1.0
 40
1.0
 40
1.0
 10
1.8136976351
 20
279.689776425
 30
0.0
 10
2.558083271
 20
279.8893072273
 30
0.0
 10
3.8604717816
 20
279.8354242059
 30
0.0
 10
5.6014363712
 20
279.3833875566
 30
0.0
 10
6.5700256002
 20
279.0143077493
 30
0.0
 10
7.0767852163
 20
278.798298933
 30
0.0
  0
SPLINE
  5
35A
100
AcDbEntity
  8
0
100
AcDbSpline
 62
7
  6
CONTINUOUS
 70
0
 71
3
 72
11
 73
7
 74
0
 42
0.0000001
 43
0.0000001
 44
0.0000000001
 40
0.0
 40
0.0
 40
0.0
 40
0.0
 40
0.2299743138
 40
0.4690385297
 40
0.7253341666
 40
1.0
 40
1.0
 40
1.0
 40
1.0
 10
11.4168591114
 20
264.2894155165
 30
0.0
 10
11.9595612934
 20
265.3452680753
 30
0.0
 10
13.3760448735
 20
267.3528406454
 30
0.0
 10
16.29087786
 20
269.7613032857
 30
0.0
 10
19.8774706273
 20
271.5417914214
 30
0.0
 10
22.5395098267
 20
272.2647465159
 30
0.0
 10
23.9338583562
 20
272.521908729
 30
0.0
  0
SPLINE
  5
35B
100
AcDbEntity
  8
0
100
AcDbSpline
 62
7
  6
CONTINUOUS
 70
0
 71
3
 72
9
 73
5
 74
0
 42
0.0000001
 43
0.0000001
 44
0.0000000001
 40
0.0
 40
0.0
 40
0.0
 40
0.0
 40
0.2473187282
 40
1.0
 40
1.0
 40
1.0
 40
1.0
 10
23.9338145528
 20
272.5220964753
 30
0.0
 10
24.3065348962
 20
272.5908323932
 30
0.0
 10
25.8197200205
 20
272.8347641524
 30
0.0
 10
27.3533124103
 20
272.948609415
 30
0.0
 10
28.5066293811
 20
272.966250968
 30
0.0
  0
SPLINE
  5
35C
100
AcDbEntity
  8
0
100
AcDbSpline
 62
7
  6
CONTINUOUS
 70
0
 71
3
 72
16
 73
12
 74
0
 42
0.0000001
 43
0.0000001
 44
0.0000000001
 40
0.0
 40
0.0
 40
0.0
 40
0.0
 40
0.0091932341
 40
0.0242798025
 40
0.0753073703
 40
0.1555858094
 40
0.265528039
 40
0.4051906156
 40
0.5745053577
 40
0.7729932641
 40
1.0
 40
1.0
 40
1.0
 40
1.0
 10
1.1799781653
 20
285.1355264995
 30
0.0
 10
1.1856888345
 20
285.1359929533
 30
0.0
 10
1.2004823305
 20
285.1290971418
 30
0.0
 10
1.2347932462
 20
285.0977403985
 30
0.0
 10
1.2902747142
 20
285.0240441531
 30
0.0
 10
1.3722577037
 20
284.8985170869
 30
0.0
 10
1.4779606098
 20
284.7218937986
 30
0.0
 10
1.6072620182
 20
284.4951485791
 30
0.0
 10
1.7601719601
 20
284.2182499355
 30
0.0
 10
1.936421746
 20
283.8921199936
 30
0.0
 10
2.0609936118
 20
283.6580053324
 30
0.0
 10
2.1271790628
 20
283.5329587002
 30
0.0
  0
SPLINE
  5
35D
100
AcDbEntity
  8
0
100
AcDbSpline
 62
7
  6
CONTINUOUS
 70
0
 71
3
 72
10
 73
6
 74
0
 42
0.0000001
 43
0.0000001
 44
0.0000000001
 40
0.0
 40
0.0
 40
0.0
 40
0.0
 40
0.2415845818
 40
0.4873366766
 40
1.0
 40
1.0
 40
1.0
 40
1.0
 10
11.6957975547
 20
265.8368827483
 30
0.0
 10
12.0509928527
 20
266.4280229636
 30
0.0
 10
12.8577411441
 20
267.5690047987
 30
0.0
 10
14.8290219622
 20
269.643601543
 30
0.0
 10
16.6411444474
 20
270.8861681821
 30
0.0
 10
17.935209996
 20
271.569679112
 30
0.0
  0
SPLINE
  5
35E
100
AcDbEntity
  8
0
100
AcDbSpline
 62
7
  6
CONTINUOUS
 70
0
 71
3
 72
9
 73
5
 74
0
 42
0.0000001
 43
0.0000001
 44
0.0000000001
 40
0.0
 40
0.0
 40
0.0
 40
0.0
 40
0.4791291154
 40
1.0
 40
1.0
 40
1.0
 40
1.0
 10
17.935209996
 20
271.569679112
 30
0.0
 10
19.5056991567
 20
272.3085550703
 30
0.0
 10
23.0355281946
 20
273.3352136936
 30
0.0
 10
26.6913801956
 20
273.4525143513
 30
0.0
 10
28.5729800183
 20
273.312171296
 30
0.0
  0
SPLINE
  5
35F
100
AcDbEntity
  8
0
100
AcDbSpline
 62
7
  6
CONTINUOUS
 70
0
 71
3
 72
9
 73
5
 74
0
 42
0.0000001
 43
0.0000001
 44
0.0000000001
 40
0.0
 40
0.0
 40
0.0
 40
0.0
 40
0.5944033239
 40
1.0
 40
1.0
 40
1.0
 40
1.0
 10
28.5066736319
 20
272.9667103093
 30
0.0
 10
28.5054999165
 20
273.0242091693
 30
0.0
 10
28.5053345687
 20
273.1209096795
 30
0.0
 10
28.5071092106
 20
273.2178198779
 30
0.0
 10
28.5110974776
 20
273.2568597475
 30
0.0
  0
SPLINE
  5
360
100
AcDbEntity
  8
0
100
AcDbSpline
 62
7
  6
CONTINUOUS
 70
0
 71
3
 72
9
 73
5
 74
0
 42
0.0000001
 43
0.0000001
 44
0.0000000001
 40
0.0
 40
0.0
 40
0.0
 40
0.0
 40
0.4057152143
 40
1.0
 40
1.0
 40
1.0
 40
1.0
 10
28.5471691042
 20
273.2562821527
 30
0.0
 10
28.5435514042
 20
273.2173346755
 30
0.0
 10
28.5417843166
 20
273.120803729
 30
0.0
 10
28.5418091521
 20
273.0244347835
 30
0.0
 10
28.5427936503
 20
272.9671480551
 30
0.0
  0
SPLINE
  5
361
100
AcDbEntity
  8
0
100
AcDbSpline
 62
7
  6
CONTINUOUS
 70
0
 71
3
 72
14
 73
10
 74
0
 42
0.0000001
 43
0.0000001
 44
0.0000000001
 40
0.0
 40
0.0
 40
0.0
 40
0.0
 40
0.2497968861
 40
0.5001538858
 40
0.6255772764
 40
0.7511849465
 40
0.876976483
 40
0.9399367991
 40
1.0
 40
1.0
 40
1.0
 40
1.0
 10
29.4796316325
 20
273.2496226275
 30
0.0
 10
29.571998418
 20
273.2437391538
 30
0.0
 10
29.7568237584
 20
273.2296001059
 30
0.0
 10
29.9871953074
 20
273.2042243239
 30
0.0
 10
30.1710433662
 20
273.1758054703
 30
0.0
 10
30.307425967
 20
273.1490309613
 30
0.0
 10
30.421812947
 20
273.1165345701
 30
0.0
 10
30.5029175279
 20
273.0821964417
 30
0.0
 10
30.545480578
 20
273.0456848696
 30
0.0
 10
30.5447919178
 20
273.0234410947
 30
0.0
  0
SPLINE
  5
362
100
AcDbEntity
  8
0
100
AcDbSpline
 62
7
  6
CONTINUOUS
 70
0
 71
3
 72
9
 73
5
 74
0
 42
0.0000001
 43
0.0000001
 44
0.0000000001
 40
0.0
 40
0.0
 40
0.0
 40
0.0
 40
0.2538621628
 40
1.0
 40
1.0
 40
1.0
 40
1.0
 10
43.6379704548
 20
270.2654671166
 30
0.0
 10
44.0538407313
 20
270.586806526
 30
0.0
 10
45.7225324311
 20
271.8124388064
 30
0.0
 10
47.5090157368
 20
272.8790963819
 30
0.0
 10
48.8928890485
 20
273.5653403665
 30
0.0
  0
SPLINE
  5
363
100
AcDbEntity
  8
0
100
AcDbSpline
 62
7
  6
CONTINUOUS
 70
0
 71
3
 72
9
 73
5
 74
0
 42
0.0000001
 43
0.0000001
 44
0.0000000001
 40
0.0
 40
0.0
 40
0.0
 40
0.0
 40
0.2593392575
 40
1.0
 40
1.0
 40
1.0
 40
1.0
 10
48.8928890485
 20
273.5653403665
 30
0.0
 10
49.2671723153
 20
273.7509423563
 30
0.0
 10
50.7253302155
 20
274.4355637781
 30
0.0
 10
52.2447010096
 20
274.9939183031
 30
0.0
 10
53.3944820413
 20
275.3126679736
 30
0.0
  0
SPLINE
  5
364
100
AcDbEntity
  8
0
100
AcDbSpline
 62
7
  6
CONTINUOUS
 70
0
 71
3
 72
9
 73
5
 74
0
 42
0.0000001
 43
0.0000001
 44
0.0000000001
 40
0.0
 40
0.0
 40
0.0
 40
0.0
 40
0.2707532413
 40
1.0
 40
1.0
 40
1.0
 40
1.0
 10
53.793865257
 20
275.04070626
 30
0.0
 10
53.7898202917
 20
275.0693536195
 30
0.0
 10
53.7648435427
 20
275.172381262
 30
0.0
 10
53.693592632
 20
275.2725125612
 30
0.0
 10
53.6221325006
 20
275.3035870532
 30
0.0
  0
SPLINE
  5
365
100
AcDbEntity
  8
0
100
AcDbSpline
 62
7
  6
CONTINUOUS
 70
0
 71
3
 72
9
 73
5
 74
0
 42
0.0000001
 43
0.0000001
 44
0.0000000001
 40
0.0
 40
0.0
 40
0.0
 40
0.0
 40
0.219302629
 40
1.0
 40
1.0
 40
1.0
 40
1.0
 10
53.648926034
 20
275.3132985771
 30
0.0
 10
53.6704179157
 20
275.3039704461
 30
0.0
 10
53.7604890506
 20
275.2433926141
 30
0.0
 10
53.8083295482
 20
275.1338749738
 30
0.0
 10
53.8198286673
 20
275.0512666011
 30
0.0
  0
SPLINE
  5
366
100
AcDbEntity
  8
0
100
AcDbSpline
 62
7
  6
CONTINUOUS
 70
0
 71
3
 72
11
 73
7
 74
0
 42
0.0000001
 43
0.0000001
 44
0.0000000001
 40
0.0
 40
0.0
 40
0.0
 40
0.0
 40
0.2458766933
 40
0.5006691098
 40
0.7563926975
 40
1.0
 40
1.0
 40
1.0
 40
1.0
 10
37.3339648884
 20
259.5175893936
 30
0.0
 10
37.967711287
 20
260.9552245217
 30
0.0
 10
39.6001810581
 20
263.7363045488
 30
0.0
 10
42.7322568367
 20
267.4387975933
 30
0.0
 10
46.3275724915
 20
270.6667877761
 30
0.0
 10
48.9599081613
 20
272.4888820373
 30
0.0
 10
50.2998322782
 20
273.2811425535
 30
0.0
  0
SPLINE
  5
367
100
AcDbEntity
  8
0
100
AcDbSpline
 62
7
  6
CONTINUOUS
 70
0
 71
3
 72
9
 73
5
 74
0
 42
0.0000001
 43
0.0000001
 44
0.0000000001
 40
0.0
 40
0.0
 40
0.0
 40
0.0
 40
0.2637019608
 40
1.0
 40
1.0
 40
1.0
 40
1.0
 10
50.2997740261
 20
273.2813136852
 30
0.0
 10
50.5960113633
 20
273.4564648735
 30
0.0
 10
51.7301000087
 20
274.1021407508
 30
0.0
 10
52.9066744322
 20
274.6750664712
 30
0.0
 10
53.79538239
 20
275.0404869107
 30
0.0
  0
SPLINE
  5
368
100
AcDbEntity
  8
0
100
AcDbSpline
 62
7
  6
CONTINUOUS
 70
0
 71
3
 72
12
 73
8
 74
0
 42
0.0000001
 43
0.0000001
 44
0.0000000001
 40
0.0
 40
0.0
 40
0.0
 40
0.0
 40
0.2576855323
 40
0.5120676431
 40
0.7618632832
 40
0.8840847204
 40
1.0
 40
1.0
 40
1.0
 40
1.0
 10
54.3237419441
 20
275.5685569779
 30
0.0
 10
54.3990783101
 20
275.5899451695
 30
0.0
 10
54.5499406866
 20
275.630247024
 30
0.0
 10
54.7733749784
 20
275.6821168541
 30
0.0
 10
54.9688836452
 20
275.7103576693
 30
0.0
 10
55.1034840902
 20
275.7190070046
 30
0.0
 10
55.2026974476
 20
275.6948592621
 30
0.0
 10
55.2061469627
 20
275.6598005605
 30
0.0
  0
SPLINE
  5
369
100
AcDbEntity
  8
0
100
AcDbSpline
 62
7
  6
CONTINUOUS
 70
0
 71
3
 72
9
 73
5
 74
0
 42
0.0000001
 43
0.0000001
 44
0.0000000001
 40
0.0
 40
0.0
 40
0.0
 40
0.0
 40
0.5291005028
 40
1.0
 40
1.0
 40
1.0
 40
1.0
 10
56.2204418775
 20
276.1497851729
 30
0.0
 10
57.4074950297
 20
276.5413659735
 30
0.0
 10
59.6219003952
 20
277.3748820132
 30
0.0
 10
61.7376756158
 20
278.4417872621
 30
0.0
 10
62.6914229338
 20
279.0144718867
 30
0.0
  0
SPLINE
  5
36A
100
AcDbEntity
  8
0
100
AcDbSpline
 62
7
  6
CONTINUOUS
 70
0
 71
3
 72
9
 73
5
 74
0
 42
0.0000001
 43
0.0000001
 44
0.0000000001
 40
0.0
 40
0.0
 40
0.0
 40
0.0
 40
0.2482800786
 40
1.0
 40
1.0
 40
1.0
 40
1.0
 10
49.749010129
 20
261.0966986414
 30
0.0
 10
49.8283367342
 20
261.3391684883
 30
0.0
 10
50.1592754003
 20
262.3120027067
 30
0.0
 10
50.5304822239
 20
263.271023438
 30
0.0
 10
50.8293215281
 20
263.9832907702
 30
0.0
  0
SPLINE
  5
36B
100
AcDbEntity
  8
0
100
AcDbSpline
 62
7
  6
CONTINUOUS
 70
0
 71
3
 72
9
 73
5
 74
0
 42
0.0000001
 43
0.0000001
 44
0.0000000001
 40
0.0
 40
0.0
 40
0.0
 40
0.0
 40
0.5095633521
 40
1.0
 40
1.0
 40
1.0
 40
1.0
 10
50.8293215281
 20
263.9832907702
 30
0.0
 10
51.4718363403
 20
265.5146901038
 30
0.0
 10
52.9096502427
 20
268.4471235322
 30
0.0
 10
54.5962675561
 20
271.2396560057
 30
0.0
 10
55.4716321756
 20
272.5770360521
 30
0.0
  0
SPLINE
  5
36C
100
AcDbEntity
  8
0
100
AcDbSpline
 62
7
  6
CONTINUOUS
 70
0
 71
3
 72
10
 73
6
 74
0
 42
0.0000001
 43
0.0000001
 44
0.0000000001
 40
0.0
 40
0.0
 40
0.0
 40
0.0
 40
0.5480268429
 40
0.788769579
 40
1.0
 40
1.0
 40
1.0
 40
1.0
 10
55.4716321756
 20
272.5770360521
 30
0.0
 10
56.628415459
 20
273.9205059083
 30
0.0
 10
58.4083588114
 20
275.7633233124
 30
0.0
 10
60.8998132157
 20
277.8302450452
 30
0.0
 10
62.1057794472
 20
278.6627524956
 30
0.0
 10
62.6916019449
 20
279.0145375862
 30
0.0
  0
SPLINE
  5
36D
100
AcDbEntity
  8
0
100
AcDbSpline
 62
7
  6
CONTINUOUS
 70
0
 71
3
 72
9
 73
5
 74
0
 42
0.0000001
 43
0.0000001
 44
0.0000000001
 40
0.0
 40
0.0
 40
0.0
 40
0.0
 40
0.5025764743
 40
1.0
 40
1.0
 40
1.0
 40
1.0
 10
63.019711435
 20
278.7379189299
 30
0.0
 10
63.0097675239
 20
278.7939369138
 30
0.0
 10
62.9554562793
 20
278.9021627905
 30
0.0
 10
62.8482782669
 20
278.9592043042
 30
0.0
 10
62.7929376059
 20
278.9696096496
 30
0.0
  0
SPLINE
  5
36E
100
AcDbEntity
  8
0
100
AcDbSpline
 62
7
  6
CONTINUOUS
 70
0
 71
3
 72
8
 73
4
 74
0
 42
0.0000001
 43
0.0000001
 44
0.0000000001
 40
0.0
 40
0.0
 40
0.0
 40
0.0
 40
1.0
 40
1.0
 40
1.0
 40
1.0
 10
67.7755489903
 20
288.829095526
 30
0.0
 10
67.7556208781
 20
288.8492944897
 30
0.0
 10
67.7299312169
 20
288.8647503157
 30
0.0
 10
67.7029564
 20
288.8735529884
 30
0.0
  0
SPLINE
  5
36F
100
AcDbEntity
  8
0
100
AcDbSpline
 62
7
  6
CONTINUOUS
 70
0
 71
3
 72
8
 73
4
 74
0
 42
0.0000001
 43
0.0000001
 44
0.0000000001
 40
0.0
 40
0.0
 40
0.0
 40
0.0
 40
1.0
 40
1.0
 40
1.0
 40
1.0
 10
67.7029564
 20
288.8735529884
 30
0.0
 10
67.669231855
 20
288.884558295
 30
0.0
 10
67.6319558892
 20
288.8862239772
 30
0.0
 10
67.5968178224
 20
288.8813477114
 30
0.0
  0
SPLINE
  5
370
100
AcDbEntity
  8
0
100
AcDbSpline
 62
7
  6
CONTINUOUS
 70
0
 71
3
 72
9
 73
5
 74
0
 42
0.0000001
 43
0.0000001
 44
0.0000000001
 40
0.0
 40
0.0
 40
0.0
 40
0.0
 40
0.4975649622
 40
1.0
 40
1.0
 40
1.0
 40
1.0
 10
62.8081784036
 20
278.9825193819
 30
0.0
 10
62.8633651952
 20
278.9722289902
 30
0.0
 10
62.9703103392
 20
278.915475246
 30
0.0
 10
63.024266644
 20
278.8074716108
 30
0.0
 10
63.0340794537
 20
278.7516399269
 30
0.0
  0
SPLINE
  5
371
100
AcDbEntity
  8
0
100
AcDbSpline
 62
7
  6
CONTINUOUS
 70
0
 71
3
 72
9
 73
5
 74
0
 42
0.0000001
 43
0.0000001
 44
0.0000000001
 40
0.0
 40
0.0
 40
0.0
 40
0.0
 40
0.4878773679
 40
1.0
 40
1.0
 40
1.0
 40
1.0
 10
1.6278537593
 20
288.4857485058
 30
0.0
 10
1.6377586654
 20
288.5391900279
 30
0.0
 10
1.7001806886
 20
288.6460257013
 30
0.0
 10
1.8180949461
 20
288.6774613084
 30
0.0
 10
1.8751444073
 20
288.6768540803
 30
0.0
  0
SPLINE
  5
372
100
AcDbEntity
  8
0
100
AcDbSpline
 62
7
  6
CONTINUOUS
 70
0
 71
3
 72
9
 73
5
 74
0
 42
0.0000001
 43
0.0000001
 44
0.0000000001
 40
0.0
 40
0.0
 40
0.0
 40
0.0
 40
0.5124137402
 40
1.0
 40
1.0
 40
1.0
 40
1.0
 10
1.8735842383
 20
288.6627057279
 30
0.0
 10
1.8167171902
 20
288.6632124937
 30
0.0
 10
1.6993043729
 20
288.6318232006
 30
0.0
 10
1.6371241927
 20
288.5254006525
 30
0.0
 10
1.6272766758
 20
288.4721903367
 30
0.0
  0
SPLINE
  5
373
100
AcDbEntity
  8
0
100
AcDbSpline
 62
7
  6
CONTINUOUS
 70
0
 71
3
 72
9
 73
5
 74
0
 42
0.0000001
 43
0.0000001
 44
0.0000000001
 40
0.0
 40
0.0
 40
0.0
 40
0.0
 40
0.2571095661
 40
1.0
 40
1.0
 40
1.0
 40
1.0
 10
63.0360893553
 20
278.7516312692
 30
0.0
 10
63.1016595351
 20
278.8146895903
 30
0.0
 10
63.353638543
 20
279.0630836334
 30
0.0
 10
63.5930769223
 20
279.3243191771
 30
0.0
 10
63.7619116683
 20
279.5257790515
 30
0.0
  0
SPLINE
  5
374
100
AcDbEntity
  8
0
100
AcDbSpline
 62
7
  6
CONTINUOUS
 70
0
 71
3
 72
10
 73
6
 74
0
 42
0.0000001
 43
0.0000001
 44
0.0000000001
 40
0.0
 40
0.0
 40
0.0
 40
0.0
 40
0.2447200695
 40
0.4890840619
 40
1.0
 40
1.0
 40
1.0
 40
1.0
 10
1.5155114471
 20
287.1674731145
 30
0.0
 10
1.459587099
 20
286.8669366028
 30
0.0
 10
1.3993388461
 20
286.255059444
 30
0.0
 10
1.4995716094
 20
285.0047086244
 30
0.0
 10
1.8286073639
 20
284.0971187099
 30
0.0
 10
2.1271507592
 20
283.5330320618
 30
0.0
  0
SPLINE
  5
375
100
AcDbEntity
  8
0
100
AcDbSpline
 62
7
  6
CONTINUOUS
 70
0
 71
3
 72
9
 73
5
 74
0
 42
0.0000001
 43
0.0000001
 44
0.0000000001
 40
0.0
 40
0.0
 40
0.0
 40
0.0
 40
0.4807892581
 40
1.0
 40
1.0
 40
1.0
 40
1.0
 10
64.1563434555
 20
276.4945249397
 30
0.0
 10
63.7795805487
 20
275.0246841471
 30
0.0
 10
62.9374068185
 20
271.983001157
 30
0.0
 10
62.1128032331
 20
268.9363599241
 30
0.0
 10
61.7160130077
 20
267.3465092086
 30
0.0
  0
SPLINE
  5
376
100
AcDbEntity
  8
0
100
AcDbSpline
 62
7
  6
CONTINUOUS
 70
0
 71
3
 72
14
 73
10
 74
0
 42
0.0000001
 43
0.0000001
 44
0.0000000001
 40
0.0
 40
0.0
 40
0.0
 40
0.0
 40
0.1120860745
 40
0.2248364655
 40
0.3408471822
 40
0.4617922556
 40
0.588651913
 40
0.72154153
 40
1.0
 40
1.0
 40
1.0
 40
1.0
 10
10.9944202114
 20
264.5170475374
 30
0.0
 10
11.3293600277
 20
265.2121556108
 30
0.0
 10
12.1263219041
 20
266.5502808952
 30
0.0
 10
13.6731184938
 20
268.3297013339
 30
0.0
 10
15.544609818
 20
269.8612342552
 30
0.0
 10
17.7156908533
 20
271.1284033202
 30
0.0
 10
20.1519990496
 20
272.1164366012
 30
0.0
 10
23.7426309891
 20
273.0595891657
 30
0.0
 10
26.5944194888
 20
273.288042774
 30
0.0
 10
28.5110941479
 20
273.2589083718
 30
0.0
  0
SPLINE
  5
377
100
AcDbEntity
  8
0
100
AcDbSpline
 62
7
  6
CONTINUOUS
 70
0
 71
3
 72
9
 73
5
 74
0
 42
0.0000001
 43
0.0000001
 44
0.0000000001
 40
0.0
 40
0.0
 40
0.0
 40
0.0
 40
0.7505500359
 40
1.0
 40
1.0
 40
1.0
 40
1.0
 10
61.7160130077
 20
267.3465092086
 30
0.0
 10
61.5276950917
 20
266.5919609503
 30
0.0
 10
61.286285746
 20
265.5841862874
 30
0.0
 10
61.0623861617
 20
264.572489325
 30
0.0
 10
61.0077943455
 20
264.3198491152
 30
0.0
  0
SPLINE
  5
378
100
AcDbEntity
  8
0
100
AcDbSpline
 62
7
  6
CONTINUOUS
 70
0
 71
3
 72
11
 73
7
 74
0
 42
0.0000001
 43
0.0000001
 44
0.0000000001
 40
0.0
 40
0.0
 40
0.0
 40
0.0
 40
0.2631890833
 40
0.5275053013
 40
0.778942487
 40
1.0
 40
1.0
 40
1.0
 40
1.0
 10
51.0734865248
 20
260.9915293209
 30
0.0
 10
51.637145395
 20
262.5133195812
 30
0.0
 10
53.0160980312
 20
265.4726253958
 30
0.0
 10
55.5132431151
 20
269.5818261298
 30
0.0
 10
58.1706334086
 20
273.2712470633
 30
0.0
 10
60.0239672394
 20
275.5223551507
 30
0.0
 10
60.9293271432
 20
276.5412775576
 30
0.0
  0
SPLINE
  5
379
100
AcDbEntity
  8
0
100
AcDbSpline
 62
7
  6
CONTINUOUS
 70
0
 71
3
 72
9
 73
5
 74
0
 42
0.0000001
 43
0.0000001
 44
0.0000000001
 40
0.0
 40
0.0
 40
0.0
 40
0.0
 40
0.2776920342
 40
1.0
 40
1.0
 40
1.0
 40
1.0
 10
60.9292747414
 20
276.5414400305
 30
0.0
 10
61.1158208496
 20
276.7513788712
 30
0.0
 10
61.7938368604
 20
277.5017500742
 30
0.0
 10
62.4955689274
 20
278.2312108585
 30
0.0
 10
63.021717614
 20
278.7379753321
 30
0.0
  0
SPLINE
  5
37A
100
AcDbEntity
  8
0
100
AcDbSpline
 62
7
  6
CONTINUOUS
 70
0
 71
3
 72
9
 73
5
 74
0
 42
0.0000001
 43
0.0000001
 44
0.0000000001
 40
0.0
 40
0.0
 40
0.0
 40
0.0
 40
0.500274196
 40
1.0
 40
1.0
 40
1.0
 40
1.0
 10
1.7483613992
 20
283.3045171786
 30
0.0
 10
1.757283816
 20
283.3607761892
 30
0.0
 10
1.811592164
 20
283.4710300742
 30
0.0
 10
1.9222529532
 20
283.5245373678
 30
0.0
 10
1.9785210924
 20
283.5329915192
 30
0.0
  0
SPLINE
  5
37B
100
AcDbEntity
  8
0
100
AcDbSpline
 62
7
  6
CONTINUOUS
 70
0
 71
3
 72
9
 73
5
 74
0
 42
0.0000001
 43
0.0000001
 44
0.0000000001
 40
0.0
 40
0.0
 40
0.0
 40
0.0
 40
0.4998025949
 40
1.0
 40
1.0
 40
1.0
 40
1.0
 10
1.9908798674
 20
283.5196832088
 30
0.0
 10
1.9348400885
 20
283.5111532085
 30
0.0
 10
1.8247232893
 20
283.4577333877
 30
0.0
 10
1.7705977389
 20
283.3479699099
 30
0.0
 10
1.7616707586
 20
283.2919466541
 30
0.0
  0
SPLINE
  5
37C
100
AcDbEntity
  8
0
100
AcDbSpline
 62
7
  6
CONTINUOUS
 70
0
 71
3
 72
9
 73
5
 74
0
 42
0.0000001
 43
0.0000001
 44
0.0000000001
 40
0.0
 40
0.0
 40
0.0
 40
0.0
 40
0.2424241319
 40
1.0
 40
1.0
 40
1.0
 40
1.0
 10
1.7596295946
 20
283.2919725511
 30
0.0
 10
1.8218902117
 20
283.2336150791
 30
0.0
 10
2.0819795468
 20
282.9963826174
 30
0.0
 10
2.3544468941
 20
282.772838274
 30
0.0
 10
2.5660655427
 20
282.6105708741
 30
0.0
  0
SPLINE
  5
37D
100
AcDbEntity
  8
0
100
AcDbSpline
 62
7
  6
CONTINUOUS
 70
0
 71
3
 72
9
 73
5
 74
0
 42
0.0000001
 43
0.0000001
 44
0.0000000001
 40
0.0
 40
0.0
 40
0.0
 40
0.0
 40
0.4254828984
 40
1.0
 40
1.0
 40
1.0
 40
1.0
 10
0.3388832647
 20
284.4327356048
 30
0.0
 10
0.5603686059
 20
284.3040358726
 30
0.0
 10
1.0448141886
 20
283.9418517652
 30
0.0
 10
1.493751201
 20
283.5409267065
 30
0.0
 10
1.7463213493
 20
283.3046057269
 30
0.0
  0
SPLINE
  5
37E
100
AcDbEntity
  8
0
100
AcDbSpline
 62
7
  6
CONTINUOUS
 70
0
 71
3
 72
12
 73
8
 74
0
 42
0.0000001
 43
0.0000001
 44
0.0000000001
 40
0.0
 40
0.0
 40
0.0
 40
0.0
 40
0.2070586716
 40
0.4284888643
 40
0.673330532
 40
0.8144709452
 40
1.0
 40
1.0
 40
1.0
 40
1.0
 10
2.3272700186
 20
283.1794163912
 30
0.0
 10
2.3494656651
 20
283.142566881
 30
0.0
 10
2.3945198829
 20
283.06573299
 30
0.0
 10
2.4610446298
 20
282.9428280093
 30
0.0
 10
2.5157454375
 20
282.8283510629
 30
0.0
 10
2.5555377421
 20
282.7176341273
 30
0.0
 10
2.5727626148
 20
282.6483692224
 30
0.0
 10
2.5660545
 20
282.6104125283
 30
0.0
  0
SPLINE
  5
37F
100
AcDbEntity
  8
0
100
AcDbSpline
 62
7
  6
CONTINUOUS
 70
0
 71
3
 72
10
 73
6
 74
0
 42
0.0000001
 43
0.0000001
 44
0.0000000001
 40
0.0
 40
0.0
 40
0.0
 40
0.0
 40
0.4515839568
 40
0.7131545539
 40
1.0
 40
1.0
 40
1.0
 40
1.0
 10
2.3272700186
 20
283.1794163912
 30
0.0
 10
2.8406645693
 20
282.3278373869
 30
0.0
 10
3.9132006899
 20
281.1392312094
 30
0.0
 10
5.6464853141
 20
279.7818451403
 30
0.0
 10
6.6693474528
 20
279.1345778732
 30
0.0
 10
7.2162885504
 20
278.8186700078
 30
0.0
  0
SPLINE
  5
380
100
AcDbEntity
  8
0
100
AcDbSpline
 62
7
  6
CONTINUOUS
 70
0
 71
3
 72
10
 73
6
 74
0
 42
0.0000001
 43
0.0000001
 44
0.0000000001
 40
0.0
 40
0.0
 40
0.0
 40
0.0
 40
0.3139899389
 40
0.5826873739
 40
1.0
 40
1.0
 40
1.0
 40
1.0
 10
7.2163282014
 20
278.8186823806
 30
0.0
 10
6.7958340759
 20
279.0615491644
 30
0.0
 10
5.9915428908
 20
279.477946472
 30
0.0
 10
4.5455395376
 20
280.0087830725
 30
0.0
 10
3.429709521
 20
280.1230011033
 30
0.0
 10
2.8063552677
 20
279.9558236946
 30
0.0
  0
SPLINE
  5
381
100
AcDbEntity
  8
0
100
AcDbSpline
 62
7
  6
CONTINUOUS
 70
0
 71
3
 72
9
 73
5
 74
0
 42
0.0000001
 43
0.0000001
 44
0.0000000001
 40
0.0
 40
0.0
 40
0.0
 40
0.0
 40
0.5326604154
 40
1.0
 40
1.0
 40
1.0
 40
1.0
 10
-1.6203366148
 20
272.8802979942
 30
0.0
 10
-1.5971457573
 20
273.4298332819
 30
0.0
 10
-1.5200136
 20
274.4606099956
 30
0.0
 10
-1.3365423715
 20
275.4803002237
 30
0.0
 10
-1.2127526484
 20
275.9467270349
 30
0.0
  0
SPLINE
  5
382
100
AcDbEntity
  8
0
100
AcDbSpline
 62
7
  6
CONTINUOUS
 70
0
 71
3
 72
15
 73
11
 74
0
 42
0.0000001
 43
0.0000001
 44
0.0000000001
 40
0.0
 40
0.0
 40
0.0
 40
0.0
 40
0.1316650162
 40
0.253044987
 40
0.3676737978
 40
0.4800030205
 40
0.5950037884
 40
0.7176120014
 40
0.8516961578
 40
1.0
 40
1.0
 40
1.0
 40
1.0
 10
-1.0993748348
 20
276.3351739165
 30
0.0
 10
-1.0128852744
 20
276.6053145111
 30
0.0
 10
-0.8168636512
 20
277.1160061139
 30
0.0
 10
-0.422697657
 20
277.807299931
 30
0.0
 10
0.0670126486
 20
278.3825939104
 30
0.0
 10
0.6559569357
 20
278.8346033994
 30
0.0
 10
1.3435652115
 20
279.1570907675
 30
0.0
 10
2.1264406031
 20
279.3462808552
 30
0.0
 10
3.0002868402
 20
279.4049518708
 30
0.0
 10
3.6088997921
 20
279.3607328579
 30
0.0
 10
3.9258416515
 20
279.3204331637
 30
0.0
  0
SPLINE
  5
383
100
AcDbEntity
  8
0
100
AcDbSpline
 62
7
  6
CONTINUOUS
 70
0
 71
3
 72
9
 73
5
 74
0
 42
0.0000001
 43
0.0000001
 44
0.0000000001
 40
0.0
 40
0.0
 40
0.0
 40
0.0
 40
0.4694863418
 40
1.0
 40
1.0
 40
1.0
 40
1.0
 10
3.9258379294
 20
279.3206287772
 30
0.0
 10
4.4037375349
 20
279.2598512003
 30
0.0
 10
5.4114506849
 20
279.0483567977
 30
0.0
 10
6.3875465818
 20
278.7268598607
 30
0.0
 10
6.8972244419
 20
278.5356340346
 30
0.0
  0
SPLINE
  5
384
100
AcDbEntity
  8
0
100
AcDbSpline
 62
7
  6
CONTINUOUS
 70
0
 71
3
 72
9
 73
5
 74
0
 42
0.0000001
 43
0.0000001
 44
0.0000000001
 40
0.0
 40
0.0
 40
0.0
 40
0.0
 40
0.5298734586
 40
1.0
 40
1.0
 40
1.0
 40
1.0
 10
6.8988040788
 20
278.5358280617
 30
0.0
 10
6.9051380581
 20
278.5932671456
 30
0.0
 10
6.9410653224
 20
278.7008615377
 30
0.0
 10
7.028707793
 20
278.7784575356
 30
0.0
 10
7.0767935046
 20
278.7962484122
 30
0.0
  0
SPLINE
  5
385
100
AcDbEntity
  8
0
100
AcDbSpline
 62
7
  6
CONTINUOUS
 70
0
 71
3
 72
9
 73
5
 74
0
 42
0.0000001
 43
0.0000001
 44
0.0000000001
 40
0.0
 40
0.0
 40
0.0
 40
0.0
 40
0.2682136309
 40
1.0
 40
1.0
 40
1.0
 40
1.0
 10
6.9224262877
 20
278.5259288674
 30
0.0
 10
6.9254899736
 20
278.5548227243
 30
0.0
 10
6.9502761657
 20
278.6595685986
 30
0.0
 10
7.0267852355
 20
278.7607086801
 30
0.0
 10
7.1012822663
 20
278.7878146163
 30
0.0
  0
SPLINE
  5
386
100
AcDbEntity
  8
0
100
AcDbSpline
 62
7
  6
CONTINUOUS
 70
0
 71
3
 72
14
 73
10
 74
0
 42
0.0000001
 43
0.0000001
 44
0.0000000001
 40
0.0
 40
0.0
 40
0.0
 40
0.0
 40
0.2312184693
 40
0.4688637125
 40
0.5910311243
 40
0.7166399571
 40
0.8484993847
 40
0.919924092
 40
1.0
 40
1.0
 40
1.0
 40
1.0
 10
7.7434172452
 20
278.5230621974
 30
0.0
 10
7.7989077851
 20
278.4928330588
 30
0.0
 10
7.9104648673
 20
278.4297260912
 30
0.0
 10
8.0476407271
 20
278.3443388231
 30
0.0
 10
8.1566004098
 20
278.2684771425
 30
0.0
 10
8.2385128262
 20
278.2050662719
 30
0.0
 10
8.3053571233
 20
278.143570506
 30
0.0
 10
8.3531404709
 20
278.0841529511
 30
0.0
 10
8.3719917691
 20
278.0424832532
 30
0.0
 10
8.3688619126
 20
278.0208241068
 30
0.0
  0
SPLINE
  5
387
100
AcDbEntity
  8
0
100
AcDbSpline
 62
7
  6
CONTINUOUS
 70
0
 71
3
 72
9
 73
5
 74
0
 42
0.0000001
 43
0.0000001
 44
0.0000000001
 40
0.0
 40
0.0
 40
0.0
 40
0.0
 40
0.2374300951
 40
1.0
 40
1.0
 40
1.0
 40
1.0
 10
7.7434172452
 20
278.5230621974
 30
0.0
 10
8.0139768668
 20
278.3756738071
 30
0.0
 10
9.1649428242
 20
277.7759446782
 30
0.0
 10
10.3565300495
 20
277.2557561667
 30
0.0
 10
11.2781928671
 20
276.8955623314
 30
0.0
  0
SPLINE
  5
388
100
AcDbEntity
  8
0
100
AcDbSpline
 62
7
  6
CONTINUOUS
 70
0
 71
3
 72
9
 73
5
 74
0
 42
0.0000001
 43
0.0000001
 44
0.0000000001
 40
0.0
 40
0.0
 40
0.0
 40
0.0
 40
0.2380759305
 40
1.0
 40
1.0
 40
1.0
 40
1.0
 10
11.2781928671
 20
276.8955623314
 30
0.0
 10
11.683645873
 20
276.7371077747
 30
0.0
 10
13.398272216
 20
276.1012863014
 30
0.0
 10
15.1535201248
 20
275.5775412008
 30
0.0
 10
16.5025575681
 20
275.2297036582
 30
0.0
  0
SPLINE
  5
389
100
AcDbEntity
  8
0
100
AcDbSpline
 62
7
  6
CONTINUOUS
 70
0
 71
3
 72
9
 73
5
 74
0
 42
0.0000001
 43
0.0000001
 44
0.0000000001
 40
0.0
 40
0.0
 40
0.0
 40
0.0
 40
0.5161196871
 40
1.0
 40
1.0
 40
1.0
 40
1.0
 10
42.4878260116
 20
273.4368488184
 30
0.0
 10
44.3851150681
 20
273.613940536
 30
0.0
 10
48.0502289058
 20
274.0894663286
 30
0.0
 10
51.6673424931
 20
274.8564576776
 30
0.0
 10
53.3944987572
 20
275.3131170466
 30
0.0
  0
SPLINE
  5
38A
100
AcDbEntity
  8
0
100
AcDbSpline
 62
7
  6
CONTINUOUS
 70
0
 71
3
 72
11
 73
7
 74
0
 42
0.0000001
 43
0.0000001
 44
0.0000000001
 40
0.0
 40
0.0
 40
0.0
 40
0.0
 40
0.218701644
 40
0.4561180952
 40
0.716356562
 40
1.0
 40
1.0
 40
1.0
 40
1.0
 10
7.9791164486
 20
274.9869088649
 30
0.0
 10
8.5562358834
 20
275.2458575232
 30
0.0
 10
9.8255044254
 20
275.6466267419
 30
0.0
 10
11.8958819182
 20
275.870855727
 30
0.0
 10
14.1604248828
 20
275.7413285576
 30
0.0
 10
15.7082943923
 20
275.4345102343
 30
0.0
 10
16.5027001074
 20
275.2296996906
 30
0.0
  0
SPLINE
  5
38B
100
AcDbEntity
  8
0
100
AcDbSpline
 62
7
  6
CONTINUOUS
 70
0
 71
3
 72
9
 73
5
 74
0
 42
0.0000001
 43
0.0000001
 44
0.0000000001
 40
0.0
 40
0.0
 40
0.0
 40
0.0
 40
0.5698887293
 40
1.0
 40
1.0
 40
1.0
 40
1.0
 10
16.2950739108
 20
274.9056742105
 30
0.0
 10
16.2978320681
 20
274.9632793132
 30
0.0
 10
16.3147591608
 20
275.0629190348
 30
0.0
 10
16.3608445222
 20
275.1593117137
 30
0.0
 10
16.39379505
 20
275.1877507212
 30
0.0
  0
SPLINE
  5
38C
100
AcDbEntity
  8
0
100
AcDbSpline
 62
7
  6
CONTINUOUS
 70
0
 71
3
 72
9
 73
5
 74
0
 42
0.0000001
 43
0.0000001
 44
0.0000000001
 40
0.0
 40
0.0
 40
0.0
 40
0.0
 40
0.4300121745
 40
1.0
 40
1.0
 40
1.0
 40
1.0
 10
16.4265040491
 20
275.1817917728
 30
0.0
 10
16.3938380499
 20
275.1532991579
 30
0.0
 10
16.348175689
 20
275.0572784155
 30
0.0
 10
16.3311192292
 20
274.9580756626
 30
0.0
 10
16.328203261
 20
274.9006935882
 30
0.0
  0
SPLINE
  5
38D
100
AcDbEntity
  8
0
100
AcDbSpline
 62
7
  6
CONTINUOUS
 70
0
 71
3
 72
11
 73
7
 74
0
 42
0.0000001
 43
0.0000001
 44
0.0000000001
 40
0.0
 40
0.0
 40
0.0
 40
0.0
 40
0.2632608255
 40
0.5113378302
 40
0.7533360829
 40
1.0
 40
1.0
 40
1.0
 40
1.0
 10
2.1667613997
 20
267.6091673453
 30
0.0
 10
2.3323611221
 20
268.2620394872
 30
0.0
 10
2.7512916362
 20
269.5093431764
 30
0.0
 10
3.7038899502
 20
271.1998052101
 30
0.0
 10
4.9678204919
 20
272.6183339871
 30
0.0
 10
5.9958573987
 20
273.3500474029
 30
0.0
 10
6.5445399624
 20
273.6618397292
 30
0.0
  0
SPLINE
  5
38E
100
AcDbEntity
  8
0
100
AcDbSpline
 62
7
  6
CONTINUOUS
 70
0
 71
3
 72
9
 73
5
 74
0
 42
0.0000001
 43
0.0000001
 44
0.0000000001
 40
0.0
 40
0.0
 40
0.0
 40
0.0
 40
0.4720107489
 40
1.0
 40
1.0
 40
1.0
 40
1.0
 10
6.5445399624
 20
273.6618397292
 30
0.0
 10
7.3512072322
 20
274.1202334914
 30
0.0
 10
9.2105693366
 20
274.8354196313
 30
0.0
 10
11.174519991
 20
275.092667878
 30
0.0
 10
12.2113598036
 20
275.1383963858
 30
0.0
  0
SPLINE
  5
38F
100
AcDbEntity
  8
0
100
AcDbSpline
 62
7
  6
CONTINUOUS
 70
0
 71
3
 72
9
 73
5
 74
0
 42
0.0000001
 43
0.0000001
 44
0.0000000001
 40
0.0
 40
0.0
 40
0.0
 40
0.0
 40
0.2396899145
 40
1.0
 40
1.0
 40
1.0
 40
1.0
 10
12.2113340941
 20
275.1385895734
 30
0.0
 10
12.5380394576
 20
275.1529929391
 30
0.0
 10
13.902696199
 20
275.1748838965
 30
0.0
 10
15.2678715449
 20
275.0560297502
 30
0.0
 10
16.2941950329
 20
274.905287072
 30
0.0
  0
SPLINE
  5
390
100
AcDbEntity
  8
0
100
AcDbSpline
 62
7
  6
CONTINUOUS
 70
0
 71
3
 72
14
 73
10
 74
0
 42
0.0000001
 43
0.0000001
 44
0.0000000001
 40
0.0
 40
0.0
 40
0.0
 40
0.0
 40
0.2438822864
 40
0.4903270815
 40
0.6148098609
 40
0.7405040913
 40
0.8682421518
 40
0.9338239891
 40
1.0
 40
1.0
 40
1.0
 40
1.0
 10
17.2777726825
 20
275.0358094173
 30
0.0
 10
17.3578383665
 20
275.0163769605
 30
0.0
 10
17.5182955069
 20
274.9750697613
 30
0.0
 10
17.7174353585
 20
274.9160087546
 30
0.0
 10
17.876088566
 20
274.8608576633
 30
0.0
 10
17.9943035542
 20
274.8137933088
 30
0.0
 10
18.0924205032
 20
274.7649964927
 30
0.0
 10
18.1624524494
 20
274.7172140752
 30
0.0
 10
18.1957752659
 20
274.6765434962
 30
0.0
 10
18.1936819045
 20
274.6542856465
 30
0.0
  0
SPLINE
  5
391
100
AcDbEntity
  8
0
100
AcDbSpline
 62
7
  6
CONTINUOUS
 70
0
 71
3
 72
9
 73
5
 74
0
 42
0.0000001
 43
0.0000001
 44
0.0000000001
 40
0.0
 40
0.0
 40
0.0
 40
0.0
 40
0.4853608997
 40
1.0
 40
1.0
 40
1.0
 40
1.0
 10
17.2777726825
 20
275.0358094173
 30
0.0
 10
19.0756787163
 20
274.5995935502
 30
0.0
 10
22.8241986961
 20
273.878718635
 30
0.0
 10
26.6166213338
 20
273.4581366441
 30
0.0
 10
28.5728530277
 20
273.3121892094
 30
0.0
  0
SPLINE
  5
392
100
AcDbEntity
  8
0
100
AcDbSpline
 62
7
  6
CONTINUOUS
 70
0
 71
3
 72
15
 73
11
 74
0
 42
0.0000001
 43
0.0000001
 44
0.0000000001
 40
0.0
 40
0.0
 40
0.0
 40
0.0
 40
0.1249774714
 40
0.2531425038
 40
0.3836856985
 40
0.5151525274
 40
0.6453798272
 40
0.7716561947
 40
0.8908881951
 40
1.0
 40
1.0
 40
1.0
 40
1.0
 10
36.445449952
 20
259.6796984008
 30
0.0
 10
36.8472876281
 20
260.5847781825
 30
0.0
 10
37.7800705668
 20
262.3679369919
 30
0.0
 10
39.5215352182
 20
264.8678636248
 30
0.0
 10
41.5467929533
 20
267.2102895063
 30
0.0
 10
43.7954805708
 20
269.3619927051
 30
0.0
 10
46.1991280961
 20
271.2844808831
 30
0.0
 10
48.6763729272
 20
272.9425820685
 30
0.0
 10
51.1437295037
 20
274.2946196494
 30
0.0
 10
52.8095667904
 20
275.010345625
 30
0.0
 10
53.6221360798
 20
275.3056357181
 30
0.0
  0
SPLINE
  5
393
100
AcDbEntity
  8
0
100
AcDbSpline
 62
7
  6
CONTINUOUS
 70
0
 71
3
 72
16
 73
12
 74
0
 42
0.0000001
 43
0.0000001
 44
0.0000000001
 40
0.0
 40
0.0
 40
0.0
 40
0.0
 40
0.2627313614
 40
0.5167887973
 40
0.6396341958
 40
0.7586641483
 40
0.8163725431
 40
0.8726336575
 40
0.928088863
 40
0.9584617974
 40
1.0
 40
1.0
 40
1.0
 40
1.0
 10
63.1854693642
 20
279.3202143454
 30
0.0
 10
63.2338331013
 20
279.3510531939
 30
0.0
 10
63.3299306371
 20
279.4101991443
 30
0.0
 10
63.4522080647
 20
279.4778994552
 30
0.0
 10
63.5502617498
 20
279.5239107509
 30
0.0
 10
63.6113573769
 20
279.5475539951
 30
0.0
 10
63.6605476079
 20
279.5609325655
 30
0.0
 10
63.697100893
 20
279.5664973866
 30
0.0
 10
63.7289101593
 20
279.5647026598
 30
0.0
 10
63.7539809923
 20
279.5504371559
 30
0.0
 10
63.7605949971
 20
279.5346097595
 30
0.0
 10
63.7619247428
 20
279.525639199
 30
0.0
  0
SPLINE
  5
394
100
AcDbEntity
  8
0
100
AcDbSpline
 62
7
  6
CONTINUOUS
 70
0
 71
3
 72
9
 73
5
 74
0
 42
0.0000001
 43
0.0000001
 44
0.0000000001
 40
0.0
 40
0.0
 40
0.0
 40
0.0
 40
0.5025363212
 40
1.0
 40
1.0
 40
1.0
 40
1.0
 10
70.785255927
 20
274.4962057811
 30
0.0
 10
70.7750757396
 20
275.3359638993
 30
0.0
 10
70.7051649659
 20
277.0065230383
 30
0.0
 10
70.5537427722
 20
278.6717031708
 30
0.0
 10
70.4531964701
 20
279.4969431241
 30
0.0
  0
SPLINE
  5
395
100
AcDbEntity
  8
0
100
AcDbSpline
 62
7
  6
CONTINUOUS
 70
0
 71
3
 72
15
 73
11
 74
0
 42
0.0000001
 43
0.0000001
 44
0.0000000001
 40
0.0
 40
0.0
 40
0.0
 40
0.0
 40
0.1528266562
 40
0.3031692197
 40
0.4479185414
 40
0.5841211839
 40
0.7089453967
 40
0.8201805684
 40
0.9167726113
 40
1.0
 40
1.0
 40
1.0
 40
1.0
 10
68.6795078279
 20
269.0261434206
 30
0.0
 10
68.8176269988
 20
270.046078563
 30
0.0
 10
69.0701614742
 20
272.0722176412
 30
0.0
 10
69.4188179963
 20
275.0687553143
 30
0.0
 10
69.6605561401
 20
277.9641783833
 30
0.0
 10
69.7487235552
 20
280.6971701527
 30
0.0
 10
69.6449868342
 20
283.2054095469
 30
0.0
 10
69.301679
 20
285.4261787527
 30
0.0
 10
68.6984665793
 20
287.3018849882
 30
0.0
 10
68.0604602332
 20
288.3535687238
 30
0.0
 10
67.6926194592
 20
288.7764967645
 30
0.0
  0
SPLINE
  5
396
100
AcDbEntity
  8
0
100
AcDbSpline
 62
7
  6
CONTINUOUS
 70
0
 71
3
 72
15
 73
11
 74
0
 42
0.0000001
 43
0.0000001
 44
0.0000000001
 40
0.0
 40
0.0
 40
0.0
 40
0.0
 40
0.1526292783
 40
0.3044546227
 40
0.5923076253
 40
0.7209159054
 40
0.8340227397
 40
0.9279392672
 40
0.9668113736
 40
1.0
 40
1.0
 40
1.0
 40
1.0
 10
61.4140347859
 20
264.289543578
 30
0.0
 10
61.6862254841
 20
265.2943136891
 30
0.0
 10
62.261240465
 20
267.2903088873
 30
0.0
 10
63.5473862632
 20
271.1207141249
 30
0.0
 10
64.8942367535
 20
274.755268291
 30
0.0
 10
66.1359879531
 20
278.147096949
 30
0.0
 10
66.8740241331
 20
280.3140734638
 30
0.0
 10
67.3499901707
 20
281.9236803644
 30
0.0
 10
67.5981846811
 20
283.0285584446
 30
0.0
 10
67.6758286339
 20
283.514493768
 30
0.0
 10
67.7002028991
 20
283.7395357594
 30
0.0
  0
SPLINE
  5
397
100
AcDbEntity
  8
0
100
AcDbSpline
 62
7
  6
CONTINUOUS
 70
0
 71
3
 72
15
 73
11
 74
0
 42
0.0000001
 43
0.0000001
 44
0.0000000001
 40
0.0
 40
0.0
 40
0.0
 40
0.0
 40
0.1390527273
 40
0.2797886642
 40
0.4199421658
 40
0.5567517232
 40
0.6868935512
 40
0.8066324872
 40
0.9121575563
 40
1.0
 40
1.0
 40
1.0
 40
1.0
 10
50.0949385757
 20
261.007507477
 30
0.0
 10
50.4598964164
 20
261.9690672917
 30
0.0
 10
51.274683476
 20
263.8747858224
 30
0.0
 10
52.74458742
 20
266.6145392937
 30
0.0
 10
54.3842169129
 20
269.2352036511
 30
0.0
 10
56.1276403554
 20
271.6921948541
 30
0.0
 10
57.9046540611
 20
273.9347603925
 30
0.0
 10
59.6342642831
 20
275.9157569759
 30
0.0
 10
61.2452945223
 20
277.5807752702
 30
0.0
 10
62.2978010425
 20
278.5509847411
 30
0.0
 10
62.7929440843
 20
278.9716591017
 30
0.0
  0
SPLINE
  5
398
100
AcDbEntity
  8
0
100
AcDbSpline
 62
7
  6
CONTINUOUS
 70
0
 71
3
 72
9
 73
5
 74
0
 42
0.0000001
 43
0.0000001
 44
0.0000000001
 40
0.0
 40
0.0
 40
0.0
 40
0.0
 40
0.262991294
 40
1.0
 40
1.0
 40
1.0
 40
1.0
 10
50.0142312111
 20
280.8261501387
 30
0.0
 10
50.4143784116
 20
280.9334117897
 30
0.0
 10
51.9297367777
 20
281.3633285853
 30
0.0
 10
53.4207467302
 20
281.8834656373
 30
0.0
 10
54.4916968768
 20
282.3316881737
 30
0.0
  0
SPLINE
  5
399
100
AcDbEntity
  8
0
100
AcDbSpline
 62
7
  6
CONTINUOUS
 70
0
 71
3
 72
11
 73
7
 74
0
 42
0.0000001
 43
0.0000001
 44
0.0000000001
 40
0.0
 40
0.0
 40
0.0
 40
0.0
 40
0.2949568994
 40
0.5596977503
 40
0.7940559181
 40
1.0
 40
1.0
 40
1.0
 40
1.0
 10
54.4916968768
 20
282.3316881737
 30
0.0
 10
55.2034761235
 20
282.6295876607
 30
0.0
 10
56.5322897974
 20
283.2501964641
 30
0.0
 10
58.3169910653
 20
284.322305991
 30
0.0
 10
59.7656418503
 20
285.4733608266
 30
0.0
 10
60.5396939191
 20
286.3382188054
 30
0.0
 10
60.849943538
 20
286.7786668831
 30
0.0
  0
SPLINE
  5
39A
100
AcDbEntity
  8
0
100
AcDbSpline
 62
7
  6
CONTINUOUS
 70
0
 71
3
 72
15
 73
11
 74
0
 42
0.0000001
 43
0.0000001
 44
0.0000000001
 40
0.0
 40
0.0
 40
0.0
 40
0.0
 40
0.1151577118
 40
0.2220373398
 40
0.3266143092
 40
0.4353485389
 40
0.5538526767
 40
0.6861021682
 40
0.8344952056
 40
1.0
 40
1.0
 40
1.0
 40
1.0
 10
60.9700333712
 20
286.9550231032
 30
0.0
 10
61.2009263944
 20
287.3061354411
 30
0.0
 10
61.5827247943
 20
288.0298298552
 30
0.0
 10
61.8657244985
 20
289.2017155293
 30
0.0
 10
61.8169822279
 20
290.3844914008
 30
0.0
 10
61.4390272288
 20
291.5487818168
 30
0.0
 10
60.7486494456
 20
292.6757635852
 30
0.0
 10
59.762352313
 20
293.7568808146
 30
0.0
 10
58.4937306493
 20
294.7847015701
 30
0.0
 10
57.5218941807
 20
295.3958167862
 30
0.0
 10
56.9963407505
 20
295.6933929545
 30
0.0
  0
SPLINE
  5
39B
100
AcDbEntity
  8
0
100
AcDbSpline
 62
7
  6
CONTINUOUS
 70
0
 71
3
 72
9
 73
5
 74
0
 42
0.0000001
 43
0.0000001
 44
0.0000000001
 40
0.0
 40
0.0
 40
0.0
 40
0.0
 40
0.2340048759
 40
1.0
 40
1.0
 40
1.0
 40
1.0
 10
56.9963407505
 20
295.6933929545
 30
0.0
 10
56.7213720638
 20
295.8490843143
 30
0.0
 10
55.5299924687
 20
296.4855398278
 30
0.0
 10
54.2830603603
 20
297.0147117904
 30
0.0
 10
53.3129601377
 20
297.3735948428
 30
0.0
  0
SPLINE
  5
39C
100
AcDbEntity
  8
0
100
AcDbSpline
 62
7
  6
CONTINUOUS
 70
0
 71
3
 72
15
 73
11
 74
0
 42
0.0000001
 43
0.0000001
 44
0.0000000001
 40
0.0
 40
0.0
 40
0.0
 40
0.0
 40
0.1093828957
 40
0.2288210981
 40
0.3558068571
 40
0.487491718
 40
0.6208260473
 40
0.752694307
 40
0.8800330608
 40
1.0
 40
1.0
 40
1.0
 40
1.0
 10
53.3129601377
 20
297.3735948428
 30
0.0
 10
52.158768549
 20
297.8005814476
 30
0.0
 10
49.6931665409
 20
298.5579777307
 30
0.0
 10
45.775133042
 20
299.3974169462
 30
0.0
 10
41.5565457191
 20
299.9736129086
 30
0.0
 10
37.1529402782
 20
300.2701436463
 30
0.0
 10
32.6845323304
 20
300.2786626792
 30
0.0
 10
28.2736865945
 20
299.9988582507
 30
0.0
 10
24.041292336
 20
299.4388434808
 30
0.0
 10
21.3143863902
 20
298.8679876488
 30
0.0
 10
20.007073814
 20
298.5323167749
 30
0.0
  0
SPLINE
  5
39D
100
AcDbEntity
  8
0
100
AcDbSpline
 62
7
  6
CONTINUOUS
 70
0
 71
3
 72
29
 73
25
 74
0
 42
0.0000001
 43
0.0000001
 44
0.0000000001
 40
0.0
 40
0.0
 40
0.0
 40
0.0
 40
0.0153649352
 40
0.0308381502
 40
0.0386982353
 40
0.0466925446
 40
0.0547027271
 40
0.0626395657
 40
0.0786730433
 40
0.095063381
 40
0.1115246221
 40
0.1281871278
 40
0.1449778552
 40
0.161842772
 40
0.1960409694
 40
0.2656214135
 40
0.4072263459
 40
0.5476110079
 40
0.6814330073
 40
0.803805816
 40
0.859437735
 40
0.910822684
 40
0.957708384
 40
1.0
 40
1.0
 40
1.0
 40
1.0
 10
18.0452473759
 20
299.0304920436
 30
0.0
 10
18.2686281507
 20
299.0895538034
 30
0.0
 10
18.7182357106
 20
299.2032192004
 30
0.0
 10
19.2828351735
 20
299.344277863
 30
0.0
 10
19.741804255
 20
299.4506103352
 30
0.0
 10
20.0927899526
 20
299.5254783618
 30
0.0
 10
20.4451277278
 20
299.5994998119
 30
0.0
 10
20.9148507042
 20
299.7026705051
 30
0.0
 10
21.5093034488
 20
299.825480092
 30
0.0
 10
22.2328991534
 20
299.9553685046
 30
0.0
 10
22.9659209316
 20
300.0861704089
 30
0.0
 10
23.7072741107
 20
300.2039410006
 30
0.0
 10
24.4556742339
 20
300.3155634724
 30
0.0
 10
25.4659030828
 20
300.4593441909
 30
0.0
 10
27.2676435172
 20
300.6736173696
 30
0.0
 10
30.9446487462
 20
300.9950059122
 30
0.0
 10
36.2370785679
 20
301.1119770671
 30
0.0
 10
42.4859711774
 20
300.7341578716
 30
0.0
 10
48.3922571968
 20
299.8534648522
 30
0.0
 10
52.9495461934
 20
298.7020624326
 30
0.0
 10
56.1990158427
 20
297.5370950227
 30
0.0
 10
58.3167824821
 20
296.597286256
 30
0.0
 10
60.1698443539
 20
295.5744932462
 30
0.0
 10
61.2723754959
 20
294.8044099631
 30
0.0
 10
61.7673842668
 20
294.4051170265
 30
0.0
  0
SPLINE
  5
39E
100
AcDbEntity
  8
0
100
AcDbSpline
 62
7
  6
CONTINUOUS
 70
0
 71
3
 72
9
 73
5
 74
0
 42
0.0000001
 43
0.0000001
 44
0.0000000001
 40
0.0
 40
0.0
 40
0.0
 40
0.0
 40
0.2571924355
 40
1.0
 40
1.0
 40
1.0
 40
1.0
 10
61.7673842668
 20
294.4051170265
 30
0.0
 10
61.8448929695
 20
294.3425955535
 30
0.0
 10
62.1435728698
 20
294.096209059
 30
0.0
 10
62.4312197746
 20
293.8363297688
 30
0.0
 10
62.6368353189
 20
293.6352340007
 30
0.0
  0
SPLINE
  5
39F
100
AcDbEntity
  8
0
100
AcDbSpline
 62
7
  6
CONTINUOUS
 70
0
 71
3
 72
15
 73
11
 74
0
 42
0.0000001
 43
0.0000001
 44
0.0000000001
 40
0.0
 40
0.0
 40
0.0
 40
0.0
 40
0.1361721054
 40
0.2583364034
 40
0.3708642717
 40
0.4797826676
 40
0.591865482
 40
0.71322551
 40
0.8483577989
 40
1.0
 40
1.0
 40
1.0
 40
1.0
 10
62.6551789932
 20
293.6172510033
 30
0.0
 10
63.0334443202
 20
293.2455422274
 30
0.0
 10
63.7018787133
 20
292.4858001282
 30
0.0
 10
64.4329762665
 20
291.2273082265
 30
0.0
 10
64.8138281989
 20
289.9285106439
 30
0.0
 10
64.8262365175
 20
288.6125357257
 30
0.0
 10
64.4696083631
 20
287.3117769348
 30
0.0
 10
63.7611060538
 20
286.0499579302
 30
0.0
 10
62.7200838605
 20
284.8383057353
 30
0.0
 10
61.8656807819
 20
284.1125452218
 30
0.0
 10
61.3939320949
 20
283.7572430819
 30
0.0
  0
SPLINE
  5
3A0
100
AcDbEntity
  8
0
100
AcDbSpline
 62
7
  6
CONTINUOUS
 70
0
 71
3
 72
10
 73
6
 74
0
 42
0.0000001
 43
0.0000001
 44
0.0000000001
 40
0.0
 40
0.0
 40
0.0
 40
0.0
 40
0.2172616947
 40
0.4569281824
 40
1.0
 40
1.0
 40
1.0
 40
1.0
 10
61.3939320949
 20
283.7572430819
 30
0.0
 10
60.8849848304
 20
283.3739244695
 30
0.0
 10
59.7628415501
 20
282.6354608071
 30
0.0
 10
57.1640211115
 20
281.2701582745
 30
0.0
 10
55.0041026197
 20
280.4619713019
 30
0.0
 10
53.4842913983
 20
279.9858863579
 30
0.0
  0
SPLINE
  5
3A1
100
AcDbEntity
  8
0
100
AcDbSpline
 62
7
  6
CONTINUOUS
 70
0
 71
3
 72
15
 73
11
 74
0
 42
0.0000001
 43
0.0000001
 44
0.0000000001
 40
0.0
 40
0.0
 40
0.0
 40
0.0
 40
0.099044878
 40
0.2125243785
 40
0.3376505338
 40
0.4708108246
 40
0.6079093206
 40
0.7446279413
 40
0.8766646056
 40
1.0
 40
1.0
 40
1.0
 40
1.0
 10
12.7649362116
 20
283.4441193522
 30
0.0
 10
13.8646345206
 20
282.8370990734
 30
0.0
 10
16.3435842718
 20
281.7494800457
 30
0.0
 10
20.4529066089
 20
280.5204778373
 30
0.0
 10
25.0873606356
 20
279.6174864282
 30
0.0
 10
30.077625908
 20
279.0756049324
 30
0.0
 10
35.2414467332
 20
278.9154056299
 30
0.0
 10
40.3886392134
 20
279.1432641574
 30
0.0
 10
45.3290570041
 20
279.7501686223
 30
0.0
 10
48.5034022042
 20
280.4211642237
 30
0.0
 10
50.0142311327
 20
280.8261502014
 30
0.0
  0
SPLINE
  5
3A2
100
AcDbEntity
  8
0
100
AcDbSpline
 62
7
  6
CONTINUOUS
 70
0
 71
3
 72
15
 73
11
 74
0
 42
0.0000001
 43
0.0000001
 44
0.0000000001
 40
0.0
 40
0.0
 40
0.0
 40
0.0
 40
0.1225403435
 40
0.2534358129
 40
0.3889543565
 40
0.525116512
 40
0.657909826
 40
0.7834989608
 40
0.8984502567
 40
1.0
 40
1.0
 40
1.0
 40
1.0
 10
51.5301517378
 20
279.4227896677
 30
0.0
 10
49.9050950017
 20
278.9931255055
 30
0.0
 10
46.4972716288
 20
278.2773034769
 30
0.0
 10
41.1977606491
 20
277.6180847796
 30
0.0
 10
35.6768265757
 20
277.3523473962
 30
0.0
 10
30.1253793515
 20
277.4897314194
 30
0.0
 10
24.7346869095
 20
278.0252138577
 30
0.0
 10
19.6892730549
 20
278.9396857705
 30
0.0
 10
15.1621682247
 20
280.2000916965
 30
0.0
 10
12.3995206128
 20
281.3182969708
 30
0.0
 10
11.1548082424
 20
281.9436387722
 30
0.0
  0
SPLINE
  5
3A3
100
AcDbEntity
  8
0
100
AcDbSpline
 62
7
  6
CONTINUOUS
 70
0
 71
3
 72
9
 73
5
 74
0
 42
0.0000001
 43
0.0000001
 44
0.0000000001
 40
0.0
 40
0.0
 40
0.0
 40
0.0
 40
0.2657536484
 40
1.0
 40
1.0
 40
1.0
 40
1.0
 10
11.0325390658
 20
282.0054884096
 30
0.0
 10
10.7705279767
 20
282.1389377036
 30
0.0
 10
9.7939030429
 20
282.6586713815
 30
0.0
 10
8.8547208526
 20
283.2521592268
 30
0.0
 10
8.2048358946
 20
283.7396352152
 30
0.0
  0
SPLINE
  5
3A4
100
AcDbEntity
  8
0
100
AcDbSpline
 62
7
  6
CONTINUOUS
 70
0
 71
3
 72
15
 73
11
 74
0
 42
0.0000001
 43
0.0000001
 44
0.0000000001
 40
0.0
 40
0.0
 40
0.0
 40
0.0
 40
0.1544517295
 40
0.2937047322
 40
0.4197700373
 40
0.5359066012
 40
0.646667234
 40
0.7574747911
 40
0.8737378532
 40
1.0
 40
1.0
 40
1.0
 40
1.0
 10
8.2048358946
 20
283.7396352152
 30
0.0
 10
7.7772901122
 20
284.060335518
 30
0.0
 10
6.9953756282
 20
284.7142615929
 30
0.0
 10
6.0156020542
 20
285.7939528573
 30
0.0
 10
5.3018083194
 20
286.9134198229
 30
0.0
 10
4.8660652646
 20
288.0652579046
 30
0.0
 10
4.720626307
 20
289.2367972457
 30
0.0
 10
4.8712925224
 20
290.4081389599
 30
0.0
 10
5.3114999847
 20
291.5593309457
 30
0.0
 10
5.7683032659
 20
292.2700373
 30
0.0
 10
6.0329135687
 20
292.6177047195
 30
0.0
  0
SPLINE
  5
3A5
100
AcDbEntity
  8
0
100
AcDbSpline
 62
7
  6
CONTINUOUS
 70
0
 71
3
 72
9
 73
5
 74
0
 42
0.0000001
 43
0.0000001
 44
0.0000000001
 40
0.0
 40
0.0
 40
0.0
 40
0.0
 40
0.2456938455
 40
1.0
 40
1.0
 40
1.0
 40
1.0
 10
6.1084540052
 20
292.7153989016
 30
0.0
 10
6.1407403799
 20
292.7565057103
 30
0.0
 10
6.2737484387
 20
292.9225552826
 30
0.0
 10
6.4129463518
 20
293.0836248315
 30
0.0
 10
6.5208671597
 20
293.2023909817
 30
0.0
  0
SPLINE
  5
3A6
100
AcDbEntity
  8
0
100
AcDbSpline
 62
7
  6
CONTINUOUS
 70
0
 71
3
 72
10
 73
6
 74
0
 42
0.0000001
 43
0.0000001
 44
0.0000000001
 40
0.0
 40
0.0
 40
0.0
 40
0.0
 40
0.205175109
 40
0.4410421282
 40
1.0
 40
1.0
 40
1.0
 40
1.0
 10
6.9335806553
 20
293.6304537623
 30
0.0
 10
7.4916543418
 20
294.1773876649
 30
0.0
 10
8.8173580268
 20
295.2256650958
 30
0.0
 10
12.1267656427
 20
297.1265338902
 30
0.0
 10
14.998484996
 20
298.1605196337
 30
0.0
 10
17.0429469328
 20
298.7536429111
 30
0.0
  0
SPLINE
  5
3A7
100
AcDbEntity
  8
0
100
AcDbSpline
 62
7
  6
CONTINUOUS
 70
0
 71
3
 72
10
 73
6
 74
0
 42
0.0000001
 43
0.0000001
 44
0.0000000001
 40
0.0
 40
0.0
 40
0.0
 40
0.0
 40
0.5438215766
 40
0.7835544304
 40
1.0
 40
1.0
 40
1.0
 40
1.0
 10
19.5611077037
 20
298.41530871
 30
0.0
 10
17.9764633905
 20
297.9905361137
 30
0.0
 10
15.7196647782
 20
297.251112603
 30
0.0
 10
12.9904214298
 20
295.9585786345
 30
0.0
 10
11.8078493604
 20
295.2478991328
 30
0.0
 10
11.271118692
 20
294.8760291851
 30
0.0
  0
SPLINE
  5
3A8
100
AcDbEntity
  8
0
100
AcDbSpline
 62
7
  6
CONTINUOUS
 70
0
 71
3
 72
15
 73
11
 74
0
 42
0.0000001
 43
0.0000001
 44
0.0000000001
 40
0.0
 40
0.0
 40
0.0
 40
0.0
 40
0.1578767427
 40
0.3000714236
 40
0.4282751335
 40
0.5454071715
 40
0.6557506398
 40
0.7646703454
 40
0.8777870946
 40
1.0
 40
1.0
 40
1.0
 40
1.0
 10
11.271118692
 20
294.8760291851
 30
0.0
 10
10.854834417
 20
294.5876096469
 30
0.0
 10
10.0901320604
 20
293.9988045371
 30
0.0
 10
9.1164494511
 20
293.0230719459
 30
0.0
 10
8.387101767
 20
292.008230168
 30
0.0
 10
7.9130455584
 20
290.9606218462
 30
0.0
 10
7.7064732957
 20
289.8902990334
 30
0.0
 10
7.7755210639
 20
288.8147303356
 30
0.0
 10
8.1169483772
 20
287.7542614716
 30
0.0
 10
8.5006878435
 20
287.0975578084
 30
0.0
 10
8.7265115753
 20
286.7770976345
 30
0.0
  0
SPLINE
  5
3A9
100
AcDbEntity
  8
0
100
AcDbSpline
 62
7
  6
CONTINUOUS
 70
0
 71
3
 72
9
 73
5
 74
0
 42
0.0000001
 43
0.0000001
 44
0.0000000001
 40
0.0
 40
0.0
 40
0.0
 40
0.0
 40
0.4569911904
 40
1.0
 40
1.0
 40
1.0
 40
1.0
 10
8.7265115753
 20
286.7770976345
 30
0.0
 10
9.1558652856
 20
286.1678137321
 30
0.0
 10
10.3092557514
 20
284.9854363282
 30
0.0
 10
11.6698356243
 20
284.072367587
 30
0.0
 10
12.4367663013
 20
283.629402398
 30
0.0
  0
SPLINE
  5
3AA
100
AcDbEntity
  8
0
100
AcDbSpline
 62
7
  6
CONTINUOUS
 70
0
 71
3
 72
10
 73
6
 74
0
 42
0.0000001
 43
0.0000001
 44
0.0000000001
 40
0.0
 40
0.0
 40
0.0
 40
0.0
 40
0.2873521325
 40
0.5486350328
 40
1.0
 40
1.0
 40
1.0
 40
1.0
 10
63.1854693642
 20
279.3202143454
 30
0.0
 10
63.6943149944
 20
279.6449649408
 30
0.0
 10
64.6402279171
 20
280.3090812979
 30
0.0
 10
66.2168691512
 20
281.6969149236
 30
0.0
 10
67.1532477262
 20
282.9096790735
 30
0.0
 10
67.5648658392
 20
283.7638642182
 30
0.0
  0
SPLINE
  5
3AB
100
AcDbEntity
  8
0
100
AcDbSpline
 62
7
  6
CONTINUOUS
 70
0
 71
3
 72
9
 73
5
 74
0
 42
0.0000001
 43
0.0000001
 44
0.0000000001
 40
0.0
 40
0.0
 40
0.0
 40
0.0
 40
0.308223531
 40
1.0
 40
1.0
 40
1.0
 40
1.0
 10
64.1563434555
 20
276.4945249397
 30
0.0
 10
64.4933210966
 20
277.2474707364
 30
0.0
 10
65.6053404778
 20
279.681965299
 30
0.0
 10
66.7612257517
 20
282.0960015234
 30
0.0
 10
67.5649070728
 20
283.7639049804
 30
0.0
  0
SPLINE
  5
3AC
100
AcDbEntity
  8
0
100
AcDbSpline
 62
7
  6
CONTINUOUS
 70
0
 71
3
 72
9
 73
5
 74
0
 42
0.0000001
 43
0.0000001
 44
0.0000000001
 40
0.0
 40
0.0
 40
0.0
 40
0.0
 40
0.4853524005
 40
1.0
 40
1.0
 40
1.0
 40
1.0
 10
67.9474851471
 20
283.5428982145
 30
0.0
 10
67.9374423226
 20
283.5961574034
 30
0.0
 10
67.8741357366
 20
283.7021274574
 30
0.0
 10
67.7576504097
 20
283.7362542885
 30
0.0
 10
67.7001945077
 20
283.7374851435
 30
0.0
  0
SPLINE
  5
3AD
100
AcDbEntity
  8
0
100
AcDbSpline
 62
7
  6
CONTINUOUS
 70
0
 71
3
 72
9
 73
5
 74
0
 42
0.0000001
 43
0.0000001
 44
0.0000000001
 40
0.0
 40
0.0
 40
0.0
 40
0.0
 40
0.5145549845
 40
1.0
 40
1.0
 40
1.0
 40
1.0
 10
67.7017552896
 20
283.7517116765
 30
0.0
 10
67.7590004288
 20
283.7505559834
 30
0.0
 10
67.8751598962
 20
283.7165955174
 30
0.0
 10
67.9380890198
 20
283.6108829812
 30
0.0
 10
67.9480624573
 20
283.5577940687
 30
0.0
  0
SPLINE
  5
3AE
100
AcDbEntity
  8
0
100
AcDbSpline
 62
7
  6
CONTINUOUS
 70
0
 71
3
 72
12
 73
8
 74
0
 42
0.0000001
 43
0.0000001
 44
0.0000000001
 40
0.0
 40
0.0
 40
0.0
 40
0.0
 40
0.2791866482
 40
0.5504212933
 40
0.7967439991
 40
0.9048535928
 40
1.0
 40
1.0
 40
1.0
 40
1.0
 10
62.3336401425
 20
264.4221280953
 30
0.0
 10
62.7409586038
 20
266.0027439402
 30
0.0
 10
63.6745702972
 20
269.0850777942
 30
0.0
 10
65.1933898042
 20
273.4881721136
 30
0.0
 10
66.3809562711
 20
276.9485991288
 30
0.0
 10
67.1484113733
 20
279.4627818335
 30
0.0
 10
67.4535528442
 20
280.6118646581
 30
0.0
 10
67.5789915986
 20
281.1538069179
 30
0.0
  0
SPLINE
  5
3AF
100
AcDbEntity
  8
0
100
AcDbSpline
 62
7
  6
CONTINUOUS
 70
0
 71
3
 72
9
 73
5
 74
0
 42
0.0000001
 43
0.0000001
 44
0.0000000001
 40
0.0
 40
0.0
 40
0.0
 40
0.0
 40
0.5505642201
 40
1.0
 40
1.0
 40
1.0
 40
1.0
 10
67.5789530277
 20
281.1539622612
 30
0.0
 10
67.6791229799
 20
281.5867140455
 30
0.0
 10
67.840821332
 20
282.3775387621
 30
0.0
 10
67.9358596028
 20
283.1809426596
 30
0.0
 10
67.9496749515
 20
283.5432830074
 30
0.0
  0
SPLINE
  5
3B0
100
AcDbEntity
  8
0
100
AcDbSpline
 62
7
  6
CONTINUOUS
 70
0
 71
3
 72
17
 73
13
 74
0
 42
0.0000001
 43
0.0000001
 44
0.0000000001
 40
0.0
 40
0.0
 40
0.0
 40
0.0
 40
0.2940800642
 40
0.4323195726
 40
0.5630286887
 40
0.6839389167
 40
0.7908104006
 40
0.8365482235
 40
0.8749814999
 40
0.9084347125
 40
0.9373175679
 40
1.0
 40
1.0
 40
1.0
 40
1.0
 10
67.7238881235
 20
284.1206640008
 30
0.0
 10
67.7382675588
 20
284.1557370929
 30
0.0
 10
67.7597725831
 20
284.2071573356
 30
0.0
 10
67.7893632037
 20
284.2734177138
 30
0.0
 10
67.8109181871
 20
284.3188482125
 30
0.0
 10
67.8324343514
 20
284.3596727653
 30
0.0
 10
67.8507964446
 20
284.3900531143
 30
0.0
 10
67.8667349212
 20
284.4086839768
 30
0.0
 10
67.878101207
 20
284.4193284227
 30
0.0
 10
67.8932967047
 20
284.419517693
 30
0.0
 10
67.902627675
 20
284.4048107151
 30
0.0
 10
67.9052187818
 20
284.393463661
 30
0.0
 10
67.9066352999
 20
284.3855091617
 30
0.0
  0
SPLINE
  5
3B1
100
AcDbEntity
  8
0
100
AcDbSpline
 62
7
  6
CONTINUOUS
 70
0
 71
3
 72
9
 73
5
 74
0
 42
0.0000001
 43
0.0000001
 44
0.0000000001
 40
0.0
 40
0.0
 40
0.0
 40
0.0
 40
0.5079854877
 40
1.0
 40
1.0
 40
1.0
 40
1.0
 10
67.7238881235
 20
284.1206640008
 30
0.0
 10
67.8899287059
 20
284.5260541999
 30
0.0
 10
68.1335552856
 20
285.3623363668
 30
0.0
 10
68.1661424542
 20
286.2342242551
 30
0.0
 10
68.1294809481
 20
286.6569405213
 30
0.0
  0
SPLINE
  5
3B2
100
AcDbEntity
  8
0
100
AcDbSpline
 62
7
  6
CONTINUOUS
 70
0
 71
3
 72
9
 73
5
 74
0
 42
0.0000001
 43
0.0000001
 44
0.0000000001
 40
0.0
 40
0.0
 40
0.0
 40
0.0
 40
0.5419552894
 40
1.0
 40
1.0
 40
1.0
 40
1.0
 10
-1.2328834328
 20
275.7849374065
 30
0.0
 10
-1.3173049763
 20
275.9223673345
 30
0.0
 10
-1.4941856496
 20
276.1638713517
 30
0.0
 10
-1.723897122
 20
276.3607177442
 30
0.0
 10
-1.8419386951
 20
276.4288963646
 30
0.0
  0
SPLINE
  5
3B3
100
AcDbEntity
  8
0
100
AcDbSpline
 62
7
  6
CONTINUOUS
 70
0
 71
3
 72
14
 73
10
 74
0
 42
0.0000001
 43
0.0000001
 44
0.0000000001
 40
0.0
 40
0.0
 40
0.0
 40
0.0
 40
0.114088324
 40
0.2315233684
 40
0.3529032548
 40
0.4781993011
 40
0.6068147942
 40
0.7377090688
 40
1.0
 40
1.0
 40
1.0
 40
1.0
 10
-23.3919984242
 20
278.1327899029
 30
0.0
 10
-23.7469515543
 20
278.0376427703
 30
0.0
 10
-24.4472226706
 20
277.7607502553
 30
0.0
 10
-25.3964754564
 20
277.1212300381
 30
0.0
 10
-26.2232328082
 20
276.2786838695
 30
0.0
 10
-26.8965194777
 20
275.2667406281
 30
0.0
 10
-27.392118362
 20
274.1233350132
 30
0.0
 10
-27.7922333995
 20
272.4854352518
 30
0.0
 10
-27.7814591414
 20
271.1881531301
 30
0.0
 10
-27.6330205319
 20
270.3564430962
 30
0.0
  0
SPLINE
  5
3B4
100
AcDbEntity
  8
0
100
AcDbSpline
 62
7
  6
CONTINUOUS
 70
0
 71
3
 72
13
 73
9
 74
0
 42
0.0000001
 43
0.0000001
 44
0.0000000001
 40
0.0
 40
0.0
 40
0.0
 40
0.0
 40
0.267702785
 40
0.523095256
 40
0.64603859
 40
0.7659487402
 40
0.8835892837
 40
1.0
 40
1.0
 40
1.0
 40
1.0
 10
-15.1063619077
 20
200.1688571337
 30
0.0
 10
-14.9855470936
 20
199.4919248084
 30
0.0
 10
-14.5652038822
 20
198.1934288017
 30
0.0
 10
-13.5902955256
 20
196.8133584614
 30
0.0
 10
-12.6076637117
 20
195.9843189409
 30
0.0
 10
-11.8009032475
 20
195.5190989161
 30
0.0
 10
-10.9378422789
 20
195.2170759483
 30
0.0
 10
-10.338489548
 20
195.1300565653
 30
0.0
 10
-10.0398042381
 20
195.1160004556
 30
0.0
  0
SPLINE
  5
3B5
100
AcDbEntity
  8
0
100
AcDbSpline
 62
7
  6
CONTINUOUS
 70
0
 71
3
 72
18
 73
14
 74
0
 42
0.0000001
 43
0.0000001
 44
0.0000000001
 40
0.0
 40
0.0
 40
0.0
 40
0.0
 40
0.0523418676
 40
0.1054334488
 40
0.1599357439
 40
0.2163528285
 40
0.2749950174
 40
0.3359712762
 40
0.4642017402
 40
0.5989175082
 40
0.7360953929
 40
0.8711558432
 40
1.0
 40
1.0
 40
1.0
 40
1.0
 10
34.3321603596
 20
255.0192898752
 30
0.0
 10
35.0948573995
 20
254.5787272057
 30
0.0
 10
36.5513039798
 20
253.5443443483
 30
0.0
 10
38.4308941593
 20
251.5984148798
 30
0.0
 10
39.9763734915
 20
249.2951202997
 30
0.0
 10
41.1571793452
 20
246.6842888572
 30
0.0
 10
41.9523458644
 20
243.819248273
 30
0.0
 10
42.488730513
 20
239.6713322126
 30
0.0
 10
42.0971215453
 20
234.1728732807
 30
0.0
 10
40.0838748181
 20
227.6930798199
 30
0.0
 10
36.6806513021
 20
221.6890228856
 30
0.0
 10
32.1492118276
 20
216.6192437939
 30
0.0
 10
28.4731975214
 20
214.0347013334
 30
0.0
 10
26.5494942437
 20
213.0345628489
 30
0.0
  0
SPLINE
  5
3B6
100
AcDbEntity
  8
0
100
AcDbSpline
 62
7
  6
CONTINUOUS
 70
0
 71
3
 72
14
 73
10
 74
0
 42
0.0000001
 43
0.0000001
 44
0.0000000001
 40
0.0
 40
0.0
 40
0.0
 40
0.0
 40
0.2622909583
 40
0.393185238
 40
0.5218007329
 40
0.6470967759
 40
0.7684766562
 40
0.8859116878
 40
1.0
 40
1.0
 40
1.0
 40
1.0
 10
40.5938487159
 20
214.4753607682
 30
0.0
 10
40.7422873408
 20
213.6436506484
 30
0.0
 10
40.7530615801
 20
212.3463684131
 30
0.0
 10
40.3529464451
 20
210.7084685623
 30
0.0
 10
39.8573475101
 20
209.5650629573
 30
0.0
 10
39.1840608117
 20
208.5531197632
 30
0.0
 10
38.3573034653
 20
207.7105736921
 30
0.0
 10
37.4080507499
 20
207.0710535509
 30
0.0
 10
36.7077797017
 20
206.7941610842
 30
0.0
 10
36.3528266081
 20
206.6990139614
 30
0.0
  0
SPLINE
  5
3B7
100
AcDbEntity
  8
0
100
AcDbSpline
 62
7
  6
CONTINUOUS
 70
0
 71
3
 72
11
 73
7
 74
0
 42
0.0000001
 43
0.0000001
 44
0.0000000001
 40
0.0
 40
0.0
 40
0.0
 40
0.0
 40
0.2397934599
 40
0.4840637622
 40
0.7365906122
 40
1.0
 40
1.0
 40
1.0
 40
1.0
 10
33.231835898
 20
253.1142345803
 30
0.0
 10
32.4361198178
 20
253.5738697459
 30
0.0
 10
30.724110643
 20
254.3303905674
 30
0.0
 10
27.9413534494
 20
254.9074985102
 30
0.0
 10
25.0105674247
 20
254.9218676836
 30
0.0
 10
23.0535042249
 20
254.5663348181
 30
0.0
 10
22.0784975048
 20
254.3049789211
 30
0.0
  0
SPLINE
  5
3B8
100
AcDbEntity
  8
0
100
AcDbSpline
 62
7
  6
CONTINUOUS
 70
0
 71
3
 72
9
 73
5
 74
0
 42
0.0000001
 43
0.0000001
 44
0.0000000001
 40
0.0
 40
0.0
 40
0.0
 40
0.0
 40
0.251640531
 40
1.0
 40
1.0
 40
1.0
 40
1.0
 10
-6.6223814816
 20
195.1792738137
 30
0.0
 10
-6.7396939017
 20
195.1478275763
 30
0.0
 10
-7.2104275429
 20
195.0405179678
 30
0.0
 10
-7.6978082762
 20
195.0058498954
 30
0.0
 10
-8.0586037271
 20
195.0228289057
 30
0.0
  0
SPLINE
  5
3B9
100
AcDbEntity
  8
0
100
AcDbSpline
 62
7
  6
CONTINUOUS
 70
0
 71
3
 72
9
 73
5
 74
0
 42
0.0000001
 43
0.0000001
 44
0.0000000001
 40
0.0
 40
0.0
 40
0.0
 40
0.0
 40
0.2532452231
 40
1.0
 40
1.0
 40
1.0
 40
1.0
 10
-24.0875572768
 20
250.1889150844
 30
0.0
 10
-24.1458800839
 20
249.8941227984
 30
0.0
 10
-24.3557483578
 20
248.7261449
 30
0.0
 10
-24.4825129435
 20
247.5429955724
 30
0.0
 10
-24.5262942256
 20
246.6579622919
 30
0.0
  0
SPLINE
  5
3BA
100
AcDbEntity
  8
0
100
AcDbSpline
 62
7
  6
CONTINUOUS
 70
0
 71
3
 72
10
 73
6
 74
0
 42
0.0000001
 43
0.0000001
 44
0.0000000001
 40
0.0
 40
0.0
 40
0.0
 40
0.0
 40
0.5192330237
 40
0.7641239849
 40
1.0
 40
1.0
 40
1.0
 40
1.0
 10
-24.5520991327
 20
245.2335515585
 30
0.0
 10
-24.5262035952
 20
243.351700114
 30
0.0
 10
-24.1282882038
 20
240.5577619022
 30
0.0
 10
-22.7785879894
 20
237.1806942385
 30
0.0
 10
-21.8618111871
 20
235.6855903449
 30
0.0
 10
-21.3494800872
 20
235.0011339051
 30
0.0
  0
SPLINE
  5
3BB
100
AcDbEntity
  8
0
100
AcDbSpline
 62
7
  6
CONTINUOUS
 70
0
 71
3
 72
11
 73
7
 74
0
 42
0.0000001
 43
0.0000001
 44
0.0000000001
 40
0.0
 40
0.0
 40
0.0
 40
0.0
 40
0.2565516803
 40
0.5076779853
 40
0.7548388662
 40
1.0
 40
1.0
 40
1.0
 40
1.0
 10
17.607500766
 20
210.6376124711
 30
0.0
 10
16.9134880333
 20
210.6263637129
 30
0.0
 10
15.5369875868
 20
210.689080971
 30
0.0
 10
13.5207255287
 20
211.0492429411
 30
0.0
 10
11.6013244283
 20
211.6710328185
 30
0.0
 10
10.3992171751
 20
212.2566313162
 30
0.0
 10
9.8248345427
 20
212.5883446388
 30
0.0
  0
SPLINE
  5
3BC
100
AcDbEntity
  8
0
100
AcDbSpline
 62
7
  6
CONTINUOUS
 70
0
 71
3
 72
13
 73
9
 74
0
 42
0.0000001
 43
0.0000001
 44
0.0000000001
 40
0.0
 40
0.0
 40
0.0
 40
0.0
 40
0.2750757844
 40
0.5423820257
 40
0.6671161281
 40
0.7840067547
 40
0.894030456
 40
1.0
 40
1.0
 40
1.0
 40
1.0
 10
26.5494942437
 20
213.0345628489
 30
0.0
 10
26.3118294353
 20
212.1741663611
 30
0.0
 10
25.5188595027
 20
210.5553411076
 30
0.0
 10
23.9130100432
 20
209.021139671
 30
0.0
 10
22.4133566734
 20
208.2998166476
 30
0.0
 10
21.2852992031
 20
208.0580059301
 30
0.0
 10
20.1927215123
 20
208.1236996798
 30
0.0
 10
19.5254228746
 20
208.3787031331
 30
0.0
 10
19.2276712722
 20
208.5507221993
 30
0.0
  0
SPLINE
  5
3BD
100
AcDbEntity
  8
0
100
AcDbSpline
 62
7
  6
CONTINUOUS
 70
0
 71
3
 72
11
 73
7
 74
0
 42
0.0000001
 43
0.0000001
 44
0.0000000001
 40
0.0
 40
0.0
 40
0.0
 40
0.0
 40
0.2717611204
 40
0.5268826283
 40
0.7676339456
 40
1.0
 40
1.0
 40
1.0
 40
1.0
 10
19.1859354218
 20
212.7111549595
 30
0.0
 10
19.1859354218
 20
212.4718914647
 30
0.0
 10
19.2324824198
 20
212.0060457255
 30
0.0
 10
19.4552418905
 20
211.360736949
 30
0.0
 10
19.8204100809
 20
210.8238434474
 30
0.0
 10
20.1508404456
 20
210.5580941593
 30
0.0
 10
20.32798135
 20
210.455752517
 30
0.0
  0
SPLINE
  5
3BE
100
AcDbEntity
  8
0
100
AcDbSpline
 62
7
  6
CONTINUOUS
 70
0
 71
3
 72
20
 73
16
 74
0
 42
0.0000001
 43
0.0000001
 44
0.0000000001
 40
0.0
 40
0.0
 40
0.0
 40
0.0
 40
0.122724013
 40
0.1878070584
 40
0.2547486599
 40
0.3916139811
 40
0.4604260366
 40
0.5284817862
 40
0.6595703672
 40
0.7219375362
 40
0.7817551652
 40
0.8390519888
 40
0.8941192057
 40
0.9475108518
 40
1.0
 40
1.0
 40
1.0
 40
1.0
 10
22.0784975048
 20
254.3049789211
 30
0.0
 10
20.0899450277
 20
253.7719365271
 30
0.0
 10
17.1692775074
 20
252.437769078
 30
0.0
 10
13.7095388627
 20
249.9181084585
 30
0.0
 10
10.4230505091
 20
246.8124282065
 30
0.0
 10
7.6990052869
 20
243.0752631561
 30
0.0
 10
5.6792364395
 20
238.9414724802
 30
0.0
 10
4.1967809831
 20
234.689889654
 30
0.0
 10
3.5144916563
 20
230.2960854203
 30
0.0
 10
3.7525845499
 20
226.0414232211
 30
0.0
 10
4.3709441405
 20
223.081694323
 30
0.0
 10
5.420070915
 20
220.3755408155
 30
0.0
 10
6.878478441
 20
217.988977526
 30
0.0
 10
8.7123016249
 20
215.9844026674
 30
0.0
 10
10.1626797874
 20
214.9338093012
 30
0.0
 10
10.9251544601
 20
214.4933916128
 30
0.0
  0
SPLINE
  5
3BF
100
AcDbEntity
  8
0
100
AcDbSpline
 62
7
  6
CONTINUOUS
 70
0
 71
3
 72
9
 73
5
 74
0
 42
0.0000001
 43
0.0000001
 44
0.0000000001
 40
0.0
 40
0.0
 40
0.0
 40
0.0
 40
0.748453333
 40
1.0
 40
1.0
 40
1.0
 40
1.0
 10
-7.5984415597
 20
212.3137772997
 30
0.0
 10
-7.8760110439
 20
212.3268329978
 30
0.0
 10
-8.250912113
 20
212.3001200364
 30
0.0
 10
-8.6130217106
 20
212.2176101507
 30
0.0
 10
-8.7032281774
 20
212.1934298127
 30
0.0
  0
SPLINE
  5
3C0
100
AcDbEntity
  8
0
100
AcDbSpline
 62
7
  6
CONTINUOUS
 70
0
 71
3
 72
11
 73
7
 74
0
 42
0.0000001
 43
0.0000001
 44
0.0000000001
 40
0.0
 40
0.0
 40
0.0
 40
0.0
 40
0.2341347356
 40
0.4778815177
 40
0.7330361518
 40
1.0
 40
1.0
 40
1.0
 40
1.0
 10
40.2660637492
 20
256.5563378194
 30
0.0
 10
41.124731229
 20
255.5740346362
 30
0.0
 10
42.6661294325
 20
253.3757103457
 30
0.0
 10
44.3223272409
 20
249.6168369851
 30
0.0
 10
45.3258350504
 20
245.4478517578
 30
0.0
 10
45.5392441314
 20
242.5324447064
 30
0.0
 10
45.5392441314
 20
241.0448122458
 30
0.0
  0
SPLINE
  5
3C1
100
AcDbEntity
  8
0
100
AcDbSpline
 62
7
  6
CONTINUOUS
 70
0
 71
3
 72
14
 73
10
 74
0
 42
0.0000001
 43
0.0000001
 44
0.0000000001
 40
0.0
 40
0.0
 40
0.0
 40
0.0
 40
0.2491613242
 40
0.3790638972
 40
0.5096227349
 40
0.6387325639
 40
0.7644429917
 40
0.8851815827
 40
1.0
 40
1.0
 40
1.0
 40
1.0
 10
45.5392441314
 20
241.0448122458
 30
0.0
 10
45.5392441314
 20
237.3359210015
 30
0.0
 10
44.5060506309
 20
231.655795984
 30
0.0
 10
41.5196601733
 20
224.666298751
 30
0.0
 10
38.4677221394
 20
219.7071659749
 30
0.0
 10
34.7532096627
 20
215.3077587905
 30
0.0
 10
30.5115746208
 20
211.6286888451
 30
0.0
 10
25.9016403996
 20
208.8110901544
 30
0.0
 10
22.6033150815
 20
207.5465059641
 30
0.0
 10
20.952466426
 20
207.1039869309
 30
0.0
  0
SPLINE
  5
3C2
100
AcDbEntity
  8
0
100
AcDbSpline
 62
7
  6
CONTINUOUS
 70
0
 71
3
 72
9
 73
5
 74
0
 42
0.0000001
 43
0.0000001
 44
0.0000000001
 40
0.0
 40
0.0
 40
0.0
 40
0.0
 40
0.5122819341
 40
1.0
 40
1.0
 40
1.0
 40
1.0
 10
-11.6486691021
 20
277.2184989247
 30
0.0
 10
-11.0082816257
 20
277.8360579169
 30
0.0
 10
-9.6215813774
 20
278.9125037984
 30
0.0
 10
-7.9995605115
 20
279.5969542221
 30
0.0
 10
-7.1814488348
 20
279.816239308
 30
0.0
  0
SPLINE
  5
3C3
100
AcDbEntity
  8
0
100
AcDbSpline
 62
7
  6
CONTINUOUS
 70
0
 71
3
 72
9
 73
5
 74
0
 42
0.0000001
 43
0.0000001
 44
0.0000000001
 40
0.0
 40
0.0
 40
0.0
 40
0.0
 40
0.5312871198
 40
1.0
 40
1.0
 40
1.0
 40
1.0
 10
-1.8419386951
 20
276.4288963646
 30
0.0
 10
-1.9242440179
 20
276.4764343905
 30
0.0
 10
-2.0929785039
 20
276.5469192758
 30
0.0
 10
-2.2787722577
 20
276.5437281174
 30
0.0
 10
-2.3597670017
 20
276.5220216819
 30
0.0
  0
SPLINE
  5
3C4
100
AcDbEntity
  8
0
100
AcDbSpline
 62
7
  6
CONTINUOUS
 70
0
 71
3
 72
11
 73
7
 74
0
 42
0.0000001
 43
0.0000001
 44
0.0000000001
 40
0.0
 40
0.0
 40
0.0
 40
0.0
 40
0.265528585
 40
0.5204448587
 40
0.7648300136
 40
1.0
 40
1.0
 40
1.0
 40
1.0
 10
-5.2799576305
 20
228.8081181866
 30
0.0
 10
-5.2379964602
 20
227.2935781501
 30
0.0
 10
-4.9393117418
 20
224.3252087387
 30
0.0
 10
-3.8102709059
 20
220.0890590723
 30
0.0
 10
-2.0369277564
 20
216.2675769695
 30
0.0
 10
-0.4249614679
 20
214.0303982559
 30
0.0
 10
0.4676879228
 20
213.0284727444
 30
0.0
  0
SPLINE
  5
3C5
100
AcDbEntity
  8
0
100
AcDbSpline
 62
7
  6
CONTINUOUS
 70
0
 71
3
 72
11
 73
7
 74
0
 42
0.0000001
 43
0.0000001
 44
0.0000000001
 40
0.0
 40
0.0
 40
0.0
 40
0.0
 40
0.2476342106
 40
0.502045682
 40
0.7553716285
 40
1.0
 40
1.0
 40
1.0
 40
1.0
 10
8.2472182853
 20
257.8321674587
 30
0.0
 10
6.1222886024
 20
256.1212657117
 30
0.0
 10
2.2378784426
 20
252.1004165933
 30
0.0
 10
-2.1092146101
 20
244.9301960829
 30
0.0
 10
-4.7986993073
 20
237.0220220311
 30
0.0
 10
-5.3545949682
 20
231.5020667868
 30
0.0
 10
-5.2799576305
 20
228.8081181866
 30
0.0
  0
SPLINE
  5
3C6
100
AcDbEntity
  8
0
100
AcDbSpline
 62
7
  6
CONTINUOUS
 70
0
 71
3
 72
9
 73
5
 74
0
 42
0.0000001
 43
0.0000001
 44
0.0000000001
 40
0.0
 40
0.0
 40
0.0
 40
0.0
 40
0.2448906797
 40
1.0
 40
1.0
 40
1.0
 40
1.0
 10
4.3537457191
 20
264.9012042752
 30
0.0
 10
4.3537457191
 20
263.9778387137
 30
0.0
 10
4.2371240963
 20
260.2078349675
 30
0.0
 10
3.6655130507
 20
256.4550504529
 30
0.0
 10
3.0112478149
 20
253.6840878634
 30
0.0
  0
SPLINE
  5
3C7
100
AcDbEntity
  8
0
100
AcDbSpline
 62
7
  6
CONTINUOUS
 70
0
 71
3
 72
10
 73
6
 74
0
 42
0.0000001
 43
0.0000001
 44
0.0000000001
 40
0.0
 40
0.0
 40
0.0
 40
0.0
 40
0.2415472703
 40
0.4869353179
 40
1.0
 40
1.0
 40
1.0
 40
1.0
 10
19.2276712722
 20
208.5507221993
 30
0.0
 10
19.039849895
 20
208.6592316335
 30
0.0
 10
18.6819194664
 20
208.9164718595
 30
0.0
 10
18.0652682394
 20
209.5750667262
 30
0.0
 10
17.7496090538
 20
210.1993364545
 30
0.0
 10
17.607500766
 20
210.6376124711
 30
0.0
  0
SPLINE
  5
3C8
100
AcDbEntity
  8
0
100
AcDbSpline
 62
7
  6
CONTINUOUS
 70
0
 71
3
 72
11
 73
7
 74
0
 42
0.0000001
 43
0.0000001
 44
0.0000000001
 40
0.0
 40
0.0
 40
0.0
 40
0.0
 40
0.263408553
 40
0.5159327653
 40
0.7602043661
 40
1.0
 40
1.0
 40
1.0
 40
1.0
 10
22.0784975048
 20
256.3275150707
 30
0.0
 10
23.1496896054
 20
256.6146539863
 30
0.0
 10
25.2998107478
 20
257.0052669003
 30
0.0
 10
28.5197218132
 20
256.9894681676
 30
0.0
 10
31.577017447
 20
256.3554424552
 30
0.0
 10
33.457935664
 20
255.5242751386
 30
0.0
 10
34.3321603596
 20
255.0192898752
 30
0.0
  0
SPLINE
  5
3C9
100
AcDbEntity
  8
0
100
AcDbSpline
 62
7
  6
CONTINUOUS
 70
0
 71
3
 72
14
 73
10
 74
0
 42
0.0000001
 43
0.0000001
 44
0.0000000001
 40
0.0
 40
0.0
 40
0.0
 40
0.0
 40
0.2622909583
 40
0.393185238
 40
0.5218007329
 40
0.6470967759
 40
0.7684766562
 40
0.8859116878
 40
1.0
 40
1.0
 40
1.0
 40
1.0
 10
-25.651820021
 20
270.2632715459
 30
0.0
 10
-25.8002586458
 20
271.0949816657
 30
0.0
 10
-25.8110328851
 20
272.392263901
 30
0.0
 10
-25.4109177501
 20
274.0301637518
 30
0.0
 10
-24.9153188151
 20
275.1735693568
 30
0.0
 10
-24.2420321167
 20
276.1855125509
 30
0.0
 10
-23.4152747703
 20
277.028058622
 30
0.0
 10
-22.4660220549
 20
277.6675787632
 30
0.0
 10
-21.7657510067
 20
277.9444712299
 30
0.0
 10
-21.4107979132
 20
278.0396183527
 30
0.0
  0
SPLINE
  5
3CA
100
AcDbEntity
  8
0
100
AcDbSpline
 62
7
  6
CONTINUOUS
 70
0
 71
3
 72
20
 73
16
 74
0
 42
0.0000001
 43
0.0000001
 44
0.0000000001
 40
0.0
 40
0.0
 40
0.0
 40
0.0
 40
0.052489766
 40
0.1058815715
 40
0.1609494842
 40
0.2182470166
 40
0.2780652601
 40
0.3404327965
 40
0.47152114
 40
0.5395762246
 40
0.6083873714
 40
0.7452510336
 40
0.8121922066
 40
0.8772753151
 40
1.0
 40
1.0
 40
1.0
 40
1.0
 10
9.8248345427
 20
212.5883446388
 30
0.0
 10
8.9870908988
 20
213.0721523168
 30
0.0
 10
7.3936507507
 20
214.2264711391
 30
0.0
 10
5.3788960086
 20
216.4288130805
 30
0.0
 10
3.7766028053
 20
219.0508565604
 30
0.0
 10
2.6239795982
 20
222.0240254487
 30
0.0
 10
1.9446296232
 20
225.2757803096
 30
0.0
 10
1.6830785455
 20
229.9501998291
 30
0.0
 10
2.432704488
 20
234.7774581255
 30
0.0
 10
4.0614209805
 20
239.44843986
 30
0.0
 10
6.2804374009
 20
243.9899873385
 30
0.0
 10
9.2731967748
 20
248.0957872392
 30
0.0
 10
12.8838754829
 20
251.5078417998
 30
0.0
 10
16.6849404711
 20
254.2760779279
 30
0.0
 10
19.8937532711
 20
255.7418824006
 30
0.0
 10
22.0784975048
 20
256.3275150707
 30
0.0
  0
SPLINE
  5
3CB
100
AcDbEntity
  8
0
100
AcDbSpline
 62
7
  6
CONTINUOUS
 70
0
 71
3
 72
19
 73
15
 74
0
 42
0.0000001
 43
0.0000001
 44
0.0000000001
 40
0.0
 40
0.0
 40
0.0
 40
0.0
 40
0.127090966
 40
0.1936364397
 40
0.2614933869
 40
0.3986384656
 40
0.5339172069
 40
0.662939321
 40
0.7242879099
 40
0.7832357475
 40
0.8398714495
 40
0.8945020381
 40
0.9476471126
 40
1.0
 40
1.0
 40
1.0
 40
1.0
 10
24.9703731781
 20
214.3317992787
 30
0.0
 10
26.7997006894
 20
215.145474187
 30
0.0
 10
29.4205285614
 20
216.7915035917
 30
0.0
 10
32.4692680876
 20
219.5697397521
 30
0.0
 10
35.2851738364
 20
222.8017030395
 30
0.0
 10
38.107321202
 20
227.4151657624
 30
0.0
 10
40.1706417997
 20
233.445978925
 30
0.0
 10
40.6668182717
 20
238.6122627934
 30
0.0
 10
40.2460151774
 20
242.5287139383
 30
0.0
 10
39.5495127097
 20
245.2387231348
 30
0.0
 10
38.4795146352
 20
247.7103678485
 30
0.0
 10
37.0558817866
 20
249.890327841
 30
0.0
 10
35.3081919534
 20
251.7286735272
 30
0.0
 10
33.9459932374
 20
252.7017107731
 30
0.0
 10
33.231835898
 20
253.1142345803
 30
0.0
  0
SPLINE
  5
3CC
100
AcDbEntity
  8
0
100
AcDbSpline
 62
7
  6
CONTINUOUS
 70
0
 71
3
 72
12
 73
8
 74
0
 42
0.0000001
 43
0.0000001
 44
0.0000000001
 40
0.0
 40
0.0
 40
0.0
 40
0.0
 40
0.2628401161
 40
0.5219246848
 40
0.7679923073
 40
0.8856858454
 40
1.0
 40
1.0
 40
1.0
 40
1.0
 10
-15.1037992439
 20
266.9619408894
 30
0.0
 10
-14.9896116811
 20
266.3221414333
 30
0.0
 10
-14.9784114495
 20
265.0036497198
 30
0.0
 10
-15.5835264214
 20
263.1687692409
 30
0.0
 10
-16.5675099434
 20
261.930629457
 30
0.0
 10
-17.5543831843
 20
261.2664955022
 30
0.0
 10
-18.0931046294
 20
261.0533199771
 30
0.0
 10
-18.3661239422
 20
260.9801356534
 30
0.0
  0
SPLINE
  5
3CD
100
AcDbEntity
  8
0
100
AcDbSpline
 62
7
  6
CONTINUOUS
 70
0
 71
3
 72
14
 73
10
 74
0
 42
0.0000001
 43
0.0000001
 44
0.0000000001
 40
0.0
 40
0.0
 40
0.0
 40
0.0
 40
0.1052572763
 40
0.2157751388
 40
0.3347277135
 40
0.4624587835
 40
0.5968923192
 40
0.7343889013
 40
1.0
 40
1.0
 40
1.0
 40
1.0
 10
20.32798135
 20
210.455752517
 30
0.0
 10
20.5397283852
 20
210.3334174786
 30
0.0
 10
21.0246011186
 20
210.1624068085
 30
0.0
 10
21.8154217422
 20
210.1706052729
 30
0.0
 10
22.6158315556
 20
210.4278378945
 30
0.0
 10
23.3694063589
 20
210.9083444509
 30
0.0
 10
24.0260205082
 20
211.5761677574
 30
0.0
 10
24.7012350784
 20
212.6324048201
 30
0.0
 10
24.9583510516
 20
213.5746299351
 30
0.0
 10
24.9703731781
 20
214.1916111498
 30
0.0
  0
SPLINE
  5
3CE
100
AcDbEntity
  8
0
100
AcDbSpline
 62
7
  6
CONTINUOUS
 70
0
 71
3
 72
13
 73
9
 74
0
 42
0.0000001
 43
0.0000001
 44
0.0000000001
 40
0.0
 40
0.0
 40
0.0
 40
0.0
 40
0.1164107274
 40
0.234051279
 40
0.3539614352
 40
0.4769047712
 40
0.7322972383
 40
1.0
 40
1.0
 40
1.0
 40
1.0
 10
-8.0586037271
 20
195.0228289057
 30
0.0
 10
-8.3572890654
 20
195.0368850182
 30
0.0
 10
-8.9566418466
 20
195.1239044073
 30
0.0
 10
-9.8197028667
 20
195.4259274287
 30
0.0
 10
-10.6264633503
 20
195.8911475024
 30
0.0
 10
-11.6090951453
 20
196.7201870616
 30
0.0
 10
-12.5840034263
 20
198.1002573747
 30
0.0
 10
-13.0043465932
 20
199.398753317
 30
0.0
 10
-13.1251613968
 20
200.0756855834
 30
0.0
  0
SPLINE
  5
3CF
100
AcDbEntity
  8
0
100
AcDbSpline
 62
7
  6
CONTINUOUS
 70
0
 71
3
 72
11
 73
7
 74
0
 42
0.0000001
 43
0.0000001
 44
0.0000000001
 40
0.0
 40
0.0
 40
0.0
 40
0.0
 40
0.2437277177
 40
0.4900856645
 40
0.7415573497
 40
1.0
 40
1.0
 40
1.0
 40
1.0
 10
10.9251544601
 20
214.4933916128
 30
0.0
 10
11.5276679426
 20
214.145370092
 30
0.0
 10
12.7986314086
 20
213.5433430216
 30
0.0
 10
14.8405773602
 20
212.9529950046
 30
0.0
 10
16.9906610419
 20
212.6814335679
 30
0.0
 10
18.4518674345
 20
212.7143378825
 30
0.0
 10
19.1866218315
 20
212.7814330198
 30
0.0
  0
SPLINE
  5
3D0
100
AcDbEntity
  8
0
100
AcDbSpline
 62
7
  6
CONTINUOUS
 70
0
 71
3
 72
11
 73
7
 74
0
 42
0.0000001
 43
0.0000001
 44
0.0000000001
 40
0.0
 40
0.0
 40
0.0
 40
0.0
 40
0.234528167
 40
0.4789299116
 40
0.7346579947
 40
1.0
 40
1.0
 40
1.0
 40
1.0
 10
-7.650396883
 20
212.1962332097
 30
0.0
 10
-7.2776532676
 20
212.0787385989
 30
0.0
 10
-6.5512366489
 20
211.7133832633
 30
0.0
 10
-5.6559106294
 20
210.8555677774
 30
0.0
 10
-4.994749719
 20
209.7486473728
 30
0.0
 10
-4.7426056723
 20
208.9075796828
 30
0.0
 10
-4.6649170571
 20
208.4722859206
 30
0.0
  0
SPLINE
  5
3D1
100
AcDbEntity
  8
0
100
AcDbSpline
 62
7
  6
CONTINUOUS
 70
0
 71
3
 72
9
 73
5
 74
0
 42
0.0000001
 43
0.0000001
 44
0.0000000001
 40
0.0
 40
0.0
 40
0.0
 40
0.0
 40
0.2366137403
 40
1.0
 40
1.0
 40
1.0
 40
1.0
 10
-2.535965206
 20
279.9187914752
 30
0.0
 10
-2.478183469
 20
279.907116241
 30
0.0
 10
-2.2363259624
 20
279.8461897217
 30
0.0
 10
-2.0066302971
 20
279.7416903221
 30
0.0
 10
-1.8419386956
 20
279.6465675117
 30
0.0
  0
SPLINE
  5
3D2
100
AcDbEntity
  8
0
100
AcDbSpline
 62
7
  6
CONTINUOUS
 70
0
 71
3
 72
9
 73
5
 74
0
 42
0.0000001
 43
0.0000001
 44
0.0000000001
 40
0.0
 40
0.0
 40
0.0
 40
0.0
 40
0.2344474243
 40
1.0
 40
1.0
 40
1.0
 40
1.0
 10
-1.8419386956
 20
279.6465675117
 30
0.0
 10
-1.7774493
 20
279.6093196345
 30
0.0
 10
-1.5085278144
 20
279.4398249496
 30
0.0
 10
-1.2643559087
 20
279.2327686032
 30
0.0
 10
-1.0911566265
 20
279.0620662372
 30
0.0
  0
SPLINE
  5
3D3
100
AcDbEntity
  8
0
100
AcDbSpline
 62
7
  6
CONTINUOUS
 70
0
 71
3
 72
9
 73
5
 74
0
 42
0.0000001
 43
0.0000001
 44
0.0000000001
 40
0.0
 40
0.0
 40
0.0
 40
0.0
 40
0.2597811459
 40
1.0
 40
1.0
 40
1.0
 40
1.0
 10
-1.8419386951
 20
272.7515579109
 30
0.0
 10
-1.8278489736
 20
272.7434199494
 30
0.0
 10
-1.7728991675
 20
272.713364077
 30
0.0
 10
-1.714982793
 20
272.6885788569
 30
0.0
 10
-1.6709117514
 20
272.6741832388
 30
0.0
  0
SPLINE
  5
3D4
100
AcDbEntity
  8
0
100
AcDbSpline
 62
7
  6
CONTINUOUS
 70
0
 71
3
 72
9
 73
5
 74
0
 42
0.0000001
 43
0.0000001
 44
0.0000000001
 40
0.0
 40
0.0
 40
0.0
 40
0.0
 40
0.2559329879
 40
1.0
 40
1.0
 40
1.0
 40
1.0
 10
-1.6709117514
 20
272.6741832388
 30
0.0
 10
-1.6613509654
 20
272.6710602487
 30
0.0
 10
-1.6237647624
 20
272.6595805155
 30
0.0
 10
-1.5852466943
 20
272.6510859247
 30
0.0
 10
-1.5563295874
 20
272.6467450308
 30
0.0
  0
SPLINE
  5
3D5
100
AcDbEntity
  8
0
100
AcDbSpline
 62
7
  6
CONTINUOUS
 70
0
 71
3
 72
12
 73
8
 74
0
 42
0.0000001
 43
0.0000001
 44
0.0000000001
 40
0.0
 40
0.0
 40
0.0
 40
0.0
 40
0.2679717915
 40
0.5235996096
 40
0.7657264731
 40
0.8834729015
 40
1.0
 40
1.0
 40
1.0
 40
1.0
 10
-3.7010897815
 20
208.4269592205
 30
0.0
 10
-3.7940283885
 20
208.9476995602
 30
0.0
 10
-4.1182940691
 20
209.9469598177
 30
0.0
 10
-5.0024228723
 20
211.202250673
 30
0.0
 10
-6.0153043769
 20
211.9241018056
 30
0.0
 10
-6.9075698034
 20
212.2359433312
 30
0.0
 10
-7.3686743208
 20
212.3029700176
 30
0.0
 10
-7.5984415597
 20
212.3137772997
 30
0.0
  0
SPLINE
  5
3D6
100
AcDbEntity
  8
0
100
AcDbSpline
 62
7
  6
CONTINUOUS
 70
0
 71
3
 72
11
 73
7
 74
0
 42
0.0000001
 43
0.0000001
 44
0.0000000001
 40
0.0
 40
0.0
 40
0.0
 40
0.0
 40
0.242432369
 40
0.4953013569
 40
0.7506590259
 40
1.0
 40
1.0
 40
1.0
 40
1.0
 10
-3.6343112795
 20
227.8635711151
 30
0.0
 10
-3.6343112795
 20
230.5256540513
 30
0.0
 10
-2.9208947529
 20
235.9798761717
 30
0.0
 10
-0.0304746427
 20
243.7651248146
 30
0.0
 10
4.4786149556
 20
250.8276060044
 30
0.0
 10
8.435595176
 20
254.7874555555
 30
0.0
 10
10.5891412368
 20
256.4781888363
 30
0.0
  0
SPLINE
  5
3D7
100
AcDbEntity
  8
0
100
AcDbSpline
 62
7
  6
CONTINUOUS
 70
0
 71
3
 72
11
 73
7
 74
0
 42
0.0000001
 43
0.0000001
 44
0.0000000001
 40
0.0
 40
0.0
 40
0.0
 40
0.0
 40
0.2341347689
 40
0.4778816257
 40
0.7330362388
 40
1.0
 40
1.0
 40
1.0
 40
1.0
 10
1.6388099656
 20
212.3521155794
 30
0.0
 10
0.780157079
 20
213.3344223067
 30
0.0
 10
-0.7612344933
 20
215.5327324524
 30
0.0
 10
-2.4174069327
 20
219.2915943559
 30
0.0
 10
-3.4209051854
 20
223.460556479
 30
0.0
 10
-3.6343112795
 20
226.3759472595
 30
0.0
 10
-3.6343112795
 20
227.8635711151
 30
0.0
  0
SPLINE
  5
3D8
100
AcDbEntity
  8
0
100
AcDbSpline
 62
7
  6
CONTINUOUS
 70
0
 71
3
 72
16
 73
12
 74
0
 42
0.0000001
 43
0.0000001
 44
0.0000000001
 40
0.0
 40
0.0
 40
0.0
 40
0.0
 40
0.2731818852
 40
0.4091139816
 40
0.5405551101
 40
0.6654732784
 40
0.7829513245
 40
0.8391314583
 40
0.8937982346
 40
0.9472930047
 40
1.0
 40
1.0
 40
1.0
 40
1.0
 10
9.4859319349
 20
249.9444395714
 30
0.0
 10
6.9287491396
 20
247.304497222
 30
0.0
 10
3.7813199795
 20
242.6108291572
 30
0.0
 10
1.3880588603
 20
235.7171632469
 30
0.0
 10
0.5742467057
 20
230.4681397853
 30
0.0
 10
0.7938477953
 20
225.4088525125
 30
0.0
 10
1.858561035
 20
221.4916428239
 30
0.0
 10
3.2192725001
 20
218.7288811576
 30
0.0
 10
4.4562792907
 20
216.8875015217
 30
0.0
 10
5.9087042463
 20
215.2733639609
 30
0.0
 10
7.013990104
 20
214.3581184869
 30
0.0
 10
7.5925421175
 20
213.9480838321
 30
0.0
  0
SPLINE
  5
3D9
100
AcDbEntity
  8
0
100
AcDbSpline
 62
7
  6
CONTINUOUS
 70
0
 71
3
 72
9
 73
5
 74
0
 42
0.0000001
 43
0.0000001
 44
0.0000000001
 40
0.0
 40
0.0
 40
0.0
 40
0.0
 40
0.4898614451
 40
1.0
 40
1.0
 40
1.0
 40
1.0
 10
-7.1814488348
 20
279.816239308
 30
0.0
 10
-6.4436059501
 20
280.0140093006
 30
0.0
 10
-4.8817841519
 20
280.2314430508
 30
0.0
 10
-3.3157151126
 20
280.0763458037
 30
0.0
 10
-2.535965206
 20
279.9187914752
 30
0.0
  0
SPLINE
  5
3DA
100
AcDbEntity
  8
0
100
AcDbSpline
 62
7
  6
CONTINUOUS
 70
0
 71
3
 72
12
 73
8
 74
0
 42
0.0000001
 43
0.0000001
 44
0.0000000001
 40
0.0
 40
0.0
 40
0.0
 40
0.0
 40
0.1143141546
 40
0.2320076927
 40
0.4780753152
 40
0.7371598839
 40
1.0
 40
1.0
 40
1.0
 40
1.0
 10
-17.4022966667
 20
260.9348089533
 30
0.0
 10
-17.1292773539
 20
261.0079932769
 30
0.0
 10
-16.5905559088
 20
261.221168802
 30
0.0
 10
-15.6036826679
 20
261.8853027568
 30
0.0
 10
-14.6196991459
 20
263.1234425407
 30
0.0
 10
-14.0145841739
 20
264.9583230196
 30
0.0
 10
-14.0257844055
 20
266.2768147331
 30
0.0
 10
-14.1399719683
 20
266.9166141893
 30
0.0
  0
SPLINE
  5
3DB
100
AcDbEntity
  8
0
100
AcDbSpline
 62
7
  6
CONTINUOUS
 70
0
 71
3
 72
9
 73
5
 74
0
 42
0.0000001
 43
0.0000001
 44
0.0000000001
 40
0.0
 40
0.0
 40
0.0
 40
0.0
 40
0.4977787941
 40
1.0
 40
1.0
 40
1.0
 40
1.0
 10
3.0112478149
 20
253.6840878634
 30
0.0
 10
1.7480505167
 20
252.3799814443
 30
0.0
 10
-0.5584844184
 20
249.527812831
 30
0.0
 10
-2.3479364416
 20
246.3269183917
 30
0.0
 10
-3.1018143909
 20
244.6574489867
 30
0.0
  0
SPLINE
  5
3DC
100
AcDbEntity
  8
0
100
AcDbSpline
 62
7
  6
CONTINUOUS
 70
0
 71
3
 72
9
 73
5
 74
0
 42
0.0000001
 43
0.0000001
 44
0.0000000001
 40
0.0
 40
0.0
 40
0.0
 40
0.0
 40
0.5102285424
 40
1.0
 40
1.0
 40
1.0
 40
1.0
 10
-3.1018143909
 20
244.6574489867
 30
0.0
 10
-1.7013697435
 20
247.7587460812
 30
0.0
 10
0.4571062544
 20
254.1214807086
 30
0.0
 10
1.2546467718
 20
260.8052067287
 30
0.0
 10
1.2546467718
 20
264.071608985
 30
0.0
  0
SPLINE
  5
3DD
100
AcDbEntity
  8
0
100
AcDbSpline
 62
7
  6
CONTINUOUS
 70
0
 71
3
 72
17
 73
13
 74
0
 42
0.0000001
 43
0.0000001
 44
0.0000000001
 40
0.0
 40
0.0
 40
0.0
 40
0.0
 40
0.0394125775
 40
0.0811217338
 40
0.126880819
 40
0.1777298233
 40
0.2954028867
 40
0.4319333202
 40
0.5800819531
 40
0.7304383759
 40
0.8732244342
 40
1.0
 40
1.0
 40
1.0
 40
1.0
 10
-2.3597670017
 20
276.5220216819
 30
0.0
 10
-2.4102126703
 20
276.5085023398
 30
0.0
 10
-2.5103789143
 20
276.4648443042
 30
0.0
 10
-2.641409892
 20
276.3567041617
 30
0.0
 10
-2.7526782059
 20
276.2093152711
 30
0.0
 10
-2.878348967
 20
275.9532231251
 30
0.0
 10
-2.9680463892
 20
275.5538847667
 30
0.0
 10
-2.9758049509
 20
275.018299969
 30
0.0
 10
-2.8883215647
 20
274.4460052539
 30
0.0
 10
-2.7127044644
 20
273.8857751545
 30
0.0
 10
-2.4642584514
 20
273.3854199837
 30
0.0
 10
-2.2472800273
 20
273.0972701363
 30
0.0
 10
-2.1289223022
 20
272.9780541975
 30
0.0
  0
SPLINE
  5
3DE
100
AcDbEntity
  8
0
100
AcDbSpline
 62
7
  6
CONTINUOUS
 70
0
 71
3
 72
9
 73
5
 74
0
 42
0.0000001
 43
0.0000001
 44
0.0000000001
 40
0.0
 40
0.0
 40
0.0
 40
0.0
 40
0.2668760426
 40
1.0
 40
1.0
 40
1.0
 40
1.0
 10
-2.1289223022
 20
272.9780541975
 30
0.0
 10
-2.1059727562
 20
272.954938244
 30
0.0
 10
-2.0176528715
 20
272.8707468339
 30
0.0
 10
-1.919423867
 20
272.7963119071
 30
0.0
 10
-1.8419386951
 20
272.7515579109
 30
0.0
  0
ELLIPSE
  5
3DF
100
AcDbEntity
  8
0
100
AcDbEllipse
 62
7
  6
CONTINUOUS
 10
-21.3585562365
 20
266.739296823
 30
0.0
 11
-0.0205533054
 21
1.7815272725
 31
0.0
 40
0.8071250907
 41
3.7019953766
 42
4.8317553207
  0
ELLIPSE
  5
3E0
100
AcDbEntity
  8
0
100
AcDbEllipse
 62
7
  6
CONTINUOUS
 10
-10.9196740497
 20
208.2496418542
 30
0.0
 11
-0.0205533054
 21
1.7815272725
 31
0.0
 40
0.8071250907
 41
3.7019953766
 42
4.8317553207
  0
ELLIPSE
  5
3E1
100
AcDbEntity
  8
0
100
AcDbEllipse
 62
7
  6
CONTINUOUS
 10
-19.1681948224
 20
265.474184749
 30
0.0
 11
-0.0205533054
 21
1.7815272725
 31
0.0
 40
0.8071250907
 41
0.0
 42
6.2831853072
  0
ELLIPSE
  5
3E2
100
AcDbEntity
  8
0
100
AcDbEllipse
 62
7
  6
CONTINUOUS
 10
-8.7293126356
 20
206.9845297802
 30
0.0
 11
-0.0205533054
 21
1.7815272725
 31
0.0
 40
0.8071250907
 41
0.0
 42
6.2831853072
  0
ELLIPSE
  5
3E3
100
AcDbEntity
  8
0
100
AcDbEllipse
 62
7
  6
CONTINUOUS
 10
-43.5734597591
 20
262.0085506153
 30
0.0
 11
-0.4839111306
 21
41.9446341329
 31
0.0
 40
0.8071250907
 41
-1.8864491596
 42
-1.367250466
  0
ELLIPSE
  5
3E4
100
AcDbEntity
  8
0
100
AcDbEllipse
 62
7
  6
CONTINUOUS
 10
8.5621629318
 20
241.6106008696
 30
0.0
 11
-0.2963955675
 21
25.6910884064
 31
0.0
 40
0.8071250907
 41
1.255143494
 42
2.4718325706
  0
ENDSEC
  0
SECTION
  2
OBJECTS
  0
DICTIONARY
  5
C
100
AcDbDictionary
280
0
281
1
  3
ACAD_GROUP
350
D
  3
ACAD_MLINESTYLE
350
17
  3
ACAD_LAYOUT
350
1A
  3
ACAD_PLOTSETTINGS
350
19
  3
ACAD_PLOTSTYLENAME
350
E
  0
DICTIONARY
  5
D
102
{ACAD_REACTORS
330
C
102
}
100
AcDbDictionary
280
0
281
1
  0
ACDBDICTIONARYWDFLT
  5
E
102
{ACAD_REACTORS
330
C
102
}
100
AcDbDictionary
281
1
  3
Normal
350
F
100
AcDbDictionaryWithDefault
340
F
  0
DICTIONARY
  5
17
102
{ACAD_REACTORS
330
C
102
}
100
AcDbDictionary
280
0
281
1
  3
Standard
350
18
  0
DICTIONARY
  5
19
102
{ACAD_REACTORS
330
C
102
}
100
AcDbDictionary
281
1
  0
DICTIONARY
  5
1A
102
{ACAD_REACTORS
330
C
102
}
100
AcDbDictionary
281
1
  3
Model
350
3E5
  3
Layout1
350
3E6
  0
ACDBPLACEHOLDER
  5
F
102
{ACAD_REACTORS
330
E
102
}
  0
MLINESTYLE
  5
18
102
{ACAD_REACTORS
330
17
102
}
100
AcDbMlineStyle
  2
STANDARD
 70
0
  3

 62
256
 51
90.0
 52
90.0
 71
2
 49
0.5
 62
256
  6
BYLAYER
 49
-0.5
 62
256
  6
BYLAYER
  0
LAYOUT
  5
3E5
102
{ACAD_REACTORS
330
1A
102
}
100
AcDbPlotSettings
  1

  2
none_device
  4
ANSI_C_(22.00_x_17.00_Inches)
  6

 40
0.0
 41
0.0
 42
0.0
 43
0.0
 44
558.8
 45
431.8
 46
0.0
 47
0.0
 48
0.0
 49
0.0
140
0.0
141
0.0
142
1.0
143
1.0
 70
1024
 72
1
 73
0
 74
0
  7

 75
0
147
1.0
148
0.0
149
0.0
100
AcDbLayout
  1
Model
 70
0
 71
0
 10
0.0
 20
0.0
 11
558.8
 21
431.8
 12
0.0
 22
0.0
 32
0.0
 14
0.0
 24
0.0
 34
0.0
 15
0.0
 25
0.0
 35
0.0
146
0.0
 13
0.0
 23
0.0
 33
0.0
 16
1.0
 26
0.0
 36
0.0
 17
0.0
 27
1.0
 37
0.0
 76
0
330
216
345
0
346
0
  0
LAYOUT
  5
3E6
102
{ACAD_REACTORS
330
1A
102
}
100
AcDbPlotSettings
  1

  2
none_device
  4
ANSI_C_(22.00_x_17.00_Inches)
  6

 40
0.0
 41
0.0
 42
0.0
 43
0.0
 44
558.8
 45
431.8
 46
0.0
 47
0.0
 48
0.0
 49
0.0
140
0.0
141
0.0
142
1.0
143
1.0
 70
0
 72
1
 73
0
 74
0
  7

 75
0
147
1.0
148
0.0
149
0.0
100
AcDbLayout
  1
Layout1
 70
0
 71
1
 10
0.0
 20
0.0
 11
558.8
 21
431.8
 12
0.0
 22
0.0
 32
0.0
 14
0.0
 24
0.0
 34
0.0
 15
0.0
 25
0.0
 35
0.0
146
0.0
 13
0.0
 23
0.0
 33
0.0
 16
1.0
 26
0.0
 36
0.0
 17
0.0
 27
1.0
 37
0.0
 76
0
330
217
345
0
346
0
  0
ENDSEC
  0
EOF
