999
DXF file: Y:\3D PRATIKA-KAEDRA_OLGA\TRAVAIL_PHASE_5\CAD3D\PKF16F734_3D-Simplified\pkf16f734_2d-isometric.dxf
999
Pro/ENGINEER 2018260 by Parametric Technology Corporation
  0
SECTION
  2
HEADER
  9
$ACADVER
  1
AC1027
  9
$DWGCODEPAGE
  3
ANSI_1252
  9
$EXTMAX
 10
558.8
 20
431.8
 30
0.0
  9
$EXTMIN
 10
0.0
 20
0.0
 30
0.0
  9
$LIMMIN
 10
0.0
 20
0.0
  9
$LIMMAX
 10
558.8
 20
431.8
  9
$VIEWCTR
 10
279.4
 20
215.9
  9
$VIEWSIZE
 40
431.8
  9
$CLAYER
  8
0
  9
$LTSCALE
 40
30.734
  9
$CELTYPE
  6
BYLAYER
  9
$DIMSCALE
 40
1.0
  9
$DIMASZ
 40
0.1875
  9
$DIMEXO
 40
0.0625
  9
$DIMDLI
 40
21.2344
  9
$DIMEXE
 40
0.125
  9
$DIMCEN
 40
5.0292
  9
$DIMLFAC
 40
1.0
  9
$DIMBLK
  1
_CLOSED
  9
$DIMALT
 70
0
  9
$DIMALTF
 40
0.0393700787
  9
$DIMTXT
 40
0.15625
  9
$DIMTOL
 70
0
  9
$DIMLIM
 70
0
  9
$DIMTFAC
 40
1.0
  9
$DIMGAP
 40
0.625
  9
$DIMDSEP
 70
46
  9
$AUNITS
 70
0
  9
$PDMODE
 70
3
  9
$PDSIZE
 40
0.3125
  9
$HANDSEED
  5
3E7
  9
$TILEMODE
 70
1
  9
$MEASUREMENT
 70
1
  9
$INSUNITS
 70
4
  0
ENDSEC
  0
SECTION
  2
CLASSES
  0
CLASS
  1
ACDBDICTIONARYWDFLT
  2
AcDbDictionaryWithDefault
  3
AutoCAD 2000
 90
0
 91
1
280
0
281
0
  0
CLASS
  1
ACDBPLACEHOLDER
  2
AcDbPlaceHolder
  3
AutoCAD 2000
 90
0
 91
1
280
0
281
0
  0
CLASS
  1
LAYOUT
  2
AcDbLayout
  3
AutoCAD 2000
 90
0
 91
0
280
0
281
0
  0
ENDSEC
  0
SECTION
  2
TABLES
  0
TABLE
  2
VPORT
  5
8
100
AcDbSymbolTable
 70
2
  0
VPORT
  5
1F4
100
AcDbSymbolTableRecord
100
AcDbViewportTableRecord
  2
*ACTIVE
 70
0
 10
0.0
 20
0.0
 11
1.0
 21
1.0
 12
279.4
 22
215.9
 13
0.0
 23
0.0
 14
1.0
 24
1.0
 15
0.0
 25
0.0
 16
0.0
 26
0.0
 36
1.0
 17
0.0
 27
0.0
 37
0.0
 40
431.8
 41
1.2941176471
 42
50.0
 43
0.0
 44
0.0
 50
0.0
 51
0.0
 71
0
 72
100
 73
1
 74
1
 75
0
 76
0
 77
0
 78
0
  0
ENDTAB
  0
TABLE
  2
LTYPE
  5
5
100
AcDbSymbolTable
 70
6
  0
LTYPE
  5
14
100
AcDbSymbolTableRecord
100
AcDbLinetypeTableRecord
  2
BYBLOCK
 70
0
  3

 72
65
 73
0
 40
0.0
  0
LTYPE
  5
15
100
AcDbSymbolTableRecord
100
AcDbLinetypeTableRecord
  2
BYLAYER
 70
0
  3

 72
65
 73
0
 40
0.0
  0
LTYPE
  5
16
100
AcDbSymbolTableRecord
100
AcDbLinetypeTableRecord
  2
CONTINUOUS
 70
64
  3
Solid line
 72
65
 73
0
 40
0.0
  0
LTYPE
  5
1F5
100
AcDbSymbolTableRecord
100
AcDbLinetypeTableRecord
  2
CENTER
 70
64
  3
____ _ ____ _ ____ _ ____ _ ____ _ ____ _ ____
 72
65
 73
4
 40
0.6
 49
0.375
 74
0
 49
-0.075
 74
0
 49
0.075
 74
0
 49
-0.075
 74
0
  0
LTYPE
  5
1F6
100
AcDbSymbolTableRecord
100
AcDbLinetypeTableRecord
  2
HIDDEN
 70
64
  3
- - - - - - - - - - - - - - - - - - - -
 72
65
 73
2
 40
0.2
 49
0.1
 74
0
 49
-0.1
 74
0
  0
LTYPE
  5
1F7
100
AcDbSymbolTableRecord
100
AcDbLinetypeTableRecord
  2
PHANTOM
 70
64
  3
_____ _ _ _____ _ _ _____ _ _ _____
 72
65
 73
6
 40
0.8
 49
0.45
 74
0
 49
-0.05
 74
0
 49
0.1
 74
0
 49
-0.05
 74
0
 49
0.1
 74
0
 49
-0.05
 74
0
  0
LTYPE
  5
1F8
100
AcDbSymbolTableRecord
100
AcDbLinetypeTableRecord
  2
DOT
 70
64
  3
. . . . . . . . . . . . . . . . . . . .
 72
65
 73
2
 40
0.2
 49
0.1
 74
0
 49
-0.1
 74
0
  0
LTYPE
  5
1F9
100
AcDbSymbolTableRecord
100
AcDbLinetypeTableRecord
  2
DASHED
 70
64
  3
- - - - - - - - - - - - - - - - - - - -
 72
65
 73
2
 40
0.2
 49
0.1
 74
0
 49
-0.1
 74
0
  0
ENDTAB
  0
TABLE
  2
LAYER
  5
2
100
AcDbSymbolTable
 70
36
  0
LAYER
  5
10
100
AcDbSymbolTableRecord
100
AcDbLayerTableRecord
  2
0
 70
0
 62
7
  6
CONTINUOUS
370
-3
390
F
  0
LAYER
  5
1FA
100
AcDbSymbolTableRecord
100
AcDbLayerTableRecord
  2
DEFAULT_1
 70
0
 62
7
  6
CENTER
370
-3
390
F
  0
LAYER
  5
1FB
100
AcDbSymbolTableRecord
100
AcDbLayerTableRecord
  2
DEFAULT_2
 70
0
 62
8
  6
HIDDEN
370
-3
390
F
  0
LAYER
  5
1FC
100
AcDbSymbolTableRecord
100
AcDbLayerTableRecord
  2
DEFAULT_3
 70
0
 62
7
  6
PHANTOM
370
-3
390
F
  0
LAYER
  5
1FD
100
AcDbSymbolTableRecord
100
AcDbLayerTableRecord
  2
01_ALL_DTM_PLN
 70
0
 62
7
  6
CONTINUOUS
370
-3
390
F
  0
LAYER
  5
1FE
100
AcDbSymbolTableRecord
100
AcDbLayerTableRecord
  2
01__ASM_ALL_DTM_PLN
 70
0
 62
7
  6
CONTINUOUS
370
-3
390
F
  0
LAYER
  5
1FF
100
AcDbSymbolTableRecord
100
AcDbLayerTableRecord
  2
01__ASM_DEF_DTM_PLN
 70
0
 62
7
  6
CONTINUOUS
370
-3
390
F
  0
LAYER
  5
200
100
AcDbSymbolTableRecord
100
AcDbLayerTableRecord
  2
01___PRT_ALL_DTM_PLN
 70
0
 62
7
  6
CONTINUOUS
370
-3
390
F
  0
LAYER
  5
201
100
AcDbSymbolTableRecord
100
AcDbLayerTableRecord
  2
01___PRT_DEF_DTM_PLN
 70
0
 62
7
  6
CONTINUOUS
370
-3
390
F
  0
LAYER
  5
202
100
AcDbSymbolTableRecord
100
AcDbLayerTableRecord
  2
02_ALL_AXES
 70
0
 62
7
  6
CONTINUOUS
370
-3
390
F
  0
LAYER
  5
203
100
AcDbSymbolTableRecord
100
AcDbLayerTableRecord
  2
02__ASM_ALL_AXES
 70
0
 62
7
  6
CONTINUOUS
370
-3
390
F
  0
LAYER
  5
204
100
AcDbSymbolTableRecord
100
AcDbLayerTableRecord
  2
02___PRT_ALL_AXES
 70
0
 62
7
  6
CONTINUOUS
370
-3
390
F
  0
LAYER
  5
205
100
AcDbSymbolTableRecord
100
AcDbLayerTableRecord
  2
03_ALL_CURVES
 70
0
 62
7
  6
CONTINUOUS
370
-3
390
F
  0
LAYER
  5
206
100
AcDbSymbolTableRecord
100
AcDbLayerTableRecord
  2
03__ASM_ALL_CURVES
 70
0
 62
7
  6
CONTINUOUS
370
-3
390
F
  0
LAYER
  5
207
100
AcDbSymbolTableRecord
100
AcDbLayerTableRecord
  2
03___PRT_ALL_CURVES
 70
0
 62
7
  6
CONTINUOUS
370
-3
390
F
  0
LAYER
  5
208
100
AcDbSymbolTableRecord
100
AcDbLayerTableRecord
  2
04_ALL_DTM_PNT
 70
0
 62
7
  6
CONTINUOUS
370
-3
390
F
  0
LAYER
  5
209
100
AcDbSymbolTableRecord
100
AcDbLayerTableRecord
  2
04__ASM_ALL_DTM_PNT
 70
0
 62
7
  6
CONTINUOUS
370
-3
390
F
  0
LAYER
  5
20A
100
AcDbSymbolTableRecord
100
AcDbLayerTableRecord
  2
04___PRT_ALL_DTM_PNT
 70
0
 62
7
  6
CONTINUOUS
370
-3
390
F
  0
LAYER
  5
20B
100
AcDbSymbolTableRecord
100
AcDbLayerTableRecord
  2
05_ALL_DTM_CSYS
 70
0
 62
7
  6
CONTINUOUS
370
-3
390
F
  0
LAYER
  5
20C
100
AcDbSymbolTableRecord
100
AcDbLayerTableRecord
  2
05__ASM_ALL_DTM_CSYS
 70
0
 62
7
  6
CONTINUOUS
370
-3
390
F
  0
LAYER
  5
20D
100
AcDbSymbolTableRecord
100
AcDbLayerTableRecord
  2
05__ASM_DEF_DTM_CSYS
 70
0
 62
7
  6
CONTINUOUS
370
-3
390
F
  0
LAYER
  5
20E
100
AcDbSymbolTableRecord
100
AcDbLayerTableRecord
  2
05___PRT_ALL_DTM_CSYS
 70
0
 62
7
  6
CONTINUOUS
370
-3
390
F
  0
LAYER
  5
20F
100
AcDbSymbolTableRecord
100
AcDbLayerTableRecord
  2
05___PRT_DEF_DTM_CSYS
 70
0
 62
7
  6
CONTINUOUS
370
-3
390
F
  0
LAYER
  5
210
100
AcDbSymbolTableRecord
100
AcDbLayerTableRecord
  2
06_ALL_SURFS
 70
0
 62
7
  6
CONTINUOUS
370
-3
390
F
  0
LAYER
  5
211
100
AcDbSymbolTableRecord
100
AcDbLayerTableRecord
  2
06__ASM_ALL_SURFS
 70
0
 62
7
  6
CONTINUOUS
370
-3
390
F
  0
LAYER
  5
212
100
AcDbSymbolTableRecord
100
AcDbLayerTableRecord
  2
06___PRT_ALL_SURFS
 70
0
 62
7
  6
CONTINUOUS
370
-3
390
F
  0
LAYER
  5
213
100
AcDbSymbolTableRecord
100
AcDbLayerTableRecord
  2
07__ASM_ALL_SKELETONS
 70
0
 62
7
  6
CONTINUOUS
370
-3
390
F
  0
ENDTAB
  0
TABLE
  2
STYLE
  5
3
100
AcDbSymbolTable
 70
1
  0
STYLE
  5
11
100
AcDbSymbolTableRecord
100
AcDbTextStyleTableRecord
  2
STANDARD
 70
0
 40
0.0
 41
0.8
 50
0.0
 71
0
 42
0.2
  3
txt
  4

  0
STYLE
  5
214
100
AcDbSymbolTableRecord
100
AcDbTextStyleTableRecord
  2
TEXTSTYLE_1
 70
0
 40
0.0
 41
0.8
 50
0.0
 71
0
 42
0.2
  3
gdt
  4

  0
ENDTAB
  0
TABLE
  2
VIEW
  5
6
100
AcDbSymbolTable
 70
0
  0
ENDTAB
  0
TABLE
  2
UCS
  5
7
100
AcDbSymbolTable
 70
0
  0
ENDTAB
  0
TABLE
  2
APPID
  5
9
100
AcDbSymbolTable
 70
1
  0
APPID
  5
215
100
AcDbSymbolTableRecord
100
AcDbRegAppTableRecord
  2
ACAD
 70
0
  0
ENDTAB
  0
TABLE
  2
BLOCK_RECORD
  5
1
100
AcDbSymbolTable
 70
0
  0
BLOCK_RECORD
  5
216
100
AcDbSymbolTableRecord
100
AcDbBlockTableRecord
  2
*Model_Space
  0
BLOCK_RECORD
  5
217
100
AcDbSymbolTableRecord
100
AcDbBlockTableRecord
  2
*Paper_Space
  0
BLOCK_RECORD
  5
218
100
AcDbSymbolTableRecord
100
AcDbBlockTableRecord
  2
_CLOSED
  0
ENDTAB
  0
TABLE
  2
DIMSTYLE
  5
A
100
AcDbSymbolTable
 70
1
100
AcDbDimStyleTable
 71
0
  0
DIMSTYLE
105
219
100
AcDbSymbolTableRecord
100
AcDbDimStyleTableRecord
  2
STANDARD
 70
0
  3

  4

 40
1.0
 41
0.1875
 42
0.0625
 43
0.38
 44
0.125
 45
0.0
 46
0.0
 47
0.01
 48
0.01
140
0.15625
141
0.09
142
0.0
143
25.4
144
1.0
145
0.0
146
1.0
147
0.625
 71
0.0
 72
0.0
 73
1
 74
1
 75
0
 76
0
 77
0
 78
8
 79
2
170
0
171
1
172
0
173
0
174
0
175
0
176
0
177
0
178
0
270
2
179
2
271
2
272
2
273
2
274
2
275
0
280
0
281
0
282
0
283
1
284
8
285
0
286
0
287
3
288
0
340
11
278
46
341
218
342
218
343
218
344
218
  0
ENDTAB
  0
ENDSEC
  0
SECTION
  2
BLOCKS
  0
BLOCK
  5
20
100
AcDbEntity
  8
0
100
AcDbBlockBegin
  2
*Model_Space
 70
0
 10
0.0
 20
0.0
 30
0.0
  3
*Model_Space
  1

  0
ENDBLK
  5
21
100
AcDbEntity
  8
0
100
AcDbBlockEnd
  0
BLOCK
  5
1C
100
AcDbEntity
  8
0
100
AcDbBlockBegin
  2
*Paper_Space
 70
0
 10
0.0
 20
0.0
 30
0.0
  3
*Paper_Space
  1

  0
ENDBLK
  5
1D
100
AcDbEntity
  8
0
100
AcDbBlockEnd
  0
BLOCK
  5
21A
100
AcDbEntity
  8
0
100
AcDbBlockBegin
  2
_CLOSED
 70
64
 10
0.0
 20
0.0
  3
_CLOSED
  1

  0
LINE
  5
21B
100
AcDbEntity
  8
0
  6
BYBLOCK
 62
0
100
AcDbLine
 10
0.0
 20
0.0
 11
-1.0
 21
0.1666666667
  0
LINE
  5
21C
100
AcDbEntity
  8
0
  6
BYBLOCK
 62
0
100
AcDbLine
 10
-1.0
 20
0.1666666667
 11
-1.0
 21
-0.1666666667
  0
LINE
  5
21D
100
AcDbEntity
  8
0
  6
BYBLOCK
 62
0
100
AcDbLine
 10
-1.0
 20
-0.1666666667
 11
0.0
 21
0.0
  0
LINE
  5
21E
100
AcDbEntity
  8
0
  6
BYBLOCK
 62
0
100
AcDbLine
 10
-1.0
 20
0.0
 11
0.0
 21
0.0
  0
ENDBLK
  5
21F
100
AcDbEntity
  8
0
  6
BYBLOCK
 62
0
100
AcDbBlockEnd
  0
ENDSEC
  0
SECTION
  2
ENTITIES
  0
LWPOLYLINE
  5
220
100
AcDbEntity
  8
0
100
AcDbPolyline
 62
7
  6
CONTINUOUS
 90
4
 70
0
 10
-16.2333304667
 20
299.6540504543
 10
-16.317038454
 20
299.6285083135
 10
-17.105027706
 20
298.8436396339
 10
-17.5382582264
 20
297.6379485119
  0
LWPOLYLINE
  5
221
100
AcDbEntity
  8
0
100
AcDbPolyline
 62
7
  6
CONTINUOUS
 90
5
 70
0
 10
-18.5021121037
 20
288.2287749289
 10
-19.1922810859
 20
287.9658482439
 10
-20.2579069805
 20
287.0345798887
 10
-20.8927478147
 20
285.4748986493
 10
-21.0163709555
 20
284.2206531094
  0
LINE
  5
222
100
AcDbEntity
  8
0
100
AcDbLine
 62
7
  6
CONTINUOUS
 10
-12.0140316358
 20
302.9724851248
 11
-12.0032273303
 21
302.9834067565
  0
LINE
  5
223
100
AcDbEntity
  8
0
100
AcDbLine
 62
7
  6
CONTINUOUS
 10
-12.0304800238
 20
302.9751082542
 11
-12.0192750282
 21
302.9859724276
  0
LINE
  5
224
100
AcDbEntity
  8
0
100
AcDbLine
 62
7
  6
CONTINUOUS
 10
-15.1928803401
 20
281.5315305712
 11
-15.2726641109
 21
281.4830886312
  0
LINE
  5
225
100
AcDbEntity
  8
0
100
AcDbLine
 62
7
  6
CONTINUOUS
 10
-14.7699768598
 20
281.7854778815
 11
-15.1928803401
 21
281.5315305712
  0
LINE
  5
226
100
AcDbEntity
  8
0
100
AcDbLine
 62
7
  6
CONTINUOUS
 10
40.6925529463
 20
282.4935598956
 11
40.6721618623
 21
282.4864793168
  0
LWPOLYLINE
  5
227
100
AcDbEntity
  8
0
100
AcDbPolyline
 62
7
  6
CONTINUOUS
 90
3
 70
0
 10
-15.272817461
 20
281.4829769667
 10
-17.4233355051
 20
279.6512437225
 10
-18.7470063931
 20
277.5563848887
  0
LINE
  5
228
100
AcDbEntity
  8
0
100
AcDbLine
 62
7
  6
CONTINUOUS
 10
-1.061045739
 20
282.6044330156
 11
-1.0287712217
 21
282.6242283643
  0
LINE
  5
229
100
AcDbEntity
  8
0
100
AcDbLine
 62
7
  6
CONTINUOUS
 10
1.4160831751
 20
268.5790965789
 11
1.4001863534
 21
268.564396423
  0
LINE
  5
22A
100
AcDbEntity
  8
0
100
AcDbLine
 62
7
  6
CONTINUOUS
 10
-18.0311134419
 20
206.7838053695
 11
16.6796315473
 21
216.0882108718
  0
LINE
  5
22B
100
AcDbEntity
  8
0
100
AcDbLine
 62
7
  6
CONTINUOUS
 10
-23.1271722646
 20
205.7214647478
 11
-18.9949407175
 21
206.8291320697
  0
LINE
  5
22C
100
AcDbEntity
  8
0
100
AcDbLine
 62
7
  6
CONTINUOUS
 10
16.6279061085
 20
216.37803147
 11
19.8480358255
 21
217.2412048956
  0
LINE
  5
22D
100
AcDbEntity
  8
0
100
AcDbLine
 62
7
  6
CONTINUOUS
 10
1.4150309664
 20
268.5794734106
 11
1.4001863534
 21
268.564396423
  0
LINE
  5
22E
100
AcDbEntity
  8
0
100
AcDbLine
 62
7
  6
CONTINUOUS
 10
-17.515339329
 20
220.8079205524
 11
-10.7518786924
 21
222.620903258
  0
LINE
  5
22F
100
AcDbEntity
  8
0
100
AcDbLine
 62
7
  6
CONTINUOUS
 10
-26.5445950748
 20
205.6581914388
 11
-24.5633945639
 21
205.5650198885
  0
LINE
  5
230
100
AcDbEntity
  8
0
100
AcDbLine
 62
7
  6
CONTINUOUS
 10
-18.0311134419
 20
206.7838053695
 11
-18.9949407175
 21
206.8291320697
  0
LINE
  5
231
100
AcDbEntity
  8
0
100
AcDbLine
 62
7
  6
CONTINUOUS
 10
-31.6111526904
 20
210.7110480678
 11
-29.6299521795
 21
210.6178765176
  0
LINE
  5
232
100
AcDbEntity
  8
0
100
AcDbLine
 62
7
  6
CONTINUOUS
 10
-17.5630590062
 20
297.4866966702
 11
-17.5609516907
 21
297.4969843967
  0
LINE
  5
233
100
AcDbEntity
  8
0
100
AcDbLine
 62
7
  6
CONTINUOUS
 10
-10.8736064694
 20
272.4291265631
 11
-10.909669368
 21
272.3542812301
  0
LINE
  5
234
100
AcDbEntity
  8
0
100
AcDbLine
 62
7
  6
CONTINUOUS
 10
16.3683160674
 20
267.0004587843
 11
16.3499351118
 21
266.9795381794
  0
LINE
  5
235
100
AcDbEntity
  8
0
100
AcDbLine
 62
7
  6
CONTINUOUS
 10
16.3691822188
 20
267.0001981444
 11
16.3499351118
 21
266.9795381794
  0
LINE
  5
236
100
AcDbEntity
  8
0
100
AcDbLine
 62
7
  6
CONTINUOUS
 10
50.9841096943
 20
286.6232374927
 11
50.9719320293
 21
286.6136177011
  0
LINE
  5
237
100
AcDbEntity
  8
0
100
AcDbLine
 62
7
  6
CONTINUOUS
 10
-30.5799199715
 20
221.2956532284
 11
-25.2080189601
 21
222.7356207469
  0
LINE
  5
238
100
AcDbEntity
  8
0
100
AcDbLine
 62
7
  6
CONTINUOUS
 10
-20.2058805642
 20
218.9691501547
 11
-21.1697078397
 21
219.0144768548
  0
LINE
  5
239
100
AcDbEntity
  8
0
100
AcDbLine
 62
7
  6
CONTINUOUS
 10
-30.5799199715
 20
221.2956532284
 11
-31.543747247
 21
221.3409799285
  0
LINE
  5
23A
100
AcDbEntity
  8
0
100
AcDbLine
 62
7
  6
CONTINUOUS
 10
-17.537255074
 20
297.6435330828
 11
-17.5617087
 21
297.486486415
  0
LINE
  5
23B
100
AcDbEntity
  8
0
100
AcDbLine
 62
7
  6
CONTINUOUS
 10
-17.5382183078
 20
297.6381603183
 11
-17.5498507105
 21
297.5701430095
  0
LINE
  5
23C
100
AcDbEntity
  8
0
100
AcDbLine
 62
7
  6
CONTINUOUS
 10
-17.537255028
 20
297.6435331202
 11
-17.5652190681
 21
297.4871459794
  0
LINE
  5
23D
100
AcDbEntity
  8
0
100
AcDbLine
 62
7
  6
CONTINUOUS
 10
-31.6111526904
 20
210.7110480678
 11
-44.1378113145
 21
280.8986340304
  0
LINE
  5
23E
100
AcDbEntity
  8
0
100
AcDbLine
 62
7
  6
CONTINUOUS
 10
-42.1566108036
 20
280.8054624801
 11
-40.242815736
 21
270.0823590692
  0
LINE
  5
23F
100
AcDbEntity
  8
0
100
AcDbLine
 62
7
  6
CONTINUOUS
 10
-31.543747247
 20
221.3409799285
 11
-29.6299521795
 21
210.6178765176
  0
LINE
  5
240
100
AcDbEntity
  8
0
100
AcDbLine
 62
7
  6
CONTINUOUS
 10
-39.2789884604
 20
270.037032369
 11
-30.5799199715
 21
221.2956532284
  0
LINE
  5
241
100
AcDbEntity
  8
0
100
AcDbLine
 62
7
  6
CONTINUOUS
 10
-21.016102915
 20
284.2369247471
 11
-21.0284795015
 21
282.8141996495
  0
LINE
  5
242
100
AcDbEntity
  8
0
100
AcDbLine
 62
7
  6
CONTINUOUS
 10
-21.0164791615
 20
284.2144371997
 11
-21.0162100973
 21
284.2307295199
  0
LINE
  5
243
100
AcDbEntity
  8
0
100
AcDbLine
 62
7
  6
CONTINUOUS
 10
12.4831285447
 20
280.4528061406
 11
12.4936888775
 21
280.4759537149
  0
LINE
  5
244
100
AcDbEntity
  8
0
100
AcDbLine
 62
7
  6
CONTINUOUS
 10
31.8120886687
 20
267.7034509491
 11
31.8494141608
 21
267.7538978352
  0
LINE
  5
245
100
AcDbEntity
  8
0
100
AcDbLine
 62
7
  6
CONTINUOUS
 10
4.9174253417
 20
214.2327089701
 11
2.4907947503
 21
215.6333013672
  0
LINE
  5
246
100
AcDbEntity
  8
0
100
AcDbLine
 62
7
  6
CONTINUOUS
 10
-18.7660215578
 20
221.5303488492
 11
-17.515339329
 21
220.8079205524
  0
LINE
  5
247
100
AcDbEntity
  8
0
100
AcDbLine
 62
7
  6
CONTINUOUS
 10
-10.9686116798
 20
222.5628067924
 11
-7.7606868831
 21
220.7099690065
  0
LINE
  5
248
100
AcDbEntity
  8
0
100
AcDbLine
 62
7
  6
CONTINUOUS
 10
-0.4602094104
 20
218.6177194785
 11
3.2926307622
 21
216.4501486914
  0
LINE
  5
249
100
AcDbEntity
  8
0
100
AcDbLine
 62
7
  6
CONTINUOUS
 10
-18.9949407175
 20
206.8291320697
 11
-21.1697078397
 21
219.0144768548
  0
LINE
  5
24A
100
AcDbEntity
  8
0
100
AcDbLine
 62
7
  6
CONTINUOUS
 10
-31.6085900265
 20
277.5041318236
 11
-33.7833571488
 21
289.6894766088
  0
LINE
  5
24B
100
AcDbEntity
  8
0
100
AcDbLine
 62
7
  6
CONTINUOUS
 10
-32.8195298732
 20
289.6441499086
 11
-30.6447627509
 21
277.4588051235
  0
LINE
  5
24C
100
AcDbEntity
  8
0
100
AcDbLine
 62
7
  6
CONTINUOUS
 10
-18.0311134419
 20
206.7838053695
 11
-20.2058805641
 21
218.9691501547
  0
LINE
  5
24D
100
AcDbEntity
  8
0
100
AcDbLine
 62
7
  6
CONTINUOUS
 10
-9.2436022026
 20
296.5824872849
 11
-9.2436022026
 21
298.5662103658
  0
LINE
  5
24E
100
AcDbEntity
  8
0
100
AcDbLine
 62
7
  6
CONTINUOUS
 10
31.8120886687
 20
267.7034509491
 11
31.8485214967
 21
267.7542328268
  0
LINE
  5
24F
100
AcDbEntity
  8
0
100
AcDbLine
 62
7
  6
CONTINUOUS
 10
59.4030607608
 20
281.4552268788
 11
59.243038149
 21
281.4123317458
  0
LINE
  5
250
100
AcDbEntity
  8
0
100
AcDbLine
 62
7
  6
CONTINUOUS
 10
-13.1406461952
 20
230.1717439341
 11
3.1646129206
 21
220.7541290853
  0
LINE
  5
251
100
AcDbEntity
  8
0
100
AcDbLine
 62
7
  6
CONTINUOUS
 10
-14.166099912
 20
233.1862192406
 11
-3.396530434
 21
226.9659159194
  0
LINE
  5
252
100
AcDbEntity
  8
0
100
AcDbLine
 62
7
  6
CONTINUOUS
 10
8.9222999206
 20
222.2975086533
 11
3.4922694673
 21
225.4337933981
  0
LINE
  5
253
100
AcDbEntity
  8
0
100
AcDbLine
 62
7
  6
CONTINUOUS
 10
-27.6139579888
 20
284.737829826
 11
-28.0844657631
 21
287.3741118421
  0
LINE
  5
254
100
AcDbEntity
  8
0
100
AcDbLine
 62
7
  6
CONTINUOUS
 10
2.4907947503
 20
215.6333013672
 11
2.5212366541
 21
216.8956916022
  0
LINE
  5
255
100
AcDbEntity
  8
0
100
AcDbLine
 62
7
  6
CONTINUOUS
 10
4.9174253417
 20
216.0454399529
 11
4.9174253417
 21
214.2327089701
  0
LINE
  5
256
100
AcDbEntity
  8
0
100
AcDbLine
 62
7
  6
CONTINUOUS
 10
45.4254995393
 20
270.7651787195
 11
45.3932002953
 21
270.7005037173
  0
LINE
  5
257
100
AcDbEntity
  8
0
100
AcDbLine
 62
7
  6
CONTINUOUS
 10
-39.2789884604
 20
270.037032369
 11
-33.9070874491
 21
271.4769998875
  0
LINE
  5
258
100
AcDbEntity
  8
0
100
AcDbLine
 62
7
  6
CONTINUOUS
 10
-40.242815736
 20
270.0823590692
 11
-34.8709147248
 21
271.5223265876
  0
LINE
  5
259
100
AcDbEntity
  8
0
100
AcDbLine
 62
7
  6
CONTINUOUS
 10
27.1679859749
 20
280.2278960856
 11
27.1424842191
 21
280.2244074688
  0
LINE
  5
25A
100
AcDbEntity
  8
0
100
AcDbLine
 62
7
  6
CONTINUOUS
 10
55.025668551
 20
275.5144227274
 11
55.2152053771
 21
275.5299550306
  0
LINE
  5
25B
100
AcDbEntity
  8
0
100
AcDbLine
 62
7
  6
CONTINUOUS
 10
-39.2789884604
 20
270.037032369
 11
-40.242815736
 21
270.0823590692
  0
LINE
  5
25C
100
AcDbEntity
  8
0
100
AcDbLine
 62
7
  6
CONTINUOUS
 10
-29.3041055576
 20
264.8926920021
 11
-19.4564167665
 21
259.2048498448
  0
LINE
  5
25D
100
AcDbEntity
  8
0
100
AcDbLine
 62
7
  6
CONTINUOUS
 10
-17.6008663111
 20
288.470416042
 11
-18.5202442253
 21
288.2239717515
  0
LINE
  5
25E
100
AcDbEntity
  8
0
100
AcDbLine
 62
7
  6
CONTINUOUS
 10
-11.481397099
 20
286.6316231726
 11
-11.4317179856
 21
286.6446692884
  0
LINE
  5
25F
100
AcDbEntity
  8
0
100
AcDbLine
 62
7
  6
CONTINUOUS
 10
-17.0849927892
 20
288.5778296565
 11
-17.6008333491
 21
288.4704248777
  0
LINE
  5
260
100
AcDbEntity
  8
0
100
AcDbLine
 62
7
  6
CONTINUOUS
 10
-33.9070874492
 20
271.4769998875
 11
-34.8709147248
 21
271.5223265876
  0
LINE
  5
261
100
AcDbEntity
  8
0
100
AcDbLine
 62
7
  6
CONTINUOUS
 10
-31.6085900265
 20
277.5041318236
 11
-30.6447627509
 21
277.4588051235
  0
LINE
  5
262
100
AcDbEntity
  8
0
100
AcDbLine
 62
7
  6
CONTINUOUS
 10
-42.1566108036
 20
280.8054624801
 11
-44.1378113145
 21
280.8986340304
  0
LINE
  5
263
100
AcDbEntity
  8
0
100
AcDbLine
 62
7
  6
CONTINUOUS
 10
45.3931999173
 20
270.7005041305
 11
45.5834153576
 21
270.6863142221
  0
LINE
  5
264
100
AcDbEntity
  8
0
100
AcDbLine
 62
7
  6
CONTINUOUS
 10
1.360712094
 20
268.6389751417
 11
1.4001866178
 21
268.5643968276
  0
LINE
  5
265
100
AcDbEntity
  8
0
100
AcDbLine
 62
7
  6
CONTINUOUS
 10
16.6796315473
 20
216.0882108718
 11
16.0155522178
 21
219.8090854142
  0
LINE
  5
266
100
AcDbEntity
  8
0
100
AcDbLine
 62
7
  6
CONTINUOUS
 10
-19.9470473097
 20
291.1015767536
 11
-23.4141893951
 21
290.1721903083
  0
LINE
  5
267
100
AcDbEntity
  8
0
100
AcDbLine
 62
7
  6
CONTINUOUS
 10
-32.8195298732
 20
289.6441499086
 11
-19.7431527975
 21
293.1493444774
  0
LINE
  5
268
100
AcDbEntity
  8
0
100
AcDbLine
 62
7
  6
CONTINUOUS
 10
-33.7833571488
 20
289.6894766088
 11
-37.9155886959
 21
288.5818092869
  0
LINE
  5
269
100
AcDbEntity
  8
0
100
AcDbLine
 62
7
  6
CONTINUOUS
 10
-39.8967892068
 20
288.6749808371
 11
-19.466800545
 21
294.151351309
  0
LINE
  5
26A
100
AcDbEntity
  8
0
100
AcDbLine
 62
7
  6
CONTINUOUS
 10
-18.9066578522
 20
294.3015006289
 11
-18.078893637
 21
294.5233873652
  0
LWPOLYLINE
  5
26B
100
AcDbEntity
  8
0
100
AcDbPolyline
 62
7
  6
CONTINUOUS
 90
8
 70
0
 10
-19.1688058766
 20
294.2800148997
 10
-19.2416736223
 20
294.2686424397
 10
-19.3830660356
 20
294.2142361316
 10
-19.4986027691
 20
294.1274677605
 10
-19.5806866448
 20
294.0244359384
 10
-19.630357771
 20
293.922447332
 10
-19.655858875
 20
293.8319884347
 10
-19.6623852366
 20
293.792799084
  0
LINE
  5
26C
100
AcDbEntity
  8
0
100
AcDbLine
 62
7
  6
CONTINUOUS
 10
-17.1920340476
 20
291.9214142953
 11
-17.1334498614
 21
291.9259887036
  0
LINE
  5
26D
100
AcDbEntity
  8
0
100
AcDbLine
 62
7
  6
CONTINUOUS
 10
12.4693996026
 20
280.1711842761
 11
12.44266959
 21
280.1717837527
  0
LINE
  5
26E
100
AcDbEntity
  8
0
100
AcDbLine
 62
7
  6
CONTINUOUS
 10
-39.8967892068
 20
288.6749808371
 11
-37.9155886959
 21
288.5818092869
  0
LINE
  5
26F
100
AcDbEntity
  8
0
100
AcDbLine
 62
7
  6
CONTINUOUS
 10
-32.8195298732
 20
289.6441499086
 11
-33.7833571488
 21
289.6894766088
  0
LINE
  5
270
100
AcDbEntity
  8
0
100
AcDbLine
 62
7
  6
CONTINUOUS
 10
-1.189370358
 20
282.3365953976
 11
-1.1655010531
 21
282.3319258016
  0
LINE
  5
271
100
AcDbEntity
  8
0
100
AcDbLine
 62
7
  6
CONTINUOUS
 10
31.812088278
 20
267.7034514224
 11
31.9740237565
 21
267.6616995877
  0
LINE
  5
272
100
AcDbEntity
  8
0
100
AcDbLine
 62
7
  6
CONTINUOUS
 10
-27.6139579888
 20
284.737829826
 11
-20.5664957348
 21
280.6673465115
  0
LINE
  5
273
100
AcDbEntity
  8
0
100
AcDbLine
 62
7
  6
CONTINUOUS
 10
6.1989032423
 20
267.6164170429
 11
16.609474354
 21
261.6034645109
  0
LINE
  5
274
100
AcDbEntity
  8
0
100
AcDbLine
 62
7
  6
CONTINUOUS
 10
16.4589370757
 20
266.9165812873
 11
16.3499347684
 21
266.9795387101
  0
LINE
  5
275
100
AcDbEntity
  8
0
100
AcDbLine
 62
7
  6
CONTINUOUS
 10
-17.4189291169
 20
291.7031461445
 11
-17.4272113282
 21
291.7129506739
  0
LINE
  5
276
100
AcDbEntity
  8
0
100
AcDbLine
 62
7
  6
CONTINUOUS
 10
24.0890579333
 20
225.0175517024
 11
23.668027837
 21
227.376607454
  0
LINE
  5
277
100
AcDbEntity
  8
0
100
AcDbLine
 62
7
  6
CONTINUOUS
 10
56.4758535714
 20
291.9882492466
 11
56.4737474386
 21
291.9775077327
  0
LINE
  5
278
100
AcDbEntity
  8
0
100
AcDbLine
 62
7
  6
CONTINUOUS
 10
55.025668859
 20
275.514422368
 11
55.0392195194
 21
275.57163605
  0
LINE
  5
279
100
AcDbEntity
  8
0
100
AcDbLine
 62
7
  6
CONTINUOUS
 10
55.025668859
 20
275.514422368
 11
55.0403711379
 21
275.5720081045
  0
LINE
  5
27A
100
AcDbEntity
  8
0
100
AcDbLine
 62
7
  6
CONTINUOUS
 10
-18.1211662739
 20
294.3658699889
 11
-19.170859699
 21
294.2798498509
  0
LINE
  5
27B
100
AcDbEntity
  8
0
100
AcDbLine
 62
7
  6
CONTINUOUS
 10
56.2360658374
 20
292.1809222454
 11
56.177235651
 21
292.1850795306
  0
LINE
  5
27C
100
AcDbEntity
  8
0
100
AcDbLine
 62
7
  6
CONTINUOUS
 10
-11.6608751671
 20
286.3815490978
 11
-11.6782762065
 21
286.3893385104
  0
LINE
  5
27D
100
AcDbEntity
  8
0
100
AcDbLine
 62
7
  6
CONTINUOUS
 10
-12.1681208999
 20
293.0704249017
 11
-12.1984655527
 21
293.0980907382
  0
LINE
  5
27E
100
AcDbEntity
  8
0
100
AcDbLine
 62
7
  6
CONTINUOUS
 10
-12.1705871815
 20
293.0700441944
 11
-12.1984655527
 21
293.0980907382
  0
LINE
  5
27F
100
AcDbEntity
  8
0
100
AcDbLine
 62
7
  6
CONTINUOUS
 10
42.2172488637
 20
282.2257728715
 11
42.2312709305
 21
282.0701571142
  0
LINE
  5
280
100
AcDbEntity
  8
0
100
AcDbLine
 62
7
  6
CONTINUOUS
 10
48.4063977974
 20
297.815465453
 11
48.406382833
 21
297.8270475599
  0
LINE
  5
281
100
AcDbEntity
  8
0
100
AcDbLine
 62
7
  6
CONTINUOUS
 10
48.1563977974
 20
296.6945577886
 11
48.1563977974
 21
298.5662103658
  0
LINE
  5
282
100
AcDbEntity
  8
0
100
AcDbLine
 62
7
  6
CONTINUOUS
 10
50.7678258399
 20
286.8516170184
 11
50.7175180989
 21
286.8643148703
  0
LINE
  5
283
100
AcDbEntity
  8
0
100
AcDbLine
 62
7
  6
CONTINUOUS
 10
27.0892073105
 20
280.5044447376
 11
27.0775839333
 21
280.5274961925
  0
LINE
  5
284
100
AcDbEntity
  8
0
100
AcDbLine
 62
7
  6
CONTINUOUS
 10
59.9172209971
 20
284.4318754112
 11
59.9172087711
 21
284.4323748035
  0
LINE
  5
285
100
AcDbEntity
  8
0
100
AcDbLine
 62
7
  6
CONTINUOUS
 10
59.9171687683
 20
284.4340300429
 11
59.9412750964
 21
282.4550965395
  0
LINE
  5
286
100
AcDbEntity
  8
0
100
AcDbLine
 62
7
  6
CONTINUOUS
 10
59.2430337086
 20
281.5154943417
 11
59.2430383401
 21
281.4123314254
  0
LINE
  5
287
100
AcDbEntity
  8
0
100
AcDbLine
 62
7
  6
CONTINUOUS
 10
59.905930852
 20
281.8487982499
 11
59.9172209971
 21
284.4318754112
  0
LINE
  5
288
100
AcDbEntity
  8
0
100
AcDbLine
 62
7
  6
CONTINUOUS
 10
59.403060743
 20
281.4552263079
 11
59.403404723
 21
281.5145651496
  0
LINE
  5
289
100
AcDbEntity
  8
0
100
AcDbLine
 62
7
  6
CONTINUOUS
 10
59.403060743
 20
281.4552263079
 11
59.4058233803
 21
281.5152739587
  0
LINE
  5
28A
100
AcDbEntity
  8
0
100
AcDbLine
 62
7
  6
CONTINUOUS
 10
59.9059304972
 20
281.8487918808
 11
59.9411429798
 21
282.4550935946
  0
LINE
  5
28B
100
AcDbEntity
  8
0
100
AcDbLine
 62
7
  6
CONTINUOUS
 10
40.5328362141
 20
282.7514129163
 11
40.4991898813
 21
282.7708376639
  0
LWPOLYLINE
  5
28C
100
AcDbEntity
  8
0
100
AcDbPolyline
 62
7
  6
CONTINUOUS
 90
3
 70
0
 10
59.9171587732
 20
284.4345522858
 10
59.7358495257
 20
287.3935240523
 10
59.0849205998
 20
291.3657367494
  0
LINE
  5
28D
100
AcDbEntity
  8
0
100
AcDbLine
 62
7
  6
CONTINUOUS
 10
56.7330461058
 20
295.9915595779
 11
56.8104337792
 21
295.5658781186
  0
LINE
  5
28E
100
AcDbEntity
  8
0
100
AcDbLine
 62
7
  6
CONTINUOUS
 10
58.3505741459
 20
292.8597604274
 11
58.3498804451
 21
292.8641624552
  0
LINE
  5
28F
100
AcDbEntity
  8
0
100
AcDbLine
 62
7
  6
CONTINUOUS
 10
56.2010479894
 20
297.8276115471
 11
56.1962489499
 21
297.8396264013
  0
LINE
  5
290
100
AcDbEntity
  8
0
100
AcDbLine
 62
7
  6
CONTINUOUS
 10
56.1214821081
 20
297.792838655
 11
56.1173181871
 21
297.8051029937
  0
LINE
  5
291
100
AcDbEntity
  8
0
100
AcDbLine
 62
7
  6
CONTINUOUS
 10
59.0849205998
 20
291.3657367494
 11
58.0152619101
 21
294.7991385463
  0
LWPOLYLINE
  5
292
100
AcDbEntity
  8
0
100
AcDbPolyline
 62
7
  6
CONTINUOUS
 90
4
 70
0
 10
58.3504991373
 20
292.8603573846
 10
57.8954041351
 20
294.839866189
 10
57.1670026673
 20
296.5824012862
 10
56.2980298144
 20
297.8527791643
  0
LINE
  5
293
100
AcDbEntity
  8
0
100
AcDbLine
 62
7
  6
CONTINUOUS
 10
50.5708767389
 20
303.3037571886
 11
50.5876968773
 21
303.2891082605
  0
LINE
  5
294
100
AcDbEntity
  8
0
100
AcDbLine
 62
7
  6
CONTINUOUS
 10
50.5883543375
 20
303.306762197
 11
50.6046987076
 21
303.2920218911
  0
LINE
  5
295
100
AcDbEntity
  8
0
100
AcDbLine
 62
7
  6
CONTINUOUS
 10
56.2892147148
 20
297.8634643602
 11
56.2942890887
 21
297.8573113627
  0
LINE
  5
296
100
AcDbEntity
  8
0
100
AcDbLine
 62
7
  6
CONTINUOUS
 10
56.2942890887
 20
297.8573113627
 11
56.302622208
 21
297.8467435933
  0
LINE
  5
297
100
AcDbEntity
  8
0
100
AcDbLine
 62
7
  6
CONTINUOUS
 10
56.5721617455
 20
297.6965779358
 11
55.5265301651
 21
299.092994497
  0
LINE
  5
298
100
AcDbEntity
  8
0
100
AcDbLine
 62
7
  6
CONTINUOUS
 10
58.0152619101
 20
294.7991385463
 11
56.5721617455
 21
297.6965779358
  0
ARC
  5
299
100
AcDbEntity
  8
0
100
AcDbCircle
 62
7
  6
CONTINUOUS
 10
-356.8624418774
 20
267.1436757052
 40
386.1252374139
100
AcDbArc
 50
1.6108763144
 51
1.9887632222
  0
ARC
  5
29A
100
AcDbEntity
  8
0
100
AcDbCircle
 62
7
  6
CONTINUOUS
 10
-95.3651681646
 20
269.7493072094
 40
138.1469640302
100
AcDbArc
 50
5.1816135428
 51
5.5325140666
  0
ARC
  5
29B
100
AcDbEntity
  8
0
100
AcDbCircle
 62
7
  6
CONTINUOUS
 10
-93.6373775558
 20
269.9033915948
 40
136.412315517
100
AcDbArc
 50
4.4747764127
 51
5.1170738263
  0
ARC
  5
29C
100
AcDbEntity
  8
0
100
AcDbCircle
 62
7
  6
CONTINUOUS
 10
-36.3198515685
 20
274.4498753108
 40
89.0558835135
100
AcDbArc
 50
6.7358603607
 51
8.344648047
  0
ARC
  5
29D
100
AcDbEntity
  8
0
100
AcDbCircle
 62
7
  6
CONTINUOUS
 10
14.4148031285
 20
256.5262944194
 40
54.3332589972
100
AcDbArc
 50
104.8318928191
 51
105.0265379301
  0
ARC
  5
29E
100
AcDbEntity
  8
0
100
AcDbCircle
 62
7
  6
CONTINUOUS
 10
14.0523339079
 20
257.7932809691
 40
53.0156523759
100
AcDbArc
 50
105.0032514335
 51
105.7575135556
  0
ARC
  5
29F
100
AcDbEntity
  8
0
100
AcDbCircle
 62
7
  6
CONTINUOUS
 10
34.6210836562
 20
232.6499412612
 40
48.1584452178
100
AcDbArc
 50
98.9335629053
 51
103.9068228046
  0
ARC
  5
2A0
100
AcDbEntity
  8
0
100
AcDbCircle
 62
7
  6
CONTINUOUS
 10
15.13605087
 20
261.7844760564
 40
47.9743916253
100
AcDbArc
 50
104.4058173193
 51
105.0040187829
  0
ARC
  5
2A1
100
AcDbEntity
  8
0
100
AcDbCircle
 62
7
  6
CONTINUOUS
 10
12.1923664916
 20
234.6652084219
 40
45.5070268818
100
AcDbArc
 50
89.6848563058
 51
95.0330001244
  0
ARC
  5
2A2
100
AcDbEntity
  8
0
100
AcDbCircle
 62
7
  6
CONTINUOUS
 10
-43.1184989656
 20
277.091719632
 40
32.3186188672
100
AcDbArc
 50
345.9514220825
 51
351.7950898951
  0
ARC
  5
2A3
100
AcDbEntity
  8
0
100
AcDbCircle
 62
7
  6
CONTINUOUS
 10
-42.2131492743
 20
276.9522896628
 40
31.4026389892
100
AcDbArc
 50
351.8111403258
 51
351.9539989069
  0
ARC
  5
2A4
100
AcDbEntity
  8
0
100
AcDbCircle
 62
7
  6
CONTINUOUS
 10
13.3052157191
 20
244.366990861
 40
26.6477401213
100
AcDbArc
 50
115.7000115217
 51
116.2102068441
  0
ARC
  5
2A5
100
AcDbEntity
  8
0
100
AcDbCircle
 62
7
  6
CONTINUOUS
 10
-19.3698806053
 20
258.6583866431
 40
22.3980821591
100
AcDbArc
 50
166.4480378485
 51
171.9333143767
  0
ARC
  5
2A6
100
AcDbEntity
  8
0
100
AcDbCircle
 62
7
  6
CONTINUOUS
 10
1.5533167404
 20
261.9659731437
 40
16.2247639375
100
AcDbArc
 50
139.9146697317
 51
140.1876852344
  0
ARC
  5
2A7
100
AcDbEntity
  8
0
100
AcDbCircle
 62
7
  6
CONTINUOUS
 10
11.4093978768
 20
253.9013293081
 40
14.6203712131
100
AcDbArc
 50
59.9879348744
 51
61.2811358856
  0
ARC
  5
2A8
100
AcDbEntity
  8
0
100
AcDbCircle
 62
7
  6
CONTINUOUS
 10
-10.5957300971
 20
273.299235394
 40
9.0053554158
100
AcDbArc
 50
152.5591983995
 51
153.8369181763
  0
ARC
  5
2A9
100
AcDbEntity
  8
0
100
AcDbCircle
 62
7
  6
CONTINUOUS
 10
-17.2875814195
 20
234.6875631428
 40
4.5700314644
100
AcDbArc
 50
320.9474660067
 51
333.2881390217
  0
ARC
  5
2AA
100
AcDbEntity
  8
0
100
AcDbCircle
 62
7
  6
CONTINUOUS
 10
6.8553199661
 20
220.4356104753
 40
3.7044260826
100
AcDbArc
 50
175.0674317931
 51
179.9716334662
  0
ARC
  5
2AB
100
AcDbEntity
  8
0
100
AcDbCircle
 62
7
  6
CONTINUOUS
 10
5.231592875
 20
221.9900127701
 40
3.7044260826
100
AcDbArc
 50
355.0674317931
 51
359.9716334662
  0
ARC
  5
2AC
100
AcDbEntity
  8
0
100
AcDbCircle
 62
7
  6
CONTINUOUS
 10
-25.2511671378
 20
219.2618999092
 40
3.6451874791
100
AcDbArc
 50
72.5024646014
 51
74.6831107235
  0
ARC
  5
2AD
100
AcDbEntity
  8
0
100
AcDbCircle
 62
7
  6
CONTINUOUS
 10
-25.2422706079
 20
219.2944015505
 40
3.6114902254
100
AcDbArc
 50
74.683030981
 51
79.0622538082
  0
ARC
  5
2AE
100
AcDbEntity
  8
0
100
AcDbCircle
 62
7
  6
CONTINUOUS
 10
5.4627622547
 20
221.9891112179
 40
3.4732563741
100
AcDbArc
 50
359.984617725
 51
5.0941164699
  0
ARC
  5
2AF
100
AcDbEntity
  8
0
100
AcDbCircle
 62
7
  6
CONTINUOUS
 10
-14.0049794172
 20
281.4602447507
 40
73.248034009
100
AcDbArc
 50
0.0432174522
 51
8.9572942419
  0
ARC
  5
2B0
100
AcDbEntity
  8
0
100
AcDbCircle
 62
7
  6
CONTINUOUS
 10
-13.8967533643
 20
280.362499916
 40
71.5129220598
100
AcDbArc
 50
8.0552713549
 51
10.0210763166
  0
ARC
  5
2B1
100
AcDbEntity
  8
0
100
AcDbCircle
 62
7
  6
CONTINUOUS
 10
1.6559509105
 20
318.5377693697
 40
34.8043288208
100
AcDbArc
 50
247.5043449706
 51
249.9350939138
  0
ARC
  5
2B2
100
AcDbEntity
  8
0
100
AcDbCircle
 62
7
  6
CONTINUOUS
 10
1.6030234079
 20
315.1646349468
 40
31.3900772308
100
AcDbArc
 50
245.3651027127
 51
246.069389333
  0
ARC
  5
2B3
100
AcDbEntity
  8
0
100
AcDbCircle
 62
7
  6
CONTINUOUS
 10
1.8862243853
 20
309.7060798815
 40
26.630738772
100
AcDbArc
 50
239.9936076578
 51
240.7409800796
  0
ARC
  5
2B4
100
AcDbEntity
  8
0
100
AcDbCircle
 62
7
  6
CONTINUOUS
 10
6.3441691843
 20
311.7644036114
 40
22.9617197915
100
AcDbArc
 50
240.5250103473
 51
243.8117921047
  0
ARC
  5
2B5
100
AcDbEntity
  8
0
100
AcDbCircle
 62
7
  6
CONTINUOUS
 10
-3.0923246353
 20
293.7645078331
 40
12.8345569688
100
AcDbArc
 50
132.4290799582
 51
134.0702802581
  0
ARC
  5
2B6
100
AcDbEntity
  8
0
100
AcDbCircle
 62
7
  6
CONTINUOUS
 10
-3.1502867848
 20
302.0779121924
 40
12.7478431555
100
AcDbArc
 50
224.9604882845
 51
227.6971987833
  0
ARC
  5
2B7
100
AcDbEntity
  8
0
100
AcDbCircle
 62
7
  6
CONTINUOUS
 10
-4.7729971307
 20
295.3972676369
 40
10.4905458389
100
AcDbArc
 50
138.4044878723
 51
138.9057689535
  0
ARC
  5
2B8
100
AcDbEntity
  8
0
100
AcDbCircle
 62
7
  6
CONTINUOUS
 10
-8.0249457173
 20
294.1316199117
 40
9.9733045884
100
AcDbArc
 50
159.696770183
 51
160.0887263145
  0
ARC
  5
2B9
100
AcDbEntity
  8
0
100
AcDbCircle
 62
7
  6
CONTINUOUS
 10
-8.0626876449
 20
294.145281313
 40
9.9331662413
100
AcDbArc
 50
160.0886754132
 51
160.5697942214
  0
ARC
  5
2BA
100
AcDbEntity
  8
0
100
AcDbCircle
 62
7
  6
CONTINUOUS
 10
-9.5904502323
 20
298.2477019679
 40
9.8896932301
100
AcDbArc
 50
219.7683314697
 51
221.2865282162
  0
ARC
  5
2BB
100
AcDbEntity
  8
0
100
AcDbCircle
 62
7
  6
CONTINUOUS
 10
-8.29999582
 20
294.2255828112
 40
9.6826609505
100
AcDbArc
 50
160.5507733195
 51
169.491391487
  0
ARC
  5
2BC
100
AcDbEntity
  8
0
100
AcDbCircle
 62
7
  6
CONTINUOUS
 10
-10.0479370706
 20
295.6775644167
 40
8.0174068027
100
AcDbArc
 50
207.8999356089
 51
209.5605290255
  0
ARC
  5
2BD
100
AcDbEntity
  8
0
100
AcDbCircle
 62
7
  6
CONTINUOUS
 10
-8.3608688547
 20
293.9452817241
 40
7.9513053652
100
AcDbArc
 50
246.7553100413
 51
246.8919381205
  0
ARC
  5
2BE
100
AcDbEntity
  8
0
100
AcDbCircle
 62
7
  6
CONTINUOUS
 10
-8.5293404651
 20
297.7918545762
 40
6.0090482886
100
AcDbArc
 50
160.5739830157
 51
162.3839599291
  0
ARC
  5
2BF
100
AcDbEntity
  8
0
100
AcDbCircle
 62
7
  6
CONTINUOUS
 10
-3.9246419499
 20
298.7973905004
 40
5.3524159373
100
AcDbArc
 50
200.131277913
 51
203.5390179328
  0
ARC
  5
2C0
100
AcDbEntity
  8
0
100
AcDbCircle
 62
7
  6
CONTINUOUS
 10
-4.5641360438
 20
296.8771179736
 40
4.9381655482
100
AcDbArc
 50
162.7240287665
 51
165.6059170595
  0
ARC
  5
2C1
100
AcDbEntity
  8
0
100
AcDbCircle
 62
7
  6
CONTINUOUS
 10
-12.8521800492
 20
296.7984287295
 40
4.7605977238
100
AcDbArc
 50
171.6859191525
 51
180.7655213971
  0
ARC
  5
2C2
100
AcDbEntity
  8
0
100
AcDbCircle
 62
7
  6
CONTINUOUS
 10
-4.7366013777
 20
296.9212179525
 40
4.7601512965
100
AcDbArc
 50
165.6040212605
 51
169.4644805804
  0
ARC
  5
2C3
100
AcDbEntity
  8
0
100
AcDbCircle
 62
7
  6
CONTINUOUS
 10
-4.877441631
 20
296.9477777719
 40
4.6168290469
100
AcDbArc
 50
169.4689498092
 51
173.3765967449
  0
ARC
  5
2C4
100
AcDbEntity
  8
0
100
AcDbCircle
 62
7
  6
CONTINUOUS
 10
-4.9449124691
 20
297.8119278459
 40
4.5486909402
100
AcDbArc
 50
170.1755854138
 51
179.9554399321
  0
ARC
  5
2C5
100
AcDbEntity
  8
0
100
AcDbCircle
 62
7
  6
CONTINUOUS
 10
-17.3513970079
 20
297.4472084001
 40
0.2154214377
100
AcDbArc
 50
141.172940955
 51
147.5147796431
  0
ARC
  5
2C6
100
AcDbEntity
  8
0
100
AcDbCircle
 62
7
  6
CONTINUOUS
 10
10.1894338525
 20
348.9488336068
 40
67.5773564828
100
AcDbArc
 50
260.3268894514
 51
261.8925607508
  0
ARC
  5
2C7
100
AcDbEntity
  8
0
100
AcDbCircle
 62
7
  6
CONTINUOUS
 10
26.9879514759
 20
322.878628088
 40
42.3515910645
100
AcDbArc
 50
288.6520372401
 51
289.2278691204
  0
ARC
  5
2C8
100
AcDbEntity
  8
0
100
AcDbCircle
 62
7
  6
CONTINUOUS
 10
28.2532360306
 20
325.4948155006
 40
40.0343300308
100
AcDbArc
 50
296.2622180639
 51
296.4675788344
  0
ARC
  5
2C9
100
AcDbEntity
  8
0
100
AcDbCircle
 62
7
  6
CONTINUOUS
 10
26.935760831
 20
319.2283396265
 40
39.2259171371
100
AcDbArc
 50
290.530203988
 51
292.8029139399
  0
ARC
  5
2CA
100
AcDbEntity
  8
0
100
AcDbCircle
 62
7
  6
CONTINUOUS
 10
27.4203670998
 20
317.5522764053
 40
32.3437114936
100
AcDbArc
 50
279.8011220422
 51
280.1830161588
  0
ARC
  5
2CB
100
AcDbEntity
  8
0
100
AcDbCircle
 62
7
  6
CONTINUOUS
 10
38.1994203351
 20
307.714109108
 40
24.3190602487
100
AcDbArc
 50
300.9803655031
 51
301.7750506448
  0
ARC
  5
2CC
100
AcDbEntity
  8
0
100
AcDbCircle
 62
7
  6
CONTINUOUS
 10
33.5049353644
 20
286.819065531
 40
21.043154905
100
AcDbArc
 50
59.9912971961
 51
60.500898687
  0
ARC
  5
2CD
100
AcDbEntity
  8
0
100
AcDbCircle
 62
7
  6
CONTINUOUS
 10
19.4517723859
 20
374.4607791648
 40
94.2422833655
100
AcDbArc
 50
266.0844081678
 51
274.6413055527
  0
ARC
  5
2CE
100
AcDbEntity
  8
0
100
AcDbCircle
 62
7
  6
CONTINUOUS
 10
19.2738015822
 20
371.355468824
 40
91.1320810404
100
AcDbArc
 50
265.7333234325
 51
266.0627129171
  0
ARC
  5
2CF
100
AcDbEntity
  8
0
100
AcDbCircle
 62
7
  6
CONTINUOUS
 10
19.7521117263
 20
369.9147891683
 40
89.6869594121
100
AcDbArc
 50
274.6850370474
 51
275.0170179361
  0
ARC
  5
2D0
100
AcDbEntity
  8
0
100
AcDbCircle
 62
7
  6
CONTINUOUS
 10
12.8933001089
 20
364.5127509729
 40
84.3423945225
100
AcDbArc
 50
269.7120353927
 51
271.0675089467
  0
ARC
  5
2D1
100
AcDbEntity
  8
0
100
AcDbCircle
 62
7
  6
CONTINUOUS
 10
14.9861120339
 20
363.6448503153
 40
83.2296879525
100
AcDbArc
 50
268.2766725805
 51
268.6438149015
  0
ARC
  5
2D2
100
AcDbEntity
  8
0
100
AcDbCircle
 62
7
  6
CONTINUOUS
 10
17.7416293826
 20
353.0725837965
 40
73.1676984031
100
AcDbArc
 50
277.3399123195
 51
277.7397426513
  0
ARC
  5
2D3
100
AcDbEntity
  8
0
100
AcDbCircle
 62
7
  6
CONTINUOUS
 10
16.2817542332
 20
350.142135852
 40
70.756459615
100
AcDbArc
 50
278.8502973713
 51
280.3798803399
  0
ARC
  5
2D4
100
AcDbEntity
  8
0
100
AcDbCircle
 62
7
  6
CONTINUOUS
 10
11.3803234952
 20
345.0076705674
 40
63.6313976845
100
AcDbArc
 50
258.724729508
 51
259.1646808259
  0
ARC
  5
2D5
100
AcDbEntity
  8
0
100
AcDbCircle
 62
7
  6
CONTINUOUS
 10
14.4220354956
 20
342.5509912132
 40
61.8865440445
100
AcDbArc
 50
255.5424035257
 51
255.9695706018
  0
ARC
  5
2D6
100
AcDbEntity
  8
0
100
AcDbCircle
 62
7
  6
CONTINUOUS
 10
25.2725839969
 20
339.5782222027
 40
58.8126556526
100
AcDbArc
 50
285.0048114682
 51
285.4452594041
  0
ARC
  5
2D7
100
AcDbEntity
  8
0
100
AcDbCircle
 62
7
  6
CONTINUOUS
 10
25.9886653208
 20
337.0010519414
 40
56.1378464707
100
AcDbArc
 50
285.4413195428
 51
286.9650681477
  0
ARC
  5
2D8
100
AcDbEntity
  8
0
100
AcDbCircle
 62
7
  6
CONTINUOUS
 10
24.5097793619
 20
339.4138106823
 40
54.3622776852
100
AcDbArc
 50
284.81087133
 51
285.0055169471
  0
ARC
  5
2D9
100
AcDbEntity
  8
0
100
AcDbCircle
 62
7
  6
CONTINUOUS
 10
27.1416834809
 20
333.1844892204
 40
52.1509333019
100
AcDbArc
 50
286.9769198403
 51
288.1903820971
  0
ARC
  5
2DA
100
AcDbEntity
  8
0
100
AcDbCircle
 62
7
  6
CONTINUOUS
 10
23.8989716667
 20
334.6639172376
 40
47.4979773938
100
AcDbArc
 50
284.7632209848
 51
285.005406809
  0
ARC
  5
2DB
100
AcDbEntity
  8
0
100
AcDbCircle
 62
7
  6
CONTINUOUS
 10
437.0522797488
 20
266.781706972
 40
422.8001425561
100
AcDbArc
 50
178.1833554334
 51
178.5285085712
  0
ARC
  5
2DC
100
AcDbEntity
  8
0
100
AcDbCircle
 62
7
  6
CONTINUOUS
 10
149.2687770686
 20
181.6587548001
 40
145.6311085228
100
AcDbArc
 50
137.2322920651
 51
139.9689438394
  0
ARC
  5
2DD
100
AcDbEntity
  8
0
100
AcDbCircle
 62
7
  6
CONTINUOUS
 10
141.2850036297
 20
268.7938422254
 40
141.2491089934
100
AcDbArc
 50
174.616193336
 51
175.6434713674
  0
ARC
  5
2DE
100
AcDbEntity
  8
0
100
AcDbCircle
 62
7
  6
CONTINUOUS
 10
79.1082543239
 20
272.90338167
 40
90.325186218
100
AcDbArc
 50
171.7618815506
 51
173.3491869905
  0
ARC
  5
2DF
100
AcDbEntity
  8
0
100
AcDbCircle
 62
7
  6
CONTINUOUS
 10
66.050667011
 20
222.1039029626
 40
66.9982790448
100
AcDbArc
 50
123.4606602309
 51
129.7648228901
  0
ARC
  5
2E0
100
AcDbEntity
  8
0
100
AcDbCircle
 62
7
  6
CONTINUOUS
 10
54.6519862848
 20
233.7160211704
 40
51.0897194241
100
AcDbArc
 50
112.3578908027
 51
112.8854629251
  0
ARC
  5
2E1
100
AcDbEntity
  8
0
100
AcDbCircle
 62
7
  6
CONTINUOUS
 10
50.0899579048
 20
246.9547625994
 40
37.0779394107
100
AcDbArc
 50
104.9908464438
 51
105.3051342768
  0
ARC
  5
2E2
100
AcDbEntity
  8
0
100
AcDbCircle
 62
7
  6
CONTINUOUS
 10
54.7723432787
 20
283.7899842377
 40
75.1038039305
100
AcDbArc
 50
172.3462354859
 51
177.5095394077
  0
ARC
  5
2E3
100
AcDbEntity
  8
0
100
AcDbCircle
 62
7
  6
CONTINUOUS
 10
54.2917152679
 20
282.6620067057
 40
73.3335706796
100
AcDbArc
 50
169.5273563277
 51
170.8792644442
  0
ARC
  5
2E4
100
AcDbEntity
  8
0
100
AcDbCircle
 62
7
  6
CONTINUOUS
 10
53.9984225423
 20
284.771684255
 40
72.6845084416
100
AcDbArc
 50
169.924806426
 51
171.00116547
  0
ARC
  5
2E5
100
AcDbEntity
  8
0
100
AcDbCircle
 62
7
  6
CONTINUOUS
 10
54.1967057155
 20
278.5356039464
 40
71.9855893411
100
AcDbArc
 50
170.0260309447
 51
171.9808936833
  0
ARC
  5
2E6
100
AcDbEntity
  8
0
100
AcDbCircle
 62
7
  6
CONTINUOUS
 10
41.3862405219
 20
298.9355867586
 40
15.2982485612
100
AcDbArc
 50
307.8245490337
 51
308.9602533016
  0
ARC
  5
2E7
100
AcDbEntity
  8
0
100
AcDbCircle
 62
7
  6
CONTINUOUS
 10
40.7188723848
 20
292.319127429
 40
14.7693869815
100
AcDbArc
 50
48.0686967889
 51
51.5703133907
  0
ARC
  5
2E8
100
AcDbEntity
  8
0
100
AcDbCircle
 62
7
  6
CONTINUOUS
 10
41.5687625815
 20
302.622911549
 40
13.4835964595
100
AcDbArc
 50
311.7722127054
 51
312.2084690085
  0
ARC
  5
2E9
100
AcDbEntity
  8
0
100
AcDbCircle
 62
7
  6
CONTINUOUS
 10
41.9027503374
 20
293.6553906542
 40
12.9841660122
100
AcDbArc
 50
46.1508099223
 51
47.9177332154
  0
ARC
  5
2EA
100
AcDbEntity
  8
0
100
AcDbCircle
 62
7
  6
CONTINUOUS
 10
42.3035240214
 20
301.8273419886
 40
12.4006828677
100
AcDbArc
 50
312.1634012869
 51
315.0981705956
  0
ARC
  5
2EB
100
AcDbEntity
  8
0
100
AcDbCircle
 62
7
  6
CONTINUOUS
 10
46.1489361776
 20
293.7857303339
 40
10.8351667629
100
AcDbArc
 50
26.4215092015
 51
26.7198046684
  0
ARC
  5
2EC
100
AcDbEntity
  8
0
100
AcDbCircle
 62
7
  6
CONTINUOUS
 10
46.4910644861
 20
293.9509619734
 40
10.4552530581
100
AcDbArc
 50
21.8349436021
 51
26.4448817069
  0
ARC
  5
2ED
100
AcDbEntity
  8
0
100
AcDbCircle
 62
7
  6
CONTINUOUS
 10
49.5337125027
 20
295.387262933
 40
7.374983279
100
AcDbArc
 50
334.2658965791
 51
336.0298105387
  0
ARC
  5
2EE
100
AcDbEntity
  8
0
100
AcDbCircle
 62
7
  6
CONTINUOUS
 10
42.2056565889
 20
299.4930690255
 40
7.2241749397
100
AcDbArc
 50
325.927150563
 51
326.6694251768
  0
ARC
  5
2EF
100
AcDbEntity
  8
0
100
AcDbCircle
 62
7
  6
CONTINUOUS
 10
50.8843997716
 20
294.9091836106
 40
5.9479646972
100
AcDbArc
 50
6.3269939214
 51
10.4846217978
  0
ARC
  5
2F0
100
AcDbEntity
  8
0
100
AcDbCircle
 62
7
  6
CONTINUOUS
 10
50.8994066733
 20
292.7370519118
 40
5.6261707495
100
AcDbArc
 50
352.3528232364
 51
0.7076672261
  0
ARC
  5
2F1
100
AcDbEntity
  8
0
100
AcDbCircle
 62
7
  6
CONTINUOUS
 10
51.0364802952
 20
293.191640959
 40
5.2969628232
100
AcDbArc
 50
348.9998654173
 51
351.3073982148
  0
ARC
  5
2F2
100
AcDbEntity
  8
0
100
AcDbCircle
 62
7
  6
CONTINUOUS
 10
43.3450563871
 20
296.837855685
 40
5.0757331082
100
AcDbArc
 50
15.9137204345
 51
19.6542732517
  0
ARC
  5
2F3
100
AcDbEntity
  8
0
100
AcDbCircle
 62
7
  6
CONTINUOUS
 10
43.6034570752
 20
296.910935542
 40
4.8071977548
100
AcDbArc
 50
10.569315638
 51
15.9205336512
  0
ARC
  5
2F4
100
AcDbEntity
  8
0
100
AcDbCircle
 62
7
  6
CONTINUOUS
 10
43.8045500043
 20
296.9496728167
 40
4.6024113977
100
AcDbArc
 50
5.8216819972
 51
10.5544440566
  0
ARC
  5
2F5
100
AcDbEntity
  8
0
100
AcDbCircle
 62
7
  6
CONTINUOUS
 10
43.859407648
 20
297.8122459191
 40
4.5469868595
100
AcDbArc
 50
0.1865131346
 51
9.9517758677
  0
SPLINE
  5
2F6
100
AcDbEntity
  8
0
100
AcDbSpline
 62
7
  6
CONTINUOUS
 70
0
 71
3
 72
15
 73
11
 74
0
 42
0.0000001
 43
0.0000001
 44
0.0000000001
 40
0.0
 40
0.0
 40
0.0
 40
0.0
 40
0.0836175766
 40
0.1735327936
 40
0.2745582891
 40
0.3895840814
 40
0.5198999086
 40
0.6656225368
 40
0.8260944682
 40
1.0
 40
1.0
 40
1.0
 40
1.0
 10
-9.2435905073
 20
298.5662103657
 30
0.0
 10
-9.2435631239
 20
299.0282325573
 30
0.0
 10
-9.0884627068
 20
299.9924099081
 30
0.0
 10
-8.4178480993
 20
301.3718340336
 30
0.0
 10
-7.3388186827
 20
302.6887657617
 30
0.0
 10
-5.8747600828
 20
303.9332973399
 30
0.0
 10
-4.0465461314
 20
305.0951090113
 30
0.0
 10
-1.8785407729
 20
306.1607715307
 30
0.0
 10
0.5993307752
 20
307.1158365658
 30
0.0
 10
2.369717367
 20
307.6502949052
 30
0.0
 10
3.2978518159
 20
307.8990864329
 30
0.0
  0
SPLINE
  5
2F7
100
AcDbEntity
  8
0
100
AcDbSpline
 62
7
  6
CONTINUOUS
 70
0
 71
3
 72
19
 73
15
 74
0
 42
0.0000001
 43
0.0000001
 44
0.0000000001
 40
0.0
 40
0.0
 40
0.0
 40
0.0
 40
0.1437927501
 40
0.2990289408
 40
0.4562714565
 40
0.6058605483
 40
0.6750130013
 40
0.7390970209
 40
0.7973619681
 40
0.8493061298
 40
0.8947794449
 40
0.9341460629
 40
0.9685228895
 40
1.0
 40
1.0
 40
1.0
 40
1.0
 10
3.2978518159
 20
307.8990864329
 30
0.0
 10
5.5755498571
 20
308.5096358807
 30
0.0
 10
10.4099362139
 20
309.4233862452
 30
0.0
 10
17.8850695917
 20
309.9758907733
 30
0.0
 10
25.4725531643
 20
309.7441297218
 30
0.0
 10
31.5955485372
 20
308.8930685345
 30
0.0
 10
36.1079612925
 20
307.8059671639
 30
0.0
 10
39.1015587765
 20
306.8455436151
 30
0.0
 10
41.7407165291
 20
305.7366386913
 30
0.0
 10
43.9802306828
 20
304.4979717414
 30
0.0
 10
45.7833279809
 20
303.1484206853
 30
0.0
 10
47.1202435205
 20
301.7020683637
 30
0.0
 10
47.9594319262
 20
300.1692776114
 30
0.0
 10
48.1564166969
 20
299.0824148591
 30
0.0
 10
48.1563861022
 20
298.5662103659
 30
0.0
  0
SPLINE
  5
2F8
100
AcDbEntity
  8
0
100
AcDbSpline
 62
7
  6
CONTINUOUS
 70
0
 71
3
 72
17
 73
13
 74
0
 42
0.0000001
 43
0.0000001
 44
0.0000000001
 40
0.0
 40
0.0
 40
0.0
 40
0.0
 40
0.1375487168
 40
0.2858548993
 40
0.4372853709
 40
0.5839098183
 40
0.7182519753
 40
0.7788468941
 40
0.8342118876
 40
0.8839609528
 40
0.9279776803
 40
1.0
 40
1.0
 40
1.0
 40
1.0
 10
35.6149437789
 20
289.2333342987
 30
0.0
 10
33.5235357008
 20
288.6727208968
 30
0.0
 10
29.094385289
 20
287.8086254761
 30
0.0
 10
22.226496663
 20
287.2115988018
 30
0.0
 10
15.1888480605
 20
287.2835618524
 30
0.0
 10
8.4113898649
 20
288.020600561
 30
0.0
 10
3.1460498031
 20
289.1841872175
 30
0.0
 10
-0.5912010707
 20
290.4446680362
 30
0.0
 10
-2.9878045698
 20
291.4812456296
 30
0.0
 10
-5.0443563807
 20
292.6300913472
 30
0.0
 10
-7.1425333469
 20
294.174851249
 30
0.0
 10
-8.3791738507
 20
295.6202433507
 30
0.0
 10
-8.8316743494
 20
296.6597774867
 30
0.0
  0
SPLINE
  5
2F9
100
AcDbEntity
  8
0
100
AcDbSpline
 62
7
  6
CONTINUOUS
 70
0
 71
3
 72
9
 73
5
 74
0
 42
0.0000001
 43
0.0000001
 44
0.0000000001
 40
0.0
 40
0.0
 40
0.0
 40
0.0
 40
0.2563331203
 40
1.0
 40
1.0
 40
1.0
 40
1.0
 10
-8.9500601041
 20
296.9552372111
 30
0.0
 10
-8.99831565
 20
297.0869976805
 30
0.0
 10
-9.1659322959
 20
297.6082522712
 30
0.0
 10
-9.243614635
 20
298.1591206174
 30
0.0
 10
-9.2435905073
 20
298.5662103657
 30
0.0
  0
SPLINE
  5
2FA
100
AcDbEntity
  8
0
100
AcDbSpline
 62
7
  6
CONTINUOUS
 70
0
 71
3
 72
9
 73
5
 74
0
 42
0.0000001
 43
0.0000001
 44
0.0000000001
 40
0.0
 40
0.0
 40
0.0
 40
0.0
 40
0.2462551859
 40
1.0
 40
1.0
 40
1.0
 40
1.0
 10
48.1563861022
 20
298.5662103659
 30
0.0
 10
48.156378101
 20
298.4312123744
 30
0.0
 10
48.131547646
 20
297.8831233582
 30
0.0
 10
48.004385182
 20
297.3410316957
 30
0.0
 10
47.8620740742
 20
296.9531058462
 30
0.0
  0
SPLINE
  5
2FB
100
AcDbEntity
  8
0
100
AcDbSpline
 62
7
  6
CONTINUOUS
 70
0
 71
3
 72
13
 73
9
 74
0
 42
0.0000001
 43
0.0000001
 44
0.0000000001
 40
0.0
 40
0.0
 40
0.0
 40
0.0
 40
0.1804079305
 40
0.2867291519
 40
0.4052419908
 40
0.5362681419
 40
0.6795649963
 40
1.0
 40
1.0
 40
1.0
 40
1.0
 10
47.8620740742
 20
296.9531058462
 30
0.0
 10
47.5530254852
 20
296.1106702957
 30
0.0
 10
46.7118151371
 20
294.8993970051
 30
0.0
 10
45.2197745094
 20
293.5451178768
 30
0.0
 10
43.7661165815
 20
292.5256220454
 30
0.0
 10
42.0571156194
 20
291.5735374563
 30
0.0
 10
39.357320716
 20
290.3574791524
 30
0.0
 10
37.1544122138
 20
289.645997253
 30
0.0
 10
35.6149437789
 20
289.2333342987
 30
0.0
  0
SPLINE
  5
2FC
100
AcDbEntity
  8
0
100
AcDbSpline
 62
7
  6
CONTINUOUS
 70
0
 71
3
 72
11
 73
7
 74
0
 42
0.0000001
 43
0.0000001
 44
0.0000000001
 40
0.0
 40
0.0
 40
0.0
 40
0.0
 40
0.2634102209
 40
0.5159328187
 40
0.7602044916
 40
1.0
 40
1.0
 40
1.0
 40
1.0
 10
6.60647196
 20
225.8979979465
 30
0.0
 10
5.7320240674
 20
225.6635973946
 30
0.0
 10
3.9768229038
 20
225.3447268604
 30
0.0
 10
1.3483254884
 20
225.3576369345
 30
0.0
 10
-1.1474236249
 20
225.8751990412
 30
0.0
 10
-2.6828573752
 20
226.5537192128
 30
0.0
 10
-3.3965158803
 20
226.9659410332
 30
0.0
  0
SPLINE
  5
2FD
100
AcDbEntity
  8
0
100
AcDbSpline
 62
7
  6
CONTINUOUS
 70
0
 71
3
 72
11
 73
7
 74
0
 42
0.0000001
 43
0.0000001
 44
0.0000000001
 40
0.0
 40
0.0
 40
0.0
 40
0.0
 40
0.2717775313
 40
0.5268694486
 40
0.7676333348
 40
1.0
 40
1.0
 40
1.0
 40
1.0
 10
1.6711025629
 20
252.8445844836
 30
0.0
 10
1.6711025629
 20
252.4363218743
 30
0.0
 10
1.7504766116
 20
251.6414904992
 30
0.0
 10
2.1306585824
 20
250.5404890056
 30
0.0
 10
2.7536288694
 20
249.6244060106
 30
0.0
 10
3.3174380073
 20
249.1709533
 30
0.0
 10
3.6196900678
 20
248.9963495704
 30
0.0
  0
SPLINE
  5
2FE
100
AcDbEntity
  8
0
100
AcDbSpline
 62
7
  6
CONTINUOUS
 70
0
 71
3
 72
11
 73
7
 74
0
 42
0.0000001
 43
0.0000001
 44
0.0000000001
 40
0.0
 40
0.0
 40
0.0
 40
0.0
 40
0.2717775313
 40
0.5268694486
 40
0.7676333348
 40
1.0
 40
1.0
 40
1.0
 40
1.0
 10
10.5554003892
 20
245.3432221313
 30
0.0
 10
10.5554003892
 20
244.934959522
 30
0.0
 10
10.634774438
 20
244.1401281469
 30
0.0
 10
11.0149564087
 20
243.0391266533
 30
0.0
 10
11.6379266958
 20
242.1230436583
 30
0.0
 10
12.2017358336
 20
241.6695909478
 30
0.0
 10
12.5039878942
 20
241.4949872181
 30
0.0
  0
SPLINE
  5
2FF
100
AcDbEntity
  8
0
100
AcDbSpline
 62
7
  6
CONTINUOUS
 70
0
 71
3
 72
11
 73
7
 74
0
 42
0.0000001
 43
0.0000001
 44
0.0000000001
 40
0.0
 40
0.0
 40
0.0
 40
0.0
 40
0.2717775313
 40
0.5268694486
 40
0.7676333348
 40
1.0
 40
1.0
 40
1.0
 40
1.0
 10
-7.2131952635
 20
240.5802526471
 30
0.0
 10
-7.2131952635
 20
240.1719900378
 30
0.0
 10
-7.1338212147
 20
239.3771586627
 30
0.0
 10
-6.7536392439
 20
238.2761571691
 30
0.0
 10
-6.1306689569
 20
237.3600741741
 30
0.0
 10
-5.5668598191
 20
236.9066214635
 30
0.0
 10
-5.2646077585
 20
236.7320177339
 30
0.0
  0
SPLINE
  5
300
100
AcDbEntity
  8
0
100
AcDbSpline
 62
7
  6
CONTINUOUS
 70
0
 71
3
 72
10
 73
6
 74
0
 42
0.0000001
 43
0.0000001
 44
0.0000000001
 40
0.0
 40
0.0
 40
0.0
 40
0.0
 40
0.2403281524
 40
0.485096085
 40
1.0
 40
1.0
 40
1.0
 40
1.0
 10
7.5060453653
 20
238.5592634925
 30
0.0
 10
7.3615115263
 20
238.6427167274
 30
0.0
 10
7.0504598705
 20
238.7800656062
 30
0.0
 10
6.3668334131
 20
238.9224078469
 30
0.0
 10
5.8258241181
 20
238.8681048143
 30
0.0
 10
5.4804408812
 20
238.775522944
 30
0.0
  0
SPLINE
  5
301
100
AcDbEntity
  8
0
100
AcDbSpline
 62
7
  6
CONTINUOUS
 70
0
 71
3
 72
9
 73
5
 74
0
 42
0.0000001
 43
0.0000001
 44
0.0000000001
 40
0.0
 40
0.0
 40
0.0
 40
0.0
 40
0.2483301759
 40
1.0
 40
1.0
 40
1.0
 40
1.0
 10
-3.5174389537
 20
246.2568347089
 30
0.0
 10
-3.5657524345
 20
246.284747337
 30
0.0
 10
-3.7653942141
 20
246.3881916745
 30
0.0
 10
-3.9841477765
 20
246.4539928631
 30
0.0
 10
-4.1508183576
 20
246.4812942087
 30
0.0
  0
SPLINE
  5
302
100
AcDbEntity
  8
0
100
AcDbSpline
 62
7
  6
CONTINUOUS
 70
0
 71
3
 72
15
 73
11
 74
0
 42
0.0000001
 43
0.0000001
 44
0.0000000001
 40
0.0
 40
0.0
 40
0.0
 40
0.0
 40
0.0524622067
 40
0.1056451731
 40
0.2162149228
 40
0.3353287396
 40
0.4632716105
 40
0.5978589133
 40
0.7353247898
 40
1.0
 40
1.0
 40
1.0
 40
1.0
 10
0.7089560259
 20
247.0743932121
 30
0.0
 10
0.5270097313
 20
247.1794992007
 30
0.0
 10
0.1401263597
 20
247.3577416285
 30
0.0
 10
-0.7025269187
 20
247.5739695121
 30
0.0
 10
-1.8579941598
 20
247.5579598864
 30
0.0
 10
-3.2354244593
 20
247.1035736091
 30
0.0
 10
-4.5297538024
 20
246.2632582176
 30
0.0
 10
-5.6514892846
 20
245.0998809116
 30
0.0
 10
-6.7934188043
 20
243.2689539092
 30
0.0
 10
-7.2131952635
 20
241.6403372829
 30
0.0
 10
-7.2131952635
 20
240.5802526471
 30
0.0
  0
SPLINE
  5
303
100
AcDbEntity
  8
0
100
AcDbSpline
 62
7
  6
CONTINUOUS
 70
0
 71
3
 72
9
 73
5
 74
0
 42
0.0000001
 43
0.0000001
 44
0.0000000001
 40
0.0
 40
0.0
 40
0.0
 40
0.0
 40
0.2483301759
 40
1.0
 40
1.0
 40
1.0
 40
1.0
 10
14.2511566989
 20
251.0198041931
 30
0.0
 10
14.2028432182
 20
251.0477168212
 30
0.0
 10
14.0032014386
 20
251.1511611587
 30
0.0
 10
13.7844478762
 20
251.2169623474
 30
0.0
 10
13.617777295
 20
251.2442636929
 30
0.0
  0
SPLINE
  5
304
100
AcDbEntity
  8
0
100
AcDbSpline
 62
7
  6
CONTINUOUS
 70
0
 71
3
 72
15
 73
11
 74
0
 42
0.0000001
 43
0.0000001
 44
0.0000000001
 40
0.0
 40
0.0
 40
0.0
 40
0.0
 40
0.0524622067
 40
0.1056451731
 40
0.2162149228
 40
0.3353287396
 40
0.4632716105
 40
0.5978589133
 40
0.7353247898
 40
1.0
 40
1.0
 40
1.0
 40
1.0
 10
18.4775516785
 20
251.8373626963
 30
0.0
 10
18.295605384
 20
251.9424686849
 30
0.0
 10
17.9087220124
 20
252.1207111127
 30
0.0
 10
17.066068734
 20
252.3369389963
 30
0.0
 10
15.9106014929
 20
252.3209293706
 30
0.0
 10
14.5331711934
 20
251.8665430933
 30
0.0
 10
13.2388418502
 20
251.0262277019
 30
0.0
 10
12.1171063681
 20
249.8628503958
 30
0.0
 10
10.9751768483
 20
248.0319233934
 30
0.0
 10
10.5554003892
 20
246.4033067671
 30
0.0
 10
10.5554003892
 20
245.3432221313
 30
0.0
  0
SPLINE
  5
305
100
AcDbEntity
  8
0
100
AcDbSpline
 62
7
  6
CONTINUOUS
 70
0
 71
3
 72
9
 73
5
 74
0
 42
0.0000001
 43
0.0000001
 44
0.0000000001
 40
0.0
 40
0.0
 40
0.0
 40
0.0
 40
0.2483301759
 40
1.0
 40
1.0
 40
1.0
 40
1.0
 10
5.3668588726
 20
258.5211665454
 30
0.0
 10
5.3185453918
 20
258.5490791735
 30
0.0
 10
5.1189036122
 20
258.652523511
 30
0.0
 10
4.9001500498
 20
258.7183246996
 30
0.0
 10
4.7334794687
 20
258.7456260452
 30
0.0
  0
SPLINE
  5
306
100
AcDbEntity
  8
0
100
AcDbSpline
 62
7
  6
CONTINUOUS
 70
0
 71
3
 72
15
 73
11
 74
0
 42
0.0000001
 43
0.0000001
 44
0.0000000001
 40
0.0
 40
0.0
 40
0.0
 40
0.0
 40
0.0524622067
 40
0.1056451731
 40
0.2162149228
 40
0.3353287396
 40
0.4632716105
 40
0.5978589133
 40
0.7353247898
 40
1.0
 40
1.0
 40
1.0
 40
1.0
 10
9.5932538522
 20
259.3387250486
 30
0.0
 10
9.4113075577
 20
259.4438310372
 30
0.0
 10
9.0244241861
 20
259.622073465
 30
0.0
 10
8.1817709077
 20
259.8383013486
 30
0.0
 10
7.0263036665
 20
259.8222917229
 30
0.0
 10
5.648873367
 20
259.3679054455
 30
0.0
 10
4.3545440239
 20
258.5275900541
 30
0.0
 10
3.2328085417
 20
257.3642127481
 30
0.0
 10
2.090879022
 20
255.5332857457
 30
0.0
 10
1.6711025629
 20
253.9046691194
 30
0.0
 10
1.6711025629
 20
252.8445844836
 30
0.0
  0
SPLINE
  5
307
100
AcDbEntity
  8
0
100
AcDbSpline
 62
7
  6
CONTINUOUS
 70
0
 71
3
 72
9
 73
5
 74
0
 42
0.0000001
 43
0.0000001
 44
0.0000000001
 40
0.0
 40
0.0
 40
0.0
 40
0.0
 40
0.2533757694
 40
1.0
 40
1.0
 40
1.0
 40
1.0
 10
1.7153430518
 20
253.4897543539
 30
0.0
 10
1.7508708408
 20
253.4470278559
 30
0.0
 10
1.898089457
 20
253.2843572253
 30
0.0
 10
2.074148883
 20
253.1476936832
 30
0.0
 10
2.2159296532
 20
253.0657812678
 30
0.0
  0
SPLINE
  5
308
100
AcDbEntity
  8
0
100
AcDbSpline
 62
7
  6
CONTINUOUS
 70
0
 71
3
 72
9
 73
5
 74
0
 42
0.0000001
 43
0.0000001
 44
0.0000000001
 40
0.0
 40
0.0
 40
0.0
 40
0.0
 40
0.2533757694
 40
1.0
 40
1.0
 40
1.0
 40
1.0
 10
10.5996408781
 20
245.9883920016
 30
0.0
 10
10.6351686672
 20
245.9456655036
 30
0.0
 10
10.7823872833
 20
245.782994873
 30
0.0
 10
10.9584467093
 20
245.646331331
 30
0.0
 10
11.1002274795
 20
245.5644189155
 30
0.0
  0
SPLINE
  5
309
100
AcDbEntity
  8
0
100
AcDbSpline
 62
7
  6
CONTINUOUS
 70
0
 71
3
 72
9
 73
5
 74
0
 42
0.0000001
 43
0.0000001
 44
0.0000000001
 40
0.0
 40
0.0
 40
0.0
 40
0.0
 40
0.2533757694
 40
1.0
 40
1.0
 40
1.0
 40
1.0
 10
-7.1689547746
 20
241.2254225174
 30
0.0
 10
-7.1334269855
 20
241.1826960194
 30
0.0
 10
-6.9862083694
 20
241.0200253888
 30
0.0
 10
-6.8101489434
 20
240.8833618468
 30
0.0
 10
-6.6683681732
 20
240.8014494313
 30
0.0
  0
SPLINE
  5
30A
100
AcDbEntity
  8
0
100
AcDbSpline
 62
7
  6
CONTINUOUS
 70
0
 71
3
 72
11
 73
7
 74
0
 42
0.0000001
 43
0.0000001
 44
0.0000000001
 40
0.0
 40
0.0
 40
0.0
 40
0.0
 40
0.2717668072
 40
0.5268680782
 40
0.7676307415
 40
1.0
 40
1.0
 40
1.0
 40
1.0
 10
2.133333328
 20
234.1550072341
 30
0.0
 10
2.1333333276
 20
233.878138492
 30
0.0
 10
2.1871719691
 20
233.3390980155
 30
0.0
 10
2.4449676273
 20
232.592391797
 30
0.0
 10
2.8674885188
 20
231.9711323042
 30
0.0
 10
3.2498248832
 20
231.6635448182
 30
0.0
 10
3.454836397
 20
231.5451720266
 30
0.0
  0
SPLINE
  5
30B
100
AcDbEntity
  8
0
100
AcDbSpline
 62
7
  6
CONTINUOUS
 70
0
 71
3
 72
12
 73
8
 74
0
 42
0.0000001
 43
0.0000001
 44
0.0000000001
 40
0.0
 40
0.0
 40
0.0
 40
0.0
 40
0.2349899833
 40
0.4894752595
 40
0.6202667695
 40
0.7503904793
 40
1.0
 40
1.0
 40
1.0
 40
1.0
 10
5.4804408812
 20
238.775522944
 30
0.0
 10
5.0213015465
 20
238.652448128
 30
0.0
 10
4.1162427108
 20
238.1900604321
 30
0.0
 10
3.2290519504
 20
237.2756474357
 30
0.0
 10
2.6806112578
 20
236.3847968087
 30
0.0
 10
2.2739413012
 20
235.4331284753
 30
0.0
 10
2.1333333286
 20
234.6599289632
 30
0.0
 10
2.133333328
 20
234.1550072341
 30
0.0
  0
SPLINE
  5
30C
100
AcDbEntity
  8
0
100
AcDbSpline
 62
7
  6
CONTINUOUS
 70
0
 71
3
 72
20
 73
16
 74
0
 42
0.0000001
 43
0.0000001
 44
0.0000000001
 40
0.0
 40
0.0
 40
0.0
 40
0.0
 40
0.0524886651
 40
0.1058788637
 40
0.1609446763
 40
0.218240177
 40
0.340076156
 40
0.4047856255
 40
0.4714397363
 40
0.6080572842
 40
0.7449175192
 40
0.8118576135
 40
0.8769396523
 40
0.9397340236
 40
1.0
 40
1.0
 40
1.0
 40
1.0
 10
16.6094598003
 20
261.603439397
 30
0.0
 10
17.293303533
 20
261.2084391183
 30
0.0
 10
18.5941064333
 20
260.2661831155
 30
0.0
 10
20.2387741924
 20
258.4684305825
 30
0.0
 10
21.546796239
 20
256.327662134
 30
0.0
 10
22.8264357588
 20
253.0282751745
 30
0.0
 10
23.2745463306
 20
249.3196620395
 30
0.0
 10
22.9581137265
 20
245.5166332375
 30
0.0
 10
22.1069317049
 20
241.5646676059
 30
0.0
 10
20.1078088018
 20
236.7981531732
 30
0.0
 10
17.0595783583
 20
232.6181824691
 30
0.0
 10
14.1131858136
 20
229.8327203763
 30
0.0
 10
11.7358603665
 20
228.1028183255
 30
0.0
 10
9.2335207344
 20
226.7606030346
 30
0.0
 10
7.4822931556
 20
226.1327666198
 30
0.0
 10
6.60647196
 20
225.8979979465
 30
0.0
  0
SPLINE
  5
30D
100
AcDbEntity
  8
0
100
AcDbSpline
 62
7
  6
CONTINUOUS
 70
0
 71
3
 72
11
 73
7
 74
0
 42
0.0000001
 43
0.0000001
 44
0.0000000001
 40
0.0
 40
0.0
 40
0.0
 40
0.0
 40
0.2717775313
 40
0.5268694486
 40
0.7676333348
 40
1.0
 40
1.0
 40
1.0
 40
1.0
 10
11.5418413572
 20
255.4904901355
 30
0.0
 10
11.5418413572
 20
255.8987527448
 30
0.0
 10
11.4624673084
 20
256.6935841198
 30
0.0
 10
11.0822853376
 20
257.7945856135
 30
0.0
 10
10.4593150506
 20
258.7106686085
 30
0.0
 10
9.8955059128
 20
259.164121319
 30
0.0
 10
9.5932538522
 20
259.3387250486
 30
0.0
  0
SPLINE
  5
30E
100
AcDbEntity
  8
0
100
AcDbSpline
 62
7
  6
CONTINUOUS
 70
0
 71
3
 72
11
 73
7
 74
0
 42
0.0000001
 43
0.0000001
 44
0.0000000001
 40
0.0
 40
0.0
 40
0.0
 40
0.0
 40
0.2717775313
 40
0.5268694486
 40
0.7676333348
 40
1.0
 40
1.0
 40
1.0
 40
1.0
 10
2.6575435308
 20
243.226158299
 30
0.0
 10
2.6575435308
 20
243.6344209083
 30
0.0
 10
2.5781694821
 20
244.4292522833
 30
0.0
 10
2.1979875113
 20
245.530253777
 30
0.0
 10
1.5750172242
 20
246.446336772
 30
0.0
 10
1.0112080864
 20
246.8997894825
 30
0.0
 10
0.7089560259
 20
247.0743932121
 30
0.0
  0
SPLINE
  5
30F
100
AcDbEntity
  8
0
100
AcDbSpline
 62
7
  6
CONTINUOUS
 70
0
 71
3
 72
14
 73
10
 74
0
 42
0.0000001
 43
0.0000001
 44
0.0000000001
 40
0.0
 40
0.0
 40
0.0
 40
0.0
 40
0.1052607121
 40
0.2158763284
 40
0.3350400042
 40
0.4630364262
 40
0.5976785521
 40
0.735210095
 40
1.0
 40
1.0
 40
1.0
 40
1.0
 10
-6.6683681732
 20
240.8014494313
 30
0.0
 10
-6.47589538
 20
240.6902502088
 30
0.0
 10
-6.0344560708
 20
240.5355037833
 30
0.0
 10
-5.3148288585
 20
240.5466258822
 30
0.0
 10
-4.5876960808
 20
240.7859887597
 30
0.0
 10
-3.905142843
 20
241.2293159353
 30
0.0
 10
-3.3133835871
 20
241.8429361308
 30
0.0
 10
-2.7110597872
 20
242.8087331227
 30
0.0
 10
-2.4895976888
 20
243.6677982744
 30
0.0
 10
-2.4895976888
 20
244.2269724829
 30
0.0
  0
SPLINE
  5
310
100
AcDbEntity
  8
0
100
AcDbSpline
 62
7
  6
CONTINUOUS
 70
0
 71
3
 72
11
 73
7
 74
0
 42
0.0000001
 43
0.0000001
 44
0.0000000001
 40
0.0
 40
0.0
 40
0.0
 40
0.0
 40
0.2634102209
 40
0.5159328187
 40
0.7602044916
 40
1.0
 40
1.0
 40
1.0
 40
1.0
 10
6.60647196
 20
262.6713824838
 30
0.0
 10
7.4809198526
 20
262.9057830357
 30
0.0
 10
9.2361210162
 20
263.2246535699
 30
0.0
 10
11.8646184316
 20
263.2117434958
 30
0.0
 10
14.3603675449
 20
262.6941813891
 30
0.0
 10
15.8958012952
 20
262.0156612175
 30
0.0
 10
16.6094598003
 20
261.603439397
 30
0.0
  0
SPLINE
  5
311
100
AcDbEntity
  8
0
100
AcDbSpline
 62
7
  6
CONTINUOUS
 70
0
 71
3
 72
15
 73
11
 74
0
 42
0.0000001
 43
0.0000001
 44
0.0000000001
 40
0.0
 40
0.0
 40
0.0
 40
0.0
 40
0.1383951981
 40
0.2695587326
 40
0.3940347268
 40
0.5135537928
 40
0.6308546392
 40
0.7491689886
 40
0.8715002297
 40
1.0
 40
1.0
 40
1.0
 40
1.0
 10
1.606471788
 20
233.0615656612
 30
0.0
 10
1.6064717875
 20
232.7070036419
 30
0.0
 10
1.6658813761
 20
232.014349283
 30
0.0
 10
1.9472241567
 20
231.0376707537
 30
0.0
 10
2.4106580716
 20
230.1859118758
 30
0.0
 10
3.0410262689
 20
229.4949007207
 30
0.0
 10
3.8140010031
 20
228.995622657
 30
0.0
 10
4.6962363785
 20
228.7104394546
 30
0.0
 10
5.6486881656
 20
228.6493182636
 30
0.0
 10
6.2884875871
 20
228.7546312549
 30
0.0
 10
6.60647196
 20
228.8398687095
 30
0.0
  0
SPLINE
  5
312
100
AcDbEntity
  8
0
100
AcDbSpline
 62
7
  6
CONTINUOUS
 70
0
 71
3
 72
15
 73
11
 74
0
 42
0.0000001
 43
0.0000001
 44
0.0000000001
 40
0.0
 40
0.0
 40
0.0
 40
0.0
 40
0.0524622067
 40
0.1056451731
 40
0.2162149228
 40
0.3353287396
 40
0.4632716105
 40
0.5978589133
 40
0.7353247898
 40
1.0
 40
1.0
 40
1.0
 40
1.0
 10
-5.2646077585
 20
236.7320177339
 30
0.0
 10
-5.082661464
 20
236.6269117454
 30
0.0
 10
-4.6957780924
 20
236.4486693176
 30
0.0
 10
-3.853124814
 20
236.232441434
 30
0.0
 10
-2.6976575728
 20
236.2484510597
 30
0.0
 10
-1.3202272733
 20
236.702837337
 30
0.0
 10
-0.0258979302
 20
237.5431527284
 30
0.0
 10
1.095837552
 20
238.7065300344
 30
0.0
 10
2.2377670717
 20
240.5374570369
 30
0.0
 10
2.6575435308
 20
242.1660736632
 30
0.0
 10
2.6575435308
 20
243.226158299
 30
0.0
  0
SPLINE
  5
313
100
AcDbEntity
  8
0
100
AcDbSpline
 62
7
  6
CONTINUOUS
 70
0
 71
3
 72
14
 73
10
 74
0
 42
0.0000001
 43
0.0000001
 44
0.0000000001
 40
0.0
 40
0.0
 40
0.0
 40
0.0
 40
0.2346073929
 40
0.3603379301
 40
0.4894684284
 40
0.6200482101
 40
0.7499714674
 40
0.8772023527
 40
1.0
 40
1.0
 40
1.0
 40
1.0
 10
6.60647196
 20
228.8398687095
 30
0.0
 10
7.2923306531
 20
229.0237168925
 30
0.0
 10
8.291925094
 20
229.5346422872
 30
0.0
 10
9.4124083162
 20
230.5078968676
 30
0.0
 10
10.1685872445
 20
231.4030680176
 30
0.0
 10
10.7888995889
 20
232.410873734
 30
0.0
 10
11.2513840305
 20
233.4943471566
 30
0.0
 10
11.5382751571
 20
234.6124867359
 30
0.0
 10
11.6064721318
 20
235.3704563511
 30
0.0
 10
11.606472132
 20
235.7421205803
 30
0.0
  0
SPLINE
  5
314
100
AcDbEntity
  8
0
100
AcDbSpline
 62
7
  6
CONTINUOUS
 70
0
 71
3
 72
14
 73
10
 74
0
 42
0.0000001
 43
0.0000001
 44
0.0000000001
 40
0.0
 40
0.0
 40
0.0
 40
0.0
 40
0.2557912116
 40
0.3891490899
 40
0.5219109416
 40
0.6511936057
 40
0.7746421239
 40
0.890894578
 40
1.0
 40
1.0
 40
1.0
 40
1.0
 10
8.72676366
 20
257.1164267325
 30
0.0
 10
8.72676366
 20
256.2339597588
 30
0.0
 10
8.4353856199
 20
254.8799759874
 30
0.0
 10
7.615356903
 20
253.2716605285
 30
0.0
 10
6.7900666188
 20
252.1755133796
 30
0.0
 10
5.8068949628
 20
251.268882446
 30
0.0
 10
4.7144591963
 20
250.5978665019
 30
0.0
 10
3.5683410148
 20
250.199472936
 30
0.0
 10
2.7830031679
 20
250.131314658
 30
0.0
 10
2.4072047342
 20
250.1527327622
 30
0.0
  0
SPLINE
  5
315
100
AcDbEntity
  8
0
100
AcDbSpline
 62
7
  6
CONTINUOUS
 70
0
 71
3
 72
11
 73
7
 74
0
 42
0.0000001
 43
0.0000001
 44
0.0000000001
 40
0.0
 40
0.0
 40
0.0
 40
0.0
 40
0.2717570839
 40
0.5268813873
 40
0.7676358954
 40
1.0
 40
1.0
 40
1.0
 40
1.0
 10
6.3947001376
 20
256.4913043194
 30
0.0
 10
6.3947001376
 20
256.7066382359
 30
0.0
 10
6.3528082962
 20
257.1258979935
 30
0.0
 10
6.1523277157
 20
257.7066791338
 30
0.0
 10
5.8236703183
 20
258.1898828847
 30
0.0
 10
5.5262844295
 20
258.4290600317
 30
0.0
 10
5.3668588726
 20
258.5211665454
 30
0.0
  0
SPLINE
  5
316
100
AcDbEntity
  8
0
100
AcDbSpline
 62
7
  6
CONTINUOUS
 70
0
 71
3
 72
9
 73
5
 74
0
 42
0.0000001
 43
0.0000001
 44
0.0000000001
 40
0.0
 40
0.0
 40
0.0
 40
0.0
 40
0.481087829
 40
1.0
 40
1.0
 40
1.0
 40
1.0
 10
-0.8877174023
 20
247.5301585436
 30
0.0
 10
-0.6431143417
 20
247.1527396966
 30
0.0
 10
-0.2683241214
 20
246.2773717403
 30
0.0
 10
-0.1575341663
 20
245.3372060751
 30
0.0
 10
-0.1575341663
 20
244.852094896
 30
0.0
  0
SPLINE
  5
317
100
AcDbEntity
  8
0
100
AcDbSpline
 62
7
  6
CONTINUOUS
 70
0
 71
3
 72
14
 73
10
 74
0
 42
0.0000001
 43
0.0000001
 44
0.0000000001
 40
0.0
 40
0.0
 40
0.0
 40
0.0
 40
0.1052607121
 40
0.2158763284
 40
0.3350400042
 40
0.4630364262
 40
0.5976785521
 40
0.735210095
 40
1.0
 40
1.0
 40
1.0
 40
1.0
 10
11.1002274795
 20
245.5644189155
 30
0.0
 10
11.2927002727
 20
245.453219693
 30
0.0
 10
11.7341395819
 20
245.2984732675
 30
0.0
 10
12.4537667942
 20
245.3095953664
 30
0.0
 10
13.1808995719
 20
245.5489582439
 30
0.0
 10
13.8634528097
 20
245.9922854195
 30
0.0
 10
14.4552120656
 20
246.605905615
 30
0.0
 10
15.0575358654
 20
247.5717026069
 30
0.0
 10
15.2789979639
 20
248.4307677586
 30
0.0
 10
15.2789979639
 20
248.9899419671
 30
0.0
  0
SPLINE
  5
318
100
AcDbEntity
  8
0
100
AcDbSpline
 62
7
  6
CONTINUOUS
 70
0
 71
3
 72
15
 73
11
 74
0
 42
0.0000001
 43
0.0000001
 44
0.0000000001
 40
0.0
 40
0.0
 40
0.0
 40
0.0
 40
0.1383951981
 40
0.2695587326
 40
0.3940347268
 40
0.5135537928
 40
0.6308546392
 40
0.7491689886
 40
0.8715002297
 40
1.0
 40
1.0
 40
1.0
 40
1.0
 10
11.606472132
 20
235.7421205803
 30
0.0
 10
11.6064721323
 20
236.0966825996
 30
0.0
 10
11.547062544
 20
236.7893369586
 30
0.0
 10
11.2657197633
 20
237.7660154879
 30
0.0
 10
10.8022858484
 20
238.6177743657
 30
0.0
 10
10.1719176511
 20
239.3087855208
 30
0.0
 10
9.3989429169
 20
239.8080635845
 30
0.0
 10
8.5167075415
 20
240.0932467869
 30
0.0
 10
7.5642557545
 20
240.1543679779
 30
0.0
 10
6.9244563329
 20
240.0490549866
 30
0.0
 10
6.60647196
 20
239.963817532
 30
0.0
  0
SPLINE
  5
319
100
AcDbEntity
  8
0
100
AcDbSpline
 62
7
  6
CONTINUOUS
 70
0
 71
3
 72
14
 73
10
 74
0
 42
0.0000001
 43
0.0000001
 44
0.0000000001
 40
0.0
 40
0.0
 40
0.0
 40
0.0
 40
0.2557912116
 40
0.3891490899
 40
0.5219109416
 40
0.6511936057
 40
0.7746421239
 40
0.890894578
 40
1.0
 40
1.0
 40
1.0
 40
1.0
 10
17.6110614864
 20
249.6150643803
 30
0.0
 10
17.6110614864
 20
248.7325974065
 30
0.0
 10
17.3196834462
 20
247.3786136351
 30
0.0
 10
16.4996547293
 20
245.7702981762
 30
0.0
 10
15.6743644452
 20
244.6741510273
 30
0.0
 10
14.6911927891
 20
243.7675200937
 30
0.0
 10
13.5987570226
 20
243.0965041496
 30
0.0
 10
12.4526388411
 20
242.6981105838
 30
0.0
 10
11.6673009942
 20
242.6299523057
 30
0.0
 10
11.2915025605
 20
242.6513704099
 30
0.0
  0
SPLINE
  5
31A
100
AcDbEntity
  8
0
100
AcDbSpline
 62
7
  6
CONTINUOUS
 70
0
 71
3
 72
11
 73
7
 74
0
 42
0.0000001
 43
0.0000001
 44
0.0000000001
 40
0.0
 40
0.0
 40
0.0
 40
0.0
 40
0.2717570839
 40
0.5268813873
 40
0.7676358954
 40
1.0
 40
1.0
 40
1.0
 40
1.0
 10
15.2789979639
 20
248.9899419671
 30
0.0
 10
15.2789979639
 20
249.2052758837
 30
0.0
 10
15.2371061226
 20
249.6245356413
 30
0.0
 10
15.036625542
 20
250.2053167815
 30
0.0
 10
14.7079681447
 20
250.6885205324
 30
0.0
 10
14.4105822559
 20
250.9276976794
 30
0.0
 10
14.2511566989
 20
251.0198041931
 30
0.0
  0
SPLINE
  5
31B
100
AcDbEntity
  8
0
100
AcDbSpline
 62
7
  6
CONTINUOUS
 70
0
 71
3
 72
15
 73
11
 74
0
 42
0.0000001
 43
0.0000001
 44
0.0000000001
 40
0.0
 40
0.0
 40
0.0
 40
0.0
 40
0.0524622067
 40
0.1056451731
 40
0.2162149228
 40
0.3353287396
 40
0.4632716105
 40
0.5978589133
 40
0.7353247898
 40
1.0
 40
1.0
 40
1.0
 40
1.0
 10
12.5039878942
 20
241.4949872181
 30
0.0
 10
12.6859341887
 20
241.3898812296
 30
0.0
 10
13.0728175603
 20
241.2116388018
 30
0.0
 10
13.9154708387
 20
240.9954109182
 30
0.0
 10
15.0709380798
 20
241.0114205439
 30
0.0
 10
16.4483683793
 20
241.4658068212
 30
0.0
 10
17.7426977225
 20
242.3061222126
 30
0.0
 10
18.8644332046
 20
243.4694995186
 30
0.0
 10
20.0063627244
 20
245.3004265211
 30
0.0
 10
20.4261391835
 20
246.9290431474
 30
0.0
 10
20.4261391835
 20
247.9891277832
 30
0.0
  0
SPLINE
  5
31C
100
AcDbEntity
  8
0
100
AcDbSpline
 62
7
  6
CONTINUOUS
 70
0
 71
3
 72
14
 73
10
 74
0
 42
0.0000001
 43
0.0000001
 44
0.0000000001
 40
0.0
 40
0.0
 40
0.0
 40
0.0
 40
0.2346073929
 40
0.3603379301
 40
0.4894684284
 40
0.6200482101
 40
0.7499714674
 40
0.8772023527
 40
1.0
 40
1.0
 40
1.0
 40
1.0
 10
6.60647196
 20
239.963817532
 30
0.0
 10
5.920613267
 20
239.779969349
 30
0.0
 10
4.921018826
 20
239.2690439543
 30
0.0
 10
3.8005356038
 20
238.2957893739
 30
0.0
 10
3.0443566756
 20
237.4006182239
 30
0.0
 10
2.4240443311
 20
236.3928125075
 30
0.0
 10
1.9615598896
 20
235.3093390849
 30
0.0
 10
1.6746687628
 20
234.1911995056
 30
0.0
 10
1.6064717885
 20
233.4332298904
 30
0.0
 10
1.606471788
 20
233.0615656612
 30
0.0
  0
SPLINE
  5
31D
100
AcDbEntity
  8
0
100
AcDbSpline
 62
7
  6
CONTINUOUS
 70
0
 71
3
 72
14
 73
10
 74
0
 42
0.0000001
 43
0.0000001
 44
0.0000000001
 40
0.0
 40
0.0
 40
0.0
 40
0.0
 40
0.2557912116
 40
0.3891490899
 40
0.5219109416
 40
0.6511936057
 40
0.7746421239
 40
0.890894578
 40
1.0
 40
1.0
 40
1.0
 40
1.0
 10
-0.1575341663
 20
244.852094896
 30
0.0
 10
-0.1575341663
 20
243.9696279223
 30
0.0
 10
-0.4489122064
 20
242.6156441509
 30
0.0
 10
-1.2689409233
 20
241.007328692
 30
0.0
 10
-2.0942312075
 20
239.9111815431
 30
0.0
 10
-3.0774028636
 20
239.0045506095
 30
0.0
 10
-4.1698386301
 20
238.3335346654
 30
0.0
 10
-5.3159568115
 20
237.9351410995
 30
0.0
 10
-6.1012946584
 20
237.8669828215
 30
0.0
 10
-6.4770930922
 20
237.8884009257
 30
0.0
  0
SPLINE
  5
31E
100
AcDbEntity
  8
0
100
AcDbSpline
 62
7
  6
CONTINUOUS
 70
0
 71
3
 72
11
 73
7
 74
0
 42
0.0000001
 43
0.0000001
 44
0.0000000001
 40
0.0
 40
0.0
 40
0.0
 40
0.0
 40
0.2717570839
 40
0.5268813873
 40
0.7676358954
 40
1.0
 40
1.0
 40
1.0
 40
1.0
 10
-2.4895976888
 20
244.2269724829
 30
0.0
 10
-2.4895976888
 20
244.4423063994
 30
0.0
 10
-2.5314895301
 20
244.861566157
 30
0.0
 10
-2.7319701107
 20
245.4423472973
 30
0.0
 10
-3.060627508
 20
245.9255510482
 30
0.0
 10
-3.3580133968
 20
246.1647281952
 30
0.0
 10
-3.5174389537
 20
246.2568347089
 30
0.0
  0
SPLINE
  5
31F
100
AcDbEntity
  8
0
100
AcDbSpline
 62
7
  6
CONTINUOUS
 70
0
 71
3
 72
9
 73
5
 74
0
 42
0.0000001
 43
0.0000001
 44
0.0000000001
 40
0.0
 40
0.0
 40
0.0
 40
0.0
 40
0.481087829
 40
1.0
 40
1.0
 40
1.0
 40
1.0
 10
16.8808782504
 20
252.2931280278
 30
0.0
 10
17.1254813109
 20
251.9157091808
 30
0.0
 10
17.5002715313
 20
251.0403412246
 30
0.0
 10
17.6110614864
 20
250.1001755593
 30
0.0
 10
17.6110614864
 20
249.6150643803
 30
0.0
  0
SPLINE
  5
320
100
AcDbEntity
  8
0
100
AcDbSpline
 62
7
  6
CONTINUOUS
 70
0
 71
3
 72
12
 73
8
 74
0
 42
0.0000001
 43
0.0000001
 44
0.0000000001
 40
0.0
 40
0.0
 40
0.0
 40
0.0
 40
0.2349899832
 40
0.4894752595
 40
0.6202667695
 40
0.7503904793
 40
1.0
 40
1.0
 40
1.0
 40
1.0
 10
5.4804408763
 20
231.3289125739
 30
0.0
 10
5.9395802119
 20
231.451987389
 30
0.0
 10
6.8446390495
 20
231.9143750854
 30
0.0
 10
7.7318298117
 20
232.8287880829
 30
0.0
 10
8.2802705053
 20
233.7196387116
 30
0.0
 10
8.686940462
 20
234.6713070468
 30
0.0
 10
8.8275484346
 20
235.4445065604
 30
0.0
 10
8.8275484343
 20
235.9494282903
 30
0.0
  0
SPLINE
  5
321
100
AcDbEntity
  8
0
100
AcDbSpline
 62
7
  6
CONTINUOUS
 70
0
 71
3
 72
11
 73
7
 74
0
 42
0.0000001
 43
0.0000001
 44
0.0000000001
 40
0.0
 40
0.0
 40
0.0
 40
0.0
 40
0.2717668072
 40
0.5268680781
 40
0.7676307415
 40
1.0
 40
1.0
 40
1.0
 40
1.0
 10
8.8275484343
 20
235.9494282903
 30
0.0
 10
8.8275484342
 20
236.2262970319
 30
0.0
 10
8.7737097924
 20
236.7653375074
 30
0.0
 10
8.5159141338
 20
237.5120437243
 30
0.0
 10
8.0933932427
 20
238.1333032158
 30
0.0
 10
7.7110568788
 20
238.4408907011
 30
0.0
 10
7.5060453653
 20
238.5592634925
 30
0.0
  0
SPLINE
  5
322
100
AcDbEntity
  8
0
100
AcDbSpline
 62
7
  6
CONTINUOUS
 70
0
 71
3
 72
14
 73
10
 74
0
 42
0.0000001
 43
0.0000001
 44
0.0000000001
 40
0.0
 40
0.0
 40
0.0
 40
0.0
 40
0.1052607121
 40
0.2158763284
 40
0.3350400042
 40
0.4630364262
 40
0.5976785521
 40
0.735210095
 40
1.0
 40
1.0
 40
1.0
 40
1.0
 10
2.2159296532
 20
253.0657812678
 30
0.0
 10
2.4084024463
 20
252.9545820453
 30
0.0
 10
2.8498417556
 20
252.7998356198
 30
0.0
 10
3.5694689679
 20
252.8109577187
 30
0.0
 10
4.2966017456
 20
253.0503205962
 30
0.0
 10
4.9791549833
 20
253.4936477718
 30
0.0
 10
5.5709142393
 20
254.1072679673
 30
0.0
 10
6.1732380391
 20
255.0730649592
 30
0.0
 10
6.3947001376
 20
255.9321301109
 30
0.0
 10
6.3947001376
 20
256.4913043194
 30
0.0
  0
SPLINE
  5
323
100
AcDbEntity
  8
0
100
AcDbSpline
 62
7
  6
CONTINUOUS
 70
0
 71
3
 72
11
 73
7
 74
0
 42
0.0000001
 43
0.0000001
 44
0.0000000001
 40
0.0
 40
0.0
 40
0.0
 40
0.0
 40
0.2717775313
 40
0.5268694486
 40
0.7676333348
 40
1.0
 40
1.0
 40
1.0
 40
1.0
 10
20.4261391835
 20
247.9891277832
 30
0.0
 10
20.4261391835
 20
248.3973903925
 30
0.0
 10
20.3467651347
 20
249.1922217675
 30
0.0
 10
19.966583164
 20
250.2932232612
 30
0.0
 10
19.3436128769
 20
251.2093062562
 30
0.0
 10
18.7798037391
 20
251.6627589667
 30
0.0
 10
18.4775516785
 20
251.8373626963
 30
0.0
  0
SPLINE
  5
324
100
AcDbEntity
  8
0
100
AcDbSpline
 62
7
  6
CONTINUOUS
 70
0
 71
3
 72
20
 73
16
 74
0
 42
0.0000001
 43
0.0000001
 44
0.0000000001
 40
0.0
 40
0.0
 40
0.0
 40
0.0
 40
0.0524886651
 40
0.1058788637
 40
0.1609446763
 40
0.218240177
 40
0.340076156
 40
0.4047856255
 40
0.4714397363
 40
0.6080572842
 40
0.7449175192
 40
0.8118576135
 40
0.8769396523
 40
0.9397340236
 40
1.0
 40
1.0
 40
1.0
 40
1.0
 10
-3.3965158803
 20
226.9659410332
 30
0.0
 10
-4.0803596129
 20
227.360941312
 30
0.0
 10
-5.3811625133
 20
228.3031973147
 30
0.0
 10
-7.0258302724
 20
230.1009498477
 30
0.0
 10
-8.333852319
 20
232.2417182963
 30
0.0
 10
-9.6134918388
 20
235.5411052558
 30
0.0
 10
-10.0616024105
 20
239.2497183908
 30
0.0
 10
-9.7451698064
 20
243.0527471928
 30
0.0
 10
-8.8939877849
 20
247.0047128244
 30
0.0
 10
-6.8948648817
 20
251.7712272571
 30
0.0
 10
-3.8466344383
 20
255.9511979612
 30
0.0
 10
-0.9002418936
 20
258.736660054
 30
0.0
 10
1.4770835535
 20
260.4665621048
 30
0.0
 10
3.9794231856
 20
261.8087773957
 30
0.0
 10
5.7306507644
 20
262.4366138104
 30
0.0
 10
6.60647196
 20
262.6713824838
 30
0.0
  0
SPLINE
  5
325
100
AcDbEntity
  8
0
100
AcDbSpline
 62
7
  6
CONTINUOUS
 70
0
 71
3
 72
15
 73
11
 74
0
 42
0.0000001
 43
0.0000001
 44
0.0000000001
 40
0.0
 40
0.0
 40
0.0
 40
0.0
 40
0.0524622067
 40
0.1056451731
 40
0.2162149228
 40
0.3353287396
 40
0.4632716105
 40
0.5978589133
 40
0.7353247898
 40
1.0
 40
1.0
 40
1.0
 40
1.0
 10
3.6196900678
 20
248.9963495704
 30
0.0
 10
3.8016363624
 20
248.8912435819
 30
0.0
 10
4.1885197339
 20
248.7130011541
 30
0.0
 10
5.0311730124
 20
248.4967732705
 30
0.0
 10
6.1866402535
 20
248.5127828962
 30
0.0
 10
7.564070553
 20
248.9671691735
 30
0.0
 10
8.8583998961
 20
249.8074845649
 30
0.0
 10
9.9801353783
 20
250.9708618709
 30
0.0
 10
11.122064898
 20
252.8017888734
 30
0.0
 10
11.5418413572
 20
254.4304054997
 30
0.0
 10
11.5418413572
 20
255.4904901355
 30
0.0
  0
SPLINE
  5
326
100
AcDbEntity
  8
0
100
AcDbSpline
 62
7
  6
CONTINUOUS
 70
0
 71
3
 72
10
 73
6
 74
0
 42
0.0000001
 43
0.0000001
 44
0.0000000001
 40
0.0
 40
0.0
 40
0.0
 40
0.0
 40
0.2403281525
 40
0.4850960851
 40
1.0
 40
1.0
 40
1.0
 40
1.0
 10
3.454836397
 20
231.5451720266
 30
0.0
 10
3.5993702357
 20
231.4617187919
 30
0.0
 10
3.9104218908
 20
231.3243699134
 30
0.0
 10
4.5940483464
 20
231.1820276725
 30
0.0
 10
5.13505764
 20
231.2363307046
 30
0.0
 10
5.4804408763
 20
231.3289125739
 30
0.0
  0
SPLINE
  5
327
100
AcDbEntity
  8
0
100
AcDbSpline
 62
7
  6
CONTINUOUS
 70
0
 71
3
 72
9
 73
5
 74
0
 42
0.0000001
 43
0.0000001
 44
0.0000000001
 40
0.0
 40
0.0
 40
0.0
 40
0.0
 40
0.481087829
 40
1.0
 40
1.0
 40
1.0
 40
1.0
 10
7.9965804241
 20
259.7944903801
 30
0.0
 10
8.2411834846
 20
259.4170715331
 30
0.0
 10
8.6159737049
 20
258.5417035768
 30
0.0
 10
8.72676366
 20
257.6015379116
 30
0.0
 10
8.72676366
 20
257.1164267325
 30
0.0
  0
SPLINE
  5
328
100
AcDbEntity
  8
0
100
AcDbSpline
 62
7
  6
CONTINUOUS
 70
0
 71
3
 72
11
 73
7
 74
0
 42
0.0000001
 43
0.0000001
 44
0.0000000001
 40
0.0
 40
0.0
 40
0.0
 40
0.0
 40
0.2113006167
 40
0.4481759021
 40
0.71127675
 40
1.0
 40
1.0
 40
1.0
 40
1.0
 10
-18.6784215942
 20
277.2699455774
 30
0.0
 10
-18.2375260995
 20
276.7899717772
 30
0.0
 10
-17.2107970672
 20
275.8548648165
 30
0.0
 10
-15.4033143322
 20
274.6034304252
 30
0.0
 10
-13.2639532236
 20
273.4374377245
 30
0.0
 10
-11.7019560127
 20
272.7560869581
 30
0.0
 10
-10.8736064694
 20
272.4291265631
 30
0.0
  0
SPLINE
  5
329
100
AcDbEntity
  8
0
100
AcDbSpline
 62
7
  6
CONTINUOUS
 70
0
 71
3
 72
11
 73
7
 74
0
 42
0.0000001
 43
0.0000001
 44
0.0000000001
 40
0.0
 40
0.0
 40
0.0
 40
0.0
 40
0.1902430344
 40
0.4039724322
 40
0.6734081184
 40
1.0
 40
1.0
 40
1.0
 40
1.0
 10
-10.909669368
 20
272.3542812301
 30
0.0
 10
-10.9261767802
 20
272.3200219623
 30
0.0
 10
-10.9328565792
 20
272.231233028
 30
0.0
 10
-10.8534884263
 20
272.1156059274
 30
0.0
 10
-10.7249001506
 20
272.0161754327
 30
0.0
 10
-10.6179760853
 20
271.9619399123
 30
0.0
 10
-10.5580304005
 20
271.9360831613
 30
0.0
  0
SPLINE
  5
32A
100
AcDbEntity
  8
0
100
AcDbSpline
 62
7
  6
CONTINUOUS
 70
0
 71
3
 72
9
 73
5
 74
0
 42
0.0000001
 43
0.0000001
 44
0.0000000001
 40
0.0
 40
0.0
 40
0.0
 40
0.0
 40
0.469837575
 40
1.0
 40
1.0
 40
1.0
 40
1.0
 10
-10.5580304005
 20
271.9360831613
 30
0.0
 10
-8.7764798805
 20
271.1676358277
 30
0.0
 10
-4.8472817989
 20
269.8484560241
 30
0.0
 10
-0.7998566609
 20
268.9926753295
 30
0.0
 10
1.360712094
 20
268.6389751417
 30
0.0
  0
SPLINE
  5
32B
100
AcDbEntity
  8
0
100
AcDbSpline
 62
7
  6
CONTINUOUS
 70
0
 71
3
 72
10
 73
6
 74
0
 42
0.0000001
 43
0.0000001
 44
0.0000000001
 40
0.0
 40
0.0
 40
0.0
 40
0.0
 40
0.1785183526
 40
0.4115752844
 40
1.0
 40
1.0
 40
1.0
 40
1.0
 10
1.4001866178
 20
268.5643968276
 30
0.0
 10
1.4230292144
 20
268.5212403761
 30
0.0
 10
1.5097070601
 20
268.4422323841
 30
0.0
 10
1.7524489735
 20
268.3166814329
 30
0.0
 10
1.9735104038
 20
268.2601910827
 30
0.0
 10
2.1317854029
 20
268.2309809294
 30
0.0
  0
SPLINE
  5
32C
100
AcDbEntity
  8
0
100
AcDbSpline
 62
7
  6
CONTINUOUS
 70
0
 71
3
 72
9
 73
5
 74
0
 42
0.0000001
 43
0.0000001
 44
0.0000000001
 40
0.0
 40
0.0
 40
0.0
 40
0.0
 40
0.4897319556
 40
1.0
 40
1.0
 40
1.0
 40
1.0
 10
2.1317854029
 20
268.2309809294
 30
0.0
 10
4.4254085596
 20
267.8076855772
 30
0.0
 10
9.1552446949
 20
267.1854541536
 30
0.0
 10
13.9197754272
 20
266.9810387164
 30
0.0
 10
16.3499347684
 20
266.9795387101
 30
0.0
  0
SPLINE
  5
32D
100
AcDbEntity
  8
0
100
AcDbSpline
 62
7
  6
CONTINUOUS
 70
0
 71
3
 72
10
 73
6
 74
0
 42
0.0000001
 43
0.0000001
 44
0.0000000001
 40
0.0
 40
0.0
 40
0.0
 40
0.0
 40
0.2078005535
 40
0.4532660203
 40
1.0
 40
1.0
 40
1.0
 40
1.0
 10
16.4589370757
 20
266.9165812873
 30
0.0
 10
16.5205428971
 20
266.8809989089
 30
0.0
 10
16.6664816531
 20
266.8241187598
 30
0.0
 10
16.9998276944
 20
266.7451394199
 30
0.0
 10
17.2719649692
 20
266.7220872387
 30
0.0
 10
17.4591163953
 20
266.7187071078
 30
0.0
  0
SPLINE
  5
32E
100
AcDbEntity
  8
0
100
AcDbSpline
 62
7
  6
CONTINUOUS
 70
0
 71
3
 72
9
 73
5
 74
0
 42
0.0000001
 43
0.0000001
 44
0.0000000001
 40
0.0
 40
0.0
 40
0.0
 40
0.0
 40
0.508028625
 40
1.0
 40
1.0
 40
1.0
 40
1.0
 10
17.4591163953
 20
266.7187071078
 30
0.0
 10
19.8973921812
 20
266.6746696211
 30
0.0
 10
24.7026433619
 20
266.7922641908
 30
0.0
 10
29.4809818752
 20
267.3252045057
 30
0.0
 10
31.812088278
 20
267.7034514224
 30
0.0
  0
SPLINE
  5
32F
100
AcDbEntity
  8
0
100
AcDbSpline
 62
7
  6
CONTINUOUS
 70
0
 71
3
 72
9
 73
5
 74
0
 42
0.0000001
 43
0.0000001
 44
0.0000000001
 40
0.0
 40
0.0
 40
0.0
 40
0.0
 40
0.491803444
 40
1.0
 40
1.0
 40
1.0
 40
1.0
 10
31.9740237565
 20
267.6616995877
 30
0.0
 10
32.1520605251
 20
267.6157961447
 30
0.0
 10
32.5282255223
 20
267.5809818284
 30
0.0
 10
32.90242032
 20
267.6027410893
 30
0.0
 10
33.090515376
 20
267.629491677
 30
0.0
  0
SPLINE
  5
330
100
AcDbEntity
  8
0
100
AcDbSpline
 62
7
  6
CONTINUOUS
 70
0
 71
3
 72
9
 73
5
 74
0
 42
0.0000001
 43
0.0000001
 44
0.0000000001
 40
0.0
 40
0.0
 40
0.0
 40
0.0
 40
0.5275909982
 40
1.0
 40
1.0
 40
1.0
 40
1.0
 10
33.090515376
 20
267.629491677
 30
0.0
 10
35.3018760516
 20
267.9439880395
 30
0.0
 10
39.4692419428
 20
268.7294334457
 30
0.0
 10
43.5313147735
 20
269.970190697
 30
0.0
 10
45.3931999173
 20
270.7005041305
 30
0.0
  0
SPLINE
  5
331
100
AcDbEntity
  8
0
100
AcDbSpline
 62
7
  6
CONTINUOUS
 70
0
 71
3
 72
9
 73
5
 74
0
 42
0.0000001
 43
0.0000001
 44
0.0000000001
 40
0.0
 40
0.0
 40
0.0
 40
0.0
 40
0.5300891856
 40
1.0
 40
1.0
 40
1.0
 40
1.0
 10
45.5834153576
 20
270.6863142221
 30
0.0
 10
45.7731902804
 20
270.6721570126
 30
0.0
 10
46.1345725935
 20
270.6889381528
 30
0.0
 10
46.4874639768
 20
270.7676835988
 30
0.0
 10
46.6462435495
 20
270.8246759428
 30
0.0
  0
SPLINE
  5
332
100
AcDbEntity
  8
0
100
AcDbSpline
 62
7
  6
CONTINUOUS
 70
0
 71
3
 72
11
 73
7
 74
0
 42
0.0000001
 43
0.0000001
 44
0.0000000001
 40
0.0
 40
0.0
 40
0.0
 40
0.0
 40
0.2867242669
 40
0.5494536508
 40
0.7871939212
 40
1.0
 40
1.0
 40
1.0
 40
1.0
 10
46.6462435495
 20
270.8246759428
 30
0.0
 10
47.5154749092
 20
271.1366779122
 30
0.0
 10
49.1621672289
 20
271.7902443643
 30
0.0
 10
51.4383018784
 20
272.915015636
 30
0.0
 10
53.3924069526
 20
274.1307140315
 30
0.0
 10
54.5276647561
 20
275.0434417489
 30
0.0
 10
55.025668551
 20
275.5144227274
 30
0.0
  0
SPLINE
  5
333
100
AcDbEntity
  8
0
100
AcDbSpline
 62
7
  6
CONTINUOUS
 70
0
 71
3
 72
9
 73
5
 74
0
 42
0.0000001
 43
0.0000001
 44
0.0000000001
 40
0.0
 40
0.0
 40
0.0
 40
0.0
 40
0.5724112383
 40
1.0
 40
1.0
 40
1.0
 40
1.0
 10
55.2152053771
 20
275.5299550306
 30
0.0
 10
55.3871158315
 20
275.5440427257
 30
0.0
 10
55.6848432217
 20
275.6026536903
 30
0.0
 10
55.9638526548
 20
275.7350117794
 30
0.0
 10
56.0625641832
 20
275.8178220652
 30
0.0
  0
SPLINE
  5
334
100
AcDbEntity
  8
0
100
AcDbSpline
 62
7
  6
CONTINUOUS
 70
0
 71
3
 72
11
 73
7
 74
0
 42
0.0000001
 43
0.0000001
 44
0.0000000001
 40
0.0
 40
0.0
 40
0.0
 40
0.0
 40
0.289338125
 40
0.5471114729
 40
0.780403711
 40
1.0
 40
1.0
 40
1.0
 40
1.0
 10
56.0625641832
 20
275.8178220652
 30
0.0
 10
56.5525805581
 20
276.2289027513
 30
0.0
 10
57.4308455706
 20
277.0684782077
 30
0.0
 10
58.4573677461
 20
278.4686406232
 30
0.0
 10
59.0927738423
 20
279.9216175077
 30
0.0
 10
59.2411028288
 20
280.9268952599
 30
0.0
 10
59.243038149
 20
281.4123317458
 30
0.0
  0
SPLINE
  5
335
100
AcDbEntity
  8
0
100
AcDbSpline
 62
7
  6
CONTINUOUS
 70
0
 71
3
 72
9
 73
5
 74
0
 42
0.0000001
 43
0.0000001
 44
0.0000000001
 40
0.0
 40
0.0
 40
0.0
 40
0.0
 40
0.3439815199
 40
1.0
 40
1.0
 40
1.0
 40
1.0
 10
59.4030607608
 20
281.4552268788
 30
0.0
 10
59.4756305973
 20
281.4746796212
 30
0.0
 10
59.6754850398
 20
281.5421346918
 30
0.0
 10
59.889328837
 20
281.7064705266
 30
0.0
 10
59.9059304972
 20
281.8487918808
 30
0.0
  0
SPLINE
  5
336
100
AcDbEntity
  8
0
100
AcDbSpline
 62
7
  6
CONTINUOUS
 70
0
 71
3
 72
12
 73
8
 74
0
 42
0.0000001
 43
0.0000001
 44
0.0000000001
 40
0.0
 40
0.0
 40
0.0
 40
0.0
 40
0.3199932773
 40
0.5956737254
 40
0.7152920578
 40
0.8223305066
 40
1.0
 40
1.0
 40
1.0
 40
1.0
 10
35.9685681588
 20
288.849791541
 30
0.0
 10
37.4187539167
 20
289.2385217843
 30
0.0
 10
40.0866483606
 20
290.0912423176
 30
0.0
 10
43.1417642044
 20
291.5134070937
 30
0.0
 10
45.1252907183
 20
292.7962950161
 30
0.0
 10
46.5968263667
 20
293.9926055465
 30
0.0
 10
47.4807061473
 20
295.0361729702
 30
0.0
 10
47.8697438223
 20
295.7734360844
 30
0.0
  0
SPLINE
  5
337
100
AcDbEntity
  8
0
100
AcDbSpline
 62
7
  6
CONTINUOUS
 70
0
 71
3
 72
9
 73
5
 74
0
 42
0.0000001
 43
0.0000001
 44
0.0000000001
 40
0.0
 40
0.0
 40
0.0
 40
0.0
 40
0.2608169595
 40
1.0
 40
1.0
 40
1.0
 40
1.0
 10
47.8697438223
 20
295.7734360844
 30
0.0
 10
47.9163261895
 20
295.8617140671
 30
0.0
 10
48.0857450127
 20
296.2048791761
 30
0.0
 10
48.2162285484
 20
296.5677871037
 30
0.0
 10
48.2847584069
 20
296.8422455083
 30
0.0
  0
SPLINE
  5
338
100
AcDbEntity
  8
0
100
AcDbSpline
 62
7
  6
CONTINUOUS
 70
0
 71
3
 72
9
 73
5
 74
0
 42
0.0000001
 43
0.0000001
 44
0.0000000001
 40
0.0
 40
0.0
 40
0.0
 40
0.0
 40
0.254393496
 40
1.0
 40
1.0
 40
1.0
 40
1.0
 10
48.2847584069
 20
296.8422455083
 30
0.0
 10
48.3051494777
 20
296.9239106522
 30
0.0
 10
48.3757766596
 20
297.2472187723
 30
0.0
 10
48.4071675654
 20
297.5792167878
 30
0.0
 10
48.4068227141
 20
297.8259189335
 30
0.0
  0
SPLINE
  5
339
100
AcDbEntity
  8
0
100
AcDbSpline
 62
7
  6
CONTINUOUS
 70
0
 71
3
 72
9
 73
5
 74
0
 42
0.0000001
 43
0.0000001
 44
0.0000000001
 40
0.0
 40
0.0
 40
0.0
 40
0.0
 40
0.4812442217
 40
1.0
 40
1.0
 40
1.0
 40
1.0
 10
-9.493806501
 20
297.8053959683
 30
0.0
 10
-9.4933662959
 20
297.4688120801
 30
0.0
 10
-9.3991146934
 20
296.7668007978
 30
0.0
 10
-9.1336907745
 20
296.112357388
 30
0.0
 10
-8.9655261501
 20
295.7908625239
 30
0.0
  0
SPLINE
  5
33A
100
AcDbEntity
  8
0
100
AcDbSpline
 62
7
  6
CONTINUOUS
 70
0
 71
3
 72
18
 73
14
 74
0
 42
0.0000001
 43
0.0000001
 44
0.0000000001
 40
0.0
 40
0.0
 40
0.0
 40
0.0
 40
0.0322850245
 40
0.0702258269
 40
0.11427475
 40
0.1644008066
 40
0.2202880718
 40
0.2814209641
 40
0.4166146798
 40
0.5636231501
 40
0.7150031515
 40
0.8629638944
 40
1.0
 40
1.0
 40
1.0
 40
1.0
 10
-8.9655261501
 20
295.7908625239
 30
0.0
 10
-8.7288692268
 20
295.3384250055
 30
0.0
 10
-8.078388598
 20
294.4238919707
 30
0.0
 10
-6.753231392
 20
293.183300295
 30
0.0
 10
-5.0263306502
 20
291.9959095029
 30
0.0
 10
-2.9223016252
 20
290.8888063176
 30
0.0
 10
-0.4740646096
 20
289.8831175788
 30
0.0
 10
3.3267195676
 20
288.662183356
 30
0.0
 10
8.6543505374
 20
287.5390839085
 30
0.0
 10
15.4863350091
 20
286.8414572107
 30
0.0
 10
22.5564914521
 20
286.8003983335
 30
0.0
 10
29.4401233822
 20
287.4181789583
 30
0.0
 10
33.8752183411
 20
288.2886576452
 30
0.0
 10
35.9685681588
 20
288.849791541
 30
0.0
  0
SPLINE
  5
33B
100
AcDbEntity
  8
0
100
AcDbSpline
 62
7
  6
CONTINUOUS
 70
0
 71
3
 72
9
 73
5
 74
0
 42
0.0000001
 43
0.0000001
 44
0.0000000001
 40
0.0
 40
0.0
 40
0.0
 40
0.0
 40
0.4710260776
 40
1.0
 40
1.0
 40
1.0
 40
1.0
 10
-18.747108682
 20
277.5563921787
 30
0.0
 10
-18.7674530661
 20
277.5123430447
 30
0.0
 10
-18.7763258668
 20
277.3998926427
 30
0.0
 10
-18.7152832416
 20
277.3100744314
 30
0.0
 10
-18.6784215942
 20
277.2699455774
 30
0.0
  0
SPLINE
  5
33C
100
AcDbEntity
  8
0
100
AcDbSpline
 62
7
  6
CONTINUOUS
 70
0
 71
3
 72
11
 73
7
 74
0
 42
0.0000001
 43
0.0000001
 44
0.0000000001
 40
0.0
 40
0.0
 40
0.0
 40
0.0
 40
0.2251934424
 40
0.4612360435
 40
0.7173216186
 40
1.0
 40
1.0
 40
1.0
 40
1.0
 10
-21.0284540559
 20
282.8141966979
 30
0.0
 10
-21.0284409126
 20
282.3875865462
 30
0.0
 10
-20.9185234006
 20
281.5104536988
 30
0.0
 10
-20.4339200853
 20
280.2295246793
 30
0.0
 10
-19.6421217779
 20
278.9836661283
 30
0.0
 10
-18.9546211096
 20
278.2232178181
 30
0.0
 10
-18.5705262317
 20
277.8500654519
 30
0.0
  0
SPLINE
  5
33D
100
AcDbEntity
  8
0
100
AcDbSpline
 62
7
  6
CONTINUOUS
 70
0
 71
3
 72
14
 73
10
 74
0
 42
0.0000001
 43
0.0000001
 44
0.0000000001
 40
0.0
 40
0.0
 40
0.0
 40
0.0
 40
0.2931290603
 40
0.4272415122
 40
0.5531542025
 40
0.6716934077
 40
0.7843209421
 40
0.8932598976
 40
1.0
 40
1.0
 40
1.0
 40
1.0
 10
-0.4016374496
 20
309.0452969371
 30
0.0
 10
-2.4020604511
 20
308.5090725838
 30
0.0
 10
-5.2836412501
 20
307.5716062687
 30
0.0
 10
-8.8425245947
 20
305.9479378005
 30
0.0
 10
-11.1729072697
 20
304.6267489258
 30
0.0
 10
-13.2294978132
 20
303.1560091974
 30
0.0
 10
-14.9936948543
 20
301.5119809118
 30
0.0
 10
-16.4231122924
 20
299.6712867777
 30
0.0
 10
-17.1169224012
 20
298.2995378488
 30
0.0
 10
-17.3786026686
 20
297.5922421173
 30
0.0
  0
SPLINE
  5
33E
100
AcDbEntity
  8
0
100
AcDbSpline
 62
7
  6
CONTINUOUS
 70
0
 71
3
 72
9
 73
5
 74
0
 42
0.0000001
 43
0.0000001
 44
0.0000000001
 40
0.0
 40
0.0
 40
0.0
 40
0.0
 40
0.2524455687
 40
1.0
 40
1.0
 40
1.0
 40
1.0
 10
56.733050413
 20
295.9915362847
 30
0.0
 10
56.7037850978
 20
296.1498609567
 30
0.0
 10
56.5720837696
 20
296.7740357161
 30
0.0
 10
56.3776181824
 20
297.3847309809
 30
0.0
 10
56.2010479894
 20
297.8276115471
 30
0.0
  0
SPLINE
  5
33F
100
AcDbEntity
  8
0
100
AcDbSpline
 62
7
  6
CONTINUOUS
 70
0
 71
3
 72
18
 73
14
 74
0
 42
0.0000001
 43
0.0000001
 44
0.0000000001
 40
0.0
 40
0.0
 40
0.0
 40
0.0
 40
0.0442886134
 40
0.0901329686
 40
0.1386274174
 40
0.1906644019
 40
0.2466661741
 40
0.3066737452
 40
0.4374110269
 40
0.5786008849
 40
0.723972134
 40
0.8665990299
 40
1.0
 40
1.0
 40
1.0
 40
1.0
 10
55.8270807622
 20
298.6575222198
 30
0.0
 10
55.427923269
 20
299.4504798416
 30
0.0
 10
54.4145195017
 20
300.9674844564
 30
0.0
 10
52.4374234961
 20
302.9384772541
 30
0.0
 10
50.0539036142
 20
304.6657531604
 30
0.0
 10
47.3036611985
 20
306.1884592841
 30
0.0
 10
44.205835673
 20
307.5229886396
 30
0.0
 10
39.5141552243
 20
309.1021343318
 30
0.0
 10
32.9991834725
 20
310.5455615636
 30
0.0
 10
24.6704694544
 20
311.4527187819
 30
0.0
 10
16.0537464817
 20
311.5401157019
 30
0.0
 10
7.6263277219
 20
310.8041084552
 30
0.0
 10
2.1811706755
 20
309.7376328157
 30
0.0
 10
-0.4016374496
 20
309.0452969371
 30
0.0
  0
SPLINE
  5
340
100
AcDbEntity
  8
0
100
AcDbSpline
 62
7
  6
CONTINUOUS
 70
0
 71
3
 72
9
 73
5
 74
0
 42
0.0000001
 43
0.0000001
 44
0.0000000001
 40
0.0
 40
0.0
 40
0.0
 40
0.0
 40
0.5019108805
 40
1.0
 40
1.0
 40
1.0
 40
1.0
 10
-17.1920824274
 20
291.9217385873
 30
0.0
 10
-17.2470402553
 20
291.9146662474
 30
0.0
 10
-17.3535609066
 20
291.8621101373
 30
0.0
 10
-17.4104042319
 20
291.7574704195
 30
0.0
 10
-17.4189291169
 20
291.7031461445
 30
0.0
  0
SPLINE
  5
341
100
AcDbEntity
  8
0
100
AcDbSpline
 62
7
  6
CONTINUOUS
 70
0
 71
3
 72
9
 73
5
 74
0
 42
0.0000001
 43
0.0000001
 44
0.0000000001
 40
0.0
 40
0.0
 40
0.0
 40
0.0
 40
0.2437548928
 40
1.0
 40
1.0
 40
1.0
 40
1.0
 10
-17.4186377706
 20
291.7033063186
 30
0.0
 10
-17.3630260489
 20
291.6437863079
 30
0.0
 10
-17.1319107073
 20
291.4023891712
 30
0.0
 10
-16.8893958184
 20
291.1719777921
 30
0.0
 10
-16.7009270563
 20
291.0036125627
 30
0.0
  0
SPLINE
  5
342
100
AcDbEntity
  8
0
100
AcDbSpline
 62
7
  6
CONTINUOUS
 70
0
 71
3
 72
9
 73
5
 74
0
 42
0.0000001
 43
0.0000001
 44
0.0000000001
 40
0.0
 40
0.0
 40
0.0
 40
0.0
 40
0.2122990292
 40
1.0
 40
1.0
 40
1.0
 40
1.0
 10
-18.6251286699
 20
292.9683266762
 30
0.0
 10
-18.5388493677
 20
292.8809565032
 30
0.0
 10
-18.1350557758
 20
292.4668354781
 30
0.0
 10
-17.7385890344
 20
292.0456478962
 30
0.0
 10
-17.4275028997
 20
291.7127911315
 30
0.0
  0
SPLINE
  5
343
100
AcDbEntity
  8
0
100
AcDbSpline
 62
7
  6
CONTINUOUS
 70
0
 71
3
 72
14
 73
10
 74
0
 42
0.0000001
 43
0.0000001
 44
0.0000000001
 40
0.0
 40
0.0
 40
0.0
 40
0.0
 40
0.2142629531
 40
0.440264278
 40
0.5593950541
 40
0.6848249628
 40
0.8215114038
 40
0.8994630999
 40
1.0
 40
1.0
 40
1.0
 40
1.0
 10
-17.0217610411
 20
291.7222339946
 30
0.0
 10
-16.9938321374
 20
291.6729807693
 30
0.0
 10
-16.9368421057
 20
291.5715460731
 30
0.0
 10
-16.8664736829
 20
291.4415426555
 30
0.0
 10
-16.8099785625
 20
291.3307222614
 30
0.0
 10
-16.7667886845
 20
291.2397962861
 30
0.0
 10
-16.7316348626
 20
291.1566463777
 30
0.0
 10
-16.7066501399
 20
291.077875278
 30
0.0
 10
-16.6963245165
 20
291.0297366035
 30
0.0
 10
-16.7009287914
 20
291.0035709325
 30
0.0
  0
SPLINE
  5
344
100
AcDbEntity
  8
0
100
AcDbSpline
 62
7
  6
CONTINUOUS
 70
0
 71
3
 72
10
 73
6
 74
0
 42
0.0000001
 43
0.0000001
 44
0.0000000001
 40
0.0
 40
0.0
 40
0.0
 40
0.0
 40
0.449762539
 40
0.7117054721
 40
1.0
 40
1.0
 40
1.0
 40
1.0
 10
-17.0217610411
 20
291.7222339946
 30
0.0
 10
-16.4581483514
 20
290.7282916539
 30
0.0
 10
-15.2400010665
 20
289.3391012109
 30
0.0
 10
-13.2491981391
 20
287.7620153247
 30
0.0
 10
-12.0659294697
 20
287.010930852
 30
0.0
 10
-11.4316992221
 20
286.6446275051
 30
0.0
  0
SPLINE
  5
345
100
AcDbEntity
  8
0
100
AcDbSpline
 62
7
  6
CONTINUOUS
 70
0
 71
3
 72
11
 73
7
 74
0
 42
0.0000001
 43
0.0000001
 44
0.0000000001
 40
0.0
 40
0.0
 40
0.0
 40
0.0
 40
0.309218253
 40
0.5791422463
 40
0.8086682759
 40
1.0
 40
1.0
 40
1.0
 40
1.0
 10
-11.4989201838
 20
286.6396672635
 30
0.0
 10
-12.0965370021
 20
286.9156446204
 30
0.0
 10
-13.2314890113
 20
287.3996825875
 30
0.0
 10
-14.8622801091
 20
287.9579430225
 30
0.0
 10
-16.2976622893
 20
288.2906490302
 30
0.0
 10
-17.1964112006
 20
288.3640573191
 30
0.0
 10
-17.6035077404
 20
288.3509938157
 30
0.0
  0
SPLINE
  5
346
100
AcDbEntity
  8
0
100
AcDbSpline
 62
7
  6
CONTINUOUS
 70
0
 71
3
 72
9
 73
5
 74
0
 42
0.0000001
 43
0.0000001
 44
0.0000000001
 40
0.0
 40
0.0
 40
0.0
 40
0.0
 40
0.2663325476
 40
1.0
 40
1.0
 40
1.0
 40
1.0
 10
-17.6035077404
 20
288.3509938157
 30
0.0
 10
-17.6840753874
 20
288.3484084444
 30
0.0
 10
-17.9862285497
 20
288.3316635126
 30
0.0
 10
-18.2873790906
 20
288.2849664425
 30
0.0
 10
-18.5021993041
 20
288.2287491325
 30
0.0
  0
SPLINE
  5
347
100
AcDbEntity
  8
0
100
AcDbSpline
 62
7
  6
CONTINUOUS
 70
0
 71
3
 72
11
 73
7
 74
0
 42
0.0000001
 43
0.0000001
 44
0.0000000001
 40
0.0
 40
0.0
 40
0.0
 40
0.0
 40
0.1754345796
 40
0.3978093926
 40
0.6725140699
 40
1.0
 40
1.0
 40
1.0
 40
1.0
 10
-17.0849927892
 20
288.5778296565
 30
0.0
 10
-16.7333282439
 20
288.6170947647
 30
0.0
 10
-15.9212959087
 20
288.5628571793
 30
0.0
 10
-14.6100188411
 20
288.2000983557
 30
0.0
 10
-13.0751021599
 20
287.5503224001
 30
0.0
 10
-12.0038523814
 20
286.9751319714
 30
0.0
 10
-11.4318692181
 20
286.6447640658
 30
0.0
  0
SPLINE
  5
348
100
AcDbEntity
  8
0
100
AcDbSpline
 62
7
  6
CONTINUOUS
 70
0
 71
3
 72
9
 73
5
 74
0
 42
0.0000001
 43
0.0000001
 44
0.0000000001
 40
0.0
 40
0.0
 40
0.0
 40
0.0
 40
0.2290938103
 40
1.0
 40
1.0
 40
1.0
 40
1.0
 10
-11.4814994149
 20
286.6319359939
 30
0.0
 10
-11.5044318595
 20
286.6241992243
 30
0.0
 10
-11.5972198606
 20
286.5701301405
 30
0.0
 10
-11.6516866423
 20
286.4624706483
 30
0.0
 10
-11.6608751671
 20
286.3815490978
 30
0.0
  0
SPLINE
  5
349
100
AcDbEntity
  8
0
100
AcDbSpline
 62
7
  6
CONTINUOUS
 70
0
 71
3
 72
9
 73
5
 74
0
 42
0.0000001
 43
0.0000001
 44
0.0000000001
 40
0.0
 40
0.0
 40
0.0
 40
0.0
 40
0.2328222334
 40
1.0
 40
1.0
 40
1.0
 40
1.0
 10
-14.3524698201
 20
287.3416545645
 30
0.0
 10
-14.1407570333
 20
287.2805328961
 30
0.0
 10
-13.2360637735
 20
287.0019492428
 30
0.0
 10
-12.3494563799
 20
286.6667250278
 30
0.0
 10
-11.6785001856
 20
286.3891387332
 30
0.0
  0
SPLINE
  5
34A
100
AcDbEntity
  8
0
100
AcDbSpline
 62
7
  6
CONTINUOUS
 70
0
 71
3
 72
14
 73
10
 74
0
 42
0.0000001
 43
0.0000001
 44
0.0000000001
 40
0.0
 40
0.0
 40
0.0
 40
0.0
 40
0.0779153061
 40
0.147070713
 40
0.2772518845
 40
0.4027415529
 40
0.5255302921
 40
0.7655758136
 40
1.0
 40
1.0
 40
1.0
 40
1.0
 10
-10.2848693134
 20
285.845849742
 30
0.0
 10
-10.2808864909
 20
285.8732765847
 30
0.0
 10
-10.3167694893
 20
285.9225058862
 30
0.0
 10
-10.383098762
 20
285.9908378426
 30
0.0
 10
-10.4746792439
 20
286.0642961359
 30
0.0
 10
-10.583950687
 20
286.1420758926
 30
0.0
 10
-10.729191156
 20
286.2376906623
 30
0.0
 10
-10.9105828601
 20
286.3482239143
 30
0.0
 10
-11.0570424421
 20
286.4321500757
 30
0.0
 10
-11.1297840878
 20
286.4729137955
 30
0.0
  0
SPLINE
  5
34B
100
AcDbEntity
  8
0
100
AcDbSpline
 62
7
  6
CONTINUOUS
 70
0
 71
3
 72
9
 73
5
 74
0
 42
0.0000001
 43
0.0000001
 44
0.0000000001
 40
0.0
 40
0.0
 40
0.0
 40
0.0
 40
0.4662236738
 40
1.0
 40
1.0
 40
1.0
 40
1.0
 10
-11.1297840878
 20
286.4729137955
 30
0.0
 10
-9.661341267
 20
285.6501607136
 30
0.0
 10
-6.3519926346
 20
284.1692915124
 30
0.0
 10
-2.8948884208
 20
283.1053638255
 30
0.0
 10
-1.0288084791
 20
282.6242084365
 30
0.0
  0
SPLINE
  5
34C
100
AcDbEntity
  8
0
100
AcDbSpline
 62
7
  6
CONTINUOUS
 70
0
 71
3
 72
12
 73
8
 74
0
 42
0.0000001
 43
0.0000001
 44
0.0000000001
 40
0.0
 40
0.0
 40
0.0
 40
0.0
 40
0.302116479
 40
0.5696786586
 40
0.6896875811
 40
0.800583928
 40
1.0
 40
1.0
 40
1.0
 40
1.0
 10
-1.084781222
 20
282.6091718749
 30
0.0
 10
-2.510276751
 20
282.8954395585
 30
0.0
 10
-5.2289994508
 20
283.2971668848
 30
0.0
 10
-8.5622438103
 20
283.3480315461
 30
0.0
 10
-10.9475621679
 20
283.0566904611
 30
0.0
 10
-12.9695676278
 20
282.6023246998
 30
0.0
 10
-14.3704245565
 20
282.025177939
 30
0.0
 10
-15.1932550447
 20
281.5312347254
 30
0.0
  0
SPLINE
  5
34D
100
AcDbEntity
  8
0
100
AcDbSpline
 62
7
  6
CONTINUOUS
 70
0
 71
3
 72
13
 73
9
 74
0
 42
0.0000001
 43
0.0000001
 44
0.0000000001
 40
0.0
 40
0.0
 40
0.0
 40
0.0
 40
0.0459189491
 40
0.112964789
 40
0.2025734714
 40
0.3153841995
 40
0.6112669391
 40
1.0
 40
1.0
 40
1.0
 40
1.0
 10
-18.1146542459
 20
294.2864944723
 30
0.0
 10
-18.1209224628
 20
294.2476307564
 30
0.0
 10
-18.1141027176
 20
294.1493746301
 30
0.0
 10
-18.0751700712
 20
293.9803258662
 30
0.0
 10
-18.002882157
 20
293.7604769593
 30
0.0
 10
-17.8463002622
 20
293.3629833246
 30
0.0
 10
-17.5576054299
 20
292.742707256
 30
0.0
 10
-17.2894013929
 20
292.2206379657
 30
0.0
 10
-17.133493728
 20
291.9260983183
 30
0.0
  0
SPLINE
  5
34E
100
AcDbEntity
  8
0
100
AcDbSpline
 62
7
  6
CONTINUOUS
 70
0
 71
3
 72
9
 73
5
 74
0
 42
0.0000001
 43
0.0000001
 44
0.0000000001
 40
0.0
 40
0.0
 40
0.0
 40
0.0
 40
0.4546217349
 40
1.0
 40
1.0
 40
1.0
 40
1.0
 10
-10.6090993687
 20
283.364681643
 30
0.0
 10
-9.1657669922
 20
283.6089616242
 30
0.0
 10
-5.9085902795
 20
283.6554390618
 30
0.0
 10
-2.7290178856
 20
283.0625878102
 30
0.0
 10
-1.0285377955
 20
282.6241610216
 30
0.0
  0
LINE
  5
34F
100
AcDbEntity
  8
0
100
AcDbLine
 62
7
  6
CONTINUOUS
 10
-1.0847819404
 20
282.6089058998
 11
-1.0609062542
 21
282.6046671454
  0
SPLINE
  5
350
100
AcDbEntity
  8
0
100
AcDbSpline
 62
7
  6
CONTINUOUS
 70
0
 71
3
 72
9
 73
5
 74
0
 42
0.0000001
 43
0.0000001
 44
0.0000000001
 40
0.0
 40
0.0
 40
0.0
 40
0.0
 40
0.435856312
 40
1.0
 40
1.0
 40
1.0
 40
1.0
 10
-1.0609023848
 20
282.6046701255
 30
0.0
 10
-1.0949893079
 20
282.5782176699
 30
0.0
 10
-1.1422655504
 20
282.4843978202
 30
0.0
 10
-1.1624246482
 20
282.3876874428
 30
0.0
 10
-1.1655010531
 20
282.3319258016
 30
0.0
  0
SPLINE
  5
351
100
AcDbEntity
  8
0
100
AcDbSpline
 62
7
  6
CONTINUOUS
 70
0
 71
3
 72
9
 73
5
 74
0
 42
0.0000001
 43
0.0000001
 44
0.0000000001
 40
0.0
 40
0.0
 40
0.0
 40
0.0
 40
0.4869988418
 40
1.0
 40
1.0
 40
1.0
 40
1.0
 10
-18.5878699351
 20
277.4491904508
 30
0.0
 10
-18.2083595349
 20
278.1800145869
 30
0.0
 10
-17.2085083363
 20
279.5785625151
 30
0.0
 10
-15.8356394543
 20
280.6105440239
 30
0.0
 10
-15.0822685143
 20
281.0405585457
 30
0.0
  0
SPLINE
  5
352
100
AcDbEntity
  8
0
100
AcDbSpline
 62
7
  6
CONTINUOUS
 70
0
 71
3
 72
10
 73
6
 74
0
 42
0.0000001
 43
0.0000001
 44
0.0000000001
 40
0.0
 40
0.0
 40
0.0
 40
0.0
 40
0.4454112468
 40
0.7087784467
 40
1.0
 40
1.0
 40
1.0
 40
1.0
 10
-15.0822685143
 20
281.0405585457
 30
0.0
 10
-13.7393080803
 20
281.8071032292
 30
0.0
 10
-11.3275300409
 20
282.5516599096
 30
0.0
 10
-7.8726902591
 20
282.8898424963
 30
0.0
 10
-5.9415369419
 20
282.8536752822
 30
0.0
 10
-4.9327255612
 20
282.7867259492
 30
0.0
  0
SPLINE
  5
353
100
AcDbEntity
  8
0
100
AcDbSpline
 62
7
  6
CONTINUOUS
 70
0
 71
3
 72
9
 73
5
 74
0
 42
0.0000001
 43
0.0000001
 44
0.0000000001
 40
0.0
 40
0.0
 40
0.0
 40
0.0
 40
0.2421857709
 40
1.0
 40
1.0
 40
1.0
 40
1.0
 10
-4.9327215591
 20
282.7866489615
 30
0.0
 10
-4.6289500045
 20
282.7664911786
 30
0.0
 10
-3.3758788778
 20
282.6652302645
 30
0.0
 10
-2.1286440302
 20
282.4959602153
 30
0.0
 10
-1.1894932017
 20
282.3363909752
 30
0.0
  0
SPLINE
  5
354
100
AcDbEntity
  8
0
100
AcDbSpline
 62
7
  6
CONTINUOUS
 70
0
 71
3
 72
9
 73
5
 74
0
 42
0.0000001
 43
0.0000001
 44
0.0000000001
 40
0.0
 40
0.0
 40
0.0
 40
0.0
 40
0.4357830862
 40
1.0
 40
1.0
 40
1.0
 40
1.0
 10
-1.0847819404
 20
282.6089058998
 30
0.0
 10
-1.1188193047
 20
282.5825012045
 30
0.0
 10
-1.1660730459
 20
282.4888450033
 30
0.0
 10
-1.1862503632
 20
282.392282537
 30
0.0
 10
-1.189370358
 20
282.3365953976
 30
0.0
  0
SPLINE
  5
355
100
AcDbEntity
  8
0
100
AcDbSpline
 62
7
  6
CONTINUOUS
 70
0
 71
3
 72
17
 73
13
 74
0
 42
0.0000001
 43
0.0000001
 44
0.0000000001
 40
0.0
 40
0.0
 40
0.0
 40
0.0
 40
0.033610667
 40
0.0669027816
 40
0.1317438423
 40
0.1955798595
 40
0.2588567165
 40
0.3843375245
 40
0.5088224626
 40
0.6325401415
 40
0.7556039292
 40
1.0
 40
1.0
 40
1.0
 40
1.0
 10
0.6590223877
 20
282.0468333547
 30
0.0
 10
0.660462499
 20
282.06181911
 30
0.0
 10
0.6400979045
 20
282.0899785242
 30
0.0
 10
0.5943511902
 20
282.1246788294
 30
0.0
 10
0.5300389585
 20
282.1604913931
 30
0.0
 10
0.4519979416
 20
282.1959874693
 30
0.0
 10
0.3469946295
 20
282.2384222468
 30
0.0
 10
0.2147666895
 20
282.2853658354
 30
0.0
 10
0.0553330626
 20
282.3364093037
 30
0.0
 10
-0.1041115651
 20
282.3836780736
 30
0.0
 10
-0.316019429
 20
282.4428476283
 30
0.0
 10
-0.4753598172
 20
282.4841552794
 30
0.0
 10
-0.5815612228
 20
282.5107026523
 30
0.0
  0
SPLINE
  5
356
100
AcDbEntity
  8
0
100
AcDbSpline
 62
7
  6
CONTINUOUS
 70
0
 71
3
 72
9
 73
5
 74
0
 42
0.0000001
 43
0.0000001
 44
0.0000000001
 40
0.0
 40
0.0
 40
0.0
 40
0.0
 40
0.4845407129
 40
1.0
 40
1.0
 40
1.0
 40
1.0
 10
-0.5815612228
 20
282.5107026523
 30
0.0
 10
1.49375709
 20
281.9920664812
 30
0.0
 10
5.8321900433
 20
281.1379466122
 30
0.0
 10
10.22431449
 20
280.6452763431
 30
0.0
 10
12.4936483026
 20
280.4759651699
 30
0.0
  0
SPLINE
  5
357
100
AcDbEntity
  8
0
100
AcDbSpline
 62
7
  6
CONTINUOUS
 70
0
 71
3
 72
16
 73
12
 74
0
 42
0.0000001
 43
0.0000001
 44
0.0000000001
 40
0.0
 40
0.0
 40
0.0
 40
0.0
 40
0.1474235828
 40
0.2907806773
 40
0.4279837201
 40
0.5574521901
 40
0.6789276242
 40
0.7367656777
 40
0.7924363048
 40
0.8988897801
 40
1.0
 40
1.0
 40
1.0
 40
1.0
 10
12.4565665813
 20
280.4536093692
 30
0.0
 10
11.2058856917
 20
280.492564142
 30
0.0
 10
8.7347643981
 20
280.4692508766
 30
0.0
 10
5.1129941786
 20
280.1367348132
 30
0.0
 10
1.6862441426
 20
279.4992405773
 30
0.0
 10
-1.4840452188
 20
278.5829838706
 30
0.0
 10
-3.9124722501
 20
277.5795632531
 30
0.0
 10
-5.6774366128
 20
276.648256803
 30
0.0
 10
-7.2744108606
 20
275.6791906197
 30
0.0
 10
-9.0642951154
 20
274.3294407732
 30
0.0
 10
-10.3074139707
 20
273.0701417029
 30
0.0
 10
-10.8600277735
 20
272.4135490735
 30
0.0
  0
SPLINE
  5
358
100
AcDbEntity
  8
0
100
AcDbSpline
 62
7
  6
CONTINUOUS
 70
0
 71
3
 72
9
 73
5
 74
0
 42
0.0000001
 43
0.0000001
 44
0.0000000001
 40
0.0
 40
0.0
 40
0.0
 40
0.0
 40
0.482644699
 40
1.0
 40
1.0
 40
1.0
 40
1.0
 10
-10.8736063615
 20
272.4291259587
 30
0.0
 10
-10.1356775382
 20
273.3287780684
 30
0.0
 10
-8.4140272707
 20
275.0401513417
 30
0.0
 10
-6.4151757498
 20
276.4107606697
 30
0.0
 10
-5.3353709078
 20
277.0350018471
 30
0.0
  0
SPLINE
  5
359
100
AcDbEntity
  8
0
100
AcDbSpline
 62
7
  6
CONTINUOUS
 70
0
 71
3
 72
9
 73
5
 74
0
 42
0.0000001
 43
0.0000001
 44
0.0000000001
 40
0.0
 40
0.0
 40
0.0
 40
0.0
 40
0.2391138774
 40
1.0
 40
1.0
 40
1.0
 40
1.0
 10
-5.3353709078
 20
277.0350018471
 30
0.0
 10
-4.9006564992
 20
277.2863126615
 30
0.0
 10
-3.0500632202
 20
278.2806665111
 30
0.0
 10
-1.0822774797
 20
279.0506920973
 30
0.0
 10
0.444000765
 20
279.52348489
 30
0.0
  0
SPLINE
  5
35A
100
AcDbEntity
  8
0
100
AcDbSpline
 62
7
  6
CONTINUOUS
 70
0
 71
3
 72
9
 73
5
 74
0
 42
0.0000001
 43
0.0000001
 44
0.0000000001
 40
0.0
 40
0.0
 40
0.0
 40
0.0
 40
0.4801266918
 40
1.0
 40
1.0
 40
1.0
 40
1.0
 10
0.444000765
 20
279.52348489
 30
0.0
 10
2.3228809789
 20
280.0103094148
 30
0.0
 10
6.3387348189
 20
280.6458900087
 30
0.0
 10
10.3981938812
 20
280.6322598381
 30
0.0
 10
12.4939727612
 20
280.4759274521
 30
0.0
  0
LINE
  5
35B
100
AcDbEntity
  8
0
100
AcDbLine
 62
7
  6
CONTINUOUS
 10
12.4565657889
 20
280.4533431262
 11
12.4832897996
 21
280.4530649494
  0
SPLINE
  5
35C
100
AcDbEntity
  8
0
100
AcDbSpline
 62
7
  6
CONTINUOUS
 70
0
 71
3
 72
9
 73
5
 74
0
 42
0.0000001
 43
0.0000001
 44
0.0000000001
 40
0.0
 40
0.0
 40
0.0
 40
0.0
 40
0.409189363
 40
1.0
 40
1.0
 40
1.0
 40
1.0
 10
12.4832902408
 20
280.4530671402
 30
0.0
 10
12.4759171656
 20
280.4152587981
 30
0.0
 10
12.4713038604
 20
280.3207529764
 30
0.0
 10
12.4688655165
 20
280.2267998541
 30
0.0
 10
12.4693996026
 20
280.1711842761
 30
0.0
  0
SPLINE
  5
35D
100
AcDbEntity
  8
0
100
AcDbSpline
 62
7
  6
CONTINUOUS
 70
0
 71
3
 72
11
 73
7
 74
0
 42
0.0000001
 43
0.0000001
 44
0.0000000001
 40
0.0
 40
0.0
 40
0.0
 40
0.0
 40
0.212144803
 40
0.4482133282
 40
0.7120345464
 40
1.0
 40
1.0
 40
1.0
 40
1.0
 10
-10.5580266534
 20
271.9360832155
 30
0.0
 10
-9.5869312407
 20
273.0473721836
 30
0.0
 10
-7.215262497
 20
275.1255068058
 30
0.0
 10
-2.8387447066
 20
277.5107512599
 30
0.0
 10
2.3966746582
 20
279.2185836339
 30
0.0
 10
6.2045980094
 20
279.8202033095
 30
0.0
 10
8.2000479608
 20
279.9968485175
 30
0.0
  0
SPLINE
  5
35E
100
AcDbEntity
  8
0
100
AcDbSpline
 62
7
  6
CONTINUOUS
 70
0
 71
3
 72
17
 73
13
 74
0
 42
0.0000001
 43
0.0000001
 44
0.0000000001
 40
0.0
 40
0.0
 40
0.0
 40
0.0
 40
0.2493275729
 40
0.3742093983
 40
0.4992420884
 40
0.6244369347
 40
0.7498161144
 40
0.8125951294
 40
0.8754465304
 40
0.9383685574
 40
0.9698496527
 40
1.0
 40
1.0
 40
1.0
 40
1.0
 10
13.0162696764
 20
280.4384824537
 30
0.0
 10
13.1398728934
 20
280.4299747989
 30
0.0
 10
13.3252918921
 20
280.415702887
 30
0.0
 10
13.5722828446
 20
280.3923754595
 30
0.0
 10
13.7575811936
 20
280.3720984628
 30
0.0
 10
13.9427019861
 20
280.3480418911
 30
0.0
 10
14.0964536686
 20
280.3234907558
 30
0.0
 10
14.2188639662
 20
280.2987748804
 30
0.0
 10
14.3095558218
 20
280.2767060768
 30
0.0
 10
14.3850530669
 20
280.2516142384
 30
0.0
 10
14.4387402891
 20
280.2257097513
 30
0.0
 10
14.4651262505
 20
280.1999299792
 30
0.0
 10
14.4646467087
 20
280.1849553685
 30
0.0
  0
SPLINE
  5
35F
100
AcDbEntity
  8
0
100
AcDbSpline
 62
7
  6
CONTINUOUS
 70
0
 71
3
 72
16
 73
12
 74
0
 42
0.0000001
 43
0.0000001
 44
0.0000000001
 40
0.0
 40
0.0
 40
0.0
 40
0.0
 40
0.1290393146
 40
0.2607915038
 40
0.3927971233
 40
0.5228979185
 40
0.5867250301
 40
0.649589232
 40
0.7112901416
 40
0.7716196763
 40
1.0
 40
1.0
 40
1.0
 40
1.0
 10
27.0635748071
 20
280.5011447275
 30
0.0
 10
25.8363902857
 20
280.3445437537
 30
0.0
 10
23.3687644114
 20
279.9233683016
 30
0.0
 10
19.7112559365
 20
279.0120559896
 30
0.0
 10
16.1258114233
 20
277.8158908561
 30
0.0
 10
13.2409527447
 20
276.6065992404
 30
0.0
 10
11.0299352648
 20
275.5223344252
 30
0.0
 10
9.4436759081
 20
274.6574934093
 30
0.0
 10
7.9231410686
 20
273.7451123471
 30
0.0
 10
5.1094009343
 20
271.9105888499
 30
0.0
 10
2.9517471434
 20
270.139157987
 30
0.0
 10
1.4150309664
 20
268.5794734106
 30
0.0
  0
SPLINE
  5
360
100
AcDbEntity
  8
0
100
AcDbSpline
 62
7
  6
CONTINUOUS
 70
0
 71
3
 72
9
 73
5
 74
0
 42
0.0000001
 43
0.0000001
 44
0.0000000001
 40
0.0
 40
0.0
 40
0.0
 40
0.0
 40
0.2400417781
 40
1.0
 40
1.0
 40
1.0
 40
1.0
 10
1.3607123384
 20
268.6389745648
 30
0.0
 10
1.8371901749
 20
269.1489773567
 30
0.0
 10
3.8942457245
 20
271.2059080047
 30
0.0
 10
6.2133893338
 20
272.9940035303
 30
0.0
 10
8.0630471463
 20
274.2028873781
 30
0.0
  0
SPLINE
  5
361
100
AcDbEntity
  8
0
100
AcDbSpline
 62
7
  6
CONTINUOUS
 70
0
 71
3
 72
9
 73
5
 74
0
 42
0.0000001
 43
0.0000001
 44
0.0000000001
 40
0.0
 40
0.0
 40
0.0
 40
0.0
 40
0.2450126005
 40
1.0
 40
1.0
 40
1.0
 40
1.0
 10
8.0630471463
 20
274.2028873781
 30
0.0
 10
8.5556487482
 20
274.5248378037
 30
0.0
 10
10.5936291603
 20
275.7964995503
 30
0.0
 10
12.7354051006
 20
276.9005173864
 30
0.0
 10
14.3915644554
 20
277.6390240689
 30
0.0
  0
SPLINE
  5
362
100
AcDbEntity
  8
0
100
AcDbSpline
 62
7
  6
CONTINUOUS
 70
0
 71
3
 72
9
 73
5
 74
0
 42
0.0000001
 43
0.0000001
 44
0.0000000001
 40
0.0
 40
0.0
 40
0.0
 40
0.0
 40
0.4988729398
 40
1.0
 40
1.0
 40
1.0
 40
1.0
 10
14.3915644554
 20
277.6390240689
 30
0.0
 10
16.4187504703
 20
278.409881101
 30
0.0
 10
20.5948628499
 20
279.6719335327
 30
0.0
 10
24.9059792061
 20
280.3495591966
 30
0.0
 10
27.0773038493
 20
280.5274796887
 30
0.0
  0
LINE
  5
363
100
AcDbEntity
  8
0
100
AcDbLine
 62
7
  6
CONTINUOUS
 10
27.0635740617
 20
280.5008783641
 11
27.0890550635
 21
280.5046957381
  0
SPLINE
  5
364
100
AcDbEntity
  8
0
100
AcDbSpline
 62
7
  6
CONTINUOUS
 70
0
 71
3
 72
9
 73
5
 74
0
 42
0.0000001
 43
0.0000001
 44
0.0000000001
 40
0.0
 40
0.0
 40
0.0
 40
0.0
 40
0.4231101277
 40
1.0
 40
1.0
 40
1.0
 40
1.0
 10
27.0890585281
 20
280.5046915978
 30
0.0
 10
27.1152061406
 20
280.4732373055
 30
0.0
 10
27.1466156385
 20
280.3778752484
 30
0.0
 10
27.1639006032
 20
280.2835157247
 30
0.0
 10
27.1679859749
 20
280.2278960856
 30
0.0
  0
SPLINE
  5
365
100
AcDbEntity
  8
0
100
AcDbSpline
 62
7
  6
CONTINUOUS
 70
0
 71
3
 72
9
 73
5
 74
0
 42
0.0000001
 43
0.0000001
 44
0.0000000001
 40
0.0
 40
0.0
 40
0.0
 40
0.0
 40
0.5061739838
 40
1.0
 40
1.0
 40
1.0
 40
1.0
 10
23.1960294174
 20
273.603897445
 30
0.0
 10
21.9629635242
 20
272.5782916066
 30
0.0
 10
19.5984889185
 20
270.4643318889
 30
0.0
 10
17.4013978243
 20
268.1756565393
 30
0.0
 10
16.3683160674
 20
267.0004587843
 30
0.0
  0
SPLINE
  5
366
100
AcDbEntity
  8
0
100
AcDbSpline
 62
7
  6
CONTINUOUS
 70
0
 71
3
 72
11
 73
7
 74
0
 42
0.0000001
 43
0.0000001
 44
0.0000000001
 40
0.0
 40
0.0
 40
0.0
 40
0.0
 40
0.2292049175
 40
0.4759711199
 40
0.7360237165
 40
1.0
 40
1.0
 40
1.0
 40
1.0
 10
2.1317915176
 20
268.2309817554
 30
0.0
 10
3.4338088846
 20
269.5178729105
 30
0.0
 10
6.3715206215
 20
271.9584958186
 30
0.0
 10
11.3835759837
 20
275.0600564197
 30
0.0
 10
16.9969947446
 20
277.6246933584
 30
0.0
 10
20.9998216009
 20
278.8904462322
 30
0.0
 10
23.046493418
 20
279.3968309586
 30
0.0
  0
SPLINE
  5
367
100
AcDbEntity
  8
0
100
AcDbSpline
 62
7
  6
CONTINUOUS
 70
0
 71
3
 72
16
 73
12
 74
0
 42
0.0000001
 43
0.0000001
 44
0.0000000001
 40
0.0
 40
0.0
 40
0.0
 40
0.0
 40
0.2529067814
 40
0.3790383266
 40
0.5049162182
 40
0.6304908992
 40
0.7556681551
 40
0.8180541486
 40
0.8802280785
 40
0.9420090882
 40
1.0
 40
1.0
 40
1.0
 40
1.0
 10
27.5953965365
 20
280.5714502812
 30
0.0
 10
27.7175359674
 20
280.5821732922
 30
0.0
 10
27.9007347085
 20
280.5967581129
 30
0.0
 10
28.1450445152
 20
280.6118884833
 30
0.0
 10
28.3279425444
 20
280.6204226542
 30
0.0
 10
28.5103571876
 20
280.6251949128
 30
0.0
 10
28.6626073988
 20
280.6244466428
 30
0.0
 10
28.7827808518
 20
280.6190292888
 30
0.0
 10
28.8751997675
 20
280.610355462
 30
0.0
 10
28.9535342352
 20
280.5974993441
 30
0.0
 10
29.0292487896
 20
280.5716815457
 30
0.0
 10
29.030218227
 20
280.5435842655
 30
0.0
  0
SPLINE
  5
368
100
AcDbEntity
  8
0
100
AcDbSpline
 62
7
  6
CONTINUOUS
 70
0
 71
3
 72
9
 73
5
 74
0
 42
0.0000001
 43
0.0000001
 44
0.0000000001
 40
0.0
 40
0.0
 40
0.0
 40
0.0
 40
0.5164365386
 40
1.0
 40
1.0
 40
1.0
 40
1.0
 10
27.5953965365
 20
280.5714502812
 30
0.0
 10
29.8073985206
 20
280.7656472688
 30
0.0
 10
34.0783925777
 20
281.3006639115
 30
0.0
 10
38.2928145184
 20
282.1865619008
 30
0.0
 10
40.302898983
 20
282.718063456
 30
0.0
  0
SPLINE
  5
369
100
AcDbEntity
  8
0
100
AcDbSpline
 62
7
  6
CONTINUOUS
 70
0
 71
3
 72
9
 73
5
 74
0
 42
0.0000001
 43
0.0000001
 44
0.0000000001
 40
0.0
 40
0.0
 40
0.0
 40
0.0
 40
0.4826349432
 40
1.0
 40
1.0
 40
1.0
 40
1.0
 10
40.5124592905
 20
282.7445410363
 30
0.0
 10
39.6680016105
 20
282.4612915304
 30
0.0
 10
37.9396901036
 20
281.8100511739
 30
0.0
 10
36.2516821292
 20
281.0617448351
 30
0.0
 10
35.3891316297
 20
280.6523182809
 30
0.0
  0
SPLINE
  5
36A
100
AcDbEntity
  8
0
100
AcDbSpline
 62
7
  6
CONTINUOUS
 70
0
 71
3
 72
15
 73
11
 74
0
 42
0.0000001
 43
0.0000001
 44
0.0000000001
 40
0.0
 40
0.0
 40
0.0
 40
0.0
 40
0.2450354859
 40
0.3719773709
 40
0.4358883338
 40
0.4998773011
 40
0.6275025737
 40
0.753829112
 40
0.878220621
 40
1.0
 40
1.0
 40
1.0
 40
1.0
 10
35.3891316297
 20
280.6523182809
 30
0.0
 10
33.654269685
 20
279.8288319478
 30
0.0
 10
31.0862677578
 20
278.4369912163
 30
0.0
 10
28.1909603354
 20
276.6229721898
 30
0.0
 10
26.5341291126
 20
275.5072898374
 30
0.0
 10
24.9011294234
 20
274.3477902616
 30
0.0
 10
22.9189974042
 20
272.8367199891
 30
0.0
 10
20.6285196093
 20
270.952087471
 30
0.0
 10
18.4744757281
 20
268.9798425524
 30
0.0
 10
17.11350015
 20
267.611157369
 30
0.0
 10
16.4589367819
 20
266.9165808391
 30
0.0
  0
SPLINE
  5
36B
100
AcDbEntity
  8
0
100
AcDbSpline
 62
7
  6
CONTINUOUS
 70
0
 71
3
 72
9
 73
5
 74
0
 42
0.0000001
 43
0.0000001
 44
0.0000000001
 40
0.0
 40
0.0
 40
0.0
 40
0.0
 40
0.2538389103
 40
1.0
 40
1.0
 40
1.0
 40
1.0
 10
29.1102076392
 20
277.9981947674
 30
0.0
 10
29.5770395733
 20
278.2594326918
 30
0.0
 10
31.4293884896
 20
279.2645721983
 30
0.0
 10
33.3349617199
 20
280.1726568247
 30
0.0
 10
34.783694333
 20
280.7841675727
 30
0.0
  0
SPLINE
  5
36C
100
AcDbEntity
  8
0
100
AcDbSpline
 62
7
  6
CONTINUOUS
 70
0
 71
3
 72
9
 73
5
 74
0
 42
0.0000001
 43
0.0000001
 44
0.0000000001
 40
0.0
 40
0.0
 40
0.0
 40
0.0
 40
0.2585965654
 40
1.0
 40
1.0
 40
1.0
 40
1.0
 10
35.2179278687
 20
280.965114329
 30
0.0
 10
35.646845426
 20
281.1415254202
 30
0.0
 10
37.3146932931
 20
281.8008142789
 30
0.0
 10
39.0204653904
 20
282.3663781086
 30
0.0
 10
40.3028841899
 20
282.7176872427
 30
0.0
  0
LINE
  5
36D
100
AcDbEntity
  8
0
100
AcDbLine
 62
7
  6
CONTINUOUS
 10
40.5124587055
 20
282.7442745687
 11
40.5328232266
 21
282.7516760747
  0
SPLINE
  5
36E
100
AcDbEntity
  8
0
100
AcDbSpline
 62
7
  6
CONTINUOUS
 70
0
 71
3
 72
9
 73
5
 74
0
 42
0.0000001
 43
0.0000001
 44
0.0000000001
 40
0.0
 40
0.0
 40
0.0
 40
0.0
 40
0.461578911
 40
1.0
 40
1.0
 40
1.0
 40
1.0
 10
40.5328251895
 20
282.7516751742
 30
0.0
 10
40.5764217906
 20
282.7316694167
 30
0.0
 10
40.6502839956
 20
282.6491256174
 30
0.0
 10
40.6854458668
 20
282.5490598278
 30
0.0
 10
40.6925529463
 20
282.4935598956
 30
0.0
  0
SPLINE
  5
36F
100
AcDbEntity
  8
0
100
AcDbSpline
 62
7
  6
CONTINUOUS
 70
0
 71
3
 72
11
 73
7
 74
0
 42
0.0000001
 43
0.0000001
 44
0.0000000001
 40
0.0
 40
0.0
 40
0.0
 40
0.0
 40
0.2490136793
 40
0.5055097302
 40
0.7601953009
 40
1.0
 40
1.0
 40
1.0
 40
1.0
 10
17.4591239467
 20
266.7187090033
 30
0.0
 10
18.8736093545
 20
268.1968282909
 30
0.0
 10
21.9092083842
 20
271.0425545993
 30
0.0
 10
26.8247680626
 20
274.9065005579
 30
0.0
 10
31.9798702327
 20
278.309297869
 30
0.0
 10
35.5625749853
 20
280.2414859783
 30
0.0
 10
37.3463793557
 20
281.0780201182
 30
0.0
  0
SPLINE
  5
370
100
AcDbEntity
  8
0
100
AcDbSpline
 62
7
  6
CONTINUOUS
 70
0
 71
3
 72
9
 73
5
 74
0
 42
0.0000001
 43
0.0000001
 44
0.0000000001
 40
0.0
 40
0.0
 40
0.0
 40
0.0
 40
0.2597361773
 40
1.0
 40
1.0
 40
1.0
 40
1.0
 10
37.3463962179
 20
281.0779514025
 30
0.0
 10
37.6295600889
 20
281.2107459853
 30
0.0
 10
38.7244052442
 20
281.7119852968
 30
0.0
 10
39.8378657879
 20
282.1730256507
 30
0.0
 10
40.6723827418
 20
282.4862781169
 30
0.0
  0
SPLINE
  5
371
100
AcDbEntity
  8
0
100
AcDbSpline
 62
7
  6
CONTINUOUS
 70
0
 71
3
 72
14
 73
10
 74
0
 42
0.0000001
 43
0.0000001
 44
0.0000000001
 40
0.0
 40
0.0
 40
0.0
 40
0.0
 40
0.2563653461
 40
0.5098326578
 40
0.6352347779
 40
0.7594557194
 40
0.8819238746
 40
0.9421030748
 40
1.0
 40
1.0
 40
1.0
 40
1.0
 10
40.9354408999
 20
282.8895771311
 30
0.0
 10
41.0374987991
 20
282.9177770029
 30
0.0
 10
41.2410252828
 20
282.9720308715
 30
0.0
 10
41.4959799153
 20
283.0333089978
 30
0.0
 10
41.7000665636
 20
283.0746150878
 30
0.0
 10
41.8503479591
 20
283.1003033427
 30
0.0
 10
41.9807532592
 20
283.1118553699
 30
0.0
 10
42.0722717212
 20
283.1125135291
 30
0.0
 10
42.1359574515
 20
283.0919532366
 30
0.0
 10
42.1382595683
 20
283.0681521255
 30
0.0
  0
SPLINE
  5
372
100
AcDbEntity
  8
0
100
AcDbSpline
 62
7
  6
CONTINUOUS
 70
0
 71
3
 72
9
 73
5
 74
0
 42
0.0000001
 43
0.0000001
 44
0.0000000001
 40
0.0
 40
0.0
 40
0.0
 40
0.0
 40
0.5292262408
 40
1.0
 40
1.0
 40
1.0
 40
1.0
 10
43.4219244446
 20
283.639826557
 30
0.0
 10
44.7606528797
 20
284.0799939387
 30
0.0
 10
47.2574170674
 20
285.0174093138
 30
0.0
 10
49.6427652981
 20
286.2190196241
 30
0.0
 10
50.7174887253
 20
286.8643466086
 30
0.0
  0
SPLINE
  5
373
100
AcDbEntity
  8
0
100
AcDbSpline
 62
7
  6
CONTINUOUS
 70
0
 71
3
 72
18
 73
14
 74
0
 42
0.0000001
 43
0.0000001
 44
0.0000000001
 40
0.0
 40
0.0
 40
0.0
 40
0.0
 40
0.0899336333
 40
0.1956506893
 40
0.3142460581
 40
0.4427893472
 40
0.5097981702
 40
0.5781086807
 40
0.6474379324
 40
0.7175294354
 40
0.7880631648
 40
0.8587907433
 40
1.0
 40
1.0
 40
1.0
 40
1.0
 10
50.7557492889
 20
286.8422615459
 30
0.0
 10
50.1165682129
 20
286.3505696004
 30
0.0
 10
48.7586340423
 20
285.2387565335
 30
0.0
 10
46.6339265873
 20
283.3874042387
 30
0.0
 10
44.3191627604
 20
281.2296362036
 30
0.0
 10
42.3042183879
 20
279.2608002993
 30
0.0
 10
40.6439061039
 20
277.5750212691
 30
0.0
 10
39.3804340675
 20
276.2440822686
 30
0.0
 10
38.1163557294
 20
274.8759497015
 30
0.0
 10
36.8468781717
 20
273.4856837879
 30
0.0
 10
35.5925437877
 20
272.0648428992
 30
0.0
 10
33.9523774531
 20
270.1346515416
 30
0.0
 10
32.7543831625
 20
268.6588459042
 30
0.0
 10
31.9740234778
 20
267.6616990946
 30
0.0
  0
SPLINE
  5
374
100
AcDbEntity
  8
0
100
AcDbSpline
 62
7
  6
CONTINUOUS
 70
0
 71
3
 72
9
 73
5
 74
0
 42
0.0000001
 43
0.0000001
 44
0.0000000001
 40
0.0
 40
0.0
 40
0.0
 40
0.0
 40
0.2510347006
 40
1.0
 40
1.0
 40
1.0
 40
1.0
 10
31.8485214967
 20
267.7542328268
 30
0.0
 10
32.3174627661
 20
268.4074574101
 30
0.0
 10
34.2153265526
 20
270.9881302455
 30
0.0
 10
36.2165829216
 20
273.4920500548
 30
0.0
 10
37.7596315953
 20
275.3290822544
 30
0.0
  0
SPLINE
  5
375
100
AcDbEntity
  8
0
100
AcDbSpline
 62
7
  6
CONTINUOUS
 70
0
 71
3
 72
10
 73
6
 74
0
 42
0.0000001
 43
0.0000001
 44
0.0000000001
 40
0.0
 40
0.0
 40
0.0
 40
0.0
 40
0.5444838773
 40
0.7853963188
 40
1.0
 40
1.0
 40
1.0
 40
1.0
 10
42.3591332613
 20
280.546306244
 30
0.0
 10
43.7899935271
 20
281.8019848383
 30
0.0
 10
45.9077787774
 20
283.5552938384
 30
0.0
 10
48.7380402445
 20
285.6096338739
 30
0.0
 10
50.074420991
 20
286.4781377184
 30
0.0
 10
50.7176847446
 20
286.8644084278
 30
0.0
  0
LINE
  5
376
100
AcDbEntity
  8
0
100
AcDbLine
 62
7
  6
CONTINUOUS
 10
50.7557489534
 20
286.8419950063
 11
50.7679040622
 21
286.8519386644
  0
SPLINE
  5
377
100
AcDbEntity
  8
0
100
AcDbSpline
 62
7
  6
CONTINUOUS
 70
0
 71
3
 72
9
 73
5
 74
0
 42
0.0000001
 43
0.0000001
 44
0.0000000001
 40
0.0
 40
0.0
 40
0.0
 40
0.0
 40
0.495028728
 40
1.0
 40
1.0
 40
1.0
 40
1.0
 10
50.7678991221
 20
286.8519396577
 30
0.0
 10
50.8210547941
 20
286.8413332405
 30
0.0
 10
50.9215039225
 20
286.7811024942
 30
0.0
 10
50.9750702591
 20
286.6777857686
 30
0.0
 10
50.9841096943
 20
286.6232374927
 30
0.0
  0
SPLINE
  5
378
100
AcDbEntity
  8
0
100
AcDbSpline
 62
7
  6
CONTINUOUS
 70
0
 71
3
 72
9
 73
5
 74
0
 42
0.0000001
 43
0.0000001
 44
0.0000000001
 40
0.0
 40
0.0
 40
0.0
 40
0.0
 40
0.2558499264
 40
1.0
 40
1.0
 40
1.0
 40
1.0
 10
50.9838198938
 20
286.6234063336
 30
0.0
 10
51.0552985982
 20
286.6847210742
 30
0.0
 10
51.3324170969
 20
286.926985203
 30
0.0
 10
51.6002826295
 20
287.1798957087
 30
0.0
 10
51.7931933382
 20
287.3743468462
 30
0.0
  0
SPLINE
  5
379
100
AcDbEntity
  8
0
100
AcDbSpline
 62
7
  6
CONTINUOUS
 70
0
 71
3
 72
9
 73
5
 74
0
 42
0.0000001
 43
0.0000001
 44
0.0000000001
 40
0.0
 40
0.0
 40
0.0
 40
0.0
 40
0.2342443746
 40
1.0
 40
1.0
 40
1.0
 40
1.0
 10
52.121330336
 20
284.8954419424
 30
0.0
 10
51.9337762055
 20
284.4380265537
 30
0.0
 10
51.1132695986
 20
282.4934198268
 30
0.0
 10
50.2298084969
 20
280.5759769828
 30
0.0
 10
49.5367565041
 20
279.1159918484
 30
0.0
  0
SPLINE
  5
37A
100
AcDbEntity
  8
0
100
AcDbSpline
 62
7
  6
CONTINUOUS
 70
0
 71
3
 72
9
 73
5
 74
0
 42
0.0000001
 43
0.0000001
 44
0.0000000001
 40
0.0
 40
0.0
 40
0.0
 40
0.0
 40
0.241643003
 40
1.0
 40
1.0
 40
1.0
 40
1.0
 10
49.5367565041
 20
279.1159918484
 30
0.0
 10
49.2152526824
 20
278.4387110595
 30
0.0
 10
47.8688393698
 20
275.6434372565
 30
0.0
 10
46.477534711
 20
272.8701606606
 30
0.0
 10
45.4256859448
 20
270.7655068748
 30
0.0
  0
SPLINE
  5
37B
100
AcDbEntity
  8
0
100
AcDbSpline
 62
7
  6
CONTINUOUS
 70
0
 71
3
 72
11
 73
7
 74
0
 42
0.0000001
 43
0.0000001
 44
0.0000000001
 40
0.0
 40
0.0
 40
0.0
 40
0.0
 40
0.2712368484
 40
0.5375466876
 40
0.7858061354
 40
1.0
 40
1.0
 40
1.0
 40
1.0
 10
33.0905232137
 20
267.6294947775
 30
0.0
 10
34.3964372547
 20
269.289814621
 30
0.0
 10
37.0775318148
 20
272.5074352977
 30
0.0
 10
41.1741881318
 20
277.0551657444
 30
0.0
 10
45.1103571815
 20
281.145239545
 30
0.0
 10
47.6966166524
 20
283.6533680979
 30
0.0
 10
48.9226775345
 20
284.7844699658
 30
0.0
  0
SPLINE
  5
37C
100
AcDbEntity
  8
0
100
AcDbSpline
 62
7
  6
CONTINUOUS
 70
0
 71
3
 72
9
 73
5
 74
0
 42
0.0000001
 43
0.0000001
 44
0.0000000001
 40
0.0
 40
0.0
 40
0.0
 40
0.0
 40
0.2696015654
 40
1.0
 40
1.0
 40
1.0
 40
1.0
 10
48.9226942206
 20
284.7844037487
 30
0.0
 10
49.1041434398
 20
284.9518016201
 30
0.0
 10
49.7796104465
 20
285.5700498871
 30
0.0
 10
50.4647120191
 20
286.1778493079
 30
0.0
 10
50.972221526
 20
286.6134579766
 30
0.0
  0
SPLINE
  5
37D
100
AcDbEntity
  8
0
100
AcDbSpline
 62
7
  6
CONTINUOUS
 70
0
 71
3
 72
17
 73
13
 74
0
 42
0.0000001
 43
0.0000001
 44
0.0000000001
 40
0.0
 40
0.0
 40
0.0
 40
0.0
 40
0.2629022622
 40
0.5186488502
 40
0.643097664
 40
0.7644008359
 40
0.8234724479
 40
0.8810728153
 40
0.9091970431
 40
0.9368449175
 40
0.9645938518
 40
1.0
 40
1.0
 40
1.0
 40
1.0
 10
51.0054941165
 20
287.039948754
 30
0.0
 10
51.0719068327
 20
287.0810906529
 30
0.0
 10
51.2036865216
 20
287.1610228949
 30
0.0
 10
51.3699009428
 20
287.2554689824
 30
0.0
 10
51.502531774
 20
287.3234596618
 30
0.0
 10
51.5849884774
 20
287.3611358519
 30
0.0
 10
51.6511709829
 20
287.3861517669
 30
0.0
 10
51.6924680499
 20
287.3984272509
 30
0.0
 10
51.7256973526
 20
287.4046086894
 30
0.0
 10
51.7504032999
 20
287.4059349804
 30
0.0
 10
51.7780792405
 20
287.4025797637
 30
0.0
 10
51.7916672357
 20
287.3847346332
 30
0.0
 10
51.7931945241
 20
287.3743248369
 30
0.0
  0
SPLINE
  5
37E
100
AcDbEntity
  8
0
100
AcDbSpline
 62
7
  6
CONTINUOUS
 70
0
 71
3
 72
10
 73
6
 74
0
 42
0.0000001
 43
0.0000001
 44
0.0000000001
 40
0.0
 40
0.0
 40
0.0
 40
0.0
 40
0.2886670816
 40
0.550389128
 40
1.0
 40
1.0
 40
1.0
 40
1.0
 10
51.0054941165
 20
287.039948754
 30
0.0
 10
51.6085322189
 20
287.4135244529
 30
0.0
 10
52.7287886949
 20
288.1784506278
 30
0.0
 10
54.5914721488
 20
289.7804511073
 30
0.0
 10
55.6975752983
 20
291.1897566256
 30
0.0
 10
56.1772220786
 20
292.1850970792
 30
0.0
  0
SPLINE
  5
37F
100
AcDbEntity
  8
0
100
AcDbSpline
 62
7
  6
CONTINUOUS
 70
0
 71
3
 72
18
 73
14
 74
0
 42
0.0000001
 43
0.0000001
 44
0.0000000001
 40
0.0
 40
0.0
 40
0.0
 40
0.0
 40
0.0736978273
 40
0.1673081513
 40
0.2787229658
 40
0.4051869016
 40
0.4730438706
 40
0.5434099179
 40
0.6159523696
 40
0.6903797038
 40
0.7662955961
 40
0.843375906
 40
1.0
 40
1.0
 40
1.0
 40
1.0
 10
56.2339967197
 20
292.1704653036
 30
0.0
 10
56.1148574804
 20
291.5921382091
 30
0.0
 10
55.7378695307
 20
290.3014911368
 30
0.0
 10
54.91165115
 20
288.2255611688
 30
0.0
 10
53.810371262
 20
285.8077768774
 30
0.0
 10
52.7042485321
 20
283.6216296398
 30
0.0
 10
51.7145475884
 20
281.7460693722
 30
0.0
 10
50.9220831894
 20
280.2548936015
 30
0.0
 10
50.0933511828
 20
278.7233788287
 30
0.0
 10
49.2192785806
 20
277.1661036994
 30
0.0
 10
48.3262771684
 20
275.5778099686
 30
0.0
 10
47.115484012
 20
273.4126641886
 30
0.0
 10
46.196985178
 20
271.7809639821
 30
0.0
 10
45.5834151366
 20
270.68631369
 30
0.0
  0
SPLINE
  5
380
100
AcDbEntity
  8
0
100
AcDbSpline
 62
7
  6
CONTINUOUS
 70
0
 71
3
 72
10
 73
6
 74
0
 42
0.0000001
 43
0.0000001
 44
0.0000000001
 40
0.0
 40
0.0
 40
0.0
 40
0.0
 40
0.5749935297
 40
0.808603648
 40
1.0
 40
1.0
 40
1.0
 40
1.0
 10
52.121330336
 20
284.8954419424
 30
0.0
 10
52.9373144052
 20
286.2708702412
 30
0.0
 10
54.0725607273
 20
288.2128316812
 30
0.0
 10
55.4067754997
 20
290.6534338408
 30
0.0
 10
55.9462110047
 20
291.7056230907
 30
0.0
 10
56.1772995577
 20
292.1851904847
 30
0.0
  0
SPLINE
  5
381
100
AcDbEntity
  8
0
100
AcDbSpline
 62
7
  6
CONTINUOUS
 70
0
 71
3
 72
9
 73
5
 74
0
 42
0.0000001
 43
0.0000001
 44
0.0000000001
 40
0.0
 40
0.0
 40
0.0
 40
0.0
 40
0.5132586614
 40
1.0
 40
1.0
 40
1.0
 40
1.0
 10
56.2360783956
 20
292.1812511662
 30
0.0
 10
56.2918437382
 20
292.1795663279
 30
0.0
 10
56.4027939355
 20
292.1413859327
 30
0.0
 10
56.4664774209
 20
292.0403202007
 30
0.0
 10
56.4758535714
 20
291.9882492466
 30
0.0
  0
SPLINE
  5
382
100
AcDbEntity
  8
0
100
AcDbSpline
 62
7
  6
CONTINUOUS
 70
0
 71
3
 72
13
 73
9
 74
0
 42
0.0000001
 43
0.0000001
 44
0.0000000001
 40
0.0
 40
0.0
 40
0.0
 40
0.0
 40
0.291091086
 40
0.5647742754
 40
0.6906007561
 40
0.8063802259
 40
0.9100967393
 40
1.0
 40
1.0
 40
1.0
 40
1.0
 10
46.6462504838
 20
270.8246801975
 30
0.0
 10
47.6529674783
 20
272.6330863798
 30
0.0
 10
49.6125571809
 20
276.1381131035
 30
0.0
 10
51.9216384535
 20
280.4728904507
 30
0.0
 10
53.5346555657
 20
283.7629745117
 30
0.0
 10
54.5506334813
 20
285.998830743
 30
0.0
 10
55.3804942283
 20
288.0368526118
 30
0.0
 10
55.8306794263
 20
289.3392227962
 30
0.0
 10
56.0130020011
 20
289.9519071446
 30
0.0
  0
SPLINE
  5
383
100
AcDbEntity
  8
0
100
AcDbSpline
 62
7
  6
CONTINUOUS
 70
0
 71
3
 72
9
 73
5
 74
0
 42
0.0000001
 43
0.0000001
 44
0.0000000001
 40
0.0
 40
0.0
 40
0.0
 40
0.0
 40
0.5365290593
 40
1.0
 40
1.0
 40
1.0
 40
1.0
 10
56.0130159097
 20
289.9518434587
 30
0.0
 10
56.1190553177
 20
290.3081881292
 30
0.0
 10
56.2996541161
 20
290.9776251145
 30
0.0
 10
56.4309630327
 20
291.6591370404
 30
0.0
 10
56.4740619154
 20
291.9773938805
 30
0.0
  0
SPLINE
  5
384
100
AcDbEntity
  8
0
100
AcDbSpline
 62
7
  6
CONTINUOUS
 70
0
 71
3
 72
18
 73
14
 74
0
 42
0.0000001
 43
0.0000001
 44
0.0000000001
 40
0.0
 40
0.0
 40
0.0
 40
0.0
 40
0.0468765598
 40
0.0645104493
 40
0.1012204514
 40
0.1473472751
 40
0.1994675445
 40
0.2557153539
 40
0.3150524102
 40
0.4406499179
 40
0.5732398239
 40
0.7112372631
 40
1.0
 40
1.0
 40
1.0
 40
1.0
 10
56.5251502242
 20
292.8065047333
 30
0.0
 10
56.5236875437
 20
292.8147848684
 30
0.0
 10
56.5220018785
 20
292.828888088
 30
0.0
 10
56.5026063996
 20
292.8348847921
 30
0.0
 10
56.4878388662
 20
292.82049293
 30
0.0
 10
56.4731538422
 20
292.8024884813
 30
0.0
 10
56.4579965442
 20
292.7788489754
 30
0.0
 10
56.4429666872
 20
292.7529068068
 30
0.0
 10
56.4224789057
 20
292.7147550498
 30
0.0
 10
56.3970900881
 20
292.6637837372
 30
0.0
 10
56.3667068254
 20
292.5995326315
 30
0.0
 10
56.3248974657
 20
292.5083282219
 30
0.0
 10
56.2936966592
 20
292.4384244308
 30
0.0
 10
56.2726550081
 20
292.3910951192
 30
0.0
  0
SPLINE
  5
385
100
AcDbEntity
  8
0
100
AcDbSpline
 62
7
  6
CONTINUOUS
 70
0
 71
3
 72
9
 73
5
 74
0
 42
0.0000001
 43
0.0000001
 44
0.0000000001
 40
0.0
 40
0.0
 40
0.0
 40
0.0
 40
0.5091725011
 40
1.0
 40
1.0
 40
1.0
 40
1.0
 10
56.2726550081
 20
292.3910951192
 30
0.0
 10
56.4963952617
 20
292.8944504064
 30
0.0
 10
56.8240262442
 20
293.9395423494
 30
0.0
 10
56.8545628924
 20
295.0368937949
 30
0.0
 10
56.7961362825
 20
295.5646647047
 30
0.0
  0
SPLINE
  5
386
100
AcDbEntity
  8
0
100
AcDbSpline
 62
7
  6
CONTINUOUS
 70
0
 71
3
 72
9
 73
5
 74
0
 42
0.0000001
 43
0.0000001
 44
0.0000000001
 40
0.0
 40
0.0
 40
0.0
 40
0.0
 40
0.240252221
 40
1.0
 40
1.0
 40
1.0
 40
1.0
 10
56.2024241788
 20
297.806189542
 30
0.0
 10
56.292620813
 20
297.6905464198
 30
0.0
 10
56.6514670198
 20
297.1963608695
 30
0.0
 10
56.9428405633
 20
296.6543427493
 30
0.0
 10
57.1272671094
 20
296.228811901
 30
0.0
  0
SPLINE
  5
387
100
AcDbEntity
  8
0
100
AcDbSpline
 62
7
  6
CONTINUOUS
 70
0
 71
3
 72
15
 73
11
 74
0
 42
0.0000001
 43
0.0000001
 44
0.0000000001
 40
0.0
 40
0.0
 40
0.0
 40
0.0
 40
0.0906772609
 40
0.1925572913
 40
0.3056942967
 40
0.429282727
 40
0.562029222
 40
0.702367023
 40
0.8488417403
 40
1.0
 40
1.0
 40
1.0
 40
1.0
 10
57.1272671094
 20
296.228811901
 30
0.0
 10
57.3812870207
 20
295.6427069685
 30
0.0
 10
57.7771829214
 20
294.3352628106
 30
0.0
 10
58.0748781055
 20
292.1968025942
 30
0.0
 10
58.1096738651
 20
289.8063828727
 30
0.0
 10
57.8947998011
 20
287.2103018753
 30
0.0
 10
57.5031318289
 20
284.4414419101
 30
0.0
 10
56.8762952524
 20
281.5513143033
 30
0.0
 10
56.1207308311
 20
278.559578997
 30
0.0
 10
55.529642232
 20
276.5473189231
 30
0.0
 10
55.2152052474
 20
275.5299544709
 30
0.0
  0
SPLINE
  5
388
100
AcDbEntity
  8
0
100
AcDbSpline
 62
7
  6
CONTINUOUS
 70
0
 71
3
 72
9
 73
5
 74
0
 42
0.0000001
 43
0.0000001
 44
0.0000000001
 40
0.0
 40
0.0
 40
0.0
 40
0.0
 40
0.5136482669
 40
1.0
 40
1.0
 40
1.0
 40
1.0
 10
55.0403711379
 20
275.5720081045
 30
0.0
 10
55.4203644374
 20
277.0622456464
 30
0.0
 10
56.092927293
 20
279.9813480036
 30
0.0
 10
56.570905545
 20
282.9409207742
 30
0.0
 10
56.73443124
 20
284.3879025983
 30
0.0
  0
SPLINE
  5
389
100
AcDbEntity
  8
0
100
AcDbSpline
 62
7
  6
CONTINUOUS
 70
0
 71
3
 72
9
 73
5
 74
0
 42
0.0000001
 43
0.0000001
 44
0.0000000001
 40
0.0
 40
0.0
 40
0.0
 40
0.0
 40
0.5202075964
 40
1.0
 40
1.0
 40
1.0
 40
1.0
 10
56.73443124
 20
284.3879025983
 30
0.0
 10
56.8513568522
 20
285.4225365478
 30
0.0
 10
57.0082910329
 20
287.4200230247
 30
0.0
 10
56.9829705962
 20
289.4258841852
 30
0.0
 10
56.9105879986
 20
290.3834795111
 30
0.0
  0
SPLINE
  5
38A
100
AcDbEntity
  8
0
100
AcDbSpline
 62
7
  6
CONTINUOUS
 70
0
 71
3
 72
9
 73
5
 74
0
 42
0.0000001
 43
0.0000001
 44
0.0000000001
 40
0.0
 40
0.0
 40
0.0
 40
0.0
 40
0.5366810459
 40
1.0
 40
1.0
 40
1.0
 40
1.0
 10
56.9105879986
 20
290.3834795111
 30
0.0
 10
56.9971073526
 20
291.3087326584
 30
0.0
 10
57.0846441456
 20
293.0409673808
 30
0.0
 10
56.951721379
 20
294.7761356809
 30
0.0
 10
56.8104389416
 20
295.565856835
 30
0.0
  0
SPLINE
  5
38B
100
AcDbEntity
  8
0
100
AcDbSpline
 62
7
  6
CONTINUOUS
 70
0
 71
3
 72
9
 73
5
 74
0
 42
0.0000001
 43
0.0000001
 44
0.0000000001
 40
0.0
 40
0.0
 40
0.0
 40
0.0
 40
0.5146026475
 40
1.0
 40
1.0
 40
1.0
 40
1.0
 10
56.1048780221
 20
297.9282861564
 30
0.0
 10
56.1391718653
 20
297.932700148
 30
0.0
 10
56.2089116218
 20
297.9272676372
 30
0.0
 10
56.2679591682
 20
297.8882009368
 30
0.0
 10
56.2892178661
 20
297.863467011
 30
0.0
  0
SPLINE
  5
38C
100
AcDbEntity
  8
0
100
AcDbSpline
 62
7
  6
CONTINUOUS
 70
0
 71
3
 72
11
 73
7
 74
0
 42
0.0000001
 43
0.0000001
 44
0.0000000001
 40
0.0
 40
0.0
 40
0.0
 40
0.0
 40
0.2802796516
 40
0.5446111399
 40
0.7864828844
 40
1.0
 40
1.0
 40
1.0
 40
1.0
 10
56.062569156
 20
275.817827251
 30
0.0
 10
56.5266472768
 20
277.3676968869
 30
0.0
 10
57.3609233471
 20
280.4004947243
 30
0.0
 10
58.2535011269
 20
284.8576649378
 30
0.0
 10
58.6585069212
 20
288.9998405184
 30
0.0
 10
58.542318726
 20
291.6427726451
 30
0.0
 10
58.3502923818
 20
292.8602061235
 30
0.0
  0
SPLINE
  5
38D
100
AcDbEntity
  8
0
100
AcDbSpline
 62
7
  6
CONTINUOUS
 70
0
 71
3
 72
10
 73
6
 74
0
 42
0.0000001
 43
0.0000001
 44
0.0000000001
 40
0.0
 40
0.0
 40
0.0
 40
0.0
 40
0.2446843174
 40
0.4890531736
 40
1.0
 40
1.0
 40
1.0
 40
1.0
 10
-17.820214886
 20
295.9915435538
 30
0.0
 10
-17.8823972351
 20
295.6553211315
 30
0.0
 10
-17.9490636178
 20
294.9708109087
 30
0.0
 10
-17.8358616877
 20
293.5721829094
 30
0.0
 10
-17.4674837903
 20
292.5570229503
 30
0.0
 10
-17.1334401015
 20
291.9259812383
 30
0.0
  0
SPLINE
  5
38E
100
AcDbEntity
  8
0
100
AcDbSpline
 62
7
  6
CONTINUOUS
 70
0
 71
3
 72
10
 73
6
 74
0
 42
0.0000001
 43
0.0000001
 44
0.0000000001
 40
0.0
 40
0.0
 40
0.0
 40
0.0
 40
0.2610255705
 40
0.5154430357
 40
1.0
 40
1.0
 40
1.0
 40
1.0
 10
59.4058233803
 20
281.5152739587
 30
0.0
 10
59.4491413934
 20
282.4698359562
 30
0.0
 10
59.4781652368
 20
284.3582589595
 30
0.0
 10
59.3074920799
 20
288.0152899638
 30
0.0
 10
58.8940647179
 20
290.7066475865
 30
0.0
 10
58.4442586589
 20
292.4225021329
 30
0.0
  0
SPLINE
  5
38F
100
AcDbEntity
  8
0
100
AcDbSpline
 62
7
  6
CONTINUOUS
 70
0
 71
3
 72
9
 73
5
 74
0
 42
0.0000001
 43
0.0000001
 44
0.0000000001
 40
0.0
 40
0.0
 40
0.0
 40
0.0
 40
0.5146352251
 40
1.0
 40
1.0
 40
1.0
 40
1.0
 10
56.1131884313
 20
297.9177154629
 30
0.0
 10
56.1475597254
 20
297.9221426546
 30
0.0
 10
56.2174656925
 20
297.9166725478
 30
0.0
 10
56.2765929744
 20
297.8774069302
 30
0.0
 10
56.2978352817
 20
297.8525670327
 30
0.0
  0
SPLINE
  5
390
100
AcDbEntity
  8
0
100
AcDbSpline
 62
7
  6
CONTINUOUS
 70
0
 71
3
 72
9
 73
5
 74
0
 42
0.0000001
 43
0.0000001
 44
0.0000000001
 40
0.0
 40
0.0
 40
0.0
 40
0.0
 40
0.5132386906
 40
1.0
 40
1.0
 40
1.0
 40
1.0
 10
56.2339966847
 20
292.1701988848
 30
0.0
 10
56.2897146255
 20
292.1685221795
 30
0.0
 10
56.4005718865
 20
292.1304184178
 30
0.0
 10
56.4642990602
 20
292.029524021
 30
0.0
 10
56.4737474386
 20
291.9775077327
 30
0.0
  0
SPLINE
  5
391
100
AcDbEntity
  8
0
100
AcDbSpline
 62
7
  6
CONTINUOUS
 70
0
 71
3
 72
9
 73
5
 74
0
 42
0.0000001
 43
0.0000001
 44
0.0000000001
 40
0.0
 40
0.0
 40
0.0
 40
0.0
 40
0.4949901768
 40
1.0
 40
1.0
 40
1.0
 40
1.0
 10
50.7557489534
 20
286.8419950063
 30
0.0
 10
50.8088545439
 20
286.8314054365
 30
0.0
 10
50.9092287041
 20
286.7712745529
 30
0.0
 10
50.9628269195
 20
286.6681094879
 30
0.0
 10
50.9719320293
 20
286.6136177011
 30
0.0
  0
SPLINE
  5
392
100
AcDbEntity
  8
0
100
AcDbSpline
 62
7
  6
CONTINUOUS
 70
0
 71
3
 72
9
 73
5
 74
0
 42
0.0000001
 43
0.0000001
 44
0.0000000001
 40
0.0
 40
0.0
 40
0.0
 40
0.0
 40
0.4615314263
 40
1.0
 40
1.0
 40
1.0
 40
1.0
 10
40.5124587055
 20
282.7442745687
 30
0.0
 10
40.5560109635
 20
282.7242958804
 30
0.0
 10
40.6298307195
 20
282.6418685823
 30
0.0
 10
40.6650104647
 20
282.5419236462
 30
0.0
 10
40.6721618623
 20
282.4864793168
 30
0.0
  0
SPLINE
  5
393
100
AcDbEntity
  8
0
100
AcDbSpline
 62
7
  6
CONTINUOUS
 70
0
 71
3
 72
9
 73
5
 74
0
 42
0.0000001
 43
0.0000001
 44
0.0000000001
 40
0.0
 40
0.0
 40
0.0
 40
0.0
 40
0.4230428373
 40
1.0
 40
1.0
 40
1.0
 40
1.0
 10
27.0635740617
 20
280.5008783641
 30
0.0
 10
27.0896921335
 20
280.4694668006
 30
0.0
 10
27.1210928071
 20
280.3742216002
 30
0.0
 10
27.1383795435
 20
280.2799703463
 30
0.0
 10
27.1424842191
 20
280.2244074688
 30
0.0
  0
SPLINE
  5
394
100
AcDbEntity
  8
0
100
AcDbSpline
 62
7
  6
CONTINUOUS
 70
0
 71
3
 72
9
 73
5
 74
0
 42
0.0000001
 43
0.0000001
 44
0.0000000001
 40
0.0
 40
0.0
 40
0.0
 40
0.0
 40
0.4091062441
 40
1.0
 40
1.0
 40
1.0
 40
1.0
 10
12.4565657889
 20
280.4533431262
 30
0.0
 10
12.4492002805
 20
280.4155861732
 30
0.0
 10
12.4445841923
 20
280.321188992
 30
0.0
 10
12.4421426459
 20
280.227343579
 30
0.0
 10
12.44266959
 20
280.1717837527
 30
0.0
  0
SPLINE
  5
395
100
AcDbEntity
  8
0
100
AcDbSpline
 62
7
  6
CONTINUOUS
 70
0
 71
3
 72
9
 73
5
 74
0
 42
0.0000001
 43
0.0000001
 44
0.0000000001
 40
0.0
 40
0.0
 40
0.0
 40
0.0
 40
0.2290814109
 40
1.0
 40
1.0
 40
1.0
 40
1.0
 10
-11.4989207191
 20
286.6394013865
 30
0.0
 10
-11.5218312516
 20
286.6316746508
 30
0.0
 10
-11.6145447265
 20
286.5776803344
 30
0.0
 10
-11.6690083873
 20
286.4701755809
 30
0.0
 10
-11.6782762065
 20
286.3893385104
 30
0.0
  0
SPLINE
  5
396
100
AcDbEntity
  8
0
100
AcDbSpline
 62
7
  6
CONTINUOUS
 70
0
 71
3
 72
9
 73
5
 74
0
 42
0.0000001
 43
0.0000001
 44
0.0000000001
 40
0.0
 40
0.0
 40
0.0
 40
0.0
 40
0.5018841791
 40
1.0
 40
1.0
 40
1.0
 40
1.0
 10
-17.2003928365
 20
291.9312231053
 30
0.0
 10
-17.2553008031
 20
291.9241624475
 30
0.0
 10
-17.361735681
 20
291.8716976578
 30
0.0
 10
-17.4186174932
 20
291.7672188392
 30
0.0
 10
-17.4272113282
 20
291.7129506739
 30
0.0
  0
SPLINE
  5
397
100
AcDbEntity
  8
0
100
AcDbSpline
 62
7
  6
CONTINUOUS
 70
0
 71
3
 72
9
 73
5
 74
0
 42
0.0000001
 43
0.0000001
 44
0.0000000001
 40
0.0
 40
0.0
 40
0.0
 40
0.0
 40
0.5083502796
 40
1.0
 40
1.0
 40
1.0
 40
1.0
 10
-17.3212011203
 20
297.678739684
 30
0.0
 10
-17.3584104591
 20
297.6798670075
 30
0.0
 10
-17.4331056324
 20
297.6662128062
 30
0.0
 10
-17.4943624364
 20
297.6204944706
 30
0.0
 10
-17.5169779094
 20
297.5924804108
 30
0.0
  0
SPLINE
  5
398
100
AcDbEntity
  8
0
100
AcDbSpline
 62
7
  6
CONTINUOUS
 70
0
 71
3
 72
8
 73
4
 74
0
 42
0.0000001
 43
0.0000001
 44
0.0000000001
 40
0.0
 40
0.0
 40
0.0
 40
0.0
 40
1.0
 40
1.0
 40
1.0
 40
1.0
 10
-17.5363093815
 20
297.5641930675
 30
0.0
 10
-17.5481679603
 20
297.5434871483
 30
0.0
 10
-17.5567201214
 20
297.5204674715
 30
0.0
 10
-17.5609516907
 20
297.4969843967
 30
0.0
  0
SPLINE
  5
399
100
AcDbEntity
  8
0
100
AcDbSpline
 62
7
  6
CONTINUOUS
 70
0
 71
3
 72
18
 73
14
 74
0
 42
0.0000001
 43
0.0000001
 44
0.0000000001
 40
0.0
 40
0.0
 40
0.0
 40
0.0
 40
0.1836508656
 40
0.3487463717
 40
0.4935077324
 40
0.5581556356
 40
0.6177795362
 40
0.7232606495
 40
0.7707145164
 40
0.8158945598
 40
0.8600879557
 40
0.9046892467
 40
1.0
 40
1.0
 40
1.0
 40
1.0
 10
2.7161142595
 20
308.1233089327
 30
0.0
 10
1.5174544357
 20
307.802001595
 30
0.0
 10
-0.7369689459
 20
307.1030037189
 30
0.0
 10
-3.8160890245
 20
305.8077738343
 30
0.0
 10
-6.0196970793
 20
304.5437730424
 30
0.0
 10
-7.4703011921
 20
303.4430899675
 30
0.0
 10
-8.6101027583
 20
302.3879201691
 30
0.0
 10
-9.5027559079
 20
301.2352044094
 30
0.0
 10
-10.0445396019
 20
300.0043673706
 30
0.0
 10
-10.2612275861
 20
299.0999377462
 30
0.0
 10
-10.2987888464
 20
298.1894074716
 30
0.0
 10
-10.1059718277
 20
296.9536150555
 30
0.0
 10
-9.6910819334
 20
296.0776412115
 30
0.0
 10
-9.3385596313
 20
295.5386466329
 30
0.0
  0
SPLINE
  5
39A
100
AcDbEntity
  8
0
100
AcDbSpline
 62
7
  6
CONTINUOUS
 70
0
 71
3
 72
9
 73
5
 74
0
 42
0.0000001
 43
0.0000001
 44
0.0000000001
 40
0.0
 40
0.0
 40
0.0
 40
0.0
 40
0.4532826295
 40
1.0
 40
1.0
 40
1.0
 40
1.0
 10
-9.3385596313
 20
295.5386466329
 30
0.0
 10
-8.8573963269
 20
294.8029643484
 30
0.0
 10
-7.5014497838
 20
293.3739543828
 30
0.0
 10
-5.8767982695
 20
292.2967083097
 30
0.0
 10
-4.9539978937
 20
291.7746063022
 30
0.0
  0
SPLINE
  5
39B
100
AcDbEntity
  8
0
100
AcDbSpline
 62
7
  6
CONTINUOUS
 70
0
 71
3
 72
15
 73
11
 74
0
 42
0.0000001
 43
0.0000001
 44
0.0000000001
 40
0.0
 40
0.0
 40
0.0
 40
0.0
 40
0.1020379061
 40
0.2172603218
 40
0.3429282673
 40
0.4756434016
 40
0.611622154
 40
0.7469123254
 40
0.8775914499
 40
1.0
 40
1.0
 40
1.0
 40
1.0
 10
-3.7893240373
 20
291.159722325
 30
0.0
 10
-2.55273454
 20
290.5496420231
 30
0.0
 10
0.1840171456
 20
289.4590743741
 30
0.0
 10
4.6592234025
 20
288.2306545403
 30
0.0
 10
9.6354783586
 20
287.3415663107
 30
0.0
 10
14.9445445269
 20
286.8235152828
 30
0.0
 10
20.4070750029
 20
286.6947063419
 30
0.0
 10
25.837346933
 20
286.959859307
 30
0.0
 10
31.0502996763
 20
287.6093198627
 30
0.0
 10
34.4030840077
 20
288.3124498528
 30
0.0
 10
36.0026478884
 20
288.7339827893
 30
0.0
  0
SPLINE
  5
39C
100
AcDbEntity
  8
0
100
AcDbSpline
 62
7
  6
CONTINUOUS
 70
0
 71
3
 72
13
 73
9
 74
0
 42
0.0000001
 43
0.0000001
 44
0.0000000001
 40
0.0
 40
0.0
 40
0.0
 40
0.0
 40
0.2423966915
 40
0.4902195317
 40
0.6158082694
 40
0.7428839787
 40
0.8713174519
 40
1.0
 40
1.0
 40
1.0
 40
1.0
 10
38.4063648565
 20
286.8577249575
 30
0.0
 10
37.9852250294
 20
286.7463682298
 30
0.0
 10
37.1309823797
 20
286.5305070317
 30
0.0
 10
36.0511668747
 20
286.28781391
 30
0.0
 10
35.171708777
 20
286.0992803938
 30
0.0
 10
34.4997626534
 20
285.9665994446
 30
0.0
 10
33.8201163322
 20
285.8449637794
 30
0.0
 10
33.3661302541
 20
285.7588830616
 30
0.0
 10
33.1385086723
 20
285.7180412153
 30
0.0
  0
SPLINE
  5
39D
100
AcDbEntity
  8
0
100
AcDbSpline
 62
7
  6
CONTINUOUS
 70
0
 71
3
 72
18
 73
14
 74
0
 42
0.0000001
 43
0.0000001
 44
0.0000000001
 40
0.0
 40
0.0
 40
0.0
 40
0.0
 40
0.0308197934
 40
0.0619107414
 40
0.0933602992
 40
0.1250780546
 40
0.2541782842
 40
0.3853026375
 40
0.5163781155
 40
0.6453339459
 40
0.7701547107
 40
0.888945967
 40
1.0
 40
1.0
 40
1.0
 40
1.0
 10
32.9261981882
 20
285.6806354497
 30
0.0
 10
32.5676803937
 20
285.6187707276
 30
0.0
 10
31.8452991051
 20
285.5076115751
 30
0.0
 10
30.7557756916
 20
285.3415310527
 30
0.0
 10
29.6520965203
 20
285.1996211335
 30
0.0
 10
27.3979821213
 20
284.9344576477
 30
0.0
 10
23.9603353663
 20
284.6618901668
 30
0.0
 10
19.3406561686
 20
284.5440996811
 30
0.0
 10
14.7227306037
 20
284.6735477487
 30
0.0
 10
10.1928789387
 20
285.0485353814
 30
0.0
 10
5.8350792959
 20
285.6613024341
 30
0.0
 10
1.7305341413
 20
286.5003089176
 30
0.0
 10
-0.8866213136
 20
287.227578253
 30
0.0
 10
-2.1338095386
 20
287.6314542969
 30
0.0
  0
SPLINE
  5
39E
100
AcDbEntity
  8
0
100
AcDbSpline
 62
7
  6
CONTINUOUS
 70
0
 71
3
 72
11
 73
7
 74
0
 42
0.0000001
 43
0.0000001
 44
0.0000000001
 40
0.0
 40
0.0
 40
0.0
 40
0.0
 40
0.2881911795
 40
0.5517004651
 40
0.7890604171
 40
1.0
 40
1.0
 40
1.0
 40
1.0
 10
-2.1338095386
 20
287.6314542969
 30
0.0
 10
-3.1300593985
 20
287.9540691549
 30
0.0
 10
-5.0174005212
 20
288.6363136832
 30
0.0
 10
-7.6279949821
 20
289.831328265
 30
0.0
 10
-9.8649218863
 20
291.1390030576
 30
0.0
 10
-11.1634302048
 20
292.1336306185
 30
0.0
 10
-11.7302057119
 20
292.6496304656
 30
0.0
  0
SPLINE
  5
39F
100
AcDbEntity
  8
0
100
AcDbSpline
 62
7
  6
CONTINUOUS
 70
0
 71
3
 72
11
 73
7
 74
0
 42
0.0000001
 43
0.0000001
 44
0.0000000001
 40
0.0
 40
0.0
 40
0.0
 40
0.0
 40
0.2830232118
 40
0.5341067761
 40
0.767032264
 40
1.0
 40
1.0
 40
1.0
 40
1.0
 10
-12.1984655527
 20
293.0980907382
 30
0.0
 10
-12.6755394997
 20
293.5796398162
 30
0.0
 10
-13.5031527296
 20
294.5686577185
 30
0.0
 10
-14.3280732551
 20
296.2343709018
 30
0.0
 10
-14.610889752
 20
297.9564454566
 30
0.0
 10
-14.4254243904
 20
299.0785959946
 30
0.0
 10
-14.2566003314
 20
299.6104132801
 30
0.0
  0
SPLINE
  5
3A0
100
AcDbEntity
  8
0
100
AcDbSpline
 62
7
  6
CONTINUOUS
 70
0
 71
3
 72
9
 73
5
 74
0
 42
0.0000001
 43
0.0000001
 44
0.0000000001
 40
0.0
 40
0.0
 40
0.0
 40
0.0
 40
0.2343662126
 40
1.0
 40
1.0
 40
1.0
 40
1.0
 10
-14.1963040442
 20
299.7904003296
 30
0.0
 10
-14.1200167651
 20
300.0067645995
 30
0.0
 10
-13.7423198605
 20
300.9116481986
 30
0.0
 10
-13.1716039449
 20
301.7278653089
 30
0.0
 10
-12.6789827619
 20
302.2926967894
 30
0.0
  0
SPLINE
  5
3A1
100
AcDbEntity
  8
0
100
AcDbSpline
 62
7
  6
CONTINUOUS
 70
0
 71
3
 72
9
 73
5
 74
0
 42
0.0000001
 43
0.0000001
 44
0.0000000001
 40
0.0
 40
0.0
 40
0.0
 40
0.0
 40
0.2451149232
 40
1.0
 40
1.0
 40
1.0
 40
1.0
 10
-12.6183528047
 20
302.3616015136
 30
0.0
 10
-12.5722587728
 20
302.4135279813
 30
0.0
 10
-12.382125514
 20
302.623519317
 30
0.0
 10
-12.183907885
 20
302.826159776
 30
0.0
 10
-12.0304800238
 20
302.9751082542
 30
0.0
  0
SPLINE
  5
3A2
100
AcDbEntity
  8
0
100
AcDbSpline
 62
7
  6
CONTINUOUS
 70
0
 71
3
 72
11
 73
7
 74
0
 42
0.0000001
 43
0.0000001
 44
0.0000000001
 40
0.0
 40
0.0
 40
0.0
 40
0.0
 40
0.2069029741
 40
0.4432562387
 40
0.7083804666
 40
1.0
 40
1.0
 40
1.0
 40
1.0
 10
-11.7515062735
 20
303.2378613017
 30
0.0
 10
-11.1001697099
 20
303.8334043821
 30
0.0
 10
-9.5790400198
 20
304.9729772602
 30
0.0
 10
-6.9295955841
 20
306.438879204
 30
0.0
 10
-3.806096996
 20
307.7521835406
 30
0.0
 10
-1.5421120192
 20
308.4787264706
 30
0.0
 10
-0.3449497532
 20
308.8165856447
 30
0.0
  0
SPLINE
  5
3A3
100
AcDbEntity
  8
0
100
AcDbSpline
 62
7
  6
CONTINUOUS
 70
0
 71
3
 72
9
 73
5
 74
0
 42
0.0000001
 43
0.0000001
 44
0.0000000001
 40
0.0
 40
0.0
 40
0.0
 40
0.0
 40
0.2556752932
 40
1.0
 40
1.0
 40
1.0
 40
1.0
 10
-9.1112292048
 20
299.6607375371
 30
0.0
 10
-9.1479679524
 20
299.5726888172
 30
0.0
 10
-9.282659062
 20
299.224657962
 30
0.0
 10
-9.3796088793
 20
298.8617599306
 30
0.0
 10
-9.4268981313
 20
298.588068164
 30
0.0
  0
SPLINE
  5
3A4
100
AcDbEntity
  8
0
100
AcDbSpline
 62
7
  6
CONTINUOUS
 70
0
 71
3
 72
9
 73
5
 74
0
 42
0.0000001
 43
0.0000001
 44
0.0000000001
 40
0.0
 40
0.0
 40
0.0
 40
0.0
 40
0.2344732125
 40
1.0
 40
1.0
 40
1.0
 40
1.0
 10
43.8667933452
 20
305.1342577915
 30
0.0
 10
43.5746472789
 20
305.2995481966
 30
0.0
 10
42.3119842279
 20
305.9749313353
 30
0.0
 10
40.992147902
 20
306.5402247208
 30
0.0
 10
39.9659788276
 20
306.9249044783
 30
0.0
  0
SPLINE
  5
3A5
100
AcDbEntity
  8
0
100
AcDbSpline
 62
7
  6
CONTINUOUS
 70
0
 71
3
 72
15
 73
11
 74
0
 42
0.0000001
 43
0.0000001
 44
0.0000000001
 40
0.0
 40
0.0
 40
0.0
 40
0.0
 40
0.1090604081
 40
0.2283151234
 40
0.3552426466
 40
0.4869703181
 40
0.6204174106
 40
0.7524335852
 40
0.8799197478
 40
1.0
 40
1.0
 40
1.0
 40
1.0
 10
39.9659788276
 20
306.9249044783
 30
0.0
 10
38.6974426946
 20
307.4004403176
 30
0.0
 10
35.983993948
 20
308.2443400186
 30
0.0
 10
31.6672590457
 20
309.1806731782
 30
0.0
 10
27.0131343578
 20
309.8253543511
 30
0.0
 10
22.1503562104
 20
310.1598101178
 30
0.0
 10
17.2130099475
 20
310.1745244635
 30
0.0
 10
12.3376816045
 20
309.868996117
 30
0.0
 10
7.6593591945
 20
309.2521788547
 30
0.0
 10
4.6453031573
 20
308.6215933751
 30
0.0
 10
3.2005870138
 20
308.2504523655
 30
0.0
  0
SPLINE
  5
3A6
100
AcDbEntity
  8
0
100
AcDbSpline
 62
7
  6
CONTINUOUS
 70
0
 71
3
 72
17
 73
13
 74
0
 42
0.0000001
 43
0.0000001
 44
0.0000000001
 40
0.0
 40
0.0
 40
0.0
 40
0.0
 40
0.1279854991
 40
0.2652531823
 40
0.4067124781
 40
0.5469854436
 40
0.6807733812
 40
0.8032322838
 40
0.8589582763
 40
0.910472977
 40
0.957521013
 40
1.0
 40
1.0
 40
1.0
 40
1.0
 10
0.5063643633
 20
309.0492262146
 30
0.0
 10
2.6072201791
 20
309.6047292137
 30
0.0
 10
7.0304520602
 20
310.5013347925
 30
0.0
 10
13.9041873451
 20
311.2421382737
 30
0.0
 10
21.0247703128
 20
311.4063883184
 30
0.0
 10
28.0758650406
 20
310.9864598173
 30
0.0
 10
34.7447191165
 20
310.0016315238
 30
0.0
 10
39.8951137022
 20
308.7115972414
 30
0.0
 10
43.5727887047
 20
307.4053869114
 30
0.0
 10
45.9738441791
 20
306.3507090507
 30
0.0
 10
48.0787991658
 20
305.2022924183
 30
0.0
 10
49.3340064322
 20
304.3375546711
 30
0.0
 10
49.8988402668
 20
303.8890445201
 30
0.0
  0
SPLINE
  5
3A7
100
AcDbEntity
  8
0
100
AcDbSpline
 62
7
  6
CONTINUOUS
 70
0
 71
3
 72
15
 73
11
 74
0
 42
0.0000001
 43
0.0000001
 44
0.0000000001
 40
0.0
 40
0.0
 40
0.0
 40
0.0
 40
0.1422331943
 40
0.2711440574
 40
0.3898921621
 40
0.5028913278
 40
0.6154567662
 40
0.7329717155
 40
0.8600393438
 40
1.0
 40
1.0
 40
1.0
 40
1.0
 10
50.897694562
 20
303.0191263098
 30
0.0
 10
51.2860962783
 20
302.6458834529
 30
0.0
 10
51.9826947768
 20
301.8854099183
 30
0.0
 10
52.7912805048
 20
300.6403901717
 30
0.0
 10
53.2961165607
 20
299.3595701359
 30
0.0
 10
53.4834634691
 20
298.056178336
 30
0.0
 10
53.3468621041
 20
296.7510416713
 30
0.0
 10
52.8912562005
 20
295.4655462147
 30
0.0
 10
52.1292363105
 20
294.2146967957
 30
0.0
 10
51.4612085171
 20
293.4493280472
 30
0.0
 10
51.0871422222
 20
293.0737720375
 30
0.0
  0
SPLINE
  5
3A8
100
AcDbEntity
  8
0
100
AcDbSpline
 62
7
  6
CONTINUOUS
 70
0
 71
3
 72
9
 73
5
 74
0
 42
0.0000001
 43
0.0000001
 44
0.0000000001
 40
0.0
 40
0.0
 40
0.0
 40
0.0
 40
0.4687598125
 40
1.0
 40
1.0
 40
1.0
 40
1.0
 10
50.5511415107
 20
292.5668565444
 30
0.0
 10
49.9296801856
 20
292.0117340795
 30
0.0
 10
48.4972647104
 20
290.9456556463
 30
0.0
 10
46.9415905723
 20
290.0774648812
 30
0.0
 10
46.0961901338
 20
289.656615631
 30
0.0
  0
SPLINE
  5
3A9
100
AcDbEntity
  8
0
100
AcDbSpline
 62
7
  6
CONTINUOUS
 70
0
 71
3
 72
15
 73
11
 74
0
 42
0.0000001
 43
0.0000001
 44
0.0000000001
 40
0.0
 40
0.0
 40
0.0
 40
0.0
 40
0.1133687398
 40
0.230501612
 40
0.3507209445
 40
0.4749487736
 40
0.6012320897
 40
0.66593824
 40
0.7312614194
 40
1.0
 40
1.0
 40
1.0
 40
1.0
 10
45.9676237478
 20
289.5928928665
 30
0.0
 10
45.7009598294
 20
289.4613352789
 30
0.0
 10
45.1548404011
 20
289.2016142119
 30
0.0
 10
44.3101932822
 20
288.8370923322
 30
0.0
 10
43.4339097071
 20
288.4738595556
 30
0.0
 10
42.519238253
 20
288.1435021092
 30
0.0
 10
41.7431242253
 20
287.8582577652
 30
0.0
 10
41.1037513492
 20
287.6503373976
 30
0.0
 10
40.1081322465
 20
287.329972486
 30
0.0
 10
39.2656554717
 20
287.0877371965
 30
0.0
 10
38.5848282185
 20
286.9052377185
 30
0.0
  0
SPLINE
  5
3AA
100
AcDbEntity
  8
0
100
AcDbSpline
 62
7
  6
CONTINUOUS
 70
0
 71
3
 72
9
 73
5
 74
0
 42
0.0000001
 43
0.0000001
 44
0.0000000001
 40
0.0
 40
0.0
 40
0.0
 40
0.0
 40
0.5231772991
 40
1.0
 40
1.0
 40
1.0
 40
1.0
 10
36.1966813353
 20
288.7855551811
 30
0.0
 10
37.2735046828
 20
289.0742035832
 30
0.0
 10
39.3133811602
 20
289.6981459042
 30
0.0
 10
41.2939650723
 20
290.4946014134
 30
0.0
 10
42.2142398583
 20
290.9252712914
 30
0.0
  0
SPLINE
  5
3AB
100
AcDbEntity
  8
0
100
AcDbSpline
 62
7
  6
CONTINUOUS
 70
0
 71
3
 72
11
 73
7
 74
0
 42
0.0000001
 43
0.0000001
 44
0.0000000001
 40
0.0
 40
0.0
 40
0.0
 40
0.0
 40
0.2920357099
 40
0.5555070604
 40
0.790776805
 40
1.0
 40
1.0
 40
1.0
 40
1.0
 10
42.2142398583
 20
290.9252712914
 30
0.0
 10
42.8819282666
 20
291.2377358831
 30
0.0
 10
44.1290635168
 20
291.8838138871
 30
0.0
 10
45.8018851187
 20
292.9809155537
 30
0.0
 10
47.1642368936
 20
294.1458300186
 30
0.0
 10
47.8937477497
 20
295.0082701851
 30
0.0
 10
48.1896278683
 20
295.4457500011
 30
0.0
  0
SPLINE
  5
3AC
100
AcDbEntity
  8
0
100
AcDbSpline
 62
7
  6
CONTINUOUS
 70
0
 71
3
 72
15
 73
11
 74
0
 42
0.0000001
 43
0.0000001
 44
0.0000000001
 40
0.0
 40
0.0
 40
0.0
 40
0.0
 40
0.1157017985
 40
0.2231212398
 40
0.3281143715
 40
0.4370370758
 40
0.5554568001
 40
0.6873631751
 40
0.8352030959
 40
1.0
 40
1.0
 40
1.0
 40
1.0
 10
48.2415578154
 20
295.5236106313
 30
0.0
 10
48.4928027751
 20
295.9056681492
 30
0.0
 10
48.9090274757
 20
296.6926598011
 30
0.0
 10
49.2221817775
 20
297.9659876026
 30
0.0
 10
49.1790624742
 20
299.2515469653
 30
0.0
 10
48.781745082
 20
300.5183448983
 30
0.0
 10
48.047564031
 20
301.745954102
 30
0.0
 10
46.994051577
 20
302.9248971887
 30
0.0
 10
45.6356989608
 20
304.047154082
 30
0.0
 10
44.5932622508
 20
304.7156288539
 30
0.0
 10
44.0292807718
 20
305.0413738947
 30
0.0
  0
SPLINE
  5
3AD
100
AcDbEntity
  8
0
100
AcDbSpline
 62
7
  6
CONTINUOUS
 70
0
 71
3
 72
9
 73
5
 74
0
 42
0.0000001
 43
0.0000001
 44
0.0000000001
 40
0.0
 40
0.0
 40
0.0
 40
0.0
 40
0.5398418603
 40
1.0
 40
1.0
 40
1.0
 40
1.0
 10
-17.3212011553
 20
297.679005629
 30
0.0
 10
-17.252584812
 20
298.0107091732
 30
0.0
 10
-17.0735727053
 20
298.6185072776
 30
0.0
 10
-16.7175500154
 20
299.1531643026
 30
0.0
 10
-16.5120061242
 20
299.3559344655
 30
0.0
  0
SPLINE
  5
3AE
100
AcDbEntity
  8
0
100
AcDbSpline
 62
7
  6
CONTINUOUS
 70
0
 71
3
 72
9
 73
5
 74
0
 42
0.0000001
 43
0.0000001
 44
0.0000000001
 40
0.0
 40
0.0
 40
0.0
 40
0.0
 40
0.5083491165
 40
1.0
 40
1.0
 40
1.0
 40
1.0
 10
-17.3232829254
 20
297.6687673294
 30
0.0
 10
-17.360537097
 20
297.6698915959
 30
0.0
 10
-17.4353247033
 20
297.6561932116
 30
0.0
 10
-17.4966150198
 20
297.6103503832
 30
0.0
 10
-17.5192193453
 20
297.5822715665
 30
0.0
  0
SPLINE
  5
3AF
100
AcDbEntity
  8
0
100
AcDbSpline
 62
7
  6
CONTINUOUS
 70
0
 71
3
 72
8
 73
4
 74
0
 42
0.0000001
 43
0.0000001
 44
0.0000000001
 40
0.0
 40
0.0
 40
0.0
 40
0.0
 40
1.0
 40
1.0
 40
1.0
 40
1.0
 10
-17.5331114567
 20
297.5629073842
 30
0.0
 10
-17.5477721631
 20
297.5398844444
 30
0.0
 10
-17.5582597901
 20
297.5135659761
 30
0.0
 10
-17.5630590062
 20
297.4866966702
 30
0.0
  0
SPLINE
  5
3B0
100
AcDbEntity
  8
0
100
AcDbSpline
 62
7
  6
CONTINUOUS
 70
0
 71
3
 72
9
 73
5
 74
0
 42
0.0000001
 43
0.0000001
 44
0.0000000001
 40
0.0
 40
0.0
 40
0.0
 40
0.0
 40
0.234151569
 40
1.0
 40
1.0
 40
1.0
 40
1.0
 10
-14.7699869266
 20
281.785469109
 30
0.0
 10
-14.4713978069
 20
281.9647604583
 30
0.0
 10
-13.1595118195
 20
282.6693865924
 30
0.0
 10
-11.7230381308
 20
283.126388101
 30
0.0
 10
-10.6090993687
 20
283.364681643
 30
0.0
  0
SPLINE
  5
3B1
100
AcDbEntity
  8
0
100
AcDbSpline
 62
7
  6
CONTINUOUS
 70
0
 71
3
 72
9
 73
5
 74
0
 42
0.0000001
 43
0.0000001
 44
0.0000000001
 40
0.0
 40
0.0
 40
0.0
 40
0.0
 40
0.2630344343
 40
1.0
 40
1.0
 40
1.0
 40
1.0
 10
-21.0160166451
 20
284.2370477796
 30
0.0
 10
-21.0144152001
 20
284.3286164588
 30
0.0
 10
-21.0023294791
 20
284.6765459005
 30
0.0
 10
-20.9645413486
 20
285.0240692507
 30
0.0
 10
-20.9168822761
 20
285.2761992439
 30
0.0
  0
SPLINE
  5
3B2
100
AcDbEntity
  8
0
100
AcDbSpline
 62
7
  6
CONTINUOUS
 70
0
 71
3
 72
15
 73
11
 74
0
 42
0.0000001
 43
0.0000001
 44
0.0000000001
 40
0.0
 40
0.0
 40
0.0
 40
0.0
 40
0.1074179766
 40
0.2058831682
 40
0.3022858638
 40
0.4050387765
 40
0.5216710649
 40
0.6577961244
 40
0.8167706856
 40
1.0
 40
1.0
 40
1.0
 40
1.0
 10
-20.9168822761
 20
285.2761992439
 30
0.0
 10
-20.8642561802
 20
285.5546061972
 30
0.0
 10
-20.7163266336
 20
286.0821360228
 30
0.0
 10
-20.3134467981
 20
286.7818766067
 30
0.0
 10
-19.7279476717
 20
287.3236038731
 30
0.0
 10
-18.9653156116
 20
287.6849302406
 30
0.0
 10
-18.0376699216
 20
287.8657153084
 30
0.0
 10
-16.9468473498
 20
287.8678181501
 30
0.0
 10
-15.6943418156
 20
287.6933078516
 30
0.0
 10
-14.8168073786
 20
287.4757883883
 30
0.0
 10
-14.3524670087
 20
287.341728796
 30
0.0
  0
SPLINE
  5
3B3
100
AcDbEntity
  8
0
100
AcDbSpline
 62
7
  6
CONTINUOUS
 70
0
 71
3
 72
18
 73
14
 74
0
 42
0.0000001
 43
0.0000001
 44
0.0000000001
 40
0.0
 40
0.0
 40
0.0
 40
0.0
 40
0.2302180887
 40
0.4318859055
 40
0.6033963572
 40
0.7439888345
 40
0.8538052539
 40
0.8972298616
 40
0.9330086799
 40
0.9611416874
 40
0.9816342504
 40
0.99451365
 40
1.0
 40
1.0
 40
1.0
 40
1.0
 10
-17.2003925656
 20
291.9314890688
 30
0.0
 10
-17.3496410113
 20
292.1133886015
 30
0.0
 10
-17.6302443978
 20
292.454126322
 30
0.0
 10
-18.0233118069
 20
292.9293174623
 30
0.0
 10
-18.3574002406
 20
293.334439089
 30
0.0
 10
-18.6309763788
 20
293.6677194961
 30
0.0
 10
-18.8223312096
 20
293.8992763794
 30
0.0
 10
-18.9473545322
 20
294.0464072253
 30
0.0
 10
-19.0193485122
 20
294.1295017558
 30
0.0
 10
-19.0769029123
 20
294.1929339555
 30
0.0
 10
-19.1201887648
 20
294.2404779045
 30
0.0
 10
-19.1484339542
 20
294.2647368335
 30
0.0
 10
-19.1636263186
 20
294.2804238592
 30
0.0
 10
-19.1692140493
 20
294.2799560678
 30
0.0
  0
SPLINE
  5
3B4
100
AcDbEntity
  8
0
100
AcDbSpline
 62
7
  6
CONTINUOUS
 70
0
 71
3
 72
17
 73
13
 74
0
 42
0.0000001
 43
0.0000001
 44
0.0000000001
 40
0.0
 40
0.0
 40
0.0
 40
0.0
 40
0.0160585708
 40
0.0294732505
 40
0.0454487521
 40
0.0675457067
 40
0.1351853773
 40
0.2370216826
 40
0.3740901689
 40
0.5468100911
 40
0.7554012378
 40
1.0
 40
1.0
 40
1.0
 40
1.0
 10
-19.6621888507
 20
293.7925729822
 30
0.0
 10
-19.6612150867
 20
293.7999136044
 30
0.0
 10
-19.6577676973
 20
293.8137974793
 30
0.0
 10
-19.6401861281
 20
293.8278436571
 30
0.0
 10
-19.6153736235
 20
293.8282100831
 30
0.0
 10
-19.5685917442
 20
293.8141462701
 30
0.0
 10
-19.492124866
 20
293.7679047
 30
0.0
 10
-19.3794514313
 20
293.6829879056
 30
0.0
 10
-19.2352047156
 20
293.559251354
 30
0.0
 10
-19.0594705012
 20
293.3972682206
 30
0.0
 10
-18.8520568341
 20
293.1965049751
 30
0.0
 10
-18.7043701629
 20
293.0486545316
 30
0.0
 10
-18.625119621
 20
292.9683999769
 30
0.0
  0
SPLINE
  5
3B5
100
AcDbEntity
  8
0
100
AcDbSpline
 62
7
  6
CONTINUOUS
 70
0
 71
3
 72
14
 73
10
 74
0
 42
0.0000001
 43
0.0000001
 44
0.0000000001
 40
0.0
 40
0.0
 40
0.0
 40
0.0
 40
0.114088324
 40
0.2315233684
 40
0.3529032548
 40
0.4781993011
 40
0.6068147942
 40
0.7377090688
 40
1.0
 40
1.0
 40
1.0
 40
1.0
 10
-39.8967892068
 20
288.6749808371
 30
0.0
 10
-40.2517423369
 20
288.5798337045
 30
0.0
 10
-40.9520134532
 20
288.3029411895
 30
0.0
 10
-41.901266239
 20
287.6634209723
 30
0.0
 10
-42.7280235909
 20
286.8208748037
 30
0.0
 10
-43.4013102603
 20
285.8089315623
 30
0.0
 10
-43.8969091447
 20
284.6655259474
 30
0.0
 10
-44.2970241822
 20
283.027626186
 30
0.0
 10
-44.2862499241
 20
281.7303440643
 30
0.0
 10
-44.1378113145
 20
280.8986340304
 30
0.0
  0
SPLINE
  5
3B6
100
AcDbEntity
  8
0
100
AcDbSpline
 62
7
  6
CONTINUOUS
 70
0
 71
3
 72
13
 73
9
 74
0
 42
0.0000001
 43
0.0000001
 44
0.0000000001
 40
0.0
 40
0.0
 40
0.0
 40
0.0
 40
0.267702785
 40
0.523095256
 40
0.64603859
 40
0.7659487402
 40
0.8835892837
 40
1.0
 40
1.0
 40
1.0
 40
1.0
 10
-31.6111526904
 20
210.7110480679
 30
0.0
 10
-31.4903378763
 20
210.0341157426
 30
0.0
 10
-31.0699946648
 20
208.7356197359
 30
0.0
 10
-30.0950863082
 20
207.3555493956
 30
0.0
 10
-29.1124544943
 20
206.5265098751
 30
0.0
 10
-28.3056940301
 20
206.0612898503
 30
0.0
 10
-27.4426330615
 20
205.7592668825
 30
0.0
 10
-26.8432803306
 20
205.6722474995
 30
0.0
 10
-26.5445950207
 20
205.6581913898
 30
0.0
  0
SPLINE
  5
3B7
100
AcDbEntity
  8
0
100
AcDbSpline
 62
7
  6
CONTINUOUS
 70
0
 71
3
 72
11
 73
7
 74
0
 42
0.0000001
 43
0.0000001
 44
0.0000000001
 40
0.0
 40
0.0
 40
0.0
 40
0.0
 40
0.232759566
 40
0.4751878847
 40
0.7305810034
 40
1.0
 40
1.0
 40
1.0
 40
1.0
 10
22.2333754764
 20
266.823538932
 30
0.0
 10
23.291746631
 20
265.9210392151
 30
0.0
 10
25.2205294648
 20
263.7900512404
 30
0.0
 10
27.3130570614
 20
259.9171563728
 30
0.0
 10
28.5849973767
 20
255.4795040502
 30
0.0
 10
28.8533745608
 20
252.334188516
 30
0.0
 10
28.8533745608
 20
250.7242011515
 30
0.0
  0
SPLINE
  5
3B8
100
AcDbEntity
  8
0
100
AcDbSpline
 62
7
  6
CONTINUOUS
 70
0
 71
3
 72
14
 73
10
 74
0
 42
0.0000001
 43
0.0000001
 44
0.0000000001
 40
0.0
 40
0.0
 40
0.0
 40
0.0
 40
0.1154325239
 40
0.2365940183
 40
0.362480966
 40
0.4915376169
 40
0.6218657907
 40
0.7514371419
 40
1.0
 40
1.0
 40
1.0
 40
1.0
 10
5.4420332455
 20
267.7441604994
 30
0.0
 10
4.062544149
 20
267.3302650985
 30
0.0
 10
1.3156068017
 20
266.1944937765
 30
0.0
 10
-2.5114769409
 20
263.7472724068
 30
0.0
 10
-6.0216298406
 20
260.6034340155
 30
0.0
 10
-9.0879106669
 20
256.8792484564
 30
0.0
 10
-11.6022171914
 20
252.7057340157
 30
0.0
 10
-14.0591642169
 20
246.8438047348
 30
0.0
 10
-14.9069575234
 20
242.0953042275
 30
0.0
 10
-14.9069575234
 20
238.9940042125
 30
0.0
  0
SPLINE
  5
3B9
100
AcDbEntity
  8
0
100
AcDbSpline
 62
7
  6
CONTINUOUS
 70
0
 71
3
 72
14
 73
10
 74
0
 42
0.0000001
 43
0.0000001
 44
0.0000000001
 40
0.0
 40
0.0
 40
0.0
 40
0.0
 40
0.2622909583
 40
0.393185238
 40
0.5218007329
 40
0.6470967759
 40
0.7684766562
 40
0.8859116878
 40
1.0
 40
1.0
 40
1.0
 40
1.0
 10
24.0890579333
 20
225.0175517024
 30
0.0
 10
24.2374965582
 20
224.1858415826
 30
0.0
 10
24.2482707974
 20
222.8885593473
 30
0.0
 10
23.8481556625
 20
221.2506594965
 30
0.0
 10
23.3525567274
 20
220.1072538915
 30
0.0
 10
22.6792700291
 20
219.0953106974
 30
0.0
 10
21.8525126827
 20
218.2527646263
 30
0.0
 10
20.9032599672
 20
217.6132444851
 30
0.0
 10
20.202988919
 20
217.3363520184
 30
0.0
 10
19.8480358255
 20
217.2412048956
 30
0.0
  0
SPLINE
  5
3BA
100
AcDbEntity
  8
0
100
AcDbSpline
 62
7
  6
CONTINUOUS
 70
0
 71
3
 72
9
 73
5
 74
0
 42
0.0000001
 43
0.0000001
 44
0.0000000001
 40
0.0
 40
0.0
 40
0.0
 40
0.0
 40
0.2561254921
 40
1.0
 40
1.0
 40
1.0
 40
1.0
 10
-41.0844260113
 20
263.5984929542
 30
0.0
 10
-41.2743002227
 20
262.9602527459
 30
0.0
 10
-41.9310963276
 20
260.4444934924
 30
0.0
 10
-42.2421343851
 20
257.8344460279
 30
0.0
 10
-42.2421343851
 20
255.9004923135
 30
0.0
  0
SPLINE
  5
3BB
100
AcDbEntity
  8
0
100
AcDbSpline
 62
7
  6
CONTINUOUS
 70
0
 71
3
 72
9
 73
5
 74
0
 42
0.0000001
 43
0.0000001
 44
0.0000000001
 40
0.0
 40
0.0
 40
0.0
 40
0.0
 40
0.251640531
 40
1.0
 40
1.0
 40
1.0
 40
1.0
 10
-23.1271722645
 20
205.7214647478
 30
0.0
 10
-23.2444846846
 20
205.6900185104
 30
0.0
 10
-23.7152183257
 20
205.582708902
 30
0.0
 10
-24.2025990589
 20
205.5480408296
 30
0.0
 10
-24.5633945097
 20
205.5650198399
 30
0.0
  0
SPLINE
  5
3BC
100
AcDbEntity
  8
0
100
AcDbSpline
 62
7
  6
CONTINUOUS
 70
0
 71
3
 72
9
 73
5
 74
0
 42
0.0000001
 43
0.0000001
 44
0.0000000001
 40
0.0
 40
0.0
 40
0.0
 40
0.0
 40
0.2530700892
 40
1.0
 40
1.0
 40
1.0
 40
1.0
 10
-39.6174208165
 20
255.5055015785
 30
0.0
 10
-39.6559909807
 20
255.1969690162
 30
0.0
 10
-39.7900413181
 20
253.9756081199
 30
0.0
 10
-39.8500988361
 20
252.7459480047
 30
0.0
 10
-39.8500988361
 20
251.8282340135
 30
0.0
  0
SPLINE
  5
3BD
100
AcDbEntity
  8
0
100
AcDbSpline
 62
7
  6
CONTINUOUS
 70
0
 71
3
 72
10
 73
6
 74
0
 42
0.0000001
 43
0.0000001
 44
0.0000000001
 40
0.0
 40
0.0
 40
0.0
 40
0.0
 40
0.5169864512
 40
0.7626600685
 40
1.0
 40
1.0
 40
1.0
 40
1.0
 10
-39.8500988361
 20
251.8282340135
 30
0.0
 10
-39.8500988361
 20
249.7358633115
 30
0.0
 10
-39.5043860614
 20
246.6261375193
 30
0.0
 10
-38.2622747978
 20
242.7644970863
 30
0.0
 10
-37.403532654
 20
240.998619836
 30
0.0
 10
-36.9183204863
 20
240.1696028024
 30
0.0
  0
SPLINE
  5
3BE
100
AcDbEntity
  8
0
100
AcDbSpline
 62
7
  6
CONTINUOUS
 70
0
 71
3
 72
11
 73
7
 74
0
 42
0.0000001
 43
0.0000001
 44
0.0000000001
 40
0.0
 40
0.0
 40
0.0
 40
0.0
 40
0.2654371783
 40
0.5203159609
 40
0.7647753693
 40
1.0
 40
1.0
 40
1.0
 40
1.0
 10
-42.2421343851
 20
255.9004923135
 30
0.0
 10
-42.2421343851
 20
254.8238215328
 30
0.0
 10
-42.1017596333
 20
252.7098615692
 30
0.0
 10
-41.4447105604
 20
249.6660963802
 30
0.0
 10
-40.3581153984
 20
246.8777784261
 30
0.0
 10
-39.3432382775
 20
245.2031524572
 30
0.0
 10
-38.7741249631
 20
244.4373462935
 30
0.0
  0
SPLINE
  5
3BF
100
AcDbEntity
  8
0
100
AcDbSpline
 62
7
  6
CONTINUOUS
 70
0
 71
3
 72
11
 73
7
 74
0
 42
0.0000001
 43
0.0000001
 44
0.0000000001
 40
0.0
 40
0.0
 40
0.0
 40
0.0
 40
0.2574480825
 40
0.5087305987
 40
0.755511071
 40
1.0
 40
1.0
 40
1.0
 40
1.0
 10
1.7064636948
 20
218.5365607632
 30
0.0
 10
0.8630182273
 20
218.4921796585
 30
0.0
 10
-0.8118461552
 20
218.5131788764
 30
0.0
 10
-3.2699812229
 20
218.8898796489
 30
0.0
 10
-5.6069594768
 20
219.6075271654
 30
0.0
 10
-7.0661072087
 20
220.3088221359
 30
0.0
 10
-7.7606795644
 20
220.7099816789
 30
0.0
  0
SPLINE
  5
3C0
100
AcDbEntity
  8
0
100
AcDbSpline
 62
7
  6
CONTINUOUS
 70
0
 71
3
 72
13
 73
9
 74
0
 42
0.0000001
 43
0.0000001
 44
0.0000000001
 40
0.0
 40
0.0
 40
0.0
 40
0.0
 40
0.245661
 40
0.3735600528
 40
0.5026925708
 40
0.6314522685
 40
0.7582632519
 40
1.0
 40
1.0
 40
1.0
 40
1.0
 10
28.8533745608
 20
250.7242011515
 30
0.0
 10
28.8533745608
 20
247.711333652
 30
0.0
 10
28.1188517504
 20
243.1048524564
 30
0.0
 10
25.9571920776
 20
237.3206378129
 30
0.0
 10
23.7297131421
 20
233.1296408582
 30
0.0
 10
20.9824331975
 20
229.275422349
 30
0.0
 10
16.811380296
 20
224.812490149
 30
0.0
 10
13.0495828571
 20
222.1521753059
 30
0.0
 10
10.3804491463
 20
220.8616701202
 30
0.0
  0
SPLINE
  5
3C1
100
AcDbEntity
  8
0
100
AcDbSpline
 62
7
  6
CONTINUOUS
 70
0
 71
3
 72
13
 73
9
 74
0
 42
0.0000001
 43
0.0000001
 44
0.0000000001
 40
0.0
 40
0.0
 40
0.0
 40
0.0
 40
0.274692903
 40
0.542207907
 40
0.6670905742
 40
0.784068139
 40
0.8940924654
 40
1.0
 40
1.0
 40
1.0
 40
1.0
 10
10.3804491463
 20
220.8616701202
 30
0.0
 10
10.1602638573
 20
220.0219985185
 30
0.0
 10
9.4043260089
 20
218.4372905148
 30
0.0
 10
7.8522792634
 20
216.9303590862
 30
0.0
 10
6.3952876116
 20
216.2173317387
 30
0.0
 10
5.2972000537
 20
215.9754984441
 30
0.0
 10
4.2326749636
 20
216.0353537568
 30
0.0
 10
3.5824482839
 20
216.2827672545
 30
0.0
 10
3.2926585084
 20
216.4501964864
 30
0.0
  0
SPLINE
  5
3C2
100
AcDbEntity
  8
0
100
AcDbSpline
 62
7
  6
CONTINUOUS
 70
0
 71
3
 72
11
 73
7
 74
0
 42
0.0000001
 43
0.0000001
 44
0.0000000001
 40
0.0
 40
0.0
 40
0.0
 40
0.0
 40
0.2717439845
 40
0.52688753
 40
0.7676297984
 40
1.0
 40
1.0
 40
1.0
 40
1.0
 10
3.1508943376
 20
220.4374444974
 30
0.0
 10
3.1508943376
 20
220.1981973888
 30
0.0
 10
3.1974621122
 20
219.732355945
 30
0.0
 10
3.4201779766
 20
219.0870346351
 30
0.0
 10
3.7853985553
 20
218.5501646765
 30
0.0
 10
4.1158056027
 20
218.2843994173
 30
0.0
 10
4.2929522579
 20
218.1820626513
 30
0.0
  0
SPLINE
  5
3C3
100
AcDbEntity
  8
0
100
AcDbSpline
 62
7
  6
CONTINUOUS
 70
0
 71
3
 72
13
 73
9
 74
0
 42
0.0000001
 43
0.0000001
 44
0.0000000001
 40
0.0
 40
0.0
 40
0.0
 40
0.0
 40
0.2714319311
 40
0.526217362
 40
0.648228798
 40
0.7672664471
 40
0.8841851166
 40
1.0
 40
1.0
 40
1.0
 40
1.0
 10
-14.9069575234
 20
238.9940042125
 30
0.0
 10
-14.9069575234
 20
237.2609956601
 30
0.0
 10
-14.5707136269
 20
233.8880661493
 30
0.0
 10
-13.2036446748
 20
229.9324954872
 30
0.0
 10
-11.5876038218
 20
227.1998653863
 30
0.0
 10
-10.1561534531
 20
225.4077823614
 30
0.0
 10
-8.5077681395
 20
223.8707530163
 30
0.0
 10
-7.2756467465
 20
223.0281871665
 30
0.0
 10
-6.6353322878
 20
222.658360263
 30
0.0
  0
SPLINE
  5
3C4
100
AcDbEntity
  8
0
100
AcDbSpline
 62
7
  6
CONTINUOUS
 70
0
 71
3
 72
9
 73
5
 74
0
 42
0.0000001
 43
0.0000001
 44
0.0000000001
 40
0.0
 40
0.0
 40
0.0
 40
0.0
 40
0.748453333
 40
1.0
 40
1.0
 40
1.0
 40
1.0
 10
-24.1032323424
 20
222.8559682339
 30
0.0
 10
-24.3808018265
 20
222.869023932
 30
0.0
 10
-24.7557028956
 20
222.8423109707
 30
0.0
 10
-25.1178124931
 20
222.7598010849
 30
0.0
 10
-25.20801896
 20
222.7356207469
 30
0.0
  0
SPLINE
  5
3C5
100
AcDbEntity
  8
0
100
AcDbSpline
 62
7
  6
CONTINUOUS
 70
0
 71
3
 72
10
 73
6
 74
0
 42
0.0000001
 43
0.0000001
 44
0.0000000001
 40
0.0
 40
0.0
 40
0.0
 40
0.0
 40
0.2370376246
 40
0.4825695337
 40
1.0
 40
1.0
 40
1.0
 40
1.0
 10
29.019314147
 20
267.3377851051
 30
0.0
 10
29.6460192787
 20
266.3090292857
 30
0.0
 10
30.7562635561
 20
264.1091601377
 30
0.0
 10
32.3633527585
 20
259.274856899
 30
0.0
 10
32.8099882849
 20
255.3665664493
 30
0.0
 10
32.8099882849
 20
252.7370065963
 30
0.0
  0
SPLINE
  5
3C6
100
AcDbEntity
  8
0
100
AcDbSpline
 62
7
  6
CONTINUOUS
 70
0
 71
3
 72
15
 73
11
 74
0
 42
0.0000001
 43
0.0000001
 44
0.0000000001
 40
0.0
 40
0.0
 40
0.0
 40
0.0
 40
0.1226793102
 40
0.2497804871
 40
0.3795759387
 40
0.5100271139
 40
0.6390304753
 40
0.7646372387
 40
0.8852762652
 40
1.0
 40
1.0
 40
1.0
 40
1.0
 10
32.8099882849
 20
252.7370065963
 30
0.0
 10
32.8099882849
 20
250.6636219418
 30
0.0
 10
32.4295847688
 20
246.4352982646
 30
0.0
 10
30.829023988
 20
240.1977284454
 30
0.0
 10
28.2494413739
 20
234.1537187306
 30
0.0
 10
24.7878100582
 20
228.5311289895
 30
0.0
 10
20.573695257
 20
223.5393284977
 30
0.0
 10
15.7618008159
 20
219.3658201799
 30
0.0
 10
10.5320320681
 20
216.1693264372
 30
0.0
 10
6.7902368417
 20
214.7347263607
 30
0.0
 10
4.9174253417
 20
214.2327089701
 30
0.0
  0
SPLINE
  5
3C7
100
AcDbEntity
  8
0
100
AcDbSpline
 62
7
  6
CONTINUOUS
 70
0
 71
3
 72
9
 73
5
 74
0
 42
0.0000001
 43
0.0000001
 44
0.0000000001
 40
0.0
 40
0.0
 40
0.0
 40
0.0
 40
0.2469505914
 40
1.0
 40
1.0
 40
1.0
 40
1.0
 10
-5.4613168028
 20
270.1641366838
 30
0.0
 10
-5.5224790545
 20
269.647835473
 30
0.0
 10
-5.8132414517
 20
267.5623980475
 30
0.0
 10
-6.2736001675
 20
265.5011033654
 30
0.0
 10
-6.7066907722
 20
263.9759903424
 30
0.0
  0
SPLINE
  5
3C8
100
AcDbEntity
  8
0
100
AcDbSpline
 62
7
  6
CONTINUOUS
 70
0
 71
3
 72
11
 73
7
 74
0
 42
0.0000001
 43
0.0000001
 44
0.0000000001
 40
0.0
 40
0.0
 40
0.0
 40
0.0
 40
0.265044169
 40
0.5198521222
 40
0.7644636931
 40
1.0
 40
1.0
 40
1.0
 40
1.0
 10
-24.6637529351
 20
238.7515022317
 30
0.0
 10
-24.6252278805
 20
237.115746702
 30
0.0
 10
-24.326066855
 20
233.906978239
 30
0.0
 10
-23.1739049063
 20
229.3104462435
 30
0.0
 10
-21.353016948
 20
225.1313807719
 30
0.0
 10
-19.6903248949
 20
222.6528322098
 30
0.0
 10
-18.7661088918
 20
221.5303005983
 30
0.0
  0
SPLINE
  5
3C9
100
AcDbEntity
  8
0
100
AcDbSpline
 62
7
  6
CONTINUOUS
 70
0
 71
3
 72
10
 73
6
 74
0
 42
0.0000001
 43
0.0000001
 44
0.0000000001
 40
0.0
 40
0.0
 40
0.0
 40
0.0
 40
0.5128582812
 40
0.7581768243
 40
1.0
 40
1.0
 40
1.0
 40
1.0
 10
-28.0844657631
 20
287.3741118421
 30
0.0
 10
-27.422665009
 20
288.0418920455
 30
0.0
 10
-26.3253832749
 20
288.9265932009
 30
0.0
 10
-24.6897831026
 20
289.7641172939
 30
0.0
 10
-23.8423708198
 20
290.0573778746
 30
0.0
 10
-23.4141780947
 20
290.1721481329
 30
0.0
  0
SPLINE
  5
3CA
100
AcDbEntity
  8
0
100
AcDbSpline
 62
7
  6
CONTINUOUS
 70
0
 71
3
 72
11
 73
7
 74
0
 42
0.0000001
 43
0.0000001
 44
0.0000000001
 40
0.0
 40
0.0
 40
0.0
 40
0.0
 40
0.2480272321
 40
0.5025772822
 40
0.7557644747
 40
1.0
 40
1.0
 40
1.0
 40
1.0
 10
-9.3254380056
 20
271.5044597775
 30
0.0
 10
-11.7227528471
 20
269.5632477679
 30
0.0
 10
-16.1080342633
 20
265.0170125262
 30
0.0
 10
-21.0261460953
 20
256.9241118312
 30
0.0
 10
-24.0843949119
 20
248.0102090776
 30
0.0
 10
-24.7352730091
 20
241.7882106304
 30
0.0
 10
-24.6637529351
 20
238.7515022317
 30
0.0
  0
SPLINE
  5
3CB
100
AcDbEntity
  8
0
100
AcDbSpline
 62
7
  6
CONTINUOUS
 70
0
 71
3
 72
13
 73
9
 74
0
 42
0.0000001
 43
0.0000001
 44
0.0000000001
 40
0.0
 40
0.0
 40
0.0
 40
0.0
 40
0.1158157883
 40
0.2327342893
 40
0.3517715333
 40
0.4737832966
 40
0.7285664037
 40
1.0
 40
1.0
 40
1.0
 40
1.0
 10
-7.7606795644
 20
220.7099816789
 30
0.0
 10
-8.457834192
 20
221.1126326475
 30
0.0
 10
-9.7993141218
 20
222.0299986283
 30
0.0
 10
-11.5939585889
 20
223.7035006745
 30
0.0
 10
-13.1524818504
 20
225.6546199859
 30
0.0
 10
-14.9119848848
 20
228.6297586848
 30
0.0
 10
-16.4003626551
 20
232.9364237366
 30
0.0
 10
-16.7664617196
 20
236.6087168806
 30
0.0
 10
-16.7664617196
 20
238.4955539176
 30
0.0
  0
SPLINE
  5
3CC
100
AcDbEntity
  8
0
100
AcDbSpline
 62
7
  6
CONTINUOUS
 70
0
 71
3
 72
9
 73
5
 74
0
 42
0.0000001
 43
0.0000001
 44
0.0000000001
 40
0.0
 40
0.0
 40
0.0
 40
0.0
 40
0.4896202503
 40
1.0
 40
1.0
 40
1.0
 40
1.0
 10
-23.6830574399
 20
231.3392853832
 30
0.0
 10
-25.5351628816
 20
233.4171339791
 30
0.0
 10
-28.6538167128
 20
238.2801147195
 30
0.0
 10
-30.3493695926
 20
243.7787758641
 30
0.0
 10
-30.859155515
 20
246.6351358272
 30
0.0
  0
SPLINE
  5
3CD
100
AcDbEntity
  8
0
100
AcDbSpline
 62
7
  6
CONTINUOUS
 70
0
 71
3
 72
14
 73
10
 74
0
 42
0.0000001
 43
0.0000001
 44
0.0000000001
 40
0.0
 40
0.0
 40
0.0
 40
0.0
 40
0.2622909583
 40
0.393185238
 40
0.5218007329
 40
0.6470967759
 40
0.7684766562
 40
0.8859116878
 40
1.0
 40
1.0
 40
1.0
 40
1.0
 10
-42.1566108036
 20
280.8054624801
 30
0.0
 10
-42.3050494285
 20
281.6371725999
 30
0.0
 10
-42.3158236678
 20
282.9344548352
 30
0.0
 10
-41.9157085328
 20
284.572354686
 30
0.0
 10
-41.4201095977
 20
285.715760291
 30
0.0
 10
-40.7468228994
 20
286.7277034851
 30
0.0
 10
-39.920065553
 20
287.5702495562
 30
0.0
 10
-38.9708128376
 20
288.2097696974
 30
0.0
 10
-38.2705417894
 20
288.4866621641
 30
0.0
 10
-37.9155886958
 20
288.5818092869
 30
0.0
  0
SPLINE
  5
3CE
100
AcDbEntity
  8
0
100
AcDbSpline
 62
7
  6
CONTINUOUS
 70
0
 71
3
 72
13
 73
9
 74
0
 42
0.0000001
 43
0.0000001
 44
0.0000000001
 40
0.0
 40
0.0
 40
0.0
 40
0.0
 40
0.1164107274
 40
0.234051279
 40
0.3539614352
 40
0.4769047712
 40
0.7322972383
 40
1.0
 40
1.0
 40
1.0
 40
1.0
 10
-24.5633945097
 20
205.5650198399
 30
0.0
 10
-24.8620798481
 20
205.5790759524
 30
0.0
 10
-25.4614326292
 20
205.6660953415
 30
0.0
 10
-26.3244936493
 20
205.9681183629
 30
0.0
 10
-27.1312541329
 20
206.4333384366
 30
0.0
 10
-28.113885928
 20
207.2623779958
 30
0.0
 10
-29.088794209
 20
208.6424483089
 30
0.0
 10
-29.5091373759
 20
209.9409442512
 30
0.0
 10
-29.6299521795
 20
210.6178765176
 30
0.0
  0
SPLINE
  5
3CF
100
AcDbEntity
  8
0
100
AcDbSpline
 62
7
  6
CONTINUOUS
 70
0
 71
3
 72
12
 73
8
 74
0
 42
0.0000001
 43
0.0000001
 44
0.0000000001
 40
0.0
 40
0.0
 40
0.0
 40
0.0
 40
0.2628401161
 40
0.5219246848
 40
0.7679923073
 40
0.8856858454
 40
1.0
 40
1.0
 40
1.0
 40
1.0
 10
-31.6085900265
 20
277.5041318236
 30
0.0
 10
-31.4944024638
 20
276.8643323674
 30
0.0
 10
-31.4832022322
 20
275.5458406539
 30
0.0
 10
-32.0883172041
 20
273.7109601751
 30
0.0
 10
-33.072300726
 20
272.4728203912
 30
0.0
 10
-34.0591739669
 20
271.8086864364
 30
0.0
 10
-34.597895412
 20
271.5955109113
 30
0.0
 10
-34.8709147248
 20
271.5223265876
 30
0.0
  0
SPLINE
  5
3D0
100
AcDbEntity
  8
0
100
AcDbSpline
 62
7
  6
CONTINUOUS
 70
0
 71
3
 72
13
 73
9
 74
0
 42
0.0000001
 43
0.0000001
 44
0.0000000001
 40
0.0
 40
0.0
 40
0.0
 40
0.0
 40
0.2455300396
 40
0.3733506162
 40
0.5024233939
 40
0.6311620099
 40
0.758003055
 40
1.0
 40
1.0
 40
1.0
 40
1.0
 10
-16.7664617196
 20
238.4955539176
 30
0.0
 10
-16.7664617196
 20
241.4913913484
 30
0.0
 10
-16.0402416882
 20
246.0714983992
 30
0.0
 10
-13.9014969704
 20
251.8268903104
 30
0.0
 10
-11.6969362503
 20
256.0001407595
 30
0.0
 10
-8.9766879966
 20
259.8428290932
 30
0.0
 10
-4.8429863756
 20
264.3021683836
 30
0.0
 10
-1.1133113475
 20
266.9706972926
 30
0.0
 10
1.535823295
 20
268.2748024618
 30
0.0
  0
SPLINE
  5
3D1
100
AcDbEntity
  8
0
100
AcDbSpline
 62
7
  6
CONTINUOUS
 70
0
 71
3
 72
11
 73
7
 74
0
 42
0.0000001
 43
0.0000001
 44
0.0000000001
 40
0.0
 40
0.0
 40
0.0
 40
0.0
 40
0.2432668573
 40
0.4893806767
 40
0.7409469418
 40
1.0
 40
1.0
 40
1.0
 40
1.0
 10
-6.6353322878
 20
222.658360263
 30
0.0
 10
-5.9229342021
 20
222.2468999649
 30
0.0
 10
-4.4166126992
 20
221.5393060425
 30
0.0
 10
-1.9923061562
 20
220.8637987781
 30
0.0
 10
0.5615331843
 20
220.5809010656
 30
0.0
 10
2.2941536923
 20
220.6551274819
 30
0.0
 10
3.1646129206
 20
220.7541290853
 30
0.0
  0
SPLINE
  5
3D2
100
AcDbEntity
  8
0
100
AcDbSpline
 62
7
  6
CONTINUOUS
 70
0
 71
3
 72
13
 73
9
 74
0
 42
0.0000001
 43
0.0000001
 44
0.0000000001
 40
0.0
 40
0.0
 40
0.0
 40
0.0
 40
0.2398731579
 40
0.3664484843
 40
0.4953570736
 40
0.6249142241
 40
0.753377947
 40
1.0
 40
1.0
 40
1.0
 40
1.0
 10
8.9222999206
 20
222.2975086533
 30
0.0
 10
11.5000401027
 20
223.3862843786
 30
0.0
 10
15.1616555836
 20
225.7674308945
 30
0.0
 10
19.2336707566
 20
229.8808847346
 30
0.0
 10
21.9331625195
 20
233.490418425
 30
0.0
 10
24.1288416475
 20
237.4513603893
 30
0.0
 10
26.2645404039
 20
242.947885982
 30
0.0
 10
26.9938703646
 20
247.3487761313
 30
0.0
 10
26.9938703646
 20
250.2257508566
 30
0.0
  0
SPLINE
  5
3D3
100
AcDbEntity
  8
0
100
AcDbSpline
 62
7
  6
CONTINUOUS
 70
0
 71
3
 72
13
 73
9
 74
0
 42
0.0000001
 43
0.0000001
 44
0.0000000001
 40
0.0
 40
0.0
 40
0.0
 40
0.0
 40
0.2714323902
 40
0.526214124
 40
0.6482246317
 40
0.7672619907
 40
0.8841830741
 40
1.0
 40
1.0
 40
1.0
 40
1.0
 10
26.9938703646
 20
250.2257508566
 30
0.0
 10
26.9938703646
 20
251.9587622825
 30
0.0
 10
26.6576253323
 20
255.3316687208
 30
0.0
 10
25.2905939173
 20
259.2872242612
 30
0.0
 10
23.6745460266
 20
262.0198183206
 30
0.0
 10
22.2430749055
 20
263.8118850767
 30
0.0
 10
20.5947479914
 20
265.3490244781
 30
0.0
 10
19.3625589643
 20
266.1915408899
 30
0.0
 10
18.7222495552
 20
266.5614025598
 30
0.0
  0
SPLINE
  5
3D4
100
AcDbEntity
  8
0
100
AcDbSpline
 62
7
  6
CONTINUOUS
 70
0
 71
3
 72
12
 73
8
 74
0
 42
0.0000001
 43
0.0000001
 44
0.0000000001
 40
0.0
 40
0.0
 40
0.0
 40
0.0
 40
0.2679717915
 40
0.5235996096
 40
0.7657264731
 40
0.8834729015
 40
1.0
 40
1.0
 40
1.0
 40
1.0
 10
-20.2058805641
 20
218.9691501547
 30
0.0
 10
-20.2988191711
 20
219.4898904944
 30
0.0
 10
-20.6230848517
 20
220.4891507519
 30
0.0
 10
-21.507213655
 20
221.7444416072
 30
0.0
 10
-22.5200951595
 20
222.4662927398
 30
0.0
 10
-23.4123605861
 20
222.7781342654
 30
0.0
 10
-23.8734651035
 20
222.8451609518
 30
0.0
 10
-24.1032323424
 20
222.8559682339
 30
0.0
  0
SPLINE
  5
3D5
100
AcDbEntity
  8
0
100
AcDbSpline
 62
7
  6
CONTINUOUS
 70
0
 71
3
 72
9
 73
5
 74
0
 42
0.0000001
 43
0.0000001
 44
0.0000000001
 40
0.0
 40
0.0
 40
0.0
 40
0.0
 40
0.5010393343
 40
1.0
 40
1.0
 40
1.0
 40
1.0
 10
-30.859155515
 20
246.6351358272
 30
0.0
 10
-31.4015126206
 20
249.6739940106
 30
0.0
 10
-31.6889439398
 20
255.90484934
 30
0.0
 10
-30.3684295123
 20
262.0087490368
 30
0.0
 10
-29.3041056735
 20
264.8926915563
 30
0.0
  0
SPLINE
  5
3D6
100
AcDbEntity
  8
0
100
AcDbSpline
 62
7
  6
CONTINUOUS
 70
0
 71
3
 72
11
 73
7
 74
0
 42
0.0000001
 43
0.0000001
 44
0.0000000001
 40
0.0
 40
0.0
 40
0.0
 40
0.0
 40
0.234528167
 40
0.4789299116
 40
0.7346579947
 40
1.0
 40
1.0
 40
1.0
 40
1.0
 10
-24.1551876656
 20
222.7384241439
 30
0.0
 10
-23.7824440503
 20
222.6209295331
 30
0.0
 10
-23.0560274316
 20
222.2555741975
 30
0.0
 10
-22.1607014121
 20
221.3977587116
 30
0.0
 10
-21.4995405017
 20
220.290838307
 30
0.0
 10
-21.247396455
 20
219.449770617
 30
0.0
 10
-21.1697078397
 20
219.0144768548
 30
0.0
  0
SPLINE
  5
3D7
100
AcDbEntity
  8
0
100
AcDbSpline
 62
7
  6
CONTINUOUS
 70
0
 71
3
 72
9
 73
5
 74
0
 42
0.0000001
 43
0.0000001
 44
0.0000000001
 40
0.0
 40
0.0
 40
0.0
 40
0.0
 40
0.4942518197
 40
1.0
 40
1.0
 40
1.0
 40
1.0
 10
-23.4141780947
 20
290.1721481329
 30
0.0
 10
-22.8680314674
 20
290.3185340612
 30
0.0
 10
-21.733766564
 20
290.5143795975
 30
0.0
 10
-20.5835132817
 20
290.5061706621
 30
0.0
 10
-20.0071858345
 20
290.455206159
 30
0.0
  0
SPLINE
  5
3D8
100
AcDbEntity
  8
0
100
AcDbSpline
 62
7
  6
CONTINUOUS
 70
0
 71
3
 72
12
 73
8
 74
0
 42
0.0000001
 43
0.0000001
 44
0.0000000001
 40
0.0
 40
0.0
 40
0.0
 40
0.0
 40
0.269890588
 40
0.5251560457
 40
0.7670813045
 40
0.8844031737
 40
1.0
 40
1.0
 40
1.0
 40
1.0
 10
-17.8924927984
 20
239.1459285564
 30
0.0
 10
-17.8924927984
 20
237.4722376707
 30
0.0
 10
-17.602309716
 20
234.2048097099
 30
0.0
 10
-16.2279155407
 20
229.6152205848
 30
0.0
 10
-14.3175557315
 20
226.2704120599
 30
0.0
 10
-12.3948564715
 20
224.0312480498
 30
0.0
 10
-11.3161667433
 20
223.0630164819
 30
0.0
 10
-10.7518787578
 20
222.6209020864
 30
0.0
  0
SPLINE
  5
3D9
100
AcDbEntity
  8
0
100
AcDbSpline
 62
7
  6
CONTINUOUS
 70
0
 71
3
 72
12
 73
8
 74
0
 42
0.0000001
 43
0.0000001
 44
0.0000000001
 40
0.0
 40
0.0
 40
0.0
 40
0.0
 40
0.1143141546
 40
0.2320076927
 40
0.4780753152
 40
0.7371598839
 40
1.0
 40
1.0
 40
1.0
 40
1.0
 10
-33.9070874491
 20
271.4769998875
 30
0.0
 10
-33.6340681364
 20
271.5501842112
 30
0.0
 10
-33.0953466913
 20
271.7633597363
 30
0.0
 10
-32.1084734504
 20
272.4274936911
 30
0.0
 10
-31.1244899285
 20
273.665633475
 30
0.0
 10
-30.5193749566
 20
275.5005139538
 30
0.0
 10
-30.5305751882
 20
276.8190056673
 30
0.0
 10
-30.6447627509
 20
277.4588051234
 30
0.0
  0
SPLINE
  5
3DA
100
AcDbEntity
  8
0
100
AcDbSpline
 62
7
  6
CONTINUOUS
 70
0
 71
3
 72
11
 73
7
 74
0
 42
0.0000001
 43
0.0000001
 44
0.0000000001
 40
0.0
 40
0.0
 40
0.0
 40
0.0
 40
0.2517146425
 40
0.5069205347
 40
0.7584965799
 40
1.0
 40
1.0
 40
1.0
 40
1.0
 10
-6.7066907722
 20
263.9759903424
 30
0.0
 10
-8.4256140621
 20
262.3827197799
 30
0.0
 10
-11.5554442314
 20
258.7990380262
 30
0.0
 10
-15.0968093877
 20
252.638933601
 30
0.0
 10
-17.3440435529
 20
245.9971481363
 30
0.0
 10
-17.8924927984
 20
241.3946095138
 30
0.0
 10
-17.8924927984
 20
239.1459285564
 30
0.0
  0
SPLINE
  5
3DB
100
AcDbEntity
  8
0
100
AcDbSpline
 62
7
  6
CONTINUOUS
 70
0
 71
3
 72
11
 73
7
 74
0
 42
0.0000001
 43
0.0000001
 44
0.0000000001
 40
0.0
 40
0.0
 40
0.0
 40
0.0
 40
0.2425808963
 40
0.4956402509
 40
0.7510087044
 40
1.0
 40
1.0
 40
1.0
 40
1.0
 10
-22.9751364062
 20
237.7834940085
 30
0.0
 10
-22.9751364062
 20
240.8409173285
 30
0.0
 10
-22.1455778477
 20
247.1058971224
 30
0.0
 10
-18.7899464696
 20
256.0340367472
 30
0.0
 10
-13.5627028948
 20
264.1069193371
 30
0.0
 10
-8.9799569693
 20
268.60756
 30
0.0
 10
-6.489379161
 20
270.5168624673
 30
0.0
  0
SPLINE
  5
3DC
100
AcDbEntity
  8
0
100
AcDbSpline
 62
7
  6
CONTINUOUS
 70
0
 71
3
 72
13
 73
9
 74
0
 42
0.0000001
 43
0.0000001
 44
0.0000000001
 40
0.0
 40
0.0
 40
0.0
 40
0.0
 40
0.1054436707
 40
0.215833518
 40
0.3342698815
 40
0.4612955632
 40
0.731291013
 40
1.0
 40
1.0
 40
1.0
 40
1.0
 10
4.2929522579
 20
218.1820626513
 30
0.0
 10
4.497368797
 20
218.0639722052
 30
0.0
 10
4.9628799942
 20
217.8963311503
 30
0.0
 10
5.7232012796
 20
217.8907211619
 30
0.0
 10
6.497223253
 20
218.118406414
 30
0.0
 10
7.4963597775
 20
218.7153563514
 30
0.0
 10
8.4864107953
 20
219.8872431872
 30
0.0
 10
8.8708451362
 20
221.0720929375
 30
0.0
 10
8.9222999206
 20
221.6714941601
 30
0.0
  0
SPLINE
  5
3DD
100
AcDbEntity
  8
0
100
AcDbSpline
 62
7
  6
CONTINUOUS
 70
0
 71
3
 72
11
 73
7
 74
0
 42
0.0000001
 43
0.0000001
 44
0.0000000001
 40
0.0
 40
0.0
 40
0.0
 40
0.0
 40
0.2346393466
 40
0.4787332664
 40
0.7337609599
 40
1.0
 40
1.0
 40
1.0
 40
1.0
 10
-17.5153438295
 20
220.8078957335
 30
0.0
 10
-18.4079531955
 20
221.9123850084
 30
0.0
 10
-20.0048609855
 20
224.3553251941
 30
0.0
 10
-21.7174377091
 20
228.4765888217
 30
0.0
 10
-22.7541953712
 20
233.0115387318
 30
0.0
 10
-22.9751364062
 20
236.1721585937
 30
0.0
 10
-22.9751364062
 20
237.7834940085
 30
0.0
  0
SPLINE
  5
3DE
100
AcDbEntity
  8
0
100
AcDbSpline
 62
7
  6
CONTINUOUS
 70
0
 71
3
 72
9
 73
5
 74
0
 42
0.0000001
 43
0.0000001
 44
0.0000000001
 40
0.0
 40
0.0
 40
0.0
 40
0.0
 40
0.4989560904
 40
1.0
 40
1.0
 40
1.0
 40
1.0
 10
-29.3041056735
 20
264.8926915563
 30
0.0
 10
-28.1472438563
 20
268.0273791328
 30
0.0
 10
-26.7118245665
 20
274.6620419922
 30
0.0
 10
-27.0244346766
 20
281.4346969322
 30
0.0
 10
-27.6139579888
 20
284.737829826
 30
0.0
  0
SPLINE
  5
3DF
100
AcDbEntity
  8
0
100
AcDbSpline
 62
7
  6
CONTINUOUS
 70
0
 71
3
 72
10
 73
6
 74
0
 42
0.0000001
 43
0.0000001
 44
0.0000000001
 40
0.0
 40
0.0
 40
0.0
 40
0.0
 40
0.2411468078
 40
0.4863296488
 40
1.0
 40
1.0
 40
1.0
 40
1.0
 10
3.2926585084
 20
216.4501964864
 30
0.0
 10
3.1064720878
 20
216.5577677399
 30
0.0
 10
2.7520593007
 20
216.8139654726
 30
0.0
 10
2.1448046629
 20
217.4729468717
 30
0.0
 10
1.8401363756
 20
218.0984664195
 30
0.0
 10
1.7064636948
 20
218.5365607632
 30
0.0
  0
SPLINE
  5
3E0
100
AcDbEntity
  8
0
100
AcDbSpline
 62
7
  6
CONTINUOUS
 70
0
 71
3
 72
9
 73
5
 74
0
 42
0.0000001
 43
0.0000001
 44
0.0000000001
 40
0.0
 40
0.0
 40
0.0
 40
0.0
 40
0.2550080846
 40
1.0
 40
1.0
 40
1.0
 40
1.0
 10
-16.6052980093
 20
263.673058459
 30
0.0
 10
-16.2668721004
 20
264.5080204708
 30
0.0
 10
-15.0544200102
 20
267.826964693
 30
0.0
 10
-14.3089947869
 20
271.3214121169
 30
0.0
 10
-14.0694926767
 20
273.9425400491
 30
0.0
  0
ELLIPSE
  5
3E1
100
AcDbEntity
  8
0
100
AcDbEllipse
 62
7
  6
CONTINUOUS
 10
-37.8149367286
 20
277.0102421259
 30
0.0
 11
-0.0210126995
 21
1.8213468032
 31
0.0
 40
0.8071250907
 41
-2.6155045048
 42
-1.4202395705
  0
ELLIPSE
  5
3E2
100
AcDbEntity
  8
0
100
AcDbEllipse
 62
7
  6
CONTINUOUS
 10
-27.3962035991
 20
218.6334834793
 30
0.0
 11
-0.0205662231
 21
1.7826469519
 31
0.0
 40
0.8071250907
 41
-2.5812066286
 42
-1.4514026607
  0
ELLIPSE
  5
3E3
100
AcDbEntity
  8
0
100
AcDbEllipse
 62
7
  6
CONTINUOUS
 10
-25.205842185
 20
217.3683714053
 30
0.0
 11
-0.0205662231
 21
1.7826469519
 31
0.0
 40
0.8071250907
 41
0.0
 42
6.2831853072
  0
ELLIPSE
  5
3E4
100
AcDbEntity
  8
0
100
AcDbEllipse
 62
7
  6
CONTINUOUS
 10
-35.6245753146
 20
275.7451300519
 30
0.0
 11
-0.0210126995
 21
1.8213468032
 31
0.0
 40
0.8071250907
 41
0.0
 42
6.2831853072
  0
ENDSEC
  0
SECTION
  2
OBJECTS
  0
DICTIONARY
  5
C
100
AcDbDictionary
280
0
281
1
  3
ACAD_GROUP
350
D
  3
ACAD_MLINESTYLE
350
17
  3
ACAD_LAYOUT
350
1A
  3
ACAD_PLOTSETTINGS
350
19
  3
ACAD_PLOTSTYLENAME
350
E
  0
DICTIONARY
  5
D
102
{ACAD_REACTORS
330
C
102
}
100
AcDbDictionary
280
0
281
1
  0
ACDBDICTIONARYWDFLT
  5
E
102
{ACAD_REACTORS
330
C
102
}
100
AcDbDictionary
281
1
  3
Normal
350
F
100
AcDbDictionaryWithDefault
340
F
  0
DICTIONARY
  5
17
102
{ACAD_REACTORS
330
C
102
}
100
AcDbDictionary
280
0
281
1
  3
Standard
350
18
  0
DICTIONARY
  5
19
102
{ACAD_REACTORS
330
C
102
}
100
AcDbDictionary
281
1
  0
DICTIONARY
  5
1A
102
{ACAD_REACTORS
330
C
102
}
100
AcDbDictionary
281
1
  3
Model
350
3E5
  3
Layout1
350
3E6
  0
ACDBPLACEHOLDER
  5
F
102
{ACAD_REACTORS
330
E
102
}
  0
MLINESTYLE
  5
18
102
{ACAD_REACTORS
330
17
102
}
100
AcDbMlineStyle
  2
STANDARD
 70
0
  3

 62
256
 51
90.0
 52
90.0
 71
2
 49
0.5
 62
256
  6
BYLAYER
 49
-0.5
 62
256
  6
BYLAYER
  0
LAYOUT
  5
3E5
102
{ACAD_REACTORS
330
1A
102
}
100
AcDbPlotSettings
  1

  2
none_device
  4
ANSI_C_(22.00_x_17.00_Inches)
  6

 40
0.0
 41
0.0
 42
0.0
 43
0.0
 44
558.8
 45
431.8
 46
0.0
 47
0.0
 48
0.0
 49
0.0
140
0.0
141
0.0
142
1.0
143
1.0
 70
1024
 72
1
 73
0
 74
0
  7

 75
0
147
1.0
148
0.0
149
0.0
100
AcDbLayout
  1
Model
 70
0
 71
0
 10
0.0
 20
0.0
 11
558.8
 21
431.8
 12
0.0
 22
0.0
 32
0.0
 14
0.0
 24
0.0
 34
0.0
 15
0.0
 25
0.0
 35
0.0
146
0.0
 13
0.0
 23
0.0
 33
0.0
 16
1.0
 26
0.0
 36
0.0
 17
0.0
 27
1.0
 37
0.0
 76
0
330
216
345
0
346
0
  0
LAYOUT
  5
3E6
102
{ACAD_REACTORS
330
1A
102
}
100
AcDbPlotSettings
  1

  2
none_device
  4
ANSI_C_(22.00_x_17.00_Inches)
  6

 40
0.0
 41
0.0
 42
0.0
 43
0.0
 44
558.8
 45
431.8
 46
0.0
 47
0.0
 48
0.0
 49
0.0
140
0.0
141
0.0
142
1.0
143
1.0
 70
0
 72
1
 73
0
 74
0
  7

 75
0
147
1.0
148
0.0
149
0.0
100
AcDbLayout
  1
Layout1
 70
0
 71
1
 10
0.0
 20
0.0
 11
558.8
 21
431.8
 12
0.0
 22
0.0
 32
0.0
 14
0.0
 24
0.0
 34
0.0
 15
0.0
 25
0.0
 35
0.0
146
0.0
 13
0.0
 23
0.0
 33
0.0
 16
1.0
 26
0.0
 36
0.0
 17
0.0
 27
1.0
 37
0.0
 76
0
330
217
345
0
346
0
  0
ENDSEC
  0
EOF
