999
DXF file: Y:\3D PRATIKA-KAEDRA_OLGA\TRAVAIL_PHASE_5\CAD3D\PKF16F735_3D-Simplified\pkf16f735_2d-isometric.dxf
999
Pro/ENGINEER 2018260 by Parametric Technology Corporation
  0
SECTION
  2
HEADER
  9
$ACADVER
  1
AC1027
  9
$DWGCODEPAGE
  3
ANSI_1252
  9
$EXTMAX
 10
558.8
 20
431.8
 30
0.0
  9
$EXTMIN
 10
0.0
 20
0.0
 30
0.0
  9
$LIMMIN
 10
0.0
 20
0.0
  9
$LIMMAX
 10
558.8
 20
431.8
  9
$VIEWCTR
 10
279.4
 20
215.9
  9
$VIEWSIZE
 40
431.8
  9
$CLAYER
  8
0
  9
$LTSCALE
 40
30.734
  9
$CELTYPE
  6
BYLAYER
  9
$DIMSCALE
 40
1.0
  9
$DIMASZ
 40
0.1875
  9
$DIMEXO
 40
0.0625
  9
$DIMDLI
 40
21.2344
  9
$DIMEXE
 40
0.125
  9
$DIMCEN
 40
5.0292
  9
$DIMLFAC
 40
1.0
  9
$DIMBLK
  1
_CLOSED
  9
$DIMALT
 70
0
  9
$DIMALTF
 40
0.0393700787
  9
$DIMTXT
 40
0.15625
  9
$DIMTOL
 70
0
  9
$DIMLIM
 70
0
  9
$DIMTFAC
 40
1.0
  9
$DIMGAP
 40
0.625
  9
$DIMDSEP
 70
46
  9
$AUNITS
 70
0
  9
$PDMODE
 70
3
  9
$PDSIZE
 40
0.3125
  9
$HANDSEED
  5
3CC
  9
$TILEMODE
 70
1
  9
$MEASUREMENT
 70
1
  9
$INSUNITS
 70
4
  0
ENDSEC
  0
SECTION
  2
CLASSES
  0
CLASS
  1
ACDBDICTIONARYWDFLT
  2
AcDbDictionaryWithDefault
  3
AutoCAD 2000
 90
0
 91
1
280
0
281
0
  0
CLASS
  1
ACDBPLACEHOLDER
  2
AcDbPlaceHolder
  3
AutoCAD 2000
 90
0
 91
1
280
0
281
0
  0
CLASS
  1
LAYOUT
  2
AcDbLayout
  3
AutoCAD 2000
 90
0
 91
0
280
0
281
0
  0
ENDSEC
  0
SECTION
  2
TABLES
  0
TABLE
  2
VPORT
  5
8
100
AcDbSymbolTable
 70
2
  0
VPORT
  5
1F4
100
AcDbSymbolTableRecord
100
AcDbViewportTableRecord
  2
*ACTIVE
 70
0
 10
0.0
 20
0.0
 11
1.0
 21
1.0
 12
279.4
 22
215.9
 13
0.0
 23
0.0
 14
1.0
 24
1.0
 15
0.0
 25
0.0
 16
0.0
 26
0.0
 36
1.0
 17
0.0
 27
0.0
 37
0.0
 40
431.8
 41
1.2941176471
 42
50.0
 43
0.0
 44
0.0
 50
0.0
 51
0.0
 71
0
 72
100
 73
1
 74
1
 75
0
 76
0
 77
0
 78
0
  0
ENDTAB
  0
TABLE
  2
LTYPE
  5
5
100
AcDbSymbolTable
 70
6
  0
LTYPE
  5
14
100
AcDbSymbolTableRecord
100
AcDbLinetypeTableRecord
  2
BYBLOCK
 70
0
  3

 72
65
 73
0
 40
0.0
  0
LTYPE
  5
15
100
AcDbSymbolTableRecord
100
AcDbLinetypeTableRecord
  2
BYLAYER
 70
0
  3

 72
65
 73
0
 40
0.0
  0
LTYPE
  5
16
100
AcDbSymbolTableRecord
100
AcDbLinetypeTableRecord
  2
CONTINUOUS
 70
64
  3
Solid line
 72
65
 73
0
 40
0.0
  0
LTYPE
  5
1F5
100
AcDbSymbolTableRecord
100
AcDbLinetypeTableRecord
  2
CENTER
 70
64
  3
____ _ ____ _ ____ _ ____ _ ____ _ ____ _ ____
 72
65
 73
4
 40
0.6
 49
0.375
 74
0
 49
-0.075
 74
0
 49
0.075
 74
0
 49
-0.075
 74
0
  0
LTYPE
  5
1F6
100
AcDbSymbolTableRecord
100
AcDbLinetypeTableRecord
  2
HIDDEN
 70
64
  3
- - - - - - - - - - - - - - - - - - - -
 72
65
 73
2
 40
0.2
 49
0.1
 74
0
 49
-0.1
 74
0
  0
LTYPE
  5
1F7
100
AcDbSymbolTableRecord
100
AcDbLinetypeTableRecord
  2
PHANTOM
 70
64
  3
_____ _ _ _____ _ _ _____ _ _ _____
 72
65
 73
6
 40
0.8
 49
0.45
 74
0
 49
-0.05
 74
0
 49
0.1
 74
0
 49
-0.05
 74
0
 49
0.1
 74
0
 49
-0.05
 74
0
  0
LTYPE
  5
1F8
100
AcDbSymbolTableRecord
100
AcDbLinetypeTableRecord
  2
DOT
 70
64
  3
. . . . . . . . . . . . . . . . . . . .
 72
65
 73
2
 40
0.2
 49
0.1
 74
0
 49
-0.1
 74
0
  0
LTYPE
  5
1F9
100
AcDbSymbolTableRecord
100
AcDbLinetypeTableRecord
  2
DASHED
 70
64
  3
- - - - - - - - - - - - - - - - - - - -
 72
65
 73
2
 40
0.2
 49
0.1
 74
0
 49
-0.1
 74
0
  0
ENDTAB
  0
TABLE
  2
LAYER
  5
2
100
AcDbSymbolTable
 70
36
  0
LAYER
  5
10
100
AcDbSymbolTableRecord
100
AcDbLayerTableRecord
  2
0
 70
0
 62
7
  6
CONTINUOUS
370
-3
390
F
  0
LAYER
  5
1FA
100
AcDbSymbolTableRecord
100
AcDbLayerTableRecord
  2
DEFAULT_1
 70
0
 62
7
  6
CENTER
370
-3
390
F
  0
LAYER
  5
1FB
100
AcDbSymbolTableRecord
100
AcDbLayerTableRecord
  2
DEFAULT_2
 70
0
 62
8
  6
HIDDEN
370
-3
390
F
  0
LAYER
  5
1FC
100
AcDbSymbolTableRecord
100
AcDbLayerTableRecord
  2
DEFAULT_3
 70
0
 62
7
  6
PHANTOM
370
-3
390
F
  0
LAYER
  5
1FD
100
AcDbSymbolTableRecord
100
AcDbLayerTableRecord
  2
01_ALL_DTM_PLN
 70
0
 62
7
  6
CONTINUOUS
370
-3
390
F
  0
LAYER
  5
1FE
100
AcDbSymbolTableRecord
100
AcDbLayerTableRecord
  2
01__ASM_ALL_DTM_PLN
 70
0
 62
7
  6
CONTINUOUS
370
-3
390
F
  0
LAYER
  5
1FF
100
AcDbSymbolTableRecord
100
AcDbLayerTableRecord
  2
01__ASM_DEF_DTM_PLN
 70
0
 62
7
  6
CONTINUOUS
370
-3
390
F
  0
LAYER
  5
200
100
AcDbSymbolTableRecord
100
AcDbLayerTableRecord
  2
01___PRT_ALL_DTM_PLN
 70
0
 62
7
  6
CONTINUOUS
370
-3
390
F
  0
LAYER
  5
201
100
AcDbSymbolTableRecord
100
AcDbLayerTableRecord
  2
01___PRT_DEF_DTM_PLN
 70
0
 62
7
  6
CONTINUOUS
370
-3
390
F
  0
LAYER
  5
202
100
AcDbSymbolTableRecord
100
AcDbLayerTableRecord
  2
02_ALL_AXES
 70
0
 62
7
  6
CONTINUOUS
370
-3
390
F
  0
LAYER
  5
203
100
AcDbSymbolTableRecord
100
AcDbLayerTableRecord
  2
02__ASM_ALL_AXES
 70
0
 62
7
  6
CONTINUOUS
370
-3
390
F
  0
LAYER
  5
204
100
AcDbSymbolTableRecord
100
AcDbLayerTableRecord
  2
02___PRT_ALL_AXES
 70
0
 62
7
  6
CONTINUOUS
370
-3
390
F
  0
LAYER
  5
205
100
AcDbSymbolTableRecord
100
AcDbLayerTableRecord
  2
03_ALL_CURVES
 70
0
 62
7
  6
CONTINUOUS
370
-3
390
F
  0
LAYER
  5
206
100
AcDbSymbolTableRecord
100
AcDbLayerTableRecord
  2
03__ASM_ALL_CURVES
 70
0
 62
7
  6
CONTINUOUS
370
-3
390
F
  0
LAYER
  5
207
100
AcDbSymbolTableRecord
100
AcDbLayerTableRecord
  2
03___PRT_ALL_CURVES
 70
0
 62
7
  6
CONTINUOUS
370
-3
390
F
  0
LAYER
  5
208
100
AcDbSymbolTableRecord
100
AcDbLayerTableRecord
  2
04_ALL_DTM_PNT
 70
0
 62
7
  6
CONTINUOUS
370
-3
390
F
  0
LAYER
  5
209
100
AcDbSymbolTableRecord
100
AcDbLayerTableRecord
  2
04__ASM_ALL_DTM_PNT
 70
0
 62
7
  6
CONTINUOUS
370
-3
390
F
  0
LAYER
  5
20A
100
AcDbSymbolTableRecord
100
AcDbLayerTableRecord
  2
04___PRT_ALL_DTM_PNT
 70
0
 62
7
  6
CONTINUOUS
370
-3
390
F
  0
LAYER
  5
20B
100
AcDbSymbolTableRecord
100
AcDbLayerTableRecord
  2
05_ALL_DTM_CSYS
 70
0
 62
7
  6
CONTINUOUS
370
-3
390
F
  0
LAYER
  5
20C
100
AcDbSymbolTableRecord
100
AcDbLayerTableRecord
  2
05__ASM_ALL_DTM_CSYS
 70
0
 62
7
  6
CONTINUOUS
370
-3
390
F
  0
LAYER
  5
20D
100
AcDbSymbolTableRecord
100
AcDbLayerTableRecord
  2
05__ASM_DEF_DTM_CSYS
 70
0
 62
7
  6
CONTINUOUS
370
-3
390
F
  0
LAYER
  5
20E
100
AcDbSymbolTableRecord
100
AcDbLayerTableRecord
  2
05___PRT_ALL_DTM_CSYS
 70
0
 62
7
  6
CONTINUOUS
370
-3
390
F
  0
LAYER
  5
20F
100
AcDbSymbolTableRecord
100
AcDbLayerTableRecord
  2
05___PRT_DEF_DTM_CSYS
 70
0
 62
7
  6
CONTINUOUS
370
-3
390
F
  0
LAYER
  5
210
100
AcDbSymbolTableRecord
100
AcDbLayerTableRecord
  2
06_ALL_SURFS
 70
0
 62
7
  6
CONTINUOUS
370
-3
390
F
  0
LAYER
  5
211
100
AcDbSymbolTableRecord
100
AcDbLayerTableRecord
  2
06__ASM_ALL_SURFS
 70
0
 62
7
  6
CONTINUOUS
370
-3
390
F
  0
LAYER
  5
212
100
AcDbSymbolTableRecord
100
AcDbLayerTableRecord
  2
06___PRT_ALL_SURFS
 70
0
 62
7
  6
CONTINUOUS
370
-3
390
F
  0
LAYER
  5
213
100
AcDbSymbolTableRecord
100
AcDbLayerTableRecord
  2
07__ASM_ALL_SKELETONS
 70
0
 62
7
  6
CONTINUOUS
370
-3
390
F
  0
ENDTAB
  0
TABLE
  2
STYLE
  5
3
100
AcDbSymbolTable
 70
1
  0
STYLE
  5
11
100
AcDbSymbolTableRecord
100
AcDbTextStyleTableRecord
  2
STANDARD
 70
0
 40
0.0
 41
0.8
 50
0.0
 71
0
 42
0.2
  3
txt
  4

  0
STYLE
  5
214
100
AcDbSymbolTableRecord
100
AcDbTextStyleTableRecord
  2
TEXTSTYLE_1
 70
0
 40
0.0
 41
0.8
 50
0.0
 71
0
 42
0.2
  3
gdt
  4

  0
ENDTAB
  0
TABLE
  2
VIEW
  5
6
100
AcDbSymbolTable
 70
0
  0
ENDTAB
  0
TABLE
  2
UCS
  5
7
100
AcDbSymbolTable
 70
0
  0
ENDTAB
  0
TABLE
  2
APPID
  5
9
100
AcDbSymbolTable
 70
1
  0
APPID
  5
215
100
AcDbSymbolTableRecord
100
AcDbRegAppTableRecord
  2
ACAD
 70
0
  0
ENDTAB
  0
TABLE
  2
BLOCK_RECORD
  5
1
100
AcDbSymbolTable
 70
0
  0
BLOCK_RECORD
  5
216
100
AcDbSymbolTableRecord
100
AcDbBlockTableRecord
  2
*Model_Space
  0
BLOCK_RECORD
  5
217
100
AcDbSymbolTableRecord
100
AcDbBlockTableRecord
  2
*Paper_Space
  0
BLOCK_RECORD
  5
218
100
AcDbSymbolTableRecord
100
AcDbBlockTableRecord
  2
_CLOSED
  0
ENDTAB
  0
TABLE
  2
DIMSTYLE
  5
A
100
AcDbSymbolTable
 70
1
100
AcDbDimStyleTable
 71
0
  0
DIMSTYLE
105
219
100
AcDbSymbolTableRecord
100
AcDbDimStyleTableRecord
  2
STANDARD
 70
0
  3

  4

 40
1.0
 41
0.1875
 42
0.0625
 43
0.38
 44
0.125
 45
0.0
 46
0.0
 47
0.01
 48
0.01
140
0.15625
141
0.09
142
0.0
143
25.4
144
1.0
145
0.0
146
1.0
147
0.625
 71
0.0
 72
0.0
 73
1
 74
1
 75
0
 76
0
 77
0
 78
8
 79
2
170
0
171
1
172
0
173
0
174
0
175
0
176
0
177
0
178
0
270
2
179
2
271
2
272
2
273
2
274
2
275
0
280
0
281
0
282
0
283
1
284
8
285
0
286
0
287
3
288
0
340
11
278
46
341
218
342
218
343
218
344
218
  0
ENDTAB
  0
ENDSEC
  0
SECTION
  2
BLOCKS
  0
BLOCK
  5
20
100
AcDbEntity
  8
0
100
AcDbBlockBegin
  2
*Model_Space
 70
0
 10
0.0
 20
0.0
 30
0.0
  3
*Model_Space
  1

  0
ENDBLK
  5
21
100
AcDbEntity
  8
0
100
AcDbBlockEnd
  0
BLOCK
  5
1C
100
AcDbEntity
  8
0
100
AcDbBlockBegin
  2
*Paper_Space
 70
0
 10
0.0
 20
0.0
 30
0.0
  3
*Paper_Space
  1

  0
ENDBLK
  5
1D
100
AcDbEntity
  8
0
100
AcDbBlockEnd
  0
BLOCK
  5
21A
100
AcDbEntity
  8
0
100
AcDbBlockBegin
  2
_CLOSED
 70
64
 10
0.0
 20
0.0
  3
_CLOSED
  1

  0
LINE
  5
21B
100
AcDbEntity
  8
0
  6
BYBLOCK
 62
0
100
AcDbLine
 10
0.0
 20
0.0
 11
-1.0
 21
0.1666666667
  0
LINE
  5
21C
100
AcDbEntity
  8
0
  6
BYBLOCK
 62
0
100
AcDbLine
 10
-1.0
 20
0.1666666667
 11
-1.0
 21
-0.1666666667
  0
LINE
  5
21D
100
AcDbEntity
  8
0
  6
BYBLOCK
 62
0
100
AcDbLine
 10
-1.0
 20
-0.1666666667
 11
0.0
 21
0.0
  0
LINE
  5
21E
100
AcDbEntity
  8
0
  6
BYBLOCK
 62
0
100
AcDbLine
 10
-1.0
 20
0.0
 11
0.0
 21
0.0
  0
ENDBLK
  5
21F
100
AcDbEntity
  8
0
  6
BYBLOCK
 62
0
100
AcDbBlockEnd
  0
ENDSEC
  0
SECTION
  2
ENTITIES
  0
LWPOLYLINE
  5
220
100
AcDbEntity
  8
0
100
AcDbPolyline
 62
7
  6
CONTINUOUS
 90
4
 70
0
 10
-21.9691978477
 20
308.9072884572
 10
-22.0516855545
 20
308.8767686638
 10
-22.9467393244
 20
307.9052701754
 10
-23.411345715
 20
306.5577798814
  0
LWPOLYLINE
  5
221
100
AcDbEntity
  8
0
100
AcDbPolyline
 62
7
  6
CONTINUOUS
 90
5
 70
0
 10
-24.647919632
 20
296.4319737347
 10
-25.6924679653
 20
295.9414584618
 10
-26.477307889
 20
295.0416873073
 10
-26.9047467401
 20
293.6825852577
 10
-26.9524749394
 20
292.9965068368
  0
LWPOLYLINE
  5
222
100
AcDbEntity
  8
0
100
AcDbPolyline
 62
7
  6
CONTINUOUS
 90
4
 70
0
 10
-21.3460063901
 20
288.9866707507
 10
-21.6050999877
 20
288.8258920466
 10
-23.2969920396
 20
287.4373789675
 10
-24.4595116301
 20
285.9028677301
  0
LINE
  5
223
100
AcDbEntity
  8
0
100
AcDbLine
 62
7
  6
CONTINUOUS
 10
-20.9734812632
 20
289.2103675026
 11
-21.3493215351
 21
288.9846809557
  0
LINE
  5
224
100
AcDbEntity
  8
0
100
AcDbLine
 62
7
  6
CONTINUOUS
 10
-20.9732234147
 20
289.2105223367
 11
-20.228727571
 21
289.6217156181
  0
LINE
  5
225
100
AcDbEntity
  8
0
100
AcDbLine
 62
7
  6
CONTINUOUS
 10
-5.1842063158
 20
290.043141384
 11
-5.162703509
 21
290.0564018487
  0
LINE
  5
226
100
AcDbEntity
  8
0
100
AcDbLine
 62
7
  6
CONTINUOUS
 10
-15.8297004405
 20
280.1873200442
 11
-15.8813793973
 21
280.1466996362
  0
LINE
  5
227
100
AcDbEntity
  8
0
100
AcDbLine
 62
7
  6
CONTINUOUS
 10
-15.8354988488
 20
280.1897334735
 11
-15.8813776429
 21
280.1467020499
  0
LINE
  5
228
100
AcDbEntity
  8
0
100
AcDbLine
 62
7
  6
CONTINUOUS
 10
-23.2994232898
 20
306.5263311957
 11
-23.3070611376
 21
306.5053152209
  0
LINE
  5
229
100
AcDbEntity
  8
0
100
AcDbLine
 62
7
  6
CONTINUOUS
 10
-30.8025839301
 20
199.2658878842
 11
24.5693188014
 21
214.1086299978
  0
LINE
  5
22A
100
AcDbEntity
  8
0
100
AcDbLine
 62
7
  6
CONTINUOUS
 10
-34.9115585641
 20
198.4175262768
 11
-31.6057733265
 21
199.3036601343
  0
LINE
  5
22B
100
AcDbEntity
  8
0
100
AcDbLine
 62
7
  6
CONTINUOUS
 10
24.5262142689
 20
214.3501471629
 11
27.0719146428
 21
215.0325361054
  0
LINE
  5
22C
100
AcDbEntity
  8
0
100
AcDbLine
 62
7
  6
CONTINUOUS
 10
-38.9783063292
 20
198.350329728
 11
-36.5687381402
 21
198.2370129777
  0
LINE
  5
22D
100
AcDbEntity
  8
0
100
AcDbLine
 62
7
  6
CONTINUOUS
 10
-30.8025839301
 20
199.2658878842
 11
-31.6057733265
 21
199.3036601343
  0
LINE
  5
22E
100
AcDbEntity
  8
0
100
AcDbLine
 62
7
  6
CONTINUOUS
 10
-23.2079255975
 20
306.4897056455
 11
-23.2150211757
 21
306.4685237556
  0
LINE
  5
22F
100
AcDbEntity
  8
0
100
AcDbLine
 62
7
  6
CONTINUOUS
 10
-15.8496048037
 20
280.2126431953
 11
-15.8813793192
 21
280.1466995238
  0
LINE
  5
230
100
AcDbEntity
  8
0
100
AcDbLine
 62
7
  6
CONTINUOUS
 10
14.1178778465
 20
274.238381746
 11
14.0939933518
 21
274.2155997276
  0
LINE
  5
231
100
AcDbEntity
  8
0
100
AcDbLine
 62
7
  6
CONTINUOUS
 10
14.1186716984
 20
274.2381665241
 11
14.0939933518
 21
274.2155997276
  0
LINE
  5
232
100
AcDbEntity
  8
0
100
AcDbLine
 62
7
  6
CONTINUOUS
 10
31.8986842376
 20
228.8416096233
 11
26.5267832265
 21
227.4016421049
  0
LINE
  5
233
100
AcDbEntity
  8
0
100
AcDbLine
 62
7
  6
CONTINUOUS
 10
-42.4814836108
 20
208.903597829
 11
-37.1095825995
 21
210.3435653474
  0
LINE
  5
234
100
AcDbEntity
  8
0
100
AcDbLine
 62
7
  6
CONTINUOUS
 10
-44.8243343472
 20
204.1805489154
 11
-42.4147661582
 21
204.067232165
  0
LINE
  5
235
100
AcDbEntity
  8
0
100
AcDbLine
 62
7
  6
CONTINUOUS
 10
-32.1074442035
 20
206.5770947553
 11
-32.9106335998
 21
206.6148670054
  0
LINE
  5
236
100
AcDbEntity
  8
0
100
AcDbLine
 62
7
  6
CONTINUOUS
 10
-42.4814836108
 20
208.903597829
 11
-43.2846730071
 21
208.9413700791
  0
LINE
  5
237
100
AcDbEntity
  8
0
100
AcDbLine
 62
7
  6
CONTINUOUS
 10
-44.8243343472
 20
204.1805489154
 11
-59.6127507785
 21
287.0408934545
  0
LINE
  5
238
100
AcDbEntity
  8
0
100
AcDbLine
 62
7
  6
CONTINUOUS
 10
-23.4106223313
 20
306.561792517
 11
-23.4549366876
 21
306.2767814738
  0
LINE
  5
239
100
AcDbEntity
  8
0
100
AcDbLine
 62
7
  6
CONTINUOUS
 10
-23.4113297054
 20
306.5578426133
 11
-23.4609928492
 21
306.2778960666
  0
LINE
  5
23A
100
AcDbEntity
  8
0
100
AcDbLine
 62
7
  6
CONTINUOUS
 10
-23.3596828365
 20
222.4166506407
 11
-16.1266490785
 21
224.355504996
  0
LINE
  5
23B
100
AcDbEntity
  8
0
100
AcDbLine
 62
7
  6
CONTINUOUS
 10
-57.2031825895
 20
286.9275767041
 11
-56.3332757406
 21
282.05343879
  0
LINE
  5
23C
100
AcDbEntity
  8
0
100
AcDbLine
 62
7
  6
CONTINUOUS
 10
-43.2846730071
 20
208.9413700791
 11
-42.4147661582
 21
204.067232165
  0
LINE
  5
23D
100
AcDbEntity
  8
0
100
AcDbLine
 62
7
  6
CONTINUOUS
 10
-55.5300863443
 20
282.0156665399
 11
-42.4814836108
 21
208.903597829
  0
LINE
  5
23E
100
AcDbEntity
  8
0
100
AcDbLine
 62
7
  6
CONTINUOUS
 10
-31.6057733265
 20
199.3036601343
 11
-32.9106335998
 21
206.6148670054
  0
LINE
  5
23F
100
AcDbEntity
  8
0
100
AcDbLine
 62
7
  6
CONTINUOUS
 10
-47.6990500311
 20
289.4752115445
 11
-49.0039103044
 21
296.7864184156
  0
LINE
  5
240
100
AcDbEntity
  8
0
100
AcDbLine
 62
7
  6
CONTINUOUS
 10
-26.9521877034
 20
293.0177665314
 11
-26.9641013908
 21
291.6230856443
  0
LINE
  5
241
100
AcDbEntity
  8
0
100
AcDbLine
 62
7
  6
CONTINUOUS
 10
-26.9525887087
 20
292.9902818497
 11
-26.9521877034
 21
293.0177665314
  0
LINE
  5
242
100
AcDbEntity
  8
0
100
AcDbLine
 62
7
  6
CONTINUOUS
 10
9.803334189
 20
287.6621895803
 11
9.8103012169
 21
287.6776813162
  0
LINE
  5
243
100
AcDbEntity
  8
0
100
AcDbLine
 62
7
  6
CONTINUOUS
 10
31.1031858992
 20
275.0105894196
 11
31.144636748
 21
275.0599915757
  0
LINE
  5
244
100
AcDbEntity
  8
0
100
AcDbLine
 62
7
  6
CONTINUOUS
 10
31.1031858992
 20
275.0105894196
 11
31.1451260432
 21
275.0597474575
  0
LINE
  5
245
100
AcDbEntity
  8
0
100
AcDbLine
 62
7
  6
CONTINUOUS
 10
-24.6072397496
 20
223.1372755626
 11
-23.3596828365
 21
222.4166506407
  0
LINE
  5
246
100
AcDbEntity
  8
0
100
AcDbLine
 62
7
  6
CONTINUOUS
 10
-48.2007209081
 20
296.7486461655
 11
-46.8958606348
 21
289.4374392944
  0
LINE
  5
247
100
AcDbEntity
  8
0
100
AcDbLine
 62
7
  6
CONTINUOUS
 10
-30.8025839301
 20
199.2658878842
 11
-32.1074442035
 21
206.5770947553
  0
LINE
  5
248
100
AcDbEntity
  8
0
100
AcDbLine
 62
7
  6
CONTINUOUS
 10
-14.2800893082
 20
305.6407574793
 11
-14.2800893082
 21
307.3735197571
  0
LINE
  5
249
100
AcDbEntity
  8
0
100
AcDbLine
 62
7
  6
CONTINUOUS
 10
1.4326455027
 20
215.4248587477
 11
-0.9836119013
 21
216.8195810314
  0
LINE
  5
24A
100
AcDbEntity
  8
0
100
AcDbLine
 62
7
  6
CONTINUOUS
 10
-13.0710146591
 20
222.4187809289
 11
-16.3298643977
 21
224.3010320155
  0
LINE
  5
24B
100
AcDbEntity
  8
0
100
AcDbLine
 62
7
  6
CONTINUOUS
 10
-4.4866435528
 20
220.0307852609
 11
-0.1921490768
 21
217.5503650077
  0
LINE
  5
24C
100
AcDbEntity
  8
0
100
AcDbLine
 62
7
  6
CONTINUOUS
 10
-19.3539864425
 20
233.4090643363
 11
-0.3338855015
 21
222.4234072686
  0
LINE
  5
24D
100
AcDbEntity
  8
0
100
AcDbLine
 62
7
  6
CONTINUOUS
 10
-32.5519978374
 20
293.9807452372
 11
-33.0325261616
 21
296.6731729689
  0
LINE
  5
24E
100
AcDbEntity
  8
0
100
AcDbLine
 62
7
  6
CONTINUOUS
 10
-8.3817606321
 20
229.2375880064
 11
-20.3196420779
 21
236.1326866227
  0
LINE
  5
24F
100
AcDbEntity
  8
0
100
AcDbLine
 62
7
  6
CONTINUOUS
 10
-1.8718804755
 20
227.4559928688
 11
5.4512386645
 21
223.2262952564
  0
LINE
  5
250
100
AcDbEntity
  8
0
100
AcDbLine
 62
7
  6
CONTINUOUS
 10
5.4512386645
 20
223.9741415193
 11
-0.6074989415
 21
227.4735558394
  0
LINE
  5
251
100
AcDbEntity
  8
0
100
AcDbLine
 62
7
  6
CONTINUOUS
 10
-0.3338855015
 20
222.4234072686
 11
-0.3338855015
 21
221.6755610057
  0
LINE
  5
252
100
AcDbEntity
  8
0
100
AcDbLine
 62
7
  6
CONTINUOUS
 10
1.4326455027
 20
217.1265678478
 11
1.4326455027
 21
215.4248587477
  0
LINE
  5
253
100
AcDbEntity
  8
0
100
AcDbLine
 62
7
  6
CONTINUOUS
 10
5.4512386645
 20
223.2262952564
 11
5.4512386645
 21
223.9741415193
  0
LINE
  5
254
100
AcDbEntity
  8
0
100
AcDbLine
 62
7
  6
CONTINUOUS
 10
-0.9836119013
 20
216.8195810314
 11
-0.9587090842
 21
217.9931158316
  0
LINE
  5
255
100
AcDbEntity
  8
0
100
AcDbLine
 62
7
  6
CONTINUOUS
 10
46.0801880722
 20
278.3689369574
 11
46.0444479291
 21
278.3062571797
  0
LINE
  5
256
100
AcDbEntity
  8
0
100
AcDbLine
 62
7
  6
CONTINUOUS
 10
46.0808236169
 20
278.3692246595
 11
46.0444479291
 21
278.3062571797
  0
LINE
  5
257
100
AcDbEntity
  8
0
100
AcDbLine
 62
7
  6
CONTINUOUS
 10
61.4270098927
 20
290.1262653292
 11
61.2856148503
 21
290.088363803
  0
LINE
  5
258
100
AcDbEntity
  8
0
100
AcDbLine
 62
7
  6
CONTINUOUS
 10
56.6431072273
 20
283.600867499
 11
56.8101019411
 21
283.6145522183
  0
LINE
  5
259
100
AcDbEntity
  8
0
100
AcDbLine
 62
7
  6
CONTINUOUS
 10
-23.8666448068
 20
268.4922872546
 11
-35.0223920415
 21
274.935639676
  0
LINE
  5
25A
100
AcDbEntity
  8
0
100
AcDbLine
 62
7
  6
CONTINUOUS
 10
-16.7152414064
 20
294.4996282612
 11
-16.6824786882
 21
294.5086415115
  0
LINE
  5
25B
100
AcDbEntity
  8
0
100
AcDbLine
 62
7
  6
CONTINUOUS
 10
-55.5300863443
 20
282.0156665399
 11
-50.1581853331
 21
283.4556340584
  0
LINE
  5
25C
100
AcDbEntity
  8
0
100
AcDbLine
 62
7
  6
CONTINUOUS
 10
-56.3332757406
 20
282.05343879
 11
-50.9613747293
 21
283.4934063085
  0
LINE
  5
25D
100
AcDbEntity
  8
0
100
AcDbLine
 62
7
  6
CONTINUOUS
 10
-55.5300863443
 20
282.0156665399
 11
-56.3332757406
 21
282.05343879
  0
LINE
  5
25E
100
AcDbEntity
  8
0
100
AcDbLine
 62
7
  6
CONTINUOUS
 10
-50.158185333
 20
283.4556340584
 11
-50.9613747293
 21
283.4934063085
  0
LINE
  5
25F
100
AcDbEntity
  8
0
100
AcDbLine
 62
7
  6
CONTINUOUS
 10
46.0444475843
 20
278.3062572795
 11
46.2120399246
 21
278.2937547497
  0
LINE
  5
260
100
AcDbEntity
  8
0
100
AcDbLine
 62
7
  6
CONTINUOUS
 10
-2.3936339997
 20
276.0423181792
 11
-2.3588550122
 21
275.9766096598
  0
LINE
  5
261
100
AcDbEntity
  8
0
100
AcDbLine
 62
7
  6
CONTINUOUS
 10
24.5693188014
 20
214.1086299978
 11
23.2644585281
 21
221.4198368689
  0
LINE
  5
262
100
AcDbEntity
  8
0
100
AcDbLine
 62
7
  6
CONTINUOUS
 10
56.6431077401
 20
283.6008674664
 11
56.6580247484
 21
283.6558279767
  0
LINE
  5
263
100
AcDbEntity
  8
0
100
AcDbLine
 62
7
  6
CONTINUOUS
 10
56.6431077401
 20
283.6008674664
 11
56.6594408081
 21
283.6562129018
  0
LINE
  5
264
100
AcDbEntity
  8
0
100
AcDbLine
 62
7
  6
CONTINUOUS
 10
-23.7672708354
 20
296.6680520309
 11
-24.6574339359
 21
296.4294389313
  0
LINE
  5
265
100
AcDbEntity
  8
0
100
AcDbLine
 62
7
  6
CONTINUOUS
 10
-25.8389372107
 20
300.2438146517
 11
-28.2349335062
 21
299.6015547082
  0
LINE
  5
266
100
AcDbEntity
  8
0
100
AcDbLine
 62
7
  6
CONTINUOUS
 10
-48.2007209081
 20
296.7486461655
 11
-25.5258154378
 21
302.826778896
  0
LINE
  5
267
100
AcDbEntity
  8
0
100
AcDbLine
 62
7
  6
CONTINUOUS
 10
-49.0039103044
 20
296.7864184156
 11
-52.3096955422
 21
295.9002845581
  0
LINE
  5
268
100
AcDbEntity
  8
0
100
AcDbLine
 62
7
  6
CONTINUOUS
 10
-54.7192637312
 20
296.0136013084
 11
-23.8565084285
 21
304.2865320779
  0
LINE
  5
269
100
AcDbEntity
  8
0
100
AcDbLine
 62
7
  6
CONTINUOUS
 10
-24.5510797279
 20
296.4560252151
 11
-24.6481376374
 21
296.4319157781
  0
LINE
  5
26A
100
AcDbEntity
  8
0
100
AcDbLine
 62
7
  6
CONTINUOUS
 10
-22.9769111879
 20
296.8104570508
 11
-23.7672801838
 21
296.668049525
  0
LINE
  5
26B
100
AcDbEntity
  8
0
100
AcDbLine
 62
7
  6
CONTINUOUS
 10
-57.2031825895
 20
286.9275767041
 11
-59.6127507785
 21
287.0408934545
  0
LINE
  5
26C
100
AcDbEntity
  8
0
100
AcDbLine
 62
7
  6
CONTINUOUS
 10
-47.6990500311
 20
289.4752115445
 11
-46.8958606348
 21
289.4374392944
  0
LINE
  5
26D
100
AcDbEntity
  8
0
100
AcDbLine
 62
7
  6
CONTINUOUS
 10
-54.7192637312
 20
296.0136013084
 11
-52.3096955422
 21
295.9002845581
  0
LINE
  5
26E
100
AcDbEntity
  8
0
100
AcDbLine
 62
7
  6
CONTINUOUS
 10
31.1031857749
 20
275.0105895562
 11
31.2458613274
 21
274.9738031743
  0
LINE
  5
26F
100
AcDbEntity
  8
0
100
AcDbLine
 62
7
  6
CONTINUOUS
 10
-32.5519978374
 20
293.9807452372
 11
-26.8483587878
 21
290.6864292485
  0
LINE
  5
270
100
AcDbEntity
  8
0
100
AcDbLine
 62
7
  6
CONTINUOUS
 10
14.625144874
 20
269.0707688866
 11
4.819371483
 21
274.7344014872
  0
LINE
  5
271
100
AcDbEntity
  8
0
100
AcDbLine
 62
7
  6
CONTINUOUS
 10
31.9654016902
 20
224.0052439594
 11
31.1385993738
 21
228.6378647083
  0
LINE
  5
272
100
AcDbEntity
  8
0
100
AcDbLine
 62
7
  6
CONTINUOUS
 10
31.8986842376
 20
228.8416096233
 11
29.4596498421
 21
242.5076590815
  0
LWPOLYLINE
  5
273
100
AcDbEntity
  8
0
100
AcDbPolyline
 62
7
  6
CONTINUOUS
 90
6
 70
0
 10
-25.0858037348
 20
303.1255540525
 10
-25.1404120936
 20
303.1183316893
 10
-25.2987544149
 20
303.0630941897
 10
-25.4393291087
 20
302.9548531016
 10
-25.5321098652
 20
302.8174577259
 10
-25.5790671357
 20
302.6557415914
  0
LINE
  5
274
100
AcDbEntity
  8
0
100
AcDbLine
 62
7
  6
CONTINUOUS
 10
-23.0342892579
 20
300.3531891587
 11
-22.995248655
 21
300.3565849385
  0
LINE
  5
275
100
AcDbEntity
  8
0
100
AcDbLine
 62
7
  6
CONTINUOUS
 10
-24.0386739581
 20
303.2113644488
 11
-25.0859217484
 21
303.1255447254
  0
LINE
  5
276
100
AcDbEntity
  8
0
100
AcDbLine
 62
7
  6
CONTINUOUS
 10
-48.2007209081
 20
296.7486461655
 11
-49.0039103044
 21
296.7864184156
  0
LINE
  5
277
100
AcDbEntity
  8
0
100
AcDbLine
 62
7
  6
CONTINUOUS
 10
-8.4162052558
 20
295.8139535667
 11
-8.4392930765
 21
295.821889188
  0
LINE
  5
278
100
AcDbEntity
  8
0
100
AcDbLine
 62
7
  6
CONTINUOUS
 10
-8.4169376524
 20
295.8136457319
 11
-8.4392930765
 21
295.821889188
  0
LINE
  5
279
100
AcDbEntity
  8
0
100
AcDbLine
 62
7
  6
CONTINUOUS
 10
14.1900311719
 20
274.160130024
 11
14.093993467
 21
274.2155998648
  0
LINE
  5
27A
100
AcDbEntity
  8
0
100
AcDbLine
 62
7
  6
CONTINUOUS
 10
49.5199106918
 20
306.6366549402
 11
49.5198950067
 21
306.6491216452
  0
LINE
  5
27B
100
AcDbEntity
  8
0
100
AcDbLine
 62
7
  6
CONTINUOUS
 10
49.3199106918
 20
305.6377103005
 11
49.3199106918
 21
306.6491216452
  0
LINE
  5
27C
100
AcDbEntity
  8
0
100
AcDbLine
 62
7
  6
CONTINUOUS
 10
61.9628506747
 20
290.5597449957
 11
62.0034308823
 21
291.2496702634
  0
LINE
  5
27D
100
AcDbEntity
  8
0
100
AcDbLine
 62
7
  6
CONTINUOUS
 10
58.2191411663
 20
300.6400932067
 11
58.1797769739
 21
300.6428355067
  0
LINE
  5
27E
100
AcDbEntity
  8
0
100
AcDbLine
 62
7
  6
CONTINUOUS
 10
52.1680991039
 20
294.7428522286
 11
52.1343915959
 21
294.751313779
  0
LINE
  5
27F
100
AcDbEntity
  8
0
100
AcDbLine
 62
7
  6
CONTINUOUS
 10
25.9663089354
 20
287.7193289957
 11
25.9586264626
 21
287.7347524251
  0
LWPOLYLINE
  5
280
100
AcDbEntity
  8
0
100
AcDbPolyline
 62
7
  6
CONTINUOUS
 90
3
 70
0
 10
61.9809376435
 20
293.1812486369
 10
61.7034015775
 20
296.9698780729
 10
60.7418730623
 20
301.6327683874
  0
LINE
  5
281
100
AcDbEntity
  8
0
100
AcDbLine
 62
7
  6
CONTINUOUS
 10
61.9809954745
 20
293.1786194362
 11
61.9809677366
 21
293.1797798553
  0
LINE
  5
282
100
AcDbEntity
  8
0
100
AcDbLine
 62
7
  6
CONTINUOUS
 10
61.9809055819
 20
293.1823990599
 11
62.0039227743
 21
291.2496719102
  0
LINE
  5
283
100
AcDbEntity
  8
0
100
AcDbLine
 62
7
  6
CONTINUOUS
 10
61.2856572605
 20
290.1264206136
 11
61.2856154528
 21
290.0883638459
  0
LINE
  5
284
100
AcDbEntity
  8
0
100
AcDbLine
 62
7
  6
CONTINUOUS
 10
40.8424991768
 20
290.2057554252
 11
40.8199583741
 21
290.2187365075
  0
LINE
  5
285
100
AcDbEntity
  8
0
100
AcDbLine
 62
7
  6
CONTINUOUS
 10
58.7961242749
 20
304.8526879115
 11
58.8781974224
 21
304.3988604117
  0
LWPOLYLINE
  5
286
100
AcDbEntity
  8
0
100
AcDbPolyline
 62
7
  6
CONTINUOUS
 90
3
 70
0
 10
60.3756742815
 20
301.79064526
 10
60.2906199676
 20
302.268994188
 10
59.4550501885
 20
304.9870988354
  0
LINE
  5
287
100
AcDbEntity
  8
0
100
AcDbLine
 62
7
  6
CONTINUOUS
 10
60.3876973978
 20
301.7154082494
 11
60.3755985144
 21
301.7910234927
  0
LINE
  5
288
100
AcDbEntity
  8
0
100
AcDbLine
 62
7
  6
CONTINUOUS
 10
60.7418730623
 20
301.6327683874
 11
59.192402836
 21
305.5421143186
  0
LINE
  5
289
100
AcDbEntity
  8
0
100
AcDbLine
 62
7
  6
CONTINUOUS
 10
58.2627339291
 20
306.9272857142
 11
58.2628985305
 21
306.9270879779
  0
LINE
  5
28A
100
AcDbEntity
  8
0
100
AcDbLine
 62
7
  6
CONTINUOUS
 10
59.192402836
 20
305.5421143186
 11
57.7911122845
 21
307.700850453
  0
LINE
  5
28B
100
AcDbEntity
  8
0
100
AcDbLine
 62
7
  6
CONTINUOUS
 10
59.4550501885
 20
304.9870988354
 11
58.2628985305
 21
306.9270879779
  0
ARC
  5
28C
100
AcDbEntity
  8
0
100
AcDbCircle
 62
7
  6
CONTINUOUS
 10
11.8891930825
 20
260.4435846385
 40
60.683265881
100
AcDbArc
 50
104.8329140162
 51
105.0268516652
  0
ARC
  5
28D
100
AcDbEntity
  8
0
100
AcDbCircle
 62
7
  6
CONTINUOUS
 10
33.2217214647
 20
232.8239656535
 40
56.1011917555
100
AcDbArc
 50
112.5556716644
 51
119.863975248
  0
ARC
  5
28E
100
AcDbEntity
  8
0
100
AcDbCircle
 62
7
  6
CONTINUOUS
 10
-12.6155557207
 20
249.7638885083
 40
40.6758288449
100
AcDbArc
 50
79.6414043285
 51
85.0821436295
  0
ARC
  5
28F
100
AcDbEntity
  8
0
100
AcDbCircle
 62
7
  6
CONTINUOUS
 10
-36.9822321306
 20
206.8985830015
 40
3.6075788839
100
AcDbArc
 50
74.6818951274
 51
80.6616708646
  0
ARC
  5
290
100
AcDbEntity
  8
0
100
AcDbCircle
 62
7
  6
CONTINUOUS
 10
-357.5208901309
 20
274.4204672394
 40
385.6633668708
100
AcDbArc
 50
1.5717211073
 51
1.9805158206
  0
ARC
  5
291
100
AcDbEntity
  8
0
100
AcDbCircle
 62
7
  6
CONTINUOUS
 10
-94.0870754318
 20
277.3415438201
 40
137.1827753135
100
AcDbArc
 50
4.3677819553
 51
5.5102493989
  0
ARC
  5
292
100
AcDbEntity
  8
0
100
AcDbCircle
 62
7
  6
CONTINUOUS
 10
-34.8328643639
 20
282.4007410499
 40
88.9812834709
100
AcDbArc
 50
6.5694205483
 51
8.3094070517
  0
ARC
  5
293
100
AcDbEntity
  8
0
100
AcDbCircle
 62
7
  6
CONTINUOUS
 10
-50.0843280826
 20
287.2214205943
 40
34.9713273936
100
AcDbArc
 50
343.1609998951
 51
347.6880882856
  0
ARC
  5
294
100
AcDbEntity
  8
0
100
AcDbCircle
 62
7
  6
CONTINUOUS
 10
-49.3180681976
 20
287.0485823949
 40
34.1858360591
100
AcDbArc
 50
347.6972574912
 51
348.1094625164
  0
ARC
  5
295
100
AcDbEntity
  8
0
100
AcDbCircle
 62
7
  6
CONTINUOUS
 10
-12.5204093128
 20
290.2310132805
 40
73.8070645396
100
AcDbArc
 50
0.2750475159
 51
8.9516130033
  0
ARC
  5
296
100
AcDbEntity
  8
0
100
AcDbCircle
 62
7
  6
CONTINUOUS
 10
-11.874451364
 20
288.8771576588
 40
71.488414317
100
AcDbArc
 50
7.8524127541
 51
9.9779238289
  0
ARC
  5
297
100
AcDbEntity
  8
0
100
AcDbCircle
 62
7
  6
CONTINUOUS
 10
11.5086733393
 20
261.7681962811
 40
59.3053287301
100
AcDbArc
 50
105.0036373886
 51
105.6961971745
  0
ARC
  5
298
100
AcDbEntity
  8
0
100
AcDbCircle
 62
7
  6
CONTINUOUS
 10
12.7247314062
 20
266.9765395821
 40
52.7570074649
100
AcDbArc
 50
104.4928376401
 51
105.0044625829
  0
ARC
  5
299
100
AcDbEntity
  8
0
100
AcDbCircle
 62
7
  6
CONTINUOUS
 10
13.1490239775
 20
292.7033133235
 40
48.3467175838
100
AcDbArc
 50
356.9444879221
 51
357.4912563931
  0
ARC
  5
29A
100
AcDbEntity
  8
0
100
AcDbCircle
 62
7
  6
CONTINUOUS
 10
16.1928368684
 20
292.2216269204
 40
45.8001802509
100
AcDbArc
 50
357.9205464775
 51
358.7912543987
  0
ARC
  5
29B
100
AcDbEntity
  8
0
100
AcDbCircle
 62
7
  6
CONTINUOUS
 10
15.9612676088
 20
290.3539420493
 40
45.3251251281
100
AcDbArc
 50
359.7124708522
 51
0.2924893301
  0
ARC
  5
29C
100
AcDbEntity
  8
0
100
AcDbCircle
 62
7
  6
CONTINUOUS
 10
18.7360182185
 20
292.1738287065
 40
43.2565569142
100
AcDbArc
 50
358.7834913042
 51
1.3345578124
  0
ARC
  5
29D
100
AcDbEntity
  8
0
100
AcDbCircle
 62
7
  6
CONTINUOUS
 10
-16.0992837969
 20
280.2321490581
 40
10.2062252026
100
AcDbArc
 50
118.5117079242
 51
120.9334061317
  0
ARC
  5
29E
100
AcDbEntity
  8
0
100
AcDbCircle
 62
7
  6
CONTINUOUS
 10
-16.0989727999
 20
280.0665541981
 40
9.9454266315
100
AcDbArc
 50
145.2316197375
 51
146.5076228432
  0
ARC
  5
29F
100
AcDbEntity
  8
0
100
AcDbCircle
 62
7
  6
CONTINUOUS
 10
-21.4994369614
 20
292.9265857866
 40
5.453580313
100
AcDbArc
 50
178.1998945522
 51
179.0298189403
  0
ARC
  5
2A0
100
AcDbEntity
  8
0
100
AcDbCircle
 62
7
  6
CONTINUOUS
 10
-2.3273649762
 20
325.2816064574
 40
33.9784970679
100
AcDbArc
 50
244.9481095824
 51
245.4175273077
  0
ARC
  5
2A1
100
AcDbEntity
  8
0
100
AcDbCircle
 62
7
  6
CONTINUOUS
 10
-2.036252248
 20
319.8664936248
 40
29.2836577759
100
AcDbArc
 50
239.990064278
 51
240.4859811799
  0
ARC
  5
2A2
100
AcDbEntity
  8
0
100
AcDbCircle
 62
7
  6
CONTINUOUS
 10
2.987145408
 20
321.8060633948
 40
25.1491680494
100
AcDbArc
 50
240.5192068904
 51
243.5381763177
  0
ARC
  5
2A3
100
AcDbEntity
  8
0
100
AcDbCircle
 62
7
  6
CONTINUOUS
 10
32.3928563545
 20
321.1776216194
 40
24.4344750289
100
AcDbArc
 50
297.5093245935
 51
300.5907923869
  0
ARC
  5
2A4
100
AcDbEntity
  8
0
100
AcDbCircle
 62
7
  6
CONTINUOUS
 10
37.2309962392
 20
318.5731496976
 40
23.3762180152
100
AcDbArc
 50
299.9034899915
 51
300.7337570508
  0
ARC
  5
2A5
100
AcDbEntity
  8
0
100
AcDbCircle
 62
7
  6
CONTINUOUS
 10
33.007313657
 20
294.4517993668
 40
23.1949594028
100
AcDbArc
 50
59.9912984144
 51
60.4990854164
  0
ARC
  5
2A6
100
AcDbEntity
  8
0
100
AcDbCircle
 62
7
  6
CONTINUOUS
 10
1.8607648878
 20
319.7997986672
 40
22.8483464132
100
AcDbArc
 50
239.4910654218
 51
240.5021321924
  0
ARC
  5
2A7
100
AcDbEntity
  8
0
100
AcDbCircle
 62
7
  6
CONTINUOUS
 10
-0.101826061
 20
297.9243233903
 40
19.1182350858
100
AcDbArc
 50
123.2260688735
 51
123.8178006117
  0
ARC
  5
2A8
100
AcDbEntity
  8
0
100
AcDbCircle
 62
7
  6
CONTINUOUS
 10
-7.4297550966
 20
301.7800203426
 40
14.6801807141
100
AcDbArc
 50
132.356584392
 51
132.9486270091
  0
ARC
  5
2A9
100
AcDbEntity
  8
0
100
AcDbCircle
 62
7
  6
CONTINUOUS
 10
-8.284594029
 20
302.6797016925
 40
13.4392136066
100
AcDbArc
 50
132.8943927402
 51
136.342459457
  0
ARC
  5
2AA
100
AcDbEntity
  8
0
100
AcDbCircle
 62
7
  6
CONTINUOUS
 10
-13.3300802367
 20
302.8909101624
 40
10.6115065766
100
AcDbArc
 50
160.085843358
 51
161.4804633096
  0
ARC
  5
2AB
100
AcDbEntity
  8
0
100
AcDbCircle
 62
7
  6
CONTINUOUS
 10
-14.7730633055
 20
307.0099016156
 40
10.6093222052
100
AcDbArc
 50
218.8614045124
 51
219.8797283992
  0
ARC
  5
2AC
100
AcDbEntity
  8
0
100
AcDbCircle
 62
7
  6
CONTINUOUS
 10
-13.593542002
 20
302.9765551259
 40
10.3344851296
100
AcDbArc
 50
161.4667528917
 51
169.5406097401
  0
ARC
  5
2AD
100
AcDbEntity
  8
0
100
AcDbCircle
 62
7
  6
CONTINUOUS
 10
-15.2025282425
 20
304.4812384117
 40
8.8169868833
100
AcDbArc
 50
207.8920769661
 51
208.9942688782
  0
ARC
  5
2AE
100
AcDbEntity
  8
0
100
AcDbCircle
 62
7
  6
CONTINUOUS
 10
-12.9718977726
 20
306.2213005963
 40
7.537405051
100
AcDbArc
 50
154.5062877379
 51
155.1343071916
  0
ARC
  5
2AF
100
AcDbEntity
  8
0
100
AcDbCircle
 62
7
  6
CONTINUOUS
 10
-8.8898135073
 20
307.0040832291
 40
5.6506280372
100
AcDbArc
 50
202.1104641588
 51
205.3125490509
  0
ARC
  5
2B0
100
AcDbEntity
  8
0
100
AcDbCircle
 62
7
  6
CONTINUOUS
 10
-18.0323009382
 20
305.5961220902
 40
5.464330426
100
AcDbArc
 50
170.0999021693
 51
171.1659520831
  0
ARC
  5
2B1
100
AcDbEntity
  8
0
100
AcDbCircle
 62
7
  6
CONTINUOUS
 10
-18.0805745594
 20
305.6035554914
 40
5.4154878908
100
AcDbArc
 50
171.1652293974
 51
172.8602437354
  0
ARC
  5
2B2
100
AcDbEntity
  8
0
100
AcDbCircle
 62
7
  6
CONTINUOUS
 10
-18.1632792968
 20
305.6134144122
 40
5.3321991092
100
AcDbArc
 50
172.8549044437
 51
178.2022949286
  0
ARC
  5
2B3
100
AcDbEntity
  8
0
100
AcDbCircle
 62
7
  6
CONTINUOUS
 10
-9.2095963921
 20
305.7318896521
 40
5.2740787165
100
AcDbArc
 50
164.4423610775
 51
170.4172062412
  0
ARC
  5
2B4
100
AcDbEntity
  8
0
100
AcDbCircle
 62
7
  6
CONTINUOUS
 10
-9.4044238552
 20
305.7669201158
 40
5.0761386854
100
AcDbArc
 50
170.441002182
 51
174.1783254925
  0
ARC
  5
2B5
100
AcDbEntity
  8
0
100
AcDbCircle
 62
7
  6
CONTINUOUS
 10
-9.4713196226
 20
306.634081426
 40
5.0087701612
100
AcDbArc
 50
171.3585921808
 51
179.9705613343
  0
ARC
  5
2B6
100
AcDbEntity
  8
0
100
AcDbCircle
 62
7
  6
CONTINUOUS
 10
-9.3160249726
 20
307.3749660969
 40
4.9640515878
100
AcDbArc
 50
180.0166938593
 51
187.8403496099
  0
ARC
  5
2B7
100
AcDbEntity
  8
0
100
AcDbCircle
 62
7
  6
CONTINUOUS
 10
-19.2366169328
 20
305.996931674
 40
3.9945560891
100
AcDbArc
 50
154.0569604678
 51
158.2623084026
  0
ARC
  5
2B8
100
AcDbEntity
  8
0
100
AcDbCircle
 62
7
  6
CONTINUOUS
 10
-23.1777705749
 20
306.4931397891
 40
0.2412589398
100
AcDbArc
 50
163.5241988812
 51
169.8634165904
  0
ARC
  5
2B9
100
AcDbEntity
  8
0
100
AcDbCircle
 62
7
  6
CONTINUOUS
 10
17.515376442
 20
391.7334447987
 40
104.3408257061
100
AcDbArc
 50
265.9749174157
 51
274.641461659
  0
ARC
  5
2BA
100
AcDbEntity
  8
0
100
AcDbCircle
 62
7
  6
CONTINUOUS
 10
17.3092021502
 20
388.1894184536
 40
100.7910850105
100
AcDbArc
 50
265.7332262809
 51
265.9504083297
  0
ARC
  5
2BB
100
AcDbEntity
  8
0
100
AcDbCircle
 62
7
  6
CONTINUOUS
 10
17.8365046187
 20
386.8401919297
 40
99.43770413
100
AcDbArc
 50
274.6851677367
 51
274.9033719079
  0
ARC
  5
2BC
100
AcDbEntity
  8
0
100
AcDbCircle
 62
7
  6
CONTINUOUS
 10
10.7607493108
 20
381.2628457039
 40
93.8836676498
100
AcDbArc
 50
269.4032554642
 51
270.6222209481
  0
ARC
  5
2BD
100
AcDbEntity
  8
0
100
AcDbCircle
 62
7
  6
CONTINUOUS
 10
12.9314817678
 20
380.205817065
 40
92.5964357523
100
AcDbArc
 50
268.0640377994
 51
268.3042381116
  0
ARC
  5
2BE
100
AcDbEntity
  8
0
100
AcDbCircle
 62
7
  6
CONTINUOUS
 10
15.7648049581
 20
369.4963590661
 40
82.4108281124
100
AcDbArc
 50
277.1107649466
 51
277.3699116276
  0
ARC
  5
2BF
100
AcDbEntity
  8
0
100
AcDbCircle
 62
7
  6
CONTINUOUS
 10
14.2131958815
 20
366.4302930011
 40
79.865061796
100
AcDbArc
 50
278.5138605574
 51
279.8765315841
  0
ARC
  5
2C0
100
AcDbEntity
  8
0
100
AcDbCircle
 62
7
  6
CONTINUOUS
 10
7.6167406999
 20
362.7555508078
 40
74.1132860828
100
AcDbArc
 50
259.9616854899
 51
261.3906949955
  0
ARC
  5
2C1
100
AcDbEntity
  8
0
100
AcDbCircle
 62
7
  6
CONTINUOUS
 10
8.790035229
 20
358.5309526965
 40
69.8988910608
100
AcDbArc
 50
258.4677031138
 51
258.7578988147
  0
ARC
  5
2C2
100
AcDbEntity
  8
0
100
AcDbCircle
 62
7
  6
CONTINUOUS
 10
23.088704018
 20
356.4447571381
 40
68.5591821967
100
AcDbArc
 50
283.6090601634
 51
284.8013334155
  0
ARC
  5
2C3
100
AcDbEntity
  8
0
100
AcDbCircle
 62
7
  6
CONTINUOUS
 10
11.8820870256
 20
356.1634064261
 40
68.2690335259
100
AcDbArc
 50
255.5419618357
 51
255.8240098348
  0
ARC
  5
2C4
100
AcDbEntity
  8
0
100
AcDbCircle
 62
7
  6
CONTINUOUS
 10
23.8935756361
 20
353.3654716533
 40
65.3759328207
100
AcDbArc
 50
285.0053044754
 51
285.2945087599
  0
ARC
  5
2C5
100
AcDbEntity
  8
0
100
AcDbCircle
 62
7
  6
CONTINUOUS
 10
24.9166443727
 20
349.6709680813
 40
61.5424052798
100
AcDbArc
 50
285.2830778575
 51
287.6609729338
  0
ARC
  5
2C6
100
AcDbEntity
  8
0
100
AcDbCircle
 62
7
  6
CONTINUOUS
 10
23.1642375303
 20
353.0174705815
 40
60.7151902008
100
AcDbArc
 50
284.8115800187
 51
285.0055181574
  0
ARC
  5
2C7
100
AcDbEntity
  8
0
100
AcDbCircle
 62
7
  6
CONTINUOUS
 10
22.4271164921
 20
347.1546580386
 40
52.3209005787
100
AcDbArc
 50
284.7889009095
 51
285.0054617759
  0
ARC
  5
2C8
100
AcDbEntity
  8
0
100
AcDbCircle
 62
7
  6
CONTINUOUS
 10
25.6346719155
 20
336.1207255056
 40
48.3679299758
100
AcDbArc
 50
288.3256822969
 51
288.6956236679
  0
ARC
  5
2C9
100
AcDbEntity
  8
0
100
AcDbCircle
 62
7
  6
CONTINUOUS
 10
25.5764428418
 20
332.1669886675
 40
44.9450352707
100
AcDbArc
 50
290.0624864722
 51
292.0668871333
  0
ARC
  5
2CA
100
AcDbEntity
  8
0
100
AcDbCircle
 62
7
  6
CONTINUOUS
 10
-2.1988453479
 20
328.8139854811
 40
37.5549473721
100
AcDbArc
 50
246.9606203888
 51
249.1932277272
  0
ARC
  5
2CB
100
AcDbEntity
  8
0
100
AcDbCircle
 62
7
  6
CONTINUOUS
 10
202.6116500682
 20
131.0592229865
 40
223.9132823465
100
AcDbArc
 50
137.3326660685
 51
139.9759169972
  0
ARC
  5
2CC
100
AcDbEntity
  8
0
100
AcDbCircle
 62
7
  6
CONTINUOUS
 10
196.6334262178
 20
136.7137640547
 40
215.6852019377
100
AcDbArc
 50
135.5373678361
 51
137.360852522
  0
ARC
  5
2CD
100
AcDbEntity
  8
0
100
AcDbCircle
 62
7
  6
CONTINUOUS
 10
73.1121756147
 20
212.6826963873
 40
85.2345353682
100
AcDbArc
 50
121.958282891
 51
126.874728864
  0
ARC
  5
2CE
100
AcDbEntity
  8
0
100
AcDbCircle
 62
7
  6
CONTINUOUS
 10
56.2582896116
 20
243.5762567863
 40
49.1118191839
100
AcDbArc
 50
108.294174439
 51
110.273208351
  0
ARC
  5
2CF
100
AcDbEntity
  8
0
100
AcDbCircle
 62
7
  6
CONTINUOUS
 10
53.1430578406
 20
244.3658497397
 40
47.4801156944
100
AcDbArc
 50
105.3137016677
 51
107.0757370511
  0
ARC
  5
2D0
100
AcDbEntity
  8
0
100
AcDbCircle
 62
7
  6
CONTINUOUS
 10
52.3978132458
 20
246.9844371256
 40
44.7576895258
100
AcDbArc
 50
104.9916266426
 51
105.2788749883
  0
ARC
  5
2D1
100
AcDbEntity
  8
0
100
AcDbCircle
 62
7
  6
CONTINUOUS
 10
55.0339545861
 20
250.8198082782
 40
41.5718285414
100
AcDbArc
 50
109.7376104233
 51
112.1915465708
  0
ARC
  5
2D2
100
AcDbEntity
  8
0
100
AcDbCircle
 62
7
  6
CONTINUOUS
 10
433.863190772
 20
274.0530219802
 40
422.2933944158
100
AcDbArc
 50
178.1908872643
 51
178.5642712187
  0
ARC
  5
2D3
100
AcDbEntity
  8
0
100
AcDbCircle
 62
7
  6
CONTINUOUS
 10
136.997351056
 20
276.2940704221
 40
141.0923199735
100
AcDbArc
 50
174.6386251508
 51
175.749874302
  0
ARC
  5
2D4
100
AcDbEntity
  8
0
100
AcDbCircle
 62
7
  6
CONTINUOUS
 10
73.7854991991
 20
280.8310124701
 40
90.2479447576
100
AcDbArc
 50
171.7966359996
 51
173.5134134537
  0
ARC
  5
2D5
100
AcDbEntity
  8
0
100
AcDbCircle
 62
7
  6
CONTINUOUS
 10
49.2421394914
 20
292.6294487084
 40
75.4899795965
100
AcDbArc
 50
172.3725601929
 51
177.9014184708
  0
ARC
  5
2D6
100
AcDbEntity
  8
0
100
AcDbCircle
 62
7
  6
CONTINUOUS
 10
49.001239637
 20
291.4604727795
 40
73.979804146
100
AcDbArc
 50
169.57051455
 51
170.977993594
  0
ARC
  5
2D7
100
AcDbEntity
  8
0
100
AcDbCircle
 62
7
  6
CONTINUOUS
 10
48.3126548973
 20
287.0230137214
 40
71.9582843058
100
AcDbArc
 50
170.0689160699
 51
172.1826509633
  0
ARC
  5
2D8
100
AcDbEntity
  8
0
100
AcDbCircle
 62
7
  6
CONTINUOUS
 10
38.1767608961
 20
317.9973495685
 40
27.1144543496
100
AcDbArc
 50
300.9818930043
 51
301.5030476204
  0
ARC
  5
2D9
100
AcDbEntity
  8
0
100
AcDbCircle
 62
7
  6
CONTINUOUS
 10
41.45646749
 20
308.8608976466
 40
17.7216106448
100
AcDbArc
 50
307.1880650435
 51
307.9113317696
  0
ARC
  5
2DA
100
AcDbEntity
  8
0
100
AcDbCircle
 62
7
  6
CONTINUOUS
 10
40.6553804348
 20
299.6684859065
 40
17.4643701643
100
AcDbArc
 50
49.6144411719
 51
52.7140115066
  0
ARC
  5
2DB
100
AcDbEntity
  8
0
100
AcDbCircle
 62
7
  6
CONTINUOUS
 10
41.8514316526
 20
301.0946010045
 40
15.6031463607
100
AcDbArc
 50
47.6793362673
 51
49.5667570385
  0
ARC
  5
2DC
100
AcDbEntity
  8
0
100
AcDbCircle
 62
7
  6
CONTINUOUS
 10
47.3846317948
 20
302.4637353051
 40
11.68624896
100
AcDbArc
 50
26.4920255285
 51
27.0236418157
  0
ARC
  5
2DD
100
AcDbEntity
  8
0
100
AcDbCircle
 62
7
  6
CONTINUOUS
 10
47.760514732
 20
302.6465091532
 40
11.2683052811
100
AcDbArc
 50
22.22745661
 51
26.5128187251
  0
ARC
  5
2DE
100
AcDbEntity
  8
0
100
AcDbCircle
 62
7
  6
CONTINUOUS
 10
50.7797816583
 20
304.209185013
 40
8.2145468208
100
AcDbArc
 50
334.2687496126
 51
335.4259429865
  0
ARC
  5
2DF
100
AcDbEntity
  8
0
100
AcDbCircle
 62
7
  6
CONTINUOUS
 10
52.3185861665
 20
303.6589970162
 40
6.5866139267
100
AcDbArc
 50
6.4410101847
 51
10.4412444971
  0
ARC
  5
2E0
100
AcDbEntity
  8
0
100
AcDbCircle
 62
7
  6
CONTINUOUS
 10
52.262717853
 20
301.4473115034
 40
6.2726403589
100
AcDbArc
 50
350.8237547305
 51
358.3241548213
  0
ARC
  5
2E1
100
AcDbEntity
  8
0
100
AcDbCircle
 62
7
  6
CONTINUOUS
 10
52.3659444534
 20
301.9181327432
 40
5.9910241568
100
AcDbArc
 50
347.6827058062
 51
349.1754644899
  0
ARC
  5
2E2
100
AcDbEntity
  8
0
100
AcDbCircle
 62
7
  6
CONTINUOUS
 10
44.0986609761
 20
305.6937733992
 40
5.4295152358
100
AcDbArc
 50
12.6759077778
 51
17.7101273384
  0
ARC
  5
2E3
100
AcDbEntity
  8
0
100
AcDbCircle
 62
7
  6
CONTINUOUS
 10
44.3187661237
 20
305.7451225679
 40
5.2035071884
100
AcDbArc
 50
9.6413975781
 51
12.656102957
  0
ARC
  5
2E4
100
AcDbEntity
  8
0
100
AcDbCircle
 62
7
  6
CONTINUOUS
 10
44.4594430043
 20
305.768761483
 40
5.0608582633
100
AcDbArc
 50
5.0069839799
 51
9.6442924244
  0
ARC
  5
2E5
100
AcDbEntity
  8
0
100
AcDbCircle
 62
7
  6
CONTINUOUS
 10
44.486037063
 20
306.6309327285
 40
5.0340900775
100
AcDbArc
 50
3.9128659582
 51
8.7389359856
  0
ARC
  5
2E6
100
AcDbEntity
  8
0
100
AcDbCircle
 62
7
  6
CONTINUOUS
 10
44.3479769097
 20
307.3756479307
 40
4.9719212791
100
AcDbArc
 50
352.1000340298
 51
359.9754752015
  0
ARC
  5
2E7
100
AcDbEntity
  8
0
100
AcDbCircle
 62
7
  6
CONTINUOUS
 10
44.558309116
 20
306.6367810068
 40
4.9615874917
100
AcDbArc
 50
0.1425082047
 51
3.9024399623
  0
SPLINE
  5
2E8
100
AcDbEntity
  8
0
100
AcDbSpline
 62
7
  6
CONTINUOUS
 70
0
 71
3
 72
15
 73
11
 74
0
 42
0.0000001
 43
0.0000001
 44
0.0000000001
 40
0.0
 40
0.0
 40
0.0
 40
0.0
 40
0.0836175766
 40
0.1735327936
 40
0.2745582891
 40
0.3895840814
 40
0.5198999086
 40
0.6656225368
 40
0.8260944682
 40
1.0
 40
1.0
 40
1.0
 40
1.0
 10
-14.2800763497
 20
307.3735197569
 30
0.0
 10
-14.2800460085
 20
307.8854467846
 30
0.0
 10
-14.1081925847
 20
308.9537687273
 30
0.0
 10
-13.365142253
 20
310.4821898838
 30
0.0
 10
-12.1695626207
 20
311.9413685929
 30
0.0
 10
-10.547365287
 20
313.320326927
 30
0.0
 10
-8.5216787485
 20
314.6076304515
 30
0.0
 10
-6.1194985952
 20
315.7883993753
 30
0.0
 10
-3.3739823851
 20
316.8466247453
 30
0.0
 10
-1.412369367
 20
317.4388120342
 30
0.0
 10
-0.383983462
 20
317.7144765143
 30
0.0
  0
SPLINE
  5
2E9
100
AcDbEntity
  8
0
100
AcDbSpline
 62
7
  6
CONTINUOUS
 70
0
 71
3
 72
19
 73
15
 74
0
 42
0.0000001
 43
0.0000001
 44
0.0000000001
 40
0.0
 40
0.0
 40
0.0
 40
0.0
 40
0.1437927501
 40
0.2990289408
 40
0.4562714565
 40
0.6058605483
 40
0.6750130013
 40
0.7390970209
 40
0.7973619681
 40
0.8493061298
 40
0.8947794449
 40
0.9341460629
 40
0.9685228895
 40
1.0
 40
1.0
 40
1.0
 40
1.0
 10
-0.383983462
 20
317.7144765143
 30
0.0
 10
2.1397377126
 20
318.390973812
 30
0.0
 10
7.4963051741
 20
319.403421951
 30
0.0
 10
15.7788571398
 20
320.0156046686
 30
0.0
 10
24.1858946871
 20
319.7588101934
 30
0.0
 10
30.9702588982
 20
318.8158225364
 30
0.0
 10
35.9700751219
 20
317.6112990665
 30
0.0
 10
39.2870228567
 20
316.5471363887
 30
0.0
 10
42.2112464293
 20
315.318454278
 30
0.0
 10
44.6926593243
 20
313.9459940339
 30
0.0
 10
46.6905162609
 20
312.4506726546
 30
0.0
 10
48.1718373118
 20
310.8480941241
 30
0.0
 10
49.1016697613
 20
309.1497406077
 30
0.0
 10
49.3199316327
 20
307.9454815302
 30
0.0
 10
49.3198977333
 20
307.3735197572
 30
0.0
  0
SPLINE
  5
2EA
100
AcDbEntity
  8
0
100
AcDbSpline
 62
7
  6
CONTINUOUS
 70
0
 71
3
 72
9
 73
5
 74
0
 42
0.0000001
 43
0.0000001
 44
0.0000000001
 40
0.0
 40
0.0
 40
0.0
 40
0.0
 40
0.2467995379
 40
1.0
 40
1.0
 40
1.0
 40
1.0
 10
49.2727123929
 20
306.6922873926
 30
0.0
 10
49.2613142045
 20
306.610020194
 30
0.0
 10
49.2069268597
 20
306.277853929
 30
0.0
 10
49.119790479
 20
305.9511981943
 30
0.0
 10
49.0380500495
 20
305.7112728847
 30
0.0
  0
SPLINE
  5
2EB
100
AcDbEntity
  8
0
100
AcDbSpline
 62
7
  6
CONTINUOUS
 70
0
 71
3
 72
14
 73
10
 74
0
 42
0.0000001
 43
0.0000001
 44
0.0000000001
 40
0.0
 40
0.0
 40
0.0
 40
0.0
 40
0.0856942216
 40
0.1803884929
 40
0.2862652217
 40
0.4044794541
 40
0.5353989279
 40
0.6787946145
 40
1.0
 40
1.0
 40
1.0
 40
1.0
 10
49.0380500495
 20
305.7112728847
 30
0.0
 10
48.8843943258
 20
305.2602610986
 30
0.0
 10
48.4389608061
 20
304.3502656206
 30
0.0
 10
47.4575896153
 20
303.0868647477
 30
0.0
 10
46.1529481725
 20
301.8776315299
 30
0.0
 10
44.5397902268
 20
300.7325691484
 30
0.0
 10
42.6345404896
 20
299.6610987471
 30
0.0
 10
39.6158770079
 20
298.2932463849
 30
0.0
 10
37.1488370759
 20
297.4949673469
 30
0.0
 10
35.4238048455
 20
297.0325629998
 30
0.0
  0
SPLINE
  5
2EC
100
AcDbEntity
  8
0
100
AcDbSpline
 62
7
  6
CONTINUOUS
 70
0
 71
3
 72
19
 73
15
 74
0
 42
0.0000001
 43
0.0000001
 44
0.0000000001
 40
0.0
 40
0.0
 40
0.0
 40
0.0
 40
0.1389314148
 40
0.2887827538
 40
0.441528839
 40
0.5888590996
 40
0.6580512907
 40
0.7230682236
 40
0.7831725235
 40
0.837791501
 40
0.8865762469
 40
0.9294904964
 40
0.9669475559
 40
1.0
 40
1.0
 40
1.0
 40
1.0
 10
35.4238048455
 20
297.0325629998
 30
0.0
 10
33.058977584
 20
296.3986580867
 30
0.0
 10
28.0480763101
 20
295.4281249235
 30
0.0
 10
20.2823623465
 20
294.7764973992
 30
0.0
 10
12.3419118246
 20
294.8952839708
 30
0.0
 10
5.8636561079
 20
295.6433310136
 30
0.0
 10
1.00103445
 20
296.6423277951
 30
0.0
 10
-2.3043843724
 20
297.5471832402
 30
0.0
 10
-5.2924497993
 20
298.6081267281
 30
0.0
 10
-7.9167957628
 20
299.8086689764
 30
0.0
 10
-10.1377529538
 20
301.1306372949
 30
0.0
 10
-11.9230131901
 20
302.5576881439
 30
0.0
 10
-13.2454242589
 20
304.0735464054
 30
0.0
 10
-13.8254477056
 20
305.1928266012
 30
0.0
 10
-14.0097093253
 20
305.7453787455
 30
0.0
  0
SPLINE
  5
2ED
100
AcDbEntity
  8
0
100
AcDbSpline
 62
7
  6
CONTINUOUS
 70
0
 71
3
 72
9
 73
5
 74
0
 42
0.0000001
 43
0.0000001
 44
0.0000000001
 40
0.0
 40
0.0
 40
0.0
 40
0.0
 40
0.2537770003
 40
1.0
 40
1.0
 40
1.0
 40
1.0
 10
-14.0097093253
 20
305.7453787455
 30
0.0
 10
-14.0359128976
 20
305.8239563684
 30
0.0
 10
-14.1323296395
 20
306.1358140158
 30
0.0
 10
-14.2004935224
 20
306.4565105849
 30
0.0
 10
-14.2336727022
 20
306.697803654
 30
0.0
  0
SPLINE
  5
2EE
100
AcDbEntity
  8
0
100
AcDbSpline
 62
7
  6
CONTINUOUS
 70
0
 71
3
 72
11
 73
7
 74
0
 42
0.0000001
 43
0.0000001
 44
0.0000000001
 40
0.0
 40
0.0
 40
0.0
 40
0.0
 40
0.2634103434
 40
0.5159329171
 40
0.760204413
 40
1.0
 40
1.0
 40
1.0
 40
1.0
 10
3.1216921209
 20
228.0094823376
 30
0.0
 10
2.1160765777
 20
227.7399215778
 30
0.0
 10
0.0975948271
 20
227.3732205511
 30
0.0
 10
-2.9251768977
 20
227.3880671737
 30
0.0
 10
-5.7952878035
 20
227.9832637355
 30
0.0
 10
-7.5610363566
 20
228.7635616063
 30
0.0
 10
-8.3817438379
 20
229.2376169713
 30
0.0
  0
SPLINE
  5
2EF
100
AcDbEntity
  8
0
100
AcDbSpline
 62
7
  6
CONTINUOUS
 70
0
 71
3
 72
11
 73
7
 74
0
 42
0.0000001
 43
0.0000001
 44
0.0000000001
 40
0.0
 40
0.0
 40
0.0
 40
0.0
 40
0.2717748105
 40
0.5268698752
 40
0.7676346318
 40
1.0
 40
1.0
 40
1.0
 40
1.0
 10
-12.2281394835
 20
241.2753791741
 30
0.0
 10
-12.2281394835
 20
240.8671206695
 30
0.0
 10
-12.1487636394
 20
240.0722909964
 30
0.0
 10
-11.7685959867
 20
238.9712774907
 30
0.0
 10
-11.1456062308
 20
238.0552125672
 30
0.0
 10
-10.5818167474
 20
237.6017224439
 30
0.0
 10
-10.2795447923
 20
237.4271570836
 30
0.0
  0
SPLINE
  5
2F0
100
AcDbEntity
  8
0
100
AcDbSpline
 62
7
  6
CONTINUOUS
 70
0
 71
3
 72
11
 73
7
 74
0
 42
0.0000001
 43
0.0000001
 44
0.0000000001
 40
0.0
 40
0.0
 40
0.0
 40
0.0
 40
0.2717748086
 40
0.5268698864
 40
0.7676346258
 40
1.0
 40
1.0
 40
1.0
 40
1.0
 10
-8.2734773562
 20
255.9544253587
 30
0.0
 10
-8.2734773562
 20
255.5442387589
 30
0.0
 10
-8.1937266296
 20
254.7456553001
 30
0.0
 10
-7.8117635657
 20
253.6394419925
 30
0.0
 10
-7.1858315656
 20
252.7190507582
 30
0.0
 10
-6.6193794829
 20
252.2634188991
 30
0.0
 10
-6.3156799538
 20
252.0880291336
 30
0.0
  0
SPLINE
  5
2F1
100
AcDbEntity
  8
0
100
AcDbSpline
 62
7
  6
CONTINUOUS
 70
0
 71
3
 72
11
 73
7
 74
0
 42
0.0000001
 43
0.0000001
 44
0.0000000001
 40
0.0
 40
0.0
 40
0.0
 40
0.0
 40
0.2717748086
 40
0.5268698864
 40
0.7676346258
 40
1.0
 40
1.0
 40
1.0
 40
1.0
 10
4.5995058849
 20
259.4050990949
 30
0.0
 10
4.5995058849
 20
258.9949124951
 30
0.0
 10
4.6792566114
 20
258.1963290363
 30
0.0
 10
5.0612196753
 20
257.0901157287
 30
0.0
 10
5.6871516755
 20
256.1697244944
 30
0.0
 10
6.2536037581
 20
255.7140926353
 30
0.0
 10
6.5573032873
 20
255.5387028698
 30
0.0
  0
SPLINE
  5
2F2
100
AcDbEntity
  8
0
100
AcDbSpline
 62
7
  6
CONTINUOUS
 70
0
 71
3
 72
11
 73
7
 74
0
 42
0.0000001
 43
0.0000001
 44
0.0000000001
 40
0.0
 40
0.0
 40
0.0
 40
0.0
 40
0.2717748086
 40
0.5268698864
 40
0.7676346258
 40
1.0
 40
1.0
 40
1.0
 40
1.0
 10
8.5774764747
 20
246.8524386022
 30
0.0
 10
8.5774764747
 20
246.4422520024
 30
0.0
 10
8.6572272012
 20
245.6436685435
 30
0.0
 10
9.0391902651
 20
244.537455236
 30
0.0
 10
9.6651222652
 20
243.6170640017
 30
0.0
 10
10.2315743479
 20
243.1614321425
 30
0.0
 10
10.5352738771
 20
242.986042377
 30
0.0
  0
SPLINE
  5
2F3
100
AcDbEntity
  8
0
100
AcDbSpline
 62
7
  6
CONTINUOUS
 70
0
 71
3
 72
10
 73
6
 74
0
 42
0.0000001
 43
0.0000001
 44
0.0000000001
 40
0.0
 40
0.0
 40
0.0
 40
0.0
 40
0.2403281524
 40
0.485096085
 40
1.0
 40
1.0
 40
1.0
 40
1.0
 10
4.0212655263
 20
241.1304151903
 30
0.0
 10
3.8767316872
 20
241.2138684252
 30
0.0
 10
3.5656800314
 20
241.351217304
 30
0.0
 10
2.882053574
 20
241.4935595447
 30
0.0
 10
2.341044279
 20
241.4392565121
 30
0.0
 10
1.9956610421
 20
241.3466746418
 30
0.0
  0
SPLINE
  5
2F4
100
AcDbEntity
  8
0
100
AcDbSpline
 62
7
  6
CONTINUOUS
 70
0
 71
3
 72
9
 73
5
 74
0
 42
0.0000001
 43
0.0000001
 44
0.0000000001
 40
0.0
 40
0.0
 40
0.0
 40
0.0
 40
0.2483373341
 40
1.0
 40
1.0
 40
1.0
 40
1.0
 10
12.296541269
 20
252.5352686676
 30
0.0
 10
12.2483376101
 20
252.5631178128
 30
0.0
 10
12.0491668625
 20
252.6663441339
 30
0.0
 10
11.8309672702
 20
252.7321046262
 30
0.0
 10
11.6647036742
 20
252.7594749834
 30
0.0
  0
SPLINE
  5
2F5
100
AcDbEntity
  8
0
100
AcDbSpline
 62
7
  6
CONTINUOUS
 70
0
 71
3
 72
15
 73
11
 74
0
 42
0.0000001
 43
0.0000001
 44
0.0000000001
 40
0.0
 40
0.0
 40
0.0
 40
0.0
 40
0.0524624807
 40
0.1056459719
 40
0.2162146376
 40
0.3353287776
 40
0.4632708635
 40
0.5978578246
 40
0.7353251938
 40
1.0
 40
1.0
 40
1.0
 40
1.0
 10
16.5370347854
 20
253.3772364
 30
0.0
 10
16.3542153144
 20
253.4828166234
 30
0.0
 10
15.9655435524
 20
253.6619904957
 30
0.0
 10
15.1188741112
 20
253.8791168956
 30
0.0
 10
13.9579665053
 20
253.8631616792
 30
0.0
 10
12.5740554773
 20
253.4065180127
 30
0.0
 10
11.2735981567
 20
252.5622962353
 30
0.0
 10
10.1465460125
 20
251.393427154
 30
0.0
 10
8.9992773726
 20
249.5538225999
 30
0.0
 10
8.5774764747
 20
247.9175273405
 30
0.0
 10
8.5774764747
 20
246.8524386022
 30
0.0
  0
SPLINE
  5
2F6
100
AcDbEntity
  8
0
100
AcDbSpline
 62
7
  6
CONTINUOUS
 70
0
 71
3
 72
9
 73
5
 74
0
 42
0.0000001
 43
0.0000001
 44
0.0000000001
 40
0.0
 40
0.0
 40
0.0
 40
0.0
 40
0.2483373341
 40
1.0
 40
1.0
 40
1.0
 40
1.0
 10
8.3185706793
 20
265.0879291603
 30
0.0
 10
8.2703670204
 20
265.1157783056
 30
0.0
 10
8.0711962727
 20
265.2190046266
 30
0.0
 10
7.8529966804
 20
265.284765119
 30
0.0
 10
7.6867330844
 20
265.3121354762
 30
0.0
  0
SPLINE
  5
2F7
100
AcDbEntity
  8
0
100
AcDbSpline
 62
7
  6
CONTINUOUS
 70
0
 71
3
 72
15
 73
11
 74
0
 42
0.0000001
 43
0.0000001
 44
0.0000000001
 40
0.0
 40
0.0
 40
0.0
 40
0.0
 40
0.0524624807
 40
0.1056459719
 40
0.2162146376
 40
0.3353287776
 40
0.4632708635
 40
0.5978578246
 40
0.7353251938
 40
1.0
 40
1.0
 40
1.0
 40
1.0
 10
12.5590641956
 20
265.9298968927
 30
0.0
 10
12.3762447246
 20
266.0354771161
 30
0.0
 10
11.9875729626
 20
266.2146509885
 30
0.0
 10
11.1409035214
 20
266.4317773883
 30
0.0
 10
9.9799959155
 20
266.415822172
 30
0.0
 10
8.5960848875
 20
265.9591785054
 30
0.0
 10
7.2956275669
 20
265.114956728
 30
0.0
 10
6.1685754228
 20
263.9460876468
 30
0.0
 10
5.0213067828
 20
262.1064830926
 30
0.0
 10
4.5995058849
 20
260.4701878333
 30
0.0
 10
4.5995058849
 20
259.4050990949
 30
0.0
  0
SPLINE
  5
2F8
100
AcDbEntity
  8
0
100
AcDbSpline
 62
7
  6
CONTINUOUS
 70
0
 71
3
 72
9
 73
5
 74
0
 42
0.0000001
 43
0.0000001
 44
0.0000000001
 40
0.0
 40
0.0
 40
0.0
 40
0.0
 40
0.2483373341
 40
1.0
 40
1.0
 40
1.0
 40
1.0
 10
-4.5544125618
 20
261.6372554241
 30
0.0
 10
-4.6026162207
 20
261.6651045694
 30
0.0
 10
-4.8017869684
 20
261.7683308904
 30
0.0
 10
-5.0199865606
 20
261.8340913828
 30
0.0
 10
-5.1862501566
 20
261.86146174
 30
0.0
  0
SPLINE
  5
2F9
100
AcDbEntity
  8
0
100
AcDbSpline
 62
7
  6
CONTINUOUS
 70
0
 71
3
 72
15
 73
11
 74
0
 42
0.0000001
 43
0.0000001
 44
0.0000000001
 40
0.0
 40
0.0
 40
0.0
 40
0.0
 40
0.0524624807
 40
0.1056459719
 40
0.2162146376
 40
0.3353287776
 40
0.4632708635
 40
0.5978578246
 40
0.7353251938
 40
1.0
 40
1.0
 40
1.0
 40
1.0
 10
-0.3139190454
 20
262.4792231565
 30
0.0
 10
-0.4967385164
 20
262.5848033799
 30
0.0
 10
-0.8854102784
 20
262.7639772523
 30
0.0
 10
-1.7320797197
 20
262.9811036521
 30
0.0
 10
-2.8929873255
 20
262.9651484357
 30
0.0
 10
-4.2768983535
 20
262.5085047692
 30
0.0
 10
-5.5773556742
 20
261.6642829918
 30
0.0
 10
-6.7044078183
 20
260.4954139106
 30
0.0
 10
-7.8516764583
 20
258.6558093564
 30
0.0
 10
-8.2734773562
 20
257.0195140971
 30
0.0
 10
-8.2734773562
 20
255.9544253587
 30
0.0
  0
SPLINE
  5
2FA
100
AcDbEntity
  8
0
100
AcDbSpline
 62
7
  6
CONTINUOUS
 70
0
 71
3
 72
9
 73
5
 74
0
 42
0.0000001
 43
0.0000001
 44
0.0000000001
 40
0.0
 40
0.0
 40
0.0
 40
0.0
 40
0.2484649706
 40
1.0
 40
1.0
 40
1.0
 40
1.0
 10
-8.5323831516
 20
246.9519612783
 30
0.0
 10
-8.5786336078
 20
246.9786819817
 30
0.0
 10
-8.7694405702
 20
247.0780196332
 30
0.0
 10
-8.9778292901
 20
247.1429639975
 30
0.0
 10
-9.136858952
 20
247.171464063
 30
0.0
  0
SPLINE
  5
2FB
100
AcDbEntity
  8
0
100
AcDbSpline
 62
7
  6
CONTINUOUS
 70
0
 71
3
 72
15
 73
11
 74
0
 42
0.0000001
 43
0.0000001
 44
0.0000000001
 40
0.0
 40
0.0
 40
0.0
 40
0.0
 40
0.0524624725
 40
0.1056459662
 40
0.2162146426
 40
0.335328794
 40
0.4632708983
 40
0.5978578562
 40
0.7353252271
 40
1.0
 40
1.0
 40
1.0
 40
1.0
 10
-4.3059953865
 20
247.7695069149
 30
0.0
 10
-4.4879554699
 20
247.8745908533
 30
0.0
 10
-4.8748002633
 20
248.0529224623
 30
0.0
 10
-5.7174899003
 20
248.2690283213
 30
0.0
 10
-6.8729407282
 20
248.2531480569
 30
0.0
 10
-8.2503467712
 20
247.7986507854
 30
0.0
 10
-9.544691288
 20
246.9583971696
 30
0.0
 10
-10.6664456742
 20
245.7950223087
 30
0.0
 10
-11.8083213647
 20
243.9640649432
 30
0.0
 10
-12.2281394835
 20
242.3354612875
 30
0.0
 10
-12.2281394835
 20
241.2753791741
 30
0.0
  0
SPLINE
  5
2FC
100
AcDbEntity
  8
0
100
AcDbSpline
 62
7
  6
CONTINUOUS
 70
0
 71
3
 72
9
 73
5
 74
0
 42
0.0000001
 43
0.0000001
 44
0.0000000001
 40
0.0
 40
0.0
 40
0.0
 40
0.0
 40
0.2533234948
 40
1.0
 40
1.0
 40
1.0
 40
1.0
 10
-12.1803967244
 20
241.9163493437
 30
0.0
 10
-12.1450519583
 20
241.8740823764
 30
0.0
 10
-11.998648246
 20
241.7131194906
 30
0.0
 10
-11.8239325264
 20
241.5778176668
 30
0.0
 10
-11.6833124214
 20
241.4965759143
 30
0.0
  0
SPLINE
  5
2FD
100
AcDbEntity
  8
0
100
AcDbSpline
 62
7
  6
CONTINUOUS
 70
0
 71
3
 72
9
 73
5
 74
0
 42
0.0000001
 43
0.0000001
 44
0.0000000001
 40
0.0
 40
0.0
 40
0.0
 40
0.0
 40
0.2536548829
 40
1.0
 40
1.0
 40
1.0
 40
1.0
 10
-8.2238676368
 20
256.6277350011
 30
0.0
 10
-8.1874239395
 20
256.5826076851
 30
0.0
 10
-8.0361048379
 20
256.411026195
 30
0.0
 10
-7.8531239219
 20
256.2672495725
 30
0.0
 10
-7.7053418317
 20
256.1818700601
 30
0.0
  0
SPLINE
  5
2FE
100
AcDbEntity
  8
0
100
AcDbSpline
 62
7
  6
CONTINUOUS
 70
0
 71
3
 72
9
 73
5
 74
0
 42
0.0000001
 43
0.0000001
 44
0.0000000001
 40
0.0
 40
0.0
 40
0.0
 40
0.0
 40
0.2536548829
 40
1.0
 40
1.0
 40
1.0
 40
1.0
 10
4.6491156042
 20
260.0784087373
 30
0.0
 10
4.6855593016
 20
260.0332814213
 30
0.0
 10
4.8368784031
 20
259.8616999312
 30
0.0
 10
5.0198593192
 20
259.7179233088
 30
0.0
 10
5.1676414094
 20
259.6325437963
 30
0.0
  0
SPLINE
  5
2FF
100
AcDbEntity
  8
0
100
AcDbSpline
 62
7
  6
CONTINUOUS
 70
0
 71
3
 72
9
 73
5
 74
0
 42
0.0000001
 43
0.0000001
 44
0.0000000001
 40
0.0
 40
0.0
 40
0.0
 40
0.0
 40
0.2536548829
 40
1.0
 40
1.0
 40
1.0
 40
1.0
 10
8.627086194
 20
247.5257482446
 30
0.0
 10
8.6635298914
 20
247.4806209285
 30
0.0
 10
8.8148489929
 20
247.3090394385
 30
0.0
 10
8.997829909
 20
247.165262816
 30
0.0
 10
9.1456119992
 20
247.0798833035
 30
0.0
  0
SPLINE
  5
300
100
AcDbEntity
  8
0
100
AcDbSpline
 62
7
  6
CONTINUOUS
 70
0
 71
3
 72
11
 73
7
 74
0
 42
0.0000001
 43
0.0000001
 44
0.0000000001
 40
0.0
 40
0.0
 40
0.0
 40
0.0
 40
0.2717668072
 40
0.5268680782
 40
0.7676307415
 40
1.0
 40
1.0
 40
1.0
 40
1.0
 10
-1.3514465111
 20
236.7261589327
 30
0.0
 10
-1.3514465115
 20
236.4492901906
 30
0.0
 10
-1.2976078701
 20
235.9102497138
 30
0.0
 10
-1.0398122119
 20
235.1635434951
 30
0.0
 10
-0.6172913205
 20
234.5422840021
 30
0.0
 10
-0.2349549559
 20
234.234696516
 30
0.0
 10
-0.0299434421
 20
234.1163237244
 30
0.0
  0
SPLINE
  5
301
100
AcDbEntity
  8
0
100
AcDbSpline
 62
7
  6
CONTINUOUS
 70
0
 71
3
 72
12
 73
8
 74
0
 42
0.0000001
 43
0.0000001
 44
0.0000000001
 40
0.0
 40
0.0
 40
0.0
 40
0.0
 40
0.2349899833
 40
0.4894752595
 40
0.6202667695
 40
0.7503904793
 40
1.0
 40
1.0
 40
1.0
 40
1.0
 10
1.9956610421
 20
241.3466746418
 30
0.0
 10
1.5365217075
 20
241.2235998258
 30
0.0
 10
0.631462872
 20
240.76121213
 30
0.0
 10
-0.2557278884
 20
239.8467991338
 30
0.0
 10
-0.804168581
 20
238.955948507
 30
0.0
 10
-1.2108385377
 20
238.0042801738
 30
0.0
 10
-1.3514465103
 20
237.2310806618
 30
0.0
 10
-1.3514465111
 20
236.7261589327
 30
0.0
  0
SPLINE
  5
302
100
AcDbEntity
  8
0
100
AcDbSpline
 62
7
  6
CONTINUOUS
 70
0
 71
3
 72
21
 73
17
 74
0
 42
0.0000001
 43
0.0000001
 44
0.0000000001
 40
0.0
 40
0.0
 40
0.0
 40
0.0
 40
0.0524705347
 40
0.1058422668
 40
0.1608890322
 40
0.2181647006
 40
0.2779603765
 40
0.3403046685
 40
0.404991693
 40
0.4716227035
 40
0.6081929828
 40
0.7450058844
 40
0.811922784
 40
0.8769822192
 40
0.9397548461
 40
1.0
 40
1.0
 40
1.0
 40
1.0
 10
14.6251280798
 20
269.0707399217
 30
0.0
 10
15.4115489479
 20
268.6164891197
 30
0.0
 10
16.9074709135
 20
267.5329185977
 30
0.0
 10
18.7988500741
 20
265.4653891923
 30
0.0
 10
20.3030335827
 20
263.0039366318
 30
0.0
 10
21.3850814625
 20
260.2127283663
 30
0.0
 10
22.0228599667
 20
257.1604801958
 30
0.0
 10
22.204003115
 20
253.9207352737
 30
0.0
 10
21.9262188066
 20
250.5699349074
 30
0.0
 10
20.947137905
 20
246.0267409107
 30
0.0
 10
18.6482587666
 20
240.5444544697
 30
0.0
 10
15.1427601068
 20
235.7377185498
 30
0.0
 10
11.754413119
 20
232.5344082711
 30
0.0
 10
9.020489404
 20
230.5450274553
 30
0.0
 10
6.1427995789
 20
229.0014785107
 30
0.0
 10
4.1288872217
 20
228.2794665065
 30
0.0
 10
3.1216921209
 20
228.0094823376
 30
0.0
  0
SPLINE
  5
303
100
AcDbEntity
  8
0
100
AcDbSpline
 62
7
  6
CONTINUOUS
 70
0
 71
3
 72
11
 73
7
 74
0
 42
0.0000001
 43
0.0000001
 44
0.0000000001
 40
0.0
 40
0.0
 40
0.0
 40
0.0
 40
0.2717748086
 40
0.5268698864
 40
0.7676346258
 40
1.0
 40
1.0
 40
1.0
 40
1.0
 10
14.516861598
 20
262.0635006675
 30
0.0
 10
14.516861598
 20
262.4736872674
 30
0.0
 10
14.4371108715
 20
263.2722707262
 30
0.0
 10
14.0551478076
 20
264.3784840338
 30
0.0
 10
13.4292158075
 20
265.298875268
 30
0.0
 10
12.8627637248
 20
265.7545071272
 30
0.0
 10
12.5590641956
 20
265.9298968927
 30
0.0
  0
SPLINE
  5
304
100
AcDbEntity
  8
0
100
AcDbSpline
 62
7
  6
CONTINUOUS
 70
0
 71
3
 72
9
 73
5
 74
0
 42
0.0000001
 43
0.0000001
 44
0.0000000001
 40
0.0
 40
0.0
 40
0.0
 40
0.0
 40
0.4809295891
 40
1.0
 40
1.0
 40
1.0
 40
1.0
 10
-5.9146996429
 20
248.2437022649
 30
0.0
 10
-5.6661589996
 20
247.8648681319
 30
0.0
 10
-5.2850009787
 20
246.9838080967
 30
0.0
 10
-5.1724783924
 20
246.0362410534
 30
0.0
 10
-5.1724783924
 20
245.5472214214
 30
0.0
  0
SPLINE
  5
305
100
AcDbEntity
  8
0
100
AcDbSpline
 62
7
  6
CONTINUOUS
 70
0
 71
3
 72
11
 73
7
 74
0
 42
0.0000001
 43
0.0000001
 44
0.0000000001
 40
0.0
 40
0.0
 40
0.0
 40
0.0
 40
0.2634103434
 40
0.5159329171
 40
0.760204413
 40
1.0
 40
1.0
 40
1.0
 40
1.0
 10
3.1216921209
 20
270.2988745554
 30
0.0
 10
4.1273076642
 20
270.5684353153
 30
0.0
 10
6.1457894148
 20
270.9351363419
 30
0.0
 10
9.1685611396
 20
270.9202897194
 30
0.0
 10
12.0386720454
 20
270.3250931575
 30
0.0
 10
13.8044205984
 20
269.5447952867
 30
0.0
 10
14.6251280798
 20
269.0707399217
 30
0.0
  0
SPLINE
  5
306
100
AcDbEntity
  8
0
100
AcDbSpline
 62
7
  6
CONTINUOUS
 70
0
 71
3
 72
14
 73
10
 74
0
 42
0.0000001
 43
0.0000001
 44
0.0000000001
 40
0.0
 40
0.0
 40
0.0
 40
0.0
 40
0.1052604354
 40
0.2158759227
 40
0.3350393976
 40
0.4630357673
 40
0.5976778338
 40
0.735209708
 40
1.0
 40
1.0
 40
1.0
 40
1.0
 10
9.1456119992
 20
247.0798833035
 30
0.0
 10
9.3380843434
 20
246.9686844777
 30
0.0
 10
9.779522586
 20
246.8139379677
 30
0.0
 10
10.4991485391
 20
246.8250594173
 30
0.0
 10
11.226280756
 20
247.0644212348
 30
0.0
 10
11.9088339677
 20
247.5077471982
 30
0.0
 10
12.5005944004
 20
248.1213669185
 30
0.0
 10
13.1029194603
 20
249.0871647915
 30
0.0
 10
13.3243825088
 20
249.94623138
 30
0.0
 10
13.3243825088
 20
250.5054063984
 30
0.0
  0
SPLINE
  5
307
100
AcDbEntity
  8
0
100
AcDbSpline
 62
7
  6
CONTINUOUS
 70
0
 71
3
 72
11
 73
7
 74
0
 42
0.0000001
 43
0.0000001
 44
0.0000000001
 40
0.0
 40
0.0
 40
0.0
 40
0.0
 40
0.2717748086
 40
0.5268698864
 40
0.7676346258
 40
1.0
 40
1.0
 40
1.0
 40
1.0
 10
18.4948321878
 20
249.5108401748
 30
0.0
 10
18.4948321878
 20
249.9210267746
 30
0.0
 10
18.4150814613
 20
250.7196102334
 30
0.0
 10
18.0331183974
 20
251.825823541
 30
0.0
 10
17.4071863973
 20
252.7462147753
 30
0.0
 10
16.8407343146
 20
253.2018466345
 30
0.0
 10
16.5370347854
 20
253.3772364
 30
0.0
  0
SPLINE
  5
308
100
AcDbEntity
  8
0
100
AcDbSpline
 62
7
  6
CONTINUOUS
 70
0
 71
3
 72
15
 73
11
 74
0
 42
0.0000001
 43
0.0000001
 44
0.0000000001
 40
0.0
 40
0.0
 40
0.0
 40
0.0
 40
0.0524624807
 40
0.1056459719
 40
0.2162146376
 40
0.3353287776
 40
0.4632708635
 40
0.5978578246
 40
0.7353251938
 40
1.0
 40
1.0
 40
1.0
 40
1.0
 10
10.5352738771
 20
242.986042377
 30
0.0
 10
10.7180933481
 20
242.8804621536
 30
0.0
 10
11.1067651101
 20
242.7012882812
 30
0.0
 10
11.9534345513
 20
242.4841618814
 30
0.0
 10
13.1143421572
 20
242.5001170978
 30
0.0
 10
14.4982531852
 20
242.9567607643
 30
0.0
 10
15.7987105058
 20
243.8009825417
 30
0.0
 10
16.92576265
 20
244.969851623
 30
0.0
 10
18.0730312899
 20
246.8094561771
 30
0.0
 10
18.4948321878
 20
248.4457514365
 30
0.0
 10
18.4948321878
 20
249.5108401748
 30
0.0
  0
SPLINE
  5
309
100
AcDbEntity
  8
0
100
AcDbSpline
 62
7
  6
CONTINUOUS
 70
0
 71
3
 72
11
 73
7
 74
0
 42
0.0000001
 43
0.0000001
 44
0.0000000001
 40
0.0
 40
0.0
 40
0.0
 40
0.0
 40
0.2717748086
 40
0.5268698864
 40
0.7676346258
 40
1.0
 40
1.0
 40
1.0
 40
1.0
 10
1.643878357
 20
258.6128269313
 30
0.0
 10
1.643878357
 20
259.0230135312
 30
0.0
 10
1.5641276304
 20
259.82159699
 30
0.0
 10
1.1821645665
 20
260.9278102976
 30
0.0
 10
0.5562325664
 20
261.8482015318
 30
0.0
 10
-0.0102195162
 20
262.303833391
 30
0.0
 10
-0.3139190454
 20
262.4792231565
 30
0.0
  0
SPLINE
  5
30A
100
AcDbEntity
  8
0
100
AcDbSpline
 62
7
  6
CONTINUOUS
 70
0
 71
3
 72
9
 73
5
 74
0
 42
0.0000001
 43
0.0000001
 44
0.0000000001
 40
0.0
 40
0.0
 40
0.0
 40
0.0
 40
0.4808658739
 40
1.0
 40
1.0
 40
1.0
 40
1.0
 10
14.9289226299
 20
253.8537542085
 30
0.0
 10
15.1803048479
 20
253.4725395162
 30
0.0
 10
15.5659611089
 20
252.5849214997
 30
0.0
 10
15.6797544907
 20
251.6297542107
 30
0.0
 10
15.6797544907
 20
251.1367767718
 30
0.0
  0
SPLINE
  5
30B
100
AcDbEntity
  8
0
100
AcDbSpline
 62
7
  6
CONTINUOUS
 70
0
 71
3
 72
14
 73
10
 74
0
 42
0.0000001
 43
0.0000001
 44
0.0000000001
 40
0.0
 40
0.0
 40
0.0
 40
0.0
 40
0.1052604354
 40
0.2158759227
 40
0.3350393976
 40
0.4630357673
 40
0.5976778338
 40
0.735209708
 40
1.0
 40
1.0
 40
1.0
 40
1.0
 10
5.1676414094
 20
259.6325437963
 30
0.0
 10
5.3601137536
 20
259.5213449704
 30
0.0
 10
5.8015519962
 20
259.3665984605
 30
0.0
 10
6.5211779493
 20
259.3777199101
 30
0.0
 10
7.2483101662
 20
259.6170817275
 30
0.0
 10
7.9308633779
 20
260.0604076909
 30
0.0
 10
8.5226238107
 20
260.6740274113
 30
0.0
 10
9.1249488705
 20
261.6398252842
 30
0.0
 10
9.346411919
 20
262.4988918727
 30
0.0
 10
9.346411919
 20
263.0580668911
 30
0.0
  0
SPLINE
  5
30C
100
AcDbEntity
  8
0
100
AcDbSpline
 62
7
  6
CONTINUOUS
 70
0
 71
3
 72
14
 73
10
 74
0
 42
0.0000001
 43
0.0000001
 44
0.0000000001
 40
0.0
 40
0.0
 40
0.0
 40
0.0
 40
0.2686164723
 40
0.3932530389
 40
0.5129262831
 40
0.6303784462
 40
0.7488454196
 40
0.8713344666
 40
1.0
 40
1.0
 40
1.0
 40
1.0
 10
-1.8783080511
 20
235.632717359
 30
0.0
 10
-1.8783080521
 20
234.9454211348
 30
0.0
 10
-1.7067634455
 20
233.9184453345
 30
0.0
 10
-1.074149373
 20
232.7573497266
 30
0.0
 10
-0.4437464535
 20
232.0659786486
 30
0.0
 10
0.3292192557
 20
231.566794136
 30
0.0
 10
1.2114570737
 20
231.2815856144
 30
0.0
 10
2.1639081633
 20
231.220471653
 30
0.0
 10
2.8037077481
 20
231.3257829527
 30
0.0
 10
3.1216921209
 20
231.4110204073
 30
0.0
  0
SPLINE
  5
30D
100
AcDbEntity
  8
0
100
AcDbSpline
 62
7
  6
CONTINUOUS
 70
0
 71
3
 72
15
 73
11
 74
0
 42
0.0000001
 43
0.0000001
 44
0.0000000001
 40
0.0
 40
0.0
 40
0.0
 40
0.0
 40
0.0524624807
 40
0.1056459719
 40
0.2162146376
 40
0.3353287776
 40
0.4632708635
 40
0.5978578246
 40
0.7353251938
 40
1.0
 40
1.0
 40
1.0
 40
1.0
 10
6.5573032873
 20
255.5387028698
 30
0.0
 10
6.7401227583
 20
255.4331226463
 30
0.0
 10
7.1287945203
 20
255.253948774
 30
0.0
 10
7.9754639615
 20
255.0368223742
 30
0.0
 10
9.1363715674
 20
255.0527775905
 30
0.0
 10
10.5202825954
 20
255.5094212571
 30
0.0
 10
11.820739916
 20
256.3536430345
 30
0.0
 10
12.9477920602
 20
257.5225121157
 30
0.0
 10
14.0950607001
 20
259.3621166699
 30
0.0
 10
14.516861598
 20
260.9984119292
 30
0.0
 10
14.516861598
 20
262.0635006675
 30
0.0
  0
SPLINE
  5
30E
100
AcDbEntity
  8
0
100
AcDbSpline
 62
7
  6
CONTINUOUS
 70
0
 71
3
 72
14
 73
10
 74
0
 42
0.0000001
 43
0.0000001
 44
0.0000000001
 40
0.0
 40
0.0
 40
0.0
 40
0.0
 40
0.2346073929
 40
0.3603379301
 40
0.4894684284
 40
0.6200482101
 40
0.7499714674
 40
0.8772023527
 40
1.0
 40
1.0
 40
1.0
 40
1.0
 10
3.1216921209
 20
231.4110204073
 30
0.0
 10
3.807550814
 20
231.5948685903
 30
0.0
 10
4.8071452549
 20
232.105793985
 30
0.0
 10
5.9276284771
 20
233.0790485654
 30
0.0
 10
6.6838074054
 20
233.9742197153
 30
0.0
 10
7.3041197498
 20
234.9820254318
 30
0.0
 10
7.7666041914
 20
236.0654988544
 30
0.0
 10
8.0534953181
 20
237.1836384337
 30
0.0
 10
8.1216922927
 20
237.9416080489
 30
0.0
 10
8.121692293
 20
238.3132722781
 30
0.0
  0
SPLINE
  5
30F
100
AcDbEntity
  8
0
100
AcDbSpline
 62
7
  6
CONTINUOUS
 70
0
 71
3
 72
14
 73
10
 74
0
 42
0.0000001
 43
0.0000001
 44
0.0000000001
 40
0.0
 40
0.0
 40
0.0
 40
0.0
 40
0.2556690249
 40
0.3889668627
 40
0.521692845
 40
0.6509794578
 40
0.7744748713
 40
0.8908079919
 40
1.0
 40
1.0
 40
1.0
 40
1.0
 10
-5.1724783924
 20
245.5472214214
 30
0.0
 10
-5.1724783924
 20
244.667148087
 30
0.0
 10
-5.4622742645
 20
243.3168675997
 30
0.0
 10
-6.2782502653
 20
241.7118876251
 30
0.0
 10
-7.0997098988
 20
240.6171542008
 30
0.0
 10
-8.0786963029
 20
239.7103999157
 30
0.0
 10
-9.1670349466
 20
239.0374834002
 30
0.0
 10
-10.309617707
 20
238.6352295739
 30
0.0
 10
-11.0933034469
 20
238.5631292238
 30
0.0
 10
-11.468681256
 20
238.5822554453
 30
0.0
  0
SPLINE
  5
310
100
AcDbEntity
  8
0
100
AcDbSpline
 62
7
  6
CONTINUOUS
 70
0
 71
3
 72
11
 73
7
 74
0
 42
0.0000001
 43
0.0000001
 44
0.0000000001
 40
0.0
 40
0.0
 40
0.0
 40
0.0
 40
0.2717575042
 40
0.5268818
 40
0.7676364318
 40
1.0
 40
1.0
 40
1.0
 40
1.0
 10
-7.5045419118
 20
244.9220990091
 30
0.0
 10
-7.5045419118
 20
245.1374332538
 30
0.0
 10
-7.5464340602
 20
245.556693285
 30
0.0
 10
-7.7469146557
 20
246.1374749091
 30
0.0
 10
-8.0755725659
 20
246.6206778527
 30
0.0
 10
-8.3729579171
 20
246.8598550645
 30
0.0
 10
-8.5323831516
 20
246.9519612783
 30
0.0
  0
SPLINE
  5
311
100
AcDbEntity
  8
0
100
AcDbSpline
 62
7
  6
CONTINUOUS
 70
0
 71
3
 72
9
 73
5
 74
0
 42
0.0000001
 43
0.0000001
 44
0.0000000001
 40
0.0
 40
0.0
 40
0.0
 40
0.0
 40
0.4808658739
 40
1.0
 40
1.0
 40
1.0
 40
1.0
 10
10.9509520401
 20
266.4064147012
 30
0.0
 10
11.2023342581
 20
266.0252000089
 30
0.0
 10
11.5879905191
 20
265.1375819924
 30
0.0
 10
11.7017839009
 20
264.1824147035
 30
0.0
 10
11.7017839009
 20
263.6894372646
 30
0.0
  0
SPLINE
  5
312
100
AcDbEntity
  8
0
100
AcDbSpline
 62
7
  6
CONTINUOUS
 70
0
 71
3
 72
14
 73
10
 74
0
 42
0.0000001
 43
0.0000001
 44
0.0000000001
 40
0.0
 40
0.0
 40
0.0
 40
0.0
 40
0.1052604354
 40
0.2158759227
 40
0.3350393976
 40
0.4630357673
 40
0.5976778338
 40
0.735209708
 40
1.0
 40
1.0
 40
1.0
 40
1.0
 10
-7.7053418317
 20
256.1818700601
 30
0.0
 10
-7.5128694875
 20
256.0706712342
 30
0.0
 10
-7.0714312449
 20
255.9159247243
 30
0.0
 10
-6.3518052918
 20
255.9270461739
 30
0.0
 10
-5.6246730749
 20
256.1664079913
 30
0.0
 10
-4.9421198631
 20
256.6097339547
 30
0.0
 10
-4.3503594304
 20
257.223353675
 30
0.0
 10
-3.7480343705
 20
258.189151548
 30
0.0
 10
-3.526571322
 20
259.0482181365
 30
0.0
 10
-3.526571322
 20
259.6073931549
 30
0.0
  0
SPLINE
  5
313
100
AcDbEntity
  8
0
100
AcDbSpline
 62
7
  6
CONTINUOUS
 70
0
 71
3
 72
14
 73
10
 74
0
 42
0.0000001
 43
0.0000001
 44
0.0000000001
 40
0.0
 40
0.0
 40
0.0
 40
0.0
 40
0.2686164723
 40
0.3932530389
 40
0.5129262831
 40
0.6303784462
 40
0.7488454196
 40
0.8713344666
 40
1.0
 40
1.0
 40
1.0
 40
1.0
 10
8.121692293
 20
238.3132722781
 30
0.0
 10
8.1216922935
 20
239.0005685023
 30
0.0
 10
7.9501476875
 20
240.0275443026
 30
0.0
 10
7.3175336149
 20
241.1886399105
 30
0.0
 10
6.6871306954
 20
241.8800109884
 30
0.0
 10
5.9141649862
 20
242.3791955011
 30
0.0
 10
5.0319271682
 20
242.6644040227
 30
0.0
 10
4.0794760786
 20
242.7255179841
 30
0.0
 10
3.4396764938
 20
242.6202066844
 30
0.0
 10
3.1216921209
 20
242.5349692298
 30
0.0
  0
SPLINE
  5
314
100
AcDbEntity
  8
0
100
AcDbSpline
 62
7
  6
CONTINUOUS
 70
0
 71
3
 72
14
 73
10
 74
0
 42
0.0000001
 43
0.0000001
 44
0.0000000001
 40
0.0
 40
0.0
 40
0.0
 40
0.0
 40
0.2557124446
 40
0.3890318847
 40
0.5217703936
 40
0.6510556316
 40
0.7745342754
 40
0.8908387655
 40
1.0
 40
1.0
 40
1.0
 40
1.0
 10
-1.1711993402
 20
260.2387635284
 30
0.0
 10
-1.1711993402
 20
259.3536803403
 30
0.0
 10
-1.4629253343
 20
257.9957010192
 30
0.0
 10
-2.2842010372
 20
256.3819512314
 30
0.0
 10
-3.1109105226
 20
255.2815462574
 30
0.0
 10
-4.0960136328
 20
254.3705545597
 30
0.0
 10
-5.1909526469
 20
253.6951381298
 30
0.0
 10
-6.3401904134
 20
253.2923431712
 30
0.0
 10
-7.128167495
 20
253.2213175555
 30
0.0
 10
-7.5054704267
 20
253.2413371929
 30
0.0
  0
SPLINE
  5
315
100
AcDbEntity
  8
0
100
AcDbSpline
 62
7
  6
CONTINUOUS
 70
0
 71
3
 72
11
 73
7
 74
0
 42
0.0000001
 43
0.0000001
 44
0.0000000001
 40
0.0
 40
0.0
 40
0.0
 40
0.0
 40
0.2717575042
 40
0.5268818
 40
0.7676364318
 40
1.0
 40
1.0
 40
1.0
 40
1.0
 10
-3.526571322
 20
259.6073931549
 30
0.0
 10
-3.526571322
 20
259.8227273996
 30
0.0
 10
-3.5684634704
 20
260.2419874308
 30
0.0
 10
-3.7689440659
 20
260.8227690549
 30
0.0
 10
-4.0976019761
 20
261.3059719985
 30
0.0
 10
-4.3949873273
 20
261.5451492103
 30
0.0
 10
-4.5544125618
 20
261.6372554241
 30
0.0
  0
SPLINE
  5
316
100
AcDbEntity
  8
0
100
AcDbSpline
 62
7
  6
CONTINUOUS
 70
0
 71
3
 72
14
 73
10
 74
0
 42
0.0000001
 43
0.0000001
 44
0.0000000001
 40
0.0
 40
0.0
 40
0.0
 40
0.0
 40
0.2346073929
 40
0.3603379301
 40
0.4894684284
 40
0.6200482101
 40
0.7499714674
 40
0.8772023527
 40
1.0
 40
1.0
 40
1.0
 40
1.0
 10
3.1216921209
 20
242.5349692298
 30
0.0
 10
2.4358334279
 20
242.3511210468
 30
0.0
 10
1.436238987
 20
241.8401956521
 30
0.0
 10
0.3157557647
 20
240.8669410717
 30
0.0
 10
-0.4404231635
 20
239.9717699217
 30
0.0
 10
-1.0607355079
 20
238.9639642053
 30
0.0
 10
-1.5232199495
 20
237.8804907827
 30
0.0
 10
-1.8101110763
 20
236.7623512034
 30
0.0
 10
-1.8783080505
 20
236.0043815882
 30
0.0
 10
-1.8783080511
 20
235.632717359
 30
0.0
  0
SPLINE
  5
317
100
AcDbEntity
  8
0
100
AcDbSpline
 62
7
  6
CONTINUOUS
 70
0
 71
3
 72
14
 73
10
 74
0
 42
0.0000001
 43
0.0000001
 44
0.0000000001
 40
0.0
 40
0.0
 40
0.0
 40
0.0
 40
0.2557124446
 40
0.3890318847
 40
0.5217703936
 40
0.6510556316
 40
0.7745342754
 40
0.8908387655
 40
1.0
 40
1.0
 40
1.0
 40
1.0
 10
11.7017839009
 20
263.6894372646
 30
0.0
 10
11.7017839009
 20
262.8043540765
 30
0.0
 10
11.4100579068
 20
261.4463747554
 30
0.0
 10
10.5887822038
 20
259.8326249676
 30
0.0
 10
9.7620727184
 20
258.7322199936
 30
0.0
 10
8.7769696083
 20
257.8212282959
 30
0.0
 10
7.6820305942
 20
257.145811866
 30
0.0
 10
6.5327928277
 20
256.7430169074
 30
0.0
 10
5.7448157461
 20
256.6719912917
 30
0.0
 10
5.3675128144
 20
256.6920109291
 30
0.0
  0
SPLINE
  5
318
100
AcDbEntity
  8
0
100
AcDbSpline
 62
7
  6
CONTINUOUS
 70
0
 71
3
 72
11
 73
7
 74
0
 42
0.0000001
 43
0.0000001
 44
0.0000000001
 40
0.0
 40
0.0
 40
0.0
 40
0.0
 40
0.2717575042
 40
0.5268818
 40
0.7676364318
 40
1.0
 40
1.0
 40
1.0
 40
1.0
 10
9.346411919
 20
263.0580668911
 30
0.0
 10
9.346411919
 20
263.2734011358
 30
0.0
 10
9.3045197707
 20
263.692661167
 30
0.0
 10
9.1040391752
 20
264.2734427911
 30
0.0
 10
8.7753812649
 20
264.7566457347
 30
0.0
 10
8.4779959137
 20
264.9958229465
 30
0.0
 10
8.3185706793
 20
265.0879291603
 30
0.0
  0
SPLINE
  5
319
100
AcDbEntity
  8
0
100
AcDbSpline
 62
7
  6
CONTINUOUS
 70
0
 71
3
 72
14
 73
10
 74
0
 42
0.0000001
 43
0.0000001
 44
0.0000000001
 40
0.0
 40
0.0
 40
0.0
 40
0.0
 40
0.2557124446
 40
0.3890318847
 40
0.5217703936
 40
0.6510556316
 40
0.7745342754
 40
0.8908387655
 40
1.0
 40
1.0
 40
1.0
 40
1.0
 10
15.6797544907
 20
251.1367767718
 30
0.0
 10
15.6797544907
 20
250.2516935837
 30
0.0
 10
15.3880284966
 20
248.8937142627
 30
0.0
 10
14.5667527936
 20
247.2799644749
 30
0.0
 10
13.7400433082
 20
246.1795595008
 30
0.0
 10
12.7549401981
 20
245.2685678031
 30
0.0
 10
11.660001184
 20
244.5931513732
 30
0.0
 10
10.5107634175
 20
244.1903564147
 30
0.0
 10
9.7227863359
 20
244.119330799
 30
0.0
 10
9.3454834042
 20
244.1393504363
 30
0.0
  0
SPLINE
  5
31A
100
AcDbEntity
  8
0
100
AcDbSpline
 62
7
  6
CONTINUOUS
 70
0
 71
3
 72
11
 73
7
 74
0
 42
0.0000001
 43
0.0000001
 44
0.0000000001
 40
0.0
 40
0.0
 40
0.0
 40
0.0
 40
0.2717575042
 40
0.5268818
 40
0.7676364318
 40
1.0
 40
1.0
 40
1.0
 40
1.0
 10
13.3243825088
 20
250.5054063984
 30
0.0
 10
13.3243825088
 20
250.7207406431
 30
0.0
 10
13.2824903605
 20
251.1400006742
 30
0.0
 10
13.0820097649
 20
251.7207822984
 30
0.0
 10
12.7533518547
 20
252.203985242
 30
0.0
 10
12.4559665035
 20
252.4431624538
 30
0.0
 10
12.296541269
 20
252.5352686676
 30
0.0
  0
SPLINE
  5
31B
100
AcDbEntity
  8
0
100
AcDbSpline
 62
7
  6
CONTINUOUS
 70
0
 71
3
 72
15
 73
11
 74
0
 42
0.0000001
 43
0.0000001
 44
0.0000000001
 40
0.0
 40
0.0
 40
0.0
 40
0.0
 40
0.0524624807
 40
0.1056459719
 40
0.2162146376
 40
0.3353287776
 40
0.4632708635
 40
0.5978578246
 40
0.7353251938
 40
1.0
 40
1.0
 40
1.0
 40
1.0
 10
-6.3156799538
 20
252.0880291336
 30
0.0
 10
-6.1328604828
 20
251.9824489101
 30
0.0
 10
-5.7441887208
 20
251.8032750378
 30
0.0
 10
-4.8975192795
 20
251.586148638
 30
0.0
 10
-3.7366116737
 20
251.6021038543
 30
0.0
 10
-2.3527006456
 20
252.0587475209
 30
0.0
 10
-1.052243325
 20
252.9029692983
 30
0.0
 10
0.0748088191
 20
254.0718383795
 30
0.0
 10
1.2220774591
 20
255.9114429337
 30
0.0
 10
1.643878357
 20
257.547738193
 30
0.0
 10
1.643878357
 20
258.6128269313
 30
0.0
  0
SPLINE
  5
31C
100
AcDbEntity
  8
0
100
AcDbSpline
 62
7
  6
CONTINUOUS
 70
0
 71
3
 72
12
 73
8
 74
0
 42
0.0000001
 43
0.0000001
 44
0.0000000001
 40
0.0
 40
0.0
 40
0.0
 40
0.0
 40
0.2349899833
 40
0.4894752595
 40
0.6202667696
 40
0.7503904793
 40
1.0
 40
1.0
 40
1.0
 40
1.0
 10
1.9956610421
 20
233.900064273
 30
0.0
 10
2.4548003772
 20
234.0231390891
 30
0.0
 10
3.3598592136
 20
234.4855267856
 30
0.0
 10
4.2470499745
 20
235.3999397832
 30
0.0
 10
4.7954906672
 20
236.2907904114
 30
0.0
 10
5.2021606232
 20
237.2424587458
 30
0.0
 10
5.3427685955
 20
238.0156582587
 30
0.0
 10
5.3427685953
 20
238.5205799881
 30
0.0
  0
SPLINE
  5
31D
100
AcDbEntity
  8
0
100
AcDbSpline
 62
7
  6
CONTINUOUS
 70
0
 71
3
 72
11
 73
7
 74
0
 42
0.0000001
 43
0.0000001
 44
0.0000000001
 40
0.0
 40
0.0
 40
0.0
 40
0.0
 40
0.2717668071
 40
0.5268680781
 40
0.7676307415
 40
1.0
 40
1.0
 40
1.0
 40
1.0
 10
5.3427685953
 20
238.5205799881
 30
0.0
 10
5.3427685951
 20
238.7974487297
 30
0.0
 10
5.2889299533
 20
239.3364892052
 30
0.0
 10
5.0311342947
 20
240.0831954221
 30
0.0
 10
4.6086134036
 20
240.7044549136
 30
0.0
 10
4.2262770397
 20
241.0120423989
 30
0.0
 10
4.0212655263
 20
241.1304151903
 30
0.0
  0
SPLINE
  5
31E
100
AcDbEntity
  8
0
100
AcDbSpline
 62
7
  6
CONTINUOUS
 70
0
 71
3
 72
9
 73
5
 74
0
 42
0.0000001
 43
0.0000001
 44
0.0000000001
 40
0.0
 40
0.0
 40
0.0
 40
0.0
 40
0.4808658739
 40
1.0
 40
1.0
 40
1.0
 40
1.0
 10
-1.9220312009
 20
262.955740965
 30
0.0
 10
-1.670648983
 20
262.5745262727
 30
0.0
 10
-1.284992722
 20
261.6869082562
 30
0.0
 10
-1.1711993402
 20
260.7317409673
 30
0.0
 10
-1.1711993402
 20
260.2387635284
 30
0.0
  0
SPLINE
  5
31F
100
AcDbEntity
  8
0
100
AcDbSpline
 62
7
  6
CONTINUOUS
 70
0
 71
3
 72
21
 73
17
 74
0
 42
0.0000001
 43
0.0000001
 44
0.0000000001
 40
0.0
 40
0.0
 40
0.0
 40
0.0
 40
0.0524705347
 40
0.1058422668
 40
0.1608890322
 40
0.2181647006
 40
0.2779603765
 40
0.3403046685
 40
0.404991693
 40
0.4716227035
 40
0.6081929828
 40
0.7450058844
 40
0.811922784
 40
0.8769822192
 40
0.9397548461
 40
1.0
 40
1.0
 40
1.0
 40
1.0
 10
-8.3817438379
 20
229.2376169713
 30
0.0
 10
-9.168164706
 20
229.6918677733
 30
0.0
 10
-10.6640866716
 20
230.7754382953
 30
0.0
 10
-12.5554658323
 20
232.8429677007
 30
0.0
 10
-14.0596493409
 20
235.3044202612
 30
0.0
 10
-15.1416972207
 20
238.0956285267
 30
0.0
 10
-15.7794757249
 20
241.1478766973
 30
0.0
 10
-15.9606188731
 20
244.3876216193
 30
0.0
 10
-15.6828345647
 20
247.7384219856
 30
0.0
 10
-14.7037536631
 20
252.2816159823
 30
0.0
 10
-12.4048745247
 20
257.7639024233
 30
0.0
 10
-8.8993758649
 20
262.5706383432
 30
0.0
 10
-5.5110288771
 20
265.7739486219
 30
0.0
 10
-2.7771051621
 20
267.7633294377
 30
0.0
 10
0.1005846629
 20
269.3068783823
 30
0.0
 10
2.1144970201
 20
270.0288903865
 30
0.0
 10
3.1216921209
 20
270.2988745554
 30
0.0
  0
SPLINE
  5
320
100
AcDbEntity
  8
0
100
AcDbSpline
 62
7
  6
CONTINUOUS
 70
0
 71
3
 72
14
 73
10
 74
0
 42
0.0000001
 43
0.0000001
 44
0.0000000001
 40
0.0
 40
0.0
 40
0.0
 40
0.0
 40
0.1052604354
 40
0.2158759227
 40
0.3350393976
 40
0.4630357673
 40
0.5976778338
 40
0.735209708
 40
1.0
 40
1.0
 40
1.0
 40
1.0
 10
-11.6833124214
 20
241.4965759143
 30
0.0
 10
-11.4908400773
 20
241.3853770884
 30
0.0
 10
-11.0494018346
 20
241.2306305785
 30
0.0
 10
-10.3297758815
 20
241.2417520281
 30
0.0
 10
-9.6026436647
 20
241.4811138455
 30
0.0
 10
-8.9200904529
 20
241.9244398089
 30
0.0
 10
-8.3283300202
 20
242.5380595292
 30
0.0
 10
-7.7260049603
 20
243.5038574022
 30
0.0
 10
-7.5045419118
 20
244.3629239907
 30
0.0
 10
-7.5045419118
 20
244.9220990091
 30
0.0
  0
SPLINE
  5
321
100
AcDbEntity
  8
0
100
AcDbSpline
 62
7
  6
CONTINUOUS
 70
0
 71
3
 72
11
 73
7
 74
0
 42
0.0000001
 43
0.0000001
 44
0.0000000001
 40
0.0
 40
0.0
 40
0.0
 40
0.0
 40
0.2717748105
 40
0.5268698752
 40
0.7676346318
 40
1.0
 40
1.0
 40
1.0
 40
1.0
 10
-2.3574006953
 20
243.9212848244
 30
0.0
 10
-2.3574006953
 20
244.329543329
 30
0.0
 10
-2.4367765394
 20
245.124373002
 30
0.0
 10
-2.816944192
 20
246.2253865078
 30
0.0
 10
-3.4399339479
 20
247.1414514312
 30
0.0
 10
-4.0037234314
 20
247.5949415546
 30
0.0
 10
-4.3059953865
 20
247.7695069149
 30
0.0
  0
SPLINE
  5
322
100
AcDbEntity
  8
0
100
AcDbSpline
 62
7
  6
CONTINUOUS
 70
0
 71
3
 72
10
 73
6
 74
0
 42
0.0000001
 43
0.0000001
 44
0.0000000001
 40
0.0
 40
0.0
 40
0.0
 40
0.0
 40
0.2403281524
 40
0.485096085
 40
1.0
 40
1.0
 40
1.0
 40
1.0
 10
-0.0299434421
 20
234.1163237244
 30
0.0
 10
0.114590397
 20
234.0328704895
 30
0.0
 10
0.4256420528
 20
233.8955216108
 30
0.0
 10
1.1092685102
 20
233.7531793701
 30
0.0
 10
1.6502778051
 20
233.8074824027
 30
0.0
 10
1.9956610421
 20
233.900064273
 30
0.0
  0
SPLINE
  5
323
100
AcDbEntity
  8
0
100
AcDbSpline
 62
7
  6
CONTINUOUS
 70
0
 71
3
 72
15
 73
11
 74
0
 42
0.0000001
 43
0.0000001
 44
0.0000000001
 40
0.0
 40
0.0
 40
0.0
 40
0.0
 40
0.0524624725
 40
0.1056459662
 40
0.2162146426
 40
0.335328794
 40
0.4632708983
 40
0.5978578562
 40
0.7353252271
 40
1.0
 40
1.0
 40
1.0
 40
1.0
 10
-10.2795447923
 20
237.4271570836
 30
0.0
 10
-10.0975847088
 20
237.3220731452
 30
0.0
 10
-9.7107399155
 20
237.1437415361
 30
0.0
 10
-8.8680502785
 20
236.9276356771
 30
0.0
 10
-7.7125994506
 20
236.9435159416
 30
0.0
 10
-6.3351934076
 20
237.3980132131
 30
0.0
 10
-5.0408488908
 20
238.2382668289
 30
0.0
 10
-3.9190945046
 20
239.4016416897
 30
0.0
 10
-2.777218814
 20
241.2325990553
 30
0.0
 10
-2.3574006953
 20
242.861202711
 30
0.0
 10
-2.3574006953
 20
243.9212848244
 30
0.0
  0
SPLINE
  5
324
100
AcDbEntity
  8
0
100
AcDbSpline
 62
7
  6
CONTINUOUS
 70
0
 71
3
 72
11
 73
7
 74
0
 42
0.0000001
 43
0.0000001
 44
0.0000000001
 40
0.0
 40
0.0
 40
0.0
 40
0.0
 40
0.2116327286
 40
0.4486143771
 40
0.7116124691
 40
1.0
 40
1.0
 40
1.0
 40
1.0
 10
-24.3930603487
 20
285.5547047399
 30
0.0
 10
-23.9094529984
 20
285.0265713115
 30
0.0
 10
-22.7845789518
 20
283.9970872217
 30
0.0
 10
-20.8056562376
 20
282.6166500166
 30
0.0
 10
-18.4646674147
 20
281.3290472182
 30
0.0
 10
-16.7557127028
 20
280.5748392066
 30
0.0
 10
-15.8496048037
 20
280.2126431953
 30
0.0
  0
SPLINE
  5
325
100
AcDbEntity
  8
0
100
AcDbSpline
 62
7
  6
CONTINUOUS
 70
0
 71
3
 72
11
 73
7
 74
0
 42
0.0000001
 43
0.0000001
 44
0.0000000001
 40
0.0
 40
0.0
 40
0.0
 40
0.0
 40
0.188068735
 40
0.4038987513
 40
0.6746857228
 40
1.0
 40
1.0
 40
1.0
 40
1.0
 10
-15.8813793192
 20
280.1466995238
 30
0.0
 10
-15.8993707732
 20
280.1093602073
 30
0.0
 10
-15.9023709588
 20
280.010301312
 30
0.0
 10
-15.8092782324
 20
279.8872604329
 30
0.0
 10
-15.6662268489
 20
279.7790759474
 30
0.0
 10
-15.5480952074
 20
279.7197362954
 30
0.0
 10
-15.4822845248
 20
279.6912916618
 30
0.0
  0
SPLINE
  5
326
100
AcDbEntity
  8
0
100
AcDbSpline
 62
7
  6
CONTINUOUS
 70
0
 71
3
 72
9
 73
5
 74
0
 42
0.0000001
 43
0.0000001
 44
0.0000000001
 40
0.0
 40
0.0
 40
0.0
 40
0.0
 40
0.4700047667
 40
1.0
 40
1.0
 40
1.0
 40
1.0
 10
-15.4822845248
 20
279.6912916618
 30
0.0
 10
-13.5247568061
 20
278.8452304019
 30
0.0
 10
-9.2102649098
 20
277.3888650287
 30
0.0
 10
-4.7656650272
 20
276.4375647772
 30
0.0
 10
-2.3936339997
 20
276.0423181792
 30
0.0
  0
SPLINE
  5
327
100
AcDbEntity
  8
0
100
AcDbSpline
 62
7
  6
CONTINUOUS
 70
0
 71
3
 72
10
 73
6
 74
0
 42
0.0000001
 43
0.0000001
 44
0.0000000001
 40
0.0
 40
0.0
 40
0.0
 40
0.0
 40
0.1789097112
 40
0.4138158835
 40
1.0
 40
1.0
 40
1.0
 40
1.0
 10
-2.3588550122
 20
275.9766096598
 30
0.0
 10
-2.3335931347
 20
275.9288825709
 30
0.0
 10
-2.2345437511
 20
275.8436410473
 30
0.0
 10
-1.9650454095
 20
275.7098486933
 30
0.0
 10
-1.7211982669
 20
275.6481547661
 30
0.0
 10
-1.5472236449
 20
275.615962151
 30
0.0
  0
SPLINE
  5
328
100
AcDbEntity
  8
0
100
AcDbSpline
 62
7
  6
CONTINUOUS
 70
0
 71
3
 72
9
 73
5
 74
0
 42
0.0000001
 43
0.0000001
 44
0.0000000001
 40
0.0
 40
0.0
 40
0.0
 40
0.0
 40
0.4896851371
 40
1.0
 40
1.0
 40
1.0
 40
1.0
 10
-1.5472236449
 20
275.615962151
 30
0.0
 10
0.975786178
 20
275.1491132981
 30
0.0
 10
6.1786896123
 20
274.4590524614
 30
0.0
 10
11.4200729208
 20
274.2238908139
 30
0.0
 10
14.093993467
 20
274.2155998648
 30
0.0
  0
SPLINE
  5
329
100
AcDbEntity
  8
0
100
AcDbSpline
 62
7
  6
CONTINUOUS
 70
0
 71
3
 72
10
 73
6
 74
0
 42
0.0000001
 43
0.0000001
 44
0.0000000001
 40
0.0
 40
0.0
 40
0.0
 40
0.0
 40
0.2083828492
 40
0.4548516064
 40
1.0
 40
1.0
 40
1.0
 40
1.0
 10
14.1900311719
 20
274.160130024
 30
0.0
 10
14.2579164446
 20
274.1209207874
 30
0.0
 10
14.4198261351
 20
274.06026603
 30
0.0
 10
14.7868250764
 20
273.9772518394
 30
0.0
 10
15.0855821478
 20
273.9529339421
 30
0.0
 10
15.2906355935
 20
273.9491481822
 30
0.0
  0
SPLINE
  5
32A
100
AcDbEntity
  8
0
100
AcDbSpline
 62
7
  6
CONTINUOUS
 70
0
 71
3
 72
9
 73
5
 74
0
 42
0.0000001
 43
0.0000001
 44
0.0000000001
 40
0.0
 40
0.0
 40
0.0
 40
0.0
 40
0.507761281
 40
1.0
 40
1.0
 40
1.0
 40
1.0
 10
15.2906355935
 20
273.9491481822
 30
0.0
 10
17.9750927601
 20
273.8995991113
 30
0.0
 10
23.268282797
 20
274.0243867491
 30
0.0
 10
28.5327856132
 20
274.6009641138
 30
0.0
 10
31.1031857749
 20
275.0105895562
 30
0.0
  0
SPLINE
  5
32B
100
AcDbEntity
  8
0
100
AcDbSpline
 62
7
  6
CONTINUOUS
 70
0
 71
3
 72
9
 73
5
 74
0
 42
0.0000001
 43
0.0000001
 44
0.0000000001
 40
0.0
 40
0.0
 40
0.0
 40
0.0
 40
0.4926670906
 40
1.0
 40
1.0
 40
1.0
 40
1.0
 10
31.2458613274
 20
274.9738031743
 30
0.0
 10
31.4410160274
 20
274.9234862409
 30
0.0
 10
31.8534139272
 20
274.8902720652
 30
0.0
 10
32.262399958
 20
274.9154767824
 30
0.0
 10
32.4678817568
 20
274.9446070724
 30
0.0
  0
SPLINE
  5
32C
100
AcDbEntity
  8
0
100
AcDbSpline
 62
7
  6
CONTINUOUS
 70
0
 71
3
 72
9
 73
5
 74
0
 42
0.0000001
 43
0.0000001
 44
0.0000000001
 40
0.0
 40
0.0
 40
0.0
 40
0.0
 40
0.5270628093
 40
1.0
 40
1.0
 40
1.0
 40
1.0
 10
32.4678817568
 20
274.9446070724
 30
0.0
 10
34.9046521655
 20
275.2900702496
 30
0.0
 10
39.5017883493
 20
276.1519043086
 30
0.0
 10
43.9851257536
 20
277.508632952
 30
0.0
 10
46.0444475843
 20
278.3062572795
 30
0.0
  0
SPLINE
  5
32D
100
AcDbEntity
  8
0
100
AcDbSpline
 62
7
  6
CONTINUOUS
 70
0
 71
3
 72
9
 73
5
 74
0
 42
0.0000001
 43
0.0000001
 44
0.0000000001
 40
0.0
 40
0.0
 40
0.0
 40
0.0
 40
0.5304349352
 40
1.0
 40
1.0
 40
1.0
 40
1.0
 10
46.2120399246
 20
278.2937547497
 30
0.0
 10
46.4189670508
 20
278.2783180222
 30
0.0
 10
46.812890827
 20
278.3007299192
 30
0.0
 10
47.1965043496
 20
278.3888443355
 30
0.0
 10
47.3694348297
 20
278.4507892295
 30
0.0
  0
SPLINE
  5
32E
100
AcDbEntity
  8
0
100
AcDbSpline
 62
7
  6
CONTINUOUS
 70
0
 71
3
 72
11
 73
7
 74
0
 42
0.0000001
 43
0.0000001
 44
0.0000000001
 40
0.0
 40
0.0
 40
0.0
 40
0.0
 40
0.2861088555
 40
0.5486792275
 40
0.7866442955
 40
1.0
 40
1.0
 40
1.0
 40
1.0
 10
47.3694348297
 20
278.4507892295
 30
0.0
 10
48.3275925516
 20
278.7940159017
 30
0.0
 10
50.1443407228
 20
279.512949796
 30
0.0
 10
52.6592574423
 20
280.7482261494
 30
0.0
 10
54.8245267748
 20
282.083232004
 30
0.0
 10
56.087100481
 20
283.0842487053
 30
0.0
 10
56.6431072273
 20
283.600867499
 30
0.0
  0
SPLINE
  5
32F
100
AcDbEntity
  8
0
100
AcDbSpline
 62
7
  6
CONTINUOUS
 70
0
 71
3
 72
9
 73
5
 74
0
 42
0.0000001
 43
0.0000001
 44
0.0000000001
 40
0.0
 40
0.0
 40
0.0
 40
0.0
 40
0.5723098974
 40
1.0
 40
1.0
 40
1.0
 40
1.0
 10
56.8101019411
 20
283.6145522183
 30
0.0
 10
56.9965227649
 20
283.6298290402
 30
0.0
 10
57.3193524694
 20
283.6971080058
 30
0.0
 10
57.6194637839
 20
283.8442125252
 30
0.0
 10
57.7266684395
 20
283.933910204
 30
0.0
  0
SPLINE
  5
330
100
AcDbEntity
  8
0
100
AcDbSpline
 62
7
  6
CONTINUOUS
 70
0
 71
3
 72
11
 73
7
 74
0
 42
0.0000001
 43
0.0000001
 44
0.0000000001
 40
0.0
 40
0.0
 40
0.0
 40
0.0
 40
0.2891094199
 40
0.5470611535
 40
0.7805747091
 40
1.0
 40
1.0
 40
1.0
 40
1.0
 10
57.7266684395
 20
283.933910204
 30
0.0
 10
58.267572129
 20
284.3864955666
 30
0.0
 10
59.2384034515
 20
285.3107974867
 30
0.0
 10
60.379323435
 20
286.8499366387
 30
0.0
 10
61.0951915968
 20
288.4467354579
 30
0.0
 10
61.2748968789
 20
289.5531901116
 30
0.0
 10
61.2856148503
 20
290.088363803
 30
0.0
  0
SPLINE
  5
331
100
AcDbEntity
  8
0
100
AcDbSpline
 62
7
  6
CONTINUOUS
 70
0
 71
3
 72
9
 73
5
 74
0
 42
0.0000001
 43
0.0000001
 44
0.0000000001
 40
0.0
 40
0.0
 40
0.0
 40
0.0
 40
0.3448056868
 40
1.0
 40
1.0
 40
1.0
 40
1.0
 10
61.4270098927
 20
290.1262653292
 30
0.0
 10
61.5056389418
 20
290.1473422781
 30
0.0
 10
61.7223397158
 20
290.2220330244
 30
0.0
 10
61.9445531868
 20
290.4061466155
 30
0.0
 10
61.9628506747
 20
290.5597449957
 30
0.0
  0
SPLINE
  5
332
100
AcDbEntity
  8
0
100
AcDbSpline
 62
7
  6
CONTINUOUS
 70
0
 71
3
 72
11
 73
7
 74
0
 42
0.0000001
 43
0.0000001
 44
0.0000000001
 40
0.0
 40
0.0
 40
0.0
 40
0.0
 40
0.2256267182
 40
0.4618875333
 40
0.7178854864
 40
1.0
 40
1.0
 40
1.0
 40
1.0
 10
-26.9640223365
 20
291.6230839726
 30
0.0
 10
-26.9639591286
 20
291.1528284375
 30
0.0
 10
-26.8443339098
 20
290.1865230849
 30
0.0
 10
-26.3161601665
 20
288.7742998353
 30
0.0
 10
-25.4524681009
 20
287.4001189291
 30
0.0
 10
-24.702058915
 20
286.5599972436
 30
0.0
 10
-24.2827682608
 20
286.1477766612
 30
0.0
  0
SPLINE
  5
333
100
AcDbEntity
  8
0
100
AcDbSpline
 62
7
  6
CONTINUOUS
 70
0
 71
3
 72
10
 73
6
 74
0
 42
0.0000001
 43
0.0000001
 44
0.0000000001
 40
0.0
 40
0.0
 40
0.0
 40
0.0
 40
0.245998004
 40
0.4792791749
 40
1.0
 40
1.0
 40
1.0
 40
1.0
 10
-24.4595118169
 20
285.9028678124
 30
0.0
 10
-24.4754188
 20
285.8761655508
 30
0.0
 10
-24.4977755705
 20
285.8179204945
 30
0.0
 10
-24.4928135991
 20
285.688769144
 30
0.0
 10
-24.4374908787
 20
285.603227775
 30
0.0
 10
-24.3930603487
 20
285.5547047399
 30
0.0
  0
SPLINE
  5
334
100
AcDbEntity
  8
0
100
AcDbSpline
 62
7
  6
CONTINUOUS
 70
0
 71
3
 72
13
 73
9
 74
0
 42
0.0000001
 43
0.0000001
 44
0.0000000001
 40
0.0
 40
0.0
 40
0.0
 40
0.0
 40
0.3207825123
 40
0.4647947586
 40
0.5967540921
 40
0.7161675304
 40
0.8228927291
 40
1.0
 40
1.0
 40
1.0
 40
1.0
 10
35.7492784484
 20
296.679159704
 30
0.0
 10
37.3738830366
 20
297.114643871
 30
0.0
 10
39.70239295
 20
297.8592848525
 30
0.0
 10
42.5724783203
 20
299.1115745441
 30
0.0
 10
44.4045216651
 20
300.0862106584
 30
0.0
 10
45.9779649775
 20
301.119312717
 30
0.0
 10
47.6050597456
 20
302.4682186928
 30
0.0
 10
48.5724124535
 20
303.6486880919
 30
0.0
 10
48.9859278864
 20
304.4801641614
 30
0.0
  0
SPLINE
  5
335
100
AcDbEntity
  8
0
100
AcDbSpline
 62
7
  6
CONTINUOUS
 70
0
 71
3
 72
9
 73
5
 74
0
 42
0.0000001
 43
0.0000001
 44
0.0000000001
 40
0.0
 40
0.0
 40
0.0
 40
0.0
 40
0.2597395376
 40
1.0
 40
1.0
 40
1.0
 40
1.0
 10
48.9859278864
 20
304.4801641614
 30
0.0
 10
49.0336523027
 20
304.5761260213
 30
0.0
 10
49.207406946
 20
304.9503990429
 30
0.0
 10
49.3389239561
 20
305.3447632077
 30
0.0
 10
49.4066916471
 20
305.6425982295
 30
0.0
  0
SPLINE
  5
336
100
AcDbEntity
  8
0
100
AcDbSpline
 62
7
  6
CONTINUOUS
 70
0
 71
3
 72
9
 73
5
 74
0
 42
0.0000001
 43
0.0000001
 44
0.0000000001
 40
0.0
 40
0.0
 40
0.0
 40
0.0
 40
0.2535732023
 40
1.0
 40
1.0
 40
1.0
 40
1.0
 10
49.4066916471
 20
305.6425982295
 30
0.0
 10
49.4256886977
 20
305.7260891512
 30
0.0
 10
49.4916114161
 20
306.057317676
 30
0.0
 10
49.5206843788
 20
306.3959691049
 30
0.0
 10
49.5203072624
 20
306.6480171958
 30
0.0
  0
SPLINE
  5
337
100
AcDbEntity
  8
0
100
AcDbSpline
 62
7
  6
CONTINUOUS
 70
0
 71
3
 72
9
 73
5
 74
0
 42
0.0000001
 43
0.0000001
 44
0.0000000001
 40
0.0
 40
0.0
 40
0.0
 40
0.0
 40
0.4887689468
 40
1.0
 40
1.0
 40
1.0
 40
1.0
 10
-14.480281368
 20
306.6257031216
 30
0.0
 10
-14.4798692101
 20
306.3336366934
 30
0.0
 10
-14.4182323003
 20
305.7346586542
 30
0.0
 10
-14.2397824776
 20
305.1602858585
 30
0.0
 10
-14.1248938165
 20
304.8772237203
 30
0.0
  0
SPLINE
  5
338
100
AcDbEntity
  8
0
100
AcDbSpline
 62
7
  6
CONTINUOUS
 70
0
 71
3
 72
10
 73
6
 74
0
 42
0.0000001
 43
0.0000001
 44
0.0000000001
 40
0.0
 40
0.0
 40
0.0
 40
0.0
 40
0.4275549991
 40
0.695336834
 40
1.0
 40
1.0
 40
1.0
 40
1.0
 10
-13.997918684
 20
304.5881240577
 30
0.0
 10
-13.5036801215
 20
303.5422640336
 30
0.0
 10
-12.2121466136
 20
302.0808853386
 30
0.0
 10
-10.0358960235
 20
300.4812559083
 30
0.0
 10
-8.6814472258
 20
299.7176661093
 30
0.0
 10
-7.9454635787
 20
299.3465122935
 30
0.0
  0
SPLINE
  5
339
100
AcDbEntity
  8
0
100
AcDbSpline
 62
7
  6
CONTINUOUS
 70
0
 71
3
 72
15
 73
11
 74
0
 42
0.0000001
 43
0.0000001
 44
0.0000000001
 40
0.0
 40
0.0
 40
0.0
 40
0.0
 40
0.1007710119
 40
0.2155506293
 40
0.3413162797
 40
0.4744544249
 40
0.6109892973
 40
0.7467888919
 40
0.8777451369
 40
1.0
 40
1.0
 40
1.0
 40
1.0
 10
-7.9454635787
 20
299.3465122935
 30
0.0
 10
-6.6097078205
 20
298.6728956327
 30
0.0
 10
-3.6331206681
 20
297.4669719051
 30
0.0
 10
1.2556937106
 20
296.1072369795
 30
0.0
 10
6.7219738474
 20
295.1201369124
 30
0.0
 10
12.5699105643
 20
294.5447569958
 30
0.0
 10
18.5930822472
 20
294.402958886
 30
0.0
 10
24.5783898108
 20
294.700302933
 30
0.0
 10
30.3133269492
 20
295.4251987139
 30
0.0
 10
33.9962333944
 20
296.2092463659
 30
0.0
 10
35.7492784484
 20
296.679159704
 30
0.0
  0
SPLINE
  5
33A
100
AcDbEntity
  8
0
100
AcDbSpline
 62
7
  6
CONTINUOUS
 70
0
 71
3
 72
14
 73
10
 74
0
 42
0.0000001
 43
0.0000001
 44
0.0000000001
 40
0.0
 40
0.0
 40
0.0
 40
0.0
 40
0.295453739
 40
0.4303074344
 40
0.5565918656
 40
0.6750522778
 40
0.7870968614
 40
0.8948904614
 40
1.0
 40
1.0
 40
1.0
 40
1.0
 10
-4.5951153078
 20
319.1030403405
 30
0.0
 10
-6.8144232746
 20
318.5081426722
 30
0.0
 10
-10.0090279552
 20
317.4692754629
 30
0.0
 10
-13.9508317716
 20
315.671494007
 30
0.0
 10
-16.5229269672
 20
314.2134150387
 30
0.0
 10
-18.7848226478
 20
312.5959162183
 30
0.0
 10
-20.7152572311
 20
310.7947064335
 30
0.0
 10
-22.2702219109
 20
308.7874355617
 30
0.0
 10
-23.0194164836
 20
307.294282517
 30
0.0
 10
-23.2994232898
 20
306.5263311957
 30
0.0
  0
SPLINE
  5
33B
100
AcDbEntity
  8
0
100
AcDbSpline
 62
7
  6
CONTINUOUS
 70
0
 71
3
 72
9
 73
5
 74
0
 42
0.0000001
 43
0.0000001
 44
0.0000000001
 40
0.0
 40
0.0
 40
0.0
 40
0.0
 40
0.2521561183
 40
1.0
 40
1.0
 40
1.0
 40
1.0
 10
58.7961292696
 20
304.8526607885
 30
0.0
 10
58.763481676
 20
305.030031121
 30
0.0
 10
58.6154490863
 20
305.7299439999
 30
0.0
 10
58.3936067735
 20
306.4139194859
 30
0.0
 10
58.1914656454
 20
306.9091335737
 30
0.0
  0
SPLINE
  5
33C
100
AcDbEntity
  8
0
100
AcDbSpline
 62
7
  6
CONTINUOUS
 70
0
 71
3
 72
20
 73
16
 74
0
 42
0.0000001
 43
0.0000001
 44
0.0000000001
 40
0.0
 40
0.0
 40
0.0
 40
0.0
 40
0.0434228171
 40
0.0886879994
 40
0.1368555047
 40
0.1887628901
 40
0.2447727872
 40
0.304879599
 40
0.3687968835
 40
0.4360245482
 40
0.5059057332
 40
0.5776736835
 40
0.7234393591
 40
0.8663952636
 40
1.0
 40
1.0
 40
1.0
 40
1.0
 10
57.7949658021
 20
307.7734773528
 30
0.0
 10
57.3567468794
 20
308.6326686332
 30
0.0
 10
56.2418732481
 20
310.2800471364
 30
0.0
 10
54.067586982
 20
312.4243713491
 30
0.0
 10
51.4369344266
 20
314.3132735357
 30
0.0
 10
48.3923813417
 20
315.9851935162
 30
0.0
 10
44.9561457527
 20
317.4541615423
 30
0.0
 10
41.1601341697
 20
318.723276977
 30
0.0
 10
37.044477619
 20
319.7875112325
 30
0.0
 10
32.6586059871
 20
320.6382579895
 30
0.0
 10
28.0595600314
 20
321.2669833031
 30
0.0
 10
21.6957936994
 20
321.8016819299
 30
0.0
 10
13.6747709232
 20
321.877156244
 30
0.0
 10
4.3165649071
 20
321.0561782616
 30
0.0
 10
-1.7287279517
 20
319.8713911867
 30
0.0
 10
-4.5951153078
 20
319.1030403405
 30
0.0
  0
SPLINE
  5
33D
100
AcDbEntity
  8
0
100
AcDbSpline
 62
7
  6
CONTINUOUS
 70
0
 71
3
 72
15
 73
11
 74
0
 42
0.0000001
 43
0.0000001
 44
0.0000000001
 40
0.0
 40
0.0
 40
0.0
 40
0.0
 40
0.1057623838
 40
0.1994181995
 40
0.2896358592
 40
0.386547606
 40
0.50115634
 40
0.6395084175
 40
0.8053262629
 40
1.0
 40
1.0
 40
1.0
 40
1.0
 10
-26.9503259464
 20
293.0978969158
 30
0.0
 10
-26.9402006484
 20
293.4196573579
 30
0.0
 10
-26.8683957598
 20
294.0286662366
 30
0.0
 10
-26.5248320785
 20
294.8557067269
 30
0.0
 10
-25.9300027
 20
295.4990497152
 30
0.0
 10
-25.079905513
 20
295.8905960617
 30
0.0
 10
-24.0226717118
 20
296.0722536203
 30
0.0
 10
-22.7417837724
 20
296.0340036618
 30
0.0
 10
-21.243885385
 20
295.7671692754
 30
0.0
 10
-20.1853330389
 20
295.4707609177
 30
0.0
 10
-19.6233910951
 20
295.282785742
 30
0.0
  0
SPLINE
  5
33E
100
AcDbEntity
  8
0
100
AcDbSpline
 62
7
  6
CONTINUOUS
 70
0
 71
3
 72
16
 73
12
 74
0
 42
0.0000001
 43
0.0000001
 44
0.0000000001
 40
0.0
 40
0.0
 40
0.0
 40
0.0
 40
0.0117995725
 40
0.0288395162
 40
0.0539804415
 40
0.0873913819
 40
0.1290827674
 40
0.2371973712
 40
0.378045505
 40
0.5515204321
 40
1.0
 40
1.0
 40
1.0
 40
1.0
 10
-25.5792049273
 20
302.6547644627
 30
0.0
 10
-25.5783662932
 20
302.6611114377
 30
0.0
 10
-25.5528244072
 20
302.6481311023
 30
0.0
 10
-25.536851664
 20
302.6329425565
 30
0.0
 10
-25.5032300772
 20
302.604072363
 30
0.0
 10
-25.4655692867
 20
302.5666551277
 30
0.0
 10
-25.3952286001
 20
302.495497294
 30
0.0
 10
-25.2873088055
 20
302.3810788274
 30
0.0
 10
-25.1309198852
 20
302.2132636262
 30
0.0
 10
-24.8495450497
 20
301.9098742132
 30
0.0
 10
-24.623795251
 20
301.6589285677
 30
0.0
 10
-24.4635299602
 20
301.4758271322
 30
0.0
  0
SPLINE
  5
33F
100
AcDbEntity
  8
0
100
AcDbSpline
 62
7
  6
CONTINUOUS
 70
0
 71
3
 72
10
 73
6
 74
0
 42
0.0000001
 43
0.0000001
 44
0.0000000001
 40
0.0
 40
0.0
 40
0.0
 40
0.0
 40
0.5408291972
 40
0.7812740549
 40
1.0
 40
1.0
 40
1.0
 40
1.0
 10
-0.9337560031
 20
317.9348319879
 30
0.0
 10
-2.7592449459
 20
317.4454996682
 30
0.0
 10
-5.3663935594
 20
316.5982983702
 30
0.0
 10
-8.5441155348
 20
315.1371709025
 30
0.0
 10
-9.9381735696
 20
314.3358472345
 30
0.0
 10
-10.577546054
 20
313.9170155784
 30
0.0
  0
SPLINE
  5
340
100
AcDbEntity
  8
0
100
AcDbSpline
 62
7
  6
CONTINUOUS
 70
0
 71
3
 72
14
 73
10
 74
0
 42
0.0000001
 43
0.0000001
 44
0.0000000001
 40
0.0
 40
0.0
 40
0.0
 40
0.0
 40
0.3034246098
 40
0.4338989779
 40
0.5529071827
 40
0.6641052969
 40
0.7722435731
 40
0.8825783122
 40
1.0
 40
1.0
 40
1.0
 40
1.0
 10
-10.7421516502
 20
313.8079748644
 30
0.0
 10
-11.6951497255
 20
313.169535425
 30
0.0
 10
-12.9924804953
 20
312.1278918565
 30
0.0
 10
-14.28474301
 20
310.4740489648
 30
0.0
 10
-14.9189807029
 20
309.2565642247
 30
0.0
 10
-15.254498396
 20
308.0104582093
 30
0.0
 10
-15.2805405728
 20
306.7516822289
 30
0.0
 10
-14.9961276381
 20
305.5024011414
 30
0.0
 10
-14.6213169306
 20
304.7194088894
 30
0.0
 10
-14.3944000947
 20
304.3378802138
 30
0.0
  0
SPLINE
  5
341
100
AcDbEntity
  8
0
100
AcDbSpline
 62
7
  6
CONTINUOUS
 70
0
 71
3
 72
9
 73
5
 74
0
 42
0.0000001
 43
0.0000001
 44
0.0000000001
 40
0.0
 40
0.0
 40
0.0
 40
0.0
 40
0.4526067531
 40
1.0
 40
1.0
 40
1.0
 40
1.0
 10
-14.3944000947
 20
304.3378802138
 30
0.0
 10
-13.9059787099
 20
303.5166684984
 30
0.0
 10
-12.4796164826
 20
301.9104486279
 30
0.0
 10
-10.7342644728
 20
300.7015371594
 30
0.0
 10
-9.7387172227
 20
300.1148056882
 30
0.0
  0
SPLINE
  5
342
100
AcDbEntity
  8
0
100
AcDbSpline
 62
7
  6
CONTINUOUS
 70
0
 71
3
 72
15
 73
11
 74
0
 42
0.0000001
 43
0.0000001
 44
0.0000000001
 40
0.0
 40
0.0
 40
0.0
 40
0.0
 40
0.1017335037
 40
0.2167802256
 40
0.3423950929
 40
0.4751568357
 40
0.6112497306
 40
0.7466843326
 40
0.8774997304
 40
1.0
 40
1.0
 40
1.0
 40
1.0
 10
-8.2193595152
 20
299.2917368229
 30
0.0
 10
-6.8587789242
 20
298.6127118469
 30
0.0
 10
-3.8423411252
 20
297.3985902266
 30
0.0
 10
1.096826994
 20
296.0305142278
 30
0.0
 10
6.5967629692
 20
295.0387441353
 30
0.0
 10
12.4699948852
 20
294.4589720689
 30
0.0
 10
18.5164574924
 20
294.3117391826
 30
0.0
 10
24.5288214728
 20
294.6024879897
 30
0.0
 10
30.3004262458
 20
295.3205398765
 30
0.0
 10
34.0121165853
 20
296.0996118104
 30
0.0
 10
35.7824692246
 20
296.566999556
 30
0.0
  0
SPLINE
  5
343
100
AcDbEntity
  8
0
100
AcDbSpline
 62
7
  6
CONTINUOUS
 70
0
 71
3
 72
27
 73
23
 74
0
 42
0.0000001
 43
0.0000001
 44
0.0000000001
 40
0.0
 40
0.0
 40
0.0
 40
0.0
 40
0.0585438151
 40
0.0886799958
 40
0.1039968477
 40
0.1194031487
 40
0.1348702442
 40
0.1505101164
 40
0.1662754536
 40
0.1820869406
 40
0.1980139758
 40
0.2140656459
 40
0.246358674
 40
0.2789834233
 40
0.3118351872
 40
0.3449048879
 40
0.3781189783
 40
0.5115131285
 40
0.6433931763
 40
0.7706494172
 40
0.8903721861
 40
1.0
 40
1.0
 40
1.0
 40
1.0
 10
38.6855389925
 20
294.3197404546
 30
0.0
 10
37.7848173239
 20
294.0815620102
 30
0.0
 10
36.4116922221
 20
293.7535710386
 30
0.0
 10
34.7921861211
 20
293.411795285
 30
0.0
 10
33.8397872081
 20
293.2355589165
 30
0.0
 10
33.116370192
 20
293.1051886073
 30
0.0
 10
32.3880639363
 20
292.9727428336
 30
0.0
 10
31.6513313381
 20
292.8556034598
 30
0.0
 10
30.9079904931
 20
292.7457621374
 30
0.0
 10
30.1604085507
 20
292.6332852732
 30
0.0
 10
29.4067067915
 20
292.5311988952
 30
0.0
 10
28.3911957077
 20
292.4089947537
 30
0.0
 10
27.1112707165
 20
292.259291089
 30
0.0
 10
25.5615669091
 20
292.1190118881
 30
0.0
 10
23.9981402573
 20
291.9949394497
 30
0.0
 10
22.4230204325
 20
291.9034535609
 30
0.0
 10
19.2483221192
 20
291.7638560165
 30
0.0
 10
14.4940513335
 20
291.7602868019
 30
0.0
 10
8.255788939
 20
292.1614701803
 30
0.0
 10
2.2746668871
 20
292.9639391342
 30
0.0
 10
-3.282373182
 20
294.1423443554
 30
0.0
 10
-6.7798765935
 20
295.2104770812
 30
0.0
 10
-8.4169376524
 20
295.8136457319
 30
0.0
  0
SPLINE
  5
344
100
AcDbEntity
  8
0
100
AcDbSpline
 62
7
  6
CONTINUOUS
 70
0
 71
3
 72
9
 73
5
 74
0
 42
0.0000001
 43
0.0000001
 44
0.0000000001
 40
0.0
 40
0.0
 40
0.0
 40
0.0
 40
0.2580338619
 40
1.0
 40
1.0
 40
1.0
 40
1.0
 10
-8.4392930765
 20
295.821889188
 30
0.0
 10
-8.6982883334
 20
295.9174700094
 30
0.0
 10
-9.6985710048
 20
296.297091153
 30
0.0
 10
-10.6847922623
 20
296.7142422244
 30
0.0
 10
-11.4050574036
 20
297.0479759208
 30
0.0
  0
SPLINE
  5
345
100
AcDbEntity
  8
0
100
AcDbSpline
 62
7
  6
CONTINUOUS
 70
0
 71
3
 72
9
 73
5
 74
0
 42
0.0000001
 43
0.0000001
 44
0.0000000001
 40
0.0
 40
0.0
 40
0.0
 40
0.0
 40
0.5355182833
 40
1.0
 40
1.0
 40
1.0
 40
1.0
 10
-11.4050574036
 20
297.0479759208
 30
0.0
 10
-12.5340879991
 20
297.5711104339
 30
0.0
 10
-14.5939739834
 20
298.6590507656
 30
0.0
 10
-16.4818506823
 20
300.036874529
 30
0.0
 10
-17.2819226859
 20
300.7612531762
 30
0.0
  0
SPLINE
  5
346
100
AcDbEntity
  8
0
100
AcDbSpline
 62
7
  6
CONTINUOUS
 70
0
 71
3
 72
13
 73
9
 74
0
 42
0.0000001
 43
0.0000001
 44
0.0000000001
 40
0.0
 40
0.0
 40
0.0
 40
0.0
 40
0.2870968642
 40
0.5353494428
 40
0.6509903863
 40
0.7647714378
 40
0.8800425273
 40
1.0
 40
1.0
 40
1.0
 40
1.0
 10
-17.2819226859
 20
300.7612531762
 30
0.0
 10
-17.9687403007
 20
301.3830922264
 30
0.0
 10
-19.152665872
 20
302.6639765833
 30
0.0
 10
-20.1228900732
 20
304.5709235667
 30
0.0
 10
-20.4283470675
 20
306.0904685389
 30
0.0
 10
-20.4402421591
 20
307.2095357484
 30
0.0
 10
-20.2396315698
 20
308.3240982531
 30
0.0
 10
-19.9733314722
 20
309.0394906199
 30
0.0
 10
-19.8105548997
 20
309.3907238247
 30
0.0
  0
SPLINE
  5
347
100
AcDbEntity
  8
0
100
AcDbSpline
 62
7
  6
CONTINUOUS
 70
0
 71
3
 72
9
 73
5
 74
0
 42
0.0000001
 43
0.0000001
 44
0.0000000001
 40
0.0
 40
0.0
 40
0.0
 40
0.0
 40
0.2345710695
 40
1.0
 40
1.0
 40
1.0
 40
1.0
 10
-19.7754047178
 20
309.4654905028
 30
0.0
 10
-19.6723317266
 20
309.6816549118
 30
0.0
 10
-19.1892420039
 20
310.5823857922
 30
0.0
 10
-18.5468663054
 20
311.3918741991
 30
0.0
 10
-18.0075819201
 20
311.9574152487
 30
0.0
  0
SPLINE
  5
348
100
AcDbEntity
  8
0
100
AcDbSpline
 62
7
  6
CONTINUOUS
 70
0
 71
3
 72
11
 73
7
 74
0
 42
0.0000001
 43
0.0000001
 44
0.0000000001
 40
0.0
 40
0.0
 40
0.0
 40
0.0
 40
0.2068965275
 40
0.4432614466
 40
0.7083947157
 40
1.0
 40
1.0
 40
1.0
 40
1.0
 10
-17.3204187036
 20
312.6281759099
 30
0.0
 10
-16.5899058897
 20
313.2942394177
 30
0.0
 10
-14.8842706537
 20
314.5684628442
 30
0.0
 10
-11.9143762163
 20
316.206855669
 30
0.0
 10
-8.4138363188
 20
317.6739484465
 30
0.0
 10
-5.8769439772
 20
318.4850172245
 30
0.0
 10
-4.5355856784
 20
318.8620117812
 30
0.0
  0
SPLINE
  5
349
100
AcDbEntity
  8
0
100
AcDbSpline
 62
7
  6
CONTINUOUS
 70
0
 71
3
 72
9
 73
5
 74
0
 42
0.0000001
 43
0.0000001
 44
0.0000000001
 40
0.0
 40
0.0
 40
0.0
 40
0.0
 40
0.2550726793
 40
1.0
 40
1.0
 40
1.0
 40
1.0
 10
-14.1170092802
 20
308.5280166744
 30
0.0
 10
-14.153243317
 20
308.4341825601
 30
0.0
 10
-14.2858737562
 20
308.0627699317
 30
0.0
 10
-14.3791767093
 20
307.6770859454
 30
0.0
 10
-14.4232304916
 20
307.3866485482
 30
0.0
  0
SPLINE
  5
34A
100
AcDbEntity
  8
0
100
AcDbSpline
 62
7
  6
CONTINUOUS
 70
0
 71
3
 72
9
 73
5
 74
0
 42
0.0000001
 43
0.0000001
 44
0.0000000001
 40
0.0
 40
0.0
 40
0.0
 40
0.0
 40
0.244552004
 40
1.0
 40
1.0
 40
1.0
 40
1.0
 10
49.4616857223
 20
307.3957747567
 30
0.0
 10
49.443457989
 20
307.51448072
 30
0.0
 10
49.3518556608
 20
307.9971975894
 30
0.0
 10
49.1923576271
 20
308.4662925165
 30
0.0
 10
49.0416949738
 20
308.8053162237
 30
0.0
  0
SPLINE
  5
34B
100
AcDbEntity
  8
0
100
AcDbSpline
 62
7
  6
CONTINUOUS
 70
0
 71
3
 72
10
 73
6
 74
0
 42
0.0000001
 43
0.0000001
 44
0.0000000001
 40
0.0
 40
0.0
 40
0.0
 40
0.0
 40
0.2446664649
 40
0.4890414471
 40
1.0
 40
1.0
 40
1.0
 40
1.0
 10
-23.7562680148
 20
304.8526697792
 30
0.0
 10
-23.8247538652
 20
304.4808167388
 30
0.0
 10
-23.8979626092
 20
303.7237937502
 30
0.0
 10
-23.7720811412
 20
302.1771237887
 30
0.0
 10
-23.3646224962
 20
301.0545258705
 30
0.0
 10
-22.9952541791
 20
300.3566078242
 30
0.0
  0
SPLINE
  5
34C
100
AcDbEntity
  8
0
100
AcDbSpline
 62
7
  6
CONTINUOUS
 70
0
 71
3
 72
15
 73
11
 74
0
 42
0.0000001
 43
0.0000001
 44
0.0000000001
 40
0.0
 40
0.0
 40
0.0
 40
0.0
 40
0.0982301947
 40
0.211013227
 40
0.3356376095
 40
0.4685527415
 40
0.6057089278
 40
0.7428178348
 40
0.8755895011
 40
1.0
 40
1.0
 40
1.0
 40
1.0
 10
44.4293803898
 20
314.639482078
 30
0.0
 10
43.1216068527
 20
315.3794488744
 30
0.0
 10
40.1640099047
 20
316.7082375682
 30
0.0
 10
35.24754046
 20
318.2169106945
 30
0.0
 10
29.6860499443
 20
319.3363265243
 30
0.0
 10
23.6812968818
 20
320.0232414372
 30
0.0
 10
17.4510069926
 20
320.2517930711
 30
0.0
 10
11.2231361116
 20
320.0130060185
 30
0.0
 10
5.2261713717
 20
319.3162487792
 30
0.0
 10
1.3643280154
 20
318.5310645743
 30
0.0
 10
-0.4781833166
 20
318.0547627253
 30
0.0
  0
SPLINE
  5
34D
100
AcDbEntity
  8
0
100
AcDbSpline
 62
7
  6
CONTINUOUS
 70
0
 71
3
 72
17
 73
13
 74
0
 42
0.0000001
 43
0.0000001
 44
0.0000000001
 40
0.0
 40
0.0
 40
0.0
 40
0.0
 40
0.1274882473
 40
0.2641839232
 40
0.4051187507
 40
0.5450396608
 40
0.6787598665
 40
0.8015175757
 40
0.8575413891
 40
0.9094501023
 40
0.9569776535
 40
1.0
 40
1.0
 40
1.0
 40
1.0
 10
-3.6457906534
 20
319.1046708738
 30
0.0
 10
-1.3232927219
 20
319.7188106048
 30
0.0
 10
3.5651305409
 20
320.712695702
 30
0.0
 10
11.1625881639
 20
321.5417241112
 30
0.0
 10
19.0372604678
 20
321.7393862437
 30
0.0
 10
26.8459695511
 20
321.2966576858
 30
0.0
 10
34.2489508351
 20
320.2334765674
 30
0.0
 10
39.9820997523
 20
318.8320317867
 30
0.0
 10
44.0927306786
 20
317.4093744897
 30
0.0
 10
46.7893821738
 20
316.2574609138
 30
0.0
 10
49.1653328274
 20
315.0011068594
 30
0.0
 10
50.5903338709
 20
314.0548246892
 30
0.0
 10
51.2351885016
 20
313.563516907
 30
0.0
  0
SPLINE
  5
34E
100
AcDbEntity
  8
0
100
AcDbSpline
 62
7
  6
CONTINUOUS
 70
0
 71
3
 72
15
 73
11
 74
0
 42
0.0000001
 43
0.0000001
 44
0.0000000001
 40
0.0
 40
0.0
 40
0.0
 40
0.0
 40
0.1426903884
 40
0.2709678742
 40
0.3882756988
 40
0.4996041481
 40
0.6109953025
 40
0.728480401
 40
0.8570029569
 40
1.0
 40
1.0
 40
1.0
 40
1.0
 10
52.3567058299
 20
312.6313852538
 30
0.0
 10
52.8415029237
 20
312.1896431626
 30
0.0
 10
53.7094534231
 20
311.2884450285
 30
0.0
 10
54.7141394137
 20
309.8005434619
 30
0.0
 10
55.3290933478
 20
308.2635745972
 30
0.0
 10
55.5345463486
 20
306.6962538306
 30
0.0
 10
55.3207108061
 20
305.129215846
 30
0.0
 10
54.6973202828
 20
303.5933801584
 30
0.0
 10
53.6856666941
 20
302.1062133027
 30
0.0
 10
52.812665711
 20
301.2064204516
 30
0.0
 10
52.3257921353
 20
300.7648671359
 30
0.0
  0
SPLINE
  5
34F
100
AcDbEntity
  8
0
100
AcDbSpline
 62
7
  6
CONTINUOUS
 70
0
 71
3
 72
9
 73
5
 74
0
 42
0.0000001
 43
0.0000001
 44
0.0000000001
 40
0.0
 40
0.0
 40
0.0
 40
0.0
 40
0.4778398803
 40
1.0
 40
1.0
 40
1.0
 40
1.0
 10
52.3257921353
 20
300.7648671359
 30
0.0
 10
51.866262363
 20
300.3481123464
 30
0.0
 10
50.8494161173
 20
299.5361592904
 30
0.0
 10
49.7600071395
 20
298.826676599
 30
0.0
 10
49.1773991286
 20
298.4800905304
 30
0.0
  0
SPLINE
  5
350
100
AcDbEntity
  8
0
100
AcDbSpline
 62
7
  6
CONTINUOUS
 70
0
 71
3
 72
9
 73
5
 74
0
 42
0.0000001
 43
0.0000001
 44
0.0000000001
 40
0.0
 40
0.0
 40
0.0
 40
0.0
 40
0.4657224059
 40
1.0
 40
1.0
 40
1.0
 40
1.0
 10
48.8849886642
 20
298.3090921264
 30
0.0
 10
47.4358596658
 20
297.4752137075
 30
0.0
 10
44.1647689975
 20
295.9595669538
 30
0.0
 10
40.7367622407
 20
294.8692213914
 30
0.0
 10
38.8841332403
 20
294.3726140305
 30
0.0
  0
SPLINE
  5
351
100
AcDbEntity
  8
0
100
AcDbSpline
 62
7
  6
CONTINUOUS
 70
0
 71
3
 72
9
 73
5
 74
0
 42
0.0000001
 43
0.0000001
 44
0.0000000001
 40
0.0
 40
0.0
 40
0.0
 40
0.0
 40
0.528770905
 40
1.0
 40
1.0
 40
1.0
 40
1.0
 10
35.9735773866
 20
296.6178416542
 30
0.0
 10
37.376536498
 20
296.993912536
 30
0.0
 10
40.0022398488
 20
297.8147048156
 30
0.0
 10
42.5311126683
 20
298.9075109779
 30
0.0
 10
43.6789684389
 20
299.5058140354
 30
0.0
  0
SPLINE
  5
352
100
AcDbEntity
  8
0
100
AcDbSpline
 62
7
  6
CONTINUOUS
 70
0
 71
3
 72
9
 73
5
 74
0
 42
0.0000001
 43
0.0000001
 44
0.0000000001
 40
0.0
 40
0.0
 40
0.0
 40
0.0
 40
0.547006898
 40
1.0
 40
1.0
 40
1.0
 40
1.0
 10
44.8276360822
 20
300.1438434741
 30
0.0
 10
45.811804013
 20
300.7271877079
 30
0.0
 10
47.5378990943
 20
301.9292315978
 30
0.0
 10
48.9487719305
 20
303.5219335167
 30
0.0
 10
49.4332317706
 20
304.3361366271
 30
0.0
  0
SPLINE
  5
353
100
AcDbEntity
  8
0
100
AcDbSpline
 62
7
  6
CONTINUOUS
 70
0
 71
3
 72
15
 73
11
 74
0
 42
0.0000001
 43
0.0000001
 44
0.0000000001
 40
0.0
 40
0.0
 40
0.0
 40
0.0
 40
0.1134631696
 40
0.2198703711
 40
0.3249300786
 40
0.4346174231
 40
0.5540384141
 40
0.68681345
 40
0.8351636013
 40
1.0
 40
1.0
 40
1.0
 40
1.0
 10
49.4332317706
 20
304.3361366271
 30
0.0
 10
49.679397699
 20
304.7498531997
 30
0.0
 10
50.080046867
 20
305.6024945665
 30
0.0
 10
50.3480101968
 20
306.9702642206
 30
0.0
 10
50.2444490397
 20
308.3454132998
 30
0.0
 10
49.7743176461
 20
309.6978450917
 30
0.0
 10
48.9552176065
 20
311.0088567816
 30
0.0
 10
47.8040221884
 20
312.2691181877
 30
0.0
 10
46.3352658784
 20
313.4701337621
 30
0.0
 10
45.2134689262
 20
314.187664346
 30
0.0
 10
44.6078439282
 20
314.5374618932
 30
0.0
  0
SPLINE
  5
354
100
AcDbEntity
  8
0
100
AcDbSpline
 62
7
  6
CONTINUOUS
 70
0
 71
3
 72
12
 73
8
 74
0
 42
0.0000001
 43
0.0000001
 44
0.0000000001
 40
0.0
 40
0.0
 40
0.0
 40
0.0
 40
0.052834278
 40
0.124649315
 40
0.3304346459
 40
0.6222895174
 40
1.0
 40
1.0
 40
1.0
 40
1.0
 10
-24.0633387838
 20
303.0615162269
 30
0.0
 10
-24.0714619726
 20
303.010552785
 30
0.0
 10
-24.0680293721
 20
302.887268545
 30
0.0
 10
-24.0060861073
 20
302.5702364652
 30
0.0
 10
-23.8166361696
 20
302.0446007276
 30
0.0
 10
-23.4658653132
 20
301.265206113
 30
0.0
 10
-23.167794365
 20
300.6825691949
 30
0.0
 10
-22.9952100719
 20
300.356489846
 30
0.0
  0
SPLINE
  5
355
100
AcDbEntity
  8
0
100
AcDbSpline
 62
7
  6
CONTINUOUS
 70
0
 71
3
 72
9
 73
5
 74
0
 42
0.0000001
 43
0.0000001
 44
0.0000000001
 40
0.0
 40
0.0
 40
0.0
 40
0.0
 40
0.5140173701
 40
1.0
 40
1.0
 40
1.0
 40
1.0
 10
26.3360160225
 20
287.7664135926
 30
0.0
 10
28.5646219798
 20
287.9576093388
 30
0.0
 10
32.8892311428
 20
288.4756014238
 30
0.0
 10
37.1649997362
 20
289.312733366
 30
0.0
 10
39.2203920548
 20
289.810455877
 30
0.0
  0
SPLINE
  5
356
100
AcDbEntity
  8
0
100
AcDbSpline
 62
7
  6
CONTINUOUS
 70
0
 71
3
 72
9
 73
5
 74
0
 42
0.0000001
 43
0.0000001
 44
0.0000000001
 40
0.0
 40
0.0
 40
0.0
 40
0.0
 40
0.4656674483
 40
1.0
 40
1.0
 40
1.0
 40
1.0
 10
-16.4624584644
 20
294.3828226618
 30
0.0
 10
-14.8246692475
 20
293.4556356535
 30
0.0
 10
-11.1234485894
 20
291.7886654176
 30
0.0
 10
-7.2538842463
 20
290.5955637241
 30
0.0
 10
-5.1627357758
 20
290.0563760302
 30
0.0
  0
SPLINE
  5
357
100
AcDbEntity
  8
0
100
AcDbSpline
 62
7
  6
CONTINUOUS
 70
0
 71
3
 72
10
 73
6
 74
0
 42
0.0000001
 43
0.0000001
 44
0.0000000001
 40
0.0
 40
0.0
 40
0.0
 40
0.0
 40
0.4491139369
 40
0.7111866311
 40
1.0
 40
1.0
 40
1.0
 40
1.0
 10
-22.9144697514
 20
300.2074490026
 30
0.0
 10
-22.2958662892
 20
299.0910880462
 30
0.0
 10
-20.9412182472
 20
297.5297636553
 30
0.0
 10
-18.7180339116
 20
295.7610923309
 30
0.0
 10
-17.3932166533
 20
294.9191328727
 30
0.0
 10
-16.6825031276
 20
294.5086197362
 30
0.0
  0
SPLINE
  5
358
100
AcDbEntity
  8
0
100
AcDbSpline
 62
7
  6
CONTINUOUS
 70
0
 71
3
 72
11
 73
7
 74
0
 42
0.0000001
 43
0.0000001
 44
0.0000000001
 40
0.0
 40
0.0
 40
0.0
 40
0.0
 40
0.2342097103
 40
0.4886044343
 40
0.7477081081
 40
1.0
 40
1.0
 40
1.0
 40
1.0
 10
39.2411889251
 20
289.6456508324
 30
0.0
 10
37.0731602549
 20
288.8462338439
 30
0.0
 10
32.6545089235
 20
286.8906325074
 30
0.0
 10
26.2218714851
 20
283.2607532806
 30
0.0
 10
19.9767616265
 20
278.9938483549
 30
0.0
 10
16.0505085259
 20
275.8137112575
 30
0.0
 10
14.1900300786
 20
274.1601326537
 30
0.0
  0
SPLINE
  5
359
100
AcDbEntity
  8
0
100
AcDbSpline
 62
7
  6
CONTINUOUS
 70
0
 71
3
 72
9
 73
5
 74
0
 42
0.0000001
 43
0.0000001
 44
0.0000000001
 40
0.0
 40
0.0
 40
0.0
 40
0.0
 40
0.5144653313
 40
1.0
 40
1.0
 40
1.0
 40
1.0
 10
27.99739462
 20
284.9985491115
 30
0.0
 10
29.840797489
 20
285.9823954888
 30
0.0
 10
33.5026909849
 20
287.7515270366
 30
0.0
 10
37.3160574278
 20
289.1740825997
 30
0.0
 10
39.2012079169
 20
289.7529206637
 30
0.0
  0
SPLINE
  5
35A
100
AcDbEntity
  8
0
100
AcDbSpline
 62
7
  6
CONTINUOUS
 70
0
 71
3
 72
15
 73
11
 74
0
 42
0.0000001
 43
0.0000001
 44
0.0000000001
 40
0.0
 40
0.0
 40
0.0
 40
0.0
 40
0.2561463313
 40
0.383239712
 40
0.509584033
 40
0.6350558232
 40
0.7594291178
 40
0.8821690747
 40
0.9425167992
 40
1.0
 40
1.0
 40
1.0
 40
1.0
 10
41.1384936945
 20
290.3049908535
 30
0.0
 10
41.2505703323
 20
290.3356376565
 30
0.0
 10
41.4185999958
 20
290.380211378
 30
0.0
 10
41.6430698906
 20
290.4355929395
 30
0.0
 10
41.810425113
 20
290.4742571215
 30
0.0
 10
41.9779705422
 20
290.5090677796
 30
0.0
 10
42.1426769242
 20
290.5386109635
 30
0.0
 10
42.2867910576
 20
290.5541610573
 30
0.0
 10
42.3854625922
 20
290.556834603
 30
0.0
 10
42.4592623266
 20
290.5403091406
 30
0.0
 10
42.4617872347
 20
290.5143565671
 30
0.0
  0
SPLINE
  5
35B
100
AcDbEntity
  8
0
100
AcDbSpline
 62
7
  6
CONTINUOUS
 70
0
 71
3
 72
17
 73
13
 74
0
 42
0.0000001
 43
0.0000001
 44
0.0000000001
 40
0.0
 40
0.0
 40
0.0
 40
0.0
 40
0.1240015444
 40
0.2504213783
 40
0.3784967821
 40
0.4428311067
 40
0.5071742655
 40
0.5713697673
 40
0.6352424392
 40
0.7611665478
 40
0.8833317352
 40
1.0
 40
1.0
 40
1.0
 40
1.0
 10
15.290655435
 20
273.9491500765
 30
0.0
 10
16.1260435768
 20
274.6716928479
 30
0.0
 10
17.820689034
 20
276.1225633491
 30
0.0
 10
20.4627801113
 20
278.2179188497
 30
0.0
 10
22.7451495472
 20
279.9087721783
 30
0.0
 10
24.6197289658
 20
281.2190407959
 30
0.0
 10
26.04894103
 20
282.1725420825
 30
0.0
 10
27.4912582676
 20
283.0984248377
 30
0.0
 10
29.4123360138
 20
284.2933734419
 30
0.0
 10
31.8097842084
 20
285.700004746
 30
0.0
 10
34.683409611
 20
287.2174781551
 30
0.0
 10
36.6033319538
 20
288.1365321583
 30
0.0
 10
37.5560649258
 20
288.5515220263
 30
0.0
  0
SPLINE
  5
35C
100
AcDbEntity
  8
0
100
AcDbSpline
 62
7
  6
CONTINUOUS
 70
0
 71
3
 72
9
 73
5
 74
0
 42
0.0000001
 43
0.0000001
 44
0.0000000001
 40
0.0
 40
0.0
 40
0.0
 40
0.0
 40
0.2541225954
 40
1.0
 40
1.0
 40
1.0
 40
1.0
 10
37.5560649258
 20
288.5515220263
 30
0.0
 10
37.7054667022
 20
288.6183523227
 30
0.0
 10
38.2943329965
 20
288.8791900001
 30
0.0
 10
38.8872080374
 20
289.1310461368
 30
0.0
 10
39.3321011924
 20
289.3122585546
 30
0.0
  0
SPLINE
  5
35D
100
AcDbEntity
  8
0
100
AcDbSpline
 62
7
  6
CONTINUOUS
 70
0
 71
3
 72
9
 73
5
 74
0
 42
0.0000001
 43
0.0000001
 44
0.0000000001
 40
0.0
 40
0.0
 40
0.0
 40
0.0
 40
0.5303778383
 40
1.0
 40
1.0
 40
1.0
 40
1.0
 10
43.5876306449
 20
291.0291577473
 30
0.0
 10
45.1602579874
 20
291.5310201619
 30
0.0
 10
48.087107125
 20
292.6045494626
 30
0.0
 10
50.8812496338
 20
293.9989113145
 30
0.0
 10
52.1343646818
 20
294.7513549481
 30
0.0
  0
SPLINE
  5
35E
100
AcDbEntity
  8
0
100
AcDbSpline
 62
7
  6
CONTINUOUS
 70
0
 71
3
 72
12
 73
8
 74
0
 42
0.0000001
 43
0.0000001
 44
0.0000000001
 40
0.0
 40
0.0
 40
0.0
 40
0.0
 40
0.0902781131
 40
0.1955196442
 40
0.4411566425
 40
0.7155659371
 40
1.0
 40
1.0
 40
1.0
 40
1.0
 10
52.1677416365
 20
294.7428172602
 30
0.0
 10
51.4761817073
 20
294.2196836076
 30
0.0
 10
50.0023722928
 20
293.0550113748
 30
0.0
 10
46.7568330814
 20
290.3300449457
 30
0.0
 10
42.3097365847
 20
286.2898262801
 30
0.0
 10
36.7905462006
 20
280.8799512328
 30
0.0
 10
33.0878309328
 20
276.9915143475
 30
0.0
 10
31.245858996
 20
274.9738055283
 30
0.0
  0
SPLINE
  5
35F
100
AcDbEntity
  8
0
100
AcDbSpline
 62
7
  6
CONTINUOUS
 70
0
 71
3
 72
10
 73
6
 74
0
 42
0.0000001
 43
0.0000001
 44
0.0000000001
 40
0.0
 40
0.0
 40
0.0
 40
0.0
 40
0.5442405873
 40
0.7851679063
 40
1.0
 40
1.0
 40
1.0
 40
1.0
 10
42.6972961999
 20
287.7891565248
 30
0.0
 10
44.3266625006
 20
289.1599906884
 30
0.0
 10
46.7266140301
 20
291.082140545
 30
0.0
 10
49.9143596872
 20
293.3519557932
 30
0.0
 10
51.4139436383
 20
294.3186873275
 30
0.0
 10
52.1345312336
 20
294.7513924182
 30
0.0
  0
SPLINE
  5
360
100
AcDbEntity
  8
0
100
AcDbSpline
 62
7
  6
CONTINUOUS
 70
0
 71
3
 72
17
 73
13
 74
0
 42
0.0000001
 43
0.0000001
 44
0.0000000001
 40
0.0
 40
0.0
 40
0.0
 40
0.0
 40
0.2625201214
 40
0.5184162808
 40
0.6432026715
 40
0.7650858074
 40
0.8245574558
 40
0.8826336179
 40
0.9109974398
 40
0.9388169043
 40
0.9663654162
 40
1.0
 40
1.0
 40
1.0
 40
1.0
 10
52.3452609923
 20
294.8792418285
 30
0.0
 10
52.4185400329
 20
294.924151428
 30
0.0
 10
52.5639666659
 20
295.0116650072
 30
0.0
 10
52.747090919
 20
295.1157484914
 30
0.0
 10
52.8931240034
 20
295.1915850613
 30
0.0
 10
52.9838998066
 20
295.2342194618
 30
0.0
 10
53.0567222605
 20
295.2633207589
 30
0.0
 10
53.1021662704
 20
295.2781701108
 30
0.0
 10
53.1387190324
 20
295.2865932847
 30
0.0
 10
53.1659057409
 20
295.2894520457
 30
0.0
 10
53.1957189734
 20
295.2889229146
 30
0.0
 10
53.2127070771
 20
295.2710917167
 30
0.0
 10
53.2143044091
 20
295.2601966384
 30
0.0
  0
SPLINE
  5
361
100
AcDbEntity
  8
0
100
AcDbSpline
 62
7
  6
CONTINUOUS
 70
0
 71
3
 72
9
 73
5
 74
0
 42
0.0000001
 43
0.0000001
 44
0.0000000001
 40
0.0
 40
0.0
 40
0.0
 40
0.0
 40
0.2552424514
 40
1.0
 40
1.0
 40
1.0
 40
1.0
 10
52.3782809494
 20
294.5148383335
 30
0.0
 10
52.4515422163
 20
294.5757962816
 30
0.0
 10
52.7365891873
 20
294.8169830319
 30
0.0
 10
53.0135438411
 20
295.0677778352
 30
0.0
 10
53.2143040483
 20
295.2602018641
 30
0.0
  0
SPLINE
  5
362
100
AcDbEntity
  8
0
100
AcDbSpline
 62
7
  6
CONTINUOUS
 70
0
 71
3
 72
9
 73
5
 74
0
 42
0.0000001
 43
0.0000001
 44
0.0000000001
 40
0.0
 40
0.0
 40
0.0
 40
0.0
 40
0.2355721889
 40
1.0
 40
1.0
 40
1.0
 40
1.0
 10
53.564177825
 20
292.5808143417
 30
0.0
 10
53.3657115292
 20
292.1378406631
 30
0.0
 10
52.5050612177
 20
290.2655618037
 30
0.0
 10
51.5829661079
 20
288.4219926633
 30
0.0
 10
50.8572262289
 20
287.0240287334
 30
0.0
  0
SPLINE
  5
363
100
AcDbEntity
  8
0
100
AcDbSpline
 62
7
  6
CONTINUOUS
 70
0
 71
3
 72
9
 73
5
 74
0
 42
0.0000001
 43
0.0000001
 44
0.0000000001
 40
0.0
 40
0.0
 40
0.0
 40
0.0
 40
0.2405770747
 40
1.0
 40
1.0
 40
1.0
 40
1.0
 10
50.8572262289
 20
287.0240287334
 30
0.0
 10
50.491956367
 20
286.3204238933
 30
0.0
 10
48.9505214286
 20
283.4077643476
 30
0.0
 10
47.3324005075
 20
280.5362760816
 30
0.0
 10
46.0808236169
 20
278.3692246595
 30
0.0
  0
SPLINE
  5
364
100
AcDbEntity
  8
0
100
AcDbSpline
 62
7
  6
CONTINUOUS
 70
0
 71
3
 72
16
 73
12
 74
0
 42
0.0000001
 43
0.0000001
 44
0.0000000001
 40
0.0
 40
0.0
 40
0.0
 40
0.0
 40
0.1368805843
 40
0.2733309446
 40
0.4081380357
 40
0.474445774
 40
0.5397431515
 40
0.6666132449
 40
0.7869460021
 40
0.8987105183
 40
1.0
 40
1.0
 40
1.0
 40
1.0
 10
32.4679003133
 20
274.9446119721
 30
0.0
 10
33.2467964961
 20
275.7855925481
 30
0.0
 10
34.7947034897
 20
277.4718196764
 30
0.0
 10
37.1427613022
 20
279.9555560835
 30
0.0
 10
39.1063822461
 20
281.989160659
 30
0.0
 10
40.6721439767
 20
283.5784522594
 30
0.0
 10
42.2066423356
 20
285.1050817096
 30
0.0
 10
44.0745300339
 20
286.9379401244
 30
0.0
 10
46.2371580582
 20
289.0261010984
 30
0.0
 10
48.2830228446
 20
290.9258493535
 30
0.0
 10
49.6044575915
 20
292.1250019855
 30
0.0
 10
50.245029655
 20
292.6810088447
 30
0.0
  0
SPLINE
  5
365
100
AcDbEntity
  8
0
100
AcDbSpline
 62
7
  6
CONTINUOUS
 70
0
 71
3
 72
9
 73
5
 74
0
 42
0.0000001
 43
0.0000001
 44
0.0000000001
 40
0.0
 40
0.0
 40
0.0
 40
0.0
 40
0.2681423275
 40
1.0
 40
1.0
 40
1.0
 40
1.0
 10
50.245029655
 20
292.6810088447
 30
0.0
 10
50.4331282352
 20
292.8478749761
 30
0.0
 10
51.1360576483
 20
293.4685102049
 30
0.0
 10
51.8470945519
 20
294.0802770059
 30
0.0
 10
52.3782779483
 20
294.514830428
 30
0.0
  0
SPLINE
  5
366
100
AcDbEntity
  8
0
100
AcDbSpline
 62
7
  6
CONTINUOUS
 70
0
 71
3
 72
10
 73
6
 74
0
 42
0.0000001
 43
0.0000001
 44
0.0000000001
 40
0.0
 40
0.0
 40
0.0
 40
0.0
 40
0.2891384383
 40
0.5510194664
 40
1.0
 40
1.0
 40
1.0
 40
1.0
 10
52.3452609923
 20
294.8792418285
 30
0.0
 10
53.026416199
 20
295.2967234073
 30
0.0
 10
54.2914954181
 20
296.1519509633
 30
0.0
 10
56.3931679367
 20
297.9445075896
 30
0.0
 10
57.6412119883
 20
299.5252839045
 30
0.0
 10
58.1797636158
 20
300.6428609538
 30
0.0
  0
SPLINE
  5
367
100
AcDbEntity
  8
0
100
AcDbSpline
 62
7
  6
CONTINUOUS
 70
0
 71
3
 72
14
 73
10
 74
0
 42
0.0000001
 43
0.0000001
 44
0.0000000001
 40
0.0
 40
0.0
 40
0.0
 40
0.0
 40
0.0742192855
 40
0.167423994
 40
0.2780705405
 40
0.4036188634
 40
0.5412464841
 40
0.6882026149
 40
1.0
 40
1.0
 40
1.0
 40
1.0
 10
58.218852776
 20
300.6400072692
 30
0.0
 10
58.0826664452
 20
300.0253515394
 30
0.0
 10
57.6533160185
 20
298.6669259484
 30
0.0
 10
56.7518541102
 20
296.4862916828
 30
0.0
 10
55.5372439778
 20
293.9684988
 30
0.0
 10
54.0491522202
 20
291.1679095438
 30
0.0
 10
52.3281852106
 20
288.1440027749
 30
0.0
 10
49.7295950463
 20
283.8033159888
 30
0.0
 10
47.6440430874
 20
280.5173506454
 30
0.0
 10
46.2120367944
 20
278.293756618
 30
0.0
  0
SPLINE
  5
368
100
AcDbEntity
  8
0
100
AcDbSpline
 62
7
  6
CONTINUOUS
 70
0
 71
3
 72
10
 73
6
 74
0
 42
0.0000001
 43
0.0000001
 44
0.0000000001
 40
0.0
 40
0.0
 40
0.0
 40
0.0
 40
0.5742082178
 40
0.8079040852
 40
1.0
 40
1.0
 40
1.0
 40
1.0
 10
53.564177825
 20
292.5808143417
 30
0.0
 10
54.5032418245
 20
294.091462894
 30
0.0
 10
55.80247516
 20
296.2314131458
 30
0.0
 10
57.3146062041
 20
298.9352452359
 30
0.0
 10
57.921517264
 20
300.1068599722
 30
0.0
 10
58.1798305194
 20
300.6429286427
 30
0.0
  0
SPLINE
  5
369
100
AcDbEntity
  8
0
100
AcDbSpline
 62
7
  6
CONTINUOUS
 70
0
 71
3
 72
18
 73
14
 74
0
 42
0.0000001
 43
0.0000001
 44
0.0000000001
 40
0.0
 40
0.0
 40
0.0
 40
0.0
 40
0.2864907221
 40
0.4239785769
 40
0.5566042184
 40
0.6829585925
 40
0.7430360466
 40
0.8003488882
 40
0.853961527
 40
0.9021538854
 40
0.9413440922
 40
0.9580351921
 40
1.0
 40
1.0
 40
1.0
 40
1.0
 10
58.2502921635
 20
300.793011997
 30
0.0
 10
58.2740136599
 20
300.8448827644
 30
0.0
 10
58.3091684705
 20
300.9216253998
 30
0.0
 10
58.356112825
 20
301.0220045881
 30
0.0
 10
58.390254788
 20
301.0931784045
 30
0.0
 10
58.4187250742
 20
301.1499548123
 30
0.0
 10
58.4416028509
 20
301.1927865642
 30
0.0
 10
58.4584741743
 20
301.2222763015
 30
0.0
 10
58.4752318469
 20
301.2494689512
 30
0.0
 10
58.4921668115
 20
301.2710322641
 30
0.0
 10
58.5066821675
 20
301.2881229408
 30
0.0
 10
58.5286198083
 20
301.287732779
 30
0.0
 10
58.5312271389
 20
301.2720905977
 30
0.0
 10
58.5326763547
 20
301.2638624526
 30
0.0
  0
SPLINE
  5
36A
100
AcDbEntity
  8
0
100
AcDbSpline
 62
7
  6
CONTINUOUS
 70
0
 71
3
 72
14
 73
10
 74
0
 42
0.0000001
 43
0.0000001
 44
0.0000000001
 40
0.0
 40
0.0
 40
0.0
 40
0.0
 40
0.1485285456
 40
0.2936982917
 40
0.4339927761
 40
0.5675240244
 40
0.6927357147
 40
0.8079065636
 40
1.0
 40
1.0
 40
1.0
 40
1.0
 10
47.3694492758
 20
278.4507967122
 30
0.0
 10
47.9765854686
 20
279.3927824202
 30
0.0
 10
49.1503285625
 20
281.2726560207
 30
0.0
 10
50.8512474503
 20
284.0709523754
 30
0.0
 10
52.4419324052
 20
286.8033264855
 30
0.0
 10
53.909815337
 20
289.4322483393
 30
0.0
 10
55.2199562248
 20
291.9318140299
 30
0.0
 10
56.625872687
 20
294.8760808663
 30
0.0
 10
57.5097788386
 20
297.0264952277
 30
0.0
 10
57.9518917413
 20
298.4068226969
 30
0.0
  0
SPLINE
  5
36B
100
AcDbEntity
  8
0
100
AcDbSpline
 62
7
  6
CONTINUOUS
 70
0
 71
3
 72
9
 73
5
 74
0
 42
0.0000001
 43
0.0000001
 44
0.0000000001
 40
0.0
 40
0.0
 40
0.0
 40
0.0
 40
0.2759842183
 40
1.0
 40
1.0
 40
1.0
 40
1.0
 10
57.9518917413
 20
298.4068226969
 30
0.0
 10
58.0095003874
 20
298.5914312828
 30
0.0
 10
58.2088137323
 20
299.2631044996
 30
0.0
 10
58.372113027
 20
299.9464888789
 30
0.0
 10
58.4550804781
 20
300.4469931826
 30
0.0
  0
SPLINE
  5
36C
100
AcDbEntity
  8
0
100
AcDbSpline
 62
7
  6
CONTINUOUS
 70
0
 71
3
 72
9
 73
5
 74
0
 42
0.0000001
 43
0.0000001
 44
0.0000000001
 40
0.0
 40
0.0
 40
0.0
 40
0.0
 40
0.5096856486
 40
1.0
 40
1.0
 40
1.0
 40
1.0
 10
58.2502921635
 20
300.793011997
 30
0.0
 10
58.5110796044
 20
301.363361859
 30
0.0
 10
58.8943552573
 20
302.5493565996
 30
0.0
 10
58.9312087611
 20
303.7983740286
 30
0.0
 10
58.863624591
 20
304.397884721
 30
0.0
  0
SPLINE
  5
36D
100
AcDbEntity
  8
0
100
AcDbSpline
 62
7
  6
CONTINUOUS
 70
0
 71
3
 72
9
 73
5
 74
0
 42
0.0000001
 43
0.0000001
 44
0.0000000001
 40
0.0
 40
0.0
 40
0.0
 40
0.0
 40
0.2409935684
 40
1.0
 40
1.0
 40
1.0
 40
1.0
 10
58.1668436641
 20
306.8808912123
 30
0.0
 10
58.2644168133
 20
306.7534546515
 30
0.0
 10
58.650405468
 20
306.2102486025
 30
0.0
 10
58.9604878639
 20
305.6148315266
 30
0.0
 10
59.1570237939
 20
305.1491061635
 30
0.0
  0
SPLINE
  5
36E
100
AcDbEntity
  8
0
100
AcDbSpline
 62
7
  6
CONTINUOUS
 70
0
 71
3
 72
13
 73
9
 74
0
 42
0.0000001
 43
0.0000001
 44
0.0000000001
 40
0.0
 40
0.0
 40
0.0
 40
0.0
 40
0.1923527533
 40
0.305144923
 40
0.4282623311
 40
0.5606539689
 40
0.70098166
 40
1.0
 40
1.0
 40
1.0
 40
1.0
 10
59.1570237939
 20
305.1491061635
 30
0.0
 10
59.7066854353
 20
303.8465892773
 30
0.0
 10
60.1207901142
 20
301.5902839923
 30
0.0
 10
60.1550782637
 20
298.4454046812
 30
0.0
 10
59.9243517228
 20
295.7429588386
 30
0.0
 10
59.4534985759
 20
292.870213949
 30
0.0
 10
58.5131810036
 20
288.772322924
 30
0.0
 10
57.5409181945
 20
285.6871949071
 30
0.0
 10
56.8100983268
 20
283.6145536032
 30
0.0
  0
SPLINE
  5
36F
100
AcDbEntity
  8
0
100
AcDbSpline
 62
7
  6
CONTINUOUS
 70
0
 71
3
 72
9
 73
5
 74
0
 42
0.0000001
 43
0.0000001
 44
0.0000000001
 40
0.0
 40
0.0
 40
0.0
 40
0.0
 40
0.5149137619
 40
1.0
 40
1.0
 40
1.0
 40
1.0
 10
56.6594408081
 20
283.6562129018
 30
0.0
 10
57.1166376893
 20
285.2075006033
 30
0.0
 10
57.914805462
 20
288.2477368884
 30
0.0
 10
58.4771299298
 20
291.3428356797
 30
0.0
 10
58.6711880303
 20
292.8540009974
 30
0.0
  0
SPLINE
  5
370
100
AcDbEntity
  8
0
100
AcDbSpline
 62
7
  6
CONTINUOUS
 70
0
 71
3
 72
9
 73
5
 74
0
 42
0.0000001
 43
0.0000001
 44
0.0000000001
 40
0.0
 40
0.0
 40
0.0
 40
0.0
 40
0.5185048395
 40
1.0
 40
1.0
 40
1.0
 40
1.0
 10
58.6711880303
 20
292.8540009974
 30
0.0
 10
58.7989161696
 20
293.8486429826
 30
0.0
 10
58.979309422
 20
295.7762845152
 30
0.0
 10
58.9911234517
 20
297.7140088453
 30
0.0
 10
58.9436472212
 20
298.6440292302
 30
0.0
  0
SPLINE
  5
371
100
AcDbEntity
  8
0
100
AcDbSpline
 62
7
  6
CONTINUOUS
 70
0
 71
3
 72
9
 73
5
 74
0
 42
0.0000001
 43
0.0000001
 44
0.0000000001
 40
0.0
 40
0.0
 40
0.0
 40
0.0
 40
0.5363596125
 40
1.0
 40
1.0
 40
1.0
 40
1.0
 10
58.9436472212
 20
298.6440292302
 30
0.0
 10
59.0542792479
 20
299.6695012488
 30
0.0
 10
59.1731621221
 20
301.5925451337
 30
0.0
 10
59.0342267213
 20
303.5210137296
 30
0.0
 10
58.8782008388
 20
304.3988384102
 30
0.0
  0
SPLINE
  5
372
100
AcDbEntity
  8
0
100
AcDbSpline
 62
7
  6
CONTINUOUS
 70
0
 71
3
 72
9
 73
5
 74
0
 42
0.0000001
 43
0.0000001
 44
0.0000000001
 40
0.0
 40
0.0
 40
0.0
 40
0.0
 40
0.2605735268
 40
1.0
 40
1.0
 40
1.0
 40
1.0
 10
-23.179032213
 20
306.7127679529
 30
0.0
 10
-23.1640280454
 20
306.780481475
 30
0.0
 10
-23.1017802715
 20
307.0392619997
 30
0.0
 10
-23.0201331149
 20
307.2935822311
 30
0.0
 10
-22.9471166846
 20
307.476347079
 30
0.0
  0
SPLINE
  5
373
100
AcDbEntity
  8
0
100
AcDbSpline
 62
7
  6
CONTINUOUS
 70
0
 71
3
 72
9
 73
5
 74
0
 42
0.0000001
 43
0.0000001
 44
0.0000000001
 40
0.0
 40
0.0
 40
0.0
 40
0.0
 40
0.2606234896
 40
1.0
 40
1.0
 40
1.0
 40
1.0
 10
-22.828639239
 20
307.7444596711
 30
0.0
 10
-22.7941963958
 20
307.8151281037
 30
0.0
 10
-22.6536994838
 20
308.0820438628
 30
0.0
 10
-22.4774679271
 20
308.3308449459
 30
0.0
 10
-22.3276250004
 20
308.4960366698
 30
0.0
  0
SPLINE
  5
374
100
AcDbEntity
  8
0
100
AcDbSpline
 62
7
  6
CONTINUOUS
 70
0
 71
3
 72
10
 73
6
 74
0
 42
0.0000001
 43
0.0000001
 44
0.0000000001
 40
0.0
 40
0.0
 40
0.0
 40
0.0
 40
0.5156687372
 40
0.7478329531
 40
1.0
 40
1.0
 40
1.0
 40
1.0
 10
-23.1793284706
 20
306.7126816709
 30
0.0
 10
-23.2295520133
 20
306.7101969805
 30
0.0
 10
-23.304032289
 20
306.6920362302
 30
0.0
 10
-23.3817204128
 20
306.6296057069
 30
0.0
 10
-23.4021509154
 20
306.5851439456
 30
0.0
 10
-23.4091233269
 20
306.5615633243
 30
0.0
  0
SPLINE
  5
375
100
AcDbEntity
  8
0
100
AcDbSpline
 62
7
  6
CONTINUOUS
 70
0
 71
3
 72
12
 73
8
 74
0
 42
0.0000001
 43
0.0000001
 44
0.0000000001
 40
0.0
 40
0.0
 40
0.0
 40
0.0
 40
0.1425791068
 40
0.2817613433
 40
0.546246161
 40
0.7869277158
 40
1.0
 40
1.0
 40
1.0
 40
1.0
 10
57.7266765758
 20
283.933919454
 30
0.0
 10
58.006651937
 20
284.7487212588
 30
0.0
 10
58.5274077209
 20
286.3703144858
 30
0.0
 10
59.4197066031
 20
289.5486085655
 30
0.0
 10
60.2451782507
 20
293.3601430571
 30
0.0
 10
60.708369821
 20
297.6846887016
 30
0.0
 10
60.588238831
 20
300.442533851
 30
0.0
 10
60.3878125346
 20
301.7143682401
 30
0.0
  0
SPLINE
  5
376
100
AcDbEntity
  8
0
100
AcDbSpline
 62
7
  6
CONTINUOUS
 70
0
 71
3
 72
11
 73
7
 74
0
 42
0.0000001
 43
0.0000001
 44
0.0000000001
 40
0.0
 40
0.0
 40
0.0
 40
0.0
 40
0.26044377
 40
0.5143998446
 40
0.7609502615
 40
1.0
 40
1.0
 40
1.0
 40
1.0
 10
61.4494038154
 20
290.5870882304
 30
0.0
 10
61.4903424672
 20
291.5219089563
 30
0.0
 10
61.5173520369
 20
293.3714295617
 30
0.0
 10
61.3686469076
 20
296.1031305707
 30
0.0
 10
61.052098018
 20
298.7438461631
 30
0.0
 10
60.6838181881
 20
300.4525024871
 30
0.0
 10
60.4628633072
 20
301.2824464008
 30
0.0
  0
SPLINE
  5
377
100
AcDbEntity
  8
0
100
AcDbSpline
 62
7
  6
CONTINUOUS
 70
0
 71
3
 72
15
 73
11
 74
0
 42
0.0000001
 43
0.0000001
 44
0.0000000001
 40
0.0
 40
0.0
 40
0.0
 40
0.0
 40
0.2366273055
 40
0.4423211225
 40
0.6164105127
 40
0.758227208
 40
0.8671343017
 40
0.9430938544
 40
0.9867693833
 40
1.0
 40
1.0
 40
1.0
 40
1.0
 10
-23.0340995645
 20
300.3533135849
 30
0.0
 10
-23.2047249439
 20
300.5660119753
 30
0.0
 10
-23.5222331563
 20
300.9645488555
 30
0.0
 10
-23.960447026
 20
301.5244043653
 30
0.0
 10
-24.3256392291
 20
301.9995551366
 30
0.0
 10
-24.6209171583
 20
302.3962270317
 30
0.0
 10
-24.8360494625
 20
302.6898107864
 30
0.0
 10
-24.9956170744
 20
302.9331928802
 30
0.0
 10
-25.0561252005
 20
303.021452934
 30
0.0
 10
-25.1006483439
 20
303.1235968789
 30
0.0
 10
-25.0854755636
 20
303.1250929986
 30
0.0
  0
SPLINE
  5
378
100
AcDbEntity
  8
0
100
AcDbSpline
 62
7
  6
CONTINUOUS
 70
0
 71
3
 72
11
 73
7
 74
0
 42
0.0000001
 43
0.0000001
 44
0.0000000001
 40
0.0
 40
0.0
 40
0.0
 40
0.0
 40
0.2445249861
 40
0.4997395867
 40
0.7464261072
 40
1.0
 40
1.0
 40
1.0
 40
1.0
 10
-23.0342892578
 20
300.3531890086
 30
0.0
 10
-23.060696127
 20
300.3472747533
 30
0.0
 10
-23.1131307454
 20
300.3279472215
 30
0.0
 10
-23.18423135
 20
300.2855522908
 30
0.0
 10
-23.2450748646
 20
300.2246538465
 30
0.0
 10
-23.2588703354
 20
300.1680117567
 30
0.0
 10
-23.2600597008
 20
300.1399744854
 30
0.0
  0
SPLINE
  5
379
100
AcDbEntity
  8
0
100
AcDbSpline
 62
7
  6
CONTINUOUS
 70
0
 71
3
 72
14
 73
10
 74
0
 42
0.0000001
 43
0.0000001
 44
0.0000000001
 40
0.0
 40
0.0
 40
0.0
 40
0.0
 40
0.2163439631
 40
0.4436836724
 40
0.5630748979
 40
0.6883209438
 40
0.8239855826
 40
0.9006980206
 40
1.0
 40
1.0
 40
1.0
 40
1.0
 10
-22.9144697514
 20
300.2074490026
 30
0.0
 10
-22.8846265014
 20
300.1535881192
 30
0.0
 10
-22.823693764
 20
300.0429741383
 30
0.0
 10
-22.7481152672
 20
299.9016575078
 30
0.0
 10
-22.6872631405
 20
299.7818452666
 30
0.0
 10
-22.6407355253
 20
299.6842340089
 30
0.0
 10
-22.6025292852
 20
299.595547974
 30
0.0
 10
-22.5750754196
 20
299.5120453231
 30
0.0
 10
-22.5625415957
 20
299.4610351809
 30
0.0
 10
-22.5674062738
 20
299.4331935283
 30
0.0
  0
SPLINE
  5
37A
100
AcDbEntity
  8
0
100
AcDbSpline
 62
7
  6
CONTINUOUS
 70
0
 71
3
 72
9
 73
5
 74
0
 42
0.0000001
 43
0.0000001
 44
0.0000000001
 40
0.0
 40
0.0
 40
0.0
 40
0.0
 40
0.2154190323
 40
1.0
 40
1.0
 40
1.0
 40
1.0
 10
-24.4635299602
 20
301.4758271322
 30
0.0
 10
-24.3765176523
 20
301.3804432558
 30
0.0
 10
-23.972369383
 20
300.9378708551
 30
0.0
 10
-23.571282437
 20
300.4924744616
 30
0.0
 10
-23.2600561582
 20
300.1399754497
 30
0.0
  0
SPLINE
  5
37B
100
AcDbEntity
  8
0
100
AcDbSpline
 62
7
  6
CONTINUOUS
 70
0
 71
3
 72
9
 73
5
 74
0
 42
0.0000001
 43
0.0000001
 44
0.0000000001
 40
0.0
 40
0.0
 40
0.0
 40
0.0
 40
0.244401665
 40
1.0
 40
1.0
 40
1.0
 40
1.0
 10
-23.2600594379
 20
300.1399837188
 30
0.0
 10
-23.20615452
 20
300.080016527
 30
0.0
 10
-22.9828522437
 20
299.8371268909
 30
0.0
 10
-22.7489614532
 20
299.6040254751
 30
0.0
 10
-22.567403472
 20
299.4331983858
 30
0.0
  0
SPLINE
  5
37C
100
AcDbEntity
  8
0
100
AcDbSpline
 62
7
  6
CONTINUOUS
 70
0
 71
3
 72
11
 73
7
 74
0
 42
0.0000001
 43
0.0000001
 44
0.0000000001
 40
0.0
 40
0.0
 40
0.0
 40
0.0
 40
0.1735536066
 40
0.3961668771
 40
0.6717347069
 40
1.0
 40
1.0
 40
1.0
 40
1.0
 10
-22.9769111879
 20
296.8104570508
 30
0.0
 10
-22.5856766678
 20
296.8287901421
 30
0.0
 10
-21.6873776294
 20
296.7226231731
 30
0.0
 10
-20.234619487
 20
296.2782282129
 30
0.0
 10
-18.5234507669
 20
295.5278931119
 30
0.0
 10
-17.3238487419
 20
294.8790714785
 30
0.0
 10
-16.682354396
 20
294.5085592936
 30
0.0
  0
SPLINE
  5
37D
100
AcDbEntity
  8
0
100
AcDbSpline
 62
7
  6
CONTINUOUS
 70
0
 71
3
 72
11
 73
7
 74
0
 42
0.0000001
 43
0.0000001
 44
0.0000000001
 40
0.0
 40
0.0
 40
0.0
 40
0.0
 40
0.3158546291
 40
0.588331898
 40
0.8157034608
 40
1.0
 40
1.0
 40
1.0
 40
1.0
 10
-16.7151919288
 20
294.4997692637
 30
0.0
 10
-17.4225229086
 20
294.8312346471
 30
0.0
 10
-18.7564821966
 20
295.4147446285
 30
0.0
 10
-20.6610042769
 20
296.0881113948
 30
0.0
 10
-22.3089335706
 20
296.485497825
 30
0.0
 10
-23.3309647508
 20
296.5730602258
 30
0.0
 10
-23.786364958
 20
296.5543055075
 30
0.0
  0
SPLINE
  5
37E
100
AcDbEntity
  8
0
100
AcDbSpline
 62
7
  6
CONTINUOUS
 70
0
 71
3
 72
9
 73
5
 74
0
 42
0.0000001
 43
0.0000001
 44
0.0000000001
 40
0.0
 40
0.0
 40
0.0
 40
0.0
 40
0.2644651743
 40
1.0
 40
1.0
 40
1.0
 40
1.0
 10
-23.786364958
 20
296.5543055075
 30
0.0
 10
-23.8543171321
 20
296.5515070374
 30
0.0
 10
-24.1109765297
 20
296.5358506638
 30
0.0
 10
-24.3666971734
 20
296.4988196727
 30
0.0
 10
-24.5509539949
 20
296.456075048
 30
0.0
  0
SPLINE
  5
37F
100
AcDbEntity
  8
0
100
AcDbSpline
 62
7
  6
CONTINUOUS
 70
0
 71
3
 72
12
 73
8
 74
0
 42
0.0000001
 43
0.0000001
 44
0.0000000001
 40
0.0
 40
0.0
 40
0.0
 40
0.0
 40
0.2142693812
 40
0.4049690486
 40
0.6042698593
 40
0.8012160056
 40
1.0
 40
1.0
 40
1.0
 40
1.0
 10
-16.7152414064
 20
294.4996281191
 30
0.0
 10
-16.7357540264
 20
294.4892553291
 30
0.0
 10
-16.7718571664
 20
294.4645099121
 30
0.0
 10
-16.8211567376
 20
294.4224749059
 30
0.0
 10
-16.865333201
 20
294.3771898763
 30
0.0
 10
-16.8960301477
 20
294.3194751466
 30
0.0
 10
-16.8985561461
 20
294.275782119
 30
0.0
 10
-16.896486305
 20
294.2545578971
 30
0.0
  0
SPLINE
  5
380
100
AcDbEntity
  8
0
100
AcDbSpline
 62
7
  6
CONTINUOUS
 70
0
 71
3
 72
16
 73
12
 74
0
 42
0.0000001
 43
0.0000001
 44
0.0000000001
 40
0.0
 40
0.0
 40
0.0
 40
0.0
 40
0.2350426487
 40
0.4754199443
 40
0.5982084072
 40
0.7235096023
 40
0.7875672857
 40
0.8531628622
 40
0.9216818504
 40
0.9585912838
 40
1.0
 40
1.0
 40
1.0
 40
1.0
 10
-16.4624584644
 20
294.3828226618
 30
0.0
 10
-16.3834390067
 20
294.3380805769
 30
0.0
 10
-16.2243508576
 20
294.2462602222
 30
0.0
 10
-16.0269302407
 20
294.1260156389
 30
0.0
 10
-15.8689101121
 20
294.0228047809
 30
0.0
 10
-15.7700775659
 20
293.9536694456
 30
0.0
 10
-15.6917673905
 20
293.8938004261
 30
0.0
 10
-15.6331292434
 20
293.8447932091
 30
0.0
 10
-15.5851974865
 20
293.7983153718
 30
0.0
 10
-15.550933528
 20
293.7543343584
 30
0.0
 10
-15.5367454881
 20
293.7240587199
 30
0.0
 10
-15.5390174391
 20
293.7082228968
 30
0.0
  0
SPLINE
  5
381
100
AcDbEntity
  8
0
100
AcDbSpline
 62
7
  6
CONTINUOUS
 70
0
 71
3
 72
9
 73
5
 74
0
 42
0.0000001
 43
0.0000001
 44
0.0000000001
 40
0.0
 40
0.0
 40
0.0
 40
0.0
 40
0.2339420433
 40
1.0
 40
1.0
 40
1.0
 40
1.0
 10
-19.6233910951
 20
295.282785742
 30
0.0
 10
-19.4067842378
 20
295.2138388151
 30
0.0
 10
-18.4846999277
 20
294.9072137491
 30
0.0
 10
-17.5791943475
 20
294.551170766
 30
0.0
 10
-16.8964859602
 20
294.2545597406
 30
0.0
  0
SPLINE
  5
382
100
AcDbEntity
  8
0
100
AcDbSpline
 62
7
  6
CONTINUOUS
 70
0
 71
3
 72
11
 73
7
 74
0
 42
0.0000001
 43
0.0000001
 44
0.0000000001
 40
0.0
 40
0.0
 40
0.0
 40
0.0
 40
0.2582268991
 40
0.517196889
 40
0.7749450558
 40
1.0
 40
1.0
 40
1.0
 40
1.0
 10
58.2191411662
 20
300.6400930646
 30
0.0
 10
58.2473176914
 20
300.641430697
 30
0.0
 10
58.3051668613
 20
300.6328412217
 30
0.0
 10
58.3778354023
 20
300.5850157382
 30
0.0
 10
58.426891547
 20
300.5195158386
 30
0.0
 10
58.4493839574
 20
300.4709088746
 30
0.0
 10
58.4550853947
 20
300.4469945121
 30
0.0
  0
SPLINE
  5
383
100
AcDbEntity
  8
0
100
AcDbSpline
 62
7
  6
CONTINUOUS
 70
0
 71
3
 72
11
 73
7
 74
0
 42
0.0000001
 43
0.0000001
 44
0.0000000001
 40
0.0
 40
0.0
 40
0.0
 40
0.0
 40
0.2504914022
 40
0.5007977645
 40
0.7588660666
 40
1.0
 40
1.0
 40
1.0
 40
1.0
 10
52.1680991039
 20
294.7428520785
 30
0.0
 10
52.1952867896
 20
294.7398599422
 30
0.0
 10
52.2494410569
 20
294.7226798254
 30
0.0
 10
52.3106936317
 20
294.6631943753
 30
0.0
 10
52.3468091775
 20
294.589221219
 30
0.0
 10
52.3692505995
 20
294.5395633021
 30
0.0
 10
52.3782830281
 20
294.5148309764
 30
0.0
  0
SPLINE
  5
384
100
AcDbEntity
  8
0
100
AcDbSpline
 62
7
  6
CONTINUOUS
 70
0
 71
3
 72
11
 73
7
 74
0
 42
0.0000001
 43
0.0000001
 44
0.0000000001
 40
0.0
 40
0.0
 40
0.0
 40
0.0
 40
0.2270524408
 40
0.4680851817
 40
0.7341665361
 40
1.0
 40
1.0
 40
1.0
 40
1.0
 10
40.8424991768
 20
290.2057552583
 30
0.0
 10
40.8649089259
 20
290.1987715343
 30
0.0
 10
40.9084950034
 20
290.1723738829
 30
0.0
 10
40.946511124
 20
290.1040643365
 30
0.0
 10
40.9638467438
 20
290.0259785163
 30
0.0
 10
40.9839338865
 20
289.9745786555
 30
0.0
 10
40.9946049007
 20
289.949253062
 30
0.0
  0
SPLINE
  5
385
100
AcDbEntity
  8
0
100
AcDbSpline
 62
7
  6
CONTINUOUS
 70
0
 71
3
 72
9
 73
5
 74
0
 42
0.0000001
 43
0.0000001
 44
0.0000000001
 40
0.0
 40
0.0
 40
0.0
 40
0.0
 40
0.2536275242
 40
1.0
 40
1.0
 40
1.0
 40
1.0
 10
21.9657049495
 20
280.8660122199
 30
0.0
 10
21.2703618511
 20
280.3452973444
 30
0.0
 10
18.5592972871
 20
278.2518760852
 30
0.0
 10
15.968082791
 20
276.0024635806
 30
0.0
 10
14.1178778465
 20
274.238381746
 30
0.0
  0
SPLINE
  5
386
100
AcDbEntity
  8
0
100
AcDbSpline
 62
7
  6
CONTINUOUS
 70
0
 71
3
 72
18
 73
14
 74
0
 42
0.0000001
 43
0.0000001
 44
0.0000000001
 40
0.0
 40
0.0
 40
0.0
 40
0.0
 40
0.112268432
 40
0.2293177956
 40
0.289579102
 40
0.3509204204
 40
0.4132725763
 40
0.4765656587
 40
0.5406899937
 40
0.605509429
 40
0.7365957285
 40
0.868606995
 40
1.0
 40
1.0
 40
1.0
 40
1.0
 10
-1.5472055389
 20
275.6159610752
 30
0.0
 10
-0.782249168
 20
276.2203304163
 30
0.0
 10
0.8016276341
 20
277.4288340473
 30
0.0
 10
2.89463693
 20
278.8258565598
 30
0.0
 10
4.6663723583
 20
279.9011807603
 30
0.0
 10
6.053802288
 20
280.693286422
 30
0.0
 10
7.4881792095
 20
281.4548177568
 30
0.0
 10
8.967849208
 20
282.1807115053
 30
0.0
 10
10.4862052491
 20
282.8748186535
 30
0.0
 10
12.5609961865
 20
283.7661100434
 30
0.0
 10
15.2209248684
 20
284.7874598095
 30
0.0
 10
18.4876718863
 20
285.8233834711
 30
0.0
 10
20.7025099219
 20
286.4016621635
 30
0.0
 10
21.8167772441
 20
286.6470404712
 30
0.0
  0
SPLINE
  5
387
100
AcDbEntity
  8
0
100
AcDbSpline
 62
7
  6
CONTINUOUS
 70
0
 71
3
 72
9
 73
5
 74
0
 42
0.0000001
 43
0.0000001
 44
0.0000000001
 40
0.0
 40
0.0
 40
0.0
 40
0.0
 40
0.2529039941
 40
1.0
 40
1.0
 40
1.0
 40
1.0
 10
21.8167772441
 20
286.6470404712
 30
0.0
 10
22.1697222145
 20
286.7281462309
 30
0.0
 10
23.5679342558
 20
287.0370058578
 30
0.0
 10
24.9781891517
 20
287.2931635481
 30
0.0
 10
26.0371104738
 20
287.4453306449
 30
0.0
  0
SPLINE
  5
388
100
AcDbEntity
  8
0
100
AcDbSpline
 62
7
  6
CONTINUOUS
 70
0
 71
3
 72
17
 73
13
 74
0
 42
0.0000001
 43
0.0000001
 44
0.0000000001
 40
0.0
 40
0.0
 40
0.0
 40
0.0
 40
0.2522880193
 40
0.3781325668
 40
0.5037425308
 40
0.6290736817
 40
0.7540422362
 40
0.816342274
 40
0.878450993
 40
0.9402071112
 40
0.9708189485
 40
1.0
 40
1.0
 40
1.0
 40
1.0
 10
26.3360160225
 20
287.7664135926
 30
0.0
 10
26.4698083011
 20
287.7778887074
 30
0.0
 10
26.6704691897
 20
287.7936520332
 30
0.0
 10
26.9380722238
 20
287.8104615242
 30
0.0
 10
27.1383807447
 20
287.8203298491
 30
0.0
 10
27.3384067797
 20
287.8264517291
 30
0.0
 10
27.5047532513
 20
287.8270820256
 30
0.0
 10
27.6376003136
 20
287.8224627292
 30
0.0
 10
27.7359459611
 20
287.815514125
 30
0.0
 10
27.8190430568
 20
287.8027929873
 30
0.0
 10
27.8784035203
 20
287.7867379858
 30
0.0
 10
27.9115473045
 20
287.7643752025
 30
0.0
 10
27.9120991664
 20
287.7488530273
 30
0.0
  0
SPLINE
  5
389
100
AcDbEntity
  8
0
100
AcDbSpline
 62
7
  6
CONTINUOUS
 70
0
 71
3
 72
11
 73
7
 74
0
 42
0.0000001
 43
0.0000001
 44
0.0000000001
 40
0.0
 40
0.0
 40
0.0
 40
0.0
 40
0.1903958242
 40
0.4283883406
 40
0.70898439
 40
1.0
 40
1.0
 40
1.0
 40
1.0
 10
25.9663089354
 20
287.7193288131
 30
0.0
 10
25.9812683957
 20
287.7086958622
 30
0.0
 10
26.0061940905
 20
287.6723477863
 30
0.0
 10
26.0139400365
 20
287.6034368388
 30
0.0
 10
26.0107804379
 20
287.5252715767
 30
0.0
 10
26.02650955
 20
287.4713007517
 30
0.0
 10
26.0371149662
 20
287.4453300637
 30
0.0
  0
SPLINE
  5
38A
100
AcDbEntity
  8
0
100
AcDbSpline
 62
7
  6
CONTINUOUS
 70
0
 71
3
 72
11
 73
7
 74
0
 42
0.0000001
 43
0.0000001
 44
0.0000000001
 40
0.0
 40
0.0
 40
0.0
 40
0.0
 40
0.2598010645
 40
0.5216638478
 40
0.7710758681
 40
1.0
 40
1.0
 40
1.0
 40
1.0
 10
25.9664416287
 20
287.7194715557
 30
0.0
 10
23.2999641967
 20
287.3883223936
 30
0.0
 10
17.9877808164
 20
286.3357290395
 30
0.0
 10
10.420679764
 20
283.7461719948
 30
0.0
 10
3.5544897063
 20
280.3105968383
 30
0.0
 10
-0.5328336163
 20
277.4836868608
 30
0.0
 10
-2.3588546933
 20
275.9766123544
 30
0.0
  0
SPLINE
  5
38B
100
AcDbEntity
  8
0
100
AcDbSpline
 62
7
  6
CONTINUOUS
 70
0
 71
3
 72
9
 73
5
 74
0
 42
0.0000001
 43
0.0000001
 44
0.0000000001
 40
0.0
 40
0.0
 40
0.0
 40
0.0
 40
0.2393122665
 40
1.0
 40
1.0
 40
1.0
 40
1.0
 10
-2.3936343367
 20
276.0423180774
 30
0.0
 10
-1.8277781311
 20
276.5362957731
 30
0.0
 10
0.5918688617
 20
278.5368822582
 30
0.0
 10
3.2166309228
 20
280.2855010653
 30
0.0
 10
5.286549331
 20
281.4754802677
 30
0.0
  0
SPLINE
  5
38C
100
AcDbEntity
  8
0
100
AcDbSpline
 62
7
  6
CONTINUOUS
 70
0
 71
3
 72
9
 73
5
 74
0
 42
0.0000001
 43
0.0000001
 44
0.0000000001
 40
0.0
 40
0.0
 40
0.0
 40
0.0
 40
0.4988413592
 40
1.0
 40
1.0
 40
1.0
 40
1.0
 10
11.7023734459
 20
284.6338235692
 30
0.0
 10
13.9917090357
 20
285.4516902356
 30
0.0
 10
18.6902597778
 20
286.798865785
 30
0.0
 10
23.5242161772
 20
287.5352846643
 30
0.0
 10
25.9583928577
 20
287.7347393714
 30
0.0
  0
SPLINE
  5
38D
100
AcDbEntity
  8
0
100
AcDbSpline
 62
7
  6
CONTINUOUS
 70
0
 71
3
 72
17
 73
13
 74
0
 42
0.0000001
 43
0.0000001
 44
0.0000000001
 40
0.0
 40
0.0
 40
0.0
 40
0.0
 40
0.1013882181
 40
0.2091243359
 40
0.3237885959
 40
0.383843676
 40
0.4457432819
 40
0.5094791281
 40
0.5749986939
 40
0.7110169469
 40
0.8530959207
 40
1.0
 40
1.0
 40
1.0
 40
1.0
 10
-15.4822709106
 20
279.6912881034
 30
0.0
 10
-14.9078475753
 20
280.1959546688
 30
0.0
 10
-13.6834595797
 20
281.1942356286
 30
0.0
 10
-11.6346708877
 20
282.5304496615
 30
0.0
 10
-9.7480466224
 20
283.5259834628
 30
0.0
 10
-8.1170718332
 20
284.2514087022
 30
0.0
 10
-6.8114528561
 20
284.7591873203
 30
0.0
 10
-5.4477590776
 20
285.2276681292
 30
0.0
 10
-3.5344467412
 20
285.8130994615
 30
0.0
 10
-1.0156793145
 20
286.4342157874
 30
0.0
 10
2.1476398947
 20
286.9640229051
 30
0.0
 10
4.3175651986
 20
287.1890109478
 30
0.0
 10
5.4233305837
 20
287.2575035425
 30
0.0
  0
SPLINE
  5
38E
100
AcDbEntity
  8
0
100
AcDbSpline
 62
7
  6
CONTINUOUS
 70
0
 71
3
 72
9
 73
5
 74
0
 42
0.0000001
 43
0.0000001
 44
0.0000000001
 40
0.0
 40
0.0
 40
0.0
 40
0.0
 40
0.2480612896
 40
1.0
 40
1.0
 40
1.0
 40
1.0
 10
5.4233305837
 20
287.2575035425
 30
0.0
 10
5.783115932
 20
287.2831619592
 30
0.0
 10
7.2344274732
 20
287.3727538004
 30
0.0
 10
8.6897231741
 20
287.4019072852
 30
0.0
 10
9.7829542386
 20
287.3842626901
 30
0.0
  0
SPLINE
  5
38F
100
AcDbEntity
  8
0
100
AcDbSpline
 62
7
  6
CONTINUOUS
 70
0
 71
3
 72
17
 73
13
 74
0
 42
0.0000001
 43
0.0000001
 44
0.0000000001
 40
0.0
 40
0.0
 40
0.0
 40
0.0
 40
0.2493231155
 40
0.3741998447
 40
0.499225811
 40
0.6244124103
 40
0.7497825366
 40
0.8125563378
 40
0.8754043142
 40
0.9383366492
 40
0.9698426559
 40
1.0
 40
1.0
 40
1.0
 40
1.0
 10
10.1913626733
 20
287.6499843867
 30
0.0
 10
10.3264818336
 20
287.6404150753
 30
0.0
 10
10.529182274
 20
287.6246011646
 30
0.0
 10
10.7992396723
 20
287.5993297551
 30
0.0
 10
11.0018719574
 20
287.577653104
 30
0.0
 10
11.2043794138
 20
287.5522640315
 30
0.0
 10
11.3726346544
 20
287.5266802228
 30
0.0
 10
11.5068014427
 20
287.5012030421
 30
0.0
 10
11.6061909655
 20
287.4786462358
 30
0.0
 10
11.6897439074
 20
287.4531518358
 30
0.0
 10
11.748664568
 20
287.4272400639
 30
0.0
 10
11.7807910674
 20
287.4010849961
 30
0.0
 10
11.7802902762
 20
287.3847081246
 30
0.0
  0
SPLINE
  5
390
100
AcDbEntity
  8
0
100
AcDbSpline
 62
7
  6
CONTINUOUS
 70
0
 71
3
 72
11
 73
7
 74
0
 42
0.0000001
 43
0.0000001
 44
0.0000000001
 40
0.0
 40
0.0
 40
0.0
 40
0.0
 40
0.1651716973
 40
0.4103172214
 40
0.7001692322
 40
1.0
 40
1.0
 40
1.0
 40
1.0
 10
9.803334189
 20
287.6621894302
 30
0.0
 10
9.80797049
 20
287.647332173
 30
0.0
 10
9.8061640273
 20
287.60717213
 30
0.0
 10
9.7883377582
 20
287.5442478595
 30
0.0
 10
9.7643863969
 20
287.4680354448
 30
0.0
 10
9.773935795
 20
287.4110350343
 30
0.0
 10
9.7829572267
 20
287.3842615397
 30
0.0
  0
SPLINE
  5
391
100
AcDbEntity
  8
0
100
AcDbSpline
 62
7
  6
CONTINUOUS
 70
0
 71
3
 72
12
 73
8
 74
0
 42
0.0000001
 43
0.0000001
 44
0.0000000001
 40
0.0
 40
0.0
 40
0.0
 40
0.0
 40
0.1478897812
 40
0.2920000669
 40
0.4302263374
 40
0.5611698294
 40
1.0
 40
1.0
 40
1.0
 40
1.0
 10
9.8031146582
 20
287.6623061486
 30
0.0
 10
8.4604477398
 20
287.7083444856
 30
0.0
 10
5.8049421288
 20
287.7056157548
 30
0.0
 10
1.904913024
 20
287.4131818776
 30
0.0
 10
-1.8114935673
 20
286.8259650922
 30
0.0
 10
-8.0403074811
 20
285.2838483446
 30
0.0
 10
-12.9234371507
 20
282.9121122251
 30
0.0
 10
-15.8354988488
 20
280.1897334735
 30
0.0
  0
SPLINE
  5
392
100
AcDbEntity
  8
0
100
AcDbSpline
 62
7
  6
CONTINUOUS
 70
0
 71
3
 72
9
 73
5
 74
0
 42
0.0000001
 43
0.0000001
 44
0.0000000001
 40
0.0
 40
0.0
 40
0.0
 40
0.0
 40
0.2347422205
 40
1.0
 40
1.0
 40
1.0
 40
1.0
 10
-15.8496053114
 20
280.2126431596
 30
0.0
 10
-15.4170060379
 20
280.6300575195
 30
0.0
 10
-13.4959676308
 20
282.3269481196
 30
0.0
 10
-11.2898969422
 20
283.6876233092
 30
0.0
 10
-9.5301527401
 20
284.5500910499
 30
0.0
  0
SPLINE
  5
393
100
AcDbEntity
  8
0
100
AcDbSpline
 62
7
  6
CONTINUOUS
 70
0
 71
3
 72
9
 73
5
 74
0
 42
0.0000001
 43
0.0000001
 44
0.0000000001
 40
0.0
 40
0.0
 40
0.0
 40
0.0
 40
0.2395239412
 40
1.0
 40
1.0
 40
1.0
 40
1.0
 10
-9.5301527401
 20
284.5500910499
 30
0.0
 10
-9.0835097634
 20
284.7689951148
 30
0.0
 10
-7.1962483252
 20
285.6366156886
 30
0.0
 10
-5.2268573615
 20
286.3216751794
 30
0.0
 10
-3.7069731031
 20
286.7505188342
 30
0.0
  0
SPLINE
  5
394
100
AcDbEntity
  8
0
100
AcDbSpline
 62
7
  6
CONTINUOUS
 70
0
 71
3
 72
9
 73
5
 74
0
 42
0.0000001
 43
0.0000001
 44
0.0000000001
 40
0.0
 40
0.0
 40
0.0
 40
0.0
 40
0.4798685868
 40
1.0
 40
1.0
 40
1.0
 40
1.0
 10
-3.7069731031
 20
286.7505188342
 30
0.0
 10
-1.5909565963
 20
287.247075028
 30
0.0
 10
2.9153314408
 20
287.8886387449
 30
0.0
 10
7.4612030265
 20
287.8529008322
 30
0.0
 10
9.8105392272
 20
287.6776590098
 30
0.0
  0
SPLINE
  5
395
100
AcDbEntity
  8
0
100
AcDbSpline
 62
7
  6
CONTINUOUS
 70
0
 71
3
 72
9
 73
5
 74
0
 42
0.0000001
 43
0.0000001
 44
0.0000000001
 40
0.0
 40
0.0
 40
0.0
 40
0.0
 40
0.4809540876
 40
1.0
 40
1.0
 40
1.0
 40
1.0
 10
-24.2687831692
 20
285.7380363157
 30
0.0
 10
-23.8816934605
 20
286.2955866313
 30
0.0
 10
-22.947992859
 20
287.3735925327
 30
0.0
 10
-21.7753991513
 20
288.1848020472
 30
0.0
 10
-21.1363465812
 20
288.542821552
 30
0.0
  0
SPLINE
  5
396
100
AcDbEntity
  8
0
100
AcDbSpline
 62
7
  6
CONTINUOUS
 70
0
 71
3
 72
15
 73
11
 74
0
 42
0.0000001
 43
0.0000001
 44
0.0000000001
 40
0.0
 40
0.0
 40
0.0
 40
0.0
 40
0.099266391
 40
0.2049211183
 40
0.3178297741
 40
0.4384413659
 40
0.5669526335
 40
0.703514379
 40
0.8479942356
 40
1.0
 40
1.0
 40
1.0
 40
1.0
 10
-21.1363465812
 20
288.542821552
 30
0.0
 10
-20.7811998535
 20
288.7417871168
 30
0.0
 10
-20.0244673869
 20
289.111913274
 30
0.0
 10
-18.7964218921
 20
289.554663464
 30
0.0
 10
-17.450843664
 20
289.9121774045
 30
0.0
 10
-15.9912470797
 20
290.1906319235
 30
0.0
 10
-14.4185166774
 20
290.3715452237
 30
0.0
 10
-12.7396294324
 20
290.4476744654
 30
0.0
 10
-10.9630493897
 20
290.4304556821
 30
0.0
 10
-9.7489566563
 20
290.3503141417
 30
0.0
 10
-9.1285213513
 20
290.2899744719
 30
0.0
  0
SPLINE
  5
397
100
AcDbEntity
  8
0
100
AcDbSpline
 62
7
  6
CONTINUOUS
 70
0
 71
3
 72
10
 73
6
 74
0
 42
0.0000001
 43
0.0000001
 44
0.0000000001
 40
0.0
 40
0.0
 40
0.0
 40
0.0
 40
0.1811406035
 40
0.575903533
 40
1.0
 40
1.0
 40
1.0
 40
1.0
 10
-5.1842063158
 20
290.0431412419
 30
0.0
 10
-5.19442256
 20
290.0284517012
 30
0.0
 10
-5.2261770595
 20
289.981299883
 30
0.0
 10
-5.285849317
 20
289.9019723513
 30
0.0
 10
-5.3045865773
 20
289.8185609716
 30
0.0
 10
-5.3017066014
 20
289.7767683373
 30
0.0
  0
SPLINE
  5
398
100
AcDbEntity
  8
0
100
AcDbSpline
 62
7
  6
CONTINUOUS
 70
0
 71
3
 72
12
 73
8
 74
0
 42
0.0000001
 43
0.0000001
 44
0.0000000001
 40
0.0
 40
0.0
 40
0.0
 40
0.0
 40
0.3045352134
 40
0.5736423618
 40
0.693857399
 40
0.804591388
 40
1.0
 40
1.0
 40
1.0
 40
1.0
 10
-5.1842977398
 20
290.0432791014
 30
0.0
 10
-6.7847359319
 20
290.3708272159
 30
0.0
 10
-9.8312522197
 20
290.847728077
 30
0.0
 10
-13.565725848
 20
290.9649494719
 30
0.0
 10
-16.2398357378
 20
290.7057158863
 30
0.0
 10
-18.4863873171
 20
290.2708137954
 30
0.0
 10
-20.0500989707
 20
289.7010837778
 30
0.0
 10
-20.9711062845
 20
289.200559092
 30
0.0
  0
SPLINE
  5
399
100
AcDbEntity
  8
0
100
AcDbSpline
 62
7
  6
CONTINUOUS
 70
0
 71
3
 72
9
 73
5
 74
0
 42
0.0000001
 43
0.0000001
 44
0.0000000001
 40
0.0
 40
0.0
 40
0.0
 40
0.0
 40
0.2326957329
 40
1.0
 40
1.0
 40
1.0
 40
1.0
 10
-20.228727571
 20
289.6217156181
 30
0.0
 10
-19.9122834616
 20
289.7822591536
 30
0.0
 10
-18.5229117337
 20
290.4140861225
 30
0.0
 10
-17.0358695209
 20
290.8168234703
 30
0.0
 10
-15.8847202984
 20
291.026383107
 30
0.0
  0
SPLINE
  5
39A
100
AcDbEntity
  8
0
100
AcDbSpline
 62
7
  6
CONTINUOUS
 70
0
 71
3
 72
9
 73
5
 74
0
 42
0.0000001
 43
0.0000001
 44
0.0000000001
 40
0.0
 40
0.0
 40
0.0
 40
0.0
 40
0.4538863307
 40
1.0
 40
1.0
 40
1.0
 40
1.0
 10
-15.8847202984
 20
291.026383107
 30
0.0
 10
-14.2637066999
 20
291.2486837294
 30
0.0
 10
-10.6230585312
 20
291.2274389531
 30
0.0
 10
-7.0688168468
 20
290.5478368073
 30
0.0
 10
-5.1625066784
 20
290.0563458376
 30
0.0
  0
SPLINE
  5
39B
100
AcDbEntity
  8
0
100
AcDbSpline
 62
7
  6
CONTINUOUS
 70
0
 71
3
 72
17
 73
13
 74
0
 42
0.0000001
 43
0.0000001
 44
0.0000000001
 40
0.0
 40
0.0
 40
0.0
 40
0.0
 40
0.2446760228
 40
0.3678465944
 40
0.4916426148
 40
0.6161677952
 40
0.7416311103
 40
0.8048626599
 40
0.8686116108
 40
0.933289559
 40
0.9664442889
 40
1.0
 40
1.0
 40
1.0
 40
1.0
 10
-4.8370724997
 20
289.9732982117
 30
0.0
 10
-4.7212195968
 20
289.9440267657
 30
0.0
 10
-4.5473747055
 20
289.898685306
 30
0.0
 10
-4.3160708302
 20
289.8342458942
 30
0.0
 10
-4.1420056363
 20
289.7830725423
 30
0.0
 10
-3.9678751965
 20
289.7281825489
 30
0.0
 10
-3.8233524054
 20
289.6781049795
 30
0.0
 10
-3.7083751116
 20
289.6332078119
 30
0.0
 10
-3.6228965212
 20
289.5959538535
 30
0.0
 10
-3.5518073528
 20
289.558620859
 30
0.0
 10
-3.5012403699
 20
289.5230144687
 30
0.0
 10
-3.4761744668
 20
289.4936500709
 30
0.0
 10
-3.4777131483
 20
289.4773347071
 30
0.0
  0
SPLINE
  5
39C
100
AcDbEntity
  8
0
100
AcDbSpline
 62
7
  6
CONTINUOUS
 70
0
 71
3
 72
9
 73
5
 74
0
 42
0.0000001
 43
0.0000001
 44
0.0000000001
 40
0.0
 40
0.0
 40
0.0
 40
0.0
 40
0.484235635
 40
1.0
 40
1.0
 40
1.0
 40
1.0
 10
-4.8370724997
 20
289.9732982117
 30
0.0
 10
-2.514712643
 20
289.38667123
 30
0.0
 10
2.3450102087
 20
288.4217904367
 30
0.0
 10
7.2660741362
 20
287.8675117442
 30
0.0
 10
9.8102671047
 20
287.6776937255
 30
0.0
  0
SPLINE
  5
39D
100
AcDbEntity
  8
0
100
AcDbSpline
 62
7
  6
CONTINUOUS
 70
0
 71
3
 72
12
 73
8
 74
0
 42
0.0000001
 43
0.0000001
 44
0.0000000001
 40
0.0
 40
0.0
 40
0.0
 40
0.0
 40
0.1143141546
 40
0.2320076927
 40
0.4780753152
 40
0.7371598839
 40
1.0
 40
1.0
 40
1.0
 40
1.0
 10
26.5267832265
 20
227.4016421049
 30
0.0
 10
26.2537639137
 20
227.3284577812
 30
0.0
 10
25.7150424686
 20
227.1152822561
 30
0.0
 10
24.7281692277
 20
226.4511483013
 30
0.0
 10
23.7441857057
 20
225.2130085174
 30
0.0
 10
23.1390707337
 20
223.3781280385
 30
0.0
 10
23.1502709654
 20
222.059636325
 30
0.0
 10
23.2644585281
 20
221.4198368688
 30
0.0
  0
SPLINE
  5
39E
100
AcDbEntity
  8
0
100
AcDbSpline
 62
7
  6
CONTINUOUS
 70
0
 71
3
 72
14
 73
10
 74
0
 42
0.0000001
 43
0.0000001
 44
0.0000000001
 40
0.0
 40
0.0
 40
0.0
 40
0.0
 40
0.114088324
 40
0.2315233684
 40
0.3529032548
 40
0.4781993011
 40
0.6068147942
 40
0.7377090688
 40
1.0
 40
1.0
 40
1.0
 40
1.0
 10
-54.7192637312
 20
296.0136013084
 30
0.0
 10
-55.1288250352
 20
295.9038161554
 30
0.0
 10
-55.9368301693
 20
295.5843247918
 30
0.0
 10
-57.0321218452
 20
294.8464168489
 30
0.0
 10
-57.9860726358
 20
293.8742481928
 30
0.0
 10
-58.7629418698
 20
292.7066213759
 30
0.0
 10
-59.3347867364
 20
291.3873072048
 30
0.0
 10
-59.7964579334
 20
289.4974228647
 30
0.0
 10
-59.7840260972
 20
288.0005588782
 30
0.0
 10
-59.6127507785
 20
287.0408934545
 30
0.0
  0
SPLINE
  5
39F
100
AcDbEntity
  8
0
100
AcDbSpline
 62
7
  6
CONTINUOUS
 70
0
 71
3
 72
13
 73
9
 74
0
 42
0.0000001
 43
0.0000001
 44
0.0000000001
 40
0.0
 40
0.0
 40
0.0
 40
0.0
 40
0.267702785
 40
0.523095256
 40
0.64603859
 40
0.7659487402
 40
0.8835892837
 40
1.0
 40
1.0
 40
1.0
 40
1.0
 10
-44.8243343472
 20
204.1805489154
 30
0.0
 10
-44.6849326386
 20
203.3994731554
 30
0.0
 10
-44.1999212408
 20
201.9012085323
 30
0.0
 10
-43.0750269831
 20
200.3088196781
 30
0.0
 10
-41.941221044
 20
199.352235616
 30
0.0
 10
-41.0103435853
 20
198.8154432797
 30
0.0
 10
-40.0145040062
 20
198.4669552399
 30
0.0
 10
-39.3229431628
 20
198.3665482596
 30
0.0
 10
-38.9783062668
 20
198.3503296715
 30
0.0
  0
SPLINE
  5
3A0
100
AcDbEntity
  8
0
100
AcDbSpline
 62
7
  6
CONTINUOUS
 70
0
 71
3
 72
11
 73
7
 74
0
 42
0.0000001
 43
0.0000001
 44
0.0000000001
 40
0.0
 40
0.0
 40
0.0
 40
0.0
 40
0.2330928948
 40
0.4759394289
 40
0.731299722
 40
1.0
 40
1.0
 40
1.0
 40
1.0
 10
21.524290119
 20
274.0637846683
 30
0.0
 10
22.6280704628
 20
273.0312728761
 30
0.0
 10
24.6294595865
 20
270.6382286818
 30
0.0
 10
26.7932454356
 20
266.379491558
 30
0.0
 10
28.1072000587
 20
261.5516565892
 30
0.0
 10
28.3851237511
 20
258.1445998741
 30
0.0
 10
28.3851237511
 20
256.4022865279
 30
0.0
  0
SPLINE
  5
3A1
100
AcDbEntity
  8
0
100
AcDbSpline
 62
7
  6
CONTINUOUS
 70
0
 71
3
 72
14
 73
10
 74
0
 42
0.0000001
 43
0.0000001
 44
0.0000000001
 40
0.0
 40
0.0
 40
0.0
 40
0.0
 40
0.2622909583
 40
0.393185238
 40
0.5218007329
 40
0.6470967759
 40
0.7684766562
 40
0.8859116878
 40
1.0
 40
1.0
 40
1.0
 40
1.0
 10
31.9654016902
 20
224.0052439594
 30
0.0
 10
32.1366770266
 20
223.0455784366
 30
0.0
 10
32.1491088411
 20
221.5487143189
 30
0.0
 10
31.6874375315
 20
219.6588298756
 30
0.0
 10
31.1155926065
 20
218.339515716
 30
0.0
 10
30.3387233392
 20
217.1718889536
 30
0.0
 10
29.3847725549
 20
216.1997204101
 30
0.0
 10
28.2894809601
 20
215.4618125548
 30
0.0
 10
27.4814759045
 20
215.1423212471
 30
0.0
 10
27.0719146427
 20
215.0325361054
 30
0.0
  0
SPLINE
  5
3A2
100
AcDbEntity
  8
0
100
AcDbSpline
 62
7
  6
CONTINUOUS
 70
0
 71
3
 72
14
 73
10
 74
0
 42
0.0000001
 43
0.0000001
 44
0.0000000001
 40
0.0
 40
0.0
 40
0.0
 40
0.0
 40
0.1165363693
 40
0.2384273236
 40
0.3646092293
 40
0.4935589031
 40
0.6234754952
 40
0.7524691282
 40
1.0
 40
1.0
 40
1.0
 40
1.0
 10
0.6544282935
 20
275.3608232993
 30
0.0
 10
-0.8544115246
 20
274.8216552111
 30
0.0
 10
-3.8420042662
 20
273.4239028809
 30
0.0
 10
-7.9823674066
 20
270.5622744931
 30
0.0
 10
-11.7589151626
 20
266.9825632273
 30
0.0
 10
-15.0435626092
 20
262.8084781008
 30
0.0
 10
-17.7277227117
 20
258.1774483357
 30
0.0
 10
-20.3444016606
 20
251.7113046646
 30
0.0
 10
-21.24297713
 20
246.5025486172
 30
0.0
 10
-21.24297713
 20
243.0992019917
 30
0.0
  0
SPLINE
  5
3A3
100
AcDbEntity
  8
0
100
AcDbSpline
 62
7
  6
CONTINUOUS
 70
0
 71
3
 72
9
 73
5
 74
0
 42
0.0000001
 43
0.0000001
 44
0.0000000001
 40
0.0
 40
0.0
 40
0.0
 40
0.0
 40
0.251640531
 40
1.0
 40
1.0
 40
1.0
 40
1.0
 10
-34.911558564
 20
198.4175262768
 30
0.0
 10
-35.0469190487
 20
198.3812421568
 30
0.0
 10
-35.59007325
 20
198.2574233778
 30
0.0
 10
-36.1524356345
 20
198.2174217559
 30
0.0
 10
-36.5687380778
 20
198.2370129216
 30
0.0
  0
SPLINE
  5
3A4
100
AcDbEntity
  8
0
100
AcDbSpline
 62
7
  6
CONTINUOUS
 70
0
 71
3
 72
9
 73
5
 74
0
 42
0.0000001
 43
0.0000001
 44
0.0000000001
 40
0.0
 40
0.0
 40
0.0
 40
0.0
 40
0.748453333
 40
1.0
 40
1.0
 40
1.0
 40
1.0
 10
-36.0047959817
 20
210.4639128345
 30
0.0
 10
-36.2823654659
 20
210.4769685326
 30
0.0
 10
-36.6572665351
 20
210.4502555712
 30
0.0
 10
-37.0193761327
 20
210.3677456854
 30
0.0
 10
-37.1095825996
 20
210.3435653474
 30
0.0
  0
SPLINE
  5
3A5
100
AcDbEntity
  8
0
100
AcDbSpline
 62
7
  6
CONTINUOUS
 70
0
 71
3
 72
11
 73
7
 74
0
 42
0.0000001
 43
0.0000001
 44
0.0000000001
 40
0.0
 40
0.0
 40
0.0
 40
0.0
 40
0.2580028507
 40
0.5093891506
 40
0.7559336872
 40
1.0
 40
1.0
 40
1.0
 40
1.0
 10
-1.870311791
 20
219.9885450728
 30
0.0
 10
-2.86732046
 20
219.9143458033
 30
0.0
 10
-4.8487291309
 20
219.9000409665
 30
0.0
 10
-7.7608139288
 20
220.3020797055
 30
0.0
 10
-10.5275994158
 20
221.1237073049
 30
0.0
 10
-12.252041472
 20
221.945761047
 30
0.0
 10
-13.0710056087
 20
222.4187965907
 30
0.0
  0
SPLINE
  5
3A6
100
AcDbEntity
  8
0
100
AcDbSpline
 62
7
  6
CONTINUOUS
 70
0
 71
3
 72
13
 73
9
 74
0
 42
0.0000001
 43
0.0000001
 44
0.0000000001
 40
0.0
 40
0.0
 40
0.0
 40
0.0
 40
0.2459935595
 40
0.3740900668
 40
0.5033719513
 40
0.6321855239
 40
0.7589163515
 40
1.0
 40
1.0
 40
1.0
 40
1.0
 10
28.3851237511
 20
256.4022865279
 30
0.0
 10
28.3851237511
 20
252.9430218761
 30
0.0
 10
27.5298591642
 20
247.6530787379
 30
0.0
 10
25.0173033892
 20
241.0231102444
 30
0.0
 10
22.4303051994
 20
236.2283964321
 30
0.0
 10
19.2431881258
 20
231.83292199
 30
0.0
 10
14.4153095168
 20
226.7713191251
 30
0.0
 10
10.065670081
 20
223.7840556457
 30
0.0
 10
6.987664954
 20
222.3629743048
 30
0.0
  0
SPLINE
  5
3A7
100
AcDbEntity
  8
0
100
AcDbSpline
 62
7
  6
CONTINUOUS
 70
0
 71
3
 72
13
 73
9
 74
0
 42
0.0000001
 43
0.0000001
 44
0.0000000001
 40
0.0
 40
0.0
 40
0.0
 40
0.0
 40
0.2727009736
 40
0.5411794552
 40
0.6668054337
 40
0.784250349
 40
0.8943347783
 40
1.0
 40
1.0
 40
1.0
 40
1.0
 10
6.987664954
 20
222.3629743048
 30
0.0
 10
6.8143176721
 20
221.4811419988
 30
0.0
 10
6.1072736695
 20
219.7907694726
 30
0.0
 10
4.547694587
 20
218.158556734
 30
0.0
 10
3.0456838529
 20
217.3636470631
 30
0.0
 10
1.9027640228
 20
217.0803574328
 30
0.0
 10
0.7896663169
 20
217.1225120602
 30
0.0
 10
0.109413064
 20
217.3762288899
 30
0.0
 10
-0.1921429718
 20
217.5503756057
 30
0.0
  0
SPLINE
  5
3A8
100
AcDbEntity
  8
0
100
AcDbSpline
 62
7
  6
CONTINUOUS
 70
0
 71
3
 72
11
 73
7
 74
0
 42
0.0000001
 43
0.0000001
 44
0.0000000001
 40
0.0
 40
0.0
 40
0.0
 40
0.0
 40
0.2717350397
 40
0.5268969419
 40
0.7676331593
 40
1.0
 40
1.0
 40
1.0
 40
1.0
 10
-0.3338855015
 20
221.6755610057
 30
0.0
 10
-0.3338855015
 20
221.4363225505
 30
0.0
 10
-0.2873004386
 20
220.9704792569
 30
0.0
 10
-0.0646118131
 20
220.3251418009
 30
0.0
 10
0.3006522076
 20
219.7883013775
 30
0.0
 10
0.6310232935
 20
219.5225046763
 30
0.0
 10
0.8081752564
 20
219.4201843454
 30
0.0
  0
SPLINE
  5
3A9
100
AcDbEntity
  8
0
100
AcDbSpline
 62
7
  6
CONTINUOUS
 70
0
 71
3
 72
13
 73
9
 74
0
 42
0.0000001
 43
0.0000001
 44
0.0000000001
 40
0.0
 40
0.0
 40
0.0
 40
0.0
 40
0.2714323375
 40
0.526217443
 40
0.6482289235
 40
0.7672664579
 40
0.8841850979
 40
1.0
 40
1.0
 40
1.0
 40
1.0
 10
-21.24297713
 20
243.0992019917
 30
0.0
 10
-21.24297713
 20
241.1303373738
 30
0.0
 10
-20.8609700559
 20
237.2983701854
 30
0.0
 10
-19.3078538093
 20
232.8044655681
 30
0.0
 10
-17.4718773
 20
229.6999429385
 30
0.0
 10
-15.8456080651
 20
227.6639723738
 30
0.0
 10
-13.9728865797
 20
225.9177656492
 30
0.0
 10
-12.5730904067
 20
224.9605141381
 30
0.0
 10
-11.8456283732
 20
224.5403628401
 30
0.0
  0
SPLINE
  5
3AA
100
AcDbEntity
  8
0
100
AcDbSpline
 62
7
  6
CONTINUOUS
 70
0
 71
3
 72
9
 73
5
 74
0
 42
0.0000001
 43
0.0000001
 44
0.0000000001
 40
0.0
 40
0.0
 40
0.0
 40
0.0
 40
0.2474106174
 40
1.0
 40
1.0
 40
1.0
 40
1.0
 10
-9.1458401409
 20
277.5531575627
 30
0.0
 10
-9.218190934
 20
277.1281998552
 30
0.0
 10
-9.5439272075
 20
275.416376911
 30
0.0
 10
-10.0007585777
 20
273.7298107168
 30
0.0
 10
-10.4117042057
 20
272.4846046271
 30
0.0
  0
SPLINE
  5
3AB
100
AcDbEntity
  8
0
100
AcDbSpline
 62
7
  6
CONTINUOUS
 70
0
 71
3
 72
10
 73
6
 74
0
 42
0.0000001
 43
0.0000001
 44
0.0000000001
 40
0.0
 40
0.0
 40
0.0
 40
0.0
 40
0.2371515069
 40
0.482739229
 40
1.0
 40
1.0
 40
1.0
 40
1.0
 10
28.4799525189
 20
274.6768503153
 30
0.0
 10
29.1665231365
 20
273.532473072
 30
0.0
 10
30.3823525993
 20
271.0890314615
 30
0.0
 10
32.1417421948
 20
265.7296500294
 30
0.0
 10
32.6309936835
 20
261.4034328728
 30
0.0
 10
32.6309936835
 20
258.4926286852
 30
0.0
  0
SPLINE
  5
3AC
100
AcDbEntity
  8
0
100
AcDbSpline
 62
7
  6
CONTINUOUS
 70
0
 71
3
 72
14
 73
10
 74
0
 42
0.0000001
 43
0.0000001
 44
0.0000000001
 40
0.0
 40
0.0
 40
0.0
 40
0.0
 40
0.2491613242
 40
0.3790638972
 40
0.5096227349
 40
0.6387325639
 40
0.7644429917
 40
0.8851815827
 40
1.0
 40
1.0
 40
1.0
 40
1.0
 10
32.6309936835
 20
258.4926286852
 30
0.0
 10
32.6309936835
 20
253.7863885348
 30
0.0
 10
31.3199666366
 20
246.5788349412
 30
0.0
 10
27.5305131989
 20
237.7098090404
 30
0.0
 10
23.6578859457
 20
231.4171279548
 30
0.0
 10
18.9445129711
 20
225.8346869057
 30
0.0
 10
13.5622701869
 20
221.1662872271
 30
0.0
 10
7.7126897885
 20
217.5910149389
 30
0.0
 10
3.5274198471
 20
215.9863744957
 30
0.0
 10
1.4326455027
 20
215.4248587477
 30
0.0
  0
SPLINE
  5
3AD
100
AcDbEntity
  8
0
100
AcDbSpline
 62
7
  6
CONTINUOUS
 70
0
 71
3
 72
11
 73
7
 74
0
 42
0.0000001
 43
0.0000001
 44
0.0000000001
 40
0.0
 40
0.0
 40
0.0
 40
0.0
 40
0.265548532
 40
0.5204583644
 40
0.7648429954
 40
1.0
 40
1.0
 40
1.0
 40
1.0
 10
-31.4542846011
 20
242.7344286158
 30
0.0
 10
-31.4153820333
 20
240.8632357773
 30
0.0
 10
-31.077040379
 20
237.1943562767
 30
0.0
 10
-29.7427012816
 20
231.9471306333
 30
0.0
 10
-27.6230848597
 20
227.1959681409
 30
0.0
 10
-25.6841291671
 20
224.3971702273
 30
0.0
 10
-24.6073253641
 20
223.1372271723
 30
0.0
  0
SPLINE
  5
3AE
100
AcDbEntity
  8
0
100
AcDbSpline
 62
7
  6
CONTINUOUS
 70
0
 71
3
 72
11
 73
7
 74
0
 42
0.0000001
 43
0.0000001
 44
0.0000000001
 40
0.0
 40
0.0
 40
0.0
 40
0.0
 40
0.248238795
 40
0.5028831704
 40
0.7560011904
 40
1.0
 40
1.0
 40
1.0
 40
1.0
 10
-14.2648546207
 20
279.2724709414
 30
0.0
 10
-16.9423456186
 20
277.102808271
 30
0.0
 10
-21.8415830855
 20
272.0272886288
 30
0.0
 10
-27.3454675982
 20
262.9991100752
 30
0.0
 10
-30.7798077919
 20
253.059819145
 30
0.0
 10
-31.5246932866
 20
246.1210489836
 30
0.0
 10
-31.4542846011
 20
242.7344286158
 30
0.0
  0
SPLINE
  5
3AF
100
AcDbEntity
  8
0
100
AcDbSpline
 62
7
  6
CONTINUOUS
 70
0
 71
3
 72
10
 73
6
 74
0
 42
0.0000001
 43
0.0000001
 44
0.0000000001
 40
0.0
 40
0.0
 40
0.0
 40
0.0
 40
0.5135914483
 40
0.7586498354
 40
1.0
 40
1.0
 40
1.0
 40
1.0
 10
-33.0325261616
 20
296.6731729689
 30
0.0
 10
-32.3577698903
 20
297.3735805904
 30
0.0
 10
-31.2341299481
 20
298.3025039694
 30
0.0
 10
-29.5499514001
 20
299.1786862323
 30
0.0
 10
-28.6763708245
 20
299.4831924122
 30
0.0
 10
-28.2349205286
 20
299.6015062533
 30
0.0
  0
SPLINE
  5
3B0
100
AcDbEntity
  8
0
100
AcDbSpline
 62
7
  6
CONTINUOUS
 70
0
 71
3
 72
13
 73
9
 74
0
 42
0.0000001
 43
0.0000001
 44
0.0000000001
 40
0.0
 40
0.0
 40
0.0
 40
0.0
 40
0.1164107274
 40
0.234051279
 40
0.3539614352
 40
0.4769047712
 40
0.7322972383
 40
1.0
 40
1.0
 40
1.0
 40
1.0
 10
-36.5687380778
 20
198.2370129216
 30
0.0
 10
-36.9133750066
 20
198.2532315129
 30
0.0
 10
-37.604935908
 20
198.3536385003
 30
0.0
 10
-38.6007755465
 20
198.7021266019
 30
0.0
 10
-39.5316530276
 20
199.2389189947
 30
0.0
 10
-40.665458945
 20
200.1955031015
 30
0.0
 10
-41.7903531154
 20
201.7878919243
 30
0.0
 10
-42.2753644618
 20
203.286156473
 30
0.0
 10
-42.4147661582
 20
204.067232165
 30
0.0
  0
SPLINE
  5
3B1
100
AcDbEntity
  8
0
100
AcDbSpline
 62
7
  6
CONTINUOUS
 70
0
 71
3
 72
11
 73
7
 74
0
 42
0.0000001
 43
0.0000001
 44
0.0000000001
 40
0.0
 40
0.0
 40
0.0
 40
0.0
 40
0.2682595766
 40
0.5241619233
 40
0.7665488161
 40
1.0
 40
1.0
 40
1.0
 40
1.0
 10
-32.1074442035
 20
206.5770947553
 30
0.0
 10
-32.2003828105
 20
207.097835095
 30
0.0
 10
-32.5242876688
 20
208.0970726506
 30
0.0
 10
-33.4099508869
 20
209.3524600466
 30
0.0
 10
-34.6076061026
 20
210.2093859427
 30
0.0
 10
-35.5449725503
 20
210.4422846791
 30
0.0
 10
-36.0047959817
 20
210.4639128345
 30
0.0
  0
SPLINE
  5
3B2
100
AcDbEntity
  8
0
100
AcDbSpline
 62
7
  6
CONTINUOUS
 70
0
 71
3
 72
10
 73
6
 74
0
 42
0.0000001
 43
0.0000001
 44
0.0000000001
 40
0.0
 40
0.0
 40
0.0
 40
0.0
 40
0.2392061844
 40
0.4834298669
 40
1.0
 40
1.0
 40
1.0
 40
1.0
 10
-0.1921429718
 20
217.5503756057
 30
0.0
 10
-0.4017239535
 20
217.6714073057
 30
0.0
 10
-0.7983948853
 20
217.9663628344
 30
0.0
 10
-1.4600025111
 20
218.7402335628
 30
0.0
 10
-1.7581457035
 20
219.4780801544
 30
0.0
 10
-1.870311791
 20
219.9885450728
 30
0.0
  0
SPLINE
  5
3B3
100
AcDbEntity
  8
0
100
AcDbSpline
 62
7
  6
CONTINUOUS
 70
0
 71
3
 72
12
 73
8
 74
0
 42
0.0000001
 43
0.0000001
 44
0.0000000001
 40
0.0
 40
0.0
 40
0.0
 40
0.0
 40
0.1143141546
 40
0.2320076927
 40
0.4780753152
 40
0.7371598839
 40
1.0
 40
1.0
 40
1.0
 40
1.0
 10
-50.1581853331
 20
283.4556340584
 30
0.0
 10
-49.8851660203
 20
283.5288183821
 30
0.0
 10
-49.3464445752
 20
283.7419939072
 30
0.0
 10
-48.3595713343
 20
284.406127862
 30
0.0
 10
-47.3755878123
 20
285.6442676458
 30
0.0
 10
-46.7704728404
 20
287.4791481247
 30
0.0
 10
-46.781673072
 20
288.7976398382
 30
0.0
 10
-46.8958606348
 20
289.4374392943
 30
0.0
  0
SPLINE
  5
3B4
100
AcDbEntity
  8
0
100
AcDbSpline
 62
7
  6
CONTINUOUS
 70
0
 71
3
 72
9
 73
5
 74
0
 42
0.0000001
 43
0.0000001
 44
0.0000000001
 40
0.0
 40
0.0
 40
0.0
 40
0.0
 40
0.2531764553
 40
1.0
 40
1.0
 40
1.0
 40
1.0
 10
-16.6274185665
 20
234.0006675491
 30
0.0
 10
-16.6952253633
 20
233.8549409533
 30
0.0
 10
-16.9929835781
 20
233.2939335041
 30
0.0
 10
-17.4080740457
 20
232.7937780267
 30
0.0
 10
-17.7685719931
 20
232.4858278001
 30
0.0
  0
SPLINE
  5
3B5
100
AcDbEntity
  8
0
100
AcDbSpline
 62
7
  6
CONTINUOUS
 70
0
 71
3
 72
13
 73
9
 74
0
 42
0.0000001
 43
0.0000001
 44
0.0000000001
 40
0.0
 40
0.0
 40
0.0
 40
0.0
 40
0.2453572923
 40
0.373074365
 40
0.5020685263
 40
0.6307789572
 40
0.7576614484
 40
1.0
 40
1.0
 40
1.0
 40
1.0
 10
-23.2677705881
 20
242.556445004
 30
0.0
 10
-23.2677705881
 20
245.9229390115
 30
0.0
 10
-22.457871645
 20
251.0692146329
 30
0.0
 10
-20.070448975
 20
257.5424211333
 30
0.0
 10
-17.6085091857
 20
262.2407880973
 30
0.0
 10
-14.5688784225
 20
266.5741267007
 30
0.0
 10
-9.9443559674
 20
271.6172316797
 30
0.0
 10
-5.76954068
 20
274.6502911401
 30
0.0
 10
-2.8002574622
 20
276.1467796164
 30
0.0
  0
SPLINE
  5
3B6
100
AcDbEntity
  8
0
100
AcDbSpline
 62
7
  6
CONTINUOUS
 70
0
 71
3
 72
13
 73
9
 74
0
 42
0.0000001
 43
0.0000001
 44
0.0000000001
 40
0.0
 40
0.0
 40
0.0
 40
0.0
 40
0.1054228116
 40
0.2162092768
 40
0.3355568365
 40
0.4637520711
 40
0.7347891091
 40
1.0
 40
1.0
 40
1.0
 40
1.0
 10
0.8081752564
 20
219.4201843454
 30
0.0
 10
1.0220418325
 20
219.2966582015
 30
0.0
 10
1.5125111451
 20
219.12470883
 30
0.0
 10
2.3120378227
 20
219.1370587222
 30
0.0
 10
3.1201197931
 20
219.4029475455
 30
0.0
 10
4.14766852
 20
220.071116613
 30
0.0
 10
5.1273834607
 20
221.3418839067
 30
0.0
 10
5.4512386645
 20
222.6049782983
 30
0.0
 10
5.4512386645
 20
223.2262952564
 30
0.0
  0
SPLINE
  5
3B7
100
AcDbEntity
  8
0
100
AcDbSpline
 62
7
  6
CONTINUOUS
 70
0
 71
3
 72
13
 73
9
 74
0
 42
0.0000001
 43
0.0000001
 44
0.0000000001
 40
0.0
 40
0.0
 40
0.0
 40
0.0
 40
0.2393015345
 40
0.3658008654
 40
0.4947520418
 40
0.6244382932
 40
0.7530764118
 40
1.0
 40
1.0
 40
1.0
 40
1.0
 10
5.4512386645
 20
223.9741415193
 30
0.0
 10
8.4215616389
 20
225.1749000449
 30
0.0
 10
12.6516442313
 20
227.8551501802
 30
0.0
 10
17.3600746215
 20
232.5298676049
 30
0.0
 10
20.4876799996
 20
236.6525061723
 30
0.0
 10
23.0340659231
 20
241.1894141087
 30
0.0
 10
25.51264455
 20
247.4959011356
 30
0.0
 10
26.360330293
 20
252.5536353529
 30
0.0
 10
26.360330293
 20
255.8595295401
 30
0.0
  0
SPLINE
  5
3B8
100
AcDbEntity
  8
0
100
AcDbSpline
 62
7
  6
CONTINUOUS
 70
0
 71
3
 72
13
 73
9
 74
0
 42
0.0000001
 43
0.0000001
 44
0.0000000001
 40
0.0
 40
0.0
 40
0.0
 40
0.0
 40
0.2709411987
 40
0.5258930615
 40
0.6481100217
 40
0.7673396898
 40
0.8843359272
 40
1.0
 40
1.0
 40
1.0
 40
1.0
 10
26.360330293
 20
255.8595295401
 30
0.0
 10
26.360330293
 20
257.7552321443
 30
0.0
 10
26.0056827394
 20
261.4479535707
 30
0.0
 10
24.5689315944
 20
265.7977288159
 30
0.0
 10
22.8668869139
 20
268.8354624039
 30
0.0
 10
21.3564657531
 20
270.8476163155
 30
0.0
 10
19.6136051642
 20
272.5977328851
 30
0.0
 10
18.3057995604
 20
273.578377538
 30
0.0
 10
17.624639876
 20
274.0153443741
 30
0.0
  0
SPLINE
  5
3B9
100
AcDbEntity
  8
0
100
AcDbSpline
 62
7
  6
CONTINUOUS
 70
0
 71
3
 72
9
 73
5
 74
0
 42
0.0000001
 43
0.0000001
 44
0.0000000001
 40
0.0
 40
0.0
 40
0.0
 40
0.0
 40
0.489991918
 40
1.0
 40
1.0
 40
1.0
 40
1.0
 10
-30.3036340878
 20
234.1734377414
 30
0.0
 10
-32.3130522979
 20
236.5023262163
 30
0.0
 10
-35.6951847698
 20
241.9037810751
 30
0.0
 10
-37.548041221
 20
247.9774139113
 30
0.0
 10
-38.1105558283
 20
251.1292152872
 30
0.0
  0
SPLINE
  5
3BA
100
AcDbEntity
  8
0
100
AcDbSpline
 62
7
  6
CONTINUOUS
 70
0
 71
3
 72
11
 73
7
 74
0
 42
0.0000001
 43
0.0000001
 44
0.0000000001
 40
0.0
 40
0.0
 40
0.0
 40
0.0
 40
0.2342429697
 40
0.4783622923
 40
0.7341736475
 40
1.0
 40
1.0
 40
1.0
 40
1.0
 10
-36.0291897806
 20
210.3779989988
 30
0.0
 10
-35.6423725434
 20
210.2720702132
 30
0.0
 10
-34.884121627
 20
209.9208935846
 30
0.0
 10
-33.9457938447
 20
209.0585899662
 30
0.0
 10
-33.25299831
 20
207.9277386271
 30
0.0
 10
-32.9905997115
 20
207.0629217109
 30
0.0
 10
-32.9106335998
 20
206.6148670054
 30
0.0
  0
SPLINE
  5
3BB
100
AcDbEntity
  8
0
100
AcDbSpline
 62
7
  6
CONTINUOUS
 70
0
 71
3
 72
13
 73
9
 74
0
 42
0.0000001
 43
0.0000001
 44
0.0000000001
 40
0.0
 40
0.0
 40
0.0
 40
0.0
 40
0.1158155921
 40
0.2327342474
 40
0.351771422
 40
0.4737833006
 40
0.7285658641
 40
1.0
 40
1.0
 40
1.0
 40
1.0
 10
-13.0710056087
 20
222.4187965907
 30
0.0
 10
-13.8603417312
 20
222.8747189261
 30
0.0
 10
-15.379255303
 20
223.9133571215
 30
0.0
 10
-17.4112153409
 20
225.8082003564
 30
0.0
 10
-19.1758463925
 20
228.0173473887
 30
0.0
 10
-21.1680432313
 20
231.3859300448
 30
0.0
 10
-22.8532561389
 20
236.2621359544
 30
0.0
 10
-23.2677705881
 20
240.4200764659
 30
0.0
 10
-23.2677705881
 20
242.556445004
 30
0.0
  0
SPLINE
  5
3BC
100
AcDbEntity
  8
0
100
AcDbSpline
 62
7
  6
CONTINUOUS
 70
0
 71
3
 72
9
 73
5
 74
0
 42
0.0000001
 43
0.0000001
 44
0.0000000001
 40
0.0
 40
0.0
 40
0.0
 40
0.0
 40
0.5025823777
 40
1.0
 40
1.0
 40
1.0
 40
1.0
 10
-38.1105558283
 20
251.1292152872
 30
0.0
 10
-38.8256514182
 20
255.1359365972
 30
0.0
 10
-39.0340023587
 20
263.3669028687
 30
0.0
 10
-36.7690020574
 20
271.3057862364
 30
0.0
 10
-35.0223927617
 20
274.9356375747
 30
0.0
  0
SPLINE
  5
3BD
100
AcDbEntity
  8
0
100
AcDbSpline
 62
7
  6
CONTINUOUS
 70
0
 71
3
 72
12
 73
8
 74
0
 42
0.0000001
 43
0.0000001
 44
0.0000000001
 40
0.0
 40
0.0
 40
0.0
 40
0.0
 40
0.270063371
 40
0.525316331
 40
0.7671229024
 40
0.8844032301
 40
1.0
 40
1.0
 40
1.0
 40
1.0
 10
-24.3938016669
 20
243.2068196428
 30
0.0
 10
-24.3938016669
 20
241.2899622296
 30
0.0
 10
-24.0577272821
 20
237.5487402304
 30
0.0
 10
-22.4649760846
 20
232.3001650521
 30
0.0
 10
-20.2515423899
 20
228.4871566223
 30
0.0
 10
-18.0262899471
 20
225.9468621584
 30
0.0
 10
-16.7788447486
 20
224.8533297727
 30
0.0
 10
-16.126649965
 20
224.3554994306
 30
0.0
  0
SPLINE
  5
3BE
100
AcDbEntity
  8
0
100
AcDbSpline
 62
7
  6
CONTINUOUS
 70
0
 71
3
 72
11
 73
7
 74
0
 42
0.0000001
 43
0.0000001
 44
0.0000000001
 40
0.0
 40
0.0
 40
0.0
 40
0.0
 40
0.2503738107
 40
0.5056801613
 40
0.7579905007
 40
1.0
 40
1.0
 40
1.0
 40
1.0
 10
-10.4117042057
 20
272.4846046271
 30
0.0
 10
-12.5422869434
 20
270.690356957
 30
0.0
 10
-16.4415397858
 20
266.5635514888
 30
0.0
 10
-20.8715955682
 20
259.3211889048
 30
0.0
 10
-23.6991698106
 20
251.4133916684
 30
0.0
 10
-24.3938016669
 20
245.899211098
 30
0.0
 10
-24.3938016669
 20
243.2068196428
 30
0.0
  0
SPLINE
  5
3BF
100
AcDbEntity
  8
0
100
AcDbSpline
 62
7
  6
CONTINUOUS
 70
0
 71
3
 72
11
 73
7
 74
0
 42
0.0000001
 43
0.0000001
 44
0.0000000001
 40
0.0
 40
0.0
 40
0.0
 40
0.0
 40
0.2425189337
 40
0.4954994971
 40
0.7508632818
 40
1.0
 40
1.0
 40
1.0
 40
1.0
 10
-29.765696974
 20
241.7668453469
 30
0.0
 10
-29.765696974
 20
245.1694848547
 30
0.0
 10
-28.847119663
 20
252.1415031769
 30
0.0
 10
-25.128988679
 20
262.0838279997
 30
0.0
 10
-19.3335352619
 20
271.0857809236
 30
0.0
 10
-14.2507273066
 20
276.1163615348
 30
0.0
 10
-11.4866252222
 20
278.2560316178
 30
0.0
  0
SPLINE
  5
3C0
100
AcDbEntity
  8
0
100
AcDbSpline
 62
7
  6
CONTINUOUS
 70
0
 71
3
 72
11
 73
7
 74
0
 42
0.0000001
 43
0.0000001
 44
0.0000000001
 40
0.0
 40
0.0
 40
0.0
 40
0.0
 40
0.2343719626
 40
0.4782870687
 40
0.7333833882
 40
1.0
 40
1.0
 40
1.0
 40
1.0
 10
-23.3596876066
 20
222.4166250642
 30
0.0
 10
-24.4048813232
 20
223.6584769469
 30
0.0
 10
-26.2779907439
 20
226.4215865865
 30
0.0
 10
-28.2886768414
 20
231.1148956127
 30
0.0
 10
-29.506458235
 20
236.3002122862
 30
0.0
 10
-29.765696974
 20
239.9203805368
 30
0.0
 10
-29.765696974
 20
241.7668453469
 30
0.0
  0
SPLINE
  5
3C1
100
AcDbEntity
  8
0
100
AcDbSpline
 62
7
  6
CONTINUOUS
 70
0
 71
3
 72
11
 73
7
 74
0
 42
0.0000001
 43
0.0000001
 44
0.0000000001
 40
0.0
 40
0.0
 40
0.0
 40
0.0
 40
0.242885163
 40
0.4887911563
 40
0.7404561496
 40
1.0
 40
1.0
 40
1.0
 40
1.0
 10
-11.8456283732
 20
224.5403628401
 30
0.0
 10
-11.0109145105
 20
224.0582674225
 30
0.0
 10
-9.2425069559
 20
223.2332918802
 30
0.0
 10
-6.3925227307
 20
222.4632013909
 30
0.0
 10
-3.3894407115
 20
222.1682673166
 30
0.0
 10
-1.3550899727
 20
222.2887521394
 30
0.0
 10
-0.3338855015
 20
222.4234072686
 30
0.0
  0
SPLINE
  5
3C2
100
AcDbEntity
  8
0
100
AcDbSpline
 62
7
  6
CONTINUOUS
 70
0
 71
3
 72
9
 73
5
 74
0
 42
0.0000001
 43
0.0000001
 44
0.0000000001
 40
0.0
 40
0.0
 40
0.0
 40
0.0
 40
0.2484668361
 40
1.0
 40
1.0
 40
1.0
 40
1.0
 10
-28.2349205286
 20
299.6015062533
 30
0.0
 10
-28.0448819274
 20
299.6524388205
 30
0.0
 10
-27.2737565861
 20
299.8334466225
 30
0.0
 10
-26.4799784036
 20
299.9160952098
 30
0.0
 10
-25.8849438986
 20
299.9244106733
 30
0.0
  0
SPLINE
  5
3C3
100
AcDbEntity
  8
0
100
AcDbSpline
 62
7
  6
CONTINUOUS
 70
0
 71
3
 72
9
 73
5
 74
0
 42
0.0000001
 43
0.0000001
 44
0.0000000001
 40
0.0
 40
0.0
 40
0.0
 40
0.0
 40
0.497412445
 40
1.0
 40
1.0
 40
1.0
 40
1.0
 10
-35.0223927617
 20
274.9356375747
 30
0.0
 10
-33.6251211228
 20
277.8394847804
 30
0.0
 10
-31.8130210418
 20
284.1905738366
 30
0.0
 10
-31.9799161859
 20
290.7753389675
 30
0.0
 10
-32.5519978374
 20
293.9807452372
 30
0.0
  0
SPLINE
  5
3C4
100
AcDbEntity
  8
0
100
AcDbSpline
 62
7
  6
CONTINUOUS
 70
0
 71
3
 72
12
 73
8
 74
0
 42
0.0000001
 43
0.0000001
 44
0.0000000001
 40
0.0
 40
0.0
 40
0.0
 40
0.0
 40
0.2628401161
 40
0.5219246848
 40
0.7679923073
 40
0.8856858454
 40
1.0
 40
1.0
 40
1.0
 40
1.0
 10
-47.6990500311
 20
289.4752115445
 30
0.0
 10
-47.5848624683
 20
288.8354120883
 30
0.0
 10
-47.5736622367
 20
287.5169203748
 30
0.0
 10
-48.1787772087
 20
285.682039896
 30
0.0
 10
-49.1627607306
 20
284.4439001121
 30
0.0
 10
-50.1496339715
 20
283.7797661573
 30
0.0
 10
-50.6883554166
 20
283.5665906322
 30
0.0
 10
-50.9613747294
 20
283.4934063085
 30
0.0
  0
SPLINE
  5
3C5
100
AcDbEntity
  8
0
100
AcDbSpline
 62
7
  6
CONTINUOUS
 70
0
 71
3
 72
14
 73
10
 74
0
 42
0.0000001
 43
0.0000001
 44
0.0000000001
 40
0.0
 40
0.0
 40
0.0
 40
0.0
 40
0.2622909583
 40
0.393185238
 40
0.5218007329
 40
0.6470967759
 40
0.7684766562
 40
0.8859116878
 40
1.0
 40
1.0
 40
1.0
 40
1.0
 10
-57.2031825895
 20
286.9275767041
 30
0.0
 10
-57.3744579259
 20
287.8872422269
 30
0.0
 10
-57.3868897405
 20
289.3841063446
 30
0.0
 10
-56.9252184309
 20
291.2739907878
 30
0.0
 10
-56.3533735058
 20
292.5933049474
 30
0.0
 10
-55.5765042386
 20
293.7609317098
 30
0.0
 10
-54.6225534543
 20
294.7331002533
 30
0.0
 10
-53.5272618596
 20
295.4710081086
 30
0.0
 10
-52.719256804
 20
295.7904994163
 30
0.0
 10
-52.3096955422
 20
295.9002845581
 30
0.0
  0
SPLINE
  5
3C6
100
AcDbEntity
  8
0
100
AcDbSpline
 62
7
  6
CONTINUOUS
 70
0
 71
3
 72
9
 73
5
 74
0
 42
0.0000001
 43
0.0000001
 44
0.0000000001
 40
0.0
 40
0.0
 40
0.0
 40
0.0
 40
0.5054582677
 40
1.0
 40
1.0
 40
1.0
 40
1.0
 10
-23.8666435778
 20
268.4922890385
 30
0.0
 10
-22.5172517865
 20
270.4520903608
 30
0.0
 10
-20.2621058494
 20
274.6308493612
 30
0.0
 10
-18.9644599713
 20
279.2038825555
 30
0.0
 10
-18.6023052689
 20
281.5035804144
 30
0.0
  0
ELLIPSE
  5
3C7
100
AcDbEntity
  8
0
100
AcDbEllipse
 62
7
  6
CONTINUOUS
 10
26.6613366475
 20
222.1851876224
 30
0.0
 11
-0.0199613341
 21
1.730216158
 31
0.0
 40
0.8071250907
 41
0.0
 42
6.2831853072
  0
ELLIPSE
  5
3C8
100
AcDbEntity
  8
0
100
AcDbEllipse
 62
7
  6
CONTINUOUS
 10
-36.9750291784
 20
205.127110865
 30
0.0
 11
-0.019961335
 21
1.7302162288
 31
0.0
 40
0.8071250907
 41
0.0
 42
6.2831853072
  0
ELLIPSE
  5
3C9
100
AcDbEntity
  8
0
100
AcDbEllipse
 62
7
  6
CONTINUOUS
 10
-51.7634456096
 20
287.9874554041
 30
0.0
 11
-0.0199613341
 21
1.730216158
 31
0.0
 40
0.8071250907
 41
0.0
 42
6.2831853072
  0
ENDSEC
  0
SECTION
  2
OBJECTS
  0
DICTIONARY
  5
C
100
AcDbDictionary
280
0
281
1
  3
ACAD_GROUP
350
D
  3
ACAD_MLINESTYLE
350
17
  3
ACAD_LAYOUT
350
1A
  3
ACAD_PLOTSETTINGS
350
19
  3
ACAD_PLOTSTYLENAME
350
E
  0
DICTIONARY
  5
D
102
{ACAD_REACTORS
330
C
102
}
100
AcDbDictionary
280
0
281
1
  0
ACDBDICTIONARYWDFLT
  5
E
102
{ACAD_REACTORS
330
C
102
}
100
AcDbDictionary
281
1
  3
Normal
350
F
100
AcDbDictionaryWithDefault
340
F
  0
DICTIONARY
  5
17
102
{ACAD_REACTORS
330
C
102
}
100
AcDbDictionary
280
0
281
1
  3
Standard
350
18
  0
DICTIONARY
  5
19
102
{ACAD_REACTORS
330
C
102
}
100
AcDbDictionary
281
1
  0
DICTIONARY
  5
1A
102
{ACAD_REACTORS
330
C
102
}
100
AcDbDictionary
281
1
  3
Model
350
3CA
  3
Layout1
350
3CB
  0
ACDBPLACEHOLDER
  5
F
102
{ACAD_REACTORS
330
E
102
}
  0
MLINESTYLE
  5
18
102
{ACAD_REACTORS
330
17
102
}
100
AcDbMlineStyle
  2
STANDARD
 70
0
  3

 62
256
 51
90.0
 52
90.0
 71
2
 49
0.5
 62
256
  6
BYLAYER
 49
-0.5
 62
256
  6
BYLAYER
  0
LAYOUT
  5
3CA
102
{ACAD_REACTORS
330
1A
102
}
100
AcDbPlotSettings
  1

  2
none_device
  4
ANSI_C_(22.00_x_17.00_Inches)
  6

 40
0.0
 41
0.0
 42
0.0
 43
0.0
 44
558.8
 45
431.8
 46
0.0
 47
0.0
 48
0.0
 49
0.0
140
0.0
141
0.0
142
1.0
143
1.0
 70
1024
 72
1
 73
0
 74
0
  7

 75
0
147
1.0
148
0.0
149
0.0
100
AcDbLayout
  1
Model
 70
0
 71
0
 10
0.0
 20
0.0
 11
558.8
 21
431.8
 12
0.0
 22
0.0
 32
0.0
 14
0.0
 24
0.0
 34
0.0
 15
0.0
 25
0.0
 35
0.0
146
0.0
 13
0.0
 23
0.0
 33
0.0
 16
1.0
 26
0.0
 36
0.0
 17
0.0
 27
1.0
 37
0.0
 76
0
330
216
345
0
346
0
  0
LAYOUT
  5
3CB
102
{ACAD_REACTORS
330
1A
102
}
100
AcDbPlotSettings
  1

  2
none_device
  4
ANSI_C_(22.00_x_17.00_Inches)
  6

 40
0.0
 41
0.0
 42
0.0
 43
0.0
 44
558.8
 45
431.8
 46
0.0
 47
0.0
 48
0.0
 49
0.0
140
0.0
141
0.0
142
1.0
143
1.0
 70
0
 72
1
 73
0
 74
0
  7

 75
0
147
1.0
148
0.0
149
0.0
100
AcDbLayout
  1
Layout1
 70
0
 71
1
 10
0.0
 20
0.0
 11
558.8
 21
431.8
 12
0.0
 22
0.0
 32
0.0
 14
0.0
 24
0.0
 34
0.0
 15
0.0
 25
0.0
 35
0.0
146
0.0
 13
0.0
 23
0.0
 33
0.0
 16
1.0
 26
0.0
 36
0.0
 17
0.0
 27
1.0
 37
0.0
 76
0
330
217
345
0
346
0
  0
ENDSEC
  0
EOF
