999
DXF file: Y:\3D PRATIKA-KAEDRA_OLGA\TRAVAIL_PHASE_5\CAD3D\PKF16G423_3D-Simplified\PKF16G423_2D-isometric.dxf
999
Pro/ENGINEER 2018260 by Parametric Technology Corporation
  0
SECTION
  2
HEADER
  9
$ACADVER
  1
AC1027
  9
$DWGCODEPAGE
  3
ANSI_1252
  9
$EXTMAX
 10
558.8
 20
431.8
 30
0.0
  9
$EXTMIN
 10
0.0
 20
0.0
 30
0.0
  9
$LIMMIN
 10
0.0
 20
0.0
  9
$LIMMAX
 10
558.8
 20
431.8
  9
$VIEWCTR
 10
279.4
 20
215.9
  9
$VIEWSIZE
 40
431.8
  9
$CLAYER
  8
0
  9
$LTSCALE
 40
30.734
  9
$CELTYPE
  6
BYLAYER
  9
$DIMSCALE
 40
1.0
  9
$DIMASZ
 40
0.1875
  9
$DIMEXO
 40
0.0625
  9
$DIMDLI
 40
21.2344
  9
$DIMEXE
 40
0.125
  9
$DIMCEN
 40
5.0292
  9
$DIMLFAC
 40
1.0
  9
$DIMBLK
  1
_CLOSED
  9
$DIMALT
 70
0
  9
$DIMALTF
 40
0.0393700787
  9
$DIMTXT
 40
0.15625
  9
$DIMTOL
 70
0
  9
$DIMLIM
 70
0
  9
$DIMTFAC
 40
1.0
  9
$DIMGAP
 40
0.625
  9
$DIMDSEP
 70
46
  9
$AUNITS
 70
0
  9
$PDMODE
 70
3
  9
$PDSIZE
 40
0.3125
  9
$HANDSEED
  5
30F
  9
$TILEMODE
 70
1
  9
$MEASUREMENT
 70
1
  9
$INSUNITS
 70
4
  0
ENDSEC
  0
SECTION
  2
CLASSES
  0
CLASS
  1
ACDBDICTIONARYWDFLT
  2
AcDbDictionaryWithDefault
  3
AutoCAD 2000
 90
0
 91
1
280
0
281
0
  0
CLASS
  1
ACDBPLACEHOLDER
  2
AcDbPlaceHolder
  3
AutoCAD 2000
 90
0
 91
1
280
0
281
0
  0
CLASS
  1
LAYOUT
  2
AcDbLayout
  3
AutoCAD 2000
 90
0
 91
0
280
0
281
0
  0
ENDSEC
  0
SECTION
  2
TABLES
  0
TABLE
  2
VPORT
  5
8
100
AcDbSymbolTable
 70
2
  0
VPORT
  5
1F4
100
AcDbSymbolTableRecord
100
AcDbViewportTableRecord
  2
*ACTIVE
 70
0
 10
0.0
 20
0.0
 11
1.0
 21
1.0
 12
279.4
 22
215.9
 13
0.0
 23
0.0
 14
1.0
 24
1.0
 15
0.0
 25
0.0
 16
0.0
 26
0.0
 36
1.0
 17
0.0
 27
0.0
 37
0.0
 40
431.8
 41
1.2941176471
 42
50.0
 43
0.0
 44
0.0
 50
0.0
 51
0.0
 71
0
 72
100
 73
1
 74
1
 75
0
 76
0
 77
0
 78
0
  0
ENDTAB
  0
TABLE
  2
LTYPE
  5
5
100
AcDbSymbolTable
 70
6
  0
LTYPE
  5
14
100
AcDbSymbolTableRecord
100
AcDbLinetypeTableRecord
  2
BYBLOCK
 70
0
  3

 72
65
 73
0
 40
0.0
  0
LTYPE
  5
15
100
AcDbSymbolTableRecord
100
AcDbLinetypeTableRecord
  2
BYLAYER
 70
0
  3

 72
65
 73
0
 40
0.0
  0
LTYPE
  5
16
100
AcDbSymbolTableRecord
100
AcDbLinetypeTableRecord
  2
CONTINUOUS
 70
64
  3
Solid line
 72
65
 73
0
 40
0.0
  0
LTYPE
  5
1F5
100
AcDbSymbolTableRecord
100
AcDbLinetypeTableRecord
  2
CENTER
 70
64
  3
____ _ ____ _ ____ _ ____ _ ____ _ ____ _ ____
 72
65
 73
4
 40
0.6
 49
0.375
 74
0
 49
-0.075
 74
0
 49
0.075
 74
0
 49
-0.075
 74
0
  0
LTYPE
  5
1F6
100
AcDbSymbolTableRecord
100
AcDbLinetypeTableRecord
  2
HIDDEN
 70
64
  3
- - - - - - - - - - - - - - - - - - - -
 72
65
 73
2
 40
0.2
 49
0.1
 74
0
 49
-0.1
 74
0
  0
LTYPE
  5
1F7
100
AcDbSymbolTableRecord
100
AcDbLinetypeTableRecord
  2
PHANTOM
 70
64
  3
_____ _ _ _____ _ _ _____ _ _ _____
 72
65
 73
6
 40
0.8
 49
0.45
 74
0
 49
-0.05
 74
0
 49
0.1
 74
0
 49
-0.05
 74
0
 49
0.1
 74
0
 49
-0.05
 74
0
  0
LTYPE
  5
1F8
100
AcDbSymbolTableRecord
100
AcDbLinetypeTableRecord
  2
DOT
 70
64
  3
. . . . . . . . . . . . . . . . . . . .
 72
65
 73
2
 40
0.2
 49
0.1
 74
0
 49
-0.1
 74
0
  0
LTYPE
  5
1F9
100
AcDbSymbolTableRecord
100
AcDbLinetypeTableRecord
  2
DASHED
 70
64
  3
- - - - - - - - - - - - - - - - - - - -
 72
65
 73
2
 40
0.2
 49
0.1
 74
0
 49
-0.1
 74
0
  0
ENDTAB
  0
TABLE
  2
LAYER
  5
2
100
AcDbSymbolTable
 70
36
  0
LAYER
  5
10
100
AcDbSymbolTableRecord
100
AcDbLayerTableRecord
  2
0
 70
0
 62
7
  6
CONTINUOUS
370
-3
390
F
  0
LAYER
  5
1FA
100
AcDbSymbolTableRecord
100
AcDbLayerTableRecord
  2
DEFAULT_1
 70
0
 62
7
  6
CENTER
370
-3
390
F
  0
LAYER
  5
1FB
100
AcDbSymbolTableRecord
100
AcDbLayerTableRecord
  2
DEFAULT_2
 70
0
 62
8
  6
HIDDEN
370
-3
390
F
  0
LAYER
  5
1FC
100
AcDbSymbolTableRecord
100
AcDbLayerTableRecord
  2
DEFAULT_3
 70
0
 62
7
  6
PHANTOM
370
-3
390
F
  0
LAYER
  5
1FD
100
AcDbSymbolTableRecord
100
AcDbLayerTableRecord
  2
01_ALL_DTM_PLN
 70
0
 62
7
  6
CONTINUOUS
370
-3
390
F
  0
LAYER
  5
1FE
100
AcDbSymbolTableRecord
100
AcDbLayerTableRecord
  2
01__ASM_ALL_DTM_PLN
 70
0
 62
7
  6
CONTINUOUS
370
-3
390
F
  0
LAYER
  5
1FF
100
AcDbSymbolTableRecord
100
AcDbLayerTableRecord
  2
01__ASM_DEF_DTM_PLN
 70
0
 62
7
  6
CONTINUOUS
370
-3
390
F
  0
LAYER
  5
200
100
AcDbSymbolTableRecord
100
AcDbLayerTableRecord
  2
01___PRT_ALL_DTM_PLN
 70
0
 62
7
  6
CONTINUOUS
370
-3
390
F
  0
LAYER
  5
201
100
AcDbSymbolTableRecord
100
AcDbLayerTableRecord
  2
01___PRT_DEF_DTM_PLN
 70
0
 62
7
  6
CONTINUOUS
370
-3
390
F
  0
LAYER
  5
202
100
AcDbSymbolTableRecord
100
AcDbLayerTableRecord
  2
02_ALL_AXES
 70
0
 62
7
  6
CONTINUOUS
370
-3
390
F
  0
LAYER
  5
203
100
AcDbSymbolTableRecord
100
AcDbLayerTableRecord
  2
02__ASM_ALL_AXES
 70
0
 62
7
  6
CONTINUOUS
370
-3
390
F
  0
LAYER
  5
204
100
AcDbSymbolTableRecord
100
AcDbLayerTableRecord
  2
02___PRT_ALL_AXES
 70
0
 62
7
  6
CONTINUOUS
370
-3
390
F
  0
LAYER
  5
205
100
AcDbSymbolTableRecord
100
AcDbLayerTableRecord
  2
03_ALL_CURVES
 70
0
 62
7
  6
CONTINUOUS
370
-3
390
F
  0
LAYER
  5
206
100
AcDbSymbolTableRecord
100
AcDbLayerTableRecord
  2
03__ASM_ALL_CURVES
 70
0
 62
7
  6
CONTINUOUS
370
-3
390
F
  0
LAYER
  5
207
100
AcDbSymbolTableRecord
100
AcDbLayerTableRecord
  2
03___PRT_ALL_CURVES
 70
0
 62
7
  6
CONTINUOUS
370
-3
390
F
  0
LAYER
  5
208
100
AcDbSymbolTableRecord
100
AcDbLayerTableRecord
  2
04_ALL_DTM_PNT
 70
0
 62
7
  6
CONTINUOUS
370
-3
390
F
  0
LAYER
  5
209
100
AcDbSymbolTableRecord
100
AcDbLayerTableRecord
  2
04__ASM_ALL_DTM_PNT
 70
0
 62
7
  6
CONTINUOUS
370
-3
390
F
  0
LAYER
  5
20A
100
AcDbSymbolTableRecord
100
AcDbLayerTableRecord
  2
04___PRT_ALL_DTM_PNT
 70
0
 62
7
  6
CONTINUOUS
370
-3
390
F
  0
LAYER
  5
20B
100
AcDbSymbolTableRecord
100
AcDbLayerTableRecord
  2
05_ALL_DTM_CSYS
 70
0
 62
7
  6
CONTINUOUS
370
-3
390
F
  0
LAYER
  5
20C
100
AcDbSymbolTableRecord
100
AcDbLayerTableRecord
  2
05__ASM_ALL_DTM_CSYS
 70
0
 62
7
  6
CONTINUOUS
370
-3
390
F
  0
LAYER
  5
20D
100
AcDbSymbolTableRecord
100
AcDbLayerTableRecord
  2
05__ASM_DEF_DTM_CSYS
 70
0
 62
7
  6
CONTINUOUS
370
-3
390
F
  0
LAYER
  5
20E
100
AcDbSymbolTableRecord
100
AcDbLayerTableRecord
  2
05___PRT_ALL_DTM_CSYS
 70
0
 62
7
  6
CONTINUOUS
370
-3
390
F
  0
LAYER
  5
20F
100
AcDbSymbolTableRecord
100
AcDbLayerTableRecord
  2
05___PRT_DEF_DTM_CSYS
 70
0
 62
7
  6
CONTINUOUS
370
-3
390
F
  0
LAYER
  5
210
100
AcDbSymbolTableRecord
100
AcDbLayerTableRecord
  2
06_ALL_SURFS
 70
0
 62
7
  6
CONTINUOUS
370
-3
390
F
  0
LAYER
  5
211
100
AcDbSymbolTableRecord
100
AcDbLayerTableRecord
  2
06__ASM_ALL_SURFS
 70
0
 62
7
  6
CONTINUOUS
370
-3
390
F
  0
LAYER
  5
212
100
AcDbSymbolTableRecord
100
AcDbLayerTableRecord
  2
06___PRT_ALL_SURFS
 70
0
 62
7
  6
CONTINUOUS
370
-3
390
F
  0
LAYER
  5
213
100
AcDbSymbolTableRecord
100
AcDbLayerTableRecord
  2
07__ASM_ALL_SKELETONS
 70
0
 62
7
  6
CONTINUOUS
370
-3
390
F
  0
ENDTAB
  0
TABLE
  2
STYLE
  5
3
100
AcDbSymbolTable
 70
1
  0
STYLE
  5
11
100
AcDbSymbolTableRecord
100
AcDbTextStyleTableRecord
  2
STANDARD
 70
0
 40
0.0
 41
0.8
 50
0.0
 71
0
 42
0.2
  3
txt
  4

  0
STYLE
  5
214
100
AcDbSymbolTableRecord
100
AcDbTextStyleTableRecord
  2
TEXTSTYLE_1
 70
0
 40
0.0
 41
0.8
 50
0.0
 71
0
 42
0.2
  3
gdt
  4

  0
ENDTAB
  0
TABLE
  2
VIEW
  5
6
100
AcDbSymbolTable
 70
0
  0
ENDTAB
  0
TABLE
  2
UCS
  5
7
100
AcDbSymbolTable
 70
0
  0
ENDTAB
  0
TABLE
  2
APPID
  5
9
100
AcDbSymbolTable
 70
1
  0
APPID
  5
215
100
AcDbSymbolTableRecord
100
AcDbRegAppTableRecord
  2
ACAD
 70
0
  0
ENDTAB
  0
TABLE
  2
BLOCK_RECORD
  5
1
100
AcDbSymbolTable
 70
0
  0
BLOCK_RECORD
  5
216
100
AcDbSymbolTableRecord
100
AcDbBlockTableRecord
  2
*Model_Space
  0
BLOCK_RECORD
  5
217
100
AcDbSymbolTableRecord
100
AcDbBlockTableRecord
  2
*Paper_Space
  0
BLOCK_RECORD
  5
218
100
AcDbSymbolTableRecord
100
AcDbBlockTableRecord
  2
_CLOSED
  0
ENDTAB
  0
TABLE
  2
DIMSTYLE
  5
A
100
AcDbSymbolTable
 70
1
100
AcDbDimStyleTable
 71
0
  0
DIMSTYLE
105
219
100
AcDbSymbolTableRecord
100
AcDbDimStyleTableRecord
  2
STANDARD
 70
0
  3

  4

 40
1.0
 41
0.1875
 42
0.0625
 43
0.38
 44
0.125
 45
0.0
 46
0.0
 47
0.01
 48
0.01
140
0.15625
141
0.09
142
0.0
143
25.4
144
1.0
145
0.0
146
1.0
147
0.625
 71
0.0
 72
0.0
 73
1
 74
1
 75
0
 76
0
 77
0
 78
8
 79
2
170
0
171
1
172
0
173
0
174
0
175
0
176
0
177
0
178
0
270
2
179
2
271
2
272
2
273
2
274
2
275
0
280
0
281
0
282
0
283
1
284
8
285
0
286
0
287
3
288
0
340
11
278
46
341
218
342
218
343
218
344
218
  0
ENDTAB
  0
ENDSEC
  0
SECTION
  2
BLOCKS
  0
BLOCK
  5
20
100
AcDbEntity
  8
0
100
AcDbBlockBegin
  2
*Model_Space
 70
0
 10
0.0
 20
0.0
 30
0.0
  3
*Model_Space
  1

  0
ENDBLK
  5
21
100
AcDbEntity
  8
0
100
AcDbBlockEnd
  0
BLOCK
  5
1C
100
AcDbEntity
  8
0
100
AcDbBlockBegin
  2
*Paper_Space
 70
0
 10
0.0
 20
0.0
 30
0.0
  3
*Paper_Space
  1

  0
ENDBLK
  5
1D
100
AcDbEntity
  8
0
100
AcDbBlockEnd
  0
BLOCK
  5
21A
100
AcDbEntity
  8
0
100
AcDbBlockBegin
  2
_CLOSED
 70
64
 10
0.0
 20
0.0
  3
_CLOSED
  1

  0
LINE
  5
21B
100
AcDbEntity
  8
0
  6
BYBLOCK
 62
0
100
AcDbLine
 10
0.0
 20
0.0
 11
-1.0
 21
0.1666666667
  0
LINE
  5
21C
100
AcDbEntity
  8
0
  6
BYBLOCK
 62
0
100
AcDbLine
 10
-1.0
 20
0.1666666667
 11
-1.0
 21
-0.1666666667
  0
LINE
  5
21D
100
AcDbEntity
  8
0
  6
BYBLOCK
 62
0
100
AcDbLine
 10
-1.0
 20
-0.1666666667
 11
0.0
 21
0.0
  0
LINE
  5
21E
100
AcDbEntity
  8
0
  6
BYBLOCK
 62
0
100
AcDbLine
 10
-1.0
 20
0.0
 11
0.0
 21
0.0
  0
ENDBLK
  5
21F
100
AcDbEntity
  8
0
  6
BYBLOCK
 62
0
100
AcDbBlockEnd
  0
ENDSEC
  0
SECTION
  2
ENTITIES
  0
LINE
  5
220
100
AcDbEntity
  8
0
100
AcDbLine
 62
7
  6
CONTINUOUS
 10
-1.1889793619
 20
266.8924354066
 11
-0.799166117
 21
267.0590293451
  0
LINE
  5
221
100
AcDbEntity
  8
0
100
AcDbLine
 62
7
  6
CONTINUOUS
 10
6.2256275131
 20
268.9420637923
 11
5.8358142682
 21
268.7754698539
  0
LINE
  5
222
100
AcDbEntity
  8
0
100
AcDbLine
 62
7
  6
CONTINUOUS
 10
3.5895835112
 20
270.3942959825
 11
-1.8304485853
 21
267.1286897875
  0
LINE
  5
223
100
AcDbEntity
  8
0
100
AcDbLine
 62
7
  6
CONTINUOUS
 10
-0.799166117
 20
267.0590293451
 11
4.1795376376
 21
270.0587322129
  0
LINE
  5
224
100
AcDbEntity
  8
0
100
AcDbLine
 62
7
  6
CONTINUOUS
 10
6.3250820214
 20
269.0019858099
 11
6.2256275131
 21
268.9420637923
  0
LINE
  5
225
100
AcDbEntity
  8
0
100
AcDbLine
 62
7
  6
CONTINUOUS
 10
-22.8438538386
 20
198.8417653748
 11
8.0796096015
 21
207.1309692934
  0
LINE
  5
226
100
AcDbEntity
  8
0
100
AcDbLine
 62
7
  6
CONTINUOUS
 10
-28.2829017965
 20
198.240790848
 11
-23.8572818095
 21
199.4271025498
  0
LINE
  5
227
100
AcDbEntity
  8
0
100
AcDbLine
 62
7
  6
CONTINUOUS
 10
-4.5454554331
 20
208.5156525915
 11
1.4079895205
 21
210.1115061522
  0
LINE
  5
228
100
AcDbEntity
  8
0
100
AcDbLine
 62
7
  6
CONTINUOUS
 10
-32.6413748368
 20
212.6302056774
 11
-27.2694738256
 21
214.0701731959
  0
LINE
  5
229
100
AcDbEntity
  8
0
100
AcDbLine
 62
7
  6
CONTINUOUS
 10
-33.6170350704
 20
199.791057271
 11
-31.5338775746
 21
198.5878641892
  0
LINE
  5
22A
100
AcDbEntity
  8
0
100
AcDbLine
 62
7
  6
CONTINUOUS
 10
-35.7379603037
 20
203.9796913986
 11
-33.6548028078
 21
202.7764983168
  0
LINE
  5
22B
100
AcDbEntity
  8
0
100
AcDbLine
 62
7
  6
CONTINUOUS
 10
-22.8438538386
 20
198.8417653748
 11
-23.8572818095
 21
199.4271025498
  0
LINE
  5
22C
100
AcDbEntity
  8
0
100
AcDbLine
 62
7
  6
CONTINUOUS
 10
-35.7379603037
 20
270.1717835657
 11
-35.7379603037
 21
203.9796913986
  0
LINE
  5
22D
100
AcDbEntity
  8
0
100
AcDbLine
 62
7
  6
CONTINUOUS
 10
-32.6413748368
 20
212.6302056774
 11
-33.6548028078
 21
213.2155428523
  0
LINE
  5
22E
100
AcDbEntity
  8
0
100
AcDbLine
 62
7
  6
CONTINUOUS
 10
-22.8438538386
 20
210.3334480427
 11
-23.8572818095
 21
210.9187852177
  0
LINE
  5
22F
100
AcDbEntity
  8
0
100
AcDbLine
 62
7
  6
CONTINUOUS
 10
-33.6548028078
 20
268.9685904839
 11
-33.6548028078
 21
258.5295459484
  0
LINE
  5
230
100
AcDbEntity
  8
0
100
AcDbLine
 62
7
  6
CONTINUOUS
 10
-33.6548028078
 20
213.2155428523
 11
-33.6548028078
 21
202.7764983168
  0
LINE
  5
231
100
AcDbEntity
  8
0
100
AcDbLine
 62
7
  6
CONTINUOUS
 10
-32.6413748368
 20
257.9442087734
 11
-32.6413748368
 21
212.6302056774
  0
LINE
  5
232
100
AcDbEntity
  8
0
100
AcDbLine
 62
7
  6
CONTINUOUS
 10
34.0817741802
 20
252.7197423361
 11
28.2038309393
 21
251.1441274235
  0
LINE
  5
233
100
AcDbEntity
  8
0
100
AcDbLine
 62
7
  6
CONTINUOUS
 10
32.848511262
 20
253.4320171803
 11
26.9791240184
 21
251.8586282829
  0
LINE
  5
234
100
AcDbEntity
  8
0
100
AcDbLine
 62
7
  6
CONTINUOUS
 10
-5.7785104874
 20
209.2278814409
 11
-4.5454554331
 21
208.5156525915
  0
LINE
  5
235
100
AcDbEntity
  8
0
100
AcDbLine
 62
7
  6
CONTINUOUS
 10
-23.8572818095
 20
199.4271025498
 11
-23.8572818095
 21
210.9187852177
  0
LINE
  5
236
100
AcDbEntity
  8
0
100
AcDbLine
 62
7
  6
CONTINUOUS
 10
-23.8572818095
 20
266.0788620235
 11
-23.8572818095
 21
277.5705446914
  0
LINE
  5
237
100
AcDbEntity
  8
0
100
AcDbLine
 62
7
  6
CONTINUOUS
 10
-22.8438538386
 20
276.9852075165
 11
-22.8438538386
 21
265.4935248486
  0
LINE
  5
238
100
AcDbEntity
  8
0
100
AcDbLine
 62
7
  6
CONTINUOUS
 10
-22.8438538386
 20
198.8417653748
 11
-22.8438538386
 21
210.3334480427
  0
LINE
  5
239
100
AcDbEntity
  8
0
100
AcDbLine
 62
7
  6
CONTINUOUS
 10
-19.0050107313
 20
269.5145619419
 11
-19.0050107313
 21
265.8124128169
  0
LINE
  5
23A
100
AcDbEntity
  8
0
100
AcDbLine
 62
7
  6
CONTINUOUS
 10
-7.2546163881
 20
276.8865995998
 11
-4.5093594337
 21
291.4144669757
  0
LINE
  5
23B
100
AcDbEntity
  8
0
100
AcDbLine
 62
7
  6
CONTINUOUS
 10
43.8254851977
 20
262.6776689725
 11
39.2800304959
 21
261.4592349184
  0
LINE
  5
23C
100
AcDbEntity
  8
0
100
AcDbLine
 62
7
  6
CONTINUOUS
 10
14.7681974086
 20
203.2675029094
 11
12.3422764217
 21
204.6675274438
  0
LINE
  5
23D
100
AcDbEntity
  8
0
100
AcDbLine
 62
7
  6
CONTINUOUS
 10
-18.0354192602
 20
221.2712926228
 11
-9.9719459842
 21
216.6139802111
  0
LINE
  5
23E
100
AcDbEntity
  8
0
100
AcDbLine
 62
7
  6
CONTINUOUS
 10
1.324779643
 20
210.0892012883
 11
3.6406790077
 21
208.7515808255
  0
LINE
  5
23F
100
AcDbEntity
  8
0
100
AcDbLine
 62
7
  6
CONTINUOUS
 10
9.1415384488
 20
206.9678144498
 11
13.0433728052
 21
204.7141873894
  0
LINE
  5
240
100
AcDbEntity
  8
0
100
AcDbLine
 62
7
  6
CONTINUOUS
 10
-0.7989109519
 20
216.9159896621
 11
13.0023467966
 21
208.9446394995
  0
LINE
  5
241
100
AcDbEntity
  8
0
100
AcDbLine
 62
7
  6
CONTINUOUS
 10
-1.8837522939
 20
220.026371689
 11
6.5786246175
 21
215.1386599458
  0
LINE
  5
242
100
AcDbEntity
  8
0
100
AcDbLine
 62
7
  6
CONTINUOUS
 10
18.7861124115
 20
210.4948949766
 11
13.0704365861
 21
213.7961631835
  0
LINE
  5
243
100
AcDbEntity
  8
0
100
AcDbLine
 62
7
  6
CONTINUOUS
 10
-4.9296222456
 20
268.9652128598
 11
-4.9296222456
 21
257.6827298316
  0
LINE
  5
244
100
AcDbEntity
  8
0
100
AcDbLine
 62
7
  6
CONTINUOUS
 10
-1.8304485853
 20
258.5131835198
 11
-1.8304485853
 21
269.7959633513
  0
LINE
  5
245
100
AcDbEntity
  8
0
100
AcDbLine
 62
7
  6
CONTINUOUS
 10
-32.6413748368
 20
257.9442087734
 11
-27.2694738256
 21
259.3841762919
  0
LINE
  5
246
100
AcDbEntity
  8
0
100
AcDbLine
 62
7
  6
CONTINUOUS
 10
-1.8304485853
 20
266.7203799951
 11
-1.1889528081
 21
266.8923364553
  0
LINE
  5
247
100
AcDbEntity
  8
0
100
AcDbLine
 62
7
  6
CONTINUOUS
 10
5.835840822
 20
268.7753709025
 11
6.4560361145
 21
268.941617651
  0
LINE
  5
248
100
AcDbEntity
  8
0
100
AcDbLine
 62
7
  6
CONTINUOUS
 10
-1.8304485853
 20
266.7825884253
 11
-0.799166117
 21
267.0590293451
  0
LINE
  5
249
100
AcDbEntity
  8
0
100
AcDbLine
 62
7
  6
CONTINUOUS
 10
6.2256275132
 20
268.9420637924
 11
6.3707071853
 21
268.9809531939
  0
LINE
  5
24A
100
AcDbEntity
  8
0
100
AcDbLine
 62
7
  6
CONTINUOUS
 10
-33.6548028078
 20
258.5295459484
 11
-28.2829017965
 21
259.9695134669
  0
LINE
  5
24B
100
AcDbEntity
  8
0
100
AcDbLine
 62
7
  6
CONTINUOUS
 10
-1.8304485853
 20
269.7959633513
 11
-4.9296222456
 21
268.9652128598
  0
LINE
  5
24C
100
AcDbEntity
  8
0
100
AcDbLine
 62
7
  6
CONTINUOUS
 10
-32.6413748368
 20
257.9442087734
 11
-33.6548028078
 21
258.5295459484
  0
LINE
  5
24D
100
AcDbEntity
  8
0
100
AcDbLine
 62
7
  6
CONTINUOUS
 10
-22.8538011217
 20
250.0216319259
 11
-8.7881045175
 21
241.8724282464
  0
LINE
  5
24E
100
AcDbEntity
  8
0
100
AcDbLine
 62
7
  6
CONTINUOUS
 10
-9.0153578548
 20
276.1164916189
 11
-5.9161841945
 21
276.9472421104
  0
LINE
  5
24F
100
AcDbEntity
  8
0
100
AcDbLine
 62
7
  6
CONTINUOUS
 10
-7.2316796173
 20
277.00798072
 11
-11.782785171
 21
275.7964156688
  0
LINE
  5
250
100
AcDbEntity
  8
0
100
AcDbLine
 62
7
  6
CONTINUOUS
 10
-27.2694738256
 20
259.3841762919
 11
-28.2829017965
 21
259.9695134669
  0
LINE
  5
251
100
AcDbEntity
  8
0
100
AcDbLine
 62
7
  6
CONTINUOUS
 10
-33.6548028078
 20
268.9685904839
 11
-35.7379603037
 21
270.1717835657
  0
LINE
  5
252
100
AcDbEntity
  8
0
100
AcDbLine
 62
7
  6
CONTINUOUS
 10
18.4174859957
 20
265.8069959857
 11
18.4174859957
 21
263.9410502004
  0
LINE
  5
253
100
AcDbEntity
  8
0
100
AcDbLine
 62
7
  6
CONTINUOUS
 10
14.7682461687
 20
204.2939354144
 11
14.7681974086
 21
203.2675029094
  0
LINE
  5
254
100
AcDbEntity
  8
0
100
AcDbLine
 62
7
  6
CONTINUOUS
 10
12.3422764217
 20
204.6675274438
 11
12.3544744382
 21
205.1120822921
  0
LINE
  5
255
100
AcDbEntity
  8
0
100
AcDbLine
 62
7
  6
CONTINUOUS
 10
-22.8438538386
 20
276.9852075165
 11
-6.4032139636
 21
281.3922111737
  0
LINE
  5
256
100
AcDbEntity
  8
0
100
AcDbLine
 62
7
  6
CONTINUOUS
 10
-23.8572818095
 20
277.5705446914
 11
-28.2829017965
 21
276.3842329897
  0
LINE
  5
257
100
AcDbEntity
  8
0
100
AcDbLine
 62
7
  6
CONTINUOUS
 10
-5.881991423
 20
284.1505147022
 11
-30.3660592924
 21
277.5874260715
  0
LINE
  5
258
100
AcDbEntity
  8
0
100
AcDbLine
 62
7
  6
CONTINUOUS
 10
24.7268754371
 20
296.2126008862
 11
23.5502588599
 21
295.8972023616
  0
LINE
  5
259
100
AcDbEntity
  8
0
100
AcDbLine
 62
7
  6
CONTINUOUS
 10
6.0687805883
 20
291.2111962655
 11
4.8921640108
 21
290.895797741
  0
LINE
  5
25A
100
AcDbEntity
  8
0
100
AcDbLine
 62
7
  6
CONTINUOUS
 10
-23.8572818095
 20
266.0788620235
 11
-22.8438538386
 21
265.4935248486
  0
LINE
  5
25B
100
AcDbEntity
  8
0
100
AcDbLine
 62
7
  6
CONTINUOUS
 10
-19.0050107313
 20
265.8124128169
 11
-4.9296222456
 21
257.6827298316
  0
LINE
  5
25C
100
AcDbEntity
  8
0
100
AcDbLine
 62
7
  6
CONTINUOUS
 10
4.5877251541
 20
252.7845051735
 11
2.2279892255
 21
254.1474448216
  0
LINE
  5
25D
100
AcDbEntity
  8
0
100
AcDbLine
 62
7
  6
CONTINUOUS
 10
15.5778755701
 20
250.3592454536
 11
24.0838012785
 21
245.446380734
  0
LINE
  5
25E
100
AcDbEntity
  8
0
100
AcDbLine
 62
7
  6
CONTINUOUS
 10
-30.3660592924
 20
277.5874260715
 11
-28.2829017965
 21
276.3842329897
  0
LINE
  5
25F
100
AcDbEntity
  8
0
100
AcDbLine
 62
7
  6
CONTINUOUS
 10
21.516659656
 20
264.7718006918
 11
21.516659656
 21
265.436307107
  0
LINE
  5
260
100
AcDbEntity
  8
0
100
AcDbLine
 62
7
  6
CONTINUOUS
 10
-2.2347778396
 20
293.4150983375
 11
17.5999335866
 21
298.7319014827
  0
LINE
  5
261
100
AcDbEntity
  8
0
100
AcDbLine
 62
7
  6
CONTINUOUS
 10
-3.0795075561
 20
293.4443636683
 11
16.7552038701
 21
298.7611668135
  0
LINE
  5
262
100
AcDbEntity
  8
0
100
AcDbLine
 62
7
  6
CONTINUOUS
 10
20.5476117465
 20
255.5731029098
 11
19.3627997837
 21
256.1851396998
  0
LINE
  5
263
100
AcDbEntity
  8
0
100
AcDbLine
 62
7
  6
CONTINUOUS
 10
-22.8438538386
 20
276.9852075165
 11
-23.8572818095
 21
277.5705446914
  0
LINE
  5
264
100
AcDbEntity
  8
0
100
AcDbLine
 62
7
  6
CONTINUOUS
 10
5.2874118454
 20
264.3148223721
 11
19.3628003311
 21
256.1851393868
  0
LINE
  5
265
100
AcDbEntity
  8
0
100
AcDbLine
 62
7
  6
CONTINUOUS
 10
20.5477188785
 20
255.5732884495
 11
28.1640026688
 21
251.1742260434
  0
LINE
  5
266
100
AcDbEntity
  8
0
100
AcDbLine
 62
7
  6
CONTINUOUS
 10
36.5966654757
 20
269.8787181105
 11
36.5966654757
 21
271.688785146
  0
LINE
  5
267
100
AcDbEntity
  8
0
100
AcDbLine
 62
7
  6
CONTINUOUS
 10
32.8483226545
 20
253.4318695413
 11
34.0817741802
 21
252.7197423361
  0
LINE
  5
268
100
AcDbEntity
  8
0
100
AcDbLine
 62
7
  6
CONTINUOUS
 10
13.7032477212
 20
266.6639066763
 11
18.4174859957
 21
263.9410502004
  0
LINE
  5
269
100
AcDbEntity
  8
0
100
AcDbLine
 62
7
  6
CONTINUOUS
 10
28.1483636512
 20
251.183147138
 11
28.163147125
 21
251.17274737
  0
LINE
  5
26A
100
AcDbEntity
  8
0
100
AcDbLine
 62
7
  6
CONTINUOUS
 10
39.2800304959
 20
261.4592349184
 11
39.2800304959
 21
265.8794327148
  0
LINE
  5
26B
100
AcDbEntity
  8
0
100
AcDbLine
 62
7
  6
CONTINUOUS
 10
43.8254851977
 20
262.6776689725
 11
43.8254851977
 21
266.7360295647
  0
LINE
  5
26C
100
AcDbEntity
  8
0
100
AcDbLine
 62
7
  6
CONTINUOUS
 10
39.2800304959
 20
261.4592349184
 11
37.8724916473
 21
262.272203217
  0
LINE
  5
26D
100
AcDbEntity
  8
0
100
AcDbLine
 62
7
  6
CONTINUOUS
 10
36.5966654757
 20
269.8787181105
 11
33.6360467475
 21
271.5887044759
  0
LINE
  5
26E
100
AcDbEntity
  8
0
100
AcDbLine
 62
7
  6
CONTINUOUS
 10
37.8724916473
 20
262.272203217
 11
37.3079415087
 21
265.6134810561
  0
LINE
  5
26F
100
AcDbEntity
  8
0
100
AcDbLine
 62
7
  6
CONTINUOUS
 10
4.8921640108
 20
290.8957977411
 11
5.2665602554
 21
290.6795534233
  0
LINE
  5
270
100
AcDbEntity
  8
0
100
AcDbLine
 62
7
  6
CONTINUOUS
 10
56.4313769019
 20
277.0055882912
 11
56.4313769019
 21
275.1955212557
  0
LINE
  5
271
100
AcDbEntity
  8
0
100
AcDbLine
 62
7
  6
CONTINUOUS
 10
24.7268754371
 20
296.2126008862
 11
25.1012716817
 21
295.9963565685
  0
ARC
  5
272
100
AcDbEntity
  8
0
100
AcDbCircle
 62
7
  6
CONTINUOUS
 10
-62.7021176342
 20
148.506572299
 40
158.2216985404
100
AcDbArc
 50
51.1272611631
 51
53.1868316006
  0
ARC
  5
273
100
AcDbEntity
  8
0
100
AcDbCircle
 62
7
  6
CONTINUOUS
 10
-41.7073552561
 20
155.3165912799
 40
156.3311317147
100
AcDbArc
 50
51.1148062463
 51
53.1992865179
  0
ARC
  5
274
100
AcDbEntity
  8
0
100
AcDbCircle
 62
7
  6
CONTINUOUS
 10
-9.7745382066
 20
209.9507704089
 40
92.9056023107
100
AcDbArc
 50
68.2004907156
 51
72.8635547433
  0
ARC
  5
275
100
AcDbEntity
  8
0
100
AcDbCircle
 62
7
  6
CONTINUOUS
 10
-29.0470248218
 20
206.22446565
 40
91.2200801177
100
AcDbArc
 50
68.1573852925
 51
72.9066601663
  0
ARC
  5
276
100
AcDbEntity
  8
0
100
AcDbCircle
 62
7
  6
CONTINUOUS
 10
28.5529471475
 20
228.0422420039
 40
68.1469554576
100
AcDbArc
 50
92.9083202753
 51
93.0374363346
  0
ARC
  5
277
100
AcDbEntity
  8
0
100
AcDbCircle
 62
7
  6
CONTINUOUS
 10
28.5423455319
 20
229.9316120659
 40
66.1543003548
100
AcDbArc
 50
92.9816357097
 51
93.3593842074
  0
ARC
  5
278
100
AcDbEntity
  8
0
100
AcDbCircle
 62
7
  6
CONTINUOUS
 10
28.4925386495
 20
230.7462121031
 40
65.3381792001
100
AcDbArc
 50
93.430673102
 51
94.3380839314
  0
ARC
  5
279
100
AcDbEntity
  8
0
100
AcDbCircle
 62
7
  6
CONTINUOUS
 10
28.2955653294
 20
233.237328004
 40
62.839301301
100
AcDbArc
 50
94.3308104683
 51
97.3721203329
  0
ARC
  5
27A
100
AcDbEntity
  8
0
100
AcDbCircle
 62
7
  6
CONTINUOUS
 10
27.8740978672
 20
236.7607017509
 40
59.2909828028
100
AcDbArc
 50
97.4050837651
 51
97.5844923911
  0
ARC
  5
27B
100
AcDbEntity
  8
0
100
AcDbCircle
 62
7
  6
CONTINUOUS
 10
-8.9017614833
 20
264.61356279
 40
43.1058897439
100
AcDbArc
 50
9.312210035
 51
11.0200858275
  0
ARC
  5
27C
100
AcDbEntity
  8
0
100
AcDbCircle
 62
7
  6
CONTINUOUS
 10
32.7941009706
 20
276.8998203652
 40
25.8092996021
100
AcDbArc
 50
0.0058092841
 51
19.6827677483
  0
ARC
  5
27D
100
AcDbEntity
  8
0
100
AcDbCircle
 62
7
  6
CONTINUOUS
 10
24.4126883136
 20
276.8998223774
 40
25.8092880061
100
AcDbArc
 50
160.3172278007
 51
179.9941951802
  0
ARC
  5
27E
100
AcDbEntity
  8
0
100
AcDbCircle
 62
7
  6
CONTINUOUS
 10
14.3949575167
 20
277.7763700132
 40
15.8056881746
100
AcDbArc
 50
121.7883904584
 51
125.2776163948
  0
ARC
  5
27F
100
AcDbEntity
  8
0
100
AcDbCircle
 62
7
  6
CONTINUOUS
 10
16.609017252
 20
208.8745797266
 40
3.6073508487
100
AcDbArc
 50
178.8871662728
 51
179.9985512791
  0
ARC
  5
280
100
AcDbEntity
  8
0
100
AcDbCircle
 62
7
  6
CONTINUOUS
 10
15.2355088422
 20
210.4254960178
 40
3.5512817294
100
AcDbArc
 50
359.9985345825
 51
1.119742354
  0
ARC
  5
281
100
AcDbEntity
  8
0
100
AcDbCircle
 62
7
  6
CONTINUOUS
 10
-27.2934126746
 20
211.5372261736
 40
3.3029590136
100
AcDbArc
 50
40.1795551026
 51
41.6150430265
  0
ARC
  5
282
100
AcDbEntity
  8
0
100
AcDbCircle
 62
7
  6
CONTINUOUS
 10
-27.2369564395
 20
211.5882959274
 40
3.2268344906
100
AcDbArc
 50
41.6028427929
 51
49.76178418
  0
ARC
  5
283
100
AcDbEntity
  8
0
100
AcDbCircle
 62
7
  6
CONTINUOUS
 10
6.9097101271
 20
235.3948850181
 40
1.8406547958
100
AcDbArc
 50
60.03648498
 51
71.5000219514
  0
ARC
  5
284
100
AcDbEntity
  8
0
100
AcDbCircle
 62
7
  6
CONTINUOUS
 10
19.4349290656
 20
238.752448084
 40
1.8405177435
100
AcDbArc
 50
60.036099006
 51
71.4584247868
  0
ARC
  5
285
100
AcDbEntity
  8
0
100
AcDbCircle
 62
7
  6
CONTINUOUS
 10
5.5985104393
 20
233.1252085103
 40
1.8381276259
100
AcDbArc
 50
228.4329255176
 51
239.951051091
  0
ARC
  5
286
100
AcDbEntity
  8
0
100
AcDbCircle
 62
7
  6
CONTINUOUS
 10
18.1233648961
 20
236.4822101106
 40
1.8375961463
100
AcDbArc
 50
228.5720239542
 51
239.9525149668
  0
ARC
  5
287
100
AcDbEntity
  8
0
100
AcDbCircle
 62
7
  6
CONTINUOUS
 10
-7.6494430012
 20
269.3509634577
 40
0.5474994856
100
AcDbArc
 50
272.4289136333
 51
284.9307052384
  0
ARC
  5
288
100
AcDbEntity
  8
0
100
AcDbCircle
 62
7
  6
CONTINUOUS
 10
-8.4031719447
 20
272.1578750551
 40
0.5461351506
100
AcDbArc
 50
92.4138854996
 51
104.9470092382
  0
SPLINE
  5
289
100
AcDbEntity
  8
0
100
AcDbSpline
 62
7
  6
CONTINUOUS
 70
0
 71
3
 72
20
 73
16
 74
0
 42
0.0000001
 43
0.0000001
 44
0.0000000001
 40
0.0
 40
0.0
 40
0.0
 40
0.0
 40
0.0527860015
 40
0.1117095947
 40
0.1763666303
 40
0.2459442301
 40
0.3948280941
 40
0.5471737835
 40
0.6908580996
 40
0.7562119328
 40
0.815900553
 40
0.8694870362
 40
0.9171655787
 40
0.9599859103
 40
1.0
 40
1.0
 40
1.0
 40
1.0
 10
-8.0262077125
 20
268.9150738897
 30
0.0
 10
-8.092375092
 20
268.9532909393
 30
0.0
 10
-8.2238711424
 20
269.0492337564
 30
0.0
 10
-8.4041367939
 20
269.2311024669
 30
0.0
 10
-8.5739872816
 20
269.4540940973
 30
0.0
 10
-8.7851924303
 20
269.8060561906
 30
0.0
 10
-8.9921062993
 20
270.3049116069
 30
0.0
 10
-9.1368817586
 20
270.9351585199
 30
0.0
 10
-9.1647976051
 20
271.4612719609
 30
0.0
 10
-9.1213743635
 20
271.8486583335
 30
0.0
 10
-9.0599633173
 20
272.1007105269
 30
0.0
 10
-8.9701345103
 20
272.3169262299
 30
0.0
 10
-8.853325483
 20
272.491766093
 30
0.0
 10
-8.7112924424
 20
272.6198303761
 30
0.0
 10
-8.5999792815
 20
272.6705243631
 30
0.0
 10
-8.544034173
 20
272.6855316057
 30
0.0
  0
SPLINE
  5
28A
100
AcDbEntity
  8
0
100
AcDbSpline
 62
7
  6
CONTINUOUS
 70
0
 71
3
 72
10
 73
6
 74
0
 42
0.0000001
 43
0.0000001
 44
0.0000000001
 40
0.0
 40
0.0
 40
0.0
 40
0.0
 40
0.2307026303
 40
0.4700767339
 40
1.0
 40
1.0
 40
1.0
 40
1.0
 10
-7.508381252
 20
268.8219546275
 30
0.0
 10
-7.5483610008
 20
268.8112300833
 30
0.0
 10
-7.6327151986
 20
268.798940649
 30
0.0
 10
-7.8127184956
 20
268.8134412054
 30
0.0
 10
-7.9438742284
 20
268.8675195984
 30
0.0
 10
-8.0262077125
 20
268.9150738897
 30
0.0
  0
SPLINE
  5
28B
100
AcDbEntity
  8
0
100
AcDbSpline
 62
7
  6
CONTINUOUS
 70
0
 71
3
 72
18
 73
14
 74
0
 42
0.0000001
 43
0.0000001
 44
0.0000000001
 40
0.0
 40
0.0
 40
0.0
 40
0.0
 40
0.1266265411
 40
0.2692571754
 40
0.4194785342
 40
0.5675453569
 40
0.7040780342
 40
0.7657218874
 40
0.8220833496
 40
0.8729999887
 40
0.9188267659
 40
0.9605789904
 40
1.0
 40
1.0
 40
1.0
 40
1.0
 10
-7.7392186927
 20
272.3659344506
 30
0.0
 10
-7.6211325077
 20
272.2469036805
 30
0.0
 10
-7.4044566675
 20
271.9593974713
 30
0.0
 10
-7.1562331512
 20
271.4600675835
 30
0.0
 10
-6.9805306736
 20
270.9007549006
 30
0.0
 10
-6.8926798574
 20
270.3295999371
 30
0.0
 10
-6.8986217154
 20
269.8680872945
 30
0.0
 10
-6.9575807777
 20
269.5355386253
 30
0.0
 10
-7.0241747184
 20
269.3212627621
 30
0.0
 10
-7.1133870632
 20
269.1381640948
 30
0.0
 10
-7.2239816356
 20
268.9901814834
 30
0.0
 10
-7.3543665518
 20
268.8812234013
 30
0.0
 10
-7.4542120757
 20
268.836903369
 30
0.0
 10
-7.5045255914
 20
268.8230043129
 30
0.0
  0
SPLINE
  5
28C
100
AcDbEntity
  8
0
100
AcDbSpline
 62
7
  6
CONTINUOUS
 70
0
 71
3
 72
9
 73
5
 74
0
 42
0.0000001
 43
0.0000001
 44
0.0000000001
 40
0.0
 40
0.0
 40
0.0
 40
0.0
 40
0.2461632592
 40
1.0
 40
1.0
 40
1.0
 40
1.0
 10
-8.4261739489
 20
272.7035255939
 30
0.0
 10
-8.4168240797
 20
272.7039262158
 30
0.0
 10
-8.3788048858
 20
272.7046115229
 30
0.0
 10
-8.3407365812
 20
272.7015425578
 30
0.0
 10
-8.3123884903
 20
272.6973339709
 30
0.0
  0
SPLINE
  5
28D
100
AcDbEntity
  8
0
100
AcDbSpline
 62
7
  6
CONTINUOUS
 70
0
 71
3
 72
9
 73
5
 74
0
 42
0.0000001
 43
0.0000001
 44
0.0000000001
 40
0.0
 40
0.0
 40
0.0
 40
0.0
 40
0.2353495061
 40
1.0
 40
1.0
 40
1.0
 40
1.0
 10
-8.3123884903
 20
272.6973339709
 30
0.0
 10
-8.28865371
 20
272.6938102809
 30
0.0
 10
-8.1886409395
 20
272.6731838464
 30
0.0
 10
-8.093715853
 20
272.6314037916
 30
0.0
 10
-8.0262077125
 20
272.5924123435
 30
0.0
  0
SPLINE
  5
28E
100
AcDbEntity
  8
0
100
AcDbSpline
 62
7
  6
CONTINUOUS
 70
0
 71
3
 72
11
 73
7
 74
0
 42
0.0000001
 43
0.0000001
 44
0.0000000001
 40
0.0
 40
0.0
 40
0.0
 40
0.0
 40
0.2634075328
 40
0.515933487
 40
0.7602044579
 40
1.0
 40
1.0
 40
1.0
 40
1.0
 10
15.331212948
 20
214.204235858
 30
0.0
 10
14.5660819165
 20
213.99913829
 30
0.0
 10
13.0302854428
 20
213.720133281
 30
0.0
 10
10.7303577503
 20
213.7314072258
 30
0.0
 10
8.546582982
 20
214.1842880391
 30
0.0
 10
7.2030746286
 20
214.7779688156
 30
0.0
 10
6.5786320873
 20
215.1386723091
 30
0.0
  0
SPLINE
  5
28F
100
AcDbEntity
  8
0
100
AcDbSpline
 62
7
  6
CONTINUOUS
 70
0
 71
3
 72
11
 73
7
 74
0
 42
0.0000001
 43
0.0000001
 44
0.0000000001
 40
0.0
 40
0.0
 40
0.0
 40
0.0
 40
0.2717772429
 40
0.5268691304
 40
0.7676330732
 40
1.0
 40
1.0
 40
1.0
 40
1.0
 10
4.3560059588
 20
231.3726448667
 30
0.0
 10
4.3560059588
 20
230.9829640901
 30
0.0
 10
4.4317673305
 20
230.2243086679
 30
0.0
 10
4.7946454198
 20
229.173417733
 30
0.0
 10
5.3892621737
 20
228.2990282351
 30
0.0
 10
5.9274108047
 20
227.8662133803
 30
0.0
 10
6.2159066613
 20
227.6995562549
 30
0.0
  0
SPLINE
  5
290
100
AcDbEntity
  8
0
100
AcDbSpline
 62
7
  6
CONTINUOUS
 70
0
 71
3
 72
11
 73
7
 74
0
 42
0.0000001
 43
0.0000001
 44
0.0000000001
 40
0.0
 40
0.0
 40
0.0
 40
0.0
 40
0.2717772429
 40
0.5268691304
 40
0.7676330732
 40
1.0
 40
1.0
 40
1.0
 40
1.0
 10
16.8849320097
 20
234.7310921867
 30
0.0
 10
16.8849320097
 20
234.3414114101
 30
0.0
 10
16.9606933815
 20
233.5827559879
 30
0.0
 10
17.3235714707
 20
232.5318650531
 30
0.0
 10
17.9181882246
 20
231.6574755551
 30
0.0
 10
18.4563368556
 20
231.2246607003
 30
0.0
 10
18.7448327122
 20
231.0580035749
 30
0.0
  0
SPLINE
  5
291
100
AcDbEntity
  8
0
100
AcDbSpline
 62
7
  6
CONTINUOUS
 70
0
 71
3
 72
10
 73
6
 74
0
 42
0.0000001
 43
0.0000001
 44
0.0000000001
 40
0.0
 40
0.0
 40
0.0
 40
0.0
 40
0.2403281524
 40
0.485096085
 40
1.0
 40
1.0
 40
1.0
 40
1.0
 10
16.2307863533
 20
226.4057628442
 30
0.0
 10
16.0862525143
 20
226.489216079
 30
0.0
 10
15.7752008584
 20
226.6265649578
 30
0.0
 10
15.0915744011
 20
226.7689071985
 30
0.0
 10
14.5505651061
 20
226.7146041659
 30
0.0
 10
14.2051818692
 20
226.6220222956
 30
0.0
  0
SPLINE
  5
292
100
AcDbEntity
  8
0
100
AcDbSpline
 62
7
  6
CONTINUOUS
 70
0
 71
3
 72
15
 73
11
 74
0
 42
0.0000001
 43
0.0000001
 44
0.0000000001
 40
0.0
 40
0.0
 40
0.0
 40
0.0
 40
0.0524622549
 40
0.1056452393
 40
0.2162149894
 40
0.3353287824
 40
0.4632716504
 40
0.5978590347
 40
0.735324951
 40
1.0
 40
1.0
 40
1.0
 40
1.0
 10
24.4465192347
 20
240.9296622924
 30
0.0
 10
24.2728537802
 20
241.0299846533
 30
0.0
 10
23.9035785611
 20
241.2001148041
 30
0.0
 10
23.0992769914
 20
241.4065013051
 30
0.0
 10
21.9963990174
 20
241.391220125
 30
0.0
 10
20.6816604212
 20
240.95751435
 30
0.0
 10
19.446240245
 20
240.1554444045
 30
0.0
 10
18.3755586754
 20
239.0450157778
 30
0.0
 10
17.2856024777
 20
237.2974204956
 30
0.0
 10
16.8849320097
 20
235.7429281569
 30
0.0
 10
16.8849320097
 20
234.7310921867
 30
0.0
  0
SPLINE
  5
293
100
AcDbEntity
  8
0
100
AcDbSpline
 62
7
  6
CONTINUOUS
 70
0
 71
3
 72
15
 73
11
 74
0
 42
0.0000001
 43
0.0000001
 44
0.0000000001
 40
0.0
 40
0.0
 40
0.0
 40
0.0
 40
0.0524622549
 40
0.1056452393
 40
0.2162149894
 40
0.3353287824
 40
0.4632716504
 40
0.5978590347
 40
0.735324951
 40
1.0
 40
1.0
 40
1.0
 40
1.0
 10
11.9175931838
 20
237.5712149724
 30
0.0
 10
11.7439277292
 20
237.6715373333
 30
0.0
 10
11.3746525102
 20
237.8416674841
 30
0.0
 10
10.5703509404
 20
238.0480539851
 30
0.0
 10
9.4674729665
 20
238.0327728049
 30
0.0
 10
8.1527343703
 20
237.5990670299
 30
0.0
 10
6.9173141941
 20
236.7969970845
 30
0.0
 10
5.8466326245
 20
235.6865684577
 30
0.0
 10
4.7566764268
 20
233.9389731755
 30
0.0
 10
4.3560059588
 20
232.3844808369
 30
0.0
 10
4.3560059588
 20
231.3726448667
 30
0.0
  0
SPLINE
  5
294
100
AcDbEntity
  8
0
100
AcDbSpline
 62
7
  6
CONTINUOUS
 70
0
 71
3
 72
11
 73
7
 74
0
 42
0.0000001
 43
0.0000001
 44
0.0000000001
 40
0.0
 40
0.0
 40
0.0
 40
0.0
 40
0.2717668072
 40
0.5268680782
 40
0.7676307415
 40
1.0
 40
1.0
 40
1.0
 40
1.0
 10
10.858074316
 20
222.0015065855
 30
0.0
 10
10.8580743156
 20
221.7246378434
 30
0.0
 10
10.9119129571
 20
221.1855973669
 30
0.0
 10
11.1697086154
 20
220.4388911485
 30
0.0
 10
11.5922295068
 20
219.8176316557
 30
0.0
 10
11.9745658712
 20
219.5100441698
 30
0.0
 10
12.179577385
 20
219.3916713782
 30
0.0
  0
SPLINE
  5
295
100
AcDbEntity
  8
0
100
AcDbSpline
 62
7
  6
CONTINUOUS
 70
0
 71
3
 72
13
 73
9
 74
0
 42
0.0000001
 43
0.0000001
 44
0.0000000001
 40
0.0
 40
0.0
 40
0.0
 40
0.0
 40
0.2348069779
 40
0.3606340311
 40
0.4898728456
 40
0.6205624979
 40
0.75058487
 40
1.0
 40
1.0
 40
1.0
 40
1.0
 10
14.2051818692
 20
226.6220222956
 30
0.0
 10
13.7460425345
 20
226.4989474796
 30
0.0
 10
13.0768810834
 20
226.1569549637
 30
0.0
 10
12.3268462307
 20
225.5053547287
 30
0.0
 10
11.8206366736
 20
224.9062473832
 30
0.0
 10
11.4053490749
 20
224.2311881452
 30
0.0
 10
10.998684105
 20
223.2796896855
 30
0.0
 10
10.8580743166
 20
222.5064283146
 30
0.0
 10
10.858074316
 20
222.0015065855
 30
0.0
  0
SPLINE
  5
296
100
AcDbEntity
  8
0
100
AcDbSpline
 62
7
  6
CONTINUOUS
 70
0
 71
3
 72
20
 73
16
 74
0
 42
0.0000001
 43
0.0000001
 44
0.0000000001
 40
0.0
 40
0.0
 40
0.0
 40
0.0
 40
0.0524894976
 40
0.1058803543
 40
0.1609468326
 40
0.2182428661
 40
0.3400791524
 40
0.4047884693
 40
0.4714423007
 40
0.6080592299
 40
0.7449194086
 40
0.8118584184
 40
0.8769392961
 40
0.9397345156
 40
1.0
 40
1.0
 40
1.0
 40
1.0
 10
24.0837938087
 20
245.4463683707
 30
0.0
 10
24.6821582892
 20
245.1007286294
 30
0.0
 10
25.8203822385
 20
244.2762622451
 30
0.0
 10
27.2594704466
 20
242.7032011196
 30
0.0
 10
28.4039889745
 20
240.8300103226
 30
0.0
 10
29.5236563193
 20
237.943030787
 30
0.0
 10
29.9157308741
 20
234.6979955196
 30
0.0
 10
29.6388331185
 20
231.3703615328
 30
0.0
 10
28.8940364927
 20
227.912422299
 30
0.0
 10
27.1447965133
 20
223.7417597451
 30
0.0
 10
24.4776117631
 20
220.0843210484
 30
0.0
 10
21.8995337744
 20
217.6470911908
 30
0.0
 10
19.8194061285
 20
216.1334304913
 30
0.0
 10
17.6298659976
 20
214.9590209495
 30
0.0
 10
16.097547291
 20
214.4096559802
 30
0.0
 10
15.331212948
 20
214.204235858
 30
0.0
  0
SPLINE
  5
297
100
AcDbEntity
  8
0
100
AcDbSpline
 62
7
  6
CONTINUOUS
 70
0
 71
3
 72
10
 73
6
 74
0
 42
0.0000001
 43
0.0000001
 44
0.0000000001
 40
0.0
 40
0.0
 40
0.0
 40
0.0
 40
0.2403281525
 40
0.4850960851
 40
1.0
 40
1.0
 40
1.0
 40
1.0
 10
12.179577385
 20
219.3916713782
 30
0.0
 10
12.3241112237
 20
219.3082181435
 30
0.0
 10
12.6351628788
 20
219.170869265
 30
0.0
 10
13.3187893346
 20
219.0285270241
 30
0.0
 10
13.8597986282
 20
219.0828300562
 30
0.0
 10
14.2051818645
 20
219.1754119256
 30
0.0
  0
SPLINE
  5
298
100
AcDbEntity
  8
0
100
AcDbSpline
 62
7
  6
CONTINUOUS
 70
0
 71
3
 72
11
 73
7
 74
0
 42
0.0000001
 43
0.0000001
 44
0.0000000001
 40
0.0
 40
0.0
 40
0.0
 40
0.0
 40
0.2717772429
 40
0.5268691304
 40
0.7676330732
 40
1.0
 40
1.0
 40
1.0
 40
1.0
 10
26.3064199372
 20
237.2565736806
 30
0.0
 10
26.3064199372
 20
237.6462544572
 30
0.0
 10
26.2306585655
 20
238.4049098794
 30
0.0
 10
25.8677804762
 20
239.4558008143
 30
0.0
 10
25.2731637223
 20
240.3301903122
 30
0.0
 10
24.7350150913
 20
240.763005167
 30
0.0
 10
24.4465192347
 20
240.9296622924
 30
0.0
  0
SPLINE
  5
299
100
AcDbEntity
  8
0
100
AcDbSpline
 62
7
  6
CONTINUOUS
 70
0
 71
3
 72
11
 73
7
 74
0
 42
0.0000001
 43
0.0000001
 44
0.0000000001
 40
0.0
 40
0.0
 40
0.0
 40
0.0
 40
0.2717772429
 40
0.5268691304
 40
0.7676330732
 40
1.0
 40
1.0
 40
1.0
 40
1.0
 10
13.7774938863
 20
233.8981263606
 30
0.0
 10
13.7774938863
 20
234.2878071372
 30
0.0
 10
13.7017325146
 20
235.0464625594
 30
0.0
 10
13.3388544253
 20
236.0973534943
 30
0.0
 10
12.7442376714
 20
236.9717429922
 30
0.0
 10
12.2060890404
 20
237.404557847
 30
0.0
 10
11.9175931838
 20
237.5712149724
 30
0.0
  0
SPLINE
  5
29A
100
AcDbEntity
  8
0
100
AcDbSpline
 62
7
  6
CONTINUOUS
 70
0
 71
3
 72
9
 73
5
 74
0
 42
0.0000001
 43
0.0000001
 44
0.0000000001
 40
0.0
 40
0.0
 40
0.0
 40
0.0
 40
0.2464797674
 40
1.0
 40
1.0
 40
1.0
 40
1.0
 10
13.8510549431
 20
226.4836185831
 30
0.0
 10
13.8580088466
 20
226.4368266879
 30
0.0
 10
13.8825586612
 20
226.2464543807
 30
0.0
 10
13.8926884161
 20
226.0542650946
 30
0.0
 10
13.8926884161
 20
225.9096452181
 30
0.0
  0
SPLINE
  5
29B
100
AcDbEntity
  8
0
100
AcDbSpline
 62
7
  6
CONTINUOUS
 70
0
 71
3
 72
14
 73
10
 74
0
 42
0.0000001
 43
0.0000001
 44
0.0000000001
 40
0.0
 40
0.0
 40
0.0
 40
0.0
 40
0.105261025
 40
0.2158781366
 40
0.3350441295
 40
0.4630415132
 40
0.5976839205
 40
0.7352112512
 40
1.0
 40
1.0
 40
1.0
 40
1.0
 10
17.2032482297
 20
234.891567185
 30
0.0
 10
17.395747247
 20
234.7804117581
 30
0.0
 10
17.8371626436
 20
234.6256243928
 30
0.0
 10
18.5568098185
 20
234.6367701319
 30
0.0
 10
19.2839546873
 20
234.876109406
 30
0.0
 10
19.9665234024
 20
235.3194371558
 30
0.0
 10
20.5582555481
 20
235.9330759218
 30
0.0
 10
21.1605607347
 20
236.8988698958
 30
0.0
 10
21.3820217403
 20
237.7579232259
 30
0.0
 10
21.3820217403
 20
238.317095353
 30
0.0
  0
SPLINE
  5
29C
100
AcDbEntity
  8
0
100
AcDbSpline
 62
7
  6
CONTINUOUS
 70
0
 71
3
 72
14
 73
10
 74
0
 42
0.0000001
 43
0.0000001
 44
0.0000000001
 40
0.0
 40
0.0
 40
0.0
 40
0.0
 40
0.2552909996
 40
0.3883996519
 40
0.5210163367
 40
0.6503134264
 40
0.7739539084
 40
0.8905365446
 40
1.0
 40
1.0
 40
1.0
 40
1.0
 10
10.9624161892
 20
235.5240629577
 30
0.0
 10
10.9624161892
 20
234.6911149851
 30
0.0
 10
10.6904331037
 20
233.4132437338
 30
0.0
 10
9.923537491
 20
231.8912098994
 30
0.0
 10
9.1508014549
 20
230.8505093137
 30
0.0
 10
8.2287370847
 20
229.9847443904
 30
0.0
 10
7.2020553051
 20
229.3369535671
 30
0.0
 10
6.1219618502
 20
228.941962046
 30
0.0
 10
5.3789338912
 20
228.8614946898
 30
0.0
 10
5.0219752183
 20
228.873205351
 30
0.0
  0
SPLINE
  5
29D
100
AcDbEntity
  8
0
100
AcDbSpline
 62
7
  6
CONTINUOUS
 70
0
 71
3
 72
11
 73
7
 74
0
 42
0.0000001
 43
0.0000001
 44
0.0000000001
 40
0.0
 40
0.0
 40
0.0
 40
0.0
 40
0.2717741281
 40
0.5268782238
 40
0.7676401145
 40
1.0
 40
1.0
 40
1.0
 40
1.0
 10
8.8568605108
 20
234.959657214
 30
0.0
 10
8.8568605108
 20
235.1750050936
 30
0.0
 10
8.8149831025
 20
235.5942665207
 30
0.0
 10
8.6144674056
 20
236.1750421151
 30
0.0
 10
8.2858368694
 20
236.6582355523
 30
0.0
 10
7.9884664174
 20
236.8974561278
 30
0.0
 10
7.829022272
 20
236.9895245565
 30
0.0
  0
SPLINE
  5
29E
100
AcDbEntity
  8
0
100
AcDbSpline
 62
7
  6
CONTINUOUS
 70
0
 71
3
 72
15
 73
11
 74
0
 42
0.0000001
 43
0.0000001
 44
0.0000000001
 40
0.0
 40
0.0
 40
0.0
 40
0.0
 40
0.1383951981
 40
0.2695587326
 40
0.3940347268
 40
0.5135537928
 40
0.6308546392
 40
0.7491689886
 40
0.8715002297
 40
1.0
 40
1.0
 40
1.0
 40
1.0
 10
10.331212776
 20
220.9080650129
 30
0.0
 10
10.3312127755
 20
220.5535029936
 30
0.0
 10
10.3906223641
 20
219.8608486346
 30
0.0
 10
10.6719651447
 20
218.8841701053
 30
0.0
 10
11.1353990596
 20
218.0324112274
 30
0.0
 10
11.7657672569
 20
217.3414000723
 30
0.0
 10
12.5387419911
 20
216.8421220086
 30
0.0
 10
13.4209773665
 20
216.5569388062
 30
0.0
 10
14.3734291536
 20
216.4958176152
 30
0.0
 10
15.0132285751
 20
216.6011306066
 30
0.0
 10
15.331212948
 20
216.6863680611
 30
0.0
  0
SPLINE
  5
29F
100
AcDbEntity
  8
0
100
AcDbSpline
 62
7
  6
CONTINUOUS
 70
0
 71
3
 72
14
 73
10
 74
0
 42
0.0000001
 43
0.0000001
 44
0.0000000001
 40
0.0
 40
0.0
 40
0.0
 40
0.0
 40
0.2552909996
 40
0.3883996519
 40
0.5210163367
 40
0.6503134264
 40
0.7739539084
 40
0.8905365446
 40
1.0
 40
1.0
 40
1.0
 40
1.0
 10
23.4913422401
 20
238.8825102777
 30
0.0
 10
23.4913422401
 20
238.0495623052
 30
0.0
 10
23.2193591546
 20
236.7716910538
 30
0.0
 10
22.4524635419
 20
235.2496572194
 30
0.0
 10
21.6797275059
 20
234.2089566338
 30
0.0
 10
20.7576631356
 20
233.3431917104
 30
0.0
 10
19.730981356
 20
232.6954008871
 30
0.0
 10
18.6508879011
 20
232.300409366
 30
0.0
 10
17.9078599421
 20
232.2199420098
 30
0.0
 10
17.5509012692
 20
232.231652671
 30
0.0
  0
SPLINE
  5
2A0
100
AcDbEntity
  8
0
100
AcDbSpline
 62
7
  6
CONTINUOUS
 70
0
 71
3
 72
11
 73
7
 74
0
 42
0.0000001
 43
0.0000001
 44
0.0000000001
 40
0.0
 40
0.0
 40
0.0
 40
0.0
 40
0.2717741281
 40
0.5268782238
 40
0.7676401145
 40
1.0
 40
1.0
 40
1.0
 40
1.0
 10
21.3820217403
 20
238.317095353
 30
0.0
 10
21.3820217403
 20
238.5324432326
 30
0.0
 10
21.3401443319
 20
238.9517046597
 30
0.0
 10
21.1396286351
 20
239.5324802541
 30
0.0
 10
20.8109980989
 20
240.0156736914
 30
0.0
 10
20.5136276469
 20
240.2548942668
 30
0.0
 10
20.3541835015
 20
240.3469626955
 30
0.0
  0
SPLINE
  5
2A1
100
AcDbEntity
  8
0
100
AcDbSpline
 62
7
  6
CONTINUOUS
 70
0
 71
3
 72
14
 73
10
 74
0
 42
0.0000001
 43
0.0000001
 44
0.0000000001
 40
0.0
 40
0.0
 40
0.0
 40
0.0
 40
0.2346073929
 40
0.3603379301
 40
0.4894684284
 40
0.6200482101
 40
0.7499714674
 40
0.8772023527
 40
1.0
 40
1.0
 40
1.0
 40
1.0
 10
15.331212948
 20
216.6863680611
 30
0.0
 10
16.0170716411
 20
216.8702162441
 30
0.0
 10
17.016666082
 20
217.3811416388
 30
0.0
 10
18.1371493042
 20
218.3543962192
 30
0.0
 10
18.8933282325
 20
219.2495673692
 30
0.0
 10
19.5136405769
 20
220.2573730856
 30
0.0
 10
19.9761250185
 20
221.3408465082
 30
0.0
 10
20.2630161451
 20
222.4589860876
 30
0.0
 10
20.3312131198
 20
223.2169557027
 30
0.0
 10
20.33121312
 20
223.5886199319
 30
0.0
  0
SPLINE
  5
2A2
100
AcDbEntity
  8
0
100
AcDbSpline
 62
7
  6
CONTINUOUS
 70
0
 71
3
 72
15
 73
11
 74
0
 42
0.0000001
 43
0.0000001
 44
0.0000000001
 40
0.0
 40
0.0
 40
0.0
 40
0.0
 40
0.0524622549
 40
0.1056452393
 40
0.2162149894
 40
0.3353287824
 40
0.4632716504
 40
0.5978590347
 40
0.735324951
 40
1.0
 40
1.0
 40
1.0
 40
1.0
 10
18.7448327122
 20
231.0580035749
 30
0.0
 10
18.9184981668
 20
230.957681214
 30
0.0
 10
19.2877733858
 20
230.7875510632
 30
0.0
 10
20.0920749556
 20
230.5811645622
 30
0.0
 10
21.1949529295
 20
230.5964457424
 30
0.0
 10
22.5096915257
 20
231.0301515174
 30
0.0
 10
23.7451117019
 20
231.8322214628
 30
0.0
 10
24.8157932715
 20
232.9426500896
 30
0.0
 10
25.9057494692
 20
234.6902453718
 30
0.0
 10
26.3064199372
 20
236.2447377104
 30
0.0
 10
26.3064199372
 20
237.2565736806
 30
0.0
  0
SPLINE
  5
2A3
100
AcDbEntity
  8
0
100
AcDbSpline
 62
7
  6
CONTINUOUS
 70
0
 71
3
 72
13
 73
9
 74
0
 42
0.0000001
 43
0.0000001
 44
0.0000000001
 40
0.0
 40
0.0
 40
0.0
 40
0.0
 40
0.2348069779
 40
0.3606340311
 40
0.4898728456
 40
0.6205624979
 40
0.75058487
 40
1.0
 40
1.0
 40
1.0
 40
1.0
 10
14.2051818645
 20
219.1754119256
 30
0.0
 10
14.6643212001
 20
219.2984867407
 30
0.0
 10
15.3334826525
 20
219.640479257
 30
0.0
 10
16.0835175067
 20
220.2920794926
 30
0.0
 10
16.5897270648
 20
220.8911868391
 30
0.0
 10
17.0050146641
 20
221.5662460783
 30
0.0
 10
17.4116796342
 20
222.5177445398
 30
0.0
 10
17.5522894226
 20
223.291005912
 30
0.0
 10
17.5522894223
 20
223.7959276419
 30
0.0
  0
SPLINE
  5
2A4
100
AcDbEntity
  8
0
100
AcDbSpline
 62
7
  6
CONTINUOUS
 70
0
 71
3
 72
11
 73
7
 74
0
 42
0.0000001
 43
0.0000001
 44
0.0000000001
 40
0.0
 40
0.0
 40
0.0
 40
0.0
 40
0.2717668072
 40
0.5268680781
 40
0.7676307415
 40
1.0
 40
1.0
 40
1.0
 40
1.0
 10
17.5522894223
 20
223.7959276419
 30
0.0
 10
17.5522894222
 20
224.0727963835
 30
0.0
 10
17.4984507804
 20
224.611836859
 30
0.0
 10
17.2406551218
 20
225.3585430759
 30
0.0
 10
16.8181342307
 20
225.9798025674
 30
0.0
 10
16.4357978668
 20
226.2873900527
 30
0.0
 10
16.2307863533
 20
226.4057628442
 30
0.0
  0
SPLINE
  5
2A5
100
AcDbEntity
  8
0
100
AcDbSpline
 62
7
  6
CONTINUOUS
 70
0
 71
3
 72
15
 73
11
 74
0
 42
0.0000001
 43
0.0000001
 44
0.0000000001
 40
0.0
 40
0.0
 40
0.0
 40
0.0
 40
0.1383951981
 40
0.2695587326
 40
0.3940347268
 40
0.5135537928
 40
0.6308546392
 40
0.7491689886
 40
0.8715002297
 40
1.0
 40
1.0
 40
1.0
 40
1.0
 10
20.33121312
 20
223.5886199319
 30
0.0
 10
20.3312131203
 20
223.9431819512
 30
0.0
 10
20.271803532
 20
224.6358363102
 30
0.0
 10
19.9904607513
 20
225.6125148395
 30
0.0
 10
19.5270268364
 20
226.4642737173
 30
0.0
 10
18.8966586391
 20
227.1552848724
 30
0.0
 10
18.1236839049
 20
227.6545629361
 30
0.0
 10
17.2414485295
 20
227.9397461385
 30
0.0
 10
16.2889967425
 20
228.0008673295
 30
0.0
 10
15.6491973209
 20
227.8955543382
 30
0.0
 10
15.331212948
 20
227.8103168836
 30
0.0
  0
SPLINE
  5
2A6
100
AcDbEntity
  8
0
100
AcDbSpline
 62
7
  6
CONTINUOUS
 70
0
 71
3
 72
11
 73
7
 74
0
 42
0.0000001
 43
0.0000001
 44
0.0000000001
 40
0.0
 40
0.0
 40
0.0
 40
0.0
 40
0.2474425102
 40
0.505648224
 40
0.7607489892
 40
1.0
 40
1.0
 40
1.0
 40
1.0
 10
13.8926884161
 20
225.9096452181
 30
0.0
 10
13.8926884161
 20
225.4414759332
 30
0.0
 10
13.7307645252
 20
224.4809255822
 30
0.0
 10
13.0994658167
 20
223.1685400832
 30
0.0
 10
12.151087721
 20
222.0832497922
 30
0.0
 10
11.340669792
 20
221.5782538738
 30
0.0
 10
10.9193766498
 20
221.4126554067
 30
0.0
  0
SPLINE
  5
2A7
100
AcDbEntity
  8
0
100
AcDbSpline
 62
7
  6
CONTINUOUS
 70
0
 71
3
 72
9
 73
5
 74
0
 42
0.0000001
 43
0.0000001
 44
0.0000000001
 40
0.0
 40
0.0
 40
0.0
 40
0.0
 40
0.4816467583
 40
1.0
 40
1.0
 40
1.0
 40
1.0
 10
22.8355163864
 20
241.3738008797
 30
0.0
 10
23.0554938267
 20
241.0188507603
 30
0.0
 10
23.3915736919
 20
240.2034783076
 30
0.0
 10
23.4913422401
 20
239.3319227203
 30
0.0
 10
23.4913422401
 20
238.8825102777
 30
0.0
  0
SPLINE
  5
2A8
100
AcDbEntity
  8
0
100
AcDbSpline
 62
7
  6
CONTINUOUS
 70
0
 71
3
 72
14
 73
10
 74
0
 42
0.0000001
 43
0.0000001
 44
0.0000000001
 40
0.0
 40
0.0
 40
0.0
 40
0.0
 40
0.105261025
 40
0.2158781366
 40
0.3350441295
 40
0.4630415132
 40
0.5976839205
 40
0.7352112512
 40
1.0
 40
1.0
 40
1.0
 40
1.0
 10
4.6780870003
 20
231.534129046
 30
0.0
 10
4.8705860176
 20
231.4229736191
 30
0.0
 10
5.3120014142
 20
231.2681862538
 30
0.0
 10
6.0316485891
 20
231.2793319929
 30
0.0
 10
6.7587934578
 20
231.518671267
 30
0.0
 10
7.4413621729
 20
231.9619990168
 30
0.0
 10
8.0330943186
 20
232.5756377828
 30
0.0
 10
8.6353995052
 20
233.5414317568
 30
0.0
 10
8.8568605108
 20
234.4004850869
 30
0.0
 10
8.8568605108
 20
234.959657214
 30
0.0
  0
SPLINE
  5
2A9
100
AcDbEntity
  8
0
100
AcDbSpline
 62
7
  6
CONTINUOUS
 70
0
 71
3
 72
14
 73
10
 74
0
 42
0.0000001
 43
0.0000001
 44
0.0000000001
 40
0.0
 40
0.0
 40
0.0
 40
0.0
 40
0.2346073929
 40
0.3603379301
 40
0.4894684284
 40
0.6200482101
 40
0.7499714674
 40
0.8772023527
 40
1.0
 40
1.0
 40
1.0
 40
1.0
 10
15.331212948
 20
227.8103168836
 30
0.0
 10
14.645354255
 20
227.6264687006
 30
0.0
 10
13.645759814
 20
227.1155433059
 30
0.0
 10
12.5252765918
 20
226.1422887256
 30
0.0
 10
11.7690976636
 20
225.2471175756
 30
0.0
 10
11.1487853191
 20
224.2393118591
 30
0.0
 10
10.6863008776
 20
223.1558384365
 30
0.0
 10
10.3994097508
 20
222.0376988572
 30
0.0
 10
10.3312127764
 20
221.279729242
 30
0.0
 10
10.331212776
 20
220.9080650129
 30
0.0
  0
SPLINE
  5
2AA
100
AcDbEntity
  8
0
100
AcDbSpline
 62
7
  6
CONTINUOUS
 70
0
 71
3
 72
20
 73
16
 74
0
 42
0.0000001
 43
0.0000001
 44
0.0000000001
 40
0.0
 40
0.0
 40
0.0
 40
0.0
 40
0.0524894976
 40
0.1058803543
 40
0.1609468326
 40
0.2182428661
 40
0.3400791524
 40
0.4047884693
 40
0.4714423007
 40
0.6080592299
 40
0.7449194086
 40
0.8118584184
 40
0.8769392961
 40
0.9397345156
 40
1.0
 40
1.0
 40
1.0
 40
1.0
 10
6.5786320873
 20
215.1386723091
 30
0.0
 10
5.9802676069
 20
215.4843120504
 30
0.0
 10
4.8420436575
 20
216.3087784347
 30
0.0
 10
3.4029554494
 20
217.8818395602
 30
0.0
 10
2.2584369215
 20
219.7550303572
 30
0.0
 10
1.1387695767
 20
222.6420098928
 30
0.0
 10
0.7466950219
 20
225.8870451602
 30
0.0
 10
1.0235927775
 20
229.214679147
 30
0.0
 10
1.7683894033
 20
232.6726183807
 30
0.0
 10
3.5176293828
 20
236.8432809347
 30
0.0
 10
6.1848141329
 20
240.5007196314
 30
0.0
 10
8.7628921216
 20
242.937949489
 30
0.0
 10
10.8430197676
 20
244.4516101885
 30
0.0
 10
13.0325598984
 20
245.6260197303
 30
0.0
 10
14.5648786051
 20
246.1753846996
 30
0.0
 10
15.331212948
 20
246.3808048218
 30
0.0
  0
SPLINE
  5
2AB
100
AcDbEntity
  8
0
100
AcDbSpline
 62
7
  6
CONTINUOUS
 70
0
 71
3
 72
15
 73
11
 74
0
 42
0.0000001
 43
0.0000001
 44
0.0000000001
 40
0.0
 40
0.0
 40
0.0
 40
0.0
 40
0.0524622549
 40
0.1056452393
 40
0.2162149894
 40
0.3353287824
 40
0.4632716504
 40
0.5978590347
 40
0.735324951
 40
1.0
 40
1.0
 40
1.0
 40
1.0
 10
6.2159066613
 20
227.6995562549
 30
0.0
 10
6.3895721159
 20
227.599233894
 30
0.0
 10
6.7588473349
 20
227.4291037432
 30
0.0
 10
7.5631489047
 20
227.2227172422
 30
0.0
 10
8.6660268786
 20
227.2379984223
 30
0.0
 10
9.9807654748
 20
227.6717041974
 30
0.0
 10
11.216185651
 20
228.4737741428
 30
0.0
 10
12.2868672206
 20
229.5842027695
 30
0.0
 10
13.3768234183
 20
231.3317980518
 30
0.0
 10
13.7774938863
 20
232.8862903904
 30
0.0
 10
13.7774938863
 20
233.8981263606
 30
0.0
  0
SPLINE
  5
2AC
100
AcDbEntity
  8
0
100
AcDbSpline
 62
7
  6
CONTINUOUS
 70
0
 71
3
 72
9
 73
5
 74
0
 42
0.0000001
 43
0.0000001
 44
0.0000000001
 40
0.0
 40
0.0
 40
0.0
 40
0.0
 40
0.4816467583
 40
1.0
 40
1.0
 40
1.0
 40
1.0
 10
10.3065903355
 20
238.0153535596
 30
0.0
 10
10.5265677758
 20
237.6604034403
 30
0.0
 10
10.862647641
 20
236.8450309876
 30
0.0
 10
10.9624161892
 20
235.9734754003
 30
0.0
 10
10.9624161892
 20
235.5240629577
 30
0.0
  0
SPLINE
  5
2AD
100
AcDbEntity
  8
0
100
AcDbSpline
 62
7
  6
CONTINUOUS
 70
0
 71
3
 72
11
 73
7
 74
0
 42
0.0000001
 43
0.0000001
 44
0.0000000001
 40
0.0
 40
0.0
 40
0.0
 40
0.0
 40
0.2634075328
 40
0.515933487
 40
0.7602044579
 40
1.0
 40
1.0
 40
1.0
 40
1.0
 10
15.331212948
 20
246.3808048218
 30
0.0
 10
16.0963439795
 20
246.5859023898
 30
0.0
 10
17.6321404532
 20
246.8649073988
 30
0.0
 10
19.9320681457
 20
246.853633454
 30
0.0
 10
22.115842914
 20
246.4007526407
 30
0.0
 10
23.4593512674
 20
245.8070718642
 30
0.0
 10
24.0837938087
 20
245.4463683707
 30
0.0
  0
SPLINE
  5
2AE
100
AcDbEntity
  8
0
100
AcDbSpline
 62
7
  6
CONTINUOUS
 70
0
 71
3
 72
9
 73
5
 74
0
 42
0.0000001
 43
0.0000001
 44
0.0000000001
 40
0.0
 40
0.0
 40
0.0
 40
0.0
 40
0.51502308
 40
1.0
 40
1.0
 40
1.0
 40
1.0
 10
17.5999336124
 20
298.7319014748
 30
0.0
 10
17.459825648
 20
298.774928718
 30
0.0
 10
17.1764035743
 20
298.8275242493
 30
0.0
 10
16.8885111581
 20
298.7969080055
 30
0.0
 10
16.7552042514
 20
298.76116561
 30
0.0
  0
SPLINE
  5
2AF
100
AcDbEntity
  8
0
100
AcDbSpline
 62
7
  6
CONTINUOUS
 70
0
 71
3
 72
9
 73
5
 74
0
 42
0.0000001
 43
0.0000001
 44
0.0000000001
 40
0.0
 40
0.0
 40
0.0
 40
0.0
 40
0.5164283701
 40
1.0
 40
1.0
 40
1.0
 40
1.0
 10
36.5966654757
 20
269.8787181105
 30
0.0
 10
38.5378652809
 20
270.0634665047
 30
0.0
 10
42.285362133
 20
270.5569364663
 30
0.0
 10
45.9822836242
 20
271.3528379831
 30
0.0
 10
47.7459287805
 20
271.8255927367
 30
0.0
  0
SPLINE
  5
2B0
100
AcDbEntity
  8
0
100
AcDbSpline
 62
7
  6
CONTINUOUS
 70
0
 71
3
 72
10
 73
6
 74
0
 42
0.0000001
 43
0.0000001
 44
0.0000000001
 40
0.0
 40
0.0
 40
0.0
 40
0.0
 40
0.5324760137
 40
0.7749009491
 40
1.0
 40
1.0
 40
1.0
 40
1.0
 10
47.7459287805
 20
271.8255927367
 30
0.0
 10
49.3465498184
 20
272.2546479816
 30
0.0
 10
51.6518006997
 20
272.984614365
 30
0.0
 10
54.5206677678
 20
274.194998839
 30
0.0
 10
55.8202923929
 20
274.852993668
 30
0.0
 10
56.4313769019
 20
275.1955212556
 30
0.0
  0
SPLINE
  5
2B1
100
AcDbEntity
  8
0
100
AcDbSpline
 62
7
  6
CONTINUOUS
 70
0
 71
3
 72
11
 73
7
 74
0
 42
0.0000001
 43
0.0000001
 44
0.0000000001
 40
0.0
 40
0.0
 40
0.0
 40
0.0
 40
0.3013163286
 40
0.5641174217
 40
0.7925828777
 40
1.0
 40
1.0
 40
1.0
 40
1.0
 10
-4.5093594337
 20
291.4144669757
 30
0.0
 10
-4.4594707114
 20
291.6713344429
 30
0.0
 10
-4.3300597743
 20
292.1468762531
 30
0.0
 10
-4.0166894978
 20
292.7665123306
 30
0.0
 10
-3.6012893028
 20
293.2219633765
 30
0.0
 10
-3.2534860485
 20
293.3977150603
 30
0.0
 10
-3.079507175
 20
293.4443624647
 30
0.0
  0
SPLINE
  5
2B2
100
AcDbEntity
  8
0
100
AcDbSpline
 62
7
  6
CONTINUOUS
 70
0
 71
3
 72
9
 73
5
 74
0
 42
0.0000001
 43
0.0000001
 44
0.0000000001
 40
0.0
 40
0.0
 40
0.0
 40
0.0
 40
0.2331758036
 40
1.0
 40
1.0
 40
1.0
 40
1.0
 10
4.4118092444
 20
269.0314813817
 30
0.0
 10
4.3409585352
 20
269.0724034355
 30
0.0
 10
4.0445626019
 20
269.2607875751
 30
0.0
 10
3.7782636957
 20
269.4941560756
 30
0.0
 10
3.5905227568
 20
269.6869081683
 30
0.0
  0
SPLINE
  5
2B3
100
AcDbEntity
  8
0
100
AcDbSpline
 62
7
  6
CONTINUOUS
 70
0
 71
3
 72
10
 73
6
 74
0
 42
0.0000001
 43
0.0000001
 44
0.0000000001
 40
0.0
 40
0.0
 40
0.0
 40
0.0
 40
0.2307854346
 40
0.4701208345
 40
1.0
 40
1.0
 40
1.0
 40
1.0
 10
5.8358246809
 20
268.7754310185
 30
0.0
 10
5.7258424396
 20
268.745921547
 30
0.0
 10
5.4938499762
 20
268.7120696822
 30
0.0
 10
4.9988426543
 20
268.7520378522
 30
0.0
 10
4.6382078375
 20
268.9007177589
 30
0.0
 10
4.4118092444
 20
269.0314813817
 30
0.0
  0
SPLINE
  5
2B4
100
AcDbEntity
  8
0
100
AcDbSpline
 62
7
  6
CONTINUOUS
 70
0
 71
3
 72
11
 73
7
 74
0
 42
0.0000001
 43
0.0000001
 44
0.0000000001
 40
0.0
 40
0.0
 40
0.0
 40
0.0
 40
0.2673933452
 40
0.5205848957
 40
0.7629052057
 40
1.0
 40
1.0
 40
1.0
 40
1.0
 10
4.4363162583
 20
290.6306597185
 30
0.0
 10
3.9371629587
 20
290.2955312929
 30
0.0
 10
2.9972599712
 20
289.5929340956
 30
0.0
 10
1.7618841687
 20
288.3947093761
 30
0.0
 10
0.7676829095
 20
287.0718621182
 30
0.0
 10
0.2909434981
 20
286.0948840053
 30
0.0
 10
0.1114628232
 20
285.5929109478
 30
0.0
  0
SPLINE
  5
2B5
100
AcDbEntity
  8
0
100
AcDbSpline
 62
7
  6
CONTINUOUS
 70
0
 71
3
 72
9
 73
5
 74
0
 42
0.0000001
 43
0.0000001
 44
0.0000000001
 40
0.0
 40
0.0
 40
0.0
 40
0.0
 40
0.2584141298
 40
1.0
 40
1.0
 40
1.0
 40
1.0
 10
20.2237751341
 20
295.6736613007
 30
0.0
 10
19.6484800271
 20
295.601017346
 30
0.0
 10
17.4264429291
 20
295.2884770042
 30
0.0
 10
15.221237144
 20
294.8488730204
 30
0.0
 10
13.6089604577
 20
294.4369455755
 30
0.0
  0
LINE
  5
2B6
100
AcDbEntity
  8
0
100
AcDbLine
 62
7
  6
CONTINUOUS
 10
13.6089604577
 20
294.4369455755
 11
13.5321060588
 21
294.4172389982
  0
SPLINE
  5
2B7
100
AcDbEntity
  8
0
100
AcDbSpline
 62
7
  6
CONTINUOUS
 70
0
 71
3
 72
9
 73
5
 74
0
 42
0.0000001
 43
0.0000001
 44
0.0000000001
 40
0.0
 40
0.0
 40
0.0
 40
0.0
 40
0.2582875563
 40
1.0
 40
1.0
 40
1.0
 40
1.0
 10
13.5321060588
 20
294.4172389982
 30
0.0
 10
13.1981883476
 20
294.3313097771
 30
0.0
 10
11.9092288083
 20
293.9840183874
 30
0.0
 10
10.6360422624
 20
293.5766832838
 30
0.0
 10
9.7068673283
 20
293.2346224727
 30
0.0
  0
SPLINE
  5
2B8
100
AcDbEntity
  8
0
100
AcDbSpline
 62
7
  6
CONTINUOUS
 70
0
 71
3
 72
20
 73
16
 74
0
 42
0.0000001
 43
0.0000001
 44
0.0000000001
 40
0.0
 40
0.0
 40
0.0
 40
0.0
 40
0.0326997285
 40
0.0674335765
 40
0.1058287067
 40
0.148951831
 40
0.1973686859
 40
0.251264036
 40
0.3105446103
 40
0.3749128583
 40
0.4439187355
 40
0.5169946089
 40
0.6726050234
 40
0.8357978843
 40
1.0
 40
1.0
 40
1.0
 40
1.0
 10
-1.3965893619
 20
276.9024370121
 30
0.0
 10
-1.3965890459
 20
276.466955209
 30
0.0
 10
-1.2664331358
 20
275.5646065442
 30
0.0
 10
-0.698248292
 20
274.2601452347
 30
0.0
 10
0.2231541232
 20
273.0032959351
 30
0.0
 10
1.4797936086
 20
271.8036960407
 30
0.0
 10
3.0558906394
 20
270.6695804581
 30
0.0
 10
4.9338763467
 20
269.6114718853
 30
0.0
 10
7.0927157413
 20
268.6405279138
 30
0.0
 10
9.5076408194
 20
267.767809081
 30
0.0
 10
12.1505116434
 20
267.0035134984
 30
0.0
 10
16.0179023758
 20
266.1232348873
 30
0.0
 10
21.1911997663
 20
265.3686709694
 30
0.0
 10
27.6208918595
 20
265.0116110494
 30
0.0
 10
31.9856384401
 20
265.1409369402
 30
0.0
 10
34.166412688
 20
265.3028625893
 30
0.0
  0
SPLINE
  5
2B9
100
AcDbEntity
  8
0
100
AcDbSpline
 62
7
  6
CONTINUOUS
 70
0
 71
3
 72
18
 73
14
 74
0
 42
0.0000001
 43
0.0000001
 44
0.0000000001
 40
0.0
 40
0.0
 40
0.0
 40
0.0
 40
0.0439316761
 40
0.0887643283
 40
0.1354964876
 40
0.1847458625
 40
0.2371055802
 40
0.2929043163
 40
0.4150191033
 40
0.5501463641
 40
0.6954196239
 40
0.8468745861
 40
1.0
 40
1.0
 40
1.0
 40
1.0
 10
57.0953330341
 20
285.5929249952
 30
0.0
 10
56.9210139583
 20
286.0804588859
 30
0.0
 10
56.4617025358
 20
287.0297492709
 30
0.0
 10
55.5078905391
 20
288.319249833
 30
0.0
 10
54.3251399634
 20
289.4911813506
 30
0.0
 10
52.9346547286
 20
290.55713084
 30
0.0
 10
51.3505807152
 20
291.528029976
 30
0.0
 10
48.9198865216
 20
292.7412009637
 30
0.0
 10
45.443333095
 20
294.0104092011
 30
0.0
 10
40.8277908483
 20
295.1364984407
 30
0.0
 10
35.7867974528
 20
295.8847709031
 30
0.0
 10
30.4913741289
 20
296.2340122898
 30
0.0
 10
26.8976587753
 20
296.1929904115
 30
0.0
 10
25.0953089814
 20
296.1014241651
 30
0.0
  0
SPLINE
  5
2BA
100
AcDbEntity
  8
0
100
AcDbSpline
 62
7
  6
CONTINUOUS
 70
0
 71
3
 72
21
 73
17
 74
0
 42
0.0000001
 43
0.0000001
 44
0.0000000001
 40
0.0
 40
0.0
 40
0.0
 40
0.0
 40
0.1742372263
 40
0.3393381179
 40
0.4172560353
 40
0.4914987498
 40
0.5616979317
 40
0.6275482686
 40
0.6888249489
 40
0.7454024684
 40
0.797279633
 40
0.8446175115
 40
0.8877829005
 40
0.9274027072
 40
0.9644030126
 40
1.0
 40
1.0
 40
1.0
 40
1.0
 10
34.166412688
 20
265.3028625893
 30
0.0
 10
35.8360689288
 20
265.4268369855
 30
0.0
 10
39.0807797464
 20
265.7796366043
 30
0.0
 10
43.0276980768
 20
266.5111077829
 30
0.0
 10
45.9831378914
 20
267.2627902761
 30
0.0
 10
48.0274488913
 20
267.8872572053
 30
0.0
 10
49.9273419687
 20
268.5785193526
 30
0.0
 10
51.6688879607
 20
269.3315371587
 30
0.0
 10
53.2394324215
 20
270.1407923704
 30
0.0
 10
54.6276517047
 20
271.0006163352
 30
0.0
 10
55.8236841007
 20
271.9051681305
 30
0.0
 10
56.8189567858
 20
272.848834554
 30
0.0
 10
57.6058597006
 20
273.826256828
 30
0.0
 10
58.1771280668
 20
274.8324326903
 30
0.0
 10
58.5248624374
 20
275.860566875
 30
0.0
 10
58.6034032364
 20
276.5603842676
 30
0.0
 10
58.6033922448
 20
276.9024371593
 30
0.0
  0
SPLINE
  5
2BB
100
AcDbEntity
  8
0
100
AcDbSpline
 62
7
  6
CONTINUOUS
 70
0
 71
3
 72
9
 73
5
 74
0
 42
0.0000001
 43
0.0000001
 44
0.0000000001
 40
0.0
 40
0.0
 40
0.0
 40
0.0
 40
0.4835714652
 40
1.0
 40
1.0
 40
1.0
 40
1.0
 10
47.7459287805
 20
273.6356597723
 30
0.0
 10
45.9822841945
 20
273.1629051715
 30
0.0
 10
42.2853635742
 20
272.3669989683
 30
0.0
 10
38.5378659333
 20
271.8735336024
 30
0.0
 10
36.5966654757
 20
271.6887851461
 30
0.0
  0
SPLINE
  5
2BC
100
AcDbEntity
  8
0
100
AcDbSpline
 62
7
  6
CONTINUOUS
 70
0
 71
3
 72
9
 73
5
 74
0
 42
0.0000001
 43
0.0000001
 44
0.0000000001
 40
0.0
 40
0.0
 40
0.0
 40
0.0
 40
0.4849768742
 40
1.0
 40
1.0
 40
1.0
 40
1.0
 10
-3.079507175
 20
293.4443624647
 30
0.0
 10
-2.9462002788
 20
293.4801048544
 30
0.0
 10
-2.658307865
 20
293.5107211631
 30
0.0
 10
-2.374885792
 20
293.458125577
 30
0.0
 10
-2.2347778139
 20
293.4150983296
 30
0.0
  0
SPLINE
  5
2BD
100
AcDbEntity
  8
0
100
AcDbSpline
 62
7
  6
CONTINUOUS
 70
0
 71
3
 72
9
 73
5
 74
0
 42
0.0000001
 43
0.0000001
 44
0.0000000001
 40
0.0
 40
0.0
 40
0.0
 40
0.0
 40
0.5137766731
 40
1.0
 40
1.0
 40
1.0
 40
1.0
 10
20.0483934525
 20
295.5329655505
 30
0.0
 10
18.92868809
 20
295.3838713746
 30
0.0
 10
16.7570421966
 20
295.0314781546
 30
0.0
 10
14.6116890523
 20
294.5416303438
 30
0.0
 10
13.579132766
 20
294.2648479701
 30
0.0
  0
SPLINE
  5
2BE
100
AcDbEntity
  8
0
100
AcDbSpline
 62
7
  6
CONTINUOUS
 70
0
 71
3
 72
9
 73
5
 74
0
 42
0.0000001
 43
0.0000001
 44
0.0000000001
 40
0.0
 40
0.0
 40
0.0
 40
0.0
 40
0.4764924918
 40
1.0
 40
1.0
 40
1.0
 40
1.0
 10
6.0687805882
 20
291.2111962655
 30
0.0
 10
6.6241636238
 20
291.5557276477
 30
0.0
 10
7.8313405514
 20
292.2124545716
 30
0.0
 10
9.0908803271
 20
292.7594251733
 30
0.0
 10
9.759311106
 20
293.021731046
 30
0.0
  0
SPLINE
  5
2BF
100
AcDbEntity
  8
0
100
AcDbSpline
 62
7
  6
CONTINUOUS
 70
0
 71
3
 72
9
 73
5
 74
0
 42
0.0000001
 43
0.0000001
 44
0.0000000001
 40
0.0
 40
0.0
 40
0.0
 40
0.0
 40
0.2388608528
 40
1.0
 40
1.0
 40
1.0
 40
1.0
 10
9.759311106
 20
293.021731046
 30
0.0
 10
10.0571322507
 20
293.1386021383
 30
0.0
 10
11.3118346415
 20
293.6077835386
 30
0.0
 10
12.5944222475
 20
294.0008909168
 30
0.0
 10
13.579132766
 20
294.2648479701
 30
0.0
  0
SPLINE
  5
2C0
100
AcDbEntity
  8
0
100
AcDbSpline
 62
7
  6
CONTINUOUS
 70
0
 71
3
 72
24
 73
20
 74
0
 42
0.0000001
 43
0.0000001
 44
0.0000000001
 40
0.0
 40
0.0
 40
0.0
 40
0.0
 40
0.1817587022
 40
0.2711097483
 40
0.3575221634
 40
0.4396654913
 40
0.5163464319
 40
0.5865599191
 40
0.6495635142
 40
0.70498243
 40
0.7529759991
 40
0.7944969889
 40
0.8134832335
 40
0.8317287681
 40
0.8496680459
 40
0.8677633132
 40
0.906045796
 40
0.9495734924
 40
1.0
 40
1.0
 40
1.0
 40
1.0
 10
32.1055291998
 20
275.1778634076
 30
0.0
 10
29.6607612865
 20
275.0505165113
 30
0.0
 10
25.9996342886
 20
275.0590663696
 30
0.0
 10
21.1996382219
 20
275.4648626594
 30
0.0
 10
17.7587262727
 20
275.9571069752
 30
0.0
 10
14.5223257558
 20
276.62905724
 30
0.0
 10
11.5506334748
 20
277.4678842712
 30
0.0
 10
8.8984642385
 20
278.4577873236
 30
0.0
 10
6.6135799477
 20
279.5805085852
 30
0.0
 10
4.7354008568
 20
280.8180674456
 30
0.0
 10
3.2955773896
 20
282.1521443984
 30
0.0
 10
2.4612128424
 20
283.3749791912
 30
0.0
 10
2.0768744817
 20
284.3681480616
 30
0.0
 10
1.9252713006
 20
285.0993263845
 30
0.0
 10
1.9039383616
 20
285.8339611781
 30
0.0
 10
2.0514586862
 20
286.8288537832
 30
0.0
 10
2.5946498254
 20
288.0862586415
 30
0.0
 10
3.7284498066
 20
289.4794282095
 30
0.0
 10
4.7126321645
 20
290.286540218
 30
0.0
 10
5.2665602555
 20
290.6795534233
 30
0.0
  0
SPLINE
  5
2C1
100
AcDbEntity
  8
0
100
AcDbSpline
 62
7
  6
CONTINUOUS
 70
0
 71
3
 72
25
 73
21
 74
0
 42
0.0000001
 43
0.0000001
 44
0.0000000001
 40
0.0
 40
0.0
 40
0.0
 40
0.0
 40
0.1517751763
 40
0.2979273542
 40
0.4380273881
 40
0.5056408262
 40
0.5715112648
 40
0.6975166434
 40
0.8145352161
 40
0.8420691901
 40
0.8687568657
 40
0.8944660939
 40
0.9190003612
 40
0.9420455431
 40
0.952857663
 40
0.9630664484
 40
0.9725343091
 40
0.9811204719
 40
0.9890671666
 40
1.0
 40
1.0
 40
1.0
 40
1.0
 10
9.7067642128
 20
293.2346137129
 30
0.0
 10
9.5030923337
 20
293.1596441386
 30
0.0
 10
9.104902184
 20
293.0080521659
 30
0.0
 10
8.5252305501
 20
292.7705864449
 30
0.0
 10
8.0625343025
 20
292.5655229981
 30
0.0
 10
7.7089748354
 20
292.3980202371
 30
0.0
 10
7.3766074749
 20
292.2329991228
 30
0.0
 10
6.9869969528
 20
292.0246525269
 30
0.0
 10
6.6555703883
 20
291.8243481681
 30
0.0
 10
6.4532686894
 20
291.6863462076
 30
0.0
 10
6.3605853159
 20
291.6194342366
 30
0.0
 10
6.273512785
 20
291.5521571654
 30
0.0
 10
6.1933805269
 20
291.484566436
 30
0.0
 10
6.1327966801
 20
291.4269657606
 30
0.0
 10
6.0905355925
 20
291.3801732567
 30
0.0
 10
6.0636008113
 20
291.345847455
 30
0.0
 10
6.0421710569
 20
291.3113710978
 30
0.0
 10
6.028008449
 20
291.276944295
 30
0.0
 10
6.0280775035
 20
291.2345380085
 30
0.0
 10
6.0540878567
 20
291.2165374562
 30
0.0
 10
6.0687805881
 20
291.2111962656
 30
0.0
  0
SPLINE
  5
2C2
100
AcDbEntity
  8
0
100
AcDbSpline
 62
7
  6
CONTINUOUS
 70
0
 71
3
 72
20
 73
16
 74
0
 42
0.0000001
 43
0.0000001
 44
0.0000000001
 40
0.0
 40
0.0
 40
0.0
 40
0.0
 40
0.2513793039
 40
0.3777814717
 40
0.5045725222
 40
0.6316435323
 40
0.695222469
 40
0.7587626064
 40
0.8221521875
 40
0.8851209715
 40
0.9162290698
 40
0.9467512998
 40
0.9758463973
 40
0.9890490714
 40
1.0
 40
1.0
 40
1.0
 40
1.0
 10
20.2237775759
 20
295.6736645526
 30
0.0
 10
20.5015074776
 20
295.7087382305
 30
0.0
 10
20.9193430021
 20
295.7579808774
 30
0.0
 10
21.4782780662
 20
295.8156238645
 30
0.0
 10
21.8999695795
 20
295.8544103077
 30
0.0
 10
22.2523937413
 20
295.8821846175
 30
0.0
 10
22.5348512754
 20
295.9007917622
 30
0.0
 10
22.7466820238
 20
295.9125194616
 30
0.0
 10
22.957976668
 20
295.9213574129
 30
0.0
 10
23.1332995765
 20
295.925377945
 30
0.0
 10
23.2720753045
 20
295.925181299
 30
0.0
 10
23.3730468151
 20
295.9224631231
 30
0.0
 10
23.4541105826
 20
295.9171364688
 30
0.0
 10
23.5127095214
 20
295.9085369308
 30
0.0
 10
23.5390961442
 20
295.9021126055
 30
0.0
 10
23.5502588599
 20
295.8972023617
 30
0.0
  0
SPLINE
  5
2C3
100
AcDbEntity
  8
0
100
AcDbSpline
 62
7
  6
CONTINUOUS
 70
0
 71
3
 72
11
 73
7
 74
0
 42
0.0000001
 43
0.0000001
 44
0.0000000001
 40
0.0
 40
0.0
 40
0.0
 40
0.0
 40
0.2113478796
 40
0.4543318782
 40
0.7218890289
 40
1.0
 40
1.0
 40
1.0
 40
1.0
 10
32.1055291994
 20
275.1778634066
 30
0.0
 10
32.2587673218
 20
275.0632492944
 30
0.0
 10
32.5547812609
 20
274.7716450696
 30
0.0
 10
32.9247148548
 20
274.2291366779
 30
0.0
 10
33.2257615575
 20
273.578355452
 30
0.0
 10
33.36114974
 20
273.1005556786
 30
0.0
 10
33.4092656715
 20
272.8533875283
 30
0.0
  0
SPLINE
  5
2C4
100
AcDbEntity
  8
0
100
AcDbSpline
 62
7
  6
CONTINUOUS
 70
0
 71
3
 72
14
 73
10
 74
0
 42
0.0000001
 43
0.0000001
 44
0.0000000001
 40
0.0
 40
0.0
 40
0.0
 40
0.0
 40
0.1105577881
 40
0.2183733413
 40
0.3274175716
 40
0.4414952502
 40
0.5638052215
 40
0.6967519988
 40
1.0
 40
1.0
 40
1.0
 40
1.0
 10
0.111429658
 20
285.5927753726
 30
0.0
 10
0.0037852991
 20
285.2917534261
 30
0.0
 10
-0.1538378985
 20
284.6751662548
 30
0.0
 10
-0.1930022761
 20
283.7223272063
 30
0.0
 10
-0.0287061189
 20
282.7725339699
 30
0.0
 10
0.335456615
 20
281.8361362057
 30
0.0
 10
0.8933163408
 20
280.9198217913
 30
0.0
 10
1.9329361159
 20
279.6780785351
 30
0.0
 10
2.9243563086
 20
278.877077527
 30
0.0
 10
3.6475445727
 20
278.3811873509
 30
0.0
  0
SPLINE
  5
2C5
100
AcDbEntity
  8
0
100
AcDbSpline
 62
7
  6
CONTINUOUS
 70
0
 71
3
 72
15
 73
11
 74
0
 42
0.0000001
 43
0.0000001
 44
0.0000000001
 40
0.0
 40
0.0
 40
0.0
 40
0.0
 40
0.0925007682
 40
0.197812795
 40
0.3147817556
 40
0.4416327231
 40
0.5761586611
 40
0.7158831624
 40
0.858089983
 40
1.0
 40
1.0
 40
1.0
 40
1.0
 10
3.6475445727
 20
278.3811873509
 30
0.0
 10
4.4287731041
 20
277.8454989649
 30
0.0
 10
6.1990684659
 20
276.844044537
 30
0.0
 10
9.1805303192
 20
275.6048388009
 30
0.0
 10
12.6030694772
 20
274.5546210715
 30
0.0
 10
16.389550025
 20
273.7174839198
 30
0.0
 10
20.4553120414
 20
273.1127577742
 30
0.0
 10
24.7077323147
 20
272.7549699581
 30
0.0
 10
29.0492817197
 20
272.6524813461
 30
0.0
 10
31.9589788829
 20
272.7567285661
 30
0.0
 10
33.408982292
 20
272.8533822794
 30
0.0
  0
SPLINE
  5
2C6
100
AcDbEntity
  8
0
100
AcDbSpline
 62
7
  6
CONTINUOUS
 70
0
 71
3
 72
14
 73
10
 74
0
 42
0.0000001
 43
0.0000001
 44
0.0000000001
 40
0.0
 40
0.0
 40
0.0
 40
0.0
 40
0.1550095029
 40
0.2977303517
 40
0.5507077359
 40
0.665727339
 40
0.776641373
 40
0.8868931258
 40
1.0
 40
1.0
 40
1.0
 40
1.0
 10
54.1723425745
 20
278.824077719
 30
0.0
 10
54.4976699615
 20
279.0721655185
 30
0.0
 10
55.1026880032
 20
279.5766105664
 30
0.0
 10
56.114652093
 20
280.6210539666
 30
0.0
 10
56.875714158
 20
281.7625456287
 30
0.0
 10
57.2812191572
 20
282.9666284821
 30
0.0
 10
57.4019487018
 20
283.8515019531
 30
0.0
 10
57.346440496
 20
284.7375486496
 30
0.0
 10
57.1958869658
 20
285.3116630647
 30
0.0
 10
57.0953885645
 20
285.5927695846
 30
0.0
  0
SPLINE
  5
2C7
100
AcDbEntity
  8
0
100
AcDbSpline
 62
7
  6
CONTINUOUS
 70
0
 71
3
 72
10
 73
6
 74
0
 42
0.0000001
 43
0.0000001
 44
0.0000000001
 40
0.0
 40
0.0
 40
0.0
 40
0.0
 40
0.5158945497
 40
0.7565045512
 40
1.0
 40
1.0
 40
1.0
 40
1.0
 10
5.2665602554
 20
290.6795534233
 30
0.0
 10
5.1291218348
 20
290.7355204214
 30
0.0
 10
4.9071519898
 20
290.7848677
 30
0.0
 10
4.6210956489
 20
290.7325076088
 30
0.0
 10
4.4944896385
 20
290.6696066717
 30
0.0
 10
4.4363499783
 20
290.6305480962
 30
0.0
  0
LINE
  5
2C8
100
AcDbEntity
  8
0
100
AcDbLine
 62
7
  6
CONTINUOUS
 10
24.665787734
 20
295.9722340729
 11
24.5826517368
 21
295.967301066
  0
SPLINE
  5
2C9
100
AcDbEntity
  8
0
100
AcDbSpline
 62
7
  6
CONTINUOUS
 70
0
 71
3
 72
24
 73
20
 74
0
 42
0.0000001
 43
0.0000001
 44
0.0000000001
 40
0.0
 40
0.0
 40
0.0
 40
0.0
 40
0.0504265076
 40
0.093954204
 40
0.1322366868
 40
0.1503319541
 40
0.1682712319
 40
0.1865167665
 40
0.2055030111
 40
0.2470240009
 40
0.29501757
 40
0.3504364858
 40
0.4134400809
 40
0.4836535681
 40
0.5603345087
 40
0.6424778366
 40
0.7288902517
 40
0.8182412978
 40
1.0
 40
1.0
 40
1.0
 40
1.0
 10
51.9402406245
 20
280.4946665526
 30
0.0
 10
52.4941687154
 20
280.8876797578
 30
0.0
 10
53.4783510733
 20
281.6947917663
 30
0.0
 10
54.6121510546
 20
283.0879613344
 30
0.0
 10
55.1553421937
 20
284.3453661926
 30
0.0
 10
55.3028625183
 20
285.3402587976
 30
0.0
 10
55.2815295794
 20
286.0748935913
 30
0.0
 10
55.1299263983
 20
286.8060719141
 30
0.0
 10
54.7455880377
 20
287.7992407845
 30
0.0
 10
53.9112234906
 20
289.0220755773
 30
0.0
 10
52.4714000235
 20
290.35615253
 30
0.0
 10
50.5932209327
 20
291.5937113904
 30
0.0
 10
48.3083366421
 20
292.716432652
 30
0.0
 10
45.6561674059
 20
293.7063357045
 30
0.0
 10
42.6844751251
 20
294.5451627357
 30
0.0
 10
39.4480746083
 20
295.2171130005
 30
0.0
 10
36.0071626592
 20
295.7093573164
 30
0.0
 10
31.2071665928
 20
296.1151536062
 30
0.0
 10
27.5460395949
 20
296.1237034647
 30
0.0
 10
25.1012716817
 20
295.9963565685
 30
0.0
  0
SPLINE
  5
2CA
100
AcDbEntity
  8
0
100
AcDbSpline
 62
7
  6
CONTINUOUS
 70
0
 71
3
 72
10
 73
6
 74
0
 42
0.0000001
 43
0.0000001
 44
0.0000000001
 40
0.0
 40
0.0
 40
0.0
 40
0.0
 40
0.2250988684
 40
0.4675236618
 40
1.0
 40
1.0
 40
1.0
 40
1.0
 10
56.4313769019
 20
277.0055882912
 30
0.0
 10
55.820292864
 20
276.6630609676
 30
0.0
 10
54.5206700994
 20
276.0050646877
 30
0.0
 10
51.651803566
 20
274.79467823
 30
0.0
 10
49.3465508574
 20
274.0647152957
 30
0.0
 10
47.7459287805
 20
273.6356597723
 30
0.0
  0
SPLINE
  5
2CB
100
AcDbEntity
  8
0
100
AcDbSpline
 62
7
  6
CONTINUOUS
 70
0
 71
3
 72
13
 73
9
 74
0
 42
0.0000001
 43
0.0000001
 44
0.0000000001
 40
0.0
 40
0.0
 40
0.0
 40
0.0
 40
0.1054216662
 40
0.2162098291
 40
0.3355589934
 40
0.4637550049
 40
0.7347840682
 40
1.0
 40
1.0
 40
1.0
 40
1.0
 10
-27.4326564068
 20
211.2045521474
 30
0.0
 10
-27.536547135
 20
211.2645264404
 30
0.0
 10
-27.7747557208
 20
211.3480794754
 30
0.0
 10
-28.1631096426
 20
211.3420686642
 30
0.0
 10
-28.5556072399
 20
211.2129185297
 30
0.0
 10
-29.054699161
 20
210.8883829816
 30
0.0
 10
-29.5305663031
 20
210.2711591676
 30
0.0
 10
-29.6878605225
 20
209.6576554392
 30
0.0
 10
-29.6878605225
 20
209.3558666264
 30
0.0
  0
SPLINE
  5
2CC
100
AcDbEntity
  8
0
100
AcDbSpline
 62
7
  6
CONTINUOUS
 70
0
 71
3
 72
10
 73
6
 74
0
 42
0.0000001
 43
0.0000001
 44
0.0000000001
 40
0.0
 40
0.0
 40
0.0
 40
0.0
 40
0.5148899604
 40
0.7596727888
 40
1.0
 40
1.0
 40
1.0
 40
1.0
 10
-28.2829017965
 20
198.240790848
 30
0.0
 10
-28.8372045229
 20
198.0922069631
 30
0.0
 10
-29.7054989809
 20
198.0050340462
 30
0.0
 10
-30.8026513484
 20
198.2335354656
 30
0.0
 10
-31.3019258337
 20
198.453901924
 30
0.0
 10
-31.5338645962
 20
198.5878865595
 30
0.0
  0
SPLINE
  5
2CD
100
AcDbEntity
  8
0
100
AcDbSpline
 62
7
  6
CONTINUOUS
 70
0
 71
3
 72
10
 73
6
 74
0
 42
0.0000001
 43
0.0000001
 44
0.0000000001
 40
0.0
 40
0.0
 40
0.0
 40
0.0
 40
0.5252176711
 40
0.7667927662
 40
1.0
 40
1.0
 40
1.0
 40
1.0
 10
-29.6878605225
 20
209.3558666264
 30
0.0
 10
-29.6878605225
 20
209.1320761258
 30
0.0
 10
-29.6223524133
 20
208.795228527
 30
0.0
 10
-29.3796330948
 20
208.4393498534
 30
0.0
 10
-29.2192044876
 20
208.3100742532
 30
0.0
 10
-29.1331471862
 20
208.2603948844
 30
0.0
  0
SPLINE
  5
2CE
100
AcDbEntity
  8
0
100
AcDbSpline
 62
7
  6
CONTINUOUS
 70
0
 71
3
 72
17
 73
13
 74
0
 42
0.0000001
 43
0.0000001
 44
0.0000000001
 40
0.0
 40
0.0
 40
0.0
 40
0.0
 40
0.040037271
 40
0.0828916922
 40
0.1306078836
 40
0.1842328439
 40
0.3091200408
 40
0.4529231193
 40
0.6053940697
 40
0.7544097566
 40
0.8885512168
 40
1.0
 40
1.0
 40
1.0
 40
1.0
 10
-7.5083794059
 20
268.8219485725
 30
0.0
 10
-7.4524456727
 20
268.8369387053
 30
0.0
 10
-7.3411824413
 20
268.8877003991
 30
0.0
 10
-7.1991274431
 20
269.0156834366
 30
0.0
 10
-7.0823094082
 20
269.1905194669
 30
0.0
 10
-6.9562950738
 20
269.4941829395
 30
0.0
 10
-6.883313222
 20
269.9606462391
 30
0.0
 10
-6.9154738486
 20
270.5719026754
 30
0.0
 10
-7.060259585
 20
271.2026664796
 30
0.0
 10
-7.3033747482
 20
271.7877060206
 30
0.0
 10
-7.6185174765
 20
272.2673436688
 30
0.0
 10
-7.8866244465
 20
272.5117916413
 30
0.0
 10
-8.0262077125
 20
272.5924123435
 30
0.0
  0
SPLINE
  5
2CF
100
AcDbEntity
  8
0
100
AcDbSpline
 62
7
  6
CONTINUOUS
 70
0
 71
3
 72
13
 73
9
 74
0
 42
0.0000001
 43
0.0000001
 44
0.0000000001
 40
0.0
 40
0.0
 40
0.0
 40
0.0
 40
0.2347902242
 40
0.4890705672
 40
0.6197521108
 40
0.7497766182
 40
0.8771066556
 40
1.0
 40
1.0
 40
1.0
 40
1.0
 10
-30.3660592924
 20
277.5874260715
 30
0.0
 10
-31.1029322684
 20
277.3899032302
 30
0.0
 10
-32.5554749088
 20
276.6478886187
 30
0.0
 10
-33.9794355866
 20
275.1799591371
 30
0.0
 10
-34.8595699135
 20
273.7509709658
 30
0.0
 10
-35.3564624422
 20
272.5867042116
 30
0.0
 10
-35.6646903488
 20
271.3854513568
 30
0.0
 10
-35.7379603037
 20
270.5710922417
 30
0.0
 10
-35.7379603037
 20
270.1717835657
 30
0.0
  0
SPLINE
  5
2D0
100
AcDbEntity
  8
0
100
AcDbSpline
 62
7
  6
CONTINUOUS
 70
0
 71
3
 72
11
 73
7
 74
0
 42
0.0000001
 43
0.0000001
 44
0.0000000001
 40
0.0
 40
0.0
 40
0.0
 40
0.0
 40
0.2717776924
 40
0.5268678486
 40
0.7676328571
 40
1.0
 40
1.0
 40
1.0
 40
1.0
 10
-35.7379603037
 20
203.9796913986
 30
0.0
 10
-35.7379603037
 20
203.5353181361
 30
0.0
 10
-35.6515632879
 20
202.6701881468
 30
0.0
 10
-35.2377578227
 20
201.471802664
 30
0.0
 10
-34.5596774559
 20
200.4747019821
 30
0.0
 10
-33.94600919
 20
199.9811264254
 30
0.0
 10
-33.6170220906
 20
199.7910796439
 30
0.0
  0
SPLINE
  5
2D1
100
AcDbEntity
  8
0
100
AcDbSpline
 62
7
  6
CONTINUOUS
 70
0
 71
3
 72
9
 73
5
 74
0
 42
0.0000001
 43
0.0000001
 44
0.0000000001
 40
0.0
 40
0.0
 40
0.0
 40
0.0
 40
0.7505685622
 40
1.0
 40
1.0
 40
1.0
 40
1.0
 10
-29.0210733482
 20
266.0045219174
 30
0.0
 10
-29.0948113034
 20
265.7129009446
 30
0.0
 10
-29.2799190267
 20
265.3398418782
 30
0.0
 10
-29.5478466243
 20
265.041120095
 30
0.0
 10
-29.6197588533
 20
264.9716856536
 30
0.0
  0
SPLINE
  5
2D2
100
AcDbEntity
  8
0
100
AcDbSpline
 62
7
  6
CONTINUOUS
 70
0
 71
3
 72
13
 73
9
 74
0
 42
0.0000001
 43
0.0000001
 44
0.0000000001
 40
0.0
 40
0.0
 40
0.0
 40
0.0
 40
0.11581048
 40
0.2327317633
 40
0.3517731611
 40
0.473788864
 40
0.7285761573
 40
1.0
 40
1.0
 40
1.0
 40
1.0
 10
28.1640026688
 20
251.1742260434
 30
0.0
 10
28.7817645276
 20
250.8163399701
 30
0.0
 10
29.9704861548
 20
250.0014544967
 30
0.0
 10
31.5605044564
 20
248.5156851623
 30
0.0
 10
32.9412611262
 20
246.7841878813
 30
0.0
 10
34.4999901281
 20
244.1446794716
 30
0.0
 10
35.8184773852
 20
240.324996116
 30
0.0
 10
36.1428137619
 20
237.0683342346
 30
0.0
 10
36.1428137619
 20
235.3950773198
 30
0.0
  0
SPLINE
  5
2D3
100
AcDbEntity
  8
0
100
AcDbSpline
 62
7
  6
CONTINUOUS
 70
0
 71
3
 72
9
 73
5
 74
0
 42
0.0000001
 43
0.0000001
 44
0.0000000001
 40
0.0
 40
0.0
 40
0.0
 40
0.0
 40
0.7505685622
 40
1.0
 40
1.0
 40
1.0
 40
1.0
 10
-29.0210733482
 20
210.8444451115
 30
0.0
 10
-29.0948113034
 20
210.5528241387
 30
0.0
 10
-29.2799190267
 20
210.1797650723
 30
0.0
 10
-29.5478466243
 20
209.8810432891
 30
0.0
 10
-29.6197588533
 20
209.8116088477
 30
0.0
  0
SPLINE
  5
2D4
100
AcDbEntity
  8
0
100
AcDbSpline
 62
7
  6
CONTINUOUS
 70
0
 71
3
 72
19
 73
15
 74
0
 42
0.0000001
 43
0.0000001
 44
0.0000000001
 40
0.0
 40
0.0
 40
0.0
 40
0.0
 40
0.0523306599
 40
0.1053801383
 40
0.1597856358
 40
0.2160393133
 40
0.2744528758
 40
0.3351488419
 40
0.4627703823
 40
0.5970193547
 40
0.665587438
 40
0.734331293
 40
0.869944196
 40
1.0
 40
1.0
 40
1.0
 40
1.0
 10
27.0480876454
 20
249.2781759319
 30
0.0
 10
26.368626676
 20
249.6706527725
 30
0.0
 10
24.9241863441
 20
250.3364887658
 30
0.0
 10
22.5915236481
 20
250.9338418071
 30
0.0
 10
20.1322628364
 20
251.1235502912
 30
0.0
 10
17.5962021724
 20
250.9037717887
 30
0.0
 10
15.0317133051
 20
250.2810776652
 30
0.0
 10
11.5845024952
 20
248.9101184679
 30
0.0
 10
7.4837628902
 20
246.2478231192
 30
0.0
 10
4.0155821238
 20
242.6526987542
 30
0.0
 10
1.680040968
 20
239.3093470025
 30
0.0
 10
-0.301382106
 20
235.7210300317
 30
0.0
 10
-2.0250933584
 20
230.9711330912
 30
0.0
 10
-2.5355242128
 20
226.9772506108
 30
0.0
 10
-2.5355242128
 20
225.0271367648
 30
0.0
  0
SPLINE
  5
2D5
100
AcDbEntity
  8
0
100
AcDbSpline
 62
7
  6
CONTINUOUS
 70
0
 71
3
 72
10
 73
6
 74
0
 42
0.0000001
 43
0.0000001
 44
0.0000000001
 40
0.0
 40
0.0
 40
0.0
 40
0.0
 40
0.5252176711
 40
0.7667927662
 40
1.0
 40
1.0
 40
1.0
 40
1.0
 10
-29.6878605225
 20
264.5159434323
 30
0.0
 10
-29.6878605225
 20
264.2921529316
 30
0.0
 10
-29.6223524133
 20
263.9553053329
 30
0.0
 10
-29.3796330948
 20
263.5994266593
 30
0.0
 10
-29.2192044876
 20
263.470151059
 30
0.0
 10
-29.1331471862
 20
263.4204716902
 30
0.0
  0
SPLINE
  5
2D6
100
AcDbEntity
  8
0
100
AcDbSpline
 62
7
  6
CONTINUOUS
 70
0
 71
3
 72
13
 73
9
 74
0
 42
0.0000001
 43
0.0000001
 44
0.0000000001
 40
0.0
 40
0.0
 40
0.0
 40
0.0
 40
0.1054216662
 40
0.2162098291
 40
0.3355589934
 40
0.4637550049
 40
0.7347840682
 40
1.0
 40
1.0
 40
1.0
 40
1.0
 10
-27.4326564068
 20
266.3646289533
 30
0.0
 10
-27.536547135
 20
266.4246032463
 30
0.0
 10
-27.7747557208
 20
266.5081562812
 30
0.0
 10
-28.1631096426
 20
266.5021454701
 30
0.0
 10
-28.5556072399
 20
266.3729953356
 30
0.0
 10
-29.054699161
 20
266.0484597875
 30
0.0
 10
-29.5305663031
 20
265.4312359735
 30
0.0
 10
-29.6878605225
 20
264.8177322451
 30
0.0
 10
-29.6878605225
 20
264.5159434323
 30
0.0
  0
SPLINE
  5
2D7
100
AcDbEntity
  8
0
100
AcDbSpline
 62
7
  6
CONTINUOUS
 70
0
 71
3
 72
11
 73
7
 74
0
 42
0.0000001
 43
0.0000001
 44
0.0000000001
 40
0.0
 40
0.0
 40
0.0
 40
0.0
 40
0.2565570047
 40
0.5076778298
 40
0.7548383486
 40
1.0
 40
1.0
 40
1.0
 40
1.0
 10
11.4233250193
 20
206.8008408266
 30
0.0
 10
10.7293003665
 20
206.7895984604
 30
0.0
 10
9.3528053301
 20
206.8523160789
 30
0.0
 10
7.3365565457
 20
207.2125090743
 30
0.0
 10
5.4171874565
 20
207.8343160829
 30
0.0
 10
4.2150703801
 20
208.4198848117
 30
0.0
 10
3.6406911034
 20
208.7516017954
 30
0.0
  0
SPLINE
  5
2D8
100
AcDbEntity
  8
0
100
AcDbSpline
 62
7
  6
CONTINUOUS
 70
0
 71
3
 72
13
 73
9
 74
0
 42
0.0000001
 43
0.0000001
 44
0.0000000001
 40
0.0
 40
0.0
 40
0.0
 40
0.0
 40
0.2451317608
 40
0.3727121939
 40
0.5016011514
 40
0.630269491
 40
0.7572052346
 40
1.0
 40
1.0
 40
1.0
 40
1.0
 10
36.1428137619
 20
235.3950773198
 30
0.0
 10
36.1428137619
 20
232.7826509024
 30
0.0
 10
35.5207746492
 20
228.7896306214
 30
0.0
 10
33.6848015625
 20
223.7604638417
 30
0.0
 10
31.790496998
 20
220.1054765238
 30
0.0
 10
29.4498761333
 20
216.7270834214
 30
0.0
 10
25.8831500189
 20
212.7804185016
 30
0.0
 10
22.6608924343
 20
210.3910754895
 30
0.0
 10
20.3650790849
 20
209.197549846
 30
0.0
  0
SPLINE
  5
2D9
100
AcDbEntity
  8
0
100
AcDbSpline
 62
7
  6
CONTINUOUS
 70
0
 71
3
 72
13
 73
9
 74
0
 42
0.0000001
 43
0.0000001
 44
0.0000000001
 40
0.0
 40
0.0
 40
0.0
 40
0.0
 40
0.2750780442
 40
0.542383026
 40
0.6671162451
 40
0.7840063621
 40
0.8940300724
 40
1.0
 40
1.0
 40
1.0
 40
1.0
 10
20.3650790849
 20
209.197549846
 30
0.0
 10
20.127358208
 20
208.3372128406
 30
0.0
 10
19.3343321823
 20
206.718529146
 30
0.0
 10
17.7284995914
 20
205.1844931166
 30
0.0
 10
16.2289086899
 20
204.4632756795
 30
0.0
 10
15.1009111907
 20
204.2215176328
 30
0.0
 10
14.0083975515
 20
204.2872331823
 30
0.0
 10
13.3411383569
 20
204.5422280964
 30
0.0
 10
13.0434022528
 20
204.7142381749
 30
0.0
  0
SPLINE
  5
2DA
100
AcDbEntity
  8
0
100
AcDbSpline
 62
7
  6
CONTINUOUS
 70
0
 71
3
 72
11
 73
7
 74
0
 42
0.0000001
 43
0.0000001
 44
0.0000000001
 40
0.0
 40
0.0
 40
0.0
 40
0.0
 40
0.2717611519
 40
0.526886495
 40
0.7676399774
 40
1.0
 40
1.0
 40
1.0
 40
1.0
 10
13.0016664044
 20
208.8746709383
 30
0.0
 10
13.0016664044
 20
208.6354075014
 30
0.0
 10
13.0482160828
 20
208.1695592686
 30
0.0
 10
13.2709734528
 20
207.5242432482
 30
0.0
 10
13.6361520176
 20
206.987357523
 30
0.0
 10
13.9665755522
 20
206.7216066144
 30
0.0
 10
14.1437121793
 20
206.6192683307
 30
0.0
  0
SPLINE
  5
2DB
100
AcDbEntity
  8
0
100
AcDbSpline
 62
7
  6
CONTINUOUS
 70
0
 71
3
 72
13
 73
9
 74
0
 42
0.0000001
 43
0.0000001
 44
0.0000000001
 40
0.0
 40
0.0
 40
0.0
 40
0.0
 40
0.2714345402
 40
0.5262166453
 40
0.6482286345
 40
0.7672657745
 40
0.8841845549
 40
1.0
 40
1.0
 40
1.0
 40
1.0
 10
-2.5355242128
 20
225.0271367648
 30
0.0
 10
-2.5355242128
 20
223.5025950747
 30
0.0
 10
-2.2397223143
 20
220.535436446
 30
0.0
 10
-1.0371292832
 20
217.0557156323
 30
0.0
 10
0.3845289066
 20
214.6518559444
 30
0.0
 10
1.6437894572
 20
213.0753791078
 30
0.0
 10
3.0938133891
 20
211.7231834559
 30
0.0
 10
4.1777430947
 20
210.9820204574
 30
0.0
 10
4.741017958
 20
210.6566610162
 30
0.0
  0
SPLINE
  5
2DC
100
AcDbEntity
  8
0
100
AcDbSpline
 62
7
  6
CONTINUOUS
 70
0
 71
3
 72
11
 73
7
 74
0
 42
0.0000001
 43
0.0000001
 44
0.0000000001
 40
0.0
 40
0.0
 40
0.0
 40
0.0
 40
0.2773967594
 40
0.532566532
 40
0.7708745228
 40
1.0
 40
1.0
 40
1.0
 40
1.0
 10
-19.0050107313
 20
269.5145619419
 30
0.0
 10
-18.5673019796
 20
270.3106176632
 30
0.0
 10
-17.6172489031
 20
271.7835528882
 30
0.0
 10
-15.8892097565
 20
273.6446418347
 30
0.0
 10
-13.9431561233
 20
275.0231291479
 30
0.0
 10
-12.5075698639
 20
275.6021366717
 30
0.0
 10
-11.782786216
 20
275.7964195939
 30
0.0
  0
SPLINE
  5
2DD
100
AcDbEntity
  8
0
100
AcDbSpline
 62
7
  6
CONTINUOUS
 70
0
 71
3
 72
9
 73
5
 74
0
 42
0.0000001
 43
0.0000001
 44
0.0000000001
 40
0.0
 40
0.0
 40
0.0
 40
0.0
 40
0.5312871198
 40
1.0
 40
1.0
 40
1.0
 40
1.0
 10
-8.0262077125
 20
272.5924123435
 30
0.0
 10
-8.1085130353
 20
272.6399503694
 30
0.0
 10
-8.2772475213
 20
272.7104352547
 30
0.0
 10
-8.4630412751
 20
272.7072440962
 30
0.0
 10
-8.5440360191
 20
272.6855376607
 30
0.0
  0
SPLINE
  5
2DE
100
AcDbEntity
  8
0
100
AcDbSpline
 62
7
  6
CONTINUOUS
 70
0
 71
3
 72
10
 73
6
 74
0
 42
0.0000001
 43
0.0000001
 44
0.0000000001
 40
0.0
 40
0.0
 40
0.0
 40
0.0
 40
0.2403242638
 40
0.4850896596
 40
1.0
 40
1.0
 40
1.0
 40
1.0
 10
-24.5911818298
 20
213.7842175113
 30
0.0
 10
-24.7822839953
 20
213.8945595729
 30
0.0
 10
-25.1935550204
 20
214.0761665691
 30
0.0
 10
-26.0974572295
 20
214.2643838786
 30
0.0
 10
-26.8127956745
 20
214.1925882781
 30
0.0
 10
-27.2694738256
 20
214.0701731959
 30
0.0
  0
SPLINE
  5
2DF
100
AcDbEntity
  8
0
100
AcDbSpline
 62
7
  6
CONTINUOUS
 70
0
 71
3
 72
9
 73
5
 74
0
 42
0.0000001
 43
0.0000001
 44
0.0000000001
 40
0.0
 40
0.0
 40
0.0
 40
0.0
 40
0.5152021299
 40
1.0
 40
1.0
 40
1.0
 40
1.0
 10
21.516659656
 20
264.7718006918
 30
0.0
 10
21.516659656
 20
262.7958981687
 30
0.0
 10
21.8862729029
 20
258.9478753004
 30
0.0
 10
23.1030890388
 20
255.2665370285
 30
0.0
 10
23.9098639632
 20
253.5913963238
 30
0.0
  0
SPLINE
  5
2E0
100
AcDbEntity
  8
0
100
AcDbSpline
 62
7
  6
CONTINUOUS
 70
0
 71
3
 72
11
 73
7
 74
0
 42
0.0000001
 43
0.0000001
 44
0.0000000001
 40
0.0
 40
0.0
 40
0.0
 40
0.0
 40
0.2655848828
 40
0.5205107879
 40
0.7648710869
 40
1.0
 40
1.0
 40
1.0
 40
1.0
 10
-11.5072584793
 20
224.9968125971
 30
0.0
 10
-11.4669842943
 20
223.4833342278
 30
0.0
 10
-11.1717194941
 20
220.5170537853
 30
0.0
 10
-10.0477061778
 20
216.2835613392
 30
0.0
 10
-8.2790566426
 20
212.464572581
 30
0.0
 10
-6.6699067282
 20
210.2289659344
 30
0.0
 10
-5.778623739
 20
209.2278306532
 30
0.0
  0
SPLINE
  5
2E1
100
AcDbEntity
  8
0
100
AcDbSpline
 62
7
  6
CONTINUOUS
 70
0
 71
3
 72
11
 73
7
 74
0
 42
0.0000001
 43
0.0000001
 44
0.0000000001
 40
0.0
 40
0.0
 40
0.0
 40
0.0
 40
0.247491485
 40
0.5019416485
 40
0.7553606372
 40
1.0
 40
1.0
 40
1.0
 40
1.0
 10
2.2281172993
 20
254.1482597829
 30
0.0
 10
0.0770211005
 20
252.4429915149
 30
0.0
 10
-3.8595723237
 20
248.4202305044
 30
0.0
 10
-8.2713257582
 20
241.2219748954
 30
0.0
 10
-11.0078210781
 20
233.2674902522
 30
0.0
 10
-11.5794371691
 20
227.7092420574
 30
0.0
 10
-11.5072584793
 20
224.9968125971
 30
0.0
  0
SPLINE
  5
2E2
100
AcDbEntity
  8
0
100
AcDbSpline
 62
7
  6
CONTINUOUS
 70
0
 71
3
 72
9
 73
5
 74
0
 42
0.0000001
 43
0.0000001
 44
0.0000000001
 40
0.0
 40
0.0
 40
0.0
 40
0.0
 40
0.2450713116
 40
1.0
 40
1.0
 40
1.0
 40
1.0
 10
-1.8304485846
 20
258.5131659958
 30
0.0
 10
-1.8304485846
 20
257.8329585251
 30
0.0
 10
-1.9124262665
 20
255.0577643944
 30
0.0
 10
-2.3146184653
 20
252.2940767144
 30
0.0
 10
-2.7759221019
 20
250.2501452799
 30
0.0
  0
SPLINE
  5
2E3
100
AcDbEntity
  8
0
100
AcDbSpline
 62
7
  6
CONTINUOUS
 70
0
 71
3
 72
13
 73
9
 74
0
 42
0.0000001
 43
0.0000001
 44
0.0000000001
 40
0.0
 40
0.0
 40
0.0
 40
0.0
 40
0.2678810999
 40
0.5423968904
 40
0.6728096521
 40
0.7940020935
 40
0.9035027239
 40
1.0
 40
1.0
 40
1.0
 40
1.0
 10
-1.8304485853
 20
269.7959633513
 30
0.0
 10
-1.8304485853
 20
270.4908215088
 30
0.0
 10
-2.0028701736
 20
271.8996062958
 30
0.0
 10
-2.5494486191
 20
273.5697776616
 30
0.0
 10
-3.1773473508
 20
274.7844159411
 30
0.0
 10
-3.7062382903
 20
275.5609034987
 30
0.0
 10
-4.2811316174
 20
276.1894227257
 30
0.0
 10
-4.7102854536
 20
276.5156440168
 30
0.0
 10
-4.9270340521
 20
276.6408339819
 30
0.0
  0
SPLINE
  5
2E4
100
AcDbEntity
  8
0
100
AcDbSpline
 62
7
  6
CONTINUOUS
 70
0
 71
3
 72
9
 73
5
 74
0
 42
0.0000001
 43
0.0000001
 44
0.0000000001
 40
0.0
 40
0.0
 40
0.0
 40
0.0
 40
0.525586555
 40
1.0
 40
1.0
 40
1.0
 40
1.0
 10
-4.9270340521
 20
276.6408339819
 30
0.0
 10
-5.0853502489
 20
276.732274477
 30
0.0
 10
-5.4040375498
 20
276.8791049033
 30
0.0
 10
-5.7512195301
 20
276.9427633129
 30
0.0
 10
-5.9161841943
 20
276.9472421104
 30
0.0
  0
SPLINE
  5
2E5
100
AcDbEntity
  8
0
100
AcDbSpline
 62
7
  6
CONTINUOUS
 70
0
 71
3
 72
9
 73
5
 74
0
 42
0.0000001
 43
0.0000001
 44
0.0000000001
 40
0.0
 40
0.0
 40
0.0
 40
0.0
 40
0.2534260874
 40
1.0
 40
1.0
 40
1.0
 40
1.0
 10
-5.9161841943
 20
276.9472421104
 30
0.0
 10
-6.1191159249
 20
276.9527517153
 30
0.0
 10
-6.9202985321
 20
276.9508928747
 30
0.0
 10
-7.7215463783
 20
276.850955118
 30
0.0
 10
-8.3051272887
 20
276.7202371863
 30
0.0
  0
SPLINE
  5
2E6
100
AcDbEntity
  8
0
100
AcDbSpline
 62
7
  6
CONTINUOUS
 70
0
 71
3
 72
9
 73
5
 74
0
 42
0.0000001
 43
0.0000001
 44
0.0000000001
 40
0.0
 40
0.0
 40
0.0
 40
0.0
 40
0.246446991
 40
1.0
 40
1.0
 40
1.0
 40
1.0
 10
4.587709308
 20
252.7842244443
 30
0.0
 10
4.5583569784
 20
252.2641859687
 30
0.0
 10
4.3935738348
 20
250.1567923892
 30
0.0
 10
4.0493811744
 20
248.0640518157
 30
0.0
 10
3.6987566016
 20
246.5104911067
 30
0.0
  0
SPLINE
  5
2E7
100
AcDbEntity
  8
0
100
AcDbSpline
 62
7
  6
CONTINUOUS
 70
0
 71
3
 72
11
 73
7
 74
0
 42
0.0000001
 43
0.0000001
 44
0.0000000001
 40
0.0
 40
0.0
 40
0.0
 40
0.0
 40
0.2341347356
 40
0.4778815177
 40
0.7330361518
 40
1.0
 40
1.0
 40
1.0
 40
1.0
 10
34.0817947323
 20
252.7198537977
 30
0.0
 10
34.940462212
 20
251.7375506145
 30
0.0
 10
36.4818604155
 20
249.5392263241
 30
0.0
 10
38.1380582237
 20
245.7803529635
 30
0.0
 10
39.1415660331
 20
241.6113677365
 30
0.0
 10
39.3549751141
 20
238.6959606852
 30
0.0
 10
39.3549751141
 20
237.2083282246
 30
0.0
  0
SPLINE
  5
2E8
100
AcDbEntity
  8
0
100
AcDbSpline
 62
7
  6
CONTINUOUS
 70
0
 71
3
 72
14
 73
10
 74
0
 42
0.0000001
 43
0.0000001
 44
0.0000000001
 40
0.0
 40
0.0
 40
0.0
 40
0.0
 40
0.2491613243
 40
0.3790638972
 40
0.509622735
 40
0.6387325639
 40
0.7644429917
 40
0.8851815827
 40
1.0
 40
1.0
 40
1.0
 40
1.0
 10
39.3549751141
 20
237.2083282246
 30
0.0
 10
39.3549751141
 20
233.4994369785
 30
0.0
 10
38.3217816126
 20
227.8193119582
 30
0.0
 10
35.3353911523
 20
220.8298147224
 30
0.0
 10
32.2834531158
 20
215.8706819447
 30
0.0
 10
28.568940636
 20
211.4712747598
 30
0.0
 10
24.3273055913
 20
207.7922048141
 30
0.0
 10
19.7173713662
 20
204.9746061269
 30
0.0
 10
16.4190460474
 20
203.7100219345
 30
0.0
 10
14.7681973905
 20
203.2675029043
 30
0.0
  0
SPLINE
  5
2E9
100
AcDbEntity
  8
0
100
AcDbSpline
 62
7
  6
CONTINUOUS
 70
0
 71
3
 72
12
 73
8
 74
0
 42
0.0000001
 43
0.0000001
 44
0.0000000001
 40
0.0
 40
0.0
 40
0.0
 40
0.0
 40
0.2496129985
 40
0.3797352206
 40
0.5105246444
 40
0.7650066244
 40
1.0
 40
1.0
 40
1.0
 40
1.0
 10
-23.8572818095
 20
266.0788620235
 30
0.0
 10
-23.8572818095
 20
265.4112346766
 30
0.0
 10
-24.0432058258
 20
264.388888986
 30
0.0
 10
-24.5809215149
 20
263.1305776581
 30
0.0
 10
-25.3060731472
 20
261.9526931102
 30
0.0
 10
-26.479125861
 20
260.7436388525
 30
0.0
 10
-27.6758094247
 20
260.1322479056
 30
0.0
 10
-28.2829017965
 20
259.9695134669
 30
0.0
  0
SPLINE
  5
2EA
100
AcDbEntity
  8
0
100
AcDbSpline
 62
7
  6
CONTINUOUS
 70
0
 71
3
 72
13
 73
9
 74
0
 42
0.0000001
 43
0.0000001
 44
0.0000000001
 40
0.0
 40
0.0
 40
0.0
 40
0.0
 40
0.1228933572
 40
0.2502234085
 40
0.3802479217
 40
0.5109294677
 40
0.7652098012
 40
1.0
 40
1.0
 40
1.0
 40
1.0
 10
-33.6548028078
 20
268.9685904839
 30
0.0
 10
-33.6548028078
 20
269.3678992015
 30
0.0
 10
-33.5815328284
 20
270.1822584027
 30
0.0
 10
-33.2733048773
 20
271.3835113567
 30
0.0
 10
-32.7764122709
 20
272.5477781573
 30
0.0
 10
-31.8962778997
 20
273.9767662965
 30
0.0
 10
-30.4723172382
 20
275.4446956473
 30
0.0
 10
-29.0197746928
 20
276.1867101698
 30
0.0
 10
-28.2829017965
 20
276.3842329897
 30
0.0
  0
SPLINE
  5
2EB
100
AcDbEntity
  8
0
100
AcDbSpline
 62
7
  6
CONTINUOUS
 70
0
 71
3
 72
10
 73
6
 74
0
 42
0.0000001
 43
0.0000001
 44
0.0000000001
 40
0.0
 40
0.0
 40
0.0
 40
0.0
 40
0.5252176711
 40
0.7667927662
 40
1.0
 40
1.0
 40
1.0
 40
1.0
 10
-26.8779430705
 20
265.2691572112
 30
0.0
 10
-26.8779430705
 20
265.4929477119
 30
0.0
 10
-26.9434511798
 20
265.8297953107
 30
0.0
 10
-27.1861704982
 20
266.1856739842
 30
0.0
 10
-27.3465991055
 20
266.3149495845
 30
0.0
 10
-27.4326564068
 20
266.3646289533
 30
0.0
  0
SPLINE
  5
2EC
100
AcDbEntity
  8
0
100
AcDbSpline
 62
7
  6
CONTINUOUS
 70
0
 71
3
 72
14
 73
10
 74
0
 42
0.0000001
 43
0.0000001
 44
0.0000000001
 40
0.0
 40
0.0
 40
0.0
 40
0.0
 40
0.1052589072
 40
0.2158740762
 40
0.3350378063
 40
0.4630338011
 40
0.5976746918
 40
0.7352067853
 40
1.0
 40
1.0
 40
1.0
 40
1.0
 10
14.1437121793
 20
206.6192683307
 30
0.0
 10
14.3575674831
 20
206.4957163296
 30
0.0
 10
14.8480488837
 20
206.3237749565
 30
0.0
 10
15.6476297417
 20
206.3361290042
 30
0.0
 10
16.4555545611
 20
206.6020826918
 30
0.0
 10
17.2139460297
 20
207.0946628795
 30
0.0
 10
17.8714588112
 20
207.7764568809
 30
0.0
 10
18.5407151176
 20
208.849567104
 30
0.0
 10
18.7867905704
 20
209.804092788
 30
0.0
 10
18.7867905704
 20
210.425405189
 30
0.0
  0
SPLINE
  5
2ED
100
AcDbEntity
  8
0
100
AcDbSpline
 62
7
  6
CONTINUOUS
 70
0
 71
3
 72
9
 73
5
 74
0
 42
0.0000001
 43
0.0000001
 44
0.0000000001
 40
0.0
 40
0.0
 40
0.0
 40
0.0
 40
0.4894803047
 40
1.0
 40
1.0
 40
1.0
 40
1.0
 10
-19.0050107313
 20
265.8124128169
 30
0.0
 10
-19.0050107313
 20
263.1433147241
 30
0.0
 10
-19.7151983427
 20
257.6770132363
 30
0.0
 10
-21.6207277549
 20
252.5174699744
 30
0.0
 10
-22.8538011217
 20
250.0216319261
 30
0.0
  0
SPLINE
  5
2EE
100
AcDbEntity
  8
0
100
AcDbSpline
 62
7
  6
CONTINUOUS
 70
0
 71
3
 72
9
 73
5
 74
0
 42
0.0000001
 43
0.0000001
 44
0.0000000001
 40
0.0
 40
0.0
 40
0.0
 40
0.0
 40
0.5105352275
 40
1.0
 40
1.0
 40
1.0
 40
1.0
 10
-22.8538011217
 20
250.0216319261
 30
0.0
 10
-23.871098119
 20
247.9744097902
 30
0.0
 10
-25.4434557598
 20
243.739989953
 30
0.0
 10
-26.0298043614
 20
239.2511739592
 30
0.0
 10
-26.0298043614
 20
237.0594749405
 30
0.0
  0
SPLINE
  5
2EF
100
AcDbEntity
  8
0
100
AcDbSpline
 62
7
  6
CONTINUOUS
 70
0
 71
3
 72
9
 73
5
 74
0
 42
0.0000001
 43
0.0000001
 44
0.0000000001
 40
0.0
 40
0.0
 40
0.0
 40
0.0
 40
0.5159773636
 40
1.0
 40
1.0
 40
1.0
 40
1.0
 10
-26.0298043614
 20
237.0594749405
 30
0.0
 10
-26.0298043614
 20
235.3686064284
 30
0.0
 10
-25.6990651288
 20
232.0792948803
 30
0.0
 10
-24.6043289447
 20
228.9477944187
 30
0.0
 10
-23.8803829596
 20
227.5364896887
 30
0.0
  0
SPLINE
  5
2F0
100
AcDbEntity
  8
0
100
AcDbSpline
 62
7
  6
CONTINUOUS
 70
0
 71
3
 72
11
 73
7
 74
0
 42
0.0000001
 43
0.0000001
 44
0.0000000001
 40
0.0
 40
0.0
 40
0.0
 40
0.0
 40
0.2573952296
 40
0.5086187965
 40
0.7554505339
 40
1.0
 40
1.0
 40
1.0
 40
1.0
 10
-23.8803829596
 20
227.5364896887
 30
0.0
 10
-23.5404540126
 20
226.8738113391
 30
0.0
 10
-22.7827833
 20
225.6060217813
 30
0.0
 10
-21.4078282402
 20
223.897485776
 30
0.0
 10
-19.8276049157
 20
222.430461077
 30
0.0
 10
-18.6481684239
 20
221.6251970428
 30
0.0
 10
-18.03540716
 20
221.2713136006
 30
0.0
  0
SPLINE
  5
2F1
100
AcDbEntity
  8
0
100
AcDbSpline
 62
7
  6
CONTINUOUS
 70
0
 71
3
 72
9
 73
5
 74
0
 42
0.0000001
 43
0.0000001
 44
0.0000000001
 40
0.0
 40
0.0
 40
0.0
 40
0.0
 40
0.4962050461
 40
1.0
 40
1.0
 40
1.0
 40
1.0
 10
-11.782786216
 20
275.7964195939
 30
0.0
 10
-11.3365390766
 20
275.916039012
 30
0.0
 10
-10.4180421235
 20
276.0903754979
 30
0.0
 10
-9.4842532245
 20
276.1292221477
 30
0.0
 10
-9.0153578549
 20
276.116491619
 30
0.0
  0
SPLINE
  5
2F2
100
AcDbEntity
  8
0
100
AcDbSpline
 62
7
  6
CONTINUOUS
 70
0
 71
3
 72
19
 73
15
 74
0
 42
0.0000001
 43
0.0000001
 44
0.0000000001
 40
0.0
 40
0.0
 40
0.0
 40
0.0
 40
0.1300542981
 40
0.265667436
 40
0.334412058
 40
0.4029811735
 40
0.5372318963
 40
0.6648543545
 40
0.7255503323
 40
0.783963646
 40
0.8402168428
 40
0.8946216449
 40
0.9476702702
 40
1.0
 40
1.0
 40
1.0
 40
1.0
 10
-4.3537060935
 20
224.5397631431
 30
0.0
 10
-4.3537060935
 20
226.6822367079
 30
0.0
 10
-3.7929292852
 20
231.0701061569
 30
0.0
 10
-1.8991839273
 20
236.2885919557
 30
0.0
 10
0.2777264275
 20
240.2309378115
 30
0.0
 10
2.843707453
 20
243.9041704252
 30
0.0
 10
6.6540865407
 20
247.8540023952
 30
0.0
 10
11.1594325388
 20
250.7789386271
 30
0.0
 10
14.9467418919
 20
252.2851246908
 30
0.0
 10
17.7642184435
 20
252.9692269035
 30
0.0
 10
20.5504471238
 20
253.2106666389
 30
0.0
 10
23.2522862806
 20
253.0022294439
 30
0.0
 10
25.8150307246
 20
252.3459450812
 30
0.0
 10
27.4019386303
 20
251.6144279896
 30
0.0
 10
28.1484180775
 20
251.1832413651
 30
0.0
  0
SPLINE
  5
2F3
100
AcDbEntity
  8
0
100
AcDbSpline
 62
7
  6
CONTINUOUS
 70
0
 71
3
 72
13
 73
9
 74
0
 42
0.0000001
 43
0.0000001
 44
0.0000000001
 40
0.0
 40
0.0
 40
0.0
 40
0.0
 40
0.115816128
 40
0.2327344206
 40
0.3517718187
 40
0.473783441
 40
0.728567327
 40
1.0
 40
1.0
 40
1.0
 40
1.0
 10
3.6406911034
 20
208.7516017954
 30
0.0
 10
3.021817349
 20
209.1090153433
 30
0.0
 10
1.831005523
 20
209.9233819281
 30
0.0
 10
0.237888151
 20
211.4089194822
 30
0.0
 10
-1.1456043455
 20
213.1409220843
 30
0.0
 10
-2.7074937048
 20
215.7819518089
 30
0.0
 10
-4.028724734
 20
219.6049541635
 30
0.0
 10
-4.3537060935
 20
222.8648321605
 30
0.0
 10
-4.3537060935
 20
224.5397631431
 30
0.0
  0
SPLINE
  5
2F4
100
AcDbEntity
  8
0
100
AcDbSpline
 62
7
  6
CONTINUOUS
 70
0
 71
3
 72
13
 73
9
 74
0
 42
0.0000001
 43
0.0000001
 44
0.0000000001
 40
0.0
 40
0.0
 40
0.0
 40
0.0
 40
0.2405676159
 40
0.3672334224
 40
0.4960882267
 40
0.6254876314
 40
0.7537405927
 40
1.0
 40
1.0
 40
1.0
 40
1.0
 10
18.7861124115
 20
210.4948949766
 30
0.0
 10
21.013368224
 20
211.4855148488
 30
0.0
 10
24.1676207945
 20
213.6021239716
 30
0.0
 10
27.6715500061
 20
217.2176717797
 30
0.0
 10
29.9888108047
 20
220.3712907009
 30
0.0
 10
31.8714090471
 20
223.8200432239
 30
0.0
 10
33.7009903163
 20
228.5960525666
 30
0.0
 10
34.3246318812
 20
232.4124089648
 30
0.0
 10
34.3246318812
 20
234.9077036982
 30
0.0
  0
SPLINE
  5
2F5
100
AcDbEntity
  8
0
100
AcDbSpline
 62
7
  6
CONTINUOUS
 70
0
 71
3
 72
13
 73
9
 74
0
 42
0.0000001
 43
0.0000001
 44
0.0000000001
 40
0.0
 40
0.0
 40
0.0
 40
0.0
 40
0.2714323333
 40
0.5262143375
 40
0.6482250284
 40
0.7672621773
 40
0.8841829268
 40
1.0
 40
1.0
 40
1.0
 40
1.0
 10
34.3246318812
 20
234.9077036982
 30
0.0
 10
34.3246318812
 20
236.4322334494
 30
0.0
 10
34.0288369249
 20
239.3993801184
 30
0.0
 10
32.8262592847
 20
242.879084853
 30
0.0
 10
31.4046191117
 20
245.2829474515
 30
0.0
 10
30.1453567446
 20
246.8594281203
 30
0.0
 10
28.6953234726
 20
248.2116461243
 30
0.0
 10
27.611368494
 20
248.9528081804
 30
0.0
 10
27.0480876454
 20
249.2781759319
 30
0.0
  0
SPLINE
  5
2F6
100
AcDbEntity
  8
0
100
AcDbSpline
 62
7
  6
CONTINUOUS
 70
0
 71
3
 72
11
 73
7
 74
0
 42
0.0000001
 43
0.0000001
 44
0.0000000001
 40
0.0
 40
0.0
 40
0.0
 40
0.0
 40
0.2323671568
 40
0.4731321704
 40
0.7282223224
 40
1.0
 40
1.0
 40
1.0
 40
1.0
 10
-31.5338645962
 20
198.5878865595
 30
0.0
 10
-31.8628517129
 20
198.7779333567
 30
0.0
 10
-32.4765200029
 20
199.2715089353
 30
0.0
 10
-33.1546003637
 20
200.2686096529
 30
0.0
 10
-33.5684058008
 20
201.4669951204
 30
0.0
 10
-33.6548028078
 20
202.3321250783
 30
0.0
 10
-33.6548028078
 20
202.7764983168
 30
0.0
  0
SPLINE
  5
2F7
100
AcDbEntity
  8
0
100
AcDbSpline
 62
7
  6
CONTINUOUS
 70
0
 71
3
 72
11
 73
7
 74
0
 42
0.0000001
 43
0.0000001
 44
0.0000000001
 40
0.0
 40
0.0
 40
0.0
 40
0.0
 40
0.2437295002
 40
0.4900874394
 40
0.7415577215
 40
1.0
 40
1.0
 40
1.0
 40
1.0
 10
4.741017958
 20
210.6566610162
 30
0.0
 10
5.3435253075
 20
210.3086400636
 30
0.0
 10
6.6144724789
 20
209.7066172625
 30
0.0
 10
8.6563829571
 20
209.1162633731
 30
0.0
 10
10.8064243351
 20
208.8446765237
 30
0.0
 10
12.2676035694
 20
208.8775582871
 30
0.0
 10
13.0023467966
 20
208.9446394995
 30
0.0
  0
SPLINE
  5
2F8
100
AcDbEntity
  8
0
100
AcDbSpline
 62
7
  6
CONTINUOUS
 70
0
 71
3
 72
9
 73
5
 74
0
 42
0.0000001
 43
0.0000001
 44
0.0000000001
 40
0.0
 40
0.0
 40
0.0
 40
0.0
 40
0.474413445
 40
1.0
 40
1.0
 40
1.0
 40
1.0
 10
-9.0153578549
 20
276.116491619
 30
0.0
 10
-8.8503931906
 20
276.1120128215
 30
0.0
 10
-8.5032112102
 20
276.0483544119
 30
0.0
 10
-8.1845239093
 20
275.9015239855
 30
0.0
 10
-8.0262077125
 20
275.8100834905
 30
0.0
  0
SPLINE
  5
2F9
100
AcDbEntity
  8
0
100
AcDbSpline
 62
7
  6
CONTINUOUS
 70
0
 71
3
 72
13
 73
9
 74
0
 42
0.0000001
 43
0.0000001
 44
0.0000000001
 40
0.0
 40
0.0
 40
0.0
 40
0.0
 40
0.0964972761
 40
0.2059979065
 40
0.3271903479
 40
0.4576031096
 40
0.7321189001
 40
1.0
 40
1.0
 40
1.0
 40
1.0
 10
-8.0262077125
 20
275.8100834905
 30
0.0
 10
-7.809459114
 20
275.6848935254
 30
0.0
 10
-7.3803052777
 20
275.3586722343
 30
0.0
 10
-6.8054119506
 20
274.7301530072
 30
0.0
 10
-6.2765210112
 20
273.9536654496
 30
0.0
 10
-5.6486222794
 20
272.7390271702
 30
0.0
 10
-5.1020438339
 20
271.0688558044
 30
0.0
 10
-4.9296222456
 20
269.6600710173
 30
0.0
 10
-4.9296222456
 20
268.9652128598
 30
0.0
  0
SPLINE
  5
2FA
100
AcDbEntity
  8
0
100
AcDbSpline
 62
7
  6
CONTINUOUS
 70
0
 71
3
 72
8
 73
4
 74
0
 42
0.0000001
 43
0.0000001
 44
0.0000000001
 40
0.0
 40
0.0
 40
0.0
 40
0.0
 40
1.0
 40
1.0
 40
1.0
 40
1.0
 10
-7.7400321981
 20
268.810176241
 30
0.0
 10
-7.7024607664
 20
268.8045703723
 30
0.0
 10
-7.664192297
 20
268.8023231253
 30
0.0
 10
-7.6262400585
 20
268.8039558616
 30
0.0
  0
SPLINE
  5
2FB
100
AcDbEntity
  8
0
100
AcDbSpline
 62
7
  6
CONTINUOUS
 70
0
 71
3
 72
13
 73
9
 74
0
 42
0.0000001
 43
0.0000001
 44
0.0000000001
 40
0.0
 40
0.0
 40
0.0
 40
0.0
 40
0.1054216662
 40
0.2162098291
 40
0.3355589934
 40
0.4637550049
 40
0.7347840682
 40
1.0
 40
1.0
 40
1.0
 40
1.0
 10
-29.1331471862
 20
208.2603948844
 30
0.0
 10
-29.029256458
 20
208.2004205913
 30
0.0
 10
-28.7910478722
 20
208.1168675564
 30
0.0
 10
-28.4026939504
 20
208.1228783676
 30
0.0
 10
-28.0101963532
 20
208.2520285021
 30
0.0
 10
-27.5111044321
 20
208.5765640502
 30
0.0
 10
-27.0352372899
 20
209.1937878642
 30
0.0
 10
-26.8779430705
 20
209.8072915926
 30
0.0
 10
-26.8779430705
 20
210.1090804053
 30
0.0
  0
SPLINE
  5
2FC
100
AcDbEntity
  8
0
100
AcDbSpline
 62
7
  6
CONTINUOUS
 70
0
 71
3
 72
9
 73
5
 74
0
 42
0.0000001
 43
0.0000001
 44
0.0000000001
 40
0.0
 40
0.0
 40
0.0
 40
0.0
 40
0.2541979997
 40
1.0
 40
1.0
 40
1.0
 40
1.0
 10
4.4832006325
 20
268.9915400285
 30
0.0
 10
4.5204668881
 20
268.5909484926
 30
0.0
 10
4.6967554016
 20
267.0180084492
 30
0.0
 10
4.9938963136
 20
265.4581344281
 30
0.0
 10
5.2874113195
 20
264.3148226131
 30
0.0
  0
SPLINE
  5
2FD
100
AcDbEntity
  8
0
100
AcDbSpline
 62
7
  6
CONTINUOUS
 70
0
 71
3
 72
9
 73
5
 74
0
 42
0.0000001
 43
0.0000001
 44
0.0000000001
 40
0.0
 40
0.0
 40
0.0
 40
0.0
 40
0.491772082
 40
1.0
 40
1.0
 40
1.0
 40
1.0
 10
5.2874113195
 20
264.3148226131
 30
0.0
 10
4.2021594995
 20
264.812048287
 30
0.0
 10
1.8582928484
 20
265.5447755125
 30
0.0
 10
-0.5885253813
 20
265.6946052551
 30
0.0
 10
-1.8208942822
 20
265.6377252253
 30
0.0
  0
SPLINE
  5
2FE
100
AcDbEntity
  8
0
100
AcDbSpline
 62
7
  6
CONTINUOUS
 70
0
 71
3
 72
9
 73
5
 74
0
 42
0.0000001
 43
0.0000001
 44
0.0000000001
 40
0.0
 40
0.0
 40
0.0
 40
0.0
 40
0.4778731229
 40
1.0
 40
1.0
 40
1.0
 40
1.0
 10
-24.7698651232
 20
213.6682461174
 30
0.0
 10
-24.467515083
 20
213.3102226673
 30
0.0
 10
-23.9935990272
 20
212.4200548512
 30
0.0
 10
-23.8572818095
 20
211.4307923265
 30
0.0
 10
-23.8572818095
 20
210.9187852177
 30
0.0
  0
SPLINE
  5
2FF
100
AcDbEntity
  8
0
100
AcDbSpline
 62
7
  6
CONTINUOUS
 70
0
 71
3
 72
9
 73
5
 74
0
 42
0.0000001
 43
0.0000001
 44
0.0000000001
 40
0.0
 40
0.0
 40
0.0
 40
0.0
 40
0.2436809408
 40
1.0
 40
1.0
 40
1.0
 40
1.0
 10
19.3627997837
 20
256.1851396998
 30
0.0
 10
19.204749966
 20
256.8007818999
 30
0.0
 10
18.6419927703
 20
259.3488854414
 30
0.0
 10
18.4174859957
 20
261.9683026568
 30
0.0
 10
18.4174859957
 20
263.9410502004
 30
0.0
  0
SPLINE
  5
300
100
AcDbEntity
  8
0
100
AcDbSpline
 62
7
  6
CONTINUOUS
 70
0
 71
3
 72
10
 73
6
 74
0
 42
0.0000001
 43
0.0000001
 44
0.0000000001
 40
0.0
 40
0.0
 40
0.0
 40
0.0
 40
0.2415488
 40
0.4869376326
 40
1.0
 40
1.0
 40
1.0
 40
1.0
 10
13.0434022528
 20
204.7142381749
 30
0.0
 10
12.8556005782
 20
204.822736205
 30
0.0
 10
12.4977061442
 20
205.079944838
 30
0.0
 10
11.8811040746
 20
205.7384469165
 30
0.0
 10
11.5654462389
 20
206.362625089
 30
0.0
 10
11.4233250193
 20
206.8008408266
 30
0.0
  0
SPLINE
  5
301
100
AcDbEntity
  8
0
100
AcDbSpline
 62
7
  6
CONTINUOUS
 70
0
 71
3
 72
11
 73
7
 74
0
 42
0.0000001
 43
0.0000001
 44
0.0000000001
 40
0.0
 40
0.0
 40
0.0
 40
0.0
 40
0.271772124
 40
0.5268740629
 40
0.7676338636
 40
1.0
 40
1.0
 40
1.0
 40
1.0
 10
-22.8438538386
 20
210.3334480427
 30
0.0
 10
-22.8438538386
 20
210.6995363205
 30
0.0
 10
-22.9150465668
 20
211.4122739655
 30
0.0
 10
-23.255919833
 20
212.3995839732
 30
0.0
 10
-23.8145895249
 20
213.2210127334
 30
0.0
 10
-24.3201156382
 20
213.6277043585
 30
0.0
 10
-24.5911818298
 20
213.7842175113
 30
0.0
  0
SPLINE
  5
302
100
AcDbEntity
  8
0
100
AcDbSpline
 62
7
  6
CONTINUOUS
 70
0
 71
3
 72
17
 73
13
 74
0
 42
0.0000001
 43
0.0000001
 44
0.0000000001
 40
0.0
 40
0.0
 40
0.0
 40
0.0
 40
0.0394125775
 40
0.0811217338
 40
0.126880819
 40
0.1777298233
 40
0.2954028867
 40
0.4319333202
 40
0.5800819531
 40
0.7304383759
 40
0.8732244342
 40
1.0
 40
1.0
 40
1.0
 40
1.0
 10
-8.5440360191
 20
272.6855376607
 30
0.0
 10
-8.5944816877
 20
272.6720183187
 30
0.0
 10
-8.6946479317
 20
272.628360283
 30
0.0
 10
-8.8256789094
 20
272.5202201405
 30
0.0
 10
-8.9369472233
 20
272.37283125
 30
0.0
 10
-9.0626179844
 20
272.116739104
 30
0.0
 10
-9.1523154066
 20
271.7174007456
 30
0.0
 10
-9.1600739683
 20
271.1818159479
 30
0.0
 10
-9.0725905821
 20
270.6095212328
 30
0.0
 10
-8.8969734818
 20
270.0492911334
 30
0.0
 10
-8.6485274688
 20
269.5489359626
 30
0.0
 10
-8.4315490447
 20
269.2607861152
 30
0.0
 10
-8.3131913196
 20
269.1415701764
 30
0.0
  0
SPLINE
  5
303
100
AcDbEntity
  8
0
100
AcDbSpline
 62
7
  6
CONTINUOUS
 70
0
 71
3
 72
9
 73
5
 74
0
 42
0.0000001
 43
0.0000001
 44
0.0000000001
 40
0.0
 40
0.0
 40
0.0
 40
0.0
 40
0.2668760426
 40
1.0
 40
1.0
 40
1.0
 40
1.0
 10
-8.3131913196
 20
269.1415701764
 30
0.0
 10
-8.2902417736
 20
269.1184542228
 30
0.0
 10
-8.2019218889
 20
269.0342628128
 30
0.0
 10
-8.1036928844
 20
268.959827886
 30
0.0
 10
-8.0262077125
 20
268.9150738897
 30
0.0
  0
SPLINE
  5
304
100
AcDbEntity
  8
0
100
AcDbSpline
 62
7
  6
CONTINUOUS
 70
0
 71
3
 72
9
 73
5
 74
0
 42
0.0000001
 43
0.0000001
 44
0.0000000001
 40
0.0
 40
0.0
 40
0.0
 40
0.0
 40
0.4971059573
 40
1.0
 40
1.0
 40
1.0
 40
1.0
 10
-2.7759221019
 20
250.2501452799
 30
0.0
 10
-3.9915398048
 20
249.0413922624
 30
0.0
 10
-6.2323169162
 20
246.3966984881
 30
0.0
 10
-8.017171234
 20
243.4264520103
 30
0.0
 10
-8.787865467
 20
241.8728511818
 30
0.0
  0
SPLINE
  5
305
100
AcDbEntity
  8
0
100
AcDbSpline
 62
7
  6
CONTINUOUS
 70
0
 71
3
 72
9
 73
5
 74
0
 42
0.0000001
 43
0.0000001
 44
0.0000000001
 40
0.0
 40
0.0
 40
0.0
 40
0.0
 40
0.5105233989
 40
1.0
 40
1.0
 40
1.0
 40
1.0
 10
-8.787865467
 20
241.8728511818
 30
0.0
 10
-7.5518014532
 20
244.3712533741
 30
0.0
 10
-5.641650055
 20
249.5368005579
 30
0.0
 10
-4.9296222456
 20
255.0101967033
 30
0.0
 10
-4.9296222456
 20
257.6827298316
 30
0.0
  0
SPLINE
  5
306
100
AcDbEntity
  8
0
100
AcDbSpline
 62
7
  6
CONTINUOUS
 70
0
 71
3
 72
10
 73
6
 74
0
 42
0.0000001
 43
0.0000001
 44
0.0000000001
 40
0.0
 40
0.0
 40
0.0
 40
0.0
 40
0.5252176711
 40
0.7667927662
 40
1.0
 40
1.0
 40
1.0
 40
1.0
 10
-26.8779430705
 20
210.1090804053
 30
0.0
 10
-26.8779430705
 20
210.332870906
 30
0.0
 10
-26.9434511798
 20
210.6697185048
 30
0.0
 10
-27.1861704982
 20
211.0255971784
 30
0.0
 10
-27.3465991055
 20
211.1548727786
 30
0.0
 10
-27.4326564068
 20
211.2045521474
 30
0.0
  0
SPLINE
  5
307
100
AcDbEntity
  8
0
100
AcDbSpline
 62
7
  6
CONTINUOUS
 70
0
 71
3
 72
12
 73
8
 74
0
 42
0.0000001
 43
0.0000001
 44
0.0000000001
 40
0.0
 40
0.0
 40
0.0
 40
0.0
 40
0.2349933756
 40
0.4894753556
 40
0.6202647794
 40
0.7503870015
 40
1.0
 40
1.0
 40
1.0
 40
1.0
 10
-27.2694738256
 20
259.3841762919
 30
0.0
 10
-26.6623814537
 20
259.5469107307
 30
0.0
 10
-25.46569789
 20
260.1583016775
 30
0.0
 10
-24.2926451762
 20
261.3673559352
 30
0.0
 10
-23.567493544
 20
262.5452404831
 30
0.0
 10
-23.0297778548
 20
263.803551811
 30
0.0
 10
-22.8438538386
 20
264.8258975017
 30
0.0
 10
-22.8438538386
 20
265.4935248486
 30
0.0
  0
SPLINE
  5
308
100
AcDbEntity
  8
0
100
AcDbSpline
 62
7
  6
CONTINUOUS
 70
0
 71
3
 72
11
 73
7
 74
0
 42
0.0000001
 43
0.0000001
 44
0.0000000001
 40
0.0
 40
0.0
 40
0.0
 40
0.0
 40
0.2425222921
 40
0.4955055853
 40
0.7508714104
 40
1.0
 40
1.0
 40
1.0
 40
1.0
 10
-9.8185780144
 20
224.0270803304
 30
0.0
 10
-9.8185780144
 20
226.7087650016
 30
0.0
 10
-9.0946013663
 20
232.2035392992
 30
0.0
 10
-6.164146944
 20
240.0392019499
 30
0.0
 10
-1.5965670485
 20
247.1335965724
 30
0.0
 10
2.4093397177
 20
251.0980265225
 30
0.0
 10
4.587709308
 20
252.7842244443
 30
0.0
  0
SPLINE
  5
309
100
AcDbEntity
  8
0
100
AcDbSpline
 62
7
  6
CONTINUOUS
 70
0
 71
3
 72
11
 73
7
 74
0
 42
0.0000001
 43
0.0000001
 44
0.0000000001
 40
0.0
 40
0.0
 40
0.0
 40
0.0
 40
0.2341347695
 40
0.4778816265
 40
0.7330362395
 40
1.0
 40
1.0
 40
1.0
 40
1.0
 10
-4.5454595281
 20
208.5156320864
 30
0.0
 10
-5.4041119636
 20
209.497938384
 30
0.0
 10
-6.9455027296
 20
211.6962475294
 30
0.0
 10
-8.6016743054
 20
215.4551076705
 30
0.0
 10
-9.6051720315
 20
219.6240678076
 30
0.0
 10
-9.8185780144
 20
222.5394571896
 30
0.0
 10
-9.8185780144
 20
224.0270803304
 30
0.0
  0
SPLINE
  5
30A
100
AcDbEntity
  8
0
100
AcDbSpline
 62
7
  6
CONTINUOUS
 70
0
 71
3
 72
12
 73
8
 74
0
 42
0.0000001
 43
0.0000001
 44
0.0000000001
 40
0.0
 40
0.0
 40
0.0
 40
0.0
 40
0.270526858
 40
0.525727034
 40
0.7672004412
 40
0.8843778561
 40
1.0
 40
1.0
 40
1.0
 40
1.0
 10
-5.4797371724
 20
225.1901377819
 30
0.0
 10
-5.4797371724
 20
223.6395234949
 30
0.0
 10
-5.1994569001
 20
220.615171144
 30
0.0
 10
-3.8687584077
 20
216.3872388885
 30
0.0
 10
-2.020578755
 20
213.3435759088
 30
0.0
 10
-0.1685306214
 20
211.3441957282
 30
0.0
 10
0.8673396654
 20
210.4948405893
 30
0.0
 10
1.4080265258
 20
210.1116118295
 30
0.0
  0
SPLINE
  5
30B
100
AcDbEntity
  8
0
100
AcDbSpline
 62
7
  6
CONTINUOUS
 70
0
 71
3
 72
11
 73
7
 74
0
 42
0.0000001
 43
0.0000001
 44
0.0000000001
 40
0.0
 40
0.0
 40
0.0
 40
0.0
 40
0.2526239412
 40
0.507737701
 40
0.7588089374
 40
1.0
 40
1.0
 40
1.0
 40
1.0
 10
3.6987566016
 20
246.5104911067
 30
0.0
 10
2.2799437924
 20
245.0997281202
 30
0.0
 10
-0.2944598908
 20
241.9724976559
 30
0.0
 10
-3.198775318
 20
236.6725006883
 30
0.0
 10
-5.0339958161
 20
231.0082579848
 30
0.0
 10
-5.4797371724
 20
227.1004079605
 30
0.0
 10
-5.4797371724
 20
225.1901377819
 30
0.0
  0
SPLINE
  5
30C
100
AcDbEntity
  8
0
100
AcDbSpline
 62
7
  6
CONTINUOUS
 70
0
 71
3
 72
13
 73
9
 74
0
 42
0.0000001
 43
0.0000001
 44
0.0000000001
 40
0.0
 40
0.0
 40
0.0
 40
0.0
 40
0.1054216662
 40
0.2162098291
 40
0.3355589934
 40
0.4637550049
 40
0.7347840682
 40
1.0
 40
1.0
 40
1.0
 40
1.0
 10
-29.1331471862
 20
263.4204716902
 30
0.0
 10
-29.029256458
 20
263.3604973972
 30
0.0
 10
-28.7910478722
 20
263.2769443623
 30
0.0
 10
-28.4026939504
 20
263.2829551734
 30
0.0
 10
-28.0101963532
 20
263.4121053079
 30
0.0
 10
-27.5111044321
 20
263.7366408561
 30
0.0
 10
-27.0352372899
 20
264.3538646701
 30
0.0
 10
-26.8779430705
 20
264.9673683985
 30
0.0
 10
-26.8779430705
 20
265.2691572112
 30
0.0
  0
ENDSEC
  0
SECTION
  2
OBJECTS
  0
DICTIONARY
  5
C
100
AcDbDictionary
280
0
281
1
  3
ACAD_GROUP
350
D
  3
ACAD_MLINESTYLE
350
17
  3
ACAD_LAYOUT
350
1A
  3
ACAD_PLOTSETTINGS
350
19
  3
ACAD_PLOTSTYLENAME
350
E
  0
DICTIONARY
  5
D
102
{ACAD_REACTORS
330
C
102
}
100
AcDbDictionary
280
0
281
1
  0
ACDBDICTIONARYWDFLT
  5
E
102
{ACAD_REACTORS
330
C
102
}
100
AcDbDictionary
281
1
  3
Normal
350
F
100
AcDbDictionaryWithDefault
340
F
  0
DICTIONARY
  5
17
102
{ACAD_REACTORS
330
C
102
}
100
AcDbDictionary
280
0
281
1
  3
Standard
350
18
  0
DICTIONARY
  5
19
102
{ACAD_REACTORS
330
C
102
}
100
AcDbDictionary
281
1
  0
DICTIONARY
  5
1A
102
{ACAD_REACTORS
330
C
102
}
100
AcDbDictionary
281
1
  3
Model
350
30D
  3
Layout1
350
30E
  0
ACDBPLACEHOLDER
  5
F
102
{ACAD_REACTORS
330
E
102
}
  0
MLINESTYLE
  5
18
102
{ACAD_REACTORS
330
17
102
}
100
AcDbMlineStyle
  2
STANDARD
 70
0
  3

 62
256
 51
90.0
 52
90.0
 71
2
 49
0.5
 62
256
  6
BYLAYER
 49
-0.5
 62
256
  6
BYLAYER
  0
LAYOUT
  5
30D
102
{ACAD_REACTORS
330
1A
102
}
100
AcDbPlotSettings
  1

  2
none_device
  4
ANSI_C_(22.00_x_17.00_Inches)
  6

 40
0.0
 41
0.0
 42
0.0
 43
0.0
 44
558.8
 45
431.8
 46
0.0
 47
0.0
 48
0.0
 49
0.0
140
0.0
141
0.0
142
1.0
143
1.0
 70
1024
 72
1
 73
0
 74
0
  7

 75
0
147
1.0
148
0.0
149
0.0
100
AcDbLayout
  1
Model
 70
0
 71
0
 10
0.0
 20
0.0
 11
558.8
 21
431.8
 12
0.0
 22
0.0
 32
0.0
 14
0.0
 24
0.0
 34
0.0
 15
0.0
 25
0.0
 35
0.0
146
0.0
 13
0.0
 23
0.0
 33
0.0
 16
1.0
 26
0.0
 36
0.0
 17
0.0
 27
1.0
 37
0.0
 76
0
330
216
345
0
346
0
  0
LAYOUT
  5
30E
102
{ACAD_REACTORS
330
1A
102
}
100
AcDbPlotSettings
  1

  2
none_device
  4
ANSI_C_(22.00_x_17.00_Inches)
  6

 40
0.0
 41
0.0
 42
0.0
 43
0.0
 44
558.8
 45
431.8
 46
0.0
 47
0.0
 48
0.0
 49
0.0
140
0.0
141
0.0
142
1.0
143
1.0
 70
0
 72
1
 73
0
 74
0
  7

 75
0
147
1.0
148
0.0
149
0.0
100
AcDbLayout
  1
Layout1
 70
0
 71
1
 10
0.0
 20
0.0
 11
558.8
 21
431.8
 12
0.0
 22
0.0
 32
0.0
 14
0.0
 24
0.0
 34
0.0
 15
0.0
 25
0.0
 35
0.0
146
0.0
 13
0.0
 23
0.0
 33
0.0
 16
1.0
 26
0.0
 36
0.0
 17
0.0
 27
1.0
 37
0.0
 76
0
330
217
345
0
346
0
  0
ENDSEC
  0
EOF
