999
DXF file: Y:\3D PRATIKA-KAEDRA_OLGA\TRAVAIL_PHASE_5\CAD3D\PKF16G434_3D-Simplified\PKF16G434_2D-isometric.dxf
999
Pro/ENGINEER 2018260 by Parametric Technology Corporation
  0
SECTION
  2
HEADER
  9
$ACADVER
  1
AC1027
  9
$DWGCODEPAGE
  3
ANSI_1252
  9
$EXTMAX
 10
558.8
 20
431.8
 30
0.0
  9
$EXTMIN
 10
0.0
 20
0.0
 30
0.0
  9
$LIMMIN
 10
0.0
 20
0.0
  9
$LIMMAX
 10
558.8
 20
431.8
  9
$VIEWCTR
 10
279.4
 20
215.9
  9
$VIEWSIZE
 40
431.8
  9
$CLAYER
  8
0
  9
$LTSCALE
 40
30.734
  9
$CELTYPE
  6
BYLAYER
  9
$DIMSCALE
 40
1.0
  9
$DIMASZ
 40
0.1875
  9
$DIMEXO
 40
0.0625
  9
$DIMDLI
 40
21.2344
  9
$DIMEXE
 40
0.125
  9
$DIMCEN
 40
5.0292
  9
$DIMLFAC
 40
1.0
  9
$DIMBLK
  1
_CLOSED
  9
$DIMALT
 70
0
  9
$DIMALTF
 40
0.0393700787
  9
$DIMTXT
 40
0.15625
  9
$DIMTOL
 70
0
  9
$DIMLIM
 70
0
  9
$DIMTFAC
 40
1.0
  9
$DIMGAP
 40
0.625
  9
$DIMDSEP
 70
46
  9
$AUNITS
 70
0
  9
$PDMODE
 70
3
  9
$PDSIZE
 40
0.3125
  9
$HANDSEED
  5
30E
  9
$TILEMODE
 70
1
  9
$MEASUREMENT
 70
1
  9
$INSUNITS
 70
4
  0
ENDSEC
  0
SECTION
  2
CLASSES
  0
CLASS
  1
ACDBDICTIONARYWDFLT
  2
AcDbDictionaryWithDefault
  3
AutoCAD 2000
 90
0
 91
1
280
0
281
0
  0
CLASS
  1
ACDBPLACEHOLDER
  2
AcDbPlaceHolder
  3
AutoCAD 2000
 90
0
 91
1
280
0
281
0
  0
CLASS
  1
LAYOUT
  2
AcDbLayout
  3
AutoCAD 2000
 90
0
 91
0
280
0
281
0
  0
ENDSEC
  0
SECTION
  2
TABLES
  0
TABLE
  2
VPORT
  5
8
100
AcDbSymbolTable
 70
2
  0
VPORT
  5
1F4
100
AcDbSymbolTableRecord
100
AcDbViewportTableRecord
  2
*ACTIVE
 70
0
 10
0.0
 20
0.0
 11
1.0
 21
1.0
 12
279.4
 22
215.9
 13
0.0
 23
0.0
 14
1.0
 24
1.0
 15
0.0
 25
0.0
 16
0.0
 26
0.0
 36
1.0
 17
0.0
 27
0.0
 37
0.0
 40
431.8
 41
1.2941176471
 42
50.0
 43
0.0
 44
0.0
 50
0.0
 51
0.0
 71
0
 72
100
 73
1
 74
1
 75
0
 76
0
 77
0
 78
0
  0
ENDTAB
  0
TABLE
  2
LTYPE
  5
5
100
AcDbSymbolTable
 70
6
  0
LTYPE
  5
14
100
AcDbSymbolTableRecord
100
AcDbLinetypeTableRecord
  2
BYBLOCK
 70
0
  3

 72
65
 73
0
 40
0.0
  0
LTYPE
  5
15
100
AcDbSymbolTableRecord
100
AcDbLinetypeTableRecord
  2
BYLAYER
 70
0
  3

 72
65
 73
0
 40
0.0
  0
LTYPE
  5
16
100
AcDbSymbolTableRecord
100
AcDbLinetypeTableRecord
  2
CONTINUOUS
 70
64
  3
Solid line
 72
65
 73
0
 40
0.0
  0
LTYPE
  5
1F5
100
AcDbSymbolTableRecord
100
AcDbLinetypeTableRecord
  2
CENTER
 70
64
  3
____ _ ____ _ ____ _ ____ _ ____ _ ____ _ ____
 72
65
 73
4
 40
0.6
 49
0.375
 74
0
 49
-0.075
 74
0
 49
0.075
 74
0
 49
-0.075
 74
0
  0
LTYPE
  5
1F6
100
AcDbSymbolTableRecord
100
AcDbLinetypeTableRecord
  2
HIDDEN
 70
64
  3
- - - - - - - - - - - - - - - - - - - -
 72
65
 73
2
 40
0.2
 49
0.1
 74
0
 49
-0.1
 74
0
  0
LTYPE
  5
1F7
100
AcDbSymbolTableRecord
100
AcDbLinetypeTableRecord
  2
PHANTOM
 70
64
  3
_____ _ _ _____ _ _ _____ _ _ _____
 72
65
 73
6
 40
0.8
 49
0.45
 74
0
 49
-0.05
 74
0
 49
0.1
 74
0
 49
-0.05
 74
0
 49
0.1
 74
0
 49
-0.05
 74
0
  0
LTYPE
  5
1F8
100
AcDbSymbolTableRecord
100
AcDbLinetypeTableRecord
  2
DOT
 70
64
  3
. . . . . . . . . . . . . . . . . . . .
 72
65
 73
2
 40
0.2
 49
0.1
 74
0
 49
-0.1
 74
0
  0
LTYPE
  5
1F9
100
AcDbSymbolTableRecord
100
AcDbLinetypeTableRecord
  2
DASHED
 70
64
  3
- - - - - - - - - - - - - - - - - - - -
 72
65
 73
2
 40
0.2
 49
0.1
 74
0
 49
-0.1
 74
0
  0
ENDTAB
  0
TABLE
  2
LAYER
  5
2
100
AcDbSymbolTable
 70
36
  0
LAYER
  5
10
100
AcDbSymbolTableRecord
100
AcDbLayerTableRecord
  2
0
 70
0
 62
7
  6
CONTINUOUS
370
-3
390
F
  0
LAYER
  5
1FA
100
AcDbSymbolTableRecord
100
AcDbLayerTableRecord
  2
DEFAULT_1
 70
0
 62
7
  6
CENTER
370
-3
390
F
  0
LAYER
  5
1FB
100
AcDbSymbolTableRecord
100
AcDbLayerTableRecord
  2
DEFAULT_2
 70
0
 62
8
  6
HIDDEN
370
-3
390
F
  0
LAYER
  5
1FC
100
AcDbSymbolTableRecord
100
AcDbLayerTableRecord
  2
DEFAULT_3
 70
0
 62
7
  6
PHANTOM
370
-3
390
F
  0
LAYER
  5
1FD
100
AcDbSymbolTableRecord
100
AcDbLayerTableRecord
  2
01_ALL_DTM_PLN
 70
0
 62
7
  6
CONTINUOUS
370
-3
390
F
  0
LAYER
  5
1FE
100
AcDbSymbolTableRecord
100
AcDbLayerTableRecord
  2
01__ASM_ALL_DTM_PLN
 70
0
 62
7
  6
CONTINUOUS
370
-3
390
F
  0
LAYER
  5
1FF
100
AcDbSymbolTableRecord
100
AcDbLayerTableRecord
  2
01__ASM_DEF_DTM_PLN
 70
0
 62
7
  6
CONTINUOUS
370
-3
390
F
  0
LAYER
  5
200
100
AcDbSymbolTableRecord
100
AcDbLayerTableRecord
  2
01___PRT_ALL_DTM_PLN
 70
0
 62
7
  6
CONTINUOUS
370
-3
390
F
  0
LAYER
  5
201
100
AcDbSymbolTableRecord
100
AcDbLayerTableRecord
  2
01___PRT_DEF_DTM_PLN
 70
0
 62
7
  6
CONTINUOUS
370
-3
390
F
  0
LAYER
  5
202
100
AcDbSymbolTableRecord
100
AcDbLayerTableRecord
  2
02_ALL_AXES
 70
0
 62
7
  6
CONTINUOUS
370
-3
390
F
  0
LAYER
  5
203
100
AcDbSymbolTableRecord
100
AcDbLayerTableRecord
  2
02__ASM_ALL_AXES
 70
0
 62
7
  6
CONTINUOUS
370
-3
390
F
  0
LAYER
  5
204
100
AcDbSymbolTableRecord
100
AcDbLayerTableRecord
  2
02___PRT_ALL_AXES
 70
0
 62
7
  6
CONTINUOUS
370
-3
390
F
  0
LAYER
  5
205
100
AcDbSymbolTableRecord
100
AcDbLayerTableRecord
  2
03_ALL_CURVES
 70
0
 62
7
  6
CONTINUOUS
370
-3
390
F
  0
LAYER
  5
206
100
AcDbSymbolTableRecord
100
AcDbLayerTableRecord
  2
03__ASM_ALL_CURVES
 70
0
 62
7
  6
CONTINUOUS
370
-3
390
F
  0
LAYER
  5
207
100
AcDbSymbolTableRecord
100
AcDbLayerTableRecord
  2
03___PRT_ALL_CURVES
 70
0
 62
7
  6
CONTINUOUS
370
-3
390
F
  0
LAYER
  5
208
100
AcDbSymbolTableRecord
100
AcDbLayerTableRecord
  2
04_ALL_DTM_PNT
 70
0
 62
7
  6
CONTINUOUS
370
-3
390
F
  0
LAYER
  5
209
100
AcDbSymbolTableRecord
100
AcDbLayerTableRecord
  2
04__ASM_ALL_DTM_PNT
 70
0
 62
7
  6
CONTINUOUS
370
-3
390
F
  0
LAYER
  5
20A
100
AcDbSymbolTableRecord
100
AcDbLayerTableRecord
  2
04___PRT_ALL_DTM_PNT
 70
0
 62
7
  6
CONTINUOUS
370
-3
390
F
  0
LAYER
  5
20B
100
AcDbSymbolTableRecord
100
AcDbLayerTableRecord
  2
05_ALL_DTM_CSYS
 70
0
 62
7
  6
CONTINUOUS
370
-3
390
F
  0
LAYER
  5
20C
100
AcDbSymbolTableRecord
100
AcDbLayerTableRecord
  2
05__ASM_ALL_DTM_CSYS
 70
0
 62
7
  6
CONTINUOUS
370
-3
390
F
  0
LAYER
  5
20D
100
AcDbSymbolTableRecord
100
AcDbLayerTableRecord
  2
05__ASM_DEF_DTM_CSYS
 70
0
 62
7
  6
CONTINUOUS
370
-3
390
F
  0
LAYER
  5
20E
100
AcDbSymbolTableRecord
100
AcDbLayerTableRecord
  2
05___PRT_ALL_DTM_CSYS
 70
0
 62
7
  6
CONTINUOUS
370
-3
390
F
  0
LAYER
  5
20F
100
AcDbSymbolTableRecord
100
AcDbLayerTableRecord
  2
05___PRT_DEF_DTM_CSYS
 70
0
 62
7
  6
CONTINUOUS
370
-3
390
F
  0
LAYER
  5
210
100
AcDbSymbolTableRecord
100
AcDbLayerTableRecord
  2
06_ALL_SURFS
 70
0
 62
7
  6
CONTINUOUS
370
-3
390
F
  0
LAYER
  5
211
100
AcDbSymbolTableRecord
100
AcDbLayerTableRecord
  2
06__ASM_ALL_SURFS
 70
0
 62
7
  6
CONTINUOUS
370
-3
390
F
  0
LAYER
  5
212
100
AcDbSymbolTableRecord
100
AcDbLayerTableRecord
  2
06___PRT_ALL_SURFS
 70
0
 62
7
  6
CONTINUOUS
370
-3
390
F
  0
LAYER
  5
213
100
AcDbSymbolTableRecord
100
AcDbLayerTableRecord
  2
07__ASM_ALL_SKELETONS
 70
0
 62
7
  6
CONTINUOUS
370
-3
390
F
  0
ENDTAB
  0
TABLE
  2
STYLE
  5
3
100
AcDbSymbolTable
 70
1
  0
STYLE
  5
11
100
AcDbSymbolTableRecord
100
AcDbTextStyleTableRecord
  2
STANDARD
 70
0
 40
0.0
 41
0.8
 50
0.0
 71
0
 42
0.2
  3
txt
  4

  0
STYLE
  5
214
100
AcDbSymbolTableRecord
100
AcDbTextStyleTableRecord
  2
TEXTSTYLE_1
 70
0
 40
0.0
 41
0.8
 50
0.0
 71
0
 42
0.2
  3
gdt
  4

  0
ENDTAB
  0
TABLE
  2
VIEW
  5
6
100
AcDbSymbolTable
 70
0
  0
ENDTAB
  0
TABLE
  2
UCS
  5
7
100
AcDbSymbolTable
 70
0
  0
ENDTAB
  0
TABLE
  2
APPID
  5
9
100
AcDbSymbolTable
 70
1
  0
APPID
  5
215
100
AcDbSymbolTableRecord
100
AcDbRegAppTableRecord
  2
ACAD
 70
0
  0
ENDTAB
  0
TABLE
  2
BLOCK_RECORD
  5
1
100
AcDbSymbolTable
 70
0
  0
BLOCK_RECORD
  5
216
100
AcDbSymbolTableRecord
100
AcDbBlockTableRecord
  2
*Model_Space
  0
BLOCK_RECORD
  5
217
100
AcDbSymbolTableRecord
100
AcDbBlockTableRecord
  2
*Paper_Space
  0
BLOCK_RECORD
  5
218
100
AcDbSymbolTableRecord
100
AcDbBlockTableRecord
  2
_CLOSED
  0
ENDTAB
  0
TABLE
  2
DIMSTYLE
  5
A
100
AcDbSymbolTable
 70
1
100
AcDbDimStyleTable
 71
0
  0
DIMSTYLE
105
219
100
AcDbSymbolTableRecord
100
AcDbDimStyleTableRecord
  2
STANDARD
 70
0
  3

  4

 40
1.0
 41
0.1875
 42
0.0625
 43
0.38
 44
0.125
 45
0.0
 46
0.0
 47
0.01
 48
0.01
140
0.15625
141
0.09
142
0.0
143
25.4
144
1.0
145
0.0
146
1.0
147
0.625
 71
0.0
 72
0.0
 73
1
 74
1
 75
0
 76
0
 77
0
 78
8
 79
2
170
0
171
1
172
0
173
0
174
0
175
0
176
0
177
0
178
0
270
2
179
2
271
2
272
2
273
2
274
2
275
0
280
0
281
0
282
0
283
1
284
8
285
0
286
0
287
3
288
0
340
11
278
46
341
218
342
218
343
218
344
218
  0
ENDTAB
  0
ENDSEC
  0
SECTION
  2
BLOCKS
  0
BLOCK
  5
20
100
AcDbEntity
  8
0
100
AcDbBlockBegin
  2
*Model_Space
 70
0
 10
0.0
 20
0.0
 30
0.0
  3
*Model_Space
  1

  0
ENDBLK
  5
21
100
AcDbEntity
  8
0
100
AcDbBlockEnd
  0
BLOCK
  5
1C
100
AcDbEntity
  8
0
100
AcDbBlockBegin
  2
*Paper_Space
 70
0
 10
0.0
 20
0.0
 30
0.0
  3
*Paper_Space
  1

  0
ENDBLK
  5
1D
100
AcDbEntity
  8
0
100
AcDbBlockEnd
  0
BLOCK
  5
21A
100
AcDbEntity
  8
0
100
AcDbBlockBegin
  2
_CLOSED
 70
64
 10
0.0
 20
0.0
  3
_CLOSED
  1

  0
LINE
  5
21B
100
AcDbEntity
  8
0
  6
BYBLOCK
 62
0
100
AcDbLine
 10
0.0
 20
0.0
 11
-1.0
 21
0.1666666667
  0
LINE
  5
21C
100
AcDbEntity
  8
0
  6
BYBLOCK
 62
0
100
AcDbLine
 10
-1.0
 20
0.1666666667
 11
-1.0
 21
-0.1666666667
  0
LINE
  5
21D
100
AcDbEntity
  8
0
  6
BYBLOCK
 62
0
100
AcDbLine
 10
-1.0
 20
-0.1666666667
 11
0.0
 21
0.0
  0
LINE
  5
21E
100
AcDbEntity
  8
0
  6
BYBLOCK
 62
0
100
AcDbLine
 10
-1.0
 20
0.0
 11
0.0
 21
0.0
  0
ENDBLK
  5
21F
100
AcDbEntity
  8
0
  6
BYBLOCK
 62
0
100
AcDbBlockEnd
  0
ENDSEC
  0
SECTION
  2
ENTITIES
  0
LINE
  5
220
100
AcDbEntity
  8
0
100
AcDbLine
 62
7
  6
CONTINUOUS
 10
-13.3593156156
 20
207.1374064323
 11
12.6214383432
 21
214.1016899751
  0
LINE
  5
221
100
AcDbEntity
  8
0
100
AcDbLine
 62
7
  6
CONTINUOUS
 10
-18.5049751337
 20
206.6150762854
 11
-14.3727435865
 21
207.7227436073
  0
LINE
  5
222
100
AcDbEntity
  8
0
100
AcDbLine
 62
7
  6
CONTINUOUS
 10
2.1133598477
 20
214.5396615955
 11
8.8768229406
 21
216.3526449595
  0
LINE
  5
223
100
AcDbEntity
  8
0
100
AcDbLine
 62
7
  6
CONTINUOUS
 10
9.3214430493
 20
275.7275977659
 11
8.7920013867
 21
275.1662779712
  0
LINE
  5
224
100
AcDbEntity
  8
0
100
AcDbLine
 62
7
  6
CONTINUOUS
 10
10.2023709336
 20
275.0248823683
 11
10.9109994206
 21
275.7761779782
  0
LINE
  5
225
100
AcDbEntity
  8
0
100
AcDbLine
 62
7
  6
CONTINUOUS
 10
-22.863448174
 20
220.678127327
 11
-17.4915471627
 21
222.1180948455
  0
LINE
  5
226
100
AcDbEntity
  8
0
100
AcDbLine
 62
7
  6
CONTINUOUS
 10
-23.8391084076
 20
208.1653427084
 11
-21.7559509117
 21
206.9621496266
  0
LINE
  5
227
100
AcDbEntity
  8
0
100
AcDbLine
 62
7
  6
CONTINUOUS
 10
-25.9600336408
 20
212.353976836
 11
-23.8768761449
 21
211.1507837542
  0
LINE
  5
228
100
AcDbEntity
  8
0
100
AcDbLine
 62
7
  6
CONTINUOUS
 10
-13.3593156156
 20
207.1374064323
 11
-14.3727435865
 21
207.7227436073
  0
LINE
  5
229
100
AcDbEntity
  8
0
100
AcDbLine
 62
7
  6
CONTINUOUS
 10
-25.9600336408
 20
212.353976836
 11
-25.9600336408
 21
278.5460690031
  0
LINE
  5
22A
100
AcDbEntity
  8
0
100
AcDbLine
 62
7
  6
CONTINUOUS
 10
-22.863448174
 20
220.678127327
 11
-23.8768761449
 21
221.2634645019
  0
LINE
  5
22B
100
AcDbEntity
  8
0
100
AcDbLine
 62
7
  6
CONTINUOUS
 10
-13.3593156156
 20
218.6290891002
 11
-14.3727435865
 21
219.2144262752
  0
LINE
  5
22C
100
AcDbEntity
  8
0
100
AcDbLine
 62
7
  6
CONTINUOUS
 10
-23.8768761449
 20
277.3428759212
 11
-23.8768761449
 21
267.2301951735
  0
LINE
  5
22D
100
AcDbEntity
  8
0
100
AcDbLine
 62
7
  6
CONTINUOUS
 10
-23.8768761449
 20
221.2634645019
 11
-23.8768761449
 21
211.1507837542
  0
LINE
  5
22E
100
AcDbEntity
  8
0
100
AcDbLine
 62
7
  6
CONTINUOUS
 10
-22.863448174
 20
266.6448579986
 11
-22.863448174
 21
220.678127327
  0
LINE
  5
22F
100
AcDbEntity
  8
0
100
AcDbLine
 62
7
  6
CONTINUOUS
 10
-14.3727435865
 20
207.7227436073
 11
-14.3727435865
 21
219.2144262752
  0
LINE
  5
230
100
AcDbEntity
  8
0
100
AcDbLine
 62
7
  6
CONTINUOUS
 10
-14.3727435865
 20
274.374503081
 11
-14.3727435865
 21
285.8661857489
  0
LINE
  5
231
100
AcDbEntity
  8
0
100
AcDbLine
 62
7
  6
CONTINUOUS
 10
46.978832718
 20
263.4443097
 11
40.3247828742
 21
261.6606551574
  0
LINE
  5
232
100
AcDbEntity
  8
0
100
AcDbLine
 62
7
  6
CONTINUOUS
 10
45.7279220375
 20
264.1667648096
 11
39.1813438351
 21
262.411887296
  0
LINE
  5
233
100
AcDbEntity
  8
0
100
AcDbLine
 62
7
  6
CONTINUOUS
 10
56.5592434426
 20
267.7358854095
 11
52.0137887407
 21
266.5174513554
  0
LINE
  5
234
100
AcDbEntity
  8
0
100
AcDbLine
 62
7
  6
CONTINUOUS
 10
24.5461240715
 20
207.9644498934
 11
22.11949348
 21
209.3650422904
  0
LINE
  5
235
100
AcDbEntity
  8
0
100
AcDbLine
 62
7
  6
CONTINUOUS
 10
0.8626794451
 20
215.2620904067
 11
2.1133598477
 21
214.5396615955
  0
LINE
  5
236
100
AcDbEntity
  8
0
100
AcDbLine
 62
7
  6
CONTINUOUS
 10
11.8680118466
 20
214.4417099297
 11
8.6600870499
 21
216.2945477157
  0
LINE
  5
237
100
AcDbEntity
  8
0
100
AcDbLine
 62
7
  6
CONTINUOUS
 10
-3.4248809042
 20
223.2746007675
 11
-9.8080864213
 21
226.9614217271
  0
LINE
  5
238
100
AcDbEntity
  8
0
100
AcDbLine
 62
7
  6
CONTINUOUS
 10
-13.3593156156
 20
285.280848574
 11
-13.3593156156
 21
273.7891659061
  0
LINE
  5
239
100
AcDbEntity
  8
0
100
AcDbLine
 62
7
  6
CONTINUOUS
 10
-13.3593156156
 20
207.1374064323
 11
-13.3593156156
 21
218.6290891002
  0
LINE
  5
23A
100
AcDbEntity
  8
0
100
AcDbLine
 62
7
  6
CONTINUOUS
 10
-9.2270840684
 20
277.8467291804
 11
-9.2270840684
 21
276.6226675767
  0
LINE
  5
23B
100
AcDbEntity
  8
0
100
AcDbLine
 62
7
  6
CONTINUOUS
 10
3.3906870025
 20
284.7087841121
 11
5.8199235081
 21
297.8196727921
  0
LINE
  5
23C
100
AcDbEntity
  8
0
100
AcDbLine
 62
7
  6
CONTINUOUS
 10
19.1684893193
 20
212.3494604018
 11
22.921329492
 21
210.1818896147
  0
LINE
  5
23D
100
AcDbEntity
  8
0
100
AcDbLine
 62
7
  6
CONTINUOUS
 10
22.7933116503
 20
214.4858700086
 11
6.4880525345
 21
223.9034848574
  0
LINE
  5
23E
100
AcDbEntity
  8
0
100
AcDbLine
 62
7
  6
CONTINUOUS
 10
5.4625988177
 20
226.9179601639
 11
16.2321682958
 21
220.6976568427
  0
LINE
  5
23F
100
AcDbEntity
  8
0
100
AcDbLine
 62
7
  6
CONTINUOUS
 10
28.5509986503
 20
216.0292495765
 11
23.120968197
 21
219.1655343214
  0
LINE
  5
240
100
AcDbEntity
  8
0
100
AcDbLine
 62
7
  6
CONTINUOUS
 10
5.6928277264
 20
276.6218836647
 11
5.6928277264
 21
268.0052036123
  0
LINE
  5
241
100
AcDbEntity
  8
0
100
AcDbLine
 62
7
  6
CONTINUOUS
 10
9.4334971639
 20
274.5490072601
 11
8.7920013867
 21
274.3770507999
  0
LINE
  5
242
100
AcDbEntity
  8
0
100
AcDbLine
 62
7
  6
CONTINUOUS
 10
8.7920013867
 20
274.6468250786
 11
10.2023709336
 21
275.0248823683
  0
LINE
  5
243
100
AcDbEntity
  8
0
100
AcDbLine
 62
7
  6
CONTINUOUS
 10
-22.863448174
 20
266.6448579986
 11
-17.4915471627
 21
268.084825517
  0
LINE
  5
244
100
AcDbEntity
  8
0
100
AcDbLine
 62
7
  6
CONTINUOUS
 10
9.3214430493
 20
275.7275977658
 11
10.4877161597
 21
276.0402236674
  0
LINE
  5
245
100
AcDbEntity
  8
0
100
AcDbLine
 62
7
  6
CONTINUOUS
 10
-23.8768761449
 20
267.2301951735
 11
-18.5049751337
 21
268.670162692
  0
LINE
  5
246
100
AcDbEntity
  8
0
100
AcDbLine
 62
7
  6
CONTINUOUS
 10
8.5414426398
 20
277.3854705103
 11
5.6928277264
 21
276.6218836647
  0
LINE
  5
247
100
AcDbEntity
  8
0
100
AcDbLine
 62
7
  6
CONTINUOUS
 10
8.7920013867
 20
268.8360562826
 11
8.7920013867
 21
277.1993131286
  0
LINE
  5
248
100
AcDbEntity
  8
0
100
AcDbLine
 62
7
  6
CONTINUOUS
 10
9.3214430493
 20
275.7275977659
 11
9.3214430493
 21
276.8101576081
  0
LINE
  5
249
100
AcDbEntity
  8
0
100
AcDbLine
 62
7
  6
CONTINUOUS
 10
1.8250357441
 20
283.7528659489
 11
4.9242094044
 21
284.5836164403
  0
LINE
  5
24A
100
AcDbEntity
  8
0
100
AcDbLine
 62
7
  6
CONTINUOUS
 10
3.4395541258
 20
284.9725259964
 11
2.3173226833
 21
284.6717057055
  0
LINE
  5
24B
100
AcDbEntity
  8
0
100
AcDbLine
 62
7
  6
CONTINUOUS
 10
3.4660302543
 20
285.1154209239
 11
-2.3293055612
 21
283.5619493846
  0
LINE
  5
24C
100
AcDbEntity
  8
0
100
AcDbLine
 62
7
  6
CONTINUOUS
 10
-22.863448174
 20
266.6448579986
 11
-23.8768761449
 21
267.2301951735
  0
LINE
  5
24D
100
AcDbEntity
  8
0
100
AcDbLine
 62
7
  6
CONTINUOUS
 10
0.8918219511
 20
254.1837862018
 11
-13.4792834861
 21
262.4842698063
  0
LINE
  5
24E
100
AcDbEntity
  8
0
100
AcDbLine
 62
7
  6
CONTINUOUS
 10
24.5461240715
 20
209.7771808762
 11
24.5461240715
 21
207.9644498934
  0
LINE
  5
24F
100
AcDbEntity
  8
0
100
AcDbLine
 62
7
  6
CONTINUOUS
 10
22.11949348
 20
209.3650422904
 11
22.1499353838
 21
210.6274325255
  0
LINE
  5
250
100
AcDbEntity
  8
0
100
AcDbLine
 62
7
  6
CONTINUOUS
 10
-13.3593156156
 20
285.280848574
 11
4.3776099263
 21
290.0353287114
  0
LINE
  5
251
100
AcDbEntity
  8
0
100
AcDbLine
 62
7
  6
CONTINUOUS
 10
-14.3727435865
 20
285.8661857489
 11
-18.5049751337
 21
284.758518427
  0
LINE
  5
252
100
AcDbEntity
  8
0
100
AcDbLine
 62
7
  6
CONTINUOUS
 10
-20.5881326295
 20
285.9617115088
 11
4.888148511
 21
292.7907683469
  0
LINE
  5
253
100
AcDbEntity
  8
0
100
AcDbLine
 62
7
  6
CONTINUOUS
 10
32.8532269217
 20
303.4841241812
 11
31.6705225748
 21
303.1670937967
  0
LINE
  5
254
100
AcDbEntity
  8
0
100
AcDbLine
 62
7
  6
CONTINUOUS
 10
13.0185154955
 20
298.167321036
 11
14.2012198426
 21
298.4843514208
  0
LINE
  5
255
100
AcDbEntity
  8
0
100
AcDbLine
 62
7
  6
CONTINUOUS
 10
27.9182248165
 20
305.1624356637
 11
8.0835133902
 21
299.8456325185
  0
LINE
  5
256
100
AcDbEntity
  8
0
100
AcDbLine
 62
7
  6
CONTINUOUS
 10
27.077236256
 20
305.193277776
 11
7.2446833554
 21
299.8733356887
  0
LINE
  5
257
100
AcDbEntity
  8
0
100
AcDbLine
 62
7
  6
CONTINUOUS
 10
-17.4915471627
 20
268.084825517
 11
-18.5049751337
 21
268.670162692
  0
LINE
  5
258
100
AcDbEntity
  8
0
100
AcDbLine
 62
7
  6
CONTINUOUS
 10
-23.8768761449
 20
277.3428759212
 11
-25.9600336408
 21
278.5460690031
  0
LINE
  5
259
100
AcDbEntity
  8
0
100
AcDbLine
 62
7
  6
CONTINUOUS
 10
-14.3727435865
 20
274.374503081
 11
-13.3593156156
 21
273.7891659061
  0
LINE
  5
25A
100
AcDbEntity
  8
0
100
AcDbLine
 62
7
  6
CONTINUOUS
 10
-9.2270840684
 20
276.6226675767
 11
5.6928277264
 21
268.0052036123
  0
LINE
  5
25B
100
AcDbEntity
  8
0
100
AcDbLine
 62
7
  6
CONTINUOUS
 10
14.4191891612
 20
265.1879451054
 11
12.0429259078
 21
266.5604306293
  0
LINE
  5
25C
100
AcDbEntity
  8
0
100
AcDbLine
 62
7
  6
CONTINUOUS
 10
-20.5881326295
 20
285.9617115088
 11
-18.5049751337
 21
284.758518427
  0
LINE
  5
25D
100
AcDbEntity
  8
0
100
AcDbLine
 62
7
  6
CONTINUOUS
 10
25.4440141165
 20
261.5697111876
 11
36.2381730837
 21
255.3352054342
  0
LINE
  5
25E
100
AcDbEntity
  8
0
100
AcDbLine
 62
7
  6
CONTINUOUS
 10
-13.3593156156
 20
285.280848574
 11
-14.3727435865
 21
285.8661857489
  0
LINE
  5
25F
100
AcDbEntity
  8
0
100
AcDbLine
 62
7
  6
CONTINUOUS
 10
32.6922317493
 20
303.2603093871
 11
32.6705716628
 21
303.2584834822
  0
LINE
  5
260
100
AcDbEntity
  8
0
100
AcDbLine
 62
7
  6
CONTINUOUS
 10
45.7277731948
 20
264.1666400417
 11
46.978832718
 21
263.4443097
  0
LINE
  5
261
100
AcDbEntity
  8
0
100
AcDbLine
 62
7
  6
CONTINUOUS
 10
30.0339420222
 20
267.3795604629
 11
22.8878870174
 21
271.5069891193
  0
LINE
  5
262
100
AcDbEntity
  8
0
100
AcDbLine
 62
7
  6
CONTINUOUS
 10
39.0438897205
 20
262.4912782398
 11
32.7201119809
 21
266.1437748189
  0
LINE
  5
263
100
AcDbEntity
  8
0
100
AcDbLine
 62
7
  6
CONTINUOUS
 10
49.4675547769
 20
274.3942131855
 11
49.4675547769
 21
276.0850077888
  0
LINE
  5
264
100
AcDbEntity
  8
0
100
AcDbLine
 62
7
  6
CONTINUOUS
 10
52.0137887407
 20
266.5174513554
 11
52.0137876353
 21
270.8927174098
  0
LINE
  5
265
100
AcDbEntity
  8
0
100
AcDbLine
 62
7
  6
CONTINUOUS
 10
8.0835133902
 20
299.8456325185
 11
13.0185154955
 21
298.167321036
  0
LINE
  5
266
100
AcDbEntity
  8
0
100
AcDbLine
 62
7
  6
CONTINUOUS
 10
52.0137887407
 20
266.5174513554
 11
50.6062498922
 21
267.3304196539
  0
LINE
  5
267
100
AcDbEntity
  8
0
100
AcDbLine
 62
7
  6
CONTINUOUS
 10
46.6379994206
 20
276.028515212
 11
49.4675547769
 21
274.3942131855
  0
LINE
  5
268
100
AcDbEntity
  8
0
100
AcDbLine
 62
7
  6
CONTINUOUS
 10
56.5592434426
 20
267.7358854095
 11
56.5592434445
 21
271.7924699645
  0
LINE
  5
269
100
AcDbEntity
  8
0
100
AcDbLine
 62
7
  6
CONTINUOUS
 10
32.8532269217
 20
303.4841241812
 11
27.9182248165
 21
305.1624356637
  0
LINE
  5
26A
100
AcDbEntity
  8
0
100
AcDbLine
 62
7
  6
CONTINUOUS
 10
13.3386687356
 20
297.9824064703
 11
13.0185154955
 21
298.167321036
  0
LINE
  5
26B
100
AcDbEntity
  8
0
100
AcDbLine
 62
7
  6
CONTINUOUS
 10
50.6062498922
 20
267.3304196539
 11
50.1141230257
 21
270.613672569
  0
LINE
  5
26C
100
AcDbEntity
  8
0
100
AcDbLine
 62
7
  6
CONTINUOUS
 10
69.3022662031
 20
281.401810934
 11
69.3022662031
 21
279.7110163307
  0
LINE
  5
26D
100
AcDbEntity
  8
0
100
AcDbLine
 62
7
  6
CONTINUOUS
 10
33.1733801618
 20
303.2992096155
 11
32.8532269217
 21
303.4841241812
  0
ARC
  5
26E
100
AcDbEntity
  8
0
100
AcDbCircle
 62
7
  6
CONTINUOUS
 10
-36.1977750915
 20
155.4009870947
 40
164.3364424628
100
AcDbArc
 50
50.0606817153
 51
52.0647083816
  0
ARC
  5
26F
100
AcDbEntity
  8
0
100
AcDbCircle
 62
7
  6
CONTINUOUS
 10
-54.8260555358
 20
151.5773399124
 40
162.417106587
100
AcDbArc
 50
50.0488393684
 51
52.0765507285
  0
ARC
  5
270
100
AcDbEntity
  8
0
100
AcDbCircle
 62
7
  6
CONTINUOUS
 10
38.9046599023
 20
227.4880205881
 40
76.1425831056
100
AcDbArc
 50
94.3248787992
 51
94.4433292687
  0
ARC
  5
271
100
AcDbEntity
  8
0
100
AcDbCircle
 62
7
  6
CONTINUOUS
 10
38.8744980128
 20
229.788270527
 40
73.7316818635
100
AcDbArc
 50
94.434679314
 51
94.8097931575
  0
ARC
  5
272
100
AcDbEntity
  8
0
100
AcDbCircle
 62
7
  6
CONTINUOUS
 10
38.785994997
 20
230.8219867968
 40
72.6941844621
100
AcDbArc
 50
94.8257306719
 51
95.6172356614
  0
ARC
  5
273
100
AcDbEntity
  8
0
100
AcDbCircle
 62
7
  6
CONTINUOUS
 10
38.4064366599
 20
234.4344088511
 40
69.0619614433
100
AcDbArc
 50
95.5972054426
 51
98.0678723393
  0
ARC
  5
274
100
AcDbEntity
  8
0
100
AcDbCircle
 62
7
  6
CONTINUOUS
 10
3.7162720495
 20
269.6570920493
 40
43.3920427207
100
AcDbArc
 50
8.4435025665
 51
9.5289688536
  0
ARC
  5
275
100
AcDbEntity
  8
0
100
AcDbCircle
 62
7
  6
CONTINUOUS
 10
46.6430852685
 20
283.2581981603
 40
26.4420114528
100
AcDbArc
 50
0.0069442092
 51
17.2272372249
  0
ARC
  5
276
100
AcDbEntity
  8
0
100
AcDbCircle
 62
7
  6
CONTINUOUS
 10
31.5270969625
 20
283.2581998005
 40
26.4420006294
100
AcDbArc
 50
162.7727592369
 51
179.9930593419
  0
ARC
  5
277
100
AcDbEntity
  8
0
100
AcDbCircle
 62
7
  6
CONTINUOUS
 10
24.5263429924
 20
279.7493926067
 40
21.3917472364
100
AcDbArc
 50
118.8598333078
 51
121.533043073
  0
ARC
  5
278
100
AcDbEntity
  8
0
100
AcDbCircle
 62
7
  6
CONTINUOUS
 10
24.1056977055
 20
302.5354765073
 40
20.5652152661
100
AcDbArc
 50
238.3431974696
 51
239.9956887226
  0
ARC
  5
279
100
AcDbEntity
  8
0
100
AcDbCircle
 62
7
  6
CONTINUOUS
 10
22.9407453854
 20
282.3420870804
 40
18.3526419518
100
AcDbArc
 50
121.5470531425
 51
123.9579347363
  0
ARC
  5
27A
100
AcDbEntity
  8
0
100
AcDbCircle
 62
7
  6
CONTINUOUS
 10
24.7119758518
 20
252.2740722276
 40
16.0155892413
100
AcDbArc
 50
59.9985760642
 51
70.5916178915
  0
ARC
  5
27B
100
AcDbEntity
  8
0
100
AcDbCircle
 62
7
  6
CONTINUOUS
 10
31.5086318318
 20
248.4461828331
 40
15.9309293323
100
AcDbArc
 50
56.5434890193
 51
59.9909021388
  0
ARC
  5
27C
100
AcDbEntity
  8
0
100
AcDbCircle
 62
7
  6
CONTINUOUS
 10
2.3411179878
 20
228.419303566
 40
4.570030628
100
AcDbArc
 50
320.947453642
 51
333.288138183
  0
ARC
  5
27D
100
AcDbEntity
  8
0
100
AcDbCircle
 62
7
  6
CONTINUOUS
 10
26.4840186959
 20
214.1673513986
 40
3.7044260826
100
AcDbArc
 50
175.067431793
 51
179.9716334662
  0
ARC
  5
27E
100
AcDbEntity
  8
0
100
AcDbCircle
 62
7
  6
CONTINUOUS
 10
24.8602916047
 20
215.7217536934
 40
3.7044260826
100
AcDbArc
 50
355.067431793
 51
359.9716334662
  0
ARC
  5
27F
100
AcDbEntity
  8
0
100
AcDbCircle
 62
7
  6
CONTINUOUS
 10
25.0914609844
 20
215.7208521412
 40
3.4732563741
100
AcDbArc
 50
359.984617725
 51
5.0941164699
  0
ARC
  5
280
100
AcDbEntity
  8
0
100
AcDbCircle
 62
7
  6
CONTINUOUS
 10
-17.5942695633
 20
219.7804421826
 40
3.1014430723
100
AcDbArc
 50
38.9208690554
 51
41.6110697332
  0
ARC
  5
281
100
AcDbEntity
  8
0
100
AcDbCircle
 62
7
  6
CONTINUOUS
 10
-17.5274024914
 20
219.840735031
 40
3.0114099447
100
AcDbArc
 50
41.5982331082
 51
49.1210028915
  0
ARC
  5
282
100
AcDbEntity
  8
0
100
AcDbCircle
 62
7
  6
CONTINUOUS
 10
2.9730069709
 20
277.0076342626
 40
0.5474994856
100
AcDbArc
 50
272.4289136332
 51
284.9307052385
  0
ARC
  5
283
100
AcDbEntity
  8
0
100
AcDbCircle
 62
7
  6
CONTINUOUS
 10
2.2192780273
 20
279.81454586
 40
0.5461351506
100
AcDbArc
 50
92.4138854997
 51
104.947009238
  0
SPLINE
  5
284
100
AcDbEntity
  8
0
100
AcDbSpline
 62
7
  6
CONTINUOUS
 70
0
 71
3
 72
20
 73
16
 74
0
 42
0.0000001
 43
0.0000001
 44
0.0000000001
 40
0.0
 40
0.0
 40
0.0
 40
0.0
 40
0.0527860015
 40
0.1117095947
 40
0.1763666303
 40
0.2459442301
 40
0.3948280941
 40
0.5471737835
 40
0.6908580996
 40
0.7562119328
 40
0.815900553
 40
0.8694870362
 40
0.9171655787
 40
0.9599859103
 40
1.0
 40
1.0
 40
1.0
 40
1.0
 10
2.5962422595
 20
276.5717446946
 30
0.0
 10
2.53007488
 20
276.6099617442
 30
0.0
 10
2.3985788296
 20
276.7059045613
 30
0.0
 10
2.2183131781
 20
276.8877732718
 30
0.0
 10
2.0484626904
 20
277.1107649022
 30
0.0
 10
1.8372575417
 20
277.4627269955
 30
0.0
 10
1.6303436727
 20
277.9615824118
 30
0.0
 10
1.4855682134
 20
278.5918293248
 30
0.0
 10
1.4576523669
 20
279.1179427658
 30
0.0
 10
1.5010756085
 20
279.5053291384
 30
0.0
 10
1.5624866547
 20
279.7573813318
 30
0.0
 10
1.6523154617
 20
279.9735970348
 30
0.0
 10
1.7691244891
 20
280.1484368979
 30
0.0
 10
1.9111575297
 20
280.276501181
 30
0.0
 10
2.0224706905
 20
280.327195168
 30
0.0
 10
2.078415799
 20
280.3422024105
 30
0.0
  0
SPLINE
  5
285
100
AcDbEntity
  8
0
100
AcDbSpline
 62
7
  6
CONTINUOUS
 70
0
 71
3
 72
10
 73
6
 74
0
 42
0.0000001
 43
0.0000001
 44
0.0000000001
 40
0.0
 40
0.0
 40
0.0
 40
0.0
 40
0.2307026303
 40
0.4700767339
 40
1.0
 40
1.0
 40
1.0
 40
1.0
 10
3.11406872
 20
276.4786254324
 30
0.0
 10
3.0740889712
 20
276.4679008882
 30
0.0
 10
2.9897347734
 20
276.4556114539
 30
0.0
 10
2.8097314765
 20
276.4701120103
 30
0.0
 10
2.6785757436
 20
276.5241904033
 30
0.0
 10
2.5962422595
 20
276.5717446946
 30
0.0
  0
SPLINE
  5
286
100
AcDbEntity
  8
0
100
AcDbSpline
 62
7
  6
CONTINUOUS
 70
0
 71
3
 72
9
 73
5
 74
0
 42
0.0000001
 43
0.0000001
 44
0.0000000001
 40
0.0
 40
0.0
 40
0.0
 40
0.0
 40
0.2461632592
 40
1.0
 40
1.0
 40
1.0
 40
1.0
 10
2.1962760231
 20
280.3601963988
 30
0.0
 10
2.2056258923
 20
280.3605970207
 30
0.0
 10
2.2436450862
 20
280.3612823277
 30
0.0
 10
2.2817133908
 20
280.3582133627
 30
0.0
 10
2.3100614817
 20
280.3540047758
 30
0.0
  0
SPLINE
  5
287
100
AcDbEntity
  8
0
100
AcDbSpline
 62
7
  6
CONTINUOUS
 70
0
 71
3
 72
9
 73
5
 74
0
 42
0.0000001
 43
0.0000001
 44
0.0000000001
 40
0.0
 40
0.0
 40
0.0
 40
0.0
 40
0.2353495061
 40
1.0
 40
1.0
 40
1.0
 40
1.0
 10
2.3100614817
 20
280.3540047758
 30
0.0
 10
2.333796262
 20
280.3504810858
 30
0.0
 10
2.4338090325
 20
280.3298546513
 30
0.0
 10
2.5287341191
 20
280.2880745965
 30
0.0
 10
2.5962422595
 20
280.2490831483
 30
0.0
  0
SPLINE
  5
288
100
AcDbEntity
  8
0
100
AcDbSpline
 62
7
  6
CONTINUOUS
 70
0
 71
3
 72
18
 73
14
 74
0
 42
0.0000001
 43
0.0000001
 44
0.0000000001
 40
0.0
 40
0.0
 40
0.0
 40
0.0
 40
0.1266265411
 40
0.2692571754
 40
0.4194785342
 40
0.5675453569
 40
0.7040780342
 40
0.7657218874
 40
0.8220833496
 40
0.8729999887
 40
0.9188267659
 40
0.9605789904
 40
1.0
 40
1.0
 40
1.0
 40
1.0
 10
2.8832312794
 20
280.0226052555
 30
0.0
 10
3.0013174643
 20
279.9035744854
 30
0.0
 10
3.2179933046
 20
279.6160682762
 30
0.0
 10
3.4662168208
 20
279.1167383884
 30
0.0
 10
3.6419192984
 20
278.5574257055
 30
0.0
 10
3.7297701146
 20
277.986270742
 30
0.0
 10
3.7238282566
 20
277.5247580994
 30
0.0
 10
3.6648691943
 20
277.1922094301
 30
0.0
 10
3.5982752536
 20
276.977933567
 30
0.0
 10
3.5090629088
 20
276.7948348996
 30
0.0
 10
3.3984683364
 20
276.6468522882
 30
0.0
 10
3.2680834202
 20
276.5378942062
 30
0.0
 10
3.1682378963
 20
276.4935741739
 30
0.0
 10
3.1179243806
 20
276.4796751178
 30
0.0
  0
SPLINE
  5
289
100
AcDbEntity
  8
0
100
AcDbSpline
 62
7
  6
CONTINUOUS
 70
0
 71
3
 72
9
 73
5
 74
0
 42
0.0000001
 43
0.0000001
 44
0.0000000001
 40
0.0
 40
0.0
 40
0.0
 40
0.0
 40
0.5152107128
 40
1.0
 40
1.0
 40
1.0
 40
1.0
 10
27.9182248165
 20
305.1624356637
 30
0.0
 10
27.7788068747
 20
305.205774424
 30
0.0
 10
27.4967063315
 20
305.2590039151
 30
0.0
 10
27.2099275884
 20
305.2288548439
 30
0.0
 10
27.0772364168
 20
305.1932774208
 30
0.0
  0
SPLINE
  5
28A
100
AcDbEntity
  8
0
100
AcDbSpline
 62
7
  6
CONTINUOUS
 70
0
 71
3
 72
9
 73
5
 74
0
 42
0.0000001
 43
0.0000001
 44
0.0000000001
 40
0.0
 40
0.0
 40
0.0
 40
0.0
 40
0.5218793058
 40
1.0
 40
1.0
 40
1.0
 40
1.0
 10
28.7152914873
 20
302.9421537756
 30
0.0
 10
26.7269668203
 20
302.6685254724
 30
0.0
 10
22.9372091063
 20
301.980497365
 30
0.0
 10
19.2336684449
 20
300.9064019357
 30
0.0
 10
17.5069065412
 20
300.2744291435
 30
0.0
  0
SPLINE
  5
28B
100
AcDbEntity
  8
0
100
AcDbSpline
 62
7
  6
CONTINUOUS
 70
0
 71
3
 72
11
 73
7
 74
0
 42
0.0000001
 43
0.0000001
 44
0.0000000001
 40
0.0
 40
0.0
 40
0.0
 40
0.0
 40
0.2715323424
 40
0.5248345307
 40
0.7655876742
 40
1.0
 40
1.0
 40
1.0
 40
1.0
 10
12.465195579
 20
297.9378218717
 30
0.0
 10
11.7298668381
 20
297.5041716675
 30
0.0
 10
10.3516088399
 20
296.5881278158
 30
0.0
 10
8.5467704517
 20
294.9804978332
 30
0.0
 10
7.1278846132
 20
293.1643778886
 30
0.0
 10
6.4894701574
 20
291.7932732718
 30
0.0
 10
6.2713459743
 20
291.0893197279
 30
0.0
  0
SPLINE
  5
28C
100
AcDbEntity
  8
0
100
AcDbSpline
 62
7
  6
CONTINUOUS
 70
0
 71
3
 72
12
 73
8
 74
0
 42
0.0000001
 43
0.0000001
 44
0.0000000001
 40
0.0
 40
0.0
 40
0.0
 40
0.0
 40
0.1155550832
 40
0.2313870697
 40
0.4699945276
 40
0.7241985809
 40
1.0
 40
1.0
 40
1.0
 40
1.0
 10
71.8988470833
 20
291.0893197169
 30
0.0
 10
71.7764033387
 20
291.4844831838
 30
0.0
 10
71.4715335504
 20
292.2585179321
 30
0.0
 10
70.641382916
 20
293.7269762543
 30
0.0
 10
69.2240822728
 20
295.4078203748
 30
0.0
 10
67.0752720257
 20
297.1445322302
 30
0.0
 10
65.4375034014
 20
298.1146810055
 30
0.0
 10
64.5621394919
 20
298.5715070807
 30
0.0
  0
SPLINE
  5
28D
100
AcDbEntity
  8
0
100
AcDbSpline
 62
7
  6
CONTINUOUS
 70
0
 71
3
 72
13
 73
9
 74
0
 42
0.0000001
 43
0.0000001
 44
0.0000000001
 40
0.0
 40
0.0
 40
0.0
 40
0.0
 40
0.1029014791
 40
0.2145494571
 40
0.3342784333
 40
0.4608617295
 40
0.7277668801
 40
1.0
 40
1.0
 40
1.0
 40
1.0
 10
64.5621394919
 20
298.5715070807
 30
0.0
 10
63.5855299337
 20
299.0811702123
 30
0.0
 10
61.4842289291
 20
300.0210248691
 30
0.0
 10
58.0920679579
 20
301.172836392
 30
0.0
 10
54.3750306825
 20
302.1192892093
 30
0.0
 10
48.9674536498
 20
303.1101225656
 30
0.0
 10
41.8522983733
 20
303.743708865
 30
0.0
 10
36.0686790707
 20
303.6335646855
 30
0.0
 10
33.1626171683
 20
303.4137863547
 30
0.0
  0
SPLINE
  5
28E
100
AcDbEntity
  8
0
100
AcDbSpline
 62
7
  6
CONTINUOUS
 70
0
 71
3
 72
9
 73
5
 74
0
 42
0.0000001
 43
0.0000001
 44
0.0000000001
 40
0.0
 40
0.0
 40
0.0
 40
0.0
 40
0.4852858129
 40
1.0
 40
1.0
 40
1.0
 40
1.0
 10
9.4334927525
 20
274.5490236391
 30
0.0
 10
9.576161386
 20
274.587265374
 30
0.0
 10
9.8593820263
 20
274.7120524191
 30
0.0
 10
10.094877559
 20
274.9109167263
 30
0.0
 10
10.2023709336
 20
275.0248823683
 30
0.0
  0
SPLINE
  5
28F
100
AcDbEntity
  8
0
100
AcDbSpline
 62
7
  6
CONTINUOUS
 70
0
 71
3
 72
17
 73
13
 74
0
 42
0.0000001
 43
0.0000001
 44
0.0000000001
 40
0.0
 40
0.0
 40
0.0
 40
0.0
 40
0.174960061
 40
0.3399555193
 40
0.4914903393
 40
0.6267631161
 40
0.743998475
 40
0.8429971492
 40
0.886363393
 40
0.926342418
 40
0.9638342961
 40
1.0
 40
1.0
 40
1.0
 40
1.0
 10
47.0783615628
 20
270.2581594277
 30
0.0
 10
48.8761933246
 20
270.4292631606
 30
0.0
 10
52.3598196272
 20
270.8787157297
 30
0.0
 10
57.3341511278
 20
271.9014283389
 30
0.0
 10
61.8115551894
 20
273.2292691308
 30
0.0
 10
65.6748067317
 20
274.8269084532
 30
0.0
 10
68.8244783818
 20
276.6520260021
 30
0.0
 10
70.881530727
 20
278.4091608022
 30
0.0
 10
72.0373252874
 20
279.9028284871
 30
0.0
 10
72.6377208025
 20
281.0032514143
 30
0.0
 10
73.0028034334
 20
282.1255194314
 30
0.0
 10
73.0850805078
 20
282.8880969077
 30
0.0
 10
73.0850912711
 20
283.261402987
 30
0.0
  0
SPLINE
  5
290
100
AcDbEntity
  8
0
100
AcDbSpline
 62
7
  6
CONTINUOUS
 70
0
 71
3
 72
11
 73
7
 74
0
 42
0.0000001
 43
0.0000001
 44
0.0000000001
 40
0.0
 40
0.0
 40
0.0
 40
0.0
 40
0.3021719565
 40
0.5651886039
 40
0.7932630923
 40
1.0
 40
1.0
 40
1.0
 40
1.0
 10
5.8199235081
 20
297.8196727921
 30
0.0
 10
5.8677395877
 20
298.079706005
 30
0.0
 10
5.993679651
 20
298.561055751
 30
0.0
 10
6.3048380423
 20
299.1884540109
 30
0.0
 10
6.7204729277
 20
299.6492378233
 30
0.0
 10
7.069962051
 20
299.8265006945
 30
0.0
 10
7.2446834206
 20
299.8733357062
 30
0.0
  0
SPLINE
  5
291
100
AcDbEntity
  8
0
100
AcDbSpline
 62
7
  6
CONTINUOUS
 70
0
 71
3
 72
20
 73
16
 74
0
 42
0.0000001
 43
0.0000001
 44
0.0000000001
 40
0.0
 40
0.0
 40
0.0
 40
0.0
 40
0.0324471704
 40
0.0670241056
 40
0.1054141291
 40
0.1486966032
 40
0.1974201516
 40
0.251735075
 40
0.3115052201
 40
0.3763853652
 40
0.4458735395
 40
0.5193477179
 40
0.6752829446
 40
0.8378173577
 40
1.0
 40
1.0
 40
1.0
 40
1.0
 10
5.0851001844
 20
283.2614028142
 30
0.0
 10
5.0850918337
 20
282.7533595449
 30
0.0
 10
5.2419604422
 20
281.6986822975
 30
0.0
 10
5.9249025266
 20
280.1780608724
 30
0.0
 10
7.0301335439
 20
278.716440851
 30
0.0
 10
8.5354074383
 20
277.3250443869
 30
0.0
 10
10.4211657154
 20
276.0138969792
 30
0.0
 10
12.6652850946
 20
274.7959398261
 30
0.0
 10
15.2411722377
 20
273.6848695503
 30
0.0
 10
18.1175280074
 20
272.6941873626
 30
0.0
 10
21.2588322749
 20
271.8361984527
 30
0.0
 10
25.8390699002
 20
270.8649673442
 30
0.0
 10
31.9351112066
 20
270.0689657814
 30
0.0
 10
39.4637873517
 20
269.7728267286
 30
0.0
 10
44.5504013685
 20
270.0175677133
 30
0.0
 10
47.0783615628
 20
270.2581594277
 30
0.0
  0
SPLINE
  5
292
100
AcDbEntity
  8
0
100
AcDbSpline
 62
7
  6
CONTINUOUS
 70
0
 71
3
 72
11
 73
7
 74
0
 42
0.0000001
 43
0.0000001
 44
0.0000000001
 40
0.0
 40
0.0
 40
0.0
 40
0.0
 40
0.2798579167
 40
0.5430173894
 40
0.7844043283
 40
1.0
 40
1.0
 40
1.0
 40
1.0
 10
49.4675547769
 20
274.3942131855
 30
0.0
 10
51.3805293308
 20
274.6080053918
 30
0.0
 10
55.0802491484
 20
275.1444971574
 30
0.0
 10
60.3536930147
 20
276.3104172696
 30
0.0
 10
65.0880034178
 20
277.7876057849
 30
0.0
 10
67.9844807561
 20
279.0310274387
 30
0.0
 10
69.3022662031
 20
279.7110163307
 30
0.0
  0
SPLINE
  5
293
100
AcDbEntity
  8
0
100
AcDbSpline
 62
7
  6
CONTINUOUS
 70
0
 71
3
 72
21
 73
17
 74
0
 42
0.0000001
 43
0.0000001
 44
0.0000000001
 40
0.0
 40
0.0
 40
0.0
 40
0.0
 40
0.1272621221
 40
0.2550426646
 40
0.3833017838
 40
0.511974467
 40
0.6409278606
 40
0.7054186494
 40
0.769803787
 40
0.8338720231
 40
0.8970601252
 40
0.9278283347
 40
0.9572299502
 40
0.9831883812
 40
0.9932354847
 40
1.0
 40
1.0
 40
1.0
 40
1.0
 10
28.7152917744
 20
302.9421823536
 30
0.0
 10
28.8403019994
 20
302.9593848151
 30
0.0
 10
29.0909580235
 20
302.9929502946
 30
0.0
 10
29.468055211
 20
303.0404072392
 30
0.0
 10
29.8469514577
 20
303.0846640255
 30
0.0
 10
30.2274476402
 20
303.1250792736
 30
0.0
 10
30.5454842428
 20
303.1546984487
 30
0.0
 10
30.8003401316
 20
303.1749398581
 30
0.0
 10
30.9912215122
 20
303.1878833256
 30
0.0
 10
31.1810067034
 20
303.1977647501
 30
0.0
 10
31.3376314863
 20
303.202286837
 30
0.0
 10
31.4600293023
 20
303.201754243
 30
0.0
 10
31.5452027179
 20
303.1981603803
 30
0.0
 10
31.6102595078
 20
303.1913777401
 30
0.0
 10
31.6509053898
 20
303.1806682148
 30
0.0
 10
31.6665060107
 20
303.1724656594
 30
0.0
 10
31.6705225748
 20
303.1670937967
 30
0.0
  0
SPLINE
  5
294
100
AcDbEntity
  8
0
100
AcDbSpline
 62
7
  6
CONTINUOUS
 70
0
 71
3
 72
9
 73
5
 74
0
 42
0.0000001
 43
0.0000001
 44
0.0000000001
 40
0.0
 40
0.0
 40
0.0
 40
0.0
 40
0.4850594028
 40
1.0
 40
1.0
 40
1.0
 40
1.0
 10
7.2446834206
 20
299.8733357062
 30
0.0
 10
7.3770619466
 20
299.9088204888
 30
0.0
 10
7.6628207655
 20
299.93945191
 30
0.0
 10
7.9442926209
 20
299.8878973663
 30
0.0
 10
8.0835133902
 20
299.8456325185
 30
0.0
  0
SPLINE
  5
295
100
AcDbEntity
  8
0
100
AcDbSpline
 62
7
  6
CONTINUOUS
 70
0
 71
3
 72
9
 73
5
 74
0
 42
0.0000001
 43
0.0000001
 44
0.0000000001
 40
0.0
 40
0.0
 40
0.0
 40
0.0
 40
0.4850594975
 40
1.0
 40
1.0
 40
1.0
 40
1.0
 10
9.3108308998
 20
300.4271778656
 30
0.0
 10
9.4432052406
 20
300.4626580831
 30
0.0
 10
9.7289532322
 20
300.493283117
 30
0.0
 10
10.0104137544
 20
300.4417294001
 30
0.0
 10
10.1496291638
 20
300.3994661795
 30
0.0
  0
SPLINE
  5
296
100
AcDbEntity
  8
0
100
AcDbSpline
 62
7
  6
CONTINUOUS
 70
0
 71
3
 72
10
 73
6
 74
0
 42
0.0000001
 43
0.0000001
 44
0.0000000001
 40
0.0
 40
0.0
 40
0.0
 40
0.0
 40
0.5420442664
 40
0.7870489222
 40
1.0
 40
1.0
 40
1.0
 40
1.0
 10
46.5095925406
 20
276.8404821141
 30
0.0
 10
46.4112029171
 20
277.4266133667
 30
0.0
 10
46.1291617847
 20
278.2639752323
 30
0.0
 10
45.5341088066
 20
279.1889606382
 30
0.0
 10
45.181014912
 20
279.5537628724
 30
0.0
 10
44.9968128928
 20
279.6972503509
 30
0.0
  0
SPLINE
  5
297
100
AcDbEntity
  8
0
100
AcDbSpline
 62
7
  6
CONTINUOUS
 70
0
 71
3
 72
14
 73
10
 74
0
 42
0.0000001
 43
0.0000001
 44
0.0000000001
 40
0.0
 40
0.0
 40
0.0
 40
0.0
 40
0.0966562865
 40
0.2051733554
 40
0.3241510552
 40
0.4516987365
 40
0.5855852671
 40
0.7233550477
 40
1.0
 40
1.0
 40
1.0
 40
1.0
 10
11.7654976284
 20
282.1919615552
 30
0.0
 10
12.7588503139
 20
281.6182201974
 30
0.0
 10
14.9573724363
 20
280.5544406439
 30
0.0
 10
18.5822699588
 20
279.2511147175
 30
0.0
 10
22.6603442092
 20
278.1721614485
 30
0.0
 10
27.1015982446
 20
277.3414460907
 30
0.0
 10
31.8092554651
 20
276.777730735
 30
0.0
 10
38.3080952127
 20
276.4001378375
 30
0.0
 10
43.2397353863
 20
276.5440083613
 30
0.0
 10
46.5096025488
 20
276.8405570978
 30
0.0
  0
SPLINE
  5
298
100
AcDbEntity
  8
0
100
AcDbSpline
 62
7
  6
CONTINUOUS
 70
0
 71
3
 72
15
 73
11
 74
0
 42
0.0000001
 43
0.0000001
 44
0.0000000001
 40
0.0
 40
0.0
 40
0.0
 40
0.0
 40
0.1049507683
 40
0.208329543
 40
0.3146225653
 40
0.4278906472
 40
0.5513008156
 40
0.687031346
 40
0.8364333777
 40
1.0
 40
1.0
 40
1.0
 40
1.0
 10
6.2713518207
 20
291.0893207414
 30
0.0
 10
6.1541858939
 20
290.7112077026
 30
0.0
 10
5.9995262039
 20
289.9329906918
 30
0.0
 10
6.0417372266
 20
288.736773673
 30
0.0
 10
6.3613489593
 20
287.5512274241
 30
0.0
 10
6.9500452389
 20
286.3905811498
 30
0.0
 10
7.7975067578
 20
285.2629828911
 30
0.0
 10
8.8945997936
 20
284.1746437379
 30
0.0
 10
10.231802789
 20
283.1321224743
 30
0.0
 10
11.2312690166
 20
282.5005217006
 30
0.0
 10
11.7654976284
 20
282.1919615552
 30
0.0
  0
SPLINE
  5
299
100
AcDbEntity
  8
0
100
AcDbSpline
 62
7
  6
CONTINUOUS
 70
0
 71
3
 72
14
 73
10
 74
0
 42
0.0000001
 43
0.0000001
 44
0.0000000001
 40
0.0
 40
0.0
 40
0.0
 40
0.0
 40
0.3048416902
 40
0.4386019784
 40
0.5615643028
 40
0.6759211621
 40
0.7846646017
 40
0.8914070292
 40
1.0
 40
1.0
 40
1.0
 40
1.0
 10
67.537898185
 20
282.8938123952
 30
0.0
 10
68.3822736168
 20
283.4556260755
 30
0.0
 10
69.5435134769
 20
284.3625910743
 30
0.0
 10
70.7801176022
 20
285.7694781425
 30
0.0
 10
71.4563264481
 20
286.8085283563
 30
0.0
 10
71.9147555845
 20
287.8715577468
 30
0.0
 10
72.1485954655
 20
288.9515333189
 30
0.0
 10
72.15306713
 20
290.0374494932
 30
0.0
 10
72.0057032122
 20
290.7444147561
 30
0.0
 10
71.8987704254
 20
291.0895135963
 30
0.0
  0
SPLINE
  5
29A
100
AcDbEntity
  8
0
100
AcDbSpline
 62
7
  6
CONTINUOUS
 70
0
 71
3
 72
9
 73
5
 74
0
 42
0.0000001
 43
0.0000001
 44
0.0000000001
 40
0.0
 40
0.0
 40
0.0
 40
0.0
 40
0.4827422714
 40
1.0
 40
1.0
 40
1.0
 40
1.0
 10
12.4652154023
 20
297.9378059603
 30
0.0
 10
12.5897157934
 20
298.0112061321
 30
0.0
 10
12.8907983244
 20
298.0995074742
 30
0.0
 10
13.1937257721
 20
298.0369332677
 30
0.0
 10
13.3386687355
 20
297.9824064704
 30
0.0
  0
SPLINE
  5
29B
100
AcDbEntity
  8
0
100
AcDbSpline
 62
7
  6
CONTINUOUS
 70
0
 71
3
 72
25
 73
21
 74
0
 42
0.0000001
 43
0.0000001
 44
0.0000000001
 40
0.0
 40
0.0
 40
0.0
 40
0.0
 40
0.0164311606
 40
0.0252055605
 40
0.0401773883
 40
0.0589444272
 40
0.0805532723
 40
0.104168176
 40
0.1293001457
 40
0.1556474569
 40
0.1830100459
 40
0.2402563596
 40
0.3003027373
 40
0.3627047084
 40
0.4271692913
 40
0.4934892801
 40
0.5615105792
 40
0.7021997103
 40
0.8485298793
 40
1.0
 40
1.0
 40
1.0
 40
1.0
 10
14.2012198421
 20
298.4843514206
 30
0.0
 10
14.1796411459
 20
298.4866615993
 30
0.0
 10
14.1451654885
 20
298.4910987091
 30
0.0
 10
14.1044788507
 20
298.5332667183
 30
0.0
 10
14.12652076
 20
298.5950348374
 30
0.0
 10
14.1719484558
 20
298.6494062572
 30
0.0
 10
14.2333817606
 20
298.7088077523
 30
0.0
 10
14.3053096478
 20
298.7673553187
 30
0.0
 10
14.3851608813
 20
298.826345364
 30
0.0
 10
14.4711403401
 20
298.8850901983
 30
0.0
 10
14.5944003437
 20
298.9643972378
 30
0.0
 10
14.7585307775
 20
299.0622919912
 30
0.0
 10
14.9661534263
 20
299.1773370545
 30
0.0
 10
15.185060049
 20
299.2915137429
 30
0.0
 10
15.4137221405
 20
299.4047696619
 30
0.0
 10
15.6510868289
 20
299.5170757049
 30
0.0
 10
15.9818759947
 20
299.6672157558
 30
0.0
 10
16.4130012607
 20
299.8518344607
 30
0.0
 10
16.9506999074
 20
300.0671107959
 30
0.0
 10
17.3188476074
 20
300.2056726329
 30
0.0
 10
17.5067243105
 20
300.2744188497
 30
0.0
  0
SPLINE
  5
29C
100
AcDbEntity
  8
0
100
AcDbSpline
 62
7
  6
CONTINUOUS
 70
0
 71
3
 72
14
 73
10
 74
0
 42
0.0000001
 43
0.0000001
 44
0.0000000001
 40
0.0
 40
0.0
 40
0.0
 40
0.0
 40
0.0967425277
 40
0.2050908099
 40
0.3237324183
 40
0.4508975099
 40
0.5844922344
 40
0.7222013831
 40
1.0
 40
1.0
 40
1.0
 40
1.0
 10
13.8217499707
 20
284.726251428
 30
0.0
 10
14.714450062
 20
284.2106444342
 30
0.0
 10
16.6852932166
 20
283.2517295665
 30
0.0
 10
19.9310372731
 20
282.0702425064
 30
0.0
 10
23.5779550618
 20
281.083841457
 30
0.0
 10
27.5499970473
 20
280.3138654764
 30
0.0
 10
31.765004115
 20
279.7765738132
 30
0.0
 10
37.6054175841
 20
279.3857022354
 30
0.0
 10
42.0454082958
 20
279.4683417071
 30
0.0
 10
44.9968128927
 20
279.697250351
 30
0.0
  0
SPLINE
  5
29D
100
AcDbEntity
  8
0
100
AcDbSpline
 62
7
  6
CONTINUOUS
 70
0
 71
3
 72
11
 73
7
 74
0
 42
0.0000001
 43
0.0000001
 44
0.0000000001
 40
0.0
 40
0.0
 40
0.0
 40
0.0
 40
0.2155955398
 40
0.4569823856
 40
0.7201419644
 40
1.0
 40
1.0
 40
1.0
 40
1.0
 10
69.3022662031
 20
281.401810934
 30
0.0
 10
67.9844815042
 20
280.7218224281
 30
0.0
 10
65.0880071052
 20
279.4783978168
 30
0.0
 10
60.3536976946
 20
278.0012073446
 30
0.0
 10
55.0802520341
 20
276.835289655
 30
0.0
 10
51.3805302277
 20
276.2988000954
 30
0.0
 10
49.4675547769
 20
276.0850077889
 30
0.0
  0
SPLINE
  5
29E
100
AcDbEntity
  8
0
100
AcDbSpline
 62
7
  6
CONTINUOUS
 70
0
 71
3
 72
14
 73
10
 74
0
 42
0.0000001
 43
0.0000001
 44
0.0000000001
 40
0.0
 40
0.0
 40
0.0
 40
0.0
 40
0.2777986169
 40
0.4155077656
 40
0.5491024901
 40
0.6762675817
 40
0.7949091901
 40
0.9032574723
 40
1.0
 40
1.0
 40
1.0
 40
1.0
 10
33.1733801618
 20
303.2992096155
 30
0.0
 10
36.1247847587
 20
303.5281182594
 30
0.0
 10
40.5647754703
 20
303.6107577312
 30
0.0
 10
46.4051889394
 20
303.2198861533
 30
0.0
 10
50.620196007
 20
302.6825944902
 30
0.0
 10
54.5922379925
 20
301.9126185095
 30
0.0
 10
58.2391557813
 20
300.9262174601
 30
0.0
 10
61.4848998377
 20
299.7447304001
 30
0.0
 10
63.4557429923
 20
298.7858155323
 30
0.0
 10
64.3484430836
 20
298.2702085386
 30
0.0
  0
SPLINE
  5
29F
100
AcDbEntity
  8
0
100
AcDbSpline
 62
7
  6
CONTINUOUS
 70
0
 71
3
 72
17
 73
13
 74
0
 42
0.0000001
 43
0.0000001
 44
0.0000000001
 40
0.0
 40
0.0
 40
0.0
 40
0.0
 40
0.1541192596
 40
0.2874401265
 40
0.4032728369
 40
0.4567016454
 40
0.5084869405
 40
0.5598979869
 40
0.6122389807
 40
0.7241193902
 40
0.8519818273
 40
1.0
 40
1.0
 40
1.0
 40
1.0
 10
13.3124548952
 20
285.0302204802
 30
0.0
 10
12.6112754179
 20
285.4628401399
 30
0.0
 10
11.3499946527
 20
286.3526492228
 30
0.0
 10
9.8212218103
 20
287.8912898559
 30
0.0
 10
8.9714192075
 20
289.2946967106
 30
0.0
 10
8.6138093308
 20
290.4261988621
 30
0.0
 10
8.4980601771
 20
291.2597047989
 30
0.0
 10
8.5298408004
 20
292.0948934706
 30
0.0
 10
8.7724626247
 20
293.2271992212
 30
0.0
 10
9.4808825905
 20
294.6472706989
 30
0.0
 10
10.8610222151
 20
296.2145221026
 30
0.0
 10
12.0330126357
 20
297.1225130826
 30
0.0
 10
12.6892515411
 20
297.5646473306
 30
0.0
  0
SPLINE
  5
2A0
100
AcDbEntity
  8
0
100
AcDbSpline
 62
7
  6
CONTINUOUS
 70
0
 71
3
 72
9
 73
5
 74
0
 42
0.0000001
 43
0.0000001
 44
0.0000000001
 40
0.0
 40
0.0
 40
0.0
 40
0.0
 40
0.236843405
 40
1.0
 40
1.0
 40
1.0
 40
1.0
 10
14.2012198422
 20
298.4843514207
 30
0.0
 10
14.4572823946
 20
298.6255615644
 30
0.0
 10
15.5500003517
 20
299.2007482367
 30
0.0
 10
16.6835189057
 20
299.696723901
 30
0.0
 10
17.5613020366
 20
300.039204227
 30
0.0
  0
SPLINE
  5
2A1
100
AcDbEntity
  8
0
100
AcDbSpline
 62
7
  6
CONTINUOUS
 70
0
 71
3
 72
9
 73
5
 74
0
 42
0.0000001
 43
0.0000001
 44
0.0000000001
 40
0.0
 40
0.0
 40
0.0
 40
0.0
 40
0.4726078062
 40
1.0
 40
1.0
 40
1.0
 40
1.0
 10
17.5613020366
 20
300.039204227
 30
0.0
 10
19.2506293132
 20
300.6983207399
 30
0.0
 10
22.9331987854
 20
301.8185301665
 30
0.0
 10
26.7103719136
 20
302.5285395495
 30
0.0
 10
28.7138617556
 20
302.8128302289
 30
0.0
  0
SPLINE
  5
2A2
100
AcDbEntity
  8
0
100
AcDbSpline
 62
7
  6
CONTINUOUS
 70
0
 71
3
 72
9
 73
5
 74
0
 42
0.0000001
 43
0.0000001
 44
0.0000000001
 40
0.0
 40
0.0
 40
0.0
 40
0.0
 40
0.2614756802
 40
1.0
 40
1.0
 40
1.0
 40
1.0
 10
64.8315243189
 20
285.0140534962
 30
0.0
 10
64.9941884824
 20
285.1140516433
 30
0.0
 10
65.6106334227
 20
285.5055020542
 30
0.0
 10
66.2038190264
 20
285.9344241343
 30
0.0
 10
66.6216074059
 20
286.2754618712
 30
0.0
  0
SPLINE
  5
2A3
100
AcDbEntity
  8
0
100
AcDbSpline
 62
7
  6
CONTINUOUS
 70
0
 71
3
 72
16
 73
12
 74
0
 42
0.0000001
 43
0.0000001
 44
0.0000000001
 40
0.0
 40
0.0
 40
0.0
 40
0.0
 40
0.1374329157
 40
0.2572477524
 40
0.3647873035
 40
0.41661698
 40
0.46861152
 40
0.5774063741
 40
0.6993908765
 40
0.8394970375
 40
1.0
 40
1.0
 40
1.0
 40
1.0
 10
66.6216074059
 20
286.2754618712
 30
0.0
 10
67.1613724256
 20
286.7160682877
 30
0.0
 10
68.1135435311
 20
287.6198561212
 30
0.0
 10
69.1646602684
 20
289.1629828768
 30
0.0
 10
69.609637098
 20
290.5332804528
 30
0.0
 10
69.6744440405
 20
291.6076035412
 30
0.0
 10
69.5596493719
 20
292.6841671541
 30
0.0
 10
69.05029801
 20
294.0503484467
 30
0.0
 10
67.9306348239
 20
295.5820371272
 30
0.0
 10
66.332654337
 20
297.0255248111
 30
0.0
 10
65.0530797708
 20
297.8632234744
 30
0.0
 10
64.3484430836
 20
298.2702085386
 30
0.0
  0
SPLINE
  5
2A4
100
AcDbEntity
  8
0
100
AcDbSpline
 62
7
  6
CONTINUOUS
 70
0
 71
3
 72
11
 73
7
 74
0
 42
0.0000001
 43
0.0000001
 44
0.0000000001
 40
0.0
 40
0.0
 40
0.0
 40
0.0
 40
0.2634102209
 40
0.5159328187
 40
0.7602044916
 40
1.0
 40
1.0
 40
1.0
 40
1.0
 10
26.2351706897
 20
219.6297388698
 30
0.0
 10
25.3607227971
 20
219.3953383179
 30
0.0
 10
23.6055216335
 20
219.0764677837
 30
0.0
 10
20.9770242181
 20
219.0893778578
 30
0.0
 10
18.4812751048
 20
219.6069399644
 30
0.0
 10
16.9458413545
 20
220.2854601361
 30
0.0
 10
16.2321828494
 20
220.6976819565
 30
0.0
  0
SPLINE
  5
2A5
100
AcDbEntity
  8
0
100
AcDbSpline
 62
7
  6
CONTINUOUS
 70
0
 71
3
 72
11
 73
7
 74
0
 42
0.0000001
 43
0.0000001
 44
0.0000000001
 40
0.0
 40
0.0
 40
0.0
 40
0.0
 40
0.2717775313
 40
0.5268694486
 40
0.7676333348
 40
1.0
 40
1.0
 40
1.0
 40
1.0
 10
21.2998012926
 20
246.5763254069
 30
0.0
 10
21.2998012926
 20
246.1680627975
 30
0.0
 10
21.3791753413
 20
245.3732314225
 30
0.0
 10
21.7593573121
 20
244.2722299289
 30
0.0
 10
22.3823275992
 20
243.3561469339
 30
0.0
 10
22.946136737
 20
242.9026942233
 30
0.0
 10
23.2483887975
 20
242.7280904937
 30
0.0
  0
SPLINE
  5
2A6
100
AcDbEntity
  8
0
100
AcDbSpline
 62
7
  6
CONTINUOUS
 70
0
 71
3
 72
11
 73
7
 74
0
 42
0.0000001
 43
0.0000001
 44
0.0000000001
 40
0.0
 40
0.0
 40
0.0
 40
0.0
 40
0.2717775313
 40
0.5268694486
 40
0.7676333348
 40
1.0
 40
1.0
 40
1.0
 40
1.0
 10
30.1840991189
 20
239.0749630546
 30
0.0
 10
30.1840991189
 20
238.6667004453
 30
0.0
 10
30.2634731677
 20
237.8718690702
 30
0.0
 10
30.6436551384
 20
236.7708675766
 30
0.0
 10
31.2666254255
 20
235.8547845816
 30
0.0
 10
31.8304345633
 20
235.401331871
 30
0.0
 10
32.1326866239
 20
235.2267281414
 30
0.0
  0
SPLINE
  5
2A7
100
AcDbEntity
  8
0
100
AcDbSpline
 62
7
  6
CONTINUOUS
 70
0
 71
3
 72
11
 73
7
 74
0
 42
0.0000001
 43
0.0000001
 44
0.0000000001
 40
0.0
 40
0.0
 40
0.0
 40
0.0
 40
0.2717775313
 40
0.5268694486
 40
0.7676333348
 40
1.0
 40
1.0
 40
1.0
 40
1.0
 10
12.4155034662
 20
234.3119935704
 30
0.0
 10
12.4155034662
 20
233.903730961
 30
0.0
 10
12.494877515
 20
233.108899586
 30
0.0
 10
12.8750594858
 20
232.0078980924
 30
0.0
 10
13.4980297728
 20
231.0918150974
 30
0.0
 10
14.0618389107
 20
230.6383623868
 30
0.0
 10
14.3640909712
 20
230.4637586572
 30
0.0
  0
SPLINE
  5
2A8
100
AcDbEntity
  8
0
100
AcDbSpline
 62
7
  6
CONTINUOUS
 70
0
 71
3
 72
10
 73
6
 74
0
 42
0.0000001
 43
0.0000001
 44
0.0000000001
 40
0.0
 40
0.0
 40
0.0
 40
0.0
 40
0.2403281524
 40
0.485096085
 40
1.0
 40
1.0
 40
1.0
 40
1.0
 10
27.1347440951
 20
232.2910044158
 30
0.0
 10
26.990210256
 20
232.3744576507
 30
0.0
 10
26.6791586002
 20
232.5118065295
 30
0.0
 10
25.9955321428
 20
232.6541487702
 30
0.0
 10
25.4545228478
 20
232.5998457376
 30
0.0
 10
25.1091396109
 20
232.5072638673
 30
0.0
  0
SPLINE
  5
2A9
100
AcDbEntity
  8
0
100
AcDbSpline
 62
7
  6
CONTINUOUS
 70
0
 71
3
 72
9
 73
5
 74
0
 42
0.0000001
 43
0.0000001
 44
0.0000000001
 40
0.0
 40
0.0
 40
0.0
 40
0.0
 40
0.2483301759
 40
1.0
 40
1.0
 40
1.0
 40
1.0
 10
16.111259776
 20
239.9885756322
 30
0.0
 10
16.0629462952
 20
240.0164882603
 30
0.0
 10
15.8633045156
 20
240.1199325978
 30
0.0
 10
15.6445509532
 20
240.1857337864
 30
0.0
 10
15.4778803721
 20
240.213035132
 30
0.0
  0
SPLINE
  5
2AA
100
AcDbEntity
  8
0
100
AcDbSpline
 62
7
  6
CONTINUOUS
 70
0
 71
3
 72
15
 73
11
 74
0
 42
0.0000001
 43
0.0000001
 44
0.0000000001
 40
0.0
 40
0.0
 40
0.0
 40
0.0
 40
0.0524622067
 40
0.1056451731
 40
0.2162149228
 40
0.3353287396
 40
0.4632716105
 40
0.5978589133
 40
0.7353247898
 40
1.0
 40
1.0
 40
1.0
 40
1.0
 10
20.3376547556
 20
240.8061341354
 30
0.0
 10
20.155708461
 20
240.911240124
 30
0.0
 10
19.7688250895
 20
241.0894825518
 30
0.0
 10
18.926171811
 20
241.3057104353
 30
0.0
 10
17.7707045699
 20
241.2897008097
 30
0.0
 10
16.3932742704
 20
240.8353145323
 30
0.0
 10
15.0989449273
 20
239.9949991409
 30
0.0
 10
13.9772094451
 20
238.8316218349
 30
0.0
 10
12.8352799254
 20
237.0006948325
 30
0.0
 10
12.4155034662
 20
235.3720782062
 30
0.0
 10
12.4155034662
 20
234.3119935704
 30
0.0
  0
SPLINE
  5
2AB
100
AcDbEntity
  8
0
100
AcDbSpline
 62
7
  6
CONTINUOUS
 70
0
 71
3
 72
9
 73
5
 74
0
 42
0.0000001
 43
0.0000001
 44
0.0000000001
 40
0.0
 40
0.0
 40
0.0
 40
0.0
 40
0.2483301759
 40
1.0
 40
1.0
 40
1.0
 40
1.0
 10
33.8798554286
 20
244.7515451164
 30
0.0
 10
33.8315419479
 20
244.7794577445
 30
0.0
 10
33.6319001683
 20
244.882902082
 30
0.0
 10
33.4131466059
 20
244.9487032706
 30
0.0
 10
33.2464760248
 20
244.9760046162
 30
0.0
  0
SPLINE
  5
2AC
100
AcDbEntity
  8
0
100
AcDbSpline
 62
7
  6
CONTINUOUS
 70
0
 71
3
 72
15
 73
11
 74
0
 42
0.0000001
 43
0.0000001
 44
0.0000000001
 40
0.0
 40
0.0
 40
0.0
 40
0.0
 40
0.0524622067
 40
0.1056451731
 40
0.2162149228
 40
0.3353287396
 40
0.4632716105
 40
0.5978589133
 40
0.7353247898
 40
1.0
 40
1.0
 40
1.0
 40
1.0
 10
38.1062504083
 20
245.5691036196
 30
0.0
 10
37.9243041137
 20
245.6742096082
 30
0.0
 10
37.5374207421
 20
245.852452036
 30
0.0
 10
36.6947674637
 20
246.0686799196
 30
0.0
 10
35.5393002226
 20
246.0526702939
 30
0.0
 10
34.1618699231
 20
245.5982840166
 30
0.0
 10
32.86754058
 20
244.7579686251
 30
0.0
 10
31.7458050978
 20
243.5945913191
 30
0.0
 10
30.603875578
 20
241.7636643167
 30
0.0
 10
30.1840991189
 20
240.1350476904
 30
0.0
 10
30.1840991189
 20
239.0749630546
 30
0.0
  0
SPLINE
  5
2AD
100
AcDbEntity
  8
0
100
AcDbSpline
 62
7
  6
CONTINUOUS
 70
0
 71
3
 72
9
 73
5
 74
0
 42
0.0000001
 43
0.0000001
 44
0.0000000001
 40
0.0
 40
0.0
 40
0.0
 40
0.0
 40
0.2483301759
 40
1.0
 40
1.0
 40
1.0
 40
1.0
 10
24.9955576023
 20
252.2529074687
 30
0.0
 10
24.9472441215
 20
252.2808200968
 30
0.0
 10
24.747602342
 20
252.3842644343
 30
0.0
 10
24.5288487795
 20
252.4500656229
 30
0.0
 10
24.3621781984
 20
252.4773669685
 30
0.0
  0
SPLINE
  5
2AE
100
AcDbEntity
  8
0
100
AcDbSpline
 62
7
  6
CONTINUOUS
 70
0
 71
3
 72
15
 73
11
 74
0
 42
0.0000001
 43
0.0000001
 44
0.0000000001
 40
0.0
 40
0.0
 40
0.0
 40
0.0
 40
0.0524622067
 40
0.1056451731
 40
0.2162149228
 40
0.3353287396
 40
0.4632716105
 40
0.5978589133
 40
0.7353247898
 40
1.0
 40
1.0
 40
1.0
 40
1.0
 10
29.2219525819
 20
253.0704659719
 30
0.0
 10
29.0400062874
 20
253.1755719605
 30
0.0
 10
28.6531229158
 20
253.3538143883
 30
0.0
 10
27.8104696374
 20
253.5700422718
 30
0.0
 10
26.6550023962
 20
253.5540326462
 30
0.0
 10
25.2775720967
 20
253.0996463688
 30
0.0
 10
23.9832427536
 20
252.2593309774
 30
0.0
 10
22.8615072714
 20
251.0959536714
 30
0.0
 10
21.7195777517
 20
249.265026669
 30
0.0
 10
21.2998012926
 20
247.6364100427
 30
0.0
 10
21.2998012926
 20
246.5763254069
 30
0.0
  0
SPLINE
  5
2AF
100
AcDbEntity
  8
0
100
AcDbSpline
 62
7
  6
CONTINUOUS
 70
0
 71
3
 72
9
 73
5
 74
0
 42
0.0000001
 43
0.0000001
 44
0.0000000001
 40
0.0
 40
0.0
 40
0.0
 40
0.0
 40
0.2533757694
 40
1.0
 40
1.0
 40
1.0
 40
1.0
 10
21.3440417815
 20
247.2214952772
 30
0.0
 10
21.3795695705
 20
247.1787687792
 30
0.0
 10
21.5267881867
 20
247.0160981486
 30
0.0
 10
21.7028476127
 20
246.8794346065
 30
0.0
 10
21.8446283829
 20
246.797522191
 30
0.0
  0
SPLINE
  5
2B0
100
AcDbEntity
  8
0
100
AcDbSpline
 62
7
  6
CONTINUOUS
 70
0
 71
3
 72
9
 73
5
 74
0
 42
0.0000001
 43
0.0000001
 44
0.0000000001
 40
0.0
 40
0.0
 40
0.0
 40
0.0
 40
0.2533757694
 40
1.0
 40
1.0
 40
1.0
 40
1.0
 10
30.2283396078
 20
239.7201329249
 30
0.0
 10
30.2638673969
 20
239.6774064269
 30
0.0
 10
30.411086013
 20
239.5147357963
 30
0.0
 10
30.587145439
 20
239.3780722543
 30
0.0
 10
30.7289262092
 20
239.2961598388
 30
0.0
  0
SPLINE
  5
2B1
100
AcDbEntity
  8
0
100
AcDbSpline
 62
7
  6
CONTINUOUS
 70
0
 71
3
 72
9
 73
5
 74
0
 42
0.0000001
 43
0.0000001
 44
0.0000000001
 40
0.0
 40
0.0
 40
0.0
 40
0.0
 40
0.2533757694
 40
1.0
 40
1.0
 40
1.0
 40
1.0
 10
12.4597439551
 20
234.9571634407
 30
0.0
 10
12.4952717442
 20
234.9144369427
 30
0.0
 10
12.6424903603
 20
234.7517663121
 30
0.0
 10
12.8185497864
 20
234.61510277
 30
0.0
 10
12.9603305566
 20
234.5331903546
 30
0.0
  0
SPLINE
  5
2B2
100
AcDbEntity
  8
0
100
AcDbSpline
 62
7
  6
CONTINUOUS
 70
0
 71
3
 72
11
 73
7
 74
0
 42
0.0000001
 43
0.0000001
 44
0.0000000001
 40
0.0
 40
0.0
 40
0.0
 40
0.0
 40
0.2717668072
 40
0.5268680782
 40
0.7676307415
 40
1.0
 40
1.0
 40
1.0
 40
1.0
 10
21.7620320577
 20
227.8867481574
 30
0.0
 10
21.7620320573
 20
227.6098794153
 30
0.0
 10
21.8158706988
 20
227.0708389388
 30
0.0
 10
22.073666357
 20
226.3241327203
 30
0.0
 10
22.4961872485
 20
225.7028732274
 30
0.0
 10
22.8785236129
 20
225.3952857415
 30
0.0
 10
23.0835351267
 20
225.2769129499
 30
0.0
  0
SPLINE
  5
2B3
100
AcDbEntity
  8
0
100
AcDbSpline
 62
7
  6
CONTINUOUS
 70
0
 71
3
 72
12
 73
8
 74
0
 42
0.0000001
 43
0.0000001
 44
0.0000000001
 40
0.0
 40
0.0
 40
0.0
 40
0.0
 40
0.2349899833
 40
0.4894752595
 40
0.6202667695
 40
0.7503904793
 40
1.0
 40
1.0
 40
1.0
 40
1.0
 10
25.1091396109
 20
232.5072638673
 30
0.0
 10
24.6500002762
 20
232.3841890513
 30
0.0
 10
23.7449414406
 20
231.9218013554
 30
0.0
 10
22.8577506802
 20
231.007388359
 30
0.0
 10
22.3093099875
 20
230.116537732
 30
0.0
 10
21.9026400309
 20
229.1648693986
 30
0.0
 10
21.7620320583
 20
228.3916698865
 30
0.0
 10
21.7620320577
 20
227.8867481574
 30
0.0
  0
SPLINE
  5
2B4
100
AcDbEntity
  8
0
100
AcDbSpline
 62
7
  6
CONTINUOUS
 70
0
 71
3
 72
20
 73
16
 74
0
 42
0.0000001
 43
0.0000001
 44
0.0000000001
 40
0.0
 40
0.0
 40
0.0
 40
0.0
 40
0.0524886651
 40
0.1058788637
 40
0.1609446763
 40
0.218240177
 40
0.340076156
 40
0.4047856255
 40
0.4714397363
 40
0.6080572842
 40
0.7449175192
 40
0.8118576135
 40
0.8769396523
 40
0.9397340236
 40
1.0
 40
1.0
 40
1.0
 40
1.0
 10
36.23815853
 20
255.3351803203
 30
0.0
 10
36.9220022627
 20
254.9401800416
 30
0.0
 10
38.222805163
 20
253.9979240388
 30
0.0
 10
39.8674729221
 20
252.2001715058
 30
0.0
 10
41.1754949687
 20
250.0594030573
 30
0.0
 10
42.4551344885
 20
246.7600160978
 30
0.0
 10
42.9032450603
 20
243.0514029628
 30
0.0
 10
42.5868124562
 20
239.2483741608
 30
0.0
 10
41.7356304346
 20
235.2964085291
 30
0.0
 10
39.7365075315
 20
230.5298940965
 30
0.0
 10
36.688277088
 20
226.3499233924
 30
0.0
 10
33.7418845433
 20
223.5644612996
 30
0.0
 10
31.3645590962
 20
221.8345592488
 30
0.0
 10
28.8622194641
 20
220.4923439579
 30
0.0
 10
27.1109918853
 20
219.8645075431
 30
0.0
 10
26.2351706897
 20
219.6297388698
 30
0.0
  0
SPLINE
  5
2B5
100
AcDbEntity
  8
0
100
AcDbSpline
 62
7
  6
CONTINUOUS
 70
0
 71
3
 72
11
 73
7
 74
0
 42
0.0000001
 43
0.0000001
 44
0.0000000001
 40
0.0
 40
0.0
 40
0.0
 40
0.0
 40
0.2717775313
 40
0.5268694486
 40
0.7676333348
 40
1.0
 40
1.0
 40
1.0
 40
1.0
 10
31.1705400869
 20
249.2222310588
 30
0.0
 10
31.1705400869
 20
249.6304936681
 30
0.0
 10
31.0911660381
 20
250.4253250431
 30
0.0
 10
30.7109840674
 20
251.5263265367
 30
0.0
 10
30.0880137803
 20
252.4424095318
 30
0.0
 10
29.5242046425
 20
252.8958622423
 30
0.0
 10
29.2219525819
 20
253.0704659719
 30
0.0
  0
SPLINE
  5
2B6
100
AcDbEntity
  8
0
100
AcDbSpline
 62
7
  6
CONTINUOUS
 70
0
 71
3
 72
11
 73
7
 74
0
 42
0.0000001
 43
0.0000001
 44
0.0000000001
 40
0.0
 40
0.0
 40
0.0
 40
0.0
 40
0.2717775313
 40
0.5268694486
 40
0.7676333348
 40
1.0
 40
1.0
 40
1.0
 40
1.0
 10
22.2862422605
 20
236.9578992223
 30
0.0
 10
22.2862422605
 20
237.3661618316
 30
0.0
 10
22.2068682118
 20
238.1609932066
 30
0.0
 10
21.826686241
 20
239.2619947002
 30
0.0
 10
21.203715954
 20
240.1780776953
 30
0.0
 10
20.6399068161
 20
240.6315304058
 30
0.0
 10
20.3376547556
 20
240.8061341354
 30
0.0
  0
SPLINE
  5
2B7
100
AcDbEntity
  8
0
100
AcDbSpline
 62
7
  6
CONTINUOUS
 70
0
 71
3
 72
14
 73
10
 74
0
 42
0.0000001
 43
0.0000001
 44
0.0000000001
 40
0.0
 40
0.0
 40
0.0
 40
0.0
 40
0.1052607121
 40
0.2158763284
 40
0.3350400042
 40
0.4630364262
 40
0.5976785521
 40
0.735210095
 40
1.0
 40
1.0
 40
1.0
 40
1.0
 10
12.9603305566
 20
234.5331903546
 30
0.0
 10
13.1528033497
 20
234.4219911321
 30
0.0
 10
13.5942426589
 20
234.2672447066
 30
0.0
 10
14.3138698712
 20
234.2783668055
 30
0.0
 10
15.041002649
 20
234.517729683
 30
0.0
 10
15.7235558867
 20
234.9610568586
 30
0.0
 10
16.3153151427
 20
235.5746770541
 30
0.0
 10
16.9176389425
 20
236.540474046
 30
0.0
 10
17.139101041
 20
237.3995391977
 30
0.0
 10
17.139101041
 20
237.9587134062
 30
0.0
  0
SPLINE
  5
2B8
100
AcDbEntity
  8
0
100
AcDbSpline
 62
7
  6
CONTINUOUS
 70
0
 71
3
 72
11
 73
7
 74
0
 42
0.0000001
 43
0.0000001
 44
0.0000000001
 40
0.0
 40
0.0
 40
0.0
 40
0.0
 40
0.2634102209
 40
0.5159328187
 40
0.7602044916
 40
1.0
 40
1.0
 40
1.0
 40
1.0
 10
26.2351706897
 20
256.4031234071
 30
0.0
 10
27.1096185823
 20
256.637523959
 30
0.0
 10
28.8648197459
 20
256.9563944932
 30
0.0
 10
31.4933171614
 20
256.943484419
 30
0.0
 10
33.9890662746
 20
256.4259223124
 30
0.0
 10
35.5245000249
 20
255.7474021408
 30
0.0
 10
36.23815853
 20
255.3351803203
 30
0.0
  0
SPLINE
  5
2B9
100
AcDbEntity
  8
0
100
AcDbSpline
 62
7
  6
CONTINUOUS
 70
0
 71
3
 72
15
 73
11
 74
0
 42
0.0000001
 43
0.0000001
 44
0.0000000001
 40
0.0
 40
0.0
 40
0.0
 40
0.0
 40
0.1383951981
 40
0.2695587326
 40
0.3940347268
 40
0.5135537928
 40
0.6308546392
 40
0.7491689886
 40
0.8715002297
 40
1.0
 40
1.0
 40
1.0
 40
1.0
 10
21.2351705177
 20
226.7933065845
 30
0.0
 10
21.2351705172
 20
226.4387445652
 30
0.0
 10
21.2945801058
 20
225.7460902062
 30
0.0
 10
21.5759228864
 20
224.7694116769
 30
0.0
 10
22.0393568013
 20
223.9176527991
 30
0.0
 10
22.6697249986
 20
223.226641644
 30
0.0
 10
23.4426997328
 20
222.7273635803
 30
0.0
 10
24.3249351082
 20
222.4421803779
 30
0.0
 10
25.2773868953
 20
222.3810591869
 30
0.0
 10
25.9171863168
 20
222.4863721782
 30
0.0
 10
26.2351706897
 20
222.5716096328
 30
0.0
  0
SPLINE
  5
2BA
100
AcDbEntity
  8
0
100
AcDbSpline
 62
7
  6
CONTINUOUS
 70
0
 71
3
 72
15
 73
11
 74
0
 42
0.0000001
 43
0.0000001
 44
0.0000000001
 40
0.0
 40
0.0
 40
0.0
 40
0.0
 40
0.0524622067
 40
0.1056451731
 40
0.2162149228
 40
0.3353287396
 40
0.4632716105
 40
0.5978589133
 40
0.7353247898
 40
1.0
 40
1.0
 40
1.0
 40
1.0
 10
14.3640909712
 20
230.4637586572
 30
0.0
 10
14.5460372657
 20
230.3586526687
 30
0.0
 10
14.9329206373
 20
230.1804102409
 30
0.0
 10
15.7755739158
 20
229.9641823573
 30
0.0
 10
16.9310411569
 20
229.980191983
 30
0.0
 10
18.3084714564
 20
230.4345782603
 30
0.0
 10
19.6028007995
 20
231.2748936517
 30
0.0
 10
20.7245362817
 20
232.4382709577
 30
0.0
 10
21.8664658014
 20
234.2691979602
 30
0.0
 10
22.2862422605
 20
235.8978145865
 30
0.0
 10
22.2862422605
 20
236.9578992223
 30
0.0
  0
SPLINE
  5
2BB
100
AcDbEntity
  8
0
100
AcDbSpline
 62
7
  6
CONTINUOUS
 70
0
 71
3
 72
14
 73
10
 74
0
 42
0.0000001
 43
0.0000001
 44
0.0000000001
 40
0.0
 40
0.0
 40
0.0
 40
0.0
 40
0.2346073929
 40
0.3603379301
 40
0.4894684284
 40
0.6200482101
 40
0.7499714674
 40
0.8772023527
 40
1.0
 40
1.0
 40
1.0
 40
1.0
 10
26.2351706897
 20
222.5716096328
 30
0.0
 10
26.9210293828
 20
222.7554578158
 30
0.0
 10
27.9206238237
 20
223.2663832105
 30
0.0
 10
29.0411070459
 20
224.2396377909
 30
0.0
 10
29.7972859742
 20
225.1348089408
 30
0.0
 10
30.4175983186
 20
226.1426146573
 30
0.0
 10
30.8800827602
 20
227.2260880799
 30
0.0
 10
31.1669738868
 20
228.3442276592
 30
0.0
 10
31.2351708615
 20
229.1021972744
 30
0.0
 10
31.2351708618
 20
229.4738615036
 30
0.0
  0
SPLINE
  5
2BC
100
AcDbEntity
  8
0
100
AcDbSpline
 62
7
  6
CONTINUOUS
 70
0
 71
3
 72
14
 73
10
 74
0
 42
0.0000001
 43
0.0000001
 44
0.0000000001
 40
0.0
 40
0.0
 40
0.0
 40
0.0
 40
0.2557912116
 40
0.3891490899
 40
0.5219109416
 40
0.6511936057
 40
0.7746421239
 40
0.890894578
 40
1.0
 40
1.0
 40
1.0
 40
1.0
 10
28.3554623897
 20
250.8481676558
 30
0.0
 10
28.3554623897
 20
249.965700682
 30
0.0
 10
28.0640843496
 20
248.6117169107
 30
0.0
 10
27.2440556327
 20
247.0034014518
 30
0.0
 10
26.4187653486
 20
245.9072543029
 30
0.0
 10
25.4355936925
 20
245.0006233693
 30
0.0
 10
24.343157926
 20
244.3296074252
 30
0.0
 10
23.1970397445
 20
243.9312138593
 30
0.0
 10
22.4117018976
 20
243.8630555813
 30
0.0
 10
22.0359034639
 20
243.8844736855
 30
0.0
  0
SPLINE
  5
2BD
100
AcDbEntity
  8
0
100
AcDbSpline
 62
7
  6
CONTINUOUS
 70
0
 71
3
 72
11
 73
7
 74
0
 42
0.0000001
 43
0.0000001
 44
0.0000000001
 40
0.0
 40
0.0
 40
0.0
 40
0.0
 40
0.2717570839
 40
0.5268813873
 40
0.7676358954
 40
1.0
 40
1.0
 40
1.0
 40
1.0
 10
26.0233988673
 20
250.2230452427
 30
0.0
 10
26.0233988673
 20
250.4383791592
 30
0.0
 10
25.9815070259
 20
250.8576389168
 30
0.0
 10
25.7810264454
 20
251.4384200571
 30
0.0
 10
25.452369048
 20
251.9216238079
 30
0.0
 10
25.1549831592
 20
252.160800955
 30
0.0
 10
24.9955576023
 20
252.2529074687
 30
0.0
  0
SPLINE
  5
2BE
100
AcDbEntity
  8
0
100
AcDbSpline
 62
7
  6
CONTINUOUS
 70
0
 71
3
 72
9
 73
5
 74
0
 42
0.0000001
 43
0.0000001
 44
0.0000000001
 40
0.0
 40
0.0
 40
0.0
 40
0.0
 40
0.481087829
 40
1.0
 40
1.0
 40
1.0
 40
1.0
 10
18.7409813274
 20
241.2618994669
 30
0.0
 10
18.985584388
 20
240.8844806199
 30
0.0
 10
19.3603746083
 20
240.0091126636
 30
0.0
 10
19.4711645634
 20
239.0689469984
 30
0.0
 10
19.4711645634
 20
238.5838358193
 30
0.0
  0
SPLINE
  5
2BF
100
AcDbEntity
  8
0
100
AcDbSpline
 62
7
  6
CONTINUOUS
 70
0
 71
3
 72
14
 73
10
 74
0
 42
0.0000001
 43
0.0000001
 44
0.0000000001
 40
0.0
 40
0.0
 40
0.0
 40
0.0
 40
0.1052607121
 40
0.2158763284
 40
0.3350400042
 40
0.4630364262
 40
0.5976785521
 40
0.735210095
 40
1.0
 40
1.0
 40
1.0
 40
1.0
 10
30.7289262092
 20
239.2961598388
 30
0.0
 10
30.9213990024
 20
239.1849606163
 30
0.0
 10
31.3628383116
 20
239.0302141908
 30
0.0
 10
32.0824655239
 20
239.0413362897
 30
0.0
 10
32.8095983016
 20
239.2806991672
 30
0.0
 10
33.4921515394
 20
239.7240263428
 30
0.0
 10
34.0839107953
 20
240.3376465383
 30
0.0
 10
34.6862345952
 20
241.3034435302
 30
0.0
 10
34.9076966936
 20
242.1625086819
 30
0.0
 10
34.9076966936
 20
242.7216828904
 30
0.0
  0
SPLINE
  5
2C0
100
AcDbEntity
  8
0
100
AcDbSpline
 62
7
  6
CONTINUOUS
 70
0
 71
3
 72
15
 73
11
 74
0
 42
0.0000001
 43
0.0000001
 44
0.0000000001
 40
0.0
 40
0.0
 40
0.0
 40
0.0
 40
0.1383951981
 40
0.2695587326
 40
0.3940347268
 40
0.5135537928
 40
0.6308546392
 40
0.7491689886
 40
0.8715002297
 40
1.0
 40
1.0
 40
1.0
 40
1.0
 10
31.2351708618
 20
229.4738615036
 30
0.0
 10
31.235170862
 20
229.8284235229
 30
0.0
 10
31.1757612737
 20
230.5210778818
 30
0.0
 10
30.894418493
 20
231.4977564111
 30
0.0
 10
30.4309845781
 20
232.349515289
 30
0.0
 10
29.8006163809
 20
233.0405264441
 30
0.0
 10
29.0276416466
 20
233.5398045078
 30
0.0
 10
28.1454062712
 20
233.8249877102
 30
0.0
 10
27.1929544842
 20
233.8861089012
 30
0.0
 10
26.5531550626
 20
233.7807959099
 30
0.0
 10
26.2351706897
 20
233.6955584553
 30
0.0
  0
SPLINE
  5
2C1
100
AcDbEntity
  8
0
100
AcDbSpline
 62
7
  6
CONTINUOUS
 70
0
 71
3
 72
14
 73
10
 74
0
 42
0.0000001
 43
0.0000001
 44
0.0000000001
 40
0.0
 40
0.0
 40
0.0
 40
0.0
 40
0.2557912116
 40
0.3891490899
 40
0.5219109416
 40
0.6511936057
 40
0.7746421239
 40
0.890894578
 40
1.0
 40
1.0
 40
1.0
 40
1.0
 10
37.2397602161
 20
243.3468053035
 30
0.0
 10
37.2397602161
 20
242.4643383298
 30
0.0
 10
36.9483821759
 20
241.1103545584
 30
0.0
 10
36.128353459
 20
239.5020390995
 30
0.0
 10
35.3030631749
 20
238.4058919506
 30
0.0
 10
34.3198915188
 20
237.499261017
 30
0.0
 10
33.2274557523
 20
236.8282450729
 30
0.0
 10
32.0813375709
 20
236.429851507
 30
0.0
 10
31.2959997239
 20
236.361693229
 30
0.0
 10
30.9202012902
 20
236.3831113332
 30
0.0
  0
SPLINE
  5
2C2
100
AcDbEntity
  8
0
100
AcDbSpline
 62
7
  6
CONTINUOUS
 70
0
 71
3
 72
11
 73
7
 74
0
 42
0.0000001
 43
0.0000001
 44
0.0000000001
 40
0.0
 40
0.0
 40
0.0
 40
0.0
 40
0.2717570839
 40
0.5268813873
 40
0.7676358954
 40
1.0
 40
1.0
 40
1.0
 40
1.0
 10
34.9076966936
 20
242.7216828904
 30
0.0
 10
34.9076966936
 20
242.9370168069
 30
0.0
 10
34.8658048523
 20
243.3562765645
 30
0.0
 10
34.6653242717
 20
243.9370577048
 30
0.0
 10
34.3366668744
 20
244.4202614557
 30
0.0
 10
34.0392809856
 20
244.6594386027
 30
0.0
 10
33.8798554286
 20
244.7515451164
 30
0.0
  0
SPLINE
  5
2C3
100
AcDbEntity
  8
0
100
AcDbSpline
 62
7
  6
CONTINUOUS
 70
0
 71
3
 72
15
 73
11
 74
0
 42
0.0000001
 43
0.0000001
 44
0.0000000001
 40
0.0
 40
0.0
 40
0.0
 40
0.0
 40
0.0524622067
 40
0.1056451731
 40
0.2162149228
 40
0.3353287396
 40
0.4632716105
 40
0.5978589133
 40
0.7353247898
 40
1.0
 40
1.0
 40
1.0
 40
1.0
 10
32.1326866239
 20
235.2267281414
 30
0.0
 10
32.3146329184
 20
235.1216221529
 30
0.0
 10
32.70151629
 20
234.9433797251
 30
0.0
 10
33.5441695684
 20
234.7271518415
 30
0.0
 10
34.6996368096
 20
234.7431614672
 30
0.0
 10
36.0770671091
 20
235.1975477445
 30
0.0
 10
37.3713964522
 20
236.0378631359
 30
0.0
 10
38.4931319344
 20
237.2012404419
 30
0.0
 10
39.6350614541
 20
239.0321674444
 30
0.0
 10
40.0548379132
 20
240.6607840707
 30
0.0
 10
40.0548379132
 20
241.7208687065
 30
0.0
  0
SPLINE
  5
2C4
100
AcDbEntity
  8
0
100
AcDbSpline
 62
7
  6
CONTINUOUS
 70
0
 71
3
 72
14
 73
10
 74
0
 42
0.0000001
 43
0.0000001
 44
0.0000000001
 40
0.0
 40
0.0
 40
0.0
 40
0.0
 40
0.2346073929
 40
0.3603379301
 40
0.4894684284
 40
0.6200482101
 40
0.7499714674
 40
0.8772023527
 40
1.0
 40
1.0
 40
1.0
 40
1.0
 10
26.2351706897
 20
233.6955584553
 30
0.0
 10
25.5493119967
 20
233.5117102723
 30
0.0
 10
24.5497175558
 20
233.0007848776
 30
0.0
 10
23.4292343335
 20
232.0275302972
 30
0.0
 10
22.6730554053
 20
231.1323591472
 30
0.0
 10
22.0527430608
 20
230.1245534308
 30
0.0
 10
21.5902586193
 20
229.0410800082
 30
0.0
 10
21.3033674925
 20
227.9229404289
 30
0.0
 10
21.2351705182
 20
227.1649708137
 30
0.0
 10
21.2351705177
 20
226.7933065845
 30
0.0
  0
SPLINE
  5
2C5
100
AcDbEntity
  8
0
100
AcDbSpline
 62
7
  6
CONTINUOUS
 70
0
 71
3
 72
14
 73
10
 74
0
 42
0.0000001
 43
0.0000001
 44
0.0000000001
 40
0.0
 40
0.0
 40
0.0
 40
0.0
 40
0.2557912116
 40
0.3891490899
 40
0.5219109416
 40
0.6511936057
 40
0.7746421239
 40
0.890894578
 40
1.0
 40
1.0
 40
1.0
 40
1.0
 10
19.4711645634
 20
238.5838358193
 30
0.0
 10
19.4711645634
 20
237.7013688456
 30
0.0
 10
19.1797865233
 20
236.3473850742
 30
0.0
 10
18.3597578064
 20
234.7390696153
 30
0.0
 10
17.5344675222
 20
233.6429224664
 30
0.0
 10
16.5512958662
 20
232.7362915328
 30
0.0
 10
15.4588600996
 20
232.0652755887
 30
0.0
 10
14.3127419182
 20
231.6668820228
 30
0.0
 10
13.5274040713
 20
231.5987237448
 30
0.0
 10
13.1516056376
 20
231.620141849
 30
0.0
  0
SPLINE
  5
2C6
100
AcDbEntity
  8
0
100
AcDbSpline
 62
7
  6
CONTINUOUS
 70
0
 71
3
 72
11
 73
7
 74
0
 42
0.0000001
 43
0.0000001
 44
0.0000000001
 40
0.0
 40
0.0
 40
0.0
 40
0.0
 40
0.2717570839
 40
0.5268813873
 40
0.7676358954
 40
1.0
 40
1.0
 40
1.0
 40
1.0
 10
17.139101041
 20
237.9587134062
 30
0.0
 10
17.139101041
 20
238.1740473227
 30
0.0
 10
17.0972091996
 20
238.5933070803
 30
0.0
 10
16.8967286191
 20
239.1740882206
 30
0.0
 10
16.5680712217
 20
239.6572919715
 30
0.0
 10
16.2706853329
 20
239.8964691185
 30
0.0
 10
16.111259776
 20
239.9885756322
 30
0.0
  0
SPLINE
  5
2C7
100
AcDbEntity
  8
0
100
AcDbSpline
 62
7
  6
CONTINUOUS
 70
0
 71
3
 72
9
 73
5
 74
0
 42
0.0000001
 43
0.0000001
 44
0.0000000001
 40
0.0
 40
0.0
 40
0.0
 40
0.0
 40
0.481087829
 40
1.0
 40
1.0
 40
1.0
 40
1.0
 10
36.5095769801
 20
246.0248689511
 30
0.0
 10
36.7541800407
 20
245.6474501041
 30
0.0
 10
37.128970261
 20
244.7720821478
 30
0.0
 10
37.2397602161
 20
243.8319164826
 30
0.0
 10
37.2397602161
 20
243.3468053035
 30
0.0
  0
SPLINE
  5
2C8
100
AcDbEntity
  8
0
100
AcDbSpline
 62
7
  6
CONTINUOUS
 70
0
 71
3
 72
12
 73
8
 74
0
 42
0.0000001
 43
0.0000001
 44
0.0000000001
 40
0.0
 40
0.0
 40
0.0
 40
0.0
 40
0.2349899832
 40
0.4894752595
 40
0.6202667695
 40
0.7503904793
 40
1.0
 40
1.0
 40
1.0
 40
1.0
 10
25.109139606
 20
225.0606534972
 30
0.0
 10
25.5682789417
 20
225.1837283123
 30
0.0
 10
26.4733377792
 20
225.6461160087
 30
0.0
 10
27.3605285414
 20
226.5605290062
 30
0.0
 10
27.908969235
 20
227.4513796349
 30
0.0
 10
28.3156391918
 20
228.4030479701
 30
0.0
 10
28.4562471643
 20
229.1762474837
 30
0.0
 10
28.4562471641
 20
229.6811692136
 30
0.0
  0
SPLINE
  5
2C9
100
AcDbEntity
  8
0
100
AcDbSpline
 62
7
  6
CONTINUOUS
 70
0
 71
3
 72
11
 73
7
 74
0
 42
0.0000001
 43
0.0000001
 44
0.0000000001
 40
0.0
 40
0.0
 40
0.0
 40
0.0
 40
0.2717668072
 40
0.5268680781
 40
0.7676307415
 40
1.0
 40
1.0
 40
1.0
 40
1.0
 10
28.4562471641
 20
229.6811692136
 30
0.0
 10
28.4562471639
 20
229.9580379552
 30
0.0
 10
28.4024085221
 20
230.4970784307
 30
0.0
 10
28.1446128635
 20
231.2437846476
 30
0.0
 10
27.7220919724
 20
231.8650441391
 30
0.0
 10
27.3397556085
 20
232.1726316244
 30
0.0
 10
27.1347440951
 20
232.2910044158
 30
0.0
  0
SPLINE
  5
2CA
100
AcDbEntity
  8
0
100
AcDbSpline
 62
7
  6
CONTINUOUS
 70
0
 71
3
 72
14
 73
10
 74
0
 42
0.0000001
 43
0.0000001
 44
0.0000000001
 40
0.0
 40
0.0
 40
0.0
 40
0.0
 40
0.1052607121
 40
0.2158763284
 40
0.3350400042
 40
0.4630364262
 40
0.5976785521
 40
0.735210095
 40
1.0
 40
1.0
 40
1.0
 40
1.0
 10
21.8446283829
 20
246.797522191
 30
0.0
 10
22.037101176
 20
246.6863229686
 30
0.0
 10
22.4785404853
 20
246.5315765431
 30
0.0
 10
23.1981676976
 20
246.542698642
 30
0.0
 10
23.9253004753
 20
246.7820615195
 30
0.0
 10
24.6078537131
 20
247.2253886951
 30
0.0
 10
25.199612969
 20
247.8390088905
 30
0.0
 10
25.8019367688
 20
248.8048058825
 30
0.0
 10
26.0233988673
 20
249.6638710342
 30
0.0
 10
26.0233988673
 20
250.2230452427
 30
0.0
  0
SPLINE
  5
2CB
100
AcDbEntity
  8
0
100
AcDbSpline
 62
7
  6
CONTINUOUS
 70
0
 71
3
 72
11
 73
7
 74
0
 42
0.0000001
 43
0.0000001
 44
0.0000000001
 40
0.0
 40
0.0
 40
0.0
 40
0.0
 40
0.2717775313
 40
0.5268694486
 40
0.7676333348
 40
1.0
 40
1.0
 40
1.0
 40
1.0
 10
40.0548379132
 20
241.7208687065
 30
0.0
 10
40.0548379132
 20
242.1291313158
 30
0.0
 10
39.9754638645
 20
242.9239626908
 30
0.0
 10
39.5952818937
 20
244.0249641845
 30
0.0
 10
38.9723116066
 20
244.9410471795
 30
0.0
 10
38.4085024688
 20
245.39449989
 30
0.0
 10
38.1062504083
 20
245.5691036196
 30
0.0
  0
SPLINE
  5
2CC
100
AcDbEntity
  8
0
100
AcDbSpline
 62
7
  6
CONTINUOUS
 70
0
 71
3
 72
20
 73
16
 74
0
 42
0.0000001
 43
0.0000001
 44
0.0000000001
 40
0.0
 40
0.0
 40
0.0
 40
0.0
 40
0.0524886651
 40
0.1058788637
 40
0.1609446763
 40
0.218240177
 40
0.340076156
 40
0.4047856255
 40
0.4714397363
 40
0.6080572842
 40
0.7449175192
 40
0.8118576135
 40
0.8769396523
 40
0.9397340236
 40
1.0
 40
1.0
 40
1.0
 40
1.0
 10
16.2321828494
 20
220.6976819565
 30
0.0
 10
15.5483391168
 20
221.0926822352
 30
0.0
 10
14.2475362164
 20
222.034938238
 30
0.0
 10
12.6028684574
 20
223.832690771
 30
0.0
 10
11.2948464107
 20
225.9734592196
 30
0.0
 10
10.0152068909
 20
229.2728461791
 30
0.0
 10
9.5670963192
 20
232.981459314
 30
0.0
 10
9.8835289233
 20
236.7844881161
 30
0.0
 10
10.7347109448
 20
240.7364537477
 30
0.0
 10
12.733833848
 20
245.5029681804
 30
0.0
 10
15.7820642914
 20
249.6829388845
 30
0.0
 10
18.7284568361
 20
252.4684009773
 30
0.0
 10
21.1057822832
 20
254.1983030281
 30
0.0
 10
23.6081219154
 20
255.540518319
 30
0.0
 10
25.3593494942
 20
256.1683547337
 30
0.0
 10
26.2351706897
 20
256.4031234071
 30
0.0
  0
SPLINE
  5
2CD
100
AcDbEntity
  8
0
100
AcDbSpline
 62
7
  6
CONTINUOUS
 70
0
 71
3
 72
15
 73
11
 74
0
 42
0.0000001
 43
0.0000001
 44
0.0000000001
 40
0.0
 40
0.0
 40
0.0
 40
0.0
 40
0.0524622067
 40
0.1056451731
 40
0.2162149228
 40
0.3353287396
 40
0.4632716105
 40
0.5978589133
 40
0.7353247898
 40
1.0
 40
1.0
 40
1.0
 40
1.0
 10
23.2483887975
 20
242.7280904937
 30
0.0
 10
23.4303350921
 20
242.6229845052
 30
0.0
 10
23.8172184637
 20
242.4447420774
 30
0.0
 10
24.6598717421
 20
242.2285141938
 30
0.0
 10
25.8153389832
 20
242.2445238195
 30
0.0
 10
27.1927692827
 20
242.6989100968
 30
0.0
 10
28.4870986258
 20
243.5392254882
 30
0.0
 10
29.608834108
 20
244.7026027942
 30
0.0
 10
30.7507636278
 20
246.5335297967
 30
0.0
 10
31.1705400869
 20
248.162146423
 30
0.0
 10
31.1705400869
 20
249.2222310588
 30
0.0
  0
SPLINE
  5
2CE
100
AcDbEntity
  8
0
100
AcDbSpline
 62
7
  6
CONTINUOUS
 70
0
 71
3
 72
10
 73
6
 74
0
 42
0.0000001
 43
0.0000001
 44
0.0000000001
 40
0.0
 40
0.0
 40
0.0
 40
0.0
 40
0.2403281525
 40
0.4850960851
 40
1.0
 40
1.0
 40
1.0
 40
1.0
 10
23.0835351267
 20
225.2769129499
 30
0.0
 10
23.2280689654
 20
225.1934597152
 30
0.0
 10
23.5391206205
 20
225.0561108367
 30
0.0
 10
24.2227470761
 20
224.9137685958
 30
0.0
 10
24.7637563697
 20
224.9680716279
 30
0.0
 10
25.109139606
 20
225.0606534972
 30
0.0
  0
SPLINE
  5
2CF
100
AcDbEntity
  8
0
100
AcDbSpline
 62
7
  6
CONTINUOUS
 70
0
 71
3
 72
9
 73
5
 74
0
 42
0.0000001
 43
0.0000001
 44
0.0000000001
 40
0.0
 40
0.0
 40
0.0
 40
0.0
 40
0.481087829
 40
1.0
 40
1.0
 40
1.0
 40
1.0
 10
27.6252791538
 20
253.5262313034
 30
0.0
 10
27.8698822143
 20
253.1488124564
 30
0.0
 10
28.2446724346
 20
252.2734445001
 30
0.0
 10
28.3554623897
 20
251.3332788349
 30
0.0
 10
28.3554623897
 20
250.8481676558
 30
0.0
  0
SPLINE
  5
2D0
100
AcDbEntity
  8
0
100
AcDbSpline
 62
7
  6
CONTINUOUS
 70
0
 71
3
 72
17
 73
13
 74
0
 42
0.0000001
 43
0.0000001
 44
0.0000000001
 40
0.0
 40
0.0
 40
0.0
 40
0.0
 40
0.040037271
 40
0.0828916922
 40
0.1306078836
 40
0.1842328439
 40
0.3091200408
 40
0.4529231193
 40
0.6053940697
 40
0.7544097566
 40
0.8885512168
 40
1.0
 40
1.0
 40
1.0
 40
1.0
 10
3.1140705661
 20
276.4786193773
 30
0.0
 10
3.1700042993
 20
276.4936095102
 30
0.0
 10
3.2812675307
 20
276.544371204
 30
0.0
 10
3.4233225289
 20
276.6723542414
 30
0.0
 10
3.5401405638
 20
276.8471902718
 30
0.0
 10
3.6661548983
 20
277.1508537443
 30
0.0
 10
3.73913675
 20
277.617317044
 30
0.0
 10
3.7069761234
 20
278.2285734803
 30
0.0
 10
3.562190387
 20
278.8593372845
 30
0.0
 10
3.3190752238
 20
279.4443768255
 30
0.0
 10
3.0039324955
 20
279.9240144737
 30
0.0
 10
2.7358255255
 20
280.1684624462
 30
0.0
 10
2.5962422595
 20
280.2490831483
 30
0.0
  0
SPLINE
  5
2D1
100
AcDbEntity
  8
0
100
AcDbSpline
 62
7
  6
CONTINUOUS
 70
0
 71
3
 72
13
 73
9
 74
0
 42
0.0000001
 43
0.0000001
 44
0.0000000001
 40
0.0
 40
0.0
 40
0.0
 40
0.0
 40
0.1156303754
 40
0.2326531373
 40
0.3519406451
 40
0.4742161034
 40
0.7292113558
 40
1.0
 40
1.0
 40
1.0
 40
1.0
 10
40.2914150625
 20
261.7374291295
 30
0.0
 10
40.931363328
 20
261.3145597328
 30
0.0
 10
42.159229932
 20
260.3692987415
 30
0.0
 10
43.7938785958
 20
258.6923624479
 30
0.0
 10
45.2097387631
 20
256.771715369
 30
0.0
 10
46.8043879229
 20
253.8801356428
 30
0.0
 10
48.1496481037
 20
249.7522196663
 30
0.0
 10
48.4820732905
 20
246.2522353468
 30
0.0
 10
48.4820732905
 20
244.4559420748
 30
0.0
  0
SPLINE
  5
2D2
100
AcDbEntity
  8
0
100
AcDbSpline
 62
7
  6
CONTINUOUS
 70
0
 71
3
 72
13
 73
9
 74
0
 42
0.0000001
 43
0.0000001
 44
0.0000000001
 40
0.0
 40
0.0
 40
0.0
 40
0.0
 40
0.2347902242
 40
0.4890705672
 40
0.6197521108
 40
0.7497766182
 40
0.8771066556
 40
1.0
 40
1.0
 40
1.0
 40
1.0
 10
-20.5881326295
 20
285.9617115088
 30
0.0
 10
-21.3250056055
 20
285.7641886676
 30
0.0
 10
-22.7775482459
 20
285.0221740561
 30
0.0
 10
-24.2015089238
 20
283.5542445745
 30
0.0
 10
-25.0816432506
 20
282.1252564031
 30
0.0
 10
-25.5785357794
 20
280.960989649
 30
0.0
 10
-25.886763686
 20
279.7597367941
 30
0.0
 10
-25.9600336408
 20
278.945377679
 30
0.0
 10
-25.9600336408
 20
278.5460690031
 30
0.0
  0
SPLINE
  5
2D3
100
AcDbEntity
  8
0
100
AcDbSpline
 62
7
  6
CONTINUOUS
 70
0
 71
3
 72
11
 73
7
 74
0
 42
0.0000001
 43
0.0000001
 44
0.0000000001
 40
0.0
 40
0.0
 40
0.0
 40
0.0
 40
0.2717776924
 40
0.5268678486
 40
0.7676328571
 40
1.0
 40
1.0
 40
1.0
 40
1.0
 10
-25.9600336408
 20
212.353976836
 30
0.0
 10
-25.9600336408
 20
211.9096035734
 30
0.0
 10
-25.8736366251
 20
211.0444735841
 30
0.0
 10
-25.4598311598
 20
209.8460881013
 30
0.0
 10
-24.781750793
 20
208.8489874194
 30
0.0
 10
-24.1680825271
 20
208.3554118627
 30
0.0
 10
-23.8390954277
 20
208.1653650812
 30
0.0
  0
SPLINE
  5
2D4
100
AcDbEntity
  8
0
100
AcDbSpline
 62
7
  6
CONTINUOUS
 70
0
 71
3
 72
19
 73
15
 74
0
 42
0.0000001
 43
0.0000001
 44
0.0000000001
 40
0.0
 40
0.0
 40
0.0
 40
0.0
 40
0.0523306413
 40
0.1053801119
 40
0.1597856108
 40
0.2160393087
 40
0.2744528996
 40
0.3351488901
 40
0.4627704068
 40
0.59701924
 40
0.6655874632
 40
0.7343313905
 40
0.86994405
 40
1.0
 40
1.0
 40
1.0
 40
1.0
 10
38.3509482867
 20
260.2931434865
 30
0.0
 10
37.5785704315
 20
260.7392918033
 30
0.0
 10
35.9366014721
 20
261.4961813177
 30
0.0
 10
33.284944907
 20
262.1752238413
 30
0.0
 10
30.4893768846
 20
262.3908753069
 30
0.0
 10
27.6065059129
 20
262.1410421015
 30
0.0
 10
24.6913187944
 20
261.4331934828
 30
0.0
 10
20.7726972418
 20
259.8747534826
 30
0.0
 10
16.1111792123
 20
256.8483863726
 30
0.0
 10
12.168719134
 20
252.7616260357
 30
0.0
 10
9.513790883
 20
248.9610645646
 30
0.0
 10
7.2614039849
 20
244.8820424083
 30
0.0
 10
5.301975132
 20
239.4825909192
 30
0.0
 10
4.7217412063
 20
234.9425419459
 30
0.0
 10
4.7217412063
 20
232.7257451358
 30
0.0
  0
SPLINE
  5
2D5
100
AcDbEntity
  8
0
100
AcDbSpline
 62
7
  6
CONTINUOUS
 70
0
 71
3
 72
8
 73
4
 74
0
 42
0.0000001
 43
0.0000001
 44
0.0000000001
 40
0.0
 40
0.0
 40
0.0
 40
0.0
 40
1.0
 40
1.0
 40
1.0
 40
1.0
 10
-19.2431466853
 20
274.3788073547
 30
0.0
 10
-19.3406967278
 20
273.9930136585
 30
0.0
 10
-19.5555605657
 20
273.6223790209
 30
0.0
 10
-19.8418321904
 20
273.3459710909
 30
0.0
  0
SPLINE
  5
2D6
100
AcDbEntity
  8
0
100
AcDbSpline
 62
7
  6
CONTINUOUS
 70
0
 71
3
 72
8
 73
4
 74
0
 42
0.0000001
 43
0.0000001
 44
0.0000000001
 40
0.0
 40
0.0
 40
0.0
 40
0.0
 40
1.0
 40
1.0
 40
1.0
 40
1.0
 10
-19.2431466853
 20
219.2187305489
 30
0.0
 10
-19.3406967278
 20
218.8329368526
 30
0.0
 10
-19.5555605657
 20
218.4623022151
 30
0.0
 10
-19.8418321904
 20
218.1858942851
 30
0.0
  0
SPLINE
  5
2D7
100
AcDbEntity
  8
0
100
AcDbSpline
 62
7
  6
CONTINUOUS
 70
0
 71
3
 72
10
 73
6
 74
0
 42
0.0000001
 43
0.0000001
 44
0.0000000001
 40
0.0
 40
0.0
 40
0.0
 40
0.0
 40
0.5252176711
 40
0.7667927662
 40
1.0
 40
1.0
 40
1.0
 40
1.0
 10
-19.9099338597
 20
272.8902288697
 30
0.0
 10
-19.9099338597
 20
272.666438369
 30
0.0
 10
-19.8444257504
 20
272.3295907702
 30
0.0
 10
-19.6017064319
 20
271.9737120967
 30
0.0
 10
-19.4412778247
 20
271.8444364964
 30
0.0
 10
-19.3552205234
 20
271.7947571276
 30
0.0
  0
SPLINE
  5
2D8
100
AcDbEntity
  8
0
100
AcDbSpline
 62
7
  6
CONTINUOUS
 70
0
 71
3
 72
10
 73
6
 74
0
 42
0.0000001
 43
0.0000001
 44
0.0000000001
 40
0.0
 40
0.0
 40
0.0
 40
0.0
 40
0.5148899604
 40
0.7596727888
 40
1.0
 40
1.0
 40
1.0
 40
1.0
 10
-18.5049751337
 20
206.6150762854
 30
0.0
 10
-19.05927786
 20
206.4664924005
 30
0.0
 10
-19.927572318
 20
206.3793194836
 30
0.0
 10
-21.0247246856
 20
206.607820903
 30
0.0
 10
-21.5239991708
 20
206.8281873613
 30
0.0
 10
-21.7559379333
 20
206.9621719969
 30
0.0
  0
SPLINE
  5
2D9
100
AcDbEntity
  8
0
100
AcDbSpline
 62
7
  6
CONTINUOUS
 70
0
 71
3
 72
10
 73
6
 74
0
 42
0.0000001
 43
0.0000001
 44
0.0000000001
 40
0.0
 40
0.0
 40
0.0
 40
0.0
 40
0.5252176711
 40
0.7667927662
 40
1.0
 40
1.0
 40
1.0
 40
1.0
 10
-19.9099338597
 20
217.7301520638
 30
0.0
 10
-19.9099338597
 20
217.5063615631
 30
0.0
 10
-19.8444257504
 20
217.1695139644
 30
0.0
 10
-19.6017064319
 20
216.8136352908
 30
0.0
 10
-19.4412778247
 20
216.6843596905
 30
0.0
 10
-19.3552205234
 20
216.6346803217
 30
0.0
  0
SPLINE
  5
2DA
100
AcDbEntity
  8
0
100
AcDbSpline
 62
7
  6
CONTINUOUS
 70
0
 71
3
 72
13
 73
9
 74
0
 42
0.0000001
 43
0.0000001
 44
0.0000000001
 40
0.0
 40
0.0
 40
0.0
 40
0.0
 40
0.1054216662
 40
0.2162098291
 40
0.3355589934
 40
0.4637550049
 40
0.7347840682
 40
1.0
 40
1.0
 40
1.0
 40
1.0
 10
-17.6547297439
 20
219.5788375848
 30
0.0
 10
-17.7586204722
 20
219.6388118778
 30
0.0
 10
-17.9968290579
 20
219.7223649127
 30
0.0
 10
-18.3851829797
 20
219.7163541016
 30
0.0
 10
-18.777680577
 20
219.5872039671
 30
0.0
 10
-19.2767724981
 20
219.262668419
 30
0.0
 10
-19.7526396402
 20
218.6454446049
 30
0.0
 10
-19.9099338597
 20
218.0319408765
 30
0.0
 10
-19.9099338597
 20
217.7301520638
 30
0.0
  0
SPLINE
  5
2DB
100
AcDbEntity
  8
0
100
AcDbSpline
 62
7
  6
CONTINUOUS
 70
0
 71
3
 72
11
 73
7
 74
0
 42
0.0000001
 43
0.0000001
 44
0.0000000001
 40
0.0
 40
0.0
 40
0.0
 40
0.0
 40
0.2574480825
 40
0.5087305987
 40
0.755511071
 40
1.0
 40
1.0
 40
1.0
 40
1.0
 10
21.3351624246
 20
212.2683016865
 30
0.0
 10
20.491716957
 20
212.2239205818
 30
0.0
 10
18.8168525745
 20
212.2449197997
 30
0.0
 10
16.3587175068
 20
212.6216205722
 30
0.0
 10
14.0217392529
 20
213.3392680887
 30
0.0
 10
12.562591521
 20
214.0405630592
 30
0.0
 10
11.8680191653
 20
214.4417226022
 30
0.0
  0
SPLINE
  5
2DC
100
AcDbEntity
  8
0
100
AcDbSpline
 62
7
  6
CONTINUOUS
 70
0
 71
3
 72
13
 73
9
 74
0
 42
0.0000001
 43
0.0000001
 44
0.0000000001
 40
0.0
 40
0.0
 40
0.0
 40
0.0
 40
0.245661
 40
0.3735600528
 40
0.5026925708
 40
0.6314522685
 40
0.7582632519
 40
1.0
 40
1.0
 40
1.0
 40
1.0
 10
48.4820732905
 20
244.4559420748
 30
0.0
 10
48.4820732905
 20
241.4430745753
 30
0.0
 10
47.7475504801
 20
236.8365933797
 30
0.0
 10
45.5858908073
 20
231.0523787362
 30
0.0
 10
43.3584118718
 20
226.8613817815
 30
0.0
 10
40.6111319272
 20
223.0071632722
 30
0.0
 10
36.4400790258
 20
218.5442310723
 30
0.0
 10
32.6782815868
 20
215.8839162292
 30
0.0
 10
30.009147876
 20
214.5934110434
 30
0.0
  0
SPLINE
  5
2DD
100
AcDbEntity
  8
0
100
AcDbSpline
 62
7
  6
CONTINUOUS
 70
0
 71
3
 72
13
 73
9
 74
0
 42
0.0000001
 43
0.0000001
 44
0.0000000001
 40
0.0
 40
0.0
 40
0.0
 40
0.0
 40
0.274692903
 40
0.542207907
 40
0.6670905742
 40
0.784068139
 40
0.8940924654
 40
1.0
 40
1.0
 40
1.0
 40
1.0
 10
30.009147876
 20
214.5934110434
 30
0.0
 10
29.788962587
 20
213.7537394418
 30
0.0
 10
29.0330247386
 20
212.1690314381
 30
0.0
 10
27.4809779931
 20
210.6621000095
 30
0.0
 10
26.0239863413
 20
209.9490726619
 30
0.0
 10
24.9258987834
 20
209.7072393674
 30
0.0
 10
23.8613736933
 20
209.7670946801
 30
0.0
 10
23.2111470136
 20
210.0145081778
 30
0.0
 10
22.9213572381
 20
210.1819374097
 30
0.0
  0
SPLINE
  5
2DE
100
AcDbEntity
  8
0
100
AcDbSpline
 62
7
  6
CONTINUOUS
 70
0
 71
3
 72
11
 73
7
 74
0
 42
0.0000001
 43
0.0000001
 44
0.0000000001
 40
0.0
 40
0.0
 40
0.0
 40
0.0
 40
0.2717439845
 40
0.52688753
 40
0.7676297984
 40
1.0
 40
1.0
 40
1.0
 40
1.0
 10
22.7795930673
 20
214.1691854207
 30
0.0
 10
22.7795930673
 20
213.929938312
 30
0.0
 10
22.8261608419
 20
213.4640968683
 30
0.0
 10
23.0488767064
 20
212.8187755584
 30
0.0
 10
23.414097285
 20
212.2819055998
 30
0.0
 10
23.7445043324
 20
212.0161403406
 30
0.0
 10
23.9216509876
 20
211.9138035746
 30
0.0
  0
SPLINE
  5
2DF
100
AcDbEntity
  8
0
100
AcDbSpline
 62
7
  6
CONTINUOUS
 70
0
 71
3
 72
13
 73
9
 74
0
 42
0.0000001
 43
0.0000001
 44
0.0000000001
 40
0.0
 40
0.0
 40
0.0
 40
0.0
 40
0.2714319311
 40
0.526217362
 40
0.648228798
 40
0.7672664471
 40
0.8841851166
 40
1.0
 40
1.0
 40
1.0
 40
1.0
 10
4.7217412063
 20
232.7257451358
 30
0.0
 10
4.7217412063
 20
230.9927365834
 30
0.0
 10
5.0579851028
 20
227.6198070726
 30
0.0
 10
6.425054055
 20
223.6642364105
 30
0.0
 10
8.0410949079
 20
220.9316063096
 30
0.0
 10
9.4725452766
 20
219.1395232847
 30
0.0
 10
11.1209305902
 20
217.6024939396
 30
0.0
 10
12.3530519832
 20
216.7599280898
 30
0.0
 10
12.9933664419
 20
216.3901011863
 30
0.0
  0
SPLINE
  5
2E0
100
AcDbEntity
  8
0
100
AcDbSpline
 62
7
  6
CONTINUOUS
 70
0
 71
3
 72
13
 73
9
 74
0
 42
0.0000001
 43
0.0000001
 44
0.0000000001
 40
0.0
 40
0.0
 40
0.0
 40
0.0
 40
0.1054216662
 40
0.2162098291
 40
0.3355589934
 40
0.4637550049
 40
0.7347840682
 40
1.0
 40
1.0
 40
1.0
 40
1.0
 10
-17.6547297439
 20
274.7389143907
 30
0.0
 10
-17.7586204722
 20
274.7988886837
 30
0.0
 10
-17.9968290579
 20
274.8824417186
 30
0.0
 10
-18.3851829797
 20
274.8764309075
 30
0.0
 10
-18.777680577
 20
274.747280773
 30
0.0
 10
-19.2767724981
 20
274.4227452248
 30
0.0
 10
-19.7526396402
 20
273.8055214108
 30
0.0
 10
-19.9099338597
 20
273.1920176824
 30
0.0
 10
-19.9099338597
 20
272.8902288697
 30
0.0
  0
SPLINE
  5
2E1
100
AcDbEntity
  8
0
100
AcDbSpline
 62
7
  6
CONTINUOUS
 70
0
 71
3
 72
10
 73
6
 74
0
 42
0.0000001
 43
0.0000001
 44
0.0000000001
 40
0.0
 40
0.0
 40
0.0
 40
0.0
 40
0.2403242638
 40
0.4850896596
 40
1.0
 40
1.0
 40
1.0
 40
1.0
 10
-14.9908076709
 20
221.8510960737
 30
0.0
 10
-15.1692410653
 20
221.9541232087
 30
0.0
 10
-15.5532476248
 20
222.1236908989
 30
0.0
 10
-16.3972272784
 20
222.2994306837
 30
0.0
 10
-17.0651436603
 20
222.2323946421
 30
0.0
 10
-17.4915471627
 20
222.1180948455
 30
0.0
  0
SPLINE
  5
2E2
100
AcDbEntity
  8
0
100
AcDbSpline
 62
7
  6
CONTINUOUS
 70
0
 71
3
 72
11
 73
7
 74
0
 42
0.0000001
 43
0.0000001
 44
0.0000000001
 40
0.0
 40
0.0
 40
0.0
 40
0.0
 40
0.2346393195
 40
0.4787331892
 40
0.7337608988
 40
1.0
 40
1.0
 40
1.0
 40
1.0
 10
46.9788493078
 20
263.4444056902
 30
0.0
 10
47.8714697933
 20
262.3399180695
 30
0.0
 10
49.4683829016
 20
259.8969664246
 30
0.0
 10
51.1809787596
 20
255.7756920803
 30
0.0
 10
52.2177437214
 20
251.240723181
 30
0.0
 10
52.4386870146
 20
248.0800899613
 30
0.0
 10
52.4386870146
 20
246.4687475196
 30
0.0
  0
SPLINE
  5
2E3
100
AcDbEntity
  8
0
100
AcDbSpline
 62
7
  6
CONTINUOUS
 70
0
 71
3
 72
15
 73
11
 74
0
 42
0.0000001
 43
0.0000001
 44
0.0000000001
 40
0.0
 40
0.0
 40
0.0
 40
0.0
 40
0.1226793102
 40
0.2497804871
 40
0.3795759387
 40
0.5100271139
 40
0.6390304753
 40
0.7646372387
 40
0.8852762652
 40
1.0
 40
1.0
 40
1.0
 40
1.0
 10
52.4386870146
 20
246.4687475196
 30
0.0
 10
52.4386870146
 20
244.3953628651
 30
0.0
 10
52.0582834985
 20
240.1670391879
 30
0.0
 10
50.4577227177
 20
233.9294693687
 30
0.0
 10
47.8781401036
 20
227.8854596539
 30
0.0
 10
44.416508788
 20
222.2628699128
 30
0.0
 10
40.2023939867
 20
217.271069421
 30
0.0
 10
35.3904995456
 20
213.0975611032
 30
0.0
 10
30.1607307978
 20
209.9010673605
 30
0.0
 10
26.4189355714
 20
208.4664672839
 30
0.0
 10
24.5461240715
 20
207.9644498934
 30
0.0
  0
SPLINE
  5
2E4
100
AcDbEntity
  8
0
100
AcDbSpline
 62
7
  6
CONTINUOUS
 70
0
 71
3
 72
9
 73
5
 74
0
 42
0.0000001
 43
0.0000001
 44
0.0000000001
 40
0.0
 40
0.0
 40
0.0
 40
0.0
 40
0.2447922524
 40
1.0
 40
1.0
 40
1.0
 40
1.0
 10
14.419185377
 20
265.1876941531
 30
0.0
 10
14.4105227267
 20
264.6084122397
 30
0.0
 10
14.2980332044
 20
262.2434999658
 30
0.0
 10
13.885387815
 20
259.8950856593
 30
0.0
 10
13.4281507345
 20
258.1672198531
 30
0.0
  0
SPLINE
  5
2E5
100
AcDbEntity
  8
0
100
AcDbSpline
 62
7
  6
CONTINUOUS
 70
0
 71
3
 72
11
 73
7
 74
0
 42
0.0000001
 43
0.0000001
 44
0.0000000001
 40
0.0
 40
0.0
 40
0.0
 40
0.0
 40
0.2750170934
 40
0.5296431463
 40
0.7689473132
 40
1.0
 40
1.0
 40
1.0
 40
1.0
 10
-9.2270840684
 20
277.8467291804
 30
0.0
 10
-8.7963679717
 20
278.5690899735
 30
0.0
 10
-7.8683901053
 20
279.9059165351
 30
0.0
 10
-6.2103013279
 20
281.5917073288
 30
0.0
 10
-4.3628940553
 20
282.8453186239
 30
0.0
 10
-3.0117878733
 20
283.379002474
 30
0.0
 10
-2.3293044103
 20
283.5619450251
 30
0.0
  0
SPLINE
  5
2E6
100
AcDbEntity
  8
0
100
AcDbSpline
 62
7
  6
CONTINUOUS
 70
0
 71
3
 72
9
 73
5
 74
0
 42
0.0000001
 43
0.0000001
 44
0.0000000001
 40
0.0
 40
0.0
 40
0.0
 40
0.0
 40
0.5312871198
 40
1.0
 40
1.0
 40
1.0
 40
1.0
 10
2.5962422595
 20
280.2490831483
 30
0.0
 10
2.5139369367
 20
280.2966211743
 30
0.0
 10
2.3452024507
 20
280.3671060596
 30
0.0
 10
2.1594086969
 20
280.3639149011
 30
0.0
 10
2.0784139529
 20
280.3422084656
 30
0.0
  0
SPLINE
  5
2E7
100
AcDbEntity
  8
0
100
AcDbSpline
 62
7
  6
CONTINUOUS
 70
0
 71
3
 72
11
 73
7
 74
0
 42
0.0000001
 43
0.0000001
 44
0.0000000001
 40
0.0
 40
0.0
 40
0.0
 40
0.0
 40
0.2650441461
 40
0.5198521007
 40
0.7644636796
 40
1.0
 40
1.0
 40
1.0
 40
1.0
 10
-5.0350558343
 20
232.4832247423
 30
0.0
 10
-4.9965285014
 20
230.847470925
 30
0.0
 10
-4.6973657884
 20
227.6387059126
 30
0.0
 10
-3.545203075
 20
223.0421787366
 30
0.0
 10
-1.7243153442
 20
218.8631175609
 30
0.0
 10
-0.0616235216
 20
216.384572106
 30
0.0
 10
0.8625916724
 20
215.2620414668
 30
0.0
  0
SPLINE
  5
2E8
100
AcDbEntity
  8
0
100
AcDbSpline
 62
7
  6
CONTINUOUS
 70
0
 71
3
 72
9
 73
5
 74
0
 42
0.0000001
 43
0.0000001
 44
0.0000000001
 40
0.0
 40
0.0
 40
0.0
 40
0.0
 40
0.5108632848
 40
1.0
 40
1.0
 40
1.0
 40
1.0
 10
32.7382297377
 20
270.1056528546
 30
0.0
 10
32.9889306959
 20
269.1135671167
 30
0.0
 10
33.6435484906
 20
267.2080494404
 30
0.0
 10
34.6449423959
 20
265.4562256465
 30
0.0
 10
35.2166061172
 20
264.6605395695
 30
0.0
  0
SPLINE
  5
2E9
100
AcDbEntity
  8
0
100
AcDbSpline
 62
7
  6
CONTINUOUS
 70
0
 71
3
 72
12
 73
8
 74
0
 42
0.0000001
 43
0.0000001
 44
0.0000000001
 40
0.0
 40
0.0
 40
0.0
 40
0.0
 40
0.2460967948
 40
0.5005411913
 40
0.628396395
 40
0.7550172434
 40
1.0
 40
1.0
 40
1.0
 40
1.0
 10
12.043009663
 20
266.5612153459
 30
0.0
 10
9.4070123195
 20
264.6769518937
 30
0.0
 10
4.550483679
 20
260.1040236652
 30
0.0
 10
-0.0160942564
 20
253.1149153001
 30
0.0
 10
-2.6724928192
 20
246.9475864321
 30
0.0
 10
-4.555995083
 20
240.6373909112
 30
0.0
 10
-5.1110066894
 20
235.7078679204
 30
0.0
 10
-5.0350558343
 20
232.4832247423
 30
0.0
  0
SPLINE
  5
2EA
100
AcDbEntity
  8
0
100
AcDbSpline
 62
7
  6
CONTINUOUS
 70
0
 71
3
 72
9
 73
5
 74
0
 42
0.0000001
 43
0.0000001
 44
0.0000000001
 40
0.0
 40
0.0
 40
0.0
 40
0.0
 40
0.2557271091
 40
1.0
 40
1.0
 40
1.0
 40
1.0
 10
4.9242094045
 20
284.5836164403
 30
0.0
 10
4.7042545552
 20
284.6182993154
 30
0.0
 10
3.8404528236
 20
284.7287653252
 30
0.0
 10
2.9624267181
 20
284.7336384162
 30
0.0
 10
2.3173226833
 20
284.6717057055
 30
0.0
  0
SPLINE
  5
2EB
100
AcDbEntity
  8
0
100
AcDbSpline
 62
7
  6
CONTINUOUS
 70
0
 71
3
 72
9
 73
5
 74
0
 42
0.0000001
 43
0.0000001
 44
0.0000000001
 40
0.0
 40
0.0
 40
0.0
 40
0.0
 40
0.2542508522
 40
1.0
 40
1.0
 40
1.0
 40
1.0
 10
5.1444333697
 20
284.5349976565
 30
0.0
 10
5.1260343724
 20
284.540197801
 30
0.0
 10
5.0533857333
 20
284.5596288647
 30
0.0
 10
4.9796055308
 20
284.5748814798
 30
0.0
 10
4.9242094045
 20
284.5836164403
 30
0.0
  0
SPLINE
  5
2EC
100
AcDbEntity
  8
0
100
AcDbSpline
 62
7
  6
CONTINUOUS
 70
0
 71
3
 72
9
 73
5
 74
0
 42
0.0000001
 43
0.0000001
 44
0.0000000001
 40
0.0
 40
0.0
 40
0.0
 40
0.0
 40
0.2455933107
 40
1.0
 40
1.0
 40
1.0
 40
1.0
 10
8.7920013861
 20
268.8359337845
 30
0.0
 10
8.7920080949
 20
268.3874279627
 30
0.0
 10
8.7453492705
 20
266.5614017283
 30
0.0
 10
8.5160331205
 20
264.7409437329
 30
0.0
 10
8.2513420349
 20
263.3889019056
 30
0.0
  0
SPLINE
  5
2ED
100
AcDbEntity
  8
0
100
AcDbSpline
 62
7
  6
CONTINUOUS
 70
0
 71
3
 72
10
 73
6
 74
0
 42
0.0000001
 43
0.0000001
 44
0.0000000001
 40
0.0
 40
0.0
 40
0.0
 40
0.0
 40
0.2411468078
 40
0.4863296488
 40
1.0
 40
1.0
 40
1.0
 40
1.0
 10
22.9213572381
 20
210.1819374097
 30
0.0
 10
22.7351708175
 20
210.2895086632
 30
0.0
 10
22.3807580305
 20
210.5457063959
 30
0.0
 10
21.7735033926
 20
211.2046877949
 30
0.0
 10
21.4688351053
 20
211.8302073428
 30
0.0
 10
21.3351624246
 20
212.2683016865
 30
0.0
  0
SPLINE
  5
2EE
100
AcDbEntity
  8
0
100
AcDbSpline
 62
7
  6
CONTINUOUS
 70
0
 71
3
 72
11
 73
7
 74
0
 42
0.0000001
 43
0.0000001
 44
0.0000000001
 40
0.0
 40
0.0
 40
0.0
 40
0.0
 40
0.271772124
 40
0.5268740629
 40
0.7676338636
 40
1.0
 40
1.0
 40
1.0
 40
1.0
 10
-13.3593156156
 20
218.6290891002
 30
0.0
 10
-13.3593156156
 20
218.9709082204
 30
0.0
 10
-13.4257887512
 20
219.6363962177
 30
0.0
 10
-13.7440644432
 20
220.5582543014
 30
0.0
 10
-14.2656981425
 20
221.3252279337
 30
0.0
 10
-14.7377113202
 20
221.7049586762
 30
0.0
 10
-14.9908076709
 20
221.8510960737
 30
0.0
  0
SPLINE
  5
2EF
100
AcDbEntity
  8
0
100
AcDbSpline
 62
7
  6
CONTINUOUS
 70
0
 71
3
 72
13
 73
9
 74
0
 42
0.0000001
 43
0.0000001
 44
0.0000000001
 40
0.0
 40
0.0
 40
0.0
 40
0.0
 40
0.1054216662
 40
0.2162098291
 40
0.3355589934
 40
0.4637550049
 40
0.7347840682
 40
1.0
 40
1.0
 40
1.0
 40
1.0
 10
-19.3552205234
 20
216.6346803217
 30
0.0
 10
-19.2513297951
 20
216.5747060287
 30
0.0
 10
-19.0131212094
 20
216.4911529938
 30
0.0
 10
-18.6247672876
 20
216.4971638049
 30
0.0
 10
-18.2322696903
 20
216.6263139394
 30
0.0
 10
-17.7331777692
 20
216.9508494875
 30
0.0
 10
-17.2573106271
 20
217.5680733016
 30
0.0
 10
-17.1000164076
 20
218.18157703
 30
0.0
 10
-17.1000164076
 20
218.4833658427
 30
0.0
  0
SPLINE
  5
2F0
100
AcDbEntity
  8
0
100
AcDbSpline
 62
7
  6
CONTINUOUS
 70
0
 71
3
 72
20
 73
16
 74
0
 42
0.0000001
 43
0.0000001
 44
0.0000000001
 40
0.0
 40
0.0
 40
0.0
 40
0.0
 40
0.1300232851
 40
0.2656053783
 40
0.3343336982
 40
0.4028854718
 40
0.5371027338
 40
0.6020239759
 40
0.6649316644
 40
0.7256134939
 40
0.7840133871
 40
0.8402537262
 40
0.8946460693
 40
0.947682454
 40
1.0
 40
1.0
 40
1.0
 40
1.0
 10
2.8622370101
 20
232.2272948409
 30
0.0
 10
2.8622370101
 20
234.6408164339
 30
0.0
 10
3.4939954986
 20
239.5838497833
 30
0.0
 10
5.6271983001
 20
245.4624699706
 30
0.0
 10
8.0797783284
 20
249.9037623262
 30
0.0
 10
10.969334154
 20
254.0408971674
 30
0.0
 10
14.4537122555
 20
257.6507746623
 30
0.0
 10
18.3914512797
 20
260.5220166587
 30
0.0
 10
21.4560524434
 20
262.230701621
 30
0.0
 10
24.6044984587
 20
263.4828403821
 30
0.0
 10
27.7782408304
 20
264.2534489335
 30
0.0
 10
30.9170398871
 20
264.5254771286
 30
0.0
 10
33.9607032338
 20
264.2906554809
 30
0.0
 10
36.8477102607
 20
263.5513659372
 30
0.0
 10
38.6353316714
 20
262.7271899736
 30
0.0
 10
39.4762871253
 20
262.2415073495
 30
0.0
  0
SPLINE
  5
2F1
100
AcDbEntity
  8
0
100
AcDbSpline
 62
7
  6
CONTINUOUS
 70
0
 71
3
 72
13
 73
9
 74
0
 42
0.0000001
 43
0.0000001
 44
0.0000000001
 40
0.0
 40
0.0
 40
0.0
 40
0.0
 40
0.1158157883
 40
0.2327342893
 40
0.3517715333
 40
0.4737832966
 40
0.7285664037
 40
1.0
 40
1.0
 40
1.0
 40
1.0
 10
11.8680191653
 20
214.4417226022
 30
0.0
 10
11.1708645377
 20
214.8443735708
 30
0.0
 10
9.8293846079
 20
215.7617395516
 30
0.0
 10
8.0347401408
 20
217.4352415978
 30
0.0
 10
6.4762168793
 20
219.3863609092
 30
0.0
 10
4.7167138449
 20
222.361499608
 30
0.0
 10
3.2283360746
 20
226.6681646599
 30
0.0
 10
2.8622370101
 20
230.3404578039
 30
0.0
 10
2.8622370101
 20
232.2272948409
 30
0.0
  0
SPLINE
  5
2F2
100
AcDbEntity
  8
0
100
AcDbSpline
 62
7
  6
CONTINUOUS
 70
0
 71
3
 72
13
 73
9
 74
0
 42
0.0000001
 43
0.0000001
 44
0.0000000001
 40
0.0
 40
0.0
 40
0.0
 40
0.0
 40
0.2398731579
 40
0.3664484843
 40
0.4953570736
 40
0.6249142241
 40
0.753377947
 40
1.0
 40
1.0
 40
1.0
 40
1.0
 10
28.5509986503
 20
216.0292495765
 30
0.0
 10
31.1287388324
 20
217.1180253019
 30
0.0
 10
34.7903543134
 20
219.4991718178
 30
0.0
 10
38.8623694864
 20
223.6126256579
 30
0.0
 10
41.5618612492
 20
227.2221593483
 30
0.0
 10
43.7575403772
 20
231.1831013126
 30
0.0
 10
45.8932391337
 20
236.6796269053
 30
0.0
 10
46.6225690943
 20
241.0805170545
 30
0.0
 10
46.6225690943
 20
243.9574917799
 30
0.0
  0
SPLINE
  5
2F3
100
AcDbEntity
  8
0
100
AcDbSpline
 62
7
  6
CONTINUOUS
 70
0
 71
3
 72
13
 73
9
 74
0
 42
0.0000001
 43
0.0000001
 44
0.0000000001
 40
0.0
 40
0.0
 40
0.0
 40
0.0
 40
0.2714323855
 40
0.5262141243
 40
0.6482246359
 40
0.7672619926
 40
0.8841830713
 40
1.0
 40
1.0
 40
1.0
 40
1.0
 10
46.6225690943
 20
243.9574917799
 30
0.0
 10
46.6225690943
 20
245.6905031762
 30
0.0
 10
46.2863240622
 20
249.0634096122
 30
0.0
 10
44.9192926672
 20
253.0189651965
 30
0.0
 10
43.3032447183
 20
255.7515592687
 30
0.0
 10
41.8717736399
 20
257.5436260347
 30
0.0
 10
40.2234467155
 20
259.080765386
 30
0.0
 10
38.9912577104
 20
259.9232818059
 30
0.0
 10
38.3509482867
 20
260.2931434865
 30
0.0
  0
SPLINE
  5
2F4
100
AcDbEntity
  8
0
100
AcDbSpline
 62
7
  6
CONTINUOUS
 70
0
 71
3
 72
11
 73
7
 74
0
 42
0.0000001
 43
0.0000001
 44
0.0000000001
 40
0.0
 40
0.0
 40
0.0
 40
0.0
 40
0.2323671568
 40
0.4731321704
 40
0.7282223224
 40
1.0
 40
1.0
 40
1.0
 40
1.0
 10
-21.7559379333
 20
206.9621719969
 30
0.0
 10
-22.08492505
 20
207.152218794
 30
0.0
 10
-22.69859334
 20
207.6457943726
 30
0.0
 10
-23.3766737008
 20
208.6428950903
 30
0.0
 10
-23.7904791379
 20
209.8412805578
 30
0.0
 10
-23.8768761449
 20
210.7064105156
 30
0.0
 10
-23.8768761449
 20
211.1507837542
 30
0.0
  0
SPLINE
  5
2F5
100
AcDbEntity
  8
0
100
AcDbSpline
 62
7
  6
CONTINUOUS
 70
0
 71
3
 72
13
 73
9
 74
0
 42
0.0000001
 43
0.0000001
 44
0.0000000001
 40
0.0
 40
0.0
 40
0.0
 40
0.0
 40
0.1054216662
 40
0.2162098291
 40
0.3355589934
 40
0.4637550049
 40
0.7347840682
 40
1.0
 40
1.0
 40
1.0
 40
1.0
 10
-19.3552205234
 20
271.7947571276
 30
0.0
 10
-19.2513297951
 20
271.7347828346
 30
0.0
 10
-19.0131212094
 20
271.6512297997
 30
0.0
 10
-18.6247672876
 20
271.6572406108
 30
0.0
 10
-18.2322696903
 20
271.7863907453
 30
0.0
 10
-17.7331777692
 20
272.1109262934
 30
0.0
 10
-17.2573106271
 20
272.7281501074
 30
0.0
 10
-17.1000164076
 20
273.3416538359
 30
0.0
 10
-17.1000164076
 20
273.6434426486
 30
0.0
  0
SPLINE
  5
2F6
100
AcDbEntity
  8
0
100
AcDbSpline
 62
7
  6
CONTINUOUS
 70
0
 71
3
 72
13
 73
9
 74
0
 42
0.0000001
 43
0.0000001
 44
0.0000000001
 40
0.0
 40
0.0
 40
0.0
 40
0.0
 40
0.1054436707
 40
0.215833518
 40
0.3342698815
 40
0.4612955632
 40
0.731291013
 40
1.0
 40
1.0
 40
1.0
 40
1.0
 10
23.9216509876
 20
211.9138035746
 30
0.0
 10
24.1260675267
 20
211.7957131285
 30
0.0
 10
24.5915787239
 20
211.6280720736
 30
0.0
 10
25.3519000093
 20
211.6224620852
 30
0.0
 10
26.1259219827
 20
211.8501473373
 30
0.0
 10
27.1250585072
 20
212.4470972747
 30
0.0
 10
28.115109525
 20
213.6189841105
 30
0.0
 10
28.4995438659
 20
214.8038338607
 30
0.0
 10
28.5509986503
 20
215.4032350834
 30
0.0
  0
SPLINE
  5
2F7
100
AcDbEntity
  8
0
100
AcDbSpline
 62
7
  6
CONTINUOUS
 70
0
 71
3
 72
9
 73
5
 74
0
 42
0.0000001
 43
0.0000001
 44
0.0000000001
 40
0.0
 40
0.0
 40
0.0
 40
0.0
 40
0.4783879462
 40
1.0
 40
1.0
 40
1.0
 40
1.0
 10
-15.1813022804
 20
221.7289128707
 30
0.0
 10
-14.9128184225
 20
221.3964858856
 30
0.0
 10
-14.49382444
 20
220.5808970381
 30
0.0
 10
-14.3727435865
 20
219.6803420445
 30
0.0
 10
-14.3727435865
 20
219.2144262752
 30
0.0
  0
SPLINE
  5
2F8
100
AcDbEntity
  8
0
100
AcDbSpline
 62
7
  6
CONTINUOUS
 70
0
 71
3
 72
12
 73
8
 74
0
 42
0.0000001
 43
0.0000001
 44
0.0000000001
 40
0.0
 40
0.0
 40
0.0
 40
0.0
 40
0.2698905906
 40
0.5251560482
 40
0.7670813048
 40
0.8844031742
 40
1.0
 40
1.0
 40
1.0
 40
1.0
 10
1.7362059313
 20
232.8776694797
 30
0.0
 10
1.7362059313
 20
231.2039783039
 30
0.0
 10
2.0263891176
 20
227.9365497919
 30
0.0
 10
3.4007837548
 20
223.3469599648
 30
0.0
 10
5.3111442909
 20
220.0021511253
 30
0.0
 10
7.2338441206
 20
217.762987004
 30
0.0
 10
8.3125341502
 20
216.7947553911
 30
0.0
 10
8.876822398
 20
216.3526411449
 30
0.0
  0
SPLINE
  5
2F9
100
AcDbEntity
  8
0
100
AcDbSpline
 62
7
  6
CONTINUOUS
 70
0
 71
3
 72
11
 73
7
 74
0
 42
0.0000001
 43
0.0000001
 44
0.0000000001
 40
0.0
 40
0.0
 40
0.0
 40
0.0
 40
0.2511450534
 40
0.5063967964
 40
0.7582853649
 40
1.0
 40
1.0
 40
1.0
 40
1.0
 10
13.4281507345
 20
258.1672198531
 30
0.0
 10
11.6379307212
 20
256.5757097967
 30
0.0
 10
8.3712143852
 20
252.9623108239
 30
0.0
 10
4.6684140734
 20
246.6960408304
 30
0.0
 10
2.3127618905
 20
239.9030916141
 30
0.0
 10
1.7362059313
 20
235.1830929829
 30
0.0
 10
1.7362059313
 20
232.8776694797
 30
0.0
  0
SPLINE
  5
2FA
100
AcDbEntity
  8
0
100
AcDbSpline
 62
7
  6
CONTINUOUS
 70
0
 71
3
 72
12
 73
8
 74
0
 42
0.0000001
 43
0.0000001
 44
0.0000000001
 40
0.0
 40
0.0
 40
0.0
 40
0.0
 40
0.2349933756
 40
0.4894753556
 40
0.6202647794
 40
0.7503870015
 40
1.0
 40
1.0
 40
1.0
 40
1.0
 10
-17.4915471627
 20
268.084825517
 30
0.0
 10
-16.9247008771
 20
268.2367717717
 30
0.0
 10
-15.807349277
 20
268.8076316661
 30
0.0
 10
-14.7120619626
 20
269.9365338675
 30
0.0
 10
-14.0349829409
 20
271.0363326984
 30
0.0
 10
-13.5329141368
 20
272.211226562
 30
0.0
 10
-13.3593156156
 20
273.1657977017
 30
0.0
 10
-13.3593156156
 20
273.7891659061
 30
0.0
  0
SPLINE
  5
2FB
100
AcDbEntity
  8
0
100
AcDbSpline
 62
7
  6
CONTINUOUS
 70
0
 71
3
 72
11
 73
7
 74
0
 42
0.0000001
 43
0.0000001
 44
0.0000000001
 40
0.0
 40
0.0
 40
0.0
 40
0.0
 40
0.2432668573
 40
0.4893806767
 40
0.7409469418
 40
1.0
 40
1.0
 40
1.0
 40
1.0
 10
12.9933664419
 20
216.3901011863
 30
0.0
 10
13.7057645276
 20
215.9786408882
 30
0.0
 10
15.2120860305
 20
215.2710469658
 30
0.0
 10
17.6363925736
 20
214.5955397014
 30
0.0
 10
20.190231914
 20
214.3126419889
 30
0.0
 10
21.922852422
 20
214.3868684051
 30
0.0
 10
22.7933116503
 20
214.4858700086
 30
0.0
  0
SPLINE
  5
2FC
100
AcDbEntity
  8
0
100
AcDbSpline
 62
7
  6
CONTINUOUS
 70
0
 71
3
 72
13
 73
9
 74
0
 42
0.0000001
 43
0.0000001
 44
0.0000000001
 40
0.0
 40
0.0
 40
0.0
 40
0.0
 40
0.2429763241
 40
0.3691807901
 40
0.4969773206
 40
0.6251816348
 40
0.7525843534
 40
1.0
 40
1.0
 40
1.0
 40
1.0
 10
-3.3464381051
 20
231.5152377252
 30
0.0
 10
-3.3464381051
 20
234.7079874128
 30
0.0
 10
-2.6724709683
 20
239.5804032977
 30
0.0
 10
-0.655473786
 20
245.8000421652
 30
0.0
 10
1.4371817945
 20
250.3787385969
 30
0.0
 10
4.0440239872
 20
254.7035593334
 30
0.0
 10
8.0814669243
 20
259.9475347707
 30
0.0
 10
11.7576764993
 20
263.3206344278
 30
0.0
 10
14.419185377
 20
265.1876941531
 30
0.0
  0
SPLINE
  5
2FD
100
AcDbEntity
  8
0
100
AcDbSpline
 62
7
  6
CONTINUOUS
 70
0
 71
3
 72
11
 73
7
 74
0
 42
0.0000001
 43
0.0000001
 44
0.0000000001
 40
0.0
 40
0.0
 40
0.0
 40
0.0
 40
0.2346393472
 40
0.4787332671
 40
0.7337609606
 40
1.0
 40
1.0
 40
1.0
 40
1.0
 10
2.1133552502
 20
214.5396362105
 30
0.0
 10
1.2207457226
 20
215.6441256961
 30
0.0
 10
-0.3761622353
 20
218.0870664243
 30
0.0
 10
-2.0887392384
 20
222.2083308202
 30
0.0
 10
-3.1254970352
 20
226.7432815787
 30
0.0
 10
-3.3464381051
 20
229.9039020171
 30
0.0
 10
-3.3464381051
 20
231.5152377252
 30
0.0
  0
SPLINE
  5
2FE
100
AcDbEntity
  8
0
100
AcDbSpline
 62
7
  6
CONTINUOUS
 70
0
 71
3
 72
9
 73
5
 74
0
 42
0.0000001
 43
0.0000001
 44
0.0000000001
 40
0.0
 40
0.0
 40
0.0
 40
0.0
 40
0.4892508382
 40
1.0
 40
1.0
 40
1.0
 40
1.0
 10
-9.2270840684
 20
276.6226675767
 30
0.0
 10
-9.2270840684
 20
274.19170677
 30
0.0
 10
-10.0296556527
 20
269.2068037416
 30
0.0
 10
-12.1306945261
 20
264.6340695608
 30
0.0
 10
-13.4792833037
 20
262.4842700972
 30
0.0
  0
SPLINE
  5
2FF
100
AcDbEntity
  8
0
100
AcDbSpline
 62
7
  6
CONTINUOUS
 70
0
 71
3
 72
9
 73
5
 74
0
 42
0.0000001
 43
0.0000001
 44
0.0000000001
 40
0.0
 40
0.0
 40
0.0
 40
0.0
 40
0.5107491617
 40
1.0
 40
1.0
 40
1.0
 40
1.0
 10
-13.4792833037
 20
262.4842700972
 30
0.0
 10
-15.1711493926
 20
259.7872487837
 30
0.0
 10
-17.8069986043
 20
254.0505456019
 30
0.0
 10
-18.8138612578
 20
247.7967576915
 30
0.0
 10
-18.8138612578
 20
244.7470066382
 30
0.0
  0
SPLINE
  5
300
100
AcDbEntity
  8
0
100
AcDbSpline
 62
7
  6
CONTINUOUS
 70
0
 71
3
 72
14
 73
10
 74
0
 42
0.0000001
 43
0.0000001
 44
0.0000000001
 40
0.0
 40
0.0
 40
0.0
 40
0.0
 40
0.1848402409
 40
0.3013806556
 40
0.4316676502
 40
0.5718211535
 40
0.7168805874
 40
0.8614042228
 40
1.0
 40
1.0
 40
1.0
 40
1.0
 10
1.825035744
 20
283.7528659489
 30
0.0
 10
2.3479810925
 20
283.6704069886
 30
0.0
 10
3.1274545739
 20
283.1682505765
 30
0.0
 10
3.9364125444
 20
282.2407885983
 30
0.0
 10
4.530485239
 20
281.2970933856
 30
0.0
 10
5.0250959034
 20
280.2122317139
 30
0.0
 10
5.3999590245
 20
279.0366470363
 30
0.0
 10
5.6349863735
 20
277.8304025625
 30
0.0
 10
5.6928277264
 20
277.0188400569
 30
0.0
 10
5.6928277264
 20
276.6218836647
 30
0.0
  0
SPLINE
  5
301
100
AcDbEntity
  8
0
100
AcDbSpline
 62
7
  6
CONTINUOUS
 70
0
 71
3
 72
8
 73
4
 74
0
 42
0.0000001
 43
0.0000001
 44
0.0000000001
 40
0.0
 40
0.0
 40
0.0
 40
0.0
 40
1.0
 40
1.0
 40
1.0
 40
1.0
 10
2.8824177739
 20
276.4668470459
 30
0.0
 10
2.9199892056
 20
276.4612411772
 30
0.0
 10
2.958257675
 20
276.4589939302
 30
0.0
 10
2.9962099135
 20
276.4606266665
 30
0.0
  0
SPLINE
  5
302
100
AcDbEntity
  8
0
100
AcDbSpline
 62
7
  6
CONTINUOUS
 70
0
 71
3
 72
13
 73
9
 74
0
 42
0.0000001
 43
0.0000001
 44
0.0000000001
 40
0.0
 40
0.0
 40
0.0
 40
0.0
 40
0.2714335899
 40
0.5262166963
 40
0.6482284601
 40
0.7672657055
 40
0.8841842086
 40
1.0
 40
1.0
 40
1.0
 40
1.0
 10
-18.8138612578
 20
244.7470066382
 30
0.0
 10
-18.8138612578
 20
242.8601696458
 30
0.0
 10
-18.4477622088
 20
239.1878765524
 30
0.0
 10
-16.9593844833
 20
234.8812115355
 30
0.0
 10
-15.1998814735
 20
231.9060728119
 30
0.0
 10
-13.641358202
 20
229.9549534697
 30
0.0
 10
-11.8467136974
 20
228.2814513991
 30
0.0
 10
-10.5052337539
 20
227.3640853706
 30
0.0
 10
-9.8080790996
 20
226.9614344048
 30
0.0
  0
SPLINE
  5
303
100
AcDbEntity
  8
0
100
AcDbSpline
 62
7
  6
CONTINUOUS
 70
0
 71
3
 72
13
 73
9
 74
0
 42
0.0000001
 43
0.0000001
 44
0.0000000001
 40
0.0
 40
0.0
 40
0.0
 40
0.0
 40
0.1228933572
 40
0.2502234085
 40
0.3802479217
 40
0.5109294677
 40
0.7652098012
 40
1.0
 40
1.0
 40
1.0
 40
1.0
 10
-23.8768761449
 20
277.3428759212
 30
0.0
 10
-23.8768761449
 20
277.7421846389
 30
0.0
 10
-23.8036061656
 20
278.5565438401
 30
0.0
 10
-23.4953782144
 20
279.757796794
 30
0.0
 10
-22.998485608
 20
280.9220635947
 30
0.0
 10
-22.1183512368
 20
282.3510517338
 30
0.0
 10
-20.6943905753
 20
283.8189810847
 30
0.0
 10
-19.2418480299
 20
284.5609956071
 30
0.0
 10
-18.5049751337
 20
284.758518427
 30
0.0
  0
SPLINE
  5
304
100
AcDbEntity
  8
0
100
AcDbSpline
 62
7
  6
CONTINUOUS
 70
0
 71
3
 72
12
 73
8
 74
0
 42
0.0000001
 43
0.0000001
 44
0.0000000001
 40
0.0
 40
0.0
 40
0.0
 40
0.0
 40
0.2496129985
 40
0.3797352206
 40
0.5105246444
 40
0.7650066244
 40
1.0
 40
1.0
 40
1.0
 40
1.0
 10
-14.3727435865
 20
274.374503081
 30
0.0
 10
-14.3727435865
 20
273.7511348767
 30
0.0
 10
-14.5463421077
 20
272.7965637369
 30
0.0
 10
-15.0484109118
 20
271.6216698733
 30
0.0
 10
-15.7254899335
 20
270.5218710424
 30
0.0
 10
-16.820777248
 20
269.392968841
 30
0.0
 10
-17.9381288481
 20
268.8221089467
 30
0.0
 10
-18.5049751337
 20
268.670162692
 30
0.0
  0
SPLINE
  5
305
100
AcDbEntity
  8
0
100
AcDbSpline
 62
7
  6
CONTINUOUS
 70
0
 71
3
 72
10
 73
6
 74
0
 42
0.0000001
 43
0.0000001
 44
0.0000000001
 40
0.0
 40
0.0
 40
0.0
 40
0.0
 40
0.5252176711
 40
0.7667927662
 40
1.0
 40
1.0
 40
1.0
 40
1.0
 10
-17.1000164076
 20
273.6434426486
 30
0.0
 10
-17.1000164076
 20
273.8672331493
 30
0.0
 10
-17.1655245169
 20
274.204080748
 30
0.0
 10
-17.4082438354
 20
274.5599594216
 30
0.0
 10
-17.5686724426
 20
274.6892350219
 30
0.0
 10
-17.6547297439
 20
274.7389143907
 30
0.0
  0
SPLINE
  5
306
100
AcDbEntity
  8
0
100
AcDbSpline
 62
7
  6
CONTINUOUS
 70
0
 71
3
 72
9
 73
5
 74
0
 42
0.0000001
 43
0.0000001
 44
0.0000000001
 40
0.0
 40
0.0
 40
0.0
 40
0.0
 40
0.2463658738
 40
1.0
 40
1.0
 40
1.0
 40
1.0
 10
30.0339420222
 20
267.3795604629
 30
0.0
 10
29.9579244489
 20
267.6260592946
 30
0.0
 10
29.6682003299
 20
268.6323404612
 30
0.0
 10
29.4530664676
 20
269.65984755
 30
0.0
 10
29.3310294182
 20
270.4394362198
 30
0.0
  0
SPLINE
  5
307
100
AcDbEntity
  8
0
100
AcDbSpline
 62
7
  6
CONTINUOUS
 70
0
 71
3
 72
17
 73
13
 74
0
 42
0.0000001
 43
0.0000001
 44
0.0000000001
 40
0.0
 40
0.0
 40
0.0
 40
0.0
 40
0.0394125775
 40
0.0811217338
 40
0.126880819
 40
0.1777298233
 40
0.2954028867
 40
0.4319333202
 40
0.5800819531
 40
0.7304383759
 40
0.8732244342
 40
1.0
 40
1.0
 40
1.0
 40
1.0
 10
2.0784139529
 20
280.3422084656
 30
0.0
 10
2.0279682843
 20
280.3286891235
 30
0.0
 10
1.9278020404
 20
280.2850310879
 30
0.0
 10
1.7967710626
 20
280.1768909454
 30
0.0
 10
1.6855027487
 20
280.0295020549
 30
0.0
 10
1.5598319876
 20
279.7734099089
 30
0.0
 10
1.4701345654
 20
279.3740715504
 30
0.0
 10
1.4623760037
 20
278.8384867528
 30
0.0
 10
1.5498593899
 20
278.2661920376
 30
0.0
 10
1.7254764902
 20
277.7059619383
 30
0.0
 10
1.9739225032
 20
277.2056067675
 30
0.0
 10
2.1909009273
 20
276.91745692
 30
0.0
 10
2.3092586524
 20
276.7982409813
 30
0.0
  0
SPLINE
  5
308
100
AcDbEntity
  8
0
100
AcDbSpline
 62
7
  6
CONTINUOUS
 70
0
 71
3
 72
9
 73
5
 74
0
 42
0.0000001
 43
0.0000001
 44
0.0000000001
 40
0.0
 40
0.0
 40
0.0
 40
0.0
 40
0.2668760426
 40
1.0
 40
1.0
 40
1.0
 40
1.0
 10
2.3092586524
 20
276.7982409813
 30
0.0
 10
2.3322081984
 20
276.7751250277
 30
0.0
 10
2.4205280831
 20
276.6909336176
 30
0.0
 10
2.5187570876
 20
276.6164986909
 30
0.0
 10
2.5962422595
 20
276.5717446946
 30
0.0
  0
SPLINE
  5
309
100
AcDbEntity
  8
0
100
AcDbSpline
 62
7
  6
CONTINUOUS
 70
0
 71
3
 72
9
 73
5
 74
0
 42
0.0000001
 43
0.0000001
 44
0.0000000001
 40
0.0
 40
0.0
 40
0.0
 40
0.0
 40
0.4917515608
 40
1.0
 40
1.0
 40
1.0
 40
1.0
 10
-2.3293044103
 20
283.5619450251
 30
0.0
 10
-1.6671974778
 20
283.7394255618
 30
0.0
 10
-0.2766779151
 20
283.951299586
 30
0.0
 10
1.1252049601
 20
283.8632165219
 30
0.0
 10
1.825035744
 20
283.7528659489
 30
0.0
  0
SPLINE
  5
30A
100
AcDbEntity
  8
0
100
AcDbSpline
 62
7
  6
CONTINUOUS
 70
0
 71
3
 72
10
 73
6
 74
0
 42
0.0000001
 43
0.0000001
 44
0.0000000001
 40
0.0
 40
0.0
 40
0.0
 40
0.0
 40
0.5252176711
 40
0.7667927662
 40
1.0
 40
1.0
 40
1.0
 40
1.0
 10
-17.1000164076
 20
218.4833658427
 30
0.0
 10
-17.1000164076
 20
218.7071563434
 30
0.0
 10
-17.1655245169
 20
219.0440039422
 30
0.0
 10
-17.4082438354
 20
219.3998826157
 30
0.0
 10
-17.5686724426
 20
219.529158216
 30
0.0
 10
-17.6547297439
 20
219.5788375848
 30
0.0
  0
SPLINE
  5
30B
100
AcDbEntity
  8
0
100
AcDbSpline
 62
7
  6
CONTINUOUS
 70
0
 71
3
 72
9
 73
5
 74
0
 42
0.0000001
 43
0.0000001
 44
0.0000000001
 40
0.0
 40
0.0
 40
0.0
 40
0.0
 40
0.509802945
 40
1.0
 40
1.0
 40
1.0
 40
1.0
 10
3.7061662364
 20
258.2797274239
 30
0.0
 10
4.3470279624
 20
259.848566268
 30
0.0
 10
5.3321383053
 20
263.0452424824
 30
0.0
 10
5.6928277264
 20
266.3756919205
 30
0.0
 10
5.6928277264
 20
268.0052036123
 30
0.0
  0
ENDSEC
  0
SECTION
  2
OBJECTS
  0
DICTIONARY
  5
C
100
AcDbDictionary
280
0
281
1
  3
ACAD_GROUP
350
D
  3
ACAD_MLINESTYLE
350
17
  3
ACAD_LAYOUT
350
1A
  3
ACAD_PLOTSETTINGS
350
19
  3
ACAD_PLOTSTYLENAME
350
E
  0
DICTIONARY
  5
D
102
{ACAD_REACTORS
330
C
102
}
100
AcDbDictionary
280
0
281
1
  0
ACDBDICTIONARYWDFLT
  5
E
102
{ACAD_REACTORS
330
C
102
}
100
AcDbDictionary
281
1
  3
Normal
350
F
100
AcDbDictionaryWithDefault
340
F
  0
DICTIONARY
  5
17
102
{ACAD_REACTORS
330
C
102
}
100
AcDbDictionary
280
0
281
1
  3
Standard
350
18
  0
DICTIONARY
  5
19
102
{ACAD_REACTORS
330
C
102
}
100
AcDbDictionary
281
1
  0
DICTIONARY
  5
1A
102
{ACAD_REACTORS
330
C
102
}
100
AcDbDictionary
281
1
  3
Model
350
30C
  3
Layout1
350
30D
  0
ACDBPLACEHOLDER
  5
F
102
{ACAD_REACTORS
330
E
102
}
  0
MLINESTYLE
  5
18
102
{ACAD_REACTORS
330
17
102
}
100
AcDbMlineStyle
  2
STANDARD
 70
0
  3

 62
256
 51
90.0
 52
90.0
 71
2
 49
0.5
 62
256
  6
BYLAYER
 49
-0.5
 62
256
  6
BYLAYER
  0
LAYOUT
  5
30C
102
{ACAD_REACTORS
330
1A
102
}
100
AcDbPlotSettings
  1

  2
none_device
  4
ANSI_C_(22.00_x_17.00_Inches)
  6

 40
0.0
 41
0.0
 42
0.0
 43
0.0
 44
558.8
 45
431.8
 46
0.0
 47
0.0
 48
0.0
 49
0.0
140
0.0
141
0.0
142
1.0
143
1.0
 70
1024
 72
1
 73
0
 74
0
  7

 75
0
147
1.0
148
0.0
149
0.0
100
AcDbLayout
  1
Model
 70
0
 71
0
 10
0.0
 20
0.0
 11
558.8
 21
431.8
 12
0.0
 22
0.0
 32
0.0
 14
0.0
 24
0.0
 34
0.0
 15
0.0
 25
0.0
 35
0.0
146
0.0
 13
0.0
 23
0.0
 33
0.0
 16
1.0
 26
0.0
 36
0.0
 17
0.0
 27
1.0
 37
0.0
 76
0
330
216
345
0
346
0
  0
LAYOUT
  5
30D
102
{ACAD_REACTORS
330
1A
102
}
100
AcDbPlotSettings
  1

  2
none_device
  4
ANSI_C_(22.00_x_17.00_Inches)
  6

 40
0.0
 41
0.0
 42
0.0
 43
0.0
 44
558.8
 45
431.8
 46
0.0
 47
0.0
 48
0.0
 49
0.0
140
0.0
141
0.0
142
1.0
143
1.0
 70
0
 72
1
 73
0
 74
0
  7

 75
0
147
1.0
148
0.0
149
0.0
100
AcDbLayout
  1
Layout1
 70
0
 71
1
 10
0.0
 20
0.0
 11
558.8
 21
431.8
 12
0.0
 22
0.0
 32
0.0
 14
0.0
 24
0.0
 34
0.0
 15
0.0
 25
0.0
 35
0.0
146
0.0
 13
0.0
 23
0.0
 33
0.0
 16
1.0
 26
0.0
 36
0.0
 17
0.0
 27
1.0
 37
0.0
 76
0
330
217
345
0
346
0
  0
ENDSEC
  0
EOF
