999
DXF file: Y:\3D PRATIKA-KAEDRA_OLGA\TRAVAIL_PHASE_5\CAD3D\PKF16G435_3D-Simplified\PKF16G435_2D-isometric.dxf
999
Pro/ENGINEER 2018260 by Parametric Technology Corporation
  0
SECTION
  2
HEADER
  9
$ACADVER
  1
AC1027
  9
$DWGCODEPAGE
  3
ANSI_1252
  9
$EXTMAX
 10
558.8
 20
431.8
 30
0.0
  9
$EXTMIN
 10
0.0
 20
0.0
 30
0.0
  9
$LIMMIN
 10
0.0
 20
0.0
  9
$LIMMAX
 10
558.8
 20
431.8
  9
$VIEWCTR
 10
279.4
 20
215.9
  9
$VIEWSIZE
 40
431.8
  9
$CLAYER
  8
0
  9
$LTSCALE
 40
30.734
  9
$CELTYPE
  6
BYLAYER
  9
$DIMSCALE
 40
1.0
  9
$DIMASZ
 40
0.1875
  9
$DIMEXO
 40
0.0625
  9
$DIMDLI
 40
21.2344
  9
$DIMEXE
 40
0.125
  9
$DIMCEN
 40
5.0292
  9
$DIMLFAC
 40
1.0
  9
$DIMBLK
  1
_CLOSED
  9
$DIMALT
 70
0
  9
$DIMALTF
 40
0.0393700787
  9
$DIMTXT
 40
0.15625
  9
$DIMTOL
 70
0
  9
$DIMLIM
 70
0
  9
$DIMTFAC
 40
1.0
  9
$DIMGAP
 40
0.625
  9
$DIMDSEP
 70
46
  9
$AUNITS
 70
0
  9
$PDMODE
 70
3
  9
$PDSIZE
 40
0.3125
  9
$HANDSEED
  5
34B
  9
$TILEMODE
 70
1
  9
$MEASUREMENT
 70
1
  9
$INSUNITS
 70
4
  0
ENDSEC
  0
SECTION
  2
CLASSES
  0
CLASS
  1
ACDBDICTIONARYWDFLT
  2
AcDbDictionaryWithDefault
  3
AutoCAD 2000
 90
0
 91
1
280
0
281
0
  0
CLASS
  1
ACDBPLACEHOLDER
  2
AcDbPlaceHolder
  3
AutoCAD 2000
 90
0
 91
1
280
0
281
0
  0
CLASS
  1
LAYOUT
  2
AcDbLayout
  3
AutoCAD 2000
 90
0
 91
0
280
0
281
0
  0
ENDSEC
  0
SECTION
  2
TABLES
  0
TABLE
  2
VPORT
  5
8
100
AcDbSymbolTable
 70
2
  0
VPORT
  5
1F4
100
AcDbSymbolTableRecord
100
AcDbViewportTableRecord
  2
*ACTIVE
 70
0
 10
0.0
 20
0.0
 11
1.0
 21
1.0
 12
279.4
 22
215.9
 13
0.0
 23
0.0
 14
1.0
 24
1.0
 15
0.0
 25
0.0
 16
0.0
 26
0.0
 36
1.0
 17
0.0
 27
0.0
 37
0.0
 40
431.8
 41
1.2941176471
 42
50.0
 43
0.0
 44
0.0
 50
0.0
 51
0.0
 71
0
 72
100
 73
1
 74
1
 75
0
 76
0
 77
0
 78
0
  0
ENDTAB
  0
TABLE
  2
LTYPE
  5
5
100
AcDbSymbolTable
 70
6
  0
LTYPE
  5
14
100
AcDbSymbolTableRecord
100
AcDbLinetypeTableRecord
  2
BYBLOCK
 70
0
  3

 72
65
 73
0
 40
0.0
  0
LTYPE
  5
15
100
AcDbSymbolTableRecord
100
AcDbLinetypeTableRecord
  2
BYLAYER
 70
0
  3

 72
65
 73
0
 40
0.0
  0
LTYPE
  5
16
100
AcDbSymbolTableRecord
100
AcDbLinetypeTableRecord
  2
CONTINUOUS
 70
64
  3
Solid line
 72
65
 73
0
 40
0.0
  0
LTYPE
  5
1F5
100
AcDbSymbolTableRecord
100
AcDbLinetypeTableRecord
  2
CENTER
 70
64
  3
____ _ ____ _ ____ _ ____ _ ____ _ ____ _ ____
 72
65
 73
4
 40
0.6
 49
0.375
 74
0
 49
-0.075
 74
0
 49
0.075
 74
0
 49
-0.075
 74
0
  0
LTYPE
  5
1F6
100
AcDbSymbolTableRecord
100
AcDbLinetypeTableRecord
  2
HIDDEN
 70
64
  3
- - - - - - - - - - - - - - - - - - - -
 72
65
 73
2
 40
0.2
 49
0.1
 74
0
 49
-0.1
 74
0
  0
LTYPE
  5
1F7
100
AcDbSymbolTableRecord
100
AcDbLinetypeTableRecord
  2
PHANTOM
 70
64
  3
_____ _ _ _____ _ _ _____ _ _ _____
 72
65
 73
6
 40
0.8
 49
0.45
 74
0
 49
-0.05
 74
0
 49
0.1
 74
0
 49
-0.05
 74
0
 49
0.1
 74
0
 49
-0.05
 74
0
  0
LTYPE
  5
1F8
100
AcDbSymbolTableRecord
100
AcDbLinetypeTableRecord
  2
DOT
 70
64
  3
. . . . . . . . . . . . . . . . . . . .
 72
65
 73
2
 40
0.2
 49
0.1
 74
0
 49
-0.1
 74
0
  0
LTYPE
  5
1F9
100
AcDbSymbolTableRecord
100
AcDbLinetypeTableRecord
  2
DASHED
 70
64
  3
- - - - - - - - - - - - - - - - - - - -
 72
65
 73
2
 40
0.2
 49
0.1
 74
0
 49
-0.1
 74
0
  0
ENDTAB
  0
TABLE
  2
LAYER
  5
2
100
AcDbSymbolTable
 70
36
  0
LAYER
  5
10
100
AcDbSymbolTableRecord
100
AcDbLayerTableRecord
  2
0
 70
0
 62
7
  6
CONTINUOUS
370
-3
390
F
  0
LAYER
  5
1FA
100
AcDbSymbolTableRecord
100
AcDbLayerTableRecord
  2
DEFAULT_1
 70
0
 62
7
  6
CENTER
370
-3
390
F
  0
LAYER
  5
1FB
100
AcDbSymbolTableRecord
100
AcDbLayerTableRecord
  2
DEFAULT_2
 70
0
 62
8
  6
HIDDEN
370
-3
390
F
  0
LAYER
  5
1FC
100
AcDbSymbolTableRecord
100
AcDbLayerTableRecord
  2
DEFAULT_3
 70
0
 62
7
  6
PHANTOM
370
-3
390
F
  0
LAYER
  5
1FD
100
AcDbSymbolTableRecord
100
AcDbLayerTableRecord
  2
01_ALL_DTM_PLN
 70
0
 62
7
  6
CONTINUOUS
370
-3
390
F
  0
LAYER
  5
1FE
100
AcDbSymbolTableRecord
100
AcDbLayerTableRecord
  2
01__ASM_ALL_DTM_PLN
 70
0
 62
7
  6
CONTINUOUS
370
-3
390
F
  0
LAYER
  5
1FF
100
AcDbSymbolTableRecord
100
AcDbLayerTableRecord
  2
01__ASM_DEF_DTM_PLN
 70
0
 62
7
  6
CONTINUOUS
370
-3
390
F
  0
LAYER
  5
200
100
AcDbSymbolTableRecord
100
AcDbLayerTableRecord
  2
01___PRT_ALL_DTM_PLN
 70
0
 62
7
  6
CONTINUOUS
370
-3
390
F
  0
LAYER
  5
201
100
AcDbSymbolTableRecord
100
AcDbLayerTableRecord
  2
01___PRT_DEF_DTM_PLN
 70
0
 62
7
  6
CONTINUOUS
370
-3
390
F
  0
LAYER
  5
202
100
AcDbSymbolTableRecord
100
AcDbLayerTableRecord
  2
02_ALL_AXES
 70
0
 62
7
  6
CONTINUOUS
370
-3
390
F
  0
LAYER
  5
203
100
AcDbSymbolTableRecord
100
AcDbLayerTableRecord
  2
02__ASM_ALL_AXES
 70
0
 62
7
  6
CONTINUOUS
370
-3
390
F
  0
LAYER
  5
204
100
AcDbSymbolTableRecord
100
AcDbLayerTableRecord
  2
02___PRT_ALL_AXES
 70
0
 62
7
  6
CONTINUOUS
370
-3
390
F
  0
LAYER
  5
205
100
AcDbSymbolTableRecord
100
AcDbLayerTableRecord
  2
03_ALL_CURVES
 70
0
 62
7
  6
CONTINUOUS
370
-3
390
F
  0
LAYER
  5
206
100
AcDbSymbolTableRecord
100
AcDbLayerTableRecord
  2
03__ASM_ALL_CURVES
 70
0
 62
7
  6
CONTINUOUS
370
-3
390
F
  0
LAYER
  5
207
100
AcDbSymbolTableRecord
100
AcDbLayerTableRecord
  2
03___PRT_ALL_CURVES
 70
0
 62
7
  6
CONTINUOUS
370
-3
390
F
  0
LAYER
  5
208
100
AcDbSymbolTableRecord
100
AcDbLayerTableRecord
  2
04_ALL_DTM_PNT
 70
0
 62
7
  6
CONTINUOUS
370
-3
390
F
  0
LAYER
  5
209
100
AcDbSymbolTableRecord
100
AcDbLayerTableRecord
  2
04__ASM_ALL_DTM_PNT
 70
0
 62
7
  6
CONTINUOUS
370
-3
390
F
  0
LAYER
  5
20A
100
AcDbSymbolTableRecord
100
AcDbLayerTableRecord
  2
04___PRT_ALL_DTM_PNT
 70
0
 62
7
  6
CONTINUOUS
370
-3
390
F
  0
LAYER
  5
20B
100
AcDbSymbolTableRecord
100
AcDbLayerTableRecord
  2
05_ALL_DTM_CSYS
 70
0
 62
7
  6
CONTINUOUS
370
-3
390
F
  0
LAYER
  5
20C
100
AcDbSymbolTableRecord
100
AcDbLayerTableRecord
  2
05__ASM_ALL_DTM_CSYS
 70
0
 62
7
  6
CONTINUOUS
370
-3
390
F
  0
LAYER
  5
20D
100
AcDbSymbolTableRecord
100
AcDbLayerTableRecord
  2
05__ASM_DEF_DTM_CSYS
 70
0
 62
7
  6
CONTINUOUS
370
-3
390
F
  0
LAYER
  5
20E
100
AcDbSymbolTableRecord
100
AcDbLayerTableRecord
  2
05___PRT_ALL_DTM_CSYS
 70
0
 62
7
  6
CONTINUOUS
370
-3
390
F
  0
LAYER
  5
20F
100
AcDbSymbolTableRecord
100
AcDbLayerTableRecord
  2
05___PRT_DEF_DTM_CSYS
 70
0
 62
7
  6
CONTINUOUS
370
-3
390
F
  0
LAYER
  5
210
100
AcDbSymbolTableRecord
100
AcDbLayerTableRecord
  2
06_ALL_SURFS
 70
0
 62
7
  6
CONTINUOUS
370
-3
390
F
  0
LAYER
  5
211
100
AcDbSymbolTableRecord
100
AcDbLayerTableRecord
  2
06__ASM_ALL_SURFS
 70
0
 62
7
  6
CONTINUOUS
370
-3
390
F
  0
LAYER
  5
212
100
AcDbSymbolTableRecord
100
AcDbLayerTableRecord
  2
06___PRT_ALL_SURFS
 70
0
 62
7
  6
CONTINUOUS
370
-3
390
F
  0
LAYER
  5
213
100
AcDbSymbolTableRecord
100
AcDbLayerTableRecord
  2
07__ASM_ALL_SKELETONS
 70
0
 62
7
  6
CONTINUOUS
370
-3
390
F
  0
ENDTAB
  0
TABLE
  2
STYLE
  5
3
100
AcDbSymbolTable
 70
1
  0
STYLE
  5
11
100
AcDbSymbolTableRecord
100
AcDbTextStyleTableRecord
  2
STANDARD
 70
0
 40
0.0
 41
0.8
 50
0.0
 71
0
 42
0.2
  3
txt
  4

  0
STYLE
  5
214
100
AcDbSymbolTableRecord
100
AcDbTextStyleTableRecord
  2
TEXTSTYLE_1
 70
0
 40
0.0
 41
0.8
 50
0.0
 71
0
 42
0.2
  3
gdt
  4

  0
ENDTAB
  0
TABLE
  2
VIEW
  5
6
100
AcDbSymbolTable
 70
0
  0
ENDTAB
  0
TABLE
  2
UCS
  5
7
100
AcDbSymbolTable
 70
0
  0
ENDTAB
  0
TABLE
  2
APPID
  5
9
100
AcDbSymbolTable
 70
1
  0
APPID
  5
215
100
AcDbSymbolTableRecord
100
AcDbRegAppTableRecord
  2
ACAD
 70
0
  0
ENDTAB
  0
TABLE
  2
BLOCK_RECORD
  5
1
100
AcDbSymbolTable
 70
0
  0
BLOCK_RECORD
  5
216
100
AcDbSymbolTableRecord
100
AcDbBlockTableRecord
  2
*Model_Space
  0
BLOCK_RECORD
  5
217
100
AcDbSymbolTableRecord
100
AcDbBlockTableRecord
  2
*Paper_Space
  0
BLOCK_RECORD
  5
218
100
AcDbSymbolTableRecord
100
AcDbBlockTableRecord
  2
_CLOSED
  0
ENDTAB
  0
TABLE
  2
DIMSTYLE
  5
A
100
AcDbSymbolTable
 70
1
100
AcDbDimStyleTable
 71
0
  0
DIMSTYLE
105
219
100
AcDbSymbolTableRecord
100
AcDbDimStyleTableRecord
  2
STANDARD
 70
0
  3

  4

 40
1.0
 41
0.1875
 42
0.0625
 43
0.38
 44
0.125
 45
0.0
 46
0.0
 47
0.01
 48
0.01
140
0.15625
141
0.09
142
0.0
143
25.4
144
1.0
145
0.0
146
1.0
147
0.625
 71
0.0
 72
0.0
 73
1
 74
1
 75
0
 76
0
 77
0
 78
8
 79
2
170
0
171
1
172
0
173
0
174
0
175
0
176
0
177
0
178
0
270
2
179
2
271
2
272
2
273
2
274
2
275
0
280
0
281
0
282
0
283
1
284
8
285
0
286
0
287
3
288
0
340
11
278
46
341
218
342
218
343
218
344
218
  0
ENDTAB
  0
ENDSEC
  0
SECTION
  2
BLOCKS
  0
BLOCK
  5
20
100
AcDbEntity
  8
0
100
AcDbBlockBegin
  2
*Model_Space
 70
0
 10
0.0
 20
0.0
 30
0.0
  3
*Model_Space
  1

  0
ENDBLK
  5
21
100
AcDbEntity
  8
0
100
AcDbBlockEnd
  0
BLOCK
  5
1C
100
AcDbEntity
  8
0
100
AcDbBlockBegin
  2
*Paper_Space
 70
0
 10
0.0
 20
0.0
 30
0.0
  3
*Paper_Space
  1

  0
ENDBLK
  5
1D
100
AcDbEntity
  8
0
100
AcDbBlockEnd
  0
BLOCK
  5
21A
100
AcDbEntity
  8
0
100
AcDbBlockBegin
  2
_CLOSED
 70
64
 10
0.0
 20
0.0
  3
_CLOSED
  1

  0
LINE
  5
21B
100
AcDbEntity
  8
0
  6
BYBLOCK
 62
0
100
AcDbLine
 10
0.0
 20
0.0
 11
-1.0
 21
0.1666666667
  0
LINE
  5
21C
100
AcDbEntity
  8
0
  6
BYBLOCK
 62
0
100
AcDbLine
 10
-1.0
 20
0.1666666667
 11
-1.0
 21
-0.1666666667
  0
LINE
  5
21D
100
AcDbEntity
  8
0
  6
BYBLOCK
 62
0
100
AcDbLine
 10
-1.0
 20
-0.1666666667
 11
0.0
 21
0.0
  0
LINE
  5
21E
100
AcDbEntity
  8
0
  6
BYBLOCK
 62
0
100
AcDbLine
 10
-1.0
 20
0.0
 11
0.0
 21
0.0
  0
ENDBLK
  5
21F
100
AcDbEntity
  8
0
  6
BYBLOCK
 62
0
100
AcDbBlockEnd
  0
ENDSEC
  0
SECTION
  2
ENTITIES
  0
LINE
  5
220
100
AcDbEntity
  8
0
100
AcDbLine
 62
7
  6
CONTINUOUS
 10
-17.7221615843
 20
284.1246926577
 11
-18.0270216784
 21
283.8144378988
  0
LINE
  5
221
100
AcDbEntity
  8
0
100
AcDbLine
 62
7
  6
CONTINUOUS
 10
-62.2651122646
 20
286.0342729409
 11
-62.2651122646
 21
207.8908307992
  0
LINE
  5
222
100
AcDbEntity
  8
0
100
AcDbLine
 62
7
  6
CONTINUOUS
 10
-59.7315423372
 20
206.4274878619
 11
-59.7315423372
 21
211.024160929
  0
LINE
  5
223
100
AcDbEntity
  8
0
100
AcDbLine
 62
7
  6
CONTINUOUS
 10
-59.7315423372
 20
279.9742569364
 11
-59.7315423372
 21
284.5709300035
  0
LINE
  5
224
100
AcDbEntity
  8
0
100
AcDbLine
 62
7
  6
CONTINUOUS
 10
-58.8870190281
 20
210.5363799499
 11
-58.8870190281
 21
279.4864759573
  0
LINE
  5
225
100
AcDbEntity
  8
0
100
AcDbLine
 62
7
  6
CONTINUOUS
 10
-6.9756002862
 20
212.9598376895
 11
-49.3828864697
 21
201.5923321224
  0
LINE
  5
226
100
AcDbEntity
  8
0
100
AcDbLine
 62
7
  6
CONTINUOUS
 10
-50.2274097788
 20
202.0801131015
 11
-53.5331950165
 21
201.193979244
  0
LINE
  5
227
100
AcDbEntity
  8
0
100
AcDbLine
 62
7
  6
CONTINUOUS
 10
-59.8178908417
 20
203.0577914212
 11
-57.2843209143
 21
201.5944484838
  0
LINE
  5
228
100
AcDbEntity
  8
0
100
AcDbLine
 62
7
  6
CONTINUOUS
 10
-62.2651122646
 20
207.8908307992
 11
-59.7315423372
 21
206.4274878619
  0
LINE
  5
229
100
AcDbEntity
  8
0
100
AcDbLine
 62
7
  6
CONTINUOUS
 10
-50.2274097788
 20
202.0801131015
 11
-49.3828864697
 21
201.5923321224
  0
LINE
  5
22A
100
AcDbEntity
  8
0
100
AcDbLine
 62
7
  6
CONTINUOUS
 10
-59.7315423372
 20
211.024160929
 11
-58.8870190281
 21
210.5363799499
  0
LINE
  5
22B
100
AcDbEntity
  8
0
100
AcDbLine
 62
7
  6
CONTINUOUS
 10
-50.2274097788
 20
294.0135744447
 11
-50.2274097788
 21
287.1185648439
  0
LINE
  5
22C
100
AcDbEntity
  8
0
100
AcDbLine
 62
7
  6
CONTINUOUS
 10
-50.2274097788
 20
208.9751227023
 11
-50.2274097788
 21
202.0801131015
  0
LINE
  5
22D
100
AcDbEntity
  8
0
100
AcDbLine
 62
7
  6
CONTINUOUS
 10
-49.3828864697
 20
208.4873417231
 11
-49.3828864697
 21
201.5923321224
  0
LINE
  5
22E
100
AcDbEntity
  8
0
100
AcDbLine
 62
7
  6
CONTINUOUS
 10
-49.3828864697
 20
286.6307838648
 11
-49.3828864697
 21
293.5257934655
  0
LINE
  5
22F
100
AcDbEntity
  8
0
100
AcDbLine
 62
7
  6
CONTINUOUS
 10
49.3746513182
 20
292.271449779
 11
49.4177471758
 21
292.3079050941
  0
LINE
  5
230
100
AcDbEntity
  8
0
100
AcDbLine
 62
7
  6
CONTINUOUS
 10
-18.9876723173
 20
217.4994501993
 11
-26.22071144
 21
215.5605755158
  0
LINE
  5
231
100
AcDbEntity
  8
0
100
AcDbLine
 62
7
  6
CONTINUOUS
 10
-49.3828864697
 20
208.4873417231
 11
-50.2274097788
 21
208.9751227023
  0
LINE
  5
232
100
AcDbEntity
  8
0
100
AcDbLine
 62
7
  6
CONTINUOUS
 10
-23.4535357687
 20
293.2366476329
 11
-23.2024626274
 21
294.5794249869
  0
LINE
  5
233
100
AcDbEntity
  8
0
100
AcDbLine
 62
7
  6
CONTINUOUS
 10
-22.337606382
 20
299.2048077536
 11
-20.8508123083
 21
307.1564086382
  0
LINE
  5
234
100
AcDbEntity
  8
0
100
AcDbLine
 62
7
  6
CONTINUOUS
 10
-53.5151180168
 20
211.9763474684
 11
-58.8870190281
 21
210.5363799499
  0
LINE
  5
235
100
AcDbEntity
  8
0
100
AcDbLine
 62
7
  6
CONTINUOUS
 10
-34.9200760547
 20
284.9703533351
 11
-34.9200760547
 21
286.5528182266
  0
LINE
  5
236
100
AcDbEntity
  8
0
100
AcDbLine
 62
7
  6
CONTINUOUS
 10
49.3810355053
 20
292.2704767718
 11
49.4177471758
 21
292.3079050941
  0
LINE
  5
237
100
AcDbEntity
  8
0
100
AcDbLine
 62
7
  6
CONTINUOUS
 10
-3.8446334733
 20
209.9633857218
 11
-1.4283756846
 21
208.5688086949
  0
LINE
  5
238
100
AcDbEntity
  8
0
100
AcDbLine
 62
7
  6
CONTINUOUS
 10
-37.3266263445
 20
227.9198490137
 11
-32.3522360045
 21
225.0467335362
  0
LINE
  5
239
100
AcDbEntity
  8
0
100
AcDbLine
 62
7
  6
CONTINUOUS
 10
-19.1908799978
 20
217.4449787357
 11
-15.9320358463
 21
215.5627308761
  0
LINE
  5
23A
100
AcDbEntity
  8
0
100
AcDbLine
 62
7
  6
CONTINUOUS
 10
-7.34766474
 20
213.1747352081
 11
-3.053170264
 21
210.6943149549
  0
LINE
  5
23B
100
AcDbEntity
  8
0
100
AcDbLine
 62
7
  6
CONTINUOUS
 10
-26.2207093953
 20
215.5605991481
 11
-27.4682331003
 21
216.2812335793
  0
LINE
  5
23C
100
AcDbEntity
  8
0
100
AcDbLine
 62
7
  6
CONTINUOUS
 10
-21.1261953388
 20
285.2985340062
 11
-21.1261953388
 21
277.0032640095
  0
LINE
  5
23D
100
AcDbEntity
  8
0
100
AcDbLine
 62
7
  6
CONTINUOUS
 10
-18.0270216784
 20
277.3884163407
 11
-18.0270216784
 21
284.3143871732
  0
LINE
  5
23E
100
AcDbEntity
  8
0
100
AcDbLine
 62
7
  6
CONTINUOUS
 10
-22.2150076297
 20
226.5530142835
 11
-3.1949066887
 21
215.5673572158
  0
LINE
  5
23F
100
AcDbEntity
  8
0
100
AcDbLine
 62
7
  6
CONTINUOUS
 10
-11.2427818193
 20
222.3815379536
 11
-23.1806632652
 21
229.2766365699
  0
LINE
  5
240
100
AcDbEntity
  8
0
100
AcDbLine
 62
7
  6
CONTINUOUS
 10
-4.7479123881
 20
220.6086127322
 11
2.5902174773
 21
216.3702452036
  0
LINE
  5
241
100
AcDbEntity
  8
0
100
AcDbLine
 62
7
  6
CONTINUOUS
 10
2.5902174773
 20
217.1180914665
 11
-3.4417719781
 21
220.6020565515
  0
LINE
  5
242
100
AcDbEntity
  8
0
100
AcDbLine
 62
7
  6
CONTINUOUS
 10
16.2260554084
 20
269.0734626881
 11
23.3639323541
 21
270.9868440969
  0
LINE
  5
243
100
AcDbEntity
  8
0
100
AcDbLine
 62
7
  6
CONTINUOUS
 10
-3.1949066887
 20
214.8195109529
 11
-3.1949066887
 21
215.5673572158
  0
LINE
  5
244
100
AcDbEntity
  8
0
100
AcDbLine
 62
7
  6
CONTINUOUS
 10
-1.4283756846
 20
208.5688086949
 11
-1.4283756846
 21
210.270517795
  0
LINE
  5
245
100
AcDbEntity
  8
0
100
AcDbLine
 62
7
  6
CONTINUOUS
 10
2.5902174773
 20
217.1180914665
 11
2.5902174773
 21
216.3702452036
  0
LINE
  5
246
100
AcDbEntity
  8
0
100
AcDbLine
 62
7
  6
CONTINUOUS
 10
-3.8446334733
 20
209.9633857218
 11
-3.8197288055
 21
211.1370649321
  0
LINE
  5
247
100
AcDbEntity
  8
0
100
AcDbLine
 62
7
  6
CONTINUOUS
 10
15.086503238
 20
269.8230072234
 11
22.1159110196
 21
271.7072793605
  0
LINE
  5
248
100
AcDbEntity
  8
0
100
AcDbLine
 62
7
  6
CONTINUOUS
 10
28.9951205667
 20
274.378089211
 11
33.5405752685
 21
275.5965232651
  0
LINE
  5
249
100
AcDbEntity
  8
0
100
AcDbLine
 62
7
  6
CONTINUOUS
 10
-59.7315423372
 20
279.9742569364
 11
-58.8870190281
 21
279.4864759573
  0
LINE
  5
24A
100
AcDbEntity
  8
0
100
AcDbLine
 62
7
  6
CONTINUOUS
 10
-26.0445587399
 20
262.5982531835
 11
-39.8384394558
 21
270.5653425091
  0
LINE
  5
24B
100
AcDbEntity
  8
0
100
AcDbLine
 62
7
  6
CONTINUOUS
 10
-53.5151180168
 20
280.9264434757
 11
-54.359641326
 21
281.4142244549
  0
LINE
  5
24C
100
AcDbEntity
  8
0
100
AcDbLine
 62
7
  6
CONTINUOUS
 10
-59.7315423372
 20
284.5709300035
 11
-62.2651122646
 21
286.0342729409
  0
LINE
  5
24D
100
AcDbEntity
  8
0
100
AcDbLine
 62
7
  6
CONTINUOUS
 10
15.4931488203
 20
276.9948579109
 11
15.4931488203
 21
269.9320108499
  0
LINE
  5
24E
100
AcDbEntity
  8
0
100
AcDbLine
 62
7
  6
CONTINUOUS
 10
-17.3609862167
 20
283.2511811681
 11
-18.0270216784
 21
283.072646711
  0
LINE
  5
24F
100
AcDbEntity
  8
0
100
AcDbLine
 62
7
  6
CONTINUOUS
 10
-18.0270216784
 20
283.3011707526
 11
-16.8889472711
 21
283.6062378372
  0
LINE
  5
250
100
AcDbEntity
  8
0
100
AcDbLine
 62
7
  6
CONTINUOUS
 10
-19.8013847448
 20
285.6536567494
 11
-21.1261953388
 21
285.2985340062
  0
LINE
  5
251
100
AcDbEntity
  8
0
100
AcDbLine
 62
7
  6
CONTINUOUS
 10
-50.2274097788
 20
287.1185648439
 11
-49.3828864697
 21
286.6307838648
  0
LINE
  5
252
100
AcDbEntity
  8
0
100
AcDbLine
 62
7
  6
CONTINUOUS
 10
-56.0667649439
 20
294.5907835245
 11
-53.5331950165
 21
293.1274405871
  0
LINE
  5
253
100
AcDbEntity
  8
0
100
AcDbLine
 62
7
  6
CONTINUOUS
 10
27.4024721252
 20
281.2444107402
 11
27.4024721252
 21
282.7454124101
  0
LINE
  5
254
100
AcDbEntity
  8
0
100
AcDbLine
 62
7
  6
CONTINUOUS
 10
28.9951205667
 20
278.0975678268
 11
28.9951205667
 21
274.378089211
  0
LINE
  5
255
100
AcDbEntity
  8
0
100
AcDbLine
 62
7
  6
CONTINUOUS
 10
-53.5151180168
 20
280.9264434757
 11
-58.8870190281
 21
279.4864759573
  0
LINE
  5
256
100
AcDbEntity
  8
0
100
AcDbLine
 62
7
  6
CONTINUOUS
 10
-54.359641326
 20
281.4142244549
 11
-59.7315423372
 21
279.9742569364
  0
LINE
  5
257
100
AcDbEntity
  8
0
100
AcDbLine
 62
7
  6
CONTINUOUS
 10
-23.2950759649
 20
292.9566655964
 11
-25.1888745598
 21
292.4490225
  0
LINE
  5
258
100
AcDbEntity
  8
0
100
AcDbLine
 62
7
  6
CONTINUOUS
 10
-23.4281537701
 20
293.3723944225
 11
-24.5017003818
 21
293.0846243674
  0
LINE
  5
259
100
AcDbEntity
  8
0
100
AcDbLine
 62
7
  6
CONTINUOUS
 10
-23.4252589872
 20
293.387876162
 11
-28.1030243455
 21
292.133975511
  0
LINE
  5
25A
100
AcDbEntity
  8
0
100
AcDbLine
 62
7
  6
CONTINUOUS
 10
-34.9200760547
 20
284.9703533351
 11
-21.1261953388
 21
277.0032640095
  0
LINE
  5
25B
100
AcDbEntity
  8
0
100
AcDbLine
 62
7
  6
CONTINUOUS
 10
-50.2274097788
 20
294.0135744447
 11
-49.3828864697
 21
293.5257934655
  0
LINE
  5
25C
100
AcDbEntity
  8
0
100
AcDbLine
 62
7
  6
CONTINUOUS
 10
-13.9394611841
 20
274.7528060107
 11
-11.5626585129
 21
273.380008929
  0
LINE
  5
25D
100
AcDbEntity
  8
0
100
AcDbLine
 62
7
  6
CONTINUOUS
 10
11.7641236868
 20
262.2147188338
 11
-0.1854179621
 21
269.1165521668
  0
LINE
  5
25E
100
AcDbEntity
  8
0
100
AcDbLine
 62
7
  6
CONTINUOUS
 10
33.5405752685
 20
278.9692095585
 11
33.5405752685
 21
275.5965232651
  0
LINE
  5
25F
100
AcDbEntity
  8
0
100
AcDbLine
 62
7
  6
CONTINUOUS
 10
-22.0284348385
 20
300.858304201
 11
-49.3828864697
 21
293.5257934655
  0
LINE
  5
260
100
AcDbEntity
  8
0
100
AcDbLine
 62
7
  6
CONTINUOUS
 10
-53.5331950165
 20
293.1274405871
 11
-50.2274097788
 21
294.0135744447
  0
LINE
  5
261
100
AcDbEntity
  8
0
100
AcDbLine
 62
7
  6
CONTINUOUS
 10
-21.4661147626
 20
303.8656775099
 11
-56.0667649439
 21
294.5907835245
  0
LINE
  5
262
100
AcDbEntity
  8
0
100
AcDbLine
 62
7
  6
CONTINUOUS
 10
5.9185450644
 20
313.0504221908
 11
4.73584072
 21
312.7333918068
  0
LINE
  5
263
100
AcDbEntity
  8
0
100
AcDbLine
 62
7
  6
CONTINUOUS
 10
-12.7334620174
 20
308.0506494295
 11
-13.9161663619
 21
307.7336190456
  0
LINE
  5
264
100
AcDbEntity
  8
0
100
AcDbLine
 62
7
  6
CONTINUOUS
 10
23.3639262047
 20
270.9867730259
 11
22.1159110196
 21
271.7072793605
  0
LINE
  5
265
100
AcDbEntity
  8
0
100
AcDbLine
 62
7
  6
CONTINUOUS
 10
3.4990293282
 20
275.8474996691
 11
-0.6685157283
 21
278.2545962954
  0
LINE
  5
266
100
AcDbEntity
  8
0
100
AcDbLine
 62
7
  6
CONTINUOUS
 10
7.7266368526
 20
274.0739293623
 11
14.9574815258
 21
269.8975277682
  0
LINE
  5
267
100
AcDbEntity
  8
0
100
AcDbLine
 62
7
  6
CONTINUOUS
 10
27.8690894878
 20
275.0284638498
 11
27.4449276302
 21
277.8582842691
  0
LINE
  5
268
100
AcDbEntity
  8
0
100
AcDbLine
 62
7
  6
CONTINUOUS
 10
47.2371835515
 20
288.0622155552
 11
47.2371835515
 21
286.5612138853
  0
LINE
  5
269
100
AcDbEntity
  8
0
100
AcDbLine
 62
7
  6
CONTINUOUS
 10
1.1851531398
 20
314.5109829248
 11
-18.6495582864
 21
309.1941797796
  0
LINE
  5
26A
100
AcDbEntity
  8
0
100
AcDbLine
 62
7
  6
CONTINUOUS
 10
0.405434751
 20
314.5239035878
 11
-19.4292766753
 21
309.2071004427
  0
LINE
  5
26B
100
AcDbEntity
  8
0
100
AcDbLine
 62
7
  6
CONTINUOUS
 10
27.8690894878
 20
275.0284638498
 11
28.9951205667
 21
274.378089211
  0
LINE
  5
26C
100
AcDbEntity
  8
0
100
AcDbLine
 62
7
  6
CONTINUOUS
 10
24.6775918006
 20
282.8182612621
 11
27.4024721252
 21
281.2444107402
  0
LINE
  5
26D
100
AcDbEntity
  8
0
100
AcDbLine
 62
7
  6
CONTINUOUS
 10
-13.9161663619
 20
307.7336190456
 11
-13.6397561388
 21
307.5739696342
  0
LINE
  5
26E
100
AcDbEntity
  8
0
100
AcDbLine
 62
7
  6
CONTINUOUS
 10
5.9185450644
 20
313.0504221908
 11
5.7874041173
 21
313.0936014507
  0
LINE
  5
26F
100
AcDbEntity
  8
0
100
AcDbLine
 62
7
  6
CONTINUOUS
 10
5.9185450644
 20
313.0504221908
 11
5.7872949028
 21
313.0948792877
  0
LINE
  5
270
100
AcDbEntity
  8
0
100
AcDbLine
 62
7
  6
CONTINUOUS
 10
5.9185450644
 20
313.0504221908
 11
6.1949552874
 21
312.8907727793
  0
ARC
  5
271
100
AcDbEntity
  8
0
100
AcDbCircle
 62
7
  6
CONTINUOUS
 10
-83.5263870586
 20
155.0069217698
 40
169.1813636039
100
AcDbArc
 50
49.0287585338
 51
50.8472231434
  0
ARC
  5
272
100
AcDbEntity
  8
0
100
AcDbCircle
 62
7
  6
CONTINUOUS
 10
-60.0544925663
 20
164.6496623629
 40
163.530309269
100
AcDbArc
 50
48.9971493952
 51
50.8791487446
  0
ARC
  5
273
100
AcDbEntity
  8
0
100
AcDbCircle
 62
7
  6
CONTINUOUS
 10
-22.2813121742
 20
230.0619877567
 40
87.6487751155
100
AcDbArc
 50
71.3225856166
 51
74.4705912782
  0
ARC
  5
274
100
AcDbEntity
  8
0
100
AcDbCircle
 62
7
  6
CONTINUOUS
 10
-41.8414949214
 20
225.6333656871
 40
86.7195224657
100
AcDbArc
 50
71.2149342537
 51
74.4882394025
  0
ARC
  5
275
100
AcDbEntity
  8
0
100
AcDbCircle
 62
7
  6
CONTINUOUS
 10
-53.3753840944
 20
209.6078209285
 40
3.0021691145
100
AcDbArc
 50
41.5917396083
 51
50.751279094
  0
ARC
  5
276
100
AcDbEntity
  8
0
100
AcDbCircle
 62
7
  6
CONTINUOUS
 10
-21.5357636872
 20
262.3626313508
 40
23.2808492475
100
AcDbArc
 50
15.3969091024
 51
17.2903953444
  0
ARC
  5
277
100
AcDbEntity
  8
0
100
AcDbCircle
 62
7
  6
CONTINUOUS
 10
-22.5296237331
 20
283.5892137253
 40
9.6988984625
100
AcDbArc
 50
94.4586035481
 51
95.4756814897
  0
ARC
  5
278
100
AcDbEntity
  8
0
100
AcDbCircle
 62
7
  6
CONTINUOUS
 10
-22.5467749251
 20
283.7544526001
 40
9.5327770743
100
AcDbArc
 50
95.467836145
 51
101.8338354602
  0
ARC
  5
279
100
AcDbEntity
  8
0
100
AcDbCircle
 62
7
  6
CONTINUOUS
 10
-26.9018724742
 20
288.076711821
 40
4.8877088857
100
AcDbArc
 50
42.6105972045
 51
46.3867625914
  0
ARC
  5
27A
100
AcDbEntity
  8
0
100
AcDbCircle
 62
7
  6
CONTINUOUS
 10
-26.6712133271
 20
288.3162601152
 40
4.5551676207
100
AcDbArc
 50
46.4089360531
 51
46.9803407379
  0
ARC
  5
27B
100
AcDbEntity
  8
0
100
AcDbCircle
 62
7
  6
CONTINUOUS
 10
-26.9395084435
 20
286.3591235479
 40
3.8477566753
100
AcDbArc
 50
9.6692647174
 51
17.2279424039
  0
ARC
  5
27C
100
AcDbEntity
  8
0
100
AcDbCircle
 62
7
  6
CONTINUOUS
 10
-21.5228503539
 20
287.8110073122
 40
3.8305310655
100
AcDbArc
 50
189.6524967994
 51
197.2452430413
  0
ARC
  5
27D
100
AcDbEntity
  8
0
100
AcDbCircle
 62
7
  6
CONTINUOUS
 10
-26.9101521121
 20
286.3682580245
 40
3.8170120506
100
AcDbArc
 50
17.2274910256
 51
19.1648514654
  0
ARC
  5
27E
100
AcDbEntity
  8
0
100
AcDbCircle
 62
7
  6
CONTINUOUS
 10
-21.5501549638
 20
287.8012663661
 40
3.8015663151
100
AcDbArc
 50
197.2270327415
 51
199.1722841556
  0
ARC
  5
27F
100
AcDbEntity
  8
0
100
AcDbCircle
 62
7
  6
CONTINUOUS
 10
-26.7830561553
 20
286.3881220728
 40
3.6886571067
100
AcDbArc
 50
8.1282189049
 51
9.63340307
  0
ARC
  5
280
100
AcDbEntity
  8
0
100
AcDbCircle
 62
7
  6
CONTINUOUS
 10
-21.6804566585
 20
287.7826995386
 40
3.6704098965
100
AcDbArc
 50
188.1167282719
 51
189.6293806528
  0
ARC
  5
281
100
AcDbEntity
  8
0
100
AcDbCircle
 62
7
  6
CONTINUOUS
 10
-26.6968924702
 20
286.4473462228
 40
3.5896111204
100
AcDbArc
 50
19.0899191864
 51
25.2014282293
  0
ARC
  5
282
100
AcDbEntity
  8
0
100
AcDbCircle
 62
7
  6
CONTINUOUS
 10
-26.6213790567
 20
286.4103439347
 40
3.5254623756
100
AcDbArc
 50
3.6295534348
 51
8.1422071404
  0
ARC
  5
283
100
AcDbEntity
  8
0
100
AcDbCircle
 62
7
  6
CONTINUOUS
 10
-26.4353282398
 20
286.5698021868
 40
3.3008015794
100
AcDbArc
 50
25.2113981023
 51
27.6927115345
  0
ARC
  5
284
100
AcDbEntity
  8
0
100
AcDbCircle
 62
7
  6
CONTINUOUS
 10
-22.0127217229
 20
287.6030037776
 40
3.2979798531
100
AcDbArc
 50
205.2089262283
 51
207.6924484574
  0
ARC
  5
285
100
AcDbEntity
  8
0
100
AcDbCircle
 62
7
  6
CONTINUOUS
 10
-26.3290334521
 20
286.4319803545
 40
3.2323349286
100
AcDbArc
 50
1.3349921561
 51
3.5748516232
  0
ARC
  5
286
100
AcDbEntity
  8
0
100
AcDbCircle
 62
7
  6
CONTINUOUS
 10
-22.3138201432
 20
287.7377233845
 40
3.0349917546
100
AcDbArc
 50
180.005370577
 51
181.3383416061
  0
ARC
  5
287
100
AcDbEntity
  8
0
100
AcDbCircle
 62
7
  6
CONTINUOUS
 10
-26.1243098556
 20
286.4371519283
 40
3.0275464406
100
AcDbArc
 50
358.6957204416
 51
1.3274120063
  0
ARC
  5
288
100
AcDbEntity
  8
0
100
AcDbCircle
 62
7
  6
CONTINUOUS
 10
-22.4346430789
 20
287.7376255985
 40
2.9141688115
100
AcDbArc
 50
178.6576816853
 51
180.0036706629
  0
ARC
  5
289
100
AcDbEntity
  8
0
100
AcDbCircle
 62
7
  6
CONTINUOUS
 10
-25.8841721259
 20
286.4325950211
 40
2.7873673519
100
AcDbArc
 50
356.2516664418
 51
358.6770089575
  0
ARC
  5
28A
100
AcDbEntity
  8
0
100
AcDbCircle
 62
7
  6
CONTINUOUS
 10
-25.6794961739
 20
287.0354163057
 40
2.4119927381
100
AcDbArc
 50
35.931746581
 51
37.1452162327
  0
ARC
  5
28B
100
AcDbEntity
  8
0
100
AcDbCircle
 62
7
  6
CONTINUOUS
 10
-22.774631549
 20
287.1325221464
 40
2.4014198412
100
AcDbArc
 50
215.9320259701
 51
217.1507931797
  0
ARC
  5
28C
100
AcDbEntity
  8
0
100
AcDbCircle
 62
7
  6
CONTINUOUS
 10
-25.1607289874
 20
286.3500218087
 40
2.0585935106
100
AcDbArc
 50
348.1089599231
 51
350.1285148913
  0
ARC
  5
28D
100
AcDbEntity
  8
0
100
AcDbCircle
 62
7
  6
CONTINUOUS
 10
-23.2938048206
 20
287.8262428363
 40
2.0493783134
100
AcDbArc
 50
168.1156299201
 51
170.1446085827
  0
ARC
  5
28E
100
AcDbEntity
  8
0
100
AcDbCircle
 62
7
  6
CONTINUOUS
 10
-23.45619101
 20
286.5001386462
 40
1.4695837344
100
AcDbArc
 50
229.2854278163
 51
230.6970804327
  0
ARC
  5
28F
100
AcDbEntity
  8
0
100
AcDbCircle
 62
7
  6
CONTINUOUS
 10
-24.9437963428
 20
287.7287274027
 40
1.3983729665
100
AcDbArc
 50
49.2380797888
 51
53.3694332358
  0
ARC
  5
290
100
AcDbEntity
  8
0
100
AcDbCircle
 62
7
  6
CONTINUOUS
 10
-23.5191710074
 20
286.4226971667
 40
1.3697661312
100
AcDbArc
 50
230.683754433
 51
233.3870921137
  0
ARC
  5
291
100
AcDbEntity
  8
0
100
AcDbCircle
 62
7
  6
CONTINUOUS
 10
-24.2906790863
 20
286.0635268712
 40
1.1395299074
100
AcDbArc
 50
329.6639881449
 51
334.1340954089
  0
ARC
  5
292
100
AcDbEntity
  8
0
100
AcDbCircle
 62
7
  6
CONTINUOUS
 10
-24.1711367217
 20
288.1190983543
 40
1.1211998565
100
AcDbArc
 50
149.6194219645
 51
154.1623523079
  0
ARC
  5
293
100
AcDbEntity
  8
0
100
AcDbCircle
 62
7
  6
CONTINUOUS
 10
-23.792355809
 20
285.9605675717
 40
0.8311416886
100
AcDbArc
 50
246.9094536977
 51
250.6684477188
  0
ARC
  5
294
100
AcDbEntity
  8
0
100
AcDbCircle
 62
7
  6
CONTINUOUS
 10
-23.8124026102
 20
285.9042650833
 40
0.771377478
100
AcDbArc
 50
250.6891336073
 51
253.1500054957
  0
ARC
  5
295
100
AcDbEntity
  8
0
100
AcDbCircle
 62
7
  6
CONTINUOUS
 10
-24.6016175741
 20
288.5007157789
 40
0.5364550843
100
AcDbArc
 50
98.9802931797
 51
105.0160224215
  0
ARC
  5
296
100
AcDbEntity
  8
0
100
AcDbCircle
 62
7
  6
CONTINUOUS
 10
-23.8437261042
 20
285.6723308487
 40
0.5353404375
100
AcDbArc
 50
278.9711833012
 51
285.0234916957
  0
ARC
  5
297
100
AcDbEntity
  8
0
100
AcDbCircle
 62
7
  6
CONTINUOUS
 10
14.2156695269
 20
231.6365193668
 40
81.6491613829
100
AcDbArc
 50
95.6374787133
 51
95.8192425885
  0
ARC
  5
298
100
AcDbEntity
  8
0
100
AcDbCircle
 62
7
  6
CONTINUOUS
 10
14.1768825969
 20
232.0172567067
 40
81.2664534686
100
AcDbArc
 50
95.8192539173
 51
95.9826724741
  0
ARC
  5
299
100
AcDbEntity
  8
0
100
AcDbCircle
 62
7
  6
CONTINUOUS
 10
14.0715219975
 20
233.0075115341
 40
80.2706106254
100
AcDbArc
 50
95.9815484284
 51
96.678763121
  0
ARC
  5
29A
100
AcDbEntity
  8
0
100
AcDbCircle
 62
7
  6
CONTINUOUS
 10
13.6571868492
 20
236.4669684391
 40
76.7864424887
100
AcDbArc
 50
96.671913618
 51
99.1674352563
  0
ARC
  5
29B
100
AcDbEntity
  8
0
100
AcDbCircle
 62
7
  6
CONTINUOUS
 10
-18.2939988876
 20
277.0376761574
 40
43.358636025
100
AcDbArc
 50
7.6615136965
 51
8.4955697852
  0
ARC
  5
29C
100
AcDbEntity
  8
0
100
AcDbCircle
 62
7
  6
CONTINUOUS
 10
-0.3083254344
 20
283.3272928083
 40
27.6699906347
100
AcDbArc
 50
116.6825807513
 51
118.8030980218
  0
ARC
  5
29D
100
AcDbEntity
  8
0
100
AcDbCircle
 62
7
  6
CONTINUOUS
 10
25.5896611316
 20
291.9316452437
 40
27.069228582
100
AcDbArc
 50
0.0071200014
 51
15.4646169239
  0
ARC
  5
29E
100
AcDbEntity
  8
0
100
AcDbCircle
 62
7
  6
CONTINUOUS
 10
3.7281083364
 20
291.9316465397
 40
27.0692190407
100
AcDbArc
 50
164.535380342
 51
179.9928827393
  0
ARC
  5
29F
100
AcDbEntity
  8
0
100
AcDbCircle
 62
7
  6
CONTINUOUS
 10
30.5261654095
 20
314.2373166569
 40
25.7758036423
100
AcDbArc
 50
298.6723380179
 51
299.006275016
  0
ARC
  5
2A0
100
AcDbEntity
  8
0
100
AcDbCircle
 62
7
  6
CONTINUOUS
 10
-1.6331086226
 20
285.7597661386
 40
24.9001819014
100
AcDbArc
 50
118.8286079701
 51
120.4690403669
  0
ARC
  5
2A1
100
AcDbEntity
  8
0
100
AcDbCircle
 62
7
  6
CONTINUOUS
 10
21.6081998257
 20
282.5559409984
 40
19.3117902115
100
AcDbArc
 50
194.5209169964
 51
200.3268681483
  0
ARC
  5
2A2
100
AcDbEntity
  8
0
100
AcDbCircle
 62
7
  6
CONTINUOUS
 10
6.3073375216
 20
254.0663713927
 40
18.0351561077
100
AcDbArc
 50
56.7325309536
 51
59.991128638
  0
ARC
  5
2A3
100
AcDbEntity
  8
0
100
AcDbCircle
 62
7
  6
CONTINUOUS
 10
-6.5426288135
 20
306.0892420857
 40
16.0256047379
100
AcDbArc
 50
231.2020978293
 51
231.7312066823
  0
ARC
  5
2A4
100
AcDbEntity
  8
0
100
AcDbCircle
 62
7
  6
CONTINUOUS
 10
41.6959599954
 20
289.0032675553
 40
2.8796938139
100
AcDbArc
 50
59.9854445796
 51
65.4290175293
  0
SPLINE
  5
2A5
100
AcDbEntity
  8
0
100
AcDbSpline
 62
7
  6
CONTINUOUS
 70
0
 71
3
 72
20
 73
16
 74
0
 42
0.0000001
 43
0.0000001
 44
0.0000000001
 40
0.0
 40
0.0
 40
0.0
 40
0.0
 40
0.0527860015
 40
0.1117095947
 40
0.1763666303
 40
0.2459442301
 40
0.3948280941
 40
0.5471737835
 40
0.6908580996
 40
0.7562119328
 40
0.815900553
 40
0.8694870362
 40
0.9171655787
 40
0.9599859103
 40
1.0
 40
1.0
 40
1.0
 40
1.0
 10
-24.2227808056
 20
285.2483950361
 30
0.0
 10
-24.2889481851
 20
285.2866120857
 30
0.0
 10
-24.4204442355
 20
285.3825549028
 30
0.0
 10
-24.600709887
 20
285.5644236133
 30
0.0
 10
-24.7705603747
 20
285.7874152437
 30
0.0
 10
-24.9817655234
 20
286.139377337
 30
0.0
 10
-25.1886793925
 20
286.6382327533
 30
0.0
 10
-25.3334548518
 20
287.2684796662
 30
0.0
 10
-25.3613706982
 20
287.7945931073
 30
0.0
 10
-25.3179474566
 20
288.1819794799
 30
0.0
 10
-25.2565364105
 20
288.4340316733
 30
0.0
 10
-25.1667076034
 20
288.6502473763
 30
0.0
 10
-25.0498985761
 20
288.8250872393
 30
0.0
 10
-24.9078655355
 20
288.9531515225
 30
0.0
 10
-24.7965523746
 20
289.0038455095
 30
0.0
 10
-24.7406072661
 20
289.018852752
 30
0.0
  0
SPLINE
  5
2A6
100
AcDbEntity
  8
0
100
AcDbSpline
 62
7
  6
CONTINUOUS
 70
0
 71
3
 72
10
 73
6
 74
0
 42
0.0000001
 43
0.0000001
 44
0.0000000001
 40
0.0
 40
0.0
 40
0.0
 40
0.0
 40
0.2307026303
 40
0.4700767339
 40
1.0
 40
1.0
 40
1.0
 40
1.0
 10
-23.7049543451
 20
285.1552757739
 30
0.0
 10
-23.744934094
 20
285.1445512297
 30
0.0
 10
-23.8292882917
 20
285.1322617954
 30
0.0
 10
-24.0092915887
 20
285.1467623518
 30
0.0
 10
-24.1404473216
 20
285.2008407448
 30
0.0
 10
-24.2227808056
 20
285.2483950361
 30
0.0
  0
SPLINE
  5
2A7
100
AcDbEntity
  8
0
100
AcDbSpline
 62
7
  6
CONTINUOUS
 70
0
 71
3
 72
9
 73
5
 74
0
 42
0.0000001
 43
0.0000001
 44
0.0000000001
 40
0.0
 40
0.0
 40
0.0
 40
0.0
 40
0.4856676445
 40
1.0
 40
1.0
 40
1.0
 40
1.0
 10
-24.6852476793
 20
289.0306149831
 30
0.0
 10
-24.6407320328
 20
289.0376515749
 30
0.0
 10
-24.5469517704
 20
289.0405318314
 30
0.0
 10
-24.4552367792
 20
289.0219784869
 30
0.0
 10
-24.409561579
 20
289.0081303527
 30
0.0
  0
SPLINE
  5
2A8
100
AcDbEntity
  8
0
100
AcDbSpline
 62
7
  6
CONTINUOUS
 70
0
 71
3
 72
9
 73
5
 74
0
 42
0.0000001
 43
0.0000001
 44
0.0000000001
 40
0.0
 40
0.0
 40
0.0
 40
0.0
 40
0.2455512534
 40
1.0
 40
1.0
 40
1.0
 40
1.0
 10
-24.409561579
 20
289.0081303527
 30
0.0
 10
-24.4026968213
 20
289.0060490464
 30
0.0
 10
-24.3748618371
 20
288.9971752227
 30
0.0
 10
-24.3475274811
 20
288.9867467909
 30
0.0
 10
-24.3272458712
 20
288.9781205854
 30
0.0
  0
SPLINE
  5
2A9
100
AcDbEntity
  8
0
100
AcDbSpline
 62
7
  6
CONTINUOUS
 70
0
 71
3
 72
9
 73
5
 74
0
 42
0.0000001
 43
0.0000001
 44
0.0000000001
 40
0.0
 40
0.0
 40
0.0
 40
0.0
 40
0.244172649
 40
1.0
 40
1.0
 40
1.0
 40
1.0
 10
-24.3272458712
 20
288.9781205854
 30
0.0
 10
-24.318489876
 20
288.9743964721
 30
0.0
 10
-24.2828796164
 20
288.9585611731
 30
0.0
 10
-24.2482857586
 20
288.940464677
 30
0.0
 10
-24.2227808056
 20
288.9257334898
 30
0.0
  0
SPLINE
  5
2AA
100
AcDbEntity
  8
0
100
AcDbSpline
 62
7
  6
CONTINUOUS
 70
0
 71
3
 72
9
 73
5
 74
0
 42
0.0000001
 43
0.0000001
 44
0.0000000001
 40
0.0
 40
0.0
 40
0.0
 40
0.0
 40
0.2432286583
 40
1.0
 40
1.0
 40
1.0
 40
1.0
 10
-24.2227808056
 20
288.9257334898
 30
0.0
 10
-24.2132440533
 20
288.9202252388
 30
0.0
 10
-24.1743910995
 20
288.8969649577
 30
0.0
 10
-24.1369600105
 20
288.871353795
 30
0.0
 10
-24.1094527974
 20
288.8509207022
 30
0.0
  0
SPLINE
  5
2AB
100
AcDbEntity
  8
0
100
AcDbSpline
 62
7
  6
CONTINUOUS
 70
0
 71
3
 72
9
 73
5
 74
0
 42
0.0000001
 43
0.0000001
 44
0.0000000001
 40
0.0
 40
0.0
 40
0.0
 40
0.0
 40
0.2361797857
 40
1.0
 40
1.0
 40
1.0
 40
1.0
 10
-24.0307743749
 20
288.7878958687
 30
0.0
 10
-24.0066740574
 20
288.7671724841
 30
0.0
 10
-23.9074087322
 20
288.6762068748
 30
0.0
 10
-23.8189561562
 20
288.5738006182
 30
0.0
 10
-23.7568783213
 20
288.4918673215
 30
0.0
  0
SPLINE
  5
2AC
100
AcDbEntity
  8
0
100
AcDbSpline
 62
7
  6
CONTINUOUS
 70
0
 71
3
 72
9
 73
5
 74
0
 42
0.0000001
 43
0.0000001
 44
0.0000000001
 40
0.0
 40
0.0
 40
0.0
 40
0.0
 40
0.2416331799
 40
1.0
 40
1.0
 40
1.0
 40
1.0
 10
-23.7264655725
 20
288.450824529
 30
0.0
 10
-23.7071870082
 20
288.4242277898
 30
0.0
 10
-23.6296045518
 20
288.312568233
 30
0.0
 10
-23.5605473247
 20
288.195062976
 30
0.0
 10
-23.5126244038
 20
288.1037817674
 30
0.0
  0
SPLINE
  5
2AD
100
AcDbEntity
  8
0
100
AcDbSpline
 62
7
  6
CONTINUOUS
 70
0
 71
3
 72
9
 73
5
 74
0
 42
0.0000001
 43
0.0000001
 44
0.0000000001
 40
0.0
 40
0.0
 40
0.0
 40
0.0
 40
0.2567721711
 40
1.0
 40
1.0
 40
1.0
 40
1.0
 10
-23.1027674404
 20
286.2503733708
 30
0.0
 10
-23.1042048283
 20
286.2285871083
 30
0.0
 10
-23.1108525229
 20
286.1438155375
 30
0.0
 10
-23.1217648044
 20
286.0593583756
 30
0.0
 10
-23.132613428
 20
285.9970989848
 30
0.0
  0
SPLINE
  5
2AE
100
AcDbEntity
  8
0
100
AcDbSpline
 62
7
  6
CONTINUOUS
 70
0
 71
3
 72
9
 73
5
 74
0
 42
0.0000001
 43
0.0000001
 44
0.0000000001
 40
0.0
 40
0.0
 40
0.0
 40
0.0
 40
0.2657238519
 40
1.0
 40
1.0
 40
1.0
 40
1.0
 10
-23.1463103833
 20
285.9258462207
 30
0.0
 10
-23.153237656
 20
285.8929858654
 30
0.0
 10
-23.1824519603
 20
285.7700554446
 30
0.0
 10
-23.2247877623
 20
285.6498722968
 30
0.0
 10
-23.2653100764
 20
285.5663882554
 30
0.0
  0
SPLINE
  5
2AF
100
AcDbEntity
  8
0
100
AcDbSpline
 62
7
  6
CONTINUOUS
 70
0
 71
3
 72
9
 73
5
 74
0
 42
0.0000001
 43
0.0000001
 44
0.0000000001
 40
0.0
 40
0.0
 40
0.0
 40
0.0
 40
0.2631453396
 40
1.0
 40
1.0
 40
1.0
 40
1.0
 10
-23.3071755834
 20
285.4879842841
 30
0.0
 10
-23.3177693065
 20
285.4699387685
 30
0.0
 10
-23.3600390194
 20
285.4025980146
 30
0.0
 10
-23.4109969609
 20
285.3404469213
 30
0.0
 10
-23.4534762753
 20
285.3000881001
 30
0.0
  0
SPLINE
  5
2B0
100
AcDbEntity
  8
0
100
AcDbSpline
 62
7
  6
CONTINUOUS
 70
0
 71
3
 72
9
 73
5
 74
0
 42
0.0000001
 43
0.0000001
 44
0.0000000001
 40
0.0
 40
0.0
 40
0.0
 40
0.0
 40
0.25413151
 40
1.0
 40
1.0
 40
1.0
 40
1.0
 10
-23.4534762753
 20
285.3000881001
 30
0.0
 10
-23.4588525607
 20
285.2949801895
 30
0.0
 10
-23.4803226074
 20
285.2752154862
 30
0.0
 10
-23.5030682791
 20
285.2568276579
 30
0.0
 10
-23.5206911628
 20
285.2440540349
 30
0.0
  0
SPLINE
  5
2B1
100
AcDbEntity
  8
0
100
AcDbSpline
 62
7
  6
CONTINUOUS
 70
0
 71
3
 72
9
 73
5
 74
0
 42
0.0000001
 43
0.0000001
 44
0.0000000001
 40
0.0
 40
0.0
 40
0.0
 40
0.0
 40
0.2559652692
 40
1.0
 40
1.0
 40
1.0
 40
1.0
 10
-23.5206911628
 20
285.2440540349
 30
0.0
 10
-23.5348652728
 20
285.233780192
 30
0.0
 10
-23.591887671
 20
285.1959815903
 30
0.0
 10
-23.6558060703
 20
285.1684597698
 30
0.0
 10
-23.7049543451
 20
285.1552757739
 30
0.0
  0
SPLINE
  5
2B2
100
AcDbEntity
  8
0
100
AcDbSpline
 62
7
  6
CONTINUOUS
 70
0
 71
3
 72
9
 73
5
 74
0
 42
0.0000001
 43
0.0000001
 44
0.0000000001
 40
0.0
 40
0.0
 40
0.0
 40
0.0
 40
0.5132819655
 40
1.0
 40
1.0
 40
1.0
 40
1.0
 10
1.18515314
 20
314.5109829248
 30
0.0
 10
1.0553080786
 20
314.5465157804
 30
0.0
 10
0.7932043865
 20
314.5878277109
 30
0.0
 10
0.5287316479
 20
314.5569638274
 30
0.0
 10
0.4054343847
 20
314.5239051752
 30
0.0
  0
SPLINE
  5
2B3
100
AcDbEntity
  8
0
100
AcDbSpline
 62
7
  6
CONTINUOUS
 70
0
 71
3
 72
19
 73
15
 74
0
 42
0.0000001
 43
0.0000001
 44
0.0000000001
 40
0.0
 40
0.0
 40
0.0
 40
0.0
 40
0.0322738299
 40
0.0667540001
 40
0.1051677814
 40
0.1486024918
 40
0.1975916055
 40
0.2522582954
 40
0.3124320229
 40
0.3777285625
 40
0.5213323479
 40
0.6775055367
 40
0.839475548
 40
1.0
 40
1.0
 40
1.0
 40
1.0
 10
-23.3411027549
 20
291.9350091853
 30
0.0
 10
-23.341090544
 20
291.354612414
 30
0.0
 10
-23.157468494
 20
290.1479419378
 30
0.0
 10
-22.3594161425
 20
288.4118874874
 30
0.0
 10
-21.0699922374
 20
286.7463792574
 30
0.0
 10
-19.3157679608
 20
285.1641663659
 30
0.0
 10
-17.1201684469
 20
283.6770477738
 30
0.0
 10
-14.5099170216
 20
282.3005121021
 30
0.0
 10
-11.5172983692
 20
281.0506270058
 30
0.0
 10
-6.9208389893
 20
279.526543261
 30
0.0
 10
-0.4990630527
 20
278.0836605055
 30
0.0
 10
7.7582279548
 20
277.0997651673
 30
0.0
 10
16.3743984322
 20
276.8684787363
 30
0.0
 10
22.1724156749
 20
277.2311815291
 30
0.0
 10
25.0413477543
 20
277.5518119528
 30
0.0
  0
SPLINE
  5
2B4
100
AcDbEntity
  8
0
100
AcDbSpline
 62
7
  6
CONTINUOUS
 70
0
 71
3
 72
11
 73
7
 74
0
 42
0.0000001
 43
0.0000001
 44
0.0000000001
 40
0.0
 40
0.0
 40
0.0
 40
0.0
 40
0.2777432263
 40
0.5325380019
 40
0.770701206
 40
1.0
 40
1.0
 40
1.0
 40
1.0
 10
-14.4193672239
 20
307.5337726336
 30
0.0
 10
-15.3861115078
 20
307.0161471952
 30
0.0
 10
-17.188168178
 20
305.9199552718
 30
0.0
 10
-19.5368186305
 20
303.9626017932
 30
0.0
 10
-21.3461764071
 20
301.7303759575
 30
0.0
 10
-22.1198505066
 20
300.0220703494
 30
0.0
 10
-22.3610777494
 20
299.1494709241
 30
0.0
  0
SPLINE
  5
2B5
100
AcDbEntity
  8
0
100
AcDbSpline
 62
7
  6
CONTINUOUS
 70
0
 71
3
 72
9
 73
5
 74
0
 42
0.0000001
 43
0.0000001
 44
0.0000000001
 40
0.0
 40
0.0
 40
0.0
 40
0.0
 40
0.518877333
 40
1.0
 40
1.0
 40
1.0
 40
1.0
 10
1.419426145
 20
312.3910448737
 30
0.0
 10
-0.4311124698
 20
312.0992150819
 30
0.0
 10
-3.9783975186
 20
311.4048098678
 30
0.0
 10
-7.4543945243
 20
310.4044635647
 30
0.0
 10
-9.0946594282
 20
309.8325989092
 30
0.0
  0
SPLINE
  5
2B6
100
AcDbEntity
  8
0
100
AcDbSpline
 62
7
  6
CONTINUOUS
 70
0
 71
3
 72
9
 73
5
 74
0
 42
0.0000001
 43
0.0000001
 44
0.0000000001
 40
0.0
 40
0.0
 40
0.0
 40
0.0
 40
0.2457666057
 40
1.0
 40
1.0
 40
1.0
 40
1.0
 10
-17.3609898088
 20
283.2511945713
 30
0.0
 10
-17.3110606344
 20
283.2645762574
 30
0.0
 10
-17.1107669162
 20
283.3295519689
 30
0.0
 10
-16.9253311453
 20
283.4376589393
 30
0.0
 10
-16.8004403274
 20
283.5354726123
 30
0.0
  0
SPLINE
  5
2B7
100
AcDbEntity
  8
0
100
AcDbSpline
 62
7
  6
CONTINUOUS
 70
0
 71
3
 72
17
 73
13
 74
0
 42
0.0000001
 43
0.0000001
 44
0.0000000001
 40
0.0
 40
0.0
 40
0.0
 40
0.0
 40
0.1753450695
 40
0.340137283
 40
0.4911487813
 40
0.6258376078
 40
0.742671669
 40
0.8416551834
 40
0.885198214
 40
0.9254777177
 40
0.9633724996
 40
1.0
 40
1.0
 40
1.0
 40
1.0
 10
25.0413477543
 20
277.5518119528
 30
0.0
 10
26.9671706418
 20
277.7670409619
 30
0.0
 10
30.6907299321
 20
278.3078345809
 30
0.0
 10
35.9951165602
 20
279.4848339341
 30
0.0
 10
40.7522032619
 20
280.9771790222
 30
0.0
 10
44.8449508408
 20
282.7477333782
 30
0.0
 10
48.1744531439
 20
284.7527738581
 30
0.0
 10
50.3417247704
 20
286.6700285069
 30
0.0
 10
51.5570923688
 20
288.292288523
 30
0.0
 10
52.1887708269
 20
289.4872602219
 30
0.0
 10
52.572520915
 20
290.7043044827
 30
0.0
 10
52.6588670584
 20
291.5302230222
 30
0.0
 10
52.658870479
 20
291.9350090175
 30
0.0
  0
SPLINE
  5
2B8
100
AcDbEntity
  8
0
100
AcDbSpline
 62
7
  6
CONTINUOUS
 70
0
 71
3
 72
12
 73
8
 74
0
 42
0.0000001
 43
0.0000001
 44
0.0000000001
 40
0.0
 40
0.0
 40
0.0
 40
0.0
 40
0.1144867559
 40
0.2294861099
 40
0.4672320486
 40
0.7220667016
 40
1.0
 40
1.0
 40
1.0
 40
1.0
 10
51.678856735
 20
299.1494710092
 30
0.0
 10
51.5569831349
 20
299.5903284595
 30
0.0
 10
51.243848836
 20
300.4564468716
 30
0.0
 10
50.3614742379
 20
302.1071433043
 30
0.0
 10
48.813066653
 20
304.0067925782
 30
0.0
 10
46.4298182509
 20
305.9759840521
 30
0.0
 10
44.5999408481
 20
307.077110453
 30
0.0
 10
43.6186780888
 20
307.5968084838
 30
0.0
  0
SPLINE
  5
2B9
100
AcDbEntity
  8
0
100
AcDbSpline
 62
7
  6
CONTINUOUS
 70
0
 71
3
 72
13
 73
9
 74
0
 42
0.0000001
 43
0.0000001
 44
0.0000000001
 40
0.0
 40
0.0
 40
0.0
 40
0.0
 40
0.102082601
 40
0.2135661285
 40
0.333623509
 40
0.4608095083
 40
0.7287225588
 40
1.0
 40
1.0
 40
1.0
 40
1.0
 10
43.6186780888
 20
307.5968084838
 30
0.0
 10
42.4678779354
 20
308.206297194
 30
0.0
 10
39.9768659711
 20
309.3261473785
 30
0.0
 10
35.93844171
 20
310.6847530434
 30
0.0
 10
31.4925622324
 20
311.7880842273
 30
0.0
 10
25.0141977707
 20
312.9174405447
 30
0.0
 10
16.5174960572
 20
313.5721837746
 30
0.0
 10
9.626237535
 20
313.3263297781
 30
0.0
 10
6.1816775269
 20
312.9935168794
 30
0.0
  0
LINE
  5
2BA
100
AcDbEntity
  8
0
100
AcDbLine
 62
7
  6
CONTINUOUS
 10
6.1816775269
 20
312.9935168794
 11
6.0487446658
 21
312.9805661337
  0
SPLINE
  5
2BB
100
AcDbEntity
  8
0
100
AcDbSpline
 62
7
  6
CONTINUOUS
 70
0
 71
3
 72
11
 73
7
 74
0
 42
0.0000001
 43
0.0000001
 44
0.0000000001
 40
0.0
 40
0.0
 40
0.0
 40
0.0
 40
0.3020026302
 40
0.5650888731
 40
0.7932924132
 40
1.0
 40
1.0
 40
1.0
 40
1.0
 10
-20.8508123083
 20
307.1564086382
 30
0.0
 10
-20.8028022444
 20
307.4157312474
 30
0.0
 10
-20.6766288718
 20
307.8958842295
 30
0.0
 10
-20.3664437376
 20
308.5221779653
 30
0.0
 10
-19.9523220735
 20
308.9828282063
 30
0.0
 10
-19.6036299726
 20
309.1603542524
 30
0.0
 10
-19.4292770414
 20
309.2071020295
 30
0.0
  0
SPLINE
  5
2BC
100
AcDbEntity
  8
0
100
AcDbSpline
 62
7
  6
CONTINUOUS
 70
0
 71
3
 72
11
 73
7
 74
0
 42
0.0000001
 43
0.0000001
 44
0.0000000001
 40
0.0
 40
0.0
 40
0.0
 40
0.0
 40
0.2771667788
 40
0.5388191785
 40
0.780869468
 40
1.0
 40
1.0
 40
1.0
 40
1.0
 10
27.4024721252
 20
281.2444107402
 30
0.0
 10
29.2923058685
 20
281.4811972281
 30
0.0
 10
32.9536086214
 20
282.0520280313
 30
0.0
 10
38.1923241972
 20
283.2344375937
 30
0.0
 10
42.9442850987
 20
284.6979274049
 30
0.0
 10
45.881572306
 20
285.9056553688
 30
0.0
 10
47.2371835515
 20
286.5612138853
 30
0.0
  0
SPLINE
  5
2BD
100
AcDbEntity
  8
0
100
AcDbSpline
 62
7
  6
CONTINUOUS
 70
0
 71
3
 72
23
 73
19
 74
0
 42
0.0000001
 43
0.0000001
 44
0.0000000001
 40
0.0
 40
0.0
 40
0.0
 40
0.0
 40
0.2935610527
 40
0.4332455364
 40
0.5674525697
 40
0.632229057
 40
0.6952345912
 40
0.7562213935
 40
0.8148152599
 40
0.8703938798
 40
0.8967236368
 40
0.9217709469
 40
0.9451227214
 40
0.9660305885
 40
0.9751690563
 40
0.9831141022
 40
0.9900688516
 40
1.0
 40
1.0
 40
1.0
 40
1.0
 10
-9.0947739227
 20
309.8325911869
 30
0.0
 10
-9.478966555
 20
309.6986635838
 30
0.0
 10
-10.0430274903
 20
309.4922451668
 30
0.0
 10
-10.772970013
 20
309.1993334871
 30
0.0
 10
-11.204347338
 20
309.0141426901
 30
0.0
 10
-11.5346976796
 20
308.8633874623
 30
0.0
 10
-11.7708070629
 20
308.7506519967
 30
0.0
 10
-11.9968991814
 20
308.6369268211
 30
0.0
 10
-12.2109067997
 20
308.5222603063
 30
0.0
 10
-12.3793777971
 20
308.4244469833
 30
0.0
 10
-12.504452091
 20
308.3448558126
 30
0.0
 10
-12.5898250265
 20
308.2861201479
 30
0.0
 10
-12.6658577724
 20
308.2274235504
 30
0.0
 10
-12.7208348445
 20
308.1774117239
 30
0.0
 10
-12.753618893
 20
308.1360038935
 30
0.0
 10
-12.7700226593
 20
308.106815152
 30
0.0
 10
-12.7708621368
 20
308.0687404952
 30
0.0
 10
-12.7464953605
 20
308.0550751697
 30
0.0
 10
-12.7334620174
 20
308.0506494295
 30
0.0
  0
SPLINE
  5
2BE
100
AcDbEntity
  8
0
100
AcDbSpline
 62
7
  6
CONTINUOUS
 70
0
 71
3
 72
9
 73
5
 74
0
 42
0.0000001
 43
0.0000001
 44
0.0000000001
 40
0.0
 40
0.0
 40
0.0
 40
0.0
 40
0.515832388
 40
1.0
 40
1.0
 40
1.0
 40
1.0
 10
-13.6397561388
 20
307.5739696342
 30
0.0
 10
-13.7695876409
 20
307.6185150579
 30
0.0
 10
-14.0388593789
 20
307.6673095635
 30
0.0
 10
-14.3057766713
 20
307.5945975902
 30
0.0
 10
-14.4193624502
 20
307.5337970953
 30
0.0
  0
SPLINE
  5
2BF
100
AcDbEntity
  8
0
100
AcDbSpline
 62
7
  6
CONTINUOUS
 70
0
 71
3
 72
9
 73
5
 74
0
 42
0.0000001
 43
0.0000001
 44
0.0000000001
 40
0.0
 40
0.0
 40
0.0
 40
0.0
 40
0.4867179854
 40
1.0
 40
1.0
 40
1.0
 40
1.0
 10
-19.4292770414
 20
309.2071020295
 30
0.0
 10
-19.3059797896
 20
309.240160679
 30
0.0
 10
-19.041507053
 20
309.2710246189
 30
0.0
 10
-18.7794033612
 20
309.229712639
 30
0.0
 10
-18.6495582862
 20
309.1941797796
 30
0.0
  0
SPLINE
  5
2C0
100
AcDbEntity
  8
0
100
AcDbSpline
 62
7
  6
CONTINUOUS
 70
0
 71
3
 72
14
 73
10
 74
0
 42
0.0000001
 43
0.0000001
 44
0.0000000001
 40
0.0
 40
0.0
 40
0.0
 40
0.0
 40
0.0966258966
 40
0.2052649005
 40
0.3244627924
 40
0.4522508798
 40
0.5863147698
 40
0.7241084325
 40
1.0
 40
1.0
 40
1.0
 40
1.0
 10
43.4055280446
 20
307.3213735843
 30
0.0
 10
42.3423773351
 20
307.9354319008
 30
0.0
 10
39.9862412329
 20
309.0725678717
 30
0.0
 10
36.0980188238
 20
310.4593867156
 30
0.0
 10
31.7210758261
 20
311.6023342859
 30
0.0
 10
26.9547120813
 20
312.4743242823
 30
0.0
 10
21.9063025524
 20
313.0553419917
 30
0.0
 10
14.9535790232
 20
313.4226267771
 30
0.0
 10
9.6835239787
 20
313.2351384828
 30
0.0
 10
6.1949552874
 20
312.8907727793
 30
0.0
  0
SPLINE
  5
2C1
100
AcDbEntity
  8
0
100
AcDbSpline
 62
7
  6
CONTINUOUS
 70
0
 71
3
 72
11
 73
7
 74
0
 42
0.0000001
 43
0.0000001
 44
0.0000000001
 40
0.0
 40
0.0
 40
0.0
 40
0.0
 40
0.2318955672
 40
0.4654219305
 40
0.7172744791
 40
1.0
 40
1.0
 40
1.0
 40
1.0
 10
-22.3610821144
 20
299.1494666744
 30
0.0
 10
-22.5172743548
 20
298.5844589594
 30
0.0
 10
-22.6702147351
 20
297.396426321
 30
0.0
 10
-22.3315281943
 20
295.5878891542
 30
0.0
 10
-21.446340188
 20
293.8363333506
 30
0.0
 10
-20.5744233955
 20
292.790582525
 30
0.0
 10
-20.0734777008
 20
292.2808416649
 30
0.0
  0
SPLINE
  5
2C2
100
AcDbEntity
  8
0
100
AcDbSpline
 62
7
  6
CONTINUOUS
 70
0
 71
3
 72
9
 73
5
 74
0
 42
0.0000001
 43
0.0000001
 44
0.0000000001
 40
0.0
 40
0.0
 40
0.0
 40
0.0
 40
0.470617169
 40
1.0
 40
1.0
 40
1.0
 40
1.0
 10
-20.0734777008
 20
292.2808416649
 30
0.0
 10
-19.5285646903
 20
291.7263615493
 30
0.0
 10
-18.2647896256
 20
290.6511250467
 30
0.0
 10
-16.8739046983
 20
289.7528747202
 30
0.0
 10
-16.1166477804
 20
289.3154953555
 30
0.0
  0
SPLINE
  5
2C3
100
AcDbEntity
  8
0
100
AcDbSpline
 62
7
  6
CONTINUOUS
 70
0
 71
3
 72
9
 73
5
 74
0
 42
0.0000001
 43
0.0000001
 44
0.0000000001
 40
0.0
 40
0.0
 40
0.0
 40
0.0
 40
0.4710655105
 40
1.0
 40
1.0
 40
1.0
 40
1.0
 10
-16.1166477804
 20
289.3154953555
 30
0.0
 10
-14.9960171079
 20
288.6682371793
 30
0.0
 10
-12.5157631195
 20
287.4681567936
 30
0.0
 10
-9.926384011
 20
286.5380372536
 30
0.0
 10
-8.5397764531
 20
286.1034942295
 30
0.0
  0
SPLINE
  5
2C4
100
AcDbEntity
  8
0
100
AcDbSpline
 62
7
  6
CONTINUOUS
 70
0
 71
3
 72
11
 73
7
 74
0
 42
0.0000001
 43
0.0000001
 44
0.0000000001
 40
0.0
 40
0.0
 40
0.0
 40
0.0
 40
0.2290486315
 40
0.4797195101
 40
0.7407488858
 40
1.0
 40
1.0
 40
1.0
 40
1.0
 10
-8.5397764531
 20
286.1034942295
 30
0.0
 10
-6.1036948154
 20
285.3400610032
 30
0.0
 10
-0.8851175846
 20
284.1059458412
 30
0.0
 10
7.3173424569
 20
283.065684053
 30
0.0
 10
15.9174300106
 20
282.7889790136
 30
0.0
 10
21.7163439875
 20
283.1305281466
 30
0.0
 10
24.5889039172
 20
283.4432543321
 30
0.0
  0
SPLINE
  5
2C5
100
AcDbEntity
  8
0
100
AcDbSpline
 62
7
  6
CONTINUOUS
 70
0
 71
3
 72
9
 73
5
 74
0
 42
0.0000001
 43
0.0000001
 44
0.0000000001
 40
0.0
 40
0.0
 40
0.0
 40
0.0
 40
0.5280603875
 40
1.0
 40
1.0
 40
1.0
 40
1.0
 10
45.667741617
 20
289.4520600043
 30
0.0
 10
46.375368752
 20
289.8708199313
 30
0.0
 10
47.678605408
 20
290.7291316121
 30
0.0
 10
48.8653876928
 20
291.746900041
 30
0.0
 10
49.3810355053
 20
292.2704767718
 30
0.0
  0
SPLINE
  5
2C6
100
AcDbEntity
  8
0
100
AcDbSpline
 62
7
  6
CONTINUOUS
 70
0
 71
3
 72
11
 73
7
 74
0
 42
0.0000001
 43
0.0000001
 44
0.0000000001
 40
0.0
 40
0.0
 40
0.0
 40
0.0
 40
0.2824537937
 40
0.5342372452
 40
0.7679006321
 40
1.0
 40
1.0
 40
1.0
 40
1.0
 10
49.4177471758
 20
292.3079050941
 30
0.0
 10
49.9142077141
 20
292.8161294005
 30
0.0
 10
50.7781955719
 20
293.8585804593
 30
0.0
 10
51.6537844978
 20
295.6034248037
 30
0.0
 10
51.9873626109
 20
297.4041446434
 30
0.0
 10
51.8343626563
 20
298.5868828837
 30
0.0
 10
51.6788057258
 20
299.1495867033
 30
0.0
  0
SPLINE
  5
2C7
100
AcDbEntity
  8
0
100
AcDbSpline
 62
7
  6
CONTINUOUS
 70
0
 71
3
 72
17
 73
13
 74
0
 42
0.0000001
 43
0.0000001
 44
0.0000000001
 40
0.0
 40
0.0
 40
0.0
 40
0.0
 40
0.0243156836
 40
0.0537200099
 40
0.1160712598
 40
0.1796235433
 40
0.243425792
 40
0.3709496142
 40
0.4980034154
 40
0.6244631686
 40
0.7502926554
 40
1.0
 40
1.0
 40
1.0
 40
1.0
 10
4.73584072
 20
312.7333918069
 30
0.0
 10
4.710207003
 20
312.7420965093
 30
0.0
 10
4.6497747358
 20
312.7476539896
 30
0.0
 10
4.5210510225
 20
312.751958695
 30
0.0
 10
4.3478617203
 20
312.7460003221
 30
0.0
 10
4.1371453025
 20
312.7331743789
 30
0.0
 10
3.8542549637
 20
312.710298673
 30
0.0
 10
3.5015353685
 20
312.6751232968
 30
0.0
 10
3.080109511
 20
312.6263677012
 30
0.0
 10
2.6611733942
 20
312.572846871
 30
0.0
 10
2.1075027016
 20
312.496614934
 30
0.0
 10
1.6940437424
 20
312.434370256
 30
0.0
 10
1.4194309658
 20
312.391063193
 30
0.0
  0
SPLINE
  5
2C8
100
AcDbEntity
  8
0
100
AcDbSpline
 62
7
  6
CONTINUOUS
 70
0
 71
3
 72
9
 73
5
 74
0
 42
0.0000001
 43
0.0000001
 44
0.0000000001
 40
0.0
 40
0.0
 40
0.0
 40
0.0
 40
0.5229376569
 40
1.0
 40
1.0
 40
1.0
 40
1.0
 10
1.4235622964
 20
312.2726158565
 30
0.0
 10
-0.4379990215
 20
311.9712602956
 30
0.0
 10
-3.9774157418
 20
311.2575930408
 30
0.0
 10
-7.4392567758
 20
310.2208304324
 30
0.0
 10
-9.0544656966
 20
309.6285922444
 30
0.0
  0
SPLINE
  5
2C9
100
AcDbEntity
  8
0
100
AcDbSpline
 62
7
  6
CONTINUOUS
 70
0
 71
3
 72
9
 73
5
 74
0
 42
0.0000001
 43
0.0000001
 44
0.0000000001
 40
0.0
 40
0.0
 40
0.0
 40
0.0
 40
0.2614000076
 40
1.0
 40
1.0
 40
1.0
 40
1.0
 10
-9.0544656966
 20
309.6285922444
 30
0.0
 10
-9.3820471943
 20
309.5084800595
 30
0.0
 10
-10.629330481
 20
309.0332887099
 30
0.0
 10
-11.8526680196
 20
308.4935008476
 30
0.0
 10
-12.7334620174
 20
308.0506494295
 30
0.0
  0
SPLINE
  5
2CA
100
AcDbEntity
  8
0
100
AcDbSpline
 62
7
  6
CONTINUOUS
 70
0
 71
3
 72
14
 73
10
 74
0
 42
0.0000001
 43
0.0000001
 44
0.0000000001
 40
0.0
 40
0.0
 40
0.0
 40
0.0
 40
0.2757653313
 40
0.4135627626
 40
0.5476559604
 40
0.6754841703
 40
0.79471885
 40
0.9033787685
 40
1.0
 40
1.0
 40
1.0
 40
1.0
 10
23.2295361423
 20
286.3511907522
 30
0.0
 10
19.7332193394
 20
286.0014294431
 30
0.0
 10
14.4500136443
 20
285.8079434687
 30
0.0
 10
7.4786162747
 20
286.1701690515
 30
0.0
 10
2.4146411721
 20
286.7491323214
 30
0.0
 10
-2.3670257897
 20
287.6207280416
 30
0.0
 10
-6.7581063884
 20
288.7648541096
 30
0.0
 10
-10.6584671579
 20
290.1542419135
 30
0.0
 10
-13.0216608818
 20
291.2942327272
 30
0.0
 10
-14.0877490355
 20
291.9099854458
 30
0.0
  0
SPLINE
  5
2CB
100
AcDbEntity
  8
0
100
AcDbSpline
 62
7
  6
CONTINUOUS
 70
0
 71
3
 72
15
 73
11
 74
0
 42
0.0000001
 43
0.0000001
 44
0.0000000001
 40
0.0
 40
0.0
 40
0.0
 40
0.0
 40
0.160411276
 40
0.3003620107
 40
0.4221523197
 40
0.5307839479
 40
0.6342090596
 40
0.7418974262
 40
0.8620623302
 40
1.0
 40
1.0
 40
1.0
 40
1.0
 10
43.4058526368
 20
307.3211826176
 30
0.0
 10
44.2104763092
 20
306.8564451829
 30
0.0
 10
45.6710602238
 20
305.89969147
 30
0.0
 10
47.4936253211
 20
304.2507056919
 30
0.0
 10
48.7670964367
 20
302.4991081885
 30
0.0
 10
49.4481373336
 20
300.6563030722
 30
0.0
 10
49.4820645707
 20
298.767566736
 30
0.0
 10
48.864864711
 20
296.9169036077
 30
0.0
 10
47.6500854415
 20
295.1556893382
 30
0.0
 10
46.5530127829
 20
294.1257749064
 30
0.0
 10
45.9315326594
 20
293.6235948318
 30
0.0
  0
SPLINE
  5
2CC
100
AcDbEntity
  8
0
100
AcDbSpline
 62
7
  6
CONTINUOUS
 70
0
 71
3
 72
9
 73
5
 74
0
 42
0.0000001
 43
0.0000001
 44
0.0000000001
 40
0.0
 40
0.0
 40
0.0
 40
0.0
 40
0.2349715922
 40
1.0
 40
1.0
 40
1.0
 40
1.0
 10
45.9315326594
 20
293.6235948318
 30
0.0
 10
45.7188628192
 20
293.4517493421
 30
0.0
 10
44.7947043363
 20
292.7440364961
 30
0.0
 10
43.8035406812
 20
292.1263360506
 30
0.0
 10
43.0249919247
 20
291.6946595564
 30
0.0
  0
SPLINE
  5
2CD
100
AcDbEntity
  8
0
100
AcDbSpline
 62
7
  6
CONTINUOUS
 70
0
 71
3
 72
11
 73
7
 74
0
 42
0.0000001
 43
0.0000001
 44
0.0000000001
 40
0.0
 40
0.0
 40
0.0
 40
0.0
 40
0.2190946168
 40
0.4611293518
 40
0.7227915216
 40
1.0
 40
1.0
 40
1.0
 40
1.0
 10
47.2371835515
 20
288.0622155553
 30
0.0
 10
45.8817943678
 20
287.4067644254
 30
0.0
 10
42.9448443116
 20
286.1991555038
 30
0.0
 10
38.1931933517
 20
284.7356302711
 30
0.0
 10
32.9542390227
 20
283.5531466322
 30
0.0
 10
29.2925903614
 20
282.9822345435
 30
0.0
 10
27.4024721252
 20
282.7454124101
 30
0.0
  0
SPLINE
  5
2CE
100
AcDbEntity
  8
0
100
AcDbSpline
 62
7
  6
CONTINUOUS
 70
0
 71
3
 72
15
 73
11
 74
0
 42
0.0000001
 43
0.0000001
 44
0.0000000001
 40
0.0
 40
0.0
 40
0.0
 40
0.0
 40
0.1595266338
 40
0.2987145519
 40
0.4200156613
 40
0.5285176023
 40
0.6322069851
 40
0.7404621471
 40
0.8613348323
 40
1.0
 40
1.0
 40
1.0
 40
1.0
 10
-14.2593113314
 20
307.2213146354
 30
0.0
 10
-15.0483308022
 20
306.7567977566
 30
0.0
 10
-16.479390902
 20
305.8013690475
 30
0.0
 10
-18.2591261302
 20
304.156804717
 30
0.0
 10
-19.4948925657
 20
302.4119976675
 30
0.0
 10
-20.1434023315
 20
300.5786340407
 30
0.0
 10
-20.1522828588
 20
298.7032994934
 30
0.0
 10
-19.5203488462
 20
296.8678721383
 30
0.0
 10
-18.3002799957
 20
295.1207532107
 30
0.0
 10
-17.2041360625
 20
294.0981945906
 30
0.0
 10
-16.5838765291
 20
293.5995122436
 30
0.0
  0
SPLINE
  5
2CF
100
AcDbEntity
  8
0
100
AcDbSpline
 62
7
  6
CONTINUOUS
 70
0
 71
3
 72
9
 73
5
 74
0
 42
0.0000001
 43
0.0000001
 44
0.0000000001
 40
0.0
 40
0.0
 40
0.0
 40
0.0
 40
0.2375722757
 40
1.0
 40
1.0
 40
1.0
 40
1.0
 10
-16.4681112119
 20
293.5073182912
 30
0.0
 10
-16.2897951615
 20
293.3666452284
 30
0.0
 10
-15.5267754461
 20
292.7903251297
 30
0.0
 10
-14.7189301621
 20
292.2745439423
 30
0.0
 10
-14.0877490355
 20
291.9099854458
 30
0.0
  0
SPLINE
  5
2D0
100
AcDbEntity
  8
0
100
AcDbSpline
 62
7
  6
CONTINUOUS
 70
0
 71
3
 72
9
 73
5
 74
0
 42
0.0000001
 43
0.0000001
 44
0.0000000001
 40
0.0
 40
0.0
 40
0.0
 40
0.0
 40
0.2383886054
 40
1.0
 40
1.0
 40
1.0
 40
1.0
 10
23.2295361423
 20
286.3511907522
 30
0.0
 10
23.2358542743
 20
286.3378058689
 30
0.0
 10
23.2618501463
 20
286.2814192625
 30
0.0
 10
23.2859246875
 20
286.2241557863
 30
0.0
 10
23.3033919094
 20
286.180212961
 30
0.0
  0
SPLINE
  5
2D1
100
AcDbEntity
  8
0
100
AcDbSpline
 62
7
  6
CONTINUOUS
 70
0
 71
3
 72
11
 73
7
 74
0
 42
0.0000001
 43
0.0000001
 44
0.0000000001
 40
0.0
 40
0.0
 40
0.0
 40
0.0
 40
0.221828335
 40
0.4682926374
 40
0.7323247881
 40
1.0
 40
1.0
 40
1.0
 40
1.0
 10
23.2930982837
 20
286.2011721853
 30
0.0
 10
23.456737707
 20
286.041509346
 30
0.0
 10
23.7566789813
 20
285.6587821582
 30
0.0
 10
24.1361604446
 20
285.0039908631
 30
0.0
 10
24.4245153133
 20
284.2521418866
 30
0.0
 10
24.5481195648
 20
283.7160262176
 30
0.0
 10
24.5888753679
 20
283.4431748523
 30
0.0
  0
SPLINE
  5
2D2
100
AcDbEntity
  8
0
100
AcDbSpline
 62
7
  6
CONTINUOUS
 70
0
 71
3
 72
19
 73
15
 74
0
 42
0.0000001
 43
0.0000001
 44
0.0000000001
 40
0.0
 40
0.0
 40
0.0
 40
0.0
 40
0.1300533823
 40
0.1975000173
 40
0.265864576
 40
0.4029850649
 40
0.537233355
 40
0.6648543714
 40
0.7255501764
 40
0.7839635165
 40
0.8402168143
 40
0.8946217096
 40
0.9476703527
 40
1.0
 40
1.0
 40
1.0
 40
1.0
 10
19.2689360505
 20
247.3933980745
 30
0.0
 10
19.2689360505
 20
245.3821290924
 30
0.0
 10
18.8767853246
 20
242.3160221976
 30
0.0
 10
17.6930534215
 20
238.3734774088
 30
0.0
 10
16.0504813335
 20
234.4772808435
 30
0.0
 10
13.2520335938
 20
229.9808730762
 30
0.0
 10
8.9358743654
 20
225.507797257
 30
0.0
 10
4.7058068275
 20
222.7610476635
 30
0.0
 10
1.150524619
 20
221.3471756217
 30
0.0
 10
-1.4944375781
 20
220.7049194218
 30
0.0
 10
-4.1100568844
 20
220.4782505051
 30
0.0
 10
-6.6464539917
 20
220.673929654
 30
0.0
 10
-9.0522904141
 20
221.2900055249
 30
0.0
 10
-10.5419759128
 20
221.9768187206
 30
0.0
 10
-11.2427723713
 20
222.3815543314
 30
0.0
  0
SPLINE
  5
2D3
100
AcDbEntity
  8
0
100
AcDbSpline
 62
7
  6
CONTINUOUS
 70
0
 71
3
 72
11
 73
7
 74
0
 42
0.0000001
 43
0.0000001
 44
0.0000000001
 40
0.0
 40
0.0
 40
0.0
 40
0.0
 40
0.2717748105
 40
0.5268698752
 40
0.7676346318
 40
1.0
 40
1.0
 40
1.0
 40
1.0
 10
-15.0891606707
 20
234.4193291213
 30
0.0
 10
-15.0891606707
 20
234.0110706167
 30
0.0
 10
-15.0097848266
 20
233.2162409436
 30
0.0
 10
-14.629617174
 20
232.1152274379
 30
0.0
 10
-14.0066274181
 20
231.1991625145
 30
0.0
 10
-13.4428379346
 20
230.7456723911
 30
0.0
 10
-13.1405659795
 20
230.5711070308
 30
0.0
  0
SPLINE
  5
2D4
100
AcDbEntity
  8
0
100
AcDbSpline
 62
7
  6
CONTINUOUS
 70
0
 71
3
 72
11
 73
7
 74
0
 42
0.0000001
 43
0.0000001
 44
0.0000000001
 40
0.0
 40
0.0
 40
0.0
 40
0.0
 40
0.2717748086
 40
0.5268698864
 40
0.7676346258
 40
1.0
 40
1.0
 40
1.0
 40
1.0
 10
-11.1344985434
 20
249.098375306
 30
0.0
 10
-11.1344985434
 20
248.6881887061
 30
0.0
 10
-11.0547478168
 20
247.8896052473
 30
0.0
 10
-10.6727847529
 20
246.7833919397
 30
0.0
 10
-10.0468527528
 20
245.8630007054
 30
0.0
 10
-9.4804006702
 20
245.4073688463
 30
0.0
 10
-9.176701141
 20
245.2319790808
 30
0.0
  0
SPLINE
  5
2D5
100
AcDbEntity
  8
0
100
AcDbSpline
 62
7
  6
CONTINUOUS
 70
0
 71
3
 72
11
 73
7
 74
0
 42
0.0000001
 43
0.0000001
 44
0.0000000001
 40
0.0
 40
0.0
 40
0.0
 40
0.0
 40
0.2717748086
 40
0.5268698864
 40
0.7676346258
 40
1.0
 40
1.0
 40
1.0
 40
1.0
 10
1.7384846977
 20
252.5490490422
 30
0.0
 10
1.7384846977
 20
252.1388624423
 30
0.0
 10
1.8182354242
 20
251.3402789835
 30
0.0
 10
2.2001984881
 20
250.2340656759
 30
0.0
 10
2.8261304882
 20
249.3136744416
 30
0.0
 10
3.3925825709
 20
248.8580425825
 30
0.0
 10
3.6962821001
 20
248.682652817
 30
0.0
  0
SPLINE
  5
2D6
100
AcDbEntity
  8
0
100
AcDbSpline
 62
7
  6
CONTINUOUS
 70
0
 71
3
 72
11
 73
7
 74
0
 42
0.0000001
 43
0.0000001
 44
0.0000000001
 40
0.0
 40
0.0
 40
0.0
 40
0.0
 40
0.2717748105
 40
0.5268698752
 40
0.7676346318
 40
1.0
 40
1.0
 40
1.0
 40
1.0
 10
5.7397637499
 20
240.0026365106
 30
0.0
 10
5.7397637499
 20
239.594378006
 30
0.0
 10
5.8191395941
 20
238.7995483329
 30
0.0
 10
6.1993072467
 20
237.6985348271
 30
0.0
 10
6.8222970026
 20
236.7824699037
 30
0.0
 10
7.386086486
 20
236.3289797804
 30
0.0
 10
7.6883584411
 20
236.1544144201
 30
0.0
  0
SPLINE
  5
2D7
100
AcDbEntity
  8
0
100
AcDbSpline
 62
7
  6
CONTINUOUS
 70
0
 71
3
 72
10
 73
6
 74
0
 42
0.0000001
 43
0.0000001
 44
0.0000000001
 40
0.0
 40
0.0
 40
0.0
 40
0.0
 40
0.2403281524
 40
0.485096085
 40
1.0
 40
1.0
 40
1.0
 40
1.0
 10
1.160244339
 20
234.2743651375
 30
0.0
 10
1.0157105
 20
234.3578183724
 30
0.0
 10
0.7046588442
 20
234.4951672512
 30
0.0
 10
0.0210323868
 20
234.6375094919
 30
0.0
 10
-0.5199769082
 20
234.5832064593
 30
0.0
 10
-0.8653601451
 20
234.490624589
 30
0.0
  0
SPLINE
  5
2D8
100
AcDbEntity
  8
0
100
AcDbSpline
 62
7
  6
CONTINUOUS
 70
0
 71
3
 72
9
 73
5
 74
0
 42
0.0000001
 43
0.0000001
 44
0.0000000001
 40
0.0
 40
0.0
 40
0.0
 40
0.0
 40
0.2484649706
 40
1.0
 40
1.0
 40
1.0
 40
1.0
 10
9.4355200818
 20
245.6792186148
 30
0.0
 10
9.3892696256
 20
245.7059393182
 30
0.0
 10
9.1984626633
 20
245.8052769697
 30
0.0
 10
8.9900739433
 20
245.870221334
 30
0.0
 10
8.8310442814
 20
245.8987213995
 30
0.0
  0
SPLINE
  5
2D9
100
AcDbEntity
  8
0
100
AcDbSpline
 62
7
  6
CONTINUOUS
 70
0
 71
3
 72
15
 73
11
 74
0
 42
0.0000001
 43
0.0000001
 44
0.0000000001
 40
0.0
 40
0.0
 40
0.0
 40
0.0
 40
0.0524624725
 40
0.1056459662
 40
0.2162146426
 40
0.335328794
 40
0.4632708983
 40
0.5978578562
 40
0.7353252271
 40
1.0
 40
1.0
 40
1.0
 40
1.0
 10
13.661907847
 20
246.4967642513
 30
0.0
 10
13.4799477635
 20
246.6018481898
 30
0.0
 10
13.0931029701
 20
246.7801797988
 30
0.0
 10
12.2504133331
 20
246.9962856578
 30
0.0
 10
11.0949625052
 20
246.9804053934
 30
0.0
 10
9.7175564622
 20
246.5259081219
 30
0.0
 10
8.4232119454
 20
245.685654506
 30
0.0
 10
7.3014575593
 20
244.5222796452
 30
0.0
 10
6.1595818687
 20
242.6913222796
 30
0.0
 10
5.7397637499
 20
241.0627186239
 30
0.0
 10
5.7397637499
 20
240.0026365106
 30
0.0
  0
SPLINE
  5
2DA
100
AcDbEntity
  8
0
100
AcDbSpline
 62
7
  6
CONTINUOUS
 70
0
 71
3
 72
9
 73
5
 74
0
 42
0.0000001
 43
0.0000001
 44
0.0000000001
 40
0.0
 40
0.0
 40
0.0
 40
0.0
 40
0.2483373341
 40
1.0
 40
1.0
 40
1.0
 40
1.0
 10
5.457549492
 20
258.2318791075
 30
0.0
 10
5.4093458331
 20
258.2597282528
 30
0.0
 10
5.2101750855
 20
258.3629545739
 30
0.0
 10
4.9919754932
 20
258.4287150662
 30
0.0
 10
4.8257118972
 20
258.4560854234
 30
0.0
  0
SPLINE
  5
2DB
100
AcDbEntity
  8
0
100
AcDbSpline
 62
7
  6
CONTINUOUS
 70
0
 71
3
 72
15
 73
11
 74
0
 42
0.0000001
 43
0.0000001
 44
0.0000000001
 40
0.0
 40
0.0
 40
0.0
 40
0.0
 40
0.0524624807
 40
0.1056459719
 40
0.2162146376
 40
0.3353287776
 40
0.4632708635
 40
0.5978578246
 40
0.7353251938
 40
1.0
 40
1.0
 40
1.0
 40
1.0
 10
9.6980430084
 20
259.0738468399
 30
0.0
 10
9.5152235374
 20
259.1794270633
 30
0.0
 10
9.1265517754
 20
259.3586009357
 30
0.0
 10
8.2798823342
 20
259.5757273355
 30
0.0
 10
7.1189747283
 20
259.5597721192
 30
0.0
 10
5.7350637003
 20
259.1031284526
 30
0.0
 10
4.4346063797
 20
258.2589066752
 30
0.0
 10
3.3075542355
 20
257.090037594
 30
0.0
 10
2.1602855956
 20
255.2504330398
 30
0.0
 10
1.7384846977
 20
253.6141377805
 30
0.0
 10
1.7384846977
 20
252.5490490422
 30
0.0
  0
SPLINE
  5
2DC
100
AcDbEntity
  8
0
100
AcDbSpline
 62
7
  6
CONTINUOUS
 70
0
 71
3
 72
9
 73
5
 74
0
 42
0.0000001
 43
0.0000001
 44
0.0000000001
 40
0.0
 40
0.0
 40
0.0
 40
0.0
 40
0.2483373341
 40
1.0
 40
1.0
 40
1.0
 40
1.0
 10
-7.415433749
 20
254.7812053713
 30
0.0
 10
-7.4636374079
 20
254.8090545166
 30
0.0
 10
-7.6628081556
 20
254.9122808376
 30
0.0
 10
-7.8810077478
 20
254.97804133
 30
0.0
 10
-8.0472713438
 20
255.0054116872
 30
0.0
  0
SPLINE
  5
2DD
100
AcDbEntity
  8
0
100
AcDbSpline
 62
7
  6
CONTINUOUS
 70
0
 71
3
 72
15
 73
11
 74
0
 42
0.0000001
 43
0.0000001
 44
0.0000000001
 40
0.0
 40
0.0
 40
0.0
 40
0.0
 40
0.0524624807
 40
0.1056459719
 40
0.2162146376
 40
0.3353287776
 40
0.4632708635
 40
0.5978578246
 40
0.7353251938
 40
1.0
 40
1.0
 40
1.0
 40
1.0
 10
-3.1749402326
 20
255.6231731037
 30
0.0
 10
-3.3577597036
 20
255.7287533271
 30
0.0
 10
-3.7464314656
 20
255.9079271995
 30
0.0
 10
-4.5931009069
 20
256.1250535993
 30
0.0
 10
-5.7540085127
 20
256.109098383
 30
0.0
 10
-7.1379195408
 20
255.6524547164
 30
0.0
 10
-8.4383768614
 20
254.808232939
 30
0.0
 10
-9.5654290055
 20
253.6393638578
 30
0.0
 10
-10.7126976455
 20
251.7997593036
 30
0.0
 10
-11.1344985434
 20
250.1634640443
 30
0.0
 10
-11.1344985434
 20
249.098375306
 30
0.0
  0
SPLINE
  5
2DE
100
AcDbEntity
  8
0
100
AcDbSpline
 62
7
  6
CONTINUOUS
 70
0
 71
3
 72
9
 73
5
 74
0
 42
0.0000001
 43
0.0000001
 44
0.0000000001
 40
0.0
 40
0.0
 40
0.0
 40
0.0
 40
0.2484649706
 40
1.0
 40
1.0
 40
1.0
 40
1.0
 10
-11.3934043388
 20
240.0959112255
 30
0.0
 10
-11.439654795
 20
240.122631929
 30
0.0
 10
-11.6304617574
 20
240.2219695804
 30
0.0
 10
-11.8388504773
 20
240.2869139447
 30
0.0
 10
-11.9978801392
 20
240.3154140102
 30
0.0
  0
SPLINE
  5
2DF
100
AcDbEntity
  8
0
100
AcDbSpline
 62
7
  6
CONTINUOUS
 70
0
 71
3
 72
15
 73
11
 74
0
 42
0.0000001
 43
0.0000001
 44
0.0000000001
 40
0.0
 40
0.0
 40
0.0
 40
0.0
 40
0.0524624725
 40
0.1056459662
 40
0.2162146426
 40
0.335328794
 40
0.4632708983
 40
0.5978578562
 40
0.7353252271
 40
1.0
 40
1.0
 40
1.0
 40
1.0
 10
-7.1670165737
 20
240.9134568621
 30
0.0
 10
-7.3489766571
 20
241.0185408005
 30
0.0
 10
-7.7358214505
 20
241.1968724095
 30
0.0
 10
-8.5785110875
 20
241.4129782685
 30
0.0
 10
-9.7339619154
 20
241.3970980041
 30
0.0
 10
-11.1113679584
 20
240.9426007326
 30
0.0
 10
-12.4057124752
 20
240.1023471168
 30
0.0
 10
-13.5274668614
 20
238.938972256
 30
0.0
 10
-14.6693425519
 20
237.1080148904
 30
0.0
 10
-15.0891606707
 20
235.4794112347
 30
0.0
 10
-15.0891606707
 20
234.4193291213
 30
0.0
  0
SPLINE
  5
2E0
100
AcDbEntity
  8
0
100
AcDbSpline
 62
7
  6
CONTINUOUS
 70
0
 71
3
 72
9
 73
5
 74
0
 42
0.0000001
 43
0.0000001
 44
0.0000000001
 40
0.0
 40
0.0
 40
0.0
 40
0.0
 40
0.2533234948
 40
1.0
 40
1.0
 40
1.0
 40
1.0
 10
-15.0414179116
 20
235.0602992909
 30
0.0
 10
-15.0060731456
 20
235.0180323236
 30
0.0
 10
-14.8596694332
 20
234.8570694378
 30
0.0
 10
-14.6849537136
 20
234.721767614
 30
0.0
 10
-14.5443336087
 20
234.6405258615
 30
0.0
  0
SPLINE
  5
2E1
100
AcDbEntity
  8
0
100
AcDbSpline
 62
7
  6
CONTINUOUS
 70
0
 71
3
 72
9
 73
5
 74
0
 42
0.0000001
 43
0.0000001
 44
0.0000000001
 40
0.0
 40
0.0
 40
0.0
 40
0.0
 40
0.2536548829
 40
1.0
 40
1.0
 40
1.0
 40
1.0
 10
-11.084888824
 20
249.7716849483
 30
0.0
 10
-11.0484451267
 20
249.7265576323
 30
0.0
 10
-10.8971260251
 20
249.5549761422
 30
0.0
 10
-10.7141451091
 20
249.4111995198
 30
0.0
 10
-10.5663630189
 20
249.3258200073
 30
0.0
  0
SPLINE
  5
2E2
100
AcDbEntity
  8
0
100
AcDbSpline
 62
7
  6
CONTINUOUS
 70
0
 71
3
 72
9
 73
5
 74
0
 42
0.0000001
 43
0.0000001
 44
0.0000000001
 40
0.0
 40
0.0
 40
0.0
 40
0.0
 40
0.2536548829
 40
1.0
 40
1.0
 40
1.0
 40
1.0
 10
1.788094417
 20
253.2223586845
 30
0.0
 10
1.8245381144
 20
253.1772313685
 30
0.0
 10
1.9758572159
 20
253.0056498785
 30
0.0
 10
2.158838132
 20
252.861873256
 30
0.0
 10
2.3066202222
 20
252.7764937435
 30
0.0
  0
SPLINE
  5
2E3
100
AcDbEntity
  8
0
100
AcDbSpline
 62
7
  6
CONTINUOUS
 70
0
 71
3
 72
9
 73
5
 74
0
 42
0.0000001
 43
0.0000001
 44
0.0000000001
 40
0.0
 40
0.0
 40
0.0
 40
0.0
 40
0.2533234948
 40
1.0
 40
1.0
 40
1.0
 40
1.0
 10
5.787506509
 20
240.6436066802
 30
0.0
 10
5.8228512751
 20
240.6013397129
 30
0.0
 10
5.9692549875
 20
240.4403768271
 30
0.0
 10
6.143970707
 20
240.3050750033
 30
0.0
 10
6.284590812
 20
240.2238332507
 30
0.0
  0
SPLINE
  5
2E4
100
AcDbEntity
  8
0
100
AcDbSpline
 62
7
  6
CONTINUOUS
 70
0
 71
3
 72
12
 73
8
 74
0
 42
0.0000001
 43
0.0000001
 44
0.0000000001
 40
0.0
 40
0.0
 40
0.0
 40
0.0
 40
0.2349899833
 40
0.4894752595
 40
0.6202667695
 40
0.7503904793
 40
1.0
 40
1.0
 40
1.0
 40
1.0
 10
-0.8653601451
 20
234.490624589
 30
0.0
 10
-1.3244994796
 20
234.367549773
 30
0.0
 10
-2.229558315
 20
233.9051620774
 30
0.0
 10
-3.1167490753
 20
232.9907490814
 30
0.0
 10
-3.6651897679
 20
232.0998984548
 30
0.0
 10
-4.0718597247
 20
231.1482301218
 30
0.0
 10
-4.2124676974
 20
230.3750306099
 30
0.0
 10
-4.2124676983
 20
229.8701088809
 30
0.0
  0
SPLINE
  5
2E5
100
AcDbEntity
  8
0
100
AcDbSpline
 62
7
  6
CONTINUOUS
 70
0
 71
3
 72
11
 73
7
 74
0
 42
0.0000001
 43
0.0000001
 44
0.0000000001
 40
0.0
 40
0.0
 40
0.0
 40
0.0
 40
0.2717668072
 40
0.5268680782
 40
0.7676307416
 40
1.0
 40
1.0
 40
1.0
 40
1.0
 10
-4.2124676983
 20
229.8701088809
 30
0.0
 10
-4.2124676988
 20
229.5932401387
 30
0.0
 10
-4.1586290575
 20
229.0541996617
 30
0.0
 10
-3.9008333994
 20
228.3074934427
 30
0.0
 10
-3.4783125078
 20
227.6862339494
 30
0.0
 10
-3.0959761432
 20
227.3786464633
 30
0.0
 10
-2.8909646293
 20
227.2602736716
 30
0.0
  0
SPLINE
  5
2E6
100
AcDbEntity
  8
0
100
AcDbSpline
 62
7
  6
CONTINUOUS
 70
0
 71
3
 72
13
 73
9
 74
0
 42
0.0000001
 43
0.0000001
 44
0.0000000001
 40
0.0
 40
0.0
 40
0.0
 40
0.0
 40
0.115815089
 40
0.2327336318
 40
0.3517707208
 40
0.4737818732
 40
0.7285666218
 40
1.0
 40
1.0
 40
1.0
 40
1.0
 10
11.7641142388
 20
262.214702456
 30
0.0
 10
12.345079802
 20
261.8791735742
 30
0.0
 10
13.462963158
 20
261.1146831209
 30
0.0
 10
14.9585245555
 20
259.7201333216
 30
0.0
 10
16.2572897514
 20
258.0941986176
 30
0.0
 10
17.7235353861
 20
255.614906861
 30
0.0
 10
18.9638564291
 20
252.0260153944
 30
0.0
 10
19.2689360505
 20
248.9657614172
 30
0.0
 10
19.2689360505
 20
247.3933980745
 30
0.0
  0
SPLINE
  5
2E7
100
AcDbEntity
  8
0
100
AcDbSpline
 62
7
  6
CONTINUOUS
 70
0
 71
3
 72
19
 73
15
 74
0
 42
0.0000001
 43
0.0000001
 44
0.0000000001
 40
0.0
 40
0.0
 40
0.0
 40
0.0
 40
0.1300533823
 40
0.1975000173
 40
0.265864576
 40
0.4029850649
 40
0.537233355
 40
0.6648543714
 40
0.7255501764
 40
0.7839635165
 40
0.8402168143
 40
0.8946217096
 40
0.9476703527
 40
1.0
 40
1.0
 40
1.0
 40
1.0
 10
-18.7475941831
 20
237.2028587129
 30
0.0
 10
-18.7475941831
 20
239.2141276951
 30
0.0
 10
-18.3554434571
 20
242.2802345898
 30
0.0
 10
-17.171711554
 20
246.2227793786
 30
0.0
 10
-15.529139466
 20
250.118975944
 30
0.0
 10
-12.7306917264
 20
254.6153837112
 30
0.0
 10
-8.414532498
 20
259.0884595305
 30
0.0
 10
-4.1844649601
 20
261.8352091239
 30
0.0
 10
-0.6291827516
 20
263.2490811658
 30
0.0
 10
2.0157794456
 20
263.8913373657
 30
0.0
 10
4.6313987518
 20
264.1180062824
 30
0.0
 10
7.1677958591
 20
263.9223271334
 30
0.0
 10
9.5736322816
 20
263.3062512626
 30
0.0
 10
11.0633177802
 20
262.6194380668
 30
0.0
 10
11.7641142388
 20
262.214702456
 30
0.0
  0
SPLINE
  5
2E8
100
AcDbEntity
  8
0
100
AcDbSpline
 62
7
  6
CONTINUOUS
 70
0
 71
3
 72
9
 73
5
 74
0
 42
0.0000001
 43
0.0000001
 44
0.0000000001
 40
0.0
 40
0.0
 40
0.0
 40
0.0
 40
0.4809295891
 40
1.0
 40
1.0
 40
1.0
 40
1.0
 10
-8.7757208301
 20
241.3876522121
 30
0.0
 10
-8.5271801868
 20
241.0088180791
 30
0.0
 10
-8.1460221659
 20
240.1277580439
 30
0.0
 10
-8.0334995796
 20
239.1801910006
 30
0.0
 10
-8.0334995796
 20
238.6911713686
 30
0.0
  0
SPLINE
  5
2E9
100
AcDbEntity
  8
0
100
AcDbSpline
 62
7
  6
CONTINUOUS
 70
0
 71
3
 72
10
 73
6
 74
0
 42
0.0000001
 43
0.0000001
 44
0.0000000001
 40
0.0
 40
0.0
 40
0.0
 40
0.0
 40
0.2403281524
 40
0.485096085
 40
1.0
 40
1.0
 40
1.0
 40
1.0
 10
-2.8909646293
 20
227.2602736716
 30
0.0
 10
-2.7464307902
 20
227.1768204367
 30
0.0
 10
-2.4353791344
 20
227.039471558
 30
0.0
 10
-1.751752677
 20
226.8971293173
 30
0.0
 10
-1.2107433821
 20
226.9514323499
 30
0.0
 10
-0.8653601451
 20
227.0440142202
 30
0.0
  0
SPLINE
  5
2EA
100
AcDbEntity
  8
0
100
AcDbSpline
 62
7
  6
CONTINUOUS
 70
0
 71
3
 72
14
 73
10
 74
0
 42
0.0000001
 43
0.0000001
 44
0.0000000001
 40
0.0
 40
0.0
 40
0.0
 40
0.0
 40
0.1052604354
 40
0.2158759227
 40
0.3350393976
 40
0.4630357673
 40
0.5976778338
 40
0.735209708
 40
1.0
 40
1.0
 40
1.0
 40
1.0
 10
6.284590812
 20
240.2238332507
 30
0.0
 10
6.4770631562
 20
240.1126344249
 30
0.0
 10
6.9185013988
 20
239.9578879149
 30
0.0
 10
7.6381273519
 20
239.9690093645
 30
0.0
 10
8.3652595687
 20
240.208371182
 30
0.0
 10
9.0478127805
 20
240.6516971454
 30
0.0
 10
9.6395732132
 20
241.2653168657
 30
0.0
 10
10.2418982731
 20
242.2311147387
 30
0.0
 10
10.4633613216
 20
243.0901813272
 30
0.0
 10
10.4633613216
 20
243.6493563456
 30
0.0
  0
SPLINE
  5
2EB
100
AcDbEntity
  8
0
100
AcDbSpline
 62
7
  6
CONTINUOUS
 70
0
 71
3
 72
11
 73
7
 74
0
 42
0.0000001
 43
0.0000001
 44
0.0000000001
 40
0.0
 40
0.0
 40
0.0
 40
0.0
 40
0.2717748105
 40
0.5268698752
 40
0.7676346318
 40
1.0
 40
1.0
 40
1.0
 40
1.0
 10
15.6105025381
 20
242.6485421608
 30
0.0
 10
15.6105025381
 20
243.0568006654
 30
0.0
 10
15.531126694
 20
243.8516303385
 30
0.0
 10
15.1509590414
 20
244.9526438443
 30
0.0
 10
14.5279692855
 20
245.8687087677
 30
0.0
 10
13.964179802
 20
246.3221988911
 30
0.0
 10
13.661907847
 20
246.4967642513
 30
0.0
  0
SPLINE
  5
2EC
100
AcDbEntity
  8
0
100
AcDbSpline
 62
7
  6
CONTINUOUS
 70
0
 71
3
 72
11
 73
7
 74
0
 42
0.0000001
 43
0.0000001
 44
0.0000000001
 40
0.0
 40
0.0
 40
0.0
 40
0.0
 40
0.2717748086
 40
0.5268698864
 40
0.7676346258
 40
1.0
 40
1.0
 40
1.0
 40
1.0
 10
-1.2171428302
 20
251.7567768785
 30
0.0
 10
-1.2171428302
 20
252.1669634784
 30
0.0
 10
-1.2968935568
 20
252.9655469372
 30
0.0
 10
-1.6788566207
 20
254.0717602448
 30
0.0
 10
-2.3047886208
 20
254.9921514791
 30
0.0
 10
-2.8712407034
 20
255.4477833382
 30
0.0
 10
-3.1749402326
 20
255.6231731037
 30
0.0
  0
SPLINE
  5
2ED
100
AcDbEntity
  8
0
100
AcDbSpline
 62
7
  6
CONTINUOUS
 70
0
 71
3
 72
15
 73
11
 74
0
 42
0.0000001
 43
0.0000001
 44
0.0000000001
 40
0.0
 40
0.0
 40
0.0
 40
0.0
 40
0.0524624725
 40
0.1056459662
 40
0.2162146426
 40
0.335328794
 40
0.4632708983
 40
0.5978578562
 40
0.7353252271
 40
1.0
 40
1.0
 40
1.0
 40
1.0
 10
7.6883584411
 20
236.1544144201
 30
0.0
 10
7.8703185246
 20
236.0493304816
 30
0.0
 10
8.257163318
 20
235.8709988726
 30
0.0
 10
9.0998529549
 20
235.6548930136
 30
0.0
 10
10.2553037829
 20
235.6707732781
 30
0.0
 10
11.6327098259
 20
236.1252705495
 30
0.0
 10
12.9270543427
 20
236.9655241654
 30
0.0
 10
14.0488087288
 20
238.1288990262
 30
0.0
 10
15.1906844194
 20
239.9598563918
 30
0.0
 10
15.6105025381
 20
241.5884600475
 30
0.0
 10
15.6105025381
 20
242.6485421608
 30
0.0
  0
SPLINE
  5
2EE
100
AcDbEntity
  8
0
100
AcDbSpline
 62
7
  6
CONTINUOUS
 70
0
 71
3
 72
14
 73
10
 74
0
 42
0.0000001
 43
0.0000001
 44
0.0000000001
 40
0.0
 40
0.0
 40
0.0
 40
0.0
 40
0.2686164723
 40
0.3932530389
 40
0.5129262831
 40
0.6303784462
 40
0.7488454196
 40
0.8713344666
 40
1.0
 40
1.0
 40
1.0
 40
1.0
 10
5.2606711058
 20
231.4572222253
 30
0.0
 10
5.2606711067
 20
232.1445184495
 30
0.0
 10
5.0891265002
 20
233.1714942498
 30
0.0
 10
4.4565124277
 20
234.3325898577
 30
0.0
 10
3.8261095082
 20
235.0239609357
 30
0.0
 10
3.053143799
 20
235.5231454483
 30
0.0
 10
2.170905981
 20
235.8083539699
 30
0.0
 10
1.2184548914
 20
235.8694679313
 30
0.0
 10
0.5786553066
 20
235.7641566316
 30
0.0
 10
0.2606709337
 20
235.678919177
 30
0.0
  0
SPLINE
  5
2EF
100
AcDbEntity
  8
0
100
AcDbSpline
 62
7
  6
CONTINUOUS
 70
0
 71
3
 72
9
 73
5
 74
0
 42
0.0000001
 43
0.0000001
 44
0.0000000001
 40
0.0
 40
0.0
 40
0.0
 40
0.0
 40
0.4809295891
 40
1.0
 40
1.0
 40
1.0
 40
1.0
 10
12.0532035906
 20
246.9709596014
 30
0.0
 10
12.3017442339
 20
246.5921254683
 30
0.0
 10
12.6829022547
 20
245.7110654332
 30
0.0
 10
12.795424841
 20
244.7634983899
 30
0.0
 10
12.795424841
 20
244.2744787579
 30
0.0
  0
SPLINE
  5
2F0
100
AcDbEntity
  8
0
100
AcDbSpline
 62
7
  6
CONTINUOUS
 70
0
 71
3
 72
14
 73
10
 74
0
 42
0.0000001
 43
0.0000001
 44
0.0000000001
 40
0.0
 40
0.0
 40
0.0
 40
0.0
 40
0.2556690249
 40
0.3889668627
 40
0.521692845
 40
0.6509794578
 40
0.7744748713
 40
0.8908079919
 40
1.0
 40
1.0
 40
1.0
 40
1.0
 10
-8.0334995796
 20
238.6911713686
 30
0.0
 10
-8.0334995796
 20
237.8110980342
 30
0.0
 10
-8.3232954517
 20
236.4608175469
 30
0.0
 10
-9.1392714525
 20
234.8558375723
 30
0.0
 10
-9.960731086
 20
233.7611041481
 30
0.0
 10
-10.9397174901
 20
232.8543498629
 30
0.0
 10
-12.0280561338
 20
232.1814333474
 30
0.0
 10
-13.1706388942
 20
231.7791795211
 30
0.0
 10
-13.9543246341
 20
231.707079171
 30
0.0
 10
-14.3297024432
 20
231.7262053925
 30
0.0
  0
SPLINE
  5
2F1
100
AcDbEntity
  8
0
100
AcDbSpline
 62
7
  6
CONTINUOUS
 70
0
 71
3
 72
11
 73
7
 74
0
 42
0.0000001
 43
0.0000001
 44
0.0000000001
 40
0.0
 40
0.0
 40
0.0
 40
0.0
 40
0.2717575042
 40
0.5268818
 40
0.7676364318
 40
1.0
 40
1.0
 40
1.0
 40
1.0
 10
-10.365563099
 20
238.0660489563
 30
0.0
 10
-10.365563099
 20
238.281383201
 30
0.0
 10
-10.4074552474
 20
238.7006432322
 30
0.0
 10
-10.6079358429
 20
239.2814248564
 30
0.0
 10
-10.9365937531
 20
239.7646278
 30
0.0
 10
-11.2339791043
 20
240.0038050117
 30
0.0
 10
-11.3934043388
 20
240.0959112255
 30
0.0
  0
SPLINE
  5
2F2
100
AcDbEntity
  8
0
100
AcDbSpline
 62
7
  6
CONTINUOUS
 70
0
 71
3
 72
14
 73
10
 74
0
 42
0.0000001
 43
0.0000001
 44
0.0000000001
 40
0.0
 40
0.0
 40
0.0
 40
0.0
 40
0.1052604354
 40
0.2158759227
 40
0.3350393976
 40
0.4630357673
 40
0.5976778338
 40
0.735209708
 40
1.0
 40
1.0
 40
1.0
 40
1.0
 10
2.3066202222
 20
252.7764937435
 30
0.0
 10
2.4990925664
 20
252.6652949176
 30
0.0
 10
2.940530809
 20
252.5105484077
 30
0.0
 10
3.6601567621
 20
252.5216698573
 30
0.0
 10
4.387288979
 20
252.7610316747
 30
0.0
 10
5.0698421907
 20
253.2043576381
 30
0.0
 10
5.6616026234
 20
253.8179773585
 30
0.0
 10
6.2639276833
 20
254.7837752314
 30
0.0
 10
6.4853907318
 20
255.6428418199
 30
0.0
 10
6.4853907318
 20
256.2020168383
 30
0.0
  0
SPLINE
  5
2F3
100
AcDbEntity
  8
0
100
AcDbSpline
 62
7
  6
CONTINUOUS
 70
0
 71
3
 72
14
 73
10
 74
0
 42
0.0000001
 43
0.0000001
 44
0.0000000001
 40
0.0
 40
0.0
 40
0.0
 40
0.0
 40
0.2346073929
 40
0.3603379301
 40
0.4894684284
 40
0.6200482101
 40
0.7499714674
 40
0.8772023527
 40
1.0
 40
1.0
 40
1.0
 40
1.0
 10
0.2606709337
 20
235.678919177
 30
0.0
 10
-0.4251877593
 20
235.495070994
 30
0.0
 10
-1.4247822002
 20
234.9841455993
 30
0.0
 10
-2.5452654225
 20
234.0108910189
 30
0.0
 10
-3.3014443507
 20
233.1157198689
 30
0.0
 10
-3.9217566952
 20
232.1079141525
 30
0.0
 10
-4.3842411367
 20
231.0244407299
 30
0.0
 10
-4.6711322636
 20
229.9063011506
 30
0.0
 10
-4.7393292376
 20
229.1483315354
 30
0.0
 10
-4.7393292383
 20
228.7766673062
 30
0.0
  0
SPLINE
  5
2F4
100
AcDbEntity
  8
0
100
AcDbSpline
 62
7
  6
CONTINUOUS
 70
0
 71
3
 72
14
 73
10
 74
0
 42
0.0000001
 43
0.0000001
 44
0.0000000001
 40
0.0
 40
0.0
 40
0.0
 40
0.0
 40
0.2557124446
 40
0.3890318847
 40
0.5217703936
 40
0.6510556316
 40
0.7745342754
 40
0.8908387655
 40
1.0
 40
1.0
 40
1.0
 40
1.0
 10
-4.0322205274
 20
253.3827134756
 30
0.0
 10
-4.0322205274
 20
252.4976302875
 30
0.0
 10
-4.3239465215
 20
251.1396509664
 30
0.0
 10
-5.1452222244
 20
249.5259011786
 30
0.0
 10
-5.9719317098
 20
248.4254962046
 30
0.0
 10
-6.95703482
 20
247.5145045069
 30
0.0
 10
-8.0519738341
 20
246.839088077
 30
0.0
 10
-9.2012116006
 20
246.4362931184
 30
0.0
 10
-9.9891886822
 20
246.3652675027
 30
0.0
 10
-10.3664916139
 20
246.3852871401
 30
0.0
  0
SPLINE
  5
2F5
100
AcDbEntity
  8
0
100
AcDbSpline
 62
7
  6
CONTINUOUS
 70
0
 71
3
 72
11
 73
7
 74
0
 42
0.0000001
 43
0.0000001
 44
0.0000000001
 40
0.0
 40
0.0
 40
0.0
 40
0.0
 40
0.2717575042
 40
0.5268818
 40
0.7676364318
 40
1.0
 40
1.0
 40
1.0
 40
1.0
 10
-6.3875925092
 20
252.7513431021
 30
0.0
 10
-6.3875925092
 20
252.9666773468
 30
0.0
 10
-6.4294846576
 20
253.385937378
 30
0.0
 10
-6.6299652531
 20
253.9667190022
 30
0.0
 10
-6.9586231633
 20
254.4499219458
 30
0.0
 10
-7.2560085145
 20
254.6890991575
 30
0.0
 10
-7.415433749
 20
254.7812053713
 30
0.0
  0
SPLINE
  5
2F6
100
AcDbEntity
  8
0
100
AcDbSpline
 62
7
  6
CONTINUOUS
 70
0
 71
3
 72
15
 73
11
 74
0
 42
0.0000001
 43
0.0000001
 44
0.0000000001
 40
0.0
 40
0.0
 40
0.0
 40
0.0
 40
0.0524624807
 40
0.1056459719
 40
0.2162146376
 40
0.3353287776
 40
0.4632708635
 40
0.5978578246
 40
0.7353251938
 40
1.0
 40
1.0
 40
1.0
 40
1.0
 10
3.6962821001
 20
248.682652817
 30
0.0
 10
3.8791015711
 20
248.5770725936
 30
0.0
 10
4.2677733331
 20
248.3978987212
 30
0.0
 10
5.1144427743
 20
248.1807723214
 30
0.0
 10
6.2753503802
 20
248.1967275377
 30
0.0
 10
7.6592614082
 20
248.6533712043
 30
0.0
 10
8.9597187288
 20
249.4975929817
 30
0.0
 10
10.086770873
 20
250.6664620629
 30
0.0
 10
11.2340395129
 20
252.5060666171
 30
0.0
 10
11.6558404108
 20
254.1423618764
 30
0.0
 10
11.6558404108
 20
255.2074506147
 30
0.0
  0
SPLINE
  5
2F7
100
AcDbEntity
  8
0
100
AcDbSpline
 62
7
  6
CONTINUOUS
 70
0
 71
3
 72
14
 73
10
 74
0
 42
0.0000001
 43
0.0000001
 44
0.0000000001
 40
0.0
 40
0.0
 40
0.0
 40
0.0
 40
0.2686164723
 40
0.3932530389
 40
0.5129262831
 40
0.6303784462
 40
0.7488454196
 40
0.8713344666
 40
1.0
 40
1.0
 40
1.0
 40
1.0
 10
-4.7393292383
 20
228.7766673062
 30
0.0
 10
-4.7393292396
 20
228.089371082
 30
0.0
 10
-4.5677846326
 20
227.0623952817
 30
0.0
 10
-3.9351705602
 20
225.9012996738
 30
0.0
 10
-3.3047676407
 20
225.2099285959
 30
0.0
 10
-2.5318019315
 20
224.7107440832
 30
0.0
 10
-1.6495641135
 20
224.4255355616
 30
0.0
 10
-0.6971130239
 20
224.3644216002
 30
0.0
 10
-0.0573134392
 20
224.4697328999
 30
0.0
 10
0.2606709337
 20
224.5549703545
 30
0.0
  0
SPLINE
  5
2F8
100
AcDbEntity
  8
0
100
AcDbSpline
 62
7
  6
CONTINUOUS
 70
0
 71
3
 72
9
 73
5
 74
0
 42
0.0000001
 43
0.0000001
 44
0.0000000001
 40
0.0
 40
0.0
 40
0.0
 40
0.0
 40
0.4808658739
 40
1.0
 40
1.0
 40
1.0
 40
1.0
 10
8.0899308529
 20
259.5503646484
 30
0.0
 10
8.3413130709
 20
259.1691499561
 30
0.0
 10
8.7269693319
 20
258.2815319396
 30
0.0
 10
8.8407627137
 20
257.3263646507
 30
0.0
 10
8.8407627137
 20
256.8333872118
 30
0.0
  0
SPLINE
  5
2F9
100
AcDbEntity
  8
0
100
AcDbSpline
 62
7
  6
CONTINUOUS
 70
0
 71
3
 72
14
 73
10
 74
0
 42
0.0000001
 43
0.0000001
 44
0.0000000001
 40
0.0
 40
0.0
 40
0.0
 40
0.0
 40
0.2557124446
 40
0.3890318847
 40
0.5217703936
 40
0.6510556316
 40
0.7745342754
 40
0.8908387655
 40
1.0
 40
1.0
 40
1.0
 40
1.0
 10
8.8407627137
 20
256.8333872118
 30
0.0
 10
8.8407627137
 20
255.9483040237
 30
0.0
 10
8.5490367196
 20
254.5903247026
 30
0.0
 10
7.7277610166
 20
252.9765749149
 30
0.0
 10
6.9010515312
 20
251.8761699408
 30
0.0
 10
5.9159484211
 20
250.9651782431
 30
0.0
 10
4.821009407
 20
250.2897618132
 30
0.0
 10
3.6717716405
 20
249.8869668546
 30
0.0
 10
2.8837945589
 20
249.8159412389
 30
0.0
 10
2.5064916272
 20
249.8359608763
 30
0.0
  0
SPLINE
  5
2FA
100
AcDbEntity
  8
0
100
AcDbSpline
 62
7
  6
CONTINUOUS
 70
0
 71
3
 72
11
 73
7
 74
0
 42
0.0000001
 43
0.0000001
 44
0.0000000001
 40
0.0
 40
0.0
 40
0.0
 40
0.0
 40
0.2717575042
 40
0.5268818
 40
0.7676364318
 40
1.0
 40
1.0
 40
1.0
 40
1.0
 10
6.4853907318
 20
256.2020168383
 30
0.0
 10
6.4853907318
 20
256.417351083
 30
0.0
 10
6.4434985835
 20
256.8366111142
 30
0.0
 10
6.2430179879
 20
257.4173927384
 30
0.0
 10
5.9143600777
 20
257.900595682
 30
0.0
 10
5.6169747265
 20
258.1397728937
 30
0.0
 10
5.457549492
 20
258.2318791075
 30
0.0
  0
SPLINE
  5
2FB
100
AcDbEntity
  8
0
100
AcDbSpline
 62
7
  6
CONTINUOUS
 70
0
 71
3
 72
14
 73
10
 74
0
 42
0.0000001
 43
0.0000001
 44
0.0000000001
 40
0.0
 40
0.0
 40
0.0
 40
0.0
 40
0.1052604354
 40
0.2158759227
 40
0.3350393976
 40
0.4630357673
 40
0.5976778338
 40
0.735209708
 40
1.0
 40
1.0
 40
1.0
 40
1.0
 10
-10.5663630189
 20
249.3258200073
 30
0.0
 10
-10.3738906747
 20
249.2146211814
 30
0.0
 10
-9.9324524321
 20
249.0598746715
 30
0.0
 10
-9.212826479
 20
249.0709961211
 30
0.0
 10
-8.4856942621
 20
249.3103579385
 30
0.0
 10
-7.8031410503
 20
249.7536839019
 30
0.0
 10
-7.2113806176
 20
250.3673036223
 30
0.0
 10
-6.6090555578
 20
251.3331014952
 30
0.0
 10
-6.3875925092
 20
252.1921680837
 30
0.0
 10
-6.3875925092
 20
252.7513431021
 30
0.0
  0
SPLINE
  5
2FC
100
AcDbEntity
  8
0
100
AcDbSpline
 62
7
  6
CONTINUOUS
 70
0
 71
3
 72
14
 73
10
 74
0
 42
0.0000001
 43
0.0000001
 44
0.0000000001
 40
0.0
 40
0.0
 40
0.0
 40
0.0
 40
0.2556690249
 40
0.3889668627
 40
0.521692845
 40
0.6509794578
 40
0.7744748713
 40
0.8908079919
 40
1.0
 40
1.0
 40
1.0
 40
1.0
 10
12.795424841
 20
244.2744787579
 30
0.0
 10
12.795424841
 20
243.3944054235
 30
0.0
 10
12.5056289689
 20
242.0441249362
 30
0.0
 10
11.6896529681
 20
240.4391449615
 30
0.0
 10
10.8681933346
 20
239.3444115373
 30
0.0
 10
9.8892069305
 20
238.4376572522
 30
0.0
 10
8.8008682869
 20
237.7647407367
 30
0.0
 10
7.6582855264
 20
237.3624869104
 30
0.0
 10
6.8745997865
 20
237.2903865602
 30
0.0
 10
6.4992219774
 20
237.3095127817
 30
0.0
  0
SPLINE
  5
2FD
100
AcDbEntity
  8
0
100
AcDbSpline
 62
7
  6
CONTINUOUS
 70
0
 71
3
 72
11
 73
7
 74
0
 42
0.0000001
 43
0.0000001
 44
0.0000000001
 40
0.0
 40
0.0
 40
0.0
 40
0.0
 40
0.2717575042
 40
0.5268818
 40
0.7676364318
 40
1.0
 40
1.0
 40
1.0
 40
1.0
 10
10.4633613216
 20
243.6493563456
 30
0.0
 10
10.4633613216
 20
243.8646905903
 30
0.0
 10
10.4214691733
 20
244.2839506214
 30
0.0
 10
10.2209885777
 20
244.8647322456
 30
0.0
 10
9.8923306675
 20
245.3479351892
 30
0.0
 10
9.5949453163
 20
245.587112401
 30
0.0
 10
9.4355200818
 20
245.6792186148
 30
0.0
  0
SPLINE
  5
2FE
100
AcDbEntity
  8
0
100
AcDbSpline
 62
7
  6
CONTINUOUS
 70
0
 71
3
 72
14
 73
10
 74
0
 42
0.0000001
 43
0.0000001
 44
0.0000000001
 40
0.0
 40
0.0
 40
0.0
 40
0.0
 40
0.2346073929
 40
0.3603379301
 40
0.4894684284
 40
0.6200482101
 40
0.7499714674
 40
0.8772023527
 40
1.0
 40
1.0
 40
1.0
 40
1.0
 10
0.2606709337
 20
224.5549703545
 30
0.0
 10
0.9465296268
 20
224.7388185375
 30
0.0
 10
1.9461240677
 20
225.2497439322
 30
0.0
 10
3.0666072899
 20
226.2229985126
 30
0.0
 10
3.8227862182
 20
227.1181696626
 30
0.0
 10
4.4430985626
 20
228.125975379
 30
0.0
 10
4.9055830041
 20
229.2094488016
 30
0.0
 10
5.1924741309
 20
230.3275883809
 30
0.0
 10
5.2606711053
 20
231.0855579961
 30
0.0
 10
5.2606711058
 20
231.4572222253
 30
0.0
  0
SPLINE
  5
2FF
100
AcDbEntity
  8
0
100
AcDbSpline
 62
7
  6
CONTINUOUS
 70
0
 71
3
 72
11
 73
7
 74
0
 42
0.0000001
 43
0.0000001
 44
0.0000000001
 40
0.0
 40
0.0
 40
0.0
 40
0.0
 40
0.2717668071
 40
0.5268680781
 40
0.7676307415
 40
1.0
 40
1.0
 40
1.0
 40
1.0
 10
2.481747408
 20
231.6645299353
 30
0.0
 10
2.4817474078
 20
231.9413986769
 30
0.0
 10
2.4279087662
 20
232.4804391524
 30
0.0
 10
2.1701131075
 20
233.2271453693
 30
0.0
 10
1.7475922164
 20
233.8484048608
 30
0.0
 10
1.3652558525
 20
234.1559923461
 30
0.0
 10
1.160244339
 20
234.2743651375
 30
0.0
  0
SPLINE
  5
300
100
AcDbEntity
  8
0
100
AcDbSpline
 62
7
  6
CONTINUOUS
 70
0
 71
3
 72
12
 73
8
 74
0
 42
0.0000001
 43
0.0000001
 44
0.0000000001
 40
0.0
 40
0.0
 40
0.0
 40
0.0
 40
0.2349899833
 40
0.4894752595
 40
0.6202667696
 40
0.7503904793
 40
1.0
 40
1.0
 40
1.0
 40
1.0
 10
-0.8653601451
 20
227.0440142202
 30
0.0
 10
-0.40622081
 20
227.1670890363
 30
0.0
 10
0.4988380264
 20
227.6294767328
 30
0.0
 10
1.3860287873
 20
228.5438897304
 30
0.0
 10
1.93446948
 20
229.4347403586
 30
0.0
 10
2.341139436
 20
230.386408693
 30
0.0
 10
2.4817474085
 20
231.1596082059
 30
0.0
 10
2.481747408
 20
231.6645299353
 30
0.0
  0
SPLINE
  5
301
100
AcDbEntity
  8
0
100
AcDbSpline
 62
7
  6
CONTINUOUS
 70
0
 71
3
 72
15
 73
11
 74
0
 42
0.0000001
 43
0.0000001
 44
0.0000000001
 40
0.0
 40
0.0
 40
0.0
 40
0.0
 40
0.0524624807
 40
0.1056459719
 40
0.2162146376
 40
0.3353287776
 40
0.4632708635
 40
0.5978578246
 40
0.7353251938
 40
1.0
 40
1.0
 40
1.0
 40
1.0
 10
-9.176701141
 20
245.2319790808
 30
0.0
 10
-8.99388167
 20
245.1263988573
 30
0.0
 10
-8.605209908
 20
244.947224985
 30
0.0
 10
-7.7585404667
 20
244.7300985852
 30
0.0
 10
-6.5976328609
 20
244.7460538015
 30
0.0
 10
-5.2137218329
 20
245.2026974681
 30
0.0
 10
-3.9132645122
 20
246.0469192455
 30
0.0
 10
-2.7862123681
 20
247.2157883267
 30
0.0
 10
-1.6389437281
 20
249.0553928809
 30
0.0
 10
-1.2171428302
 20
250.6916881402
 30
0.0
 10
-1.2171428302
 20
251.7567768785
 30
0.0
  0
SPLINE
  5
302
100
AcDbEntity
  8
0
100
AcDbSpline
 62
7
  6
CONTINUOUS
 70
0
 71
3
 72
13
 73
9
 74
0
 42
0.0000001
 43
0.0000001
 44
0.0000000001
 40
0.0
 40
0.0
 40
0.0
 40
0.0
 40
0.115815089
 40
0.2327336318
 40
0.3517707208
 40
0.4737818732
 40
0.7285666218
 40
1.0
 40
1.0
 40
1.0
 40
1.0
 10
-11.2427723713
 20
222.3815543314
 30
0.0
 10
-11.8237379345
 20
222.7170832132
 30
0.0
 10
-12.9416212905
 20
223.4815736666
 30
0.0
 10
-14.437182688
 20
224.8761234658
 30
0.0
 10
-15.7359478839
 20
226.5020581698
 30
0.0
 10
-17.2021935187
 20
228.9813499264
 30
0.0
 10
-18.4425145617
 20
232.570241393
 30
0.0
 10
-18.7475941831
 20
235.6304953703
 30
0.0
 10
-18.7475941831
 20
237.2028587129
 30
0.0
  0
SPLINE
  5
303
100
AcDbEntity
  8
0
100
AcDbSpline
 62
7
  6
CONTINUOUS
 70
0
 71
3
 72
9
 73
5
 74
0
 42
0.0000001
 43
0.0000001
 44
0.0000000001
 40
0.0
 40
0.0
 40
0.0
 40
0.0
 40
0.4808658739
 40
1.0
 40
1.0
 40
1.0
 40
1.0
 10
-4.7830523881
 20
256.0996909122
 30
0.0
 10
-4.5316701702
 20
255.7184762199
 30
0.0
 10
-4.1460139092
 20
254.8308582034
 30
0.0
 10
-4.0322205274
 20
253.8756909145
 30
0.0
 10
-4.0322205274
 20
253.3827134756
 30
0.0
  0
SPLINE
  5
304
100
AcDbEntity
  8
0
100
AcDbSpline
 62
7
  6
CONTINUOUS
 70
0
 71
3
 72
11
 73
7
 74
0
 42
0.0000001
 43
0.0000001
 44
0.0000000001
 40
0.0
 40
0.0
 40
0.0
 40
0.0
 40
0.2717748105
 40
0.5268698752
 40
0.7676346318
 40
1.0
 40
1.0
 40
1.0
 40
1.0
 10
-5.2184218825
 20
237.0652347716
 30
0.0
 10
-5.2184218825
 20
237.4734932762
 30
0.0
 10
-5.2977977266
 20
238.2683229492
 30
0.0
 10
-5.6779653792
 20
239.369336455
 30
0.0
 10
-6.3009551351
 20
240.2854013784
 30
0.0
 10
-6.8647446186
 20
240.7388915018
 30
0.0
 10
-7.1670165737
 20
240.9134568621
 30
0.0
  0
SPLINE
  5
305
100
AcDbEntity
  8
0
100
AcDbSpline
 62
7
  6
CONTINUOUS
 70
0
 71
3
 72
14
 73
10
 74
0
 42
0.0000001
 43
0.0000001
 44
0.0000000001
 40
0.0
 40
0.0
 40
0.0
 40
0.0
 40
0.1052604354
 40
0.2158759227
 40
0.3350393976
 40
0.4630357673
 40
0.5976778338
 40
0.735209708
 40
1.0
 40
1.0
 40
1.0
 40
1.0
 10
-14.5443336087
 20
234.6405258615
 30
0.0
 10
-14.3518612645
 20
234.5293270356
 30
0.0
 10
-13.9104230219
 20
234.3745805257
 30
0.0
 10
-13.1907970688
 20
234.3857019753
 30
0.0
 10
-12.4636648519
 20
234.6250637927
 30
0.0
 10
-11.7811116401
 20
235.0683897561
 30
0.0
 10
-11.1893512074
 20
235.6820094765
 30
0.0
 10
-10.5870261475
 20
236.6478073494
 30
0.0
 10
-10.365563099
 20
237.5068739379
 30
0.0
 10
-10.365563099
 20
238.0660489563
 30
0.0
  0
SPLINE
  5
306
100
AcDbEntity
  8
0
100
AcDbSpline
 62
7
  6
CONTINUOUS
 70
0
 71
3
 72
11
 73
7
 74
0
 42
0.0000001
 43
0.0000001
 44
0.0000000001
 40
0.0
 40
0.0
 40
0.0
 40
0.0
 40
0.2717748086
 40
0.5268698864
 40
0.7676346258
 40
1.0
 40
1.0
 40
1.0
 40
1.0
 10
11.6558404108
 20
255.2074506147
 30
0.0
 10
11.6558404108
 20
255.6176372146
 30
0.0
 10
11.5760896843
 20
256.4162206734
 30
0.0
 10
11.1941266204
 20
257.522433981
 30
0.0
 10
10.5681946203
 20
258.4428252153
 30
0.0
 10
10.0017425376
 20
258.8984570744
 30
0.0
 10
9.6980430084
 20
259.0738468399
 30
0.0
  0
SPLINE
  5
307
100
AcDbEntity
  8
0
100
AcDbSpline
 62
7
  6
CONTINUOUS
 70
0
 71
3
 72
15
 73
11
 74
0
 42
0.0000001
 43
0.0000001
 44
0.0000000001
 40
0.0
 40
0.0
 40
0.0
 40
0.0
 40
0.0524624725
 40
0.1056459662
 40
0.2162146426
 40
0.335328794
 40
0.4632708983
 40
0.5978578562
 40
0.7353252271
 40
1.0
 40
1.0
 40
1.0
 40
1.0
 10
-13.1405659795
 20
230.5711070308
 30
0.0
 10
-12.958605896
 20
230.4660230924
 30
0.0
 10
-12.5717611027
 20
230.2876914834
 30
0.0
 10
-11.7290714657
 20
230.0715856243
 30
0.0
 10
-10.5736206378
 20
230.0874658888
 30
0.0
 10
-9.1962145948
 20
230.5419631603
 30
0.0
 10
-7.901870078
 20
231.3822167761
 30
0.0
 10
-6.7801156918
 20
232.5455916369
 30
0.0
 10
-5.6382400012
 20
234.3765490025
 30
0.0
 10
-5.2184218825
 20
236.0051526582
 30
0.0
 10
-5.2184218825
 20
237.0652347716
 30
0.0
  0
SPLINE
  5
308
100
AcDbEntity
  8
0
100
AcDbSpline
 62
7
  6
CONTINUOUS
 70
0
 71
3
 72
11
 73
7
 74
0
 42
0.0000001
 43
0.0000001
 44
0.0000000001
 40
0.0
 40
0.0
 40
0.0
 40
0.0
 40
0.2717776924
 40
0.5268678486
 40
0.7676328571
 40
1.0
 40
1.0
 40
1.0
 40
1.0
 10
-62.2651122646
 20
207.8908307992
 30
0.0
 10
-62.2651122646
 20
207.3780924193
 30
0.0
 10
-62.1654234003
 20
206.3798655086
 30
0.0
 10
-61.6879555558
 20
204.9971130284
 30
0.0
 10
-60.9055551326
 20
203.8466122416
 30
0.0
 10
-60.1974763642
 20
203.2771019839
 30
0.0
 10
-59.8178758649
 20
203.057817236
 30
0.0
  0
SPLINE
  5
309
100
AcDbEntity
  8
0
100
AcDbSpline
 62
7
  6
CONTINUOUS
 70
0
 71
3
 72
13
 73
9
 74
0
 42
0.0000001
 43
0.0000001
 44
0.0000000001
 40
0.0
 40
0.0
 40
0.0
 40
0.0
 40
0.1054199736
 40
0.2162072625
 40
0.3355571307
 40
0.4637457895
 40
0.7347562963
 40
1.0
 40
1.0
 40
1.0
 40
1.0
 10
-53.5093954721
 20
209.3395350223
 30
0.0
 10
-53.6132543877
 20
209.3995584584
 30
0.0
 10
-53.851502349
 20
209.4830382762
 30
0.0
 10
-54.239832623
 20
209.4770293617
 30
0.0
 10
-54.6323206029
 20
209.3478718545
 30
0.0
 10
-55.1313863461
 20
209.0233670258
 30
0.0
 10
-55.6072891208
 20
208.4061795188
 30
0.0
 10
-55.764600052
 20
207.7926662842
 30
0.0
 10
-55.764600052
 20
207.4908484909
 30
0.0
  0
SPLINE
  5
30A
100
AcDbEntity
  8
0
100
AcDbSpline
 62
7
  6
CONTINUOUS
 70
0
 71
3
 72
11
 73
7
 74
0
 42
0.0000001
 43
0.0000001
 44
0.0000000001
 40
0.0
 40
0.0
 40
0.0
 40
0.0
 40
0.1916491206
 40
0.4155263802
 40
0.6857820063
 40
1.0
 40
1.0
 40
1.0
 40
1.0
 10
-23.7049578005
 20
285.1552885468
 30
0.0
 10
-23.6119109321
 20
285.1802612128
 30
0.0
 10
-23.4244871183
 20
285.2941631202
 30
0.0
 10
-23.2341219309
 20
285.5903200309
 30
0.0
 10
-23.1193905901
 20
285.9838737294
 30
0.0
 10
-23.0967497268
 20
286.2787358951
 30
0.0
 10
-23.0967497268
 20
286.4366896241
 30
0.0
  0
SPLINE
  5
30B
100
AcDbEntity
  8
0
100
AcDbSpline
 62
7
  6
CONTINUOUS
 70
0
 71
3
 72
13
 73
9
 74
0
 42
0.0000001
 43
0.0000001
 44
0.0000000001
 40
0.0
 40
0.0
 40
0.0
 40
0.0
 40
0.2347902242
 40
0.4890705672
 40
0.6197521108
 40
0.7497766182
 40
0.8771066556
 40
1.0
 40
1.0
 40
1.0
 40
1.0
 10
-56.0667649439
 20
294.5907835245
 30
0.0
 10
-56.9170029932
 20
294.3628725538
 30
0.0
 10
-58.5930137321
 20
293.5067018482
 30
0.0
 10
-60.2360452834
 20
291.8129370618
 30
0.0
 10
-61.2515848914
 20
290.1641045563
 30
0.0
 10
-61.8249224245
 20
288.82071984
 30
0.0
 10
-62.1805700091
 20
287.4346588537
 30
0.0
 10
-62.2651122646
 20
286.4950137208
 30
0.0
 10
-62.2651122646
 20
286.0342729409
 30
0.0
  0
SPLINE
  5
30C
100
AcDbEntity
  8
0
100
AcDbSpline
 62
7
  6
CONTINUOUS
 70
0
 71
3
 72
10
 73
6
 74
0
 42
0.0000001
 43
0.0000001
 44
0.0000000001
 40
0.0
 40
0.0
 40
0.0
 40
0.0
 40
0.5148899604
 40
0.7596727888
 40
1.0
 40
1.0
 40
1.0
 40
1.0
 10
-53.5331950165
 20
201.193979244
 30
0.0
 10
-54.1727750854
 20
201.0225362999
 30
0.0
 10
-55.1746533062
 20
200.921952165
 30
0.0
 10
-56.4405983457
 20
201.1856076489
 30
0.0
 10
-57.0166842902
 20
201.4398766393
 30
0.0
 10
-57.2843059392
 20
201.5944742958
 30
0.0
  0
SPLINE
  5
30D
100
AcDbEntity
  8
0
100
AcDbSpline
 62
7
  6
CONTINUOUS
 70
0
 71
3
 72
10
 73
6
 74
0
 42
0.0000001
 43
0.0000001
 44
0.0000000001
 40
0.0
 40
0.0
 40
0.0
 40
0.0
 40
0.5252520963
 40
0.7668039053
 40
1.0
 40
1.0
 40
1.0
 40
1.0
 10
-55.764600052
 20
207.4908484909
 30
0.0
 10
-55.764600052
 20
207.2670431847
 30
0.0
 10
-55.699067721
 20
206.9302084049
 30
0.0
 10
-55.4563784457
 20
206.5742884341
 30
0.0
 10
-55.2959162012
 20
206.4450947002
 30
0.0
 10
-55.2098871798
 20
206.3953757384
 30
0.0
  0
SPLINE
  5
30E
100
AcDbEntity
  8
0
100
AcDbSpline
 62
7
  6
CONTINUOUS
 70
0
 71
3
 72
10
 73
6
 74
0
 42
0.0000001
 43
0.0000001
 44
0.0000000001
 40
0.0
 40
0.0
 40
0.0
 40
0.0
 40
0.5252520963
 40
0.7668039053
 40
1.0
 40
1.0
 40
1.0
 40
1.0
 10
-55.764600052
 20
285.6342906326
 30
0.0
 10
-55.764600052
 20
285.4104853264
 30
0.0
 10
-55.699067721
 20
285.0736505465
 30
0.0
 10
-55.4563784457
 20
284.7177305757
 30
0.0
 10
-55.2959162012
 20
284.5885368419
 30
0.0
 10
-55.2098871798
 20
284.5388178801
 30
0.0
  0
SPLINE
  5
30F
100
AcDbEntity
  8
0
100
AcDbSpline
 62
7
  6
CONTINUOUS
 70
0
 71
3
 72
19
 73
15
 74
0
 42
0.0000001
 43
0.0000001
 44
0.0000000001
 40
0.0
 40
0.0
 40
0.0
 40
0.0
 40
0.0523306503
 40
0.1053801237
 40
0.1597856195
 40
0.2160393059
 40
0.2744528815
 40
0.3351488578
 40
0.4627703753
 40
0.5970192587
 40
0.6655874478
 40
0.7343313634
 40
0.8699441095
 40
1.0
 40
1.0
 40
1.0
 40
1.0
 10
14.1019648006
 20
267.5623264806
 30
0.0
 10
13.224470304
 20
268.0691933307
 30
0.0
 10
11.3590378959
 20
268.9290915944
 30
0.0
 10
8.3465047585
 20
269.70054794
 30
0.0
 10
5.170475052
 20
269.9455483696
 30
0.0
 10
1.8952612843
 20
269.6617141461
 30
0.0
 10
-1.4166665069
 20
268.8575313459
 30
0.0
 10
-5.8685911276
 20
267.0869963784
 30
0.0
 10
-11.1645179498
 20
263.648756966
 30
0.0
 10
-15.6435256766
 20
259.0058097088
 30
0.0
 10
-18.6597762547
 20
254.688012467
 30
0.0
 10
-21.2187007103
 20
250.0538560477
 30
0.0
 10
-23.4447980912
 20
243.9195678858
 30
0.0
 10
-24.1039983172
 20
238.7616418355
 30
0.0
 10
-24.1039983172
 20
236.2431519389
 30
0.0
  0
SPLINE
  5
310
100
AcDbEntity
  8
0
100
AcDbSpline
 62
7
  6
CONTINUOUS
 70
0
 71
3
 72
13
 73
9
 74
0
 42
0.0000001
 43
0.0000001
 44
0.0000000001
 40
0.0
 40
0.0
 40
0.0
 40
0.0
 40
0.1156375901
 40
0.2326530114
 40
0.3519262936
 40
0.4741876408
 40
0.7291735757
 40
1.0
 40
1.0
 40
1.0
 40
1.0
 10
16.2004896041
 20
269.1459071185
 30
0.0
 10
16.928599761
 20
268.668223367
 30
0.0
 10
18.3258376735
 20
267.5994078539
 30
0.0
 10
20.1864474512
 20
265.7005814014
 30
0.0
 10
21.798249496
 20
263.523784486
 30
0.0
 10
23.6138185171
 20
260.2443542473
 30
0.0
 10
25.1456644579
 20
255.5592979267
 30
0.0
 10
25.5241025639
 20
251.5857191706
 30
0.0
 10
25.5241025639
 20
249.5462364751
 30
0.0
  0
SPLINE
  5
311
100
AcDbEntity
  8
0
100
AcDbSpline
 62
7
  6
CONTINUOUS
 70
0
 71
3
 72
10
 73
6
 74
0
 42
0.0000001
 43
0.0000001
 44
0.0000000001
 40
0.0
 40
0.0
 40
0.0
 40
0.0
 40
0.2403242638
 40
0.4850896596
 40
1.0
 40
1.0
 40
1.0
 40
1.0
 10
-51.014378525
 20
211.7093486966
 30
0.0
 10
-51.1928119195
 20
211.8123758317
 30
0.0
 10
-51.5768184789
 20
211.9819435218
 30
0.0
 10
-52.4207981325
 20
212.1576833066
 30
0.0
 10
-53.0887145144
 20
212.090647265
 30
0.0
 10
-53.5151180168
 20
211.9763474684
 30
0.0
  0
SPLINE
  5
312
100
AcDbEntity
  8
0
100
AcDbSpline
 62
7
  6
CONTINUOUS
 70
0
 71
3
 72
11
 73
7
 74
0
 42
0.0000001
 43
0.0000001
 44
0.0000000001
 40
0.0
 40
0.0
 40
0.0
 40
0.0
 40
0.2343719909
 40
0.4782870332
 40
0.7333833593
 40
1.0
 40
1.0
 40
1.0
 40
1.0
 10
23.3639323541
 20
270.9868440969
 30
0.0
 10
24.4091365473
 20
269.7449952099
 30
0.0
 10
26.282240353
 20
266.981870201
 30
0.0
 10
28.2929466612
 20
262.2885573683
 30
0.0
 10
29.5107315449
 20
257.103226083
 30
0.0
 10
29.7699724963
 20
253.4830484871
 30
0.0
 10
29.7699724963
 20
251.6365786324
 30
0.0
  0
SPLINE
  5
313
100
AcDbEntity
  8
0
100
AcDbSpline
 62
7
  6
CONTINUOUS
 70
0
 71
3
 72
14
 73
10
 74
0
 42
0.0000001
 43
0.0000001
 44
0.0000000001
 40
0.0
 40
0.0
 40
0.0
 40
0.0
 40
0.2491613242
 40
0.3790638972
 40
0.5096227349
 40
0.6387325639
 40
0.7644429917
 40
0.8851815827
 40
1.0
 40
1.0
 40
1.0
 40
1.0
 10
29.7699724963
 20
251.6365786324
 30
0.0
 10
29.7699724963
 20
246.930338482
 30
0.0
 10
28.4589454494
 20
239.7227848884
 30
0.0
 10
24.6694920117
 20
230.8537589876
 30
0.0
 10
20.7968647585
 20
224.561077902
 30
0.0
 10
16.0834917839
 20
218.978636853
 30
0.0
 10
10.7012489997
 20
214.3102371743
 30
0.0
 10
4.8516686013
 20
210.7349648861
 30
0.0
 10
0.6663986598
 20
209.1303244429
 30
0.0
 10
-1.4283756846
 20
208.5688086949
 30
0.0
  0
SPLINE
  5
314
100
AcDbEntity
  8
0
100
AcDbSpline
 62
7
  6
CONTINUOUS
 70
0
 71
3
 72
13
 73
9
 74
0
 42
0.0000001
 43
0.0000001
 44
0.0000000001
 40
0.0
 40
0.0
 40
0.0
 40
0.0
 40
0.1054199736
 40
0.2162072625
 40
0.3355571307
 40
0.4637457895
 40
0.7347562963
 40
1.0
 40
1.0
 40
1.0
 40
1.0
 10
-53.5093954721
 20
287.482977164
 30
0.0
 10
-53.6132543877
 20
287.5430006
 30
0.0
 10
-53.851502349
 20
287.6264804178
 30
0.0
 10
-54.239832623
 20
287.6204715033
 30
0.0
 10
-54.6323206029
 20
287.4913139962
 30
0.0
 10
-55.1313863461
 20
287.1668091675
 30
0.0
 10
-55.6072891208
 20
286.5496216605
 30
0.0
 10
-55.764600052
 20
285.9361084259
 30
0.0
 10
-55.764600052
 20
285.6342906326
 30
0.0
  0
SPLINE
  5
315
100
AcDbEntity
  8
0
100
AcDbSpline
 62
7
  6
CONTINUOUS
 70
0
 71
3
 72
11
 73
7
 74
0
 42
0.0000001
 43
0.0000001
 44
0.0000000001
 40
0.0
 40
0.0
 40
0.0
 40
0.0
 40
0.2580028507
 40
0.5093891506
 40
0.7559336872
 40
1.0
 40
1.0
 40
1.0
 40
1.0
 10
-4.7313329782
 20
213.13249502
 30
0.0
 10
-5.7283416472
 20
213.0582957505
 30
0.0
 10
-7.7097503181
 20
213.0439909137
 30
0.0
 10
-10.621835116
 20
213.4460296527
 30
0.0
 10
-13.388620603
 20
214.2676572521
 30
0.0
 10
-15.1130626592
 20
215.0897109942
 30
0.0
 10
-15.9320267959
 20
215.5627465379
 30
0.0
  0
SPLINE
  5
316
100
AcDbEntity
  8
0
100
AcDbSpline
 62
7
  6
CONTINUOUS
 70
0
 71
3
 72
13
 73
9
 74
0
 42
0.0000001
 43
0.0000001
 44
0.0000000001
 40
0.0
 40
0.0
 40
0.0
 40
0.0
 40
0.2459935595
 40
0.3740900668
 40
0.5033719513
 40
0.6321855239
 40
0.7589163515
 40
1.0
 40
1.0
 40
1.0
 40
1.0
 10
25.5241025639
 20
249.5462364751
 30
0.0
 10
25.5241025639
 20
246.0869718233
 30
0.0
 10
24.668837977
 20
240.7970286851
 30
0.0
 10
22.156282202
 20
234.1670601916
 30
0.0
 10
19.5692840122
 20
229.3723463793
 30
0.0
 10
16.3821669386
 20
224.9768719372
 30
0.0
 10
11.5542883296
 20
219.9152690723
 30
0.0
 10
7.2046488938
 20
216.9280055929
 30
0.0
 10
4.1266437668
 20
215.506924252
 30
0.0
  0
SPLINE
  5
317
100
AcDbEntity
  8
0
100
AcDbSpline
 62
7
  6
CONTINUOUS
 70
0
 71
3
 72
13
 73
9
 74
0
 42
0.0000001
 43
0.0000001
 44
0.0000000001
 40
0.0
 40
0.0
 40
0.0
 40
0.0
 40
0.2727009736
 40
0.5411794552
 40
0.6668054337
 40
0.784250349
 40
0.8943347783
 40
1.0
 40
1.0
 40
1.0
 40
1.0
 10
4.1266437668
 20
215.506924252
 30
0.0
 10
3.9532964849
 20
214.625091946
 30
0.0
 10
3.2462524823
 20
212.9347194199
 30
0.0
 10
1.6866733998
 20
211.3025066812
 30
0.0
 10
0.1846626657
 20
210.5075970104
 30
0.0
 10
-0.9582571645
 20
210.22430738
 30
0.0
 10
-2.0713548703
 20
210.2664620074
 30
0.0
 10
-2.7516081232
 20
210.5201788371
 30
0.0
 10
-3.053164159
 20
210.6943255529
 30
0.0
  0
SPLINE
  5
318
100
AcDbEntity
  8
0
100
AcDbSpline
 62
7
  6
CONTINUOUS
 70
0
 71
3
 72
11
 73
7
 74
0
 42
0.0000001
 43
0.0000001
 44
0.0000000001
 40
0.0
 40
0.0
 40
0.0
 40
0.0
 40
0.2717350397
 40
0.5268969419
 40
0.7676331593
 40
1.0
 40
1.0
 40
1.0
 40
1.0
 10
-3.1949066887
 20
214.8195109529
 30
0.0
 10
-3.1949066887
 20
214.5802724977
 30
0.0
 10
-3.1483216258
 20
214.1144292041
 30
0.0
 10
-2.9256330003
 20
213.4690917481
 30
0.0
 10
-2.5603689796
 20
212.9322513247
 30
0.0
 10
-2.2299978938
 20
212.6664546236
 30
0.0
 10
-2.0528459309
 20
212.5641342926
 30
0.0
  0
SPLINE
  5
319
100
AcDbEntity
  8
0
100
AcDbSpline
 62
7
  6
CONTINUOUS
 70
0
 71
3
 72
13
 73
9
 74
0
 42
0.0000001
 43
0.0000001
 44
0.0000000001
 40
0.0
 40
0.0
 40
0.0
 40
0.0
 40
0.2714323375
 40
0.526217443
 40
0.6482289235
 40
0.7672664579
 40
0.8841850979
 40
1.0
 40
1.0
 40
1.0
 40
1.0
 10
-24.1039983172
 20
236.2431519389
 30
0.0
 10
-24.1039983172
 20
234.274287321
 30
0.0
 10
-23.7219912431
 20
230.4423201327
 30
0.0
 10
-22.1688749965
 20
225.9484155153
 30
0.0
 10
-20.3328984873
 20
222.8438928857
 30
0.0
 10
-18.7066292523
 20
220.807922321
 30
0.0
 10
-16.8339077669
 20
219.0617155964
 30
0.0
 10
-15.4341115939
 20
218.1044640853
 30
0.0
 10
-14.7066495604
 20
217.6843127873
 30
0.0
  0
SPLINE
  5
31A
100
AcDbEntity
  8
0
100
AcDbSpline
 62
7
  6
CONTINUOUS
 70
0
 71
3
 72
9
 73
5
 74
0
 42
0.0000001
 43
0.0000001
 44
0.0000000001
 40
0.0
 40
0.0
 40
0.0
 40
0.0
 40
0.2444329111
 40
1.0
 40
1.0
 40
1.0
 40
1.0
 10
-11.56277109
 20
273.3799355351
 30
0.0
 10
-11.5805522159
 20
272.7683810797
 30
0.0
 10
-11.7455603373
 20
270.2695978912
 30
0.0
 10
-12.268270425
 20
267.7976046454
 30
0.0
 10
-12.8332457771
 20
265.9927916239
 30
0.0
  0
SPLINE
  5
31B
100
AcDbEntity
  8
0
100
AcDbSpline
 62
7
  6
CONTINUOUS
 70
0
 71
3
 72
9
 73
5
 74
0
 42
0.0000001
 43
0.0000001
 44
0.0000000001
 40
0.0
 40
0.0
 40
0.0
 40
0.0
 40
0.2448029667
 40
1.0
 40
1.0
 40
1.0
 40
1.0
 10
-18.0270216784
 20
277.3884163406
 30
0.0
 10
-18.0395248138
 20
276.8325587384
 30
0.0
 10
-18.1651175174
 20
274.5639517622
 30
0.0
 10
-18.5807500436
 20
272.3135526634
 30
0.0
 10
-19.035088329
 20
270.6596125723
 30
0.0
  0
SPLINE
  5
31C
100
AcDbEntity
  8
0
100
AcDbSpline
 62
7
  6
CONTINUOUS
 70
0
 71
3
 72
11
 73
7
 74
0
 42
0.0000001
 43
0.0000001
 44
0.0000000001
 40
0.0
 40
0.0
 40
0.0
 40
0.0
 40
0.2744525294
 40
0.5289326626
 40
0.7684858929
 40
1.0
 40
1.0
 40
1.0
 40
1.0
 10
-34.9200760547
 20
286.5528182266
 30
0.0
 10
-34.4914035673
 20
287.2577435579
 30
0.0
 10
-33.5694990234
 20
288.5623328488
 30
0.0
 10
-31.9290010308
 20
290.2066656603
 30
0.0
 10
-30.1059622319
 20
291.4309306616
 30
0.0
 10
-28.7752469222
 20
291.9537776302
 30
0.0
 10
-28.1030248137
 20
292.1339772907
 30
0.0
  0
SPLINE
  5
31D
100
AcDbEntity
  8
0
100
AcDbSpline
 62
7
  6
CONTINUOUS
 70
0
 71
3
 72
14
 73
10
 74
0
 42
0.0000001
 43
0.0000001
 44
0.0000000001
 40
0.0
 40
0.0
 40
0.0
 40
0.0
 40
0.2957953124
 40
0.4461386212
 40
0.5884850569
 40
0.7168086579
 40
0.8272471401
 40
0.919685276
 40
1.0
 40
1.0
 40
1.0
 40
1.0
 10
-23.0967497268
 20
286.4366896241
 30
0.0
 10
-23.0967497268
 20
286.7683967278
 30
0.0
 10
-23.1759210043
 20
287.2710078109
 30
0.0
 10
-23.3989404875
 20
287.8931503433
 30
0.0
 10
-23.6188082359
 20
288.3130679947
 30
0.0
 10
-23.8763154681
 20
288.6569882395
 30
0.0
 10
-24.1575863204
 20
288.9047589659
 30
0.0
 10
-24.4512148449
 20
289.0415860899
 30
0.0
 10
-24.6536167305
 20
289.0421862704
 30
0.0
 10
-24.7406038108
 20
289.0188399791
 30
0.0
  0
SPLINE
  5
31E
100
AcDbEntity
  8
0
100
AcDbSpline
 62
7
  6
CONTINUOUS
 70
0
 71
3
 72
9
 73
5
 74
0
 42
0.0000001
 43
0.0000001
 44
0.0000000001
 40
0.0
 40
0.0
 40
0.0
 40
0.0
 40
0.5089177163
 40
1.0
 40
1.0
 40
1.0
 40
1.0
 10
6.6244190649
 20
277.283198054
 30
0.0
 10
6.9697632062
 20
276.4669348907
 30
0.0
 10
7.7944416896
 20
274.9196293578
 30
0.0
 10
8.9121200919
 20
273.5656061297
 30
0.0
 10
9.5238846919
 20
272.9679467942
 30
0.0
  0
SPLINE
  5
31F
100
AcDbEntity
  8
0
100
AcDbSpline
 62
7
  6
CONTINUOUS
 70
0
 71
3
 72
13
 73
9
 74
0
 42
0.0000001
 43
0.0000001
 44
0.0000000001
 40
0.0
 40
0.0
 40
0.0
 40
0.0
 40
0.2452079128
 40
0.3720778738
 40
0.5001503132
 40
0.6282030439
 40
0.7550150617
 40
1.0
 40
1.0
 40
1.0
 40
1.0
 10
-34.315657048
 20
235.8819510428
 30
0.0
 10
-34.3930608157
 20
239.6090920916
 30
0.0
 10
-33.7059874401
 20
245.3086236723
 30
0.0
 10
-31.4343853506
 20
252.5763529515
 30
0.0
 10
-29.0379920746
 20
257.899721879
 30
0.0
 10
-26.0244229705
 20
262.8986854778
 30
0.0
 10
-21.3424440164
 20
268.8977344483
 30
0.0
 10
-17.0479991294
 20
272.7018311604
 30
0.0
 10
-13.9394867999
 20
274.7535278777
 30
0.0
  0
SPLINE
  5
320
100
AcDbEntity
  8
0
100
AcDbSpline
 62
7
  6
CONTINUOUS
 70
0
 71
3
 72
11
 73
7
 74
0
 42
0.0000001
 43
0.0000001
 44
0.0000000001
 40
0.0
 40
0.0
 40
0.0
 40
0.0
 40
0.2351532659
 40
0.4795392587
 40
0.7344517392
 40
1.0
 40
1.0
 40
1.0
 40
1.0
 10
-27.4682268407
 20
216.2812104809
 30
0.0
 10
-28.5451999395
 20
217.5413500695
 30
0.0
 10
-30.4847405079
 20
220.3404442536
 30
0.0
 10
-32.6043320596
 20
225.0926567468
 30
0.0
 10
-33.9383819566
 20
230.3409170306
 30
0.0
 10
-34.2767901886
 20
234.0104366253
 30
0.0
 10
-34.315657048
 20
235.8819510428
 30
0.0
  0
SPLINE
  5
321
100
AcDbEntity
  8
0
100
AcDbSpline
 62
7
  6
CONTINUOUS
 70
0
 71
3
 72
9
 73
5
 74
0
 42
0.0000001
 43
0.0000001
 44
0.0000000001
 40
0.0
 40
0.0
 40
0.0
 40
0.0
 40
0.4896576724
 40
1.0
 40
1.0
 40
1.0
 40
1.0
 10
-34.9200760547
 20
284.9703533351
 30
0.0
 10
-34.9200760547
 20
282.4556155975
 30
0.0
 10
-35.8626961605
 20
277.3005511928
 30
0.0
 10
-38.2901715888
 20
272.6801332953
 30
0.0
 10
-39.8384394571
 20
270.5653425074
 30
0.0
  0
SPLINE
  5
322
100
AcDbEntity
  8
0
100
AcDbSpline
 62
7
  6
CONTINUOUS
 70
0
 71
3
 72
10
 73
6
 74
0
 42
0.0000001
 43
0.0000001
 44
0.0000000001
 40
0.0
 40
0.0
 40
0.0
 40
0.0
 40
0.2561293356
 40
0.5110541247
 40
1.0
 40
1.0
 40
1.0
 40
1.0
 10
-39.8384394571
 20
270.5653425074
 30
0.0
 10
-41.0543334428
 20
268.9045437192
 30
0.0
 10
-43.2329021307
 20
265.3986155781
 30
0.0
 10
-46.4191211982
 20
258.005533464
 30
0.0
 10
-47.5233822735
 20
251.9867914687
 30
0.0
 10
-47.5233822735
 20
248.0575130888
 30
0.0
  0
SPLINE
  5
323
100
AcDbEntity
  8
0
100
AcDbSpline
 62
7
  6
CONTINUOUS
 70
0
 71
3
 72
13
 73
9
 74
0
 42
0.0000001
 43
0.0000001
 44
0.0000000001
 40
0.0
 40
0.0
 40
0.0
 40
0.0
 40
0.2714341293
 40
0.526216692
 40
0.6482285711
 40
0.7672657472
 40
0.8841844046
 40
1.0
 40
1.0
 40
1.0
 40
1.0
 10
-47.5233822735
 20
248.0575130888
 30
0.0
 10
-47.5233822735
 20
245.9211446031
 30
0.0
 10
-47.1088678402
 20
241.7632041514
 30
0.0
 10
-45.4236549923
 20
236.8869982797
 30
0.0
 10
-43.4314581774
 20
233.518415597
 30
0.0
 10
-41.6668271116
 20
231.3092685314
 30
0.0
 10
-39.6348670331
 20
229.4144252636
 30
0.0
 10
-38.115953444
 20
228.3757870146
 30
0.0
 10
-37.3266172932
 20
227.9198646772
 30
0.0
  0
SPLINE
  5
324
100
AcDbEntity
  8
0
100
AcDbSpline
 62
7
  6
CONTINUOUS
 70
0
 71
3
 72
9
 73
5
 74
0
 42
0.0000001
 43
0.0000001
 44
0.0000000001
 40
0.0
 40
0.0
 40
0.0
 40
0.0
 40
0.477305613
 40
1.0
 40
1.0
 40
1.0
 40
1.0
 10
-51.1300804222
 20
211.6007160113
 30
0.0
 10
-50.8318215613
 20
211.2649745308
 30
0.0
 10
-50.3618748431
 20
210.4167768761
 30
0.0
 10
-50.2274097788
 20
209.4669169604
 30
0.0
 10
-50.2274097788
 20
208.9751227023
 30
0.0
  0
SPLINE
  5
325
100
AcDbEntity
  8
0
100
AcDbSpline
 62
7
  6
CONTINUOUS
 70
0
 71
3
 72
13
 73
9
 74
0
 42
0.0000001
 43
0.0000001
 44
0.0000000001
 40
0.0
 40
0.0
 40
0.0
 40
0.0
 40
0.1054199736
 40
0.2162072625
 40
0.3355571307
 40
0.4637457895
 40
0.7347562963
 40
1.0
 40
1.0
 40
1.0
 40
1.0
 10
-55.2098871798
 20
284.5388178801
 30
0.0
 10
-55.1060282642
 20
284.478794444
 30
0.0
 10
-54.8677803029
 20
284.3953146262
 30
0.0
 10
-54.4794500289
 20
284.4013235407
 30
0.0
 10
-54.086962049
 20
284.5304810478
 30
0.0
 10
-53.5878963058
 20
284.8549858766
 30
0.0
 10
-53.1119935311
 20
285.4721733835
 30
0.0
 10
-52.9546825999
 20
286.0856866181
 30
0.0
 10
-52.9546825999
 20
286.3875044115
 30
0.0
  0
SPLINE
  5
326
100
AcDbEntity
  8
0
100
AcDbSpline
 62
7
  6
CONTINUOUS
 70
0
 71
3
 72
12
 73
8
 74
0
 42
0.0000001
 43
0.0000001
 44
0.0000000001
 40
0.0
 40
0.0
 40
0.0
 40
0.0
 40
0.2496129985
 40
0.3797352206
 40
0.5105246444
 40
0.7650066244
 40
1.0
 40
1.0
 40
1.0
 40
1.0
 10
-50.2274097788
 20
287.1185648439
 30
0.0
 10
-50.2274097788
 20
286.4951966395
 30
0.0
 10
-50.4010083
 20
285.5406254998
 30
0.0
 10
-50.9030771041
 20
284.3657316362
 30
0.0
 10
-51.5801561258
 20
283.2659328053
 30
0.0
 10
-52.6754434403
 20
282.1370306039
 30
0.0
 10
-53.7927950404
 20
281.5661707095
 30
0.0
 10
-54.359641326
 20
281.4142244549
 30
0.0
  0
SPLINE
  5
327
100
AcDbEntity
  8
0
100
AcDbSpline
 62
7
  6
CONTINUOUS
 70
0
 71
3
 72
13
 73
9
 74
0
 42
0.0000001
 43
0.0000001
 44
0.0000000001
 40
0.0
 40
0.0
 40
0.0
 40
0.0
 40
0.1228933572
 40
0.2502234085
 40
0.3802479217
 40
0.5109294677
 40
0.7652098012
 40
1.0
 40
1.0
 40
1.0
 40
1.0
 10
-59.7315423372
 20
284.5709300035
 30
0.0
 10
-59.7315423372
 20
285.0316708315
 30
0.0
 10
-59.6470000533
 20
285.9713160637
 30
0.0
 10
-59.2913524174
 20
287.3573771644
 30
0.0
 10
-58.7180147946
 20
288.7007619344
 30
0.0
 10
-57.7024751356
 20
290.3495944027
 30
0.0
 10
-56.0594436031
 20
292.0433590383
 30
0.0
 10
-54.3834329738
 20
292.8995296411
 30
0.0
 10
-53.5331950165
 20
293.1274405871
 30
0.0
  0
SPLINE
  5
328
100
AcDbEntity
  8
0
100
AcDbSpline
 62
7
  6
CONTINUOUS
 70
0
 71
3
 72
10
 73
6
 74
0
 42
0.0000001
 43
0.0000001
 44
0.0000000001
 40
0.0
 40
0.0
 40
0.0
 40
0.0
 40
0.5252520963
 40
0.7668039053
 40
1.0
 40
1.0
 40
1.0
 40
1.0
 10
-52.9546825999
 20
286.3875044115
 30
0.0
 10
-52.9546825999
 20
286.6113097177
 30
0.0
 10
-53.0202149309
 20
286.9481444975
 30
0.0
 10
-53.2629042063
 20
287.3040644683
 30
0.0
 10
-53.4233664507
 20
287.4332582021
 30
0.0
 10
-53.5093954721
 20
287.482977164
 30
0.0
  0
SPLINE
  5
329
100
AcDbEntity
  8
0
100
AcDbSpline
 62
7
  6
CONTINUOUS
 70
0
 71
3
 72
11
 73
7
 74
0
 42
0.0000001
 43
0.0000001
 44
0.0000000001
 40
0.0
 40
0.0
 40
0.0
 40
0.0
 40
0.2323671568
 40
0.4731321704
 40
0.7282223224
 40
1.0
 40
1.0
 40
1.0
 40
1.0
 10
-57.2843059392
 20
201.5944742958
 30
0.0
 10
-57.6639064585
 20
201.8137590617
 30
0.0
 10
-58.3719852547
 20
202.3832693447
 30
0.0
 10
-59.154385671
 20
203.5337701728
 30
0.0
 10
-59.631853483
 20
204.9165226353
 30
0.0
 10
-59.7315423372
 20
205.9147495097
 30
0.0
 10
-59.7315423372
 20
206.4274878619
 30
0.0
  0
SPLINE
  5
32A
100
AcDbEntity
  8
0
100
AcDbSpline
 62
7
  6
CONTINUOUS
 70
0
 71
3
 72
19
 73
15
 74
0
 42
0.0000001
 43
0.0000001
 44
0.0000000001
 40
0.0
 40
0.0
 40
0.0
 40
0.0
 40
0.1300541393
 40
0.2656684266
 40
0.3344130243
 40
0.4029810406
 40
0.5372301456
 40
0.6648520353
 40
0.7255483007
 40
0.7839620885
 40
0.8402158028
 40
0.8946210701
 40
0.9476700444
 40
1.0
 40
1.0
 40
1.0
 40
1.0
 10
-26.1287917753
 20
235.7003949512
 30
0.0
 10
-26.1287917753
 20
238.433095711
 30
0.0
 10
-25.4135228982
 20
244.0298004512
 30
0.0
 10
-22.9980675906
 20
250.6859493981
 30
0.0
 10
-20.2214390444
 20
255.7143741617
 30
0.0
 10
-16.9485612877
 20
260.3994809998
 30
0.0
 10
-12.0884989683
 20
265.4373882097
 30
0.0
 10
-6.3420352378
 20
269.168127086
 30
0.0
 10
-1.5113752027
 20
271.0893048357
 30
0.0
 10
2.0823067026
 20
271.9619087684
 30
0.0
 10
5.6361456513
 20
272.2698905665
 30
0.0
 10
9.0823374611
 20
272.0040199247
 30
0.0
 10
12.3511368405
 20
271.166960435
 30
0.0
 10
14.3751652574
 20
270.2337906066
 30
0.0
 10
15.3273338121
 20
269.6838783241
 30
0.0
  0
SPLINE
  5
32B
100
AcDbEntity
  8
0
100
AcDbSpline
 62
7
  6
CONTINUOUS
 70
0
 71
3
 72
13
 73
9
 74
0
 42
0.0000001
 43
0.0000001
 44
0.0000000001
 40
0.0
 40
0.0
 40
0.0
 40
0.0
 40
0.2393015345
 40
0.3658008654
 40
0.4947520418
 40
0.6244382932
 40
0.7530764118
 40
1.0
 40
1.0
 40
1.0
 40
1.0
 10
2.5902174773
 20
217.1180914665
 30
0.0
 10
5.5605404517
 20
218.3188499921
 30
0.0
 10
9.7906230441
 20
220.9991001274
 30
0.0
 10
14.4990534343
 20
225.6738175521
 30
0.0
 10
17.6266588124
 20
229.7964561195
 30
0.0
 10
20.1730447359
 20
234.333364056
 30
0.0
 10
22.6516233628
 20
240.6398510828
 30
0.0
 10
23.4993091058
 20
245.6975853001
 30
0.0
 10
23.4993091058
 20
249.0034794873
 30
0.0
  0
SPLINE
  5
32C
100
AcDbEntity
  8
0
100
AcDbSpline
 62
7
  6
CONTINUOUS
 70
0
 71
3
 72
13
 73
9
 74
0
 42
0.0000001
 43
0.0000001
 44
0.0000000001
 40
0.0
 40
0.0
 40
0.0
 40
0.0
 40
0.2714323196
 40
0.5262141465
 40
0.6482247255
 40
0.767262033
 40
0.8841830217
 40
1.0
 40
1.0
 40
1.0
 40
1.0
 10
23.4993091058
 20
249.0034794873
 30
0.0
 10
23.4993091058
 20
250.9723440316
 30
0.0
 10
23.1173028955
 20
254.8042851549
 30
0.0
 10
21.5642260837
 20
259.2981717434
 30
0.0
 10
19.7282414292
 20
262.4026574751
 30
0.0
 10
18.101955696
 20
264.43861509
 30
0.0
 10
16.2293000817
 20
266.1849497958
 30
0.0
 10
14.8294172224
 20
267.1421283837
 30
0.0
 10
14.1019648006
 20
267.5623264806
 30
0.0
  0
SPLINE
  5
32D
100
AcDbEntity
  8
0
100
AcDbSpline
 62
7
  6
CONTINUOUS
 70
0
 71
3
 72
11
 73
7
 74
0
 42
0.0000001
 43
0.0000001
 44
0.0000000001
 40
0.0
 40
0.0
 40
0.0
 40
0.0
 40
0.242885163
 40
0.4887911563
 40
0.7404561496
 40
1.0
 40
1.0
 40
1.0
 40
1.0
 10
-14.7066495604
 20
217.6843127873
 30
0.0
 10
-13.8719356977
 20
217.2022173697
 30
0.0
 10
-12.1035281431
 20
216.3772418274
 30
0.0
 10
-9.2535439179
 20
215.6071513381
 30
0.0
 10
-6.2504618987
 20
215.3122172638
 30
0.0
 10
-4.2161111599
 20
215.4327020866
 30
0.0
 10
-3.1949066887
 20
215.5673572158
 30
0.0
  0
SPLINE
  5
32E
100
AcDbEntity
  8
0
100
AcDbSpline
 62
7
  6
CONTINUOUS
 70
0
 71
3
 72
13
 73
9
 74
0
 42
0.0000001
 43
0.0000001
 44
0.0000000001
 40
0.0
 40
0.0
 40
0.0
 40
0.0
 40
0.1054199736
 40
0.2162072625
 40
0.3355571307
 40
0.4637457895
 40
0.7347562963
 40
1.0
 40
1.0
 40
1.0
 40
1.0
 10
-55.2098871798
 20
206.3953757384
 30
0.0
 10
-55.1060282642
 20
206.3353523023
 30
0.0
 10
-54.8677803029
 20
206.2518724845
 30
0.0
 10
-54.4794500289
 20
206.2578813991
 30
0.0
 10
-54.086962049
 20
206.3870389062
 30
0.0
 10
-53.5878963058
 20
206.7115437349
 30
0.0
 10
-53.1119935311
 20
207.3287312419
 30
0.0
 10
-52.9546825999
 20
207.9422444765
 30
0.0
 10
-52.9546825999
 20
208.2440622698
 30
0.0
  0
SPLINE
  5
32F
100
AcDbEntity
  8
0
100
AcDbSpline
 62
7
  6
CONTINUOUS
 70
0
 71
3
 72
9
 73
5
 74
0
 42
0.0000001
 43
0.0000001
 44
0.0000000001
 40
0.0
 40
0.0
 40
0.0
 40
0.0
 40
0.2531764553
 40
1.0
 40
1.0
 40
1.0
 40
1.0
 10
-19.4884397537
 20
227.1446174963
 30
0.0
 10
-19.5562465505
 20
226.9988909005
 30
0.0
 10
-19.8540047653
 20
226.4378834513
 30
0.0
 10
-20.2690952329
 20
225.9377279739
 30
0.0
 10
-20.6295931803
 20
225.6297777473
 30
0.0
  0
SPLINE
  5
330
100
AcDbEntity
  8
0
100
AcDbSpline
 62
7
  6
CONTINUOUS
 70
0
 71
3
 72
12
 73
8
 74
0
 42
0.0000001
 43
0.0000001
 44
0.0000000001
 40
0.0
 40
0.0
 40
0.0
 40
0.0
 40
0.2700633698
 40
0.5253163296
 40
0.7671228976
 40
0.8844032322
 40
1.0
 40
1.0
 40
1.0
 40
1.0
 10
-27.2548228541
 20
236.35076959
 30
0.0
 10
-27.2548228541
 20
234.4339123109
 30
0.0
 10
-26.9187484753
 20
230.6926905954
 30
0.0
 10
-25.3259976987
 20
225.4441156541
 30
0.0
 10
-23.1125637705
 20
221.6311076824
 30
0.0
 10
-20.8873122289
 20
219.0908128878
 30
0.0
 10
-19.6398676738
 20
217.9972796778
 30
0.0
 10
-18.9876723173
 20
217.4994501993
 30
0.0
  0
SPLINE
  5
331
100
AcDbEntity
  8
0
100
AcDbSpline
 62
7
  6
CONTINUOUS
 70
0
 71
3
 72
11
 73
7
 74
0
 42
0.0000001
 43
0.0000001
 44
0.0000000001
 40
0.0
 40
0.0
 40
0.0
 40
0.0
 40
0.2499058386
 40
0.5052380582
 40
0.7578021893
 40
1.0
 40
1.0
 40
1.0
 40
1.0
 10
-12.8332457771
 20
265.9927916239
 30
0.0
 10
-15.0244270169
 20
264.2057724085
 30
0.0
 10
-19.0417825664
 20
260.0621681401
 30
0.0
 10
-23.6122680873
 20
252.7371442635
 30
0.0
 10
-26.5352113068
 20
244.7043546251
 30
0.0
 10
-27.2548228541
 20
239.0910515181
 30
0.0
 10
-27.2548228541
 20
236.35076959
 30
0.0
  0
SPLINE
  5
332
100
AcDbEntity
  8
0
100
AcDbSpline
 62
7
  6
CONTINUOUS
 70
0
 71
3
 72
9
 73
5
 74
0
 42
0.0000001
 43
0.0000001
 44
0.0000000001
 40
0.0
 40
0.0
 40
0.0
 40
0.0
 40
0.5103423276
 40
1.0
 40
1.0
 40
1.0
 40
1.0
 10
-26.0445587385
 20
262.5982531853
 30
0.0
 10
-24.4962908706
 20
264.7130439727
 30
0.0
 10
-22.0688154442
 20
269.3334618695
 30
0.0
 10
-21.1261953388
 20
274.4885262726
 30
0.0
 10
-21.1261953388
 20
277.0032640095
 30
0.0
  0
SPLINE
  5
333
100
AcDbEntity
  8
0
100
AcDbSpline
 62
7
  6
CONTINUOUS
 70
0
 71
3
 72
9
 73
5
 74
0
 42
0.0000001
 43
0.0000001
 44
0.0000000001
 40
0.0
 40
0.0
 40
0.0
 40
0.0
 40
0.2331714723
 40
1.0
 40
1.0
 40
1.0
 40
1.0
 10
-25.1888745598
 20
292.4490225
 30
0.0
 10
-25.1097324839
 20
292.4457474394
 30
0.0
 10
-24.7712422313
 20
292.4069382641
 30
0.0
 10
-24.4483547749
 20
292.2736919722
 30
0.0
 10
-24.2227808056
 20
292.1434046368
 30
0.0
  0
SPLINE
  5
334
100
AcDbEntity
  8
0
100
AcDbSpline
 62
7
  6
CONTINUOUS
 70
0
 71
3
 72
9
 73
5
 74
0
 42
0.0000001
 43
0.0000001
 44
0.0000000001
 40
0.0
 40
0.0
 40
0.0
 40
0.0
 40
0.2361931985
 40
1.0
 40
1.0
 40
1.0
 40
1.0
 10
-24.2227808056
 20
292.1434046368
 30
0.0
 10
-24.1664295989
 20
292.1108572264
 30
0.0
 10
-23.9325097126
 20
291.9650112473
 30
0.0
 10
-23.717314056
 20
291.7902040741
 30
0.0
 10
-23.5634535834
 20
291.6466326812
 30
0.0
  0
SPLINE
  5
335
100
AcDbEntity
  8
0
100
AcDbSpline
 62
7
  6
CONTINUOUS
 70
0
 71
3
 72
9
 73
5
 74
0
 42
0.0000001
 43
0.0000001
 44
0.0000000001
 40
0.0
 40
0.0
 40
0.0
 40
0.0
 40
0.2567901511
 40
1.0
 40
1.0
 40
1.0
 40
1.0
 10
-21.3151016826
 20
287.1466484177
 30
0.0
 10
-21.2841008288
 20
286.9905411729
 30
0.0
 10
-21.1773218626
 20
286.380012124
 30
0.0
 10
-21.1261953388
 20
285.7591671539
 30
0.0
 10
-21.1261953388
 20
285.2985340062
 30
0.0
  0
SPLINE
  5
336
100
AcDbEntity
  8
0
100
AcDbSpline
 62
7
  6
CONTINUOUS
 70
0
 71
3
 72
9
 73
5
 74
0
 42
0.0000001
 43
0.0000001
 44
0.0000000001
 40
0.0
 40
0.0
 40
0.0
 40
0.0
 40
0.2580384959
 40
1.0
 40
1.0
 40
1.0
 40
1.0
 10
-24.9329340909
 20
286.0703489445
 30
0.0
 10
-24.9166251016
 20
286.0392927148
 30
0.0
 10
-24.8514458068
 20
285.9199962964
 30
0.0
 10
-24.7782900251
 20
285.804974298
 30
0.0
 10
-24.7190942285
 20
285.7233088403
 30
0.0
  0
SPLINE
  5
337
100
AcDbEntity
  8
0
100
AcDbSpline
 62
7
  6
CONTINUOUS
 70
0
 71
3
 72
9
 73
5
 74
0
 42
0.0000001
 43
0.0000001
 44
0.0000000001
 40
0.0
 40
0.0
 40
0.0
 40
0.0
 40
0.2638989867
 40
1.0
 40
1.0
 40
1.0
 40
1.0
 10
-24.6886805118
 20
285.6822691264
 30
0.0
 10
-24.66723178
 20
285.6539658988
 30
0.0
 10
-24.5835459612
 20
285.5486067397
 30
0.0
 10
-24.4898754335
 20
285.4508452947
 30
0.0
 10
-24.4147875491
 20
285.3862405235
 30
0.0
  0
SPLINE
  5
338
100
AcDbEntity
  8
0
100
AcDbSpline
 62
7
  6
CONTINUOUS
 70
0
 71
3
 72
9
 73
5
 74
0
 42
0.0000001
 43
0.0000001
 44
0.0000000001
 40
0.0
 40
0.0
 40
0.0
 40
0.0
 40
0.2631217306
 40
1.0
 40
1.0
 40
1.0
 40
1.0
 10
-24.3361073667
 20
285.3232089954
 30
0.0
 10
-24.3183243382
 20
285.3100055657
 30
0.0
 10
-24.2494987751
 20
285.2615590272
 30
0.0
 10
-24.1753889047
 20
285.2203082981
 30
0.0
 10
-24.1183173968
 20
285.1960117857
 30
0.0
  0
SPLINE
  5
339
100
AcDbEntity
  8
0
100
AcDbSpline
 62
7
  6
CONTINUOUS
 70
0
 71
3
 72
9
 73
5
 74
0
 42
0.0000001
 43
0.0000001
 44
0.0000000001
 40
0.0
 40
0.0
 40
0.0
 40
0.0
 40
0.2624869738
 40
1.0
 40
1.0
 40
1.0
 40
1.0
 10
-24.0359994963
 20
285.1660052062
 30
0.0
 10
-24.0127276495
 20
285.1589616055
 30
0.0
 10
-23.9229032597
 20
285.1363709798
 30
0.0
 10
-23.8277975604
 20
285.1328715585
 30
0.0
 10
-23.7603170325
 20
285.1435265543
 30
0.0
  0
SPLINE
  5
33A
100
AcDbEntity
  8
0
100
AcDbSpline
 62
7
  6
CONTINUOUS
 70
0
 71
3
 72
13
 73
9
 74
0
 42
0.0000001
 43
0.0000001
 44
0.0000000001
 40
0.0
 40
0.0
 40
0.0
 40
0.0
 40
0.2435044183
 40
0.3700611515
 40
0.4981443284
 40
0.6264792139
 40
0.7537745242
 40
1.0
 40
1.0
 40
1.0
 40
1.0
 10
-32.6267233218
 20
234.9108004196
 30
0.0
 10
-32.6267233218
 20
238.6059396945
 30
0.0
 10
-31.8194381489
 20
244.2475604831
 30
0.0
 10
-29.4125858718
 20
251.4239396103
 30
0.0
 10
-26.9190089688
 20
256.6897328784
 30
0.0
 10
-23.819367841
 20
261.6361493558
 30
0.0
 10
-19.0389619975
 20
267.577481338
 30
0.0
 10
-14.6953889449
 20
271.3433646328
 30
0.0
 10
-11.56277109
 20
273.3799355351
 30
0.0
  0
SPLINE
  5
33B
100
AcDbEntity
  8
0
100
AcDbSpline
 62
7
  6
CONTINUOUS
 70
0
 71
3
 72
13
 73
9
 74
0
 42
0.0000001
 43
0.0000001
 44
0.0000000001
 40
0.0
 40
0.0
 40
0.0
 40
0.0
 40
0.1054228116
 40
0.2162092768
 40
0.3355568365
 40
0.4637520711
 40
0.7347891091
 40
1.0
 40
1.0
 40
1.0
 40
1.0
 10
-2.0528459309
 20
212.5641342926
 30
0.0
 10
-1.8389793547
 20
212.4406081487
 30
0.0
 10
-1.3485100421
 20
212.2686587772
 30
0.0
 10
-0.5489833645
 20
212.2810086694
 30
0.0
 10
0.2590986059
 20
212.5468974927
 30
0.0
 10
1.2866473327
 20
213.2150665602
 30
0.0
 10
2.2663622735
 20
214.4858338539
 30
0.0
 10
2.5902174773
 20
215.7489282455
 30
0.0
 10
2.5902174773
 20
216.3702452036
 30
0.0
  0
SPLINE
  5
33C
100
AcDbEntity
  8
0
100
AcDbSpline
 62
7
  6
CONTINUOUS
 70
0
 71
3
 72
11
 73
7
 74
0
 42
0.0000001
 43
0.0000001
 44
0.0000000001
 40
0.0
 40
0.0
 40
0.0
 40
0.0
 40
0.234371975
 40
0.4782870686
 40
0.7333833873
 40
1.0
 40
1.0
 40
1.0
 40
1.0
 10
-26.22071144
 20
215.5605755158
 30
0.0
 10
-27.2659062445
 20
216.8024271158
 30
0.0
 10
-29.1390136854
 20
219.5655392005
 30
0.0
 10
-31.1497028057
 20
224.2588479527
 30
0.0
 10
-32.3674842706
 20
229.4441660894
 30
0.0
 10
-32.6267233218
 20
233.0643351502
 30
0.0
 10
-32.6267233218
 20
234.9108004196
 30
0.0
  0
SPLINE
  5
33D
100
AcDbEntity
  8
0
100
AcDbSpline
 62
7
  6
CONTINUOUS
 70
0
 71
3
 72
11
 73
7
 74
0
 42
0.0000001
 43
0.0000001
 44
0.0000000001
 40
0.0
 40
0.0
 40
0.0
 40
0.0
 40
0.271772124
 40
0.5268740629
 40
0.7676338636
 40
1.0
 40
1.0
 40
1.0
 40
1.0
 10
-49.3828864697
 20
208.4873417231
 30
0.0
 10
-49.3828864697
 20
208.8291608433
 30
0.0
 10
-49.4493596053
 20
209.4946488406
 30
0.0
 10
-49.7676352973
 20
210.4165069244
 30
0.0
 10
-50.2892689966
 20
211.1834805566
 30
0.0
 10
-50.7612821743
 20
211.5632112991
 30
0.0
 10
-51.014378525
 20
211.7093486966
 30
0.0
  0
SPLINE
  5
33E
100
AcDbEntity
  8
0
100
AcDbSpline
 62
7
  6
CONTINUOUS
 70
0
 71
3
 72
13
 73
9
 74
0
 42
0.0000001
 43
0.0000001
 44
0.0000000001
 40
0.0
 40
0.0
 40
0.0
 40
0.0
 40
0.1158155921
 40
0.2327342474
 40
0.351771422
 40
0.4737833006
 40
0.7285658641
 40
1.0
 40
1.0
 40
1.0
 40
1.0
 10
-15.9320267959
 20
215.5627465379
 30
0.0
 10
-16.7213629184
 20
216.0186688733
 30
0.0
 10
-18.2402764902
 20
217.0573070687
 30
0.0
 10
-20.2722365281
 20
218.9521503036
 30
0.0
 10
-22.0368675798
 20
221.1612973359
 30
0.0
 10
-24.0290644185
 20
224.529879992
 30
0.0
 10
-25.7142773261
 20
229.4060859016
 30
0.0
 10
-26.1287917753
 20
233.5640264131
 30
0.0
 10
-26.1287917753
 20
235.7003949512
 30
0.0
  0
SPLINE
  5
33F
100
AcDbEntity
  8
0
100
AcDbSpline
 62
7
  6
CONTINUOUS
 70
0
 71
3
 72
9
 73
5
 74
0
 42
0.0000001
 43
0.0000001
 44
0.0000000001
 40
0.0
 40
0.0
 40
0.0
 40
0.0
 40
0.4957842319
 40
1.0
 40
1.0
 40
1.0
 40
1.0
 10
-28.1030248137
 20
292.1339772907
 30
0.0
 10
-27.6337840235
 20
292.2597646309
 30
0.0
 10
-26.666021907
 20
292.4396176408
 30
0.0
 10
-25.6825218968
 20
292.4694506343
 30
0.0
 10
-25.1888745598
 20
292.4490225
 30
0.0
  0
SPLINE
  5
340
100
AcDbEntity
  8
0
100
AcDbSpline
 62
7
  6
CONTINUOUS
 70
0
 71
3
 72
12
 73
8
 74
0
 42
0.0000001
 43
0.0000001
 44
0.0000000001
 40
0.0
 40
0.0
 40
0.0
 40
0.0
 40
0.2349933756
 40
0.4894753556
 40
0.6202647794
 40
0.7503870015
 40
1.0
 40
1.0
 40
1.0
 40
1.0
 10
-53.5151180168
 20
280.9264434757
 30
0.0
 10
-52.9482717313
 20
281.0783897304
 30
0.0
 10
-51.8309201312
 20
281.6492496248
 30
0.0
 10
-50.7356328167
 20
282.7781518262
 30
0.0
 10
-50.058553795
 20
283.8779506571
 30
0.0
 10
-49.5564849909
 20
285.0528445207
 30
0.0
 10
-49.3828864697
 20
286.0074156604
 30
0.0
 10
-49.3828864697
 20
286.6307838648
 30
0.0
  0
SPLINE
  5
341
100
AcDbEntity
  8
0
100
AcDbSpline
 62
7
  6
CONTINUOUS
 70
0
 71
3
 72
9
 73
5
 74
0
 42
0.0000001
 43
0.0000001
 44
0.0000000001
 40
0.0
 40
0.0
 40
0.0
 40
0.0
 40
0.2491922536
 40
1.0
 40
1.0
 40
1.0
 40
1.0
 10
7.7266395171
 20
274.0739339689
 30
0.0
 10
7.396388162
 20
274.2646843445
 30
0.0
 10
6.0471866311
 20
274.9881320213
 30
0.0
 10
4.6057658542
 20
275.5384056734
 30
0.0
 10
3.4990293282
 20
275.8474996691
 30
0.0
  0
SPLINE
  5
342
100
AcDbEntity
  8
0
100
AcDbSpline
 62
7
  6
CONTINUOUS
 70
0
 71
3
 72
10
 73
6
 74
0
 42
0.0000001
 43
0.0000001
 44
0.0000000001
 40
0.0
 40
0.0
 40
0.0
 40
0.0
 40
0.5252520963
 40
0.7668039053
 40
1.0
 40
1.0
 40
1.0
 40
1.0
 10
-52.9546825999
 20
208.2440622698
 30
0.0
 10
-52.9546825999
 20
208.467867576
 30
0.0
 10
-53.0202149309
 20
208.8047023558
 30
0.0
 10
-53.2629042063
 20
209.1606223266
 30
0.0
 10
-53.4233664507
 20
209.2898160605
 30
0.0
 10
-53.5093954721
 20
209.3395350223
 30
0.0
  0
SPLINE
  5
343
100
AcDbEntity
  8
0
100
AcDbSpline
 62
7
  6
CONTINUOUS
 70
0
 71
3
 72
9
 73
5
 74
0
 42
0.0000001
 43
0.0000001
 44
0.0000000001
 40
0.0
 40
0.0
 40
0.0
 40
0.0
 40
0.7440453974
 40
1.0
 40
1.0
 40
1.0
 40
1.0
 10
-24.7406038108
 20
289.0188399791
 30
0.0
 10
-24.7897498013
 20
289.0056497834
 30
0.0
 10
-24.8536525541
 20
288.9781053806
 30
0.0
 10
-24.9106893711
 20
288.9403332247
 30
0.0
 10
-24.9248660524
 20
288.930064953
 30
0.0
  0
SPLINE
  5
344
100
AcDbEntity
  8
0
100
AcDbSpline
 62
7
  6
CONTINUOUS
 70
0
 71
3
 72
8
 73
4
 74
0
 42
0.0000001
 43
0.0000001
 44
0.0000000001
 40
0.0
 40
0.0
 40
0.0
 40
0.0
 40
1.0
 40
1.0
 40
1.0
 40
1.0
 10
-24.9248660524
 20
288.930064953
 30
0.0
 10
-24.9484904491
 20
288.9129536337
 30
0.0
 10
-24.97094116
 20
288.8941263598
 30
0.0
 10
-24.9920805775
 20
288.8740257529
 30
0.0
  0
SPLINE
  5
345
100
AcDbEntity
  8
0
100
AcDbSpline
 62
7
  6
CONTINUOUS
 70
0
 71
3
 72
9
 73
5
 74
0
 42
0.0000001
 43
0.0000001
 44
0.0000000001
 40
0.0
 40
0.0
 40
0.0
 40
0.0
 40
0.2381335221
 40
1.0
 40
1.0
 40
1.0
 40
1.0
 10
-24.9920805775
 20
288.8740257529
 30
0.0
 10
-25.0058046941
 20
288.8609760521
 30
0.0
 10
-25.0612227667
 20
288.8038540291
 30
0.0
 10
-25.1076885871
 20
288.7383760259
 30
0.0
 10
-25.1383791921
 20
288.6861354975
 30
0.0
  0
SPLINE
  5
346
100
AcDbEntity
  8
0
100
AcDbSpline
 62
7
  6
CONTINUOUS
 70
0
 71
3
 72
9
 73
5
 74
0
 42
0.0000001
 43
0.0000001
 44
0.0000000001
 40
0.0
 40
0.0
 40
0.0
 40
0.0
 40
0.2345581278
 40
1.0
 40
1.0
 40
1.0
 40
1.0
 10
-25.1802531404
 20
288.6077425723
 30
0.0
 10
-25.193197919
 20
288.5810707536
 30
0.0
 10
-25.2441757288
 20
288.4653217522
 30
0.0
 10
-25.279307899
 20
288.342956098
 30
0.0
 10
-25.2992551195
 20
288.2482861637
 30
0.0
  0
SPLINE
  5
347
100
AcDbEntity
  8
0
100
AcDbSpline
 62
7
  6
CONTINUOUS
 70
0
 71
3
 72
9
 73
5
 74
0
 42
0.0000001
 43
0.0000001
 44
0.0000000001
 40
0.0
 40
0.0
 40
0.0
 40
0.0
 40
0.2408346301
 40
1.0
 40
1.0
 40
1.0
 40
1.0
 10
-25.3129402243
 20
288.1770186808
 30
0.0
 10
-25.3180722505
 20
288.1475198872
 30
0.0
 10
-25.3368014948
 20
288.0245907391
 30
0.0
 10
-25.3457950573
 20
287.9002497029
 30
0.0
 10
-25.348012184
 20
287.8058921335
 30
0.0
  0
SPLINE
  5
348
100
AcDbEntity
  8
0
100
AcDbSpline
 62
7
  6
CONTINUOUS
 70
0
 71
3
 72
10
 73
6
 74
0
 42
0.0000001
 43
0.0000001
 44
0.0000000001
 40
0.0
 40
0.0
 40
0.0
 40
0.0
 40
0.2392061844
 40
0.4834298669
 40
1.0
 40
1.0
 40
1.0
 40
1.0
 10
-3.053164159
 20
210.6943255529
 30
0.0
 10
-3.2627451407
 20
210.8153572529
 30
0.0
 10
-3.6594160725
 20
211.1103127816
 30
0.0
 10
-4.3210236983
 20
211.88418351
 30
0.0
 10
-4.6191668907
 20
212.6220301016
 30
0.0
 10
-4.7313329782
 20
213.13249502
 30
0.0
  0
ENDSEC
  0
SECTION
  2
OBJECTS
  0
DICTIONARY
  5
C
100
AcDbDictionary
280
0
281
1
  3
ACAD_GROUP
350
D
  3
ACAD_MLINESTYLE
350
17
  3
ACAD_LAYOUT
350
1A
  3
ACAD_PLOTSETTINGS
350
19
  3
ACAD_PLOTSTYLENAME
350
E
  0
DICTIONARY
  5
D
102
{ACAD_REACTORS
330
C
102
}
100
AcDbDictionary
280
0
281
1
  0
ACDBDICTIONARYWDFLT
  5
E
102
{ACAD_REACTORS
330
C
102
}
100
AcDbDictionary
281
1
  3
Normal
350
F
100
AcDbDictionaryWithDefault
340
F
  0
DICTIONARY
  5
17
102
{ACAD_REACTORS
330
C
102
}
100
AcDbDictionary
280
0
281
1
  3
Standard
350
18
  0
DICTIONARY
  5
19
102
{ACAD_REACTORS
330
C
102
}
100
AcDbDictionary
281
1
  0
DICTIONARY
  5
1A
102
{ACAD_REACTORS
330
C
102
}
100
AcDbDictionary
281
1
  3
Model
350
349
  3
Layout1
350
34A
  0
ACDBPLACEHOLDER
  5
F
102
{ACAD_REACTORS
330
E
102
}
  0
MLINESTYLE
  5
18
102
{ACAD_REACTORS
330
17
102
}
100
AcDbMlineStyle
  2
STANDARD
 70
0
  3

 62
256
 51
90.0
 52
90.0
 71
2
 49
0.5
 62
256
  6
BYLAYER
 49
-0.5
 62
256
  6
BYLAYER
  0
LAYOUT
  5
349
102
{ACAD_REACTORS
330
1A
102
}
100
AcDbPlotSettings
  1

  2
none_device
  4
ANSI_C_(22.00_x_17.00_Inches)
  6

 40
0.0
 41
0.0
 42
0.0
 43
0.0
 44
558.8
 45
431.8
 46
0.0
 47
0.0
 48
0.0
 49
0.0
140
0.0
141
0.0
142
1.0
143
1.0
 70
1024
 72
1
 73
0
 74
0
  7

 75
0
147
1.0
148
0.0
149
0.0
100
AcDbLayout
  1
Model
 70
0
 71
0
 10
0.0
 20
0.0
 11
558.8
 21
431.8
 12
0.0
 22
0.0
 32
0.0
 14
0.0
 24
0.0
 34
0.0
 15
0.0
 25
0.0
 35
0.0
146
0.0
 13
0.0
 23
0.0
 33
0.0
 16
1.0
 26
0.0
 36
0.0
 17
0.0
 27
1.0
 37
0.0
 76
0
330
216
345
0
346
0
  0
LAYOUT
  5
34A
102
{ACAD_REACTORS
330
1A
102
}
100
AcDbPlotSettings
  1

  2
none_device
  4
ANSI_C_(22.00_x_17.00_Inches)
  6

 40
0.0
 41
0.0
 42
0.0
 43
0.0
 44
558.8
 45
431.8
 46
0.0
 47
0.0
 48
0.0
 49
0.0
140
0.0
141
0.0
142
1.0
143
1.0
 70
0
 72
1
 73
0
 74
0
  7

 75
0
147
1.0
148
0.0
149
0.0
100
AcDbLayout
  1
Layout1
 70
0
 71
1
 10
0.0
 20
0.0
 11
558.8
 21
431.8
 12
0.0
 22
0.0
 32
0.0
 14
0.0
 24
0.0
 34
0.0
 15
0.0
 25
0.0
 35
0.0
146
0.0
 13
0.0
 23
0.0
 33
0.0
 16
1.0
 26
0.0
 36
0.0
 17
0.0
 27
1.0
 37
0.0
 76
0
330
217
345
0
346
0
  0
ENDSEC
  0
EOF
