999
DXF file: Y:\3D PRATIKA-KAEDRA_OLGA\TRAVAIL_PHASE_5\CAD3D\PKF16G723_3D-Simplified\PKF16G723_2D-isometric.dxf
999
Pro/ENGINEER 2018260 by Parametric Technology Corporation
  0
SECTION
  2
HEADER
  9
$ACADVER
  1
AC1027
  9
$DWGCODEPAGE
  3
ANSI_1252
  9
$EXTMAX
 10
558.8
 20
431.8
 30
0.0
  9
$EXTMIN
 10
0.0
 20
0.0
 30
0.0
  9
$LIMMIN
 10
0.0
 20
0.0
  9
$LIMMAX
 10
558.8
 20
431.8
  9
$VIEWCTR
 10
279.4
 20
215.9
  9
$VIEWSIZE
 40
431.8
  9
$CLAYER
  8
0
  9
$LTSCALE
 40
30.734
  9
$CELTYPE
  6
BYLAYER
  9
$DIMSCALE
 40
1.0
  9
$DIMASZ
 40
0.1875
  9
$DIMEXO
 40
0.0625
  9
$DIMDLI
 40
21.2344
  9
$DIMEXE
 40
0.125
  9
$DIMCEN
 40
5.0292
  9
$DIMLFAC
 40
1.0
  9
$DIMBLK
  1
_CLOSED
  9
$DIMALT
 70
0
  9
$DIMALTF
 40
0.0393700787
  9
$DIMTXT
 40
0.15625
  9
$DIMTOL
 70
0
  9
$DIMLIM
 70
0
  9
$DIMTFAC
 40
1.0
  9
$DIMGAP
 40
0.625
  9
$DIMDSEP
 70
46
  9
$AUNITS
 70
0
  9
$PDMODE
 70
3
  9
$PDSIZE
 40
0.3125
  9
$HANDSEED
  5
3EF
  9
$TILEMODE
 70
1
  9
$MEASUREMENT
 70
1
  9
$INSUNITS
 70
4
  0
ENDSEC
  0
SECTION
  2
CLASSES
  0
CLASS
  1
ACDBDICTIONARYWDFLT
  2
AcDbDictionaryWithDefault
  3
AutoCAD 2000
 90
0
 91
1
280
0
281
0
  0
CLASS
  1
ACDBPLACEHOLDER
  2
AcDbPlaceHolder
  3
AutoCAD 2000
 90
0
 91
1
280
0
281
0
  0
CLASS
  1
LAYOUT
  2
AcDbLayout
  3
AutoCAD 2000
 90
0
 91
0
280
0
281
0
  0
ENDSEC
  0
SECTION
  2
TABLES
  0
TABLE
  2
VPORT
  5
8
100
AcDbSymbolTable
 70
2
  0
VPORT
  5
1F4
100
AcDbSymbolTableRecord
100
AcDbViewportTableRecord
  2
*ACTIVE
 70
0
 10
0.0
 20
0.0
 11
1.0
 21
1.0
 12
279.4
 22
215.9
 13
0.0
 23
0.0
 14
1.0
 24
1.0
 15
0.0
 25
0.0
 16
0.0
 26
0.0
 36
1.0
 17
0.0
 27
0.0
 37
0.0
 40
431.8
 41
1.2941176471
 42
50.0
 43
0.0
 44
0.0
 50
0.0
 51
0.0
 71
0
 72
100
 73
1
 74
1
 75
0
 76
0
 77
0
 78
0
  0
ENDTAB
  0
TABLE
  2
LTYPE
  5
5
100
AcDbSymbolTable
 70
6
  0
LTYPE
  5
14
100
AcDbSymbolTableRecord
100
AcDbLinetypeTableRecord
  2
BYBLOCK
 70
0
  3

 72
65
 73
0
 40
0.0
  0
LTYPE
  5
15
100
AcDbSymbolTableRecord
100
AcDbLinetypeTableRecord
  2
BYLAYER
 70
0
  3

 72
65
 73
0
 40
0.0
  0
LTYPE
  5
16
100
AcDbSymbolTableRecord
100
AcDbLinetypeTableRecord
  2
CONTINUOUS
 70
64
  3
Solid line
 72
65
 73
0
 40
0.0
  0
LTYPE
  5
1F5
100
AcDbSymbolTableRecord
100
AcDbLinetypeTableRecord
  2
CENTER
 70
64
  3
____ _ ____ _ ____ _ ____ _ ____ _ ____ _ ____
 72
65
 73
4
 40
0.6
 49
0.375
 74
0
 49
-0.075
 74
0
 49
0.075
 74
0
 49
-0.075
 74
0
  0
LTYPE
  5
1F6
100
AcDbSymbolTableRecord
100
AcDbLinetypeTableRecord
  2
HIDDEN
 70
64
  3
- - - - - - - - - - - - - - - - - - - -
 72
65
 73
2
 40
0.2
 49
0.1
 74
0
 49
-0.1
 74
0
  0
LTYPE
  5
1F7
100
AcDbSymbolTableRecord
100
AcDbLinetypeTableRecord
  2
PHANTOM
 70
64
  3
_____ _ _ _____ _ _ _____ _ _ _____
 72
65
 73
6
 40
0.8
 49
0.45
 74
0
 49
-0.05
 74
0
 49
0.1
 74
0
 49
-0.05
 74
0
 49
0.1
 74
0
 49
-0.05
 74
0
  0
LTYPE
  5
1F8
100
AcDbSymbolTableRecord
100
AcDbLinetypeTableRecord
  2
DOT
 70
64
  3
. . . . . . . . . . . . . . . . . . . .
 72
65
 73
2
 40
0.2
 49
0.1
 74
0
 49
-0.1
 74
0
  0
LTYPE
  5
1F9
100
AcDbSymbolTableRecord
100
AcDbLinetypeTableRecord
  2
DASHED
 70
64
  3
- - - - - - - - - - - - - - - - - - - -
 72
65
 73
2
 40
0.2
 49
0.1
 74
0
 49
-0.1
 74
0
  0
ENDTAB
  0
TABLE
  2
LAYER
  5
2
100
AcDbSymbolTable
 70
36
  0
LAYER
  5
10
100
AcDbSymbolTableRecord
100
AcDbLayerTableRecord
  2
0
 70
0
 62
7
  6
CONTINUOUS
370
-3
390
F
  0
LAYER
  5
1FA
100
AcDbSymbolTableRecord
100
AcDbLayerTableRecord
  2
DEFAULT_1
 70
0
 62
7
  6
CENTER
370
-3
390
F
  0
LAYER
  5
1FB
100
AcDbSymbolTableRecord
100
AcDbLayerTableRecord
  2
DEFAULT_2
 70
0
 62
8
  6
HIDDEN
370
-3
390
F
  0
LAYER
  5
1FC
100
AcDbSymbolTableRecord
100
AcDbLayerTableRecord
  2
DEFAULT_3
 70
0
 62
7
  6
PHANTOM
370
-3
390
F
  0
LAYER
  5
1FD
100
AcDbSymbolTableRecord
100
AcDbLayerTableRecord
  2
01_ALL_DTM_PLN
 70
0
 62
7
  6
CONTINUOUS
370
-3
390
F
  0
LAYER
  5
1FE
100
AcDbSymbolTableRecord
100
AcDbLayerTableRecord
  2
01__ASM_ALL_DTM_PLN
 70
0
 62
7
  6
CONTINUOUS
370
-3
390
F
  0
LAYER
  5
1FF
100
AcDbSymbolTableRecord
100
AcDbLayerTableRecord
  2
01__ASM_DEF_DTM_PLN
 70
0
 62
7
  6
CONTINUOUS
370
-3
390
F
  0
LAYER
  5
200
100
AcDbSymbolTableRecord
100
AcDbLayerTableRecord
  2
01___PRT_ALL_DTM_PLN
 70
0
 62
7
  6
CONTINUOUS
370
-3
390
F
  0
LAYER
  5
201
100
AcDbSymbolTableRecord
100
AcDbLayerTableRecord
  2
01___PRT_DEF_DTM_PLN
 70
0
 62
7
  6
CONTINUOUS
370
-3
390
F
  0
LAYER
  5
202
100
AcDbSymbolTableRecord
100
AcDbLayerTableRecord
  2
02_ALL_AXES
 70
0
 62
7
  6
CONTINUOUS
370
-3
390
F
  0
LAYER
  5
203
100
AcDbSymbolTableRecord
100
AcDbLayerTableRecord
  2
02__ASM_ALL_AXES
 70
0
 62
7
  6
CONTINUOUS
370
-3
390
F
  0
LAYER
  5
204
100
AcDbSymbolTableRecord
100
AcDbLayerTableRecord
  2
02___PRT_ALL_AXES
 70
0
 62
7
  6
CONTINUOUS
370
-3
390
F
  0
LAYER
  5
205
100
AcDbSymbolTableRecord
100
AcDbLayerTableRecord
  2
03_ALL_CURVES
 70
0
 62
7
  6
CONTINUOUS
370
-3
390
F
  0
LAYER
  5
206
100
AcDbSymbolTableRecord
100
AcDbLayerTableRecord
  2
03__ASM_ALL_CURVES
 70
0
 62
7
  6
CONTINUOUS
370
-3
390
F
  0
LAYER
  5
207
100
AcDbSymbolTableRecord
100
AcDbLayerTableRecord
  2
03___PRT_ALL_CURVES
 70
0
 62
7
  6
CONTINUOUS
370
-3
390
F
  0
LAYER
  5
208
100
AcDbSymbolTableRecord
100
AcDbLayerTableRecord
  2
04_ALL_DTM_PNT
 70
0
 62
7
  6
CONTINUOUS
370
-3
390
F
  0
LAYER
  5
209
100
AcDbSymbolTableRecord
100
AcDbLayerTableRecord
  2
04__ASM_ALL_DTM_PNT
 70
0
 62
7
  6
CONTINUOUS
370
-3
390
F
  0
LAYER
  5
20A
100
AcDbSymbolTableRecord
100
AcDbLayerTableRecord
  2
04___PRT_ALL_DTM_PNT
 70
0
 62
7
  6
CONTINUOUS
370
-3
390
F
  0
LAYER
  5
20B
100
AcDbSymbolTableRecord
100
AcDbLayerTableRecord
  2
05_ALL_DTM_CSYS
 70
0
 62
7
  6
CONTINUOUS
370
-3
390
F
  0
LAYER
  5
20C
100
AcDbSymbolTableRecord
100
AcDbLayerTableRecord
  2
05__ASM_ALL_DTM_CSYS
 70
0
 62
7
  6
CONTINUOUS
370
-3
390
F
  0
LAYER
  5
20D
100
AcDbSymbolTableRecord
100
AcDbLayerTableRecord
  2
05__ASM_DEF_DTM_CSYS
 70
0
 62
7
  6
CONTINUOUS
370
-3
390
F
  0
LAYER
  5
20E
100
AcDbSymbolTableRecord
100
AcDbLayerTableRecord
  2
05___PRT_ALL_DTM_CSYS
 70
0
 62
7
  6
CONTINUOUS
370
-3
390
F
  0
LAYER
  5
20F
100
AcDbSymbolTableRecord
100
AcDbLayerTableRecord
  2
05___PRT_DEF_DTM_CSYS
 70
0
 62
7
  6
CONTINUOUS
370
-3
390
F
  0
LAYER
  5
210
100
AcDbSymbolTableRecord
100
AcDbLayerTableRecord
  2
06_ALL_SURFS
 70
0
 62
7
  6
CONTINUOUS
370
-3
390
F
  0
LAYER
  5
211
100
AcDbSymbolTableRecord
100
AcDbLayerTableRecord
  2
06__ASM_ALL_SURFS
 70
0
 62
7
  6
CONTINUOUS
370
-3
390
F
  0
LAYER
  5
212
100
AcDbSymbolTableRecord
100
AcDbLayerTableRecord
  2
06___PRT_ALL_SURFS
 70
0
 62
7
  6
CONTINUOUS
370
-3
390
F
  0
LAYER
  5
213
100
AcDbSymbolTableRecord
100
AcDbLayerTableRecord
  2
07__ASM_ALL_SKELETONS
 70
0
 62
7
  6
CONTINUOUS
370
-3
390
F
  0
ENDTAB
  0
TABLE
  2
STYLE
  5
3
100
AcDbSymbolTable
 70
1
  0
STYLE
  5
11
100
AcDbSymbolTableRecord
100
AcDbTextStyleTableRecord
  2
STANDARD
 70
0
 40
0.0
 41
0.8
 50
0.0
 71
0
 42
0.2
  3
txt
  4

  0
STYLE
  5
214
100
AcDbSymbolTableRecord
100
AcDbTextStyleTableRecord
  2
TEXTSTYLE_1
 70
0
 40
0.0
 41
0.8
 50
0.0
 71
0
 42
0.2
  3
gdt
  4

  0
ENDTAB
  0
TABLE
  2
VIEW
  5
6
100
AcDbSymbolTable
 70
0
  0
ENDTAB
  0
TABLE
  2
UCS
  5
7
100
AcDbSymbolTable
 70
0
  0
ENDTAB
  0
TABLE
  2
APPID
  5
9
100
AcDbSymbolTable
 70
1
  0
APPID
  5
215
100
AcDbSymbolTableRecord
100
AcDbRegAppTableRecord
  2
ACAD
 70
0
  0
ENDTAB
  0
TABLE
  2
BLOCK_RECORD
  5
1
100
AcDbSymbolTable
 70
0
  0
BLOCK_RECORD
  5
216
100
AcDbSymbolTableRecord
100
AcDbBlockTableRecord
  2
*Model_Space
  0
BLOCK_RECORD
  5
217
100
AcDbSymbolTableRecord
100
AcDbBlockTableRecord
  2
*Paper_Space
  0
BLOCK_RECORD
  5
218
100
AcDbSymbolTableRecord
100
AcDbBlockTableRecord
  2
_CLOSED
  0
ENDTAB
  0
TABLE
  2
DIMSTYLE
  5
A
100
AcDbSymbolTable
 70
1
100
AcDbDimStyleTable
 71
0
  0
DIMSTYLE
105
219
100
AcDbSymbolTableRecord
100
AcDbDimStyleTableRecord
  2
STANDARD
 70
0
  3

  4

 40
1.0
 41
0.1875
 42
0.0625
 43
0.38
 44
0.125
 45
0.0
 46
0.0
 47
0.01
 48
0.01
140
0.15625
141
0.09
142
0.0
143
25.4
144
1.0
145
0.0
146
1.0
147
0.625
 71
0.0
 72
0.0
 73
1
 74
1
 75
0
 76
0
 77
0
 78
8
 79
2
170
0
171
1
172
0
173
0
174
0
175
0
176
0
177
0
178
0
270
2
179
2
271
2
272
2
273
2
274
2
275
0
280
0
281
0
282
0
283
1
284
8
285
0
286
0
287
3
288
0
340
11
278
46
341
218
342
218
343
218
344
218
  0
ENDTAB
  0
ENDSEC
  0
SECTION
  2
BLOCKS
  0
BLOCK
  5
20
100
AcDbEntity
  8
0
100
AcDbBlockBegin
  2
*Model_Space
 70
0
 10
0.0
 20
0.0
 30
0.0
  3
*Model_Space
  1

  0
ENDBLK
  5
21
100
AcDbEntity
  8
0
100
AcDbBlockEnd
  0
BLOCK
  5
1C
100
AcDbEntity
  8
0
100
AcDbBlockBegin
  2
*Paper_Space
 70
0
 10
0.0
 20
0.0
 30
0.0
  3
*Paper_Space
  1

  0
ENDBLK
  5
1D
100
AcDbEntity
  8
0
100
AcDbBlockEnd
  0
BLOCK
  5
21A
100
AcDbEntity
  8
0
100
AcDbBlockBegin
  2
_CLOSED
 70
64
 10
0.0
 20
0.0
  3
_CLOSED
  1

  0
LINE
  5
21B
100
AcDbEntity
  8
0
  6
BYBLOCK
 62
0
100
AcDbLine
 10
0.0
 20
0.0
 11
-1.0
 21
0.1666666667
  0
LINE
  5
21C
100
AcDbEntity
  8
0
  6
BYBLOCK
 62
0
100
AcDbLine
 10
-1.0
 20
0.1666666667
 11
-1.0
 21
-0.1666666667
  0
LINE
  5
21D
100
AcDbEntity
  8
0
  6
BYBLOCK
 62
0
100
AcDbLine
 10
-1.0
 20
-0.1666666667
 11
0.0
 21
0.0
  0
LINE
  5
21E
100
AcDbEntity
  8
0
  6
BYBLOCK
 62
0
100
AcDbLine
 10
-1.0
 20
0.0
 11
0.0
 21
0.0
  0
ENDBLK
  5
21F
100
AcDbEntity
  8
0
  6
BYBLOCK
 62
0
100
AcDbBlockEnd
  0
ENDSEC
  0
SECTION
  2
ENTITIES
  0
LWPOLYLINE
  5
220
100
AcDbEntity
  8
0
100
AcDbPolyline
 62
7
  6
CONTINUOUS
 90
6
 70
0
 10
-11.4973463399
 20
287.8018992021
 10
-11.8733980106
 20
287.6815423794
 10
-13.1738070554
 20
286.8395415537
 10
-14.1423786376
 20
285.3721093973
 10
-14.7388397157
 20
283.2152132066
 10
-14.9449127572
 20
280.9878512742
  0
LINE
  5
221
100
AcDbEntity
  8
0
100
AcDbLine
 62
7
  6
CONTINUOUS
 10
-6.3043151945
 20
282.5844859792
 11
-6.9773581685
 21
282.1803335875
  0
LINE
  5
222
100
AcDbEntity
  8
0
100
AcDbLine
 62
7
  6
CONTINUOUS
 10
-6.7868491665
 20
281.7651448733
 11
-6.7710222432
 21
281.7741470898
  0
LINE
  5
223
100
AcDbEntity
  8
0
100
AcDbLine
 62
7
  6
CONTINUOUS
 10
-5.3410676053
 20
283.0965907616
 11
-6.3039770642
 21
282.5846890214
  0
LINE
  5
224
100
AcDbEntity
  8
0
100
AcDbLine
 62
7
  6
CONTINUOUS
 10
-6.7687719859
 20
281.7474616445
 11
-6.7520241663
 21
281.7555318459
  0
LINE
  5
225
100
AcDbEntity
  8
0
100
AcDbLine
 62
7
  6
CONTINUOUS
 10
-6.6267142332
 20
301.420693796
 11
-6.6134300002
 21
301.4359086044
  0
LINE
  5
226
100
AcDbEntity
  8
0
100
AcDbLine
 62
7
  6
CONTINUOUS
 10
-6.6905073051
 20
301.4299675531
 11
-6.6762837093
 21
301.4450841586
  0
LWPOLYLINE
  5
227
100
AcDbEntity
  8
0
100
AcDbPolyline
 62
7
  6
CONTINUOUS
 90
5
 70
0
 10
-6.9613437712
 20
282.1899258356
 10
-7.6754592909
 20
281.7146110464
 10
-9.3441321052
 20
280.0869466736
 10
-10.5848076772
 20
277.9797024181
 10
-11.3027904533
 20
275.7619145223
  0
LINE
  5
228
100
AcDbEntity
  8
0
100
AcDbLine
 62
7
  6
CONTINUOUS
 10
3.1823793017
 20
283.3394231955
 11
3.1063569272
 21
283.2935079454
  0
LINE
  5
229
100
AcDbEntity
  8
0
100
AcDbLine
 62
7
  6
CONTINUOUS
 10
40.5011645872
 20
283.1606717529
 11
40.4752111033
 21
283.1500798017
  0
LINE
  5
22A
100
AcDbEntity
  8
0
100
AcDbLine
 62
7
  6
CONTINUOUS
 10
-11.3148014869
 20
296.9669773887
 11
-11.3206066976
 21
296.9523518095
  0
LINE
  5
22B
100
AcDbEntity
  8
0
100
AcDbLine
 62
7
  6
CONTINUOUS
 10
0.9436967312
 20
219.0771362864
 11
-29.9797667089
 21
210.7879323679
  0
LINE
  5
22C
100
AcDbEntity
  8
0
100
AcDbLine
 62
7
  6
CONTINUOUS
 10
-30.9931946799
 20
211.3732695428
 11
-35.4188146669
 21
210.1869578411
  0
LINE
  5
22D
100
AcDbEntity
  8
0
100
AcDbLine
 62
7
  6
CONTINUOUS
 10
-5.7278784638
 20
222.0577765651
 11
-11.6813740033
 21
220.4617984592
  0
LINE
  5
22E
100
AcDbEntity
  8
0
100
AcDbLine
 62
7
  6
CONTINUOUS
 10
-42.873873174
 20
215.9258583917
 11
-42.873873174
 21
282.1179505588
  0
LINE
  5
22F
100
AcDbEntity
  8
0
100
AcDbLine
 62
7
  6
CONTINUOUS
 10
-40.7907156781
 20
214.7226653099
 11
-40.7907156781
 21
225.1617098454
  0
LINE
  5
230
100
AcDbEntity
  8
0
100
AcDbLine
 62
7
  6
CONTINUOUS
 10
-40.7907156781
 20
270.4757129414
 11
-40.7907156781
 21
280.9147574769
  0
LINE
  5
231
100
AcDbEntity
  8
0
100
AcDbLine
 62
7
  6
CONTINUOUS
 10
-39.7772877072
 20
224.5763726705
 11
-39.7772877072
 21
269.8903757665
  0
LINE
  5
232
100
AcDbEntity
  8
0
100
AcDbLine
 62
7
  6
CONTINUOUS
 10
-11.2553990029
 20
296.9401293776
 11
-11.2603479166
 21
296.9251471495
  0
LINE
  5
233
100
AcDbEntity
  8
0
100
AcDbLine
 62
7
  6
CONTINUOUS
 10
-34.4053866959
 20
226.0163401889
 11
-39.7772877072
 21
224.5763726705
  0
LINE
  5
234
100
AcDbEntity
  8
0
100
AcDbLine
 62
7
  6
CONTINUOUS
 10
-40.7529479408
 20
211.7372242641
 11
-38.6697904449
 21
210.5340311823
  0
LINE
  5
235
100
AcDbEntity
  8
0
100
AcDbLine
 62
7
  6
CONTINUOUS
 10
-42.873873174
 20
215.9258583917
 11
-40.7907156781
 21
214.7226653099
  0
LINE
  5
236
100
AcDbEntity
  8
0
100
AcDbLine
 62
7
  6
CONTINUOUS
 10
-30.9931946799
 20
211.3732695428
 11
-29.9797667089
 21
210.7879323679
  0
LINE
  5
237
100
AcDbEntity
  8
0
100
AcDbLine
 62
7
  6
CONTINUOUS
 10
-30.9931946799
 20
289.5167116845
 11
-30.9931946799
 21
278.0250290166
  0
LINE
  5
238
100
AcDbEntity
  8
0
100
AcDbLine
 62
7
  6
CONTINUOUS
 10
-30.9931946799
 20
222.8649522107
 11
-30.9931946799
 21
211.3732695428
  0
LINE
  5
239
100
AcDbEntity
  8
0
100
AcDbLine
 62
7
  6
CONTINUOUS
 10
-29.9797667089
 20
222.2796150358
 11
-29.9797667089
 21
210.7879323679
  0
LINE
  5
23A
100
AcDbEntity
  8
0
100
AcDbLine
 62
7
  6
CONTINUOUS
 10
-29.9797667089
 20
277.4396918417
 11
-29.9797667089
 21
288.9313745095
  0
LINE
  5
23B
100
AcDbEntity
  8
0
100
AcDbLine
 62
7
  6
CONTINUOUS
 10
-26.1409236016
 20
277.75857981
 11
-26.1409236016
 21
281.4607289349
  0
LINE
  5
23C
100
AcDbEntity
  8
0
100
AcDbLine
 62
7
  6
CONTINUOUS
 10
-11.4132929163
 20
297.0206902137
 11
-11.4104268843
 21
297.0375933937
  0
LINE
  5
23D
100
AcDbEntity
  8
0
100
AcDbLine
 62
7
  6
CONTINUOUS
 10
-11.6450588746
 20
297.0688414136
 11
-11.6805529145
 21
296.8694835192
  0
LINE
  5
23E
100
AcDbEntity
  8
0
100
AcDbLine
 62
7
  6
CONTINUOUS
 10
-11.3955589625
 20
296.9917582551
 11
-11.391809182
 21
297.0071519925
  0
LINE
  5
23F
100
AcDbEntity
  8
0
100
AcDbLine
 62
7
  6
CONTINUOUS
 10
-2.3351863656
 20
272.6072934066
 11
-2.8206296016
 21
271.4621898522
  0
LINE
  5
240
100
AcDbEntity
  8
0
100
AcDbLine
 62
7
  6
CONTINUOUS
 10
-2.2335822835
 20
272.8182073362
 11
-2.3362525821
 21
272.6050776226
  0
LINE
  5
241
100
AcDbEntity
  8
0
100
AcDbLine
 62
7
  6
CONTINUOUS
 10
49.7159035138
 20
286.8613208753
 11
49.7015483615
 21
286.8475700553
  0
LINE
  5
242
100
AcDbEntity
  8
0
100
AcDbLine
 62
7
  6
CONTINUOUS
 10
-40.7907156781
 20
225.1617098454
 11
-39.7772877072
 21
224.5763726705
  0
LINE
  5
243
100
AcDbEntity
  8
0
100
AcDbLine
 62
7
  6
CONTINUOUS
 10
-29.9797667089
 20
222.2796150358
 11
-30.9931946799
 21
222.8649522107
  0
LINE
  5
244
100
AcDbEntity
  8
0
100
AcDbLine
 62
7
  6
CONTINUOUS
 10
-14.9421043336
 20
280.9516993491
 11
-14.9405229594
 21
280.989878363
  0
LINE
  5
245
100
AcDbEntity
  8
0
100
AcDbLine
 62
7
  6
CONTINUOUS
 10
-11.6739619308
 20
296.8682688172
 11
-11.6945306682
 21
296.5957630937
  0
LINE
  5
246
100
AcDbEntity
  8
0
100
AcDbLine
 62
7
  6
CONTINUOUS
 10
-14.942101968
 20
280.9517045633
 11
-14.939033469
 21
280.9873450923
  0
LINE
  5
247
100
AcDbEntity
  8
0
100
AcDbLine
 62
7
  6
CONTINUOUS
 10
-13.970551113
 20
292.1980097322
 11
-13.9705010527
 21
292.1984145367
  0
LINE
  5
248
100
AcDbEntity
  8
0
100
AcDbLine
 62
7
  6
CONTINUOUS
 10
-11.6450588746
 20
297.0688414136
 11
-11.6751245204
 21
296.86844324
  0
LINE
  5
249
100
AcDbEntity
  8
0
100
AcDbLine
 62
7
  6
CONTINUOUS
 10
15.2526351147
 20
281.421868665
 11
15.2270272641
 21
281.3680045277
  0
LINE
  5
24A
100
AcDbEntity
  8
0
100
AcDbLine
 62
7
  6
CONTINUOUS
 10
5.2063625528
 20
216.6134950447
 11
7.6322845382
 21
215.2136699028
  0
LINE
  5
24B
100
AcDbEntity
  8
0
100
AcDbLine
 62
7
  6
CONTINUOUS
 10
-11.6813721909
 20
220.4618185425
 11
-12.9144038104
 21
221.174054295
  0
LINE
  5
24C
100
AcDbEntity
  8
0
100
AcDbLine
 62
7
  6
CONTINUOUS
 10
-25.1713321305
 20
233.2174596159
 11
-17.107903836
 21
228.5601731846
  0
LINE
  5
24D
100
AcDbEntity
  8
0
100
AcDbLine
 62
7
  6
CONTINUOUS
 10
-5.8112394595
 20
222.0354296391
 11
-3.4952338626
 21
220.6977478185
  0
LINE
  5
24E
100
AcDbEntity
  8
0
100
AcDbLine
 62
7
  6
CONTINUOUS
 10
2.0056255785
 20
218.9139814429
 11
5.9074599348
 21
216.6603543824
  0
LINE
  5
24F
100
AcDbEntity
  8
0
100
AcDbLine
 62
7
  6
CONTINUOUS
 10
-14.9421025972
 20
280.9517035454
 11
-14.9440080772
 21
280.9878455384
  0
LINE
  5
250
100
AcDbEntity
  8
0
100
AcDbLine
 62
7
  6
CONTINUOUS
 10
-12.065535116
 20
269.6288968247
 11
-12.065535116
 21
276.903134608
  0
LINE
  5
251
100
AcDbEntity
  8
0
100
AcDbLine
 62
7
  6
CONTINUOUS
 10
-8.9663614552
 20
274.1263991221
 11
-8.966361455
 21
270.4593330081
  0
LINE
  5
252
100
AcDbEntity
  8
0
100
AcDbLine
 62
7
  6
CONTINUOUS
 10
-11.6950939044
 20
296.5822328064
 11
-11.6945306682
 21
296.5957630937
  0
LINE
  5
253
100
AcDbEntity
  8
0
100
AcDbLine
 62
7
  6
CONTINUOUS
 10
21.0678995077
 20
263.0903074739
 11
26.9458987403
 21
264.666010975
  0
LINE
  5
254
100
AcDbEntity
  8
0
100
AcDbLine
 62
7
  6
CONTINUOUS
 10
19.8432464665
 20
263.8047748767
 11
25.7122812062
 21
265.3780053287
  0
LINE
  5
255
100
AcDbEntity
  8
0
100
AcDbLine
 62
7
  6
CONTINUOUS
 10
5.8664339262
 20
220.8908064925
 11
-7.9348238222
 21
228.8621566551
  0
LINE
  5
256
100
AcDbEntity
  8
0
100
AcDbLine
 62
7
  6
CONTINUOUS
 10
-9.0196651642
 20
231.9725386821
 11
-0.5572882529
 21
227.0848269389
  0
LINE
  5
257
100
AcDbEntity
  8
0
100
AcDbLine
 62
7
  6
CONTINUOUS
 10
5.9345237158
 20
225.7423301765
 11
11.6501995411
 21
222.4410619696
  0
LINE
  5
258
100
AcDbEntity
  8
0
100
AcDbLine
 62
7
  6
CONTINUOUS
 10
-4.6325124304
 20
296.2188413457
 11
-4.6325124304
 21
297.8468291989
  0
LINE
  5
259
100
AcDbEntity
  8
0
100
AcDbLine
 62
7
  6
CONTINUOUS
 10
-4.7825053499
 20
297.1003751972
 11
-4.7825124304
 21
297.0927889316
  0
LINE
  5
25A
100
AcDbEntity
  8
0
100
AcDbLine
 62
7
  6
CONTINUOUS
 10
7.632284527
 20
215.2136698989
 11
7.6323332933
 21
216.2401024074
  0
LINE
  5
25B
100
AcDbEntity
  8
0
100
AcDbLine
 62
7
  6
CONTINUOUS
 10
5.2063625528
 20
216.6134950447
 11
5.2185649055
 21
217.0582473574
  0
LINE
  5
25C
100
AcDbEntity
  8
0
100
AcDbLine
 62
7
  6
CONTINUOUS
 10
-34.4053866959
 20
271.330343285
 11
-39.7772877072
 21
269.8903757665
  0
LINE
  5
25D
100
AcDbEntity
  8
0
100
AcDbLine
 62
7
  6
CONTINUOUS
 10
-35.4188146669
 20
271.9156804599
 11
-40.7907156781
 21
270.4757129414
  0
LINE
  5
25E
100
AcDbEntity
  8
0
100
AcDbLine
 62
7
  6
CONTINUOUS
 10
28.3887153589
 20
281.1292469625
 11
28.3551202382
 21
281.1233183471
  0
LINE
  5
25F
100
AcDbEntity
  8
0
100
AcDbLine
 62
7
  6
CONTINUOUS
 10
54.954580714
 20
277.1026555707
 11
55.3593266275
 21
277.1358315168
  0
LINE
  5
260
100
AcDbEntity
  8
0
100
AcDbLine
 62
7
  6
CONTINUOUS
 10
-40.7907156781
 20
270.4757129414
 11
-39.7772877072
 21
269.8903757665
  0
LINE
  5
261
100
AcDbEntity
  8
0
100
AcDbLine
 62
7
  6
CONTINUOUS
 10
-34.4053866959
 20
271.330343285
 11
-35.4188146669
 21
271.9156804599
  0
LINE
  5
262
100
AcDbEntity
  8
0
100
AcDbLine
 62
7
  6
CONTINUOUS
 10
-15.9240501409
 20
253.8184463317
 11
-29.9897139921
 21
261.9677989189
  0
LINE
  5
263
100
AcDbEntity
  8
0
100
AcDbLine
 62
7
  6
CONTINUOUS
 10
-6.1038879229
 20
286.9283892498
 11
-6.2188878516
 21
286.897492325
  0
LINE
  5
264
100
AcDbEntity
  8
0
100
AcDbLine
 62
7
  6
CONTINUOUS
 10
-11.5079019034
 20
287.7990819679
 11
-10.5139131097
 21
288.0655261139
  0
LINE
  5
265
100
AcDbEntity
  8
0
100
AcDbLine
 62
7
  6
CONTINUOUS
 10
-14.3056120642
 20
288.5573975352
 11
-16.1512707252
 21
288.062658612
  0
LINE
  5
266
100
AcDbEntity
  8
0
100
AcDbLine
 62
7
  6
CONTINUOUS
 10
-14.2682911085
 20
288.9807659921
 11
-18.9186980414
 21
287.7425826618
  0
LINE
  5
267
100
AcDbEntity
  8
0
100
AcDbLine
 62
7
  6
CONTINUOUS
 10
47.6876603169
 20
272.4295297457
 11
48.0938539519
 21
272.399230706
  0
LINE
  5
268
100
AcDbEntity
  8
0
100
AcDbLine
 62
7
  6
CONTINUOUS
 10
-40.7907156781
 20
280.9147574769
 11
-42.873873174
 21
282.1179505588
  0
LINE
  5
269
100
AcDbEntity
  8
0
100
AcDbLine
 62
7
  6
CONTINUOUS
 10
-30.9931946799
 20
278.0250290166
 11
-29.9797667089
 21
277.4396918417
  0
LINE
  5
26A
100
AcDbEntity
  8
0
100
AcDbLine
 62
7
  6
CONTINUOUS
 10
-26.1409236016
 20
277.75857981
 11
-12.065535116
 21
269.6288968247
  0
LINE
  5
26B
100
AcDbEntity
  8
0
100
AcDbLine
 62
7
  6
CONTINUOUS
 10
-4.9077918678
 20
266.0934605031
 11
-2.5480447327
 21
264.7305143824
  0
LINE
  5
26C
100
AcDbEntity
  8
0
100
AcDbLine
 62
7
  6
CONTINUOUS
 10
-12.1488258818
 20
293.7110559596
 11
-29.9797667089
 21
288.9313745095
  0
LINE
  5
26D
100
AcDbEntity
  8
0
100
AcDbLine
 62
7
  6
CONTINUOUS
 10
-35.4188146669
 20
288.3303999827
 11
-30.9931946799
 21
289.5167116845
  0
LINE
  5
26E
100
AcDbEntity
  8
0
100
AcDbLine
 62
7
  6
CONTINUOUS
 10
-37.5019721627
 20
289.5335930645
 11
-11.7394988905
 21
296.4393652726
  0
LWPOLYLINE
  5
26F
100
AcDbEntity
  8
0
100
AcDbPolyline
 62
7
  6
CONTINUOUS
 90
5
 70
0
 10
-13.2060742459
 20
293.1578427175
 10
-13.2818500225
 20
293.1478029297
 10
-13.6730244576
 20
292.9320368513
 10
-13.9058271485
 20
292.513829464
 10
-13.9705282391
 20
292.1983017258
  0
LINE
  5
270
100
AcDbEntity
  8
0
100
AcDbLine
 62
7
  6
CONTINUOUS
 10
-11.1930320316
 20
291.6427090923
 11
-11.3292987846
 21
291.6313931053
  0
LINE
  5
271
100
AcDbEntity
  8
0
100
AcDbLine
 62
7
  6
CONTINUOUS
 10
15.2225695534
 20
281.0763127031
 11
15.1864497374
 21
281.0758416679
  0
LINE
  5
272
100
AcDbEntity
  8
0
100
AcDbLine
 62
7
  6
CONTINUOUS
 10
3.0071447841
 20
283.0099301489
 11
2.9740103362
 21
283.0148778933
  0
LINE
  5
273
100
AcDbEntity
  8
0
100
AcDbLine
 62
7
  6
CONTINUOUS
 10
36.4289401525
 20
269.2063487087
 11
36.7747583631
 21
269.1171951863
  0
LINE
  5
274
100
AcDbEntity
  8
0
100
AcDbLine
 62
7
  6
CONTINUOUS
 10
8.4419626997
 20
262.3054124466
 11
16.9478884082
 21
257.392547727
  0
LINE
  5
275
100
AcDbEntity
  8
0
100
AcDbLine
 62
7
  6
CONTINUOUS
 10
-37.5019721627
 20
289.5335930645
 11
-35.4188146669
 21
288.3303999827
  0
LINE
  5
276
100
AcDbEntity
  8
0
100
AcDbLine
 62
7
  6
CONTINUOUS
 10
-30.9931946799
 20
289.5167116845
 11
-29.9797667089
 21
288.9313745095
  0
LINE
  5
277
100
AcDbEntity
  8
0
100
AcDbLine
 62
7
  6
CONTINUOUS
 10
9.139083577
 20
268.7772055974
 11
9.2233984707
 21
268.6179475355
  0
LWPOLYLINE
  5
278
100
AcDbEntity
  8
0
100
AcDbPolyline
 62
7
  6
CONTINUOUS
 90
4
 70
0
 10
-10.5796514891
 20
298.2961195048
 10
-10.8322461333
 20
298.2586116247
 10
-11.3857114788
 20
297.7840148413
 10
-11.6478327735
 20
297.0531407368
  0
LINE
  5
279
100
AcDbEntity
  8
0
100
AcDbLine
 62
7
  6
CONTINUOUS
 10
-12.1402624262
 20
293.2452007113
 11
-13.2094827453
 21
293.1575803859
  0
LINE
  5
27A
100
AcDbEntity
  8
0
100
AcDbLine
 62
7
  6
CONTINUOUS
 10
-13.206461428
 20
293.1578112235
 11
-13.2094827453
 21
293.1575803859
  0
LINE
  5
27B
100
AcDbEntity
  8
0
100
AcDbLine
 62
7
  6
CONTINUOUS
 10
-6.4229649895
 20
286.6452245953
 11
-6.3977520046
 21
286.635629768
  0
LINE
  5
27C
100
AcDbEntity
  8
0
100
AcDbLine
 62
7
  6
CONTINUOUS
 10
-6.243398687
 20
286.9079809962
 11
-6.2189380832
 21
286.8975141427
  0
LINE
  5
27D
100
AcDbEntity
  8
0
100
AcDbLine
 62
7
  6
CONTINUOUS
 10
26.945890267
 20
264.6659170913
 11
25.7122812062
 21
265.3780053287
  0
LINE
  5
27E
100
AcDbEntity
  8
0
100
AcDbLine
 62
7
  6
CONTINUOUS
 10
13.4118060081
 20
267.5194554426
 11
21.0125157904
 21
263.1294266305
  0
LINE
  5
27F
100
AcDbEntity
  8
0
100
AcDbLine
 62
7
  6
CONTINUOUS
 10
22.89249691
 20
267.9238250263
 11
23.1252695568
 21
267.7893851138
  0
LINE
  5
280
100
AcDbEntity
  8
0
100
AcDbLine
 62
7
  6
CONTINUOUS
 10
-11.5605493672
 20
291.4016582927
 11
-11.573871452
 21
291.4141988601
  0
LINE
  5
281
100
AcDbEntity
  8
0
100
AcDbLine
 62
7
  6
CONTINUOUS
 10
47.5674875696
 20
296.0902615312
 11
47.5674875696
 21
297.8468291989
  0
LINE
  5
282
100
AcDbEntity
  8
0
100
AcDbLine
 62
7
  6
CONTINUOUS
 10
54.2446884806
 20
291.8735211356
 11
54.3815881281
 21
291.8634571039
  0
LINE
  5
283
100
AcDbEntity
  8
0
100
AcDbLine
 62
7
  6
CONTINUOUS
 10
-11.3097112588
 20
296.7643516151
 11
-11.4466123631
 21
296.774416626
  0
LINE
  5
284
100
AcDbEntity
  8
0
100
AcDbLine
 62
7
  6
CONTINUOUS
 10
54.6300692657
 20
291.6678033205
 11
54.6295058065
 21
291.6528797448
  0
LINE
  5
285
100
AcDbEntity
  8
0
100
AcDbLine
 62
7
  6
CONTINUOUS
 10
49.3713184983
 20
287.124162922
 11
49.4880288799
 21
287.094262898
  0
LINE
  5
286
100
AcDbEntity
  8
0
100
AcDbLine
 62
7
  6
CONTINUOUS
 10
40.2503629447
 20
283.4702948771
 11
40.3287523475
 21
283.4250223937
  0
LINE
  5
287
100
AcDbEntity
  8
0
100
AcDbLine
 62
7
  6
CONTINUOUS
 10
28.2690069831
 20
281.4677855455
 11
28.297734825
 21
281.4141659087
  0
LWPOLYLINE
  5
288
100
AcDbEntity
  8
0
100
AcDbPolyline
 62
7
  6
CONTINUOUS
 90
3
 70
0
 10
57.879924131
 20
282.9293922994
 10
57.688311718
 20
286.1618763887
 10
57.1443164738
 20
289.9367709661
  0
LINE
  5
289
100
AcDbEntity
  8
0
100
AcDbLine
 62
7
  6
CONTINUOUS
 10
54.7396825135
 20
295.2771757519
 11
54.8323281208
 21
294.7690928011
  0
LWPOLYLINE
  5
28A
100
AcDbEntity
  8
0
100
AcDbPolyline
 62
7
  6
CONTINUOUS
 90
5
 70
0
 10
56.6643444465
 20
291.5915598784
 10
56.5351778357
 20
292.3434220404
 10
56.0136259261
 20
294.2842090066
 10
55.2772427503
 20
295.8592897241
 10
54.4587686961
 20
296.936097613
  0
LINE
  5
28B
100
AcDbEntity
  8
0
100
AcDbLine
 62
7
  6
CONTINUOUS
 10
56.6650150805
 20
291.5869184951
 11
56.6643170517
 21
291.5915656259
  0
LINE
  5
28C
100
AcDbEntity
  8
0
100
AcDbLine
 62
7
  6
CONTINUOUS
 10
55.0497810057
 20
289.5311770811
 11
55.0383929611
 21
289.6152617139
  0
LINE
  5
28D
100
AcDbEntity
  8
0
100
AcDbLine
 62
7
  6
CONTINUOUS
 10
54.2820754237
 20
296.8848723502
 11
54.2754804096
 21
296.9018652042
  0
LINE
  5
28E
100
AcDbEntity
  8
0
100
AcDbLine
 62
7
  6
CONTINUOUS
 10
54.210236572
 20
296.8521417254
 11
54.2044193835
 21
296.8694464896
  0
LINE
  5
28F
100
AcDbEntity
  8
0
100
AcDbLine
 62
7
  6
CONTINUOUS
 10
57.1443164738
 20
289.9367709661
 11
56.6033071688
 21
291.9468499904
  0
LINE
  5
290
100
AcDbEntity
  8
0
100
AcDbLine
 62
7
  6
CONTINUOUS
 10
49.2439549072
 20
301.7333832787
 11
49.2623949744
 21
301.7154707211
  0
LINE
  5
291
100
AcDbEntity
  8
0
100
AcDbLine
 62
7
  6
CONTINUOUS
 10
49.3166757581
 20
301.7448951363
 11
49.335018642
 21
301.7269128118
  0
LWPOLYLINE
  5
292
100
AcDbEntity
  8
0
100
AcDbPolyline
 62
7
  6
CONTINUOUS
 90
3
 70
0
 10
54.4450247576
 20
296.9503286569
 10
54.226994684
 20
297.1684413242
 10
54.0480548404
 20
297.3345941313
  0
LINE
  5
293
100
AcDbEntity
  8
0
100
AcDbLine
 62
7
  6
CONTINUOUS
 10
54.455462639
 20
296.9388697195
 11
54.4422480058
 21
296.9525551556
  0
LINE
  5
294
100
AcDbEntity
  8
0
100
AcDbLine
 62
7
  6
CONTINUOUS
 10
54.4585307924
 20
296.9356085838
 11
54.455462639
 21
296.9388697195
  0
LINE
  5
295
100
AcDbEntity
  8
0
100
AcDbLine
 62
7
  6
CONTINUOUS
 10
54.3607114804
 20
296.8996841055
 11
54.3732005516
 21
296.8853816258
  0
LINE
  5
296
100
AcDbEntity
  8
0
100
AcDbLine
 62
7
  6
CONTINUOUS
 10
54.3526083285
 20
296.8852362984
 11
54.3640168075
 21
296.8690388381
  0
LINE
  5
297
100
AcDbEntity
  8
0
100
AcDbLine
 62
7
  6
CONTINUOUS
 10
54.9051991061
 20
296.3596550615
 11
53.9354397324
 21
297.7709340354
  0
LINE
  5
298
100
AcDbEntity
  8
0
100
AcDbLine
 62
7
  6
CONTINUOUS
 10
54.9166590734
 20
296.3336839286
 11
54.9051991061
 21
296.3596550615
  0
ARC
  5
299
100
AcDbEntity
  8
0
100
AcDbCircle
 62
7
  6
CONTINUOUS
 10
-350.2870298432
 20
268.1716664756
 40
380.7415655843
100
AcDbArc
 50
1.5356492998
 51
2.0040435216
  0
ARC
  5
29A
100
AcDbEntity
  8
0
100
AcDbCircle
 62
7
  6
CONTINUOUS
 10
-93.7751042991
 20
270.5326981059
 40
136.3053125643
100
AcDbArc
 50
4.2721739526
 51
5.5728485607
  0
ARC
  5
29B
100
AcDbEntity
  8
0
100
AcDbCircle
 62
7
  6
CONTINUOUS
 10
-37.141981849
 20
274.6968034499
 40
88.5342538239
100
AcDbArc
 50
6.4251078467
 51
8.4033776123
  0
ARC
  5
29C
100
AcDbEntity
  8
0
100
AcDbCircle
 62
7
  6
CONTINUOUS
 10
-15.0617566082
 20
280.8302580015
 40
72.5288550606
100
AcDbArc
 50
359.9781929706
 51
8.5289585834
  0
ARC
  5
29D
100
AcDbEntity
  8
0
100
AcDbCircle
 62
7
  6
CONTINUOUS
 10
-15.771489846
 20
279.9786619402
 40
71.462603561
100
AcDbArc
 50
7.7498409536
 51
10.0872661472
  0
ARC
  5
29E
100
AcDbEntity
  8
0
100
AcDbCircle
 62
7
  6
CONTINUOUS
 10
17.0028918023
 20
260.7029771898
 40
48.0328883257
100
AcDbArc
 50
104.8099059506
 51
105.0055151911
  0
ARC
  5
29F
100
AcDbEntity
  8
0
100
AcDbCircle
 62
7
  6
CONTINUOUS
 10
16.6478189024
 20
262.0191919528
 40
46.6696226979
100
AcDbArc
 50
105.0028370955
 51
105.8355108077
  0
ARC
  5
2A0
100
AcDbEntity
  8
0
100
AcDbCircle
 62
7
  6
CONTINUOUS
 10
17.5400821442
 20
264.3676807915
 40
43.6452721503
100
AcDbArc
 50
104.3987156987
 51
105.0039799363
  0
ARC
  5
2A1
100
AcDbEntity
  8
0
100
AcDbCircle
 62
7
  6
CONTINUOUS
 10
37.0544615512
 20
275.2768011803
 40
22.4978189745
100
AcDbArc
 50
199.3839793514
 51
205.6515506812
  0
ARC
  5
2A2
100
AcDbEntity
  8
0
100
AcDbCircle
 62
7
  6
CONTINUOUS
 10
24.3982949567
 20
261.8553726592
 40
16.613545559
100
AcDbArc
 50
155.6403758201
 51
155.980240462
  0
ARC
  5
2A3
100
AcDbEntity
  8
0
100
AcDbCircle
 62
7
  6
CONTINUOUS
 10
6.322739653
 20
255.2455640382
 40
14.1739685393
100
AcDbArc
 50
59.9904363934
 51
64.9386373113
  0
ARC
  5
2A4
100
AcDbEntity
  8
0
100
AcDbCircle
 62
7
  6
CONTINUOUS
 10
10.3279014458
 20
266.7649174573
 40
13.9439305321
100
AcDbArc
 50
148.9998015839
 51
154.270900549
  0
ARC
  5
2A5
100
AcDbEntity
  8
0
100
AcDbCircle
 62
7
  6
CONTINUOUS
 10
1.8917399417
 20
272.4103273948
 40
13.4581779704
100
AcDbArc
 50
165.7684509354
 51
166.5287602586
  0
ARC
  5
2A6
100
AcDbEntity
  8
0
100
AcDbCircle
 62
7
  6
CONTINUOUS
 10
9.6436683895
 20
266.4660811916
 40
12.9820537832
100
AcDbArc
 50
152.7961502942
 51
159.0167027856
  0
ARC
  5
2A7
100
AcDbEntity
  8
0
100
AcDbCircle
 62
7
  6
CONTINUOUS
 10
-2.0191342391
 20
273.3968357949
 40
9.6311880957
100
AcDbArc
 50
115.0553242137
 51
119.5633408567
  0
ARC
  5
2A8
100
AcDbEntity
  8
0
100
AcDbCircle
 62
7
  6
CONTINUOUS
 10
-13.3642406387
 20
279.3771214389
 40
9.5186065198
100
AcDbArc
 50
95.5341766412
 51
102.6023428242
  0
ARC
  5
2A9
100
AcDbEntity
  8
0
100
AcDbCircle
 62
7
  6
CONTINUOUS
 10
-2.3589642916
 20
274.4765313322
 40
8.9821111835
100
AcDbArc
 50
116.0283884011
 51
120.8234462967
  0
ARC
  5
2AA
100
AcDbEntity
  8
0
100
AcDbCircle
 62
7
  6
CONTINUOUS
 10
-17.4077591906
 20
286.0025261906
 40
8.2844326087
100
AcDbArc
 50
42.8014191951
 51
42.9265682664
  0
ARC
  5
2AB
100
AcDbEntity
  8
0
100
AcDbCircle
 62
7
  6
CONTINUOUS
 10
-10.3739005016
 20
283.0499042826
 40
4.890195787
100
AcDbArc
 50
91.9589294833
 51
95.9601175686
  0
ARC
  5
2AC
100
AcDbEntity
  8
0
100
AcDbCircle
 62
7
  6
CONTINUOUS
 10
9.4731043816
 20
220.8207467197
 40
3.6073508487
100
AcDbArc
 50
178.8871662728
 51
179.9985512791
  0
ARC
  5
2AD
100
AcDbEntity
  8
0
100
AcDbCircle
 62
7
  6
CONTINUOUS
 10
8.0995959718
 20
222.3716630109
 40
3.5512817295
100
AcDbArc
 50
359.9985345825
 51
1.119742354
  0
ARC
  5
2AE
100
AcDbEntity
  8
0
100
AcDbCircle
 62
7
  6
CONTINUOUS
 10
-34.4293255452
 20
223.4833931664
 40
3.3029590139
100
AcDbArc
 50
40.1795551027
 51
41.6150430264
  0
ARC
  5
2AF
100
AcDbEntity
  8
0
100
AcDbCircle
 62
7
  6
CONTINUOUS
 10
-34.3728693098
 20
223.5344629205
 40
3.2268344906
100
AcDbArc
 50
41.6028427929
 51
49.76178418
  0
ARC
  5
2B0
100
AcDbEntity
  8
0
100
AcDbCircle
 62
7
  6
CONTINUOUS
 10
-0.2262027433
 20
247.3410520111
 40
1.8406547958
100
AcDbArc
 50
60.03648498
 51
71.5000219514
  0
ARC
  5
2B1
100
AcDbEntity
  8
0
100
AcDbCircle
 62
7
  6
CONTINUOUS
 10
12.2990161953
 20
250.698615077
 40
1.8405177435
100
AcDbArc
 50
60.036099006
 51
71.4584247868
  0
ARC
  5
2B2
100
AcDbEntity
  8
0
100
AcDbCircle
 62
7
  6
CONTINUOUS
 10
-1.537402431
 20
245.0713755033
 40
1.8381276259
100
AcDbArc
 50
228.4329255176
 51
239.9510510911
  0
ARC
  5
2B3
100
AcDbEntity
  8
0
100
AcDbCircle
 62
7
  6
CONTINUOUS
 10
10.9874520258
 20
248.4283771037
 40
1.8375961463
100
AcDbArc
 50
228.5720239542
 51
239.9525149668
  0
ARC
  5
2B4
100
AcDbEntity
  8
0
100
AcDbCircle
 62
7
  6
CONTINUOUS
 10
-15.539084815
 20
284.1040420482
 40
0.5461351506
100
AcDbArc
 50
92.4138854996
 51
104.9470092382
  0
ARC
  5
2B5
100
AcDbEntity
  8
0
100
AcDbCircle
 62
7
  6
CONTINUOUS
 10
4.831840717
 20
316.4729494582
 40
31.8805554347
100
AcDbArc
 50
249.3756371425
 51
252.1293394269
  0
ARC
  5
2B6
100
AcDbEntity
  8
0
100
AcDbCircle
 62
7
  6
CONTINUOUS
 10
5.1156380847
 20
313.4792666393
 40
28.8974427125
100
AcDbArc
 50
246.9064958735
 51
248.2834740009
  0
ARC
  5
2B7
100
AcDbEntity
  8
0
100
AcDbCircle
 62
7
  6
CONTINUOUS
 10
5.9235260309
 20
307.7556281803
 40
24.0506251037
100
AcDbArc
 50
239.9942192072
 51
241.4338324415
  0
ARC
  5
2B8
100
AcDbEntity
  8
0
100
AcDbCircle
 62
7
  6
CONTINUOUS
 10
9.732179197
 20
310.2039539626
 40
21.2992786859
100
AcDbArc
 50
241.1187780048
 51
243.8250434244
  0
ARC
  5
2B9
100
AcDbEntity
  8
0
100
AcDbCircle
 62
7
  6
CONTINUOUS
 10
8.9432507807
 20
308.7628016769
 40
19.6563246678
100
AcDbArc
 50
240.4825933613
 51
241.1034276471
  0
ARC
  5
2BA
100
AcDbEntity
  8
0
100
AcDbCircle
 62
7
  6
CONTINUOUS
 10
8.6843743635
 20
308.3051246296
 40
19.1305060384
100
AcDbArc
 50
239.9911883028
 51
240.4819460166
  0
ARC
  5
2BB
100
AcDbEntity
  8
0
100
AcDbCircle
 62
7
  6
CONTINUOUS
 10
-4.3970665216
 20
298.1152644982
 40
9.4916105575
100
AcDbArc
 50
223.0871881384
 51
225.9857122689
  0
ARC
  5
2BC
100
AcDbEntity
  8
0
100
AcDbCircle
 62
7
  6
CONTINUOUS
 10
-2.8914654853
 20
293.6089200162
 40
9.0680184017
100
AcDbArc
 50
158.3641717253
 51
169.3989799623
  0
ARC
  5
2BD
100
AcDbEntity
  8
0
100
AcDbCircle
 62
7
  6
CONTINUOUS
 10
-4.7516080177
 20
295.0547845076
 40
7.2893210909
100
AcDbArc
 50
207.9105377219
 51
211.1046407572
  0
ARC
  5
2BE
100
AcDbEntity
  8
0
100
AcDbCircle
 62
7
  6
CONTINUOUS
 10
-0.4017180297
 20
297.0419186162
 40
4.3852373607
100
AcDbArc
 50
162.9286790424
 51
169.3321737925
  0
ARC
  5
2BF
100
AcDbEntity
  8
0
100
AcDbCircle
 62
7
  6
CONTINUOUS
 10
-0.4164354555
 20
296.1965415982
 40
4.3704807646
100
AcDbArc
 50
165.5414396251
 51
166.8657158138
  0
ARC
  5
2C0
100
AcDbEntity
  8
0
100
AcDbCircle
 62
7
  6
CONTINUOUS
 10
-0.4745607975
 20
296.2101238869
 40
4.310789613
100
AcDbArc
 50
166.8659672917
 51
168.2321471958
  0
ARC
  5
2C1
100
AcDbEntity
  8
0
100
AcDbCircle
 62
7
  6
CONTINUOUS
 10
-7.2451703723
 20
296.3417100316
 40
4.2235606724
100
AcDbArc
 50
174.1197149475
 51
179.0962402134
  0
ARC
  5
2C2
100
AcDbEntity
  8
0
100
AcDbCircle
 62
7
  6
CONTINUOUS
 10
-0.5915542768
 20
296.2331959079
 40
4.1915498345
100
AcDbArc
 50
168.2147412763
 51
174.507721662
  0
ARC
  5
2C3
100
AcDbEntity
  8
0
100
AcDbCircle
 62
7
  6
CONTINUOUS
 10
-0.6448708751
 20
297.0886372175
 40
4.1376387429
100
AcDbArc
 50
169.3446360342
 51
179.8374586499
  0
ARC
  5
2C4
100
AcDbEntity
  8
0
100
AcDbCircle
 62
7
  6
CONTINUOUS
 10
-7.3360127778
 20
296.3446126815
 40
4.1329522326
100
AcDbArc
 50
170.5851169217
 51
173.8331687052
  0
ARC
  5
2C5
100
AcDbEntity
  8
0
100
AcDbCircle
 62
7
  6
CONTINUOUS
 10
-7.8354123847
 20
296.4321316888
 40
3.8626056709
100
AcDbArc
 50
177.7733079072
 51
188.9041592423
  0
ARC
  5
2C6
100
AcDbEntity
  8
0
100
AcDbCircle
 62
7
  6
CONTINUOUS
 10
-8.5204772634
 20
296.5158011598
 40
3.1730341329
100
AcDbArc
 50
171.0992366703
 51
173.6242993286
  0
ARC
  5
2C7
100
AcDbEntity
  8
0
100
AcDbCircle
 62
7
  6
CONTINUOUS
 10
-8.8435663936
 20
296.5649280927
 40
2.8462349833
100
AcDbArc
 50
170.1270755064
 51
171.0699638818
  0
ARC
  5
2C8
100
AcDbEntity
  8
0
100
AcDbCircle
 62
7
  6
CONTINUOUS
 10
14.2461902651
 20
350.5912037725
 40
69.5217747765
100
AcDbArc
 50
270.8047015235
 51
272.4553864418
  0
ARC
  5
2C9
100
AcDbEntity
  8
0
100
AcDbCircle
 62
7
  6
CONTINUOUS
 10
16.325099608
 20
350.2388396536
 40
68.8794349804
100
AcDbArc
 50
269.086568137
 51
269.8622085182
  0
ARC
  5
2CA
100
AcDbEntity
  8
0
100
AcDbCircle
 62
7
  6
CONTINUOUS
 10
11.5810139794
 20
340.9035018367
 40
58.5250364969
100
AcDbArc
 50
261.5758953341
 51
263.4189080615
  0
ARC
  5
2CB
100
AcDbEntity
  8
0
100
AcDbCircle
 62
7
  6
CONTINUOUS
 10
17.1119679978
 20
337.3743646871
 40
55.8015084316
100
AcDbArc
 50
255.5445318346
 51
256.3650381123
  0
ARC
  5
2CC
100
AcDbEntity
  8
0
100
AcDbCircle
 62
7
  6
CONTINUOUS
 10
12.9789564684
 20
337.5624070018
 40
55.1595565334
100
AcDbArc
 50
259.6895432644
 51
260.5870468408
  0
ARC
  5
2CD
100
AcDbEntity
  8
0
100
AcDbCircle
 62
7
  6
CONTINUOUS
 10
29.5522336936
 20
313.1444664695
 40
31.6127575527
100
AcDbArc
 50
289.9306902013
 51
291.2366046882
  0
ARC
  5
2CE
100
AcDbEntity
  8
0
100
AcDbCircle
 62
7
  6
CONTINUOUS
 10
29.3919604776
 20
310.3019574668
 40
29.3268730572
100
AcDbArc
 50
292.2597736444
 51
295.2155892628
  0
ARC
  5
2CF
100
AcDbEntity
  8
0
100
AcDbCircle
 62
7
  6
CONTINUOUS
 10
38.3380754666
 20
305.5025557838
 40
21.4358992342
100
AcDbArc
 50
300.9779835943
 51
302.5307804536
  0
ARC
  5
2D0
100
AcDbEntity
  8
0
100
AcDbCircle
 62
7
  6
CONTINUOUS
 10
42.4783285744
 20
295.3438275467
 40
10.8252106594
100
AcDbArc
 50
310.3535289299
 51
313.0251350934
  0
ARC
  5
2D1
100
AcDbEntity
  8
0
100
AcDbCircle
 62
7
  6
CONTINUOUS
 10
42.0731667367
 20
298.7330858962
 40
6.6750597959
100
AcDbArc
 50
324.8313403229
 51
326.6628187403
  0
ARC
  5
2D2
100
AcDbEntity
  8
0
100
AcDbCircle
 62
7
  6
CONTINUOUS
 10
43.4270314148
 20
296.2136025651
 40
4.2929432666
100
AcDbArc
 50
11.2529987997
 51
12.4533436544
  0
ARC
  5
2D3
100
AcDbEntity
  8
0
100
AcDbCircle
 62
7
  6
CONTINUOUS
 10
43.4577482614
 20
297.0673607582
 40
4.2615580959
100
AcDbArc
 50
10.5822469274
 51
11.3418778881
  0
ARC
  5
2D4
100
AcDbEntity
  8
0
100
AcDbCircle
 62
7
  6
CONTINUOUS
 10
43.5129920937
 20
296.2301488276
 40
4.2054063464
100
AcDbArc
 50
7.4693037143
 51
11.2604424083
  0
ARC
  5
2D5
100
AcDbEntity
  8
0
100
AcDbCircle
 62
7
  6
CONTINUOUS
 10
43.5796143193
 20
296.2395644268
 40
4.138125508
100
AcDbArc
 50
6.6955148671
 51
7.4599557311
  0
ARC
  5
2D6
100
AcDbEntity
  8
0
100
AcDbCircle
 62
7
  6
CONTINUOUS
 10
43.5833974025
 20
297.0888941612
 40
4.134091858
100
AcDbArc
 50
0.0539789432
 51
10.6086890335
  0
ARC
  5
2D7
100
AcDbEntity
  8
0
100
AcDbCircle
 62
7
  6
CONTINUOUS
 10
21.4622982099
 20
365.3297706306
 40
84.137739692
100
AcDbArc
 50
266.3864936366
 51
274.6402755102
  0
ARC
  5
2D8
100
AcDbEntity
  8
0
100
AcDbCircle
 62
7
  6
CONTINUOUS
 10
21.3221352867
 20
362.7866168813
 40
81.5908149526
100
AcDbArc
 50
265.7338545878
 51
266.3721644729
  0
ARC
  5
2D9
100
AcDbEntity
  8
0
100
AcDbCircle
 62
7
  6
CONTINUOUS
 10
21.7573070688
 20
360.950928681
 40
79.7494343458
100
AcDbArc
 50
274.6835284251
 51
275.3316256693
  0
ARC
  5
2DA
100
AcDbEntity
  8
0
100
AcDbCircle
 62
7
  6
CONTINUOUS
 10
20.0197584172
 20
338.67378021
 40
57.8547286545
100
AcDbArc
 50
278.2260992642
 51
279.0973908961
  0
ARC
  5
2DB
100
AcDbEntity
  8
0
100
AcDbCircle
 62
7
  6
CONTINUOUS
 10
18.6627915505
 20
335.9295798154
 40
55.6567444627
100
AcDbArc
 50
280.0640169641
 51
281.98649901
  0
ARC
  5
2DC
100
AcDbEntity
  8
0
100
AcDbCircle
 62
7
  6
CONTINUOUS
 10
26.8101501091
 20
333.6215613589
 40
51.9209866124
100
AcDbArc
 50
285.0023679164
 51
285.864631987
  0
ARC
  5
2DD
100
AcDbEntity
  8
0
100
AcDbCircle
 62
7
  6
CONTINUOUS
 10
27.8565035582
 20
329.9658465277
 40
48.1184751154
100
AcDbArc
 50
285.8561247481
 51
288.2183968514
  0
ARC
  5
2DE
100
AcDbEntity
  8
0
100
AcDbCircle
 62
7
  6
CONTINUOUS
 10
25.9330508058
 20
333.9708939748
 40
48.0337801776
100
AcDbArc
 50
284.8084363657
 51
285.0040451271
  0
ARC
  5
2DF
100
AcDbEntity
  8
0
100
AcDbCircle
 62
7
  6
CONTINUOUS
 10
26.8539973944
 20
330.6295297389
 40
44.5679082294
100
AcDbArc
 50
284.972524281
 51
287.2857927971
  0
ARC
  5
2E0
100
AcDbEntity
  8
0
100
AcDbCircle
 62
7
  6
CONTINUOUS
 10
437.7371799663
 20
267.7055578504
 40
420.7268959839
100
AcDbArc
 50
178.1710860275
 51
178.5950229773
  0
ARC
  5
2E1
100
AcDbEntity
  8
0
100
AcDbCircle
 62
7
  6
CONTINUOUS
 10
144.6240578525
 20
269.5011900871
 40
140.3784873416
100
AcDbArc
 50
174.57868465
 51
175.8421300233
  0
ARC
  5
2E2
100
AcDbEntity
  8
0
100
AcDbCircle
 62
7
  6
CONTINUOUS
 10
142.2933893067
 20
251.8859362908
 40
96.8106793066
100
AcDbArc
 50
165.9087526651
 51
167.7484621414
  0
ARC
  5
2E3
100
AcDbEntity
  8
0
100
AcDbCircle
 62
7
  6
CONTINUOUS
 10
83.9537326375
 20
273.1678275607
 40
89.8450857852
100
AcDbArc
 50
171.7045196937
 51
173.6553356706
  0
ARC
  5
2E4
100
AcDbEntity
  8
0
100
AcDbCircle
 62
7
  6
CONTINUOUS
 10
59.8137780839
 20
283.0748480087
 40
74.346211271
100
AcDbArc
 50
172.9515031103
 51
179.237304015
  0
ARC
  5
2E5
100
AcDbEntity
  8
0
100
AcDbCircle
 62
7
  6
CONTINUOUS
 10
59.6649006252
 20
281.9827863657
 40
72.6955683455
100
AcDbArc
 50
169.4625844094
 51
171.0858982465
  0
ARC
  5
2E6
100
AcDbEntity
  8
0
100
AcDbCircle
 62
7
  6
CONTINUOUS
 10
59.2812912982
 20
284.3432019791
 40
72.0589903403
100
AcDbArc
 50
171.2556094698
 51
172.8936333586
  0
ARC
  5
2E7
100
AcDbEntity
  8
0
100
AcDbCircle
 62
7
  6
CONTINUOUS
 10
59.0984087641
 20
284.3711748126
 40
71.8739809446
100
AcDbArc
 50
169.9858154752
 51
171.2554856492
  0
ARC
  5
2E8
100
AcDbEntity
  8
0
100
AcDbCircle
 62
7
  6
CONTINUOUS
 10
60.0095805869
 20
278.1905220553
 40
71.8644041007
100
AcDbArc
 50
169.959157734
 51
172.2493471777
  0
ARC
  5
2E9
100
AcDbEntity
  8
0
100
AcDbCircle
 62
7
  6
CONTINUOUS
 10
48.6642470923
 20
255.2721794287
 40
29.4703571625
100
AcDbArc
 50
116.378913371
 51
117.1357417595
  0
ARC
  5
2EA
100
AcDbEntity
  8
0
100
AcDbCircle
 62
7
  6
CONTINUOUS
 10
45.7785505684
 20
262.8202717916
 40
21.3771841047
100
AcDbArc
 50
104.9871171389
 51
105.4762010536
  0
ARC
  5
2EB
100
AcDbEntity
  8
0
100
AcDbCircle
 62
7
  6
CONTINUOUS
 10
55.2452343768
 20
280.2778210811
 40
8.9224040581
100
AcDbArc
 50
130.1853565942
 51
130.3130479968
  0
ARC
  5
2EC
100
AcDbEntity
  8
0
100
AcDbCircle
 62
7
  6
CONTINUOUS
 10
48.1628337915
 20
291.3566244605
 40
8.3155509585
100
AcDbArc
 50
42.6736364926
 51
42.7986180468
  0
ARC
  5
2ED
100
AcDbEntity
  8
0
100
AcDbCircle
 62
7
  6
CONTINUOUS
 10
49.9145408994
 20
291.8340653
 40
4.7184670141
100
AcDbArc
 50
357.9803709721
 51
8.0560263402
  0
ARC
  5
2EE
100
AcDbEntity
  8
0
100
AcDbCircle
 62
7
  6
CONTINUOUS
 10
50.1799374653
 20
292.2964735929
 40
4.2235155715
100
AcDbArc
 50
354.1154838181
 51
359.1029058088
  0
ARC
  5
2EF
100
AcDbEntity
  8
0
100
AcDbCircle
 62
7
  6
CONTINUOUS
 10
44.9612924016
 20
293.2413319624
 40
10.0086630392
100
AcDbArc
 50
26.3240372557
 51
26.7284211774
  0
ARC
  5
2F0
100
AcDbEntity
  8
0
100
AcDbCircle
 62
7
  6
CONTINUOUS
 10
45.2920219358
 20
293.4000471796
 40
9.6418491809
100
AcDbArc
 50
21.296201552
 51
26.3502110579
  0
ARC
  5
2F1
100
AcDbEntity
  8
0
100
AcDbCircle
 62
7
  6
CONTINUOUS
 10
45.9095290415
 20
293.632776862
 40
8.981962925
100
AcDbArc
 50
10.5489326002
 51
21.2273501509
  0
ARC
  5
2F2
100
AcDbEntity
  8
0
100
AcDbCircle
 62
7
  6
CONTINUOUS
 10
48.4084683025
 20
294.6882606327
 40
6.4795234704
100
AcDbArc
 50
334.2525401967
 51
337.7074594958
  0
ARC
  5
2F3
100
AcDbEntity
  8
0
100
AcDbCircle
 62
7
  6
CONTINUOUS
 10
49.5364063468
 20
294.3077442872
 40
5.2928222662
100
AcDbArc
 50
4.9736969151
 51
10.5536589356
  0
ARC
  5
2F4
100
AcDbEntity
  8
0
100
AcDbCircle
 62
7
  6
CONTINUOUS
 10
50.764798481
 20
293.7477161555
 40
4.7817875587
100
AcDbArc
 50
41.2359185242
 51
42.7416149248
  0
SPLINE
  5
2F5
100
AcDbEntity
  8
0
100
AcDbSpline
 62
7
  6
CONTINUOUS
 70
0
 71
3
 72
20
 73
16
 74
0
 42
0.0000001
 43
0.0000001
 44
0.0000000001
 40
0.0
 40
0.0
 40
0.0
 40
0.0
 40
0.0527860015
 40
0.1117095947
 40
0.1763666303
 40
0.2459442301
 40
0.3948280941
 40
0.5471737835
 40
0.6908580996
 40
0.7562119328
 40
0.815900553
 40
0.8694870362
 40
0.9171655787
 40
0.9599859103
 40
1.0
 40
1.0
 40
1.0
 40
1.0
 10
-15.1621205828
 20
280.8612408828
 30
0.0
 10
-15.2282879623
 20
280.8994579323
 30
0.0
 10
-15.3597840128
 20
280.9954007495
 30
0.0
 10
-15.5400496642
 20
281.17726946
 30
0.0
 10
-15.7099001519
 20
281.4002610903
 30
0.0
 10
-15.9211053006
 20
281.7522231836
 30
0.0
 10
-16.1280191697
 20
282.2510786
 30
0.0
 10
-16.272794629
 20
282.8813255129
 30
0.0
 10
-16.3007104754
 20
283.407438954
 30
0.0
 10
-16.2572872338
 20
283.7948253265
 30
0.0
 10
-16.1958761877
 20
284.04687752
 30
0.0
 10
-16.1060473806
 20
284.2630932229
 30
0.0
 10
-15.9892383533
 20
284.437933086
 30
0.0
 10
-15.8472053127
 20
284.5659973692
 30
0.0
 10
-15.7358921518
 20
284.6166913562
 30
0.0
 10
-15.6799470433
 20
284.6316985987
 30
0.0
  0
SPLINE
  5
2F6
100
AcDbEntity
  8
0
100
AcDbSpline
 62
7
  6
CONTINUOUS
 70
0
 71
3
 72
9
 73
5
 74
0
 42
0.0000001
 43
0.0000001
 44
0.0000000001
 40
0.0
 40
0.0
 40
0.0
 40
0.0
 40
0.2353703448
 40
1.0
 40
1.0
 40
1.0
 40
1.0
 10
-14.8764705863
 20
280.7563982816
 30
0.0
 10
-14.9001632336
 20
280.7599358915
 30
0.0
 10
-14.9999866719
 20
280.7805962526
 30
0.0
 10
-15.0947317247
 20
280.8223183299
 30
0.0
 10
-15.1621205828
 20
280.8612408828
 30
0.0
  0
SPLINE
  5
2F7
100
AcDbEntity
  8
0
100
AcDbSpline
 62
7
  6
CONTINUOUS
 70
0
 71
3
 72
9
 73
5
 74
0
 42
0.0000001
 43
0.0000001
 44
0.0000000001
 40
0.0
 40
0.0
 40
0.0
 40
0.0
 40
0.2337698955
 40
1.0
 40
1.0
 40
1.0
 40
1.0
 10
-15.1621205828
 20
284.5385793365
 30
0.0
 10
-15.1374098237
 20
284.524306861
 30
0.0
 10
-15.0341891693
 20
284.4589595043
 30
0.0
 10
-14.9410061026
 20
284.3785029214
 30
0.0
 10
-14.875131563
 20
284.3121014436
 30
0.0
  0
SPLINE
  5
2F8
100
AcDbEntity
  8
0
100
AcDbSpline
 62
7
  6
CONTINUOUS
 70
0
 71
3
 72
9
 73
5
 74
0
 42
0.0000001
 43
0.0000001
 44
0.0000000001
 40
0.0
 40
0.0
 40
0.0
 40
0.0
 40
0.2350177645
 40
1.0
 40
1.0
 40
1.0
 40
1.0
 10
-14.875131563
 20
284.3121014436
 30
0.0
 10
-14.8457634846
 20
284.2824984465
 30
0.0
 10
-14.7252274095
 20
284.1521589918
 30
0.0
 10
-14.6216744979
 20
284.0066594108
 30
0.0
 10
-14.5507912742
 20
283.8909079651
 30
0.0
  0
SPLINE
  5
2F9
100
AcDbEntity
  8
0
100
AcDbSpline
 62
7
  6
CONTINUOUS
 70
0
 71
3
 72
9
 73
5
 74
0
 42
0.0000001
 43
0.0000001
 44
0.0000000001
 40
0.0
 40
0.0
 40
0.0
 40
0.0
 40
0.2461632592
 40
1.0
 40
1.0
 40
1.0
 40
1.0
 10
-15.5620868193
 20
284.649692587
 30
0.0
 10
-15.5527369501
 20
284.6500932088
 30
0.0
 10
-15.5147177561
 20
284.6507785159
 30
0.0
 10
-15.4766494516
 20
284.6477095508
 30
0.0
 10
-15.4483013607
 20
284.643500964
 30
0.0
  0
SPLINE
  5
2FA
100
AcDbEntity
  8
0
100
AcDbSpline
 62
7
  6
CONTINUOUS
 70
0
 71
3
 72
9
 73
5
 74
0
 42
0.0000001
 43
0.0000001
 44
0.0000000001
 40
0.0
 40
0.0
 40
0.0
 40
0.0
 40
0.2353495061
 40
1.0
 40
1.0
 40
1.0
 40
1.0
 10
-15.4483013607
 20
284.643500964
 30
0.0
 10
-15.4245665804
 20
284.639977274
 30
0.0
 10
-15.3245538098
 20
284.6193508394
 30
0.0
 10
-15.2296287233
 20
284.5775707847
 30
0.0
 10
-15.1621205828
 20
284.5385793365
 30
0.0
  0
SPLINE
  5
2FB
100
AcDbEntity
  8
0
100
AcDbSpline
 62
7
  6
CONTINUOUS
 70
0
 71
3
 72
11
 73
7
 74
0
 42
0.0000001
 43
0.0000001
 44
0.0000000001
 40
0.0
 40
0.0
 40
0.0
 40
0.0
 40
0.215685094
 40
0.4469869715
 40
0.7059636435
 40
1.0
 40
1.0
 40
1.0
 40
1.0
 10
-4.6324780225
 20
297.8468291989
 30
0.0
 10
-4.6324776104
 20
298.2580957347
 30
0.0
 10
-4.497701513
 20
299.115002179
 30
0.0
 10
-3.9137451932
 20
300.343917469
 30
0.0
 10
-2.9727447492
 20
301.5193797215
 30
0.0
 10
-2.1737284057
 20
302.2150638287
 30
0.0
 10
-1.7279456553
 20
302.5550993858
 30
0.0
  0
SPLINE
  5
2FC
100
AcDbEntity
  8
0
100
AcDbSpline
 62
7
  6
CONTINUOUS
 70
0
 71
3
 72
11
 73
7
 74
0
 42
0.0000001
 43
0.0000001
 44
0.0000000001
 40
0.0
 40
0.0
 40
0.0
 40
0.0
 40
0.2125066764
 40
0.4509092866
 40
0.7141553022
 40
1.0
 40
1.0
 40
1.0
 40
1.0
 10
-1.7279456553
 20
302.5550993858
 30
0.0
 10
-1.2010860402
 20
302.9569790069
 30
0.0
 10
-0.0169781532
 20
303.7239057471
 30
0.0
 10
1.9796702805
 20
304.7174906365
 30
0.0
 10
4.2714859468
 20
305.6071362185
 30
0.0
 10
5.9118561923
 20
306.1034423551
 30
0.0
 10
6.7727819906
 20
306.3342182355
 30
0.0
  0
SPLINE
  5
2FD
100
AcDbEntity
  8
0
100
AcDbSpline
 62
7
  6
CONTINUOUS
 70
0
 71
3
 72
15
 73
11
 74
0
 42
0.0000001
 43
0.0000001
 44
0.0000000001
 40
0.0
 40
0.0
 40
0.0
 40
0.0
 40
0.1196024985
 40
0.2471152924
 40
0.3794886302
 40
0.5134326265
 40
0.6455972588
 40
0.7727082983
 40
0.8917230219
 40
1.0
 40
1.0
 40
1.0
 40
1.0
 10
6.7727819906
 20
306.3342182355
 30
0.0
 10
8.0647424838
 20
306.6805353291
 30
0.0
 10
10.7690570995
 20
307.2690165106
 30
0.0
 10
14.9772547762
 20
307.8456887681
 30
0.0
 10
19.3757767653
 20
308.1338417602
 30
0.0
 10
23.8355218563
 20
308.1245473501
 30
0.0
 10
28.2258547011
 20
307.8181710297
 30
0.0
 10
32.4186053429
 20
307.2239535113
 30
0.0
 10
36.2910365074
 20
306.3600545517
 30
0.0
 10
38.7159754022
 20
305.5796700188
 30
0.0
 10
39.8440686483
 20
305.1395388437
 30
0.0
  0
SPLINE
  5
2FE
100
AcDbEntity
  8
0
100
AcDbSpline
 62
7
  6
CONTINUOUS
 70
0
 71
3
 72
15
 73
11
 74
0
 42
0.0000001
 43
0.0000001
 44
0.0000000001
 40
0.0
 40
0.0
 40
0.0
 40
0.0
 40
0.1687431873
 40
0.3241608064
 40
0.4658728373
 40
0.593986527
 40
0.7092697934
 40
0.8133664497
 40
0.9089939515
 40
1.0
 40
1.0
 40
1.0
 40
1.0
 10
39.8440686483
 20
305.1395388437
 30
0.0
 10
40.4313776738
 20
304.9103973145
 30
0.0
 10
41.5461156867
 20
304.4340067098
 30
0.0
 10
43.0907630307
 20
303.6276024211
 30
0.0
 10
44.4280381456
 20
302.7649069845
 30
0.0
 10
45.5456259974
 20
301.8530275481
 30
0.0
 10
46.4330509728
 20
300.8986436784
 30
0.0
 10
47.0806198836
 20
299.9074934441
 30
0.0
 10
47.4773188665
 20
298.8869007791
 30
0.0
 10
47.5674535024
 20
298.1868289173
 30
0.0
 10
47.5674531618
 20
297.8468291989
 30
0.0
  0
SPLINE
  5
2FF
100
AcDbEntity
  8
0
100
AcDbSpline
 62
7
  6
CONTINUOUS
 70
0
 71
3
 72
16
 73
12
 74
0
 42
0.0000001
 43
0.0000001
 44
0.0000000001
 40
0.0
 40
0.0
 40
0.0
 40
0.0
 40
0.1241345582
 40
0.2571167905
 40
0.3947263354
 40
0.5324496265
 40
0.6657729368
 40
0.7904424552
 40
0.9027547163
 40
0.9533911677
 40
1.0
 40
1.0
 40
1.0
 40
1.0
 10
36.1621931487
 20
289.3594401622
 30
0.0
 10
34.6728684956
 20
288.9602185235
 30
0.0
 10
31.5416590975
 20
288.3019833321
 30
0.0
 10
26.668701663
 20
287.7161595889
 30
0.0
 10
21.595810173
 20
287.5115453534
 30
0.0
 10
16.5182017364
 20
287.6966219843
 30
0.0
 10
11.6299524219
 20
288.2637924376
 30
0.0
 10
7.1184770242
 20
289.1904428271
 30
0.0
 10
3.7015945565
 20
290.2656106024
 30
0.0
 10
1.3096265647
 20
291.297089311
 30
0.0
 10
0.2396101549
 20
291.8614049137
 30
0.0
 10
-0.2587790111
 20
292.1559866212
 30
0.0
  0
SPLINE
  5
300
100
AcDbEntity
  8
0
100
AcDbSpline
 62
7
  6
CONTINUOUS
 70
0
 71
3
 72
10
 73
6
 74
0
 42
0.0000001
 43
0.0000001
 44
0.0000000001
 40
0.0
 40
0.0
 40
0.0
 40
0.0
 40
0.2944358183
 40
0.5576146072
 40
1.0
 40
1.0
 40
1.0
 40
1.0
 10
-0.2587790111
 20
292.1559866212
 30
0.0
 10
-0.7559709505
 20
292.4498606868
 30
0.0
 10
-1.6728222618
 20
293.0539840902
 30
0.0
 10
-3.1624847276
 20
294.3277760746
 30
0.0
 10
-4.0148530136
 20
295.480093491
 30
0.0
 10
-4.3302530822
 20
296.2885027709
 30
0.0
  0
SPLINE
  5
301
100
AcDbEntity
  8
0
100
AcDbSpline
 62
7
  6
CONTINUOUS
 70
0
 71
3
 72
9
 73
5
 74
0
 42
0.0000001
 43
0.0000001
 44
0.0000000001
 40
0.0
 40
0.0
 40
0.0
 40
0.0
 40
0.5075849009
 40
1.0
 40
1.0
 40
1.0
 40
1.0
 10
-4.3302530822
 20
296.2885027709
 30
0.0
 10
-4.4283000365
 20
296.5398092086
 30
0.0
 10
-4.5802175153
 20
297.0524671791
 30
0.0
 10
-4.6324782847
 20
297.5851354934
 30
0.0
 10
-4.6324780225
 20
297.8468291989
 30
0.0
  0
SPLINE
  5
302
100
AcDbEntity
  8
0
100
AcDbSpline
 62
7
  6
CONTINUOUS
 70
0
 71
3
 72
9
 73
5
 74
0
 42
0.0000001
 43
0.0000001
 44
0.0000000001
 40
0.0
 40
0.0
 40
0.0
 40
0.0
 40
0.4924172801
 40
1.0
 40
1.0
 40
1.0
 40
1.0
 10
47.5674531618
 20
297.8468291989
 30
0.0
 10
47.5674528996
 20
297.585173353
 30
0.0
 10
47.5152082347
 20
297.0525848968
 30
0.0
 10
47.3633352279
 20
296.5399976129
 30
0.0
 10
47.2653154166
 20
296.2887250029
 30
0.0
  0
SPLINE
  5
303
100
AcDbEntity
  8
0
100
AcDbSpline
 62
7
  6
CONTINUOUS
 70
0
 71
3
 72
14
 73
10
 74
0
 42
0.0000001
 43
0.0000001
 44
0.0000000001
 40
0.0
 40
0.0
 40
0.0
 40
0.0
 40
0.0863415036
 40
0.1818243795
 40
0.2883603323
 40
0.4069356455
 40
0.5378285084
 40
0.680792122
 40
1.0
 40
1.0
 40
1.0
 40
1.0
 10
47.2653154166
 20
296.2887250029
 30
0.0
 10
47.1242691841
 20
295.9271546784
 30
0.0
 10
46.7341245039
 20
295.2005046097
 30
0.0
 10
45.9089056652
 20
294.1933360646
 30
0.0
 10
44.8314530441
 20
293.2292961078
 30
0.0
 10
43.5133238855
 20
292.3162457556
 30
0.0
 10
41.9673391942
 20
291.4615377771
 30
0.0
 10
39.5323806245
 20
290.3708620155
 30
0.0
 10
37.5481121312
 20
289.7309433441
 30
0.0
 10
36.1621931487
 20
289.3594401622
 30
0.0
  0
SPLINE
  5
304
100
AcDbEntity
  8
0
100
AcDbSpline
 62
7
  6
CONTINUOUS
 70
0
 71
3
 72
11
 73
7
 74
0
 42
0.0000001
 43
0.0000001
 44
0.0000000001
 40
0.0
 40
0.0
 40
0.0
 40
0.0
 40
0.2634075328
 40
0.515933487
 40
0.7602044579
 40
1.0
 40
1.0
 40
1.0
 40
1.0
 10
8.1953000777
 20
226.1504028511
 30
0.0
 10
7.4301690461
 20
225.9453052831
 30
0.0
 10
5.8943725725
 20
225.666300274
 30
0.0
 10
3.5944448799
 20
225.6775742188
 30
0.0
 10
1.4106701116
 20
226.1304550322
 30
0.0
 10
0.0671617583
 20
226.7241358087
 30
0.0
 10
-0.5572807831
 20
227.0848393021
 30
0.0
  0
SPLINE
  5
305
100
AcDbEntity
  8
0
100
AcDbSpline
 62
7
  6
CONTINUOUS
 70
0
 71
3
 72
11
 73
7
 74
0
 42
0.0000001
 43
0.0000001
 44
0.0000000001
 40
0.0
 40
0.0
 40
0.0
 40
0.0
 40
0.2717772429
 40
0.5268691304
 40
0.7676330732
 40
1.0
 40
1.0
 40
1.0
 40
1.0
 10
-2.7799069115
 20
243.3188118597
 30
0.0
 10
-2.7799069115
 20
242.9291310832
 30
0.0
 10
-2.7041455398
 20
242.1704756609
 30
0.0
 10
-2.3412674505
 20
241.1195847261
 30
0.0
 10
-1.7466506967
 20
240.2451952281
 30
0.0
 10
-1.2085020657
 20
239.8123803734
 30
0.0
 10
-0.9200062091
 20
239.645723248
 30
0.0
  0
SPLINE
  5
306
100
AcDbEntity
  8
0
100
AcDbSpline
 62
7
  6
CONTINUOUS
 70
0
 71
3
 72
11
 73
7
 74
0
 42
0.0000001
 43
0.0000001
 44
0.0000000001
 40
0.0
 40
0.0
 40
0.0
 40
0.0
 40
0.2717772429
 40
0.5268691304
 40
0.7676330732
 40
1.0
 40
1.0
 40
1.0
 40
1.0
 10
9.7490191394
 20
246.6772591797
 30
0.0
 10
9.7490191394
 20
246.2875784032
 30
0.0
 10
9.8247805111
 20
245.528922981
 30
0.0
 10
10.1876586004
 20
244.4780320461
 30
0.0
 10
10.7822753543
 20
243.6036425482
 30
0.0
 10
11.3204239853
 20
243.1708276934
 30
0.0
 10
11.6089198418
 20
243.004170568
 30
0.0
  0
SPLINE
  5
307
100
AcDbEntity
  8
0
100
AcDbSpline
 62
7
  6
CONTINUOUS
 70
0
 71
3
 72
10
 73
6
 74
0
 42
0.0000001
 43
0.0000001
 44
0.0000000001
 40
0.0
 40
0.0
 40
0.0
 40
0.0
 40
0.2403281524
 40
0.485096085
 40
1.0
 40
1.0
 40
1.0
 40
1.0
 10
9.094873483
 20
238.3519298372
 30
0.0
 10
8.9503396439
 20
238.4353830721
 30
0.0
 10
8.6392879881
 20
238.5727319508
 30
0.0
 10
7.9556615307
 20
238.7150741916
 30
0.0
 10
7.4146522358
 20
238.6607711589
 30
0.0
 10
7.0692689988
 20
238.5681892886
 30
0.0
  0
SPLINE
  5
308
100
AcDbEntity
  8
0
100
AcDbSpline
 62
7
  6
CONTINUOUS
 70
0
 71
3
 72
15
 73
11
 74
0
 42
0.0000001
 43
0.0000001
 44
0.0000000001
 40
0.0
 40
0.0
 40
0.0
 40
0.0
 40
0.0524622549
 40
0.1056452393
 40
0.2162149894
 40
0.3353287824
 40
0.4632716504
 40
0.5978590347
 40
0.735324951
 40
1.0
 40
1.0
 40
1.0
 40
1.0
 10
17.3106063644
 20
252.8758292854
 30
0.0
 10
17.1369409098
 20
252.9761516464
 30
0.0
 10
16.7676656907
 20
253.1462817971
 30
0.0
 10
15.963364121
 20
253.3526682982
 30
0.0
 10
14.8604861471
 20
253.337387118
 30
0.0
 10
13.5457475508
 20
252.903681343
 30
0.0
 10
12.3103273746
 20
252.1016113976
 30
0.0
 10
11.2396458051
 20
250.9911827708
 30
0.0
 10
10.1496896073
 20
249.2435874886
 30
0.0
 10
9.7490191394
 20
247.68909515
 30
0.0
 10
9.7490191394
 20
246.6772591797
 30
0.0
  0
SPLINE
  5
309
100
AcDbEntity
  8
0
100
AcDbSpline
 62
7
  6
CONTINUOUS
 70
0
 71
3
 72
15
 73
11
 74
0
 42
0.0000001
 43
0.0000001
 44
0.0000000001
 40
0.0
 40
0.0
 40
0.0
 40
0.0
 40
0.0524622549
 40
0.1056452393
 40
0.2162149894
 40
0.3353287824
 40
0.4632716504
 40
0.5978590347
 40
0.735324951
 40
1.0
 40
1.0
 40
1.0
 40
1.0
 10
4.7816803135
 20
249.5173819654
 30
0.0
 10
4.6080148589
 20
249.6177043263
 30
0.0
 10
4.2387396398
 20
249.7878344771
 30
0.0
 10
3.4344380701
 20
249.9942209781
 30
0.0
 10
2.3315600962
 20
249.978939798
 30
0.0
 10
1.0168214999
 20
249.545234023
 30
0.0
 10
-0.2185986763
 20
248.7431640775
 30
0.0
 10
-1.2892802458
 20
247.6327354508
 30
0.0
 10
-2.3792364436
 20
245.8851401686
 30
0.0
 10
-2.7799069115
 20
244.3306478299
 30
0.0
 10
-2.7799069115
 20
243.3188118597
 30
0.0
  0
SPLINE
  5
30A
100
AcDbEntity
  8
0
100
AcDbSpline
 62
7
  6
CONTINUOUS
 70
0
 71
3
 72
11
 73
7
 74
0
 42
0.0000001
 43
0.0000001
 44
0.0000000001
 40
0.0
 40
0.0
 40
0.0
 40
0.0
 40
0.2717668072
 40
0.5268680782
 40
0.7676307415
 40
1.0
 40
1.0
 40
1.0
 40
1.0
 10
3.7221614456
 20
233.9476735794
 30
0.0
 10
3.7221614452
 20
233.6708048372
 30
0.0
 10
3.7760000867
 20
233.1317643605
 30
0.0
 10
4.0337957448
 20
232.3850581419
 30
0.0
 10
4.4563166363
 20
231.7637986489
 30
0.0
 10
4.8386530008
 20
231.4562111629
 30
0.0
 10
5.0436645146
 20
231.3378383713
 30
0.0
  0
SPLINE
  5
30B
100
AcDbEntity
  8
0
100
AcDbSpline
 62
7
  6
CONTINUOUS
 70
0
 71
3
 72
13
 73
9
 74
0
 42
0.0000001
 43
0.0000001
 44
0.0000000001
 40
0.0
 40
0.0
 40
0.0
 40
0.0
 40
0.2348069779
 40
0.3606340311
 40
0.4898728456
 40
0.6205624979
 40
0.75058487
 40
1.0
 40
1.0
 40
1.0
 40
1.0
 10
7.0692689988
 20
238.5681892886
 30
0.0
 10
6.6101296642
 20
238.4451144727
 30
0.0
 10
5.9409682132
 20
238.1031219569
 30
0.0
 10
5.1909333606
 20
237.451521722
 30
0.0
 10
4.6847238035
 20
236.8524143766
 30
0.0
 10
4.2694362048
 20
236.1773551387
 30
0.0
 10
3.8627712349
 20
235.2258566791
 30
0.0
 10
3.7221614464
 20
234.4525953084
 30
0.0
 10
3.7221614456
 20
233.9476735794
 30
0.0
  0
SPLINE
  5
30C
100
AcDbEntity
  8
0
100
AcDbSpline
 62
7
  6
CONTINUOUS
 70
0
 71
3
 72
20
 73
16
 74
0
 42
0.0000001
 43
0.0000001
 44
0.0000000001
 40
0.0
 40
0.0
 40
0.0
 40
0.0
 40
0.0524894976
 40
0.1058803543
 40
0.1609468326
 40
0.2182428661
 40
0.3400791524
 40
0.4047884693
 40
0.4714423007
 40
0.6080592299
 40
0.7449194086
 40
0.8118584184
 40
0.8769392961
 40
0.9397345156
 40
1.0
 40
1.0
 40
1.0
 40
1.0
 10
16.9478809384
 20
257.3925353637
 30
0.0
 10
17.5462454188
 20
257.0468956224
 30
0.0
 10
18.6844693682
 20
256.2224292381
 30
0.0
 10
20.1235575762
 20
254.6493681127
 30
0.0
 10
21.2680761041
 20
252.7761773156
 30
0.0
 10
22.3877434489
 20
249.88919778
 30
0.0
 10
22.7798180038
 20
246.6441625127
 30
0.0
 10
22.5029202481
 20
243.3165285259
 30
0.0
 10
21.7581236224
 20
239.8585892921
 30
0.0
 10
20.0088836429
 20
235.6879267382
 30
0.0
 10
17.3416988927
 20
232.0304880414
 30
0.0
 10
14.7636209041
 20
229.5932581838
 30
0.0
 10
12.6834932581
 20
228.0795974844
 30
0.0
 10
10.4939531273
 20
226.9051879426
 30
0.0
 10
8.9616344206
 20
226.3558229732
 30
0.0
 10
8.1953000777
 20
226.1504028511
 30
0.0
  0
SPLINE
  5
30D
100
AcDbEntity
  8
0
100
AcDbSpline
 62
7
  6
CONTINUOUS
 70
0
 71
3
 72
10
 73
6
 74
0
 42
0.0000001
 43
0.0000001
 44
0.0000000001
 40
0.0
 40
0.0
 40
0.0
 40
0.0
 40
0.2403281525
 40
0.4850960851
 40
1.0
 40
1.0
 40
1.0
 40
1.0
 10
5.0436645146
 20
231.3378383713
 30
0.0
 10
5.1881983534
 20
231.2543851366
 30
0.0
 10
5.4992500086
 20
231.117036258
 30
0.0
 10
6.1828764646
 20
230.9746940171
 30
0.0
 10
6.7238857584
 20
231.0289970493
 30
0.0
 10
7.0692689948
 20
231.1215789188
 30
0.0
  0
SPLINE
  5
30E
100
AcDbEntity
  8
0
100
AcDbSpline
 62
7
  6
CONTINUOUS
 70
0
 71
3
 72
11
 73
7
 74
0
 42
0.0000001
 43
0.0000001
 44
0.0000000001
 40
0.0
 40
0.0
 40
0.0
 40
0.0
 40
0.2717772429
 40
0.5268691304
 40
0.7676330732
 40
1.0
 40
1.0
 40
1.0
 40
1.0
 10
19.1705070668
 20
249.2027406737
 30
0.0
 10
19.1705070668
 20
249.5924214503
 30
0.0
 10
19.0947456951
 20
250.3510768725
 30
0.0
 10
18.7318676058
 20
251.4019678073
 30
0.0
 10
18.137250852
 20
252.2763573053
 30
0.0
 10
17.599102221
 20
252.7091721601
 30
0.0
 10
17.3106063644
 20
252.8758292854
 30
0.0
  0
SPLINE
  5
30F
100
AcDbEntity
  8
0
100
AcDbSpline
 62
7
  6
CONTINUOUS
 70
0
 71
3
 72
11
 73
7
 74
0
 42
0.0000001
 43
0.0000001
 44
0.0000000001
 40
0.0
 40
0.0
 40
0.0
 40
0.0
 40
0.2717772429
 40
0.5268691304
 40
0.7676330732
 40
1.0
 40
1.0
 40
1.0
 40
1.0
 10
6.6415810159
 20
245.8442933537
 30
0.0
 10
6.6415810159
 20
246.2339741302
 30
0.0
 10
6.5658196442
 20
246.9926295524
 30
0.0
 10
6.2029415549
 20
248.0435204873
 30
0.0
 10
5.6083248011
 20
248.9179099852
 30
0.0
 10
5.0701761701
 20
249.35072484
 30
0.0
 10
4.7816803135
 20
249.5173819654
 30
0.0
  0
SPLINE
  5
310
100
AcDbEntity
  8
0
100
AcDbSpline
 62
7
  6
CONTINUOUS
 70
0
 71
3
 72
9
 73
5
 74
0
 42
0.0000001
 43
0.0000001
 44
0.0000000001
 40
0.0
 40
0.0
 40
0.0
 40
0.0
 40
0.2464797674
 40
1.0
 40
1.0
 40
1.0
 40
1.0
 10
6.7151420728
 20
238.4297855761
 30
0.0
 10
6.7220959762
 20
238.382993681
 30
0.0
 10
6.7466457908
 20
238.1926213738
 30
0.0
 10
6.7567755457
 20
238.0004320876
 30
0.0
 10
6.7567755457
 20
237.8558122112
 30
0.0
  0
SPLINE
  5
311
100
AcDbEntity
  8
0
100
AcDbSpline
 62
7
  6
CONTINUOUS
 70
0
 71
3
 72
14
 73
10
 74
0
 42
0.0000001
 43
0.0000001
 44
0.0000000001
 40
0.0
 40
0.0
 40
0.0
 40
0.0
 40
0.105261025
 40
0.2158781366
 40
0.3350441295
 40
0.4630415132
 40
0.5976839205
 40
0.7352112512
 40
1.0
 40
1.0
 40
1.0
 40
1.0
 10
10.0673353594
 20
246.837734178
 30
0.0
 10
10.2598343767
 20
246.7265787512
 30
0.0
 10
10.7012497733
 20
246.5717913858
 30
0.0
 10
11.4208969482
 20
246.5829371249
 30
0.0
 10
12.148041817
 20
246.8222763991
 30
0.0
 10
12.830610532
 20
247.2656041489
 30
0.0
 10
13.4223426777
 20
247.8792429149
 30
0.0
 10
14.0246478643
 20
248.8450368889
 30
0.0
 10
14.24610887
 20
249.704090219
 30
0.0
 10
14.24610887
 20
250.2632623461
 30
0.0
  0
SPLINE
  5
312
100
AcDbEntity
  8
0
100
AcDbSpline
 62
7
  6
CONTINUOUS
 70
0
 71
3
 72
14
 73
10
 74
0
 42
0.0000001
 43
0.0000001
 44
0.0000000001
 40
0.0
 40
0.0
 40
0.0
 40
0.0
 40
0.2552909996
 40
0.3883996519
 40
0.5210163367
 40
0.6503134264
 40
0.7739539084
 40
0.8905365446
 40
1.0
 40
1.0
 40
1.0
 40
1.0
 10
3.8265033188
 20
247.4702299507
 30
0.0
 10
3.8265033188
 20
246.6372819782
 30
0.0
 10
3.5545202333
 20
245.3594107268
 30
0.0
 10
2.7876246206
 20
243.8373768925
 30
0.0
 10
2.0148885846
 20
242.7966763068
 30
0.0
 10
1.0928242143
 20
241.9309113834
 30
0.0
 10
0.0661424348
 20
241.2831205602
 30
0.0
 10
-1.0139510201
 20
240.8881290391
 30
0.0
 10
-1.7569789791
 20
240.8076616828
 30
0.0
 10
-2.1139376521
 20
240.819372344
 30
0.0
  0
SPLINE
  5
313
100
AcDbEntity
  8
0
100
AcDbSpline
 62
7
  6
CONTINUOUS
 70
0
 71
3
 72
11
 73
7
 74
0
 42
0.0000001
 43
0.0000001
 44
0.0000000001
 40
0.0
 40
0.0
 40
0.0
 40
0.0
 40
0.2717741281
 40
0.5268782238
 40
0.7676401145
 40
1.0
 40
1.0
 40
1.0
 40
1.0
 10
1.7209476405
 20
246.9058242071
 30
0.0
 10
1.7209476405
 20
247.1211720866
 30
0.0
 10
1.6790702321
 20
247.5404335138
 30
0.0
 10
1.4785545353
 20
248.1212091082
 30
0.0
 10
1.1499239991
 20
248.6044025454
 30
0.0
 10
0.8525535471
 20
248.8436231209
 30
0.0
 10
0.6931094017
 20
248.9356915495
 30
0.0
  0
SPLINE
  5
314
100
AcDbEntity
  8
0
100
AcDbSpline
 62
7
  6
CONTINUOUS
 70
0
 71
3
 72
15
 73
11
 74
0
 42
0.0000001
 43
0.0000001
 44
0.0000000001
 40
0.0
 40
0.0
 40
0.0
 40
0.0
 40
0.1383951981
 40
0.2695587326
 40
0.3940347268
 40
0.5135537928
 40
0.6308546392
 40
0.7491689886
 40
0.8715002297
 40
1.0
 40
1.0
 40
1.0
 40
1.0
 10
3.1952999056
 20
232.8542320059
 30
0.0
 10
3.1952999051
 20
232.4996699866
 30
0.0
 10
3.2547094938
 20
231.8070156276
 30
0.0
 10
3.5360522743
 20
230.8303370983
 30
0.0
 10
3.9994861893
 20
229.9785782205
 30
0.0
 10
4.6298543865
 20
229.2875670654
 30
0.0
 10
5.4028291208
 20
228.7882890016
 30
0.0
 10
6.2850644962
 20
228.5031057992
 30
0.0
 10
7.2375162832
 20
228.4419846083
 30
0.0
 10
7.8773157048
 20
228.5472975996
 30
0.0
 10
8.1953000777
 20
228.6325350542
 30
0.0
  0
SPLINE
  5
315
100
AcDbEntity
  8
0
100
AcDbSpline
 62
7
  6
CONTINUOUS
 70
0
 71
3
 72
14
 73
10
 74
0
 42
0.0000001
 43
0.0000001
 44
0.0000000001
 40
0.0
 40
0.0
 40
0.0
 40
0.0
 40
0.2552909996
 40
0.3883996519
 40
0.5210163367
 40
0.6503134264
 40
0.7739539084
 40
0.8905365446
 40
1.0
 40
1.0
 40
1.0
 40
1.0
 10
16.3554293697
 20
250.8286772708
 30
0.0
 10
16.3554293697
 20
249.9957292982
 30
0.0
 10
16.0834462842
 20
248.7178580469
 30
0.0
 10
15.3165506715
 20
247.1958242125
 30
0.0
 10
14.5438146355
 20
246.1551236268
 30
0.0
 10
13.6217502652
 20
245.2893587034
 30
0.0
 10
12.5950684857
 20
244.6415678802
 30
0.0
 10
11.5149750308
 20
244.2465763591
 30
0.0
 10
10.7719470718
 20
244.1661090028
 30
0.0
 10
10.4149883988
 20
244.1778196641
 30
0.0
  0
SPLINE
  5
316
100
AcDbEntity
  8
0
100
AcDbSpline
 62
7
  6
CONTINUOUS
 70
0
 71
3
 72
11
 73
7
 74
0
 42
0.0000001
 43
0.0000001
 44
0.0000000001
 40
0.0
 40
0.0
 40
0.0
 40
0.0
 40
0.2717741281
 40
0.5268782238
 40
0.7676401145
 40
1.0
 40
1.0
 40
1.0
 40
1.0
 10
14.24610887
 20
250.2632623461
 30
0.0
 10
14.24610887
 20
250.4786102256
 30
0.0
 10
14.2042314616
 20
250.8978716528
 30
0.0
 10
14.0037157647
 20
251.4786472472
 30
0.0
 10
13.6750852286
 20
251.9618406844
 30
0.0
 10
13.3777147766
 20
252.2010612599
 30
0.0
 10
13.2182706312
 20
252.2931296885
 30
0.0
  0
SPLINE
  5
317
100
AcDbEntity
  8
0
100
AcDbSpline
 62
7
  6
CONTINUOUS
 70
0
 71
3
 72
14
 73
10
 74
0
 42
0.0000001
 43
0.0000001
 44
0.0000000001
 40
0.0
 40
0.0
 40
0.0
 40
0.0
 40
0.2346073929
 40
0.3603379301
 40
0.4894684284
 40
0.6200482101
 40
0.7499714674
 40
0.8772023527
 40
1.0
 40
1.0
 40
1.0
 40
1.0
 10
8.1953000777
 20
228.6325350542
 30
0.0
 10
8.8811587707
 20
228.8163832372
 30
0.0
 10
9.8807532116
 20
229.3273086319
 30
0.0
 10
11.0012364339
 20
230.3005632122
 30
0.0
 10
11.7574153621
 20
231.1957343622
 30
0.0
 10
12.3777277065
 20
232.2035400787
 30
0.0
 10
12.8402121481
 20
233.2870135012
 30
0.0
 10
13.1271032748
 20
234.4051530806
 30
0.0
 10
13.1953002493
 20
235.1631226958
 30
0.0
 10
13.1953002497
 20
235.5347869249
 30
0.0
  0
SPLINE
  5
318
100
AcDbEntity
  8
0
100
AcDbSpline
 62
7
  6
CONTINUOUS
 70
0
 71
3
 72
15
 73
11
 74
0
 42
0.0000001
 43
0.0000001
 44
0.0000000001
 40
0.0
 40
0.0
 40
0.0
 40
0.0
 40
0.0524622549
 40
0.1056452393
 40
0.2162149894
 40
0.3353287824
 40
0.4632716504
 40
0.5978590347
 40
0.735324951
 40
1.0
 40
1.0
 40
1.0
 40
1.0
 10
11.6089198418
 20
243.004170568
 30
0.0
 10
11.7825852964
 20
242.9038482071
 30
0.0
 10
12.1518605155
 20
242.7337180563
 30
0.0
 10
12.9561620852
 20
242.5273315553
 30
0.0
 10
14.0590400591
 20
242.5426127354
 30
0.0
 10
15.3737786554
 20
242.9763185104
 30
0.0
 10
16.6091988316
 20
243.7783884559
 30
0.0
 10
17.6798804011
 20
244.8888170826
 30
0.0
 10
18.7698365989
 20
246.6364123648
 30
0.0
 10
19.1705070668
 20
248.1909047035
 30
0.0
 10
19.1705070668
 20
249.2027406737
 30
0.0
  0
SPLINE
  5
319
100
AcDbEntity
  8
0
100
AcDbSpline
 62
7
  6
CONTINUOUS
 70
0
 71
3
 72
13
 73
9
 74
0
 42
0.0000001
 43
0.0000001
 44
0.0000000001
 40
0.0
 40
0.0
 40
0.0
 40
0.0
 40
0.2348069779
 40
0.3606340311
 40
0.4898728456
 40
0.620562498
 40
0.75058487
 40
1.0
 40
1.0
 40
1.0
 40
1.0
 10
7.0692689948
 20
231.1215789188
 30
0.0
 10
7.5284083303
 20
231.244653734
 30
0.0
 10
8.1975697826
 20
231.5866462504
 30
0.0
 10
8.9476046366
 20
232.238246486
 30
0.0
 10
9.4538141946
 20
232.8373538325
 30
0.0
 10
9.8691017939
 20
233.5124130716
 30
0.0
 10
10.2757667638
 20
234.463911533
 30
0.0
 10
10.4163765524
 20
235.2371729052
 30
0.0
 10
10.416376552
 20
235.742094635
 30
0.0
  0
SPLINE
  5
31A
100
AcDbEntity
  8
0
100
AcDbSpline
 62
7
  6
CONTINUOUS
 70
0
 71
3
 72
11
 73
7
 74
0
 42
0.0000001
 43
0.0000001
 44
0.0000000001
 40
0.0
 40
0.0
 40
0.0
 40
0.0
 40
0.2717668071
 40
0.5268680781
 40
0.7676307415
 40
1.0
 40
1.0
 40
1.0
 40
1.0
 10
10.416376552
 20
235.742094635
 30
0.0
 10
10.4163765518
 20
236.0189633766
 30
0.0
 10
10.3625379101
 20
236.5580038521
 30
0.0
 10
10.1047422515
 20
237.304710069
 30
0.0
 10
9.6822213603
 20
237.9259695605
 30
0.0
 10
9.2998849965
 20
238.2335570458
 30
0.0
 10
9.094873483
 20
238.3519298372
 30
0.0
  0
SPLINE
  5
31B
100
AcDbEntity
  8
0
100
AcDbSpline
 62
7
  6
CONTINUOUS
 70
0
 71
3
 72
15
 73
11
 74
0
 42
0.0000001
 43
0.0000001
 44
0.0000000001
 40
0.0
 40
0.0
 40
0.0
 40
0.0
 40
0.1383951981
 40
0.2695587326
 40
0.3940347268
 40
0.5135537928
 40
0.6308546392
 40
0.7491689886
 40
0.8715002297
 40
1.0
 40
1.0
 40
1.0
 40
1.0
 10
13.1953002497
 20
235.5347869249
 30
0.0
 10
13.1953002501
 20
235.8893489442
 30
0.0
 10
13.1358906616
 20
236.5820033032
 30
0.0
 10
12.854547881
 20
237.5586818325
 30
0.0
 10
12.3911139661
 20
238.4104407104
 30
0.0
 10
11.7607457688
 20
239.1014518655
 30
0.0
 10
10.9877710346
 20
239.6007299292
 30
0.0
 10
10.1055356592
 20
239.8859131316
 30
0.0
 10
9.1530838721
 20
239.9470343226
 30
0.0
 10
8.5132844505
 20
239.8417213312
 30
0.0
 10
8.1953000777
 20
239.7564838767
 30
0.0
  0
SPLINE
  5
31C
100
AcDbEntity
  8
0
100
AcDbSpline
 62
7
  6
CONTINUOUS
 70
0
 71
3
 72
11
 73
7
 74
0
 42
0.0000001
 43
0.0000001
 44
0.0000000001
 40
0.0
 40
0.0
 40
0.0
 40
0.0
 40
0.2474425102
 40
0.505648224
 40
0.7607489892
 40
1.0
 40
1.0
 40
1.0
 40
1.0
 10
6.7567755457
 20
237.8558122112
 30
0.0
 10
6.7567755457
 20
237.3876429263
 30
0.0
 10
6.5948516549
 20
236.4270925752
 30
0.0
 10
5.9635529464
 20
235.1147070762
 30
0.0
 10
5.0151748507
 20
234.0294167852
 30
0.0
 10
4.2047569216
 20
233.5244208668
 30
0.0
 10
3.7834637795
 20
233.3588223997
 30
0.0
  0
SPLINE
  5
31D
100
AcDbEntity
  8
0
100
AcDbSpline
 62
7
  6
CONTINUOUS
 70
0
 71
3
 72
9
 73
5
 74
0
 42
0.0000001
 43
0.0000001
 44
0.0000000001
 40
0.0
 40
0.0
 40
0.0
 40
0.0
 40
0.4816467583
 40
1.0
 40
1.0
 40
1.0
 40
1.0
 10
15.6996035161
 20
253.3199678727
 30
0.0
 10
15.9195809563
 20
252.9650177534
 30
0.0
 10
16.2556608216
 20
252.1496453007
 30
0.0
 10
16.3554293697
 20
251.2780897134
 30
0.0
 10
16.3554293697
 20
250.8286772708
 30
0.0
  0
SPLINE
  5
31E
100
AcDbEntity
  8
0
100
AcDbSpline
 62
7
  6
CONTINUOUS
 70
0
 71
3
 72
14
 73
10
 74
0
 42
0.0000001
 43
0.0000001
 44
0.0000000001
 40
0.0
 40
0.0
 40
0.0
 40
0.0
 40
0.105261025
 40
0.2158781366
 40
0.3350441295
 40
0.4630415132
 40
0.5976839205
 40
0.7352112512
 40
1.0
 40
1.0
 40
1.0
 40
1.0
 10
-2.4578258701
 20
243.480296039
 30
0.0
 10
-2.2653268528
 20
243.3691406122
 30
0.0
 10
-1.8239114562
 20
243.2143532468
 30
0.0
 10
-1.1042642813
 20
243.2254989859
 30
0.0
 10
-0.3771194125
 20
243.4648382601
 30
0.0
 10
0.3054493025
 20
243.9081660099
 30
0.0
 10
0.8971814482
 20
244.5218047759
 30
0.0
 10
1.4994866349
 20
245.4875987499
 30
0.0
 10
1.7209476405
 20
246.34665208
 30
0.0
 10
1.7209476405
 20
246.9058242071
 30
0.0
  0
SPLINE
  5
31F
100
AcDbEntity
  8
0
100
AcDbSpline
 62
7
  6
CONTINUOUS
 70
0
 71
3
 72
14
 73
10
 74
0
 42
0.0000001
 43
0.0000001
 44
0.0000000001
 40
0.0
 40
0.0
 40
0.0
 40
0.0
 40
0.2346073929
 40
0.3603379301
 40
0.4894684284
 40
0.6200482101
 40
0.7499714674
 40
0.8772023527
 40
1.0
 40
1.0
 40
1.0
 40
1.0
 10
8.1953000777
 20
239.7564838767
 30
0.0
 10
7.5094413846
 20
239.5726356937
 30
0.0
 10
6.5098469437
 20
239.061710299
 30
0.0
 10
5.3893637215
 20
238.0884557186
 30
0.0
 10
4.6331847932
 20
237.1932845686
 30
0.0
 10
4.0128724488
 20
236.1854788521
 30
0.0
 10
3.5503880073
 20
235.1020054296
 30
0.0
 10
3.2634968804
 20
233.9838658502
 30
0.0
 10
3.1952999062
 20
233.2258962351
 30
0.0
 10
3.1952999056
 20
232.8542320059
 30
0.0
  0
SPLINE
  5
320
100
AcDbEntity
  8
0
100
AcDbSpline
 62
7
  6
CONTINUOUS
 70
0
 71
3
 72
20
 73
16
 74
0
 42
0.0000001
 43
0.0000001
 44
0.0000000001
 40
0.0
 40
0.0
 40
0.0
 40
0.0
 40
0.0524894976
 40
0.1058803543
 40
0.1609468326
 40
0.2182428661
 40
0.3400791524
 40
0.4047884693
 40
0.4714423007
 40
0.6080592299
 40
0.7449194086
 40
0.8118584184
 40
0.8769392961
 40
0.9397345156
 40
1.0
 40
1.0
 40
1.0
 40
1.0
 10
-0.5572807831
 20
227.0848393021
 30
0.0
 10
-1.1556452635
 20
227.4304790435
 30
0.0
 10
-2.2938692129
 20
228.2549454278
 30
0.0
 10
-3.7329574209
 20
229.8280065532
 30
0.0
 10
-4.8774759488
 20
231.7011973503
 30
0.0
 10
-5.9971432936
 20
234.5881768859
 30
0.0
 10
-6.3892178484
 20
237.8332121532
 30
0.0
 10
-6.1123200928
 20
241.16084614
 30
0.0
 10
-5.3675234671
 20
244.6187853738
 30
0.0
 10
-3.6182834876
 20
248.7894479277
 30
0.0
 10
-0.9510987374
 20
252.4468866245
 30
0.0
 10
1.6269792512
 20
254.884116482
 30
0.0
 10
3.7071068972
 20
256.3977771815
 30
0.0
 10
5.8966470281
 20
257.5721867233
 30
0.0
 10
7.4289657347
 20
258.1215516926
 30
0.0
 10
8.1953000777
 20
258.3269718148
 30
0.0
  0
SPLINE
  5
321
100
AcDbEntity
  8
0
100
AcDbSpline
 62
7
  6
CONTINUOUS
 70
0
 71
3
 72
15
 73
11
 74
0
 42
0.0000001
 43
0.0000001
 44
0.0000000001
 40
0.0
 40
0.0
 40
0.0
 40
0.0
 40
0.0524622549
 40
0.1056452393
 40
0.2162149894
 40
0.3353287824
 40
0.4632716504
 40
0.5978590347
 40
0.735324951
 40
1.0
 40
1.0
 40
1.0
 40
1.0
 10
-0.9200062091
 20
239.645723248
 30
0.0
 10
-0.7463407545
 20
239.5454008871
 30
0.0
 10
-0.3770655354
 20
239.3752707363
 30
0.0
 10
0.4272360343
 20
239.1688842352
 30
0.0
 10
1.5301140082
 20
239.1841654154
 30
0.0
 10
2.8448526045
 20
239.6178711904
 30
0.0
 10
4.0802727807
 20
240.4199411359
 30
0.0
 10
5.1509543502
 20
241.5303697626
 30
0.0
 10
6.240910548
 20
243.2779650448
 30
0.0
 10
6.6415810159
 20
244.8324573835
 30
0.0
 10
6.6415810159
 20
245.8442933537
 30
0.0
  0
SPLINE
  5
322
100
AcDbEntity
  8
0
100
AcDbSpline
 62
7
  6
CONTINUOUS
 70
0
 71
3
 72
9
 73
5
 74
0
 42
0.0000001
 43
0.0000001
 44
0.0000000001
 40
0.0
 40
0.0
 40
0.0
 40
0.0
 40
0.4816467583
 40
1.0
 40
1.0
 40
1.0
 40
1.0
 10
3.1706774652
 20
249.9615205527
 30
0.0
 10
3.3906549054
 20
249.6065704333
 30
0.0
 10
3.7267347707
 20
248.7911979807
 30
0.0
 10
3.8265033188
 20
247.9196423933
 30
0.0
 10
3.8265033188
 20
247.4702299507
 30
0.0
  0
SPLINE
  5
323
100
AcDbEntity
  8
0
100
AcDbSpline
 62
7
  6
CONTINUOUS
 70
0
 71
3
 72
11
 73
7
 74
0
 42
0.0000001
 43
0.0000001
 44
0.0000000001
 40
0.0
 40
0.0
 40
0.0
 40
0.0
 40
0.2634075328
 40
0.515933487
 40
0.7602044579
 40
1.0
 40
1.0
 40
1.0
 40
1.0
 10
8.1953000777
 20
258.3269718148
 30
0.0
 10
8.9604311092
 20
258.5320693828
 30
0.0
 10
10.4962275828
 20
258.8110743919
 30
0.0
 10
12.7961552754
 20
258.7998004471
 30
0.0
 10
14.9799300437
 20
258.3469196337
 30
0.0
 10
16.323438397
 20
257.7532388572
 30
0.0
 10
16.9478809384
 20
257.3925353637
 30
0.0
  0
SPLINE
  5
324
100
AcDbEntity
  8
0
100
AcDbSpline
 62
7
  6
CONTINUOUS
 70
0
 71
3
 72
9
 73
5
 74
0
 42
0.0000001
 43
0.0000001
 44
0.0000000001
 40
0.0
 40
0.0
 40
0.0
 40
0.0
 40
0.4959638435
 40
1.0
 40
1.0
 40
1.0
 40
1.0
 10
9.8865924995
 20
268.3343879313
 30
0.0
 10
12.0224000427
 20
268.0579414269
 30
0.0
 10
16.3593354118
 20
267.72225462
 30
0.0
 10
20.7080917203
 20
267.7871553796
 30
0.0
 10
22.89249691
 20
267.9238250263
 30
0.0
  0
SPLINE
  5
325
100
AcDbEntity
  8
0
100
AcDbSpline
 62
7
  6
CONTINUOUS
 70
0
 71
3
 72
9
 73
5
 74
0
 42
0.0000001
 43
0.0000001
 44
0.0000000001
 40
0.0
 40
0.0
 40
0.0
 40
0.0
 40
0.51601319
 40
1.0
 40
1.0
 40
1.0
 40
1.0
 10
24.013762405
 20
267.6272719614
 30
0.0
 10
26.1683014056
 20
267.6908870625
 30
0.0
 10
30.3403558098
 20
268.0052579667
 30
0.0
 10
34.4637161898
 20
268.7318404728
 30
0.0
 10
36.4289401525
 20
269.2063487087
 30
0.0
  0
SPLINE
  5
326
100
AcDbEntity
  8
0
100
AcDbSpline
 62
7
  6
CONTINUOUS
 70
0
 71
3
 72
10
 73
6
 74
0
 42
0.0000001
 43
0.0000001
 44
0.0000000001
 40
0.0
 40
0.0
 40
0.0
 40
0.0
 40
0.5382026097
 40
0.7797104476
 40
1.0
 40
1.0
 40
1.0
 40
1.0
 10
37.7532850487
 20
269.1012087436
 30
0.0
 10
39.6025583973
 20
269.4686316304
 30
0.0
 10
42.2605923312
 20
270.1405379763
 30
0.0
 10
45.5446486562
 20
271.3676215585
 30
0.0
 10
47.0092692444
 20
272.0616600973
 30
0.0
 10
47.6876603169
 20
272.4295297457
 30
0.0
  0
SPLINE
  5
327
100
AcDbEntity
  8
0
100
AcDbSpline
 62
7
  6
CONTINUOUS
 70
0
 71
3
 72
11
 73
7
 74
0
 42
0.0000001
 43
0.0000001
 44
0.0000000001
 40
0.0
 40
0.0
 40
0.0
 40
0.0
 40
0.2956111659
 40
0.560102148
 40
0.793963339
 40
1.0
 40
1.0
 40
1.0
 40
1.0
 10
49.0134426574
 20
272.5318047639
 30
0.0
 10
49.6938881458
 20
272.8429857656
 30
0.0
 10
50.9592340034
 20
273.4881028228
 30
0.0
 10
52.6424914153
 20
274.5953042205
 30
0.0
 10
53.9867886835
 20
275.7763554987
 30
0.0
 10
54.6834876994
 20
276.6571532443
 30
0.0
 10
54.954580714
 20
277.1026555707
 30
0.0
  0
SPLINE
  5
328
100
AcDbEntity
  8
0
100
AcDbSpline
 62
7
  6
CONTINUOUS
 70
0
 71
3
 72
10
 73
6
 74
0
 42
0.0000001
 43
0.0000001
 44
0.0000000001
 40
0.0
 40
0.0
 40
0.0
 40
0.0
 40
0.5277832149
 40
0.7677725089
 40
1.0
 40
1.0
 40
1.0
 40
1.0
 10
56.0799783085
 20
277.3967828768
 30
0.0
 10
56.502435397
 20
277.9021087437
 30
0.0
 10
57.0358184409
 20
278.7235838069
 30
0.0
 10
57.4063363678
 20
279.921810166
 30
0.0
 10
57.4670792266
 20
280.5128421402
 30
0.0
 10
57.4670871926
 20
280.8026531999
 30
0.0
  0
SPLINE
  5
329
100
AcDbEntity
  8
0
100
AcDbSpline
 62
7
  6
CONTINUOUS
 70
0
 71
3
 72
11
 73
7
 74
0
 42
0.0000001
 43
0.0000001
 44
0.0000000001
 40
0.0
 40
0.0
 40
0.0
 40
0.0
 40
0.2109486787
 40
0.4430927817
 40
0.7046025032
 40
1.0
 40
1.0
 40
1.0
 40
1.0
 10
-14.9421025972
 20
280.9517035454
 30
0.0
 10
-14.8605203963
 20
280.5239120055
 30
0.0
 10
-14.554778917
 20
279.6479670967
 30
0.0
 10
-13.7485317671
 20
278.4242078678
 30
0.0
 10
-12.6021087529
 20
277.2559251427
 30
0.0
 10
-11.6793369384
 20
276.5635692896
 30
0.0
 10
-11.1718555815
 20
276.2253780226
 30
0.0
  0
SPLINE
  5
32A
100
AcDbEntity
  8
0
100
AcDbSpline
 62
7
  6
CONTINUOUS
 70
0
 71
3
 72
10
 73
6
 74
0
 42
0.0000001
 43
0.0000001
 44
0.0000000001
 40
0.0
 40
0.0
 40
0.0
 40
0.0
 40
0.2134228726
 40
0.4520444037
 40
1.0
 40
1.0
 40
1.0
 40
1.0
 10
-11.1961687821
 20
275.545513672
 30
0.0
 10
-10.6721366081
 20
275.1371653525
 30
0.0
 10
-9.4969801142
 20
274.3547973274
 30
0.0
 10
-6.7266019158
 20
272.9267604031
 30
0.0
 10
-4.4027309701
 20
272.1131663562
 30
0.0
 10
-2.7628785269
 20
271.6438475203
 30
0.0
  0
SPLINE
  5
32B
100
AcDbEntity
  8
0
100
AcDbSpline
 62
7
  6
CONTINUOUS
 70
0
 71
3
 72
9
 73
5
 74
0
 42
0.0000001
 43
0.0000001
 44
0.0000000001
 40
0.0
 40
0.0
 40
0.0
 40
0.0
 40
0.4752720437
 40
1.0
 40
1.0
 40
1.0
 40
1.0
 10
-2.4774911125
 20
271.1149046568
 30
0.0
 10
-0.6964952947
 20
270.5119549629
 30
0.0
 10
3.1482332176
 20
269.5275639833
 30
0.0
 10
7.0722850725
 20
268.9719228367
 30
0.0
 10
9.139083577
 20
268.7772055974
 30
0.0
  0
SPLINE
  5
32C
100
AcDbEntity
  8
0
100
AcDbSpline
 62
7
  6
CONTINUOUS
 70
0
 71
3
 72
10
 73
6
 74
0
 42
0.0000001
 43
0.0000001
 44
0.0000000001
 40
0.0
 40
0.0
 40
0.0
 40
0.0
 40
0.5969207811
 40
0.8262372458
 40
1.0
 40
1.0
 40
1.0
 40
1.0
 10
9.8865924995
 20
268.3343879313
 30
0.0
 10
9.7407644787
 20
268.3532629209
 30
0.0
 10
9.5379407242
 20
268.3965066481
 30
0.0
 10
9.3178970456
 20
268.5086553592
 30
0.0
 10
9.2434227558
 20
268.5801157097
 30
0.0
 10
9.2233984707
 20
268.6179475355
 30
0.0
  0
SPLINE
  5
32D
100
AcDbEntity
  8
0
100
AcDbSpline
 62
7
  6
CONTINUOUS
 70
0
 71
3
 72
11
 73
7
 74
0
 42
0.0000001
 43
0.0000001
 44
0.0000000001
 40
0.0
 40
0.0
 40
0.0
 40
0.0
 40
0.3379886726
 40
0.6097491035
 40
0.8189405411
 40
1.0
 40
1.0
 40
1.0
 40
1.0
 10
-2.4774911125
 20
271.1149046568
 30
0.0
 10
-2.5346379611
 20
271.1342514289
 30
0.0
 10
-2.6359465813
 20
271.1759813944
 30
0.0
 10
-2.7581047548
 20
271.257778989
 30
0.0
 10
-2.8328600533
 20
271.355860906
 30
0.0
 10
-2.8318684656
 20
271.4318904425
 30
0.0
 10
-2.8206218319
 20
271.462190693
 30
0.0
  0
SPLINE
  5
32E
100
AcDbEntity
  8
0
100
AcDbSpline
 62
7
  6
CONTINUOUS
 70
0
 71
3
 72
9
 73
5
 74
0
 42
0.0000001
 43
0.0000001
 44
0.0000000001
 40
0.0
 40
0.0
 40
0.0
 40
0.0
 40
0.2463719667
 40
1.0
 40
1.0
 40
1.0
 40
1.0
 10
-4.7840050497
 20
297.0996487739
 30
0.0
 10
-4.7840728125
 20
297.0211189899
 30
0.0
 10
-4.7733456636
 20
296.7024099269
 30
0.0
 10
-4.7180780872
 20
296.3856039823
 30
0.0
 10
-4.6552595597
 20
296.1537481416
 30
0.0
  0
SPLINE
  5
32F
100
AcDbEntity
  8
0
100
AcDbSpline
 62
7
  6
CONTINUOUS
 70
0
 71
3
 72
11
 73
7
 74
0
 42
0.0000001
 43
0.0000001
 44
0.0000000001
 40
0.0
 40
0.0
 40
0.0
 40
0.0
 40
0.1946013464
 40
0.422150266
 40
0.6899030076
 40
1.0
 40
1.0
 40
1.0
 40
1.0
 10
-4.6552595597
 20
296.1537481416
 30
0.0
 10
-4.5494221964
 20
295.7631148068
 30
0.0
 10
-4.1851763096
 20
294.9500179386
 30
0.0
 10
-3.2901935899
 20
293.8157683469
 30
0.0
 10
-2.0247274597
 20
292.7074754709
 30
0.0
 10
-1.0135932967
 20
292.0511740845
 30
0.0
 10
-0.4551353832
 20
291.7286191652
 30
0.0
  0
SPLINE
  5
330
100
AcDbEntity
  8
0
100
AcDbSpline
 62
7
  6
CONTINUOUS
 70
0
 71
3
 72
22
 73
18
 74
0
 42
0.0000001
 43
0.0000001
 44
0.0000000001
 40
0.0
 40
0.0
 40
0.0
 40
0.0
 40
0.0537991964
 40
0.1147495918
 40
0.1818875596
 40
0.2540228735
 40
0.4076672893
 40
0.5638352602
 40
0.6390497475
 40
0.7103656605
 40
0.7764517811
 40
0.836153472
 40
0.8885597081
 40
0.933119713
 40
0.9524630011
 40
0.9699167706
 40
1.0
 40
1.0
 40
1.0
 40
1.0
 10
-0.4551353832
 20
291.7286191652
 30
0.0
 10
0.3429338817
 20
291.2676691795
 30
0.0
 10
2.1190333801
 20
290.4111973554
 30
0.0
 10
5.0576207359
 20
289.3629483483
 30
0.0
 10
8.3798188343
 20
288.4942861516
 30
0.0
 10
13.318998753
 20
287.588505125
 30
0.0
 10
19.8580834077
 20
287.0543749968
 30
0.0
 10
26.466403237
 20
287.2778841553
 30
0.0
 10
31.6133000973
 20
287.934826355
 30
0.0
 10
35.19007425
 20
288.6391803088
 30
0.0
 10
38.447357931
 20
289.5425520002
 30
0.0
 10
41.3086596419
 20
290.6212098443
 30
0.0
 10
43.7046457481
 20
291.8442048732
 30
0.0
 10
45.339407797
 20
293.0027711353
 30
0.0
 10
46.3385341449
 20
293.979364285
 30
0.0
 10
47.0576225147
 20
294.8724526757
 30
0.0
 10
47.436836625
 20
295.6139142016
 30
0.0
 10
47.5782815929
 20
296.1094731961
 30
0.0
  0
SPLINE
  5
331
100
AcDbEntity
  8
0
100
AcDbSpline
 62
7
  6
CONTINUOUS
 70
0
 71
3
 72
9
 73
5
 74
0
 42
0.0000001
 43
0.0000001
 44
0.0000000001
 40
0.0
 40
0.0
 40
0.0
 40
0.0
 40
0.2560230145
 40
1.0
 40
1.0
 40
1.0
 40
1.0
 10
47.5782815929
 20
296.1094731961
 30
0.0
 10
47.6014573475
 20
296.1906705257
 30
0.0
 10
47.6819287966
 20
296.5105687169
 30
0.0
 10
47.718830467
 20
296.8416839684
 30
0.0
 10
47.7190061864
 20
297.0870581486
 30
0.0
  0
SPLINE
  5
332
100
AcDbEntity
  8
0
100
AcDbSpline
 62
7
  6
CONTINUOUS
 70
0
 71
3
 72
11
 73
7
 74
0
 42
0.0000001
 43
0.0000001
 44
0.0000000001
 40
0.0
 40
0.0
 40
0.0
 40
0.0
 40
0.1735833461
 40
0.3871986609
 40
0.6619446168
 40
1.0
 40
1.0
 40
1.0
 40
1.0
 10
57.879910821
 20
282.9293940836
 30
0.0
 10
57.8807825775
 20
282.8970935064
 30
0.0
 10
57.8584789361
 20
282.8239853252
 30
0.0
 10
57.7694373761
 20
282.7349160931
 30
0.0
 10
57.6345154166
 20
282.6588747224
 30
0.0
 10
57.5258567993
 20
282.6221862349
 30
0.0
 10
57.4650740369
 20
282.6058930826
 30
0.0
  0
SPLINE
  5
333
100
AcDbEntity
  8
0
100
AcDbSpline
 62
7
  6
CONTINUOUS
 70
0
 71
3
 72
18
 73
14
 74
0
 42
0.0000001
 43
0.0000001
 44
0.0000000001
 40
0.0
 40
0.0
 40
0.0
 40
0.0
 40
0.0453450666
 40
0.0919216255
 40
0.1408677103
 40
0.1931184798
 40
0.2491570574
 40
0.3090759702
 40
0.4394049737
 40
0.5800408337
 40
0.7248337275
 40
0.8669463747
 40
1.0
 40
1.0
 40
1.0
 40
1.0
 10
53.9005137494
 20
297.7428492096
 30
0.0
 10
53.5363377392
 20
298.466044747
 30
0.0
 10
52.6179772987
 20
299.8455577685
 30
0.0
 10
50.8322461336
 20
301.633769188
 30
0.0
 10
48.6924777444
 20
303.1924842331
 30
0.0
 10
46.2341622986
 20
304.5600374779
 30
0.0
 10
43.4738989069
 20
305.7548715557
 30
0.0
 10
39.3041268394
 20
307.1649808732
 30
0.0
 10
33.5199687674
 20
308.4530174743
 30
0.0
 10
26.1282933295
 20
309.2633718596
 30
0.0
 10
18.4815911682
 20
309.3443658201
 30
0.0
 10
10.9995422397
 20
308.6927607659
 30
0.0
 10
6.1638392715
 20
307.7458298116
 30
0.0
 10
3.86895767
 20
307.130674216
 30
0.0
  0
SPLINE
  5
334
100
AcDbEntity
  8
0
100
AcDbSpline
 62
7
  6
CONTINUOUS
 70
0
 71
3
 72
13
 73
9
 74
0
 42
0.0000001
 43
0.0000001
 44
0.0000000001
 40
0.0
 40
0.0
 40
0.0
 40
0.0
 40
0.2872859804
 40
0.5467986132
 40
0.6668127158
 40
0.7813585022
 40
0.8918203583
 40
1.0
 40
1.0
 40
1.0
 40
1.0
 10
3.86895767
 20
307.130674216
 30
0.0
 10
2.2855200212
 20
306.7062250726
 30
0.0
 10
-0.6926347243
 20
305.7541661813
 30
0.0
 10
-4.1588853521
 20
304.1478082454
 30
0.0
 10
-6.5447006776
 20
302.6385925751
 30
0.0
 10
-8.0979585058
 20
301.4221568861
 30
0.0
 10
-9.4450264815
 20
300.073109884
 30
0.0
 10
-10.1927850432
 20
299.0666591711
 30
0.0
 10
-10.5176433957
 20
298.5417471904
 30
0.0
  0
SPLINE
  5
335
100
AcDbEntity
  8
0
100
AcDbSpline
 62
7
  6
CONTINUOUS
 70
0
 71
3
 72
9
 73
5
 74
0
 42
0.0000001
 43
0.0000001
 44
0.0000000001
 40
0.0
 40
0.0
 40
0.0
 40
0.0
 40
0.2509189959
 40
1.0
 40
1.0
 40
1.0
 40
1.0
 10
-10.5176433957
 20
298.5417471904
 30
0.0
 10
-10.5953874796
 20
298.4161268986
 30
0.0
 10
-10.8949983713
 20
297.9092688559
 30
0.0
 10
-11.1517519864
 20
297.3767609341
 30
0.0
 10
-11.3148014869
 20
296.9669773887
 30
0.0
  0
SPLINE
  5
336
100
AcDbEntity
  8
0
100
AcDbSpline
 62
7
  6
CONTINUOUS
 70
0
 71
3
 72
9
 73
5
 74
0
 42
0.0000001
 43
0.0000001
 44
0.0000000001
 40
0.0
 40
0.0
 40
0.0
 40
0.0
 40
0.5548276201
 40
1.0
 40
1.0
 40
1.0
 40
1.0
 10
-11.1961687821
 20
275.545513672
 30
0.0
 10
-11.2329000748
 20
275.5741361111
 30
0.0
 10
-11.2956418746
 20
275.6350250535
 30
0.0
 10
-11.3111384
 20
275.7254958783
 30
0.0
 10
-11.3027904393
 20
275.7619144672
 30
0.0
  0
SPLINE
  5
337
100
AcDbEntity
  8
0
100
AcDbSpline
 62
7
  6
CONTINUOUS
 70
0
 71
3
 72
10
 73
6
 74
0
 42
0.0000001
 43
0.0000001
 44
0.0000000001
 40
0.0
 40
0.0
 40
0.0
 40
0.0
 40
0.5493898108
 40
0.7942120934
 40
1.0
 40
1.0
 40
1.0
 40
1.0
 10
24.013762405
 20
267.6272719614
 30
0.0
 10
23.8469168306
 20
267.6223455183
 30
0.0
 10
23.6036386636
 20
267.6367347126
 30
0.0
 10
23.3074716049
 20
267.7063719002
 30
0.0
 10
23.1794110625
 20
267.7581139849
 30
0.0
 10
23.1252695568
 20
267.7893851138
 30
0.0
  0
SPLINE
  5
338
100
AcDbEntity
  8
0
100
AcDbSpline
 62
7
  6
CONTINUOUS
 70
0
 71
3
 72
10
 73
6
 74
0
 42
0.0000001
 43
0.0000001
 44
0.0000000001
 40
0.0
 40
0.0
 40
0.0
 40
0.0
 40
0.1821354977
 40
0.4134355263
 40
1.0
 40
1.0
 40
1.0
 40
1.0
 10
56.0799783085
 20
277.3967828768
 30
0.0
 10
56.0495871785
 20
277.3604299801
 30
0.0
 10
55.9625959956
 20
277.2934762018
 30
0.0
 10
55.7245781685
 20
277.1864173375
 30
0.0
 10
55.5114131915
 20
277.1482946857
 30
0.0
 10
55.3593266275
 20
277.1358315168
 30
0.0
  0
SPLINE
  5
339
100
AcDbEntity
  8
0
100
AcDbSpline
 62
7
  6
CONTINUOUS
 70
0
 71
3
 72
9
 73
5
 74
0
 42
0.0000001
 43
0.0000001
 44
0.0000000001
 40
0.0
 40
0.0
 40
0.0
 40
0.0
 40
0.4606043256
 40
1.0
 40
1.0
 40
1.0
 40
1.0
 10
49.0134426574
 20
272.5318047639
 30
0.0
 10
48.8828334352
 20
272.4720743497
 30
0.0
 10
48.5750492583
 20
272.3981836369
 30
0.0
 10
48.2615747873
 20
272.3867187308
 30
0.0
 10
48.0938539519
 20
272.399230706
 30
0.0
  0
SPLINE
  5
33A
100
AcDbEntity
  8
0
100
AcDbSpline
 62
7
  6
CONTINUOUS
 70
0
 71
3
 72
9
 73
5
 74
0
 42
0.0000001
 43
0.0000001
 44
0.0000000001
 40
0.0
 40
0.0
 40
0.0
 40
0.0
 40
0.5050980391
 40
1.0
 40
1.0
 40
1.0
 40
1.0
 10
37.7532850487
 20
269.1012087436
 30
0.0
 10
37.5907830864
 20
269.0689218621
 30
0.0
 10
37.2616280625
 20
269.0429555228
 30
0.0
 10
36.9319515185
 20
269.0766658773
 30
0.0
 10
36.7747583631
 20
269.1171951863
 30
0.0
  0
SPLINE
  5
33B
100
AcDbEntity
  8
0
100
AcDbSpline
 62
7
  6
CONTINUOUS
 70
0
 71
3
 72
9
 73
5
 74
0
 42
0.0000001
 43
0.0000001
 44
0.0000000001
 40
0.0
 40
0.0
 40
0.0
 40
0.0
 40
0.2544541462
 40
1.0
 40
1.0
 40
1.0
 40
1.0
 10
23.9885089967
 20
279.9795933908
 30
0.0
 10
24.3505028005
 20
280.1049365902
 30
0.0
 10
25.7825667483
 20
280.5697349812
 30
0.0
 10
27.2502333944
 20
280.9257713639
 30
0.0
 10
28.3551132645
 20
281.1234125776
 30
0.0
  0
SPLINE
  5
33C
100
AcDbEntity
  8
0
100
AcDbSpline
 62
7
  6
CONTINUOUS
 70
0
 71
3
 72
9
 73
5
 74
0
 42
0.0000001
 43
0.0000001
 44
0.0000000001
 40
0.0
 40
0.0
 40
0.0
 40
0.0
 40
0.5736892303
 40
1.0
 40
1.0
 40
1.0
 40
1.0
 10
28.3887170907
 20
281.129238453
 30
0.0
 10
28.3840339423
 20
281.1867762181
 30
0.0
 10
28.3642656285
 20
281.284704907
 30
0.0
 10
28.3271348907
 20
281.382927
 30
0.0
 10
28.2977348277
 20
281.4141659057
 30
0.0
  0
SPLINE
  5
33D
100
AcDbEntity
  8
0
100
AcDbSpline
 62
7
  6
CONTINUOUS
 70
0
 71
3
 72
9
 73
5
 74
0
 42
0.0000001
 43
0.0000001
 44
0.0000000001
 40
0.0
 40
0.0
 40
0.0
 40
0.0
 40
0.4976849393
 40
1.0
 40
1.0
 40
1.0
 40
1.0
 10
57.1555042016
 20
287.4186756443
 30
0.0
 10
57.2484983228
 20
286.6237749047
 30
0.0
 10
57.3897145237
 20
285.0211314789
 30
0.0
 10
57.4553595425
 20
283.4136000897
 30
0.0
 10
57.465074051
 20
282.6058909897
 30
0.0
  0
SPLINE
  5
33E
100
AcDbEntity
  8
0
100
AcDbSpline
 62
7
  6
CONTINUOUS
 70
0
 71
3
 72
14
 73
10
 74
0
 42
0.0000001
 43
0.0000001
 44
0.0000000001
 40
0.0
 40
0.0
 40
0.0
 40
0.0
 40
0.2531264402
 40
0.5052183971
 40
0.630762614
 40
0.7558117079
 40
0.8799981969
 40
0.9414744392
 40
1.0
 40
1.0
 40
1.0
 40
1.0
 10
29.1676460461
 20
281.5465316554
 30
0.0
 10
29.2584244142
 20
281.5549786853
 30
0.0
 10
29.4398589276
 20
281.5695105168
 30
0.0
 10
29.6667945141
 20
281.5799799994
 30
0.0
 10
29.8480935463
 20
281.5800907028
 30
0.0
 10
29.9823960301
 20
281.5746794647
 30
0.0
 10
30.0956147524
 20
281.5596554685
 30
0.0
 10
30.177111496
 20
281.5387994834
 30
0.0
 10
30.2209048579
 20
281.5072751644
 30
0.0
 10
30.2216595702
 20
281.4862090716
 30
0.0
  0
SPLINE
  5
33F
100
AcDbEntity
  8
0
100
AcDbSpline
 62
7
  6
CONTINUOUS
 70
0
 71
3
 72
9
 73
5
 74
0
 42
0.0000001
 43
0.0000001
 44
0.0000000001
 40
0.0
 40
0.0
 40
0.0
 40
0.0
 40
0.575871509
 40
1.0
 40
1.0
 40
1.0
 40
1.0
 10
28.3543188484
 20
281.1237818252
 30
0.0
 10
28.3493679804
 20
281.1812373774
 30
0.0
 10
28.3310257753
 20
281.279181653
 30
0.0
 10
28.2925244659
 20
281.3759585665
 30
0.0
 10
28.2637705995
 20
281.4072179392
 30
0.0
  0
LINE
  5
340
100
AcDbEntity
  8
0
100
AcDbLine
 62
7
  6
CONTINUOUS
 10
28.2975735082
 20
281.4141427757
 11
28.2637707402
 21
281.4092663246
  0
SPLINE
  5
341
100
AcDbEntity
  8
0
100
AcDbSpline
 62
7
  6
CONTINUOUS
 70
0
 71
3
 72
13
 73
9
 74
0
 42
0.0000001
 43
0.0000001
 44
0.0000000001
 40
0.0
 40
0.0
 40
0.0
 40
0.0
 40
0.2569735987
 40
0.5168106001
 40
0.6430290099
 40
0.765434828
 40
0.8841319688
 40
1.0
 40
1.0
 40
1.0
 40
1.0
 10
28.2637707402
 20
281.4092663246
 30
0.0
 10
26.2511871916
 20
281.1164939718
 30
0.0
 10
22.2579373689
 20
280.0870781229
 30
0.0
 10
17.6589546595
 20
277.8085228868
 30
0.0
 10
14.4123048413
 20
275.4157036278
 30
0.0
 10
12.3048409662
 20
273.4004281183
 30
0.0
 10
10.5492178902
 20
271.1741288788
 30
0.0
 10
9.6420110806
 20
269.5432160174
 30
0.0
 10
9.2637778397
 20
268.7078384691
 30
0.0
  0
SPLINE
  5
342
100
AcDbEntity
  8
0
100
AcDbSpline
 62
7
  6
CONTINUOUS
 70
0
 71
3
 72
11
 73
7
 74
0
 42
0.0000001
 43
0.0000001
 44
0.0000000001
 40
0.0
 40
0.0
 40
0.0
 40
0.0
 40
0.2299732229
 40
0.4690396264
 40
0.7253362628
 40
1.0
 40
1.0
 40
1.0
 40
1.0
 10
-1.9023840678
 20
272.400926858
 30
0.0
 10
-1.3595881087
 20
273.4565488398
 30
0.0
 10
0.0569840881
 20
275.4636540723
 30
0.0
 10
2.9716403305
 20
277.8715416273
 30
0.0
 10
6.5578327624
 20
279.651637698
 30
0.0
 10
9.2195183488
 20
280.3744649852
 30
0.0
 10
10.6136723279
 20
280.6315914797
 30
0.0
  0
SPLINE
  5
343
100
AcDbEntity
  8
0
100
AcDbSpline
 62
7
  6
CONTINUOUS
 70
0
 71
3
 72
9
 73
5
 74
0
 42
0.0000001
 43
0.0000001
 44
0.0000000001
 40
0.0
 40
0.0
 40
0.0
 40
0.0
 40
0.2473187309
 40
1.0
 40
1.0
 40
1.0
 40
1.0
 10
10.613627707
 20
280.6317827323
 30
0.0
 10
10.9863484753
 20
280.7005186681
 30
0.0
 10
12.4995353067
 20
280.9444504331
 30
0.0
 10
14.033129419
 20
281.058295458
 30
0.0
 10
15.1864476594
 20
281.0759366947
 30
0.0
  0
SPLINE
  5
344
100
AcDbEntity
  8
0
100
AcDbSpline
 62
7
  6
CONTINUOUS
 70
0
 71
3
 72
9
 73
5
 74
0
 42
0.0000001
 43
0.0000001
 44
0.0000000001
 40
0.0
 40
0.0
 40
0.0
 40
0.0
 40
0.51066111
 40
1.0
 40
1.0
 40
1.0
 40
1.0
 10
17.1367511714
 20
278.021409656
 30
0.0
 10
15.7851333056
 20
277.1154725754
 30
0.0
 10
13.2906506455
 20
275.0983775348
 30
0.0
 10
11.2631971354
 20
272.5992734476
 30
0.0
 10
10.4384404859
 20
271.2760617551
 30
0.0
  0
SPLINE
  5
345
100
AcDbEntity
  8
0
100
AcDbSpline
 62
7
  6
CONTINUOUS
 70
0
 71
3
 72
9
 73
5
 74
0
 42
0.0000001
 43
0.0000001
 44
0.0000000001
 40
0.0
 40
0.0
 40
0.0
 40
0.0
 40
0.2523137996
 40
1.0
 40
1.0
 40
1.0
 40
1.0
 10
10.4384404859
 20
271.2760617551
 30
0.0
 10
10.3130681503
 20
271.0749186174
 30
0.0
 10
9.8312513055
 20
270.2684609458
 30
0.0
 10
9.4118382096
 20
269.4244547799
 30
0.0
 10
9.1390928669
 20
268.7772200471
 30
0.0
  0
LINE
  5
346
100
AcDbEntity
  8
0
100
AcDbLine
 62
7
  6
CONTINUOUS
 10
15.2268557052
 20
281.3680074478
 11
15.1909124703
 21
281.3685901404
  0
SPLINE
  5
347
100
AcDbEntity
  8
0
100
AcDbSpline
 62
7
  6
CONTINUOUS
 70
0
 71
3
 72
14
 73
10
 74
0
 42
0.0000001
 43
0.0000001
 44
0.0000000001
 40
0.0
 40
0.0
 40
0.0
 40
0.0
 40
0.2784403754
 40
0.4113135295
 40
0.5381909966
 40
0.6591364771
 40
0.7751441475
 40
0.8879052878
 40
1.0
 40
1.0
 40
1.0
 40
1.0
 10
15.1909124703
 20
281.3685901404
 30
0.0
 10
13.2743591329
 20
281.3975038168
 30
0.0
 10
10.4229111998
 20
281.168923022
 30
0.0
 10
6.8321614159
 20
280.2265690259
 30
0.0
 10
4.3959896942
 20
279.2381372919
 30
0.0
 10
2.2247280037
 20
277.9711145686
 30
0.0
 10
0.3531331514
 20
276.4396044945
 30
0.0
 10
-1.193781558
 20
274.6601322463
 30
0.0
 10
-1.9907862911
 20
273.3218756693
 30
0.0
 10
-2.3257577845
 20
272.6267168941
 30
0.0
  0
SPLINE
  5
348
100
AcDbEntity
  8
0
100
AcDbSpline
 62
7
  6
CONTINUOUS
 70
0
 71
3
 72
14
 73
10
 74
0
 42
0.0000001
 43
0.0000001
 44
0.0000000001
 40
0.0
 40
0.0
 40
0.0
 40
0.0
 40
0.1455743065
 40
0.2657681552
 40
0.3669008612
 40
0.4602684333
 40
0.6770876353
 40
0.8229580295
 40
1.0
 40
1.0
 40
1.0
 40
1.0
 10
-13.9705302164
 20
292.1981509085
 30
0.0
 10
-13.9623935535
 20
292.2638206784
 30
0.0
 10
-13.9411564449
 20
292.3832250033
 30
0.0
 10
-13.8829947679
 20
292.5408505552
 30
0.0
 10
-13.7972255421
 20
292.6587805836
 30
0.0
 10
-13.6318552081
 20
292.757920223
 30
0.0
 10
-13.4095724015
 20
292.7372054878
 30
0.0
 10
-13.1816046139
 20
292.651408937
 30
0.0
 10
-13.0509019762
 20
292.5826541424
 30
0.0
 10
-12.9813184362
 20
292.5422253786
 30
0.0
  0
SPLINE
  5
349
100
AcDbEntity
  8
0
100
AcDbSpline
 62
7
  6
CONTINUOUS
 70
0
 71
3
 72
9
 73
5
 74
0
 42
0.0000001
 43
0.0000001
 44
0.0000000001
 40
0.0
 40
0.0
 40
0.0
 40
0.0
 40
0.5942157821
 40
1.0
 40
1.0
 40
1.0
 40
1.0
 10
15.1864925715
 20
281.0763645165
 30
0.0
 10
15.1853191909
 20
281.1338507017
 30
0.0
 10
15.1851528558
 20
281.2305601286
 30
0.0
 10
15.1869218403
 20
281.3274802253
 30
0.0
 10
15.1909158007
 20
281.3665415053
 30
0.0
  0
SPLINE
  5
34A
100
AcDbEntity
  8
0
100
AcDbSpline
 62
7
  6
CONTINUOUS
 70
0
 71
3
 72
9
 73
5
 74
0
 42
0.0000001
 43
0.0000001
 44
0.0000000001
 40
0.0
 40
0.0
 40
0.0
 40
0.0
 40
0.5915499324
 40
1.0
 40
1.0
 40
1.0
 40
1.0
 10
15.2225696827
 20
281.0763040482
 30
0.0
 10
15.2215443992
 20
281.1338325475
 30
0.0
 10
15.2217471332
 20
281.2310468612
 30
0.0
 10
15.2232036676
 20
281.3284606882
 30
0.0
 10
15.2270272637
 20
281.3680045239
 30
0.0
  0
SPLINE
  5
34B
100
AcDbEntity
  8
0
100
AcDbSpline
 62
7
  6
CONTINUOUS
 70
0
 71
3
 72
14
 73
10
 74
0
 42
0.0000001
 43
0.0000001
 44
0.0000000001
 40
0.0
 40
0.0
 40
0.0
 40
0.0
 40
0.2497970569
 40
0.500154239
 40
0.6255777222
 40
0.751185486
 40
0.876977114
 40
0.9399374657
 40
1.0
 40
1.0
 40
1.0
 40
1.0
 10
16.1594512748
 20
281.3593052582
 30
0.0
 10
16.2518182843
 20
281.3534217465
 30
0.0
 10
16.4366441034
 20
281.3392829907
 30
0.0
 10
16.6670162117
 20
281.3139069601
 30
0.0
 10
16.8508646921
 20
281.2854878538
 30
0.0
 10
16.9872476517
 20
281.2587132806
 30
0.0
 10
17.101634669
 20
281.2262159107
 30
0.0
 10
17.1827393033
 20
281.1918782884
 30
0.0
 10
17.2253007318
 20
281.1553633718
 30
0.0
 10
17.2246099016
 20
281.1331198721
 30
0.0
  0
SPLINE
  5
34C
100
AcDbEntity
  8
0
100
AcDbSpline
 62
7
  6
CONTINUOUS
 70
0
 71
3
 72
10
 73
6
 74
0
 42
0.0000001
 43
0.0000001
 44
0.0000000001
 40
0.0
 40
0.0
 40
0.0
 40
0.0
 40
0.4173095074
 40
0.6860142871
 40
1.0
 40
1.0
 40
1.0
 40
1.0
 10
-10.5138469005
 20
288.0655081081
 30
0.0
 10
-9.8904920534
 20
288.2326831902
 30
0.0
 10
-8.7746509464
 20
288.1184920159
 30
0.0
 10
-7.3286245812
 20
287.5876693913
 30
0.0
 10
-6.5243428778
 20
287.1712294111
 30
0.0
 10
-6.1038514954
 20
286.9283637336
 30
0.0
  0
LINE
  5
34D
100
AcDbEntity
  8
0
100
AcDbLine
 62
7
  6
CONTINUOUS
 10
40.328747182
 20
283.425021009
 11
40.3019565048
 21
283.4153178978
  0
SPLINE
  5
34E
100
AcDbEntity
  8
0
100
AcDbSpline
 62
7
  6
CONTINUOUS
 70
0
 71
3
 72
13
 73
9
 74
0
 42
0.0000001
 43
0.0000001
 44
0.0000000001
 40
0.0
 40
0.0
 40
0.0
 40
0.0
 40
0.2281693989
 40
0.4845630146
 40
0.6160997853
 40
0.7467156313
 40
0.8749525136
 40
1.0
 40
1.0
 40
1.0
 40
1.0
 10
40.3019565048
 20
283.4153178978
 30
0.0
 10
38.6037307558
 20
282.7978196427
 30
0.0
 10
35.1480021581
 20
281.0661890075
 30
0.0
 10
31.1988955709
 20
278.1618729022
 30
0.0
 10
28.2266645106
 20
275.320670386
 30
0.0
 10
26.2016840614
 20
272.9776255438
 30
0.0
 10
24.45981509
 20
270.477855251
 30
0.0
 10
23.5271991471
 20
268.6944768048
 30
0.0
 10
23.1252689406
 20
267.7893832578
 30
0.0
  0
SPLINE
  5
34F
100
AcDbEntity
  8
0
100
AcDbSpline
 62
7
  6
CONTINUOUS
 70
0
 71
3
 72
9
 73
5
 74
0
 42
0.0000001
 43
0.0000001
 44
0.0000000001
 40
0.0
 40
0.0
 40
0.0
 40
0.0
 40
0.2474888829
 40
1.0
 40
1.0
 40
1.0
 40
1.0
 10
22.8924292223
 20
267.9238671548
 30
0.0
 10
22.9843982296
 20
268.1530660431
 30
0.0
 10
23.3716822022
 20
269.0728240918
 30
0.0
 10
23.8170612938
 20
269.9678953414
 30
0.0
 10
24.1802756823
 20
270.6251179851
 30
0.0
  0
SPLINE
  5
350
100
AcDbEntity
  8
0
100
AcDbSpline
 62
7
  6
CONTINUOUS
 70
0
 71
3
 72
9
 73
5
 74
0
 42
0.0000001
 43
0.0000001
 44
0.0000000001
 40
0.0
 40
0.0
 40
0.0
 40
0.0
 40
0.4980651462
 40
1.0
 40
1.0
 40
1.0
 40
1.0
 10
24.1802756823
 20
270.6251179851
 30
0.0
 10
24.9765439642
 20
272.0659352044
 30
0.0
 10
26.8473824002
 20
274.8126247986
 30
0.0
 10
29.1072155621
 20
277.2407696457
 30
0.0
 10
30.3177813305
 20
278.37514264
 30
0.0
  0
SPLINE
  5
351
100
AcDbEntity
  8
0
100
AcDbSpline
 62
7
  6
CONTINUOUS
 70
0
 71
3
 72
9
 73
5
 74
0
 42
0.0000001
 43
0.0000001
 44
0.0000000001
 40
0.0
 40
0.0
 40
0.0
 40
0.0
 40
0.2706105751
 40
1.0
 40
1.0
 40
1.0
 40
1.0
 10
40.4736874939
 20
283.1503613081
 30
0.0
 10
40.4696466321
 20
283.1789955527
 30
0.0
 10
40.4446605363
 20
283.2820261659
 30
0.0
 10
40.3734299663
 20
283.3821840216
 30
0.0
 10
40.3019529144
 20
283.4132692204
 30
0.0
  0
SPLINE
  5
352
100
AcDbEntity
  8
0
100
AcDbSpline
 62
7
  6
CONTINUOUS
 70
0
 71
3
 72
9
 73
5
 74
0
 42
0.0000001
 43
0.0000001
 44
0.0000000001
 40
0.0
 40
0.0
 40
0.0
 40
0.0
 40
0.4904169929
 40
1.0
 40
1.0
 40
1.0
 40
1.0
 10
42.1514478209
 20
280.6867162535
 30
0.0
 10
41.2761252571
 20
279.3493999949
 30
0.0
 10
39.5894856509
 20
276.5569096181
 30
0.0
 10
38.1517135273
 20
273.6244829891
 30
0.0
 10
37.5091738306
 20
272.0930385398
 30
0.0
  0
SPLINE
  5
353
100
AcDbEntity
  8
0
100
AcDbSpline
 62
7
  6
CONTINUOUS
 70
0
 71
3
 72
9
 73
5
 74
0
 42
0.0000001
 43
0.0000001
 44
0.0000000001
 40
0.0
 40
0.0
 40
0.0
 40
0.0
 40
0.2515133346
 40
1.0
 40
1.0
 40
1.0
 40
1.0
 10
37.5091738306
 20
272.0930385398
 30
0.0
 10
37.4091847965
 20
271.8547222894
 30
0.0
 10
37.0202801651
 20
270.9036080842
 30
0.0
 10
36.6680624039
 20
269.9373417526
 30
0.0
 10
36.428914337
 20
269.2063604651
 30
0.0
  0
SPLINE
  5
354
100
AcDbEntity
  8
0
100
AcDbSpline
 62
7
  6
CONTINUOUS
 70
0
 71
3
 72
11
 73
7
 74
0
 42
0.0000001
 43
0.0000001
 44
0.0000000001
 40
0.0
 40
0.0
 40
0.0
 40
0.0
 40
0.245876691
 40
0.5006691033
 40
0.7563926893
 40
1.0
 40
1.0
 40
1.0
 40
1.0
 10
24.0137815986
 20
267.6272723084
 30
0.0
 10
24.6475279325
 20
269.0649072254
 30
0.0
 10
26.2799974589
 20
271.8459868508
 30
0.0
 10
29.412072711
 20
275.5484794385
 30
0.0
 10
33.0073877919
 20
278.7764693314
 30
0.0
 10
35.6397230395
 20
280.5985635335
 30
0.0
 10
36.9796469688
 20
281.3908240713
 30
0.0
  0
SPLINE
  5
355
100
AcDbEntity
  8
0
100
AcDbSpline
 62
7
  6
CONTINUOUS
 70
0
 71
3
 72
9
 73
5
 74
0
 42
0.0000001
 43
0.0000001
 44
0.0000000001
 40
0.0
 40
0.0
 40
0.0
 40
0.0
 40
0.2637019792
 40
1.0
 40
1.0
 40
1.0
 40
1.0
 10
36.9795876304
 20
281.3909983936
 30
0.0
 10
37.2758253486
 20
281.5661497273
 30
0.0
 10
38.4099153775
 20
282.2118260716
 30
0.0
 10
39.5864912538
 20
282.784752111
 30
0.0
 10
40.4752002956
 20
283.1501726268
 30
0.0
  0
SPLINE
  5
356
100
AcDbEntity
  8
0
100
AcDbSpline
 62
7
  6
CONTINUOUS
 70
0
 71
3
 72
9
 73
5
 74
0
 42
0.0000001
 43
0.0000001
 44
0.0000000001
 40
0.0
 40
0.0
 40
0.0
 40
0.0
 40
0.2700884675
 40
1.0
 40
1.0
 40
1.0
 40
1.0
 10
40.501167661
 20
283.160663622
 30
0.0
 10
40.4972809773
 20
283.189388013
 30
0.0
 10
40.4706447728
 20
283.2923721208
 30
0.0
 10
40.4008144788
 20
283.3943077686
 30
0.0
 10
40.3287523367
 20
283.4250223982
 30
0.0
  0
SPLINE
  5
357
100
AcDbEntity
  8
0
100
AcDbSpline
 62
7
  6
CONTINUOUS
 70
0
 71
3
 72
12
 73
8
 74
0
 42
0.0000001
 43
0.0000001
 44
0.0000000001
 40
0.0
 40
0.0
 40
0.0
 40
0.0
 40
0.2576857798
 40
0.5120680674
 40
0.7618638498
 40
0.8840853251
 40
1.0
 40
1.0
 40
1.0
 40
1.0
 10
41.0035617141
 20
283.678240095
 30
0.0
 10
41.0788982158
 20
283.6996282955
 30
0.0
 10
41.2297607289
 20
283.7399305527
 30
0.0
 10
41.453195371
 20
283.7918005283
 30
0.0
 10
41.6487044726
 20
283.8200401975
 30
0.0
 10
41.7833046333
 20
283.8286911544
 30
0.0
 10
41.8825182438
 20
283.8045386783
 30
0.0
 10
41.8859654328
 20
283.7694799065
 30
0.0
  0
SPLINE
  5
358
100
AcDbEntity
  8
0
100
AcDbSpline
 62
7
  6
CONTINUOUS
 70
0
 71
3
 72
9
 73
5
 74
0
 42
0.0000001
 43
0.0000001
 44
0.0000000001
 40
0.0
 40
0.0
 40
0.0
 40
0.0
 40
0.5291005069
 40
1.0
 40
1.0
 40
1.0
 40
1.0
 10
42.9002599988
 20
284.259467984
 30
0.0
 10
44.0873131164
 20
284.651048949
 30
0.0
 10
46.3017185241
 20
285.4845649273
 30
0.0
 10
48.4174936697
 20
286.5514703404
 30
0.0
 10
49.3712410491
 20
287.12415486
 30
0.0
  0
SPLINE
  5
359
100
AcDbEntity
  8
0
100
AcDbSpline
 62
7
  6
CONTINUOUS
 70
0
 71
3
 72
10
 73
6
 74
0
 42
0.0000001
 43
0.0000001
 44
0.0000000001
 40
0.0
 40
0.0
 40
0.0
 40
0.0
 40
0.2112111774
 40
0.4519507061
 40
1.0
 40
1.0
 40
1.0
 40
1.0
 10
49.3714349166
 20
287.1242286785
 30
0.0
 10
48.7856636018
 20
286.7724757371
 30
0.0
 10
47.5798594585
 20
285.9398643116
 30
0.0
 10
45.0880383095
 20
283.8733801151
 30
0.0
 10
43.3082813598
 20
282.0302449226
 30
0.0
 10
42.1514478209
 20
280.6867162535
 30
0.0
  0
SPLINE
  5
35A
100
AcDbEntity
  8
0
100
AcDbSpline
 62
7
  6
CONTINUOUS
 70
0
 71
3
 72
15
 73
11
 74
0
 42
0.0000001
 43
0.0000001
 44
0.0000000001
 40
0.0
 40
0.0
 40
0.0
 40
0.0
 40
0.0878358569
 40
0.1933460627
 40
0.3130890417
 40
0.4432239426
 40
0.5800384745
 40
0.7201969651
 40
0.8609408658
 40
1.0
 40
1.0
 40
1.0
 40
1.0
 10
49.4727651046
 20
287.08134169
 30
0.0
 10
48.9778164027
 20
286.6605137845
 30
0.0
 10
47.9250692815
 20
285.6908094776
 30
0.0
 10
46.3146780481
 20
284.0253464346
 30
0.0
 10
44.5841968218
 20
282.0452852563
 30
0.0
 10
42.8082784079
 20
279.801822416
 30
0.0
 10
41.0639461166
 20
277.3454685164
 30
0.0
 10
39.4247585826
 20
274.724354613
 30
0.0
 10
37.9543589488
 20
271.9847082365
 30
0.0
 10
37.139829396
 20
270.0787585744
 30
0.0
 10
36.7747570898
 20
269.1171913953
 30
0.0
  0
SPLINE
  5
35B
100
AcDbEntity
  8
0
100
AcDbSpline
 62
7
  6
CONTINUOUS
 70
0
 71
3
 72
9
 73
5
 74
0
 42
0.0000001
 43
0.0000001
 44
0.0000000001
 40
0.0
 40
0.0
 40
0.0
 40
0.0
 40
0.5023829857
 40
1.0
 40
1.0
 40
1.0
 40
1.0
 10
49.6995344882
 20
286.8475746923
 30
0.0
 10
49.6895992428
 20
286.9035776095
 30
0.0
 10
49.6353305321
 20
287.0118363429
 30
0.0
 10
49.5281259153
 20
287.0688802686
 30
0.0
 10
49.4727586112
 20
287.0792922234
 30
0.0
  0
SPLINE
  5
35C
100
AcDbEntity
  8
0
100
AcDbSpline
 62
7
  6
CONTINUOUS
 70
0
 71
3
 72
9
 73
5
 74
0
 42
0.0000001
 43
0.0000001
 44
0.0000000001
 40
0.0
 40
0.0
 40
0.0
 40
0.0
 40
0.257109522
 40
1.0
 40
1.0
 40
1.0
 40
1.0
 10
49.7159108429
 20
286.8612933333
 30
0.0
 10
49.7814809826
 20
286.9243520253
 30
0.0
 10
50.0334598593
 20
287.1727475527
 30
0.0
 10
50.272898029
 20
287.4339845764
 30
0.0
 10
50.4417325885
 20
287.6354455468
 30
0.0
  0
SPLINE
  5
35D
100
AcDbEntity
  8
0
100
AcDbSpline
 62
7
  6
CONTINUOUS
 70
0
 71
3
 72
11
 73
7
 74
0
 42
0.0000001
 43
0.0000001
 44
0.0000000001
 40
0.0
 40
0.0
 40
0.0
 40
0.0
 40
0.2631890756
 40
0.527505286
 40
0.7789424712
 40
1.0
 40
1.0
 40
1.0
 40
1.0
 10
37.7533033819
 20
269.1012120276
 30
0.0
 10
38.3169622083
 20
270.6230020731
 30
0.0
 10
39.6959146891
 20
273.5823074777
 30
0.0
 10
42.1930594578
 20
277.6915077039
 30
0.0
 10
44.8504494909
 20
281.3809283017
 30
0.0
 10
46.7037831696
 20
283.6320362434
 30
0.0
 10
47.6091430261
 20
284.650958633
 30
0.0
  0
SPLINE
  5
35E
100
AcDbEntity
  8
0
100
AcDbSpline
 62
7
  6
CONTINUOUS
 70
0
 71
3
 72
9
 73
5
 74
0
 42
0.0000001
 43
0.0000001
 44
0.0000000001
 40
0.0
 40
0.0
 40
0.0
 40
0.0
 40
0.2776920686
 40
1.0
 40
1.0
 40
1.0
 40
1.0
 10
47.6090896467
 20
284.6511241343
 30
0.0
 10
47.7956360243
 20
284.8610631661
 30
0.0
 10
48.4736529361
 20
285.6114349476
 30
0.0
 10
49.1753859559
 20
286.3408962555
 30
0.0
 10
49.7015353664
 20
286.8476610035
 30
0.0
  0
SPLINE
  5
35F
100
AcDbEntity
  8
0
100
AcDbSpline
 62
7
  6
CONTINUOUS
 70
0
 71
3
 72
9
 73
5
 74
0
 42
0.0000001
 43
0.0000001
 44
0.0000000001
 40
0.0
 40
0.0
 40
0.0
 40
0.0
 40
0.5024854646
 40
1.0
 40
1.0
 40
1.0
 40
1.0
 10
49.7159074543
 20
286.8613132915
 30
0.0
 10
49.7063495009
 20
286.9175476137
 30
0.0
 10
49.6492300449
 20
287.0242906685
 30
0.0
 10
49.5436044318
 20
287.0842151985
 30
0.0
 10
49.4880288892
 20
287.0942628963
 30
0.0
  0
SPLINE
  5
360
100
AcDbEntity
  8
0
100
AcDbSpline
 62
7
  6
CONTINUOUS
 70
0
 71
3
 72
16
 73
12
 74
0
 42
0.0000001
 43
0.0000001
 44
0.0000000001
 40
0.0
 40
0.0
 40
0.0
 40
0.0
 40
0.2627308799
 40
0.5167876782
 40
0.6396327426
 40
0.7586623373
 40
0.8163705409
 40
0.8726314624
 40
0.9280865974
 40
0.9584600188
 40
1.0
 40
1.0
 40
1.0
 40
1.0
 10
49.8652887767
 20
287.4298978886
 30
0.0
 10
49.913652603
 20
287.4607367651
 30
0.0
 10
50.0097501066
 20
287.5198830363
 30
0.0
 10
50.1320277744
 20
287.587583255
 30
0.0
 10
50.2300815826
 20
287.6335944735
 30
0.0
 10
50.2911772912
 20
287.6572375948
 30
0.0
 10
50.3403676004
 20
287.6706159586
 30
0.0
 10
50.3769209444
 20
287.6761804941
 30
0.0
 10
50.4087304352
 20
287.6743852658
 30
0.0
 10
50.4338012431
 20
287.6601180968
 30
0.0
 10
50.4404139949
 20
287.6442895379
 30
0.0
 10
50.4417433994
 20
287.6353185031
 30
0.0
  0
SPLINE
  5
361
100
AcDbEntity
  8
0
100
AcDbSpline
 62
7
  6
CONTINUOUS
 70
0
 71
3
 72
8
 73
4
 74
0
 42
0.0000001
 43
0.0000001
 44
0.0000000001
 40
0.0
 40
0.0
 40
0.0
 40
0.0
 40
1.0
 40
1.0
 40
1.0
 40
1.0
 10
54.4423965459
 20
296.9530095012
 30
0.0
 10
54.4220721128
 20
296.97315334
 30
0.0
 10
54.3962939373
 20
296.9886916488
 30
0.0
 10
54.3691739815
 20
296.9978220823
 30
0.0
  0
SPLINE
  5
362
100
AcDbEntity
  8
0
100
AcDbSpline
 62
7
  6
CONTINUOUS
 70
0
 71
3
 72
8
 73
4
 74
0
 42
0.0000001
 43
0.0000001
 44
0.0000000001
 40
0.0
 40
0.0
 40
0.0
 40
0.0
 40
1.0
 40
1.0
 40
1.0
 40
1.0
 10
54.3691739815
 20
296.9978220823
 30
0.0
 10
54.3359224184
 20
297.0090168345
 30
0.0
 10
54.298992682
 20
297.0115348389
 30
0.0
 10
54.264273935
 20
297.0064754388
 30
0.0
  0
LINE
  5
363
100
AcDbEntity
  8
0
100
AcDbLine
 62
7
  6
CONTINUOUS
 10
-11.4466042933
 20
296.7744899278
 11
-11.4450489324
 21
296.7885902005
  0
SPLINE
  5
364
100
AcDbEntity
  8
0
100
AcDbSpline
 62
7
  6
CONTINUOUS
 70
0
 71
3
 72
11
 73
7
 74
0
 42
0.0000001
 43
0.0000001
 44
0.0000000001
 40
0.0
 40
0.0
 40
0.0
 40
0.0
 40
0.3097770553
 40
0.5716058888
 40
0.7958380869
 40
1.0
 40
1.0
 40
1.0
 40
1.0
 10
-11.4104268843
 20
297.0375933937
 30
0.0
 10
-11.3834609552
 20
297.1944140794
 30
0.0
 10
-11.3152225947
 20
297.4814377363
 30
0.0
 10
-11.147621261
 20
297.8577178589
 30
0.0
 10
-10.9227005251
 20
298.1383997579
 30
0.0
 10
-10.7304397868
 20
298.2565251919
 30
0.0
 10
-10.6324504115
 20
298.293889051
 30
0.0
  0
SPLINE
  5
365
100
AcDbEntity
  8
0
100
AcDbSpline
 62
7
  6
CONTINUOUS
 70
0
 71
3
 72
9
 73
5
 74
0
 42
0.0000001
 43
0.0000001
 44
0.0000000001
 40
0.0
 40
0.0
 40
0.0
 40
0.0
 40
0.4843306006
 40
1.0
 40
1.0
 40
1.0
 40
1.0
 10
54.4553511957
 20
296.9387635086
 30
0.0
 10
54.4336495932
 20
296.9607890026
 30
0.0
 10
54.3751566543
 20
296.9940237734
 30
0.0
 10
54.3092475909
 20
296.9955556008
 30
0.0
 10
54.2766386662
 20
296.9910312022
 30
0.0
  0
SPLINE
  5
366
100
AcDbEntity
  8
0
100
AcDbSpline
 62
7
  6
CONTINUOUS
 70
0
 71
3
 72
10
 73
6
 74
0
 42
0.0000001
 43
0.0000001
 44
0.0000000001
 40
0.0
 40
0.0
 40
0.0
 40
0.0
 40
0.2873519856
 40
0.5486348502
 40
1.0
 40
1.0
 40
1.0
 40
1.0
 10
49.8652887767
 20
287.4298978886
 30
0.0
 10
50.374132409
 20
287.7546471744
 30
0.0
 10
51.3200416691
 20
288.4187611103
 30
0.0
 10
52.8966781987
 20
289.8065891239
 30
0.0
 10
53.8330555501
 20
291.0193473936
 30
0.0
 10
54.2446750309
 20
291.8735286781
 30
0.0
  0
SPLINE
  5
367
100
AcDbEntity
  8
0
100
AcDbSpline
 62
7
  6
CONTINUOUS
 70
0
 71
3
 72
9
 73
5
 74
0
 42
0.0000001
 43
0.0000001
 44
0.0000000001
 40
0.0
 40
0.0
 40
0.0
 40
0.0
 40
0.4876909379
 40
1.0
 40
1.0
 40
1.0
 40
1.0
 10
-11.6923331324
 20
296.5954044066
 30
0.0
 10
-11.6824370839
 20
296.6488325028
 30
0.0
 10
-11.6200665487
 20
296.7557104331
 30
0.0
 10
-11.5021170054
 20
296.7871447148
 30
0.0
 10
-11.4450405245
 20
296.7865369536
 30
0.0
  0
SPLINE
  5
368
100
AcDbEntity
  8
0
100
AcDbSpline
 62
7
  6
CONTINUOUS
 70
0
 71
3
 72
9
 73
5
 74
0
 42
0.0000001
 43
0.0000001
 44
0.0000000001
 40
0.0
 40
0.0
 40
0.0
 40
0.0
 40
0.4591533452
 40
1.0
 40
1.0
 40
1.0
 40
1.0
 10
54.8322983273
 20
294.76906913
 30
0.0
 10
54.973633568
 20
293.9780765802
 30
0.0
 10
55.122786078
 20
292.2277180593
 30
0.0
 10
55.0939297223
 20
290.4766596303
 30
0.0
 10
55.0497574598
 20
289.5312070167
 30
0.0
  0
SPLINE
  5
369
100
AcDbEntity
  8
0
100
AcDbSpline
 62
7
  6
CONTINUOUS
 70
0
 71
3
 72
9
 73
5
 74
0
 42
0.0000001
 43
0.0000001
 44
0.0000000001
 40
0.0
 40
0.0
 40
0.0
 40
0.0
 40
0.1844741413
 40
1.0
 40
1.0
 40
1.0
 40
1.0
 10
54.2447289535
 20
291.8735924516
 30
0.0
 10
54.030414739
 20
291.428824232
 30
0.0
 10
52.8709823869
 20
289.0167435343
 30
0.0
 10
51.7277527243
 20
286.5963896081
 30
0.0
 10
50.8361593438
 20
284.6042048501
 30
0.0
  0
SPLINE
  5
36A
100
AcDbEntity
  8
0
100
AcDbSpline
 62
7
  6
CONTINUOUS
 70
0
 71
3
 72
9
 73
5
 74
0
 42
0.0000001
 43
0.0000001
 44
0.0000000001
 40
0.0
 40
0.0
 40
0.0
 40
0.0
 40
0.488000561
 40
1.0
 40
1.0
 40
1.0
 40
1.0
 10
-11.6950981137
 20
296.5822257566
 30
0.0
 10
-11.6855498854
 20
296.6358189905
 30
0.0
 10
-11.6200568436
 20
296.7404616952
 30
0.0
 10
-11.5037202628
 20
296.7752696118
 30
0.0
 10
-11.4466123732
 20
296.7744166261
 30
0.0
  0
LINE
  5
36B
100
AcDbEntity
  8
0
100
AcDbLine
 62
7
  6
CONTINUOUS
 10
54.3815800105
 20
291.8633833626
 11
54.3800240718
 21
291.8492188149
  0
SPLINE
  5
36C
100
AcDbEntity
  8
0
100
AcDbSpline
 62
7
  6
CONTINUOUS
 70
0
 71
3
 72
10
 73
6
 74
0
 42
0.0000001
 43
0.0000001
 44
0.0000000001
 40
0.0
 40
0.0
 40
0.0
 40
0.0
 40
0.2447201639
 40
0.489084229
 40
1.0
 40
1.0
 40
1.0
 40
1.0
 10
-11.8046704464
 20
295.2771561809
 30
0.0
 10
-11.8605945
 20
294.9766212066
 30
0.0
 10
-11.9208426892
 20
294.3647472741
 30
0.0
 10
-11.820612268
 20
293.1144032596
 30
0.0
 10
-11.4915808677
 20
292.2068177252
 30
0.0
 10
-11.1930408911
 20
291.64273348
 30
0.0
  0
SPLINE
  5
36D
100
AcDbEntity
  8
0
100
AcDbSpline
 62
7
  6
CONTINUOUS
 70
0
 71
3
 72
15
 73
11
 74
0
 42
0.0000001
 43
0.0000001
 44
0.0000000001
 40
0.0
 40
0.0
 40
0.0
 40
0.0
 40
0.0331863755
 40
0.0720546421
 40
0.1659592022
 40
0.2790660351
 40
0.4076683781
 40
0.6955300061
 40
0.8473640137
 40
1.0
 40
1.0
 40
1.0
 40
1.0
 10
54.3800240718
 20
291.8492188149
 30
0.0
 10
54.3558150535
 20
291.624174445
 30
0.0
 10
54.2779408207
 20
291.1383033501
 30
0.0
 10
54.0297956877
 20
290.0335630215
 30
0.0
 10
53.5544317443
 20
288.4238705226
 30
0.0
 10
52.8151488334
 20
286.2574467624
 30
0.0
 10
51.5752518801
 20
282.8649386937
 30
0.0
 10
50.2273355388
 20
279.2306904595
 30
0.0
 10
48.9409330247
 20
275.4001857826
 30
0.0
 10
48.3661689409
 20
273.404012316
 30
0.0
 10
48.0938535261
 20
272.3992286801
 30
0.0
  0
SPLINE
  5
36E
100
AcDbEntity
  8
0
100
AcDbSpline
 62
7
  6
CONTINUOUS
 70
0
 71
3
 72
14
 73
10
 74
0
 42
0.0000001
 43
0.0000001
 44
0.0000000001
 40
0.0
 40
0.0
 40
0.0
 40
0.0
 40
0.4256828012
 40
0.5950574322
 40
0.7347596798
 40
0.8447304915
 40
0.9250290999
 40
0.9760906255
 40
1.0
 40
1.0
 40
1.0
 40
1.0
 10
-11.1930018067
 20
291.6426369577
 30
0.0
 10
-11.3170627785
 20
291.8770321011
 30
0.0
 10
-11.4917610105
 20
292.2041604427
 30
0.0
 10
-11.7129638591
 20
292.6046469136
 30
0.0
 10
-11.8424442217
 20
292.8319615389
 30
0.0
 10
-11.9474492883
 20
293.0071219525
 30
0.0
 10
-12.0308294658
 20
293.1361350688
 30
0.0
 10
-12.0868771728
 20
293.2075716324
 30
0.0
 10
-12.1253767408
 20
293.2464186367
 30
0.0
 10
-12.1402230142
 20
293.2452068912
 30
0.0
  0
SPLINE
  5
36F
100
AcDbEntity
  8
0
100
AcDbSpline
 62
7
  6
CONTINUOUS
 70
0
 71
3
 72
9
 73
5
 74
0
 42
0.0000001
 43
0.0000001
 44
0.0000000001
 40
0.0
 40
0.0
 40
0.0
 40
0.0
 40
0.5693022161
 40
1.0
 40
1.0
 40
1.0
 40
1.0
 10
-11.3416725694
 20
291.6447258283
 30
0.0
 10
-11.5602213933
 20
291.8791034329
 30
0.0
 10
-11.9493411922
 20
292.285769672
 30
0.0
 10
-12.3619010049
 20
292.6703348089
 30
0.0
 10
-12.5509062193
 20
292.8221737023
 30
0.0
  0
SPLINE
  5
370
100
AcDbEntity
  8
0
100
AcDbSpline
 62
7
  6
CONTINUOUS
 70
0
 71
3
 72
9
 73
5
 74
0
 42
0.0000001
 43
0.0000001
 44
0.0000000001
 40
0.0
 40
0.0
 40
0.0
 40
0.0
 40
0.6183731037
 40
1.0
 40
1.0
 40
1.0
 40
1.0
 10
-12.5509062193
 20
292.8221737023
 30
0.0
 10
-12.6707010472
 20
292.9184118625
 30
0.0
 10
-12.8672497209
 20
293.0646450835
 30
0.0
 10
-13.1114935904
 20
293.1644977259
 30
0.0
 10
-13.2060930148
 20
293.1578438613
 30
0.0
  0
SPLINE
  5
371
100
AcDbEntity
  8
0
100
AcDbSpline
 62
7
  6
CONTINUOUS
 70
0
 71
3
 72
9
 73
5
 74
0
 42
0.0000001
 43
0.0000001
 44
0.0000000001
 40
0.0
 40
0.0
 40
0.0
 40
0.0
 40
0.5000829495
 40
1.0
 40
1.0
 40
1.0
 40
1.0
 10
-11.5718247948
 20
291.4141723543
 30
0.0
 10
-11.5629105658
 20
291.4704164652
 30
0.0
 10
-11.5086488332
 20
291.5807043981
 30
0.0
 10
-11.3979589585
 20
291.6342160068
 30
0.0
 10
-11.341663527
 20
291.6426739403
 30
0.0
  0
SPLINE
  5
372
100
AcDbEntity
  8
0
100
AcDbSpline
 62
7
  6
CONTINUOUS
 70
0
 71
3
 72
9
 73
5
 74
0
 42
0.0000001
 43
0.0000001
 44
0.0000000001
 40
0.0
 40
0.0
 40
0.0
 40
0.0
 40
0.2424240849
 40
1.0
 40
1.0
 40
1.0
 40
1.0
 10
-11.5605558446
 20
291.4016334022
 30
0.0
 10
-11.4982951495
 20
291.3432762972
 30
0.0
 10
-11.2382054635
 20
291.1060453068
 30
0.0
 10
-10.9657378492
 20
290.8825024459
 30
0.0
 10
-10.7541190301
 20
290.7202361527
 30
0.0
  0
SPLINE
  5
373
100
AcDbEntity
  8
0
100
AcDbSpline
 62
7
  6
CONTINUOUS
 70
0
 71
3
 72
9
 73
5
 74
0
 42
0.0000001
 43
0.0000001
 44
0.0000000001
 40
0.0
 40
0.0
 40
0.0
 40
0.0
 40
0.4254828332
 40
1.0
 40
1.0
 40
1.0
 40
1.0
 10
-12.9812992121
 20
292.5424233117
 30
0.0
 10
-12.7598137211
 20
292.4137232981
 30
0.0
 10
-12.2753677806
 20
292.0515384517
 30
0.0
 10
-11.8264304255
 20
291.6506126852
 30
0.0
 10
-11.5738600518
 20
291.4142912763
 30
0.0
  0
SPLINE
  5
374
100
AcDbEntity
  8
0
100
AcDbSpline
 62
7
  6
CONTINUOUS
 70
0
 71
3
 72
9
 73
5
 74
0
 42
0.0000001
 43
0.0000001
 44
0.0000000001
 40
0.0
 40
0.0
 40
0.0
 40
0.0
 40
0.5002751264
 40
1.0
 40
1.0
 40
1.0
 40
1.0
 10
-11.5605532041
 20
291.4016506104
 30
0.0
 10
-11.5519184091
 20
291.4580725059
 30
0.0
 10
-11.4945610214
 20
291.5665319461
 30
0.0
 10
-11.3857186085
 20
291.6231692642
 30
0.0
 10
-11.3292987942
 20
291.6313931039
 30
0.0
  0
SPLINE
  5
375
100
AcDbEntity
  8
0
100
AcDbSpline
 62
7
  6
CONTINUOUS
 70
0
 71
3
 72
12
 73
8
 74
0
 42
0.0000001
 43
0.0000001
 44
0.0000000001
 40
0.0
 40
0.0
 40
0.0
 40
0.0
 40
0.2070583784
 40
0.4284879687
 40
0.6733292287
 40
0.8144698412
 40
1.0
 40
1.0
 40
1.0
 40
1.0
 10
-10.9929116154
 20
291.2890993161
 30
0.0
 10
-10.9707158375
 20
291.2522495905
 30
0.0
 10
-10.925661645
 20
291.1754151451
 30
0.0
 10
-10.8591364752
 20
291.0525095654
 30
0.0
 10
-10.8044354814
 20
290.9380318025
 30
0.0
 10
-10.7646430839
 20
290.8273139446
 30
0.0
 10
-10.7474186369
 20
290.758047632
 30
0.0
 10
-10.7541282387
 20
290.7200906827
 30
0.0
  0
SPLINE
  5
376
100
AcDbEntity
  8
0
100
AcDbSpline
 62
7
  6
CONTINUOUS
 70
0
 71
3
 72
10
 73
6
 74
0
 42
0.0000001
 43
0.0000001
 44
0.0000000001
 40
0.0
 40
0.0
 40
0.0
 40
0.0
 40
0.4515840515
 40
0.7131546159
 40
1.0
 40
1.0
 40
1.0
 40
1.0
 10
-10.9929116154
 20
291.2890993161
 30
0.0
 10
-10.4795182482
 20
290.4375215619
 30
0.0
 10
-9.4069842331
 20
289.2489173838
 30
0.0
 10
-7.6737035438
 20
287.8915331181
 30
0.0
 10
-6.650843853
 20
287.2442666732
 30
0.0
 10
-6.1039040814
 20
286.9283591854
 30
0.0
  0
SPLINE
  5
377
100
AcDbEntity
  8
0
100
AcDbSpline
 62
7
  6
CONTINUOUS
 70
0
 71
3
 72
9
 73
5
 74
0
 42
0.0000001
 43
0.0000001
 44
0.0000000001
 40
0.0
 40
0.0
 40
0.0
 40
0.0
 40
0.5547553559
 40
1.0
 40
1.0
 40
1.0
 40
1.0
 10
-6.243398687
 20
286.9079809962
 30
0.0
 10
-6.9993933782
 20
287.2300829889
 30
0.0
 10
-8.3952564823
 20
287.7378884001
 30
0.0
 10
-9.8819209412
 20
287.9600410564
 30
0.0
 10
-10.5410625959
 20
287.9372421745
 30
0.0
  0
SPLINE
  5
378
100
AcDbEntity
  8
0
100
AcDbSpline
 62
7
  6
CONTINUOUS
 70
0
 71
3
 72
9
 73
5
 74
0
 42
0.0000001
 43
0.0000001
 44
0.0000000001
 40
0.0
 40
0.0
 40
0.0
 40
0.0
 40
0.2571318182
 40
1.0
 40
1.0
 40
1.0
 40
1.0
 10
-10.8816797098
 20
287.9136656985
 30
0.0
 10
-10.9350477661
 20
287.9080310802
 30
0.0
 10
-11.1421823479
 20
287.8824401696
 30
0.0
 10
-11.3475317906
 20
287.8416452068
 30
0.0
 10
-11.4973858882
 20
287.8018804638
 30
0.0
  0
SPLINE
  5
379
100
AcDbEntity
  8
0
100
AcDbSpline
 62
7
  6
CONTINUOUS
 70
0
 71
3
 72
9
 73
5
 74
0
 42
0.0000001
 43
0.0000001
 44
0.0000000001
 40
0.0
 40
0.0
 40
0.0
 40
0.0
 40
0.5191918411
 40
1.0
 40
1.0
 40
1.0
 40
1.0
 10
48.3958189219
 20
275.4561272881
 30
0.0
 10
48.7925930742
 20
277.0459316976
 30
0.0
 10
49.6170766855
 20
280.0926264975
 30
0.0
 10
50.4593793123
 20
283.1342965137
 30
0.0
 10
50.8361593438
 20
284.6042048501
 30
0.0
  0
SPLINE
  5
37A
100
AcDbEntity
  8
0
100
AcDbSpline
 62
7
  6
CONTINUOUS
 70
0
 71
3
 72
9
 73
5
 74
0
 42
0.0000001
 43
0.0000001
 44
0.0000000001
 40
0.0
 40
0.0
 40
0.0
 40
0.0
 40
0.2507596313
 40
1.0
 40
1.0
 40
1.0
 40
1.0
 10
28.269174433
 20
281.4677970659
 30
0.0
 10
27.2940252569
 20
281.3878736376
 30
0.0
 10
23.4269346709
 20
280.8503556029
 30
0.0
 10
19.6704593156
 20
279.4796953332
 30
0.0
 10
17.1367511714
 20
278.021409656
 30
0.0
  0
SPLINE
  5
37B
100
AcDbEntity
  8
0
100
AcDbSpline
 62
7
  6
CONTINUOUS
 70
0
 71
3
 72
9
 73
5
 74
0
 42
0.0000001
 43
0.0000001
 44
0.0000000001
 40
0.0
 40
0.0
 40
0.0
 40
0.0
 40
0.256489897
 40
1.0
 40
1.0
 40
1.0
 40
1.0
 10
-14.9405229594
 20
280.989878363
 30
0.0
 10
-14.937071521
 20
281.0716725664
 30
0.0
 10
-14.922018254
 20
281.390499063
 30
0.0
 10
-14.9003002928
 20
281.7090300724
 30
0.0
 10
-14.879581139
 20
281.9454390187
 30
0.0
  0
SPLINE
  5
37C
100
AcDbEntity
  8
0
100
AcDbSpline
 62
7
  6
CONTINUOUS
 70
0
 71
3
 72
9
 73
5
 74
0
 42
0.0000001
 43
0.0000001
 44
0.0000000001
 40
0.0
 40
0.0
 40
0.0
 40
0.0
 40
0.2570714095
 40
1.0
 40
1.0
 40
1.0
 40
1.0
 10
-14.879581139
 20
281.9454390187
 30
0.0
 10
-14.8727353593
 20
282.0235504882
 30
0.0
 10
-14.8441518344
 20
282.327223334
 30
0.0
 10
-14.8074146409
 20
282.6301599499
 30
0.0
 10
-14.7745222355
 20
282.8543650999
 30
0.0
  0
SPLINE
  5
37D
100
AcDbEntity
  8
0
100
AcDbSpline
 62
7
  6
CONTINUOUS
 70
0
 71
3
 72
9
 73
5
 74
0
 42
0.0000001
 43
0.0000001
 44
0.0000000001
 40
0.0
 40
0.0
 40
0.0
 40
0.0
 40
0.2601855988
 40
1.0
 40
1.0
 40
1.0
 40
1.0
 10
-14.7745222355
 20
282.8543650999
 30
0.0
 10
-14.7601236854
 20
282.9525102201
 30
0.0
 10
-14.7006325342
 20
283.3290791006
 30
0.0
 10
-14.6235740702
 20
283.7030441775
 30
0.0
 10
-14.5537846837
 20
283.9763277445
 30
0.0
  0
SPLINE
  5
37E
100
AcDbEntity
  8
0
100
AcDbSpline
 62
7
  6
CONTINUOUS
 70
0
 71
3
 72
9
 73
5
 74
0
 42
0.0000001
 43
0.0000001
 44
0.0000000001
 40
0.0
 40
0.0
 40
0.0
 40
0.0
 40
0.2557374711
 40
1.0
 40
1.0
 40
1.0
 40
1.0
 10
-14.5537846837
 20
283.9763277445
 30
0.0
 10
-14.5412978629
 20
284.0252240466
 30
0.0
 10
-14.4908555997
 20
284.2160019273
 30
0.0
 10
-14.4337366129
 20
284.4050392156
 30
0.0
 10
-14.3869497842
 20
284.5442553836
 30
0.0
  0
SPLINE
  5
37F
100
AcDbEntity
  8
0
100
AcDbSpline
 62
7
  6
CONTINUOUS
 70
0
 71
3
 72
14
 73
10
 74
0
 42
0.0000001
 43
0.0000001
 44
0.0000000001
 40
0.0
 40
0.0
 40
0.0
 40
0.0
 40
0.25074788
 40
0.3652595014
 40
0.4778479134
 40
0.5933711728
 40
0.7166058353
 40
0.8512658988
 40
1.0
 40
1.0
 40
1.0
 40
1.0
 10
-14.3869497842
 20
284.5442553836
 30
0.0
 10
-14.2177664199
 20
285.047667569
 30
0.0
 10
-13.8854279613
 20
285.7651266451
 30
0.0
 10
-13.2125064872
 20
286.5293859921
 30
0.0
 10
-12.6260796858
 20
286.966220213
 30
0.0
 10
-11.9441505436
 20
287.2770794
 30
0.0
 10
-11.169862078
 20
287.4587529747
 30
0.0
 10
-10.3072356606
 20
287.513919986
 30
0.0
 10
-9.7068437157
 20
287.4698519484
 30
0.0
 10
-9.3943428305
 20
287.4301169991
 30
0.0
  0
SPLINE
  5
380
100
AcDbEntity
  8
0
100
AcDbSpline
 62
7
  6
CONTINUOUS
 70
0
 71
3
 72
9
 73
5
 74
0
 42
0.0000001
 43
0.0000001
 44
0.0000000001
 40
0.0
 40
0.0
 40
0.0
 40
0.0
 40
0.4694863123
 40
1.0
 40
1.0
 40
1.0
 40
1.0
 10
-9.3943466225
 20
287.4303163473
 30
0.0
 10
-8.9164465185
 20
287.3695385837
 30
0.0
 10
-7.9087322843
 20
287.1580436208
 30
0.0
 10
-6.9326353944
 20
286.8365459575
 30
0.0
 10
-6.422956999
 20
286.6453197089
 30
0.0
  0
SPLINE
  5
381
100
AcDbEntity
  8
0
100
AcDbSpline
 62
7
  6
CONTINUOUS
 70
0
 71
3
 72
9
 73
5
 74
0
 42
0.0000001
 43
0.0000001
 44
0.0000000001
 40
0.0
 40
0.0
 40
0.0
 40
0.0
 40
0.5296831924
 40
1.0
 40
1.0
 40
1.0
 40
1.0
 10
-6.4213808059
 20
286.6454822722
 30
0.0
 10
-6.4150528077
 20
286.7029069137
 30
0.0
 10
-6.3791614441
 20
286.8105234929
 30
0.0
 10
-6.2915005449
 20
286.8881311751
 30
0.0
 10
-6.2433903865
 20
286.9059304626
 30
0.0
  0
SPLINE
  5
382
100
AcDbEntity
  8
0
100
AcDbSpline
 62
7
  6
CONTINUOUS
 70
0
 71
3
 72
9
 73
5
 74
0
 42
0.0000001
 43
0.0000001
 44
0.0000000001
 40
0.0
 40
0.0
 40
0.0
 40
0.0
 40
0.4701569106
 40
1.0
 40
1.0
 40
1.0
 40
1.0
 10
-6.2188742274
 20
286.8954508621
 30
0.0
 10
-6.2667602821
 20
286.8776522211
 30
0.0
 10
-6.3539814004
 20
286.8002750827
 30
0.0
 10
-6.389818632
 20
286.6931149991
 30
0.0
 10
-6.3961739384
 20
286.6358945548
 30
0.0
  0
SPLINE
  5
383
100
AcDbEntity
  8
0
100
AcDbSpline
 62
7
  6
CONTINUOUS
 70
0
 71
3
 72
14
 73
10
 74
0
 42
0.0000001
 43
0.0000001
 44
0.0000000001
 40
0.0
 40
0.0
 40
0.0
 40
0.0
 40
0.2312186304
 40
0.4688637391
 40
0.5910310706
 40
0.7166398622
 40
0.8484993627
 40
0.9199241484
 40
1.0
 40
1.0
 40
1.0
 40
1.0
 10
-5.5767030507
 20
286.6327119849
 30
0.0
 10
-5.5212172806
 20
286.6024856372
 30
0.0
 10
-5.4096716584
 20
286.5393812929
 30
0.0
 10
-5.2725086101
 20
286.4540004637
 30
0.0
 10
-5.1635596457
 20
286.3781439864
 30
0.0
 10
-5.0816553433
 20
286.3147374994
 30
0.0
 10
-5.014817986
 20
286.2532461621
 30
0.0
 10
-4.9670397733
 20
286.1938326179
 30
0.0
 10
-4.9481911094
 20
286.1521671007
 30
0.0
 10
-4.9513195869
 20
286.1305097188
 30
0.0
  0
SPLINE
  5
384
100
AcDbEntity
  8
0
100
AcDbSpline
 62
7
  6
CONTINUOUS
 70
0
 71
3
 72
9
 73
5
 74
0
 42
0.0000001
 43
0.0000001
 44
0.0000000001
 40
0.0
 40
0.0
 40
0.0
 40
0.0
 40
0.2374303015
 40
1.0
 40
1.0
 40
1.0
 40
1.0
 10
-5.5767030507
 20
286.6327119849
 30
0.0
 10
-5.3061476708
 20
286.4853266644
 30
0.0
 10
-4.1552009108
 20
285.8856104819
 30
0.0
 10
-2.9636344157
 20
285.3654323289
 30
0.0
 10
-2.0419881758
 20
285.0052449987
 30
0.0
  0
SPLINE
  5
385
100
AcDbEntity
  8
0
100
AcDbSpline
 62
7
  6
CONTINUOUS
 70
0
 71
3
 72
9
 73
5
 74
0
 42
0.0000001
 43
0.0000001
 44
0.0000000001
 40
0.0
 40
0.0
 40
0.0
 40
0.0
 40
0.2380760008
 40
1.0
 40
1.0
 40
1.0
 40
1.0
 10
-2.0419881758
 20
285.0052449987
 30
0.0
 10
-1.6365381494
 20
284.8467916181
 30
0.0
 10
0.0780749878
 20
284.2109747979
 30
0.0
 10
1.8333091392
 20
283.6872327576
 30
0.0
 10
3.1823358719
 20
283.3393968942
 30
0.0
  0
SPLINE
  5
386
100
AcDbEntity
  8
0
100
AcDbSpline
 62
7
  6
CONTINUOUS
 70
0
 71
3
 72
11
 73
7
 74
0
 42
0.0000001
 43
0.0000001
 44
0.0000000001
 40
0.0
 40
0.0
 40
0.0
 40
0.0
 40
0.2836366857
 40
0.5438506658
 40
0.781289519
 40
1.0
 40
1.0
 40
1.0
 40
1.0
 10
3.1825274618
 20
283.3393796912
 30
0.0
 10
2.3881398078
 20
283.544186779
 30
0.0
 10
0.8403474106
 20
283.8509070658
 30
0.0
 10
-1.4241624461
 20
283.9806211325
 30
0.0
 10
-3.4945610707
 20
283.7563149035
 30
0.0
 10
-4.7639240764
 20
283.355550376
 30
0.0
 10
-5.3410676053
 20
283.0965907616
 30
0.0
  0
LINE
  5
387
100
AcDbEntity
  8
0
100
AcDbLine
 62
7
  6
CONTINUOUS
 10
3.1061879231
 20
283.2935389227
 11
3.0736058971
 21
283.2994819199
  0
SPLINE
  5
388
100
AcDbEntity
  8
0
100
AcDbSpline
 62
7
  6
CONTINUOUS
 70
0
 71
3
 72
11
 73
7
 74
0
 42
0.0000001
 43
0.0000001
 44
0.0000000001
 40
0.0
 40
0.0
 40
0.0
 40
0.0
 40
0.2825668023
 40
0.480557854
 40
0.6657585215
 40
1.0
 40
1.0
 40
1.0
 40
1.0
 10
3.0736058971
 20
283.2994819199
 30
0.0
 10
2.1890066885
 20
283.4597036782
 30
0.0
 10
0.6689703183
 20
283.6579681192
 30
0.0
 10
-1.453213435
 20
283.6941015684
 30
0.0
 10
-3.7275467507
 20
283.4815184551
 30
0.0
 10
-5.3450210364
 20
283.0144917679
 30
0.0
 10
-6.3004621599
 20
282.5476474797
 30
0.0
  0
SPLINE
  5
389
100
AcDbEntity
  8
0
100
AcDbSpline
 62
7
  6
CONTINUOUS
 70
0
 71
3
 72
9
 73
5
 74
0
 42
0.0000001
 43
0.0000001
 44
0.0000000001
 40
0.0
 40
0.0
 40
0.0
 40
0.0
 40
0.569700811
 40
1.0
 40
1.0
 40
1.0
 40
1.0
 10
2.9748908703
 20
283.0153284702
 30
0.0
 10
2.9776461425
 20
283.0729202375
 30
0.0
 10
2.9945536346
 20
283.1725719858
 30
0.0
 10
3.0406431302
 20
283.2689794742
 30
0.0
 10
3.073612192
 20
283.2974325386
 30
0.0
  0
SPLINE
  5
38A
100
AcDbEntity
  8
0
100
AcDbSpline
 62
7
  6
CONTINUOUS
 70
0
 71
3
 72
9
 73
5
 74
0
 42
0.0000001
 43
0.0000001
 44
0.0000000001
 40
0.0
 40
0.0
 40
0.0
 40
0.0
 40
0.5132897106
 40
1.0
 40
1.0
 40
1.0
 40
1.0
 10
4.6150254922
 20
279.6793604452
 30
0.0
 10
3.3210210235
 20
278.9958815027
 30
0.0
 10
0.9388280327
 20
277.3667532462
 30
0.0
 10
-0.9096597153
 20
275.1360467838
 30
0.0
 10
-1.6243549793
 20
273.9466139861
 30
0.0
  0
SPLINE
  5
38B
100
AcDbEntity
  8
0
100
AcDbSpline
 62
7
  6
CONTINUOUS
 70
0
 71
3
 72
11
 73
7
 74
0
 42
0.0000001
 43
0.0000001
 44
0.0000000001
 40
0.0
 40
0.0
 40
0.0
 40
0.0
 40
0.2632791535
 40
0.5113862171
 40
0.7533907424
 40
1.0
 40
1.0
 40
1.0
 40
1.0
 10
-11.1534082707
 20
275.7189014685
 30
0.0
 10
-10.9880723819
 20
276.3707227453
 30
0.0
 10
-10.5699586866
 20
277.6160740035
 30
0.0
 10
-9.6197355087
 20
279.3042375045
 30
0.0
 10
-8.3592993579
 20
280.72146779
 30
0.0
 10
-7.3340610221
 20
281.4531917586
 30
0.0
 10
-6.7868491665
 20
281.7651448733
 30
0.0
  0
SPLINE
  5
38C
100
AcDbEntity
  8
0
100
AcDbSpline
 62
7
  6
CONTINUOUS
 70
0
 71
3
 72
9
 73
5
 74
0
 42
0.0000001
 43
0.0000001
 44
0.0000000001
 40
0.0
 40
0.0
 40
0.0
 40
0.0
 40
0.2327713556
 40
1.0
 40
1.0
 40
1.0
 40
1.0
 10
-6.0978767711
 20
282.1217222407
 30
0.0
 10
-5.7371142688
 20
282.2906552724
 30
0.0
 10
-4.1436234959
 20
282.9236638356
 30
0.0
 10
-2.4205581419
 20
283.1902272517
 30
0.0
 10
-1.1088256483
 20
283.2480797386
 30
0.0
  0
SPLINE
  5
38D
100
AcDbEntity
  8
0
100
AcDbSpline
 62
7
  6
CONTINUOUS
 70
0
 71
3
 72
9
 73
5
 74
0
 42
0.0000001
 43
0.0000001
 44
0.0000000001
 40
0.0
 40
0.0
 40
0.0
 40
0.0
 40
0.2396899087
 40
1.0
 40
1.0
 40
1.0
 40
1.0
 10
-1.1088518364
 20
283.2482765294
 30
0.0
 10
-0.7821461235
 20
283.262679853
 30
0.0
 10
0.5825121052
 20
283.2845705653
 30
0.0
 10
1.9476889102
 20
283.1657159195
 30
0.0
 10
2.9740134739
 20
283.0149727569
 30
0.0
  0
SPLINE
  5
38E
100
AcDbEntity
  8
0
100
AcDbSpline
 62
7
  6
CONTINUOUS
 70
0
 71
3
 72
9
 73
5
 74
0
 42
0.0000001
 43
0.0000001
 44
0.0000000001
 40
0.0
 40
0.0
 40
0.0
 40
0.0
 40
0.5680530515
 40
1.0
 40
1.0
 40
1.0
 40
1.0
 10
3.0071432917
 20
283.0099216043
 30
0.0
 10
3.0099057341
 20
283.0675772867
 30
0.0
 10
3.0288724085
 20
283.1669245605
 30
0.0
 10
3.0730204357
 20
283.2649570682
 30
0.0
 10
3.1063569229
 20
283.2935079417
 30
0.0
  0
SPLINE
  5
38F
100
AcDbEntity
  8
0
100
AcDbSpline
 62
7
  6
CONTINUOUS
 70
0
 71
3
 72
14
 73
10
 74
0
 42
0.0000001
 43
0.0000001
 44
0.0000000001
 40
0.0
 40
0.0
 40
0.0
 40
0.0
 40
0.2438823498
 40
0.4903272309
 40
0.6148100633
 40
0.7405043624
 40
0.8682425378
 40
0.9338245047
 40
1.0
 40
1.0
 40
1.0
 40
1.0
 10
3.9575916444
 20
283.1454921224
 30
0.0
 10
4.0376575903
 20
283.1260595911
 30
0.0
 10
4.1981152816
 20
283.0847523102
 30
0.0
 10
4.3972557838
 20
283.0256910213
 30
0.0
 10
4.5559094839
 20
282.9705395779
 30
0.0
 10
4.6741248849
 20
282.9234750047
 30
0.0
 10
4.7722419479
 20
282.8746772976
 30
0.0
 10
4.8422739477
 20
282.8268949659
 30
0.0
 10
4.8755951056
 20
282.7862216416
 30
0.0
 10
4.8734995932
 20
282.763964101
 30
0.0
  0
SPLINE
  5
390
100
AcDbEntity
  8
0
100
AcDbSpline
 62
7
  6
CONTINUOUS
 70
0
 71
3
 72
9
 73
5
 74
0
 42
0.0000001
 43
0.0000001
 44
0.0000000001
 40
0.0
 40
0.0
 40
0.0
 40
0.0
 40
0.4853609225
 40
1.0
 40
1.0
 40
1.0
 40
1.0
 10
3.9575916444
 20
283.1454921224
 30
0.0
 10
5.7554919649
 20
282.7092775945
 30
0.0
 10
9.503999793
 20
281.9884046604
 30
0.0
 10
13.2964100524
 20
281.5678227797
 30
0.0
 10
15.252635291
 20
281.4218748555
 30
0.0
  0
SPLINE
  5
391
100
AcDbEntity
  8
0
100
AcDbSpline
 62
7
  6
CONTINUOUS
 70
0
 71
3
 72
9
 73
5
 74
0
 42
0.0000001
 43
0.0000001
 44
0.0000000001
 40
0.0
 40
0.0
 40
0.0
 40
0.0
 40
0.5208386592
 40
1.0
 40
1.0
 40
1.0
 40
1.0
 10
15.252800732
 20
281.4218534179
 30
0.0
 10
13.3713139019
 20
281.5621891635
 30
0.0
 10
9.7154488905
 20
281.4450291359
 30
0.0
 10
6.1856230675
 20
280.4182877643
 30
0.0
 10
4.6150254922
 20
279.6793604452
 30
0.0
  0
SPLINE
  5
392
100
AcDbEntity
  8
0
100
AcDbSpline
 62
7
  6
CONTINUOUS
 70
0
 71
3
 72
9
 73
5
 74
0
 42
0.0000001
 43
0.0000001
 44
0.0000000001
 40
0.0
 40
0.0
 40
0.0
 40
0.0
 40
0.485162403
 40
1.0
 40
1.0
 40
1.0
 40
1.0
 10
54.6273082632
 20
291.6525547651
 30
0.0
 10
54.6172745632
 20
291.7057999121
 30
0.0
 10
54.5540180479
 20
291.8118121021
 30
0.0
 10
54.4374988234
 20
291.8459353235
 30
0.0
 10
54.3800156639
 20
291.847168182
 30
0.0
  0
SPLINE
  5
393
100
AcDbEntity
  8
0
100
AcDbSpline
 62
7
  6
CONTINUOUS
 70
0
 71
3
 72
9
 73
5
 74
0
 42
0.0000001
 43
0.0000001
 44
0.0000000001
 40
0.0
 40
0.0
 40
0.0
 40
0.0
 40
0.5161197526
 40
1.0
 40
1.0
 40
1.0
 40
1.0
 10
29.1676460461
 20
281.5465316554
 30
0.0
 10
31.0649347428
 20
281.7236233572
 30
0.0
 10
34.7300458673
 20
282.1991571529
 30
0.0
 10
38.3471619757
 20
282.9661309824
 30
0.0
 10
40.0743174631
 20
283.4227901377
 30
0.0
  0
SPLINE
  5
394
100
AcDbEntity
  8
0
100
AcDbSpline
 62
7
  6
CONTINUOUS
 70
0
 71
3
 72
9
 73
5
 74
0
 42
0.0000001
 43
0.0000001
 44
0.0000000001
 40
0.0
 40
0.0
 40
0.0
 40
0.0
 40
0.2400317832
 40
1.0
 40
1.0
 40
1.0
 40
1.0
 10
40.0743035949
 20
283.4223485489
 30
0.0
 10
39.7014736022
 20
283.3189902176
 30
0.0
 10
38.1599661577
 20
282.8464296208
 30
0.0
 10
36.6678106047
 20
282.2181773039
 30
0.0
 10
35.5704053389
 20
281.6739456466
 30
0.0
  0
SPLINE
  5
395
100
AcDbEntity
  8
0
100
AcDbSpline
 62
7
  6
CONTINUOUS
 70
0
 71
3
 72
9
 73
5
 74
0
 42
0.0000001
 43
0.0000001
 44
0.0000000001
 40
0.0
 40
0.0
 40
0.0
 40
0.0
 40
0.2457770154
 40
1.0
 40
1.0
 40
1.0
 40
1.0
 10
35.2228129631
 20
281.498688915
 30
0.0
 10
34.7985032125
 20
281.2812329776
 30
0.0
 10
33.0936258052
 20
280.3549814543
 30
0.0
 10
31.4755538703
 20
279.2697442683
 30
0.0
 10
30.3177813305
 20
278.37514264
 30
0.0
  0
SPLINE
  5
396
100
AcDbEntity
  8
0
100
AcDbSpline
 62
7
  6
CONTINUOUS
 70
0
 71
3
 72
9
 73
5
 74
0
 42
0.0000001
 43
0.0000001
 44
0.0000000001
 40
0.0
 40
0.0
 40
0.0
 40
0.0
 40
0.4791360174
 40
1.0
 40
1.0
 40
1.0
 40
1.0
 10
55.0497574598
 20
289.5312070167
 30
0.0
 10
55.2496849418
 20
288.0529528375
 30
0.0
 10
55.4045624767
 20
284.9331481322
 30
0.0
 10
55.2822336184
 20
281.821199401
 30
0.0
 10
55.1829049222
 20
280.2026184711
 30
0.0
  0
SPLINE
  5
397
100
AcDbEntity
  8
0
100
AcDbSpline
 62
7
  6
CONTINUOUS
 70
0
 71
3
 72
9
 73
5
 74
0
 42
0.0000001
 43
0.0000001
 44
0.0000000001
 40
0.0
 40
0.0
 40
0.0
 40
0.0
 40
0.2494312666
 40
1.0
 40
1.0
 40
1.0
 40
1.0
 10
55.1829049222
 20
280.2026184711
 30
0.0
 10
55.1670745574
 20
279.9446595177
 30
0.0
 10
55.0996927347
 20
278.9107111419
 30
0.0
 10
55.0194002382
 20
277.877635641
 30
0.0
 10
54.9545349141
 20
277.1026556577
 30
0.0
  0
SPLINE
  5
398
100
AcDbEntity
  8
0
100
AcDbSpline
 62
7
  6
CONTINUOUS
 70
0
 71
3
 72
12
 73
8
 74
0
 42
0.0000001
 43
0.0000001
 44
0.0000000001
 40
0.0
 40
0.0
 40
0.0
 40
0.0
 40
0.2791866367
 40
0.5504212727
 40
0.7967439795
 40
0.9048535806
 40
1.0
 40
1.0
 40
1.0
 40
1.0
 10
49.0134573383
 20
272.5318106321
 30
0.0
 10
49.4207757823
 20
274.1124262625
 30
0.0
 10
50.3543874214
 20
277.1947597078
 30
0.0
 10
51.8732068513
 20
281.5978534956
 30
0.0
 10
53.0607733443
 20
285.0582801525
 30
0.0
 10
53.8282285923
 20
287.5724626939
 30
0.0
 10
54.1333701862
 20
288.7215454945
 30
0.0
 10
54.2588090123
 20
289.2634877601
 30
0.0
  0
SPLINE
  5
399
100
AcDbEntity
  8
0
100
AcDbSpline
 62
7
  6
CONTINUOUS
 70
0
 71
3
 72
9
 73
5
 74
0
 42
0.0000001
 43
0.0000001
 44
0.0000000001
 40
0.0
 40
0.0
 40
0.0
 40
0.0
 40
0.262991294
 40
1.0
 40
1.0
 40
1.0
 40
1.0
 10
36.694049327
 20
288.9358331112
 30
0.0
 10
37.0941965272
 20
289.0430947621
 30
0.0
 10
38.6095548921
 20
289.4730115575
 30
0.0
 10
40.1005648434
 20
289.9931486092
 30
0.0
 10
41.1715149892
 20
290.4413711453
 30
0.0
  0
SPLINE
  5
39A
100
AcDbEntity
  8
0
100
AcDbSpline
 62
7
  6
CONTINUOUS
 70
0
 71
3
 72
11
 73
7
 74
0
 42
0.0000001
 43
0.0000001
 44
0.0000000001
 40
0.0
 40
0.0
 40
0.0
 40
0.0
 40
0.2949568994
 40
0.5596977503
 40
0.7940559181
 40
1.0
 40
1.0
 40
1.0
 40
1.0
 10
41.1715149892
 20
290.4413711453
 30
0.0
 10
41.8832942359
 20
290.7392706323
 30
0.0
 10
43.2121079099
 20
291.3598794358
 30
0.0
 10
44.9968091777
 20
292.4319889627
 30
0.0
 10
46.4454599628
 20
293.5830437984
 30
0.0
 10
47.2195120315
 20
294.4479017772
 30
0.0
 10
47.5297616504
 20
294.888349855
 30
0.0
  0
SPLINE
  5
39B
100
AcDbEntity
  8
0
100
AcDbSpline
 62
7
  6
CONTINUOUS
 70
0
 71
3
 72
15
 73
11
 74
0
 42
0.0000001
 43
0.0000001
 44
0.0000000001
 40
0.0
 40
0.0
 40
0.0
 40
0.0
 40
0.1151577117
 40
0.2220373398
 40
0.3266143092
 40
0.4353485389
 40
0.5538526767
 40
0.6861021682
 40
0.8344952056
 40
1.0
 40
1.0
 40
1.0
 40
1.0
 10
47.6498514846
 20
295.0647060765
 30
0.0
 10
47.8807445076
 20
295.4158184144
 30
0.0
 10
48.2625429073
 20
296.1395128286
 30
0.0
 10
48.545542611
 20
297.3113985028
 30
0.0
 10
48.4968003399
 20
298.4941743743
 30
0.0
 10
48.1188453402
 20
299.6584647903
 30
0.0
 10
47.4284675566
 20
300.7854465587
 30
0.0
 10
46.4421704235
 20
301.8665637881
 30
0.0
 10
45.1735487594
 20
302.8943845435
 30
0.0
 10
44.2017122905
 20
303.5054997595
 30
0.0
 10
43.6761588602
 20
303.8030759279
 30
0.0
  0
SPLINE
  5
39C
100
AcDbEntity
  8
0
100
AcDbSpline
 62
7
  6
CONTINUOUS
 70
0
 71
3
 72
9
 73
5
 74
0
 42
0.0000001
 43
0.0000001
 44
0.0000000001
 40
0.0
 40
0.0
 40
0.0
 40
0.0
 40
0.2340049052
 40
1.0
 40
1.0
 40
1.0
 40
1.0
 10
43.6761588602
 20
303.8030759279
 30
0.0
 10
43.401190775
 20
303.9587669471
 30
0.0
 10
42.2098139707
 20
304.5952210516
 30
0.0
 10
40.962884881
 20
305.1243920708
 30
0.0
 10
39.9927870433
 20
305.4832745617
 30
0.0
  0
SPLINE
  5
39D
100
AcDbEntity
  8
0
100
AcDbSpline
 62
7
  6
CONTINUOUS
 70
0
 71
3
 72
15
 73
11
 74
0
 42
0.0000001
 43
0.0000001
 44
0.0000000001
 40
0.0
 40
0.0
 40
0.0
 40
0.0
 40
0.1093828739
 40
0.2288210638
 40
0.3558068186
 40
0.4874916821
 40
0.6208260189
 40
0.7526942886
 40
0.8800330526
 40
1.0
 40
1.0
 40
1.0
 40
1.0
 10
39.9927870433
 20
305.4832745617
 30
0.0
 10
38.8385954886
 20
305.9102615357
 30
0.0
 10
36.3729933369
 20
306.6676584982
 30
0.0
 10
32.4549593155
 20
307.5070985331
 30
0.0
 10
28.2363710502
 20
308.0832951831
 30
0.0
 10
23.832764348
 20
308.3798264459
 30
0.0
 10
19.3643549329
 20
308.3883458209
 30
0.0
 10
14.9535076448
 20
308.1085415415
 30
0.0
 10
10.7211118719
 20
307.5485267292
 30
0.0
 10
7.9942049548
 20
306.9776707373
 30
0.0
 10
6.6868919261
 20
306.6419997471
 30
0.0
  0
SPLINE
  5
39E
100
AcDbEntity
  8
0
100
AcDbSpline
 62
7
  6
CONTINUOUS
 70
0
 71
3
 72
17
 73
13
 74
0
 42
0.0000001
 43
0.0000001
 44
0.0000000001
 40
0.0
 40
0.0
 40
0.0
 40
0.0
 40
0.1281409567
 40
0.2655487122
 40
0.4071676629
 40
0.5475662223
 40
0.6814014697
 40
0.803786393
 40
0.8594238194
 40
0.9108138554
 40
0.9577041972
 40
1.0
 40
1.0
 40
1.0
 40
1.0
 10
4.7250654692
 20
307.1401750104
 30
0.0
 10
6.5878388731
 20
307.6326913222
 30
0.0
 10
10.5100698929
 20
308.4243755164
 30
0.0
 10
16.6041547841
 20
309.0812108235
 30
0.0
 10
22.916752488
 20
309.221906626
 30
0.0
 10
29.1658258703
 20
308.8437781309
 30
0.0
 10
35.0720662828
 20
307.9631631384
 30
0.0
 10
39.6293651823
 20
306.8117437824
 30
0.0
 10
42.8788337148
 20
305.6467782962
 30
0.0
 10
44.996600553
 20
304.7069692033
 30
0.0
 10
46.8496623856
 20
303.6841762777
 30
0.0
 10
47.9521935427
 20
302.914092983
 30
0.0
 10
48.4472023171
 20
302.5148000483
 30
0.0
  0
SPLINE
  5
39F
100
AcDbEntity
  8
0
100
AcDbSpline
 62
7
  6
CONTINUOUS
 70
0
 71
3
 72
9
 73
5
 74
0
 42
0.0000001
 43
0.0000001
 44
0.0000000001
 40
0.0
 40
0.0
 40
0.0
 40
0.0
 40
0.257192641
 40
1.0
 40
1.0
 40
1.0
 40
1.0
 10
48.4472023171
 20
302.5148000483
 30
0.0
 10
48.5247131701
 20
302.4522768415
 30
0.0
 10
48.8234010431
 20
302.2058836203
 30
0.0
 10
49.1110553094
 20
301.9459968573
 30
0.0
 10
49.3166757581
 20
301.7448951363
 30
0.0
  0
SPLINE
  5
3A0
100
AcDbEntity
  8
0
100
AcDbSpline
 62
7
  6
CONTINUOUS
 70
0
 71
3
 72
15
 73
11
 74
0
 42
0.0000001
 43
0.0000001
 44
0.0000000001
 40
0.0
 40
0.0
 40
0.0
 40
0.0
 40
0.1361718895
 40
0.2583360522
 40
0.3708638741
 40
0.4797823044
 40
0.5918652071
 40
0.7132253421
 40
0.8483577283
 40
1.0
 40
1.0
 40
1.0
 40
1.0
 10
49.335018642
 20
301.7269128118
 30
0.0
 10
49.7132813576
 20
301.3552045249
 30
0.0
 10
50.3817108882
 20
300.5954634198
 30
0.0
 10
51.1128017289
 20
299.3369737313
 30
0.0
 10
51.4936482695
 20
298.0381788207
 30
0.0
 10
51.5060528016
 20
296.7222070307
 30
0.0
 10
51.1494227024
 20
295.4214515401
 30
0.0
 10
50.4409201965
 20
294.1596356908
 30
0.0
 10
49.3998993514
 20
292.9479864002
 30
0.0
 10
48.5454978999
 20
292.2222274444
 30
0.0
 10
48.0737502072
 20
291.8669260535
 30
0.0
  0
SPLINE
  5
3A1
100
AcDbEntity
  8
0
100
AcDbSpline
 62
7
  6
CONTINUOUS
 70
0
 71
3
 72
10
 73
6
 74
0
 42
0.0000001
 43
0.0000001
 44
0.0000000001
 40
0.0
 40
0.0
 40
0.0
 40
0.0
 40
0.2172616947
 40
0.4569281824
 40
1.0
 40
1.0
 40
1.0
 40
1.0
 10
48.0737502072
 20
291.8669260535
 30
0.0
 10
47.5648029429
 20
291.4836074412
 30
0.0
 10
46.442659663
 20
290.745143779
 30
0.0
 10
43.8438392255
 20
289.3798412467
 30
0.0
 10
41.6839207345
 20
288.5716542742
 30
0.0
 10
40.1641095137
 20
288.0955693303
 30
0.0
  0
LINE
  5
3A2
100
AcDbEntity
  8
0
100
AcDbLine
 62
7
  6
CONTINUOUS
 10
40.1641095137
 20
288.0955693303
 11
40.0968218622
 21
288.0745530139
  0
SPLINE
  5
3A3
100
AcDbEntity
  8
0
100
AcDbSpline
 62
7
  6
CONTINUOUS
 70
0
 71
3
 72
9
 73
5
 74
0
 42
0.0000001
 43
0.0000001
 44
0.0000000001
 40
0.0
 40
0.0
 40
0.0
 40
0.0
 40
0.5505642977
 40
1.0
 40
1.0
 40
1.0
 40
1.0
 10
54.2587697216
 20
289.2636459974
 30
0.0
 10
54.3589399054
 20
289.6963981694
 30
0.0
 10
54.5206386369
 20
290.4872234885
 30
0.0
 10
54.6156772
 20
291.2906280305
 30
0.0
 10
54.6294926057
 20
291.6529686135
 30
0.0
  0
SPLINE
  5
3A4
100
AcDbEntity
  8
0
100
AcDbSpline
 62
7
  6
CONTINUOUS
 70
0
 71
3
 72
15
 73
11
 74
0
 42
0.0000001
 43
0.0000001
 44
0.0000000001
 40
0.0
 40
0.0
 40
0.0
 40
0.0
 40
0.1021525591
 40
0.2175344936
 40
0.3433705742
 40
0.4762213504
 40
0.6122606582
 40
0.7474962064
 40
0.8779715207
 40
1.0
 40
1.0
 40
1.0
 40
1.0
 10
0.3367771068
 20
291.0888894296
 30
0.0
 10
1.4682899925
 20
290.5315316093
 30
0.0
 10
3.9730177772
 20
289.5360517762
 30
0.0
 10
8.0687037665
 20
288.4169697561
 30
0.0
 10
12.6223820119
 20
287.6098727249
 30
0.0
 10
17.4786283167
 20
287.1438231282
 30
0.0
 10
22.4718336937
 20
287.0353683082
 30
0.0
 10
27.4306327946
 20
287.2885230564
 30
0.0
 10
32.1843927269
 20
287.8939927391
 30
0.0
 10
35.238673815
 20
288.5457117257
 30
0.0
 10
36.694049327
 20
288.9358331112
 30
0.0
  0
SPLINE
  5
3A5
100
AcDbEntity
  8
0
100
AcDbSpline
 62
7
  6
CONTINUOUS
 70
0
 71
3
 72
25
 73
21
 74
0
 42
0.0000001
 43
0.0000001
 44
0.0000000001
 40
0.0
 40
0.0
 40
0.0
 40
0.0
 40
0.0147778814
 40
0.0296604419
 40
0.0447751751
 40
0.0601729595
 40
0.0754792077
 40
0.0910706901
 40
0.1068618234
 40
0.1227215932
 40
0.1549072525
 40
0.1874483816
 40
0.2204875069
 40
0.2538518072
 40
0.3895494543
 40
0.5258541068
 40
0.6586989252
 40
0.7842029738
 40
0.8988949794
 40
1.0
 40
1.0
 40
1.0
 40
1.0
 10
38.2099231553
 20
287.5325113905
 30
0.0
 10
38.0130904004
 20
287.4804689115
 30
0.0
 10
37.6167253376
 20
287.3810174976
 30
0.0
 10
37.0190790287
 20
287.2282610731
 30
0.0
 10
36.4100999256
 20
287.0852808844
 30
0.0
 10
35.7901468705
 20
286.9657881136
 30
0.0
 10
35.1694273529
 20
286.8184623497
 30
0.0
 10
34.5372687016
 20
286.6988347502
 30
0.0
 10
33.8963402133
 20
286.5857497521
 30
0.0
 10
33.0304834672
 20
286.4312335337
 30
0.0
 10
31.9319853702
 20
286.2694023426
 30
0.0
 10
30.5990090585
 20
286.0753812442
 30
0.0
 10
29.2438457883
 20
285.9259897075
 30
0.0
 10
26.4724276998
 20
285.6578607839
 30
0.0
 10
22.2653005696
 20
285.4603526672
 30
0.0
 10
16.6848430217
 20
285.6062500575
 30
0.0
 10
11.2699482012
 20
286.1543965159
 30
0.0
 10
6.2086793875
 20
287.085130122
 30
0.0
 10
1.6767562799
 20
288.3647826848
 30
0.0
 10
-1.083238936
 20
289.4992882408
 30
0.0
 10
-2.323431232
 20
290.1334742217
 30
0.0
  0
SPLINE
  5
3A6
100
AcDbEntity
  8
0
100
AcDbSpline
 62
7
  6
CONTINUOUS
 70
0
 71
3
 72
9
 73
5
 74
0
 42
0.0000001
 43
0.0000001
 44
0.0000000001
 40
0.0
 40
0.0
 40
0.0
 40
0.0
 40
0.2657657221
 40
1.0
 40
1.0
 40
1.0
 40
1.0
 10
-2.323431232
 20
290.1334742217
 30
0.0
 10
-2.5844665995
 20
290.26695753
 30
0.0
 10
-3.5573667509
 20
290.7867453622
 30
0.0
 10
-4.4926686066
 20
291.3802750082
 30
0.0
 10
-5.1396567706
 20
291.8675962335
 30
0.0
  0
SPLINE
  5
3A7
100
AcDbEntity
  8
0
100
AcDbSpline
 62
7
  6
CONTINUOUS
 70
0
 71
3
 72
15
 73
11
 74
0
 42
0.0000001
 43
0.0000001
 44
0.0000000001
 40
0.0
 40
0.0
 40
0.0
 40
0.0
 40
0.1543413234
 40
0.2935821993
 40
0.4197150381
 40
0.5359713087
 40
0.6468527693
 40
0.757719235
 40
0.8739335638
 40
1.0
 40
1.0
 40
1.0
 40
1.0
 10
-5.1396567706
 20
291.8675962335
 30
0.0
 10
-5.563391781
 20
292.1867598225
 30
0.0
 10
-6.3383982505
 20
292.8375852611
 30
0.0
 10
-7.3099020625
 20
293.9112386218
 30
0.0
 10
-8.0183227329
 20
295.0241901172
 30
0.0
 10
-8.4519523628
 20
296.1689795557
 30
0.0
 10
-8.5990076754
 20
297.3332033791
 30
0.0
 10
-8.4535304219
 20
298.4975755871
 30
0.0
 10
-8.02148031
 20
299.6422179031
 30
0.0
 10
-7.5720700074
 20
300.3499139832
 30
0.0
 10
-7.3111883489
 20
300.6958803304
 30
0.0
  0
SPLINE
  5
3A8
100
AcDbEntity
  8
0
100
AcDbSpline
 62
7
  6
CONTINUOUS
 70
0
 71
3
 72
9
 73
5
 74
0
 42
0.0000001
 43
0.0000001
 44
0.0000000001
 40
0.0
 40
0.0
 40
0.0
 40
0.0
 40
0.2436078886
 40
1.0
 40
1.0
 40
1.0
 40
1.0
 10
-7.3111883489
 20
300.6958803304
 30
0.0
 10
-7.2641764284
 20
300.7582248528
 30
0.0
 10
-7.0674732051
 20
301.0113301615
 30
0.0
 10
-6.8564618888
 20
301.2532236492
 30
0.0
 10
-6.6905073051
 20
301.4299675531
 30
0.0
  0
SPLINE
  5
3A9
100
AcDbEntity
  8
0
100
AcDbSpline
 62
7
  6
CONTINUOUS
 70
0
 71
3
 72
11
 73
7
 74
0
 42
0.0000001
 43
0.0000001
 44
0.0000000001
 40
0.0
 40
0.0
 40
0.0
 40
0.0
 40
0.2018944932
 40
0.4363854776
 40
0.703231879
 40
1.0
 40
1.0
 40
1.0
 40
1.0
 10
-6.6762837093
 20
301.4450841586
 30
0.0
 10
-6.1203361497
 20
302.0347009295
 30
0.0
 10
-4.7653066017
 20
303.1653812197
 30
0.0
 10
-2.3287729733
 20
304.605543282
 30
0.0
 10
0.6125977839
 20
305.8909125488
 30
0.0
 10
2.7667960497
 20
306.5925506261
 30
0.0
 10
3.9127728662
 20
306.9176583545
 30
0.0
  0
SPLINE
  5
3AA
100
AcDbEntity
  8
0
100
AcDbSpline
 62
7
  6
CONTINUOUS
 70
0
 71
3
 72
10
 73
6
 74
0
 42
0.0000001
 43
0.0000001
 44
0.0000000001
 40
0.0
 40
0.0
 40
0.0
 40
0.0
 40
0.5437853005
 40
0.7835267416
 40
1.0
 40
1.0
 40
1.0
 40
1.0
 10
6.2409260828
 20
306.5249915854
 30
0.0
 10
4.6572144579
 20
306.1004690012
 30
0.0
 10
2.4016678044
 20
305.3615294557
 30
0.0
 10
-0.3263235748
 20
304.070047594
 30
0.0
 10
-1.5085350407
 20
303.3599683363
 30
0.0
 10
-2.0451726261
 20
302.9884158943
 30
0.0
  0
SPLINE
  5
3AB
100
AcDbEntity
  8
0
100
AcDbSpline
 62
7
  6
CONTINUOUS
 70
0
 71
3
 72
15
 73
11
 74
0
 42
0.0000001
 43
0.0000001
 44
0.0000000001
 40
0.0
 40
0.0
 40
0.0
 40
0.0
 40
0.1579048964
 40
0.3001222249
 40
0.4283410411
 40
0.5454783365
 40
0.6558164582
 40
0.7647208418
 40
0.877814573
 40
1.0
 40
1.0
 40
1.0
 40
1.0
 10
-2.0451726261
 20
302.9884158943
 30
0.0
 10
-2.4617738606
 20
302.699973172
 30
0.0
 10
-3.2270777794
 20
302.1111111194
 30
0.0
 10
-4.2016282111
 20
301.1352441321
 30
0.0
 10
-4.9317503983
 20
300.1202343691
 30
0.0
 10
-5.4064699085
 20
299.0724174163
 30
0.0
 10
-5.6135931723
 20
298.0018482709
 30
0.0
 10
-5.5449665127
 20
296.9259964336
 30
0.0
 10
-5.2038059151
 20
295.8652329141
 30
0.0
 10
-4.820149736
 20
295.2083448208
 30
0.0
 10
-4.5943513879
 20
294.8878009382
 30
0.0
  0
SPLINE
  5
3AC
100
AcDbEntity
  8
0
100
AcDbSpline
 62
7
  6
CONTINUOUS
 70
0
 71
3
 72
9
 73
5
 74
0
 42
0.0000001
 43
0.0000001
 44
0.0000000001
 40
0.0
 40
0.0
 40
0.0
 40
0.0
 40
0.4569800366
 40
1.0
 40
1.0
 40
1.0
 40
1.0
 10
-4.5943513879
 20
294.8878009382
 30
0.0
 10
-4.1650105412
 20
294.278307631
 30
0.0
 10
-3.0114469254
 20
293.0955127526
 30
0.0
 10
-1.6505602076
 20
292.1821740679
 30
0.0
 10
-0.8834265109
 20
291.7390916792
 30
0.0
  0
SPLINE
  5
3AD
100
AcDbEntity
  8
0
100
AcDbSpline
 62
7
  6
CONTINUOUS
 70
0
 71
3
 72
9
 73
5
 74
0
 42
0.0000001
 43
0.0000001
 44
0.0000000001
 40
0.0
 40
0.0
 40
0.0
 40
0.0
 40
0.4858405098
 40
1.0
 40
1.0
 40
1.0
 40
1.0
 10
54.6300734752
 20
291.6677963764
 30
0.0
 10
54.6203962532
 20
291.7212770474
 30
0.0
 10
54.5541298818
 20
291.8252525325
 30
0.0
 10
54.4390987944
 20
291.8625965184
 30
0.0
 10
54.3815881384
 20
291.8634571037
 30
0.0
  0
SPLINE
  5
3AE
100
AcDbEntity
  8
0
100
AcDbSpline
 62
7
  6
CONTINUOUS
 70
0
 71
3
 72
16
 73
12
 74
0
 42
0.0000001
 43
0.0000001
 44
0.0000000001
 40
0.0
 40
0.0
 40
0.0
 40
0.0
 40
0.2945277853
 40
0.4329776477
 40
0.5638856023
 40
0.6849796638
 40
0.7920134335
 40
0.8378205562
 40
0.8763119074
 40
0.9098163368
 40
1.0
 40
1.0
 40
1.0
 40
1.0
 10
54.4037064793
 20
292.2303474809
 30
0.0
 10
54.4180859549
 20
292.2654206579
 30
0.0
 10
54.4395913514
 20
292.3168421051
 30
0.0
 10
54.4691811578
 20
292.383099885
 30
0.0
 10
54.4907386209
 20
292.4285377555
 30
0.0
 10
54.5122467883
 20
292.4693380327
 30
0.0
 10
54.5306303833
 20
292.4997829951
 30
0.0
 10
54.5465326258
 20
292.5183042564
 30
0.0
 10
54.5579826759
 20
292.5292006196
 30
0.0
 10
54.5819956208
 20
292.5282789094
 30
0.0
 10
54.5844194132
 20
292.5066153022
 30
0.0
 10
54.5864541153
 20
292.4951881857
 30
0.0
  0
SPLINE
  5
3AF
100
AcDbEntity
  8
0
100
AcDbSpline
 62
7
  6
CONTINUOUS
 70
0
 71
3
 72
9
 73
5
 74
0
 42
0.0000001
 43
0.0000001
 44
0.0000000001
 40
0.0
 40
0.0
 40
0.0
 40
0.0
 40
0.5079854871
 40
1.0
 40
1.0
 40
1.0
 40
1.0
 10
54.4037064793
 20
292.2303474809
 30
0.0
 10
54.5697470812
 20
292.6357375789
 30
0.0
 10
54.8133734422
 20
293.4720196529
 30
0.0
 10
54.8459605361
 20
294.3439073515
 30
0.0
 10
54.8092990422
 20
294.766623536
 30
0.0
  0
SPLINE
  5
3B0
100
AcDbEntity
  8
0
100
AcDbSpline
 62
7
  6
CONTINUOUS
 70
0
 71
3
 72
15
 73
11
 74
0
 42
0.0000001
 43
0.0000001
 44
0.0000000001
 40
0.0
 40
0.0
 40
0.0
 40
0.0
 40
0.0832237192
 40
0.1798133422
 40
0.2910439961
 40
0.4158713622
 40
0.5520730068
 40
0.6968249022
 40
0.8471714634
 40
1.0
 40
1.0
 40
1.0
 40
1.0
 10
54.3732005516
 20
296.8853816258
 30
0.0
 10
54.7410131233
 20
296.46250161
 30
0.0
 10
55.3785018297
 20
295.4106339516
 30
0.0
 10
55.9820341536
 20
293.535227908
 30
0.0
 10
56.3240587033
 20
291.3144069786
 30
0.0
 10
56.4293764147
 20
288.8064211879
 30
0.0
 10
56.3398354242
 20
286.0735432759
 30
0.0
 10
56.0989226585
 20
283.1782020585
 30
0.0
 10
55.7496969213
 20
280.1818194825
 30
0.0
 10
55.4975524804
 20
278.155705183
 30
0.0
 10
55.3593261224
 20
277.1358274342
 30
0.0
  0
SPLINE
  5
3B1
100
AcDbEntity
  8
0
100
AcDbSpline
 62
7
  6
CONTINUOUS
 70
0
 71
3
 72
11
 73
7
 74
0
 42
0.0000001
 43
0.0000001
 44
0.0000000001
 40
0.0
 40
0.0
 40
0.0
 40
0.0
 40
0.2688638815
 40
0.5307635081
 40
0.7770499199
 40
1.0
 40
1.0
 40
1.0
 40
1.0
 10
56.0799871034
 20
277.3967905824
 30
0.0
 10
56.2318919229
 20
278.6638590583
 30
0.0
 10
56.5294328588
 20
281.1654338278
 30
0.0
 10
56.8636867655
 20
284.8397646709
 30
0.0
 10
56.9722089297
 20
288.3107521548
 30
0.0
 10
56.8223150952
 20
290.540415475
 30
0.0
 10
56.6649119162
 20
291.5868589748
 30
0.0
  0
SPLINE
  5
3B2
100
AcDbEntity
  8
0
100
AcDbSpline
 62
7
  6
CONTINUOUS
 70
0
 71
3
 72
11
 73
7
 74
0
 42
0.0000001
 43
0.0000001
 44
0.0000000001
 40
0.0
 40
0.0
 40
0.0
 40
0.0
 40
0.233892572
 40
0.4796400992
 40
0.7372949117
 40
1.0
 40
1.0
 40
1.0
 40
1.0
 10
9.8866096315
 20
268.3343854351
 30
0.0
 10
10.4866675258
 20
269.6670705327
 30
0.0
 10
12.1130489661
 20
272.2312324524
 30
0.0
 10
15.4307882865
 20
275.4722461689
 30
0.0
 10
19.4461969359
 20
278.1237190417
 30
0.0
 10
22.4373427869
 20
279.4422623724
 30
0.0
 10
23.9885652605
 20
279.9794100217
 30
0.0
  0
SPLINE
  5
3B3
100
AcDbEntity
  8
0
100
AcDbSpline
 62
7
  6
CONTINUOUS
 70
0
 71
3
 72
13
 73
9
 74
0
 42
0.0000001
 43
0.0000001
 44
0.0000000001
 40
0.0
 40
0.0
 40
0.0
 40
0.0
 40
0.1054216662
 40
0.2162098291
 40
0.3355589934
 40
0.4637550049
 40
0.7347840682
 40
1.0
 40
1.0
 40
1.0
 40
1.0
 10
-34.5685692772
 20
223.1507191405
 30
0.0
 10
-34.6724600054
 20
223.2106934335
 30
0.0
 10
-34.9106685911
 20
223.2942464684
 30
0.0
 10
-35.2990225129
 20
223.2882356573
 30
0.0
 10
-35.6915201102
 20
223.1590855228
 30
0.0
 10
-36.1906120313
 20
222.8345499747
 30
0.0
 10
-36.6664791735
 20
222.2173261606
 30
0.0
 10
-36.8237733929
 20
221.6038224322
 30
0.0
 10
-36.8237733929
 20
221.3020336195
 30
0.0
  0
SPLINE
  5
3B4
100
AcDbEntity
  8
0
100
AcDbSpline
 62
7
  6
CONTINUOUS
 70
0
 71
3
 72
10
 73
6
 74
0
 42
0.0000001
 43
0.0000001
 44
0.0000000001
 40
0.0
 40
0.0
 40
0.0
 40
0.0
 40
0.5148899604
 40
0.7596727888
 40
1.0
 40
1.0
 40
1.0
 40
1.0
 10
-35.4188146669
 20
210.1869578411
 30
0.0
 10
-35.9731173932
 20
210.0383739562
 30
0.0
 10
-36.8414118513
 20
209.9512010393
 30
0.0
 10
-37.9385642188
 20
210.1797024587
 30
0.0
 10
-38.4378387041
 20
210.400068917
 30
0.0
 10
-38.6697774665
 20
210.5340535526
 30
0.0
  0
SPLINE
  5
3B5
100
AcDbEntity
  8
0
100
AcDbSpline
 62
7
  6
CONTINUOUS
 70
0
 71
3
 72
9
 73
5
 74
0
 42
0.0000001
 43
0.0000001
 44
0.0000000001
 40
0.0
 40
0.0
 40
0.0
 40
0.0
 40
0.5420348804
 40
1.0
 40
1.0
 40
1.0
 40
1.0
 10
-14.551530166
 20
283.8921184079
 30
0.0
 10
-14.6360979683
 20
284.0301050965
 30
0.0
 10
-14.8133379632
 20
284.2725629988
 30
0.0
 10
-15.0437136908
 20
284.4701897147
 30
0.0
 10
-15.1621205828
 20
284.5385793365
 30
0.0
  0
SPLINE
  5
3B6
100
AcDbEntity
  8
0
100
AcDbSpline
 62
7
  6
CONTINUOUS
 70
0
 71
3
 72
10
 73
6
 74
0
 42
0.0000001
 43
0.0000001
 44
0.0000000001
 40
0.0
 40
0.0
 40
0.0
 40
0.0
 40
0.5252176711
 40
0.7667927662
 40
1.0
 40
1.0
 40
1.0
 40
1.0
 10
-36.8237733929
 20
221.3020336195
 30
0.0
 10
-36.8237733929
 20
221.0782431188
 30
0.0
 10
-36.7582652836
 20
220.7413955201
 30
0.0
 10
-36.5155459652
 20
220.3855168465
 30
0.0
 10
-36.3551173579
 20
220.2562412462
 30
0.0
 10
-36.2690600566
 20
220.2065618774
 30
0.0
  0
SPLINE
  5
3B7
100
AcDbEntity
  8
0
100
AcDbSpline
 62
7
  6
CONTINUOUS
 70
0
 71
3
 72
13
 73
9
 74
0
 42
0.0000001
 43
0.0000001
 44
0.0000000001
 40
0.0
 40
0.0
 40
0.0
 40
0.0
 40
0.2347902242
 40
0.4890705672
 40
0.6197521108
 40
0.7497766182
 40
0.8771066556
 40
1.0
 40
1.0
 40
1.0
 40
1.0
 10
-37.5019721627
 20
289.5335930645
 30
0.0
 10
-38.2388451387
 20
289.3360702233
 30
0.0
 10
-39.6913877791
 20
288.5940556118
 30
0.0
 10
-41.115348457
 20
287.1261261302
 30
0.0
 10
-41.9954827838
 20
285.6971379588
 30
0.0
 10
-42.4923753126
 20
284.5328712047
 30
0.0
 10
-42.8006032192
 20
283.3316183498
 30
0.0
 10
-42.873873174
 20
282.5172592347
 30
0.0
 10
-42.873873174
 20
282.1179505588
 30
0.0
  0
SPLINE
  5
3B8
100
AcDbEntity
  8
0
100
AcDbSpline
 62
7
  6
CONTINUOUS
 70
0
 71
3
 72
11
 73
7
 74
0
 42
0.0000001
 43
0.0000001
 44
0.0000000001
 40
0.0
 40
0.0
 40
0.0
 40
0.0
 40
0.2717776924
 40
0.5268678486
 40
0.7676328571
 40
1.0
 40
1.0
 40
1.0
 40
1.0
 10
-42.873873174
 20
215.9258583917
 30
0.0
 10
-42.873873174
 20
215.4814851291
 30
0.0
 10
-42.7874761583
 20
214.6163551398
 30
0.0
 10
-42.373670693
 20
213.417969657
 30
0.0
 10
-41.6955903262
 20
212.4208689751
 30
0.0
 10
-41.0819220603
 20
211.9272934184
 30
0.0
 10
-40.7529349609
 20
211.7372466369
 30
0.0
  0
SPLINE
  5
3B9
100
AcDbEntity
  8
0
100
AcDbSpline
 62
7
  6
CONTINUOUS
 70
0
 71
3
 72
9
 73
5
 74
0
 42
0.0000001
 43
0.0000001
 44
0.0000000001
 40
0.0
 40
0.0
 40
0.0
 40
0.0
 40
0.7505685622
 40
1.0
 40
1.0
 40
1.0
 40
1.0
 10
-36.1569862185
 20
277.9506889104
 30
0.0
 10
-36.2307241737
 20
277.6590679376
 30
0.0
 10
-36.4158318971
 20
277.2860088713
 30
0.0
 10
-36.6837594947
 20
276.9872870881
 30
0.0
 10
-36.7556717237
 20
276.9178526466
 30
0.0
  0
SPLINE
  5
3BA
100
AcDbEntity
  8
0
100
AcDbSpline
 62
7
  6
CONTINUOUS
 70
0
 71
3
 72
13
 73
9
 74
0
 42
0.0000001
 43
0.0000001
 44
0.0000000001
 40
0.0
 40
0.0
 40
0.0
 40
0.0
 40
0.1158155568
 40
0.2327352729
 40
0.3517715638
 40
0.4737815168
 40
0.728563502
 40
1.0
 40
1.0
 40
1.0
 40
1.0
 10
21.0125052071
 20
263.1294083581
 30
0.0
 10
21.6313480148
 20
262.7719480926
 30
0.0
 10
22.8222233259
 20
261.9576742414
 30
0.0
 10
24.4152959341
 20
260.4720761683
 30
0.0
 10
25.7987842482
 20
258.7400884316
 30
0.0
 10
27.3606764705
 20
256.0990913934
 30
0.0
 10
28.6819187429
 20
252.2760904057
 30
0.0
 10
29.0069008916
 20
249.0161991141
 30
0.0
 10
29.0069008916
 20
247.3412443129
 30
0.0
  0
SPLINE
  5
3BB
100
AcDbEntity
  8
0
100
AcDbSpline
 62
7
  6
CONTINUOUS
 70
0
 71
3
 72
9
 73
5
 74
0
 42
0.0000001
 43
0.0000001
 44
0.0000000001
 40
0.0
 40
0.0
 40
0.0
 40
0.0
 40
0.7505685622
 40
1.0
 40
1.0
 40
1.0
 40
1.0
 10
-36.1569862185
 20
222.7906121046
 30
0.0
 10
-36.2307241737
 20
222.4989911317
 30
0.0
 10
-36.4158318971
 20
222.1259320654
 30
0.0
 10
-36.6837594947
 20
221.8272102822
 30
0.0
 10
-36.7556717237
 20
221.7577758408
 30
0.0
  0
SPLINE
  5
3BC
100
AcDbEntity
  8
0
100
AcDbSpline
 62
7
  6
CONTINUOUS
 70
0
 71
3
 72
19
 73
15
 74
0
 42
0.0000001
 43
0.0000001
 44
0.0000000001
 40
0.0
 40
0.0
 40
0.0
 40
0.0
 40
0.0523306599
 40
0.1053801383
 40
0.1597856358
 40
0.2160393133
 40
0.2744528758
 40
0.3351488419
 40
0.4627703823
 40
0.5970193547
 40
0.665587438
 40
0.734331293
 40
0.869944196
 40
1.0
 40
1.0
 40
1.0
 40
1.0
 10
19.912174775
 20
261.224342925
 30
0.0
 10
19.2327138056
 20
261.6168197656
 30
0.0
 10
17.7882734738
 20
262.2826557589
 30
0.0
 10
15.4556107778
 20
262.8800088001
 30
0.0
 10
12.996349966
 20
263.0697172842
 30
0.0
 10
10.4602893021
 20
262.8499387817
 30
0.0
 10
7.8958004347
 20
262.2272446583
 30
0.0
 10
4.4485896248
 20
260.8562854609
 30
0.0
 10
0.3478500199
 20
258.1939901122
 30
0.0
 10
-3.1203307466
 20
254.5988657472
 30
0.0
 10
-5.4558719024
 20
251.2555139955
 30
0.0
 10
-7.4372949763
 20
247.6671970248
 30
0.0
 10
-9.1610062287
 20
242.9173000842
 30
0.0
 10
-9.6714370831
 20
238.9234176039
 30
0.0
 10
-9.6714370831
 20
236.9733037578
 30
0.0
  0
SPLINE
  5
3BD
100
AcDbEntity
  8
0
100
AcDbSpline
 62
7
  6
CONTINUOUS
 70
0
 71
3
 72
13
 73
9
 74
0
 42
0.0000001
 43
0.0000001
 44
0.0000000001
 40
0.0
 40
0.0
 40
0.0
 40
0.0
 40
0.1054216662
 40
0.2162098291
 40
0.3355589934
 40
0.4637550049
 40
0.7347840682
 40
1.0
 40
1.0
 40
1.0
 40
1.0
 10
-34.5685692772
 20
278.3107959464
 30
0.0
 10
-34.6724600054
 20
278.3707702394
 30
0.0
 10
-34.9106685911
 20
278.4543232743
 30
0.0
 10
-35.2990225129
 20
278.4483124632
 30
0.0
 10
-35.6915201102
 20
278.3191623287
 30
0.0
 10
-36.1906120313
 20
277.9946267805
 30
0.0
 10
-36.6664791735
 20
277.3774029665
 30
0.0
 10
-36.8237733929
 20
276.7638992381
 30
0.0
 10
-36.8237733929
 20
276.4621104254
 30
0.0
  0
SPLINE
  5
3BE
100
AcDbEntity
  8
0
100
AcDbSpline
 62
7
  6
CONTINUOUS
 70
0
 71
3
 72
10
 73
6
 74
0
 42
0.0000001
 43
0.0000001
 44
0.0000000001
 40
0.0
 40
0.0
 40
0.0
 40
0.0
 40
0.5252176711
 40
0.7667927662
 40
1.0
 40
1.0
 40
1.0
 40
1.0
 10
-36.8237733929
 20
276.4621104254
 30
0.0
 10
-36.8237733929
 20
276.2383199247
 30
0.0
 10
-36.7582652836
 20
275.9014723259
 30
0.0
 10
-36.5155459652
 20
275.5455936524
 30
0.0
 10
-36.3551173579
 20
275.4163180521
 30
0.0
 10
-36.2690600566
 20
275.3666386833
 30
0.0
  0
SPLINE
  5
3BF
100
AcDbEntity
  8
0
100
AcDbSpline
 62
7
  6
CONTINUOUS
 70
0
 71
3
 72
11
 73
7
 74
0
 42
0.0000001
 43
0.0000001
 44
0.0000000001
 40
0.0
 40
0.0
 40
0.0
 40
0.0
 40
0.2565570047
 40
0.5076778298
 40
0.7548383486
 40
1.0
 40
1.0
 40
1.0
 40
1.0
 10
4.287412149
 20
218.7470078197
 30
0.0
 10
3.5933874962
 20
218.7357654534
 30
0.0
 10
2.2168924597
 20
218.798483072
 30
0.0
 10
0.2006436753
 20
219.1586760673
 30
0.0
 10
-1.7187254139
 20
219.780483076
 30
0.0
 10
-2.9208424902
 20
220.3660518047
 30
0.0
 10
-3.4952217669
 20
220.6977687885
 30
0.0
  0
SPLINE
  5
3C0
100
AcDbEntity
  8
0
100
AcDbSpline
 62
7
  6
CONTINUOUS
 70
0
 71
3
 72
13
 73
9
 74
0
 42
0.0000001
 43
0.0000001
 44
0.0000000001
 40
0.0
 40
0.0
 40
0.0
 40
0.0
 40
0.2451317608
 40
0.3727121939
 40
0.5016011514
 40
0.630269491
 40
0.7572052346
 40
1.0
 40
1.0
 40
1.0
 40
1.0
 10
29.0069008916
 20
247.3412443129
 30
0.0
 10
29.0069008916
 20
244.7288178954
 30
0.0
 10
28.3848617789
 20
240.7357976145
 30
0.0
 10
26.5488886922
 20
235.7066308348
 30
0.0
 10
24.6545841277
 20
232.0516435168
 30
0.0
 10
22.313963263
 20
228.6732504144
 30
0.0
 10
18.7472371486
 20
224.7265854946
 30
0.0
 10
15.524979564
 20
222.3372424826
 30
0.0
 10
13.2291662146
 20
221.143716839
 30
0.0
  0
SPLINE
  5
3C1
100
AcDbEntity
  8
0
100
AcDbSpline
 62
7
  6
CONTINUOUS
 70
0
 71
3
 72
13
 73
9
 74
0
 42
0.0000001
 43
0.0000001
 44
0.0000000001
 40
0.0
 40
0.0
 40
0.0
 40
0.0
 40
0.2750780442
 40
0.542383026
 40
0.6671162451
 40
0.7840063621
 40
0.8940300724
 40
1.0
 40
1.0
 40
1.0
 40
1.0
 10
13.2291662146
 20
221.143716839
 30
0.0
 10
12.9914453376
 20
220.2833798336
 30
0.0
 10
12.1984193119
 20
218.6646961391
 30
0.0
 10
10.592586721
 20
217.1306601096
 30
0.0
 10
9.0929958195
 20
216.4094426726
 30
0.0
 10
7.9649983204
 20
216.1676846258
 30
0.0
 10
6.8724846811
 20
216.2334001753
 30
0.0
 10
6.2052254866
 20
216.4883950894
 30
0.0
 10
5.9074893824
 20
216.6604051679
 30
0.0
  0
SPLINE
  5
3C2
100
AcDbEntity
  8
0
100
AcDbSpline
 62
7
  6
CONTINUOUS
 70
0
 71
3
 72
11
 73
7
 74
0
 42
0.0000001
 43
0.0000001
 44
0.0000000001
 40
0.0
 40
0.0
 40
0.0
 40
0.0
 40
0.2717611519
 40
0.526886495
 40
0.7676399774
 40
1.0
 40
1.0
 40
1.0
 40
1.0
 10
5.8657535341
 20
220.8208379314
 30
0.0
 10
5.8657535341
 20
220.5815744945
 30
0.0
 10
5.9123032125
 20
220.1157262617
 30
0.0
 10
6.1350605825
 20
219.4704102412
 30
0.0
 10
6.5002391472
 20
218.9335245161
 30
0.0
 10
6.8306626819
 20
218.6677736075
 30
0.0
 10
7.007799309
 20
218.5654353238
 30
0.0
  0
SPLINE
  5
3C3
100
AcDbEntity
  8
0
100
AcDbSpline
 62
7
  6
CONTINUOUS
 70
0
 71
3
 72
13
 73
9
 74
0
 42
0.0000001
 43
0.0000001
 44
0.0000000001
 40
0.0
 40
0.0
 40
0.0
 40
0.0
 40
0.2714345402
 40
0.5262166453
 40
0.6482286345
 40
0.7672657745
 40
0.8841845549
 40
1.0
 40
1.0
 40
1.0
 40
1.0
 10
-9.6714370831
 20
236.9733037578
 30
0.0
 10
-9.6714370831
 20
235.4487620677
 30
0.0
 10
-9.3756351846
 20
232.4816034391
 30
0.0
 10
-8.1730421536
 20
229.0018826254
 30
0.0
 10
-6.7513839637
 20
226.5980229375
 30
0.0
 10
-5.4921234131
 20
225.0215461008
 30
0.0
 10
-4.0420994812
 20
223.6693504489
 30
0.0
 10
-2.9581697757
 20
222.9281874505
 30
0.0
 10
-2.3948949123
 20
222.6028280093
 30
0.0
  0
SPLINE
  5
3C4
100
AcDbEntity
  8
0
100
AcDbSpline
 62
7
  6
CONTINUOUS
 70
0
 71
3
 72
11
 73
7
 74
0
 42
0.0000001
 43
0.0000001
 44
0.0000000001
 40
0.0
 40
0.0
 40
0.0
 40
0.0
 40
0.2773967594
 40
0.532566532
 40
0.7708745228
 40
1.0
 40
1.0
 40
1.0
 40
1.0
 10
-26.1409236016
 20
281.4607289349
 30
0.0
 10
-25.7032148499
 20
282.2567846562
 30
0.0
 10
-24.7531617735
 20
283.7297198812
 30
0.0
 10
-23.0251226268
 20
285.5908088278
 30
0.0
 10
-21.0790689937
 20
286.969296141
 30
0.0
 10
-19.6434827342
 20
287.5483036648
 30
0.0
 10
-18.9186990863
 20
287.7425865869
 30
0.0
  0
SPLINE
  5
3C5
100
AcDbEntity
  8
0
100
AcDbSpline
 62
7
  6
CONTINUOUS
 70
0
 71
3
 72
9
 73
5
 74
0
 42
0.0000001
 43
0.0000001
 44
0.0000000001
 40
0.0
 40
0.0
 40
0.0
 40
0.0
 40
0.5312871198
 40
1.0
 40
1.0
 40
1.0
 40
1.0
 10
-15.1621205828
 20
284.5385793365
 30
0.0
 10
-15.2444259057
 20
284.5861173624
 30
0.0
 10
-15.4131603916
 20
284.6566022477
 30
0.0
 10
-15.5989541454
 20
284.6534110893
 30
0.0
 10
-15.6799488894
 20
284.6317046538
 30
0.0
  0
SPLINE
  5
3C6
100
AcDbEntity
  8
0
100
AcDbSpline
 62
7
  6
CONTINUOUS
 70
0
 71
3
 72
9
 73
5
 74
0
 42
0.0000001
 43
0.0000001
 44
0.0000000001
 40
0.0
 40
0.0
 40
0.0
 40
0.0
 40
0.2450713116
 40
1.0
 40
1.0
 40
1.0
 40
1.0
 10
-8.966361455
 20
270.4593330081
 30
0.0
 10
-8.966361455
 20
269.7791255359
 30
0.0
 10
-9.048339135
 20
267.0039313988
 30
0.0
 10
-9.4505313346
 20
264.2402437122
 30
0.0
 10
-9.9118349722
 20
262.1963122729
 30
0.0
  0
SPLINE
  5
3C7
100
AcDbEntity
  8
0
100
AcDbSpline
 62
7
  6
CONTINUOUS
 70
0
 71
3
 72
10
 73
6
 74
0
 42
0.0000001
 43
0.0000001
 44
0.0000000001
 40
0.0
 40
0.0
 40
0.0
 40
0.0
 40
0.2403242638
 40
0.4850896596
 40
1.0
 40
1.0
 40
1.0
 40
1.0
 10
-31.7270947001
 20
225.7303845044
 30
0.0
 10
-31.9181968657
 20
225.840726566
 30
0.0
 10
-32.3294678908
 20
226.0223335622
 30
0.0
 10
-33.2333700998
 20
226.2105508717
 30
0.0
 10
-33.9487085449
 20
226.1387552711
 30
0.0
 10
-34.4053866959
 20
226.0163401889
 30
0.0
  0
SPLINE
  5
3C8
100
AcDbEntity
  8
0
100
AcDbSpline
 62
7
  6
CONTINUOUS
 70
0
 71
3
 72
11
 73
7
 74
0
 42
0.0000001
 43
0.0000001
 44
0.0000000001
 40
0.0
 40
0.0
 40
0.0
 40
0.0
 40
0.2446457885
 40
0.4980644756
 40
0.7525134545
 40
1.0
 40
1.0
 40
1.0
 40
1.0
 10
-18.6434601081
 20
236.9454464764
 30
0.0
 10
-18.7155698093
 20
239.6577362781
 30
0.0
 10
-18.1424299594
 20
245.2154739571
 30
0.0
 10
-15.4066707255
 20
253.1693513144
 30
0.0
 10
-10.9956065529
 20
260.3673626017
 30
0.0
 10
-7.0587183537
 20
264.3890976804
 30
0.0
 10
-4.9078335089
 20
266.0941979814
 30
0.0
  0
SPLINE
  5
3C9
100
AcDbEntity
  8
0
100
AcDbSpline
 62
7
  6
CONTINUOUS
 70
0
 71
3
 72
11
 73
7
 74
0
 42
0.0000001
 43
0.0000001
 44
0.0000000001
 40
0.0
 40
0.0
 40
0.0
 40
0.0
 40
0.2341348211
 40
0.4778815654
 40
0.7330361903
 40
1.0
 40
1.0
 40
1.0
 40
1.0
 10
26.9458987403
 20
264.666010975
 30
0.0
 10
27.8045665947
 20
263.6837093438
 30
0.0
 10
29.3459492802
 20
261.4853769958
 30
0.0
 10
31.0021502169
 20
257.7265111635
 30
0.0
 10
32.005653042
 20
253.5575291702
 30
0.0
 10
32.2190622438
 20
250.6421258691
 30
0.0
 10
32.2190622438
 20
249.1544952177
 30
0.0
  0
SPLINE
  5
3CA
100
AcDbEntity
  8
0
100
AcDbSpline
 62
7
  6
CONTINUOUS
 70
0
 71
3
 72
14
 73
10
 74
0
 42
0.0000001
 43
0.0000001
 44
0.0000000001
 40
0.0
 40
0.0
 40
0.0
 40
0.0
 40
0.2491613243
 40
0.3790638972
 40
0.509622735
 40
0.6387325639
 40
0.7644429917
 40
0.8851815827
 40
1.0
 40
1.0
 40
1.0
 40
1.0
 10
32.2190622438
 20
249.1544952177
 30
0.0
 10
32.2190622438
 20
245.4456039722
 30
0.0
 10
31.1858687426
 20
239.765478953
 30
0.0
 10
28.1994782834
 20
232.7759817182
 30
0.0
 10
25.1475402478
 20
227.8168489411
 30
0.0
 10
21.4330277692
 20
223.4174417565
 30
0.0
 10
17.1913927257
 20
219.7383718105
 30
0.0
 10
12.5814585015
 20
216.9207731234
 30
0.0
 10
9.2831331837
 20
215.6561889291
 30
0.0
 10
7.632284527
 20
215.2136698989
 30
0.0
  0
SPLINE
  5
3CB
100
AcDbEntity
  8
0
100
AcDbSpline
 62
7
  6
CONTINUOUS
 70
0
 71
3
 72
11
 73
7
 74
0
 42
0.0000001
 43
0.0000001
 44
0.0000000001
 40
0.0
 40
0.0
 40
0.0
 40
0.0
 40
0.2351246634
 40
0.4794870067
 40
0.7344160189
 40
1.0
 40
1.0
 40
1.0
 40
1.0
 10
-12.9144055075
 20
221.1740326527
 30
0.0
 10
-13.8058054814
 20
222.1752988167
 30
0.0
 10
-15.4155037688
 20
224.4110058291
 30
0.0
 10
-17.1840585036
 20
228.2307979643
 30
0.0
 10
-18.307777729
 20
232.4650298763
 30
0.0
 10
-18.6032164593
 20
235.4317467088
 30
0.0
 10
-18.6434601081
 20
236.9454464764
 30
0.0
  0
SPLINE
  5
3CC
100
AcDbEntity
  8
0
100
AcDbSpline
 62
7
  6
CONTINUOUS
 70
0
 71
3
 72
9
 73
5
 74
0
 42
0.0000001
 43
0.0000001
 44
0.0000000001
 40
0.0
 40
0.0
 40
0.0
 40
0.0
 40
0.2464470496
 40
1.0
 40
1.0
 40
1.0
 40
1.0
 10
-2.5482035624
 20
264.7303914373
 30
0.0
 10
-2.5775596112
 20
264.2103530561
 30
0.0
 10
-2.7423367559
 20
262.1029592753
 30
0.0
 10
-3.0865311496
 20
260.0102185323
 30
0.0
 10
-3.4371562688
 20
258.4566580998
 30
0.0
  0
SPLINE
  5
3CD
100
AcDbEntity
  8
0
100
AcDbSpline
 62
7
  6
CONTINUOUS
 70
0
 71
3
 72
12
 73
8
 74
0
 42
0.0000001
 43
0.0000001
 44
0.0000000001
 40
0.0
 40
0.0
 40
0.0
 40
0.0
 40
0.2496129985
 40
0.3797352206
 40
0.5105246444
 40
0.7650066244
 40
1.0
 40
1.0
 40
1.0
 40
1.0
 10
-30.9931946799
 20
278.0250290166
 30
0.0
 10
-30.9931946799
 20
277.3574016697
 30
0.0
 10
-31.1791186961
 20
276.335055979
 30
0.0
 10
-31.7168343853
 20
275.0767446511
 30
0.0
 10
-32.4419860175
 20
273.8988601032
 30
0.0
 10
-33.6150387313
 20
272.6898058455
 30
0.0
 10
-34.8117222951
 20
272.0784148987
 30
0.0
 10
-35.4188146669
 20
271.9156804599
 30
0.0
  0
SPLINE
  5
3CE
100
AcDbEntity
  8
0
100
AcDbSpline
 62
7
  6
CONTINUOUS
 70
0
 71
3
 72
13
 73
9
 74
0
 42
0.0000001
 43
0.0000001
 44
0.0000000001
 40
0.0
 40
0.0
 40
0.0
 40
0.0
 40
0.1228933572
 40
0.2502234085
 40
0.3802479217
 40
0.5109294677
 40
0.7652098012
 40
1.0
 40
1.0
 40
1.0
 40
1.0
 10
-40.7907156781
 20
280.9147574769
 30
0.0
 10
-40.7907156781
 20
281.3140661945
 30
0.0
 10
-40.7174456988
 20
282.1284253958
 30
0.0
 10
-40.4092177476
 20
283.3296783497
 30
0.0
 10
-39.9123251412
 20
284.4939451504
 30
0.0
 10
-39.03219077
 20
285.9229332895
 30
0.0
 10
-37.6082301085
 20
287.3908626404
 30
0.0
 10
-36.1556875632
 20
288.1328771628
 30
0.0
 10
-35.4188146669
 20
288.3303999827
 30
0.0
  0
SPLINE
  5
3CF
100
AcDbEntity
  8
0
100
AcDbSpline
 62
7
  6
CONTINUOUS
 70
0
 71
3
 72
10
 73
6
 74
0
 42
0.0000001
 43
0.0000001
 44
0.0000000001
 40
0.0
 40
0.0
 40
0.0
 40
0.0
 40
0.5252176711
 40
0.7667927662
 40
1.0
 40
1.0
 40
1.0
 40
1.0
 10
-34.0138559408
 20
277.2153242043
 30
0.0
 10
-34.0138559408
 20
277.439114705
 30
0.0
 10
-34.0793640501
 20
277.7759623037
 30
0.0
 10
-34.3220833686
 20
278.1318409773
 30
0.0
 10
-34.4825119758
 20
278.2611165776
 30
0.0
 10
-34.5685692772
 20
278.3107959464
 30
0.0
  0
SPLINE
  5
3D0
100
AcDbEntity
  8
0
100
AcDbSpline
 62
7
  6
CONTINUOUS
 70
0
 71
3
 72
9
 73
5
 74
0
 42
0.0000001
 43
0.0000001
 44
0.0000000001
 40
0.0
 40
0.0
 40
0.0
 40
0.0
 40
0.5159773636
 40
1.0
 40
1.0
 40
1.0
 40
1.0
 10
-33.1657172318
 20
249.0056419335
 30
0.0
 10
-33.1657172318
 20
247.3147734214
 30
0.0
 10
-32.8349779992
 20
244.0254618733
 30
0.0
 10
-31.7402418151
 20
240.8939614117
 30
0.0
 10
-31.0162958299
 20
239.4826566818
 30
0.0
  0
SPLINE
  5
3D1
100
AcDbEntity
  8
0
100
AcDbSpline
 62
7
  6
CONTINUOUS
 70
0
 71
3
 72
11
 73
7
 74
0
 42
0.0000001
 43
0.0000001
 44
0.0000000001
 40
0.0
 40
0.0
 40
0.0
 40
0.0
 40
0.2573952296
 40
0.5086187965
 40
0.7554505339
 40
1.0
 40
1.0
 40
1.0
 40
1.0
 10
-31.0162958299
 20
239.4826566818
 30
0.0
 10
-30.676366883
 20
238.8199783322
 30
0.0
 10
-29.9186961704
 20
237.5521887744
 30
0.0
 10
-28.5437411106
 20
235.8436527691
 30
0.0
 10
-26.963517786
 20
234.3766280701
 30
0.0
 10
-25.7840812943
 20
233.5713640359
 30
0.0
 10
-25.1713200303
 20
233.2174805937
 30
0.0
  0
SPLINE
  5
3D2
100
AcDbEntity
  8
0
100
AcDbSpline
 62
7
  6
CONTINUOUS
 70
0
 71
3
 72
9
 73
5
 74
0
 42
0.0000001
 43
0.0000001
 44
0.0000000001
 40
0.0
 40
0.0
 40
0.0
 40
0.0
 40
0.4962050461
 40
1.0
 40
1.0
 40
1.0
 40
1.0
 10
-18.9186990863
 20
287.7425865869
 30
0.0
 10
-18.4724519469
 20
287.8622060051
 30
0.0
 10
-17.5539549939
 20
288.036542491
 30
0.0
 10
-16.6201660949
 20
288.0753891407
 30
0.0
 10
-16.1512707253
 20
288.062658612
 30
0.0
  0
SPLINE
  5
3D3
100
AcDbEntity
  8
0
100
AcDbSpline
 62
7
  6
CONTINUOUS
 70
0
 71
3
 72
11
 73
7
 74
0
 42
0.0000001
 43
0.0000001
 44
0.0000000001
 40
0.0
 40
0.0
 40
0.0
 40
0.0
 40
0.271772124
 40
0.5268740629
 40
0.7676338636
 40
1.0
 40
1.0
 40
1.0
 40
1.0
 10
-29.9797667089
 20
222.2796150358
 30
0.0
 10
-29.9797667089
 20
222.6457033135
 30
0.0
 10
-30.0509594372
 20
223.3584409586
 30
0.0
 10
-30.3918327033
 20
224.3457509663
 30
0.0
 10
-30.9505023953
 20
225.1671797264
 30
0.0
 10
-31.4560285085
 20
225.5738713516
 30
0.0
 10
-31.7270947001
 20
225.7303845044
 30
0.0
  0
SPLINE
  5
3D4
100
AcDbEntity
  8
0
100
AcDbSpline
 62
7
  6
CONTINUOUS
 70
0
 71
3
 72
13
 73
9
 74
0
 42
0.0000001
 43
0.0000001
 44
0.0000000001
 40
0.0
 40
0.0
 40
0.0
 40
0.0
 40
0.1054216662
 40
0.2162098291
 40
0.3355589934
 40
0.4637550049
 40
0.7347840682
 40
1.0
 40
1.0
 40
1.0
 40
1.0
 10
-36.2690600566
 20
220.2065618774
 30
0.0
 10
-36.1651693283
 20
220.1465875844
 30
0.0
 10
-35.9269607426
 20
220.0630345495
 30
0.0
 10
-35.5386068208
 20
220.0690453606
 30
0.0
 10
-35.1461092235
 20
220.1981954951
 30
0.0
 10
-34.6470173024
 20
220.5227310432
 30
0.0
 10
-34.1711501603
 20
221.1399548573
 30
0.0
 10
-34.0138559408
 20
221.7534585857
 30
0.0
 10
-34.0138559408
 20
222.0552473984
 30
0.0
  0
SPLINE
  5
3D5
100
AcDbEntity
  8
0
100
AcDbSpline
 62
7
  6
CONTINUOUS
 70
0
 71
3
 72
13
 73
9
 74
0
 42
0.0000001
 43
0.0000001
 44
0.0000000001
 40
0.0
 40
0.0
 40
0.0
 40
0.0
 40
0.115816128
 40
0.2327344206
 40
0.3517718187
 40
0.473783441
 40
0.728567327
 40
1.0
 40
1.0
 40
1.0
 40
1.0
 10
-3.4952217669
 20
220.6977687885
 30
0.0
 10
-4.1140955213
 20
221.0551823364
 30
0.0
 10
-5.3049073473
 20
221.8695489212
 30
0.0
 10
-6.8980247193
 20
223.3550864752
 30
0.0
 10
-8.2815172158
 20
225.0870890773
 30
0.0
 10
-9.8434065751
 20
227.7281188019
 30
0.0
 10
-11.1646376043
 20
231.5511211566
 30
0.0
 10
-11.4896189639
 20
234.8109991535
 30
0.0
 10
-11.4896189639
 20
236.4859301362
 30
0.0
  0
SPLINE
  5
3D6
100
AcDbEntity
  8
0
100
AcDbSpline
 62
7
  6
CONTINUOUS
 70
0
 71
3
 72
19
 73
15
 74
0
 42
0.0000001
 43
0.0000001
 44
0.0000000001
 40
0.0
 40
0.0
 40
0.0
 40
0.0
 40
0.1300542981
 40
0.265667436
 40
0.334412058
 40
0.4029811735
 40
0.5372318963
 40
0.6648543545
 40
0.7255503323
 40
0.783963646
 40
0.8402168428
 40
0.8946216449
 40
0.9476702702
 40
1.0
 40
1.0
 40
1.0
 40
1.0
 10
-11.4896189639
 20
236.4859301362
 30
0.0
 10
-11.4896189639
 20
238.6284037009
 30
0.0
 10
-10.9288421556
 20
243.0162731499
 30
0.0
 10
-9.0350967976
 20
248.2347589488
 30
0.0
 10
-6.8581864428
 20
252.1771048045
 30
0.0
 10
-4.2922054174
 20
255.8503374183
 30
0.0
 10
-0.4818263296
 20
259.8001693882
 30
0.0
 10
4.0235196685
 20
262.7251056202
 30
0.0
 10
7.8108290216
 20
264.2312916838
 30
0.0
 10
10.6283055732
 20
264.9153938966
 30
0.0
 10
13.4145342535
 20
265.156833632
 30
0.0
 10
16.1163734103
 20
264.948396437
 30
0.0
 10
18.6791178543
 20
264.2921120743
 30
0.0
 10
20.26602576
 20
263.5605949827
 30
0.0
 10
21.0125052071
 20
263.1294083581
 30
0.0
  0
SPLINE
  5
3D7
100
AcDbEntity
  8
0
100
AcDbSpline
 62
7
  6
CONTINUOUS
 70
0
 71
3
 72
13
 73
9
 74
0
 42
0.0000001
 43
0.0000001
 44
0.0000000001
 40
0.0
 40
0.0
 40
0.0
 40
0.0
 40
0.2405676159
 40
0.3672334224
 40
0.4960882267
 40
0.6254876314
 40
0.7537405927
 40
1.0
 40
1.0
 40
1.0
 40
1.0
 10
11.6501995411
 20
222.4410619696
 30
0.0
 10
13.8774553537
 20
223.4316818418
 30
0.0
 10
17.0317079241
 20
225.5482909646
 30
0.0
 10
20.5356371358
 20
229.1638387727
 30
0.0
 10
22.8528979344
 20
232.317457694
 30
0.0
 10
24.7354961768
 20
235.766210217
 30
0.0
 10
26.5650774459
 20
240.5422195597
 30
0.0
 10
27.1887190108
 20
244.3585759578
 30
0.0
 10
27.1887190108
 20
246.8538706912
 30
0.0
  0
SPLINE
  5
3D8
100
AcDbEntity
  8
0
100
AcDbSpline
 62
7
  6
CONTINUOUS
 70
0
 71
3
 72
13
 73
9
 74
0
 42
0.0000001
 43
0.0000001
 44
0.0000000001
 40
0.0
 40
0.0
 40
0.0
 40
0.0
 40
0.2714323333
 40
0.5262143375
 40
0.6482250284
 40
0.7672621773
 40
0.8841829268
 40
1.0
 40
1.0
 40
1.0
 40
1.0
 10
27.1887190108
 20
246.8538706912
 30
0.0
 10
27.1887190108
 20
248.3784004424
 30
0.0
 10
26.8929240546
 20
251.3455471114
 30
0.0
 10
25.6903464143
 20
254.825251846
 30
0.0
 10
24.2687062414
 20
257.2291144445
 30
0.0
 10
23.0094438742
 20
258.8055951134
 30
0.0
 10
21.5594106022
 20
260.1578131174
 30
0.0
 10
20.4754556237
 20
260.8989751735
 30
0.0
 10
19.912174775
 20
261.224342925
 30
0.0
  0
SPLINE
  5
3D9
100
AcDbEntity
  8
0
100
AcDbSpline
 62
7
  6
CONTINUOUS
 70
0
 71
3
 72
12
 73
8
 74
0
 42
0.0000001
 43
0.0000001
 44
0.0000000001
 40
0.0
 40
0.0
 40
0.0
 40
0.0
 40
0.2349933756
 40
0.4894753556
 40
0.6202647794
 40
0.7503870015
 40
1.0
 40
1.0
 40
1.0
 40
1.0
 10
-34.4053866959
 20
271.330343285
 30
0.0
 10
-33.7982943241
 20
271.4930777237
 30
0.0
 10
-32.6016107604
 20
272.1044686706
 30
0.0
 10
-31.4285580466
 20
273.3135229283
 30
0.0
 10
-30.7034064143
 20
274.4914074762
 30
0.0
 10
-30.1656907252
 20
275.7497188041
 30
0.0
 10
-29.9797667089
 20
276.7720644948
 30
0.0
 10
-29.9797667089
 20
277.4396918417
 30
0.0
  0
SPLINE
  5
3DA
100
AcDbEntity
  8
0
100
AcDbSpline
 62
7
  6
CONTINUOUS
 70
0
 71
3
 72
11
 73
7
 74
0
 42
0.0000001
 43
0.0000001
 44
0.0000000001
 40
0.0
 40
0.0
 40
0.0
 40
0.0
 40
0.2437295002
 40
0.4900874394
 40
0.7415577215
 40
1.0
 40
1.0
 40
1.0
 40
1.0
 10
-2.3948949123
 20
222.6028280093
 30
0.0
 10
-1.7923875628
 20
222.2548070566
 30
0.0
 10
-0.5214403914
 20
221.6527842555
 30
0.0
 10
1.5204700868
 20
221.0624303662
 30
0.0
 10
3.6705114648
 20
220.7908435167
 30
0.0
 10
5.131690699
 20
220.8237252802
 30
0.0
 10
5.8664339262
 20
220.8908064925
 30
0.0
  0
SPLINE
  5
3DB
100
AcDbEntity
  8
0
100
AcDbSpline
 62
7
  6
CONTINUOUS
 70
0
 71
3
 72
9
 73
5
 74
0
 42
0.0000001
 43
0.0000001
 44
0.0000000001
 40
0.0
 40
0.0
 40
0.0
 40
0.0
 40
0.474413445
 40
1.0
 40
1.0
 40
1.0
 40
1.0
 10
-16.1512707253
 20
288.062658612
 30
0.0
 10
-15.986306061
 20
288.0581798145
 30
0.0
 10
-15.6391240806
 20
287.994521405
 30
0.0
 10
-15.3204367797
 20
287.8476909786
 30
0.0
 10
-15.1621205828
 20
287.7562504835
 30
0.0
  0
SPLINE
  5
3DC
100
AcDbEntity
  8
0
100
AcDbSpline
 62
7
  6
CONTINUOUS
 70
0
 71
3
 72
9
 73
5
 74
0
 42
0.0000001
 43
0.0000001
 44
0.0000000001
 40
0.0
 40
0.0
 40
0.0
 40
0.0
 40
0.2344474249
 40
1.0
 40
1.0
 40
1.0
 40
1.0
 10
-15.1621205828
 20
287.7562504835
 30
0.0
 10
-15.0976311903
 20
287.7190026081
 30
0.0
 10
-14.8287097182
 20
287.5495079324
 30
0.0
 10
-14.5845378235
 20
287.3424515987
 30
0.0
 10
-14.4113385485
 20
287.1717492433
 30
0.0
  0
SPLINE
  5
3DD
100
AcDbEntity
  8
0
100
AcDbSpline
 62
7
  6
CONTINUOUS
 70
0
 71
3
 72
17
 73
13
 74
0
 42
0.0000001
 43
0.0000001
 44
0.0000000001
 40
0.0
 40
0.0
 40
0.0
 40
0.0
 40
0.0394125775
 40
0.0811217338
 40
0.126880819
 40
0.1777298233
 40
0.2954028867
 40
0.4319333202
 40
0.5800819531
 40
0.7304383759
 40
0.8732244342
 40
1.0
 40
1.0
 40
1.0
 40
1.0
 10
-15.6799488894
 20
284.6317046538
 30
0.0
 10
-15.730394558
 20
284.6181853117
 30
0.0
 10
-15.830560802
 20
284.5745272761
 30
0.0
 10
-15.9615917798
 20
284.4663871336
 30
0.0
 10
-16.0728600936
 20
284.318998243
 30
0.0
 10
-16.1985308547
 20
284.062906097
 30
0.0
 10
-16.288228277
 20
283.6635677386
 30
0.0
 10
-16.2959868387
 20
283.127982941
 30
0.0
 10
-16.2085034525
 20
282.5556882258
 30
0.0
 10
-16.0328863522
 20
281.9954581264
 30
0.0
 10
-15.7844403392
 20
281.4951029556
 30
0.0
 10
-15.567461915
 20
281.2069531082
 30
0.0
 10
-15.44910419
 20
281.0877371694
 30
0.0
  0
SPLINE
  5
3DE
100
AcDbEntity
  8
0
100
AcDbSpline
 62
7
  6
CONTINUOUS
 70
0
 71
3
 72
9
 73
5
 74
0
 42
0.0000001
 43
0.0000001
 44
0.0000000001
 40
0.0
 40
0.0
 40
0.0
 40
0.0
 40
0.2668760426
 40
1.0
 40
1.0
 40
1.0
 40
1.0
 10
-15.44910419
 20
281.0877371694
 30
0.0
 10
-15.4261546439
 20
281.0646212159
 30
0.0
 10
-15.3378347593
 20
280.9804298058
 30
0.0
 10
-15.2396057547
 20
280.905994879
 30
0.0
 10
-15.1621205828
 20
280.8612408828
 30
0.0
  0
SPLINE
  5
3DF
100
AcDbEntity
  8
0
100
AcDbSpline
 62
7
  6
CONTINUOUS
 70
0
 71
3
 72
10
 73
6
 74
0
 42
0.0000001
 43
0.0000001
 44
0.0000000001
 40
0.0
 40
0.0
 40
0.0
 40
0.0
 40
0.5252176711
 40
0.7667927662
 40
1.0
 40
1.0
 40
1.0
 40
1.0
 10
-34.0138559408
 20
222.0552473984
 30
0.0
 10
-34.0138559408
 20
222.2790378991
 30
0.0
 10
-34.0793640501
 20
222.6158854978
 30
0.0
 10
-34.3220833686
 20
222.9717641714
 30
0.0
 10
-34.4825119758
 20
223.1010397717
 30
0.0
 10
-34.5685692772
 20
223.1507191405
 30
0.0
  0
SPLINE
  5
3E0
100
AcDbEntity
  8
0
100
AcDbSpline
 62
7
  6
CONTINUOUS
 70
0
 71
3
 72
11
 73
7
 74
0
 42
0.0000001
 43
0.0000001
 44
0.0000000001
 40
0.0
 40
0.0
 40
0.0
 40
0.0
 40
0.2323671568
 40
0.4731321704
 40
0.7282223224
 40
1.0
 40
1.0
 40
1.0
 40
1.0
 10
-38.6697774665
 20
210.5340535526
 30
0.0
 10
-38.9987645832
 20
210.7241003497
 30
0.0
 10
-39.6124328732
 20
211.2176759283
 30
0.0
 10
-40.290513234
 20
212.214776646
 30
0.0
 10
-40.7043186711
 20
213.4131621135
 30
0.0
 10
-40.7907156781
 20
214.2782920713
 30
0.0
 10
-40.7907156781
 20
214.7226653099
 30
0.0
  0
SPLINE
  5
3E1
100
AcDbEntity
  8
0
100
AcDbSpline
 62
7
  6
CONTINUOUS
 70
0
 71
3
 72
14
 73
10
 74
0
 42
0.0000001
 43
0.0000001
 44
0.0000000001
 40
0.0
 40
0.0
 40
0.0
 40
0.0
 40
0.1052589072
 40
0.2158740762
 40
0.3350378063
 40
0.4630338011
 40
0.5976746918
 40
0.7352067853
 40
1.0
 40
1.0
 40
1.0
 40
1.0
 10
7.007799309
 20
218.5654353238
 30
0.0
 10
7.2216546127
 20
218.4418833227
 30
0.0
 10
7.7121360133
 20
218.2699419495
 30
0.0
 10
8.5117168713
 20
218.2822959972
 30
0.0
 10
9.3196416907
 20
218.5482496848
 30
0.0
 10
10.0780331594
 20
219.0408298725
 30
0.0
 10
10.7355459409
 20
219.722623874
 30
0.0
 10
11.4048022472
 20
220.7957340971
 30
0.0
 10
11.6508777001
 20
221.750259781
 30
0.0
 10
11.6508777001
 20
222.371572182
 30
0.0
  0
SPLINE
  5
3E2
100
AcDbEntity
  8
0
100
AcDbSpline
 62
7
  6
CONTINUOUS
 70
0
 71
3
 72
10
 73
6
 74
0
 42
0.0000001
 43
0.0000001
 44
0.0000000001
 40
0.0
 40
0.0
 40
0.0
 40
0.0
 40
0.2415488
 40
0.4869376326
 40
1.0
 40
1.0
 40
1.0
 40
1.0
 10
5.9074893824
 20
216.6604051679
 30
0.0
 10
5.7196877078
 20
216.768903198
 30
0.0
 10
5.3617932739
 20
217.0261118311
 30
0.0
 10
4.7451912043
 20
217.6846139096
 30
0.0
 10
4.4295333685
 20
218.308792082
 30
0.0
 10
4.287412149
 20
218.7470078197
 30
0.0
  0
SPLINE
  5
3E3
100
AcDbEntity
  8
0
100
AcDbSpline
 62
7
  6
CONTINUOUS
 70
0
 71
3
 72
9
 73
5
 74
0
 42
0.0000001
 43
0.0000001
 44
0.0000000001
 40
0.0
 40
0.0
 40
0.0
 40
0.0
 40
0.4971059837
 40
1.0
 40
1.0
 40
1.0
 40
1.0
 10
-9.9118349722
 20
262.1963122729
 30
0.0
 10
-11.127474382
 20
260.9875376711
 30
0.0
 10
-13.3682877128
 20
258.3427928039
 30
0.0
 10
-15.1531614226
 20
255.3724855902
 30
0.0
 10
-15.9238620928
 20
253.8188535905
 30
0.0
  0
SPLINE
  5
3E4
100
AcDbEntity
  8
0
100
AcDbSpline
 62
7
  6
CONTINUOUS
 70
0
 71
3
 72
9
 73
5
 74
0
 42
0.0000001
 43
0.0000001
 44
0.0000000001
 40
0.0
 40
0.0
 40
0.0
 40
0.0
 40
0.5105234307
 40
1.0
 40
1.0
 40
1.0
 40
1.0
 10
-15.9238620928
 20
253.8188535905
 30
0.0
 10
-14.6877746568
 20
256.3172791893
 30
0.0
 10
-12.7775767698
 20
261.4828754922
 30
0.0
 10
-12.065535116
 20
266.9563339637
 30
0.0
 10
-12.065535116
 20
269.6288968247
 30
0.0
  0
SPLINE
  5
3E5
100
AcDbEntity
  8
0
100
AcDbSpline
 62
7
  6
CONTINUOUS
 70
0
 71
3
 72
9
 73
5
 74
0
 42
0.0000001
 43
0.0000001
 44
0.0000000001
 40
0.0
 40
0.0
 40
0.0
 40
0.0
 40
0.4778731229
 40
1.0
 40
1.0
 40
1.0
 40
1.0
 10
-31.9057779935
 20
225.6144131104
 30
0.0
 10
-31.6034279534
 20
225.2563896604
 30
0.0
 10
-31.1295118975
 20
224.3662218442
 30
0.0
 10
-30.9931946799
 20
223.3769593195
 30
0.0
 10
-30.9931946799
 20
222.8649522107
 30
0.0
  0
SPLINE
  5
3E6
100
AcDbEntity
  8
0
100
AcDbSpline
 62
7
  6
CONTINUOUS
 70
0
 71
3
 72
13
 73
9
 74
0
 42
0.0000001
 43
0.0000001
 44
0.0000000001
 40
0.0
 40
0.0
 40
0.0
 40
0.0
 40
0.1054216662
 40
0.2162098291
 40
0.3355589934
 40
0.4637550049
 40
0.7347840682
 40
1.0
 40
1.0
 40
1.0
 40
1.0
 10
-36.2690600566
 20
275.3666386833
 30
0.0
 10
-36.1651693283
 20
275.3066643903
 30
0.0
 10
-35.9269607426
 20
275.2231113554
 30
0.0
 10
-35.5386068208
 20
275.2291221665
 30
0.0
 10
-35.1461092235
 20
275.358272301
 30
0.0
 10
-34.6470173024
 20
275.6828078491
 30
0.0
 10
-34.1711501603
 20
276.3000316631
 30
0.0
 10
-34.0138559408
 20
276.9135353916
 30
0.0
 10
-34.0138559408
 20
277.2153242043
 30
0.0
  0
SPLINE
  5
3E7
100
AcDbEntity
  8
0
100
AcDbSpline
 62
7
  6
CONTINUOUS
 70
0
 71
3
 72
9
 73
5
 74
0
 42
0.0000001
 43
0.0000001
 44
0.0000000001
 40
0.0
 40
0.0
 40
0.0
 40
0.0
 40
0.4894803047
 40
1.0
 40
1.0
 40
1.0
 40
1.0
 10
-26.1409236016
 20
277.75857981
 30
0.0
 10
-26.1409236016
 20
275.0894817171
 30
0.0
 10
-26.8511112131
 20
269.6231802293
 30
0.0
 10
-28.7566406252
 20
264.4636369675
 30
0.0
 10
-29.989713992
 20
261.9677989191
 30
0.0
  0
SPLINE
  5
3E8
100
AcDbEntity
  8
0
100
AcDbSpline
 62
7
  6
CONTINUOUS
 70
0
 71
3
 72
9
 73
5
 74
0
 42
0.0000001
 43
0.0000001
 44
0.0000000001
 40
0.0
 40
0.0
 40
0.0
 40
0.0
 40
0.5105352275
 40
1.0
 40
1.0
 40
1.0
 40
1.0
 10
-29.989713992
 20
261.9677989191
 30
0.0
 10
-31.0070109893
 20
259.9205767832
 30
0.0
 10
-32.5793686301
 20
255.6861569461
 30
0.0
 10
-33.1657172318
 20
251.1973409523
 30
0.0
 10
-33.1657172318
 20
249.0056419335
 30
0.0
  0
SPLINE
  5
3E9
100
AcDbEntity
  8
0
100
AcDbSpline
 62
7
  6
CONTINUOUS
 70
0
 71
3
 72
11
 73
7
 74
0
 42
0.0000001
 43
0.0000001
 44
0.0000000001
 40
0.0
 40
0.0
 40
0.0
 40
0.0
 40
0.2425222921
 40
0.4955055853
 40
0.7508714104
 40
1.0
 40
1.0
 40
1.0
 40
1.0
 10
-16.9544908848
 20
235.9732473235
 30
0.0
 10
-16.9544908848
 20
238.6549319947
 30
0.0
 10
-16.2305142299
 20
244.1497062835
 30
0.0
 10
-13.3000598393
 20
251.9853689752
 30
0.0
 10
-8.732479826
 20
259.0797634456
 30
0.0
 10
-4.7265733473
 20
263.0441937671
 30
0.0
 10
-2.5482035624
 20
264.7303914373
 30
0.0
  0
SPLINE
  5
3EA
100
AcDbEntity
  8
0
100
AcDbSpline
 62
7
  6
CONTINUOUS
 70
0
 71
3
 72
11
 73
7
 74
0
 42
0.0000001
 43
0.0000001
 44
0.0000000001
 40
0.0
 40
0.0
 40
0.0
 40
0.0
 40
0.2341347884
 40
0.4778816344
 40
0.7330362453
 40
1.0
 40
1.0
 40
1.0
 40
1.0
 10
-11.6813740033
 20
220.4617984592
 30
0.0
 10
-12.5400267463
 20
221.4441045805
 30
0.0
 10
-14.0814146663
 20
223.6424157459
 30
0.0
 10
-15.7375877283
 20
227.4012748167
 30
0.0
 10
-16.7410847767
 20
231.5702350747
 30
0.0
 10
-16.9544908848
 20
234.4856242554
 30
0.0
 10
-16.9544908848
 20
235.9732473235
 30
0.0
  0
SPLINE
  5
3EB
100
AcDbEntity
  8
0
100
AcDbSpline
 62
7
  6
CONTINUOUS
 70
0
 71
3
 72
12
 73
8
 74
0
 42
0.0000001
 43
0.0000001
 44
0.0000000001
 40
0.0
 40
0.0
 40
0.0
 40
0.0
 40
0.2705268683
 40
0.5257270471
 40
0.7672004625
 40
0.8843778607
 40
1.0
 40
1.0
 40
1.0
 40
1.0
 10
-12.6156500427
 20
237.136304775
 30
0.0
 10
-12.6156500427
 20
235.5856897565
 30
0.0
 10
-12.3353695875
 20
232.5613359555
 30
0.0
 10
-11.0046694373
 20
228.3334021416
 30
0.0
 10
-9.1564890969
 20
225.289737758
 30
0.0
 10
-7.3044382876
 20
223.2903581686
 30
0.0
 10
-6.2685654529
 20
222.4410055938
 30
0.0
 10
-5.7278784638
 20
222.0577765651
 30
0.0
  0
SPLINE
  5
3EC
100
AcDbEntity
  8
0
100
AcDbSpline
 62
7
  6
CONTINUOUS
 70
0
 71
3
 72
11
 73
7
 74
0
 42
0.0000001
 43
0.0000001
 44
0.0000000001
 40
0.0
 40
0.0
 40
0.0
 40
0.0
 40
0.2526239409
 40
0.507737701
 40
0.7588089375
 40
1.0
 40
1.0
 40
1.0
 40
1.0
 10
-3.4371562688
 20
258.4566580998
 30
0.0
 10
-4.8559686142
 20
257.04589465
 30
0.0
 10
-7.4303730112
 20
253.9186648944
 30
0.0
 10
-10.3346881238
 20
248.6186676234
 30
0.0
 10
-12.1699087038
 20
242.9544249956
 30
0.0
 10
-12.6156500427
 20
239.0465749536
 30
0.0
 10
-12.6156500427
 20
237.136304775
 30
0.0
  0
ENDSEC
  0
SECTION
  2
OBJECTS
  0
DICTIONARY
  5
C
100
AcDbDictionary
280
0
281
1
  3
ACAD_GROUP
350
D
  3
ACAD_MLINESTYLE
350
17
  3
ACAD_LAYOUT
350
1A
  3
ACAD_PLOTSETTINGS
350
19
  3
ACAD_PLOTSTYLENAME
350
E
  0
DICTIONARY
  5
D
102
{ACAD_REACTORS
330
C
102
}
100
AcDbDictionary
280
0
281
1
  0
ACDBDICTIONARYWDFLT
  5
E
102
{ACAD_REACTORS
330
C
102
}
100
AcDbDictionary
281
1
  3
Normal
350
F
100
AcDbDictionaryWithDefault
340
F
  0
DICTIONARY
  5
17
102
{ACAD_REACTORS
330
C
102
}
100
AcDbDictionary
280
0
281
1
  3
Standard
350
18
  0
DICTIONARY
  5
19
102
{ACAD_REACTORS
330
C
102
}
100
AcDbDictionary
281
1
  0
DICTIONARY
  5
1A
102
{ACAD_REACTORS
330
C
102
}
100
AcDbDictionary
281
1
  3
Model
350
3ED
  3
Layout1
350
3EE
  0
ACDBPLACEHOLDER
  5
F
102
{ACAD_REACTORS
330
E
102
}
  0
MLINESTYLE
  5
18
102
{ACAD_REACTORS
330
17
102
}
100
AcDbMlineStyle
  2
STANDARD
 70
0
  3

 62
256
 51
90.0
 52
90.0
 71
2
 49
0.5
 62
256
  6
BYLAYER
 49
-0.5
 62
256
  6
BYLAYER
  0
LAYOUT
  5
3ED
102
{ACAD_REACTORS
330
1A
102
}
100
AcDbPlotSettings
  1

  2
none_device
  4
ANSI_C_(22.00_x_17.00_Inches)
  6

 40
0.0
 41
0.0
 42
0.0
 43
0.0
 44
558.8
 45
431.8
 46
0.0
 47
0.0
 48
0.0
 49
0.0
140
0.0
141
0.0
142
1.0
143
1.0
 70
1024
 72
1
 73
0
 74
0
  7

 75
0
147
1.0
148
0.0
149
0.0
100
AcDbLayout
  1
Model
 70
0
 71
0
 10
0.0
 20
0.0
 11
558.8
 21
431.8
 12
0.0
 22
0.0
 32
0.0
 14
0.0
 24
0.0
 34
0.0
 15
0.0
 25
0.0
 35
0.0
146
0.0
 13
0.0
 23
0.0
 33
0.0
 16
1.0
 26
0.0
 36
0.0
 17
0.0
 27
1.0
 37
0.0
 76
0
330
216
345
0
346
0
  0
LAYOUT
  5
3EE
102
{ACAD_REACTORS
330
1A
102
}
100
AcDbPlotSettings
  1

  2
none_device
  4
ANSI_C_(22.00_x_17.00_Inches)
  6

 40
0.0
 41
0.0
 42
0.0
 43
0.0
 44
558.8
 45
431.8
 46
0.0
 47
0.0
 48
0.0
 49
0.0
140
0.0
141
0.0
142
1.0
143
1.0
 70
0
 72
1
 73
0
 74
0
  7

 75
0
147
1.0
148
0.0
149
0.0
100
AcDbLayout
  1
Layout1
 70
0
 71
1
 10
0.0
 20
0.0
 11
558.8
 21
431.8
 12
0.0
 22
0.0
 32
0.0
 14
0.0
 24
0.0
 34
0.0
 15
0.0
 25
0.0
 35
0.0
146
0.0
 13
0.0
 23
0.0
 33
0.0
 16
1.0
 26
0.0
 36
0.0
 17
0.0
 27
1.0
 37
0.0
 76
0
330
217
345
0
346
0
  0
ENDSEC
  0
EOF
