999
DXF file: Y:\3D PRATIKA-KAEDRA_OLGA\TRAVAIL_PHASE_5\CAD3D\PKF16G734_3D-Simplified\PKF16G734_2D-isometric.dxf
999
Pro/ENGINEER 2018260 by Parametric Technology Corporation
  0
SECTION
  2
HEADER
  9
$ACADVER
  1
AC1027
  9
$DWGCODEPAGE
  3
ANSI_1252
  9
$EXTMAX
 10
558.8
 20
431.8
 30
0.0
  9
$EXTMIN
 10
0.0
 20
0.0
 30
0.0
  9
$LIMMIN
 10
0.0
 20
0.0
  9
$LIMMAX
 10
558.8
 20
431.8
  9
$VIEWCTR
 10
279.4
 20
215.9
  9
$VIEWSIZE
 40
431.8
  9
$CLAYER
  8
0
  9
$LTSCALE
 40
30.734
  9
$CELTYPE
  6
BYLAYER
  9
$DIMSCALE
 40
1.0
  9
$DIMASZ
 40
0.1875
  9
$DIMEXO
 40
0.0625
  9
$DIMDLI
 40
21.2344
  9
$DIMEXE
 40
0.125
  9
$DIMCEN
 40
5.0292
  9
$DIMLFAC
 40
1.0
  9
$DIMBLK
  1
_CLOSED
  9
$DIMALT
 70
0
  9
$DIMALTF
 40
0.0393700787
  9
$DIMTXT
 40
0.15625
  9
$DIMTOL
 70
0
  9
$DIMLIM
 70
0
  9
$DIMTFAC
 40
1.0
  9
$DIMGAP
 40
0.625
  9
$DIMDSEP
 70
46
  9
$AUNITS
 70
0
  9
$PDMODE
 70
3
  9
$PDSIZE
 40
0.3125
  9
$HANDSEED
  5
3EA
  9
$TILEMODE
 70
1
  9
$MEASUREMENT
 70
1
  9
$INSUNITS
 70
4
  0
ENDSEC
  0
SECTION
  2
CLASSES
  0
CLASS
  1
ACDBDICTIONARYWDFLT
  2
AcDbDictionaryWithDefault
  3
AutoCAD 2000
 90
0
 91
1
280
0
281
0
  0
CLASS
  1
ACDBPLACEHOLDER
  2
AcDbPlaceHolder
  3
AutoCAD 2000
 90
0
 91
1
280
0
281
0
  0
CLASS
  1
LAYOUT
  2
AcDbLayout
  3
AutoCAD 2000
 90
0
 91
0
280
0
281
0
  0
ENDSEC
  0
SECTION
  2
TABLES
  0
TABLE
  2
VPORT
  5
8
100
AcDbSymbolTable
 70
2
  0
VPORT
  5
1F4
100
AcDbSymbolTableRecord
100
AcDbViewportTableRecord
  2
*ACTIVE
 70
0
 10
0.0
 20
0.0
 11
1.0
 21
1.0
 12
279.4
 22
215.9
 13
0.0
 23
0.0
 14
1.0
 24
1.0
 15
0.0
 25
0.0
 16
0.0
 26
0.0
 36
1.0
 17
0.0
 27
0.0
 37
0.0
 40
431.8
 41
1.2941176471
 42
50.0
 43
0.0
 44
0.0
 50
0.0
 51
0.0
 71
0
 72
100
 73
1
 74
1
 75
0
 76
0
 77
0
 78
0
  0
ENDTAB
  0
TABLE
  2
LTYPE
  5
5
100
AcDbSymbolTable
 70
6
  0
LTYPE
  5
14
100
AcDbSymbolTableRecord
100
AcDbLinetypeTableRecord
  2
BYBLOCK
 70
0
  3

 72
65
 73
0
 40
0.0
  0
LTYPE
  5
15
100
AcDbSymbolTableRecord
100
AcDbLinetypeTableRecord
  2
BYLAYER
 70
0
  3

 72
65
 73
0
 40
0.0
  0
LTYPE
  5
16
100
AcDbSymbolTableRecord
100
AcDbLinetypeTableRecord
  2
CONTINUOUS
 70
64
  3
Solid line
 72
65
 73
0
 40
0.0
  0
LTYPE
  5
1F5
100
AcDbSymbolTableRecord
100
AcDbLinetypeTableRecord
  2
CENTER
 70
64
  3
____ _ ____ _ ____ _ ____ _ ____ _ ____ _ ____
 72
65
 73
4
 40
0.6
 49
0.375
 74
0
 49
-0.075
 74
0
 49
0.075
 74
0
 49
-0.075
 74
0
  0
LTYPE
  5
1F6
100
AcDbSymbolTableRecord
100
AcDbLinetypeTableRecord
  2
HIDDEN
 70
64
  3
- - - - - - - - - - - - - - - - - - - -
 72
65
 73
2
 40
0.2
 49
0.1
 74
0
 49
-0.1
 74
0
  0
LTYPE
  5
1F7
100
AcDbSymbolTableRecord
100
AcDbLinetypeTableRecord
  2
PHANTOM
 70
64
  3
_____ _ _ _____ _ _ _____ _ _ _____
 72
65
 73
6
 40
0.8
 49
0.45
 74
0
 49
-0.05
 74
0
 49
0.1
 74
0
 49
-0.05
 74
0
 49
0.1
 74
0
 49
-0.05
 74
0
  0
LTYPE
  5
1F8
100
AcDbSymbolTableRecord
100
AcDbLinetypeTableRecord
  2
DOT
 70
64
  3
. . . . . . . . . . . . . . . . . . . .
 72
65
 73
2
 40
0.2
 49
0.1
 74
0
 49
-0.1
 74
0
  0
LTYPE
  5
1F9
100
AcDbSymbolTableRecord
100
AcDbLinetypeTableRecord
  2
DASHED
 70
64
  3
- - - - - - - - - - - - - - - - - - - -
 72
65
 73
2
 40
0.2
 49
0.1
 74
0
 49
-0.1
 74
0
  0
ENDTAB
  0
TABLE
  2
LAYER
  5
2
100
AcDbSymbolTable
 70
36
  0
LAYER
  5
10
100
AcDbSymbolTableRecord
100
AcDbLayerTableRecord
  2
0
 70
0
 62
7
  6
CONTINUOUS
370
-3
390
F
  0
LAYER
  5
1FA
100
AcDbSymbolTableRecord
100
AcDbLayerTableRecord
  2
DEFAULT_1
 70
0
 62
7
  6
CENTER
370
-3
390
F
  0
LAYER
  5
1FB
100
AcDbSymbolTableRecord
100
AcDbLayerTableRecord
  2
DEFAULT_2
 70
0
 62
8
  6
HIDDEN
370
-3
390
F
  0
LAYER
  5
1FC
100
AcDbSymbolTableRecord
100
AcDbLayerTableRecord
  2
DEFAULT_3
 70
0
 62
7
  6
PHANTOM
370
-3
390
F
  0
LAYER
  5
1FD
100
AcDbSymbolTableRecord
100
AcDbLayerTableRecord
  2
01_ALL_DTM_PLN
 70
0
 62
7
  6
CONTINUOUS
370
-3
390
F
  0
LAYER
  5
1FE
100
AcDbSymbolTableRecord
100
AcDbLayerTableRecord
  2
01__ASM_ALL_DTM_PLN
 70
0
 62
7
  6
CONTINUOUS
370
-3
390
F
  0
LAYER
  5
1FF
100
AcDbSymbolTableRecord
100
AcDbLayerTableRecord
  2
01__ASM_DEF_DTM_PLN
 70
0
 62
7
  6
CONTINUOUS
370
-3
390
F
  0
LAYER
  5
200
100
AcDbSymbolTableRecord
100
AcDbLayerTableRecord
  2
01___PRT_ALL_DTM_PLN
 70
0
 62
7
  6
CONTINUOUS
370
-3
390
F
  0
LAYER
  5
201
100
AcDbSymbolTableRecord
100
AcDbLayerTableRecord
  2
01___PRT_DEF_DTM_PLN
 70
0
 62
7
  6
CONTINUOUS
370
-3
390
F
  0
LAYER
  5
202
100
AcDbSymbolTableRecord
100
AcDbLayerTableRecord
  2
02_ALL_AXES
 70
0
 62
7
  6
CONTINUOUS
370
-3
390
F
  0
LAYER
  5
203
100
AcDbSymbolTableRecord
100
AcDbLayerTableRecord
  2
02__ASM_ALL_AXES
 70
0
 62
7
  6
CONTINUOUS
370
-3
390
F
  0
LAYER
  5
204
100
AcDbSymbolTableRecord
100
AcDbLayerTableRecord
  2
02___PRT_ALL_AXES
 70
0
 62
7
  6
CONTINUOUS
370
-3
390
F
  0
LAYER
  5
205
100
AcDbSymbolTableRecord
100
AcDbLayerTableRecord
  2
03_ALL_CURVES
 70
0
 62
7
  6
CONTINUOUS
370
-3
390
F
  0
LAYER
  5
206
100
AcDbSymbolTableRecord
100
AcDbLayerTableRecord
  2
03__ASM_ALL_CURVES
 70
0
 62
7
  6
CONTINUOUS
370
-3
390
F
  0
LAYER
  5
207
100
AcDbSymbolTableRecord
100
AcDbLayerTableRecord
  2
03___PRT_ALL_CURVES
 70
0
 62
7
  6
CONTINUOUS
370
-3
390
F
  0
LAYER
  5
208
100
AcDbSymbolTableRecord
100
AcDbLayerTableRecord
  2
04_ALL_DTM_PNT
 70
0
 62
7
  6
CONTINUOUS
370
-3
390
F
  0
LAYER
  5
209
100
AcDbSymbolTableRecord
100
AcDbLayerTableRecord
  2
04__ASM_ALL_DTM_PNT
 70
0
 62
7
  6
CONTINUOUS
370
-3
390
F
  0
LAYER
  5
20A
100
AcDbSymbolTableRecord
100
AcDbLayerTableRecord
  2
04___PRT_ALL_DTM_PNT
 70
0
 62
7
  6
CONTINUOUS
370
-3
390
F
  0
LAYER
  5
20B
100
AcDbSymbolTableRecord
100
AcDbLayerTableRecord
  2
05_ALL_DTM_CSYS
 70
0
 62
7
  6
CONTINUOUS
370
-3
390
F
  0
LAYER
  5
20C
100
AcDbSymbolTableRecord
100
AcDbLayerTableRecord
  2
05__ASM_ALL_DTM_CSYS
 70
0
 62
7
  6
CONTINUOUS
370
-3
390
F
  0
LAYER
  5
20D
100
AcDbSymbolTableRecord
100
AcDbLayerTableRecord
  2
05__ASM_DEF_DTM_CSYS
 70
0
 62
7
  6
CONTINUOUS
370
-3
390
F
  0
LAYER
  5
20E
100
AcDbSymbolTableRecord
100
AcDbLayerTableRecord
  2
05___PRT_ALL_DTM_CSYS
 70
0
 62
7
  6
CONTINUOUS
370
-3
390
F
  0
LAYER
  5
20F
100
AcDbSymbolTableRecord
100
AcDbLayerTableRecord
  2
05___PRT_DEF_DTM_CSYS
 70
0
 62
7
  6
CONTINUOUS
370
-3
390
F
  0
LAYER
  5
210
100
AcDbSymbolTableRecord
100
AcDbLayerTableRecord
  2
06_ALL_SURFS
 70
0
 62
7
  6
CONTINUOUS
370
-3
390
F
  0
LAYER
  5
211
100
AcDbSymbolTableRecord
100
AcDbLayerTableRecord
  2
06__ASM_ALL_SURFS
 70
0
 62
7
  6
CONTINUOUS
370
-3
390
F
  0
LAYER
  5
212
100
AcDbSymbolTableRecord
100
AcDbLayerTableRecord
  2
06___PRT_ALL_SURFS
 70
0
 62
7
  6
CONTINUOUS
370
-3
390
F
  0
LAYER
  5
213
100
AcDbSymbolTableRecord
100
AcDbLayerTableRecord
  2
07__ASM_ALL_SKELETONS
 70
0
 62
7
  6
CONTINUOUS
370
-3
390
F
  0
ENDTAB
  0
TABLE
  2
STYLE
  5
3
100
AcDbSymbolTable
 70
1
  0
STYLE
  5
11
100
AcDbSymbolTableRecord
100
AcDbTextStyleTableRecord
  2
STANDARD
 70
0
 40
0.0
 41
0.8
 50
0.0
 71
0
 42
0.2
  3
txt
  4

  0
STYLE
  5
214
100
AcDbSymbolTableRecord
100
AcDbTextStyleTableRecord
  2
TEXTSTYLE_1
 70
0
 40
0.0
 41
0.8
 50
0.0
 71
0
 42
0.2
  3
gdt
  4

  0
ENDTAB
  0
TABLE
  2
VIEW
  5
6
100
AcDbSymbolTable
 70
0
  0
ENDTAB
  0
TABLE
  2
UCS
  5
7
100
AcDbSymbolTable
 70
0
  0
ENDTAB
  0
TABLE
  2
APPID
  5
9
100
AcDbSymbolTable
 70
1
  0
APPID
  5
215
100
AcDbSymbolTableRecord
100
AcDbRegAppTableRecord
  2
ACAD
 70
0
  0
ENDTAB
  0
TABLE
  2
BLOCK_RECORD
  5
1
100
AcDbSymbolTable
 70
0
  0
BLOCK_RECORD
  5
216
100
AcDbSymbolTableRecord
100
AcDbBlockTableRecord
  2
*Model_Space
  0
BLOCK_RECORD
  5
217
100
AcDbSymbolTableRecord
100
AcDbBlockTableRecord
  2
*Paper_Space
  0
BLOCK_RECORD
  5
218
100
AcDbSymbolTableRecord
100
AcDbBlockTableRecord
  2
_CLOSED
  0
ENDTAB
  0
TABLE
  2
DIMSTYLE
  5
A
100
AcDbSymbolTable
 70
1
100
AcDbDimStyleTable
 71
0
  0
DIMSTYLE
105
219
100
AcDbSymbolTableRecord
100
AcDbDimStyleTableRecord
  2
STANDARD
 70
0
  3

  4

 40
1.0
 41
0.1875
 42
0.0625
 43
0.38
 44
0.125
 45
0.0
 46
0.0
 47
0.01
 48
0.01
140
0.15625
141
0.09
142
0.0
143
25.4
144
1.0
145
0.0
146
1.0
147
0.625
 71
0.0
 72
0.0
 73
1
 74
1
 75
0
 76
0
 77
0
 78
8
 79
2
170
0
171
1
172
0
173
0
174
0
175
0
176
0
177
0
178
0
270
2
179
2
271
2
272
2
273
2
274
2
275
0
280
0
281
0
282
0
283
1
284
8
285
0
286
0
287
3
288
0
340
11
278
46
341
218
342
218
343
218
344
218
  0
ENDTAB
  0
ENDSEC
  0
SECTION
  2
BLOCKS
  0
BLOCK
  5
20
100
AcDbEntity
  8
0
100
AcDbBlockBegin
  2
*Model_Space
 70
0
 10
0.0
 20
0.0
 30
0.0
  3
*Model_Space
  1

  0
ENDBLK
  5
21
100
AcDbEntity
  8
0
100
AcDbBlockEnd
  0
BLOCK
  5
1C
100
AcDbEntity
  8
0
100
AcDbBlockBegin
  2
*Paper_Space
 70
0
 10
0.0
 20
0.0
 30
0.0
  3
*Paper_Space
  1

  0
ENDBLK
  5
1D
100
AcDbEntity
  8
0
100
AcDbBlockEnd
  0
BLOCK
  5
21A
100
AcDbEntity
  8
0
100
AcDbBlockBegin
  2
_CLOSED
 70
64
 10
0.0
 20
0.0
  3
_CLOSED
  1

  0
LINE
  5
21B
100
AcDbEntity
  8
0
  6
BYBLOCK
 62
0
100
AcDbLine
 10
0.0
 20
0.0
 11
-1.0
 21
0.1666666667
  0
LINE
  5
21C
100
AcDbEntity
  8
0
  6
BYBLOCK
 62
0
100
AcDbLine
 10
-1.0
 20
0.1666666667
 11
-1.0
 21
-0.1666666667
  0
LINE
  5
21D
100
AcDbEntity
  8
0
  6
BYBLOCK
 62
0
100
AcDbLine
 10
-1.0
 20
-0.1666666667
 11
0.0
 21
0.0
  0
LINE
  5
21E
100
AcDbEntity
  8
0
  6
BYBLOCK
 62
0
100
AcDbLine
 10
-1.0
 20
0.0
 11
0.0
 21
0.0
  0
ENDBLK
  5
21F
100
AcDbEntity
  8
0
  6
BYBLOCK
 62
0
100
AcDbBlockEnd
  0
ENDSEC
  0
SECTION
  2
ENTITIES
  0
LWPOLYLINE
  5
220
100
AcDbEntity
  8
0
100
AcDbPolyline
 62
7
  6
CONTINUOUS
 90
5
 70
0
 10
-17.8055001246
 20
288.123640424
 10
-18.0676474427
 20
288.0448554303
 10
-19.3214167817
 20
287.2354158047
 10
-20.1026593515
 20
285.791047433
 10
-20.3289849643
 20
284.1072905133
  0
LINE
  5
221
100
AcDbEntity
  8
0
100
AcDbLine
 62
7
  6
CONTINUOUS
 10
-11.326616586
 20
302.8649057425
 11
-11.3157126317
 21
302.8759281009
  0
LINE
  5
222
100
AcDbEntity
  8
0
100
AcDbLine
 62
7
  6
CONTINUOUS
 10
-11.3430671251
 20
302.8675291792
 11
-11.3317588081
 21
302.8784935533
  0
LINE
  5
223
100
AcDbEntity
  8
0
100
AcDbLine
 62
7
  6
CONTINUOUS
 10
-14.0825034018
 20
281.6779575983
 11
-14.5470554589
 21
281.3988632055
  0
LWPOLYLINE
  5
224
100
AcDbEntity
  8
0
100
AcDbPolyline
 62
7
  6
CONTINUOUS
 90
3
 70
0
 10
-14.5446297664
 20
281.4003168626
 10
-16.7240704424
 20
279.5575800068
 10
-18.0595002707
 20
277.4489355549
  0
LINE
  5
225
100
AcDbEntity
  8
0
100
AcDbLine
 62
7
  6
CONTINUOUS
 10
-0.3413320504
 20
282.5167170724
 11
-0.3735784021
 21
282.4969139429
  0
LINE
  5
226
100
AcDbEntity
  8
0
100
AcDbLine
 62
7
  6
CONTINUOUS
 10
41.3596354045
 20
282.3789583809
 11
41.3800185344
 21
282.3861010284
  0
LINE
  5
227
100
AcDbEntity
  8
0
100
AcDbLine
 62
7
  6
CONTINUOUS
 10
-44.9012589125
 20
284.7068077965
 11
-44.9012589125
 21
218.5147156295
  0
LINE
  5
228
100
AcDbEntity
  8
0
100
AcDbLine
 62
7
  6
CONTINUOUS
 10
51.3517748837
 20
292.5615428526
 11
51.3368352936
 21
292.5491132739
  0
LINE
  5
229
100
AcDbEntity
  8
0
100
AcDbLine
 62
7
  6
CONTINUOUS
 10
-6.3197869285
 20
220.2624287686
 11
-32.3005408873
 21
213.2981452258
  0
LINE
  5
22A
100
AcDbEntity
  8
0
100
AcDbLine
 62
7
  6
CONTINUOUS
 10
-33.3139688582
 20
213.8834824007
 11
-37.4462004054
 21
212.7758150788
  0
LINE
  5
22B
100
AcDbEntity
  8
0
100
AcDbLine
 62
7
  6
CONTINUOUS
 10
-10.0644046572
 20
222.5133812948
 11
-16.8278726881
 21
220.7003757235
  0
LINE
  5
22C
100
AcDbEntity
  8
0
100
AcDbLine
 62
7
  6
CONTINUOUS
 10
-42.8181014166
 20
217.3115225477
 11
-42.8181014166
 21
227.4242032954
  0
LINE
  5
22D
100
AcDbEntity
  8
0
100
AcDbLine
 62
7
  6
CONTINUOUS
 10
-42.8181014166
 20
273.390933967
 11
-42.8181014166
 21
283.5036147147
  0
LINE
  5
22E
100
AcDbEntity
  8
0
100
AcDbLine
 62
7
  6
CONTINUOUS
 10
-41.8046734457
 20
226.8388661205
 11
-41.8046734457
 21
272.805596792
  0
LINE
  5
22F
100
AcDbEntity
  8
0
100
AcDbLine
 62
7
  6
CONTINUOUS
 10
-10.1861327373
 20
272.3216061732
 11
-10.2221958479
 21
272.2467609213
  0
LINE
  5
230
100
AcDbEntity
  8
0
100
AcDbLine
 62
7
  6
CONTINUOUS
 10
17.0374088678
 20
266.8720179156
 11
17.0566076421
 21
266.8926451249
  0
LINE
  5
231
100
AcDbEntity
  8
0
100
AcDbLine
 62
7
  6
CONTINUOUS
 10
51.3517748837
 20
292.5615428526
 11
51.3379535784
 21
292.5489233555
  0
LINE
  5
232
100
AcDbEntity
  8
0
100
AcDbLine
 62
7
  6
CONTINUOUS
 10
51.6594055031
 20
286.5060973235
 11
51.6715733607
 21
286.515776253
  0
LINE
  5
233
100
AcDbEntity
  8
0
100
AcDbLine
 62
7
  6
CONTINUOUS
 10
-42.7803336793
 20
214.3260815019
 11
-40.6971761834
 21
213.12288842
  0
LINE
  5
234
100
AcDbEntity
  8
0
100
AcDbLine
 62
7
  6
CONTINUOUS
 10
-44.9012589125
 20
218.5147156295
 11
-42.8181014166
 21
217.3115225477
  0
LINE
  5
235
100
AcDbEntity
  8
0
100
AcDbLine
 62
7
  6
CONTINUOUS
 10
-33.3139688582
 20
213.8834824007
 11
-32.3005408873
 21
213.2981452258
  0
LINE
  5
236
100
AcDbEntity
  8
0
100
AcDbLine
 62
7
  6
CONTINUOUS
 10
-33.3139688582
 20
292.0269245424
 11
-33.3139688582
 21
280.5352418745
  0
LINE
  5
237
100
AcDbEntity
  8
0
100
AcDbLine
 62
7
  6
CONTINUOUS
 10
-33.3139688582
 20
225.3751650686
 11
-33.3139688582
 21
213.8834824007
  0
LINE
  5
238
100
AcDbEntity
  8
0
100
AcDbLine
 62
7
  6
CONTINUOUS
 10
-32.3005408873
 20
224.7898278937
 11
-32.3005408873
 21
213.2981452258
  0
LINE
  5
239
100
AcDbEntity
  8
0
100
AcDbLine
 62
7
  6
CONTINUOUS
 10
-32.3005408873
 20
279.9499046996
 11
-32.3005408873
 21
291.4415873675
  0
LINE
  5
23A
100
AcDbEntity
  8
0
100
AcDbLine
 62
7
  6
CONTINUOUS
 10
-28.1683093401
 20
282.7834063702
 11
-28.1683093401
 21
284.0074679738
  0
LINE
  5
23B
100
AcDbEntity
  8
0
100
AcDbLine
 62
7
  6
CONTINUOUS
 10
-16.875318962
 20
297.3790120347
 11
-16.8788776704
 21
297.349151416
  0
LINE
  5
23C
100
AcDbEntity
  8
0
100
AcDbLine
 62
7
  6
CONTINUOUS
 10
-16.875270499
 20
297.3792951932
 11
-16.8795349888
 21
297.3494164947
  0
LINE
  5
23D
100
AcDbEntity
  8
0
100
AcDbLine
 62
7
  6
CONTINUOUS
 10
-16.8497816161
 20
297.5360127987
 11
-16.8737385106
 21
297.389640984
  0
LINE
  5
23E
100
AcDbEntity
  8
0
100
AcDbLine
 62
7
  6
CONTINUOUS
 10
-16.8509574833
 20
297.5294488504
 11
-16.8645584721
 21
297.4491592803
  0
LINE
  5
23F
100
AcDbEntity
  8
0
100
AcDbLine
 62
7
  6
CONTINUOUS
 10
-16.8497431435
 20
297.5362266012
 11
-16.8759106394
 21
297.3899485262
  0
LINE
  5
240
100
AcDbEntity
  8
0
100
AcDbLine
 62
7
  6
CONTINUOUS
 10
-16.8734783446
 20
297.3894634923
 11
-16.8755750209
 21
297.379235277
  0
LINE
  5
241
100
AcDbEntity
  8
0
100
AcDbLine
 62
7
  6
CONTINUOUS
 10
17.0374088678
 20
266.8720179156
 11
17.0557570285
 21
266.8929012202
  0
LINE
  5
242
100
AcDbEntity
  8
0
100
AcDbLine
 62
7
  6
CONTINUOUS
 10
-36.4327724344
 20
228.2788336389
 11
-41.8046734457
 21
226.8388661205
  0
LINE
  5
243
100
AcDbEntity
  8
0
100
AcDbLine
 62
7
  6
CONTINUOUS
 10
-42.8181014166
 20
227.4242032954
 11
-41.8046734457
 21
226.8388661205
  0
LINE
  5
244
100
AcDbEntity
  8
0
100
AcDbLine
 62
7
  6
CONTINUOUS
 10
-32.3005408873
 20
224.7898278937
 11
-33.3139688582
 21
225.3751650686
  0
LINE
  5
245
100
AcDbEntity
  8
0
100
AcDbLine
 62
7
  6
CONTINUOUS
 10
-20.328629457
 20
284.1294044639
 11
-20.3410060435
 21
282.7066793663
  0
LINE
  5
246
100
AcDbEntity
  8
0
100
AcDbLine
 62
7
  6
CONTINUOUS
 10
-20.329093637
 20
284.1011016682
 11
-20.3287362242
 21
284.1232333352
  0
LINE
  5
247
100
AcDbEntity
  8
0
100
AcDbLine
 62
7
  6
CONTINUOUS
 10
13.181121564
 20
280.3684366027
 11
13.1705950476
 21
280.3452857169
  0
LINE
  5
248
100
AcDbEntity
  8
0
100
AcDbLine
 62
7
  6
CONTINUOUS
 10
32.5369215576
 20
267.6463980493
 11
32.4995625069
 21
267.5959307385
  0
LINE
  5
249
100
AcDbEntity
  8
0
100
AcDbLine
 62
7
  6
CONTINUOUS
 10
3.1782677305
 20
215.5256157819
 11
5.6048987998
 21
214.1251886868
  0
LINE
  5
24A
100
AcDbEntity
  8
0
100
AcDbLine
 62
7
  6
CONTINUOUS
 10
-7.0732134251
 20
220.6024487232
 11
-10.281135261
 21
222.455284799
  0
LINE
  5
24B
100
AcDbEntity
  8
0
100
AcDbLine
 62
7
  6
CONTINUOUS
 10
-22.3661302973
 20
229.435353493
 11
-28.749311693
 21
233.1221605206
  0
LINE
  5
24C
100
AcDbEntity
  8
0
100
AcDbLine
 62
7
  6
CONTINUOUS
 10
0.2272640476
 20
218.5101991952
 11
3.9801042203
 21
216.3426284082
  0
LINE
  5
24D
100
AcDbEntity
  8
0
100
AcDbLine
 62
7
  6
CONTINUOUS
 10
-16.8278707666
 20
220.7003989569
 11
-18.078520026
 21
221.4228367717
  0
LINE
  5
24E
100
AcDbEntity
  8
0
100
AcDbLine
 62
7
  6
CONTINUOUS
 10
-8.5561287446
 20
296.5370314107
 11
-8.5561287446
 21
298.4586900825
  0
LINE
  5
24F
100
AcDbEntity
  8
0
100
AcDbLine
 62
7
  6
CONTINUOUS
 10
-8.8061237118
 20
297.7146619732
 11
-8.8061287446
 21
297.7079451698
  0
LINE
  5
250
100
AcDbEntity
  8
0
100
AcDbLine
 62
7
  6
CONTINUOUS
 10
32.5360139754
 20
267.6467385384
 11
32.4995625069
 21
267.5959307385
  0
LINE
  5
251
100
AcDbEntity
  8
0
100
AcDbLine
 62
7
  6
CONTINUOUS
 10
59.9305116048
 20
281.304811614
 11
60.0905342209
 21
281.3477066309
  0
LINE
  5
252
100
AcDbEntity
  8
0
100
AcDbLine
 62
7
  6
CONTINUOUS
 10
-12.4531727372
 20
230.0642236509
 11
3.8520863786
 21
220.6466088021
  0
LINE
  5
253
100
AcDbEntity
  8
0
100
AcDbLine
 62
7
  6
CONTINUOUS
 10
-13.478626454
 20
233.0786989574
 11
-2.7090569759
 21
226.8583956362
  0
LINE
  5
254
100
AcDbEntity
  8
0
100
AcDbLine
 62
7
  6
CONTINUOUS
 10
4.1797429253
 20
225.3262731149
 11
9.6097733786
 21
222.18998837
  0
LINE
  5
255
100
AcDbEntity
  8
0
100
AcDbLine
 62
7
  6
CONTINUOUS
 10
3.1782677305
 20
215.5256157819
 11
3.2087119168
 21
216.7881702766
  0
LINE
  5
256
100
AcDbEntity
  8
0
100
AcDbLine
 62
7
  6
CONTINUOUS
 10
5.6048987998
 20
214.1251886868
 11
5.6048987998
 21
215.9379196697
  0
LINE
  5
257
100
AcDbEntity
  8
0
100
AcDbLine
 62
7
  6
CONTINUOUS
 10
46.0806741577
 20
270.592983568
 11
46.1129751541
 21
270.6576599781
  0
LINE
  5
258
100
AcDbEntity
  8
0
100
AcDbLine
 62
7
  6
CONTINUOUS
 10
-36.4327724344
 20
274.2455643105
 11
-41.8046734457
 21
272.805596792
  0
LINE
  5
259
100
AcDbEntity
  8
0
100
AcDbLine
 62
7
  6
CONTINUOUS
 10
-37.4462004054
 20
274.8309014855
 11
-42.8181014166
 21
273.390933967
  0
LINE
  5
25A
100
AcDbEntity
  8
0
100
AcDbLine
 62
7
  6
CONTINUOUS
 10
27.8299577259
 20
280.1168865248
 11
27.8554548474
 21
280.1204381977
  0
LINE
  5
25B
100
AcDbEntity
  8
0
100
AcDbLine
 62
7
  6
CONTINUOUS
 10
55.7131421545
 20
275.4069025847
 11
55.9026788712
 21
275.4224347797
  0
LINE
  5
25C
100
AcDbEntity
  8
0
100
AcDbLine
 62
7
  6
CONTINUOUS
 10
-42.8181014166
 20
273.390933967
 11
-41.8046734457
 21
272.805596792
  0
LINE
  5
25D
100
AcDbEntity
  8
0
100
AcDbLine
 62
7
  6
CONTINUOUS
 10
-32.4205087795
 20
268.6450085653
 11
-18.0498393969
 21
260.3447768178
  0
LINE
  5
25E
100
AcDbEntity
  8
0
100
AcDbLine
 62
7
  6
CONTINUOUS
 10
-36.4327724344
 20
274.2455643105
 11
-37.4462004054
 21
274.8309014855
  0
LINE
  5
25F
100
AcDbEntity
  8
0
100
AcDbLine
 62
7
  6
CONTINUOUS
 10
-16.913392853
 20
288.3628957588
 11
-17.8314924786
 21
288.1167941205
  0
LINE
  5
260
100
AcDbEntity
  8
0
100
AcDbLine
 62
7
  6
CONTINUOUS
 10
-19.3252082048
 20
290.2441425741
 11
-21.2705308329
 21
289.7226881781
  0
LINE
  5
261
100
AcDbEntity
  8
0
100
AcDbLine
 62
7
  6
CONTINUOUS
 10
-10.7442219195
 20
286.5371357262
 11
-10.7939201121
 21
286.5241012659
  0
LINE
  5
262
100
AcDbEntity
  8
0
100
AcDbLine
 62
7
  6
CONTINUOUS
 10
-16.9132295886
 20
288.3629395227
 11
-16.3975202483
 21
288.4703092373
  0
LINE
  5
263
100
AcDbEntity
  8
0
100
AcDbLine
 62
7
  6
CONTINUOUS
 10
13.1301430543
 20
280.0642628069
 11
13.1568724582
 21
280.0637267995
  0
LINE
  5
264
100
AcDbEntity
  8
0
100
AcDbLine
 62
7
  6
CONTINUOUS
 10
46.0806736458
 20
270.5929839549
 11
46.2708888805
 21
270.5787939633
  0
LINE
  5
265
100
AcDbEntity
  8
0
100
AcDbLine
 62
7
  6
CONTINUOUS
 10
-42.8181014166
 20
283.5036147147
 11
-44.9012589125
 21
284.7068077965
  0
LINE
  5
266
100
AcDbEntity
  8
0
100
AcDbLine
 62
7
  6
CONTINUOUS
 10
-33.3139688582
 20
280.5352418745
 11
-32.3005408873
 21
279.9499046996
  0
LINE
  5
267
100
AcDbEntity
  8
0
100
AcDbLine
 62
7
  6
CONTINUOUS
 10
2.0481859089
 20
268.5314548012
 11
2.087660158
 21
268.4568765302
  0
LWPOLYLINE
  5
268
100
AcDbEntity
  8
0
100
AcDbPolyline
 62
7
  6
CONTINUOUS
 90
4
 70
0
 10
-15.5396970953
 20
299.5562709155
 10
-15.5964567803
 20
299.5402521196
 10
-16.4094065873
 20
298.7492847807
 10
-16.851001055
 20
297.5292167634
  0
LINE
  5
269
100
AcDbEntity
  8
0
100
AcDbLine
 62
7
  6
CONTINUOUS
 10
-17.2032920231
 20
295.4884876989
 11
-32.3005408873
 21
291.4415873675
  0
LINE
  5
26A
100
AcDbEntity
  8
0
100
AcDbLine
 62
7
  6
CONTINUOUS
 10
-37.4462004054
 20
290.9192572205
 11
-33.3139688582
 21
292.0269245424
  0
LINE
  5
26B
100
AcDbEntity
  8
0
100
AcDbLine
 62
7
  6
CONTINUOUS
 10
-16.5815255169
 20
298.2737425885
 11
-39.5293579012
 21
292.1224503023
  0
LWPOLYLINE
  5
26C
100
AcDbEntity
  8
0
100
AcDbPolyline
 62
7
  6
CONTINUOUS
 90
8
 70
0
 10
-18.4810271125
 20
294.1725205663
 10
-18.6011714925
 20
294.1481018669
 10
-18.7233246015
 20
294.0901009824
 10
-18.8230040913
 20
294.0078810489
 10
-18.8945530033
 20
293.9147366288
 10
-18.939786133
 20
293.8231155415
 10
-18.964977268
 20
293.7404457222
 10
-18.9749130523
 20
293.6852693177
  0
LINE
  5
26D
100
AcDbEntity
  8
0
100
AcDbLine
 62
7
  6
CONTINUOUS
 10
-16.445968496
 20
291.8184528772
 11
-16.504558186
 21
291.8138920944
  0
LINE
  5
26E
100
AcDbEntity
  8
0
100
AcDbLine
 62
7
  6
CONTINUOUS
 10
-0.4780247195
 20
282.2244575929
 11
-0.5018967625
 21
282.2290775685
  0
LINE
  5
26F
100
AcDbEntity
  8
0
100
AcDbLine
 62
7
  6
CONTINUOUS
 10
32.4995620913
 20
267.595931198
 11
32.6614972982
 21
267.5541793173
  0
LINE
  5
270
100
AcDbEntity
  8
0
100
AcDbLine
 62
7
  6
CONTINUOUS
 10
-28.1683093401
 20
282.7834063702
 11
-17.2544414853
 21
276.4797589864
  0
LINE
  5
271
100
AcDbEntity
  8
0
100
AcDbLine
 62
7
  6
CONTINUOUS
 10
-39.5293579012
 20
292.1224503023
 11
-37.4462004054
 21
290.9192572205
  0
LINE
  5
272
100
AcDbEntity
  8
0
100
AcDbLine
 62
7
  6
CONTINUOUS
 10
6.8863766806
 20
267.508896771
 11
17.296947812
 21
261.4959442276
  0
LINE
  5
273
100
AcDbEntity
  8
0
100
AcDbLine
 62
7
  6
CONTINUOUS
 10
-33.3139688582
 20
292.0269245424
 11
-32.3005408873
 21
291.4415873675
  0
LINE
  5
274
100
AcDbEntity
  8
0
100
AcDbLine
 62
7
  6
CONTINUOUS
 10
17.0374086112
 20
266.8720184278
 11
17.1464106235
 21
266.8090610033
  0
LINE
  5
275
100
AcDbEntity
  8
0
100
AcDbLine
 62
7
  6
CONTINUOUS
 10
-16.73973797
 20
291.6054297608
 11
-16.7314461621
 21
291.5956863275
  0
LINE
  5
276
100
AcDbEntity
  8
0
100
AcDbLine
 62
7
  6
CONTINUOUS
 10
57.1612210064
 20
291.869986845
 11
57.163316508
 21
291.8807873468
  0
LINE
  5
277
100
AcDbEntity
  8
0
100
AcDbLine
 62
7
  6
CONTINUOUS
 10
55.7266640872
 20
275.4640677348
 11
55.7131426841
 21
275.4069022792
  0
LINE
  5
278
100
AcDbEntity
  8
0
100
AcDbLine
 62
7
  6
CONTINUOUS
 10
55.727834161
 20
275.4644455432
 11
55.7131426841
 21
275.4069022792
  0
LINE
  5
279
100
AcDbEntity
  8
0
100
AcDbLine
 62
7
  6
CONTINUOUS
 10
-17.4336928158
 20
294.2583497057
 11
-18.4814947644
 21
294.1724845702
  0
LINE
  5
27A
100
AcDbEntity
  8
0
100
AcDbLine
 62
7
  6
CONTINUOUS
 10
56.8647011134
 20
292.0775433318
 11
56.9235387957
 21
292.0733992733
  0
LINE
  5
27B
100
AcDbEntity
  8
0
100
AcDbLine
 62
7
  6
CONTINUOUS
 10
-10.99080282
 20
286.2818176035
 11
-10.9733946915
 21
286.2740905605
  0
LINE
  5
27C
100
AcDbEntity
  8
0
100
AcDbLine
 62
7
  6
CONTINUOUS
 10
-11.4806473406
 20
292.962904837
 11
-11.5109955
 21
292.9905738923
  0
LINE
  5
27D
100
AcDbEntity
  8
0
100
AcDbLine
 62
7
  6
CONTINUOUS
 10
-11.4831138988
 20
292.962524087
 11
-11.5109955
 21
292.9905738923
  0
LINE
  5
27E
100
AcDbEntity
  8
0
100
AcDbLine
 62
7
  6
CONTINUOUS
 10
42.9187546732
 20
281.9626366913
 11
42.9047295181
 21
282.1182542015
  0
LINE
  5
27F
100
AcDbEntity
  8
0
100
AcDbLine
 62
7
  6
CONTINUOUS
 10
48.8438712554
 20
296.4154160878
 11
48.8438712554
 21
298.4586900825
  0
LINE
  5
280
100
AcDbEntity
  8
0
100
AcDbLine
 62
7
  6
CONTINUOUS
 10
51.4049685846
 20
286.7567810238
 11
51.4552969743
 21
286.7440941612
  0
LINE
  5
281
100
AcDbEntity
  8
0
100
AcDbLine
 62
7
  6
CONTINUOUS
 10
27.7650970586
 20
280.4199790337
 11
27.7766857562
 21
280.3969252892
  0
LINE
  5
282
100
AcDbEntity
  8
0
100
AcDbLine
 62
7
  6
CONTINUOUS
 10
60.6046422263
 20
284.3265097599
 11
60.6287485544
 21
282.3475762563
  0
LINE
  5
283
100
AcDbEntity
  8
0
100
AcDbLine
 62
7
  6
CONTINUOUS
 10
59.930512072
 20
281.3048113866
 11
59.9305073722
 21
281.4079738694
  0
LINE
  5
284
100
AcDbEntity
  8
0
100
AcDbLine
 62
7
  6
CONTINUOUS
 10
60.0910948077
 20
281.4064418042
 11
60.0905342113
 21
281.3477061984
  0
LINE
  5
285
100
AcDbEntity
  8
0
100
AcDbLine
 62
7
  6
CONTINUOUS
 10
60.0932095581
 20
281.4070914812
 11
60.0905342113
 21
281.3477061984
  0
LINE
  5
286
100
AcDbEntity
  8
0
100
AcDbLine
 62
7
  6
CONTINUOUS
 10
60.5934039071
 20
281.7412712528
 11
60.6286164372
 21
282.3475733114
  0
LINE
  5
287
100
AcDbEntity
  8
0
100
AcDbLine
 62
7
  6
CONTINUOUS
 10
41.1866828134
 20
282.6633224736
 11
41.220321723
 21
282.6438966034
  0
LWPOLYLINE
  5
288
100
AcDbEntity
  8
0
100
AcDbPolyline
 62
7
  6
CONTINUOUS
 90
3
 70
0
 10
60.6046842189
 20
284.3249014224
 10
60.370076018
 20
287.7795571473
 10
59.4965572913
 20
292.3336080068
  0
LINE
  5
289
100
AcDbEntity
  8
0
100
AcDbLine
 62
7
  6
CONTINUOUS
 10
60.6047338399
 20
284.3227450589
 11
60.6046939193
 21
284.3243773904
  0
LINE
  5
28A
100
AcDbEntity
  8
0
100
AcDbLine
 62
7
  6
CONTINUOUS
 10
57.4205195638
 20
295.8840392947
 11
57.4979072372
 21
295.4583578354
  0
LINE
  5
28B
100
AcDbEntity
  8
0
100
AcDbLine
 62
7
  6
CONTINUOUS
 10
59.0382394812
 20
292.7510211302
 11
59.0373537506
 21
292.7566431391
  0
LINE
  5
28C
100
AcDbEntity
  8
0
100
AcDbLine
 62
7
  6
CONTINUOUS
 10
59.4965572913
 20
292.3336080068
 11
58.059561178
 21
296.1373820827
  0
LWPOLYLINE
  5
28D
100
AcDbEntity
  8
0
100
AcDbPolyline
 62
7
  6
CONTINUOUS
 90
3
 70
0
 10
59.0381647263
 20
292.7516164726
 10
58.6425388175
 20
294.5363795144
 10
57.8895243301
 20
296.4098086698
  0
LINE
  5
28E
100
AcDbEntity
  8
0
100
AcDbLine
 62
7
  6
CONTINUOUS
 10
51.2789461546
 20
303.1964414387
 11
51.2953025786
 21
303.1816805267
  0
LINE
  5
28F
100
AcDbEntity
  8
0
100
AcDbLine
 62
7
  6
CONTINUOUS
 10
51.2593562841
 20
303.1930751645
 11
51.2755626772
 21
303.1782995767
  0
LINE
  5
290
100
AcDbEntity
  8
0
100
AcDbLine
 62
7
  6
CONTINUOUS
 10
56.9764400077
 20
297.7557890334
 11
56.7852349561
 21
297.9715420615
  0
LINE
  5
291
100
AcDbEntity
  8
0
100
AcDbLine
 62
7
  6
CONTINUOUS
 10
56.9817625468
 20
297.7497910795
 11
56.9766870857
 21
297.7559453379
  0
LINE
  5
292
100
AcDbEntity
  8
0
100
AcDbLine
 62
7
  6
CONTINUOUS
 10
56.9817625468
 20
297.7497910795
 11
56.990095666
 21
297.73922331
  0
LINE
  5
293
100
AcDbEntity
  8
0
100
AcDbLine
 62
7
  6
CONTINUOUS
 10
57.8895243301
 20
296.4098086698
 11
56.9855117561
 21
297.7452489958
  0
LINE
  5
294
100
AcDbEntity
  8
0
100
AcDbLine
 62
7
  6
CONTINUOUS
 10
58.059561178
 20
296.1373820827
 11
56.5382684161
 21
298.5549965104
  0
ARC
  5
295
100
AcDbEntity
  8
0
100
AcDbCircle
 62
7
  6
CONTINUOUS
 10
-354.6213308233
 20
267.0823500819
 40
384.5709333684
100
AcDbArc
 50
1.6105030411
 51
1.9899202651
  0
ARC
  5
296
100
AcDbEntity
  8
0
100
AcDbCircle
 62
7
  6
CONTINUOUS
 10
-97.0871075152
 20
269.4147464541
 40
140.5670428837
100
AcDbArc
 50
5.1850832091
 51
5.5299488375
  0
ARC
  5
297
100
AcDbEntity
  8
0
100
AcDbCircle
 62
7
  6
CONTINUOUS
 10
-92.172361876
 20
269.8603863732
 40
135.6321283225
100
AcDbArc
 50
4.4732300463
 51
5.1192243832
  0
ARC
  5
298
100
AcDbEntity
  8
0
100
AcDbCircle
 62
7
  6
CONTINUOUS
 10
-35.3078554709
 20
274.3844009654
 40
88.7286945611
100
AcDbArc
 50
6.7334760606
 51
8.3482098749
  0
ARC
  5
299
100
AcDbEntity
  8
0
100
AcDbCircle
 62
7
  6
CONTINUOUS
 10
15.0900302483
 20
256.3843117398
 40
54.3634052112
100
AcDbArc
 50
104.8100614436
 51
105.0047066066
  0
ARC
  5
29A
100
AcDbEntity
  8
0
100
AcDbCircle
 62
7
  6
CONTINUOUS
 10
14.7398073702
 20
257.6857606701
 40
53.0156523923
100
AcDbArc
 50
105.0032514335
 51
105.7575135532
  0
ARC
  5
29B
100
AcDbEntity
  8
0
100
AcDbCircle
 62
7
  6
CONTINUOUS
 10
35.3084515454
 20
232.5423643521
 40
48.1585104353
100
AcDbArc
 50
98.9334213436
 51
103.9066507429
  0
ARC
  5
29C
100
AcDbEntity
  8
0
100
AcDbCircle
 62
7
  6
CONTINUOUS
 10
15.8235964712
 20
261.6766868839
 40
47.9746700862
100
AcDbArc
 50
104.4057945524
 51
105.0040189704
  0
ARC
  5
29D
100
AcDbEntity
  8
0
100
AcDbCircle
 62
7
  6
CONTINUOUS
 10
12.8797352241
 20
234.5575432759
 40
45.5071981816
100
AcDbArc
 50
89.6847209646
 51
95.0328212684
  0
ARC
  5
29E
100
AcDbEntity
  8
0
100
AcDbCircle
 62
7
  6
CONTINUOUS
 10
-39.3855281381
 20
275.1890979844
 40
29.2445468693
100
AcDbArc
 50
348.8809986609
 51
354.2492403606
  0
ARC
  5
29F
100
AcDbEntity
  8
0
100
AcDbCircle
 62
7
  6
CONTINUOUS
 10
-38.5528589977
 20
275.0978471584
 40
28.4069259002
100
AcDbArc
 50
354.2640793482
 51
354.4220008945
  0
ARC
  5
2A0
100
AcDbEntity
  8
0
100
AcDbCircle
 62
7
  6
CONTINUOUS
 10
13.9925229947
 20
244.2598106137
 40
26.6473616488
100
AcDbArc
 50
115.6979079658
 51
116.2102040089
  0
ARC
  5
2A1
100
AcDbEntity
  8
0
100
AcDbCircle
 62
7
  6
CONTINUOUS
 10
2.2616034441
 20
261.8385711155
 40
16.253481444
100
AcDbArc
 50
139.9097262468
 51
140.1808253036
  0
ARC
  5
2A2
100
AcDbEntity
  8
0
100
AcDbCircle
 62
7
  6
CONTINUOUS
 10
12.0968737087
 20
253.7938132209
 40
14.6203663961
100
AcDbArc
 50
59.9879347056
 51
61.2811296636
  0
ARC
  5
2A3
100
AcDbEntity
  8
0
100
AcDbCircle
 62
7
  6
CONTINUOUS
 10
12.8031945486
 20
268.5513039355
 40
11.7997028196
100
AcDbArc
 50
88.2172303231
 51
88.344717827
  0
ARC
  5
2A4
100
AcDbEntity
  8
0
100
AcDbCircle
 62
7
  6
CONTINUOUS
 10
-2.2814273137
 20
272.9906173868
 40
9.695852693
100
AcDbArc
 50
78.6535380874
 51
78.794861469
  0
ARC
  5
2A5
100
AcDbEntity
  8
0
100
AcDbCircle
 62
7
  6
CONTINUOUS
 10
-9.908283743
 20
273.1917282484
 40
9.0053248804
100
AcDbArc
 50
152.5586062702
 51
153.8369204787
  0
ARC
  5
2A6
100
AcDbEntity
  8
0
100
AcDbCircle
 62
7
  6
CONTINUOUS
 10
-16.6001072839
 20
234.5800423594
 40
4.570030628
100
AcDbArc
 50
320.9474536416
 51
333.2881381829
  0
ARC
  5
2A7
100
AcDbEntity
  8
0
100
AcDbCircle
 62
7
  6
CONTINUOUS
 10
7.5427934242
 20
220.3280901921
 40
3.7044260826
100
AcDbArc
 50
175.0674317931
 51
179.9716334662
  0
ARC
  5
2A8
100
AcDbEntity
  8
0
100
AcDbCircle
 62
7
  6
CONTINUOUS
 10
5.919066333
 20
221.8824924869
 40
3.7044260826
100
AcDbArc
 50
355.0674317931
 51
359.9716334662
  0
ARC
  5
2A9
100
AcDbEntity
  8
0
100
AcDbCircle
 62
7
  6
CONTINUOUS
 10
6.1502357127
 20
221.8815909346
 40
3.4732563741
100
AcDbArc
 50
359.984617725
 51
5.0941164699
  0
ARC
  5
2AA
100
AcDbEntity
  8
0
100
AcDbCircle
 62
7
  6
CONTINUOUS
 10
-36.535494835
 20
225.941180976
 40
3.1014430723
100
AcDbArc
 50
38.9208690554
 51
41.6110697332
  0
ARC
  5
2AB
100
AcDbEntity
  8
0
100
AcDbCircle
 62
7
  6
CONTINUOUS
 10
-36.4686277631
 20
226.0014738245
 40
3.0114099447
100
AcDbArc
 50
41.5982331082
 51
49.1210028915
  0
ARC
  5
2AC
100
AcDbEntity
  8
0
100
AcDbCircle
 62
7
  6
CONTINUOUS
 10
-13.3175059448
 20
281.3527244685
 40
73.2480339946
100
AcDbArc
 50
0.0432174515
 51
8.9572942426
  0
ARC
  5
2AD
100
AcDbEntity
  8
0
100
AcDbCircle
 62
7
  6
CONTINUOUS
 10
-13.2161415713
 20
280.2530126238
 40
71.5200200878
100
AcDbArc
 50
8.0560647919
 51
10.0216845991
  0
ARC
  5
2AE
100
AcDbEntity
  8
0
100
AcDbCircle
 62
7
  6
CONTINUOUS
 10
2.3434420157
 20
318.4302297191
 40
34.8043117523
100
AcDbArc
 50
247.504300782
 51
249.9350559529
  0
ARC
  5
2AF
100
AcDbEntity
  8
0
100
AcDbCircle
 62
7
  6
CONTINUOUS
 10
2.2904984211
 20
315.0571174175
 40
31.3900803204
100
AcDbArc
 50
245.3651094467
 51
246.0693861808
  0
ARC
  5
2B0
100
AcDbEntity
  8
0
100
AcDbCircle
 62
7
  6
CONTINUOUS
 10
2.5745879613
 20
309.6001561639
 40
26.6325666872
100
AcDbArc
 50
239.9937234873
 51
240.7409853149
  0
ARC
  5
2B1
100
AcDbEntity
  8
0
100
AcDbCircle
 62
7
  6
CONTINUOUS
 10
7.0316430081
 20
311.6568839896
 40
22.9617205473
100
AcDbArc
 50
240.5250103649
 51
243.8117932864
  0
ARC
  5
2B2
100
AcDbEntity
  8
0
100
AcDbCircle
 62
7
  6
CONTINUOUS
 10
-2.404802829
 20
293.6569356987
 40
12.8346278606
100
AcDbArc
 50
132.429073364
 51
134.0700086031
  0
ARC
  5
2B3
100
AcDbEntity
  8
0
100
AcDbCircle
 62
7
  6
CONTINUOUS
 10
-2.4628133079
 20
301.9703919103
 40
12.7478431694
100
AcDbArc
 50
224.960487112
 51
227.6971996389
  0
ARC
  5
2B4
100
AcDbEntity
  8
0
100
AcDbCircle
 62
7
  6
CONTINUOUS
 10
-4.0855222751
 20
295.2897461288
 40
10.4905476972
100
AcDbArc
 50
138.4044757999
 51
138.9057708419
  0
ARC
  5
2B5
100
AcDbEntity
  8
0
100
AcDbCircle
 62
7
  6
CONTINUOUS
 10
-7.3394690838
 20
294.0248641929
 40
9.971157453
100
AcDbArc
 50
159.7041945959
 51
160.1667758281
  0
ARC
  5
2B6
100
AcDbEntity
  8
0
100
AcDbCircle
 62
7
  6
CONTINUOUS
 10
-7.3743169843
 20
294.0374479958
 40
9.9341071079
100
AcDbArc
 50
160.166856969
 51
160.5100586431
  0
ARC
  5
2B7
100
AcDbEntity
  8
0
100
AcDbCircle
 62
7
  6
CONTINUOUS
 10
-8.9029742791
 20
298.1401832634
 40
9.8896959802
100
AcDbArc
 50
219.7683450692
 51
221.2865313686
  0
ARC
  5
2B8
100
AcDbEntity
  8
0
100
AcDbCircle
 62
7
  6
CONTINUOUS
 10
-7.6100738191
 20
294.1173678119
 40
9.6851951328
100
AcDbArc
 50
160.4904310725
 51
169.4899913024
  0
ARC
  5
2B9
100
AcDbEntity
  8
0
100
AcDbCircle
 62
7
  6
CONTINUOUS
 10
-18.8207529089
 20
280.5749722428
 40
9.4700598368
100
AcDbArc
 50
93.2367953385
 51
104.9921388444
  0
ARC
  5
2BA
100
AcDbEntity
  8
0
100
AcDbCircle
 62
7
  6
CONTINUOUS
 10
-14.6420032934
 20
278.1575138288
 40
9.2091004707
100
AcDbArc
 50
65.2993091154
 51
65.4206306766
  0
ARC
  5
2BB
100
AcDbEntity
  8
0
100
AcDbCircle
 62
7
  6
CONTINUOUS
 10
-9.3599606598
 20
295.5703313389
 40
8.0179859719
100
AcDbArc
 50
207.9001922401
 51
209.5605468809
  0
ARC
  5
2BC
100
AcDbEntity
  8
0
100
AcDbCircle
 62
7
  6
CONTINUOUS
 10
-21.5837893186
 20
287.6045840976
 40
6.5967313073
100
AcDbArc
 50
39.6482690904
 51
39.7632283104
  0
ARC
  5
2BD
100
AcDbEntity
  8
0
100
AcDbCircle
 62
7
  6
CONTINUOUS
 10
-7.6096590579
 20
297.6012013508
 40
6.255686434
100
AcDbArc
 50
157.3682343402
 51
160.5579757535
  0
ARC
  5
2BE
100
AcDbEntity
  8
0
100
AcDbCircle
 62
7
  6
CONTINUOUS
 10
-7.8416280944
 20
297.6842555998
 40
6.0092998133
100
AcDbArc
 50
160.5685289108
 51
162.3839114223
  0
ARC
  5
2BF
100
AcDbEntity
  8
0
100
AcDbCircle
 62
7
  6
CONTINUOUS
 10
-3.2371684918
 20
298.6898702172
 40
5.3524159373
100
AcDbArc
 50
200.1312779127
 51
203.5390179327
  0
ARC
  5
2C0
100
AcDbEntity
  8
0
100
AcDbCircle
 62
7
  6
CONTINUOUS
 10
-16.7500454522
 20
282.9683551691
 40
5.2778460425
100
AcDbArc
 50
91.1679825759
 51
91.644623215
  0
ARC
  5
2C1
100
AcDbEntity
  8
0
100
AcDbCircle
 62
7
  6
CONTINUOUS
 10
-3.8766625858
 20
296.7695976904
 40
4.9381655482
100
AcDbArc
 50
162.7240287666
 51
165.6059170595
  0
ARC
  5
2C2
100
AcDbEntity
  8
0
100
AcDbCircle
 62
7
  6
CONTINUOUS
 10
-12.1297207262
 20
296.6863895727
 40
4.7958669944
100
AcDbArc
 50
172.0534264632
 51
174.7066342995
  0
ARC
  5
2C3
100
AcDbEntity
  8
0
100
AcDbCircle
 62
7
  6
CONTINUOUS
 10
-4.0447972071
 20
296.8126800597
 40
4.7645990283
100
AcDbArc
 50
165.6051161986
 51
169.2471041085
  0
ARC
  5
2C4
100
AcDbEntity
  8
0
100
AcDbCircle
 62
7
  6
CONTINUOUS
 10
-12.1919504232
 20
296.6921415259
 40
4.7333720349
100
AcDbArc
 50
174.7064697308
 51
180.7847986747
  0
ARC
  5
2C5
100
AcDbEntity
  8
0
100
AcDbCircle
 62
7
  6
CONTINUOUS
 10
-4.2075336569
 20
296.8432272668
 40
4.5990207811
100
AcDbArc
 50
169.242724876
 51
175.1689064368
  0
ARC
  5
2C6
100
AcDbEntity
  8
0
100
AcDbCircle
 62
7
  6
CONTINUOUS
 10
-4.2590429406
 20
297.7045176934
 40
4.5470918198
100
AcDbArc
 50
170.171161099
 51
179.8721765648
  0
ARC
  5
2C7
100
AcDbEntity
  8
0
100
AcDbCircle
 62
7
  6
CONTINUOUS
 10
11.3758691952
 20
283.2944018854
 40
49.2420365186
100
AcDbArc
 50
358.1925549664
 51
358.9040875915
  0
ARC
  5
2C8
100
AcDbEntity
  8
0
100
AcDbCircle
 62
7
  6
CONTINUOUS
 10
14.7559032237
 20
283.2381179404
 40
45.86154504
100
AcDbArc
 50
358.8936266975
 51
1.3578845213
  0
ARC
  5
2C9
100
AcDbEntity
  8
0
100
AcDbCircle
 62
7
  6
CONTINUOUS
 10
27.6754326229
 20
322.7710837462
 40
42.3515659616
100
AcDbArc
 50
288.6520550432
 51
289.2278731075
  0
ARC
  5
2CA
100
AcDbEntity
  8
0
100
AcDbCircle
 62
7
  6
CONTINUOUS
 10
27.6232558789
 20
319.1208502962
 40
39.2259318073
100
AcDbArc
 50
290.53015861
 51
292.8028719885
  0
ARC
  5
2CB
100
AcDbEntity
  8
0
100
AcDbCircle
 62
7
  6
CONTINUOUS
 10
28.1078364839
 20
317.4447807699
 40
32.3437364744
100
AcDbArc
 50
279.8011212986
 51
280.1830155376
  0
ARC
  5
2CC
100
AcDbEntity
  8
0
100
AcDbCircle
 62
7
  6
CONTINUOUS
 10
38.887780527
 20
307.6051629128
 40
24.3173811143
100
AcDbArc
 50
300.9802407856
 51
301.7750410074
  0
ARC
  5
2CD
100
AcDbEntity
  8
0
100
AcDbCircle
 62
7
  6
CONTINUOUS
 10
34.1917512135
 20
286.7103948417
 40
21.0444799895
100
AcDbArc
 50
59.991278211
 51
60.5008826577
  0
ARC
  5
2CE
100
AcDbEntity
  8
0
100
AcDbCircle
 62
7
  6
CONTINUOUS
 10
40.9415197774
 20
291.6365489602
 40
15.50880257
100
AcDbArc
 50
50.3548399965
 51
52.1198339875
  0
ARC
  5
2CF
100
AcDbEntity
  8
0
100
AcDbCircle
 62
7
  6
CONTINUOUS
 10
20.1392431727
 20
374.3533098085
 40
94.2423342892
100
AcDbArc
 50
266.0844101601
 51
274.641346095
  0
ARC
  5
2D0
100
AcDbEntity
  8
0
100
AcDbCircle
 62
7
  6
CONTINUOUS
 10
19.9608249815
 20
371.2413499909
 40
91.1254671653
100
AcDbArc
 50
265.7332712413
 51
266.0627092219
  0
ARC
  5
2D1
100
AcDbEntity
  8
0
100
AcDbCircle
 62
7
  6
CONTINUOUS
 10
20.4391583144
 20
369.8120669184
 40
89.691776406
100
AcDbArc
 50
274.6850838967
 51
275.0170255774
  0
ARC
  5
2D2
100
AcDbEntity
  8
0
100
AcDbCircle
 62
7
  6
CONTINUOUS
 10
13.5808244446
 20
364.4052303977
 40
84.342387683
100
AcDbArc
 50
269.7119994184
 51
271.0674757425
  0
ARC
  5
2D3
100
AcDbEntity
  8
0
100
AcDbCircle
 62
7
  6
CONTINUOUS
 10
15.6735846403
 20
363.537328983
 40
83.229686987
100
AcDbArc
 50
268.2766683889
 51
268.6438142255
  0
ARC
  5
2D4
100
AcDbEntity
  8
0
100
AcDbCircle
 62
7
  6
CONTINUOUS
 10
18.4291038525
 20
352.9650518412
 40
73.1676867822
100
AcDbArc
 50
277.3399167957
 51
277.7397479222
  0
ARC
  5
2D5
100
AcDbEntity
  8
0
100
AcDbCircle
 62
7
  6
CONTINUOUS
 10
16.9692687111
 20
350.0346502917
 40
70.756480717
100
AcDbArc
 50
278.8502591457
 51
280.3798441806
  0
ARC
  5
2D6
100
AcDbEntity
  8
0
100
AcDbCircle
 62
7
  6
CONTINUOUS
 10
10.8769726078
 20
348.8412605599
 40
67.57730408
100
AcDbArc
 50
260.32682446
 51
261.8925006978
  0
ARC
  5
2D7
100
AcDbEntity
  8
0
100
AcDbCircle
 62
7
  6
CONTINUOUS
 10
12.0677956349
 20
344.9001443745
 40
63.6313916556
100
AcDbArc
 50
258.7247240017
 51
259.164682106
  0
ARC
  5
2D8
100
AcDbEntity
  8
0
100
AcDbCircle
 62
7
  6
CONTINUOUS
 10
15.1087223159
 20
342.4402914119
 40
61.8832686721
100
AcDbArc
 50
255.5423410036
 51
255.9695646187
  0
ARC
  5
2D9
100
AcDbEntity
  8
0
100
AcDbCircle
 62
7
  6
CONTINUOUS
 10
25.9608711164
 20
339.4676569536
 40
58.809503973
100
AcDbArc
 50
285.0048334396
 51
285.4452876185
  0
ARC
  5
2DA
100
AcDbEntity
  8
0
100
AcDbCircle
 62
7
  6
CONTINUOUS
 10
26.6761677568
 20
336.8934129235
 40
56.1377246945
100
AcDbArc
 50
285.4413243298
 51
286.9650749022
  0
ARC
  5
2DB
100
AcDbEntity
  8
0
100
AcDbCircle
 62
7
  6
CONTINUOUS
 10
25.1972548594
 20
339.3062831582
 40
54.3622701631
100
AcDbArc
 50
284.8108712311
 51
285.0055168468
  0
ARC
  5
2DC
100
AcDbEntity
  8
0
100
AcDbCircle
 62
7
  6
CONTINUOUS
 10
27.8291512186
 20
333.0769667303
 40
52.1509331083
100
AcDbArc
 50
286.9769262176
 51
288.1903882302
  0
ARC
  5
2DD
100
AcDbEntity
  8
0
100
AcDbCircle
 62
7
  6
CONTINUOUS
 10
24.5860648175
 20
334.5578093392
 40
47.4994379892
100
AcDbArc
 50
284.763230634
 51
285.0054068859
  0
ARC
  5
2DE
100
AcDbEntity
  8
0
100
AcDbCircle
 62
7
  6
CONTINUOUS
 10
437.1391243175
 20
266.6907947941
 40
422.1992874726
100
AcDbArc
 50
178.1830220361
 51
178.5286702837
  0
ARC
  5
2DF
100
AcDbEntity
  8
0
100
AcDbCircle
 62
7
  6
CONTINUOUS
 10
149.5009228287
 20
181.952384376
 40
145.02445532
100
AcDbArc
 50
137.2264880191
 51
139.9745903727
  0
ARC
  5
2E0
100
AcDbEntity
  8
0
100
AcDbCircle
 62
7
  6
CONTINUOUS
 10
141.5159733934
 20
268.7244078334
 40
140.7910441475
100
AcDbArc
 50
174.6141810433
 51
175.6448197876
  0
ARC
  5
2E1
100
AcDbEntity
  8
0
100
AcDbCircle
 62
7
  6
CONTINUOUS
 10
79.5314228617
 20
272.8295522652
 40
90.0587799292
100
AcDbArc
 50
171.7589917905
 51
173.3510129937
  0
ARC
  5
2E2
100
AcDbEntity
  8
0
100
AcDbCircle
 62
7
  6
CONTINUOUS
 10
66.9178092306
 20
221.7542759462
 40
67.2993243469
100
AcDbArc
 50
123.4746212756
 51
129.750558837
  0
ARC
  5
2E3
100
AcDbEntity
  8
0
100
AcDbCircle
 62
7
  6
CONTINUOUS
 10
55.2853987011
 20
233.7353521634
 40
50.9518848877
100
AcDbArc
 50
112.3570084284
 51
112.8184170098
  0
ARC
  5
2E4
100
AcDbEntity
  8
0
100
AcDbCircle
 62
7
  6
CONTINUOUS
 10
50.7773205783
 20
246.8497954873
 40
37.0754448183
100
AcDbArc
 50
104.9916763805
 51
105.306006893
  0
ARC
  5
2E5
100
AcDbEntity
  8
0
100
AcDbCircle
 62
7
  6
CONTINUOUS
 10
44.088795955
 20
274.1124471479
 40
9.0007652016
100
AcDbArc
 50
108.5838691896
 51
108.7208213452
  0
ARC
  5
2E6
100
AcDbEntity
  8
0
100
AcDbCircle
 62
7
  6
CONTINUOUS
 10
55.4511189452
 20
283.6834718671
 40
75.0950493875
100
AcDbArc
 50
172.346113795
 51
177.6162409666
  0
ARC
  5
2E7
100
AcDbEntity
  8
0
100
AcDbCircle
 62
7
  6
CONTINUOUS
 10
54.9791887216
 20
282.5544864232
 40
73.3335706751
100
AcDbArc
 50
169.5273563277
 51
170.8792644442
  0
ARC
  5
2E8
100
AcDbEntity
  8
0
100
AcDbCircle
 62
7
  6
CONTINUOUS
 10
54.6853400628
 20
284.66425543
 40
72.6839450418
100
AcDbArc
 50
169.9165358331
 51
171.0012543014
  0
ARC
  5
2E9
100
AcDbEntity
  8
0
100
AcDbCircle
 62
7
  6
CONTINUOUS
 10
54.8490937251
 20
278.4327844257
 40
71.9502181585
100
AcDbArc
 50
170.0248670397
 51
171.9807047626
  0
ARC
  5
2EA
100
AcDbEntity
  8
0
100
AcDbCircle
 62
7
  6
CONTINUOUS
 10
42.0737105989
 20
298.8280702389
 40
15.2982537973
100
AcDbArc
 50
307.8245362496
 51
308.9602511157
  0
ARC
  5
2EB
100
AcDbEntity
  8
0
100
AcDbCircle
 62
7
  6
CONTINUOUS
 10
41.7096576318
 20
292.5644341582
 40
14.3042253074
100
AcDbArc
 50
48.0113525459
 51
50.3526556591
  0
ARC
  5
2EC
100
AcDbEntity
  8
0
100
AcDbCircle
 62
7
  6
CONTINUOUS
 10
42.9518302386
 20
301.7601427193
 40
12.4568579325
100
AcDbArc
 50
312.4015920451
 51
315.1600371157
  0
ARC
  5
2ED
100
AcDbEntity
  8
0
100
AcDbCircle
 62
7
  6
CONTINUOUS
 10
46.8372526086
 20
293.6789414939
 40
10.8340863403
100
AcDbArc
 50
26.4202275043
 51
26.7183339468
  0
ARC
  5
2EE
100
AcDbEntity
  8
0
100
AcDbCircle
 62
7
  6
CONTINUOUS
 10
47.1811239716
 20
293.8449279244
 40
10.4522757319
100
AcDbArc
 50
21.7610926415
 51
26.4441061519
  0
ARC
  5
2EF
100
AcDbEntity
  8
0
100
AcDbCircle
 62
7
  6
CONTINUOUS
 10
50.221483643
 20
295.279615311
 40
7.3746595392
100
AcDbArc
 50
334.2656452285
 51
336.0297810769
  0
ARC
  5
2F0
100
AcDbEntity
  8
0
100
AcDbCircle
 62
7
  6
CONTINUOUS
 10
42.9166784438
 20
299.3699685905
 40
7.1959432594
100
AcDbArc
 50
326.212523907
 51
326.6597209154
  0
ARC
  5
2F1
100
AcDbEntity
  8
0
100
AcDbCircle
 62
7
  6
CONTINUOUS
 10
51.5718733813
 20
294.8016634461
 40
5.9479645268
100
AcDbArc
 50
6.3269925986
 51
10.4846250018
  0
ARC
  5
2F2
100
AcDbEntity
  8
0
100
AcDbCircle
 62
7
  6
CONTINUOUS
 10
51.5868946862
 20
292.6295384933
 40
5.6261552186
100
AcDbArc
 50
352.3527895612
 51
0.7076639997
  0
ARC
  5
2F3
100
AcDbEntity
  8
0
100
AcDbCircle
 62
7
  6
CONTINUOUS
 10
51.7239533632
 20
293.0841206611
 40
5.2969632762
100
AcDbArc
 50
348.9998368848
 51
351.3074070297
  0
ARC
  5
2F4
100
AcDbEntity
  8
0
100
AcDbCircle
 62
7
  6
CONTINUOUS
 10
44.0325298451
 20
296.7303354018
 40
5.0757331083
100
AcDbArc
 50
15.9137204347
 51
19.6542732515
  0
ARC
  5
2F5
100
AcDbEntity
  8
0
100
AcDbCircle
 62
7
  6
CONTINUOUS
 10
44.2958030056
 20
296.804652755
 40
4.8021727277
100
AcDbArc
 50
10.344194062
 51
15.9222816752
  0
ARC
  5
2F6
100
AcDbEntity
  8
0
100
AcDbCircle
 62
7
  6
CONTINUOUS
 10
44.4830469146
 20
296.8405977615
 40
4.6115181302
100
AcDbArc
 50
6.7697654897
 51
10.3225869882
  0
ARC
  5
2F7
100
AcDbEntity
  8
0
100
AcDbCircle
 62
7
  6
CONTINUOUS
 10
44.5484118219
 20
297.704910014
 40
4.5454473122
100
AcDbArc
 50
0.0382584201
 51
9.9528212478
  0
ARC
  5
2F8
100
AcDbEntity
  8
0
100
AcDbCircle
 62
7
  6
CONTINUOUS
 10
44.5503235884
 20
296.8491610333
 40
4.5437011174
100
AcDbArc
 50
5.6526379921
 51
6.7625400596
  0
ARC
  5
2F9
100
AcDbEntity
  8
0
100
AcDbCircle
 62
7
  6
CONTINUOUS
 10
53.9477933051
 20
283.5162736675
 40
4.0781567167
100
AcDbArc
 50
127.6775156613
 51
127.8896158502
  0
SPLINE
  5
2FA
100
AcDbEntity
  8
0
100
AcDbSpline
 62
7
  6
CONTINUOUS
 70
0
 71
3
 72
15
 73
11
 74
0
 42
0.0000001
 43
0.0000001
 44
0.0000000001
 40
0.0
 40
0.0
 40
0.0
 40
0.0
 40
0.0836175766
 40
0.1735327936
 40
0.2745582891
 40
0.3895840814
 40
0.5198999086
 40
0.6656225368
 40
0.8260944682
 40
1.0
 40
1.0
 40
1.0
 40
1.0
 10
-8.5561170493
 20
298.4586900824
 30
0.0
 10
-8.5560896659
 20
298.9207122741
 30
0.0
 10
-8.4009892488
 20
299.8848896248
 30
0.0
 10
-7.7303746412
 20
301.2643137504
 30
0.0
 10
-6.6513452247
 20
302.5812454784
 30
0.0
 10
-5.1872866248
 20
303.8257770567
 30
0.0
 10
-3.3590726733
 20
304.9875887281
 30
0.0
 10
-1.1910673149
 20
306.0532512474
 30
0.0
 10
1.2868042332
 20
307.0083162826
 30
0.0
 10
3.057190825
 20
307.542774622
 30
0.0
 10
3.9853252739
 20
307.7915661496
 30
0.0
  0
SPLINE
  5
2FB
100
AcDbEntity
  8
0
100
AcDbSpline
 62
7
  6
CONTINUOUS
 70
0
 71
3
 72
19
 73
15
 74
0
 42
0.0000001
 43
0.0000001
 44
0.0000000001
 40
0.0
 40
0.0
 40
0.0
 40
0.0
 40
0.1437927501
 40
0.2990289408
 40
0.4562714565
 40
0.6058605483
 40
0.6750130013
 40
0.7390970209
 40
0.7973619681
 40
0.8493061298
 40
0.8947794449
 40
0.9341460629
 40
0.9685228895
 40
1.0
 40
1.0
 40
1.0
 40
1.0
 10
3.9853252739
 20
307.7915661496
 30
0.0
 10
6.2630233152
 20
308.4021155975
 30
0.0
 10
11.0974096719
 20
309.315865962
 30
0.0
 10
18.5725430497
 20
309.8683704901
 30
0.0
 10
26.1600266223
 20
309.6366094386
 30
0.0
 10
32.2830219952
 20
308.7855482513
 30
0.0
 10
36.7954347505
 20
307.6984468806
 30
0.0
 10
39.7890322345
 20
306.7380233319
 30
0.0
 10
42.4281899871
 20
305.6291184081
 30
0.0
 10
44.6677041408
 20
304.3904514582
 30
0.0
 10
46.4708014389
 20
303.040900402
 30
0.0
 10
47.8077169785
 20
301.5945480804
 30
0.0
 10
48.6469053842
 20
300.0617573282
 30
0.0
 10
48.8438901549
 20
298.9748945759
 30
0.0
 10
48.8438595602
 20
298.4586900827
 30
0.0
  0
SPLINE
  5
2FC
100
AcDbEntity
  8
0
100
AcDbSpline
 62
7
  6
CONTINUOUS
 70
0
 71
3
 72
17
 73
13
 74
0
 42
0.0000001
 43
0.0000001
 44
0.0000000001
 40
0.0
 40
0.0
 40
0.0
 40
0.0
 40
0.1375487168
 40
0.2858548993
 40
0.4372853709
 40
0.5839098183
 40
0.7182519753
 40
0.7788468941
 40
0.8342118876
 40
0.8839609528
 40
0.9279776803
 40
1.0
 40
1.0
 40
1.0
 40
1.0
 10
36.302417237
 20
289.1258140154
 30
0.0
 10
34.2110091588
 20
288.5652006136
 30
0.0
 10
29.781858747
 20
287.7011051928
 30
0.0
 10
22.913970121
 20
287.1040785185
 30
0.0
 10
15.8763215185
 20
287.1760415692
 30
0.0
 10
9.0988633229
 20
287.9130802777
 30
0.0
 10
3.8335232612
 20
289.0766669343
 30
0.0
 10
0.0962723873
 20
290.337147753
 30
0.0
 10
-2.3003311118
 20
291.3737253464
 30
0.0
 10
-4.3568829227
 20
292.522571064
 30
0.0
 10
-6.4550598888
 20
294.0673309658
 30
0.0
 10
-7.6917003926
 20
295.5127230674
 30
0.0
 10
-8.1442008913
 20
296.5522572034
 30
0.0
  0
SPLINE
  5
2FD
100
AcDbEntity
  8
0
100
AcDbSpline
 62
7
  6
CONTINUOUS
 70
0
 71
3
 72
9
 73
5
 74
0
 42
0.0000001
 43
0.0000001
 44
0.0000000001
 40
0.0
 40
0.0
 40
0.0
 40
0.0
 40
0.2563331203
 40
1.0
 40
1.0
 40
1.0
 40
1.0
 10
-8.2625866461
 20
296.8477169279
 30
0.0
 10
-8.310842192
 20
296.9794773973
 30
0.0
 10
-8.4784588379
 20
297.500731988
 30
0.0
 10
-8.556141177
 20
298.0516003341
 30
0.0
 10
-8.5561170493
 20
298.4586900824
 30
0.0
  0
SPLINE
  5
2FE
100
AcDbEntity
  8
0
100
AcDbSpline
 62
7
  6
CONTINUOUS
 70
0
 71
3
 72
9
 73
5
 74
0
 42
0.0000001
 43
0.0000001
 44
0.0000000001
 40
0.0
 40
0.0
 40
0.0
 40
0.0
 40
0.2462551859
 40
1.0
 40
1.0
 40
1.0
 40
1.0
 10
48.8438595602
 20
298.4586900827
 30
0.0
 10
48.843851559
 20
298.3236920911
 30
0.0
 10
48.8190211041
 20
297.775603075
 30
0.0
 10
48.69185864
 20
297.2335114125
 30
0.0
 10
48.5495475322
 20
296.845585563
 30
0.0
  0
SPLINE
  5
2FF
100
AcDbEntity
  8
0
100
AcDbSpline
 62
7
  6
CONTINUOUS
 70
0
 71
3
 72
13
 73
9
 74
0
 42
0.0000001
 43
0.0000001
 44
0.0000000001
 40
0.0
 40
0.0
 40
0.0
 40
0.0
 40
0.1804079305
 40
0.2867291519
 40
0.4052419908
 40
0.5362681419
 40
0.6795649963
 40
1.0
 40
1.0
 40
1.0
 40
1.0
 10
48.5495475322
 20
296.845585563
 30
0.0
 10
48.2404989433
 20
296.0031500125
 30
0.0
 10
47.3992885951
 20
294.7918767219
 30
0.0
 10
45.9072479674
 20
293.4375975935
 30
0.0
 10
44.4535900396
 20
292.4181017622
 30
0.0
 10
42.7445890774
 20
291.4660171731
 30
0.0
 10
40.044794174
 20
290.2499588692
 30
0.0
 10
37.8418856718
 20
289.5384769698
 30
0.0
 10
36.302417237
 20
289.1258140154
 30
0.0
  0
SPLINE
  5
300
100
AcDbEntity
  8
0
100
AcDbSpline
 62
7
  6
CONTINUOUS
 70
0
 71
3
 72
11
 73
7
 74
0
 42
0.0000001
 43
0.0000001
 44
0.0000000001
 40
0.0
 40
0.0
 40
0.0
 40
0.0
 40
0.2634102209
 40
0.5159328187
 40
0.7602044916
 40
1.0
 40
1.0
 40
1.0
 40
1.0
 10
7.293945418
 20
225.7904776633
 30
0.0
 10
6.4194975254
 20
225.5560771114
 30
0.0
 10
4.6642963618
 20
225.2372065772
 30
0.0
 10
2.0357989464
 20
225.2501166513
 30
0.0
 10
-0.4599501669
 20
225.7676787579
 30
0.0
 10
-1.9953839172
 20
226.4461989295
 30
0.0
 10
-2.7090424222
 20
226.85842075
 30
0.0
  0
SPLINE
  5
301
100
AcDbEntity
  8
0
100
AcDbSpline
 62
7
  6
CONTINUOUS
 70
0
 71
3
 72
11
 73
7
 74
0
 42
0.0000001
 43
0.0000001
 44
0.0000000001
 40
0.0
 40
0.0
 40
0.0
 40
0.0
 40
0.2717775313
 40
0.5268694486
 40
0.7676333348
 40
1.0
 40
1.0
 40
1.0
 40
1.0
 10
2.3585760209
 20
252.7370642003
 30
0.0
 10
2.3585760209
 20
252.328801591
 30
0.0
 10
2.4379500696
 20
251.533970216
 30
0.0
 10
2.8181320404
 20
250.4329687224
 30
0.0
 10
3.4411023275
 20
249.5168857273
 30
0.0
 10
4.0049114653
 20
249.0634330168
 30
0.0
 10
4.3071635258
 20
248.8888292872
 30
0.0
  0
SPLINE
  5
302
100
AcDbEntity
  8
0
100
AcDbSpline
 62
7
  6
CONTINUOUS
 70
0
 71
3
 72
11
 73
7
 74
0
 42
0.0000001
 43
0.0000001
 44
0.0000000001
 40
0.0
 40
0.0
 40
0.0
 40
0.0
 40
0.2717775313
 40
0.5268694486
 40
0.7676333348
 40
1.0
 40
1.0
 40
1.0
 40
1.0
 10
11.2428738472
 20
245.2357018481
 30
0.0
 10
11.2428738472
 20
244.8274392387
 30
0.0
 10
11.322247896
 20
244.0326078637
 30
0.0
 10
11.7024298667
 20
242.9316063701
 30
0.0
 10
12.3254001538
 20
242.015523375
 30
0.0
 10
12.8892092916
 20
241.5620706645
 30
0.0
 10
13.1914613522
 20
241.3874669349
 30
0.0
  0
SPLINE
  5
303
100
AcDbEntity
  8
0
100
AcDbSpline
 62
7
  6
CONTINUOUS
 70
0
 71
3
 72
11
 73
7
 74
0
 42
0.0000001
 43
0.0000001
 44
0.0000000001
 40
0.0
 40
0.0
 40
0.0
 40
0.0
 40
0.2717775313
 40
0.5268694486
 40
0.7676333348
 40
1.0
 40
1.0
 40
1.0
 40
1.0
 10
-6.5257218055
 20
240.4727323638
 30
0.0
 10
-6.5257218055
 20
240.0644697545
 30
0.0
 10
-6.4463477567
 20
239.2696383795
 30
0.0
 10
-6.0661657859
 20
238.1686368859
 30
0.0
 10
-5.4431954989
 20
237.2525538908
 30
0.0
 10
-4.879386361
 20
236.7991011803
 30
0.0
 10
-4.5771343005
 20
236.6244974507
 30
0.0
  0
SPLINE
  5
304
100
AcDbEntity
  8
0
100
AcDbSpline
 62
7
  6
CONTINUOUS
 70
0
 71
3
 72
10
 73
6
 74
0
 42
0.0000001
 43
0.0000001
 44
0.0000000001
 40
0.0
 40
0.0
 40
0.0
 40
0.0
 40
0.2403281524
 40
0.485096085
 40
1.0
 40
1.0
 40
1.0
 40
1.0
 10
8.1935188234
 20
238.4517432093
 30
0.0
 10
8.0489849843
 20
238.5351964442
 30
0.0
 10
7.7379333285
 20
238.6725453229
 30
0.0
 10
7.0543068711
 20
238.8148875637
 30
0.0
 10
6.5132975761
 20
238.760584531
 30
0.0
 10
6.1679143392
 20
238.6680026607
 30
0.0
  0
SPLINE
  5
305
100
AcDbEntity
  8
0
100
AcDbSpline
 62
7
  6
CONTINUOUS
 70
0
 71
3
 72
9
 73
5
 74
0
 42
0.0000001
 43
0.0000001
 44
0.0000000001
 40
0.0
 40
0.0
 40
0.0
 40
0.0
 40
0.2483301759
 40
1.0
 40
1.0
 40
1.0
 40
1.0
 10
-2.8299654957
 20
246.1493144257
 30
0.0
 10
-2.8782789765
 20
246.1772270538
 30
0.0
 10
-3.0779207561
 20
246.2806713913
 30
0.0
 10
-3.2966743185
 20
246.3464725799
 30
0.0
 10
-3.4633448996
 20
246.3737739255
 30
0.0
  0
SPLINE
  5
306
100
AcDbEntity
  8
0
100
AcDbSpline
 62
7
  6
CONTINUOUS
 70
0
 71
3
 72
15
 73
11
 74
0
 42
0.0000001
 43
0.0000001
 44
0.0000000001
 40
0.0
 40
0.0
 40
0.0
 40
0.0
 40
0.0524622067
 40
0.1056451731
 40
0.2162149228
 40
0.3353287396
 40
0.4632716105
 40
0.5978589133
 40
0.7353247898
 40
1.0
 40
1.0
 40
1.0
 40
1.0
 10
1.3964294839
 20
246.9668729289
 30
0.0
 10
1.2144831893
 20
247.0719789175
 30
0.0
 10
0.8275998178
 20
247.2502213452
 30
0.0
 10
-0.0150534607
 20
247.4664492288
 30
0.0
 10
-1.1705207018
 20
247.4504396032
 30
0.0
 10
-2.5479510013
 20
246.9960533258
 30
0.0
 10
-3.8422803444
 20
246.1557379344
 30
0.0
 10
-4.9640158266
 20
244.9923606284
 30
0.0
 10
-6.1059453463
 20
243.1614336259
 30
0.0
 10
-6.5257218055
 20
241.5328169996
 30
0.0
 10
-6.5257218055
 20
240.4727323638
 30
0.0
  0
SPLINE
  5
307
100
AcDbEntity
  8
0
100
AcDbSpline
 62
7
  6
CONTINUOUS
 70
0
 71
3
 72
9
 73
5
 74
0
 42
0.0000001
 43
0.0000001
 44
0.0000000001
 40
0.0
 40
0.0
 40
0.0
 40
0.0
 40
0.2483301759
 40
1.0
 40
1.0
 40
1.0
 40
1.0
 10
14.9386301569
 20
250.9122839099
 30
0.0
 10
14.8903166762
 20
250.940196538
 30
0.0
 10
14.6906748966
 20
251.0436408755
 30
0.0
 10
14.4719213342
 20
251.1094420641
 30
0.0
 10
14.3052507531
 20
251.1367434097
 30
0.0
  0
SPLINE
  5
308
100
AcDbEntity
  8
0
100
AcDbSpline
 62
7
  6
CONTINUOUS
 70
0
 71
3
 72
15
 73
11
 74
0
 42
0.0000001
 43
0.0000001
 44
0.0000000001
 40
0.0
 40
0.0
 40
0.0
 40
0.0
 40
0.0524622067
 40
0.1056451731
 40
0.2162149228
 40
0.3353287396
 40
0.4632716105
 40
0.5978589133
 40
0.7353247898
 40
1.0
 40
1.0
 40
1.0
 40
1.0
 10
19.1650251366
 20
251.7298424131
 30
0.0
 10
18.983078842
 20
251.8349484017
 30
0.0
 10
18.5961954704
 20
252.0131908295
 30
0.0
 10
17.753542192
 20
252.229418713
 30
0.0
 10
16.5980749509
 20
252.2134090874
 30
0.0
 10
15.2206446514
 20
251.75902281
 30
0.0
 10
13.9263153083
 20
250.9187074186
 30
0.0
 10
12.8045798261
 20
249.7553301126
 30
0.0
 10
11.6626503063
 20
247.9244031102
 30
0.0
 10
11.2428738472
 20
246.2957864839
 30
0.0
 10
11.2428738472
 20
245.2357018481
 30
0.0
  0
SPLINE
  5
309
100
AcDbEntity
  8
0
100
AcDbSpline
 62
7
  6
CONTINUOUS
 70
0
 71
3
 72
9
 73
5
 74
0
 42
0.0000001
 43
0.0000001
 44
0.0000000001
 40
0.0
 40
0.0
 40
0.0
 40
0.0
 40
0.2483301759
 40
1.0
 40
1.0
 40
1.0
 40
1.0
 10
6.0543323306
 20
258.4136462622
 30
0.0
 10
6.0060188498
 20
258.4415588903
 30
0.0
 10
5.8063770703
 20
258.5450032278
 30
0.0
 10
5.5876235078
 20
258.6108044164
 30
0.0
 10
5.4209529267
 20
258.638105762
 30
0.0
  0
SPLINE
  5
30A
100
AcDbEntity
  8
0
100
AcDbSpline
 62
7
  6
CONTINUOUS
 70
0
 71
3
 72
15
 73
11
 74
0
 42
0.0000001
 43
0.0000001
 44
0.0000000001
 40
0.0
 40
0.0
 40
0.0
 40
0.0
 40
0.0524622067
 40
0.1056451731
 40
0.2162149228
 40
0.3353287396
 40
0.4632716105
 40
0.5978589133
 40
0.7353247898
 40
1.0
 40
1.0
 40
1.0
 40
1.0
 10
10.2807273102
 20
259.2312047654
 30
0.0
 10
10.0987810157
 20
259.336310754
 30
0.0
 10
9.7118976441
 20
259.5145531817
 30
0.0
 10
8.8692443657
 20
259.7307810653
 30
0.0
 10
7.7137771245
 20
259.7147714397
 30
0.0
 10
6.336346825
 20
259.2603851623
 30
0.0
 10
5.0420174819
 20
258.4200697709
 30
0.0
 10
3.9202819997
 20
257.2566924649
 30
0.0
 10
2.77835248
 20
255.4257654624
 30
0.0
 10
2.3585760209
 20
253.7971488361
 30
0.0
 10
2.3585760209
 20
252.7370642003
 30
0.0
  0
SPLINE
  5
30B
100
AcDbEntity
  8
0
100
AcDbSpline
 62
7
  6
CONTINUOUS
 70
0
 71
3
 72
9
 73
5
 74
0
 42
0.0000001
 43
0.0000001
 44
0.0000000001
 40
0.0
 40
0.0
 40
0.0
 40
0.0
 40
0.2533757694
 40
1.0
 40
1.0
 40
1.0
 40
1.0
 10
2.4028165098
 20
253.3822340707
 30
0.0
 10
2.4383442988
 20
253.3395075727
 30
0.0
 10
2.585562915
 20
253.1768369421
 30
0.0
 10
2.761622341
 20
253.0401734
 30
0.0
 10
2.9034031112
 20
252.9582609845
 30
0.0
  0
SPLINE
  5
30C
100
AcDbEntity
  8
0
100
AcDbSpline
 62
7
  6
CONTINUOUS
 70
0
 71
3
 72
9
 73
5
 74
0
 42
0.0000001
 43
0.0000001
 44
0.0000000001
 40
0.0
 40
0.0
 40
0.0
 40
0.0
 40
0.2533757694
 40
1.0
 40
1.0
 40
1.0
 40
1.0
 10
11.2871143361
 20
245.8808717184
 30
0.0
 10
11.3226421252
 20
245.8381452204
 30
0.0
 10
11.4698607413
 20
245.6754745898
 30
0.0
 10
11.6459201673
 20
245.5388110477
 30
0.0
 10
11.7877009375
 20
245.4568986322
 30
0.0
  0
SPLINE
  5
30D
100
AcDbEntity
  8
0
100
AcDbSpline
 62
7
  6
CONTINUOUS
 70
0
 71
3
 72
9
 73
5
 74
0
 42
0.0000001
 43
0.0000001
 44
0.0000000001
 40
0.0
 40
0.0
 40
0.0
 40
0.0
 40
0.2533757694
 40
1.0
 40
1.0
 40
1.0
 40
1.0
 10
-6.4814813166
 20
241.1179022342
 30
0.0
 10
-6.4459535275
 20
241.0751757362
 30
0.0
 10
-6.2987349113
 20
240.9125051056
 30
0.0
 10
-6.1226754853
 20
240.7758415635
 30
0.0
 10
-5.9808947151
 20
240.693929148
 30
0.0
  0
SPLINE
  5
30E
100
AcDbEntity
  8
0
100
AcDbSpline
 62
7
  6
CONTINUOUS
 70
0
 71
3
 72
11
 73
7
 74
0
 42
0.0000001
 43
0.0000001
 44
0.0000000001
 40
0.0
 40
0.0
 40
0.0
 40
0.0
 40
0.2717668072
 40
0.5268680782
 40
0.7676307415
 40
1.0
 40
1.0
 40
1.0
 40
1.0
 10
2.820806786
 20
234.0474869517
 30
0.0
 10
2.8208067856
 20
233.7706182096
 30
0.0
 10
2.874645427
 20
233.2315777328
 30
0.0
 10
3.1324410852
 20
232.4848715141
 30
0.0
 10
3.5549619766
 20
231.863612021
 30
0.0
 10
3.9372983412
 20
231.556024535
 30
0.0
 10
4.142309855
 20
231.4376517434
 30
0.0
  0
SPLINE
  5
30F
100
AcDbEntity
  8
0
100
AcDbSpline
 62
7
  6
CONTINUOUS
 70
0
 71
3
 72
12
 73
8
 74
0
 42
0.0000001
 43
0.0000001
 44
0.0000000001
 40
0.0
 40
0.0
 40
0.0
 40
0.0
 40
0.2349899833
 40
0.4894752595
 40
0.6202667695
 40
0.7503904793
 40
1.0
 40
1.0
 40
1.0
 40
1.0
 10
6.1679143392
 20
238.6680026607
 30
0.0
 10
5.7087750046
 20
238.5449278448
 30
0.0
 10
4.8037161691
 20
238.082540149
 30
0.0
 10
3.9165254087
 20
237.1681271528
 30
0.0
 10
3.3680847161
 20
236.277276526
 30
0.0
 10
2.9614147594
 20
235.3256081928
 30
0.0
 10
2.8208067868
 20
234.5524086808
 30
0.0
 10
2.820806786
 20
234.0474869517
 30
0.0
  0
SPLINE
  5
310
100
AcDbEntity
  8
0
100
AcDbSpline
 62
7
  6
CONTINUOUS
 70
0
 71
3
 72
20
 73
16
 74
0
 42
0.0000001
 43
0.0000001
 44
0.0000000001
 40
0.0
 40
0.0
 40
0.0
 40
0.0
 40
0.0524886651
 40
0.1058788637
 40
0.1609446763
 40
0.218240177
 40
0.340076156
 40
0.4047856255
 40
0.4714397363
 40
0.6080572842
 40
0.7449175192
 40
0.8118576135
 40
0.8769396523
 40
0.9397340236
 40
1.0
 40
1.0
 40
1.0
 40
1.0
 10
17.2969332583
 20
261.4959191138
 30
0.0
 10
17.980776991
 20
261.1009188351
 30
0.0
 10
19.2815798913
 20
260.1586628323
 30
0.0
 10
20.9262476504
 20
258.3609102993
 30
0.0
 10
22.234269697
 20
256.2201418507
 30
0.0
 10
23.5139092168
 20
252.9207548913
 30
0.0
 10
23.9620197886
 20
249.2121417563
 30
0.0
 10
23.6455871845
 20
245.4091129543
 30
0.0
 10
22.7944051629
 20
241.4571473226
 30
0.0
 10
20.7952822598
 20
236.6906328899
 30
0.0
 10
17.7470518163
 20
232.5106621858
 30
0.0
 10
14.8006592716
 20
229.725200093
 30
0.0
 10
12.4233338245
 20
227.9952980422
 30
0.0
 10
9.9209941924
 20
226.6530827514
 30
0.0
 10
8.1697666136
 20
226.0252463366
 30
0.0
 10
7.293945418
 20
225.7904776633
 30
0.0
  0
SPLINE
  5
311
100
AcDbEntity
  8
0
100
AcDbSpline
 62
7
  6
CONTINUOUS
 70
0
 71
3
 72
11
 73
7
 74
0
 42
0.0000001
 43
0.0000001
 44
0.0000000001
 40
0.0
 40
0.0
 40
0.0
 40
0.0
 40
0.2717775313
 40
0.5268694486
 40
0.7676333348
 40
1.0
 40
1.0
 40
1.0
 40
1.0
 10
12.2293148152
 20
255.3829698522
 30
0.0
 10
12.2293148152
 20
255.7912324616
 30
0.0
 10
12.1499407664
 20
256.5860638366
 30
0.0
 10
11.7697587957
 20
257.6870653302
 30
0.0
 10
11.1467885086
 20
258.6031483253
 30
0.0
 10
10.5829793708
 20
259.0566010358
 30
0.0
 10
10.2807273102
 20
259.2312047654
 30
0.0
  0
SPLINE
  5
312
100
AcDbEntity
  8
0
100
AcDbSpline
 62
7
  6
CONTINUOUS
 70
0
 71
3
 72
11
 73
7
 74
0
 42
0.0000001
 43
0.0000001
 44
0.0000000001
 40
0.0
 40
0.0
 40
0.0
 40
0.0
 40
0.2717775313
 40
0.5268694486
 40
0.7676333348
 40
1.0
 40
1.0
 40
1.0
 40
1.0
 10
3.3450169888
 20
243.1186380158
 30
0.0
 10
3.3450169888
 20
243.5269006251
 30
0.0
 10
3.2656429401
 20
244.3217320001
 30
0.0
 10
2.8854609693
 20
245.4227334937
 30
0.0
 10
2.2624906823
 20
246.3388164888
 30
0.0
 10
1.6986815444
 20
246.7922691993
 30
0.0
 10
1.3964294839
 20
246.9668729289
 30
0.0
  0
SPLINE
  5
313
100
AcDbEntity
  8
0
100
AcDbSpline
 62
7
  6
CONTINUOUS
 70
0
 71
3
 72
14
 73
10
 74
0
 42
0.0000001
 43
0.0000001
 44
0.0000000001
 40
0.0
 40
0.0
 40
0.0
 40
0.0
 40
0.1052607121
 40
0.2158763284
 40
0.3350400042
 40
0.4630364262
 40
0.5976785521
 40
0.735210095
 40
1.0
 40
1.0
 40
1.0
 40
1.0
 10
-5.9808947151
 20
240.693929148
 30
0.0
 10
-5.788421922
 20
240.5827299256
 30
0.0
 10
-5.3469826127
 20
240.4279835
 30
0.0
 10
-4.6273554004
 20
240.439105599
 30
0.0
 10
-3.9002226227
 20
240.6784684765
 30
0.0
 10
-3.217669385
 20
241.1217956521
 30
0.0
 10
-2.625910129
 20
241.7354158475
 30
0.0
 10
-2.0235863292
 20
242.7012128395
 30
0.0
 10
-1.8021242307
 20
243.5602779911
 30
0.0
 10
-1.8021242307
 20
244.1194521997
 30
0.0
  0
SPLINE
  5
314
100
AcDbEntity
  8
0
100
AcDbSpline
 62
7
  6
CONTINUOUS
 70
0
 71
3
 72
11
 73
7
 74
0
 42
0.0000001
 43
0.0000001
 44
0.0000000001
 40
0.0
 40
0.0
 40
0.0
 40
0.0
 40
0.2634102209
 40
0.5159328187
 40
0.7602044916
 40
1.0
 40
1.0
 40
1.0
 40
1.0
 10
7.293945418
 20
262.5638622005
 30
0.0
 10
8.1683933106
 20
262.7982627525
 30
0.0
 10
9.9235944742
 20
263.1171332866
 30
0.0
 10
12.5520918897
 20
263.1042232125
 30
0.0
 10
15.0478410029
 20
262.5866611059
 30
0.0
 10
16.5832747533
 20
261.9081409343
 30
0.0
 10
17.2969332583
 20
261.4959191138
 30
0.0
  0
SPLINE
  5
315
100
AcDbEntity
  8
0
100
AcDbSpline
 62
7
  6
CONTINUOUS
 70
0
 71
3
 72
15
 73
11
 74
0
 42
0.0000001
 43
0.0000001
 44
0.0000000001
 40
0.0
 40
0.0
 40
0.0
 40
0.0
 40
0.1383951981
 40
0.2695587326
 40
0.3940347268
 40
0.5135537928
 40
0.6308546392
 40
0.7491689886
 40
0.8715002297
 40
1.0
 40
1.0
 40
1.0
 40
1.0
 10
2.293945246
 20
232.954045378
 30
0.0
 10
2.2939452454
 20
232.5994833587
 30
0.0
 10
2.3533548342
 20
231.9068289997
 30
0.0
 10
2.6346976147
 20
230.9301504704
 30
0.0
 10
3.0981315296
 20
230.0783915926
 30
0.0
 10
3.7284997269
 20
229.3873804374
 30
0.0
 10
4.5014744611
 20
228.8881023737
 30
0.0
 10
5.3837098365
 20
228.6029191713
 30
0.0
 10
6.3361616236
 20
228.5417979804
 30
0.0
 10
6.9759610452
 20
228.6471109717
 30
0.0
 10
7.293945418
 20
228.7323484263
 30
0.0
  0
SPLINE
  5
316
100
AcDbEntity
  8
0
100
AcDbSpline
 62
7
  6
CONTINUOUS
 70
0
 71
3
 72
15
 73
11
 74
0
 42
0.0000001
 43
0.0000001
 44
0.0000000001
 40
0.0
 40
0.0
 40
0.0
 40
0.0
 40
0.0524622067
 40
0.1056451731
 40
0.2162149228
 40
0.3353287396
 40
0.4632716105
 40
0.5978589133
 40
0.7353247898
 40
1.0
 40
1.0
 40
1.0
 40
1.0
 10
-4.5771343005
 20
236.6244974507
 30
0.0
 10
-4.395188006
 20
236.5193914621
 30
0.0
 10
-4.0083046344
 20
236.3411490344
 30
0.0
 10
-3.1656513559
 20
236.1249211508
 30
0.0
 10
-2.0101841148
 20
236.1409307764
 30
0.0
 10
-0.6327538153
 20
236.5953170538
 30
0.0
 10
0.6615755278
 20
237.4356324452
 30
0.0
 10
1.78331101
 20
238.5990097512
 30
0.0
 10
2.9252405297
 20
240.4299367537
 30
0.0
 10
3.3450169888
 20
242.05855338
 30
0.0
 10
3.3450169888
 20
243.1186380158
 30
0.0
  0
SPLINE
  5
317
100
AcDbEntity
  8
0
100
AcDbSpline
 62
7
  6
CONTINUOUS
 70
0
 71
3
 72
14
 73
10
 74
0
 42
0.0000001
 43
0.0000001
 44
0.0000000001
 40
0.0
 40
0.0
 40
0.0
 40
0.0
 40
0.2346073929
 40
0.3603379301
 40
0.4894684284
 40
0.6200482101
 40
0.7499714674
 40
0.8772023527
 40
1.0
 40
1.0
 40
1.0
 40
1.0
 10
7.293945418
 20
228.7323484263
 30
0.0
 10
7.9798041111
 20
228.9161966093
 30
0.0
 10
8.979398552
 20
229.4271220039
 30
0.0
 10
10.0998817742
 20
230.4003765843
 30
0.0
 10
10.8560607025
 20
231.2955477343
 30
0.0
 10
11.4763730469
 20
232.3033534508
 30
0.0
 10
11.9388574885
 20
233.3868268733
 30
0.0
 10
12.2257486152
 20
234.5049664527
 30
0.0
 10
12.2939455896
 20
235.2629360679
 30
0.0
 10
12.2939455901
 20
235.634600297
 30
0.0
  0
SPLINE
  5
318
100
AcDbEntity
  8
0
100
AcDbSpline
 62
7
  6
CONTINUOUS
 70
0
 71
3
 72
14
 73
10
 74
0
 42
0.0000001
 43
0.0000001
 44
0.0000000001
 40
0.0
 40
0.0
 40
0.0
 40
0.0
 40
0.2557912116
 40
0.3891490899
 40
0.5219109416
 40
0.6511936057
 40
0.7746421239
 40
0.890894578
 40
1.0
 40
1.0
 40
1.0
 40
1.0
 10
9.414237118
 20
257.0089064493
 30
0.0
 10
9.414237118
 20
256.1264394755
 30
0.0
 10
9.1228590779
 20
254.7724557041
 30
0.0
 10
8.302830361
 20
253.1641402453
 30
0.0
 10
7.4775400769
 20
252.0679930963
 30
0.0
 10
6.4943684208
 20
251.1613621628
 30
0.0
 10
5.4019326543
 20
250.4903462186
 30
0.0
 10
4.2558144728
 20
250.0919526528
 30
0.0
 10
3.4704766259
 20
250.0237943748
 30
0.0
 10
3.0946781922
 20
250.045212479
 30
0.0
  0
SPLINE
  5
319
100
AcDbEntity
  8
0
100
AcDbSpline
 62
7
  6
CONTINUOUS
 70
0
 71
3
 72
11
 73
7
 74
0
 42
0.0000001
 43
0.0000001
 44
0.0000000001
 40
0.0
 40
0.0
 40
0.0
 40
0.0
 40
0.2717570839
 40
0.5268813873
 40
0.7676358954
 40
1.0
 40
1.0
 40
1.0
 40
1.0
 10
7.0821735956
 20
256.3837840362
 30
0.0
 10
7.0821735956
 20
256.5991179527
 30
0.0
 10
7.0402817542
 20
257.0183777103
 30
0.0
 10
6.8398011737
 20
257.5991588506
 30
0.0
 10
6.5111437763
 20
258.0823626014
 30
0.0
 10
6.2137578875
 20
258.3215397484
 30
0.0
 10
6.0543323306
 20
258.4136462622
 30
0.0
  0
SPLINE
  5
31A
100
AcDbEntity
  8
0
100
AcDbSpline
 62
7
  6
CONTINUOUS
 70
0
 71
3
 72
9
 73
5
 74
0
 42
0.0000001
 43
0.0000001
 44
0.0000000001
 40
0.0
 40
0.0
 40
0.0
 40
0.0
 40
0.481087829
 40
1.0
 40
1.0
 40
1.0
 40
1.0
 10
-0.2002439443
 20
247.4226382604
 30
0.0
 10
0.0443591163
 20
247.0452194134
 30
0.0
 10
0.4191493366
 20
246.1698514571
 30
0.0
 10
0.5299392917
 20
245.2296857919
 30
0.0
 10
0.5299392917
 20
244.7445746128
 30
0.0
  0
SPLINE
  5
31B
100
AcDbEntity
  8
0
100
AcDbSpline
 62
7
  6
CONTINUOUS
 70
0
 71
3
 72
14
 73
10
 74
0
 42
0.0000001
 43
0.0000001
 44
0.0000000001
 40
0.0
 40
0.0
 40
0.0
 40
0.0
 40
0.1052607121
 40
0.2158763284
 40
0.3350400042
 40
0.4630364262
 40
0.5976785521
 40
0.735210095
 40
1.0
 40
1.0
 40
1.0
 40
1.0
 10
11.7877009375
 20
245.4568986322
 30
0.0
 10
11.9801737307
 20
245.3456994098
 30
0.0
 10
12.4216130399
 20
245.1909529842
 30
0.0
 10
13.1412402522
 20
245.2020750832
 30
0.0
 10
13.8683730299
 20
245.4414379607
 30
0.0
 10
14.5509262677
 20
245.8847651363
 30
0.0
 10
15.1426855236
 20
246.4983853317
 30
0.0
 10
15.7450093235
 20
247.4641823237
 30
0.0
 10
15.9664714219
 20
248.3232474754
 30
0.0
 10
15.9664714219
 20
248.8824216839
 30
0.0
  0
SPLINE
  5
31C
100
AcDbEntity
  8
0
100
AcDbSpline
 62
7
  6
CONTINUOUS
 70
0
 71
3
 72
15
 73
11
 74
0
 42
0.0000001
 43
0.0000001
 44
0.0000000001
 40
0.0
 40
0.0
 40
0.0
 40
0.0
 40
0.1383951981
 40
0.2695587326
 40
0.3940347268
 40
0.5135537928
 40
0.6308546392
 40
0.7491689886
 40
0.8715002297
 40
1.0
 40
1.0
 40
1.0
 40
1.0
 10
12.2939455901
 20
235.634600297
 30
0.0
 10
12.2939455905
 20
235.9891623163
 30
0.0
 10
12.2345360019
 20
236.6818166753
 30
0.0
 10
11.9531932214
 20
237.6584952046
 30
0.0
 10
11.4897593064
 20
238.5102540825
 30
0.0
 10
10.8593911092
 20
239.2012652376
 30
0.0
 10
10.0864163749
 20
239.7005433013
 30
0.0
 10
9.2041809995
 20
239.9857265037
 30
0.0
 10
8.2517292125
 20
240.0468476947
 30
0.0
 10
7.6119297909
 20
239.9415347033
 30
0.0
 10
7.293945418
 20
239.8562972488
 30
0.0
  0
SPLINE
  5
31D
100
AcDbEntity
  8
0
100
AcDbSpline
 62
7
  6
CONTINUOUS
 70
0
 71
3
 72
14
 73
10
 74
0
 42
0.0000001
 43
0.0000001
 44
0.0000000001
 40
0.0
 40
0.0
 40
0.0
 40
0.0
 40
0.2557912116
 40
0.3891490899
 40
0.5219109416
 40
0.6511936057
 40
0.7746421239
 40
0.890894578
 40
1.0
 40
1.0
 40
1.0
 40
1.0
 10
18.2985349444
 20
249.507544097
 30
0.0
 10
18.2985349444
 20
248.6250771232
 30
0.0
 10
18.0071569042
 20
247.2710933519
 30
0.0
 10
17.1871281873
 20
245.662777893
 30
0.0
 10
16.3618379032
 20
244.5666307441
 30
0.0
 10
15.3786662471
 20
243.6599998105
 30
0.0
 10
14.2862304806
 20
242.9889838664
 30
0.0
 10
13.1401122992
 20
242.5905903005
 30
0.0
 10
12.3547744523
 20
242.5224320225
 30
0.0
 10
11.9789760185
 20
242.5438501267
 30
0.0
  0
SPLINE
  5
31E
100
AcDbEntity
  8
0
100
AcDbSpline
 62
7
  6
CONTINUOUS
 70
0
 71
3
 72
11
 73
7
 74
0
 42
0.0000001
 43
0.0000001
 44
0.0000000001
 40
0.0
 40
0.0
 40
0.0
 40
0.0
 40
0.2717570839
 40
0.5268813873
 40
0.7676358954
 40
1.0
 40
1.0
 40
1.0
 40
1.0
 10
15.9664714219
 20
248.8824216839
 30
0.0
 10
15.9664714219
 20
249.0977556004
 30
0.0
 10
15.9245795806
 20
249.517015358
 30
0.0
 10
15.724099
 20
250.0977964983
 30
0.0
 10
15.3954416027
 20
250.5810002491
 30
0.0
 10
15.0980557139
 20
250.8201773961
 30
0.0
 10
14.9386301569
 20
250.9122839099
 30
0.0
  0
SPLINE
  5
31F
100
AcDbEntity
  8
0
100
AcDbSpline
 62
7
  6
CONTINUOUS
 70
0
 71
3
 72
15
 73
11
 74
0
 42
0.0000001
 43
0.0000001
 44
0.0000000001
 40
0.0
 40
0.0
 40
0.0
 40
0.0
 40
0.0524622067
 40
0.1056451731
 40
0.2162149228
 40
0.3353287396
 40
0.4632716105
 40
0.5978589133
 40
0.7353247898
 40
1.0
 40
1.0
 40
1.0
 40
1.0
 10
13.1914613522
 20
241.3874669349
 30
0.0
 10
13.3734076467
 20
241.2823609463
 30
0.0
 10
13.7602910183
 20
241.1041185186
 30
0.0
 10
14.6029442967
 20
240.887890635
 30
0.0
 10
15.7584115379
 20
240.9039002606
 30
0.0
 10
17.1358418374
 20
241.358286538
 30
0.0
 10
18.4301711805
 20
242.1986019294
 30
0.0
 10
19.5519066627
 20
243.3619792354
 30
0.0
 10
20.6938361824
 20
245.1929062379
 30
0.0
 10
21.1136126415
 20
246.8215228642
 30
0.0
 10
21.1136126415
 20
247.8816075
 30
0.0
  0
SPLINE
  5
320
100
AcDbEntity
  8
0
100
AcDbSpline
 62
7
  6
CONTINUOUS
 70
0
 71
3
 72
14
 73
10
 74
0
 42
0.0000001
 43
0.0000001
 44
0.0000000001
 40
0.0
 40
0.0
 40
0.0
 40
0.0
 40
0.2346073929
 40
0.3603379301
 40
0.4894684284
 40
0.6200482101
 40
0.7499714674
 40
0.8772023527
 40
1.0
 40
1.0
 40
1.0
 40
1.0
 10
7.293945418
 20
239.8562972488
 30
0.0
 10
6.608086725
 20
239.6724490658
 30
0.0
 10
5.6084922841
 20
239.1615236711
 30
0.0
 10
4.4880090618
 20
238.1882690907
 30
0.0
 10
3.7318301336
 20
237.2930979407
 30
0.0
 10
3.1115177891
 20
236.2852922242
 30
0.0
 10
2.6490333476
 20
235.2018188017
 30
0.0
 10
2.3621422208
 20
234.0836792223
 30
0.0
 10
2.2939452466
 20
233.3257096072
 30
0.0
 10
2.293945246
 20
232.954045378
 30
0.0
  0
SPLINE
  5
321
100
AcDbEntity
  8
0
100
AcDbSpline
 62
7
  6
CONTINUOUS
 70
0
 71
3
 72
14
 73
10
 74
0
 42
0.0000001
 43
0.0000001
 44
0.0000000001
 40
0.0
 40
0.0
 40
0.0
 40
0.0
 40
0.2557912116
 40
0.3891490899
 40
0.5219109416
 40
0.6511936057
 40
0.7746421239
 40
0.890894578
 40
1.0
 40
1.0
 40
1.0
 40
1.0
 10
0.5299392917
 20
244.7445746128
 30
0.0
 10
0.5299392917
 20
243.862107639
 30
0.0
 10
0.2385612516
 20
242.5081238676
 30
0.0
 10
-0.5814674653
 20
240.8998084088
 30
0.0
 10
-1.4067577495
 20
239.8036612598
 30
0.0
 10
-2.3899294055
 20
238.8970303263
 30
0.0
 10
-3.4823651721
 20
238.2260143821
 30
0.0
 10
-4.6284833535
 20
237.8276208163
 30
0.0
 10
-5.4138212004
 20
237.7594625383
 30
0.0
 10
-5.7896196341
 20
237.7808806425
 30
0.0
  0
SPLINE
  5
322
100
AcDbEntity
  8
0
100
AcDbSpline
 62
7
  6
CONTINUOUS
 70
0
 71
3
 72
11
 73
7
 74
0
 42
0.0000001
 43
0.0000001
 44
0.0000000001
 40
0.0
 40
0.0
 40
0.0
 40
0.0
 40
0.2717570839
 40
0.5268813873
 40
0.7676358954
 40
1.0
 40
1.0
 40
1.0
 40
1.0
 10
-1.8021242307
 20
244.1194521997
 30
0.0
 10
-1.8021242307
 20
244.3347861162
 30
0.0
 10
-1.8440160721
 20
244.7540458738
 30
0.0
 10
-2.0444966526
 20
245.3348270141
 30
0.0
 10
-2.37315405
 20
245.8180307649
 30
0.0
 10
-2.6705399388
 20
246.0572079119
 30
0.0
 10
-2.8299654957
 20
246.1493144257
 30
0.0
  0
SPLINE
  5
323
100
AcDbEntity
  8
0
100
AcDbSpline
 62
7
  6
CONTINUOUS
 70
0
 71
3
 72
9
 73
5
 74
0
 42
0.0000001
 43
0.0000001
 44
0.0000000001
 40
0.0
 40
0.0
 40
0.0
 40
0.0
 40
0.481087829
 40
1.0
 40
1.0
 40
1.0
 40
1.0
 10
17.5683517084
 20
252.1856077446
 30
0.0
 10
17.812954769
 20
251.8081888976
 30
0.0
 10
18.1877449893
 20
250.9328209413
 30
0.0
 10
18.2985349444
 20
249.9926552761
 30
0.0
 10
18.2985349444
 20
249.507544097
 30
0.0
  0
SPLINE
  5
324
100
AcDbEntity
  8
0
100
AcDbSpline
 62
7
  6
CONTINUOUS
 70
0
 71
3
 72
12
 73
8
 74
0
 42
0.0000001
 43
0.0000001
 44
0.0000000001
 40
0.0
 40
0.0
 40
0.0
 40
0.0
 40
0.2349899833
 40
0.4894752595
 40
0.6202667695
 40
0.7503904793
 40
1.0
 40
1.0
 40
1.0
 40
1.0
 10
6.167914335
 20
231.2213922908
 30
0.0
 10
6.6270536705
 20
231.344467106
 30
0.0
 10
7.5321125079
 20
231.8068548025
 30
0.0
 10
8.41930327
 20
232.7212678
 30
0.0
 10
8.9677439634
 20
233.6121184287
 30
0.0
 10
9.3744139201
 20
234.5637867637
 30
0.0
 10
9.5150218928
 20
235.3369862772
 30
0.0
 10
9.5150218924
 20
235.8419080071
 30
0.0
  0
SPLINE
  5
325
100
AcDbEntity
  8
0
100
AcDbSpline
 62
7
  6
CONTINUOUS
 70
0
 71
3
 72
11
 73
7
 74
0
 42
0.0000001
 43
0.0000001
 44
0.0000000001
 40
0.0
 40
0.0
 40
0.0
 40
0.0
 40
0.2717668071
 40
0.5268680781
 40
0.7676307415
 40
1.0
 40
1.0
 40
1.0
 40
1.0
 10
9.5150218924
 20
235.8419080071
 30
0.0
 10
9.5150218921
 20
236.1187767486
 30
0.0
 10
9.4611832505
 20
236.6578172242
 30
0.0
 10
9.2033875918
 20
237.404523441
 30
0.0
 10
8.7808667007
 20
238.0257829326
 30
0.0
 10
8.3985303368
 20
238.3333704179
 30
0.0
 10
8.1935188234
 20
238.4517432093
 30
0.0
  0
SPLINE
  5
326
100
AcDbEntity
  8
0
100
AcDbSpline
 62
7
  6
CONTINUOUS
 70
0
 71
3
 72
14
 73
10
 74
0
 42
0.0000001
 43
0.0000001
 44
0.0000000001
 40
0.0
 40
0.0
 40
0.0
 40
0.0
 40
0.1052607121
 40
0.2158763284
 40
0.3350400042
 40
0.4630364262
 40
0.5976785521
 40
0.735210095
 40
1.0
 40
1.0
 40
1.0
 40
1.0
 10
2.9034031112
 20
252.9582609845
 30
0.0
 10
3.0958759043
 20
252.8470617621
 30
0.0
 10
3.5373152136
 20
252.6923153365
 30
0.0
 10
4.2569424259
 20
252.7034374354
 30
0.0
 10
4.9840752036
 20
252.9428003129
 30
0.0
 10
5.6666284414
 20
253.3861274886
 30
0.0
 10
6.2583876973
 20
253.999747684
 30
0.0
 10
6.8607114971
 20
254.965544676
 30
0.0
 10
7.0821735956
 20
255.8246098276
 30
0.0
 10
7.0821735956
 20
256.3837840362
 30
0.0
  0
SPLINE
  5
327
100
AcDbEntity
  8
0
100
AcDbSpline
 62
7
  6
CONTINUOUS
 70
0
 71
3
 72
11
 73
7
 74
0
 42
0.0000001
 43
0.0000001
 44
0.0000000001
 40
0.0
 40
0.0
 40
0.0
 40
0.0
 40
0.2717775313
 40
0.5268694486
 40
0.7676333348
 40
1.0
 40
1.0
 40
1.0
 40
1.0
 10
21.1136126415
 20
247.8816075
 30
0.0
 10
21.1136126415
 20
248.2898701093
 30
0.0
 10
21.0342385928
 20
249.0847014843
 30
0.0
 10
20.654056622
 20
250.1857029779
 30
0.0
 10
20.0310863349
 20
251.101785973
 30
0.0
 10
19.4672771971
 20
251.5552386835
 30
0.0
 10
19.1650251366
 20
251.7298424131
 30
0.0
  0
SPLINE
  5
328
100
AcDbEntity
  8
0
100
AcDbSpline
 62
7
  6
CONTINUOUS
 70
0
 71
3
 72
20
 73
16
 74
0
 42
0.0000001
 43
0.0000001
 44
0.0000000001
 40
0.0
 40
0.0
 40
0.0
 40
0.0
 40
0.0524886651
 40
0.1058788637
 40
0.1609446763
 40
0.218240177
 40
0.340076156
 40
0.4047856255
 40
0.4714397363
 40
0.6080572842
 40
0.7449175192
 40
0.8118576135
 40
0.8769396523
 40
0.9397340236
 40
1.0
 40
1.0
 40
1.0
 40
1.0
 10
-2.7090424222
 20
226.85842075
 30
0.0
 10
-3.3928861549
 20
227.2534210287
 30
0.0
 10
-4.6936890553
 20
228.1956770315
 30
0.0
 10
-6.3383568143
 20
229.9934295645
 30
0.0
 10
-7.646378861
 20
232.1341980131
 30
0.0
 10
-8.9260183808
 20
235.4335849726
 30
0.0
 10
-9.3741289525
 20
239.1421981075
 30
0.0
 10
-9.0576963484
 20
242.9452269095
 30
0.0
 10
-8.2065143269
 20
246.8971925412
 30
0.0
 10
-6.2073914237
 20
251.6637069739
 30
0.0
 10
-3.1591609803
 20
255.843677678
 30
0.0
 10
-0.2127684356
 20
258.6291397708
 30
0.0
 10
2.1645570115
 20
260.3590418216
 30
0.0
 10
4.6668966437
 20
261.7012571124
 30
0.0
 10
6.4181242225
 20
262.3290935272
 30
0.0
 10
7.293945418
 20
262.5638622005
 30
0.0
  0
SPLINE
  5
329
100
AcDbEntity
  8
0
100
AcDbSpline
 62
7
  6
CONTINUOUS
 70
0
 71
3
 72
15
 73
11
 74
0
 42
0.0000001
 43
0.0000001
 44
0.0000000001
 40
0.0
 40
0.0
 40
0.0
 40
0.0
 40
0.0524622067
 40
0.1056451731
 40
0.2162149228
 40
0.3353287396
 40
0.4632716105
 40
0.5978589133
 40
0.7353247898
 40
1.0
 40
1.0
 40
1.0
 40
1.0
 10
4.3071635258
 20
248.8888292872
 30
0.0
 10
4.4891098204
 20
248.7837232986
 30
0.0
 10
4.875993192
 20
248.6054808708
 30
0.0
 10
5.7186464704
 20
248.3892529873
 30
0.0
 10
6.8741137115
 20
248.4052626129
 30
0.0
 10
8.251544011
 20
248.8596488903
 30
0.0
 10
9.5458733541
 20
249.6999642817
 30
0.0
 10
10.6676088363
 20
250.8633415877
 30
0.0
 10
11.8095383561
 20
252.6942685901
 30
0.0
 10
12.2293148152
 20
254.3228852164
 30
0.0
 10
12.2293148152
 20
255.3829698522
 30
0.0
  0
SPLINE
  5
32A
100
AcDbEntity
  8
0
100
AcDbSpline
 62
7
  6
CONTINUOUS
 70
0
 71
3
 72
10
 73
6
 74
0
 42
0.0000001
 43
0.0000001
 44
0.0000000001
 40
0.0
 40
0.0
 40
0.0
 40
0.0
 40
0.2403281525
 40
0.4850960851
 40
1.0
 40
1.0
 40
1.0
 40
1.0
 10
4.142309855
 20
231.4376517434
 30
0.0
 10
4.2868436938
 20
231.3541985087
 30
0.0
 10
4.597895349
 20
231.2168496301
 30
0.0
 10
5.2815218048
 20
231.0745073892
 30
0.0
 10
5.8225310986
 20
231.1288104214
 30
0.0
 10
6.167914335
 20
231.2213922908
 30
0.0
  0
SPLINE
  5
32B
100
AcDbEntity
  8
0
100
AcDbSpline
 62
7
  6
CONTINUOUS
 70
0
 71
3
 72
9
 73
5
 74
0
 42
0.0000001
 43
0.0000001
 44
0.0000000001
 40
0.0
 40
0.0
 40
0.0
 40
0.0
 40
0.481087829
 40
1.0
 40
1.0
 40
1.0
 40
1.0
 10
8.6840538821
 20
259.6869700969
 30
0.0
 10
8.9286569426
 20
259.3095512498
 30
0.0
 10
9.3034471629
 20
258.4341832936
 30
0.0
 10
9.414237118
 20
257.4940176284
 30
0.0
 10
9.414237118
 20
257.0089064493
 30
0.0
  0
SPLINE
  5
32C
100
AcDbEntity
  8
0
100
AcDbSpline
 62
7
  6
CONTINUOUS
 70
0
 71
3
 72
11
 73
7
 74
0
 42
0.0000001
 43
0.0000001
 44
0.0000000001
 40
0.0
 40
0.0
 40
0.0
 40
0.0
 40
0.2113006133
 40
0.4481758979
 40
0.7112767469
 40
1.0
 40
1.0
 40
1.0
 40
1.0
 10
-17.9909483324
 20
277.162425525
 30
0.0
 10
-17.550052821
 20
276.6824516976
 30
0.0
 10
-16.5233237744
 20
275.7473446403
 30
0.0
 10
-14.7158409275
 20
274.4959101726
 30
0.0
 10
-12.5764796744
 20
273.3299173897
 30
0.0
 10
-11.0144823456
 20
272.6485665852
 30
0.0
 10
-10.1861327373
 20
272.3216061732
 30
0.0
  0
SPLINE
  5
32D
100
AcDbEntity
  8
0
100
AcDbSpline
 62
7
  6
CONTINUOUS
 70
0
 71
3
 72
9
 73
5
 74
0
 42
0.0000001
 43
0.0000001
 44
0.0000000001
 40
0.0
 40
0.0
 40
0.0
 40
0.0
 40
0.4698375723
 40
1.0
 40
1.0
 40
1.0
 40
1.0
 10
-9.8705573499
 20
271.8285630625
 30
0.0
 10
-8.0890067274
 20
271.0601156753
 30
0.0
 10
-4.1598084091
 20
269.7409357288
 30
0.0
 10
-0.1123829995
 20
268.8851550009
 30
0.0
 10
2.0481859089
 20
268.5314548012
 30
0.0
  0
SPLINE
  5
32E
100
AcDbEntity
  8
0
100
AcDbSpline
 62
7
  6
CONTINUOUS
 70
0
 71
3
 72
9
 73
5
 74
0
 42
0.0000001
 43
0.0000001
 44
0.0000000001
 40
0.0
 40
0.0
 40
0.0
 40
0.0
 40
0.4897319545
 40
1.0
 40
1.0
 40
1.0
 40
1.0
 10
2.8192583052
 20
268.1234607552
 30
0.0
 10
5.1128816083
 20
267.7001653693
 30
0.0
 10
9.8427180515
 20
267.0779338553
 30
0.0
 10
14.6072491034
 20
266.8735184213
 30
0.0
 10
17.0374086112
 20
266.8720184278
 30
0.0
  0
SPLINE
  5
32F
100
AcDbEntity
  8
0
100
AcDbSpline
 62
7
  6
CONTINUOUS
 70
0
 71
3
 72
9
 73
5
 74
0
 42
0.0000001
 43
0.0000001
 44
0.0000000001
 40
0.0
 40
0.0
 40
0.0
 40
0.0
 40
0.5080286254
 40
1.0
 40
1.0
 40
1.0
 40
1.0
 10
18.146589234
 20
266.6111868416
 30
0.0
 10
20.5848651874
 20
266.567149346
 30
0.0
 10
25.3901166957
 20
266.6847438772
 30
0.0
 10
30.1684555343
 20
267.217684242
 30
0.0
 10
32.4995620913
 20
267.595931198
 30
0.0
  0
SPLINE
  5
330
100
AcDbEntity
  8
0
100
AcDbSpline
 62
7
  6
CONTINUOUS
 70
0
 71
3
 72
9
 73
5
 74
0
 42
0.0000001
 43
0.0000001
 44
0.0000000001
 40
0.0
 40
0.0
 40
0.0
 40
0.0
 40
0.5275910001
 40
1.0
 40
1.0
 40
1.0
 40
1.0
 10
33.7779882453
 20
267.5219713162
 30
0.0
 10
35.9893490835
 20
267.8364676958
 30
0.0
 10
40.1567152734
 20
268.6219131079
 30
0.0
 10
44.2187883868
 20
269.8626704567
 30
0.0
 10
46.0806736458
 20
270.5929839549
 30
0.0
  0
SPLINE
  5
331
100
AcDbEntity
  8
0
100
AcDbSpline
 62
7
  6
CONTINUOUS
 70
0
 71
3
 72
10
 73
6
 74
0
 42
0.0000001
 43
0.0000001
 44
0.0000000001
 40
0.0
 40
0.0
 40
0.0
 40
0.0
 40
0.5492447417
 40
0.7870952484
 40
1.0
 40
1.0
 40
1.0
 40
1.0
 10
47.3337165385
 20
270.717155499
 30
0.0
 10
48.9980316048
 20
271.3145448664
 30
0.0
 10
51.3416037484
 20
272.3205693389
 30
0.0
 10
54.0798683902
 20
274.0230361475
 30
0.0
 10
55.2151383389
 20
274.9359215687
 30
0.0
 10
55.7131421545
 20
275.4069025847
 30
0.0
  0
SPLINE
  5
332
100
AcDbEntity
  8
0
100
AcDbSpline
 62
7
  6
CONTINUOUS
 70
0
 71
3
 72
11
 73
7
 74
0
 42
0.0000001
 43
0.0000001
 44
0.0000000001
 40
0.0
 40
0.0
 40
0.0
 40
0.0
 40
0.2893381288
 40
0.5471114768
 40
0.7804037131
 40
1.0
 40
1.0
 40
1.0
 40
1.0
 10
56.7500373638
 20
275.7103015628
 30
0.0
 10
57.2400537852
 20
276.1213822814
 30
0.0
 10
58.1183189094
 20
276.9609577657
 30
0.0
 10
59.1448411792
 20
278.3611202846
 30
0.0
 10
59.7802473243
 20
279.8140972704
 30
0.0
 10
59.9285763011
 20
280.819375096
 30
0.0
 10
59.9305116048
 20
281.304811614
 30
0.0
  0
SPLINE
  5
333
100
AcDbEntity
  8
0
100
AcDbSpline
 62
7
  6
CONTINUOUS
 70
0
 71
3
 72
12
 73
8
 74
0
 42
0.0000001
 43
0.0000001
 44
0.0000000001
 40
0.0
 40
0.0
 40
0.0
 40
0.0
 40
0.3199978982
 40
0.5956913098
 40
0.7153196787
 40
0.82237697
 40
1.0
 40
1.0
 40
1.0
 40
1.0
 10
36.6560416168
 20
288.7422712578
 30
0.0
 10
38.1059934702
 20
289.1309388017
 30
0.0
 10
40.7735224349
 20
289.9834978678
 30
0.0
 10
43.8281989177
 20
291.4054035715
 30
0.0
 10
45.8117459074
 20
292.6879385743
 30
0.0
 10
47.282695253
 20
293.8841641209
 30
0.0
 10
48.1673048871
 20
294.9268306333
 30
0.0
 10
48.5556914882
 20
295.6640250208
 30
0.0
  0
SPLINE
  5
334
100
AcDbEntity
  8
0
100
AcDbSpline
 62
7
  6
CONTINUOUS
 70
0
 71
3
 72
9
 73
5
 74
0
 42
0.0000001
 43
0.0000001
 44
0.0000000001
 40
0.0
 40
0.0
 40
0.0
 40
0.0
 40
0.2593479196
 40
1.0
 40
1.0
 40
1.0
 40
1.0
 10
48.5556914882
 20
295.6640250208
 30
0.0
 10
48.595624375
 20
295.739821405
 30
0.0
 10
48.7428222348
 20
296.0355631483
 30
0.0
 10
48.8618900322
 20
296.3455811081
 30
0.0
 10
48.9304613634
 20
296.5804402634
 30
0.0
  0
SPLINE
  5
335
100
AcDbEntity
  8
0
100
AcDbSpline
 62
7
  6
CONTINUOUS
 70
0
 71
3
 72
9
 73
5
 74
0
 42
0.0000001
 43
0.0000001
 44
0.0000000001
 40
0.0
 40
0.0
 40
0.0
 40
0.0
 40
0.2560227761
 40
1.0
 40
1.0
 40
1.0
 40
1.0
 10
48.9304613634
 20
296.5804402634
 30
0.0
 10
48.9575947199
 20
296.6733729378
 30
0.0
 10
49.0518084453
 20
297.039652845
 30
0.0
 10
49.0950416396
 20
297.4193422893
 30
0.0
 10
49.0953031153
 20
297.7006704664
 30
0.0
  0
SPLINE
  5
336
100
AcDbEntity
  8
0
100
AcDbSpline
 62
7
  6
CONTINUOUS
 70
0
 71
3
 72
9
 73
5
 74
0
 42
0.0000001
 43
0.0000001
 44
0.0000000001
 40
0.0
 40
0.0
 40
0.0
 40
0.0
 40
0.2466458374
 40
1.0
 40
1.0
 40
1.0
 40
1.0
 10
-8.8075866498
 20
297.7140866608
 30
0.0
 10
-8.8076539143
 20
297.6278360381
 30
0.0
 10
-8.7961226788
 20
297.2781821924
 30
0.0
 10
-8.7366735024
 20
296.9305148039
 30
0.0
 10
-8.6689338246
 20
296.6759290521
 30
0.0
  0
SPLINE
  5
337
100
AcDbEntity
  8
0
100
AcDbSpline
 62
7
  6
CONTINUOUS
 70
0
 71
3
 72
9
 73
5
 74
0
 42
0.0000001
 43
0.0000001
 44
0.0000000001
 40
0.0
 40
0.0
 40
0.0
 40
0.0
 40
0.2408306994
 40
1.0
 40
1.0
 40
1.0
 40
1.0
 10
-8.6689338246
 20
296.6759290521
 30
0.0
 10
-8.6456904823
 20
296.5885736947
 30
0.0
 10
-8.5379342678
 20
296.2288742007
 30
0.0
 10
-8.38578936
 20
295.8829694655
 30
0.0
 10
-8.2512975975
 20
295.6317544692
 30
0.0
  0
SPLINE
  5
338
100
AcDbEntity
  8
0
100
AcDbSpline
 62
7
  6
CONTINUOUS
 70
0
 71
3
 72
18
 73
14
 74
0
 42
0.0000001
 43
0.0000001
 44
0.0000000001
 40
0.0
 40
0.0
 40
0.0
 40
0.0
 40
0.0324268501
 40
0.0705415302
 40
0.1147415525
 40
0.1649904343
 40
0.2209648238
 40
0.2821477289
 40
0.4173398879
 40
0.5642300503
 40
0.7154174718
 40
0.8631585352
 40
1.0
 40
1.0
 40
1.0
 40
1.0
 10
-8.2512975975
 20
295.6317544692
 30
0.0
 10
-8.009542346
 20
295.1801837297
 30
0.0
 10
-7.3473877614
 20
294.2697827527
 30
0.0
 10
-6.0121826744
 20
293.0329900305
 30
0.0
 10
-4.275938622
 20
291.8511616084
 30
0.0
 10
-2.1659369095
 20
290.7497057496
 30
0.0
 10
0.2855403416
 20
289.749664465
 30
0.0
 10
4.0859785342
 20
288.536721939
 30
0.0
 10
9.4073455609
 20
287.422140288
 30
0.0
 10
16.2266208527
 20
286.7316673309
 30
0.0
 10
23.2797436935
 20
286.6949497576
 30
0.0
 10
30.1451596483
 20
287.3137037107
 30
0.0
 10
34.5682101749
 20
288.1826165929
 30
0.0
 10
36.6560416168
 20
288.7422712578
 30
0.0
  0
SPLINE
  5
339
100
AcDbEntity
  8
0
100
AcDbSpline
 62
7
  6
CONTINUOUS
 70
0
 71
3
 72
9
 73
5
 74
0
 42
0.0000001
 43
0.0000001
 44
0.0000000001
 40
0.0
 40
0.0
 40
0.0
 40
0.0
 40
0.5289693876
 40
1.0
 40
1.0
 40
1.0
 40
1.0
 10
-17.9909483324
 20
277.162425525
 30
0.0
 10
-18.0278195356
 20
277.2025647088
 30
0.0
 10
-18.0889070004
 20
277.2924020191
 30
0.0
 10
-18.0799553938
 20
277.4048941346
 30
0.0
 10
-18.0595737483
 20
277.4489408205
 30
0.0
  0
SPLINE
  5
33A
100
AcDbEntity
  8
0
100
AcDbSpline
 62
7
  6
CONTINUOUS
 70
0
 71
3
 72
11
 73
7
 74
0
 42
0.0000001
 43
0.0000001
 44
0.0000000001
 40
0.0
 40
0.0
 40
0.0
 40
0.0
 40
0.2251912134
 40
0.4612326596
 40
0.7173188961
 40
1.0
 40
1.0
 40
1.0
 40
1.0
 10
-20.3409805799
 20
282.7066764147
 30
0.0
 10
-20.340967442
 20
282.2800418061
 30
0.0
 10
-20.2310367715
 20
281.4028560983
 30
0.0
 10
-19.7463769499
 20
280.1218545481
 30
0.0
 10
-18.9544886705
 20
278.8759299916
 30
0.0
 10
-18.2669138382
 20
278.115446979
 30
0.0
 10
-17.8827777371
 20
277.7422779785
 30
0.0
  0
SPLINE
  5
33B
100
AcDbEntity
  8
0
100
AcDbSpline
 62
7
  6
CONTINUOUS
 70
0
 71
3
 72
10
 73
6
 74
0
 42
0.0000001
 43
0.0000001
 44
0.0000000001
 40
0.0
 40
0.0
 40
0.0
 40
0.0
 40
0.1789412213
 40
0.5205113219
 40
1.0
 40
1.0
 40
1.0
 40
1.0
 10
60.5934039071
 20
281.7412712528
 30
0.0
 10
60.5887787323
 20
281.701620108
 30
0.0
 10
60.5443451437
 20
281.5895397185
 30
0.0
 10
60.3668678996
 20
281.4413915141
 30
0.0
 10
60.1938556986
 20
281.3754025196
 30
0.0
 10
60.0905342209
 20
281.3477066309
 30
0.0
  0
SPLINE
  5
33C
100
AcDbEntity
  8
0
100
AcDbSpline
 62
7
  6
CONTINUOUS
 70
0
 71
3
 72
13
 73
9
 74
0
 42
0.0000001
 43
0.0000001
 44
0.0000000001
 40
0.0
 40
0.0
 40
0.0
 40
0.0
 40
0.2932051986
 40
0.5530415177
 40
0.6716098925
 40
0.7842646292
 40
0.8932288787
 40
1.0
 40
1.0
 40
1.0
 40
1.0
 10
0.2858360084
 20
308.9377766539
 30
0.0
 10
-1.7147176566
 20
308.4015172756
 30
0.0
 10
-5.4390012153
 20
307.1887573144
 30
0.0
 10
-9.7147285893
 20
305.0696030747
 30
0.0
 10
-12.5427335066
 20
303.0480635938
 30
0.0
 10
-14.3068538198
 20
301.4037294725
 30
0.0
 10
-15.736265417
 20
299.5628685389
 30
0.0
 10
-16.4299473598
 20
298.1909274188
 30
0.0
 10
-16.6915605565
 20
297.483529548
 30
0.0
  0
SPLINE
  5
33D
100
AcDbEntity
  8
0
100
AcDbSpline
 62
7
  6
CONTINUOUS
 70
0
 71
3
 72
9
 73
5
 74
0
 42
0.0000001
 43
0.0000001
 44
0.0000000001
 40
0.0
 40
0.0
 40
0.0
 40
0.0
 40
0.2524018092
 40
1.0
 40
1.0
 40
1.0
 40
1.0
 10
57.4205237945
 20
295.8840164153
 30
0.0
 10
57.3912653594
 20
296.0423037895
 30
0.0
 10
57.2595658043
 20
296.666438608
 30
0.0
 10
57.0651067151
 20
297.2770928581
 30
0.0
 10
56.8885474812
 20
297.7199758958
 30
0.0
  0
SPLINE
  5
33E
100
AcDbEntity
  8
0
100
AcDbSpline
 62
7
  6
CONTINUOUS
 70
0
 71
3
 72
18
 73
14
 74
0
 42
0.0000001
 43
0.0000001
 44
0.0000000001
 40
0.0
 40
0.0
 40
0.0
 40
0.0
 40
0.044288874
 40
0.0901317763
 40
0.1386263852
 40
0.1906634015
 40
0.2466651419
 40
0.3066727651
 40
0.4374101422
 40
0.5786001918
 40
0.7239716716
 40
0.8665987902
 40
1.0
 40
1.0
 40
1.0
 40
1.0
 10
56.5145571804
 20
298.5499991874
 30
0.0
 10
56.1154176517
 20
299.3429717669
 30
0.0
 10
55.1020271417
 20
300.8599662056
 30
0.0
 10
53.1248958459
 20
302.8308867195
 30
0.0
 10
50.7414520136
 20
304.5582210543
 30
0.0
 10
47.9911884407
 20
306.0809040294
 30
0.0
 10
44.8933692228
 20
307.4154456195
 30
0.0
 10
40.2016876164
 20
308.9945997297
 30
0.0
 10
33.6867101007
 20
310.4380327928
 30
0.0
 10
25.3579855747
 20
311.3451964067
 30
0.0
 10
16.7412490845
 20
311.4325969121
 30
0.0
 10
8.313815648
 20
310.6965907614
 30
0.0
 10
2.8686489483
 20
309.6301138231
 30
0.0
 10
0.2858360084
 20
308.9377766539
 30
0.0
  0
SPLINE
  5
33F
100
AcDbEntity
  8
0
100
AcDbSpline
 62
7
  6
CONTINUOUS
 70
0
 71
3
 72
9
 73
5
 74
0
 42
0.0000001
 43
0.0000001
 44
0.0000000001
 40
0.0
 40
0.0
 40
0.0
 40
0.0
 40
0.4274825894
 40
1.0
 40
1.0
 40
1.0
 40
1.0
 10
56.7500373638
 20
275.7103015628
 30
0.0
 10
56.6513503575
 20
275.6275117309
 30
0.0
 10
56.3723519552
 20
275.4951371934
 30
0.0
 10
56.0746212931
 20
275.4365250949
 30
0.0
 10
55.9026788712
 20
275.4224347797
 30
0.0
  0
SPLINE
  5
340
100
AcDbEntity
  8
0
100
AcDbSpline
 62
7
  6
CONTINUOUS
 70
0
 71
3
 72
9
 73
5
 74
0
 42
0.0000001
 43
0.0000001
 44
0.0000000001
 40
0.0
 40
0.0
 40
0.0
 40
0.0
 40
0.4698039579
 40
1.0
 40
1.0
 40
1.0
 40
1.0
 10
47.3337165385
 20
270.717155499
 30
0.0
 10
47.1749731342
 20
270.6601760745
 30
0.0
 10
46.8220857955
 20
270.5814191628
 30
0.0
 10
46.4607020079
 20
270.5646339042
 30
0.0
 10
46.2708888805
 20
270.5787939633
 30
0.0
  0
SPLINE
  5
341
100
AcDbEntity
  8
0
100
AcDbSpline
 62
7
  6
CONTINUOUS
 70
0
 71
3
 72
9
 73
5
 74
0
 42
0.0000001
 43
0.0000001
 44
0.0000000001
 40
0.0
 40
0.0
 40
0.0
 40
0.0
 40
0.5080900174
 40
1.0
 40
1.0
 40
1.0
 40
1.0
 10
33.7779882453
 20
267.5219713162
 30
0.0
 10
33.5899327263
 20
267.4952263053
 30
0.0
 10
33.2157396554
 20
267.4734587428
 30
0.0
 10
32.8395725418
 20
267.5082659548
 30
0.0
 10
32.6614972982
 20
267.5541793173
 30
0.0
  0
SPLINE
  5
342
100
AcDbEntity
  8
0
100
AcDbSpline
 62
7
  6
CONTINUOUS
 70
0
 71
3
 72
10
 73
6
 74
0
 42
0.0000001
 43
0.0000001
 44
0.0000000001
 40
0.0
 40
0.0
 40
0.0
 40
0.0
 40
0.5466297063
 40
0.7921437393
 40
1.0
 40
1.0
 40
1.0
 40
1.0
 10
18.146589234
 20
266.6111868416
 30
0.0
 10
17.9594740571
 20
266.6145662771
 30
0.0
 10
17.6873502905
 20
266.6375885056
 30
0.0
 10
17.3540189799
 20
266.7166113003
 30
0.0
 10
17.2080327772
 20
266.7734691921
 30
0.0
 10
17.1464106235
 20
266.8090610033
 30
0.0
  0
SPLINE
  5
343
100
AcDbEntity
  8
0
100
AcDbSpline
 62
7
  6
CONTINUOUS
 70
0
 71
3
 72
10
 73
6
 74
0
 42
0.0000001
 43
0.0000001
 44
0.0000000001
 40
0.0
 40
0.0
 40
0.0
 40
0.0
 40
0.5883268757
 40
0.821424753
 40
1.0
 40
1.0
 40
1.0
 40
1.0
 10
2.8192583052
 20
268.1234607552
 30
0.0
 10
2.6610110933
 20
268.1526657384
 30
0.0
 10
2.4399449671
 20
268.2091153443
 30
0.0
 10
2.1972472972
 20
268.3347196483
 30
0.0
 10
2.1105098217
 20
268.4137067279
 30
0.0
 10
2.087660158
 20
268.4568765302
 30
0.0
  0
SPLINE
  5
344
100
AcDbEntity
  8
0
100
AcDbSpline
 62
7
  6
CONTINUOUS
 70
0
 71
3
 72
11
 73
7
 74
0
 42
0.0000001
 43
0.0000001
 44
0.0000000001
 40
0.0
 40
0.0
 40
0.0
 40
0.0
 40
0.3265748542
 40
0.5959551648
 40
0.8097272167
 40
1.0
 40
1.0
 40
1.0
 40
1.0
 10
-9.8705573499
 20
271.8285630625
 30
0.0
 10
-9.9304978446
 20
271.8544175462
 30
0.0
 10
-10.0374023265
 20
271.908638911
 30
0.0
 10
-10.166008779
 20
272.0080509514
 30
0.0
 10
-10.2453158994
 20
272.123693327
 30
0.0
 10
-10.2387052695
 20
272.2124974823
 30
0.0
 10
-10.2221958479
 20
272.2467609213
 30
0.0
  0
SPLINE
  5
345
100
AcDbEntity
  8
0
100
AcDbSpline
 62
7
  6
CONTINUOUS
 70
0
 71
3
 72
9
 73
5
 74
0
 42
0.0000001
 43
0.0000001
 44
0.0000000001
 40
0.0
 40
0.0
 40
0.0
 40
0.0
 40
0.2122994935
 40
1.0
 40
1.0
 40
1.0
 40
1.0
 10
-17.937644194
 20
292.8608356967
 30
0.0
 10
-17.8513652572
 20
292.7734647635
 30
0.0
 10
-17.4475740361
 20
292.3593413266
 30
0.0
 10
-17.0511089762
 20
291.9381520732
 30
0.0
 10
-16.7400242082
 20
291.6052943191
 30
0.0
  0
SPLINE
  5
346
100
AcDbEntity
  8
0
100
AcDbSpline
 62
7
  6
CONTINUOUS
 70
0
 71
3
 72
9
 73
5
 74
0
 42
0.0000001
 43
0.0000001
 44
0.0000000001
 40
0.0
 40
0.0
 40
0.0
 40
0.0
 40
0.4980928422
 40
1.0
 40
1.0
 40
1.0
 40
1.0
 10
-16.7314461621
 20
291.5956863275
 30
0.0
 10
-16.7229084493
 20
291.6499994992
 30
0.0
 10
-16.666059987
 20
291.7546090292
 30
0.0
 10
-16.5595562273
 20
291.8071475105
 30
0.0
 10
-16.5046081674
 20
291.8142184073
 30
0.0
  0
SPLINE
  5
347
100
AcDbEntity
  8
0
100
AcDbSpline
 62
7
  6
CONTINUOUS
 70
0
 71
3
 72
13
 73
9
 74
0
 42
0.0000001
 43
0.0000001
 44
0.0000000001
 40
0.0
 40
0.0
 40
0.0
 40
0.0
 40
0.1009215133
 40
0.1788010392
 40
0.3154163137
 40
0.5598645645
 40
0.7857972668
 40
1.0
 40
1.0
 40
1.0
 40
1.0
 10
-16.0134548275
 20
290.89605469
 30
0.0
 10
-16.0088363153
 20
290.9223201104
 30
0.0
 10
-16.0192243631
 20
290.9705385232
 30
0.0
 10
-16.0442535813
 20
291.0493627518
 30
0.0
 10
-16.0916989305
 20
291.1615248073
 30
0.0
 10
-16.1632712344
 20
291.3049307711
 30
0.0
 10
-16.2493980643
 20
291.4640872814
 30
0.0
 10
-16.3063668564
 20
291.5654752454
 30
0.0
 10
-16.3342869514
 20
291.6147129036
 30
0.0
  0
SPLINE
  5
348
100
AcDbEntity
  8
0
100
AcDbSpline
 62
7
  6
CONTINUOUS
 70
0
 71
3
 72
10
 73
6
 74
0
 42
0.0000001
 43
0.0000001
 44
0.0000000001
 40
0.0
 40
0.0
 40
0.0
 40
0.0
 40
0.4497623321
 40
0.711705313
 40
1.0
 40
1.0
 40
1.0
 40
1.0
 10
-16.3342869514
 20
291.6147129036
 30
0.0
 10
-15.7706713871
 20
290.6207652016
 30
0.0
 10
-14.5525154284
 20
289.2315682148
 30
0.0
 10
-12.5616986721
 20
287.6544762351
 30
0.0
 10
-11.3784214249
 20
286.9033891251
 30
0.0
 10
-10.7441865242
 20
286.5370845587
 30
0.0
  0
SPLINE
  5
349
100
AcDbEntity
  8
0
100
AcDbSpline
 62
7
  6
CONTINUOUS
 70
0
 71
3
 72
11
 73
7
 74
0
 42
0.0000001
 43
0.0000001
 44
0.0000000001
 40
0.0
 40
0.0
 40
0.0
 40
0.0
 40
0.3274963023
 40
0.6021692261
 40
0.8245581073
 40
1.0
 40
1.0
 40
1.0
 40
1.0
 10
-10.7443819167
 20
286.5372365364
 30
0.0
 10
-11.3163851485
 20
286.867615518
 30
0.0
 10
-12.38767204
 20
287.4426375571
 30
0.0
 10
-13.922474536
 20
288.0926593509
 30
0.0
 10
-15.233766579
 20
288.4553289996
 30
0.0
 10
-16.0458399916
 20
288.509576202
 30
0.0
 10
-16.3975202483
 20
288.4703092373
 30
0.0
  0
SPLINE
  5
34A
100
AcDbEntity
  8
0
100
AcDbSpline
 62
7
  6
CONTINUOUS
 70
0
 71
3
 72
9
 73
5
 74
0
 42
0.0000001
 43
0.0000001
 44
0.0000000001
 40
0.0
 40
0.0
 40
0.0
 40
0.0
 40
0.2661843674
 40
1.0
 40
1.0
 40
1.0
 40
1.0
 10
-10.99080282
 20
286.2818176035
 30
0.0
 10
-10.9876121645
 20
286.3096480901
 30
0.0
 10
-10.9622593691
 20
286.4112675786
 30
0.0
 10
-10.8846232142
 20
286.5072020073
 30
0.0
 10
-10.8114472594
 20
286.5318811038
 30
0.0
  0
SPLINE
  5
34B
100
AcDbEntity
  8
0
100
AcDbSpline
 62
7
  6
CONTINUOUS
 70
0
 71
3
 72
9
 73
5
 74
0
 42
0.0000001
 43
0.0000001
 44
0.0000000001
 40
0.0
 40
0.0
 40
0.0
 40
0.0
 40
0.2678997619
 40
1.0
 40
1.0
 40
1.0
 40
1.0
 10
-9.9216204315
 20
283.2571617882
 30
0.0
 10
-10.311215862
 20
283.1738198271
 30
0.0
 10
-11.7536352585
 20
282.8136377008
 30
0.0
 10
-13.1490998243
 20
282.2384274724
 30
0.0
 10
-14.0825057431
 20
281.6779534293
 30
0.0
  0
SPLINE
  5
34C
100
AcDbEntity
  8
0
100
AcDbSpline
 62
7
  6
CONTINUOUS
 70
0
 71
3
 72
11
 73
7
 74
0
 42
0.0000001
 43
0.0000001
 44
0.0000000001
 40
0.0
 40
0.0
 40
0.0
 40
0.0
 40
0.1994489434
 40
0.4301261746
 40
0.6978513509
 40
1.0
 40
1.0
 40
1.0
 40
1.0
 10
-14.5040784433
 20
281.4248490275
 30
0.0
 10
-13.6814698258
 20
281.9186691567
 30
0.0
 10
-11.7418251961
 20
282.7159595424
 30
0.0
 10
-8.4065166863
 20
283.2459318476
 30
0.0
 10
-4.5408837316
 20
283.1933175081
 30
0.0
 10
-1.8234306951
 20
282.7823489425
 30
0.0
 10
-0.3973058965
 20
282.5016512192
 30
0.0
  0
SPLINE
  5
34D
100
AcDbEntity
  8
0
100
AcDbSpline
 62
7
  6
CONTINUOUS
 70
0
 71
3
 72
9
 73
5
 74
0
 42
0.0000001
 43
0.0000001
 44
0.0000000001
 40
0.0
 40
0.0
 40
0.0
 40
0.0
 40
0.2328223786
 40
1.0
 40
1.0
 40
1.0
 40
1.0
 10
-13.6649782436
 20
287.2341658723
 30
0.0
 10
-13.4532663309
 20
287.1730433217
 30
0.0
 10
-12.5485773726
 20
286.8944564085
 30
0.0
 10
-11.6619741581
 20
286.559230177
 30
0.0
 10
-10.9910211862
 20
286.2816427662
 30
0.0
  0
SPLINE
  5
34E
100
AcDbEntity
  8
0
100
AcDbSpline
 62
7
  6
CONTINUOUS
 70
0
 71
3
 72
9
 73
5
 74
0
 42
0.0000001
 43
0.0000001
 44
0.0000000001
 40
0.0
 40
0.0
 40
0.0
 40
0.0
 40
0.2661586098
 40
1.0
 40
1.0
 40
1.0
 40
1.0
 10
-10.9733946915
 20
286.2740905605
 30
0.0
 10
-10.970226469
 20
286.3019419874
 30
0.0
 10
-10.9449253658
 20
286.403656244
 30
0.0
 10
-10.8672566578
 20
286.4997097367
 30
0.0
 10
-10.7940258957
 20
286.5244157313
 30
0.0
  0
SPLINE
  5
34F
100
AcDbEntity
  8
0
100
AcDbSpline
 62
7
  6
CONTINUOUS
 70
0
 71
3
 72
14
 73
10
 74
0
 42
0.0000001
 43
0.0000001
 44
0.0000000001
 40
0.0
 40
0.0
 40
0.0
 40
0.0
 40
0.2343552071
 40
0.4743278073
 40
0.5970776732
 40
0.7225251201
 40
0.8526544571
 40
0.9217680517
 40
1.0
 40
1.0
 40
1.0
 40
1.0
 10
-10.4423113166
 20
286.3653941534
 30
0.0
 10
-10.3695922592
 20
286.324643105
 30
0.0
 10
-10.2231787428
 20
286.2407435879
 30
0.0
 10
-10.0418435212
 20
286.1302482319
 30
0.0
 10
-9.8966472127
 20
286.0346709294
 30
0.0
 10
-9.7874113924
 20
285.9569275434
 30
0.0
 10
-9.6958551837
 20
285.8835178112
 30
0.0
 10
-9.6294510589
 20
285.8151624478
 30
0.0
 10
-9.5934078351
 20
285.7658740947
 30
0.0
 10
-9.5974005455
 20
285.7383353374
 30
0.0
  0
SPLINE
  5
350
100
AcDbEntity
  8
0
100
AcDbSpline
 62
7
  6
CONTINUOUS
 70
0
 71
3
 72
9
 73
5
 74
0
 42
0.0000001
 43
0.0000001
 44
0.0000000001
 40
0.0
 40
0.0
 40
0.0
 40
0.0
 40
0.4662237959
 40
1.0
 40
1.0
 40
1.0
 40
1.0
 10
-10.4423113166
 20
286.3653941534
 30
0.0
 10
-8.9738763558
 20
285.5426452146
 30
0.0
 10
-5.6645468987
 20
284.0617825867
 30
0.0
 10
-2.2074627744
 20
282.9978578528
 30
0.0
 10
-0.3413940751
 20
282.51670338
 30
0.0
  0
SPLINE
  5
351
100
AcDbEntity
  8
0
100
AcDbSpline
 62
7
  6
CONTINUOUS
 70
0
 71
3
 72
9
 73
5
 74
0
 42
0.0000001
 43
0.0000001
 44
0.0000000001
 40
0.0
 40
0.0
 40
0.0
 40
0.0
 40
0.5453894284
 40
1.0
 40
1.0
 40
1.0
 40
1.0
 10
-0.3410849624
 20
282.5166455825
 30
0.0
 10
-2.0415930522
 20
282.955079772
 30
0.0
 10
-5.2211684269
 20
283.5478074534
 30
0.0
 10
-8.4783290787
 20
283.5014338647
 30
0.0
 10
-9.9216204315
 20
283.2571617882
 30
0.0
  0
SPLINE
  5
352
100
AcDbEntity
  8
0
100
AcDbSpline
 62
7
  6
CONTINUOUS
 70
0
 71
3
 72
9
 73
5
 74
0
 42
0.0000001
 43
0.0000001
 44
0.0000000001
 40
0.0
 40
0.0
 40
0.0
 40
0.0
 40
0.5642166689
 40
1.0
 40
1.0
 40
1.0
 40
1.0
 10
-0.5018967625
 20
282.2290775685
 30
0.0
 10
-0.4987765343
 20
282.2847641803
 30
0.0
 10
-0.4785982061
 20
282.3813254235
 30
0.0
 10
-0.4313455663
 20
282.4749811394
 30
0.0
 10
-0.3973084813
 20
282.5013856174
 30
0.0
  0
SPLINE
  5
353
100
AcDbEntity
  8
0
100
AcDbSpline
 62
7
  6
CONTINUOUS
 70
0
 71
3
 72
9
 73
5
 74
0
 42
0.0000001
 43
0.0000001
 44
0.0000000001
 40
0.0
 40
0.0
 40
0.0
 40
0.0
 40
0.4867190277
 40
1.0
 40
1.0
 40
1.0
 40
1.0
 10
-17.9003535929
 20
277.3417518286
 30
0.0
 10
-17.5176185943
 20
278.078766912
 30
0.0
 10
-16.5065893963
 20
279.4890887183
 30
0.0
 10
-15.1169224487
 20
280.525234201
 30
0.0
 10
-14.3543855423
 20
280.9559835282
 30
0.0
  0
SPLINE
  5
354
100
AcDbEntity
  8
0
100
AcDbSpline
 62
7
  6
CONTINUOUS
 70
0
 71
3
 72
10
 73
6
 74
0
 42
0.0000001
 43
0.0000001
 44
0.0000000001
 40
0.0
 40
0.0
 40
0.0
 40
0.0
 40
0.4457241566
 40
0.709030727
 40
1.0
 40
1.0
 40
1.0
 40
1.0
 10
-14.3543855423
 20
280.9559835282
 30
0.0
 10
-13.01301365
 20
281.7137108397
 30
0.0
 10
-10.6101609016
 20
282.4489466124
 30
0.0
 10
-7.1701870704
 20
282.7822662453
 30
0.0
 10
-5.2487220004
 20
282.7458010105
 30
0.0
 10
-4.2452279382
 20
282.6792038124
 30
0.0
  0
SPLINE
  5
355
100
AcDbEntity
  8
0
100
AcDbSpline
 62
7
  6
CONTINUOUS
 70
0
 71
3
 72
9
 73
5
 74
0
 42
0.0000001
 43
0.0000001
 44
0.0000000001
 40
0.0
 40
0.0
 40
0.0
 40
0.0
 40
0.242185856
 40
1.0
 40
1.0
 40
1.0
 40
1.0
 10
-4.2452258984
 20
282.6791645492
 30
0.0
 10
-3.9414556038
 20
282.6590056996
 30
0.0
 10
-2.6883901686
 20
282.5577407046
 30
0.0
 10
-1.4411611595
 20
282.3884676634
 30
0.0
 10
-0.5020148495
 20
282.2288966311
 30
0.0
  0
SPLINE
  5
356
100
AcDbEntity
  8
0
100
AcDbSpline
 62
7
  6
CONTINUOUS
 70
0
 71
3
 72
9
 73
5
 74
0
 42
0.0000001
 43
0.0000001
 44
0.0000000001
 40
0.0
 40
0.0
 40
0.0
 40
0.0
 40
0.2612211544
 40
1.0
 40
1.0
 40
1.0
 40
1.0
 10
1.1314803763
 20
279.4159656969
 30
0.0
 10
0.6075174551
 20
279.2536586906
 30
0.0
 10
-1.3820757923
 20
278.5823199481
 30
0.0
 10
-3.3048441163
 20
277.7039115566
 30
0.0
 10
-4.6478930179
 20
276.9274875171
 30
0.0
  0
SPLINE
  5
357
100
AcDbEntity
  8
0
100
AcDbSpline
 62
7
  6
CONTINUOUS
 70
0
 71
3
 72
9
 73
5
 74
0
 42
0.0000001
 43
0.0000001
 44
0.0000000001
 40
0.0
 40
0.0
 40
0.0
 40
0.0
 40
0.5173517824
 40
1.0
 40
1.0
 40
1.0
 40
1.0
 10
-4.6478930179
 20
276.9274875171
 30
0.0
 10
-5.7276914176
 20
276.3032500568
 30
0.0
 10
-7.7265367231
 20
274.9326296693
 30
0.0
 10
-9.4481980594
 20
273.221265061
 30
0.0
 10
-10.1861328863
 20
272.3216056436
 30
0.0
  0
SPLINE
  5
358
100
AcDbEntity
  8
0
100
AcDbSpline
 62
7
  6
CONTINUOUS
 70
0
 71
3
 72
9
 73
5
 74
0
 42
0.0000001
 43
0.0000001
 44
0.0000000001
 40
0.0
 40
0.0
 40
0.0
 40
0.0
 40
0.5641505928
 40
1.0
 40
1.0
 40
1.0
 40
1.0
 10
-0.4780247195
 20
282.2244575929
 30
0.0
 10
-0.4749432342
 20
282.2802099877
 30
0.0
 10
-0.4547830123
 20
282.3769028282
 30
0.0
 10
-0.4075094696
 20
282.4707022999
 30
0.0
 10
-0.3734289861
 20
282.4971497962
 30
0.0
  0
SPLINE
  5
359
100
AcDbEntity
  8
0
100
AcDbSpline
 62
7
  6
CONTINUOUS
 70
0
 71
3
 72
17
 73
13
 74
0
 42
0.0000001
 43
0.0000001
 44
0.0000000001
 40
0.0
 40
0.0
 40
0.0
 40
0.0
 40
0.2443257875
 40
0.3673538812
 40
0.4910353946
 40
0.6154835121
 40
0.7409263653
 40
0.8041833581
 40
0.8679981332
 40
0.9328140671
 40
0.9660961513
 40
1.0
 40
1.0
 40
1.0
 40
1.0
 10
0.1059131409
 20
282.4031820688
 30
0.0
 10
0.2120811112
 20
282.3766430457
 30
0.0
 10
0.371371309
 20
282.3353489162
 30
0.0
 10
0.5832127235
 20
282.27620034
 30
0.0
 10
0.7426071559
 20
282.2289497548
 30
0.0
 10
0.9019912103
 20
282.17792862
 30
0.0
 10
1.0341776073
 20
282.1310087931
 30
0.0
 10
1.1391527756
 20
282.0886035008
 30
0.0
 10
1.2171666966
 20
282.0531359393
 30
0.0
 10
1.2814907932
 20
282.0173779395
 30
0.0
 10
1.3273284091
 20
281.9826569208
 30
0.0
 10
1.347933515
 20
281.9544400785
 30
0.0
 10
1.3464898206
 20
281.9393231597
 30
0.0
  0
SPLINE
  5
35A
100
AcDbEntity
  8
0
100
AcDbSpline
 62
7
  6
CONTINUOUS
 70
0
 71
3
 72
9
 73
5
 74
0
 42
0.0000001
 43
0.0000001
 44
0.0000000001
 40
0.0
 40
0.0
 40
0.0
 40
0.0
 40
0.4845407513
 40
1.0
 40
1.0
 40
1.0
 40
1.0
 10
0.1059131409
 20
282.4031820688
 30
0.0
 10
2.1812204857
 20
281.8845486337
 30
0.0
 10
6.519629933
 20
281.030432475
 30
0.0
 10
10.9117304661
 20
280.5377621107
 30
0.0
 10
13.1810518066
 20
280.3684501059
 30
0.0
  0
SPLINE
  5
35B
100
AcDbEntity
  8
0
100
AcDbSpline
 62
7
  6
CONTINUOUS
 70
0
 71
3
 72
9
 73
5
 74
0
 42
0.0000001
 43
0.0000001
 44
0.0000000001
 40
0.0
 40
0.0
 40
0.0
 40
0.0
 40
0.5198625691
 40
1.0
 40
1.0
 40
1.0
 40
1.0
 10
13.1814223051
 20
280.3684085675
 30
0.0
 10
11.0856910012
 20
280.5247373364
 30
0.0
 10
7.0262383433
 20
280.5384369964
 30
0.0
 10
3.010398936
 20
279.9027994775
 30
0.0
 10
1.1314803763
 20
279.4159656969
 30
0.0
  0
SPLINE
  5
35C
100
AcDbEntity
  8
0
100
AcDbSpline
 62
7
  6
CONTINUOUS
 70
0
 71
3
 72
9
 73
5
 74
0
 42
0.0000001
 43
0.0000001
 44
0.0000000001
 40
0.0
 40
0.0
 40
0.0
 40
0.0
 40
0.5908926297
 40
1.0
 40
1.0
 40
1.0
 40
1.0
 10
13.1301430543
 20
280.0642628069
 30
0.0
 10
13.1296160969
 20
280.1198226564
 30
0.0
 10
13.1320578364
 20
280.2136682782
 30
0.0
 10
13.1366737011
 20
280.3080656992
 30
0.0
 10
13.1440392471
 20
280.3458228439
 30
0.0
  0
SPLINE
  5
35D
100
AcDbEntity
  8
0
100
AcDbSpline
 62
7
  6
CONTINUOUS
 70
0
 71
3
 72
9
 73
5
 74
0
 42
0.0000001
 43
0.0000001
 44
0.0000000001
 40
0.0
 40
0.0
 40
0.0
 40
0.0
 40
0.2545457156
 40
1.0
 40
1.0
 40
1.0
 40
1.0
 10
15.0790438087
 20
277.5315055002
 30
0.0
 10
14.5206717021
 20
277.2825189952
 30
0.0
 10
12.3460915672
 20
276.2624803471
 30
0.0
 10
10.2492521741
 20
275.0749019933
 30
0.0
 10
8.7505205977
 20
274.0953733686
 30
0.0
  0
SPLINE
  5
35E
100
AcDbEntity
  8
0
100
AcDbSpline
 62
7
  6
CONTINUOUS
 70
0
 71
3
 72
9
 73
5
 74
0
 42
0.0000001
 43
0.0000001
 44
0.0000000001
 40
0.0
 40
0.0
 40
0.0
 40
0.0
 40
0.2602438175
 40
1.0
 40
1.0
 40
1.0
 40
1.0
 10
8.7505205977
 20
274.0953733686
 30
0.0
 10
8.1171578709
 20
273.6814253805
 30
0.0
 10
5.7273724357
 20
272.0257306015
 30
0.0
 10
3.5164863361
 20
270.1030641637
 30
0.0
 10
2.0481859671
 20
268.5314542644
 30
0.0
  0
SPLINE
  5
35F
100
AcDbEntity
  8
0
100
AcDbSpline
 62
7
  6
CONTINUOUS
 70
0
 71
3
 72
11
 73
7
 74
0
 42
0.0000001
 43
0.0000001
 44
0.0000000001
 40
0.0
 40
0.0
 40
0.0
 40
0.0
 40
0.212144772
 40
0.4482132933
 40
0.7120345307
 40
1.0
 40
1.0
 40
1.0
 40
1.0
 10
-9.87055293
 20
271.828562342
 30
0.0
 10
-8.8994564455
 20
272.9398525827
 30
0.0
 10
-6.5277845474
 20
275.0179894313
 30
0.0
 10
-2.1512604635
 20
277.4032354719
 30
0.0
 10
3.084166582
 20
279.1110677239
 30
0.0
 10
6.8920953758
 20
279.7126861159
 30
0.0
 10
8.8875480841
 20
279.8893303575
 30
0.0
  0
SPLINE
  5
360
100
AcDbEntity
  8
0
100
AcDbSpline
 62
7
  6
CONTINUOUS
 70
0
 71
3
 72
9
 73
5
 74
0
 42
0.0000001
 43
0.0000001
 44
0.0000000001
 40
0.0
 40
0.0
 40
0.0
 40
0.0
 40
0.5908215871
 40
1.0
 40
1.0
 40
1.0
 40
1.0
 10
13.1568724582
 20
280.0637267995
 30
0.0
 10
13.1563397195
 20
280.1193309807
 30
0.0
 10
13.1587782861
 20
280.2132631053
 30
0.0
 10
13.1633924703
 20
280.3077475704
 30
0.0
 10
13.1707636214
 20
280.3455464599
 30
0.0
  0
SPLINE
  5
361
100
AcDbEntity
  8
0
100
AcDbSpline
 62
7
  6
CONTINUOUS
 70
0
 71
3
 72
17
 73
13
 74
0
 42
0.0000001
 43
0.0000001
 44
0.0000000001
 40
0.0
 40
0.0
 40
0.0
 40
0.0
 40
0.0304195825
 40
0.0618989451
 40
0.1248030876
 40
0.1876363543
 40
0.2503973273
 40
0.375740639
 40
0.5008997705
 40
0.6258968602
 40
0.7507431814
 40
1.0
 40
1.0
 40
1.0
 40
1.0
 10
15.1521149292
 20
280.0774392505
 30
0.0
 10
15.1525931423
 20
280.0925474178
 30
0.0
 10
15.125918246
 20
280.1183411836
 30
0.0
 10
15.07214617
 20
280.1442548435
 30
0.0
 10
14.9966324723
 20
280.169288627
 30
0.0
 10
14.9059722503
 20
280.1913359237
 30
0.0
 10
14.7835941484
 20
280.2160271066
 30
0.0
 10
14.6298898709
 20
280.2405621158
 30
0.0
 10
14.444824882
 20
280.2646049445
 30
0.0
 10
14.2595832497
 20
280.28487243
 30
0.0
 10
14.0126678011
 20
280.3081903179
 30
0.0
 10
13.8273056021
 20
280.3224570008
 30
0.0
 10
13.7037402549
 20
280.3309620689
 30
0.0
  0
SPLINE
  5
362
100
AcDbEntity
  8
0
100
AcDbSpline
 62
7
  6
CONTINUOUS
 70
0
 71
3
 72
9
 73
5
 74
0
 42
0.0000001
 43
0.0000001
 44
0.0000000001
 40
0.0
 40
0.0
 40
0.0
 40
0.0
 40
0.5011186003
 40
1.0
 40
1.0
 40
1.0
 40
1.0
 10
27.7647995518
 20
280.4199615517
 30
0.0
 10
25.5935079333
 20
280.2420437821
 30
0.0
 10
21.282368693
 20
279.5645043031
 30
0.0
 10
17.1062677712
 20
278.3023764147
 30
0.0
 10
15.0790438087
 20
277.5315055002
 30
0.0
  0
LINE
  5
363
100
AcDbEntity
  8
0
100
AcDbLine
 62
7
  6
CONTINUOUS
 10
27.7769730491
 20
280.3969621987
 11
27.7510508922
 21
280.3936184426
  0
SPLINE
  5
364
100
AcDbEntity
  8
0
100
AcDbSpline
 62
7
  6
CONTINUOUS
 70
0
 71
3
 72
9
 73
5
 74
0
 42
0.0000001
 43
0.0000001
 44
0.0000000001
 40
0.0
 40
0.0
 40
0.0
 40
0.0
 40
0.5769563435
 40
1.0
 40
1.0
 40
1.0
 40
1.0
 10
27.8299577259
 20
280.1168865248
 30
0.0
 10
27.8258530943
 20
280.1724494372
 30
0.0
 10
27.8085657217
 20
280.266700712
 30
0.0
 10
27.7771656936
 20
280.3619463953
 30
0.0
 10
27.751047519
 20
280.3933580817
 30
0.0
  0
SPLINE
  5
365
100
AcDbEntity
  8
0
100
AcDbSpline
 62
7
  6
CONTINUOUS
 70
0
 71
3
 72
11
 73
7
 74
0
 42
0.0000001
 43
0.0000001
 44
0.0000000001
 40
0.0
 40
0.0
 40
0.0
 40
0.0
 40
0.2292049154
 40
0.4759711308
 40
0.7360237387
 40
1.0
 40
1.0
 40
1.0
 40
1.0
 10
2.8192653321
 20
268.1234609306
 30
0.0
 10
4.1212841222
 20
269.410353542
 30
0.0
 10
7.0589994308
 20
271.8509790458
 30
0.0
 10
12.0710612096
 20
274.9525422289
 30
0.0
 10
17.6844871191
 20
277.5171802859
 30
0.0
 10
21.6873189701
 20
278.7829327906
 30
0.0
 10
23.733993182
 20
279.2893169442
 30
0.0
  0
SPLINE
  5
366
100
AcDbEntity
  8
0
100
AcDbSpline
 62
7
  6
CONTINUOUS
 70
0
 71
3
 72
9
 73
5
 74
0
 42
0.0000001
 43
0.0000001
 44
0.0000000001
 40
0.0
 40
0.0
 40
0.0
 40
0.0
 40
0.5769000413
 40
1.0
 40
1.0
 40
1.0
 40
1.0
 10
27.8554548474
 20
280.1204381977
 30
0.0
 10
27.8513658988
 20
280.1760466468
 30
0.0
 10
27.8340813541
 20
280.2703856309
 30
0.0
 10
27.8026733131
 20
280.3657247514
 30
0.0
 10
27.7765318165
 20
280.3971715185
 30
0.0
  0
SPLINE
  5
367
100
AcDbEntity
  8
0
100
AcDbSpline
 62
7
  6
CONTINUOUS
 70
0
 71
3
 72
9
 73
5
 74
0
 42
0.0000001
 43
0.0000001
 44
0.0000000001
 40
0.0
 40
0.0
 40
0.0
 40
0.0
 40
0.2407935178
 40
1.0
 40
1.0
 40
1.0
 40
1.0
 10
40.9903607022
 20
282.6101649604
 30
0.0
 10
40.5737736317
 20
282.4960440133
 30
0.0
 10
38.8520181663
 20
281.9919786498
 30
0.0
 10
37.1639986986
 20
281.3752788681
 30
0.0
 10
35.9044969633
 20
280.8572708577
 30
0.0
  0
SPLINE
  5
368
100
AcDbEntity
  8
0
100
AcDbSpline
 62
7
  6
CONTINUOUS
 70
0
 71
3
 72
9
 73
5
 74
0
 42
0.0000001
 43
0.0000001
 44
0.0000000001
 40
0.0
 40
0.0
 40
0.0
 40
0.0
 40
0.2453604646
 40
1.0
 40
1.0
 40
1.0
 40
1.0
 10
35.525652037
 20
280.6996682489
 30
0.0
 10
35.0445694245
 20
280.4972638378
 30
0.0
 10
33.0964924211
 20
279.6424721012
 30
0.0
 10
31.1985225027
 20
278.6745810645
 30
0.0
 10
29.7976845809
 20
277.8906759335
 30
0.0
  0
SPLINE
  5
369
100
AcDbEntity
  8
0
100
AcDbSpline
 62
7
  6
CONTINUOUS
 70
0
 71
3
 72
16
 73
12
 74
0
 42
0.0000001
 43
0.0000001
 44
0.0000000001
 40
0.0
 40
0.0
 40
0.0
 40
0.0
 40
0.0582559252
 40
0.120021923
 40
0.1821790494
 40
0.2445477271
 40
0.3696897218
 40
0.4952286842
 40
0.6210705934
 40
0.7471659685
 40
1.0
 40
1.0
 40
1.0
 40
1.0
 10
29.7176875178
 20
280.4360676367
 30
0.0
 10
29.7167032513
 20
280.4642923068
 30
0.0
 10
29.6407150463
 20
280.4900244034
 30
0.0
 10
29.5622908994
 20
280.5028888198
 30
0.0
 10
29.4698927761
 20
280.5115299096
 30
0.0
 10
29.3497561745
 20
280.5169330883
 30
0.0
 10
29.1975518459
 20
280.5176700846
 30
0.0
 10
29.0151935893
 20
280.5128937298
 30
0.0
 10
28.8323521433
 20
280.5043587569
 30
0.0
 10
28.5881182427
 20
280.489230853
 30
0.0
 10
28.4049764389
 20
280.474649718
 30
0.0
 10
28.2828749569
 20
280.4639300438
 30
0.0
  0
SPLINE
  5
36A
100
AcDbEntity
  8
0
100
AcDbSpline
 62
7
  6
CONTINUOUS
 70
0
 71
3
 72
9
 73
5
 74
0
 42
0.0000001
 43
0.0000001
 44
0.0000000001
 40
0.0
 40
0.0
 40
0.0
 40
0.0
 40
0.2552753337
 40
1.0
 40
1.0
 40
1.0
 40
1.0
 10
28.2828749569
 20
280.4639300438
 30
0.0
 10
28.925392008
 20
280.5203382091
 30
0.0
 10
31.4398268666
 20
280.7686338518
 30
0.0
 10
33.9437943014
 20
281.126773217
 30
0.0
 10
35.7952192749
 20
281.4626771399
 30
0.0
  0
SPLINE
  5
36B
100
AcDbEntity
  8
0
100
AcDbSpline
 62
7
  6
CONTINUOUS
 70
0
 71
3
 72
9
 73
5
 74
0
 42
0.0000001
 43
0.0000001
 44
0.0000000001
 40
0.0
 40
0.0
 40
0.0
 40
0.0
 40
0.2566585684
 40
1.0
 40
1.0
 40
1.0
 40
1.0
 10
35.7952192749
 20
281.4626771399
 30
0.0
 10
36.2431513568
 20
281.543945431
 30
0.0
 10
37.9854360685
 20
281.8765079199
 30
0.0
 10
39.7156893302
 20
282.2734858549
 30
0.0
 10
40.9903730779
 20
282.6105345711
 30
0.0
  0
SPLINE
  5
36C
100
AcDbEntity
  8
0
100
AcDbSpline
 62
7
  6
CONTINUOUS
 70
0
 71
3
 72
9
 73
5
 74
0
 42
0.0000001
 43
0.0000001
 44
0.0000000001
 40
0.0
 40
0.0
 40
0.0
 40
0.0
 40
0.2450029998
 40
1.0
 40
1.0
 40
1.0
 40
1.0
 10
17.0557570285
 20
266.8929012202
 30
0.0
 10
17.5682167333
 20
267.4758589346
 30
0.0
 10
19.7120058764
 20
269.8091568344
 30
0.0
 10
22.0445841816
 20
271.9668758837
 30
0.0
 10
23.8834917651
 20
273.4963920396
 30
0.0
  0
SPLINE
  5
36D
100
AcDbEntity
  8
0
100
AcDbSpline
 62
7
  6
CONTINUOUS
 70
0
 71
3
 72
9
 73
5
 74
0
 42
0.0000001
 43
0.0000001
 44
0.0000000001
 40
0.0
 40
0.0
 40
0.0
 40
0.0
 40
0.5384685141
 40
1.0
 40
1.0
 40
1.0
 40
1.0
 10
41.3596354045
 20
282.3789583809
 30
0.0
 10
41.3524841006
 20
282.4344027768
 30
0.0
 10
41.3173032806
 20
282.5343472814
 30
0.0
 10
41.2434844728
 20
282.6167755742
 30
0.0
 10
41.199932162
 20
282.6367542862
 30
0.0
  0
SPLINE
  5
36E
100
AcDbEntity
  8
0
100
AcDbSpline
 62
7
  6
CONTINUOUS
 70
0
 71
3
 72
9
 73
5
 74
0
 42
0.0000001
 43
0.0000001
 44
0.0000000001
 40
0.0
 40
0.0
 40
0.0
 40
0.0
 40
0.24753849
 40
1.0
 40
1.0
 40
1.0
 40
1.0
 10
38.4470969639
 20
275.2215668623
 30
0.0
 10
37.9371179614
 20
274.6144257031
 30
0.0
 10
35.8974162254
 20
272.1446838476
 30
0.0
 10
33.9416129367
 20
269.6047015019
 30
0.0
 10
32.5360139754
 20
267.6467385384
 30
0.0
  0
SPLINE
  5
36F
100
AcDbEntity
  8
0
100
AcDbSpline
 62
7
  6
CONTINUOUS
 70
0
 71
3
 72
11
 73
7
 74
0
 42
0.0000001
 43
0.0000001
 44
0.0000000001
 40
0.0
 40
0.0
 40
0.0
 40
0.0
 40
0.2490137081
 40
0.5055097883
 40
0.7601953615
 40
1.0
 40
1.0
 40
1.0
 40
1.0
 10
18.1465977981
 20
266.6111882372
 30
0.0
 10
19.5610847219
 20
268.089309161
 30
0.0
 10
22.5966871846
 20
270.9350384586
 30
0.0
 10
27.512252516
 20
274.7989879166
 30
0.0
 10
32.6673602335
 20
278.2017873506
 30
0.0
 10
36.2500687196
 20
280.1339759475
 30
0.0
 10
38.0338747579
 20
280.9705098802
 30
0.0
  0
SPLINE
  5
370
100
AcDbEntity
  8
0
100
AcDbSpline
 62
7
  6
CONTINUOUS
 70
0
 71
3
 72
9
 73
5
 74
0
 42
0.0000001
 43
0.0000001
 44
0.0000000001
 40
0.0
 40
0.0
 40
0.0
 40
0.0
 40
0.2597361851
 40
1.0
 40
1.0
 40
1.0
 40
1.0
 10
38.0338832884
 20
280.9704751213
 30
0.0
 10
38.3170460384
 20
281.1032681037
 30
0.0
 10
39.4118867723
 20
281.6045013138
 30
0.0
 10
40.5253426085
 20
282.0655358584
 30
0.0
 10
41.3598559016
 20
282.3787842323
 30
0.0
  0
SPLINE
  5
371
100
AcDbEntity
  8
0
100
AcDbSpline
 62
7
  6
CONTINUOUS
 70
0
 71
3
 72
9
 73
5
 74
0
 42
0.0000001
 43
0.0000001
 44
0.0000000001
 40
0.0
 40
0.0
 40
0.0
 40
0.0
 40
0.5384278172
 40
1.0
 40
1.0
 40
1.0
 40
1.0
 10
41.3800185344
 20
282.3861010284
 30
0.0
 10
41.3729032519
 20
282.4415897438
 30
0.0
 10
41.3377394918
 20
282.5416323698
 30
0.0
 10
41.2638862985
 20
282.6241532018
 30
0.0
 10
41.2202987485
 20
282.6441548446
 30
0.0
  0
SPLINE
  5
372
100
AcDbEntity
  8
0
100
AcDbSpline
 62
7
  6
CONTINUOUS
 70
0
 71
3
 72
14
 73
10
 74
0
 42
0.0000001
 43
0.0000001
 44
0.0000000001
 40
0.0
 40
0.0
 40
0.0
 40
0.0
 40
0.0581488178
 40
0.1183155841
 40
0.2407537614
 40
0.3649418429
 40
0.4903098569
 40
0.7437068474
 40
1.0
 40
1.0
 40
1.0
 40
1.0
 10
42.8257311857
 20
282.9606355613
 30
0.0
 10
42.8234115645
 20
282.9845388857
 30
0.0
 10
42.7594881416
 20
283.0050020048
 30
0.0
 10
42.6679199505
 20
283.0043267874
 30
0.0
 10
42.5375398976
 20
282.9927380466
 30
0.0
 10
42.3873076227
 20
282.9670517019
 30
0.0
 10
42.1832820821
 20
282.9257482566
 30
0.0
 10
41.9284063209
 20
282.8644866455
 30
0.0
 10
41.7249420056
 20
282.8102479423
 30
0.0
 10
41.6229154339
 20
282.7820567425
 30
0.0
  0
SPLINE
  5
373
100
AcDbEntity
  8
0
100
AcDbSpline
 62
7
  6
CONTINUOUS
 70
0
 71
3
 72
9
 73
5
 74
0
 42
0.0000001
 43
0.0000001
 44
0.0000000001
 40
0.0
 40
0.0
 40
0.0
 40
0.0
 40
0.5292260208
 40
1.0
 40
1.0
 40
1.0
 40
1.0
 10
44.1093974253
 20
283.5323059936
 30
0.0
 10
45.4481177642
 20
283.9724708651
 30
0.0
 10
47.9448681665
 20
284.9098803057
 30
0.0
 10
50.3302042057
 20
286.1114812668
 30
0.0
 10
51.4049232977
 20
286.7568029762
 30
0.0
  0
SPLINE
  5
374
100
AcDbEntity
  8
0
100
AcDbSpline
 62
7
  6
CONTINUOUS
 70
0
 71
3
 72
10
 73
6
 74
0
 42
0.0000001
 43
0.0000001
 44
0.0000000001
 40
0.0
 40
0.0
 40
0.0
 40
0.0
 40
0.2145924272
 40
0.4555093345
 40
1.0
 40
1.0
 40
1.0
 40
1.0
 10
51.4051459663
 20
286.7568799718
 30
0.0
 10
50.7619169923
 20
286.3706307658
 30
0.0
 10
49.4256798845
 20
285.5019576872
 30
0.0
 10
46.5952077483
 20
283.4479313375
 30
0.0
 10
44.4774820944
 20
281.6944774883
 30
0.0
 10
43.0466069296
 20
280.4387858095
 30
0.0
  0
SPLINE
  5
375
100
AcDbEntity
  8
0
100
AcDbSpline
 62
7
  6
CONTINUOUS
 70
0
 71
3
 72
9
 73
5
 74
0
 42
0.0000001
 43
0.0000001
 44
0.0000000001
 40
0.0
 40
0.0
 40
0.0
 40
0.0
 40
0.5050103658
 40
1.0
 40
1.0
 40
1.0
 40
1.0
 10
51.6594055031
 20
286.5060973235
 30
0.0
 10
51.6503004159
 20
286.5605891034
 30
0.0
 10
51.5967008992
 20
286.6637531017
 30
0.0
 10
51.4963278745
 20
286.7238851792
 30
0.0
 10
51.4432224094
 20
286.7344747235
 30
0.0
  0
SPLINE
  5
376
100
AcDbEntity
  8
0
100
AcDbSpline
 62
7
  6
CONTINUOUS
 70
0
 71
3
 72
9
 73
5
 74
0
 42
0.0000001
 43
0.0000001
 44
0.0000000001
 40
0.0
 40
0.0
 40
0.0
 40
0.0
 40
0.25584995
 40
1.0
 40
1.0
 40
1.0
 40
1.0
 10
51.6712912073
 20
286.5158930745
 30
0.0
 10
51.7427700925
 20
286.5772078307
 30
0.0
 10
52.0198892678
 20
286.8194720098
 30
0.0
 10
52.2877554575
 20
287.0723826123
 30
0.0
 10
52.4806666297
 20
287.2668338464
 30
0.0
  0
SPLINE
  5
377
100
AcDbEntity
  8
0
100
AcDbSpline
 62
7
  6
CONTINUOUS
 70
0
 71
3
 72
11
 73
7
 74
0
 42
0.0000001
 43
0.0000001
 44
0.0000000001
 40
0.0
 40
0.0
 40
0.0
 40
0.0
 40
0.2712369152
 40
0.5375468024
 40
0.785806242
 40
1.0
 40
1.0
 40
1.0
 40
1.0
 10
33.7779970428
 20
267.5219740707
 30
0.0
 10
35.0839124638
 20
269.182295723
 30
0.0
 10
37.7650098689
 20
272.3999197267
 30
0.0
 10
41.861670332
 20
276.9476544023
 30
0.0
 10
45.7978425828
 20
281.0377309466
 30
0.0
 10
48.3841038586
 20
283.5458606597
 30
0.0
 10
49.6101653599
 20
284.6769626755
 30
0.0
  0
SPLINE
  5
378
100
AcDbEntity
  8
0
100
AcDbSpline
 62
7
  6
CONTINUOUS
 70
0
 71
3
 72
9
 73
5
 74
0
 42
0.0000001
 43
0.0000001
 44
0.0000000001
 40
0.0
 40
0.0
 40
0.0
 40
0.0
 40
0.2696015682
 40
1.0
 40
1.0
 40
1.0
 40
1.0
 10
49.6101737996
 20
284.6769291899
 30
0.0
 10
49.791622263
 20
284.8443253212
 30
0.0
 10
50.4670864478
 20
285.4625671236
 30
0.0
 10
51.1521851636
 20
286.0703600537
 30
0.0
 10
51.6596925742
 20
286.5059639317
 30
0.0
  0
SPLINE
  5
379
100
AcDbEntity
  8
0
100
AcDbSpline
 62
7
  6
CONTINUOUS
 70
0
 71
3
 72
9
 73
5
 74
0
 42
0.0000001
 43
0.0000001
 44
0.0000000001
 40
0.0
 40
0.0
 40
0.0
 40
0.0
 40
0.5049766436
 40
1.0
 40
1.0
 40
1.0
 40
1.0
 10
51.6715733607
 20
286.515776253
 30
0.0
 10
51.6625223454
 20
286.5703134052
 30
0.0
 10
51.6089528551
 20
286.673602158
 30
0.0
 10
51.5085192389
 20
286.7338145309
 30
0.0
 10
51.4553734805
 20
286.7444191949
 30
0.0
  0
SPLINE
  5
37A
100
AcDbEntity
  8
0
100
AcDbSpline
 62
7
  6
CONTINUOUS
 70
0
 71
3
 72
16
 73
12
 74
0
 42
0.0000001
 43
0.0000001
 44
0.0000000001
 40
0.0
 40
0.0
 40
0.0
 40
0.0
 40
0.0356337495
 40
0.0633747452
 40
0.1190330781
 40
0.1766318511
 40
0.2356994661
 40
0.3569906584
 40
0.4814244604
 40
0.737136278
 40
1.0
 40
1.0
 40
1.0
 40
1.0
 10
52.4806675757
 20
287.2668098948
 30
0.0
 10
52.4791281013
 20
287.2772845974
 30
0.0
 10
52.4653570422
 20
287.2951288183
 30
0.0
 10
52.4291722268
 20
287.299451991
 30
0.0
 10
52.387610159
 20
287.2932210879
 30
0.0
 10
52.3384397303
 20
287.2785546535
 30
0.0
 10
52.2722900879
 20
287.2535443325
 30
0.0
 10
52.1898522077
 20
287.2158630922
 30
0.0
 10
52.0572641573
 20
287.1478877635
 30
0.0
 10
51.8910984896
 20
287.0534655929
 30
0.0
 10
51.7593587356
 20
286.9735566757
 30
0.0
 10
51.6929660649
 20
286.9324272183
 30
0.0
  0
SPLINE
  5
37B
100
AcDbEntity
  8
0
100
AcDbSpline
 62
7
  6
CONTINUOUS
 70
0
 71
3
 72
10
 73
6
 74
0
 42
0.0000001
 43
0.0000001
 44
0.0000000001
 40
0.0
 40
0.0
 40
0.0
 40
0.0
 40
0.2886668953
 40
0.5503889075
 40
1.0
 40
1.0
 40
1.0
 40
1.0
 10
51.6929660649
 20
286.9324272183
 30
0.0
 10
52.2960014546
 20
287.3060013082
 30
0.0
 10
53.4162533111
 20
288.0709240455
 30
0.0
 10
55.2789311678
 20
289.6729167532
 30
0.0
 10
56.3850331697
 20
291.0822142728
 30
0.0
 10
56.8646823808
 20
292.0775494958
 30
0.0
  0
SPLINE
  5
37C
100
AcDbEntity
  8
0
100
AcDbSpline
 62
7
  6
CONTINUOUS
 70
0
 71
3
 72
10
 73
6
 74
0
 42
0.0000001
 43
0.0000001
 44
0.0000000001
 40
0.0
 40
0.0
 40
0.0
 40
0.0
 40
0.1913870536
 40
0.425001396
 40
1.0
 40
1.0
 40
1.0
 40
1.0
 10
56.864769575
 20
292.0776608406
 30
0.0
 10
56.6336909337
 20
291.598117698
 30
0.0
 10
56.0945097881
 20
290.5458140067
 30
0.0
 10
54.7597358283
 20
288.1055135533
 30
0.0
 10
53.6247926508
 20
286.1633587732
 30
0.0
 10
52.8088020269
 20
284.7879189576
 30
0.0
  0
SPLINE
  5
37D
100
AcDbEntity
  8
0
100
AcDbSpline
 62
7
  6
CONTINUOUS
 70
0
 71
3
 72
9
 73
5
 74
0
 42
0.0000001
 43
0.0000001
 44
0.0000000001
 40
0.0
 40
0.0
 40
0.0
 40
0.0
 40
0.2566888917
 40
1.0
 40
1.0
 40
1.0
 40
1.0
 10
46.1131578888
 20
270.6579829659
 30
0.0
 10
46.4691846463
 20
271.3703618603
 30
0.0
 10
47.8573103544
 20
274.145011472
 30
0.0
 10
49.2352422472
 20
276.9251314395
 30
0.0
 10
50.2242032808
 20
279.0084802296
 30
0.0
  0
SPLINE
  5
37E
100
AcDbEntity
  8
0
100
AcDbSpline
 62
7
  6
CONTINUOUS
 70
0
 71
3
 72
9
 73
5
 74
0
 42
0.0000001
 43
0.0000001
 44
0.0000000001
 40
0.0
 40
0.0
 40
0.0
 40
0.0
 40
0.2644055039
 40
1.0
 40
1.0
 40
1.0
 40
1.0
 10
50.2242032808
 20
279.0084802296
 30
0.0
 10
50.4635011998
 20
279.5125860671
 30
0.0
 10
51.3601725617
 20
281.4230174263
 30
0.0
 10
52.2198380508
 20
283.3515266761
 30
0.0
 10
52.8088020269
 20
284.7879189576
 30
0.0
  0
SPLINE
  5
37F
100
AcDbEntity
  8
0
100
AcDbSpline
 62
7
  6
CONTINUOUS
 70
0
 71
3
 72
9
 73
5
 74
0
 42
0.0000001
 43
0.0000001
 44
0.0000000001
 40
0.0
 40
0.0
 40
0.0
 40
0.0
 40
0.4867620928
 40
1.0
 40
1.0
 40
1.0
 40
1.0
 10
57.1612210064
 20
291.869986845
 30
0.0
 10
57.1517727697
 20
291.9220032298
 30
0.0
 10
57.0880442912
 20
292.0228965674
 30
0.0
 10
56.9771879798
 20
292.0610018999
 30
0.0
 10
56.9214701404
 20
292.0626786017
 30
0.0
  0
SPLINE
  5
380
100
AcDbEntity
  8
0
100
AcDbSpline
 62
7
  6
CONTINUOUS
 70
0
 71
3
 72
9
 73
5
 74
0
 42
0.0000001
 43
0.0000001
 44
0.0000000001
 40
0.0
 40
0.0
 40
0.0
 40
0.0
 40
0.4797904152
 40
1.0
 40
1.0
 40
1.0
 40
1.0
 10
57.5980604577
 20
290.2759526342
 30
0.0
 10
57.6704427892
 20
289.318362346
 30
0.0
 10
57.6957871328
 20
287.3125030077
 30
0.0
 10
57.5388188345
 20
285.3150208188
 30
0.0
 10
57.4218933851
 20
284.2803840064
 30
0.0
  0
SPLINE
  5
381
100
AcDbEntity
  8
0
100
AcDbSpline
 62
7
  6
CONTINUOUS
 70
0
 71
3
 72
9
 73
5
 74
0
 42
0.0000001
 43
0.0000001
 44
0.0000000001
 40
0.0
 40
0.0
 40
0.0
 40
0.0
 40
0.4863455671
 40
1.0
 40
1.0
 40
1.0
 40
1.0
 10
57.4218933851
 20
284.2803840064
 30
0.0
 10
57.2583696146
 20
282.8334131915
 30
0.0
 10
56.7804518442
 20
279.8738150708
 30
0.0
 10
56.1078359618
 20
276.9547079329
 30
0.0
 10
55.727834161
 20
275.4644455432
 30
0.0
  0
SPLINE
  5
382
100
AcDbEntity
  8
0
100
AcDbSpline
 62
7
  6
CONTINUOUS
 70
0
 71
3
 72
12
 73
8
 74
0
 42
0.0000001
 43
0.0000001
 44
0.0000000001
 40
0.0
 40
0.0
 40
0.0
 40
0.0
 40
0.29109913
 40
0.5647898473
 40
0.8063750892
 40
0.9100943762
 40
1.0
 40
1.0
 40
1.0
 40
1.0
 10
47.3337242313
 20
270.7171595432
 30
0.0
 10
48.3404423221
 20
272.5255677528
 30
0.0
 10
50.3006207636
 20
276.0305320277
 30
0.0
 10
52.9943185153
 20
281.0921421475
 30
0.0
 10
54.9000013003
 20
285.0629516023
 30
0.0
 10
56.0680819571
 20
287.9293052213
 30
0.0
 10
56.518158041
 20
289.231717751
 30
0.0
 10
56.700480098
 20
289.8444020969
 30
0.0
  0
SPLINE
  5
383
100
AcDbEntity
  8
0
100
AcDbSpline
 62
7
  6
CONTINUOUS
 70
0
 71
3
 72
9
 73
5
 74
0
 42
0.0000001
 43
0.0000001
 44
0.0000000001
 40
0.0
 40
0.0
 40
0.0
 40
0.0
 40
0.2774333051
 40
1.0
 40
1.0
 40
1.0
 40
1.0
 10
56.7004871394
 20
289.844369864
 30
0.0
 10
56.7553065634
 20
290.0285892786
 30
0.0
 10
56.9435448552
 20
290.6951281535
 30
0.0
 10
57.094353399
 20
291.3738405886
 30
0.0
 10
57.1615312454
 20
291.8698992539
 30
0.0
  0
SPLINE
  5
384
100
AcDbEntity
  8
0
100
AcDbSpline
 62
7
  6
CONTINUOUS
 70
0
 71
3
 72
9
 73
5
 74
0
 42
0.0000001
 43
0.0000001
 44
0.0000000001
 40
0.0
 40
0.0
 40
0.0
 40
0.0
 40
0.4867442248
 40
1.0
 40
1.0
 40
1.0
 40
1.0
 10
57.163316508
 20
291.8807873468
 30
0.0
 10
57.1539269874
 20
291.9328471366
 30
0.0
 10
57.0902383515
 20
292.0338801665
 30
0.0
 10
56.9793076008
 20
292.0720463071
 30
0.0
 10
56.9235519844
 20
292.0737308791
 30
0.0
  0
SPLINE
  5
385
100
AcDbEntity
  8
0
100
AcDbSpline
 62
7
  6
CONTINUOUS
 70
0
 71
3
 72
18
 73
14
 74
0
 42
0.0000001
 43
0.0000001
 44
0.0000000001
 40
0.0
 40
0.0
 40
0.0
 40
0.0
 40
0.2886854848
 40
0.4266485401
 40
0.55920836
 40
0.6847825223
 40
0.744112007
 40
0.8003567666
 40
0.8524814212
 40
0.8986264009
 40
0.9353764014
 40
0.9529565902
 40
1.0
 40
1.0
 40
1.0
 40
1.0
 10
56.9601287558
 20
292.2835753951
 30
0.0
 10
56.9811640753
 20
292.3308904606
 30
0.0
 10
57.012355611
 20
292.4007736452
 30
0.0
 10
57.0541524552
 20
292.4919521575
 30
0.0
 10
57.084526835
 20
292.5561873331
 30
0.0
 10
57.1099084119
 20
292.6071480962
 30
0.0
 10
57.1303889888
 20
292.6452946925
 30
0.0
 10
57.1454159135
 20
292.6712373767
 30
0.0
 10
57.1605634
 20
292.6948815632
 30
0.0
 10
57.1752611122
 20
292.7129045602
 30
0.0
 10
57.1899691403
 20
292.7273082668
 30
0.0
 10
57.2094349629
 20
292.7214766765
 30
0.0
 10
57.2111548551
 20
292.7072988914
 30
0.0
 10
57.2126233512
 20
292.6989896788
 30
0.0
  0
SPLINE
  5
386
100
AcDbEntity
  8
0
100
AcDbSpline
 62
7
  6
CONTINUOUS
 70
0
 71
3
 72
9
 73
5
 74
0
 42
0.0000001
 43
0.0000001
 44
0.0000000001
 40
0.0
 40
0.0
 40
0.0
 40
0.0
 40
0.5091725006
 40
1.0
 40
1.0
 40
1.0
 40
1.0
 10
56.9601287558
 20
292.2835753951
 30
0.0
 10
57.1838689885
 20
292.7869305699
 30
0.0
 10
57.5114997092
 20
293.8320223782
 30
0.0
 10
57.5420363241
 20
294.9293735792
 30
0.0
 10
57.4836097379
 20
295.4571443849
 30
0.0
  0
SPLINE
  5
387
100
AcDbEntity
  8
0
100
AcDbSpline
 62
7
  6
CONTINUOUS
 70
0
 71
3
 72
9
 73
5
 74
0
 42
0.0000001
 43
0.0000001
 44
0.0000000001
 40
0.0
 40
0.0
 40
0.0
 40
0.0
 40
0.2654666191
 40
1.0
 40
1.0
 40
1.0
 40
1.0
 10
-20.3285431965
 20
284.1295269479
 30
0.0
 10
-20.3266509174
 20
284.2377250721
 30
0.0
 10
-20.3112293672
 20
284.6449811173
 30
0.0
 10
-20.2597794307
 20
285.0518790952
 30
0.0
 10
-20.1928605793
 20
285.343730211
 30
0.0
  0
SPLINE
  5
388
100
AcDbEntity
  8
0
100
AcDbSpline
 62
7
  6
CONTINUOUS
 70
0
 71
3
 72
15
 73
11
 74
0
 42
0.0000001
 43
0.0000001
 44
0.0000000001
 40
0.0
 40
0.0
 40
0.0
 40
0.0
 40
0.1050268369
 40
0.2023599333
 40
0.298869277
 40
0.4025684917
 40
0.5203979683
 40
0.6575158529
 40
0.8169557626
 40
1.0
 40
1.0
 40
1.0
 40
1.0
 10
-20.1928605793
 20
285.343730211
 30
0.0
 10
-20.1323384464
 20
285.6076835166
 30
0.0
 10
-19.9686136907
 20
286.1082896262
 30
0.0
 10
-19.547881036
 20
286.7655790504
 30
0.0
 10
-18.9538130642
 20
287.2692844302
 30
0.0
 10
-18.1933644189
 20
287.6013271293
 30
0.0
 10
-17.2761618715
 20
287.7628294073
 30
0.0
 10
-16.2033928743
 20
287.7546056125
 30
0.0
 10
-14.9766791066
 20
287.5786449467
 30
0.0
 10
-14.1184212864
 20
287.3651177249
 30
0.0
 10
-13.664976819
 20
287.2342034422
 30
0.0
  0
SPLINE
  5
389
100
AcDbEntity
  8
0
100
AcDbSpline
 62
7
  6
CONTINUOUS
 70
0
 71
3
 72
9
 73
5
 74
0
 42
0.0000001
 43
0.0000001
 44
0.0000000001
 40
0.0
 40
0.0
 40
0.0
 40
0.0
 40
0.4615322679
 40
1.0
 40
1.0
 40
1.0
 40
1.0
 10
-15.8432971716
 20
299.2284718727
 30
0.0
 10
-16.043961302
 20
299.0253120713
 30
0.0
 10
-16.3937438478
 20
298.499043347
 30
0.0
 10
-16.5727564267
 20
297.8990101175
 30
0.0
 10
-16.6337278613
 20
297.5714845251
 30
0.0
  0
SPLINE
  5
38A
100
AcDbEntity
  8
0
100
AcDbSpline
 62
7
  6
CONTINUOUS
 70
0
 71
3
 72
11
 73
7
 74
0
 42
0.0000001
 43
0.0000001
 44
0.0000000001
 40
0.0
 40
0.0
 40
0.0
 40
0.0
 40
0.2802750064
 40
0.5446041706
 40
0.7864771924
 40
1.0
 40
1.0
 40
1.0
 40
1.0
 10
56.7500427798
 20
275.7103066323
 30
0.0
 10
57.2140801979
 20
277.26004039
 30
0.0
 10
58.0482919063
 20
280.2925818856
 30
0.0
 10
58.9408461011
 20
284.7493919648
 30
0.0
 10
59.3459288448
 20
288.8912875934
 30
0.0
 10
59.2298821431
 20
291.5340710813
 30
0.0
 10
59.037958314
 20
292.7514652704
 30
0.0
  0
SPLINE
  5
38B
100
AcDbEntity
  8
0
100
AcDbSpline
 62
7
  6
CONTINUOUS
 70
0
 71
3
 72
16
 73
12
 74
0
 42
0.0000001
 43
0.0000001
 44
0.0000000001
 40
0.0
 40
0.0
 40
0.0
 40
0.0
 40
0.0160682192
 40
0.0294902911
 40
0.0670366661
 40
0.1347117545
 40
0.2366026837
 40
0.3737456482
 40
0.5465601529
 40
0.755266114
 40
1.0
 40
1.0
 40
1.0
 40
1.0
 10
-18.9747160516
 20
293.6850477274
 30
0.0
 10
-18.9737426499
 20
293.6923888862
 30
0.0
 10
-18.9703704798
 20
293.706359525
 30
0.0
 10
-18.9440036234
 20
293.7265473337
 30
0.0
 10
-18.8849782541
 20
293.7085499401
 30
0.0
 10
-18.8058322992
 20
293.6613078168
 30
0.0
 10
-18.6914762731
 20
293.5750748586
 30
0.0
 10
-18.5479285344
 20
293.4518854365
 30
0.0
 10
-18.371926857
 20
293.2896927894
 30
0.0
 10
-18.1646062226
 20
293.089001736
 30
0.0
 10
-18.0168914814
 20
292.9411287404
 30
0.0
 10
-17.9376396121
 20
292.8608727961
 30
0.0
  0
SPLINE
  5
38C
100
AcDbEntity
  8
0
100
AcDbSpline
 62
7
  6
CONTINUOUS
 70
0
 71
3
 72
18
 73
14
 74
0
 42
0.0000001
 43
0.0000001
 44
0.0000000001
 40
0.0
 40
0.0
 40
0.0
 40
0.0
 40
0.0053111895
 40
0.01810477
 40
0.0385495989
 40
0.0666698109
 40
0.1024746894
 40
0.1459692351
 40
0.2560061
 40
0.3966288906
 40
0.5676398691
 40
0.768831574
 40
1.0
 40
1.0
 40
1.0
 40
1.0
 10
-18.4806419426
 20
294.1725860157
 30
0.0
 10
-18.4752320151
 20
294.1730140538
 30
0.0
 10
-18.4607257618
 20
294.1568449411
 30
0.0
 10
-18.4327443295
 20
294.1329649994
 30
0.0
 10
-18.3898275462
 20
294.0851873057
 30
0.0
 10
-18.3323158805
 20
294.021850637
 30
0.0
 10
-18.2602277308
 20
293.9387423264
 30
0.0
 10
-18.1347046822
 20
293.7916902088
 30
0.0
 10
-17.9424753164
 20
293.5605275031
 30
0.0
 10
-17.6690768129
 20
293.2275760055
 30
0.0
 10
-17.3381351988
 20
292.821301886
 30
0.0
 10
-16.947914761
 20
292.3440098025
 30
0.0
 10
-16.6651885252
 20
292.0045369375
 30
0.0
 10
-16.5129184593
 20
291.8239680028
 30
0.0
  0
SPLINE
  5
38D
100
AcDbEntity
  8
0
100
AcDbSpline
 62
7
  6
CONTINUOUS
 70
0
 71
3
 72
11
 73
7
 74
0
 42
0.0000001
 43
0.0000001
 44
0.0000000001
 40
0.0
 40
0.0
 40
0.0
 40
0.0
 40
0.2381681459
 40
0.4846194058
 40
0.7389829038
 40
1.0
 40
1.0
 40
1.0
 40
1.0
 10
59.1111334179
 20
292.3849254686
 30
0.0
 10
59.3384772847
 20
291.5367671436
 30
0.0
 10
59.7131448162
 20
289.7860297712
 30
0.0
 10
60.0263309205
 20
287.0768755387
 30
0.0
 10
60.1689677476
 20
284.269875052
 30
0.0
 10
60.1359712411
 20
282.3684813986
 30
0.0
 10
60.0932095581
 20
281.4070914812
 30
0.0
  0
SPLINE
  5
38E
100
AcDbEntity
  8
0
100
AcDbSpline
 62
7
  6
CONTINUOUS
 70
0
 71
3
 72
9
 73
5
 74
0
 42
0.0000001
 43
0.0000001
 44
0.0000000001
 40
0.0
 40
0.0
 40
0.0
 40
0.0
 40
0.235249314
 40
1.0
 40
1.0
 40
1.0
 40
1.0
 10
-17.805194528
 20
288.1237622313
 30
0.0
 10
-17.7359084214
 20
288.1417205558
 30
0.0
 10
-17.4388679476
 20
288.2083335896
 30
0.0
 10
-17.1341030839
 20
288.2373454055
 30
0.0
 10
-16.9015204176
 20
288.2440270869
 30
0.0
  0
SPLINE
  5
38F
100
AcDbEntity
  8
0
100
AcDbSpline
 62
7
  6
CONTINUOUS
 70
0
 71
3
 72
11
 73
7
 74
0
 42
0.0000001
 43
0.0000001
 44
0.0000000001
 40
0.0
 40
0.0
 40
0.0
 40
0.0
 40
0.1921822676
 40
0.422278533
 40
0.6915118131
 40
1.0
 40
1.0
 40
1.0
 40
1.0
 10
-16.8576276394
 20
288.2451046346
 30
0.0
 10
-16.4523303978
 20
288.2533743792
 30
0.0
 10
-15.5597816884
 20
288.17350298
 30
0.0
 10
-14.1369561548
 20
287.8398086113
 30
0.0
 10
-12.5242985132
 20
287.282396303
 30
0.0
 10
-11.4038876361
 20
286.8012915298
 30
0.0
 10
-10.8114453644
 20
286.532146355
 30
0.0
  0
SPLINE
  5
390
100
AcDbEntity
  8
0
100
AcDbSpline
 62
7
  6
CONTINUOUS
 70
0
 71
3
 72
9
 73
5
 74
0
 42
0.0000001
 43
0.0000001
 44
0.0000000001
 40
0.0
 40
0.0
 40
0.0
 40
0.0
 40
0.4880811225
 40
1.0
 40
1.0
 40
1.0
 40
1.0
 10
-17.1327413677
 20
295.884023451
 30
0.0
 10
-17.2565443522
 20
295.2146162097
 30
0.0
 10
-17.2684171498
 20
293.785630848
 30
0.0
 10
-16.7800011999
 20
292.4494795708
 30
0.0
 10
-16.4459525525
 20
291.8184343359
 30
0.0
  0
SPLINE
  5
391
100
AcDbEntity
  8
0
100
AcDbSpline
 62
7
  6
CONTINUOUS
 70
0
 71
3
 72
9
 73
5
 74
0
 42
0.0000001
 43
0.0000001
 44
0.0000000001
 40
0.0
 40
0.0
 40
0.0
 40
0.0
 40
0.4853793256
 40
1.0
 40
1.0
 40
1.0
 40
1.0
 10
56.9853190091
 20
297.7450349241
 30
0.0
 10
56.9640755869
 20
297.7698784119
 30
0.0
 10
56.9049469088
 20
297.8091523719
 30
0.0
 10
56.8350348103
 20
297.8146225812
 30
0.0
 10
56.8006618872
 20
297.8101951794
 30
0.0
  0
SPLINE
  5
392
100
AcDbEntity
  8
0
100
AcDbSpline
 62
7
  6
CONTINUOUS
 70
0
 71
3
 72
15
 73
11
 74
0
 42
0.0000001
 43
0.0000001
 44
0.0000000001
 40
0.0
 40
0.0
 40
0.0
 40
0.0
 40
0.1513234777
 40
0.2979454479
 40
0.4383942862
 40
0.5711834077
 40
0.694793446
 40
0.8078229558
 40
0.9095426041
 40
1.0
 40
1.0
 40
1.0
 40
1.0
 10
55.9026787615
 20
275.4224343566
 30
0.0
 10
56.2190239243
 20
276.4433953965
 30
0.0
 10
56.8093461138
 20
278.4638998995
 30
0.0
 10
57.5737182971
 20
281.4651931949
 30
0.0
 10
58.1887917769
 20
284.3676961287
 30
0.0
 10
58.596369028
 20
287.1431716335
 30
0.0
 10
58.7938336784
 20
289.7474368807
 30
0.0
 10
58.7602409963
 20
292.1421587113
 30
0.0
 10
58.4533813183
 20
294.2823849928
 30
0.0
 10
58.0484210002
 20
295.5877145142
 30
0.0
 10
57.7926220607
 20
296.1732050312
 30
0.0
  0
SPLINE
  5
393
100
AcDbEntity
  8
0
100
AcDbSpline
 62
7
  6
CONTINUOUS
 70
0
 71
3
 72
9
 73
5
 74
0
 42
0.0000001
 43
0.0000001
 44
0.0000000001
 40
0.0
 40
0.0
 40
0.0
 40
0.0
 40
0.26008699
 40
1.0
 40
1.0
 40
1.0
 40
1.0
 10
57.7926220607
 20
296.1732050312
 30
0.0
 10
57.7310681413
 20
296.3140939505
 30
0.0
 10
57.4799595773
 20
296.8491483312
 30
0.0
 10
57.1649775171
 20
297.355921448
 30
0.0
 10
56.8925294631
 20
297.6980989258
 30
0.0
  0
SPLINE
  5
394
100
AcDbEntity
  8
0
100
AcDbSpline
 62
7
  6
CONTINUOUS
 70
0
 71
3
 72
16
 73
12
 74
0
 42
0.0000001
 43
0.0000001
 44
0.0000000001
 40
0.0
 40
0.0
 40
0.0
 40
0.0
 40
0.1566082605
 40
0.3095891112
 40
0.4565786402
 40
0.5947925444
 40
0.7212676261
 40
0.8326817768
 40
0.9262815806
 40
0.9657356145
 40
1.0
 40
1.0
 40
1.0
 40
1.0
 10
46.2708886869
 20
270.578793564
 30
0.0
 10
46.8851701121
 20
271.6729649237
 30
0.0
 10
48.0987992166
 20
273.836371779
 30
0.0
 10
49.8908125754
 20
277.0256567773
 30
0.0
 10
51.5950365992
 20
280.0954260771
 30
0.0
 10
53.1330912518
 20
283.0135425006
 30
0.0
 10
54.4983225298
 20
285.7006189947
 30
0.0
 10
55.6003663274
 20
288.1180029859
 30
0.0
 10
56.3214934665
 20
289.9411966915
 30
0.0
 10
56.7299465296
 20
291.218546719
 30
0.0
 10
56.871425797
 20
291.7930047636
 30
0.0
 10
56.9214703417
 20
292.0629458442
 30
0.0
  0
SPLINE
  5
395
100
AcDbEntity
  8
0
100
AcDbSpline
 62
7
  6
CONTINUOUS
 70
0
 71
3
 72
15
 73
11
 74
0
 42
0.0000001
 43
0.0000001
 44
0.0000000001
 40
0.0
 40
0.0
 40
0.0
 40
0.0
 40
0.1412030563
 40
0.2824545371
 40
0.4218987805
 40
0.5572140541
 40
0.6857773089
 40
0.804381003
 40
0.9100962278
 40
1.0
 40
1.0
 40
1.0
 40
1.0
 10
32.6614970503
 20
267.5541789525
 30
0.0
 10
33.4424162375
 20
268.5507975259
 30
0.0
 10
35.0365257452
 20
270.5195764127
 30
0.0
 10
37.5152058483
 20
273.3783871267
 30
0.0
 10
40.0434648463
 20
276.1216175299
 30
0.0
 10
42.5508798598
 20
278.7283825423
 30
0.0
 10
45.0073716971
 20
281.1223515135
 30
0.0
 10
47.3226171353
 20
283.2795907518
 30
0.0
 10
49.4443351039
 20
285.1345040924
 30
0.0
 10
50.8090576682
 20
286.237047984
 30
0.0
 10
51.4432236983
 20
286.7347419995
 30
0.0
  0
SPLINE
  5
396
100
AcDbEntity
  8
0
100
AcDbSpline
 62
7
  6
CONTINUOUS
 70
0
 71
3
 72
14
 73
10
 74
0
 42
0.0000001
 43
0.0000001
 44
0.0000000001
 40
0.0
 40
0.0
 40
0.0
 40
0.0
 40
0.2460739337
 40
0.372420457
 40
0.5000391526
 40
0.627942853
 40
0.7549007214
 40
0.8794436135
 40
1.0
 40
1.0
 40
1.0
 40
1.0
 10
17.1464103591
 20
266.8090606786
 30
0.0
 10
18.4697816998
 20
268.2118910925
 30
0.0
 10
20.5833784431
 20
270.2338620278
 30
0.0
 10
23.6028481162
 20
272.7333019419
 30
0.0
 10
25.9895399162
 20
274.540534274
 30
0.0
 10
28.4524872962
 20
276.2508710953
 30
0.0
 10
30.9737423262
 20
277.8292335246
 30
0.0
 10
33.5101590183
 20
279.2693309907
 30
0.0
 10
35.2234590176
 20
280.139993078
 30
0.0
 10
36.0768732267
 20
280.5454323704
 30
0.0
  0
SPLINE
  5
397
100
AcDbEntity
  8
0
100
AcDbSpline
 62
7
  6
CONTINUOUS
 70
0
 71
3
 72
9
 73
5
 74
0
 42
0.0000001
 43
0.0000001
 44
0.0000000001
 40
0.0
 40
0.0
 40
0.0
 40
0.0
 40
0.2626145809
 40
1.0
 40
1.0
 40
1.0
 40
1.0
 10
36.0768732267
 20
280.5454323704
 30
0.0
 10
36.514544852
 20
280.7533610317
 30
0.0
 10
38.1916246448
 20
281.5227987565
 30
0.0
 10
39.9121675953
 20
282.197967998
 30
0.0
 10
41.1999343424
 20
282.6370212907
 30
0.0
  0
SPLINE
  5
398
100
AcDbEntity
  8
0
100
AcDbSpline
 62
7
  6
CONTINUOUS
 70
0
 71
3
 72
12
 73
8
 74
0
 42
0.0000001
 43
0.0000001
 44
0.0000000001
 40
0.0
 40
0.0
 40
0.0
 40
0.0
 40
0.1119169076
 40
0.2289971189
 40
0.3511788885
 40
0.4780954953
 40
1.0
 40
1.0
 40
1.0
 40
1.0
 10
2.0876599173
 20
268.456876245
 30
0.0
 10
2.8397490726
 20
269.2206863749
 30
0.0
 10
4.4603841595
 20
270.7049378071
 30
0.0
 10
7.1504663948
 20
272.7313149082
 30
0.0
 10
10.1308785083
 20
274.5893216519
 30
0.0
 10
16.6895748165
 20
277.9858512687
 30
0.0
 10
22.7947051194
 20
279.7436982922
 30
0.0
 10
27.7510502589
 20
280.3936247011
 30
0.0
  0
SPLINE
  5
399
100
AcDbEntity
  8
0
100
AcDbSpline
 62
7
  6
CONTINUOUS
 70
0
 71
3
 72
15
 73
11
 74
0
 42
0.0000001
 43
0.0000001
 44
0.0000000001
 40
0.0
 40
0.0
 40
0.0
 40
0.0
 40
0.1011106486
 40
0.2075946055
 40
0.3209872397
 40
0.4425469516
 40
0.5720301757
 40
0.7092456931
 40
0.8525974731
 40
1.0
 40
1.0
 40
1.0
 40
1.0
 10
-10.1728093808
 20
272.3057119262
 30
0.0
 10
-9.62015802
 20
272.9622343201
 30
0.0
 10
-8.3770819017
 20
274.2220745016
 30
0.0
 10
-6.1944273175
 20
275.8665935535
 30
0.0
 10
-3.6608193972
 20
277.28910083
 30
0.0
 10
-0.797281599
 20
278.4763896851
 30
0.0
 10
2.3746065675
 20
279.391823829
 30
0.0
 10
5.8011869119
 20
280.029007133
 30
0.0
 10
9.4228647502
 20
280.3631996043
 30
0.0
 10
11.8934701911
 20
280.3810420181
 30
0.0
 10
13.1440421294
 20
280.3460890232
 30
0.0
  0
SPLINE
  5
39A
100
AcDbEntity
  8
0
100
AcDbSpline
 62
7
  6
CONTINUOUS
 70
0
 71
3
 72
18
 73
14
 74
0
 42
0.0000001
 43
0.0000001
 44
0.0000000001
 40
0.0
 40
0.0
 40
0.0
 40
0.0
 40
0.1836508656
 40
0.3487463717
 40
0.4935077324
 40
0.5581556356
 40
0.6177795362
 40
0.7232606495
 40
0.7707145164
 40
0.8158945598
 40
0.8600879557
 40
0.9046892467
 40
1.0
 40
1.0
 40
1.0
 40
1.0
 10
3.4035877176
 20
308.0157886495
 30
0.0
 10
2.2049278937
 20
307.6944813118
 30
0.0
 10
-0.0494954879
 20
306.9954834357
 30
0.0
 10
-3.1286155665
 20
305.7002535511
 30
0.0
 10
-5.3322236214
 20
304.4362527592
 30
0.0
 10
-6.7828277342
 20
303.3355696842
 30
0.0
 10
-7.9226293003
 20
302.2803998858
 30
0.0
 10
-8.81528245
 20
301.1276841261
 30
0.0
 10
-9.3570661439
 20
299.8968470873
 30
0.0
 10
-9.5737541281
 20
298.9924174629
 30
0.0
 10
-9.6113153884
 20
298.0818871883
 30
0.0
 10
-9.4184983696
 20
296.8460947722
 30
0.0
 10
-9.0036084753
 20
295.9701209282
 30
0.0
 10
-8.6510861732
 20
295.4311263496
 30
0.0
  0
SPLINE
  5
39B
100
AcDbEntity
  8
0
100
AcDbSpline
 62
7
  6
CONTINUOUS
 70
0
 71
3
 72
9
 73
5
 74
0
 42
0.0000001
 43
0.0000001
 44
0.0000000001
 40
0.0
 40
0.0
 40
0.0
 40
0.0
 40
0.4532826295
 40
1.0
 40
1.0
 40
1.0
 40
1.0
 10
-8.6510861732
 20
295.4311263496
 30
0.0
 10
-8.1699228688
 20
294.6954440651
 30
0.0
 10
-6.8139763257
 20
293.2664340995
 30
0.0
 10
-5.1893248115
 20
292.1891880264
 30
0.0
 10
-4.2665244356
 20
291.667086019
 30
0.0
  0
SPLINE
  5
39C
100
AcDbEntity
  8
0
100
AcDbSpline
 62
7
  6
CONTINUOUS
 70
0
 71
3
 72
15
 73
11
 74
0
 42
0.0000001
 43
0.0000001
 44
0.0000000001
 40
0.0
 40
0.0
 40
0.0
 40
0.0
 40
0.1020379098
 40
0.2172603282
 40
0.3429282755
 40
0.4756434117
 40
0.611622167
 40
0.7469123426
 40
0.8775914801
 40
1.0
 40
1.0
 40
1.0
 40
1.0
 10
-3.1018501221
 20
291.0522018161
 30
0.0
 10
-1.8652605809
 20
290.4421215229
 30
0.0
 10
0.8714911755
 20
289.3515539012
 30
0.0
 10
5.3466975069
 20
288.1231341131
 30
0.0
 10
10.3229525057
 20
287.2340459236
 30
0.0
 10
15.6320187031
 20
286.7159949762
 30
0.0
 10
21.0945492716
 20
286.5871859384
 30
0.0
 10
26.5248213161
 20
286.8523395638
 30
0.0
 10
31.7377741519
 20
287.5017983646
 30
0.0
 10
35.0905575726
 20
288.2049314571
 30
0.0
 10
36.6901209709
 20
288.6264645523
 30
0.0
  0
SPLINE
  5
39D
100
AcDbEntity
  8
0
100
AcDbSpline
 62
7
  6
CONTINUOUS
 70
0
 71
3
 72
11
 73
7
 74
0
 42
0.0000001
 43
0.0000001
 44
0.0000000001
 40
0.0
 40
0.0
 40
0.0
 40
0.0
 40
0.4902057506
 40
0.7428734969
 40
0.8713122051
 40
1.0
 40
1.0
 40
1.0
 40
1.0
 10
39.0938383305
 20
286.750204679
 30
0.0
 10
38.2421899483
 20
286.5250139683
 30
0.0
 10
36.942476526
 20
286.2180683667
 30
0.0
 10
35.4094508235
 20
285.8986256586
 30
0.0
 10
34.5075782625
 20
285.737486572
 30
0.0
 10
34.0536037123
 20
285.6513627747
 30
0.0
 10
33.8259821277
 20
285.6105209305
 30
0.0
  0
SPLINE
  5
39E
100
AcDbEntity
  8
0
100
AcDbSpline
 62
7
  6
CONTINUOUS
 70
0
 71
3
 72
16
 73
12
 74
0
 42
0.0000001
 43
0.0000001
 44
0.0000000001
 40
0.0
 40
0.0
 40
0.0
 40
0.0
 40
0.0308259747
 40
0.0619231583
 40
0.0933790237
 40
0.1251031404
 40
0.2542292623
 40
0.5163866032
 40
0.7701086138
 40
0.8889236945
 40
1.0
 40
1.0
 40
1.0
 40
1.0
 10
33.6136714112
 20
285.5731151265
 30
0.0
 10
33.2551536156
 20
285.5112504091
 30
0.0
 10
32.5327724643
 20
285.4000913435
 30
0.0
 10
31.4432484243
 20
285.2340104267
 30
0.0
 10
30.3395715813
 20
285.0921019973
 30
0.0
 10
28.0854394058
 20
284.826927227
 30
0.0
 10
23.1059162694
 20
284.43234437
 30
0.0
 10
15.4789366906
 20
284.4413018404
 30
0.0
 10
8.0135779862
 20
285.2496548164
 30
0.0
 10
2.4180356531
 20
286.3926665898
 30
0.0
 10
-0.199147993
 20
287.1200580104
 30
0.0
 10
-1.4463362105
 20
287.5239340549
 30
0.0
  0
SPLINE
  5
39F
100
AcDbEntity
  8
0
100
AcDbSpline
 62
7
  6
CONTINUOUS
 70
0
 71
3
 72
11
 73
7
 74
0
 42
0.0000001
 43
0.0000001
 44
0.0000000001
 40
0.0
 40
0.0
 40
0.0
 40
0.0
 40
0.2881911781
 40
0.5517004632
 40
0.7890604157
 40
1.0
 40
1.0
 40
1.0
 40
1.0
 10
-1.4463362105
 20
287.5239340549
 30
0.0
 10
-2.4425860338
 20
287.8465489035
 30
0.0
 10
-4.329927089
 20
288.5287934137
 30
0.0
 10
-6.9405214644
 20
289.7238079544
 30
0.0
 10
-9.1774483086
 20
291.0314826991
 30
0.0
 10
-10.4759566027
 20
292.0261102187
 30
0.0
 10
-11.0427321036
 20
292.542110045
 30
0.0
  0
SPLINE
  5
3A0
100
AcDbEntity
  8
0
100
AcDbSpline
 62
7
  6
CONTINUOUS
 70
0
 71
3
 72
9
 73
5
 74
0
 42
0.0000001
 43
0.0000001
 44
0.0000000001
 40
0.0
 40
0.0
 40
0.0
 40
0.0
 40
0.5299937026
 40
1.0
 40
1.0
 40
1.0
 40
1.0
 10
-11.5109955
 20
292.9905738923
 30
0.0
 10
-11.9899299851
 20
293.4740013553
 30
0.0
 10
-12.8203046842
 20
294.4659842345
 30
0.0
 10
-13.3953234519
 20
295.6341509015
 30
0.0
 10
-13.5757530303
 20
296.210024469
 30
0.0
  0
SPLINE
  5
3A1
100
AcDbEntity
  8
0
100
AcDbSpline
 62
7
  6
CONTINUOUS
 70
0
 71
3
 72
9
 73
5
 74
0
 42
0.0000001
 43
0.0000001
 44
0.0000000001
 40
0.0
 40
0.0
 40
0.0
 40
0.0
 40
0.4998694747
 40
1.0
 40
1.0
 40
1.0
 40
1.0
 10
-13.5757530303
 20
296.210024469
 30
0.0
 10
-13.7418079657
 20
296.7400187688
 30
0.0
 10
-13.9226581612
 20
297.8570273446
 30
0.0
 10
-13.7372601403
 20
298.9732525329
 30
0.0
 10
-13.5691261507
 20
299.5028952733
 30
0.0
  0
SPLINE
  5
3A2
100
AcDbEntity
  8
0
100
AcDbSpline
 62
7
  6
CONTINUOUS
 70
0
 71
3
 72
9
 73
5
 74
0
 42
0.0000001
 43
0.0000001
 44
0.0000000001
 40
0.0
 40
0.0
 40
0.0
 40
0.0
 40
0.2357526852
 40
1.0
 40
1.0
 40
1.0
 40
1.0
 10
-13.3836389696
 20
300.0084339403
 30
0.0
 10
-13.3053516787
 20
300.1963426153
 30
0.0
 10
-12.9354116524
 20
300.9776369408
 30
0.0
 10
-12.4252566025
 20
301.6878488354
 30
0.0
 10
-11.9915095341
 20
302.1851762422
 30
0.0
  0
SPLINE
  5
3A3
100
AcDbEntity
  8
0
100
AcDbSpline
 62
7
  6
CONTINUOUS
 70
0
 71
3
 72
9
 73
5
 74
0
 42
0.0000001
 43
0.0000001
 44
0.0000000001
 40
0.0
 40
0.0
 40
0.0
 40
0.0
 40
0.2451154061
 40
1.0
 40
1.0
 40
1.0
 40
1.0
 10
-11.9308778715
 20
302.2540828922
 30
0.0
 10
-11.8847884352
 20
302.3060041609
 30
0.0
 10
-11.694674717
 20
302.5159742433
 30
0.0
 10
-11.4964782382
 20
302.7185949299
 30
0.0
 10
-11.3430671251
 20
302.8675291792
 30
0.0
  0
SPLINE
  5
3A4
100
AcDbEntity
  8
0
100
AcDbSpline
 62
7
  6
CONTINUOUS
 70
0
 71
3
 72
11
 73
7
 74
0
 42
0.0000001
 43
0.0000001
 44
0.0000000001
 40
0.0
 40
0.0
 40
0.0
 40
0.0
 40
0.2069029861
 40
0.4432562549
 40
0.7083804787
 40
1.0
 40
1.0
 40
1.0
 40
1.0
 10
-11.0640312059
 20
303.1303424901
 30
0.0
 10
-10.4126946173
 20
303.7258853968
 30
0.0
 10
-8.8915650037
 20
304.8654579406
 30
0.0
 10
-6.2421208837
 20
306.3313594912
 30
0.0
 10
-3.118622837
 20
307.6446634908
 30
0.0
 10
-0.8546383066
 20
308.3712062593
 30
0.0
 10
0.3425237067
 20
308.7090653621
 30
0.0
  0
SPLINE
  5
3A5
100
AcDbEntity
  8
0
100
AcDbSpline
 62
7
  6
CONTINUOUS
 70
0
 71
3
 72
9
 73
5
 74
0
 42
0.0000001
 43
0.0000001
 44
0.0000000001
 40
0.0
 40
0.0
 40
0.0
 40
0.0
 40
0.2556745431
 40
1.0
 40
1.0
 40
1.0
 40
1.0
 10
-8.4237557468
 20
299.5532172539
 30
0.0
 10
-8.4604883018
 20
299.4651833753
 30
0.0
 10
-8.5951586127
 20
299.1172107551
 30
0.0
 10
-8.6921006126
 20
298.7543759482
 30
0.0
 10
-8.7393930081
 20
298.4807311244
 30
0.0
  0
SPLINE
  5
3A6
100
AcDbEntity
  8
0
100
AcDbSpline
 62
7
  6
CONTINUOUS
 70
0
 71
3
 72
9
 73
5
 74
0
 42
0.0000001
 43
0.0000001
 44
0.0000000001
 40
0.0
 40
0.0
 40
0.0
 40
0.0
 40
0.2344732125
 40
1.0
 40
1.0
 40
1.0
 40
1.0
 10
44.5542668032
 20
305.0267375083
 30
0.0
 10
44.2621645237
 20
305.1920031392
 30
0.0
 10
42.9996943881
 20
305.8672913234
 30
0.0
 10
41.6800694115
 20
306.4325294654
 30
0.0
 10
40.654061326
 20
306.8171707368
 30
0.0
  0
SPLINE
  5
3A7
100
AcDbEntity
  8
0
100
AcDbSpline
 62
7
  6
CONTINUOUS
 70
0
 71
3
 72
15
 73
11
 74
0
 42
0.0000001
 43
0.0000001
 44
0.0000000001
 40
0.0
 40
0.0
 40
0.0
 40
0.0
 40
0.1090601104
 40
0.2283149446
 40
0.355242569
 40
0.4869702778
 40
0.6204173573
 40
0.7524334764
 40
0.8799197268
 40
1.0
 40
1.0
 40
1.0
 40
1.0
 10
40.654061326
 20
306.8171707368
 30
0.0
 10
39.3855162903
 20
307.2927369455
 30
0.0
 10
36.6720345549
 20
308.1366860809
 30
0.0
 10
32.3552365271
 20
309.0730740702
 30
0.0
 10
27.7010342375
 20
309.7177939972
 30
0.0
 10
22.838174558
 20
310.0522786264
 30
0.0
 10
17.9007459321
 20
310.0670099796
 30
0.0
 10
13.0253346825
 20
309.76149156
 30
0.0
 10
8.3469317707
 20
309.1446748837
 30
0.0
 10
5.3328225463
 20
308.5140843538
 30
0.0
 10
3.888081801
 20
308.1429376412
 30
0.0
  0
SPLINE
  5
3A8
100
AcDbEntity
  8
0
100
AcDbSpline
 62
7
  6
CONTINUOUS
 70
0
 71
3
 72
16
 73
12
 74
0
 42
0.0000001
 43
0.0000001
 44
0.0000000001
 40
0.0
 40
0.0
 40
0.0
 40
0.0
 40
0.1277673722
 40
0.2647308837
 40
0.405940747
 40
0.5460529143
 40
0.6798231209
 40
0.8024433108
 40
0.9099654439
 40
0.9572526271
 40
1.0
 40
1.0
 40
1.0
 40
1.0
 10
1.1938893544
 20
308.9416875802
 30
0.0
 10
3.2846270853
 20
309.4945151792
 30
0.0
 10
7.6854445907
 20
310.3857584658
 30
0.0
 10
14.5238143533
 20
311.1300061509
 30
0.0
 10
21.6100771585
 20
311.2995988841
 30
0.0
 10
28.6320087784
 20
310.8912807956
 30
0.0
 10
35.2829208659
 20
309.9226920549
 30
0.0
 10
41.2715018941
 20
308.4383683096
 30
0.0
 10
45.6782391084
 20
306.7624560999
 30
0.0
 10
48.6277758668
 20
305.178482239
 30
0.0
 10
49.8931114656
 20
304.3219751854
 30
0.0
 10
50.4641107747
 20
303.8775953964
 30
0.0
  0
SPLINE
  5
3A9
100
AcDbEntity
  8
0
100
AcDbSpline
 62
7
  6
CONTINUOUS
 70
0
 71
3
 72
11
 73
7
 74
0
 42
0.0000001
 43
0.0000001
 44
0.0000000001
 40
0.0
 40
0.0
 40
0.0
 40
0.0
 40
0.2886252786
 40
0.5408641117
 40
0.7712017323
 40
1.0
 40
1.0
 40
1.0
 40
1.0
 10
51.2953025786
 20
303.1816805267
 30
0.0
 10
51.8574528141
 20
302.6735310455
 30
0.0
 10
52.8368118752
 20
301.6295539179
 30
0.0
 10
53.8443309782
 20
299.8440121425
 30
0.0
 10
54.2254380125
 20
297.9801468607
 30
0.0
 10
54.0386231171
 20
296.7615367795
 30
0.0
 10
53.8568691867
 20
296.188988669
 30
0.0
  0
SPLINE
  5
3AA
100
AcDbEntity
  8
0
100
AcDbSpline
 62
7
  6
CONTINUOUS
 70
0
 71
3
 72
9
 73
5
 74
0
 42
0.0000001
 43
0.0000001
 44
0.0000000001
 40
0.0
 40
0.0
 40
0.0
 40
0.0
 40
0.4699868345
 40
1.0
 40
1.0
 40
1.0
 40
1.0
 10
53.8568691867
 20
296.188988669
 30
0.0
 10
53.6743821012
 20
295.6141310261
 30
0.0
 10
53.0961133356
 20
294.4485270226
 30
0.0
 10
52.2642230577
 20
293.458841267
 30
0.0
 10
51.7847277624
 20
292.9764515315
 30
0.0
  0
SPLINE
  5
3AB
100
AcDbEntity
  8
0
100
AcDbSpline
 62
7
  6
CONTINUOUS
 70
0
 71
3
 72
9
 73
5
 74
0
 42
0.0000001
 43
0.0000001
 44
0.0000000001
 40
0.0
 40
0.0
 40
0.0
 40
0.0
 40
0.4671643439
 40
1.0
 40
1.0
 40
1.0
 40
1.0
 10
51.3379535784
 20
292.5489233555
 30
0.0
 10
50.69360002
 20
291.9614301332
 30
0.0
 10
49.1923630163
 20
290.8365905138
 30
0.0
 10
47.5565730957
 20
289.9285457812
 30
0.0
 10
46.6639629918
 20
289.4899335551
 30
0.0
  0
SPLINE
  5
3AC
100
AcDbEntity
  8
0
100
AcDbSpline
 62
7
  6
CONTINUOUS
 70
0
 71
3
 72
9
 73
5
 74
0
 42
0.0000001
 43
0.0000001
 44
0.0000000001
 40
0.0
 40
0.0
 40
0.0
 40
0.0
 40
0.4743210509
 40
1.0
 40
1.0
 40
1.0
 40
1.0
 10
46.6639629918
 20
289.4899335551
 30
0.0
 10
45.5463802748
 20
288.9407739151
 30
0.0
 10
43.1166989102
 20
287.9309697946
 30
0.0
 10
40.6052881802
 20
287.1550317759
 30
0.0
 10
39.2723016766
 20
286.7977174353
 30
0.0
  0
SPLINE
  5
3AD
100
AcDbEntity
  8
0
100
AcDbSpline
 62
7
  6
CONTINUOUS
 70
0
 71
3
 72
9
 73
5
 74
0
 42
0.0000001
 43
0.0000001
 44
0.0000000001
 40
0.0
 40
0.0
 40
0.0
 40
0.0
 40
0.5231817882
 40
1.0
 40
1.0
 40
1.0
 40
1.0
 10
36.8841544989
 20
288.6780351255
 30
0.0
 10
37.9611787502
 20
288.966737381
 30
0.0
 10
40.0014155592
 20
289.5908024714
 30
0.0
 10
41.9823343994
 20
290.3874487149
 30
0.0
 10
42.9027471148
 20
290.818227952
 30
0.0
  0
SPLINE
  5
3AE
100
AcDbEntity
  8
0
100
AcDbSpline
 62
7
  6
CONTINUOUS
 70
0
 71
3
 72
11
 73
7
 74
0
 42
0.0000001
 43
0.0000001
 44
0.0000000001
 40
0.0
 40
0.0
 40
0.0
 40
0.0
 40
0.2923176603
 40
0.555863265
 40
0.7910186439
 40
1.0
 40
1.0
 40
1.0
 40
1.0
 10
42.9027471148
 20
290.818227952
 30
0.0
 10
43.5741443713
 20
291.1324608968
 30
0.0
 10
44.827678403
 20
291.7822743829
 30
0.0
 10
46.507679215
 20
292.8864665058
 30
0.0
 10
47.8734037735
 20
294.0591777974
 30
0.0
 10
48.6025558002
 20
294.9277490002
 30
0.0
 10
48.8972703964
 20
295.3682040685
 30
0.0
  0
SPLINE
  5
3AF
100
AcDbEntity
  8
0
100
AcDbSpline
 62
7
  6
CONTINUOUS
 70
0
 71
3
 72
15
 73
11
 74
0
 42
0.0000001
 43
0.0000001
 44
0.0000000001
 40
0.0
 40
0.0
 40
0.0
 40
0.0
 40
0.1157122313
 40
0.2231369862
 40
0.3281309041
 40
0.4370512918
 40
0.5554674859
 40
0.6873702562
 40
0.8352049641
 40
1.0
 40
1.0
 40
1.0
 40
1.0
 10
48.9283219274
 20
295.4150043658
 30
0.0
 10
49.179686032
 20
295.7970905353
 30
0.0
 10
49.5961211877
 20
296.5841477047
 30
0.0
 10
49.9095635378
 20
297.8576151755
 30
0.0
 10
49.8666464813
 20
299.1433368058
 30
0.0
 10
49.4694392286
 20
300.4102999522
 30
0.0
 10
48.7352887538
 20
301.6380636382
 30
0.0
 10
47.6817470397
 20
302.8171406258
 30
0.0
 10
46.3233173804
 20
303.9395306318
 30
0.0
 10
45.2807998634
 20
304.6080714803
 30
0.0
 10
44.7167653757
 20
304.9338471741
 30
0.0
  0
SPLINE
  5
3B0
100
AcDbEntity
  8
0
100
AcDbSpline
 62
7
  6
CONTINUOUS
 70
0
 71
3
 72
8
 73
4
 74
0
 42
0.0000001
 43
0.0000001
 44
0.0000000001
 40
0.0
 40
0.0
 40
0.0
 40
0.0
 40
1.0
 40
1.0
 40
1.0
 40
1.0
 10
-16.743459833
 20
297.5501554733
 30
0.0
 10
-16.7093574564
 20
297.5651298591
 30
0.0
 10
-16.6709557699
 20
297.5723472932
 30
0.0
 10
-16.63372766
 20
297.5712194007
 30
0.0
  0
SPLINE
  5
3B1
100
AcDbEntity
  8
0
100
AcDbSpline
 62
7
  6
CONTINUOUS
 70
0
 71
3
 72
8
 73
4
 74
0
 42
0.0000001
 43
0.0000001
 44
0.0000000001
 40
0.0
 40
0.0
 40
0.0
 40
0.0
 40
1.0
 40
1.0
 40
1.0
 40
1.0
 10
56.9766901394
 20
297.7559479065
 30
0.0
 10
56.9557263893
 20
297.7803401866
 30
0.0
 10
56.9271942278
 20
297.7993890898
 30
0.0
 10
56.8969081453
 20
297.8102156941
 30
0.0
  0
SPLINE
  5
3B2
100
AcDbEntity
  8
0
100
AcDbSpline
 62
7
  6
CONTINUOUS
 70
0
 71
3
 72
9
 73
5
 74
0
 42
0.0000001
 43
0.0000001
 44
0.0000000001
 40
0.0
 40
0.0
 40
0.0
 40
0.0
 40
0.4928724676
 40
1.0
 40
1.0
 40
1.0
 40
1.0
 10
-16.8755750209
 20
297.379235277
 30
0.0
 10
-16.8694087546
 20
297.4137010707
 30
0.0
 10
-16.838218026
 20
297.4813768823
 30
0.0
 10
-16.7786936867
 20
297.5255747821
 30
0.0
 10
-16.7457212411
 20
297.5400892532
 30
0.0
  0
SPLINE
  5
3B3
100
AcDbEntity
  8
0
100
AcDbSpline
 62
7
  6
CONTINUOUS
 70
0
 71
3
 72
8
 73
4
 74
0
 42
0.0000001
 43
0.0000001
 44
0.0000000001
 40
0.0
 40
0.0
 40
0.0
 40
0.0
 40
1.0
 40
1.0
 40
1.0
 40
1.0
 10
-16.7457212411
 20
297.5400892532
 30
0.0
 10
-16.711573724
 20
297.5551209907
 30
0.0
 10
-16.6731029863
 20
297.562372372
 30
0.0
 10
-16.635810363
 20
297.5612470732
 30
0.0
  0
SPLINE
  5
3B4
100
AcDbEntity
  8
0
100
AcDbSpline
 62
7
  6
CONTINUOUS
 70
0
 71
3
 72
9
 73
5
 74
0
 42
0.0000001
 43
0.0000001
 44
0.0000000001
 40
0.0
 40
0.0
 40
0.0
 40
0.0
 40
0.4633169638
 40
1.0
 40
1.0
 40
1.0
 40
1.0
 10
57.4978906249
 20
295.458338105
 30
0.0
 10
57.639053622
 20
294.668599119
 30
0.0
 10
57.7720428746
 20
292.9334579012
 30
0.0
 10
57.6845799107
 20
291.2012092039
 30
0.0
 10
57.5980604577
 20
290.2759526342
 30
0.0
  0
SPLINE
  5
3B5
100
AcDbEntity
  8
0
100
AcDbSpline
 62
7
  6
CONTINUOUS
 70
0
 71
3
 72
12
 73
8
 74
0
 42
0.0000001
 43
0.0000001
 44
0.0000000001
 40
0.0
 40
0.0
 40
0.0
 40
0.0
 40
0.3887871488
 40
0.6846802695
 40
0.8870166414
 40
0.9540757052
 40
1.0
 40
1.0
 40
1.0
 40
1.0
 10
-16.4460147103
 20
291.8185693354
 30
0.0
 10
-16.6019289664
 20
292.1131194304
 30
0.0
 10
-16.8709153781
 20
292.6351943343
 30
0.0
 10
-17.1897544459
 20
293.3248995274
 30
0.0
 10
-17.3654339156
 20
293.7787792849
 30
0.0
 10
-17.4265725554
 20
294.0418479105
 30
0.0
 10
-17.4333990821
 20
294.1401088902
 30
0.0
 10
-17.4271458421
 20
294.1789755866
 30
0.0
  0
SPLINE
  5
3B6
100
AcDbEntity
  8
0
100
AcDbSpline
 62
7
  6
CONTINUOUS
 70
0
 71
3
 72
9
 73
5
 74
0
 42
0.0000001
 43
0.0000001
 44
0.0000000001
 40
0.0
 40
0.0
 40
0.0
 40
0.0
 40
0.4981164374
 40
1.0
 40
1.0
 40
1.0
 40
1.0
 10
-16.73973797
 20
291.6054297608
 30
0.0
 10
-16.7311442719
 20
291.6596980183
 30
0.0
 10
-16.6742611437
 20
291.7641759169
 30
0.0
 10
-16.5678272771
 20
291.8166421735
 30
0.0
 10
-16.5129193763
 20
291.8237028223
 30
0.0
  0
SPLINE
  5
3B7
100
AcDbEntity
  8
0
100
AcDbSpline
 62
7
  6
CONTINUOUS
 70
0
 71
3
 72
9
 73
5
 74
0
 42
0.0000001
 43
0.0000001
 44
0.0000000001
 40
0.0
 40
0.0
 40
0.0
 40
0.0
 40
0.2437548906
 40
1.0
 40
1.0
 40
1.0
 40
1.0
 10
-16.7311639476
 20
291.595793217
 30
0.0
 10
-16.6755521334
 20
291.5362729825
 30
0.0
 10
-16.444436392
 20
291.2948749367
 30
0.0
 10
-16.201921035
 20
291.0644626922
 30
0.0
 10
-16.0134518885
 20
290.896096833
 30
0.0
  0
SPLINE
  5
3B8
100
AcDbEntity
  8
0
100
AcDbSpline
 62
7
  6
CONTINUOUS
 70
0
 71
3
 72
11
 73
7
 74
0
 42
0.0000001
 43
0.0000001
 44
0.0000000001
 40
0.0
 40
0.0
 40
0.0
 40
0.0
 40
0.2327595631
 40
0.4751878847
 40
0.7305810068
 40
1.0
 40
1.0
 40
1.0
 40
1.0
 10
22.9208498008
 20
266.7160179098
 30
0.0
 10
23.9792208118
 20
265.8135181869
 30
0.0
 10
25.908003395
 20
263.6825302392
 30
0.0
 10
28.0005307216
 20
259.8096355246
 30
0.0
 10
29.2724708739
 20
255.3719834446
 30
0.0
 10
29.5408480188
 20
252.2266681104
 30
0.0
 10
29.5408480188
 20
250.6166808683
 30
0.0
  0
SPLINE
  5
3B9
100
AcDbEntity
  8
0
100
AcDbSpline
 62
7
  6
CONTINUOUS
 70
0
 71
3
 72
13
 73
9
 74
0
 42
0.0000001
 43
0.0000001
 44
0.0000000001
 40
0.0
 40
0.0
 40
0.0
 40
0.0
 40
0.2347902242
 40
0.4890705672
 40
0.6197521108
 40
0.7497766182
 40
0.8771066556
 40
1.0
 40
1.0
 40
1.0
 40
1.0
 10
-39.5293579012
 20
292.1224503023
 30
0.0
 10
-40.2662308772
 20
291.9249274611
 30
0.0
 10
-41.7187735176
 20
291.1829128496
 30
0.0
 10
-43.1427341955
 20
289.714983368
 30
0.0
 10
-44.0228685223
 20
288.2859951966
 30
0.0
 10
-44.5197610511
 20
287.1217284425
 30
0.0
 10
-44.8279889577
 20
285.9204755876
 30
0.0
 10
-44.9012589125
 20
285.1061164725
 30
0.0
 10
-44.9012589125
 20
284.7068077965
 30
0.0
  0
SPLINE
  5
3BA
100
AcDbEntity
  8
0
100
AcDbSpline
 62
7
  6
CONTINUOUS
 70
0
 71
3
 72
11
 73
7
 74
0
 42
0.0000001
 43
0.0000001
 44
0.0000000001
 40
0.0
 40
0.0
 40
0.0
 40
0.0
 40
0.2717776924
 40
0.5268678486
 40
0.7676328571
 40
1.0
 40
1.0
 40
1.0
 40
1.0
 10
-44.9012589125
 20
218.5147156295
 30
0.0
 10
-44.9012589125
 20
218.0703423669
 30
0.0
 10
-44.8148618968
 20
217.2052123776
 30
0.0
 10
-44.4010564315
 20
216.0068268948
 30
0.0
 10
-43.7229760647
 20
215.0097262129
 30
0.0
 10
-43.1093077988
 20
214.5161506562
 30
0.0
 10
-42.7803206994
 20
214.3261038747
 30
0.0
  0
SPLINE
  5
3BB
100
AcDbEntity
  8
0
100
AcDbSpline
 62
7
  6
CONTINUOUS
 70
0
 71
3
 72
8
 73
4
 74
0
 42
0.0000001
 43
0.0000001
 44
0.0000000001
 40
0.0
 40
0.0
 40
0.0
 40
0.0
 40
1.0
 40
1.0
 40
1.0
 40
1.0
 10
-38.184371957
 20
280.5395461482
 30
0.0
 10
-38.2819219995
 20
280.1537524519
 30
0.0
 10
-38.4967858374
 20
279.7831178144
 30
0.0
 10
-38.7830574621
 20
279.5067098844
 30
0.0
  0
SPLINE
  5
3BC
100
AcDbEntity
  8
0
100
AcDbSpline
 62
7
  6
CONTINUOUS
 70
0
 71
3
 72
14
 73
10
 74
0
 42
0.0000001
 43
0.0000001
 44
0.0000000001
 40
0.0
 40
0.0
 40
0.0
 40
0.0
 40
0.1154325116
 40
0.2365939988
 40
0.3624809449
 40
0.4915375991
 40
0.6218657733
 40
0.7514371355
 40
1.0
 40
1.0
 40
1.0
 40
1.0
 10
6.1295168688
 20
267.6366432624
 30
0.0
 10
4.7500273251
 20
267.2227484709
 30
0.0
 10
2.0030889128
 20
266.0869781176
 30
0.0
 10
-1.8239965452
 20
263.6397575075
 30
0.0
 10
-5.3341512435
 20
260.4959192156
 30
0.0
 10
-8.4004337395
 20
256.7717332185
 30
0.0
 10
-10.9147417212
 20
252.5982178286
 30
0.0
 10
-13.3716902271
 20
246.7362869773
 30
0.0
 10
-14.2194840654
 20
241.9877848979
 30
0.0
 10
-14.2194840654
 20
238.8864839292
 30
0.0
  0
SPLINE
  5
3BD
100
AcDbEntity
  8
0
100
AcDbSpline
 62
7
  6
CONTINUOUS
 70
0
 71
3
 72
8
 73
4
 74
0
 42
0.0000001
 43
0.0000001
 44
0.0000000001
 40
0.0
 40
0.0
 40
0.0
 40
0.0
 40
1.0
 40
1.0
 40
1.0
 40
1.0
 10
-38.184371957
 20
225.3794693423
 30
0.0
 10
-38.2819219995
 20
224.9936756461
 30
0.0
 10
-38.4967858374
 20
224.6230410085
 30
0.0
 10
-38.7830574621
 20
224.3466330785
 30
0.0
  0
SPLINE
  5
3BE
100
AcDbEntity
  8
0
100
AcDbSpline
 62
7
  6
CONTINUOUS
 70
0
 71
3
 72
10
 73
6
 74
0
 42
0.0000001
 43
0.0000001
 44
0.0000000001
 40
0.0
 40
0.0
 40
0.0
 40
0.0
 40
0.5252176711
 40
0.7667927662
 40
1.0
 40
1.0
 40
1.0
 40
1.0
 10
-38.8511591314
 20
279.0509676632
 30
0.0
 10
-38.8511591314
 20
278.8271771625
 30
0.0
 10
-38.7856510221
 20
278.4903295637
 30
0.0
 10
-38.5429317036
 20
278.1344508901
 30
0.0
 10
-38.3825030964
 20
278.0051752899
 30
0.0
 10
-38.2964457951
 20
277.9554959211
 30
0.0
  0
SPLINE
  5
3BF
100
AcDbEntity
  8
0
100
AcDbSpline
 62
7
  6
CONTINUOUS
 70
0
 71
3
 72
10
 73
6
 74
0
 42
0.0000001
 43
0.0000001
 44
0.0000000001
 40
0.0
 40
0.0
 40
0.0
 40
0.0
 40
0.5148899604
 40
0.7596727888
 40
1.0
 40
1.0
 40
1.0
 40
1.0
 10
-37.4462004054
 20
212.7758150788
 30
0.0
 10
-38.0005031317
 20
212.627231194
 30
0.0
 10
-38.8687975897
 20
212.5400582771
 30
0.0
 10
-39.9659499573
 20
212.7685596964
 30
0.0
 10
-40.4652244425
 20
212.9889261548
 30
0.0
 10
-40.697163205
 20
213.1229107904
 30
0.0
  0
SPLINE
  5
3C0
100
AcDbEntity
  8
0
100
AcDbSpline
 62
7
  6
CONTINUOUS
 70
0
 71
3
 72
10
 73
6
 74
0
 42
0.0000001
 43
0.0000001
 44
0.0000000001
 40
0.0
 40
0.0
 40
0.0
 40
0.0
 40
0.5252176711
 40
0.7667927662
 40
1.0
 40
1.0
 40
1.0
 40
1.0
 10
-38.8511591314
 20
223.8908908573
 30
0.0
 10
-38.8511591314
 20
223.6671003566
 30
0.0
 10
-38.7856510221
 20
223.3302527578
 30
0.0
 10
-38.5429317036
 20
222.9743740843
 30
0.0
 10
-38.3825030964
 20
222.845098484
 30
0.0
 10
-38.2964457951
 20
222.7954191152
 30
0.0
  0
SPLINE
  5
3C1
100
AcDbEntity
  8
0
100
AcDbSpline
 62
7
  6
CONTINUOUS
 70
0
 71
3
 72
13
 73
9
 74
0
 42
0.0000001
 43
0.0000001
 44
0.0000000001
 40
0.0
 40
0.0
 40
0.0
 40
0.0
 40
0.1054216662
 40
0.2162098291
 40
0.3355589934
 40
0.4637550049
 40
0.7347840682
 40
1.0
 40
1.0
 40
1.0
 40
1.0
 10
-36.5959550156
 20
225.7395763783
 30
0.0
 10
-36.6998457439
 20
225.7995506713
 30
0.0
 10
-36.9380543296
 20
225.8831037062
 30
0.0
 10
-37.3264082514
 20
225.8770928951
 30
0.0
 10
-37.7189058487
 20
225.7479427606
 30
0.0
 10
-38.2179977698
 20
225.4234072124
 30
0.0
 10
-38.6938649119
 20
224.8061833984
 30
0.0
 10
-38.8511591314
 20
224.19267967
 30
0.0
 10
-38.8511591314
 20
223.8908908573
 30
0.0
  0
SPLINE
  5
3C2
100
AcDbEntity
  8
0
100
AcDbSpline
 62
7
  6
CONTINUOUS
 70
0
 71
3
 72
11
 73
7
 74
0
 42
0.0000001
 43
0.0000001
 44
0.0000000001
 40
0.0
 40
0.0
 40
0.0
 40
0.0
 40
0.2574480825
 40
0.5087305987
 40
0.755511071
 40
1.0
 40
1.0
 40
1.0
 40
1.0
 10
2.3939371529
 20
218.42904048
 30
0.0
 10
1.5504916853
 20
218.3846593753
 30
0.0
 10
-0.1243726972
 20
218.4056585932
 30
0.0
 10
-2.5825077649
 20
218.7823593657
 30
0.0
 10
-4.9194860188
 20
219.5000068821
 30
0.0
 10
-6.3786337507
 20
220.2013018527
 30
0.0
 10
-7.0732061064
 20
220.6024613957
 30
0.0
  0
SPLINE
  5
3C3
100
AcDbEntity
  8
0
100
AcDbSpline
 62
7
  6
CONTINUOUS
 70
0
 71
3
 72
13
 73
9
 74
0
 42
0.0000001
 43
0.0000001
 44
0.0000000001
 40
0.0
 40
0.0
 40
0.0
 40
0.0
 40
0.245661
 40
0.3735600528
 40
0.5026925708
 40
0.6314522685
 40
0.7582632519
 40
1.0
 40
1.0
 40
1.0
 40
1.0
 10
29.5408480188
 20
250.6166808683
 30
0.0
 10
29.5408480188
 20
247.6038133688
 30
0.0
 10
28.8063252084
 20
242.9973321732
 30
0.0
 10
26.6446655356
 20
237.2131175296
 30
0.0
 10
24.4171866001
 20
233.022120575
 30
0.0
 10
21.6699066555
 20
229.1679020657
 30
0.0
 10
17.4988537541
 20
224.7049698657
 30
0.0
 10
13.7370563151
 20
222.0446550227
 30
0.0
 10
11.0679226043
 20
220.7541498369
 30
0.0
  0
SPLINE
  5
3C4
100
AcDbEntity
  8
0
100
AcDbSpline
 62
7
  6
CONTINUOUS
 70
0
 71
3
 72
13
 73
9
 74
0
 42
0.0000001
 43
0.0000001
 44
0.0000000001
 40
0.0
 40
0.0
 40
0.0
 40
0.0
 40
0.274692903
 40
0.542207907
 40
0.6670905742
 40
0.784068139
 40
0.8940924654
 40
1.0
 40
1.0
 40
1.0
 40
1.0
 10
11.0679226043
 20
220.7541498369
 30
0.0
 10
10.8477373153
 20
219.9144782353
 30
0.0
 10
10.0917994669
 20
218.3297702315
 30
0.0
 10
8.5397527214
 20
216.822838803
 30
0.0
 10
7.0827610696
 20
216.1098114554
 30
0.0
 10
5.9846735117
 20
215.8679781608
 30
0.0
 10
4.9201484216
 20
215.9278334736
 30
0.0
 10
4.2699217419
 20
216.1752469713
 30
0.0
 10
3.9801319664
 20
216.3426762032
 30
0.0
  0
SPLINE
  5
3C5
100
AcDbEntity
  8
0
100
AcDbSpline
 62
7
  6
CONTINUOUS
 70
0
 71
3
 72
11
 73
7
 74
0
 42
0.0000001
 43
0.0000001
 44
0.0000000001
 40
0.0
 40
0.0
 40
0.0
 40
0.0
 40
0.2717439845
 40
0.52688753
 40
0.7676297984
 40
1.0
 40
1.0
 40
1.0
 40
1.0
 10
3.8383677956
 20
220.3299242142
 30
0.0
 10
3.8383677956
 20
220.0906771055
 30
0.0
 10
3.8849355702
 20
219.6248356618
 30
0.0
 10
4.1076514347
 20
218.9795143519
 30
0.0
 10
4.4728720133
 20
218.4426443933
 30
0.0
 10
4.8032790607
 20
218.1768791341
 30
0.0
 10
4.9804257159
 20
218.0745423681
 30
0.0
  0
SPLINE
  5
3C6
100
AcDbEntity
  8
0
100
AcDbSpline
 62
7
  6
CONTINUOUS
 70
0
 71
3
 72
13
 73
9
 74
0
 42
0.0000001
 43
0.0000001
 44
0.0000000001
 40
0.0
 40
0.0
 40
0.0
 40
0.0
 40
0.2714319311
 40
0.526217362
 40
0.648228798
 40
0.7672664471
 40
0.8841851166
 40
1.0
 40
1.0
 40
1.0
 40
1.0
 10
-14.2194840654
 20
238.8864839292
 30
0.0
 10
-14.2194840654
 20
237.1534753769
 30
0.0
 10
-13.8832401689
 20
233.7805458661
 30
0.0
 10
-12.5161712167
 20
229.824975204
 30
0.0
 10
-10.9001303638
 20
227.0923451031
 30
0.0
 10
-9.4686799951
 20
225.3002620782
 30
0.0
 10
-7.8202946815
 20
223.763232733
 30
0.0
 10
-6.5881732885
 20
222.9206668833
 30
0.0
 10
-5.9478588298
 20
222.5508399798
 30
0.0
  0
SPLINE
  5
3C7
100
AcDbEntity
  8
0
100
AcDbSpline
 62
7
  6
CONTINUOUS
 70
0
 71
3
 72
13
 73
9
 74
0
 42
0.0000001
 43
0.0000001
 44
0.0000000001
 40
0.0
 40
0.0
 40
0.0
 40
0.0
 40
0.1054216662
 40
0.2162098291
 40
0.3355589934
 40
0.4637550049
 40
0.7347840682
 40
1.0
 40
1.0
 40
1.0
 40
1.0
 10
-36.5959550156
 20
280.8996531842
 30
0.0
 10
-36.6998457439
 20
280.9596274772
 30
0.0
 10
-36.9380543296
 20
281.0431805121
 30
0.0
 10
-37.3264082514
 20
281.037169701
 30
0.0
 10
-37.7189058487
 20
280.9080195665
 30
0.0
 10
-38.2179977698
 20
280.5834840183
 30
0.0
 10
-38.6938649119
 20
279.9662602043
 30
0.0
 10
-38.8511591314
 20
279.3527564759
 30
0.0
 10
-38.8511591314
 20
279.0509676632
 30
0.0
  0
SPLINE
  5
3C8
100
AcDbEntity
  8
0
100
AcDbSpline
 62
7
  6
CONTINUOUS
 70
0
 71
3
 72
10
 73
6
 74
0
 42
0.0000001
 43
0.0000001
 44
0.0000000001
 40
0.0
 40
0.0
 40
0.0
 40
0.0
 40
0.2403242638
 40
0.4850896596
 40
1.0
 40
1.0
 40
1.0
 40
1.0
 10
-33.9320329425
 20
228.0118348672
 30
0.0
 10
-34.110466337
 20
228.1148620022
 30
0.0
 10
-34.4944728965
 20
228.2844296924
 30
0.0
 10
-35.3384525501
 20
228.4601694772
 30
0.0
 10
-36.006368932
 20
228.3931334356
 30
0.0
 10
-36.4327724344
 20
228.2788336389
 30
0.0
  0
SPLINE
  5
3C9
100
AcDbEntity
  8
0
100
AcDbSpline
 62
7
  6
CONTINUOUS
 70
0
 71
3
 72
10
 73
6
 74
0
 42
0.0000001
 43
0.0000001
 44
0.0000000001
 40
0.0
 40
0.0
 40
0.0
 40
0.0
 40
0.2370376436
 40
0.4825695405
 40
1.0
 40
1.0
 40
1.0
 40
1.0
 10
29.7067871847
 20
267.2302672664
 30
0.0
 10
30.3334903795
 20
266.2015099376
 30
0.0
 10
31.4437367649
 20
264.0016417258
 30
0.0
 10
33.0508259113
 20
259.1673373012
 30
0.0
 10
33.4974617429
 20
255.2590465359
 30
0.0
 10
33.4974617429
 20
252.629486313
 30
0.0
  0
SPLINE
  5
3CA
100
AcDbEntity
  8
0
100
AcDbSpline
 62
7
  6
CONTINUOUS
 70
0
 71
3
 72
15
 73
11
 74
0
 42
0.0000001
 43
0.0000001
 44
0.0000000001
 40
0.0
 40
0.0
 40
0.0
 40
0.0
 40
0.1226793102
 40
0.2497804871
 40
0.3795759387
 40
0.5100271139
 40
0.6390304753
 40
0.7646372387
 40
0.8852762652
 40
1.0
 40
1.0
 40
1.0
 40
1.0
 10
33.4974617429
 20
252.629486313
 30
0.0
 10
33.4974617429
 20
250.5561016586
 30
0.0
 10
33.1170582268
 20
246.3277779814
 30
0.0
 10
31.516497446
 20
240.0902081622
 30
0.0
 10
28.9369148319
 20
234.0461984474
 30
0.0
 10
25.4752835163
 20
228.4236087063
 30
0.0
 10
21.261168715
 20
223.4318082144
 30
0.0
 10
16.4492742739
 20
219.2582998967
 30
0.0
 10
11.2195055261
 20
216.0618061539
 30
0.0
 10
7.4777102997
 20
214.6272060774
 30
0.0
 10
5.6048987998
 20
214.1251886868
 30
0.0
  0
SPLINE
  5
3CB
100
AcDbEntity
  8
0
100
AcDbSpline
 62
7
  6
CONTINUOUS
 70
0
 71
3
 72
9
 73
5
 74
0
 42
0.0000001
 43
0.0000001
 44
0.0000000001
 40
0.0
 40
0.0
 40
0.0
 40
0.0
 40
0.2460215198
 40
1.0
 40
1.0
 40
1.0
 40
1.0
 10
-4.5760569421
 20
269.9984369688
 30
0.0
 10
-4.6065469706
 20
269.5276775899
 30
0.0
 10
-4.779256264
 20
267.6175523223
 30
0.0
 10
-5.1432204394
 20
265.7256020505
 30
0.0
 10
-5.5130745372
 20
264.3279586466
 30
0.0
  0
SPLINE
  5
3CC
100
AcDbEntity
  8
0
100
AcDbSpline
 62
7
  6
CONTINUOUS
 70
0
 71
3
 72
11
 73
7
 74
0
 42
0.0000001
 43
0.0000001
 44
0.0000000001
 40
0.0
 40
0.0
 40
0.0
 40
0.0
 40
0.2750170934
 40
0.5296431463
 40
0.7689473132
 40
1.0
 40
1.0
 40
1.0
 40
1.0
 10
-28.1683093401
 20
284.0074679738
 30
0.0
 10
-27.7375932434
 20
284.729828767
 30
0.0
 10
-26.809615377
 20
286.0666553286
 30
0.0
 10
-25.1515265996
 20
287.7524461222
 30
0.0
 10
-23.304119327
 20
289.0060574174
 30
0.0
 10
-21.953013145
 20
289.5397412675
 30
0.0
 10
-21.270529682
 20
289.7226838186
 30
0.0
  0
SPLINE
  5
3CD
100
AcDbEntity
  8
0
100
AcDbSpline
 62
7
  6
CONTINUOUS
 70
0
 71
3
 72
11
 73
7
 74
0
 42
0.0000001
 43
0.0000001
 44
0.0000000001
 40
0.0
 40
0.0
 40
0.0
 40
0.0
 40
0.2442416884
 40
0.4974290251
 40
0.7519781476
 40
1.0
 40
1.0
 40
1.0
 40
1.0
 10
-23.9765753365
 20
238.6468565492
 30
0.0
 10
-24.048012109
 20
241.6834344469
 30
0.0
 10
-23.3955476996
 20
247.9049403827
 30
0.0
 10
-20.3378017891
 20
256.8181839912
 30
0.0
 10
-15.4203903882
 20
264.9108034527
 30
0.0
 10
-11.0348920553
 20
269.4561383009
 30
0.0
 10
-8.6376948662
 20
271.3970519046
 30
0.0
  0
SPLINE
  5
3CE
100
AcDbEntity
  8
0
100
AcDbSpline
 62
7
  6
CONTINUOUS
 70
0
 71
3
 72
11
 73
7
 74
0
 42
0.0000001
 43
0.0000001
 44
0.0000000001
 40
0.0
 40
0.0
 40
0.0
 40
0.0
 40
0.2355324402
 40
0.4801457151
 40
0.7349563161
 40
1.0
 40
1.0
 40
1.0
 40
1.0
 10
-18.0785135232
 20
221.4228139546
 30
0.0
 10
-19.0028614632
 20
222.5455053007
 30
0.0
 10
-20.666087942
 20
225.0242560992
 30
0.0
 10
-22.4869068925
 20
229.2041966205
 30
0.0
 10
-23.6388141881
 20
233.8015620717
 30
0.0
 10
-23.9380874312
 20
237.010843071
 30
0.0
 10
-23.9765753365
 20
238.6468565492
 30
0.0
  0
SPLINE
  5
3CF
100
AcDbEntity
  8
0
100
AcDbSpline
 62
7
  6
CONTINUOUS
 70
0
 71
3
 72
13
 73
9
 74
0
 42
0.0000001
 43
0.0000001
 44
0.0000000001
 40
0.0
 40
0.0
 40
0.0
 40
0.0
 40
0.1054216662
 40
0.2162098291
 40
0.3355589934
 40
0.4637550049
 40
0.7347840682
 40
1.0
 40
1.0
 40
1.0
 40
1.0
 10
-38.2964457951
 20
222.7954191152
 30
0.0
 10
-38.1925550668
 20
222.7354448222
 30
0.0
 10
-37.9543464811
 20
222.6518917873
 30
0.0
 10
-37.5659925593
 20
222.6579025984
 30
0.0
 10
-37.173494962
 20
222.7870527329
 30
0.0
 10
-36.6744030409
 20
223.111588281
 30
0.0
 10
-36.1985358988
 20
223.728812095
 30
0.0
 10
-36.0412416793
 20
224.3423158235
 30
0.0
 10
-36.0412416793
 20
224.6441046362
 30
0.0
  0
SPLINE
  5
3D0
100
AcDbEntity
  8
0
100
AcDbSpline
 62
7
  6
CONTINUOUS
 70
0
 71
3
 72
11
 73
7
 74
0
 42
0.0000001
 43
0.0000001
 44
0.0000000001
 40
0.0
 40
0.0
 40
0.0
 40
0.0
 40
0.2323671568
 40
0.4731321704
 40
0.7282223224
 40
1.0
 40
1.0
 40
1.0
 40
1.0
 10
-40.697163205
 20
213.1229107904
 30
0.0
 10
-41.0261503217
 20
213.3129575875
 30
0.0
 10
-41.6398186117
 20
213.8065331661
 30
0.0
 10
-42.3178989725
 20
214.8036338838
 30
0.0
 10
-42.7317044096
 20
216.0020193513
 30
0.0
 10
-42.8181014166
 20
216.8671493091
 30
0.0
 10
-42.8181014166
 20
217.3115225477
 30
0.0
  0
SPLINE
  5
3D1
100
AcDbEntity
  8
0
100
AcDbSpline
 62
7
  6
CONTINUOUS
 70
0
 71
3
 72
13
 73
9
 74
0
 42
0.0000001
 43
0.0000001
 44
0.0000000001
 40
0.0
 40
0.0
 40
0.0
 40
0.0
 40
0.1158157883
 40
0.2327342893
 40
0.3517715333
 40
0.4737832966
 40
0.7285664037
 40
1.0
 40
1.0
 40
1.0
 40
1.0
 10
-7.0732061064
 20
220.6024613957
 30
0.0
 10
-7.770360734
 20
221.0051123643
 30
0.0
 10
-9.1118406638
 20
221.9224783451
 30
0.0
 10
-10.9064851309
 20
223.5959803913
 30
0.0
 10
-12.4650083924
 20
225.5470997027
 30
0.0
 10
-14.2245114268
 20
228.5222384015
 30
0.0
 10
-15.7128891971
 20
232.8289034534
 30
0.0
 10
-16.0789882616
 20
236.5011965974
 30
0.0
 10
-16.0789882616
 20
238.3880336344
 30
0.0
  0
SPLINE
  5
3D2
100
AcDbEntity
  8
0
100
AcDbSpline
 62
7
  6
CONTINUOUS
 70
0
 71
3
 72
13
 73
9
 74
0
 42
0.0000001
 43
0.0000001
 44
0.0000000001
 40
0.0
 40
0.0
 40
0.0
 40
0.0
 40
0.2455300416
 40
0.3733506207
 40
0.5024233971
 40
0.6311620117
 40
0.758003056
 40
1.0
 40
1.0
 40
1.0
 40
1.0
 10
-16.0789882616
 20
238.3880336344
 30
0.0
 10
-16.0789882616
 20
241.3838712853
 30
0.0
 10
-15.3527681173
 20
245.9639786919
 30
0.0
 10
-13.2140231079
 20
251.7193709656
 30
0.0
 10
-11.0094621116
 20
255.8926216159
 30
0.0
 10
-8.2892135477
 20
259.7353100577
 30
0.0
 10
-4.1555114642
 20
264.1946494068
 30
0.0
 10
-0.4258360117
 20
266.8631782343
 30
0.0
 10
2.2232989119
 20
268.1672832391
 30
0.0
  0
SPLINE
  5
3D3
100
AcDbEntity
  8
0
100
AcDbSpline
 62
7
  6
CONTINUOUS
 70
0
 71
3
 72
13
 73
9
 74
0
 42
0.0000001
 43
0.0000001
 44
0.0000000001
 40
0.0
 40
0.0
 40
0.0
 40
0.0
 40
0.1054436707
 40
0.215833518
 40
0.3342698815
 40
0.4612955632
 40
0.731291013
 40
1.0
 40
1.0
 40
1.0
 40
1.0
 10
4.9804257159
 20
218.0745423681
 30
0.0
 10
5.184842255
 20
217.956451922
 30
0.0
 10
5.6503534522
 20
217.7888108671
 30
0.0
 10
6.4106747376
 20
217.7832008787
 30
0.0
 10
7.184696711
 20
218.0108861308
 30
0.0
 10
8.1838332355
 20
218.6078360682
 30
0.0
 10
9.1738842533
 20
219.7797229039
 30
0.0
 10
9.5583185942
 20
220.9645726542
 30
0.0
 10
9.6097733786
 20
221.5639738769
 30
0.0
  0
SPLINE
  5
3D4
100
AcDbEntity
  8
0
100
AcDbSpline
 62
7
  6
CONTINUOUS
 70
0
 71
3
 72
12
 73
8
 74
0
 42
0.0000001
 43
0.0000001
 44
0.0000000001
 40
0.0
 40
0.0
 40
0.0
 40
0.0
 40
0.2349933756
 40
0.4894753556
 40
0.6202647794
 40
0.7503870015
 40
1.0
 40
1.0
 40
1.0
 40
1.0
 10
-36.4327724344
 20
274.2455643105
 30
0.0
 10
-35.8659261488
 20
274.3975105652
 30
0.0
 10
-34.7485745487
 20
274.9683704596
 30
0.0
 10
-33.6532872343
 20
276.0972726609
 30
0.0
 10
-32.9762082126
 20
277.1970714919
 30
0.0
 10
-32.4741394085
 20
278.3719653554
 30
0.0
 10
-32.3005408873
 20
279.3265364952
 30
0.0
 10
-32.3005408873
 20
279.9499046996
 30
0.0
  0
SPLINE
  5
3D5
100
AcDbEntity
  8
0
100
AcDbSpline
 62
7
  6
CONTINUOUS
 70
0
 71
3
 72
13
 73
9
 74
0
 42
0.0000001
 43
0.0000001
 44
0.0000000001
 40
0.0
 40
0.0
 40
0.0
 40
0.0
 40
0.2398731579
 40
0.3664484843
 40
0.4953570736
 40
0.6249142241
 40
0.753377947
 40
1.0
 40
1.0
 40
1.0
 40
1.0
 10
9.6097733786
 20
222.18998837
 30
0.0
 10
12.1875135607
 20
223.2787640954
 30
0.0
 10
15.8491290417
 20
225.6599106113
 30
0.0
 10
19.9211442147
 20
229.7733644513
 30
0.0
 10
22.6206359775
 20
233.3828981418
 30
0.0
 10
24.8163151055
 20
237.343840106
 30
0.0
 10
26.952013862
 20
242.8403656988
 30
0.0
 10
27.6813438226
 20
247.241255848
 30
0.0
 10
27.6813438226
 20
250.1182305734
 30
0.0
  0
SPLINE
  5
3D6
100
AcDbEntity
  8
0
100
AcDbSpline
 62
7
  6
CONTINUOUS
 70
0
 71
3
 72
13
 73
9
 74
0
 42
0.0000001
 43
0.0000001
 44
0.0000000001
 40
0.0
 40
0.0
 40
0.0
 40
0.0
 40
0.2714323855
 40
0.5262141243
 40
0.6482246359
 40
0.7672619926
 40
0.8841830713
 40
1.0
 40
1.0
 40
1.0
 40
1.0
 10
27.6813438226
 20
250.1182305734
 30
0.0
 10
27.6813438226
 20
251.8512419696
 30
0.0
 10
27.3450987905
 20
255.2241484057
 30
0.0
 10
25.9780673955
 20
259.17970399
 30
0.0
 10
24.3620194466
 20
261.9122980622
 30
0.0
 10
22.9305483682
 20
263.7043648281
 30
0.0
 10
21.2822214438
 20
265.2415041795
 30
0.0
 10
20.0500324387
 20
266.0840205994
 30
0.0
 10
19.409723015
 20
266.45388228
 30
0.0
  0
SPLINE
  5
3D7
100
AcDbEntity
  8
0
100
AcDbSpline
 62
7
  6
CONTINUOUS
 70
0
 71
3
 72
13
 73
9
 74
0
 42
0.0000001
 43
0.0000001
 44
0.0000000001
 40
0.0
 40
0.0
 40
0.0
 40
0.0
 40
0.1054216662
 40
0.2162098291
 40
0.3355589934
 40
0.4637550049
 40
0.7347840682
 40
1.0
 40
1.0
 40
1.0
 40
1.0
 10
-38.2964457951
 20
277.9554959211
 30
0.0
 10
-38.1925550668
 20
277.8955216281
 30
0.0
 10
-37.9543464811
 20
277.8119685931
 30
0.0
 10
-37.5659925593
 20
277.8179794043
 30
0.0
 10
-37.173494962
 20
277.9471295388
 30
0.0
 10
-36.6744030409
 20
278.2716650869
 30
0.0
 10
-36.1985358988
 20
278.8888889009
 30
0.0
 10
-36.0412416793
 20
279.5023926293
 30
0.0
 10
-36.0412416793
 20
279.8041814421
 30
0.0
  0
SPLINE
  5
3D8
100
AcDbEntity
  8
0
100
AcDbSpline
 62
7
  6
CONTINUOUS
 70
0
 71
3
 72
11
 73
7
 74
0
 42
0.0000001
 43
0.0000001
 44
0.0000000001
 40
0.0
 40
0.0
 40
0.0
 40
0.0
 40
0.2432668573
 40
0.4893806767
 40
0.7409469418
 40
1.0
 40
1.0
 40
1.0
 40
1.0
 10
-5.9478588298
 20
222.5508399798
 30
0.0
 10
-5.2354607441
 20
222.1393796817
 30
0.0
 10
-3.7291392412
 20
221.4317857593
 30
0.0
 10
-1.3048326981
 20
220.7562784949
 30
0.0
 10
1.2490066423
 20
220.4733807824
 30
0.0
 10
2.9816271503
 20
220.5476071986
 30
0.0
 10
3.8520863786
 20
220.6466088021
 30
0.0
  0
SPLINE
  5
3D9
100
AcDbEntity
  8
0
100
AcDbSpline
 62
7
  6
CONTINUOUS
 70
0
 71
3
 72
9
 73
5
 74
0
 42
0.0000001
 43
0.0000001
 44
0.0000000001
 40
0.0
 40
0.0
 40
0.0
 40
0.0
 40
0.4892508382
 40
1.0
 40
1.0
 40
1.0
 40
1.0
 10
-28.1683093401
 20
282.7834063702
 30
0.0
 10
-28.1683093401
 20
280.3524455634
 30
0.0
 10
-28.9708809257
 20
275.367542536
 30
0.0
 10
-31.0719197948
 20
270.7948083524
 30
0.0
 10
-32.4205085753
 20
268.6450088907
 30
0.0
  0
SPLINE
  5
3DA
100
AcDbEntity
  8
0
100
AcDbSpline
 62
7
  6
CONTINUOUS
 70
0
 71
3
 72
9
 73
5
 74
0
 42
0.0000001
 43
0.0000001
 44
0.0000000001
 40
0.0
 40
0.0
 40
0.0
 40
0.0
 40
0.5107491617
 40
1.0
 40
1.0
 40
1.0
 40
1.0
 10
-32.4205085753
 20
268.6450088907
 30
0.0
 10
-34.1123746612
 20
265.9479875753
 30
0.0
 10
-36.7482238773
 20
260.2112843963
 30
0.0
 10
-37.7550865295
 20
253.957496485
 30
0.0
 10
-37.7550865295
 20
250.9077454317
 30
0.0
  0
SPLINE
  5
3DB
100
AcDbEntity
  8
0
100
AcDbSpline
 62
7
  6
CONTINUOUS
 70
0
 71
3
 72
13
 73
9
 74
0
 42
0.0000001
 43
0.0000001
 44
0.0000000001
 40
0.0
 40
0.0
 40
0.0
 40
0.0
 40
0.2714335899
 40
0.5262166963
 40
0.6482284601
 40
0.7672657055
 40
0.8841842086
 40
1.0
 40
1.0
 40
1.0
 40
1.0
 10
-37.7550865295
 20
250.9077454317
 30
0.0
 10
-37.7550865295
 20
249.0209084393
 30
0.0
 10
-37.3889874805
 20
245.3486153459
 30
0.0
 10
-35.900609755
 20
241.0419503289
 30
0.0
 10
-34.1411067452
 20
238.0668116054
 30
0.0
 10
-32.5825834737
 20
236.1156922631
 30
0.0
 10
-30.7879389691
 20
234.4421901926
 30
0.0
 10
-29.4464590256
 20
233.5248241641
 30
0.0
 10
-28.7493043713
 20
233.1221731982
 30
0.0
  0
SPLINE
  5
3DC
100
AcDbEntity
  8
0
100
AcDbSpline
 62
7
  6
CONTINUOUS
 70
0
 71
3
 72
13
 73
9
 74
0
 42
0.0000001
 43
0.0000001
 44
0.0000000001
 40
0.0
 40
0.0
 40
0.0
 40
0.0
 40
0.1228933572
 40
0.2502234085
 40
0.3802479217
 40
0.5109294677
 40
0.7652098012
 40
1.0
 40
1.0
 40
1.0
 40
1.0
 10
-42.8181014166
 20
283.5036147147
 30
0.0
 10
-42.8181014166
 20
283.9029234323
 30
0.0
 10
-42.7448314373
 20
284.7172826336
 30
0.0
 10
-42.4366034861
 20
285.9185355875
 30
0.0
 10
-41.9397108797
 20
287.0828023881
 30
0.0
 10
-41.0595765085
 20
288.5117905273
 30
0.0
 10
-39.635615847
 20
289.9797198782
 30
0.0
 10
-38.1830733016
 20
290.7217344006
 30
0.0
 10
-37.4462004054
 20
290.9192572205
 30
0.0
  0
SPLINE
  5
3DD
100
AcDbEntity
  8
0
100
AcDbSpline
 62
7
  6
CONTINUOUS
 70
0
 71
3
 72
9
 73
5
 74
0
 42
0.0000001
 43
0.0000001
 44
0.0000000001
 40
0.0
 40
0.0
 40
0.0
 40
0.0
 40
0.4783879462
 40
1.0
 40
1.0
 40
1.0
 40
1.0
 10
-34.1225275521
 20
227.8896516642
 30
0.0
 10
-33.8540436942
 20
227.5572246791
 30
0.0
 10
-33.4350497117
 20
226.7416358316
 30
0.0
 10
-33.3139688582
 20
225.841080838
 30
0.0
 10
-33.3139688582
 20
225.3751650686
 30
0.0
  0
SPLINE
  5
3DE
100
AcDbEntity
  8
0
100
AcDbSpline
 62
7
  6
CONTINUOUS
 70
0
 71
3
 72
12
 73
8
 74
0
 42
0.0000001
 43
0.0000001
 44
0.0000000001
 40
0.0
 40
0.0
 40
0.0
 40
0.0
 40
0.2496129985
 40
0.3797352206
 40
0.5105246444
 40
0.7650066244
 40
1.0
 40
1.0
 40
1.0
 40
1.0
 10
-33.3139688582
 20
280.5352418745
 30
0.0
 10
-33.3139688582
 20
279.9118736701
 30
0.0
 10
-33.4875673794
 20
278.9573025304
 30
0.0
 10
-33.9896361835
 20
277.7824086668
 30
0.0
 10
-34.6667152052
 20
276.6826098359
 30
0.0
 10
-35.7620025197
 20
275.5537076345
 30
0.0
 10
-36.8793541198
 20
274.9828477401
 30
0.0
 10
-37.4462004054
 20
274.8309014855
 30
0.0
  0
SPLINE
  5
3DF
100
AcDbEntity
  8
0
100
AcDbSpline
 62
7
  6
CONTINUOUS
 70
0
 71
3
 72
12
 73
8
 74
0
 42
0.0000001
 43
0.0000001
 44
0.0000000001
 40
0.0
 40
0.0
 40
0.0
 40
0.0
 40
0.2698905886
 40
0.525156046
 40
0.7670813001
 40
0.8844031762
 40
1.0
 40
1.0
 40
1.0
 40
1.0
 10
-17.2050193404
 20
239.0384082732
 30
0.0
 10
-17.2050193404
 20
237.364717309
 30
0.0
 10
-16.9148361938
 20
234.0972892233
 30
0.0
 10
-15.5404420673
 20
229.5076998364
 30
0.0
 10
-13.6300815736
 20
226.1628914905
 30
0.0
 10
-11.7073827011
 20
223.9237271345
 30
0.0
 10
-10.6286933207
 20
222.9554948523
 30
0.0
 10
-10.0644046572
 20
222.5133812948
 30
0.0
  0
SPLINE
  5
3E0
100
AcDbEntity
  8
0
100
AcDbSpline
 62
7
  6
CONTINUOUS
 70
0
 71
3
 72
11
 73
7
 74
0
 42
0.0000001
 43
0.0000001
 44
0.0000000001
 40
0.0
 40
0.0
 40
0.0
 40
0.0
 40
0.251145052
 40
0.5063967964
 40
0.7582853651
 40
1.0
 40
1.0
 40
1.0
 40
1.0
 10
-5.5130745372
 20
264.3279586466
 30
0.0
 10
-7.303292561
 20
262.7364463701
 30
0.0
 10
-10.5700119653
 20
259.1230508011
 30
0.0
 10
-14.2728109159
 20
252.8567793433
 30
0.0
 10
-16.6284634565
 20
246.0638304938
 30
0.0
 10
-17.2050193404
 20
241.3438317766
 30
0.0
 10
-17.2050193404
 20
239.0384082732
 30
0.0
  0
SPLINE
  5
3E1
100
AcDbEntity
  8
0
100
AcDbSpline
 62
7
  6
CONTINUOUS
 70
0
 71
3
 72
10
 73
6
 74
0
 42
0.0000001
 43
0.0000001
 44
0.0000000001
 40
0.0
 40
0.0
 40
0.0
 40
0.0
 40
0.5252176711
 40
0.7667927662
 40
1.0
 40
1.0
 40
1.0
 40
1.0
 10
-36.0412416793
 20
279.8041814421
 30
0.0
 10
-36.0412416793
 20
280.0279719428
 30
0.0
 10
-36.1067497886
 20
280.3648195415
 30
0.0
 10
-36.3494691071
 20
280.7206982151
 30
0.0
 10
-36.5098977143
 20
280.8499738153
 30
0.0
 10
-36.5959550156
 20
280.8996531842
 30
0.0
  0
SPLINE
  5
3E2
100
AcDbEntity
  8
0
100
AcDbSpline
 62
7
  6
CONTINUOUS
 70
0
 71
3
 72
11
 73
7
 74
0
 42
0.0000001
 43
0.0000001
 44
0.0000000001
 40
0.0
 40
0.0
 40
0.0
 40
0.0
 40
0.2425818009
 40
0.4956422617
 40
0.751010694
 40
1.0
 40
1.0
 40
1.0
 40
1.0
 10
-22.2876633768
 20
237.6759765187
 30
0.0
 10
-22.2876633768
 20
240.7336304067
 30
0.0
 10
-21.4579804383
 20
246.9990865512
 30
0.0
 10
-18.1018766766
 20
255.9278169296
 30
0.0
 10
-12.8739390765
 20
264.0010685204
 30
0.0
 10
-8.2906187544
 20
268.501765105
 30
0.0
 10
-5.7997416988
 20
270.4110057356
 30
0.0
  0
SPLINE
  5
3E3
100
AcDbEntity
  8
0
100
AcDbSpline
 62
7
  6
CONTINUOUS
 70
0
 71
3
 72
11
 73
7
 74
0
 42
0.0000001
 43
0.0000001
 44
0.0000000001
 40
0.0
 40
0.0
 40
0.0
 40
0.0
 40
0.2346393666
 40
0.4787332766
 40
0.7337609677
 40
1.0
 40
1.0
 40
1.0
 40
1.0
 10
-16.8278726881
 20
220.7003757235
 30
0.0
 10
-17.7204824462
 20
221.8048649628
 30
0.0
 10
-19.3173870617
 20
224.2478076062
 30
0.0
 10
-21.0299653302
 20
228.3690706309
 30
0.0
 10
-22.066722215
 20
232.9040211044
 30
0.0
 10
-22.2876633768
 20
236.0646410401
 30
0.0
 10
-22.2876633768
 20
237.6759765187
 30
0.0
  0
SPLINE
  5
3E4
100
AcDbEntity
  8
0
100
AcDbSpline
 62
7
  6
CONTINUOUS
 70
0
 71
3
 72
10
 73
6
 74
0
 42
0.0000001
 43
0.0000001
 44
0.0000000001
 40
0.0
 40
0.0
 40
0.0
 40
0.0
 40
0.2411468078
 40
0.4863296488
 40
1.0
 40
1.0
 40
1.0
 40
1.0
 10
3.9801319664
 20
216.3426762032
 30
0.0
 10
3.7939455458
 20
216.4502474566
 30
0.0
 10
3.4395327588
 20
216.7064451894
 30
0.0
 10
2.8322781209
 20
217.3654265884
 30
0.0
 10
2.5276098336
 20
217.9909461363
 30
0.0
 10
2.3939371529
 20
218.42904048
 30
0.0
  0
SPLINE
  5
3E5
100
AcDbEntity
  8
0
100
AcDbSpline
 62
7
  6
CONTINUOUS
 70
0
 71
3
 72
11
 73
7
 74
0
 42
0.0000001
 43
0.0000001
 44
0.0000000001
 40
0.0
 40
0.0
 40
0.0
 40
0.0
 40
0.271772124
 40
0.5268740629
 40
0.7676338636
 40
1.0
 40
1.0
 40
1.0
 40
1.0
 10
-32.3005408873
 20
224.7898278937
 30
0.0
 10
-32.3005408873
 20
225.1316470139
 30
0.0
 10
-32.3670140229
 20
225.7971350111
 30
0.0
 10
-32.6852897149
 20
226.7189930949
 30
0.0
 10
-33.2069234142
 20
227.4859667272
 30
0.0
 10
-33.6789365918
 20
227.8656974696
 30
0.0
 10
-33.9320329425
 20
228.0118348672
 30
0.0
  0
SPLINE
  5
3E6
100
AcDbEntity
  8
0
100
AcDbSpline
 62
7
  6
CONTINUOUS
 70
0
 71
3
 72
10
 73
6
 74
0
 42
0.0000001
 43
0.0000001
 44
0.0000000001
 40
0.0
 40
0.0
 40
0.0
 40
0.0
 40
0.5252176711
 40
0.7667927662
 40
1.0
 40
1.0
 40
1.0
 40
1.0
 10
-36.0412416793
 20
224.6441046362
 30
0.0
 10
-36.0412416793
 20
224.8678951369
 30
0.0
 10
-36.1067497886
 20
225.2047427356
 30
0.0
 10
-36.3494691071
 20
225.5606214092
 30
0.0
 10
-36.5098977143
 20
225.6898970095
 30
0.0
 10
-36.5959550156
 20
225.7395763783
 30
0.0
  0
SPLINE
  5
3E7
100
AcDbEntity
  8
0
100
AcDbSpline
 62
7
  6
CONTINUOUS
 70
0
 71
3
 72
9
 73
5
 74
0
 42
0.0000001
 43
0.0000001
 44
0.0000000001
 40
0.0
 40
0.0
 40
0.0
 40
0.0
 40
0.5091690219
 40
1.0
 40
1.0
 40
1.0
 40
1.0
 10
-15.2341505151
 20
264.4426905571
 30
0.0
 10
-14.6204206741
 20
265.9454734885
 30
0.0
 10
-13.6650902288
 20
269.0062403138
 30
0.0
 10
-13.280312391
 20
272.193477451
 30
0.0
 10
-13.2520869358
 20
273.7580343384
 30
0.0
  0
ENDSEC
  0
SECTION
  2
OBJECTS
  0
DICTIONARY
  5
C
100
AcDbDictionary
280
0
281
1
  3
ACAD_GROUP
350
D
  3
ACAD_MLINESTYLE
350
17
  3
ACAD_LAYOUT
350
1A
  3
ACAD_PLOTSETTINGS
350
19
  3
ACAD_PLOTSTYLENAME
350
E
  0
DICTIONARY
  5
D
102
{ACAD_REACTORS
330
C
102
}
100
AcDbDictionary
280
0
281
1
  0
ACDBDICTIONARYWDFLT
  5
E
102
{ACAD_REACTORS
330
C
102
}
100
AcDbDictionary
281
1
  3
Normal
350
F
100
AcDbDictionaryWithDefault
340
F
  0
DICTIONARY
  5
17
102
{ACAD_REACTORS
330
C
102
}
100
AcDbDictionary
280
0
281
1
  3
Standard
350
18
  0
DICTIONARY
  5
19
102
{ACAD_REACTORS
330
C
102
}
100
AcDbDictionary
281
1
  0
DICTIONARY
  5
1A
102
{ACAD_REACTORS
330
C
102
}
100
AcDbDictionary
281
1
  3
Model
350
3E8
  3
Layout1
350
3E9
  0
ACDBPLACEHOLDER
  5
F
102
{ACAD_REACTORS
330
E
102
}
  0
MLINESTYLE
  5
18
102
{ACAD_REACTORS
330
17
102
}
100
AcDbMlineStyle
  2
STANDARD
 70
0
  3

 62
256
 51
90.0
 52
90.0
 71
2
 49
0.5
 62
256
  6
BYLAYER
 49
-0.5
 62
256
  6
BYLAYER
  0
LAYOUT
  5
3E8
102
{ACAD_REACTORS
330
1A
102
}
100
AcDbPlotSettings
  1

  2
none_device
  4
ANSI_C_(22.00_x_17.00_Inches)
  6

 40
0.0
 41
0.0
 42
0.0
 43
0.0
 44
558.8
 45
431.8
 46
0.0
 47
0.0
 48
0.0
 49
0.0
140
0.0
141
0.0
142
1.0
143
1.0
 70
1024
 72
1
 73
0
 74
0
  7

 75
0
147
1.0
148
0.0
149
0.0
100
AcDbLayout
  1
Model
 70
0
 71
0
 10
0.0
 20
0.0
 11
558.8
 21
431.8
 12
0.0
 22
0.0
 32
0.0
 14
0.0
 24
0.0
 34
0.0
 15
0.0
 25
0.0
 35
0.0
146
0.0
 13
0.0
 23
0.0
 33
0.0
 16
1.0
 26
0.0
 36
0.0
 17
0.0
 27
1.0
 37
0.0
 76
0
330
216
345
0
346
0
  0
LAYOUT
  5
3E9
102
{ACAD_REACTORS
330
1A
102
}
100
AcDbPlotSettings
  1

  2
none_device
  4
ANSI_C_(22.00_x_17.00_Inches)
  6

 40
0.0
 41
0.0
 42
0.0
 43
0.0
 44
558.8
 45
431.8
 46
0.0
 47
0.0
 48
0.0
 49
0.0
140
0.0
141
0.0
142
1.0
143
1.0
 70
0
 72
1
 73
0
 74
0
  7

 75
0
147
1.0
148
0.0
149
0.0
100
AcDbLayout
  1
Layout1
 70
0
 71
1
 10
0.0
 20
0.0
 11
558.8
 21
431.8
 12
0.0
 22
0.0
 32
0.0
 14
0.0
 24
0.0
 34
0.0
 15
0.0
 25
0.0
 35
0.0
146
0.0
 13
0.0
 23
0.0
 33
0.0
 16
1.0
 26
0.0
 36
0.0
 17
0.0
 27
1.0
 37
0.0
 76
0
330
217
345
0
346
0
  0
ENDSEC
  0
EOF
