999
DXF file: Y:\3D PRATIKA-KAEDRA_OLGA\TRAVAIL_PHASE_5\CAD3D\PKF16G735_3D-Simplified\PKF16G735_2D-isometric.dxf
999
Pro/ENGINEER 2018260 by Parametric Technology Corporation
  0
SECTION
  2
HEADER
  9
$ACADVER
  1
AC1027
  9
$DWGCODEPAGE
  3
ANSI_1252
  9
$EXTMAX
 10
558.8
 20
431.8
 30
0.0
  9
$EXTMIN
 10
0.0
 20
0.0
 30
0.0
  9
$LIMMIN
 10
0.0
 20
0.0
  9
$LIMMAX
 10
558.8
 20
431.8
  9
$VIEWCTR
 10
279.4
 20
215.9
  9
$VIEWSIZE
 40
431.8
  9
$CLAYER
  8
0
  9
$LTSCALE
 40
30.734
  9
$CELTYPE
  6
BYLAYER
  9
$DIMSCALE
 40
1.0
  9
$DIMASZ
 40
0.1875
  9
$DIMEXO
 40
0.0625
  9
$DIMDLI
 40
21.2344
  9
$DIMEXE
 40
0.125
  9
$DIMCEN
 40
5.0292
  9
$DIMLFAC
 40
1.0
  9
$DIMBLK
  1
_CLOSED
  9
$DIMALT
 70
0
  9
$DIMALTF
 40
0.0393700787
  9
$DIMTXT
 40
0.15625
  9
$DIMTOL
 70
0
  9
$DIMLIM
 70
0
  9
$DIMTFAC
 40
1.0
  9
$DIMGAP
 40
0.625
  9
$DIMDSEP
 70
46
  9
$AUNITS
 70
0
  9
$PDMODE
 70
3
  9
$PDSIZE
 40
0.3125
  9
$HANDSEED
  5
3C9
  9
$TILEMODE
 70
1
  9
$MEASUREMENT
 70
1
  9
$INSUNITS
 70
4
  0
ENDSEC
  0
SECTION
  2
CLASSES
  0
CLASS
  1
ACDBDICTIONARYWDFLT
  2
AcDbDictionaryWithDefault
  3
AutoCAD 2000
 90
0
 91
1
280
0
281
0
  0
CLASS
  1
ACDBPLACEHOLDER
  2
AcDbPlaceHolder
  3
AutoCAD 2000
 90
0
 91
1
280
0
281
0
  0
CLASS
  1
LAYOUT
  2
AcDbLayout
  3
AutoCAD 2000
 90
0
 91
0
280
0
281
0
  0
ENDSEC
  0
SECTION
  2
TABLES
  0
TABLE
  2
VPORT
  5
8
100
AcDbSymbolTable
 70
2
  0
VPORT
  5
1F4
100
AcDbSymbolTableRecord
100
AcDbViewportTableRecord
  2
*ACTIVE
 70
0
 10
0.0
 20
0.0
 11
1.0
 21
1.0
 12
279.4
 22
215.9
 13
0.0
 23
0.0
 14
1.0
 24
1.0
 15
0.0
 25
0.0
 16
0.0
 26
0.0
 36
1.0
 17
0.0
 27
0.0
 37
0.0
 40
431.8
 41
1.2941176471
 42
50.0
 43
0.0
 44
0.0
 50
0.0
 51
0.0
 71
0
 72
100
 73
1
 74
1
 75
0
 76
0
 77
0
 78
0
  0
ENDTAB
  0
TABLE
  2
LTYPE
  5
5
100
AcDbSymbolTable
 70
6
  0
LTYPE
  5
14
100
AcDbSymbolTableRecord
100
AcDbLinetypeTableRecord
  2
BYBLOCK
 70
0
  3

 72
65
 73
0
 40
0.0
  0
LTYPE
  5
15
100
AcDbSymbolTableRecord
100
AcDbLinetypeTableRecord
  2
BYLAYER
 70
0
  3

 72
65
 73
0
 40
0.0
  0
LTYPE
  5
16
100
AcDbSymbolTableRecord
100
AcDbLinetypeTableRecord
  2
CONTINUOUS
 70
64
  3
Solid line
 72
65
 73
0
 40
0.0
  0
LTYPE
  5
1F5
100
AcDbSymbolTableRecord
100
AcDbLinetypeTableRecord
  2
CENTER
 70
64
  3
____ _ ____ _ ____ _ ____ _ ____ _ ____ _ ____
 72
65
 73
4
 40
0.6
 49
0.375
 74
0
 49
-0.075
 74
0
 49
0.075
 74
0
 49
-0.075
 74
0
  0
LTYPE
  5
1F6
100
AcDbSymbolTableRecord
100
AcDbLinetypeTableRecord
  2
HIDDEN
 70
64
  3
- - - - - - - - - - - - - - - - - - - -
 72
65
 73
2
 40
0.2
 49
0.1
 74
0
 49
-0.1
 74
0
  0
LTYPE
  5
1F7
100
AcDbSymbolTableRecord
100
AcDbLinetypeTableRecord
  2
PHANTOM
 70
64
  3
_____ _ _ _____ _ _ _____ _ _ _____
 72
65
 73
6
 40
0.8
 49
0.45
 74
0
 49
-0.05
 74
0
 49
0.1
 74
0
 49
-0.05
 74
0
 49
0.1
 74
0
 49
-0.05
 74
0
  0
LTYPE
  5
1F8
100
AcDbSymbolTableRecord
100
AcDbLinetypeTableRecord
  2
DOT
 70
64
  3
. . . . . . . . . . . . . . . . . . . .
 72
65
 73
2
 40
0.2
 49
0.1
 74
0
 49
-0.1
 74
0
  0
LTYPE
  5
1F9
100
AcDbSymbolTableRecord
100
AcDbLinetypeTableRecord
  2
DASHED
 70
64
  3
- - - - - - - - - - - - - - - - - - - -
 72
65
 73
2
 40
0.2
 49
0.1
 74
0
 49
-0.1
 74
0
  0
ENDTAB
  0
TABLE
  2
LAYER
  5
2
100
AcDbSymbolTable
 70
36
  0
LAYER
  5
10
100
AcDbSymbolTableRecord
100
AcDbLayerTableRecord
  2
0
 70
0
 62
7
  6
CONTINUOUS
370
-3
390
F
  0
LAYER
  5
1FA
100
AcDbSymbolTableRecord
100
AcDbLayerTableRecord
  2
DEFAULT_1
 70
0
 62
7
  6
CENTER
370
-3
390
F
  0
LAYER
  5
1FB
100
AcDbSymbolTableRecord
100
AcDbLayerTableRecord
  2
DEFAULT_2
 70
0
 62
8
  6
HIDDEN
370
-3
390
F
  0
LAYER
  5
1FC
100
AcDbSymbolTableRecord
100
AcDbLayerTableRecord
  2
DEFAULT_3
 70
0
 62
7
  6
PHANTOM
370
-3
390
F
  0
LAYER
  5
1FD
100
AcDbSymbolTableRecord
100
AcDbLayerTableRecord
  2
01_ALL_DTM_PLN
 70
0
 62
7
  6
CONTINUOUS
370
-3
390
F
  0
LAYER
  5
1FE
100
AcDbSymbolTableRecord
100
AcDbLayerTableRecord
  2
01__ASM_ALL_DTM_PLN
 70
0
 62
7
  6
CONTINUOUS
370
-3
390
F
  0
LAYER
  5
1FF
100
AcDbSymbolTableRecord
100
AcDbLayerTableRecord
  2
01__ASM_DEF_DTM_PLN
 70
0
 62
7
  6
CONTINUOUS
370
-3
390
F
  0
LAYER
  5
200
100
AcDbSymbolTableRecord
100
AcDbLayerTableRecord
  2
01___PRT_ALL_DTM_PLN
 70
0
 62
7
  6
CONTINUOUS
370
-3
390
F
  0
LAYER
  5
201
100
AcDbSymbolTableRecord
100
AcDbLayerTableRecord
  2
01___PRT_DEF_DTM_PLN
 70
0
 62
7
  6
CONTINUOUS
370
-3
390
F
  0
LAYER
  5
202
100
AcDbSymbolTableRecord
100
AcDbLayerTableRecord
  2
02_ALL_AXES
 70
0
 62
7
  6
CONTINUOUS
370
-3
390
F
  0
LAYER
  5
203
100
AcDbSymbolTableRecord
100
AcDbLayerTableRecord
  2
02__ASM_ALL_AXES
 70
0
 62
7
  6
CONTINUOUS
370
-3
390
F
  0
LAYER
  5
204
100
AcDbSymbolTableRecord
100
AcDbLayerTableRecord
  2
02___PRT_ALL_AXES
 70
0
 62
7
  6
CONTINUOUS
370
-3
390
F
  0
LAYER
  5
205
100
AcDbSymbolTableRecord
100
AcDbLayerTableRecord
  2
03_ALL_CURVES
 70
0
 62
7
  6
CONTINUOUS
370
-3
390
F
  0
LAYER
  5
206
100
AcDbSymbolTableRecord
100
AcDbLayerTableRecord
  2
03__ASM_ALL_CURVES
 70
0
 62
7
  6
CONTINUOUS
370
-3
390
F
  0
LAYER
  5
207
100
AcDbSymbolTableRecord
100
AcDbLayerTableRecord
  2
03___PRT_ALL_CURVES
 70
0
 62
7
  6
CONTINUOUS
370
-3
390
F
  0
LAYER
  5
208
100
AcDbSymbolTableRecord
100
AcDbLayerTableRecord
  2
04_ALL_DTM_PNT
 70
0
 62
7
  6
CONTINUOUS
370
-3
390
F
  0
LAYER
  5
209
100
AcDbSymbolTableRecord
100
AcDbLayerTableRecord
  2
04__ASM_ALL_DTM_PNT
 70
0
 62
7
  6
CONTINUOUS
370
-3
390
F
  0
LAYER
  5
20A
100
AcDbSymbolTableRecord
100
AcDbLayerTableRecord
  2
04___PRT_ALL_DTM_PNT
 70
0
 62
7
  6
CONTINUOUS
370
-3
390
F
  0
LAYER
  5
20B
100
AcDbSymbolTableRecord
100
AcDbLayerTableRecord
  2
05_ALL_DTM_CSYS
 70
0
 62
7
  6
CONTINUOUS
370
-3
390
F
  0
LAYER
  5
20C
100
AcDbSymbolTableRecord
100
AcDbLayerTableRecord
  2
05__ASM_ALL_DTM_CSYS
 70
0
 62
7
  6
CONTINUOUS
370
-3
390
F
  0
LAYER
  5
20D
100
AcDbSymbolTableRecord
100
AcDbLayerTableRecord
  2
05__ASM_DEF_DTM_CSYS
 70
0
 62
7
  6
CONTINUOUS
370
-3
390
F
  0
LAYER
  5
20E
100
AcDbSymbolTableRecord
100
AcDbLayerTableRecord
  2
05___PRT_ALL_DTM_CSYS
 70
0
 62
7
  6
CONTINUOUS
370
-3
390
F
  0
LAYER
  5
20F
100
AcDbSymbolTableRecord
100
AcDbLayerTableRecord
  2
05___PRT_DEF_DTM_CSYS
 70
0
 62
7
  6
CONTINUOUS
370
-3
390
F
  0
LAYER
  5
210
100
AcDbSymbolTableRecord
100
AcDbLayerTableRecord
  2
06_ALL_SURFS
 70
0
 62
7
  6
CONTINUOUS
370
-3
390
F
  0
LAYER
  5
211
100
AcDbSymbolTableRecord
100
AcDbLayerTableRecord
  2
06__ASM_ALL_SURFS
 70
0
 62
7
  6
CONTINUOUS
370
-3
390
F
  0
LAYER
  5
212
100
AcDbSymbolTableRecord
100
AcDbLayerTableRecord
  2
06___PRT_ALL_SURFS
 70
0
 62
7
  6
CONTINUOUS
370
-3
390
F
  0
LAYER
  5
213
100
AcDbSymbolTableRecord
100
AcDbLayerTableRecord
  2
07__ASM_ALL_SKELETONS
 70
0
 62
7
  6
CONTINUOUS
370
-3
390
F
  0
ENDTAB
  0
TABLE
  2
STYLE
  5
3
100
AcDbSymbolTable
 70
1
  0
STYLE
  5
11
100
AcDbSymbolTableRecord
100
AcDbTextStyleTableRecord
  2
STANDARD
 70
0
 40
0.0
 41
0.8
 50
0.0
 71
0
 42
0.2
  3
txt
  4

  0
STYLE
  5
214
100
AcDbSymbolTableRecord
100
AcDbTextStyleTableRecord
  2
TEXTSTYLE_1
 70
0
 40
0.0
 41
0.8
 50
0.0
 71
0
 42
0.2
  3
gdt
  4

  0
ENDTAB
  0
TABLE
  2
VIEW
  5
6
100
AcDbSymbolTable
 70
0
  0
ENDTAB
  0
TABLE
  2
UCS
  5
7
100
AcDbSymbolTable
 70
0
  0
ENDTAB
  0
TABLE
  2
APPID
  5
9
100
AcDbSymbolTable
 70
1
  0
APPID
  5
215
100
AcDbSymbolTableRecord
100
AcDbRegAppTableRecord
  2
ACAD
 70
0
  0
ENDTAB
  0
TABLE
  2
BLOCK_RECORD
  5
1
100
AcDbSymbolTable
 70
0
  0
BLOCK_RECORD
  5
216
100
AcDbSymbolTableRecord
100
AcDbBlockTableRecord
  2
*Model_Space
  0
BLOCK_RECORD
  5
217
100
AcDbSymbolTableRecord
100
AcDbBlockTableRecord
  2
*Paper_Space
  0
BLOCK_RECORD
  5
218
100
AcDbSymbolTableRecord
100
AcDbBlockTableRecord
  2
_CLOSED
  0
ENDTAB
  0
TABLE
  2
DIMSTYLE
  5
A
100
AcDbSymbolTable
 70
1
100
AcDbDimStyleTable
 71
0
  0
DIMSTYLE
105
219
100
AcDbSymbolTableRecord
100
AcDbDimStyleTableRecord
  2
STANDARD
 70
0
  3

  4

 40
1.0
 41
0.1875
 42
0.0625
 43
0.38
 44
0.125
 45
0.0
 46
0.0
 47
0.01
 48
0.01
140
0.15625
141
0.09
142
0.0
143
25.4
144
1.0
145
0.0
146
1.0
147
0.625
 71
0.0
 72
0.0
 73
1
 74
1
 75
0
 76
0
 77
0
 78
8
 79
2
170
0
171
1
172
0
173
0
174
0
175
0
176
0
177
0
178
0
270
2
179
2
271
2
272
2
273
2
274
2
275
0
280
0
281
0
282
0
283
1
284
8
285
0
286
0
287
3
288
0
340
11
278
46
341
218
342
218
343
218
344
218
  0
ENDTAB
  0
ENDSEC
  0
SECTION
  2
BLOCKS
  0
BLOCK
  5
20
100
AcDbEntity
  8
0
100
AcDbBlockBegin
  2
*Model_Space
 70
0
 10
0.0
 20
0.0
 30
0.0
  3
*Model_Space
  1

  0
ENDBLK
  5
21
100
AcDbEntity
  8
0
100
AcDbBlockEnd
  0
BLOCK
  5
1C
100
AcDbEntity
  8
0
100
AcDbBlockBegin
  2
*Paper_Space
 70
0
 10
0.0
 20
0.0
 30
0.0
  3
*Paper_Space
  1

  0
ENDBLK
  5
1D
100
AcDbEntity
  8
0
100
AcDbBlockEnd
  0
BLOCK
  5
21A
100
AcDbEntity
  8
0
100
AcDbBlockBegin
  2
_CLOSED
 70
64
 10
0.0
 20
0.0
  3
_CLOSED
  1

  0
LINE
  5
21B
100
AcDbEntity
  8
0
  6
BYBLOCK
 62
0
100
AcDbLine
 10
0.0
 20
0.0
 11
-1.0
 21
0.1666666667
  0
LINE
  5
21C
100
AcDbEntity
  8
0
  6
BYBLOCK
 62
0
100
AcDbLine
 10
-1.0
 20
0.1666666667
 11
-1.0
 21
-0.1666666667
  0
LINE
  5
21D
100
AcDbEntity
  8
0
  6
BYBLOCK
 62
0
100
AcDbLine
 10
-1.0
 20
-0.1666666667
 11
0.0
 21
0.0
  0
LINE
  5
21E
100
AcDbEntity
  8
0
  6
BYBLOCK
 62
0
100
AcDbLine
 10
-1.0
 20
0.0
 11
0.0
 21
0.0
  0
ENDBLK
  5
21F
100
AcDbEntity
  8
0
  6
BYBLOCK
 62
0
100
AcDbBlockEnd
  0
ENDSEC
  0
SECTION
  2
ENTITIES
  0
LWPOLYLINE
  5
220
100
AcDbEntity
  8
0
100
AcDbPolyline
 62
7
  6
CONTINUOUS
 90
4
 70
0
 10
-21.9691978477
 20
308.003353742
 10
-22.0516855545
 20
307.9728339487
 10
-22.9467393244
 20
307.0013354603
 10
-23.411345715
 20
305.6538451663
  0
LWPOLYLINE
  5
221
100
AcDbEntity
  8
0
100
AcDbPolyline
 62
7
  6
CONTINUOUS
 90
5
 70
0
 10
-24.647919632
 20
295.5280390196
 10
-25.6924679653
 20
295.0375237467
 10
-26.477307889
 20
294.1377525921
 10
-26.9047467401
 20
292.7786505426
 10
-26.9524749394
 20
292.0925721217
  0
LWPOLYLINE
  5
222
100
AcDbEntity
  8
0
100
AcDbPolyline
 62
7
  6
CONTINUOUS
 90
4
 70
0
 10
-21.3460063901
 20
288.0827360356
 10
-21.6050999877
 20
287.9219573315
 10
-23.2969920396
 20
286.5334442524
 10
-24.4595116301
 20
284.998933015
  0
LINE
  5
223
100
AcDbEntity
  8
0
100
AcDbLine
 62
7
  6
CONTINUOUS
 10
-20.9734812632
 20
288.3064327875
 11
-21.3493215351
 21
288.0807462406
  0
LINE
  5
224
100
AcDbEntity
  8
0
100
AcDbLine
 62
7
  6
CONTINUOUS
 10
-20.9732234147
 20
288.3065876215
 11
-20.228727571
 21
288.717780903
  0
LINE
  5
225
100
AcDbEntity
  8
0
100
AcDbLine
 62
7
  6
CONTINUOUS
 10
-5.1842063158
 20
289.1392066689
 11
-5.162703509
 21
289.1524671336
  0
LINE
  5
226
100
AcDbEntity
  8
0
100
AcDbLine
 62
7
  6
CONTINUOUS
 10
-15.8297004405
 20
279.2833853291
 11
-15.8813793973
 21
279.2427649211
  0
LINE
  5
227
100
AcDbEntity
  8
0
100
AcDbLine
 62
7
  6
CONTINUOUS
 10
-15.8354988488
 20
279.2857987583
 11
-15.8813776429
 21
279.2427673347
  0
LINE
  5
228
100
AcDbEntity
  8
0
100
AcDbLine
 62
7
  6
CONTINUOUS
 10
-59.4040910774
 20
213.8429461369
 11
-59.4040910774
 21
291.9863882786
  0
LINE
  5
229
100
AcDbEntity
  8
0
100
AcDbLine
 62
7
  6
CONTINUOUS
 10
-56.87052115
 20
290.5230453412
 11
-56.87052115
 21
285.9263722741
  0
LINE
  5
22A
100
AcDbEntity
  8
0
100
AcDbLine
 62
7
  6
CONTINUOUS
 10
-56.87052115
 20
216.9762762667
 11
-56.87052115
 21
212.3796031995
  0
LINE
  5
22B
100
AcDbEntity
  8
0
100
AcDbLine
 62
7
  6
CONTINUOUS
 10
-56.0259978409
 20
285.4385912949
 11
-56.0259978409
 21
216.4884952876
  0
LINE
  5
22C
100
AcDbEntity
  8
0
100
AcDbLine
 62
7
  6
CONTINUOUS
 10
-23.2994232898
 20
305.6223964806
 11
-23.3070611376
 21
305.6013805058
  0
LINE
  5
22D
100
AcDbEntity
  8
0
100
AcDbLine
 62
7
  6
CONTINUOUS
 10
-56.9568696545
 20
209.0099067589
 11
-54.4232997271
 21
207.5465638215
  0
LINE
  5
22E
100
AcDbEntity
  8
0
100
AcDbLine
 62
7
  6
CONTINUOUS
 10
-47.3663885916
 20
208.0322284392
 11
-47.3663885916
 21
214.9272380399
  0
LINE
  5
22F
100
AcDbEntity
  8
0
100
AcDbLine
 62
7
  6
CONTINUOUS
 10
-47.3663885916
 20
293.0706801816
 11
-47.3663885916
 21
299.9656897823
  0
LINE
  5
230
100
AcDbEntity
  8
0
100
AcDbLine
 62
7
  6
CONTINUOUS
 10
-46.5218652825
 20
299.4779088032
 11
-46.5218652825
 21
292.5828992025
  0
LINE
  5
231
100
AcDbEntity
  8
0
100
AcDbLine
 62
7
  6
CONTINUOUS
 10
-46.5218652825
 20
207.5444474601
 11
-46.5218652825
 21
214.4394570608
  0
LINE
  5
232
100
AcDbEntity
  8
0
100
AcDbLine
 62
7
  6
CONTINUOUS
 10
-23.2079255975
 20
305.5857709304
 11
-23.2150211757
 21
305.5645890405
  0
LINE
  5
233
100
AcDbEntity
  8
0
100
AcDbLine
 62
7
  6
CONTINUOUS
 10
-15.8496048037
 20
279.3087084802
 11
-15.8813793192
 21
279.2427648087
  0
LINE
  5
234
100
AcDbEntity
  8
0
100
AcDbLine
 62
7
  6
CONTINUOUS
 10
14.1178778465
 20
273.3344470309
 11
14.0939933518
 21
273.3116650125
  0
LINE
  5
235
100
AcDbEntity
  8
0
100
AcDbLine
 62
7
  6
CONTINUOUS
 10
14.1186716984
 20
273.334231809
 11
14.0939933518
 21
273.3116650125
  0
LINE
  5
236
100
AcDbEntity
  8
0
100
AcDbLine
 62
7
  6
CONTINUOUS
 10
-46.5218652825
 20
207.5444474601
 11
-4.1145790989
 21
218.9119530271
  0
LINE
  5
237
100
AcDbEntity
  8
0
100
AcDbLine
 62
7
  6
CONTINUOUS
 10
-50.6721738293
 20
207.1460945817
 11
-47.3663885916
 21
208.0322284392
  0
LINE
  5
238
100
AcDbEntity
  8
0
100
AcDbLine
 62
7
  6
CONTINUOUS
 10
-59.4040910774
 20
213.8429461369
 11
-56.87052115
 21
212.3796031995
  0
LINE
  5
239
100
AcDbEntity
  8
0
100
AcDbLine
 62
7
  6
CONTINUOUS
 10
-46.5218652825
 20
207.5444474601
 11
-47.3663885916
 21
208.0322284392
  0
LINE
  5
23A
100
AcDbEntity
  8
0
100
AcDbLine
 62
7
  6
CONTINUOUS
 10
-56.0259978409
 20
216.4884952876
 11
-56.87052115
 21
216.9762762667
  0
LINE
  5
23B
100
AcDbEntity
  8
0
100
AcDbLine
 62
7
  6
CONTINUOUS
 10
-46.5218652825
 20
214.4394570608
 11
-47.3663885916
 21
214.9272380399
  0
LINE
  5
23C
100
AcDbEntity
  8
0
100
AcDbLine
 62
7
  6
CONTINUOUS
 10
-23.4106223313
 20
305.6578578019
 11
-23.4549366876
 21
305.3728467587
  0
LINE
  5
23D
100
AcDbEntity
  8
0
100
AcDbLine
 62
7
  6
CONTINUOUS
 10
-23.4113297054
 20
305.6539078982
 11
-23.4609928492
 21
305.3739613515
  0
LINE
  5
23E
100
AcDbEntity
  8
0
100
AcDbLine
 62
7
  6
CONTINUOUS
 10
-23.3596825092
 20
221.5127160134
 11
-16.1266468051
 21
223.4515708903
  0
LINE
  5
23F
100
AcDbEntity
  8
0
100
AcDbLine
 62
7
  6
CONTINUOUS
 10
-56.0259978409
 20
216.4884952876
 11
-50.6540968296
 21
217.9284628061
  0
LINE
  5
240
100
AcDbEntity
  8
0
100
AcDbLine
 62
7
  6
CONTINUOUS
 10
-32.0590548675
 20
292.5049335643
 11
-32.0590548675
 21
290.9224686727
  0
LINE
  5
241
100
AcDbEntity
  8
0
100
AcDbLine
 62
7
  6
CONTINUOUS
 10
-26.9521877034
 20
292.1138318163
 11
-26.9641013908
 21
290.7191509292
  0
LINE
  5
242
100
AcDbEntity
  8
0
100
AcDbLine
 62
7
  6
CONTINUOUS
 10
-26.9525887087
 20
292.0863471346
 11
-26.9521877034
 21
292.1138318163
  0
LINE
  5
243
100
AcDbEntity
  8
0
100
AcDbLine
 62
7
  6
CONTINUOUS
 10
9.803334189
 20
286.7582548652
 11
9.8103012169
 21
286.773746601
  0
LINE
  5
244
100
AcDbEntity
  8
0
100
AcDbLine
 62
7
  6
CONTINUOUS
 10
31.1031858992
 20
274.1066547045
 11
31.144636748
 21
274.1560568606
  0
LINE
  5
245
100
AcDbEntity
  8
0
100
AcDbLine
 62
7
  6
CONTINUOUS
 10
31.1031858992
 20
274.1066547045
 11
31.1451260432
 21
274.1558127423
  0
LINE
  5
246
100
AcDbEntity
  8
0
100
AcDbLine
 62
7
  6
CONTINUOUS
 10
-24.6072381355
 20
222.2333412958
 11
-23.3596825092
 21
221.5127160134
  0
LINE
  5
247
100
AcDbEntity
  8
0
100
AcDbLine
 62
7
  6
CONTINUOUS
 10
-14.2800893082
 20
304.7368227642
 11
-14.2800893082
 21
306.4695850419
  0
LINE
  5
248
100
AcDbEntity
  8
0
100
AcDbLine
 62
7
  6
CONTINUOUS
 10
1.4326455027
 20
214.5209240326
 11
-0.9836119013
 21
215.9156463163
  0
LINE
  5
249
100
AcDbEntity
  8
0
100
AcDbLine
 62
7
  6
CONTINUOUS
 10
-34.4656051573
 20
233.8719643514
 11
-29.4911911816
 21
230.9988352224
  0
LINE
  5
24A
100
AcDbEntity
  8
0
100
AcDbLine
 62
7
  6
CONTINUOUS
 10
-16.3298643977
 20
223.3970973004
 11
-13.0710146591
 21
221.5148462137
  0
LINE
  5
24B
100
AcDbEntity
  8
0
100
AcDbLine
 62
7
  6
CONTINUOUS
 10
-4.4866435528
 20
219.1268505458
 11
-0.1921490768
 21
216.6464302926
  0
LINE
  5
24C
100
AcDbEntity
  8
0
100
AcDbLine
 62
7
  6
CONTINUOUS
 10
-19.3539864425
 20
232.5051296212
 11
-0.3338855015
 21
221.5194725535
  0
LINE
  5
24D
100
AcDbEntity
  8
0
100
AcDbLine
 62
7
  6
CONTINUOUS
 10
-8.3817606321
 20
228.3336532913
 11
-20.3196420779
 21
235.2287519076
  0
LINE
  5
24E
100
AcDbEntity
  8
0
100
AcDbLine
 62
7
  6
CONTINUOUS
 10
-1.8868912009
 20
226.5607280699
 11
5.4512386645
 21
222.3223605413
  0
LINE
  5
24F
100
AcDbEntity
  8
0
100
AcDbLine
 62
7
  6
CONTINUOUS
 10
5.4512386645
 20
223.0702068041
 11
-0.5807507909
 21
226.5541718892
  0
LINE
  5
250
100
AcDbEntity
  8
0
100
AcDbLine
 62
7
  6
CONTINUOUS
 10
-0.3338855015
 20
221.5194725535
 11
-0.3338855015
 21
220.7716262906
  0
LINE
  5
251
100
AcDbEntity
  8
0
100
AcDbLine
 62
7
  6
CONTINUOUS
 10
1.4326455027
 20
216.2226331327
 11
1.4326455027
 21
214.5209240326
  0
LINE
  5
252
100
AcDbEntity
  8
0
100
AcDbLine
 62
7
  6
CONTINUOUS
 10
5.4512386645
 20
222.3223605413
 11
5.4512386645
 21
223.0702068041
  0
LINE
  5
253
100
AcDbEntity
  8
0
100
AcDbLine
 62
7
  6
CONTINUOUS
 10
-0.9836119013
 20
215.9156463163
 11
-0.9587090842
 21
217.0891811165
  0
LINE
  5
254
100
AcDbEntity
  8
0
100
AcDbLine
 62
7
  6
CONTINUOUS
 10
46.0801880722
 20
277.4650022423
 11
46.0444479291
 21
277.4023224645
  0
LINE
  5
255
100
AcDbEntity
  8
0
100
AcDbLine
 62
7
  6
CONTINUOUS
 10
46.0808236169
 20
277.4652899444
 11
46.0444479291
 21
277.4023224645
  0
LINE
  5
256
100
AcDbEntity
  8
0
100
AcDbLine
 62
7
  6
CONTINUOUS
 10
61.4270098927
 20
289.2223306141
 11
61.2856148503
 21
289.1844290879
  0
LINE
  5
257
100
AcDbEntity
  8
0
100
AcDbLine
 62
7
  6
CONTINUOUS
 10
56.6431072273
 20
282.6969327839
 11
56.8101019411
 21
282.7106175032
  0
LINE
  5
258
100
AcDbEntity
  8
0
100
AcDbLine
 62
7
  6
CONTINUOUS
 10
-56.0259978409
 20
285.4385912949
 11
-56.87052115
 21
285.9263722741
  0
LINE
  5
259
100
AcDbEntity
  8
0
100
AcDbLine
 62
7
  6
CONTINUOUS
 10
-36.9774182686
 20
276.5174578468
 11
-23.1835375527
 21
268.5503685212
  0
LINE
  5
25A
100
AcDbEntity
  8
0
100
AcDbLine
 62
7
  6
CONTINUOUS
 10
-50.6540968296
 20
286.8785588134
 11
-51.4986201387
 21
287.3663397925
  0
LINE
  5
25B
100
AcDbEntity
  8
0
100
AcDbLine
 62
7
  6
CONTINUOUS
 10
-56.87052115
 20
290.5230453412
 11
-59.4040910774
 21
291.9863882786
  0
LINE
  5
25C
100
AcDbEntity
  8
0
100
AcDbLine
 62
7
  6
CONTINUOUS
 10
-16.7152414064
 20
293.5956935461
 11
-16.6824786882
 21
293.6047067964
  0
LINE
  5
25D
100
AcDbEntity
  8
0
100
AcDbLine
 62
7
  6
CONTINUOUS
 10
46.0444475843
 20
277.4023225643
 11
46.2120399246
 21
277.3898200346
  0
LINE
  5
25E
100
AcDbEntity
  8
0
100
AcDbLine
 62
7
  6
CONTINUOUS
 10
-47.3663885916
 20
293.0706801816
 11
-46.5218652825
 21
292.5828992025
  0
LINE
  5
25F
100
AcDbEntity
  8
0
100
AcDbLine
 62
7
  6
CONTINUOUS
 10
-53.2057437567
 20
300.5428988622
 11
-50.6721738293
 21
299.0795559248
  0
LINE
  5
260
100
AcDbEntity
  8
0
100
AcDbLine
 62
7
  6
CONTINUOUS
 10
-2.3936339997
 20
275.1383834641
 11
-2.3588550122
 21
275.0726749447
  0
LINE
  5
261
100
AcDbEntity
  8
0
100
AcDbLine
 62
7
  6
CONTINUOUS
 10
56.6431077401
 20
282.6969327513
 11
56.6580247484
 21
282.7518932616
  0
LINE
  5
262
100
AcDbEntity
  8
0
100
AcDbLine
 62
7
  6
CONTINUOUS
 10
56.6431077401
 20
282.6969327513
 11
56.6594408081
 21
282.7522781867
  0
LINE
  5
263
100
AcDbEntity
  8
0
100
AcDbLine
 62
7
  6
CONTINUOUS
 10
-56.0259978409
 20
285.4385912949
 11
-50.6540968296
 21
286.8785588134
  0
LINE
  5
264
100
AcDbEntity
  8
0
100
AcDbLine
 62
7
  6
CONTINUOUS
 10
-56.87052115
 20
285.9263722741
 11
-51.4986201387
 21
287.3663397925
  0
LINE
  5
265
100
AcDbEntity
  8
0
100
AcDbLine
 62
7
  6
CONTINUOUS
 10
-23.7672708354
 20
295.7641173158
 11
-24.6574339359
 21
295.5255042162
  0
LINE
  5
266
100
AcDbEntity
  8
0
100
AcDbLine
 62
7
  6
CONTINUOUS
 10
-24.5510797279
 20
295.5520904999
 11
-24.6481376374
 21
295.5279810629
  0
LINE
  5
267
100
AcDbEntity
  8
0
100
AcDbLine
 62
7
  6
CONTINUOUS
 10
-22.9769111879
 20
295.9065223356
 11
-23.7672801838
 21
295.7641148099
  0
LINE
  5
268
100
AcDbEntity
  8
0
100
AcDbLine
 62
7
  6
CONTINUOUS
 10
31.1031857749
 20
274.106654841
 11
31.2458613274
 21
274.0698684592
  0
LINE
  5
269
100
AcDbEntity
  8
0
100
AcDbLine
 62
7
  6
CONTINUOUS
 10
-32.0590548675
 20
290.9224686727
 11
-25.9702147517
 21
287.405667702
  0
LINE
  5
26A
100
AcDbEntity
  8
0
100
AcDbLine
 62
7
  6
CONTINUOUS
 10
-46.5218652825
 20
299.4779088032
 11
-47.3663885916
 21
299.9656897823
  0
LINE
  5
26B
100
AcDbEntity
  8
0
100
AcDbLine
 62
7
  6
CONTINUOUS
 10
14.625144874
 20
268.1668341715
 11
4.819371483
 21
273.8304667721
  0
LINE
  5
26C
100
AcDbEntity
  8
0
100
AcDbLine
 62
7
  6
CONTINUOUS
 10
14.1900311719
 20
273.2561953089
 11
14.093993467
 21
273.3116651497
  0
LINE
  5
26D
100
AcDbEntity
  8
0
100
AcDbLine
 62
7
  6
CONTINUOUS
 10
-46.5218652825
 20
299.4779088032
 11
-23.4160579975
 21
305.6715471277
  0
LINE
  5
26E
100
AcDbEntity
  8
0
100
AcDbLine
 62
7
  6
CONTINUOUS
 10
-47.3663885916
 20
299.9656897823
 11
-50.6721738293
 21
299.0795559248
  0
LINE
  5
26F
100
AcDbEntity
  8
0
100
AcDbLine
 62
7
  6
CONTINUOUS
 10
-53.2057437567
 20
300.5428988622
 11
-21.220497249
 21
309.1167195534
  0
LWPOLYLINE
  5
270
100
AcDbEntity
  8
0
100
AcDbPolyline
 62
7
  6
CONTINUOUS
 90
6
 70
0
 10
-25.0858037348
 20
302.2216193374
 10
-25.1404120936
 20
302.2143969742
 10
-25.2987544149
 20
302.1591594746
 10
-25.4393291087
 20
302.0509183865
 10
-25.5321098652
 20
301.9135230108
 10
-25.5790671357
 20
301.7518068763
  0
LINE
  5
271
100
AcDbEntity
  8
0
100
AcDbLine
 62
7
  6
CONTINUOUS
 10
-23.0342892579
 20
299.4492544436
 11
-22.995248655
 21
299.4526502234
  0
LINE
  5
272
100
AcDbEntity
  8
0
100
AcDbLine
 62
7
  6
CONTINUOUS
 10
-24.0386739581
 20
302.3074297337
 11
-25.0859217484
 21
302.2216100102
  0
LINE
  5
273
100
AcDbEntity
  8
0
100
AcDbLine
 62
7
  6
CONTINUOUS
 10
-8.4162052558
 20
294.9100188516
 11
-8.4392930765
 21
294.9179544729
  0
LINE
  5
274
100
AcDbEntity
  8
0
100
AcDbLine
 62
7
  6
CONTINUOUS
 10
-8.4169376524
 20
294.9097110168
 11
-8.4392930765
 21
294.9179544729
  0
LINE
  5
275
100
AcDbEntity
  8
0
100
AcDbLine
 62
7
  6
CONTINUOUS
 10
49.5199106918
 20
305.7327202251
 11
49.5198950067
 21
305.7451869301
  0
LINE
  5
276
100
AcDbEntity
  8
0
100
AcDbLine
 62
7
  6
CONTINUOUS
 10
49.3199106918
 20
304.7337755853
 11
49.3199106918
 21
305.7451869301
  0
LINE
  5
277
100
AcDbEntity
  8
0
100
AcDbLine
 62
7
  6
CONTINUOUS
 10
61.9628506747
 20
289.6558102806
 11
62.0034308823
 21
290.3457355483
  0
LINE
  5
278
100
AcDbEntity
  8
0
100
AcDbLine
 62
7
  6
CONTINUOUS
 10
58.2191411663
 20
299.7361584916
 11
58.1797769739
 21
299.7389007916
  0
LINE
  5
279
100
AcDbEntity
  8
0
100
AcDbLine
 62
7
  6
CONTINUOUS
 10
52.1680991039
 20
293.8389175135
 11
52.1343915959
 21
293.8473790639
  0
LINE
  5
27A
100
AcDbEntity
  8
0
100
AcDbLine
 62
7
  6
CONTINUOUS
 10
25.9663089354
 20
286.8153942806
 11
25.9586264626
 21
286.83081771
  0
LWPOLYLINE
  5
27B
100
AcDbEntity
  8
0
100
AcDbPolyline
 62
7
  6
CONTINUOUS
 90
3
 70
0
 10
61.9809376435
 20
292.2773139218
 10
61.7034015775
 20
296.0659433578
 10
60.7418730623
 20
300.7288336723
  0
LINE
  5
27C
100
AcDbEntity
  8
0
100
AcDbLine
 62
7
  6
CONTINUOUS
 10
61.9809954745
 20
292.2746847211
 11
61.9809677366
 21
292.2758451402
  0
LINE
  5
27D
100
AcDbEntity
  8
0
100
AcDbLine
 62
7
  6
CONTINUOUS
 10
61.9809055819
 20
292.2784643448
 11
62.0039227743
 21
290.3457371951
  0
LINE
  5
27E
100
AcDbEntity
  8
0
100
AcDbLine
 62
7
  6
CONTINUOUS
 10
61.2856572605
 20
289.2224858985
 11
61.2856154528
 21
289.1844291308
  0
LINE
  5
27F
100
AcDbEntity
  8
0
100
AcDbLine
 62
7
  6
CONTINUOUS
 10
40.8424991768
 20
289.30182071
 11
40.8199583741
 21
289.3148017923
  0
LINE
  5
280
100
AcDbEntity
  8
0
100
AcDbLine
 62
7
  6
CONTINUOUS
 10
58.7961242749
 20
303.9487531964
 11
58.8781974224
 21
303.4949256966
  0
LWPOLYLINE
  5
281
100
AcDbEntity
  8
0
100
AcDbPolyline
 62
7
  6
CONTINUOUS
 90
3
 70
0
 10
60.3756742815
 20
300.8867105449
 10
60.2906199676
 20
301.3650594729
 10
59.4550501885
 20
304.0831641203
  0
LINE
  5
282
100
AcDbEntity
  8
0
100
AcDbLine
 62
7
  6
CONTINUOUS
 10
60.3876973978
 20
300.8114735342
 11
60.3755985144
 21
300.8870887776
  0
LINE
  5
283
100
AcDbEntity
  8
0
100
AcDbLine
 62
7
  6
CONTINUOUS
 10
60.7418730623
 20
300.7288336723
 11
59.192402836
 21
304.6381796035
  0
LINE
  5
284
100
AcDbEntity
  8
0
100
AcDbLine
 62
7
  6
CONTINUOUS
 10
58.2627339291
 20
306.0233509991
 11
58.2628985305
 21
306.0231532628
  0
LINE
  5
285
100
AcDbEntity
  8
0
100
AcDbLine
 62
7
  6
CONTINUOUS
 10
59.192402836
 20
304.6381796035
 11
57.7911122845
 21
306.7969157379
  0
LINE
  5
286
100
AcDbEntity
  8
0
100
AcDbLine
 62
7
  6
CONTINUOUS
 10
59.4550501885
 20
304.0831641203
 11
58.2628985305
 21
306.0231532628
  0
ARC
  5
287
100
AcDbEntity
  8
0
100
AcDbCircle
 62
7
  6
CONTINUOUS
 10
11.8891930825
 20
259.5396499233
 40
60.683265881
100
AcDbArc
 50
104.8329140162
 51
105.0268516652
  0
ARC
  5
288
100
AcDbEntity
  8
0
100
AcDbCircle
 62
7
  6
CONTINUOUS
 10
33.2217214647
 20
231.9200309384
 40
56.1011917556
100
AcDbArc
 50
112.5556716644
 51
119.863975248
  0
ARC
  5
289
100
AcDbEntity
  8
0
100
AcDbCircle
 62
7
  6
CONTINUOUS
 10
-12.6155557207
 20
248.8599537932
 40
40.6758288449
100
AcDbArc
 50
79.6414043285
 51
85.0821436295
  0
ARC
  5
28A
100
AcDbEntity
  8
0
100
AcDbCircle
 62
7
  6
CONTINUOUS
 10
-50.5143629072
 20
215.5599362661
 40
3.0021691145
100
AcDbArc
 50
41.5917396083
 51
50.751279094
  0
ARC
  5
28B
100
AcDbEntity
  8
0
100
AcDbCircle
 62
7
  6
CONTINUOUS
 10
-357.5208901309
 20
273.5165325243
 40
385.6633668708
100
AcDbArc
 50
1.5717211073
 51
1.9805158206
  0
ARC
  5
28C
100
AcDbEntity
  8
0
100
AcDbCircle
 62
7
  6
CONTINUOUS
 10
-94.0870754318
 20
276.4376091049
 40
137.1827753135
100
AcDbArc
 50
4.3677819553
 51
5.5102493989
  0
ARC
  5
28D
100
AcDbEntity
  8
0
100
AcDbCircle
 62
7
  6
CONTINUOUS
 10
-34.832864364
 20
281.4968063347
 40
88.981283471
100
AcDbArc
 50
6.5694205483
 51
8.3094070517
  0
ARC
  5
28E
100
AcDbEntity
  8
0
100
AcDbCircle
 62
7
  6
CONTINUOUS
 10
-44.3550778572
 20
284.3666177494
 40
29.2285423263
100
AcDbArc
 50
344.6137069863
 51
349.0618009136
  0
ARC
  5
28F
100
AcDbEntity
  8
0
100
AcDbCircle
 62
7
  6
CONTINUOUS
 10
-43.7705502755
 20
284.2491189202
 40
28.632339128
100
AcDbArc
 50
349.0707057659
 51
349.20426929
  0
ARC
  5
290
100
AcDbEntity
  8
0
100
AcDbCircle
 62
7
  6
CONTINUOUS
 10
-12.5204093128
 20
289.3270785654
 40
73.8070645396
100
AcDbArc
 50
0.2750475159
 51
8.9516130033
  0
ARC
  5
291
100
AcDbEntity
  8
0
100
AcDbCircle
 62
7
  6
CONTINUOUS
 10
-11.874451364
 20
287.9732229437
 40
71.488414317
100
AcDbArc
 50
7.8524127541
 51
9.9779238289
  0
ARC
  5
292
100
AcDbEntity
  8
0
100
AcDbCircle
 62
7
  6
CONTINUOUS
 10
11.5086733393
 20
260.8642615659
 40
59.3053287301
100
AcDbArc
 50
105.0036373886
 51
105.6961971745
  0
ARC
  5
293
100
AcDbEntity
  8
0
100
AcDbCircle
 62
7
  6
CONTINUOUS
 10
12.7247314063
 20
266.0726048666
 40
52.7570074653
100
AcDbArc
 50
104.4928376401
 51
105.0044625829
  0
ARC
  5
294
100
AcDbEntity
  8
0
100
AcDbCircle
 62
7
  6
CONTINUOUS
 10
13.1490239773
 20
291.7993786084
 40
48.346717584
100
AcDbArc
 50
356.9444879221
 51
357.4912563931
  0
ARC
  5
295
100
AcDbEntity
  8
0
100
AcDbCircle
 62
7
  6
CONTINUOUS
 10
16.1928368683
 20
291.3176922053
 40
45.8001802509
100
AcDbArc
 50
357.9205464775
 51
358.7912543987
  0
ARC
  5
296
100
AcDbEntity
  8
0
100
AcDbCircle
 62
7
  6
CONTINUOUS
 10
15.9612676085
 20
289.4500073342
 40
45.3251251284
100
AcDbArc
 50
359.7124708522
 51
0.2924893301
  0
ARC
  5
297
100
AcDbEntity
  8
0
100
AcDbCircle
 62
7
  6
CONTINUOUS
 10
18.7360182185
 20
291.2698939914
 40
43.2565569142
100
AcDbArc
 50
358.7834913042
 51
1.3345578124
  0
ARC
  5
298
100
AcDbEntity
  8
0
100
AcDbCircle
 62
7
  6
CONTINUOUS
 10
-16.0992837969
 20
279.328214343
 40
10.2062252026
100
AcDbArc
 50
118.5117079242
 51
120.9334061317
  0
ARC
  5
299
100
AcDbEntity
  8
0
100
AcDbCircle
 62
7
  6
CONTINUOUS
 10
-16.0989727994
 20
279.1626194826
 40
9.9454266321
100
AcDbArc
 50
145.2316197375
 51
146.5076228432
  0
ARC
  5
29A
100
AcDbEntity
  8
0
100
AcDbCircle
 62
7
  6
CONTINUOUS
 10
-21.4994369614
 20
292.0226510714
 40
5.4535803129
100
AcDbArc
 50
178.1998945522
 51
179.0298189403
  0
ARC
  5
29B
100
AcDbEntity
  8
0
100
AcDbCircle
 62
7
  6
CONTINUOUS
 10
-2.3273649762
 20
324.3776717423
 40
33.9784970679
100
AcDbArc
 50
244.9481095824
 51
245.4175273077
  0
ARC
  5
29C
100
AcDbEntity
  8
0
100
AcDbCircle
 62
7
  6
CONTINUOUS
 10
-2.0362522509
 20
318.9625589046
 40
29.28365777
100
AcDbArc
 50
239.990064278
 51
240.4859811799
  0
ARC
  5
29D
100
AcDbEntity
  8
0
100
AcDbCircle
 62
7
  6
CONTINUOUS
 10
2.9871454081
 20
320.9021286798
 40
25.1491680496
100
AcDbArc
 50
240.5192068904
 51
243.5381763177
  0
ARC
  5
29E
100
AcDbEntity
  8
0
100
AcDbCircle
 62
7
  6
CONTINUOUS
 10
32.392809035
 20
320.2737713159
 40
24.4345717736
100
AcDbArc
 50
297.5092000932
 51
300.5907871729
  0
ARC
  5
29F
100
AcDbEntity
  8
0
100
AcDbCircle
 62
7
  6
CONTINUOUS
 10
37.2309962387
 20
317.6692149834
 40
23.3762180162
100
AcDbArc
 50
299.9034899915
 51
300.7337570507
  0
ARC
  5
2A0
100
AcDbEntity
  8
0
100
AcDbCircle
 62
7
  6
CONTINUOUS
 10
33.007313657
 20
293.5478646517
 40
23.1949594028
100
AcDbArc
 50
59.9912984144
 51
60.4990854164
  0
ARC
  5
2A1
100
AcDbEntity
  8
0
100
AcDbCircle
 62
7
  6
CONTINUOUS
 10
1.8607648883
 20
318.895863953
 40
22.8483464142
100
AcDbArc
 50
239.4910654218
 51
240.5021321924
  0
ARC
  5
2A2
100
AcDbEntity
  8
0
100
AcDbCircle
 62
7
  6
CONTINUOUS
 10
-0.1018267375
 20
297.0203897002
 40
19.1182338576
100
AcDbArc
 50
123.2260688609
 51
123.8178032788
  0
ARC
  5
2A3
100
AcDbEntity
  8
0
100
AcDbCircle
 62
7
  6
CONTINUOUS
 10
-7.4297550966
 20
300.8760856275
 40
14.6801807141
100
AcDbArc
 50
132.356584392
 51
132.9486270091
  0
ARC
  5
2A4
100
AcDbEntity
  8
0
100
AcDbCircle
 62
7
  6
CONTINUOUS
 10
-8.2845940289
 20
301.7757669773
 40
13.4392136067
100
AcDbArc
 50
132.8943927402
 51
136.342459457
  0
ARC
  5
2A5
100
AcDbEntity
  8
0
100
AcDbCircle
 62
7
  6
CONTINUOUS
 10
-13.3300802367
 20
301.9869754473
 40
10.6115065766
100
AcDbArc
 50
160.085843358
 51
161.4804633096
  0
ARC
  5
2A6
100
AcDbEntity
  8
0
100
AcDbCircle
 62
7
  6
CONTINUOUS
 10
-14.7730633058
 20
306.1059669003
 40
10.6093222048
100
AcDbArc
 50
218.8614045124
 51
219.8797283992
  0
ARC
  5
2A7
100
AcDbEntity
  8
0
100
AcDbCircle
 62
7
  6
CONTINUOUS
 10
-13.593542002
 20
302.0726204108
 40
10.3344851296
100
AcDbArc
 50
161.4667528917
 51
169.5406097401
  0
ARC
  5
2A8
100
AcDbEntity
  8
0
100
AcDbCircle
 62
7
  6
CONTINUOUS
 10
-15.2025282419
 20
303.5773036969
 40
8.816986884
100
AcDbArc
 50
207.8920769662
 51
208.9942688782
  0
ARC
  5
2A9
100
AcDbEntity
  8
0
100
AcDbCircle
 62
7
  6
CONTINUOUS
 10
-12.9718977711
 20
305.3173658804
 40
7.5374050527
100
AcDbArc
 50
154.506287738
 51
155.1343071915
  0
ARC
  5
2AA
100
AcDbEntity
  8
0
100
AcDbCircle
 62
7
  6
CONTINUOUS
 10
-8.8898135073
 20
306.100148514
 40
5.6506280371
100
AcDbArc
 50
202.1104641588
 51
205.3125490508
  0
ARC
  5
2AB
100
AcDbEntity
  8
0
100
AcDbCircle
 62
7
  6
CONTINUOUS
 10
-18.0323009382
 20
304.6921873751
 40
5.464330426
100
AcDbArc
 50
170.0999021693
 51
171.1659520831
  0
ARC
  5
2AC
100
AcDbEntity
  8
0
100
AcDbCircle
 62
7
  6
CONTINUOUS
 10
-18.0805745593
 20
304.6996207763
 40
5.4154878909
100
AcDbArc
 50
171.1652293974
 51
172.8602437354
  0
ARC
  5
2AD
100
AcDbEntity
  8
0
100
AcDbCircle
 62
7
  6
CONTINUOUS
 10
-18.1632792968
 20
304.709479697
 40
5.3321991092
100
AcDbArc
 50
172.8549044437
 51
178.2022949286
  0
ARC
  5
2AE
100
AcDbEntity
  8
0
100
AcDbCircle
 62
7
  6
CONTINUOUS
 10
-9.2095963921
 20
304.827954937
 40
5.2740787165
100
AcDbArc
 50
164.4423610775
 51
170.4172062412
  0
ARC
  5
2AF
100
AcDbEntity
  8
0
100
AcDbCircle
 62
7
  6
CONTINUOUS
 10
-9.4044238552
 20
304.8629854007
 40
5.0761386854
100
AcDbArc
 50
170.441002182
 51
174.1783254925
  0
ARC
  5
2B0
100
AcDbEntity
  8
0
100
AcDbCircle
 62
7
  6
CONTINUOUS
 10
-9.4713196226
 20
305.7301467108
 40
5.0087701612
100
AcDbArc
 50
171.3585921807
 51
179.9705613343
  0
ARC
  5
2B1
100
AcDbEntity
  8
0
100
AcDbCircle
 62
7
  6
CONTINUOUS
 10
-9.3160249726
 20
306.4710313818
 40
4.9640515878
100
AcDbArc
 50
180.0166938593
 51
187.84034961
  0
ARC
  5
2B2
100
AcDbEntity
  8
0
100
AcDbCircle
 62
7
  6
CONTINUOUS
 10
-19.2366169328
 20
305.0929969589
 40
3.994556089
100
AcDbArc
 50
154.0569604678
 51
158.2623084026
  0
ARC
  5
2B3
100
AcDbEntity
  8
0
100
AcDbCircle
 62
7
  6
CONTINUOUS
 10
-23.1777705749
 20
305.589205074
 40
0.2412589398
100
AcDbArc
 50
163.524198881
 51
169.8634165904
  0
ARC
  5
2B4
100
AcDbEntity
  8
0
100
AcDbCircle
 62
7
  6
CONTINUOUS
 10
17.515376442
 20
390.8295100836
 40
104.340825706
100
AcDbArc
 50
265.9749174157
 51
274.641461659
  0
ARC
  5
2B5
100
AcDbEntity
  8
0
100
AcDbCircle
 62
7
  6
CONTINUOUS
 10
17.3092021502
 20
387.2854837385
 40
100.7910850105
100
AcDbArc
 50
265.7332262809
 51
265.9504083297
  0
ARC
  5
2B6
100
AcDbEntity
  8
0
100
AcDbCircle
 62
7
  6
CONTINUOUS
 10
17.8365046157
 20
385.9362572493
 40
99.4377041649
100
AcDbArc
 50
274.6851677367
 51
274.9033719079
  0
ARC
  5
2B7
100
AcDbEntity
  8
0
100
AcDbCircle
 62
7
  6
CONTINUOUS
 10
10.7607493108
 20
380.3589109888
 40
93.8836676498
100
AcDbArc
 50
269.4032554642
 51
270.6222209481
  0
ARC
  5
2B8
100
AcDbEntity
  8
0
100
AcDbCircle
 62
7
  6
CONTINUOUS
 10
12.9314817682
 20
379.3018823643
 40
92.5964357667
100
AcDbArc
 50
268.0640377994
 51
268.3042381116
  0
ARC
  5
2B9
100
AcDbEntity
  8
0
100
AcDbCircle
 62
7
  6
CONTINUOUS
 10
15.7648049596
 20
368.5924243389
 40
82.4108281002
100
AcDbArc
 50
277.1107649466
 51
277.3699116276
  0
ARC
  5
2BA
100
AcDbEntity
  8
0
100
AcDbCircle
 62
7
  6
CONTINUOUS
 10
14.2131958815
 20
365.526358286
 40
79.865061796
100
AcDbArc
 50
278.5138605574
 51
279.8765315841
  0
ARC
  5
2BB
100
AcDbEntity
  8
0
100
AcDbCircle
 62
7
  6
CONTINUOUS
 10
7.6167406999
 20
361.8516160925
 40
74.1132860826
100
AcDbArc
 50
259.9616854899
 51
261.3906949955
  0
ARC
  5
2BC
100
AcDbEntity
  8
0
100
AcDbCircle
 62
7
  6
CONTINUOUS
 10
8.7900352271
 20
357.6270179718
 40
69.8988910511
100
AcDbArc
 50
258.4677031138
 51
258.7578988147
  0
ARC
  5
2BD
100
AcDbEntity
  8
0
100
AcDbCircle
 62
7
  6
CONTINUOUS
 10
23.088704018
 20
355.540822423
 40
68.5591821967
100
AcDbArc
 50
283.6090601634
 51
284.8013334155
  0
ARC
  5
2BE
100
AcDbEntity
  8
0
100
AcDbCircle
 62
7
  6
CONTINUOUS
 10
11.8820870256
 20
355.259471711
 40
68.2690335259
100
AcDbArc
 50
255.5419618357
 51
255.8240098348
  0
ARC
  5
2BF
100
AcDbEntity
  8
0
100
AcDbCircle
 62
7
  6
CONTINUOUS
 10
23.893575631
 20
352.4615369568
 40
65.3759328399
100
AcDbArc
 50
285.0053044754
 51
285.2945087598
  0
ARC
  5
2C0
100
AcDbEntity
  8
0
100
AcDbCircle
 62
7
  6
CONTINUOUS
 10
24.9166443726
 20
348.7670333665
 40
61.5424052802
100
AcDbArc
 50
285.2830778575
 51
287.6609729338
  0
ARC
  5
2C1
100
AcDbEntity
  8
0
100
AcDbCircle
 62
7
  6
CONTINUOUS
 10
23.1642375193
 20
352.1135359078
 40
60.7151902437
100
AcDbArc
 50
284.8115800188
 51
285.0055181573
  0
ARC
  5
2C2
100
AcDbEntity
  8
0
100
AcDbCircle
 62
7
  6
CONTINUOUS
 10
22.4271164921
 20
346.2507233235
 40
52.3209005787
100
AcDbArc
 50
284.7889009095
 51
285.0054617759
  0
ARC
  5
2C3
100
AcDbEntity
  8
0
100
AcDbCircle
 62
7
  6
CONTINUOUS
 10
25.6346719172
 20
335.2167907854
 40
48.3679299705
100
AcDbArc
 50
288.3256822969
 51
288.6956236679
  0
ARC
  5
2C4
100
AcDbEntity
  8
0
100
AcDbCircle
 62
7
  6
CONTINUOUS
 10
25.5764428419
 20
331.2630539523
 40
44.9450352705
100
AcDbArc
 50
290.0624864722
 51
292.0668871333
  0
ARC
  5
2C5
100
AcDbEntity
  8
0
100
AcDbCircle
 62
7
  6
CONTINUOUS
 10
-2.198845348
 20
327.9100507656
 40
37.5549473717
100
AcDbArc
 50
246.9606203887
 51
249.1932277272
  0
ARC
  5
2C6
100
AcDbEntity
  8
0
100
AcDbCircle
 62
7
  6
CONTINUOUS
 10
202.611650068
 20
130.1552882716
 40
223.9132823463
100
AcDbArc
 50
137.3326660685
 51
139.9759169972
  0
ARC
  5
2C7
100
AcDbEntity
  8
0
100
AcDbCircle
 62
7
  6
CONTINUOUS
 10
196.6334262178
 20
135.8098293396
 40
215.6852019377
100
AcDbArc
 50
135.5373678361
 51
137.360852522
  0
ARC
  5
2C8
100
AcDbEntity
  8
0
100
AcDbCircle
 62
7
  6
CONTINUOUS
 10
73.1121756147
 20
211.7787616722
 40
85.2345353682
100
AcDbArc
 50
121.958282891
 51
126.874728864
  0
ARC
  5
2C9
100
AcDbEntity
  8
0
100
AcDbCircle
 62
7
  6
CONTINUOUS
 10
56.2582896117
 20
242.6723220708
 40
49.1118191842
100
AcDbArc
 50
108.294174439
 51
110.273208351
  0
ARC
  5
2CA
100
AcDbEntity
  8
0
100
AcDbCircle
 62
7
  6
CONTINUOUS
 10
53.1430578408
 20
243.461915024
 40
47.4801156951
100
AcDbArc
 50
105.3137016677
 51
107.0757370511
  0
ARC
  5
2CB
100
AcDbEntity
  8
0
100
AcDbCircle
 62
7
  6
CONTINUOUS
 10
52.3978132458
 20
246.0805024105
 40
44.7576895258
100
AcDbArc
 50
104.9916266426
 51
105.2788749883
  0
ARC
  5
2CC
100
AcDbEntity
  8
0
100
AcDbCircle
 62
7
  6
CONTINUOUS
 10
55.0339545862
 20
249.9158735629
 40
41.5718285416
100
AcDbArc
 50
109.7376104233
 51
112.1915465708
  0
ARC
  5
2CD
100
AcDbEntity
  8
0
100
AcDbCircle
 62
7
  6
CONTINUOUS
 10
433.8631907725
 20
273.1490872651
 40
422.2933944163
100
AcDbArc
 50
178.1908872643
 51
178.5642712187
  0
ARC
  5
2CE
100
AcDbEntity
  8
0
100
AcDbCircle
 62
7
  6
CONTINUOUS
 10
136.9973510559
 20
275.390135707
 40
141.0923199733
100
AcDbArc
 50
174.6386251508
 51
175.749874302
  0
ARC
  5
2CF
100
AcDbEntity
  8
0
100
AcDbCircle
 62
7
  6
CONTINUOUS
 10
73.7854991992
 20
279.927077755
 40
90.2479447577
100
AcDbArc
 50
171.7966359996
 51
173.5134134537
  0
ARC
  5
2D0
100
AcDbEntity
  8
0
100
AcDbCircle
 62
7
  6
CONTINUOUS
 10
49.2421394914
 20
291.7255139933
 40
75.4899795965
100
AcDbArc
 50
172.3725601929
 51
177.9014184708
  0
ARC
  5
2D1
100
AcDbEntity
  8
0
100
AcDbCircle
 62
7
  6
CONTINUOUS
 10
49.001239637
 20
290.5565380644
 40
73.9798041461
100
AcDbArc
 50
169.57051455
 51
170.977993594
  0
ARC
  5
2D2
100
AcDbEntity
  8
0
100
AcDbCircle
 62
7
  6
CONTINUOUS
 10
48.3126548973
 20
286.1190790063
 40
71.9582843058
100
AcDbArc
 50
170.0689160699
 51
172.1826509633
  0
ARC
  5
2D3
100
AcDbEntity
  8
0
100
AcDbCircle
 62
7
  6
CONTINUOUS
 10
38.1767608961
 20
317.0934148534
 40
27.1144543496
100
AcDbArc
 50
300.9818930043
 51
301.5030476204
  0
ARC
  5
2D4
100
AcDbEntity
  8
0
100
AcDbCircle
 62
7
  6
CONTINUOUS
 10
41.4564674892
 20
307.9569629325
 40
17.721610646
100
AcDbArc
 50
307.1880650436
 51
307.9113317696
  0
ARC
  5
2D5
100
AcDbEntity
  8
0
100
AcDbCircle
 62
7
  6
CONTINUOUS
 10
40.6553804348
 20
298.7645511914
 40
17.4643701642
100
AcDbArc
 50
49.6144411719
 51
52.7140115066
  0
ARC
  5
2D6
100
AcDbEntity
  8
0
100
AcDbCircle
 62
7
  6
CONTINUOUS
 10
41.8514316526
 20
300.1906662893
 40
15.6031463608
100
AcDbArc
 50
47.6793362674
 51
49.5667570385
  0
ARC
  5
2D7
100
AcDbEntity
  8
0
100
AcDbCircle
 62
7
  6
CONTINUOUS
 10
47.3846317927
 20
301.5598005889
 40
11.6862489624
100
AcDbArc
 50
26.4920255286
 51
27.0236418156
  0
ARC
  5
2D8
100
AcDbEntity
  8
0
100
AcDbCircle
 62
7
  6
CONTINUOUS
 10
47.760514732
 20
301.7425744381
 40
11.2683052811
100
AcDbArc
 50
22.22745661
 51
26.5128187251
  0
ARC
  5
2D9
100
AcDbEntity
  8
0
100
AcDbCircle
 62
7
  6
CONTINUOUS
 10
50.7797816588
 20
303.3052502976
 40
8.2145468203
100
AcDbArc
 50
334.2687496126
 51
335.4259429866
  0
ARC
  5
2DA
100
AcDbEntity
  8
0
100
AcDbCircle
 62
7
  6
CONTINUOUS
 10
52.3185861665
 20
302.7550623011
 40
6.5866139266
100
AcDbArc
 50
6.4410101847
 51
10.4412444971
  0
ARC
  5
2DB
100
AcDbEntity
  8
0
100
AcDbCircle
 62
7
  6
CONTINUOUS
 10
52.262717853
 20
300.5433767883
 40
6.2726403589
100
AcDbArc
 50
350.8237547305
 51
358.3241548213
  0
ARC
  5
2DC
100
AcDbEntity
  8
0
100
AcDbCircle
 62
7
  6
CONTINUOUS
 10
52.3659444534
 20
301.014198028
 40
5.9910241567
100
AcDbArc
 50
347.6827058062
 51
349.1754644899
  0
ARC
  5
2DD
100
AcDbEntity
  8
0
100
AcDbCircle
 62
7
  6
CONTINUOUS
 10
44.098660976
 20
304.789838684
 40
5.4295152359
100
AcDbArc
 50
12.6759077778
 51
17.7101273385
  0
ARC
  5
2DE
100
AcDbEntity
  8
0
100
AcDbCircle
 62
7
  6
CONTINUOUS
 10
44.3187661237
 20
304.8411878528
 40
5.2035071883
100
AcDbArc
 50
9.6413975781
 51
12.656102957
  0
ARC
  5
2DF
100
AcDbEntity
  8
0
100
AcDbCircle
 62
7
  6
CONTINUOUS
 10
44.4594430044
 20
304.8648267679
 40
5.0608582632
100
AcDbArc
 50
5.0069839799
 51
9.6442924244
  0
ARC
  5
2E0
100
AcDbEntity
  8
0
100
AcDbCircle
 62
7
  6
CONTINUOUS
 10
44.486037063
 20
305.7269980134
 40
5.0340900775
100
AcDbArc
 50
3.9128659582
 51
8.7389359857
  0
ARC
  5
2E1
100
AcDbEntity
  8
0
100
AcDbCircle
 62
7
  6
CONTINUOUS
 10
44.3479769097
 20
306.4717132156
 40
4.9719212791
100
AcDbArc
 50
352.1000340297
 51
359.9754752015
  0
ARC
  5
2E2
100
AcDbEntity
  8
0
100
AcDbCircle
 62
7
  6
CONTINUOUS
 10
44.558309116
 20
305.7328462917
 40
4.9615874917
100
AcDbArc
 50
0.1425082047
 51
3.9024399623
  0
SPLINE
  5
2E3
100
AcDbEntity
  8
0
100
AcDbSpline
 62
7
  6
CONTINUOUS
 70
0
 71
3
 72
15
 73
11
 74
0
 42
0.0000001
 43
0.0000001
 44
0.0000000001
 40
0.0
 40
0.0
 40
0.0
 40
0.0
 40
0.0836175766
 40
0.1735327936
 40
0.2745582891
 40
0.3895840814
 40
0.5198999086
 40
0.6656225368
 40
0.8260944682
 40
1.0
 40
1.0
 40
1.0
 40
1.0
 10
-14.2800763497
 20
306.4695850418
 30
0.0
 10
-14.2800460085
 20
306.9815120695
 30
0.0
 10
-14.1081925847
 20
308.0498340122
 30
0.0
 10
-13.365142253
 20
309.5782551687
 30
0.0
 10
-12.1695626207
 20
311.0374338778
 30
0.0
 10
-10.547365287
 20
312.4163922119
 30
0.0
 10
-8.5216787485
 20
313.7036957363
 30
0.0
 10
-6.1194985952
 20
314.8844646602
 30
0.0
 10
-3.3739823851
 20
315.9426900302
 30
0.0
 10
-1.412369367
 20
316.5348773191
 30
0.0
 10
-0.383983462
 20
316.8105417992
 30
0.0
  0
SPLINE
  5
2E4
100
AcDbEntity
  8
0
100
AcDbSpline
 62
7
  6
CONTINUOUS
 70
0
 71
3
 72
19
 73
15
 74
0
 42
0.0000001
 43
0.0000001
 44
0.0000000001
 40
0.0
 40
0.0
 40
0.0
 40
0.0
 40
0.1437927501
 40
0.2990289408
 40
0.4562714565
 40
0.6058605483
 40
0.6750130013
 40
0.7390970209
 40
0.7973619681
 40
0.8493061298
 40
0.8947794449
 40
0.9341460629
 40
0.9685228895
 40
1.0
 40
1.0
 40
1.0
 40
1.0
 10
-0.383983462
 20
316.8105417992
 30
0.0
 10
2.1397377126
 20
317.4870390968
 30
0.0
 10
7.4963051741
 20
318.4994872359
 30
0.0
 10
15.7788571398
 20
319.1116699535
 30
0.0
 10
24.1858946871
 20
318.8548754782
 30
0.0
 10
30.9702588982
 20
317.9118878213
 30
0.0
 10
35.9700751219
 20
316.7073643513
 30
0.0
 10
39.2870228567
 20
315.6432016736
 30
0.0
 10
42.2112464293
 20
314.4145195629
 30
0.0
 10
44.6926593243
 20
313.0420593188
 30
0.0
 10
46.6905162609
 20
311.5467379395
 30
0.0
 10
48.1718373118
 20
309.9441594089
 30
0.0
 10
49.1016697613
 20
308.2458058926
 30
0.0
 10
49.3199316327
 20
307.0415468151
 30
0.0
 10
49.3198977333
 20
306.4695850421
 30
0.0
  0
SPLINE
  5
2E5
100
AcDbEntity
  8
0
100
AcDbSpline
 62
7
  6
CONTINUOUS
 70
0
 71
3
 72
9
 73
5
 74
0
 42
0.0000001
 43
0.0000001
 44
0.0000000001
 40
0.0
 40
0.0
 40
0.0
 40
0.0
 40
0.2467995379
 40
1.0
 40
1.0
 40
1.0
 40
1.0
 10
49.2727123929
 20
305.7883526775
 30
0.0
 10
49.2613142045
 20
305.7060854788
 30
0.0
 10
49.2069268597
 20
305.3739192139
 30
0.0
 10
49.119790479
 20
305.0472634792
 30
0.0
 10
49.0380500495
 20
304.8073381696
 30
0.0
  0
SPLINE
  5
2E6
100
AcDbEntity
  8
0
100
AcDbSpline
 62
7
  6
CONTINUOUS
 70
0
 71
3
 72
14
 73
10
 74
0
 42
0.0000001
 43
0.0000001
 44
0.0000000001
 40
0.0
 40
0.0
 40
0.0
 40
0.0
 40
0.0856942216
 40
0.1803884929
 40
0.2862652217
 40
0.4044794541
 40
0.5353989279
 40
0.6787946145
 40
1.0
 40
1.0
 40
1.0
 40
1.0
 10
49.0380500495
 20
304.8073381696
 30
0.0
 10
48.8843943258
 20
304.3563263835
 30
0.0
 10
48.4389608061
 20
303.4463309055
 30
0.0
 10
47.4575896152
 20
302.1829300326
 30
0.0
 10
46.1529481725
 20
300.9736968148
 30
0.0
 10
44.5397902268
 20
299.8286344333
 30
0.0
 10
42.6345404896
 20
298.757164032
 30
0.0
 10
39.6158770079
 20
297.3893116697
 30
0.0
 10
37.1488370759
 20
296.5910326318
 30
0.0
 10
35.4238048455
 20
296.1286282847
 30
0.0
  0
SPLINE
  5
2E7
100
AcDbEntity
  8
0
100
AcDbSpline
 62
7
  6
CONTINUOUS
 70
0
 71
3
 72
19
 73
15
 74
0
 42
0.0000001
 43
0.0000001
 44
0.0000000001
 40
0.0
 40
0.0
 40
0.0
 40
0.0
 40
0.1389314148
 40
0.2887827538
 40
0.441528839
 40
0.5888590996
 40
0.6580512907
 40
0.7230682236
 40
0.7831725235
 40
0.837791501
 40
0.8865762469
 40
0.9294904964
 40
0.9669475559
 40
1.0
 40
1.0
 40
1.0
 40
1.0
 10
35.4238048455
 20
296.1286282847
 30
0.0
 10
33.058977584
 20
295.4947233716
 30
0.0
 10
28.0480763101
 20
294.5241902084
 30
0.0
 10
20.2823623466
 20
293.8725626841
 30
0.0
 10
12.3419118246
 20
293.9913492557
 30
0.0
 10
5.8636561079
 20
294.7393962984
 30
0.0
 10
1.00103445
 20
295.73839308
 30
0.0
 10
-2.3043843724
 20
296.6432485251
 30
0.0
 10
-5.2924497993
 20
297.704192013
 30
0.0
 10
-7.9167957628
 20
298.9047342613
 30
0.0
 10
-10.1377529538
 20
300.2267025798
 30
0.0
 10
-11.9230131901
 20
301.6537534288
 30
0.0
 10
-13.2454242589
 20
303.1696116903
 30
0.0
 10
-13.8254477056
 20
304.2888918861
 30
0.0
 10
-14.0097093253
 20
304.8414440304
 30
0.0
  0
SPLINE
  5
2E8
100
AcDbEntity
  8
0
100
AcDbSpline
 62
7
  6
CONTINUOUS
 70
0
 71
3
 72
9
 73
5
 74
0
 42
0.0000001
 43
0.0000001
 44
0.0000000001
 40
0.0
 40
0.0
 40
0.0
 40
0.0
 40
0.2537770003
 40
1.0
 40
1.0
 40
1.0
 40
1.0
 10
-14.0097093253
 20
304.8414440304
 30
0.0
 10
-14.0359128976
 20
304.9200216533
 30
0.0
 10
-14.1323296395
 20
305.2318793007
 30
0.0
 10
-14.2004935224
 20
305.5525758698
 30
0.0
 10
-14.2336727022
 20
305.7938689389
 30
0.0
  0
SPLINE
  5
2E9
100
AcDbEntity
  8
0
100
AcDbSpline
 62
7
  6
CONTINUOUS
 70
0
 71
3
 72
19
 73
15
 74
0
 42
0.0000001
 43
0.0000001
 44
0.0000000001
 40
0.0
 40
0.0
 40
0.0
 40
0.0
 40
0.1300533823
 40
0.1975000173
 40
0.265864576
 40
0.4029850649
 40
0.537233355
 40
0.6648543714
 40
0.7255501764
 40
0.7839635165
 40
0.8402168143
 40
0.8946217096
 40
0.9476703527
 40
1.0
 40
1.0
 40
1.0
 40
1.0
 10
22.1299572377
 20
253.3455134122
 30
0.0
 10
22.1299572377
 20
251.33424443
 30
0.0
 10
21.7378065118
 20
248.2681375353
 30
0.0
 10
20.5540746087
 20
244.3255927465
 30
0.0
 10
18.9115025207
 20
240.4293961812
 30
0.0
 10
16.113054781
 20
235.9329884139
 30
0.0
 10
11.7968955526
 20
231.4599125947
 30
0.0
 10
7.5668280147
 20
228.7131630012
 30
0.0
 10
4.0115458062
 20
227.2992909594
 30
0.0
 10
1.3665836091
 20
226.6570347594
 30
0.0
 10
-1.2490356972
 20
226.4303658427
 30
0.0
 10
-3.7854328044
 20
226.6260449917
 30
0.0
 10
-6.1912692269
 20
227.2421208625
 30
0.0
 10
-7.6809547256
 20
227.9289340583
 30
0.0
 10
-8.3817511841
 20
228.3336696691
 30
0.0
  0
SPLINE
  5
2EA
100
AcDbEntity
  8
0
100
AcDbSpline
 62
7
  6
CONTINUOUS
 70
0
 71
3
 72
11
 73
7
 74
0
 42
0.0000001
 43
0.0000001
 44
0.0000000001
 40
0.0
 40
0.0
 40
0.0
 40
0.0
 40
0.2717748105
 40
0.5268698752
 40
0.7676346318
 40
1.0
 40
1.0
 40
1.0
 40
1.0
 10
-12.2281394835
 20
240.371444459
 30
0.0
 10
-12.2281394835
 20
239.9631859544
 30
0.0
 10
-12.1487636394
 20
239.1683562813
 30
0.0
 10
-11.7685959867
 20
238.0673427756
 30
0.0
 10
-11.1456062308
 20
237.1512778521
 30
0.0
 10
-10.5818167474
 20
236.6977877288
 30
0.0
 10
-10.2795447923
 20
236.5232223685
 30
0.0
  0
SPLINE
  5
2EB
100
AcDbEntity
  8
0
100
AcDbSpline
 62
7
  6
CONTINUOUS
 70
0
 71
3
 72
11
 73
7
 74
0
 42
0.0000001
 43
0.0000001
 44
0.0000000001
 40
0.0
 40
0.0
 40
0.0
 40
0.0
 40
0.2717748086
 40
0.5268698864
 40
0.7676346258
 40
1.0
 40
1.0
 40
1.0
 40
1.0
 10
-8.2734773562
 20
255.0504906436
 30
0.0
 10
-8.2734773562
 20
254.6403040438
 30
0.0
 10
-8.1937266296
 20
253.841720585
 30
0.0
 10
-7.8117635657
 20
252.7355072774
 30
0.0
 10
-7.1858315656
 20
251.8151160431
 30
0.0
 10
-6.6193794829
 20
251.359484184
 30
0.0
 10
-6.3156799538
 20
251.1840944185
 30
0.0
  0
SPLINE
  5
2EC
100
AcDbEntity
  8
0
100
AcDbSpline
 62
7
  6
CONTINUOUS
 70
0
 71
3
 72
11
 73
7
 74
0
 42
0.0000001
 43
0.0000001
 44
0.0000000001
 40
0.0
 40
0.0
 40
0.0
 40
0.0
 40
0.2717748086
 40
0.5268698864
 40
0.7676346258
 40
1.0
 40
1.0
 40
1.0
 40
1.0
 10
4.5995058849
 20
258.5011643798
 30
0.0
 10
4.5995058849
 20
258.09097778
 30
0.0
 10
4.6792566114
 20
257.2923943212
 30
0.0
 10
5.0612196753
 20
256.1861810136
 30
0.0
 10
5.6871516755
 20
255.2657897793
 30
0.0
 10
6.2536037581
 20
254.8101579202
 30
0.0
 10
6.5573032873
 20
254.6347681547
 30
0.0
  0
SPLINE
  5
2ED
100
AcDbEntity
  8
0
100
AcDbSpline
 62
7
  6
CONTINUOUS
 70
0
 71
3
 72
11
 73
7
 74
0
 42
0.0000001
 43
0.0000001
 44
0.0000000001
 40
0.0
 40
0.0
 40
0.0
 40
0.0
 40
0.2717748105
 40
0.5268698752
 40
0.7676346318
 40
1.0
 40
1.0
 40
1.0
 40
1.0
 10
8.6007849371
 20
245.9547518483
 30
0.0
 10
8.6007849371
 20
245.5464933437
 30
0.0
 10
8.6801607813
 20
244.7516636706
 30
0.0
 10
9.0603284339
 20
243.6506501648
 30
0.0
 10
9.6833181898
 20
242.7345852414
 30
0.0
 10
10.2471076732
 20
242.281095118
 30
0.0
 10
10.5493796283
 20
242.1065297578
 30
0.0
  0
SPLINE
  5
2EE
100
AcDbEntity
  8
0
100
AcDbSpline
 62
7
  6
CONTINUOUS
 70
0
 71
3
 72
10
 73
6
 74
0
 42
0.0000001
 43
0.0000001
 44
0.0000000001
 40
0.0
 40
0.0
 40
0.0
 40
0.0
 40
0.2403281524
 40
0.485096085
 40
1.0
 40
1.0
 40
1.0
 40
1.0
 10
4.0212655263
 20
240.2264804752
 30
0.0
 10
3.8767316872
 20
240.3099337101
 30
0.0
 10
3.5656800314
 20
240.4472825889
 30
0.0
 10
2.882053574
 20
240.5896248296
 30
0.0
 10
2.341044279
 20
240.5353217969
 30
0.0
 10
1.9956610421
 20
240.4427399267
 30
0.0
  0
SPLINE
  5
2EF
100
AcDbEntity
  8
0
100
AcDbSpline
 62
7
  6
CONTINUOUS
 70
0
 71
3
 72
9
 73
5
 74
0
 42
0.0000001
 43
0.0000001
 44
0.0000000001
 40
0.0
 40
0.0
 40
0.0
 40
0.0
 40
0.2484649706
 40
1.0
 40
1.0
 40
1.0
 40
1.0
 10
12.296541269
 20
251.6313339525
 30
0.0
 10
12.2502908128
 20
251.6580546559
 30
0.0
 10
12.0594838505
 20
251.7573923074
 30
0.0
 10
11.8510951305
 20
251.8223366717
 30
0.0
 10
11.6920654686
 20
251.8508367372
 30
0.0
  0
SPLINE
  5
2F0
100
AcDbEntity
  8
0
100
AcDbSpline
 62
7
  6
CONTINUOUS
 70
0
 71
3
 72
15
 73
11
 74
0
 42
0.0000001
 43
0.0000001
 44
0.0000000001
 40
0.0
 40
0.0
 40
0.0
 40
0.0
 40
0.0524624725
 40
0.1056459662
 40
0.2162146426
 40
0.335328794
 40
0.4632708983
 40
0.5978578562
 40
0.7353252271
 40
1.0
 40
1.0
 40
1.0
 40
1.0
 10
16.5229290342
 20
252.448879589
 30
0.0
 10
16.3409689507
 20
252.5539635275
 30
0.0
 10
15.9541241573
 20
252.7322951365
 30
0.0
 10
15.1114345203
 20
252.9484009955
 30
0.0
 10
13.9559836924
 20
252.932520731
 30
0.0
 10
12.5785776494
 20
252.4780234596
 30
0.0
 10
11.2842331326
 20
251.6377698437
 30
0.0
 10
10.1624787465
 20
250.4743949829
 30
0.0
 10
9.0206030559
 20
248.6434376173
 30
0.0
 10
8.6007849371
 20
247.0148339616
 30
0.0
 10
8.6007849371
 20
245.9547518483
 30
0.0
  0
SPLINE
  5
2F1
100
AcDbEntity
  8
0
100
AcDbSpline
 62
7
  6
CONTINUOUS
 70
0
 71
3
 72
9
 73
5
 74
0
 42
0.0000001
 43
0.0000001
 44
0.0000000001
 40
0.0
 40
0.0
 40
0.0
 40
0.0
 40
0.2483373341
 40
1.0
 40
1.0
 40
1.0
 40
1.0
 10
8.3185706793
 20
264.1839944452
 30
0.0
 10
8.2703670204
 20
264.2118435905
 30
0.0
 10
8.0711962727
 20
264.3150699115
 30
0.0
 10
7.8529966804
 20
264.3808304038
 30
0.0
 10
7.6867330844
 20
264.4082007611
 30
0.0
  0
SPLINE
  5
2F2
100
AcDbEntity
  8
0
100
AcDbSpline
 62
7
  6
CONTINUOUS
 70
0
 71
3
 72
15
 73
11
 74
0
 42
0.0000001
 43
0.0000001
 44
0.0000000001
 40
0.0
 40
0.0
 40
0.0
 40
0.0
 40
0.0524624807
 40
0.1056459719
 40
0.2162146376
 40
0.3353287776
 40
0.4632708635
 40
0.5978578246
 40
0.7353251938
 40
1.0
 40
1.0
 40
1.0
 40
1.0
 10
12.5590641956
 20
265.0259621776
 30
0.0
 10
12.3762447246
 20
265.131542401
 30
0.0
 10
11.9875729626
 20
265.3107162734
 30
0.0
 10
11.1409035214
 20
265.5278426732
 30
0.0
 10
9.9799959155
 20
265.5118874568
 30
0.0
 10
8.5960848875
 20
265.0552437903
 30
0.0
 10
7.2956275669
 20
264.2110220129
 30
0.0
 10
6.1685754228
 20
263.0421529317
 30
0.0
 10
5.0213067828
 20
261.2025483775
 30
0.0
 10
4.5995058849
 20
259.5662531182
 30
0.0
 10
4.5995058849
 20
258.5011643798
 30
0.0
  0
SPLINE
  5
2F3
100
AcDbEntity
  8
0
100
AcDbSpline
 62
7
  6
CONTINUOUS
 70
0
 71
3
 72
9
 73
5
 74
0
 42
0.0000001
 43
0.0000001
 44
0.0000000001
 40
0.0
 40
0.0
 40
0.0
 40
0.0
 40
0.2483373341
 40
1.0
 40
1.0
 40
1.0
 40
1.0
 10
-4.5544125618
 20
260.733320709
 30
0.0
 10
-4.6026162207
 20
260.7611698543
 30
0.0
 10
-4.8017869684
 20
260.8643961753
 30
0.0
 10
-5.0199865606
 20
260.9301566676
 30
0.0
 10
-5.1862501566
 20
260.9575270249
 30
0.0
  0
SPLINE
  5
2F4
100
AcDbEntity
  8
0
100
AcDbSpline
 62
7
  6
CONTINUOUS
 70
0
 71
3
 72
15
 73
11
 74
0
 42
0.0000001
 43
0.0000001
 44
0.0000000001
 40
0.0
 40
0.0
 40
0.0
 40
0.0
 40
0.0524624807
 40
0.1056459719
 40
0.2162146376
 40
0.3353287776
 40
0.4632708635
 40
0.5978578246
 40
0.7353251938
 40
1.0
 40
1.0
 40
1.0
 40
1.0
 10
-0.3139190454
 20
261.5752884414
 30
0.0
 10
-0.4967385164
 20
261.6808686648
 30
0.0
 10
-0.8854102784
 20
261.8600425372
 30
0.0
 10
-1.7320797197
 20
262.077168937
 30
0.0
 10
-2.8929873255
 20
262.0612137206
 30
0.0
 10
-4.2768983535
 20
261.6045700541
 30
0.0
 10
-5.5773556742
 20
260.7603482767
 30
0.0
 10
-6.7044078183
 20
259.5914791955
 30
0.0
 10
-7.8516764583
 20
257.7518746413
 30
0.0
 10
-8.2734773562
 20
256.115579382
 30
0.0
 10
-8.2734773562
 20
255.0504906436
 30
0.0
  0
SPLINE
  5
2F5
100
AcDbEntity
  8
0
100
AcDbSpline
 62
7
  6
CONTINUOUS
 70
0
 71
3
 72
9
 73
5
 74
0
 42
0.0000001
 43
0.0000001
 44
0.0000000001
 40
0.0
 40
0.0
 40
0.0
 40
0.0
 40
0.2484649706
 40
1.0
 40
1.0
 40
1.0
 40
1.0
 10
-8.5323831516
 20
246.0480265632
 30
0.0
 10
-8.5786336078
 20
246.0747472666
 30
0.0
 10
-8.7694405702
 20
246.1740849181
 30
0.0
 10
-8.9778292901
 20
246.2390292824
 30
0.0
 10
-9.136858952
 20
246.2675293479
 30
0.0
  0
SPLINE
  5
2F6
100
AcDbEntity
  8
0
100
AcDbSpline
 62
7
  6
CONTINUOUS
 70
0
 71
3
 72
15
 73
11
 74
0
 42
0.0000001
 43
0.0000001
 44
0.0000000001
 40
0.0
 40
0.0
 40
0.0
 40
0.0
 40
0.0524624725
 40
0.1056459662
 40
0.2162146426
 40
0.335328794
 40
0.4632708983
 40
0.5978578562
 40
0.7353252271
 40
1.0
 40
1.0
 40
1.0
 40
1.0
 10
-4.3059953865
 20
246.8655721997
 30
0.0
 10
-4.4879554699
 20
246.9706561382
 30
0.0
 10
-4.8748002633
 20
247.1489877472
 30
0.0
 10
-5.7174899003
 20
247.3650936062
 30
0.0
 10
-6.8729407282
 20
247.3492133418
 30
0.0
 10
-8.2503467712
 20
246.8947160703
 30
0.0
 10
-9.544691288
 20
246.0544624545
 30
0.0
 10
-10.6664456742
 20
244.8910875936
 30
0.0
 10
-11.8083213647
 20
243.0601302281
 30
0.0
 10
-12.2281394835
 20
241.4315265724
 30
0.0
 10
-12.2281394835
 20
240.371444459
 30
0.0
  0
SPLINE
  5
2F7
100
AcDbEntity
  8
0
100
AcDbSpline
 62
7
  6
CONTINUOUS
 70
0
 71
3
 72
9
 73
5
 74
0
 42
0.0000001
 43
0.0000001
 44
0.0000000001
 40
0.0
 40
0.0
 40
0.0
 40
0.0
 40
0.2533234948
 40
1.0
 40
1.0
 40
1.0
 40
1.0
 10
-12.1803967244
 20
241.0124146286
 30
0.0
 10
-12.1450519583
 20
240.9701476613
 30
0.0
 10
-11.998648246
 20
240.8091847755
 30
0.0
 10
-11.8239325264
 20
240.6738829517
 30
0.0
 10
-11.6833124214
 20
240.5926411992
 30
0.0
  0
SPLINE
  5
2F8
100
AcDbEntity
  8
0
100
AcDbSpline
 62
7
  6
CONTINUOUS
 70
0
 71
3
 72
9
 73
5
 74
0
 42
0.0000001
 43
0.0000001
 44
0.0000000001
 40
0.0
 40
0.0
 40
0.0
 40
0.0
 40
0.2536548829
 40
1.0
 40
1.0
 40
1.0
 40
1.0
 10
-8.2238676368
 20
255.723800286
 30
0.0
 10
-8.1874239395
 20
255.67867297
 30
0.0
 10
-8.0361048379
 20
255.5070914799
 30
0.0
 10
-7.8531239219
 20
255.3633148574
 30
0.0
 10
-7.7053418317
 20
255.277935345
 30
0.0
  0
SPLINE
  5
2F9
100
AcDbEntity
  8
0
100
AcDbSpline
 62
7
  6
CONTINUOUS
 70
0
 71
3
 72
9
 73
5
 74
0
 42
0.0000001
 43
0.0000001
 44
0.0000000001
 40
0.0
 40
0.0
 40
0.0
 40
0.0
 40
0.2536548829
 40
1.0
 40
1.0
 40
1.0
 40
1.0
 10
4.6491156042
 20
259.1744740222
 30
0.0
 10
4.6855593016
 20
259.1293467062
 30
0.0
 10
4.8368784031
 20
258.9577652161
 30
0.0
 10
5.0198593192
 20
258.8139885936
 30
0.0
 10
5.1676414094
 20
258.7286090812
 30
0.0
  0
SPLINE
  5
2FA
100
AcDbEntity
  8
0
100
AcDbSpline
 62
7
  6
CONTINUOUS
 70
0
 71
3
 72
9
 73
5
 74
0
 42
0.0000001
 43
0.0000001
 44
0.0000000001
 40
0.0
 40
0.0
 40
0.0
 40
0.0
 40
0.2533234948
 40
1.0
 40
1.0
 40
1.0
 40
1.0
 10
8.6485276962
 20
246.5957220178
 30
0.0
 10
8.6838724623
 20
246.5534550506
 30
0.0
 10
8.8302761747
 20
246.3924921647
 30
0.0
 10
9.0049918943
 20
246.257190341
 30
0.0
 10
9.1456119992
 20
246.1759485884
 30
0.0
  0
SPLINE
  5
2FB
100
AcDbEntity
  8
0
100
AcDbSpline
 62
7
  6
CONTINUOUS
 70
0
 71
3
 72
12
 73
8
 74
0
 42
0.0000001
 43
0.0000001
 44
0.0000000001
 40
0.0
 40
0.0
 40
0.0
 40
0.0
 40
0.2349899833
 40
0.4894752595
 40
0.6202667695
 40
0.7503904793
 40
1.0
 40
1.0
 40
1.0
 40
1.0
 10
1.9956610421
 20
240.4427399267
 30
0.0
 10
1.5365217075
 20
240.3196651107
 30
0.0
 10
0.6314628721
 20
239.857277415
 30
0.0
 10
-0.2557278882
 20
238.9428644189
 30
0.0
 10
-0.8041685809
 20
238.0520137921
 30
0.0
 10
-1.2108385375
 20
237.100345459
 30
0.0
 10
-1.3514465103
 20
236.3271459471
 30
0.0
 10
-1.3514465111
 20
235.822224218
 30
0.0
  0
SPLINE
  5
2FC
100
AcDbEntity
  8
0
100
AcDbSpline
 62
7
  6
CONTINUOUS
 70
0
 71
3
 72
11
 73
7
 74
0
 42
0.0000001
 43
0.0000001
 44
0.0000000001
 40
0.0
 40
0.0
 40
0.0
 40
0.0
 40
0.2717668072
 40
0.5268680782
 40
0.7676307416
 40
1.0
 40
1.0
 40
1.0
 40
1.0
 10
-1.3514465111
 20
235.822224218
 30
0.0
 10
-1.3514465115
 20
235.5453554758
 30
0.0
 10
-1.2976078702
 20
235.006314999
 30
0.0
 10
-1.039812212
 20
234.2596087802
 30
0.0
 10
-0.6172913205
 20
233.638349287
 30
0.0
 10
-0.234954956
 20
233.3307618009
 30
0.0
 10
-0.0299434421
 20
233.2123890093
 30
0.0
  0
SPLINE
  5
2FD
100
AcDbEntity
  8
0
100
AcDbSpline
 62
7
  6
CONTINUOUS
 70
0
 71
3
 72
13
 73
9
 74
0
 42
0.0000001
 43
0.0000001
 44
0.0000000001
 40
0.0
 40
0.0
 40
0.0
 40
0.0
 40
0.115815089
 40
0.2327336318
 40
0.3517707208
 40
0.4737818732
 40
0.7285666218
 40
1.0
 40
1.0
 40
1.0
 40
1.0
 10
14.625135426
 20
268.1668177937
 30
0.0
 10
15.2061009892
 20
267.8312889119
 30
0.0
 10
16.3239843452
 20
267.0667984586
 30
0.0
 10
17.8195457427
 20
265.6722486593
 30
0.0
 10
19.1183109386
 20
264.0463139553
 30
0.0
 10
20.5845565734
 20
261.5670221987
 30
0.0
 10
21.8248776164
 20
257.9781307321
 30
0.0
 10
22.1299572377
 20
254.9178767548
 30
0.0
 10
22.1299572377
 20
253.3455134122
 30
0.0
  0
SPLINE
  5
2FE
100
AcDbEntity
  8
0
100
AcDbSpline
 62
7
  6
CONTINUOUS
 70
0
 71
3
 72
19
 73
15
 74
0
 42
0.0000001
 43
0.0000001
 44
0.0000000001
 40
0.0
 40
0.0
 40
0.0
 40
0.0
 40
0.1300533823
 40
0.1975000173
 40
0.265864576
 40
0.4029850649
 40
0.537233355
 40
0.6648543714
 40
0.7255501764
 40
0.7839635165
 40
0.8402168143
 40
0.8946217096
 40
0.9476703527
 40
1.0
 40
1.0
 40
1.0
 40
1.0
 10
-15.8865729959
 20
243.1549740506
 30
0.0
 10
-15.8865729959
 20
245.1662430328
 30
0.0
 10
-15.4944222699
 20
248.2323499275
 30
0.0
 10
-14.3106903668
 20
252.1748947163
 30
0.0
 10
-12.6681182788
 20
256.0710912816
 30
0.0
 10
-9.8696705392
 20
260.5674990489
 30
0.0
 10
-5.5535113108
 20
265.0405748681
 30
0.0
 10
-1.3234437729
 20
267.7873244616
 30
0.0
 10
2.2318384356
 20
269.2011965034
 30
0.0
 10
4.8768006328
 20
269.8434527034
 30
0.0
 10
7.492419939
 20
270.0701216201
 30
0.0
 10
10.0288170463
 20
269.8744424711
 30
0.0
 10
12.4346534688
 20
269.2583666003
 30
0.0
 10
13.9243389674
 20
268.5715534045
 30
0.0
 10
14.625135426
 20
268.1668177937
 30
0.0
  0
SPLINE
  5
2FF
100
AcDbEntity
  8
0
100
AcDbSpline
 62
7
  6
CONTINUOUS
 70
0
 71
3
 72
9
 73
5
 74
0
 42
0.0000001
 43
0.0000001
 44
0.0000000001
 40
0.0
 40
0.0
 40
0.0
 40
0.0
 40
0.4809295891
 40
1.0
 40
1.0
 40
1.0
 40
1.0
 10
-5.9146996429
 20
247.3397675498
 30
0.0
 10
-5.6661589996
 20
246.9609334168
 30
0.0
 10
-5.2850009787
 20
246.0798733816
 30
0.0
 10
-5.1724783924
 20
245.1323063383
 30
0.0
 10
-5.1724783924
 20
244.6432867063
 30
0.0
  0
SPLINE
  5
300
100
AcDbEntity
  8
0
100
AcDbSpline
 62
7
  6
CONTINUOUS
 70
0
 71
3
 72
10
 73
6
 74
0
 42
0.0000001
 43
0.0000001
 44
0.0000000001
 40
0.0
 40
0.0
 40
0.0
 40
0.0
 40
0.2403281524
 40
0.485096085
 40
1.0
 40
1.0
 40
1.0
 40
1.0
 10
-0.0299434421
 20
233.2123890093
 30
0.0
 10
0.114590397
 20
233.1289357744
 30
0.0
 10
0.4256420528
 20
232.9915868957
 30
0.0
 10
1.1092685102
 20
232.8492446549
 30
0.0
 10
1.6502778051
 20
232.9035476876
 30
0.0
 10
1.9956610421
 20
232.9961295579
 30
0.0
  0
SPLINE
  5
301
100
AcDbEntity
  8
0
100
AcDbSpline
 62
7
  6
CONTINUOUS
 70
0
 71
3
 72
14
 73
10
 74
0
 42
0.0000001
 43
0.0000001
 44
0.0000000001
 40
0.0
 40
0.0
 40
0.0
 40
0.0
 40
0.1052604354
 40
0.2158759227
 40
0.3350393976
 40
0.4630357673
 40
0.5976778338
 40
0.735209708
 40
1.0
 40
1.0
 40
1.0
 40
1.0
 10
9.1456119992
 20
246.1759485884
 30
0.0
 10
9.3380843434
 20
246.0647497626
 30
0.0
 10
9.779522586
 20
245.9100032526
 30
0.0
 10
10.4991485391
 20
245.9211247022
 30
0.0
 10
11.226280756
 20
246.1604865197
 30
0.0
 10
11.9088339677
 20
246.6038124831
 30
0.0
 10
12.5005944004
 20
247.2174322034
 30
0.0
 10
13.1029194603
 20
248.1832300764
 30
0.0
 10
13.3243825088
 20
249.0422966649
 30
0.0
 10
13.3243825088
 20
249.6014716832
 30
0.0
  0
SPLINE
  5
302
100
AcDbEntity
  8
0
100
AcDbSpline
 62
7
  6
CONTINUOUS
 70
0
 71
3
 72
11
 73
7
 74
0
 42
0.0000001
 43
0.0000001
 44
0.0000000001
 40
0.0
 40
0.0
 40
0.0
 40
0.0
 40
0.2717748105
 40
0.5268698752
 40
0.7676346318
 40
1.0
 40
1.0
 40
1.0
 40
1.0
 10
18.4715237253
 20
248.6006574985
 30
0.0
 10
18.4715237253
 20
249.0089160031
 30
0.0
 10
18.3921478812
 20
249.8037456762
 30
0.0
 10
18.0119802286
 20
250.904759182
 30
0.0
 10
17.3889904727
 20
251.8208241054
 30
0.0
 10
16.8252009893
 20
252.2743142287
 30
0.0
 10
16.5229290342
 20
252.448879589
 30
0.0
  0
SPLINE
  5
303
100
AcDbEntity
  8
0
100
AcDbSpline
 62
7
  6
CONTINUOUS
 70
0
 71
3
 72
11
 73
7
 74
0
 42
0.0000001
 43
0.0000001
 44
0.0000000001
 40
0.0
 40
0.0
 40
0.0
 40
0.0
 40
0.2717748086
 40
0.5268698864
 40
0.7676346258
 40
1.0
 40
1.0
 40
1.0
 40
1.0
 10
1.643878357
 20
257.7088922162
 30
0.0
 10
1.643878357
 20
258.119078816
 30
0.0
 10
1.5641276304
 20
258.9176622749
 30
0.0
 10
1.1821645665
 20
260.0238755825
 30
0.0
 10
0.5562325664
 20
260.9442668167
 30
0.0
 10
-0.0102195162
 20
261.3998986759
 30
0.0
 10
-0.3139190454
 20
261.5752884414
 30
0.0
  0
SPLINE
  5
304
100
AcDbEntity
  8
0
100
AcDbSpline
 62
7
  6
CONTINUOUS
 70
0
 71
3
 72
15
 73
11
 74
0
 42
0.0000001
 43
0.0000001
 44
0.0000000001
 40
0.0
 40
0.0
 40
0.0
 40
0.0
 40
0.0524624725
 40
0.1056459662
 40
0.2162146426
 40
0.335328794
 40
0.4632708983
 40
0.5978578562
 40
0.7353252271
 40
1.0
 40
1.0
 40
1.0
 40
1.0
 10
10.5493796283
 20
242.1065297578
 30
0.0
 10
10.7313397118
 20
242.0014458193
 30
0.0
 10
11.1181845052
 20
241.8231142103
 30
0.0
 10
11.9608741422
 20
241.6070083513
 30
0.0
 10
13.1163249701
 20
241.6228886157
 30
0.0
 10
14.4937310131
 20
242.0773858872
 30
0.0
 10
15.7880755299
 20
242.9176395031
 30
0.0
 10
16.909829916
 20
244.0810143639
 30
0.0
 10
18.0517056066
 20
245.9119717295
 30
0.0
 10
18.4715237253
 20
247.5405753852
 30
0.0
 10
18.4715237253
 20
248.6006574985
 30
0.0
  0
SPLINE
  5
305
100
AcDbEntity
  8
0
100
AcDbSpline
 62
7
  6
CONTINUOUS
 70
0
 71
3
 72
14
 73
10
 74
0
 42
0.0000001
 43
0.0000001
 44
0.0000000001
 40
0.0
 40
0.0
 40
0.0
 40
0.0
 40
0.2686164723
 40
0.3932530389
 40
0.5129262831
 40
0.6303784462
 40
0.7488454196
 40
0.8713344666
 40
1.0
 40
1.0
 40
1.0
 40
1.0
 10
8.121692293
 20
237.4093375629
 30
0.0
 10
8.1216922935
 20
238.0966337871
 30
0.0
 10
7.9501476875
 20
239.1236095875
 30
0.0
 10
7.3175336149
 20
240.2847051954
 30
0.0
 10
6.6871306954
 20
240.9760762733
 30
0.0
 10
5.9141649862
 20
241.4752607859
 30
0.0
 10
5.0319271682
 20
241.7604693076
 30
0.0
 10
4.0794760786
 20
241.8215832689
 30
0.0
 10
3.4396764938
 20
241.7162719693
 30
0.0
 10
3.1216921209
 20
241.6310345147
 30
0.0
  0
SPLINE
  5
306
100
AcDbEntity
  8
0
100
AcDbSpline
 62
7
  6
CONTINUOUS
 70
0
 71
3
 72
9
 73
5
 74
0
 42
0.0000001
 43
0.0000001
 44
0.0000000001
 40
0.0
 40
0.0
 40
0.0
 40
0.0
 40
0.4809295891
 40
1.0
 40
1.0
 40
1.0
 40
1.0
 10
14.9142247778
 20
252.9230749391
 30
0.0
 10
15.1627654211
 20
252.544240806
 30
0.0
 10
15.5439234419
 20
251.6631807709
 30
0.0
 10
15.6564460282
 20
250.7156137276
 30
0.0
 10
15.6564460282
 20
250.2265940956
 30
0.0
  0
SPLINE
  5
307
100
AcDbEntity
  8
0
100
AcDbSpline
 62
7
  6
CONTINUOUS
 70
0
 71
3
 72
14
 73
10
 74
0
 42
0.0000001
 43
0.0000001
 44
0.0000000001
 40
0.0
 40
0.0
 40
0.0
 40
0.0
 40
0.2556690249
 40
0.3889668627
 40
0.521692845
 40
0.6509794578
 40
0.7744748713
 40
0.8908079919
 40
1.0
 40
1.0
 40
1.0
 40
1.0
 10
-5.1724783924
 20
244.6432867063
 30
0.0
 10
-5.1724783924
 20
243.7632133719
 30
0.0
 10
-5.4622742645
 20
242.4129328846
 30
0.0
 10
-6.2782502653
 20
240.80795291
 30
0.0
 10
-7.0997098988
 20
239.7132194857
 30
0.0
 10
-8.0786963029
 20
238.8064652006
 30
0.0
 10
-9.1670349466
 20
238.1335486851
 30
0.0
 10
-10.309617707
 20
237.7312948588
 30
0.0
 10
-11.0933034469
 20
237.6591945086
 30
0.0
 10
-11.468681256
 20
237.6783207301
 30
0.0
  0
SPLINE
  5
308
100
AcDbEntity
  8
0
100
AcDbSpline
 62
7
  6
CONTINUOUS
 70
0
 71
3
 72
11
 73
7
 74
0
 42
0.0000001
 43
0.0000001
 44
0.0000000001
 40
0.0
 40
0.0
 40
0.0
 40
0.0
 40
0.2717575042
 40
0.5268818
 40
0.7676364318
 40
1.0
 40
1.0
 40
1.0
 40
1.0
 10
-7.5045419118
 20
244.018164294
 30
0.0
 10
-7.5045419118
 20
244.2334985387
 30
0.0
 10
-7.5464340602
 20
244.6527585698
 30
0.0
 10
-7.7469146557
 20
245.233540194
 30
0.0
 10
-8.0755725659
 20
245.7167431376
 30
0.0
 10
-8.3729579171
 20
245.9559203494
 30
0.0
 10
-8.5323831516
 20
246.0480265632
 30
0.0
  0
SPLINE
  5
309
100
AcDbEntity
  8
0
100
AcDbSpline
 62
7
  6
CONTINUOUS
 70
0
 71
3
 72
14
 73
10
 74
0
 42
0.0000001
 43
0.0000001
 44
0.0000000001
 40
0.0
 40
0.0
 40
0.0
 40
0.0
 40
0.1052604354
 40
0.2158759227
 40
0.3350393976
 40
0.4630357673
 40
0.5976778338
 40
0.735209708
 40
1.0
 40
1.0
 40
1.0
 40
1.0
 10
5.1676414094
 20
258.7286090812
 30
0.0
 10
5.3601137536
 20
258.6174102553
 30
0.0
 10
5.8015519962
 20
258.4626637453
 30
0.0
 10
6.5211779493
 20
258.4737851949
 30
0.0
 10
7.2483101662
 20
258.7131470124
 30
0.0
 10
7.9308633779
 20
259.1564729758
 30
0.0
 10
8.5226238107
 20
259.7700926961
 30
0.0
 10
9.1249488705
 20
260.7358905691
 30
0.0
 10
9.346411919
 20
261.5949571576
 30
0.0
 10
9.346411919
 20
262.154132176
 30
0.0
  0
SPLINE
  5
30A
100
AcDbEntity
  8
0
100
AcDbSpline
 62
7
  6
CONTINUOUS
 70
0
 71
3
 72
14
 73
10
 74
0
 42
0.0000001
 43
0.0000001
 44
0.0000000001
 40
0.0
 40
0.0
 40
0.0
 40
0.0
 40
0.2346073929
 40
0.3603379301
 40
0.4894684284
 40
0.6200482101
 40
0.7499714674
 40
0.8772023527
 40
1.0
 40
1.0
 40
1.0
 40
1.0
 10
3.1216921209
 20
241.6310345147
 30
0.0
 10
2.4358334279
 20
241.4471863317
 30
0.0
 10
1.436238987
 20
240.936260937
 30
0.0
 10
0.3157557647
 20
239.9630063566
 30
0.0
 10
-0.4404231635
 20
239.0678352066
 30
0.0
 10
-1.0607355079
 20
238.0600294902
 30
0.0
 10
-1.5232199495
 20
236.9765560676
 30
0.0
 10
-1.8101110763
 20
235.8584164882
 30
0.0
 10
-1.8783080505
 20
235.1004468731
 30
0.0
 10
-1.8783080511
 20
234.7287826439
 30
0.0
  0
SPLINE
  5
30B
100
AcDbEntity
  8
0
100
AcDbSpline
 62
7
  6
CONTINUOUS
 70
0
 71
3
 72
14
 73
10
 74
0
 42
0.0000001
 43
0.0000001
 44
0.0000000001
 40
0.0
 40
0.0
 40
0.0
 40
0.0
 40
0.2557124446
 40
0.3890318847
 40
0.5217703936
 40
0.6510556316
 40
0.7745342754
 40
0.8908387655
 40
1.0
 40
1.0
 40
1.0
 40
1.0
 10
-1.1711993402
 20
259.3348288133
 30
0.0
 10
-1.1711993402
 20
258.4497456251
 30
0.0
 10
-1.4629253343
 20
257.0917663041
 30
0.0
 10
-2.2842010372
 20
255.4780165163
 30
0.0
 10
-3.1109105226
 20
254.3776115423
 30
0.0
 10
-4.0960136328
 20
253.4666198446
 30
0.0
 10
-5.1909526469
 20
252.7912034147
 30
0.0
 10
-6.3401904134
 20
252.3884084561
 30
0.0
 10
-7.128167495
 20
252.3173828404
 30
0.0
 10
-7.5054704267
 20
252.3374024778
 30
0.0
  0
SPLINE
  5
30C
100
AcDbEntity
  8
0
100
AcDbSpline
 62
7
  6
CONTINUOUS
 70
0
 71
3
 72
11
 73
7
 74
0
 42
0.0000001
 43
0.0000001
 44
0.0000000001
 40
0.0
 40
0.0
 40
0.0
 40
0.0
 40
0.2717575042
 40
0.5268818
 40
0.7676364318
 40
1.0
 40
1.0
 40
1.0
 40
1.0
 10
-3.526571322
 20
258.7034584398
 30
0.0
 10
-3.526571322
 20
258.9187926845
 30
0.0
 10
-3.5684634704
 20
259.3380527156
 30
0.0
 10
-3.7689440659
 20
259.9188343398
 30
0.0
 10
-4.0976019761
 20
260.4020372834
 30
0.0
 10
-4.3949873273
 20
260.6412144952
 30
0.0
 10
-4.5544125618
 20
260.733320709
 30
0.0
  0
SPLINE
  5
30D
100
AcDbEntity
  8
0
100
AcDbSpline
 62
7
  6
CONTINUOUS
 70
0
 71
3
 72
15
 73
11
 74
0
 42
0.0000001
 43
0.0000001
 44
0.0000000001
 40
0.0
 40
0.0
 40
0.0
 40
0.0
 40
0.0524624807
 40
0.1056459719
 40
0.2162146376
 40
0.3353287776
 40
0.4632708635
 40
0.5978578246
 40
0.7353251938
 40
1.0
 40
1.0
 40
1.0
 40
1.0
 10
6.5573032873
 20
254.6347681547
 30
0.0
 10
6.7401227583
 20
254.5291879312
 30
0.0
 10
7.1287945203
 20
254.3500140589
 30
0.0
 10
7.9754639615
 20
254.1328876591
 30
0.0
 10
9.1363715674
 20
254.1488428754
 30
0.0
 10
10.5202825954
 20
254.6054865419
 30
0.0
 10
11.820739916
 20
255.4497083194
 30
0.0
 10
12.9477920602
 20
256.6185774006
 30
0.0
 10
14.0950607001
 20
258.4581819548
 30
0.0
 10
14.516861598
 20
260.0944772141
 30
0.0
 10
14.516861598
 20
261.1595659524
 30
0.0
  0
SPLINE
  5
30E
100
AcDbEntity
  8
0
100
AcDbSpline
 62
7
  6
CONTINUOUS
 70
0
 71
3
 72
14
 73
10
 74
0
 42
0.0000001
 43
0.0000001
 44
0.0000000001
 40
0.0
 40
0.0
 40
0.0
 40
0.0
 40
0.2686164723
 40
0.3932530389
 40
0.5129262831
 40
0.6303784462
 40
0.7488454196
 40
0.8713344666
 40
1.0
 40
1.0
 40
1.0
 40
1.0
 10
-1.8783080511
 20
234.7287826439
 30
0.0
 10
-1.8783080521
 20
234.0414864197
 30
0.0
 10
-1.7067634455
 20
233.0145106194
 30
0.0
 10
-1.074149373
 20
231.8534150114
 30
0.0
 10
-0.4437464535
 20
231.1620439335
 30
0.0
 10
0.3292192557
 20
230.6628594209
 30
0.0
 10
1.2114570737
 20
230.3776508993
 30
0.0
 10
2.1639081633
 20
230.3165369379
 30
0.0
 10
2.8037077481
 20
230.4218482376
 30
0.0
 10
3.1216921209
 20
230.5070856922
 30
0.0
  0
SPLINE
  5
30F
100
AcDbEntity
  8
0
100
AcDbSpline
 62
7
  6
CONTINUOUS
 70
0
 71
3
 72
9
 73
5
 74
0
 42
0.0000001
 43
0.0000001
 44
0.0000000001
 40
0.0
 40
0.0
 40
0.0
 40
0.0
 40
0.4808658739
 40
1.0
 40
1.0
 40
1.0
 40
1.0
 10
10.9509520401
 20
265.5024799861
 30
0.0
 10
11.2023342581
 20
265.1212652938
 30
0.0
 10
11.5879905191
 20
264.2336472773
 30
0.0
 10
11.7017839009
 20
263.2784799884
 30
0.0
 10
11.7017839009
 20
262.7855025495
 30
0.0
  0
SPLINE
  5
310
100
AcDbEntity
  8
0
100
AcDbSpline
 62
7
  6
CONTINUOUS
 70
0
 71
3
 72
14
 73
10
 74
0
 42
0.0000001
 43
0.0000001
 44
0.0000000001
 40
0.0
 40
0.0
 40
0.0
 40
0.0
 40
0.2557124446
 40
0.3890318847
 40
0.5217703936
 40
0.6510556316
 40
0.7745342754
 40
0.8908387655
 40
1.0
 40
1.0
 40
1.0
 40
1.0
 10
11.7017839009
 20
262.7855025495
 30
0.0
 10
11.7017839009
 20
261.9004193613
 30
0.0
 10
11.4100579068
 20
260.5424400403
 30
0.0
 10
10.5887822038
 20
258.9286902525
 30
0.0
 10
9.7620727184
 20
257.8282852785
 30
0.0
 10
8.7769696083
 20
256.9172935808
 30
0.0
 10
7.6820305942
 20
256.2418771509
 30
0.0
 10
6.5327928277
 20
255.8390821923
 30
0.0
 10
5.7448157461
 20
255.7680565766
 30
0.0
 10
5.3675128144
 20
255.788076214
 30
0.0
  0
SPLINE
  5
311
100
AcDbEntity
  8
0
100
AcDbSpline
 62
7
  6
CONTINUOUS
 70
0
 71
3
 72
11
 73
7
 74
0
 42
0.0000001
 43
0.0000001
 44
0.0000000001
 40
0.0
 40
0.0
 40
0.0
 40
0.0
 40
0.2717575042
 40
0.5268818
 40
0.7676364318
 40
1.0
 40
1.0
 40
1.0
 40
1.0
 10
9.346411919
 20
262.154132176
 30
0.0
 10
9.346411919
 20
262.3694664207
 30
0.0
 10
9.3045197707
 20
262.7887264518
 30
0.0
 10
9.1040391752
 20
263.369508076
 30
0.0
 10
8.7753812649
 20
263.8527110196
 30
0.0
 10
8.4779959137
 20
264.0918882314
 30
0.0
 10
8.3185706793
 20
264.1839944452
 30
0.0
  0
SPLINE
  5
312
100
AcDbEntity
  8
0
100
AcDbSpline
 62
7
  6
CONTINUOUS
 70
0
 71
3
 72
14
 73
10
 74
0
 42
0.0000001
 43
0.0000001
 44
0.0000000001
 40
0.0
 40
0.0
 40
0.0
 40
0.0
 40
0.1052604354
 40
0.2158759227
 40
0.3350393976
 40
0.4630357673
 40
0.5976778338
 40
0.735209708
 40
1.0
 40
1.0
 40
1.0
 40
1.0
 10
-7.7053418317
 20
255.277935345
 30
0.0
 10
-7.5128694875
 20
255.1667365191
 30
0.0
 10
-7.0714312449
 20
255.0119900091
 30
0.0
 10
-6.3518052918
 20
255.0231114587
 30
0.0
 10
-5.6246730749
 20
255.2624732762
 30
0.0
 10
-4.9421198631
 20
255.7057992396
 30
0.0
 10
-4.3503594304
 20
256.3194189599
 30
0.0
 10
-3.7480343705
 20
257.2852168329
 30
0.0
 10
-3.526571322
 20
258.1442834214
 30
0.0
 10
-3.526571322
 20
258.7034584398
 30
0.0
  0
SPLINE
  5
313
100
AcDbEntity
  8
0
100
AcDbSpline
 62
7
  6
CONTINUOUS
 70
0
 71
3
 72
14
 73
10
 74
0
 42
0.0000001
 43
0.0000001
 44
0.0000000001
 40
0.0
 40
0.0
 40
0.0
 40
0.0
 40
0.2556690249
 40
0.3889668627
 40
0.521692845
 40
0.6509794578
 40
0.7744748713
 40
0.8908079919
 40
1.0
 40
1.0
 40
1.0
 40
1.0
 10
15.6564460282
 20
250.2265940956
 30
0.0
 10
15.6564460282
 20
249.3465207612
 30
0.0
 10
15.3666501561
 20
247.9962402739
 30
0.0
 10
14.5506741553
 20
246.3912602992
 30
0.0
 10
13.7292145218
 20
245.296526875
 30
0.0
 10
12.7502281177
 20
244.3897725898
 30
0.0
 10
11.6618894741
 20
243.7168560744
 30
0.0
 10
10.5193067136
 20
243.3146022481
 30
0.0
 10
9.7356209737
 20
243.2425018979
 30
0.0
 10
9.3602431646
 20
243.2616281194
 30
0.0
  0
SPLINE
  5
314
100
AcDbEntity
  8
0
100
AcDbSpline
 62
7
  6
CONTINUOUS
 70
0
 71
3
 72
11
 73
7
 74
0
 42
0.0000001
 43
0.0000001
 44
0.0000000001
 40
0.0
 40
0.0
 40
0.0
 40
0.0
 40
0.2717575042
 40
0.5268818
 40
0.7676364318
 40
1.0
 40
1.0
 40
1.0
 40
1.0
 10
13.3243825088
 20
249.6014716832
 30
0.0
 10
13.3243825088
 20
249.816805928
 30
0.0
 10
13.2824903605
 20
250.2360659591
 30
0.0
 10
13.0820097649
 20
250.8168475833
 30
0.0
 10
12.7533518547
 20
251.3000505269
 30
0.0
 10
12.4559665035
 20
251.5392277387
 30
0.0
 10
12.296541269
 20
251.6313339525
 30
0.0
  0
SPLINE
  5
315
100
AcDbEntity
  8
0
100
AcDbSpline
 62
7
  6
CONTINUOUS
 70
0
 71
3
 72
14
 73
10
 74
0
 42
0.0000001
 43
0.0000001
 44
0.0000000001
 40
0.0
 40
0.0
 40
0.0
 40
0.0
 40
0.2346073929
 40
0.3603379301
 40
0.4894684284
 40
0.6200482101
 40
0.7499714674
 40
0.8772023527
 40
1.0
 40
1.0
 40
1.0
 40
1.0
 10
3.1216921209
 20
230.5070856922
 30
0.0
 10
3.807550814
 20
230.6909338752
 30
0.0
 10
4.8071452549
 20
231.2018592699
 30
0.0
 10
5.9276284771
 20
232.1751138503
 30
0.0
 10
6.6838074054
 20
233.0702850002
 30
0.0
 10
7.3041197498
 20
234.0780907167
 30
0.0
 10
7.7666041914
 20
235.1615641393
 30
0.0
 10
8.0534953181
 20
236.2797037186
 30
0.0
 10
8.1216922927
 20
237.0376733338
 30
0.0
 10
8.121692293
 20
237.4093375629
 30
0.0
  0
SPLINE
  5
316
100
AcDbEntity
  8
0
100
AcDbSpline
 62
7
  6
CONTINUOUS
 70
0
 71
3
 72
11
 73
7
 74
0
 42
0.0000001
 43
0.0000001
 44
0.0000000001
 40
0.0
 40
0.0
 40
0.0
 40
0.0
 40
0.2717668071
 40
0.5268680781
 40
0.7676307415
 40
1.0
 40
1.0
 40
1.0
 40
1.0
 10
5.3427685953
 20
237.616645273
 30
0.0
 10
5.3427685951
 20
237.8935140146
 30
0.0
 10
5.2889299533
 20
238.4325544901
 30
0.0
 10
5.0311342947
 20
239.179260707
 30
0.0
 10
4.6086134036
 20
239.8005201985
 30
0.0
 10
4.2262770397
 20
240.1081076838
 30
0.0
 10
4.0212655263
 20
240.2264804752
 30
0.0
  0
SPLINE
  5
317
100
AcDbEntity
  8
0
100
AcDbSpline
 62
7
  6
CONTINUOUS
 70
0
 71
3
 72
12
 73
8
 74
0
 42
0.0000001
 43
0.0000001
 44
0.0000000001
 40
0.0
 40
0.0
 40
0.0
 40
0.0
 40
0.2349899833
 40
0.4894752595
 40
0.6202667696
 40
0.7503904793
 40
1.0
 40
1.0
 40
1.0
 40
1.0
 10
1.9956610421
 20
232.9961295579
 30
0.0
 10
2.4548003772
 20
233.1192043739
 30
0.0
 10
3.3598592136
 20
233.5815920705
 30
0.0
 10
4.2470499745
 20
234.4960050681
 30
0.0
 10
4.7954906672
 20
235.3868556963
 30
0.0
 10
5.2021606232
 20
236.3385240307
 30
0.0
 10
5.3427685955
 20
237.1117235436
 30
0.0
 10
5.3427685953
 20
237.616645273
 30
0.0
  0
SPLINE
  5
318
100
AcDbEntity
  8
0
100
AcDbSpline
 62
7
  6
CONTINUOUS
 70
0
 71
3
 72
15
 73
11
 74
0
 42
0.0000001
 43
0.0000001
 44
0.0000000001
 40
0.0
 40
0.0
 40
0.0
 40
0.0
 40
0.0524624807
 40
0.1056459719
 40
0.2162146376
 40
0.3353287776
 40
0.4632708635
 40
0.5978578246
 40
0.7353251938
 40
1.0
 40
1.0
 40
1.0
 40
1.0
 10
-6.3156799538
 20
251.1840944185
 30
0.0
 10
-6.1328604828
 20
251.078514195
 30
0.0
 10
-5.7441887208
 20
250.8993403227
 30
0.0
 10
-4.8975192795
 20
250.6822139229
 30
0.0
 10
-3.7366116737
 20
250.6981691392
 30
0.0
 10
-2.3527006456
 20
251.1548128057
 30
0.0
 10
-1.052243325
 20
251.9990345832
 30
0.0
 10
0.0748088191
 20
253.1679036644
 30
0.0
 10
1.2220774591
 20
255.0075082186
 30
0.0
 10
1.643878357
 20
256.6438034779
 30
0.0
 10
1.643878357
 20
257.7088922162
 30
0.0
  0
SPLINE
  5
319
100
AcDbEntity
  8
0
100
AcDbSpline
 62
7
  6
CONTINUOUS
 70
0
 71
3
 72
13
 73
9
 74
0
 42
0.0000001
 43
0.0000001
 44
0.0000000001
 40
0.0
 40
0.0
 40
0.0
 40
0.0
 40
0.115815089
 40
0.2327336318
 40
0.3517707208
 40
0.4737818732
 40
0.7285666218
 40
1.0
 40
1.0
 40
1.0
 40
1.0
 10
-8.3817511841
 20
228.3336696691
 30
0.0
 10
-8.9627167473
 20
228.6691985509
 30
0.0
 10
-10.0806001033
 20
229.4336890042
 30
0.0
 10
-11.5761615008
 20
230.8282388035
 30
0.0
 10
-12.8749266967
 20
232.4541735075
 30
0.0
 10
-14.3411723315
 20
234.9334652641
 30
0.0
 10
-15.5814933745
 20
238.5223567307
 30
0.0
 10
-15.8865729959
 20
241.582610708
 30
0.0
 10
-15.8865729959
 20
243.1549740506
 30
0.0
  0
SPLINE
  5
31A
100
AcDbEntity
  8
0
100
AcDbSpline
 62
7
  6
CONTINUOUS
 70
0
 71
3
 72
9
 73
5
 74
0
 42
0.0000001
 43
0.0000001
 44
0.0000000001
 40
0.0
 40
0.0
 40
0.0
 40
0.0
 40
0.4808658739
 40
1.0
 40
1.0
 40
1.0
 40
1.0
 10
-1.9220312009
 20
262.0518062499
 30
0.0
 10
-1.670648983
 20
261.6705915576
 30
0.0
 10
-1.284992722
 20
260.7829735411
 30
0.0
 10
-1.1711993402
 20
259.8278062522
 30
0.0
 10
-1.1711993402
 20
259.3348288133
 30
0.0
  0
SPLINE
  5
31B
100
AcDbEntity
  8
0
100
AcDbSpline
 62
7
  6
CONTINUOUS
 70
0
 71
3
 72
11
 73
7
 74
0
 42
0.0000001
 43
0.0000001
 44
0.0000000001
 40
0.0
 40
0.0
 40
0.0
 40
0.0
 40
0.2717748105
 40
0.5268698752
 40
0.7676346318
 40
1.0
 40
1.0
 40
1.0
 40
1.0
 10
-2.3574006953
 20
243.0173501093
 30
0.0
 10
-2.3574006953
 20
243.4256086138
 30
0.0
 10
-2.4367765394
 20
244.2204382869
 30
0.0
 10
-2.816944192
 20
245.3214517927
 30
0.0
 10
-3.4399339479
 20
246.2375167161
 30
0.0
 10
-4.0037234314
 20
246.6910068395
 30
0.0
 10
-4.3059953865
 20
246.8655721997
 30
0.0
  0
SPLINE
  5
31C
100
AcDbEntity
  8
0
100
AcDbSpline
 62
7
  6
CONTINUOUS
 70
0
 71
3
 72
14
 73
10
 74
0
 42
0.0000001
 43
0.0000001
 44
0.0000000001
 40
0.0
 40
0.0
 40
0.0
 40
0.0
 40
0.1052604354
 40
0.2158759227
 40
0.3350393976
 40
0.4630357673
 40
0.5976778338
 40
0.735209708
 40
1.0
 40
1.0
 40
1.0
 40
1.0
 10
-11.6833124214
 20
240.5926411992
 30
0.0
 10
-11.4908400773
 20
240.4814423733
 30
0.0
 10
-11.0494018346
 20
240.3266958633
 30
0.0
 10
-10.3297758815
 20
240.3378173129
 30
0.0
 10
-9.6026436647
 20
240.5771791304
 30
0.0
 10
-8.9200904529
 20
241.0205050938
 30
0.0
 10
-8.3283300202
 20
241.6341248141
 30
0.0
 10
-7.7260049603
 20
242.5999226871
 30
0.0
 10
-7.5045419118
 20
243.4589892756
 30
0.0
 10
-7.5045419118
 20
244.018164294
 30
0.0
  0
SPLINE
  5
31D
100
AcDbEntity
  8
0
100
AcDbSpline
 62
7
  6
CONTINUOUS
 70
0
 71
3
 72
11
 73
7
 74
0
 42
0.0000001
 43
0.0000001
 44
0.0000000001
 40
0.0
 40
0.0
 40
0.0
 40
0.0
 40
0.2717748086
 40
0.5268698864
 40
0.7676346258
 40
1.0
 40
1.0
 40
1.0
 40
1.0
 10
14.516861598
 20
261.1595659524
 30
0.0
 10
14.516861598
 20
261.5697525522
 30
0.0
 10
14.4371108715
 20
262.3683360111
 30
0.0
 10
14.0551478076
 20
263.4745493187
 30
0.0
 10
13.4292158075
 20
264.3949405529
 30
0.0
 10
12.8627637248
 20
264.8505724121
 30
0.0
 10
12.5590641956
 20
265.0259621776
 30
0.0
  0
SPLINE
  5
31E
100
AcDbEntity
  8
0
100
AcDbSpline
 62
7
  6
CONTINUOUS
 70
0
 71
3
 72
15
 73
11
 74
0
 42
0.0000001
 43
0.0000001
 44
0.0000000001
 40
0.0
 40
0.0
 40
0.0
 40
0.0
 40
0.0524624725
 40
0.1056459662
 40
0.2162146426
 40
0.335328794
 40
0.4632708983
 40
0.5978578562
 40
0.7353252271
 40
1.0
 40
1.0
 40
1.0
 40
1.0
 10
-10.2795447923
 20
236.5232223685
 30
0.0
 10
-10.0975847088
 20
236.41813843
 30
0.0
 10
-9.7107399155
 20
236.239806821
 30
0.0
 10
-8.8680502785
 20
236.023700962
 30
0.0
 10
-7.7125994506
 20
236.0395812265
 30
0.0
 10
-6.3351934076
 20
236.494078498
 30
0.0
 10
-5.0408488908
 20
237.3343321138
 30
0.0
 10
-3.9190945046
 20
238.4977069746
 30
0.0
 10
-2.777218814
 20
240.3286643402
 30
0.0
 10
-2.3574006953
 20
241.9572679959
 30
0.0
 10
-2.3574006953
 20
243.0173501093
 30
0.0
  0
SPLINE
  5
31F
100
AcDbEntity
  8
0
100
AcDbSpline
 62
7
  6
CONTINUOUS
 70
0
 71
3
 72
11
 73
7
 74
0
 42
0.0000001
 43
0.0000001
 44
0.0000000001
 40
0.0
 40
0.0
 40
0.0
 40
0.0
 40
0.2116327286
 40
0.4486143771
 40
0.7116124691
 40
1.0
 40
1.0
 40
1.0
 40
1.0
 10
-24.3930603487
 20
284.6507700247
 30
0.0
 10
-23.9094529984
 20
284.1226365964
 30
0.0
 10
-22.7845789518
 20
283.0931525065
 30
0.0
 10
-20.8056562376
 20
281.7127153015
 30
0.0
 10
-18.4646674147
 20
280.4251125031
 30
0.0
 10
-16.7557127028
 20
279.6709044915
 30
0.0
 10
-15.8496048037
 20
279.3087084802
 30
0.0
  0
SPLINE
  5
320
100
AcDbEntity
  8
0
100
AcDbSpline
 62
7
  6
CONTINUOUS
 70
0
 71
3
 72
11
 73
7
 74
0
 42
0.0000001
 43
0.0000001
 44
0.0000000001
 40
0.0
 40
0.0
 40
0.0
 40
0.0
 40
0.188068735
 40
0.4038987513
 40
0.6746857228
 40
1.0
 40
1.0
 40
1.0
 40
1.0
 10
-15.8813793192
 20
279.2427648087
 30
0.0
 10
-15.8993707732
 20
279.2054254921
 30
0.0
 10
-15.9023709588
 20
279.1063665969
 30
0.0
 10
-15.8092782324
 20
278.9833257178
 30
0.0
 10
-15.6662268489
 20
278.8751412323
 30
0.0
 10
-15.5480952074
 20
278.8158015803
 30
0.0
 10
-15.4822845248
 20
278.7873569467
 30
0.0
  0
SPLINE
  5
321
100
AcDbEntity
  8
0
100
AcDbSpline
 62
7
  6
CONTINUOUS
 70
0
 71
3
 72
9
 73
5
 74
0
 42
0.0000001
 43
0.0000001
 44
0.0000000001
 40
0.0
 40
0.0
 40
0.0
 40
0.0
 40
0.4700047667
 40
1.0
 40
1.0
 40
1.0
 40
1.0
 10
-15.4822845248
 20
278.7873569467
 30
0.0
 10
-13.5247568061
 20
277.9412956868
 30
0.0
 10
-9.2102649098
 20
276.4849303136
 30
0.0
 10
-4.7656650272
 20
275.5336300621
 30
0.0
 10
-2.3936339997
 20
275.1383834641
 30
0.0
  0
SPLINE
  5
322
100
AcDbEntity
  8
0
100
AcDbSpline
 62
7
  6
CONTINUOUS
 70
0
 71
3
 72
10
 73
6
 74
0
 42
0.0000001
 43
0.0000001
 44
0.0000000001
 40
0.0
 40
0.0
 40
0.0
 40
0.0
 40
0.1789097112
 40
0.4138158835
 40
1.0
 40
1.0
 40
1.0
 40
1.0
 10
-2.3588550122
 20
275.0726749447
 30
0.0
 10
-2.3335931347
 20
275.0249478558
 30
0.0
 10
-2.2345437511
 20
274.9397063322
 30
0.0
 10
-1.9650454095
 20
274.8059139782
 30
0.0
 10
-1.7211982669
 20
274.744220051
 30
0.0
 10
-1.5472236449
 20
274.7120274359
 30
0.0
  0
SPLINE
  5
323
100
AcDbEntity
  8
0
100
AcDbSpline
 62
7
  6
CONTINUOUS
 70
0
 71
3
 72
9
 73
5
 74
0
 42
0.0000001
 43
0.0000001
 44
0.0000000001
 40
0.0
 40
0.0
 40
0.0
 40
0.0
 40
0.4896851371
 40
1.0
 40
1.0
 40
1.0
 40
1.0
 10
-1.5472236449
 20
274.7120274359
 30
0.0
 10
0.975786178
 20
274.245178583
 30
0.0
 10
6.1786896123
 20
273.5551177463
 30
0.0
 10
11.4200729208
 20
273.3199560988
 30
0.0
 10
14.093993467
 20
273.3116651497
 30
0.0
  0
SPLINE
  5
324
100
AcDbEntity
  8
0
100
AcDbSpline
 62
7
  6
CONTINUOUS
 70
0
 71
3
 72
10
 73
6
 74
0
 42
0.0000001
 43
0.0000001
 44
0.0000000001
 40
0.0
 40
0.0
 40
0.0
 40
0.0
 40
0.2083828492
 40
0.4548516064
 40
1.0
 40
1.0
 40
1.0
 40
1.0
 10
14.1900311719
 20
273.2561953089
 30
0.0
 10
14.2579164446
 20
273.2169860723
 30
0.0
 10
14.4198261351
 20
273.1563313149
 30
0.0
 10
14.7868250764
 20
273.0733171243
 30
0.0
 10
15.0855821478
 20
273.048999227
 30
0.0
 10
15.2906355935
 20
273.0452134671
 30
0.0
  0
SPLINE
  5
325
100
AcDbEntity
  8
0
100
AcDbSpline
 62
7
  6
CONTINUOUS
 70
0
 71
3
 72
9
 73
5
 74
0
 42
0.0000001
 43
0.0000001
 44
0.0000000001
 40
0.0
 40
0.0
 40
0.0
 40
0.0
 40
0.507761281
 40
1.0
 40
1.0
 40
1.0
 40
1.0
 10
15.2906355935
 20
273.0452134671
 30
0.0
 10
17.9750927601
 20
272.9956643962
 30
0.0
 10
23.268282797
 20
273.120452034
 30
0.0
 10
28.5327856132
 20
273.6970293986
 30
0.0
 10
31.1031857749
 20
274.106654841
 30
0.0
  0
SPLINE
  5
326
100
AcDbEntity
  8
0
100
AcDbSpline
 62
7
  6
CONTINUOUS
 70
0
 71
3
 72
9
 73
5
 74
0
 42
0.0000001
 43
0.0000001
 44
0.0000000001
 40
0.0
 40
0.0
 40
0.0
 40
0.0
 40
0.4926670906
 40
1.0
 40
1.0
 40
1.0
 40
1.0
 10
31.2458613274
 20
274.0698684592
 30
0.0
 10
31.4410160274
 20
274.0195515258
 30
0.0
 10
31.8534139272
 20
273.9863373501
 30
0.0
 10
32.262399958
 20
274.0115420673
 30
0.0
 10
32.4678817568
 20
274.0406723573
 30
0.0
  0
SPLINE
  5
327
100
AcDbEntity
  8
0
100
AcDbSpline
 62
7
  6
CONTINUOUS
 70
0
 71
3
 72
9
 73
5
 74
0
 42
0.0000001
 43
0.0000001
 44
0.0000000001
 40
0.0
 40
0.0
 40
0.0
 40
0.0
 40
0.5270628093
 40
1.0
 40
1.0
 40
1.0
 40
1.0
 10
32.4678817568
 20
274.0406723573
 30
0.0
 10
34.9046521655
 20
274.3861355345
 30
0.0
 10
39.5017883493
 20
275.2479695935
 30
0.0
 10
43.9851257536
 20
276.6046982369
 30
0.0
 10
46.0444475843
 20
277.4023225643
 30
0.0
  0
SPLINE
  5
328
100
AcDbEntity
  8
0
100
AcDbSpline
 62
7
  6
CONTINUOUS
 70
0
 71
3
 72
9
 73
5
 74
0
 42
0.0000001
 43
0.0000001
 44
0.0000000001
 40
0.0
 40
0.0
 40
0.0
 40
0.0
 40
0.5304349352
 40
1.0
 40
1.0
 40
1.0
 40
1.0
 10
46.2120399246
 20
277.3898200346
 30
0.0
 10
46.4189670508
 20
277.3743833071
 30
0.0
 10
46.812890827
 20
277.396795204
 30
0.0
 10
47.1965043496
 20
277.4849096204
 30
0.0
 10
47.3694348297
 20
277.5468545144
 30
0.0
  0
SPLINE
  5
329
100
AcDbEntity
  8
0
100
AcDbSpline
 62
7
  6
CONTINUOUS
 70
0
 71
3
 72
11
 73
7
 74
0
 42
0.0000001
 43
0.0000001
 44
0.0000000001
 40
0.0
 40
0.0
 40
0.0
 40
0.0
 40
0.2861088555
 40
0.5486792275
 40
0.7866442955
 40
1.0
 40
1.0
 40
1.0
 40
1.0
 10
47.3694348297
 20
277.5468545144
 30
0.0
 10
48.3275925516
 20
277.8900811866
 30
0.0
 10
50.1443407228
 20
278.6090150808
 30
0.0
 10
52.6592574423
 20
279.8442914343
 30
0.0
 10
54.8245267748
 20
281.1792972889
 30
0.0
 10
56.087100481
 20
282.1803139902
 30
0.0
 10
56.6431072273
 20
282.6969327839
 30
0.0
  0
SPLINE
  5
32A
100
AcDbEntity
  8
0
100
AcDbSpline
 62
7
  6
CONTINUOUS
 70
0
 71
3
 72
9
 73
5
 74
0
 42
0.0000001
 43
0.0000001
 44
0.0000000001
 40
0.0
 40
0.0
 40
0.0
 40
0.0
 40
0.5723098974
 40
1.0
 40
1.0
 40
1.0
 40
1.0
 10
56.8101019411
 20
282.7106175032
 30
0.0
 10
56.9965227649
 20
282.7258943251
 30
0.0
 10
57.3193524694
 20
282.7931732907
 30
0.0
 10
57.6194637839
 20
282.9402778101
 30
0.0
 10
57.7266684395
 20
283.0299754889
 30
0.0
  0
SPLINE
  5
32B
100
AcDbEntity
  8
0
100
AcDbSpline
 62
7
  6
CONTINUOUS
 70
0
 71
3
 72
11
 73
7
 74
0
 42
0.0000001
 43
0.0000001
 44
0.0000000001
 40
0.0
 40
0.0
 40
0.0
 40
0.0
 40
0.2891094199
 40
0.5470611535
 40
0.7805747091
 40
1.0
 40
1.0
 40
1.0
 40
1.0
 10
57.7266684395
 20
283.0299754889
 30
0.0
 10
58.267572129
 20
283.4825608515
 30
0.0
 10
59.2384034515
 20
284.4068627716
 30
0.0
 10
60.379323435
 20
285.9460019236
 30
0.0
 10
61.0951915968
 20
287.5428007428
 30
0.0
 10
61.2748968789
 20
288.6492553965
 30
0.0
 10
61.2856148503
 20
289.1844290879
 30
0.0
  0
SPLINE
  5
32C
100
AcDbEntity
  8
0
100
AcDbSpline
 62
7
  6
CONTINUOUS
 70
0
 71
3
 72
9
 73
5
 74
0
 42
0.0000001
 43
0.0000001
 44
0.0000000001
 40
0.0
 40
0.0
 40
0.0
 40
0.0
 40
0.3448056868
 40
1.0
 40
1.0
 40
1.0
 40
1.0
 10
61.4270098927
 20
289.2223306141
 30
0.0
 10
61.5056389418
 20
289.243407563
 30
0.0
 10
61.7223397158
 20
289.3180983093
 30
0.0
 10
61.9445531868
 20
289.5022119004
 30
0.0
 10
61.9628506747
 20
289.6558102806
 30
0.0
  0
SPLINE
  5
32D
100
AcDbEntity
  8
0
100
AcDbSpline
 62
7
  6
CONTINUOUS
 70
0
 71
3
 72
11
 73
7
 74
0
 42
0.0000001
 43
0.0000001
 44
0.0000000001
 40
0.0
 40
0.0
 40
0.0
 40
0.0
 40
0.2256267182
 40
0.4618875333
 40
0.7178854864
 40
1.0
 40
1.0
 40
1.0
 40
1.0
 10
-26.9640223365
 20
290.7191492575
 30
0.0
 10
-26.9639591286
 20
290.2488937224
 30
0.0
 10
-26.8443339098
 20
289.2825883698
 30
0.0
 10
-26.3161601665
 20
287.8703651202
 30
0.0
 10
-25.4524681009
 20
286.496184214
 30
0.0
 10
-24.702058915
 20
285.6560625285
 30
0.0
 10
-24.2827682608
 20
285.2438419461
 30
0.0
  0
SPLINE
  5
32E
100
AcDbEntity
  8
0
100
AcDbSpline
 62
7
  6
CONTINUOUS
 70
0
 71
3
 72
10
 73
6
 74
0
 42
0.0000001
 43
0.0000001
 44
0.0000000001
 40
0.0
 40
0.0
 40
0.0
 40
0.0
 40
0.245998004
 40
0.4792791749
 40
1.0
 40
1.0
 40
1.0
 40
1.0
 10
-24.4595118169
 20
284.9989330973
 30
0.0
 10
-24.4754188
 20
284.9722308357
 30
0.0
 10
-24.4977755705
 20
284.9139857794
 30
0.0
 10
-24.4928135991
 20
284.7848344289
 30
0.0
 10
-24.4374908787
 20
284.6992930599
 30
0.0
 10
-24.3930603487
 20
284.6507700247
 30
0.0
  0
SPLINE
  5
32F
100
AcDbEntity
  8
0
100
AcDbSpline
 62
7
  6
CONTINUOUS
 70
0
 71
3
 72
13
 73
9
 74
0
 42
0.0000001
 43
0.0000001
 44
0.0000000001
 40
0.0
 40
0.0
 40
0.0
 40
0.0
 40
0.3207825123
 40
0.4647947586
 40
0.5967540921
 40
0.7161675304
 40
0.8228927291
 40
1.0
 40
1.0
 40
1.0
 40
1.0
 10
35.7492784484
 20
295.7752249889
 30
0.0
 10
37.3738830366
 20
296.2107091559
 30
0.0
 10
39.70239295
 20
296.9553501374
 30
0.0
 10
42.5724783203
 20
298.207639829
 30
0.0
 10
44.4045216651
 20
299.1822759433
 30
0.0
 10
45.9779649775
 20
300.2153780019
 30
0.0
 10
47.6050597456
 20
301.5642839777
 30
0.0
 10
48.5724124535
 20
302.7447533768
 30
0.0
 10
48.9859278864
 20
303.5762294463
 30
0.0
  0
SPLINE
  5
330
100
AcDbEntity
  8
0
100
AcDbSpline
 62
7
  6
CONTINUOUS
 70
0
 71
3
 72
9
 73
5
 74
0
 42
0.0000001
 43
0.0000001
 44
0.0000000001
 40
0.0
 40
0.0
 40
0.0
 40
0.0
 40
0.2597395376
 40
1.0
 40
1.0
 40
1.0
 40
1.0
 10
48.9859278864
 20
303.5762294463
 30
0.0
 10
49.0336523027
 20
303.6721913062
 30
0.0
 10
49.207406946
 20
304.0464643278
 30
0.0
 10
49.3389239561
 20
304.4408284926
 30
0.0
 10
49.4066916471
 20
304.7386635144
 30
0.0
  0
SPLINE
  5
331
100
AcDbEntity
  8
0
100
AcDbSpline
 62
7
  6
CONTINUOUS
 70
0
 71
3
 72
9
 73
5
 74
0
 42
0.0000001
 43
0.0000001
 44
0.0000000001
 40
0.0
 40
0.0
 40
0.0
 40
0.0
 40
0.2535732023
 40
1.0
 40
1.0
 40
1.0
 40
1.0
 10
49.4066916471
 20
304.7386635144
 30
0.0
 10
49.4256886977
 20
304.8221544361
 30
0.0
 10
49.4916114161
 20
305.1533829609
 30
0.0
 10
49.5206843788
 20
305.4920343897
 30
0.0
 10
49.5203072624
 20
305.7440824807
 30
0.0
  0
SPLINE
  5
332
100
AcDbEntity
  8
0
100
AcDbSpline
 62
7
  6
CONTINUOUS
 70
0
 71
3
 72
9
 73
5
 74
0
 42
0.0000001
 43
0.0000001
 44
0.0000000001
 40
0.0
 40
0.0
 40
0.0
 40
0.0
 40
0.4887689468
 40
1.0
 40
1.0
 40
1.0
 40
1.0
 10
-14.480281368
 20
305.7217684064
 30
0.0
 10
-14.4798692101
 20
305.4297019783
 30
0.0
 10
-14.4182323003
 20
304.8307239391
 30
0.0
 10
-14.2397824776
 20
304.2563511434
 30
0.0
 10
-14.1248938165
 20
303.9732890052
 30
0.0
  0
SPLINE
  5
333
100
AcDbEntity
  8
0
100
AcDbSpline
 62
7
  6
CONTINUOUS
 70
0
 71
3
 72
10
 73
6
 74
0
 42
0.0000001
 43
0.0000001
 44
0.0000000001
 40
0.0
 40
0.0
 40
0.0
 40
0.0
 40
0.4275549991
 40
0.695336834
 40
1.0
 40
1.0
 40
1.0
 40
1.0
 10
-13.997918684
 20
303.6841893426
 30
0.0
 10
-13.5036801215
 20
302.6383293185
 30
0.0
 10
-12.2121466136
 20
301.1769506235
 30
0.0
 10
-10.0358960235
 20
299.5773211932
 30
0.0
 10
-8.6814472258
 20
298.8137313942
 30
0.0
 10
-7.9454635787
 20
298.4425775784
 30
0.0
  0
SPLINE
  5
334
100
AcDbEntity
  8
0
100
AcDbSpline
 62
7
  6
CONTINUOUS
 70
0
 71
3
 72
15
 73
11
 74
0
 42
0.0000001
 43
0.0000001
 44
0.0000000001
 40
0.0
 40
0.0
 40
0.0
 40
0.0
 40
0.1007710119
 40
0.2155506293
 40
0.3413162797
 40
0.4744544249
 40
0.6109892973
 40
0.7467888919
 40
0.8777451369
 40
1.0
 40
1.0
 40
1.0
 40
1.0
 10
-7.9454635787
 20
298.4425775784
 30
0.0
 10
-6.6097078205
 20
297.7689609176
 30
0.0
 10
-3.6331206681
 20
296.56303719
 30
0.0
 10
1.2556937106
 20
295.2033022644
 30
0.0
 10
6.7219738474
 20
294.2162021972
 30
0.0
 10
12.5699105643
 20
293.6408222807
 30
0.0
 10
18.5930822472
 20
293.4990241709
 30
0.0
 10
24.5783898108
 20
293.7963682178
 30
0.0
 10
30.3133269492
 20
294.5212639988
 30
0.0
 10
33.9962333944
 20
295.3053116508
 30
0.0
 10
35.7492784484
 20
295.7752249889
 30
0.0
  0
SPLINE
  5
335
100
AcDbEntity
  8
0
100
AcDbSpline
 62
7
  6
CONTINUOUS
 70
0
 71
3
 72
14
 73
10
 74
0
 42
0.0000001
 43
0.0000001
 44
0.0000000001
 40
0.0
 40
0.0
 40
0.0
 40
0.0
 40
0.295453739
 40
0.4303074344
 40
0.5565918656
 40
0.6750522778
 40
0.7870968614
 40
0.8948904614
 40
1.0
 40
1.0
 40
1.0
 40
1.0
 10
-4.5951153078
 20
318.1991056253
 30
0.0
 10
-6.8144232746
 20
317.6042079571
 30
0.0
 10
-10.0090279552
 20
316.5653407478
 30
0.0
 10
-13.9508317716
 20
314.7675592918
 30
0.0
 10
-16.5229269672
 20
313.3094803236
 30
0.0
 10
-18.7848226478
 20
311.6919815032
 30
0.0
 10
-20.7152572311
 20
309.8907717183
 30
0.0
 10
-22.2702219109
 20
307.8835008466
 30
0.0
 10
-23.0194164836
 20
306.3903478019
 30
0.0
 10
-23.2994232898
 20
305.6223964806
 30
0.0
  0
SPLINE
  5
336
100
AcDbEntity
  8
0
100
AcDbSpline
 62
7
  6
CONTINUOUS
 70
0
 71
3
 72
9
 73
5
 74
0
 42
0.0000001
 43
0.0000001
 44
0.0000000001
 40
0.0
 40
0.0
 40
0.0
 40
0.0
 40
0.2521561183
 40
1.0
 40
1.0
 40
1.0
 40
1.0
 10
58.7961292696
 20
303.9487260734
 30
0.0
 10
58.763481676
 20
304.1260964059
 30
0.0
 10
58.6154490863
 20
304.8260092848
 30
0.0
 10
58.3936067735
 20
305.5099847707
 30
0.0
 10
58.1914656454
 20
306.0051988586
 30
0.0
  0
SPLINE
  5
337
100
AcDbEntity
  8
0
100
AcDbSpline
 62
7
  6
CONTINUOUS
 70
0
 71
3
 72
20
 73
16
 74
0
 42
0.0000001
 43
0.0000001
 44
0.0000000001
 40
0.0
 40
0.0
 40
0.0
 40
0.0
 40
0.0434228171
 40
0.0886879994
 40
0.1368555047
 40
0.1887628901
 40
0.2447727872
 40
0.304879599
 40
0.3687968835
 40
0.4360245482
 40
0.5059057332
 40
0.5776736835
 40
0.7234393591
 40
0.8663952636
 40
1.0
 40
1.0
 40
1.0
 40
1.0
 10
57.7949658021
 20
306.8695426377
 30
0.0
 10
57.3567468794
 20
307.7287339181
 30
0.0
 10
56.2418732481
 20
309.3761124213
 30
0.0
 10
54.067586982
 20
311.520436634
 30
0.0
 10
51.4369344266
 20
313.4093388206
 30
0.0
 10
48.3923813417
 20
315.0812588011
 30
0.0
 10
44.9561457527
 20
316.5502268271
 30
0.0
 10
41.1601341697
 20
317.8193422618
 30
0.0
 10
37.044477619
 20
318.8835765174
 30
0.0
 10
32.6586059871
 20
319.7343232744
 30
0.0
 10
28.0595600314
 20
320.363048588
 30
0.0
 10
21.6957936994
 20
320.8977472148
 30
0.0
 10
13.6747709232
 20
320.9732215288
 30
0.0
 10
4.3165649071
 20
320.1522435465
 30
0.0
 10
-1.7287279517
 20
318.9674564716
 30
0.0
 10
-4.5951153078
 20
318.1991056253
 30
0.0
  0
SPLINE
  5
338
100
AcDbEntity
  8
0
100
AcDbSpline
 62
7
  6
CONTINUOUS
 70
0
 71
3
 72
15
 73
11
 74
0
 42
0.0000001
 43
0.0000001
 44
0.0000000001
 40
0.0
 40
0.0
 40
0.0
 40
0.0
 40
0.1057623838
 40
0.1994181995
 40
0.2896358592
 40
0.386547606
 40
0.50115634
 40
0.6395084175
 40
0.8053262629
 40
1.0
 40
1.0
 40
1.0
 40
1.0
 10
-26.9503259464
 20
292.1939622006
 30
0.0
 10
-26.9402006484
 20
292.5157226428
 30
0.0
 10
-26.8683957598
 20
293.1247315214
 30
0.0
 10
-26.5248320785
 20
293.9517720118
 30
0.0
 10
-25.9300027
 20
294.595115
 30
0.0
 10
-25.079905513
 20
294.9866613466
 30
0.0
 10
-24.0226717118
 20
295.1683189052
 30
0.0
 10
-22.7417837724
 20
295.1300689467
 30
0.0
 10
-21.243885385
 20
294.8632345603
 30
0.0
 10
-20.1853330389
 20
294.5668262025
 30
0.0
 10
-19.6233910951
 20
294.3788510269
 30
0.0
  0
SPLINE
  5
339
100
AcDbEntity
  8
0
100
AcDbSpline
 62
7
  6
CONTINUOUS
 70
0
 71
3
 72
16
 73
12
 74
0
 42
0.0000001
 43
0.0000001
 44
0.0000000001
 40
0.0
 40
0.0
 40
0.0
 40
0.0
 40
0.0117995725
 40
0.0288395162
 40
0.0539804415
 40
0.0873913819
 40
0.1290827674
 40
0.2371973712
 40
0.378045505
 40
0.5515204321
 40
1.0
 40
1.0
 40
1.0
 40
1.0
 10
-25.5792049273
 20
301.7508297476
 30
0.0
 10
-25.5783662932
 20
301.7571767225
 30
0.0
 10
-25.5528244072
 20
301.7441963872
 30
0.0
 10
-25.536851664
 20
301.7290078414
 30
0.0
 10
-25.5032300772
 20
301.7001376478
 30
0.0
 10
-25.4655692867
 20
301.6627204126
 30
0.0
 10
-25.3952286001
 20
301.5915625789
 30
0.0
 10
-25.2873088055
 20
301.4771441123
 30
0.0
 10
-25.1309198852
 20
301.3093289111
 30
0.0
 10
-24.8495450497
 20
301.0059394981
 30
0.0
 10
-24.623795251
 20
300.7549938526
 30
0.0
 10
-24.4635299602
 20
300.5718924171
 30
0.0
  0
SPLINE
  5
33A
100
AcDbEntity
  8
0
100
AcDbSpline
 62
7
  6
CONTINUOUS
 70
0
 71
3
 72
10
 73
6
 74
0
 42
0.0000001
 43
0.0000001
 44
0.0000000001
 40
0.0
 40
0.0
 40
0.0
 40
0.0
 40
0.5408291972
 40
0.7812740549
 40
1.0
 40
1.0
 40
1.0
 40
1.0
 10
-0.9337560031
 20
317.0308972727
 30
0.0
 10
-2.7592449459
 20
316.541564953
 30
0.0
 10
-5.3663935594
 20
315.694363655
 30
0.0
 10
-8.5441155348
 20
314.2332361874
 30
0.0
 10
-9.9381735696
 20
313.4319125194
 30
0.0
 10
-10.577546054
 20
313.0130808633
 30
0.0
  0
SPLINE
  5
33B
100
AcDbEntity
  8
0
100
AcDbSpline
 62
7
  6
CONTINUOUS
 70
0
 71
3
 72
14
 73
10
 74
0
 42
0.0000001
 43
0.0000001
 44
0.0000000001
 40
0.0
 40
0.0
 40
0.0
 40
0.0
 40
0.3034246034
 40
0.4338989699
 40
0.5529071745
 40
0.6641052897
 40
0.772243568
 40
0.8825783096
 40
1.0
 40
1.0
 40
1.0
 40
1.0
 10
-10.7421523825
 20
312.9040396587
 30
0.0
 10
-11.6951503339
 20
312.2656002377
 30
0.0
 10
-12.9924809278
 20
311.2239567033
 30
0.0
 10
-14.2847432344
 20
309.5701138949
 30
0.0
 10
-14.918980812
 20
308.3526292181
 30
0.0
 10
-15.2544984218
 20
307.1065232735
 30
0.0
 10
-15.2805405518
 20
305.8477473696
 30
0.0
 10
-14.9961276084
 20
304.5984663593
 30
0.0
 10
-14.621316918
 20
303.8154741531
 30
0.0
 10
-14.3944000947
 20
303.4339454987
 30
0.0
  0
SPLINE
  5
33C
100
AcDbEntity
  8
0
100
AcDbSpline
 62
7
  6
CONTINUOUS
 70
0
 71
3
 72
9
 73
5
 74
0
 42
0.0000001
 43
0.0000001
 44
0.0000000001
 40
0.0
 40
0.0
 40
0.0
 40
0.0
 40
0.4526067531
 40
1.0
 40
1.0
 40
1.0
 40
1.0
 10
-14.3944000947
 20
303.4339454987
 30
0.0
 10
-13.90597871
 20
302.6127337833
 30
0.0
 10
-12.4796164826
 20
301.0065139128
 30
0.0
 10
-10.7342644728
 20
299.7976024443
 30
0.0
 10
-9.7387172227
 20
299.210870973
 30
0.0
  0
SPLINE
  5
33D
100
AcDbEntity
  8
0
100
AcDbSpline
 62
7
  6
CONTINUOUS
 70
0
 71
3
 72
15
 73
11
 74
0
 42
0.0000001
 43
0.0000001
 44
0.0000000001
 40
0.0
 40
0.0
 40
0.0
 40
0.0
 40
0.1017335037
 40
0.2167802256
 40
0.3423950929
 40
0.4751568357
 40
0.6112497306
 40
0.7466843326
 40
0.8774997304
 40
1.0
 40
1.0
 40
1.0
 40
1.0
 10
-8.2193595152
 20
298.3878021078
 30
0.0
 10
-6.8587789242
 20
297.7087771317
 30
0.0
 10
-3.8423411252
 20
296.4946555115
 30
0.0
 10
1.096826994
 20
295.1265795127
 30
0.0
 10
6.5967629692
 20
294.1348094202
 30
0.0
 10
12.4699948852
 20
293.5550373538
 30
0.0
 10
18.5164574924
 20
293.4078044675
 30
0.0
 10
24.5288214728
 20
293.6985532746
 30
0.0
 10
30.3004262458
 20
294.4166051614
 30
0.0
 10
34.0121165853
 20
295.1956770953
 30
0.0
 10
35.7824692246
 20
295.6630648409
 30
0.0
  0
SPLINE
  5
33E
100
AcDbEntity
  8
0
100
AcDbSpline
 62
7
  6
CONTINUOUS
 70
0
 71
3
 72
27
 73
23
 74
0
 42
0.0000001
 43
0.0000001
 44
0.0000000001
 40
0.0
 40
0.0
 40
0.0
 40
0.0
 40
0.0585438151
 40
0.0886799958
 40
0.1039968477
 40
0.1194031487
 40
0.1348702442
 40
0.1505101164
 40
0.1662754536
 40
0.1820869406
 40
0.1980139758
 40
0.2140656459
 40
0.246358674
 40
0.2789834233
 40
0.3118351872
 40
0.3449048879
 40
0.3781189783
 40
0.5115131285
 40
0.6433931763
 40
0.7706494172
 40
0.8903721861
 40
1.0
 40
1.0
 40
1.0
 40
1.0
 10
38.6855389925
 20
293.4158057395
 30
0.0
 10
37.7848173239
 20
293.177627295
 30
0.0
 10
36.4116922221
 20
292.8496363235
 30
0.0
 10
34.7921861211
 20
292.5078605699
 30
0.0
 10
33.8397872081
 20
292.3316242014
 30
0.0
 10
33.116370192
 20
292.2012538922
 30
0.0
 10
32.3880639363
 20
292.0688081185
 30
0.0
 10
31.6513313381
 20
291.9516687447
 30
0.0
 10
30.9079904931
 20
291.8418274223
 30
0.0
 10
30.1604085507
 20
291.7293505581
 30
0.0
 10
29.4067067915
 20
291.6272641801
 30
0.0
 10
28.3911957077
 20
291.5050600386
 30
0.0
 10
27.1112707165
 20
291.3553563739
 30
0.0
 10
25.5615669091
 20
291.215077173
 30
0.0
 10
23.9981402573
 20
291.0910047345
 30
0.0
 10
22.4230204325
 20
290.9995188458
 30
0.0
 10
19.2483221192
 20
290.8599213014
 30
0.0
 10
14.4940513334
 20
290.8563520868
 30
0.0
 10
8.2557889389
 20
291.2575354652
 30
0.0
 10
2.2746668871
 20
292.0600044191
 30
0.0
 10
-3.282373182
 20
293.2384096402
 30
0.0
 10
-6.7798765935
 20
294.3065423661
 30
0.0
 10
-8.4169376524
 20
294.9097110168
 30
0.0
  0
SPLINE
  5
33F
100
AcDbEntity
  8
0
100
AcDbSpline
 62
7
  6
CONTINUOUS
 70
0
 71
3
 72
9
 73
5
 74
0
 42
0.0000001
 43
0.0000001
 44
0.0000000001
 40
0.0
 40
0.0
 40
0.0
 40
0.0
 40
0.2580338619
 40
1.0
 40
1.0
 40
1.0
 40
1.0
 10
-8.4392930765
 20
294.9179544729
 30
0.0
 10
-8.6982883334
 20
295.0135352943
 30
0.0
 10
-9.6985710048
 20
295.3931564379
 30
0.0
 10
-10.6847922624
 20
295.8103075093
 30
0.0
 10
-11.4050574036
 20
296.1440412057
 30
0.0
  0
SPLINE
  5
340
100
AcDbEntity
  8
0
100
AcDbSpline
 62
7
  6
CONTINUOUS
 70
0
 71
3
 72
9
 73
5
 74
0
 42
0.0000001
 43
0.0000001
 44
0.0000000001
 40
0.0
 40
0.0
 40
0.0
 40
0.0
 40
0.5355182833
 40
1.0
 40
1.0
 40
1.0
 40
1.0
 10
-11.4050574036
 20
296.1440412057
 30
0.0
 10
-12.5340879991
 20
296.6671757187
 30
0.0
 10
-14.5939739834
 20
297.7551160504
 30
0.0
 10
-16.4818506823
 20
299.1329398139
 30
0.0
 10
-17.2819226859
 20
299.8573184611
 30
0.0
  0
SPLINE
  5
341
100
AcDbEntity
  8
0
100
AcDbSpline
 62
7
  6
CONTINUOUS
 70
0
 71
3
 72
13
 73
9
 74
0
 42
0.0000001
 43
0.0000001
 44
0.0000000001
 40
0.0
 40
0.0
 40
0.0
 40
0.0
 40
0.2870968642
 40
0.5353494428
 40
0.6509903863
 40
0.7647714378
 40
0.8800425273
 40
1.0
 40
1.0
 40
1.0
 40
1.0
 10
-17.2819226859
 20
299.8573184611
 30
0.0
 10
-17.9687403007
 20
300.4791575112
 30
0.0
 10
-19.152665872
 20
301.7600418682
 30
0.0
 10
-20.1228900732
 20
303.6669888516
 30
0.0
 10
-20.4283470675
 20
305.1865338238
 30
0.0
 10
-20.4402421591
 20
306.3056010333
 30
0.0
 10
-20.2396315698
 20
307.420163538
 30
0.0
 10
-19.9733314722
 20
308.1355559048
 30
0.0
 10
-19.8105548997
 20
308.4867891096
 30
0.0
  0
SPLINE
  5
342
100
AcDbEntity
  8
0
100
AcDbSpline
 62
7
  6
CONTINUOUS
 70
0
 71
3
 72
9
 73
5
 74
0
 42
0.0000001
 43
0.0000001
 44
0.0000000001
 40
0.0
 40
0.0
 40
0.0
 40
0.0
 40
0.2345710695
 40
1.0
 40
1.0
 40
1.0
 40
1.0
 10
-19.7754047178
 20
308.5615557877
 30
0.0
 10
-19.6723317266
 20
308.7777201966
 30
0.0
 10
-19.1892420039
 20
309.6784510771
 30
0.0
 10
-18.5468663054
 20
310.487939484
 30
0.0
 10
-18.0075819201
 20
311.0534805336
 30
0.0
  0
SPLINE
  5
343
100
AcDbEntity
  8
0
100
AcDbSpline
 62
7
  6
CONTINUOUS
 70
0
 71
3
 72
11
 73
7
 74
0
 42
0.0000001
 43
0.0000001
 44
0.0000000001
 40
0.0
 40
0.0
 40
0.0
 40
0.0
 40
0.2068965275
 40
0.4432614466
 40
0.7083947157
 40
1.0
 40
1.0
 40
1.0
 40
1.0
 10
-17.3204187036
 20
311.7242411948
 30
0.0
 10
-16.5899058897
 20
312.3903047025
 30
0.0
 10
-14.8842706537
 20
313.6645281291
 30
0.0
 10
-11.9143762163
 20
315.3029209538
 30
0.0
 10
-8.4138363188
 20
316.7700137314
 30
0.0
 10
-5.8769439772
 20
317.5810825094
 30
0.0
 10
-4.5355856784
 20
317.9580770661
 30
0.0
  0
SPLINE
  5
344
100
AcDbEntity
  8
0
100
AcDbSpline
 62
7
  6
CONTINUOUS
 70
0
 71
3
 72
9
 73
5
 74
0
 42
0.0000001
 43
0.0000001
 44
0.0000000001
 40
0.0
 40
0.0
 40
0.0
 40
0.0
 40
0.2550726793
 40
1.0
 40
1.0
 40
1.0
 40
1.0
 10
-14.1170092802
 20
307.6240819592
 30
0.0
 10
-14.153243317
 20
307.530247845
 30
0.0
 10
-14.2858737562
 20
307.1588352166
 30
0.0
 10
-14.3791767093
 20
306.7731512303
 30
0.0
 10
-14.4232304916
 20
306.4827138331
 30
0.0
  0
SPLINE
  5
345
100
AcDbEntity
  8
0
100
AcDbSpline
 62
7
  6
CONTINUOUS
 70
0
 71
3
 72
9
 73
5
 74
0
 42
0.0000001
 43
0.0000001
 44
0.0000000001
 40
0.0
 40
0.0
 40
0.0
 40
0.0
 40
0.244552004
 40
1.0
 40
1.0
 40
1.0
 40
1.0
 10
49.4616857223
 20
306.4918400416
 30
0.0
 10
49.443457989
 20
306.6105460049
 30
0.0
 10
49.3518556608
 20
307.0932628742
 30
0.0
 10
49.1923576271
 20
307.5623578014
 30
0.0
 10
49.0416949738
 20
307.9013815085
 30
0.0
  0
SPLINE
  5
346
100
AcDbEntity
  8
0
100
AcDbSpline
 62
7
  6
CONTINUOUS
 70
0
 71
3
 72
10
 73
6
 74
0
 42
0.0000001
 43
0.0000001
 44
0.0000000001
 40
0.0
 40
0.0
 40
0.0
 40
0.0
 40
0.2446664649
 40
0.4890414471
 40
1.0
 40
1.0
 40
1.0
 40
1.0
 10
-23.7562680148
 20
303.9487350641
 30
0.0
 10
-23.8247538652
 20
303.5768820237
 30
0.0
 10
-23.8979626092
 20
302.819859035
 30
0.0
 10
-23.7720811412
 20
301.2731890736
 30
0.0
 10
-23.3646224962
 20
300.1505911554
 30
0.0
 10
-22.9952541791
 20
299.4526731091
 30
0.0
  0
SPLINE
  5
347
100
AcDbEntity
  8
0
100
AcDbSpline
 62
7
  6
CONTINUOUS
 70
0
 71
3
 72
15
 73
11
 74
0
 42
0.0000001
 43
0.0000001
 44
0.0000000001
 40
0.0
 40
0.0
 40
0.0
 40
0.0
 40
0.0982301947
 40
0.211013227
 40
0.3356376095
 40
0.4685527415
 40
0.6057089278
 40
0.7428178348
 40
0.8755895011
 40
1.0
 40
1.0
 40
1.0
 40
1.0
 10
44.4293803898
 20
313.7355473629
 30
0.0
 10
43.1216068527
 20
314.4755141593
 30
0.0
 10
40.1640099047
 20
315.804302853
 30
0.0
 10
35.24754046
 20
317.3129759794
 30
0.0
 10
29.6860499443
 20
318.4323918092
 30
0.0
 10
23.6812968818
 20
319.1193067221
 30
0.0
 10
17.4510069926
 20
319.347858356
 30
0.0
 10
11.2231361116
 20
319.1090713034
 30
0.0
 10
5.2261713717
 20
318.4123140641
 30
0.0
 10
1.3643280154
 20
317.6271298592
 30
0.0
 10
-0.4781833165
 20
317.1508280102
 30
0.0
  0
SPLINE
  5
348
100
AcDbEntity
  8
0
100
AcDbSpline
 62
7
  6
CONTINUOUS
 70
0
 71
3
 72
17
 73
13
 74
0
 42
0.0000001
 43
0.0000001
 44
0.0000000001
 40
0.0
 40
0.0
 40
0.0
 40
0.0
 40
0.1274882473
 40
0.2641839232
 40
0.4051187507
 40
0.5450396608
 40
0.6787598665
 40
0.8015175757
 40
0.8575413891
 40
0.9094501023
 40
0.9569776535
 40
1.0
 40
1.0
 40
1.0
 40
1.0
 10
-3.6457906534
 20
318.2007361587
 30
0.0
 10
-1.3232927219
 20
318.8148758896
 30
0.0
 10
3.5651305409
 20
319.8087609869
 30
0.0
 10
11.1625881639
 20
320.637789396
 30
0.0
 10
19.0372604678
 20
320.8354515286
 30
0.0
 10
26.8459695511
 20
320.3927229707
 30
0.0
 10
34.2489508351
 20
319.3295418523
 30
0.0
 10
39.9820997523
 20
317.9280970715
 30
0.0
 10
44.0927306786
 20
316.5054397746
 30
0.0
 10
46.7893821738
 20
315.3535261986
 30
0.0
 10
49.1653328274
 20
314.0971721443
 30
0.0
 10
50.5903338709
 20
313.150889974
 30
0.0
 10
51.2351885016
 20
312.6595821919
 30
0.0
  0
SPLINE
  5
349
100
AcDbEntity
  8
0
100
AcDbSpline
 62
7
  6
CONTINUOUS
 70
0
 71
3
 72
15
 73
11
 74
0
 42
0.0000001
 43
0.0000001
 44
0.0000000001
 40
0.0
 40
0.0
 40
0.0
 40
0.0
 40
0.1426903884
 40
0.2709678742
 40
0.3882756988
 40
0.4996041481
 40
0.6109953025
 40
0.728480401
 40
0.8570029569
 40
1.0
 40
1.0
 40
1.0
 40
1.0
 10
52.3567058299
 20
311.7274505387
 30
0.0
 10
52.8415029237
 20
311.2857084475
 30
0.0
 10
53.7094534231
 20
310.3845103134
 30
0.0
 10
54.7141394137
 20
308.8966087468
 30
0.0
 10
55.3290933478
 20
307.3596398821
 30
0.0
 10
55.5345463486
 20
305.7923191155
 30
0.0
 10
55.3207108061
 20
304.2252811308
 30
0.0
 10
54.6973202828
 20
302.6894454433
 30
0.0
 10
53.6856666941
 20
301.2022785876
 30
0.0
 10
52.812665711
 20
300.3024857365
 30
0.0
 10
52.3257921353
 20
299.8609324208
 30
0.0
  0
SPLINE
  5
34A
100
AcDbEntity
  8
0
100
AcDbSpline
 62
7
  6
CONTINUOUS
 70
0
 71
3
 72
9
 73
5
 74
0
 42
0.0000001
 43
0.0000001
 44
0.0000000001
 40
0.0
 40
0.0
 40
0.0
 40
0.0
 40
0.4778398803
 40
1.0
 40
1.0
 40
1.0
 40
1.0
 10
52.3257921353
 20
299.8609324208
 30
0.0
 10
51.866262363
 20
299.4441776312
 30
0.0
 10
50.8494161173
 20
298.6322245753
 30
0.0
 10
49.7600071395
 20
297.9227418839
 30
0.0
 10
49.1773991286
 20
297.5761558153
 30
0.0
  0
SPLINE
  5
34B
100
AcDbEntity
  8
0
100
AcDbSpline
 62
7
  6
CONTINUOUS
 70
0
 71
3
 72
9
 73
5
 74
0
 42
0.0000001
 43
0.0000001
 44
0.0000000001
 40
0.0
 40
0.0
 40
0.0
 40
0.0
 40
0.4657224059
 40
1.0
 40
1.0
 40
1.0
 40
1.0
 10
48.8849886642
 20
297.4051574113
 30
0.0
 10
47.4358596658
 20
296.5712789923
 30
0.0
 10
44.1647689975
 20
295.0556322387
 30
0.0
 10
40.7367622407
 20
293.9652866762
 30
0.0
 10
38.8841332403
 20
293.4686793153
 30
0.0
  0
SPLINE
  5
34C
100
AcDbEntity
  8
0
100
AcDbSpline
 62
7
  6
CONTINUOUS
 70
0
 71
3
 72
9
 73
5
 74
0
 42
0.0000001
 43
0.0000001
 44
0.0000000001
 40
0.0
 40
0.0
 40
0.0
 40
0.0
 40
0.5287706284
 40
1.0
 40
1.0
 40
1.0
 40
1.0
 10
35.9735773866
 20
295.7139069391
 30
0.0
 10
37.3765262359
 20
296.0899750701
 30
0.0
 10
40.0022119347
 20
296.910760999
 30
0.0
 10
42.5310687816
 20
298.0035565184
 30
0.0
 10
43.6789187133
 20
298.6018534016
 30
0.0
  0
SPLINE
  5
34D
100
AcDbEntity
  8
0
100
AcDbSpline
 62
7
  6
CONTINUOUS
 70
0
 71
3
 72
9
 73
5
 74
0
 42
0.0000001
 43
0.0000001
 44
0.0000000001
 40
0.0
 40
0.0
 40
0.0
 40
0.0
 40
0.547006898
 40
1.0
 40
1.0
 40
1.0
 40
1.0
 10
44.8276360822
 20
299.239908759
 30
0.0
 10
45.811804013
 20
299.8232529928
 30
0.0
 10
47.5378990943
 20
301.0252968827
 30
0.0
 10
48.9487719305
 20
302.6179988016
 30
0.0
 10
49.4332317706
 20
303.432201912
 30
0.0
  0
SPLINE
  5
34E
100
AcDbEntity
  8
0
100
AcDbSpline
 62
7
  6
CONTINUOUS
 70
0
 71
3
 72
15
 73
11
 74
0
 42
0.0000001
 43
0.0000001
 44
0.0000000001
 40
0.0
 40
0.0
 40
0.0
 40
0.0
 40
0.1134631696
 40
0.2198703711
 40
0.3249300786
 40
0.4346174231
 40
0.5540384141
 40
0.68681345
 40
0.8351636013
 40
1.0
 40
1.0
 40
1.0
 40
1.0
 10
49.4332317706
 20
303.432201912
 30
0.0
 10
49.679397699
 20
303.8459184846
 30
0.0
 10
50.080046867
 20
304.6985598514
 30
0.0
 10
50.3480101968
 20
306.0663295055
 30
0.0
 10
50.2444490397
 20
307.4414785847
 30
0.0
 10
49.7743176461
 20
308.7939103766
 30
0.0
 10
48.9552176065
 20
310.1049220665
 30
0.0
 10
47.8040221884
 20
311.3651834726
 30
0.0
 10
46.3352658784
 20
312.566199047
 30
0.0
 10
45.2134689262
 20
313.2837296308
 30
0.0
 10
44.6078439282
 20
313.6335271781
 30
0.0
  0
SPLINE
  5
34F
100
AcDbEntity
  8
0
100
AcDbSpline
 62
7
  6
CONTINUOUS
 70
0
 71
3
 72
12
 73
8
 74
0
 42
0.0000001
 43
0.0000001
 44
0.0000000001
 40
0.0
 40
0.0
 40
0.0
 40
0.0
 40
0.052834278
 40
0.124649315
 40
0.3304346459
 40
0.6222895174
 40
1.0
 40
1.0
 40
1.0
 40
1.0
 10
-24.0633387838
 20
302.1575815118
 30
0.0
 10
-24.0714619726
 20
302.1066180699
 30
0.0
 10
-24.0680293721
 20
301.9833338299
 30
0.0
 10
-24.0060861073
 20
301.6663017501
 30
0.0
 10
-23.8166361696
 20
301.1406660125
 30
0.0
 10
-23.4658653132
 20
300.3612713979
 30
0.0
 10
-23.167794365
 20
299.7786344798
 30
0.0
 10
-22.9952100719
 20
299.4525551308
 30
0.0
  0
SPLINE
  5
350
100
AcDbEntity
  8
0
100
AcDbSpline
 62
7
  6
CONTINUOUS
 70
0
 71
3
 72
9
 73
5
 74
0
 42
0.0000001
 43
0.0000001
 44
0.0000000001
 40
0.0
 40
0.0
 40
0.0
 40
0.0
 40
0.5140173701
 40
1.0
 40
1.0
 40
1.0
 40
1.0
 10
26.3360160225
 20
286.8624788775
 30
0.0
 10
28.5646219798
 20
287.0536746237
 30
0.0
 10
32.8892311428
 20
287.5716667087
 30
0.0
 10
37.1649997362
 20
288.4087986509
 30
0.0
 10
39.2203920548
 20
288.9065211619
 30
0.0
  0
SPLINE
  5
351
100
AcDbEntity
  8
0
100
AcDbSpline
 62
7
  6
CONTINUOUS
 70
0
 71
3
 72
9
 73
5
 74
0
 42
0.0000001
 43
0.0000001
 44
0.0000000001
 40
0.0
 40
0.0
 40
0.0
 40
0.0
 40
0.4656674483
 40
1.0
 40
1.0
 40
1.0
 40
1.0
 10
-16.4624584644
 20
293.4788879467
 30
0.0
 10
-14.8246692475
 20
292.5517009384
 30
0.0
 10
-11.1234485894
 20
290.8847307025
 30
0.0
 10
-7.2538842463
 20
289.691629009
 30
0.0
 10
-5.1627357758
 20
289.152441315
 30
0.0
  0
SPLINE
  5
352
100
AcDbEntity
  8
0
100
AcDbSpline
 62
7
  6
CONTINUOUS
 70
0
 71
3
 72
10
 73
6
 74
0
 42
0.0000001
 43
0.0000001
 44
0.0000000001
 40
0.0
 40
0.0
 40
0.0
 40
0.0
 40
0.4491139369
 40
0.7111866311
 40
1.0
 40
1.0
 40
1.0
 40
1.0
 10
-22.9144697514
 20
299.3035142874
 30
0.0
 10
-22.2958662892
 20
298.1871533311
 30
0.0
 10
-20.9412182472
 20
296.6258289401
 30
0.0
 10
-18.7180339116
 20
294.8571576158
 30
0.0
 10
-17.3932166533
 20
294.0151981576
 30
0.0
 10
-16.6825031276
 20
293.604685021
 30
0.0
  0
SPLINE
  5
353
100
AcDbEntity
  8
0
100
AcDbSpline
 62
7
  6
CONTINUOUS
 70
0
 71
3
 72
11
 73
7
 74
0
 42
0.0000001
 43
0.0000001
 44
0.0000000001
 40
0.0
 40
0.0
 40
0.0
 40
0.0
 40
0.2342097103
 40
0.4886044343
 40
0.7477081081
 40
1.0
 40
1.0
 40
1.0
 40
1.0
 10
39.2411889251
 20
288.7417161173
 30
0.0
 10
37.0731602549
 20
287.9422991288
 30
0.0
 10
32.6545089235
 20
285.9866977923
 30
0.0
 10
26.2218714851
 20
282.3568185655
 30
0.0
 10
19.9767616265
 20
278.0899136398
 30
0.0
 10
16.0505085259
 20
274.9097765423
 30
0.0
 10
14.1900300786
 20
273.2561979386
 30
0.0
  0
SPLINE
  5
354
100
AcDbEntity
  8
0
100
AcDbSpline
 62
7
  6
CONTINUOUS
 70
0
 71
3
 72
9
 73
5
 74
0
 42
0.0000001
 43
0.0000001
 44
0.0000000001
 40
0.0
 40
0.0
 40
0.0
 40
0.0
 40
0.5144653313
 40
1.0
 40
1.0
 40
1.0
 40
1.0
 10
27.99739462
 20
284.0946143964
 30
0.0
 10
29.840797489
 20
285.0784607737
 30
0.0
 10
33.5026909849
 20
286.8475923215
 30
0.0
 10
37.3160574278
 20
288.2701478846
 30
0.0
 10
39.2012079169
 20
288.8489859486
 30
0.0
  0
SPLINE
  5
355
100
AcDbEntity
  8
0
100
AcDbSpline
 62
7
  6
CONTINUOUS
 70
0
 71
3
 72
15
 73
11
 74
0
 42
0.0000001
 43
0.0000001
 44
0.0000000001
 40
0.0
 40
0.0
 40
0.0
 40
0.0
 40
0.2561463313
 40
0.383239712
 40
0.509584033
 40
0.6350558232
 40
0.7594291178
 40
0.8821690747
 40
0.9425167992
 40
1.0
 40
1.0
 40
1.0
 40
1.0
 10
41.1384936945
 20
289.4010561384
 30
0.0
 10
41.2505703323
 20
289.4317029414
 30
0.0
 10
41.4185999958
 20
289.4762766629
 30
0.0
 10
41.6430698906
 20
289.5316582244
 30
0.0
 10
41.810425113
 20
289.5703224064
 30
0.0
 10
41.9779705422
 20
289.6051330645
 30
0.0
 10
42.1426769242
 20
289.6346762484
 30
0.0
 10
42.2867910576
 20
289.6502263422
 30
0.0
 10
42.3854625922
 20
289.6528998879
 30
0.0
 10
42.4592623266
 20
289.6363744255
 30
0.0
 10
42.4617872347
 20
289.610421852
 30
0.0
  0
SPLINE
  5
356
100
AcDbEntity
  8
0
100
AcDbSpline
 62
7
  6
CONTINUOUS
 70
0
 71
3
 72
17
 73
13
 74
0
 42
0.0000001
 43
0.0000001
 44
0.0000000001
 40
0.0
 40
0.0
 40
0.0
 40
0.0
 40
0.1240015444
 40
0.2504213783
 40
0.3784967821
 40
0.4428311067
 40
0.5071742655
 40
0.5713697673
 40
0.6352424392
 40
0.7611665478
 40
0.8833317352
 40
1.0
 40
1.0
 40
1.0
 40
1.0
 10
15.290655435
 20
273.0452153614
 30
0.0
 10
16.1260435768
 20
273.7677581328
 30
0.0
 10
17.820689034
 20
275.2186286339
 30
0.0
 10
20.4627801113
 20
277.3139841346
 30
0.0
 10
22.7451495472
 20
279.0048374632
 30
0.0
 10
24.6197289658
 20
280.3151060808
 30
0.0
 10
26.04894103
 20
281.2686073674
 30
0.0
 10
27.4912582676
 20
282.1944901225
 30
0.0
 10
29.4123360138
 20
283.3894387268
 30
0.0
 10
31.8097842084
 20
284.7960700309
 30
0.0
 10
34.683409611
 20
286.31354344
 30
0.0
 10
36.6033319538
 20
287.2325974431
 30
0.0
 10
37.5560649258
 20
287.6475873112
 30
0.0
  0
SPLINE
  5
357
100
AcDbEntity
  8
0
100
AcDbSpline
 62
7
  6
CONTINUOUS
 70
0
 71
3
 72
9
 73
5
 74
0
 42
0.0000001
 43
0.0000001
 44
0.0000000001
 40
0.0
 40
0.0
 40
0.0
 40
0.0
 40
0.2541225954
 40
1.0
 40
1.0
 40
1.0
 40
1.0
 10
37.5560649258
 20
287.6475873112
 30
0.0
 10
37.7054667022
 20
287.7144176075
 30
0.0
 10
38.2943329965
 20
287.975255285
 30
0.0
 10
38.8872080374
 20
288.2271114217
 30
0.0
 10
39.3321011924
 20
288.4083238394
 30
0.0
  0
SPLINE
  5
358
100
AcDbEntity
  8
0
100
AcDbSpline
 62
7
  6
CONTINUOUS
 70
0
 71
3
 72
9
 73
5
 74
0
 42
0.0000001
 43
0.0000001
 44
0.0000000001
 40
0.0
 40
0.0
 40
0.0
 40
0.0
 40
0.5303778383
 40
1.0
 40
1.0
 40
1.0
 40
1.0
 10
43.5876306449
 20
290.1252230322
 30
0.0
 10
45.1602579874
 20
290.6270854468
 30
0.0
 10
48.087107125
 20
291.7006147475
 30
0.0
 10
50.8812496338
 20
293.0949765994
 30
0.0
 10
52.1343646818
 20
293.847420233
 30
0.0
  0
SPLINE
  5
359
100
AcDbEntity
  8
0
100
AcDbSpline
 62
7
  6
CONTINUOUS
 70
0
 71
3
 72
12
 73
8
 74
0
 42
0.0000001
 43
0.0000001
 44
0.0000000001
 40
0.0
 40
0.0
 40
0.0
 40
0.0
 40
0.0902781131
 40
0.1955196442
 40
0.4411566425
 40
0.7155659371
 40
1.0
 40
1.0
 40
1.0
 40
1.0
 10
52.1677416365
 20
293.8388825451
 30
0.0
 10
51.4761817073
 20
293.3157488925
 30
0.0
 10
50.0023722928
 20
292.1510766597
 30
0.0
 10
46.7568330814
 20
289.4261102306
 30
0.0
 10
42.3097365847
 20
285.3858915649
 30
0.0
 10
36.7905462006
 20
279.9760165177
 30
0.0
 10
33.0878309328
 20
276.0875796323
 30
0.0
 10
31.245858996
 20
274.0698708132
 30
0.0
  0
SPLINE
  5
35A
100
AcDbEntity
  8
0
100
AcDbSpline
 62
7
  6
CONTINUOUS
 70
0
 71
3
 72
10
 73
6
 74
0
 42
0.0000001
 43
0.0000001
 44
0.0000000001
 40
0.0
 40
0.0
 40
0.0
 40
0.0
 40
0.5442405873
 40
0.7851679063
 40
1.0
 40
1.0
 40
1.0
 40
1.0
 10
42.6972961999
 20
286.8852218097
 30
0.0
 10
44.3266625006
 20
288.2560559732
 30
0.0
 10
46.7266140301
 20
290.1782058299
 30
0.0
 10
49.9143596872
 20
292.4480210781
 30
0.0
 10
51.4139436383
 20
293.4147526124
 30
0.0
 10
52.1345312336
 20
293.8474577031
 30
0.0
  0
SPLINE
  5
35B
100
AcDbEntity
  8
0
100
AcDbSpline
 62
7
  6
CONTINUOUS
 70
0
 71
3
 72
17
 73
13
 74
0
 42
0.0000001
 43
0.0000001
 44
0.0000000001
 40
0.0
 40
0.0
 40
0.0
 40
0.0
 40
0.2625201214
 40
0.5184162808
 40
0.6432026715
 40
0.7650858074
 40
0.8245574558
 40
0.8826336179
 40
0.9109974398
 40
0.9388169043
 40
0.9663654162
 40
1.0
 40
1.0
 40
1.0
 40
1.0
 10
52.3452609923
 20
293.9753071133
 30
0.0
 10
52.4185400329
 20
294.0202167129
 30
0.0
 10
52.5639666659
 20
294.1077302921
 30
0.0
 10
52.747090919
 20
294.2118137763
 30
0.0
 10
52.8931240034
 20
294.2876503461
 30
0.0
 10
52.9838998066
 20
294.3302847467
 30
0.0
 10
53.0567222605
 20
294.3593860438
 30
0.0
 10
53.1021662704
 20
294.3742353957
 30
0.0
 10
53.1387190324
 20
294.3826585696
 30
0.0
 10
53.1659057409
 20
294.3855173306
 30
0.0
 10
53.1957189734
 20
294.3849881995
 30
0.0
 10
53.2127070771
 20
294.3671570016
 30
0.0
 10
53.2143044091
 20
294.3562619233
 30
0.0
  0
SPLINE
  5
35C
100
AcDbEntity
  8
0
100
AcDbSpline
 62
7
  6
CONTINUOUS
 70
0
 71
3
 72
9
 73
5
 74
0
 42
0.0000001
 43
0.0000001
 44
0.0000000001
 40
0.0
 40
0.0
 40
0.0
 40
0.0
 40
0.2552424514
 40
1.0
 40
1.0
 40
1.0
 40
1.0
 10
52.3782809494
 20
293.6109036183
 30
0.0
 10
52.4515422163
 20
293.6718615665
 30
0.0
 10
52.7365891873
 20
293.9130483168
 30
0.0
 10
53.0135438411
 20
294.16384312
 30
0.0
 10
53.2143040483
 20
294.356267149
 30
0.0
  0
SPLINE
  5
35D
100
AcDbEntity
  8
0
100
AcDbSpline
 62
7
  6
CONTINUOUS
 70
0
 71
3
 72
9
 73
5
 74
0
 42
0.0000001
 43
0.0000001
 44
0.0000000001
 40
0.0
 40
0.0
 40
0.0
 40
0.0
 40
0.2355721889
 40
1.0
 40
1.0
 40
1.0
 40
1.0
 10
53.564177825
 20
291.6768796266
 30
0.0
 10
53.3657115292
 20
291.233905948
 30
0.0
 10
52.5050612177
 20
289.3616270886
 30
0.0
 10
51.5829661079
 20
287.5180579482
 30
0.0
 10
50.8572262289
 20
286.1200940183
 30
0.0
  0
SPLINE
  5
35E
100
AcDbEntity
  8
0
100
AcDbSpline
 62
7
  6
CONTINUOUS
 70
0
 71
3
 72
9
 73
5
 74
0
 42
0.0000001
 43
0.0000001
 44
0.0000000001
 40
0.0
 40
0.0
 40
0.0
 40
0.0
 40
0.2405770747
 40
1.0
 40
1.0
 40
1.0
 40
1.0
 10
50.8572262289
 20
286.1200940183
 30
0.0
 10
50.491956367
 20
285.4164891782
 30
0.0
 10
48.9505214286
 20
282.5038296325
 30
0.0
 10
47.3324005075
 20
279.6323413665
 30
0.0
 10
46.0808236169
 20
277.4652899444
 30
0.0
  0
SPLINE
  5
35F
100
AcDbEntity
  8
0
100
AcDbSpline
 62
7
  6
CONTINUOUS
 70
0
 71
3
 72
16
 73
12
 74
0
 42
0.0000001
 43
0.0000001
 44
0.0000000001
 40
0.0
 40
0.0
 40
0.0
 40
0.0
 40
0.1368805843
 40
0.2733309446
 40
0.4081380357
 40
0.474445774
 40
0.5397431515
 40
0.6666132449
 40
0.7869460021
 40
0.8987105183
 40
1.0
 40
1.0
 40
1.0
 40
1.0
 10
32.4679003133
 20
274.0406772569
 30
0.0
 10
33.2467964961
 20
274.8816578329
 30
0.0
 10
34.7947034897
 20
276.5678849613
 30
0.0
 10
37.1427613022
 20
279.0516213684
 30
0.0
 10
39.1063822461
 20
281.0852259439
 30
0.0
 10
40.6721439767
 20
282.6745175442
 30
0.0
 10
42.2066423356
 20
284.2011469945
 30
0.0
 10
44.0745300339
 20
286.0340054092
 30
0.0
 10
46.2371580582
 20
288.1221663832
 30
0.0
 10
48.2830228446
 20
290.0219146383
 30
0.0
 10
49.6044575915
 20
291.2210672704
 30
0.0
 10
50.245029655
 20
291.7770741296
 30
0.0
  0
SPLINE
  5
360
100
AcDbEntity
  8
0
100
AcDbSpline
 62
7
  6
CONTINUOUS
 70
0
 71
3
 72
9
 73
5
 74
0
 42
0.0000001
 43
0.0000001
 44
0.0000000001
 40
0.0
 40
0.0
 40
0.0
 40
0.0
 40
0.2681423275
 40
1.0
 40
1.0
 40
1.0
 40
1.0
 10
50.245029655
 20
291.7770741296
 30
0.0
 10
50.4331282352
 20
291.943940261
 30
0.0
 10
51.1360576483
 20
292.5645754898
 30
0.0
 10
51.8470945519
 20
293.1763422907
 30
0.0
 10
52.3782779483
 20
293.6108957129
 30
0.0
  0
SPLINE
  5
361
100
AcDbEntity
  8
0
100
AcDbSpline
 62
7
  6
CONTINUOUS
 70
0
 71
3
 72
10
 73
6
 74
0
 42
0.0000001
 43
0.0000001
 44
0.0000000001
 40
0.0
 40
0.0
 40
0.0
 40
0.0
 40
0.2891384383
 40
0.5510194664
 40
1.0
 40
1.0
 40
1.0
 40
1.0
 10
52.3452609923
 20
293.9753071133
 30
0.0
 10
53.026416199
 20
294.3927886922
 30
0.0
 10
54.2914954181
 20
295.2480162482
 30
0.0
 10
56.3931679367
 20
297.0405728744
 30
0.0
 10
57.6412119883
 20
298.6213491894
 30
0.0
 10
58.1797636158
 20
299.7389262386
 30
0.0
  0
SPLINE
  5
362
100
AcDbEntity
  8
0
100
AcDbSpline
 62
7
  6
CONTINUOUS
 70
0
 71
3
 72
14
 73
10
 74
0
 42
0.0000001
 43
0.0000001
 44
0.0000000001
 40
0.0
 40
0.0
 40
0.0
 40
0.0
 40
0.0742192855
 40
0.167423994
 40
0.2780705405
 40
0.4036188634
 40
0.5412464841
 40
0.6882026149
 40
1.0
 40
1.0
 40
1.0
 40
1.0
 10
58.218852776
 20
299.7360725541
 30
0.0
 10
58.0826664452
 20
299.1214168242
 30
0.0
 10
57.6533160185
 20
297.7629912333
 30
0.0
 10
56.7518541102
 20
295.5823569677
 30
0.0
 10
55.5372439778
 20
293.0645640849
 30
0.0
 10
54.0491522202
 20
290.2639748287
 30
0.0
 10
52.3281852106
 20
287.2400680598
 30
0.0
 10
49.7295950463
 20
282.8993812737
 30
0.0
 10
47.6440430874
 20
279.6134159303
 30
0.0
 10
46.2120367944
 20
277.3898219029
 30
0.0
  0
SPLINE
  5
363
100
AcDbEntity
  8
0
100
AcDbSpline
 62
7
  6
CONTINUOUS
 70
0
 71
3
 72
10
 73
6
 74
0
 42
0.0000001
 43
0.0000001
 44
0.0000000001
 40
0.0
 40
0.0
 40
0.0
 40
0.0
 40
0.5742082178
 40
0.8079040852
 40
1.0
 40
1.0
 40
1.0
 40
1.0
 10
53.564177825
 20
291.6768796266
 30
0.0
 10
54.5032418245
 20
293.1875281789
 30
0.0
 10
55.80247516
 20
295.3274784307
 30
0.0
 10
57.3146062041
 20
298.0313105208
 30
0.0
 10
57.921517264
 20
299.202925257
 30
0.0
 10
58.1798305194
 20
299.7389939276
 30
0.0
  0
SPLINE
  5
364
100
AcDbEntity
  8
0
100
AcDbSpline
 62
7
  6
CONTINUOUS
 70
0
 71
3
 72
18
 73
14
 74
0
 42
0.0000001
 43
0.0000001
 44
0.0000000001
 40
0.0
 40
0.0
 40
0.0
 40
0.0
 40
0.2864907221
 40
0.4239785769
 40
0.5566042184
 40
0.6829585925
 40
0.7430360466
 40
0.8003488882
 40
0.853961527
 40
0.9021538854
 40
0.9413440922
 40
0.9580351921
 40
1.0
 40
1.0
 40
1.0
 40
1.0
 10
58.2502921635
 20
299.8890772819
 30
0.0
 10
58.2740136599
 20
299.9409480492
 30
0.0
 10
58.3091684705
 20
300.0176906847
 30
0.0
 10
58.356112825
 20
300.118069873
 30
0.0
 10
58.390254788
 20
300.1892436893
 30
0.0
 10
58.4187250742
 20
300.2460200972
 30
0.0
 10
58.4416028509
 20
300.2888518491
 30
0.0
 10
58.4584741743
 20
300.3183415864
 30
0.0
 10
58.4752318469
 20
300.3455342361
 30
0.0
 10
58.4921668115
 20
300.367097549
 30
0.0
 10
58.5066821675
 20
300.3841882257
 30
0.0
 10
58.5286198083
 20
300.3837980638
 30
0.0
 10
58.5312271389
 20
300.3681558825
 30
0.0
 10
58.5326763547
 20
300.3599277375
 30
0.0
  0
SPLINE
  5
365
100
AcDbEntity
  8
0
100
AcDbSpline
 62
7
  6
CONTINUOUS
 70
0
 71
3
 72
14
 73
10
 74
0
 42
0.0000001
 43
0.0000001
 44
0.0000000001
 40
0.0
 40
0.0
 40
0.0
 40
0.0
 40
0.1485285456
 40
0.2936982917
 40
0.4339927761
 40
0.5675240244
 40
0.6927357147
 40
0.8079065636
 40
1.0
 40
1.0
 40
1.0
 40
1.0
 10
47.3694492758
 20
277.546861997
 30
0.0
 10
47.9765854686
 20
278.488847705
 30
0.0
 10
49.1503285625
 20
280.3687213056
 30
0.0
 10
50.8512474503
 20
283.1670176603
 30
0.0
 10
52.4419324052
 20
285.8993917704
 30
0.0
 10
53.909815337
 20
288.5283136241
 30
0.0
 10
55.2199562248
 20
291.0278793147
 30
0.0
 10
56.625872687
 20
293.9721461511
 30
0.0
 10
57.5097788386
 20
296.1225605126
 30
0.0
 10
57.9518917413
 20
297.5028879818
 30
0.0
  0
SPLINE
  5
366
100
AcDbEntity
  8
0
100
AcDbSpline
 62
7
  6
CONTINUOUS
 70
0
 71
3
 72
9
 73
5
 74
0
 42
0.0000001
 43
0.0000001
 44
0.0000000001
 40
0.0
 40
0.0
 40
0.0
 40
0.0
 40
0.2759842183
 40
1.0
 40
1.0
 40
1.0
 40
1.0
 10
57.9518917413
 20
297.5028879818
 30
0.0
 10
58.0095003874
 20
297.6874965676
 30
0.0
 10
58.2088137323
 20
298.3591697845
 30
0.0
 10
58.372113027
 20
299.0425541638
 30
0.0
 10
58.4550804781
 20
299.5430584674
 30
0.0
  0
SPLINE
  5
367
100
AcDbEntity
  8
0
100
AcDbSpline
 62
7
  6
CONTINUOUS
 70
0
 71
3
 72
9
 73
5
 74
0
 42
0.0000001
 43
0.0000001
 44
0.0000000001
 40
0.0
 40
0.0
 40
0.0
 40
0.0
 40
0.5096856486
 40
1.0
 40
1.0
 40
1.0
 40
1.0
 10
58.2502921635
 20
299.8890772819
 30
0.0
 10
58.5110796044
 20
300.4594271439
 30
0.0
 10
58.8943552573
 20
301.6454218845
 30
0.0
 10
58.9312087611
 20
302.8944393135
 30
0.0
 10
58.863624591
 20
303.4939500059
 30
0.0
  0
SPLINE
  5
368
100
AcDbEntity
  8
0
100
AcDbSpline
 62
7
  6
CONTINUOUS
 70
0
 71
3
 72
9
 73
5
 74
0
 42
0.0000001
 43
0.0000001
 44
0.0000000001
 40
0.0
 40
0.0
 40
0.0
 40
0.0
 40
0.2409935684
 40
1.0
 40
1.0
 40
1.0
 40
1.0
 10
58.1668436641
 20
305.9769564972
 30
0.0
 10
58.2644168133
 20
305.8495199364
 30
0.0
 10
58.650405468
 20
305.3063138874
 30
0.0
 10
58.9604878639
 20
304.7108968115
 30
0.0
 10
59.1570237939
 20
304.2451714484
 30
0.0
  0
SPLINE
  5
369
100
AcDbEntity
  8
0
100
AcDbSpline
 62
7
  6
CONTINUOUS
 70
0
 71
3
 72
13
 73
9
 74
0
 42
0.0000001
 43
0.0000001
 44
0.0000000001
 40
0.0
 40
0.0
 40
0.0
 40
0.0
 40
0.1923527533
 40
0.305144923
 40
0.4282623311
 40
0.5606539689
 40
0.70098166
 40
1.0
 40
1.0
 40
1.0
 40
1.0
 10
59.1570237939
 20
304.2451714484
 30
0.0
 10
59.7066854353
 20
302.9426545622
 30
0.0
 10
60.1207901142
 20
300.6863492772
 30
0.0
 10
60.1550782637
 20
297.5414699661
 30
0.0
 10
59.9243517228
 20
294.8390241234
 30
0.0
 10
59.4534985759
 20
291.9662792339
 30
0.0
 10
58.5131810036
 20
287.8683882089
 30
0.0
 10
57.5409181945
 20
284.783260192
 30
0.0
 10
56.8100983268
 20
282.7106188881
 30
0.0
  0
SPLINE
  5
36A
100
AcDbEntity
  8
0
100
AcDbSpline
 62
7
  6
CONTINUOUS
 70
0
 71
3
 72
9
 73
5
 74
0
 42
0.0000001
 43
0.0000001
 44
0.0000000001
 40
0.0
 40
0.0
 40
0.0
 40
0.0
 40
0.5149137619
 40
1.0
 40
1.0
 40
1.0
 40
1.0
 10
56.6594408081
 20
282.7522781867
 30
0.0
 10
57.1166376893
 20
284.3035658882
 30
0.0
 10
57.914805462
 20
287.3438021733
 30
0.0
 10
58.4771299298
 20
290.4389009646
 30
0.0
 10
58.6711880303
 20
291.9500662823
 30
0.0
  0
SPLINE
  5
36B
100
AcDbEntity
  8
0
100
AcDbSpline
 62
7
  6
CONTINUOUS
 70
0
 71
3
 72
9
 73
5
 74
0
 42
0.0000001
 43
0.0000001
 44
0.0000000001
 40
0.0
 40
0.0
 40
0.0
 40
0.0
 40
0.5185048395
 40
1.0
 40
1.0
 40
1.0
 40
1.0
 10
58.6711880303
 20
291.9500662823
 30
0.0
 10
58.7989161696
 20
292.9447082675
 30
0.0
 10
58.979309422
 20
294.8723498
 30
0.0
 10
58.9911234517
 20
296.8100741301
 30
0.0
 10
58.9436472212
 20
297.7400945151
 30
0.0
  0
SPLINE
  5
36C
100
AcDbEntity
  8
0
100
AcDbSpline
 62
7
  6
CONTINUOUS
 70
0
 71
3
 72
9
 73
5
 74
0
 42
0.0000001
 43
0.0000001
 44
0.0000000001
 40
0.0
 40
0.0
 40
0.0
 40
0.0
 40
0.5363596125
 40
1.0
 40
1.0
 40
1.0
 40
1.0
 10
58.9436472212
 20
297.7400945151
 30
0.0
 10
59.0542792479
 20
298.7655665337
 30
0.0
 10
59.1731621221
 20
300.6886104186
 30
0.0
 10
59.0342267213
 20
302.6170790145
 30
0.0
 10
58.8782008388
 20
303.4949036951
 30
0.0
  0
SPLINE
  5
36D
100
AcDbEntity
  8
0
100
AcDbSpline
 62
7
  6
CONTINUOUS
 70
0
 71
3
 72
9
 73
5
 74
0
 42
0.0000001
 43
0.0000001
 44
0.0000000001
 40
0.0
 40
0.0
 40
0.0
 40
0.0
 40
0.2605735268
 40
1.0
 40
1.0
 40
1.0
 40
1.0
 10
-23.179032213
 20
305.8088332377
 30
0.0
 10
-23.1640280454
 20
305.8765467599
 30
0.0
 10
-23.1017802715
 20
306.1353272846
 30
0.0
 10
-23.0201331149
 20
306.3896475159
 30
0.0
 10
-22.9471166846
 20
306.5724123639
 30
0.0
  0
SPLINE
  5
36E
100
AcDbEntity
  8
0
100
AcDbSpline
 62
7
  6
CONTINUOUS
 70
0
 71
3
 72
9
 73
5
 74
0
 42
0.0000001
 43
0.0000001
 44
0.0000000001
 40
0.0
 40
0.0
 40
0.0
 40
0.0
 40
0.2606234896
 40
1.0
 40
1.0
 40
1.0
 40
1.0
 10
-22.828639239
 20
306.840524956
 30
0.0
 10
-22.7941963958
 20
306.9111933886
 30
0.0
 10
-22.6536994838
 20
307.1781091476
 30
0.0
 10
-22.4774679271
 20
307.4269102308
 30
0.0
 10
-22.3276250004
 20
307.5921019547
 30
0.0
  0
SPLINE
  5
36F
100
AcDbEntity
  8
0
100
AcDbSpline
 62
7
  6
CONTINUOUS
 70
0
 71
3
 72
10
 73
6
 74
0
 42
0.0000001
 43
0.0000001
 44
0.0000000001
 40
0.0
 40
0.0
 40
0.0
 40
0.0
 40
0.5156687372
 40
0.7478329531
 40
1.0
 40
1.0
 40
1.0
 40
1.0
 10
-23.1793284706
 20
305.8087469557
 30
0.0
 10
-23.2295520133
 20
305.8062622654
 30
0.0
 10
-23.304032289
 20
305.788101515
 30
0.0
 10
-23.3817204128
 20
305.7256709918
 30
0.0
 10
-23.4021509154
 20
305.6812092305
 30
0.0
 10
-23.4091233269
 20
305.6576286092
 30
0.0
  0
SPLINE
  5
370
100
AcDbEntity
  8
0
100
AcDbSpline
 62
7
  6
CONTINUOUS
 70
0
 71
3
 72
12
 73
8
 74
0
 42
0.0000001
 43
0.0000001
 44
0.0000000001
 40
0.0
 40
0.0
 40
0.0
 40
0.0
 40
0.1425791068
 40
0.2817613433
 40
0.546246161
 40
0.7869277158
 40
1.0
 40
1.0
 40
1.0
 40
1.0
 10
57.7266765758
 20
283.0299847389
 30
0.0
 10
58.006651937
 20
283.8447865436
 30
0.0
 10
58.5274077209
 20
285.4663797707
 30
0.0
 10
59.4197066031
 20
288.6446738504
 30
0.0
 10
60.2451782507
 20
292.456208342
 30
0.0
 10
60.708369821
 20
296.7807539865
 30
0.0
 10
60.588238831
 20
299.5385991359
 30
0.0
 10
60.3878125346
 20
300.8104335249
 30
0.0
  0
SPLINE
  5
371
100
AcDbEntity
  8
0
100
AcDbSpline
 62
7
  6
CONTINUOUS
 70
0
 71
3
 72
11
 73
7
 74
0
 42
0.0000001
 43
0.0000001
 44
0.0000000001
 40
0.0
 40
0.0
 40
0.0
 40
0.0
 40
0.26044377
 40
0.5143998446
 40
0.7609502615
 40
1.0
 40
1.0
 40
1.0
 40
1.0
 10
61.4494038154
 20
289.6831535153
 30
0.0
 10
61.4903424672
 20
290.6179742411
 30
0.0
 10
61.5173520369
 20
292.4674948466
 30
0.0
 10
61.3686469076
 20
295.1991958556
 30
0.0
 10
61.052098018
 20
297.8399114479
 30
0.0
 10
60.6838181881
 20
299.548567772
 30
0.0
 10
60.4628633072
 20
300.3785116857
 30
0.0
  0
SPLINE
  5
372
100
AcDbEntity
  8
0
100
AcDbSpline
 62
7
  6
CONTINUOUS
 70
0
 71
3
 72
15
 73
11
 74
0
 42
0.0000001
 43
0.0000001
 44
0.0000000001
 40
0.0
 40
0.0
 40
0.0
 40
0.0
 40
0.2366273055
 40
0.4423211225
 40
0.6164105127
 40
0.758227208
 40
0.8671343017
 40
0.9430938544
 40
0.9867693833
 40
1.0
 40
1.0
 40
1.0
 40
1.0
 10
-23.0340995645
 20
299.4493788698
 30
0.0
 10
-23.2047249439
 20
299.6620772602
 30
0.0
 10
-23.5222331563
 20
300.0606141404
 30
0.0
 10
-23.960447026
 20
300.6204696502
 30
0.0
 10
-24.3256392291
 20
301.0956204214
 30
0.0
 10
-24.6209171583
 20
301.4922923165
 30
0.0
 10
-24.8360494625
 20
301.7858760713
 30
0.0
 10
-24.9956170744
 20
302.0292581651
 30
0.0
 10
-25.0561252005
 20
302.1175182189
 30
0.0
 10
-25.1006483439
 20
302.2196621637
 30
0.0
 10
-25.0854755636
 20
302.2211582835
 30
0.0
  0
SPLINE
  5
373
100
AcDbEntity
  8
0
100
AcDbSpline
 62
7
  6
CONTINUOUS
 70
0
 71
3
 72
11
 73
7
 74
0
 42
0.0000001
 43
0.0000001
 44
0.0000000001
 40
0.0
 40
0.0
 40
0.0
 40
0.0
 40
0.2445249861
 40
0.4997395867
 40
0.7464261072
 40
1.0
 40
1.0
 40
1.0
 40
1.0
 10
-23.0342892578
 20
299.4492542935
 30
0.0
 10
-23.060696127
 20
299.4433400382
 30
0.0
 10
-23.1131307454
 20
299.4240125064
 30
0.0
 10
-23.18423135
 20
299.3816175757
 30
0.0
 10
-23.2450748646
 20
299.3207191313
 30
0.0
 10
-23.2588703354
 20
299.2640770416
 30
0.0
 10
-23.2600597008
 20
299.2360397703
 30
0.0
  0
SPLINE
  5
374
100
AcDbEntity
  8
0
100
AcDbSpline
 62
7
  6
CONTINUOUS
 70
0
 71
3
 72
14
 73
10
 74
0
 42
0.0000001
 43
0.0000001
 44
0.0000000001
 40
0.0
 40
0.0
 40
0.0
 40
0.0
 40
0.2163439631
 40
0.4436836724
 40
0.5630748979
 40
0.6883209438
 40
0.8239855826
 40
0.9006980206
 40
1.0
 40
1.0
 40
1.0
 40
1.0
 10
-22.9144697514
 20
299.3035142874
 30
0.0
 10
-22.8846265014
 20
299.249653404
 30
0.0
 10
-22.823693764
 20
299.1390394232
 30
0.0
 10
-22.7481152672
 20
298.9977227927
 30
0.0
 10
-22.6872631405
 20
298.8779105514
 30
0.0
 10
-22.6407355253
 20
298.7802992938
 30
0.0
 10
-22.6025292852
 20
298.6916132588
 30
0.0
 10
-22.5750754196
 20
298.608110608
 30
0.0
 10
-22.5625415957
 20
298.5571004658
 30
0.0
 10
-22.5674062738
 20
298.5292588132
 30
0.0
  0
SPLINE
  5
375
100
AcDbEntity
  8
0
100
AcDbSpline
 62
7
  6
CONTINUOUS
 70
0
 71
3
 72
9
 73
5
 74
0
 42
0.0000001
 43
0.0000001
 44
0.0000000001
 40
0.0
 40
0.0
 40
0.0
 40
0.0
 40
0.2154190323
 40
1.0
 40
1.0
 40
1.0
 40
1.0
 10
-24.4635299602
 20
300.5718924171
 30
0.0
 10
-24.3765176523
 20
300.4765085407
 30
0.0
 10
-23.972369383
 20
300.03393614
 30
0.0
 10
-23.571282437
 20
299.5885397465
 30
0.0
 10
-23.2600561582
 20
299.2360407346
 30
0.0
  0
SPLINE
  5
376
100
AcDbEntity
  8
0
100
AcDbSpline
 62
7
  6
CONTINUOUS
 70
0
 71
3
 72
9
 73
5
 74
0
 42
0.0000001
 43
0.0000001
 44
0.0000000001
 40
0.0
 40
0.0
 40
0.0
 40
0.0
 40
0.244401665
 40
1.0
 40
1.0
 40
1.0
 40
1.0
 10
-23.2600594379
 20
299.2360490037
 30
0.0
 10
-23.20615452
 20
299.1760818119
 30
0.0
 10
-22.9828522437
 20
298.9331921758
 30
0.0
 10
-22.7489614532
 20
298.70009076
 30
0.0
 10
-22.567403472
 20
298.5292636706
 30
0.0
  0
SPLINE
  5
377
100
AcDbEntity
  8
0
100
AcDbSpline
 62
7
  6
CONTINUOUS
 70
0
 71
3
 72
11
 73
7
 74
0
 42
0.0000001
 43
0.0000001
 44
0.0000000001
 40
0.0
 40
0.0
 40
0.0
 40
0.0
 40
0.1735536066
 40
0.3961668771
 40
0.6717347069
 40
1.0
 40
1.0
 40
1.0
 40
1.0
 10
-22.9769111879
 20
295.9065223356
 30
0.0
 10
-22.5856766678
 20
295.924855427
 30
0.0
 10
-21.6873776294
 20
295.8186884579
 30
0.0
 10
-20.234619487
 20
295.3742934977
 30
0.0
 10
-18.5234507669
 20
294.6239583968
 30
0.0
 10
-17.3238487419
 20
293.9751367634
 30
0.0
 10
-16.682354396
 20
293.6046245785
 30
0.0
  0
SPLINE
  5
378
100
AcDbEntity
  8
0
100
AcDbSpline
 62
7
  6
CONTINUOUS
 70
0
 71
3
 72
11
 73
7
 74
0
 42
0.0000001
 43
0.0000001
 44
0.0000000001
 40
0.0
 40
0.0
 40
0.0
 40
0.0
 40
0.3158546291
 40
0.588331898
 40
0.8157034608
 40
1.0
 40
1.0
 40
1.0
 40
1.0
 10
-16.7151919288
 20
293.5958345486
 30
0.0
 10
-17.4225229086
 20
293.927299932
 30
0.0
 10
-18.7564821966
 20
294.5108099134
 30
0.0
 10
-20.6610042769
 20
295.1841766797
 30
0.0
 10
-22.3089335706
 20
295.5815631099
 30
0.0
 10
-23.3309647508
 20
295.6691255107
 30
0.0
 10
-23.786364958
 20
295.6503707924
 30
0.0
  0
SPLINE
  5
379
100
AcDbEntity
  8
0
100
AcDbSpline
 62
7
  6
CONTINUOUS
 70
0
 71
3
 72
9
 73
5
 74
0
 42
0.0000001
 43
0.0000001
 44
0.0000000001
 40
0.0
 40
0.0
 40
0.0
 40
0.0
 40
0.2644651743
 40
1.0
 40
1.0
 40
1.0
 40
1.0
 10
-23.786364958
 20
295.6503707924
 30
0.0
 10
-23.8543171321
 20
295.6475723223
 30
0.0
 10
-24.1109765297
 20
295.6319159487
 30
0.0
 10
-24.3666971734
 20
295.5948849576
 30
0.0
 10
-24.5509539949
 20
295.5521403329
 30
0.0
  0
SPLINE
  5
37A
100
AcDbEntity
  8
0
100
AcDbSpline
 62
7
  6
CONTINUOUS
 70
0
 71
3
 72
12
 73
8
 74
0
 42
0.0000001
 43
0.0000001
 44
0.0000000001
 40
0.0
 40
0.0
 40
0.0
 40
0.0
 40
0.2142693812
 40
0.4049690486
 40
0.6042698593
 40
0.8012160056
 40
1.0
 40
1.0
 40
1.0
 40
1.0
 10
-16.7152414064
 20
293.595693404
 30
0.0
 10
-16.7357540264
 20
293.5853206139
 30
0.0
 10
-16.7718571664
 20
293.560575197
 30
0.0
 10
-16.8211567376
 20
293.5185401908
 30
0.0
 10
-16.865333201
 20
293.4732551611
 30
0.0
 10
-16.8960301477
 20
293.4155404315
 30
0.0
 10
-16.8985561461
 20
293.3718474039
 30
0.0
 10
-16.896486305
 20
293.350623182
 30
0.0
  0
SPLINE
  5
37B
100
AcDbEntity
  8
0
100
AcDbSpline
 62
7
  6
CONTINUOUS
 70
0
 71
3
 72
16
 73
12
 74
0
 42
0.0000001
 43
0.0000001
 44
0.0000000001
 40
0.0
 40
0.0
 40
0.0
 40
0.0
 40
0.2350426487
 40
0.4754199443
 40
0.5982084072
 40
0.7235096023
 40
0.7875672857
 40
0.8531628622
 40
0.9216818504
 40
0.9585912838
 40
1.0
 40
1.0
 40
1.0
 40
1.0
 10
-16.4624584644
 20
293.4788879467
 30
0.0
 10
-16.3834390067
 20
293.4341458618
 30
0.0
 10
-16.2243508576
 20
293.342325507
 30
0.0
 10
-16.0269302407
 20
293.2220809238
 30
0.0
 10
-15.8689101121
 20
293.1188700658
 30
0.0
 10
-15.7700775659
 20
293.0497347305
 30
0.0
 10
-15.6917673905
 20
292.9898657109
 30
0.0
 10
-15.6331292434
 20
292.940858494
 30
0.0
 10
-15.5851974865
 20
292.8943806566
 30
0.0
 10
-15.550933528
 20
292.8503996433
 30
0.0
 10
-15.5367454881
 20
292.8201240047
 30
0.0
 10
-15.5390174391
 20
292.8042881817
 30
0.0
  0
SPLINE
  5
37C
100
AcDbEntity
  8
0
100
AcDbSpline
 62
7
  6
CONTINUOUS
 70
0
 71
3
 72
9
 73
5
 74
0
 42
0.0000001
 43
0.0000001
 44
0.0000000001
 40
0.0
 40
0.0
 40
0.0
 40
0.0
 40
0.2339420433
 40
1.0
 40
1.0
 40
1.0
 40
1.0
 10
-19.6233910951
 20
294.3788510269
 30
0.0
 10
-19.4067842378
 20
294.3099041
 30
0.0
 10
-18.4846999277
 20
294.003279034
 30
0.0
 10
-17.5791943475
 20
293.6472360509
 30
0.0
 10
-16.8964859602
 20
293.3506250255
 30
0.0
  0
SPLINE
  5
37D
100
AcDbEntity
  8
0
100
AcDbSpline
 62
7
  6
CONTINUOUS
 70
0
 71
3
 72
11
 73
7
 74
0
 42
0.0000001
 43
0.0000001
 44
0.0000000001
 40
0.0
 40
0.0
 40
0.0
 40
0.0
 40
0.2582268991
 40
0.517196889
 40
0.7749450558
 40
1.0
 40
1.0
 40
1.0
 40
1.0
 10
58.2191411662
 20
299.7361583495
 30
0.0
 10
58.2473176914
 20
299.7374959819
 30
0.0
 10
58.3051668613
 20
299.7289065066
 30
0.0
 10
58.3778354023
 20
299.6810810231
 30
0.0
 10
58.426891547
 20
299.6155811235
 30
0.0
 10
58.4493839574
 20
299.5669741595
 30
0.0
 10
58.4550853947
 20
299.5430597969
 30
0.0
  0
SPLINE
  5
37E
100
AcDbEntity
  8
0
100
AcDbSpline
 62
7
  6
CONTINUOUS
 70
0
 71
3
 72
11
 73
7
 74
0
 42
0.0000001
 43
0.0000001
 44
0.0000000001
 40
0.0
 40
0.0
 40
0.0
 40
0.0
 40
0.2504914022
 40
0.5007977645
 40
0.7588660666
 40
1.0
 40
1.0
 40
1.0
 40
1.0
 10
52.1680991039
 20
293.8389173633
 30
0.0
 10
52.1952867896
 20
293.8359252271
 30
0.0
 10
52.2494410569
 20
293.8187451103
 30
0.0
 10
52.3106936317
 20
293.7592596602
 30
0.0
 10
52.3468091775
 20
293.6852865039
 30
0.0
 10
52.3692505995
 20
293.635628587
 30
0.0
 10
52.3782830281
 20
293.6108962613
 30
0.0
  0
SPLINE
  5
37F
100
AcDbEntity
  8
0
100
AcDbSpline
 62
7
  6
CONTINUOUS
 70
0
 71
3
 72
11
 73
7
 74
0
 42
0.0000001
 43
0.0000001
 44
0.0000000001
 40
0.0
 40
0.0
 40
0.0
 40
0.0
 40
0.2270524408
 40
0.4680851817
 40
0.7341665361
 40
1.0
 40
1.0
 40
1.0
 40
1.0
 10
40.8424991768
 20
289.3018205432
 30
0.0
 10
40.8649089259
 20
289.2948368191
 30
0.0
 10
40.9084950034
 20
289.2684391678
 30
0.0
 10
40.946511124
 20
289.2001296214
 30
0.0
 10
40.9638467438
 20
289.1220438012
 30
0.0
 10
40.9839338865
 20
289.0706439403
 30
0.0
 10
40.9946049007
 20
289.0453183468
 30
0.0
  0
SPLINE
  5
380
100
AcDbEntity
  8
0
100
AcDbSpline
 62
7
  6
CONTINUOUS
 70
0
 71
3
 72
9
 73
5
 74
0
 42
0.0000001
 43
0.0000001
 44
0.0000000001
 40
0.0
 40
0.0
 40
0.0
 40
0.0
 40
0.2536275242
 40
1.0
 40
1.0
 40
1.0
 40
1.0
 10
21.9657049495
 20
279.9620775048
 30
0.0
 10
21.2703618511
 20
279.4413626292
 30
0.0
 10
18.5592972871
 20
277.3479413701
 30
0.0
 10
15.968082791
 20
275.0985288654
 30
0.0
 10
14.1178778465
 20
273.3344470309
 30
0.0
  0
SPLINE
  5
381
100
AcDbEntity
  8
0
100
AcDbSpline
 62
7
  6
CONTINUOUS
 70
0
 71
3
 72
18
 73
14
 74
0
 42
0.0000001
 43
0.0000001
 44
0.0000000001
 40
0.0
 40
0.0
 40
0.0
 40
0.0
 40
0.112268432
 40
0.2293177956
 40
0.289579102
 40
0.3509204204
 40
0.4132725763
 40
0.4765656587
 40
0.5406899937
 40
0.605509429
 40
0.7365957285
 40
0.868606995
 40
1.0
 40
1.0
 40
1.0
 40
1.0
 10
-1.5472055389
 20
274.7120263601
 30
0.0
 10
-0.782249168
 20
275.3163957012
 30
0.0
 10
0.8016276341
 20
276.5248993321
 30
0.0
 10
2.89463693
 20
277.9219218447
 30
0.0
 10
4.6663723583
 20
278.9972460451
 30
0.0
 10
6.053802288
 20
279.7893517069
 30
0.0
 10
7.4881792095
 20
280.5508830417
 30
0.0
 10
8.967849208
 20
281.2767767902
 30
0.0
 10
10.4862052492
 20
281.9708839384
 30
0.0
 10
12.5609961865
 20
282.8621753283
 30
0.0
 10
15.2209248684
 20
283.8835250944
 30
0.0
 10
18.4876718863
 20
284.919448756
 30
0.0
 10
20.7025099219
 20
285.4977274484
 30
0.0
 10
21.8167772441
 20
285.7431057561
 30
0.0
  0
SPLINE
  5
382
100
AcDbEntity
  8
0
100
AcDbSpline
 62
7
  6
CONTINUOUS
 70
0
 71
3
 72
9
 73
5
 74
0
 42
0.0000001
 43
0.0000001
 44
0.0000000001
 40
0.0
 40
0.0
 40
0.0
 40
0.0
 40
0.2529039941
 40
1.0
 40
1.0
 40
1.0
 40
1.0
 10
21.8167772441
 20
285.7431057561
 30
0.0
 10
22.1697222145
 20
285.8242115158
 30
0.0
 10
23.5679342558
 20
286.1330711426
 30
0.0
 10
24.9781891517
 20
286.389228833
 30
0.0
 10
26.0371104738
 20
286.5413959298
 30
0.0
  0
SPLINE
  5
383
100
AcDbEntity
  8
0
100
AcDbSpline
 62
7
  6
CONTINUOUS
 70
0
 71
3
 72
17
 73
13
 74
0
 42
0.0000001
 43
0.0000001
 44
0.0000000001
 40
0.0
 40
0.0
 40
0.0
 40
0.0
 40
0.2522880193
 40
0.3781325668
 40
0.5037425308
 40
0.6290736817
 40
0.7540422362
 40
0.816342274
 40
0.878450993
 40
0.9402071112
 40
0.9708189485
 40
1.0
 40
1.0
 40
1.0
 40
1.0
 10
26.3360160225
 20
286.8624788775
 30
0.0
 10
26.4698083011
 20
286.8739539923
 30
0.0
 10
26.6704691897
 20
286.8897173181
 30
0.0
 10
26.9380722238
 20
286.9065268091
 30
0.0
 10
27.1383807447
 20
286.916395134
 30
0.0
 10
27.3384067797
 20
286.9225170139
 30
0.0
 10
27.5047532513
 20
286.9231473105
 30
0.0
 10
27.6376003136
 20
286.9185280141
 30
0.0
 10
27.7359459611
 20
286.9115794099
 30
0.0
 10
27.8190430568
 20
286.8988582721
 30
0.0
 10
27.8784035203
 20
286.8828032706
 30
0.0
 10
27.9115473045
 20
286.8604404873
 30
0.0
 10
27.9120991664
 20
286.8449183122
 30
0.0
  0
SPLINE
  5
384
100
AcDbEntity
  8
0
100
AcDbSpline
 62
7
  6
CONTINUOUS
 70
0
 71
3
 72
11
 73
7
 74
0
 42
0.0000001
 43
0.0000001
 44
0.0000000001
 40
0.0
 40
0.0
 40
0.0
 40
0.0
 40
0.1903958242
 40
0.4283883406
 40
0.70898439
 40
1.0
 40
1.0
 40
1.0
 40
1.0
 10
25.9663089354
 20
286.815394098
 30
0.0
 10
25.9812683957
 20
286.8047611471
 30
0.0
 10
26.0061940905
 20
286.7684130712
 30
0.0
 10
26.0139400365
 20
286.6995021237
 30
0.0
 10
26.0107804379
 20
286.6213368616
 30
0.0
 10
26.02650955
 20
286.5673660366
 30
0.0
 10
26.0371149662
 20
286.5413953486
 30
0.0
  0
SPLINE
  5
385
100
AcDbEntity
  8
0
100
AcDbSpline
 62
7
  6
CONTINUOUS
 70
0
 71
3
 72
11
 73
7
 74
0
 42
0.0000001
 43
0.0000001
 44
0.0000000001
 40
0.0
 40
0.0
 40
0.0
 40
0.0
 40
0.2598010645
 40
0.5216638478
 40
0.7710758681
 40
1.0
 40
1.0
 40
1.0
 40
1.0
 10
25.9664416287
 20
286.8155368405
 30
0.0
 10
23.2999641967
 20
286.4843876785
 30
0.0
 10
17.9877808164
 20
285.4317943244
 30
0.0
 10
10.420679764
 20
282.8422372796
 30
0.0
 10
3.5544897063
 20
279.4066621232
 30
0.0
 10
-0.5328336163
 20
276.5797521457
 30
0.0
 10
-2.3588546933
 20
275.0726776393
 30
0.0
  0
SPLINE
  5
386
100
AcDbEntity
  8
0
100
AcDbSpline
 62
7
  6
CONTINUOUS
 70
0
 71
3
 72
9
 73
5
 74
0
 42
0.0000001
 43
0.0000001
 44
0.0000000001
 40
0.0
 40
0.0
 40
0.0
 40
0.0
 40
0.2393122665
 40
1.0
 40
1.0
 40
1.0
 40
1.0
 10
-2.3936343367
 20
275.1383833622
 30
0.0
 10
-1.8277781311
 20
275.6323610579
 30
0.0
 10
0.5918688617
 20
277.6329475431
 30
0.0
 10
3.2166309228
 20
279.3815663502
 30
0.0
 10
5.286549331
 20
280.5715455526
 30
0.0
  0
SPLINE
  5
387
100
AcDbEntity
  8
0
100
AcDbSpline
 62
7
  6
CONTINUOUS
 70
0
 71
3
 72
9
 73
5
 74
0
 42
0.0000001
 43
0.0000001
 44
0.0000000001
 40
0.0
 40
0.0
 40
0.0
 40
0.0
 40
0.4988413592
 40
1.0
 40
1.0
 40
1.0
 40
1.0
 10
11.7023734459
 20
283.729888854
 30
0.0
 10
13.9917090357
 20
284.5477555205
 30
0.0
 10
18.6902597778
 20
285.8949310699
 30
0.0
 10
23.5242161772
 20
286.6313499492
 30
0.0
 10
25.9583928577
 20
286.8308046563
 30
0.0
  0
SPLINE
  5
388
100
AcDbEntity
  8
0
100
AcDbSpline
 62
7
  6
CONTINUOUS
 70
0
 71
3
 72
17
 73
13
 74
0
 42
0.0000001
 43
0.0000001
 44
0.0000000001
 40
0.0
 40
0.0
 40
0.0
 40
0.0
 40
0.1013882181
 40
0.2091243359
 40
0.3237885959
 40
0.383843676
 40
0.4457432819
 40
0.5094791281
 40
0.5749986939
 40
0.7110169469
 40
0.8530959207
 40
1.0
 40
1.0
 40
1.0
 40
1.0
 10
-15.4822709106
 20
278.7873533883
 30
0.0
 10
-14.9078475753
 20
279.2920199537
 30
0.0
 10
-13.6834595797
 20
280.2903009134
 30
0.0
 10
-11.6346708877
 20
281.6265149464
 30
0.0
 10
-9.7480466224
 20
282.6220487476
 30
0.0
 10
-8.1170718332
 20
283.3474739871
 30
0.0
 10
-6.8114528561
 20
283.8552526052
 30
0.0
 10
-5.4477590776
 20
284.323733414
 30
0.0
 10
-3.5344467412
 20
284.9091647464
 30
0.0
 10
-1.0156793145
 20
285.5302810723
 30
0.0
 10
2.1476398947
 20
286.06008819
 30
0.0
 10
4.3175651986
 20
286.2850762327
 30
0.0
 10
5.4233305837
 20
286.3535688274
 30
0.0
  0
SPLINE
  5
389
100
AcDbEntity
  8
0
100
AcDbSpline
 62
7
  6
CONTINUOUS
 70
0
 71
3
 72
9
 73
5
 74
0
 42
0.0000001
 43
0.0000001
 44
0.0000000001
 40
0.0
 40
0.0
 40
0.0
 40
0.0
 40
0.2480612896
 40
1.0
 40
1.0
 40
1.0
 40
1.0
 10
5.4233305837
 20
286.3535688274
 30
0.0
 10
5.783115932
 20
286.3792272441
 30
0.0
 10
7.2344274732
 20
286.4688190853
 30
0.0
 10
8.6897231741
 20
286.4979725701
 30
0.0
 10
9.7829542386
 20
286.480327975
 30
0.0
  0
SPLINE
  5
38A
100
AcDbEntity
  8
0
100
AcDbSpline
 62
7
  6
CONTINUOUS
 70
0
 71
3
 72
17
 73
13
 74
0
 42
0.0000001
 43
0.0000001
 44
0.0000000001
 40
0.0
 40
0.0
 40
0.0
 40
0.0
 40
0.2493231155
 40
0.3741998447
 40
0.499225811
 40
0.6244124103
 40
0.7497825366
 40
0.8125563378
 40
0.8754043142
 40
0.9383366492
 40
0.9698426559
 40
1.0
 40
1.0
 40
1.0
 40
1.0
 10
10.1913626733
 20
286.7460496716
 30
0.0
 10
10.3264818336
 20
286.7364803601
 30
0.0
 10
10.529182274
 20
286.7206664495
 30
0.0
 10
10.7992396723
 20
286.69539504
 30
0.0
 10
11.0018719574
 20
286.6737183889
 30
0.0
 10
11.2043794138
 20
286.6483293164
 30
0.0
 10
11.3726346544
 20
286.6227455077
 30
0.0
 10
11.5068014427
 20
286.597268327
 30
0.0
 10
11.6061909655
 20
286.5747115207
 30
0.0
 10
11.6897439074
 20
286.5492171207
 30
0.0
 10
11.748664568
 20
286.5233053488
 30
0.0
 10
11.7807910674
 20
286.497150281
 30
0.0
 10
11.7802902762
 20
286.4807734095
 30
0.0
  0
SPLINE
  5
38B
100
AcDbEntity
  8
0
100
AcDbSpline
 62
7
  6
CONTINUOUS
 70
0
 71
3
 72
11
 73
7
 74
0
 42
0.0000001
 43
0.0000001
 44
0.0000000001
 40
0.0
 40
0.0
 40
0.0
 40
0.0
 40
0.1651716973
 40
0.4103172214
 40
0.7001692322
 40
1.0
 40
1.0
 40
1.0
 40
1.0
 10
9.803334189
 20
286.7582547151
 30
0.0
 10
9.80797049
 20
286.7433974578
 30
0.0
 10
9.8061640273
 20
286.7032374149
 30
0.0
 10
9.7883377582
 20
286.6403131444
 30
0.0
 10
9.7643863969
 20
286.5641007297
 30
0.0
 10
9.773935795
 20
286.5071003192
 30
0.0
 10
9.7829572267
 20
286.4803268246
 30
0.0
  0
SPLINE
  5
38C
100
AcDbEntity
  8
0
100
AcDbSpline
 62
7
  6
CONTINUOUS
 70
0
 71
3
 72
12
 73
8
 74
0
 42
0.0000001
 43
0.0000001
 44
0.0000000001
 40
0.0
 40
0.0
 40
0.0
 40
0.0
 40
0.1478897812
 40
0.2920000669
 40
0.4302263374
 40
0.5611698294
 40
1.0
 40
1.0
 40
1.0
 40
1.0
 10
9.8031146582
 20
286.7583714334
 30
0.0
 10
8.4604477398
 20
286.8044097705
 30
0.0
 10
5.8049421288
 20
286.8016810397
 30
0.0
 10
1.904913024
 20
286.5092471625
 30
0.0
 10
-1.8114935673
 20
285.922030377
 30
0.0
 10
-8.0403074811
 20
284.3799136295
 30
0.0
 10
-12.9234371507
 20
282.00817751
 30
0.0
 10
-15.8354988488
 20
279.2857987583
 30
0.0
  0
SPLINE
  5
38D
100
AcDbEntity
  8
0
100
AcDbSpline
 62
7
  6
CONTINUOUS
 70
0
 71
3
 72
9
 73
5
 74
0
 42
0.0000001
 43
0.0000001
 44
0.0000000001
 40
0.0
 40
0.0
 40
0.0
 40
0.0
 40
0.2347422205
 40
1.0
 40
1.0
 40
1.0
 40
1.0
 10
-15.8496053114
 20
279.3087084445
 30
0.0
 10
-15.4170060379
 20
279.7261228044
 30
0.0
 10
-13.4959676308
 20
281.4230134045
 30
0.0
 10
-11.2898969422
 20
282.7836885941
 30
0.0
 10
-9.5301527401
 20
283.6461563347
 30
0.0
  0
SPLINE
  5
38E
100
AcDbEntity
  8
0
100
AcDbSpline
 62
7
  6
CONTINUOUS
 70
0
 71
3
 72
9
 73
5
 74
0
 42
0.0000001
 43
0.0000001
 44
0.0000000001
 40
0.0
 40
0.0
 40
0.0
 40
0.0
 40
0.2395239412
 40
1.0
 40
1.0
 40
1.0
 40
1.0
 10
-9.5301527401
 20
283.6461563347
 30
0.0
 10
-9.0835097634
 20
283.8650603996
 30
0.0
 10
-7.1962483252
 20
284.7326809734
 30
0.0
 10
-5.2268573615
 20
285.4177404643
 30
0.0
 10
-3.7069731031
 20
285.846584119
 30
0.0
  0
SPLINE
  5
38F
100
AcDbEntity
  8
0
100
AcDbSpline
 62
7
  6
CONTINUOUS
 70
0
 71
3
 72
9
 73
5
 74
0
 42
0.0000001
 43
0.0000001
 44
0.0000000001
 40
0.0
 40
0.0
 40
0.0
 40
0.0
 40
0.4798685868
 40
1.0
 40
1.0
 40
1.0
 40
1.0
 10
-3.7069731031
 20
285.846584119
 30
0.0
 10
-1.5909565963
 20
286.3431403129
 30
0.0
 10
2.9153314408
 20
286.9847040297
 30
0.0
 10
7.4612030265
 20
286.9489661171
 30
0.0
 10
9.8105392272
 20
286.7737242947
 30
0.0
  0
SPLINE
  5
390
100
AcDbEntity
  8
0
100
AcDbSpline
 62
7
  6
CONTINUOUS
 70
0
 71
3
 72
9
 73
5
 74
0
 42
0.0000001
 43
0.0000001
 44
0.0000000001
 40
0.0
 40
0.0
 40
0.0
 40
0.0
 40
0.4809540876
 40
1.0
 40
1.0
 40
1.0
 40
1.0
 10
-24.2687831692
 20
284.8341016006
 30
0.0
 10
-23.8816934605
 20
285.3916519161
 30
0.0
 10
-22.947992859
 20
286.4696578176
 30
0.0
 10
-21.7753991513
 20
287.2808673321
 30
0.0
 10
-21.1363465812
 20
287.6388868368
 30
0.0
  0
SPLINE
  5
391
100
AcDbEntity
  8
0
100
AcDbSpline
 62
7
  6
CONTINUOUS
 70
0
 71
3
 72
15
 73
11
 74
0
 42
0.0000001
 43
0.0000001
 44
0.0000000001
 40
0.0
 40
0.0
 40
0.0
 40
0.0
 40
0.099266391
 40
0.2049211183
 40
0.3178297741
 40
0.4384413659
 40
0.5669526335
 40
0.703514379
 40
0.8479942356
 40
1.0
 40
1.0
 40
1.0
 40
1.0
 10
-21.1363465812
 20
287.6388868368
 30
0.0
 10
-20.7811998535
 20
287.8378524017
 30
0.0
 10
-20.0244673869
 20
288.2079785589
 30
0.0
 10
-18.7964218921
 20
288.6507287489
 30
0.0
 10
-17.450843664
 20
289.0082426894
 30
0.0
 10
-15.9912470797
 20
289.2866972084
 30
0.0
 10
-14.4185166774
 20
289.4676105086
 30
0.0
 10
-12.7396294324
 20
289.5437397503
 30
0.0
 10
-10.9630493897
 20
289.526520967
 30
0.0
 10
-9.7489566563
 20
289.4463794266
 30
0.0
 10
-9.1285213513
 20
289.3860397567
 30
0.0
  0
SPLINE
  5
392
100
AcDbEntity
  8
0
100
AcDbSpline
 62
7
  6
CONTINUOUS
 70
0
 71
3
 72
10
 73
6
 74
0
 42
0.0000001
 43
0.0000001
 44
0.0000000001
 40
0.0
 40
0.0
 40
0.0
 40
0.0
 40
0.1811406035
 40
0.575903533
 40
1.0
 40
1.0
 40
1.0
 40
1.0
 10
-5.1842063158
 20
289.1392065268
 30
0.0
 10
-5.19442256
 20
289.1245169861
 30
0.0
 10
-5.2261770595
 20
289.0773651679
 30
0.0
 10
-5.285849317
 20
288.9980376362
 30
0.0
 10
-5.3045865773
 20
288.9146262565
 30
0.0
 10
-5.3017066014
 20
288.8728336222
 30
0.0
  0
SPLINE
  5
393
100
AcDbEntity
  8
0
100
AcDbSpline
 62
7
  6
CONTINUOUS
 70
0
 71
3
 72
12
 73
8
 74
0
 42
0.0000001
 43
0.0000001
 44
0.0000000001
 40
0.0
 40
0.0
 40
0.0
 40
0.0
 40
0.3045352134
 40
0.5736423618
 40
0.693857399
 40
0.804591388
 40
1.0
 40
1.0
 40
1.0
 40
1.0
 10
-5.1842977398
 20
289.1393443863
 30
0.0
 10
-6.7847359319
 20
289.4668925008
 30
0.0
 10
-9.8312522197
 20
289.9437933619
 30
0.0
 10
-13.565725848
 20
290.0610147568
 30
0.0
 10
-16.2398357378
 20
289.8017811712
 30
0.0
 10
-18.4863873171
 20
289.3668790803
 30
0.0
 10
-20.0500989707
 20
288.7971490627
 30
0.0
 10
-20.9711062845
 20
288.2966243768
 30
0.0
  0
SPLINE
  5
394
100
AcDbEntity
  8
0
100
AcDbSpline
 62
7
  6
CONTINUOUS
 70
0
 71
3
 72
9
 73
5
 74
0
 42
0.0000001
 43
0.0000001
 44
0.0000000001
 40
0.0
 40
0.0
 40
0.0
 40
0.0
 40
0.2326957329
 40
1.0
 40
1.0
 40
1.0
 40
1.0
 10
-20.228727571
 20
288.717780903
 30
0.0
 10
-19.9122834616
 20
288.8783244385
 30
0.0
 10
-18.5229117337
 20
289.5101514074
 30
0.0
 10
-17.0358695209
 20
289.9128887552
 30
0.0
 10
-15.8847202984
 20
290.1224483919
 30
0.0
  0
SPLINE
  5
395
100
AcDbEntity
  8
0
100
AcDbSpline
 62
7
  6
CONTINUOUS
 70
0
 71
3
 72
9
 73
5
 74
0
 42
0.0000001
 43
0.0000001
 44
0.0000000001
 40
0.0
 40
0.0
 40
0.0
 40
0.0
 40
0.4538863307
 40
1.0
 40
1.0
 40
1.0
 40
1.0
 10
-15.8847202984
 20
290.1224483919
 30
0.0
 10
-14.2637066999
 20
290.3447490143
 30
0.0
 10
-10.6230585312
 20
290.323504238
 30
0.0
 10
-7.0688168468
 20
289.6439020921
 30
0.0
 10
-5.1625066784
 20
289.1524111225
 30
0.0
  0
SPLINE
  5
396
100
AcDbEntity
  8
0
100
AcDbSpline
 62
7
  6
CONTINUOUS
 70
0
 71
3
 72
17
 73
13
 74
0
 42
0.0000001
 43
0.0000001
 44
0.0000000001
 40
0.0
 40
0.0
 40
0.0
 40
0.0
 40
0.2446760228
 40
0.3678465944
 40
0.4916426148
 40
0.6161677952
 40
0.7416311103
 40
0.8048626599
 40
0.8686116108
 40
0.933289559
 40
0.9664442889
 40
1.0
 40
1.0
 40
1.0
 40
1.0
 10
-4.8370724997
 20
289.0693634966
 30
0.0
 10
-4.7212195968
 20
289.0400920505
 30
0.0
 10
-4.5473747055
 20
288.9947505909
 30
0.0
 10
-4.3160708302
 20
288.9303111791
 30
0.0
 10
-4.1420056363
 20
288.8791378272
 30
0.0
 10
-3.9678751965
 20
288.8242478338
 30
0.0
 10
-3.8233524054
 20
288.7741702643
 30
0.0
 10
-3.7083751116
 20
288.7292730968
 30
0.0
 10
-3.6228965212
 20
288.6920191384
 30
0.0
 10
-3.5518073528
 20
288.6546861439
 30
0.0
 10
-3.5012403699
 20
288.6190797536
 30
0.0
 10
-3.4761744668
 20
288.5897153558
 30
0.0
 10
-3.4777131483
 20
288.573399992
 30
0.0
  0
SPLINE
  5
397
100
AcDbEntity
  8
0
100
AcDbSpline
 62
7
  6
CONTINUOUS
 70
0
 71
3
 72
9
 73
5
 74
0
 42
0.0000001
 43
0.0000001
 44
0.0000000001
 40
0.0
 40
0.0
 40
0.0
 40
0.0
 40
0.484235635
 40
1.0
 40
1.0
 40
1.0
 40
1.0
 10
-4.8370724997
 20
289.0693634966
 30
0.0
 10
-2.514712643
 20
288.4827365149
 30
0.0
 10
2.3450102087
 20
287.5178557216
 30
0.0
 10
7.2660741362
 20
286.963577029
 30
0.0
 10
9.8102671047
 20
286.7737590104
 30
0.0
  0
SPLINE
  5
398
100
AcDbEntity
  8
0
100
AcDbSpline
 62
7
  6
CONTINUOUS
 70
0
 71
3
 72
11
 73
7
 74
0
 42
0.0000001
 43
0.0000001
 44
0.0000000001
 40
0.0
 40
0.0
 40
0.0
 40
0.0
 40
0.2717776924
 40
0.5268678486
 40
0.7676328571
 40
1.0
 40
1.0
 40
1.0
 40
1.0
 10
-59.4040910774
 20
213.8429461369
 30
0.0
 10
-59.4040910774
 20
213.330207757
 30
0.0
 10
-59.3044022131
 20
212.3319808463
 30
0.0
 10
-58.8269343686
 20
210.9492283661
 30
0.0
 10
-58.0445339454
 20
209.7987275793
 30
0.0
 10
-57.336455177
 20
209.2292173216
 30
0.0
 10
-56.9568546777
 20
209.0099325737
 30
0.0
  0
SPLINE
  5
399
100
AcDbEntity
  8
0
100
AcDbSpline
 62
7
  6
CONTINUOUS
 70
0
 71
3
 72
13
 73
9
 74
0
 42
0.0000001
 43
0.0000001
 44
0.0000000001
 40
0.0
 40
0.0
 40
0.0
 40
0.0
 40
0.1054199736
 40
0.2162072625
 40
0.3355571307
 40
0.4637457895
 40
0.7347562963
 40
1.0
 40
1.0
 40
1.0
 40
1.0
 10
-50.6483742849
 20
215.29165036
 30
0.0
 10
-50.7522332005
 20
215.351673796
 30
0.0
 10
-50.9904811618
 20
215.4351536139
 30
0.0
 10
-51.3788114358
 20
215.4291446993
 30
0.0
 10
-51.7712994157
 20
215.2999871922
 30
0.0
 10
-52.2703651589
 20
214.9754823635
 30
0.0
 10
-52.7462679336
 20
214.3582948565
 30
0.0
 10
-52.9035788648
 20
213.7447816219
 30
0.0
 10
-52.9035788648
 20
213.4429638286
 30
0.0
  0
SPLINE
  5
39A
100
AcDbEntity
  8
0
100
AcDbSpline
 62
7
  6
CONTINUOUS
 70
0
 71
3
 72
13
 73
9
 74
0
 42
0.0000001
 43
0.0000001
 44
0.0000000001
 40
0.0
 40
0.0
 40
0.0
 40
0.0
 40
0.2347902242
 40
0.4890705672
 40
0.6197521108
 40
0.7497766182
 40
0.8771066556
 40
1.0
 40
1.0
 40
1.0
 40
1.0
 10
-53.2057437567
 20
300.5428988622
 30
0.0
 10
-54.055981806
 20
300.3149878915
 30
0.0
 10
-55.7319925449
 20
299.4588171859
 30
0.0
 10
-57.3750240962
 20
297.7650523995
 30
0.0
 10
-58.3905637041
 20
296.116219894
 30
0.0
 10
-58.9639012373
 20
294.7728351777
 30
0.0
 10
-59.3195488218
 20
293.3867741913
 30
0.0
 10
-59.4040910774
 20
292.4471290585
 30
0.0
 10
-59.4040910774
 20
291.9863882786
 30
0.0
  0
SPLINE
  5
39B
100
AcDbEntity
  8
0
100
AcDbSpline
 62
7
  6
CONTINUOUS
 70
0
 71
3
 72
10
 73
6
 74
0
 42
0.0000001
 43
0.0000001
 44
0.0000000001
 40
0.0
 40
0.0
 40
0.0
 40
0.0
 40
0.5148899604
 40
0.7596727888
 40
1.0
 40
1.0
 40
1.0
 40
1.0
 10
-50.6721738293
 20
207.1460945817
 30
0.0
 10
-51.3117538982
 20
206.9746516376
 30
0.0
 10
-52.313632119
 20
206.8740675027
 30
0.0
 10
-53.5795771585
 20
207.1377229866
 30
0.0
 10
-54.155663103
 20
207.391991977
 30
0.0
 10
-54.423284752
 20
207.5465896334
 30
0.0
  0
SPLINE
  5
39C
100
AcDbEntity
  8
0
100
AcDbSpline
 62
7
  6
CONTINUOUS
 70
0
 71
3
 72
10
 73
6
 74
0
 42
0.0000001
 43
0.0000001
 44
0.0000000001
 40
0.0
 40
0.0
 40
0.0
 40
0.0
 40
0.5252520963
 40
0.7668039053
 40
1.0
 40
1.0
 40
1.0
 40
1.0
 10
-52.9035788648
 20
213.4429638286
 30
0.0
 10
-52.9035788648
 20
213.2191585224
 30
0.0
 10
-52.8380465338
 20
212.8823237425
 30
0.0
 10
-52.5953572584
 20
212.5264037717
 30
0.0
 10
-52.434895014
 20
212.3972100379
 30
0.0
 10
-52.3488659926
 20
212.3474910761
 30
0.0
  0
SPLINE
  5
39D
100
AcDbEntity
  8
0
100
AcDbSpline
 62
7
  6
CONTINUOUS
 70
0
 71
3
 72
10
 73
6
 74
0
 42
0.0000001
 43
0.0000001
 44
0.0000000001
 40
0.0
 40
0.0
 40
0.0
 40
0.0
 40
0.5252520963
 40
0.7668039053
 40
1.0
 40
1.0
 40
1.0
 40
1.0
 10
-52.9035788648
 20
291.5864059702
 30
0.0
 10
-52.9035788648
 20
291.3626006641
 30
0.0
 10
-52.8380465338
 20
291.0257658842
 30
0.0
 10
-52.5953572584
 20
290.6698459134
 30
0.0
 10
-52.434895014
 20
290.5406521796
 30
0.0
 10
-52.3488659926
 20
290.4909332177
 30
0.0
  0
SPLINE
  5
39E
100
AcDbEntity
  8
0
100
AcDbSpline
 62
7
  6
CONTINUOUS
 70
0
 71
3
 72
14
 73
10
 74
0
 42
0.0000001
 43
0.0000001
 44
0.0000000001
 40
0.0
 40
0.0
 40
0.0
 40
0.0
 40
0.1165363717
 40
0.2384273224
 40
0.3646092193
 40
0.4935588908
 40
0.6234755004
 40
0.7524691113
 40
1.0
 40
1.0
 40
1.0
 40
1.0
 10
0.6544306528
 20
274.4568894315
 30
0.0
 10
-0.8544093294
 20
273.9177214131
 30
0.0
 10
-3.8420023719
 20
272.5199692884
 30
0.0
 10
-7.9823658282
 20
269.6583410585
 30
0.0
 10
-11.758913908
 20
266.0786299658
 30
0.0
 10
-15.0435617218
 20
261.9045446123
 30
0.0
 10
-17.7277222433
 20
257.2735148167
 30
0.0
 10
-20.3444014681
 20
250.8073706199
 30
0.0
 10
-21.24297713
 20
245.5986143402
 30
0.0
 10
-21.24297713
 20
242.1952672766
 30
0.0
  0
SPLINE
  5
39F
100
AcDbEntity
  8
0
100
AcDbSpline
 62
7
  6
CONTINUOUS
 70
0
 71
3
 72
11
 73
7
 74
0
 42
0.0000001
 43
0.0000001
 44
0.0000000001
 40
0.0
 40
0.0
 40
0.0
 40
0.0
 40
0.2330923103
 40
0.4759382172
 40
0.7312985824
 40
1.0
 40
1.0
 40
1.0
 40
1.0
 10
21.5233251866
 20
273.160751644
 30
0.0
 10
22.6272490908
 20
272.1282496357
 30
0.0
 10
24.6289178466
 20
269.7351678178
 30
0.0
 10
26.7930145806
 20
265.476227855
 30
0.0
 10
28.1071608622
 20
260.6480860468
 30
0.0
 10
28.3851237511
 20
257.2407900732
 30
0.0
 10
28.3851237511
 20
255.4983518127
 30
0.0
  0
SPLINE
  5
3A0
100
AcDbEntity
  8
0
100
AcDbSpline
 62
7
  6
CONTINUOUS
 70
0
 71
3
 72
10
 73
6
 74
0
 42
0.0000001
 43
0.0000001
 44
0.0000000001
 40
0.0
 40
0.0
 40
0.0
 40
0.0
 40
0.2403242638
 40
0.4850896596
 40
1.0
 40
1.0
 40
1.0
 40
1.0
 10
-48.1533573378
 20
217.6614640343
 30
0.0
 10
-48.3317907323
 20
217.7644911693
 30
0.0
 10
-48.7157972917
 20
217.9340588595
 30
0.0
 10
-49.5597769453
 20
218.1097986443
 30
0.0
 10
-50.2276933272
 20
218.0427626027
 30
0.0
 10
-50.6540968296
 20
217.9284628061
 30
0.0
  0
SPLINE
  5
3A1
100
AcDbEntity
  8
0
100
AcDbSpline
 62
7
  6
CONTINUOUS
 70
0
 71
3
 72
10
 73
6
 74
0
 42
0.0000001
 43
0.0000001
 44
0.0000000001
 40
0.0
 40
0.0
 40
0.0
 40
0.0
 40
0.2371515069
 40
0.482739229
 40
1.0
 40
1.0
 40
1.0
 40
1.0
 10
28.4799525189
 20
273.7729156002
 30
0.0
 10
29.1665231365
 20
272.6285383568
 30
0.0
 10
30.3823525993
 20
270.1850967464
 30
0.0
 10
32.1417421948
 20
264.8257153143
 30
0.0
 10
32.6309936835
 20
260.4994981577
 30
0.0
 10
32.6309936835
 20
257.5886939701
 30
0.0
  0
SPLINE
  5
3A2
100
AcDbEntity
  8
0
100
AcDbSpline
 62
7
  6
CONTINUOUS
 70
0
 71
3
 72
14
 73
10
 74
0
 42
0.0000001
 43
0.0000001
 44
0.0000000001
 40
0.0
 40
0.0
 40
0.0
 40
0.0
 40
0.2491613242
 40
0.3790638972
 40
0.5096227349
 40
0.6387325639
 40
0.7644429917
 40
0.8851815827
 40
1.0
 40
1.0
 40
1.0
 40
1.0
 10
32.6309936835
 20
257.5886939701
 30
0.0
 10
32.6309936835
 20
252.8824538197
 30
0.0
 10
31.3199666366
 20
245.6749002261
 30
0.0
 10
27.5305131989
 20
236.8058743253
 30
0.0
 10
23.6578859457
 20
230.5131932397
 30
0.0
 10
18.9445129711
 20
224.9307521906
 30
0.0
 10
13.5622701869
 20
220.2623525119
 30
0.0
 10
7.7126897885
 20
216.6870802238
 30
0.0
 10
3.5274198471
 20
215.0824397806
 30
0.0
 10
1.4326455027
 20
214.5209240326
 30
0.0
  0
SPLINE
  5
3A3
100
AcDbEntity
  8
0
100
AcDbSpline
 62
7
  6
CONTINUOUS
 70
0
 71
3
 72
13
 73
9
 74
0
 42
0.0000001
 43
0.0000001
 44
0.0000000001
 40
0.0
 40
0.0
 40
0.0
 40
0.0
 40
0.1054199736
 40
0.2162072625
 40
0.3355571307
 40
0.4637457895
 40
0.7347562963
 40
1.0
 40
1.0
 40
1.0
 40
1.0
 10
-50.6483742849
 20
293.4350925016
 30
0.0
 10
-50.7522332005
 20
293.4951159377
 30
0.0
 10
-50.9904811618
 20
293.5785957555
 30
0.0
 10
-51.3788114358
 20
293.572586841
 30
0.0
 10
-51.7712994157
 20
293.4434293339
 30
0.0
 10
-52.2703651589
 20
293.1189245051
 30
0.0
 10
-52.7462679336
 20
292.5017369982
 30
0.0
 10
-52.9035788648
 20
291.8882237636
 30
0.0
 10
-52.9035788648
 20
291.5864059702
 30
0.0
  0
SPLINE
  5
3A4
100
AcDbEntity
  8
0
100
AcDbSpline
 62
7
  6
CONTINUOUS
 70
0
 71
3
 72
11
 73
7
 74
0
 42
0.0000001
 43
0.0000001
 44
0.0000000001
 40
0.0
 40
0.0
 40
0.0
 40
0.0
 40
0.2580028507
 40
0.5093891506
 40
0.7559336872
 40
1.0
 40
1.0
 40
1.0
 40
1.0
 10
-1.870311791
 20
219.0846103577
 30
0.0
 10
-2.86732046
 20
219.0104110882
 30
0.0
 10
-4.8487291309
 20
218.9961062514
 30
0.0
 10
-7.7608139288
 20
219.3981449904
 30
0.0
 10
-10.5275994158
 20
220.2197725898
 30
0.0
 10
-12.252041472
 20
221.0418263319
 30
0.0
 10
-13.0710056087
 20
221.5148618756
 30
0.0
  0
SPLINE
  5
3A5
100
AcDbEntity
  8
0
100
AcDbSpline
 62
7
  6
CONTINUOUS
 70
0
 71
3
 72
13
 73
9
 74
0
 42
0.0000001
 43
0.0000001
 44
0.0000000001
 40
0.0
 40
0.0
 40
0.0
 40
0.0
 40
0.2459935595
 40
0.3740900668
 40
0.5033719513
 40
0.6321855239
 40
0.7589163515
 40
1.0
 40
1.0
 40
1.0
 40
1.0
 10
28.3851237511
 20
255.4983518127
 30
0.0
 10
28.3851237511
 20
252.039087161
 30
0.0
 10
27.5298591642
 20
246.7491440228
 30
0.0
 10
25.0173033892
 20
240.1191755293
 30
0.0
 10
22.4303051994
 20
235.324461717
 30
0.0
 10
19.2431881258
 20
230.9289872749
 30
0.0
 10
14.4153095168
 20
225.86738441
 30
0.0
 10
10.065670081
 20
222.8801209306
 30
0.0
 10
6.987664954
 20
221.4590395897
 30
0.0
  0
SPLINE
  5
3A6
100
AcDbEntity
  8
0
100
AcDbSpline
 62
7
  6
CONTINUOUS
 70
0
 71
3
 72
13
 73
9
 74
0
 42
0.0000001
 43
0.0000001
 44
0.0000000001
 40
0.0
 40
0.0
 40
0.0
 40
0.0
 40
0.2727009736
 40
0.5411794552
 40
0.6668054337
 40
0.784250349
 40
0.8943347783
 40
1.0
 40
1.0
 40
1.0
 40
1.0
 10
6.987664954
 20
221.4590395897
 30
0.0
 10
6.8143176721
 20
220.5772072837
 30
0.0
 10
6.1072736695
 20
218.8868347575
 30
0.0
 10
4.547694587
 20
217.2546220189
 30
0.0
 10
3.0456838529
 20
216.459712348
 30
0.0
 10
1.9027640228
 20
216.1764227177
 30
0.0
 10
0.7896663169
 20
216.2185773451
 30
0.0
 10
0.109413064
 20
216.4722941747
 30
0.0
 10
-0.1921429718
 20
216.6464408905
 30
0.0
  0
SPLINE
  5
3A7
100
AcDbEntity
  8
0
100
AcDbSpline
 62
7
  6
CONTINUOUS
 70
0
 71
3
 72
11
 73
7
 74
0
 42
0.0000001
 43
0.0000001
 44
0.0000000001
 40
0.0
 40
0.0
 40
0.0
 40
0.0
 40
0.2717350397
 40
0.5268969419
 40
0.7676331593
 40
1.0
 40
1.0
 40
1.0
 40
1.0
 10
-0.3338855015
 20
220.7716262906
 30
0.0
 10
-0.3338855015
 20
220.5323878354
 30
0.0
 10
-0.2873004386
 20
220.0665445418
 30
0.0
 10
-0.0646118131
 20
219.4212070858
 30
0.0
 10
0.3006522076
 20
218.8843666624
 30
0.0
 10
0.6310232935
 20
218.6185699612
 30
0.0
 10
0.8081752564
 20
218.5162496302
 30
0.0
  0
SPLINE
  5
3A8
100
AcDbEntity
  8
0
100
AcDbSpline
 62
7
  6
CONTINUOUS
 70
0
 71
3
 72
13
 73
9
 74
0
 42
0.0000001
 43
0.0000001
 44
0.0000000001
 40
0.0
 40
0.0
 40
0.0
 40
0.0
 40
0.2714323375
 40
0.526217443
 40
0.6482289235
 40
0.7672664579
 40
0.8841850979
 40
1.0
 40
1.0
 40
1.0
 40
1.0
 10
-21.24297713
 20
242.1952672766
 30
0.0
 10
-21.24297713
 20
240.2264026587
 30
0.0
 10
-20.8609700559
 20
236.3944354703
 30
0.0
 10
-19.3078538093
 20
231.900530853
 30
0.0
 10
-17.4718773
 20
228.7960082234
 30
0.0
 10
-15.8456080651
 20
226.7600376587
 30
0.0
 10
-13.9728865797
 20
225.0138309341
 30
0.0
 10
-12.5730904067
 20
224.056579423
 30
0.0
 10
-11.8456283732
 20
223.636428125
 30
0.0
  0
SPLINE
  5
3A9
100
AcDbEntity
  8
0
100
AcDbSpline
 62
7
  6
CONTINUOUS
 70
0
 71
3
 72
11
 73
7
 74
0
 42
0.0000001
 43
0.0000001
 44
0.0000000001
 40
0.0
 40
0.0
 40
0.0
 40
0.0
 40
0.2732165204
 40
0.5281366982
 40
0.768619696
 40
1.0
 40
1.0
 40
1.0
 40
1.0
 10
-32.0590548675
 20
292.5049335643
 30
0.0
 10
-31.6687573771
 20
293.1467535919
 30
0.0
 10
-30.8348251787
 20
294.3421708919
 30
0.0
 10
-29.3724047758
 20
295.8802021767
 30
0.0
 10
-27.7586519922
 20
297.076478692
 30
0.0
 10
-26.5792520814
 20
297.6404656358
 30
0.0
 10
-25.9804186833
 20
297.8551471543
 30
0.0
  0
SPLINE
  5
3AA
100
AcDbEntity
  8
0
100
AcDbSpline
 62
7
  6
CONTINUOUS
 70
0
 71
3
 72
9
 73
5
 74
0
 42
0.0000001
 43
0.0000001
 44
0.0000000001
 40
0.0
 40
0.0
 40
0.0
 40
0.0
 40
0.2469123551
 40
1.0
 40
1.0
 40
1.0
 40
1.0
 10
-8.9293317725
 20
276.5927285919
 30
0.0
 10
-8.9822436653
 20
276.2040051213
 30
0.0
 10
-9.2309269063
 20
274.6344870632
 30
0.0
 10
-9.6147658935
 20
273.0868118281
 30
0.0
 10
-9.9722250222
 20
271.9449060839
 30
0.0
  0
SPLINE
  5
3AB
100
AcDbEntity
  8
0
100
AcDbSpline
 62
7
  6
CONTINUOUS
 70
0
 71
3
 72
11
 73
7
 74
0
 42
0.0000001
 43
0.0000001
 44
0.0000000001
 40
0.0
 40
0.0
 40
0.0
 40
0.0
 40
0.2655485165
 40
0.5204583226
 40
0.7648429593
 40
1.0
 40
1.0
 40
1.0
 40
1.0
 10
-31.4542856431
 20
241.8304216675
 30
0.0
 10
-31.4153816263
 20
239.9592351211
 30
0.0
 10
-31.0770355285
 20
236.2903682959
 30
0.0
 10
-29.7426919834
 20
231.0431625536
 30
0.0
 10
-27.6230771199
 20
226.2920180553
 30
0.0
 10
-25.6841249964
 20
223.4932310941
 30
0.0
 10
-24.6073240604
 20
222.2332924195
 30
0.0
  0
SPLINE
  5
3AC
100
AcDbEntity
  8
0
100
AcDbSpline
 62
7
  6
CONTINUOUS
 70
0
 71
3
 72
11
 73
7
 74
0
 42
0.0000001
 43
0.0000001
 44
0.0000000001
 40
0.0
 40
0.0
 40
0.0
 40
0.0
 40
0.2482404282
 40
0.5028849788
 40
0.7560020161
 40
1.0
 40
1.0
 40
1.0
 40
1.0
 10
-14.2673363362
 20
278.3665084908
 30
0.0
 10
-16.9444876982
 20
276.1967989011
 30
0.0
 10
-21.843059696
 20
271.1213511994
 30
0.0
 10
-27.3461536871
 20
262.0936153488
 30
0.0
 10
-30.7799606018
 20
252.1550036214
 30
0.0
 10
-31.5246916978
 20
245.2167779629
 30
0.0
 10
-31.4542856431
 20
241.8304216675
 30
0.0
  0
SPLINE
  5
3AD
100
AcDbEntity
  8
0
100
AcDbSpline
 62
7
  6
CONTINUOUS
 70
0
 71
3
 72
9
 73
5
 74
0
 42
0.0000001
 43
0.0000001
 44
0.0000000001
 40
0.0
 40
0.0
 40
0.0
 40
0.0
 40
0.477305613
 40
1.0
 40
1.0
 40
1.0
 40
1.0
 10
-48.2690592349
 20
217.552831349
 30
0.0
 10
-47.9708003741
 20
217.2170898684
 30
0.0
 10
-47.5008536559
 20
216.3688922138
 30
0.0
 10
-47.3663885916
 20
215.4190322981
 30
0.0
 10
-47.3663885916
 20
214.9272380399
 30
0.0
  0
SPLINE
  5
3AE
100
AcDbEntity
  8
0
100
AcDbSpline
 62
7
  6
CONTINUOUS
 70
0
 71
3
 72
12
 73
8
 74
0
 42
0.0000001
 43
0.0000001
 44
0.0000000001
 40
0.0
 40
0.0
 40
0.0
 40
0.0
 40
0.2496129985
 40
0.3797352206
 40
0.5105246444
 40
0.7650066244
 40
1.0
 40
1.0
 40
1.0
 40
1.0
 10
-47.3663885916
 20
293.0706801816
 30
0.0
 10
-47.3663885916
 20
292.4473119772
 30
0.0
 10
-47.5399871128
 20
291.4927408375
 30
0.0
 10
-48.0420559169
 20
290.3178469739
 30
0.0
 10
-48.7191349386
 20
289.218048143
 30
0.0
 10
-49.8144222531
 20
288.0891459416
 30
0.0
 10
-50.9317738532
 20
287.5182860472
 30
0.0
 10
-51.4986201387
 20
287.3663397925
 30
0.0
  0
SPLINE
  5
3AF
100
AcDbEntity
  8
0
100
AcDbSpline
 62
7
  6
CONTINUOUS
 70
0
 71
3
 72
13
 73
9
 74
0
 42
0.0000001
 43
0.0000001
 44
0.0000000001
 40
0.0
 40
0.0
 40
0.0
 40
0.0
 40
0.1054199736
 40
0.2162072625
 40
0.3355571307
 40
0.4637457895
 40
0.7347562963
 40
1.0
 40
1.0
 40
1.0
 40
1.0
 10
-52.3488659926
 20
290.4909332177
 30
0.0
 10
-52.245007077
 20
290.4309097817
 30
0.0
 10
-52.0067591157
 20
290.3474299639
 30
0.0
 10
-51.6184288417
 20
290.3534388784
 30
0.0
 10
-51.2259408618
 20
290.4825963855
 30
0.0
 10
-50.7268751186
 20
290.8071012142
 30
0.0
 10
-50.2509723439
 20
291.4242887212
 30
0.0
 10
-50.0936614127
 20
292.0378019558
 30
0.0
 10
-50.0936614127
 20
292.3396197491
 30
0.0
  0
SPLINE
  5
3B0
100
AcDbEntity
  8
0
100
AcDbSpline
 62
7
  6
CONTINUOUS
 70
0
 71
3
 72
13
 73
9
 74
0
 42
0.0000001
 43
0.0000001
 44
0.0000000001
 40
0.0
 40
0.0
 40
0.0
 40
0.0
 40
0.1228933572
 40
0.2502234085
 40
0.3802479217
 40
0.5109294677
 40
0.7652098012
 40
1.0
 40
1.0
 40
1.0
 40
1.0
 10
-56.87052115
 20
290.5230453412
 30
0.0
 10
-56.87052115
 20
290.9837861692
 30
0.0
 10
-56.7859788661
 20
291.9234314014
 30
0.0
 10
-56.4303312302
 20
293.3094925021
 30
0.0
 10
-55.8569936074
 20
294.6528772721
 30
0.0
 10
-54.8414539483
 20
296.3017097403
 30
0.0
 10
-53.1984224158
 20
297.995474376
 30
0.0
 10
-51.5224117866
 20
298.8516449788
 30
0.0
 10
-50.6721738293
 20
299.0795559248
 30
0.0
  0
SPLINE
  5
3B1
100
AcDbEntity
  8
0
100
AcDbSpline
 62
7
  6
CONTINUOUS
 70
0
 71
3
 72
10
 73
6
 74
0
 42
0.0000001
 43
0.0000001
 44
0.0000000001
 40
0.0
 40
0.0
 40
0.0
 40
0.0
 40
0.5252520963
 40
0.7668039053
 40
1.0
 40
1.0
 40
1.0
 40
1.0
 10
-50.0936614127
 20
292.3396197491
 30
0.0
 10
-50.0936614127
 20
292.5634250553
 30
0.0
 10
-50.1591937437
 20
292.9002598352
 30
0.0
 10
-50.401883019
 20
293.256179806
 30
0.0
 10
-50.5623452635
 20
293.3853735398
 30
0.0
 10
-50.6483742849
 20
293.4350925016
 30
0.0
  0
SPLINE
  5
3B2
100
AcDbEntity
  8
0
100
AcDbSpline
 62
7
  6
CONTINUOUS
 70
0
 71
3
 72
11
 73
7
 74
0
 42
0.0000001
 43
0.0000001
 44
0.0000000001
 40
0.0
 40
0.0
 40
0.0
 40
0.0
 40
0.2323671568
 40
0.4731321704
 40
0.7282223224
 40
1.0
 40
1.0
 40
1.0
 40
1.0
 10
-54.423284752
 20
207.5465896334
 30
0.0
 10
-54.8028852713
 20
207.7658743994
 30
0.0
 10
-55.5109640674
 20
208.3353846823
 30
0.0
 10
-56.2933644837
 20
209.4858855105
 30
0.0
 10
-56.7708322957
 20
210.868637973
 30
0.0
 10
-56.87052115
 20
211.8668648474
 30
0.0
 10
-56.87052115
 20
212.3796031995
 30
0.0
  0
SPLINE
  5
3B3
100
AcDbEntity
  8
0
100
AcDbSpline
 62
7
  6
CONTINUOUS
 70
0
 71
3
 72
13
 73
9
 74
0
 42
0.0000001
 43
0.0000001
 44
0.0000000001
 40
0.0
 40
0.0
 40
0.0
 40
0.0
 40
0.2453634293
 40
0.3730839233
 40
0.5020801501
 40
0.6307901604
 40
0.7576705858
 40
1.0
 40
1.0
 40
1.0
 40
1.0
 10
-23.2677705881
 20
241.6525102889
 30
0.0
 10
-23.2677705881
 20
245.0197243607
 30
0.0
 10
-22.4575267532
 20
250.16711341
 30
0.0
 10
-20.0691441942
 20
256.6415289278
 30
0.0
 10
-17.6062692686
 20
261.3406223939
 30
0.0
 10
-14.5655442064
 20
265.6744168488
 30
0.0
 10
-9.939508007
 20
270.7176727267
 30
0.0
 10
-5.7633842812
 20
273.7504243401
 30
0.0
 10
-2.7932634975
 20
275.2463674865
 30
0.0
  0
SPLINE
  5
3B4
100
AcDbEntity
  8
0
100
AcDbSpline
 62
7
  6
CONTINUOUS
 70
0
 71
3
 72
13
 73
9
 74
0
 42
0.0000001
 43
0.0000001
 44
0.0000000001
 40
0.0
 40
0.0
 40
0.0
 40
0.0
 40
0.2393015345
 40
0.3658008654
 40
0.4947520418
 40
0.6244382932
 40
0.7530764118
 40
1.0
 40
1.0
 40
1.0
 40
1.0
 10
5.4512386645
 20
223.0702068041
 30
0.0
 10
8.4215616389
 20
224.2709653297
 30
0.0
 10
12.6516442313
 20
226.9512154651
 30
0.0
 10
17.3600746215
 20
231.6259328898
 30
0.0
 10
20.4876799996
 20
235.7485714572
 30
0.0
 10
23.0340659231
 20
240.2854793936
 30
0.0
 10
25.51264455
 20
246.5919664205
 30
0.0
 10
26.360330293
 20
251.6497006377
 30
0.0
 10
26.360330293
 20
254.955594825
 30
0.0
  0
SPLINE
  5
3B5
100
AcDbEntity
  8
0
100
AcDbSpline
 62
7
  6
CONTINUOUS
 70
0
 71
3
 72
13
 73
9
 74
0
 42
0.0000001
 43
0.0000001
 44
0.0000000001
 40
0.0
 40
0.0
 40
0.0
 40
0.0
 40
0.2709411924
 40
0.5258930382
 40
0.6481099861
 40
0.7673396657
 40
0.8843359352
 40
1.0
 40
1.0
 40
1.0
 40
1.0
 10
26.360330293
 20
254.955594825
 30
0.0
 10
26.360330293
 20
256.8512953125
 30
0.0
 10
26.0056835611
 20
260.5440125184
 30
0.0
 10
24.5689357823
 20
264.8937831681
 30
0.0
 10
22.8668953463
 20
267.9315145961
 30
0.0
 10
21.3564774546
 20
269.943667778
 30
0.0
 10
19.6136205412
 20
271.6937845002
 30
0.0
 10
18.3058175879
 20
272.6744299705
 30
0.0
 10
17.6246592791
 20
273.1113972078
 30
0.0
  0
SPLINE
  5
3B6
100
AcDbEntity
  8
0
100
AcDbSpline
 62
7
  6
CONTINUOUS
 70
0
 71
3
 72
9
 73
5
 74
0
 42
0.0000001
 43
0.0000001
 44
0.0000000001
 40
0.0
 40
0.0
 40
0.0
 40
0.0
 40
0.2531764553
 40
1.0
 40
1.0
 40
1.0
 40
1.0
 10
-16.6274185665
 20
233.0967328339
 30
0.0
 10
-16.6952253633
 20
232.9510062382
 30
0.0
 10
-16.9929835781
 20
232.389998789
 30
0.0
 10
-17.4080740457
 20
231.8898433116
 30
0.0
 10
-17.7685719931
 20
231.581893085
 30
0.0
  0
SPLINE
  5
3B7
100
AcDbEntity
  8
0
100
AcDbSpline
 62
7
  6
CONTINUOUS
 70
0
 71
3
 72
11
 73
7
 74
0
 42
0.0000001
 43
0.0000001
 44
0.0000000001
 40
0.0
 40
0.0
 40
0.0
 40
0.0
 40
0.271772124
 40
0.5268740629
 40
0.7676338636
 40
1.0
 40
1.0
 40
1.0
 40
1.0
 10
-46.5218652825
 20
214.4394570608
 30
0.0
 10
-46.5218652825
 20
214.781276181
 30
0.0
 10
-46.5883384181
 20
215.4467641783
 30
0.0
 10
-46.9066141101
 20
216.368622262
 30
0.0
 10
-47.4282478094
 20
217.1355958943
 30
0.0
 10
-47.9002609871
 20
217.5153266368
 30
0.0
 10
-48.1533573378
 20
217.6614640343
 30
0.0
  0
SPLINE
  5
3B8
100
AcDbEntity
  8
0
100
AcDbSpline
 62
7
  6
CONTINUOUS
 70
0
 71
3
 72
11
 73
7
 74
0
 42
0.0000001
 43
0.0000001
 44
0.0000000001
 40
0.0
 40
0.0
 40
0.0
 40
0.0
 40
0.242885163
 40
0.4887911563
 40
0.7404561496
 40
1.0
 40
1.0
 40
1.0
 40
1.0
 10
-11.8456283732
 20
223.636428125
 30
0.0
 10
-11.0109145105
 20
223.1543327074
 30
0.0
 10
-9.2425069559
 20
222.3293571651
 30
0.0
 10
-6.3925227307
 20
221.5592666758
 30
0.0
 10
-3.3894407115
 20
221.2643326015
 30
0.0
 10
-1.3550899727
 20
221.3848174243
 30
0.0
 10
-0.3338855015
 20
221.5194725535
 30
0.0
  0
SPLINE
  5
3B9
100
AcDbEntity
  8
0
100
AcDbSpline
 62
7
  6
CONTINUOUS
 70
0
 71
3
 72
9
 73
5
 74
0
 42
0.0000001
 43
0.0000001
 44
0.0000000001
 40
0.0
 40
0.0
 40
0.0
 40
0.0
 40
0.5064596281
 40
1.0
 40
1.0
 40
1.0
 40
1.0
 10
-23.1835375516
 20
268.5503685225
 30
0.0
 10
-21.8889672814
 20
270.3186318431
 30
0.0
 10
-19.7631366809
 20
274.1444645521
 30
0.0
 10
-18.6520293073
 20
278.385679621
 30
0.0
 10
-18.4077932698
 20
280.5072637423
 30
0.0
  0
SPLINE
  5
3BA
100
AcDbEntity
  8
0
100
AcDbSpline
 62
7
  6
CONTINUOUS
 70
0
 71
3
 72
12
 73
8
 74
0
 42
0.0000001
 43
0.0000001
 44
0.0000000001
 40
0.0
 40
0.0
 40
0.0
 40
0.0
 40
0.2349933756
 40
0.4894753556
 40
0.6202647794
 40
0.7503870015
 40
1.0
 40
1.0
 40
1.0
 40
1.0
 10
-50.6540968296
 20
286.8785588134
 30
0.0
 10
-50.0872505441
 20
287.0305050681
 30
0.0
 10
-48.9698989439
 20
287.6013649625
 30
0.0
 10
-47.8746116295
 20
288.7302671639
 30
0.0
 10
-47.1975326078
 20
289.8300659948
 30
0.0
 10
-46.6954638037
 20
291.0049598583
 30
0.0
 10
-46.5218652825
 20
291.9595309981
 30
0.0
 10
-46.5218652825
 20
292.5828992025
 30
0.0
  0
SPLINE
  5
3BB
100
AcDbEntity
  8
0
100
AcDbSpline
 62
7
  6
CONTINUOUS
 70
0
 71
3
 72
12
 73
8
 74
0
 42
0.0000001
 43
0.0000001
 44
0.0000000001
 40
0.0
 40
0.0
 40
0.0
 40
0.0
 40
0.2700633728
 40
0.5253163327
 40
0.7671229025
 40
0.8844032304
 40
1.0
 40
1.0
 40
1.0
 40
1.0
 10
-24.3938016669
 20
242.3028849277
 30
0.0
 10
-24.3938016669
 20
240.3860272898
 30
0.0
 10
-24.0577272009
 20
236.6448048638
 30
0.0
 10
-22.4649756404
 20
231.3962291441
 30
0.0
 10
-20.2515413785
 20
227.583220476
 30
0.0
 10
-18.026288488
 20
225.0429259342
 30
0.0
 10
-16.7788430516
 20
223.9493935209
 30
0.0
 10
-16.126648067
 20
223.4515632953
 30
0.0
  0
SPLINE
  5
3BC
100
AcDbEntity
  8
0
100
AcDbSpline
 62
7
  6
CONTINUOUS
 70
0
 71
3
 72
13
 73
9
 74
0
 42
0.0000001
 43
0.0000001
 44
0.0000000001
 40
0.0
 40
0.0
 40
0.0
 40
0.0
 40
0.1054228116
 40
0.2162092768
 40
0.3355568365
 40
0.4637520711
 40
0.7347891091
 40
1.0
 40
1.0
 40
1.0
 40
1.0
 10
0.8081752564
 20
218.5162496302
 30
0.0
 10
1.0220418325
 20
218.3927234864
 30
0.0
 10
1.5125111451
 20
218.2207741149
 30
0.0
 10
2.3120378227
 20
218.2331240071
 30
0.0
 10
3.1201197931
 20
218.4990128303
 30
0.0
 10
4.14766852
 20
219.1671818979
 30
0.0
 10
5.1273834607
 20
220.4379491916
 30
0.0
 10
5.4512386645
 20
221.7010435832
 30
0.0
 10
5.4512386645
 20
222.3223605413
 30
0.0
  0
SPLINE
  5
3BD
100
AcDbEntity
  8
0
100
AcDbSpline
 62
7
  6
CONTINUOUS
 70
0
 71
3
 72
11
 73
7
 74
0
 42
0.0000001
 43
0.0000001
 44
0.0000000001
 40
0.0
 40
0.0
 40
0.0
 40
0.0
 40
0.2499058368
 40
0.5052380572
 40
0.7578021887
 40
1.0
 40
1.0
 40
1.0
 40
1.0
 10
-9.9722250222
 20
271.9449060839
 30
0.0
 10
-12.1634073246
 20
270.1578883267
 30
0.0
 10
-16.1807613535
 20
266.014282382
 30
0.0
 10
-20.751247189
 20
258.6892593585
 30
0.0
 10
-23.674190125
 20
250.6564697102
 30
0.0
 10
-24.3938016669
 20
245.0431667867
 30
0.0
 10
-24.3938016669
 20
242.3028849277
 30
0.0
  0
SPLINE
  5
3BE
100
AcDbEntity
  8
0
100
AcDbSpline
 62
7
  6
CONTINUOUS
 70
0
 71
3
 72
13
 73
9
 74
0
 42
0.0000001
 43
0.0000001
 44
0.0000000001
 40
0.0
 40
0.0
 40
0.0
 40
0.0
 40
0.1054199736
 40
0.2162072625
 40
0.3355571307
 40
0.4637457895
 40
0.7347562963
 40
1.0
 40
1.0
 40
1.0
 40
1.0
 10
-52.3488659926
 20
212.3474910761
 30
0.0
 10
-52.245007077
 20
212.28746764
 30
0.0
 10
-52.0067591157
 20
212.2039878222
 30
0.0
 10
-51.6184288417
 20
212.2099967367
 30
0.0
 10
-51.2259408618
 20
212.3391542438
 30
0.0
 10
-50.7268751186
 20
212.6636590726
 30
0.0
 10
-50.2509723439
 20
213.2808465796
 30
0.0
 10
-50.0936614127
 20
213.8943598142
 30
0.0
 10
-50.0936614127
 20
214.1961776075
 30
0.0
  0
SPLINE
  5
3BF
100
AcDbEntity
  8
0
100
AcDbSpline
 62
7
  6
CONTINUOUS
 70
0
 71
3
 72
10
 73
6
 74
0
 42
0.0000001
 43
0.0000001
 44
0.0000000001
 40
0.0
 40
0.0
 40
0.0
 40
0.0
 40
0.5252520963
 40
0.7668039053
 40
1.0
 40
1.0
 40
1.0
 40
1.0
 10
-50.0936614127
 20
214.1961776075
 30
0.0
 10
-50.0936614127
 20
214.4199829137
 30
0.0
 10
-50.1591937437
 20
214.7568176935
 30
0.0
 10
-50.401883019
 20
215.1127376643
 30
0.0
 10
-50.5623452635
 20
215.2419313981
 30
0.0
 10
-50.6483742849
 20
215.29165036
 30
0.0
  0
SPLINE
  5
3C0
100
AcDbEntity
  8
0
100
AcDbSpline
 62
7
  6
CONTINUOUS
 70
0
 71
3
 72
11
 73
7
 74
0
 42
0.0000001
 43
0.0000001
 44
0.0000000001
 40
0.0
 40
0.0
 40
0.0
 40
0.0
 40
0.2425184485
 40
0.4954983053
 40
0.7508621654
 40
1.0
 40
1.0
 40
1.0
 40
1.0
 10
-29.7657021346
 20
240.8629157572
 30
0.0
 10
-29.7657021346
 20
244.2653715438
 30
0.0
 10
-28.8472246444
 20
251.2370088828
 30
0.0
 10
-25.1294714607
 20
261.1788617002
 30
0.0
 10
-19.3345704876
 20
270.1805043289
 30
0.0
 10
-14.2522407086
 20
275.211050881
 30
0.0
 10
-11.4883748154
 20
277.3507547619
 30
0.0
  0
SPLINE
  5
3C1
100
AcDbEntity
  8
0
100
AcDbSpline
 62
7
  6
CONTINUOUS
 70
0
 71
3
 72
13
 73
9
 74
0
 42
0.0000001
 43
0.0000001
 44
0.0000000001
 40
0.0
 40
0.0
 40
0.0
 40
0.0
 40
0.1158155921
 40
0.2327342474
 40
0.351771422
 40
0.4737833006
 40
0.7285658641
 40
1.0
 40
1.0
 40
1.0
 40
1.0
 10
-13.0710056087
 20
221.5148618756
 30
0.0
 10
-13.8603417312
 20
221.9707842109
 30
0.0
 10
-15.379255303
 20
223.0094224064
 30
0.0
 10
-17.4112153409
 20
224.9042656413
 30
0.0
 10
-19.1758463925
 20
227.1134126736
 30
0.0
 10
-21.1680432313
 20
230.4819953296
 30
0.0
 10
-22.8532561389
 20
235.3582012393
 30
0.0
 10
-23.2677705881
 20
239.5161417508
 30
0.0
 10
-23.2677705881
 20
241.6525102889
 30
0.0
  0
SPLINE
  5
3C2
100
AcDbEntity
  8
0
100
AcDbSpline
 62
7
  6
CONTINUOUS
 70
0
 71
3
 72
9
 73
5
 74
0
 42
0.0000001
 43
0.0000001
 44
0.0000000001
 40
0.0
 40
0.0
 40
0.0
 40
0.0
 40
0.4896576724
 40
1.0
 40
1.0
 40
1.0
 40
1.0
 10
-32.0590548675
 20
290.9224686727
 30
0.0
 10
-32.0590548675
 20
288.4077309351
 30
0.0
 10
-33.0016749733
 20
283.2526665305
 30
0.0
 10
-35.4291504016
 20
278.632248633
 30
0.0
 10
-36.9774182698
 20
276.5174578451
 30
0.0
  0
SPLINE
  5
3C3
100
AcDbEntity
  8
0
100
AcDbSpline
 62
7
  6
CONTINUOUS
 70
0
 71
3
 72
11
 73
7
 74
0
 42
0.0000001
 43
0.0000001
 44
0.0000000001
 40
0.0
 40
0.0
 40
0.0
 40
0.0
 40
0.2343719576
 40
0.47828706
 40
0.7333833808
 40
1.0
 40
1.0
 40
1.0
 40
1.0
 10
-23.3596873503
 20
221.5126900349
 30
0.0
 10
-24.4048819311
 20
222.7545419053
 30
0.0
 10
-26.2779928799
 20
225.5176519245
 30
0.0
 10
-28.2886807314
 20
230.2109621629
 30
0.0
 10
-29.5064631736
 20
235.3962806187
 30
0.0
 10
-29.7657021346
 20
239.0164502339
 30
0.0
 10
-29.7657021346
 20
240.8629157572
 30
0.0
  0
SPLINE
  5
3C4
100
AcDbEntity
  8
0
100
AcDbSpline
 62
7
  6
CONTINUOUS
 70
0
 71
3
 72
10
 73
6
 74
0
 42
0.0000001
 43
0.0000001
 44
0.0000000001
 40
0.0
 40
0.0
 40
0.0
 40
0.0
 40
0.2561293356
 40
0.5110541247
 40
1.0
 40
1.0
 40
1.0
 40
1.0
 10
-36.9774182698
 20
276.5174578451
 30
0.0
 10
-38.1933122556
 20
274.8566590569
 30
0.0
 10
-40.3718809434
 20
271.3507309158
 30
0.0
 10
-43.558100011
 20
263.9576488017
 30
0.0
 10
-44.6623610863
 20
257.9389068064
 30
0.0
 10
-44.6623610863
 20
254.0096284265
 30
0.0
  0
SPLINE
  5
3C5
100
AcDbEntity
  8
0
100
AcDbSpline
 62
7
  6
CONTINUOUS
 70
0
 71
3
 72
13
 73
9
 74
0
 42
0.0000001
 43
0.0000001
 44
0.0000000001
 40
0.0
 40
0.0
 40
0.0
 40
0.0
 40
0.2714341293
 40
0.526216692
 40
0.6482285711
 40
0.7672657472
 40
0.8841844046
 40
1.0
 40
1.0
 40
1.0
 40
1.0
 10
-44.6623610863
 20
254.0096284265
 30
0.0
 10
-44.6623610863
 20
251.8732599408
 30
0.0
 10
-44.247846653
 20
247.7153194891
 30
0.0
 10
-42.5626338051
 20
242.8391136174
 30
0.0
 10
-40.5704369902
 20
239.4705309346
 30
0.0
 10
-38.8058059243
 20
237.2613838691
 30
0.0
 10
-36.7738458459
 20
235.3665406013
 30
0.0
 10
-35.2549322568
 20
234.3279023522
 30
0.0
 10
-34.465596106
 20
233.8719800149
 30
0.0
  0
SPLINE
  5
3C6
100
AcDbEntity
  8
0
100
AcDbSpline
 62
7
  6
CONTINUOUS
 70
0
 71
3
 72
10
 73
6
 74
0
 42
0.0000001
 43
0.0000001
 44
0.0000000001
 40
0.0
 40
0.0
 40
0.0
 40
0.0
 40
0.2392061844
 40
0.4834298669
 40
1.0
 40
1.0
 40
1.0
 40
1.0
 10
-0.1921429718
 20
216.6464408905
 30
0.0
 10
-0.4017239535
 20
216.7674725905
 30
0.0
 10
-0.7983948853
 20
217.0624281193
 30
0.0
 10
-1.4600025111
 20
217.8362988476
 30
0.0
 10
-1.7581457035
 20
218.5741454393
 30
0.0
 10
-1.870311791
 20
219.0846103577
 30
0.0
  0
ENDSEC
  0
SECTION
  2
OBJECTS
  0
DICTIONARY
  5
C
100
AcDbDictionary
280
0
281
1
  3
ACAD_GROUP
350
D
  3
ACAD_MLINESTYLE
350
17
  3
ACAD_LAYOUT
350
1A
  3
ACAD_PLOTSETTINGS
350
19
  3
ACAD_PLOTSTYLENAME
350
E
  0
DICTIONARY
  5
D
102
{ACAD_REACTORS
330
C
102
}
100
AcDbDictionary
280
0
281
1
  0
ACDBDICTIONARYWDFLT
  5
E
102
{ACAD_REACTORS
330
C
102
}
100
AcDbDictionary
281
1
  3
Normal
350
F
100
AcDbDictionaryWithDefault
340
F
  0
DICTIONARY
  5
17
102
{ACAD_REACTORS
330
C
102
}
100
AcDbDictionary
280
0
281
1
  3
Standard
350
18
  0
DICTIONARY
  5
19
102
{ACAD_REACTORS
330
C
102
}
100
AcDbDictionary
281
1
  0
DICTIONARY
  5
1A
102
{ACAD_REACTORS
330
C
102
}
100
AcDbDictionary
281
1
  3
Model
350
3C7
  3
Layout1
350
3C8
  0
ACDBPLACEHOLDER
  5
F
102
{ACAD_REACTORS
330
E
102
}
  0
MLINESTYLE
  5
18
102
{ACAD_REACTORS
330
17
102
}
100
AcDbMlineStyle
  2
STANDARD
 70
0
  3

 62
256
 51
90.0
 52
90.0
 71
2
 49
0.5
 62
256
  6
BYLAYER
 49
-0.5
 62
256
  6
BYLAYER
  0
LAYOUT
  5
3C7
102
{ACAD_REACTORS
330
1A
102
}
100
AcDbPlotSettings
  1

  2
none_device
  4
ANSI_C_(22.00_x_17.00_Inches)
  6

 40
0.0
 41
0.0
 42
0.0
 43
0.0
 44
558.8
 45
431.8
 46
0.0
 47
0.0
 48
0.0
 49
0.0
140
0.0
141
0.0
142
1.0
143
1.0
 70
1024
 72
1
 73
0
 74
0
  7

 75
0
147
1.0
148
0.0
149
0.0
100
AcDbLayout
  1
Model
 70
0
 71
0
 10
0.0
 20
0.0
 11
558.8
 21
431.8
 12
0.0
 22
0.0
 32
0.0
 14
0.0
 24
0.0
 34
0.0
 15
0.0
 25
0.0
 35
0.0
146
0.0
 13
0.0
 23
0.0
 33
0.0
 16
1.0
 26
0.0
 36
0.0
 17
0.0
 27
1.0
 37
0.0
 76
0
330
216
345
0
346
0
  0
LAYOUT
  5
3C8
102
{ACAD_REACTORS
330
1A
102
}
100
AcDbPlotSettings
  1

  2
none_device
  4
ANSI_C_(22.00_x_17.00_Inches)
  6

 40
0.0
 41
0.0
 42
0.0
 43
0.0
 44
558.8
 45
431.8
 46
0.0
 47
0.0
 48
0.0
 49
0.0
140
0.0
141
0.0
142
1.0
143
1.0
 70
0
 72
1
 73
0
 74
0
  7

 75
0
147
1.0
148
0.0
149
0.0
100
AcDbLayout
  1
Layout1
 70
0
 71
1
 10
0.0
 20
0.0
 11
558.8
 21
431.8
 12
0.0
 22
0.0
 32
0.0
 14
0.0
 24
0.0
 34
0.0
 15
0.0
 25
0.0
 35
0.0
146
0.0
 13
0.0
 23
0.0
 33
0.0
 16
1.0
 26
0.0
 36
0.0
 17
0.0
 27
1.0
 37
0.0
 76
0
330
217
345
0
346
0
  0
ENDSEC
  0
EOF
