999
DXF file: PKF16M423_2D-isometric.dxf
999
Pro/ENGINEER 2018260 by Parametric Technology Corporation
  0
SECTION
  2
HEADER
  9
$ACADVER
  1
AC1027
  9
$DWGCODEPAGE
  3
ANSI_1252
  9
$EXTMAX
 10
558.8
 20
431.8
 30
0.0
  9
$EXTMIN
 10
0.0
 20
0.0
 30
0.0
  9
$LIMMIN
 10
0.0
 20
0.0
  9
$LIMMAX
 10
558.8
 20
431.8
  9
$VIEWCTR
 10
279.4
 20
215.9
  9
$VIEWSIZE
 40
431.8
  9
$CLAYER
  8
0
  9
$LTSCALE
 40
30.734
  9
$CELTYPE
  6
BYLAYER
  9
$DIMSCALE
 40
1.0
  9
$DIMASZ
 40
0.1875
  9
$DIMEXO
 40
0.0625
  9
$DIMDLI
 40
21.2344
  9
$DIMEXE
 40
0.125
  9
$DIMCEN
 40
5.0292
  9
$DIMLFAC
 40
1.0
  9
$DIMBLK
  1
_CLOSED
  9
$DIMALT
 70
0
  9
$DIMALTF
 40
0.0393700787
  9
$DIMTXT
 40
0.15625
  9
$DIMTOL
 70
0
  9
$DIMLIM
 70
0
  9
$DIMTFAC
 40
1.0
  9
$DIMGAP
 40
0.625
  9
$DIMDSEP
 70
46
  9
$AUNITS
 70
0
  9
$PDMODE
 70
3
  9
$PDSIZE
 40
0.3125
  9
$HANDSEED
  5
466
  9
$TILEMODE
 70
1
  9
$MEASUREMENT
 70
1
  9
$INSUNITS
 70
4
  0
ENDSEC
  0
SECTION
  2
CLASSES
  0
CLASS
  1
ACDBDICTIONARYWDFLT
  2
AcDbDictionaryWithDefault
  3
AutoCAD 2000
 90
0
 91
1
280
0
281
0
  0
CLASS
  1
ACDBPLACEHOLDER
  2
AcDbPlaceHolder
  3
AutoCAD 2000
 90
0
 91
1
280
0
281
0
  0
CLASS
  1
LAYOUT
  2
AcDbLayout
  3
AutoCAD 2000
 90
0
 91
0
280
0
281
0
  0
ENDSEC
  0
SECTION
  2
TABLES
  0
TABLE
  2
VPORT
  5
8
100
AcDbSymbolTable
 70
2
  0
VPORT
  5
1F4
100
AcDbSymbolTableRecord
100
AcDbViewportTableRecord
  2
*ACTIVE
 70
0
 10
0.0
 20
0.0
 11
1.0
 21
1.0
 12
279.4
 22
215.9
 13
0.0
 23
0.0
 14
1.0
 24
1.0
 15
0.0
 25
0.0
 16
0.0
 26
0.0
 36
1.0
 17
0.0
 27
0.0
 37
0.0
 40
431.8
 41
1.2941176471
 42
50.0
 43
0.0
 44
0.0
 50
0.0
 51
0.0
 71
0
 72
100
 73
1
 74
1
 75
0
 76
0
 77
0
 78
0
  0
ENDTAB
  0
TABLE
  2
LTYPE
  5
5
100
AcDbSymbolTable
 70
6
  0
LTYPE
  5
14
100
AcDbSymbolTableRecord
100
AcDbLinetypeTableRecord
  2
BYBLOCK
 70
0
  3

 72
65
 73
0
 40
0.0
  0
LTYPE
  5
15
100
AcDbSymbolTableRecord
100
AcDbLinetypeTableRecord
  2
BYLAYER
 70
0
  3

 72
65
 73
0
 40
0.0
  0
LTYPE
  5
16
100
AcDbSymbolTableRecord
100
AcDbLinetypeTableRecord
  2
CONTINUOUS
 70
64
  3
Solid line
 72
65
 73
0
 40
0.0
  0
LTYPE
  5
1F5
100
AcDbSymbolTableRecord
100
AcDbLinetypeTableRecord
  2
CENTER
 70
64
  3
____ _ ____ _ ____ _ ____ _ ____ _ ____ _ ____
 72
65
 73
4
 40
0.6
 49
0.375
 74
0
 49
-0.075
 74
0
 49
0.075
 74
0
 49
-0.075
 74
0
  0
LTYPE
  5
1F6
100
AcDbSymbolTableRecord
100
AcDbLinetypeTableRecord
  2
HIDDEN
 70
64
  3
- - - - - - - - - - - - - - - - - - - -
 72
65
 73
2
 40
0.2
 49
0.1
 74
0
 49
-0.1
 74
0
  0
LTYPE
  5
1F7
100
AcDbSymbolTableRecord
100
AcDbLinetypeTableRecord
  2
PHANTOM
 70
64
  3
_____ _ _ _____ _ _ _____ _ _ _____
 72
65
 73
6
 40
0.8
 49
0.45
 74
0
 49
-0.05
 74
0
 49
0.1
 74
0
 49
-0.05
 74
0
 49
0.1
 74
0
 49
-0.05
 74
0
  0
LTYPE
  5
1F8
100
AcDbSymbolTableRecord
100
AcDbLinetypeTableRecord
  2
DOT
 70
64
  3
. . . . . . . . . . . . . . . . . . . .
 72
65
 73
2
 40
0.2
 49
0.1
 74
0
 49
-0.1
 74
0
  0
LTYPE
  5
1F9
100
AcDbSymbolTableRecord
100
AcDbLinetypeTableRecord
  2
DASHED
 70
64
  3
- - - - - - - - - - - - - - - - - - - -
 72
65
 73
2
 40
0.2
 49
0.1
 74
0
 49
-0.1
 74
0
  0
ENDTAB
  0
TABLE
  2
LAYER
  5
2
100
AcDbSymbolTable
 70
36
  0
LAYER
  5
10
100
AcDbSymbolTableRecord
100
AcDbLayerTableRecord
  2
0
 70
0
 62
7
  6
CONTINUOUS
370
-3
390
F
  0
LAYER
  5
1FA
100
AcDbSymbolTableRecord
100
AcDbLayerTableRecord
  2
DEFAULT_1
 70
0
 62
7
  6
CENTER
370
-3
390
F
  0
LAYER
  5
1FB
100
AcDbSymbolTableRecord
100
AcDbLayerTableRecord
  2
DEFAULT_2
 70
0
 62
8
  6
HIDDEN
370
-3
390
F
  0
LAYER
  5
1FC
100
AcDbSymbolTableRecord
100
AcDbLayerTableRecord
  2
DEFAULT_3
 70
0
 62
7
  6
PHANTOM
370
-3
390
F
  0
ENDTAB
  0
TABLE
  2
STYLE
  5
3
100
AcDbSymbolTable
 70
1
  0
STYLE
  5
11
100
AcDbSymbolTableRecord
100
AcDbTextStyleTableRecord
  2
STANDARD
 70
0
 40
0.0
 41
0.8
 50
0.0
 71
0
 42
0.2
  3
txt
  4

  0
STYLE
  5
1FD
100
AcDbSymbolTableRecord
100
AcDbTextStyleTableRecord
  2
TEXTSTYLE_1
 70
0
 40
0.0
 41
0.8
 50
0.0
 71
0
 42
0.2
  3
gdt
  4

  0
ENDTAB
  0
TABLE
  2
VIEW
  5
6
100
AcDbSymbolTable
 70
0
  0
ENDTAB
  0
TABLE
  2
UCS
  5
7
100
AcDbSymbolTable
 70
0
  0
ENDTAB
  0
TABLE
  2
APPID
  5
9
100
AcDbSymbolTable
 70
1
  0
APPID
  5
1FE
100
AcDbSymbolTableRecord
100
AcDbRegAppTableRecord
  2
ACAD
 70
0
  0
ENDTAB
  0
TABLE
  2
BLOCK_RECORD
  5
1
100
AcDbSymbolTable
 70
0
  0
BLOCK_RECORD
  5
1FF
100
AcDbSymbolTableRecord
100
AcDbBlockTableRecord
  2
*Model_Space
  0
BLOCK_RECORD
  5
200
100
AcDbSymbolTableRecord
100
AcDbBlockTableRecord
  2
*Paper_Space
  0
BLOCK_RECORD
  5
201
100
AcDbSymbolTableRecord
100
AcDbBlockTableRecord
  2
_CLOSED
  0
ENDTAB
  0
TABLE
  2
DIMSTYLE
  5
A
100
AcDbSymbolTable
 70
1
100
AcDbDimStyleTable
 71
0
  0
DIMSTYLE
105
202
100
AcDbSymbolTableRecord
100
AcDbDimStyleTableRecord
  2
STANDARD
 70
0
  3

  4

 40
1.0
 41
0.1875
 42
0.0625
 43
0.38
 44
0.125
 45
0.0
 46
0.0
 47
0.01
 48
0.01
140
0.15625
141
0.09
142
0.0
143
25.4
144
1.0
145
0.0
146
1.0
147
0.625
 71
0.0
 72
0.0
 73
1
 74
1
 75
0
 76
0
 77
0
 78
8
 79
2
170
0
171
1
172
0
173
0
174
0
175
0
176
0
177
0
178
0
270
2
179
2
271
2
272
2
273
2
274
2
275
0
280
0
281
0
282
0
283
1
284
8
285
0
286
0
287
3
288
0
340
11
278
46
341
201
342
201
343
201
344
201
  0
ENDTAB
  0
ENDSEC
  0
SECTION
  2
BLOCKS
  0
BLOCK
  5
20
100
AcDbEntity
  8
0
100
AcDbBlockBegin
  2
*Model_Space
 70
0
 10
0.0
 20
0.0
 30
0.0
  3
*Model_Space
  1

  0
ENDBLK
  5
21
100
AcDbEntity
  8
0
100
AcDbBlockEnd
  0
BLOCK
  5
1C
100
AcDbEntity
  8
0
100
AcDbBlockBegin
  2
*Paper_Space
 70
0
 10
0.0
 20
0.0
 30
0.0
  3
*Paper_Space
  1

  0
ENDBLK
  5
1D
100
AcDbEntity
  8
0
100
AcDbBlockEnd
  0
BLOCK
  5
203
100
AcDbEntity
  8
0
100
AcDbBlockBegin
  2
_CLOSED
 70
64
 10
0.0
 20
0.0
  3
_CLOSED
  1

  0
LINE
  5
204
100
AcDbEntity
  8
0
  6
BYBLOCK
 62
0
100
AcDbLine
 10
0.0
 20
0.0
 11
-1.0
 21
0.1666666667
  0
LINE
  5
205
100
AcDbEntity
  8
0
  6
BYBLOCK
 62
0
100
AcDbLine
 10
-1.0
 20
0.1666666667
 11
-1.0
 21
-0.1666666667
  0
LINE
  5
206
100
AcDbEntity
  8
0
  6
BYBLOCK
 62
0
100
AcDbLine
 10
-1.0
 20
-0.1666666667
 11
0.0
 21
0.0
  0
LINE
  5
207
100
AcDbEntity
  8
0
  6
BYBLOCK
 62
0
100
AcDbLine
 10
-1.0
 20
0.0
 11
0.0
 21
0.0
  0
ENDBLK
  5
208
100
AcDbEntity
  8
0
  6
BYBLOCK
 62
0
100
AcDbBlockEnd
  0
ENDSEC
  0
SECTION
  2
ENTITIES
  0
LINE
  5
209
100
AcDbEntity
  8
0
100
AcDbLine
 62
7
  6
CONTINUOUS
 10
-121.8891582887
 20
251.8159336463
 11
-121.8909269901
 21
251.791525094
  0
LINE
  5
20A
100
AcDbEntity
  8
0
100
AcDbLine
 62
7
  6
CONTINUOUS
 10
-121.888284683
 20
251.816087816
 11
-121.8909269901
 21
251.791525094
  0
LINE
  5
20B
100
AcDbEntity
  8
0
100
AcDbLine
 62
7
  6
CONTINUOUS
 10
-121.0994862
 20
258.0582005074
 11
-121.0994647787
 21
258.0583021939
  0
LWPOLYLINE
  5
20C
100
AcDbEntity
  8
0
100
AcDbPolyline
 62
7
  6
CONTINUOUS
 90
5
 70
0
 10
-122.7659758061
 20
247.1682479526
 10
-122.9169546164
 20
246.9139003401
 10
-122.9987954295
 20
246.6190812097
 10
-123.0005752594
 20
246.3120587466
 10
-122.9593259952
 20
246.1278225739
  0
LWPOLYLINE
  5
20D
100
AcDbEntity
  8
0
100
AcDbPolyline
 62
7
  6
CONTINUOUS
 90
7
 70
0
 10
-119.3958945031
 20
237.5137638711
 10
-119.4451812987
 20
237.3820546636
 10
-119.4867275977
 20
237.1246973703
 10
-119.4603422509
 20
236.8645425733
 10
-119.3662316453
 20
236.6225068968
 10
-119.2108302927
 20
236.4182675473
 10
-119.1104422774
 20
236.3332617906
  0
LINE
  5
20E
100
AcDbEntity
  8
0
100
AcDbLine
 62
7
  6
CONTINUOUS
 10
-119.3958893352
 20
237.513775722
 11
-119.1050609641
 21
238.1522043739
  0
LINE
  5
20F
100
AcDbEntity
  8
0
100
AcDbLine
 62
7
  6
CONTINUOUS
 10
-118.7786164046
 20
237.9773482784
 11
-119.0759928946
 21
237.3245451462
  0
LINE
  5
210
100
AcDbEntity
  8
0
100
AcDbLine
 62
7
  6
CONTINUOUS
 10
-122.6569934076
 20
247.2848200425
 11
-122.7659758061
 21
247.1682479526
  0
LINE
  5
211
100
AcDbEntity
  8
0
100
AcDbLine
 62
7
  6
CONTINUOUS
 10
-122.9593031659
 20
246.1278101107
 11
-122.9593576875
 21
246.1279791532
  0
LWPOLYLINE
  5
212
100
AcDbEntity
  8
0
100
AcDbPolyline
 62
7
  6
CONTINUOUS
 90
6
 70
0
 10
-111.7880710562
 20
232.1314576698
 10
-111.77582415
 20
231.9845481335
 10
-111.6937418965
 20
231.7368204033
 10
-111.540034915
 20
231.5270475917
 10
-111.3254731929
 20
231.3733116711
 10
-111.1711135204
 20
231.3138126794
  0
LINE
  5
213
100
AcDbEntity
  8
0
100
AcDbLine
 62
7
  6
CONTINUOUS
 10
-111.7880710109
 20
232.1313838217
 11
-111.7880791483
 21
232.21811646
  0
LINE
  5
214
100
AcDbEntity
  8
0
100
AcDbLine
 62
7
  6
CONTINUOUS
 10
-111.4687734619
 20
232.0772020765
 11
-111.4687623211
 21
231.9482639194
  0
LINE
  5
215
100
AcDbEntity
  8
0
100
AcDbLine
 62
7
  6
CONTINUOUS
 10
-122.6569905074
 20
247.2848229442
 11
-122.1491055174
 21
247.7472215043
  0
LINE
  5
216
100
AcDbEntity
  8
0
100
AcDbLine
 62
7
  6
CONTINUOUS
 10
-121.8158095735
 20
247.574119427
 11
-122.3309361776
 21
247.1051278152
  0
LINE
  5
217
100
AcDbEntity
  8
0
100
AcDbLine
 62
7
  6
CONTINUOUS
 10
-119.1224796607
 20
238.1139667187
 11
-119.1347780669
 21
238.133323388
  0
LWPOLYLINE
  5
218
100
AcDbEntity
  8
0
100
AcDbPolyline
 62
7
  6
CONTINUOUS
 90
6
 70
0
 10
-120.3305694924
 20
258.9516578409
 10
-120.4412154755
 20
258.9135450576
 10
-120.6771536921
 20
258.7698209998
 10
-120.8828612343
 20
258.5490598432
 10
-121.0360085045
 20
258.2680311763
 10
-121.0994933478
 20
258.0582284148
  0
LINE
  5
219
100
AcDbEntity
  8
0
100
AcDbLine
 62
7
  6
CONTINUOUS
 10
-119.1309531951
 20
238.1054644683
 11
-119.1440563873
 21
238.1240321823
  0
LINE
  5
21A
100
AcDbEntity
  8
0
100
AcDbLine
 62
7
  6
CONTINUOUS
 10
-94.19737797
 20
275.4868304875
 11
-94.1973855762
 21
275.574862046
  0
LINE
  5
21B
100
AcDbEntity
  8
0
100
AcDbLine
 62
7
  6
CONTINUOUS
 10
-94.1981284575
 20
275.4993883578
 11
-94.1973855762
 21
275.5748623681
  0
LINE
  5
21C
100
AcDbEntity
  8
0
100
AcDbLine
 62
7
  6
CONTINUOUS
 10
-99.659735612
 20
227.5428200294
 11
-99.6390932521
 21
227.5881344016
  0
LINE
  5
21D
100
AcDbEntity
  8
0
100
AcDbLine
 62
7
  6
CONTINUOUS
 10
-94.1460110773
 20
274.8740526884
 11
-94.1981261415
 21
275.4957557482
  0
LINE
  5
21E
100
AcDbEntity
  8
0
100
AcDbLine
 62
7
  6
CONTINUOUS
 10
-89.3769809427
 20
266.1398870062
 11
-89.3769769924
 21
266.0939538333
  0
LINE
  5
21F
100
AcDbEntity
  8
0
100
AcDbLine
 62
7
  6
CONTINUOUS
 10
-80.7438684016
 20
265.3891257026
 11
-80.7645107407
 21
265.3438114075
  0
LINE
  5
220
100
AcDbEntity
  8
0
100
AcDbLine
 62
7
  6
CONTINUOUS
 10
-105.7586584458
 20
233.3640111633
 11
-105.7229006015
 21
233.396566565
  0
LINE
  5
221
100
AcDbEntity
  8
0
100
AcDbLine
 62
7
  6
CONTINUOUS
 10
-119.1102664027
 20
236.3331588067
 11
-119.1105854857
 21
236.3333906272
  0
LINE
  5
222
100
AcDbEntity
  8
0
100
AcDbLine
 62
7
  6
CONTINUOUS
 10
-104.1447436263
 20
275.1883856841
 11
-104.1185334774
 21
275.1063054548
  0
LINE
  5
223
100
AcDbEntity
  8
0
100
AcDbLine
 62
7
  6
CONTINUOUS
 10
-63.9549275887
 20
201.8584542523
 11
-68.7405596739
 21
204.6225464671
  0
LINE
  5
224
100
AcDbEntity
  8
0
100
AcDbLine
 62
7
  6
CONTINUOUS
 10
-46.6407568457
 20
192.4355188525
 11
-42.028754261
 21
189.7717118123
  0
LINE
  5
225
100
AcDbEntity
  8
0
100
AcDbLine
 62
7
  6
CONTINUOUS
 10
-49.5710940082
 20
194.7054352438
 11
-63.454777469
 21
202.724392967
  0
LINE
  5
226
100
AcDbEntity
  8
0
100
AcDbLine
 62
7
  6
CONTINUOUS
 10
-36.49089405
 20
187.9663949884
 11
-32.6259320107
 21
185.7340646935
  0
LINE
  5
227
100
AcDbEntity
  8
0
100
AcDbLine
 62
7
  6
CONTINUOUS
 10
-119.0918487552
 20
236.3212186781
 11
-119.1102664027
 21
236.3331588067
  0
LWPOLYLINE
  5
228
100
AcDbEntity
  8
0
100
AcDbPolyline
 62
7
  6
CONTINUOUS
 90
7
 70
0
 10
-94.197379622
 20
275.5758881618
 10
-94.2297574455
 20
275.8129075117
 10
-94.3281968075
 20
276.0345714902
 10
-94.4862227226
 20
276.2183001613
 10
-94.6943521769
 20
276.3504977328
 10
-94.9402738067
 20
276.4193254174
 10
-95.0934458332
 20
276.4263454016
  0
LINE
  5
229
100
AcDbEntity
  8
0
100
AcDbLine
 62
7
  6
CONTINUOUS
 10
-78.0698599603
 20
216.0737617617
 11
-96.5176106745
 21
226.728839968
  0
LINE
  5
22A
100
AcDbEntity
  8
0
100
AcDbLine
 62
7
  6
CONTINUOUS
 10
-46.2797331139
 20
198.4047239281
 11
-32.4168769418
 21
190.3977956601
  0
LINE
  5
22B
100
AcDbEntity
  8
0
100
AcDbLine
 62
7
  6
CONTINUOUS
 10
-101.5122104251
 20
232.3274459436
 11
-103.7419244141
 21
233.6152873341
  0
LINE
  5
22C
100
AcDbEntity
  8
0
100
AcDbLine
 62
7
  6
CONTINUOUS
 10
-47.3328639811
 20
201.4963880949
 11
-39.1221516724
 21
196.7540331523
  0
LWPOLYLINE
  5
22D
100
AcDbEntity
  8
0
100
AcDbPolyline
 62
7
  6
CONTINUOUS
 90
4
 70
0
 10
-107.8264009499
 20
242.8111024567
 10
-107.8450748757
 20
242.8250105562
 10
-107.8638661513
 20
242.8327973413
 10
-107.882525212
 20
242.8467059603
  0
LWPOLYLINE
  5
22E
100
AcDbEntity
  8
0
100
AcDbPolyline
 62
7
  6
CONTINUOUS
 90
3
 70
0
 10
-93.4729406644
 20
272.6465113695
 10
-93.9135149763
 20
273.8660664533
 10
-94.1460110773
 20
274.8740526884
  0
LINE
  5
22F
100
AcDbEntity
  8
0
100
AcDbLine
 62
7
  6
CONTINUOUS
 10
-75.5814536052
 20
254.7484559903
 11
-76.0398918547
 21
263.5694683186
  0
LINE
  5
230
100
AcDbEntity
  8
0
100
AcDbLine
 62
7
  6
CONTINUOUS
 10
-74.4711164199
 20
259.7544233688
 11
-74.1685381869
 21
253.9323822849
  0
LINE
  5
231
100
AcDbEntity
  8
0
100
AcDbLine
 62
7
  6
CONTINUOUS
 10
-100.985171797
 20
227.910334626
 11
-99.0853704907
 21
227.3414962168
  0
LINE
  5
232
100
AcDbEntity
  8
0
100
AcDbLine
 62
7
  6
CONTINUOUS
 10
-98.9307497647
 20
227.2980552405
 11
-97.8938701663
 21
226.9612153816
  0
LINE
  5
233
100
AcDbEntity
  8
0
100
AcDbLine
 62
7
  6
CONTINUOUS
 10
-32.6333426278
 20
195.4137758428
 11
-26.6331255952
 21
191.948161919
  0
LINE
  5
234
100
AcDbEntity
  8
0
100
AcDbLine
 62
7
  6
CONTINUOUS
 10
-107.7487152466
 20
242.762030919
 11
-107.8825252485
 21
242.846705889
  0
LINE
  5
235
100
AcDbEntity
  8
0
100
AcDbLine
 62
7
  6
CONTINUOUS
 10
-98.2312000649
 20
261.6190152366
 11
-98.2105508038
 21
261.5847738536
  0
LINE
  5
236
100
AcDbEntity
  8
0
100
AcDbLine
 62
7
  6
CONTINUOUS
 10
-103.8210593732
 20
274.6130216056
 11
-104.1185334774
 21
275.1063054548
  0
LINE
  5
237
100
AcDbEntity
  8
0
100
AcDbLine
 62
7
  6
CONTINUOUS
 10
-104.1453991188
 20
275.1894640705
 11
-103.8340893113
 21
274.6732458647
  0
LINE
  5
238
100
AcDbEntity
  8
0
100
AcDbLine
 62
7
  6
CONTINUOUS
 10
-93.472941688
 20
272.6465136466
 11
-93.4728966982
 21
272.6464060813
  0
LINE
  5
239
100
AcDbEntity
  8
0
100
AcDbLine
 62
7
  6
CONTINUOUS
 10
-49.3836051101
 20
247.0596469086
 11
-50.6920425767
 21
246.6080419252
  0
LINE
  5
23A
100
AcDbEntity
  8
0
100
AcDbLine
 62
7
  6
CONTINUOUS
 10
-2.9103971039
 20
232.5207749403
 11
-6.2161823416
 21
231.6346410828
  0
LWPOLYLINE
  5
23B
100
AcDbEntity
  8
0
100
AcDbPolyline
 62
7
  6
CONTINUOUS
 90
3
 70
0
 10
-111.171112448
 20
231.3138137486
 10
-108.4096276696
 20
230.5707413843
 10
-107.5963136417
 20
230.3682275381
  0
LINE
  5
23C
100
AcDbEntity
  8
0
100
AcDbLine
 62
7
  6
CONTINUOUS
 10
-97.8938701663
 20
226.9612153816
 11
-97.8926548621
 21
226.9608780392
  0
LINE
  5
23D
100
AcDbEntity
  8
0
100
AcDbLine
 62
7
  6
CONTINUOUS
 10
-111.1714349387
 20
231.3139027535
 11
-111.1711135204
 21
231.3138126794
  0
LINE
  5
23E
100
AcDbEntity
  8
0
100
AcDbLine
 62
7
  6
CONTINUOUS
 10
-107.7875937822
 20
242.7865621436
 11
-107.7484002542
 21
242.7642012329
  0
LWPOLYLINE
  5
23F
100
AcDbEntity
  8
0
100
AcDbPolyline
 62
7
  6
CONTINUOUS
 90
4
 70
0
 10
-98.3437737338
 20
261.74804793
 10
-98.5928547282
 20
262.0386150722
 10
-98.8849431724
 20
262.3885534485
 10
-99.1173277534
 20
262.6745399673
  0
LINE
  5
240
100
AcDbEntity
  8
0
100
AcDbLine
 62
7
  6
CONTINUOUS
 10
-99.1173283866
 20
262.6745407626
 11
-99.2984447463
 21
262.9023914851
  0
LINE
  5
241
100
AcDbEntity
  8
0
100
AcDbLine
 62
7
  6
CONTINUOUS
 10
-104.1450808175
 20
275.1889418861
 11
-104.2140436418
 21
275.2852475852
  0
LINE
  5
242
100
AcDbEntity
  8
0
100
AcDbLine
 62
7
  6
CONTINUOUS
 10
-64.4242404873
 20
238.6494155929
 11
-64.4242404873
 21
237.4526677733
  0
LINE
  5
243
100
AcDbEntity
  8
0
100
AcDbLine
 62
7
  6
CONTINUOUS
 10
-18.6471975479
 20
233.9317330701
 11
-17.9259590973
 21
234.1250649911
  0
LINE
  5
244
100
AcDbEntity
  8
0
100
AcDbLine
 62
7
  6
CONTINUOUS
 10
-107.8361054831
 20
241.8521731924
 11
-107.6674830581
 21
241.7823398471
  0
LWPOLYLINE
  5
245
100
AcDbEntity
  8
0
100
AcDbPolyline
 62
7
  6
CONTINUOUS
 90
4
 70
0
 10
-90.1297735328
 20
267.1038477453
 10
-91.5638033371
 20
269.1346771494
 10
-92.693162867
 20
271.0253948695
 10
-93.4728966982
 20
272.6464060813
  0
LWPOLYLINE
  5
246
100
AcDbEntity
  8
0
100
AcDbPolyline
 62
7
  6
CONTINUOUS
 90
4
 70
0
 10
-89.4727715321
 20
266.2593130452
 10
-89.6847415133
 20
266.5270519658
 10
-89.9327716074
 20
266.8459515512
 10
-90.129772279
 20
267.1038460761
  0
LINE
  5
247
100
AcDbEntity
  8
0
100
AcDbLine
 62
7
  6
CONTINUOUS
 10
-52.3190894738
 20
247.7721479042
 11
-52.3190894738
 21
245.6962009299
  0
LINE
  5
248
100
AcDbEntity
  8
0
100
AcDbLine
 62
7
  6
CONTINUOUS
 10
-50.9961685097
 20
246.4725406133
 11
-50.9961689112
 21
249.1781000819
  0
LINE
  5
249
100
AcDbEntity
  8
0
100
AcDbLine
 62
7
  6
CONTINUOUS
 10
-41.3606026812
 20
239.3717043783
 11
-39.972992129
 21
239.7436609946
  0
LINE
  5
24A
100
AcDbEntity
  8
0
100
AcDbLine
 62
7
  6
CONTINUOUS
 10
-47.1865515064
 20
239.2382996548
 11
-47.2974524096
 21
239.2085720596
  0
LINE
  5
24B
100
AcDbEntity
  8
0
100
AcDbLine
 62
7
  6
CONTINUOUS
 10
-104.8981311375
 20
253.0245354545
 11
-104.9338810989
 21
253.0379074945
  0
LINE
  5
24C
100
AcDbEntity
  8
0
100
AcDbLine
 62
7
  6
CONTINUOUS
 10
-64.4242404873
 20
237.4526677733
 11
-47.6741331681
 21
227.7781168639
  0
LINE
  5
24D
100
AcDbEntity
  8
0
100
AcDbLine
 62
7
  6
CONTINUOUS
 10
-43.1422524465
 20
225.7631274522
 11
-47.360144804
 21
228.1992925287
  0
LINE
  5
24E
100
AcDbEntity
  8
0
100
AcDbLine
 62
7
  6
CONTINUOUS
 10
-64.4242404873
 20
238.6494155929
 11
-63.6490327555
 21
238.2016699131
  0
LWPOLYLINE
  5
24F
100
AcDbEntity
  8
0
100
AcDbPolyline
 62
7
  6
CONTINUOUS
 90
6
 70
0
 10
-104.2140436418
 20
275.2852475852
 10
-104.3968845143
 20
275.4425336226
 10
-104.6294567845
 20
275.5375275643
 10
-104.9001487145
 20
275.5559675177
 10
-105.1852582171
 20
275.487047307
 10
-105.3714508854
 20
275.3914590827
  0
LWPOLYLINE
  5
250
100
AcDbEntity
  8
0
100
AcDbPolyline
 62
7
  6
CONTINUOUS
 90
3
 70
0
 10
-82.7958490358
 20
267.723303341
 10
-84.0216930769
 20
269.061754748
 10
-85.0607919965
 20
270.1115797631
  0
LINE
  5
251
100
AcDbEntity
  8
0
100
AcDbLine
 62
7
  6
CONTINUOUS
 10
-81.4414830059
 20
266.1894801185
 11
-82.7958490358
 21
267.723303341
  0
LINE
  5
252
100
AcDbEntity
  8
0
100
AcDbLine
 62
7
  6
CONTINUOUS
 10
-80.8317794954
 20
265.4899781303
 11
-81.4414862068
 21
266.1894837685
  0
LINE
  5
253
100
AcDbEntity
  8
0
100
AcDbLine
 62
7
  6
CONTINUOUS
 10
-47.5396065551
 20
246.6880591334
 11
-47.5574083089
 21
247.4194075768
  0
LINE
  5
254
100
AcDbEntity
  8
0
100
AcDbLine
 62
7
  6
CONTINUOUS
 10
-45.1630973923
 20
241.7393177889
 11
-42.0639237319
 21
242.5700682803
  0
LINE
  5
255
100
AcDbEntity
  8
0
100
AcDbLine
 62
7
  6
CONTINUOUS
 10
-48.2177438803
 20
243.103097667
 11
-48.3331117388
 21
243.07217268
  0
LINE
  5
256
100
AcDbEntity
  8
0
100
AcDbLine
 62
7
  6
CONTINUOUS
 10
-68.3817024335
 20
250.590004644
 11
-70.0618176255
 21
251.5604184701
  0
LINE
  5
257
100
AcDbEntity
  8
0
100
AcDbLine
 62
7
  6
CONTINUOUS
 10
-75.5814536052
 20
254.7484559903
 11
-74.1685381869
 21
253.9323822849
  0
LWPOLYLINE
  5
258
100
AcDbEntity
  8
0
100
AcDbPolyline
 62
7
  6
CONTINUOUS
 90
4
 70
0
 10
-85.0605483309
 20
270.1113488467
 10
-85.5813518798
 20
270.5810736507
 10
-86.1271382971
 20
271.0053994577
 10
-86.3109234858
 20
271.1273401325
  0
LINE
  5
259
100
AcDbEntity
  8
0
100
AcDbLine
 62
7
  6
CONTINUOUS
 10
-85.0607919965
 20
270.1115797631
 11
-85.0605453532
 21
270.111345955
  0
LINE
  5
25A
100
AcDbEntity
  8
0
100
AcDbLine
 62
7
  6
CONTINUOUS
 10
-77.1496311087
 20
262.8744700672
 11
-77.149769244
 21
262.8746058539
  0
LINE
  5
25B
100
AcDbEntity
  8
0
100
AcDbLine
 62
7
  6
CONTINUOUS
 10
-41.2169074462
 20
242.6531508093
 11
-41.3412552905
 21
247.7617262559
  0
LINE
  5
25C
100
AcDbEntity
  8
0
100
AcDbLine
 62
7
  6
CONTINUOUS
 10
-41.1791390996
 20
242.2817596829
 11
-41.512032884
 21
240.0603356851
  0
LINE
  5
25D
100
AcDbEntity
  8
0
100
AcDbLine
 62
7
  6
CONTINUOUS
 10
-39.9729921291
 20
239.7436609945
 11
-39.9461433545
 21
239.9228247847
  0
LINE
  5
25E
100
AcDbEntity
  8
0
100
AcDbLine
 62
7
  6
CONTINUOUS
 10
-49.0910921222
 20
246.2310226731
 11
-45.9919184618
 21
247.0617731645
  0
LINE
  5
25F
100
AcDbEntity
  8
0
100
AcDbLine
 62
7
  6
CONTINUOUS
 10
-52.305374728
 20
245.6948854262
 11
-47.5464822435
 21
246.9705326482
  0
LINE
  5
260
100
AcDbEntity
  8
0
100
AcDbLine
 62
7
  6
CONTINUOUS
 10
-47.5514661015
 20
247.1752842044
 11
-51.726767025
 21
246.0560719
  0
LINE
  5
261
100
AcDbEntity
  8
0
100
AcDbLine
 62
7
  6
CONTINUOUS
 10
-40.7179953647
 20
250.3889767825
 11
-40.5068248688
 21
250.4455843163
  0
LINE
  5
262
100
AcDbEntity
  8
0
100
AcDbLine
 62
7
  6
CONTINUOUS
 10
-47.5398849971
 20
246.6983420978
 11
-50.6814315921
 21
245.856270495
  0
LINE
  5
263
100
AcDbEntity
  8
0
100
AcDbLine
 62
7
  6
CONTINUOUS
 10
-50.6814157552
 20
245.856211412
 11
-49.0910921223
 21
246.2310226731
  0
LINE
  5
264
100
AcDbEntity
  8
0
100
AcDbLine
 62
7
  6
CONTINUOUS
 10
-113.1800502297
 20
268.7257405307
 11
-113.6952503561
 21
268.9184477549
  0
LINE
  5
265
100
AcDbEntity
  8
0
100
AcDbLine
 62
7
  6
CONTINUOUS
 10
-113.8504704457
 20
269.1056760486
 11
-113.3037417961
 21
268.9011768412
  0
LINE
  5
266
100
AcDbEntity
  8
0
100
AcDbLine
 62
7
  6
CONTINUOUS
 10
-29.8025989358
 20
231.7897973066
 11
-21.6168974829
 21
227.0618881698
  0
LINE
  5
267
100
AcDbEntity
  8
0
100
AcDbLine
 62
7
  6
CONTINUOUS
 10
-83.6521161824
 20
263.3542048446
 11
-85.8620310668
 21
264.6306106399
  0
LINE
  5
268
100
AcDbEntity
  8
0
100
AcDbLine
 62
7
  6
CONTINUOUS
 10
-57.8139414529
 20
251.1443728978
 11
-65.6358791428
 21
255.6621788407
  0
LINE
  5
269
100
AcDbEntity
  8
0
100
AcDbLine
 62
7
  6
CONTINUOUS
 10
-75.9381912931
 20
261.6126030072
 11
-76.2615308266
 21
261.7993579168
  0
LINE
  5
26A
100
AcDbEntity
  8
0
100
AcDbLine
 62
7
  6
CONTINUOUS
 10
-80.8343058135
 20
265.491789207
 11
-80.831779436
 21
265.489977962
  0
LINE
  5
26B
100
AcDbEntity
  8
0
100
AcDbLine
 62
7
  6
CONTINUOUS
 10
-81.4619006382
 20
266.2042906997
 11
-81.4414862068
 21
266.1894837685
  0
LINE
  5
26C
100
AcDbEntity
  8
0
100
AcDbLine
 62
7
  6
CONTINUOUS
 10
-85.163544582
 20
270.1873776344
 11
-85.0607919965
 21
270.1115797631
  0
LINE
  5
26D
100
AcDbEntity
  8
0
100
AcDbLine
 62
7
  6
CONTINUOUS
 10
-19.9496362092
 20
258.4011993805
 11
-22.942635002
 21
257.5989096444
  0
LINE
  5
26E
100
AcDbEntity
  8
0
100
AcDbLine
 62
7
  6
CONTINUOUS
 10
-35.7952702771
 20
254.1536902921
 11
-46.3959181108
 21
251.3121285203
  0
LINE
  5
26F
100
AcDbEntity
  8
0
100
AcDbLine
 62
7
  6
CONTINUOUS
 10
-21.2116218376
 20
258.1174227353
 11
-23.2834413416
 21
257.5620601582
  0
LINE
  5
270
100
AcDbEntity
  8
0
100
AcDbLine
 62
7
  6
CONTINUOUS
 10
-35.5966715807
 20
254.2614312831
 11
-47.6579037393
 21
251.0283518751
  0
LINE
  5
271
100
AcDbEntity
  8
0
100
AcDbLine
 62
7
  6
CONTINUOUS
 10
-47.6595676539
 20
251.0345001063
 11
-46.3964656264
 21
251.3121403738
  0
LINE
  5
272
100
AcDbEntity
  8
0
100
AcDbLine
 62
7
  6
CONTINUOUS
 10
-19.9507197271
 20
258.4010900644
 11
-21.2132851107
 21
258.1235682544
  0
LWPOLYLINE
  5
273
100
AcDbEntity
  8
0
100
AcDbPolyline
 62
7
  6
CONTINUOUS
 90
7
 70
0
 10
-113.8503689285
 20
269.1056384747
 10
-113.9244991054
 20
269.128917789
 10
-114.1569007363
 20
269.151750941
 10
-114.4016466764
 20
269.1025898885
 10
-114.6415262923
 20
268.9801657916
 10
-114.8598365722
 20
268.7889171686
 10
-114.9832726814
 20
268.6296276825
  0
LINE
  5
274
100
AcDbEntity
  8
0
100
AcDbLine
 62
7
  6
CONTINUOUS
 10
-19.0744220787
 20
234.1190125692
 11
-19.0324927065
 21
234.1018659126
  0
LINE
  5
275
100
AcDbEntity
  8
0
100
AcDbLine
 62
7
  6
CONTINUOUS
 10
-19.074129522
 20
234.1194945355
 11
-19.0324927065
 21
234.1018659126
  0
LINE
  5
276
100
AcDbEntity
  8
0
100
AcDbLine
 62
7
  6
CONTINUOUS
 10
-15.8484737904
 20
233.0618994989
 11
-18.6485533482
 21
234.4948569072
  0
LINE
  5
277
100
AcDbEntity
  8
0
100
AcDbLine
 62
7
  6
CONTINUOUS
 10
-75.7314116523
 20
263.9409988299
 11
-74.7972975577
 21
263.401471877
  0
LINE
  5
278
100
AcDbEntity
  8
0
100
AcDbLine
 62
7
  6
CONTINUOUS
 10
-71.5991801052
 20
265.0486661519
 11
-70.6650660105
 21
264.5091391989
  0
LINE
  5
279
100
AcDbEntity
  8
0
100
AcDbLine
 62
7
  6
CONTINUOUS
 10
-88.8823604339
 20
272.6784208984
 11
-88.8901885485
 21
272.6829513166
  0
LINE
  5
27A
100
AcDbEntity
  8
0
100
AcDbLine
 62
7
  6
CONTINUOUS
 10
-16.6911833235
 20
232.8715412152
 11
-16.6613349678
 21
232.8537243693
  0
LINE
  5
27B
100
AcDbEntity
  8
0
100
AcDbLine
 62
7
  6
CONTINUOUS
 10
-88.8879487487
 20
272.6816609081
 11
-86.3165468663
 21
271.1308794503
  0
LINE
  5
27C
100
AcDbEntity
  8
0
100
AcDbLine
 62
7
  6
CONTINUOUS
 10
-86.3164457053
 20
271.1308159165
 11
-86.310821578
 21
271.1272760461
  0
LINE
  5
27D
100
AcDbEntity
  8
0
100
AcDbLine
 62
7
  6
CONTINUOUS
 10
-107.6571166599
 20
242.7044485521
 11
-107.6478420377
 21
242.706935708
  0
LINE
  5
27E
100
AcDbEntity
  8
0
100
AcDbLine
 62
7
  6
CONTINUOUS
 10
-6.2161823416
 20
231.6346410828
 11
-7.3878839037
 21
232.2342663431
  0
LINE
  5
27F
100
AcDbEntity
  8
0
100
AcDbLine
 62
7
  6
CONTINUOUS
 10
-40.7179927428
 20
250.3889751601
 11
-40.5712387522
 21
250.3138389138
  0
LINE
  5
280
100
AcDbEntity
  8
0
100
AcDbLine
 62
7
  6
CONTINUOUS
 10
-16.6909430569
 20
232.8719428167
 11
-16.6613349678
 21
232.8537243693
  0
LINE
  5
281
100
AcDbEntity
  8
0
100
AcDbLine
 62
7
  6
CONTINUOUS
 10
-73.9622494283
 20
259.8908279559
 11
-74.4711164199
 21
259.7544233688
  0
LINE
  5
282
100
AcDbEntity
  8
0
100
AcDbLine
 62
7
  6
CONTINUOUS
 10
-93.2794713585
 20
274.6454043095
 11
-93.3005240509
 21
274.6523018138
  0
LINE
  5
283
100
AcDbEntity
  8
0
100
AcDbLine
 62
7
  6
CONTINUOUS
 10
-94.1596937534
 20
275.0148407707
 11
-94.1424824372
 21
275.0089796906
  0
LINE
  5
284
100
AcDbEntity
  8
0
100
AcDbLine
 62
7
  6
CONTINUOUS
 10
-94.1720810314
 20
274.9863029682
 11
-94.1549239993
 21
274.9803787759
  0
LINE
  5
285
100
AcDbEntity
  8
0
100
AcDbLine
 62
7
  6
CONTINUOUS
 10
-18.6410530251
 20
234.1867215572
 11
-18.6485533482
 21
234.4948569072
  0
LINE
  5
286
100
AcDbEntity
  8
0
100
AcDbLine
 62
7
  6
CONTINUOUS
 10
-18.8296369567
 20
238.2229393656
 11
-18.8295273997
 21
234.2515149274
  0
LINE
  5
287
100
AcDbEntity
  8
0
100
AcDbLine
 62
7
  6
CONTINUOUS
 10
-18.7392162939
 20
234.2501590003
 11
-18.7392661552
 21
238.2216049983
  0
LINE
  5
288
100
AcDbEntity
  8
0
100
AcDbLine
 62
7
  6
CONTINUOUS
 10
-69.8507537137
 20
263.7096077174
 11
-73.9829852609
 21
262.6019403955
  0
LINE
  5
289
100
AcDbEntity
  8
0
100
AcDbLine
 62
7
  6
CONTINUOUS
 10
-74.7972975577
 20
263.401471877
 11
-70.6650660105
 21
264.5091391989
  0
LINE
  5
28A
100
AcDbEntity
  8
0
100
AcDbLine
 62
7
  6
CONTINUOUS
 10
-71.5991801052
 20
265.0486661519
 11
-75.7314116523
 21
263.9409988299
  0
LINE
  5
28B
100
AcDbEntity
  8
0
100
AcDbLine
 62
7
  6
CONTINUOUS
 10
-71.7415832629
 20
265.0742771998
 11
-75.8738148101
 21
263.9666098779
  0
LINE
  5
28C
100
AcDbEntity
  8
0
100
AcDbLine
 62
7
  6
CONTINUOUS
 10
-15.8857964603
 20
234.5952246328
 11
-15.8484737904
 21
233.0618994989
  0
LINE
  5
28D
100
AcDbEntity
  8
0
100
AcDbLine
 62
7
  6
CONTINUOUS
 10
-119.7665815332
 20
258.828837457
 11
-120.0413208628
 21
258.7551626995
  0
LINE
  5
28E
100
AcDbEntity
  8
0
100
AcDbLine
 62
7
  6
CONTINUOUS
 10
-120.3306461604
 20
258.9516364245
 11
-120.0424638948
 21
259.0289162702
  0
LINE
  5
28F
100
AcDbEntity
  8
0
100
AcDbLine
 62
7
  6
CONTINUOUS
 10
-95.0933861405
 20
276.4263287265
 11
-95.0936302354
 21
276.4263199885
  0
LINE
  5
290
100
AcDbEntity
  8
0
100
AcDbLine
 62
7
  6
CONTINUOUS
 10
-7.3878839037
 20
232.2342663431
 11
-7.6717738704
 21
233.7213186868
  0
LINE
  5
291
100
AcDbEntity
  8
0
100
AcDbLine
 62
7
  6
CONTINUOUS
 10
-6.2715927009
 20
233.9110617366
 11
-6.2161823416
 21
231.6346410828
  0
LINE
  5
292
100
AcDbEntity
  8
0
100
AcDbLine
 62
7
  6
CONTINUOUS
 10
-2.9103971039
 20
232.5207749403
 11
-2.9586631158
 21
234.5036847747
  0
LINE
  5
293
100
AcDbEntity
  8
0
100
AcDbLine
 62
7
  6
CONTINUOUS
 10
8.7502717453
 20
244.6099611641
 11
8.643939179
 21
248.978415966
  0
LINE
  5
294
100
AcDbEntity
  8
0
100
AcDbLine
 62
7
  6
CONTINUOUS
 10
10.5990874002
 20
240.1522072198
 11
10.5622619672
 21
241.685830305
  0
ARC
  5
295
100
AcDbEntity
  8
0
100
AcDbCircle
 62
7
  6
CONTINUOUS
 10
-352.3831617019
 20
26.8584035483
 40
361.5033299688
100
AcDbArc
 50
41.3085667725
 51
41.4591053707
  0
ARC
  5
296
100
AcDbEntity
  8
0
100
AcDbCircle
 62
7
  6
CONTINUOUS
 10
-107.3483577373
 20
225.8144128732
 40
67.4003658115
100
AcDbArc
 50
12.7810432487
 51
14.3946165674
  0
ARC
  5
297
100
AcDbEntity
  8
0
100
AcDbCircle
 62
7
  6
CONTINUOUS
 10
-106.4017337676
 20
226.0192334752
 40
66.4318858131
100
AcDbArc
 50
10.0940628483
 51
12.7893851081
  0
ARC
  5
298
100
AcDbEntity
  8
0
100
AcDbCircle
 62
7
  6
CONTINUOUS
 10
-106.511755577
 20
247.8282477638
 40
16.0643347421
100
AcDbArc
 50
217.5427904554
 51
217.807789506
  0
ARC
  5
299
100
AcDbEntity
  8
0
100
AcDbCircle
 62
7
  6
CONTINUOUS
 10
-106.7052158761
 20
246.8845804964
 40
15.2142025762
100
AcDbArc
 50
210.2754608025
 51
215.1566454177
  0
ARC
  5
29A
100
AcDbEntity
  8
0
100
AcDbCircle
 62
7
  6
CONTINUOUS
 10
-111.048705813
 20
232.0098861711
 40
0.1165305693
100
AcDbArc
 50
231.5279098357
 51
241.2783374205
  0
ARC
  5
29B
100
AcDbEntity
  8
0
100
AcDbCircle
 62
7
  6
CONTINUOUS
 10
-96.239489933
 20
226.3667923358
 40
53.1006689222
100
AcDbArc
 50
359.3486297665
 51
1.0761543376
  0
ARC
  5
29C
100
AcDbEntity
  8
0
100
AcDbCircle
 62
7
  6
CONTINUOUS
 10
-92.9955967705
 20
242.8235231822
 40
33.6927321756
100
AcDbArc
 50
105.7610494945
 51
107.2631792066
  0
ARC
  5
29D
100
AcDbEntity
  8
0
100
AcDbCircle
 62
7
  6
CONTINUOUS
 10
-93.1823839042
 20
243.4932439227
 40
32.9974548299
100
AcDbArc
 50
105.0144394368
 51
105.7647811759
  0
ARC
  5
29E
100
AcDbEntity
  8
0
100
AcDbCircle
 62
7
  6
CONTINUOUS
 10
-93.5058191624
 20
244.7888322118
 40
31.6623157849
100
AcDbArc
 50
99.9210663924
 51
105.0565032178
  0
ARC
  5
29F
100
AcDbEntity
  8
0
100
AcDbCircle
 62
7
  6
CONTINUOUS
 10
-92.2035810784
 20
247.6218450711
 40
30.2596727247
100
AcDbArc
 50
148.576402274
 51
151.5810195266
  0
ARC
  5
2A0
100
AcDbEntity
  8
0
100
AcDbCircle
 62
7
  6
CONTINUOUS
 10
-92.4384165798
 20
247.7418240859
 40
29.9960377895
100
AcDbArc
 50
151.5690977257
 51
157.7561730803
  0
ARC
  5
2A1
100
AcDbEntity
  8
0
100
AcDbCircle
 62
7
  6
CONTINUOUS
 10
-92.7643719687
 20
247.8785468435
 40
29.6425834978
100
AcDbArc
 50
157.762277089
 51
158.0064714112
  0
ARC
  5
2A2
100
AcDbEntity
  8
0
100
AcDbCircle
 62
7
  6
CONTINUOUS
 10
-83.8704251772
 20
247.039877956
 40
25.8093798483
100
AcDbArc
 50
211.9973278964
 51
213.7690911795
  0
ARC
  5
2A3
100
AcDbEntity
  8
0
100
AcDbCircle
 62
7
  6
CONTINUOUS
 10
-89.1032262348
 20
242.297510693
 40
24.6241670459
100
AcDbArc
 50
70.3784995086
 51
72.2354245135
  0
ARC
  5
2A4
100
AcDbEntity
  8
0
100
AcDbCircle
 62
7
  6
CONTINUOUS
 10
-88.5517458685
 20
243.3451309296
 40
23.3859072112
100
AcDbArc
 50
70.4960981153
 51
72.3811312438
  0
ARC
  5
2A5
100
AcDbEntity
  8
0
100
AcDbCircle
 62
7
  6
CONTINUOUS
 10
-85.601833919
 20
241.7793746309
 40
22.065512537
100
AcDbArc
 50
177.5907652555
 51
179.9921259009
  0
ARC
  5
2A6
100
AcDbEntity
  8
0
100
AcDbCircle
 62
7
  6
CONTINUOUS
 10
-105.9770319396
 20
247.3144876132
 40
16.0598121988
100
AcDbArc
 50
204.5594114808
 51
210.2902777742
  0
ARC
  5
2A7
100
AcDbEntity
  8
0
100
AcDbCircle
 62
7
  6
CONTINUOUS
 10
-92.8604550179
 20
240.2087965088
 40
14.5550329165
100
AcDbArc
 50
207.9066641504
 51
211.0854359962
  0
ARC
  5
2A8
100
AcDbEntity
  8
0
100
AcDbCircle
 62
7
  6
CONTINUOUS
 10
-94.2850279416
 20
240.0708471773
 40
13.5983422196
100
AcDbArc
 50
260.474782937
 51
260.6834566497
  0
ARC
  5
2A9
100
AcDbEntity
  8
0
100
AcDbCircle
 62
7
  6
CONTINUOUS
 10
-94.3282342525
 20
239.8279741613
 40
13.3516680933
100
AcDbArc
 50
254.5106911359
 51
260.4851660651
  0
ARC
  5
2AA
100
AcDbEntity
  8
0
100
AcDbCircle
 62
7
  6
CONTINUOUS
 10
-94.6051232177
 20
238.8704586891
 40
12.354420085
100
AcDbArc
 50
245.9544313553
 51
249.5066832462
  0
ARC
  5
2AB
100
AcDbEntity
  8
0
100
AcDbCircle
 62
7
  6
CONTINUOUS
 10
-96.0364822579
 20
240.5467844398
 40
11.2064448879
100
AcDbArc
 50
245.9553539466
 51
247.8303317119
  0
ARC
  5
2AC
100
AcDbEntity
  8
0
100
AcDbCircle
 62
7
  6
CONTINUOUS
 10
-94.5509844387
 20
239.1357614991
 40
10.7272451141
100
AcDbArc
 50
235.5607247645
 51
238.8391325165
  0
ARC
  5
2AD
100
AcDbEntity
  8
0
100
AcDbCircle
 62
7
  6
CONTINUOUS
 10
-97.1617998473
 20
253.7325444633
 40
26.7940968519
100
AcDbArc
 50
211.092344644
 51
212.6163514885
  0
ARC
  5
2AE
100
AcDbEntity
  8
0
100
AcDbCircle
 62
7
  6
CONTINUOUS
 10
-97.3971989315
 20
253.5817249697
 40
26.5145271378
100
AcDbArc
 50
212.6160223613
 51
212.8339932836
  0
ARC
  5
2AF
100
AcDbEntity
  8
0
100
AcDbCircle
 62
7
  6
CONTINUOUS
 10
-97.5122265744
 20
253.5073321868
 40
26.3775394549
100
AcDbArc
 50
212.8336904948
 51
213.7134031063
  0
ARC
  5
2B0
100
AcDbEntity
  8
0
100
AcDbCircle
 62
7
  6
CONTINUOUS
 10
-95.9459782187
 20
248.7146473562
 40
26.3464251581
100
AcDbArc
 50
168.6428507549
 51
173.1916131961
  0
ARC
  5
2B1
100
AcDbEntity
  8
0
100
AcDbCircle
 62
7
  6
CONTINUOUS
 10
-100.7936210426
 20
251.932210729
 40
23.9291125897
100
AcDbArc
 50
71.7637259258
 51
72.1101033177
  0
ARC
  5
2B2
100
AcDbEntity
  8
0
100
AcDbCircle
 62
7
  6
CONTINUOUS
 10
-100.6971026023
 20
252.087777281
 40
23.7466916593
100
AcDbArc
 50
71.8508572502
 51
72.3314273502
  0
ARC
  5
2B3
100
AcDbEntity
  8
0
100
AcDbCircle
 62
7
  6
CONTINUOUS
 10
-100.7204132329
 20
252.1446821873
 40
23.7044035122
100
AcDbArc
 50
67.8099203931
 51
71.7710759573
  0
ARC
  5
2B4
100
AcDbEntity
  8
0
100
AcDbCircle
 62
7
  6
CONTINUOUS
 10
-100.6514640261
 20
252.2239688411
 40
23.6030588792
100
AcDbArc
 50
69.4944442794
 51
71.7993766845
  0
ARC
  5
2B5
100
AcDbEntity
  8
0
100
AcDbCircle
 62
7
  6
CONTINUOUS
 10
-100.604767414
 20
252.3515993057
 40
23.4671575878
100
AcDbArc
 50
69.1176160214
 51
69.4920738204
  0
ARC
  5
2B6
100
AcDbEntity
  8
0
100
AcDbCircle
 62
7
  6
CONTINUOUS
 10
-100.586080926
 20
252.4002344621
 40
23.4150562624
100
AcDbArc
 50
67.8811602363
 51
69.1179170254
  0
ARC
  5
2B7
100
AcDbEntity
  8
0
100
AcDbCircle
 62
7
  6
CONTINUOUS
 10
-100.568386364
 20
252.4441597269
 40
23.3677011696
100
AcDbArc
 50
67.6626331876
 51
67.8808002863
  0
ARC
  5
2B8
100
AcDbEntity
  8
0
100
AcDbCircle
 62
7
  6
CONTINUOUS
 10
-100.5872170352
 20
252.4603822259
 40
23.3617802403
100
AcDbArc
 50
59.9542597615
 51
67.8199694777
  0
ARC
  5
2B9
100
AcDbEntity
  8
0
100
AcDbCircle
 62
7
  6
CONTINUOUS
 10
-105.3961369727
 20
255.2453296429
 40
23.3612403729
100
AcDbArc
 50
234.0523172394
 51
240.0366214187
  0
ARC
  5
2BA
100
AcDbEntity
  8
0
100
AcDbCircle
 62
7
  6
CONTINUOUS
 10
-100.5339830156
 20
252.5263151439
 40
23.2786352158
100
AcDbArc
 50
64.8581671255
 51
67.6641046702
  0
ARC
  5
2BB
100
AcDbEntity
  8
0
100
AcDbCircle
 62
7
  6
CONTINUOUS
 10
-100.491097436
 20
252.619441636
 40
23.1761112592
100
AcDbArc
 50
64.2692124886
 51
64.856329752
  0
ARC
  5
2BC
100
AcDbEntity
  8
0
100
AcDbCircle
 62
7
  6
CONTINUOUS
 10
-105.4929731944
 20
255.0750685109
 40
23.1654117181
100
AcDbArc
 50
234.0532135771
 51
239.0031309026
  0
ARC
  5
2BD
100
AcDbEntity
  8
0
100
AcDbCircle
 62
7
  6
CONTINUOUS
 10
-100.4676630368
 20
252.6677511451
 40
23.1224180493
100
AcDbArc
 50
59.9534503037
 51
64.2695531781
  0
ARC
  5
2BE
100
AcDbEntity
  8
0
100
AcDbCircle
 62
7
  6
CONTINUOUS
 10
-105.5353094739
 20
255.0074251565
 40
23.085625376
100
AcDbArc
 50
239.0067413729
 51
240.0345162512
  0
ARC
  5
2BF
100
AcDbEntity
  8
0
100
AcDbCircle
 62
7
  6
CONTINUOUS
 10
-99.3633421592
 20
248.9140517448
 40
22.9191437738
100
AcDbArc
 50
179.9874544283
 51
183.1417584452
  0
ARC
  5
2C0
100
AcDbEntity
  8
0
100
AcDbCircle
 62
7
  6
CONTINUOUS
 10
-100.5277378121
 20
249.7804819728
 40
22.4420886098
100
AcDbArc
 50
179.9470469958
 51
186.4251638949
  0
ARC
  5
2C1
100
AcDbEntity
  8
0
100
AcDbCircle
 62
7
  6
CONTINUOUS
 10
-101.3159824148
 20
249.6997388877
 40
21.6497609589
100
AcDbArc
 50
186.4462640137
 51
186.8695049228
  0
ARC
  5
2C2
100
AcDbEntity
  8
0
100
AcDbCircle
 62
7
  6
CONTINUOUS
 10
-99.2280453559
 20
256.4106537401
 40
19.6010658937
100
AcDbArc
 50
104.6350189553
 51
104.9433087641
  0
ARC
  5
2C3
100
AcDbEntity
  8
0
100
AcDbCircle
 62
7
  6
CONTINUOUS
 10
-98.3770349147
 20
256.8661452299
 40
18.9389056907
100
AcDbArc
 50
101.5769859061
 51
107.2375383359
  0
ARC
  5
2C4
100
AcDbEntity
  8
0
100
AcDbCircle
 62
7
  6
CONTINUOUS
 10
-98.6495022256
 20
258.1211972056
 40
17.6547130403
100
AcDbArc
 50
97.3117254895
 51
101.5281276937
  0
ARC
  5
2C5
100
AcDbEntity
  8
0
100
AcDbCircle
 62
7
  6
CONTINUOUS
 10
-99.3106821311
 20
260.8360462838
 40
15.1128732252
100
AcDbArc
 50
67.0614974814
 51
70.060886538
  0
ARC
  5
2C6
100
AcDbEntity
  8
0
100
AcDbCircle
 62
7
  6
CONTINUOUS
 10
-99.2957873853
 20
260.872116441
 40
15.0738502448
100
AcDbArc
 50
66.5126405343
 51
67.0602007193
  0
ARC
  5
2C7
100
AcDbEntity
  8
0
100
AcDbCircle
 62
7
  6
CONTINUOUS
 10
-98.5163049059
 20
262.1915835387
 40
13.5431151181
100
AcDbArc
 50
68.5566903665
 51
71.1582491797
  0
ARC
  5
2C8
100
AcDbEntity
  8
0
100
AcDbCircle
 62
7
  6
CONTINUOUS
 10
-98.4845989623
 20
262.2737839623
 40
13.4550135665
100
AcDbArc
 50
67.9262175677
 51
68.5543924961
  0
ARC
  5
2C9
100
AcDbEntity
  8
0
100
AcDbCircle
 62
7
  6
CONTINUOUS
 10
-98.4614289874
 20
262.3304311358
 40
13.3938113105
100
AcDbArc
 50
65.8659849377
 51
67.9270030071
  0
ARC
  5
2CA
100
AcDbEntity
  8
0
100
AcDbCircle
 62
7
  6
CONTINUOUS
 10
-93.3064858282
 20
255.6674835695
 40
31.1495578462
100
AcDbArc
 50
197.8332905931
 51
201.6206125003
  0
ARC
  5
2CB
100
AcDbEntity
  8
0
100
AcDbCircle
 62
7
  6
CONTINUOUS
 10
-93.234145326
 20
255.5690207117
 40
31.1380628123
100
AcDbArc
 50
197.8352713159
 51
201.0217352478
  0
ARC
  5
2CC
100
AcDbEntity
  8
0
100
AcDbCircle
 62
7
  6
CONTINUOUS
 10
-95.3523288576
 20
250.7501938738
 40
25.8011577862
100
AcDbArc
 50
125.0906087292
 51
128.2934278202
  0
ARC
  5
2CD
100
AcDbEntity
  8
0
100
AcDbCircle
 62
7
  6
CONTINUOUS
 10
-91.8518697826
 20
249.5867359811
 40
23.3858290273
100
AcDbArc
 50
250.4960605161
 51
252.3811272754
  0
ARC
  5
2CE
100
AcDbEntity
  8
0
100
AcDbCircle
 62
7
  6
CONTINUOUS
 10
-92.014266182
 20
249.5761923083
 40
23.3319936061
100
AcDbArc
 50
250.4115783175
 51
252.3582100145
  0
ARC
  5
2CF
100
AcDbEntity
  8
0
100
AcDbCircle
 62
7
  6
CONTINUOUS
 10
-86.7025029041
 20
253.1983061532
 40
13.5982827288
100
AcDbArc
 50
39.2932607613
 51
39.5094117049
  0
ARC
  5
2D0
100
AcDbEntity
  8
0
100
AcDbCircle
 62
7
  6
CONTINUOUS
 10
-86.4552136592
 20
253.411191724
 40
13.2720570557
100
AcDbArc
 50
39.4795428698
 51
45.4822847106
  0
ARC
  5
2D1
100
AcDbEntity
  8
0
100
AcDbCircle
 62
7
  6
CONTINUOUS
 10
-85.9802244663
 20
253.8927483225
 40
12.5956578088
100
AcDbArc
 50
45.4869910507
 51
48.7312194333
  0
ARC
  5
2D2
100
AcDbEntity
  8
0
100
AcDbCircle
 62
7
  6
CONTINUOUS
 10
-85.7984942299
 20
254.0614550119
 40
12.3544548891
100
AcDbArc
 50
65.9544350452
 51
69.5066251564
  0
ARC
  5
2D3
100
AcDbEntity
  8
0
100
AcDbCircle
 62
7
  6
CONTINUOUS
 10
-85.7559923222
 20
254.1615728043
 40
12.2457043393
100
AcDbArc
 50
48.6901562044
 51
65.9451288197
  0
ARC
  5
2D4
100
AcDbEntity
  8
0
100
AcDbCircle
 62
7
  6
CONTINUOUS
 10
-87.9836474038
 20
254.4869015523
 40
11.195212266
100
AcDbArc
 50
52.6253119983
 51
54.6519947654
  0
ARC
  5
2D5
100
AcDbEntity
  8
0
100
AcDbCircle
 62
7
  6
CONTINUOUS
 10
-86.0295169959
 20
253.8890369879
 40
10.7353124758
100
AcDbArc
 50
61.1420593309
 51
65.0711711284
  0
ARC
  5
2D6
100
AcDbEntity
  8
0
100
AcDbCircle
 62
7
  6
CONTINUOUS
 10
-88.2027911118
 20
259.5057620888
 40
6.694519707
100
AcDbArc
 50
106.5439939649
 51
107.3898570433
  0
ARC
  5
2D7
100
AcDbEntity
  8
0
100
AcDbCircle
 62
7
  6
CONTINUOUS
 10
-87.6939902207
 20
274.9709540611
 40
45.3596683923
100
AcDbArc
 50
243.5068096169
 51
244.5277612615
  0
ARC
  5
2D8
100
AcDbEntity
  8
0
100
AcDbCircle
 62
7
  6
CONTINUOUS
 10
-88.0441726438
 20
274.2486061332
 40
44.5571418416
100
AcDbArc
 50
244.5351289312
 51
246.3251017862
  0
ARC
  5
2D9
100
AcDbEntity
  8
0
100
AcDbCircle
 62
7
  6
CONTINUOUS
 10
-87.7872460058
 20
271.2060195157
 40
41.847848204
100
AcDbArc
 50
242.4002624021
 51
244.6217600641
  0
ARC
  5
2DA
100
AcDbEntity
  8
0
100
AcDbCircle
 62
7
  6
CONTINUOUS
 10
-89.9184198829
 20
271.9300389591
 40
34.0876266081
100
AcDbArc
 50
204.196307439
 51
210.0298816415
  0
ARC
  5
2DB
100
AcDbEntity
  8
0
100
AcDbCircle
 62
7
  6
CONTINUOUS
 10
-88.4436200096
 20
270.7189732902
 40
33.7867858251
100
AcDbArc
 50
200.7381279006
 51
206.9415329789
  0
ARC
  5
2DC
100
AcDbEntity
  8
0
100
AcDbCircle
 62
7
  6
CONTINUOUS
 10
-90.9748190194
 20
276.3683395563
 40
14.2927009383
100
AcDbArc
 50
184.0000125125
 51
185.3187442077
  0
ARC
  5
2DD
100
AcDbEntity
  8
0
100
AcDbCircle
 62
7
  6
CONTINUOUS
 10
-60.1449282447
 20
220.4943901803
 40
56.2296172771
100
AcDbArc
 50
132.8061151837
 51
133.8345337277
  0
ARC
  5
2DE
100
AcDbEntity
  8
0
100
AcDbCircle
 62
7
  6
CONTINUOUS
 10
-70.9927430992
 20
239.5960320836
 40
52.5880794582
100
AcDbArc
 50
146.5572673362
 51
154.8851457146
  0
ARC
  5
2DF
100
AcDbEntity
  8
0
100
AcDbCircle
 62
7
  6
CONTINUOUS
 10
-71.2281525375
 20
239.7318277677
 40
52.436549706
100
AcDbArc
 50
146.5574816402
 51
154.9073508215
  0
ARC
  5
2E0
100
AcDbEntity
  8
0
100
AcDbCircle
 62
7
  6
CONTINUOUS
 10
-71.3324752765
 20
239.7623459954
 40
52.2098770538
100
AcDbArc
 50
154.8921652539
 51
155.5088342117
  0
ARC
  5
2E1
100
AcDbEntity
  8
0
100
AcDbCircle
 62
7
  6
CONTINUOUS
 10
-71.5735381318
 20
239.8730408095
 40
51.9446149269
100
AcDbArc
 50
155.5097185624
 51
157.1884728243
  0
ARC
  5
2E2
100
AcDbEntity
  8
0
100
AcDbCircle
 62
7
  6
CONTINUOUS
 10
-78.8800278707
 20
234.9051850097
 40
48.3228942398
100
AcDbArc
 50
132.3231963877
 51
134.0832997265
  0
ARC
  5
2E3
100
AcDbEntity
  8
0
100
AcDbCircle
 62
7
  6
CONTINUOUS
 10
-65.719610004
 20
226.6842965438
 40
47.722511024
100
AcDbArc
 50
132.942432142
 51
134.1135735157
  0
ARC
  5
2E4
100
AcDbEntity
  8
0
100
AcDbCircle
 62
7
  6
CONTINUOUS
 10
-79.3222269818
 20
235.3819719458
 40
47.6726401792
100
AcDbArc
 50
131.9707536367
 51
132.3160845313
  0
ARC
  5
2E5
100
AcDbEntity
  8
0
100
AcDbCircle
 62
7
  6
CONTINUOUS
 10
-60.5873484232
 20
241.8535211807
 40
47.2487570791
100
AcDbArc
 50
178.8387182401
 51
180.0016346258
  0
ARC
  5
2E6
100
AcDbEntity
  8
0
100
AcDbCircle
 62
7
  6
CONTINUOUS
 10
-82.4701319703
 20
239.311932054
 40
42.7340766951
100
AcDbArc
 50
122.4051629703
 51
124.3936942962
  0
ARC
  5
2E7
100
AcDbEntity
  8
0
100
AcDbCircle
 62
7
  6
CONTINUOUS
 10
-82.350965222
 20
239.3214442741
 40
42.6984208444
100
AcDbArc
 50
122.4044902113
 51
124.1014550383
  0
ARC
  5
2E8
100
AcDbEntity
  8
0
100
AcDbCircle
 62
7
  6
CONTINUOUS
 10
-67.9938121299
 20
241.8033265983
 40
39.6735396331
100
AcDbArc
 50
178.6985047051
 51
180.0302115889
  0
ARC
  5
2E9
100
AcDbEntity
  8
0
100
AcDbCircle
 62
7
  6
CONTINUOUS
 10
-79.3731461395
 20
230.2340858744
 40
37.4180631007
100
AcDbArc
 50
105.6697148441
 51
107.0421140128
  0
ARC
  5
2EA
100
AcDbEntity
  8
0
100
AcDbCircle
 62
7
  6
CONTINUOUS
 10
-81.969858515
 20
248.343252843
 40
28.2212051415
100
AcDbArc
 50
211.8727266063
 51
213.5451455145
  0
ARC
  5
2EB
100
AcDbEntity
  8
0
100
AcDbCircle
 62
7
  6
CONTINUOUS
 10
-80.167115097
 20
240.6609151699
 40
27.6492723401
100
AcDbArc
 50
153.4384476713
 51
155.5132125644
  0
ARC
  5
2EC
100
AcDbEntity
  8
0
100
AcDbCircle
 62
7
  6
CONTINUOUS
 10
-82.1826060349
 20
242.5517458088
 40
24.8827484428
100
AcDbArc
 50
130.101139473
 51
132.3293548387
  0
ARC
  5
2ED
100
AcDbEntity
  8
0
100
AcDbCircle
 62
7
  6
CONTINUOUS
 10
-63.0170850164
 20
238.8043091971
 40
12.9521379539
100
AcDbArc
 50
95.4599234885
 51
104.9880799128
  0
ARC
  5
2EE
100
AcDbEntity
  8
0
100
AcDbCircle
 62
7
  6
CONTINUOUS
 10
-63.0340291114
 20
238.9037500244
 40
12.8516909743
100
AcDbArc
 50
105.0297154793
 51
114.5889444052
  0
ARC
  5
2EF
100
AcDbEntity
  8
0
100
AcDbCircle
 62
7
  6
CONTINUOUS
 10
-79.6743662619
 20
248.7375849178
 40
42.3268773986
100
AcDbArc
 50
175.862438537
 51
179.9752620558
  0
ARC
  5
2F0
100
AcDbEntity
  8
0
100
AcDbCircle
 62
7
  6
CONTINUOUS
 10
-65.0008073748
 20
261.2028256083
 40
18.4556815287
100
AcDbArc
 50
318.3301279148
 51
318.924995051
  0
ARC
  5
2F1
100
AcDbEntity
  8
0
100
AcDbCircle
 62
7
  6
CONTINUOUS
 10
-71.5718762634
 20
361.4880821869
 40
135.5445539977
100
AcDbArc
 50
252.8817243776
 51
253.2753379859
  0
ARC
  5
2F2
100
AcDbEntity
  8
0
100
AcDbCircle
 62
7
  6
CONTINUOUS
 10
-67.5076351458
 20
307.6738611489
 40
83.5768782868
100
AcDbArc
 50
242.6283081099
 51
242.7628379129
  0
ARC
  5
2F3
100
AcDbEntity
  8
0
100
AcDbCircle
 62
7
  6
CONTINUOUS
 10
-76.154891115
 20
305.9295733109
 40
81.8757132738
100
AcDbArc
 50
240.0215734143
 51
250.304583034
  0
ARC
  5
2F4
100
AcDbEntity
  8
0
100
AcDbCircle
 62
7
  6
CONTINUOUS
 10
-76.2323340978
 20
305.7485369876
 40
81.6791747523
100
AcDbArc
 50
251.0732556027
 51
252.3590454259
  0
ARC
  5
2F5
100
AcDbEntity
  8
0
100
AcDbCircle
 62
7
  6
CONTINUOUS
 10
-76.2473161622
 20
305.7044756151
 40
81.6326360321
100
AcDbArc
 50
250.3124128094
 51
251.0731716183
  0
ARC
  5
2F6
100
AcDbEntity
  8
0
100
AcDbCircle
 62
7
  6
CONTINUOUS
 10
-77.5581911536
 20
302.522496952
 40
78.1783389062
100
AcDbArc
 50
247.6717878943
 51
248.9320030211
  0
ARC
  5
2F7
100
AcDbEntity
  8
0
100
AcDbCircle
 62
7
  6
CONTINUOUS
 10
-77.6926943949
 20
302.2087260141
 40
77.836994468
100
AcDbArc
 50
244.5796353812
 51
247.6756254137
  0
ARC
  5
2F8
100
AcDbEntity
  8
0
100
AcDbCircle
 62
7
  6
CONTINUOUS
 10
-77.8621168633
 20
301.8468793964
 40
77.4374546985
100
AcDbArc
 50
244.4540766506
 51
244.5779221649
  0
ARC
  5
2F9
100
AcDbEntity
  8
0
100
AcDbCircle
 62
7
  6
CONTINUOUS
 10
-74.9795145123
 20
304.0370935943
 40
77.0846306174
100
AcDbArc
 50
246.3223628167
 51
246.4661821776
  0
ARC
  5
2FA
100
AcDbEntity
  8
0
100
AcDbCircle
 62
7
  6
CONTINUOUS
 10
-78.0104849757
 20
301.3479319167
 40
76.9196996826
100
AcDbArc
 50
248.9318782388
 51
250.4700467262
  0
ARC
  5
2FB
100
AcDbEntity
  8
0
100
AcDbCircle
 62
7
  6
CONTINUOUS
 10
-78.3221906093
 20
300.8970894841
 40
76.3821168872
100
AcDbArc
 50
242.9633248539
 51
244.4582134367
  0
ARC
  5
2FC
100
AcDbEntity
  8
0
100
AcDbCircle
 62
7
  6
CONTINUOUS
 10
-78.47437171
 20
300.0580443751
 40
75.5489465124
100
AcDbArc
 50
250.4745887165
 51
250.9267707618
  0
ARC
  5
2FD
100
AcDbEntity
  8
0
100
AcDbCircle
 62
7
  6
CONTINUOUS
 10
-78.8042389463
 20
299.1021683645
 40
74.5377536639
100
AcDbArc
 50
250.926309871
 51
251.9871189471
  0
ARC
  5
2FE
100
AcDbEntity
  8
0
100
AcDbCircle
 62
7
  6
CONTINUOUS
 10
-79.168166739
 20
299.2496057212
 40
74.5301297735
100
AcDbArc
 50
241.3963550441
 51
242.9668940635
  0
ARC
  5
2FF
100
AcDbEntity
  8
0
100
AcDbCircle
 62
7
  6
CONTINUOUS
 10
-79.3801577135
 20
297.3409380153
 40
72.684755152
100
AcDbArc
 50
251.989541094
 51
252.6037386116
  0
ARC
  5
300
100
AcDbEntity
  8
0
100
AcDbCircle
 62
7
  6
CONTINUOUS
 10
-80.264295152
 20
297.2573292619
 40
72.2562371706
100
AcDbArc
 50
239.4133555676
 51
241.4031355103
  0
ARC
  5
301
100
AcDbEntity
  8
0
100
AcDbCircle
 62
7
  6
CONTINUOUS
 10
-78.9001314801
 20
295.2675213172
 40
70.8984791081
100
AcDbArc
 50
250.3694694015
 51
251.8536735618
  0
ARC
  5
302
100
AcDbEntity
  8
0
100
AcDbCircle
 62
7
  6
CONTINUOUS
 10
-79.9628301585
 20
295.4819213978
 40
70.7365800435
100
AcDbArc
 50
252.6041573346
 51
253.6828608053
  0
ARC
  5
303
100
AcDbEntity
  8
0
100
AcDbCircle
 62
7
  6
CONTINUOUS
 10
-79.1527874065
 20
294.4756660861
 40
70.0673193245
100
AcDbArc
 50
251.8483343436
 51
254.4871017955
  0
ARC
  5
304
100
AcDbEntity
  8
0
100
AcDbCircle
 62
7
  6
CONTINUOUS
 10
-81.5440151295
 20
295.1061288933
 40
69.7531800648
100
AcDbArc
 50
237.4320207383
 51
239.4191400383
  0
ARC
  5
305
100
AcDbEntity
  8
0
100
AcDbCircle
 62
7
  6
CONTINUOUS
 10
-80.1738301512
 20
292.9411872799
 40
67.8718583884
100
AcDbArc
 50
235.0283721381
 51
236.3137225993
  0
ARC
  5
306
100
AcDbEntity
  8
0
100
AcDbCircle
 62
7
  6
CONTINUOUS
 10
-81.6765686406
 20
285.9462385022
 40
61.0597492584
100
AcDbArc
 50
248.8670375643
 51
251.421443798
  0
ARC
  5
307
100
AcDbEntity
  8
0
100
AcDbCircle
 62
7
  6
CONTINUOUS
 10
-81.7500321129
 20
285.6898557918
 40
60.79332582
100
AcDbArc
 50
251.4101831243
 51
252.8868155607
  0
ARC
  5
308
100
AcDbEntity
  8
0
100
AcDbCircle
 62
7
  6
CONTINUOUS
 10
-79.9628244423
 20
283.4846592471
 40
49.2950241503
100
AcDbArc
 50
235.6893481515
 51
235.8191384774
  0
ARC
  5
309
100
AcDbEntity
  8
0
100
AcDbCircle
 62
7
  6
CONTINUOUS
 10
-81.161602911
 20
281.6844497739
 40
37.2256039667
100
AcDbArc
 50
230.0195797379
 51
230.3124814612
  0
ARC
  5
30A
100
AcDbEntity
  8
0
100
AcDbCircle
 62
7
  6
CONTINUOUS
 10
-79.9607431063
 20
279.6047476844
 40
36.4616869582
100
AcDbArc
 50
226.4783892424
 51
226.7711185635
  0
ARC
  5
30B
100
AcDbEntity
  8
0
100
AcDbCircle
 62
7
  6
CONTINUOUS
 10
-73.5710884563
 20
285.3146433406
 40
34.199444776
100
AcDbArc
 50
221.4531779307
 51
223.5593205841
  0
ARC
  5
30C
100
AcDbEntity
  8
0
100
AcDbCircle
 62
7
  6
CONTINUOUS
 10
-83.7467114541
 20
278.6127518464
 40
33.210890212
100
AcDbArc
 50
227.6963609395
 51
230.0320586605
  0
ARC
  5
30D
100
AcDbEntity
  8
0
100
AcDbCircle
 62
7
  6
CONTINUOUS
 10
-74.3097540727
 20
284.6439703856
 40
33.2013633909
100
AcDbArc
 50
221.0184136283
 51
221.4296901246
  0
ARC
  5
30E
100
AcDbEntity
  8
0
100
AcDbCircle
 62
7
  6
CONTINUOUS
 10
-64.1789657268
 20
287.4761832726
 40
33.0178358893
100
AcDbArc
 50
219.9801455437
 51
220.2560961577
  0
ARC
  5
30F
100
AcDbEntity
  8
0
100
AcDbCircle
 62
7
  6
CONTINUOUS
 10
-84.0988740247
 20
278.2213796499
 40
32.6842919819
100
AcDbArc
 50
226.3314625752
 51
227.6911338591
  0
ARC
  5
310
100
AcDbEntity
  8
0
100
AcDbCircle
 62
7
  6
CONTINUOUS
 10
-74.7177289575
 20
284.2899557988
 40
32.6612065586
100
AcDbArc
 50
220.18977668
 51
221.0195556446
  0
ARC
  5
311
100
AcDbEntity
  8
0
100
AcDbCircle
 62
7
  6
CONTINUOUS
 10
-74.6880278499
 20
284.2253734346
 40
32.639368358
100
AcDbArc
 50
223.5248168646
 51
223.8370836552
  0
ARC
  5
312
100
AcDbEntity
  8
0
100
AcDbCircle
 62
7
  6
CONTINUOUS
 10
-82.8298462082
 20
277.0269889697
 40
32.6056276687
100
AcDbArc
 50
224.6896488981
 51
227.4040161063
  0
ARC
  5
313
100
AcDbEntity
  8
0
100
AcDbCircle
 62
7
  6
CONTINUOUS
 10
-75.3869265242
 20
281.6849461376
 40
30.4056310035
100
AcDbArc
 50
220.9743667714
 51
221.2953977495
  0
ARC
  5
314
100
AcDbEntity
  8
0
100
AcDbCircle
 62
7
  6
CONTINUOUS
 10
-66.4677646904
 20
285.0639692691
 40
29.7145260547
100
AcDbArc
 50
219.2712613681
 51
219.558301832
  0
ARC
  5
315
100
AcDbEntity
  8
0
100
AcDbCircle
 62
7
  6
CONTINUOUS
 10
-43.7321638303
 20
219.9342940209
 40
26.8372964952
100
AcDbArc
 50
105.0072075403
 51
108.4221850175
  0
ARC
  5
316
100
AcDbEntity
  8
0
100
AcDbCircle
 62
7
  6
CONTINUOUS
 10
-47.289283112
 20
219.1028861433
 40
26.3936939184
100
AcDbArc
 50
178.0150060455
 51
180.0323976175
  0
ARC
  5
317
100
AcDbEntity
  8
0
100
AcDbCircle
 62
7
  6
CONTINUOUS
 10
-48.0541375144
 20
219.0998273989
 40
25.6288380433
100
AcDbArc
 50
180.0265263542
 51
182.1602848833
  0
ARC
  5
318
100
AcDbEntity
  8
0
100
AcDbCircle
 62
7
  6
CONTINUOUS
 10
-49.1016642908
 20
219.0530256034
 40
24.5802926375
100
AcDbArc
 50
182.1433111463
 51
185.4285830553
  0
ARC
  5
319
100
AcDbEntity
  8
0
100
AcDbCircle
 62
7
  6
CONTINUOUS
 10
-50.4548753625
 20
218.9114590107
 40
23.2197615505
100
AcDbArc
 50
185.3967241573
 51
190.0426226879
  0
ARC
  5
31A
100
AcDbEntity
  8
0
100
AcDbCircle
 62
7
  6
CONTINUOUS
 10
-51.7677128856
 20
218.6754367534
 40
21.8858814676
100
AcDbArc
 50
190.0335321116
 51
193.5099520167
  0
ARC
  5
31B
100
AcDbEntity
  8
0
100
AcDbCircle
 62
7
  6
CONTINUOUS
 10
-53.0168597749
 20
218.3612241657
 40
20.5978992912
100
AcDbArc
 50
193.4718447613
 51
198.6618835199
  0
ARC
  5
31C
100
AcDbEntity
  8
0
100
AcDbCircle
 62
7
  6
CONTINUOUS
 10
-54.133988406
 20
217.9816350165
 40
19.4180436615
100
AcDbArc
 50
198.6554814992
 51
202.2356812171
  0
ARC
  5
31D
100
AcDbEntity
  8
0
100
AcDbCircle
 62
7
  6
CONTINUOUS
 10
-55.1816946404
 20
217.5372591751
 40
18.2800965251
100
AcDbArc
 50
202.1891060403
 51
208.2665305531
  0
ARC
  5
31E
100
AcDbEntity
  8
0
100
AcDbCircle
 62
7
  6
CONTINUOUS
 10
-56.0071482814
 20
217.0940999343
 40
17.3432062177
100
AcDbArc
 50
208.268509028
 51
211.6392080394
  0
ARC
  5
31F
100
AcDbEntity
  8
0
100
AcDbCircle
 62
7
  6
CONTINUOUS
 10
-57.3028122299
 20
216.1755122002
 40
15.7527491421
100
AcDbArc
 50
220.2389703324
 51
221.6781072699
  0
ARC
  5
320
100
AcDbEntity
  8
0
100
AcDbCircle
 62
7
  6
CONTINUOUS
 10
-57.9642962353
 20
215.4753638282
 40
14.7875932388
100
AcDbArc
 50
232.2464526382
 51
239.8104606059
  0
ARC
  5
321
100
AcDbEntity
  8
0
100
AcDbCircle
 62
7
  6
CONTINUOUS
 10
-56.5758018387
 20
214.6328345281
 40
14.7524877618
100
AcDbArc
 50
233.6874421155
 51
239.987104952
  0
ARC
  5
322
100
AcDbEntity
  8
0
100
AcDbCircle
 62
7
  6
CONTINUOUS
 10
-39.3254590799
 20
205.0794744929
 40
14.6077263092
100
AcDbArc
 50
225.3682327513
 51
239.948006077
  0
ARC
  5
323
100
AcDbEntity
  8
0
100
AcDbCircle
 62
7
  6
CONTINUOUS
 10
-49.3939541689
 20
228.3277371792
 40
60.9718700957
100
AcDbArc
 50
155.9664875903
 51
156.9364575818
  0
ARC
  5
324
100
AcDbEntity
  8
0
100
AcDbCircle
 62
7
  6
CONTINUOUS
 10
-58.0947244503
 20
232.2813404896
 40
51.232232719
100
AcDbArc
 50
156.0996832449
 51
157.2164369361
  0
ARC
  5
325
100
AcDbEntity
  8
0
100
AcDbCircle
 62
7
  6
CONTINUOUS
 10
-51.7787227953
 20
233.2822623432
 40
35.0901097672
100
AcDbArc
 50
359.3291871222
 51
0.3426942555
  0
ARC
  5
326
100
AcDbEntity
  8
0
100
AcDbCircle
 62
7
  6
CONTINUOUS
 10
-40.6328121869
 20
220.7564004079
 40
26.8457195086
100
AcDbArc
 50
101.5150952098
 51
104.1199307004
  0
ARC
  5
327
100
AcDbEntity
  8
0
100
AcDbCircle
 62
7
  6
CONTINUOUS
 10
-40.6449822944
 20
220.8069764895
 40
26.7937025501
100
AcDbArc
 50
104.1210763304
 51
104.9118678975
  0
ARC
  5
328
100
AcDbEntity
  8
0
100
AcDbCircle
 62
7
  6
CONTINUOUS
 10
-47.1687718763
 20
227.9023653038
 40
21.0099831142
100
AcDbArc
 50
105.0058802324
 51
105.387344643
  0
ARC
  5
329
100
AcDbEntity
  8
0
100
AcDbCircle
 62
7
  6
CONTINUOUS
 10
-47.2499223765
 20
228.2089579409
 40
20.6928341978
100
AcDbArc
 50
102.5677986594
 51
105.0086468836
  0
ARC
  5
32A
100
AcDbEntity
  8
0
100
AcDbCircle
 62
7
  6
CONTINUOUS
 10
-46.7799566009
 20
236.8179755875
 40
10.5795275899
100
AcDbArc
 50
85.3412425265
 51
94.2741267415
  0
ARC
  5
32B
100
AcDbEntity
  8
0
100
AcDbCircle
 62
7
  6
CONTINUOUS
 10
-46.7591932341
 20
237.3719094316
 40
10.0385978798
100
AcDbArc
 50
113.064851661
 51
114.9652453397
  0
ARC
  5
32C
100
AcDbEntity
  8
0
100
AcDbCircle
 62
7
  6
CONTINUOUS
 10
-46.8282306881
 20
237.5125163605
 40
9.8833212839
100
AcDbArc
 50
94.2951311831
 51
104.984480558
  0
ARC
  5
32D
100
AcDbEntity
  8
0
100
AcDbCircle
 62
7
  6
CONTINUOUS
 10
-48.2744596757
 20
246.6239855983
 40
3.7324521221
100
AcDbArc
 50
136.8194800783
 51
138.9208621005
  0
ARC
  5
32E
100
AcDbEntity
  8
0
100
AcDbCircle
 62
7
  6
CONTINUOUS
 10
-37.1929736664
 20
248.8034185533
 40
3.3349696359
100
AcDbArc
 50
191.7908934093
 51
192.9849531482
  0
ARC
  5
32F
100
AcDbEntity
  8
0
100
AcDbCircle
 62
7
  6
CONTINUOUS
 10
-47.2773513519
 20
240.2100195008
 40
1.0754946014
100
AcDbArc
 50
239.2968351373
 51
239.9887160721
  0
ARC
  5
330
100
AcDbEntity
  8
0
100
AcDbCircle
 62
7
  6
CONTINUOUS
 10
-48.3389276614
 20
242.0724450297
 40
1.0469584692
100
AcDbArc
 50
59.9894872798
 51
60.4940327989
  0
ARC
  5
331
100
AcDbEntity
  8
0
100
AcDbCircle
 62
7
  6
CONTINUOUS
 10
-48.1967967957
 20
242.560673559
 40
0.5543502923
100
AcDbArc
 50
92.4081499194
 51
104.9263042826
  0
ARC
  5
332
100
AcDbEntity
  8
0
100
AcDbCircle
 62
7
  6
CONTINUOUS
 10
-47.4354842096
 20
239.7191834306
 40
0.5539919741
100
AcDbArc
 50
290.211717629
 51
297.1623374134
  0
ARC
  5
333
100
AcDbEntity
  8
0
100
AcDbCircle
 62
7
  6
CONTINUOUS
 10
-47.4315634641
 20
239.7088384125
 40
0.5429294089
100
AcDbArc
 50
285.0069055955
 51
290.2006143363
  0
ARC
  5
334
100
AcDbEntity
  8
0
100
AcDbCircle
 62
7
  6
CONTINUOUS
 10
-48.1990006854
 20
242.5719063265
 40
0.5429294089
100
AcDbArc
 50
105.0069055954
 51
110.2006143365
  0
ARC
  5
335
100
AcDbEntity
  8
0
100
AcDbCircle
 62
7
  6
CONTINUOUS
 10
-47.4366317298
 20
239.727455717
 40
0.5372131541
100
AcDbArc
 50
278.7762995937
 51
285.0149199664
  0
ARC
  5
336
100
AcDbEntity
  8
0
100
AcDbCircle
 62
7
  6
CONTINUOUS
 10
-48.1939324186
 20
242.5532890227
 40
0.5372131541
100
AcDbArc
 50
98.7762995939
 51
105.0149199663
  0
ARC
  5
337
100
AcDbEntity
  8
0
100
AcDbCircle
 62
7
  6
CONTINUOUS
 10
-14.9666065296
 20
191.5568004
 40
66.5095510921
100
AcDbArc
 50
91.7073081463
 51
91.8711370454
  0
ARC
  5
338
100
AcDbEntity
  8
0
100
AcDbCircle
 62
7
  6
CONTINUOUS
 10
-14.9673829596
 20
191.6075409656
 40
66.4588099232
100
AcDbArc
 50
88.9519711809
 51
91.707942382
  0
ARC
  5
339
100
AcDbEntity
  8
0
100
AcDbCircle
 62
7
  6
CONTINUOUS
 10
-14.953451997
 20
192.8257184361
 40
65.2405819664
100
AcDbArc
 50
88.6670406559
 51
88.9446358376
  0
ARC
  5
33A
100
AcDbEntity
  8
0
100
AcDbCircle
 62
7
  6
CONTINUOUS
 10
-14.9094401259
 20
194.4073576766
 40
63.6583473134
100
AcDbArc
 50
85.8449663914
 51
88.6735274949
  0
ARC
  5
33B
100
AcDbEntity
  8
0
100
AcDbCircle
 62
7
  6
CONTINUOUS
 10
-14.7140532043
 20
197.4735025098
 40
60.58611068
100
AcDbArc
 50
85.5965891455
 51
85.8191626347
  0
ARC
  5
33C
100
AcDbEntity
  8
0
100
AcDbCircle
 62
7
  6
CONTINUOUS
 10
-19.2396515682
 20
216.2407028249
 40
41.4169830916
100
AcDbArc
 50
105.0055924564
 51
105.2059532804
  0
ARC
  5
33D
100
AcDbEntity
  8
0
100
AcDbCircle
 62
7
  6
CONTINUOUS
 10
-13.313501314
 20
200.459275826
 40
39.1155256833
100
AcDbArc
 50
135.4797268825
 51
139.691910428
  0
ARC
  5
33E
100
AcDbEntity
  8
0
100
AcDbCircle
 62
7
  6
CONTINUOUS
 10
-16.8084779637
 20
203.8585456582
 40
34.2400950638
100
AcDbArc
 50
132.792912077
 51
135.434787585
  0
ARC
  5
33F
100
AcDbEntity
  8
0
100
AcDbCircle
 62
7
  6
CONTINUOUS
 10
-25.0374315011
 20
219.9759236969
 40
15.3493181139
100
AcDbArc
 50
67.1384305742
 51
67.9830129813
  0
ARC
  5
340
100
AcDbEntity
  8
0
100
AcDbCircle
 62
7
  6
CONTINUOUS
 10
-24.9939404704
 20
220.0794634179
 40
15.2370151659
100
AcDbArc
 50
66.4962603311
 51
66.9678402053
  0
ARC
  5
341
100
AcDbEntity
  8
0
100
AcDbCircle
 62
7
  6
CONTINUOUS
 10
-24.975069322
 20
220.1227323097
 40
15.1898101366
100
AcDbArc
 50
65.3814711052
 51
66.4964469139
  0
ARC
  5
342
100
AcDbEntity
  8
0
100
AcDbCircle
 62
7
  6
CONTINUOUS
 10
-24.840698297
 20
220.4138480882
 40
14.8691808055
100
AcDbArc
 50
60.0110437673
 51
65.3848828104
  0
ARC
  5
343
100
AcDbEntity
  8
0
100
AcDbCircle
 62
7
  6
CONTINUOUS
 10
-24.3583113298
 20
220.291505069
 40
14.7363888595
100
AcDbArc
 50
69.5596689787
 51
71.3954114382
  0
ARC
  5
344
100
AcDbEntity
  8
0
100
AcDbCircle
 62
7
  6
CONTINUOUS
 10
-24.3294431385
 20
220.3704263933
 40
14.6523550271
100
AcDbArc
 50
69.1181754806
 51
69.5576696807
  0
ARC
  5
345
100
AcDbEntity
  8
0
100
AcDbCircle
 62
7
  6
CONTINUOUS
 10
-24.3220607588
 20
220.3897438799
 40
14.6316749721
100
AcDbArc
 50
68.4535141445
 51
69.1182222002
  0
ARC
  5
346
100
AcDbEntity
  8
0
100
AcDbCircle
 62
7
  6
CONTINUOUS
 10
-24.2711319357
 20
220.5113980244
 40
14.4998183652
100
AcDbArc
 50
60.0001633253
 51
68.4641503494
  0
ARC
  5
347
100
AcDbEntity
  8
0
100
AcDbCircle
 62
7
  6
CONTINUOUS
 10
-24.2326140039
 20
220.5821901281
 40
14.4192517774
100
AcDbArc
 50
58.4644230545
 51
59.9920639571
  0
ARC
  5
348
100
AcDbEntity
  8
0
100
AcDbCircle
 62
7
  6
CONTINUOUS
 10
-18.5895200331
 20
244.5734896422
 40
10.3244789631
100
AcDbArc
 50
269.0010876889
 51
269.169780264
  0
ARC
  5
349
100
AcDbEntity
  8
0
100
AcDbCircle
 62
7
  6
CONTINUOUS
 10
-17.6827096314
 20
302.1679908831
 40
67.9880239543
100
AcDbArc
 50
269.1923452533
 51
269.6806576508
  0
ARC
  5
34A
100
AcDbEntity
  8
0
100
AcDbCircle
 62
7
  6
CONTINUOUS
 10
-16.404909451
 20
295.4555420148
 40
54.8556667422
100
AcDbArc
 50
278.7072575026
 51
281.1085422642
  0
ARC
  5
34B
100
AcDbEntity
  8
0
100
AcDbCircle
 62
7
  6
CONTINUOUS
 10
-39.6417548286
 20
301.6878518
 40
54.8359481555
100
AcDbArc
 50
221.3059046072
 51
221.4488596278
  0
ARC
  5
34C
100
AcDbEntity
  8
0
100
AcDbCircle
 62
7
  6
CONTINUOUS
 10
-13.7065391716
 20
288.1095456175
 40
53.1647612434
100
AcDbArc
 50
282.5210613686
 51
284.9905758483
  0
ARC
  5
34D
100
AcDbEntity
  8
0
100
AcDbCircle
 62
7
  6
CONTINUOUS
 10
-12.5734165029
 20
283.8421942322
 40
48.7495418995
100
AcDbArc
 50
285.0014276351
 51
285.7895261357
  0
ARC
  5
34E
100
AcDbEntity
  8
0
100
AcDbCircle
 62
7
  6
CONTINUOUS
 10
-15.2110524172
 20
289.2908473675
 40
48.5764584771
100
AcDbArc
 50
281.127711635
 51
283.839672621
  0
ARC
  5
34F
100
AcDbEntity
  8
0
100
AcDbCircle
 62
7
  6
CONTINUOUS
 10
-54.0441719993
 20
296.0091948056
 40
46.2664969665
100
AcDbArc
 50
218.6331556604
 51
220.013224081
  0
ARC
  5
350
100
AcDbEntity
  8
0
100
AcDbCircle
 62
7
  6
CONTINUOUS
 10
-13.9114572255
 20
284.5687631488
 40
44.9265551225
100
AcDbArc
 50
283.327756005
 51
284.9985694333
  0
ARC
  5
351
100
AcDbEntity
  8
0
100
AcDbCircle
 62
7
  6
CONTINUOUS
 10
-13.9848241507
 20
284.1656100046
 40
43.3067059652
100
AcDbArc
 50
283.8864509891
 51
284.9961703286
  0
ARC
  5
352
100
AcDbEntity
  8
0
100
AcDbCircle
 62
7
  6
CONTINUOUS
 10
-56.5647751496
 20
293.9783929386
 40
43.02924567
100
AcDbArc
 50
217.7896374315
 51
218.6165433975
  0
ARC
  5
353
100
AcDbEntity
  8
0
100
AcDbCircle
 62
7
  6
CONTINUOUS
 10
-13.1434489356
 20
281.025495969
 40
40.055823632
100
AcDbArc
 50
284.9958819435
 51
286.1970306287
  0
ARC
  5
354
100
AcDbEntity
  8
0
100
AcDbCircle
 62
7
  6
CONTINUOUS
 10
140.3376670184
 20
710.0509062613
 40
519.6415966368
100
AcDbArc
 50
240.0035409759
 51
240.7580917159
  0
SPLINE
  5
355
100
AcDbEntity
  8
0
100
AcDbSpline
 62
7
  6
CONTINUOUS
 70
0
 71
3
 72
37
 73
33
 74
0
 42
0.0000001
 43
0.0000001
 44
0.0000000001
 40
0.0
 40
0.0
 40
0.0
 40
0.0
 40
0.0256145947
 40
0.0527813316
 40
0.0814826882
 40
0.111678587
 40
0.1433097934
 40
0.1762932995
 40
0.2105087187
 40
0.2458172292
 40
0.2820654036
 40
0.3190851202
 40
0.3567012466
 40
0.3947272731
 40
0.4712236991
 40
0.5470464527
 40
0.5842395885
 40
0.6207046457
 40
0.6562716567
 40
0.690784464
 40
0.7240985398
 40
0.7560941786
 40
0.7866701108
 40
0.8157540249
 40
0.8433094599
 40
0.8693329447
 40
0.8938743116
 40
0.9170320916
 40
0.9389667434
 40
0.9599062006
 40
0.9801372283
 40
1.0
 40
1.0
 40
1.0
 40
1.0
 10
-47.8152820742
 20
239.301703143
 30
0.0
 10
-47.847425777
 20
239.3202687487
 30
0.0
 10
-47.9116778903
 20
239.3620286427
 30
0.0
 10
-48.004609771
 20
239.4350919685
 30
0.0
 10
-48.0962172799
 20
239.5199141406
 30
0.0
 10
-48.1858191371
 20
239.6158818828
 30
0.0
 10
-48.272852346
 20
239.7223156934
 30
0.0
 10
-48.3567059569
 20
239.8385226787
 30
0.0
 10
-48.4368506939
 20
239.963684484
 30
0.0
 10
-48.5127084327
 20
240.0969555875
 30
0.0
 10
-48.5837496254
 20
240.2374190315
 30
0.0
 10
-48.6495149512
 20
240.3840968541
 30
0.0
 10
-48.7095141998
 20
240.535999897
 30
0.0
 10
-48.7814520485
 20
240.7444714941
 30
0.0
 10
-48.8544287073
 20
241.0108600035
 30
0.0
 10
-48.9041209366
 20
241.2813455333
 30
0.0
 10
-48.9288262137
 20
241.496621449
 30
0.0
 10
-48.939566135
 20
241.6546048144
 30
0.0
 10
-48.9425460542
 20
241.8090414138
 30
0.0
 10
-48.9377837799
 20
241.9588716377
 30
0.0
 10
-48.9252628581
 20
242.10306712
 30
0.0
 10
-48.9051079994
 20
242.2406407443
 30
0.0
 10
-48.8774399731
 20
242.3706548969
 30
0.0
 10
-48.8424217331
 20
242.4922176882
 30
0.0
 10
-48.8003267322
 20
242.6045171621
 30
0.0
 10
-48.7513630424
 20
242.7067716834
 30
0.0
 10
-48.6958806131
 20
242.7982984518
 30
0.0
 10
-48.6342000003
 20
242.8784597714
 30
0.0
 10
-48.5666729466
 20
242.9466452643
 30
0.0
 10
-48.4937518063
 20
243.0023668586
 30
0.0
 10
-48.4159080869
 20
243.0450687075
 30
0.0
 10
-48.3609102936
 20
243.0647030526
 30
0.0
 10
-48.3331085344
 20
243.0721608582
 30
0.0
  0
SPLINE
  5
356
100
AcDbEntity
  8
0
100
AcDbSpline
 62
7
  6
CONTINUOUS
 70
0
 71
3
 72
13
 73
9
 74
0
 42
0.0000001
 43
0.0000001
 44
0.0000000001
 40
0.0
 40
0.0
 40
0.0
 40
0.0
 40
0.1143045583
 40
0.2303465401
 40
0.3489051661
 40
0.4706945626
 40
0.7260813496
 40
1.0
 40
1.0
 40
1.0
 40
1.0
 10
-47.3546653356
 20
239.1965324804
 30
0.0
 10
-47.3727916255
 20
239.1937315362
 30
0.0
 10
-47.4096327115
 20
239.1899463457
 30
0.0
 10
-47.4657009301
 20
239.1897472765
 30
0.0
 10
-47.5227328435
 20
239.1949841892
 30
0.0
 10
-47.6010538433
 20
239.2094256545
 30
0.0
 10
-47.70091324
 20
239.2417532443
 30
0.0
 10
-47.7772212527
 20
239.2797199193
 30
0.0
 10
-47.8152820742
 20
239.301703143
 30
0.0
  0
SPLINE
  5
357
100
AcDbEntity
  8
0
100
AcDbSpline
 62
7
  6
CONTINUOUS
 70
0
 71
3
 72
36
 73
32
 74
0
 42
0.0000001
 43
0.0000001
 44
0.0000000001
 40
0.0
 40
0.0
 40
0.0
 40
0.0
 40
0.0250185284
 40
0.0514680259
 40
0.0793354869
 40
0.1085882208
 40
0.1391785246
 40
0.1710410216
 40
0.2040809558
 40
0.2381815374
 40
0.2732161441
 40
0.3090436018
 40
0.3824588381
 40
0.4571685356
 40
0.4945991752
 40
0.5318504756
 40
0.5687557887
 40
0.6051540812
 40
0.6757898772
 40
0.7097604919
 40
0.7426527799
 40
0.7743575057
 40
0.8047823735
 40
0.8338528144
 40
0.8615259171
 40
0.88778316
 40
0.9126418371
 40
0.9361634355
 40
0.9584496512
 40
0.9796584828
 40
1.0
 40
1.0
 40
1.0
 40
1.0
 10
-47.8152820742
 20
242.9790415967
 30
0.0
 10
-47.7850484249
 20
242.9615792023
 30
0.0
 10
-47.7246046001
 20
242.9225603162
 30
0.0
 10
-47.6369575896
 20
242.8547318092
 30
0.0
 10
-47.5504053356
 20
242.7764057255
 30
0.0
 10
-47.4655412557
 20
242.6880740527
 30
0.0
 10
-47.3828345195
 20
242.59030812
 30
0.0
 10
-47.3027969228
 20
242.4836696705
 30
0.0
 10
-47.2258909463
 20
242.368815541
 30
0.0
 10
-47.1525764421
 20
242.246452276
 30
0.0
 10
-47.0833386302
 20
242.1173082621
 30
0.0
 10
-46.996280934
 20
241.9356944891
 30
0.0
 10
-46.900593319
 20
241.6971291434
 30
0.0
 10
-46.8240706137
 20
241.4494305448
 30
0.0
 10
-46.7747067564
 20
241.2468277975
 30
0.0
 10
-46.7440107067
 20
241.0941137066
 30
0.0
 10
-46.7198915016
 20
240.9416775212
 30
0.0
 10
-46.6968895487
 20
240.7420860133
 30
0.0
 10
-46.6870146825
 20
240.5452275341
 30
0.0
 10
-46.6912662424
 20
240.3533262189
 30
0.0
 10
-46.7013088886
 20
240.2160722306
 30
0.0
 10
-46.7181709927
 20
240.0844720862
 30
0.0
 10
-46.7417322538
 20
239.9593174318
 30
0.0
 10
-46.7718975492
 20
239.8413756647
 30
0.0
 10
-46.8084483981
 20
239.7313520578
 30
0.0
 10
-46.8511898872
 20
239.6299112015
 30
0.0
 10
-46.8999046701
 20
239.5376802724
 30
0.0
 10
-46.9542743684
 20
239.455198274
 30
0.0
 10
-47.0140545726
 20
239.3830020826
 30
0.0
 10
-47.078881013
 20
239.3215717132
 30
0.0
 10
-47.1260479446
 20
239.2874684318
 30
0.0
 10
-47.1502007602
 20
239.2725525452
 30
0.0
  0
SPLINE
  5
358
100
AcDbEntity
  8
0
100
AcDbSpline
 62
7
  6
CONTINUOUS
 70
0
 71
3
 72
9
 73
5
 74
0
 42
0.0000001
 43
0.0000001
 44
0.0000000001
 40
0.0
 40
0.0
 40
0.0
 40
0.0
 40
0.5039459429
 40
1.0
 40
1.0
 40
1.0
 40
1.0
 10
-47.1502007602
 20
239.2725525452
 30
0.0
 10
-47.1732083856
 20
239.2583438856
 30
0.0
 10
-47.2208905375
 20
239.2332840358
 30
0.0
 10
-47.2717466101
 20
239.2154803067
 30
0.0
 10
-47.297455614
 20
239.2085838814
 30
0.0
  0
SPLINE
  5
359
100
AcDbEntity
  8
0
100
AcDbSpline
 62
7
  6
CONTINUOUS
 70
0
 71
3
 72
13
 73
9
 74
0
 42
0.0000001
 43
0.0000001
 44
0.0000000001
 40
0.0
 40
0.0
 40
0.0
 40
0.0
 40
0.1145534487
 40
0.2308054462
 40
0.3495123439
 40
0.4713686882
 40
0.7266136536
 40
1.0
 40
1.0
 40
1.0
 40
1.0
 10
-48.2758988128
 20
243.0842122592
 30
0.0
 10
-48.2580804585
 20
243.08696562
 30
0.0
 10
-48.2218775583
 20
243.0907169854
 30
0.0
 10
-48.1667891321
 20
243.0910499783
 30
0.0
 10
-48.1107636646
 20
243.0861295729
 30
0.0
 10
-48.0338578507
 20
243.072369354
 30
0.0
 10
-47.9357916602
 20
243.0413745163
 30
0.0
 10
-47.8607342046
 20
243.0048095636
 30
0.0
 10
-47.8232857457
 20
242.983617599
 30
0.0
  0
SPLINE
  5
35A
100
AcDbEntity
  8
0
100
AcDbSpline
 62
7
  6
CONTINUOUS
 70
0
 71
3
 72
9
 73
5
 74
0
 42
0.0000001
 43
0.0000001
 44
0.0000000001
 40
0.0
 40
0.0
 40
0.0
 40
0.0
 40
0.2512255387
 40
1.0
 40
1.0
 40
1.0
 40
1.0
 10
-83.1313546757
 20
268.1240181345
 30
0.0
 10
-82.6064496489
 20
267.713028333
 30
0.0
 10
-80.5400468131
 20
266.0479726196
 30
0.0
 10
-78.5666257868
 20
264.2673939232
 30
0.0
 10
-77.1496372514
 20
262.8744761057
 30
0.0
  0
SPLINE
  5
35B
100
AcDbEntity
  8
0
100
AcDbSpline
 62
7
  6
CONTINUOUS
 70
0
 71
3
 72
9
 73
5
 74
0
 42
0.0000001
 43
0.0000001
 44
0.0000000001
 40
0.0
 40
0.0
 40
0.0
 40
0.0
 40
0.2471625607
 40
1.0
 40
1.0
 40
1.0
 40
1.0
 10
-95.0936302354
 20
276.4263199885
 30
0.0
 10
-95.4261911644
 20
276.414179049
 30
0.0
 10
-96.7707557962
 20
276.3411471105
 30
0.0
 10
-98.1099484557
 20
276.1735348449
 30
0.0
 10
-99.1083138826
 20
275.9982923324
 30
0.0
  0
SPLINE
  5
35C
100
AcDbEntity
  8
0
100
AcDbSpline
 62
7
  6
CONTINUOUS
 70
0
 71
3
 72
9
 73
5
 74
0
 42
0.0000001
 43
0.0000001
 44
0.0000000001
 40
0.0
 40
0.0
 40
0.0
 40
0.0
 40
0.2477197207
 40
1.0
 40
1.0
 40
1.0
 40
1.0
 10
-99.1083138826
 20
275.9982923324
 30
0.0
 10
-99.3631034813
 20
275.9535692598
 30
0.0
 10
-100.3893454752
 20
275.7601244701
 30
0.0
 10
-101.4058781161
 20
275.515569253
 30
0.0
 10
-102.1626963899
 20
275.3049475895
 30
0.0
  0
SPLINE
  5
35D
100
AcDbEntity
  8
0
100
AcDbSpline
 62
7
  6
CONTINUOUS
 70
0
 71
3
 72
9
 73
5
 74
0
 42
0.0000001
 43
0.0000001
 44
0.0000000001
 40
0.0
 40
0.0
 40
0.0
 40
0.0
 40
0.2529144848
 40
1.0
 40
1.0
 40
1.0
 40
1.0
 10
-121.0994647787
 20
258.0583021939
 30
0.0
 10
-121.2097227523
 20
257.5389959592
 30
0.0
 10
-121.6111820745
 20
255.4785830567
 30
0.0
 10
-121.873063747
 20
253.3906055473
 30
0.0
 10
-121.9833035497
 20
251.8263096094
 30
0.0
  0
SPLINE
  5
35E
100
AcDbEntity
  8
0
100
AcDbSpline
 62
7
  6
CONTINUOUS
 70
0
 71
3
 72
9
 73
5
 74
0
 42
0.0000001
 43
0.0000001
 44
0.0000000001
 40
0.0
 40
0.0
 40
0.0
 40
0.0
 40
0.2472812634
 40
1.0
 40
1.0
 40
1.0
 40
1.0
 10
-106.6095944781
 20
274.5750524608
 30
0.0
 10
-107.013437502
 20
274.2986718239
 30
0.0
 10
-108.6276026418
 20
273.1534676166
 30
0.0
 10
-110.165015219
 20
271.9005736342
 30
0.0
 10
-111.2742044771
 20
270.9062742212
 30
0.0
  0
SPLINE
  5
35F
100
AcDbEntity
  8
0
100
AcDbSpline
 62
7
  6
CONTINUOUS
 70
0
 71
3
 72
14
 73
10
 74
0
 42
0.0000001
 43
0.0000001
 44
0.0000000001
 40
0.0
 40
0.0
 40
0.0
 40
0.0
 40
0.2491682635
 40
0.3794979992
 40
0.5105402483
 40
0.6400260205
 40
0.7658328662
 40
0.8862027754
 40
1.0
 40
1.0
 40
1.0
 40
1.0
 10
-106.0332514013
 20
242.0399749921
 30
0.0
 10
-106.0334540664
 20
244.455256595
 30
0.0
 10
-105.3576070699
 20
248.1579138649
 30
0.0
 10
-103.4101137402
 20
252.7177797847
 30
0.0
 10
-101.4174814842
 20
255.9586028218
 30
0.0
 10
-98.9946617662
 20
258.8322439918
 30
0.0
 10
-96.234023812
 20
261.2312672625
 30
0.0
 10
-93.2447075296
 20
263.0626039784
 30
0.0
 10
-91.1101404099
 20
263.8831039135
 30
0.0
 10
-90.0447035279
 20
264.1688102425
 30
0.0
  0
SPLINE
  5
360
100
AcDbEntity
  8
0
100
AcDbSpline
 62
7
  6
CONTINUOUS
 70
0
 71
3
 72
13
 73
9
 74
0
 42
0.0000001
 43
0.0000001
 44
0.0000000001
 40
0.0
 40
0.0
 40
0.0
 40
0.0
 40
0.1139633129
 40
0.2296902257
 40
0.3481597271
 40
0.4701536172
 40
0.7262278236
 40
1.0
 40
1.0
 40
1.0
 40
1.0
 10
-100.6175898777
 20
230.2887232271
 30
0.0
 10
-101.0387938831
 20
230.5775432565
 30
0.0
 10
-101.8472287344
 20
231.2212290336
 30
0.0
 10
-102.923470231
 20
232.357299568
 30
0.0
 10
-103.8579163695
 20
233.6573465491
 30
0.0
 10
-104.9160890235
 20
235.6208962432
 30
0.0
 10
-105.8116781963
 20
238.4306697073
 30
0.0
 10
-106.0331484543
 20
240.8130927939
 30
0.0
 10
-106.0332514013
 20
242.0399749921
 30
0.0
  0
SPLINE
  5
361
100
AcDbEntity
  8
0
100
AcDbSpline
 62
7
  6
CONTINUOUS
 70
0
 71
3
 72
11
 73
7
 74
0
 42
0.0000001
 43
0.0000001
 44
0.0000000001
 40
0.0
 40
0.0
 40
0.0
 40
0.0
 40
0.2649271862
 40
0.5183063096
 40
0.7622399843
 40
1.0
 40
1.0
 40
1.0
 40
1.0
 10
-90.0447035279
 20
264.1688102425
 30
0.0
 10
-89.3005966177
 20
264.3683490959
 30
0.0
 10
-87.8130097892
 20
264.6522119195
 30
0.0
 10
-85.5866919663
 20
264.7077039697
 30
0.0
 10
-83.4623506208
 20
264.3839099789
 30
0.0
 10
-82.1316429886
 20
263.9155884487
 30
0.0
 10
-81.50466709
 20
263.6241624253
 30
0.0
  0
SPLINE
  5
362
100
AcDbEntity
  8
0
100
AcDbSpline
 62
7
  6
CONTINUOUS
 70
0
 71
3
 72
9
 73
5
 74
0
 42
0.0000001
 43
0.0000001
 44
0.0000000001
 40
0.0
 40
0.0
 40
0.0
 40
0.0
 40
0.2540766998
 40
1.0
 40
1.0
 40
1.0
 40
1.0
 10
-122.2644850931
 20
244.1901479647
 30
0.0
 10
-122.0919551857
 20
243.755355131
 30
0.0
 10
-121.3734587536
 20
242.0601116773
 30
0.0
 10
-120.4938859116
 20
240.4323150156
 30
0.0
 10
-119.7497529858
 20
239.2781013414
 30
0.0
  0
SPLINE
  5
363
100
AcDbEntity
  8
0
100
AcDbSpline
 62
7
  6
CONTINUOUS
 70
0
 71
3
 72
9
 73
5
 74
0
 42
0.0000001
 43
0.0000001
 44
0.0000000001
 40
0.0
 40
0.0
 40
0.0
 40
0.0
 40
0.494091864
 40
1.0
 40
1.0
 40
1.0
 40
1.0
 10
-119.2491420982
 20
238.0393849435
 30
0.0
 10
-119.940295681
 20
238.938721084
 30
0.0
 10
-121.1481696045
 20
240.9123215737
 30
0.0
 10
-121.9457238043
 20
243.0808213541
 30
0.0
 10
-122.2486869891
 20
244.2019731921
 30
0.0
  0
SPLINE
  5
364
100
AcDbEntity
  8
0
100
AcDbSpline
 62
7
  6
CONTINUOUS
 70
0
 71
3
 72
12
 73
8
 74
0
 42
0.0000001
 43
0.0000001
 44
0.0000000001
 40
0.0
 40
0.0
 40
0.0
 40
0.0
 40
0.2434898395
 40
0.493923466
 40
0.6207397997
 40
0.7477881384
 40
1.0
 40
1.0
 40
1.0
 40
1.0
 10
-122.9698168374
 20
249.8012230441
 30
0.0
 10
-122.9699639543
 20
251.5038865538
 30
0.0
 10
-122.5932213052
 20
254.9654900677
 30
0.0
 10
-121.2887252948
 20
259.1328505492
 30
0.0
 10
-119.780487429
 20
262.3255517542
 30
0.0
 10
-117.9804012379
 20
265.3763303036
 30
0.0
 10
-116.320193231
 20
267.4703916086
 30
0.0
 10
-115.0974349358
 20
268.741351527
 30
0.0
  0
SPLINE
  5
365
100
AcDbEntity
  8
0
100
AcDbSpline
 62
7
  6
CONTINUOUS
 70
0
 71
3
 72
9
 73
5
 74
0
 42
0.0000001
 43
0.0000001
 44
0.0000000001
 40
0.0
 40
0.0
 40
0.0
 40
0.0
 40
0.5089433043
 40
1.0
 40
1.0
 40
1.0
 40
1.0
 10
-115.0974349358
 20
268.741351527
 30
0.0
 10
-113.8788636874
 20
270.0079593437
 30
0.0
 10
-111.2397487067
 20
272.2745166807
 30
0.0
 10
-108.1798990357
 20
273.94503664
 30
0.0
 10
-106.605433998
 20
274.5750751525
 30
0.0
  0
SPLINE
  5
366
100
AcDbEntity
  8
0
100
AcDbSpline
 62
7
  6
CONTINUOUS
 70
0
 71
3
 72
9
 73
5
 74
0
 42
0.0000001
 43
0.0000001
 44
0.0000000001
 40
0.0
 40
0.0
 40
0.0
 40
0.0
 40
0.5046237218
 40
1.0
 40
1.0
 40
1.0
 40
1.0
 10
-104.1804657803
 20
275.3757615992
 30
0.0
 10
-103.3473789573
 20
275.5933070055
 30
0.0
 10
-101.6658345918
 20
275.9159557777
 30
0.0
 10
-99.9545033887
 20
275.996952711
 30
0.0
 10
-99.1096009884
 20
275.9729298756
 30
0.0
  0
SPLINE
  5
367
100
AcDbEntity
  8
0
100
AcDbSpline
 62
7
  6
CONTINUOUS
 70
0
 71
3
 72
9
 73
5
 74
0
 42
0.0000001
 43
0.0000001
 44
0.0000000001
 40
0.0
 40
0.0
 40
0.0
 40
0.0
 40
0.5000920338
 40
1.0
 40
1.0
 40
1.0
 40
1.0
 10
-105.3293314103
 20
252.1216565738
 30
0.0
 10
-105.3558334158
 20
252.1381293776
 30
0.0
 10
-105.4111616466
 20
252.1671279117
 30
0.0
 10
-105.4649842748
 20
252.1986973962
 30
0.0
 10
-105.4924010441
 20
252.2135740111
 30
0.0
  0
SPLINE
  5
368
100
AcDbEntity
  8
0
100
AcDbSpline
 62
7
  6
CONTINUOUS
 70
0
 71
3
 72
9
 73
5
 74
0
 42
0.0000001
 43
0.0000001
 44
0.0000000001
 40
0.0
 40
0.0
 40
0.0
 40
0.0
 40
0.2422596253
 40
1.0
 40
1.0
 40
1.0
 40
1.0
 10
-113.5062222591
 20
256.6298339326
 30
0.0
 10
-112.8616160044
 20
256.2686369215
 30
0.0
 10
-110.1980272649
 20
254.7826525269
 30
0.0
 10
-107.523776862
 20
253.3158041748
 30
0.0
 10
-105.4924051784
 20
252.2135614533
 30
0.0
  0
SPLINE
  5
369
100
AcDbEntity
  8
0
100
AcDbSpline
 62
7
  6
CONTINUOUS
 70
0
 71
3
 72
9
 73
5
 74
0
 42
0.0000001
 43
0.0000001
 44
0.0000000001
 40
0.0
 40
0.0
 40
0.0
 40
0.0
 40
0.5088191451
 40
1.0
 40
1.0
 40
1.0
 40
1.0
 10
-105.3292686453
 20
252.121637911
 30
0.0
 10
-106.0140050775
 20
250.6181498053
 30
0.0
 10
-107.0975387398
 20
247.5358671754
 30
0.0
 10
-107.5808930521
 20
244.3003342433
 30
0.0
 10
-107.6478477492
 20
242.70693808
 30
0.0
  0
SPLINE
  5
36A
100
AcDbEntity
  8
0
100
AcDbSpline
 62
7
  6
CONTINUOUS
 70
0
 71
3
 72
8
 73
4
 74
0
 42
0.0000001
 43
0.0000001
 44
0.0000000001
 40
0.0
 40
0.0
 40
0.0
 40
0.0
 40
1.0
 40
1.0
 40
1.0
 40
1.0
 10
-107.647843396
 20
242.7069364482
 30
0.0
 10
-107.7044065686
 20
242.7454996237
 30
0.0
 10
-107.7610653822
 20
242.7839243446
 30
0.0
 10
-107.8174032259
 20
242.8228159679
 30
0.0
  0
LINE
  5
36B
100
AcDbEntity
  8
0
100
AcDbLine
 62
7
  6
CONTINUOUS
 10
-107.8170231835
 20
242.82282474
 11
-107.8716160189
 21
242.8607644894
  0
SPLINE
  5
36C
100
AcDbEntity
  8
0
100
AcDbSpline
 62
7
  6
CONTINUOUS
 70
0
 71
3
 72
17
 73
13
 74
0
 42
0.0000001
 43
0.0000001
 44
0.0000000001
 40
0.0
 40
0.0
 40
0.0
 40
0.0
 40
0.0304660022
 40
0.0609137314
 40
0.1219504306
 40
0.1832341642
 40
0.2447839127
 40
0.3686691559
 40
0.4935766687
 40
0.6193898588
 40
0.7459320491
 40
1.0
 40
1.0
 40
1.0
 40
1.0
 10
-107.8716160189
 20
242.8607644894
 30
0.0
 10
-108.0110510425
 20
242.9574098299
 30
0.0
 10
-108.291262876
 20
243.1485816308
 30
0.0
 10
-108.8465740501
 20
243.5395166011
 30
0.0
 10
-109.5316183018
 20
244.0441550025
 30
0.0
 10
-110.3359216633
 20
244.6780945093
 30
0.0
 10
-111.3863107641
 20
245.5639883821
 30
0.0
 10
-112.649911257
 20
246.7451395137
 30
0.0
 10
-114.0715873512
 20
248.2739897053
 30
0.0
 10
-115.3891292219
 20
249.912951682
 30
0.0
 10
-116.9906252609
 20
252.2362560933
 30
0.0
 10
-117.9940465811
 20
254.1153733971
 30
0.0
 10
-118.5634002196
 20
255.4105665172
 30
0.0
  0
SPLINE
  5
36D
100
AcDbEntity
  8
0
100
AcDbSpline
 62
7
  6
CONTINUOUS
 70
0
 71
3
 72
9
 73
5
 74
0
 42
0.0000001
 43
0.0000001
 44
0.0000000001
 40
0.0
 40
0.0
 40
0.0
 40
0.0
 40
0.2497725703
 40
1.0
 40
1.0
 40
1.0
 40
1.0
 10
-118.563503372
 20
255.4108211281
 30
0.0
 10
-118.6849751385
 20
255.6871555003
 30
0.0
 10
-119.1511570432
 20
256.8021982809
 30
0.0
 10
-119.5337229779
 20
257.952587521
 30
0.0
 10
-119.7665815916
 20
258.8288374419
 30
0.0
  0
SPLINE
  5
36E
100
AcDbEntity
  8
0
100
AcDbSpline
 62
7
  6
CONTINUOUS
 70
0
 71
3
 72
11
 73
7
 74
0
 42
0.0000001
 43
0.0000001
 44
0.0000000001
 40
0.0
 40
0.0
 40
0.0
 40
0.0
 40
0.2847570366
 40
0.5341005279
 40
0.7632139718
 40
1.0
 40
1.0
 40
1.0
 40
1.0
 10
-119.7665815332
 20
258.828837457
 30
0.0
 10
-119.7758960923
 20
258.8638808651
 30
0.0
 10
-119.8007269819
 20
258.9282042219
 30
0.0
 10
-119.8649633896
 20
259.0046206429
 30
0.0
 10
-119.9519804634
 20
259.0420351202
 30
0.0
 10
-120.0133417264
 20
259.0367275372
 30
0.0
 10
-120.0424639086
 20
259.0289158109
 30
0.0
  0
SPLINE
  5
36F
100
AcDbEntity
  8
0
100
AcDbSpline
 62
7
  6
CONTINUOUS
 70
0
 71
3
 72
9
 73
5
 74
0
 42
0.0000001
 43
0.0000001
 44
0.0000000001
 40
0.0
 40
0.0
 40
0.0
 40
0.0
 40
0.4447073012
 40
1.0
 40
1.0
 40
1.0
 40
1.0
 10
-86.3104548433
 20
271.1272185902
 30
0.0
 10
-86.1243284995
 20
271.0098484102
 30
0.0
 10
-85.7297893692
 20
270.7085922989
 30
0.0
 10
-85.3630540867
 20
270.3762675804
 30
0.0
 10
-85.1635282343
 20
270.1873684743
 30
0.0
  0
SPLINE
  5
370
100
AcDbEntity
  8
0
100
AcDbSpline
 62
7
  6
CONTINUOUS
 70
0
 71
3
 72
9
 73
5
 74
0
 42
0.0000001
 43
0.0000001
 44
0.0000000001
 40
0.0
 40
0.0
 40
0.0
 40
0.0
 40
0.5013854675
 40
1.0
 40
1.0
 40
1.0
 40
1.0
 10
-111.4937114936
 20
261.9064051329
 30
0.0
 10
-112.0246163322
 20
263.0176324778
 30
0.0
 10
-112.9345831652
 20
265.3086724123
 30
0.0
 10
-113.5048300696
 20
267.7086093118
 30
0.0
 10
-113.6952499181
 20
268.9184475913
 30
0.0
  0
SPLINE
  5
371
100
AcDbEntity
  8
0
100
AcDbSpline
 62
7
  6
CONTINUOUS
 70
0
 71
3
 72
12
 73
8
 74
0
 42
0.0000001
 43
0.0000001
 44
0.0000000001
 40
0.0
 40
0.0
 40
0.0
 40
0.0
 40
0.2242037196
 40
0.4711892717
 40
0.601421722
 40
0.73404909
 40
1.0
 40
1.0
 40
1.0
 40
1.0
 10
-113.6952498576
 20
268.9184463321
 30
0.0
 10
-113.7834716488
 20
268.9585413592
 30
0.0
 10
-113.9899606028
 20
268.9978460382
 30
0.0
 10
-114.2504536237
 20
268.9566268644
 30
0.0
 10
-114.4571788681
 20
268.8787096464
 30
0.0
 10
-114.6590312212
 20
268.7704510885
 30
0.0
 10
-114.7946290118
 20
268.6604267548
 30
0.0
 10
-114.8742870333
 20
268.5775532647
 30
0.0
  0
SPLINE
  5
372
100
AcDbEntity
  8
0
100
AcDbSpline
 62
7
  6
CONTINUOUS
 70
0
 71
3
 72
12
 73
8
 74
0
 42
0.0000001
 43
0.0000001
 44
0.0000000001
 40
0.0
 40
0.0
 40
0.0
 40
0.0
 40
0.4111201402
 40
0.7262320062
 40
0.9230518063
 40
0.9749927891
 40
1.0
 40
1.0
 40
1.0
 40
1.0
 10
-114.8741984896
 20
268.5775033712
 30
0.0
 10
-114.8886505297
 20
268.5858515806
 30
0.0
 10
-114.9144231843
 20
268.6003942781
 30
0.0
 10
-114.9472464517
 20
268.6177603552
 30
0.0
 10
-114.9686996729
 20
268.6274339793
 30
0.0
 10
-114.9787873259
 20
268.630463508
 30
0.0
 10
-114.9825508727
 20
268.6303734126
 30
0.0
 10
-114.9831463684
 20
268.6295512117
 30
0.0
  0
SPLINE
  5
373
100
AcDbEntity
  8
0
100
AcDbSpline
 62
7
  6
CONTINUOUS
 70
0
 71
3
 72
10
 73
6
 74
0
 42
0.0000001
 43
0.0000001
 44
0.0000000001
 40
0.0
 40
0.0
 40
0.0
 40
0.0
 40
0.26352528
 40
0.6570615091
 40
1.0
 40
1.0
 40
1.0
 40
1.0
 10
-112.2143330552
 20
261.7012498601
 30
0.0
 10
-112.1658599207
 20
261.7499508777
 30
0.0
 10
-112.0276828617
 20
261.8546996563
 30
0.0
 10
-111.7787321276
 20
261.9474597553
 30
0.0
 10
-111.5771103956
 20
261.938660495
 30
0.0
 10
-111.4937113599
 20
261.9064052818
 30
0.0
  0
SPLINE
  5
374
100
AcDbEntity
  8
0
100
AcDbSpline
 62
7
  6
CONTINUOUS
 70
0
 71
3
 72
9
 73
5
 74
0
 42
0.0000001
 43
0.0000001
 44
0.0000000001
 40
0.0
 40
0.0
 40
0.0
 40
0.0
 40
0.4990156621
 40
1.0
 40
1.0
 40
1.0
 40
1.0
 10
-114.8742178523
 20
268.5777645676
 30
0.0
 10
-114.5995670486
 20
267.3793715318
 30
0.0
 10
-113.8684546589
 20
265.0162438732
 30
0.0
 10
-112.8139353987
 20
262.7801425366
 30
0.0
 10
-112.2143296986
 20
261.7012532107
 30
0.0
  0
SPLINE
  5
375
100
AcDbEntity
  8
0
100
AcDbSpline
 62
7
  6
CONTINUOUS
 70
0
 71
3
 72
9
 73
5
 74
0
 42
0.0000001
 43
0.0000001
 44
0.0000000001
 40
0.0
 40
0.0
 40
0.0
 40
0.0
 40
0.4978840576
 40
1.0
 40
1.0
 40
1.0
 40
1.0
 10
-112.2143330547
 20
261.7012498592
 30
0.0
 10
-111.4844587965
 20
260.3879655386
 30
0.0
 10
-109.8027217931
 20
257.8654104856
 30
0.0
 10
-107.7628976519
 20
255.6256242716
 30
0.0
 10
-106.6668861208
 20
254.5793312325
 30
0.0
  0
SPLINE
  5
376
100
AcDbEntity
  8
0
100
AcDbSpline
 62
7
  6
CONTINUOUS
 70
0
 71
3
 72
9
 73
5
 74
0
 42
0.0000001
 43
0.0000001
 44
0.0000000001
 40
0.0
 40
0.0
 40
0.0
 40
0.0
 40
0.2844320396
 40
1.0
 40
1.0
 40
1.0
 40
1.0
 10
-106.0995580073
 20
254.0504498567
 30
0.0
 10
-106.0942857439
 20
254.0587662383
 30
0.0
 10
-106.0727571101
 20
254.0850092817
 30
0.0
 10
-106.0337068673
 20
254.1041721903
 30
0.0
 10
-106.0101154171
 20
254.0966150488
 30
0.0
  0
SPLINE
  5
377
100
AcDbEntity
  8
0
100
AcDbSpline
 62
7
  6
CONTINUOUS
 70
0
 71
3
 72
9
 73
5
 74
0
 42
0.0000001
 43
0.0000001
 44
0.0000000001
 40
0.0
 40
0.0
 40
0.0
 40
0.0
 40
0.2421470339
 40
1.0
 40
1.0
 40
1.0
 40
1.0
 10
-107.7494248735
 20
242.7672889679
 30
0.0
 10
-107.7546113732
 20
242.7721191599
 30
0.0
 10
-107.7763781081
 20
242.7916920146
 30
0.0
 10
-107.7994342757
 20
242.8098108523
 30
0.0
 10
-107.8174032259
 20
242.8228159679
 30
0.0
  0
SPLINE
  5
378
100
AcDbEntity
  8
0
100
AcDbSpline
 62
7
  6
CONTINUOUS
 70
0
 71
3
 72
8
 73
4
 74
0
 42
0.0000001
 43
0.0000001
 44
0.0000000001
 40
0.0
 40
0.0
 40
0.0
 40
0.0
 40
1.0
 40
1.0
 40
1.0
 40
1.0
 10
-107.8264009614
 20
242.8111023364
 30
0.0
 10
-107.8258568428
 20
242.8159368342
 30
0.0
 10
-107.8222453667
 20
242.821851444
 30
0.0
 10
-107.8174421214
 20
242.8226242761
 30
0.0
  0
SPLINE
  5
379
100
AcDbEntity
  8
0
100
AcDbSpline
 62
7
  6
CONTINUOUS
 70
0
 71
3
 72
9
 73
5
 74
0
 42
0.0000001
 43
0.0000001
 44
0.0000000001
 40
0.0
 40
0.0
 40
0.0
 40
0.0
 40
0.5102723841
 40
1.0
 40
1.0
 40
1.0
 40
1.0
 10
-119.4301869335
 20
254.8709742791
 30
0.0
 10
-118.001265431
 20
252.3979986892
 30
0.0
 10
-114.5818461843
 20
247.88485135
 30
0.0
 10
-110.1958094449
 20
244.3172467327
 30
0.0
 10
-107.8825252581
 20
242.8467058244
 30
0.0
  0
SPLINE
  5
37A
100
AcDbEntity
  8
0
100
AcDbSpline
 62
7
  6
CONTINUOUS
 70
0
 71
3
 72
9
 73
5
 74
0
 42
0.0000001
 43
0.0000001
 44
0.0000000001
 40
0.0
 40
0.0
 40
0.0
 40
0.0
 40
0.2529268739
 40
1.0
 40
1.0
 40
1.0
 40
1.0
 10
-121.0112963278
 20
257.9587260594
 30
0.0
 10
-121.1199550882
 20
257.4467489896
 30
0.0
 10
-121.5161192322
 20
255.4156300519
 30
0.0
 10
-121.7769946738
 20
253.3577747788
 30
0.0
 10
-121.8891582887
 20
251.8159336463
 30
0.0
  0
SPLINE
  5
37B
100
AcDbEntity
  8
0
100
AcDbSpline
 62
7
  6
CONTINUOUS
 70
0
 71
3
 72
10
 73
6
 74
0
 42
0.0000001
 43
0.0000001
 44
0.0000000001
 40
0.0
 40
0.0
 40
0.0
 40
0.0
 40
0.242182902
 40
0.5007996727
 40
1.0
 40
1.0
 40
1.0
 40
1.0
 10
-120.0413181545
 20
258.7551588254
 30
0.0
 10
-120.1444946346
 20
258.7381828225
 30
0.0
 10
-120.3518457645
 20
258.6641800052
 30
0.0
 10
-120.7138269581
 20
258.426337889
 30
0.0
 10
-120.9267989387
 20
258.1569868498
 30
0.0
 10
-121.011228334
 20
257.9586793723
 30
0.0
  0
SPLINE
  5
37C
100
AcDbEntity
  8
0
100
AcDbSpline
 62
7
  6
CONTINUOUS
 70
0
 71
3
 72
10
 73
6
 74
0
 42
0.0000001
 43
0.0000001
 44
0.0000000001
 40
0.0
 40
0.0
 40
0.0
 40
0.0
 40
0.3475561541
 40
0.6316722699
 40
1.0
 40
1.0
 40
1.0
 40
1.0
 10
-121.011309229
 20
257.9587269136
 30
0.0
 10
-121.0251330363
 20
257.9667147625
 30
0.0
 10
-121.0497870749
 20
257.9827551164
 30
0.0
 10
-121.0843369144
 20
258.0110719301
 30
0.0
 10
-121.1027301702
 20
258.041592901
 30
0.0
 10
-121.0993262091
 20
258.0581668359
 30
0.0
  0
SPLINE
  5
37D
100
AcDbEntity
  8
0
100
AcDbSpline
 62
7
  6
CONTINUOUS
 70
0
 71
3
 72
11
 73
7
 74
0
 42
0.0000001
 43
0.0000001
 44
0.0000000001
 40
0.0
 40
0.0
 40
0.0
 40
0.0
 40
0.228969422
 40
0.4860287889
 40
0.7505098429
 40
1.0
 40
1.0
 40
1.0
 40
1.0
 10
-119.4299854349
 20
254.8706255585
 30
0.0
 10
-119.3873700918
 20
254.9381325939
 30
0.0
 10
-119.2745306318
 20
255.0673798176
 30
0.0
 10
-119.0644825582
 20
255.2257020163
 30
0.0
 10
-118.8230514469
 20
255.3470359425
 30
0.0
 10
-118.6493002285
 20
255.3968767075
 30
0.0
 10
-118.5633964354
 20
255.4105649711
 30
0.0
  0
SPLINE
  5
37E
100
AcDbEntity
  8
0
100
AcDbSpline
 62
7
  6
CONTINUOUS
 70
0
 71
3
 72
8
 73
4
 74
0
 42
0.0000001
 43
0.0000001
 44
0.0000000001
 40
0.0
 40
0.0
 40
0.0
 40
0.0
 40
1.0
 40
1.0
 40
1.0
 40
1.0
 10
-107.8825252487
 20
242.8467058891
 30
0.0
 10
-107.8816295818
 20
242.8525694764
 30
0.0
 10
-107.8771800225
 20
242.8587087748
 30
0.0
 10
-107.8716160348
 20
242.8607644781
 30
0.0
  0
SPLINE
  5
37F
100
AcDbEntity
  8
0
100
AcDbSpline
 62
7
  6
CONTINUOUS
 70
0
 71
3
 72
9
 73
5
 74
0
 42
0.0000001
 43
0.0000001
 44
0.0000000001
 40
0.0
 40
0.0
 40
0.0
 40
0.0
 40
0.2470751069
 40
1.0
 40
1.0
 40
1.0
 40
1.0
 10
-94.9910667813
 20
276.3991813844
 30
0.0
 10
-95.3197841063
 20
276.3871811641
 30
0.0
 10
-96.6492859884
 20
276.3151220101
 30
0.0
 10
-97.973519174
 20
276.1501094325
 30
0.0
 10
-98.9609604436
 20
275.9776711524
 30
0.0
  0
SPLINE
  5
380
100
AcDbEntity
  8
0
100
AcDbSpline
 62
7
  6
CONTINUOUS
 70
0
 71
3
 72
9
 73
5
 74
0
 42
0.0000001
 43
0.0000001
 44
0.0000000001
 40
0.0
 40
0.0
 40
0.0
 40
0.0
 40
0.4941389258
 40
1.0
 40
1.0
 40
1.0
 40
1.0
 10
-116.0736890503
 20
240.4246258997
 30
0.0
 10
-117.1736932414
 20
241.4652074075
 30
0.0
 10
-119.270962745
 20
243.7122807532
 30
0.0
 10
-121.0338918473
 20
246.2356515435
 30
0.0
 10
-121.8158095734
 20
247.574119427
 30
0.0
  0
SPLINE
  5
381
100
AcDbEntity
  8
0
100
AcDbSpline
 62
7
  6
CONTINUOUS
 70
0
 71
3
 72
11
 73
7
 74
0
 42
0.0000001
 43
0.0000001
 44
0.0000000001
 40
0.0
 40
0.0
 40
0.0
 40
0.0
 40
0.3321469856
 40
0.6036362018
 40
0.8122670785
 40
1.0
 40
1.0
 40
1.0
 40
1.0
 10
-121.8158095735
 20
247.574119427
 30
0.0
 10
-121.8396356596
 20
247.614904354
 30
0.0
 10
-121.8892242897
 20
247.6857934358
 30
0.0
 10
-121.9770058317
 20
247.7632114943
 30
0.0
 10
-122.07380211
 20
247.7917942139
 30
0.0
 10
-122.1293654332
 20
247.7651956999
 30
0.0
 10
-122.1491052492
 20
247.7472209762
 30
0.0
  0
SPLINE
  5
382
100
AcDbEntity
  8
0
100
AcDbSpline
 62
7
  6
CONTINUOUS
 70
0
 71
3
 72
9
 73
5
 74
0
 42
0.0000001
 43
0.0000001
 44
0.0000000001
 40
0.0
 40
0.0
 40
0.0
 40
0.0
 40
0.2471201907
 40
1.0
 40
1.0
 40
1.0
 40
1.0
 10
-122.2824853836
 20
248.9190701556
 30
0.0
 10
-122.2825062034
 20
249.1600282878
 30
0.0
 10
-122.2675812644
 20
250.1350504978
 30
0.0
 10
-122.1935090035
 20
251.1090527057
 30
0.0
 10
-122.1066127552
 20
251.8379980032
 30
0.0
  0
SPLINE
  5
383
100
AcDbEntity
  8
0
100
AcDbSpline
 62
7
  6
CONTINUOUS
 70
0
 71
3
 72
10
 73
6
 74
0
 42
0.0000001
 43
0.0000001
 44
0.0000000001
 40
0.0
 40
0.0
 40
0.0
 40
0.0
 40
0.2371931189
 40
0.6091014894
 40
1.0
 40
1.0
 40
1.0
 40
1.0
 10
-122.0013676651
 20
248.7580139225
 30
0.0
 10
-120.9214581564
 20
248.1349622534
 30
0.0
 10
-118.1184978042
 20
246.5861857017
 30
0.0
 10
-113.4074491219
 20
244.249969719
 30
0.0
 10
-109.7344263652
 20
242.6383228786
 30
0.0
 10
-107.8361054812
 20
241.8521516581
 30
0.0
  0
SPLINE
  5
384
100
AcDbEntity
  8
0
100
AcDbSpline
 62
7
  6
CONTINUOUS
 70
0
 71
3
 72
9
 73
5
 74
0
 42
0.0000001
 43
0.0000001
 44
0.0000000001
 40
0.0
 40
0.0
 40
0.0
 40
0.0
 40
0.4950446233
 40
1.0
 40
1.0
 40
1.0
 40
1.0
 10
-93.4897850504
 20
274.7143181406
 30
0.0
 10
-91.3579007053
 20
273.4807657585
 30
0.0
 10
-87.2025855815
 20
270.719109962
 30
0.0
 10
-83.4073076052
 20
267.4825127757
 30
0.0
 10
-81.5902178629
 20
265.7475477463
 30
0.0
  0
SPLINE
  5
385
100
AcDbEntity
  8
0
100
AcDbSpline
 62
7
  6
CONTINUOUS
 70
0
 71
3
 72
11
 73
7
 74
0
 42
0.0000001
 43
0.0000001
 44
0.0000000001
 40
0.0
 40
0.0
 40
0.0
 40
0.0
 40
0.2411376776
 40
0.487054652
 40
0.7395679608
 40
1.0
 40
1.0
 40
1.0
 40
1.0
 10
-81.4728373539
 20
265.6338834116
 30
0.0
 10
-82.0766384038
 20
265.8595949643
 30
0.0
 10
-83.3338470112
 20
266.2206242403
 30
0.0
 10
-85.3012441314
 20
266.475672989
 30
0.0
 10
-87.3360445712
 20
266.4460752567
 30
0.0
 10
-88.6963981413
 20
266.2405828279
 30
0.0
 10
-89.3769671001
 20
266.0939454261
 30
0.0
  0
SPLINE
  5
386
100
AcDbEntity
  8
0
100
AcDbSpline
 62
7
  6
CONTINUOUS
 70
0
 71
3
 72
9
 73
5
 74
0
 42
0.0000001
 43
0.0000001
 44
0.0000000001
 40
0.0
 40
0.0
 40
0.0
 40
0.0
 40
0.5163577293
 40
1.0
 40
1.0
 40
1.0
 40
1.0
 10
-107.6673279096
 20
241.7823978738
 30
0.0
 10
-107.6672016984
 20
240.2897577653
 30
0.0
 10
-107.3684333046
 20
237.3875915748
 30
0.0
 10
-106.3773385556
 20
234.6320051681
 30
0.0
 10
-105.7229006014
 20
233.396566565
 30
0.0
  0
SPLINE
  5
387
100
AcDbEntity
  8
0
100
AcDbSpline
 62
7
  6
CONTINUOUS
 70
0
 71
3
 72
10
 73
6
 74
0
 42
0.0000001
 43
0.0000001
 44
0.0000000001
 40
0.0
 40
0.0
 40
0.0
 40
0.0
 40
0.2417232693
 40
0.4892121134
 40
1.0
 40
1.0
 40
1.0
 40
1.0
 10
-107.1751104185
 20
234.1202679143
 30
0.0
 10
-107.9559171919
 20
234.5284679778
 30
0.0
 10
-109.513365988
 20
235.3999479143
 30
0.0
 10
-112.5681242532
 20
237.3916299346
 30
0.0
 10
-114.7211718162
 20
239.1451732865
 30
0.0
 10
-116.073688516
 20
240.4246262107
 30
0.0
  0
SPLINE
  5
388
100
AcDbEntity
  8
0
100
AcDbSpline
 62
7
  6
CONTINUOUS
 70
0
 71
3
 72
9
 73
5
 74
0
 42
0.0000001
 43
0.0000001
 44
0.0000000001
 40
0.0
 40
0.0
 40
0.0
 40
0.0
 40
0.2451579341
 40
1.0
 40
1.0
 40
1.0
 40
1.0
 10
-116.0736890503
 20
240.4246258997
 30
0.0
 10
-116.6341820344
 20
240.9208760219
 30
0.0
 10
-118.8747625946
 20
242.9958508986
 30
0.0
 10
-120.9239564294
 20
245.2793942093
 30
0.0
 10
-122.3309361773
 20
247.1051278155
 30
0.0
  0
SPLINE
  5
389
100
AcDbEntity
  8
0
100
AcDbSpline
 62
7
  6
CONTINUOUS
 70
0
 71
3
 72
11
 73
7
 74
0
 42
0.0000001
 43
0.0000001
 44
0.0000000001
 40
0.0
 40
0.0
 40
0.0
 40
0.0
 40
0.2751957937
 40
0.5453321959
 40
0.7905206195
 40
1.0
 40
1.0
 40
1.0
 40
1.0
 10
-122.3309361703
 20
247.1051277296
 30
0.0
 10
-122.4217710804
 20
247.0353022279
 30
0.0
 10
-122.5845359955
 20
246.8737300173
 30
0.0
 10
-122.7665986032
 20
246.5967289908
 30
0.0
 10
-122.8732054902
 20
246.3115750217
 30
0.0
 10
-122.8877134121
 20
246.1184537251
 30
0.0
 10
-122.8758484649
 20
246.0320527807
 30
0.0
  0
SPLINE
  5
38A
100
AcDbEntity
  8
0
100
AcDbSpline
 62
7
  6
CONTINUOUS
 70
0
 71
3
 72
9
 73
5
 74
0
 42
0.0000001
 43
0.0000001
 44
0.0000000001
 40
0.0
 40
0.0
 40
0.0
 40
0.0
 40
0.2680238627
 40
1.0
 40
1.0
 40
1.0
 40
1.0
 10
-122.8757606907
 20
246.0320027685
 30
0.0
 10
-122.8857165648
 20
246.0377460369
 30
0.0
 10
-122.921285195
 20
246.0615129666
 30
0.0
 10
-122.9497503446
 20
246.097910237
 30
0.0
 10
-122.9592983683
 20
246.1278121891
 30
0.0
  0
SPLINE
  5
38B
100
AcDbEntity
  8
0
100
AcDbSpline
 62
7
  6
CONTINUOUS
 70
0
 71
3
 72
10
 73
6
 74
0
 42
0.0000001
 43
0.0000001
 44
0.0000000001
 40
0.0
 40
0.0
 40
0.0
 40
0.0
 40
0.4067739627
 40
0.6966276967
 40
1.0
 40
1.0
 40
1.0
 40
1.0
 10
-111.7880418587
 20
232.1313838392
 30
0.0
 10
-111.7878825339
 20
232.0793326167
 30
0.0
 10
-111.6984411045
 20
232.0103123468
 30
0.0
 10
-111.5826934209
 20
231.9705201725
 30
0.0
 10
-111.5071388767
 20
231.9541144476
 30
0.0
 10
-111.4687622402
 20
231.948264003
 30
0.0
  0
SPLINE
  5
38C
100
AcDbEntity
  8
0
100
AcDbSpline
 62
7
  6
CONTINUOUS
 70
0
 71
3
 72
9
 73
5
 74
0
 42
0.0000001
 43
0.0000001
 44
0.0000000001
 40
0.0
 40
0.0
 40
0.0
 40
0.0
 40
0.2538901061
 40
1.0
 40
1.0
 40
1.0
 40
1.0
 10
-122.2997960542
 20
244.3991100831
 30
0.0
 10
-122.1474994198
 20
244.0031560496
 30
0.0
 10
-121.5151381056
 20
242.4563786428
 30
0.0
 10
-120.7503654751
 20
240.9631630678
 30
0.0
 10
-120.1065520228
 20
239.895565974
 30
0.0
  0
SPLINE
  5
38D
100
AcDbEntity
  8
0
100
AcDbSpline
 62
7
  6
CONTINUOUS
 70
0
 71
3
 72
9
 73
5
 74
0
 42
0.0000001
 43
0.0000001
 44
0.0000000001
 40
0.0
 40
0.0
 40
0.0
 40
0.0
 40
0.255661436
 40
1.0
 40
1.0
 40
1.0
 40
1.0
 10
-122.8759545509
 20
246.0322820153
 30
0.0
 10
-122.3767496963
 20
245.4508602293
 30
0.0
 10
-120.3685106781
 20
243.2249102111
 30
0.0
 10
-118.1497777556
 20
241.1899046933
 30
0.0
 10
-116.4060310223
 20
239.7980853971
 30
0.0
  0
SPLINE
  5
38E
100
AcDbEntity
  8
0
100
AcDbSpline
 62
7
  6
CONTINUOUS
 70
0
 71
3
 72
9
 73
5
 74
0
 42
0.0000001
 43
0.0000001
 44
0.0000000001
 40
0.0
 40
0.0
 40
0.0
 40
0.0
 40
0.2590003882
 40
1.0
 40
1.0
 40
1.0
 40
1.0
 10
-116.4060293961
 20
239.7980742813
 30
0.0
 10
-115.7262529168
 20
239.255492872
 30
0.0
 10
-113.0460469191
 20
237.2312920737
 30
0.0
 10
-110.1556439159
 20
235.4846673857
 30
0.0
 10
-107.9285538679
 20
234.374631186
 30
0.0
  0
SPLINE
  5
38F
100
AcDbEntity
  8
0
100
AcDbSpline
 62
7
  6
CONTINUOUS
 70
0
 71
3
 72
14
 73
10
 74
0
 42
0.0000001
 43
0.0000001
 44
0.0000000001
 40
0.0
 40
0.0
 40
0.0
 40
0.0
 40
0.0286042748
 40
0.0941674637
 40
0.196616587
 40
0.3301309572
 40
0.4855403698
 40
0.6539856259
 40
1.0
 40
1.0
 40
1.0
 40
1.0
 10
-119.3958756893
 20
237.5137526513
 30
0.0
 10
-119.3973165848
 20
237.5104838045
 30
0.0
 10
-119.3879187167
 20
237.4988389699
 30
0.0
 10
-119.3703536999
 20
237.4852529546
 30
0.0
 10
-119.3381484686
 20
237.4634418471
 30
0.0
 10
-119.2964832873
 20
237.4387904125
 30
0.0
 10
-119.2464400315
 20
237.4109092227
 30
0.0
 10
-119.1724738515
 20
237.3719439557
 30
0.0
 10
-119.1149111727
 20
237.3433262116
 30
0.0
 10
-119.0759928304
 20
237.3245451391
 30
0.0
  0
SPLINE
  5
390
100
AcDbEntity
  8
0
100
AcDbSpline
 62
7
  6
CONTINUOUS
 70
0
 71
3
 72
10
 73
6
 74
0
 42
0.0000001
 43
0.0000001
 44
0.0000000001
 40
0.0
 40
0.0
 40
0.0
 40
0.0
 40
0.1922110887
 40
0.4368842917
 40
1.0
 40
1.0
 40
1.0
 40
1.0
 10
-116.4060293887
 20
239.7980742754
 30
0.0
 10
-116.4128452676
 20
239.8442725842
 30
0.0
 10
-116.3987645792
 20
239.9528273339
 30
0.0
 10
-116.3035421527
 20
240.1770945775
 30
0.0
 10
-116.176252723
 20
240.3340833526
 30
0.0
 10
-116.0736890519
 20
240.4246259056
 30
0.0
  0
SPLINE
  5
391
100
AcDbEntity
  8
0
100
AcDbSpline
 62
7
  6
CONTINUOUS
 70
0
 71
3
 72
9
 73
5
 74
0
 42
0.0000001
 43
0.0000001
 44
0.0000000001
 40
0.0
 40
0.0
 40
0.0
 40
0.0
 40
0.4563170268
 40
1.0
 40
1.0
 40
1.0
 40
1.0
 10
-107.2019893476
 20
234.0205230478
 30
0.0
 10
-107.2087476057
 20
234.0353276435
 30
0.0
 10
-107.2061541754
 20
234.0741750374
 30
0.0
 10
-107.1883028802
 20
234.1060563867
 30
0.0
 10
-107.1751117167
 20
234.1202679172
 30
0.0
  0
SPLINE
  5
392
100
AcDbEntity
  8
0
100
AcDbSpline
 62
7
  6
CONTINUOUS
 70
0
 71
3
 72
11
 73
7
 74
0
 42
0.0000001
 43
0.0000001
 44
0.0000000001
 40
0.0
 40
0.0
 40
0.0
 40
0.0
 40
0.2482084513
 40
0.4971024187
 40
0.747837163
 40
1.0
 40
1.0
 40
1.0
 40
1.0
 10
-105.9330321643
 20
233.4540281108
 30
0.0
 10
-106.0365772956
 20
233.507653392
 30
0.0
 10
-106.2428022685
 20
233.6172812148
 30
0.0
 10
-106.5505208355
 20
233.7868282778
 30
0.0
 10
-106.8618739758
 20
233.9535623222
 30
0.0
 10
-107.0714333769
 20
234.0627362752
 30
0.0
 10
-107.1750183124
 20
234.1202178621
 30
0.0
  0
SPLINE
  5
393
100
AcDbEntity
  8
0
100
AcDbSpline
 62
7
  6
CONTINUOUS
 70
0
 71
3
 72
8
 73
4
 74
0
 42
0.0000001
 43
0.0000001
 44
0.0000000001
 40
0.0
 40
0.0
 40
0.0
 40
0.0
 40
1.0
 40
1.0
 40
1.0
 40
1.0
 10
-105.9359590049
 20
233.4414931171
 30
0.0
 10
-105.9378315446
 20
233.4453480806
 30
0.0
 10
-105.9357982961
 20
233.4507760226
 30
0.0
 10
-105.9329731009
 20
233.4539986646
 30
0.0
  0
SPLINE
  5
394
100
AcDbEntity
  8
0
100
AcDbSpline
 62
7
  6
CONTINUOUS
 70
0
 71
3
 72
9
 73
5
 74
0
 42
0.0000001
 43
0.0000001
 44
0.0000000001
 40
0.0
 40
0.0
 40
0.0
 40
0.0
 40
0.5012602539
 40
1.0
 40
1.0
 40
1.0
 40
1.0
 10
-105.3254134525
 20
232.6937412307
 30
0.0
 10
-105.3528349991
 20
232.703510725
 30
0.0
 10
-105.4082299974
 20
232.7209977691
 30
0.0
 10
-105.4632709072
 20
232.7395122189
 30
0.0
 10
-105.4908408823
 20
232.7483880435
 30
0.0
  0
SPLINE
  5
395
100
AcDbEntity
  8
0
100
AcDbSpline
 62
7
  6
CONTINUOUS
 70
0
 71
3
 72
14
 73
10
 74
0
 42
0.0000001
 43
0.0000001
 44
0.0000000001
 40
0.0
 40
0.0
 40
0.0
 40
0.0
 40
0.3290980266
 40
0.4831208004
 40
0.6266355125
 40
0.7545521673
 40
0.8565952839
 40
0.9082439485
 40
1.0
 40
1.0
 40
1.0
 40
1.0
 10
-93.4428653385
 20
274.7043170083
 30
0.0
 10
-93.4489552043
 20
274.7062827431
 30
0.0
 10
-93.4578924951
 20
274.7091235091
 30
0.0
 10
-93.469608218
 20
274.7126245536
 30
0.0
 10
-93.4774420428
 20
274.7149127141
 30
0.0
 10
-93.4848480529
 20
274.7166877766
 30
0.0
 10
-93.4892621405
 20
274.717985505
 30
0.0
 10
-93.4962028909
 20
274.7181483684
 30
0.0
 10
-93.4913301052
 20
274.7152103936
 30
0.0
 10
-93.4897850504
 20
274.7143181406
 30
0.0
  0
SPLINE
  5
396
100
AcDbEntity
  8
0
100
AcDbSpline
 62
7
  6
CONTINUOUS
 70
0
 71
3
 72
21
 73
17
 74
0
 42
0.0000001
 43
0.0000001
 44
0.0000000001
 40
0.0
 40
0.0
 40
0.0
 40
0.0
 40
0.2619273933
 40
0.3923398858
 40
0.5221017897
 40
0.6507932181
 40
0.7775362281
 40
0.8395620683
 40
0.8998509274
 40
0.9288407581
 40
0.9563780315
 40
0.9692047738
 40
0.9809009201
 40
0.9905894635
 40
0.9947029951
 40
1.0
 40
1.0
 40
1.0
 40
1.0
 10
-102.1626963486
 20
275.3049560393
 30
0.0
 10
-102.2383286844
 20
275.2839069255
 30
0.0
 10
-102.3512991964
 20
275.2512065001
 30
0.0
 10
-102.5008102876
 20
275.2049903119
 30
0.0
 10
-102.6116904135
 20
275.1690528464
 30
0.0
 10
-102.7209211364
 20
275.1316449965
 30
0.0
 10
-102.8102693194
 20
275.0988793953
 30
0.0
 10
-102.8796142191
 20
275.0712254857
 30
0.0
 10
-102.9212602907
 20
275.0532540177
 30
0.0
 10
-102.9528149208
 20
275.0380355574
 30
0.0
 10
-102.9710815263
 20
275.0281530364
 30
0.0
 10
-102.9843000437
 20
275.0197083281
 30
0.0
 10
-102.9921867816
 20
275.0133849019
 30
0.0
 10
-102.9978044719
 20
275.0075444854
 30
0.0
 10
-102.9980593524
 20
275.0013674488
 30
0.0
 10
-102.9956737834
 20
274.9992513032
 30
0.0
 10
-102.9942962572
 20
274.9984619517
 30
0.0
  0
SPLINE
  5
397
100
AcDbEntity
  8
0
100
AcDbSpline
 62
7
  6
CONTINUOUS
 70
0
 71
3
 72
11
 73
7
 74
0
 42
0.0000001
 43
0.0000001
 44
0.0000000001
 40
0.0
 40
0.0
 40
0.0
 40
0.0
 40
0.2763542089
 40
0.53575596
 40
0.7771759831
 40
1.0
 40
1.0
 40
1.0
 40
1.0
 10
-103.152682103
 20
269.689700667
 30
0.0
 10
-103.303611295
 20
270.1258202734
 30
0.0
 10
-103.5614236511
 20
270.9840260214
 30
0.0
 10
-103.8131306016
 20
272.2596249459
 30
0.0
 10
-103.9123836341
 20
273.4667431564
 30
0.0
 10
-103.8718662985
 20
274.244401708
 30
0.0
 10
-103.8210593736
 20
274.6130216062
 30
0.0
  0
SPLINE
  5
398
100
AcDbEntity
  8
0
100
AcDbSpline
 62
7
  6
CONTINUOUS
 70
0
 71
3
 72
9
 73
5
 74
0
 42
0.0000001
 43
0.0000001
 44
0.0000000001
 40
0.0
 40
0.0
 40
0.0
 40
0.0
 40
0.7365190979
 40
1.0
 40
1.0
 40
1.0
 40
1.0
 10
-103.8210593732
 20
274.6130216056
 30
0.0
 10
-103.8189703568
 20
274.6281775754
 30
0.0
 10
-103.8217852711
 20
274.6500389423
 30
0.0
 10
-103.8312638938
 20
274.6685587502
 30
0.0
 10
-103.8340900532
 20
274.6732457485
 30
0.0
  0
SPLINE
  5
399
100
AcDbEntity
  8
0
100
AcDbSpline
 62
7
  6
CONTINUOUS
 70
0
 71
3
 72
11
 73
7
 74
0
 42
0.0000001
 43
0.0000001
 44
0.0000000001
 40
0.0
 40
0.0
 40
0.0
 40
0.0
 40
0.2131982237
 40
0.4556346398
 40
0.7240101494
 40
1.0
 40
1.0
 40
1.0
 40
1.0
 10
-120.3304276609
 20
258.9516957543
 30
0.0
 10
-120.3049389698
 20
258.9585241486
 30
0.0
 10
-120.2453522972
 20
258.9554624952
 30
0.0
 10
-120.1659507267
 20
258.9100826129
 30
0.0
 10
-120.0969000619
 20
258.8404508258
 30
0.0
 10
-120.0586282091
 20
258.7846130304
 30
0.0
 10
-120.0413206496
 20
258.7551630712
 30
0.0
  0
SPLINE
  5
39A
100
AcDbEntity
  8
0
100
AcDbSpline
 62
7
  6
CONTINUOUS
 70
0
 71
3
 72
9
 73
5
 74
0
 42
0.0000001
 43
0.0000001
 44
0.0000000001
 40
0.0
 40
0.0
 40
0.0
 40
0.0
 40
0.2518503985
 40
1.0
 40
1.0
 40
1.0
 40
1.0
 10
-121.9833040007
 20
251.8263092263
 30
0.0
 10
-122.001420797
 20
251.5692590243
 30
0.0
 10
-122.0563394148
 20
250.547466606
 30
0.0
 10
-122.0450368389
 20
249.5222576833
 30
0.0
 10
-122.0013676651
 20
248.7580139225
 30
0.0
  0
SPLINE
  5
39B
100
AcDbEntity
  8
0
100
AcDbSpline
 62
7
  6
CONTINUOUS
 70
0
 71
3
 72
9
 73
5
 74
0
 42
0.0000001
 43
0.0000001
 44
0.0000000001
 40
0.0
 40
0.0
 40
0.0
 40
0.0
 40
0.4860156458
 40
1.0
 40
1.0
 40
1.0
 40
1.0
 10
-102.9942962572
 20
274.9984619517
 30
0.0
 10
-100.8153406837
 20
273.7381194107
 30
0.0
 10
-96.4615314683
 20
270.9169182787
 30
0.0
 10
-92.3737221489
 20
267.7261132591
 30
0.0
 10
-90.3394143439
 20
266.0090935842
 30
0.0
  0
SPLINE
  5
39C
100
AcDbEntity
  8
0
100
AcDbSpline
 62
7
  6
CONTINUOUS
 70
0
 71
3
 72
10
 73
6
 74
0
 42
0.0000001
 43
0.0000001
 44
0.0000000001
 40
0.0
 40
0.0
 40
0.0
 40
0.0
 40
0.4964101891
 40
0.7489128477
 40
1.0
 40
1.0
 40
1.0
 40
1.0
 10
-90.3394276443
 20
266.0091067153
 30
0.0
 10
-90.3169366298
 20
265.9901235928
 30
0.0
 10
-90.2840009283
 20
265.960304618
 30
0.0
 10
-90.2380817807
 20
265.9228192642
 30
0.0
 10
-90.2145049576
 20
265.9044250038
 30
0.0
 10
-90.2035946706
 20
265.8942970715
 30
0.0
  0
SPLINE
  5
39D
100
AcDbEntity
  8
0
100
AcDbSpline
 62
7
  6
CONTINUOUS
 70
0
 71
3
 72
9
 73
5
 74
0
 42
0.0000001
 43
0.0000001
 44
0.0000000001
 40
0.0
 40
0.0
 40
0.0
 40
0.0
 40
0.4852925994
 40
1.0
 40
1.0
 40
1.0
 40
1.0
 10
-90.2036085899
 20
265.8941206236
 30
0.0
 10
-91.632787374
 20
265.5108688775
 30
0.0
 10
-94.4835470761
 20
264.3432917186
 30
0.0
 10
-97.010083125
 20
262.5956041991
 30
0.0
 10
-98.2105422164
 20
261.5847680439
 30
0.0
  0
SPLINE
  5
39E
100
AcDbEntity
  8
0
100
AcDbSpline
 62
7
  6
CONTINUOUS
 70
0
 71
3
 72
9
 73
5
 74
0
 42
0.0000001
 43
0.0000001
 44
0.0000000001
 40
0.0
 40
0.0
 40
0.0
 40
0.0
 40
0.4996107693
 40
1.0
 40
1.0
 40
1.0
 40
1.0
 10
-113.8498754826
 20
269.1054376122
 30
0.0
 10
-113.8109993726
 20
269.0908540241
 30
0.0
 10
-113.7420059299
 20
269.0358728177
 30
0.0
 10
-113.7069557504
 20
268.9583526012
 30
0.0
 10
-113.6952502925
 20
268.918447815
 30
0.0
  0
SPLINE
  5
39F
100
AcDbEntity
  8
0
100
AcDbSpline
 62
7
  6
CONTINUOUS
 70
0
 71
3
 72
25
 73
21
 74
0
 42
0.0000001
 43
0.0000001
 44
0.0000000001
 40
0.0
 40
0.0
 40
0.0
 40
0.0
 40
0.1255877914
 40
0.251190019
 40
0.3768025196
 40
0.5024191359
 40
0.5652264425
 40
0.6280300137
 40
0.6908260792
 40
0.7536076513
 40
0.8163597109
 40
0.8477148306
 40
0.8790434576
 40
0.9103236451
 40
0.9414989573
 40
0.9569997683
 40
0.9723594539
 40
0.9873145029
 40
0.9942875218
 40
1.0
 40
1.0
 40
1.0
 40
1.0
 10
-118.7159171015
 20
261.9692926693
 30
0.0
 10
-118.7532320758
 20
261.8895799328
 30
0.0
 10
-118.8268850397
 20
261.7296837472
 30
0.0
 10
-118.9343388138
 20
261.4884564419
 30
0.0
 10
-119.0386270237
 20
261.2458209878
 30
0.0
 10
-119.122693135
 20
261.0424167672
 30
0.0
 10
-119.1880098656
 20
260.8789136676
 30
0.0
 10
-119.2359281995
 20
260.7558743043
 30
0.0
 10
-119.2826368042
 20
260.6323892195
 30
0.0
 10
-119.3279071295
 20
260.5084073757
 30
0.0
 10
-119.364129349
 20
260.4045881471
 30
0.0
 10
-119.39181173
 20
260.3211504528
 30
0.0
 10
-119.4117285207
 20
260.258381303
 30
0.0
 10
-119.4304819279
 20
260.1953787426
 30
0.0
 10
-119.4446867269
 20
260.1426271904
 30
0.0
 10
-119.4544013301
 20
260.1002069876
 30
0.0
 10
-119.4603129217
 20
260.0687436884
 30
0.0
 10
-119.4631862541
 20
260.0423945269
 30
0.0
 10
-119.4624014623
 20
260.02350283
 30
0.0
 10
-119.4587988131
 20
260.0140050148
 30
0.0
 10
-119.4553186332
 20
260.012026206
 30
0.0
  0
SPLINE
  5
3A0
100
AcDbEntity
  8
0
100
AcDbSpline
 62
7
  6
CONTINUOUS
 70
0
 71
3
 72
9
 73
5
 74
0
 42
0.0000001
 43
0.0000001
 44
0.0000000001
 40
0.0
 40
0.0
 40
0.0
 40
0.0
 40
0.5161211148
 40
1.0
 40
1.0
 40
1.0
 40
1.0
 10
-103.152682103
 20
269.689700667
 30
0.0
 10
-103.4711865742
 20
270.5850364019
 30
0.0
 10
-103.961323725
 20
272.3689462026
 30
0.0
 10
-104.1309440321
 20
274.2154568893
 30
0.0
 10
-104.118533491
 20
275.1063054773
 30
0.0
  0
SPLINE
  5
3A1
100
AcDbEntity
  8
0
100
AcDbSpline
 62
7
  6
CONTINUOUS
 70
0
 71
3
 72
10
 73
6
 74
0
 42
0.0000001
 43
0.0000001
 44
0.0000000001
 40
0.0
 40
0.0
 40
0.0
 40
0.0
 40
0.2687123856
 40
0.5257626031
 40
1.0
 40
1.0
 40
1.0
 40
1.0
 10
-99.2984357984
 20
262.9023969152
 30
0.0
 10
-99.7325538157
 20
263.4539283006
 30
0.0
 10
-100.5512056527
 20
264.5585327004
 30
0.0
 10
-101.937104005
 20
266.774215999
 30
0.0
 10
-102.7475658447
 20
268.5190917741
 30
0.0
 10
-103.1526820149
 20
269.6896998592
 30
0.0
  0
SPLINE
  5
3A2
100
AcDbEntity
  8
0
100
AcDbSpline
 62
7
  6
CONTINUOUS
 70
0
 71
3
 72
21
 73
17
 74
0
 42
0.0000001
 43
0.0000001
 44
0.0000000001
 40
0.0
 40
0.0
 40
0.0
 40
0.0
 40
0.1267101787
 40
0.2535138655
 40
0.3803748578
 40
0.5072294659
 40
0.6339577345
 40
0.6972048596
 40
0.7603015029
 40
0.8231402332
 40
0.8854930473
 40
0.9163246319
 40
0.9466951619
 40
0.9760103916
 40
0.9895539075
 40
1.0
 40
1.0
 40
1.0
 40
1.0
 10
-111.2742094749
 20
270.9062820488
 30
0.0
 10
-111.3304879668
 20
270.8558332176
 30
0.0
 10
-111.4424575835
 20
270.7541940644
 30
0.0
 10
-111.60848898
 20
270.5995537058
 30
0.0
 10
-111.7724958875
 20
270.4426413531
 30
0.0
 10
-111.9341835498
 20
270.2834029675
 30
0.0
 10
-112.0666536274
 20
270.1486056397
 30
0.0
 10
-112.1707885311
 20
270.0393170654
 30
0.0
 10
-112.2476220513
 20
269.9566745487
 30
0.0
 10
-112.3227817877
 20
269.8731825333
 30
0.0
 10
-112.3835277853
 20
269.802754699
 30
0.0
 10
-112.4299425211
 20
269.7453011566
 30
0.0
 10
-112.462596089
 20
269.7028731072
 30
0.0
 10
-112.4870256177
 20
269.6648651973
 30
0.0
 10
-112.5014584454
 20
269.6394891952
 30
0.0
 10
-112.5038490793
 20
269.6200147958
 30
0.0
 10
-112.4984352805
 20
269.6169301989
 30
0.0
  0
SPLINE
  5
3A3
100
AcDbEntity
  8
0
100
AcDbSpline
 62
7
  6
CONTINUOUS
 70
0
 71
3
 72
9
 73
5
 74
0
 42
0.0000001
 43
0.0000001
 44
0.0000000001
 40
0.0
 40
0.0
 40
0.0
 40
0.0
 40
0.7471090955
 40
1.0
 40
1.0
 40
1.0
 40
1.0
 10
-104.1185336866
 20
275.106305439
 30
0.0
 10
-104.1581365403
 20
275.1763431426
 30
0.0
 10
-104.2300667781
 20
275.260920967
 30
0.0
 10
-104.3173455443
 20
275.3241321118
 30
0.0
 10
-104.3402607896
 20
275.3388503434
 30
0.0
  0
SPLINE
  5
3A4
100
AcDbEntity
  8
0
100
AcDbSpline
 62
7
  6
CONTINUOUS
 70
0
 71
3
 72
10
 73
6
 74
0
 42
0.0000001
 43
0.0000001
 44
0.0000000001
 40
0.0
 40
0.0
 40
0.0
 40
0.0
 40
0.2359630382
 40
0.4818550773
 40
1.0
 40
1.0
 40
1.0
 40
1.0
 10
-104.3402607896
 20
275.3388503434
 30
0.0
 10
-104.4013979799
 20
275.378118146
 30
0.0
 10
-104.5392881739
 20
275.4393164665
 30
0.0
 10
-104.8462877079
 20
275.4856049162
 30
0.0
 10
-105.0861695226
 20
275.4339991102
 30
0.0
 10
-105.2328416244
 20
275.3711871365
 30
0.0
  0
SPLINE
  5
3A5
100
AcDbEntity
  8
0
100
AcDbSpline
 62
7
  6
CONTINUOUS
 70
0
 71
3
 72
10
 73
6
 74
0
 42
0.0000001
 43
0.0000001
 44
0.0000000001
 40
0.0
 40
0.0
 40
0.0
 40
0.0
 40
0.3087601952
 40
0.6935239794
 40
1.0
 40
1.0
 40
1.0
 40
1.0
 10
-105.2327528401
 20
275.3711367703
 30
0.0
 10
-105.2457577517
 20
275.37865451
 30
0.0
 10
-105.2760356144
 20
275.3935816392
 30
0.0
 10
-105.3237862686
 20
275.4070843746
 30
0.0
 10
-105.358781477
 20
275.3993133665
 30
0.0
 10
-105.3713578162
 20
275.3913037727
 30
0.0
  0
SPLINE
  5
3A6
100
AcDbEntity
  8
0
100
AcDbSpline
 62
7
  6
CONTINUOUS
 70
0
 71
3
 72
9
 73
5
 74
0
 42
0.0000001
 43
0.0000001
 44
0.0000000001
 40
0.0
 40
0.0
 40
0.0
 40
0.0
 40
0.2470629573
 40
1.0
 40
1.0
 40
1.0
 40
1.0
 10
-106.2902628409
 20
274.6777049944
 30
0.0
 10
-106.7162065353
 20
274.3893586684
 30
0.0
 10
-108.419354588
 20
273.1916330341
 30
0.0
 10
-110.0379044496
 20
271.8742279853
 30
0.0
 10
-111.2033615648
 20
270.825926005
 30
0.0
  0
SPLINE
  5
3A7
100
AcDbEntity
  8
0
100
AcDbSpline
 62
7
  6
CONTINUOUS
 70
0
 71
3
 72
9
 73
5
 74
0
 42
0.0000001
 43
0.0000001
 44
0.0000000001
 40
0.0
 40
0.0
 40
0.0
 40
0.0
 40
0.2397458128
 40
1.0
 40
1.0
 40
1.0
 40
1.0
 10
-105.2059816767
 20
275.0434586053
 30
0.0
 10
-105.1660868318
 20
274.6146978478
 30
0.0
 10
-104.9199667947
 20
272.8338987863
 30
0.0
 10
-104.3754892788
 20
271.1003601825
 30
0.0
 10
-103.8423790075
 20
269.8432167345
 30
0.0
  0
SPLINE
  5
3A8
100
AcDbEntity
  8
0
100
AcDbSpline
 62
7
  6
CONTINUOUS
 70
0
 71
3
 72
16
 73
12
 74
0
 42
0.0000001
 43
0.0000001
 44
0.0000000001
 40
0.0
 40
0.0
 40
0.0
 40
0.0
 40
0.2424146995
 40
0.4876685398
 40
0.6120771419
 40
0.7385211836
 40
0.8029370598
 40
0.8685942175
 40
0.9360184615
 40
0.9701017737
 40
1.0
 40
1.0
 40
1.0
 40
1.0
 10
-119.7497551978
 20
239.2780995021
 30
0.0
 10
-119.7275204709
 20
239.2436121493
 30
0.0
 10
-119.6823843977
 20
239.1744943913
 30
0.0
 10
-119.6245112526
 20
239.0885519151
 30
0.0
 10
-119.5765320054
 20
239.0196284139
 30
0.0
 10
-119.5454154081
 20
238.9762729985
 30
0.0
 10
-119.5194873666
 20
238.9414337455
 30
0.0
 10
-119.4990293638
 20
238.9150153173
 30
0.0
 10
-119.4811198123
 20
238.8930222121
 30
0.0
 10
-119.4659589521
 20
238.8768598415
 30
0.0
 10
-119.4580544839
 20
238.8692028496
 30
0.0
 10
-119.4536636385
 20
238.8666862936
 30
0.0
  0
SPLINE
  5
3A9
100
AcDbEntity
  8
0
100
AcDbSpline
 62
7
  6
CONTINUOUS
 70
0
 71
3
 72
9
 73
5
 74
0
 42
0.0000001
 43
0.0000001
 44
0.0000000001
 40
0.0
 40
0.0
 40
0.0
 40
0.0
 40
0.2381818831
 40
1.0
 40
1.0
 40
1.0
 40
1.0
 10
-103.8423970127
 20
269.8432089442
 30
0.0
 10
-103.5990133554
 20
269.2692814192
 30
0.0
 10
-102.4703936005
 20
266.9051310761
 30
0.0
 10
-100.9546548382
 20
264.7362150438
 30
0.0
 10
-99.6679791947
 20
263.2129877242
 30
0.0
  0
SPLINE
  5
3AA
100
AcDbEntity
  8
0
100
AcDbSpline
 62
7
  6
CONTINUOUS
 70
0
 71
3
 72
12
 73
8
 74
0
 42
0.0000001
 43
0.0000001
 44
0.0000000001
 40
0.0
 40
0.0
 40
0.0
 40
0.0
 40
0.1350304513
 40
0.2407769002
 40
0.3706542824
 40
0.6760876085
 40
1.0
 40
1.0
 40
1.0
 40
1.0
 10
-122.6569511965
 20
247.2848168707
 30
0.0
 10
-122.6440648763
 20
247.2964979144
 30
0.0
 10
-122.6068283857
 20
247.2945904925
 30
0.0
 10
-122.5637347401
 20
247.2777955171
 30
0.0
 10
-122.5015046249
 20
247.244742775
 30
0.0
 10
-122.4225198469
 20
247.1871031281
 30
0.0
 10
-122.3613295871
 20
247.133709823
 30
0.0
 10
-122.3309361717
 20
247.1051277309
 30
0.0
  0
SPLINE
  5
3AB
100
AcDbEntity
  8
0
100
AcDbSpline
 62
7
  6
CONTINUOUS
 70
0
 71
3
 72
9
 73
5
 74
0
 42
0.0000001
 43
0.0000001
 44
0.0000000001
 40
0.0
 40
0.0
 40
0.0
 40
0.0
 40
0.2447130801
 40
1.0
 40
1.0
 40
1.0
 40
1.0
 10
-111.0873246498
 20
232.4841961315
 30
0.0
 10
-111.6524238899
 20
232.7805768449
 30
0.0
 10
-113.9470231679
 20
234.0192590748
 30
0.0
 10
-116.1799000899
 20
235.3734928209
 30
0.0
 10
-117.8186275501
 20
236.4658971975
 30
0.0
  0
SPLINE
  5
3AC
100
AcDbEntity
  8
0
100
AcDbSpline
 62
7
  6
CONTINUOUS
 70
0
 71
3
 72
9
 73
5
 74
0
 42
0.0000001
 43
0.0000001
 44
0.0000000001
 40
0.0
 40
0.0
 40
0.0
 40
0.0
 40
0.2437992551
 40
1.0
 40
1.0
 40
1.0
 40
1.0
 10
-111.0873246498
 20
232.4841961315
 30
0.0
 10
-111.7559020708
 20
232.8639242905
 30
0.0
 10
-114.461797996
 20
234.4833208126
 30
0.0
 10
-117.0105543878
 20
236.3768335265
 30
0.0
 10
-118.7786164057
 20
237.977348276
 30
0.0
  0
SPLINE
  5
3AD
100
AcDbEntity
  8
0
100
AcDbSpline
 62
7
  6
CONTINUOUS
 70
0
 71
3
 72
14
 73
10
 74
0
 42
0.0000001
 43
0.0000001
 44
0.0000000001
 40
0.0
 40
0.0
 40
0.0
 40
0.0
 40
0.3887697546
 40
0.5565142329
 40
0.6990288886
 40
0.8125209177
 40
0.8960646492
 40
0.9537748523
 40
1.0
 40
1.0
 40
1.0
 40
1.0
 10
-118.7786164046
 20
237.9773482784
 30
0.0
 10
-118.8163066465
 20
238.0114669542
 30
0.0
 10
-118.8718916996
 20
238.0586381201
 30
0.0
 10
-118.9463022033
 20
238.1118513421
 30
0.0
 10
-118.9936111767
 20
238.1407608711
 30
0.0
 10
-119.0339238252
 20
238.1599036693
 30
0.0
 10
-119.0659721632
 20
238.1689724682
 30
0.0
 10
-119.0917551416
 20
238.1681965168
 30
0.0
 10
-119.1025546019
 20
238.1577047102
 30
0.0
 10
-119.1050600244
 20
238.152203519
 30
0.0
  0
SPLINE
  5
3AE
100
AcDbEntity
  8
0
100
AcDbSpline
 62
7
  6
CONTINUOUS
 70
0
 71
3
 72
9
 73
5
 74
0
 42
0.0000001
 43
0.0000001
 44
0.0000000001
 40
0.0
 40
0.0
 40
0.0
 40
0.0
 40
0.4898785631
 40
1.0
 40
1.0
 40
1.0
 40
1.0
 10
-119.4536636385
 20
238.8666862936
 30
0.0
 10
-117.2941512425
 20
237.6214744179
 30
0.0
 10
-112.7349487554
 20
235.3349385567
 30
0.0
 10
-107.9617617064
 20
233.5438640873
 30
0.0
 10
-105.4908464096
 20
232.7483823845
 30
0.0
  0
SPLINE
  5
3AF
100
AcDbEntity
  8
0
100
AcDbSpline
 62
7
  6
CONTINUOUS
 70
0
 71
3
 72
11
 73
7
 74
0
 42
0.0000001
 43
0.0000001
 44
0.0000000001
 40
0.0
 40
0.0
 40
0.0
 40
0.0
 40
0.2559908673
 40
0.5064851412
 40
0.753668281
 40
1.0
 40
1.0
 40
1.0
 40
1.0
 10
-105.3253512836
 20
232.6938147521
 30
0.0
 10
-104.9835130762
 20
232.1271733176
 30
0.0
 10
-104.2276627121
 20
231.0514614268
 30
0.0
 10
-102.8783138636
 20
229.6359433669
 30
0.0
 10
-101.3470348889
 20
228.4597048509
 30
0.0
 10
-100.2206066482
 20
227.8476483287
 30
0.0
 10
-99.639089173
 20
227.5881332671
 30
0.0
  0
SPLINE
  5
3B0
100
AcDbEntity
  8
0
100
AcDbSpline
 62
7
  6
CONTINUOUS
 70
0
 71
3
 72
9
 73
5
 74
0
 42
0.0000001
 43
0.0000001
 44
0.0000000001
 40
0.0
 40
0.0
 40
0.0
 40
0.0
 40
0.2409977023
 40
1.0
 40
1.0
 40
1.0
 40
1.0
 10
-103.690652499
 20
228.9929849395
 30
0.0
 10
-104.3037443409
 20
229.2301723544
 30
0.0
 10
-106.8310831994
 20
230.2564167136
 30
0.0
 10
-109.2870827009
 20
231.4617250307
 30
0.0
 10
-111.0873235315
 20
232.4841976547
 30
0.0
  0
LINE
  5
3B1
100
AcDbEntity
  8
0
100
AcDbLine
 62
7
  6
CONTINUOUS
 10
-99.6597345575
 20
227.5428193758
 11
-99.8393561503
 21
227.6055116722
  0
SPLINE
  5
3B2
100
AcDbEntity
  8
0
100
AcDbSpline
 62
7
  6
CONTINUOUS
 70
0
 71
3
 72
11
 73
7
 74
0
 42
0.0000001
 43
0.0000001
 44
0.0000000001
 40
0.0
 40
0.0
 40
0.0
 40
0.0
 40
0.2479242223
 40
0.4972720495
 40
0.7479562768
 40
1.0
 40
1.0
 40
1.0
 40
1.0
 10
-99.8393565375
 20
227.605510556
 30
0.0
 10
-99.9463595989
 20
227.6428959102
 30
0.0
 10
-100.1602159253
 20
227.7200700866
 30
0.0
 10
-100.4803582717
 20
227.8402509241
 30
0.0
 10
-100.804355844
 20
227.9553829944
 30
0.0
 10
-101.0222348748
 20
228.0286602487
 30
0.0
 10
-101.130388629
 20
228.0684166778
 30
0.0
  0
SPLINE
  5
3B3
100
AcDbEntity
  8
0
100
AcDbSpline
 62
7
  6
CONTINUOUS
 70
0
 71
3
 72
9
 73
5
 74
0
 42
0.0000001
 43
0.0000001
 44
0.0000000001
 40
0.0
 40
0.0
 40
0.0
 40
0.0
 40
0.6918235938
 40
1.0
 40
1.0
 40
1.0
 40
1.0
 10
-99.8365786224
 20
227.5945328302
 30
0.0
 10
-99.8391270344
 20
227.5954709683
 30
0.0
 10
-99.8405453437
 20
227.6006599151
 30
0.0
 10
-99.8396743617
 20
227.6043416717
 30
0.0
 10
-99.8392955314
 20
227.605490503
 30
0.0
  0
LINE
  5
3B4
100
AcDbEntity
  8
0
100
AcDbLine
 62
7
  6
CONTINUOUS
 10
-99.836578535
 20
227.5945327964
 11
-99.659734822
 21
227.5428195267
  0
SPLINE
  5
3B5
100
AcDbEntity
  8
0
100
AcDbSpline
 62
7
  6
CONTINUOUS
 70
0
 71
3
 72
11
 73
7
 74
0
 42
0.0000001
 43
0.0000001
 44
0.0000000001
 40
0.0
 40
0.0
 40
0.0
 40
0.0
 40
0.310523982
 40
0.5852544356
 40
0.8122114069
 40
1.0
 40
1.0
 40
1.0
 40
1.0
 10
-119.0759930894
 20
237.3245452641
 30
0.0
 10
-119.1302444468
 20
237.2275056614
 30
0.0
 10
-119.2128607567
 20
237.0326849016
 30
0.0
 10
-119.263137309
 20
236.7433313279
 30
0.0
 10
-119.2321564133
 20
236.4931396024
 30
0.0
 10
-119.1450399623
 20
236.3625017685
 30
0.0
 10
-119.091947756
 20
236.3212528649
 30
0.0
  0
SPLINE
  5
3B6
100
AcDbEntity
  8
0
100
AcDbSpline
 62
7
  6
CONTINUOUS
 70
0
 71
3
 72
12
 73
8
 74
0
 42
0.0000001
 43
0.0000001
 44
0.0000000001
 40
0.0
 40
0.0
 40
0.0
 40
0.0
 40
0.1670518512
 40
0.2720413534
 40
0.3929846299
 40
0.6771327461
 40
1.0
 40
1.0
 40
1.0
 40
1.0
 10
-111.1212033652
 20
231.9186530713
 30
0.0
 10
-111.1472294792
 20
231.9393070461
 30
0.0
 10
-111.174482477
 20
231.9910216898
 30
0.0
 10
-111.1869576353
 20
232.0679439448
 30
0.0
 10
-111.1870648652
 20
232.1699525604
 30
0.0
 10
-111.1584577847
 20
232.313030462
 30
0.0
 10
-111.1148306353
 20
232.4261687509
 30
0.0
 10
-111.0873246546
 20
232.4841961327
 30
0.0
  0
SPLINE
  5
3B7
100
AcDbEntity
  8
0
100
AcDbSpline
 62
7
  6
CONTINUOUS
 70
0
 71
3
 72
10
 73
6
 74
0
 42
0.0000001
 43
0.0000001
 44
0.0000000001
 40
0.0
 40
0.0
 40
0.0
 40
0.0
 40
0.4208043225
 40
0.6972825215
 40
1.0
 40
1.0
 40
1.0
 40
1.0
 10
-101.1113340772
 20
227.9807935047
 30
0.0
 10
-101.1239768785
 20
227.9855857346
 30
0.0
 10
-101.137577584
 20
228.0089470287
 30
0.0
 10
-101.1378454876
 20
228.0408068774
 30
0.0
 10
-101.1337805778
 20
228.059299229
 30
0.0
 10
-101.1304855075
 20
228.0684504852
 30
0.0
  0
SPLINE
  5
3B8
100
AcDbEntity
  8
0
100
AcDbSpline
 62
7
  6
CONTINUOUS
 70
0
 71
3
 72
11
 73
7
 74
0
 42
0.0000001
 43
0.0000001
 44
0.0000000001
 40
0.0
 40
0.0
 40
0.0
 40
0.0
 40
0.2720468867
 40
0.5323673822
 40
0.7742537474
 40
1.0
 40
1.0
 40
1.0
 40
1.0
 10
-103.8423970102
 20
269.8432089381
 30
0.0
 10
-103.7787396212
 20
269.8708097436
 30
0.0
 10
-103.645417454
 20
269.9069454881
 30
0.0
 10
-103.4448063323
 20
269.8988090847
 30
0.0
 10
-103.268696091
 20
269.8277157826
 30
0.0
 10
-103.1822947597
 20
269.7390763174
 30
0.0
 10
-103.1526820921
 20
269.6897006725
 30
0.0
  0
SPLINE
  5
3B9
100
AcDbEntity
  8
0
100
AcDbSpline
 62
7
  6
CONTINUOUS
 70
0
 71
3
 72
9
 73
5
 74
0
 42
0.0000001
 43
0.0000001
 44
0.0000000001
 40
0.0
 40
0.0
 40
0.0
 40
0.0
 40
0.5527669635
 40
1.0
 40
1.0
 40
1.0
 40
1.0
 10
-99.2030896711
 20
262.6746079924
 30
0.0
 10
-99.189170412
 20
262.6842558842
 30
0.0
 10
-99.1591275138
 20
262.6973376864
 30
0.0
 10
-99.1259571117
 20
262.6851857578
 30
0.0
 10
-99.1173399596
 20
262.6745318706
 30
0.0
  0
SPLINE
  5
3BA
100
AcDbEntity
  8
0
100
AcDbSpline
 62
7
  6
CONTINUOUS
 70
0
 71
3
 72
9
 73
5
 74
0
 42
0.0000001
 43
0.0000001
 44
0.0000000001
 40
0.0
 40
0.0
 40
0.0
 40
0.0
 40
0.3000091289
 40
1.0
 40
1.0
 40
1.0
 40
1.0
 10
-98.3540553193
 20
261.7476622339
 30
0.0
 10
-98.3531841169
 20
261.7482934673
 30
0.0
 10
-98.3501625913
 20
261.7500964871
 30
0.0
 10
-98.3454269364
 20
261.74993544
 30
0.0
 10
-98.3437750765
 20
261.7480453396
 30
0.0
  0
SPLINE
  5
3BB
100
AcDbEntity
  8
0
100
AcDbSpline
 62
7
  6
CONTINUOUS
 70
0
 71
3
 72
11
 73
7
 74
0
 42
0.0000001
 43
0.0000001
 44
0.0000000001
 40
0.0
 40
0.0
 40
0.0
 40
0.0
 40
0.3069298394
 40
0.5707806445
 40
0.7954498209
 40
1.0
 40
1.0
 40
1.0
 40
1.0
 10
-111.4687632613
 20
231.9482641587
 30
0.0
 10
-111.4754834273
 20
231.8713155817
 30
0.0
 10
-111.4733985857
 20
231.7262581908
 30
0.0
 10
-111.4207155614
 20
231.5303858284
 30
0.0
 10
-111.319278584
 20
231.3829247836
 30
0.0
 10
-111.2210001013
 20
231.3278006737
 30
0.0
 10
-111.1714349387
 20
231.3139027535
 30
0.0
  0
SPLINE
  5
3BC
100
AcDbEntity
  8
0
100
AcDbSpline
 62
7
  6
CONTINUOUS
 70
0
 71
3
 72
9
 73
5
 74
0
 42
0.0000001
 43
0.0000001
 44
0.0000000001
 40
0.0
 40
0.0
 40
0.0
 40
0.0
 40
0.2521043063
 40
1.0
 40
1.0
 40
1.0
 40
1.0
 10
-113.5846285049
 20
269.0164499464
 30
0.0
 10
-113.4053928107
 20
269.1932191516
 30
0.0
 10
-112.6850483396
 20
269.8847985672
 30
0.0
 10
-111.9272005923
 20
270.5374294959
 30
0.0
 10
-111.3410227578
 20
271.000166972
 30
0.0
  0
SPLINE
  5
3BD
100
AcDbEntity
  8
0
100
AcDbSpline
 62
7
  6
CONTINUOUS
 70
0
 71
3
 72
9
 73
5
 74
0
 42
0.0000001
 43
0.0000001
 44
0.0000000001
 40
0.0
 40
0.0
 40
0.0
 40
0.0
 40
0.2427856764
 40
1.0
 40
1.0
 40
1.0
 40
1.0
 10
-112.4984352805
 20
269.6169301989
 30
0.0
 10
-111.9953291326
 20
269.326141013
 30
0.0
 10
-109.9299259415
 20
268.1166393109
 30
0.0
 10
-107.8911698136
 20
266.8618043732
 30
0.0
 10
-106.361214674
 20
265.8902648674
 30
0.0
  0
SPLINE
  5
3BE
100
AcDbEntity
  8
0
100
AcDbSpline
 62
7
  6
CONTINUOUS
 70
0
 71
3
 72
9
 73
5
 74
0
 42
0.0000001
 43
0.0000001
 44
0.0000000001
 40
0.0
 40
0.0
 40
0.0
 40
0.0
 40
0.2429232912
 40
1.0
 40
1.0
 40
1.0
 40
1.0
 10
-106.361214674
 20
265.8902648674
 30
0.0
 10
-105.7642029764
 20
265.5111554187
 30
0.0
 10
-103.3151909359
 20
263.9370145346
 30
0.0
 10
-100.8997260517
 20
262.3108615132
 30
0.0
 10
-99.0883269352
 20
261.055223417
 30
0.0
  0
SPLINE
  5
3BF
100
AcDbEntity
  8
0
100
AcDbSpline
 62
7
  6
CONTINUOUS
 70
0
 71
3
 72
9
 73
5
 74
0
 42
0.0000001
 43
0.0000001
 44
0.0000000001
 40
0.0
 40
0.0
 40
0.0
 40
0.0
 40
0.5000382243
 40
1.0
 40
1.0
 40
1.0
 40
1.0
 10
-99.0883282061
 20
261.0552266926
 30
0.0
 10
-99.063009935
 20
261.0376763994
 30
0.0
 10
-99.0136508863
 20
261.0008029457
 30
0.0
 10
-98.9622418119
 20
260.9667061499
 30
0.0
 10
-98.9379953473
 20
260.9477101915
 30
0.0
  0
SPLINE
  5
3C0
100
AcDbEntity
  8
0
100
AcDbSpline
 62
7
  6
CONTINUOUS
 70
0
 71
3
 72
9
 73
5
 74
0
 42
0.0000001
 43
0.0000001
 44
0.0000000001
 40
0.0
 40
0.0
 40
0.0
 40
0.0
 40
0.4960399459
 40
1.0
 40
1.0
 40
1.0
 40
1.0
 10
-98.9379583018
 20
260.9476434775
 30
0.0
 10
-100.1551524299
 20
259.839238084
 30
0.0
 10
-102.3951003307
 20
257.3608406019
 30
0.0
 10
-104.1502513239
 20
254.5205412909
 30
0.0
 10
-104.8981264993
 20
253.0245329273
 30
0.0
  0
SPLINE
  5
3C1
100
AcDbEntity
  8
0
100
AcDbSpline
 62
7
  6
CONTINUOUS
 70
0
 71
3
 72
12
 73
8
 74
0
 42
0.0000001
 43
0.0000001
 44
0.0000000001
 40
0.0
 40
0.0
 40
0.0
 40
0.0
 40
0.1280553079
 40
0.2552876477
 40
0.5072608361
 40
0.7556993114
 40
1.0
 40
1.0
 40
1.0
 40
1.0
 10
-106.0101156778
 20
254.0966137845
 30
0.0
 10
-106.2979960628
 20
254.387777449
 30
0.0
 10
-106.8636496654
 20
254.9765842947
 30
0.0
 10
-107.9391083305
 20
256.1912005028
 30
0.0
 10
-109.1716183049
 20
257.7787283706
 30
0.0
 10
-110.4543094705
 20
259.7887981449
 30
0.0
 10
-111.172764036
 20
261.1942430585
 30
0.0
 10
-111.4937123938
 20
261.9064066302
 30
0.0
  0
SPLINE
  5
3C2
100
AcDbEntity
  8
0
100
AcDbSpline
 62
7
  6
CONTINUOUS
 70
0
 71
3
 72
9
 73
5
 74
0
 42
0.0000001
 43
0.0000001
 44
0.0000000001
 40
0.0
 40
0.0
 40
0.0
 40
0.0
 40
0.5093877691
 40
1.0
 40
1.0
 40
1.0
 40
1.0
 10
-111.4937114936
 20
261.9064051329
 30
0.0
 10
-111.9860900129
 20
262.9989613946
 30
0.0
 10
-112.7825790466
 20
265.2262477302
 30
0.0
 10
-113.1407471426
 20
267.5722005475
 30
0.0
 10
-113.1800502183
 20
268.7257405267
 30
0.0
  0
SPLINE
  5
3C3
100
AcDbEntity
  8
0
100
AcDbSpline
 62
7
  6
CONTINUOUS
 70
0
 71
3
 72
9
 73
5
 74
0
 42
0.0000001
 43
0.0000001
 44
0.0000000001
 40
0.0
 40
0.0
 40
0.0
 40
0.0
 40
0.4995081882
 40
1.0
 40
1.0
 40
1.0
 40
1.0
 10
-113.1800502297
 20
268.7257405307
 30
0.0
 10
-113.1813310839
 20
268.7632860925
 30
0.0
 10
-113.2020366754
 20
268.8412562241
 30
0.0
 10
-113.2684851835
 20
268.8879919684
 30
0.0
 10
-113.3037419002
 20
268.901176712
 30
0.0
  0
SPLINE
  5
3C4
100
AcDbEntity
  8
0
100
AcDbSpline
 62
7
  6
CONTINUOUS
 70
0
 71
3
 72
9
 73
5
 74
0
 42
0.0000001
 43
0.0000001
 44
0.0000000001
 40
0.0
 40
0.0
 40
0.0
 40
0.0
 40
0.2453883762
 40
1.0
 40
1.0
 40
1.0
 40
1.0
 10
-81.4727948684
 20
265.6339587274
 30
0.0
 10
-81.4822370619
 20
265.6434168361
 30
0.0
 10
-81.5211376004
 20
265.6815372263
 30
0.0
 10
-81.5605062945
 20
265.7191721084
 30
0.0
 10
-81.5902311044
 20
265.7475534835
 30
0.0
  0
SPLINE
  5
3C5
100
AcDbEntity
  8
0
100
AcDbSpline
 62
7
  6
CONTINUOUS
 70
0
 71
3
 72
10
 73
6
 74
0
 42
0.0000001
 43
0.0000001
 44
0.0000000001
 40
0.0
 40
0.0
 40
0.0
 40
0.0
 40
0.4976915719
 40
0.7483308337
 40
1.0
 40
1.0
 40
1.0
 40
1.0
 10
-105.0692873215
 20
253.1658433482
 30
0.0
 10
-105.2284772339
 20
253.3170366664
 30
0.0
 10
-105.4639781347
 20
253.5484190451
 30
0.0
 10
-105.7763974378
 20
253.8598365541
 30
0.0
 10
-105.9327470427
 20
254.0168692303
 30
0.0
 10
-106.0100522102
 20
254.0965505663
 30
0.0
  0
SPLINE
  5
3C6
100
AcDbEntity
  8
0
100
AcDbSpline
 62
7
  6
CONTINUOUS
 70
0
 71
3
 72
9
 73
5
 74
0
 42
0.0000001
 43
0.0000001
 44
0.0000000001
 40
0.0
 40
0.0
 40
0.0
 40
0.0
 40
0.5221224439
 40
1.0
 40
1.0
 40
1.0
 40
1.0
 10
-90.185265876
 20
267.1236148806
 30
0.0
 10
-90.1747441296
 20
267.1251961557
 30
0.0
 10
-90.1534512565
 20
267.1240961227
 30
0.0
 10
-90.1356385785
 20
267.1116207741
 30
0.0
 10
-90.129766154
 20
267.1038523364
 30
0.0
  0
SPLINE
  5
3C7
100
AcDbEntity
  8
0
100
AcDbSpline
 62
7
  6
CONTINUOUS
 70
0
 71
3
 72
9
 73
5
 74
0
 42
0.0000001
 43
0.0000001
 44
0.0000000001
 40
0.0
 40
0.0
 40
0.0
 40
0.0
 40
0.4555653421
 40
1.0
 40
1.0
 40
1.0
 40
1.0
 10
-85.1635445843
 20
270.1873776367
 30
0.0
 10
-84.8544245175
 20
269.8947213234
 30
0.0
 10
-84.1977694917
 20
269.2293434917
 30
0.0
 10
-83.5626025638
 20
268.5440022465
 30
0.0
 10
-83.2196347912
 20
268.1682791851
 30
0.0
  0
SPLINE
  5
3C8
100
AcDbEntity
  8
0
100
AcDbSpline
 62
7
  6
CONTINUOUS
 70
0
 71
3
 72
9
 73
5
 74
0
 42
0.0000001
 43
0.0000001
 44
0.0000000001
 40
0.0
 40
0.0
 40
0.0
 40
0.0
 40
0.2358328452
 40
1.0
 40
1.0
 40
1.0
 40
1.0
 10
-83.2196347912
 20
268.1682791851
 30
0.0
 10
-83.1077063226
 20
268.0456609386
 30
0.0
 10
-82.6344972979
 20
267.5244451373
 30
0.0
 10
-82.1658880496
 20
266.9990720808
 30
0.0
 10
-81.8089917095
 20
266.596549182
 30
0.0
  0
SPLINE
  5
3C9
100
AcDbEntity
  8
0
100
AcDbSpline
 62
7
  6
CONTINUOUS
 70
0
 71
3
 72
9
 73
5
 74
0
 42
0.0000001
 43
0.0000001
 44
0.0000000001
 40
0.0
 40
0.0
 40
0.0
 40
0.0
 40
0.2472051874
 40
1.0
 40
1.0
 40
1.0
 40
1.0
 10
-81.809002206
 20
266.596553808
 30
0.0
 10
-81.7803677884
 20
266.5642588882
 30
0.0
 10
-81.6645697952
 20
266.4335880746
 30
0.0
 10
-81.5489039975
 20
266.3028001318
 30
0.0
 10
-81.4618944107
 20
266.204288024
 30
0.0
  0
SPLINE
  5
3CA
100
AcDbEntity
  8
0
100
AcDbSpline
 62
7
  6
CONTINUOUS
 70
0
 71
3
 72
10
 73
6
 74
0
 42
0.0000001
 43
0.0000001
 44
0.0000000001
 40
0.0
 40
0.0
 40
0.0
 40
0.0
 40
0.5078791028
 40
0.755273995
 40
1.0
 40
1.0
 40
1.0
 40
1.0
 10
-93.9412784496
 20
272.9498084616
 30
0.0
 10
-93.8421642935
 20
272.9477131538
 30
0.0
 10
-93.6907258363
 20
272.9044537147
 30
0.0
 10
-93.5424890326
 20
272.7740581362
 30
0.0
 10
-93.4913786202
 20
272.6905821025
 30
0.0
 10
-93.4729385516
 20
272.646515019
 30
0.0
  0
SPLINE
  5
3CB
100
AcDbEntity
  8
0
100
AcDbSpline
 62
7
  6
CONTINUOUS
 70
0
 71
3
 72
9
 73
5
 74
0
 42
0.0000001
 43
0.0000001
 44
0.0000000001
 40
0.0
 40
0.0
 40
0.0
 40
0.0
 40
0.2570873748
 40
1.0
 40
1.0
 40
1.0
 40
1.0
 10
-94.991062622
 20
276.399200253
 30
0.0
 10
-94.9989712331
 20
276.4037742682
 30
0.0
 10
-95.030738558
 20
276.419704289
 30
0.0
 10
-95.0669991986
 20
276.4272001895
 30
0.0
 10
-95.0933856621
 20
276.4263316642
 30
0.0
  0
SPLINE
  5
3CC
100
AcDbEntity
  8
0
100
AcDbSpline
 62
7
  6
CONTINUOUS
 70
0
 71
3
 72
11
 73
7
 74
0
 42
0.0000001
 43
0.0000001
 44
0.0000000001
 40
0.0
 40
0.0
 40
0.0
 40
0.0
 40
0.2546919286
 40
0.5018283293
 40
0.747993472
 40
1.0
 40
1.0
 40
1.0
 40
1.0
 10
-94.1973858052
 20
275.5748624703
 30
0.0
 10
-94.1973422883
 20
275.6815917887
 30
0.0
 10
-94.2370122959
 20
275.8944953337
 30
0.0
 10
-94.4136326002
 20
276.1630929484
 30
0.0
 10
-94.6775562471
 20
276.343589105
 30
0.0
 10
-94.8857724498
 20
276.3923607685
 30
0.0
 10
-94.9911514271
 20
276.3992510956
 30
0.0
  0
SPLINE
  5
3CD
100
AcDbEntity
  8
0
100
AcDbSpline
 62
7
  6
CONTINUOUS
 70
0
 71
3
 72
8
 73
4
 74
0
 42
0.0000001
 43
0.0000001
 44
0.0000000001
 40
0.0
 40
0.0
 40
0.0
 40
0.0
 40
1.0
 40
1.0
 40
1.0
 40
1.0
 10
-89.4794482494
 20
266.2614934627
 30
0.0
 10
-89.4771399262
 20
266.2618852514
 30
0.0
 10
-89.4742295953
 20
266.2611455803
 30
0.0
 10
-89.4727708617
 20
266.2593142009
 30
0.0
  0
SPLINE
  5
3CE
100
AcDbEntity
  8
0
100
AcDbSpline
 62
7
  6
CONTINUOUS
 70
0
 71
3
 72
11
 73
7
 74
0
 42
0.0000001
 43
0.0000001
 44
0.0000000001
 40
0.0
 40
0.0
 40
0.0
 40
0.0
 40
0.2511167907
 40
0.5014964212
 40
0.7508731764
 40
1.0
 40
1.0
 40
1.0
 40
1.0
 10
-90.1092672209
 20
265.9199315235
 30
0.0
 10
-90.0480976975
 20
265.9387754782
 30
0.0
 10
-89.9266731334
 20
265.9787460232
 30
0.0
 10
-89.7436521161
 20
266.0347620021
 30
0.0
 10
-89.560161394
 20
266.0873683455
 30
0.0
 10
-89.4380793871
 20
266.1225921351
 30
0.0
 10
-89.3769809427
 20
266.1398870062
 30
0.0
  0
SPLINE
  5
3CF
100
AcDbEntity
  8
0
100
AcDbSpline
 62
7
  6
CONTINUOUS
 70
0
 71
3
 72
8
 73
4
 74
0
 42
0.0000001
 43
0.0000001
 44
0.0000000001
 40
0.0
 40
0.0
 40
0.0
 40
0.0
 40
1.0
 40
1.0
 40
1.0
 40
1.0
 10
-105.0800133917
 20
253.1598078877
 30
0.0
 10
-105.0778845926
 20
253.1633240933
 30
0.0
 10
-105.0731677842
 20
253.1669699031
 30
0.0
 10
-105.0692303604
 20
253.1657899961
 30
0.0
  0
SPLINE
  5
3D0
100
AcDbEntity
  8
0
100
AcDbSpline
 62
7
  6
CONTINUOUS
 70
0
 71
3
 72
9
 73
5
 74
0
 42
0.0000001
 43
0.0000001
 44
0.0000000001
 40
0.0
 40
0.0
 40
0.0
 40
0.0
 40
0.4987251059
 40
1.0
 40
1.0
 40
1.0
 40
1.0
 10
-89.3769769924
 20
266.0939538333
 30
0.0
 10
-89.4993029978
 20
266.0675971102
 30
0.0
 10
-89.743846726
 20
266.0113877607
 30
0.0
 10
-89.987605589
 20
265.9518265855
 30
0.0
 10
-90.1092672209
 20
265.9199315235
 30
0.0
  0
SPLINE
  5
3D1
100
AcDbEntity
  8
0
100
AcDbSpline
 62
7
  6
CONTINUOUS
 70
0
 71
3
 72
9
 73
5
 74
0
 42
0.0000001
 43
0.0000001
 44
0.0000000001
 40
0.0
 40
0.0
 40
0.0
 40
0.0
 40
0.2322757006
 40
1.0
 40
1.0
 40
1.0
 40
1.0
 10
-94.9910073548
 20
276.3992772548
 30
0.0
 10
-94.9830580846
 20
276.306402826
 30
0.0
 10
-94.938490704
 20
275.9074467437
 30
0.0
 10
-94.8564056314
 20
275.513231844
 30
0.0
 10
-94.7792801382
 20
275.2149478835
 30
0.0
  0
SPLINE
  5
3D2
100
AcDbEntity
  8
0
100
AcDbSpline
 62
7
  6
CONTINUOUS
 70
0
 71
3
 72
9
 73
5
 74
0
 42
0.0000001
 43
0.0000001
 44
0.0000000001
 40
0.0
 40
0.0
 40
0.0
 40
0.0
 40
0.4698683143
 40
1.0
 40
1.0
 40
1.0
 40
1.0
 10
-94.7792801382
 20
275.2149478835
 30
0.0
 10
-94.6844895317
 20
274.8483438419
 30
0.0
 10
-94.4364972964
 20
274.0798933828
 30
0.0
 10
-94.1217590619
 20
273.337029879
 30
0.0
 10
-93.9412563522
 20
272.9498080042
 30
0.0
  0
SPLINE
  5
3D3
100
AcDbEntity
  8
0
100
AcDbSpline
 62
7
  6
CONTINUOUS
 70
0
 71
3
 72
10
 73
6
 74
0
 42
0.0000001
 43
0.0000001
 44
0.0000000001
 40
0.0
 40
0.0
 40
0.0
 40
0.0
 40
0.2204385193
 40
0.4612940594
 40
1.0
 40
1.0
 40
1.0
 40
1.0
 10
-93.941278452
 20
272.9498084667
 30
0.0
 10
-93.7449216004
 20
272.5285781555
 30
0.0
 10
-93.3002261662
 20
271.6626300517
 30
0.0
 10
-92.2223476688
 20
269.8496718638
 30
0.0
 10
-91.265217429
 20
268.5091864358
 30
0.0
 10
-90.5693068517
 20
267.6116160103
 30
0.0
  0
SPLINE
  5
3D4
100
AcDbEntity
  8
0
100
AcDbSpline
 62
7
  6
CONTINUOUS
 70
0
 71
3
 72
16
 73
12
 74
0
 42
0.0000001
 43
0.0000001
 44
0.0000000001
 40
0.0
 40
0.0
 40
0.0
 40
0.0
 40
0.1257849413
 40
0.18895829
 40
0.2519741483
 40
0.3457024647
 40
0.4384127586
 40
0.6233029785
 40
0.7166810353
 40
0.8110706099
 40
1.0
 40
1.0
 40
1.0
 40
1.0
 10
-18.8295273997
 20
234.2515149274
 30
0.0
 10
-18.83852605
 20
234.2490874131
 30
0.0
 10
-18.8518924737
 20
234.2448937537
 30
0.0
 10
-18.8696446146
 20
234.2391140106
 30
0.0
 10
-18.8851807638
 20
234.2341987674
 30
0.0
 10
-18.9029898569
 20
234.229202592
 30
0.0
 10
-18.9299435647
 20
234.2236232859
 30
0.0
 10
-18.9570839405
 20
234.2191483901
 30
0.0
 10
-18.9838495911
 20
234.212269252
 30
0.0
 10
-19.0104768047
 20
234.2038960463
 30
0.0
 10
-19.030407332
 20
234.1972541321
 30
0.0
 10
-19.0439207821
 20
234.1935985512
 30
0.0
  0
SPLINE
  5
3D5
100
AcDbEntity
  8
0
100
AcDbSpline
 62
7
  6
CONTINUOUS
 70
0
 71
3
 72
15
 73
11
 74
0
 42
0.0000001
 43
0.0000001
 44
0.0000000001
 40
0.0
 40
0.0
 40
0.0
 40
0.0
 40
0.1021917036
 40
0.209696902
 40
0.3234615583
 40
0.4441326996
 40
0.5721010602
 40
0.7075358481
 40
0.8503227199
 40
1.0
 40
1.0
 40
1.0
 40
1.0
 10
-41.0012425728
 20
237.6407371858
 30
0.0
 10
-40.9355514048
 20
237.6892863189
 30
0.0
 10
-40.8080534464
 20
237.7991039447
 30
0.0
 10
-40.6360036158
 20
237.992962067
 30
0.0
 10
-40.4798155215
 20
238.2179759149
 30
0.0
 10
-40.340573158
 20
238.4725409632
 30
0.0
 10
-40.2190820085
 20
238.7549179404
 30
0.0
 10
-40.1161285934
 20
239.0632034322
 30
0.0
 10
-40.0324407779
 20
239.395124911
 30
0.0
 10
-39.9907230511
 20
239.6253412853
 30
0.0
 10
-39.9729921291
 20
239.7436609945
 30
0.0
  0
SPLINE
  5
3D6
100
AcDbEntity
  8
0
100
AcDbSpline
 62
7
  6
CONTINUOUS
 70
0
 71
3
 72
13
 73
9
 74
0
 42
0.0000001
 43
0.0000001
 44
0.0000000001
 40
0.0
 40
0.0
 40
0.0
 40
0.0
 40
0.3990628397
 40
0.6788555932
 40
0.7787393522
 40
0.8579490024
 40
0.9267622157
 40
1.0
 40
1.0
 40
1.0
 40
1.0
 10
-52.3054040547
 20
245.6948818167
 30
0.0
 10
-52.307371039
 20
245.6943531144
 30
0.0
 10
-52.31074449
 20
245.6935768389
 30
0.0
 10
-52.3147491162
 20
245.6932051723
 30
0.0
 10
-52.3170713282
 20
245.6936096512
 30
0.0
 10
-52.3182362525
 20
245.6941749555
 30
0.0
 10
-52.3189586896
 20
245.6951021575
 30
0.0
 10
-52.3190692809
 20
245.695847835
 30
0.0
 10
-52.3190653091
 20
245.6962216164
 30
0.0
  0
SPLINE
  5
3D7
100
AcDbEntity
  8
0
100
AcDbSpline
 62
7
  6
CONTINUOUS
 70
0
 71
3
 72
23
 73
19
 74
0
 42
0.0000001
 43
0.0000001
 44
0.0000000001
 40
0.0
 40
0.0
 40
0.0
 40
0.0
 40
0.0036750955
 40
0.0090674688
 40
0.0163487473
 40
0.0255725573
 40
0.0367542942
 40
0.0498943525
 40
0.0820133306
 40
0.1217902233
 40
0.1690375767
 40
0.2235455082
 40
0.2850830379
 40
0.3534131268
 40
0.4282773295
 40
0.5965594779
 40
0.7878461092
 40
1.0
 40
1.0
 40
1.0
 40
1.0
 10
-52.3190915633
 20
247.7721491901
 30
0.0
 10
-52.3190912623
 20
247.7741139672
 30
0.0
 10
-52.3176008875
 20
247.7788783502
 30
0.0
 10
-52.313330368
 20
247.7864827702
 30
0.0
 10
-52.3065305099
 20
247.7960500009
 30
0.0
 10
-52.2972125285
 20
247.8075490708
 30
0.0
 10
-52.2853837964
 20
247.8210363373
 30
0.0
 10
-52.2649012497
 20
247.843195374
 30
0.0
 10
-52.2331536823
 20
247.8757445092
 30
0.0
 10
-52.188006006
 20
247.9206760456
 30
0.0
 10
-52.1340352458
 20
247.9737096209
 30
0.0
 10
-52.0717075114
 20
248.0348359202
 30
0.0
 10
-52.001480204
 20
248.1040049829
 30
0.0
 10
-51.923841731
 20
248.1811572383
 30
0.0
 10
-51.806408104
 20
248.2992207176
 30
0.0
 10
-51.6444289564
 20
248.4656853759
 30
0.0
 10
-51.4349569161
 20
248.6882946144
 30
0.0
 10
-51.2900448274
 20
248.8480699649
 30
0.0
 10
-51.2146370691
 20
248.9327937687
 30
0.0
  0
SPLINE
  5
3D8
100
AcDbEntity
  8
0
100
AcDbSpline
 62
7
  6
CONTINUOUS
 70
0
 71
3
 72
32
 73
28
 74
0
 42
0.0000001
 43
0.0000001
 44
0.0000000001
 40
0.0
 40
0.0
 40
0.0
 40
0.0
 40
0.0163148518
 40
0.0328483186
 40
0.0498083152
 40
0.067384545
 40
0.085743765
 40
0.1050248131
 40
0.1253412958
 40
0.1467839688
 40
0.1694193075
 40
0.1932953753
 40
0.2184456027
 40
0.2448866064
 40
0.2726229979
 40
0.301651004
 40
0.3319554691
 40
0.3635128608
 40
0.396294843
 40
0.4302651842
 40
0.5015909398
 40
0.5771090738
 40
0.6563653058
 40
0.7388459515
 40
0.8240025039
 40
0.9112756419
 40
1.0
 40
1.0
 40
1.0
 40
1.0
 10
-41.216892009
 20
242.6531512272
 30
0.0
 10
-41.2135660984
 20
242.5161728658
 30
0.0
 10
-41.1895084888
 20
242.2404975089
 30
0.0
 10
-41.1016388554
 20
241.8305147576
 30
0.0
 10
-40.9623600069
 20
241.4238342245
 30
0.0
 10
-40.7721274045
 20
241.021446845
 30
0.0
 10
-40.5314443097
 20
240.6241916091
 30
0.0
 10
-40.2410433556
 20
240.2327709335
 30
0.0
 10
-39.9015893088
 20
239.8478901902
 30
0.0
 10
-39.5137608666
 20
239.470306944
 30
0.0
 10
-39.0784298724
 20
239.1006569257
 30
0.0
 10
-38.5964793339
 20
238.7396250184
 30
0.0
 10
-38.0688341989
 20
238.3879654791
 30
0.0
 10
-37.496592537
 20
238.0463156332
 30
0.0
 10
-36.8809132988
 20
237.7153322748
 30
0.0
 10
-36.2230047962
 20
237.3957358168
 30
0.0
 10
-35.5242154896
 20
237.0881372011
 30
0.0
 10
-34.785973844
 20
236.7931326844
 30
0.0
 10
-34.0097527488
 20
236.5113689468
 30
0.0
 10
-32.908307802
 20
236.148185694
 30
0.0
 10
-31.4466750114
 20
235.7335148968
 30
0.0
 10
-29.5961809792
 20
235.3047286549
 30
0.0
 10
-27.636580611
 20
234.9405298602
 30
0.0
 10
-25.5838826158
 20
234.6438596239
 30
0.0
 10
-23.4545904942
 20
234.4172240675
 30
0.0
 10
-21.2663517737
 20
234.2625749888
 30
0.0
 10
-19.7889142187
 20
234.2085319518
 30
0.0
 10
-19.0439207821
 20
234.1935985513
 30
0.0
  0
SPLINE
  5
3D9
100
AcDbEntity
  8
0
100
AcDbSpline
 62
7
  6
CONTINUOUS
 70
0
 71
3
 72
26
 73
22
 74
0
 42
0.0000001
 43
0.0000001
 44
0.0000000001
 40
0.0
 40
0.0
 40
0.0
 40
0.0
 40
0.0855803097
 40
0.1682192486
 40
0.2476505778
 40
0.3237114593
 40
0.3963152617
 40
0.465410842
 40
0.5309975141
 40
0.5931238842
 40
0.6519319873
 40
0.680164674
 40
0.7076589379
 40
0.7605953291
 40
0.8112072599
 40
0.8599827821
 40
0.907275163
 40
0.9305416491
 40
0.9536719426
 40
0.9767824201
 40
1.0
 40
1.0
 40
1.0
 40
1.0
 10
-30.108979665
 20
256.2453967394
 30
0.0
 10
-30.5222681483
 20
256.1346124955
 30
0.0
 10
-31.3314120204
 20
255.9045392845
 30
0.0
 10
-32.5108385173
 20
255.5268687902
 30
0.0
 10
-33.6313119876
 20
255.123491841
 30
0.0
 10
-34.6887308007
 20
254.6955384198
 30
0.0
 10
-35.6798527161
 20
254.2440457497
 30
0.0
 10
-36.601830591
 20
253.7697712027
 30
0.0
 10
-37.4519626602
 20
253.2732146682
 30
0.0
 10
-38.22783734
 20
252.75472321
 30
0.0
 10
-38.8184008232
 20
252.2980166719
 30
0.0
 10
-39.2496174315
 20
251.9209831485
 30
0.0
 10
-39.6431914013
 20
251.5462839351
 30
0.0
 10
-40.0867248747
 20
251.0625255787
 30
0.0
 10
-40.5395270097
 20
250.448120628
 30
0.0
 10
-40.9007549124
 20
249.80764364
 30
0.0
 10
-41.1210015811
 20
249.250646737
 30
0.0
 10
-41.2421369697
 20
248.7977300492
 30
0.0
 10
-41.3051538005
 20
248.4555754382
 30
0.0
 10
-41.340049884
 20
248.1096864225
 30
0.0
 10
-41.3440800013
 20
247.8777736907
 30
0.0
 10
-41.3412552905
 20
247.7617262559
 30
0.0
  0
SPLINE
  5
3DA
100
AcDbEntity
  8
0
100
AcDbSpline
 62
7
  6
CONTINUOUS
 70
0
 71
3
 72
32
 73
28
 74
0
 42
0.0000001
 43
0.0000001
 44
0.0000000001
 40
0.0
 40
0.0
 40
0.0
 40
0.0
 40
0.0194429084
 40
0.0388216268
 40
0.0583766993
 40
0.0783048841
 40
0.0987483292
 40
0.1198030569
 40
0.1415552927
 40
0.1641331542
 40
0.187646887
 40
0.2121792668
 40
0.2377863954
 40
0.2645081336
 40
0.2923724942
 40
0.3213897966
 40
0.3515554241
 40
0.3828583919
 40
0.4152778585
 40
0.4487791468
 40
0.5188601112
 40
0.5927184862
 40
0.6698791556
 40
0.7497975781
 40
0.8318823465
 40
0.9155019177
 40
1.0
 40
1.0
 40
1.0
 40
1.0
 10
8.643939179
 20
248.9784159661
 30
0.0
 10
8.63953224
 20
249.159465991
 30
0.0
 10
8.6070891076
 20
249.5208362752
 30
0.0
 10
8.4888330533
 20
250.0529926887
 30
0.0
 10
8.3044473279
 20
250.5707475429
 30
0.0
 10
8.0573487044
 20
251.0725324365
 30
0.0
 10
7.7514556406
 20
251.5571991285
 30
0.0
 10
7.3903597757
 20
252.0237522755
 30
0.0
 10
6.9768048749
 20
252.4717870004
 30
0.0
 10
6.5128351583
 20
252.9016760123
 30
0.0
 10
6.0000492825
 20
253.3144844203
 30
0.0
 10
5.439980456
 20
253.711370386
 30
0.0
 10
4.8336013005
 20
254.0926025273
 30
0.0
 10
4.181914198
 20
254.4582362987
 30
0.0
 10
3.4860338701
 20
254.808312415
 30
0.0
 10
2.747165854
 20
255.1427234578
 30
0.0
 10
1.9666157582
 20
255.4612104105
 30
0.0
 10
1.1458076511
 20
255.7634711664
 30
0.0
 10
0.2862963653
 20
256.0491691685
 30
0.0
 10
-0.9273189404
 20
256.4129403718
 30
0.0
 10
-2.5299237579
 20
256.8205685401
 30
0.0
 10
-4.5489856357
 20
257.230083856
 30
0.0
 10
-6.6747062274
 20
257.5638018832
 30
0.0
 10
-8.8883306331
 20
257.8191252467
 30
0.0
 10
-11.1700824026
 20
257.9938241035
 30
0.0
 10
-13.4992689345
 20
258.0864097383
 30
0.0
 10
-15.0655965679
 20
258.0928852518
 30
0.0
 10
-15.8525945604
 20
258.0823100873
 30
0.0
  0
SPLINE
  5
3DB
100
AcDbEntity
  8
0
100
AcDbSpline
 62
7
  6
CONTINUOUS
 70
0
 71
3
 72
15
 73
11
 74
0
 42
0.0000001
 43
0.0000001
 44
0.0000000001
 40
0.0
 40
0.0
 40
0.0
 40
0.0
 40
0.1308639539
 40
0.2613257214
 40
0.3907283286
 40
0.5184194329
 40
0.6437675241
 40
0.7662039434
 40
0.8851602848
 40
1.0
 40
1.0
 40
1.0
 40
1.0
 10
-15.8525945604
 20
258.0823100873
 30
0.0
 10
-16.4810870263
 20
258.0738648165
 30
0.0
 10
-17.7359741251
 20
258.0393725336
 30
0.0
 10
-19.6100168305
 20
257.9352375026
 30
0.0
 10
-21.4651771306
 20
257.7791459043
 30
0.0
 10
-23.2906413289
 20
257.5721652592
 30
0.0
 10
-25.0759732989
 20
257.3152928375
 30
0.0
 10
-26.8111111378
 20
257.0099913481
 30
0.0
 10
-28.4858076757
 20
256.6578435252
 30
0.0
 10
-29.5762049739
 20
256.3882099164
 30
0.0
 10
-30.108979665
 20
256.2453967394
 30
0.0
  0
SPLINE
  5
3DC
100
AcDbEntity
  8
0
100
AcDbSpline
 62
7
  6
CONTINUOUS
 70
0
 71
3
 72
15
 73
11
 74
0
 42
0.0000001
 43
0.0000001
 44
0.0000000001
 40
0.0
 40
0.0
 40
0.0
 40
0.0
 40
0.1313507092
 40
0.2620914039
 40
0.3915603123
 40
0.5191888773
 40
0.6443960083
 40
0.7666169659
 40
0.8853373011
 40
1.0
 40
1.0
 40
1.0
 40
1.0
 10
-15.8484737904
 20
233.0618994989
 30
0.0
 10
-15.1432765524
 20
233.0801897674
 30
0.0
 10
-13.7365685399
 20
233.1353044425
 30
0.0
 10
-11.6379477909
 20
233.2733927068
 30
0.0
 10
-9.5636963679
 20
233.4661847567
 30
0.0
 10
-7.5250562145
 20
233.7126133257
 30
0.0
 10
-5.5327536201
 20
234.0113071748
 30
0.0
 10
-3.5972894481
 20
234.3607426667
 30
0.0
 10
-1.7291507853
 20
234.7590348751
 30
0.0
 10
-0.5124211198
 20
235.0612997506
 30
0.0
 10
0.0823893462
 20
235.2207419571
 30
0.0
  0
SPLINE
  5
3DD
100
AcDbEntity
  8
0
100
AcDbSpline
 62
7
  6
CONTINUOUS
 70
0
 71
3
 72
15
 73
11
 74
0
 42
0.0000001
 43
0.0000001
 44
0.0000000001
 40
0.0
 40
0.0
 40
0.0
 40
0.0
 40
0.1515712514
 40
0.2963974208
 40
0.4338844496
 40
0.5636176215
 40
0.6852516288
 40
0.7985501938
 40
0.9034483432
 40
1.0
 40
1.0
 40
1.0
 40
1.0
 10
0.0823893462
 20
235.2207419571
 30
0.0
 10
0.6539689462
 20
235.3739570027
 30
0.0
 10
1.7665265727
 20
235.6933727186
 30
0.0
 10
3.3755595124
 20
236.2244563592
 30
0.0
 10
4.8804705207
 20
236.7944986963
 30
0.0
 10
6.273187981
 20
237.4004081501
 30
0.0
 10
7.5465589407
 20
238.0389513832
 30
0.0
 10
8.6940516525
 20
238.7069722121
 30
0.0
 10
9.7095251726
 20
239.4009579963
 30
0.0
 10
10.3200255601
 20
239.8989592656
 30
0.0
 10
10.5992122971
 20
240.1522346974
 30
0.0
  0
SPLINE
  5
3DE
100
AcDbEntity
  8
0
100
AcDbSpline
 62
7
  6
CONTINUOUS
 70
0
 71
3
 72
14
 73
10
 74
0
 42
0.0000001
 43
0.0000001
 44
0.0000000001
 40
0.0
 40
0.0
 40
0.0
 40
0.0
 40
0.1267307171
 40
0.2543692939
 40
0.3483200065
 40
0.4397937208
 40
0.6210323023
 40
0.8092721343
 40
1.0
 40
1.0
 40
1.0
 40
1.0
 10
-18.6410530251
 20
234.1867215572
 30
0.0
 10
-18.6452016355
 20
234.1894036114
 30
0.0
 10
-18.6533633818
 20
234.1950392123
 30
0.0
 10
-18.6644497554
 20
234.2028763918
 30
0.0
 10
-18.6746426077
 20
234.2095962111
 30
0.0
 10
-18.686989478
 20
234.2168023384
 30
0.0
 10
-18.7028478754
 20
234.2252802523
 30
0.0
 10
-18.7209656356
 20
234.2375142334
 30
0.0
 10
-18.7329712688
 20
234.2461247572
 30
0.0
 10
-18.7392162939
 20
234.2501590003
 30
0.0
  0
LINE
  5
3DF
100
AcDbEntity
  8
0
100
AcDbLine
 62
7
  6
CONTINUOUS
 10
-18.7695110687
 20
234.2505797285
 11
-18.8293092617
 21
234.2515742984
  0
SPLINE
  5
3E0
100
AcDbEntity
  8
0
100
AcDbSpline
 62
7
  6
CONTINUOUS
 70
0
 71
3
 72
11
 73
7
 74
0
 42
0.0000001
 43
0.0000001
 44
0.0000000001
 40
0.0
 40
0.0
 40
0.0
 40
0.0
 40
0.2452740682
 40
0.4993064936
 40
0.7532973236
 40
1.0
 40
1.0
 40
1.0
 40
1.0
 10
10.5622619672
 20
241.685830305
 30
0.0
 10
10.5608196086
 20
241.7457270677
 30
0.0
 10
10.5495640356
 20
241.8675454626
 30
0.0
 10
10.5118804529
 20
242.0480003077
 30
0.0
 10
10.455506069
 20
242.2238528245
 30
0.0
 10
10.4068149569
 20
242.3362973734
 30
0.0
 10
10.3801462922
 20
242.3903383154
 30
0.0
  0
SPLINE
  5
3E1
100
AcDbEntity
  8
0
100
AcDbSpline
 62
7
  6
CONTINUOUS
 70
0
 71
3
 72
13
 73
9
 74
0
 42
0.0000001
 43
0.0000001
 44
0.0000000001
 40
0.0
 40
0.0
 40
0.0
 40
0.0
 40
0.2900397717
 40
0.4253344943
 40
0.5536626437
 40
0.6750372778
 40
0.7896620505
 40
1.0
 40
1.0
 40
1.0
 40
1.0
 10
10.3801462922
 20
242.3903383154
 30
0.0
 10
10.2078659756
 20
242.7394443047
 30
0.0
 10
9.9211645276
 20
243.2359615457
 30
0.0
 10
9.4820977006
 20
243.836117822
 30
0.0
 10
9.147031135
 20
244.230164631
 30
0.0
 10
8.8023668622
 20
244.5778655583
 30
0.0
 10
8.3476329373
 20
244.968408258
 30
0.0
 10
7.9816222063
 20
245.2113098467
 30
0.0
 10
7.7318354319
 20
245.3428876672
 30
0.0
  0
SPLINE
  5
3E2
100
AcDbEntity
  8
0
100
AcDbSpline
 62
7
  6
CONTINUOUS
 70
0
 71
3
 72
14
 73
10
 74
0
 42
0.0000001
 43
0.0000001
 44
0.0000000001
 40
0.0
 40
0.0
 40
0.0
 40
0.0
 40
0.1333520086
 40
0.2627112864
 40
0.3889914401
 40
0.5131117058
 40
0.6357934938
 40
0.7575810081
 40
1.0
 40
1.0
 40
1.0
 40
1.0
 10
-50.9961689209
 20
249.1781001034
 30
0.0
 10
-50.8785265757
 20
249.3034886673
 30
0.0
 10
-50.6354672108
 20
249.5401976641
 30
0.0
 10
-50.245787355
 20
249.8569178183
 30
0.0
 10
-49.8402469589
 20
250.1323174402
 30
0.0
 10
-49.4216497903
 20
250.3702374718
 30
0.0
 10
-48.9923483628
 20
250.5749420585
 30
0.0
 10
-48.4094210565
 20
250.8087934244
 30
0.0
 10
-47.9598206529
 20
250.9474209976
 30
0.0
 10
-47.6579185224
 20
251.0283479124
 30
0.0
  0
SPLINE
  5
3E3
100
AcDbEntity
  8
0
100
AcDbSpline
 62
7
  6
CONTINUOUS
 70
0
 71
3
 72
11
 73
7
 74
0
 42
0.0000001
 43
0.0000001
 44
0.0000000001
 40
0.0
 40
0.0
 40
0.0
 40
0.0
 40
0.2637096685
 40
0.5175762429
 40
0.7625618522
 40
1.0
 40
1.0
 40
1.0
 40
1.0
 10
-41.3009279311
 20
246.0757006215
 30
0.0
 10
-41.6845672241
 20
246.2554779834
 30
0.0
 10
-42.4512319019
 20
246.580110965
 30
0.0
 10
-43.6165934173
 20
246.9629041503
 30
0.0
 10
-44.7705904376
 20
247.2301337614
 30
0.0
 10
-45.540432715
 20
247.3320335047
 30
0.0
 10
-45.9206758378
 20
247.3625495759
 30
0.0
  0
SPLINE
  5
3E4
100
AcDbEntity
  8
0
100
AcDbSpline
 62
7
  6
CONTINUOUS
 70
0
 71
3
 72
13
 73
9
 74
0
 42
0.0000001
 43
0.0000001
 44
0.0000000001
 40
0.0
 40
0.0
 40
0.0
 40
0.0
 40
0.2624733645
 40
0.5148693142
 40
0.6381349375
 40
0.7598514377
 40
0.8803559753
 40
1.0
 40
1.0
 40
1.0
 40
1.0
 10
-15.8558349006
 20
258.111384327
 30
0.0
 10
-16.2020040044
 20
258.2198509723
 30
0.0
 10
-16.8928959999
 20
258.3971675937
 30
0.0
 10
-17.7692156544
 20
258.515522435
 30
0.0
 10
-18.4565165423
 20
258.5426327145
 30
0.0
 10
-18.9618703556
 20
258.5300297576
 30
0.0
 10
-19.46029346
 20
258.4847073827
 30
0.0
 10
-19.788383927
 20
258.4325706125
 30
0.0
 10
-19.9507197271
 20
258.4010900644
 30
0.0
  0
SPLINE
  5
3E5
100
AcDbEntity
  8
0
100
AcDbSpline
 62
7
  6
CONTINUOUS
 70
0
 71
3
 72
9
 73
5
 74
0
 42
0.0000001
 43
0.0000001
 44
0.0000000001
 40
0.0
 40
0.0
 40
0.0
 40
0.0
 40
0.4904015583
 40
1.0
 40
1.0
 40
1.0
 40
1.0
 10
-3.5549360375
 20
240.8522007948
 30
0.0
 10
-4.2868575524
 20
240.6785368374
 30
0.0
 10
-5.7878719259
 20
240.3596676866
 30
0.0
 10
-7.300963737
 20
240.1048327311
 30
0.0
 10
-8.0741838787
 20
239.990080453
 30
0.0
  0
SPLINE
  5
3E6
100
AcDbEntity
  8
0
100
AcDbSpline
 62
7
  6
CONTINUOUS
 70
0
 71
3
 72
37
 73
33
 74
0
 42
0.0000001
 43
0.0000001
 44
0.0000000001
 40
0.0
 40
0.0
 40
0.0
 40
0.0
 40
0.0791090428
 40
0.1599681372
 40
0.2415917567
 40
0.322984247
 40
0.3632851056
 40
0.4031575215
 40
0.4424809201
 40
0.4811386986
 40
0.5190164257
 40
0.5560047107
 40
0.5919990385
 40
0.6268994769
 40
0.6606146938
 40
0.6930583677
 40
0.7241549948
 40
0.7538377652
 40
0.7820509976
 40
0.8087541543
 40
0.8339194534
 40
0.8575410164
 40
0.8796328492
 40
0.9002373839
 40
0.9194306056
 40
0.9373266634
 40
0.9540892562
 40
0.9699321335
 40
0.9775962126
 40
0.985135101
 40
0.9925890361
 40
1.0
 40
1.0
 40
1.0
 40
1.0
 10
-8.0741838787
 20
239.990080453
 30
0.0
 10
-9.0216149318
 20
239.8494738317
 30
0.0
 10
-10.9444906294
 20
239.6109830613
 30
0.0
 10
-13.8613172192
 20
239.3802460386
 30
0.0
 10
-16.8130228112
 20
239.2745191284
 30
0.0
 10
-19.2754471945
 20
239.2918199139
 30
0.0
 10
-21.230168193
 20
239.3699068714
 30
0.0
 10
-22.6742963854
 20
239.4598513715
 30
0.0
 10
-24.0961658759
 20
239.5811211203
 30
0.0
 10
-25.4907873067
 20
239.7332034314
 30
0.0
 10
-26.8532560726
 20
239.9156145294
 30
0.0
 10
-28.17878405
 20
240.1277008494
 30
0.0
 10
-29.4627216368
 20
240.3686676212
 30
0.0
 10
-30.7005534787
 20
240.6377504821
 30
0.0
 10
-31.8879530486
 20
240.9338909727
 30
0.0
 10
-33.0207507583
 20
241.256142503
 30
0.0
 10
-34.0949951148
 20
241.6033100433
 30
0.0
 10
-35.1069451314
 20
241.9741777097
 30
0.0
 10
-36.0530630668
 20
242.3675114145
 30
0.0
 10
-36.9301111532
 20
242.7818371462
 30
0.0
 10
-37.7350198859
 20
243.2158707135
 30
0.0
 10
-38.4650807469
 20
243.6680319783
 30
0.0
 10
-39.1177805258
 20
244.1369082964
 30
0.0
 10
-39.6908760897
 20
244.6210238561
 30
0.0
 10
-40.1824444626
 20
245.118839273
 30
0.0
 10
-40.590551973
 20
245.6290859261
 30
0.0
 10
-40.9136310634
 20
246.1500855831
 30
0.0
 10
-41.1127187531
 20
246.5971835827
 30
0.0
 10
-41.2256779087
 20
246.9560322408
 30
0.0
 10
-41.2875244395
 20
247.2235921501
 30
0.0
 10
-41.32730313
 20
247.4921950587
 30
0.0
 10
-41.3390716824
 20
247.6720250444
 30
0.0
 10
-41.3412501627
 20
247.7617263806
 30
0.0
  0
SPLINE
  5
3E7
100
AcDbEntity
  8
0
100
AcDbSpline
 62
7
  6
CONTINUOUS
 70
0
 71
3
 72
13
 73
9
 74
0
 42
0.0000001
 43
0.0000001
 44
0.0000000001
 40
0.0
 40
0.0
 40
0.0
 40
0.0
 40
0.2111552567
 40
0.3260581444
 40
0.4475867299
 40
0.5759131088
 40
0.7110176768
 40
1.0
 40
1.0
 40
1.0
 40
1.0
 10
-18.7392661552
 20
238.2216049983
 30
0.0
 10
-18.4873503753
 20
238.092685596
 30
0.0
 10
-18.1180127203
 20
237.8532611172
 30
0.0
 10
-17.6590089099
 20
237.4665550582
 30
0.0
 10
-17.3114325138
 20
237.121991547
 30
0.0
 10
-16.9737472176
 20
236.7312852398
 30
0.0
 10
-16.5319089452
 20
236.1366544403
 30
0.0
 10
-16.2432127203
 20
235.6442083574
 30
0.0
 10
-16.0697460305
 20
235.2979385103
 30
0.0
  0
SPLINE
  5
3E8
100
AcDbEntity
  8
0
100
AcDbSpline
 62
7
  6
CONTINUOUS
 70
0
 71
3
 72
11
 73
7
 74
0
 42
0.0000001
 43
0.0000001
 44
0.0000000001
 40
0.0
 40
0.0
 40
0.0
 40
0.0
 40
0.2471545757
 40
0.5012146123
 40
0.7550087772
 40
1.0
 40
1.0
 40
1.0
 40
1.0
 10
-16.0697460305
 20
235.2979385103
 30
0.0
 10
-16.042746698
 20
235.2440431213
 30
0.0
 10
-15.993499681
 20
235.1319011225
 30
0.0
 10
-15.9365288787
 20
234.9564603886
 30
0.0
 10
-15.8985295143
 20
234.7764636797
 30
0.0
 10
-15.8872504618
 20
234.6549592943
 30
0.0
 10
-15.8857964603
 20
234.5952246328
 30
0.0
  0
SPLINE
  5
3E9
100
AcDbEntity
  8
0
100
AcDbSpline
 62
7
  6
CONTINUOUS
 70
0
 71
3
 72
15
 73
11
 74
0
 42
0.0000001
 43
0.0000001
 44
0.0000000001
 40
0.0
 40
0.0
 40
0.0
 40
0.0
 40
0.1301719833
 40
0.2605777902
 40
0.3902839342
 40
0.5184803014
 40
0.6443359101
 40
0.7670417179
 40
0.8858604438
 40
1.0
 40
1.0
 40
1.0
 40
1.0
 10
-18.7392662896
 20
238.2216044163
 30
0.0
 10
-18.0174630893
 20
238.2114267936
 30
0.0
 10
-16.5721352969
 20
238.2140763042
 30
0.0
 10
-14.4086512961
 20
238.2858982166
 30
0.0
 10
-12.2594118614
 20
238.4252025404
 30
0.0
 10
-10.1408511605
 20
238.6308893543
 30
0.0
 10
-8.0687008533
 20
238.9013078469
 30
0.0
 10
-6.0583708126
 20
239.2345313112
 30
0.0
 10
-4.1252231582
 20
239.6280262497
 30
0.0
 10
-2.8699402071
 20
239.9351765609
 30
0.0
 10
-2.2585579019
 20
240.0990609398
 30
0.0
  0
SPLINE
  5
3EA
100
AcDbEntity
  8
0
100
AcDbSpline
 62
7
  6
CONTINUOUS
 70
0
 71
3
 72
15
 73
11
 74
0
 42
0.0000001
 43
0.0000001
 44
0.0000000001
 40
0.0
 40
0.0
 40
0.0
 40
0.0
 40
0.1418988056
 40
0.2794912375
 40
0.4124420602
 40
0.540473641
 40
0.6633959689
 40
0.7810438255
 40
0.8932804885
 40
1.0
 40
1.0
 40
1.0
 40
1.0
 10
-2.2585579019
 20
240.0990609398
 30
0.0
 10
-1.9057536507
 20
240.1936320536
 30
0.0
 10
-1.2131794882
 20
240.3887436923
 30
0.0
 10
-0.1993887805
 20
240.7043964562
 30
0.0
 10
0.7710478476
 20
241.0378337922
 30
0.0
 10
1.6952595544
 20
241.3881516115
 30
0.0
 10
2.5707798832
 20
241.754318976
 30
0.0
 10
3.3953434587
 20
242.1354442751
 30
0.0
 10
4.1667690288
 20
242.530472706
 30
0.0
 10
4.6567621873
 20
242.8094775684
 30
0.0
 10
4.8919616312
 20
242.9514074552
 30
0.0
  0
SPLINE
  5
3EB
100
AcDbEntity
  8
0
100
AcDbSpline
 62
7
  6
CONTINUOUS
 70
0
 71
3
 72
11
 73
7
 74
0
 42
0.0000001
 43
0.0000001
 44
0.0000000001
 40
0.0
 40
0.0
 40
0.0
 40
0.0
 40
0.2809227186
 40
0.5407655517
 40
0.7801033719
 40
1.0
 40
1.0
 40
1.0
 40
1.0
 10
4.8919616312
 20
242.9514074552
 30
0.0
 10
5.1912081143
 20
243.1319861964
 30
0.0
 10
5.7563411215
 20
243.4982724223
 30
0.0
 10
6.5284248586
 20
244.088263699
 30
0.0
 10
7.1878973127
 20
244.6947750473
 30
0.0
 10
7.5655681604
 20
245.1256238851
 30
0.0
 10
7.7318354319
 20
245.3428876672
 30
0.0
  0
SPLINE
  5
3EC
100
AcDbEntity
  8
0
100
AcDbSpline
 62
7
  6
CONTINUOUS
 70
0
 71
3
 72
15
 73
11
 74
0
 42
0.0000001
 43
0.0000001
 44
0.0000000001
 40
0.0
 40
0.0
 40
0.0
 40
0.0
 40
0.1147737828
 40
0.2335291173
 40
0.3557114386
 40
0.4808202329
 40
0.6083553435
 40
0.7377716659
 40
0.8685085146
 40
1.0
 40
1.0
 40
1.0
 40
1.0
 10
-29.9630605222
 20
256.2453913168
 30
0.0
 10
-29.4835746109
 20
256.3739201442
 30
0.0
 10
-28.5032390425
 20
256.6180506455
 30
0.0
 10
-26.998835324
 20
256.9413092134
 30
0.0
 10
-25.4412777811
 20
257.2264503622
 30
0.0
 10
-23.8386006706
 20
257.4721060031
 30
0.0
 10
-22.198678241
 20
257.6769897243
 30
0.0
 10
-20.5296310213
 20
257.8401942498
 30
0.0
 10
-18.8398245562
 20
257.9607647085
 30
0.0
 10
-17.7066730953
 20
258.0123183183
 30
0.0
 10
-17.1382562773
 20
258.030888012
 30
0.0
  0
SPLINE
  5
3ED
100
AcDbEntity
  8
0
100
AcDbSpline
 62
7
  6
CONTINUOUS
 70
0
 71
3
 72
44
 73
40
 74
0
 42
0.0000001
 43
0.0000001
 44
0.0000000001
 40
0.0
 40
0.0
 40
0.0
 40
0.0
 40
0.0481313498
 40
0.0952465315
 40
0.1411531444
 40
0.1856699587
 40
0.2286241978
 40
0.2698587506
 40
0.3092286001
 40
0.3466098708
 40
0.3818962272
 40
0.4150100545
 40
0.4459003039
 40
0.4745567089
 40
0.501011525
 40
0.5253584082
 40
0.5477606848
 40
0.5684739357
 40
0.5783127636
 40
0.5878724649
 40
0.597214532
 40
0.6064055176
 40
0.6155159901
 40
0.6246190403
 40
0.6337878479
 40
0.6430936181
 40
0.6526040917
 40
0.6623818662
 40
0.6829415756
 40
0.7051597548
 40
0.7293001686
 40
0.7555361713
 40
0.783966425
 40
0.8146310318
 40
0.8475210207
 40
0.8825881243
 40
0.9197595526
 40
0.9589419959
 40
1.0
 40
1.0
 40
1.0
 40
1.0
 10
-10.062349583
 20
257.8807740982
 30
0.0
 10
-9.5236144362
 20
257.8392865877
 30
0.0
 10
-8.4585564968
 20
257.7428881391
 30
0.0
 10
-6.8848157921
 20
257.5558537213
 30
0.0
 10
-5.3573720091
 20
257.3285255814
 30
0.0
 10
-3.8836769323
 20
257.0621487797
 30
0.0
 10
-2.470909924
 20
256.7579038867
 30
0.0
 10
-1.1259251819
 20
256.4174200367
 30
0.0
 10
0.1447364332
 20
256.0422272199
 30
0.0
 10
1.3349554482
 20
255.634300507
 30
0.0
 10
2.4389707456
 20
255.1954719111
 30
0.0
 10
3.4515407323
 20
254.7279986772
 30
0.0
 10
4.3678070224
 20
254.2339337492
 30
0.0
 10
5.1835278205
 20
253.7156928519
 30
0.0
 10
5.8948080084
 20
253.1754056454
 30
0.0
 10
6.4984136596
 20
252.61538112
 30
0.0
 10
6.9911701862
 20
252.0377374794
 30
0.0
 10
7.3125997726
 20
251.5347288461
 30
0.0
 10
7.5073081851
 20
251.1281829088
 30
0.0
 10
7.6215583409
 20
250.82599218
 30
0.0
 10
7.7063406885
 20
250.5217727931
 30
0.0
 10
7.7615129789
 20
250.2159132496
 30
0.0
 10
7.7869215185
 20
249.9088364267
 30
0.0
 10
7.7825041867
 20
249.6009907156
 30
0.0
 10
7.7483322793
 20
249.292820959
 30
0.0
 10
7.6844833155
 20
248.9847586232
 30
0.0
 10
7.5910339577
 20
248.6772132591
 30
0.0
 10
7.424437362
 20
248.2615439042
 30
0.0
 10
7.1379756305
 20
247.7428765038
 30
0.0
 10
6.6853073561
 20
247.1408668862
 30
0.0
 10
6.1208857447
 20
246.5507482886
 30
0.0
 10
5.4475740856
 20
245.9749634744
 30
0.0
 10
4.6685803678
 20
245.415776802
 30
0.0
 10
3.7875272257
 20
244.8756903228
 30
0.0
 10
2.8086055975
 20
244.3571555896
 30
0.0
 10
1.7364607256
 20
243.8626009647
 30
0.0
 10
0.5760911641
 20
243.3943837619
 30
0.0
 10
-0.666918129
 20
242.9548039307
 30
0.0
 10
-1.5276027185
 20
242.6881593345
 30
0.0
 10
-1.9702238909
 20
242.5595623532
 30
0.0
  0
SPLINE
  5
3EE
100
AcDbEntity
  8
0
100
AcDbSpline
 62
7
  6
CONTINUOUS
 70
0
 71
3
 72
15
 73
11
 74
0
 42
0.0000001
 43
0.0000001
 44
0.0000000001
 40
0.0
 40
0.0
 40
0.0
 40
0.0
 40
0.1313069775
 40
0.2620408714
 40
0.3915266948
 40
0.5191842668
 40
0.6444205406
 40
0.7666591336
 40
0.8853750185
 40
1.0
 40
1.0
 40
1.0
 40
1.0
 10
-16.0697460305
 20
235.2979385103
 30
0.0
 10
-15.3635749114
 20
235.3147775552
 30
0.0
 10
-13.9546909769
 20
235.3672158654
 30
0.0
 10
-11.8525236138
 20
235.5019175231
 30
0.0
 10
-9.7743263339
 20
235.6919748881
 30
0.0
 10
-7.7315853837
 20
235.9363147867
 30
0.0
 10
-5.7352614832
 20
236.2335494052
 30
0.0
 10
-3.7960848163
 20
236.5821332106
 30
0.0
 10
-1.9247698964
 20
236.9801485505
 30
0.0
 10
-0.7061764989
 20
237.2826385796
 30
0.0
 10
-0.1105731942
 20
237.4422933109
 30
0.0
  0
SPLINE
  5
3EF
100
AcDbEntity
  8
0
100
AcDbSpline
 62
7
  6
CONTINUOUS
 70
0
 71
3
 72
11
 73
7
 74
0
 42
0.0000001
 43
0.0000001
 44
0.0000000001
 40
0.0
 40
0.0
 40
0.0
 40
0.0
 40
0.2689503312
 40
0.5259201404
 40
0.7698490463
 40
1.0
 40
1.0
 40
1.0
 40
1.0
 10
-0.1105731942
 20
237.4422933109
 30
0.0
 10
0.4567007127
 20
237.5943541918
 30
0.0
 10
1.5608440827
 20
237.9113778776
 30
0.0
 10
3.1576466573
 20
238.4385414204
 30
0.0
 10
4.6509266521
 20
239.0043912193
 30
0.0
 10
5.6006396959
 20
239.4177898697
 30
0.0
 10
6.055619099
 20
239.6312748159
 30
0.0
  0
SPLINE
  5
3F0
100
AcDbEntity
  8
0
100
AcDbSpline
 62
7
  6
CONTINUOUS
 70
0
 71
3
 72
12
 73
8
 74
0
 42
0.0000001
 43
0.0000001
 44
0.0000000001
 40
0.0
 40
0.0
 40
0.0
 40
0.0
 40
0.2793652962
 40
0.5391882633
 40
0.7793246601
 40
0.8920774707
 40
1.0
 40
1.0
 40
1.0
 40
1.0
 10
6.055619099
 20
239.6312748159
 30
0.0
 10
6.4896282213
 20
239.8349201096
 30
0.0
 10
7.3170211296
 20
240.2505885887
 30
0.0
 10
8.4721787904
 20
240.9264037888
 30
0.0
 10
9.3389791205
 20
241.5238801342
 30
0.0
 10
9.9587552309
 20
242.0154003831
 30
0.0
 10
10.2440176857
 20
242.2647630049
 30
0.0
 10
10.3801462922
 20
242.3903383153
 30
0.0
  0
SPLINE
  5
3F1
100
AcDbEntity
  8
0
100
AcDbSpline
 62
7
  6
CONTINUOUS
 70
0
 71
3
 72
15
 73
11
 74
0
 42
0.0000001
 43
0.0000001
 44
0.0000000001
 40
0.0
 40
0.0
 40
0.0
 40
0.0
 40
0.0974474974
 40
0.2029370834
 40
0.3165267092
 40
0.438172152
 40
0.5676807512
 40
0.704749264
 40
0.8490162221
 40
1.0
 40
1.0
 40
1.0
 40
1.0
 10
10.5620133523
 20
241.6856813292
 30
0.0
 10
10.2963613429
 20
241.4446804897
 30
0.0
 10
9.7178254178
 20
240.970314587
 30
0.0
 10
8.7589377713
 20
240.3068090962
 30
0.0
 10
7.6794576586
 20
239.6666181205
 30
0.0
 10
6.4846687768
 20
239.0527872847
 30
0.0
 10
5.1801586099
 20
238.468084133
 30
0.0
 10
3.7720292194
 20
237.9153459835
 30
0.0
 10
2.2670355127
 20
237.3972256127
 30
0.0
 10
1.2263086903
 20
237.0833139629
 30
0.0
 10
0.6915457015
 20
236.9320821761
 30
0.0
  0
SPLINE
  5
3F2
100
AcDbEntity
  8
0
100
AcDbSpline
 62
7
  6
CONTINUOUS
 70
0
 71
3
 72
13
 73
9
 74
0
 42
0.0000001
 43
0.0000001
 44
0.0000000001
 40
0.0
 40
0.0
 40
0.0
 40
0.0
 40
0.1176273374
 40
0.2381373006
 40
0.3611706455
 40
0.4863343881
 40
0.741394562
 40
1.0
 40
1.0
 40
1.0
 40
1.0
 10
-2.1804999476
 20
236.2092348488
 30
0.0
 10
-2.7094043775
 20
236.0913757457
 30
0.0
 10
-3.7836016945
 20
235.8679107677
 30
0.0
 10
-5.4211108739
 20
235.5722446803
 30
0.0
 10
-7.0998993135
 20
235.3128172608
 30
0.0
 10
-9.3992091042
 20
235.0146474965
 30
0.0
 10
-12.3303980708
 20
234.7401714444
 30
0.0
 10
-14.6948724115
 20
234.6261128999
 30
0.0
 10
-15.8857964603
 20
234.5952246328
 30
0.0
  0
SPLINE
  5
3F3
100
AcDbEntity
  8
0
100
AcDbSpline
 62
7
  6
CONTINUOUS
 70
0
 71
3
 72
15
 73
11
 74
0
 42
0.0000001
 43
0.0000001
 44
0.0000000001
 40
0.0
 40
0.0
 40
0.0
 40
0.0
 40
0.116272879
 40
0.2338666254
 40
0.3534074273
 40
0.4755040601
 40
0.6007477368
 40
0.7296654279
 40
0.862653886
 40
1.0
 40
1.0
 40
1.0
 40
1.0
 10
-46.3964656264
 20
251.3121403738
 30
0.0
 10
-46.1737527642
 20
251.3553293867
 30
0.0
 10
-45.7214744112
 20
251.4213182114
 30
0.0
 10
-45.0320410461
 20
251.4582966579
 30
0.0
 10
-44.3306704381
 20
251.4335797417
 30
0.0
 10
-43.6192405794
 20
251.347161637
 30
0.0
 10
-42.8993527488
 20
251.1994054604
 30
0.0
 10
-42.1726648266
 20
250.9906103394
 30
0.0
 10
-41.4409795206
 20
250.7215057044
 30
0.0
 10
-40.9590674083
 20
250.5060021711
 30
0.0
 10
-40.7179927428
 20
250.3889751601
 30
0.0
  0
SPLINE
  5
3F4
100
AcDbEntity
  8
0
100
AcDbSpline
 62
7
  6
CONTINUOUS
 70
0
 71
3
 72
25
 73
21
 74
0
 42
0.0000001
 43
0.0000001
 44
0.0000000001
 40
0.0
 40
0.0
 40
0.0
 40
0.0
 40
0.0195525342
 40
0.0392260938
 40
0.0591387931
 40
0.0794039989
 40
0.1213814581
 40
0.1659315656
 40
0.2136440569
 40
0.2649544997
 40
0.3201647961
 40
0.3794679843
 40
0.4429595803
 40
0.5106672309
 40
0.5825443034
 40
0.6585000037
 40
0.7384082827
 40
0.8221152677
 40
0.9094092983
 40
1.0
 40
1.0
 40
1.0
 40
1.0
 10
8.6439340513
 20
248.9784158413
 30
0.0
 10
8.6461866626
 20
248.8856620805
 30
0.0
 10
8.6428011216
 20
248.6992930271
 30
0.0
 10
8.6140708841
 20
248.4198307722
 30
0.0
 10
8.5617251725
 20
248.1403543538
 30
0.0
 10
8.4593756539
 20
247.7638140319
 30
0.0
 10
8.269331076
 20
247.2918544981
 30
0.0
 10
7.9510619146
 20
246.7380761398
 30
0.0
 10
7.5415388619
 20
246.19177354
 30
0.0
 10
7.0427048813
 20
245.65466439
 30
0.0
 10
6.4565062337
 20
245.128353648
 30
0.0
 10
5.7850711224
 20
244.6146302588
 30
0.0
 10
5.0309055484
 20
244.1151198963
 30
0.0
 10
4.1966870169
 20
243.6317387376
 30
0.0
 10
3.2855751241
 20
243.1660908272
 30
0.0
 10
2.3008751979
 20
242.7199819259
 30
0.0
 10
1.2461534923
 20
242.294996405
 30
0.0
 10
0.125257983
 20
241.8927343828
 30
0.0
 10
-1.0573602137
 20
241.5148075261
 30
0.0
 10
-1.8694782774
 20
241.2840534449
 30
0.0
 10
-2.2846926413
 20
241.1727529581
 30
0.0
  0
LINE
  5
3F5
100
AcDbEntity
  8
0
100
AcDbLine
 62
7
  6
CONTINUOUS
 10
-18.7392662896
 20
238.2216044163
 11
-18.8296370175
 21
238.2229382235
  0
SPLINE
  5
3F6
100
AcDbEntity
  8
0
100
AcDbSpline
 62
7
  6
CONTINUOUS
 70
0
 71
3
 72
10
 73
6
 74
0
 42
0.0000001
 43
0.0000001
 44
0.0000000001
 40
0.0
 40
0.0
 40
0.0
 40
0.0
 40
0.5369801169
 40
0.7774591801
 40
1.0
 40
1.0
 40
1.0
 40
1.0
 10
-50.9961686878
 20
246.4725405316
 30
0.0
 10
-51.1328081921
 20
246.4089334931
 30
0.0
 10
-51.3277857343
 20
246.3101727996
 30
0.0
 10
-51.5684491242
 20
246.1655605015
 30
0.0
 10
-51.6761721797
 20
246.0927014838
 30
0.0
 10
-51.726767025
 20
246.0560719
 30
0.0
  0
SPLINE
  5
3F7
100
AcDbEntity
  8
0
100
AcDbSpline
 62
7
  6
CONTINUOUS
 70
0
 71
3
 72
16
 73
12
 74
0
 42
0.0000001
 43
0.0000001
 44
0.0000000001
 40
0.0
 40
0.0
 40
0.0
 40
0.0
 40
0.2023541754
 40
0.384268458
 40
0.5448568176
 40
0.6832292423
 40
0.7985034166
 40
0.8899924724
 40
0.9572551141
 40
0.9816995959
 40
1.0
 40
1.0
 40
1.0
 40
1.0
 10
-51.7267730392
 20
246.0560751368
 30
0.0
 10
-51.7641117627
 20
246.0290311974
 30
0.0
 10
-51.8354275707
 20
245.9782371524
 30
0.0
 10
-51.9377916173
 20
245.9079980151
 30
0.0
 10
-52.0292943081
 20
245.8477269672
 30
0.0
 10
-52.1092072573
 20
245.7975032488
 30
0.0
 10
-52.1768417135
 20
245.7573622837
 30
0.0
 10
-52.2315653466
 20
245.7272985233
 30
0.0
 10
-52.2690061115
 20
245.7087658127
 30
0.0
 10
-52.2921527562
 20
245.6991412869
 30
0.0
 10
-52.3013774663
 20
245.6959641162
 30
0.0
 10
-52.3054040547
 20
245.6948818167
 30
0.0
  0
SPLINE
  5
3F8
100
AcDbEntity
  8
0
100
AcDbSpline
 62
7
  6
CONTINUOUS
 70
0
 71
3
 72
26
 73
22
 74
0
 42
0.0000001
 43
0.0000001
 44
0.0000000001
 40
0.0
 40
0.0
 40
0.0
 40
0.0
 40
0.0926238076
 40
0.1815975741
 40
0.2665987127
 40
0.3474078948
 40
0.4238565126
 40
0.4958147871
 40
0.5631968845
 40
0.62599141
 40
0.6842740141
 40
0.7382218753
 40
0.7881444433
 40
0.8345023102
 40
0.8779436709
 40
0.8988416244
 40
0.9193388365
 40
0.9395655953
 40
0.9596581671
 40
0.9797563242
 40
1.0
 40
1.0
 40
1.0
 40
1.0
 10
-30.1028891444
 20
256.2076461377
 30
0.0
 10
-30.5258700543
 20
256.0926754307
 30
0.0
 10
-31.3516493001
 20
255.8540304049
 30
0.0
 10
-32.550992675
 20
255.4616294355
 30
0.0
 10
-33.6821113472
 20
255.043152851
 30
0.0
 10
-34.7400795287
 20
254.6005401215
 30
0.0
 10
-35.7205719296
 20
254.1355440708
 30
0.0
 10
-36.6196234737
 20
253.6501587026
 30
0.0
 10
-37.4334950316
 20
253.1463091302
 30
0.0
 10
-38.1588236491
 20
252.6260180718
 30
0.0
 10
-38.792691623
 20
252.0913278068
 30
0.0
 10
-39.3324290616
 20
251.5441273773
 30
0.0
 10
-39.7758213021
 20
250.9863576197
 30
0.0
 10
-40.1205031713
 20
250.4198586807
 30
0.0
 10
-40.3265005182
 20
249.9357068252
 30
0.0
 10
-40.4370945467
 20
249.5493353642
 30
0.0
 10
-40.4934044676
 20
249.2628292788
 30
0.0
 10
-40.5240358225
 20
248.9762842774
 30
0.0
 10
-40.5289403397
 20
248.690019775
 30
0.0
 10
-40.5080644357
 20
248.4044171767
 30
0.0
 10
-40.4771490999
 20
248.2157282908
 30
0.0
 10
-40.4575750394
 20
248.1219492968
 30
0.0
  0
SPLINE
  5
3F9
100
AcDbEntity
  8
0
100
AcDbSpline
 62
7
  6
CONTINUOUS
 70
0
 71
3
 72
21
 73
17
 74
0
 42
0.0000001
 43
0.0000001
 44
0.0000000001
 40
0.0
 40
0.0
 40
0.0
 40
0.0
 40
0.0438869089
 40
0.0891053442
 40
0.1360693696
 40
0.1851333343
 40
0.2906196812
 40
0.3475557984
 40
0.407466398
 40
0.4704578293
 40
0.5366008179
 40
0.605929387
 40
0.678455241
 40
0.7541702925
 40
0.8330390474
 40
1.0
 40
1.0
 40
1.0
 40
1.0
 10
-40.4426651512
 20
248.0540670162
 30
0.0
 10
-40.4138289259
 20
247.929003381
 30
0.0
 10
-40.3405976379
 20
247.6782550469
 30
0.0
 10
-40.1881259839
 20
247.3099553871
 30
0.0
 10
-39.9920512553
 20
246.9456227894
 30
0.0
 10
-39.6654152155
 20
246.454281673
 30
0.0
 10
-39.2573345274
 20
245.9856180727
 30
0.0
 10
-38.7828845457
 20
245.5407046047
 30
0.0
 10
-38.3772522438
 20
245.2053774992
 30
0.0
 10
-37.9317161433
 20
244.8776263313
 30
0.0
 10
-37.4469966838
 20
244.5579750799
 30
0.0
 10
-36.9240198204
 20
244.2469478487
 30
0.0
 10
-36.3637078361
 20
243.9451015807
 30
0.0
 10
-35.7670339029
 20
243.6530123442
 30
0.0
 10
-34.9080985325
 20
243.2699401671
 30
0.0
 10
-34.2370732813
 20
243.0102425531
 30
0.0
 10
-33.777060669
 20
242.8465515829
 30
0.0
  0
SPLINE
  5
3FA
100
AcDbEntity
  8
0
100
AcDbSpline
 62
7
  6
CONTINUOUS
 70
0
 71
3
 72
10
 73
6
 74
0
 42
0.0000001
 43
0.0000001
 44
0.0000000001
 40
0.0
 40
0.0
 40
0.0
 40
0.0
 40
0.2367513559
 40
0.4826213125
 40
1.0
 40
1.0
 40
1.0
 40
1.0
 10
-33.777060669
 20
242.8465515829
 30
0.0
 10
-33.4863408452
 20
242.7431017887
 30
0.0
 10
-32.8899916725
 20
242.5425111925
 30
0.0
 10
-31.6420091878
 20
242.1660610392
 30
0.0
 10
-30.677063655
 20
241.921380134
 30
0.0
 10
-30.0194932295
 20
241.7719226234
 30
0.0
  0
SPLINE
  5
3FB
100
AcDbEntity
  8
0
100
AcDbSpline
 62
7
  6
CONTINUOUS
 70
0
 71
3
 72
15
 73
11
 74
0
 42
0.0000001
 43
0.0000001
 44
0.0000000001
 40
0.0
 40
0.0
 40
0.0
 40
0.0
 40
0.1136082619
 40
0.2334158466
 40
0.3580454479
 40
0.486016914
 40
0.6157816248
 40
0.7457545732
 40
0.8743500514
 40
1.0
 40
1.0
 40
1.0
 40
1.0
 10
-30.0194932295
 20
241.7719226234
 30
0.0
 10
-29.2055271486
 20
241.5869183418
 30
0.0
 10
-27.5211891602
 20
241.2583286172
 30
0.0
 10
-24.9151254272
 20
240.8916561152
 30
0.0
 10
-22.1893207921
 20
240.6415864244
 30
0.0
 10
-19.3820142816
 20
240.5117399892
 30
0.0
 10
-16.532490633
 20
240.5040008331
 30
0.0
 10
-13.6806557324
 20
240.618481052
 30
0.0
 10
-10.8666025497
 20
240.8535883567
 30
0.0
 10
-9.0130640283
 20
241.0921807117
 30
0.0
 10
-8.1005279002
 20
241.2321022421
 30
0.0
  0
SPLINE
  5
3FC
100
AcDbEntity
  8
0
100
AcDbSpline
 62
7
  6
CONTINUOUS
 70
0
 71
3
 72
33
 73
29
 74
0
 42
0.0000001
 43
0.0000001
 44
0.0000000001
 40
0.0
 40
0.0
 40
0.0
 40
0.0
 40
0.0318317324
 40
0.064179363
 40
0.1301451693
 40
0.1975069498
 40
0.2657864275
 40
0.3344452241
 40
0.4029287544
 40
0.4706880472
 40
0.5041480313
 40
0.5372417057
 40
0.5699163051
 40
0.6021260732
 40
0.6338312205
 40
0.6650013233
 40
0.6956136375
 40
0.7256562056
 40
0.7551270688
 40
0.7840355356
 40
0.8124030489
 40
0.840262123
 40
0.8676582553
 40
0.8946472024
 40
0.9212963737
 40
0.9476815443
 40
0.9738865563
 40
1.0
 40
1.0
 40
1.0
 40
1.0
 10
-15.9067141627
 20
215.7847962878
 30
0.0
 10
-15.9067141627
 20
215.4097725227
 30
0.0
 10
-15.9305659766
 20
214.6534389721
 30
0.0
 10
-16.0710658471
 20
213.1258670282
 30
0.0
 10
-16.4217055685
 20
211.2009398779
 30
0.0
 10
-17.1057533289
 20
208.9215773562
 30
0.0
 10
-18.0426990301
 20
206.6995126703
 30
0.0
 10
-19.214845728
 20
204.5770089357
 30
0.0
 10
-20.5997282759
 20
202.5943838905
 30
0.0
 10
-21.9153454762
 20
201.0831951616
 30
0.0
 10
-23.0499935727
 20
199.9792366424
 30
0.0
 10
-23.9327456025
 20
199.2117974722
 30
0.0
 10
-24.846539693
 20
198.5054458269
 30
0.0
 10
-25.7868869264
 20
197.8633677367
 30
0.0
 10
-26.7494190618
 20
197.2888515844
 30
0.0
 10
-27.7294237826
 20
196.7845015014
 30
0.0
 10
-28.7222881565
 20
196.3528761926
 30
0.0
 10
-29.7232300896
 20
195.9960271263
 30
0.0
 10
-30.7274589158
 20
195.7156670941
 30
0.0
 10
-31.730189037
 20
195.5133040272
 30
0.0
 10
-32.7265743125
 20
195.3897647372
 30
0.0
 10
-33.7118530686
 20
195.3459492841
 30
0.0
 10
-34.6812541798
 20
195.3818535406
 30
0.0
 10
-35.6300837829
 20
195.4976235494
 30
0.0
 10
-36.5537346777
 20
195.6925390664
 30
0.0
 10
-37.4477085916
 20
195.9658488044
 30
0.0
 10
-38.3075335671
 20
196.3161658581
 30
0.0
 10
-38.8557398144
 20
196.6001638673
 30
0.0
 10
-39.1221441615
 20
196.7540461245
 30
0.0
  0
SPLINE
  5
3FD
100
AcDbEntity
  8
0
100
AcDbSpline
 62
7
  6
CONTINUOUS
 70
0
 71
3
 72
16
 73
12
 74
0
 42
0.0000001
 43
0.0000001
 44
0.0000000001
 40
0.0
 40
0.0
 40
0.0
 40
0.0
 40
0.1377986533
 40
0.2715837173
 40
0.4011102173
 40
0.464370496
 40
0.5266710936
 40
0.6485694672
 40
0.7674910297
 40
0.8842948803
 40
1.0
 40
1.0
 40
1.0
 40
1.0
 10
-29.8920681289
 20
216.0580344137
 30
0.0
 10
-29.8920681289
 20
215.8148566119
 30
0.0
 10
-29.8675375308
 20
215.3351433557
 30
0.0
 10
-29.7543940649
 20
214.6349767692
 30
0.0
 10
-29.5962619749
 20
214.0791686337
 30
0.0
 10
-29.4328893728
 20
213.6594050822
 30
0.0
 10
-29.2485569228
 20
213.2632402686
 30
0.0
 10
-28.9754857189
 20
212.8012019845
 30
0.0
 10
-28.5801855723
 20
212.3064636124
 30
0.0
 10
-28.1250509195
 20
211.8819679485
 30
0.0
 10
-27.7847866626
 20
211.6493620043
 30
0.0
 10
-27.6079791367
 20
211.5472243973
 30
0.0
  0
SPLINE
  5
3FE
100
AcDbEntity
  8
0
100
AcDbSpline
 62
7
  6
CONTINUOUS
 70
0
 71
3
 72
16
 73
12
 74
0
 42
0.0000001
 43
0.0000001
 44
0.0000000001
 40
0.0
 40
0.0
 40
0.0
 40
0.0
 40
0.1377986533
 40
0.2715837173
 40
0.4011102173
 40
0.464370496
 40
0.5266710936
 40
0.6485694672
 40
0.7674910297
 40
0.8842948803
 40
1.0
 40
1.0
 40
1.0
 40
1.0
 10
-42.4172293584
 20
212.7005962747
 30
0.0
 10
-42.4172293584
 20
212.4574184729
 30
0.0
 10
-42.3926987603
 20
211.9777052167
 30
0.0
 10
-42.2795552944
 20
211.2775386302
 30
0.0
 10
-42.1214232043
 20
210.7217304947
 30
0.0
 10
-41.9580506023
 20
210.3019669432
 30
0.0
 10
-41.7737181523
 20
209.9058021296
 30
0.0
 10
-41.5006469483
 20
209.4437638455
 30
0.0
 10
-41.1053468018
 20
208.9490254734
 30
0.0
 10
-40.650212149
 20
208.5245298095
 30
0.0
 10
-40.3099478921
 20
208.2919238653
 30
0.0
 10
-40.1331403661
 20
208.1897862583
 30
0.0
  0
SPLINE
  5
3FF
100
AcDbEntity
  8
0
100
AcDbSpline
 62
7
  6
CONTINUOUS
 70
0
 71
3
 72
14
 73
10
 74
0
 42
0.0000001
 43
0.0000001
 44
0.0000000001
 40
0.0
 40
0.0
 40
0.0
 40
0.0
 40
0.1196731367
 40
0.239913265
 40
0.3612595596
 40
0.4842358753
 40
0.6093202071
 40
0.7369179579
 40
1.0
 40
1.0
 40
1.0
 40
1.0
 10
-29.4879676696
 20
208.0316091596
 30
0.0
 10
-29.5601655017
 20
208.0732958862
 30
0.0
 10
-29.7095106478
 20
208.1491566759
 30
0.0
 10
-29.9451305614
 20
208.2388433363
 30
0.0
 10
-30.1911087297
 20
208.3038972867
 30
0.0
 10
-30.4457625475
 20
208.3438719758
 30
0.0
 10
-30.707489948
 20
208.3586107659
 30
0.0
 10
-31.066898285
 20
208.3441661976
 30
0.0
 10
-31.3365494956
 20
208.2953205051
 30
0.0
 10
-31.5135721538
 20
208.247868611
 30
0.0
  0
SPLINE
  5
400
100
AcDbEntity
  8
0
100
AcDbSpline
 62
7
  6
CONTINUOUS
 70
0
 71
3
 72
14
 73
10
 74
0
 42
0.0000001
 43
0.0000001
 44
0.0000000001
 40
0.0
 40
0.0
 40
0.0
 40
0.0
 40
0.1165709968
 40
0.2341239401
 40
0.3535755756
 40
0.4757039765
 40
0.6011310253
 40
0.7302683063
 40
1.0
 40
1.0
 40
1.0
 40
1.0
 10
-37.8717152536
 20
218.6049648777
 30
0.0
 10
-37.9464516043
 20
218.6481201679
 30
0.0
 10
-38.1029722778
 20
218.7241716685
 30
0.0
 10
-38.3529599847
 20
218.8045089211
 30
0.0
 10
-38.6157034363
 20
218.8503067578
 30
0.0
 10
-38.8879377878
 20
218.8612763848
 30
0.0
 10
-39.1665110174
 20
218.8371608936
 30
0.0
 10
-39.5471874091
 20
218.7579872486
 30
0.0
 10
-39.8246316461
 20
218.6485234582
 30
0.0
 10
-40.0024599199
 20
218.5576741997
 30
0.0
  0
SPLINE
  5
401
100
AcDbEntity
  8
0
100
AcDbSpline
 62
7
  6
CONTINUOUS
 70
0
 71
3
 72
19
 73
15
 74
0
 42
0.0000001
 43
0.0000001
 44
0.0000000001
 40
0.0
 40
0.0
 40
0.0
 40
0.0
 40
0.0553735715
 40
0.1110022734
 40
0.1671300442
 40
0.2239839145
 40
0.2817633287
 40
0.3406346005
 40
0.4007314294
 40
0.4621445399
 40
0.5890102234
 40
0.721353012
 40
0.8586604786
 40
1.0
 40
1.0
 40
1.0
 40
1.0
 10
-33.1310700186
 20
220.3128747924
 30
0.0
 10
-33.2533332198
 20
220.3835034081
 30
0.0
 10
-33.5060592374
 20
220.5123167523
 30
0.0
 10
-33.9045853282
 20
220.6653381648
 30
0.0
 10
-34.320377454
 20
220.7776585447
 30
0.0
 10
-34.7507525764
 20
220.848344222
 30
0.0
 10
-35.1929179443
 20
220.8771380152
 30
0.0
 10
-35.6440547131
 20
220.8638798167
 30
0.0
 10
-36.1013016801
 20
220.8085902828
 30
0.0
 10
-36.7217626119
 20
220.6782486346
 30
0.0
 10
-37.49796513
 20
220.409564876
 30
0.0
 10
-38.3953535564
 20
219.9362448118
 30
0.0
 10
-39.247421803
 20
219.320802107
 30
0.0
 10
-39.765673882
 20
218.831414755
 30
0.0
 10
-40.0118916277
 20
218.5682291109
 30
0.0
  0
SPLINE
  5
402
100
AcDbEntity
  8
0
100
AcDbSpline
 62
7
  6
CONTINUOUS
 70
0
 71
3
 72
12
 73
8
 74
0
 42
0.0000001
 43
0.0000001
 44
0.0000000001
 40
0.0
 40
0.0
 40
0.0
 40
0.0
 40
0.2487932849
 40
0.3742444209
 40
0.499991958
 40
0.7511302072
 40
1.0
 40
1.0
 40
1.0
 40
1.0
 10
-40.0118916277
 20
218.5682291109
 30
0.0
 10
-40.2443703551
 20
218.3197292985
 30
0.0
 10
-40.5726389084
 20
217.9250540391
 30
0.0
 10
-40.964124326
 20
217.3640212259
 30
0.0
 10
-41.3253091098
 20
216.7791362989
 30
0.0
 10
-41.7132524123
 20
216.0141548234
 30
0.0
 10
-41.9527132481
 20
215.3717088057
 30
0.0
 10
-42.0527655838
 20
215.0463485802
 30
0.0
  0
SPLINE
  5
403
100
AcDbEntity
  8
0
100
AcDbSpline
 62
7
  6
CONTINUOUS
 70
0
 71
3
 72
10
 73
6
 74
0
 42
0.0000001
 43
0.0000001
 44
0.0000000001
 40
0.0
 40
0.0
 40
0.0
 40
0.0
 40
0.5081846131
 40
0.7565903854
 40
1.0
 40
1.0
 40
1.0
 40
1.0
 10
-42.0527655838
 20
215.0463485802
 30
0.0
 10
-42.1713322626
 20
214.6607815557
 30
0.0
 10
-42.3084693217
 20
214.0732180474
 30
0.0
 10
-42.4013320356
 20
213.2843872216
 30
0.0
 10
-42.4172293584
 20
212.8938094193
 30
0.0
 10
-42.4172293584
 20
212.7005962747
 30
0.0
  0
SPLINE
  5
404
100
AcDbEntity
  8
0
100
AcDbSpline
 62
7
  6
CONTINUOUS
 70
0
 71
3
 72
14
 73
10
 74
0
 42
0.0000001
 43
0.0000001
 44
0.0000000001
 40
0.0
 40
0.0
 40
0.0
 40
0.0
 40
0.1165709968
 40
0.2341239401
 40
0.3535755756
 40
0.4757039765
 40
0.6011310253
 40
0.7302683063
 40
1.0
 40
1.0
 40
1.0
 40
1.0
 10
-25.3465540242
 20
221.9624030167
 30
0.0
 10
-25.4212903748
 20
222.0055583069
 30
0.0
 10
-25.5778110483
 20
222.0816098075
 30
0.0
 10
-25.8277987552
 20
222.1619470601
 30
0.0
 10
-26.0905422068
 20
222.2077448968
 30
0.0
 10
-26.3627765583
 20
222.2187145238
 30
0.0
 10
-26.6413497879
 20
222.1945990326
 30
0.0
 10
-27.0220261797
 20
222.1154253877
 30
0.0
 10
-27.2994704167
 20
222.0059615972
 30
0.0
 10
-27.4772986904
 20
221.9151123387
 30
0.0
  0
SPLINE
  5
405
100
AcDbEntity
  8
0
100
AcDbSpline
 62
7
  6
CONTINUOUS
 70
0
 71
3
 72
19
 73
15
 74
0
 42
0.0000001
 43
0.0000001
 44
0.0000000001
 40
0.0
 40
0.0
 40
0.0
 40
0.0
 40
0.0553735715
 40
0.1110022734
 40
0.1671300442
 40
0.2239839145
 40
0.2817633287
 40
0.3406346005
 40
0.4007314294
 40
0.4621445399
 40
0.5890102234
 40
0.721353012
 40
0.8586604786
 40
1.0
 40
1.0
 40
1.0
 40
1.0
 10
-20.6059087892
 20
223.6703129314
 30
0.0
 10
-20.7281719904
 20
223.7409415471
 30
0.0
 10
-20.9808980079
 20
223.8697548913
 30
0.0
 10
-21.3794240987
 20
224.0227763038
 30
0.0
 10
-21.7952162245
 20
224.1350966837
 30
0.0
 10
-22.2255913469
 20
224.205782361
 30
0.0
 10
-22.6677567148
 20
224.2345761542
 30
0.0
 10
-23.1188934836
 20
224.2213179557
 30
0.0
 10
-23.5761404506
 20
224.1660284218
 30
0.0
 10
-24.1966013824
 20
224.0356867736
 30
0.0
 10
-24.9728039005
 20
223.767003015
 30
0.0
 10
-25.8701923269
 20
223.2936829508
 30
0.0
 10
-26.7222605735
 20
222.678240246
 30
0.0
 10
-27.2405126526
 20
222.188852894
 30
0.0
 10
-27.4867303983
 20
221.9256672499
 30
0.0
  0
SPLINE
  5
406
100
AcDbEntity
  8
0
100
AcDbSpline
 62
7
  6
CONTINUOUS
 70
0
 71
3
 72
12
 73
8
 74
0
 42
0.0000001
 43
0.0000001
 44
0.0000000001
 40
0.0
 40
0.0
 40
0.0
 40
0.0
 40
0.2487932849
 40
0.3742444209
 40
0.499991958
 40
0.7511302072
 40
1.0
 40
1.0
 40
1.0
 40
1.0
 10
-27.4867303983
 20
221.9256672499
 30
0.0
 10
-27.7192091256
 20
221.6771674375
 30
0.0
 10
-28.047477679
 20
221.2824921781
 30
0.0
 10
-28.4389630965
 20
220.7214593649
 30
0.0
 10
-28.8001478803
 20
220.1365744379
 30
0.0
 10
-29.1880911829
 20
219.3715929624
 30
0.0
 10
-29.4275520186
 20
218.7291469447
 30
0.0
 10
-29.5276043543
 20
218.4037867192
 30
0.0
  0
SPLINE
  5
407
100
AcDbEntity
  8
0
100
AcDbSpline
 62
7
  6
CONTINUOUS
 70
0
 71
3
 72
10
 73
6
 74
0
 42
0.0000001
 43
0.0000001
 44
0.0000000001
 40
0.0
 40
0.0
 40
0.0
 40
0.0
 40
0.5081846131
 40
0.7565903854
 40
1.0
 40
1.0
 40
1.0
 40
1.0
 10
-29.5276043543
 20
218.4037867192
 30
0.0
 10
-29.6461710331
 20
218.0182196947
 30
0.0
 10
-29.7833080922
 20
217.4306561864
 30
0.0
 10
-29.8761708061
 20
216.6418253606
 30
0.0
 10
-29.8920681289
 20
216.2512475583
 30
0.0
 10
-29.8920681289
 20
216.0580344137
 30
0.0
  0
SPLINE
  5
408
100
AcDbEntity
  8
0
100
AcDbSpline
 62
7
  6
CONTINUOUS
 70
0
 71
3
 72
14
 73
10
 74
0
 42
0.0000001
 43
0.0000001
 44
0.0000000001
 40
0.0
 40
0.0
 40
0.0
 40
0.0
 40
0.2700347417
 40
0.3992208127
 40
0.5246313419
 40
0.6467253527
 40
0.7661042169
 40
0.8835515279
 40
1.0
 40
1.0
 40
1.0
 40
1.0
 10
-29.5222713232
 20
218.3977951307
 30
0.0
 10
-29.5133633538
 20
218.196142567
 30
0.0
 10
-29.47105151
 20
217.8976928324
 30
0.0
 10
-29.3502314247
 20
217.5238845992
 30
0.0
 10
-29.2319392991
 20
217.2675341707
 30
0.0
 10
-29.0859722198
 20
217.0344624198
 30
0.0
 10
-28.9140567518
 20
216.8273839313
 30
0.0
 10
-28.7181532881
 20
216.649067439
 30
0.0
 10
-28.5728693017
 20
216.5505344646
 30
0.0
 10
-28.4974892959
 20
216.5070075062
 30
0.0
  0
SPLINE
  5
409
100
AcDbEntity
  8
0
100
AcDbSpline
 62
7
  6
CONTINUOUS
 70
0
 71
3
 72
14
 73
10
 74
0
 42
0.0000001
 43
0.0000001
 44
0.0000000001
 40
0.0
 40
0.0
 40
0.0
 40
0.0
 40
0.2700347417
 40
0.3992208127
 40
0.5246313419
 40
0.6467253527
 40
0.7661042169
 40
0.8835515279
 40
1.0
 40
1.0
 40
1.0
 40
1.0
 10
-42.0474325527
 20
215.0403569917
 30
0.0
 10
-42.0385245833
 20
214.838704428
 30
0.0
 10
-41.9962127395
 20
214.5402546933
 30
0.0
 10
-41.8753926542
 20
214.1664464602
 30
0.0
 10
-41.7571005286
 20
213.9100960317
 30
0.0
 10
-41.6111334493
 20
213.6770242808
 30
0.0
 10
-41.4392179813
 20
213.4699457923
 30
0.0
 10
-41.2433145175
 20
213.2916293
 30
0.0
 10
-41.0980305312
 20
213.1930963256
 30
0.0
 10
-41.0226505254
 20
213.1495693672
 30
0.0
  0
SPLINE
  5
40A
100
AcDbEntity
  8
0
100
AcDbSpline
 62
7
  6
CONTINUOUS
 70
0
 71
3
 72
16
 73
12
 74
0
 42
0.0000001
 43
0.0000001
 44
0.0000000001
 40
0.0
 40
0.0
 40
0.0
 40
0.0
 40
0.1377596319
 40
0.2715705252
 40
0.401114765
 40
0.5265996278
 40
0.6484871541
 40
0.7674138112
 40
0.8260592905
 40
0.8842975524
 40
1.0
 40
1.0
 40
1.0
 40
1.0
 10
-34.8606797069
 20
203.6273528975
 30
0.0
 10
-34.860679707
 20
203.4866950103
 30
0.0
 10
-34.8464537807
 20
203.2091656229
 30
0.0
 10
-34.7810353989
 20
202.8040236869
 30
0.0
 10
-34.6721265235
 20
202.4212237626
 30
0.0
 10
-34.5213192826
 20
202.0659980694
 30
0.0
 10
-34.3303334613
 20
201.7431228452
 30
0.0
 10
-34.1388448251
 20
201.5032886052
 30
0.0
 10
-33.9686209817
 20
201.3327207496
 30
0.0
 10
-33.7887960465
 20
201.1773774317
 30
0.0
 10
-33.6414839624
 20
201.0765895154
 30
0.0
 10
-33.539176638
 20
201.0175176936
 30
0.0
  0
SPLINE
  5
40B
100
AcDbEntity
  8
0
100
AcDbSpline
 62
7
  6
CONTINUOUS
 70
0
 71
3
 72
20
 73
16
 74
0
 42
0.0000001
 43
0.0000001
 44
0.0000000001
 40
0.0
 40
0.0
 40
0.0
 40
0.0
 40
0.0565852618
 40
0.114781493
 40
0.1744543121
 40
0.2354901601
 40
0.361021374
 40
0.4899563276
 40
0.5551417072
 40
0.6204298633
 40
0.6855521051
 40
0.750238774
 40
0.8772924644
 40
0.9393301734
 40
1.0
 40
1.0
 40
1.0
 40
1.0
 10
-31.5135721538
 20
208.247868611
 30
0.0
 10
-31.6244791973
 20
208.2181393699
 30
0.0
 10
-31.8464505722
 20
208.1461031942
 30
0.0
 10
-32.1716041359
 20
208.0049128118
 30
0.0
 10
-32.4904036848
 20
207.830189443
 30
0.0
 10
-32.9064416597
 20
207.552504587
 30
0.0
 10
-33.3923257087
 20
207.1310370683
 30
0.0
 10
-33.8124240348
 20
206.6333982706
 30
0.0
 10
-34.1052385315
 20
206.1954782549
 30
0.0
 10
-34.3007903223
 20
205.8496609356
 30
0.0
 10
-34.4696750424
 20
205.4911635495
 30
0.0
 10
-34.6558468015
 20
205.0039550199
 30
0.0
 10
-34.784437509
 20
204.5026456358
 30
0.0
 10
-34.8494958615
 20
203.9995942882
 30
0.0
 10
-34.8606797069
 20
203.7504637439
 30
0.0
 10
-34.8606797069
 20
203.6273528975
 30
0.0
  0
SPLINE
  5
40C
100
AcDbEntity
  8
0
100
AcDbSpline
 62
7
  6
CONTINUOUS
 70
0
 71
3
 72
20
 73
16
 74
0
 42
0.0000001
 43
0.0000001
 44
0.0000000001
 40
0.0
 40
0.0
 40
0.0
 40
0.0
 40
0.0578059004
 40
0.1157514725
 40
0.1739736631
 40
0.2326036635
 40
0.2917631749
 40
0.3515655967
 40
0.412112229
 40
0.4734917412
 40
0.5989634332
 40
0.7284448343
 40
0.7947915619
 40
0.8622057402
 40
1.0
 40
1.0
 40
1.0
 40
1.0
 10
-21.6169049938
 20
227.0618751977
 30
0.0
 10
-21.396002674
 20
226.9342761252
 30
0.0
 10
-20.9631810781
 20
226.6618759589
 30
0.0
 10
-20.3455451442
 20
226.2046404642
 30
0.0
 10
-19.7612126692
 20
225.6999084568
 30
0.0
 10
-19.2121536087
 20
225.1494670553
 30
0.0
 10
-18.7001043679
 20
224.5552184628
 30
0.0
 10
-18.226905819
 20
223.9190545536
 30
0.0
 10
-17.793981536
 20
223.2431636141
 30
0.0
 10
-17.2686622364
 20
222.2852283937
 30
0.0
 10
-16.7213849653
 20
220.9964054251
 30
0.0
 10
-16.3325568509
 20
219.6291146446
 30
0.0
 10
-16.1127254566
 20
218.4878136619
 30
0.0
 10
-15.9530005618
 20
217.2996024365
 30
0.0
 10
-15.9067141627
 20
216.3929041055
 30
0.0
 10
-15.9067141627
 20
215.7847962878
 30
0.0
  0
SPLINE
  5
40D
100
AcDbEntity
  8
0
100
AcDbSpline
 62
7
  6
CONTINUOUS
 70
0
 71
3
 72
33
 73
29
 74
0
 42
0.0000001
 43
0.0000001
 44
0.0000000001
 40
0.0
 40
0.0
 40
0.0
 40
0.0
 40
0.0318317324
 40
0.064179363
 40
0.1301451693
 40
0.1975069498
 40
0.2657864275
 40
0.3344452241
 40
0.4029287544
 40
0.4706880472
 40
0.5041480313
 40
0.5372417057
 40
0.5699163051
 40
0.6021260732
 40
0.6338312205
 40
0.6650013233
 40
0.6956136375
 40
0.7256562056
 40
0.7551270688
 40
0.7840355356
 40
0.8124030489
 40
0.840262123
 40
0.8676582553
 40
0.8946472024
 40
0.9212963737
 40
0.9476815443
 40
0.9738865563
 40
1.0
 40
1.0
 40
1.0
 40
1.0
 10
-44.8323349926
 20
208.0311250344
 30
0.0
 10
-44.8323349926
 20
208.4061487995
 30
0.0
 10
-44.8084831787
 20
209.1624823501
 30
0.0
 10
-44.6679833082
 20
210.6900542939
 30
0.0
 10
-44.3173435869
 20
212.6149814443
 30
0.0
 10
-43.6332958264
 20
214.894343966
 30
0.0
 10
-42.6963501252
 20
217.1164086519
 30
0.0
 10
-41.5242034273
 20
219.2389123865
 30
0.0
 10
-40.1393208794
 20
221.2215374317
 30
0.0
 10
-38.8237036791
 20
222.7327261606
 30
0.0
 10
-37.6890555826
 20
223.8366846798
 30
0.0
 10
-36.8063035529
 20
224.60412385
 30
0.0
 10
-35.8925094624
 20
225.3104754953
 30
0.0
 10
-34.9521622289
 20
225.9525535855
 30
0.0
 10
-33.9896300935
 20
226.5270697378
 30
0.0
 10
-33.0096253727
 20
227.0314198208
 30
0.0
 10
-32.0167609988
 20
227.4630451296
 30
0.0
 10
-31.0158190658
 20
227.8198941959
 30
0.0
 10
-30.0115902395
 20
228.1002542281
 30
0.0
 10
-29.0088601183
 20
228.302617295
 30
0.0
 10
-28.0124748428
 20
228.4261565849
 30
0.0
 10
-27.0271960868
 20
228.469972038
 30
0.0
 10
-26.0577949755
 20
228.4340677816
 30
0.0
 10
-25.1089653724
 20
228.3182977728
 30
0.0
 10
-24.1853144776
 20
228.1233822558
 30
0.0
 10
-23.2913405637
 20
227.8500725178
 30
0.0
 10
-22.4315155882
 20
227.4997554641
 30
0.0
 10
-21.8833093409
 20
227.2157574548
 30
0.0
 10
-21.6169049938
 20
227.0618751977
 30
0.0
  0
SPLINE
  5
40E
100
AcDbEntity
  8
0
100
AcDbSpline
 62
7
  6
CONTINUOUS
 70
0
 71
3
 72
14
 73
10
 74
0
 42
0.0000001
 43
0.0000001
 44
0.0000000001
 40
0.0
 40
0.0
 40
0.0
 40
0.0
 40
0.1196731367
 40
0.239913265
 40
0.3612595596
 40
0.4842358753
 40
0.6093202071
 40
0.7369179579
 40
1.0
 40
1.0
 40
1.0
 40
1.0
 10
-33.539176638
 20
201.0175176936
 30
0.0
 10
-33.4669788059
 20
200.975830967
 30
0.0
 10
-33.3176336598
 20
200.8999701774
 30
0.0
 10
-33.0820137462
 20
200.810283517
 30
0.0
 10
-32.8360355781
 20
200.7452295666
 30
0.0
 10
-32.5813817603
 20
200.7052548774
 30
0.0
 10
-32.3196543599
 20
200.6905160874
 30
0.0
 10
-31.960246023
 20
200.7049606556
 30
0.0
 10
-31.6905948125
 20
200.7538063481
 30
0.0
 10
-31.5135721544
 20
200.8012582421
 30
0.0
  0
SPLINE
  5
40F
100
AcDbEntity
  8
0
100
AcDbSpline
 62
7
  6
CONTINUOUS
 70
0
 71
3
 72
16
 73
12
 74
0
 42
0.0000001
 43
0.0000001
 44
0.0000000001
 40
0.0
 40
0.0
 40
0.0
 40
0.0
 40
0.1377986533
 40
0.2715837173
 40
0.4011102173
 40
0.464370496
 40
0.5266710936
 40
0.6485694672
 40
0.7674910297
 40
0.8842948803
 40
1.0
 40
1.0
 40
1.0
 40
1.0
 10
-30.8469810264
 20
215.802064776
 30
0.0
 10
-30.8469810264
 20
216.0452425778
 30
0.0
 10
-30.8715116245
 20
216.524955834
 30
0.0
 10
-30.9846550904
 20
217.2251224205
 30
0.0
 10
-31.1427871804
 20
217.780930556
 30
0.0
 10
-31.3061597825
 20
218.2006941076
 30
0.0
 10
-31.4904922325
 20
218.5968589211
 30
0.0
 10
-31.7635634364
 20
219.0588972052
 30
0.0
 10
-32.158863583
 20
219.5536355773
 30
0.0
 10
-32.6139982358
 20
219.9781312413
 30
0.0
 10
-32.9542624927
 20
220.2107371854
 30
0.0
 10
-33.1310700186
 20
220.3128747924
 30
0.0
  0
SPLINE
  5
410
100
AcDbEntity
  8
0
100
AcDbSpline
 62
7
  6
CONTINUOUS
 70
0
 71
3
 72
16
 73
12
 74
0
 42
0.0000001
 43
0.0000001
 44
0.0000000001
 40
0.0
 40
0.0
 40
0.0
 40
0.0
 40
0.1377986533
 40
0.2715837173
 40
0.4011102173
 40
0.464370496
 40
0.5266710936
 40
0.6485694672
 40
0.7674910297
 40
0.8842948803
 40
1.0
 40
1.0
 40
1.0
 40
1.0
 10
-18.3218197969
 20
219.159502915
 30
0.0
 10
-18.3218197969
 20
219.4026807168
 30
0.0
 10
-18.346350395
 20
219.882393973
 30
0.0
 10
-18.459493861
 20
220.5825605595
 30
0.0
 10
-18.617625951
 20
221.138368695
 30
0.0
 10
-18.780998553
 20
221.5581322466
 30
0.0
 10
-18.965331003
 20
221.9542970601
 30
0.0
 10
-19.238402207
 20
222.4163353442
 30
0.0
 10
-19.6337023535
 20
222.9110737163
 30
0.0
 10
-20.0888370063
 20
223.3355693803
 30
0.0
 10
-20.4291012632
 20
223.5681753244
 30
0.0
 10
-20.6059087892
 20
223.6703129314
 30
0.0
  0
SPLINE
  5
411
100
AcDbEntity
  8
0
100
AcDbSpline
 62
7
  6
CONTINUOUS
 70
0
 71
3
 72
24
 73
20
 74
0
 42
0.0000001
 43
0.0000001
 44
0.0000000001
 40
0.0
 40
0.0
 40
0.0
 40
0.0
 40
0.0261251929
 40
0.0523423489
 40
0.078739597
 40
0.1054016067
 40
0.1597642795
 40
0.2159750424
 40
0.2743426147
 40
0.3349918332
 40
0.3978652049
 40
0.4627501264
 40
0.5293079475
 40
0.5970954008
 40
0.7341112156
 40
0.8024195103
 40
0.8698119931
 40
0.9358424697
 40
1.0
 40
1.0
 40
1.0
 40
1.0
 10
-41.0226505254
 20
213.1495693672
 30
0.0
 10
-40.97469499
 20
213.1218782232
 30
0.0
 10
-40.8760146551
 20
213.0707695722
 30
0.0
 10
-40.7212557966
 20
213.0077051109
 30
0.0
 10
-40.5603387758
 20
212.9584895969
 30
0.0
 10
-40.3372999556
 20
212.9114441111
 30
0.0
 10
-40.0457595033
 20
212.888870409
 30
0.0
 10
-39.6875694539
 20
212.9199781613
 30
0.0
 10
-39.3253375183
 20
213.0078935151
 30
0.0
 10
-38.9659983243
 20
213.150804943
 30
0.0
 10
-38.616281948
 20
213.3458083343
 30
0.0
 10
-38.2826991734
 20
213.5890076076
 30
0.0
 10
-37.9715370188
 20
213.8758958173
 30
0.0
 10
-37.593257081
 20
214.310325883
 30
0.0
 10
-37.2846831617
 20
214.8062441654
 30
0.0
 10
-37.0597357125
 20
215.3396142651
 30
0.0
 10
-36.9365410406
 20
215.7500487592
 30
0.0
 10
-36.8614256062
 20
216.1629097422
 30
0.0
 10
-36.8438770148
 20
216.4391059799
 30
0.0
 10
-36.8438770148
 20
216.5750975352
 30
0.0
  0
SPLINE
  5
412
100
AcDbEntity
  8
0
100
AcDbSpline
 62
7
  6
CONTINUOUS
 70
0
 71
3
 72
23
 73
19
 74
0
 42
0.0000001
 43
0.0000001
 44
0.0000000001
 40
0.0
 40
0.0
 40
0.0
 40
0.0
 40
0.0700101358
 40
0.1383166207
 40
0.2047795057
 40
0.2694399241
 40
0.3324251132
 40
0.3939158187
 40
0.4541570336
 40
0.5134694762
 40
0.5722231603
 40
0.6308218359
 40
0.6896772703
 40
0.7491796444
 40
0.8096873677
 40
0.8715256932
 40
0.9349405006
 40
1.0
 40
1.0
 40
1.0
 40
1.0
 10
-35.3959710316
 20
202.5164162632
 30
0.0
 10
-35.3959710317
 20
202.3358089734
 30
0.0
 10
-35.3803416387
 20
201.9787633452
 30
0.0
 10
-35.3086464395
 20
201.4546058396
 30
0.0
 10
-35.1892009496
 20
200.9532894869
 30
0.0
 10
-35.0233251715
 20
200.4798197059
 30
0.0
 10
-34.8123570868
 20
200.0387398574
 30
0.0
 10
-34.5584419683
 20
199.6342089362
 30
0.0
 10
-34.2636995653
 20
199.2704078698
 30
0.0
 10
-33.9311699175
 20
198.9508151562
 30
0.0
 10
-33.5639053914
 20
198.6788324504
 30
0.0
 10
-33.1656855216
 20
198.4569914823
 30
0.0
 10
-32.7403605733
 20
198.2877596957
 30
0.0
 10
-32.2923172861
 20
198.1724782383
 30
0.0
 10
-31.8258949095
 20
198.1124426354
 30
0.0
 10
-31.3456118433
 20
198.1079770215
 30
0.0
 10
-30.8563769089
 20
198.1592277795
 30
0.0
 10
-30.5316373783
 20
198.2289344497
 30
0.0
 10
-30.3695245777
 20
198.2723896747
 30
0.0
  0
SPLINE
  5
413
100
AcDbEntity
  8
0
100
AcDbSpline
 62
7
  6
CONTINUOUS
 70
0
 71
3
 72
22
 73
18
 74
0
 42
0.0000001
 43
0.0000001
 44
0.0000000001
 40
0.0
 40
0.0
 40
0.0
 40
0.0
 40
0.114640602
 40
0.1742903503
 40
0.2353137956
 40
0.2975898356
 40
0.3609337112
 40
0.4251295694
 40
0.4899401137
 40
0.5551142663
 40
0.6203902631
 40
0.6855029361
 40
0.7501863016
 40
0.81418828
 40
0.8773007103
 40
0.9393226291
 40
1.0
 40
1.0
 40
1.0
 40
1.0
 10
-30.3695245777
 20
198.2723896747
 30
0.0
 10
-30.0320383609
 20
198.3628547054
 30
0.0
 10
-29.5320057912
 20
198.5545816483
 30
0.0
 10
-28.90267999
 20
198.8996138384
 30
0.0
 10
-28.4382405036
 20
199.2095479306
 30
0.0
 10
-27.9926187795
 20
199.5640973257
 30
0.0
 10
-27.5697434161
 20
199.9597824356
 30
0.0
 10
-27.1738720643
 20
200.3929637357
 30
0.0
 10
-26.8086075303
 20
200.8593351545
 30
0.0
 10
-26.4775943961
 20
201.3545626767
 30
0.0
 10
-26.1838211388
 20
201.8738052509
 30
0.0
 10
-25.9302995323
 20
202.4121954872
 30
0.0
 10
-25.7192404052
 20
202.9644617881
 30
0.0
 10
-25.5528454046
 20
203.5254462705
 30
0.0
 10
-25.432575255
 20
204.089844793
 30
0.0
 10
-25.3598389065
 20
204.6520813009
 30
0.0
 10
-25.3430781238
 20
205.026217309
 30
0.0
 10
-25.3430781237
 20
205.2111493239
 30
0.0
  0
SPLINE
  5
414
100
AcDbEntity
  8
0
100
AcDbSpline
 62
7
  6
CONTINUOUS
 70
0
 71
3
 72
24
 73
20
 74
0
 42
0.0000001
 43
0.0000001
 44
0.0000000001
 40
0.0
 40
0.0
 40
0.0
 40
0.0
 40
0.0624608329
 40
0.1265316657
 40
0.1918546597
 40
0.2581238523
 40
0.3249716178
 40
0.3919935319
 40
0.4587881864
 40
0.4919861694
 40
0.5249814845
 40
0.5901645153
 40
0.6540272572
 40
0.7765941969
 40
0.8061352245
 40
0.8351955617
 40
0.8918598335
 40
0.9467202981
 40
1.0
 40
1.0
 40
1.0
 40
1.0
 10
-21.1368974941
 20
220.7854395121
 30
0.0
 10
-21.1368974941
 20
220.525649578
 30
0.0
 10
-21.1656383225
 20
219.9990194024
 30
0.0
 10
-21.2896881322
 20
219.2095026803
 30
0.0
 10
-21.4938432379
 20
218.4204124535
 30
0.0
 10
-21.7750006308
 20
217.6431705336
 30
0.0
 10
-22.1290493733
 20
216.888506102
 30
0.0
 10
-22.5511767831
 20
216.1672223668
 30
0.0
 10
-22.9555154984
 20
215.6010809797
 30
0.0
 10
-23.3074743841
 20
215.1741449966
 30
0.0
 10
-23.6743423422
 20
214.7689873391
 30
0.0
 10
-24.1617661767
 20
214.3017145125
 30
0.0
 10
-24.984797751
 20
213.653773125
 30
0.0
 10
-25.7738694085
 20
213.2062537739
 30
0.0
 10
-26.4767739258
 20
212.9340072385
 30
0.0
 10
-26.9335366965
 20
212.78754894
 30
0.0
 10
-27.506003382
 20
212.6603200269
 30
0.0
 10
-28.1907768008
 20
212.6001471884
 30
0.0
 10
-28.6417898734
 20
212.6238619599
 30
0.0
 10
-28.8616071304
 20
212.6519408006
 30
0.0
  0
SPLINE
  5
415
100
AcDbEntity
  8
0
100
AcDbSpline
 62
7
  6
CONTINUOUS
 70
0
 71
3
 72
15
 73
11
 74
0
 42
0.0000001
 43
0.0000001
 44
0.0000000001
 40
0.0
 40
0.0
 40
0.0
 40
0.0
 40
0.1377736628
 40
0.2715996389
 40
0.4011566
 40
0.5266520815
 40
0.6485496815
 40
0.7674848357
 40
0.8842941941
 40
1.0
 40
1.0
 40
1.0
 40
1.0
 10
-24.3187157854
 20
219.9325356742
 30
0.0
 10
-24.3187157854
 20
220.0419384727
 30
0.0
 10
-24.3297825956
 20
220.2578001987
 30
0.0
 10
-24.3806649786
 20
220.572917292
 30
0.0
 10
-24.465376727
 20
220.8706563484
 30
0.0
 10
-24.5826723493
 20
221.1469390686
 30
0.0
 10
-24.7312336435
 20
221.3980766985
 30
0.0
 10
-24.9090470324
 20
221.6207818005
 30
0.0
 10
-25.1139104541
 20
221.8117377892
 30
0.0
 10
-25.2669871471
 20
221.9164584175
 30
0.0
 10
-25.3465540242
 20
221.9624030167
 30
0.0
  0
SPLINE
  5
416
100
AcDbEntity
  8
0
100
AcDbSpline
 62
7
  6
CONTINUOUS
 70
0
 71
3
 72
34
 73
30
 74
0
 42
0.0000001
 43
0.0000001
 44
0.0000000001
 40
0.0
 40
0.0
 40
0.0
 40
0.0
 40
0.0261185804
 40
0.0523287554
 40
0.0787191439
 40
0.1053730926
 40
0.1323675882
 40
0.1597685934
 40
0.1876327546
 40
0.2160056265
 40
0.2449190103
 40
0.2743949544
 40
0.304442982
 40
0.3350601936
 40
0.3662355125
 40
0.3979463222
 40
0.4301607984
 40
0.4628410312
 40
0.495940108
 40
0.52940536
 40
0.5631800161
 40
0.5972011572
 40
0.6656940094
 40
0.734365147
 40
0.768606047
 40
0.8026822697
 40
0.8365255103
 40
0.8700772274
 40
1.0
 40
1.0
 40
1.0
 40
1.0
 10
-40.1331403661
 20
208.1897862583
 30
0.0
 10
-40.0265792194
 20
208.1282283553
 30
0.0
 10
-39.8073115494
 20
208.0145892317
 30
0.0
 10
-39.4633516781
 20
207.8745154771
 30
0.0
 10
-39.1057656691
 20
207.765177189
 30
0.0
 10
-38.7363046555
 20
207.6871751448
 30
0.0
 10
-38.3567620913
 20
207.6409395187
 30
0.0
 10
-37.969002131
 20
207.6265185985
 30
0.0
 10
-37.5748885741
 20
207.6440720659
 30
0.0
 10
-37.1763376734
 20
207.6935016217
 30
0.0
 10
-36.7752432298
 20
207.7744272304
 30
0.0
 10
-36.3735543082
 20
207.8865757447
 30
0.0
 10
-35.9731915892
 20
208.0293405397
 30
0.0
 10
-35.5760361273
 20
208.2019554406
 30
0.0
 10
-35.1840455518
 20
208.4037094938
 30
0.0
 10
-34.7990556093
 20
208.6335366584
 30
0.0
 10
-34.4228868557
 20
208.8903122021
 30
0.0
 10
-34.0574122155
 20
209.1728988848
 30
0.0
 10
-33.7043062434
 20
209.4798398334
 30
0.0
 10
-33.3652723635
 20
209.8096822254
 30
0.0
 10
-33.0419933547
 20
210.1609136332
 30
0.0
 10
-32.6330629746
 20
210.6563670648
 30
0.0
 10
-32.1702628363
 20
211.3189274298
 30
0.0
 10
-31.7790545702
 20
212.0272796423
 30
0.0
 10
-31.5127119184
 20
212.6155025932
 30
0.0
 10
-31.3376391114
 20
213.0641209541
 30
0.0
 10
-31.1880317658
 20
213.5185466273
 30
0.0
 10
-30.9460018419
 20
214.4160727315
 30
0.0
 10
-30.8469810264
 20
215.1899041659
 30
0.0
 10
-30.8469810264
 20
215.802064776
 30
0.0
  0
SPLINE
  5
417
100
AcDbEntity
  8
0
100
AcDbSpline
 62
7
  6
CONTINUOUS
 70
0
 71
3
 72
23
 73
19
 74
0
 42
0.0000001
 43
0.0000001
 44
0.0000000001
 40
0.0
 40
0.0
 40
0.0
 40
0.0
 40
0.0700101358
 40
0.1383166207
 40
0.2047795057
 40
0.2694399241
 40
0.3324251132
 40
0.3939158187
 40
0.4541570336
 40
0.5134694762
 40
0.5722231603
 40
0.6308218359
 40
0.6896772703
 40
0.7491796444
 40
0.8096873677
 40
0.8715256932
 40
0.9349405006
 40
1.0
 40
1.0
 40
1.0
 40
1.0
 10
-25.3430781237
 20
205.2111493239
 30
0.0
 10
-25.3430781236
 20
205.3917566138
 30
0.0
 10
-25.3587075167
 20
205.748802242
 30
0.0
 10
-25.4304027158
 20
206.2729597475
 30
0.0
 10
-25.5498482057
 20
206.7742761003
 30
0.0
 10
-25.7157239838
 20
207.2477458812
 30
0.0
 10
-25.9266920685
 20
207.6888257298
 30
0.0
 10
-26.180607187
 20
208.093356651
 30
0.0
 10
-26.47534959
 20
208.4571577173
 30
0.0
 10
-26.8078792378
 20
208.776750431
 30
0.0
 10
-27.1751437639
 20
209.0487331367
 30
0.0
 10
-27.5733636337
 20
209.2705741049
 30
0.0
 10
-27.9986885821
 20
209.4398058914
 30
0.0
 10
-28.4467318692
 20
209.5550873488
 30
0.0
 10
-28.9131542458
 20
209.6151229517
 30
0.0
 10
-29.393437312
 20
209.6195885656
 30
0.0
 10
-29.8826722464
 20
209.5683378077
 30
0.0
 10
-30.207411777
 20
209.4986311375
 30
0.0
 10
-30.3695245777
 20
209.4551759125
 30
0.0
  0
SPLINE
  5
418
100
AcDbEntity
  8
0
100
AcDbSpline
 62
7
  6
CONTINUOUS
 70
0
 71
3
 72
24
 73
20
 74
0
 42
0.0000001
 43
0.0000001
 44
0.0000000001
 40
0.0
 40
0.0
 40
0.0
 40
0.0
 40
0.0624608329
 40
0.1265316657
 40
0.1918546597
 40
0.2581238523
 40
0.3249716178
 40
0.3919935319
 40
0.4587881864
 40
0.4919861694
 40
0.5249814845
 40
0.5901645153
 40
0.6540272572
 40
0.7765941969
 40
0.8061352245
 40
0.8351955617
 40
0.8918598335
 40
0.9467202981
 40
1.0
 40
1.0
 40
1.0
 40
1.0
 10
-33.6620587235
 20
217.4280013731
 30
0.0
 10
-33.6620587235
 20
217.168211439
 30
0.0
 10
-33.690799552
 20
216.6415812634
 30
0.0
 10
-33.8148493616
 20
215.8520645413
 30
0.0
 10
-34.0190044674
 20
215.0629743144
 30
0.0
 10
-34.3001618602
 20
214.2857323946
 30
0.0
 10
-34.6542106028
 20
213.531067963
 30
0.0
 10
-35.0763380126
 20
212.8097842278
 30
0.0
 10
-35.4806767278
 20
212.2436428407
 30
0.0
 10
-35.8326356136
 20
211.8167068576
 30
0.0
 10
-36.1995035717
 20
211.4115492001
 30
0.0
 10
-36.6869274062
 20
210.9442763735
 30
0.0
 10
-37.5099589805
 20
210.296334986
 30
0.0
 10
-38.299030638
 20
209.8488156348
 30
0.0
 10
-39.0019351552
 20
209.5765690995
 30
0.0
 10
-39.458697926
 20
209.430110801
 30
0.0
 10
-40.0311646115
 20
209.3028818879
 30
0.0
 10
-40.7159380303
 20
209.2427090493
 30
0.0
 10
-41.1669511029
 20
209.2664238209
 30
0.0
 10
-41.3867683599
 20
209.2945026616
 30
0.0
  0
SPLINE
  5
419
100
AcDbEntity
  8
0
100
AcDbSpline
 62
7
  6
CONTINUOUS
 70
0
 71
3
 72
15
 73
11
 74
0
 42
0.0000001
 43
0.0000001
 44
0.0000000001
 40
0.0
 40
0.0
 40
0.0
 40
0.0
 40
0.1377736628
 40
0.2715996389
 40
0.4011566
 40
0.5266520815
 40
0.6485496815
 40
0.7674848357
 40
0.8842941941
 40
1.0
 40
1.0
 40
1.0
 40
1.0
 10
-36.8438770148
 20
216.5750975352
 30
0.0
 10
-36.8438770148
 20
216.6845003337
 30
0.0
 10
-36.854943825
 20
216.9003620597
 30
0.0
 10
-36.9058262081
 20
217.215479153
 30
0.0
 10
-36.9905379564
 20
217.5132182094
 30
0.0
 10
-37.1078335788
 20
217.7895009296
 30
0.0
 10
-37.256394873
 20
218.0406385595
 30
0.0
 10
-37.4342082619
 20
218.2633436615
 30
0.0
 10
-37.6390716836
 20
218.4542996502
 30
0.0
 10
-37.7921483765
 20
218.5590202785
 30
0.0
 10
-37.8717152536
 20
218.6049648777
 30
0.0
  0
SPLINE
  5
41A
100
AcDbEntity
  8
0
100
AcDbSpline
 62
7
  6
CONTINUOUS
 70
0
 71
3
 72
15
 73
11
 74
0
 42
0.0000001
 43
0.0000001
 44
0.0000000001
 40
0.0
 40
0.0
 40
0.0
 40
0.0
 40
0.1165837902
 40
0.2352399323
 40
0.3562041647
 40
0.4796668141
 40
0.6057701944
 40
0.7346000081
 40
0.8660812554
 40
1.0
 40
1.0
 40
1.0
 40
1.0
 10
-34.6911629482
 20
220.8159404549
 30
0.0
 10
-34.6073940288
 20
220.7038419042
 30
0.0
 10
-34.4489424007
 20
220.4695534979
 30
0.0
 10
-34.241960257
 20
220.0948258116
 30
0.0
 10
-34.0648377755
 20
219.6960313772
 30
0.0
 10
-33.9187011028
 20
219.2754407027
 30
0.0
 10
-33.8041954743
 20
218.8354276954
 30
0.0
 10
-33.7221321382
 20
218.3784660668
 30
0.0
 10
-33.6728550793
 20
217.9074376284
 30
0.0
 10
-33.6620587235
 20
217.5887496497
 30
0.0
 10
-33.6620587235
 20
217.4280013731
 30
0.0
  0
SPLINE
  5
41B
100
AcDbEntity
  8
0
100
AcDbSpline
 62
7
  6
CONTINUOUS
 70
0
 71
3
 72
24
 73
20
 74
0
 42
0.0000001
 43
0.0000001
 44
0.0000000001
 40
0.0
 40
0.0
 40
0.0
 40
0.0
 40
0.0261251929
 40
0.0523423489
 40
0.078739597
 40
0.1054016067
 40
0.1597642795
 40
0.2159750424
 40
0.2743426147
 40
0.3349918332
 40
0.3978652049
 40
0.4627501264
 40
0.5293079475
 40
0.5970954008
 40
0.7341112156
 40
0.8024195103
 40
0.8698119931
 40
0.9358424697
 40
1.0
 40
1.0
 40
1.0
 40
1.0
 10
-28.4974892959
 20
216.5070075062
 30
0.0
 10
-28.4495337605
 20
216.4793163622
 30
0.0
 10
-28.3508534256
 20
216.4282077112
 30
0.0
 10
-28.1960945671
 20
216.3651432499
 30
0.0
 10
-28.0351775464
 20
216.3159277359
 30
0.0
 10
-27.8121387262
 20
216.2688822501
 30
0.0
 10
-27.5205982738
 20
216.246308548
 30
0.0
 10
-27.1624082244
 20
216.2774163003
 30
0.0
 10
-26.8001762888
 20
216.3653316541
 30
0.0
 10
-26.4408370948
 20
216.508243082
 30
0.0
 10
-26.0911207186
 20
216.7032464733
 30
0.0
 10
-25.7575379439
 20
216.9464457466
 30
0.0
 10
-25.4463757893
 20
217.2333339563
 30
0.0
 10
-25.0680958516
 20
217.667764022
 30
0.0
 10
-24.7595219322
 20
218.1636823044
 30
0.0
 10
-24.5345744831
 20
218.6970524041
 30
0.0
 10
-24.4113798112
 20
219.1074868982
 30
0.0
 10
-24.3362643768
 20
219.5203478812
 30
0.0
 10
-24.3187157854
 20
219.7965441189
 30
0.0
 10
-24.3187157854
 20
219.9325356742
 30
0.0
  0
SPLINE
  5
41C
100
AcDbEntity
  8
0
100
AcDbSpline
 62
7
  6
CONTINUOUS
 70
0
 71
3
 72
22
 73
18
 74
0
 42
0.0000001
 43
0.0000001
 44
0.0000000001
 40
0.0
 40
0.0
 40
0.0
 40
0.0
 40
0.114640602
 40
0.1742903503
 40
0.2353137956
 40
0.2975898356
 40
0.3609337112
 40
0.4251295694
 40
0.4899401137
 40
0.5551142663
 40
0.6203902631
 40
0.6855029361
 40
0.7501863016
 40
0.81418828
 40
0.8773007103
 40
0.9393226291
 40
1.0
 40
1.0
 40
1.0
 40
1.0
 10
-30.3695245777
 20
209.4551759125
 30
0.0
 10
-30.7070107945
 20
209.3647108817
 30
0.0
 10
-31.2070433641
 20
209.1729839389
 30
0.0
 10
-31.8363691653
 20
208.8279517487
 30
0.0
 10
-32.3008086517
 20
208.5180176565
 30
0.0
 10
-32.7464303758
 20
208.1634682615
 30
0.0
 10
-33.1693057392
 20
207.7677831516
 30
0.0
 10
-33.565177091
 20
207.3346018514
 30
0.0
 10
-33.930441625
 20
206.8682304327
 30
0.0
 10
-34.2614547592
 20
206.3730029105
 30
0.0
 10
-34.5552280165
 20
205.8537603363
 30
0.0
 10
-34.8087496231
 20
205.3153700999
 30
0.0
 10
-35.0198087502
 20
204.763103799
 30
0.0
 10
-35.1862037507
 20
204.2021193166
 30
0.0
 10
-35.3064739004
 20
203.6377207942
 30
0.0
 10
-35.3792102488
 20
203.0754842863
 30
0.0
 10
-35.3959710315
 20
202.7013482781
 30
0.0
 10
-35.3959710316
 20
202.5164162632
 30
0.0
  0
SPLINE
  5
41D
100
AcDbEntity
  8
0
100
AcDbSpline
 62
7
  6
CONTINUOUS
 70
0
 71
3
 72
20
 73
16
 74
0
 42
0.0000001
 43
0.0000001
 44
0.0000000001
 40
0.0
 40
0.0
 40
0.0
 40
0.0
 40
0.0565852618
 40
0.114781493
 40
0.1744543121
 40
0.2354901601
 40
0.361021374
 40
0.4899563276
 40
0.5551417072
 40
0.6204298633
 40
0.6855521051
 40
0.750238774
 40
0.8772924644
 40
0.9393301734
 40
1.0
 40
1.0
 40
1.0
 40
1.0
 10
-31.5135721544
 20
200.8012582421
 30
0.0
 10
-31.4026651108
 20
200.8309874831
 30
0.0
 10
-31.1806937358
 20
200.9030236588
 30
0.0
 10
-30.855540172
 20
201.0442140413
 30
0.0
 10
-30.5367406229
 20
201.2189374101
 30
0.0
 10
-30.1207026478
 20
201.4966222662
 30
0.0
 10
-29.6348185987
 20
201.9180897851
 30
0.0
 10
-29.2147202724
 20
202.415728583
 30
0.0
 10
-28.9219057757
 20
202.8536485989
 30
0.0
 10
-28.7263539849
 20
203.1994659184
 30
0.0
 10
-28.5574692648
 20
203.5579633046
 30
0.0
 10
-28.3712975057
 20
204.0451718344
 30
0.0
 10
-28.2427067983
 20
204.5464812187
 30
0.0
 10
-28.1776484458
 20
205.0495325665
 30
0.0
 10
-28.1664646006
 20
205.2986631109
 30
0.0
 10
-28.1664646006
 20
205.4217739574
 30
0.0
  0
SPLINE
  5
41E
100
AcDbEntity
  8
0
100
AcDbSpline
 62
7
  6
CONTINUOUS
 70
0
 71
3
 72
16
 73
12
 74
0
 42
0.0000001
 43
0.0000001
 44
0.0000000001
 40
0.0
 40
0.0
 40
0.0
 40
0.0
 40
0.1377596319
 40
0.2715705251
 40
0.401114765
 40
0.5265996278
 40
0.6484871541
 40
0.7674138112
 40
0.8260592905
 40
0.8842975524
 40
1.0
 40
1.0
 40
1.0
 40
1.0
 10
-28.1664646006
 20
205.4217739574
 30
0.0
 10
-28.1664646006
 20
205.5624318444
 30
0.0
 10
-28.1806905271
 20
205.8399612317
 30
0.0
 10
-28.2461089089
 20
206.2451031675
 30
0.0
 10
-28.3550177843
 20
206.6279030915
 30
0.0
 10
-28.5058250252
 20
206.9831287844
 30
0.0
 10
-28.6968108466
 20
207.3060040085
 30
0.0
 10
-28.8882994826
 20
207.5458382483
 30
0.0
 10
-29.058523326
 20
207.7164061038
 30
0.0
 10
-29.2383482612
 20
207.8717494216
 30
0.0
 10
-29.3856603452
 20
207.9725373379
 30
0.0
 10
-29.4879676696
 20
208.0316091596
 30
0.0
  0
SPLINE
  5
41F
100
AcDbEntity
  8
0
100
AcDbSpline
 62
7
  6
CONTINUOUS
 70
0
 71
3
 72
34
 73
30
 74
0
 42
0.0000001
 43
0.0000001
 44
0.0000000001
 40
0.0
 40
0.0
 40
0.0
 40
0.0
 40
0.0261185804
 40
0.0523287554
 40
0.0787191439
 40
0.1053730926
 40
0.1323675882
 40
0.1597685934
 40
0.1876327546
 40
0.2160056265
 40
0.2449190103
 40
0.2743949544
 40
0.304442982
 40
0.3350601936
 40
0.3662355125
 40
0.3979463222
 40
0.4301607984
 40
0.4628410312
 40
0.495940108
 40
0.52940536
 40
0.5631800161
 40
0.5972011572
 40
0.6656940094
 40
0.734365147
 40
0.768606047
 40
0.8026822697
 40
0.8365255103
 40
0.8700772274
 40
1.0
 40
1.0
 40
1.0
 40
1.0
 10
-27.6079791367
 20
211.5472243973
 30
0.0
 10
-27.5014179899
 20
211.4856664943
 30
0.0
 10
-27.28215032
 20
211.3720273707
 30
0.0
 10
-26.9381904487
 20
211.2319536161
 30
0.0
 10
-26.5806044396
 20
211.122615328
 30
0.0
 10
-26.2111434261
 20
211.0446132838
 30
0.0
 10
-25.8316008618
 20
210.9983776577
 30
0.0
 10
-25.4438409015
 20
210.9839567375
 30
0.0
 10
-25.0497273447
 20
211.0015102049
 30
0.0
 10
-24.6511764439
 20
211.0509397607
 30
0.0
 10
-24.2500820003
 20
211.1318653694
 30
0.0
 10
-23.8483930787
 20
211.2440138837
 30
0.0
 10
-23.4480303598
 20
211.3867786787
 30
0.0
 10
-23.0508748978
 20
211.5593935796
 30
0.0
 10
-22.6588843223
 20
211.7611476328
 30
0.0
 10
-22.2738943798
 20
211.9909747975
 30
0.0
 10
-21.8977256262
 20
212.2477503411
 30
0.0
 10
-21.532250986
 20
212.5303370238
 30
0.0
 10
-21.1791450139
 20
212.8372779724
 30
0.0
 10
-20.840111134
 20
213.1671203644
 30
0.0
 10
-20.5168321252
 20
213.5183517722
 30
0.0
 10
-20.1079017451
 20
214.0138052038
 30
0.0
 10
-19.6451016068
 20
214.6763655688
 30
0.0
 10
-19.2538933408
 20
215.3847177813
 30
0.0
 10
-18.9875506889
 20
215.9729407322
 30
0.0
 10
-18.8124778819
 20
216.4215590931
 30
0.0
 10
-18.6628705363
 20
216.8759847663
 30
0.0
 10
-18.4208406124
 20
217.7735108705
 30
0.0
 10
-18.3218197969
 20
218.5473423049
 30
0.0
 10
-18.3218197969
 20
219.159502915
 30
0.0
  0
SPLINE
  5
420
100
AcDbEntity
  8
0
100
AcDbSpline
 62
7
  6
CONTINUOUS
 70
0
 71
3
 72
20
 73
16
 74
0
 42
0.0000001
 43
0.0000001
 44
0.0000000001
 40
0.0
 40
0.0
 40
0.0
 40
0.0
 40
0.0578059004
 40
0.1157514725
 40
0.1739736631
 40
0.2326036635
 40
0.2917631749
 40
0.3515655967
 40
0.412112229
 40
0.4734917412
 40
0.5989634332
 40
0.7284448343
 40
0.7947915619
 40
0.8622057402
 40
1.0
 40
1.0
 40
1.0
 40
1.0
 10
-39.1221441615
 20
196.7540461245
 30
0.0
 10
-39.3430464814
 20
196.881645197
 30
0.0
 10
-39.7758680773
 20
197.1540453633
 30
0.0
 10
-40.3935040111
 20
197.611280858
 30
0.0
 10
-40.9778364861
 20
198.1160128654
 30
0.0
 10
-41.5268955466
 20
198.6664542669
 30
0.0
 10
-42.0389447874
 20
199.2607028594
 30
0.0
 10
-42.5121433363
 20
199.8968667686
 30
0.0
 10
-42.9450676194
 20
200.5727577081
 30
0.0
 10
-43.4703869189
 20
201.5306929285
 30
0.0
 10
-44.01766419
 20
202.8195158971
 30
0.0
 10
-44.4064923045
 20
204.1868066775
 30
0.0
 10
-44.6263236987
 20
205.3281076603
 30
0.0
 10
-44.7860485935
 20
206.5163188856
 30
0.0
 10
-44.8323349926
 20
207.4230172167
 30
0.0
 10
-44.8323349926
 20
208.0311250344
 30
0.0
  0
SPLINE
  5
421
100
AcDbEntity
  8
0
100
AcDbSpline
 62
7
  6
CONTINUOUS
 70
0
 71
3
 72
15
 73
11
 74
0
 42
0.0000001
 43
0.0000001
 44
0.0000000001
 40
0.0
 40
0.0
 40
0.0
 40
0.0
 40
0.1165837902
 40
0.2352399323
 40
0.3562041647
 40
0.4796668141
 40
0.6057701944
 40
0.7346000081
 40
0.8660812554
 40
1.0
 40
1.0
 40
1.0
 40
1.0
 10
-22.1660017187
 20
224.1733785939
 30
0.0
 10
-22.0822327993
 20
224.0612800432
 30
0.0
 10
-21.9237811712
 20
223.8269916369
 30
0.0
 10
-21.7167990276
 20
223.4522639506
 30
0.0
 10
-21.539676546
 20
223.0534695162
 30
0.0
 10
-21.3935398733
 20
222.6328788417
 30
0.0
 10
-21.2790342448
 20
222.1928658344
 30
0.0
 10
-21.1969709087
 20
221.7359042058
 30
0.0
 10
-21.1476938498
 20
221.2648757674
 30
0.0
 10
-21.1368974941
 20
220.9461877887
 30
0.0
 10
-21.1368974941
 20
220.7854395121
 30
0.0
  0
SPLINE
  5
422
100
AcDbEntity
  8
0
100
AcDbSpline
 62
7
  6
CONTINUOUS
 70
0
 71
3
 72
15
 73
11
 74
0
 42
0.0000001
 43
0.0000001
 44
0.0000000001
 40
0.0
 40
0.0
 40
0.0
 40
0.0
 40
0.1288220446
 40
0.2562390539
 40
0.3823522516
 40
0.5073039265
 40
0.6313085363
 40
0.7546004183
 40
0.877419193
 40
1.0
 40
1.0
 40
1.0
 40
1.0
 10
-34.3090467511
 20
187.7790314773
 30
0.0
 10
-34.6553701567
 20
187.7778929562
 30
0.0
 10
-35.3445081318
 20
187.7966409744
 30
0.0
 10
-36.3689351825
 20
187.8888685025
 30
0.0
 10
-37.3751492661
 20
188.0448448258
 30
0.0
 10
-38.3600503022
 20
188.2643632549
 30
0.0
 10
-39.3209447066
 20
188.5466335023
 30
0.0
 10
-40.2553058474
 20
188.8909693277
 30
0.0
 10
-41.160556123
 20
189.2964695854
 30
0.0
 10
-41.7433647228
 20
189.6069283693
 30
0.0
 10
-42.0287391367
 20
189.7717380387
 30
0.0
  0
SPLINE
  5
423
100
AcDbEntity
  8
0
100
AcDbSpline
 62
7
  6
CONTINUOUS
 70
0
 71
3
 72
19
 73
15
 74
0
 42
0.0000001
 43
0.0000001
 44
0.0000000001
 40
0.0
 40
0.0
 40
0.0
 40
0.0
 40
0.0597941151
 40
0.1207168686
 40
0.1826044144
 40
0.2453294418
 40
0.3726065532
 40
0.5012153505
 40
0.629655824
 40
0.7564408432
 40
0.818810188
 40
0.8802778581
 40
0.9407253858
 40
1.0
 40
1.0
 40
1.0
 40
1.0
 10
-8.8638435329
 20
216.9585162915
 30
0.0
 10
-8.8638435329
 20
216.3122758949
 30
0.0
 10
-8.9134269724
 20
215.0071352437
 30
0.0
 10
-9.13032026
 20
213.043989203
 30
0.0
 10
-9.4894515833
 20
211.0694932804
 30
0.0
 10
-10.1572008076
 20
208.4285378576
 30
0.0
 10
-11.3320936732
 20
205.1804280471
 30
0.0
 10
-13.2355293702
 20
201.4762757531
 30
0.0
 10
-15.5874852197
 20
198.0458075299
 30
0.0
 10
-17.8818055429
 20
195.4783315739
 30
0.0
 10
-19.8814803029
 20
193.6486921215
 30
0.0
 10
-21.4409359263
 20
192.4070144043
 30
0.0
 10
-23.0567779653
 20
191.2979495532
 30
0.0
 10
-24.1755781257
 20
190.6450572314
 30
0.0
 10
-24.740955786
 20
190.3438107192
 30
0.0
  0
SPLINE
  5
424
100
AcDbEntity
  8
0
100
AcDbSpline
 62
7
  6
CONTINUOUS
 70
0
 71
3
 72
27
 73
23
 74
0
 42
0.0000001
 43
0.0000001
 44
0.0000000001
 40
0.0
 40
0.0
 40
0.0
 40
0.0
 40
0.0686065392
 40
0.1378364057
 40
0.2762202769
 40
0.3447755472
 40
0.4123653008
 40
0.4786653632
 40
0.5434029819
 40
0.6063724788
 40
0.6371629339
 40
0.6674725196
 40
0.6972994246
 40
0.7266491646
 40
0.75553562
 40
0.7839779978
 40
0.8396094203
 40
0.8938697612
 40
0.9206230664
 40
0.947188462
 40
0.9736263216
 40
1.0
 40
1.0
 40
1.0
 40
1.0
 10
-24.740955786
 20
190.3438107192
 30
0.0
 10
-24.8122273426
 20
190.1180310421
 30
0.0
 10
-24.97636587
 20
189.6707092614
 30
0.0
 10
-25.3829432559
 20
188.8075868509
 30
0.0
 10
-25.902101687
 20
188.0012113213
 30
0.0
 10
-26.5169641478
 20
187.2791643599
 30
0.0
 10
-27.0172387403
 20
186.7899828893
 30
0.0
 10
-27.5510327921
 20
186.3582762738
 30
0.0
 10
-28.1114269351
 20
185.9899095521
 30
0.0
 10
-28.5981181193
 20
185.73777244
 30
0.0
 10
-28.9935373507
 20
185.5730509811
 30
0.0
 10
-29.2897333084
 20
185.4689152164
 30
0.0
 10
-29.5867471453
 20
185.3836854822
 30
0.0
 10
-29.8835972484
 20
185.3176979904
 30
0.0
 10
-30.1792886837
 20
185.2711048502
 30
0.0
 10
-30.5676933628
 20
185.2353128228
 30
0.0
 10
-31.0466368136
 20
185.2388769691
 30
0.0
 10
-31.5147818395
 20
185.308743062
 30
0.0
 10
-31.8739127983
 20
185.4039970052
 30
0.0
 10
-32.1342175918
 20
185.4942616816
 30
0.0
 10
-32.3857489457
 20
185.6033771567
 30
0.0
 10
-32.5471092716
 20
185.688558048
 30
0.0
 10
-32.6259183507
 20
185.7340882412
 30
0.0
  0
SPLINE
  5
425
100
AcDbEntity
  8
0
100
AcDbSpline
 62
7
  6
CONTINUOUS
 70
0
 71
3
 72
15
 73
11
 74
0
 42
0.0000001
 43
0.0000001
 44
0.0000000001
 40
0.0
 40
0.0
 40
0.0
 40
0.0
 40
0.1377446394
 40
0.2715822067
 40
0.4011590221
 40
0.5266551087
 40
0.6485428202
 40
0.7674801354
 40
0.8842922807
 40
1.0
 40
1.0
 40
1.0
 40
1.0
 10
-32.4175633515
 20
190.3275175998
 30
0.0
 10
-32.4175633515
 20
190.205984831
 30
0.0
 10
-32.4052493674
 20
189.9661557647
 30
0.0
 10
-32.3487332093
 20
189.6160220395
 30
0.0
 10
-32.2546110483
 20
189.2851713421
 30
0.0
 10
-32.1242890856
 20
188.9781776661
 30
0.0
 10
-31.9592038069
 20
188.6991529907
 30
0.0
 10
-31.7616344834
 20
188.4517126332
 30
0.0
 10
-31.5340242978
 20
188.2395090335
 30
0.0
 10
-31.3639146608
 20
188.1231857194
 30
0.0
 10
-31.2755174963
 20
188.0721151354
 30
0.0
  0
SPLINE
  5
426
100
AcDbEntity
  8
0
100
AcDbSpline
 62
7
  6
CONTINUOUS
 70
0
 71
3
 72
22
 73
18
 74
0
 42
0.0000001
 43
0.0000001
 44
0.0000000001
 40
0.0
 40
0.0
 40
0.0
 40
0.0
 40
0.1377858443
 40
0.205182984
 40
0.2715164479
 40
0.3367964423
 40
0.4010438872
 40
0.464287065
 40
0.5265655965
 40
0.5879379668
 40
0.6484781631
 40
0.7082738637
 40
0.7674266344
 40
0.8260485657
 40
0.8842632519
 40
0.9422014125
 40
1.0
 40
1.0
 40
1.0
 40
1.0
 10
-47.9547539687
 20
206.4799834263
 30
0.0
 10
-47.9547539687
 20
205.7050317255
 30
0.0
 10
-47.8958230858
 20
204.5496174681
 30
0.0
 10
-47.6922258875
 20
203.0355783978
 30
0.0
 10
-47.4803986611
 20
201.9358355563
 30
0.0
 10
-47.2091718146
 20
200.8675074128
 30
0.0
 10
-46.879278272
 20
199.8339969812
 30
0.0
 10
-46.4919521179
 20
198.8386726166
 30
0.0
 10
-46.0483000917
 20
197.8849093241
 30
0.0
 10
-45.5498235754
 20
196.9758857511
 30
0.0
 10
-44.9981993415
 20
196.1145918742
 30
0.0
 10
-44.3951157405
 20
195.3039842813
 30
0.0
 10
-43.7427120121
 20
194.5466619432
 30
0.0
 10
-43.0430059153
 20
193.8452878724
 30
0.0
 10
-42.2983896733
 20
193.2021450034
 30
0.0
 10
-41.511403495
 20
192.6194209095
 30
0.0
 10
-40.9598313897
 20
192.2723599238
 30
0.0
 10
-40.6783347754
 20
192.1097708514
 30
0.0
  0
SPLINE
  5
427
100
AcDbEntity
  8
0
100
AcDbSpline
 62
7
  6
CONTINUOUS
 70
0
 71
3
 72
11
 73
7
 74
0
 42
0.0000001
 43
0.0000001
 44
0.0000000001
 40
0.0
 40
0.0
 40
0.0
 40
0.0
 40
0.2443588324
 40
0.493029985
 40
0.7451437772
 40
1.0
 40
1.0
 40
1.0
 40
1.0
 10
-40.0695017574
 20
228.9844042121
 30
0.0
 10
-40.093054651
 20
229.695462419
 30
0.0
 10
-40.1682081678
 20
231.1293408201
 30
0.0
 10
-40.3609123563
 20
233.290694111
 30
0.0
 10
-40.6341401104
 20
235.4741448389
 30
0.0
 10
-40.8681215755
 20
236.9318645007
 30
0.0
 10
-40.9981240839
 20
237.6623985528
 30
0.0
  0
SPLINE
  5
428
100
AcDbEntity
  8
0
100
AcDbSpline
 62
7
  6
CONTINUOUS
 70
0
 71
3
 72
11
 73
7
 74
0
 42
0.0000001
 43
0.0000001
 44
0.0000000001
 40
0.0
 40
0.0
 40
0.0
 40
0.0
 40
0.2542084876
 40
0.5070429657
 40
0.756240293
 40
1.0
 40
1.0
 40
1.0
 40
1.0
 10
-42.0639237319
 20
242.5700682801
 30
0.0
 10
-42.1087531689
 20
242.7447363624
 30
0.0
 10
-42.2075049794
 20
243.0908064859
 30
0.0
 10
-42.3820651648
 20
243.5983360448
 30
0.0
 10
-42.5813309581
 20
244.0887007165
 30
0.0
 10
-42.7311688846
 20
244.4049220748
 30
0.0
 10
-42.8099062588
 20
244.5588725363
 30
0.0
  0
SPLINE
  5
429
100
AcDbEntity
  8
0
100
AcDbSpline
 62
7
  6
CONTINUOUS
 70
0
 71
3
 72
15
 73
11
 74
0
 42
0.0000001
 43
0.0000001
 44
0.0000000001
 40
0.0
 40
0.0
 40
0.0
 40
0.0
 40
0.1439872648
 40
0.283569741
 40
0.4180970003
 40
0.5470157378
 40
0.6698853439
 40
0.7864340847
 40
0.8964969851
 40
1.0
 40
1.0
 40
1.0
 40
1.0
 10
-42.8099062588
 20
244.5588725363
 30
0.0
 10
-42.8749846414
 20
244.6861163912
 30
0.0
 10
-43.0094314068
 20
244.933567989
 30
0.0
 10
-43.2268919482
 20
245.2872681216
 30
0.0
 10
-43.4557468114
 20
245.6156718498
 30
0.0
 10
-43.6941869266
 20
245.9163179364
 30
0.0
 10
-43.9405070328
 20
246.1869086368
 30
0.0
 10
-44.1928663895
 20
246.4254616654
 30
0.0
 10
-44.4493622239
 20
246.6300030737
 30
0.0
 10
-44.6271453352
 20
246.7462461591
 30
0.0
 10
-44.7161084144
 20
246.7976295814
 30
0.0
  0
SPLINE
  5
42A
100
AcDbEntity
  8
0
100
AcDbSpline
 62
7
  6
CONTINUOUS
 70
0
 71
3
 72
13
 73
9
 74
0
 42
0.0000001
 43
0.0000001
 44
0.0000000001
 40
0.0
 40
0.0
 40
0.0
 40
0.0
 40
0.2748872876
 40
0.5299365213
 40
0.6514054762
 40
0.7697108751
 40
0.8856358458
 40
1.0
 40
1.0
 40
1.0
 40
1.0
 10
-44.7161084144
 20
246.7976295814
 30
0.0
 10
-44.8217340782
 20
246.8586370032
 30
0.0
 10
-45.0334358127
 20
246.9631417618
 30
0.0
 10
-45.3111357371
 20
247.0487803234
 30
0.0
 10
-45.5282417448
 20
247.0835685391
 30
0.0
 10
-45.6860556796
 20
247.0932407792
 30
0.0
 10
-45.8408739098
 20
247.0868819777
 30
0.0
 10
-45.9421921557
 20
247.0719041918
 30
0.0
 10
-45.991918462
 20
247.0617731645
 30
0.0
  0
SPLINE
  5
42B
100
AcDbEntity
  8
0
100
AcDbSpline
 62
7
  6
CONTINUOUS
 70
0
 71
3
 72
27
 73
23
 74
0
 42
0.0000001
 43
0.0000001
 44
0.0000000001
 40
0.0
 40
0.0
 40
0.0
 40
0.0
 40
0.0201046045
 40
0.0409596611
 40
0.0628133705
 40
0.0858581919
 40
0.1359449822
 40
0.1631697358
 40
0.1918362173
 40
0.2532984625
 40
0.3197666043
 40
0.390306771
 40
0.4637518195
 40
0.5387976991
 40
0.6140531381
 40
0.68812974
 40
0.7596857521
 40
0.8274980621
 40
0.8596837829
 40
0.8905859352
 40
0.9482126966
 40
1.0
 40
1.0
 40
1.0
 40
1.0
 10
-47.1825795702
 20
239.2262875483
 30
0.0
 10
-47.1570243893
 20
239.2393764549
 30
0.0
 10
-47.1069166773
 20
239.270029984
 30
0.0
 10
-47.0375046872
 20
239.3272590936
 30
0.0
 10
-46.9732075724
 20
239.3960383938
 30
0.0
 10
-46.8926245059
 20
239.505468202
 30
0.0
 10
-46.826572202
 20
239.6338001752
 30
0.0
 10
-46.7740773524
 20
239.775832757
 30
0.0
 10
-46.7278155487
 20
239.9370781697
 30
0.0
 10
-46.6885814576
 20
240.1578944565
 30
0.0
 10
-46.6706245062
 20
240.4412596186
 30
0.0
 10
-46.6812618778
 20
240.7420722468
 30
0.0
 10
-46.7201245345
 20
241.0528423385
 30
0.0
 10
-46.7863403896
 20
241.365821471
 30
0.0
 10
-46.8782199108
 20
241.6731827318
 30
0.0
 10
-46.9934355123
 20
241.967262146
 30
0.0
 10
-47.1291995357
 20
242.2406324932
 30
0.0
 10
-47.2587000699
 20
242.4491654581
 30
0.0
 10
-47.3701859895
 20
242.5993476567
 30
0.0
 10
-47.480940302
 20
242.7315732381
 30
0.0
 10
-47.6238563562
 20
242.8729066816
 30
0.0
 10
-47.7512377838
 20
242.9650341686
 30
0.0
 10
-47.8152820748
 20
243.0020249617
 30
0.0
  0
SPLINE
  5
42C
100
AcDbEntity
  8
0
100
AcDbSpline
 62
7
  6
CONTINUOUS
 70
0
 71
3
 72
36
 73
32
 74
0
 42
0.0000001
 43
0.0000001
 44
0.0000000001
 40
0.0
 40
0.0
 40
0.0
 40
0.0
 40
0.0261127948
 40
0.0523169565
 40
0.0787015056
 40
0.1053497417
 40
0.1188001317
 40
0.1323443165
 40
0.1597394342
 40
0.187597977
 40
0.2159644741
 40
0.2743032524
 40
0.334921572
 40
0.366090346
 40
0.3977946077
 40
0.4300028189
 40
0.462676317
 40
0.4957683467
 40
0.5292269302
 40
0.5629939903
 40
0.5970078355
 40
0.6312030044
 40
0.6655117985
 40
0.7341682035
 40
0.8024457295
 40
0.8362859572
 40
0.8698318667
 40
0.9030259044
 40
0.9358210397
 40
0.9681673971
 40
1.0
 40
1.0
 40
1.0
 40
1.0
 10
-18.3716627675
 20
230.7305971352
 30
0.0
 10
-18.711154487
 20
230.9266657555
 30
0.0
 10
-19.4097113584
 20
231.2885859933
 30
0.0
 10
-20.5053820131
 20
231.7350287417
 30
0.0
 10
-21.644554141
 20
232.0832151829
 30
0.0
 10
-22.6225152426
 20
232.2896867881
 30
0.0
 10
-23.4198439506
 20
232.4046413455
 30
0.0
 10
-24.2325171168
 20
232.4865855645
 30
0.0
 10
-25.2659822193
 20
232.5250070741
 30
0.0
 10
-26.5215103633
 20
232.4689969758
 30
0.0
 10
-28.2299683194
 20
232.2573777271
 30
0.0
 10
-30.3877275619
 20
231.7336032682
 30
0.0
 10
-32.4886463179
 20
230.8979224118
 30
0.0
 10
-34.1380924558
 20
230.0491278754
 30
0.0
 10
-35.3646242387
 20
229.3169231604
 30
0.0
 10
-36.562942957
 20
228.4988387846
 30
0.0
 10
-37.727294902
 20
227.5986409945
 30
0.0
 10
-38.8522216942
 20
226.6208301747
 30
0.0
 10
-39.9321827703
 20
225.5699290618
 30
0.0
 10
-40.9621882834
 20
224.4511612326
 30
0.0
 10
-41.9371075538
 20
223.2697376939
 30
0.0
 10
-42.8524836177
 20
222.0314399905
 30
0.0
 10
-43.9875251683
 20
220.3122862307
 30
0.0
 10
-45.2328736556
 20
218.0573284961
 30
0.0
 10
-46.231059948
 20
215.690068853
 30
0.0
 10
-46.8682474683
 20
213.7546331327
 30
0.0
 10
-47.2615568526
 20
212.2958715295
 30
0.0
 10
-47.5695817434
 20
210.8327992738
 30
0.0
 10
-47.7909489636
 20
209.3722862452
 30
0.0
 10
-47.9243706524
 20
207.9216852
 30
0.0
 10
-47.9547539687
 20
206.9579001643
 30
0.0
 10
-47.9547539687
 20
206.4799834263
 30
0.0
  0
SPLINE
  5
42D
100
AcDbEntity
  8
0
100
AcDbSpline
 62
7
  6
CONTINUOUS
 70
0
 71
3
 72
28
 73
24
 74
0
 42
0.0000001
 43
0.0000001
 44
0.0000000001
 40
0.0
 40
0.0
 40
0.0
 40
0.0
 40
0.0278924071
 40
0.0561783795
 40
0.1139186914
 40
0.1433842256
 40
0.1732297684
 40
0.2339940447
 40
0.3592315233
 40
0.3912287261
 40
0.4234306277
 40
0.4558058045
 40
0.4883219804
 40
0.5536301544
 40
0.5863652458
 40
0.6191036141
 40
0.6844375996
 40
0.7493690045
 40
0.7816065344
 40
0.8136444315
 40
0.8454515419
 40
0.8770016699
 40
1.0
 40
1.0
 40
1.0
 40
1.0
 10
-51.7485585424
 20
248.4068802907
 30
0.0
 10
-52.1044967385
 20
248.3276502074
 30
0.0
 10
-52.8172543712
 20
248.1487316261
 30
0.0
 10
-54.2413957811
 20
247.7113439544
 30
0.0
 10
-55.6495218933
 20
247.1583612517
 30
0.0
 10
-57.0307351215
 20
246.4986984868
 30
0.0
 10
-58.4147812236
 20
245.7567034018
 30
0.0
 10
-60.8072433391
 20
244.2544279294
 30
0.0
 10
-63.0149781168
 20
242.4259713141
 30
0.0
 10
-64.7565121187
 20
240.6650500883
 30
0.0
 10
-65.6082149866
 20
239.7324841733
 30
0.0
 10
-66.426949445
 20
238.7620592352
 30
0.0
 10
-67.4732240349
 20
237.4190147967
 30
0.0
 10
-68.4435966418
 20
236.012381667
 30
0.0
 10
-69.3322643541
 20
234.551325563
 30
0.0
 10
-70.1646824794
 20
233.0570664485
 30
0.0
 10
-71.0942650354
 20
231.137028432
 30
0.0
 10
-71.8709138133
 20
229.1571455182
 30
0.0
 10
-72.3940729951
 20
227.5506245473
 30
0.0
 10
-72.7354999252
 20
226.3414575
 30
0.0
 10
-73.0259089987
 20
225.128135157
 30
0.0
 10
-73.4958667595
 20
222.7377135713
 30
0.0
 10
-73.6830192754
 20
220.7117676854
 30
0.0
 10
-73.6830192754
 20
219.1037564361
 30
0.0
  0
SPLINE
  5
42E
100
AcDbEntity
  8
0
100
AcDbSpline
 62
7
  6
CONTINUOUS
 70
0
 71
3
 72
21
 73
17
 74
0
 42
0.0000001
 43
0.0000001
 44
0.0000000001
 40
0.0
 40
0.0
 40
0.0
 40
0.0
 40
0.0577304163
 40
0.1156452318
 40
0.1738727131
 40
0.2325358938
 40
0.291748167
 40
0.3516142482
 40
0.4122274757
 40
0.4736683113
 40
0.5992269604
 40
0.6634919719
 40
0.7287673397
 40
0.7950731057
 40
0.8624169371
 40
1.0
 40
1.0
 40
1.0
 40
1.0
 10
-16.6613349678
 20
232.8537243693
 30
0.0
 10
-16.3584254085
 20
232.6668340759
 30
0.0
 10
-15.7652892607
 20
232.2698050713
 30
0.0
 10
-14.9200031591
 20
231.6090638433
 30
0.0
 10
-14.1208835328
 20
230.8845124465
 30
0.0
 10
-13.3706001052
 20
230.0984636151
 30
0.0
 10
-12.6713460754
 20
229.2535615309
 30
0.0
 10
-12.0254909683
 20
228.352389038
 30
0.0
 10
-11.4349629297
 20
227.3978167105
 30
0.0
 10
-10.7187722696
 20
226.0486531956
 30
0.0
 10
-10.1267728213
 20
224.6119003116
 30
0.0
 10
-9.6604371338
 20
223.1092023863
 30
0.0
 10
-9.3705940204
 20
221.9363183036
 30
0.0
 10
-9.1442680932
 20
220.7302737084
 30
0.0
 10
-8.9268740336
 20
219.0716351612
 30
0.0
 10
-8.8638435329
 20
217.8067549336
 30
0.0
 10
-8.8638435329
 20
216.9585162915
 30
0.0
  0
SPLINE
  5
42F
100
AcDbEntity
  8
0
100
AcDbSpline
 62
7
  6
CONTINUOUS
 70
0
 71
3
 72
22
 73
18
 74
0
 42
0.0000001
 43
0.0000001
 44
0.0000000001
 40
0.0
 40
0.0
 40
0.0
 40
0.0
 40
0.1377885343
 40
0.2051826461
 40
0.2715149447
 40
0.3367955742
 40
0.4010440629
 40
0.4642872607
 40
0.5265652955
 40
0.5879376937
 40
0.6484777543
 40
0.7082737736
 40
0.7674264241
 40
0.8260484114
 40
0.8842630398
 40
0.9422010919
 40
1.0
 40
1.0
 40
1.0
 40
1.0
 10
-73.6830192754
 20
219.1037564361
 30
0.0
 10
-73.6830192754
 20
218.217583433
 30
0.0
 10
-73.6156523452
 20
216.8963695515
 30
0.0
 10
-73.382809602
 20
215.1650828924
 30
0.0
 10
-73.1406052826
 20
213.9075487392
 30
0.0
 10
-72.830439371
 20
212.6859188685
 30
0.0
 10
-72.4532245827
 20
211.5040854566
 30
0.0
 10
-72.0103249233
 20
210.3659258554
 30
0.0
 10
-71.5029780996
 20
209.2753187315
 30
0.0
 10
-70.9330161957
 20
208.2358310391
 30
0.0
 10
-70.3021851613
 20
207.2509735542
 30
0.0
 10
-69.6126023561
 20
206.3240150119
 30
0.0
 10
-68.8665613202
 20
205.458029591
 30
0.0
 10
-68.0664393131
 20
204.6560238818
 30
0.0
 10
-67.2150101694
 20
203.9205454533
 30
0.0
 10
-66.3150436067
 20
203.2542670516
 30
0.0
 10
-65.6843489904
 20
202.8573612295
 30
0.0
 10
-65.3624597678
 20
202.6714340846
 30
0.0
  0
SPLINE
  5
430
100
AcDbEntity
  8
0
100
AcDbSpline
 62
7
  6
CONTINUOUS
 70
0
 71
3
 72
18
 73
14
 74
0
 42
0.0000001
 43
0.0000001
 44
0.0000000001
 40
0.0
 40
0.0
 40
0.0
 40
0.0
 40
0.1356307694
 40
0.2681553527
 40
0.3973948972
 40
0.4608179059
 40
0.5234526982
 40
0.6464048404
 40
0.7665323287
 40
0.8256713574
 40
0.8842525463
 40
0.9423393634
 40
1.0
 40
1.0
 40
1.0
 40
1.0
 10
-54.7981615889
 20
208.5456501126
 30
0.0
 10
-54.7981615889
 20
207.8585101841
 30
0.0
 10
-54.743266005
 20
206.4992103415
 30
0.0
 10
-54.4909492055
 20
204.4993862489
 30
0.0
 10
-54.1386166285
 20
202.8873859181
 30
0.0
 10
-53.7732518729
 20
201.6462029566
 30
0.0
 10
-53.3587960359
 20
200.4542331219
 30
0.0
 10
-52.7426415434
 20
199.0302068382
 30
0.0
 10
-51.9901963457
 20
197.6931421173
 30
0.0
 10
-51.3150351535
 20
196.6944315829
 30
0.0
 10
-50.775716896
 20
195.9849780256
 30
0.0
 10
-50.2021282753
 20
195.312805288
 30
0.0
 10
-49.7962871567
 20
194.8889901421
 30
0.0
 10
-49.5881776175
 20
194.683986438
 30
0.0
  0
SPLINE
  5
431
100
AcDbEntity
  8
0
100
AcDbSpline
 62
7
  6
CONTINUOUS
 70
0
 71
3
 72
20
 73
16
 74
0
 42
0.0000001
 43
0.0000001
 44
0.0000000001
 40
0.0
 40
0.0
 40
0.0
 40
0.0
 40
0.0633355685
 40
0.1269595251
 40
0.2546076657
 40
0.3822714586
 40
0.4459357552
 40
0.5093720396
 40
0.6352186762
 40
0.6975088583
 40
0.7592774751
 40
0.8204699862
 40
0.8810345332
 40
0.9409034717
 40
1.0
 40
1.0
 40
1.0
 40
1.0
 10
-47.360144804
 20
228.1992925287
 30
0.0
 10
-47.6505249392
 20
227.8524047438
 30
0.0
 10
-48.2178293533
 20
227.144513025
 30
0.0
 10
-49.2947345616
 20
225.6785583258
 30
0.0
 10
-50.5271213133
 20
223.7592765054
 30
0.0
 10
-51.5960692368
 20
221.7441164155
 30
0.0
 10
-52.3466524021
 20
220.0859017367
 30
0.0
 10
-53.0221117116
 20
218.4097581627
 30
0.0
 10
-53.5875816309
 20
216.7013728644
 30
0.0
 10
-54.0369440899
 20
214.9734172469
 30
0.0
 10
-54.3132191822
 20
213.6789205589
 30
0.0
 10
-54.5291341261
 20
212.3855159995
 30
0.0
 10
-54.6838651958
 20
211.0970063838
 30
0.0
 10
-54.777051045
 20
209.8176215979
 30
0.0
 10
-54.7981615889
 20
208.9677566082
 30
0.0
 10
-54.7981615889
 20
208.5456501126
 30
0.0
  0
SPLINE
  5
432
100
AcDbEntity
  8
0
100
AcDbSpline
 62
7
  6
CONTINUOUS
 70
0
 71
3
 72
11
 73
7
 74
0
 42
0.0000001
 43
0.0000001
 44
0.0000000001
 40
0.0
 40
0.0
 40
0.0
 40
0.0
 40
0.2499173043
 40
0.4370790535
 40
0.6240254577
 40
1.0
 40
1.0
 40
1.0
 40
1.0
 10
-32.4175633515
 20
190.3275175998
 30
0.0
 10
-32.4175633515
 20
190.3333726476
 30
0.0
 10
-32.4173912561
 20
190.3436117431
 30
0.0
 10
-32.4173539535
 20
190.358231346
 30
0.0
 10
-32.4174870736
 20
190.3758050653
 30
0.0
 10
-32.4170485427
 20
190.3889890225
 30
0.0
 10
-32.4168769418
 20
190.3977956601
 30
0.0
  0
SPLINE
  5
433
100
AcDbEntity
  8
0
100
AcDbSpline
 62
7
  6
CONTINUOUS
 70
0
 71
3
 72
11
 73
7
 74
0
 42
0.0000001
 43
0.0000001
 44
0.0000000001
 40
0.0
 40
0.0
 40
0.0
 40
0.0
 40
0.2529475395
 40
0.5033803652
 40
0.7521217542
 40
1.0
 40
1.0
 40
1.0
 40
1.0
 10
-58.8765324599
 20
200.0495243003
 30
0.0
 10
-59.3271372754
 20
200.1247578733
 30
0.0
 10
-60.2179365155
 20
200.3131740815
 30
0.0
 10
-61.5185231307
 20
200.71124156
 30
0.0
 10
-62.7695775053
 20
201.2212311442
 30
0.0
 10
-63.5672568678
 20
201.6345462969
 30
0.0
 10
-63.9549209192
 20
201.858465786
 30
0.0
  0
SPLINE
  5
434
100
AcDbEntity
  8
0
100
AcDbSpline
 62
7
  6
CONTINUOUS
 70
0
 71
3
 72
9
 73
5
 74
0
 42
0.0000001
 43
0.0000001
 44
0.0000000001
 40
0.0
 40
0.0
 40
0.0
 40
0.0
 40
0.5101320307
 40
1.0
 40
1.0
 40
1.0
 40
1.0
 10
-63.6490327555
 20
238.2016699131
 30
0.0
 10
-63.4173543644
 20
238.4728350509
 30
0.0
 10
-62.9364431071
 20
238.9822904428
 30
0.0
 10
-62.4018526926
 20
239.4356296973
 30
0.0
 10
-62.1276711912
 20
239.6408725541
 30
0.0
  0
SPLINE
  5
435
100
AcDbEntity
  8
0
100
AcDbSpline
 62
7
  6
CONTINUOUS
 70
0
 71
3
 72
14
 73
10
 74
0
 42
0.0000001
 43
0.0000001
 44
0.0000000001
 40
0.0
 40
0.0
 40
0.0
 40
0.0
 40
0.2579001553
 40
0.3843885588
 40
0.5094611148
 40
0.6333313638
 40
0.7562225068
 40
0.8783661452
 40
1.0
 40
1.0
 40
1.0
 40
1.0
 10
-62.1276711912
 20
239.6408725541
 30
0.0
 10
-61.3791096331
 20
240.2915192261
 30
0.0
 10
-60.2193797712
 20
241.2126723572
 30
0.0
 10
-58.6013968615
 20
242.3185123399
 30
0.0
 10
-57.3706798873
 20
243.0746163565
 30
0.0
 10
-56.1161160828
 20
243.7620364727
 30
0.0
 10
-54.8385201546
 20
244.3802888946
 30
0.0
 10
-53.5388782716
 20
244.9289129137
 30
0.0
 10
-52.6569889797
 20
245.2484613886
 30
0.0
 10
-52.2131901801
 20
245.3962789244
 30
0.0
  0
SPLINE
  5
436
100
AcDbEntity
  8
0
100
AcDbSpline
 62
7
  6
CONTINUOUS
 70
0
 71
3
 72
11
 73
7
 74
0
 42
0.0000001
 43
0.0000001
 44
0.0000000001
 40
0.0
 40
0.0
 40
0.0
 40
0.0
 40
0.2714295641
 40
0.5270293012
 40
0.7688430414
 40
1.0
 40
1.0
 40
1.0
 40
1.0
 10
-47.8152820748
 20
243.0020249617
 30
0.0
 10
-47.8486164386
 20
243.0212782711
 30
0.0
 10
-47.9154471858
 20
243.0552000908
 30
0.0
 10
-48.0183861458
 20
243.092108387
 30
0.0
 10
-48.1199591336
 20
243.1129980304
 30
0.0
 10
-48.1873357547
 20
243.1159331619
 30
0.0
 10
-48.2200893596
 20
243.1145342844
 30
0.0
  0
SPLINE
  5
437
100
AcDbEntity
  8
0
100
AcDbSpline
 62
7
  6
CONTINUOUS
 70
0
 71
3
 72
14
 73
10
 74
0
 42
0.0000001
 43
0.0000001
 44
0.0000000001
 40
0.0
 40
0.0
 40
0.0
 40
0.0
 40
0.1209527498
 40
0.2423195934
 40
0.3645071962
 40
0.4879200579
 40
0.6129370199
 40
0.739886698
 40
1.0
 40
1.0
 40
1.0
 40
1.0
 10
-32.6259183507
 20
185.7340882412
 30
0.0
 10
-32.7201834446
 20
185.7885478032
 30
0.0
 10
-32.9041623355
 20
185.9063474161
 30
0.0
 10
-33.1636140523
 20
186.1078477185
 30
0.0
 10
-33.4054853168
 20
186.3334369536
 30
0.0
 10
-33.6286329847
 20
186.5819520896
 30
0.0
 10
-33.8320627578
 20
186.8522636266
 30
0.0
 10
-34.0773653434
 20
187.2429298309
 30
0.0
 10
-34.2258884753
 20
187.560178174
 30
0.0
 10
-34.3090467511
 20
187.7790314773
 30
0.0
  0
SPLINE
  5
438
100
AcDbEntity
  8
0
100
AcDbSpline
 62
7
  6
CONTINUOUS
 70
0
 71
3
 72
22
 73
18
 74
0
 42
0.0000001
 43
0.0000001
 44
0.0000000001
 40
0.0
 40
0.0
 40
0.0
 40
0.0
 40
0.1377809492
 40
0.2051820162
 40
0.2715174949
 40
0.336797127
 40
0.4010430568
 40
0.4642856857
 40
0.5265650038
 40
0.5879371982
 40
0.6484773084
 40
0.7082728149
 40
0.7674254907
 40
0.8260479243
 40
0.8842625934
 40
0.9422012052
 40
1.0
 40
1.0
 40
1.0
 40
1.0
 10
-11.0952485683
 20
216.3603759377
 30
0.0
 10
-11.0952485683
 20
217.1353000825
 30
0.0
 10
-11.1542049483
 20
218.2907061387
 30
0.0
 10
-11.357761992
 20
219.8047564587
 30
0.0
 10
-11.569606588
 20
220.9045283597
 30
0.0
 10
-11.8408240407
 20
221.9728589831
 30
0.0
 10
-12.1707119796
 20
223.0063582339
 30
0.0
 10
-12.5580754488
 20
224.0016588384
 30
0.0
 10
-13.001667937
 20
224.9554501534
 30
0.0
 10
-13.5001818175
 20
225.8644582936
 30
0.0
 10
-14.0517973216
 20
226.7257519441
 30
0.0
 10
-14.6548527545
 20
227.53638094
 30
0.0
 10
-15.3073148928
 20
228.2936524052
 30
0.0
 10
-16.0069555804
 20
228.9950938909
 30
0.0
 10
-16.751616187
 20
229.6381979494
 30
0.0
 10
-17.5386080122
 20
230.2209142742
 30
0.0
 10
-18.0901587851
 20
230.5680185087
 30
0.0
 10
-18.3716627675
 20
230.7305971352
 30
0.0
  0
SPLINE
  5
439
100
AcDbEntity
  8
0
100
AcDbSpline
 62
7
  6
CONTINUOUS
 70
0
 71
3
 72
28
 73
24
 74
0
 42
0.0000001
 43
0.0000001
 44
0.0000000001
 40
0.0
 40
0.0
 40
0.0
 40
0.0
 40
0.0198787357
 40
0.0403017171
 40
0.0615640542
 40
0.0839137879
 40
0.1075339061
 40
0.1325464948
 40
0.1590287539
 40
0.1870051703
 40
0.2472973006
 40
0.3129694996
 40
0.3831180992
 40
0.4565765531
 40
0.5320015251
 40
0.6079438481
 40
0.6829393236
 40
0.7555636796
 40
0.8245097432
 40
0.8886746605
 40
0.9473064814
 40
0.9744150558
 40
1.0
 40
1.0
 40
1.0
 40
1.0
 10
-48.3864786958
 20
243.0814397784
 30
0.0
 10
-48.4134602784
 20
243.0715126609
 30
0.0
 10
-48.4666427653
 20
243.046992698
 30
0.0
 10
-48.5412153926
 20
242.9977992341
 30
0.0
 10
-48.6108245484
 20
242.936280378
 30
0.0
 10
-48.6749358401
 20
242.8628540291
 30
0.0
 10
-48.7332230497
 20
242.778101867
 30
0.0
 10
-48.7853804272
 20
242.6826126197
 30
0.0
 10
-48.8310417965
 20
242.5769759677
 30
0.0
 10
-48.8842412061
 20
242.419612768
 30
0.0
 10
-48.9316549551
 20
242.201316293
 30
0.0
 10
-48.9580787716
 20
241.9183691493
 30
0.0
 10
-48.9548348778
 20
241.6152223558
 30
0.0
 10
-48.9220260571
 20
241.2997270068
 30
0.0
 10
-48.8604105499
 20
240.9800621227
 30
0.0
 10
-48.7716767541
 20
240.6645413953
 30
0.0
 10
-48.6581012945
 20
240.3613890315
 30
0.0
 10
-48.5225935449
 20
240.0785300241
 30
0.0
 10
-48.3687863831
 20
239.823213447
 30
0.0
 10
-48.2005276134
 20
239.6020494423
 30
0.0
 10
-48.0478434008
 20
239.446968465
 30
0.0
 10
-47.9218841115
 20
239.3464332542
 30
0.0
 10
-47.8583046772
 20
239.3041757361
 30
0.0
 10
-47.8264885846
 20
239.2852833561
 30
0.0
  0
SPLINE
  5
43A
100
AcDbEntity
  8
0
100
AcDbSpline
 62
7
  6
CONTINUOUS
 70
0
 71
3
 72
14
 73
10
 74
0
 42
0.0000001
 43
0.0000001
 44
0.0000000001
 40
0.0
 40
0.0
 40
0.0
 40
0.0
 40
0.1223094477
 40
0.2451008767
 40
0.3685290235
 40
0.4927422528
 40
0.7439849529
 40
0.871351649
 40
1.0
 40
1.0
 40
1.0
 40
1.0
 10
-65.3120746906
 20
202.7453019069
 30
0.0
 10
-65.5380245575
 20
202.9113150908
 30
0.0
 10
-65.9814713638
 20
203.256930691
 30
0.0
 10
-66.6178242284
 20
203.8132251076
 30
0.0
 10
-67.2253685609
 20
204.4071811701
 30
0.0
 10
-67.9981548188
 20
205.2508189523
 30
0.0
 10
-68.706143575
 20
206.1637864533
 30
0.0
 10
-69.3446723961
 20
207.1360402815
 30
0.0
 10
-69.6412746882
 20
207.6428411069
 30
0.0
 10
-69.783799667
 20
207.9010272751
 30
0.0
  0
SPLINE
  5
43B
100
AcDbEntity
  8
0
100
AcDbSpline
 62
7
  6
CONTINUOUS
 70
0
 71
3
 72
14
 73
10
 74
0
 42
0.0000001
 43
0.0000001
 44
0.0000000001
 40
0.0
 40
0.0
 40
0.0
 40
0.0
 40
0.1178738522
 40
0.2376586399
 40
0.3594599546
 40
0.4833448463
 40
0.7374161516
 40
0.8677150772
 40
1.0
 40
1.0
 40
1.0
 40
1.0
 10
-69.783799667
 20
207.9010272751
 30
0.0
 10
-69.9887792663
 20
208.2723509389
 30
0.0
 10
-70.3751679465
 20
209.0361950241
 30
0.0
 10
-70.8777247272
 20
210.2290328897
 30
0.0
 10
-71.3060780594
 20
211.4734592689
 30
0.0
 10
-71.7800148323
 20
213.2091682704
 30
0.0
 10
-72.0931658125
 20
215.0165210006
 30
0.0
 10
-72.2495284513
 20
216.8696548745
 30
0.0
 10
-72.2754804268
 20
217.8147892724
 30
0.0
 10
-72.2754804268
 20
218.2907881376
 30
0.0
  0
SPLINE
  5
43C
100
AcDbEntity
  8
0
100
AcDbSpline
 62
7
  6
CONTINUOUS
 70
0
 71
3
 72
30
 73
26
 74
0
 42
0.0000001
 43
0.0000001
 44
0.0000000001
 40
0.0
 40
0.0
 40
0.0
 40
0.0
 40
0.1238935307
 40
0.1557072242
 40
0.1877856251
 40
0.2200987067
 40
0.25261103
 40
0.3180722
 40
0.38388244
 40
0.4168287728
 40
0.4497456343
 40
0.5153217718
 40
0.5479186181
 40
0.5803343352
 40
0.6125341921
 40
0.6444846527
 40
0.6761544547
 40
0.7075151024
 40
0.7691898097
 40
0.829352352
 40
0.8588374109
 40
0.8879069637
 40
0.9447667986
 40
0.9725847952
 40
1.0
 40
1.0
 40
1.0
 40
1.0
 10
-50.1861590042
 20
205.8818430724
 30
0.0
 10
-50.1861590042
 20
207.5447377643
 30
0.0
 10
-49.9819410203
 20
209.6408230343
 30
0.0
 10
-49.4711203526
 20
212.1088111281
 30
0.0
 10
-49.1553974658
 20
213.3614113776
 30
0.0
 10
-48.7844301654
 20
214.6084018355
 30
0.0
 10
-48.2164706308
 20
216.2627579472
 30
0.0
 10
-47.3743928804
 20
218.2962064344
 30
0.0
 10
-46.3680351691
 20
220.2600201922
 30
0.0
 10
-45.4683202512
 20
221.781676956
 30
0.0
 10
-44.5098074242
 20
223.2631889344
 30
0.0
 10
-43.464907647
 20
224.6816921636
 30
0.0
 10
-42.3403990139
 20
226.0266681566
 30
0.0
 10
-41.4624337117
 20
226.9924207831
 30
0.0
 10
-40.5509418607
 20
227.9144053879
 30
0.0
 10
-39.6084221534
 20
228.7900194852
 30
0.0
 10
-38.6374433117
 20
229.6167467877
 30
0.0
 10
-37.3162063741
 20
230.6450411501
 30
0.0
 10
-35.6100307063
 20
231.7980804702
 30
0.0
 10
-33.8248998444
 20
232.7739149924
 30
0.0
 10
-32.372851688
 20
233.4316156135
 30
0.0
 10
-30.9305867578
 20
233.9982514151
 30
0.0
 10
-29.4668483065
 20
234.4446793432
 30
0.0
 10
-27.9954203316
 20
234.7613129336
 30
0.0
 10
-27.2623917063
 20
234.8754563614
 30
0.0
 10
-26.8972852641
 20
234.9212407782
 30
0.0
  0
SPLINE
  5
43D
100
AcDbEntity
  8
0
100
AcDbSpline
 62
7
  6
CONTINUOUS
 70
0
 71
3
 72
23
 73
19
 74
0
 42
0.0000001
 43
0.0000001
 44
0.0000000001
 40
0.0
 40
0.0
 40
0.0
 40
0.0
 40
0.0261304929
 40
0.0523536094
 40
0.1053727294
 40
0.1597481314
 40
0.2159686531
 40
0.274349615
 40
0.335009824
 40
0.366201357
 40
0.3979274707
 40
0.4628276105
 40
0.5969992803
 40
0.7340501975
 40
0.8023702005
 40
0.8697840453
 40
0.9358382958
 40
1.0
 40
1.0
 40
1.0
 40
1.0
 10
-31.2755174963
 20
188.0721151354
 30
0.0
 10
-31.2222419128
 20
188.041335696
 30
0.0
 10
-31.112598475
 20
187.9845275083
 30
0.0
 10
-30.8825578947
 20
187.8908472389
 30
0.0
 10
-30.5760423448
 20
187.812195261
 30
0.0
 10
-30.1901431992
 20
187.7825419661
 30
0.0
 10
-29.7920859479
 20
187.8169573481
 30
0.0
 10
-29.3896708855
 20
187.9147097687
 30
0.0
 10
-29.0598856859
 20
188.0458373971
 30
0.0
 10
-28.8010300861
 20
188.1790783273
 30
0.0
 10
-28.5424169401
 20
188.3333960962
 30
0.0
 10
-28.1023660885
 20
188.6543602808
 30
0.0
 10
-27.5478752948
 20
189.2286072852
 30
0.0
 10
-27.1222979618
 20
189.9127531182
 30
0.0
 10
-26.8722802247
 20
190.5055000759
 30
0.0
 10
-26.7353850185
 20
190.9615397584
 30
0.0
 10
-26.6519630396
 20
191.4202975001
 30
0.0
 10
-26.6324391855
 20
191.7271745593
 30
0.0
 10
-26.6324391855
 20
191.8782518505
 30
0.0
  0
SPLINE
  5
43E
100
AcDbEntity
  8
0
100
AcDbSpline
 62
7
  6
CONTINUOUS
 70
0
 71
3
 72
15
 73
11
 74
0
 42
0.0000001
 43
0.0000001
 44
0.0000000001
 40
0.0
 40
0.0
 40
0.0
 40
0.0
 40
0.1217040753
 40
0.2437459833
 40
0.3664495734
 40
0.4901223944
 40
0.6150663052
 40
0.7415671296
 40
0.8698418815
 40
1.0
 40
1.0
 40
1.0
 40
1.0
 10
-40.6783347754
 20
192.1097708514
 30
0.0
 10
-40.3772467139
 20
191.9358659939
 30
0.0
 10
-39.7598302287
 20
191.6118513434
 30
0.0
 10
-38.7954780418
 20
191.2015548239
 30
0.0
 10
-37.7960047583
 20
190.8679455707
 30
0.0
 10
-36.7652726929
 20
190.612433736
 30
0.0
 10
-35.7071491564
 20
190.4359215509
 30
0.0
 10
-34.6256063406
 20
190.3390795451
 30
0.0
 10
-33.5250683282
 20
190.3222893006
 30
0.0
 10
-32.7871912947
 20
190.3639798811
 30
0.0
 10
-32.4168769418
 20
190.3977956601
 30
0.0
  0
SPLINE
  5
43F
100
AcDbEntity
  8
0
100
AcDbSpline
 62
7
  6
CONTINUOUS
 70
0
 71
3
 72
22
 73
18
 74
0
 42
0.0000001
 43
0.0000001
 44
0.0000000001
 40
0.0
 40
0.0
 40
0.0
 40
0.0
 40
0.0577996022
 40
0.1157380877
 40
0.1739523038
 40
0.232574366
 40
0.2917269867
 40
0.3515225927
 40
0.4120629451
 40
0.4734353277
 40
0.5357145741
 40
0.5989572005
 40
0.6632031732
 40
0.7284826808
 40
0.7948177863
 40
0.8622183543
 40
1.0
 40
1.0
 40
1.0
 40
1.0
 10
-42.0287391367
 20
189.7717380387
 30
0.0
 10
-42.3443329514
 20
189.9540000417
 30
0.0
 10
-42.962677954
 20
190.3431156935
 30
0.0
 10
-43.8449469331
 20
190.9964003383
 30
0.0
 10
-44.6797590368
 20
191.7173691169
 30
0.0
 10
-45.4641093391
 20
192.5037310058
 30
0.0
 10
-46.1955587475
 20
193.3526958096
 30
0.0
 10
-46.8716396418
 20
194.2614671836
 30
0.0
 10
-47.4900400566
 20
195.2270488393
 30
0.0
 10
-48.0489112038
 20
196.2461186628
 30
0.0
 10
-48.5462207689
 20
197.315388142
 30
0.0
 10
-48.9804777313
 20
198.4311983948
 30
0.0
 10
-49.3503093367
 20
199.5898281624
 30
0.0
 10
-49.6543653135
 20
200.7875049977
 30
0.0
 10
-49.891857858
 20
202.0204266643
 30
0.0
 10
-50.1200673098
 20
203.7177901837
 30
0.0
 10
-50.1861590042
 20
205.0130898121
 30
0.0
 10
-50.1861590042
 20
205.8818430724
 30
0.0
  0
SPLINE
  5
440
100
AcDbEntity
  8
0
100
AcDbSpline
 62
7
  6
CONTINUOUS
 70
0
 71
3
 72
21
 73
17
 74
0
 42
0.0000001
 43
0.0000001
 44
0.0000000001
 40
0.0
 40
0.0
 40
0.0
 40
0.0
 40
0.1180571851
 40
0.1483759364
 40
0.1789757651
 40
0.2409492819
 40
0.3673872577
 40
0.431562622
 40
0.4960845669
 40
0.560742928
 40
0.6253245071
 40
0.7533464946
 40
0.8164596535
 40
0.87870645
 40
0.9399442099
 40
1.0
 40
1.0
 40
1.0
 40
1.0
 10
-26.6331255952
 20
191.948161919
 30
0.0
 10
-25.5381898052
 20
192.4351833917
 30
0.0
 10
-24.2115366009
 20
193.1671416837
 30
0.0
 10
-22.710979242
 20
194.1911209046
 30
0.0
 10
-21.7075571386
 20
194.9328686238
 30
0.0
 10
-19.995252477
 20
196.353297874
 30
0.0
 10
-18.2032426798
 20
198.2010146156
 30
0.0
 10
-16.5983750342
 20
200.2354196162
 30
0.0
 10
-15.4886785859
 20
201.8561994274
 30
0.0
 10
-14.4881860346
 20
203.5513412479
 30
0.0
 10
-13.3137307839
 20
205.8853109466
 30
0.0
 10
-12.3824632636
 20
208.3186176131
 30
0.0
 10
-11.7183795907
 20
210.8051071213
 30
0.0
 10
-11.3608439393
 20
212.6669592771
 30
0.0
 10
-11.1446983446
 20
214.5190665044
 30
0.0
 10
-11.0952485683
 20
215.7507675754
 30
0.0
 10
-11.0952485683
 20
216.3603759377
 30
0.0
  0
SPLINE
  5
441
100
AcDbEntity
  8
0
100
AcDbSpline
 62
7
  6
CONTINUOUS
 70
0
 71
3
 72
11
 73
7
 74
0
 42
0.0000001
 43
0.0000001
 44
0.0000000001
 40
0.0
 40
0.0
 40
0.0
 40
0.0
 40
0.2490973587
 40
0.4366221656
 40
0.6247573913
 40
1.0
 40
1.0
 40
1.0
 40
1.0
 10
-26.6331255952
 20
191.948161919
 30
0.0
 10
-26.6330113045
 20
191.9423577372
 30
0.0
 10
-26.6326881679
 20
191.9321866732
 30
0.0
 10
-26.6325622761
 20
191.9176259608
 30
0.0
 10
-26.632717247
 20
191.9001259529
 30
0.0
 10
-26.6324391855
 20
191.8869970196
 30
0.0
 10
-26.6324391855
 20
191.8782518505
 30
0.0
  0
SPLINE
  5
442
100
AcDbEntity
  8
0
100
AcDbSpline
 62
7
  6
CONTINUOUS
 70
0
 71
3
 72
19
 73
15
 74
0
 42
0.0000001
 43
0.0000001
 44
0.0000000001
 40
0.0
 40
0.0
 40
0.0
 40
0.0
 40
0.0634376111
 40
0.127134969
 40
0.254860052
 40
0.3825265665
 40
0.4461713441
 40
0.5095790177
 40
0.6353556752
 40
0.6976100422
 40
0.7593466818
 40
0.8810303629
 40
0.9408940113
 40
1.0
 40
1.0
 40
1.0
 40
1.0
 10
-64.4242404873
 20
237.4526677733
 30
0.0
 10
-64.699174793
 20
237.115233218
 30
0.0
 10
-65.236123025
 20
236.4273865656
 30
0.0
 10
-66.2548010617
 20
235.0056163997
 30
0.0
 10
-67.4196057569
 20
233.1487699653
 30
0.0
 10
-68.4292428499
 20
231.2036362695
 30
0.0
 10
-69.1377034982
 20
229.6054986273
 30
0.0
 10
-69.7749318171
 20
227.9916502426
 30
0.0
 10
-70.3081618257
 20
226.3484000748
 30
0.0
 10
-70.7317553717
 20
224.6874028942
 30
0.0
 10
-71.0772217358
 20
223.0371414267
 30
0.0
 10
-71.3114952127
 20
221.3816999876
 30
0.0
 10
-71.429150603
 20
219.7342830696
 30
0.0
 10
-71.4490341174
 20
218.917861009
 30
0.0
 10
-71.4490341174
 20
218.512321602
 30
0.0
  0
SPLINE
  5
443
100
AcDbEntity
  8
0
100
AcDbSpline
 62
7
  6
CONTINUOUS
 70
0
 71
3
 72
11
 73
7
 74
0
 42
0.0000001
 43
0.0000001
 44
0.0000000001
 40
0.0
 40
0.0
 40
0.0
 40
0.0
 40
0.2564809189
 40
0.5088061811
 40
0.7566665023
 40
1.0
 40
1.0
 40
1.0
 40
1.0
 10
-71.4490341174
 20
218.512321602
 30
0.0
 10
-71.4490341174
 20
218.0190300869
 30
0.0
 10
-71.4200386478
 20
217.0401699061
 30
0.0
 10
-71.2877118788
 20
215.5899706317
 30
0.0
 10
-71.0671150413
 20
214.1760992385
 30
0.0
 10
-70.8599689917
 20
213.2535066787
 30
0.0
 10
-70.7417220902
 20
212.8006862502
 30
0.0
  0
SPLINE
  5
444
100
AcDbEntity
  8
0
100
AcDbSpline
 62
7
  6
CONTINUOUS
 70
0
 71
3
 72
17
 73
13
 74
0
 42
0.0000001
 43
0.0000001
 44
0.0000000001
 40
0.0
 40
0.0
 40
0.0
 40
0.0
 40
0.1332255284
 40
0.2634997515
 40
0.3910079702
 40
0.5160385937
 40
0.6389647767
 40
0.6997975149
 40
0.7602779365
 40
0.8804077153
 40
0.9402402097
 40
1.0
 40
1.0
 40
1.0
 40
1.0
 10
-70.7417220902
 20
212.8006862502
 30
0.0
 10
-70.5984751087
 20
212.2521293011
 30
0.0
 10
-70.269412696
 20
211.1784258931
 30
0.0
 10
-69.6421352027
 20
209.6348679415
 30
0.0
 10
-68.8903842473
 20
208.186801262
 30
0.0
 10
-68.0194641005
 20
206.8441988761
 30
0.0
 10
-67.1957684508
 20
205.8171294295
 30
0.0
 10
-66.4841642276
 20
205.0589656235
 30
0.0
 10
-65.7424766418
 20
204.3473700675
 30
0.0
 10
-64.9484958621
 20
203.6982527313
 30
0.0
 10
-64.1089398135
 20
203.1180939645
 30
0.0
 10
-63.6749841361
 20
202.8516089783
 30
0.0
 10
-63.4547596695
 20
202.724423832
 30
0.0
  0
SPLINE
  5
445
100
AcDbEntity
  8
0
100
AcDbSpline
 62
7
  6
CONTINUOUS
 70
0
 71
3
 72
20
 73
16
 74
0
 42
0.0000001
 43
0.0000001
 44
0.0000000001
 40
0.0
 40
0.0
 40
0.0
 40
0.0
 40
0.0590914901
 40
0.118969404
 40
0.1795538833
 40
0.2407744939
 40
0.3025770641
 40
0.3649045992
 40
0.4908233475
 40
0.5542889943
 40
0.617973508
 40
0.7456363186
 40
0.8732104872
 40
0.9367633466
 40
1.0
 40
1.0
 40
1.0
 40
1.0
 10
-72.2754804268
 20
218.2907881376
 30
0.0
 10
-72.2754804268
 20
218.7293510556
 30
0.0
 10
-72.2531333232
 20
219.6124586909
 30
0.0
 10
-72.1545314281
 20
220.9418994954
 30
0.0
 10
-71.9908247322
 20
222.2808465394
 30
0.0
 10
-71.7624100295
 20
223.6247398666
 30
0.0
 10
-71.4701911277
 20
224.9694820716
 30
0.0
 10
-70.9949923934
 20
226.7639019826
 30
0.0
 10
-70.3972174845
 20
228.5368183585
 30
0.0
 10
-69.6834680246
 20
230.2746086024
 30
0.0
 10
-68.8907309193
 20
231.9921716284
 30
0.0
 10
-67.7624825792
 20
234.0763363394
 30
0.0
 10
-66.4625833555
 20
236.0568917828
 30
0.0
 10
-65.3275788898
 20
237.5659873839
 30
0.0
 10
-64.7300113367
 20
238.2933645717
 30
0.0
 10
-64.4242404873
 20
238.6494155929
 30
0.0
  0
SPLINE
  5
446
100
AcDbEntity
  8
0
100
AcDbSpline
 62
7
  6
CONTINUOUS
 70
0
 71
3
 72
13
 73
9
 74
0
 42
0.0000001
 43
0.0000001
 44
0.0000000001
 40
0.0
 40
0.0
 40
0.0
 40
0.0
 40
0.1143641542
 40
0.2302891249
 40
0.3485945238
 40
0.4700634787
 40
0.7251127124
 40
1.0
 40
1.0
 40
1.0
 40
1.0
 10
-49.0910921223
 20
246.2310226731
 30
0.0
 10
-49.041365816
 20
246.2411537003
 30
0.0
 10
-48.9400475701
 20
246.2561314863
 30
0.0
 10
-48.7852293399
 20
246.2624902877
 30
0.0
 10
-48.6274154051
 20
246.2528180477
 30
0.0
 10
-48.4103093974
 20
246.218029832
 30
0.0
 10
-48.132609473
 20
246.1323912703
 30
0.0
 10
-47.9209077385
 20
246.0278865117
 30
0.0
 10
-47.8152820748
 20
245.96687909
 30
0.0
  0
SPLINE
  5
447
100
AcDbEntity
  8
0
100
AcDbSpline
 62
7
  6
CONTINUOUS
 70
0
 71
3
 72
16
 73
12
 74
0
 42
0.0000001
 43
0.0000001
 44
0.0000000001
 40
0.0
 40
0.0
 40
0.0
 40
0.0
 40
0.0476546443
 40
0.0977239193
 40
0.2049834825
 40
0.3214807674
 40
0.4463896282
 40
0.5784043944
 40
0.7158986872
 40
0.8571184451
 40
1.0
 40
1.0
 40
1.0
 40
1.0
 10
-47.8152820748
 20
245.96687909
 30
0.0
 10
-47.7450601112
 20
245.926320188
 30
0.0
 10
-47.6046446537
 20
245.8368124608
 30
0.0
 10
-47.3255588162
 20
245.6271177158
 30
0.0
 10
-46.9839817133
 20
245.3080515891
 30
0.0
 10
-46.5996704502
 20
244.8546243429
 30
0.0
 10
-46.2386318993
 20
244.3305543946
 30
0.0
 10
-45.9077495867
 20
243.7457108163
 30
0.0
 10
-45.6131426867
 20
243.1111208174
 30
0.0
 10
-45.3605980519
 20
242.4389573085
 30
0.0
 10
-45.2235415036
 20
241.9748250294
 30
0.0
 10
-45.1630973922
 20
241.7393177887
 30
0.0
  0
SPLINE
  5
448
100
AcDbEntity
  8
0
100
AcDbSpline
 62
7
  6
CONTINUOUS
 70
0
 71
3
 72
15
 73
11
 74
0
 42
0.0000001
 43
0.0000001
 44
0.0000000001
 40
0.0
 40
0.0
 40
0.0
 40
0.0
 40
0.1280814545
 40
0.2558329099
 40
0.3829381509
 40
0.5091371381
 40
0.6341863212
 40
0.7578482685
 40
0.8798796992
 40
1.0
 40
1.0
 40
1.0
 40
1.0
 10
-45.1630973922
 20
241.7393177887
 30
0.0
 10
-45.0086962096
 20
241.1377273997
 30
0.0
 10
-44.716855614
 20
239.931774985
 30
0.0
 10
-44.3300748052
 20
238.1153398802
 30
0.0
 10
-43.99579503
 20
236.2977760053
 30
0.0
 10
-43.7149244361
 20
234.4844539242
 30
0.0
 10
-43.4882769175
 20
232.6803802612
 30
0.0
 10
-43.3164394293
 20
230.8905504372
 30
0.0
 10
-43.19999806
 20
229.1202255227
 30
0.0
 10
-43.1590897769
 20
227.9464749647
 30
0.0
 10
-43.1481871603
 20
227.3640936349
 30
0.0
  0
SPLINE
  5
449
100
AcDbEntity
  8
0
100
AcDbSpline
 62
7
  6
CONTINUOUS
 70
0
 71
3
 72
11
 73
7
 74
0
 42
0.0000001
 43
0.0000001
 44
0.0000000001
 40
0.0
 40
0.0
 40
0.0
 40
0.0
 40
0.2756765462
 40
0.5307612703
 40
0.7697663279
 40
1.0
 40
1.0
 40
1.0
 40
1.0
 10
-47.8152820748
 20
239.2787197773
 30
0.0
 10
-47.7718300651
 20
239.2536227035
 30
0.0
 10
-47.684569252
 20
239.2110961035
 30
0.0
 10
-47.5492381127
 20
239.1718311461
 30
0.0
 10
-47.4168574587
 20
239.1611213929
 30
0.0
 10
-47.3314586967
 20
239.1735770248
 30
0.0
 10
-47.2909797869
 20
239.1844258147
 30
0.0
  0
SPLINE
  5
44A
100
AcDbEntity
  8
0
100
AcDbSpline
 62
7
  6
CONTINUOUS
 70
0
 71
3
 72
17
 73
13
 74
0
 42
0.0000001
 43
0.0000001
 44
0.0000000001
 40
0.0
 40
0.0
 40
0.0
 40
0.0
 40
0.1197231314
 40
0.2475138835
 40
0.3807065689
 40
0.5154244098
 40
0.647471505
 40
0.7732173808
 40
0.8330967658
 40
0.8907610679
 40
0.9463046336
 40
1.0
 40
1.0
 40
1.0
 40
1.0
 10
-86.3895707505
 20
262.8806248644
 30
0.0
 10
-87.9714616111
 20
262.4565903462
 30
0.0
 10
-91.1223348476
 20
261.0940829304
 30
0.0
 10
-95.2954710615
 20
257.9086201413
 30
0.0
 10
-98.8159953212
 20
253.7433490167
 30
0.0
 10
-101.434649255
 20
248.8951748363
 30
0.0
 10
-102.9679605073
 20
243.7083550983
 30
0.0
 10
-103.2482870479
 20
239.3257100132
 30
0.0
 10
-102.8180256465
 20
236.0168501388
 30
0.0
 10
-102.1922836988
 20
233.7246620795
 30
0.0
 10
-101.2691152587
 20
231.627245011
 30
0.0
 10
-100.4528371428
 20
230.365948546
 30
0.0
 10
-100.0022689205
 20
229.7858568173
 30
0.0
  0
SPLINE
  5
44B
100
AcDbEntity
  8
0
100
AcDbSpline
 62
7
  6
CONTINUOUS
 70
0
 71
3
 72
9
 73
5
 74
0
 42
0.0000001
 43
0.0000001
 44
0.0000000001
 40
0.0
 40
0.0
 40
0.0
 40
0.0
 40
0.5039613365
 40
1.0
 40
1.0
 40
1.0
 40
1.0
 10
-100.0022689205
 20
229.7858568173
 30
0.0
 10
-99.5223371309
 20
229.1679604641
 30
0.0
 10
-98.4545967372
 20
228.0264616652
 30
0.0
 10
-97.1844351581
 20
227.1140415257
 30
0.0
 10
-96.51760249
 20
226.7288538462
 30
0.0
  0
SPLINE
  5
44C
100
AcDbEntity
  8
0
100
AcDbSpline
 62
7
  6
CONTINUOUS
 70
0
 71
3
 72
9
 73
5
 74
0
 42
0.0000001
 43
0.0000001
 44
0.0000000001
 40
0.0
 40
0.0
 40
0.0
 40
0.0
 40
0.531037979
 40
1.0
 40
1.0
 40
1.0
 40
1.0
 10
-71.5991801052
 20
265.0486661519
 30
0.0
 10
-71.6218020845
 20
265.061732187
 30
0.0
 10
-71.6682077118
 20
265.0810741322
 30
0.0
 10
-71.7192999033
 20
265.0802520813
 30
0.0
 10
-71.7415825882
 20
265.0742749314
 30
0.0
  0
SPLINE
  5
44D
100
AcDbEntity
  8
0
100
AcDbSpline
 62
7
  6
CONTINUOUS
 70
0
 71
3
 72
10
 73
6
 74
0
 42
0.0000001
 43
0.0000001
 44
0.0000000001
 40
0.0
 40
0.0
 40
0.0
 40
0.0
 40
0.5166649299
 40
0.7641755093
 40
1.0
 40
1.0
 40
1.0
 40
1.0
 10
-64.249474595
 20
251.6976840645
 30
0.0
 10
-64.8982495283
 20
253.8945426069
 30
0.0
 10
-66.0891004029
 20
257.084372316
 30
0.0
 10
-68.1160475715
 20
261.0310636046
 30
0.0
 10
-69.2540796183
 20
262.851046234
 30
0.0
 10
-69.8507537137
 20
263.7096077174
 30
0.0
  0
SPLINE
  5
44E
100
AcDbEntity
  8
0
100
AcDbSpline
 62
7
  6
CONTINUOUS
 70
0
 71
3
 72
9
 73
5
 74
0
 42
0.0000001
 43
0.0000001
 44
0.0000000001
 40
0.0
 40
0.0
 40
0.0
 40
0.0
 40
0.537295635
 40
1.0
 40
1.0
 40
1.0
 40
1.0
 10
-69.8507537137
 20
263.7096077174
 30
0.0
 10
-69.968072756
 20
263.8784194887
 30
0.0
 10
-70.2105968459
 20
264.1769084739
 30
0.0
 10
-70.5117638737
 20
264.4205947317
 30
0.0
 10
-70.6650660105
 20
264.5091391989
 30
0.0
  0
SPLINE
  5
44F
100
AcDbEntity
  8
0
100
AcDbSpline
 62
7
  6
CONTINUOUS
 70
0
 71
3
 72
11
 73
7
 74
0
 42
0.0000001
 43
0.0000001
 44
0.0000000001
 40
0.0
 40
0.0
 40
0.0
 40
0.0
 40
0.316475773
 40
0.5891415315
 40
0.8124366284
 40
1.0
 40
1.0
 40
1.0
 40
1.0
 10
-76.0398918547
 20
263.5694683186
 30
0.0
 10
-76.0424055632
 20
263.6178356907
 30
0.0
 10
-76.039980418
 20
263.708573434
 30
0.0
 10
-76.0108438901
 20
263.8305561281
 30
0.0
 10
-75.9574008605
 20
263.9231725506
 30
0.0
 10
-75.901538257
 20
263.9591708457
 30
0.0
 10
-75.873814136
 20
263.9666076101
 30
0.0
  0
SPLINE
  5
450
100
AcDbEntity
  8
0
100
AcDbSpline
 62
7
  6
CONTINUOUS
 70
0
 71
3
 72
9
 73
5
 74
0
 42
0.0000001
 43
0.0000001
 44
0.0000000001
 40
0.0
 40
0.0
 40
0.0
 40
0.0
 40
0.5132648308
 40
1.0
 40
1.0
 40
1.0
 40
1.0
 10
-70.0618176255
 20
251.5604184701
 30
0.0
 10
-70.5649832435
 20
253.0690980024
 30
0.0
 10
-71.7087692632
 20
255.9567700363
 30
0.0
 10
-73.1904016173
 20
258.6894611395
 30
0.0
 10
-74.0023710544
 20
259.9603995597
 30
0.0
  0
SPLINE
  5
451
100
AcDbEntity
  8
0
100
AcDbSpline
 62
7
  6
CONTINUOUS
 70
0
 71
3
 72
11
 73
7
 74
0
 42
0.0000001
 43
0.0000001
 44
0.0000000001
 40
0.0
 40
0.0
 40
0.0
 40
0.0
 40
0.3114746584
 40
0.5801398864
 40
0.8047068096
 40
1.0
 40
1.0
 40
1.0
 40
1.0
 10
-74.0023710544
 20
259.9603995597
 30
0.0
 10
-74.0235835969
 20
259.993602577
 30
0.0
 10
-74.0679683784
 20
260.0526254678
 30
0.0
 10
-74.1450946758
 20
260.1204435478
 30
0.0
 10
-74.2257019803
 20
260.1578535009
 30
0.0
 10
-74.2811655775
 20
260.1579151368
 30
0.0
 10
-74.3050331355
 20
260.1515410409
 30
0.0
  0
SPLINE
  5
452
100
AcDbEntity
  8
0
100
AcDbSpline
 62
7
  6
CONTINUOUS
 70
0
 71
3
 72
9
 73
5
 74
0
 42
0.0000001
 43
0.0000001
 44
0.0000000001
 40
0.0
 40
0.0
 40
0.0
 40
0.0
 40
0.4960564783
 40
1.0
 40
1.0
 40
1.0
 40
1.0
 10
-76.2615390111
 20
261.7993440386
 30
0.0
 10
-76.9261554383
 20
262.1832515339
 30
0.0
 10
-78.3461641576
 20
262.8257576646
 30
0.0
 10
-79.8629615658
 20
263.1804057023
 30
0.0
 10
-80.6352345727
 20
263.2879977921
 30
0.0
  0
SPLINE
  5
453
100
AcDbEntity
  8
0
100
AcDbSpline
 62
7
  6
CONTINUOUS
 70
0
 71
3
 72
9
 73
5
 74
0
 42
0.0000001
 43
0.0000001
 44
0.0000000001
 40
0.0
 40
0.0
 40
0.0
 40
0.0
 40
0.4887423848
 40
1.0
 40
1.0
 40
1.0
 40
1.0
 10
-80.6352345727
 20
263.2879977921
 30
0.0
 10
-81.5707398047
 20
263.4183311871
 30
0.0
 10
-83.5188991312
 20
263.4722539577
 30
0.0
 10
-85.435209879
 20
263.1364465284
 30
0.0
 10
-86.3895707505
 20
262.8806248644
 30
0.0
  0
SPLINE
  5
454
100
AcDbEntity
  8
0
100
AcDbSpline
 62
7
  6
CONTINUOUS
 70
0
 71
3
 72
21
 73
17
 74
0
 42
0.0000001
 43
0.0000001
 44
0.0000000001
 40
0.0
 40
0.0
 40
0.0
 40
0.0
 40
0.0614369824
 40
0.1228990071
 40
0.1844236366
 40
0.2460725379
 40
0.307933611
 40
0.3701097776
 40
0.4326797528
 40
0.4956777561
 40
0.6224126995
 40
0.7494063005
 40
0.8126643932
 40
0.875518586
 40
0.9379440553
 40
1.0
 40
1.0
 40
1.0
 40
1.0
 10
-68.7405596482
 20
204.6225464523
 30
0.0
 10
-69.7851499425
 20
205.225882405
 30
0.0
 10
-71.7730535764
 20
206.6194709991
 30
0.0
 10
-74.3443856727
 20
209.1936292188
 30
0.0
 10
-76.4420894551
 20
212.1718681567
 30
0.0
 10
-78.0202286839
 20
215.462268369
 30
0.0
 10
-79.0568220067
 20
218.9733473373
 30
0.0
 10
-79.5482868228
 20
222.6179295811
 30
0.0
 10
-79.504058053
 20
226.3169012753
 30
0.0
 10
-78.7554970586
 20
231.227458193
 30
0.0
 10
-76.5845560099
 20
237.1358944587
 30
0.0
 10
-72.9817067474
 20
242.3014055745
 30
0.0
 10
-69.3879927599
 20
245.7522547457
 30
0.0
 10
-66.3855173292
 20
247.9389158742
 30
0.0
 10
-63.1260046535
 20
249.6693313449
 30
0.0
 10
-60.8109479001
 20
250.487524611
 30
0.0
 10
-59.634033658
 20
250.803000345
 30
0.0
  0
SPLINE
  5
455
100
AcDbEntity
  8
0
100
AcDbSpline
 62
7
  6
CONTINUOUS
 70
0
 71
3
 72
9
 73
5
 74
0
 42
0.0000001
 43
0.0000001
 44
0.0000000001
 40
0.0
 40
0.0
 40
0.0
 40
0.0
 40
0.5009090501
 40
1.0
 40
1.0
 40
1.0
 40
1.0
 10
-59.6336098014
 20
250.8031139569
 30
0.0
 10
-57.790284986
 20
251.2971863005
 30
0.0
 10
-53.9726330142
 20
251.8357261856
 30
0.0
 10
-50.1394225406
 20
251.3626240059
 30
0.0
 10
-48.3014369691
 20
250.8754144078
 30
0.0
  0
SPLINE
  5
456
100
AcDbEntity
  8
0
100
AcDbSpline
 62
7
  6
CONTINUOUS
 70
0
 71
3
 72
9
 73
5
 74
0
 42
0.0000001
 43
0.0000001
 44
0.0000000001
 40
0.0
 40
0.0
 40
0.0
 40
0.0
 40
0.2456310565
 40
1.0
 40
1.0
 40
1.0
 40
1.0
 10
-55.9867316216
 20
250.1470163367
 30
0.0
 10
-56.285283798
 20
250.066988115
 30
0.0
 10
-57.4934306121
 20
249.7143168544
 30
0.0
 10
-58.6705864098
 20
249.2571040973
 30
0.0
 10
-59.5336476954
 20
248.8618406776
 30
0.0
  0
SPLINE
  5
457
100
AcDbEntity
  8
0
100
AcDbSpline
 62
7
  6
CONTINUOUS
 70
0
 71
3
 72
13
 73
9
 74
0
 42
0.0000001
 43
0.0000001
 44
0.0000000001
 40
0.0
 40
0.0
 40
0.0
 40
0.0
 40
0.2422586967
 40
0.3698248143
 40
0.4993314022
 40
0.6289414537
 40
0.7567896175
 40
1.0
 40
1.0
 40
1.0
 40
1.0
 10
-59.5336476954
 20
248.8618406776
 30
0.0
 10
-62.2072755562
 20
247.6373768894
 30
0.0
 10
-65.9710733699
 20
245.0091939279
 30
0.0
 10
-70.0779604876
 20
240.5371319088
 30
0.0
 10
-72.742076813
 20
236.6517808111
 30
0.0
 10
-74.8367169494
 20
232.4283455686
 30
0.0
 10
-76.7459751705
 20
226.6474393506
 30
0.0
 10
-77.2135994562
 20
222.0668976627
 30
0.0
 10
-76.987986675
 20
219.1232991764
 30
0.0
  0
SPLINE
  5
458
100
AcDbEntity
  8
0
100
AcDbSpline
 62
7
  6
CONTINUOUS
 70
0
 71
3
 72
13
 73
9
 74
0
 42
0.0000001
 43
0.0000001
 44
0.0000000001
 40
0.0
 40
0.0
 40
0.0
 40
0.0
 40
0.2690493935
 40
0.5230009465
 40
0.6452789044
 40
0.7650192573
 40
0.8829705225
 40
1.0
 40
1.0
 40
1.0
 40
1.0
 10
-76.987986675
 20
219.1232991764
 30
0.0
 10
-76.8691387811
 20
217.5726756755
 30
0.0
 10
-76.3504830629
 20
214.5698447021
 30
0.0
 10
-74.9145599381
 20
211.0879219468
 30
0.0
 10
-73.3445968719
 20
208.6809500513
 30
0.0
 10
-71.9892527829
 20
207.094036006
 30
0.0
 10
-70.4570147859
 20
205.7226162941
 30
0.0
 10
-69.326320103
 20
204.9608977028
 30
0.0
 10
-68.7405569847
 20
204.6225511228
 30
0.0
  0
SPLINE
  5
459
100
AcDbEntity
  8
0
100
AcDbSpline
 62
7
  6
CONTINUOUS
 70
0
 71
3
 72
11
 73
7
 74
0
 42
0.0000001
 43
0.0000001
 44
0.0000000001
 40
0.0
 40
0.0
 40
0.0
 40
0.0
 40
0.1876016469
 40
0.4108395047
 40
0.6836214488
 40
1.0
 40
1.0
 40
1.0
 40
1.0
 10
-74.3050331355
 20
260.1515410409
 30
0.0
 10
-74.3327701766
 20
260.1441335567
 30
0.0
 10
-74.3886223925
 20
260.1081011763
 30
0.0
 10
-74.4420779382
 20
260.015494092
 30
0.0
 10
-74.4711837564
 20
259.8935076875
 30
0.0
 10
-74.4736292732
 20
259.8027742871
 30
0.0
 10
-74.4711164199
 20
259.7544233688
 30
0.0
  0
SPLINE
  5
45A
100
AcDbEntity
  8
0
100
AcDbSpline
 62
7
  6
CONTINUOUS
 70
0
 71
3
 72
9
 73
5
 74
0
 42
0.0000001
 43
0.0000001
 44
0.0000000001
 40
0.0
 40
0.0
 40
0.0
 40
0.0
 40
0.462704365
 40
1.0
 40
1.0
 40
1.0
 40
1.0
 10
-74.7972975577
 20
263.401471877
 30
0.0
 10
-74.6439954208
 20
263.3129274098
 30
0.0
 10
-74.342828393
 20
263.069241152
 30
0.0
 10
-74.1003043031
 20
262.7707521668
 30
0.0
 10
-73.9829852609
 20
262.6019403955
 30
0.0
  0
SPLINE
  5
45B
100
AcDbEntity
  8
0
100
AcDbSpline
 62
7
  6
CONTINUOUS
 70
0
 71
3
 72
10
 73
6
 74
0
 42
0.0000001
 43
0.0000001
 44
0.0000000001
 40
0.0
 40
0.0
 40
0.0
 40
0.0
 40
0.2358244864
 40
0.4833350686
 40
1.0
 40
1.0
 40
1.0
 40
1.0
 10
-73.9829852609
 20
262.6019403955
 30
0.0
 10
-73.3863106093
 20
261.7433781119
 30
0.0
 10
-72.2482775525
 20
259.9233937052
 30
0.0
 10
-70.2213289626
 20
255.9766984118
 30
0.0
 10
-69.0304772893
 20
252.786865486
 30
0.0
 10
-68.3817024335
 20
250.590004644
 30
0.0
  0
SPLINE
  5
45C
100
AcDbEntity
  8
0
100
AcDbSpline
 62
7
  6
CONTINUOUS
 70
0
 71
3
 72
9
 73
5
 74
0
 42
0.0000001
 43
0.0000001
 44
0.0000000001
 40
0.0
 40
0.0
 40
0.0
 40
0.0
 40
0.248594935
 40
1.0
 40
1.0
 40
1.0
 40
1.0
 10
-67.0182402418
 20
203.7835285692
 30
0.0
 10
-67.2023027104
 20
203.9260452001
 30
0.0
 10
-67.9291915552
 20
204.516625305
 30
0.0
 10
-68.6005344554
 20
205.1752795264
 30
0.0
 10
-69.0684194639
 20
205.700800178
 30
0.0
  0
SPLINE
  5
45D
100
AcDbEntity
  8
0
100
AcDbSpline
 62
7
  6
CONTINUOUS
 70
0
 71
3
 72
9
 73
5
 74
0
 42
0.0000001
 43
0.0000001
 44
0.0000000001
 40
0.0
 40
0.0
 40
0.0
 40
0.0
 40
0.2477651025
 40
1.0
 40
1.0
 40
1.0
 40
1.0
 10
-69.3277809906
 20
205.9995979004
 30
0.0
 10
-69.4593464363
 20
206.1550624875
 30
0.0
 10
-69.9782315277
 20
206.7927128722
 30
0.0
 10
-70.4481931782
 20
207.4699943793
 30
0.0
 10
-70.7726019563
 20
207.9963980441
 30
0.0
  0
SPLINE
  5
45E
100
AcDbEntity
  8
0
100
AcDbSpline
 62
7
  6
CONTINUOUS
 70
0
 71
3
 72
15
 73
11
 74
0
 42
0.0000001
 43
0.0000001
 44
0.0000000001
 40
0.0
 40
0.0
 40
0.0
 40
0.0
 40
0.1234325742
 40
0.2509073257
 40
0.380728017
 40
0.5109576206
 40
0.6396180494
 40
0.7648907132
 40
0.8853118166
 40
1.0
 40
1.0
 40
1.0
 40
1.0
 10
-73.6671390481
 20
220.0171043189
 30
0.0
 10
-73.6142211007
 20
221.5491786468
 30
0.0
 10
-73.2392332697
 20
224.6589708508
 30
0.0
 10
-71.9505825211
 20
229.2259253388
 30
0.0
 10
-69.9717178512
 20
233.6320902205
 30
0.0
 10
-67.3730527436
 20
237.7204656547
 30
0.0
 10
-64.2461963023
 20
241.3470785202
 30
0.0
 10
-60.6997455633
 20
244.3832065101
 30
0.0
 10
-56.8590524818
 20
246.7198864393
 30
0.0
 10
-54.1169558673
 20
247.7812790223
 30
0.0
 10
-52.743627269
 20
248.1592253222
 30
0.0
  0
SPLINE
  5
45F
100
AcDbEntity
  8
0
100
AcDbSpline
 62
7
  6
CONTINUOUS
 70
0
 71
3
 72
9
 73
5
 74
0
 42
0.0000001
 43
0.0000001
 44
0.0000000001
 40
0.0
 40
0.0
 40
0.0
 40
0.0
 40
0.4689618103
 40
1.0
 40
1.0
 40
1.0
 40
1.0
 10
-75.873814136
 20
263.9666076101
 30
0.0
 10
-75.8515314579
 20
263.9725847528
 30
0.0
 10
-75.8004392627
 20
263.9734068752
 30
0.0
 10
-75.7540336426
 20
263.9540648714
 30
0.0
 10
-75.7314116523
 20
263.9409988299
 30
0.0
  0
SPLINE
  5
460
100
AcDbEntity
  8
0
100
AcDbSpline
 62
7
  6
CONTINUOUS
 70
0
 71
3
 72
15
 73
11
 74
0
 42
0.0000001
 43
0.0000001
 44
0.0000000001
 40
0.0
 40
0.0
 40
0.0
 40
0.0
 40
0.117283587
 40
0.2409409963
 40
0.3694129722
 40
0.5004330838
 40
0.6313874064
 40
0.759670391
 40
0.8830392803
 40
1.0
 40
1.0
 40
1.0
 40
1.0
 10
-79.4574376778
 20
222.3252515787
 30
0.0
 10
-79.7376994522
 20
223.6180399755
 30
0.0
 10
-80.0104294966
 20
226.3457379134
 30
0.0
 10
-79.6033986577
 20
230.5150902199
 30
0.0
 10
-78.4191755687
 20
234.6940722203
 30
0.0
 10
-76.5144506089
 20
238.6871424994
 30
0.0
 10
-73.9787884553
 20
242.3099019954
 30
0.0
 10
-70.9284906233
 20
245.3936614844
 30
0.0
 10
-67.5052989674
 20
247.7930123332
 30
0.0
 10
-65.0008705848
 20
248.8911541789
 30
0.0
 10
-63.7401476531
 20
249.2794906511
 30
0.0
  0
SPLINE
  5
461
100
AcDbEntity
  8
0
100
AcDbSpline
 62
7
  6
CONTINUOUS
 70
0
 71
3
 72
9
 73
5
 74
0
 42
0.0000001
 43
0.0000001
 44
0.0000000001
 40
0.0
 40
0.0
 40
0.0
 40
0.0
 40
0.4888067156
 40
1.0
 40
1.0
 40
1.0
 40
1.0
 10
-48.7759335992
 20
250.6648953856
 30
0.0
 10
-49.9487559513
 20
250.8256360709
 30
0.0
 10
-52.3899177618
 20
250.8893898863
 30
0.0
 10
-54.7909434754
 20
250.4675456645
 30
0.0
 10
-55.9867316215
 20
250.1470163366
 30
0.0
  0
ELLIPSE
  5
462
100
AcDbEntity
  8
0
100
AcDbEllipse
 62
7
  6
CONTINUOUS
 10
-4.4545206822
 20
-240.276101118
 30
0.0
 11
-2.5122150693
 21
574.2153774604
 31
0.0
 40
0.0387000412
 41
0.5855596447
 42
0.5981344226
  0
ELLIPSE
  5
463
100
AcDbEntity
  8
0
100
AcDbEllipse
 62
7
  6
CONTINUOUS
 10
-71.1125891522
 20
235.4403980908
 30
0.0
 11
7.9608169032
 21
18.6800477143
 31
0.0
 40
0.7898593978
 41
6.7899863157
 42
6.9612720305
  0
ENDSEC
  0
SECTION
  2
OBJECTS
  0
DICTIONARY
  5
C
100
AcDbDictionary
280
0
281
1
  3
ACAD_GROUP
350
D
  3
ACAD_MLINESTYLE
350
17
  3
ACAD_LAYOUT
350
1A
  3
ACAD_PLOTSETTINGS
350
19
  3
ACAD_PLOTSTYLENAME
350
E
  0
DICTIONARY
  5
D
102
{ACAD_REACTORS
330
C
102
}
100
AcDbDictionary
280
0
281
1
  0
ACDBDICTIONARYWDFLT
  5
E
102
{ACAD_REACTORS
330
C
102
}
100
AcDbDictionary
281
1
  3
Normal
350
F
100
AcDbDictionaryWithDefault
340
F
  0
DICTIONARY
  5
17
102
{ACAD_REACTORS
330
C
102
}
100
AcDbDictionary
280
0
281
1
  3
Standard
350
18
  0
DICTIONARY
  5
19
102
{ACAD_REACTORS
330
C
102
}
100
AcDbDictionary
281
1
  0
DICTIONARY
  5
1A
102
{ACAD_REACTORS
330
C
102
}
100
AcDbDictionary
281
1
  3
Model
350
464
  3
Layout1
350
465
  0
ACDBPLACEHOLDER
  5
F
102
{ACAD_REACTORS
330
E
102
}
  0
MLINESTYLE
  5
18
102
{ACAD_REACTORS
330
17
102
}
100
AcDbMlineStyle
  2
STANDARD
 70
0
  3

 62
256
 51
90.0
 52
90.0
 71
2
 49
0.5
 62
256
  6
BYLAYER
 49
-0.5
 62
256
  6
BYLAYER
  0
LAYOUT
  5
464
102
{ACAD_REACTORS
330
1A
102
}
100
AcDbPlotSettings
  1

  2
none_device
  4
ANSI_C_(22.00_x_17.00_Inches)
  6

 40
0.0
 41
0.0
 42
0.0
 43
0.0
 44
558.8
 45
431.8
 46
0.0
 47
0.0
 48
0.0
 49
0.0
140
0.0
141
0.0
142
1.0
143
1.0
 70
1024
 72
1
 73
0
 74
0
  7

 75
0
147
1.0
148
0.0
149
0.0
100
AcDbLayout
  1
Model
 70
0
 71
0
 10
0.0
 20
0.0
 11
558.8
 21
431.8
 12
0.0
 22
0.0
 32
0.0
 14
0.0
 24
0.0
 34
0.0
 15
0.0
 25
0.0
 35
0.0
146
0.0
 13
0.0
 23
0.0
 33
0.0
 16
1.0
 26
0.0
 36
0.0
 17
0.0
 27
1.0
 37
0.0
 76
0
330
1FF
345
0
346
0
  0
LAYOUT
  5
465
102
{ACAD_REACTORS
330
1A
102
}
100
AcDbPlotSettings
  1

  2
none_device
  4
ANSI_C_(22.00_x_17.00_Inches)
  6

 40
0.0
 41
0.0
 42
0.0
 43
0.0
 44
558.8
 45
431.8
 46
0.0
 47
0.0
 48
0.0
 49
0.0
140
0.0
141
0.0
142
1.0
143
1.0
 70
0
 72
1
 73
0
 74
0
  7

 75
0
147
1.0
148
0.0
149
0.0
100
AcDbLayout
  1
Layout1
 70
0
 71
1
 10
0.0
 20
0.0
 11
558.8
 21
431.8
 12
0.0
 22
0.0
 32
0.0
 14
0.0
 24
0.0
 34
0.0
 15
0.0
 25
0.0
 35
0.0
146
0.0
 13
0.0
 23
0.0
 33
0.0
 16
1.0
 26
0.0
 36
0.0
 17
0.0
 27
1.0
 37
0.0
 76
0
330
200
345
0
346
0
  0
ENDSEC
  0
EOF
