999
DXF file: Y:\3D PRATIKA-KAEDRA_OLGA\TRAVAIL_PHASE_2\CAD3D\PKF16M434_3D-Simplified\PKF16M434_2D-isometric.dxf
999
Pro/ENGINEER 2018260 by Parametric Technology Corporation
  0
SECTION
  2
HEADER
  9
$ACADVER
  1
AC1027
  9
$DWGCODEPAGE
  3
ANSI_1252
  9
$EXTMAX
 10
558.8
 20
431.8
 30
0.0
  9
$EXTMIN
 10
0.0
 20
0.0
 30
0.0
  9
$LIMMIN
 10
0.0
 20
0.0
  9
$LIMMAX
 10
558.8
 20
431.8
  9
$VIEWCTR
 10
279.4
 20
215.9
  9
$VIEWSIZE
 40
431.8
  9
$CLAYER
  8
0
  9
$LTSCALE
 40
30.734
  9
$CELTYPE
  6
BYLAYER
  9
$DIMSCALE
 40
1.0
  9
$DIMASZ
 40
0.1875
  9
$DIMEXO
 40
0.0625
  9
$DIMDLI
 40
21.2344
  9
$DIMEXE
 40
0.125
  9
$DIMCEN
 40
5.0292
  9
$DIMLFAC
 40
1.0
  9
$DIMBLK
  1
_CLOSED
  9
$DIMALT
 70
0
  9
$DIMALTF
 40
0.0393700787
  9
$DIMTXT
 40
0.15625
  9
$DIMTOL
 70
0
  9
$DIMLIM
 70
0
  9
$DIMTFAC
 40
1.0
  9
$DIMGAP
 40
0.625
  9
$DIMDSEP
 70
46
  9
$AUNITS
 70
0
  9
$PDMODE
 70
3
  9
$PDSIZE
 40
0.3125
  9
$HANDSEED
  5
427
  9
$TILEMODE
 70
1
  9
$MEASUREMENT
 70
1
  9
$INSUNITS
 70
4
  0
ENDSEC
  0
SECTION
  2
CLASSES
  0
CLASS
  1
ACDBDICTIONARYWDFLT
  2
AcDbDictionaryWithDefault
  3
AutoCAD 2000
 90
0
 91
1
280
0
281
0
  0
CLASS
  1
ACDBPLACEHOLDER
  2
AcDbPlaceHolder
  3
AutoCAD 2000
 90
0
 91
1
280
0
281
0
  0
CLASS
  1
LAYOUT
  2
AcDbLayout
  3
AutoCAD 2000
 90
0
 91
0
280
0
281
0
  0
ENDSEC
  0
SECTION
  2
TABLES
  0
TABLE
  2
VPORT
  5
8
100
AcDbSymbolTable
 70
2
  0
VPORT
  5
1F4
100
AcDbSymbolTableRecord
100
AcDbViewportTableRecord
  2
*ACTIVE
 70
0
 10
0.0
 20
0.0
 11
1.0
 21
1.0
 12
279.4
 22
215.9
 13
0.0
 23
0.0
 14
1.0
 24
1.0
 15
0.0
 25
0.0
 16
0.0
 26
0.0
 36
1.0
 17
0.0
 27
0.0
 37
0.0
 40
431.8
 41
1.2941176471
 42
50.0
 43
0.0
 44
0.0
 50
0.0
 51
0.0
 71
0
 72
100
 73
1
 74
1
 75
0
 76
0
 77
0
 78
0
  0
ENDTAB
  0
TABLE
  2
LTYPE
  5
5
100
AcDbSymbolTable
 70
6
  0
LTYPE
  5
14
100
AcDbSymbolTableRecord
100
AcDbLinetypeTableRecord
  2
BYBLOCK
 70
0
  3

 72
65
 73
0
 40
0.0
  0
LTYPE
  5
15
100
AcDbSymbolTableRecord
100
AcDbLinetypeTableRecord
  2
BYLAYER
 70
0
  3

 72
65
 73
0
 40
0.0
  0
LTYPE
  5
16
100
AcDbSymbolTableRecord
100
AcDbLinetypeTableRecord
  2
CONTINUOUS
 70
64
  3
Solid line
 72
65
 73
0
 40
0.0
  0
LTYPE
  5
1F5
100
AcDbSymbolTableRecord
100
AcDbLinetypeTableRecord
  2
CENTER
 70
64
  3
____ _ ____ _ ____ _ ____ _ ____ _ ____ _ ____
 72
65
 73
4
 40
0.6
 49
0.375
 74
0
 49
-0.075
 74
0
 49
0.075
 74
0
 49
-0.075
 74
0
  0
LTYPE
  5
1F6
100
AcDbSymbolTableRecord
100
AcDbLinetypeTableRecord
  2
HIDDEN
 70
64
  3
- - - - - - - - - - - - - - - - - - - -
 72
65
 73
2
 40
0.2
 49
0.1
 74
0
 49
-0.1
 74
0
  0
LTYPE
  5
1F7
100
AcDbSymbolTableRecord
100
AcDbLinetypeTableRecord
  2
PHANTOM
 70
64
  3
_____ _ _ _____ _ _ _____ _ _ _____
 72
65
 73
6
 40
0.8
 49
0.45
 74
0
 49
-0.05
 74
0
 49
0.1
 74
0
 49
-0.05
 74
0
 49
0.1
 74
0
 49
-0.05
 74
0
  0
LTYPE
  5
1F8
100
AcDbSymbolTableRecord
100
AcDbLinetypeTableRecord
  2
DOT
 70
64
  3
. . . . . . . . . . . . . . . . . . . .
 72
65
 73
2
 40
0.2
 49
0.1
 74
0
 49
-0.1
 74
0
  0
LTYPE
  5
1F9
100
AcDbSymbolTableRecord
100
AcDbLinetypeTableRecord
  2
DASHED
 70
64
  3
- - - - - - - - - - - - - - - - - - - -
 72
65
 73
2
 40
0.2
 49
0.1
 74
0
 49
-0.1
 74
0
  0
ENDTAB
  0
TABLE
  2
LAYER
  5
2
100
AcDbSymbolTable
 70
36
  0
LAYER
  5
10
100
AcDbSymbolTableRecord
100
AcDbLayerTableRecord
  2
0
 70
0
 62
7
  6
CONTINUOUS
370
-3
390
F
  0
LAYER
  5
1FA
100
AcDbSymbolTableRecord
100
AcDbLayerTableRecord
  2
DEFAULT_1
 70
0
 62
7
  6
CENTER
370
-3
390
F
  0
LAYER
  5
1FB
100
AcDbSymbolTableRecord
100
AcDbLayerTableRecord
  2
DEFAULT_2
 70
0
 62
8
  6
HIDDEN
370
-3
390
F
  0
LAYER
  5
1FC
100
AcDbSymbolTableRecord
100
AcDbLayerTableRecord
  2
DEFAULT_3
 70
0
 62
7
  6
PHANTOM
370
-3
390
F
  0
ENDTAB
  0
TABLE
  2
STYLE
  5
3
100
AcDbSymbolTable
 70
1
  0
STYLE
  5
11
100
AcDbSymbolTableRecord
100
AcDbTextStyleTableRecord
  2
STANDARD
 70
0
 40
0.0
 41
0.8
 50
0.0
 71
0
 42
0.2
  3
txt
  4

  0
STYLE
  5
1FD
100
AcDbSymbolTableRecord
100
AcDbTextStyleTableRecord
  2
TEXTSTYLE_1
 70
0
 40
0.0
 41
0.8
 50
0.0
 71
0
 42
0.2
  3
gdt
  4

  0
ENDTAB
  0
TABLE
  2
VIEW
  5
6
100
AcDbSymbolTable
 70
0
  0
ENDTAB
  0
TABLE
  2
UCS
  5
7
100
AcDbSymbolTable
 70
0
  0
ENDTAB
  0
TABLE
  2
APPID
  5
9
100
AcDbSymbolTable
 70
1
  0
APPID
  5
1FE
100
AcDbSymbolTableRecord
100
AcDbRegAppTableRecord
  2
ACAD
 70
0
  0
ENDTAB
  0
TABLE
  2
BLOCK_RECORD
  5
1
100
AcDbSymbolTable
 70
0
  0
BLOCK_RECORD
  5
1FF
100
AcDbSymbolTableRecord
100
AcDbBlockTableRecord
  2
*Model_Space
  0
BLOCK_RECORD
  5
200
100
AcDbSymbolTableRecord
100
AcDbBlockTableRecord
  2
*Paper_Space
  0
BLOCK_RECORD
  5
201
100
AcDbSymbolTableRecord
100
AcDbBlockTableRecord
  2
_CLOSED
  0
ENDTAB
  0
TABLE
  2
DIMSTYLE
  5
A
100
AcDbSymbolTable
 70
1
100
AcDbDimStyleTable
 71
0
  0
DIMSTYLE
105
202
100
AcDbSymbolTableRecord
100
AcDbDimStyleTableRecord
  2
STANDARD
 70
0
  3

  4

 40
1.0
 41
0.1875
 42
0.0625
 43
0.38
 44
0.125
 45
0.0
 46
0.0
 47
0.01
 48
0.01
140
0.15625
141
0.09
142
0.0
143
25.4
144
1.0
145
0.0
146
1.0
147
0.625
 71
0.0
 72
0.0
 73
1
 74
1
 75
0
 76
0
 77
0
 78
8
 79
2
170
0
171
1
172
0
173
0
174
0
175
0
176
0
177
0
178
0
270
2
179
2
271
2
272
2
273
2
274
2
275
0
280
0
281
0
282
0
283
1
284
8
285
0
286
0
287
3
288
0
340
11
278
46
341
201
342
201
343
201
344
201
  0
ENDTAB
  0
ENDSEC
  0
SECTION
  2
BLOCKS
  0
BLOCK
  5
20
100
AcDbEntity
  8
0
100
AcDbBlockBegin
  2
*Model_Space
 70
0
 10
0.0
 20
0.0
 30
0.0
  3
*Model_Space
  1

  0
ENDBLK
  5
21
100
AcDbEntity
  8
0
100
AcDbBlockEnd
  0
BLOCK
  5
1C
100
AcDbEntity
  8
0
100
AcDbBlockBegin
  2
*Paper_Space
 70
0
 10
0.0
 20
0.0
 30
0.0
  3
*Paper_Space
  1

  0
ENDBLK
  5
1D
100
AcDbEntity
  8
0
100
AcDbBlockEnd
  0
BLOCK
  5
203
100
AcDbEntity
  8
0
100
AcDbBlockBegin
  2
_CLOSED
 70
64
 10
0.0
 20
0.0
  3
_CLOSED
  1

  0
LINE
  5
204
100
AcDbEntity
  8
0
  6
BYBLOCK
 62
0
100
AcDbLine
 10
0.0
 20
0.0
 11
-1.0
 21
0.1666666667
  0
LINE
  5
205
100
AcDbEntity
  8
0
  6
BYBLOCK
 62
0
100
AcDbLine
 10
-1.0
 20
0.1666666667
 11
-1.0
 21
-0.1666666667
  0
LINE
  5
206
100
AcDbEntity
  8
0
  6
BYBLOCK
 62
0
100
AcDbLine
 10
-1.0
 20
-0.1666666667
 11
0.0
 21
0.0
  0
LINE
  5
207
100
AcDbEntity
  8
0
  6
BYBLOCK
 62
0
100
AcDbLine
 10
-1.0
 20
0.0
 11
0.0
 21
0.0
  0
ENDBLK
  5
208
100
AcDbEntity
  8
0
  6
BYBLOCK
 62
0
100
AcDbBlockEnd
  0
ENDSEC
  0
SECTION
  2
ENTITIES
  0
LINE
  5
209
100
AcDbEntity
  8
0
100
AcDbLine
 62
7
  6
CONTINUOUS
 10
-101.3760344002
 20
238.0166763191
 11
-101.3760129727
 21
238.0167779959
  0
LINE
  5
20A
100
AcDbEntity
  8
0
100
AcDbLine
 62
7
  6
CONTINUOUS
 10
-102.1661942394
 20
231.7744978224
 11
-102.1679765749
 21
231.7499299525
  0
LINE
  5
20B
100
AcDbEntity
  8
0
100
AcDbLine
 62
7
  6
CONTINUOUS
 10
-102.1653150051
 20
231.7746528863
 11
-102.1679765749
 21
231.7499299525
  0
LWPOLYLINE
  5
20C
100
AcDbEntity
  8
0
100
AcDbPolyline
 62
7
  6
CONTINUOUS
 90
5
 70
0
 10
-103.0434226344
 20
227.1266626475
 10
-103.1944204348
 20
226.8723302175
 10
-103.2762862641
 20
226.5775188577
 10
-103.278094885
 20
226.2704950783
 10
-103.2368632003
 20
226.0862504392
  0
LWPOLYLINE
  5
20D
100
AcDbEntity
  8
0
100
AcDbPolyline
 62
7
  6
CONTINUOUS
 90
7
 70
0
 10
-99.6742582669
 20
217.4715679362
 10
-99.7235535732
 20
217.3398666941
 10
-99.7651211214
 20
217.082515784
 10
-99.7387607631
 20
216.8223601429
 10
-99.6446764772
 20
216.5803153425
 10
-99.4892996641
 20
216.3760585653
 10
-99.3889242159
 20
216.2910421518
  0
LINE
  5
20E
100
AcDbEntity
  8
0
100
AcDbLine
 62
7
  6
CONTINUOUS
 10
-99.6742531035
 20
217.4715797748
 11
-99.3833767157
 21
218.1099894156
  0
LINE
  5
20F
100
AcDbEntity
  8
0
100
AcDbLine
 62
7
  6
CONTINUOUS
 10
-99.0569290973
 20
217.9351370365
 11
-99.3543554749
 21
217.2823516099
  0
LINE
  5
210
100
AcDbEntity
  8
0
100
AcDbLine
 62
7
  6
CONTINUOUS
 10
-102.9344351192
 20
227.243221669
 11
-103.0434226344
 21
227.1266626475
  0
LWPOLYLINE
  5
211
100
AcDbEntity
  8
0
100
AcDbPolyline
 62
7
  6
CONTINUOUS
 90
6
 70
0
 10
-92.0670744748
 20
212.0882860087
 10
-92.0548403289
 20
211.9413733811
 10
-91.9727804763
 20
211.693635937
 10
-91.8190934275
 20
211.4838465252
 10
-91.6045486305
 20
211.3300888713
 10
-91.4501395117
 20
211.2705580423
  0
LINE
  5
212
100
AcDbEntity
  8
0
100
AcDbLine
 62
7
  6
CONTINUOUS
 10
-92.0670744358
 20
212.088212162
 11
-92.0670750791
 21
212.1755724593
  0
LINE
  5
213
100
AcDbEntity
  8
0
100
AcDbLine
 62
7
  6
CONTINUOUS
 10
-91.74776544
 20
212.0346326965
 11
-91.74776544
 21
211.9050853235
  0
LINE
  5
214
100
AcDbEntity
  8
0
100
AcDbLine
 62
7
  6
CONTINUOUS
 10
-102.9344322042
 20
227.2432245837
 11
-102.426516826
 21
227.7055784009
  0
LINE
  5
215
100
AcDbEntity
  8
0
100
AcDbLine
 62
7
  6
CONTINUOUS
 10
-102.0932231762
 20
227.5324732026
 11
-102.6083783686
 21
227.0635290046
  0
LINE
  5
216
100
AcDbEntity
  8
0
100
AcDbLine
 62
7
  6
CONTINUOUS
 10
-103.2368405225
 20
226.0862384367
 11
-103.2368948902
 21
226.0864070622
  0
LWPOLYLINE
  5
217
100
AcDbEntity
  8
0
100
AcDbPolyline
 62
7
  6
CONTINUOUS
 90
6
 70
0
 10
-100.6070427255
 20
238.9100739327
 10
-100.7176903079
 20
238.8719728181
 10
-100.9536406536
 20
238.7282714386
 10
-101.1593662998
 20
238.5075285347
 10
-101.3125376175
 20
238.2265100316
 10
-101.3760415434
 20
238.0167042378
  0
LINE
  5
218
100
AcDbEntity
  8
0
100
AcDbLine
 62
7
  6
CONTINUOUS
 10
-99.4008043742
 20
218.0717395414
 11
-99.4131056789
 21
218.0911056947
  0
LINE
  5
219
100
AcDbEntity
  8
0
100
AcDbLine
 62
7
  6
CONTINUOUS
 10
-99.4092783858
 20
218.0632381128
 11
-99.4223848409
 21
218.0818150753
  0
LINE
  5
21A
100
AcDbEntity
  8
0
100
AcDbLine
 62
7
  6
CONTINUOUS
 10
-74.4730196453
 20
255.4433862665
 11
-74.4730196453
 21
255.5307397823
  0
LINE
  5
21B
100
AcDbEntity
  8
0
100
AcDbLine
 62
7
  6
CONTINUOUS
 10
-74.4737588851
 20
255.4558006921
 11
-74.4730196452
 21
255.5307399254
  0
LINE
  5
21C
100
AcDbEntity
  8
0
100
AcDbLine
 62
7
  6
CONTINUOUS
 10
-86.0367488066
 20
213.3218172913
 11
-86.0009890063
 21
213.3543693868
  0
LINE
  5
21D
100
AcDbEntity
  8
0
100
AcDbLine
 62
7
  6
CONTINUOUS
 10
-84.1095167021
 20
254.6300736001
 11
-84.096553485
 21
254.5699656272
  0
LINE
  5
21E
100
AcDbEntity
  8
0
100
AcDbLine
 62
7
  6
CONTINUOUS
 10
-74.4216247005
 20
254.8302220682
 11
-74.4737568966
 21
255.4521819973
  0
LINE
  5
21F
100
AcDbEntity
  8
0
100
AcDbLine
 62
7
  6
CONTINUOUS
 10
-69.6526190103
 20
246.0965988042
 11
-69.6526191173
 21
246.0506646401
  0
LINE
  5
220
100
AcDbEntity
  8
0
100
AcDbLine
 62
7
  6
CONTINUOUS
 10
-84.4201752754
 20
255.1453533165
 11
-84.393978203
 21
255.0632947587
  0
LWPOLYLINE
  5
221
100
AcDbEntity
  8
0
100
AcDbPolyline
 62
7
  6
CONTINUOUS
 90
7
 70
0
 10
-74.4730136859
 20
255.5317591897
 10
-74.5053702582
 20
255.7687824587
 10
-74.6037889495
 20
255.9904580369
 10
-74.7617971225
 20
256.1742041121
 10
-74.9699119276
 20
256.3064232168
 10
-75.2158222174
 20
256.3752761685
 10
-75.3689851353
 20
256.3823125376
  0
LINE
  5
222
100
AcDbEntity
  8
0
100
AcDbLine
 62
7
  6
CONTINUOUS
 10
-44.7380015315
 20
179.2198783804
 11
-39.9523694464
 21
176.4557861654
  0
LINE
  5
223
100
AcDbEntity
  8
0
100
AcDbLine
 62
7
  6
CONTINUOUS
 10
-22.7773999026
 20
166.5358427255
 11
-18.2762711785
 21
163.936074368
  0
LINE
  5
224
100
AcDbEntity
  8
0
100
AcDbLine
 62
7
  6
CONTINUOUS
 10
-26.3167863673
 20
169.3307571029
 11
-39.6272718686
 21
177.01864633
  0
LINE
  5
225
100
AcDbEntity
  8
0
100
AcDbLine
 62
7
  6
CONTINUOUS
 10
-10.0513849056
 20
161.771829939
 11
-7.0228934853
 21
160.0226295389
  0
LINE
  5
226
100
AcDbEntity
  8
0
100
AcDbLine
 62
7
  6
CONTINUOUS
 10
-99.3703112444
 20
216.2789846279
 11
-99.3887483823
 21
216.2909391662
  0
LINE
  5
227
100
AcDbEntity
  8
0
100
AcDbLine
 62
7
  6
CONTINUOUS
 10
-99.3887483823
 20
216.2909391662
 11
-99.3890635351
 21
216.2911681865
  0
LINE
  5
228
100
AcDbEntity
  8
0
100
AcDbLine
 62
7
  6
CONTINUOUS
 10
-23.4561704427
 20
173.7442247816
 11
-7.1509113269
 21
164.3266099328
  0
LINE
  5
229
100
AcDbEntity
  8
0
100
AcDbLine
 62
7
  6
CONTINUOUS
 10
-24.4816241595
 20
176.7587000881
 11
-15.11959353
 21
171.3513650654
  0
LINE
  5
22A
100
AcDbEntity
  8
0
100
AcDbLine
 62
7
  6
CONTINUOUS
 10
-77.9908993582
 20
204.2002155494
 11
-54.4215886855
 21
190.5870191561
  0
LINE
  5
22B
100
AcDbEntity
  8
0
100
AcDbLine
 62
7
  6
CONTINUOUS
 10
-78.5070235772
 20
241.576623977
 11
-78.4863777717
 21
241.54237953
  0
LWPOLYLINE
  5
22C
100
AcDbEntity
  8
0
100
AcDbPolyline
 62
7
  6
CONTINUOUS
 90
3
 70
0
 10
-73.7485172571
 20
252.6029047944
 10
-74.1891121462
 20
253.8223694841
 10
-74.4216247005
 20
254.8302220682
  0
LINE
  5
22D
100
AcDbEntity
  8
0
100
AcDbLine
 62
7
  6
CONTINUOUS
 10
-53.6459597263
 20
235.9720330003
 11
-54.1945044517
 21
246.5268237277
  0
LINE
  5
22E
100
AcDbEntity
  8
0
100
AcDbLine
 62
7
  6
CONTINUOUS
 10
-52.6495336766
 20
243.1698147248
 11
-52.233044308
 21
235.155959295
  0
LINE
  5
22F
100
AcDbEntity
  8
0
100
AcDbLine
 62
7
  6
CONTINUOUS
 10
-8.2247189235
 20
169.8157339072
 11
-1.3932243269
 21
165.8699895007
  0
LINE
  5
230
100
AcDbEntity
  8
0
100
AcDbLine
 62
7
  6
CONTINUOUS
 10
-88.1036372305
 20
222.769343877
 11
-88.1597604799
 21
222.8049486681
  0
LWPOLYLINE
  5
231
100
AcDbEntity
  8
0
100
AcDbPolyline
 62
7
  6
CONTINUOUS
 90
4
 70
0
 10
-88.1036372225
 20
222.7693438592
 10
-88.1223106289
 20
222.7832524366
 10
-88.141101906
 20
222.7910396099
 10
-88.1597604484
 20
222.804948706
  0
LINE
  5
232
100
AcDbEntity
  8
0
100
AcDbLine
 62
7
  6
CONTINUOUS
 10
-84.096553485
 20
254.5699656272
 11
-84.393978203
 21
255.0632947587
  0
LINE
  5
233
100
AcDbEntity
  8
0
100
AcDbLine
 62
7
  6
CONTINUOUS
 10
-84.4208308249
 20
255.1464320707
 11
-84.1095749223
 21
254.6301701687
  0
LINE
  5
234
100
AcDbEntity
  8
0
100
AcDbLine
 62
7
  6
CONTINUOUS
 10
-73.7485182807
 20
252.6029070712
 11
-73.7484732796
 21
252.6027994897
  0
LINE
  5
235
100
AcDbEntity
  8
0
100
AcDbLine
 62
7
  6
CONTINUOUS
 10
-25.254217677
 20
226.7388829084
 11
-26.3590879443
 21
226.3714499397
  0
LINE
  5
236
100
AcDbEntity
  8
0
100
AcDbLine
 62
7
  6
CONTINUOUS
 10
25.8117939166
 20
208.1005572697
 11
22.5060086789
 21
207.2144234121
  0
LWPOLYLINE
  5
237
100
AcDbEntity
  8
0
100
AcDbPolyline
 62
7
  6
CONTINUOUS
 90
3
 70
0
 10
-91.4501466875
 20
211.2705614168
 10
-88.6887032085
 20
210.5273480142
 10
-87.8721932378
 20
210.3239977526
  0
LWPOLYLINE
  5
238
100
AcDbEntity
  8
0
100
AcDbPolyline
 62
7
  6
CONTINUOUS
 90
4
 70
0
 10
-78.6196057722
 20
241.7056701216
 10
-78.8686664712
 20
241.9962214158
 10
-79.1607456796
 20
242.3461576596
 10
-79.3930806124
 20
242.6320895229
  0
LINE
  5
239
100
AcDbEntity
  8
0
100
AcDbLine
 62
7
  6
CONTINUOUS
 10
-79.3930812501
 20
242.6320903237
 11
-79.5744042599
 21
242.8602081477
  0
LINE
  5
23A
100
AcDbEntity
  8
0
100
AcDbLine
 62
7
  6
CONTINUOUS
 10
-84.4205124222
 20
255.145909588
 11
-84.4894714608
 21
255.2422320004
  0
LINE
  5
23B
100
AcDbEntity
  8
0
100
AcDbLine
 62
7
  6
CONTINUOUS
 10
-39.1713070457
 20
217.5498292042
 11
-39.1713070457
 21
218.2822358692
  0
LINE
  5
23C
100
AcDbEntity
  8
0
100
AcDbLine
 62
7
  6
CONTINUOUS
 10
-88.1134242944
 20
221.8103948363
 11
-87.9448016963
 21
221.7405579354
  0
LWPOLYLINE
  5
23D
100
AcDbEntity
  8
0
100
AcDbPolyline
 62
7
  6
CONTINUOUS
 90
4
 70
0
 10
-69.7484061396
 20
246.2160209971
 10
-69.9603718879
 20
246.4837547416
 10
-70.2083965455
 20
246.8026467479
 10
-70.4053932401
 20
247.0605349383
  0
LWPOLYLINE
  5
23E
100
AcDbEntity
  8
0
100
AcDbPolyline
 62
7
  6
CONTINUOUS
 90
4
 70
0
 10
-70.4053944961
 20
247.0605366104
 10
-71.8393693719
 20
249.0912534203
 10
-72.9687302157
 20
250.9818918567
 10
-73.7484732796
 20
252.6027994897
  0
LINE
  5
23F
100
AcDbEntity
  8
0
100
AcDbLine
 62
7
  6
CONTINUOUS
 10
-47.7875079611
 20
232.5883000622
 11
-48.3360270121
 21
234.4017721187
  0
LINE
  5
240
100
AcDbEntity
  8
0
100
AcDbLine
 62
7
  6
CONTINUOUS
 10
-46.3173030553
 20
232.2697430037
 11
-46.1579738605
 21
231.6471114289
  0
LINE
  5
241
100
AcDbEntity
  8
0
100
AcDbLine
 62
7
  6
CONTINUOUS
 10
-17.9352625657
 20
207.6821579729
 11
-15.4706397281
 21
208.3428136372
  0
LINE
  5
242
100
AcDbEntity
  8
0
100
AcDbLine
 62
7
  6
CONTINUOUS
 10
-42.0257423133
 20
232.7547787508
 11
-42.1850715083
 21
233.3774103258
  0
LINE
  5
243
100
AcDbEntity
  8
0
100
AcDbLine
 62
7
  6
CONTINUOUS
 10
-29.3889628272
 20
228.5288644427
 11
-29.3889628272
 21
226.6690460657
  0
LINE
  5
244
100
AcDbEntity
  8
0
100
AcDbLine
 62
7
  6
CONTINUOUS
 10
-28.001034344
 20
227.9927944213
 11
-28.0010246543
 21
225.9980146927
  0
LINE
  5
245
100
AcDbEntity
  8
0
100
AcDbLine
 62
7
  6
CONTINUOUS
 10
-85.1745427934
 20
232.9826994042
 11
-85.2102907362
 21
232.9960757988
  0
LINE
  5
246
100
AcDbEntity
  8
0
100
AcDbLine
 62
7
  6
CONTINUOUS
 10
-39.1713070457
 20
217.5498292042
 11
-22.4173388308
 21
207.8730483132
  0
LINE
  5
247
100
AcDbEntity
  8
0
100
AcDbLine
 62
7
  6
CONTINUOUS
 10
-21.9963375019
 20
208.3622924293
 11
-17.8879218228
 21
205.9893478333
  0
LINE
  5
248
100
AcDbEntity
  8
0
100
AcDbLine
 62
7
  6
CONTINUOUS
 10
-38.6938587162
 20
218.0064705812
 11
-39.1713070457
 21
218.2822358692
  0
LWPOLYLINE
  5
249
100
AcDbEntity
  8
0
100
AcDbPolyline
 62
7
  6
CONTINUOUS
 90
6
 70
0
 10
-84.4894714608
 20
255.2422320004
 10
-84.6722984923
 20
255.3995386123
 10
-84.9048615223
 20
255.4945562423
 10
-85.1755501243
 20
255.513022706
 10
-85.4606631534
 20
255.4441294689
 10
-85.6468606116
 20
255.3485591099
  0
LWPOLYLINE
  5
24A
100
AcDbEntity
  8
0
100
AcDbPolyline
 62
7
  6
CONTINUOUS
 90
3
 70
0
 10
-63.0717267648
 20
247.6788590019
 10
-64.2976356768
 20
249.0172297597
 10
-65.3368439591
 20
250.0669710725
  0
LINE
  5
24B
100
AcDbEntity
  8
0
100
AcDbLine
 62
7
  6
CONTINUOUS
 10
-61.7173849948
 20
246.1451647648
 11
-63.0717267648
 21
247.6788590019
  0
LINE
  5
24C
100
AcDbEntity
  8
0
100
AcDbLine
 62
7
  6
CONTINUOUS
 10
-61.4392937772
 20
245.8265304025
 11
-61.7173882015
 21
246.1451684214
  0
LINE
  5
24D
100
AcDbEntity
  8
0
100
AcDbLine
 62
7
  6
CONTINUOUS
 10
-52.5054578334
 20
245.5512617695
 11
-52.1209218772
 21
245.0094762441
  0
LINE
  5
24E
100
AcDbEntity
  8
0
100
AcDbLine
 62
7
  6
CONTINUOUS
 10
-52.1773008377
 20
242.4562813458
 11
-52.6495336766
 21
243.1698147248
  0
LINE
  5
24F
100
AcDbEntity
  8
0
100
AcDbLine
 62
7
  6
CONTINUOUS
 10
-22.214166053
 20
226.9943499429
 11
-22.2138273472
 21
226.2786628479
  0
LINE
  5
250
100
AcDbEntity
  8
0
100
AcDbLine
 62
7
  6
CONTINUOUS
 10
-19.8825166605
 20
221.1492130006
 11
-17.0674199621
 21
221.9038151049
  0
LWPOLYLINE
  5
251
100
AcDbEntity
  8
0
100
AcDbPolyline
 62
7
  6
CONTINUOUS
 90
4
 70
0
 10
-65.3366004123
 20
250.0667403234
 10
-65.8571512514
 20
250.5361271382
 10
-66.4026850889
 20
250.9601791612
 10
-66.5861935186
 20
251.0819343043
  0
LINE
  5
252
100
AcDbEntity
  8
0
100
AcDbLine
 62
7
  6
CONTINUOUS
 10
-65.3368439591
 20
250.0669710725
 11
-65.336600326
 21
250.0667401743
  0
LINE
  5
253
100
AcDbEntity
  8
0
100
AcDbLine
 62
7
  6
CONTINUOUS
 10
-47.9886903301
 20
246.117143566
 11
-48.3732262863
 21
246.6589290914
  0
LINE
  5
254
100
AcDbEntity
  8
0
100
AcDbLine
 62
7
  6
CONTINUOUS
 10
-17.0645075943
 20
220.7778275032
 11
-17.0768179078
 21
225.541005738
  0
LINE
  5
255
100
AcDbEntity
  8
0
100
AcDbLine
 62
7
  6
CONTINUOUS
 10
-23.7993498305
 20
225.7585490762
 11
-20.7001761702
 21
226.5892995676
  0
LINE
  5
256
100
AcDbEntity
  8
0
100
AcDbLine
 62
7
  6
CONTINUOUS
 10
-22.2138339602
 20
226.2926360225
 11
-26.1289054829
 21
225.2439138035
  0
LINE
  5
257
100
AcDbEntity
  8
0
100
AcDbLine
 62
7
  6
CONTINUOUS
 10
-23.860113228
 20
227.0020887965
 11
-26.9644525552
 21
226.1699536197
  0
LINE
  5
258
100
AcDbEntity
  8
0
100
AcDbLine
 62
7
  6
CONTINUOUS
 10
-26.3590879445
 20
226.3714499397
 11
-24.2922342399
 21
226.925481407
  0
LINE
  5
259
100
AcDbEntity
  8
0
100
AcDbLine
 62
7
  6
CONTINUOUS
 10
-26.128895043
 20
225.2438748548
 11
-23.7993498308
 21
225.7585490762
  0
LINE
  5
25A
100
AcDbEntity
  8
0
100
AcDbLine
 62
7
  6
CONTINUOUS
 10
-93.4558404265
 20
248.6836090644
 11
-93.9710079983
 21
248.8763775471
  0
LINE
  5
25B
100
AcDbEntity
  8
0
100
AcDbLine
 62
7
  6
CONTINUOUS
 10
-94.1261977418
 20
249.0635942173
 11
-93.5794977941
 21
248.8590278156
  0
LINE
  5
25C
100
AcDbEntity
  8
0
100
AcDbLine
 62
7
  6
CONTINUOUS
 10
-53.6459597263
 20
235.9720330003
 11
-52.233044308
 21
235.155959295
  0
LINE
  5
25D
100
AcDbEntity
  8
0
100
AcDbLine
 62
7
  6
CONTINUOUS
 10
-47.7875079611
 20
232.5883000622
 11
-46.1579738605
 21
231.6471114289
  0
LINE
  5
25E
100
AcDbEntity
  8
0
100
AcDbLine
 62
7
  6
CONTINUOUS
 10
-4.4421250677
 20
211.3769029917
 11
4.8864112579
 21
205.9889136569
  0
LINE
  5
25F
100
AcDbEntity
  8
0
100
AcDbLine
 62
7
  6
CONTINUOUS
 10
-66.5916970894
 20
251.0853986962
 11
-66.5860853429
 21
251.0818662764
  0
LINE
  5
260
100
AcDbEntity
  8
0
100
AcDbLine
 62
7
  6
CONTINUOUS
 10
-61.7377918959
 20
246.1599698626
 11
-61.7173882015
 21
246.1451684214
  0
LINE
  5
261
100
AcDbEntity
  8
0
100
AcDbLine
 62
7
  6
CONTINUOUS
 10
-65.4395079039
 20
250.1427019861
 11
-65.3368439591
 21
250.0669710725
  0
LINE
  5
262
100
AcDbEntity
  8
0
100
AcDbLine
 62
7
  6
CONTINUOUS
 10
4.4423497545
 20
237.4428174839
 11
-0.1039213967
 21
236.2241645761
  0
LINE
  5
263
100
AcDbEntity
  8
0
100
AcDbLine
 62
7
  6
CONTINUOUS
 10
-8.3916305519
 20
234.0025986982
 11
-22.0039321472
 21
230.3537466237
  0
LINE
  5
264
100
AcDbEntity
  8
0
100
AcDbLine
 62
7
  6
CONTINUOUS
 10
2.6857606952
 20
237.0491471739
 11
-0.7971391433
 21
236.1155367765
  0
LINE
  5
265
100
AcDbEntity
  8
0
100
AcDbLine
 62
7
  6
CONTINUOUS
 10
-7.8696676296
 20
234.2197067394
 11
-23.7605212064
 21
229.9600763137
  0
LINE
  5
266
100
AcDbEntity
  8
0
100
AcDbLine
 62
7
  6
CONTINUOUS
 10
-9.6768964283
 20
234.955336749
 11
-28.1465036081
 21
230.0044572815
  0
LINE
  5
267
100
AcDbEntity
  8
0
100
AcDbLine
 62
7
  6
CONTINUOUS
 10
-20.166905523
 20
233.1962128888
 11
-19.9076590177
 21
233.2657053359
  0
LINE
  5
268
100
AcDbEntity
  8
0
100
AcDbLine
 62
7
  6
CONTINUOUS
 10
-28.001034344
 20
227.9927944213
 11
-27.4822887065
 21
228.1017781316
  0
LWPOLYLINE
  5
269
100
AcDbEntity
  8
0
100
AcDbPolyline
 62
7
  6
CONTINUOUS
 90
7
 70
0
 10
-94.1260962179
 20
249.0635566265
 10
-94.2002244206
 20
249.086845406
 10
-94.4326234586
 20
249.1097063459
 10
-94.6773757004
 20
249.0605720269
 10
-94.9172696688
 20
248.9381698325
 10
-95.1355991179
 20
248.7469368202
 10
-95.2590502856
 20
248.5876528673
  0
LINE
  5
26A
100
AcDbEntity
  8
0
100
AcDbLine
 62
7
  6
CONTINUOUS
 10
10.6393961964
 20
209.7997646001
 11
13.6292553884
 21
208.0766512277
  0
LINE
  5
26B
100
AcDbEntity
  8
0
100
AcDbLine
 62
7
  6
CONTINUOUS
 10
-54.9818321804
 20
244.0321476171
 11
-54.0364759345
 21
243.4861274063
  0
LINE
  5
26C
100
AcDbEntity
  8
0
100
AcDbLine
 62
7
  6
CONTINUOUS
 10
-43.5230378731
 20
237.4137608346
 11
-31.4045928256
 21
230.4143720354
  0
LINE
  5
26D
100
AcDbEntity
  8
0
100
AcDbLine
 62
7
  6
CONTINUOUS
 10
-54.1945044517
 20
246.5268237277
 11
-52.5054578334
 21
245.5512617695
  0
LINE
  5
26E
100
AcDbEntity
  8
0
100
AcDbLine
 62
7
  6
CONTINUOUS
 10
-69.1608982035
 20
252.6350687566
 11
-69.1687343447
 21
252.6396038237
  0
LINE
  5
26F
100
AcDbEntity
  8
0
100
AcDbLine
 62
7
  6
CONTINUOUS
 10
-69.166495476
 20
252.6383139506
 11
-66.5918044631
 21
251.0854661388
  0
LINE
  5
270
100
AcDbEntity
  8
0
100
AcDbLine
 62
7
  6
CONTINUOUS
 10
-42.1850715082
 20
233.3774103257
 11
-46.3173030553
 21
232.2697430037
  0
LINE
  5
271
100
AcDbEntity
  8
0
100
AcDbLine
 62
7
  6
CONTINUOUS
 10
-87.9343560788
 20
222.6626857835
 11
-87.9250814144
 21
222.6651719721
  0
LINE
  5
272
100
AcDbEntity
  8
0
100
AcDbLine
 62
7
  6
CONTINUOUS
 10
22.5060086789
 20
207.2144234121
 11
21.2695411074
 21
207.9270234616
  0
LINE
  5
273
100
AcDbEntity
  8
0
100
AcDbLine
 62
7
  6
CONTINUOUS
 10
-50.0622729046
 20
247.6344910496
 11
-48.3732262863
 21
246.6589290914
  0
LINE
  5
274
100
AcDbEntity
  8
0
100
AcDbLine
 62
7
  6
CONTINUOUS
 10
-73.5553514878
 20
254.601180168
 11
-73.5770808236
 21
254.608302351
  0
LINE
  5
275
100
AcDbEntity
  8
0
100
AcDbLine
 62
7
  6
CONTINUOUS
 10
-74.4353931075
 20
254.9706400776
 11
-74.4180580073
 21
254.9647343183
  0
LINE
  5
276
100
AcDbEntity
  8
0
100
AcDbLine
 62
7
  6
CONTINUOUS
 10
-74.447782598
 20
254.9421029958
 11
-74.4305021368
 21
254.936133771
  0
LINE
  5
277
100
AcDbEntity
  8
0
100
AcDbLine
 62
7
  6
CONTINUOUS
 10
8.1255178096
 20
213.5316025741
 11
8.1272586225
 21
209.8532556965
  0
LINE
  5
278
100
AcDbEntity
  8
0
100
AcDbLine
 62
7
  6
CONTINUOUS
 10
-52.1209218772
 20
245.009476244
 11
-47.98869033
 21
246.117143566
  0
LINE
  5
279
100
AcDbEntity
  8
0
100
AcDbLine
 62
7
  6
CONTINUOUS
 10
10.6393961946
 20
209.7997646019
 11
10.6367959355
 21
213.4786600096
  0
LINE
  5
27A
100
AcDbEntity
  8
0
100
AcDbLine
 62
7
  6
CONTINUOUS
 10
13.6292553884
 20
208.0766512277
 11
13.6285755947
 21
209.5130588383
  0
LINE
  5
27B
100
AcDbEntity
  8
0
100
AcDbLine
 62
7
  6
CONTINUOUS
 10
-48.3732262863
 20
246.6589290914
 11
-52.5054578334
 21
245.5512617695
  0
LINE
  5
27C
100
AcDbEntity
  8
0
100
AcDbLine
 62
7
  6
CONTINUOUS
 10
-50.0622729046
 20
247.6344910496
 11
-54.1945044517
 21
246.5268237277
  0
LINE
  5
27D
100
AcDbEntity
  8
0
100
AcDbLine
 62
7
  6
CONTINUOUS
 10
-100.0430790108
 20
238.7872183405
 11
-100.3178098537
 21
238.7135752318
  0
LINE
  5
27E
100
AcDbEntity
  8
0
100
AcDbLine
 62
7
  6
CONTINUOUS
 10
-100.6071194295
 20
238.9100525148
 11
-100.3189320806
 21
238.9873029119
  0
LINE
  5
27F
100
AcDbEntity
  8
0
100
AcDbLine
 62
7
  6
CONTINUOUS
 10
-75.3689258104
 20
256.3822958425
 11
-75.3691695698
 21
256.3822871435
  0
LINE
  5
280
100
AcDbEntity
  8
0
100
AcDbLine
 62
7
  6
CONTINUOUS
 10
21.2695411074
 20
207.9270234616
 11
21.1535129645
 21
208.6989320024
  0
LINE
  5
281
100
AcDbEntity
  8
0
100
AcDbLine
 62
7
  6
CONTINUOUS
 10
22.5060086789
 20
208.8913279846
 11
22.5060086789
 21
207.2144234121
  0
LINE
  5
282
100
AcDbEntity
  8
0
100
AcDbLine
 62
7
  6
CONTINUOUS
 10
25.8117939166
 20
209.4613351089
 11
25.8117939166
 21
208.1005572697
  0
LINE
  5
283
100
AcDbEntity
  8
0
100
AcDbLine
 62
7
  6
CONTINUOUS
 10
37.8751008821
 20
219.9550042141
 11
37.8743668846
 21
221.5059446721
  0
LINE
  5
284
100
AcDbEntity
  8
0
100
AcDbLine
 62
7
  6
CONTINUOUS
 10
40.0748574964
 20
216.6021296985
 11
40.0755372901
 21
215.1657220879
  0
LINE
  5
285
100
AcDbEntity
  8
0
100
AcDbLine
 62
7
  6
CONTINUOUS
 10
38.9153739515
 20
220.8043205187
 11
38.9231758209
 21
225.5675082718
  0
ARC
  5
286
100
AcDbEntity
  8
0
100
AcDbCircle
 62
7
  6
CONTINUOUS
 10
-107.3556985629
 20
191.9500649618
 40
71.2878103657
100
AcDbArc
 50
49.1347649725
 51
51.9386895926
  0
ARC
  5
287
100
AcDbEntity
  8
0
100
AcDbCircle
 62
7
  6
CONTINUOUS
 10
-73.1369583409
 20
220.1656031082
 40
14.5559674967
100
AcDbArc
 50
207.9002786135
 51
211.0789243784
  0
ARC
  5
288
100
AcDbEntity
  8
0
100
AcDbCircle
 62
7
  6
CONTINUOUS
 10
-91.3273856983
 20
211.9672049872
 40
0.1164786157
100
AcDbArc
 50
231.6422792019
 51
241.2681636872
  0
ARC
  5
289
100
AcDbEntity
  8
0
100
AcDbCircle
 62
7
  6
CONTINUOUS
 10
-73.2745864405
 20
222.7804644448
 40
33.6915970861
100
AcDbArc
 50
105.7556858458
 51
107.2575456152
  0
ARC
  5
28A
100
AcDbEntity
  8
0
100
AcDbCircle
 62
7
  6
CONTINUOUS
 10
-73.4625858508
 20
223.4549482217
 40
32.9914062887
100
AcDbArc
 50
105.0087851905
 51
105.759525051
  0
ARC
  5
28B
100
AcDbEntity
  8
0
100
AcDbCircle
 62
7
  6
CONTINUOUS
 10
-73.7849352258
 20
224.7468515191
 40
31.6601054199
100
AcDbArc
 50
99.9167592219
 51
105.0507845655
  0
ARC
  5
28C
100
AcDbEntity
  8
0
100
AcDbCircle
 62
7
  6
CONTINUOUS
 10
-73.5805903337
 20
235.6236664586
 40
31.1521382371
100
AcDbArc
 50
197.8274263935
 51
201.6136164836
  0
ARC
  5
28D
100
AcDbEntity
  8
0
100
AcDbCircle
 62
7
  6
CONTINUOUS
 10
-73.5082847484
 20
235.5251805481
 40
31.1406042334
100
AcDbArc
 50
197.8294007138
 51
201.0145292687
  0
ARC
  5
28E
100
AcDbEntity
  8
0
100
AcDbCircle
 62
7
  6
CONTINUOUS
 10
-73.0410830292
 20
227.8346505294
 40
29.643239095
100
AcDbArc
 50
157.7579881318
 51
158.0021890621
  0
ARC
  5
28F
100
AcDbEntity
  8
0
100
AcDbCircle
 62
7
  6
CONTINUOUS
 10
-77.4364450136
 20
233.6890713189
 40
26.7963389048
100
AcDbArc
 50
211.0858679948
 51
212.60936013
  0
ARC
  5
290
100
AcDbEntity
  8
0
100
AcDbCircle
 62
7
  6
CONTINUOUS
 10
-77.672820956
 20
233.5376358407
 40
26.5156143817
100
AcDbArc
 50
212.608973624
 51
212.8273679399
  0
ARC
  5
291
100
AcDbEntity
  8
0
100
AcDbCircle
 62
7
  6
CONTINUOUS
 10
-77.7877046361
 20
233.4633594583
 40
26.3788107907
100
AcDbArc
 50
212.8270736983
 51
213.7067624669
  0
ARC
  5
292
100
AcDbEntity
  8
0
100
AcDbCircle
 62
7
  6
CONTINUOUS
 10
-76.221808563
 20
228.6707686856
 40
26.3479305201
100
AcDbArc
 50
168.6382651957
 51
173.1866079637
  0
ARC
  5
293
100
AcDbEntity
  8
0
100
AcDbCircle
 62
7
  6
CONTINUOUS
 10
-75.6305136825
 20
230.7076956647
 40
25.7997166314
100
AcDbArc
 50
125.0860427886
 51
128.2889695932
  0
ARC
  5
294
100
AcDbEntity
  8
0
100
AcDbCircle
 62
7
  6
CONTINUOUS
 10
-81.0719758041
 20
231.8894493814
 40
23.9284963584
100
AcDbArc
 50
71.7592735006
 51
72.1032301787
  0
ARC
  5
295
100
AcDbEntity
  8
0
100
AcDbCircle
 62
7
  6
CONTINUOUS
 10
-80.9754715228
 20
232.0449769136
 40
23.7461169036
100
AcDbArc
 50
71.8458010537
 51
72.3243189097
  0
ARC
  5
296
100
AcDbEntity
  8
0
100
AcDbCircle
 62
7
  6
CONTINUOUS
 10
-80.9988521421
 20
232.1016212094
 40
23.7040979577
100
AcDbArc
 50
67.8068683686
 51
71.7666149401
  0
ARC
  5
297
100
AcDbEntity
  8
0
100
AcDbCircle
 62
7
  6
CONTINUOUS
 10
-80.9297725525
 20
232.1812884517
 40
23.6023511838
100
AcDbArc
 50
69.4872899752
 51
71.7926059568
  0
ARC
  5
298
100
AcDbEntity
  8
0
100
AcDbCircle
 62
7
  6
CONTINUOUS
 10
-80.8831431622
 20
232.3087029108
 40
23.4666758801
100
AcDbArc
 50
69.1113499439
 51
69.4849091214
  0
ARC
  5
299
100
AcDbEntity
  8
0
100
AcDbCircle
 62
7
  6
CONTINUOUS
 10
-80.8644997368
 20
232.357211022
 40
23.4147085909
100
AcDbArc
 50
67.8780604119
 51
69.111649406
  0
ARC
  5
29A
100
AcDbEntity
  8
0
100
AcDbCircle
 62
7
  6
CONTINUOUS
 10
-80.8468407692
 20
232.4010397419
 40
23.3674563478
100
AcDbArc
 50
67.6592159744
 51
67.8777024704
  0
ARC
  5
29B
100
AcDbEntity
  8
0
100
AcDbCircle
 62
7
  6
CONTINUOUS
 10
-80.86574079
 20
232.417077863
 40
23.3617318699
100
AcDbArc
 50
59.9542482204
 51
67.8169055129
  0
ARC
  5
29C
100
AcDbEntity
  8
0
100
AcDbCircle
 62
7
  6
CONTINUOUS
 10
-85.6721492219
 20
235.2014987888
 40
23.3613860412
100
AcDbArc
 50
234.0450937993
 51
240.0365979299
  0
ARC
  5
29D
100
AcDbEntity
  8
0
100
AcDbCircle
 62
7
  6
CONTINUOUS
 10
-80.8123088487
 20
232.4834820735
 40
23.2780761078
100
AcDbArc
 50
64.8419370226
 51
67.6606986887
  0
ARC
  5
29E
100
AcDbEntity
  8
0
100
AcDbCircle
 62
7
  6
CONTINUOUS
 10
-80.7694049848
 20
232.5765977672
 40
23.1755543674
100
AcDbArc
 50
64.26416861
 51
64.8400800708
  0
ARC
  5
29F
100
AcDbEntity
  8
0
100
AcDbCircle
 62
7
  6
CONTINUOUS
 10
-85.7689745908
 20
235.0312503722
 40
23.1655742279
100
AcDbArc
 50
234.0459857528
 51
238.9954952555
  0
ARC
  5
2A0
100
AcDbEntity
  8
0
100
AcDbCircle
 62
7
  6
CONTINUOUS
 10
-80.7461730428
 20
232.6244774764
 40
23.1223362232
100
AcDbArc
 50
59.9534355753
 51
64.2645081299
  0
ARC
  5
2A1
100
AcDbEntity
  8
0
100
AcDbCircle
 62
7
  6
CONTINUOUS
 10
-85.811360321
 20
234.9635467966
 40
23.0857106031
100
AcDbArc
 50
238.9991075298
 51
240.0345192482
  0
ARC
  5
2A2
100
AcDbEntity
  8
0
100
AcDbCircle
 62
7
  6
CONTINUOUS
 10
-79.6390091825
 20
228.8704539187
 40
22.9207960896
100
AcDbArc
 50
179.9825065371
 51
183.1366430465
  0
ARC
  5
2A3
100
AcDbEntity
  8
0
100
AcDbCircle
 62
7
  6
CONTINUOUS
 10
-80.8036588616
 20
229.7369201548
 40
22.443488252
100
AcDbArc
 50
179.942108139
 51
186.4197101404
  0
ARC
  5
2A4
100
AcDbEntity
  8
0
100
AcDbCircle
 62
7
  6
CONTINUOUS
 10
-81.5919300601
 20
229.656248849
 40
21.6511414421
100
AcDbArc
 50
186.4408059611
 51
186.8643677052
  0
ARC
  5
2A5
100
AcDbEntity
  8
0
100
AcDbCircle
 62
7
  6
CONTINUOUS
 10
-79.5056841864
 20
236.3682181803
 40
19.5998096453
100
AcDbArc
 50
104.6291981334
 51
104.936954825
  0
ARC
  5
2A6
100
AcDbEntity
  8
0
100
AcDbCircle
 62
7
  6
CONTINUOUS
 10
-78.6547372064
 20
236.8239405461
 40
18.9374106887
100
AcDbArc
 50
101.571500366
 51
107.2317944064
  0
ARC
  5
2A7
100
AcDbEntity
  8
0
100
AcDbCircle
 62
7
  6
CONTINUOUS
 10
-78.9270353911
 20
238.0787969148
 40
17.6534450394
100
AcDbArc
 50
97.3062822506
 51
101.5226500089
  0
ARC
  5
2A8
100
AcDbEntity
  8
0
100
AcDbCircle
 62
7
  6
CONTINUOUS
 10
-86.788562164
 20
227.7849922041
 40
16.064981394
100
AcDbArc
 50
217.5365390884
 51
217.8016204404
  0
ARC
  5
2A9
100
AcDbEntity
  8
0
100
AcDbCircle
 62
7
  6
CONTINUOUS
 10
-86.2531919011
 20
227.2714522581
 40
16.0611234472
100
AcDbArc
 50
204.5523156901
 51
210.2829648563
  0
ARC
  5
2AA
100
AcDbEntity
  8
0
100
AcDbCircle
 62
7
  6
CONTINUOUS
 10
-86.981665612
 20
226.8414972605
 40
15.215239956
100
AcDbArc
 50
210.2681370275
 51
215.1499051377
  0
ARC
  5
2AB
100
AcDbEntity
  8
0
100
AcDbCircle
 62
7
  6
CONTINUOUS
 10
-79.5879395554
 20
240.7925522739
 40
15.1127053211
100
AcDbArc
 50
67.0553642825
 51
70.0541065279
  0
ARC
  5
2AC
100
AcDbEntity
  8
0
100
AcDbCircle
 62
7
  6
CONTINUOUS
 10
-79.573070518
 20
240.8285488959
 40
15.0737601169
100
AcDbArc
 50
66.5103413639
 51
67.0540706123
  0
ARC
  5
2AD
100
AcDbEntity
  8
0
100
AcDbCircle
 62
7
  6
CONTINUOUS
 10
-78.7935269534
 20
242.1481988255
 40
13.5428324415
100
AcDbArc
 50
68.5534988667
 51
71.1504807349
  0
ARC
  5
2AE
100
AcDbEntity
  8
0
100
AcDbCircle
 62
7
  6
CONTINUOUS
 10
-78.7618469317
 20
242.2303123032
 40
13.4548213235
100
AcDbArc
 50
67.9193123823
 51
68.5512126984
  0
ARC
  5
2AF
100
AcDbEntity
  8
0
100
AcDbCircle
 62
7
  6
CONTINUOUS
 10
-78.7386549354
 20
242.286995862
 40
13.393577051
100
AcDbArc
 50
65.8597511426
 51
67.9200950659
  0
ARC
  5
2B0
100
AcDbEntity
  8
0
100
AcDbCircle
 62
7
  6
CONTINUOUS
 10
-40.425839775
 20
200.451072434
 40
56.2268369468
100
AcDbArc
 50
132.8016662441
 51
133.8301183495
  0
ARC
  5
2B1
100
AcDbEntity
  8
0
100
AcDbCircle
 62
7
  6
CONTINUOUS
 10
-51.2707205854
 20
219.5509169984
 40
52.5879766846
100
AcDbArc
 50
146.553079239
 51
154.8809760853
  0
ARC
  5
2B2
100
AcDbEntity
  8
0
100
AcDbCircle
 62
7
  6
CONTINUOUS
 10
-51.506036253
 20
219.6866517686
 40
52.4365565973
100
AcDbArc
 50
146.5532946763
 51
154.903143525
  0
ARC
  5
2B3
100
AcDbEntity
  8
0
100
AcDbCircle
 62
7
  6
CONTINUOUS
 10
-51.6083683639
 20
219.7162615609
 40
52.212072575
100
AcDbArc
 50
154.8879729743
 51
155.5046225364
  0
ARC
  5
2B4
100
AcDbEntity
  8
0
100
AcDbCircle
 62
7
  6
CONTINUOUS
 10
-51.8507297734
 20
219.8276068035
 40
51.9453590324
100
AcDbArc
 50
155.5055443559
 51
157.1842731158
  0
ARC
  5
2B5
100
AcDbEntity
  8
0
100
AcDbCircle
 62
7
  6
CONTINUOUS
 10
-38.374381105
 20
212.2365143228
 40
51.2304774882
100
AcDbArc
 50
156.0951501559
 51
157.2121542154
  0
ARC
  5
2B6
100
AcDbEntity
  8
0
100
AcDbCircle
 62
7
  6
CONTINUOUS
 10
-59.1560967518
 20
214.8578924037
 40
48.3263141594
100
AcDbArc
 50
132.3188720459
 51
134.0788067695
  0
ARC
  5
2B7
100
AcDbEntity
  8
0
100
AcDbCircle
 62
7
  6
CONTINUOUS
 10
-46.0015743938
 20
206.6426320021
 40
47.7177956522
100
AcDbArc
 50
132.9376289285
 51
134.1090996432
  0
ARC
  5
2B8
100
AcDbEntity
  8
0
100
AcDbCircle
 62
7
  6
CONTINUOUS
 10
-59.6012311666
 20
215.3378005773
 40
47.6717764788
100
AcDbArc
 50
131.9664020567
 51
132.3116181472
  0
ARC
  5
2B9
100
AcDbEntity
  8
0
100
AcDbCircle
 62
7
  6
CONTINUOUS
 10
-40.8610252973
 20
221.807659427
 40
47.2523990763
100
AcDbArc
 50
178.8338314073
 51
179.9966831861
  0
ARC
  5
2BA
100
AcDbEntity
  8
0
100
AcDbCircle
 62
7
  6
CONTINUOUS
 10
-60.6303518361
 20
205.6410897979
 40
42.7438487634
100
AcDbArc
 50
0.4668259167
 51
2.7369804888
  0
ARC
  5
2BB
100
AcDbEntity
  8
0
100
AcDbCircle
 62
7
  6
CONTINUOUS
 10
-62.7499294269
 20
219.2692105853
 40
42.7315747429
100
AcDbArc
 50
122.4003241951
 51
124.3898211072
  0
ARC
  5
2BC
100
AcDbEntity
  8
0
100
AcDbCircle
 62
7
  6
CONTINUOUS
 10
-62.6309193281
 20
219.2789690832
 40
42.6956289594
100
AcDbArc
 50
122.3996450225
 51
124.097566056
  0
ARC
  5
2BD
100
AcDbEntity
  8
0
100
AcDbCircle
 62
7
  6
CONTINUOUS
 10
-48.2679535296
 20
221.7581145895
 40
39.6767153408
100
AcDbArc
 50
178.6936266749
 51
180.0252552239
  0
ARC
  5
2BE
100
AcDbEntity
  8
0
100
AcDbCircle
 62
7
  6
CONTINUOUS
 10
-59.6532679012
 20
210.1930765698
 40
37.4146549108
100
AcDbArc
 50
105.6640421987
 51
107.0365300165
  0
ARC
  5
2BF
100
AcDbEntity
  8
0
100
AcDbCircle
 62
7
  6
CONTINUOUS
 10
-60.4462159562
 20
220.6181296847
 40
27.6472915945
100
AcDbArc
 50
153.4341957052
 51
155.5094981658
  0
ARC
  5
2C0
100
AcDbEntity
  8
0
100
AcDbCircle
 62
7
  6
CONTINUOUS
 10
-65.8777222979
 20
221.7356875471
 40
22.0669432706
100
AcDbArc
 50
177.5859232441
 51
179.9871785332
  0
ARC
  5
2C1
100
AcDbEntity
  8
0
100
AcDbCircle
 62
7
  6
CONTINUOUS
 10
-59.9491214198
 20
228.6923131164
 40
42.3294312663
100
AcDbArc
 50
175.8576989748
 51
179.9702423276
  0
ARC
  5
2C2
100
AcDbEntity
  8
0
100
AcDbCircle
 62
7
  6
CONTINUOUS
 10
-68.0648201483
 20
251.1621526181
 40
41.8465600353
100
AcDbArc
 50
242.3987172719
 51
244.6201441166
  0
ARC
  5
2C3
100
AcDbEntity
  8
0
100
AcDbCircle
 62
7
  6
CONTINUOUS
 10
-68.0833889984
 20
251.8344646407
 40
35.2780442854
100
AcDbArc
 50
235.4420720369
 51
235.775466962
  0
ARC
  5
2C4
100
AcDbEntity
  8
0
100
AcDbCircle
 62
7
  6
CONTINUOUS
 10
-70.1961174764
 20
251.8864338928
 40
34.0857818768
100
AcDbArc
 50
204.1940395064
 51
210.0274323556
  0
ARC
  5
2C5
100
AcDbEntity
  8
0
100
AcDbCircle
 62
7
  6
CONTINUOUS
 10
-68.7218513266
 20
250.6749693215
 40
33.7842974671
100
AcDbArc
 50
200.7353420837
 51
206.9390712025
  0
ARC
  5
2C6
100
AcDbEntity
  8
0
100
AcDbCircle
 62
7
  6
CONTINUOUS
 10
-72.4808932587
 20
227.5781913248
 40
30.2596801162
100
AcDbArc
 50
148.5722116276
 51
151.5767735145
  0
ARC
  5
2C7
100
AcDbEntity
  8
0
100
AcDbCircle
 62
7
  6
CONTINUOUS
 10
-72.7153383895
 20
227.6979878748
 40
29.9964758065
100
AcDbArc
 50
151.5648629701
 51
157.751888637
  0
ARC
  5
2C8
100
AcDbEntity
  8
0
100
AcDbCircle
 62
7
  6
CONTINUOUS
 10
-62.2443391896
 20
228.2994923158
 40
28.2234400489
100
AcDbArc
 50
211.8661482654
 51
213.5384803715
  0
ARC
  5
2C9
100
AcDbEntity
  8
0
100
AcDbCircle
 62
7
  6
CONTINUOUS
 10
-64.1455117645
 20
226.9960710412
 40
25.8110727179
100
AcDbArc
 50
211.9907580986
 51
213.7624457072
  0
ARC
  5
2CA
100
AcDbEntity
  8
0
100
AcDbCircle
 62
7
  6
CONTINUOUS
 10
-62.4612999888
 20
222.509691102
 40
24.8806420083
100
AcDbArc
 50
130.096593184
 51
132.3254033139
  0
ARC
  5
2CB
100
AcDbEntity
  8
0
100
AcDbCircle
 62
7
  6
CONTINUOUS
 10
-61.58220585
 20
226.9691682729
 40
18.9368417497
100
AcDbArc
 50
105.0058381192
 51
105.343223525
  0
ARC
  5
2CC
100
AcDbEntity
  8
0
100
AcDbCircle
 62
7
  6
CONTINUOUS
 10
-66.3460604165
 20
229.3057302231
 40
15.3435250938
100
AcDbArc
 50
101.3729373886
 51
105.0125734855
  0
ARC
  5
2CD
100
AcDbEntity
  8
0
100
AcDbCircle
 62
7
  6
CONTINUOUS
 10
-61.7529969543
 20
232.2190528699
 40
13.6193009388
100
AcDbArc
 50
70.3505087791
 51
73.4264930244
  0
ARC
  5
2CE
100
AcDbEntity
  8
0
100
AcDbCircle
 62
7
  6
CONTINUOUS
 10
-61.6707298881
 20
232.4382917402
 40
13.385165907
100
AcDbArc
 50
61.6728931581
 51
70.366578102
  0
ARC
  5
2CF
100
AcDbEntity
  8
0
100
AcDbCircle
 62
7
  6
CONTINUOUS
 10
-61.6161206539
 20
232.54690453
 40
13.2636472913
100
AcDbArc
 50
59.987728387
 51
61.6579150777
  0
ARC
  5
2D0
100
AcDbEntity
  8
0
100
AcDbCircle
 62
7
  6
CONTINUOUS
 10
-68.4312611766
 20
239.2988650204
 40
6.8648515684
100
AcDbArc
 50
106.5323061925
 51
107.3565553808
  0
ARC
  5
2D1
100
AcDbEntity
  8
0
100
AcDbCircle
 62
7
  6
CONTINUOUS
 10
-51.8302890313
 20
341.4859242144
 40
135.5898180841
100
AcDbArc
 50
252.8785111732
 51
253.2738322715
  0
ARC
  5
2D2
100
AcDbEntity
  8
0
100
AcDbCircle
 62
7
  6
CONTINUOUS
 10
-47.7889970295
 20
287.6202212981
 40
83.565204205
100
AcDbArc
 50
242.6266955019
 51
242.7612405475
  0
ARC
  5
2D3
100
AcDbEntity
  8
0
100
AcDbCircle
 62
7
  6
CONTINUOUS
 10
-56.4307209344
 20
285.8861554027
 40
81.8763077954
100
AcDbArc
 50
240.021602841
 51
250.2974274031
  0
ARC
  5
2D4
100
AcDbEntity
  8
0
100
AcDbCircle
 62
7
  6
CONTINUOUS
 10
-56.5147619256
 20
285.6854711598
 40
81.6590420874
100
AcDbArc
 50
251.0634802721
 51
251.5668845885
  0
ARC
  5
2D5
100
AcDbEntity
  8
0
100
AcDbCircle
 62
7
  6
CONTINUOUS
 10
-56.5230312916
 20
285.6613924866
 40
81.6335830054
100
AcDbArc
 50
250.3052392135
 51
251.0634857447
  0
ARC
  5
2D6
100
AcDbEntity
  8
0
100
AcDbCircle
 62
7
  6
CONTINUOUS
 10
-57.8380519314
 20
282.4696520892
 40
78.1685986903
100
AcDbArc
 50
247.6657645836
 51
248.9303373932
  0
ARC
  5
2D7
100
AcDbEntity
  8
0
100
AcDbCircle
 62
7
  6
CONTINUOUS
 10
-57.9725742426
 20
282.1558934521
 40
77.8272578362
100
AcDbArc
 50
244.5772122403
 51
247.6695925925
  0
ARC
  5
2D8
100
AcDbEntity
  8
0
100
AcDbCircle
 62
7
  6
CONTINUOUS
 10
-58.1414635173
 20
281.7951985935
 40
77.4289863135
100
AcDbArc
 50
244.4529000432
 51
244.5754833221
  0
ARC
  5
2D9
100
AcDbEntity
  8
0
100
AcDbCircle
 62
7
  6
CONTINUOUS
 10
-55.2597818023
 20
283.9849985158
 40
77.0746837693
100
AcDbArc
 50
246.3208882022
 51
246.4647270126
  0
ARC
  5
2DA
100
AcDbEntity
  8
0
100
AcDbCircle
 62
7
  6
CONTINUOUS
 10
-58.2895512077
 20
281.2973056305
 40
76.9123153649
100
AcDbArc
 50
248.930227177
 51
250.4628688588
  0
ARC
  5
2DB
100
AcDbEntity
  8
0
100
AcDbCircle
 62
7
  6
CONTINUOUS
 10
-58.60094429
 20
280.846691543
 40
76.3750615484
100
AcDbArc
 50
242.9622146712
 51
244.457034636
  0
ARC
  5
2DC
100
AcDbEntity
  8
0
100
AcDbCircle
 62
7
  6
CONTINUOUS
 10
-58.7523027416
 20
280.0109820377
 40
75.5452998366
100
AcDbArc
 50
250.4673733605
 51
250.9217673537
  0
ARC
  5
2DD
100
AcDbEntity
  8
0
100
AcDbCircle
 62
7
  6
CONTINUOUS
 10
-59.0528088907
 20
279.1412581208
 40
74.6251240058
100
AcDbArc
 50
250.9215549177
 51
251.8355367686
  0
ARC
  5
2DE
100
AcDbEntity
  8
0
100
AcDbCircle
 62
7
  6
CONTINUOUS
 10
-59.4428113765
 20
279.2071318147
 40
74.5320002123
100
AcDbArc
 50
241.4062016676
 51
242.9657117247
  0
ARC
  5
2DF
100
AcDbEntity
  8
0
100
AcDbCircle
 62
7
  6
CONTINUOUS
 10
-60.5390428703
 20
277.2141428493
 40
72.2574341901
100
AcDbArc
 50
239.4128223937
 51
241.4130932609
  0
ARC
  5
2E0
100
AcDbEntity
  8
0
100
AcDbCircle
 62
7
  6
CONTINUOUS
 10
-61.8221502934
 20
275.0572342791
 40
69.7477393809
100
AcDbArc
 50
237.4288268915
 51
239.4185976211
  0
ARC
  5
2E1
100
AcDbEntity
  8
0
100
AcDbCircle
 62
7
  6
CONTINUOUS
 10
-60.4475489591
 20
272.8987081985
 40
67.8742861408
100
AcDbArc
 50
235.0250217665
 51
236.3093182334
  0
ARC
  5
2E2
100
AcDbEntity
  8
0
100
AcDbCircle
 62
7
  6
CONTINUOUS
 10
-62.2442599698
 20
265.1140270923
 40
60.2193373252
100
AcDbArc
 50
248.8457412935
 51
250.4394084721
  0
ARC
  5
2E3
100
AcDbEntity
  8
0
100
AcDbCircle
 62
7
  6
CONTINUOUS
 10
-60.2915816149
 20
263.3517051133
 40
49.1906422086
100
AcDbArc
 50
235.6803741445
 51
235.8091062554
  0
ARC
  5
2E4
100
AcDbEntity
  8
0
100
AcDbCircle
 62
7
  6
CONTINUOUS
 10
-67.9719916178
 20
254.9259952585
 40
45.3571676263
100
AcDbArc
 50
243.5051339239
 51
244.5261461437
  0
ARC
  5
2E5
100
AcDbEntity
  8
0
100
AcDbCircle
 62
7
  6
CONTINUOUS
 10
-68.3971928252
 20
254.135798303
 40
44.4625777819
100
AcDbArc
 50
244.5855343188
 51
246.3772888681
  0
ARC
  5
2E6
100
AcDbEntity
  8
0
100
AcDbCircle
 62
7
  6
CONTINUOUS
 10
-61.4381358521
 20
261.6410826997
 40
37.2243436412
100
AcDbArc
 50
230.0182089312
 51
230.3111183959
  0
ARC
  5
2E7
100
AcDbEntity
  8
0
100
AcDbCircle
 62
7
  6
CONTINUOUS
 10
-60.2376985615
 20
259.5611151754
 40
36.4600009562
100
AcDbArc
 50
226.4770551618
 51
226.7698053271
  0
ARC
  5
2E8
100
AcDbEntity
  8
0
100
AcDbCircle
 62
7
  6
CONTINUOUS
 10
-53.8652265833
 20
265.364296855
 40
34.2501048905
100
AcDbArc
 50
221.5883568254
 51
223.6919440927
  0
ARC
  5
2E9
100
AcDbEntity
  8
0
100
AcDbCircle
 62
7
  6
CONTINUOUS
 10
-64.0339709319
 20
258.5767146257
 40
33.2084328346
100
AcDbArc
 50
227.7171431285
 51
230.0528502898
  0
ARC
  5
2EA
100
AcDbEntity
  8
0
100
AcDbCircle
 62
7
  6
CONTINUOUS
 10
-54.5847271026
 20
264.6015390614
 40
33.2019482828
100
AcDbArc
 50
221.0175795252
 51
221.428710525
  0
ARC
  5
2EB
100
AcDbEntity
  8
0
100
AcDbCircle
 62
7
  6
CONTINUOUS
 10
-44.4538590814
 20
267.43331013
 40
33.0186722981
100
AcDbArc
 50
219.9798738138
 51
220.2558110164
  0
ARC
  5
2EC
100
AcDbEntity
  8
0
100
AcDbCircle
 62
7
  6
CONTINUOUS
 10
-64.3748460183
 20
258.1787621272
 40
32.6839653137
100
AcDbArc
 50
226.3299913715
 51
227.6896663534
  0
ARC
  5
2ED
100
AcDbEntity
  8
0
100
AcDbCircle
 62
7
  6
CONTINUOUS
 10
-54.9927657927
 20
264.2474800341
 40
32.6617141336
100
AcDbArc
 50
220.1888407719
 51
221.0187223669
  0
ARC
  5
2EE
100
AcDbEntity
  8
0
100
AcDbCircle
 62
7
  6
CONTINUOUS
 10
-54.9637957154
 20
264.1822684104
 40
32.6389140401
100
AcDbArc
 50
223.5238460299
 51
223.8361123409
  0
ARC
  5
2EF
100
AcDbEntity
  8
0
100
AcDbCircle
 62
7
  6
CONTINUOUS
 10
-63.1055725125
 20
256.9847235819
 40
32.605775403
100
AcDbArc
 50
224.6884599512
 51
227.4026190279
  0
ARC
  5
2F0
100
AcDbEntity
  8
0
100
AcDbCircle
 62
7
  6
CONTINUOUS
 10
-55.6630840107
 20
261.6417673708
 40
30.4048602785
100
AcDbArc
 50
220.9736676843
 51
221.2946982438
  0
ARC
  5
2F1
100
AcDbEntity
  8
0
100
AcDbCircle
 62
7
  6
CONTINUOUS
 10
-46.7429461561
 20
265.0212067912
 40
29.7152127559
100
AcDbArc
 50
219.271502575
 51
219.5585228742
  0
ARC
  5
2F2
100
AcDbEntity
  8
0
100
AcDbCircle
 62
7
  6
CONTINUOUS
 10
-71.2520050229
 20
256.324984407
 40
14.2908389159
100
AcDbArc
 50
183.9986254753
 51
185.3177642157
  0
ARC
  5
2F3
100
AcDbEntity
  8
0
100
AcDbCircle
 62
7
  6
CONTINUOUS
 10
-16.8769029745
 20
195.2463630503
 40
31.5277980939
100
AcDbArc
 50
130.7832763495
 51
133.7879292251
  0
ARC
  5
2F4
100
AcDbEntity
  8
0
100
AcDbCircle
 62
7
  6
CONTINUOUS
 10
-21.5148028678
 20
195.3111459426
 40
28.9813523415
100
AcDbArc
 50
178.0147376766
 51
180.032402418
  0
ARC
  5
2F5
100
AcDbEntity
  8
0
100
AcDbCircle
 62
7
  6
CONTINUOUS
 10
-22.3410354792
 20
195.3080087571
 40
28.1551182146
100
AcDbArc
 50
180.0269691065
 51
182.103710183
  0
ARC
  5
2F6
100
AcDbEntity
  8
0
100
AcDbCircle
 62
7
  6
CONTINUOUS
 10
-20.7405919039
 20
194.643066175
 40
27.8108807538
100
AcDbArc
 50
179.9998686553
 51
180.5195371656
  0
ARC
  5
2F7
100
AcDbEntity
  8
0
100
AcDbCircle
 62
7
  6
CONTINUOUS
 10
-23.522789746
 20
195.2554930567
 40
26.9722341946
100
AcDbArc
 50
182.0843795595
 51
185.5542318343
  0
ARC
  5
2F8
100
AcDbEntity
  8
0
100
AcDbCircle
 62
7
  6
CONTINUOUS
 10
-25.0070792809
 20
195.0982402659
 40
25.4796964297
100
AcDbArc
 50
185.52532891
 51
190.0283523882
  0
ARC
  5
2F9
100
AcDbEntity
  8
0
100
AcDbCircle
 62
7
  6
CONTINUOUS
 10
-26.4724446907
 20
194.8336328391
 40
23.9906423709
100
AcDbArc
 50
190.0154735649
 51
193.7311895845
  0
ARC
  5
2FA
100
AcDbEntity
  8
0
100
AcDbCircle
 62
7
  6
CONTINUOUS
 10
-27.8264804808
 20
194.48941843
 40
22.5936034437
100
AcDbArc
 50
193.6982899924
 51
198.6322763333
  0
ARC
  5
2FB
100
AcDbEntity
  8
0
100
AcDbCircle
 62
7
  6
CONTINUOUS
 10
-29.0780949465
 20
194.0625397296
 40
21.2712035444
100
AcDbArc
 50
198.6198235783
 51
202.5742750363
  0
ARC
  5
2FC
100
AcDbEntity
  8
0
100
AcDbCircle
 62
7
  6
CONTINUOUS
 10
-30.1784566451
 20
193.5918007524
 40
20.074444727
100
AcDbArc
 50
202.5392700996
 51
208.0014877804
  0
ARC
  5
2FD
100
AcDbEntity
  8
0
100
AcDbCircle
 62
7
  6
CONTINUOUS
 10
-31.1161028291
 20
193.0897130713
 40
19.0108365683
100
AcDbArc
 50
207.992171156
 51
212.1134853188
  0
ARC
  5
2FE
100
AcDbEntity
  8
0
100
AcDbCircle
 62
7
  6
CONTINUOUS
 10
-31.8902585401
 20
192.5911133341
 40
18.0900777494
100
AcDbArc
 50
212.0793651487
 51
218.2282426882
  0
ARC
  5
2FF
100
AcDbEntity
  8
0
100
AcDbCircle
 62
7
  6
CONTINUOUS
 10
-32.4725195659
 20
192.1313079819
 40
17.3481559081
100
AcDbArc
 50
218.2252689855
 51
222.2996168766
  0
ARC
  5
300
100
AcDbEntity
  8
0
100
AcDbCircle
 62
7
  6
CONTINUOUS
 10
-32.8698123936
 20
191.7626930456
 40
16.8062241723
100
AcDbArc
 50
222.2816856836
 51
229.5386982723
  0
ARC
  5
301
100
AcDbEntity
  8
0
100
AcDbCircle
 62
7
  6
CONTINUOUS
 10
-33.1563825001
 20
191.433601793
 40
16.3698723604
100
AcDbArc
 50
229.5543669374
 51
233.0517317398
  0
ARC
  5
302
100
AcDbEntity
  8
0
100
AcDbCircle
 62
7
  6
CONTINUOUS
 10
-31.8120064837
 20
190.5366823452
 40
16.2648117459
100
AcDbArc
 50
233.3493411332
 51
234.2482353629
  0
ARC
  5
303
100
AcDbEntity
  8
0
100
AcDbCircle
 62
7
  6
CONTINUOUS
 10
-33.2483984196
 20
191.3098815112
 40
16.215687596
100
AcDbArc
 50
233.0487978819
 51
239.9851244798
  0
ARC
  5
304
100
AcDbEntity
  8
0
100
AcDbCircle
 62
7
  6
CONTINUOUS
 10
-31.8520363056
 20
190.4792458469
 40
16.1948104367
100
AcDbArc
 50
234.2444418429
 51
239.9880970008
  0
ARC
  5
305
100
AcDbEntity
  8
0
100
AcDbCircle
 62
7
  6
CONTINUOUS
 10
-27.6116991734
 20
178.2656041828
 40
4.5802077775
100
AcDbArc
 50
320.9619051867
 51
333.2744512619
  0
ARC
  5
306
100
AcDbEntity
  8
0
100
AcDbCircle
 62
7
  6
CONTINUOUS
 10
-3.440575134
 20
164.0072410001
 40
3.7240557433
100
AcDbArc
 50
175.0803647584
 51
179.9587005007
  0
ARC
  5
307
100
AcDbEntity
  8
0
100
AcDbCircle
 62
7
  6
CONTINUOUS
 10
-4.8527619928
 20
165.5615920654
 40
3.4732563741
100
AcDbArc
 50
359.9846177249
 51
5.09411647
  0
ARC
  5
308
100
AcDbEntity
  8
0
100
AcDbCircle
 62
7
  6
CONTINUOUS
 10
-29.6710881287
 20
208.2813175526
 40
60.9730744953
100
AcDbArc
 50
155.9622682236
 51
156.9322244151
  0
ARC
  5
309
100
AcDbEntity
  8
0
100
AcDbCircle
 62
7
  6
CONTINUOUS
 10
-16.0647886557
 20
200.0716804409
 40
26.9197128804
100
AcDbArc
 50
99.9153522679
 51
103.2047046701
  0
ARC
  5
30A
100
AcDbEntity
  8
0
100
AcDbCircle
 62
7
  6
CONTINUOUS
 10
-16.0895827139
 20
200.1832415792
 40
26.8054377088
100
AcDbArc
 50
103.207580622
 51
104.5886382974
  0
ARC
  5
30B
100
AcDbEntity
  8
0
100
AcDbCircle
 62
7
  6
CONTINUOUS
 10
-7.698389335
 20
208.568988006
 40
26.4604160132
100
AcDbArc
 50
91.9024738345
 51
94.2881327947
  0
ARC
  5
30C
100
AcDbEntity
  8
0
100
AcDbCircle
 62
7
  6
CONTINUOUS
 10
-24.9839096589
 20
207.8225333105
 40
22.144511026
100
AcDbArc
 50
99.6988099955
 51
105.0494728584
  0
ARC
  5
30D
100
AcDbEntity
  8
0
100
AcDbCircle
 62
7
  6
CONTINUOUS
 10
-25.1008940486
 20
208.472612988
 40
21.4840155071
100
AcDbArc
 50
99.5049486559
 51
99.6833576531
  0
ARC
  5
30E
100
AcDbEntity
  8
0
100
AcDbCircle
 62
7
  6
CONTINUOUS
 10
-8.0733854982
 20
213.6955439322
 40
21.3201628793
100
AcDbArc
 50
94.4009031328
 51
95.8978673354
  0
ARC
  5
30F
100
AcDbEntity
  8
0
100
AcDbCircle
 62
7
  6
CONTINUOUS
 10
-22.9691070291
 20
214.2014078941
 40
12.900912198
100
AcDbArc
 50
74.0195065867
 51
79.6396446484
  0
ARC
  5
310
100
AcDbEntity
  8
0
100
AcDbCircle
 62
7
  6
CONTINUOUS
 10
-24.9724383957
 20
224.8813499981
 40
6.0266945921
100
AcDbArc
 50
118.0332504379
 51
121.5836013309
  0
ARC
  5
311
100
AcDbEntity
  8
0
100
AcDbCircle
 62
7
  6
CONTINUOUS
 10
-25.1905923978
 20
225.240351714
 40
5.606613322
100
AcDbArc
 50
121.6059200023
 51
121.8177233647
  0
ARC
  5
312
100
AcDbEntity
  8
0
100
AcDbCircle
 62
7
  6
CONTINUOUS
 10
-28.3786136606
 20
231.5305008435
 40
5.5453562975
100
AcDbArc
 50
273.9043494647
 51
275.5808601406
  0
ARC
  5
313
100
AcDbEntity
  8
0
100
AcDbCircle
 62
7
  6
CONTINUOUS
 10
-28.3623602601
 20
231.3914115845
 40
5.4053463289
100
AcDbArc
 50
275.5527719809
 51
284.9879415253
  0
ARC
  5
314
100
AcDbEntity
  8
0
100
AcDbCircle
 62
7
  6
CONTINUOUS
 10
-28.3612314865
 20
231.3764716367
 40
5.3906234288
100
AcDbArc
 50
285.0174186859
 51
291.8027403959
  0
ARC
  5
315
100
AcDbEntity
  8
0
100
AcDbCircle
 62
7
  6
CONTINUOUS
 10
-28.5759537291
 20
231.7110066598
 40
3.7623916204
100
AcDbArc
 50
276.3133011254
 51
278.7887636164
  0
ARC
  5
316
100
AcDbEntity
  8
0
100
AcDbCircle
 62
7
  6
CONTINUOUS
 10
-22.1808852215
 20
219.2402964432
 40
0.5543926954
100
AcDbArc
 50
272.388314219
 51
284.9303063485
  0
ARC
  5
317
100
AcDbEntity
  8
0
100
AcDbCircle
 62
7
  6
CONTINUOUS
 10
-22.9444406512
 20
222.0849762179
 40
0.5502096132
100
AcDbArc
 50
92.3409626883
 51
104.9787141885
  0
ARC
  5
318
100
AcDbEntity
  8
0
100
AcDbCircle
 62
7
  6
CONTINUOUS
 10
6.7517869515
 20
193.7475549777
 40
42.9969006442
100
AcDbArc
 50
105.0055970958
 51
105.2113062748
  0
ARC
  5
319
100
AcDbEntity
  8
0
100
AcDbCircle
 62
7
  6
CONTINUOUS
 10
7.4494920805
 20
182.5430338417
 40
34.5103031569
100
AcDbArc
 50
130.2582887441
 51
131.6174001084
  0
ARC
  5
31A
100
AcDbEntity
  8
0
100
AcDbCircle
 62
7
  6
CONTINUOUS
 10
30.6734662567
 20
226.8002833647
 40
8.9412349353
100
AcDbArc
 50
315.8060751754
 51
318.9807423599
  0
ARC
  5
31B
100
AcDbEntity
  8
0
100
AcDbCircle
 62
7
  6
CONTINUOUS
 10
10.8948410775
 20
284.6784010602
 40
71.2007540804
100
AcDbArc
 50
268.9989680967
 51
269.7924920328
  0
ARC
  5
31C
100
AcDbEntity
  8
0
100
AcDbCircle
 62
7
  6
CONTINUOUS
 10
10.8962819933
 20
280.9718904147
 40
71.1725894097
100
AcDbArc
 50
268.9987986721
 51
269.7931998251
  0
ARC
  5
31D
100
AcDbEntity
  8
0
100
AcDbCircle
 62
7
  6
CONTINUOUS
 10
10.8881564666
 20
284.3105143883
 40
70.8328068761
100
AcDbArc
 50
267.7647688923
 51
268.9991755347
  0
ARC
  5
31E
100
AcDbEntity
  8
0
100
AcDbCircle
 62
7
  6
CONTINUOUS
 10
-34.2159717478
 20
276.1784006838
 40
46.4830790705
100
AcDbArc
 50
218.7560715319
 51
220.1313177257
  0
ARC
  5
31F
100
AcDbEntity
  8
0
100
AcDbCircle
 62
7
  6
CONTINUOUS
 10
-36.8366827047
 20
273.9378888473
 40
43.0338915042
100
AcDbArc
 50
217.7895932653
 51
218.6163854657
  0
SPLINE
  5
320
100
AcDbEntity
  8
0
100
AcDbSpline
 62
7
  6
CONTINUOUS
 70
0
 71
3
 72
37
 73
33
 74
0
 42
0.0000001
 43
0.0000001
 44
0.0000000001
 40
0.0
 40
0.0
 40
0.0
 40
0.0
 40
0.0256145961
 40
0.0527813391
 40
0.0814827111
 40
0.1116786313
 40
0.1433098543
 40
0.1762933696
 40
0.2105087988
 40
0.2458173219
 40
0.2820655159
 40
0.3190852558
 40
0.3567014071
 40
0.394727456
 40
0.4712238813
 40
0.5470466016
 40
0.5842397184
 40
0.6207047585
 40
0.6562717502
 40
0.6907845389
 40
0.7240985976
 40
0.7560942183
 40
0.7866701336
 40
0.8157540332
 40
0.8433094581
 40
0.8693329419
 40
0.8938743145
 40
0.9170320987
 40
0.9389667519
 40
0.9599062077
 40
0.980137232
 40
1.0
 40
1.0
 40
1.0
 40
1.0
 10
-22.5623486326
 20
218.798902318
 30
0.0
 10
-22.5948941335
 20
218.8176999948
 30
0.0
 10
-22.6599494075
 20
218.8599818935
 30
0.0
 10
-22.7540429605
 20
218.9339585348
 30
0.0
 10
-22.8467956059
 20
219.0198410306
 30
0.0
 10
-22.9375175251
 20
219.1170084405
 30
0.0
 10
-23.0256386907
 20
219.2247727287
 30
0.0
 10
-23.1105404922
 20
219.3424323519
 30
0.0
 10
-23.191687033
 20
219.469158738
 30
0.0
 10
-23.2684930222
 20
219.6040957849
 30
0.0
 10
-23.3404222328
 20
219.7463151119
 30
0.0
 10
-23.4070096509
 20
219.8948265044
 30
0.0
 10
-23.4677589009
 20
220.0486284429
 30
0.0
 10
-23.5405959308
 20
220.2597060214
 30
0.0
 10
-23.6144847664
 20
220.5294243762
 30
0.0
 10
-23.6647980933
 20
220.8032909075
 30
0.0
 10
-23.689812113
 20
221.0212576773
 30
0.0
 10
-23.700686274
 20
221.1812157535
 30
0.0
 10
-23.7037034109
 20
221.3375827305
 30
0.0
 10
-23.6988815857
 20
221.4892857501
 30
0.0
 10
-23.6862041525
 20
221.6352835965
 30
0.0
 10
-23.6657973485
 20
221.7745768122
 30
0.0
 10
-23.6377834791
 20
221.9062160683
 30
0.0
 10
-23.6023275322
 20
222.0292983369
 30
0.0
 10
-23.5597063489
 20
222.1430015166
 30
0.0
 10
-23.5101306018
 20
222.2465342044
 30
0.0
 10
-23.4539546483
 20
222.3392050763
 30
0.0
 10
-23.3915030125
 20
222.420368422
 30
0.0
 10
-23.3231318659
 20
222.4894062371
 30
0.0
 10
-23.2492992109
 20
222.545824343
 30
0.0
 10
-23.1704824544
 20
222.5890599536
 30
0.0
 10
-23.114797202
 20
222.6089397342
 30
0.0
 10
-23.0866479261
 20
222.6164907609
 30
0.0
  0
SPLINE
  5
321
100
AcDbEntity
  8
0
100
AcDbSpline
 62
7
  6
CONTINUOUS
 70
0
 71
3
 72
13
 73
9
 74
0
 42
0.0000001
 43
0.0000001
 44
0.0000000001
 40
0.0
 40
0.0
 40
0.0
 40
0.0
 40
0.1146813577
 40
0.2304606432
 40
0.3484127338
 40
0.4695291984
 40
0.7243391301
 40
1.0
 40
1.0
 40
1.0
 40
1.0
 10
-22.0380493391
 20
218.7046190594
 30
0.0
 10
-22.0582256378
 20
218.6992067791
 30
0.0
 10
-22.0994405461
 20
218.6906697236
 30
0.0
 10
-22.1627815948
 20
218.685006498
 30
0.0
 10
-22.2275339746
 20
218.6864438517
 30
0.0
 10
-22.3169020567
 20
218.6979881496
 30
0.0
 10
-22.4316286212
 20
218.7312214582
 30
0.0
 10
-22.5188676063
 20
218.7737884847
 30
0.0
 10
-22.5623486326
 20
218.798902318
 30
0.0
  0
SPLINE
  5
322
100
AcDbEntity
  8
0
100
AcDbSpline
 62
7
  6
CONTINUOUS
 70
0
 71
3
 72
9
 73
5
 74
0
 42
0.0000001
 43
0.0000001
 44
0.0000000001
 40
0.0
 40
0.0
 40
0.0
 40
0.0
 40
0.4944272561
 40
1.0
 40
1.0
 40
1.0
 40
1.0
 10
-22.9669145901
 20
222.6347266527
 30
0.0
 10
-22.9479230909
 20
222.635527088
 30
0.0
 10
-22.909410148
 20
222.6352283806
 30
0.0
 10
-22.8711076739
 20
222.631268343
 30
0.0
 10
-22.85188254
 20
222.6284073325
 30
0.0
  0
SPLINE
  5
323
100
AcDbEntity
  8
0
100
AcDbSpline
 62
7
  6
CONTINUOUS
 70
0
 71
3
 72
10
 73
6
 74
0
 42
0.0000001
 43
0.0000001
 44
0.0000000001
 40
0.0
 40
0.0
 40
0.0
 40
0.0
 40
0.2336031054
 40
0.478222986
 40
1.0
 40
1.0
 40
1.0
 40
1.0
 10
-22.5623486326
 20
222.5222075024
 30
0.0
 10
-22.5373558286
 20
222.5077721229
 30
0.0
 10
-22.4873689658
 20
222.4761391532
 30
0.0
 10
-22.3879053325
 20
222.4027257143
 30
0.0
 10
-22.3174836132
 20
222.3389541309
 30
0.0
 10
-22.2720701395
 20
222.2931988328
 30
0.0
  0
SPLINE
  5
324
100
AcDbEntity
  8
0
100
AcDbSpline
 62
7
  6
CONTINUOUS
 70
0
 71
3
 72
33
 73
29
 74
0
 42
0.0000001
 43
0.0000001
 44
0.0000000001
 40
0.0
 40
0.0
 40
0.0
 40
0.0
 40
0.029831383
 40
0.0609390354
 40
0.0932584063
 40
0.1266966351
 40
0.1964666238
 40
0.2692769043
 40
0.3064825271
 40
0.3440173185
 40
0.4194442955
 40
0.4943322466
 40
0.5311990203
 40
0.5674796947
 40
0.6030325882
 40
0.6377278152
 40
0.7040450887
 40
0.7354842893
 40
0.7656591103
 40
0.7945106823
 40
0.8220072286
 40
0.8481383807
 40
0.8729300309
 40
0.918720856
 40
0.9400352147
 40
0.9605209965
 40
0.9804172421
 40
1.0
 40
1.0
 40
1.0
 40
1.0
 10
-22.2720701395
 20
222.2931988328
 30
0.0
 10
-22.2438672009
 20
222.2647836125
 30
0.0
 10
-22.1881687984
 20
222.2048124983
 30
0.0
 10
-22.1085413745
 20
222.1081701432
 30
0.0
 10
-22.0314729775
 20
222.0034012443
 30
0.0
 10
-21.9312571126
 20
221.8515365244
 30
0.0
 10
-21.8156099537
 20
221.6451476147
 30
0.0
 10
-21.7160261169
 20
221.4250613742
 30
0.0
 10
-21.645351405
 20
221.2400343355
 30
0.0
 10
-21.5809015924
 20
221.0490360071
 30
0.0
 10
-21.5143347815
 20
220.805602012
 30
0.0
 10
-21.466930007
 20
220.5586245149
 30
0.0
 10
-21.4413199454
 20
220.3615626338
 30
0.0
 10
-21.4284820469
 20
220.2162037637
 30
0.0
 10
-21.4220208054
 20
220.073331435
 30
0.0
 10
-21.4219240789
 20
219.8900154345
 30
0.0
 10
-21.4341686569
 20
219.7123178807
 30
0.0
 10
-21.4599057795
 20
219.5424903965
 30
0.0
 10
-21.4850540733
 20
219.4236354074
 30
0.0
 10
-21.5162696318
 20
219.3117023489
 30
0.0
 10
-21.5533411781
 20
219.2073051764
 30
0.0
 10
-21.5961291112
 20
219.1110048127
 30
0.0
 10
-21.658760924
 20
218.9972284758
 30
0.0
 10
-21.7331908219
 20
218.897506655
 30
0.0
 10
-21.8193099781
 20
218.8171120347
 30
0.0
 10
-21.8867086895
 20
218.7685856285
 30
0.0
 10
-21.9580586722
 20
218.7308222638
 30
0.0
 10
-22.0081496271
 20
218.7128986785
 30
0.0
 10
-22.0334729326
 20
218.7058681221
 30
0.0
  0
SPLINE
  5
325
100
AcDbEntity
  8
0
100
AcDbSpline
 62
7
  6
CONTINUOUS
 70
0
 71
3
 72
9
 73
5
 74
0
 42
0.0000001
 43
0.0000001
 44
0.0000000001
 40
0.0
 40
0.0
 40
0.0
 40
0.0
 40
0.247162776
 40
1.0
 40
1.0
 40
1.0
 40
1.0
 10
-75.3691695698
 20
256.3822871435
 30
0.0
 10
-75.7017265335
 20
256.3701834456
 30
0.0
 10
-77.0462765717
 20
256.2973012145
 30
0.0
 10
-78.3854648664
 20
256.1298342956
 30
0.0
 10
-79.3838313097
 20
255.9546981069
 30
0.0
  0
SPLINE
  5
326
100
AcDbEntity
  8
0
100
AcDbSpline
 62
7
  6
CONTINUOUS
 70
0
 71
3
 72
9
 73
5
 74
0
 42
0.0000001
 43
0.0000001
 44
0.0000000001
 40
0.0
 40
0.0
 40
0.0
 40
0.0
 40
0.2477196843
 40
1.0
 40
1.0
 40
1.0
 40
1.0
 10
-79.3838313097
 20
255.9546981069
 30
0.0
 10
-79.6386297863
 20
255.910000657
 30
0.0
 10
-80.6649088491
 20
255.7166576125
 30
0.0
 10
-81.6814827047
 20
255.4721974891
 30
0.0
 10
-82.4383336301
 20
255.2616437084
 30
0.0
  0
SPLINE
  5
327
100
AcDbEntity
  8
0
100
AcDbSpline
 62
7
  6
CONTINUOUS
 70
0
 71
3
 72
9
 73
5
 74
0
 42
0.0000001
 43
0.0000001
 44
0.0000000001
 40
0.0
 40
0.0
 40
0.0
 40
0.0
 40
0.2529139074
 40
1.0
 40
1.0
 40
1.0
 40
1.0
 10
-101.3760129727
 20
238.0167779959
 30
0.0
 10
-101.4863107861
 20
237.4974838623
 30
0.0
 10
-101.8879311772
 20
235.4371118164
 30
0.0
 10
-102.1499845246
 20
233.3491658892
 30
0.0
 10
-102.2603593014
 20
231.7848852116
 30
0.0
  0
SPLINE
  5
328
100
AcDbEntity
  8
0
100
AcDbSpline
 62
7
  6
CONTINUOUS
 70
0
 71
3
 72
9
 73
5
 74
0
 42
0.0000001
 43
0.0000001
 44
0.0000000001
 40
0.0
 40
0.0
 40
0.0
 40
0.0
 40
0.2472811397
 40
1.0
 40
1.0
 40
1.0
 40
1.0
 10
-86.8855949423
 20
254.5318980912
 30
0.0
 10
-87.2894095788
 20
254.2555770353
 30
0.0
 10
-88.9034660615
 20
253.1106169361
 30
0.0
 10
-90.4407913742
 20
251.8579813916
 30
0.0
 10
-91.5499280722
 20
250.8638821524
 30
0.0
  0
SPLINE
  5
329
100
AcDbEntity
  8
0
100
AcDbSpline
 62
7
  6
CONTINUOUS
 70
0
 71
3
 72
14
 73
10
 74
0
 42
0.0000001
 43
0.0000001
 44
0.0000000001
 40
0.0
 40
0.0
 40
0.0
 40
0.0
 40
0.2491741077
 40
0.3795053283
 40
0.5105479564
 40
0.6400330115
 40
0.7658381597
 40
0.8862056204
 40
1.0
 40
1.0
 40
1.0
 40
1.0
 10
-86.310570203
 20
221.9980274086
 30
0.0
 10
-86.3105641783
 20
224.413354412
 30
0.0
 10
-85.6344242015
 20
228.1160082569
 30
0.0
 10
-83.6865782061
 20
232.6757803327
 30
0.0
 10
-81.6937156006
 20
235.9164538796
 30
0.0
 10
-79.2707076861
 20
238.7898882968
 30
0.0
 10
-76.5099308354
 20
241.1886551505
 30
0.0
 10
-73.5205305873
 20
243.019696045
 30
0.0
 10
-71.3859429907
 20
243.8399739634
 30
0.0
 10
-70.3205092194
 20
244.1255655467
 30
0.0
  0
SPLINE
  5
32A
100
AcDbEntity
  8
0
100
AcDbSpline
 62
7
  6
CONTINUOUS
 70
0
 71
3
 72
9
 73
5
 74
0
 42
0.0000001
 43
0.0000001
 44
0.0000000001
 40
0.0
 40
0.0
 40
0.0
 40
0.0
 40
0.4870279296
 40
1.0
 40
1.0
 40
1.0
 40
1.0
 10
-85.4103270656
 20
216.381019759
 30
0.0
 10
-85.7141443823
 20
217.2565340111
 30
0.0
 10
-86.1694431515
 20
219.11560314
 30
0.0
 10
-86.3105726378
 20
221.0219292398
 30
0.0
 10
-86.310570203
 20
221.9980274086
 30
0.0
  0
SPLINE
  5
32B
100
AcDbEntity
  8
0
100
AcDbSpline
 62
7
  6
CONTINUOUS
 70
0
 71
3
 72
9
 73
5
 74
0
 42
0.0000001
 43
0.0000001
 44
0.0000000001
 40
0.0
 40
0.0
 40
0.0
 40
0.0
 40
0.2540773322
 40
1.0
 40
1.0
 40
1.0
 40
1.0
 10
-102.5423897668
 20
224.1489163378
 30
0.0
 10
-102.3698988824
 20
223.71406671
 30
0.0
 10
-101.6515529144
 20
222.0186003369
 30
0.0
 10
-100.7721102459
 20
220.3905659015
 30
0.0
 10
-100.0280597898
 20
219.2361703877
 30
0.0
  0
SPLINE
  5
32C
100
AcDbEntity
  8
0
100
AcDbSpline
 62
7
  6
CONTINUOUS
 70
0
 71
3
 72
9
 73
5
 74
0
 42
0.0000001
 43
0.0000001
 44
0.0000000001
 40
0.0
 40
0.0
 40
0.0
 40
0.0
 40
0.4940903882
 40
1.0
 40
1.0
 40
1.0
 40
1.0
 10
-99.5275294145
 20
217.9971251954
 30
0.0
 10
-100.2186552334
 20
218.8966283183
 30
0.0
 10
-101.4264282343
 20
220.8705771261
 30
0.0
 10
-102.2237976205
 20
223.0394038976
 30
0.0
 10
-102.5266518912
 20
224.1607147526
 30
0.0
  0
SPLINE
  5
32D
100
AcDbEntity
  8
0
100
AcDbSpline
 62
7
  6
CONTINUOUS
 70
0
 71
3
 72
12
 73
8
 74
0
 42
0.0000001
 43
0.0000001
 44
0.0000000001
 40
0.0
 40
0.0
 40
0.0
 40
0.0
 40
0.2434921599
 40
0.4939268684
 40
0.620743084
 40
0.7477908153
 40
1.0
 40
1.0
 40
1.0
 40
1.0
 10
-103.2471356572
 20
229.7595971319
 30
0.0
 10
-103.2471356572
 20
231.462297854
 30
0.0
 10
-102.8701004882
 20
234.9239350669
 30
0.0
 10
-101.5652566619
 20
239.0912666246
 30
0.0
 10
-100.0567516366
 20
242.2838925751
 30
0.0
 10
-98.2564178398
 20
245.334547975
 30
0.0
 10
-96.5960366763
 20
247.4284856631
 30
0.0
 10
-95.3731708173
 20
248.6993462691
 30
0.0
  0
SPLINE
  5
32E
100
AcDbEntity
  8
0
100
AcDbSpline
 62
7
  6
CONTINUOUS
 70
0
 71
3
 72
9
 73
5
 74
0
 42
0.0000001
 43
0.0000001
 44
0.0000000001
 40
0.0
 40
0.0
 40
0.0
 40
0.0
 40
0.5089434984
 40
1.0
 40
1.0
 40
1.0
 40
1.0
 10
-95.3731708173
 20
248.6993462691
 30
0.0
 10
-94.1545959882
 20
249.9657474318
 30
0.0
 10
-91.5155255781
 20
252.231906563
 30
0.0
 10
-88.455815633
 20
253.9020686311
 30
0.0
 10
-86.8814411562
 20
254.5319496018
 30
0.0
  0
SPLINE
  5
32F
100
AcDbEntity
  8
0
100
AcDbSpline
 62
7
  6
CONTINUOUS
 70
0
 71
3
 72
9
 73
5
 74
0
 42
0.0000001
 43
0.0000001
 44
0.0000000001
 40
0.0
 40
0.0
 40
0.0
 40
0.0
 40
0.5046230441
 40
1.0
 40
1.0
 40
1.0
 40
1.0
 10
-84.4558605912
 20
255.3326135488
 30
0.0
 10
-83.6227856893
 20
255.5500654435
 30
0.0
 10
-81.9412742079
 20
255.8725280911
 30
0.0
 10
-80.2300018006
 20
255.9533407893
 30
0.0
 10
-79.3851341778
 20
255.9292286616
 30
0.0
  0
SPLINE
  5
330
100
AcDbEntity
  8
0
100
AcDbSpline
 62
7
  6
CONTINUOUS
 70
0
 71
3
 72
9
 73
5
 74
0
 42
0.0000001
 43
0.0000001
 44
0.0000000001
 40
0.0
 40
0.0
 40
0.0
 40
0.0
 40
0.4800867384
 40
1.0
 40
1.0
 40
1.0
 40
1.0
 10
-99.7317191757
 20
239.9703898038
 30
0.0
 10
-97.5152980158
 20
238.6905141067
 30
0.0
 10
-92.8770042356
 20
236.0618914908
 30
0.0
 10
-88.2050581199
 20
233.4937137173
 30
0.0
 10
-85.7688827769
 20
232.1717565805
 30
0.0
  0
SPLINE
  5
331
100
AcDbEntity
  8
0
100
AcDbSpline
 62
7
  6
CONTINUOUS
 70
0
 71
3
 72
9
 73
5
 74
0
 42
0.0000001
 43
0.0000001
 44
0.0000000001
 40
0.0
 40
0.0
 40
0.0
 40
0.0
 40
0.5088169192
 40
1.0
 40
1.0
 40
1.0
 40
1.0
 10
-85.605845882
 20
232.0796148069
 30
0.0
 10
-86.2906690661
 20
230.5761924965
 30
0.0
 10
-87.3744008095
 20
227.4940162746
 30
0.0
 10
-87.8579981471
 20
224.2585559702
 30
0.0
 10
-87.9250871258
 20
222.6651743483
 30
0.0
  0
LINE
  5
332
100
AcDbEntity
  8
0
100
AcDbLine
 62
7
  6
CONTINUOUS
 10
-88.0942622843
 20
222.7810500256
 11
-88.1488502583
 21
222.8190064504
  0
SPLINE
  5
333
100
AcDbEntity
  8
0
100
AcDbSpline
 62
7
  6
CONTINUOUS
 70
0
 71
3
 72
17
 73
13
 74
0
 42
0.0000001
 43
0.0000001
 44
0.0000000001
 40
0.0
 40
0.0
 40
0.0
 40
0.0
 40
0.030466305
 40
0.0609143231
 40
0.1219515425
 40
0.1832357154
 40
0.2447858217
 40
0.3686715367
 40
0.4935792023
 40
0.6193922324
 40
0.7459339537
 40
1.0
 40
1.0
 40
1.0
 40
1.0
 10
-88.1488502583
 20
222.8190064504
 30
0.0
 10
-88.2882820563
 20
222.9156554193
 30
0.0
 10
-88.5684875824
 20
223.1068342588
 30
0.0
 10
-89.1237854902
 20
223.4977830437
 30
0.0
 10
-89.8088119276
 20
224.0024381646
 30
0.0
 10
-90.6130919184
 20
224.6363970534
 30
0.0
 10
-91.6634459769
 20
225.5223149316
 30
0.0
 10
-92.9269969316
 20
226.7034932997
 30
0.0
 10
-94.3486054652
 20
228.2323718171
 30
0.0
 10
-95.6660710615
 20
229.8713557603
 30
0.0
 10
-97.2674518959
 20
232.194676617
 30
0.0
 10
-98.2707814216
 20
234.0737961618
 30
0.0
 10
-98.8400693807
 20
235.3689858876
 30
0.0
  0
SPLINE
  5
334
100
AcDbEntity
  8
0
100
AcDbSpline
 62
7
  6
CONTINUOUS
 70
0
 71
3
 72
9
 73
5
 74
0
 42
0.0000001
 43
0.0000001
 44
0.0000000001
 40
0.0
 40
0.0
 40
0.0
 40
0.0
 40
0.2497727313
 40
1.0
 40
1.0
 40
1.0
 40
1.0
 10
-98.8401740497
 20
235.36923864
 30
0.0
 10
-98.9616314113
 20
235.6455711698
 30
0.0
 10
-99.4277503452
 20
236.7606068657
 30
0.0
 10
-99.81026608
 20
237.9109803436
 30
0.0
 10
-100.0430790806
 20
238.7872183223
 30
0.0
  0
SPLINE
  5
335
100
AcDbEntity
  8
0
100
AcDbSpline
 62
7
  6
CONTINUOUS
 70
0
 71
3
 72
9
 73
5
 74
0
 42
0.0000001
 43
0.0000001
 44
0.0000000001
 40
0.0
 40
0.0
 40
0.0
 40
0.0
 40
0.5013870919
 40
1.0
 40
1.0
 40
1.0
 40
1.0
 10
-91.769774658
 20
241.8645327038
 30
0.0
 10
-92.3006307665
 20
242.9757359838
 30
0.0
 10
-93.210496439
 20
245.2667160458
 30
0.0
 10
-93.7806409658
 20
247.6665819161
 30
0.0
 10
-93.9710078047
 20
248.8763774748
 30
0.0
  0
SPLINE
  5
336
100
AcDbEntity
  8
0
100
AcDbSpline
 62
7
  6
CONTINUOUS
 70
0
 71
3
 72
11
 73
7
 74
0
 42
0.0000001
 43
0.0000001
 44
0.0000000001
 40
0.0
 40
0.0
 40
0.0
 40
0.0
 40
0.2243430227
 40
0.471474865
 40
0.7338908025
 40
1.0
 40
1.0
 40
1.0
 40
1.0
 10
-93.9710077455
 20
248.8763769621
 30
0.0
 10
-94.0592376696
 20
248.9164615841
 30
0.0
 10
-94.265763679
 20
248.9558038538
 30
0.0
 10
-94.5832073636
 20
248.905592531
 30
0.0
 10
-94.8910096315
 20
248.7640532398
 30
0.0
 10
-95.0703947364
 20
248.6184541721
 30
0.0
 10
-95.1500656936
 20
248.5355921842
 30
0.0
  0
SPLINE
  5
337
100
AcDbEntity
  8
0
100
AcDbSpline
 62
7
  6
CONTINUOUS
 70
0
 71
3
 72
12
 73
8
 74
0
 42
0.0000001
 43
0.0000001
 44
0.0000000001
 40
0.0
 40
0.0
 40
0.0
 40
0.0
 40
0.4111066485
 40
0.7262099437
 40
0.9230299777
 40
0.9749768324
 40
1.0
 40
1.0
 40
1.0
 40
1.0
 10
-95.1499716721
 20
248.5355391268
 30
0.0
 10
-95.1644234251
 20
248.5438871582
 30
0.0
 10
-95.1901955807
 20
248.5584291338
 30
0.0
 10
-95.2230200617
 20
248.5757939327
 30
0.0
 10
-95.2444733749
 20
248.5854643138
 30
0.0
 10
-95.2545642752
 20
248.5884921606
 30
0.0
 10
-95.258328079
 20
248.5883991204
 30
0.0
 10
-95.2589239685
 20
248.5875763891
 30
0.0
  0
SPLINE
  5
338
100
AcDbEntity
  8
0
100
AcDbSpline
 62
7
  6
CONTINUOUS
 70
0
 71
3
 72
10
 73
6
 74
0
 42
0.0000001
 43
0.0000001
 44
0.0000000001
 40
0.0
 40
0.0
 40
0.0
 40
0.0
 40
0.2635296675
 40
0.6570649451
 40
1.0
 40
1.0
 40
1.0
 40
1.0
 10
-92.4904021201
 20
241.6594420405
 30
0.0
 10
-92.4419251651
 20
241.7081397128
 30
0.0
 10
-92.3037415897
 20
241.8128779221
 30
0.0
 10
-92.0547861423
 20
241.9056179161
 30
0.0
 10
-91.8531678072
 20
241.8967974979
 30
0.0
 10
-91.7697745243
 20
241.8645328528
 30
0.0
  0
SPLINE
  5
339
100
AcDbEntity
  8
0
100
AcDbSpline
 62
7
  6
CONTINUOUS
 70
0
 71
3
 72
9
 73
5
 74
0
 42
0.0000001
 43
0.0000001
 44
0.0000000001
 40
0.0
 40
0.0
 40
0.0
 40
0.0
 40
0.4990140231
 40
1.0
 40
1.0
 40
1.0
 40
1.0
 10
-95.1499786329
 20
248.5358089993
 30
0.0
 10
-94.8753814765
 20
247.3374505049
 30
0.0
 10
-94.1443720867
 20
244.9743779024
 30
0.0
 10
-93.089953266
 20
242.7383212625
 30
0.0
 10
-92.4903958988
 20
241.6594482521
 30
0.0
  0
SPLINE
  5
33A
100
AcDbEntity
  8
0
100
AcDbSpline
 62
7
  6
CONTINUOUS
 70
0
 71
3
 72
9
 73
5
 74
0
 42
0.0000001
 43
0.0000001
 44
0.0000000001
 40
0.0
 40
0.0
 40
0.0
 40
0.0
 40
0.4978820954
 40
1.0
 40
1.0
 40
1.0
 40
1.0
 10
-92.4904021201
 20
241.6594420405
 30
0.0
 10
-91.7605811632
 20
240.346168738
 30
0.0
 10
-90.078941162
 20
237.8236202183
 30
0.0
 10
-88.0392105545
 20
235.5838294516
 30
0.0
 10
-86.9432415952
 20
234.5375264772
 30
0.0
  0
SPLINE
  5
33B
100
AcDbEntity
  8
0
100
AcDbSpline
 62
7
  6
CONTINUOUS
 70
0
 71
3
 72
9
 73
5
 74
0
 42
0.0000001
 43
0.0000001
 44
0.0000000001
 40
0.0
 40
0.0
 40
0.0
 40
0.0
 40
0.2843630344
 40
1.0
 40
1.0
 40
1.0
 40
1.0
 10
-86.3759283598
 20
234.0086447018
 30
0.0
 10
-86.3706563982
 20
234.0169622158
 30
0.0
 10
-86.3491237151
 20
234.0432160236
 30
0.0
 10
-86.3100042203
 20
234.062342421
 30
0.0
 10
-86.2864211281
 20
234.0547253282
 30
0.0
  0
SPLINE
  5
33C
100
AcDbEntity
  8
0
100
AcDbSpline
 62
7
  6
CONTINUOUS
 70
0
 71
3
 72
9
 73
5
 74
0
 42
0.0000001
 43
0.0000001
 44
0.0000000001
 40
0.0
 40
0.0
 40
0.0
 40
0.0
 40
0.2440934605
 40
1.0
 40
1.0
 40
1.0
 40
1.0
 10
-88.0257076263
 20
222.724897027
 30
0.0
 10
-88.0310855929
 20
222.7297276756
 30
0.0
 10
-88.0533437659
 20
222.7492610059
 30
0.0
 10
-88.07639438
 20
222.7679245115
 30
0.0
 10
-88.0944774393
 20
222.7811214938
 30
0.0
  0
SPLINE
  5
33D
100
AcDbEntity
  8
0
100
AcDbSpline
 62
7
  6
CONTINUOUS
 70
0
 71
3
 72
9
 73
5
 74
0
 42
0.0000001
 43
0.0000001
 44
0.0000000001
 40
0.0
 40
0.0
 40
0.0
 40
0.0
 40
0.5031882123
 40
1.0
 40
1.0
 40
1.0
 40
1.0
 10
-88.1036372226
 20
222.7693438592
 30
0.0
 10
-88.0908500571
 20
222.7612478698
 30
0.0
 10
-88.0654468206
 20
222.7451171726
 30
0.0
 10
-88.0385408343
 20
222.7315075057
 30
0.0
 10
-88.0259903594
 20
222.7233974025
 30
0.0
  0
SPLINE
  5
33E
100
AcDbEntity
  8
0
100
AcDbSpline
 62
7
  6
CONTINUOUS
 70
0
 71
3
 72
8
 73
4
 74
0
 42
0.0000001
 43
0.0000001
 44
0.0000000001
 40
0.0
 40
0.0
 40
0.0
 40
0.0
 40
1.0
 40
1.0
 40
1.0
 40
1.0
 10
-88.1036372225
 20
222.7693438592
 30
0.0
 10
-88.103091183
 20
222.7742153793
 30
0.0
 10
-88.0993856398
 20
222.7802457404
 30
0.0
 10
-88.0945257725
 20
222.780887268
 30
0.0
  0
SPLINE
  5
33F
100
AcDbEntity
  8
0
100
AcDbSpline
 62
7
  6
CONTINUOUS
 70
0
 71
3
 72
8
 73
4
 74
0
 42
0.0000001
 43
0.0000001
 44
0.0000000001
 40
0.0
 40
0.0
 40
0.0
 40
0.0
 40
1.0
 40
1.0
 40
1.0
 40
1.0
 10
-88.15976048
 20
222.8049486681
 30
0.0
 10
-88.158864332
 20
222.8108121734
 30
0.0
 10
-88.1544144607
 20
222.8169513329
 30
0.0
 10
-88.1488502647
 20
222.8190064482
 30
0.0
  0
SPLINE
  5
340
100
AcDbEntity
  8
0
100
AcDbSpline
 62
7
  6
CONTINUOUS
 70
0
 71
3
 72
9
 73
5
 74
0
 42
0.0000001
 43
0.0000001
 44
0.0000000001
 40
0.0
 40
0.0
 40
0.0
 40
0.0
 40
0.5102703982
 40
1.0
 40
1.0
 40
1.0
 40
1.0
 10
-99.7069832655
 20
234.829606292
 30
0.0
 10
-98.2781830447
 20
232.356576091
 30
0.0
 10
-94.8589437101
 20
227.8432904196
 30
0.0
 10
-90.4730129951
 20
224.2755560903
 30
0.0
 10
-88.1597604719
 20
222.8049487221
 30
0.0
  0
SPLINE
  5
341
100
AcDbEntity
  8
0
100
AcDbSpline
 62
7
  6
CONTINUOUS
 70
0
 71
3
 72
9
 73
5
 74
0
 42
0.0000001
 43
0.0000001
 44
0.0000000001
 40
0.0
 40
0.0
 40
0.0
 40
0.0
 40
0.2529263345
 40
1.0
 40
1.0
 40
1.0
 40
1.0
 10
-101.2878315187
 20
237.9172024582
 30
0.0
 10
-101.3965294509
 20
237.4052362582
 30
0.0
 10
-101.7928518728
 20
235.3741537839
 30
0.0
 10
-102.0538975593
 20
233.3163262934
 30
0.0
 10
-102.1661942394
 20
231.7744978224
 30
0.0
  0
SPLINE
  5
342
100
AcDbEntity
  8
0
100
AcDbSpline
 62
7
  6
CONTINUOUS
 70
0
 71
3
 72
9
 73
5
 74
0
 42
0.0000001
 43
0.0000001
 44
0.0000000001
 40
0.0
 40
0.0
 40
0.0
 40
0.0
 40
0.4941394023
 40
1.0
 40
1.0
 40
1.0
 40
1.0
 10
-96.3515011887
 20
220.3827741038
 30
0.0
 10
-97.4514513782
 20
221.4233938149
 30
0.0
 10
-99.5486014151
 20
223.6705397425
 30
0.0
 10
-101.3113847611
 20
226.1939777942
 30
0.0
 10
-102.0932231762
 20
227.5324732026
 30
0.0
  0
SPLINE
  5
343
100
AcDbEntity
  8
0
100
AcDbSpline
 62
7
  6
CONTINUOUS
 70
0
 71
3
 72
9
 73
5
 74
0
 42
0.0000001
 43
0.0000001
 44
0.0000000001
 40
0.0
 40
0.0
 40
0.0
 40
0.0
 40
0.2471204011
 40
1.0
 40
1.0
 40
1.0
 40
1.0
 10
-102.5598042038
 20
228.8774520623
 30
0.0
 10
-102.5598042038
 20
229.1184284491
 30
0.0
 10
-102.5447938018
 20
230.0935223968
 30
0.0
 10
-102.4706313413
 20
231.0675911511
 30
0.0
 10
-102.3836648814
 20
231.796583246
 30
0.0
  0
SPLINE
  5
344
100
AcDbEntity
  8
0
100
AcDbSpline
 62
7
  6
CONTINUOUS
 70
0
 71
3
 72
10
 73
6
 74
0
 42
0.0000001
 43
0.0000001
 44
0.0000000001
 40
0.0
 40
0.0
 40
0.0
 40
0.0
 40
0.242175432
 40
0.5008025825
 40
1.0
 40
1.0
 40
1.0
 40
1.0
 10
-100.3178084327
 20
238.7135735481
 30
0.0
 10
-100.4209726678
 20
238.6965453345
 30
0.0
 10
-100.6283553487
 20
238.622672493
 30
0.0
 10
-100.9903070381
 20
238.3847460392
 30
0.0
 10
-101.2033130537
 20
238.1154531479
 30
0.0
 10
-101.2877704996
 20
237.9171598037
 30
0.0
  0
SPLINE
  5
345
100
AcDbEntity
  8
0
100
AcDbSpline
 62
7
  6
CONTINUOUS
 70
0
 71
3
 72
10
 73
6
 74
0
 42
0.0000001
 43
0.0000001
 44
0.0000000001
 40
0.0
 40
0.0
 40
0.0
 40
0.0
 40
0.3475791863
 40
0.6317067452
 40
1.0
 40
1.0
 40
1.0
 40
1.0
 10
-101.2878444193
 20
237.9172033136
 30
0.0
 10
-101.301670134
 20
237.9251917962
 30
0.0
 10
-101.3263276775
 20
237.9412332071
 30
0.0
 10
-101.3608803907
 20
237.9695487616
 30
0.0
 10
-101.3792794593
 20
238.0000695551
 30
0.0
 10
-101.3758744156
 20
238.016642636
 30
0.0
  0
SPLINE
  5
346
100
AcDbEntity
  8
0
100
AcDbSpline
 62
7
  6
CONTINUOUS
 70
0
 71
3
 72
11
 73
7
 74
0
 42
0.0000001
 43
0.0000001
 44
0.0000000001
 40
0.0
 40
0.0
 40
0.0
 40
0.0
 40
0.2289362339
 40
0.4860046304
 40
0.7505067991
 40
1.0
 40
1.0
 40
1.0
 40
1.0
 10
-99.7068191664
 20
234.8293222652
 30
0.0
 10
-99.6641485863
 20
234.8967725288
 30
0.0
 10
-99.5512288179
 20
235.0259110166
 30
0.0
 10
-99.3411281144
 20
235.1841161693
 30
0.0
 10
-99.0996931169
 20
235.3054053199
 30
0.0
 10
-98.9259609948
 20
235.3552689571
 30
0.0
 10
-98.8400681921
 20
235.3689850374
 30
0.0
  0
SPLINE
  5
347
100
AcDbEntity
  8
0
100
AcDbSpline
 62
7
  6
CONTINUOUS
 70
0
 71
3
 72
9
 73
5
 74
0
 42
0.0000001
 43
0.0000001
 44
0.0000000001
 40
0.0
 40
0.0
 40
0.0
 40
0.0
 40
0.247074675
 40
1.0
 40
1.0
 40
1.0
 40
1.0
 10
-75.2666247531
 20
256.3551490008
 30
0.0
 10
-75.5954086378
 20
256.3431830885
 30
0.0
 10
-76.9251843908
 20
256.2712512795
 30
0.0
 10
-78.2496987948
 20
256.1063218441
 30
0.0
 10
-79.2373512293
 20
255.9339231182
 30
0.0
  0
SPLINE
  5
348
100
AcDbEntity
  8
0
100
AcDbSpline
 62
7
  6
CONTINUOUS
 70
0
 71
3
 72
10
 73
6
 74
0
 42
0.0000001
 43
0.0000001
 44
0.0000000001
 40
0.0
 40
0.0
 40
0.0
 40
0.0
 40
0.2371943651
 40
0.6091022778
 40
1.0
 40
1.0
 40
1.0
 40
1.0
 10
-102.278678614
 20
228.7165189076
 30
0.0
 10
-101.1987552054
 20
228.0934592918
 30
0.0
 10
-98.3958388644
 20
226.5445456117
 30
0.0
 10
-93.6847608395
 20
224.2082920133
 30
0.0
 10
-90.0117418895
 20
222.5965812074
 30
0.0
 10
-88.1134242944
 20
221.8103721278
 30
0.0
  0
SPLINE
  5
349
100
AcDbEntity
  8
0
100
AcDbSpline
 62
7
  6
CONTINUOUS
 70
0
 71
3
 72
9
 73
5
 74
0
 42
0.0000001
 43
0.0000001
 44
0.0000000001
 40
0.0
 40
0.0
 40
0.0
 40
0.0
 40
0.5163575348
 40
1.0
 40
1.0
 40
1.0
 40
1.0
 10
-87.9446465504
 20
221.7406159437
 30
0.0
 10
-87.9446493441
 20
220.2479375554
 30
0.0
 10
-87.6461377378
 20
217.3456715007
 30
0.0
 10
-86.6553065984
 20
214.589913543
 30
0.0
 10
-86.0009890077
 20
213.3543693898
 30
0.0
  0
SPLINE
  5
34A
100
AcDbEntity
  8
0
100
AcDbSpline
 62
7
  6
CONTINUOUS
 70
0
 71
3
 72
10
 73
6
 74
0
 42
0.0000001
 43
0.0000001
 44
0.0000000001
 40
0.0
 40
0.0
 40
0.0
 40
0.0
 40
0.2417240753
 40
0.489213144
 40
1.0
 40
1.0
 40
1.0
 40
1.0
 10
-87.4530846008
 20
214.0780641529
 30
0.0
 10
-88.2338879504
 20
214.4862901374
 30
0.0
 10
-89.791325848
 20
215.3578226036
 30
0.0
 10
-92.8460397794
 20
217.3496188339
 30
0.0
 10
-94.9990324311
 20
219.1032572594
 30
0.0
 10
-96.3515008718
 20
220.3827742943
 30
0.0
  0
SPLINE
  5
34B
100
AcDbEntity
  8
0
100
AcDbSpline
 62
7
  6
CONTINUOUS
 70
0
 71
3
 72
9
 73
5
 74
0
 42
0.0000001
 43
0.0000001
 44
0.0000000001
 40
0.0
 40
0.0
 40
0.0
 40
0.0
 40
0.4951279824
 40
1.0
 40
1.0
 40
1.0
 40
1.0
 10
-73.7655211813
 20
254.670075622
 30
0.0
 10
-71.6598565684
 20
253.4516943782
 30
0.0
 10
-67.5545285703
 20
250.7277856853
 30
0.0
 10
-63.7998426286
 20
247.5398551729
 30
0.0
 10
-62.000958209
 20
245.8317788732
 30
0.0
  0
SPLINE
  5
34C
100
AcDbEntity
  8
0
100
AcDbSpline
 62
7
  6
CONTINUOUS
 70
0
 71
3
 72
10
 73
6
 74
0
 42
0.0000001
 43
0.0000001
 44
0.0000000001
 40
0.0
 40
0.0
 40
0.0
 40
0.0
 40
0.2417902113
 40
0.4883471224
 40
1.0
 40
1.0
 40
1.0
 40
1.0
 10
-62.5498950142
 20
245.8587192721
 30
0.0
 10
-63.1035677109
 20
246.0241138529
 30
0.0
 10
-64.2464506079
 20
246.2814449115
 30
0.0
 10
-66.6315446463
 20
246.4955245121
 30
0.0
 10
-68.4572282981
 20
246.3080884682
 30
0.0
 10
-69.6526092376
 20
246.0506562301
 30
0.0
  0
SPLINE
  5
34D
100
AcDbEntity
  8
0
100
AcDbSpline
 62
7
  6
CONTINUOUS
 70
0
 71
3
 72
9
 73
5
 74
0
 42
0.0000001
 43
0.0000001
 44
0.0000000001
 40
0.0
 40
0.0
 40
0.0
 40
0.0
 40
0.2451580949
 40
1.0
 40
1.0
 40
1.0
 40
1.0
 10
-96.3515011887
 20
220.3827741038
 30
0.0
 10
-96.9119689218
 20
220.8790451056
 30
0.0
 10
-99.152430772
 20
222.954114754
 30
0.0
 10
-101.2015068685
 20
225.2377341964
 30
0.0
 10
-102.6083783681
 20
227.0635290051
 30
0.0
  0
SPLINE
  5
34E
100
AcDbEntity
  8
0
100
AcDbSpline
 62
7
  6
CONTINUOUS
 70
0
 71
3
 72
11
 73
7
 74
0
 42
0.0000001
 43
0.0000001
 44
0.0000000001
 40
0.0
 40
0.0
 40
0.0
 40
0.0
 40
0.2752051729
 40
0.5453492357
 40
0.790519848
 40
1.0
 40
1.0
 40
1.0
 40
1.0
 10
-102.6083783624
 20
227.06352892
 30
0.0
 10
-102.6992026298
 20
226.993680858
 30
0.0
 10
-102.8620133196
 20
226.8321471503
 30
0.0
 10
-103.0440686294
 20
226.5551311516
 30
0.0
 10
-103.1507095633
 20
226.2699935078
 30
0.0
 10
-103.1652375467
 20
226.0768798584
 30
0.0
 10
-103.1533902303
 20
225.9904750876
 30
0.0
  0
SPLINE
  5
34F
100
AcDbEntity
  8
0
100
AcDbSpline
 62
7
  6
CONTINUOUS
 70
0
 71
3
 72
9
 73
5
 74
0
 42
0.0000001
 43
0.0000001
 44
0.0000000001
 40
0.0
 40
0.0
 40
0.0
 40
0.0
 40
0.2680316396
 40
1.0
 40
1.0
 40
1.0
 40
1.0
 10
-103.1532964952
 20
225.9904216325
 30
0.0
 10
-103.1632532848
 20
225.9961655243
 30
0.0
 10
-103.198824019
 20
226.0199343158
 30
0.0
 10
-103.2272903294
 20
226.0563358632
 30
0.0
 10
-103.2368356959
 20
226.0862405237
 30
0.0
  0
SPLINE
  5
350
100
AcDbEntity
  8
0
100
AcDbSpline
 62
7
  6
CONTINUOUS
 70
0
 71
3
 72
9
 73
5
 74
0
 42
0.0000001
 43
0.0000001
 44
0.0000000001
 40
0.0
 40
0.0
 40
0.0
 40
0.0
 40
0.2538908689
 40
1.0
 40
1.0
 40
1.0
 40
1.0
 10
-102.5777124547
 20
224.358014173
 30
0.0
 10
-102.425442378
 20
223.961980193
 30
0.0
 10
-101.7931793339
 20
222.4148910723
 30
0.0
 10
-101.0284691357
 20
220.9213589371
 30
0.0
 10
-100.3846812404
 20
219.8535289451
 30
0.0
  0
SPLINE
  5
351
100
AcDbEntity
  8
0
100
AcDbSpline
 62
7
  6
CONTINUOUS
 70
0
 71
3
 72
10
 73
6
 74
0
 42
0.0000001
 43
0.0000001
 44
0.0000000001
 40
0.0
 40
0.0
 40
0.0
 40
0.0
 40
0.4067573991
 40
0.6966183953
 40
1.0
 40
1.0
 40
1.0
 40
1.0
 10
-92.0670452759
 20
212.088212177
 30
0.0
 10
-92.0668904189
 20
212.0361627873
 30
0.0
 10
-91.977444791
 20
211.9671433485
 30
0.0
 10
-91.8616997275
 20
211.9273478176
 30
0.0
 10
-91.7861430676
 20
211.9109380683
 30
0.0
 10
-91.7477653591
 20
211.9050854071
 30
0.0
  0
SPLINE
  5
352
100
AcDbEntity
  8
0
100
AcDbSpline
 62
7
  6
CONTINUOUS
 70
0
 71
3
 72
9
 73
5
 74
0
 42
0.0000001
 43
0.0000001
 44
0.0000000001
 40
0.0
 40
0.0
 40
0.0
 40
0.0
 40
0.2556611485
 40
1.0
 40
1.0
 40
1.0
 40
1.0
 10
-103.153488661
 20
225.9907345753
 30
0.0
 10
-102.6543181324
 20
225.4092899899
 30
0.0
 10
-100.6462060434
 20
223.183247525
 30
0.0
 10
-98.4275795657
 20
221.1481481081
 30
0.0
 10
-96.6839012352
 20
219.756261334
 30
0.0
  0
SPLINE
  5
353
100
AcDbEntity
  8
0
100
AcDbSpline
 62
7
  6
CONTINUOUS
 70
0
 71
3
 72
9
 73
5
 74
0
 42
0.0000001
 43
0.0000001
 44
0.0000000001
 40
0.0
 40
0.0
 40
0.0
 40
0.0
 40
0.2589997333
 40
1.0
 40
1.0
 40
1.0
 40
1.0
 10
-96.6838970124
 20
219.7562320413
 30
0.0
 10
-96.0041458782
 20
219.2136245712
 30
0.0
 10
-93.3240249581
 20
217.1893196567
 30
0.0
 10
-90.4336828104
 20
215.4425998994
 30
0.0
 10
-88.2066261277
 20
214.3325004981
 30
0.0
  0
SPLINE
  5
354
100
AcDbEntity
  8
0
100
AcDbSpline
 62
7
  6
CONTINUOUS
 70
0
 71
3
 72
14
 73
10
 74
0
 42
0.0000001
 43
0.0000001
 44
0.0000000001
 40
0.0
 40
0.0
 40
0.0
 40
0.0
 40
0.0285948716
 40
0.0941552364
 40
0.1966041605
 40
0.330119886
 40
0.4855316114
 40
0.6539796771
 40
1.0
 40
1.0
 40
1.0
 40
1.0
 10
-99.6742394543
 20
217.4715567187
 30
0.0
 10
-99.6756800734
 20
217.4682890766
 30
0.0
 10
-99.6662771569
 20
217.4566481545
 30
0.0
 10
-99.6487152743
 20
217.4430654943
 30
0.0
 10
-99.6165078428
 20
217.4212561164
 30
0.0
 10
-99.5748432466
 20
217.3966051957
 30
0.0
 10
-99.524799955
 20
217.3687232702
 30
0.0
 10
-99.4508346205
 20
217.3297556196
 30
0.0
 10
-99.3932729349
 20
217.3011349787
 30
0.0
 10
-99.3543554107
 20
217.2823516029
 30
0.0
  0
SPLINE
  5
355
100
AcDbEntity
  8
0
100
AcDbSpline
 62
7
  6
CONTINUOUS
 70
0
 71
3
 72
14
 73
10
 74
0
 42
0.0000001
 43
0.0000001
 44
0.0000000001
 40
0.0
 40
0.0
 40
0.0
 40
0.0
 40
0.0462468878
 40
0.1040292072
 40
0.1877373368
 40
0.301136251
 40
0.4437099581
 40
0.6115140258
 40
1.0
 40
1.0
 40
1.0
 40
1.0
 10
-99.3833577802
 20
218.1099190948
 30
0.0
 10
-99.3808434169
 20
218.1154193189
 30
0.0
 10
-99.3700718901
 20
218.1259503873
 30
0.0
 10
-99.3442343748
 20
218.1267135968
 30
0.0
 10
-99.3121745255
 20
218.1176621512
 30
0.0
 10
-99.2718161129
 20
218.0985618526
 30
0.0
 10
-99.2245430616
 20
218.0695857428
 30
0.0
 10
-99.1501516506
 20
218.016387764
 30
0.0
 10
-99.094589752
 20
217.9692329599
 30
0.0
 10
-99.0569290973
 20
217.9351370365
 30
0.0
  0
SPLINE
  5
356
100
AcDbEntity
  8
0
100
AcDbSpline
 62
7
  6
CONTINUOUS
 70
0
 71
3
 72
10
 73
6
 74
0
 42
0.0000001
 43
0.0000001
 44
0.0000000001
 40
0.0
 40
0.0
 40
0.0
 40
0.0
 40
0.1922189672
 40
0.4368956931
 40
1.0
 40
1.0
 40
1.0
 40
1.0
 10
-96.6838969781
 20
219.756232014
 30
0.0
 10
-96.6907070759
 20
219.8024341657
 30
0.0
 10
-96.676615147
 20
219.9109920731
 30
0.0
 10
-96.5813736087
 20
220.1352570943
 30
0.0
 10
-96.454072167
 20
220.2922393958
 30
0.0
 10
-96.3515011903
 20
220.3827741097
 30
0.0
  0
SPLINE
  5
357
100
AcDbEntity
  8
0
100
AcDbSpline
 62
7
  6
CONTINUOUS
 70
0
 71
3
 72
9
 73
5
 74
0
 42
0.0000001
 43
0.0000001
 44
0.0000000001
 40
0.0
 40
0.0
 40
0.0
 40
0.0
 40
0.4563791099
 40
1.0
 40
1.0
 40
1.0
 40
1.0
 10
-87.4800702161
 20
213.9783733574
 30
0.0
 10
-87.4868277844
 20
213.9931812205
 30
0.0
 10
-87.4842501452
 20
214.0320294602
 30
0.0
 10
-87.4663368721
 20
214.0639101344
 30
0.0
 10
-87.4530861761
 20
214.0780639107
 30
0.0
  0
SPLINE
  5
358
100
AcDbEntity
  8
0
100
AcDbSpline
 62
7
  6
CONTINUOUS
 70
0
 71
3
 72
11
 73
7
 74
0
 42
0.0000001
 43
0.0000001
 44
0.0000000001
 40
0.0
 40
0.0
 40
0.0
 40
0.0
 40
0.248203181
 40
0.4971255039
 40
0.7478692312
 40
1.0
 40
1.0
 40
1.0
 40
1.0
 10
-86.2111149479
 20
213.4118372103
 30
0.0
 10
-86.3146481219
 20
213.4654622581
 30
0.0
 10
-86.5208209778
 20
213.5751747112
 30
0.0
 10
-86.8286482545
 20
213.7445021424
 30
0.0
 10
-87.1400268435
 20
213.9111397469
 30
0.0
 10
-87.3494318085
 20
214.0205442571
 30
0.0
 10
-87.4529957342
 20
214.0780153861
 30
0.0
  0
SPLINE
  5
359
100
AcDbEntity
  8
0
100
AcDbSpline
 62
7
  6
CONTINUOUS
 70
0
 71
3
 72
8
 73
4
 74
0
 42
0.0000001
 43
0.0000001
 44
0.0000000001
 40
0.0
 40
0.0
 40
0.0
 40
0.0
 40
1.0
 40
1.0
 40
1.0
 40
1.0
 10
-86.2140483266
 20
213.3993040849
 30
0.0
 10
-86.2159216879
 20
213.4031620042
 30
0.0
 10
-86.2138830386
 20
213.4085692223
 30
0.0
 10
-86.2110927942
 20
213.4118261473
 30
0.0
  0
SPLINE
  5
35A
100
AcDbEntity
  8
0
100
AcDbSpline
 62
7
  6
CONTINUOUS
 70
0
 71
3
 72
9
 73
5
 74
0
 42
0.0000001
 43
0.0000001
 44
0.0000000001
 40
0.0
 40
0.0
 40
0.0
 40
0.0
 40
0.5013570582
 40
1.0
 40
1.0
 40
1.0
 40
1.0
 10
-85.6035707202
 20
212.6514818396
 30
0.0
 10
-85.6309974629
 20
212.6612536813
 30
0.0
 10
-85.6863842683
 20
212.6787658815
 30
0.0
 10
-85.7414337778
 20
212.6972545688
 30
0.0
 10
-85.7689983567
 20
212.7061290074
 30
0.0
  0
SPLINE
  5
35B
100
AcDbEntity
  8
0
100
AcDbSpline
 62
7
  6
CONTINUOUS
 70
0
 71
3
 72
14
 73
10
 74
0
 42
0.0000001
 43
0.0000001
 44
0.0000000001
 40
0.0
 40
0.0
 40
0.0
 40
0.0
 40
0.3291376922
 40
0.4831685879
 40
0.6266796956
 40
0.7545757012
 40
0.8565701542
 40
0.908128878
 40
1.0
 40
1.0
 40
1.0
 40
1.0
 10
-73.7186778044
 20
254.6600872943
 30
0.0
 10
-73.7247601768
 20
254.6620514159
 30
0.0
 10
-73.7336863031
 20
254.6648898669
 30
0.0
 10
-73.7453870196
 20
254.6683877702
 30
0.0
 10
-73.7532101622
 20
254.6706740912
 30
0.0
 10
-73.7606043681
 20
254.6724459909
 30
0.0
 10
-73.7650114263
 20
254.6737444754
 30
0.0
 10
-73.7719382755
 20
254.67390031
 30
0.0
 10
-73.7670661434
 20
254.6709678225
 30
0.0
 10
-73.7655211813
 20
254.670075622
 30
0.0
  0
SPLINE
  5
35C
100
AcDbEntity
  8
0
100
AcDbSpline
 62
7
  6
CONTINUOUS
 70
0
 71
3
 72
21
 73
17
 74
0
 42
0.0000001
 43
0.0000001
 44
0.0000000001
 40
0.0
 40
0.0
 40
0.0
 40
0.0
 40
0.2619299878
 40
0.3923434983
 40
0.5221061584
 40
0.6507979729
 40
0.7775407788
 40
0.8395661416
 40
0.8998540658
 40
0.9288431329
 40
0.9563792805
 40
0.9692052403
 40
0.9809003721
 40
0.9905875454
 40
0.9947008391
 40
1.0
 40
1.0
 40
1.0
 40
1.0
 10
-82.4383335879
 20
255.261652157
 30
0.0
 10
-82.5139531383
 20
255.2406142913
 30
0.0
 10
-82.6269046166
 20
255.207931022
 30
0.0
 10
-82.7763907117
 20
255.1617382786
 30
0.0
 10
-82.8872521632
 20
255.1258186749
 30
0.0
 10
-82.996464347
 20
255.0884289562
 30
0.0
 10
-83.0857972717
 20
255.0556787162
 30
0.0
 10
-83.1551301132
 20
255.0280372485
 30
0.0
 10
-83.1967687296
 20
255.0100736083
 30
0.0
 10
-83.2283174544
 20
254.9948614483
 30
0.0
 10
-83.2465804896
 20
254.9849828546
 30
0.0
 10
-83.2597960631
 20
254.9765413053
 30
0.0
 10
-83.2676810375
 20
254.9702201365
 30
0.0
 10
-83.2732964631
 20
254.9643816675
 30
0.0
 10
-83.2735513349
 20
254.9582047618
 30
0.0
 10
-83.2711630239
 20
254.9560912738
 30
0.0
 10
-83.2697852203
 20
254.9553017621
 30
0.0
  0
SPLINE
  5
35D
100
AcDbEntity
  8
0
100
AcDbSpline
 62
7
  6
CONTINUOUS
 70
0
 71
3
 72
11
 73
7
 74
0
 42
0.0000001
 43
0.0000001
 44
0.0000000001
 40
0.0
 40
0.0
 40
0.0
 40
0.0
 40
0.2763600712
 40
0.5357639438
 40
0.777182033
 40
1.0
 40
1.0
 40
1.0
 40
1.0
 10
-83.4282650489
 20
249.6470643774
 30
0.0
 10
-83.5791824288
 20
250.0831566506
 30
0.0
 10
-83.8369728913
 20
250.9413028479
 30
0.0
 10
-84.0886546097
 20
252.2168037751
 30
0.0
 10
-84.1878886903
 20
253.4238099522
 30
0.0
 10
-84.1473632332
 20
254.2013884503
 30
0.0
 10
-84.0965534845
 20
254.5699656263
 30
0.0
  0
SPLINE
  5
35E
100
AcDbEntity
  8
0
100
AcDbSpline
 62
7
  6
CONTINUOUS
 70
0
 71
3
 72
11
 73
7
 74
0
 42
0.0000001
 43
0.0000001
 44
0.0000000001
 40
0.0
 40
0.0
 40
0.0
 40
0.0
 40
0.2370421322
 40
0.466083616
 40
0.7155559181
 40
1.0
 40
1.0
 40
1.0
 40
1.0
 10
-100.3189626937
 20
238.9872951331
 30
0.0
 10
-100.2898116823
 20
238.9951176787
 30
0.0
 10
-100.2284210593
 20
239.0003528513
 30
0.0
 10
-100.1413824337
 20
238.9629350568
 30
0.0
 10
-100.0772011533
 20
238.8865118455
 30
0.0
 10
-100.052381193
 20
238.8222213658
 30
0.0
 10
-100.0430790108
 20
238.7872183405
 30
0.0
  0
SPLINE
  5
35F
100
AcDbEntity
  8
0
100
AcDbSpline
 62
7
  6
CONTINUOUS
 70
0
 71
3
 72
11
 73
7
 74
0
 42
0.0000001
 43
0.0000001
 44
0.0000000001
 40
0.0
 40
0.0
 40
0.0
 40
0.0
 40
0.2132090212
 40
0.455647074
 40
0.7240173434
 40
1.0
 40
1.0
 40
1.0
 40
1.0
 10
-100.6069008469
 20
238.9101118398
 30
0.0
 10
-100.5814110202
 20
238.9169377541
 30
0.0
 10
-100.5218255393
 20
238.9138729024
 30
0.0
 10
-100.4424270061
 20
238.868492043
 30
0.0
 10
-100.3733820299
 20
238.7988609911
 30
0.0
 10
-100.335114747
 20
238.7430246486
 30
0.0
 10
-100.3178096406
 20
238.7135756036
 30
0.0
  0
SPLINE
  5
360
100
AcDbEntity
  8
0
100
AcDbSpline
 62
7
  6
CONTINUOUS
 70
0
 71
3
 72
9
 73
5
 74
0
 42
0.0000001
 43
0.0000001
 44
0.0000000001
 40
0.0
 40
0.0
 40
0.0
 40
0.0
 40
0.2518493133
 40
1.0
 40
1.0
 40
1.0
 40
1.0
 10
-102.2603595627
 20
231.7848847322
 30
0.0
 10
-102.2784993303
 20
231.527831174
 30
0.0
 10
-102.3335138146
 20
230.506019613
 30
0.0
 10
-102.3222829894
 20
229.4807855541
 30
0.0
 10
-102.278678614
 20
228.7165189076
 30
0.0
  0
SPLINE
  5
361
100
AcDbEntity
  8
0
100
AcDbSpline
 62
7
  6
CONTINUOUS
 70
0
 71
3
 72
9
 73
5
 74
0
 42
0.0000001
 43
0.0000001
 44
0.0000000001
 40
0.0
 40
0.0
 40
0.0
 40
0.0
 40
0.4860168654
 40
1.0
 40
1.0
 40
1.0
 40
1.0
 10
-83.2697852203
 20
254.9553017621
 30
0.0
 10
-81.0908378274
 20
253.6949633646
 30
0.0
 10
-76.7370658991
 20
250.8737608672
 30
0.0
 10
-72.6493160625
 20
247.6829295994
 30
0.0
 10
-70.6150512622
 20
245.9658941356
 30
0.0
  0
SPLINE
  5
362
100
AcDbEntity
  8
0
100
AcDbSpline
 62
7
  6
CONTINUOUS
 70
0
 71
3
 72
10
 73
6
 74
0
 42
0.0000001
 43
0.0000001
 44
0.0000000001
 40
0.0
 40
0.0
 40
0.0
 40
0.0
 40
0.4964018198
 40
0.7488633692
 40
1.0
 40
1.0
 40
1.0
 40
1.0
 10
-70.6150642157
 20
245.9659073727
 30
0.0
 10
-70.5925706715
 20
245.946921539
 30
0.0
 10
-70.5596024683
 20
245.9171350348
 30
0.0
 10
-70.5136881356
 20
245.8796312163
 30
0.0
 10
-70.4900781038
 20
245.8612693419
 30
0.0
 10
-70.4791641457
 20
245.8511379454
 30
0.0
  0
SPLINE
  5
363
100
AcDbEntity
  8
0
100
AcDbSpline
 62
7
  6
CONTINUOUS
 70
0
 71
3
 72
9
 73
5
 74
0
 42
0.0000001
 43
0.0000001
 44
0.0000000001
 40
0.0
 40
0.0
 40
0.0
 40
0.0
 40
0.4852905323
 40
1.0
 40
1.0
 40
1.0
 40
1.0
 10
-70.479178382
 20
245.8509581068
 30
0.0
 10
-71.9083692106
 20
245.467859463
 30
0.0
 10
-74.7591936333
 20
244.3005503234
 30
0.0
 10
-77.2858427645
 20
242.5531040509
 30
0.0
 10
-78.4863691311
 20
241.5423737647
 30
0.0
  0
SPLINE
  5
364
100
AcDbEntity
  8
0
100
AcDbSpline
 62
7
  6
CONTINUOUS
 70
0
 71
3
 72
9
 73
5
 74
0
 42
0.0000001
 43
0.0000001
 44
0.0000000001
 40
0.0
 40
0.0
 40
0.0
 40
0.0
 40
0.5005836288
 40
1.0
 40
1.0
 40
1.0
 40
1.0
 10
-93.5794799042
 20
248.8590173437
 30
0.0
 10
-93.544219032
 20
248.8458520528
 30
0.0
 10
-93.4778124726
 20
248.7990737244
 30
0.0
 10
-93.4571193733
 20
248.7211379773
 30
0.0
 10
-93.4558404265
 20
248.6836090644
 30
0.0
  0
SPLINE
  5
365
100
AcDbEntity
  8
0
100
AcDbSpline
 62
7
  6
CONTINUOUS
 70
0
 71
3
 72
9
 73
5
 74
0
 42
0.0000001
 43
0.0000001
 44
0.0000000001
 40
0.0
 40
0.0
 40
0.0
 40
0.0
 40
0.4996154449
 40
1.0
 40
1.0
 40
1.0
 40
1.0
 10
-94.1256027903
 20
249.0633556725
 30
0.0
 10
-94.0867328711
 20
249.0487688733
 30
0.0
 10
-94.0177531417
 20
248.9937895978
 30
0.0
 10
-93.982710262
 20
248.9162776287
 30
0.0
 10
-93.9710079347
 20
248.8763776071
 30
0.0
  0
SPLINE
  5
366
100
AcDbEntity
  8
0
100
AcDbSpline
 62
7
  6
CONTINUOUS
 70
0
 71
3
 72
25
 73
21
 74
0
 42
0.0000001
 43
0.0000001
 44
0.0000000001
 40
0.0
 40
0.0
 40
0.0
 40
0.0
 40
0.1255881513
 40
0.2511907613
 40
0.3768036616
 40
0.5024206858
 40
0.5652281944
 40
0.6280319622
 40
0.6908282137
 40
0.7536099528
 40
0.8163621465
 40
0.847717313
 40
0.8790459659
 40
0.9103261479
 40
0.9415014035
 40
0.9570021547
 40
0.9723617469
 40
0.987316717
 40
0.9942898005
 40
1.0
 40
1.0
 40
1.0
 40
1.0
 10
-98.9921740062
 20
241.927606616
 30
0.0
 10
-99.0294951478
 20
241.8478960372
 30
0.0
 10
-99.1031604703
 20
241.6880040722
 30
0.0
 10
-99.2106328418
 20
241.4467828336
 30
0.0
 10
-99.3149397164
 20
241.2041531604
 30
0.0
 10
-99.3990214333
 20
241.0007535189
 30
0.0
 10
-99.4643506787
 20
240.8372539305
 30
0.0
 10
-99.5122784093
 20
240.7142171297
 30
0.0
 10
-99.5589964191
 20
240.5907345355
 30
0.0
 10
-99.6042761513
 20
240.4667551122
 30
0.0
 10
-99.6405062185
 20
240.3629378201
 30
0.0
 10
-99.668194864
 20
240.2795016276
 30
0.0
 10
-99.6881163638
 20
240.2167335847
 30
0.0
 10
-99.7068743655
 20
240.1537321632
 30
0.0
 10
-99.7210832833
 20
240.1009813573
 30
0.0
 10
-99.7308004906
 20
240.0585620572
 30
0.0
 10
-99.7367158032
 20
240.0270984456
 30
0.0
 10
-99.7395866959
 20
240.0007517128
 30
0.0
 10
-99.7388115444
 20
239.9818572948
 30
0.0
 10
-99.7351979863
 20
239.9723678273
 30
0.0
 10
-99.7317191757
 20
239.9703898038
 30
0.0
  0
SPLINE
  5
367
100
AcDbEntity
  8
0
100
AcDbSpline
 62
7
  6
CONTINUOUS
 70
0
 71
3
 72
9
 73
5
 74
0
 42
0.0000001
 43
0.0000001
 44
0.0000000001
 40
0.0
 40
0.0
 40
0.0
 40
0.0
 40
0.5161256766
 40
1.0
 40
1.0
 40
1.0
 40
1.0
 10
-83.4282650489
 20
249.6470643774
 30
0.0
 10
-83.7467420197
 20
250.5423471157
 30
0.0
 10
-84.2368294154
 20
252.3261345951
 30
0.0
 10
-84.4064084978
 20
254.1725181885
 30
0.0
 10
-84.3939782089
 20
255.0632947683
 30
0.0
  0
SPLINE
  5
368
100
AcDbEntity
  8
0
100
AcDbSpline
 62
7
  6
CONTINUOUS
 70
0
 71
3
 72
10
 73
6
 74
0
 42
0.0000001
 43
0.0000001
 44
0.0000000001
 40
0.0
 40
0.0
 40
0.0
 40
0.0
 40
0.2687151345
 40
0.5257663437
 40
1.0
 40
1.0
 40
1.0
 40
1.0
 10
-79.5743953905
 20
242.8602135318
 30
0.0
 10
-80.0084738889
 20
243.4117184644
 30
0.0
 10
-80.8270469432
 20
244.5162655017
 30
0.0
 10
-82.2128057074
 20
246.7318056331
 30
0.0
 10
-83.0231878448
 20
248.4765505211
 30
0.0
 10
-83.4282649769
 20
249.6470639027
 30
0.0
  0
SPLINE
  5
369
100
AcDbEntity
  8
0
100
AcDbSpline
 62
7
  6
CONTINUOUS
 70
0
 71
3
 72
21
 73
17
 74
0
 42
0.0000001
 43
0.0000001
 44
0.0000000001
 40
0.0
 40
0.0
 40
0.0
 40
0.0
 40
0.126710948
 40
0.2535153968
 40
0.3803771352
 40
0.507232459
 40
0.6339613857
 40
0.6972088026
 40
0.7603056978
 40
0.823144618
 40
0.885497516
 40
0.9163290739
 40
0.9466994958
 40
0.9760144784
 40
0.9895578439
 40
1.0
 40
1.0
 40
1.0
 40
1.0
 10
-91.5499330695
 20
250.8638899808
 30
0.0
 10
-91.6062116471
 20
250.8134488387
 30
0.0
 10
-91.7181815341
 20
250.7118250783
 30
0.0
 10
-91.8842136361
 20
250.5572078301
 30
0.0
 10
-92.0482215436
 20
250.4003186151
 30
0.0
 10
-92.2099104929
 20
250.2411033882
 30
0.0
 10
-92.3423819119
 20
250.1063253578
 30
0.0
 10
-92.4465180362
 20
249.9970522172
 30
0.0
 10
-92.5233525734
 20
249.9144212804
 30
0.0
 10
-92.5985132296
 20
249.8309408546
 30
0.0
 10
-92.6592606149
 20
249.7605226196
 30
0.0
 10
-92.7056753907
 20
249.703076819
 30
0.0
 10
-92.7383320524
 20
249.6606543189
 30
0.0
 10
-92.762754994
 20
249.622651658
 30
0.0
 10
-92.7772006948
 20
249.5972798113
 30
0.0
 10
-92.7795719004
 20
249.5778129563
 30
0.0
 10
-92.7741605348
 20
249.574729752
 30
0.0
  0
SPLINE
  5
36A
100
AcDbEntity
  8
0
100
AcDbSpline
 62
7
  6
CONTINUOUS
 70
0
 71
3
 72
9
 73
5
 74
0
 42
0.0000001
 43
0.0000001
 44
0.0000000001
 40
0.0
 40
0.0
 40
0.0
 40
0.0
 40
0.7471154764
 40
1.0
 40
1.0
 40
1.0
 40
1.0
 10
-84.393978409
 20
255.0632947069
 30
0.0
 10
-84.4335639313
 20
255.1333040029
 30
0.0
 10
-84.5054324243
 20
255.2178687569
 30
0.0
 10
-84.5926646808
 20
255.281068446
 30
0.0
 10
-84.6155670582
 20
255.2957841781
 30
0.0
  0
SPLINE
  5
36B
100
AcDbEntity
  8
0
100
AcDbSpline
 62
7
  6
CONTINUOUS
 70
0
 71
3
 72
10
 73
6
 74
0
 42
0.0000001
 43
0.0000001
 44
0.0000000001
 40
0.0
 40
0.0
 40
0.0
 40
0.0
 40
0.2359684298
 40
0.481846596
 40
1.0
 40
1.0
 40
1.0
 40
1.0
 10
-84.6155670582
 20
255.2957841781
 30
0.0
 10
-84.6767074648
 20
255.3350694377
 30
0.0
 10
-84.8145952794
 20
255.3963155554
 30
0.0
 10
-85.1216306302
 20
255.4426944837
 30
0.0
 10
-85.3615524101
 20
255.3910938642
 30
0.0
 10
-85.5082571332
 20
255.3282929711
 30
0.0
  0
SPLINE
  5
36C
100
AcDbEntity
  8
0
100
AcDbSpline
 62
7
  6
CONTINUOUS
 70
0
 71
3
 72
10
 73
6
 74
0
 42
0.0000001
 43
0.0000001
 44
0.0000000001
 40
0.0
 40
0.0
 40
0.0
 40
0.0
 40
0.3087441621
 40
0.6935036077
 40
1.0
 40
1.0
 40
1.0
 40
1.0
 10
-85.5081623881
 20
255.3282391621
 30
0.0
 10
-85.5211665956
 20
255.3357564104
 30
0.0
 10
-85.5514436046
 20
255.3506827633
 30
0.0
 10
-85.5991945446
 20
255.3641836526
 30
0.0
 10
-85.6341898266
 20
255.3564128754
 30
0.0
 10
-85.6467675871
 20
255.3484038076
 30
0.0
  0
SPLINE
  5
36D
100
AcDbEntity
  8
0
100
AcDbSpline
 62
7
  6
CONTINUOUS
 70
0
 71
3
 72
9
 73
5
 74
0
 42
0.0000001
 43
0.0000001
 44
0.0000000001
 40
0.0
 40
0.0
 40
0.0
 40
0.0
 40
0.2470628159
 40
1.0
 40
1.0
 40
1.0
 40
1.0
 10
-86.5662519251
 20
254.6345426992
 30
0.0
 10
-86.9921688854
 20
254.3462567089
 30
0.0
 10
-88.6952154009
 20
253.1487784484
 30
0.0
 10
-90.3136853458
 20
251.8316339091
 30
0.0
 10
-91.4790961588
 20
250.7835336941
 30
0.0
  0
SPLINE
  5
36E
100
AcDbEntity
  8
0
100
AcDbSpline
 62
7
  6
CONTINUOUS
 70
0
 71
3
 72
9
 73
5
 74
0
 42
0.0000001
 43
0.0000001
 44
0.0000000001
 40
0.0
 40
0.0
 40
0.0
 40
0.0
 40
0.2397431787
 40
1.0
 40
1.0
 40
1.0
 40
1.0
 10
-85.4813363307
 20
255.0005194381
 30
0.0
 10
-85.4414523564
 20
254.5717958384
 30
0.0
 10
-85.1953789356
 20
252.7911303799
 30
0.0
 10
-84.6509633066
 20
251.0577191759
 30
0.0
 10
-84.1179096993
 20
249.8006611713
 30
0.0
  0
SPLINE
  5
36F
100
AcDbEntity
  8
0
100
AcDbSpline
 62
7
  6
CONTINUOUS
 70
0
 71
3
 72
16
 73
12
 74
0
 42
0.0000001
 43
0.0000001
 44
0.0000000001
 40
0.0
 40
0.0
 40
0.0
 40
0.0
 40
0.2424159597
 40
0.4876700844
 40
0.6120783028
 40
0.738521454
 40
0.8029366451
 40
0.8685929647
 40
0.9360165095
 40
0.970100205
 40
1.0
 40
1.0
 40
1.0
 40
1.0
 10
-100.0280620033
 20
219.2361685471
 30
0.0
 10
-100.0058221366
 20
219.2016639642
 30
0.0
 10
-99.9606755277
 20
219.1325117992
 30
0.0
 10
-99.9027884164
 20
219.0465265773
 30
0.0
 10
-99.8547973802
 20
218.9775689615
 30
0.0
 10
-99.8236730593
 20
218.9341922016
 30
0.0
 10
-99.797738486
 20
218.8993358147
 30
0.0
 10
-99.7772752131
 20
218.8729044008
 30
0.0
 10
-99.7593608451
 20
218.8509002035
 30
0.0
 10
-99.7441952384
 20
218.834729488
 30
0.0
 10
-99.7362880639
 20
218.8270680076
 30
0.0
 10
-99.7318951606
 20
218.8245502783
 30
0.0
  0
SPLINE
  5
370
100
AcDbEntity
  8
0
100
AcDbSpline
 62
7
  6
CONTINUOUS
 70
0
 71
3
 72
9
 73
5
 74
0
 42
0.0000001
 43
0.0000001
 44
0.0000000001
 40
0.0
 40
0.0
 40
0.0
 40
0.0
 40
0.2381793435
 40
1.0
 40
1.0
 40
1.0
 40
1.0
 10
-84.1179570954
 20
249.8006407312
 30
0.0
 10
-83.8745899479
 20
249.2267356898
 30
0.0
 10
-82.7460306317
 20
246.8626518176
 30
0.0
 10
-81.2303652408
 20
244.6937919728
 30
0.0
 10
-79.9437504543
 20
243.1705903685
 30
0.0
  0
SPLINE
  5
371
100
AcDbEntity
  8
0
100
AcDbSpline
 62
7
  6
CONTINUOUS
 70
0
 71
3
 72
12
 73
8
 74
0
 42
0.0000001
 43
0.0000001
 44
0.0000000001
 40
0.0
 40
0.0
 40
0.0
 40
0.0
 40
0.1350474207
 40
0.240795642
 40
0.3706716856
 40
0.6760971848
 40
1.0
 40
1.0
 40
1.0
 40
1.0
 10
-102.9343928932
 20
227.243218503
 30
0.0
 10
-102.9215039307
 20
227.2549001482
 30
0.0
 10
-102.8842657254
 20
227.2529961295
 30
0.0
 10
-102.8411683437
 20
227.236200827
 30
0.0
 10
-102.7789386976
 20
227.2031484203
 30
0.0
 10
-102.6999562643
 20
227.1455073448
 30
0.0
 10
-102.6387696183
 20
227.0921121247
 30
0.0
 10
-102.6083783627
 20
227.0635289203
 30
0.0
  0
SPLINE
  5
372
100
AcDbEntity
  8
0
100
AcDbSpline
 62
7
  6
CONTINUOUS
 70
0
 71
3
 72
9
 73
5
 74
0
 42
0.0000001
 43
0.0000001
 44
0.0000000001
 40
0.0
 40
0.0
 40
0.0
 40
0.0
 40
0.2447127095
 40
1.0
 40
1.0
 40
1.0
 40
1.0
 10
-91.3659382891
 20
212.4415968103
 30
0.0
 10
-91.9311093508
 20
212.7380474528
 30
0.0
 10
-94.2259914602
 20
213.9770402562
 30
0.0
 10
-96.4591403161
 20
215.3315956337
 30
0.0
 10
-98.0980342374
 20
216.4242920667
 30
0.0
  0
SPLINE
  5
373
100
AcDbEntity
  8
0
100
AcDbSpline
 62
7
  6
CONTINUOUS
 70
0
 71
3
 72
9
 73
5
 74
0
 42
0.0000001
 43
0.0000001
 44
0.0000000001
 40
0.0
 40
0.0
 40
0.0
 40
0.0
 40
0.2437994296
 40
1.0
 40
1.0
 40
1.0
 40
1.0
 10
-91.3659382891
 20
212.4415968103
 30
0.0
 10
-92.0344978451
 20
212.8213545792
 30
0.0
 10
-94.7403143153
 20
214.4408722693
 30
0.0
 10
-97.2889649328
 20
216.3345217675
 30
0.0
 10
-99.0569290957
 20
217.9351370399
 30
0.0
  0
SPLINE
  5
374
100
AcDbEntity
  8
0
100
AcDbSpline
 62
7
  6
CONTINUOUS
 70
0
 71
3
 72
11
 73
7
 74
0
 42
0.0000001
 43
0.0000001
 44
0.0000000001
 40
0.0
 40
0.0
 40
0.0
 40
0.0
 40
0.187850676
 40
0.3965627435
 40
0.6681218971
 40
1.0
 40
1.0
 40
1.0
 40
1.0
 10
-102.4265230516
 20
227.7055076682
 30
0.0
 10
-102.4067687106
 20
227.7234924643
 30
0.0
 10
-102.3511849058
 20
227.7500954843
 30
0.0
 10
-102.2543162342
 20
227.7215882295
 30
0.0
 10
-102.1666168439
 20
227.6440681801
 30
0.0
 10
-102.1170285
 20
227.5732275609
 30
0.0
 10
-102.0932231762
 20
227.5324732026
 30
0.0
  0
SPLINE
  5
375
100
AcDbEntity
  8
0
100
AcDbSpline
 62
7
  6
CONTINUOUS
 70
0
 71
3
 72
9
 73
5
 74
0
 42
0.0000001
 43
0.0000001
 44
0.0000000001
 40
0.0
 40
0.0
 40
0.0
 40
0.0
 40
0.4898768919
 40
1.0
 40
1.0
 40
1.0
 40
1.0
 10
-99.7318951606
 20
218.8245502783
 30
0.0
 10
-97.5723744964
 20
217.5793333009
 30
0.0
 10
-93.0131442922
 20
215.2927720169
 30
0.0
 10
-88.2399383961
 20
213.501645395
 30
0.0
 10
-85.7690061346
 20
212.7061267432
 30
0.0
  0
SPLINE
  5
376
100
AcDbEntity
  8
0
100
AcDbSpline
 62
7
  6
CONTINUOUS
 70
0
 71
3
 72
9
 73
5
 74
0
 42
0.0000001
 43
0.0000001
 44
0.0000000001
 40
0.0
 40
0.0
 40
0.0
 40
0.0
 40
0.5049390607
 40
1.0
 40
1.0
 40
1.0
 40
1.0
 10
-85.60350858
 20
212.6515553255
 30
0.0
 10
-85.3034575339
 20
212.1540534067
 30
0.0
 10
-84.6481910576
 20
211.2041056761
 30
0.0
 10
-83.8752396367
 20
210.3466756302
 30
0.0
 10
-83.4661761942
 20
209.9502812197
 30
0.0
  0
SPLINE
  5
377
100
AcDbEntity
  8
0
100
AcDbSpline
 62
7
  6
CONTINUOUS
 70
0
 71
3
 72
9
 73
5
 74
0
 42
0.0000001
 43
0.0000001
 44
0.0000000001
 40
0.0
 40
0.0
 40
0.0
 40
0.0
 40
0.2410086469
 40
1.0
 40
1.0
 40
1.0
 40
1.0
 10
-83.9762232822
 20
208.952738303
 30
0.0
 10
-84.588758911
 20
209.1898197323
 30
0.0
 10
-87.1136939963
 20
210.2155121037
 30
0.0
 10
-89.567375657
 20
211.4199717037
 30
0.0
 10
-91.3659376373
 20
212.4415977379
 30
0.0
  0
SPLINE
  5
378
100
AcDbEntity
  8
0
100
AcDbSpline
 62
7
  6
CONTINUOUS
 70
0
 71
3
 72
11
 73
7
 74
0
 42
0.0000001
 43
0.0000001
 44
0.0000000001
 40
0.0
 40
0.0
 40
0.0
 40
0.0
 40
0.2720462297
 40
0.5323647582
 40
0.7742505703
 40
1.0
 40
1.0
 40
1.0
 40
1.0
 10
-84.1179570834
 20
249.800640703
 30
0.0
 10
-84.0542980422
 20
249.8282364296
 30
0.0
 10
-83.9209741464
 20
249.8643612492
 30
0.0
 10
-83.7203652526
 20
249.8562062166
 30
0.0
 10
-83.5442631684
 20
249.7850937345
 30
0.0
 10
-83.4578723772
 20
249.6964438421
 30
0.0
 10
-83.428265038
 20
249.6470643829
 30
0.0
  0
SPLINE
  5
379
100
AcDbEntity
  8
0
100
AcDbSpline
 62
7
  6
CONTINUOUS
 70
0
 71
3
 72
11
 73
7
 74
0
 42
0.0000001
 43
0.0000001
 44
0.0000000001
 40
0.0
 40
0.0
 40
0.0
 40
0.0
 40
0.3105385212
 40
0.5852822113
 40
0.8122209635
 40
1.0
 40
1.0
 40
1.0
 40
1.0
 10
-99.3543555259
 20
217.2823516584
 30
0.0
 10
-99.408589472
 20
217.1852940071
 30
0.0
 10
-99.4912615674
 20
216.9904858543
 30
0.0
 10
-99.5415308075
 20
216.7011175144
 30
0.0
 10
-99.5105865124
 20
216.4509281475
 30
0.0
 10
-99.4234996091
 20
216.3202791353
 30
0.0
 10
-99.3704163113
 20
216.2790223188
 30
0.0
  0
SPLINE
  5
37A
100
AcDbEntity
  8
0
100
AcDbSpline
 62
7
  6
CONTINUOUS
 70
0
 71
3
 72
12
 73
8
 74
0
 42
0.0000001
 43
0.0000001
 44
0.0000000001
 40
0.0
 40
0.0
 40
0.0
 40
0.0
 40
0.1669889981
 40
0.2719492507
 40
0.3928792318
 40
0.6770545004
 40
1.0
 40
1.0
 40
1.0
 40
1.0
 10
-91.3996687531
 20
211.8758680948
 30
0.0
 10
-91.4257378427
 20
211.8964723044
 30
0.0
 10
-91.4530705469
 20
211.9481702866
 30
0.0
 10
-91.4655921433
 20
212.0251002548
 30
0.0
 10
-91.4657361187
 20
212.1271540071
 30
0.0
 10
-91.4371255692
 20
212.2703212477
 30
0.0
 10
-91.3934679159
 20
212.3835306813
 30
0.0
 10
-91.3659382939
 20
212.4415968115
 30
0.0
  0
SPLINE
  5
37B
100
AcDbEntity
  8
0
100
AcDbSpline
 62
7
  6
CONTINUOUS
 70
0
 71
3
 72
9
 73
5
 74
0
 42
0.0000001
 43
0.0000001
 44
0.0000000001
 40
0.0
 40
0.0
 40
0.0
 40
0.0
 40
0.5524173683
 40
1.0
 40
1.0
 40
1.0
 40
1.0
 10
-79.4788748548
 20
242.6322166448
 30
0.0
 10
-79.4649564594
 20
242.6418630588
 30
0.0
 10
-79.4348876764
 20
242.6549636687
 30
0.0
 10
-79.4017205401
 20
242.6427504937
 30
0.0
 10
-79.3930928762
 20
242.6320817878
 30
0.0
  0
SPLINE
  5
37C
100
AcDbEntity
  8
0
100
AcDbSpline
 62
7
  6
CONTINUOUS
 70
0
 71
3
 72
9
 73
5
 74
0
 42
0.0000001
 43
0.0000001
 44
0.0000000001
 40
0.0
 40
0.0
 40
0.0
 40
0.0
 40
0.3003969865
 40
1.0
 40
1.0
 40
1.0
 40
1.0
 10
-78.6298747721
 20
241.7052709505
 30
0.0
 10
-78.6290035752
 20
241.7059020673
 30
0.0
 10
-78.6259871024
 20
241.7077010844
 30
0.0
 10
-78.6212561937
 20
241.7075539943
 30
0.0
 10
-78.6196072722
 20
241.7056677006
 30
0.0
  0
SPLINE
  5
37D
100
AcDbEntity
  8
0
100
AcDbSpline
 62
7
  6
CONTINUOUS
 70
0
 71
3
 72
9
 73
5
 74
0
 42
0.0000001
 43
0.0000001
 44
0.0000000001
 40
0.0
 40
0.0
 40
0.0
 40
0.0
 40
0.4997672348
 40
1.0
 40
1.0
 40
1.0
 40
1.0
 10
-79.2140388396
 20
240.9052119652
 30
0.0
 10
-79.2382693034
 20
240.9241964409
 30
0.0
 10
-79.2893847195
 20
240.958675889
 30
0.0
 10
-79.3388669892
 20
240.9953509732
 30
0.0
 10
-79.3641884444
 20
241.0129041967
 30
0.0
  0
SPLINE
  5
37E
100
AcDbEntity
  8
0
100
AcDbSpline
 62
7
  6
CONTINUOUS
 70
0
 71
3
 72
11
 73
7
 74
0
 42
0.0000001
 43
0.0000001
 44
0.0000000001
 40
0.0
 40
0.0
 40
0.0
 40
0.0
 40
0.3069621566
 40
0.5708505316
 40
0.7954446402
 40
1.0
 40
1.0
 40
1.0
 40
1.0
 10
-91.7477658055
 20
211.9050854752
 30
0.0
 10
-91.7544730305
 20
211.82808859
 30
0.0
 10
-91.7524469017
 20
211.6829358849
 30
0.0
 10
-91.6996362562
 20
211.4869896558
 30
0.0
 10
-91.5981268301
 20
211.339474526
 30
0.0
 10
-91.4997517418
 20
211.2844201384
 30
0.0
 10
-91.4501476091
 20
211.2705605162
 30
0.0
  0
SPLINE
  5
37F
100
AcDbEntity
  8
0
100
AcDbSpline
 62
7
  6
CONTINUOUS
 70
0
 71
3
 72
9
 73
5
 74
0
 42
0.0000001
 43
0.0000001
 44
0.0000000001
 40
0.0
 40
0.0
 40
0.0
 40
0.0
 40
0.2521046789
 40
1.0
 40
1.0
 40
1.0
 40
1.0
 10
-93.860383467
 20
248.9743417796
 30
0.0
 10
-93.6811429259
 20
249.1510881041
 30
0.0
 10
-92.9607815945
 20
249.8425755653
 30
0.0
 10
-92.2029222014
 20
250.4951138839
 30
0.0
 10
-91.6167388891
 20
250.9577816375
 30
0.0
  0
SPLINE
  5
380
100
AcDbEntity
  8
0
100
AcDbSpline
 62
7
  6
CONTINUOUS
 70
0
 71
3
 72
9
 73
5
 74
0
 42
0.0000001
 43
0.0000001
 44
0.0000000001
 40
0.0
 40
0.0
 40
0.0
 40
0.0
 40
0.4447646135
 40
1.0
 40
1.0
 40
1.0
 40
1.0
 10
-66.5856843116
 20
251.0817873936
 30
0.0
 10
-66.3996664848
 20
250.9644753445
 30
0.0
 10
-66.0053771248
 20
250.663459432
 30
0.0
 10
-65.6388544944
 20
250.3314051197
 30
0.0
 10
-65.4394649049
 20
250.1426778064
 30
0.0
  0
SPLINE
  5
381
100
AcDbEntity
  8
0
100
AcDbSpline
 62
7
  6
CONTINUOUS
 70
0
 71
3
 72
9
 73
5
 74
0
 42
0.0000001
 43
0.0000001
 44
0.0000000001
 40
0.0
 40
0.0
 40
0.0
 40
0.0
 40
0.4810809894
 40
1.0
 40
1.0
 40
1.0
 40
1.0
 10
-92.7741605348
 20
249.574729752
 30
0.0
 10
-90.5647741478
 20
248.2977306194
 30
0.0
 10
-86.0375773196
 20
245.5294707161
 30
0.0
 10
-81.626390388
 20
242.5810917282
 30
0.0
 10
-79.3641892089
 20
241.0128989673
 30
0.0
  0
SPLINE
  5
382
100
AcDbEntity
  8
0
100
AcDbSpline
 62
7
  6
CONTINUOUS
 70
0
 71
3
 72
9
 73
5
 74
0
 42
0.0000001
 43
0.0000001
 44
0.0000000001
 40
0.0
 40
0.0
 40
0.0
 40
0.0
 40
0.4960378334
 40
1.0
 40
1.0
 40
1.0
 40
1.0
 10
-79.2140050448
 20
240.9051511062
 30
0.0
 10
-80.4312311969
 20
239.7968668075
 30
0.0
 10
-82.6712789202
 20
237.3186989869
 30
0.0
 10
-84.4265734185
 20
234.4786105478
 30
0.0
 10
-85.1745381577
 20
232.9826968719
 30
0.0
  0
SPLINE
  5
383
100
AcDbEntity
  8
0
100
AcDbSpline
 62
7
  6
CONTINUOUS
 70
0
 71
3
 72
12
 73
8
 74
0
 42
0.0000001
 43
0.0000001
 44
0.0000000001
 40
0.0
 40
0.0
 40
0.0
 40
0.0
 40
0.128056443
 40
0.255289617
 40
0.507263517
 40
0.7557013627
 40
1.0
 40
1.0
 40
1.0
 40
1.0
 10
-86.2864210481
 20
234.0547237521
 30
0.0
 10
-86.5742938973
 20
234.3458924682
 30
0.0
 10
-87.1399318638
 20
234.9347083048
 30
0.0
 10
-88.2153568969
 20
236.1493374952
 30
0.0
 10
-89.4478188374
 20
237.7368733265
 30
0.0
 10
-90.7304441295
 20
239.7469408747
 30
0.0
 10
-91.4488520559
 20
241.152377024
 30
0.0
 10
-91.769775252
 20
241.864533576
 30
0.0
  0
SPLINE
  5
384
100
AcDbEntity
  8
0
100
AcDbSpline
 62
7
  6
CONTINUOUS
 70
0
 71
3
 72
9
 73
5
 74
0
 42
0.0000001
 43
0.0000001
 44
0.0000000001
 40
0.0
 40
0.0
 40
0.0
 40
0.0
 40
0.5093903632
 40
1.0
 40
1.0
 40
1.0
 40
1.0
 10
-91.769774658
 20
241.8645327038
 30
0.0
 10
-92.2621056011
 20
242.9570580717
 30
0.0
 10
-93.0584983186
 20
245.1842660955
 30
0.0
 10
-93.4165821096
 20
247.5301255361
 30
0.0
 10
-93.4558404437
 20
248.683609071
 30
0.0
  0
SPLINE
  5
385
100
AcDbEntity
  8
0
100
AcDbSpline
 62
7
  6
CONTINUOUS
 70
0
 71
3
 72
9
 73
5
 74
0
 42
0.0000001
 43
0.0000001
 44
0.0000000001
 40
0.0
 40
0.0
 40
0.0
 40
0.0
 40
0.4977553822
 40
1.0
 40
1.0
 40
1.0
 40
1.0
 10
-85.345696783
 20
233.1240178267
 30
0.0
 10
-85.5048877724
 20
233.2752217137
 30
0.0
 10
-85.8191551109
 20
233.5847710373
 30
0.0
 10
-86.1321009929
 20
233.8956586316
 30
0.0
 10
-86.2863593703
 20
234.0546623024
 30
0.0
  0
SPLINE
  5
386
100
AcDbEntity
  8
0
100
AcDbSpline
 62
7
  6
CONTINUOUS
 70
0
 71
3
 72
9
 73
5
 74
0
 42
0.0000001
 43
0.0000001
 44
0.0000000001
 40
0.0
 40
0.0
 40
0.0
 40
0.0
 40
0.7944753248
 40
1.0
 40
1.0
 40
1.0
 40
1.0
 10
-85.3564189988
 20
233.1179783374
 30
0.0
 10
-85.3546661583
 20
233.1208732378
 30
0.0
 10
-85.3509169146
 20
233.1241488415
 30
0.0
 10
-85.3465079156
 20
233.1242334524
 30
0.0
 10
-85.3456669947
 20
233.1239899368
 30
0.0
  0
SPLINE
  5
387
100
AcDbEntity
  8
0
100
AcDbSpline
 62
7
  6
CONTINUOUS
 70
0
 71
3
 72
9
 73
5
 74
0
 42
0.0000001
 43
0.0000001
 44
0.0000000001
 40
0.0
 40
0.0
 40
0.0
 40
0.0
 40
0.455549362
 40
1.0
 40
1.0
 40
1.0
 40
1.0
 10
-65.4395079149
 20
250.1427019966
 30
0.0
 10
-65.1302191282
 20
249.8499528805
 30
0.0
 10
-64.4732044307
 20
249.1843075828
 30
0.0
 10
-63.8377097076
 20
248.4986677698
 30
0.0
 10
-63.4945579048
 20
248.122766802
 30
0.0
  0
SPLINE
  5
388
100
AcDbEntity
  8
0
100
AcDbSpline
 62
7
  6
CONTINUOUS
 70
0
 71
3
 72
9
 73
5
 74
0
 42
0.0000001
 43
0.0000001
 44
0.0000000001
 40
0.0
 40
0.0
 40
0.0
 40
0.0
 40
0.2358441216
 40
1.0
 40
1.0
 40
1.0
 40
1.0
 10
-63.4945579048
 20
248.122766802
 30
0.0
 10
-63.3827008085
 20
248.0002344698
 30
0.0
 10
-62.9098159773
 20
247.4794087591
 30
0.0
 10
-62.4415284994
 20
246.9544277066
 30
0.0
 10
-62.0848843041
 20
246.5522093628
 30
0.0
  0
SPLINE
  5
389
100
AcDbEntity
  8
0
100
AcDbSpline
 62
7
  6
CONTINUOUS
 70
0
 71
3
 72
9
 73
5
 74
0
 42
0.0000001
 43
0.0000001
 44
0.0000000001
 40
0.0
 40
0.0
 40
0.0
 40
0.0
 40
0.2472050695
 40
1.0
 40
1.0
 40
1.0
 40
1.0
 10
-62.0848924714
 20
246.5522129635
 30
0.0
 10
-62.0562582453
 20
246.519919836
 30
0.0
 10
-61.9404610389
 20
246.3892561492
 30
0.0
 10
-61.8247962926
 20
246.2584750932
 30
0.0
 10
-61.7377876237
 20
246.1599680286
 30
0.0
  0
LINE
  5
38A
100
AcDbEntity
  8
0
100
AcDbLine
 62
7
  6
CONTINUOUS
 10
-61.740955986
 20
246.1612270706
 11
-61.4452701052
 21
245.8269690491
  0
SPLINE
  5
38B
100
AcDbEntity
  8
0
100
AcDbSpline
 62
7
  6
CONTINUOUS
 70
0
 71
3
 72
9
 73
5
 74
0
 42
0.0000001
 43
0.0000001
 44
0.0000000001
 40
0.0
 40
0.0
 40
0.0
 40
0.0
 40
0.5221217837
 40
1.0
 40
1.0
 40
1.0
 40
1.0
 10
-70.4608752814
 20
247.0803043054
 30
0.0
 10
-70.4503553739
 20
247.0818844094
 30
0.0
 10
-70.4290665834
 20
247.0807803759
 30
0.0
 10
-70.4112586443
 20
247.0683071489
 30
0.0
 10
-70.4053867122
 20
247.0605405927
 30
0.0
  0
SPLINE
  5
38C
100
AcDbEntity
  8
0
100
AcDbSpline
 62
7
  6
CONTINUOUS
 70
0
 71
3
 72
10
 73
6
 74
0
 42
0.0000001
 43
0.0000001
 44
0.0000000001
 40
0.0
 40
0.0
 40
0.0
 40
0.0
 40
0.5078760913
 40
0.7552718852
 40
1.0
 40
1.0
 40
1.0
 40
1.0
 10
-74.2167992531
 20
252.9061909677
 30
0.0
 10
-74.1176963122
 20
252.9040869856
 30
0.0
 10
-73.9662791197
 20
252.8608220166
 30
0.0
 10
-73.8180613607
 20
252.7304372
 30
0.0
 10
-73.7669549818
 20
252.6469706162
 30
0.0
 10
-73.7485151469
 20
252.6029084425
 30
0.0
  0
SPLINE
  5
38D
100
AcDbEntity
  8
0
100
AcDbSpline
 62
7
  6
CONTINUOUS
 70
0
 71
3
 72
9
 73
5
 74
0
 42
0.0000001
 43
0.0000001
 44
0.0000000001
 40
0.0
 40
0.0
 40
0.0
 40
0.0
 40
0.2570818667
 40
1.0
 40
1.0
 40
1.0
 40
1.0
 10
-75.2666205925
 20
256.3551678693
 30
0.0
 10
-75.2745277146
 20
256.3597409413
 30
0.0
 10
-75.3062896472
 20
256.3756682024
 30
0.0
 10
-75.3425430948
 20
256.3831641639
 30
0.0
 10
-75.3689253296
 20
256.3822987224
 30
0.0
  0
SPLINE
  5
38E
100
AcDbEntity
  8
0
100
AcDbSpline
 62
7
  6
CONTINUOUS
 70
0
 71
3
 72
9
 73
5
 74
0
 42
0.0000001
 43
0.0000001
 44
0.0000000001
 40
0.0
 40
0.0
 40
0.0
 40
0.0
 40
0.5001807505
 40
1.0
 40
1.0
 40
1.0
 40
1.0
 10
-85.6059029954
 20
232.0796317963
 30
0.0
 10
-85.6324131497
 20
232.0961107267
 30
0.0
 10
-85.6875219415
 20
232.125514588
 30
0.0
 10
-85.7414625392
 20
232.1568941996
 30
0.0
 10
-85.7688781989
 20
232.1717709313
 30
0.0
  0
SPLINE
  5
38F
100
AcDbEntity
  8
0
100
AcDbSpline
 62
7
  6
CONTINUOUS
 70
0
 71
3
 72
11
 73
7
 74
0
 42
0.0000001
 43
0.0000001
 44
0.0000000001
 40
0.0
 40
0.0
 40
0.0
 40
0.0
 40
0.254704818
 40
0.5018433529
 40
0.7479915176
 40
1.0
 40
1.0
 40
1.0
 40
1.0
 10
-74.4730198773
 20
255.5307399671
 30
0.0
 10
-74.4729676018
 20
255.6374760634
 30
0.0
 10
-74.5126248466
 20
255.8503912676
 30
0.0
 10
-74.6892217475
 20
256.1190079288
 30
0.0
 10
-74.9531285336
 20
256.2995254957
 30
0.0
 10
-75.161335196
 20
256.3483181485
 30
0.0
 10
-75.2667154636
 20
256.3552222156
 30
0.0
  0
SPLINE
  5
390
100
AcDbEntity
  8
0
100
AcDbSpline
 62
7
  6
CONTINUOUS
 70
0
 71
3
 72
8
 73
4
 74
0
 42
0.0000001
 43
0.0000001
 44
0.0000000001
 40
0.0
 40
0.0
 40
0.0
 40
0.0
 40
1.0
 40
1.0
 40
1.0
 40
1.0
 10
-69.7550833027
 20
246.2182028536
 30
0.0
 10
-69.7527747258
 20
246.2185944631
 30
0.0
 10
-69.7498644601
 20
246.2178539369
 30
0.0
 10
-69.7484056231
 20
246.2160223585
 30
0.0
  0
SPLINE
  5
391
100
AcDbEntity
  8
0
100
AcDbSpline
 62
7
  6
CONTINUOUS
 70
0
 71
3
 72
11
 73
7
 74
0
 42
0.0000001
 43
0.0000001
 44
0.0000000001
 40
0.0
 40
0.0
 40
0.0
 40
0.0
 40
0.2510941697
 40
0.5014853852
 40
0.7508821185
 40
1.0
 40
1.0
 40
1.0
 40
1.0
 10
-70.3849069775
 20
245.8767181272
 30
0.0
 10
-70.3237427971
 20
245.8955538872
 30
0.0
 10
-70.2022915395
 20
245.9354202768
 30
0.0
 10
-70.0192853827
 20
245.9914715762
 30
0.0
 10
-69.835815089
 20
246.0441518736
 30
0.0
 10
-69.7137153004
 20
246.0793110763
 30
0.0
 10
-69.6526190103
 20
246.0965988042
 30
0.0
  0
SPLINE
  5
392
100
AcDbEntity
  8
0
100
AcDbSpline
 62
7
  6
CONTINUOUS
 70
0
 71
3
 72
9
 73
5
 74
0
 42
0.0000001
 43
0.0000001
 44
0.0000000001
 40
0.0
 40
0.0
 40
0.0
 40
0.0
 40
0.4987244675
 40
1.0
 40
1.0
 40
1.0
 40
1.0
 10
-69.6526191173
 20
246.0506646401
 30
0.0
 10
-69.7749444487
 20
246.0243211685
 30
0.0
 10
-70.0194879976
 20
245.9681403595
 30
0.0
 10
-70.2632451978
 20
245.9086002179
 30
0.0
 10
-70.3849069775
 20
245.8767181272
 30
0.0
  0
SPLINE
  5
393
100
AcDbEntity
  8
0
100
AcDbSpline
 62
7
  6
CONTINUOUS
 70
0
 71
3
 72
9
 73
5
 74
0
 42
0.0000001
 43
0.0000001
 44
0.0000000001
 40
0.0
 40
0.0
 40
0.0
 40
0.0
 40
0.232265066
 40
1.0
 40
1.0
 40
1.0
 40
1.0
 10
-75.2664967439
 20
256.3552362724
 30
0.0
 10
-75.2585424984
 20
256.2623431768
 30
0.0
 10
-75.213945129
 20
255.8632893853
 30
0.0
 10
-75.1318074287
 20
255.468981861
 30
0.0
 10
-75.0546354546
 20
255.1706259939
 30
0.0
  0
SPLINE
  5
394
100
AcDbEntity
  8
0
100
AcDbSpline
 62
7
  6
CONTINUOUS
 70
0
 71
3
 72
9
 73
5
 74
0
 42
0.0000001
 43
0.0000001
 44
0.0000000001
 40
0.0
 40
0.0
 40
0.0
 40
0.0
 40
0.4698701363
 40
1.0
 40
1.0
 40
1.0
 40
1.0
 10
-75.0546354546
 20
255.1706259939
 30
0.0
 10
-74.9598400794
 20
254.8041359998
 30
0.0
 10
-74.7118704541
 20
254.0359274787
 30
0.0
 10
-74.397198376
 20
253.2932927041
 30
0.0
 10
-74.2167397891
 20
252.9061896684
 30
0.0
  0
SPLINE
  5
395
100
AcDbEntity
  8
0
100
AcDbSpline
 62
7
  6
CONTINUOUS
 70
0
 71
3
 72
10
 73
6
 74
0
 42
0.0000001
 43
0.0000001
 44
0.0000000001
 40
0.0
 40
0.0
 40
0.0
 40
0.0
 40
0.2204346719
 40
0.4612890767
 40
1.0
 40
1.0
 40
1.0
 40
1.0
 10
-74.2167992641
 20
252.9061909914
 30
0.0
 10
-74.0204428801
 20
252.4849932363
 30
0.0
 10
-73.5757515616
 20
251.6191059248
 30
0.0
 10
-72.4978922973
 20
249.8062505797
 30
0.0
 10
-71.5407937918
 20
248.4658277082
 30
0.0
 10
-70.8449087249
 20
247.5682909861
 30
0.0
  0
SPLINE
  5
396
100
AcDbEntity
  8
0
100
AcDbSpline
 62
7
  6
CONTINUOUS
 70
0
 71
3
 72
14
 73
10
 74
0
 42
0.0000001
 43
0.0000001
 44
0.0000000001
 40
0.0
 40
0.0
 40
0.0
 40
0.0
 40
0.1247655922
 40
0.2495355874
 40
0.3744032192
 40
0.4994097821
 40
0.6245084344
 40
0.7496452647
 40
1.0
 40
1.0
 40
1.0
 40
1.0
 10
8.1277606164
 20
209.855219588
 30
0.0
 10
8.1911600617
 20
209.852743168
 30
0.0
 10
8.3179519199
 20
209.8475564862
 30
0.0
 10
8.5081913218
 20
209.8397970872
 30
0.0
 10
8.6985874373
 20
209.8328923216
 30
0.0
 10
8.8891919216
 20
209.8272413785
 30
0.0
 10
9.0799538843
 20
209.8223643661
 30
0.0
 10
9.3344512552
 20
209.8163636815
 30
0.0
 10
9.5253620292
 20
209.8123917602
 30
0.0
 10
9.6526569786
 20
209.8101669947
 30
0.0
  0
SPLINE
  5
397
100
AcDbEntity
  8
0
100
AcDbSpline
 62
7
  6
CONTINUOUS
 70
0
 71
3
 72
15
 73
11
 74
0
 42
0.0000001
 43
0.0000001
 44
0.0000000001
 40
0.0
 40
0.0
 40
0.0
 40
0.0
 40
0.1317357898
 40
0.262473094
 40
0.3916803308
 40
0.5189163596
 40
0.6437684318
 40
0.7658392974
 40
0.8847294624
 40
1.0
 40
1.0
 40
1.0
 40
1.0
 10
13.6292553884
 20
208.0766512277
 30
0.0
 10
14.3217320248
 20
208.099641597
 30
0.0
 10
15.700921166
 20
208.1629610748
 30
0.0
 10
17.7558959075
 20
208.3102218035
 30
0.0
 10
19.7827649968
 20
208.5090739879
 30
0.0
 10
21.7728445721
 20
208.7585416894
 30
0.0
 10
23.7181143641
 20
209.0576735711
 30
0.0
 10
25.6107392297
 20
209.4051929841
 30
0.0
 10
27.4426042819
 20
209.7997338418
 30
0.0
 10
28.6378418361
 20
210.0977455578
 30
0.0
 10
29.2234284223
 20
210.2547152528
 30
0.0
  0
SPLINE
  5
398
100
AcDbEntity
  8
0
100
AcDbSpline
 62
7
  6
CONTINUOUS
 70
0
 71
3
 72
15
 73
11
 74
0
 42
0.0000001
 43
0.0000001
 44
0.0000000001
 40
0.0
 40
0.0
 40
0.0
 40
0.0
 40
0.1465473883
 40
0.2875858852
 40
0.4226509842
 40
0.5514310107
 40
0.6736884293
 40
0.7892597015
 40
0.8980442843
 40
1.0
 40
1.0
 40
1.0
 40
1.0
 10
29.2234284223
 20
210.2547152528
 30
0.0
 10
29.7890997102
 20
210.406346543
 30
0.0
 10
30.8942485098
 20
210.7227639668
 30
0.0
 10
32.5001149833
 20
211.2475015842
 30
0.0
 10
34.0170899203
 20
211.8117067397
 30
0.0
 10
35.4387407758
 20
212.412826531
 30
0.0
 10
36.7593966367
 20
213.0485413108
 30
0.0
 10
37.973871187
 20
213.7162737091
 30
0.0
 10
39.076917944
 20
214.4133754068
 30
0.0
 10
39.756966679
 20
214.9117113737
 30
0.0
 10
40.0755372901
 20
215.1657220879
 30
0.0
  0
SPLINE
  5
399
100
AcDbEntity
  8
0
100
AcDbSpline
 62
7
  6
CONTINUOUS
 70
0
 71
3
 72
11
 73
7
 74
0
 42
0.0000001
 43
0.0000001
 44
0.0000000001
 40
0.0
 40
0.0
 40
0.0
 40
0.0
 40
0.2559640911
 40
0.506898426
 40
0.7543527226
 40
1.0
 40
1.0
 40
1.0
 40
1.0
 10
38.6213603422
 20
219.2205234894
 30
0.0
 10
38.6691513366
 20
219.3500995574
 30
0.0
 10
38.75358041
 20
219.6106298005
 30
0.0
 10
38.8458895325
 20
220.0075538445
 30
0.0
 10
38.9019826599
 20
220.4055940599
 30
0.0
 10
38.9149800308
 20
220.6717790402
 30
0.0
 10
38.9153016984
 20
220.8043205153
 30
0.0
  0
SPLINE
  5
39A
100
AcDbEntity
  8
0
100
AcDbSpline
 62
7
  6
CONTINUOUS
 70
0
 71
3
 72
9
 73
5
 74
0
 42
0.0000001
 43
0.0000001
 44
0.0000000001
 40
0.0
 40
0.0
 40
0.0
 40
0.0
 40
0.2459108142
 40
1.0
 40
1.0
 40
1.0
 40
1.0
 10
-15.7831196596
 20
217.1358849782
 30
0.0
 10
-15.7662769887
 20
217.1476599816
 30
0.0
 10
-15.6987104475
 20
217.1968573838
 30
0.0
 10
-15.6348971867
 20
217.2511669051
 30
0.0
 10
-15.5890596566
 20
217.2944135442
 30
0.0
  0
SPLINE
  5
39B
100
AcDbEntity
  8
0
100
AcDbSpline
 62
7
  6
CONTINUOUS
 70
0
 71
3
 72
11
 73
7
 74
0
 42
0.0000001
 43
0.0000001
 44
0.0000000001
 40
0.0
 40
0.0
 40
0.0
 40
0.0
 40
0.2447249437
 40
0.4915882895
 40
0.7427297302
 40
1.0
 40
1.0
 40
1.0
 40
1.0
 10
-27.4822849272
 20
228.1017640327
 30
0.0
 10
-27.3105743609
 20
228.1477906863
 30
0.0
 10
-26.9704865934
 20
228.2594680518
 30
0.0
 10
-26.4785266428
 20
228.4834607848
 30
0.0
 10
-26.0054985676
 20
228.7633366422
 30
0.0
 10
-25.7079810985
 20
228.9833572328
 30
0.0
 10
-25.5632022606
 20
229.1015318185
 30
0.0
  0
SPLINE
  5
39C
100
AcDbEntity
  8
0
100
AcDbSpline
 62
7
  6
CONTINUOUS
 70
0
 71
3
 72
35
 73
31
 74
0
 42
0.0000001
 43
0.0000001
 44
0.0000000001
 40
0.0
 40
0.0
 40
0.0
 40
0.0
 40
0.0172768638
 40
0.0347547484
 40
0.0526228176
 40
0.0710547479
 40
0.0902054676
 40
0.1102066241
 40
0.1311665228
 40
0.1531735495
 40
0.1762948404
 40
0.2005786306
 40
0.2260595018
 40
0.2527570377
 40
0.2806773848
 40
0.3098184039
 40
0.3401679172
 40
0.3717039723
 40
0.4043995834
 40
0.4382209437
 40
0.4731266796
 40
0.5090722296
 40
0.5460085672
 40
0.5838808841
 40
0.66219712
 40
0.7435250772
 40
0.8273244451
 40
0.8699775334
 40
0.9130325431
 40
1.0
 40
1.0
 40
1.0
 40
1.0
 10
-17.0644629283
 20
220.7778275333
 30
0.0
 10
-17.0640330238
 20
220.6092243034
 30
0.0
 10
-17.043237851
 20
220.2697778371
 30
0.0
 10
-16.9524105703
 20
219.7632477689
 30
0.0
 10
-16.8022995068
 20
219.2592558494
 30
0.0
 10
-16.5934635659
 20
218.7590134327
 30
0.0
 10
-16.3264098046
 20
218.2636060473
 30
0.0
 10
-16.0019063289
 20
217.7740226413
 30
0.0
 10
-15.6207855134
 20
217.291172233
 30
0.0
 10
-15.1838237266
 20
216.8160524191
 30
0.0
 10
-14.6920010208
 20
216.3495681675
 30
0.0
 10
-14.1464017669
 20
215.8925823153
 30
0.0
 10
-13.5481094031
 20
215.4460674347
 30
0.0
 10
-12.8983822846
 20
215.0109156787
 30
0.0
 10
-12.1986075245
 20
214.5879569318
 30
0.0
 10
-11.4502025642
 20
214.1781182801
 30
0.0
 10
-10.6547283447
 20
213.782251874
 30
0.0
 10
-9.8138752497
 20
213.4011203952
 30
0.0
 10
-8.9293769551
 20
213.0355667994
 30
0.0
 10
-8.003081156
 20
212.6863734601
 30
0.0
 10
-7.0369531038
 20
212.3542171221
 30
0.0
 10
-6.033005439
 20
212.0398420491
 30
0.0
 10
-4.9933338389
 20
211.743928685
 30
0.0
 10
-3.5462599539
 20
211.3705724954
 30
0.0
 10
-1.6630879764
 20
210.9559145696
 30
0.0
 10
0.6777189583
 20
210.5460825695
 30
0.0
 10
2.6882239056
 20
210.278115806
 30
0.0
 10
4.3335387169
 20
210.1060018581
 30
0.0
 10
6.0125504057
 20
209.9617359499
 30
0.0
 10
7.2796976349
 20
209.8883454312
 30
0.0
 10
8.1277606164
 20
209.855219588
 30
0.0
  0
SPLINE
  5
39D
100
AcDbEntity
  8
0
100
AcDbSpline
 62
7
  6
CONTINUOUS
 70
0
 71
3
 72
25
 73
21
 74
0
 42
0.0000001
 43
0.0000001
 44
0.0000000001
 40
0.0
 40
0.0
 40
0.0
 40
0.0
 40
0.0844205915
 40
0.1660304217
 40
0.2445874548
 40
0.3199467004
 40
0.3920346692
 40
0.4608110506
 40
0.526280418
 40
0.5884944736
 40
0.6475852411
 40
0.7037585572
 40
0.7572963331
 40
0.8085897415
 40
0.8580576755
 40
0.9060577072
 40
0.9296750552
 40
0.9531391413
 40
0.976546388
 40
1.0
 40
1.0
 40
1.0
 40
1.0
 10
-4.5371508987
 20
235.2810250927
 30
0.0
 10
-4.9968544004
 20
235.1577990486
 30
0.0
 10
-5.8971076072
 20
234.9007530987
 30
0.0
 10
-7.2091678862
 20
234.4757108067
 30
0.0
 10
-8.4562058952
 20
234.018643563
 30
0.0
 10
-9.6336889356
 20
233.5308395949
 30
0.0
 10
-10.7379649007
 20
233.0135067256
 30
0.0
 10
-11.765758276
 20
232.4675993668
 30
0.0
 10
-12.7139186913
 20
231.8939061882
 30
0.0
 10
-13.5795626233
 20
231.2930465152
 30
0.0
 10
-14.3597740904
 20
230.6651373824
 30
0.0
 10
-15.0518931186
 20
230.0103168805
 30
0.0
 10
-15.6525321418
 20
229.327865408
 30
0.0
 10
-16.1569674188
 20
228.6169658979
 30
0.0
 10
-16.5599761541
 20
227.8791411434
 30
0.0
 10
-16.8076561214
 20
227.2405084898
 30
0.0
 10
-16.9468589279
 20
226.7224435558
 30
0.0
 10
-17.0216784513
 20
226.3317723827
 30
0.0
 10
-17.0668734329
 20
225.9375304529
 30
0.0
 10
-17.0768804836
 20
225.6732286976
 30
0.0
 10
-17.0768179078
 20
225.541005738
 30
0.0
  0
SPLINE
  5
39E
100
AcDbEntity
  8
0
100
AcDbSpline
 62
7
  6
CONTINUOUS
 70
0
 71
3
 72
35
 73
31
 74
0
 42
0.0000001
 43
0.0000001
 44
0.0000000001
 40
0.0
 40
0.0
 40
0.0
 40
0.0
 40
0.0193628049
 40
0.0387526596
 40
0.0485318314
 40
0.0583973554
 40
0.0784586877
 40
0.0990735861
 40
0.1203374531
 40
0.1423688508
 40
0.1652856013
 40
0.1891767575
 40
0.214109018
 40
0.2401320594
 40
0.2672795133
 40
0.2955655418
 40
0.3249925359
 40
0.3555527322
 40
0.3872224166
 40
0.4199704276
 40
0.4537587504
 40
0.4885379843
 40
0.5242543987
 40
0.5608490594
 40
0.5982551428
 40
0.6752152723
 40
0.7545362716
 40
0.8355671407
 40
0.9176231069
 40
1.0
 40
1.0
 40
1.0
 40
1.0
 10
38.9231758209
 20
225.5675082718
 30
0.0
 10
38.9230717871
 20
225.7873322063
 30
0.0
 10
38.8947160813
 20
226.2277576256
 30
0.0
 10
38.7901076931
 20
226.7701810482
 30
0.0
 10
38.6671557425
 20
227.1961737787
 30
0.0
 10
38.516841399
 20
227.6213954047
 30
0.0
 10
38.27953343
 20
228.145194527
 30
0.0
 10
37.9235313628
 20
228.7529340283
 30
0.0
 10
37.4980317588
 20
229.3418961178
 30
0.0
 10
37.0059486832
 20
229.911267085
 30
0.0
 10
36.4498269897
 20
230.4613717149
 30
0.0
 10
35.8319063077
 20
230.9928577557
 30
0.0
 10
35.1538004284
 20
231.5057511517
 30
0.0
 10
34.4170728548
 20
231.9999328462
 30
0.0
 10
33.6233836382
 20
232.4752549066
 30
0.0
 10
32.7744056069
 20
232.9313387773
 30
0.0
 10
31.8719285604
 20
233.3676984854
 30
0.0
 10
30.9178996562
 20
233.7837817219
 30
0.0
 10
29.9144217964
 20
234.1789721482
 30
0.0
 10
28.8637477193
 20
234.5525654007
 30
0.0
 10
27.7682857268
 20
234.9038291379
 30
0.0
 10
26.6306192861
 20
235.2321191246
 30
0.0
 10
25.4534572993
 20
235.5367177323
 30
0.0
 10
24.2396339104
 20
235.8169372502
 30
0.0
 10
22.5604350574
 20
236.1605348624
 30
0.0
 10
20.3907213917
 20
236.5229916364
 30
0.0
 10
17.7154349299
 20
236.848262415
 30
0.0
 10
14.9711139317
 20
237.0646669165
 30
0.0
 10
12.1856631932
 20
237.1700693392
 30
0.0
 10
10.3182830875
 20
237.1656927385
 30
0.0
 10
9.3833036834
 20
237.144635033
 30
0.0
  0
SPLINE
  5
39F
100
AcDbEntity
  8
0
100
AcDbSpline
 62
7
  6
CONTINUOUS
 70
0
 71
3
 72
14
 73
10
 74
0
 42
0.0000001
 43
0.0000001
 44
0.0000000001
 40
0.0
 40
0.0
 40
0.0
 40
0.0
 40
0.2619668036
 40
0.3911186045
 40
0.5183956927
 40
0.6433435602
 40
0.7655513484
 40
0.8845952207
 40
1.0
 40
1.0
 40
1.0
 40
1.0
 10
9.3833036834
 20
237.144635033
 30
0.0
 10
8.154438866
 20
237.116958409
 30
0.0
 10
6.3202817844
 20
237.0271367929
 30
0.0
 10
3.897580785
 20
236.8080705656
 30
0.0
 10
2.1203648107
 20
236.5968505302
 30
0.0
 10
0.3822919409
 20
236.3387609099
 30
0.0
 10
-1.3091600423
 20
236.0348859057
 30
0.0
 10
-2.9462437661
 20
235.6864604401
 30
0.0
 10
-4.014124031
 20
235.4212253121
 30
0.0
 10
-4.5371508987
 20
235.2810250927
 30
0.0
  0
SPLINE
  5
3A0
100
AcDbEntity
  8
0
100
AcDbSpline
 62
7
  6
CONTINUOUS
 70
0
 71
3
 72
13
 73
9
 74
0
 42
0.0000001
 43
0.0000001
 44
0.0000000001
 40
0.0
 40
0.0
 40
0.0
 40
0.0
 40
0.2633265025
 40
0.5155848544
 40
0.6386052578
 40
0.760064795
 40
0.880384219
 40
1.0
 40
1.0
 40
1.0
 40
1.0
 10
9.3816028347
 20
237.1759767937
 30
0.0
 10
8.9631399336
 20
237.3105976269
 30
0.0
 10
8.127704096
 20
237.5275606356
 30
0.0
 10
7.0665211241
 20
237.6606265225
 30
0.0
 10
6.2368346407
 20
237.6766724298
 30
0.0
 10
5.6281356515
 20
237.6448131062
 30
0.0
 10
5.0290688581
 20
237.5692821635
 30
0.0
 10
4.6360619704
 20
237.489731201
 30
0.0
 10
4.4419759812
 20
237.4427958292
 30
0.0
  0
SPLINE
  5
3A1
100
AcDbEntity
  8
0
100
AcDbSpline
 62
7
  6
CONTINUOUS
 70
0
 71
3
 72
10
 73
6
 74
0
 42
0.0000001
 43
0.0000001
 44
0.0000000001
 40
0.0
 40
0.0
 40
0.0
 40
0.0
 40
0.5000127693
 40
0.7500721629
 40
1.0
 40
1.0
 40
1.0
 40
1.0
 10
4.4419627911
 20
237.4428463715
 30
0.0
 10
4.1503697054
 20
237.3723544842
 30
0.0
 10
3.7091766416
 20
237.2829128997
 30
0.0
 10
3.1223051222
 20
237.1583528467
 30
0.0
 10
2.8305969288
 20
237.087971316
 30
0.0
 10
2.6857609381
 20
237.049147239
 30
0.0
  0
SPLINE
  5
3A2
100
AcDbEntity
  8
0
100
AcDbSpline
 62
7
  6
CONTINUOUS
 70
0
 71
3
 72
11
 73
7
 74
0
 42
0.0000001
 43
0.0000001
 44
0.0000000001
 40
0.0
 40
0.0
 40
0.0
 40
0.0
 40
0.2422091191
 40
0.4914663311
 40
0.745052362
 40
1.0
 40
1.0
 40
1.0
 40
1.0
 10
-5.4069678856
 20
235.0068565625
 30
0.0
 10
-5.6628561842
 20
235.0128666428
 30
0.0
 10
-6.1820920649
 20
235.0245600681
 30
0.0
 10
-6.9693786688
 20
235.0357185423
 30
0.0
 10
-7.7702236823
 20
235.0352875771
 30
0.0
 10
-8.3075683081
 20
235.024040352
 30
0.0
 10
-8.5768316446
 20
235.0148383416
 30
0.0
  0
SPLINE
  5
3A3
100
AcDbEntity
  8
0
100
AcDbSpline
 62
7
  6
CONTINUOUS
 70
0
 71
3
 72
12
 73
8
 74
0
 42
0.0000001
 43
0.0000001
 44
0.0000000001
 40
0.0
 40
0.0
 40
0.0
 40
0.0
 40
0.1297121571
 40
0.2571847382
 40
0.5075145049
 40
0.7543517112
 40
1.0
 40
1.0
 40
1.0
 40
1.0
 10
-25.5632022594
 20
229.1015318156
 30
0.0
 10
-25.4958237725
 20
229.1565289758
 30
0.0
 10
-25.3582263544
 20
229.2607736935
 30
0.0
 10
-25.0731690426
 20
229.4470301367
 30
0.0
 10
-24.7009394542
 20
229.6414998136
 30
0.0
 10
-24.2363749649
 20
229.8230517925
 30
0.0
 10
-23.9196160603
 20
229.9174300706
 30
0.0
 10
-23.7605209634
 20
229.9600763788
 30
0.0
  0
SPLINE
  5
3A4
100
AcDbEntity
  8
0
100
AcDbSpline
 62
7
  6
CONTINUOUS
 70
0
 71
3
 72
9
 73
5
 74
0
 42
0.0000001
 43
0.0000001
 44
0.0000000001
 40
0.0
 40
0.0
 40
0.0
 40
0.0
 40
0.5096908336
 40
1.0
 40
1.0
 40
1.0
 40
1.0
 10
-17.0659101434
 20
225.7050527294
 30
0.0
 10
-17.4522534682
 20
225.8893725292
 30
0.0
 10
-18.2241986662
 20
226.2226639758
 30
0.0
 10
-19.0214364307
 20
226.4905797633
 30
0.0
 10
-19.4173559333
 20
226.6037705599
 30
0.0
  0
SPLINE
  5
3A5
100
AcDbEntity
  8
0
100
AcDbSpline
 62
7
  6
CONTINUOUS
 70
0
 71
3
 72
11
 73
7
 74
0
 42
0.0000001
 43
0.0000001
 44
0.0000000001
 40
0.0
 40
0.0
 40
0.0
 40
0.0
 40
0.2579295911
 40
0.5091404813
 40
0.7557471827
 40
1.0
 40
1.0
 40
1.0
 40
1.0
 10
-20.6490258169
 20
226.8919854503
 30
0.0
 10
-21.0418452166
 20
226.9632600784
 30
0.0
 10
-21.824891706
 20
227.0656776907
 30
0.0
 10
-22.9966213232
 20
227.09295372
 30
0.0
 10
-24.1431052384
 20
226.9912149119
 30
0.0
 10
-24.8891054851
 20
226.8369918357
 30
0.0
 10
-25.2542801944
 20
226.7391161413
 30
0.0
  0
SPLINE
  5
3A6
100
AcDbEntity
  8
0
100
AcDbSpline
 62
7
  6
CONTINUOUS
 70
0
 71
3
 72
21
 73
17
 74
0
 42
0.0000001
 43
0.0000001
 44
0.0000000001
 40
0.0
 40
0.0
 40
0.0
 40
0.0
 40
0.1781106542
 40
0.2602038748
 40
0.3376038879
 40
0.4103376618
 40
0.4785085349
 40
0.5423101796
 40
0.6020140099
 40
0.7105310322
 40
0.7606337766
 40
0.8088388628
 40
0.8559772194
 40
0.9029517487
 40
0.9506776519
 40
1.0
 40
1.0
 40
1.0
 40
1.0
 10
-28.0010902757
 20
225.9980383788
 30
0.0
 10
-28.1034851583
 20
225.9910507061
 30
0.0
 10
-28.2536138326
 20
225.9863981686
 30
0.0
 10
-28.4480388283
 20
225.9948633743
 30
0.0
 10
-28.58128735
 20
226.0079940375
 30
0.0
 10
-28.7055604197
 20
226.0280920025
 30
0.0
 10
-28.8204846856
 20
226.0551262794
 30
0.0
 10
-28.9257907142
 20
226.0889664465
 30
0.0
 10
-29.0489427981
 20
226.141233693
 30
0.0
 10
-29.1572601273
 20
226.2079174163
 30
0.0
 10
-29.2444543055
 20
226.2896635739
 30
0.0
 10
-29.2970374674
 20
226.3553225961
 30
0.0
 10
-29.3382029576
 20
226.4266260107
 30
0.0
 10
-29.3676620735
 20
226.5032257047
 30
0.0
 10
-29.3852215997
 20
226.5846484495
 30
0.0
 10
-29.3889229315
 20
226.6406645658
 30
0.0
 10
-29.3889223256
 20
226.6690856742
 30
0.0
  0
SPLINE
  5
3A7
100
AcDbEntity
  8
0
100
AcDbSpline
 62
7
  6
CONTINUOUS
 70
0
 71
3
 72
11
 73
7
 74
0
 42
0.0000001
 43
0.0000001
 44
0.0000000001
 40
0.0
 40
0.0
 40
0.0
 40
0.0
 40
0.2643448243
 40
0.5191651229
 40
0.7643967775
 40
1.0
 40
1.0
 40
1.0
 40
1.0
 10
-28.1465023431
 20
230.0044768145
 30
0.0
 10
-28.1939987388
 20
229.9750096336
 30
0.0
 10
-28.2863783753
 20
229.9156695126
 30
0.0
 10
-28.4196274517
 20
229.8241429395
 30
0.0
 10
-28.5448282083
 20
229.7317799328
 30
0.0
 10
-28.62438815
 20
229.668434046
 30
0.0
 10
-28.6627786624
 20
229.6366858868
 30
0.0
  0
SPLINE
  5
3A8
100
AcDbEntity
  8
0
100
AcDbSpline
 62
7
  6
CONTINUOUS
 70
0
 71
3
 72
15
 73
11
 74
0
 42
0.0000001
 43
0.0000001
 44
0.0000000001
 40
0.0
 40
0.0
 40
0.0
 40
0.0
 40
0.1648012249
 40
0.3179969772
 40
0.4594195148
 40
0.5890427472
 40
0.7071454606
 40
0.8142948478
 40
0.9114183318
 40
1.0
 40
1.0
 40
1.0
 40
1.0
 10
-28.6627786624
 20
229.6366858868
 30
0.0
 10
-28.720424521
 20
229.5890131706
 30
0.0
 10
-28.8290178993
 20
229.4937538273
 30
0.0
 10
-28.9764444138
 20
229.3460374202
 30
0.0
 10
-29.1021055967
 20
229.199853427
 30
0.0
 10
-29.2055269964
 20
229.0563514632
 30
0.0
 10
-29.2864691352
 20
228.916734218
 30
0.0
 10
-29.3448002739
 20
228.7820926179
 30
0.0
 10
-29.3802889985
 20
228.6534969551
 30
0.0
 10
-29.3889236847
 20
228.5690860827
 30
0.0
 10
-29.3889279678
 20
228.5288781352
 30
0.0
  0
SPLINE
  5
3A9
100
AcDbEntity
  8
0
100
AcDbSpline
 62
7
  6
CONTINUOUS
 70
0
 71
3
 72
15
 73
11
 74
0
 42
0.0000001
 43
0.0000001
 44
0.0000000001
 40
0.0
 40
0.0
 40
0.0
 40
0.0
 40
0.131224018
 40
0.2609911687
 40
0.3891052779
 40
0.5154008028
 40
0.6397551714
 40
0.7620609018
 40
0.8821922139
 40
1.0
 40
1.0
 40
1.0
 40
1.0
 10
-10.2641667426
 20
234.9028542702
 30
0.0
 10
-10.6901861297
 20
234.8588002363
 30
0.0
 10
-11.5370564131
 20
234.7668385875
 30
0.0
 10
-12.7977947474
 20
234.6136708649
 30
0.0
 10
-14.0401097818
 20
234.4433114439
 30
0.0
 10
-15.2617258145
 20
234.2534000607
 30
0.0
 10
-16.4606825151
 20
234.0426001926
 30
0.0
 10
-17.6349750878
 20
233.8092752271
 30
0.0
 10
-18.7825110109
 20
233.5526347583
 30
0.0
 10
-19.5359719851
 20
233.3640884187
 30
0.0
 10
-19.9076743766
 20
233.265702019
 30
0.0
  0
LINE
  5
3AA
100
AcDbEntity
  8
0
100
AcDbLine
 62
7
  6
CONTINUOUS
 10
-9.7093827452
 20
234.9528452239
 11
-9.6768964283
 21
234.955336749
  0
SPLINE
  5
3AB
100
AcDbEntity
  8
0
100
AcDbSpline
 62
7
  6
CONTINUOUS
 70
0
 71
3
 72
15
 73
11
 74
0
 42
0.0000001
 43
0.0000001
 44
0.0000000001
 40
0.0
 40
0.0
 40
0.0
 40
0.0
 40
0.1367512761
 40
0.2705133067
 40
0.4011002549
 40
0.5283379016
 40
0.6520575
 40
0.7720773329
 40
0.8881548905
 40
1.0
 40
1.0
 40
1.0
 40
1.0
 10
-20.1669062917
 20
233.1962133297
 30
0.0
 10
-20.5285892117
 20
233.0980372599
 30
0.0
 10
-21.2414836126
 20
232.8942186305
 30
0.0
 10
-22.2897359763
 20
232.5629043894
 30
0.0
 10
-23.3034981688
 20
232.2103847827
 30
0.0
 10
-24.2808998777
 20
231.8384500091
 30
0.0
 10
-25.2204636524
 20
231.4496963255
 30
0.0
 10
-26.1204936545
 20
231.0464754781
 30
0.0
 10
-26.9794389406
 20
230.6321242278
 30
0.0
 10
-27.5344654726
 20
230.3453866141
 30
0.0
 10
-27.8048388404
 20
230.200993148
 30
0.0
  0
SPLINE
  5
3AC
100
AcDbEntity
  8
0
100
AcDbSpline
 62
7
  6
CONTINUOUS
 70
0
 71
3
 72
12
 73
8
 74
0
 42
0.0000001
 43
0.0000001
 44
0.0000000001
 40
0.0
 40
0.0
 40
0.0
 40
0.0
 40
0.1203500745
 40
0.2450355357
 40
0.50037246
 40
0.7550983458
 40
1.0
 40
1.0
 40
1.0
 40
1.0
 10
40.0748574964
 20
216.6021296985
 30
0.0
 10
40.0748410554
 20
216.6368696619
 30
0.0
 10
40.0719415589
 20
216.7076226278
 30
0.0
 10
40.0558729811
 20
216.8512527536
 30
0.0
 10
40.0171979889
 20
217.0309200726
 30
0.0
 10
39.94597173
 20
217.2373523749
 30
0.0
 10
39.8833941111
 20
217.3677268028
 30
0.0
 10
39.8489626477
 20
217.4294676852
 30
0.0
  0
SPLINE
  5
3AD
100
AcDbEntity
  8
0
100
AcDbSpline
 62
7
  6
CONTINUOUS
 70
0
 71
3
 72
14
 73
10
 74
0
 42
0.0000001
 43
0.0000001
 44
0.0000000001
 40
0.0
 40
0.0
 40
0.0
 40
0.0
 40
0.1423946689
 40
0.280273951
 40
0.413181039
 40
0.5409342044
 40
0.6634446615
 40
0.7807559472
 40
1.0
 40
1.0
 40
1.0
 40
1.0
 10
39.8489626477
 20
217.4294676852
 30
0.0
 10
39.7513670229
 20
217.604471574
 30
0.0
 10
39.550449861
 20
217.9441059793
 30
0.0
 10
39.2283041934
 20
218.4284507567
 30
0.0
 10
38.8924983901
 20
218.8779955959
 30
0.0
 10
38.5457411221
 20
219.2912767464
 30
0.0
 10
38.1902118594
 20
219.6674722413
 30
0.0
 10
37.7180852545
 20
220.1087171932
 30
0.0
 10
37.3411814952
 20
220.3987460691
 30
0.0
 10
37.0830659566
 20
220.5677464619
 30
0.0
  0
SPLINE
  5
3AE
100
AcDbEntity
  8
0
100
AcDbSpline
 62
7
  6
CONTINUOUS
 70
0
 71
3
 72
20
 73
16
 74
0
 42
0.0000001
 43
0.0000001
 44
0.0000000001
 40
0.0
 40
0.0
 40
0.0
 40
0.0
 40
0.0508739335
 40
0.1021002895
 40
0.1540144252
 40
0.2069368403
 40
0.2611640212
 40
0.3169640173
 40
0.434147912
 40
0.495989692
 40
0.5601834205
 40
0.6960565573
 40
0.7679563214
 40
0.8425620463
 40
1.0
 40
1.0
 40
1.0
 40
1.0
 10
38.9231586613
 20
225.5583745684
 30
0.0
 10
38.9229386606
 20
225.4289281079
 30
0.0
 10
38.9107903012
 20
225.1690095553
 30
0.0
 10
38.8575838644
 20
224.7802643244
 30
0.0
 10
38.7694583288
 20
224.3925576631
 30
0.0
 10
38.6465020642
 20
224.0064728952
 30
0.0
 10
38.4889436632
 20
223.6224773787
 30
0.0
 10
38.228949397
 20
223.105594337
 30
0.0
 10
37.9022755053
 20
222.6026923246
 30
0.0
 10
37.518428263
 20
222.1169605804
 30
0.0
 10
37.0752454526
 20
221.6188029036
 30
0.0
 10
36.5732352665
 20
221.1404986336
 30
0.0
 10
36.0203139294
 20
220.6814410756
 30
0.0
 10
35.4043691727
 20
220.2134344288
 30
0.0
 10
34.9127147135
 20
219.8851906312
 30
0.0
 10
34.5722755535
 20
219.6740577598
 30
0.0
  0
SPLINE
  5
3AF
100
AcDbEntity
  8
0
100
AcDbSpline
 62
7
  6
CONTINUOUS
 70
0
 71
3
 72
15
 73
11
 74
0
 42
0.0000001
 43
0.0000001
 44
0.0000000001
 40
0.0
 40
0.0
 40
0.0
 40
0.0
 40
0.1078696573
 40
0.2208712172
 40
0.3389293848
 40
0.4619351415
 40
0.5897512936
 40
0.7222123865
 40
0.8590627855
 40
1.0
 40
1.0
 40
1.0
 40
1.0
 10
34.5722755535
 20
219.6740577598
 30
0.0
 10
34.3113153336
 20
219.5122159771
 30
0.0
 10
33.7683663887
 20
219.1945691848
 30
0.0
 10
32.9139654351
 20
218.7457472862
 30
0.0
 10
32.0026157173
 20
218.3145984436
 30
0.0
 10
31.0366365188
 20
217.9022105686
 30
0.0
 10
30.0184171254
 20
217.5095696818
 30
0.0
 10
28.9505888986
 20
217.1378050075
 30
0.0
 10
27.8362266005
 20
216.7878630686
 30
0.0
 10
27.0751331193
 20
216.572790353
 30
0.0
 10
26.6876093508
 20
216.4689124822
 30
0.0
  0
SPLINE
  5
3B0
100
AcDbEntity
  8
0
100
AcDbSpline
 62
7
  6
CONTINUOUS
 70
0
 71
3
 72
62
 73
58
 74
0
 42
0.0000001
 43
0.0000001
 44
0.0000000001
 40
0.0
 40
0.0
 40
0.0
 40
0.0
 40
0.0185449335
 40
0.0375516342
 40
0.0767779712
 40
0.1173625533
 40
0.159001657
 40
0.2013627678
 40
0.2441020306
 40
0.2868725704
 40
0.3293264092
 40
0.3711200249
 40
0.4119191052
 40
0.4514048336
 40
0.470561994
 40
0.4892809575
 40
0.5075279501
 40
0.5252721339
 40
0.5424851767
 40
0.5591402574
 40
0.57521438
 40
0.590688197
 40
0.6055448159
 40
0.6197724251
 40
0.6333645588
 40
0.6463189177
 40
0.6586403251
 40
0.6703416201
 40
0.6814428112
 40
0.6919743074
 40
0.7019783306
 40
0.7068001203
 40
0.7115111733
 40
0.720634416
 40
0.7294321057
 40
0.7379972193
 40
0.7464331046
 40
0.7548491769
 40
0.7633556423
 40
0.7720587155
 40
0.7810553277
 40
0.7904310482
 40
0.800258446
 40
0.8105955248
 40
0.8214883334
 40
0.8329717472
 40
0.845069099
 40
0.8577957801
 40
0.8711597695
 40
0.8851603409
 40
0.8997918262
 40
0.9150446869
 40
0.9309052101
 40
0.9473569828
 40
0.9643788863
 40
0.9819385402
 40
1.0
 40
1.0
 40
1.0
 40
1.0
 10
-4.3806869122
 20
235.2782844522
 30
0.0
 10
-4.0085638017
 20
235.3780340922
 30
0.0
 10
-3.2523182048
 20
235.5699571816
 30
0.0
 10
-1.6968678658
 20
235.923607801
 30
0.0
 10
0.3208474274
 20
236.3062848742
 30
0.0
 10
2.8187616467
 20
236.666776289
 30
0.0
 10
5.3942636217
 20
236.9297941521
 30
0.0
 10
8.0228230162
 20
237.0928789552
 30
0.0
 10
10.6792160717
 20
237.1543792757
 30
0.0
 10
13.3379336642
 20
237.1136724044
 30
0.0
 10
15.973482434
 20
236.9712267596
 30
0.0
 10
18.5605933678
 20
236.7283937217
 30
0.0
 10
21.0744186676
 20
236.3874800188
 30
0.0
 10
23.1082810989
 20
236.0209099867
 30
0.0
 10
24.6789214058
 20
235.6796674319
 30
0.0
 10
25.81196585
 20
235.4041869396
 30
0.0
 10
26.9091843263
 20
235.1071880896
 30
0.0
 10
27.9679525001
 20
234.7893995764
 30
0.0
 10
28.9857476362
 20
234.4516426247
 30
0.0
 10
29.9601076015
 20
234.0946587728
 30
0.0
 10
30.888701275
 20
233.7193128789
 30
0.0
 10
31.7693377591
 20
233.3265676211
 30
0.0
 10
32.599885154
 20
232.9172895148
 30
0.0
 10
33.3783609197
 20
232.4924488112
 30
0.0
 10
34.1029587701
 20
232.0531210365
 30
0.0
 10
34.7719203496
 20
231.6002643278
 30
0.0
 10
35.3836450771
 20
231.1349140844
 30
0.0
 10
35.9367447932
 20
230.6582157119
 30
0.0
 10
36.4298519924
 20
230.1711605018
 30
0.0
 10
36.8617102482
 20
229.6748435834
 30
0.0
 10
37.1735078049
 20
229.2493083658
 30
0.0
 10
37.3898491712
 20
228.9057350931
 30
0.0
 10
37.580206772
 20
228.5679907308
 30
0.0
 10
37.7798506078
 20
228.1412718137
 30
0.0
 10
37.9570330483
 20
227.6191001131
 30
0.0
 10
38.0685445695
 20
227.0935310124
 30
0.0
 10
38.113810402
 20
226.5660742071
 30
0.0
 10
38.0927947812
 20
226.0383066574
 30
0.0
 10
38.0055004421
 20
225.5117971317
 30
0.0
 10
37.8522454523
 20
224.9880993608
 30
0.0
 10
37.6338088425
 20
224.4685573146
 30
0.0
 10
37.3508721788
 20
223.954448907
 30
0.0
 10
37.0042511593
 20
223.4469977682
 30
0.0
 10
36.5950372899
 20
222.9472325481
 30
0.0
 10
36.124224975
 20
222.4562714673
 30
0.0
 10
35.5929243445
 20
221.9752516112
 30
0.0
 10
35.0024954161
 20
221.5051496478
 30
0.0
 10
34.3542992929
 20
221.0470636766
 30
0.0
 10
33.6498407028
 20
220.6021170518
 30
0.0
 10
32.8908777371
 20
220.1712531075
 30
0.0
 10
32.079214201
 20
219.7555128931
 30
0.0
 10
31.2167259439
 20
219.3559368924
 30
0.0
 10
30.305426044
 20
218.9733796605
 30
0.0
 10
29.3473966147
 20
218.6087552466
 30
0.0
 10
28.3449861979
 20
218.2630331014
 30
0.0
 10
27.3009325326
 20
217.9370167972
 30
0.0
 10
26.5886105447
 20
217.7361022547
 30
0.0
 10
26.2261888296
 20
217.6389531269
 30
0.0
  0
SPLINE
  5
3B1
100
AcDbEntity
  8
0
100
AcDbSpline
 62
7
  6
CONTINUOUS
 70
0
 71
3
 72
15
 73
11
 74
0
 42
0.0000001
 43
0.0000001
 44
0.0000000001
 40
0.0
 40
0.0
 40
0.0
 40
0.0
 40
0.1166303865
 40
0.2343196978
 40
0.3537755077
 40
0.4756909438
 40
0.6007399716
 40
0.729524154
 40
0.8624999414
 40
1.0
 40
1.0
 40
1.0
 40
1.0
 10
-22.0044783384
 20
230.3536848655
 30
0.0
 10
-21.7519451678
 20
230.4147543858
 30
0.0
 10
-21.2382452404
 20
230.5126921628
 30
0.0
 10
-20.4523677887
 20
230.5852765937
 30
0.0
 10
-19.6513448101
 20
230.5837011638
 30
0.0
 10
-18.8375421122
 20
230.5078609679
 30
0.0
 10
-18.0129851075
 20
230.3581856889
 30
0.0
 10
-17.179758303
 20
230.1350178823
 30
0.0
 10
-16.3401293058
 20
229.8392427202
 30
0.0
 10
-15.787183724
 20
229.5984537248
 30
0.0
 10
-15.5105583182
 20
229.4669249049
 30
0.0
  0
SPLINE
  5
3B2
100
AcDbEntity
  8
0
100
AcDbSpline
 62
7
  6
CONTINUOUS
 70
0
 71
3
 72
19
 73
15
 74
0
 42
0.0000001
 43
0.0000001
 44
0.0000000001
 40
0.0
 40
0.0
 40
0.0
 40
0.0
 40
0.0502666631
 40
0.0986293773
 40
0.1459478855
 40
0.1931691853
 40
0.2412407699
 40
0.2910519375
 40
0.3987480395
 40
0.4580415769
 40
0.5214826451
 40
0.6618404128
 40
0.8212938888
 40
1.0
 40
1.0
 40
1.0
 40
1.0
 10
-29.3889279678
 20
228.5288781352
 30
0.0
 10
-29.3889306872
 20
228.5033495001
 30
0.0
 10
-29.3856801427
 20
228.4531750853
 30
0.0
 10
-29.3701417548
 20
228.3804217141
 30
0.0
 10
-29.3440503825
 20
228.3123715341
 30
0.0
 10
-29.3076007884
 20
228.2494379336
 30
0.0
 10
-29.2610307542
 20
228.1919517423
 30
0.0
 10
-29.1838585214
 20
228.1211490554
 30
0.0
 10
-29.0878623164
 20
228.0645758747
 30
0.0
 10
-28.9789341755
 20
228.0215689617
 30
0.0
 10
-28.8504043989
 20
227.9843397673
 30
0.0
 10
-28.6673775811
 20
227.9559186032
 30
0.0
 10
-28.4240066814
 20
227.9492013235
 30
0.0
 10
-28.2524328313
 20
227.9614762966
 30
0.0
 10
-28.1622221291
 20
227.9714322363
 30
0.0
  0
SPLINE
  5
3B3
100
AcDbEntity
  8
0
100
AcDbSpline
 62
7
  6
CONTINUOUS
 70
0
 71
3
 72
10
 73
6
 74
0
 42
0.0000001
 43
0.0000001
 44
0.0000000001
 40
0.0
 40
0.0
 40
0.0
 40
0.0
 40
0.249927814
 40
0.4999871734
 40
1.0
 40
1.0
 40
1.0
 40
1.0
 10
-23.7605209634
 20
229.9600763788
 30
0.0
 10
-23.615699224
 20
229.9988966357
 30
0.0
 10
-23.3240199302
 20
230.0692719508
 30
0.0
 10
-22.7372064418
 20
230.1938215349
 30
0.0
 10
-22.2960566273
 20
230.2832532259
 30
0.0
 10
-22.0044911413
 20
230.3537339246
 30
0.0
  0
SPLINE
  5
3B4
100
AcDbEntity
  8
0
100
AcDbSpline
 62
7
  6
CONTINUOUS
 70
0
 71
3
 72
9
 73
5
 74
0
 42
0.0000001
 43
0.0000001
 44
0.0000000001
 40
0.0
 40
0.0
 40
0.0
 40
0.0
 40
0.2447153101
 40
1.0
 40
1.0
 40
1.0
 40
1.0
 10
37.8743668846
 20
221.5059446721
 30
0.0
 10
37.8395550521
 20
221.4573877406
 30
0.0
 10
37.6948292157
 20
221.2607439335
 30
0.0
 10
37.5405182904
 20
221.0711974836
 30
0.0
 10
37.4195303372
 20
220.9320378676
 30
0.0
  0
SPLINE
  5
3B5
100
AcDbEntity
  8
0
100
AcDbSpline
 62
7
  6
CONTINUOUS
 70
0
 71
3
 72
12
 73
8
 74
0
 42
0.0000001
 43
0.0000001
 44
0.0000000001
 40
0.0
 40
0.0
 40
0.0
 40
0.0
 40
0.2449056412
 40
0.4996361996
 40
0.7549692071
 40
0.8796512645
 40
1.0
 40
1.0
 40
1.0
 40
1.0
 10
13.402680746
 20
210.340396825
 30
0.0
 10
13.4371127716
 20
210.2786549346
 30
0.0
 10
13.4996892936
 20
210.1482771541
 30
0.0
 10
13.5709168199
 20
209.9418441004
 30
0.0
 10
13.6095943644
 20
209.7621779522
 30
0.0
 10
13.6256606777
 20
209.6185500218
 30
0.0
 10
13.6285591539
 20
209.5477984168
 30
0.0
 10
13.6285755947
 20
209.5130588383
 30
0.0
  0
SPLINE
  5
3B6
100
AcDbEntity
  8
0
100
AcDbSpline
 62
7
  6
CONTINUOUS
 70
0
 71
3
 72
14
 73
10
 74
0
 42
0.0000001
 43
0.0000001
 44
0.0000000001
 40
0.0
 40
0.0
 40
0.0
 40
0.0
 40
0.1423974748
 40
0.2802863906
 40
0.4131985885
 40
0.540950162
 40
0.6634523531
 40
0.7807562259
 40
1.0
 40
1.0
 40
1.0
 40
1.0
 10
13.402680746
 20
210.340396825
 30
0.0
 10
13.3050838569
 20
210.5154029809
 30
0.0
 10
13.1041544941
 20
210.85504745
 30
0.0
 10
12.7819990171
 20
211.3394103838
 30
0.0
 10
12.4461894685
 20
211.7889709766
 30
0.0
 10
12.0994269867
 20
212.2022351251
 30
0.0
 10
11.7438818538
 20
212.5783780163
 30
0.0
 10
11.2717568461
 20
213.0195815475
 30
0.0
 10
10.8949093955
 20
213.3096609598
 30
0.0
 10
10.6367959355
 20
213.4786600096
 30
0.0
  0
SPLINE
  5
3B7
100
AcDbEntity
  8
0
100
AcDbSpline
 62
7
  6
CONTINUOUS
 70
0
 71
3
 72
15
 73
11
 74
0
 42
0.0000001
 43
0.0000001
 44
0.0000000001
 40
0.0
 40
0.0
 40
0.0
 40
0.0
 40
0.1312452497
 40
0.2619751527
 40
0.3914901285
 40
0.5191916199
 40
0.6444680523
 40
0.7667265764
 40
0.8854305814
 40
1.0
 40
1.0
 40
1.0
 40
1.0
 10
10.6372829119
 20
213.4790672898
 30
0.0
 10
11.3463691867
 20
213.4765022192
 30
0.0
 10
12.7619247668
 20
213.4925458603
 30
0.0
 10
14.8755714049
 20
213.5797059018
 30
0.0
 10
16.9665373755
 20
213.7295220028
 30
0.0
 10
19.0225451441
 20
213.9411566455
 30
0.0
 10
21.0318830822
 20
214.2133074099
 30
0.0
 10
22.9830897639
 20
214.5444742727
 30
0.0
 10
24.8647137507
 20
214.9327315663
 30
0.0
 10
26.088951442
 20
215.2337959842
 30
0.0
 10
26.6868386648
 20
215.3940629323
 30
0.0
  0
SPLINE
  5
3B8
100
AcDbEntity
  8
0
100
AcDbSpline
 62
7
  6
CONTINUOUS
 70
0
 71
3
 72
19
 73
15
 74
0
 42
0.0000001
 43
0.0000001
 44
0.0000000001
 40
0.0
 40
0.0
 40
0.0
 40
0.0
 40
0.1518719932
 40
0.2968516597
 40
0.4343436076
 40
0.563956944
 40
0.6257191477
 40
0.6854066457
 40
0.7430040236
 40
0.7985119139
 40
0.8519407157
 40
0.9033102782
 40
0.9526492752
 40
1.0
 40
1.0
 40
1.0
 40
1.0
 10
26.6868386648
 20
215.3940629323
 30
0.0
 10
27.2607801974
 20
215.5479111068
 30
0.0
 10
28.3767902546
 20
215.8710342214
 30
0.0
 10
29.9871653757
 20
216.4156689384
 30
0.0
 10
31.4879892425
 20
217.0066384821
 30
0.0
 10
32.6583870298
 20
217.5431808936
 30
0.0
 10
33.5311313615
 20
217.9943030812
 30
0.0
 10
34.1425186304
 20
218.3365640392
 30
0.0
 10
34.7204070642
 20
218.6877114111
 30
0.0
 10
35.2640138975
 20
219.0472372204
 30
0.0
 10
35.7725666739
 20
219.4146582361
 30
0.0
 10
36.2453010876
 20
219.7894634528
 30
0.0
 10
36.6814899257
 20
220.1710081563
 30
0.0
 10
36.9529471626
 20
220.4348150281
 30
0.0
 10
37.0819896066
 20
220.5677426073
 30
0.0
  0
SPLINE
  5
3B9
100
AcDbEntity
  8
0
100
AcDbSpline
 62
7
  6
CONTINUOUS
 70
0
 71
3
 72
15
 73
11
 74
0
 42
0.0000001
 43
0.0000001
 44
0.0000000001
 40
0.0
 40
0.0
 40
0.0
 40
0.0
 40
0.1016087284
 40
0.2101387102
 40
0.3255564616
 40
0.4477652502
 40
0.5766016298
 40
0.7118246123
 40
0.8531160851
 40
1.0
 40
1.0
 40
1.0
 40
1.0
 10
39.8489626477
 20
217.4294676853
 30
0.0
 10
39.5338604763
 20
217.1742892632
 30
0.0
 10
38.8599586989
 20
216.6736429639
 30
0.0
 10
37.76449689
 20
215.9736690871
 30
0.0
 10
36.5558346716
 20
215.3032547683
 30
0.0
 10
35.2393182304
 20
214.6651170649
 30
0.0
 10
33.8202359184
 20
214.0619027213
 30
0.0
 10
32.3043821072
 20
213.4959925907
 30
0.0
 10
30.6983366047
 20
212.9700092325
 30
0.0
 10
29.5925754032
 20
212.6531799602
 30
0.0
 10
29.0264228049
 20
212.5014196522
 30
0.0
  0
SPLINE
  5
3BA
100
AcDbEntity
  8
0
100
AcDbSpline
 62
7
  6
CONTINUOUS
 70
0
 71
3
 72
15
 73
11
 74
0
 42
0.0000001
 43
0.0000001
 44
0.0000000001
 40
0.0
 40
0.0
 40
0.0
 40
0.0
 40
0.115214063
 40
0.2340845518
 40
0.3561619735
 40
0.4810369163
 40
0.6083021694
 40
0.7375346106
 40
0.868282088
 40
1.0
 40
1.0
 40
1.0
 40
1.0
 10
29.0264228049
 20
212.5014196522
 30
0.0
 10
28.4400963635
 20
212.344251635
 30
0.0
 10
27.24308214
 20
212.0460662701
 30
0.0
 10
25.4081316586
 20
211.6519522266
 30
0.0
 10
23.511819917
 20
211.3055067115
 30
0.0
 10
21.5624715277
 20
211.0081224575
 30
0.0
 10
19.5681260006
 20
210.7611007401
 30
0.0
 10
17.5370135422
 20
210.5654045998
 30
0.0
 10
15.4780447155
 20
210.4220207229
 30
0.0
 10
14.096331774
 20
210.3617435307
 30
0.0
 10
13.402680746
 20
210.340396825
 30
0.0
  0
SPLINE
  5
3BB
100
AcDbEntity
  8
0
100
AcDbSpline
 62
7
  6
CONTINUOUS
 70
0
 71
3
 72
15
 73
11
 74
0
 42
0.0000001
 43
0.0000001
 44
0.0000000001
 40
0.0
 40
0.0
 40
0.0
 40
0.0
 40
0.1019556478
 40
0.2107400832
 40
0.3263112341
 40
0.4485686061
 40
0.5773486837
 40
0.7124139045
 40
0.8534525398
 40
1.0
 40
1.0
 40
1.0
 40
1.0
 10
40.0748574964
 20
216.6021296985
 30
0.0
 10
39.7562870719
 20
216.3481191331
 30
0.0
 10
39.0762395679
 20
215.8497828888
 30
0.0
 10
37.9731950003
 20
215.1526800327
 30
0.0
 10
36.7587221746
 20
214.4849468468
 30
0.0
 10
35.4380668579
 20
213.8492316954
 30
0.0
 10
34.0164151548
 20
213.2481122533
 30
0.0
 10
32.499438447
 20
212.6839078985
 30
0.0
 10
30.8935700735
 20
212.1591713931
 30
0.0
 10
29.7884202396
 20
211.8427542402
 30
0.0
 10
29.2227486286
 20
211.6911228635
 30
0.0
  0
SPLINE
  5
3BC
100
AcDbEntity
  8
0
100
AcDbSpline
 62
7
  6
CONTINUOUS
 70
0
 71
3
 72
15
 73
11
 74
0
 42
0.0000001
 43
0.0000001
 44
0.0000000001
 40
0.0
 40
0.0
 40
0.0
 40
0.0
 40
0.1152705107
 40
0.2341606127
 40
0.3562314347
 40
0.4810834974
 40
0.6083195525
 40
0.7375268355
 40
0.8682641834
 40
1.0
 40
1.0
 40
1.0
 40
1.0
 10
29.2227486286
 20
211.6911228635
 30
0.0
 10
28.637162164
 20
211.5341532011
 30
0.0
 10
27.4419251947
 20
211.2361410099
 30
0.0
 10
25.6100610947
 20
210.8415988299
 30
0.0
 10
23.717436977
 20
210.4940784204
 30
0.0
 10
21.7721673349
 20
210.1949461034
 30
0.0
 10
19.7820873133
 20
209.9454788251
 30
0.0
 10
17.7552174549
 20
209.7466276433
 30
0.0
 10
15.7002419518
 20
209.5993682191
 30
0.0
 10
14.3210523898
 20
209.5360492129
 30
0.0
 10
13.6285755947
 20
209.5130588383
 30
0.0
  0
SPLINE
  5
3BD
100
AcDbEntity
  8
0
100
AcDbSpline
 62
7
  6
CONTINUOUS
 70
0
 71
3
 72
30
 73
26
 74
0
 42
0.0000001
 43
0.0000001
 44
0.0000000001
 40
0.0
 40
0.0
 40
0.0
 40
0.0
 40
0.0918996352
 40
0.1800428382
 40
0.2640964073
 40
0.3438473786
 40
0.4191445453
 40
0.4898883868
 40
0.5560386238
 40
0.5874112655
 40
0.6176667717
 40
0.6749121956
 40
0.7019947403
 40
0.7281118971
 40
0.777683538
 40
0.8013253215
 40
0.8243234683
 40
0.8467879892
 40
0.8688390119
 40
0.8906060125
 40
0.9122254506
 40
0.9338367018
 40
0.9555793046
 40
0.9775902514
 40
1.0
 40
1.0
 40
1.0
 40
1.0
 10
-4.5297227225
 20
235.2380479186
 30
0.0
 10
-5.0330629461
 20
235.1011843282
 30
0.0
 10
-6.0143968157
 20
234.8150196636
 30
0.0
 10
-7.435886358
 20
234.3379344014
 30
0.0
 10
-8.7707549796
 20
233.8235460683
 30
0.0
 10
-10.0125105337
 20
233.2745264844
 30
0.0
 10
-11.1554926528
 20
232.6932669298
 30
0.0
 10
-12.1944959613
 20
232.0825706432
 30
0.0
 10
-12.9831331551
 20
231.5421179563
 30
0.0
 10
-13.5554661762
 20
231.0963071155
 30
0.0
 10
-14.069544377
 20
230.6591034443
 30
0.0
 10
-14.5361415599
 20
230.2042004438
 30
0.0
 10
-14.9479133047
 20
229.7311030174
 30
0.0
 10
-15.3049996083
 20
229.2695809138
 30
0.0
 10
-15.6089219534
 20
228.792345114
 30
0.0
 10
-15.8509385251
 20
228.3023446999
 30
0.0
 10
-15.9978536272
 20
227.9382316517
 30
0.0
 10
-16.1127724657
 20
227.5722294807
 30
0.0
 10
-16.1954966246
 20
227.2047636943
 30
0.0
 10
-16.2458328648
 20
226.8363039244
 30
0.0
 10
-16.2637640758
 20
226.4673446246
 30
0.0
 10
-16.2492780341
 20
226.0983737989
 30
0.0
 10
-16.2023829245
 20
225.7298692521
 30
0.0
 10
-16.1230989653
 20
225.3623560351
 30
0.0
 10
-16.0495367145
 20
225.1208547657
 30
0.0
 10
-16.0077111324
 20
225.0007320045
 30
0.0
  0
SPLINE
  5
3BE
100
AcDbEntity
  8
0
100
AcDbSpline
 62
7
  6
CONTINUOUS
 70
0
 71
3
 72
37
 73
33
 74
0
 42
0.0000001
 43
0.0000001
 44
0.0000000001
 40
0.0
 40
0.0
 40
0.0
 40
0.0
 40
0.0161302394
 40
0.0331792233
 40
0.0513470708
 40
0.0707828345
 40
0.0915912616
 40
0.1138353471
 40
0.1375486022
 40
0.1627342272
 40
0.1893751504
 40
0.217434549
 40
0.2468590253
 40
0.2775835738
 40
0.3095288249
 40
0.3426081739
 40
0.3767241592
 40
0.4117730568
 40
0.4476446998
 40
0.4842226586
 40
0.5213873709
 40
0.5590142728
 40
0.5969769776
 40
0.6351465779
 40
0.7115795304
 40
0.7872796873
 40
0.8245359294
 40
0.8612251578
 40
0.8972305021
 40
0.9324411928
 40
0.9667401069
 40
1.0
 40
1.0
 40
1.0
 40
1.0
 10
-16.0077111324
 20
225.0007320045
 30
0.0
 10
-15.9279019932
 20
224.7715207494
 30
0.0
 10
-15.7279983632
 20
224.3119063692
 30
0.0
 10
-15.3272352657
 20
223.6491482775
 30
0.0
 10
-14.8208973743
 20
222.9990179185
 30
0.0
 10
-14.2114081062
 20
222.3638993717
 30
0.0
 10
-13.5012173514
 20
221.7460248426
 30
0.0
 10
-12.6932963448
 20
221.1474348554
 30
0.0
 10
-11.7906935079
 20
220.5705345723
 30
0.0
 10
-10.7970575994
 20
220.0173396223
 30
0.0
 10
-9.7162416058
 20
219.4901119777
 30
0.0
 10
-8.5525466571
 20
218.9908938902
 30
0.0
 10
-7.3106054773
 20
218.5216180184
 30
0.0
 10
-5.9953429818
 20
218.0842822793
 30
0.0
 10
-4.6120527191
 20
217.6804848285
 30
0.0
 10
-3.1662447583
 20
217.3120131163
 30
0.0
 10
-1.6637441638
 20
216.980226862
 30
0.0
 10
-0.1105733906
 20
216.6865350813
 30
0.0
 10
1.4870196782
 20
216.4321274371
 30
0.0
 10
3.1226053148
 20
216.2179652013
 30
0.0
 10
4.7896087081
 20
216.0450333667
 30
0.0
 10
6.4813087477
 20
215.9138936794
 30
0.0
 10
8.1909109192
 20
215.8252034965
 30
0.0
 10
10.485909509
 20
215.7639024702
 30
0.0
 10
13.3504460688
 20
215.7944587999
 30
0.0
 10
16.1962253073
 20
215.9671928085
 30
0.0
 10
18.4369692352
 20
216.1911467674
 30
0.0
 10
20.078410692
 20
216.3995320449
 30
0.0
 10
21.6830733965
 20
216.6483443458
 30
0.0
 10
23.244578094
 20
216.9366382256
 30
0.0
 10
24.7562918238
 20
217.2631919835
 30
0.0
 10
25.7427997625
 20
217.5093780371
 30
0.0
 10
26.2261888296
 20
217.6389531269
 30
0.0
  0
SPLINE
  5
3BF
100
AcDbEntity
  8
0
100
AcDbSpline
 62
7
  6
CONTINUOUS
 70
0
 71
3
 72
30
 73
26
 74
0
 42
0.0000001
 43
0.0000001
 44
0.0000000001
 40
0.0
 40
0.0
 40
0.0
 40
0.0
 40
0.0301218988
 40
0.0610070258
 40
0.1247764863
 40
0.1907804245
 40
0.2584997125
 40
0.3273663681
 40
0.3967977241
 40
0.4662052112
 40
0.5349986727
 40
0.6025978539
 40
0.6357749248
 40
0.6684446573
 40
0.7005406284
 40
0.7319999926
 40
0.7927617006
 40
0.821957208
 40
0.8502916328
 40
0.8777184492
 40
0.9041971312
 40
0.9296906507
 40
0.9541693452
 40
0.9776111638
 40
1.0
 40
1.0
 40
1.0
 40
1.0
 10
26.6876093508
 20
216.4689124822
 30
0.0
 10
26.2957351936
 20
216.3638684659
 30
0.0
 10
25.4991146943
 20
216.1619466718
 30
0.0
 10
23.8598970426
 20
215.7906486668
 30
0.0
 10
21.732414566
 20
215.390566961
 30
0.0
 10
19.0979916011
 20
215.0167371477
 30
0.0
 10
16.3818144456
 20
214.7479001648
 30
0.0
 10
13.6109300421
 20
214.5867942643
 30
0.0
 10
10.813123462
 20
214.5350391082
 30
0.0
 10
8.0164194704
 20
214.593163758
 30
0.0
 10
5.2488608405
 20
214.7606184415
 30
0.0
 10
2.9758847454
 20
214.9912075927
 30
0.0
 10
1.1943233245
 20
215.2299732071
 30
0.0
 10
-0.1091224874
 20
215.433831567
 30
0.0
 10
-1.3848514083
 20
215.6631306197
 30
0.0
 10
-3.0255322008
 20
215.9980447649
 30
0.0
 10
-4.6157553737
 20
216.383282256
 30
0.0
 10
-6.1476766297
 20
216.821726005
 30
0.0
 10
-7.238448459
 20
217.1681041038
 30
0.0
 10
-8.2836030955
 20
217.5355444523
 30
0.0
 10
-9.280562615
 20
217.9230537469
 30
0.0
 10
-10.2268110732
 20
218.3297284242
 30
0.0
 10
-11.119995537
 20
218.7545584137
 30
0.0
 10
-11.9578988107
 20
219.1964026716
 30
0.0
 10
-12.490576867
 20
219.5088806276
 30
0.0
 10
-12.7467116252
 20
219.6680319991
 30
0.0
  0
SPLINE
  5
3C0
100
AcDbEntity
  8
0
100
AcDbSpline
 62
7
  6
CONTINUOUS
 70
0
 71
3
 72
19
 73
15
 74
0
 42
0.0000001
 43
0.0000001
 44
0.0000000001
 40
0.0
 40
0.0
 40
0.0
 40
0.0
 40
0.1573346509
 40
0.3037311133
 40
0.3729517046
 40
0.4396068282
 40
0.5655804842
 40
0.6827928899
 40
0.7386202705
 40
0.7928796989
 40
0.8458412357
 40
0.8978010425
 40
0.9490761102
 40
1.0
 40
1.0
 40
1.0
 40
1.0
 10
-12.7467116252
 20
219.6680319991
 30
0.0
 10
-13.0853508246
 20
219.878448162
 30
0.0
 10
-13.725766555
 20
220.306752801
 30
0.0
 10
-14.4679085367
 20
220.8939273969
 30
0.0
 10
-14.9962101049
 20
221.3765453508
 30
0.0
 10
-15.4632161645
 20
221.8482147996
 30
0.0
 10
-15.9707914951
 20
222.4495640956
 30
0.0
 10
-16.3845754566
 20
223.0873396203
 30
0.0
 10
-16.6434914177
 20
223.6023821378
 30
0.0
 10
-16.8003921062
 20
223.9850699853
 30
0.0
 10
-16.9229098116
 20
224.3698562046
 30
0.0
 10
-17.0108901782
 20
224.7562634518
 30
0.0
 10
-17.064172495
 20
225.1437398027
 30
0.0
 10
-17.0764670241
 20
225.4028309484
 30
0.0
 10
-17.0767931857
 20
225.5318720538
 30
0.0
  0
SPLINE
  5
3C1
100
AcDbEntity
  8
0
100
AcDbSpline
 62
7
  6
CONTINUOUS
 70
0
 71
3
 72
24
 73
20
 74
0
 42
0.0000001
 43
0.0000001
 44
0.0000000001
 40
0.0
 40
0.0
 40
0.0
 40
0.0
 40
0.070841395
 40
0.1407605037
 40
0.2095914952
 40
0.2772482971
 40
0.3436765413
 40
0.408832054
 40
0.472689653
 40
0.5352586303
 40
0.5965759735
 40
0.6567097673
 40
0.7157555248
 40
0.7449163956
 40
0.7738552784
 40
0.8311330417
 40
0.8877823868
 40
0.9440006014
 40
1.0
 40
1.0
 40
1.0
 40
1.0
 10
3.1478719582
 20
174.9621314088
 30
0.0
 10
2.8002161765
 20
174.6456614126
 30
0.0
 10
2.090605311
 20
174.0371455836
 30
0.0
 10
0.9809989654
 20
173.1970447159
 30
0.0
 10
-0.161677537
 20
172.4399674213
 30
0.0
 10
-1.3309290638
 20
171.770006262
 30
0.0
 10
-2.5207034589
 20
171.1908341457
 30
0.0
 10
-3.7245980396
 20
170.70533067
 30
0.0
 10
-4.9362778036
 20
170.316422423
 30
0.0
 10
-6.1491610151
 20
170.0260279272
 30
0.0
 10
-7.3568420047
 20
169.8359922595
 30
0.0
 10
-8.5527402002
 20
169.7471738059
 30
0.0
 10
-9.5384648746
 20
169.7582322528
 30
0.0
 10
-10.3137623456
 20
169.8185635989
 30
0.0
 10
-11.0739308138
 20
169.9120866526
 30
0.0
 10
-12.0062945176
 20
170.0919384046
 30
0.0
 10
-13.0918360932
 20
170.4086567048
 30
0.0
 10
-14.1344343916
 20
170.8240330866
 30
0.0
 10
-14.7977700229
 20
171.1655212524
 30
0.0
 10
-15.1195842131
 20
171.3513812106
 30
0.0
  0
SPLINE
  5
3C2
100
AcDbEntity
  8
0
100
AcDbSpline
 62
7
  6
CONTINUOUS
 70
0
 71
3
 72
25
 73
21
 74
0
 42
0.0000001
 43
0.0000001
 44
0.0000000001
 40
0.0
 40
0.0
 40
0.0
 40
0.0
 40
0.067421897
 40
0.1358420817
 40
0.2047659123
 40
0.2737921354
 40
0.3424849129
 40
0.3765788379
 40
0.4104309437
 40
0.5423026712
 40
0.6058048958
 40
0.6673522398
 40
0.7268666759
 40
0.7843887029
 40
0.8400927962
 40
0.8942829667
 40
0.9209595325
 40
0.9474256452
 40
0.9737490939
 40
1.0
 40
1.0
 40
1.0
 40
1.0
 10
0.8751446073
 20
195.8494268866
 30
0.0
 10
0.6680310682
 20
195.6608920646
 30
0.0
 10
0.2696358539
 20
195.2597471847
 30
0.0
 10
-0.2699558591
 20
194.6006345239
 30
0.0
 10
-0.748880971
 20
193.8880713578
 30
0.0
 10
-1.1598490188
 20
193.1330579181
 30
0.0
 10
-1.441576653
 20
192.4760596175
 30
0.0
 10
-1.6273804563
 20
191.9394797502
 30
0.0
 10
-1.8609614303
 20
191.1429487416
 30
0.0
 10
-2.0189454858
 20
190.195436673
 30
0.0
 10
-2.0222377464
 20
189.1264565068
 30
0.0
 10
-1.9375146802
 20
188.3626108901
 30
0.0
 10
-1.7666057257
 20
187.6387372625
 30
0.0
 10
-1.5116811577
 20
186.9656325244
 30
0.0
 10
-1.1765019324
 20
186.3536238804
 30
0.0
 10
-0.831986223
 20
185.8998644588
 30
0.0
 10
-0.5224755012
 20
185.5783905251
 30
0.0
 10
-0.2751452075
 20
185.3592086935
 30
0.0
 10
-0.0125329832
 20
185.1615753736
 30
0.0
 10
0.1722324702
 20
185.0446021448
 30
0.0
 10
0.266662101
 20
184.9900639263
 30
0.0
  0
SPLINE
  5
3C3
100
AcDbEntity
  8
0
100
AcDbSpline
 62
7
  6
CONTINUOUS
 70
0
 71
3
 72
25
 73
21
 74
0
 42
0.0000001
 43
0.0000001
 44
0.0000000001
 40
0.0
 40
0.0
 40
0.0
 40
0.0
 40
0.067421897
 40
0.1358420817
 40
0.2047659123
 40
0.2737921354
 40
0.3424849129
 40
0.3765788379
 40
0.4104309437
 40
0.5423026712
 40
0.6058048958
 40
0.6673522398
 40
0.7268666759
 40
0.7843887029
 40
0.8400927962
 40
0.8942829667
 40
0.9209595325
 40
0.9474256452
 40
0.9737490939
 40
1.0
 40
1.0
 40
1.0
 40
1.0
 10
-8.009153219
 20
203.3507892389
 30
0.0
 10
-8.2162667582
 20
203.1622544169
 30
0.0
 10
-8.6146619725
 20
202.761109537
 30
0.0
 10
-9.1542536855
 20
202.1019968761
 30
0.0
 10
-9.6331787974
 20
201.3894337101
 30
0.0
 10
-10.0441468451
 20
200.6344202704
 30
0.0
 10
-10.3258744794
 20
199.9774219698
 30
0.0
 10
-10.5116782826
 20
199.4408421025
 30
0.0
 10
-10.7452592566
 20
198.6443110939
 30
0.0
 10
-10.9032433122
 20
197.6967990253
 30
0.0
 10
-10.9065355728
 20
196.6278188591
 30
0.0
 10
-10.8218125066
 20
195.8639732424
 30
0.0
 10
-10.6509035521
 20
195.1400996148
 30
0.0
 10
-10.395978984
 20
194.4669948767
 30
0.0
 10
-10.0607997588
 20
193.8549862327
 30
0.0
 10
-9.7162840494
 20
193.401226811
 30
0.0
 10
-9.4067733276
 20
193.0797528774
 30
0.0
 10
-9.1594430338
 20
192.8605710458
 30
0.0
 10
-8.8968308096
 20
192.6629377259
 30
0.0
 10
-8.7120653561
 20
192.5459644971
 30
0.0
 10
-8.6176357253
 20
192.4914262786
 30
0.0
  0
SPLINE
  5
3C4
100
AcDbEntity
  8
0
100
AcDbSpline
 62
7
  6
CONTINUOUS
 70
0
 71
3
 72
25
 73
21
 74
0
 42
0.0000001
 43
0.0000001
 44
0.0000000001
 40
0.0
 40
0.0
 40
0.0
 40
0.0
 40
0.067421897
 40
0.1358420817
 40
0.2047659123
 40
0.2737921354
 40
0.3424849129
 40
0.3765788379
 40
0.4104309437
 40
0.5423026712
 40
0.6058048958
 40
0.6673522398
 40
0.7268666759
 40
0.7843887029
 40
0.8400927962
 40
0.8942829667
 40
0.9209595325
 40
0.9474256452
 40
0.9737490939
 40
1.0
 40
1.0
 40
1.0
 40
1.0
 10
-16.8934510454
 20
191.0864574024
 30
0.0
 10
-17.1005645845
 20
190.8979225804
 30
0.0
 10
-17.4989597988
 20
190.4967777005
 30
0.0
 10
-18.0385515118
 20
189.8376650396
 30
0.0
 10
-18.5174766237
 20
189.1251018736
 30
0.0
 10
-18.9284446715
 20
188.3700884339
 30
0.0
 10
-19.2101723057
 20
187.7130901333
 30
0.0
 10
-19.3959761089
 20
187.176510266
 30
0.0
 10
-19.6295570829
 20
186.3799792574
 30
0.0
 10
-19.7875411385
 20
185.4324671888
 30
0.0
 10
-19.7908333991
 20
184.3634870226
 30
0.0
 10
-19.7061103329
 20
183.5996414059
 30
0.0
 10
-19.5352013784
 20
182.8757677783
 30
0.0
 10
-19.2802768104
 20
182.2026630402
 30
0.0
 10
-18.9450975851
 20
181.5906543962
 30
0.0
 10
-18.6005818757
 20
181.1368949745
 30
0.0
 10
-18.2910711539
 20
180.8154210409
 30
0.0
 10
-18.0437408602
 20
180.5962392093
 30
0.0
 10
-17.7811286359
 20
180.3986058894
 30
0.0
 10
-17.5963631825
 20
180.2816326606
 30
0.0
 10
-17.5019335517
 20
180.2270944421
 30
0.0
  0
SPLINE
  5
3C5
100
AcDbEntity
  8
0
100
AcDbSpline
 62
7
  6
CONTINUOUS
 70
0
 71
3
 72
18
 73
14
 74
0
 42
0.0000001
 43
0.0000001
 44
0.0000000001
 40
0.0
 40
0.0
 40
0.0
 40
0.0
 40
0.056015405
 40
0.1122574945
 40
0.168933781
 40
0.2262378029
 40
0.3433071898
 40
0.4034671295
 40
0.4648164382
 40
0.5912028791
 40
0.7227492068
 40
0.8592959007
 40
1.0
 40
1.0
 40
1.0
 40
1.0
 10
-4.235029758
 20
182.9551263729
 30
0.0
 10
-4.3001848594
 20
182.9927610855
 30
0.0
 10
-4.4345028937
 20
183.0619054032
 30
0.0
 10
-4.6456325597
 20
183.1459640725
 30
0.0
 10
-4.8654677662
 20
183.2101391724
 30
0.0
 10
-5.1705517981
 20
183.269045953
 30
0.0
 10
-5.4871085845
 20
183.2857406391
 30
0.0
 10
-5.8069678505
 20
183.2620037572
 30
0.0
 10
-6.136238079
 20
183.2101192429
 30
0.0
 10
-6.5506953062
 20
183.0930564251
 30
0.0
 10
-7.0359425808
 20
182.8760177164
 30
0.0
 10
-7.503944934
 20
182.5859512718
 30
0.0
 10
-7.7944259731
 20
182.3511735417
 30
0.0
 10
-7.9341924807
 20
182.2239445175
 30
0.0
  0
SPLINE
  5
3C6
100
AcDbEntity
  8
0
100
AcDbSpline
 62
7
  6
CONTINUOUS
 70
0
 71
3
 72
14
 73
10
 74
0
 42
0.0000001
 43
0.0000001
 44
0.0000000001
 40
0.0
 40
0.0
 40
0.0
 40
0.0
 40
0.1165594174
 40
0.2340991648
 40
0.3535401708
 40
0.4756665849
 40
0.6011063559
 40
0.7302589784
 40
1.0
 40
1.0
 40
1.0
 40
1.0
 10
-15.2405045586
 20
190.6422793416
 30
0.0
 10
-15.3153373887
 20
190.6854865487
 30
0.0
 10
-15.4720634026
 20
190.7616198163
 30
0.0
 10
-15.7223869316
 20
190.8420094424
 30
0.0
 10
-15.9854940551
 20
190.887743468
 30
0.0
 10
-16.2581084635
 20
190.8985911535
 30
0.0
 10
-16.5370648241
 20
190.8742172574
 30
0.0
 10
-16.9182271503
 20
190.794635344
 30
0.0
 10
-17.1959763291
 20
190.6847687419
 30
0.0
 10
-17.3739656165
 20
190.5936190184
 30
0.0
  0
SPLINE
  5
3C7
100
AcDbEntity
  8
0
100
AcDbSpline
 62
7
  6
CONTINUOUS
 70
0
 71
3
 72
20
 73
16
 74
0
 42
0.0000001
 43
0.0000001
 44
0.0000000001
 40
0.0
 40
0.0
 40
0.0
 40
0.0
 40
0.0560138563
 40
0.1122470355
 40
0.1689109309
 40
0.2262047992
 40
0.2843043438
 40
0.3433646122
 40
0.4647442455
 40
0.5273335716
 40
0.5912091222
 40
0.7227347418
 40
0.859226526
 40
0.9291701929
 40
1.0
 40
1.0
 40
1.0
 40
1.0
 10
-10.4998443731
 20
192.350214796
 30
0.0
 10
-10.612477024
 20
192.4152662429
 30
0.0
 10
-10.8446572295
 20
192.5347592667
 30
0.0
 10
-11.2095505424
 20
192.6801526498
 30
0.0
 10
-11.5894969758
 20
192.7910335151
 30
0.0
 10
-11.9823543729
 20
192.8667526553
 30
0.0
 10
-12.3860071171
 20
192.9070819581
 30
0.0
 10
-12.9404504153
 20
192.9132658315
 30
0.0
 10
-13.5038888556
 20
192.8466050874
 30
0.0
 10
-14.0639492013
 20
192.712421825
 30
0.0
 10
-14.6348756329
 20
192.5292069553
 30
0.0
 10
-15.3408974123
 20
192.2135092985
 30
0.0
 10
-16.0099263296
 20
191.7989201898
 30
0.0
 10
-16.523476536
 20
191.4101051407
 30
0.0
 10
-16.7718244863
 20
191.1971736876
 30
0.0
 10
-16.8934510454
 20
191.0864574024
 30
0.0
  0
SPLINE
  5
3C8
100
AcDbEntity
  8
0
100
AcDbSpline
 62
7
  6
CONTINUOUS
 70
0
 71
3
 72
14
 73
10
 74
0
 42
0.0000001
 43
0.0000001
 44
0.0000000001
 40
0.0
 40
0.0
 40
0.0
 40
0.0
 40
0.1165594174
 40
0.2340991648
 40
0.3535401708
 40
0.4756665849
 40
0.6011063559
 40
0.7302589784
 40
1.0
 40
1.0
 40
1.0
 40
1.0
 10
-6.3562067323
 20
202.9066111781
 30
0.0
 10
-6.4310395624
 20
202.9498183852
 30
0.0
 10
-6.5877655763
 20
203.0259516528
 30
0.0
 10
-6.8380891052
 20
203.1063412789
 30
0.0
 10
-7.1011962288
 20
203.1520753045
 30
0.0
 10
-7.3738106372
 20
203.16292299
 30
0.0
 10
-7.6527669977
 20
203.1385490939
 30
0.0
 10
-8.033929324
 20
203.0589671805
 30
0.0
 10
-8.3116785028
 20
202.9491005784
 30
0.0
 10
-8.4896677901
 20
202.8579508549
 30
0.0
  0
SPLINE
  5
3C9
100
AcDbEntity
  8
0
100
AcDbSpline
 62
7
  6
CONTINUOUS
 70
0
 71
3
 72
20
 73
16
 74
0
 42
0.0000001
 43
0.0000001
 44
0.0000000001
 40
0.0
 40
0.0
 40
0.0
 40
0.0
 40
0.0560138563
 40
0.1122470355
 40
0.1689109309
 40
0.2262047992
 40
0.2843043438
 40
0.3433646122
 40
0.4647442455
 40
0.5273335716
 40
0.5912091222
 40
0.7227347418
 40
0.859226526
 40
0.9291701929
 40
1.0
 40
1.0
 40
1.0
 40
1.0
 10
-1.6155465468
 20
204.6145466325
 30
0.0
 10
-1.7281791976
 20
204.6795980794
 30
0.0
 10
-1.9603594032
 20
204.7990911032
 30
0.0
 10
-2.325252716
 20
204.9444844863
 30
0.0
 10
-2.7051991495
 20
205.0553653516
 30
0.0
 10
-3.0980565466
 20
205.1310844918
 30
0.0
 10
-3.5017092908
 20
205.1714137946
 30
0.0
 10
-4.0561525889
 20
205.177597668
 30
0.0
 10
-4.6195910293
 20
205.1109369239
 30
0.0
 10
-5.179651375
 20
204.9767536615
 30
0.0
 10
-5.7505778066
 20
204.7935387918
 30
0.0
 10
-6.4565995859
 20
204.477841135
 30
0.0
 10
-7.1256285032
 20
204.0632520263
 30
0.0
 10
-7.6391787096
 20
203.6744369772
 30
0.0
 10
-7.8875266599
 20
203.4615055241
 30
0.0
 10
-8.009153219
 20
203.3507892389
 30
0.0
  0
SPLINE
  5
3CA
100
AcDbEntity
  8
0
100
AcDbSpline
 62
7
  6
CONTINUOUS
 70
0
 71
3
 72
14
 73
10
 74
0
 42
0.0000001
 43
0.0000001
 44
0.0000000001
 40
0.0
 40
0.0
 40
0.0
 40
0.0
 40
0.1165594174
 40
0.2340991648
 40
0.3535401708
 40
0.4756665849
 40
0.6011063559
 40
0.7302589784
 40
1.0
 40
1.0
 40
1.0
 40
1.0
 10
2.528091094
 20
195.4052488258
 30
0.0
 10
2.453258264
 20
195.4484560329
 30
0.0
 10
2.2965322501
 20
195.5245893006
 30
0.0
 10
2.0462087211
 20
195.6049789266
 30
0.0
 10
1.7831015976
 20
195.6507129523
 30
0.0
 10
1.5104871891
 20
195.6615606377
 30
0.0
 10
1.2315308286
 20
195.6371867416
 30
0.0
 10
0.8503685024
 20
195.5576048282
 30
0.0
 10
0.5726193236
 20
195.4477382261
 30
0.0
 10
0.3946300362
 20
195.3565885026
 30
0.0
  0
SPLINE
  5
3CB
100
AcDbEntity
  8
0
100
AcDbSpline
 62
7
  6
CONTINUOUS
 70
0
 71
3
 72
20
 73
16
 74
0
 42
0.0000001
 43
0.0000001
 44
0.0000000001
 40
0.0
 40
0.0
 40
0.0
 40
0.0
 40
0.0560138563
 40
0.1122470355
 40
0.1689109309
 40
0.2262047992
 40
0.2843043438
 40
0.3433646122
 40
0.4647442455
 40
0.5273335716
 40
0.5912091222
 40
0.7227347418
 40
0.859226526
 40
0.9291701929
 40
1.0
 40
1.0
 40
1.0
 40
1.0
 10
7.2687512796
 20
197.1131842802
 30
0.0
 10
7.1561186287
 20
197.1782357272
 30
0.0
 10
6.9239384232
 20
197.297728751
 30
0.0
 10
6.5590451103
 20
197.443122134
 30
0.0
 10
6.1790986769
 20
197.5540029993
 30
0.0
 10
5.7862412798
 20
197.6297221395
 30
0.0
 10
5.3825885355
 20
197.6700514423
 30
0.0
 10
4.8281452374
 20
197.6762353157
 30
0.0
 10
4.2647067971
 20
197.6095745716
 30
0.0
 10
3.7046464514
 20
197.4753913092
 30
0.0
 10
3.1337200197
 20
197.2921764395
 30
0.0
 10
2.4276982404
 20
196.9764787828
 30
0.0
 10
1.7586693231
 20
196.5618896741
 30
0.0
 10
1.2451191167
 20
196.1730746249
 30
0.0
 10
0.9967711664
 20
195.9601431718
 30
0.0
 10
0.8751446073
 20
195.8494268866
 30
0.0
  0
SPLINE
  5
3CC
100
AcDbEntity
  8
0
100
AcDbSpline
 62
7
  6
CONTINUOUS
 70
0
 71
3
 72
15
 73
11
 74
0
 42
0.0000001
 43
0.0000001
 44
0.0000000001
 40
0.0
 40
0.0
 40
0.0
 40
0.0
 40
0.1370609433
 40
0.2701404281
 40
0.3992699797
 40
0.5246535075
 40
0.6467223976
 40
0.7660850172
 40
0.8835388952
 40
1.0
 40
1.0
 40
1.0
 40
1.0
 10
-1.6472194829
 20
191.8321768945
 30
0.0
 10
-1.6424562275
 20
191.7301843503
 30
0.0
 10
-1.6231664651
 20
191.5294477973
 30
0.0
 10
-1.5633076539
 20
191.2375186317
 30
0.0
 10
-1.4738256761
 20
190.9623088726
 30
0.0
 10
-1.3554621835
 20
190.7071833866
 30
0.0
 10
-1.209722197
 20
190.4751272792
 30
0.0
 10
-1.0381256258
 20
190.269015349
 30
0.0
 10
-0.842790511
 20
190.0914216513
 30
0.0
 10
-0.6979665319
 20
189.9932533399
 30
0.0
 10
-0.6228331077
 20
189.9498725748
 30
0.0
  0
SPLINE
  5
3CD
100
AcDbEntity
  8
0
100
AcDbSpline
 62
7
  6
CONTINUOUS
 70
0
 71
3
 72
15
 73
11
 74
0
 42
0.0000001
 43
0.0000001
 44
0.0000000001
 40
0.0
 40
0.0
 40
0.0
 40
0.0
 40
0.1370609433
 40
0.2701404281
 40
0.3992699797
 40
0.5246535075
 40
0.6467223976
 40
0.7660850172
 40
0.8835388952
 40
1.0
 40
1.0
 40
1.0
 40
1.0
 10
-10.5315173093
 20
199.3335392468
 30
0.0
 10
-10.5267540539
 20
199.2315467025
 30
0.0
 10
-10.5074642915
 20
199.0308101496
 30
0.0
 10
-10.4476054802
 20
198.738880984
 30
0.0
 10
-10.3581235025
 20
198.4636712249
 30
0.0
 10
-10.2397600099
 20
198.2085457388
 30
0.0
 10
-10.0940200233
 20
197.9764896315
 30
0.0
 10
-9.9224234521
 20
197.7703777012
 30
0.0
 10
-9.7270883374
 20
197.5927840036
 30
0.0
 10
-9.5822643582
 20
197.4946156922
 30
0.0
 10
-9.5071309341
 20
197.4512349271
 30
0.0
  0
SPLINE
  5
3CE
100
AcDbEntity
  8
0
100
AcDbSpline
 62
7
  6
CONTINUOUS
 70
0
 71
3
 72
15
 73
11
 74
0
 42
0.0000001
 43
0.0000001
 44
0.0000000001
 40
0.0
 40
0.0
 40
0.0
 40
0.0
 40
0.1370609433
 40
0.2701404281
 40
0.3992699797
 40
0.5246535075
 40
0.6467223976
 40
0.7660850172
 40
0.8835388952
 40
1.0
 40
1.0
 40
1.0
 40
1.0
 10
-19.4158151356
 20
187.0692074103
 30
0.0
 10
-19.4110518802
 20
186.967214866
 30
0.0
 10
-19.3917621178
 20
186.7664783131
 30
0.0
 10
-19.3319033066
 20
186.4745491475
 30
0.0
 10
-19.2424213288
 20
186.1993393884
 30
0.0
 10
-19.1240578362
 20
185.9442139023
 30
0.0
 10
-18.9783178497
 20
185.712157795
 30
0.0
 10
-18.8067212785
 20
185.5060458647
 30
0.0
 10
-18.6113861637
 20
185.3284521671
 30
0.0
 10
-18.4665621846
 20
185.2302838557
 30
0.0
 10
-18.3914287604
 20
185.1869030906
 30
0.0
  0
SPLINE
  5
3CF
100
AcDbEntity
  8
0
100
AcDbSpline
 62
7
  6
CONTINUOUS
 70
0
 71
3
 72
16
 73
12
 74
0
 42
0.0000001
 43
0.0000001
 44
0.0000000001
 40
0.0
 40
0.0
 40
0.0
 40
0.0
 40
0.0649363243
 40
0.130754925
 40
0.2636113868
 40
0.3964893608
 40
0.5273033989
 40
0.6541410784
 40
0.7755515539
 40
0.8908077951
 40
1.0
 40
1.0
 40
1.0
 40
1.0
 10
-7.9341924807
 20
182.2239445175
 30
0.0
 10
-8.0296477728
 20
182.1370518572
 30
0.0
 10
-8.2148817172
 20
181.9542507616
 30
0.0
 10
-8.5587575668
 20
181.5583296241
 30
0.0
 10
-8.9331289884
 20
181.0126193039
 30
0.0
 10
-9.2793675692
 20
180.3013215258
 30
0.0
 10
-9.5116843771
 20
179.5573662907
 30
0.0
 10
-9.6209287329
 20
178.8084579724
 30
0.0
 10
-9.6026184336
 20
178.0821981862
 30
0.0
 10
-9.4564162585
 20
177.4060907602
 30
0.0
 10
-9.2713875019
 20
176.9952979302
 30
0.0
 10
-9.1593188844
 20
176.8094131987
 30
0.0
  0
SPLINE
  5
3D0
100
AcDbEntity
  8
0
100
AcDbSpline
 62
7
  6
CONTINUOUS
 70
0
 71
3
 72
11
 73
7
 74
0
 42
0.0000001
 43
0.0000001
 44
0.0000000001
 40
0.0
 40
0.0
 40
0.0
 40
0.0
 40
0.2555606515
 40
0.5066402926
 40
0.7542532277
 40
1.0
 40
1.0
 40
1.0
 40
1.0
 10
-9.1593188844
 20
176.8094131987
 30
0.0
 10
-9.1046103417
 20
176.7186698399
 30
0.0
 10
-8.98546033
 20
176.5449502056
 30
0.0
 10
-8.777873751
 20
176.3100010551
 30
0.0
 10
-8.5451083726
 20
176.1060376219
 30
0.0
 10
-8.3744771006
 20
175.9919822728
 30
0.0
 10
-8.2862476663
 20
175.9410194267
 30
0.0
  0
SPLINE
  5
3D1
100
AcDbEntity
  8
0
100
AcDbSpline
 62
7
  6
CONTINUOUS
 70
0
 71
3
 72
32
 73
28
 74
0
 42
0.0000001
 43
0.0000001
 44
0.0000000001
 40
0.0
 40
0.0
 40
0.0
 40
0.0
 40
0.0262422097
 40
0.0525568287
 40
0.0790142702
 40
0.1056821784
 40
0.1326228664
 40
0.1598933204
 40
0.1875432142
 40
0.2156145901
 40
0.2441419264
 40
0.2731504105
 40
0.332644191
 40
0.3941704054
 40
0.4576505417
 40
0.522900618
 40
0.5896487094
 40
0.6234900603
 40
0.6575728606
 40
0.7262401802
 40
0.7607380391
 40
0.7952662305
 40
0.8297679259
 40
0.8641873062
 40
0.9325636272
 40
0.9664352632
 40
1.0
 40
1.0
 40
1.0
 40
1.0
 10
4.8864019411
 20
205.9888975117
 30
0.0
 10
5.1562049664
 20
205.8330759832
 30
0.0
 10
5.6841324437
 20
205.4989066602
 30
0.0
 10
6.4344814147
 20
204.9342432869
 30
0.0
 10
7.1410764188
 20
204.3079803944
 30
0.0
 10
7.8010426098
 20
203.6224610326
 30
0.0
 10
8.412065303
 20
202.8804649004
 30
0.0
 10
8.9716684796
 20
202.0847043415
 30
0.0
 10
9.4778721693
 20
201.2383168561
 30
0.0
 10
9.9287615488
 20
200.344515678
 30
0.0
 10
10.3225900944
 20
199.4066353225
 30
0.0
 10
10.7735687127
 20
198.0914705033
 30
0.0
 10
11.1841413979
 20
196.3528374067
 30
0.0
 10
11.4261851362
 20
194.1708420674
 30
0.0
 10
11.4190377747
 20
191.9073447791
 30
0.0
 10
11.1631994981
 20
189.5964836344
 30
0.0
 10
10.7480139664
 20
187.6681774792
 30
0.0
 10
10.2979701028
 20
186.1333363084
 30
0.0
 10
9.767091222
 20
184.6004387617
 30
0.0
 10
9.1238711114
 20
183.1001010788
 30
0.0
 10
8.375857491
 20
181.6459748572
 30
0.0
 10
7.7628785227
 20
180.580028625
 30
0.0
 10
7.1013779012
 20
179.5445968606
 30
0.0
 10
6.1600900731
 20
178.2132018867
 30
0.0
 10
5.1305070589
 20
176.9552390886
 30
0.0
 10
4.0212160161
 20
175.7843460373
 30
0.0
 10
3.4425652051
 20
175.2303897712
 30
0.0
 10
3.1478719582
 20
174.9621314088
 30
0.0
  0
SPLINE
  5
3D2
100
AcDbEntity
  8
0
100
AcDbSpline
 62
7
  6
CONTINUOUS
 70
0
 71
3
 72
23
 73
19
 74
0
 42
0.0000001
 43
0.0000001
 44
0.0000000001
 40
0.0
 40
0.0
 40
0.0
 40
0.0
 40
0.05331221
 40
0.1079713855
 40
0.1641586969
 40
0.2219825919
 40
0.2814715549
 40
0.3425873275
 40
0.4052248543
 40
0.469225534
 40
0.534381369
 40
0.6004511912
 40
0.6671657636
 40
0.7342298304
 40
0.8013355029
 40
0.8682017418
 40
0.9345462016
 40
1.0
 40
1.0
 40
1.0
 40
1.0
 10
5.6975876421
 20
197.6309202355
 30
0.0
 10
5.8129886536
 20
197.477809452
 30
0.0
 10
6.0269265774
 20
197.152318513
 30
0.0
 10
6.289279001
 20
196.6219791134
 30
0.0
 10
6.4943636966
 20
196.0497261901
 30
0.0
 10
6.6398863814
 20
195.4417689924
 30
0.0
 10
6.724576419
 20
194.804609469
 30
0.0
 10
6.7475360422
 20
194.1450173324
 30
0.0
 10
6.7086404523
 20
193.4699919107
 30
0.0
 10
6.6083605447
 20
192.7866925587
 30
0.0
 10
6.4477684112
 20
192.10236752
 30
0.0
 10
6.2286572335
 20
191.4242430269
 30
0.0
 10
5.9532441685
 20
190.7595596256
 30
0.0
 10
5.6246508531
 20
190.1153227744
 30
0.0
 10
5.246212346
 20
189.4984106416
 30
0.0
 10
4.8219639346
 20
188.9152228795
 30
0.0
 10
4.3563889035
 20
188.3723165456
 30
0.0
 10
4.0192649338
 20
188.0382168178
 30
0.0
 10
3.8451910762
 20
187.879757917
 30
0.0
  0
SPLINE
  5
3D3
100
AcDbEntity
  8
0
100
AcDbSpline
 62
7
  6
CONTINUOUS
 70
0
 71
3
 72
32
 73
28
 74
0
 42
0.0000001
 43
0.0000001
 44
0.0000000001
 40
0.0
 40
0.0
 40
0.0
 40
0.0
 40
0.0262422097
 40
0.0525568287
 40
0.0790142702
 40
0.1056821784
 40
0.1326228664
 40
0.1598933204
 40
0.1875432142
 40
0.2156145901
 40
0.2441419264
 40
0.2731504105
 40
0.332644191
 40
0.3941704054
 40
0.4576505417
 40
0.522900618
 40
0.5896487094
 40
0.6234900603
 40
0.6575728606
 40
0.7262401802
 40
0.7607380391
 40
0.7952662305
 40
0.8297679259
 40
0.8641873062
 40
0.9325636272
 40
0.9664352632
 40
1.0
 40
1.0
 40
1.0
 40
1.0
 10
-15.1195842131
 20
171.3513812106
 30
0.0
 10
-15.3893872384
 20
171.5072027391
 30
0.0
 10
-15.9173147158
 20
171.8413720621
 30
0.0
 10
-16.6676636868
 20
172.4060354354
 30
0.0
 10
-17.3742586908
 20
173.0322983279
 30
0.0
 10
-18.0342248819
 20
173.7178176897
 30
0.0
 10
-18.645247575
 20
174.4598138219
 30
0.0
 10
-19.2048507516
 20
175.2555743808
 30
0.0
 10
-19.7110544414
 20
176.1019618662
 30
0.0
 10
-20.1619438209
 20
176.9957630443
 30
0.0
 10
-20.5557723664
 20
177.9336433998
 30
0.0
 10
-21.0067509847
 20
179.248808219
 30
0.0
 10
-21.41732367
 20
180.9874413156
 30
0.0
 10
-21.6593674083
 20
183.1694366549
 30
0.0
 10
-21.6522200467
 20
185.4329339432
 30
0.0
 10
-21.3963817702
 20
187.7437950879
 30
0.0
 10
-20.9811962385
 20
189.6721012431
 30
0.0
 10
-20.5311523749
 20
191.2069424139
 30
0.0
 10
-20.0002734941
 20
192.7398399606
 30
0.0
 10
-19.3570533835
 20
194.2401776435
 30
0.0
 10
-18.6090397631
 20
195.6943038651
 30
0.0
 10
-17.9960607947
 20
196.7602500973
 30
0.0
 10
-17.3345601733
 20
197.7956818617
 30
0.0
 10
-16.3932723452
 20
199.1270768356
 30
0.0
 10
-15.3636893309
 20
200.3850396337
 30
0.0
 10
-14.2543982881
 20
201.555932685
 30
0.0
 10
-13.6757474771
 20
202.1098889511
 30
0.0
 10
-13.3810542303
 20
202.3781473135
 30
0.0
  0
SPLINE
  5
3D4
100
AcDbEntity
  8
0
100
AcDbSpline
 62
7
  6
CONTINUOUS
 70
0
 71
3
 72
25
 73
21
 74
0
 42
0.0000001
 43
0.0000001
 44
0.0000000001
 40
0.0
 40
0.0
 40
0.0
 40
0.0
 40
0.067421897
 40
0.1358420817
 40
0.2047659123
 40
0.2737921354
 40
0.3424849129
 40
0.3765788379
 40
0.4104309437
 40
0.5423026712
 40
0.6058048958
 40
0.6673522398
 40
0.7268666759
 40
0.7843887029
 40
0.8400927962
 40
0.8942829667
 40
0.9209595325
 40
0.9474256452
 40
0.9737490939
 40
1.0
 40
1.0
 40
1.0
 40
1.0
 10
-11.1083268794
 20
181.4908518357
 30
0.0
 10
-10.9012133403
 20
181.6793866577
 30
0.0
 10
-10.5028181259
 20
182.0805315376
 30
0.0
 10
-9.963226413
 20
182.7396441984
 30
0.0
 10
-9.4843013011
 20
183.4522073645
 30
0.0
 10
-9.0733332533
 20
184.2072208042
 30
0.0
 10
-8.791605619
 20
184.8642191048
 30
0.0
 10
-8.6058018158
 20
185.4007989721
 30
0.0
 10
-8.3722208418
 20
186.1973299807
 30
0.0
 10
-8.2142367862
 20
187.1448420493
 30
0.0
 10
-8.2109445257
 20
188.2138222155
 30
0.0
 10
-8.2956675918
 20
188.9776678322
 30
0.0
 10
-8.4665765464
 20
189.7015414598
 30
0.0
 10
-8.7215011144
 20
190.3746461979
 30
0.0
 10
-9.0566803396
 20
190.9866548419
 30
0.0
 10
-9.401196049
 20
191.4404142635
 30
0.0
 10
-9.7107067708
 20
191.7618881972
 30
0.0
 10
-9.9580370646
 20
191.9810700288
 30
0.0
 10
-10.2206492888
 20
192.1787033487
 30
0.0
 10
-10.4054147423
 20
192.2956765775
 30
0.0
 10
-10.4998443731
 20
192.350214796
 30
0.0
  0
SPLINE
  5
3D5
100
AcDbEntity
  8
0
100
AcDbSpline
 62
7
  6
CONTINUOUS
 70
0
 71
3
 72
18
 73
14
 74
0
 42
0.0000001
 43
0.0000001
 44
0.0000000001
 40
0.0
 40
0.0
 40
0.0
 40
0.0
 40
0.056015405
 40
0.1122574944
 40
0.1689337809
 40
0.2262378028
 40
0.3433071897
 40
0.4034671295
 40
0.4648164381
 40
0.591202879
 40
0.7227492067
 40
0.8592959007
 40
1.0
 40
1.0
 40
1.0
 40
1.0
 10
-8.2862476663
 20
175.9410194267
 30
0.0
 10
-8.2210925647
 20
175.903384714
 30
0.0
 10
-8.0867745301
 20
175.8342403961
 30
0.0
 10
-7.8756448636
 20
175.7501817267
 30
0.0
 10
-7.6558096565
 20
175.6860066268
 30
0.0
 10
-7.3507256238
 20
175.6270998463
 30
0.0
 10
-7.0341688366
 20
175.6104051605
 30
0.0
 10
-6.7143095698
 20
175.6341420428
 30
0.0
 10
-6.3850393404
 20
175.6860265578
 30
0.0
 10
-5.9705821123
 20
175.8030893765
 30
0.0
 10
-5.4853348367
 20
176.020128087
 30
0.0
 10
-5.0173324825
 20
176.3101945329
 30
0.0
 10
-4.7268514429
 20
176.5449722642
 30
0.0
 10
-4.5870849356
 20
176.6722012894
 30
0.0
  0
SPLINE
  5
3D6
100
AcDbEntity
  8
0
100
AcDbSpline
 62
7
  6
CONTINUOUS
 70
0
 71
3
 72
17
 73
13
 74
0
 42
0.0000001
 43
0.0000001
 44
0.0000000001
 40
0.0
 40
0.0
 40
0.0
 40
0.0
 40
0.0560287211
 40
0.1122762463
 40
0.1689529261
 40
0.2262599296
 40
0.3433367882
 40
0.4647601971
 40
0.5911506633
 40
0.7227192911
 40
0.8593056031
 40
1.0
 40
1.0
 40
1.0
 40
1.0
 10
-18.3914287604
 20
185.1869030906
 30
0.0
 10
-18.3407407894
 20
185.1576367157
 30
0.0
 10
-18.2362588977
 20
185.1038703975
 30
0.0
 10
-18.0720679556
 20
185.0384355657
 30
0.0
 10
-17.9010948629
 20
184.9885219699
 30
0.0
 10
-17.6637911415
 20
184.9427888963
 30
0.0
 10
-17.3534367552
 20
184.9262911482
 30
0.0
 10
-16.9732646311
 20
184.9714598533
 30
0.0
 10
-16.5904104069
 20
185.0795973243
 30
0.0
 10
-16.2129241209
 20
185.2484095973
 30
0.0
 10
-15.8489513058
 20
185.4740587052
 30
0.0
 10
-15.623001913
 20
185.6566414355
 30
0.0
 10
-15.5143137222
 20
185.7555799636
 30
0.0
  0
SPLINE
  5
3D7
100
AcDbEntity
  8
0
100
AcDbSpline
 62
7
  6
CONTINUOUS
 70
0
 71
3
 72
24
 73
20
 74
0
 42
0.0000001
 43
0.0000001
 44
0.0000000001
 40
0.0
 40
0.0
 40
0.0
 40
0.0
 40
0.070841395
 40
0.1407605037
 40
0.2095914952
 40
0.2772482971
 40
0.3436765413
 40
0.408832054
 40
0.472689653
 40
0.5352586303
 40
0.5965759735
 40
0.6567097673
 40
0.7157555248
 40
0.7449163956
 40
0.7738552784
 40
0.8311330417
 40
0.8877823868
 40
0.9440006014
 40
1.0
 40
1.0
 40
1.0
 40
1.0
 10
-13.3810542303
 20
202.3781473135
 30
0.0
 10
-13.0333984486
 20
202.6946173097
 30
0.0
 10
-12.3237875831
 20
203.3031331387
 30
0.0
 10
-11.2141812375
 20
204.1432340064
 30
0.0
 10
-10.0715047351
 20
204.900311301
 30
0.0
 10
-8.9022532082
 20
205.5702724603
 30
0.0
 10
-7.7124788132
 20
206.1494445765
 30
0.0
 10
-6.5085842325
 20
206.6349480523
 30
0.0
 10
-5.2969044684
 20
207.0238562992
 30
0.0
 10
-4.0840212569
 20
207.3142507951
 30
0.0
 10
-2.8763402674
 20
207.5042864628
 30
0.0
 10
-1.6804420719
 20
207.5931049164
 30
0.0
 10
-0.6947173975
 20
207.5820464695
 30
0.0
 10
0.0805800736
 20
207.5217151234
 30
0.0
 10
0.8407485417
 20
207.4281920697
 30
0.0
 10
1.7731122456
 20
207.2483403177
 30
0.0
 10
2.8586538212
 20
206.9316220175
 30
0.0
 10
3.9012521196
 20
206.5162456357
 30
0.0
 10
4.5645877509
 20
206.1747574699
 30
0.0
 10
4.8864019411
 20
205.9888975117
 30
0.0
  0
SPLINE
  5
3D8
100
AcDbEntity
  8
0
100
AcDbSpline
 62
7
  6
CONTINUOUS
 70
0
 71
3
 72
23
 73
19
 74
0
 42
0.0000001
 43
0.0000001
 44
0.0000000001
 40
0.0
 40
0.0
 40
0.0
 40
0.0
 40
0.0649015676
 40
0.1306596178
 40
0.1969383579
 40
0.2634815903
 40
0.3300433297
 40
0.3963520776
 40
0.4621380993
 40
0.5271535644
 40
0.5911705412
 40
0.6539923942
 40
0.7154536045
 40
0.7754313586
 40
0.833851256
 40
0.8907205091
 40
0.9460897993
 40
1.0
 40
1.0
 40
1.0
 40
1.0
 10
-2.6033679091
 20
174.6186870484
 30
0.0
 10
-2.4599784413
 20
174.7492140422
 30
0.0
 10
-2.1817736378
 20
175.0237214624
 30
0.0
 10
-1.7956064329
 20
175.4683580669
 30
0.0
 10
-1.4413592702
 20
175.9449812526
 30
0.0
 10
-1.1224013812
 20
176.4487283679
 30
0.0
 10
-0.8418318573
 20
176.9749264809
 30
0.0
 10
-0.6021300412
 20
177.5184905862
 30
0.0
 10
-0.4058306403
 20
178.0743088906
 30
0.0
 10
-0.254612383
 20
178.6369802939
 30
0.0
 10
-0.150131532
 20
179.2011969288
 30
0.0
 10
-0.0932015018
 20
179.7615401428
 30
0.0
 10
-0.0846352609
 20
180.3126769467
 30
0.0
 10
-0.1242892725
 20
180.8493204724
 30
0.0
 10
-0.2120664083
 20
181.3663679446
 30
0.0
 10
-0.3470850918
 20
181.858969595
 30
0.0
 10
-0.5282749169
 20
182.322085671
 30
0.0
 10
-0.6804010834
 20
182.6119080068
 30
0.0
 10
-0.7635608162
 20
182.7498424697
 30
0.0
  0
SPLINE
  5
3D9
100
AcDbEntity
  8
0
100
AcDbSpline
 62
7
  6
CONTINUOUS
 70
0
 71
3
 72
20
 73
16
 74
0
 42
0.0000001
 43
0.0000001
 44
0.0000000001
 40
0.0
 40
0.0
 40
0.0
 40
0.0
 40
0.0560138563
 40
0.1122470355
 40
0.1689109309
 40
0.2262047992
 40
0.2843043438
 40
0.3433646122
 40
0.4647442455
 40
0.5273335716
 40
0.5912091222
 40
0.7227347418
 40
0.859226526
 40
0.9291701929
 40
1.0
 40
1.0
 40
1.0
 40
1.0
 10
-17.5019335517
 20
180.2270944421
 30
0.0
 10
-17.3893009008
 20
180.1620429951
 30
0.0
 10
-17.1571206953
 20
180.0425499713
 30
0.0
 10
-16.7922273824
 20
179.8971565883
 30
0.0
 10
-16.412280949
 20
179.786275723
 30
0.0
 10
-16.0194235518
 20
179.7105565828
 30
0.0
 10
-15.6157708076
 20
179.67022728
 30
0.0
 10
-15.0613275095
 20
179.6640434066
 30
0.0
 10
-14.4978890692
 20
179.7307041507
 30
0.0
 10
-13.9378287234
 20
179.8648874131
 30
0.0
 10
-13.3669022918
 20
180.0481022828
 30
0.0
 10
-12.6608805125
 20
180.3637999396
 30
0.0
 10
-11.9918515952
 20
180.7783890482
 30
0.0
 10
-11.4783013888
 20
181.1672040974
 30
0.0
 10
-11.2299534385
 20
181.3801355505
 30
0.0
 10
-11.1083268794
 20
181.4908518357
 30
0.0
  0
SPLINE
  5
3DA
100
AcDbEntity
  8
0
100
AcDbSpline
 62
7
  6
CONTINUOUS
 70
0
 71
3
 72
23
 73
19
 74
0
 42
0.0000001
 43
0.0000001
 44
0.0000000001
 40
0.0
 40
0.0
 40
0.0
 40
0.0
 40
0.0596097819
 40
0.1181602032
 40
0.1758962635
 40
0.2332001078
 40
0.2904908988
 40
0.3481660895
 40
0.4065991674
 40
0.4661234334
 40
0.5270176138
 40
0.5894878602
 40
0.6536709317
 40
0.7196177104
 40
0.7873191421
 40
0.8567246442
 40
0.9277130576
 40
1.0
 40
1.0
 40
1.0
 40
1.0
 10
-0.7635608162
 20
182.7498424697
 30
0.0
 10
-0.8448227451
 20
182.8846291044
 30
0.0
 10
-1.0215751793
 20
183.1427558351
 30
0.0
 10
-1.3291083258
 20
183.4922794754
 30
0.0
 10
-1.6737160403
 20
183.7963632988
 30
0.0
 10
-2.0516907277
 20
184.0519393197
 30
0.0
 10
-2.4594284638
 20
184.256364286
 30
0.0
 10
-2.8927755547
 20
184.4078751265
 30
0.0
 10
-3.3474957225
 20
184.5047221738
 30
0.0
 10
-3.8190133255
 20
184.5463225628
 30
0.0
 10
-4.3027387538
 20
184.532135217
 30
0.0
 10
-4.7940042287
 20
184.4626572232
 30
0.0
 10
-5.2880362553
 20
184.3384025254
 30
0.0
 10
-5.7801740196
 20
184.160938603
 30
0.0
 10
-6.2656997174
 20
183.9317919575
 30
0.0
 10
-6.740144478
 20
183.6532828867
 30
0.0
 10
-7.1986939103
 20
183.3280587018
 30
0.0
 10
-7.4886746015
 20
183.084376578
 30
0.0
 10
-7.629814363
 20
182.9558974851
 30
0.0
  0
SPLINE
  5
3DB
100
AcDbEntity
  8
0
100
AcDbSpline
 62
7
  6
CONTINUOUS
 70
0
 71
3
 72
15
 73
11
 74
0
 42
0.0000001
 43
0.0000001
 44
0.0000000001
 40
0.0
 40
0.0
 40
0.0
 40
0.0
 40
0.1366081065
 40
0.270456575
 40
0.527560182
 40
0.6508303246
 40
0.711121177
 40
0.7705223566
 40
0.8867577811
 40
1.0
 40
1.0
 40
1.0
 40
1.0
 10
3.8451910762
 20
187.879757917
 30
0.0
 10
3.6671947182
 20
187.7177283761
 30
0.0
 10
3.300582263
 20
187.4120084194
 30
0.0
 10
2.5353483898
 20
186.8829375606
 30
0.0
 10
1.7187683989
 20
186.473827827
 30
0.0
 10
0.9764806007
 20
186.241306289
 30
0.0
 10
0.5583553629
 20
186.1483709594
 30
0.0
 10
0.1478028815
 20
186.0819158146
 30
0.0
 10
-0.3611884281
 20
186.0453673068
 30
0.0
 10
-0.7662341225
 20
186.0676730334
 30
0.0
 10
-0.9642794985
 20
186.0919642548
 30
0.0
  0
SPLINE
  5
3DC
100
AcDbEntity
  8
0
100
AcDbSpline
 62
7
  6
CONTINUOUS
 70
0
 71
3
 72
23
 73
19
 74
0
 42
0.0000001
 43
0.0000001
 44
0.0000000001
 40
0.0
 40
0.0
 40
0.0
 40
0.0
 40
0.0673905155
 40
0.1358293928
 40
0.2047658217
 40
0.2737783947
 40
0.3424628638
 40
0.4103887103
 40
0.4771531039
 40
0.5424191782
 40
0.6059158033
 40
0.6674598314
 40
0.7269692397
 40
0.7844882065
 40
0.8401878654
 40
0.8943741242
 40
0.9474721488
 40
1.0
 40
1.0
 40
1.0
 40
1.0
 10
2.2542819305
 20
190.5185494478
 30
0.0
 10
2.3474455959
 20
190.6033560478
 30
0.0
 10
2.5266814029
 20
190.7838997315
 30
0.0
 10
2.7695745755
 20
191.0804695856
 30
0.0
 10
2.9850918235
 20
191.4011887528
 30
0.0
 10
3.1700805371
 20
191.7409391673
 30
0.0
 10
3.3216969676
 20
192.0947933323
 30
0.0
 10
3.4378989682
 20
192.457415275
 30
0.0
 10
3.5166574031
 20
192.8234647963
 30
0.0
 10
3.5570033204
 20
193.187425465
 30
0.0
 10
3.5580701562
 20
193.5439110924
 30
0.0
 10
3.5199981869
 20
193.8876077087
 30
0.0
 10
3.44302009
 20
194.2133437991
 30
0.0
 10
3.3283832888
 20
194.5162595966
 30
0.0
 10
3.1774643447
 20
194.7916437316
 30
0.0
 10
2.9925704488
 20
195.0353188938
 30
0.0
 10
2.7763513952
 20
195.2432128604
 30
0.0
 10
2.6131316444
 20
195.3561478541
 30
0.0
 10
2.528091094
 20
195.4052488258
 30
0.0
  0
SPLINE
  5
3DD
100
AcDbEntity
  8
0
100
AcDbSpline
 62
7
  6
CONTINUOUS
 70
0
 71
3
 72
23
 73
19
 74
0
 42
0.0000001
 43
0.0000001
 44
0.0000000001
 40
0.0
 40
0.0
 40
0.0
 40
0.0
 40
0.05331221
 40
0.1079713855
 40
0.1641586969
 40
0.2219825919
 40
0.2814715549
 40
0.3425873275
 40
0.4052248543
 40
0.469225534
 40
0.534381369
 40
0.6004511912
 40
0.6671657636
 40
0.7342298304
 40
0.8013355029
 40
0.8682017418
 40
0.9345462016
 40
1.0
 40
1.0
 40
1.0
 40
1.0
 10
-12.0710080106
 20
192.8679507513
 30
0.0
 10
-11.9556069991
 20
192.7148399678
 30
0.0
 10
-11.7416690753
 20
192.3893490288
 30
0.0
 10
-11.4793166517
 20
191.8590096291
 30
0.0
 10
-11.2742319561
 20
191.2867567058
 30
0.0
 10
-11.1287092713
 20
190.6787995082
 30
0.0
 10
-11.0440192337
 20
190.0416399848
 30
0.0
 10
-11.0210596105
 20
189.3820478482
 30
0.0
 10
-11.0599552003
 20
188.7070224265
 30
0.0
 10
-11.160235108
 20
188.0237230744
 30
0.0
 10
-11.3208272414
 20
187.3393980357
 30
0.0
 10
-11.5399384192
 20
186.6612735427
 30
0.0
 10
-11.8153514842
 20
185.9965901413
 30
0.0
 10
-12.1439447995
 20
185.3523532902
 30
0.0
 10
-12.5223833067
 20
184.7354411573
 30
0.0
 10
-12.946631718
 20
184.1522533952
 30
0.0
 10
-13.4122067492
 20
183.6093470613
 30
0.0
 10
-13.7493307189
 20
183.2752473336
 30
0.0
 10
-13.9234045765
 20
183.1167884328
 30
0.0
  0
SPLINE
  5
3DE
100
AcDbEntity
  8
0
100
AcDbSpline
 62
7
  6
CONTINUOUS
 70
0
 71
3
 72
17
 73
13
 74
0
 42
0.0000001
 43
0.0000001
 44
0.0000000001
 40
0.0
 40
0.0
 40
0.0
 40
0.0
 40
0.0560287211
 40
0.1122762463
 40
0.1689529261
 40
0.2262599296
 40
0.3433367882
 40
0.4647601971
 40
0.5911506633
 40
0.7227192911
 40
0.8593056031
 40
1.0
 40
1.0
 40
1.0
 40
1.0
 10
-9.5071309341
 20
197.4512349271
 30
0.0
 10
-9.4564429631
 20
197.4219685522
 30
0.0
 10
-9.3519610714
 20
197.368202234
 30
0.0
 10
-9.1877701292
 20
197.3027674022
 30
0.0
 10
-9.0167970366
 20
197.2528538064
 30
0.0
 10
-8.7794933152
 20
197.2071207328
 30
0.0
 10
-8.4691389289
 20
197.1906229847
 30
0.0
 10
-8.0889668047
 20
197.2357916898
 30
0.0
 10
-7.7061125806
 20
197.3439291608
 30
0.0
 10
-7.3286262946
 20
197.5127414338
 30
0.0
 10
-6.9646534795
 20
197.7383905417
 30
0.0
 10
-6.7387040867
 20
197.920973272
 30
0.0
 10
-6.6300158958
 20
198.0199118001
 30
0.0
  0
SPLINE
  5
3DF
100
AcDbEntity
  8
0
100
AcDbSpline
 62
7
  6
CONTINUOUS
 70
0
 71
3
 72
23
 73
19
 74
0
 42
0.0000001
 43
0.0000001
 44
0.0000000001
 40
0.0
 40
0.0
 40
0.0
 40
0.0
 40
0.0649015676
 40
0.1306596178
 40
0.1969383579
 40
0.2634815903
 40
0.3300433297
 40
0.3963520776
 40
0.4621380993
 40
0.5271535644
 40
0.5911705412
 40
0.6539923942
 40
0.7154536045
 40
0.7754313586
 40
0.833851256
 40
0.8907205091
 40
0.9460897993
 40
1.0
 40
1.0
 40
1.0
 40
1.0
 10
-7.629814363
 20
182.9558974851
 30
0.0
 10
-7.7732038308
 20
182.8253704913
 30
0.0
 10
-8.0514086343
 20
182.5508630711
 30
0.0
 10
-8.4375758392
 20
182.1062264666
 30
0.0
 10
-8.7918230019
 20
181.6296032809
 30
0.0
 10
-9.1107808909
 20
181.1258561657
 30
0.0
 10
-9.3913504148
 20
180.5996580526
 30
0.0
 10
-9.6310522309
 20
180.0560939473
 30
0.0
 10
-9.8273516317
 20
179.5002756429
 30
0.0
 10
-9.9785698891
 20
178.9376042396
 30
0.0
 10
-10.0830507401
 20
178.3733876047
 30
0.0
 10
-10.1399807703
 20
177.8130443907
 30
0.0
 10
-10.1485470111
 20
177.2619075868
 30
0.0
 10
-10.1088929996
 20
176.7252640611
 30
0.0
 10
-10.0211158638
 20
176.2082165889
 30
0.0
 10
-9.8860971803
 20
175.7156149385
 30
0.0
 10
-9.7049073552
 20
175.2524988625
 30
0.0
 10
-9.5527811887
 20
174.9626765268
 30
0.0
 10
-9.4696214559
 20
174.8247420638
 30
0.0
  0
SPLINE
  5
3E0
100
AcDbEntity
  8
0
100
AcDbSpline
 62
7
  6
CONTINUOUS
 70
0
 71
3
 72
15
 73
11
 74
0
 42
0.0000001
 43
0.0000001
 44
0.0000000001
 40
0.0
 40
0.0
 40
0.0
 40
0.0
 40
0.1366081065
 40
0.270456575
 40
0.527560182
 40
0.6508303246
 40
0.711121177
 40
0.7705223566
 40
0.8867577811
 40
1.0
 40
1.0
 40
1.0
 40
1.0
 10
-5.0391067502
 20
195.3811202693
 30
0.0
 10
-5.2171031081
 20
195.2190907283
 30
0.0
 10
-5.5837155634
 20
194.9133707716
 30
0.0
 10
-6.3489494365
 20
194.3842999129
 30
0.0
 10
-7.1655294274
 20
193.9751901793
 30
0.0
 10
-7.9078172257
 20
193.7426686413
 30
0.0
 10
-8.3259424634
 20
193.6497333117
 30
0.0
 10
-8.7364949449
 20
193.5832781669
 30
0.0
 10
-9.2454862545
 20
193.5467296591
 30
0.0
 10
-9.6505319489
 20
193.5690353857
 30
0.0
 10
-9.8485773249
 20
193.5933266071
 30
0.0
  0
SPLINE
  5
3E1
100
AcDbEntity
  8
0
100
AcDbSpline
 62
7
  6
CONTINUOUS
 70
0
 71
3
 72
23
 73
19
 74
0
 42
0.0000001
 43
0.0000001
 44
0.0000000001
 40
0.0
 40
0.0
 40
0.0
 40
0.0
 40
0.0673905155
 40
0.1358293928
 40
0.2047658217
 40
0.2737783947
 40
0.3424628638
 40
0.4103887103
 40
0.4771531039
 40
0.5424191782
 40
0.6059158033
 40
0.6674598314
 40
0.7269692397
 40
0.7844882065
 40
0.8401878654
 40
0.8943741242
 40
0.9474721488
 40
1.0
 40
1.0
 40
1.0
 40
1.0
 10
-6.6300158958
 20
198.0199118001
 30
0.0
 10
-6.5368522305
 20
198.1047184001
 30
0.0
 10
-6.3576164235
 20
198.2852620838
 30
0.0
 10
-6.1147232509
 20
198.5818319379
 30
0.0
 10
-5.8992060028
 20
198.9025511051
 30
0.0
 10
-5.7142172893
 20
199.2423015196
 30
0.0
 10
-5.5626008588
 20
199.5961556845
 30
0.0
 10
-5.4463988581
 20
199.9587776272
 30
0.0
 10
-5.3676404232
 20
200.3248271486
 30
0.0
 10
-5.327294506
 20
200.6887878173
 30
0.0
 10
-5.3262276702
 20
201.0452734446
 30
0.0
 10
-5.3642996394
 20
201.388970061
 30
0.0
 10
-5.4412777364
 20
201.7147061514
 30
0.0
 10
-5.5559145375
 20
202.0176219488
 30
0.0
 10
-5.7068334817
 20
202.2930060839
 30
0.0
 10
-5.8917273776
 20
202.5366812461
 30
0.0
 10
-6.1079464312
 20
202.7445752127
 30
0.0
 10
-6.271166182
 20
202.8575102064
 30
0.0
 10
-6.3562067323
 20
202.9066111781
 30
0.0
  0
SPLINE
  5
3E2
100
AcDbEntity
  8
0
100
AcDbSpline
 62
7
  6
CONTINUOUS
 70
0
 71
3
 72
20
 73
16
 74
0
 42
0.0000001
 43
0.0000001
 44
0.0000000001
 40
0.0
 40
0.0
 40
0.0
 40
0.0
 40
0.0560138563
 40
0.1122470355
 40
0.1689109309
 40
0.2262047992
 40
0.2843043438
 40
0.3433646122
 40
0.4647442455
 40
0.5273335716
 40
0.5912091222
 40
0.7227347418
 40
0.859226526
 40
0.9291701929
 40
1.0
 40
1.0
 40
1.0
 40
1.0
 10
-8.6176357253
 20
192.4914262786
 30
0.0
 10
-8.5050030745
 20
192.4263748316
 30
0.0
 10
-8.2728228689
 20
192.3068818078
 30
0.0
 10
-7.9079295561
 20
192.1614884248
 30
0.0
 10
-7.5279831226
 20
192.0506075595
 30
0.0
 10
-7.1351257255
 20
191.9748884193
 30
0.0
 10
-6.7314729813
 20
191.9345591165
 30
0.0
 10
-6.1770296832
 20
191.9283752431
 30
0.0
 10
-5.6135912428
 20
191.9950359872
 30
0.0
 10
-5.0535308971
 20
192.1292192496
 30
0.0
 10
-4.4826044655
 20
192.3124341193
 30
0.0
 10
-3.7765826862
 20
192.6281317761
 30
0.0
 10
-3.1075537689
 20
193.0427208847
 30
0.0
 10
-2.5940035625
 20
193.4315359339
 30
0.0
 10
-2.3456556122
 20
193.644467387
 30
0.0
 10
-2.2240290531
 20
193.7551836722
 30
0.0
  0
SPLINE
  5
3E3
100
AcDbEntity
  8
0
100
AcDbSpline
 62
7
  6
CONTINUOUS
 70
0
 71
3
 72
15
 73
11
 74
0
 42
0.0000001
 43
0.0000001
 44
0.0000000001
 40
0.0
 40
0.0
 40
0.0
 40
0.0
 40
0.1366081065
 40
0.270456575
 40
0.527560182
 40
0.6508303246
 40
0.711121177
 40
0.7705223566
 40
0.8867577811
 40
1.0
 40
1.0
 40
1.0
 40
1.0
 10
-13.9234045765
 20
183.1167884328
 30
0.0
 10
-14.1014009345
 20
182.9547588918
 30
0.0
 10
-14.4680133897
 20
182.6490389351
 30
0.0
 10
-15.2332472628
 20
182.1199680764
 30
0.0
 10
-16.0498272538
 20
181.7108583428
 30
0.0
 10
-16.792115052
 20
181.4783368048
 30
0.0
 10
-17.2102402898
 20
181.3854014752
 30
0.0
 10
-17.6207927712
 20
181.3189463304
 30
0.0
 10
-18.1297840808
 20
181.2823978226
 30
0.0
 10
-18.5348297752
 20
181.3047035492
 30
0.0
 10
-18.7328751512
 20
181.3289947706
 30
0.0
  0
SPLINE
  5
3E4
100
AcDbEntity
  8
0
100
AcDbSpline
 62
7
  6
CONTINUOUS
 70
0
 71
3
 72
23
 73
19
 74
0
 42
0.0000001
 43
0.0000001
 44
0.0000000001
 40
0.0
 40
0.0
 40
0.0
 40
0.0
 40
0.0673905155
 40
0.1358293928
 40
0.2047658217
 40
0.2737783947
 40
0.3424628638
 40
0.4103887103
 40
0.4771531039
 40
0.5424191782
 40
0.6059158033
 40
0.6674598314
 40
0.7269692397
 40
0.7844882065
 40
0.8401878654
 40
0.8943741242
 40
0.9474721488
 40
1.0
 40
1.0
 40
1.0
 40
1.0
 10
-15.5143137222
 20
185.7555799636
 30
0.0
 10
-15.4211500568
 20
185.8403865636
 30
0.0
 10
-15.2419142498
 20
186.0209302473
 30
0.0
 10
-14.9990210772
 20
186.3175001014
 30
0.0
 10
-14.7835038291
 20
186.6382192686
 30
0.0
 10
-14.5985151156
 20
186.9779696831
 30
0.0
 10
-14.4468986851
 20
187.331823848
 30
0.0
 10
-14.3306966845
 20
187.6944457907
 30
0.0
 10
-14.2519382496
 20
188.0604953121
 30
0.0
 10
-14.2115923323
 20
188.4244559808
 30
0.0
 10
-14.2105254965
 20
188.7809416081
 30
0.0
 10
-14.2485974657
 20
189.1246382245
 30
0.0
 10
-14.3255755627
 20
189.4503743149
 30
0.0
 10
-14.4402123639
 20
189.7532901123
 30
0.0
 10
-14.591131308
 20
190.0286742474
 30
0.0
 10
-14.7760252039
 20
190.2723494096
 30
0.0
 10
-14.9922442575
 20
190.4802433762
 30
0.0
 10
-15.1554640083
 20
190.5931783699
 30
0.0
 10
-15.2405045586
 20
190.6422793416
 30
0.0
  0
SPLINE
  5
3E5
100
AcDbEntity
  8
0
100
AcDbSpline
 62
7
  6
CONTINUOUS
 70
0
 71
3
 72
23
 73
19
 74
0
 42
0.0000001
 43
0.0000001
 44
0.0000000001
 40
0.0
 40
0.0
 40
0.0
 40
0.0
 40
0.0596097819
 40
0.1181602032
 40
0.1758962635
 40
0.2332001078
 40
0.2904908988
 40
0.3481660895
 40
0.4065991674
 40
0.4661234334
 40
0.5270176138
 40
0.5894878602
 40
0.6536709317
 40
0.7196177104
 40
0.7873191421
 40
0.8567246442
 40
0.9277130576
 40
1.0
 40
1.0
 40
1.0
 40
1.0
 10
-9.4696214559
 20
174.8247420638
 30
0.0
 10
-9.388359527
 20
174.6899554291
 30
0.0
 10
-9.2116070928
 20
174.4318286984
 30
0.0
 10
-8.9040739462
 20
174.0823050581
 30
0.0
 10
-8.5594662317
 20
173.7782212347
 30
0.0
 10
-8.1814915443
 20
173.5226452138
 30
0.0
 10
-7.7737538083
 20
173.3182202476
 30
0.0
 10
-7.3404067174
 20
173.166709407
 30
0.0
 10
-6.8856865496
 20
173.0698623597
 30
0.0
 10
-6.4141689466
 20
173.0282619707
 30
0.0
 10
-5.9304435183
 20
173.0424493165
 30
0.0
 10
-5.4391780434
 20
173.1119273103
 30
0.0
 10
-4.9451460168
 20
173.2361820081
 30
0.0
 10
-4.4530082525
 20
173.4136459305
 30
0.0
 10
-3.9674825547
 20
173.642792576
 30
0.0
 10
-3.4930377941
 20
173.9213016468
 30
0.0
 10
-3.0344883618
 20
174.2465258316
 30
0.0
 10
-2.7445076705
 20
174.4902079554
 30
0.0
 10
-2.6033679091
 20
174.6186870484
 30
0.0
  0
SPLINE
  5
3E6
100
AcDbEntity
  8
0
100
AcDbSpline
 62
7
  6
CONTINUOUS
 70
0
 71
3
 72
16
 73
12
 74
0
 42
0.0000001
 43
0.0000001
 44
0.0000000001
 40
0.0
 40
0.0
 40
0.0
 40
0.0
 40
0.0649363243
 40
0.130754925
 40
0.2636113869
 40
0.3964893609
 40
0.527303399
 40
0.6541410785
 40
0.7755515539
 40
0.8908077951
 40
1.0
 40
1.0
 40
1.0
 40
1.0
 10
-4.5870849356
 20
176.6722012894
 30
0.0
 10
-4.491629644
 20
176.7590939502
 30
0.0
 10
-4.3063957003
 20
176.9418950461
 30
0.0
 10
-3.9625198512
 20
177.3378161835
 30
0.0
 10
-3.5881484311
 20
177.883526504
 30
0.0
 10
-3.2419098519
 20
178.594824282
 30
0.0
 10
-3.0095930455
 20
179.3387795165
 30
0.0
 10
-2.900348691
 20
180.087687834
 30
0.0
 10
-2.9186589913
 20
180.8139476191
 30
0.0
 10
-3.0648611673
 20
181.4900550439
 30
0.0
 10
-3.2498899244
 20
181.900847873
 30
0.0
 10
-3.3619585419
 20
182.0867326042
 30
0.0
  0
SPLINE
  5
3E7
100
AcDbEntity
  8
0
100
AcDbSpline
 62
7
  6
CONTINUOUS
 70
0
 71
3
 72
11
 73
7
 74
0
 42
0.0000001
 43
0.0000001
 44
0.0000000001
 40
0.0
 40
0.0
 40
0.0
 40
0.0
 40
0.2555606514
 40
0.5066402925
 40
0.7542532276
 40
1.0
 40
1.0
 40
1.0
 40
1.0
 10
-3.3619585419
 20
182.0867326042
 30
0.0
 10
-3.4166670845
 20
182.1774759626
 30
0.0
 10
-3.535817096
 20
182.3511955962
 30
0.0
 10
-3.7434036746
 20
182.5861447457
 30
0.0
 10
-3.9761690524
 20
182.7901081782
 30
0.0
 10
-4.146800324
 20
182.904163527
 30
0.0
 10
-4.235029758
 20
182.9551263729
 30
0.0
  0
SPLINE
  5
3E8
100
AcDbEntity
  8
0
100
AcDbSpline
 62
7
  6
CONTINUOUS
 70
0
 71
3
 72
23
 73
19
 74
0
 42
0.0000001
 43
0.0000001
 44
0.0000000001
 40
0.0
 40
0.0
 40
0.0
 40
0.0
 40
0.05331221
 40
0.1079713855
 40
0.1641586969
 40
0.2219825919
 40
0.2814715549
 40
0.3425873275
 40
0.4052248543
 40
0.469225534
 40
0.534381369
 40
0.6004511912
 40
0.6671657636
 40
0.7342298304
 40
0.8013355029
 40
0.8682017418
 40
0.9345462016
 40
1.0
 40
1.0
 40
1.0
 40
1.0
 10
-3.1867101843
 20
205.1322825878
 30
0.0
 10
-3.0713091727
 20
204.9791718043
 30
0.0
 10
-2.8573712489
 20
204.6536808653
 30
0.0
 10
-2.5950188253
 20
204.1233414656
 30
0.0
 10
-2.3899341298
 20
203.5510885423
 30
0.0
 10
-2.244411445
 20
202.9431313447
 30
0.0
 10
-2.1597214074
 20
202.3059718213
 30
0.0
 10
-2.1367617842
 20
201.6463796847
 30
0.0
 10
-2.175657374
 20
200.971354263
 30
0.0
 10
-2.2759372817
 20
200.2880549109
 30
0.0
 10
-2.4365294151
 20
199.6037298722
 30
0.0
 10
-2.6556405928
 20
198.9256053792
 30
0.0
 10
-2.9310536579
 20
198.2609219778
 30
0.0
 10
-3.2596469732
 20
197.6166851267
 30
0.0
 10
-3.6380854803
 20
196.9997729938
 30
0.0
 10
-4.0623338917
 20
196.4165852317
 30
0.0
 10
-4.5279089228
 20
195.8736788978
 30
0.0
 10
-4.8650328926
 20
195.5395791701
 30
0.0
 10
-5.0391067502
 20
195.3811202693
 30
0.0
  0
SPLINE
  5
3E9
100
AcDbEntity
  8
0
100
AcDbSpline
 62
7
  6
CONTINUOUS
 70
0
 71
3
 72
17
 73
13
 74
0
 42
0.0000001
 43
0.0000001
 44
0.0000000001
 40
0.0
 40
0.0
 40
0.0
 40
0.0
 40
0.0560287211
 40
0.1122762463
 40
0.1689529261
 40
0.2262599296
 40
0.3433367882
 40
0.4647601971
 40
0.5911506633
 40
0.7227192911
 40
0.8593056031
 40
1.0
 40
1.0
 40
1.0
 40
1.0
 10
-0.6228331077
 20
189.9498725748
 30
0.0
 10
-0.5721451368
 20
189.9206061999
 30
0.0
 10
-0.467663245
 20
189.8668398817
 30
0.0
 10
-0.3034723029
 20
189.8014050499
 30
0.0
 10
-0.1324992102
 20
189.7514914541
 30
0.0
 10
0.1048045112
 20
189.7057583805
 30
0.0
 10
0.4151588975
 20
189.6892606324
 30
0.0
 10
0.7953310216
 20
189.7344293375
 30
0.0
 10
1.1781852457
 20
189.8425668085
 30
0.0
 10
1.5556715317
 20
190.0113790816
 30
0.0
 10
1.9196443469
 20
190.2370281894
 30
0.0
 10
2.1455937396
 20
190.4196109197
 30
0.0
 10
2.2542819305
 20
190.5185494478
 30
0.0
  0
SPLINE
  5
3EA
100
AcDbEntity
  8
0
100
AcDbSpline
 62
7
  6
CONTINUOUS
 70
0
 71
3
 72
25
 73
21
 74
0
 42
0.0000001
 43
0.0000001
 44
0.0000000001
 40
0.0
 40
0.0
 40
0.0
 40
0.0
 40
0.067421897
 40
0.1358420817
 40
0.2047659123
 40
0.2737921354
 40
0.3424849129
 40
0.3765788379
 40
0.4104309437
 40
0.5423026712
 40
0.6058048958
 40
0.6673522398
 40
0.7268666759
 40
0.7843887029
 40
0.8400927962
 40
0.8942829667
 40
0.9209595325
 40
0.9474256452
 40
0.9737490939
 40
1.0
 40
1.0
 40
1.0
 40
1.0
 10
-2.2240290531
 20
193.7551836722
 30
0.0
 10
-2.0169155139
 20
193.9437184942
 30
0.0
 10
-1.6185202996
 20
194.3448633741
 30
0.0
 10
-1.0789285866
 20
195.0039760349
 30
0.0
 10
-0.6000034747
 20
195.716539201
 30
0.0
 10
-0.189035427
 20
196.4715526407
 30
0.0
 10
0.0926922073
 20
197.1285509413
 30
0.0
 10
0.2784960105
 20
197.6651308086
 30
0.0
 10
0.5120769845
 20
198.4616618172
 30
0.0
 10
0.6700610401
 20
199.4091738858
 30
0.0
 10
0.6733533007
 20
200.478154052
 30
0.0
 10
0.5886302345
 20
201.2419996687
 30
0.0
 10
0.41772128
 20
201.9658732963
 30
0.0
 10
0.1627967119
 20
202.6389780344
 30
0.0
 10
-0.1723825133
 20
203.2509866784
 30
0.0
 10
-0.5168982227
 20
203.7047461
 30
0.0
 10
-0.8264089445
 20
204.0262200337
 30
0.0
 10
-1.0737392383
 20
204.2454018653
 30
0.0
 10
-1.3363514625
 20
204.4430351852
 30
0.0
 10
-1.521116916
 20
204.560008414
 30
0.0
 10
-1.6155465468
 20
204.6145466325
 30
0.0
  0
SPLINE
  5
3EB
100
AcDbEntity
  8
0
100
AcDbSpline
 62
7
  6
CONTINUOUS
 70
0
 71
3
 72
25
 73
21
 74
0
 42
0.0000001
 43
0.0000001
 44
0.0000000001
 40
0.0
 40
0.0
 40
0.0
 40
0.0
 40
0.067421897
 40
0.1358420817
 40
0.2047659123
 40
0.2737921354
 40
0.3424849129
 40
0.3765788379
 40
0.4104309437
 40
0.5423026712
 40
0.6058048958
 40
0.6673522398
 40
0.7268666759
 40
0.7843887029
 40
0.8400927962
 40
0.8942829667
 40
0.9209595325
 40
0.9474256452
 40
0.9737490939
 40
1.0
 40
1.0
 40
1.0
 40
1.0
 10
6.6602687733
 20
186.2538213199
 30
0.0
 10
6.8673823124
 20
186.4423561419
 30
0.0
 10
7.2657775267
 20
186.8435010218
 30
0.0
 10
7.8053692397
 20
187.5026136827
 30
0.0
 10
8.2842943516
 20
188.2151768487
 30
0.0
 10
8.6952623994
 20
188.9701902884
 30
0.0
 10
8.9769900336
 20
189.627188589
 30
0.0
 10
9.1627938369
 20
190.1637684563
 30
0.0
 10
9.3963748109
 20
190.9602994649
 30
0.0
 10
9.5543588664
 20
191.9078115335
 30
0.0
 10
9.557651127
 20
192.9767916997
 30
0.0
 10
9.4729280608
 20
193.7406373164
 30
0.0
 10
9.3020191063
 20
194.464510944
 30
0.0
 10
9.0470945383
 20
195.1376156821
 30
0.0
 10
8.7119153131
 20
195.7496243261
 30
0.0
 10
8.3673996036
 20
196.2033837478
 30
0.0
 10
8.0578888818
 20
196.5248576814
 30
0.0
 10
7.8105585881
 20
196.744039513
 30
0.0
 10
7.5479463638
 20
196.9416728329
 30
0.0
 10
7.3631809104
 20
197.0586460617
 30
0.0
 10
7.2687512796
 20
197.1131842802
 30
0.0
  0
SPLINE
  5
3EC
100
AcDbEntity
  8
0
100
AcDbSpline
 62
7
  6
CONTINUOUS
 70
0
 71
3
 72
20
 73
16
 74
0
 42
0.0000001
 43
0.0000001
 44
0.0000000001
 40
0.0
 40
0.0
 40
0.0
 40
0.0
 40
0.0560138563
 40
0.1122470355
 40
0.1689109309
 40
0.2262047992
 40
0.2843043438
 40
0.3433646122
 40
0.4647442455
 40
0.5273335716
 40
0.5912091222
 40
0.7227347418
 40
0.859226526
 40
0.9291701929
 40
1.0
 40
1.0
 40
1.0
 40
1.0
 10
0.266662101
 20
184.9900639263
 30
0.0
 10
0.3792947519
 20
184.9250124794
 30
0.0
 10
0.6114749574
 20
184.8055194556
 30
0.0
 10
0.9763682703
 20
184.6601260725
 30
0.0
 10
1.3563147037
 20
184.5492452072
 30
0.0
 10
1.7491721008
 20
184.473526067
 30
0.0
 10
2.1528248451
 20
184.4331967642
 30
0.0
 10
2.7072681432
 20
184.4270128908
 30
0.0
 10
3.2707065835
 20
184.4936736349
 30
0.0
 10
3.8307669292
 20
184.6278568973
 30
0.0
 10
4.4016933609
 20
184.811071767
 30
0.0
 10
5.1077151402
 20
185.1267694238
 30
0.0
 10
5.7767440575
 20
185.5413585325
 30
0.0
 10
6.2902942639
 20
185.9301735816
 30
0.0
 10
6.5386422142
 20
186.1431050347
 30
0.0
 10
6.6602687733
 20
186.2538213199
 30
0.0
  0
SPLINE
  5
3ED
100
AcDbEntity
  8
0
100
AcDbSpline
 62
7
  6
CONTINUOUS
 70
0
 71
3
 72
15
 73
11
 74
0
 42
0.0000001
 43
0.0000001
 44
0.0000000001
 40
0.0
 40
0.0
 40
0.0
 40
0.0
 40
0.1297088321
 40
0.2576901162
 40
0.3840522422
 40
0.5089934269
 40
0.6327778851
 40
0.755684615
 40
0.8779947243
 40
1.0
 40
1.0
 40
1.0
 40
1.0
 10
-8.4787724709
 20
161.7422764225
 30
0.0
 10
-8.9182619042
 20
161.7148492541
 30
0.0
 10
-9.7935088414
 20
161.6894369236
 30
0.0
 10
-11.0972962725
 20
161.7412798353
 30
0.0
 10
-12.3781663974
 20
161.8834742961
 30
0.0
 10
-13.631367228
 20
162.1155665822
 30
0.0
 10
-14.8526696843
 20
162.436687205
 30
0.0
 10
-16.037944098
 20
162.8458922503
 30
0.0
 10
-17.1831067843
 20
163.3415485246
 30
0.0
 10
-17.9175958923
 20
163.7289344308
 30
0.0
 10
-18.2762567506
 20
163.9360993123
 30
0.0
  0
SPLINE
  5
3EE
100
AcDbEntity
  8
0
100
AcDbSpline
 62
7
  6
CONTINUOUS
 70
0
 71
3
 72
21
 73
17
 74
0
 42
0.0000001
 43
0.0000001
 44
0.0000000001
 40
0.0
 40
0.0
 40
0.0
 40
0.0
 40
0.0599653372
 40
0.1210917364
 40
0.1832132828
 40
0.2461934995
 40
0.3739600293
 40
0.4384330715
 40
0.5030074936
 40
0.5674778754
 40
0.6316410273
 40
0.7581980251
 40
0.8203066442
 40
0.8509937327
 40
0.8814127939
 40
1.0
 40
1.0
 40
1.0
 40
1.0
 10
18.868428837
 20
194.3852953847
 30
0.0
 10
18.868428837
 20
193.6336622707
 30
0.0
 10
18.8085701039
 20
192.1152624833
 30
0.0
 10
18.546770625
 20
189.8318188184
 30
0.0
 10
18.1136216249
 20
187.5359386499
 30
0.0
 10
17.3088037805
 20
184.4682320821
 30
0.0
 10
16.1795418746
 20
181.4627507962
 30
0.0
 10
14.7543330066
 20
178.5745400878
 30
0.0
 10
13.5392864952
 20
176.4730227225
 30
0.0
 10
12.1905658142
 20
174.4593427539
 30
0.0
 10
10.237495269
 20
171.9240264298
 30
0.0
 10
8.0541571057
 20
169.6107154
 30
0.0
 10
5.965269032
 20
167.8199684248
 30
0.0
 10
4.7393731275
 20
166.8798595337
 30
0.0
 10
2.9029836369
 20
165.5758716403
 30
0.0
 10
1.2779664367
 20
164.6338776264
 30
0.0
 10
-0.065363183
 20
163.9975369102
 30
0.0
  0
SPLINE
  5
3EF
100
AcDbEntity
  8
0
100
AcDbSpline
 62
7
  6
CONTINUOUS
 70
0
 71
3
 72
23
 73
19
 74
0
 42
0.0000001
 43
0.0000001
 44
0.0000000001
 40
0.0
 40
0.0
 40
0.0
 40
0.0
 40
0.0688090848
 40
0.1381847517
 40
0.2076335549
 40
0.2767916156
 40
0.3453115212
 40
0.4128353297
 40
0.4790465915
 40
0.5436860696
 40
0.6065619308
 40
0.6675565893
 40
0.7266497156
 40
0.7839176563
 40
0.8395500179
 40
0.8938362343
 40
0.9471667256
 40
1.0
 40
1.0
 40
1.0
 40
1.0
 10
-0.065363183
 20
163.9975369102
 30
0.0
 10
-0.1313856975
 20
163.8004089262
 30
0.0
 10
-0.281940661
 20
163.4103180315
 30
0.0
 10
-0.5582328915
 20
162.8462869407
 30
0.0
 10
-0.8831423518
 20
162.3074963914
 30
0.0
 10
-1.2520991372
 20
161.8010639152
 30
0.0
 10
-1.6604671065
 20
161.3334982385
 30
0.0
 10
-2.1029032034
 20
160.9107666509
 30
0.0
 10
-2.5737817433
 20
160.5385032167
 30
0.0
 10
-3.0669733205
 20
160.2215115332
 30
0.0
 10
-3.5761433953
 20
159.9639514513
 30
0.0
 10
-4.0947689406
 20
159.7693062376
 30
0.0
 10
-4.6161325353
 20
159.6401274268
 30
0.0
 10
-5.1335240225
 20
159.5784422065
 30
0.0
 10
-5.6401441925
 20
159.585032221
 30
0.0
 10
-6.1292983257
 20
159.6603293734
 30
0.0
 10
-6.5943050697
 20
159.8031653799
 30
0.0
 10
-6.884642841
 20
159.942840219
 30
0.0
 10
-7.0228677195
 20
160.022674211
 30
0.0
  0
SPLINE
  5
3F0
100
AcDbEntity
  8
0
100
AcDbSpline
 62
7
  6
CONTINUOUS
 70
0
 71
3
 72
22
 73
18
 74
0
 42
0.0000001
 43
0.0000001
 44
0.0000000001
 40
0.0
 40
0.0
 40
0.0
 40
0.0
 40
0.137784877
 40
0.2051830217
 40
0.2715169357
 40
0.3367967811
 40
0.4010438506
 40
0.464286936
 40
0.5265656662
 40
0.5879380271
 40
0.648478277
 40
0.708273888
 40
0.7674266283
 40
0.8260485966
 40
0.8842632459
 40
0.9422014938
 40
1.0
 40
1.0
 40
1.0
 40
1.0
 10
-25.2224817709
 20
182.56648506
 30
0.0
 10
-25.2224817709
 20
181.6855484447
 30
0.0
 10
-25.1554836998
 20
180.3721072587
 30
0.0
 10
-24.9240505399
 20
178.6509866453
 30
0.0
 10
-24.6832454588
 20
177.4008231852
 30
0.0
 10
-24.3749266988
 20
176.186378062
 30
0.0
 10
-23.9999113848
 20
175.0115174851
 30
0.0
 10
-23.5596022823
 20
173.8800668046
 30
0.0
 10
-23.0552867321
 20
172.795848078
 30
0.0
 10
-22.488617834
 20
171.7625026245
 30
0.0
 10
-21.8615581139
 20
170.7834024526
 30
0.0
 10
-21.1759874098
 20
169.8619285489
 30
0.0
 10
-20.4343438703
 20
169.0010365374
 30
0.0
 10
-19.638956703
 20
168.2037157297
 30
0.0
 10
-18.7924788942
 20
167.4726309089
 30
0.0
 10
-17.8978695745
 20
166.810189728
 30
0.0
 10
-17.2708557313
 20
166.4156632868
 30
0.0
 10
-16.9508565353
 20
166.2308411105
 30
0.0
  0
SPLINE
  5
3F1
100
AcDbEntity
  8
0
100
AcDbSpline
 62
7
  6
CONTINUOUS
 70
0
 71
3
 72
15
 73
11
 74
0
 42
0.0000001
 43
0.0000001
 44
0.0000000001
 40
0.0
 40
0.0
 40
0.0
 40
0.0
 40
0.1377447714
 40
0.2715826239
 40
0.4011595195
 40
0.5266554969
 40
0.6485432609
 40
0.7674806985
 40
0.8842926897
 40
1.0
 40
1.0
 40
1.0
 40
1.0
 10
-7.1646299099
 20
164.0099253449
 30
0.0
 10
-7.1646299099
 20
163.8883924612
 30
0.0
 10
-7.1523156884
 20
163.6485630353
 30
0.0
 10
-7.0957994128
 20
163.2984289097
 30
0.0
 10
-7.0016774505
 20
162.9675779138
 30
0.0
 10
-6.8713551516
 20
162.6605843437
 30
0.0
 10
-6.7062694881
 20
162.3815598311
 30
0.0
 10
-6.5086999516
 20
162.1341196642
 30
0.0
 10
-6.2810903375
 20
161.9219160243
 30
0.0
 10
-6.1109809684
 20
161.8055931751
 30
0.0
 10
-6.0225840869
 20
161.7545228253
 30
0.0
  0
SPLINE
  5
3F2
100
AcDbEntity
  8
0
100
AcDbSpline
 62
7
  6
CONTINUOUS
 70
0
 71
3
 72
29
 73
25
 74
0
 42
0.0000001
 43
0.0000001
 44
0.0000000001
 40
0.0
 40
0.0
 40
0.0
 40
0.0
 40
0.0198614754
 40
0.040095126
 40
0.061039793
 40
0.0829783218
 40
0.1306135535
 40
0.1566421331
 40
0.1841991365
 40
0.2132924418
 40
0.2438766875
 40
0.3091697404
 40
0.3792423424
 40
0.4528952844
 40
0.5287350592
 40
0.6052481703
 40
0.6808926538
 40
0.7541659999
 40
0.8236784685
 40
0.8566681128
 40
0.888321769
 40
0.9472324409
 40
0.9744044567
 40
1.0
 40
1.0
 40
1.0
 40
1.0
 10
-22.0380493156
 20
218.7046200812
 30
0.0
 10
-22.0099071744
 20
218.7121617604
 30
0.0
 10
-21.9542261777
 20
218.7320241147
 30
0.0
 10
-21.8754538346
 20
218.775311323
 30
0.0
 10
-21.8016190831
 20
218.8317185422
 30
0.0
 10
-21.7079002916
 20
218.9262734245
 30
0.0
 10
-21.629198063
 20
219.0440441705
 30
0.0
 10
-21.5650401659
 20
219.1780461189
 30
0.0
 10
-21.5223632156
 20
219.2917507807
 30
0.0
 10
-21.4869524487
 20
219.4148368434
 30
0.0
 10
-21.4487656454
 20
219.5942677197
 30
0.0
 10
-21.4215050284
 20
219.8368110057
 30
0.0
 10
-21.4204015983
 20
220.1439195606
 30
0.0
 10
-21.4502440261
 20
220.465082891
 30
0.0
 10
-21.5101665111
 20
220.7915790017
 30
0.0
 10
-21.5986837481
 20
221.1145279059
 30
0.0
 10
-21.7132418372
 20
221.4251959426
 30
0.0
 10
-21.8508669958
 20
221.715043369
 30
0.0
 10
-21.9837805722
 20
221.9365925992
 30
0.0
 10
-22.0990185611
 20
222.096261413
 30
0.0
 10
-22.2137605464
 20
222.2366359198
 30
0.0
 10
-22.3359392615
 20
222.3597604867
 30
0.0
 10
-22.4648211046
 20
222.4611499634
 30
0.0
 10
-22.5298356151
 20
222.5034285873
 30
0.0
 10
-22.5623486326
 20
222.5222075024
 30
0.0
  0
SPLINE
  5
3F3
100
AcDbEntity
  8
0
100
AcDbSpline
 62
7
  6
CONTINUOUS
 70
0
 71
3
 72
10
 73
6
 74
0
 42
0.0000001
 43
0.0000001
 44
0.0000000001
 40
0.0
 40
0.0
 40
0.0
 40
0.0
 40
0.245240458
 40
0.4940901335
 40
1.0
 40
1.0
 40
1.0
 40
1.0
 10
-14.8522542499
 20
208.8791902193
 30
0.0
 10
-14.8842540637
 20
209.5582299664
 30
0.0
 10
-14.9714099631
 20
210.9253509493
 30
0.0
 10
-15.2355719821
 20
213.6849770675
 30
0.0
 10
-15.5322020676
 20
215.7577358897
 30
0.0
 10
-15.7717728224
 20
217.1394757483
 30
0.0
  0
SPLINE
  5
3F4
100
AcDbEntity
  8
0
100
AcDbSpline
 62
7
  6
CONTINUOUS
 70
0
 71
3
 72
9
 73
5
 74
0
 42
0.0000001
 43
0.0000001
 44
0.0000000001
 40
0.0
 40
0.0
 40
0.0
 40
0.0
 40
0.506287434
 40
1.0
 40
1.0
 40
1.0
 40
1.0
 10
-17.0696529134
 20
222.9408383182
 30
0.0
 10
-17.140828759
 20
223.1423624547
 30
0.0
 10
-17.2943356779
 20
223.5359694019
 30
0.0
 10
-17.4740847154
 20
223.9183596727
 30
0.0
 10
-17.5695838896
 20
224.1036082076
 30
0.0
  0
SPLINE
  5
3F5
100
AcDbEntity
  8
0
100
AcDbSpline
 62
7
  6
CONTINUOUS
 70
0
 71
3
 72
14
 73
10
 74
0
 42
0.0000001
 43
0.0000001
 44
0.0000000001
 40
0.0
 40
0.0
 40
0.0
 40
0.0
 40
0.2833882386
 40
0.4178746114
 40
0.5467669009
 40
0.6696411543
 40
0.7862328299
 40
0.8963771837
 40
1.0
 40
1.0
 40
1.0
 40
1.0
 10
-17.5695838896
 20
224.1036082076
 30
0.0
 10
-17.6972671314
 20
224.3512871393
 30
0.0
 10
-17.9035497542
 20
224.7078685965
 30
0.0
 10
-18.2122081424
 20
225.1483686523
 30
0.0
 10
-18.4490849113
 20
225.4456018961
 30
0.0
 10
-18.6936437628
 20
225.7131798527
 30
0.0
 10
-18.9441132691
 20
225.9491770177
 30
0.0
 10
-19.1986141204
 20
226.1516685065
 30
0.0
 10
-19.3749431027
 20
226.2668510329
 30
0.0
 10
-19.4631749723
 20
226.3178121221
 30
0.0
  0
SPLINE
  5
3F6
100
AcDbEntity
  8
0
100
AcDbSpline
 62
7
  6
CONTINUOUS
 70
0
 71
3
 72
13
 73
9
 74
0
 42
0.0000001
 43
0.0000001
 44
0.0000000001
 40
0.0
 40
0.0
 40
0.0
 40
0.0
 40
0.2744225261
 40
0.5295948796
 40
0.6512283519
 40
0.7696909344
 40
0.885697838
 40
1.0
 40
1.0
 40
1.0
 40
1.0
 10
-19.4631749723
 20
226.3178121221
 30
0.0
 10
-19.5655015795
 20
226.3769140701
 30
0.0
 10
-19.770547297
 20
226.4786455865
 30
0.0
 10
-20.039174461
 20
226.5638343519
 30
0.0
 10
-20.2495375697
 20
226.6005102788
 30
0.0
 10
-20.4026430318
 20
226.6126259241
 30
0.0
 10
-20.5530351055
 20
226.6097474485
 30
0.0
 10
-20.6516921532
 20
226.5977758339
 30
0.0
 10
-20.7001761703
 20
226.5892995676
 30
0.0
  0
SPLINE
  5
3F7
100
AcDbEntity
  8
0
100
AcDbSpline
 62
7
  6
CONTINUOUS
 70
0
 71
3
 72
15
 73
11
 74
0
 42
0.0000001
 43
0.0000001
 44
0.0000000001
 40
0.0
 40
0.0
 40
0.0
 40
0.0
 40
0.1301141658
 40
0.2582542815
 40
0.3846444702
 40
0.5095412379
 40
0.6332264158
 40
0.7559943204
 40
0.8781493452
 40
1.0
 40
1.0
 40
1.0
 40
1.0
 10
-37.4708487829
 20
219.1187623577
 30
0.0
 10
-37.0438233514
 20
219.4868709452
 30
0.0
 10
-36.1776018174
 20
220.1962233587
 30
0.0
 10
-34.8337777905
 20
221.1833637932
 30
0.0
 10
-33.4572932897
 20
222.0839073052
 30
0.0
 10
-32.0495687626
 20
222.8968832542
 30
0.0
 10
-30.6119371384
 20
223.6215420822
 30
0.0
 10
-29.1456872713
 20
224.2571718022
 30
0.0
 10
-27.6522643618
 20
224.8031788018
 30
0.0
 10
-26.6388784177
 20
225.107200182
 30
0.0
 10
-26.1289015621
 20
225.2438991746
 30
0.0
  0
SPLINE
  5
3F8
100
AcDbEntity
  8
0
100
AcDbSpline
 62
7
  6
CONTINUOUS
 70
0
 71
3
 72
11
 73
7
 74
0
 42
0.0000001
 43
0.0000001
 44
0.0000000001
 40
0.0
 40
0.0
 40
0.0
 40
0.0
 40
0.2755655356
 40
0.5306658699
 40
0.7697490369
 40
1.0
 40
1.0
 40
1.0
 40
1.0
 10
-22.5623486326
 20
222.5222075024
 30
0.0
 10
-22.6057823422
 20
222.5472940064
 30
0.0
 10
-22.6930338129
 20
222.5897990943
 30
0.0
 10
-22.8283571319
 20
222.6290517941
 30
0.0
 10
-22.9607535592
 20
222.6398202715
 30
0.0
 10
-23.0461664881
 20
222.6273381743
 30
0.0
 10
-23.0866479496
 20
222.6164897391
 30
0.0
  0
SPLINE
  5
3F9
100
AcDbEntity
  8
0
100
AcDbSpline
 62
7
  6
CONTINUOUS
 70
0
 71
3
 72
17
 73
13
 74
0
 42
0.0000001
 43
0.0000001
 44
0.0000000001
 40
0.0
 40
0.0
 40
0.0
 40
0.0
 40
0.0627835495
 40
0.1259979376
 40
0.2531976182
 40
0.3808520756
 40
0.5081973664
 40
0.6344630518
 40
0.7589227339
 40
0.8809419966
 40
0.9408887833
 40
1.0
 40
1.0
 40
1.0
 40
1.0
 10
-21.9963375019
 20
208.3622924293
 30
0.0
 10
-22.3783916454
 20
207.9639521465
 30
0.0
 10
-23.1261102129
 20
207.1460365099
 30
0.0
 10
-24.5498641749
 20
205.4341984186
 30
0.0
 10
-26.186334657
 20
203.1615290979
 30
0.0
 10
-27.8949218758
 20
200.2631261903
 30
0.0
 10
-29.328906172
 20
197.2283665573
 30
0.0
 10
-30.4674665175
 20
194.1006045036
 30
0.0
 10
-31.2943952004
 20
190.9247593656
 30
0.0
 10
-31.7162744188
 20
188.2591101935
 30
0.0
 10
-31.8851212528
 20
186.1457308675
 30
0.0
 10
-31.913693215
 20
185.0988478908
 30
0.0
 10
-31.913693215
 20
184.5791897368
 30
0.0
  0
SPLINE
  5
3FA
100
AcDbEntity
  8
0
100
AcDbSpline
 62
7
  6
CONTINUOUS
 70
0
 71
3
 72
22
 73
18
 74
0
 42
0.0000001
 43
0.0000001
 44
0.0000000001
 40
0.0
 40
0.0
 40
0.0
 40
0.0
 40
0.1377870106
 40
0.2051828836
 40
0.2715158251
 40
0.3367960516
 40
0.4010439514
 40
0.4642871874
 40
0.5265654868
 40
0.5879378728
 40
0.648477999
 40
0.7082738328
 40
0.7674265921
 40
0.8260485167
 40
0.8842632146
 40
0.942201288
 40
1.0
 40
1.0
 40
1.0
 40
1.0
 10
-31.913693215
 20
184.5791897368
 30
0.0
 10
-31.913693215
 20
183.6061478987
 30
0.0
 10
-31.8397089193
 20
182.155403113
 30
0.0
 10
-31.5840571572
 20
180.254373751
 30
0.0
 10
-31.3180945575
 20
178.8735401726
 30
0.0
 10
-30.9775331294
 20
177.5321420983
 30
0.0
 10
-30.5633227716
 20
176.2344538313
 30
0.0
 10
-30.0770010542
 20
174.9847134531
 30
0.0
 10
-29.5199306487
 20
173.7871734095
 30
0.0
 10
-28.8940629571
 20
172.6457884299
 30
0.0
 10
-28.2014192263
 20
171.5643557676
 30
0.0
 10
-27.444197786
 20
170.5465429394
 30
0.0
 10
-26.6250383266
 20
169.5956402347
 30
0.0
 10
-25.746467044
 20
168.7150091278
 30
0.0
 10
-24.8115482205
 20
167.9074461028
 30
0.0
 10
-23.8233781203
 20
167.1758082272
 30
0.0
 10
-23.1308320822
 20
166.7400207654
 30
0.0
 10
-22.7773854748
 20
166.5358676697
 30
0.0
  0
SPLINE
  5
3FB
100
AcDbEntity
  8
0
100
AcDbSpline
 62
7
  6
CONTINUOUS
 70
0
 71
3
 72
28
 73
24
 74
0
 42
0.0000001
 43
0.0000001
 44
0.0000000001
 40
0.0
 40
0.0
 40
0.0
 40
0.0
 40
0.0564424468
 40
0.0852555545
 40
0.1144539448
 40
0.144030911
 40
0.1739767746
 40
0.2349032464
 40
0.2658632605
 40
0.2971215679
 40
0.3604233138
 40
0.4246082513
 40
0.4894374931
 40
0.5220196314
 40
0.5546655395
 40
0.6200015506
 40
0.7498604051
 40
0.7820136237
 40
0.8139667903
 40
0.877148564
 40
0.9083439399
 40
0.9392410153
 40
1.0
 40
1.0
 40
1.0
 40
1.0
 10
-3.957436586
 20
211.5691574647
 30
0.0
 10
-4.6588215292
 20
211.3928556672
 30
0.0
 10
-5.7051641343
 20
211.0706459429
 30
0.0
 10
-7.0717305447
 20
210.537564716
 30
0.0
 10
-8.0970588348
 20
210.0801388735
 30
0.0
 10
-9.112923531
 20
209.5690090718
 30
0.0
 10
-10.4590098316
 20
208.8132365957
 30
0.0
 10
-11.768196403
 20
207.9587148379
 30
0.0
 10
-13.0326256937
 20
207.0142742786
 30
0.0
 10
-14.2804900509
 20
205.9989893575
 30
0.0
 10
-15.7782678874
 20
204.619271114
 30
0.0
 10
-17.4551049295
 20
202.8103995481
 30
0.0
 10
-18.7429721689
 20
201.1862867024
 30
0.0
 10
-19.7028388141
 20
199.8236694385
 30
0.0
 10
-20.6140568586
 20
198.4201620805
 30
0.0
 10
-22.0642815764
 20
195.8841538952
 30
0.0
 10
-23.2229534754
 20
193.1961140199
 30
0.0
 10
-23.9814184117
 20
190.8291012315
 30
0.0
 10
-24.4181831699
 20
189.2573299298
 30
0.0
 10
-24.758881679
 20
187.6728048927
 30
0.0
 10
-24.9991284768
 20
186.0853228504
 30
0.0
 10
-25.1694567125
 20
184.5201432969
 30
0.0
 10
-25.2224817709
 20
183.3449967471
 30
0.0
 10
-25.2224817709
 20
182.56648506
 30
0.0
  0
SPLINE
  5
3FC
100
AcDbEntity
  8
0
100
AcDbSpline
 62
7
  6
CONTINUOUS
 70
0
 71
3
 72
22
 73
18
 74
0
 42
0.0000001
 43
0.0000001
 44
0.0000000001
 40
0.0
 40
0.0
 40
0.0
 40
0.0
 40
0.0576215954
 40
0.0869713391
 40
0.116664765
 40
0.1770241978
 40
0.2385951505
 40
0.3646519607
 40
0.4288444155
 40
0.4934985583
 40
0.5583849627
 40
0.6232686642
 40
0.7520140202
 40
0.8155095372
 40
0.8781176197
 40
0.9396771748
 40
1.0
 40
1.0
 40
1.0
 40
1.0
 10
-29.3751273342
 20
226.6168443791
 30
0.0
 10
-30.096301282
 20
226.3532632907
 30
0.0
 10
-31.1670632669
 20
225.9046080541
 30
0.0
 10
-32.5591094723
 20
225.2117926258
 30
0.0
 10
-33.9524972502
 20
224.4427594804
 30
0.0
 10
-35.6588001417
 20
223.3559801699
 30
0.0
 10
-38.2980133091
 20
221.3630606959
 30
0.0
 10
-40.7349995334
 20
219.0345179293
 30
0.0
 10
-42.9248004322
 20
216.4352710363
 30
0.0
 10
-44.4445383381
 20
214.3455666188
 30
0.0
 10
-45.8178721057
 20
212.1460667852
 30
0.0
 10
-47.4336245955
 20
209.101331151
 30
0.0
 10
-48.7175015564
 20
205.9095364454
 30
0.0
 10
-49.6344938284
 20
202.6372621703
 30
0.0
 10
-50.1287093825
 20
200.1832814581
 30
0.0
 10
-50.4277086912
 20
197.740766844
 30
0.0
 10
-50.4962016073
 20
196.1159290938
 30
0.0
 10
-50.4962016073
 20
195.3121014752
 30
0.0
  0
SPLINE
  5
3FD
100
AcDbEntity
  8
0
100
AcDbSpline
 62
7
  6
CONTINUOUS
 70
0
 71
3
 72
11
 73
7
 74
0
 42
0.0000001
 43
0.0000001
 44
0.0000000001
 40
0.0
 40
0.0
 40
0.0
 40
0.0
 40
0.2517125474
 40
0.5019693833
 40
0.7512368684
 40
1.0
 40
1.0
 40
1.0
 40
1.0
 10
-35.8011282174
 20
174.7695581614
 30
0.0
 10
-36.166450852
 20
174.8628655003
 30
0.0
 10
-36.8890011351
 20
175.0733818131
 30
0.0
 10
-37.946309418
 20
175.4610906487
 30
0.0
 10
-38.970548602
 20
175.9185236954
 30
0.0
 10
-39.6296818915
 20
176.2694329795
 30
0.0
 10
-39.9523550185
 20
176.4558111097
 30
0.0
  0
SPLINE
  5
3FE
100
AcDbEntity
  8
0
100
AcDbSpline
 62
7
  6
CONTINUOUS
 70
0
 71
3
 72
22
 73
18
 74
0
 42
0.0000001
 43
0.0000001
 44
0.0000000001
 40
0.0
 40
0.0
 40
0.0
 40
0.0
 40
0.1377870106
 40
0.2051828836
 40
0.2715158251
 40
0.3367960516
 40
0.4010439514
 40
0.4642871874
 40
0.5265654868
 40
0.5879378728
 40
0.648477999
 40
0.7082738328
 40
0.7674265921
 40
0.8260485167
 40
0.8842632146
 40
0.942201288
 40
1.0
 40
1.0
 40
1.0
 40
1.0
 10
-50.4962016073
 20
195.3121014752
 30
0.0
 10
-50.4962016073
 20
194.3390596372
 30
0.0
 10
-50.4222173116
 20
192.8883148515
 30
0.0
 10
-50.1665655496
 20
190.9872854894
 30
0.0
 10
-49.9006029498
 20
189.6064519111
 30
0.0
 10
-49.5600415218
 20
188.2650538368
 30
0.0
 10
-49.1458311639
 20
186.9673655697
 30
0.0
 10
-48.6595094465
 20
185.7176251916
 30
0.0
 10
-48.102439041
 20
184.520085148
 30
0.0
 10
-47.4765713494
 20
183.3787001684
 30
0.0
 10
-46.7839276186
 20
182.2972675061
 30
0.0
 10
-46.0267061783
 20
181.2794546779
 30
0.0
 10
-45.2075467189
 20
180.3285519731
 30
0.0
 10
-44.3289754364
 20
179.4479208662
 30
0.0
 10
-43.3940566128
 20
178.6403578413
 30
0.0
 10
-42.4058865127
 20
177.9087199657
 30
0.0
 10
-41.7133404745
 20
177.4729325039
 30
0.0
 10
-41.3598938671
 20
177.2687794082
 30
0.0
  0
SPLINE
  5
3FF
100
AcDbEntity
  8
0
100
AcDbSpline
 62
7
  6
CONTINUOUS
 70
0
 71
3
 72
17
 73
13
 74
0
 42
0.0000001
 43
0.0000001
 44
0.0000000001
 40
0.0
 40
0.0
 40
0.0
 40
0.0
 40
0.1164481746
 40
0.2349738522
 40
0.295117686
 40
0.3558773759
 40
0.4172739543
 40
0.4793239357
 40
0.6054092453
 40
0.7342392927
 40
0.8658271536
 40
1.0
 40
1.0
 40
1.0
 40
1.0
 10
14.5714505596
 20
208.1745135456
 30
0.0
 10
14.9206831497
 20
207.7231280393
 30
0.0
 10
15.5817621454
 20
206.7777443619
 30
0.0
 10
16.2983197405
 20
205.5189960774
 30
0.0
 10
16.809903183
 20
204.4625906563
 30
0.0
 10
17.1638573472
 20
203.6419253153
 30
0.0
 10
17.4857014848
 20
202.7981528522
 30
0.0
 10
17.8734383048
 20
201.6379760465
 30
0.0
 10
18.2741891696
 20
200.1352124963
 30
0.0
 10
18.6174493295
 20
198.2704567641
 30
0.0
 10
18.8234462685
 20
196.3458696007
 30
0.0
 10
18.868428837
 20
195.0428760159
 30
0.0
 10
18.868428837
 20
194.3852953847
 30
0.0
  0
SPLINE
  5
400
100
AcDbEntity
  8
0
100
AcDbSpline
 62
7
  6
CONTINUOUS
 70
0
 71
3
 72
26
 73
22
 74
0
 42
0.0000001
 43
0.0000001
 44
0.0000000001
 40
0.0
 40
0.0
 40
0.0
 40
0.0
 40
0.0195839051
 40
0.0394682059
 40
0.0599320671
 40
0.0812138631
 40
0.1269204484
 40
0.1516708841
 40
0.1777584698
 40
0.234000425
 40
0.2955376165
 40
0.3618321326
 40
0.4320637376
 40
0.5052223065
 40
0.5801574739
 40
0.6556472788
 40
0.7304498881
 40
0.8033455048
 40
0.8731951684
 40
0.9389936494
 40
1.0
 40
1.0
 40
1.0
 40
1.0
 10
-23.0866479496
 20
222.6164897391
 30
0.0
 10
-23.1120604257
 20
222.6096795699
 30
0.0
 10
-23.1623488752
 20
222.5921885457
 30
0.0
 10
-23.2340130611
 20
222.5549367041
 30
0.0
 10
-23.301758744
 20
222.5069059746
 30
0.0
 10
-23.3883840483
 20
222.4271532763
 30
0.0
 10
-23.4633273992
 20
222.3279039021
 30
0.0
 10
-23.5263785541
 20
222.2144651468
 30
0.0
 10
-23.5853754798
 20
222.0830784595
 30
0.0
 10
-23.6433428518
 20
221.8979680455
 30
0.0
 10
-23.6871710576
 20
221.6540732771
 30
0.0
 10
-23.7059366134
 20
221.3882034651
 30
0.0
 10
-23.6993945079
 20
221.1062176679
 30
0.0
 10
-23.6675227875
 20
220.8143209202
 30
0.0
 10
-23.6112087165
 20
220.5189694347
 30
0.0
 10
-23.5315025267
 20
220.2267715228
 30
0.0
 10
-23.4303713741
 20
219.9441778104
 30
0.0
 10
-23.3098595095
 20
219.6775628994
 30
0.0
 10
-23.1728831805
 20
219.4327253603
 30
0.0
 10
-23.0222714173
 20
219.2151758107
 30
0.0
 10
-22.9103761348
 20
219.0860815094
 30
0.0
 10
-22.8526210625
 20
219.0279333962
 30
0.0
  0
SPLINE
  5
401
100
AcDbEntity
  8
0
100
AcDbSpline
 62
7
  6
CONTINUOUS
 70
0
 71
3
 72
9
 73
5
 74
0
 42
0.0000001
 43
0.0000001
 44
0.0000000001
 40
0.0
 40
0.0
 40
0.0
 40
0.0
 40
0.5222347187
 40
1.0
 40
1.0
 40
1.0
 40
1.0
 10
-22.8526210625
 20
219.0279333962
 30
0.0
 10
-22.8071647777
 20
218.9821677676
 30
0.0
 10
-22.7153675905
 20
218.8990723409
 30
0.0
 10
-22.6134488419
 20
218.8284168499
 30
0.0
 10
-22.5623486326
 20
218.798902318
 30
0.0
  0
SPLINE
  5
402
100
AcDbEntity
  8
0
100
AcDbSpline
 62
7
  6
CONTINUOUS
 70
0
 71
3
 72
13
 73
9
 74
0
 42
0.0000001
 43
0.0000001
 44
0.0000000001
 40
0.0
 40
0.0
 40
0.0
 40
0.0
 40
0.114302162
 40
0.2303090656
 40
0.3487716481
 40
0.4704051204
 40
0.7255774739
 40
1.0
 40
1.0
 40
1.0
 40
1.0
 10
-23.7993498308
 20
225.7585490762
 30
0.0
 10
-23.7508658137
 20
225.7670253424
 30
0.0
 10
-23.652208766
 20
225.7789969571
 30
0.0
 10
-23.5018166923
 20
225.7818754327
 30
0.0
 10
-23.3487112301
 20
225.7697597874
 30
0.0
 10
-23.1383481214
 20
225.7330838605
 30
0.0
 10
-22.8697209574
 20
225.6478950951
 30
0.0
 10
-22.6646752399
 20
225.5461635787
 30
0.0
 10
-22.5623486326
 20
225.4870616307
 30
0.0
  0
SPLINE
  5
403
100
AcDbEntity
  8
0
100
AcDbSpline
 62
7
  6
CONTINUOUS
 70
0
 71
3
 72
16
 73
12
 74
0
 42
0.0000001
 43
0.0000001
 44
0.0000000001
 40
0.0
 40
0.0
 40
0.0
 40
0.0
 40
0.0475453916
 40
0.0975474594
 40
0.2047881
 40
0.3213937939
 40
0.4464841983
 40
0.5786811692
 40
0.7162761582
 40
0.857432648
 40
1.0
 40
1.0
 40
1.0
 40
1.0
 10
-22.5623486326
 20
225.4870616307
 30
0.0
 10
-22.4907284604
 20
225.4456951493
 30
0.0
 10
-22.3475200854
 20
225.3542309119
 30
0.0
 10
-22.0629607987
 20
225.1394400091
 30
0.0
 10
-21.7149971804
 20
224.8118573
 30
0.0
 10
-21.3243028587
 20
224.3458609707
 30
0.0
 10
-20.9582156795
 20
223.8070625306
 30
0.0
 10
-20.6239908228
 20
223.2060006234
 30
0.0
 10
-20.3280494731
 20
222.5544492447
 30
0.0
 10
-20.0764360195
 20
221.8653945044
 30
0.0
 10
-19.9414704033
 20
221.3901087714
 30
0.0
 10
-19.8825166605
 20
221.1492130004
 30
0.0
  0
SPLINE
  5
404
100
AcDbEntity
  8
0
100
AcDbSpline
 62
7
  6
CONTINUOUS
 70
0
 71
3
 72
12
 73
8
 74
0
 42
0.0000001
 43
0.0000001
 44
0.0000000001
 40
0.0
 40
0.0
 40
0.0
 40
0.0
 40
0.2549196462
 40
0.5075852527
 40
0.7564361897
 40
0.8789914164
 40
1.0
 40
1.0
 40
1.0
 40
1.0
 10
-19.8825166605
 20
221.1492130004
 30
0.0
 10
-19.6072383597
 20
220.0243755376
 30
0.0
 10
-19.1121061236
 20
217.7712727195
 30
0.0
 10
-18.5360145554
 20
214.3823631617
 30
0.0
 10
-18.1987355024
 20
211.5661704845
 30
0.0
 10
-18.0182967606
 20
209.3363566416
 30
0.0
 10
-17.9578551015
 20
208.2314031156
 30
0.0
 10
-17.9352625657
 20
207.6821579725
 30
0.0
  0
SPLINE
  5
405
100
AcDbEntity
  8
0
100
AcDbSpline
 62
7
  6
CONTINUOUS
 70
0
 71
3
 72
20
 73
16
 74
0
 42
0.0000001
 43
0.0000001
 44
0.0000000001
 40
0.0
 40
0.0
 40
0.0
 40
0.0
 40
0.1375165174
 40
0.2048409316
 40
0.271136861
 40
0.4006291573
 40
0.526224642
 40
0.5876905158
 40
0.6483307264
 40
0.7082234202
 40
0.76745914
 40
0.8261398715
 40
0.8843760224
 40
0.9422875588
 40
1.0
 40
1.0
 40
1.0
 40
1.0
 10
16.678346117
 20
193.7982317041
 30
0.0
 10
16.678346117
 20
194.6511724164
 30
0.0
 10
16.6154948913
 20
195.9231047821
 30
0.0
 10
16.3987603668
 20
197.5914306591
 30
0.0
 10
16.1003012658
 20
199.1965843902
 30
0.0
 10
15.5721631103
 20
201.1235238479
 30
0.0
 10
14.828682817
 20
202.9465894292
 30
0.0
 10
14.1142730614
 20
204.3077884578
 30
0.0
 10
13.5251035696
 20
205.2716775787
 30
0.0
 10
12.8806281835
 20
206.1826083583
 30
0.0
 10
12.1827151513
 20
207.037690963
 30
0.0
 10
11.4337011594
 20
207.8343661848
 30
0.0
 10
10.6357504042
 20
208.5700181724
 30
0.0
 10
9.7914518102
 20
209.242302164
 30
0.0
 10
9.1987562279
 20
209.647402931
 30
0.0
 10
8.8960137615
 20
209.838404832
 30
0.0
  0
SPLINE
  5
406
100
AcDbEntity
  8
0
100
AcDbSpline
 62
7
  6
CONTINUOUS
 70
0
 71
3
 72
9
 73
5
 74
0
 42
0.0000001
 43
0.0000001
 44
0.0000000001
 40
0.0
 40
0.0
 40
0.0
 40
0.0
 40
0.2546060339
 40
1.0
 40
1.0
 40
1.0
 40
1.0
 10
-22.2728206428
 20
218.6927312573
 30
0.0
 10
-22.263141995
 20
218.6912839721
 30
0.0
 10
-22.225006796
 20
218.6864536283
 30
0.0
 10
-22.1864076094
 20
218.6851735334
 30
0.0
 10
-22.1577826376
 20
218.6863853209
 30
0.0
  0
SPLINE
  5
407
100
AcDbEntity
  8
0
100
AcDbSpline
 62
7
  6
CONTINUOUS
 70
0
 71
3
 72
19
 73
15
 74
0
 42
0.0000001
 43
0.0000001
 44
0.0000000001
 40
0.0
 40
0.0
 40
0.0
 40
0.0
 40
0.0628973516
 40
0.1261947499
 40
0.2534826533
 40
0.3173246737
 40
0.3811707798
 40
0.4449240291
 40
0.508489327
 40
0.6346635176
 40
0.7590278184
 40
0.8809733025
 40
0.9408973776
 40
1.0
 40
1.0
 40
1.0
 40
1.0
 10
-39.1713070457
 20
217.5498292042
 30
0.0
 10
-39.5336501777
 20
217.1619599923
 30
0.0
 10
-40.2425352743
 20
216.3665843664
 30
0.0
 10
-41.5914362175
 20
214.7056884558
 30
0.0
 10
-42.8300751794
 20
212.9475711123
 30
0.0
 10
-43.9485008623
 20
211.1087275113
 30
0.0
 10
-44.7255211025
 20
209.6916401514
 30
0.0
 10
-45.437098529
 20
208.2431974872
 30
0.0
 10
-46.2928702628
 20
206.2819762318
 30
0.0
 10
-47.1868647249
 20
203.7822419664
 30
0.0
 10
-47.9672851143
 20
200.7327290072
 30
0.0
 10
-48.3652717239
 20
198.1745647509
 30
0.0
 10
-48.5245320721
 20
196.1465590536
 30
0.0
 10
-48.5514726577
 20
195.1418936395
 30
0.0
 10
-48.5514726577
 20
194.6431299286
 30
0.0
  0
SPLINE
  5
408
100
AcDbEntity
  8
0
100
AcDbSpline
 62
7
  6
CONTINUOUS
 70
0
 71
3
 72
14
 73
10
 74
0
 42
0.0000001
 43
0.0000001
 44
0.0000000001
 40
0.0
 40
0.0
 40
0.0
 40
0.0
 40
0.1327557095
 40
0.2633627533
 40
0.5175830089
 40
0.6413636812
 40
0.7629559224
 40
0.8824532157
 40
1.0
 40
1.0
 40
1.0
 40
1.0
 10
-48.5503293326
 20
194.3908907394
 30
0.0
 10
-48.5454428952
 20
193.8524305658
 30
0.0
 10
-48.5046119514
 20
192.7841426859
 30
0.0
 10
-48.29780537
 20
190.6941102775
 30
0.0
 10
-47.9030648475
 20
188.6620671206
 30
0.0
 10
-47.315914647
 20
186.7212152471
 30
0.0
 10
-46.7892598563
 20
185.3366923361
 30
0.0
 10
-46.1745133297
 20
184.0169164777
 30
0.0
 10
-45.7039685827
 20
183.1771632368
 30
0.0
 10
-45.454891101
 20
182.7706031854
 30
0.0
  0
SPLINE
  5
409
100
AcDbEntity
  8
0
100
AcDbSpline
 62
7
  6
CONTINUOUS
 70
0
 71
3
 72
15
 73
11
 74
0
 42
0.0000001
 43
0.0000001
 44
0.0000000001
 40
0.0
 40
0.0
 40
0.0
 40
0.0
 40
0.1284689257
 40
0.2556026298
 40
0.3815558427
 40
0.5064974723
 40
0.6306127982
 40
0.7540972557
 40
0.8771554774
 40
1.0
 40
1.0
 40
1.0
 40
1.0
 10
-45.454891101
 20
182.7706031854
 30
0.0
 10
-45.2698265966
 20
182.4685291724
 30
0.0
 10
-44.8841109053
 20
181.878031578
 30
0.0
 10
-44.2570054984
 20
181.0324383918
 30
0.0
 10
-43.5860642949
 20
180.233777996
 30
0.0
 10
-42.8727952742
 20
179.4841171474
 30
0.0
 10
-42.1189763779
 20
178.7852043221
 30
0.0
 10
-41.3264290621
 20
178.1386837134
 30
0.0
 10
-40.4970135031
 20
177.5462638031
 30
0.0
 10
-39.9205903592
 20
177.1880976274
 30
0.0
 10
-39.6272602054
 20
177.0186664907
 30
0.0
  0
SPLINE
  5
40A
100
AcDbEntity
  8
0
100
AcDbSpline
 62
7
  6
CONTINUOUS
 70
0
 71
3
 72
17
 73
13
 74
0
 42
0.0000001
 43
0.0000001
 44
0.0000000001
 40
0.0
 40
0.0
 40
0.0
 40
0.0
 40
0.0591112167
 40
0.1190580034
 40
0.2410772661
 40
0.3655369482
 40
0.4918026336
 40
0.6191479244
 40
0.7468023818
 40
0.8740020624
 40
0.9372164505
 40
1.0
 40
1.0
 40
1.0
 40
1.0
 10
-49.0886627588
 20
194.4991331767
 30
0.0
 10
-49.0886627588
 20
195.0187913308
 30
0.0
 10
-49.0600907966
 20
196.0656743074
 30
0.0
 10
-48.8912439626
 20
198.1790536334
 30
0.0
 10
-48.4693647442
 20
200.8447028055
 30
0.0
 10
-47.6424360612
 20
204.0205479436
 30
0.0
 10
-46.5038757158
 20
207.1483099972
 30
0.0
 10
-45.0698914196
 20
210.1830696302
 30
0.0
 10
-43.3613042008
 20
213.0814725378
 30
0.0
 10
-41.7248337186
 20
215.3541418586
 30
0.0
 10
-40.3010797567
 20
217.0659799498
 30
0.0
 10
-39.5533611892
 20
217.8838955864
 30
0.0
 10
-39.1713070457
 20
218.2822358692
 30
0.0
  0
SPLINE
  5
40B
100
AcDbEntity
  8
0
100
AcDbSpline
 62
7
  6
CONTINUOUS
 70
0
 71
3
 72
14
 73
10
 74
0
 42
0.0000001
 43
0.0000001
 44
0.0000000001
 40
0.0
 40
0.0
 40
0.0
 40
0.0
 40
0.1212310021
 40
0.2428385322
 40
0.3652138327
 40
0.4887386517
 40
0.6137712134
 40
0.7405991611
 40
1.0
 40
1.0
 40
1.0
 40
1.0
 10
-7.0228677195
 20
160.022674211
 30
0.0
 10
-7.1031407111
 20
160.0690371628
 30
0.0
 10
-7.2599625685
 20
160.1689918431
 30
0.0
 10
-7.4817102826
 20
160.3392968807
 30
0.0
 10
-7.6891827887
 20
160.5293585085
 30
0.0
 10
-7.8815148801
 20
160.738270804
 30
0.0
 10
-8.0578344121
 20
160.9652166778
 30
0.0
 10
-8.271922265
 20
161.2926881719
 30
0.0
 10
-8.4038067946
 20
161.5586361435
 30
0.0
 10
-8.4787724709
 20
161.7422764225
 30
0.0
  0
SPLINE
  5
40C
100
AcDbEntity
  8
0
100
AcDbSpline
 62
7
  6
CONTINUOUS
 70
0
 71
3
 72
21
 73
17
 74
0
 42
0.0000001
 43
0.0000001
 44
0.0000000001
 40
0.0
 40
0.0
 40
0.0
 40
0.0
 40
0.0600656994
 40
0.1213173505
 40
0.1835802974
 40
0.2467106624
 40
0.3747648996
 40
0.4393592689
 40
0.5040264549
 40
0.5685516389
 40
0.6327237756
 40
0.7591295513
 40
0.821076413
 40
0.881949171
 40
0.941621958
 40
1.0
 40
1.0
 40
1.0
 40
1.0
 10
-27.4125644909
 20
181.9794213794
 30
0.0
 10
-27.4125644909
 20
182.7471463942
 30
0.0
 10
-27.350097429
 20
184.298370522
 30
0.0
 10
-27.0770910204
 20
186.6309091142
 30
0.0
 10
-26.6255077907
 20
188.9756523945
 30
0.0
 10
-25.7867896462
 20
192.1067606674
 30
0.0
 10
-24.6107412573
 20
195.1703121091
 30
0.0
 10
-23.1277678616
 20
198.1078658379
 30
0.0
 10
-21.8646156897
 20
200.2407237629
 30
0.0
 10
-20.4637706317
 20
202.2792739182
 30
0.0
 10
-18.4383007891
 20
204.8367082014
 30
0.0
 10
-16.1770316632
 20
207.1577071705
 30
0.0
 10
-13.7180586517
 20
209.1862242773
 30
0.0
 10
-11.8112975129
 20
210.5338269087
 30
0.0
 10
-9.8454507313
 20
211.7066303882
 30
0.0
 10
-8.4897406835
 20
212.3736261317
 30
0.0
 10
-7.8067761728
 20
212.6741353641
 30
0.0
  0
SPLINE
  5
40D
100
AcDbEntity
  8
0
100
AcDbSpline
 62
7
  6
CONTINUOUS
 70
0
 71
3
 72
23
 73
19
 74
0
 42
0.0000001
 43
0.0000001
 44
0.0000000001
 40
0.0
 40
0.0
 40
0.0
 40
0.0
 40
0.0261303996
 40
0.0523534323
 40
0.1053724206
 40
0.1597477543
 40
0.2159681882
 40
0.2743489968
 40
0.3350091075
 40
0.3662006121
 40
0.3979267068
 40
0.462826838
 40
0.5969984639
 40
0.7340497851
 40
0.8023699509
 40
0.8697838677
 40
0.9358382342
 40
1.0
 40
1.0
 40
1.0
 40
1.0
 10
-6.0225840869
 20
161.7545228253
 30
0.0
 10
-5.9693086753
 20
161.7237435279
 30
0.0
 10
-5.8596655932
 20
161.6669355755
 30
0.0
 10
-5.6296257954
 20
161.5732553222
 30
0.0
 10
-5.3231109426
 20
161.4946033293
 30
0.0
 10
-4.937212504
 20
161.4649496824
 30
0.0
 10
-4.539155983
 20
161.4993646785
 30
0.0
 10
-4.1367414265
 20
161.5971158648
 30
0.0
 10
-3.8069568888
 20
161.7282433777
 30
0.0
 10
-3.5481012677
 20
161.8614834872
 30
0.0
 10
-3.2894879516
 20
162.0158007355
 30
0.0
 10
-2.849437031
 20
162.3367645221
 30
0.0
 10
-2.2949445198
 20
162.9110110255
 30
0.0
 10
-1.8693663659
 20
163.5951578674
 30
0.0
 10
-1.6193473222
 20
164.1879058922
 30
0.0
 10
-1.4824517657
 20
164.64394636
 30
0.0
 10
-1.3990298597
 20
165.1027046994
 30
0.0
 10
-1.3795057439
 20
165.4095821596
 30
0.0
 10
-1.3795057439
 20
165.5606595956
 30
0.0
  0
SPLINE
  5
40E
100
AcDbEntity
  8
0
100
AcDbSpline
 62
7
  6
CONTINUOUS
 70
0
 71
3
 72
22
 73
18
 74
0
 42
0.0000001
 43
0.0000001
 44
0.0000000001
 40
0.0
 40
0.0
 40
0.0
 40
0.0
 40
0.057798712
 40
0.1157367854
 40
0.1739514833
 40
0.2325734079
 40
0.2917261672
 40
0.351522001
 40
0.4120621272
 40
0.4734345132
 40
0.5357128126
 40
0.5989560486
 40
0.6632039484
 40
0.7284841749
 40
0.7948171164
 40
0.8622129894
 40
1.0
 40
1.0
 40
1.0
 40
1.0
 10
-18.2762567506
 20
163.9360993123
 30
0.0
 10
-18.629703358
 20
164.140252408
 30
0.0
 10
-19.3222493962
 20
164.5760398698
 30
0.0
 10
-20.3104194963
 20
165.3076777454
 30
0.0
 10
-21.2453383199
 20
166.1152407704
 30
0.0
 10
-22.1239096024
 20
166.9958718772
 30
0.0
 10
-22.9430690618
 20
167.946774582
 30
0.0
 10
-23.7002905021
 20
168.9645874102
 30
0.0
 10
-24.3929342329
 20
170.0460200725
 30
0.0
 10
-25.0188019245
 20
171.1874050521
 30
0.0
 10
-25.57587233
 20
172.3849450957
 30
0.0
 10
-26.0621940474
 20
173.6346854739
 30
0.0
 10
-26.4764044053
 20
174.9323737409
 30
0.0
 10
-26.8169658333
 20
176.2737718152
 30
0.0
 10
-27.0829284331
 20
177.6546053935
 30
0.0
 10
-27.3385801951
 20
179.5556347556
 30
0.0
 10
-27.4125644909
 20
181.0063795413
 30
0.0
 10
-27.4125644909
 20
181.9794213794
 30
0.0
  0
SPLINE
  5
40F
100
AcDbEntity
  8
0
100
AcDbSpline
 62
7
  6
CONTINUOUS
 70
0
 71
3
 72
15
 73
11
 74
0
 42
0.0000001
 43
0.0000001
 44
0.0000000001
 40
0.0
 40
0.0
 40
0.0
 40
0.0
 40
0.1214621048
 40
0.2432886135
 40
0.3658296601
 40
0.4894142624
 40
0.6143620226
 40
0.7409751331
 40
0.8694847278
 40
1.0
 40
1.0
 40
1.0
 40
1.0
 10
-16.9508565353
 20
166.2308411105
 30
0.0
 10
-16.5948769003
 20
166.025237685
 30
0.0
 10
-15.8641231882
 20
165.6432609501
 30
0.0
 10
-14.7211979835
 20
165.1635079927
 30
0.0
 10
-13.53543502
 20
164.7782603245
 30
0.0
 10
-12.3118352685
 20
164.4891822687
 30
0.0
 10
-11.0553587195
 20
164.297450492
 30
0.0
 10
-9.7711130816
 20
164.2037887265
 30
0.0
 10
-8.4647517317
 20
164.2086353426
 30
0.0
 10
-7.5898113418
 20
164.2766916784
 30
0.0
 10
-7.1509113269
 20
164.3266099328
 30
0.0
  0
SPLINE
  5
410
100
AcDbEntity
  8
0
100
AcDbSpline
 62
7
  6
CONTINUOUS
 70
0
 71
3
 72
21
 73
17
 74
0
 42
0.0000001
 43
0.0000001
 44
0.0000000001
 40
0.0
 40
0.0
 40
0.0
 40
0.0
 40
0.1176393202
 40
0.147878328
 40
0.1784085486
 40
0.2402736619
 40
0.3666140617
 40
0.4307977107
 40
0.4953594586
 40
0.5600836911
 40
0.6247510763
 40
0.7529763675
 40
0.8161958754
 40
0.8785432271
 40
0.9398707838
 40
1.0
 40
1.0
 40
1.0
 40
1.0
 10
-1.3932243269
 20
165.8699895008
 30
0.0
 10
-0.1266904686
 20
166.4049430736
 30
0.0
 10
1.4099075774
 20
167.2195496969
 30
0.0
 10
3.1491945368
 20
168.3693696645
 30
0.0
 10
4.3138226802
 20
169.2055201193
 30
0.0
 10
6.3035446555
 20
170.813742919
 30
0.0
 10
8.3880193061
 20
172.9176882963
 30
0.0
 10
10.2565207306
 20
175.2428745037
 30
0.0
 10
11.549837254
 20
177.0998759922
 30
0.0
 10
12.7166032521
 20
179.0454529819
 30
0.0
 10
14.0870917025
 20
181.7281649054
 30
0.0
 10
15.1744358551
 20
184.5292604622
 30
0.0
 10
15.9501639112
 20
187.3941556423
 30
0.0
 10
16.3679285526
 20
189.5402445489
 30
0.0
 10
16.6205291119
 20
191.6754222955
 30
0.0
 10
16.678346117
 20
193.0954887661
 30
0.0
 10
16.678346117
 20
193.7982317041
 30
0.0
  0
SPLINE
  5
411
100
AcDbEntity
  8
0
100
AcDbSpline
 62
7
  6
CONTINUOUS
 70
0
 71
3
 72
9
 73
5
 74
0
 42
0.0000001
 43
0.0000001
 44
0.0000000001
 40
0.0
 40
0.0
 40
0.0
 40
0.0
 40
0.2524959019
 40
1.0
 40
1.0
 40
1.0
 40
1.0
 10
-17.8879218228
 20
205.9893478333
 30
0.0
 10
-17.6923136676
 20
206.1952355252
 30
0.0
 10
-16.9102943091
 20
207.0036251808
 30
0.0
 10
-16.0973119214
 20
207.7823278012
 30
0.0
 10
-15.4706389626
 20
208.3428132389
 30
0.0
  0
SPLINE
  5
412
100
AcDbEntity
  8
0
100
AcDbSpline
 62
7
  6
CONTINUOUS
 70
0
 71
3
 72
11
 73
7
 74
0
 42
0.0000001
 43
0.0000001
 44
0.0000000001
 40
0.0
 40
0.0
 40
0.0
 40
0.0
 40
0.2457485212
 40
0.4937243652
 40
0.744866333
 40
1.0
 40
1.0
 40
1.0
 40
1.0
 10
-41.5210331678
 20
177.4875865153
 30
0.0
 10
-41.9640073642
 20
177.8171750831
 30
0.0
 10
-42.8208371147
 20
178.5251765811
 30
0.0
 10
-43.9998778321
 20
179.7165547514
 30
0.0
 10
-45.070037424
 20
181.0338094598
 30
0.0
 10
-45.7013293447
 20
181.9823592549
 30
0.0
 10
-45.9968574884
 20
182.473528609
 30
0.0
  0
SPLINE
  5
413
100
AcDbEntity
  8
0
100
AcDbSpline
 62
7
  6
CONTINUOUS
 70
0
 71
3
 72
14
 73
10
 74
0
 42
0.0000001
 43
0.0000001
 44
0.0000000001
 40
0.0
 40
0.0
 40
0.0
 40
0.0
 40
0.1174860241
 40
0.2369490596
 40
0.3585286926
 40
0.4823144089
 40
0.7365913034
 40
0.8672310523
 40
1.0
 40
1.0
 40
1.0
 40
1.0
 10
-45.9968574884
 20
182.473528609
 30
0.0
 10
-46.2505460726
 20
182.8951603916
 30
0.0
 10
-46.729177557
 20
183.7658384861
 30
0.0
 10
-47.3523492304
 20
185.133458368
 30
0.0
 10
-47.8839492963
 20
186.5674831391
 30
0.0
 10
-48.4729461419
 20
188.5769220837
 30
0.0
 10
-48.8621133517
 20
190.6790778432
 30
0.0
 10
-49.0564187766
 20
192.8394393537
 30
0.0
 10
-49.0886627588
 20
193.9430551487
 30
0.0
 10
-49.0886627588
 20
194.4991331767
 30
0.0
  0
SPLINE
  5
414
100
AcDbEntity
  8
0
100
AcDbSpline
 62
7
  6
CONTINUOUS
 70
0
 71
3
 72
11
 73
7
 74
0
 42
0.0000001
 43
0.0000001
 44
0.0000000001
 40
0.0
 40
0.0
 40
0.0
 40
0.0
 40
0.2589235616
 40
0.5131852248
 40
0.7608147578
 40
1.0
 40
1.0
 40
1.0
 40
1.0
 10
-48.3360270121
 20
234.4017721187
 30
0.0
 10
-48.5876585342
 20
235.1314651863
 30
0.0
 10
-49.1257870613
 20
236.5644958358
 30
0.0
 10
-50.0412443533
 20
238.6408710664
 30
0.0
 10
-51.050156571
 20
240.6076395399
 30
0.0
 10
-51.7921714849
 20
241.8562195137
 30
0.0
 10
-52.1773008377
 20
242.4562813458
 30
0.0
  0
SPLINE
  5
415
100
AcDbEntity
  8
0
100
AcDbSpline
 62
7
  6
CONTINUOUS
 70
0
 71
3
 72
15
 73
11
 74
0
 42
0.0000001
 43
0.0000001
 44
0.0000000001
 40
0.0
 40
0.0
 40
0.0
 40
0.0
 40
0.1306485297
 40
0.2607300376
 40
0.3896319311
 40
0.5168574482
 40
0.6419476946
 40
0.7644661775
 40
0.8839777695
 40
1.0
 40
1.0
 40
1.0
 40
1.0
 10
-42.1850715083
 20
233.3774103258
 30
0.0
 10
-42.3490859459
 20
233.9674436469
 30
0.0
 10
-42.6988858098
 20
235.1388323644
 30
0.0
 10
-43.2880154301
 20
236.8680297538
 30
0.0
 10
-43.9381571014
 20
238.5580871682
 30
0.0
 10
-44.6454705791
 20
240.1995927722
 30
0.0
 10
-45.4063267014
 20
241.7838725524
 30
0.0
 10
-46.2166212943
 20
243.3026340548
 30
0.0
 10
-47.0720102032
 20
244.747271365
 30
0.0
 10
-47.6785852149
 20
245.6703743786
 30
0.0
 10
-47.9886903301
 20
246.117143566
 30
0.0
  0
SPLINE
  5
416
100
AcDbEntity
  8
0
100
AcDbSpline
 62
7
  6
CONTINUOUS
 70
0
 71
3
 72
9
 73
5
 74
0
 42
0.0000001
 43
0.0000001
 44
0.0000000001
 40
0.0
 40
0.0
 40
0.0
 40
0.0
 40
0.4937548891
 40
1.0
 40
1.0
 40
1.0
 40
1.0
 10
-66.6147423497
 20
245.2835360568
 30
0.0
 10
-67.2251922055
 20
245.119901626
 30
0.0
 10
-68.4456154456
 20
244.7266282465
 30
0.0
 10
-69.6239207311
 20
244.2216827735
 30
0.0
 10
-70.2077336089
 20
243.9405219376
 30
0.0
  0
SPLINE
  5
417
100
AcDbEntity
  8
0
100
AcDbSpline
 62
7
  6
CONTINUOUS
 70
0
 71
3
 72
33
 73
29
 74
0
 42
0.0000001
 43
0.0000001
 44
0.0000000001
 40
0.0
 40
0.0
 40
0.0
 40
0.0
 40
0.0629345045
 40
0.0951760942
 40
0.1278710862
 40
0.160970181
 40
0.1944179175
 40
0.2281542698
 40
0.2621138136
 40
0.3303993048
 40
0.3987287661
 40
0.4665275889
 40
0.500070012
 40
0.5332810439
 40
0.5661041428
 40
0.5984881588
 40
0.6303904562
 40
0.6617756453
 40
0.7228682775
 40
0.7817234706
 40
0.8103613436
 40
0.8384978672
 40
0.8661772186
 40
0.8934550945
 40
0.9203977402
 40
0.947080324
 40
0.9735852134
 40
1.0
 40
1.0
 40
1.0
 40
1.0
 10
-70.2077336089
 20
243.9405219376
 30
0.0
 10
-71.1184226616
 20
243.5019394653
 30
0.0
 10
-72.4520964544
 20
242.7434020047
 30
0.0
 10
-74.1354466993
 20
241.565534774
 30
0.0
 10
-75.3691671286
 20
240.5854836427
 30
0.0
 10
-76.5568279626
 20
239.5211064865
 30
0.0
 10
-77.6928030125
 20
238.3780373292
 30
0.0
 10
-78.7711602555
 20
237.1619028639
 30
0.0
 10
-80.1272972
 20
235.4487719942
 30
0.0
 10
-81.6472034732
 20
233.1621638974
 30
0.0
 10
-83.1589317648
 20
230.2408342265
 30
0.0
 10
-84.1404448615
 20
227.6919756644
 30
0.0
 10
-84.7435988977
 20
225.6157815286
 30
0.0
 10
-85.1008123463
 20
224.0559148515
 30
0.0
 10
-85.3627549058
 20
222.4961245567
 30
0.0
 10
-85.5277264046
 20
220.9442245356
 30
0.0
 10
-85.5950442785
 20
219.4080270397
 30
0.0
 10
-85.5540463695
 20
217.4096459081
 30
0.0
 10
-85.2639446507
 20
214.9883865378
 30
0.0
 10
-84.6414104457
 20
212.6745112155
 30
0.0
 10
-83.9511069144
 20
210.9485948515
 30
0.0
 10
-83.3468164641
 20
209.7324574928
 30
0.0
 10
-82.6539914734
 20
208.5899295607
 30
0.0
 10
-81.8762936926
 20
207.52693834
 30
0.0
 10
-81.0173133951
 20
206.5496175834
 30
0.0
 10
-80.0817797062
 20
205.6631317436
 30
0.0
 10
-79.0745135525
 20
204.8728565662
 30
0.0
 10
-78.3582497565
 20
204.4125221724
 30
0.0
 10
-77.9909251997
 20
204.2002468899
 30
0.0
  0
SPLINE
  5
418
100
AcDbEntity
  8
0
100
AcDbSpline
 62
7
  6
CONTINUOUS
 70
0
 71
3
 72
15
 73
11
 74
0
 42
0.0000001
 43
0.0000001
 44
0.0000000001
 40
0.0
 40
0.0
 40
0.0
 40
0.0
 40
0.1200548405
 40
0.2406344588
 40
0.362243854
 40
0.4853462125
 40
0.6103500273
 40
0.7376337161
 40
0.8674902031
 40
1.0
 40
1.0
 40
1.0
 40
1.0
 10
-54.9796446673
 20
244.0308674641
 30
0.0
 10
-55.3957338714
 20
244.2713236266
 30
0.0
 10
-56.2563029296
 20
244.7088652187
 30
0.0
 10
-57.613783191
 20
245.2259250859
 30
0.0
 10
-59.0299238175
 20
245.6007656271
 30
0.0
 10
-60.4943403643
 20
245.8313945597
 30
0.0
 10
-61.996998027
 20
245.9163950789
 30
0.0
 10
-63.5277885357
 20
245.8558656979
 30
0.0
 10
-65.0759888792
 20
245.6504163453
 30
0.0
 10
-66.1024015278
 20
245.4208718231
 30
0.0
 10
-66.6147423497
 20
245.2835360568
 30
0.0
  0
SPLINE
  5
419
100
AcDbEntity
  8
0
100
AcDbSpline
 62
7
  6
CONTINUOUS
 70
0
 71
3
 72
42
 73
38
 74
0
 42
0.0000001
 43
0.0000001
 44
0.0000000001
 40
0.0
 40
0.0
 40
0.0
 40
0.0
 40
0.0308942508
 40
0.061907886
 40
0.0930378922
 40
0.1242961878
 40
0.1556908129
 40
0.1872200596
 40
0.2188743818
 40
0.2506403435
 40
0.2824999275
 40
0.3144292266
 40
0.3464000027
 40
0.3783825223
 40
0.4103464088
 40
0.4422622787
 40
0.4741026344
 40
0.5058444176
 40
0.537470554
 40
0.5689690342
 40
0.6003328979
 40
0.631562056
 40
0.6626628372
 40
0.6936463458
 40
0.7245232261
 40
0.755309106
 40
0.7860198744
 40
0.8166722163
 40
0.8319834944
 40
0.8472854648
 40
0.8625791183
 40
0.8778654482
 40
0.8931460866
 40
0.9084224349
 40
0.9389554579
 40
0.96947673
 40
1.0
 40
1.0
 40
1.0
 40
1.0
 10
-34.3585464145
 20
229.8594650809
 30
0.0
 10
-35.0013218494
 20
229.6871672589
 30
0.0
 10
-36.2763451438
 20
229.2912710792
 30
0.0
 10
-38.1413023427
 20
228.552820374
 30
0.0
 10
-39.9534713291
 20
227.67469426
 30
0.0
 10
-41.7045528053
 20
226.6640423566
 30
0.0
 10
-43.3871462045
 20
225.5277483404
 30
0.0
 10
-44.9943312344
 20
224.27328431
 30
0.0
 10
-46.5191999989
 20
222.9080136468
 30
0.0
 10
-47.9553873444
 20
221.4398372854
 30
0.0
 10
-49.2966377096
 20
219.8766841224
 30
0.0
 10
-50.5370855222
 20
218.2269032967
 30
0.0
 10
-51.6709644683
 20
216.4989877831
 30
0.0
 10
-52.6928520807
 20
214.7017182302
 30
0.0
 10
-53.5976418144
 20
212.8440508021
 30
0.0
 10
-54.3804885929
 20
210.9350874465
 30
0.0
 10
-55.0370059923
 20
208.9840956416
 30
0.0
 10
-55.5629711
 20
207.0003516066
 30
0.0
 10
-55.9547164495
 20
204.993254941
 30
0.0
 10
-56.2086999167
 20
202.9722662576
 30
0.0
 10
-56.3219809113
 20
200.9470306045
 30
0.0
 10
-56.2917006365
 20
198.9273467027
 30
0.0
 10
-56.1156913501
 20
196.9232596219
 30
0.0
 10
-55.7920706924
 20
194.9452551784
 30
0.0
 10
-55.3198887058
 20
193.004252422
 30
0.0
 10
-54.6986647683
 20
191.1117519528
 30
0.0
 10
-53.9292921214
 20
189.2797052655
 30
0.0
 10
-53.1657447452
 20
187.8128715482
 30
0.0
 10
-52.4837954109
 20
186.6826790258
 30
0.0
 10
-51.937243974
 20
185.8582335809
 30
0.0
 10
-51.356278615
 20
185.0583460684
 30
0.0
 10
-50.7417046931
 20
184.2845635786
 30
0.0
 10
-50.0943120402
 20
183.5384814239
 30
0.0
 10
-49.1889646369
 20
182.5830765897
 30
0.0
 10
-47.9802919878
 20
181.4649545415
 30
0.0
 10
-46.4171617972
 20
180.2577635797
 30
0.0
 10
-45.3073357391
 20
179.5487152443
 30
0.0
 10
-44.7380015005
 20
179.2198783624
 30
0.0
  0
SPLINE
  5
41A
100
AcDbEntity
  8
0
100
AcDbSpline
 62
7
  6
CONTINUOUS
 70
0
 71
3
 72
11
 73
7
 74
0
 42
0.0000001
 43
0.0000001
 44
0.0000000001
 40
0.0
 40
0.0
 40
0.0
 40
0.0
 40
0.2492972927
 40
0.4989980812
 40
0.749192551
 40
1.0
 40
1.0
 40
1.0
 40
1.0
 10
-26.8392123066
 20
230.6753573122
 30
0.0
 10
-27.4692889256
 20
230.7072680489
 30
0.0
 10
-28.7336315048
 20
230.7197252249
 30
0.0
 10
-30.6268426859
 20
230.5872580918
 30
0.0
 10
-32.5076118355
 20
230.3065363587
 30
0.0
 10
-33.7450213056
 20
230.0239100173
 30
0.0
 10
-34.3580872433
 20
229.8595881585
 30
0.0
  0
SPLINE
  5
41B
100
AcDbEntity
  8
0
100
AcDbSpline
 62
7
  6
CONTINUOUS
 70
0
 71
3
 72
15
 73
11
 74
0
 42
0.0000001
 43
0.0000001
 44
0.0000000001
 40
0.0
 40
0.0
 40
0.0
 40
0.0
 40
0.1160222305
 40
0.2355338225
 40
0.3580523054
 40
0.4831425518
 40
0.6103680689
 40
0.7392699624
 40
0.8693514703
 40
1.0
 40
1.0
 40
1.0
 40
1.0
 10
-52.1209218772
 20
245.0094762441
 30
0.0
 10
-51.810816762
 20
244.5627070566
 30
0.0
 10
-51.2042417503
 20
243.639604043
 30
0.0
 10
-50.3488528414
 20
242.1949667329
 30
0.0
 10
-49.5385582485
 20
240.6762052304
 30
0.0
 10
-48.7777021262
 20
239.0919254502
 30
0.0
 10
-48.0703886485
 20
237.4504198462
 30
0.0
 10
-47.4202469772
 20
235.7603624318
 30
0.0
 10
-46.8311173568
 20
234.0311650424
 30
0.0
 10
-46.481317493
 20
232.8597763249
 30
0.0
 10
-46.3173030553
 20
232.2697430037
 30
0.0
  0
SPLINE
  5
41C
100
AcDbEntity
  8
0
100
AcDbSpline
 62
7
  6
CONTINUOUS
 70
0
 71
3
 72
11
 73
7
 74
0
 42
0.0000001
 43
0.0000001
 44
0.0000000001
 40
0.0
 40
0.0
 40
0.0
 40
0.0
 40
0.2440073974
 40
0.4921147625
 40
0.7441571458
 40
1.0
 40
1.0
 40
1.0
 40
1.0
 10
-30.7337981799
 20
229.2075315704
 30
0.0
 10
-31.1850910483
 20
229.0865606076
 30
0.0
 10
-32.0880349727
 20
228.8147961505
 30
0.0
 10
-33.4269828518
 20
228.3251885399
 30
0.0
 10
-34.7569508913
 20
227.7518118821
 30
0.0
 10
-35.6280214258
 20
227.3181449663
 30
0.0
 10
-36.0606587559
 20
227.0883303742
 30
0.0
  0
SPLINE
  5
41D
100
AcDbEntity
  8
0
100
AcDbSpline
 62
7
  6
CONTINUOUS
 70
0
 71
3
 72
23
 73
19
 74
0
 42
0.0000001
 43
0.0000001
 44
0.0000000001
 40
0.0
 40
0.0
 40
0.0
 40
0.0
 40
0.0593648322
 40
0.1199114795
 40
0.1815228326
 40
0.2440567882
 40
0.3073503801
 40
0.3712284249
 40
0.4355054456
 40
0.4999860822
 40
0.5644699398
 40
0.6287538685
 40
0.6926404895
 40
0.7559402898
 40
0.8184771228
 40
0.8800894088
 40
0.9406354139
 40
1.0
 40
1.0
 40
1.0
 40
1.0
 10
-36.0606587559
 20
227.0883303742
 30
0.0
 10
-36.7132527374
 20
226.7416760076
 30
0.0
 10
-38.004056411
 20
225.9886933296
 30
0.0
 10
-39.8658320133
 20
224.704914319
 30
0.0
 10
-41.6601305364
 20
223.2644437268
 30
0.0
 10
-43.3734966364
 20
221.6780055816
 30
0.0
 10
-44.9933611009
 20
219.9573286005
 30
0.0
 10
-46.5079248684
 20
218.1151657573
 30
0.0
 10
-47.9059821504
 20
216.1649233934
 30
0.0
 10
-49.1774271226
 20
214.1210060697
 30
0.0
 10
-50.3128000282
 20
211.9983833313
 30
0.0
 10
-51.3037299201
 20
209.8127081576
 30
0.0
 10
-52.1429741744
 20
207.580123921
 30
0.0
 10
-52.8241394657
 20
205.316996778
 30
0.0
 10
-53.3424501681
 20
203.0400814315
 30
0.0
 10
-53.693705823
 20
200.766039461
 30
0.0
 10
-53.8756385755
 20
198.5118883684
 30
0.0
 10
-53.8829567139
 20
197.0175421252
 30
0.0
 10
-53.8572102053
 20
196.2790431447
 30
0.0
  0
SPLINE
  5
41E
100
AcDbEntity
  8
0
100
AcDbSpline
 62
7
  6
CONTINUOUS
 70
0
 71
3
 72
20
 73
16
 74
0
 42
0.0000001
 43
0.0000001
 44
0.0000000001
 40
0.0
 40
0.0
 40
0.0
 40
0.0
 40
0.1372145049
 40
0.2704162879
 40
0.399598775
 40
0.4627678268
 40
0.5250285411
 40
0.586440038
 40
0.6470748431
 40
0.7070167354
 40
0.7663601944
 40
0.8252120579
 40
0.8836867739
 40
0.9419067012
 40
1.0
 40
1.0
 40
1.0
 40
1.0
 10
-53.8572102053
 20
196.2790431447
 30
0.0
 10
-53.8250195459
 20
195.3557036107
 30
0.0
 10
-53.6707895187
 20
193.5375672626
 30
0.0
 10
-53.1578388307
 20
190.8911846543
 30
0.0
 10
-52.4976938233
 20
188.7950338718
 30
0.0
 10
-51.8353184875
 20
187.2127991269
 30
0.0
 10
-51.2779699321
 20
186.0839801842
 30
0.0
 10
-50.6579863621
 20
185.007960738
 30
0.0
 10
-49.9772377967
 20
183.9879887386
 30
0.0
 10
-49.2378936974
 20
183.0271287001
 30
0.0
 10
-48.4420024138
 20
182.1284908303
 30
0.0
 10
-47.5921498343
 20
181.2947274197
 30
0.0
 10
-46.6908648027
 20
180.5284131071
 30
0.0
 10
-45.7408863669
 20
179.8320568309
 30
0.0
 10
-45.0767114452
 20
179.4155297112
 30
0.0
 10
-44.7379985477
 20
179.2198834744
 30
0.0
  0
SPLINE
  5
41F
100
AcDbEntity
  8
0
100
AcDbSpline
 62
7
  6
CONTINUOUS
 70
0
 71
3
 72
14
 73
10
 74
0
 42
0.0000001
 43
0.0000001
 44
0.0000000001
 40
0.0
 40
0.0
 40
0.0
 40
0.0
 40
0.1196231577
 40
0.2403832839
 40
0.362511283
 40
0.4862233541
 40
0.611718125
 40
0.7391642809
 40
1.0
 40
1.0
 40
1.0
 40
1.0
 10
-57.8681564942
 20
245.2725341167
 30
0.0
 10
-58.2015920932
 20
245.3717960057
 30
0.0
 10
-58.8794916059
 20
245.545816886
 30
0.0
 10
-59.9181983391
 20
245.731557334
 30
0.0
 10
-60.9795353434
 20
245.8424484697
 30
0.0
 10
-62.0597609045
 20
245.8780095978
 30
0.0
 10
-63.1553599628
 20
245.8382991073
 30
0.0
 10
-64.6423521811
 20
245.6837821829
 30
0.0
 10
-65.7525708494
 20
245.4566613134
 30
0.0
 10
-66.4852849335
 20
245.2602532859
 30
0.0
  0
SPLINE
  5
420
100
AcDbEntity
  8
0
100
AcDbSpline
 62
7
  6
CONTINUOUS
 70
0
 71
3
 72
23
 73
19
 74
0
 42
0.0000001
 43
0.0000001
 44
0.0000000001
 40
0.0
 40
0.0
 40
0.0
 40
0.0
 40
0.0576656906
 40
0.0871667028
 40
0.1170940694
 40
0.1781483988
 40
0.2406808457
 40
0.3690986373
 40
0.4345262574
 40
0.5002875319
 40
0.5660378822
 40
0.6314326774
 40
0.7597242888
 40
0.7911290669
 40
0.8221866122
 40
0.883135788
 40
0.9424412902
 40
1.0
 40
1.0
 40
1.0
 40
1.0
 10
-56.206720079
 20
197.5394109847
 30
0.0
 10
-56.3774636063
 20
198.2698073846
 30
0.0
 10
-56.5719395051
 20
199.3898999669
 30
0.0
 10
-56.7120283989
 20
200.9070033477
 30
0.0
 10
-56.7749855204
 20
202.4735592183
 30
0.0
 10
-56.7024537331
 20
204.4727762337
 30
0.0
 10
-56.2700594595
 20
207.725854994
 30
0.0
 10
-55.3728127279
 20
210.9597122922
 30
0.0
 10
-54.0595286097
 20
214.0738050981
 30
0.0
 10
-52.8657563033
 20
216.344019925
 30
0.0
 10
-51.4843222931
 20
218.5047277523
 30
0.0
 10
-49.4298073077
 20
221.1852534585
 30
0.0
 10
-47.351738056
 20
223.2753839654
 30
0.0
 10
-45.4096106834
 20
224.8203410139
 30
0.0
 10
-44.1073212588
 20
225.7598673595
 30
0.0
 10
-42.4297127048
 20
226.7957939929
 30
0.0
 10
-40.3453597965
 20
227.8072353191
 30
0.0
 10
-38.9109328562
 20
228.3215407339
 30
0.0
 10
-38.1927202119
 20
228.5330051698
 30
0.0
  0
SPLINE
  5
421
100
AcDbEntity
  8
0
100
AcDbSpline
 62
7
  6
CONTINUOUS
 70
0
 71
3
 72
21
 73
17
 74
0
 42
0.0000001
 43
0.0000001
 44
0.0000000001
 40
0.0
 40
0.0
 40
0.0
 40
0.0
 40
0.1225856642
 40
0.1854620551
 40
0.2491351174
 40
0.3134090248
 40
0.3780731847
 40
0.5076166026
 40
0.5721276193
 40
0.6361500087
 40
0.6994785087
 40
0.7619263492
 40
0.8233265189
 40
0.8835342806
 40
0.9424449303
 40
1.0
 40
1.0
 40
1.0
 40
1.0
 10
-50.4787597565
 20
196.315130449
 30
0.0
 10
-50.4237779133
 20
197.9067436837
 30
0.0
 10
-50.1448114313
 20
200.3124581688
 30
0.0
 10
-49.4214147209
 20
203.4689318819
 30
0.0
 10
-48.6950378357
 20
205.8415954758
 30
0.0
 10
-47.7953467414
 20
208.1788024687
 30
0.0
 10
-46.3742863443
 20
211.2235492953
 30
0.0
 10
-44.6411759708
 20
214.1181739327
 30
0.0
 10
-42.6304421034
 20
216.8036216694
 30
0.0
 10
-40.9998037125
 20
218.6916819448
 30
0.0
 10
-39.2583103724
 20
220.4402342486
 30
0.0
 10
-37.4199772386
 20
222.0353754585
 30
0.0
 10
-35.4995454351
 20
223.4638707687
 30
0.0
 10
-33.5126258664
 20
224.7144089204
 30
0.0
 10
-31.4751443014
 20
225.7765973191
 30
0.0
 10
-30.0767766385
 20
226.3603849493
 30
0.0
 10
-29.3744836615
 20
226.6170431436
 30
0.0
  0
SPLINE
  5
422
100
AcDbEntity
  8
0
100
AcDbSpline
 62
7
  6
CONTINUOUS
 70
0
 71
3
 72
39
 73
35
 74
0
 42
0.0000001
 43
0.0000001
 44
0.0000000001
 40
0.0
 40
0.0
 40
0.0
 40
0.0
 40
0.0602611314
 40
0.0913667978
 40
0.1230736952
 40
0.1553513726
 40
0.1881495635
 40
0.2214081498
 40
0.2550594184
 40
0.2890297743
 40
0.3232390014
 40
0.3576032173
 40
0.3920358144
 40
0.4264491338
 40
0.4607559469
 40
0.4948704496
 40
0.5287105932
 40
0.5621983108
 40
0.5952625578
 40
0.6278389132
 40
0.6598732116
 40
0.6913206392
 40
0.7221497242
 40
0.7523410298
 40
0.7818911461
 40
0.8108109831
 40
0.8391292298
 40
0.8668900833
 40
0.8805839819
 40
0.8941630101
 40
0.9210094267
 40
0.9475282637
 40
0.9738215537
 40
1.0
 40
1.0
 40
1.0
 40
1.0
 10
-66.5929061073
 20
245.2310646253
 30
0.0
 10
-67.5976923022
 20
244.955374259
 30
0.0
 10
-69.0895545593
 20
244.4114024937
 30
0.0
 10
-70.9980752986
 20
243.4678754891
 30
0.0
 10
-72.4179904507
 20
242.6360815766
 30
0.0
 10
-73.8016986315
 20
241.6928856162
 30
0.0
 10
-75.1414346785
 20
240.6441019638
 30
0.0
 10
-76.4288261005
 20
239.4957885844
 30
0.0
 10
-77.6564066501
 20
238.2551217923
 30
0.0
 10
-78.8165895059
 20
236.9293324619
 30
0.0
 10
-79.9026792405
 20
235.5266003606
 30
0.0
 10
-80.9078898496
 20
234.0551483731
 30
0.0
 10
-81.8264632979
 20
232.5240021882
 30
0.0
 10
-82.6526052713
 20
230.9421873324
 30
0.0
 10
-83.3816408824
 20
229.3193530682
 30
0.0
 10
-84.0088921948
 20
227.6651044995
 30
0.0
 10
-84.5308837617
 20
225.9894884107
 30
0.0
 10
-84.9441626719
 20
224.3024570393
 30
0.0
 10
-85.2465381111
 20
222.6142136223
 30
0.0
 10
-85.435854735
 20
220.934819186
 30
0.0
 10
-85.5112578618
 20
219.2743900464
 30
0.0
 10
-85.4719307753
 20
217.6428610777
 30
0.0
 10
-85.3183716749
 20
216.0500243674
 30
0.0
 10
-85.0511124298
 20
214.5054646778
 30
0.0
 10
-84.6719920634
 20
213.0184330329
 30
0.0
 10
-84.1828701829
 20
211.5979430526
 30
0.0
 10
-83.5869263219
 20
210.2525688966
 30
0.0
 10
-83.0011387095
 20
209.1958733128
 30
0.0
 10
-82.4827893249
 20
208.3975449325
 30
0.0
 10
-81.9367413459
 20
207.6372994349
 30
0.0
 10
-81.1946697202
 20
206.7464451155
 30
0.0
 10
-80.2118101877
 20
205.7783535292
 30
0.0
 10
-79.1456159747
 20
204.9212380727
 30
0.0
 10
-78.3827913225
 20
204.4266950573
 30
0.0
 10
-77.9908945407
 20
204.2002238877
 30
0.0
  0
ELLIPSE
  5
423
100
AcDbEntity
  8
0
100
AcDbEllipse
 62
7
  6
CONTINUOUS
 10
-37.7801944675
 20
207.5360300265
 30
0.0
 11
-5.9423939108
 21
24.9149604799
 31
0.0
 40
0.7681878566
 41
-0.087579325
 42
0.1302423419
  0
ELLIPSE
  5
424
100
AcDbEntity
  8
0
100
AcDbEllipse
 62
7
  6
CONTINUOUS
 10
-49.0407190388
 20
214.0398998917
 30
0.0
 11
9.041915495
 21
21.2168443174
 31
0.0
 40
0.7898593978
 41
0.4924364009
 42
0.6632249832
  0
ENDSEC
  0
SECTION
  2
OBJECTS
  0
DICTIONARY
  5
C
100
AcDbDictionary
280
0
281
1
  3
ACAD_GROUP
350
D
  3
ACAD_MLINESTYLE
350
17
  3
ACAD_LAYOUT
350
1A
  3
ACAD_PLOTSETTINGS
350
19
  3
ACAD_PLOTSTYLENAME
350
E
  0
DICTIONARY
  5
D
102
{ACAD_REACTORS
330
C
102
}
100
AcDbDictionary
280
0
281
1
  0
ACDBDICTIONARYWDFLT
  5
E
102
{ACAD_REACTORS
330
C
102
}
100
AcDbDictionary
281
1
  3
Normal
350
F
100
AcDbDictionaryWithDefault
340
F
  0
DICTIONARY
  5
17
102
{ACAD_REACTORS
330
C
102
}
100
AcDbDictionary
280
0
281
1
  3
Standard
350
18
  0
DICTIONARY
  5
19
102
{ACAD_REACTORS
330
C
102
}
100
AcDbDictionary
281
1
  0
DICTIONARY
  5
1A
102
{ACAD_REACTORS
330
C
102
}
100
AcDbDictionary
281
1
  3
Model
350
425
  3
Layout1
350
426
  0
ACDBPLACEHOLDER
  5
F
102
{ACAD_REACTORS
330
E
102
}
  0
MLINESTYLE
  5
18
102
{ACAD_REACTORS
330
17
102
}
100
AcDbMlineStyle
  2
STANDARD
 70
0
  3

 62
256
 51
90.0
 52
90.0
 71
2
 49
0.5
 62
256
  6
BYLAYER
 49
-0.5
 62
256
  6
BYLAYER
  0
LAYOUT
  5
425
102
{ACAD_REACTORS
330
1A
102
}
100
AcDbPlotSettings
  1

  2
none_device
  4
ANSI_C_(22.00_x_17.00_Inches)
  6

 40
0.0
 41
0.0
 42
0.0
 43
0.0
 44
558.8
 45
431.8
 46
0.0
 47
0.0
 48
0.0
 49
0.0
140
0.0
141
0.0
142
1.0
143
1.0
 70
1024
 72
1
 73
0
 74
0
  7

 75
0
147
1.0
148
0.0
149
0.0
100
AcDbLayout
  1
Model
 70
0
 71
0
 10
0.0
 20
0.0
 11
558.8
 21
431.8
 12
0.0
 22
0.0
 32
0.0
 14
0.0
 24
0.0
 34
0.0
 15
0.0
 25
0.0
 35
0.0
146
0.0
 13
0.0
 23
0.0
 33
0.0
 16
1.0
 26
0.0
 36
0.0
 17
0.0
 27
1.0
 37
0.0
 76
0
330
1FF
345
0
346
0
  0
LAYOUT
  5
426
102
{ACAD_REACTORS
330
1A
102
}
100
AcDbPlotSettings
  1

  2
none_device
  4
ANSI_C_(22.00_x_17.00_Inches)
  6

 40
0.0
 41
0.0
 42
0.0
 43
0.0
 44
558.8
 45
431.8
 46
0.0
 47
0.0
 48
0.0
 49
0.0
140
0.0
141
0.0
142
1.0
143
1.0
 70
0
 72
1
 73
0
 74
0
  7

 75
0
147
1.0
148
0.0
149
0.0
100
AcDbLayout
  1
Layout1
 70
0
 71
1
 10
0.0
 20
0.0
 11
558.8
 21
431.8
 12
0.0
 22
0.0
 32
0.0
 14
0.0
 24
0.0
 34
0.0
 15
0.0
 25
0.0
 35
0.0
146
0.0
 13
0.0
 23
0.0
 33
0.0
 16
1.0
 26
0.0
 36
0.0
 17
0.0
 27
1.0
 37
0.0
 76
0
330
200
345
0
346
0
  0
ENDSEC
  0
EOF
