999
DXF file: Y:\3D PRATIKA-KAEDRA_OLGA\TRAVAIL_PHASE_2\CAD3D\PKF16M435_3D-Simplified\PKF16M435_2D-isometric.dxf
999
Pro/ENGINEER 2018260 by Parametric Technology Corporation
  0
SECTION
  2
HEADER
  9
$ACADVER
  1
AC1027
  9
$DWGCODEPAGE
  3
ANSI_1252
  9
$EXTMAX
 10
558.8
 20
431.8
 30
0.0
  9
$EXTMIN
 10
0.0
 20
0.0
 30
0.0
  9
$LIMMIN
 10
0.0
 20
0.0
  9
$LIMMAX
 10
558.8
 20
431.8
  9
$VIEWCTR
 10
279.4
 20
215.9
  9
$VIEWSIZE
 40
431.8
  9
$CLAYER
  8
0
  9
$LTSCALE
 40
30.734
  9
$CELTYPE
  6
BYLAYER
  9
$DIMSCALE
 40
1.0
  9
$DIMASZ
 40
0.1875
  9
$DIMEXO
 40
0.0625
  9
$DIMDLI
 40
21.2344
  9
$DIMEXE
 40
0.125
  9
$DIMCEN
 40
5.0292
  9
$DIMLFAC
 40
1.0
  9
$DIMBLK
  1
_CLOSED
  9
$DIMALT
 70
0
  9
$DIMALTF
 40
0.0393700787
  9
$DIMTXT
 40
0.15625
  9
$DIMTOL
 70
0
  9
$DIMLIM
 70
0
  9
$DIMTFAC
 40
1.0
  9
$DIMGAP
 40
0.625
  9
$DIMDSEP
 70
46
  9
$AUNITS
 70
0
  9
$PDMODE
 70
3
  9
$PDSIZE
 40
0.3125
  9
$HANDSEED
  5
3F8
  9
$TILEMODE
 70
1
  9
$MEASUREMENT
 70
1
  9
$INSUNITS
 70
4
  0
ENDSEC
  0
SECTION
  2
CLASSES
  0
CLASS
  1
ACDBDICTIONARYWDFLT
  2
AcDbDictionaryWithDefault
  3
AutoCAD 2000
 90
0
 91
1
280
0
281
0
  0
CLASS
  1
ACDBPLACEHOLDER
  2
AcDbPlaceHolder
  3
AutoCAD 2000
 90
0
 91
1
280
0
281
0
  0
CLASS
  1
LAYOUT
  2
AcDbLayout
  3
AutoCAD 2000
 90
0
 91
0
280
0
281
0
  0
ENDSEC
  0
SECTION
  2
TABLES
  0
TABLE
  2
VPORT
  5
8
100
AcDbSymbolTable
 70
2
  0
VPORT
  5
1F4
100
AcDbSymbolTableRecord
100
AcDbViewportTableRecord
  2
*ACTIVE
 70
0
 10
0.0
 20
0.0
 11
1.0
 21
1.0
 12
279.4
 22
215.9
 13
0.0
 23
0.0
 14
1.0
 24
1.0
 15
0.0
 25
0.0
 16
0.0
 26
0.0
 36
1.0
 17
0.0
 27
0.0
 37
0.0
 40
431.8
 41
1.2941176471
 42
50.0
 43
0.0
 44
0.0
 50
0.0
 51
0.0
 71
0
 72
100
 73
1
 74
1
 75
0
 76
0
 77
0
 78
0
  0
ENDTAB
  0
TABLE
  2
LTYPE
  5
5
100
AcDbSymbolTable
 70
6
  0
LTYPE
  5
14
100
AcDbSymbolTableRecord
100
AcDbLinetypeTableRecord
  2
BYBLOCK
 70
0
  3

 72
65
 73
0
 40
0.0
  0
LTYPE
  5
15
100
AcDbSymbolTableRecord
100
AcDbLinetypeTableRecord
  2
BYLAYER
 70
0
  3

 72
65
 73
0
 40
0.0
  0
LTYPE
  5
16
100
AcDbSymbolTableRecord
100
AcDbLinetypeTableRecord
  2
CONTINUOUS
 70
64
  3
Solid line
 72
65
 73
0
 40
0.0
  0
LTYPE
  5
1F5
100
AcDbSymbolTableRecord
100
AcDbLinetypeTableRecord
  2
CENTER
 70
64
  3
____ _ ____ _ ____ _ ____ _ ____ _ ____ _ ____
 72
65
 73
4
 40
0.6
 49
0.375
 74
0
 49
-0.075
 74
0
 49
0.075
 74
0
 49
-0.075
 74
0
  0
LTYPE
  5
1F6
100
AcDbSymbolTableRecord
100
AcDbLinetypeTableRecord
  2
HIDDEN
 70
64
  3
- - - - - - - - - - - - - - - - - - - -
 72
65
 73
2
 40
0.2
 49
0.1
 74
0
 49
-0.1
 74
0
  0
LTYPE
  5
1F7
100
AcDbSymbolTableRecord
100
AcDbLinetypeTableRecord
  2
PHANTOM
 70
64
  3
_____ _ _ _____ _ _ _____ _ _ _____
 72
65
 73
6
 40
0.8
 49
0.45
 74
0
 49
-0.05
 74
0
 49
0.1
 74
0
 49
-0.05
 74
0
 49
0.1
 74
0
 49
-0.05
 74
0
  0
LTYPE
  5
1F8
100
AcDbSymbolTableRecord
100
AcDbLinetypeTableRecord
  2
DOT
 70
64
  3
. . . . . . . . . . . . . . . . . . . .
 72
65
 73
2
 40
0.2
 49
0.1
 74
0
 49
-0.1
 74
0
  0
LTYPE
  5
1F9
100
AcDbSymbolTableRecord
100
AcDbLinetypeTableRecord
  2
DASHED
 70
64
  3
- - - - - - - - - - - - - - - - - - - -
 72
65
 73
2
 40
0.2
 49
0.1
 74
0
 49
-0.1
 74
0
  0
ENDTAB
  0
TABLE
  2
LAYER
  5
2
100
AcDbSymbolTable
 70
36
  0
LAYER
  5
10
100
AcDbSymbolTableRecord
100
AcDbLayerTableRecord
  2
0
 70
0
 62
7
  6
CONTINUOUS
370
-3
390
F
  0
LAYER
  5
1FA
100
AcDbSymbolTableRecord
100
AcDbLayerTableRecord
  2
DEFAULT_1
 70
0
 62
7
  6
CENTER
370
-3
390
F
  0
LAYER
  5
1FB
100
AcDbSymbolTableRecord
100
AcDbLayerTableRecord
  2
DEFAULT_2
 70
0
 62
8
  6
HIDDEN
370
-3
390
F
  0
LAYER
  5
1FC
100
AcDbSymbolTableRecord
100
AcDbLayerTableRecord
  2
DEFAULT_3
 70
0
 62
7
  6
PHANTOM
370
-3
390
F
  0
LAYER
  5
1FD
100
AcDbSymbolTableRecord
100
AcDbLayerTableRecord
  2
01_ALL_DTM_PLN
 70
0
 62
7
  6
CONTINUOUS
370
-3
390
F
  0
LAYER
  5
1FE
100
AcDbSymbolTableRecord
100
AcDbLayerTableRecord
  2
01__ASM_ALL_DTM_PLN
 70
0
 62
7
  6
CONTINUOUS
370
-3
390
F
  0
LAYER
  5
1FF
100
AcDbSymbolTableRecord
100
AcDbLayerTableRecord
  2
01__ASM_DEF_DTM_PLN
 70
0
 62
7
  6
CONTINUOUS
370
-3
390
F
  0
LAYER
  5
200
100
AcDbSymbolTableRecord
100
AcDbLayerTableRecord
  2
01___PRT_ALL_DTM_PLN
 70
0
 62
7
  6
CONTINUOUS
370
-3
390
F
  0
LAYER
  5
201
100
AcDbSymbolTableRecord
100
AcDbLayerTableRecord
  2
01___PRT_DEF_DTM_PLN
 70
0
 62
7
  6
CONTINUOUS
370
-3
390
F
  0
LAYER
  5
202
100
AcDbSymbolTableRecord
100
AcDbLayerTableRecord
  2
02_ALL_AXES
 70
0
 62
7
  6
CONTINUOUS
370
-3
390
F
  0
LAYER
  5
203
100
AcDbSymbolTableRecord
100
AcDbLayerTableRecord
  2
02__ASM_ALL_AXES
 70
0
 62
7
  6
CONTINUOUS
370
-3
390
F
  0
LAYER
  5
204
100
AcDbSymbolTableRecord
100
AcDbLayerTableRecord
  2
02___PRT_ALL_AXES
 70
0
 62
7
  6
CONTINUOUS
370
-3
390
F
  0
LAYER
  5
205
100
AcDbSymbolTableRecord
100
AcDbLayerTableRecord
  2
03_ALL_CURVES
 70
0
 62
7
  6
CONTINUOUS
370
-3
390
F
  0
LAYER
  5
206
100
AcDbSymbolTableRecord
100
AcDbLayerTableRecord
  2
03__ASM_ALL_CURVES
 70
0
 62
7
  6
CONTINUOUS
370
-3
390
F
  0
LAYER
  5
207
100
AcDbSymbolTableRecord
100
AcDbLayerTableRecord
  2
03___PRT_ALL_CURVES
 70
0
 62
7
  6
CONTINUOUS
370
-3
390
F
  0
LAYER
  5
208
100
AcDbSymbolTableRecord
100
AcDbLayerTableRecord
  2
04_ALL_DTM_PNT
 70
0
 62
7
  6
CONTINUOUS
370
-3
390
F
  0
LAYER
  5
209
100
AcDbSymbolTableRecord
100
AcDbLayerTableRecord
  2
04__ASM_ALL_DTM_PNT
 70
0
 62
7
  6
CONTINUOUS
370
-3
390
F
  0
LAYER
  5
20A
100
AcDbSymbolTableRecord
100
AcDbLayerTableRecord
  2
04___PRT_ALL_DTM_PNT
 70
0
 62
7
  6
CONTINUOUS
370
-3
390
F
  0
LAYER
  5
20B
100
AcDbSymbolTableRecord
100
AcDbLayerTableRecord
  2
05_ALL_DTM_CSYS
 70
0
 62
7
  6
CONTINUOUS
370
-3
390
F
  0
LAYER
  5
20C
100
AcDbSymbolTableRecord
100
AcDbLayerTableRecord
  2
05__ASM_ALL_DTM_CSYS
 70
0
 62
7
  6
CONTINUOUS
370
-3
390
F
  0
LAYER
  5
20D
100
AcDbSymbolTableRecord
100
AcDbLayerTableRecord
  2
05__ASM_DEF_DTM_CSYS
 70
0
 62
7
  6
CONTINUOUS
370
-3
390
F
  0
LAYER
  5
20E
100
AcDbSymbolTableRecord
100
AcDbLayerTableRecord
  2
05___PRT_ALL_DTM_CSYS
 70
0
 62
7
  6
CONTINUOUS
370
-3
390
F
  0
LAYER
  5
20F
100
AcDbSymbolTableRecord
100
AcDbLayerTableRecord
  2
05___PRT_DEF_DTM_CSYS
 70
0
 62
7
  6
CONTINUOUS
370
-3
390
F
  0
LAYER
  5
210
100
AcDbSymbolTableRecord
100
AcDbLayerTableRecord
  2
06_ALL_SURFS
 70
0
 62
7
  6
CONTINUOUS
370
-3
390
F
  0
LAYER
  5
211
100
AcDbSymbolTableRecord
100
AcDbLayerTableRecord
  2
06__ASM_ALL_SURFS
 70
0
 62
7
  6
CONTINUOUS
370
-3
390
F
  0
LAYER
  5
212
100
AcDbSymbolTableRecord
100
AcDbLayerTableRecord
  2
06___PRT_ALL_SURFS
 70
0
 62
7
  6
CONTINUOUS
370
-3
390
F
  0
LAYER
  5
213
100
AcDbSymbolTableRecord
100
AcDbLayerTableRecord
  2
07__ASM_ALL_SKELETONS
 70
0
 62
7
  6
CONTINUOUS
370
-3
390
F
  0
ENDTAB
  0
TABLE
  2
STYLE
  5
3
100
AcDbSymbolTable
 70
1
  0
STYLE
  5
11
100
AcDbSymbolTableRecord
100
AcDbTextStyleTableRecord
  2
STANDARD
 70
0
 40
0.0
 41
0.8
 50
0.0
 71
0
 42
0.2
  3
txt
  4

  0
STYLE
  5
214
100
AcDbSymbolTableRecord
100
AcDbTextStyleTableRecord
  2
TEXTSTYLE_1
 70
0
 40
0.0
 41
0.8
 50
0.0
 71
0
 42
0.2
  3
gdt
  4

  0
ENDTAB
  0
TABLE
  2
VIEW
  5
6
100
AcDbSymbolTable
 70
0
  0
ENDTAB
  0
TABLE
  2
UCS
  5
7
100
AcDbSymbolTable
 70
0
  0
ENDTAB
  0
TABLE
  2
APPID
  5
9
100
AcDbSymbolTable
 70
1
  0
APPID
  5
215
100
AcDbSymbolTableRecord
100
AcDbRegAppTableRecord
  2
ACAD
 70
0
  0
ENDTAB
  0
TABLE
  2
BLOCK_RECORD
  5
1
100
AcDbSymbolTable
 70
0
  0
BLOCK_RECORD
  5
216
100
AcDbSymbolTableRecord
100
AcDbBlockTableRecord
  2
*Model_Space
  0
BLOCK_RECORD
  5
217
100
AcDbSymbolTableRecord
100
AcDbBlockTableRecord
  2
*Paper_Space
  0
BLOCK_RECORD
  5
218
100
AcDbSymbolTableRecord
100
AcDbBlockTableRecord
  2
_CLOSED
  0
ENDTAB
  0
TABLE
  2
DIMSTYLE
  5
A
100
AcDbSymbolTable
 70
1
100
AcDbDimStyleTable
 71
0
  0
DIMSTYLE
105
219
100
AcDbSymbolTableRecord
100
AcDbDimStyleTableRecord
  2
STANDARD
 70
0
  3

  4

 40
1.0
 41
0.1875
 42
0.0625
 43
0.38
 44
0.125
 45
0.0
 46
0.0
 47
0.01
 48
0.01
140
0.15625
141
0.09
142
0.0
143
25.4
144
1.0
145
0.0
146
1.0
147
0.625
 71
0.0
 72
0.0
 73
1
 74
1
 75
0
 76
0
 77
0
 78
8
 79
2
170
0
171
1
172
0
173
0
174
0
175
0
176
0
177
0
178
0
270
2
179
2
271
2
272
2
273
2
274
2
275
0
280
0
281
0
282
0
283
1
284
8
285
0
286
0
287
3
288
0
340
11
278
46
341
218
342
218
343
218
344
218
  0
ENDTAB
  0
ENDSEC
  0
SECTION
  2
BLOCKS
  0
BLOCK
  5
20
100
AcDbEntity
  8
0
100
AcDbBlockBegin
  2
*Model_Space
 70
0
 10
0.0
 20
0.0
 30
0.0
  3
*Model_Space
  1

  0
ENDBLK
  5
21
100
AcDbEntity
  8
0
100
AcDbBlockEnd
  0
BLOCK
  5
1C
100
AcDbEntity
  8
0
100
AcDbBlockBegin
  2
*Paper_Space
 70
0
 10
0.0
 20
0.0
 30
0.0
  3
*Paper_Space
  1

  0
ENDBLK
  5
1D
100
AcDbEntity
  8
0
100
AcDbBlockEnd
  0
BLOCK
  5
21A
100
AcDbEntity
  8
0
100
AcDbBlockBegin
  2
_CLOSED
 70
64
 10
0.0
 20
0.0
  3
_CLOSED
  1

  0
LINE
  5
21B
100
AcDbEntity
  8
0
  6
BYBLOCK
 62
0
100
AcDbLine
 10
0.0
 20
0.0
 11
-1.0
 21
0.1666666667
  0
LINE
  5
21C
100
AcDbEntity
  8
0
  6
BYBLOCK
 62
0
100
AcDbLine
 10
-1.0
 20
0.1666666667
 11
-1.0
 21
-0.1666666667
  0
LINE
  5
21D
100
AcDbEntity
  8
0
  6
BYBLOCK
 62
0
100
AcDbLine
 10
-1.0
 20
-0.1666666667
 11
0.0
 21
0.0
  0
LINE
  5
21E
100
AcDbEntity
  8
0
  6
BYBLOCK
 62
0
100
AcDbLine
 10
-1.0
 20
0.0
 11
0.0
 21
0.0
  0
ENDBLK
  5
21F
100
AcDbEntity
  8
0
  6
BYBLOCK
 62
0
100
AcDbBlockEnd
  0
ENDSEC
  0
SECTION
  2
ENTITIES
  0
LINE
  5
220
100
AcDbEntity
  8
0
100
AcDbLine
 62
7
  6
CONTINUOUS
 10
-134.5972011828
 20
234.2293976405
 11
-134.5971813415
 21
234.2294847421
  0
LINE
  5
221
100
AcDbEntity
  8
0
100
AcDbLine
 62
7
  6
CONTINUOUS
 10
-126.5515147927
 20
247.0127320593
 11
-126.5656323156
 21
246.9919140781
  0
LINE
  5
222
100
AcDbEntity
  8
0
100
AcDbLine
 62
7
  6
CONTINUOUS
 10
-126.5515147927
 20
247.0127320593
 11
-126.5662770811
 21
246.9924628304
  0
LINE
  5
223
100
AcDbEntity
  8
0
100
AcDbLine
 62
7
  6
CONTINUOUS
 10
-136.6528683049
 20
219.9467647217
 11
-136.6528891517
 21
219.9468468512
  0
LWPOLYLINE
  5
224
100
AcDbEntity
  8
0
100
AcDbPolyline
 62
7
  6
CONTINUOUS
 90
6
 70
0
 10
-123.3153584178
 20
202.5854669072
 10
-123.3078435995
 20
202.4688248152
 10
-123.2349549719
 20
202.2145513039
 10
-123.0861376459
 20
201.9905927053
 10
-122.869037124
 20
201.8181013345
 10
-122.6687767825
 20
201.7337344357
  0
LINE
  5
225
100
AcDbEntity
  8
0
100
AcDbLine
 62
7
  6
CONTINUOUS
 10
-123.3153253328
 20
202.5854267761
 11
-123.3153254885
 21
202.6961471431
  0
LINE
  5
226
100
AcDbEntity
  8
0
100
AcDbLine
 62
7
  6
CONTINUOUS
 10
-122.9738908918
 20
202.5167942854
 11
-122.9738908918
 21
202.3989989919
  0
LWPOLYLINE
  5
227
100
AcDbEntity
  8
0
100
AcDbPolyline
 62
7
  6
CONTINUOUS
 90
6
 70
0
 10
-132.4685351572
 20
209.218623057
 10
-132.5235880429
 20
209.067864322
 10
-132.5620401421
 20
208.7509101844
 10
-132.5011530533
 20
208.429886652
 10
-132.3417066062
 20
208.1422903207
 10
-132.2089332184
 20
208.0045101367
  0
LINE
  5
228
100
AcDbEntity
  8
0
100
AcDbLine
 62
7
  6
CONTINUOUS
 10
-132.4685003214
 20
209.2186260503
 11
-132.1651529659
 21
209.8844067199
  0
LINE
  5
229
100
AcDbEntity
  8
0
100
AcDbLine
 62
7
  6
CONTINUOUS
 10
-131.8201929594
 20
209.6950848375
 11
-132.1280037004
 21
209.0195080192
  0
LINE
  5
22A
100
AcDbEntity
  8
0
100
AcDbLine
 62
7
  6
CONTINUOUS
 10
-101.7642483353
 20
254.1864997829
 11
-101.7665327796
 21
254.1776149597
  0
LWPOLYLINE
  5
22B
100
AcDbEntity
  8
0
100
AcDbPolyline
 62
7
  6
CONTINUOUS
 90
6
 70
0
 10
-136.3194567258
 20
221.133230686
 10
-136.3985229698
 20
221.0527031841
 10
-136.5559680211
 20
220.8183732033
 10
-136.657416689
 20
220.535814305
 10
-136.6897650038
 20
220.2269813575
 10
-136.6528840025
 20
219.9467360893
  0
LINE
  5
22C
100
AcDbEntity
  8
0
100
AcDbLine
 62
7
  6
CONTINUOUS
 10
-136.3194449149
 20
221.1331989793
 11
-135.7898211826
 21
221.6153138451
  0
LINE
  5
22D
100
AcDbEntity
  8
0
100
AcDbLine
 62
7
  6
CONTINUOUS
 10
-135.4438368133
 20
221.423060173
 11
-135.9769116696
 21
220.9378037597
  0
LINE
  5
22E
100
AcDbEntity
  8
0
100
AcDbLine
 62
7
  6
CONTINUOUS
 10
-114.9694914337
 20
255.0583122591
 11
-114.9695853444
 21
255.05825942
  0
LINE
  5
22F
100
AcDbEntity
  8
0
100
AcDbLine
 62
7
  6
CONTINUOUS
 10
-132.1918253834
 20
209.8357729212
 11
-132.2056910074
 21
209.8558520069
  0
LINE
  5
230
100
AcDbEntity
  8
0
100
AcDbLine
 62
7
  6
CONTINUOUS
 10
-132.1836031586
 20
209.8439126084
 11
-132.1966179365
 21
209.8648181945
  0
LINE
  5
231
100
AcDbEntity
  8
0
100
AcDbLine
 62
7
  6
CONTINUOUS
 10
-101.683948296
 20
255.1836032655
 11
-101.6832715839
 21
255.1938355817
  0
LINE
  5
232
100
AcDbEntity
  8
0
100
AcDbLine
 62
7
  6
CONTINUOUS
 10
-101.765277884
 20
254.1883459112
 11
-101.7665327796
 21
254.1776149597
  0
LINE
  5
233
100
AcDbEntity
  8
0
100
AcDbLine
 62
7
  6
CONTINUOUS
 10
-101.6832715885
 20
254.5016831624
 11
-101.683948296
 21
254.4988082164
  0
LINE
  5
234
100
AcDbEntity
  8
0
100
AcDbLine
 62
7
  6
CONTINUOUS
 10
-113.3934320319
 20
254.2921691091
 11
-113.3825739769
 21
254.2217714532
  0
LWPOLYLINE
  5
235
100
AcDbEntity
  8
0
100
AcDbPolyline
 62
7
  6
CONTINUOUS
 90
7
 70
0
 10
-101.6832389557
 20
255.1940860533
 10
-101.7013231919
 20
255.3740313243
 10
-101.786865428
 20
255.6116289022
 10
-101.9395550987
 20
255.8170957696
 10
-102.152833717
 20
255.9740779172
 10
-102.4153793412
 20
256.0664516407
 10
-102.5747671627
 20
256.0845913301
  0
LINE
  5
236
100
AcDbEntity
  8
0
100
AcDbLine
 62
7
  6
CONTINUOUS
 10
-101.7790051281
 20
254.190294014
 11
-101.7790482268
 21
254.2131641537
  0
LINE
  5
237
100
AcDbEntity
  8
0
100
AcDbLine
 62
7
  6
CONTINUOUS
 10
-101.6832734754
 20
255.1943767385
 11
-101.6832715839
 21
254.5019215423
  0
LWPOLYLINE
  5
238
100
AcDbEntity
  8
0
100
AcDbPolyline
 62
7
  6
CONTINUOUS
 90
6
 70
0
 10
-133.7893955861
 20
235.1759652553
 10
-133.9970117236
 20
235.0904344548
 10
-134.2135232294
 20
234.9273925861
 10
-134.4005163724
 20
234.6978794678
 10
-134.541065442
 20
234.4165290481
 10
-134.5972142954
 20
234.2294272249
  0
LINE
  5
239
100
AcDbEntity
  8
0
100
AcDbLine
 62
7
  6
CONTINUOUS
 10
-132.2089067369
 20
208.0045206419
 11
-132.2090761066
 21
208.0046651871
  0
LINE
  5
23A
100
AcDbEntity
  8
0
100
AcDbLine
 62
7
  6
CONTINUOUS
 10
-113.690366286
 20
254.7322969856
 11
-113.7174207961
 21
254.8295591979
  0
LINE
  5
23B
100
AcDbEntity
  8
0
100
AcDbLine
 62
7
  6
CONTINUOUS
 10
-132.177251158
 20
207.9822571271
 11
-132.2089067369
 21
208.0045206419
  0
LWPOLYLINE
  5
23C
100
AcDbEntity
  8
0
100
AcDbPolyline
 62
7
  6
CONTINUOUS
 90
3
 70
0
 10
-101.5774554128
 20
252.5474617916
 10
-101.7427758243
 20
253.5582198255
 10
-101.7789976389
 20
254.1897538731
  0
LINE
  5
23D
100
AcDbEntity
  8
0
100
AcDbLine
 62
7
  6
CONTINUOUS
 10
-82.2776596741
 20
233.4790141208
 11
-82.9239409941
 21
245.9143977211
  0
LINE
  5
23E
100
AcDbEntity
  8
0
100
AcDbLine
 62
7
  6
CONTINUOUS
 10
-81.378970219
 20
242.5573887182
 11
-80.8647442558
 21
232.6629404154
  0
LINE
  5
23F
100
AcDbEntity
  8
0
100
AcDbLine
 62
7
  6
CONTINUOUS
 10
-128.553792148
 20
205.6261457201
 11
-128.6655488958
 21
205.6900014947
  0
LINE
  5
240
100
AcDbEntity
  8
0
100
AcDbLine
 62
7
  6
CONTINUOUS
 10
-128.6651748734
 20
205.5079582181
 11
-128.5672089897
 21
205.4520669291
  0
LINE
  5
241
100
AcDbEntity
  8
0
100
AcDbLine
 62
7
  6
CONTINUOUS
 10
-45.2092352414
 20
153.6475096802
 11
-49.7133595568
 21
156.2490082355
  0
LINE
  5
242
100
AcDbEntity
  8
0
100
AcDbLine
 62
7
  6
CONTINUOUS
 10
-52.8579746543
 20
158.6426875826
 11
-71.4208905346
 21
169.3642830499
  0
LINE
  5
243
100
AcDbEntity
  8
0
100
AcDbLine
 62
7
  6
CONTINUOUS
 10
-36.0419758122
 20
151.211552576
 11
-32.2053321292
 21
148.9955784377
  0
LINE
  5
244
100
AcDbEntity
  8
0
100
AcDbLine
 62
7
  6
CONTINUOUS
 10
-105.5161499988
 20
194.8311523856
 11
-82.0253740081
 21
181.2633164373
  0
LINE
  5
245
100
AcDbEntity
  8
0
100
AcDbLine
 62
7
  6
CONTINUOUS
 10
-51.3671694949
 20
164.8542777664
 11
-32.3470685539
 21
153.8686206986
  0
LINE
  5
246
100
AcDbEntity
  8
0
100
AcDbLine
 62
7
  6
CONTINUOUS
 10
-128.5546778673
 20
205.6224745833
 11
-128.6655488958
 21
205.6900014947
  0
LINE
  5
247
100
AcDbEntity
  8
0
100
AcDbLine
 62
7
  6
CONTINUOUS
 10
-81.2796158005
 20
207.2811696984
 11
-81.2695304299
 21
207.3027914522
  0
LINE
  5
248
100
AcDbEntity
  8
0
100
AcDbLine
 62
7
  6
CONTINUOUS
 10
-78.1952327218
 20
212.6255002554
 11
-78.1837413194
 21
212.641905427
  0
LINE
  5
249
100
AcDbEntity
  8
0
100
AcDbLine
 62
7
  6
CONTINUOUS
 10
-41.8024825331
 20
161.495769735
 11
-52.3328251304
 21
167.5779000527
  0
LINE
  5
24A
100
AcDbEntity
  8
0
100
AcDbLine
 62
7
  6
CONTINUOUS
 10
-116.2805527892
 20
204.6284015434
 11
-111.981053957
 21
202.1450908669
  0
LINE
  5
24B
100
AcDbEntity
  8
0
100
AcDbLine
 62
7
  6
CONTINUOUS
 10
-35.2926023765
 20
159.7141745974
 11
-26.5619443879
 21
154.6715086864
  0
LINE
  5
24C
100
AcDbEntity
  8
0
100
AcDbLine
 62
7
  6
CONTINUOUS
 10
-26.5619443879
 20
155.4193549493
 11
-34.0282208425
 21
159.731737568
  0
LWPOLYLINE
  5
24D
100
AcDbEntity
  8
0
100
AcDbPolyline
 62
7
  6
CONTINUOUS
 90
7
 70
0
 10
-113.7175675455
 20
254.829875493
 10
-113.767581869
 20
254.9029317045
 10
-113.9469332509
 20
255.0708386154
 10
-114.1836380263
 20
255.1789012067
 10
-114.4680533516
 20
255.2090232944
 10
-114.7747594592
 20
255.1470529872
 10
-114.9695596408
 20
255.0582975745
  0
LINE
  5
24E
100
AcDbEntity
  8
0
100
AcDbLine
 62
7
  6
CONTINUOUS
 10
-113.3825739769
 20
254.2217714532
 11
-113.690366286
 21
254.7322969856
  0
LINE
  5
24F
100
AcDbEntity
  8
0
100
AcDbLine
 62
7
  6
CONTINUOUS
 10
-113.7177101551
 20
254.8300374652
 11
-113.3934491145
 21
254.2921974435
  0
LINE
  5
250
100
AcDbEntity
  8
0
100
AcDbLine
 62
7
  6
CONTINUOUS
 10
-122.6689207204
 20
201.7337764254
 11
-122.6687767825
 21
201.7337344357
  0
LINE
  5
251
100
AcDbEntity
  8
0
100
AcDbLine
 62
7
  6
CONTINUOUS
 10
-109.7746149239
 20
197.2853870254
 11
-109.5973660636
 21
197.2308593663
  0
LINE
  5
252
100
AcDbEntity
  8
0
100
AcDbLine
 62
7
  6
CONTINUOUS
 10
-110.195621121
 20
197.4169181993
 11
-110.1214147918
 21
197.3935331576
  0
LINE
  5
253
100
AcDbEntity
  8
0
100
AcDbLine
 62
7
  6
CONTINUOUS
 10
-113.9307103201
 20
198.7438373556
 11
-113.6700691144
 21
198.6514462792
  0
LINE
  5
254
100
AcDbEntity
  8
0
100
AcDbLine
 62
7
  6
CONTINUOUS
 10
-110.1947330852
 20
197.4195227398
 11
-110.1214147918
 21
197.3935331576
  0
LINE
  5
255
100
AcDbEntity
  8
0
100
AcDbLine
 62
7
  6
CONTINUOUS
 10
-113.9508063455
 20
198.689537218
 11
-113.6906099185
 21
198.5956353294
  0
LINE
  5
256
100
AcDbEntity
  8
0
100
AcDbLine
 62
7
  6
CONTINUOUS
 10
-113.653419964
 20
198.6903592315
 11
-113.5673107965
 21
198.6566971496
  0
LINE
  5
257
100
AcDbEntity
  8
0
100
AcDbLine
 62
7
  6
CONTINUOUS
 10
-75.9416695212
 20
229.8194638786
 11
-76.3329990014
 21
231.4510403655
  0
LINE
  5
258
100
AcDbEntity
  8
0
100
AcDbLine
 62
7
  6
CONTINUOUS
 10
-74.5220414171
 20
229.5945316323
 11
-74.380191547
 21
228.9175832
  0
LINE
  5
259
100
AcDbEntity
  8
0
100
AcDbLine
 62
7
  6
CONTINUOUS
 10
-70.2479599999
 20
230.0252505219
 11
-70.3898098699
 21
230.7021989541
  0
LINE
  5
25A
100
AcDbEntity
  8
0
100
AcDbLine
 62
7
  6
CONTINUOUS
 10
-55.835276693
 20
222.1785617575
 11
-55.835276693
 21
224.0449589665
  0
LINE
  5
25B
100
AcDbEntity
  8
0
100
AcDbLine
 62
7
  6
CONTINUOUS
 10
-122.6689669382
 20
201.733793956
 11
-118.9642808166
 21
200.7345970715
  0
LINE
  5
25C
100
AcDbEntity
  8
0
100
AcDbLine
 62
7
  6
CONTINUOUS
 10
-47.4657918564
 20
221.8617525393
 11
-47.4747511929
 21
222.265310934
  0
LINE
  5
25D
100
AcDbEntity
  8
0
100
AcDbLine
 62
7
  6
CONTINUOUS
 10
-54.4585351974
 20
222.8513590736
 11
-54.4585351974
 21
220.9565241726
  0
LINE
  5
25E
100
AcDbEntity
  8
0
100
AcDbLine
 62
7
  6
CONTINUOUS
 10
-49.3228658458
 20
222.0077568752
 11
-51.9630624443
 21
221.0793496065
  0
LWPOLYLINE
  5
25F
100
AcDbEntity
  8
0
100
AcDbPolyline
 62
7
  6
CONTINUOUS
 90
4
 70
0
 10
-89.3359708752
 20
246.6513268677
 10
-90.7497530078
 20
248.3756685274
 10
-91.8006522641
 20
249.4348227974
 10
-92.1250503585
 20
249.6783375709
  0
LINE
  5
260
100
AcDbEntity
  8
0
100
AcDbLine
 62
7
  6
CONTINUOUS
 10
-88.9392199165
 20
246.1437197202
 11
-89.3359708752
 21
246.6513268677
  0
LINE
  5
261
100
AcDbEntity
  8
0
100
AcDbLine
 62
7
  6
CONTINUOUS
 10
-81.2348943758
 20
244.9388357629
 11
-80.8503584194
 21
244.3970502372
  0
LINE
  5
262
100
AcDbEntity
  8
0
100
AcDbLine
 62
7
  6
CONTINUOUS
 10
-76.7181268722
 20
245.504717559
 11
-77.1026628286
 21
246.0465030848
  0
LINE
  5
263
100
AcDbEntity
  8
0
100
AcDbLine
 62
7
  6
CONTINUOUS
 10
-80.9067373797
 20
241.8438553387
 11
-81.378970219
 21
242.5573887182
  0
LINE
  5
264
100
AcDbEntity
  8
0
100
AcDbLine
 62
7
  6
CONTINUOUS
 10
-44.3642474331
 20
220.8538166609
 11
-44.2570211469
 21
216.0239871285
  0
LINE
  5
265
100
AcDbEntity
  8
0
100
AcDbLine
 62
7
  6
CONTINUOUS
 10
3.9426019594
 20
202.9340414378
 11
0.6368167217
 21
202.0479075802
  0
LINE
  5
266
100
AcDbEntity
  8
0
100
AcDbLine
 62
7
  6
CONTINUOUS
 10
-64.3513753809
 20
214.3084084889
 11
-47.5156361991
 21
204.584398206
  0
LINE
  5
267
100
AcDbEntity
  8
0
100
AcDbLine
 62
7
  6
CONTINUOUS
 10
-47.1817717371
 20
204.9267007047
 11
-43.0638821001
 21
202.5482841266
  0
LINE
  5
268
100
AcDbEntity
  8
0
100
AcDbLine
 62
7
  6
CONTINUOUS
 10
-32.3470685539
 20
153.1207744357
 11
-32.3470685539
 21
153.8686206986
  0
LINE
  5
269
100
AcDbEntity
  8
0
100
AcDbLine
 62
7
  6
CONTINUOUS
 10
-82.2776596741
 20
233.4790141208
 11
-80.8647442558
 21
232.6629404154
  0
LINE
  5
26A
100
AcDbEntity
  8
0
100
AcDbLine
 62
7
  6
CONTINUOUS
 10
-75.9416695212
 20
229.8194638786
 11
-74.380191547
 21
228.9175832
  0
LINE
  5
26B
100
AcDbEntity
  8
0
100
AcDbLine
 62
7
  6
CONTINUOUS
 10
-93.3725943874
 20
244.2877692063
 11
-89.1565990863
 21
241.8526886187
  0
LINE
  5
26C
100
AcDbEntity
  8
0
100
AcDbLine
 62
7
  6
CONTINUOUS
 10
-18.795577027
 20
201.3289506152
 11
-27.323699822
 21
206.2546359598
  0
LINE
  5
26D
100
AcDbEntity
  8
0
100
AcDbLine
 62
7
  6
CONTINUOUS
 10
-26.5619443879
 20
155.4193549493
 11
-26.5619443879
 21
154.6715086864
  0
LWPOLYLINE
  5
26E
100
AcDbEntity
  8
0
100
AcDbPolyline
 62
7
  6
CONTINUOUS
 90
7
 70
0
 10
-125.4918541068
 20
247.5360011184
 10
-125.5416539857
 20
247.5526303274
 10
-125.7852168604
 20
247.5837322232
 10
-126.0415600105
 20
247.5377235918
 10
-126.2924864306
 20
247.4163871307
 10
-126.5285062991
 20
247.2215926557
 10
-126.6650391053
 20
247.0593334703
  0
LINE
  5
26F
100
AcDbEntity
  8
0
100
AcDbLine
 62
7
  6
CONTINUOUS
 10
-124.7989027528
 20
247.1306274724
 11
-125.3319727853
 21
247.3300948049
  0
LINE
  5
270
100
AcDbEntity
  8
0
100
AcDbLine
 62
7
  6
CONTINUOUS
 10
-125.4918145579
 20
247.535943962
 11
-124.9226304114
 21
247.3229633568
  0
LINE
  5
271
100
AcDbEntity
  8
0
100
AcDbLine
 62
7
  6
CONTINUOUS
 10
-7.8434463798
 20
203.7866846021
 11
-10.721389538
 21
205.2763620295
  0
LINE
  5
272
100
AcDbEntity
  8
0
100
AcDbLine
 62
7
  6
CONTINUOUS
 10
-71.7534551696
 20
235.3808859179
 11
-56.0201652111
 21
226.2936298319
  0
LINE
  5
273
100
AcDbEntity
  8
0
100
AcDbLine
 62
7
  6
CONTINUOUS
 10
-82.9239409941
 20
245.9143977211
 11
-81.2348943758
 21
244.9388357629
  0
LINE
  5
274
100
AcDbEntity
  8
0
100
AcDbLine
 62
7
  6
CONTINUOUS
 10
-100.9280093229
 20
254.2824285614
 11
-100.8898533747
 21
254.2601449708
  0
LINE
  5
275
100
AcDbEntity
  8
0
100
AcDbLine
 62
7
  6
CONTINUOUS
 10
-96.1202196623
 20
252.1476255775
 11
-96.2174316382
 21
252.204464804
  0
LINE
  5
276
100
AcDbEntity
  8
0
100
AcDbLine
 62
7
  6
CONTINUOUS
 10
-96.1847765395
 20
252.1854558978
 11
-92.1489373275
 21
249.6941546205
  0
LINE
  5
277
100
AcDbEntity
  8
0
100
AcDbLine
 62
7
  6
CONTINUOUS
 10
-100.9280093229
 20
254.2824285614
 11
-100.8905233736
 21
254.2586821265
  0
LINE
  5
278
100
AcDbEntity
  8
0
100
AcDbLine
 62
7
  6
CONTINUOUS
 10
-92.1244916104
 20
249.6779502113
 11
-92.1489373275
 21
249.6941546205
  0
LINE
  5
279
100
AcDbEntity
  8
0
100
AcDbLine
 62
7
  6
CONTINUOUS
 10
-45.1285046379
 20
216.8956874783
 11
-44.2814147103
 21
217.1227545777
  0
LINE
  5
27A
100
AcDbEntity
  8
0
100
AcDbLine
 62
7
  6
CONTINUOUS
 10
-48.0241848891
 20
221.7623709882
 11
-49.8019514469
 21
221.3499644364
  0
LINE
  5
27B
100
AcDbEntity
  8
0
100
AcDbLine
 62
7
  6
CONTINUOUS
 10
-52.9185848867
 20
220.5155444431
 11
-48.8927009059
 21
221.2714654776
  0
LINE
  5
27C
100
AcDbEntity
  8
0
100
AcDbLine
 62
7
  6
CONTINUOUS
 10
-98.6384400471
 20
253.4279995018
 11
-98.7051116966
 21
253.4568071935
  0
LINE
  5
27D
100
AcDbEntity
  8
0
100
AcDbLine
 62
7
  6
CONTINUOUS
 10
-98.6554603548
 20
253.3933685591
 11
-98.7218138226
 21
253.4226675423
  0
LINE
  5
27E
100
AcDbEntity
  8
0
100
AcDbLine
 62
7
  6
CONTINUOUS
 10
0.6368167217
 20
202.0479075802
 11
-0.4480604213
 21
202.6094603711
  0
LINE
  5
27F
100
AcDbEntity
  8
0
100
AcDbLine
 62
7
  6
CONTINUOUS
 10
-78.7917094469
 20
247.022065043
 11
-77.1026628286
 21
246.0465030848
  0
LINE
  5
280
100
AcDbEntity
  8
0
100
AcDbLine
 62
7
  6
CONTINUOUS
 10
-10.804034297
 20
208.9989575967
 11
-10.721389538
 21
205.2763620295
  0
LINE
  5
281
100
AcDbEntity
  8
0
100
AcDbLine
 62
7
  6
CONTINUOUS
 10
-7.8434463798
 20
203.7866846021
 11
-7.8744093529
 21
205.181360176
  0
LINE
  5
282
100
AcDbEntity
  8
0
100
AcDbLine
 62
7
  6
CONTINUOUS
 10
-45.7935651345
 20
222.1023846769
 11
-48.8927387948
 21
221.2716341854
  0
LINE
  5
283
100
AcDbEntity
  8
0
100
AcDbLine
 62
7
  6
CONTINUOUS
 10
-48.0237068528
 20
221.7607034812
 11
-47.4668622273
 21
221.909965612
  0
LINE
  5
284
100
AcDbEntity
  8
0
100
AcDbLine
 62
7
  6
CONTINUOUS
 10
-52.9185906545
 20
220.5155659608
 11
-47.4683173204
 21
221.9755078586
  0
LINE
  5
285
100
AcDbEntity
  8
0
100
AcDbLine
 62
7
  6
CONTINUOUS
 10
-51.9629134114
 20
221.0787948841
 11
-47.4751166736
 21
222.2817734048
  0
LINE
  5
286
100
AcDbEntity
  8
0
100
AcDbLine
 62
7
  6
CONTINUOUS
 10
-47.9573687815
 20
222.2287666358
 11
-51.0538382689
 21
221.3987410127
  0
LINE
  5
287
100
AcDbEntity
  8
0
100
AcDbLine
 62
7
  6
CONTINUOUS
 10
-39.0009977169
 20
227.9257086839
 11
-46.8615184106
 21
225.8186530153
  0
LINE
  5
288
100
AcDbEntity
  8
0
100
AcDbLine
 62
7
  6
CONTINUOUS
 10
-46.9557202752
 20
229.0580214726
 11
-46.3487257755
 21
229.2207296763
  0
LINE
  5
289
100
AcDbEntity
  8
0
100
AcDbLine
 62
7
  6
CONTINUOUS
 10
-100.8829623679
 20
254.2681598369
 11
-100.9279821913
 21
254.2824018958
  0
LINE
  5
28A
100
AcDbEntity
  8
0
100
AcDbLine
 62
7
  6
CONTINUOUS
 10
-100.8830599432
 20
254.2679275695
 11
-100.9279821913
 21
254.2824018958
  0
LINE
  5
28B
100
AcDbEntity
  8
0
100
AcDbLine
 62
7
  6
CONTINUOUS
 10
-101.6702608898
 20
254.6107290216
 11
-101.6451330416
 21
254.602142081
  0
LINE
  5
28C
100
AcDbEntity
  8
0
100
AcDbLine
 62
7
  6
CONTINUOUS
 10
-101.6832715839
 20
254.5808003632
 11
-101.6583143409
 21
254.5718995041
  0
LINE
  5
28D
100
AcDbEntity
  8
0
100
AcDbLine
 62
7
  6
CONTINUOUS
 10
-101.6776279463
 20
254.6442926272
 11
-101.6452481423
 21
254.632609377
  0
LINE
  5
28E
100
AcDbEntity
  8
0
100
AcDbLine
 62
7
  6
CONTINUOUS
 10
0.5762050716
 20
204.7780584384
 11
0.6368167217
 21
202.0479075802
  0
LINE
  5
28F
100
AcDbEntity
  8
0
100
AcDbLine
 62
7
  6
CONTINUOUS
 10
-70.3898098699
 20
230.7021989542
 11
-74.5220414171
 21
229.5945316323
  0
LINE
  5
290
100
AcDbEntity
  8
0
100
AcDbLine
 62
7
  6
CONTINUOUS
 10
-101.6832715839
 20
254.630350398
 11
-101.64995395
 21
254.6210306695
  0
LINE
  5
291
100
AcDbEntity
  8
0
100
AcDbLine
 62
7
  6
CONTINUOUS
 10
-102.4830633017
 20
256.0571793302
 11
-102.5747767116
 21
256.0845674697
  0
LINE
  5
292
100
AcDbEntity
  8
0
100
AcDbLine
 62
7
  6
CONTINUOUS
 10
-0.4480604213
 20
202.6094603711
 11
-0.7828145613
 21
204.5792588969
  0
LINE
  5
293
100
AcDbEntity
  8
0
100
AcDbLine
 62
7
  6
CONTINUOUS
 10
3.887596852
 20
205.4116549187
 11
3.9426019594
 21
202.9340414378
  0
LINE
  5
294
100
AcDbEntity
  8
0
100
AcDbLine
 62
7
  6
CONTINUOUS
 10
-80.8503584193
 20
244.3970502372
 11
-76.7181268722
 21
245.5047175591
  0
LINE
  5
295
100
AcDbEntity
  8
0
100
AcDbLine
 62
7
  6
CONTINUOUS
 10
-77.1026628286
 20
246.0465030848
 11
-81.2348943758
 21
244.9388357629
  0
LINE
  5
296
100
AcDbEntity
  8
0
100
AcDbLine
 62
7
  6
CONTINUOUS
 10
-102.5747767116
 20
256.0845674697
 11
-102.5748326195
 21
256.0845694
  0
LINE
  5
297
100
AcDbEntity
  8
0
100
AcDbLine
 62
7
  6
CONTINUOUS
 10
18.5718725511
 20
212.2704310364
 11
18.6028355243
 21
210.8757554625
  0
LINE
  5
298
100
AcDbEntity
  8
0
100
AcDbLine
 62
7
  6
CONTINUOUS
 10
18.620232665
 20
222.252125202
 11
18.7274589511
 21
217.4222956696
  0
LINE
  5
299
100
AcDbEntity
  8
0
100
AcDbLine
 62
7
  6
CONTINUOUS
 10
-78.7917094469
 20
247.022065043
 11
-82.9239409941
 21
245.9143977211
  0
LINE
  5
29A
100
AcDbEntity
  8
0
100
AcDbLine
 62
7
  6
CONTINUOUS
 10
-132.8738247621
 20
235.1255484522
 11
-133.4894499511
 21
234.9605267451
  0
LINE
  5
29B
100
AcDbEntity
  8
0
100
AcDbLine
 62
7
  6
CONTINUOUS
 10
-133.789346355
 20
235.1759417871
 11
-133.1555355441
 21
235.3458382675
  0
ARC
  5
29C
100
AcDbEntity
  8
0
100
AcDbCircle
 62
7
  6
CONTINUOUS
 10
-695.7096410376
 20
-216.7842918173
 40
763.0998849922
100
AcDbArc
 50
37.211137782
 51
37.3415715334
  0
ARC
  5
29D
100
AcDbEntity
  8
0
100
AcDbCircle
 62
7
  6
CONTINUOUS
 10
-236.6566073081
 20
133.2473692647
 40
185.8202750736
100
AcDbArc
 50
37.3905238131
 51
37.5852275491
  0
ARC
  5
29E
100
AcDbEntity
  8
0
100
AcDbCircle
 62
7
  6
CONTINUOUS
 10
-141.9535179036
 20
178.2429057081
 40
86.5800161552
100
AcDbArc
 50
46.8583420059
 51
53.1598613512
  0
ARC
  5
29F
100
AcDbEntity
  8
0
100
AcDbCircle
 62
7
  6
CONTINUOUS
 10
-131.927727909
 20
208.2401771175
 40
0.3589499181
100
AcDbArc
 50
220.5062981609
 51
225.9109975453
  0
ARC
  5
2A0
100
AcDbEntity
  8
0
100
AcDbCircle
 62
7
  6
CONTINUOUS
 10
-122.5706837111
 20
202.0710955831
 40
0.3513218173
100
AcDbArc
 50
248.0426110171
 51
253.7597023364
  0
ARC
  5
2A1
100
AcDbEntity
  8
0
100
AcDbCircle
 62
7
  6
CONTINUOUS
 10
-116.9691454814
 20
225.8731706385
 40
23.4848669535
100
AcDbArc
 50
229.5398998867
 51
240.1306398015
  0
ARC
  5
2A2
100
AcDbEntity
  8
0
100
AcDbCircle
 62
7
  6
CONTINUOUS
 10
-117.0702935339
 20
225.6956486119
 40
23.2805585533
100
AcDbArc
 50
229.5406249597
 51
240.1289233967
  0
ARC
  5
2A3
100
AcDbEntity
  8
0
100
AcDbCircle
 62
7
  6
CONTINUOUS
 10
-116.5900428707
 20
221.455315231
 40
19.5990845376
100
AcDbArc
 50
212.6903324661
 51
216.6260024728
  0
ARC
  5
2A4
100
AcDbEntity
  8
0
100
AcDbCircle
 62
7
  6
CONTINUOUS
 10
-116.091149291
 20
220.8829523837
 40
19.528516295
100
AcDbArc
 50
204.6375787009
 51
210.4295347848
  0
ARC
  5
2A5
100
AcDbEntity
  8
0
100
AcDbCircle
 62
7
  6
CONTINUOUS
 10
-116.7801260425
 20
221.3158809117
 40
19.36334895
100
AcDbArc
 50
216.6304379585
 51
216.8517400171
  0
ARC
  5
2A6
100
AcDbEntity
  8
0
100
AcDbCircle
 62
7
  6
CONTINUOUS
 10
-116.918716425
 20
220.3942198561
 40
18.5674120115
100
AcDbArc
 50
210.4225418594
 51
214.5811793824
  0
ARC
  5
2A7
100
AcDbEntity
  8
0
100
AcDbCircle
 62
7
  6
CONTINUOUS
 10
-94.7712595518
 20
202.6145575421
 40
54.8137163291
100
AcDbArc
 50
2.643827421
 51
8.6203969433
  0
ARC
  5
2A8
100
AcDbEntity
  8
0
100
AcDbCircle
 62
7
  6
CONTINUOUS
 10
-99.3067380404
 20
221.2696148587
 40
36.8340909621
100
AcDbArc
 50
149.0525399697
 51
151.9707362375
  0
ARC
  5
2A9
100
AcDbEntity
  8
0
100
AcDbCircle
 62
7
  6
CONTINUOUS
 10
-99.5843101484
 20
221.4105214553
 40
36.5228612534
100
AcDbArc
 50
151.9612326096
 51
157.4527681207
  0
ARC
  5
2AA
100
AcDbEntity
  8
0
100
AcDbCircle
 62
7
  6
CONTINUOUS
 10
-99.9408279403
 20
221.5619257075
 40
36.1355392898
100
AcDbArc
 50
157.4577255132
 51
157.6616775443
  0
ARC
  5
2AB
100
AcDbEntity
  8
0
100
AcDbCircle
 62
7
  6
CONTINUOUS
 10
-101.4305994609
 20
223.0786554151
 40
34.0385546412
100
AcDbArc
 50
134.081855957
 51
134.3026424962
  0
ARC
  5
2AC
100
AcDbEntity
  8
0
100
AcDbCircle
 62
7
  6
CONTINUOUS
 10
-102.347699094
 20
222.1431137205
 40
34.0360101221
100
AcDbArc
 50
105.4304026048
 51
105.6495688744
  0
ARC
  5
2AD
100
AcDbEntity
  8
0
100
AcDbCircle
 62
7
  6
CONTINUOUS
 10
-109.181486103
 20
223.7456764409
 40
33.5709025017
100
AcDbArc
 50
28.503134753
 51
32.6226064408
  0
ARC
  5
2AE
100
AcDbEntity
  8
0
100
AcDbCircle
 62
7
  6
CONTINUOUS
 10
-102.471968952
 20
222.6414479915
 40
33.5226304107
100
AcDbArc
 50
105.6748030894
 51
107.4025693629
  0
ARC
  5
2AF
100
AcDbEntity
  8
0
100
AcDbCircle
 62
7
  6
CONTINUOUS
 10
-101.9659584163
 20
223.6415810897
 40
33.2617382389
100
AcDbArc
 50
128.7705870535
 51
134.0939929307
  0
ARC
  5
2B0
100
AcDbEntity
  8
0
100
AcDbCircle
 62
7
  6
CONTINUOUS
 10
-103.0329100367
 20
224.9391162724
 40
31.5819794843
100
AcDbArc
 50
125.4974324024
 51
128.7355046967
  0
ARC
  5
2B1
100
AcDbEntity
  8
0
100
AcDbCircle
 62
7
  6
CONTINUOUS
 10
-106.135368155
 20
222.8350445869
 40
29.7859375937
100
AcDbArc
 50
173.1820078513
 51
179.9751037417
  0
ARC
  5
2B2
100
AcDbEntity
  8
0
100
AcDbCircle
 62
7
  6
CONTINUOUS
 10
-107.8735586271
 20
222.8438703859
 40
28.0477446118
100
AcDbArc
 50
179.9915901495
 51
182.5210903907
  0
ARC
  5
2B3
100
AcDbEntity
  8
0
100
AcDbCircle
 62
7
  6
CONTINUOUS
 10
-108.3328854668
 20
222.8255120877
 40
27.5880548897
100
AcDbArc
 50
182.5249614838
 51
182.7027798304
  0
ARC
  5
2B4
100
AcDbEntity
  8
0
100
AcDbCircle
 62
7
  6
CONTINUOUS
 10
-109.1269690627
 20
223.7152480648
 40
27.4885561292
100
AcDbArc
 50
179.9577892791
 51
185.4330377627
  0
ARC
  5
2B5
100
AcDbEntity
  8
0
100
AcDbCircle
 62
7
  6
CONTINUOUS
 10
-109.9426953551
 20
223.6448037035
 40
26.6698255678
100
AcDbArc
 50
185.4483059851
 51
185.739746752
  0
ARC
  5
2B6
100
AcDbEntity
  8
0
100
AcDbCircle
 62
7
  6
CONTINUOUS
 10
-103.8365765563
 20
212.2005566886
 40
16.0287434136
100
AcDbArc
 50
253.144088419
 51
254.5378504124
  0
ARC
  5
2B7
100
AcDbEntity
  8
0
100
AcDbCircle
 62
7
  6
CONTINUOUS
 10
-104.0229785626
 20
211.5960686071
 40
15.3961742068
100
AcDbArc
 50
248.1994970112
 51
253.1540851527
  0
ARC
  5
2B8
100
AcDbEntity
  8
0
100
AcDbCircle
 62
7
  6
CONTINUOUS
 10
-104.0767438127
 20
211.4593832669
 40
15.2492971517
100
AcDbArc
 50
246.734266329
 51
248.1963350564
  0
ARC
  5
2B9
100
AcDbEntity
  8
0
100
AcDbCircle
 62
7
  6
CONTINUOUS
 10
-104.0987101514
 20
211.4080463698
 40
15.1934582097
100
AcDbArc
 50
245.767855781
 51
246.7338975946
  0
ARC
  5
2BA
100
AcDbEntity
  8
0
100
AcDbCircle
 62
7
  6
CONTINUOUS
 10
-103.4389424532
 20
211.4277954856
 40
14.5105675575
100
AcDbArc
 50
239.9911903119
 51
244.9109855421
  0
ARC
  5
2BB
100
AcDbEntity
  8
0
100
AcDbCircle
 62
7
  6
CONTINUOUS
 10
-109.0602265386
 20
226.317378494
 40
28.2283162864
100
AcDbArc
 50
211.4512218806
 51
211.8278785189
  0
ARC
  5
2BC
100
AcDbEntity
  8
0
100
AcDbCircle
 62
7
  6
CONTINUOUS
 10
-110.1175391338
 20
225.6778374435
 40
26.9930125702
100
AcDbArc
 50
210.7928043343
 51
211.0887077029
  0
ARC
  5
2BD
100
AcDbEntity
  8
0
100
AcDbCircle
 62
7
  6
CONTINUOUS
 10
-109.1055717952
 20
228.7846182138
 40
26.779545218
100
AcDbArc
 50
69.5561761145
 51
70.2955328423
  0
ARC
  5
2BE
100
AcDbEntity
  8
0
100
AcDbCircle
 62
7
  6
CONTINUOUS
 10
-103.4016103328
 20
229.3336350677
 40
26.7393258441
100
AcDbArc
 50
88.0313929832
 51
88.2246769862
  0
ARC
  5
2BF
100
AcDbEntity
  8
0
100
AcDbCircle
 62
7
  6
CONTINUOUS
 10
-110.4478938234
 20
225.4701607009
 40
26.6025100146
100
AcDbArc
 50
211.8536940374
 51
212.5250462584
  0
ARC
  5
2C0
100
AcDbEntity
  8
0
100
AcDbCircle
 62
7
  6
CONTINUOUS
 10
-110.6126227354
 20
225.3647701514
 40
26.406952614
100
AcDbArc
 50
212.5244143868
 51
213.8726848973
  0
ARC
  5
2C1
100
AcDbEntity
  8
0
100
AcDbCircle
 62
7
  6
CONTINUOUS
 10
-108.0724246597
 20
231.6200730173
 40
23.7618224182
100
AcDbArc
 50
71.9919215901
 51
72.3883564769
  0
ARC
  5
2C2
100
AcDbEntity
  8
0
100
AcDbCircle
 62
7
  6
CONTINUOUS
 10
-107.667005249
 20
232.0379348343
 40
23.7518654924
100
AcDbArc
 50
104.8374054803
 51
105.0472863266
  0
ARC
  5
2C3
100
AcDbEntity
  8
0
100
AcDbCircle
 62
7
  6
CONTINUOUS
 10
-108.0802590872
 20
231.7263165035
 40
23.668134184
100
AcDbArc
 50
66.6646038042
 51
72.2924605902
  0
ARC
  5
2C4
100
AcDbEntity
  8
0
100
AcDbCircle
 62
7
  6
CONTINUOUS
 10
-108.0336290735
 20
231.7379415278
 40
23.6377342467
100
AcDbArc
 50
70.3280284239
 51
71.9930267153
  0
ARC
  5
2C5
100
AcDbEntity
  8
0
100
AcDbCircle
 62
7
  6
CONTINUOUS
 10
-107.9672813965
 20
231.9202948841
 40
23.4437942023
100
AcDbArc
 50
69.1644994091
 51
69.486128219
  0
ARC
  5
2C6
100
AcDbEntity
  8
0
100
AcDbCircle
 62
7
  6
CONTINUOUS
 10
-107.9645925399
 20
231.9953838986
 40
23.3752590054
100
AcDbArc
 50
59.8313636413
 51
66.6636826484
  0
ARC
  5
2C7
100
AcDbEntity
  8
0
100
AcDbCircle
 62
7
  6
CONTINUOUS
 10
-107.940462448
 20
231.989609622
 40
23.369473145
100
AcDbArc
 50
66.7222592483
 51
69.1655066955
  0
ARC
  5
2C8
100
AcDbEntity
  8
0
100
AcDbCircle
 62
7
  6
CONTINUOUS
 10
-107.8777862711
 20
232.1343049818
 40
23.2117846137
100
AcDbArc
 50
63.2150896468
 51
66.5439505315
  0
ARC
  5
2C9
100
AcDbEntity
  8
0
100
AcDbCircle
 62
7
  6
CONTINUOUS
 10
-107.829052417
 20
232.2329397204
 40
23.1017714115
100
AcDbArc
 50
59.8259020086
 51
63.2127482203
  0
ARC
  5
2CA
100
AcDbEntity
  8
0
100
AcDbCircle
 62
7
  6
CONTINUOUS
 10
-106.814999834
 20
232.5140051845
 40
23.0644966401
100
AcDbArc
 50
102.0750351987
 51
106.9967701777
  0
ARC
  5
2CB
100
AcDbEntity
  8
0
100
AcDbCircle
 62
7
  6
CONTINUOUS
 10
-107.1322445426
 20
233.9404055521
 40
21.6032941499
100
AcDbArc
 50
97.4927864734
 51
102.0436513459
  0
ARC
  5
2CC
100
AcDbEntity
  8
0
100
AcDbCircle
 62
7
  6
CONTINUOUS
 10
-107.7848589349
 20
237.666625088
 40
18.0427116472
100
AcDbArc
 50
67.4212032766
 51
70.1059413795
  0
ARC
  5
2CD
100
AcDbEntity
  8
0
100
AcDbCircle
 62
7
  6
CONTINUOUS
 10
-107.7678265859
 20
237.7085444148
 40
17.9974657087
100
AcDbArc
 50
66.9490000949
 51
67.4200310353
  0
ARC
  5
2CE
100
AcDbEntity
  8
0
100
AcDbCircle
 62
7
  6
CONTINUOUS
 10
-106.9841585304
 20
239.0173029775
 40
16.4739917158
100
AcDbArc
 50
68.1951473865
 51
71.089660044
  0
ARC
  5
2CF
100
AcDbEntity
  8
0
100
AcDbCircle
 62
7
  6
CONTINUOUS
 10
-106.9276122452
 20
239.1599388953
 40
16.3205568635
100
AcDbArc
 50
66.0423061745
 51
68.1934588941
  0
ARC
  5
2D0
100
AcDbEntity
  8
0
100
AcDbCircle
 62
7
  6
CONTINUOUS
 10
-84.113331126
 20
216.099089325
 40
52.5038393531
100
AcDbArc
 50
143.9562961916
 51
154.7803022421
  0
ARC
  5
2D1
100
AcDbEntity
  8
0
100
AcDbCircle
 62
7
  6
CONTINUOUS
 10
-84.3436244216
 20
216.2310695826
 40
52.3591638003
100
AcDbArc
 50
143.9292213761
 51
154.7991952042
  0
ARC
  5
2D2
100
AcDbEntity
  8
0
100
AcDbCircle
 62
7
  6
CONTINUOUS
 10
-84.4765313699
 20
216.2728443265
 40
52.1012238609
100
AcDbArc
 50
154.7829818489
 51
155.5098862381
  0
ARC
  5
2D3
100
AcDbEntity
  8
0
100
AcDbCircle
 62
7
  6
CONTINUOUS
 10
-84.8525343888
 20
216.4315543449
 40
51.6925628744
100
AcDbArc
 50
155.9973105146
 51
157.2901982953
  0
ARC
  5
2D4
100
AcDbEntity
  8
0
100
AcDbCircle
 62
7
  6
CONTINUOUS
 10
-90.5033533672
 20
213.5537356985
 40
48.1520805299
100
AcDbArc
 50
132.8348722742
 51
134.1911254389
  0
ARC
  5
2D5
100
AcDbEntity
  8
0
100
AcDbCircle
 62
7
  6
CONTINUOUS
 10
-90.9148230278
 20
214.0102996029
 40
47.5380953913
100
AcDbArc
 50
131.8901587849
 51
132.316938927
  0
ARC
  5
2D6
100
AcDbEntity
  8
0
100
AcDbCircle
 62
7
  6
CONTINUOUS
 10
-94.7411332439
 20
224.1768696452
 40
40.9246144307
100
AcDbArc
 50
179.6949631401
 51
180.0049606783
  0
ARC
  5
2D7
100
AcDbEntity
  8
0
100
AcDbCircle
 62
7
  6
CONTINUOUS
 10
-94.9861408156
 20
219.7149825399
 40
40.5153473953
100
AcDbArc
 50
119.3258129263
 51
119.4778103714
  0
ARC
  5
2D8
100
AcDbEntity
  8
0
100
AcDbCircle
 62
7
  6
CONTINUOUS
 10
-95.62276721
 20
224.1621362021
 40
40.0423407321
100
AcDbArc
 50
180.5791286139
 51
182.112385946
  0
ARC
  5
2D9
100
AcDbEntity
  8
0
100
AcDbCircle
 62
7
  6
CONTINUOUS
 10
-93.4329194525
 20
215.0719505509
 40
26.783965796
100
AcDbArc
 50
179.621963523
 51
179.9694192751
  0
ARC
  5
2DA
100
AcDbEntity
  8
0
100
AcDbCircle
 62
7
  6
CONTINUOUS
 10
-93.1466249357
 20
215.0278713665
 40
25.773182063
100
AcDbArc
 50
179.6524805107
 51
179.9998587297
  0
ARC
  5
2DB
100
AcDbEntity
  8
0
100
AcDbCircle
 62
7
  6
CONTINUOUS
 10
-94.5176187366
 20
214.9979288804
 40
24.4022067104
100
AcDbArc
 50
179.9295465561
 51
186.4412192928
  0
ARC
  5
2DC
100
AcDbEntity
  8
0
100
AcDbCircle
 62
7
  6
CONTINUOUS
 10
-93.6817119877
 20
229.760100885
 40
15.981230856
100
AcDbArc
 50
46.5060818102
 51
46.8388901535
  0
ARC
  5
2DD
100
AcDbEntity
  8
0
100
AcDbCircle
 62
7
  6
CONTINUOUS
 10
-92.8486595431
 20
229.7635162996
 40
14.5150299305
100
AcDbArc
 50
54.7376517038
 51
59.9886413957
  0
ARC
  5
2DE
100
AcDbEntity
  8
0
100
AcDbCircle
 62
7
  6
CONTINUOUS
 10
-92.9844983238
 20
303.6205306441
 40
105.5706369027
100
AcDbArc
 50
253.4967630031
 51
253.828206632
  0
ARC
  5
2DF
100
AcDbEntity
  8
0
100
AcDbCircle
 62
7
  6
CONTINUOUS
 10
-77.9647086384
 20
293.0391276987
 40
100.8921017417
100
AcDbArc
 50
251.3188965798
 51
251.5229384429
  0
ARC
  5
2E0
100
AcDbEntity
  8
0
100
AcDbCircle
 62
7
  6
CONTINUOUS
 10
-81.3902731952
 20
288.1388022012
 40
95.1986306728
100
AcDbArc
 50
240.248104361
 51
241.4241237328
  0
ARC
  5
2E1
100
AcDbEntity
  8
0
100
AcDbCircle
 62
7
  6
CONTINUOUS
 10
-81.7503609298
 20
287.4611931671
 40
94.4313273492
100
AcDbArc
 50
241.41933532
 51
250.0626000946
  0
ARC
  5
2E2
100
AcDbEntity
  8
0
100
AcDbCircle
 62
7
  6
CONTINUOUS
 10
-81.8556748861
 20
287.217899526
 40
94.1667074918
100
AcDbArc
 50
250.2406708473
 51
252.4850252901
  0
ARC
  5
2E3
100
AcDbEntity
  8
0
100
AcDbCircle
 62
7
  6
CONTINUOUS
 10
-82.0800185299
 20
286.4992109573
 40
93.4133005102
100
AcDbArc
 50
252.5326078808
 51
252.7707681037
  0
ARC
  5
2E4
100
AcDbEntity
  8
0
100
AcDbCircle
 62
7
  6
CONTINUOUS
 10
-82.209162051
 20
286.0953789238
 40
92.989324397
100
AcDbArc
 50
250.213323124
 51
252.4860517542
  0
ARC
  5
2E5
100
AcDbEntity
  8
0
100
AcDbCircle
 62
7
  6
CONTINUOUS
 10
-82.6526914397
 20
284.8365317421
 40
91.65465741
100
AcDbArc
 50
250.033872642
 51
250.2078216016
  0
ARC
  5
2E6
100
AcDbEntity
  8
0
100
AcDbCircle
 62
7
  6
CONTINUOUS
 10
-83.5412882958
 20
279.1317461214
 40
85.9694091324
100
AcDbArc
 50
251.0803059338
 51
251.9895164398
  0
ARC
  5
2E7
100
AcDbEntity
  8
0
100
AcDbCircle
 62
7
  6
CONTINUOUS
 10
-83.6321809622
 20
278.8538421052
 40
85.677019231
100
AcDbArc
 50
251.9898598382
 51
252.2504944679
  0
ARC
  5
2E8
100
AcDbEntity
  8
0
100
AcDbCircle
 62
7
  6
CONTINUOUS
 10
-83.7351911686
 20
278.5298746209
 40
85.3370698222
100
AcDbArc
 50
252.2500535571
 51
253.1406998311
  0
ARC
  5
2E9
100
AcDbEntity
  8
0
100
AcDbCircle
 62
7
  6
CONTINUOUS
 10
-86.3174302345
 20
268.5323944364
 40
75.0011270712
100
AcDbArc
 50
248.6953845866
 51
251.3671356623
  0
ARC
  5
2EA
100
AcDbEntity
  8
0
100
AcDbCircle
 62
7
  6
CONTINUOUS
 10
-90.6131011549
 20
268.0630049861
 40
73.064239409
100
AcDbArc
 50
238.7153179677
 51
240.2463901432
  0
ARC
  5
2EB
100
AcDbEntity
  8
0
100
AcDbCircle
 62
7
  6
CONTINUOUS
 10
-87.4022554008
 20
265.7158333563
 40
71.9828995149
100
AcDbArc
 50
248.3979476054
 51
248.6117325279
  0
ARC
  5
2EC
100
AcDbEntity
  8
0
100
AcDbCircle
 62
7
  6
CONTINUOUS
 10
-88.8358581236
 20
265.0341701674
 40
70.9107125445
100
AcDbArc
 50
252.5323777682
 51
252.8254675248
  0
ARC
  5
2ED
100
AcDbEntity
  8
0
100
AcDbCircle
 62
7
  6
CONTINUOUS
 10
-92.9405787782
 20
264.2573308644
 40
68.6032474407
100
AcDbArc
 50
235.1118035249
 51
238.6175938045
  0
ARC
  5
2EE
100
AcDbEntity
  8
0
100
AcDbCircle
 62
7
  6
CONTINUOUS
 10
-90.1023553815
 20
256.803019497
 40
59.5693581615
100
AcDbArc
 50
238.0891003521
 51
242.6019954873
  0
ARC
  5
2EF
100
AcDbEntity
  8
0
100
AcDbCircle
 62
7
  6
CONTINUOUS
 10
-91.5573503868
 20
252.1045920523
 40
46.870870617
100
AcDbArc
 50
226.3738156982
 51
232.0047439786
  0
ARC
  5
2F0
100
AcDbEntity
  8
0
100
AcDbCircle
 62
7
  6
CONTINUOUS
 10
-94.4698482218
 20
245.9485100518
 40
40.0647720586
100
AcDbArc
 50
204.3475307079
 51
205.1654487908
  0
ARC
  5
2F1
100
AcDbEntity
  8
0
100
AcDbCircle
 62
7
  6
CONTINUOUS
 10
-88.4063912626
 20
254.6165602151
 40
39.4578447459
100
AcDbArc
 50
216.199175709
 51
222.463081754
  0
ARC
  5
2F2
100
AcDbEntity
  8
0
100
AcDbCircle
 62
7
  6
CONTINUOUS
 10
-96.0975010779
 20
254.2146241915
 40
5.6813757939
100
AcDbArc
 50
177.0395273787
 51
180.0146565075
  0
ARC
  5
2F3
100
AcDbEntity
  8
0
100
AcDbCircle
 62
7
  6
CONTINUOUS
 10
-96.7562671611
 20
254.2439715426
 40
5.0219754087
100
AcDbArc
 50
175.772434364
 51
176.9857326002
  0
ARC
  5
2F4
100
AcDbEntity
  8
0
100
AcDbCircle
 62
7
  6
CONTINUOUS
 10
-100.2021406815
 20
254.0004556477
 40
1.5743889815
100
AcDbArc
 50
172.2109804064
 51
173.1458880302
  0
ARC
  5
2F5
100
AcDbEntity
  8
0
100
AcDbCircle
 62
7
  6
CONTINUOUS
 10
-102.5553284121
 20
255.1881436439
 40
0.8714205523
100
AcDbArc
 50
359.7205943882
 51
14.938999915
  0
ARC
  5
2F6
100
AcDbEntity
  8
0
100
AcDbCircle
 62
7
  6
CONTINUOUS
 10
-102.5303183761
 20
255.1937352339
 40
0.8458150211
100
AcDbArc
 50
15.0097717236
 51
18.0984510086
  0
ARC
  5
2F7
100
AcDbEntity
  8
0
100
AcDbCircle
 62
7
  6
CONTINUOUS
 10
-114.2911009644
 20
254.3924902064
 40
0.6905310717
100
AcDbArc
 50
37.232565584
 51
47.8479160297
  0
ARC
  5
2F8
100
AcDbEntity
  8
0
100
AcDbCircle
 62
7
  6
CONTINUOUS
 10
-114.2697812058
 20
254.4092615295
 40
0.6634092119
100
AcDbArc
 50
29.1398543249
 51
37.1933954695
  0
ARC
  5
2F9
100
AcDbEntity
  8
0
100
AcDbCircle
 62
7
  6
CONTINUOUS
 10
-49.1570328767
 20
192.3043918001
 40
35.4424108086
100
AcDbArc
 50
145.0154368982
 51
154.9646969745
  0
ARC
  5
2FA
100
AcDbEntity
  8
0
100
AcDbCircle
 62
7
  6
CONTINUOUS
 10
-46.0714002964
 20
187.3886629004
 40
32.0865275417
100
AcDbArc
 50
178.0146034969
 51
180.0323900664
  0
ARC
  5
2FB
100
AcDbEntity
  8
0
100
AcDbCircle
 62
7
  6
CONTINUOUS
 10
-46.9827377111
 20
187.3852453542
 40
31.1751884757
100
AcDbArc
 50
180.0270559314
 51
182.0906466611
  0
ARC
  5
2FC
100
AcDbEntity
  8
0
100
AcDbCircle
 62
7
  6
CONTINUOUS
 10
-48.2980902934
 20
187.326884415
 40
29.8585841905
100
AcDbArc
 50
182.0708104081
 51
185.5791035358
  0
ARC
  5
2FD
100
AcDbEntity
  8
0
100
AcDbCircle
 62
7
  6
CONTINUOUS
 10
-49.9414892252
 20
187.1523461781
 40
28.2060050164
100
AcDbArc
 50
185.5507861066
 51
190.025617549
  0
ARC
  5
2FE
100
AcDbEntity
  8
0
100
AcDbCircle
 62
7
  6
CONTINUOUS
 10
-42.7277901007
 20
194.6260522742
 40
27.6466691596
100
AcDbArc
 50
96.3666185328
 51
101.0437858739
  0
ARC
  5
2FF
100
AcDbEntity
  8
0
100
AcDbCircle
 62
7
  6
CONTINUOUS
 10
-53.2025004086
 20
199.6963813839
 40
26.7510831678
100
AcDbArc
 50
91.2776237457
 51
91.8125679026
  0
ARC
  5
300
100
AcDbEntity
  8
0
100
AcDbCircle
 62
7
  6
CONTINUOUS
 10
-51.5689271349
 20
186.8582181466
 40
26.5522145101
100
AcDbArc
 50
190.0119831289
 51
193.7747559004
  0
ARC
  5
301
100
AcDbEntity
  8
0
100
AcDbCircle
 62
7
  6
CONTINUOUS
 10
-49.3500523255
 20
200.2124258842
 40
25.3601259334
100
AcDbArc
 50
104.2914728612
 51
105.0058496962
  0
ARC
  5
302
100
AcDbEntity
  8
0
100
AcDbCircle
 62
7
  6
CONTINUOUS
 10
-53.0659881188
 20
186.4768028344
 40
25.0073968806
100
AcDbArc
 50
193.74270956
 51
198.6353941244
  0
ARC
  5
303
100
AcDbEntity
  8
0
100
AcDbCircle
 62
7
  6
CONTINUOUS
 10
-54.4564433471
 20
186.0020567561
 40
23.5381396065
100
AcDbArc
 50
198.6219013563
 51
202.6411522468
  0
ARC
  5
304
100
AcDbEntity
  8
0
100
AcDbCircle
 62
7
  6
CONTINUOUS
 10
-55.6691812328
 20
185.4820970483
 40
22.2187036371
100
AcDbArc
 50
202.6075387957
 51
207.9959121651
  0
ARC
  5
305
100
AcDbEntity
  8
0
100
AcDbCircle
 62
7
  6
CONTINUOUS
 10
-58.1229759415
 20
204.204164322
 40
21.0480673447
100
AcDbArc
 50
102.1421023401
 51
105.009749518
  0
ARC
  5
306
100
AcDbEntity
  8
0
100
AcDbCircle
 62
7
  6
CONTINUOUS
 10
-56.7116584892
 20
184.9233933124
 40
21.0359559936
100
AcDbArc
 50
207.9850797741
 51
212.2079111177
  0
ARC
  5
307
100
AcDbEntity
  8
0
100
AcDbCircle
 62
7
  6
CONTINUOUS
 10
2.9267720567
 20
210.8002501432
 40
20.7922376658
100
AcDbArc
 50
61.7526307067
 51
62.6366265153
  0
ARC
  5
308
100
AcDbEntity
  8
0
100
AcDbCircle
 62
7
  6
CONTINUOUS
 10
-57.558744413
 20
184.3767150788
 40
20.0278473313
100
AcDbArc
 50
212.1762585961
 51
218.1628315501
  0
ARC
  5
309
100
AcDbEntity
  8
0
100
AcDbCircle
 62
7
  6
CONTINUOUS
 10
-58.2081254856
 20
183.8641422179
 40
19.2005484291
100
AcDbArc
 50
218.1575709694
 51
222.4242989134
  0
ARC
  5
30A
100
AcDbEntity
  8
0
100
AcDbCircle
 62
7
  6
CONTINUOUS
 10
-58.6727261443
 20
183.4288542966
 40
18.5639441802
100
AcDbArc
 50
222.3999491349
 51
229.193821333
  0
ARC
  5
30B
100
AcDbEntity
  8
0
100
AcDbCircle
 62
7
  6
CONTINUOUS
 10
-58.9379672655
 20
183.1239112624
 40
18.1597896956
100
AcDbArc
 50
229.1985116034
 51
233.2459448901
  0
ARC
  5
30C
100
AcDbEntity
  8
0
100
AcDbCircle
 62
7
  6
CONTINUOUS
 10
-59.0572126045
 20
182.9661830009
 40
17.9620618597
100
AcDbArc
 50
233.2496421786
 51
239.9833089268
  0
ARC
  5
30D
100
AcDbEntity
  8
0
100
AcDbCircle
 62
7
  6
CONTINUOUS
 10
-47.3633122285
 20
214.7404605507
 40
0.5543385754
100
AcDbArc
 50
272.4315964181
 51
284.9307502961
  0
ARC
  5
30E
100
AcDbEntity
  8
0
100
AcDbCircle
 62
7
  6
CONTINUOUS
 10
-48.1264644371
 20
217.5824678852
 40
0.5529570472
100
AcDbArc
 50
92.4165651996
 51
104.9470481688
  0
ARC
  5
30F
100
AcDbEntity
  8
0
100
AcDbCircle
 62
7
  6
CONTINUOUS
 10
-14.1182022262
 20
295.8728210802
 40
89.9905160899
100
AcDbArc
 50
273.7976724214
 51
278.2934329761
  0
ARC
  5
310
100
AcDbEntity
  8
0
100
AcDbCircle
 62
7
  6
CONTINUOUS
 10
-59.1709019889
 20
256.8360899504
 40
86.7119588485
100
AcDbArc
 50
211.337101104
 51
211.4539759731
  0
ARC
  5
311
100
AcDbEntity
  8
0
100
AcDbCircle
 62
7
  6
CONTINUOUS
 10
-12.9582098228
 20
287.7648877716
 40
81.8000552181
100
AcDbArc
 50
278.3085969403
 51
279.8010073894
  0
ARC
  5
312
100
AcDbEntity
  8
0
100
AcDbCircle
 62
7
  6
CONTINUOUS
 10
-12.5500718328
 20
285.3699183976
 40
79.370564805
100
AcDbArc
 50
279.8049826606
 51
279.9437689177
  0
ARC
  5
313
100
AcDbEntity
  8
0
100
AcDbCircle
 62
7
  6
CONTINUOUS
 10
236.4266560549
 20
877.8773183284
 40
740.0293928263
100
AcDbArc
 50
240.0938521815
 51
241.4269780874
  0
SPLINE
  5
314
100
AcDbEntity
  8
0
100
AcDbSpline
 62
7
  6
CONTINUOUS
 70
0
 71
3
 72
20
 73
16
 74
0
 42
0.0000001
 43
0.0000001
 44
0.0000000001
 40
0.0
 40
0.0
 40
0.0
 40
0.0
 40
0.0527860084
 40
0.1117096343
 40
0.1763666929
 40
0.2459443125
 40
0.394828256
 40
0.5471739151
 40
0.6908581663
 40
0.7562119684
 40
0.8159005607
 40
0.869487034
 40
0.9171655851
 40
0.9599859165
 40
1.0
 40
1.0
 40
1.0
 40
1.0
 10
-47.7447872766
 20
214.2991269722
 30
0.0
 10
-47.8117817569
 20
214.3378217398
 30
0.0
 10
-47.9449215544
 20
214.4349638786
 30
0.0
 10
-48.1274405714
 20
214.6191060331
 30
0.0
 10
-48.2994142482
 20
214.8448851534
 30
0.0
 10
-48.5132595085
 20
215.2012469551
 30
0.0
 10
-48.7227597429
 20
215.7063381981
 30
0.0
 10
-48.8693448249
 20
216.3444631871
 30
0.0
 10
-48.8976095268
 20
216.8771528648
 30
0.0
 10
-48.8536434749
 20
217.2693813786
 30
0.0
 10
-48.7914648182
 20
217.5245841278
 30
0.0
 10
-48.700513137
 20
217.7435024727
 30
0.0
 10
-48.5822440118
 20
217.9205278417
 30
0.0
 10
-48.4384355453
 20
218.0501929185
 30
0.0
 10
-48.3257309836
 20
218.1015205845
 30
0.0
 10
-48.2690865701
 20
218.1167154152
 30
0.0
  0
SPLINE
  5
315
100
AcDbEntity
  8
0
100
AcDbSpline
 62
7
  6
CONTINUOUS
 70
0
 71
3
 72
10
 73
6
 74
0
 42
0.0000001
 43
0.0000001
 44
0.0000000001
 40
0.0
 40
0.0
 40
0.0
 40
0.0
 40
0.2307025888
 40
0.4700767246
 40
1.0
 40
1.0
 40
1.0
 40
1.0
 10
-47.2204879831
 20
214.2048437136
 30
0.0
 10
-47.2609674714
 20
214.1939851146
 30
0.0
 10
-47.3463760971
 20
214.1815420839
 30
0.0
 10
-47.5286294348
 20
214.1962238688
 30
0.0
 10
-47.6614246227
 20
214.2509782515
 30
0.0
 10
-47.7447872766
 20
214.2991269722
 30
0.0
  0
SPLINE
  5
316
100
AcDbEntity
  8
0
100
AcDbSpline
 62
7
  6
CONTINUOUS
 70
0
 71
3
 72
9
 73
5
 74
0
 42
0.0000001
 43
0.0000001
 44
0.0000000001
 40
0.0
 40
0.0
 40
0.0
 40
0.0
 40
0.2461627983
 40
1.0
 40
1.0
 40
1.0
 40
1.0
 10
-48.1497796031
 20
218.1349331774
 30
0.0
 10
-48.1403109461
 20
218.1353393289
 30
0.0
 10
-48.1018086035
 20
218.1360349156
 30
0.0
 10
-48.0632563667
 20
218.1329276513
 30
0.0
 10
-48.0345479743
 20
218.128665696
 30
0.0
  0
SPLINE
  5
317
100
AcDbEntity
  8
0
100
AcDbSpline
 62
7
  6
CONTINUOUS
 70
0
 71
3
 72
18
 73
14
 74
0
 42
0.0000001
 43
0.0000001
 44
0.0000000001
 40
0.0
 40
0.0
 40
0.0
 40
0.0
 40
0.1266261988
 40
0.2692564222
 40
0.4194774128
 40
0.567543988
 40
0.7040767458
 40
0.7657207708
 40
0.8220824847
 40
0.8729994405
 40
0.91882653
 40
0.9605789661
 40
1.0
 40
1.0
 40
1.0
 40
1.0
 10
-47.4542113279
 20
217.7931237224
 30
0.0
 10
-47.3346498173
 20
217.6726058979
 30
0.0
 10
-47.1152666979
 20
217.3815080749
 30
0.0
 10
-46.8639411337
 20
216.8759403446
 30
0.0
 10
-46.6860420875
 20
216.309640239
 30
0.0
 10
-46.5970915949
 20
215.7313491366
 30
0.0
 10
-46.6031052835
 20
215.2640694502
 30
0.0
 10
-46.6627985855
 20
214.927364125
 30
0.0
 10
-46.7302227371
 20
214.7104090383
 30
0.0
 10
-46.8205478591
 20
214.5250201035
 30
0.0
 10
-46.9325223022
 20
214.3751853705
 30
0.0
 10
-47.0645343609
 20
214.264862138
 30
0.0
 10
-47.1656264818
 20
214.2199851715
 30
0.0
 10
-47.2165683251
 20
214.2059108855
 30
0.0
  0
SPLINE
  5
318
100
AcDbEntity
  8
0
100
AcDbSpline
 62
7
  6
CONTINUOUS
 70
0
 71
3
 72
9
 73
5
 74
0
 42
0.0000001
 43
0.0000001
 44
0.0000000001
 40
0.0
 40
0.0
 40
0.0
 40
0.0
 40
0.2548607718
 40
1.0
 40
1.0
 40
1.0
 40
1.0
 10
-134.5971813415
 20
234.2294847421
 30
0.0
 10
-134.7853616571
 20
233.4090814678
 30
0.0
 10
-135.4388456469
 20
230.1714828371
 30
0.0
 10
-135.7460624745
 20
226.861576528
 30
0.0
 10
-135.7530655422
 20
224.4006738514
 30
0.0
  0
SPLINE
  5
319
100
AcDbEntity
  8
0
100
AcDbSpline
 62
7
  6
CONTINUOUS
 70
0
 71
3
 72
9
 73
5
 74
0
 42
0.0000001
 43
0.0000001
 44
0.0000000001
 40
0.0
 40
0.0
 40
0.0
 40
0.0
 40
0.5093425045
 40
1.0
 40
1.0
 40
1.0
 40
1.0
 10
-136.6528891517
 20
219.9468468512
 30
0.0
 10
-136.247904137
 20
218.3491756894
 30
0.0
 10
-135.219056814
 20
215.2656883623
 30
0.0
 10
-133.6989405652
 20
212.3887076982
 30
0.0
 10
-132.834861595
 20
211.0566876971
 30
0.0
  0
SPLINE
  5
31A
100
AcDbEntity
  8
0
100
AcDbSpline
 62
7
  6
CONTINUOUS
 70
0
 71
3
 72
11
 73
7
 74
0
 42
0.0000001
 43
0.0000001
 44
0.0000000001
 40
0.0
 40
0.0
 40
0.0
 40
0.0
 40
0.2595414217
 40
0.5112058065
 40
0.7571138786
 40
1.0
 40
1.0
 40
1.0
 40
1.0
 10
-117.3071767138
 20
206.6296747566
 30
0.0
 10
-116.964081824
 20
205.8002417499
 30
0.0
 10
-116.1690798539
 20
204.212260781
 30
0.0
 10
-114.6386706044
 20
202.073970268
 30
0.0
 10
-112.8163092722
 20
200.2581202903
 30
0.0
 10
-111.4235328376
 20
199.2825267557
 30
0.0
 10
-110.69615835
 20
198.8623910643
 30
0.0
  0
SPLINE
  5
31B
100
AcDbEntity
  8
0
100
AcDbSpline
 62
7
  6
CONTINUOUS
 70
0
 71
3
 72
11
 73
7
 74
0
 42
0.0000001
 43
0.0000001
 44
0.0000000001
 40
0.0
 40
0.0
 40
0.0
 40
0.0
 40
0.2660668125
 40
0.5228516249
 40
0.7678209666
 40
1.0
 40
1.0
 40
1.0
 40
1.0
 10
-117.3071767138
 20
224.2907438496
 30
0.0
 10
-117.8195194125
 20
222.7774811786
 30
0.0
 10
-118.6035633663
 20
219.7219052379
 30
0.0
 10
-119.018563619
 20
215.1088153015
 30
0.0
 10
-118.640345732
 20
210.6943889142
 30
0.0
 10
-117.840077624
 20
207.9179644316
 30
0.0
 10
-117.3071767138
 20
206.6296747566
 30
0.0
  0
SPLINE
  5
31C
100
AcDbEntity
  8
0
100
AcDbSpline
 62
7
  6
CONTINUOUS
 70
0
 71
3
 72
18
 73
14
 74
0
 42
0.0000001
 43
0.0000001
 44
0.0000000001
 40
0.0
 40
0.0
 40
0.0
 40
0.0
 40
0.0528870497
 40
0.1062706182
 40
0.1606084374
 40
0.2162866492
 40
0.3325052442
 40
0.4562614688
 40
0.5870298485
 40
0.6545945485
 40
0.7231638514
 40
0.8617704167
 40
1.0
 40
1.0
 40
1.0
 40
1.0
 10
-85.588652704
 20
242.3324619428
 30
0.0
 10
-86.2180064495
 20
242.6959457769
 30
0.0
 10
-87.5399173124
 20
243.3318214524
 30
0.0
 10
-89.6565326628
 20
243.9836282132
 30
0.0
 10
-91.8834068972
 20
244.3278505146
 30
0.0
 10
-95.0005553437
 20
244.3726618095
 30
0.0
 10
-99.0391787353
 20
243.6128481598
 30
0.0
 10
-103.7299156182
 20
241.5293478003
 30
0.0
 10
-107.3511515961
 20
238.9319955347
 30
0.0
 10
-110.0116670294
 20
236.4014633015
 30
0.0
 10
-112.5048280549
 20
233.560001854
 30
0.0
 10
-115.152130275
 20
229.5905246101
 30
0.0
 10
-116.698011981
 20
226.0899814558
 30
0.0
 10
-117.3071767138
 20
224.2907438496
 30
0.0
  0
SPLINE
  5
31D
100
AcDbEntity
  8
0
100
AcDbSpline
 62
7
  6
CONTINUOUS
 70
0
 71
3
 72
9
 73
5
 74
0
 42
0.0000001
 43
0.0000001
 44
0.0000000001
 40
0.0
 40
0.0
 40
0.0
 40
0.0
 40
0.4942424559
 40
1.0
 40
1.0
 40
1.0
 40
1.0
 10
-133.0846701433
 20
210.869882512
 30
0.0
 10
-133.6941964334
 20
211.8191884872
 30
0.0
 10
-134.7653936905
 20
213.8479898346
 30
0.0
 10
-135.5029229635
 20
216.0184052154
 30
0.0
 10
-135.7943430717
 20
217.1354429918
 30
0.0
  0
SPLINE
  5
31E
100
AcDbEntity
  8
0
100
AcDbSpline
 62
7
  6
CONTINUOUS
 70
0
 71
3
 72
9
 73
5
 74
0
 42
0.0000001
 43
0.0000001
 44
0.0000000001
 40
0.0
 40
0.0
 40
0.0
 40
0.0
 40
0.4911581253
 40
1.0
 40
1.0
 40
1.0
 40
1.0
 10
-102.5748326195
 20
256.0845694
 30
0.0
 10
-104.0705119326
 20
256.1359801225
 30
0.0
 10
-107.1286053344
 20
255.9858542473
 30
0.0
 10
-110.1251533247
 20
255.369922759
 30
0.0
 10
-111.6184824382
 20
254.9529715739
 30
0.0
  0
SPLINE
  5
31F
100
AcDbEntity
  8
0
100
AcDbSpline
 62
7
  6
CONTINUOUS
 70
0
 71
3
 72
9
 73
5
 74
0
 42
0.0000001
 43
0.0000001
 44
0.0000000001
 40
0.0
 40
0.0
 40
0.0
 40
0.0
 40
0.2451899022
 40
1.0
 40
1.0
 40
1.0
 40
1.0
 10
-114.9694914337
 20
255.0583122591
 30
0.0
 10
-115.6511267889
 20
254.6753929154
 30
0.0
 10
-118.3856457277
 20
253.0334555251
 30
0.0
 10
-120.9326594644
 20
251.0835850271
 30
0.0
 10
-122.7272390575
 20
249.4797366709
 30
0.0
  0
SPLINE
  5
320
100
AcDbEntity
  8
0
100
AcDbSpline
 62
7
  6
CONTINUOUS
 70
0
 71
3
 72
9
 73
5
 74
0
 42
0.0000001
 43
0.0000001
 44
0.0000000001
 40
0.0
 40
0.0
 40
0.0
 40
0.0
 40
0.4931530112
 40
1.0
 40
1.0
 40
1.0
 40
1.0
 10
-136.6155177322
 20
223.7354993237
 30
0.0
 10
-136.6155177322
 20
225.5012811074
 30
0.0
 10
-136.2831839145
 20
229.0874837407
 30
0.0
 10
-135.3565561043
 20
232.5641975287
 30
0.0
 10
-134.7529993583
 20
234.2757087078
 30
0.0
  0
SPLINE
  5
321
100
AcDbEntity
  8
0
100
AcDbSpline
 62
7
  6
CONTINUOUS
 70
0
 71
3
 72
9
 73
5
 74
0
 42
0.0000001
 43
0.0000001
 44
0.0000000001
 40
0.0
 40
0.0
 40
0.0
 40
0.0
 40
0.5009924602
 40
1.0
 40
1.0
 40
1.0
 40
1.0
 10
-134.7529993583
 20
234.2757087078
 30
0.0
 10
-133.9063928879
 20
236.6764381309
 30
0.0
 10
-131.6819252242
 20
241.294044208
 30
0.0
 10
-128.5274258745
 20
245.3352242945
 30
0.0
 10
-126.7530029601
 20
247.1464173182
 30
0.0
  0
SPLINE
  5
322
100
AcDbEntity
  8
0
100
AcDbSpline
 62
7
  6
CONTINUOUS
 70
0
 71
3
 72
9
 73
5
 74
0
 42
0.0000001
 43
0.0000001
 44
0.0000000001
 40
0.0
 40
0.0
 40
0.0
 40
0.0
 40
0.5093464909
 40
1.0
 40
1.0
 40
1.0
 40
1.0
 10
-126.7530029601
 20
247.1464173182
 30
0.0
 10
-125.301725893
 20
248.6277681721
 30
0.0
 10
-122.1758547651
 20
251.2800591256
 30
0.0
 10
-118.5724051429
 20
253.2515344122
 30
0.0
 10
-116.721285971
 20
254.0025948957
 30
0.0
  0
SPLINE
  5
323
100
AcDbEntity
  8
0
100
AcDbSpline
 62
7
  6
CONTINUOUS
 70
0
 71
3
 72
9
 73
5
 74
0
 42
0.0000001
 43
0.0000001
 44
0.0000000001
 40
0.0
 40
0.0
 40
0.0
 40
0.0
 40
0.5050969037
 40
1.0
 40
1.0
 40
1.0
 40
1.0
 10
-113.7493091656
 20
254.9978279838
 30
0.0
 10
-112.7717727884
 20
255.2567863589
 30
0.0
 10
-110.8012422279
 20
255.6463294573
 30
0.0
 10
-108.7947338822
 20
255.7613131576
 30
0.0
 10
-107.804018702
 20
255.7452105727
 30
0.0
  0
SPLINE
  5
324
100
AcDbEntity
  8
0
100
AcDbSpline
 62
7
  6
CONTINUOUS
 70
0
 71
3
 72
10
 73
6
 74
0
 42
0.0000001
 43
0.0000001
 44
0.0000000001
 40
0.0
 40
0.0
 40
0.0
 40
0.0
 40
0.2354345789
 40
0.4808230649
 40
1.0
 40
1.0
 40
1.0
 40
1.0
 10
-113.8276849924
 20
254.9044265284
 30
0.0
 10
-113.8889822607
 20
254.9599749183
 30
0.0
 10
-114.0352767912
 20
255.0516755075
 30
0.0
 10
-114.3790484859
 20
255.1407000087
 30
0.0
 10
-114.6581899544
 20
255.1003129301
 30
0.0
 10
-114.8297721671
 20
255.0383784641
 30
0.0
  0
SPLINE
  5
325
100
AcDbEntity
  8
0
100
AcDbSpline
 62
7
  6
CONTINUOUS
 70
0
 71
3
 72
9
 73
5
 74
0
 42
0.0000001
 43
0.0000001
 44
0.0000000001
 40
0.0
 40
0.0
 40
0.0
 40
0.0
 40
0.5657180274
 40
1.0
 40
1.0
 40
1.0
 40
1.0
 10
-114.8295623092
 20
255.0382564752
 30
0.0
 10
-114.8533784974
 20
255.0520708243
 30
0.0
 10
-114.8983596982
 20
255.0731381422
 30
0.0
 10
-114.9510235056
 20
255.0685909149
 30
0.0
 10
-114.9694181315
 20
255.0581811984
 30
0.0
  0
SPLINE
  5
326
100
AcDbEntity
  8
0
100
AcDbSpline
 62
7
  6
CONTINUOUS
 70
0
 71
3
 72
24
 73
20
 74
0
 42
0.0000001
 43
0.0000001
 44
0.0000000001
 40
0.0
 40
0.0
 40
0.0
 40
0.0
 40
0.1256488137
 40
0.2513045353
 40
0.3769641229
 40
0.502623275
 40
0.5654509828
 40
0.6282750593
 40
0.6910924329
 40
0.753897097
 40
0.8166755501
 40
0.8480458917
 40
0.8793918166
 40
0.9106924142
 40
0.9418934063
 40
0.9574105736
 40
0.9727909779
 40
0.9877760874
 40
1.0
 40
1.0
 40
1.0
 40
1.0
 10
-131.7193217433
 20
238.5251917895
 30
0.0
 10
-131.7603117262
 20
238.4380827726
 30
0.0
 10
-131.8413179826
 20
238.263398648
 30
0.0
 10
-131.9597738548
 20
237.9999725714
 30
0.0
 10
-132.0749839741
 20
237.7351012543
 30
0.0
 10
-132.1680329941
 20
237.5131074226
 30
0.0
 10
-132.2404179821
 20
237.3346762153
 30
0.0
 10
-132.2935617598
 20
237.2004050231
 30
0.0
 10
-132.3453990909
 20
237.0656419456
 30
0.0
 10
-132.3956704036
 20
236.9303243007
 30
0.0
 10
-132.4359155331
 20
236.8169923856
 30
0.0
 10
-132.4666850566
 20
236.7258973467
 30
0.0
 10
-132.4888342169
 20
236.657336436
 30
0.0
 10
-132.5096956682
 20
236.5885653444
 30
0.0
 10
-132.5255385522
 20
236.5307692687
 30
0.0
 10
-132.5363529017
 20
236.4847080318
 30
0.0
 10
-132.54309545
 20
236.4493551942
 30
0.0
 10
-132.5464496603
 20
236.4196751726
 30
0.0
 10
-132.5457306411
 20
236.3927203198
 30
0.0
 10
-132.5373557066
 20
236.388527447
 30
0.0
  0
SPLINE
  5
327
100
AcDbEntity
  8
0
100
AcDbSpline
 62
7
  6
CONTINUOUS
 70
0
 71
3
 72
9
 73
5
 74
0
 42
0.0000001
 43
0.0000001
 44
0.0000000001
 40
0.0
 40
0.0
 40
0.0
 40
0.0
 40
0.240747914
 40
1.0
 40
1.0
 40
1.0
 40
1.0
 10
-112.4985776263
 20
254.6295437066
 30
0.0
 10
-111.336859549
 20
253.9529549394
 30
0.0
 10
-106.5742022791
 20
251.0351933458
 30
0.0
 10
-102.0636468565
 20
247.7135736165
 30
0.0
 10
-98.7831404047
 20
245.0276419381
 30
0.0
  0
SPLINE
  5
328
100
AcDbEntity
  8
0
100
AcDbSpline
 62
7
  6
CONTINUOUS
 70
0
 71
3
 72
11
 73
7
 74
0
 42
0.0000001
 43
0.0000001
 44
0.0000000001
 40
0.0
 40
0.0
 40
0.0
 40
0.0
 40
0.1862716794
 40
0.3948238816
 40
0.6678756877
 40
1.0
 40
1.0
 40
1.0
 40
1.0
 10
-135.7898288247
 20
221.6152340342
 30
0.0
 10
-135.7691116125
 20
221.63408153
 30
0.0
 10
-135.7100813104
 20
221.6617361294
 30
0.0
 10
-135.6083786644
 20
221.6283838275
 30
0.0
 10
-135.5181036044
 20
221.5435513821
 30
0.0
 10
-135.4677256833
 20
221.4669136383
 30
0.0
 10
-135.4438368133
 20
221.423060173
 30
0.0
  0
SPLINE
  5
329
100
AcDbEntity
  8
0
100
AcDbSpline
 62
7
  6
CONTINUOUS
 70
0
 71
3
 72
9
 73
5
 74
0
 42
0.0000001
 43
0.0000001
 44
0.0000000001
 40
0.0
 40
0.0
 40
0.0
 40
0.0
 40
0.2451201614
 40
1.0
 40
1.0
 40
1.0
 40
1.0
 10
-114.9231942866
 20
254.9854698268
 30
0.0
 10
-115.6025167439
 20
254.601475378
 30
0.0
 10
-118.328462967
 20
252.9553282286
 30
0.0
 10
-120.8672534331
 20
251.0035025687
 30
0.0
 10
-122.6562328196
 20
249.398905366
 30
0.0
  0
SPLINE
  5
32A
100
AcDbEntity
  8
0
100
AcDbSpline
 62
7
  6
CONTINUOUS
 70
0
 71
3
 72
8
 73
4
 74
0
 42
0.0000001
 43
0.0000001
 44
0.0000000001
 40
0.0
 40
0.0
 40
0.0
 40
0.0
 40
1.0
 40
1.0
 40
1.0
 40
1.0
 10
-122.9189495935
 20
249.1614929852
 30
0.0
 10
-123.0263046272
 20
249.0623481339
 30
0.0
 10
-123.1341282123
 20
248.9637109212
 30
0.0
 10
-123.2413631913
 20
248.8644362313
 30
0.0
  0
SPLINE
  5
32B
100
AcDbEntity
  8
0
100
AcDbSpline
 62
7
  6
CONTINUOUS
 70
0
 71
3
 72
42
 73
38
 74
0
 42
0.0000001
 43
0.0000001
 44
0.0000000001
 40
0.0
 40
0.0
 40
0.0
 40
0.0
 40
0.10700072
 40
0.2197975013
 40
0.3380224904
 40
0.399066862
 40
0.4613372863
 40
0.524792246
 40
0.589391233
 40
0.6550947323
 40
0.7218641187
 40
0.7896610077
 40
0.8239329994
 40
0.8584468913
 40
0.8757928704
 40
0.893197218
 40
0.9106591682
 40
0.9281779569
 40
0.9369584755
 40
0.9457530458
 40
0.9545617922
 40
0.9633851842
 40
0.9678028072
 40
0.9722248675
 40
0.9766522095
 40
0.9810867046
 40
0.9855333504
 40
0.9877661962
 40
0.9900135751
 40
0.9911498075
 40
0.9923061261
 40
0.9935213874
 40
0.9942156648
 40
0.994987744
 40
0.9963603409
 40
0.9976091558
 40
1.0
 40
1.0
 40
1.0
 40
1.0
 10
-113.6071906963
 20
250.9321155152
 30
0.0
 10
-113.5693610378
 20
250.4738549307
 30
0.0
 10
-113.4604314796
 20
249.5348183933
 30
0.0
 10
-113.1996271019
 20
248.1048718997
 30
0.0
 10
-112.8964100115
 20
246.8860150439
 30
0.0
 10
-112.600116343
 20
245.8910925398
 30
0.0
 10
-112.3479393271
 20
245.1289909619
 30
0.0
 10
-112.0683908928
 20
244.3602400767
 30
0.0
 10
-111.7617853833
 20
243.5859876246
 30
0.0
 10
-111.4286261568
 20
242.8072760421
 30
0.0
 10
-111.0696163537
 20
242.0250042313
 30
0.0
 10
-110.7512045298
 20
241.3729763754
 30
0.0
 10
-110.4855918866
 20
240.8495643473
 30
0.0
 10
-110.3152103072
 20
240.5209675939
 30
0.0
 10
-110.176951321
 20
240.2573741469
 30
0.0
 10
-110.0723022327
 20
240.0588987614
 30
0.0
 10
-109.9671542442
 20
239.8598472671
 30
0.0
 10
-109.8795407359
 20
239.6934453484
 30
0.0
 10
-109.809794464
 20
239.5597315715
 30
0.0
 10
-109.7577765459
 20
239.4589873205
 30
0.0
 10
-109.7063216807
 20
239.3577472196
 30
0.0
 10
-109.6642295288
 20
239.2728505793
 30
0.0
 10
-109.6313554988
 20
239.2044330831
 30
0.0
 10
-109.6072365015
 20
239.1527716001
 30
0.0
 10
-109.5838769679
 20
239.1006799381
 30
0.0
 10
-109.5616552124
 20
239.0479783821
 30
0.0
 10
-109.5446451037
 20
239.0033226614
 30
0.0
 10
-109.5328796004
 20
238.9667990279
 30
0.0
 10
-109.5267751792
 20
238.9434236323
 30
0.0
 10
-109.5233972478
 20
238.924179315
 30
0.0
 10
-109.5222070014
 20
238.9091599862
 30
0.0
 10
-109.5232621313
 20
238.895794619
 30
0.0
 10
-109.5288582032
 20
238.8852480551
 30
0.0
 10
-109.5404271355
 20
238.8792418909
 30
0.0
 10
-109.5555127165
 20
238.8826107562
 30
0.0
 10
-109.5751332847
 20
238.8910317252
 30
0.0
 10
-109.5884495734
 20
238.8995398269
 30
0.0
 10
-109.5969394782
 20
238.9053262386
 30
0.0
  0
SPLINE
  5
32C
100
AcDbEntity
  8
0
100
AcDbSpline
 62
7
  6
CONTINUOUS
 70
0
 71
3
 72
9
 73
5
 74
0
 42
0.0000001
 43
0.0000001
 44
0.0000000001
 40
0.0
 40
0.0
 40
0.0
 40
0.0
 40
0.2542272576
 40
1.0
 40
1.0
 40
1.0
 40
1.0
 10
-109.5972258842
 20
238.9054445733
 30
0.0
 10
-109.783024075
 20
239.1689584649
 30
0.0
 10
-110.5008965466
 20
240.21453617
 30
0.0
 10
-111.1643428694
 20
241.2977192573
 30
0.0
 10
-111.623176029
 20
242.124816268
 30
0.0
  0
SPLINE
  5
32D
100
AcDbEntity
  8
0
100
AcDbSpline
 62
7
  6
CONTINUOUS
 70
0
 71
3
 72
14
 73
10
 74
0
 42
0.0000001
 43
0.0000001
 44
0.0000000001
 40
0.0
 40
0.0
 40
0.0
 40
0.0
 40
0.1378706578
 40
0.2722697693
 40
0.4670126084
 40
0.5612959562
 40
0.6534350868
 40
0.8310154688
 40
1.0
 40
1.0
 40
1.0
 40
1.0
 10
-111.623176029
 20
242.124816268
 30
0.0
 10
-111.9223922131
 20
242.6685120739
 30
0.0
 10
-112.4857723699
 20
243.7577812688
 30
0.0
 10
-113.3426794578
 20
245.6783642509
 30
0.0
 10
-113.9776561471
 20
247.4799557933
 30
0.0
 10
-114.4047969159
 20
249.142558117
 30
0.0
 10
-114.7240965843
 20
250.7502761155
 30
0.0
 10
-114.9470580596
 20
252.7172769113
 30
0.0
 10
-114.9098614098
 20
254.2837007916
 30
0.0
 10
-114.8295601328
 20
255.0400949294
 30
0.0
  0
SPLINE
  5
32E
100
AcDbEntity
  8
0
100
AcDbSpline
 62
7
  6
CONTINUOUS
 70
0
 71
3
 72
9
 73
5
 74
0
 42
0.0000001
 43
0.0000001
 44
0.0000000001
 40
0.0
 40
0.0
 40
0.0
 40
0.0
 40
0.491274822
 40
1.0
 40
1.0
 40
1.0
 40
1.0
 10
-102.5732186904
 20
256.0601259314
 30
0.0
 10
-103.9920248402
 20
256.1041029246
 30
0.0
 10
-106.8907364952
 20
255.9635613341
 30
0.0
 10
-109.7356580249
 20
255.401068726
 30
0.0
 10
-111.1554131157
 20
255.0203765165
 30
0.0
  0
LINE
  5
32F
100
AcDbEntity
  8
0
100
AcDbLine
 62
7
  6
CONTINUOUS
 10
-111.1554131157
 20
255.0203765165
 11
-111.4035804497
 21
254.9522739948
  0
SPLINE
  5
330
100
AcDbEntity
  8
0
100
AcDbSpline
 62
7
  6
CONTINUOUS
 70
0
 71
3
 72
14
 73
10
 74
0
 42
0.0000001
 43
0.0000001
 44
0.0000000001
 40
0.0
 40
0.0
 40
0.0
 40
0.0
 40
0.272126249
 40
0.4016207798
 40
0.526814687
 40
0.6482814659
 40
0.7668685392
 40
0.8836902713
 40
1.0
 40
1.0
 40
1.0
 40
1.0
 10
-120.2168619329
 20
215.0852350337
 30
0.0
 10
-120.2168405872
 20
213.1558463199
 30
0.0
 10
-119.906322011
 20
210.2886172385
 30
0.0
 10
-118.7921575719
 20
206.7145271433
 30
0.0
 10
-117.6548798995
 20
204.2918729439
 30
0.0
 10
-116.2186900889
 20
202.1253650652
 30
0.0
 10
-114.5050527153
 20
200.2491534678
 30
0.0
 10
-112.5411534509
 20
198.6952631443
 30
0.0
 10
-111.0866136783
 20
197.891748462
 30
0.0
 10
-110.3346324491
 20
197.5532838144
 30
0.0
  0
SPLINE
  5
331
100
AcDbEntity
  8
0
100
AcDbSpline
 62
7
  6
CONTINUOUS
 70
0
 71
3
 72
9
 73
5
 74
0
 42
0.0000001
 43
0.0000001
 44
0.0000000001
 40
0.0
 40
0.0
 40
0.0
 40
0.0
 40
0.4974296833
 40
1.0
 40
1.0
 40
1.0
 40
1.0
 10
-124.9226278545
 20
247.3229430551
 30
0.0
 10
-124.8850331463
 20
247.3089330629
 30
0.0
 10
-124.8139717417
 20
247.2567200511
 30
0.0
 10
-124.7975917905
 20
247.1711412305
 30
0.0
 10
-124.7989027528
 20
247.1306274724
 30
0.0
  0
SPLINE
  5
332
100
AcDbEntity
  8
0
100
AcDbSpline
 62
7
  6
CONTINUOUS
 70
0
 71
3
 72
9
 73
5
 74
0
 42
0.0000001
 43
0.0000001
 44
0.0000000001
 40
0.0
 40
0.0
 40
0.0
 40
0.0
 40
0.491017741
 40
1.0
 40
1.0
 40
1.0
 40
1.0
 10
-132.5377881252
 20
210.6468906669
 30
0.0
 10
-130.1962678023
 20
209.3075086273
 30
0.0
 10
-125.2838969702
 20
206.8251825085
 30
0.0
 10
-120.1598137824
 20
204.8207957781
 30
0.0
 10
-117.5142112757
 20
203.9154552927
 30
0.0
  0
SPLINE
  5
333
100
AcDbEntity
  8
0
100
AcDbSpline
 62
7
  6
CONTINUOUS
 70
0
 71
3
 72
9
 73
5
 74
0
 42
0.0000001
 43
0.0000001
 44
0.0000000001
 40
0.0
 40
0.0
 40
0.0
 40
0.0
 40
0.4846869748
 40
1.0
 40
1.0
 40
1.0
 40
1.0
 10
-135.6379455484
 20
222.6854762588
 30
0.0
 10
-133.2575056074
 20
221.3192742398
 30
0.0
 10
-128.2492180836
 20
218.6676627236
 30
0.0
 10
-123.0961324399
 20
216.3124839856
 30
0.0
 10
-120.4119837508
 20
215.1677550213
 30
0.0
  0
SPLINE
  5
334
100
AcDbEntity
  8
0
100
AcDbSpline
 62
7
  6
CONTINUOUS
 70
0
 71
3
 72
13
 73
9
 74
0
 42
0.0000001
 43
0.0000001
 44
0.0000000001
 40
0.0
 40
0.0
 40
0.0
 40
0.0
 40
0.1181155409
 40
0.2365659092
 40
0.3563480621
 40
0.4783641497
 40
0.7314288293
 40
1.0
 40
1.0
 40
1.0
 40
1.0
 10
-109.4702525134
 20
198.1854617884
 30
0.0
 10
-110.101865034
 20
198.4731050313
 30
0.0
 10
-111.3274777574
 20
199.1407979883
 30
0.0
 10
-113.0088713098
 20
200.3999892777
 30
0.0
 10
-114.5118615616
 20
201.9006389174
 30
0.0
 10
-116.2737051707
 20
204.2238581084
 30
0.0
 10
-117.9334401909
 20
207.6693754767
 30
0.0
 10
-118.5880338441
 20
210.6923604587
 30
0.0
 10
-118.765785782
 20
212.2603958166
 30
0.0
  0
SPLINE
  5
335
100
AcDbEntity
  8
0
100
AcDbSpline
 62
7
  6
CONTINUOUS
 70
0
 71
3
 72
20
 73
16
 74
0
 42
0.0000001
 43
0.0000001
 44
0.0000000001
 40
0.0
 40
0.0
 40
0.0
 40
0.0
 40
0.131017414
 40
0.1989713464
 40
0.2677986443
 40
0.4055372408
 40
0.4734787486
 40
0.5400124033
 40
0.6669396543
 40
0.7270980001
 40
0.784917381
 40
0.8406103831
 40
0.8945969523
 40
0.947482032
 40
1.0
 40
1.0
 40
1.0
 40
1.0
 10
-118.9193329207
 20
215.1841940177
 30
0.0
 10
-118.9055624777
 20
217.455426755
 30
0.0
 10
-118.4292887802
 20
220.9157948645
 30
0.0
 10
-117.0311775544
 20
225.3489266216
 30
0.0
 10
-115.106156742
 20
229.7101125395
 30
0.0
 10
-112.4826173453
 20
233.7336151318
 30
0.0
 10
-109.2825494886
 20
237.2137488331
 30
0.0
 10
-105.8505933689
 20
240.1831689416
 30
0.0
 10
-102.0219083939
 20
242.4603644536
 30
0.0
 10
-97.9898155823
 20
243.8293430686
 30
0.0
 10
-95.0145308225
 20
244.3653057953
 30
0.0
 10
-92.0977323005
 20
244.4137500737
 30
0.0
 10
-89.2991694913
 20
243.9705990328
 30
0.0
 10
-86.6800911242
 20
243.0430722562
 30
0.0
 10
-85.0918907236
 20
242.1137944101
 30
0.0
 10
-84.3526811965
 20
241.5823252081
 30
0.0
  0
SPLINE
  5
336
100
AcDbEntity
  8
0
100
AcDbSpline
 62
7
  6
CONTINUOUS
 70
0
 71
3
 72
15
 73
11
 74
0
 42
0.0000001
 43
0.0000001
 44
0.0000000001
 40
0.0
 40
0.0
 40
0.0
 40
0.0
 40
0.2419432949
 40
0.4870751512
 40
0.6115962067
 40
0.7383070884
 40
0.8688330302
 40
0.9365015047
 40
0.9705159625
 40
1.0
 40
1.0
 40
1.0
 40
1.0
 10
-132.8348677127
 20
211.0566855732
 30
0.0
 10
-132.8126085769
 20
211.0223736045
 30
0.0
 10
-132.7674109612
 20
210.9535477822
 30
0.0
 10
-132.7094684244
 20
210.8679125683
 30
0.0
 10
-132.6613654081
 20
210.799164446
 30
0.0
 10
-132.6235975727
 20
210.7468139829
 30
0.0
 10
-132.5903698875
 20
210.7031255919
 30
0.0
 10
-132.5653705316
 20
210.6727329312
 30
0.0
 10
-132.5500743309
 20
210.6568116524
 30
0.0
 10
-132.5421729873
 20
210.6492602516
 30
0.0
 10
-132.5377881252
 20
210.6468906669
 30
0.0
  0
SPLINE
  5
337
100
AcDbEntity
  8
0
100
AcDbSpline
 62
7
  6
CONTINUOUS
 70
0
 71
3
 72
11
 73
7
 74
0
 42
0.0000001
 43
0.0000001
 44
0.0000000001
 40
0.0
 40
0.0
 40
0.0
 40
0.0
 40
0.2353117561
 40
0.4630042561
 40
0.7132911004
 40
1.0
 40
1.0
 40
1.0
 40
1.0
 10
-133.1555724157
 20
235.3458244643
 30
0.0
 10
-133.1249921944
 20
235.354043828
 30
0.0
 10
-133.0602652321
 20
235.3591390654
 30
0.0
 10
-132.9695318234
 20
235.3167613328
 30
0.0
 10
-132.9052814536
 20
235.2326825125
 30
0.0
 10
-132.8820366372
 20
235.1632464099
 30
0.0
 10
-132.8738247621
 20
235.1255484522
 30
0.0
  0
SPLINE
  5
338
100
AcDbEntity
  8
0
100
AcDbSpline
 62
7
  6
CONTINUOUS
 70
0
 71
3
 72
20
 73
16
 74
0
 42
0.0000001
 43
0.0000001
 44
0.0000000001
 40
0.0
 40
0.0
 40
0.0
 40
0.0
 40
0.0530591015
 40
0.105969481
 40
0.1595752432
 40
0.2146326019
 40
0.2717180241
 40
0.3311791219
 40
0.393127103
 40
0.4574514546
 40
0.5916451248
 40
0.7300973281
 40
0.7994624062
 40
0.8679865817
 40
1.0
 40
1.0
 40
1.0
 40
1.0
 10
-82.7496544674
 20
241.4172786926
 30
0.0
 10
-83.4726119549
 20
242.0952570379
 30
0.0
 10
-85.0511443819
 20
243.3141879076
 30
0.0
 10
-87.7393048674
 20
244.6446326205
 30
0.0
 10
-90.6710377951
 20
245.4371156547
 30
0.0
 10
-93.7750625837
 20
245.6749244964
 30
0.0
 10
-96.9800385749
 20
245.3568174417
 30
0.0
 10
-100.2143660883
 20
244.4937253443
 30
0.0
 10
-103.407997311
 20
243.1075612183
 30
0.0
 10
-107.5748596655
 20
240.5711133892
 30
0.0
 10
-112.2724671677
 20
236.2815591048
 30
0.0
 10
-115.9167064002
 20
230.9655196764
 30
0.0
 10
-118.0843241962
 20
226.2690404938
 30
0.0
 10
-119.6619352457
 20
221.4735618584
 30
0.0
 10
-120.2013348539
 20
217.7145790065
 30
0.0
 10
-120.2163022526
 20
215.2486693719
 30
0.0
  0
SPLINE
  5
339
100
AcDbEntity
  8
0
100
AcDbSpline
 62
7
  6
CONTINUOUS
 70
0
 71
3
 72
9
 73
5
 74
0
 42
0.0000001
 43
0.0000001
 44
0.0000000001
 40
0.0
 40
0.0
 40
0.0
 40
0.0
 40
0.2209867019
 40
1.0
 40
1.0
 40
1.0
 40
1.0
 10
-101.6839482936
 20
254.4988084029
 30
0.0
 10
-101.6933936454
 20
254.4791414767
 30
0.0
 10
-101.731198721
 20
254.3877647096
 30
0.0
 10
-101.7515743352
 20
254.2900254536
 30
0.0
 10
-101.7620040847
 20
254.2138258147
 30
0.0
  0
SPLINE
  5
33A
100
AcDbEntity
  8
0
100
AcDbSpline
 62
7
  6
CONTINUOUS
 70
0
 71
3
 72
9
 73
5
 74
0
 42
0.0000001
 43
0.0000001
 44
0.0000000001
 40
0.0
 40
0.0
 40
0.0
 40
0.0
 40
0.2428123753
 40
1.0
 40
1.0
 40
1.0
 40
1.0
 10
-101.7665327796
 20
254.1776149597
 30
0.0
 10
-101.7674726397
 20
254.1693435646
 30
0.0
 10
-101.7710878305
 20
254.1352497866
 30
0.0
 10
-101.7737123529
 20
254.1010531249
 30
0.0
 10
-101.7752180406
 20
254.0751372778
 30
0.0
  0
SPLINE
  5
33B
100
AcDbEntity
  8
0
100
AcDbSpline
 62
7
  6
CONTINUOUS
 70
0
 71
3
 72
9
 73
5
 74
0
 42
0.0000001
 43
0.0000001
 44
0.0000000001
 40
0.0
 40
0.0
 40
0.0
 40
0.0
 40
0.4957180203
 40
1.0
 40
1.0
 40
1.0
 40
1.0
 10
-100.8898533747
 20
254.2601449708
 30
0.0
 10
-98.5936677545
 20
252.918203234
 30
0.0
 10
-94.1077184347
 20
249.9537798388
 30
0.0
 10
-89.9633056569
 20
246.5296779875
 30
0.0
 10
-87.967329591
 20
244.7032441376
 30
0.0
  0
SPLINE
  5
33C
100
AcDbEntity
  8
0
100
AcDbSpline
 62
7
  6
CONTINUOUS
 70
0
 71
3
 72
9
 73
5
 74
0
 42
0.0000001
 43
0.0000001
 44
0.0000000001
 40
0.0
 40
0.0
 40
0.0
 40
0.0
 40
0.2597967706
 40
1.0
 40
1.0
 40
1.0
 40
1.0
 10
-98.7823788308
 20
245.0272024214
 30
0.0
 10
-98.925909864
 20
245.2544906957
 30
0.0
 10
-99.4697965346
 20
246.1347252373
 30
0.0
 10
-99.9799782085
 20
247.0360051914
 30
0.0
 10
-100.3335798304
 20
247.7153886849
 30
0.0
  0
SPLINE
  5
33D
100
AcDbEntity
  8
0
100
AcDbSpline
 62
7
  6
CONTINUOUS
 70
0
 71
3
 72
15
 73
11
 74
0
 42
0.0000001
 43
0.0000001
 44
0.0000000001
 40
0.0
 40
0.0
 40
0.0
 40
0.0
 40
0.164817847
 40
0.3193364504
 40
0.4627642764
 40
0.5943881385
 40
0.7140556226
 40
0.8216324026
 40
0.9168761552
 40
1.0
 40
1.0
 40
1.0
 40
1.0
 10
-100.3335798304
 20
247.7153886849
 30
0.0
 10
-100.5540850853
 20
248.1430143907
 30
0.0
 10
-100.9653553136
 20
248.9799623056
 30
0.0
 10
-101.5038452208
 20
250.219472121
 30
0.0
 10
-101.9389015033
 20
251.3964806228
 30
0.0
 10
-102.2605598392
 20
252.5040931831
 30
0.0
 10
-102.4747190632
 20
253.53057025
 30
0.0
 10
-102.5919653554
 20
254.466062211
 30
0.0
 10
-102.605866506
 20
255.3024714988
 30
0.0
 10
-102.5391250314
 20
255.8219954506
 30
0.0
 10
-102.4830573252
 20
256.0580811365
 30
0.0
  0
SPLINE
  5
33E
100
AcDbEntity
  8
0
100
AcDbSpline
 62
7
  6
CONTINUOUS
 70
0
 71
3
 72
11
 73
7
 74
0
 42
0.0000001
 43
0.0000001
 44
0.0000000001
 40
0.0
 40
0.0
 40
0.0
 40
0.0
 40
0.2501120873
 40
0.4976374461
 40
0.7464825261
 40
1.0
 40
1.0
 40
1.0
 40
1.0
 10
-101.7263507887
 20
255.4564882897
 30
0.0
 10
-101.7526846616
 20
255.537060981
 30
0.0
 10
-101.8298890422
 20
255.6904422616
 30
0.0
 10
-102.0078178903
 20
255.8751793475
 30
0.0
 10
-102.2310785234
 20
256.0030690734
 30
0.0
 10
-102.3980688367
 20
256.0462088777
 30
0.0
 10
-102.4832678014
 20
256.0573248816
 30
0.0
  0
SPLINE
  5
33F
100
AcDbEntity
  8
0
100
AcDbSpline
 62
7
  6
CONTINUOUS
 70
0
 71
3
 72
27
 73
23
 74
0
 42
0.0000001
 43
0.0000001
 44
0.0000000001
 40
0.0
 40
0.0
 40
0.0
 40
0.0
 40
0.2386381525
 40
0.3619663156
 40
0.487613977
 40
0.55116792
 40
0.6150917046
 40
0.6792472943
 40
0.7434169444
 40
0.7753987097
 40
0.8072187352
 40
0.8387642854
 40
0.8698526379
 40
0.9001501769
 40
0.928908917
 40
0.9421125482
 40
0.9481390194
 40
0.9534880857
 40
0.9576927703
 40
0.9683591322
 40
0.9855591158
 40
1.0
 40
1.0
 40
1.0
 40
1.0
 10
-88.9392199052
 20
246.1437197152
 30
0.0
 10
-88.8466234002
 20
246.0247132809
 30
0.0
 10
-88.7077487222
 20
245.8429715648
 30
0.0
 10
-88.5236689443
 20
245.595898928
 30
0.0
 10
-88.4070591981
 20
245.4365240898
 30
0.0
 10
-88.3135765868
 20
245.3067464994
 30
0.0
 10
-88.2433586103
 20
245.2080982577
 30
0.0
 10
-88.1735745594
 20
245.108666745
 30
0.0
 10
-88.11607622
 20
245.025273497
 30
0.0
 10
-88.0707559618
 20
244.9583066881
 30
0.0
 10
-88.0373504223
 20
244.9081684384
 30
0.0
 10
-88.0047208397
 20
244.8581965466
 30
0.0
 10
-87.9732519925
 20
244.8086110452
 30
0.0
 10
-87.9436523325
 20
244.7599663003
 30
0.0
 10
-87.9212775659
 20
244.7200732902
 30
0.0
 10
-87.9079831755
 20
244.6929088229
 30
0.0
 10
-87.902538942
 20
244.6781641176
 30
0.0
 10
-87.89956167
 20
244.6692364449
 30
0.0
 10
-87.9008190283
 20
244.6536501889
 30
0.0
 10
-87.928518786
 20
244.6690825572
 30
0.0
 10
-87.9446422285
 20
244.6831673778
 30
0.0
 10
-87.9605936708
 20
244.6970888998
 30
0.0
 10
-87.967329591
 20
244.7032441376
 30
0.0
  0
SPLINE
  5
340
100
AcDbEntity
  8
0
100
AcDbSpline
 62
7
  6
CONTINUOUS
 70
0
 71
3
 72
14
 73
10
 74
0
 42
0.0000001
 43
0.0000001
 44
0.0000000001
 40
0.0
 40
0.0
 40
0.0
 40
0.0
 40
0.3298163869
 40
0.4835999765
 40
0.6262815793
 40
0.7525024184
 40
0.85134768
 40
0.8976486355
 40
1.0
 40
1.0
 40
1.0
 40
1.0
 10
-100.8813992592
 20
254.2730905662
 30
0.0
 10
-100.8876171281
 20
254.275077594
 30
0.0
 10
-100.8967340917
 20
254.2779489241
 30
0.0
 10
-100.9086600752
 20
254.281451459
 30
0.0
 10
-100.9166084144
 20
254.2837590997
 30
0.0
 10
-100.9239947255
 20
254.2853893577
 30
0.0
 10
-100.9284639288
 20
254.2868452837
 30
0.0
 10
-100.9352379892
 20
254.2863287925
 30
0.0
 10
-100.9297663565
 20
254.2834367026
 30
0.0
 10
-100.9280093229
 20
254.2824285614
 30
0.0
  0
SPLINE
  5
341
100
AcDbEntity
  8
0
100
AcDbSpline
 62
7
  6
CONTINUOUS
 70
0
 71
3
 72
14
 73
10
 74
0
 42
0.0000001
 43
0.0000001
 44
0.0000000001
 40
0.0
 40
0.0
 40
0.0
 40
0.0
 40
0.0464374512
 40
0.1044807596
 40
0.1888786756
 40
0.3031765341
 40
0.4465608362
 40
0.6146074907
 40
1.0
 40
1.0
 40
1.0
 40
1.0
 10
-132.1651339408
 20
209.8843314857
 30
0.0
 10
-132.162443923
 20
209.8902027461
 30
0.0
 10
-132.1509069464
 20
209.9014449131
 30
0.0
 10
-132.1232265142
 20
209.9020371179
 30
0.0
 10
-132.0889987182
 20
209.8919578529
 30
0.0
 10
-132.0459876306
 20
209.8710546447
 30
0.0
 10
-131.9958397683
 20
209.8395164292
 30
0.0
 10
-131.9176146593
 20
209.7821982062
 30
0.0
 10
-131.8594216252
 20
209.7316060257
 30
0.0
 10
-131.8201929594
 20
209.6950848375
 30
0.0
  0
SPLINE
  5
342
100
AcDbEntity
  8
0
100
AcDbSpline
 62
7
  6
CONTINUOUS
 70
0
 71
3
 72
40
 73
36
 74
0
 42
0.0000001
 43
0.0000001
 44
0.0000000001
 40
0.0
 40
0.0
 40
0.0
 40
0.0
 40
0.0904997253
 40
0.1919051349
 40
0.2465872509
 40
0.303725455
 40
0.363314458
 40
0.4254432093
 40
0.4899734332
 40
0.5567677643
 40
0.6257522756
 40
0.6968539357
 40
0.7699639351
 40
0.8072200367
 40
0.8448994664
 40
0.8638817227
 40
0.882946042
 40
0.9020775826
 40
0.9212535254
 40
0.9308470732
 40
0.9404350159
 40
0.9500063132
 40
0.959543516
 40
0.9690158723
 40
0.9737105436
 40
0.9783598056
 40
0.9829372992
 40
0.9851856251
 40
0.9873962593
 40
0.989598332
 40
0.9910168656
 40
0.9931161495
 40
0.9949864414
 40
0.9967120183
 40
1.0
 40
1.0
 40
1.0
 40
1.0
 10
-101.577220933
 20
252.5474060116
 30
0.0
 10
-101.5251772367
 20
252.3061604048
 30
0.0
 10
-101.404243878
 20
251.7968270175
 30
0.0
 10
-101.2214348193
 20
251.149469638
 30
0.0
 10
-101.0456701388
 20
250.5951715588
 30
0.0
 10
-100.8981401021
 20
250.151610971
 30
0.0
 10
-100.7365341292
 20
249.6913756611
 30
0.0
 10
-100.5566174169
 20
249.2163592393
 30
0.0
 10
-100.3607371536
 20
248.7264962784
 30
0.0
 10
-100.150014281
 20
248.222504686
 30
0.0
 10
-99.9244526057
 20
247.705365538
 30
0.0
 10
-99.6842403981
 20
247.1758967237
 30
0.0
 10
-99.4739604292
 20
246.7279152558
 30
0.0
 10
-99.2999114224
 20
246.3636340776
 30
0.0
 10
-99.1888350336
 20
246.1328574673
 30
0.0
 10
-99.0992730742
 20
245.946782724
 30
0.0
 10
-99.0318149032
 20
245.8062036257
 30
0.0
 10
-98.9645326992
 20
245.6649548153
 30
0.0
 10
-98.9090016834
 20
245.5467167072
 30
0.0
 10
-98.8652598294
 20
245.4516991362
 30
0.0
 10
-98.8329792714
 20
245.380241721
 30
0.0
 10
-98.8014754563
 20
245.3086044449
 30
0.0
 10
-98.7711586955
 20
245.2367993968
 30
0.0
 10
-98.7473848468
 20
245.1766710845
 30
0.0
 10
-98.730057045
 20
245.128372179
 30
0.0
 10
-98.7183976488
 20
245.0922167154
 30
0.0
 10
-98.7103851004
 20
245.0619903452
 30
0.0
 10
-98.7060035473
 20
245.0375989955
 30
0.0
 10
-98.7048533894
 20
245.0197542788
 30
0.0
 10
-98.7062683299
 20
245.0027249706
 30
0.0
 10
-98.7201784583
 20
244.9923402339
 30
0.0
 10
-98.7356707696
 20
244.9968303461
 30
0.0
 10
-98.7492820053
 20
245.0036972436
 30
0.0
 10
-98.7650605905
 20
245.0140584972
 30
0.0
 10
-98.7762139047
 20
245.0219480509
 30
0.0
 10
-98.7831404047
 20
245.0276419381
 30
0.0
  0
SPLINE
  5
343
100
AcDbEntity
  8
0
100
AcDbSpline
 62
7
  6
CONTINUOUS
 70
0
 71
3
 72
9
 73
5
 74
0
 42
0.0000001
 43
0.0000001
 44
0.0000000001
 40
0.0
 40
0.0
 40
0.0
 40
0.0
 40
0.2620013614
 40
1.0
 40
1.0
 40
1.0
 40
1.0
 10
-101.764578408
 20
254.6141815645
 30
0.0
 10
-101.7608688825
 20
254.6642912123
 30
0.0
 10
-101.7437487551
 20
254.8552991259
 30
0.0
 10
-101.7143256189
 20
255.0453454417
 30
0.0
 10
-101.6839166308
 20
255.1835738955
 30
0.0
  0
SPLINE
  5
344
100
AcDbEntity
  8
0
100
AcDbSpline
 62
7
  6
CONTINUOUS
 70
0
 71
3
 72
20
 73
16
 74
0
 42
0.0000001
 43
0.0000001
 44
0.0000000001
 40
0.0
 40
0.0
 40
0.0
 40
0.0
 40
0.2628681079
 40
0.393620447
 40
0.5236151759
 40
0.6524116516
 40
0.7791006439
 40
0.8410231916
 40
0.9011394431
 40
0.9300066764
 40
0.957382072
 40
0.9701032852
 40
0.9816599351
 40
0.9911827186
 40
1.0
 40
1.0
 40
1.0
 40
1.0
 10
-111.6184972141
 20
254.9529958716
 30
0.0
 10
-111.6987478828
 20
254.9305897028
 30
0.0
 10
-111.8186052125
 20
254.8959022277
 30
0.0
 10
-111.9772253303
 20
254.8470567466
 30
0.0
 10
-112.0947477945
 20
254.809177224
 30
0.0
 10
-112.2104247646
 20
254.7698200956
 30
0.0
 10
-112.3049674831
 20
254.7353762428
 30
0.0
 10
-112.3782589601
 20
254.7063011163
 30
0.0
 10
-112.4221994321
 20
254.6874009299
 30
0.0
 10
-112.4554599861
 20
254.67137795
 30
0.0
 10
-112.4746148657
 20
254.6609613542
 30
0.0
 10
-112.4885330089
 20
254.652053572
 30
0.0
 10
-112.4965154111
 20
254.6453639734
 30
0.0
 10
-112.5039688524
 20
254.6380359761
 30
0.0
 10
-112.5010401366
 20
254.6308653585
 30
0.0
 10
-112.4985776263
 20
254.6295437066
 30
0.0
  0
SPLINE
  5
345
100
AcDbEntity
  8
0
100
AcDbSpline
 62
7
  6
CONTINUOUS
 70
0
 71
3
 72
21
 73
17
 74
0
 42
0.0000001
 43
0.0000001
 44
0.0000000001
 40
0.0
 40
0.0
 40
0.0
 40
0.0
 40
0.1268837723
 40
0.2538243026
 40
0.3807789922
 40
0.5076775036
 40
0.6343927592
 40
0.6976096443
 40
0.7606589532
 40
0.8234324515
 40
0.8857020134
 40
0.9164858996
 40
0.9468059885
 40
0.9760699841
 40
0.9895823962
 40
1.0
 40
1.0
 40
1.0
 40
1.0
 10
-122.7272692792
 20
249.4797644377
 30
0.0
 10
-122.7887940536
 20
249.4247775769
 30
0.0
 10
-122.9112495744
 20
249.3140813113
 30
0.0
 10
-123.0929824945
 20
249.1458648416
 30
0.0
 10
-123.272602509
 20
248.9753780671
 30
0.0
 10
-123.4497557795
 20
248.8025374721
 30
0.0
 10
-123.5949467135
 20
248.656325219
 30
0.0
 10
-123.7090819674
 20
248.5378270054
 30
0.0
 10
-123.7932761347
 20
248.448249117
 30
0.0
 10
-123.875623827
 20
248.3577538216
 30
0.0
 10
-123.9421669534
 20
248.2814173267
 30
0.0
 10
-123.9930072571
 20
248.2191030019
 30
0.0
 10
-124.0287585384
 20
248.1731347436
 30
0.0
 10
-124.0555451633
 20
248.1317459836
 30
0.0
 10
-124.0713052327
 20
248.1044405733
 30
0.0
 10
-124.0739664131
 20
248.0828412429
 30
0.0
 10
-124.0679317684
 20
248.0797620462
 30
0.0
  0
SPLINE
  5
346
100
AcDbEntity
  8
0
100
AcDbSpline
 62
7
  6
CONTINUOUS
 70
0
 71
3
 72
19
 73
15
 74
0
 42
0.0000001
 43
0.0000001
 44
0.0000000001
 40
0.0
 40
0.0
 40
0.0
 40
0.0
 40
0.2485267128
 40
0.3728696772
 40
0.497349328
 40
0.6220842207
 40
0.6846114408
 40
0.7473033495
 40
0.8102370677
 40
0.8735506788
 40
0.905430268
 40
0.9375337562
 40
0.9699178298
 40
1.0
 40
1.0
 40
1.0
 40
1.0
 10
-135.7531554364
 20
224.4001671833
 30
0.0
 10
-135.7535577377
 20
224.2573109178
 30
0.0
 10
-135.7520472145
 20
224.0429643832
 30
0.0
 10
-135.745245973
 20
223.757156356
 30
0.0
 10
-135.7374724888
 20
223.5425649334
 30
0.0
 10
-135.7284132593
 20
223.3635906169
 30
0.0
 10
-135.7191708667
 20
223.220210501
 30
0.0
 10
-135.7110191901
 20
223.112356885
 30
0.0
 10
-135.701289631
 20
223.0042042166
 30
0.0
 10
-135.6913971352
 20
222.913778433
 30
0.0
 10
-135.6815238732
 20
222.8413927128
 30
0.0
 10
-135.6727878252
 20
222.7863088691
 30
0.0
 10
-135.6611484044
 20
222.7345350832
 30
0.0
 10
-135.6509732994
 20
222.6968463856
 30
0.0
 10
-135.6379455484
 20
222.6854762588
 30
0.0
  0
SPLINE
  5
347
100
AcDbEntity
  8
0
100
AcDbSpline
 62
7
  6
CONTINUOUS
 70
0
 71
3
 72
9
 73
5
 74
0
 42
0.0000001
 43
0.0000001
 44
0.0000000001
 40
0.0
 40
0.0
 40
0.0
 40
0.0
 40
0.4829420823
 40
1.0
 40
1.0
 40
1.0
 40
1.0
 10
-124.0679317684
 20
248.0797620462
 30
0.0
 10
-121.6814524667
 20
246.695799017
 30
0.0
 10
-116.802389056
 20
243.7216714065
 30
0.0
 10
-112.0353791191
 20
240.5720248992
 30
0.0
 10
-109.5969394782
 20
238.9053262386
 30
0.0
  0
SPLINE
  5
348
100
AcDbEntity
  8
0
100
AcDbSpline
 62
7
  6
CONTINUOUS
 70
0
 71
3
 72
9
 73
5
 74
0
 42
0.0000001
 43
0.0000001
 44
0.0000000001
 40
0.0
 40
0.0
 40
0.0
 40
0.0
 40
0.4786681677
 40
1.0
 40
1.0
 40
1.0
 40
1.0
 10
-113.3825740849
 20
254.2217716339
 30
0.0
 10
-113.5134972133
 20
253.7103573183
 30
0.0
 10
-113.6743438994
 20
252.6119524194
 30
0.0
 10
-113.6544900139
 20
251.5051205416
 30
0.0
 10
-113.6071955294
 20
250.9321100224
 30
0.0
  0
SPLINE
  5
349
100
AcDbEntity
  8
0
100
AcDbSpline
 62
7
  6
CONTINUOUS
 70
0
 71
3
 72
9
 73
5
 74
0
 42
0.0000001
 43
0.0000001
 44
0.0000000001
 40
0.0
 40
0.0
 40
0.0
 40
0.0
 40
0.2586863537
 40
1.0
 40
1.0
 40
1.0
 40
1.0
 10
-113.6071782144
 20
250.9321270581
 30
0.0
 10
-113.6511436214
 20
251.2573490734
 30
0.0
 10
-113.7878934974
 20
252.5185527146
 30
0.0
 10
-113.7866832485
 20
253.7967841257
 30
0.0
 10
-113.6903315107
 20
254.7322968602
 30
0.0
  0
SPLINE
  5
34A
100
AcDbEntity
  8
0
100
AcDbSpline
 62
7
  6
CONTINUOUS
 70
0
 71
3
 72
9
 73
5
 74
0
 42
0.0000001
 43
0.0000001
 44
0.0000000001
 40
0.0
 40
0.0
 40
0.0
 40
0.0
 40
0.2724889091
 40
1.0
 40
1.0
 40
1.0
 40
1.0
 10
-89.4039008928
 20
246.5867493661
 30
0.0
 10
-89.5138349689
 20
246.7302634025
 30
0.0
 10
-89.918861551
 20
247.2557103914
 30
0.0
 10
-90.3306330997
 20
247.7760864114
 30
0.0
 10
-90.6381094002
 20
248.14813681
 30
0.0
  0
SPLINE
  5
34B
100
AcDbEntity
  8
0
100
AcDbSpline
 62
7
  6
CONTINUOUS
 70
0
 71
3
 72
11
 73
7
 74
0
 42
0.0000001
 43
0.0000001
 44
0.0000000001
 40
0.0
 40
0.0
 40
0.0
 40
0.0
 40
0.317644817
 40
0.5895232265
 40
0.8159305653
 40
1.0
 40
1.0
 40
1.0
 40
1.0
 10
-90.6381094002
 20
248.14813681
 30
0.0
 10
-90.7823514259
 20
248.3226715728
 30
0.0
 10
-91.0534804169
 20
248.6437797233
 30
0.0
 10
-91.4430885722
 20
249.0759077086
 30
0.0
 10
-91.788391784
 20
249.4187860189
 30
0.0
 10
-92.0157214083
 20
249.6047185631
 30
0.0
 10
-92.1245340889
 20
249.6780371066
 30
0.0
  0
SPLINE
  5
34C
100
AcDbEntity
  8
0
100
AcDbSpline
 62
7
  6
CONTINUOUS
 70
0
 71
3
 72
11
 73
7
 74
0
 42
0.0000001
 43
0.0000001
 44
0.0000000001
 40
0.0
 40
0.0
 40
0.0
 40
0.0
 40
0.4029542556
 40
0.712918012
 40
0.9104673694
 40
1.0
 40
1.0
 40
1.0
 40
1.0
 10
-126.5515296115
 20
247.0127441775
 30
0.0
 10
-126.5660263565
 20
247.0211252496
 30
0.0
 10
-126.5915849093
 20
247.0355169479
 30
0.0
 10
-126.6266728904
 20
247.0522491101
 30
0.0
 10
-126.6479071923
 20
247.060801086
 30
0.0
 10
-126.6626487926
 20
247.062205961
 30
0.0
 10
-126.6649074895
 20
247.0592494163
 30
0.0
  0
SPLINE
  5
34D
100
AcDbEntity
  8
0
100
AcDbSpline
 62
7
  6
CONTINUOUS
 70
0
 71
3
 72
10
 73
6
 74
0
 42
0.0000001
 43
0.0000001
 44
0.0000000001
 40
0.0
 40
0.0
 40
0.0
 40
0.0
 40
0.4679886285
 40
0.7318777825
 40
1.0
 40
1.0
 40
1.0
 40
1.0
 10
-125.3319547925
 20
247.3301250812
 30
0.0
 10
-125.5181112563
 20
247.4166274328
 30
0.0
 10
-125.8730517208
 20
247.4063196736
 30
0.0
 10
-126.2751498437
 20
247.233270343
 30
0.0
 10
-126.465725525
 20
247.0930700408
 30
0.0
 10
-126.5517398026
 20
247.0128661323
 30
0.0
  0
SPLINE
  5
34E
100
AcDbEntity
  8
0
100
AcDbSpline
 62
7
  6
CONTINUOUS
 70
0
 71
3
 72
14
 73
10
 74
0
 42
0.0000001
 43
0.0000001
 44
0.0000000001
 40
0.0
 40
0.0
 40
0.0
 40
0.0
 40
0.2534293192
 40
0.3793463721
 40
0.5047812398
 40
0.6296360232
 40
0.753744508
 40
0.877181832
 40
1.0
 40
1.0
 40
1.0
 40
1.0
 10
-120.2476412375
 20
231.3129915607
 30
0.0
 10
-121.0975281372
 20
232.4824808568
 30
0.0
 10
-122.2797533981
 20
234.3023163149
 30
0.0
 10
-123.6222413077
 20
236.8515059212
 30
0.0
 10
-124.4931450905
 20
238.8148131827
 30
0.0
 10
-125.2290404366
 20
240.8213137598
 30
0.0
 10
-125.8307876158
 20
242.8603646542
 30
0.0
 10
-126.2843885797
 20
244.9256669425
 30
0.0
 10
-126.4816588386
 20
246.3182188672
 30
0.0
 10
-126.5519578535
 20
247.0152994016
 30
0.0
  0
SPLINE
  5
34F
100
AcDbEntity
  8
0
100
AcDbSpline
 62
7
  6
CONTINUOUS
 70
0
 71
3
 72
10
 73
6
 74
0
 42
0.0000001
 43
0.0000001
 44
0.0000000001
 40
0.0
 40
0.0
 40
0.0
 40
0.0
 40
0.3017655799
 40
0.5933702177
 40
1.0
 40
1.0
 40
1.0
 40
1.0
 10
-122.9739009724
 20
202.3989872081
 30
0.0
 10
-123.0143593799
 20
202.4043097568
 30
0.0
 10
-123.0946486501
 20
202.4200566634
 30
0.0
 10
-123.217319139
 20
202.4593905215
 30
0.0
 10
-123.315252006
 20
202.5304394056
 30
0.0
 10
-123.315322488
 20
202.5854268994
 30
0.0
  0
SPLINE
  5
350
100
AcDbEntity
  8
0
100
AcDbSpline
 62
7
  6
CONTINUOUS
 70
0
 71
3
 72
41
 73
37
 74
0
 42
0.0000001
 43
0.0000001
 44
0.0000000001
 40
0.0
 40
0.0
 40
0.0
 40
0.0
 40
0.1187221425
 40
0.2396376071
 40
0.3624563465
 40
0.424509076
 40
0.4869504597
 40
0.5497587691
 40
0.6129151993
 40
0.6764042244
 40
0.7402152048
 40
0.7722416311
 40
0.804350136
 40
0.8365443456
 40
0.8688311819
 40
0.9012242295
 40
0.9174687066
 40
0.9337534921
 40
0.9419145374
 40
0.950091102
 40
0.95828698
 40
0.9665084016
 40
0.9706319569
 40
0.9747669934
 40
0.9789172706
 40
0.9830893427
 40
0.9872966219
 40
0.9894230731
 40
0.9915775323
 40
0.9937914045
 40
0.9949591021
 40
0.9955839297
 40
0.9961855397
 40
0.9980878044
 40
0.9990399663
 40
1.0
 40
1.0
 40
1.0
 40
1.0
 10
-124.3183257068
 20
242.2253375407
 30
0.0
 10
-124.1817040109
 20
241.606270608
 30
0.0
 10
-123.8681350308
 20
240.364688474
 30
0.0
 10
-123.280221414
 20
238.5194841147
 30
0.0
 10
-122.6904408148
 20
236.9956732447
 30
0.0
 10
-122.1589754865
 20
235.7865402131
 30
0.0
 10
-121.7294630962
 20
234.8831170928
 30
0.0
 10
-121.2711312381
 20
233.9873598271
 30
0.0
 10
-120.7847219923
 20
233.1001503214
 30
0.0
 10
-120.2711061641
 20
232.2222115386
 30
0.0
 10
-119.821771532
 20
231.4996362522
 30
0.0
 10
-119.4499769335
 20
230.9264232432
 30
0.0
 10
-119.1648460659
 20
230.498279055
 30
0.0
 10
-118.8741009684
 20
230.0722462728
 30
0.0
 10
-118.5781865075
 20
229.6479365474
 30
0.0
 10
-118.3280766021
 20
229.2955424388
 30
0.0
 10
-118.126486062
 20
229.013502006
 30
0.0
 10
-118.0000634476
 20
228.8367854652
 30
0.0
 10
-117.8989838511
 20
228.6949102115
 30
0.0
 10
-117.8232424116
 20
228.5880181443
 30
0.0
 10
-117.7477840227
 20
228.4805316715
 30
0.0
 10
-117.6854065376
 20
228.3903070563
 30
0.0
 10
-117.6360337551
 20
228.31745985
 30
0.0
 10
-117.5993212889
 20
228.2622966089
 30
0.0
 10
-117.5631127687
 20
228.2064908516
 30
0.0
 10
-117.5276644189
 20
228.1497409284
 30
0.0
 10
-117.4992401397
 20
228.1013620174
 30
0.0
 10
-117.4778184041
 20
228.0613970791
 30
0.0
 10
-117.4628157422
 20
228.0301438283
 30
0.0
 10
-117.4519507197
 20
228.0024974367
 30
0.0
 10
-117.4478217186
 20
227.9814297914
 30
0.0
 10
-117.4486590641
 20
227.968336823
 30
0.0
 10
-117.4603053596
 20
227.954158045
 30
0.0
 10
-117.4820254306
 20
227.9621379622
 30
0.0
 10
-117.5006084379
 20
227.9685600494
 30
0.0
 10
-117.5088670264
 20
227.9750222204
 30
0.0
 10
-117.5133833303
 20
227.9774478622
 30
0.0
  0
SPLINE
  5
351
100
AcDbEntity
  8
0
100
AcDbSpline
 62
7
  6
CONTINUOUS
 70
0
 71
3
 72
9
 73
5
 74
0
 42
0.0000001
 43
0.0000001
 44
0.0000000001
 40
0.0
 40
0.0
 40
0.0
 40
0.0
 40
0.2516467334
 40
1.0
 40
1.0
 40
1.0
 40
1.0
 10
-124.3182853422
 20
242.225387624
 30
0.0
 10
-124.4425295875
 20
242.6442626538
 30
0.0
 10
-124.8989804937
 20
244.319530311
 30
0.0
 10
-125.2023490667
 20
246.0372829785
 30
0.0
 10
-125.3319414676
 20
247.3301065579
 30
0.0
  0
SPLINE
  5
352
100
AcDbEntity
  8
0
100
AcDbSpline
 62
7
  6
CONTINUOUS
 70
0
 71
3
 72
9
 73
5
 74
0
 42
0.0000001
 43
0.0000001
 44
0.0000000001
 40
0.0
 40
0.0
 40
0.0
 40
0.0
 40
0.2461204527
 40
1.0
 40
1.0
 40
1.0
 40
1.0
 10
-124.7989022268
 20
247.1306272763
 30
0.0
 10
-124.8119782066
 20
246.7258758663
 30
0.0
 10
-124.8079394732
 20
245.0796773544
 30
0.0
 10
-124.5855901799
 20
243.4366454296
 30
0.0
 10
-124.3182880149
 20
242.225367576
 30
0.0
  0
SPLINE
  5
353
100
AcDbEntity
  8
0
100
AcDbSpline
 62
7
  6
CONTINUOUS
 70
0
 71
3
 72
9
 73
5
 74
0
 42
0.0000001
 43
0.0000001
 44
0.0000000001
 40
0.0
 40
0.0
 40
0.0
 40
0.0
 40
0.5013294062
 40
1.0
 40
1.0
 40
1.0
 40
1.0
 10
-125.3319514044
 20
247.3301114944
 30
0.0
 10
-125.3426230229
 20
247.3736619302
 30
0.0
 10
-125.376520932
 20
247.4587912313
 30
0.0
 10
-125.449840249
 20
247.5202289074
 30
0.0
 10
-125.4915983119
 20
247.5358979504
 30
0.0
  0
SPLINE
  5
354
100
AcDbEntity
  8
0
100
AcDbSpline
 62
7
  6
CONTINUOUS
 70
0
 71
3
 72
11
 73
7
 74
0
 42
0.0000001
 43
0.0000001
 44
0.0000000001
 40
0.0
 40
0.0
 40
0.0
 40
0.0
 40
0.3073722478
 40
0.5724121638
 40
0.7980095624
 40
1.0
 40
1.0
 40
1.0
 40
1.0
 10
-122.9738979739
 20
202.3989867293
 30
0.0
 10
-122.9811327994
 20
202.3221024339
 30
0.0
 10
-122.9802551506
 20
202.1770000745
 30
0.0
 10
-122.9328054343
 20
201.9798780541
 30
0.0
 10
-122.8403394627
 20
201.8281225547
 30
0.0
 10
-122.7491112062
 20
201.7642444144
 30
0.0
 10
-122.7020488903
 20
201.7452578796
 30
0.0
  0
SPLINE
  5
355
100
AcDbEntity
  8
0
100
AcDbSpline
 62
7
  6
CONTINUOUS
 70
0
 71
3
 72
8
 73
4
 74
0
 42
0.0000001
 43
0.0000001
 44
0.0000000001
 40
0.0
 40
0.0
 40
0.0
 40
0.0
 40
1.0
 40
1.0
 40
1.0
 40
1.0
 10
-131.8903546065
 20
237.8706889852
 30
0.0
 10
-131.9517164064
 20
237.7333779364
 30
0.0
 10
-132.0137768205
 20
237.596379602
 30
0.0
 10
-132.075053411
 20
237.4590305063
 30
0.0
  0
SPLINE
  5
356
100
AcDbEntity
  8
0
100
AcDbSpline
 62
7
  6
CONTINUOUS
 70
0
 71
3
 72
10
 73
6
 74
0
 42
0.0000001
 43
0.0000001
 44
0.0000000001
 40
0.0
 40
0.0
 40
0.0
 40
0.0
 40
0.3529712576
 40
0.6391984592
 40
1.0
 40
1.0
 40
1.0
 40
1.0
 10
-134.508068523
 20
234.1310957723
 30
0.0
 10
-134.5220810046
 20
234.1391681524
 30
0.0
 10
-134.5470502554
 20
234.1553051913
 30
0.0
 10
-134.581563125
 20
234.183144975
 30
0.0
 10
-134.6006370192
 20
234.213226461
 30
0.0
 10
-134.5970469117
 20
234.2293619978
 30
0.0
  0
SPLINE
  5
357
100
AcDbEntity
  8
0
100
AcDbSpline
 62
7
  6
CONTINUOUS
 70
0
 71
3
 72
10
 73
6
 74
0
 42
0.0000001
 43
0.0000001
 44
0.0000000001
 40
0.0
 40
0.0
 40
0.0
 40
0.0
 40
0.2418796987
 40
0.5006219509
 40
1.0
 40
1.0
 40
1.0
 40
1.0
 10
-133.489430727
 20
234.9605284797
 30
0.0
 10
-133.5969775679
 20
234.9421588125
 30
0.0
 10
-133.8130653628
 20
234.863816914
 30
0.0
 10
-134.1905670614
 20
234.6142035133
 30
0.0
 10
-134.4144937045
 20
234.3360189364
 30
0.0
 10
-134.5082789886
 20
234.131217511
 30
0.0
  0
SPLINE
  5
358
100
AcDbEntity
  8
0
100
AcDbSpline
 62
7
  6
CONTINUOUS
 70
0
 71
3
 72
13
 73
9
 74
0
 42
0.0000001
 43
0.0000001
 44
0.0000000001
 40
0.0
 40
0.0
 40
0.0
 40
0.0
 40
0.2450340022
 40
0.3688697957
 40
0.4936560448
 40
0.619264171
 40
0.7455153477
 40
1.0
 40
1.0
 40
1.0
 40
1.0
 10
-123.8959272501
 20
218.1768016902
 30
0.0
 10
-125.0360044862
 20
219.2685474983
 30
0.0
 10
-126.6745371114
 20
220.9969889479
 30
0.0
 10
-128.6711798775
 20
223.4738275668
 30
0.0
 10
-130.0735310048
 20
225.4365108094
 30
0.0
 10
-131.3697391188
 20
227.4892686881
 30
0.0
 10
-132.9539055407
 20
230.3418136511
 30
0.0
 10
-133.9482391063
 20
232.5935204952
 30
0.0
 10
-134.5092435222
 20
234.1339320656
 30
0.0
  0
SPLINE
  5
359
100
AcDbEntity
  8
0
100
AcDbSpline
 62
7
  6
CONTINUOUS
 70
0
 71
3
 72
14
 73
10
 74
0
 42
0.0000001
 43
0.0000001
 44
0.0000000001
 40
0.0
 40
0.0
 40
0.0
 40
0.0
 40
0.3414178992
 40
0.5097129471
 40
0.6661550783
 40
0.8012449062
 40
0.9051419831
 40
0.971493837
 40
1.0
 40
1.0
 40
1.0
 40
1.0
 10
-132.1280109549
 20
209.0195086175
 30
0.0
 10
-132.168833336
 20
209.039005945
 30
0.0
 10
-132.2294619274
 20
209.0688521092
 30
0.0
 10
-132.3076742048
 20
209.1096302005
 30
0.0
 10
-132.3612062313
 20
209.1391221259
 30
0.0
 10
-132.4059741736
 20
209.1652988709
 30
0.0
 10
-132.4408310121
 20
209.1885103476
 30
0.0
 10
-132.4596219331
 20
209.2028702326
 30
0.0
 10
-132.470048601
 20
209.2151796887
 30
0.0
 10
-132.4685125823
 20
209.2186304722
 30
0.0
  0
SPLINE
  5
35A
100
AcDbEntity
  8
0
100
AcDbSpline
 62
7
  6
CONTINUOUS
 70
0
 71
3
 72
9
 73
5
 74
0
 42
0.0000001
 43
0.0000001
 44
0.0000000001
 40
0.0
 40
0.0
 40
0.0
 40
0.0
 40
0.2526167786
 40
1.0
 40
1.0
 40
1.0
 40
1.0
 10
-131.8201933785
 20
209.6950839288
 30
0.0
 10
-131.4030369546
 20
209.3066976401
 30
0.0
 10
-129.7207102738
 20
207.8026535159
 30
0.0
 10
-127.924972281
 20
206.4271689604
 30
0.0
 10
-126.5381900893
 20
205.4677943713
 30
0.0
  0
SPLINE
  5
35B
100
AcDbEntity
  8
0
100
AcDbSpline
 62
7
  6
CONTINUOUS
 70
0
 71
3
 72
9
 73
5
 74
0
 42
0.0000001
 43
0.0000001
 44
0.0000000001
 40
0.0
 40
0.0
 40
0.0
 40
0.0
 40
0.2473761235
 40
1.0
 40
1.0
 40
1.0
 40
1.0
 10
-126.5381963251
 20
205.4677982569
 30
0.0
 10
-127.0128787987
 20
205.73805349
 30
0.0
 10
-128.9191089922
 20
206.8525059465
 30
0.0
 10
-130.7723007888
 20
208.058371797
 30
0.0
 10
-132.1280018628
 20
209.0195251566
 30
0.0
  0
SPLINE
  5
35C
100
AcDbEntity
  8
0
100
AcDbSpline
 62
7
  6
CONTINUOUS
 70
0
 71
3
 72
9
 73
5
 74
0
 42
0.0000001
 43
0.0000001
 44
0.0000000001
 40
0.0
 40
0.0
 40
0.0
 40
0.0
 40
0.5096663963
 40
1.0
 40
1.0
 40
1.0
 40
1.0
 10
-126.5381373099
 20
205.4677450236
 30
0.0
 10
-124.5381581031
 20
204.0841636438
 30
0.0
 10
-120.4326078569
 20
201.6246583707
 30
0.0
 10
-116.0786612588
 20
199.6501459086
 30
0.0
 10
-113.9033254998
 20
198.7887752543
 30
0.0
  0
SPLINE
  5
35D
100
AcDbEntity
  8
0
100
AcDbSpline
 62
7
  6
CONTINUOUS
 70
0
 71
3
 72
9
 73
5
 74
0
 42
0.0000001
 43
0.0000001
 44
0.0000000001
 40
0.0
 40
0.0
 40
0.0
 40
0.0
 40
0.3229418021
 40
1.0
 40
1.0
 40
1.0
 40
1.0
 10
-109.9399347873
 20
197.3479520001
 30
0.0
 10
-109.9029732366
 20
197.3355971597
 30
0.0
 10
-109.8254129493
 20
197.3098721603
 30
0.0
 10
-109.519238062
 20
197.2069466209
 30
0.0
 10
-109.5973660636
 20
197.2308593663
 30
0.0
  0
SPLINE
  5
35E
100
AcDbEntity
  8
0
100
AcDbSpline
 62
7
  6
CONTINUOUS
 70
0
 71
3
 72
9
 73
5
 74
0
 42
0.0000001
 43
0.0000001
 44
0.0000000001
 40
0.0
 40
0.0
 40
0.0
 40
0.0
 40
0.240255366
 40
1.0
 40
1.0
 40
1.0
 40
1.0
 10
-113.9495075609
 20
198.6908091227
 30
0.0
 10
-115.0207809313
 20
199.0800213248
 30
0.0
 10
-119.4486675654
 20
200.7827229474
 30
0.0
 10
-123.7437381844
 20
202.8421757047
 30
0.0
 10
-126.8727791127
 20
204.6310033244
 30
0.0
  0
SPLINE
  5
35F
100
AcDbEntity
  8
0
100
AcDbSpline
 62
7
  6
CONTINUOUS
 70
0
 71
3
 72
10
 73
6
 74
0
 42
0.0000001
 43
0.0000001
 44
0.0000000001
 40
0.0
 40
0.0
 40
0.0
 40
0.0
 40
0.2925308475
 40
0.5624926177
 40
1.0
 40
1.0
 40
1.0
 40
1.0
 10
-132.1279923036
 20
209.0194996101
 30
0.0
 10
-132.1721510148
 20
208.9416364596
 30
0.0
 10
-132.2440015585
 20
208.7836614425
 30
0.0
 10
-132.3235987262
 20
208.4890725514
 30
0.0
 10
-132.3226223297
 20
208.2597465917
 30
0.0
 10
-132.274894867
 20
208.1346673245
 30
0.0
  0
SPLINE
  5
360
100
AcDbEntity
  8
0
100
AcDbSpline
 62
7
  6
CONTINUOUS
 70
0
 71
3
 72
9
 73
5
 74
0
 42
0.0000001
 43
0.0000001
 44
0.0000000001
 40
0.0
 40
0.0
 40
0.0
 40
0.0
 40
0.2620113914
 40
1.0
 40
1.0
 40
1.0
 40
1.0
 10
-132.274894867
 20
208.1346673245
 30
0.0
 10
-132.2702848368
 20
208.1225858273
 30
0.0
 10
-132.2509639396
 20
208.0771746401
 30
0.0
 10
-132.2243208495
 20
208.0347093745
 30
0.0
 10
-132.2006499411
 20
208.0070277917
 30
0.0
  0
SPLINE
  5
361
100
AcDbEntity
  8
0
100
AcDbSpline
 62
7
  6
CONTINUOUS
 70
0
 71
3
 72
9
 73
5
 74
0
 42
0.0000001
 43
0.0000001
 44
0.0000000001
 40
0.0
 40
0.0
 40
0.0
 40
0.0
 40
0.5087455063
 40
1.0
 40
1.0
 40
1.0
 40
1.0
 10
-136.5672108745
 20
219.8449501314
 30
0.0
 10
-136.20682333
 20
218.4232165705
 30
0.0
 10
-135.312881629
 20
215.6715214583
 30
0.0
 10
-134.0302314359
 20
213.0757814326
 30
0.0
 10
-133.3051900714
 20
211.8591699386
 30
0.0
  0
LINE
  5
362
100
AcDbEntity
  8
0
100
AcDbLine
 62
7
  6
CONTINUOUS
 10
-120.399055971
 20
215.1627899719
 11
-120.4119837508
 21
215.1677550213
  0
SPLINE
  5
363
100
AcDbEntity
  8
0
100
AcDbSpline
 62
7
  6
CONTINUOUS
 70
0
 71
3
 72
25
 73
21
 74
0
 42
0.0000001
 43
0.0000001
 44
0.0000000001
 40
0.0
 40
0.0
 40
0.0
 40
0.0
 40
0.1254336017
 40
0.2511305756
 40
0.3768895372
 40
0.4397476651
 40
0.5025664235
 40
0.5653344381
 40
0.6280430972
 40
0.690687344
 40
0.7532684494
 40
0.7845402469
 40
0.8158043742
 40
0.8470678202
 40
0.8783423071
 40
0.9096490327
 40
0.9410320921
 40
0.9567829332
 40
0.9726145615
 40
1.0
 40
1.0
 40
1.0
 40
1.0
 10
-130.7319725272
 20
228.9110568168
 30
0.0
 10
-130.4242165135
 20
228.2562050408
 30
0.0
 10
-129.771855152
 20
226.961791676
 30
0.0
 10
-128.6880923573
 20
225.075919378
 30
0.0
 10
-127.6994157664
 20
223.5548962842
 30
0.0
 10
-126.8603699101
 20
222.3716436807
 30
0.0
 10
-126.2080980878
 20
221.5018744881
 30
0.0
 10
-125.5337809442
 20
220.6501992476
 30
0.0
 10
-124.8383869424
 20
219.8169591591
 30
0.0
 10
-124.1229120106
 20
219.0023365923
 30
0.0
 10
-123.5106406176
 20
218.3388328612
 30
0.0
 10
-123.0119251949
 20
217.8170658828
 30
0.0
 10
-122.6337266153
 20
217.430195361
 30
0.0
 10
-122.2511633773
 20
217.0471306427
 30
0.0
 10
-121.8656100965
 20
216.6685792816
 30
0.0
 10
-121.4729389896
 20
216.2893940741
 30
0.0
 10
-121.1540875412
 20
215.9854102952
 30
0.0
 10
-120.8740023066
 20
215.7173350345
 30
0.0
 10
-120.6958588949
 20
215.5469068464
 30
0.0
 10
-120.251539797
 20
215.106270747
 30
0.0
 10
-120.399055971
 20
215.1627899719
 30
0.0
  0
SPLINE
  5
364
100
AcDbEntity
  8
0
100
AcDbSpline
 62
7
  6
CONTINUOUS
 70
0
 71
3
 72
9
 73
5
 74
0
 42
0.0000001
 43
0.0000001
 44
0.0000000001
 40
0.0
 40
0.0
 40
0.0
 40
0.0
 40
0.2489143926
 40
1.0
 40
1.0
 40
1.0
 40
1.0
 10
-130.9714281459
 20
229.4307607821
 30
0.0
 10
-131.2161393967
 20
229.8718689324
 30
0.0
 10
-132.1649679184
 20
231.6627424392
 30
0.0
 10
-132.9728767955
 20
233.5287496029
 30
0.0
 10
-133.4894080678
 20
234.9605484402
 30
0.0
  0
SPLINE
  5
365
100
AcDbEntity
  8
0
100
AcDbSpline
 62
7
  6
CONTINUOUS
 70
0
 71
3
 72
9
 73
5
 74
0
 42
0.0000001
 43
0.0000001
 44
0.0000000001
 40
0.0
 40
0.0
 40
0.0
 40
0.0
 40
0.2505546437
 40
1.0
 40
1.0
 40
1.0
 40
1.0
 10
-132.8738255305
 20
235.1255482516
 30
0.0
 10
-132.767033158
 20
234.6350463653
 30
0.0
 10
-132.2852796504
 20
232.6896823654
 30
0.0
 10
-131.5905205818
 20
230.7986980745
 30
0.0
 10
-130.9713722704
 20
229.4307589439
 30
0.0
  0
SPLINE
  5
366
100
AcDbEntity
  8
0
100
AcDbSpline
 62
7
  6
CONTINUOUS
 70
0
 71
3
 72
12
 73
8
 74
0
 42
0.0000001
 43
0.0000001
 44
0.0000000001
 40
0.0
 40
0.0
 40
0.0
 40
0.0
 40
0.3207378924
 40
0.6275716874
 40
0.7589219714
 40
0.8657514131
 40
1.0
 40
1.0
 40
1.0
 40
1.0
 10
-135.9769112285
 20
220.9378149151
 30
0.0
 10
-136.0083819379
 20
220.9681804137
 30
0.0
 10
-136.0722687085
 20
221.0253546708
 30
0.0
 10
-136.1549896799
 20
221.0874193582
 30
0.0
 10
-136.2208195321
 20
221.1237526514
 30
0.0
 10
-136.2661746184
 20
221.1423923998
 30
0.0
 10
-136.3058849988
 20
221.1454946631
 30
0.0
 10
-136.3194461169
 20
221.133200399
 30
0.0
  0
SPLINE
  5
367
100
AcDbEntity
  8
0
100
AcDbSpline
 62
7
  6
CONTINUOUS
 70
0
 71
3
 72
9
 73
5
 74
0
 42
0.0000001
 43
0.0000001
 44
0.0000000001
 40
0.0
 40
0.0
 40
0.0
 40
0.0
 40
0.2521599278
 40
1.0
 40
1.0
 40
1.0
 40
1.0
 10
-135.4438366526
 20
221.4230603192
 30
0.0
 10
-135.1797846535
 20
220.9383551569
 30
0.0
 10
-134.0853786846
 20
219.0420741695
 30
0.0
 10
-132.8134153021
 20
217.2497418628
 30
0.0
 10
-131.784247877
 20
215.9767519002
 30
0.0
  0
SPLINE
  5
368
100
AcDbEntity
  8
0
100
AcDbSpline
 62
7
  6
CONTINUOUS
 70
0
 71
3
 72
9
 73
5
 74
0
 42
0.0000001
 43
0.0000001
 44
0.0000000001
 40
0.0
 40
0.0
 40
0.0
 40
0.0
 40
0.2479318925
 40
1.0
 40
1.0
 40
1.0
 40
1.0
 10
-131.7842104596
 20
215.9767931905
 30
0.0
 10
-132.1571194711
 20
216.3632353016
 30
0.0
 10
-133.6362541315
 20
217.9457101855
 30
0.0
 10
-135.0120697517
 20
219.625289085
 30
0.0
 10
-135.976917531
 20
220.9378108376
 30
0.0
  0
SPLINE
  5
369
100
AcDbEntity
  8
0
100
AcDbSpline
 62
7
  6
CONTINUOUS
 70
0
 71
3
 72
39
 73
35
 74
0
 42
0.0000001
 43
0.0000001
 44
0.0000000001
 40
0.0
 40
0.0
 40
0.0
 40
0.0
 40
0.1281216942
 40
0.2556144492
 40
0.3822829546
 40
0.4452595967
 40
0.5079697418
 40
0.5703994444
 40
0.6325376092
 40
0.6943768786
 40
0.7559165018
 40
0.7865785592
 40
0.8171741454
 40
0.8477111235
 40
0.8782029094
 40
0.908674043
 40
0.9391759225
 40
0.9544742819
 40
0.9621491913
 40
0.9698525548
 40
0.9737196214
 40
0.9776010411
 40
0.9815018676
 40
0.9854304931
 40
0.9894028817
 40
0.9934578077
 40
0.9955513056
 40
0.9966252408
 40
0.9971359614
 40
0.9974504493
 40
0.9976557279
 40
0.9979214663
 40
0.9985577779
 40
1.0
 40
1.0
 40
1.0
 40
1.0
 10
-131.7841386755
 20
215.9763743313
 30
0.0
 10
-131.2773118587
 20
215.3494700387
 30
0.0
 10
-130.2334827335
 20
214.1247445054
 30
0.0
 10
-128.5807140124
 20
212.3758192837
 30
0.0
 10
-127.1381410582
 20
210.9957954746
 30
0.0
 10
-125.9510377321
 20
209.941081857
 30
0.0
 10
-125.0473890756
 20
209.1764135932
 30
0.0
 10
-124.1300212775
 20
208.4366564441
 30
0.0
 10
-123.2001026241
 20
207.7216982269
 30
0.0
 10
-122.2587526631
 20
207.0313014856
 30
0.0
 10
-121.4646460487
 20
206.4754426574
 30
0.0
 10
-120.8246592808
 20
206.0425176277
 30
0.0
 10
-120.3429289834
 20
205.7238540963
 30
0.0
 10
-119.858945282
 20
205.4105937155
 30
0.0
 10
-119.3726811833
 20
205.1023470052
 30
0.0
 10
-118.8839626281
 20
204.7984277765
 30
0.0
 10
-118.4746080288
 20
204.5479461364
 30
0.0
 10
-118.1871413647
 20
204.3730886928
 30
0.0
 10
-118.0222904786
 20
204.2726850739
 30
0.0
 10
-117.9189654584
 20
204.2095373354
 30
0.0
 10
-117.8361429149
 20
204.1586166134
 30
0.0
 10
-117.7738030368
 20
204.1200593532
 30
0.0
 10
-117.7112915762
 20
204.0810586073
 30
0.0
 10
-117.6485139393
 20
204.041349857
 30
0.0
 10
-117.5853968388
 20
204.0005761502
 30
0.0
 10
-117.5324046063
 20
203.9647398965
 30
0.0
 10
-117.4960656794
 20
203.9383023464
 30
0.0
 10
-117.4779424779
 20
203.9226524153
 30
0.0
 10
-117.4703352283
 20
203.9149015858
 30
0.0
 10
-117.4662366124
 20
203.9073290794
 30
0.0
 10
-117.4718397386
 20
203.9050104159
 30
0.0
 10
-117.478564591
 20
203.905585422
 30
0.0
 10
-117.4932630858
 20
203.9084199544
 30
0.0
 10
-117.5056248477
 20
203.9125190732
 30
0.0
 10
-117.5142112757
 20
203.9154552927
 30
0.0
  0
SPLINE
  5
36A
100
AcDbEntity
  8
0
100
AcDbSpline
 62
7
  6
CONTINUOUS
 70
0
 71
3
 72
13
 73
9
 74
0
 42
0.0000001
 43
0.0000001
 44
0.0000000001
 40
0.0
 40
0.0
 40
0.0
 40
0.0
 40
0.2408468049
 40
0.3637807835
 40
0.4883889045
 40
0.6144731159
 40
0.7418045527
 40
1.0
 40
1.0
 40
1.0
 40
1.0
 10
-121.5907079236
 20
206.2363102312
 30
0.0
 10
-122.9767695183
 20
207.1014663406
 30
0.0
 10
-125.0199412313
 20
208.4921479141
 30
0.0
 10
-127.6345056618
 20
210.5285837048
 30
0.0
 10
-129.5609609429
 20
212.1772906734
 30
0.0
 10
-131.4307185357
 20
213.9339806347
 30
0.0
 10
-133.8467511444
 20
216.4268563954
 30
0.0
 10
-135.5244964381
 20
218.4416410722
 30
0.0
 10
-136.5692688318
 20
219.8475449285
 30
0.0
  0
SPLINE
  5
36B
100
AcDbEntity
  8
0
100
AcDbSpline
 62
7
  6
CONTINUOUS
 70
0
 71
3
 72
10
 73
6
 74
0
 42
0.0000001
 43
0.0000001
 44
0.0000000001
 40
0.0
 40
0.0
 40
0.0
 40
0.0
 40
0.2618163385
 40
0.523813169
 40
1.0
 40
1.0
 40
1.0
 40
1.0
 10
-135.9769147608
 20
220.9378182025
 30
0.0
 10
-136.0495425962
 20
220.8827606301
 30
0.0
 10
-136.1839115364
 20
220.7575697549
 30
0.0
 10
-136.3985279335
 20
220.4831424645
 30
0.0
 10
-136.5102351951
 20
220.2435131922
 30
0.0
 10
-136.5459401112
 20
220.0816441143
 30
0.0
  0
SPLINE
  5
36C
100
AcDbEntity
  8
0
100
AcDbSpline
 62
7
  6
CONTINUOUS
 70
0
 71
3
 72
9
 73
5
 74
0
 42
0.0000001
 43
0.0000001
 44
0.0000000001
 40
0.0
 40
0.0
 40
0.0
 40
0.0
 40
0.2646943923
 40
1.0
 40
1.0
 40
1.0
 40
1.0
 10
-136.5459401112
 20
220.0816441143
 30
0.0
 10
-136.5504624419
 20
220.0611420214
 30
0.0
 10
-136.5652301777
 20
219.9832243004
 30
0.0
 10
-136.570621469
 20
219.9032958862
 30
0.0
 10
-136.5674414384
 20
219.8450599398
 30
0.0
  0
SPLINE
  5
36D
100
AcDbEntity
  8
0
100
AcDbSpline
 62
7
  6
CONTINUOUS
 70
0
 71
3
 72
9
 73
5
 74
0
 42
0.0000001
 43
0.0000001
 44
0.0000000001
 40
0.0
 40
0.0
 40
0.0
 40
0.0
 40
0.526864059
 40
1.0
 40
1.0
 40
1.0
 40
1.0
 10
-136.5672308017
 20
219.8449385234
 30
0.0
 10
-136.5879081008
 20
219.8568163209
 30
0.0
 10
-136.6246482464
 20
219.884814968
 30
0.0
 10
-136.6476583576
 20
219.9259935538
 30
0.0
 10
-136.6528362508
 20
219.9467724002
 30
0.0
  0
SPLINE
  5
36E
100
AcDbEntity
  8
0
100
AcDbSpline
 62
7
  6
CONTINUOUS
 70
0
 71
3
 72
9
 73
5
 74
0
 42
0.0000001
 43
0.0000001
 44
0.0000000001
 40
0.0
 40
0.0
 40
0.0
 40
0.0
 40
0.254918709
 40
1.0
 40
1.0
 40
1.0
 40
1.0
 10
-134.5080484493
 20
234.1310954787
 30
0.0
 10
-134.6945231757
 20
233.3181280033
 30
0.0
 10
-135.3428804473
 20
230.1108022702
 30
0.0
 10
-135.6521940849
 20
226.8325766798
 30
0.0
 10
-135.6651676947
 20
224.3947470703
 30
0.0
  0
SPLINE
  5
36F
100
AcDbEntity
  8
0
100
AcDbSpline
 62
7
  6
CONTINUOUS
 70
0
 71
3
 72
8
 73
4
 74
0
 42
0.0000001
 43
0.0000001
 44
0.0000000001
 40
0.0
 40
0.0
 40
0.0
 40
0.0
 40
1.0
 40
1.0
 40
1.0
 40
1.0
 10
-135.6657475212
 20
224.1733263852
 30
0.0
 10
-135.6647996582
 20
224.0346869687
 30
0.0
 10
-135.6643751089
 20
223.8960435248
 30
0.0
 10
-135.6630624841
 20
223.7574070821
 30
0.0
  0
SPLINE
  5
370
100
AcDbEntity
  8
0
100
AcDbSpline
 62
7
  6
CONTINUOUS
 70
0
 71
3
 72
11
 73
7
 74
0
 42
0.0000001
 43
0.0000001
 44
0.0000000001
 40
0.0
 40
0.0
 40
0.0
 40
0.0
 40
0.2752534618
 40
0.544966722
 40
0.7883948217
 40
1.0
 40
1.0
 40
1.0
 40
1.0
 10
-133.489439046
 20
234.9605437721
 30
0.0
 10
-133.5068028594
 20
234.9921308588
 30
0.0
 10
-133.5456325335
 20
235.0524127644
 30
0.0
 10
-133.6166932615
 20
235.1282811072
 30
0.0
 10
-133.6993445639
 20
235.1788398133
 30
0.0
 10
-133.7625298874
 20
235.1831865365
 30
0.0
 10
-133.789289784
 20
235.175991989
 30
0.0
  0
SPLINE
  5
371
100
AcDbEntity
  8
0
100
AcDbSpline
 62
7
  6
CONTINUOUS
 70
0
 71
3
 72
14
 73
10
 74
0
 42
0.0000001
 43
0.0000001
 44
0.0000000001
 40
0.0
 40
0.0
 40
0.0
 40
0.0
 40
0.2959231132
 40
0.4294011962
 40
0.5543201228
 40
0.6720874864
 40
0.7844411357
 40
0.8929396814
 40
1.0
 40
1.0
 40
1.0
 40
1.0
 10
12.794292372
 20
229.1978224299
 30
0.0
 10
13.6264230485
 20
228.7670959641
 30
0.0
 10
14.8002062016
 20
228.0654632122
 30
0.0
 10
16.1661802656
 20
226.9592196738
 30
0.0
 10
17.0062768703
 20
226.1108261155
 30
0.0
 10
17.6886999398
 20
225.2127530205
 30
0.0
 10
18.2007190077
 20
224.2650755251
 30
0.0
 10
18.5283627541
 20
223.2737870976
 30
0.0
 10
18.6127086242
 20
222.5910330912
 30
0.0
 10
18.620232665
 20
222.252125202
 30
0.0
  0
SPLINE
  5
372
100
AcDbEntity
  8
0
100
AcDbSpline
 62
7
  6
CONTINUOUS
 70
0
 71
3
 72
9
 73
5
 74
0
 42
0.0000001
 43
0.0000001
 44
0.0000000001
 40
0.0
 40
0.0
 40
0.0
 40
0.0
 40
0.4954000139
 40
1.0
 40
1.0
 40
1.0
 40
1.0
 10
-44.3642474331
 20
220.8538166609
 30
0.0
 10
-44.3730015222
 20
221.248130029
 30
0.0
 10
-44.2964811431
 20
222.0488408002
 30
0.0
 10
-44.0428243638
 20
222.8104337178
 30
0.0
 10
-43.8798427119
 20
223.1776230823
 30
0.0
  0
SPLINE
  5
373
100
AcDbEntity
  8
0
100
AcDbSpline
 62
7
  6
CONTINUOUS
 70
0
 71
3
 72
16
 73
12
 74
0
 42
0.0000001
 43
0.0000001
 44
0.0000000001
 40
0.0
 40
0.0
 40
0.0
 40
0.0
 40
0.0820245941
 40
0.1267534614
 40
0.1745209213
 40
0.2801390389
 40
0.3999656838
 40
0.5335725963
 40
0.6795633745
 40
0.8358785948
 40
1.0
 40
1.0
 40
1.0
 40
1.0
 10
-43.8798427119
 20
223.1776230823
 30
0.0
 10
-43.5879072187
 20
223.8353388868
 30
0.0
 10
-42.959696947
 20
224.7767450311
 30
0.0
 10
-41.8962996389
 20
225.8792937571
 30
0.0
 10
-40.5666024176
 20
227.0033555723
 30
0.0
 10
-38.5387389815
 20
228.2994350717
 30
0.0
 10
-35.6881537792
 20
229.6528643297
 30
0.0
 10
-32.3871645189
 20
230.8422254018
 30
0.0
 10
-28.6946645012
 20
231.8500295421
 30
0.0
 10
-24.6807221197
 20
232.6586387485
 30
0.0
 10
-21.8947195916
 20
233.047364162
 30
0.0
 10
-20.4637995859
 20
233.2072315773
 30
0.0
  0
SPLINE
  5
374
100
AcDbEntity
  8
0
100
AcDbSpline
 62
7
  6
CONTINUOUS
 70
0
 71
3
 72
15
 73
11
 74
0
 42
0.0000001
 43
0.0000001
 44
0.0000000001
 40
0.0
 40
0.0
 40
0.0
 40
0.0
 40
0.1375179666
 40
0.2765931831
 40
0.4144849397
 40
0.5484984428
 40
0.6760922002
 40
0.7950025057
 40
0.9033774613
 40
1.0
 40
1.0
 40
1.0
 40
1.0
 10
-20.4637995859
 20
233.2072315773
 30
0.0
 10
-18.9197567649
 20
233.3797374713
 30
0.0
 10
-15.8032872777
 20
233.6349916074
 30
0.0
 10
-11.1198403992
 20
233.7566898127
 30
0.0
 10
-6.4762125883
 20
233.6191534275
 30
0.0
 10
-1.977267803
 20
233.225411957
 30
0.0
 10
2.2767213453
 20
232.584177752
 30
0.0
 10
6.1934577836
 20
231.7087166342
 30
0.0
 10
9.6906082379
 20
230.6161934452
 30
0.0
 10
11.8248443549
 20
229.6996269301
 30
0.0
 10
12.794292372
 20
229.1978224299
 30
0.0
  0
SPLINE
  5
375
100
AcDbEntity
  8
0
100
AcDbSpline
 62
7
  6
CONTINUOUS
 70
0
 71
3
 72
9
 73
5
 74
0
 42
0.0000001
 43
0.0000001
 44
0.0000000001
 40
0.0
 40
0.0
 40
0.0
 40
0.0
 40
0.480622684
 40
1.0
 40
1.0
 40
1.0
 40
1.0
 10
-52.5329857134
 20
222.9764712024
 30
0.0
 10
-52.14051131
 20
223.0816761435
 30
0.0
 10
-51.3491855684
 20
223.4032286836
 30
0.0
 10
-50.6484270206
 20
223.8867139111
 30
0.0
 10
-50.3091204216
 20
224.1654160043
 30
0.0
  0
SPLINE
  5
376
100
AcDbEntity
  8
0
100
AcDbSpline
 62
7
  6
CONTINUOUS
 70
0
 71
3
 72
9
 73
5
 74
0
 42
0.0000001
 43
0.0000001
 44
0.0000000001
 40
0.0
 40
0.0
 40
0.0
 40
0.0
 40
0.4981526482
 40
1.0
 40
1.0
 40
1.0
 40
1.0
 10
-51.9629137254
 20
221.0787947999
 30
0.0
 10
-52.365963537
 20
220.9707551112
 30
0.0
 10
-53.2004224205
 20
220.8377243052
 30
0.0
 10
-54.0435925824
 20
220.8891685157
 30
0.0
 10
-54.4585351977
 20
220.956524175
 30
0.0
  0
SPLINE
  5
377
100
AcDbEntity
  8
0
100
AcDbSpline
 62
7
  6
CONTINUOUS
 70
0
 71
3
 72
11
 73
7
 74
0
 42
0.0000001
 43
0.0000001
 44
0.0000000001
 40
0.0
 40
0.0
 40
0.0
 40
0.0
 40
0.4154239823
 40
0.5456101979
 40
0.6865572912
 40
1.0
 40
1.0
 40
1.0
 40
1.0
 10
-55.8352810725
 20
224.0449500404
 30
0.0
 10
-55.8352599959
 20
224.4509124962
 30
0.0
 10
-55.5651810226
 20
224.9748719345
 30
0.0
 10
-55.116382833
 20
225.4675401884
 30
0.0
 10
-54.6874080367
 20
225.8480052441
 30
0.0
 10
-54.3123697595
 20
226.0907028099
 30
0.0
 10
-54.0436482857
 20
226.2377090279
 30
0.0
  0
SPLINE
  5
378
100
AcDbEntity
  8
0
100
AcDbSpline
 62
7
  6
CONTINUOUS
 70
0
 71
3
 72
10
 73
6
 74
0
 42
0.0000001
 43
0.0000001
 44
0.0000000001
 40
0.0
 40
0.0
 40
0.0
 40
0.0
 40
0.5259766398
 40
0.7665920332
 40
1.0
 40
1.0
 40
1.0
 40
1.0
 10
17.5752704591
 20
214.2204736056
 30
0.0
 10
17.9392858261
 20
214.7055007987
 30
0.0
 10
18.392098162
 20
215.485654767
 30
0.0
 10
18.6923101934
 20
216.6042160076
 30
0.0
 10
18.7334056537
 20
217.1532508938
 30
0.0
 10
18.7274288104
 20
217.422294998
 30
0.0
  0
SPLINE
  5
379
100
AcDbEntity
  8
0
100
AcDbSpline
 62
7
  6
CONTINUOUS
 70
0
 71
3
 72
11
 73
7
 74
0
 42
0.0000001
 43
0.0000001
 44
0.0000000001
 40
0.0
 40
0.0
 40
0.0
 40
0.0
 40
0.2201158302
 40
0.4434269967
 40
0.6975358701
 40
1.0
 40
1.0
 40
1.0
 40
1.0
 10
-55.8352664133
 20
222.1785584776
 30
0.0
 10
-55.8352805581
 20
222.0312791834
 30
0.0
 10
-55.7759761559
 20
221.7291585926
 30
0.0
 10
-55.4827695088
 20
221.347656622
 30
0.0
 10
-55.0225860078
 20
221.0819280204
 30
0.0
 10
-54.6582358227
 20
220.9893373288
 30
0.0
 10
-54.4585351974
 20
220.9565241726
 30
0.0
  0
SPLINE
  5
37A
100
AcDbEntity
  8
0
100
AcDbSpline
 62
7
  6
CONTINUOUS
 70
0
 71
3
 72
13
 73
9
 74
0
 42
0.0000001
 43
0.0000001
 44
0.0000000001
 40
0.0
 40
0.0
 40
0.0
 40
0.0
 40
0.0978682174
 40
0.1990857712
 40
0.3066213929
 40
0.4228397185
 40
0.6871774973
 40
1.0
 40
1.0
 40
1.0
 40
1.0
 10
-44.2569909994
 20
216.0239878003
 30
0.0
 10
-44.2506859058
 20
215.7401676599
 30
0.0
 10
-44.1784618116
 20
215.1625474798
 30
0.0
 10
-43.8953766572
 20
214.3140997078
 30
0.0
 10
-43.4415408879
 20
213.4828589513
 30
0.0
 10
-42.5774589398
 20
212.3554668127
 30
0.0
 10
-41.0470737543
 20
211.0223749744
 30
0.0
 10
-39.6036990194
 20
210.1619651141
 30
0.0
 10
-38.7978398448
 20
209.744837271
 30
0.0
  0
SPLINE
  5
37B
100
AcDbEntity
  8
0
100
AcDbSpline
 62
7
  6
CONTINUOUS
 70
0
 71
3
 72
14
 73
10
 74
0
 42
0.0000001
 43
0.0000001
 44
0.0000000001
 40
0.0
 40
0.0
 40
0.0
 40
0.0
 40
0.0959608715
 40
0.2030118331
 40
0.3201130173
 40
0.4458745937
 40
0.5786485713
 40
0.7165983922
 40
1.0
 40
1.0
 40
1.0
 40
1.0
 10
-38.7978398448
 20
209.744837271
 30
0.0
 10
-37.98265911
 20
209.3228844133
 30
0.0
 10
-36.2024954006
 20
208.5363992156
 30
0.0
 10
-33.2976082249
 20
207.5585198585
 30
0.0
 10
-30.0515296817
 20
206.7310673648
 30
0.0
 10
-26.517914823
 20
206.0682731953
 30
0.0
 10
-22.7547361588
 20
205.5812909932
 30
0.0
 10
-17.4683290979
 20
205.1744923805
 30
0.0
 10
-13.4297620103
 20
205.1599004931
 30
0.0
 10
-10.721389538
 20
205.2763620296
 30
0.0
  0
SPLINE
  5
37C
100
AcDbEntity
  8
0
100
AcDbSpline
 62
7
  6
CONTINUOUS
 70
0
 71
3
 72
14
 73
10
 74
0
 42
0.0000001
 43
0.0000001
 44
0.0000000001
 40
0.0
 40
0.0
 40
0.0
 40
0.0
 40
0.2916199958
 40
0.430455685
 40
0.5625869573
 40
0.6866474436
 40
0.8014634072
 40
0.9061183393
 40
1.0
 40
1.0
 40
1.0
 40
1.0
 10
-7.8434463798
 20
203.7866846021
 30
0.0
 10
-5.1634363194
 20
203.9734391196
 30
0.0
 10
-1.2152383231
 20
204.4122860067
 30
0.0
 10
3.8838977873
 20
205.3481133251
 30
0.0
 10
7.4268959223
 20
206.1871257178
 30
0.0
 10
10.7045145393
 20
207.1632888055
 30
0.0
 10
13.6746978329
 20
208.263750765
 30
0.0
 10
16.2988339421
 20
209.4739749548
 30
0.0
 10
17.8839211576
 20
210.3949587119
 30
0.0
 10
18.6028355243
 20
210.8757554625
 30
0.0
  0
SPLINE
  5
37D
100
AcDbEntity
  8
0
100
AcDbSpline
 62
7
  6
CONTINUOUS
 70
0
 71
3
 72
9
 73
5
 74
0
 42
0.0000001
 43
0.0000001
 44
0.0000000001
 40
0.0
 40
0.0
 40
0.0
 40
0.0
 40
0.4703876693
 40
1.0
 40
1.0
 40
1.0
 40
1.0
 10
15.6422476072
 20
216.088028457
 30
0.0
 10
16.1347385033
 20
215.7114206067
 30
0.0
 10
17.1049081215
 20
214.8072907737
 30
0.0
 10
17.9055144476
 20
213.7526096264
 30
0.0
 10
18.2884544439
 20
213.1689806459
 30
0.0
  0
SPLINE
  5
37E
100
AcDbEntity
  8
0
100
AcDbSpline
 62
7
  6
CONTINUOUS
 70
0
 71
3
 72
9
 73
5
 74
0
 42
0.0000001
 43
0.0000001
 44
0.0000000001
 40
0.0
 40
0.0
 40
0.0
 40
0.0
 40
0.4927932095
 40
1.0
 40
1.0
 40
1.0
 40
1.0
 10
18.2884544439
 20
213.1689806459
 30
0.0
 10
18.3741262999
 20
213.0384103778
 30
0.0
 10
18.5088589881
 20
212.7472764189
 30
0.0
 10
18.5683049752
 20
212.4311265561
 30
0.0
 10
18.5718725511
 20
212.2704310364
 30
0.0
  0
SPLINE
  5
37F
100
AcDbEntity
  8
0
100
AcDbSpline
 62
7
  6
CONTINUOUS
 70
0
 71
3
 72
9
 73
5
 74
0
 42
0.0000001
 43
0.0000001
 44
0.0000000001
 40
0.0
 40
0.0
 40
0.0
 40
0.0
 40
0.5097053685
 40
1.0
 40
1.0
 40
1.0
 40
1.0
 10
-50.3091204216
 20
224.1654160043
 30
0.0
 10
-49.7777819331
 20
224.5437102871
 30
0.0
 10
-48.6742191138
 20
225.2052866944
 30
0.0
 10
-47.4675325622
 20
225.6562075997
 30
0.0
 10
-46.8615184062
 20
225.8186530165
 30
0.0
  0
SPLINE
  5
380
100
AcDbEntity
  8
0
100
AcDbSpline
 62
7
  6
CONTINUOUS
 70
0
 71
3
 72
9
 73
5
 74
0
 42
0.0000001
 43
0.0000001
 44
0.0000000001
 40
0.0
 40
0.0
 40
0.0
 40
0.0
 40
0.2549301745
 40
1.0
 40
1.0
 40
1.0
 40
1.0
 10
-44.1905235521
 20
222.1112839478
 30
0.0
 10
-44.3227647308
 20
222.1407202181
 30
0.0
 10
-44.8434436844
 20
222.2472263503
 30
0.0
 10
-45.3716820721
 20
222.3171685855
 30
0.0
 10
-45.7664990131
 20
222.3471424677
 30
0.0
  0
SPLINE
  5
381
100
AcDbEntity
  8
0
100
AcDbSpline
 62
7
  6
CONTINUOUS
 70
0
 71
3
 72
9
 73
5
 74
0
 42
0.0000001
 43
0.0000001
 44
0.0000000001
 40
0.0
 40
0.0
 40
0.0
 40
0.0
 40
0.5032305666
 40
1.0
 40
1.0
 40
1.0
 40
1.0
 10
-45.7664990131
 20
222.3471424677
 30
0.0
 10
-46.366255829
 20
222.3926750633
 30
0.0
 10
-47.5683287851
 20
222.3812170825
 30
0.0
 10
-48.7497007876
 20
222.1627880581
 30
0.0
 10
-49.3232137558
 20
222.009054778
 30
0.0
  0
SPLINE
  5
382
100
AcDbEntity
  8
0
100
AcDbSpline
 62
7
  6
CONTINUOUS
 70
0
 71
3
 72
9
 73
5
 74
0
 42
0.0000001
 43
0.0000001
 44
0.0000000001
 40
0.0
 40
0.0
 40
0.0
 40
0.0
 40
0.4787829271
 40
1.0
 40
1.0
 40
1.0
 40
1.0
 10
-54.0436482779
 20
226.2377090252
 30
0.0
 10
-52.9737609788
 20
226.8229993686
 30
0.0
 10
-50.6597753896
 20
227.9045507928
 30
0.0
 10
-48.2353926012
 20
228.7045139554
 30
0.0
 10
-46.9557202752
 20
229.0580214726
 30
0.0
  0
SPLINE
  5
383
100
AcDbEntity
  8
0
100
AcDbSpline
 62
7
  6
CONTINUOUS
 70
0
 71
3
 72
9
 73
5
 74
0
 42
0.0000001
 43
0.0000001
 44
0.0000000001
 40
0.0
 40
0.0
 40
0.0
 40
0.0
 40
0.240726814
 40
1.0
 40
1.0
 40
1.0
 40
1.0
 10
-46.3487257755
 20
229.2207296763
 30
0.0
 10
-45.6153281484
 20
229.4114233332
 30
0.0
 10
-42.5471721135
 20
230.1217215722
 30
0.0
 10
-39.4200218945
 20
230.5462477292
 30
0.0
 10
-37.0428605247
 20
230.7947536029
 30
0.0
  0
SPLINE
  5
384
100
AcDbEntity
  8
0
100
AcDbSpline
 62
7
  6
CONTINUOUS
 70
0
 71
3
 72
9
 73
5
 74
0
 42
0.0000001
 43
0.0000001
 44
0.0000000001
 40
0.0
 40
0.0
 40
0.0
 40
0.0
 40
0.2457879035
 40
1.0
 40
1.0
 40
1.0
 40
1.0
 10
-37.0428605247
 20
230.7947536029
 30
0.0
 10
-36.6888749661
 20
230.8243319888
 30
0.0
 10
-35.2441321969
 20
230.8920875063
 30
0.0
 10
-33.7963209844
 20
230.7852371099
 30
0.0
 10
-32.7141064159
 20
230.6551317835
 30
0.0
  0
SPLINE
  5
385
100
AcDbEntity
  8
0
100
AcDbSpline
 62
7
  6
CONTINUOUS
 70
0
 71
3
 72
11
 73
7
 74
0
 42
0.0000001
 43
0.0000001
 44
0.0000000001
 40
0.0
 40
0.0
 40
0.0
 40
0.0
 40
0.2051989678
 40
0.4428818977
 40
0.7095445317
 40
1.0
 40
1.0
 40
1.0
 40
1.0
 10
18.2884544439
 20
213.1689806459
 30
0.0
 10
17.2546806379
 20
212.4682142354
 30
0.0
 10
14.8828887059
 20
211.1624203487
 30
0.0
 10
10.866871089
 20
209.55620377
 30
0.0
 10
6.2189941845
 20
208.1933510059
 30
0.0
 10
2.8970080645
 20
207.4969508241
 30
0.0
 10
1.1557632274
 20
207.1916820223
 30
0.0
  0
SPLINE
  5
386
100
AcDbEntity
  8
0
100
AcDbSpline
 62
7
  6
CONTINUOUS
 70
0
 71
3
 72
9
 73
5
 74
0
 42
0.0000001
 43
0.0000001
 44
0.0000000001
 40
0.0
 40
0.0
 40
0.0
 40
0.0
 40
0.2564402944
 40
1.0
 40
1.0
 40
1.0
 40
1.0
 10
-38.905066131
 20
214.5746668035
 30
0.0
 10
-39.0033550073
 20
214.6255429717
 30
0.0
 10
-39.385118783
 20
214.8268457204
 30
0.0
 10
-39.7606669167
 20
215.0400133598
 30
0.0
 10
-40.0353887397
 20
215.2058756371
 30
0.0
  0
SPLINE
  5
387
100
AcDbEntity
  8
0
100
AcDbSpline
 62
7
  6
CONTINUOUS
 70
0
 71
3
 72
12
 73
8
 74
0
 42
0.0000001
 43
0.0000001
 44
0.0000000001
 40
0.0
 40
0.0
 40
0.0
 40
0.0
 40
0.3052977779
 40
0.5672203174
 40
0.7936215898
 40
0.8981871541
 40
1.0
 40
1.0
 40
1.0
 40
1.0
 10
-40.0353887397
 20
215.2058756371
 30
0.0
 10
-40.6805624519
 20
215.5953968625
 30
0.0
 10
-41.8375524082
 20
216.3956100747
 30
0.0
 10
-43.2339600841
 20
217.7879059602
 30
0.0
 10
-43.9960784298
 20
219.0643092383
 30
0.0
 10
-44.301013675
 20
220.093127285
 30
0.0
 10
-44.3586760507
 20
220.6025486767
 30
0.0
 10
-44.3642394143
 20
220.8538168389
 30
0.0
  0
SPLINE
  5
388
100
AcDbEntity
  8
0
100
AcDbSpline
 62
7
  6
CONTINUOUS
 70
0
 71
3
 72
9
 73
5
 74
0
 42
0.0000001
 43
0.0000001
 44
0.0000000001
 40
0.0
 40
0.0
 40
0.0
 40
0.0
 40
0.5296132907
 40
1.0
 40
1.0
 40
1.0
 40
1.0
 10
-8.1578274602
 20
206.0799097856
 30
0.0
 10
-8.540768153
 20
206.6635398276
 30
0.0
 10
-9.3413744301
 20
207.7182210883
 30
0.0
 10
-10.311544403
 20
208.6223505127
 30
0.0
 10
-10.804034297
 20
208.9989575967
 30
0.0
  0
SPLINE
  5
389
100
AcDbEntity
  8
0
100
AcDbSpline
 62
7
  6
CONTINUOUS
 70
0
 71
3
 72
14
 73
10
 74
0
 42
0.0000001
 43
0.0000001
 44
0.0000000001
 40
0.0
 40
0.0
 40
0.0
 40
0.0
 40
0.2969604552
 40
0.4383512335
 40
0.5721820928
 40
0.6966011645
 40
0.8100517821
 40
0.9113808109
 40
1.0
 40
1.0
 40
1.0
 40
1.0
 10
-10.804034297
 20
208.9989575967
 30
0.0
 10
-8.0611412828
 20
209.1169035358
 30
0.0
 10
-4.0157936673
 20
209.4820013343
 30
0.0
 10
1.1999546128
 20
210.3763969801
 30
0.0
 10
4.8015669648
 20
211.2115772767
 30
0.0
 10
8.0936609441
 20
212.2065533476
 30
0.0
 10
11.0202601199
 20
213.3440873814
 30
0.0
 10
13.5313049016
 20
214.6039570153
 30
0.0
 10
15.0009224665
 20
215.5781825614
 30
0.0
 10
15.6422476072
 20
216.088028457
 30
0.0
  0
SPLINE
  5
38A
100
AcDbEntity
  8
0
100
AcDbSpline
 62
7
  6
CONTINUOUS
 70
0
 71
3
 72
14
 73
10
 74
0
 42
0.0000001
 43
0.0000001
 44
0.0000000001
 40
0.0
 40
0.0
 40
0.0
 40
0.0
 40
0.0938816239
 40
0.198536475
 40
0.3133523755
 40
0.4374128486
 40
0.5695441562
 40
0.7083799066
 40
1.0
 40
1.0
 40
1.0
 40
1.0
 10
18.5718725511
 20
212.2704310364
 30
0.0
 10
17.8529584299
 20
211.7896344499
 30
0.0
 10
16.2678727999
 20
210.8686500666
 30
0.0
 10
13.643739086
 20
209.6584242496
 30
0.0
 10
10.6735575982
 20
208.5579610586
 30
0.0
 10
7.3959393123
 20
207.5817974762
 30
0.0
 10
3.8529400775
 20
206.7427855255
 30
0.0
 10
-1.2461984573
 20
205.8069599209
 30
0.0
 10
-5.1943982601
 20
205.3681147654
 30
0.0
 10
-7.8744093529
 20
205.181360176
 30
0.0
  0
SPLINE
  5
38B
100
AcDbEntity
  8
0
100
AcDbSpline
 62
7
  6
CONTINUOUS
 70
0
 71
3
 72
11
 73
7
 74
0
 42
0.0000001
 43
0.0000001
 44
0.0000000001
 40
0.0
 40
0.0
 40
0.0
 40
0.0
 40
0.3010141638
 40
0.5540955592
 40
0.7777290287
 40
1.0
 40
1.0
 40
1.0
 40
1.0
 10
-54.4585351974
 20
222.8513590736
 30
0.0
 10
-54.657294856
 20
222.8769889177
 30
0.0
 10
-55.0211899143
 20
222.9578541271
 30
0.0
 10
-55.4829380756
 20
223.2143027705
 30
0.0
 10
-55.7766585832
 20
223.5945017326
 30
0.0
 10
-55.8352887554
 20
223.8969693484
 30
0.0
 10
-55.8352810725
 20
224.0449500404
 30
0.0
  0
SPLINE
  5
38C
100
AcDbEntity
  8
0
100
AcDbSpline
 62
7
  6
CONTINUOUS
 70
0
 71
3
 72
9
 73
5
 74
0
 42
0.0000001
 43
0.0000001
 44
0.0000000001
 40
0.0
 40
0.0
 40
0.0
 40
0.0
 40
0.5072011971
 40
1.0
 40
1.0
 40
1.0
 40
1.0
 10
-7.8744093529
 20
205.181360176
 30
0.0
 10
-7.8779768916
 20
205.3420540152
 30
0.0
 10
-7.9374185298
 20
205.6582049725
 30
0.0
 10
-8.0721545829
 20
205.9493379609
 30
0.0
 10
-8.1578274602
 20
206.0799097856
 30
0.0
  0
SPLINE
  5
38D
100
AcDbEntity
  8
0
100
AcDbSpline
 62
7
  6
CONTINUOUS
 70
0
 71
3
 72
9
 73
5
 74
0
 42
0.0000001
 43
0.0000001
 44
0.0000000001
 40
0.0
 40
0.0
 40
0.0
 40
0.0
 40
0.5037173378
 40
1.0
 40
1.0
 40
1.0
 40
1.0
 10
-54.4585351971
 20
222.8513590719
 30
0.0
 10
-54.1355799074
 20
222.8103034126
 30
0.0
 10
-53.4851901793
 20
222.7869950923
 30
0.0
 10
-52.8427975746
 20
222.8934244143
 30
0.0
 10
-52.5329857134
 20
222.9764712024
 30
0.0
  0
SPLINE
  5
38E
100
AcDbEntity
  8
0
100
AcDbSpline
 62
7
  6
CONTINUOUS
 70
0
 71
3
 72
9
 73
5
 74
0
 42
0.0000001
 43
0.0000001
 44
0.0000000001
 40
0.0
 40
0.0
 40
0.0
 40
0.0
 40
0.4873097833
 40
1.0
 40
1.0
 40
1.0
 40
1.0
 10
-46.8615184062
 20
225.8186530165
 30
0.0
 10
-46.0699623752
 20
226.03083395
 30
0.0
 10
-44.3843234819
 20
226.2613394997
 30
0.0
 10
-42.6966137584
 20
226.0832935475
 30
0.0
 10
-41.8520292152
 20
225.909984483
 30
0.0
  0
SPLINE
  5
38F
100
AcDbEntity
  8
0
100
AcDbSpline
 62
7
  6
CONTINUOUS
 70
0
 71
3
 72
12
 73
8
 74
0
 42
0.0000001
 43
0.0000001
 44
0.0000000001
 40
0.0
 40
0.0
 40
0.0
 40
0.0
 40
0.1017596903
 40
0.2062796548
 40
0.4326382745
 40
0.6946306026
 40
1.0
 40
1.0
 40
1.0
 40
1.0
 10
18.6202246462
 20
222.2521250241
 30
0.0
 10
18.6257988166
 20
222.0003687723
 30
0.0
 10
18.5906614424
 20
221.487871682
 30
0.0
 10
18.3306239577
 20
220.4444131041
 30
0.0
 10
17.6230089684
 20
219.1328241827
 30
0.0
 10
16.2846720511
 20
217.6776656821
 30
0.0
 10
15.1604442685
 20
216.8257192075
 30
0.0
 10
14.5310716179
 20
216.4074628533
 30
0.0
  0
SPLINE
  5
390
100
AcDbEntity
  8
0
100
AcDbSpline
 62
7
  6
CONTINUOUS
 70
0
 71
3
 72
21
 73
17
 74
0
 42
0.0000001
 43
0.0000001
 44
0.0000000001
 40
0.0
 40
0.0
 40
0.0
 40
0.0
 40
0.0457690713
 40
0.0972368141
 40
0.1540157532
 40
0.215520248
 40
0.2810187257
 40
0.3496711277
 40
0.4926695741
 40
0.6367146042
 40
0.7066518384
 40
0.7739063261
 40
0.8375943563
 40
0.8969213384
 40
0.9512253269
 40
1.0
 40
1.0
 40
1.0
 40
1.0
 10
14.5310716179
 20
216.4074628533
 30
0.0
 10
13.8310536549
 20
215.942258398
 30
0.0
 10
12.2748046778
 20
215.0568311295
 30
0.0
 10
9.6853424352
 20
213.9110141121
 30
0.0
 10
6.7386155596
 20
212.8848119438
 30
0.0
 10
3.4808237045
 20
211.9948537242
 30
0.0
 10
-0.0372248543
 20
211.255272914
 30
0.0
 10
-5.0687207039
 20
210.4757196726
 30
0.0
 10
-11.5904594524
 20
209.9575098693
 30
0.0
 10
-18.1555563699
 20
210.0302600149
 30
0.0
 10
-23.3041596689
 20
210.4593700823
 30
0.0
 10
-26.9616608254
 20
210.9536400614
 30
0.0
 10
-30.3946198301
 20
211.6150427191
 30
0.0
 10
-33.5492355972
 20
212.4328810698
 30
0.0
 10
-36.3756052666
 20
213.3938627305
 30
0.0
 10
-38.1096168241
 20
214.1629273034
 30
0.0
 10
-38.905066131
 20
214.5746668035
 30
0.0
  0
SPLINE
  5
391
100
AcDbEntity
  8
0
100
AcDbSpline
 62
7
  6
CONTINUOUS
 70
0
 71
3
 72
22
 73
18
 74
0
 42
0.0000001
 43
0.0000001
 44
0.0000000001
 40
0.0
 40
0.0
 40
0.0
 40
0.0
 40
0.0611527542
 40
0.114612063
 40
0.1610136697
 40
0.2018600691
 40
0.23967785
 40
0.2777892443
 40
0.3194300426
 40
0.3669537039
 40
0.4216896818
 40
0.4841740507
 40
0.5543972291
 40
0.6319743972
 40
0.7162525705
 40
0.8063796379
 40
1.0
 40
1.0
 40
1.0
 40
1.0
 10
-38.2680241806
 20
215.6618367678
 30
0.0
 10
-38.9169232123
 20
215.9977190931
 30
0.0
 10
-40.1032569431
 20
216.6894607272
 30
0.0
 10
-41.6221104704
 20
217.8828093063
 30
0.0
 10
-42.741092029
 20
219.154054705
 30
0.0
 10
-43.4361105134
 20
220.4988613117
 30
0.0
 10
-43.6687324246
 20
221.9009178529
 30
0.0
 10
-43.4170466046
 20
223.308584376
 30
0.0
 10
-42.707562533
 20
224.6741210977
 30
0.0
 10
-41.5762158679
 20
225.9839247046
 30
0.0
 10
-40.045099466
 20
227.2326915584
 30
0.0
 10
-38.1341876377
 20
228.4102370658
 30
0.0
 10
-35.8678208777
 20
229.5030589681
 30
0.0
 10
-33.2761892543
 20
230.4966559369
 30
0.0
 10
-30.3948011426
 20
231.3772145177
 30
0.0
 10
-26.118076839
 20
232.4078417578
 30
0.0
 10
-22.7612515942
 20
232.93355443
 30
0.0
 10
-20.4622382395
 20
233.1915788301
 30
0.0
  0
SPLINE
  5
392
100
AcDbEntity
  8
0
100
AcDbSpline
 62
7
  6
CONTINUOUS
 70
0
 71
3
 72
15
 73
11
 74
0
 42
0.0000001
 43
0.0000001
 44
0.0000000001
 40
0.0
 40
0.0
 40
0.0
 40
0.0
 40
0.1379801285
 40
0.2775866871
 40
0.4160037207
 40
0.5504546126
 40
0.6782960021
 40
0.7971211528
 40
0.9048709622
 40
1.0
 40
1.0
 40
1.0
 40
1.0
 10
-20.4622382395
 20
233.1915788301
 30
0.0
 10
-18.9279917626
 20
233.3637714039
 30
0.0
 10
-15.8305317016
 20
233.6189906404
 30
0.0
 10
-11.1751955338
 20
233.7423572292
 30
0.0
 10
-6.5594362858
 20
233.6082475483
 30
0.0
 10
-2.090019293
 20
233.2199207827
 30
0.0
 10
2.1301349004
 20
232.5868029974
 30
0.0
 10
6.0048235073
 20
231.7239090247
 30
0.0
 10
9.4456263123
 20
230.6520526419
 30
0.0
 10
11.5382760414
 20
229.7553739674
 30
0.0
 10
12.4835600964
 20
229.2660771878
 30
0.0
  0
SPLINE
  5
393
100
AcDbEntity
  8
0
100
AcDbSpline
 62
7
  6
CONTINUOUS
 70
0
 71
3
 72
32
 73
28
 74
0
 42
0.0000001
 43
0.0000001
 44
0.0000000001
 40
0.0
 40
0.0
 40
0.0
 40
0.0
 40
0.025679946
 40
0.0487065699
 40
0.0692258978
 40
0.0875747646
 40
0.1043075152
 40
0.1202193633
 40
0.1362602273
 40
0.1533538731
 40
0.172234954
 40
0.1933959946
 40
0.2171156138
 40
0.2435081672
 40
0.2725697304
 40
0.3042090361
 40
0.3745083046
 40
0.4526159314
 40
0.5361707554
 40
0.6224914577
 40
0.7087442337
 40
0.7920991132
 40
0.8698856014
 40
0.9059530553
 40
0.939787595
 40
0.9711926919
 40
1.0
 40
1.0
 40
1.0
 40
1.0
 10
12.7673061027
 20
229.116391572
 30
0.0
 10
13.2883617326
 20
228.8364072482
 30
0.0
 10
14.2547530926
 20
228.2622368532
 30
0.0
 10
15.5294135266
 20
227.2975620743
 30
0.0
 10
16.5389411673
 20
226.2825793625
 30
0.0
 10
17.2724877983
 20
225.2225614586
 30
0.0
 10
17.7167709523
 20
224.1228124104
 30
0.0
 10
17.8563732219
 20
222.9962285304
 30
0.0
 10
17.6846149816
 20
221.866075514
 30
0.0
 10
17.2108340833
 20
220.753985191
 30
0.0
 10
16.4502412757
 20
219.6706464672
 30
0.0
 10
15.4148604601
 20
218.6215197151
 30
0.0
 10
14.1151030761
 20
217.6124703387
 30
0.0
 10
12.5624911501
 20
216.6506109772
 30
0.0
 10
10.7706965786
 20
215.7437923088
 30
0.0
 10
7.9851506973
 20
214.5782487932
 30
0.0
 10
4.0168798839
 20
213.341861781
 30
0.0
 10
-1.2165934429
 20
212.2364452466
 30
0.0
 10
-6.8873379287
 20
211.5051255434
 30
0.0
 10
-12.7827406632
 20
211.1763601274
 30
0.0
 10
-18.6822804417
 20
211.262933024
 30
0.0
 10
-24.3640724481
 20
211.7612562804
 30
0.0
 10
-28.8494610603
 20
212.5204946934
 30
0.0
 10
-32.1539388696
 20
213.3343367394
 30
0.0
 10
-34.3872977423
 20
214.0154185705
 30
0.0
 10
-36.4172850928
 20
214.775894215
 30
0.0
 10
-37.6787280287
 20
215.3567694297
 30
0.0
 10
-38.2680151541
 20
215.6617955129
 30
0.0
  0
SPLINE
  5
394
100
AcDbEntity
  8
0
100
AcDbSpline
 62
7
  6
CONTINUOUS
 70
0
 71
3
 72
11
 73
7
 74
0
 42
0.0000001
 43
0.0000001
 44
0.0000000001
 40
0.0
 40
0.0
 40
0.0
 40
0.0
 40
0.2634103434
 40
0.5159329171
 40
0.760204413
 40
1.0
 40
1.0
 40
1.0
 40
1.0
 10
-30.29902978
 20
160.2676640662
 30
0.0
 10
-31.3046453233
 20
159.9981033063
 30
0.0
 10
-33.3231270739
 20
159.6314022797
 30
0.0
 10
-36.3458987987
 20
159.6462489022
 30
0.0
 10
-39.2160097045
 20
160.2414454641
 30
0.0
 10
-40.9817582575
 20
161.0217433349
 30
0.0
 10
-41.8024657389
 20
161.4957986999
 30
0.0
  0
SPLINE
  5
395
100
AcDbEntity
  8
0
100
AcDbSpline
 62
7
  6
CONTINUOUS
 70
0
 71
3
 72
17
 73
13
 74
0
 42
0.0000001
 43
0.0000001
 44
0.0000000001
 40
0.0
 40
0.0
 40
0.0
 40
0.0
 40
0.1228378013
 40
0.2546980753
 40
0.3916792831
 40
0.5284206932
 40
0.6596222863
 40
0.7815663292
 40
0.8389124187
 40
0.8940272359
 40
0.9474649584
 40
1.0
 40
1.0
 40
1.0
 40
1.0
 10
-40.7134919904
 20
180.3465931949
 30
0.0
 10
-41.2460442915
 20
180.2038396308
 30
0.0
 10
-42.3041836522
 20
179.7204673861
 30
0.0
 10
-43.6620891736
 20
178.5766017497
 30
0.0
 10
-44.7447870656
 20
177.0918756858
 30
0.0
 10
-45.4543422808
 20
175.4000986148
 30
0.0
 10
-45.7266257287
 20
173.6529488025
 30
0.0
 10
-45.5566346016
 20
172.2459338243
 30
0.0
 10
-45.1744935901
 20
171.260577744
 30
0.0
 10
-44.7839240774
 20
170.6214219227
 30
0.0
 10
-44.2928745037
 20
170.0845972505
 30
0.0
 10
-43.9044673119
 20
169.8032562998
 30
0.0
 10
-43.7002825753
 20
169.6853110927
 30
0.0
  0
SPLINE
  5
396
100
AcDbEntity
  8
0
100
AcDbSpline
 62
7
  6
CONTINUOUS
 70
0
 71
3
 72
17
 73
13
 74
0
 42
0.0000001
 43
0.0000001
 44
0.0000000001
 40
0.0
 40
0.0
 40
0.0
 40
0.0
 40
0.1228378013
 40
0.2546980753
 40
0.3916792831
 40
0.5284206932
 40
0.6596222863
 40
0.7815663292
 40
0.8389124187
 40
0.8940272359
 40
0.9474649584
 40
1.0
 40
1.0
 40
1.0
 40
1.0
 10
-36.7355214006
 20
195.0318873407
 30
0.0
 10
-37.2680737017
 20
194.8891337766
 30
0.0
 10
-38.3262130624
 20
194.4057615319
 30
0.0
 10
-39.6841185838
 20
193.2618958955
 30
0.0
 10
-40.7668164758
 20
191.7771698316
 30
0.0
 10
-41.476371691
 20
190.0853927606
 30
0.0
 10
-41.7486551389
 20
188.3382429483
 30
0.0
 10
-41.5786640118
 20
186.9312279701
 30
0.0
 10
-41.1965230004
 20
185.9458718898
 30
0.0
 10
-40.8059534876
 20
185.3067160685
 30
0.0
 10
-40.3149039139
 20
184.7698913963
 30
0.0
 10
-39.9264967221
 20
184.4885504456
 30
0.0
 10
-39.7223119855
 20
184.3706052385
 30
0.0
  0
SPLINE
  5
397
100
AcDbEntity
  8
0
100
AcDbSpline
 62
7
  6
CONTINUOUS
 70
0
 71
3
 72
17
 73
13
 74
0
 42
0.0000001
 43
0.0000001
 44
0.0000000001
 40
0.0
 40
0.0
 40
0.0
 40
0.0
 40
0.1228378013
 40
0.2546980753
 40
0.3916792831
 40
0.5284206932
 40
0.6596222863
 40
0.7815663292
 40
0.8389124187
 40
0.8940272359
 40
0.9474649584
 40
1.0
 40
1.0
 40
1.0
 40
1.0
 10
-23.8625381595
 20
198.4825610769
 30
0.0
 10
-24.3950904606
 20
198.3398075128
 30
0.0
 10
-25.4532298214
 20
197.8564352681
 30
0.0
 10
-26.8111353428
 20
196.7125696317
 30
0.0
 10
-27.8938332348
 20
195.2278435678
 30
0.0
 10
-28.6033884499
 20
193.5360664968
 30
0.0
 10
-28.8756718978
 20
191.7889166845
 30
0.0
 10
-28.7056807707
 20
190.3819017063
 30
0.0
 10
-28.3235397593
 20
189.396545626
 30
0.0
 10
-27.9329702466
 20
188.7573898047
 30
0.0
 10
-27.4419206728
 20
188.2205651325
 30
0.0
 10
-27.0535134811
 20
187.9392241819
 30
0.0
 10
-26.8493287444
 20
187.8212789747
 30
0.0
  0
SPLINE
  5
398
100
AcDbEntity
  8
0
100
AcDbSpline
 62
7
  6
CONTINUOUS
 70
0
 71
3
 72
17
 73
13
 74
0
 42
0.0000001
 43
0.0000001
 44
0.0000000001
 40
0.0
 40
0.0
 40
0.0
 40
0.0
 40
0.1228378013
 40
0.2546980753
 40
0.3916792831
 40
0.5284206932
 40
0.6596222863
 40
0.7815663292
 40
0.8389124187
 40
0.8940272359
 40
0.9474649584
 40
1.0
 40
1.0
 40
1.0
 40
1.0
 10
-19.8845675697
 20
185.9299005842
 30
0.0
 10
-20.4171198708
 20
185.7871470201
 30
0.0
 10
-21.4752592316
 20
185.3037747753
 30
0.0
 10
-22.833164753
 20
184.159909139
 30
0.0
 10
-23.915862645
 20
182.675183075
 30
0.0
 10
-24.6254178601
 20
180.9834060041
 30
0.0
 10
-24.897701308
 20
179.2362561918
 30
0.0
 10
-24.7277101809
 20
177.8292412136
 30
0.0
 10
-24.3455691695
 20
176.8438851333
 30
0.0
 10
-23.9549996568
 20
176.204729312
 30
0.0
 10
-23.4639500831
 20
175.6679046398
 30
0.0
 10
-23.0755428913
 20
175.3865636891
 30
0.0
 10
-22.8713581546
 20
175.268618482
 30
0.0
  0
SPLINE
  5
399
100
AcDbEntity
  8
0
100
AcDbSpline
 62
7
  6
CONTINUOUS
 70
0
 71
3
 72
10
 73
6
 74
0
 42
0.0000001
 43
0.0000001
 44
0.0000000001
 40
0.0
 40
0.0
 40
0.0
 40
0.0
 40
0.2403281524
 40
0.485096085
 40
1.0
 40
1.0
 40
1.0
 40
1.0
 10
-29.3994563747
 20
173.3885969189
 30
0.0
 10
-29.5439902138
 20
173.4720501538
 30
0.0
 10
-29.8550418696
 20
173.6093990325
 30
0.0
 10
-30.538668327
 20
173.7517412735
 30
0.0
 10
-31.0796776218
 20
173.6974382398
 30
0.0
 10
-31.4250608589
 20
173.6048563703
 30
0.0
  0
SPLINE
  5
39A
100
AcDbEntity
  8
0
100
AcDbSpline
 62
7
  6
CONTINUOUS
 70
0
 71
3
 72
9
 73
5
 74
0
 42
0.0000001
 43
0.0000001
 44
0.0000000001
 40
0.0
 40
0.0
 40
0.0
 40
0.0
 40
0.2483663423
 40
1.0
 40
1.0
 40
1.0
 40
1.0
 10
-21.1241925231
 20
184.793429362
 30
0.0
 10
-21.1726236004
 20
184.8213921142
 30
0.0
 10
-21.3726923511
 20
184.9250481388
 30
0.0
 10
-21.5919520986
 20
184.9909178583
 30
0.0
 10
-21.7589898319
 20
185.0181508659
 30
0.0
  0
SPLINE
  5
39B
100
AcDbEntity
  8
0
100
AcDbSpline
 62
7
  6
CONTINUOUS
 70
0
 71
3
 72
11
 73
7
 74
0
 42
0.0000001
 43
0.0000001
 44
0.0000000001
 40
0.0
 40
0.0
 40
0.0
 40
0.0
 40
0.2398026284
 40
0.484043451
 40
0.7366438804
 40
1.0
 40
1.0
 40
1.0
 40
1.0
 10
-16.8977769848
 20
185.6110237522
 30
0.0
 10
-17.1108714054
 20
185.7341155463
 30
0.0
 10
-17.5693404024
 20
185.9366277402
 30
0.0
 10
-18.3145704558
 20
186.0912975536
 30
0.0
 10
-19.099409112
 20
186.0950146311
 30
0.0
 10
-19.62352124
 20
185.9998754841
 30
0.0
 10
-19.8845675697
 20
185.9299005842
 30
0.0
  0
SPLINE
  5
39C
100
AcDbEntity
  8
0
100
AcDbSpline
 62
7
  6
CONTINUOUS
 70
0
 71
3
 72
9
 73
5
 74
0
 42
0.0000001
 43
0.0000001
 44
0.0000000001
 40
0.0
 40
0.0
 40
0.0
 40
0.0
 40
0.2483663423
 40
1.0
 40
1.0
 40
1.0
 40
1.0
 10
-25.1021631129
 20
197.3460898547
 30
0.0
 10
-25.1505941902
 20
197.3740526069
 30
0.0
 10
-25.3506629409
 20
197.4777086316
 30
0.0
 10
-25.5699226884
 20
197.5435783511
 30
0.0
 10
-25.7369604217
 20
197.5708113587
 30
0.0
  0
SPLINE
  5
39D
100
AcDbEntity
  8
0
100
AcDbSpline
 62
7
  6
CONTINUOUS
 70
0
 71
3
 72
11
 73
7
 74
0
 42
0.0000001
 43
0.0000001
 44
0.0000000001
 40
0.0
 40
0.0
 40
0.0
 40
0.0
 40
0.2398026284
 40
0.484043451
 40
0.7366438804
 40
1.0
 40
1.0
 40
1.0
 40
1.0
 10
-20.8757475746
 20
198.1636842449
 30
0.0
 10
-21.0888419951
 20
198.2867760391
 30
0.0
 10
-21.5473109922
 20
198.489288233
 30
0.0
 10
-22.2925410456
 20
198.6439580464
 30
0.0
 10
-23.0773797018
 20
198.6476751239
 30
0.0
 10
-23.6014918298
 20
198.5525359768
 30
0.0
 10
-23.8625381595
 20
198.4825610769
 30
0.0
  0
SPLINE
  5
39E
100
AcDbEntity
  8
0
100
AcDbSpline
 62
7
  6
CONTINUOUS
 70
0
 71
3
 72
9
 73
5
 74
0
 42
0.0000001
 43
0.0000001
 44
0.0000000001
 40
0.0
 40
0.0
 40
0.0
 40
0.0
 40
0.2483663423
 40
1.0
 40
1.0
 40
1.0
 40
1.0
 10
-37.975146354
 20
193.8954161185
 30
0.0
 10
-38.0235774313
 20
193.9233788707
 30
0.0
 10
-38.223646182
 20
194.0270348954
 30
0.0
 10
-38.4429059294
 20
194.0929046149
 30
0.0
 10
-38.6099436627
 20
194.1201376225
 30
0.0
  0
SPLINE
  5
39F
100
AcDbEntity
  8
0
100
AcDbSpline
 62
7
  6
CONTINUOUS
 70
0
 71
3
 72
11
 73
7
 74
0
 42
0.0000001
 43
0.0000001
 44
0.0000000001
 40
0.0
 40
0.0
 40
0.0
 40
0.0
 40
0.2398026284
 40
0.484043451
 40
0.7366438804
 40
1.0
 40
1.0
 40
1.0
 40
1.0
 10
-33.7487308157
 20
194.7130105087
 30
0.0
 10
-33.9618252362
 20
194.8361023029
 30
0.0
 10
-34.4202942333
 20
195.0386144968
 30
0.0
 10
-35.1655242866
 20
195.1932843102
 30
0.0
 10
-35.9503629429
 20
195.1970013877
 30
0.0
 10
-36.4744750709
 20
195.1018622406
 30
0.0
 10
-36.7355214006
 20
195.0318873407
 30
0.0
  0
SPLINE
  5
3A0
100
AcDbEntity
  8
0
100
AcDbSpline
 62
7
  6
CONTINUOUS
 70
0
 71
3
 72
9
 73
5
 74
0
 42
0.0000001
 43
0.0000001
 44
0.0000000001
 40
0.0
 40
0.0
 40
0.0
 40
0.0
 40
0.2483663423
 40
1.0
 40
1.0
 40
1.0
 40
1.0
 10
-41.9531169438
 20
179.2101219727
 30
0.0
 10
-42.0015480211
 20
179.2380847249
 30
0.0
 10
-42.2016167717
 20
179.3417407496
 30
0.0
 10
-42.4208765192
 20
179.4076104691
 30
0.0
 10
-42.5879142525
 20
179.4348434767
 30
0.0
  0
SPLINE
  5
3A1
100
AcDbEntity
  8
0
100
AcDbSpline
 62
7
  6
CONTINUOUS
 70
0
 71
3
 72
11
 73
7
 74
0
 42
0.0000001
 43
0.0000001
 44
0.0000000001
 40
0.0
 40
0.0
 40
0.0
 40
0.0
 40
0.2398026284
 40
0.484043451
 40
0.7366438804
 40
1.0
 40
1.0
 40
1.0
 40
1.0
 10
-37.7267014054
 20
180.0277163629
 30
0.0
 10
-37.939795826
 20
180.1508081571
 30
0.0
 10
-38.3982648231
 20
180.353320351
 30
0.0
 10
-39.1434948764
 20
180.5079901644
 30
0.0
 10
-39.9283335326
 20
180.5117072419
 30
0.0
 10
-40.4524456607
 20
180.4165680948
 30
0.0
 10
-40.7134919904
 20
180.3465931949
 30
0.0
  0
SPLINE
  5
3A2
100
AcDbEntity
  8
0
100
AcDbSpline
 62
7
  6
CONTINUOUS
 70
0
 71
3
 72
9
 73
5
 74
0
 42
0.0000001
 43
0.0000001
 44
0.0000000001
 40
0.0
 40
0.0
 40
0.0
 40
0.0
 40
0.2535104925
 40
1.0
 40
1.0
 40
1.0
 40
1.0
 10
-45.615072911
 20
174.1913748264
 30
0.0
 10
-45.5790009303
 20
174.1472750938
 30
0.0
 10
-45.4293272979
 20
173.9795112859
 30
0.0
 10
-45.2493094557
 20
173.8386633496
 30
0.0
 10
-45.1040224312
 20
173.754778677
 30
0.0
  0
SPLINE
  5
3A3
100
AcDbEntity
  8
0
100
AcDbSpline
 62
7
  6
CONTINUOUS
 70
0
 71
3
 72
9
 73
5
 74
0
 42
0.0000001
 43
0.0000001
 44
0.0000000001
 40
0.0
 40
0.0
 40
0.0
 40
0.0
 40
0.2535104925
 40
1.0
 40
1.0
 40
1.0
 40
1.0
 10
-41.6371023212
 20
188.8766689722
 30
0.0
 10
-41.6010303405
 20
188.8325692396
 30
0.0
 10
-41.4513567081
 20
188.6648054317
 30
0.0
 10
-41.2713388659
 20
188.5239574954
 30
0.0
 10
-41.1260518414
 20
188.4400728228
 30
0.0
  0
SPLINE
  5
3A4
100
AcDbEntity
  8
0
100
AcDbSpline
 62
7
  6
CONTINUOUS
 70
0
 71
3
 72
9
 73
5
 74
0
 42
0.0000001
 43
0.0000001
 44
0.0000000001
 40
0.0
 40
0.0
 40
0.0
 40
0.0
 40
0.2535104925
 40
1.0
 40
1.0
 40
1.0
 40
1.0
 10
-28.7641190801
 20
192.3273427084
 30
0.0
 10
-28.7280470994
 20
192.2832429758
 30
0.0
 10
-28.5783734671
 20
192.1154791679
 30
0.0
 10
-28.3983556249
 20
191.9746312316
 30
0.0
 10
-28.2530686004
 20
191.890746559
 30
0.0
  0
SPLINE
  5
3A5
100
AcDbEntity
  8
0
100
AcDbSpline
 62
7
  6
CONTINUOUS
 70
0
 71
3
 72
9
 73
5
 74
0
 42
0.0000001
 43
0.0000001
 44
0.0000000001
 40
0.0
 40
0.0
 40
0.0
 40
0.0
 40
0.2535104925
 40
1.0
 40
1.0
 40
1.0
 40
1.0
 10
-24.7861484904
 20
179.7746822157
 30
0.0
 10
-24.7500765096
 20
179.7305824831
 30
0.0
 10
-24.6004028773
 20
179.5628186752
 30
0.0
 10
-24.4203850351
 20
179.4219707388
 30
0.0
 10
-24.2750980106
 20
179.3380860663
 30
0.0
  0
SPLINE
  5
3A6
100
AcDbEntity
  8
0
100
AcDbSpline
 62
7
  6
CONTINUOUS
 70
0
 71
3
 72
12
 73
8
 74
0
 42
0.0000001
 43
0.0000001
 44
0.0000000001
 40
0.0
 40
0.0
 40
0.0
 40
0.0
 40
0.2349899833
 40
0.4894752595
 40
0.6202667696
 40
0.7503904793
 40
1.0
 40
1.0
 40
1.0
 40
1.0
 10
-31.4250608589
 20
173.6048563703
 30
0.0
 10
-31.8842001943
 20
173.4817815553
 30
0.0
 10
-32.7892590303
 20
173.0193938571
 30
0.0
 10
-33.6764497913
 20
172.1049808602
 30
0.0
 10
-34.224890484
 20
171.2141302319
 30
0.0
 10
-34.6315604401
 20
170.2624618975
 30
0.0
 10
-34.7721684121
 20
169.4892623846
 30
0.0
 10
-34.7721684121
 20
168.9843406552
 30
0.0
  0
SPLINE
  5
3A7
100
AcDbEntity
  8
0
100
AcDbSpline
 62
7
  6
CONTINUOUS
 70
0
 71
3
 72
11
 73
7
 74
0
 42
0.0000001
 43
0.0000001
 44
0.0000000001
 40
0.0
 40
0.0
 40
0.0
 40
0.0
 40
0.2717668072
 40
0.5268680781
 40
0.7676307415
 40
1.0
 40
1.0
 40
1.0
 40
1.0
 10
-34.7721684121
 20
168.9843406552
 30
0.0
 10
-34.7721684121
 20
168.7074719136
 30
0.0
 10
-34.7183297701
 20
168.1684314381
 30
0.0
 10
-34.4605341116
 20
167.4217252212
 30
0.0
 10
-34.0380132204
 20
166.8004657297
 30
0.0
 10
-33.6556768565
 20
166.4928782444
 30
0.0
 10
-33.4506653431
 20
166.374505453
 30
0.0
  0
SPLINE
  5
3A8
100
AcDbEntity
  8
0
100
AcDbSpline
 62
7
  6
CONTINUOUS
 70
0
 71
3
 72
21
 73
17
 74
0
 42
0.0000001
 43
0.0000001
 44
0.0000000001
 40
0.0
 40
0.0
 40
0.0
 40
0.0
 40
0.0524705347
 40
0.1058422668
 40
0.1608890322
 40
0.2181647006
 40
0.2779603765
 40
0.3403046685
 40
0.404991693
 40
0.4716227035
 40
0.6081929828
 40
0.7450058844
 40
0.811922784
 40
0.8769822192
 40
0.9397548461
 40
1.0
 40
1.0
 40
1.0
 40
1.0
 10
-18.7955938212
 20
201.3289216503
 30
0.0
 10
-18.0091729531
 20
200.8746708482
 30
0.0
 10
-16.5132509875
 20
199.7911003263
 30
0.0
 10
-14.6218718269
 20
197.7235709209
 30
0.0
 10
-13.1176883183
 20
195.2621183603
 30
0.0
 10
-12.0356404384
 20
192.4709100949
 30
0.0
 10
-11.3978619343
 20
189.4186619243
 30
0.0
 10
-11.216718786
 20
186.1789170023
 30
0.0
 10
-11.4945030944
 20
182.828116636
 30
0.0
 10
-12.473583996
 20
178.2849226393
 30
0.0
 10
-14.7724631344
 20
172.8026361983
 30
0.0
 10
-18.2779617942
 20
167.9959002784
 30
0.0
 10
-21.666308782
 20
164.7925899997
 30
0.0
 10
-24.400232497
 20
162.8032091839
 30
0.0
 10
-27.277922322
 20
161.2596602392
 30
0.0
 10
-29.2918346792
 20
160.5376482351
 30
0.0
 10
-30.29902978
 20
160.2676640662
 30
0.0
  0
SPLINE
  5
3A9
100
AcDbEntity
  8
0
100
AcDbSpline
 62
7
  6
CONTINUOUS
 70
0
 71
3
 72
10
 73
6
 74
0
 42
0.0000001
 43
0.0000001
 44
0.0000000001
 40
0.0
 40
0.0
 40
0.0
 40
0.0
 40
0.2403281525
 40
0.485096085
 40
1.0
 40
1.0
 40
1.0
 40
1.0
 10
-33.4506653431
 20
166.374505453
 30
0.0
 10
-33.3061315044
 20
166.2910522183
 30
0.0
 10
-32.9950798495
 20
166.1537033398
 30
0.0
 10
-32.3114533942
 20
166.0113610991
 30
0.0
 10
-31.7704441007
 20
166.0656641301
 30
0.0
 10
-31.4250608647
 20
166.158246
 30
0.0
  0
SPLINE
  5
3AA
100
AcDbEntity
  8
0
100
AcDbSpline
 62
7
  6
CONTINUOUS
 70
0
 71
3
 72
11
 73
7
 74
0
 42
0.0000001
 43
0.0000001
 44
0.0000000001
 40
0.0
 40
0.0
 40
0.0
 40
0.0
 40
0.2634103434
 40
0.5159329171
 40
0.760204413
 40
1.0
 40
1.0
 40
1.0
 40
1.0
 10
-30.29902978
 20
202.557056284
 30
0.0
 10
-29.2934142368
 20
202.8266170438
 30
0.0
 10
-27.2749324862
 20
203.1933180704
 30
0.0
 10
-24.2521607614
 20
203.1784714479
 30
0.0
 10
-21.3820498556
 20
202.583274886
 30
0.0
 10
-19.6163013025
 20
201.8029770152
 30
0.0
 10
-18.7955938212
 20
201.3289216503
 30
0.0
  0
SPLINE
  5
3AB
100
AcDbEntity
  8
0
100
AcDbSpline
 62
7
  6
CONTINUOUS
 70
0
 71
3
 72
17
 73
13
 74
0
 42
0.0000001
 43
0.0000001
 44
0.0000000001
 40
0.0
 40
0.0
 40
0.0
 40
0.0
 40
0.1228378013
 40
0.2546980753
 40
0.3916792831
 40
0.5284206932
 40
0.6596222863
 40
0.7815663292
 40
0.8389124187
 40
0.8940272359
 40
0.9474649584
 40
1.0
 40
1.0
 40
1.0
 40
1.0
 10
-19.8845675697
 20
174.9497416499
 30
0.0
 10
-19.3520152686
 20
175.0924952141
 30
0.0
 10
-18.2938759079
 20
175.5758674588
 30
0.0
 10
-16.9359703865
 20
176.7197330951
 30
0.0
 10
-15.8532724945
 20
178.2044591591
 30
0.0
 10
-15.1437172793
 20
179.89623623
 30
0.0
 10
-14.8714338314
 20
181.6433860423
 30
0.0
 10
-15.0414249585
 20
183.0504010205
 30
0.0
 10
-15.42356597
 20
184.0357571008
 30
0.0
 10
-15.8141354827
 20
184.6749129222
 30
0.0
 10
-16.3051850564
 20
185.2117375944
 30
0.0
 10
-16.6935922482
 20
185.493078545
 30
0.0
 10
-16.8977769848
 20
185.6110237522
 30
0.0
  0
SPLINE
  5
3AC
100
AcDbEntity
  8
0
100
AcDbSpline
 62
7
  6
CONTINUOUS
 70
0
 71
3
 72
10
 73
6
 74
0
 42
0.0000001
 43
0.0000001
 44
0.0000000001
 40
0.0
 40
0.0
 40
0.0
 40
0.0
 40
0.2403191847
 40
0.4850897425
 40
1.0
 40
1.0
 40
1.0
 40
1.0
 10
-24.2750980106
 20
179.3380860663
 30
0.0
 10
-24.1626859691
 20
179.2731824912
 30
0.0
 10
-23.9207887087
 20
179.1662929668
 30
0.0
 10
-23.3890626121
 20
179.0556279522
 30
0.0
 10
-22.9682796782
 20
179.097844755
 30
0.0
 10
-22.6996452669
 20
179.1698536818
 30
0.0
  0
SPLINE
  5
3AD
100
AcDbEntity
  8
0
100
AcDbSpline
 62
7
  6
CONTINUOUS
 70
0
 71
3
 72
14
 73
10
 74
0
 42
0.0000001
 43
0.0000001
 44
0.0000000001
 40
0.0
 40
0.0
 40
0.0
 40
0.0
 40
0.2346073929
 40
0.3603379301
 40
0.4894684284
 40
0.6200482101
 40
0.7499714674
 40
0.8772023527
 40
1.0
 40
1.0
 40
1.0
 40
1.0
 10
-30.29902978
 20
163.6692021359
 30
0.0
 10
-29.6131710862
 20
163.8530503159
 30
0.0
 10
-28.6135766463
 20
164.3639757143
 30
0.0
 10
-27.4930934238
 20
165.3372302938
 30
0.0
 10
-26.7369144956
 20
166.232401444
 30
0.0
 10
-26.1166021512
 20
167.2402071604
 30
0.0
 10
-25.6541177096
 20
168.3236805829
 30
0.0
 10
-25.3672265831
 20
169.4418201623
 30
0.0
 10
-25.299029608
 20
170.1997897775
 30
0.0
 10
-25.299029608
 20
170.5714540066
 30
0.0
  0
SPLINE
  5
3AE
100
AcDbEntity
  8
0
100
AcDbSpline
 62
7
  6
CONTINUOUS
 70
0
 71
3
 72
15
 73
11
 74
0
 42
0.0000001
 43
0.0000001
 44
0.0000000001
 40
0.0
 40
0.0
 40
0.0
 40
0.0
 40
0.1103006072
 40
0.2289238116
 40
0.3554580686
 40
0.487567162
 40
0.6217357835
 40
0.7540451441
 40
0.8809322439
 40
1.0
 40
1.0
 40
1.0
 40
1.0
 10
-18.4905782395
 20
186.0607824921
 30
0.0
 10
-18.255986243
 20
185.6975168296
 30
0.0
 10
-17.8926551927
 20
184.8594474144
 30
0.0
 10
-17.7073471783
 20
183.4639754889
 30
0.0
 10
-17.8640495623
 20
181.9805590904
 30
0.0
 10
-18.3493016348
 20
180.5076199847
 30
0.0
 10
-19.1290171779
 20
179.1414987676
 30
0.0
 10
-20.1520360059
 20
177.9728076203
 30
0.0
 10
-21.3502762167
 20
177.0798981023
 30
0.0
 10
-22.2487622254
 20
176.6965399183
 30
0.0
 10
-22.6996452669
 20
176.575678247
 30
0.0
  0
SPLINE
  5
3AF
100
AcDbEntity
  8
0
100
AcDbSpline
 62
7
  6
CONTINUOUS
 70
0
 71
3
 72
11
 73
7
 74
0
 42
0.0000001
 43
0.0000001
 44
0.0000000001
 40
0.0
 40
0.0
 40
0.0
 40
0.0
 40
0.2398026284
 40
0.484043451
 40
0.7366438804
 40
1.0
 40
1.0
 40
1.0
 40
1.0
 10
-22.8713581546
 20
175.268618482
 30
0.0
 10
-22.6582637341
 20
175.1455266878
 30
0.0
 10
-22.199794737
 20
174.9430144939
 30
0.0
 10
-21.4545646837
 20
174.7883446805
 30
0.0
 10
-20.6697260274
 20
174.784627603
 30
0.0
 10
-20.1456138994
 20
174.87976675
 30
0.0
 10
-19.8845675697
 20
174.9497416499
 30
0.0
  0
SPLINE
  5
3B0
100
AcDbEntity
  8
0
100
AcDbSpline
 62
7
  6
CONTINUOUS
 70
0
 71
3
 72
14
 73
10
 74
0
 42
0.0000001
 43
0.0000001
 44
0.0000000001
 40
0.0
 40
0.0
 40
0.0
 40
0.0
 40
0.2686164723
 40
0.3932530389
 40
0.5129262831
 40
0.6303784462
 40
0.7488454196
 40
0.8713344666
 40
1.0
 40
1.0
 40
1.0
 40
1.0
 10
-25.299029608
 20
170.5714540066
 30
0.0
 10
-25.299029608
 20
171.2587502308
 30
0.0
 10
-25.4705742134
 20
172.2857260311
 30
0.0
 10
-26.1031882861
 20
173.4468216391
 30
0.0
 10
-26.7335912056
 20
174.138192717
 30
0.0
 10
-27.5065569148
 20
174.6373772297
 30
0.0
 10
-28.3887947328
 20
174.9225857511
 30
0.0
 10
-29.3412458226
 20
174.9836997132
 30
0.0
 10
-29.9810454068
 20
174.8783884116
 30
0.0
 10
-30.29902978
 20
174.7931509584
 30
0.0
  0
SPLINE
  5
3B1
100
AcDbEntity
  8
0
100
AcDbSpline
 62
7
  6
CONTINUOUS
 70
0
 71
3
 72
9
 73
5
 74
0
 42
0.0000001
 43
0.0000001
 44
0.0000000001
 40
0.0
 40
0.0
 40
0.0
 40
0.0
 40
0.2573584027
 40
1.0
 40
1.0
 40
1.0
 40
1.0
 10
-43.5285696875
 20
170.9923708577
 30
0.0
 10
-43.6446333116
 20
170.9612593669
 30
0.0
 10
-44.099771289
 20
170.8569502147
 30
0.0
 10
-44.5717127859
 20
170.8217841704
 30
0.0
 10
-44.9178654328
 20
170.8419696126
 30
0.0
  0
SPLINE
  5
3B2
100
AcDbEntity
  8
0
100
AcDbSpline
 62
7
  6
CONTINUOUS
 70
0
 71
3
 72
10
 73
6
 74
0
 42
0.0000001
 43
0.0000001
 44
0.0000000001
 40
0.0
 40
0.0
 40
0.0
 40
0.0
 40
0.2403191847
 40
0.4850897425
 40
1.0
 40
1.0
 40
1.0
 40
1.0
 10
-28.2530686004
 20
191.890746559
 30
0.0
 10
-28.1406565588
 20
191.825842984
 30
0.0
 10
-27.8987592985
 20
191.7189534595
 30
0.0
 10
-27.3670332018
 20
191.6082884449
 30
0.0
 10
-26.946250268
 20
191.6505052478
 30
0.0
 10
-26.6776158566
 20
191.7225141746
 30
0.0
  0
SPLINE
  5
3B3
100
AcDbEntity
  8
0
100
AcDbSpline
 62
7
  6
CONTINUOUS
 70
0
 71
3
 72
16
 73
12
 74
0
 42
0.0000001
 43
0.0000001
 44
0.0000000001
 40
0.0
 40
0.0
 40
0.0
 40
0.0
 40
0.122897269
 40
0.2548125566
 40
0.3918546899
 40
0.5286544454
 40
0.6599143182
 40
0.7819125591
 40
0.8939777555
 40
0.947438903
 40
1.0
 40
1.0
 40
1.0
 40
1.0
 10
-43.5285696875
 20
173.5865462926
 30
0.0
 10
-43.2476497546
 20
173.6618484208
 30
0.0
 10
-42.6894920799
 20
173.9168055686
 30
0.0
 10
-41.9732766441
 20
174.520219786
 30
0.0
 10
-41.4021501441
 20
175.3033600636
 30
0.0
 10
-41.0277916344
 20
176.1955666244
 30
0.0
 10
-40.8846034453
 20
177.1177798066
 30
0.0
 10
-40.9885650212
 20
177.9884604248
 30
0.0
 10
-41.2899379605
 20
178.6166437812
 30
0.0
 10
-41.6405316549
 20
178.9994527425
 30
0.0
 10
-41.8453962758
 20
179.1479270658
 30
0.0
 10
-41.9531169438
 20
179.2101219727
 30
0.0
  0
SPLINE
  5
3B4
100
AcDbEntity
  8
0
100
AcDbSpline
 62
7
  6
CONTINUOUS
 70
0
 71
3
 72
14
 73
10
 74
0
 42
0.0000001
 43
0.0000001
 44
0.0000000001
 40
0.0
 40
0.0
 40
0.0
 40
0.0
 40
0.2346073929
 40
0.3603379301
 40
0.4894684284
 40
0.6200482101
 40
0.7499714674
 40
0.8772023527
 40
1.0
 40
1.0
 40
1.0
 40
1.0
 10
-30.29902978
 20
174.7931509584
 30
0.0
 10
-30.9848884739
 20
174.6093027783
 30
0.0
 10
-31.9844829138
 20
174.09837738
 30
0.0
 10
-33.1049661363
 20
173.1251228004
 30
0.0
 10
-33.8611450645
 20
172.2299516503
 30
0.0
 10
-34.4814574089
 20
171.2221459338
 30
0.0
 10
-34.9439418505
 20
170.1386725113
 30
0.0
 10
-35.230832977
 20
169.0205329319
 30
0.0
 10
-35.2990299521
 20
168.2625633168
 30
0.0
 10
-35.2990299521
 20
167.8908990876
 30
0.0
  0
SPLINE
  5
3B5
100
AcDbEntity
  8
0
100
AcDbSpline
 62
7
  6
CONTINUOUS
 70
0
 71
3
 72
9
 73
5
 74
0
 42
0.0000001
 43
0.0000001
 44
0.0000000001
 40
0.0
 40
0.0
 40
0.0
 40
0.0
 40
0.2573584027
 40
1.0
 40
1.0
 40
1.0
 40
1.0
 10
-39.5505990977
 20
185.6776650035
 30
0.0
 10
-39.6666627218
 20
185.6465535127
 30
0.0
 10
-40.1218006992
 20
185.5422443605
 30
0.0
 10
-40.5937421961
 20
185.5070783162
 30
0.0
 10
-40.939894843
 20
185.5272637584
 30
0.0
  0
SPLINE
  5
3B6
100
AcDbEntity
  8
0
100
AcDbSpline
 62
7
  6
CONTINUOUS
 70
0
 71
3
 72
15
 73
11
 74
0
 42
0.0000001
 43
0.0000001
 44
0.0000000001
 40
0.0
 40
0.0
 40
0.0
 40
0.0
 40
0.1103006072
 40
0.2289238116
 40
0.3554580686
 40
0.487567162
 40
0.6217357835
 40
0.7540451441
 40
0.8809322439
 40
1.0
 40
1.0
 40
1.0
 40
1.0
 10
-22.4685488292
 20
198.6134429848
 30
0.0
 10
-22.2339568328
 20
198.2501773224
 30
0.0
 10
-21.8706257825
 20
197.4121079072
 30
0.0
 10
-21.6853177681
 20
196.0166359816
 30
0.0
 10
-21.8420201521
 20
194.5332195831
 30
0.0
 10
-22.3272722246
 20
193.0602804774
 30
0.0
 10
-23.1069877677
 20
191.6941592604
 30
0.0
 10
-24.1300065956
 20
190.525468113
 30
0.0
 10
-25.3282468065
 20
189.632558595
 30
0.0
 10
-26.2267328152
 20
189.249200411
 30
0.0
 10
-26.6776158566
 20
189.1283387397
 30
0.0
  0
SPLINE
  5
3B7
100
AcDbEntity
  8
0
100
AcDbSpline
 62
7
  6
CONTINUOUS
 70
0
 71
3
 72
11
 73
7
 74
0
 42
0.0000001
 43
0.0000001
 44
0.0000000001
 40
0.0
 40
0.0
 40
0.0
 40
0.0
 40
0.2398026284
 40
0.484043451
 40
0.7366438804
 40
1.0
 40
1.0
 40
1.0
 40
1.0
 10
-26.8493287444
 20
187.8212789747
 30
0.0
 10
-26.6362343239
 20
187.6981871805
 30
0.0
 10
-26.1777653268
 20
187.4956749866
 30
0.0
 10
-25.4325352735
 20
187.3410051733
 30
0.0
 10
-24.6476966172
 20
187.3372880958
 30
0.0
 10
-24.1235844892
 20
187.4324272428
 30
0.0
 10
-23.8625381595
 20
187.5024021427
 30
0.0
  0
SPLINE
  5
3B8
100
AcDbEntity
  8
0
100
AcDbSpline
 62
7
  6
CONTINUOUS
 70
0
 71
3
 72
16
 73
12
 74
0
 42
0.0000001
 43
0.0000001
 44
0.0000000001
 40
0.0
 40
0.0
 40
0.0
 40
0.0
 40
0.122897269
 40
0.2548125566
 40
0.3918546899
 40
0.5286544454
 40
0.6599143182
 40
0.7819125591
 40
0.8939777555
 40
0.947438903
 40
1.0
 40
1.0
 40
1.0
 40
1.0
 10
-39.5505990977
 20
188.2718404384
 30
0.0
 10
-39.2696791648
 20
188.3471425666
 30
0.0
 10
-38.7115214901
 20
188.6020997145
 30
0.0
 10
-37.9953060544
 20
189.2055139318
 30
0.0
 10
-37.4241795543
 20
189.9886542094
 30
0.0
 10
-37.0498210447
 20
190.8808607702
 30
0.0
 10
-36.9066328555
 20
191.8030739524
 30
0.0
 10
-37.0105944314
 20
192.6737545706
 30
0.0
 10
-37.3119673707
 20
193.301937927
 30
0.0
 10
-37.6625610651
 20
193.6847468883
 30
0.0
 10
-37.867425686
 20
193.8332212116
 30
0.0
 10
-37.975146354
 20
193.8954161185
 30
0.0
  0
SPLINE
  5
3B9
100
AcDbEntity
  8
0
100
AcDbSpline
 62
7
  6
CONTINUOUS
 70
0
 71
3
 72
14
 73
10
 74
0
 42
0.0000001
 43
0.0000001
 44
0.0000000001
 40
0.0
 40
0.0
 40
0.0
 40
0.0
 40
0.2686164723
 40
0.3932530389
 40
0.5129262831
 40
0.6303784462
 40
0.7488454196
 40
0.8713344666
 40
1.0
 40
1.0
 40
1.0
 40
1.0
 10
-35.2990299521
 20
167.8908990876
 30
0.0
 10
-35.2990299521
 20
167.2036028634
 30
0.0
 10
-35.1274853467
 20
166.1766270631
 30
0.0
 10
-34.4948712739
 20
165.0155314551
 30
0.0
 10
-33.8644683545
 20
164.3241603772
 30
0.0
 10
-33.0915026453
 20
163.8249758646
 30
0.0
 10
-32.2092648273
 20
163.5397673431
 30
0.0
 10
-31.2568137375
 20
163.478653381
 30
0.0
 10
-30.6170141533
 20
163.5839646827
 30
0.0
 10
-30.29902978
 20
163.6692021359
 30
0.0
  0
SPLINE
  5
3BA
100
AcDbEntity
  8
0
100
AcDbSpline
 62
7
  6
CONTINUOUS
 70
0
 71
3
 72
9
 73
5
 74
0
 42
0.0000001
 43
0.0000001
 44
0.0000000001
 40
0.0
 40
0.0
 40
0.0
 40
0.0
 40
0.2573584027
 40
1.0
 40
1.0
 40
1.0
 40
1.0
 10
-26.6776158566
 20
189.1283387397
 30
0.0
 10
-26.7936794808
 20
189.097227249
 30
0.0
 10
-27.2488174581
 20
188.9929180967
 30
0.0
 10
-27.7207589551
 20
188.9577520524
 30
0.0
 10
-28.0669116019
 20
188.9779374946
 30
0.0
  0
SPLINE
  5
3BB
100
AcDbEntity
  8
0
100
AcDbSpline
 62
7
  6
CONTINUOUS
 70
0
 71
3
 72
10
 73
6
 74
0
 42
0.0000001
 43
0.0000001
 44
0.0000000001
 40
0.0
 40
0.0
 40
0.0
 40
0.0
 40
0.2403191847
 40
0.4850897425
 40
1.0
 40
1.0
 40
1.0
 40
1.0
 10
-41.1260518414
 20
188.4400728228
 30
0.0
 10
-41.0136397999
 20
188.3751692478
 30
0.0
 10
-40.7717425396
 20
188.2682797233
 30
0.0
 10
-40.2400164429
 20
188.1576147087
 30
0.0
 10
-39.819233509
 20
188.1998315116
 30
0.0
 10
-39.5505990977
 20
188.2718404384
 30
0.0
  0
SPLINE
  5
3BC
100
AcDbEntity
  8
0
100
AcDbSpline
 62
7
  6
CONTINUOUS
 70
0
 71
3
 72
16
 73
12
 74
0
 42
0.0000001
 43
0.0000001
 44
0.0000000001
 40
0.0
 40
0.0
 40
0.0
 40
0.0
 40
0.122897269
 40
0.2548125566
 40
0.3918546899
 40
0.5286544454
 40
0.6599143182
 40
0.7819125591
 40
0.8939777555
 40
0.947438903
 40
1.0
 40
1.0
 40
1.0
 40
1.0
 10
-26.6776158566
 20
191.7225141746
 30
0.0
 10
-26.3966959237
 20
191.7978163028
 30
0.0
 10
-25.8385382491
 20
192.0527734507
 30
0.0
 10
-25.1223228133
 20
192.656187668
 30
0.0
 10
-24.5511963133
 20
193.4393279456
 30
0.0
 10
-24.1768378036
 20
194.3315345064
 30
0.0
 10
-24.0336496144
 20
195.2537476886
 30
0.0
 10
-24.1376111904
 20
196.1244283068
 30
0.0
 10
-24.4389841297
 20
196.7526116632
 30
0.0
 10
-24.7895778241
 20
197.1354206245
 30
0.0
 10
-24.994442445
 20
197.2838949478
 30
0.0
 10
-25.1021631129
 20
197.3460898547
 30
0.0
  0
SPLINE
  5
3BD
100
AcDbEntity
  8
0
100
AcDbSpline
 62
7
  6
CONTINUOUS
 70
0
 71
3
 72
9
 73
5
 74
0
 42
0.0000001
 43
0.0000001
 44
0.0000000001
 40
0.0
 40
0.0
 40
0.0
 40
0.0
 40
0.2573584027
 40
1.0
 40
1.0
 40
1.0
 40
1.0
 10
-22.6996452669
 20
176.575678247
 30
0.0
 10
-22.815708891
 20
176.5445667562
 30
0.0
 10
-23.2708468683
 20
176.4402576039
 30
0.0
 10
-23.7427883653
 20
176.4050915596
 30
0.0
 10
-24.0889410121
 20
176.4252770019
 30
0.0
  0
SPLINE
  5
3BE
100
AcDbEntity
  8
0
100
AcDbSpline
 62
7
  6
CONTINUOUS
 70
0
 71
3
 72
15
 73
11
 74
0
 42
0.0000001
 43
0.0000001
 44
0.0000000001
 40
0.0
 40
0.0
 40
0.0
 40
0.0
 40
0.1103006072
 40
0.2289238116
 40
0.3554580686
 40
0.487567162
 40
0.6217357835
 40
0.7540451441
 40
0.8809322439
 40
1.0
 40
1.0
 40
1.0
 40
1.0
 10
-35.3415320703
 20
195.1627692486
 30
0.0
 10
-35.1069400738
 20
194.7995035862
 30
0.0
 10
-34.7436090236
 20
193.961434171
 30
0.0
 10
-34.5583010091
 20
192.5659622454
 30
0.0
 10
-34.7150033932
 20
191.0825458469
 30
0.0
 10
-35.2002554657
 20
189.6096067412
 30
0.0
 10
-35.9799710088
 20
188.2434855242
 30
0.0
 10
-37.0029898367
 20
187.0747943768
 30
0.0
 10
-38.2012300476
 20
186.1818848588
 30
0.0
 10
-39.0997160562
 20
185.7985266748
 30
0.0
 10
-39.5505990977
 20
185.6776650035
 30
0.0
  0
SPLINE
  5
3BF
100
AcDbEntity
  8
0
100
AcDbSpline
 62
7
  6
CONTINUOUS
 70
0
 71
3
 72
16
 73
12
 74
0
 42
0.0000001
 43
0.0000001
 44
0.0000000001
 40
0.0
 40
0.0
 40
0.0
 40
0.0
 40
0.122897269
 40
0.2548125566
 40
0.3918546899
 40
0.5286544454
 40
0.6599143182
 40
0.7819125591
 40
0.8939777555
 40
0.947438903
 40
1.0
 40
1.0
 40
1.0
 40
1.0
 10
-22.6996452669
 20
179.1698536818
 30
0.0
 10
-22.418725334
 20
179.24515581
 30
0.0
 10
-21.8605676593
 20
179.5001129579
 30
0.0
 10
-21.1443522235
 20
180.1035271753
 30
0.0
 10
-20.5732257235
 20
180.8866674529
 30
0.0
 10
-20.1988672138
 20
181.7788740136
 30
0.0
 10
-20.0556790246
 20
182.7010871958
 30
0.0
 10
-20.1596406006
 20
183.571767814
 30
0.0
 10
-20.4610135399
 20
184.1999511705
 30
0.0
 10
-20.8116072343
 20
184.5827601318
 30
0.0
 10
-21.0164718552
 20
184.7312344551
 30
0.0
 10
-21.1241925231
 20
184.793429362
 30
0.0
  0
SPLINE
  5
3C0
100
AcDbEntity
  8
0
100
AcDbSpline
 62
7
  6
CONTINUOUS
 70
0
 71
3
 72
11
 73
7
 74
0
 42
0.0000001
 43
0.0000001
 44
0.0000000001
 40
0.0
 40
0.0
 40
0.0
 40
0.0
 40
0.2398026284
 40
0.484043451
 40
0.7366438804
 40
1.0
 40
1.0
 40
1.0
 40
1.0
 10
-39.7223119855
 20
184.3706052385
 30
0.0
 10
-39.5092175649
 20
184.2475134443
 30
0.0
 10
-39.0507485679
 20
184.0450012504
 30
0.0
 10
-38.3055185145
 20
183.8903314371
 30
0.0
 10
-37.5206798583
 20
183.8866143595
 30
0.0
 10
-36.9965677303
 20
183.9817535066
 30
0.0
 10
-36.7355214006
 20
184.0517284065
 30
0.0
  0
SPLINE
  5
3C1
100
AcDbEntity
  8
0
100
AcDbSpline
 62
7
  6
CONTINUOUS
 70
0
 71
3
 72
12
 73
8
 74
0
 42
0.0000001
 43
0.0000001
 44
0.0000000001
 40
0.0
 40
0.0
 40
0.0
 40
0.0
 40
0.2349899832
 40
0.4894752595
 40
0.6202667695
 40
0.7503904793
 40
1.0
 40
1.0
 40
1.0
 40
1.0
 10
-31.4250608647
 20
166.158246
 30
0.0
 10
-30.9659215292
 20
166.2813208159
 30
0.0
 10
-30.060862691
 20
166.7437085107
 30
0.0
 10
-29.1736719287
 20
167.6581215089
 30
0.0
 10
-28.625231235
 20
168.5489721376
 30
0.0
 10
-28.218561278
 20
169.5006404729
 30
0.0
 10
-28.0779533057
 20
170.2738399867
 30
0.0
 10
-28.0779533057
 20
170.7787617167
 30
0.0
  0
SPLINE
  5
3C2
100
AcDbEntity
  8
0
100
AcDbSpline
 62
7
  6
CONTINUOUS
 70
0
 71
3
 72
11
 73
7
 74
0
 42
0.0000001
 43
0.0000001
 44
0.0000000001
 40
0.0
 40
0.0
 40
0.0
 40
0.0
 40
0.2717668072
 40
0.5268680781
 40
0.7676307415
 40
1.0
 40
1.0
 40
1.0
 40
1.0
 10
-28.0779533057
 20
170.7787617167
 30
0.0
 10
-28.0779533057
 20
171.0556304582
 30
0.0
 10
-28.1317919477
 20
171.5946709338
 30
0.0
 10
-28.3895876062
 20
172.3413771506
 30
0.0
 10
-28.8121084974
 20
172.9626366421
 30
0.0
 10
-29.1944448612
 20
173.2702241275
 30
0.0
 10
-29.3994563747
 20
173.3885969189
 30
0.0
  0
SPLINE
  5
3C3
100
AcDbEntity
  8
0
100
AcDbSpline
 62
7
  6
CONTINUOUS
 70
0
 71
3
 72
21
 73
17
 74
0
 42
0.0000001
 43
0.0000001
 44
0.0000000001
 40
0.0
 40
0.0
 40
0.0
 40
0.0
 40
0.0524705347
 40
0.1058422668
 40
0.1608890322
 40
0.2181647006
 40
0.2779603765
 40
0.3403046685
 40
0.404991693
 40
0.4716227035
 40
0.6081929828
 40
0.7450058844
 40
0.811922784
 40
0.8769822192
 40
0.9397548461
 40
1.0
 40
1.0
 40
1.0
 40
1.0
 10
-41.8024657389
 20
161.4957986999
 30
0.0
 10
-42.588886607
 20
161.9500495019
 30
0.0
 10
-44.0848085726
 20
163.0336200239
 30
0.0
 10
-45.9761877332
 20
165.1011494293
 30
0.0
 10
-47.4803712418
 20
167.5626019898
 30
0.0
 10
-48.5624191217
 20
170.3538102553
 30
0.0
 10
-49.2001976258
 20
173.4060584258
 30
0.0
 10
-49.3813407741
 20
176.6458033479
 30
0.0
 10
-49.1035564657
 20
179.9966037141
 30
0.0
 10
-48.1244755641
 20
184.5397977109
 30
0.0
 10
-45.8255964257
 20
190.0220841519
 30
0.0
 10
-42.3200977659
 20
194.8288200718
 30
0.0
 10
-38.9317507781
 20
198.0321303505
 30
0.0
 10
-36.1978270631
 20
200.0215111663
 30
0.0
 10
-33.320137238
 20
201.5650601109
 30
0.0
 10
-31.3062248809
 20
202.2870721151
 30
0.0
 10
-30.29902978
 20
202.557056284
 30
0.0
  0
SPLINE
  5
3C4
100
AcDbEntity
  8
0
100
AcDbSpline
 62
7
  6
CONTINUOUS
 70
0
 71
3
 72
17
 73
13
 74
0
 42
0.0000001
 43
0.0000001
 44
0.0000000001
 40
0.0
 40
0.0
 40
0.0
 40
0.0
 40
0.1228378013
 40
0.2546980753
 40
0.3916792831
 40
0.5284206932
 40
0.6596222863
 40
0.7815663292
 40
0.8389124187
 40
0.8940272359
 40
0.9474649584
 40
1.0
 40
1.0
 40
1.0
 40
1.0
 10
-36.7355214006
 20
184.0517284065
 30
0.0
 10
-36.2029690995
 20
184.1944819706
 30
0.0
 10
-35.1448297387
 20
184.6778542154
 30
0.0
 10
-33.7869242173
 20
185.8217198517
 30
0.0
 10
-32.7042263253
 20
187.3064459156
 30
0.0
 10
-31.9946711102
 20
188.9982229866
 30
0.0
 10
-31.7223876623
 20
190.7453727989
 30
0.0
 10
-31.8923787894
 20
192.1523877771
 30
0.0
 10
-32.2745198008
 20
193.1377438574
 30
0.0
 10
-32.6650893135
 20
193.7768996787
 30
0.0
 10
-33.1561388872
 20
194.3137243509
 30
0.0
 10
-33.544546079
 20
194.5950653016
 30
0.0
 10
-33.7487308157
 20
194.7130105087
 30
0.0
  0
SPLINE
  5
3C5
100
AcDbEntity
  8
0
100
AcDbSpline
 62
7
  6
CONTINUOUS
 70
0
 71
3
 72
10
 73
6
 74
0
 42
0.0000001
 43
0.0000001
 44
0.0000000001
 40
0.0
 40
0.0
 40
0.0
 40
0.0
 40
0.2403191847
 40
0.4850897425
 40
1.0
 40
1.0
 40
1.0
 40
1.0
 10
-45.1040224312
 20
173.754778677
 30
0.0
 10
-44.9916103897
 20
173.689875102
 30
0.0
 10
-44.7497131294
 20
173.5829855775
 30
0.0
 10
-44.2179870327
 20
173.4723205629
 30
0.0
 10
-43.7972040988
 20
173.5145373658
 30
0.0
 10
-43.5285696875
 20
173.5865462926
 30
0.0
  0
SPLINE
  5
3C6
100
AcDbEntity
  8
0
100
AcDbSpline
 62
7
  6
CONTINUOUS
 70
0
 71
3
 72
17
 73
13
 74
0
 42
0.0000001
 43
0.0000001
 44
0.0000000001
 40
0.0
 40
0.0
 40
0.0
 40
0.0
 40
0.1228378013
 40
0.2546980753
 40
0.3916792831
 40
0.5284206932
 40
0.6596222863
 40
0.7815663292
 40
0.8389124187
 40
0.8940272359
 40
0.9474649584
 40
1.0
 40
1.0
 40
1.0
 40
1.0
 10
-40.7134919904
 20
169.3664342607
 30
0.0
 10
-40.1809396893
 20
169.5091878248
 30
0.0
 10
-39.1228003285
 20
169.9925600696
 30
0.0
 10
-37.7648948071
 20
171.1364257059
 30
0.0
 10
-36.6821969151
 20
172.6211517698
 30
0.0
 10
-35.9726417
 20
174.3129288408
 30
0.0
 10
-35.7003582521
 20
176.0600786531
 30
0.0
 10
-35.8703493791
 20
177.4670936313
 30
0.0
 10
-36.2524903906
 20
178.4524497116
 30
0.0
 10
-36.6430599033
 20
179.0916055329
 30
0.0
 10
-37.134109477
 20
179.6284302051
 30
0.0
 10
-37.5225166688
 20
179.9097711558
 30
0.0
 10
-37.7267014054
 20
180.0277163629
 30
0.0
  0
SPLINE
  5
3C7
100
AcDbEntity
  8
0
100
AcDbSpline
 62
7
  6
CONTINUOUS
 70
0
 71
3
 72
15
 73
11
 74
0
 42
0.0000001
 43
0.0000001
 44
0.0000000001
 40
0.0
 40
0.0
 40
0.0
 40
0.0
 40
0.1103006072
 40
0.2289238116
 40
0.3554580686
 40
0.487567162
 40
0.6217357835
 40
0.7540451441
 40
0.8809322439
 40
1.0
 40
1.0
 40
1.0
 40
1.0
 10
-39.3195026601
 20
180.4774751028
 30
0.0
 10
-39.0849106636
 20
180.1142094404
 30
0.0
 10
-38.7215796133
 20
179.2761400252
 30
0.0
 10
-38.5362715989
 20
177.8806680996
 30
0.0
 10
-38.692973983
 20
176.3972517011
 30
0.0
 10
-39.1782260555
 20
174.9243125954
 30
0.0
 10
-39.9579415985
 20
173.5581913784
 30
0.0
 10
-40.9809604265
 20
172.389500231
 30
0.0
 10
-42.1792006374
 20
171.496590713
 30
0.0
 10
-43.077686646
 20
171.113232529
 30
0.0
 10
-43.5285696875
 20
170.9923708577
 30
0.0
  0
SPLINE
  5
3C8
100
AcDbEntity
  8
0
100
AcDbSpline
 62
7
  6
CONTINUOUS
 70
0
 71
3
 72
11
 73
7
 74
0
 42
0.0000001
 43
0.0000001
 44
0.0000000001
 40
0.0
 40
0.0
 40
0.0
 40
0.0
 40
0.2398026284
 40
0.484043451
 40
0.7366438804
 40
1.0
 40
1.0
 40
1.0
 40
1.0
 10
-43.7002825753
 20
169.6853110927
 30
0.0
 10
-43.4871881547
 20
169.5622192985
 30
0.0
 10
-43.0287191576
 20
169.3597071046
 30
0.0
 10
-42.2834891043
 20
169.2050372913
 30
0.0
 10
-41.4986504481
 20
169.2013202137
 30
0.0
 10
-40.9745383201
 20
169.2964593608
 30
0.0
 10
-40.7134919904
 20
169.3664342607
 30
0.0
  0
SPLINE
  5
3C9
100
AcDbEntity
  8
0
100
AcDbSpline
 62
7
  6
CONTINUOUS
 70
0
 71
3
 72
17
 73
13
 74
0
 42
0.0000001
 43
0.0000001
 44
0.0000000001
 40
0.0
 40
0.0
 40
0.0
 40
0.0
 40
0.1228378013
 40
0.2546980753
 40
0.3916792831
 40
0.5284206932
 40
0.6596222863
 40
0.7815663292
 40
0.8389124187
 40
0.8940272359
 40
0.9474649584
 40
1.0
 40
1.0
 40
1.0
 40
1.0
 10
-23.8625381595
 20
187.5024021427
 30
0.0
 10
-23.3299858584
 20
187.6451557068
 30
0.0
 10
-22.2718464977
 20
188.1285279516
 30
0.0
 10
-20.9139409763
 20
189.2723935879
 30
0.0
 10
-19.8312430843
 20
190.7571196519
 30
0.0
 10
-19.1216878691
 20
192.4488967228
 30
0.0
 10
-18.8494044212
 20
194.1960465351
 30
0.0
 10
-19.0193955483
 20
195.6030615133
 30
0.0
 10
-19.4015365597
 20
196.5884175936
 30
0.0
 10
-19.7921060724
 20
197.2275734149
 30
0.0
 10
-20.2831556462
 20
197.7643980871
 30
0.0
 10
-20.671562838
 20
198.0457390378
 30
0.0
 10
-20.8757475746
 20
198.1636842449
 30
0.0
  0
SPLINE
  5
3CA
100
AcDbEntity
  8
0
100
AcDbSpline
 62
7
  6
CONTINUOUS
 70
0
 71
3
 72
17
 73
13
 74
0
 42
0.0000001
 43
0.0000001
 44
0.0000000001
 40
0.0
 40
0.0
 40
0.0
 40
0.0
 40
0.040037271
 40
0.0828916922
 40
0.1306078836
 40
0.1842328439
 40
0.3091200408
 40
0.4529231193
 40
0.6053940697
 40
0.7544097566
 40
0.8885512168
 40
1.0
 40
1.0
 40
1.0
 40
1.0
 10
-47.2204861161
 20
214.2048375884
 30
0.0
 10
-47.1638532113
 20
214.2200150979
 30
0.0
 10
-47.0511991895
 20
214.2714113129
 30
0.0
 10
-46.9073685038
 20
214.4009941383
 30
0.0
 10
-46.7890902435
 20
214.578015619
 30
0.0
 10
-46.6615007299
 20
214.885474885
 30
0.0
 10
-46.587606605
 20
215.3577689759
 30
0.0
 10
-46.6201692394
 20
215.9766661177
 30
0.0
 10
-46.7667647975
 20
216.6153144695
 30
0.0
 10
-47.0129189002
 20
217.2076670047
 30
0.0
 10
-47.3320009126
 20
217.6933001235
 30
0.0
 10
-47.6034592197
 20
217.9408036957
 30
0.0
 10
-47.7447872766
 20
218.0224321566
 30
0.0
  0
SPLINE
  5
3CB
100
AcDbEntity
  8
0
100
AcDbSpline
 62
7
  6
CONTINUOUS
 70
0
 71
3
 72
11
 73
7
 74
0
 42
0.0000001
 43
0.0000001
 44
0.0000000001
 40
0.0
 40
0.0
 40
0.0
 40
0.0
 40
0.2581239123
 40
0.5095091024
 40
0.7560164945
 40
1.0
 40
1.0
 40
1.0
 40
1.0
 10
-33.8270640609
 20
151.2048569659
 30
0.0
 10
-34.8400899805
 20
151.1253109982
 30
0.0
 10
-36.8535153402
 20
151.1032258539
 30
0.0
 10
-39.8134996007
 20
151.5035394343
 30
0.0
 10
-42.6254675426
 20
152.3331456875
 30
0.0
 10
-44.3775068599
 20
153.1671487896
 30
0.0
 10
-45.209216587
 20
153.6475419469
 30
0.0
  0
SPLINE
  5
3CC
100
AcDbEntity
  8
0
100
AcDbSpline
 62
7
  6
CONTINUOUS
 70
0
 71
3
 72
14
 73
10
 74
0
 42
0.0000001
 43
0.0000001
 44
0.0000000001
 40
0.0
 40
0.0
 40
0.0
 40
0.0
 40
0.2458853039
 40
0.3739291145
 40
0.5031488468
 40
0.6318822527
 40
0.7585081584
 40
0.8815813529
 40
1.0
 40
1.0
 40
1.0
 40
1.0
 10
-3.421447724
 20
187.902883324
 30
0.0
 10
-3.421447724
 20
184.4068058405
 30
0.0
 10
-4.2881560729
 20
179.0603545659
 30
0.0
 10
-6.8330820041
 20
172.3621348993
 30
0.0
 10
-9.4537262541
 20
167.5193232
 30
0.0
 10
-12.6789258453
 20
163.0842739879
 30
0.0
 10
-16.4136759735
 20
159.1865192639
 30
0.0
 10
-20.5452736714
 20
155.944971409
 30
0.0
 10
-23.550910807
 20
154.249617432
 30
0.0
 10
-25.0819488809
 20
153.5490330366
 30
0.0
  0
SPLINE
  5
3CD
100
AcDbEntity
  8
0
100
AcDbSpline
 62
7
  6
CONTINUOUS
 70
0
 71
3
 72
13
 73
9
 74
0
 42
0.0000001
 43
0.0000001
 44
0.0000000001
 40
0.0
 40
0.0
 40
0.0
 40
0.0
 40
0.2740208139
 40
0.5418817651
 40
0.6670198539
 40
0.7841526321
 40
0.8941882655
 40
1.0
 40
1.0
 40
1.0
 40
1.0
 10
-25.0819488809
 20
153.5490330366
 30
0.0
 10
-25.2862585714
 20
152.6939616327
 30
0.0
 10
-26.0259373347
 20
151.0716023792
 30
0.0
 10
-27.5814844674
 20
149.5203154126
 30
0.0
 10
-29.054783574
 20
148.7786031938
 30
0.0
 10
-30.1688351692
 20
148.5223325792
 30
0.0
 10
-31.2505477079
 20
148.576109466
 30
0.0
 10
-31.9113699158
 20
148.8257840546
 30
0.0
 10
-32.2053274782
 20
148.9955864866
 30
0.0
  0
SPLINE
  5
3CE
100
AcDbEntity
  8
0
100
AcDbSpline
 62
7
  6
CONTINUOUS
 70
0
 71
3
 72
13
 73
9
 74
0
 42
0.0000001
 43
0.0000001
 44
0.0000000001
 40
0.0
 40
0.0
 40
0.0
 40
0.0
 40
0.2714323375
 40
0.526217443
 40
0.6482289235
 40
0.7672664579
 40
0.8841850979
 40
1.0
 40
1.0
 40
1.0
 40
1.0
 10
-53.2561601824
 20
174.5444154218
 30
0.0
 10
-53.2561601824
 20
172.5755508039
 30
0.0
 10
-52.8741531083
 20
168.7435836155
 30
0.0
 10
-51.3210368617
 20
164.2496789982
 30
0.0
 10
-49.4850603525
 20
161.1451563686
 30
0.0
 10
-47.8587911175
 20
159.1091858038
 30
0.0
 10
-45.9860696321
 20
157.3629790793
 30
0.0
 10
-44.5862734591
 20
156.4057275682
 30
0.0
 10
-43.8588114256
 20
155.9855762702
 30
0.0
  0
SPLINE
  5
3CF
100
AcDbEntity
  8
0
100
AcDbSpline
 62
7
  6
CONTINUOUS
 70
0
 71
3
 72
11
 73
7
 74
0
 42
0.0000001
 43
0.0000001
 44
0.0000000001
 40
0.0
 40
0.0
 40
0.0
 40
0.0
 40
0.2717587735
 40
0.5268833591
 40
0.7676377273
 40
1.0
 40
1.0
 40
1.0
 40
1.0
 10
-32.3470685539
 20
153.1207744357
 30
0.0
 10
-32.3470685539
 20
152.8815130621
 30
0.0
 10
-32.3005207386
 20
152.4156673474
 30
0.0
 10
-32.0777641679
 20
151.7703532656
 30
0.0
 10
-31.7125875366
 20
151.2334634147
 30
0.0
 10
-31.3821610067
 20
150.9677113584
 30
0.0
 10
-31.2050227645
 20
150.8653718575
 30
0.0
  0
SPLINE
  5
3D0
100
AcDbEntity
  8
0
100
AcDbSpline
 62
7
  6
CONTINUOUS
 70
0
 71
3
 72
9
 73
5
 74
0
 42
0.0000001
 43
0.0000001
 44
0.0000000001
 40
0.0
 40
0.0
 40
0.0
 40
0.0
 40
0.2588307772
 40
1.0
 40
1.0
 40
1.0
 40
1.0
 10
-44.2621727876
 20
221.5557190762
 30
0.0
 10
-44.2936229498
 20
221.5806001913
 30
0.0
 10
-44.4166892957
 20
221.6747247254
 30
0.0
 10
-44.5461747199
 20
221.7606027166
 30
0.0
 10
-44.6456136162
 20
221.8180367763
 30
0.0
  0
SPLINE
  5
3D1
100
AcDbEntity
  8
0
100
AcDbSpline
 62
7
  6
CONTINUOUS
 70
0
 71
3
 72
9
 73
5
 74
0
 42
0.0000001
 43
0.0000001
 44
0.0000000001
 40
0.0
 40
0.0
 40
0.0
 40
0.0
 40
0.5291899943
 40
1.0
 40
1.0
 40
1.0
 40
1.0
 10
-44.6456136162
 20
221.8180367763
 30
0.0
 10
-44.8285608613
 20
221.9237037074
 30
0.0
 10
-45.1992296569
 20
222.0864852989
 30
0.0
 10
-45.6067025959
 20
222.1228728371
 30
0.0
 10
-45.7935272456
 20
222.102215969
 30
0.0
  0
SPLINE
  5
3D2
100
AcDbEntity
  8
0
100
AcDbSpline
 62
7
  6
CONTINUOUS
 70
0
 71
3
 72
11
 73
7
 74
0
 42
0.0000001
 43
0.0000001
 44
0.0000000001
 40
0.0
 40
0.0
 40
0.0
 40
0.0
 40
0.2584153191
 40
0.5097386832
 40
0.7561214764
 40
1.0
 40
1.0
 40
1.0
 40
1.0
 10
-64.3513753809
 20
214.3084084889
 30
0.0
 10
-63.4985790814
 20
215.0494266417
 30
0.0
 10
-61.7410626022
 20
216.427547959
 30
0.0
 10
-58.9265953018
 20
218.1743411241
 30
0.0
 10
-55.9874842555
 20
219.559696817
 30
0.0
 10
-53.9484515693
 20
220.2395330433
 30
0.0
 10
-52.9185841607
 20
220.5155417345
 30
0.0
  0
SPLINE
  5
3D3
100
AcDbEntity
  8
0
100
AcDbSpline
 62
7
  6
CONTINUOUS
 70
0
 71
3
 72
9
 73
5
 74
0
 42
0.0000001
 43
0.0000001
 44
0.0000000001
 40
0.0
 40
0.0
 40
0.0
 40
0.0
 40
0.5312871198
 40
1.0
 40
1.0
 40
1.0
 40
1.0
 10
-47.7447872766
 20
218.0224321566
 30
0.0
 10
-47.828121416
 20
218.0705644078
 30
0.0
 10
-47.998965083
 20
218.1419303542
 30
0.0
 10
-48.1870812587
 20
218.1386993063
 30
0.0
 10
-48.269088437
 20
218.1167215403
 30
0.0
  0
SPLINE
  5
3D4
100
AcDbEntity
  8
0
100
AcDbSpline
 62
7
  6
CONTINUOUS
 70
0
 71
3
 72
14
 73
10
 74
0
 42
0.0000001
 43
0.0000001
 44
0.0000000001
 40
0.0
 40
0.0
 40
0.0
 40
0.0
 40
0.11744805
 40
0.2399228437
 40
0.3663283212
 40
0.4951776302
 40
0.6247562022
 40
0.7532845334
 40
1.0
 40
1.0
 40
1.0
 40
1.0
 10
-55.6767515723
 20
221.7006211769
 30
0.0
 10
-57.245573341
 20
221.0647117297
 30
0.0
 10
-60.3385721739
 20
219.4755676302
 30
0.0
 10
-64.607614507
 20
216.3359197398
 30
0.0
 10
-68.4843345728
 20
212.4860491658
 30
0.0
 10
-71.8443848913
 20
208.0514745788
 30
0.0
 10
-74.5825065451
 20
203.1700139589
 30
0.0
 10
-77.2467334619
 20
196.3859953305
 30
0.0
 10
-78.1579791796
 20
190.9456832208
 30
0.0
 10
-78.1579791796
 20
187.389721896
 30
0.0
  0
SPLINE
  5
3D5
100
AcDbEntity
  8
0
100
AcDbSpline
 62
7
  6
CONTINUOUS
 70
0
 71
3
 72
11
 73
7
 74
0
 42
0.0000001
 43
0.0000001
 44
0.0000000001
 40
0.0
 40
0.0
 40
0.0
 40
0.0
 40
0.2516693823
 40
0.5068820251
 40
0.7584842009
 40
1.0
 40
1.0
 40
1.0
 40
1.0
 10
-47.1817717371
 20
204.9267007047
 30
0.0
 10
-49.1497064777
 20
203.1083314132
 30
0.0
 10
-52.7335929616
 20
199.0155291163
 30
0.0
 10
-56.7893082692
 20
191.9756300159
 30
0.0
 10
-59.3633353717
 20
184.3821406122
 30
0.0
 10
-59.9916895333
 20
179.1190823164
 30
0.0
 10
-59.9916895333
 20
176.5477736232
 30
0.0
  0
SPLINE
  5
3D6
100
AcDbEntity
  8
0
100
AcDbSpline
 62
7
  6
CONTINUOUS
 70
0
 71
3
 72
13
 73
9
 74
0
 42
0.0000001
 43
0.0000001
 44
0.0000000001
 40
0.0
 40
0.0
 40
0.0
 40
0.0
 40
0.2714311466
 40
0.5262171775
 40
0.6482285085
 40
0.767266338
 40
0.8841850691
 40
1.0
 40
1.0
 40
1.0
 40
1.0
 10
-59.9916895333
 20
176.5477736232
 30
0.0
 10
-59.9916895333
 20
174.3943370046
 30
0.0
 10
-59.5738750014
 20
170.2031236802
 30
0.0
 10
-57.8751481791
 20
165.2879188383
 30
0.0
 10
-55.8670437247
 20
161.8923405983
 30
0.0
 10
-54.0883337431
 20
159.6654798104
 30
0.0
 10
-52.040049414
 20
157.7555461383
 30
0.0
 10
-50.508989253
 20
156.7086047118
 30
0.0
 10
-49.7133409024
 20
156.2490405022
 30
0.0
  0
SPLINE
  5
3D7
100
AcDbEntity
  8
0
100
AcDbSpline
 62
7
  6
CONTINUOUS
 70
0
 71
3
 72
11
 73
7
 74
0
 42
0.0000001
 43
0.0000001
 44
0.0000000001
 40
0.0
 40
0.0
 40
0.0
 40
0.0
 40
0.2339356024
 40
0.4775454838
 40
0.7327441127
 40
1.0
 40
1.0
 40
1.0
 40
1.0
 10
-9.2109373748
 20
204.5588408936
 30
0.0
 10
-8.2699211204
 20
203.5164003407
 30
0.0
 10
-6.5780324133
 20
201.1715624854
 30
0.0
 10
-4.7585585789
 20
197.1384945425
 30
0.0
 10
-3.6557704533
 20
192.6503128003
 30
0.0
 10
-3.421447724
 20
189.5072578748
 30
0.0
 10
-3.421447724
 20
187.902883324
 30
0.0
  0
SPLINE
  5
3D8
100
AcDbEntity
  8
0
100
AcDbSpline
 62
7
  6
CONTINUOUS
 70
0
 71
3
 72
13
 73
9
 74
0
 42
0.0000001
 43
0.0000001
 44
0.0000000001
 40
0.0
 40
0.0
 40
0.0
 40
0.0
 40
0.2714309764
 40
0.526217135
 40
0.648228443
 40
0.7672663007
 40
0.8841850437
 40
1.0
 40
1.0
 40
1.0
 40
1.0
 10
-78.1579791796
 20
187.389721896
 30
0.0
 10
-78.1579791796
 20
185.2704680866
 30
0.0
 10
-77.7467971861
 20
181.1457822484
 30
0.0
 10
-76.075034482
 20
176.308596532
 30
0.0
 10
-74.0988025415
 20
172.9669163955
 30
0.0
 10
-72.3483288605
 20
170.7754005896
 30
0.0
 10
-70.3325590912
 20
168.8957791142
 30
0.0
 10
-68.8257975407
 20
167.8654615759
 30
0.0
 10
-68.0427799978
 20
167.4131890502
 30
0.0
  0
SPLINE
  5
3D9
100
AcDbEntity
  8
0
100
AcDbSpline
 62
7
  6
CONTINUOUS
 70
0
 71
3
 72
14
 73
10
 74
0
 42
0.0000001
 43
0.0000001
 44
0.0000000001
 40
0.0
 40
0.0
 40
0.0
 40
0.0
 40
0.1160461266
 40
0.237616653
 40
0.3636709541
 40
0.4926693933
 40
0.6227687684
 40
0.7520177891
 40
1.0
 40
1.0
 40
1.0
 40
1.0
 10
-30.8161876912
 20
206.9930258208
 30
0.0
 10
-32.3514984218
 20
206.4836487608
 30
0.0
 10
-35.3988970017
 20
205.1318454282
 30
0.0
 10
-39.6318691545
 20
202.3043480694
 30
0.0
 10
-43.5022821533
 20
198.7265982461
 30
0.0
 10
-46.8750773443
 20
194.5261010876
 30
0.0
 10
-49.6353907724
 20
189.8452372006
 30
0.0
 10
-52.3291355326
 20
183.2925713833
 30
0.0
 10
-53.2561601824
 20
178.0011194916
 30
0.0
 10
-53.2561601824
 20
174.5444154218
 30
0.0
  0
SPLINE
  5
3DA
100
AcDbEntity
  8
0
100
AcDbSpline
 62
7
  6
CONTINUOUS
 70
0
 71
3
 72
14
 73
10
 74
0
 42
0.0000001
 43
0.0000001
 44
0.0000000001
 40
0.0
 40
0.0
 40
0.0
 40
0.0
 40
0.1052598602
 40
0.215875203
 40
0.3350386487
 40
0.4630348983
 40
0.5976765935
 40
0.7352086857
 40
1.0
 40
1.0
 40
1.0
 40
1.0
 10
-31.2050227645
 20
150.8653718575
 30
0.0
 10
-30.9911656664
 20
150.7418184767
 30
0.0
 10
-30.5006808836
 20
150.5698776218
 30
0.0
 10
-29.7010981734
 20
150.582233549
 30
0.0
 10
-28.8931737224
 20
150.8481894722
 30
0.0
 10
-28.1347815594
 20
151.3407720208
 30
0.0
 10
-27.4772689927
 20
152.0225698309
 30
0.0
 10
-26.8080165057
 20
153.095679466
 30
0.0
 10
-26.5619443879
 20
154.0502007247
 30
0.0
 10
-26.5619443879
 20
154.6715086864
 30
0.0
  0
SPLINE
  5
3DB
100
AcDbEntity
  8
0
100
AcDbSpline
 62
7
  6
CONTINUOUS
 70
0
 71
3
 72
10
 73
6
 74
0
 42
0.0000001
 43
0.0000001
 44
0.0000000001
 40
0.0
 40
0.0
 40
0.0
 40
0.0
 40
0.2404765367
 40
0.4853197923
 40
1.0
 40
1.0
 40
1.0
 40
1.0
 10
-32.2053274782
 20
148.9955864866
 30
0.0
 10
-32.3998037396
 20
149.107924274
 30
0.0
 10
-32.769189788
 20
149.3777240564
 30
0.0
 10
-33.3963727744
 20
150.0765437245
 30
0.0
 10
-33.7000212411
 20
150.7412698333
 30
0.0
 10
-33.8270640609
 20
151.2048569659
 30
0.0
  0
SPLINE
  5
3DC
100
AcDbEntity
  8
0
100
AcDbSpline
 62
7
  6
CONTINUOUS
 70
0
 71
3
 72
13
 73
9
 74
0
 42
0.0000001
 43
0.0000001
 44
0.0000000001
 40
0.0
 40
0.0
 40
0.0
 40
0.0
 40
0.2456644513
 40
0.3735651017
 40
0.502699344
 40
0.6314602686
 40
0.7582691003
 40
1.0
 40
1.0
 40
1.0
 40
1.0
 10
-55.4875652178
 20
173.9462750679
 30
0.0
 10
-55.4875652178
 20
177.3853510637
 30
0.0
 10
-54.6490180426
 20
182.6434807353
 30
0.0
 10
-52.1812767921
 20
189.2458348331
 30
0.0
 10
-49.6384371836
 20
194.0295590159
 30
0.0
 10
-46.5021812483
 20
198.4286910047
 30
0.0
 10
-41.7407088771
 20
203.5223632687
 30
0.0
 10
-37.4464075654
 20
206.5582429242
 30
0.0
 10
-34.3995756195
 20
208.0307707084
 30
0.0
  0
SPLINE
  5
3DD
100
AcDbEntity
  8
0
100
AcDbSpline
 62
7
  6
CONTINUOUS
 70
0
 71
3
 72
14
 73
10
 74
0
 42
0.0000001
 43
0.0000001
 44
0.0000000001
 40
0.0
 40
0.0
 40
0.0
 40
0.0
 40
0.1174310238
 40
0.2398888303
 40
0.3662904977
 40
0.4951421176
 40
0.6247282449
 40
0.7532670487
 40
1.0
 40
1.0
 40
1.0
 40
1.0
 10
-26.5619443879
 20
155.4193549493
 30
0.0
 10
-25.1032091849
 20
156.0090513381
 30
0.0
 10
-22.2270208296
 20
157.4836630819
 30
0.0
 10
-18.2569469298
 20
160.3994422093
 30
0.0
 10
-14.6513114238
 20
163.9762007974
 30
0.0
 10
-11.5259910909
 20
168.0974154929
 30
0.0
 10
-8.9789893946
 20
172.6347071336
 30
0.0
 10
-6.5006116178
 20
178.9410690056
 30
0.0
 10
-5.6528527594
 20
183.9988487829
 30
0.0
 10
-5.6528527594
 20
187.3047429702
 30
0.0
  0
SPLINE
  5
3DE
100
AcDbEntity
  8
0
100
AcDbSpline
 62
7
  6
CONTINUOUS
 70
0
 71
3
 72
9
 73
5
 74
0
 42
0.0000001
 43
0.0000001
 44
0.0000000001
 40
0.0
 40
0.0
 40
0.0
 40
0.0
 40
0.247122717
 40
1.0
 40
1.0
 40
1.0
 40
1.0
 10
-40.015888154
 20
205.1429564204
 30
0.0
 10
-40.2775396976
 20
204.9421822967
 30
0.0
 10
-41.3253941258
 20
204.1155221878
 30
0.0
 10
-42.3303510969
 20
203.234949162
 30
0.0
 10
-43.0638821001
 20
202.5482841266
 30
0.0
  0
SPLINE
  5
3DF
100
AcDbEntity
  8
0
100
AcDbSpline
 62
7
  6
CONTINUOUS
 70
0
 71
3
 72
13
 73
9
 74
0
 42
0.0000001
 43
0.0000001
 44
0.0000000001
 40
0.0
 40
0.0
 40
0.0
 40
0.0
 40
0.2706832389
 40
0.5257021039
 40
0.6480157956
 40
0.7673427201
 40
0.8843870158
 40
1.0
 40
1.0
 40
1.0
 40
1.0
 10
-5.6528527594
 20
187.3047429702
 30
0.0
 10
-5.6528527594
 20
189.1649353892
 30
0.0
 10
-5.9945940541
 20
192.7900442935
 30
0.0
 10
-7.3766031858
 20
197.0690605797
 30
0.0
 10
-9.0154352224
 20
200.0725036473
 30
0.0
 10
-10.4710438201
 20
202.0711089777
 30
0.0
 10
-12.1522210831
 20
203.820479379
 30
0.0
 10
-13.415915019
 20
204.8103573214
 30
0.0
 10
-14.0748148354
 20
205.2543258685
 30
0.0
  0
SPLINE
  5
3E0
100
AcDbEntity
  8
0
100
AcDbSpline
 62
7
  6
CONTINUOUS
 70
0
 71
3
 72
9
 73
5
 74
0
 42
0.0000001
 43
0.0000001
 44
0.0000000001
 40
0.0
 40
0.0
 40
0.0
 40
0.0
 40
0.4708100057
 40
1.0
 40
1.0
 40
1.0
 40
1.0
 10
-48.8927009059
 20
221.2714654776
 30
0.0
 10
-48.7058762563
 20
221.2921223457
 30
0.0
 10
-48.2984033172
 20
221.2557348074
 30
0.0
 10
-47.9277345216
 20
221.092953216
 30
0.0
 10
-47.7447872766
 20
220.9872862849
 30
0.0
  0
SPLINE
  5
3E1
100
AcDbEntity
  8
0
100
AcDbSpline
 62
7
  6
CONTINUOUS
 70
0
 71
3
 72
11
 73
7
 74
0
 42
0.0000001
 43
0.0000001
 44
0.0000000001
 40
0.0
 40
0.0
 40
0.0
 40
0.0
 40
0.2049642134
 40
0.4460396655
 40
0.7153047924
 40
1.0
 40
1.0
 40
1.0
 40
1.0
 10
-47.7447872766
 20
220.9872862849
 30
0.0
 10
-47.4514413695
 20
220.8178551369
 30
0.0
 10
-46.878658066
 20
220.3359596333
 30
0.0
 10
-46.1611891833
 20
219.3889819685
 30
0.0
 10
-45.552789233
 20
218.2181727437
 30
0.0
 10
-45.2517875716
 20
217.3497883746
 30
0.0
 10
-45.1285046378
 20
216.8956874783
 30
0.0
  0
SPLINE
  5
3E2
100
AcDbEntity
  8
0
100
AcDbSpline
 62
7
  6
CONTINUOUS
 70
0
 71
3
 72
9
 73
5
 74
0
 42
0.0000001
 43
0.0000001
 44
0.0000000001
 40
0.0
 40
0.0
 40
0.0
 40
0.0
 40
0.5104772017
 40
1.0
 40
1.0
 40
1.0
 40
1.0
 10
-45.1285046378
 20
216.8956874783
 30
0.0
 10
-44.4853446381
 20
214.5094607753
 30
0.0
 10
-43.4849675181
 20
209.7594828812
 30
0.0
 10
-43.0925838093
 20
204.9180461221
 30
0.0
 10
-43.0638821001
 20
202.5482841266
 30
0.0
  0
SPLINE
  5
3E3
100
AcDbEntity
  8
0
100
AcDbSpline
 62
7
  6
CONTINUOUS
 70
0
 71
3
 72
9
 73
5
 74
0
 42
0.0000001
 43
0.0000001
 44
0.0000000001
 40
0.0
 40
0.0
 40
0.0
 40
0.0
 40
0.2532074405
 40
1.0
 40
1.0
 40
1.0
 40
1.0
 10
-48.6399999058
 20
165.4472080573
 30
0.0
 10
-48.707977983
 20
165.3009955723
 30
0.0
 10
-49.0064534416
 20
164.73815628
 30
0.0
 10
-49.4232576761
 20
164.2367006567
 30
0.0
 10
-49.7851428295
 20
163.9281657599
 30
0.0
  0
SPLINE
  5
3E4
100
AcDbEntity
  8
0
100
AcDbSpline
 62
7
  6
CONTINUOUS
 70
0
 71
3
 72
13
 73
9
 74
0
 42
0.0000001
 43
0.0000001
 44
0.0000000001
 40
0.0
 40
0.0
 40
0.0
 40
0.0
 40
0.1158149309
 40
0.232733662
 40
0.3517714915
 40
0.4737828225
 40
0.7285688534
 40
1.0
 40
1.0
 40
1.0
 40
1.0
 10
-45.209216587
 20
153.6475419469
 30
0.0
 10
-46.0048649376
 20
154.1071061565
 30
0.0
 10
-47.5359250986
 20
155.154047583
 30
0.0
 10
-49.5842094277
 20
157.0639812551
 30
0.0
 10
-51.3629194093
 20
159.290842043
 30
0.0
 10
-53.3710238637
 20
162.686420283
 30
0.0
 10
-55.069750686
 20
167.6016251249
 30
0.0
 10
-55.4875652178
 20
171.7928384494
 30
0.0
 10
-55.4875652178
 20
173.9462750679
 30
0.0
  0
SPLINE
  5
3E5
100
AcDbEntity
  8
0
100
AcDbSpline
 62
7
  6
CONTINUOUS
 70
0
 71
3
 72
8
 73
4
 74
0
 42
0.0000001
 43
0.0000001
 44
0.0000000001
 40
0.0
 40
0.0
 40
0.0
 40
0.0
 40
1.0
 40
1.0
 40
1.0
 40
1.0
 10
-47.4550319073
 20
214.1929177059
 30
0.0
 10
-47.416982985
 20
214.1872407535
 30
0.0
 10
-47.3782279819
 20
214.1849658391
 30
0.0
 10
-47.3397935136
 20
214.18662111
 30
0.0
  0
SPLINE
  5
3E6
100
AcDbEntity
  8
0
100
AcDbSpline
 62
7
  6
CONTINUOUS
 70
0
 71
3
 72
17
 73
13
 74
0
 42
0.0000001
 43
0.0000001
 44
0.0000000001
 40
0.0
 40
0.0
 40
0.0
 40
0.0
 40
0.0394125781
 40
0.0811217356
 40
0.1268808232
 40
0.1777298312
 40
0.2954029044
 40
0.4319333482
 40
0.5800819879
 40
0.7304384096
 40
0.8732244565
 40
1.0
 40
1.0
 40
1.0
 40
1.0
 10
-48.269088437
 20
218.1167215403
 30
0.0
 10
-48.3201646849
 20
218.1030332042
 30
0.0
 10
-48.421583024
 20
218.0588294326
 30
0.0
 10
-48.5542519066
 20
217.9493375089
 30
0.0
 10
-48.666911084
 20
217.8001062164
 30
0.0
 10
-48.7941527326
 20
217.5408128472
 30
0.0
 10
-48.884971351
 20
217.1364826566
 30
0.0
 10
-48.8928268386
 20
216.5942029293
 30
0.0
 10
-48.8042498264
 20
216.0147544305
 30
0.0
 10
-48.6264374103
 20
215.4475213993
 30
0.0
 10
-48.3748857162
 20
214.9409117966
 30
0.0
 10
-48.1551949804
 20
214.6491601202
 30
0.0
 10
-48.0353577454
 20
214.5284540259
 30
0.0
  0
SPLINE
  5
3E7
100
AcDbEntity
  8
0
100
AcDbSpline
 62
7
  6
CONTINUOUS
 70
0
 71
3
 72
9
 73
5
 74
0
 42
0.0000001
 43
0.0000001
 44
0.0000000001
 40
0.0
 40
0.0
 40
0.0
 40
0.0
 40
0.2668760198
 40
1.0
 40
1.0
 40
1.0
 40
1.0
 10
-48.0353577454
 20
214.5284540259
 30
0.0
 10
-48.0121213625
 20
214.5050491715
 30
0.0
 10
-47.9226976004
 20
214.4198055375
 30
0.0
 10
-47.8232408858
 20
214.3444403199
 30
0.0
 10
-47.7447872766
 20
214.2991269722
 30
0.0
  0
SPLINE
  5
3E8
100
AcDbEntity
  8
0
100
AcDbSpline
 62
7
  6
CONTINUOUS
 70
0
 71
3
 72
11
 73
7
 74
0
 42
0.0000001
 43
0.0000001
 44
0.0000000001
 40
0.0
 40
0.0
 40
0.0
 40
0.0
 40
0.242885163
 40
0.4887911563
 40
0.7404561496
 40
1.0
 40
1.0
 40
1.0
 40
1.0
 10
-43.8588114256
 20
155.9855762702
 30
0.0
 10
-43.0240975629
 20
155.5034808525
 30
0.0
 10
-41.2556900083
 20
154.6785053102
 30
0.0
 10
-38.4057057831
 20
153.908414821
 30
0.0
 10
-35.4026237639
 20
153.6134807466
 30
0.0
 10
-33.3682730251
 20
153.7339655695
 30
0.0
 10
-32.3470685539
 20
153.8686206986
 30
0.0
  0
SPLINE
  5
3E9
100
AcDbEntity
  8
0
100
AcDbSpline
 62
7
  6
CONTINUOUS
 70
0
 71
3
 72
10
 73
6
 74
0
 42
0.0000001
 43
0.0000001
 44
0.0000000001
 40
0.0
 40
0.0
 40
0.0
 40
0.0
 40
0.2405485185
 40
0.4865776611
 40
1.0
 40
1.0
 40
1.0
 40
1.0
 10
-82.6779100775
 20
241.2340605878
 30
0.0
 10
-83.4406835117
 20
241.4663599368
 30
0.0
 10
-85.0227767105
 20
241.8171177436
 30
0.0
 10
-88.3376534968
 20
242.0521131577
 30
0.0
 10
-90.8684055667
 20
241.6888995977
 30
0.0
 10
-92.5122468866
 20
241.2482589193
 30
0.0
  0
SPLINE
  5
3EA
100
AcDbEntity
  8
0
100
AcDbSpline
 62
7
  6
CONTINUOUS
 70
0
 71
3
 72
9
 73
5
 74
0
 42
0.0000001
 43
0.0000001
 44
0.0000000001
 40
0.0
 40
0.0
 40
0.0
 40
0.0
 40
0.2497784839
 40
1.0
 40
1.0
 40
1.0
 40
1.0
 10
-54.0486372057
 20
226.4340795491
 30
0.0
 10
-54.5767725927
 20
226.4173671723
 30
0.0
 10
-56.6888676673
 20
226.2880883649
 30
0.0
 10
-58.7848343163
 20
225.9102873331
 30
0.0
 10
-60.3177890309
 20
225.4993704175
 30
0.0
  0
SPLINE
  5
3EB
100
AcDbEntity
  8
0
100
AcDbSpline
 62
7
  6
CONTINUOUS
 70
0
 71
3
 72
15
 73
11
 74
0
 42
0.0000001
 43
0.0000001
 44
0.0000000001
 40
0.0
 40
0.0
 40
0.0
 40
0.0
 40
0.1277226703
 40
0.2546206039
 40
0.380480236
 40
0.5053494128
 40
0.6294767221
 40
0.7531552742
 40
0.8766168881
 40
1.0
 40
1.0
 40
1.0
 40
1.0
 10
-81.27787029
 20
207.2849145733
 30
0.0
 10
-82.0510934069
 20
205.6262608135
 30
0.0
 10
-83.3376329609
 20
202.1934125436
 30
0.0
 10
-84.4199791965
 20
196.8269346608
 30
0.0
 10
-84.5979317458
 20
191.3925542629
 30
0.0
 10
-83.8280018942
 20
186.0474121748
 30
0.0
 10
-82.0907059436
 20
180.9636940166
 30
0.0
 10
-79.402309635
 20
176.3313272967
 30
0.0
 10
-75.8354194408
 20
172.3498769466
 30
0.0
 10
-72.9517413281
 20
170.2484740368
 30
0.0
 10
-71.4208905208
 20
169.364283042
 30
0.0
  0
SPLINE
  5
3EC
100
AcDbEntity
  8
0
100
AcDbSpline
 62
7
  6
CONTINUOUS
 70
0
 71
3
 72
11
 73
7
 74
0
 42
0.0000001
 43
0.0000001
 44
0.0000000001
 40
0.0
 40
0.0
 40
0.0
 40
0.0
 40
0.2470207408
 40
0.4960240911
 40
0.7471599531
 40
1.0
 40
1.0
 40
1.0
 40
1.0
 10
-60.3183226784
 20
225.4992273648
 30
0.0
 10
-62.102358056
 20
225.0209698407
 30
0.0
 10
-65.5991685403
 20
223.7086115696
 30
0.0
 10
-70.4092338718
 20
220.8124987633
 30
0.0
 10
-74.6830777617
 20
217.1077733234
 30
0.0
 10
-77.0986300005
 20
214.1900716782
 30
0.0
 10
-78.1837196178
 20
212.6419363768
 30
0.0
  0
SPLINE
  5
3ED
100
AcDbEntity
  8
0
100
AcDbSpline
 62
7
  6
CONTINUOUS
 70
0
 71
3
 72
11
 73
7
 74
0
 42
0.0000001
 43
0.0000001
 44
0.0000000001
 40
0.0
 40
0.0
 40
0.0
 40
0.0
 40
0.2599438633
 40
0.5166476998
 40
0.7649142681
 40
1.0
 40
1.0
 40
1.0
 40
1.0
 10
-70.3898098699
 20
230.7021989541
 30
0.0
 10
-70.7054435322
 20
232.0686939414
 30
0.0
 10
-71.4515084405
 20
234.7587471381
 30
0.0
 10
-72.8982721431
 20
238.629418185
 30
0.0
 10
-74.6329273362
 20
242.2319278796
 30
0.0
 10
-75.994899388
 20
244.4627619781
 30
0.0
 10
-76.7181268722
 20
245.504717559
 30
0.0
  0
SPLINE
  5
3EE
100
AcDbEntity
  8
0
100
AcDbSpline
 62
7
  6
CONTINUOUS
 70
0
 71
3
 72
9
 73
5
 74
0
 42
0.0000001
 43
0.0000001
 44
0.0000000001
 40
0.0
 40
0.0
 40
0.0
 40
0.0
 40
0.5086591576
 40
1.0
 40
1.0
 40
1.0
 40
1.0
 10
-76.3329990014
 20
231.4510403655
 30
0.0
 10
-76.7466501972
 20
232.9157956758
 30
0.0
 10
-77.7108616697
 20
235.7549904294
 30
0.0
 10
-78.9776138432
 20
238.4741753787
 30
0.0
 10
-79.6796789497
 20
239.7659407792
 30
0.0
  0
SPLINE
  5
3EF
100
AcDbEntity
  8
0
100
AcDbSpline
 62
7
  6
CONTINUOUS
 70
0
 71
3
 72
20
 73
16
 74
0
 42
0.0000001
 43
0.0000001
 44
0.0000000001
 40
0.0
 40
0.0
 40
0.0
 40
0.0
 40
0.1227236171
 40
0.1878064471
 40
0.2547478163
 40
0.3916133936
 40
0.4604255551
 40
0.528481433
 40
0.6595702491
 40
0.721937457
 40
0.781755041
 40
0.8390517072
 40
0.8941186821
 40
0.9475100412
 40
1.0
 40
1.0
 40
1.0
 40
1.0
 10
-92.5122468866
 20
241.2482589193
 30
0.0
 10
-94.8307310062
 20
240.6267765395
 30
0.0
 10
-98.2359828116
 20
239.0712521373
 30
0.0
 10
-102.2697487905
 20
236.1335458802
 30
0.0
 10
-106.1015312408
 20
232.512581661
 30
0.0
 10
-109.2775548437
 20
228.155350411
 30
0.0
 10
-111.632450646
 20
223.3356777405
 30
0.0
 10
-113.3608805762
 20
218.3786680052
 30
0.0
 10
-114.156378155
 20
213.2558394513
 30
0.0
 10
-113.8787821712
 20
208.2952421562
 30
0.0
 10
-113.1578255289
 20
204.8444408688
 30
0.0
 10
-111.9346355582
 20
201.689289993
 30
0.0
 10
-110.2342551326
 20
198.9067656973
 30
0.0
 10
-108.0961816585
 20
196.5695656411
 30
0.0
 10
-106.4051284006
 20
195.3446845529
 30
0.0
 10
-105.5161393425
 20
194.8311703383
 30
0.0
  0
SPLINE
  5
3F0
100
AcDbEntity
  8
0
100
AcDbSpline
 62
7
  6
CONTINUOUS
 70
0
 71
3
 72
13
 73
9
 74
0
 42
0.0000001
 43
0.0000001
 44
0.0000000001
 40
0.0
 40
0.0
 40
0.0
 40
0.0
 40
0.2481691513
 40
0.3769007687
 40
0.5064247897
 40
0.6350544164
 40
0.7611783079
 40
1.0
 40
1.0
 40
1.0
 40
1.0
 10
-78.1386659654
 20
188.5002933229
 30
0.0
 10
-78.018400126
 20
191.9815119748
 30
0.0
 10
-76.9859303718
 20
197.2691467657
 30
0.0
 10
-74.248720029
 20
203.8419514451
 30
0.0
 10
-71.505720026
 20
208.548751075
 30
0.0
 10
-68.1805020881
 20
212.8187759075
 30
0.0
 10
-63.2111790542
 20
217.6616781851
 30
0.0
 10
-58.7799979393
 20
220.4433501531
 30
0.0
 10
-55.6731937014
 20
221.7020426269
 30
0.0
  0
SPLINE
  5
3F1
100
AcDbEntity
  8
0
100
AcDbSpline
 62
7
  6
CONTINUOUS
 70
0
 71
3
 72
11
 73
7
 74
0
 42
0.0000001
 43
0.0000001
 44
0.0000000001
 40
0.0
 40
0.0
 40
0.0
 40
0.0
 40
0.2350857319
 40
0.4833523002
 40
0.7400561367
 40
1.0
 40
1.0
 40
1.0
 40
1.0
 10
-80.8503584194
 20
244.3970502372
 30
0.0
 10
-80.1271309352
 20
243.3550946563
 30
0.0
 10
-78.7651588833
 20
241.1242605577
 30
0.0
 10
-77.0305036902
 20
237.5217508631
 30
0.0
 10
-75.5837399876
 20
233.6510798163
 30
0.0
 10
-74.8376750793
 20
230.9610266196
 30
0.0
 10
-74.5220414171
 20
229.5945316323
 30
0.0
  0
SPLINE
  5
3F2
100
AcDbEntity
  8
0
100
AcDbSpline
 62
7
  6
CONTINUOUS
 70
0
 71
3
 72
15
 73
11
 74
0
 42
0.0000001
 43
0.0000001
 44
0.0000000001
 40
0.0
 40
0.0
 40
0.0
 40
0.0
 40
0.1150938628
 40
0.2374954293
 40
0.365781013
 40
0.4974801169
 40
0.6295707789
 40
0.7589699881
 40
0.8830201326
 40
1.0
 40
1.0
 40
1.0
 40
1.0
 10
-83.901311973
 20
187.434018185
 30
0.0
 10
-84.470225329
 20
189.1281813386
 30
0.0
 10
-85.1855699229
 20
192.7886060362
 30
0.0
 10
-85.016309624
 20
198.5043422072
 30
0.0
 10
-83.6675233015
 20
204.324286494
 30
0.0
 10
-81.2164636205
 20
209.933147573
 30
0.0
 10
-77.7976810718
 20
215.0309394883
 30
0.0
 10
-73.5931124018
 20
219.3423793952
 30
0.0
 10
-68.8292362963
 20
222.6312115705
 30
0.0
 10
-65.3285565304
 20
224.0638107882
 30
0.0
 10
-63.5740760794
 20
224.5341088923
 30
0.0
  0
SPLINE
  5
3F3
100
AcDbEntity
  8
0
100
AcDbSpline
 62
7
  6
CONTINUOUS
 70
0
 71
3
 72
20
 73
16
 74
0
 42
0.0000001
 43
0.0000001
 44
0.0000000001
 40
0.0
 40
0.0
 40
0.0
 40
0.0
 40
0.0602679398
 40
0.1230640652
 40
0.1881479995
 40
0.2550904403
 40
0.3919456053
 40
0.52857046
 40
0.5952286978
 40
0.6599372999
 40
0.7817678087
 40
0.8390594699
 40
0.8941227513
 40
0.9475117132
 40
1.0
 40
1.0
 40
1.0
 40
1.0
 10
-55.9162368239
 20
224.7077562247
 30
0.0
 10
-57.2738013494
 20
224.3438400283
 30
0.0
 10
-59.988290247
 20
223.3706736107
 30
0.0
 10
-63.8670234311
 20
221.2901494245
 30
0.0
 10
-67.5519643377
 20
218.6086780368
 30
0.0
 10
-72.1188219389
 20
214.2911774431
 30
0.0
 10
-76.8435572243
 20
207.8120783217
 30
0.0
 10
-79.9422007896
 20
200.4238016616
 30
0.0
 10
-81.2614253679
 20
194.2979740152
 30
0.0
 10
-81.7517662106
 20
188.4033150319
 30
0.0
 10
-81.0570271227
 20
182.6552285639
 30
0.0
 10
-79.0736119934
 20
177.5414669852
 30
0.0
 10
-77.0462278181
 20
174.223452134
 30
0.0
 10
-74.4970473204
 20
171.4370186916
 30
0.0
 10
-72.4808385364
 20
169.9765342649
 30
0.0
 10
-71.4208872581
 20
169.3642886906
 30
0.0
  0
ELLIPSE
  5
3F4
100
AcDbEntity
  8
0
100
AcDbEllipse
 62
7
  6
CONTINUOUS
 10
-66.6421781019
 20
202.4034876914
 30
0.0
 11
-3.0635082653
 21
27.6902883644
 31
0.0
 40
0.7951609176
 41
6.3078585467
 42
6.5004638108
  0
ELLIPSE
  5
3F5
100
AcDbEntity
  8
0
100
AcDbEllipse
 62
7
  6
CONTINUOUS
 10
-77.5238681957
 20
208.688549798
 30
0.0
 11
10.221295777
 21
23.9842587936
 31
0.0
 40
0.7898593978
 41
6.7562446302
 42
6.933802089
  0
ENDSEC
  0
SECTION
  2
OBJECTS
  0
DICTIONARY
  5
C
100
AcDbDictionary
280
0
281
1
  3
ACAD_GROUP
350
D
  3
ACAD_MLINESTYLE
350
17
  3
ACAD_LAYOUT
350
1A
  3
ACAD_PLOTSETTINGS
350
19
  3
ACAD_PLOTSTYLENAME
350
E
  0
DICTIONARY
  5
D
102
{ACAD_REACTORS
330
C
102
}
100
AcDbDictionary
280
0
281
1
  0
ACDBDICTIONARYWDFLT
  5
E
102
{ACAD_REACTORS
330
C
102
}
100
AcDbDictionary
281
1
  3
Normal
350
F
100
AcDbDictionaryWithDefault
340
F
  0
DICTIONARY
  5
17
102
{ACAD_REACTORS
330
C
102
}
100
AcDbDictionary
280
0
281
1
  3
Standard
350
18
  0
DICTIONARY
  5
19
102
{ACAD_REACTORS
330
C
102
}
100
AcDbDictionary
281
1
  0
DICTIONARY
  5
1A
102
{ACAD_REACTORS
330
C
102
}
100
AcDbDictionary
281
1
  3
Model
350
3F6
  3
Layout1
350
3F7
  0
ACDBPLACEHOLDER
  5
F
102
{ACAD_REACTORS
330
E
102
}
  0
MLINESTYLE
  5
18
102
{ACAD_REACTORS
330
17
102
}
100
AcDbMlineStyle
  2
STANDARD
 70
0
  3

 62
256
 51
90.0
 52
90.0
 71
2
 49
0.5
 62
256
  6
BYLAYER
 49
-0.5
 62
256
  6
BYLAYER
  0
LAYOUT
  5
3F6
102
{ACAD_REACTORS
330
1A
102
}
100
AcDbPlotSettings
  1

  2
none_device
  4
ANSI_C_(22.00_x_17.00_Inches)
  6

 40
0.0
 41
0.0
 42
0.0
 43
0.0
 44
558.8
 45
431.8
 46
0.0
 47
0.0
 48
0.0
 49
0.0
140
0.0
141
0.0
142
1.0
143
1.0
 70
1024
 72
1
 73
0
 74
0
  7

 75
0
147
1.0
148
0.0
149
0.0
100
AcDbLayout
  1
Model
 70
0
 71
0
 10
0.0
 20
0.0
 11
558.8
 21
431.8
 12
0.0
 22
0.0
 32
0.0
 14
0.0
 24
0.0
 34
0.0
 15
0.0
 25
0.0
 35
0.0
146
0.0
 13
0.0
 23
0.0
 33
0.0
 16
1.0
 26
0.0
 36
0.0
 17
0.0
 27
1.0
 37
0.0
 76
0
330
216
345
0
346
0
  0
LAYOUT
  5
3F7
102
{ACAD_REACTORS
330
1A
102
}
100
AcDbPlotSettings
  1

  2
none_device
  4
ANSI_C_(22.00_x_17.00_Inches)
  6

 40
0.0
 41
0.0
 42
0.0
 43
0.0
 44
558.8
 45
431.8
 46
0.0
 47
0.0
 48
0.0
 49
0.0
140
0.0
141
0.0
142
1.0
143
1.0
 70
0
 72
1
 73
0
 74
0
  7

 75
0
147
1.0
148
0.0
149
0.0
100
AcDbLayout
  1
Layout1
 70
0
 71
1
 10
0.0
 20
0.0
 11
558.8
 21
431.8
 12
0.0
 22
0.0
 32
0.0
 14
0.0
 24
0.0
 34
0.0
 15
0.0
 25
0.0
 35
0.0
146
0.0
 13
0.0
 23
0.0
 33
0.0
 16
1.0
 26
0.0
 36
0.0
 17
0.0
 27
1.0
 37
0.0
 76
0
330
217
345
0
346
0
  0
ENDSEC
  0
EOF
