999
DXF file: Y:\3D PRATIKA-KAEDRA_OLGA\TRAVAIL_PHASE_6\CAD3D\PKF16W423_3D-Simplified\PKF16W423_2D-isometric.dxf
999
Pro/ENGINEER 2018260 by Parametric Technology Corporation
  0
SECTION
  2
HEADER
  9
$ACADVER
  1
AC1027
  9
$DWGCODEPAGE
  3
ANSI_1252
  9
$EXTMAX
 10
558.8
 20
431.8
 30
0.0
  9
$EXTMIN
 10
0.0
 20
0.0
 30
0.0
  9
$LIMMIN
 10
0.0
 20
0.0
  9
$LIMMAX
 10
558.8
 20
431.8
  9
$VIEWCTR
 10
279.4
 20
215.9
  9
$VIEWSIZE
 40
431.8
  9
$CLAYER
  8
0
  9
$LTSCALE
 40
30.734
  9
$CELTYPE
  6
BYLAYER
  9
$DIMSCALE
 40
1.0
  9
$DIMASZ
 40
0.1875
  9
$DIMEXO
 40
0.0625
  9
$DIMDLI
 40
21.2344
  9
$DIMEXE
 40
0.125
  9
$DIMCEN
 40
5.0292
  9
$DIMLFAC
 40
1.0
  9
$DIMBLK
  1
_CLOSED
  9
$DIMALT
 70
0
  9
$DIMALTF
 40
0.0393700787
  9
$DIMTXT
 40
0.15625
  9
$DIMTOL
 70
0
  9
$DIMLIM
 70
0
  9
$DIMTFAC
 40
1.0
  9
$DIMGAP
 40
0.625
  9
$DIMDSEP
 70
46
  9
$AUNITS
 70
0
  9
$PDMODE
 70
3
  9
$PDSIZE
 40
0.3125
  9
$HANDSEED
  5
3B6
  9
$TILEMODE
 70
1
  9
$MEASUREMENT
 70
1
  9
$INSUNITS
 70
4
  0
ENDSEC
  0
SECTION
  2
CLASSES
  0
CLASS
  1
ACDBDICTIONARYWDFLT
  2
AcDbDictionaryWithDefault
  3
AutoCAD 2000
 90
0
 91
1
280
0
281
0
  0
CLASS
  1
ACDBPLACEHOLDER
  2
AcDbPlaceHolder
  3
AutoCAD 2000
 90
0
 91
1
280
0
281
0
  0
CLASS
  1
LAYOUT
  2
AcDbLayout
  3
AutoCAD 2000
 90
0
 91
0
280
0
281
0
  0
ENDSEC
  0
SECTION
  2
TABLES
  0
TABLE
  2
VPORT
  5
8
100
AcDbSymbolTable
 70
2
  0
VPORT
  5
1F4
100
AcDbSymbolTableRecord
100
AcDbViewportTableRecord
  2
*ACTIVE
 70
0
 10
0.0
 20
0.0
 11
1.0
 21
1.0
 12
279.4
 22
215.9
 13
0.0
 23
0.0
 14
1.0
 24
1.0
 15
0.0
 25
0.0
 16
0.0
 26
0.0
 36
1.0
 17
0.0
 27
0.0
 37
0.0
 40
431.8
 41
1.2941176471
 42
50.0
 43
0.0
 44
0.0
 50
0.0
 51
0.0
 71
0
 72
100
 73
1
 74
1
 75
0
 76
0
 77
0
 78
0
  0
ENDTAB
  0
TABLE
  2
LTYPE
  5
5
100
AcDbSymbolTable
 70
6
  0
LTYPE
  5
14
100
AcDbSymbolTableRecord
100
AcDbLinetypeTableRecord
  2
BYBLOCK
 70
0
  3

 72
65
 73
0
 40
0.0
  0
LTYPE
  5
15
100
AcDbSymbolTableRecord
100
AcDbLinetypeTableRecord
  2
BYLAYER
 70
0
  3

 72
65
 73
0
 40
0.0
  0
LTYPE
  5
16
100
AcDbSymbolTableRecord
100
AcDbLinetypeTableRecord
  2
CONTINUOUS
 70
64
  3
Solid line
 72
65
 73
0
 40
0.0
  0
LTYPE
  5
1F5
100
AcDbSymbolTableRecord
100
AcDbLinetypeTableRecord
  2
CENTER
 70
64
  3
____ _ ____ _ ____ _ ____ _ ____ _ ____ _ ____
 72
65
 73
4
 40
0.6
 49
0.375
 74
0
 49
-0.075
 74
0
 49
0.075
 74
0
 49
-0.075
 74
0
  0
LTYPE
  5
1F6
100
AcDbSymbolTableRecord
100
AcDbLinetypeTableRecord
  2
HIDDEN
 70
64
  3
- - - - - - - - - - - - - - - - - - - -
 72
65
 73
2
 40
0.2
 49
0.1
 74
0
 49
-0.1
 74
0
  0
LTYPE
  5
1F7
100
AcDbSymbolTableRecord
100
AcDbLinetypeTableRecord
  2
PHANTOM
 70
64
  3
_____ _ _ _____ _ _ _____ _ _ _____
 72
65
 73
6
 40
0.8
 49
0.45
 74
0
 49
-0.05
 74
0
 49
0.1
 74
0
 49
-0.05
 74
0
 49
0.1
 74
0
 49
-0.05
 74
0
  0
LTYPE
  5
1F8
100
AcDbSymbolTableRecord
100
AcDbLinetypeTableRecord
  2
DOT
 70
64
  3
. . . . . . . . . . . . . . . . . . . .
 72
65
 73
2
 40
0.2
 49
0.1
 74
0
 49
-0.1
 74
0
  0
LTYPE
  5
1F9
100
AcDbSymbolTableRecord
100
AcDbLinetypeTableRecord
  2
DASHED
 70
64
  3
- - - - - - - - - - - - - - - - - - - -
 72
65
 73
2
 40
0.2
 49
0.1
 74
0
 49
-0.1
 74
0
  0
ENDTAB
  0
TABLE
  2
LAYER
  5
2
100
AcDbSymbolTable
 70
36
  0
LAYER
  5
10
100
AcDbSymbolTableRecord
100
AcDbLayerTableRecord
  2
0
 70
0
 62
7
  6
CONTINUOUS
370
-3
390
F
  0
LAYER
  5
1FA
100
AcDbSymbolTableRecord
100
AcDbLayerTableRecord
  2
DEFAULT_1
 70
0
 62
7
  6
CENTER
370
-3
390
F
  0
LAYER
  5
1FB
100
AcDbSymbolTableRecord
100
AcDbLayerTableRecord
  2
DEFAULT_2
 70
0
 62
8
  6
HIDDEN
370
-3
390
F
  0
LAYER
  5
1FC
100
AcDbSymbolTableRecord
100
AcDbLayerTableRecord
  2
DEFAULT_3
 70
0
 62
7
  6
PHANTOM
370
-3
390
F
  0
LAYER
  5
1FD
100
AcDbSymbolTableRecord
100
AcDbLayerTableRecord
  2
01_ALL_DTM_PLN
 70
0
 62
7
  6
CONTINUOUS
370
-3
390
F
  0
LAYER
  5
1FE
100
AcDbSymbolTableRecord
100
AcDbLayerTableRecord
  2
01__ASM_ALL_DTM_PLN
 70
0
 62
7
  6
CONTINUOUS
370
-3
390
F
  0
LAYER
  5
1FF
100
AcDbSymbolTableRecord
100
AcDbLayerTableRecord
  2
01__ASM_DEF_DTM_PLN
 70
0
 62
7
  6
CONTINUOUS
370
-3
390
F
  0
LAYER
  5
200
100
AcDbSymbolTableRecord
100
AcDbLayerTableRecord
  2
01___PRT_ALL_DTM_PLN
 70
0
 62
7
  6
CONTINUOUS
370
-3
390
F
  0
LAYER
  5
201
100
AcDbSymbolTableRecord
100
AcDbLayerTableRecord
  2
01___PRT_DEF_DTM_PLN
 70
0
 62
7
  6
CONTINUOUS
370
-3
390
F
  0
LAYER
  5
202
100
AcDbSymbolTableRecord
100
AcDbLayerTableRecord
  2
02_ALL_AXES
 70
0
 62
7
  6
CONTINUOUS
370
-3
390
F
  0
LAYER
  5
203
100
AcDbSymbolTableRecord
100
AcDbLayerTableRecord
  2
02__ASM_ALL_AXES
 70
0
 62
7
  6
CONTINUOUS
370
-3
390
F
  0
LAYER
  5
204
100
AcDbSymbolTableRecord
100
AcDbLayerTableRecord
  2
02___PRT_ALL_AXES
 70
0
 62
7
  6
CONTINUOUS
370
-3
390
F
  0
LAYER
  5
205
100
AcDbSymbolTableRecord
100
AcDbLayerTableRecord
  2
03_ALL_CURVES
 70
0
 62
7
  6
CONTINUOUS
370
-3
390
F
  0
LAYER
  5
206
100
AcDbSymbolTableRecord
100
AcDbLayerTableRecord
  2
03__ASM_ALL_CURVES
 70
0
 62
7
  6
CONTINUOUS
370
-3
390
F
  0
LAYER
  5
207
100
AcDbSymbolTableRecord
100
AcDbLayerTableRecord
  2
03___PRT_ALL_CURVES
 70
0
 62
7
  6
CONTINUOUS
370
-3
390
F
  0
LAYER
  5
208
100
AcDbSymbolTableRecord
100
AcDbLayerTableRecord
  2
04_ALL_DTM_PNT
 70
0
 62
7
  6
CONTINUOUS
370
-3
390
F
  0
LAYER
  5
209
100
AcDbSymbolTableRecord
100
AcDbLayerTableRecord
  2
04__ASM_ALL_DTM_PNT
 70
0
 62
7
  6
CONTINUOUS
370
-3
390
F
  0
LAYER
  5
20A
100
AcDbSymbolTableRecord
100
AcDbLayerTableRecord
  2
04___PRT_ALL_DTM_PNT
 70
0
 62
7
  6
CONTINUOUS
370
-3
390
F
  0
LAYER
  5
20B
100
AcDbSymbolTableRecord
100
AcDbLayerTableRecord
  2
05_ALL_DTM_CSYS
 70
0
 62
7
  6
CONTINUOUS
370
-3
390
F
  0
LAYER
  5
20C
100
AcDbSymbolTableRecord
100
AcDbLayerTableRecord
  2
05__ASM_ALL_DTM_CSYS
 70
0
 62
7
  6
CONTINUOUS
370
-3
390
F
  0
LAYER
  5
20D
100
AcDbSymbolTableRecord
100
AcDbLayerTableRecord
  2
05__ASM_DEF_DTM_CSYS
 70
0
 62
7
  6
CONTINUOUS
370
-3
390
F
  0
LAYER
  5
20E
100
AcDbSymbolTableRecord
100
AcDbLayerTableRecord
  2
05___PRT_ALL_DTM_CSYS
 70
0
 62
7
  6
CONTINUOUS
370
-3
390
F
  0
LAYER
  5
20F
100
AcDbSymbolTableRecord
100
AcDbLayerTableRecord
  2
05___PRT_DEF_DTM_CSYS
 70
0
 62
7
  6
CONTINUOUS
370
-3
390
F
  0
LAYER
  5
210
100
AcDbSymbolTableRecord
100
AcDbLayerTableRecord
  2
06_ALL_SURFS
 70
0
 62
7
  6
CONTINUOUS
370
-3
390
F
  0
LAYER
  5
211
100
AcDbSymbolTableRecord
100
AcDbLayerTableRecord
  2
06__ASM_ALL_SURFS
 70
0
 62
7
  6
CONTINUOUS
370
-3
390
F
  0
LAYER
  5
212
100
AcDbSymbolTableRecord
100
AcDbLayerTableRecord
  2
06___PRT_ALL_SURFS
 70
0
 62
7
  6
CONTINUOUS
370
-3
390
F
  0
LAYER
  5
213
100
AcDbSymbolTableRecord
100
AcDbLayerTableRecord
  2
07__ASM_ALL_SKELETONS
 70
0
 62
7
  6
CONTINUOUS
370
-3
390
F
  0
ENDTAB
  0
TABLE
  2
STYLE
  5
3
100
AcDbSymbolTable
 70
1
  0
STYLE
  5
11
100
AcDbSymbolTableRecord
100
AcDbTextStyleTableRecord
  2
STANDARD
 70
0
 40
0.0
 41
0.8
 50
0.0
 71
0
 42
0.2
  3
txt
  4

  0
STYLE
  5
214
100
AcDbSymbolTableRecord
100
AcDbTextStyleTableRecord
  2
TEXTSTYLE_1
 70
0
 40
0.0
 41
0.8
 50
0.0
 71
0
 42
0.2
  3
gdt
  4

  0
ENDTAB
  0
TABLE
  2
VIEW
  5
6
100
AcDbSymbolTable
 70
0
  0
ENDTAB
  0
TABLE
  2
UCS
  5
7
100
AcDbSymbolTable
 70
0
  0
ENDTAB
  0
TABLE
  2
APPID
  5
9
100
AcDbSymbolTable
 70
1
  0
APPID
  5
215
100
AcDbSymbolTableRecord
100
AcDbRegAppTableRecord
  2
ACAD
 70
0
  0
ENDTAB
  0
TABLE
  2
BLOCK_RECORD
  5
1
100
AcDbSymbolTable
 70
0
  0
BLOCK_RECORD
  5
216
100
AcDbSymbolTableRecord
100
AcDbBlockTableRecord
  2
*Model_Space
  0
BLOCK_RECORD
  5
217
100
AcDbSymbolTableRecord
100
AcDbBlockTableRecord
  2
*Paper_Space
  0
BLOCK_RECORD
  5
218
100
AcDbSymbolTableRecord
100
AcDbBlockTableRecord
  2
_CLOSED
  0
ENDTAB
  0
TABLE
  2
DIMSTYLE
  5
A
100
AcDbSymbolTable
 70
1
100
AcDbDimStyleTable
 71
0
  0
DIMSTYLE
105
219
100
AcDbSymbolTableRecord
100
AcDbDimStyleTableRecord
  2
STANDARD
 70
0
  3

  4

 40
1.0
 41
0.1875
 42
0.0625
 43
0.38
 44
0.125
 45
0.0
 46
0.0
 47
0.01
 48
0.01
140
0.15625
141
0.09
142
0.0
143
25.4
144
1.0
145
0.0
146
1.0
147
0.625
 71
0.0
 72
0.0
 73
1
 74
1
 75
0
 76
0
 77
0
 78
8
 79
2
170
0
171
1
172
0
173
0
174
0
175
0
176
0
177
0
178
0
270
2
179
2
271
2
272
2
273
2
274
2
275
0
280
0
281
0
282
0
283
1
284
8
285
0
286
0
287
3
288
0
340
11
278
46
341
218
342
218
343
218
344
218
  0
ENDTAB
  0
ENDSEC
  0
SECTION
  2
BLOCKS
  0
BLOCK
  5
20
100
AcDbEntity
  8
0
100
AcDbBlockBegin
  2
*Model_Space
 70
0
 10
0.0
 20
0.0
 30
0.0
  3
*Model_Space
  1

  0
ENDBLK
  5
21
100
AcDbEntity
  8
0
100
AcDbBlockEnd
  0
BLOCK
  5
1C
100
AcDbEntity
  8
0
100
AcDbBlockBegin
  2
*Paper_Space
 70
0
 10
0.0
 20
0.0
 30
0.0
  3
*Paper_Space
  1

  0
ENDBLK
  5
1D
100
AcDbEntity
  8
0
100
AcDbBlockEnd
  0
BLOCK
  5
21A
100
AcDbEntity
  8
0
100
AcDbBlockBegin
  2
_CLOSED
 70
64
 10
0.0
 20
0.0
  3
_CLOSED
  1

  0
LINE
  5
21B
100
AcDbEntity
  8
0
  6
BYBLOCK
 62
0
100
AcDbLine
 10
0.0
 20
0.0
 11
-1.0
 21
0.1666666667
  0
LINE
  5
21C
100
AcDbEntity
  8
0
  6
BYBLOCK
 62
0
100
AcDbLine
 10
-1.0
 20
0.1666666667
 11
-1.0
 21
-0.1666666667
  0
LINE
  5
21D
100
AcDbEntity
  8
0
  6
BYBLOCK
 62
0
100
AcDbLine
 10
-1.0
 20
-0.1666666667
 11
0.0
 21
0.0
  0
LINE
  5
21E
100
AcDbEntity
  8
0
  6
BYBLOCK
 62
0
100
AcDbLine
 10
-1.0
 20
0.0
 11
0.0
 21
0.0
  0
ENDBLK
  5
21F
100
AcDbEntity
  8
0
  6
BYBLOCK
 62
0
100
AcDbBlockEnd
  0
ENDSEC
  0
SECTION
  2
ENTITIES
  0
LINE
  5
220
100
AcDbEntity
  8
0
100
AcDbLine
 62
7
  6
CONTINUOUS
 10
99.6351102536
 20
181.1898536706
 11
50.048331688
 21
167.8978458077
  0
LINE
  5
221
100
AcDbEntity
  8
0
100
AcDbLine
 62
7
  6
CONTINUOUS
 10
99.6351102536
 20
188.5445305781
 11
50.048331688
 21
175.2525227152
  0
LINE
  5
222
100
AcDbEntity
  8
0
100
AcDbLine
 62
7
  6
CONTINUOUS
 10
46.5475615663
 20
176.575629018
 11
50.2665699587
 21
177.5725296077
  0
LINE
  5
223
100
AcDbEntity
  8
0
100
AcDbLine
 62
7
  6
CONTINUOUS
 10
94.0682243583
 20
189.3138032199
 11
97.7872327508
 21
190.3107038097
  0
LINE
  5
224
100
AcDbEntity
  8
0
100
AcDbLine
 62
7
  6
CONTINUOUS
 10
94.6906472839
 20
192.0992340664
 11
90.9716388915
 21
191.1023334767
  0
LINE
  5
225
100
AcDbEntity
  8
0
100
AcDbLine
 62
7
  6
CONTINUOUS
 10
47.1699844919
 20
179.3610598645
 11
43.4509760995
 21
178.3641592747
  0
LINE
  5
226
100
AcDbEntity
  8
0
100
AcDbLine
 62
7
  6
CONTINUOUS
 10
36.9772503074
 20
177.910022039
 11
98.134277205
 21
194.3034984032
  0
LINE
  5
227
100
AcDbEntity
  8
0
100
AcDbLine
 62
7
  6
CONTINUOUS
 10
35.4686618055
 20
187.9746576732
 11
44.1380058561
 21
190.2985720738
  0
LINE
  5
228
100
AcDbEntity
  8
0
100
AcDbLine
 62
7
  6
CONTINUOUS
 10
28.9849907652
 20
199.4008224034
 11
29.6209449444
 21
199.5712934078
  0
LINE
  5
229
100
AcDbEntity
  8
0
100
AcDbLine
 62
7
  6
CONTINUOUS
 10
29.8819571997
 20
200.2207433163
 11
31.4804339404
 21
200.6492237705
  0
LINE
  5
22A
100
AcDbEntity
  8
0
100
AcDbLine
 62
7
  6
CONTINUOUS
 10
30.861116847
 20
201.0069298219
 11
29.2626401063
 21
200.5784493676
  0
LINE
  5
22B
100
AcDbEntity
  8
0
100
AcDbLine
 62
7
  6
CONTINUOUS
 10
31.4804339404
 20
200.6492237705
 11
31.9090546051
 21
200.7105116203
  0
LINE
  5
22C
100
AcDbEntity
  8
0
100
AcDbLine
 62
7
  6
CONTINUOUS
 10
32.5130639622
 20
200.9403867509
 11
32.4154756597
 21
200.9264327405
  0
LINE
  5
22D
100
AcDbEntity
  8
0
100
AcDbLine
 62
7
  6
CONTINUOUS
 10
-6.2532222546
 20
207.7712546563
 11
0.2922699272
 21
209.5258097225
  0
LINE
  5
22E
100
AcDbEntity
  8
0
100
AcDbLine
 62
7
  6
CONTINUOUS
 10
106.4278508094
 20
238.5084232752
 11
103.1220655717
 21
237.6222894177
  0
LINE
  5
22F
100
AcDbEntity
  8
0
100
AcDbLine
 62
7
  6
CONTINUOUS
 10
3.6906218775
 20
217.8541843863
 11
4.3265760567
 21
218.0246553907
  0
LINE
  5
230
100
AcDbEntity
  8
0
100
AcDbLine
 62
7
  6
CONTINUOUS
 10
7.8090433365
 20
218.9581498383
 11
7.90393425
 21
218.9835858679
  0
LINE
  5
231
100
AcDbEntity
  8
0
100
AcDbLine
 62
7
  6
CONTINUOUS
 10
59.2444409256
 20
254.9379902771
 11
58.5885801405
 21
254.7376265171
  0
LINE
  5
232
100
AcDbEntity
  8
0
100
AcDbLine
 62
7
  6
CONTINUOUS
 10
4.587588312
 20
218.6741052992
 11
6.1860650527
 21
219.1025857535
  0
LINE
  5
233
100
AcDbEntity
  8
0
100
AcDbLine
 62
7
  6
CONTINUOUS
 10
8.3162298857
 20
219.673588116
 11
9.9147066264
 21
220.1020685702
  0
LINE
  5
234
100
AcDbEntity
  8
0
100
AcDbLine
 62
7
  6
CONTINUOUS
 10
9.295389533
 20
220.4597746216
 11
7.6969127923
 21
220.0312941673
  0
LINE
  5
235
100
AcDbEntity
  8
0
100
AcDbLine
 62
7
  6
CONTINUOUS
 10
5.5667479593
 20
219.4602918048
 11
3.9682712186
 21
219.0318113505
  0
LINE
  5
236
100
AcDbEntity
  8
0
100
AcDbLine
 62
7
  6
CONTINUOUS
 10
68.3681263894
 20
247.3564295426
 11
69.2142005599
 21
247.5832243626
  0
LINE
  5
237
100
AcDbEntity
  8
0
100
AcDbLine
 62
7
  6
CONTINUOUS
 10
6.1860650527
 20
219.1025857535
 11
6.6146857174
 21
219.1638736032
  0
LINE
  5
238
100
AcDbEntity
  8
0
100
AcDbLine
 62
7
  6
CONTINUOUS
 10
7.2653443899
 20
219.400419052
 11
7.121106772
 21
219.3797947234
  0
LINE
  5
239
100
AcDbEntity
  8
0
100
AcDbLine
 62
7
  6
CONTINUOUS
 10
7.6969127923
 20
220.0312941673
 11
7.2682921276
 21
219.9700063176
  0
LINE
  5
23A
100
AcDbEntity
  8
0
100
AcDbLine
 62
7
  6
CONTINUOUS
 10
31.1982294954
 20
200.6909030027
 11
31.2808638553
 21
200.6888062809
  0
LINE
  5
23B
100
AcDbEntity
  8
0
100
AcDbLine
 62
7
  6
CONTINUOUS
 10
31.2377190402
 20
201.2415017834
 11
30.1516650369
 21
201.26905876
  0
LINE
  5
23C
100
AcDbEntity
  8
0
100
AcDbLine
 62
7
  6
CONTINUOUS
 10
62.4301582068
 20
197.4333660562
 11
59.841181577
 21
197.6055243725
  0
LINE
  5
23D
100
AcDbEntity
  8
0
100
AcDbLine
 62
7
  6
CONTINUOUS
 10
82.8416616976
 20
195.5037299123
 11
80.917402932
 21
195.6636172107
  0
LINE
  5
23E
100
AcDbEntity
  8
0
100
AcDbLine
 62
7
  6
CONTINUOUS
 10
30.1516650369
 20
201.26905876
 11
31.1629543292
 21
201.1414452833
  0
LINE
  5
23F
100
AcDbEntity
  8
0
100
AcDbLine
 62
7
  6
CONTINUOUS
 10
44.1380058561
 20
190.2985720738
 11
43.8811790835
 21
190.3345415875
  0
LINE
  5
240
100
AcDbEntity
  8
0
100
AcDbLine
 62
7
  6
CONTINUOUS
 10
34.194059086
 20
196.4782435973
 11
32.5625653356
 21
196.7067401676
  0
LINE
  5
241
100
AcDbEntity
  8
0
100
AcDbLine
 62
7
  6
CONTINUOUS
 10
64.3788899561
 20
195.424248698
 11
86.6759712116
 21
192.3014622377
  0
LINE
  5
242
100
AcDbEntity
  8
0
100
AcDbLine
 62
7
  6
CONTINUOUS
 10
59.8411668422
 20
197.6054190298
 11
58.4815887169
 21
197.7958328383
  0
LINE
  5
243
100
AcDbEntity
  8
0
100
AcDbLine
 62
7
  6
CONTINUOUS
 10
5.4095789033
 20
199.2329177712
 11
15.0140019607
 21
197.8022398516
  0
LINE
  5
244
100
AcDbEntity
  8
0
100
AcDbLine
 62
7
  6
CONTINUOUS
 10
43.5173720802
 20
252.1134648074
 11
22.0379976931
 21
246.2530174016
  0
LINE
  5
245
100
AcDbEntity
  8
0
100
AcDbLine
 62
7
  6
CONTINUOUS
 10
57.1200163672
 20
256.1883865153
 11
57.0947064586
 21
256.1815558094
  0
LINE
  5
246
100
AcDbEntity
  8
0
100
AcDbLine
 62
7
  6
CONTINUOUS
 10
62.1265758331
 20
247.3280871867
 11
61.8940474879
 21
247.2657566889
  0
LINE
  5
247
100
AcDbEntity
  8
0
100
AcDbLine
 62
7
  6
CONTINUOUS
 10
63.613235076
 20
251.0437372272
 11
66.7124087364
 21
251.8744877186
  0
LINE
  5
248
100
AcDbEntity
  8
0
100
AcDbLine
 62
7
  6
CONTINUOUS
 10
61.1314821349
 20
251.0990312773
 11
60.8842796419
 21
251.0327672938
  0
LINE
  5
249
100
AcDbEntity
  8
0
100
AcDbLine
 62
7
  6
CONTINUOUS
 10
63.1290343557
 20
255.050988297
 11
60.0298606954
 21
254.2202378056
  0
LINE
  5
24A
100
AcDbEntity
  8
0
100
AcDbLine
 62
7
  6
CONTINUOUS
 10
61.7804395361
 20
255.2385114063
 11
57.2009960497
 21
254.0109664721
  0
LINE
  5
24B
100
AcDbEntity
  8
0
100
AcDbLine
 62
7
  6
CONTINUOUS
 10
58.5885801405
 20
254.7376265171
 11
59.5080071587
 21
254.9840839702
  0
LINE
  5
24C
100
AcDbEntity
  8
0
100
AcDbLine
 62
7
  6
CONTINUOUS
 10
63.1195309296
 20
259.0739859337
 11
73.7746019498
 21
261.930136139
  0
LINE
  5
24D
100
AcDbEntity
  8
0
100
AcDbLine
 62
7
  6
CONTINUOUS
 10
85.7713952256
 20
265.1459423511
 11
89.5658128312
 21
266.1630567939
  0
LINE
  5
24E
100
AcDbEntity
  8
0
100
AcDbLine
 62
7
  6
CONTINUOUS
 10
88.0898264886
 20
265.8825233011
 11
84.8435410636
 21
265.0123386946
  0
LINE
  5
24F
100
AcDbEntity
  8
0
100
AcDbLine
 62
7
  6
CONTINUOUS
 10
74.4302051321
 20
262.2209869052
 11
61.6435445869
 21
258.7934524409
  0
LINE
  5
250
100
AcDbEntity
  8
0
100
AcDbLine
 62
7
  6
CONTINUOUS
 10
5.9038606077
 20
219.1442649856
 11
5.9864949675
 21
219.1421682638
  0
LINE
  5
251
100
AcDbEntity
  8
0
100
AcDbLine
 62
7
  6
CONTINUOUS
 10
7.9396276925
 20
219.4390161545
 11
9.0256816958
 21
219.4114591778
  0
LINE
  5
252
100
AcDbEntity
  8
0
100
AcDbLine
 62
7
  6
CONTINUOUS
 10
5.9433501525
 20
219.6948637663
 11
4.8572961492
 21
219.7224207429
  0
LINE
  5
253
100
AcDbEntity
  8
0
100
AcDbLine
 62
7
  6
CONTINUOUS
 10
24.6938754161
 20
221.0050463224
 11
2.5505395737
 21
222.2476969499
  0
LINE
  5
254
100
AcDbEntity
  8
0
100
AcDbLine
 62
7
  6
CONTINUOUS
 10
80.9173698765
 20
195.6633808349
 11
59.9798667464
 21
198.5957534867
  0
LINE
  5
255
100
AcDbEntity
  8
0
100
AcDbLine
 62
7
  6
CONTINUOUS
 10
84.6329246836
 20
197.7404754884
 11
78.1564169767
 21
198.6475336969
  0
LINE
  5
256
100
AcDbEntity
  8
0
100
AcDbLine
 62
7
  6
CONTINUOUS
 10
90.4166760302
 20
199.2908417473
 11
72.8816118299
 21
201.7466905842
  0
LINE
  5
257
100
AcDbEntity
  8
0
100
AcDbLine
 62
7
  6
CONTINUOUS
 10
70.5367982197
 20
204.1855363904
 11
81.3444379555
 21
202.6718875568
  0
LINE
  5
258
100
AcDbEntity
  8
0
100
AcDbLine
 62
7
  6
CONTINUOUS
 10
15.0140019607
 20
206.9955859859
 11
5.4095789033
 21
208.4262639055
  0
LINE
  5
259
100
AcDbEntity
  8
0
100
AcDbLine
 62
7
  6
CONTINUOUS
 10
5.4415888581
 20
208.4344573589
 11
15.0068348378
 21
207.0096159294
  0
LINE
  5
25A
100
AcDbEntity
  8
0
100
AcDbLine
 62
7
  6
CONTINUOUS
 10
15.5576491767
 20
213.3629914302
 11
5.4415888581
 21
214.8698829993
  0
LINE
  5
25B
100
AcDbEntity
  8
0
100
AcDbLine
 62
7
  6
CONTINUOUS
 10
32.1730622603
 20
200.7012649104
 11
32.4698152431
 21
200.6290117571
  0
LINE
  5
25C
100
AcDbEntity
  8
0
100
AcDbLine
 62
7
  6
CONTINUOUS
 10
32.4154756597
 20
200.9264327405
 11
32.2854503285
 21
200.9580911929
  0
LINE
  5
25D
100
AcDbEntity
  8
0
100
AcDbLine
 62
7
  6
CONTINUOUS
 10
32.2986533601
 20
201.5258910446
 11
32.0019003773
 21
201.5981441978
  0
LINE
  5
25E
100
AcDbEntity
  8
0
100
AcDbLine
 62
7
  6
CONTINUOUS
 10
39.6273678216
 20
168.6752497204
 11
-8.2289530296
 21
196.3161718704
  0
LINE
  5
25F
100
AcDbEntity
  8
0
100
AcDbLine
 62
7
  6
CONTINUOUS
 10
5.8685854414
 20
219.5948072662
 11
5.5667479593
 21
219.4602918048
  0
LINE
  5
260
100
AcDbEntity
  8
0
100
AcDbLine
 62
7
  6
CONTINUOUS
 10
6.0137769971
 20
219.0829689061
 11
5.912203921
 21
219.0377023305
  0
LINE
  5
261
100
AcDbEntity
  8
0
100
AcDbLine
 62
7
  6
CONTINUOUS
 10
8.0143924035
 20
219.5390726545
 11
8.3162298857
 21
219.673588116
  0
LINE
  5
262
100
AcDbEntity
  8
0
100
AcDbLine
 62
7
  6
CONTINUOUS
 10
7.8692008479
 20
218.9477094786
 11
7.9022777994
 21
218.962450396
  0
LINE
  5
263
100
AcDbEntity
  8
0
100
AcDbLine
 62
7
  6
CONTINUOUS
 10
57.1168017577
 20
256.2207644149
 11
57.0912891519
 21
256.2157034223
  0
LINE
  5
264
100
AcDbEntity
  8
0
100
AcDbLine
 62
7
  6
CONTINUOUS
 10
61.643545661
 20
258.7934484339
 11
63.1195309295
 21
259.0739859337
  0
LINE
  5
265
100
AcDbEntity
  8
0
100
AcDbLine
 62
7
  6
CONTINUOUS
 10
89.5658128311
 20
266.1630567939
 11
88.0898275626
 21
265.8825192941
  0
LINE
  5
266
100
AcDbEntity
  8
0
100
AcDbLine
 62
7
  6
CONTINUOUS
 10
23.2053819746
 20
246.57152725
 11
20.6667849995
 21
246.2227751804
  0
LINE
  5
267
100
AcDbEntity
  8
0
100
AcDbLine
 62
7
  6
CONTINUOUS
 10
26.3494991003
 20
220.833989331
 11
24.6925844756
 21
221.0048865214
  0
LINE
  5
268
100
AcDbEntity
  8
0
100
AcDbLine
 62
7
  6
CONTINUOUS
 10
4.8572961492
 20
219.7224207429
 11
5.8685854414
 21
219.5948072662
  0
LINE
  5
269
100
AcDbEntity
  8
0
100
AcDbLine
 62
7
  6
CONTINUOUS
 10
9.0256816958
 20
219.4114591778
 11
8.0143924035
 21
219.5390726545
  0
LINE
  5
26A
100
AcDbEntity
  8
0
100
AcDbLine
 62
7
  6
CONTINUOUS
 10
26.3480481767
 20
220.8331820398
 11
32.2901982451
 21
220.0011645871
  0
LINE
  5
26B
100
AcDbEntity
  8
0
100
AcDbLine
 62
7
  6
CONTINUOUS
 10
33.9081194035
 20
220.9334753649
 11
32.2766256531
 21
221.1619719351
  0
LINE
  5
26C
100
AcDbEntity
  8
0
100
AcDbLine
 62
7
  6
CONTINUOUS
 10
6.8786933726
 20
219.1546268933
 11
7.1754463554
 21
219.08237374
  0
LINE
  5
26D
100
AcDbEntity
  8
0
100
AcDbLine
 62
7
  6
CONTINUOUS
 10
7.121106772
 20
219.3797947234
 11
6.9910814408
 21
219.4114531758
  0
LINE
  5
26E
100
AcDbEntity
  8
0
100
AcDbLine
 62
7
  6
CONTINUOUS
 10
7.0042844724
 20
219.9792530275
 11
6.7075314896
 21
220.0515061807
  0
LINE
  5
26F
100
AcDbEntity
  8
0
100
AcDbLine
 62
7
  6
CONTINUOUS
 10
39.6273678216
 20
176.0299266279
 11
-8.2289530296
 21
203.6708487779
  0
LINE
  5
270
100
AcDbEntity
  8
0
100
AcDbLine
 62
7
  6
CONTINUOUS
 10
27.0912335695
 20
183.6200017065
 11
36.9772503074
 21
177.910022039
  0
LINE
  5
271
100
AcDbEntity
  8
0
100
AcDbLine
 62
7
  6
CONTINUOUS
 10
-5.1297793692
 20
204.5015992693
 11
-2.5962094418
 21
203.0382563319
  0
LINE
  5
272
100
AcDbEntity
  8
0
100
AcDbLine
 62
7
  6
CONTINUOUS
 10
1.94924526
 20
204.256690386
 11
-0.5843246674
 21
205.7200333234
  0
LINE
  5
273
100
AcDbEntity
  8
0
100
AcDbLine
 62
7
  6
CONTINUOUS
 10
35.4686561341
 20
187.9746584675
 11
27.0912335695
 21
192.8133015374
  0
LINE
  5
274
100
AcDbEntity
  8
0
100
AcDbLine
 62
7
  6
CONTINUOUS
 10
48.705859961
 20
252.869721612
 11
47.7071506955
 21
252.8097972118
  0
LINE
  5
275
100
AcDbEntity
  8
0
100
AcDbLine
 62
7
  6
CONTINUOUS
 10
67.9979967118
 20
234.4744471943
 11
47.4512040178
 21
237.3520995678
  0
LINE
  5
276
100
AcDbEntity
  8
0
100
AcDbLine
 62
7
  6
CONTINUOUS
 10
2.5508897252
 20
222.247779408
 11
0.4506844097
 21
223.1087560456
  0
LINE
  5
277
100
AcDbEntity
  8
0
100
AcDbLine
 62
7
  6
CONTINUOUS
 10
27.0912335695
 20
199.2486901349
 11
32.6640080709
 21
196.0299590788
  0
LINE
  5
278
100
AcDbEntity
  8
0
100
AcDbLine
 62
7
  6
CONTINUOUS
 10
32.5170234854
 20
200.6017452026
 11
32.4698152431
 21
200.6290117571
  0
LINE
  5
279
100
AcDbEntity
  8
0
100
AcDbLine
 62
7
  6
CONTINUOUS
 10
31.1754540679
 20
201.3766107334
 11
30.6453284486
 21
201.6828013573
  0
LINE
  5
27A
100
AcDbEntity
  8
0
100
AcDbLine
 62
7
  6
CONTINUOUS
 10
31.4718484077
 20
201.9042929885
 11
32.0019003773
 21
201.5981441978
  0
LINE
  5
27B
100
AcDbEntity
  8
0
100
AcDbLine
 62
7
  6
CONTINUOUS
 10
0.3827951746
 20
222.3596054663
 11
0.4588801158
 21
222.3156598972
  0
LINE
  5
27C
100
AcDbEntity
  8
0
100
AcDbLine
 62
7
  6
CONTINUOUS
 10
7.7054983261
 20
218.7762261204
 11
7.1754463554
 21
219.08237374
  0
LINE
  5
27D
100
AcDbEntity
  8
0
100
AcDbLine
 62
7
  6
CONTINUOUS
 10
5.8810851802
 20
219.8299727163
 11
5.3509595608
 21
220.1361633402
  0
LINE
  5
27E
100
AcDbEntity
  8
0
100
AcDbLine
 62
7
  6
CONTINUOUS
 10
8.0018926648
 20
219.3039072044
 11
8.5320182837
 21
218.9977163938
  0
LINE
  5
27F
100
AcDbEntity
  8
0
100
AcDbLine
 62
7
  6
CONTINUOUS
 10
6.1774795199
 20
220.3576549714
 11
6.7075314896
 21
220.0515061807
  0
LINE
  5
280
100
AcDbEntity
  8
0
100
AcDbLine
 62
7
  6
CONTINUOUS
 10
0.1084068299
 20
218.6697626164
 11
1.9454624382
 21
217.4089712227
  0
LINE
  5
281
100
AcDbEntity
  8
0
100
AcDbLine
 62
7
  6
CONTINUOUS
 10
3.3722812893
 20
200.8553084566
 11
5.4095789033
 21
199.2329177712
  0
LINE
  5
282
100
AcDbEntity
  8
0
100
AcDbLine
 62
7
  6
CONTINUOUS
 10
0.2922699272
 20
209.5258097225
 11
2.9584082028
 21
207.4026452546
  0
LINE
  5
283
100
AcDbEntity
  8
0
100
AcDbLine
 62
7
  6
CONTINUOUS
 10
15.0140019607
 20
197.8022398516
 11
27.0912335695
 21
188.1846032658
  0
LINE
  5
284
100
AcDbEntity
  8
0
100
AcDbLine
 62
7
  6
CONTINUOUS
 10
5.4095789033
 20
208.4262639055
 11
3.3722812893
 21
210.0486545909
  0
LINE
  5
285
100
AcDbEntity
  8
0
100
AcDbLine
 62
7
  6
CONTINUOUS
 10
3.4045745465
 20
210.057746242
 11
5.4415888581
 21
208.4344573589
  0
LINE
  5
286
100
AcDbEntity
  8
0
100
AcDbLine
 62
7
  6
CONTINUOUS
 10
-9.5306057089
 20
205.3323497607
 11
-9.5306057089
 21
197.9776728533
  0
LINE
  5
287
100
AcDbEntity
  8
0
100
AcDbLine
 62
7
  6
CONTINUOUS
 10
-8.2289530296
 20
203.6708487779
 11
-8.2289530296
 21
196.3161718704
  0
LINE
  5
288
100
AcDbEntity
  8
0
100
AcDbLine
 62
7
  6
CONTINUOUS
 10
7.3366350775
 20
220.3870211361
 11
7.0042844724
 21
219.9792530275
  0
LINE
  5
289
100
AcDbEntity
  8
0
100
AcDbLine
 62
7
  6
CONTINUOUS
 10
6.9910814408
 20
219.4114531758
 11
7.2671544429
 21
219.7501730824
  0
LINE
  5
28A
100
AcDbEntity
  8
0
100
AcDbLine
 62
7
  6
CONTINUOUS
 10
6.5463427675
 20
218.7468587847
 11
6.8786933726
 21
219.1546268933
  0
LINE
  5
28B
100
AcDbEntity
  8
0
100
AcDbLine
 62
7
  6
CONTINUOUS
 10
31.1629543292
 20
201.1414452833
 11
30.861116847
 21
201.0069298219
  0
LINE
  5
28C
100
AcDbEntity
  8
0
100
AcDbLine
 62
7
  6
CONTINUOUS
 10
31.3081458848
 20
200.6296069232
 11
31.2065728087
 21
200.5843403476
  0
LINE
  5
28D
100
AcDbEntity
  8
0
100
AcDbLine
 62
7
  6
CONTINUOUS
 10
47.2615134819
 20
238.6176309733
 11
47.9892156786
 21
238.51571361
  0
LINE
  5
28E
100
AcDbEntity
  8
0
100
AcDbLine
 62
7
  6
CONTINUOUS
 10
75.3271601908
 20
238.856224675
 11
86.1989346014
 21
237.3335935494
  0
LINE
  5
28F
100
AcDbEntity
  8
0
100
AcDbLine
 62
7
  6
CONTINUOUS
 10
2.9911885686
 20
216.5698869259
 11
1.8879701592
 21
217.4484288037
  0
LINE
  5
290
100
AcDbEntity
  8
0
100
AcDbLine
 62
7
  6
CONTINUOUS
 10
15.0068348378
 20
207.0096159294
 11
27.0912335695
 21
197.3779494001
  0
LINE
  5
291
100
AcDbEntity
  8
0
100
AcDbLine
 62
7
  6
CONTINUOUS
 10
5.4415888581
 20
214.8698829993
 11
3.4045745465
 21
216.4931718823
  0
LINE
  5
292
100
AcDbEntity
  8
0
100
AcDbLine
 62
7
  6
CONTINUOUS
 10
-0.5843246674
 20
205.7200333234
 11
-0.5843246674
 21
202.5786288289
  0
LINE
  5
293
100
AcDbEntity
  8
0
100
AcDbLine
 62
7
  6
CONTINUOUS
 10
0.2922699272
 20
209.5258097225
 11
0.2922699272
 21
218.543575358
  0
LINE
  5
294
100
AcDbEntity
  8
0
100
AcDbLine
 62
7
  6
CONTINUOUS
 10
1.94924526
 20
203.0547468732
 11
1.94924526
 21
204.256690386
  0
LINE
  5
295
100
AcDbEntity
  8
0
100
AcDbLine
 62
7
  6
CONTINUOUS
 10
2.9584082028
 20
201.552516843
 11
2.9584082028
 21
210.7458629773
  0
LINE
  5
296
100
AcDbEntity
  8
0
100
AcDbLine
 62
7
  6
CONTINUOUS
 10
2.9911885686
 20
210.7546499341
 11
2.9911885686
 21
217.1899922281
  0
LINE
  5
297
100
AcDbEntity
  8
0
100
AcDbLine
 62
7
  6
CONTINUOUS
 10
3.3722812893
 20
210.0486545909
 11
3.3722812893
 21
200.8553084566
  0
LINE
  5
298
100
AcDbEntity
  8
0
100
AcDbLine
 62
7
  6
CONTINUOUS
 10
3.4045745465
 20
216.4931718823
 11
3.4045745465
 21
210.0577925455
  0
LINE
  5
299
100
AcDbEntity
  8
0
100
AcDbLine
 62
7
  6
CONTINUOUS
 10
5.4095789033
 20
199.2329177712
 11
5.4095789033
 21
208.4262639055
  0
LINE
  5
29A
100
AcDbEntity
  8
0
100
AcDbLine
 62
7
  6
CONTINUOUS
 10
5.4415888581
 20
208.4344944017
 11
5.4415888581
 21
214.8698829993
  0
LINE
  5
29B
100
AcDbEntity
  8
0
100
AcDbLine
 62
7
  6
CONTINUOUS
 10
3.7016509499
 20
218.2043305259
 11
3.6906218775
 21
217.8541843863
  0
LINE
  5
29C
100
AcDbEntity
  8
0
100
AcDbLine
 62
7
  6
CONTINUOUS
 10
3.3725709996
 20
219.3217558735
 11
3.3027372627
 21
217.4834974011
  0
LINE
  5
29D
100
AcDbEntity
  8
0
100
AcDbLine
 62
7
  6
CONTINUOUS
 10
0.3827951746
 20
222.3596054666
 11
0.1083779963
 21
218.6698089933
  0
LINE
  5
29E
100
AcDbEntity
  8
0
100
AcDbLine
 62
7
  6
CONTINUOUS
 10
0.1084067629
 20
218.6697928983
 11
0.1149520341
 21
218.7365430016
  0
LINE
  5
29F
100
AcDbEntity
  8
0
100
AcDbLine
 62
7
  6
CONTINUOUS
 10
2.550510783
 20
222.247687947
 11
1.9454705241
 21
217.4090003056
  0
LINE
  5
2A0
100
AcDbEntity
  8
0
100
AcDbLine
 62
7
  6
CONTINUOUS
 10
6.6146857174
 20
219.1638736032
 11
6.5463427675
 21
218.7468587847
  0
LINE
  5
2A1
100
AcDbEntity
  8
0
100
AcDbLine
 62
7
  6
CONTINUOUS
 10
7.2682921276
 20
219.9700063176
 11
7.3366350775
 21
220.3870211361
  0
LINE
  5
2A2
100
AcDbEntity
  8
0
100
AcDbLine
 62
7
  6
CONTINUOUS
 10
7.4350089972
 20
218.9324554503
 11
7.6969127923
 21
220.0312941673
  0
LINE
  5
2A3
100
AcDbEntity
  8
0
100
AcDbLine
 62
7
  6
CONTINUOUS
 10
56.9924895528
 20
256.1079527913
 11
56.9960364554
 21
256.1072923941
  0
LINE
  5
2A4
100
AcDbEntity
  8
0
100
AcDbLine
 62
7
  6
CONTINUOUS
 10
98.0769358696
 20
194.6860544457
 11
101.6108410286
 21
192.6449364565
  0
LINE
  5
2A5
100
AcDbEntity
  8
0
100
AcDbLine
 62
7
  6
CONTINUOUS
 10
5.9864949675
 20
219.1421682638
 11
6.0137769971
 21
219.0829689061
  0
LINE
  5
2A6
100
AcDbEntity
  8
0
100
AcDbLine
 62
7
  6
CONTINUOUS
 10
5.8810851802
 20
219.8299727163
 11
5.9433501525
 21
219.6948637663
  0
LINE
  5
2A7
100
AcDbEntity
  8
0
100
AcDbLine
 62
7
  6
CONTINUOUS
 10
7.8964828775
 20
218.8885101208
 11
7.8692008479
 21
218.9477094786
  0
LINE
  5
2A8
100
AcDbEntity
  8
0
100
AcDbLine
 62
7
  6
CONTINUOUS
 10
8.0018926648
 20
219.3039072044
 11
7.9396276925
 21
219.4390161545
  0
LINE
  5
2A9
100
AcDbEntity
  8
0
100
AcDbLine
 62
7
  6
CONTINUOUS
 10
5.7000933252
 20
218.9723183675
 11
5.5667479593
 21
219.4602918048
  0
LINE
  5
2AA
100
AcDbEntity
  8
0
100
AcDbLine
 62
7
  6
CONTINUOUS
 10
6.0158754488
 20
219.056965497
 11
6.0137769971
 21
219.0829689061
  0
LINE
  5
2AB
100
AcDbEntity
  8
0
100
AcDbLine
 62
7
  6
CONTINUOUS
 10
5.912203921
 20
219.0377023305
 11
5.8685854414
 21
219.5948072662
  0
LINE
  5
2AC
100
AcDbEntity
  8
0
100
AcDbLine
 62
7
  6
CONTINUOUS
 10
5.9864949675
 20
219.1421682638
 11
5.9433501525
 21
219.6948637663
  0
LINE
  5
2AD
100
AcDbEntity
  8
0
100
AcDbLine
 62
7
  6
CONTINUOUS
 10
10.5104068454
 20
219.3217558735
 11
10.5802405823
 21
217.4834974011
  0
LINE
  5
2AE
100
AcDbEntity
  8
0
100
AcDbLine
 62
7
  6
CONTINUOUS
 10
9.5546301391
 20
220.0055480945
 11
9.54644782
 21
220.2608970824
  0
LINE
  5
2AF
100
AcDbEntity
  8
0
100
AcDbLine
 62
7
  6
CONTINUOUS
 10
6.6165137549
 20
218.832953079
 11
6.6146857174
 21
219.1638736032
  0
LINE
  5
2B0
100
AcDbEntity
  8
0
100
AcDbLine
 62
7
  6
CONTINUOUS
 10
15.0140019607
 20
197.8022398516
 11
15.0140019607
 21
206.9955859859
  0
LINE
  5
2B1
100
AcDbEntity
  8
0
100
AcDbLine
 62
7
  6
CONTINUOUS
 10
7.2653443899
 20
219.400419052
 11
7.2682921276
 21
219.9700063176
  0
LINE
  5
2B2
100
AcDbEntity
  8
0
100
AcDbLine
 62
7
  6
CONTINUOUS
 10
7.118725959
 20
219.0961839719
 11
7.121106772
 21
219.3797947234
  0
LINE
  5
2B3
100
AcDbEntity
  8
0
100
AcDbLine
 62
7
  6
CONTINUOUS
 10
6.9910814408
 20
219.4114531758
 11
7.0042844724
 21
219.9792530275
  0
LINE
  5
2B4
100
AcDbEntity
  8
0
100
AcDbLine
 62
7
  6
CONTINUOUS
 10
6.645292599
 20
218.8682624621
 11
6.7075314896
 21
220.0515061807
  0
LINE
  5
2B5
100
AcDbEntity
  8
0
100
AcDbLine
 62
7
  6
CONTINUOUS
 10
7.9677676167
 20
218.8241585281
 11
8.0018926648
 21
219.3039072044
  0
LINE
  5
2B6
100
AcDbEntity
  8
0
100
AcDbLine
 62
7
  6
CONTINUOUS
 10
7.8964828775
 20
218.8885101208
 11
7.9396276925
 21
219.4390161545
  0
LINE
  5
2B7
100
AcDbEntity
  8
0
100
AcDbLine
 62
7
  6
CONTINUOUS
 10
8.006265519
 20
219.4373253205
 11
8.0143924035
 21
219.5390726545
  0
LINE
  5
2B8
100
AcDbEntity
  8
0
100
AcDbLine
 62
7
  6
CONTINUOUS
 10
7.8571963202
 20
218.8015872661
 11
7.8692008479
 21
218.9477094786
  0
LINE
  5
2B9
100
AcDbEntity
  8
0
100
AcDbLine
 62
7
  6
CONTINUOUS
 10
31.2808638553
 20
200.6888062809
 11
31.3081458848
 21
200.6296069232
  0
LINE
  5
2BA
100
AcDbEntity
  8
0
100
AcDbLine
 62
7
  6
CONTINUOUS
 10
31.1754540679
 20
201.3766107334
 11
31.2377190402
 21
201.2415017834
  0
LINE
  5
2BB
100
AcDbEntity
  8
0
100
AcDbLine
 62
7
  6
CONTINUOUS
 10
24.6921257343
 20
221.0048212733
 11
26.9245491083
 21
197.5208645881
  0
LINE
  5
2BC
100
AcDbEntity
  8
0
100
AcDbLine
 62
7
  6
CONTINUOUS
 10
31.3102443365
 20
200.6036035141
 11
31.3081458848
 21
200.6296069232
  0
LINE
  5
2BD
100
AcDbEntity
  8
0
100
AcDbLine
 62
7
  6
CONTINUOUS
 10
31.2065728087
 20
200.5843403476
 11
31.1629543292
 21
201.1414452833
  0
LINE
  5
2BE
100
AcDbEntity
  8
0
100
AcDbLine
 62
7
  6
CONTINUOUS
 10
31.2808638553
 20
200.6888062809
 11
31.2377190402
 21
201.2415017834
  0
LINE
  5
2BF
100
AcDbEntity
  8
0
100
AcDbLine
 62
7
  6
CONTINUOUS
 10
26.3490729546
 20
220.8339008503
 11
27.192254576
 21
202.3454377056
  0
LINE
  5
2C0
100
AcDbEntity
  8
0
100
AcDbLine
 62
7
  6
CONTINUOUS
 10
27.0912335695
 20
183.6200017065
 11
27.0912335695
 21
199.2486901349
  0
LINE
  5
2C1
100
AcDbEntity
  8
0
100
AcDbLine
 62
7
  6
CONTINUOUS
 10
27.0912335695
 20
199.2486901349
 11
27.2496708349
 21
204.1055039216
  0
LINE
  5
2C2
100
AcDbEntity
  8
0
100
AcDbLine
 62
7
  6
CONTINUOUS
 10
28.6669398873
 20
200.8683938906
 11
28.5971061504
 21
199.0301354182
  0
LINE
  5
2C3
100
AcDbEntity
  8
0
100
AcDbLine
 62
7
  6
CONTINUOUS
 10
32.5032824953
 20
201.7769549335
 11
32.2986533601
 21
201.5258910446
  0
LINE
  5
2C4
100
AcDbEntity
  8
0
100
AcDbLine
 62
7
  6
CONTINUOUS
 10
32.2854503285
 20
200.9580911929
 11
32.5096408031
 21
201.2331553101
  0
LINE
  5
2C5
100
AcDbEntity
  8
0
100
AcDbLine
 62
7
  6
CONTINUOUS
 10
31.8407116552
 20
200.2934968018
 11
32.1730622603
 21
200.7012649104
  0
LINE
  5
2C6
100
AcDbEntity
  8
0
100
AcDbLine
 62
7
  6
CONTINUOUS
 10
30.994462213
 20
200.5189563846
 11
30.861116847
 21
201.0069298219
  0
LINE
  5
2C7
100
AcDbEntity
  8
0
100
AcDbLine
 62
7
  6
CONTINUOUS
 10
32.5625653356
 20
196.7067401676
 11
32.6640080709
 21
196.0299590788
  0
LINE
  5
2C8
100
AcDbEntity
  8
0
100
AcDbLine
 62
7
  6
CONTINUOUS
 10
34.194059086
 20
196.4782435973
 11
36.9772503074
 21
177.910022039
  0
LINE
  5
2C9
100
AcDbEntity
  8
0
100
AcDbLine
 62
7
  6
CONTINUOUS
 10
42.2519352182
 20
212.3395146708
 11
43.8887919877
 21
190.2317198082
  0
LINE
  5
2CA
100
AcDbEntity
  8
0
100
AcDbLine
 62
7
  6
CONTINUOUS
 10
44.1380058561
 20
190.2985720738
 11
42.5710096719
 21
211.4628424127
  0
LINE
  5
2CB
100
AcDbEntity
  8
0
100
AcDbLine
 62
7
  6
CONTINUOUS
 10
32.2766256531
 20
221.1619719351
 11
32.5625653356
 21
196.7067401676
  0
LINE
  5
2CC
100
AcDbEntity
  8
0
100
AcDbLine
 62
7
  6
CONTINUOUS
 10
34.194059086
 20
196.4782435973
 11
33.9081194035
 21
220.9334753649
  0
LINE
  5
2CD
100
AcDbEntity
  8
0
100
AcDbLine
 62
7
  6
CONTINUOUS
 10
31.9108826426
 20
200.3795910961
 11
31.9090546051
 21
200.7105116203
  0
LINE
  5
2CE
100
AcDbEntity
  8
0
100
AcDbLine
 62
7
  6
CONTINUOUS
 10
39.6273678216
 20
168.6752497204
 11
39.6273678216
 21
176.0299266279
  0
LINE
  5
2CF
100
AcDbEntity
  8
0
100
AcDbLine
 62
7
  6
CONTINUOUS
 10
32.4130948468
 20
200.642821989
 11
32.4154756597
 21
200.9264327405
  0
LINE
  5
2D0
100
AcDbEntity
  8
0
100
AcDbLine
 62
7
  6
CONTINUOUS
 10
32.2854503285
 20
200.9580911929
 11
32.2986533601
 21
201.5258910446
  0
LINE
  5
2D1
100
AcDbEntity
  8
0
100
AcDbLine
 62
7
  6
CONTINUOUS
 10
31.9396614868
 20
200.4149004792
 11
32.0019003773
 21
201.5981441978
  0
LINE
  5
2D2
100
AcDbEntity
  8
0
100
AcDbLine
 62
7
  6
CONTINUOUS
 10
31.9090546051
 20
200.7105116203
 11
31.8407116552
 21
200.2934968018
  0
LINE
  5
2D3
100
AcDbEntity
  8
0
100
AcDbLine
 62
7
  6
CONTINUOUS
 10
90.8251740211
 20
240.456524225
 11
93.6275278669
 21
238.8379366881
  0
LINE
  5
2D4
100
AcDbEntity
  8
0
100
AcDbLine
 62
7
  6
CONTINUOUS
 10
43.4509760995
 20
178.3641592747
 11
43.4509760995
 21
176.5864598475
  0
LINE
  5
2D5
100
AcDbEntity
  8
0
100
AcDbLine
 62
7
  6
CONTINUOUS
 10
47.1699844919
 20
176.7424728957
 11
47.1699844919
 21
179.3610598645
  0
LINE
  5
2D6
100
AcDbEntity
  8
0
100
AcDbLine
 62
7
  6
CONTINUOUS
 10
50.048331688
 20
175.2525227152
 11
50.048331688
 21
167.8978458077
  0
LINE
  5
2D7
100
AcDbEntity
  8
0
100
AcDbLine
 62
7
  6
CONTINUOUS
 10
103.1220655716
 20
237.6222894177
 11
101.949412327
 21
238.2995921536
  0
LINE
  5
2D8
100
AcDbEntity
  8
0
100
AcDbLine
 62
7
  6
CONTINUOUS
 10
47.4512040178
 20
237.3520995678
 11
47.2615134819
 21
238.6176309733
  0
LINE
  5
2D9
100
AcDbEntity
  8
0
100
AcDbLine
 62
7
  6
CONTINUOUS
 10
56.9924895334
 20
256.1094143081
 11
56.9924895334
 21
254.0309191171
  0
LINE
  5
2DA
100
AcDbEntity
  8
0
100
AcDbLine
 62
7
  6
CONTINUOUS
 10
58.3809190579
 20
257.2697072249
 11
58.3809190579
 21
254.6024491189
  0
LINE
  5
2DB
100
AcDbEntity
  8
0
100
AcDbLine
 62
7
  6
CONTINUOUS
 10
61.7804395361
 20
255.2112278034
 11
61.7804395361
 21
254.6894900617
  0
LINE
  5
2DC
100
AcDbEntity
  8
0
100
AcDbLine
 62
7
  6
CONTINUOUS
 10
68.2331396323
 20
250.247704075
 11
68.2331396323
 21
255.7637117555
  0
LINE
  5
2DD
100
AcDbEntity
  8
0
100
AcDbLine
 62
7
  6
CONTINUOUS
 10
68.2331396323
 20
250.6883909164
 11
67.8737025747
 21
248.7055940905
  0
LINE
  5
2DE
100
AcDbEntity
  8
0
100
AcDbLine
 62
7
  6
CONTINUOUS
 10
90.8251740211
 20
244.1338626787
 11
90.8251740211
 21
240.456524225
  0
LINE
  5
2DF
100
AcDbEntity
  8
0
100
AcDbLine
 62
7
  6
CONTINUOUS
 10
90.9716388915
 20
191.1023334767
 11
90.9716388915
 21
189.3246340495
  0
LINE
  5
2E0
100
AcDbEntity
  8
0
100
AcDbLine
 62
7
  6
CONTINUOUS
 10
93.6275278669
 20
238.8379366881
 11
93.6275278669
 21
240.676605915
  0
LINE
  5
2E1
100
AcDbEntity
  8
0
100
AcDbLine
 62
7
  6
CONTINUOUS
 10
94.6906472839
 20
189.4806470977
 11
94.6906472839
 21
192.0992340664
  0
LINE
  5
2E2
100
AcDbEntity
  8
0
100
AcDbLine
 62
7
  6
CONTINUOUS
 10
99.6351102536
 20
181.1898536706
 11
99.6351102536
 21
188.5445305781
  0
LINE
  5
2E3
100
AcDbEntity
  8
0
100
AcDbLine
 62
7
  6
CONTINUOUS
 10
102.9124937079
 20
190.9834354737
 11
102.9124937079
 21
183.6287585662
  0
LINE
  5
2E4
100
AcDbEntity
  8
0
100
AcDbLine
 62
7
  6
CONTINUOUS
 10
103.1220655717
 20
237.6222894177
 11
103.1220655717
 21
239.5457304547
  0
LINE
  5
2E5
100
AcDbEntity
  8
0
100
AcDbLine
 62
7
  6
CONTINUOUS
 10
101.949412327
 20
238.2995921536
 11
101.7704871733
 21
239.3585568232
  0
LINE
  5
2E6
100
AcDbEntity
  8
0
100
AcDbLine
 62
7
  6
CONTINUOUS
 10
98.134277205
 20
194.3034984032
 11
97.0428038065
 21
201.5853264471
  0
LINE
  5
2E7
100
AcDbEntity
  8
0
100
AcDbLine
 62
7
  6
CONTINUOUS
 10
106.4278508093
 20
238.5084232752
 11
106.4278508093
 21
240.1132216093
  0
LINE
  5
2E8
100
AcDbEntity
  8
0
100
AcDbLine
 62
7
  6
CONTINUOUS
 10
118.2331396323
 20
250.4808398126
 11
118.2331396323
 21
255.7637117555
  0
LINE
  5
2E9
100
AcDbEntity
  8
0
100
AcDbLine
 62
7
  6
CONTINUOUS
 10
120.0738097685
 20
247.7656767752
 11
120.0738097685
 21
245.9270075484
  0
ARC
  5
2EA
100
AcDbEntity
  8
0
100
AcDbCircle
 62
7
  6
CONTINUOUS
 10
-635.6678888919
 20
281.6207948932
 40
638.8852520486
100
AcDbArc
 50
354.3513352359
 51
354.6737966594
  0
ARC
  5
2EB
100
AcDbEntity
  8
0
100
AcDbCircle
 62
7
  6
CONTINUOUS
 10
93.3405704447
 20
311.2948035472
 40
70.6187806563
100
AcDbArc
 50
270.2328204237
 51
276.6085988499
  0
ARC
  5
2EC
100
AcDbEntity
  8
0
100
AcDbCircle
 62
7
  6
CONTINUOUS
 10
-49.2722762714
 20
244.1374837693
 40
62.3881070829
100
AcDbArc
 50
336.018307741
 51
336.1970823424
  0
ARC
  5
2ED
100
AcDbEntity
  8
0
100
AcDbCircle
 62
7
  6
CONTINUOUS
 10
69.6631928111
 20
221.7043340279
 40
29.0398678339
100
AcDbArc
 50
187.1795522451
 51
188.5233614166
  0
ARC
  5
2EE
100
AcDbEntity
  8
0
100
AcDbCircle
 62
7
  6
CONTINUOUS
 10
61.8895757286
 20
232.0943798734
 40
24.5939383553
100
AcDbArc
 50
101.2505872331
 51
101.5156479194
  0
ARC
  5
2EF
100
AcDbEntity
  8
0
100
AcDbCircle
 62
7
  6
CONTINUOUS
 10
24.4703728964
 20
220.5669542775
 40
24.1541921576
100
AcDbArc
 50
173.9608852537
 51
175.7437668439
  0
ARC
  5
2F0
100
AcDbEntity
  8
0
100
AcDbCircle
 62
7
  6
CONTINUOUS
 10
48.9490803955
 20
232.2857218981
 40
20.558278859
100
AcDbArc
 50
93.4623171653
 51
105.3200316973
  0
ARC
  5
2F1
100
AcDbEntity
  8
0
100
AcDbCircle
 62
7
  6
CONTINUOUS
 10
64.1909384369
 20
218.3509373244
 40
20.5087086898
100
AcDbArc
 50
222.6020783024
 51
226.5415103707
  0
ARC
  5
2F2
100
AcDbEntity
  8
0
100
AcDbCircle
 62
7
  6
CONTINUOUS
 10
61.2094235183
 20
219.6506589457
 40
19.2945658142
100
AcDbArc
 50
301.4867833879
 51
305.3482339973
  0
ARC
  5
2F3
100
AcDbEntity
  8
0
100
AcDbCircle
 62
7
  6
CONTINUOUS
 10
62.2422602092
 20
226.6002891495
 40
19.2034419766
100
AcDbArc
 50
38.8510487999
 51
42.3591652659
  0
ARC
  5
2F4
100
AcDbEntity
  8
0
100
AcDbCircle
 62
7
  6
CONTINUOUS
 10
62.3111626485
 20
215.2472026324
 40
17.8138121181
100
AcDbArc
 50
257.6427556663
 51
262.0299241839
  0
ARC
  5
2F5
100
AcDbEntity
  8
0
100
AcDbCircle
 62
7
  6
CONTINUOUS
 10
83.3913167184
 20
213.3477776272
 40
15.6566110761
100
AcDbArc
 50
262.0375854174
 51
274.548472955
  0
ARC
  5
2F6
100
AcDbEntity
  8
0
100
AcDbCircle
 62
7
  6
CONTINUOUS
 10
48.6622988212
 20
266.816144647
 40
13.6073022327
100
AcDbArc
 50
313.7712989888
 51
315.147768691
  0
ARC
  5
2F7
100
AcDbEntity
  8
0
100
AcDbCircle
 62
7
  6
CONTINUOUS
 10
54.940507015
 20
260.1147442685
 40
6.4978329343
100
AcDbArc
 50
301.9696979973
 51
304.1546939593
  0
ARC
  5
2F8
100
AcDbEntity
  8
0
100
AcDbCircle
 62
7
  6
CONTINUOUS
 10
61.7735380248
 20
252.3576529991
 40
5.9697688239
100
AcDbArc
 50
124.6317568136
 51
125.4761660846
  0
ARC
  5
2F9
100
AcDbEntity
  8
0
100
AcDbCircle
 62
7
  6
CONTINUOUS
 10
88.590280698
 20
198.2577342585
 40
3.9910178225
100
AcDbArc
 50
187.446809443
 51
188.5240316452
  0
ARC
  5
2FA
100
AcDbEntity
  8
0
100
AcDbCircle
 62
7
  6
CONTINUOUS
 10
86.4815405368
 20
198.6253374828
 40
3.9910178226
100
AcDbArc
 50
7.4468094431
 51
8.5240316452
  0
ARC
  5
2FB
100
AcDbEntity
  8
0
100
AcDbCircle
 62
7
  6
CONTINUOUS
 10
86.5067997936
 20
198.6291241786
 40
3.9654763051
100
AcDbArc
 50
8.5240196037
 51
9.6058624052
  0
ARC
  5
2FC
100
AcDbEntity
  8
0
100
AcDbCircle
 62
7
  6
CONTINUOUS
 10
-2.7946129109
 20
222.6198654668
 40
3.2676897383
100
AcDbArc
 50
354.6582605519
 51
355.3382859112
  0
ARC
  5
2FD
100
AcDbEntity
  8
0
100
AcDbCircle
 62
7
  6
CONTINUOUS
 10
7.208406967
 20
216.7449924517
 40
2.2932138292
100
AcDbArc
 50
73.2594627768
 51
74.8160381667
  0
ARC
  5
2FE
100
AcDbEntity
  8
0
100
AcDbCircle
 62
7
  6
CONTINUOUS
 10
63.4388724859
 20
253.1784881723
 40
1.9272521819
100
AcDbArc
 50
72.8624080868
 51
75.7827652191
  0
ARC
  5
2FF
100
AcDbEntity
  8
0
100
AcDbCircle
 62
7
  6
CONTINUOUS
 10
61.9390349926
 20
248.239163136
 40
1.0990055055
100
AcDbArc
 50
237.9152175152
 51
239.9778035089
  0
ARC
  5
300
100
AcDbEntity
  8
0
100
AcDbCircle
 62
7
  6
CONTINUOUS
 10
60.8858460782
 20
250.0707372172
 40
1.0061637287
100
AcDbArc
 50
59.9845056358
 51
61.5535264714
  0
ARC
  5
301
100
AcDbEntity
  8
0
100
AcDbCircle
 62
7
  6
CONTINUOUS
 10
3.5855948081
 20
210.7452694389
 40
0.627191235
100
AcDbArc
 50
170.7367925895
 51
178.3382630486
  0
ARC
  5
302
100
AcDbEntity
  8
0
100
AcDbCircle
 62
7
  6
CONTINUOUS
 10
3.5762942698
 20
210.7458352165
 40
0.617878272
100
AcDbArc
 50
178.3656958893
 51
179.9974246159
  0
ARC
  5
303
100
AcDbEntity
  8
0
100
AcDbCircle
 62
7
  6
CONTINUOUS
 10
10.0154407919
 20
217.462105006
 40
0.5652031065
100
AcDbArc
 50
354.6291391845
 51
2.1691073724
  0
ARC
  5
304
100
AcDbEntity
  8
0
100
AcDbCircle
 62
7
  6
CONTINUOUS
 10
61.7709532482
 20
247.723753721
 40
0.5492444238
100
AcDbArc
 50
285.0385109945
 51
295.3740175537
  0
ARC
  5
305
100
AcDbEntity
  8
0
100
AcDbCircle
 62
7
  6
CONTINUOUS
 10
61.0054978789
 20
250.5804357824
 40
0.5432862823
100
AcDbArc
 50
103.6008625039
 51
115.3740175536
  0
SPLINE
  5
306
100
AcDbEntity
  8
0
100
AcDbSpline
 62
7
  6
CONTINUOUS
 70
0
 71
3
 72
11
 73
7
 74
0
 42
0.0000001
 43
0.0000001
 44
0.0000000001
 40
0.0
 40
0.0
 40
0.0
 40
0.0
 40
0.241018736
 40
0.4842115308
 40
0.7358971751
 40
1.0
 40
1.0
 40
1.0
 40
1.0
 10
10.0929423762
 20
220.0684687322
 30
0.0
 10
10.0813457865
 20
220.0781778454
 30
0.0
 10
10.0553832165
 20
220.0947347594
 30
0.0
 10
10.0108999208
 20
220.1088313942
 30
0.0
 10
9.9629231197
 20
220.111699678
 30
0.0
 10
9.930714473
 20
220.1063595613
 30
0.0
 10
9.9147066264
 20
220.1020685702
 30
0.0
  0
SPLINE
  5
307
100
AcDbEntity
  8
0
100
AcDbSpline
 62
7
  6
CONTINUOUS
 70
0
 71
3
 72
12
 73
8
 74
0
 42
0.0000001
 43
0.0000001
 44
0.0000000001
 40
0.0
 40
0.0
 40
0.0
 40
0.0
 40
0.1215339832
 40
0.2426208045
 40
0.4869166062
 40
0.737434843
 40
1.0
 40
1.0
 40
1.0
 40
1.0
 10
10.5104068454
 20
219.3217558735
 30
0.0
 10
10.5090529537
 20
219.3573948498
 30
0.0
 10
10.5016325349
 20
219.4284592603
 30
0.0
 10
10.4683414492
 20
219.5677479615
 30
0.0
 10
10.3938236924
 20
219.734404633
 30
0.0
 10
10.2612679412
 20
219.9143929203
 30
0.0
 10
10.1520265788
 20
220.0190128275
 30
0.0
 10
10.0929416607
 20
220.0684680014
 30
0.0
  0
SPLINE
  5
308
100
AcDbEntity
  8
0
100
AcDbSpline
 62
7
  6
CONTINUOUS
 70
0
 71
3
 72
11
 73
7
 74
0
 42
0.0000001
 43
0.0000001
 44
0.0000000001
 40
0.0
 40
0.0
 40
0.0
 40
0.0
 40
0.2341590673
 40
0.4741975827
 40
0.728138743
 40
1.0
 40
1.0
 40
1.0
 40
1.0
 10
9.4281241847
 20
220.4537354942
 30
0.0
 10
9.4453376774
 20
220.4466132555
 30
0.0
 10
9.4781626747
 20
220.4264719533
 30
0.0
 10
9.5157349428
 20
220.3811905913
 30
0.0
 10
9.5398218865
 20
220.3244077842
 30
0.0
 10
9.5457551044
 20
220.2825141793
 30
0.0
 10
9.54644782
 20
220.2608970824
 30
0.0
  0
SPLINE
  5
309
100
AcDbEntity
  8
0
100
AcDbSpline
 62
7
  6
CONTINUOUS
 70
0
 71
3
 72
26
 73
22
 74
0
 42
0.0000001
 43
0.0000001
 44
0.0000000001
 40
0.0
 40
0.0
 40
0.0
 40
0.0
 40
0.0610299083
 40
0.1269639244
 40
0.197034038
 40
0.2701929652
 40
0.3452279066
 40
0.4208288444
 40
0.4956587479
 40
0.568418186
 40
0.6379140002
 40
0.7031369535
 40
0.7633583246
 40
0.8182571694
 40
0.8680913768
 40
0.891414399
 40
0.9139109065
 40
0.9358181521
 40
0.9573691686
 40
0.9786602907
 40
1.0
 40
1.0
 40
1.0
 40
1.0
 10
9.4281342251
 20
220.4537569133
 30
0.0
 10
9.301748678
 20
220.5061646487
 30
0.0
 10
9.0328227978
 20
220.6009720674
 30
0.0
 10
8.6048567324
 20
220.7119825929
 30
0.0
 10
8.1432022811
 20
220.7963320449
 30
0.0
 10
7.6568151695
 20
220.8526436189
 30
0.0
 10
7.155541436
 20
220.8799207451
 30
0.0
 10
6.6497932824
 20
220.8776419413
 30
0.0
 10
6.1501416407
 20
220.8458530005
 30
0.0
 10
5.6669375177
 20
220.7851523013
 30
0.0
 10
5.2099160911
 20
220.6966125552
 30
0.0
 10
4.7878117705
 20
220.5816152972
 30
0.0
 10
4.4078983907
 20
220.4414420171
 30
0.0
 10
4.0759033639
 20
220.2767544903
 30
0.0
 10
3.8374226099
 20
220.1144217306
 30
0.0
 10
3.6786019889
 20
219.9698420438
 30
0.0
 10
3.5775928493
 20
219.8560247571
 30
0.0
 10
3.4938067538
 20
219.7336612946
 30
0.0
 10
3.429325995
 20
219.6029951216
 30
0.0
 10
3.3865340222
 20
219.4649585441
 30
0.0
 10
3.3743871125
 20
219.3695620627
 30
0.0
 10
3.3725709996
 20
219.3217558735
 30
0.0
  0
LINE
  5
30A
100
AcDbEntity
  8
0
100
AcDbLine
 62
7
  6
CONTINUOUS
 10
4.3099389709
 20
217.4964783349
 11
4.336530025
 21
218.3406326594
  0
SPLINE
  5
30B
100
AcDbEntity
  8
0
100
AcDbSpline
 62
7
  6
CONTINUOUS
 70
0
 71
3
 72
9
 73
5
 74
0
 42
0.0000001
 43
0.0000001
 44
0.0000000001
 40
0.0
 40
0.0
 40
0.0
 40
0.0
 40
0.2590168828
 40
1.0
 40
1.0
 40
1.0
 40
1.0
 10
7.7055542001
 20
218.7761885392
 30
0.0
 10
7.7444788141
 20
218.7820114278
 30
0.0
 10
7.8944546817
 20
218.8064205349
 30
0.0
 10
8.0432189892
 20
218.8386352938
 30
0.0
 10
8.1519723323
 20
218.8677872236
 30
0.0
  0
SPLINE
  5
30C
100
AcDbEntity
  8
0
100
AcDbSpline
 62
7
  6
CONTINUOUS
 70
0
 71
3
 72
9
 73
5
 74
0
 42
0.0000001
 43
0.0000001
 44
0.0000000001
 40
0.0
 40
0.0
 40
0.0
 40
0.0
 40
0.5192878938
 40
1.0
 40
1.0
 40
1.0
 40
1.0
 10
8.1519723323
 20
218.8677872236
 30
0.0
 10
8.2191670792
 20
218.885799144
 30
0.0
 10
8.3475578588
 20
218.9244114499
 30
0.0
 10
8.4729010161
 20
218.972153114
 30
0.0
 10
8.5320063825
 20
218.9977226782
 30
0.0
  0
SPLINE
  5
30D
100
AcDbEntity
  8
0
100
AcDbSpline
 62
7
  6
CONTINUOUS
 70
0
 71
3
 72
12
 73
8
 74
0
 42
0.0000001
 43
0.0000001
 44
0.0000000001
 40
0.0
 40
0.0
 40
0.0
 40
0.0
 40
0.2344666549
 40
0.4880789296
 40
0.6187053667
 40
0.7490045805
 40
1.0
 40
1.0
 40
1.0
 40
1.0
 10
4.587588312
 20
218.6741052992
 30
0.0
 10
4.5541589304
 20
218.6651443702
 30
0.0
 10
4.4881480007
 20
218.6321355659
 30
0.0
 10
4.4223237416
 20
218.5668829093
 30
0.0
 10
4.3810132166
 20
218.5028457429
 30
0.0
 10
4.349572292
 20
218.4339645639
 30
0.0
 10
4.3376966341
 20
218.3776636567
 30
0.0
 10
4.336530025
 20
218.3406326594
 30
0.0
  0
SPLINE
  5
30E
100
AcDbEntity
  8
0
100
AcDbSpline
 62
7
  6
CONTINUOUS
 70
0
 71
3
 72
16
 73
12
 74
0
 42
0.0000001
 43
0.0000001
 44
0.0000000001
 40
0.0
 40
0.0
 40
0.0
 40
0.0
 40
0.157664922
 40
0.304479409
 40
0.4399942724
 40
0.564696928
 40
0.6801902891
 40
0.7891861244
 40
0.8949526548
 40
0.9473723931
 40
1.0
 40
1.0
 40
1.0
 40
1.0
 10
8.8992641936
 20
216.0767889852
 30
0.0
 10
9.0186689168
 20
216.1087960759
 30
0.0
 10
9.2473459798
 20
216.1781964846
 30
0.0
 10
9.568988939
 20
216.3040492416
 30
0.0
 10
9.8544993219
 20
216.4479172136
 30
0.0
 10
10.1011845242
 20
216.6104241834
 30
0.0
 10
10.3060986531
 20
216.7939129956
 30
0.0
 10
10.4640416448
 20
217.0015504776
 30
0.0
 10
10.5475978648
 20
217.1967094826
 30
0.0
 10
10.5787016043
 20
217.3595713183
 30
0.0
 10
10.5818070217
 20
217.4422634603
 30
0.0
 10
10.580240583
 20
217.4834973834
 30
0.0
  0
SPLINE
  5
30F
100
AcDbEntity
  8
0
100
AcDbSpline
 62
7
  6
CONTINUOUS
 70
0
 71
3
 72
26
 73
22
 74
0
 42
0.0000001
 43
0.0000001
 44
0.0000000001
 40
0.0
 40
0.0
 40
0.0
 40
0.0
 40
0.0213314047
 40
0.0425701982
 40
0.0639892872
 40
0.085638259
 40
0.1076827683
 40
0.1303365034
 40
0.1781779442
 40
0.2303749426
 40
0.2874775858
 40
0.3494929648
 40
0.416022593
 40
0.4863760935
 40
0.5596581016
 40
0.6348355033
 40
0.7107931542
 40
0.7863837641
 40
0.860474488
 40
0.9319979845
 40
1.0
 40
1.0
 40
1.0
 40
1.0
 10
3.302737262
 20
217.4834973837
 30
0.0
 10
3.3010346548
 20
217.4386790478
 30
0.0
 10
3.3049895544
 20
217.348774456
 30
0.0
 10
3.3329601705
 20
217.2166141187
 30
0.0
 10
3.3810531371
 20
217.0897152688
 30
0.0
 10
3.4473032261
 20
216.9694360527
 30
0.0
 10
3.5298982963
 20
216.8565996523
 30
0.0
 10
3.6617162128
 20
216.7130394816
 30
0.0
 10
3.8634262008
 20
216.5499632194
 30
0.0
 10
4.1486965886
 20
216.3816596161
 30
0.0
 10
4.4783307089
 20
216.2348653301
 30
0.0
 10
4.8484468811
 20
216.109455292
 30
0.0
 10
5.2540629492
 20
216.0061781937
 30
0.0
 10
5.6889506345
 20
215.926181742
 30
0.0
 10
6.1459090454
 20
215.870563529
 30
0.0
 10
6.6170233136
 20
215.8401768853
 30
0.0
 10
7.0939406259
 20
215.8355115131
 30
0.0
 10
7.5681266758
 20
215.8566445206
 30
0.0
 10
8.0311457647
 20
215.9032317083
 30
0.0
 10
8.4748562778
 20
215.9745381068
 30
0.0
 10
8.7611610875
 20
216.0397696904
 30
0.0
 10
8.8992641936
 20
216.0767889852
 30
0.0
  0
SPLINE
  5
310
100
AcDbEntity
  8
0
100
AcDbSpline
 62
7
  6
CONTINUOUS
 70
0
 71
3
 72
15
 73
11
 74
0
 42
0.0000001
 43
0.0000001
 44
0.0000000001
 40
0.0
 40
0.0
 40
0.0
 40
0.0
 40
0.1203286417
 40
0.2487402757
 40
0.3819880433
 40
0.5165808123
 40
0.6489687993
 40
0.775704718
 40
0.8936132624
 40
1.0
 40
1.0
 40
1.0
 40
1.0
 10
8.9510696419
 20
218.1400683688
 30
0.0
 10
8.7694797224
 20
218.0913921953
 30
0.0
 10
8.3890533351
 20
218.0091235498
 30
0.0
 10
7.7970071603
 20
217.9298275328
 30
0.0
 10
7.1785257276
 20
217.8921810753
 30
0.0
 10
6.5527386778
 20
217.8974121186
 30
0.0
 10
5.938952822
 20
217.9453386805
 30
0.0
 10
5.3560362099
 20
218.0344413002
 30
0.0
 10
4.8219350708
 20
218.1618355657
 30
0.0
 10
4.4897769265
 20
218.2762602964
 30
0.0
 10
4.336530025
 20
218.3406326594
 30
0.0
  0
SPLINE
  5
311
100
AcDbEntity
  8
0
100
AcDbSpline
 62
7
  6
CONTINUOUS
 70
0
 71
3
 72
22
 73
18
 74
0
 42
0.0000001
 43
0.0000001
 44
0.0000000001
 40
0.0
 40
0.0
 40
0.0
 40
0.0
 40
0.0591862557
 40
0.113083191
 40
0.1624987497
 40
0.2087016298
 40
0.2533260883
 40
0.2982232729
 40
0.3452078666
 40
0.3958108696
 40
0.4511669134
 40
0.5120134843
 40
0.5787614426
 40
0.6515621118
 40
0.7303552502
 40
0.8149385146
 40
1.0
 40
1.0
 40
1.0
 40
1.0
 10
9.9147066264
 20
220.1020685702
 30
0.0
 10
9.9528987227
 20
220.0692151982
 30
0.0
 10
10.0225472675
 20
220.0023518711
 30
0.0
 10
10.1084693925
 20
219.8933015167
 30
0.0
 10
10.1698091054
 20
219.7809866517
 30
0.0
 10
10.2056164506
 20
219.6661889228
 30
0.0
 10
10.2150896052
 20
219.5500538666
 30
0.0
 10
10.1979049778
 20
219.434154576
 30
0.0
 10
10.1545772404
 20
219.3199868585
 30
0.0
 10
10.0860166837
 20
219.2085550753
 30
0.0
 10
9.9931142797
 20
219.1005399443
 30
0.0
 10
9.8767422476
 20
218.9965140236
 30
0.0
 10
9.7377931648
 20
218.8971015898
 30
0.0
 10
9.5773000251
 20
218.8029718606
 30
0.0
 10
9.3964606388
 20
218.7147665884
 30
0.0
 10
9.1217291718
 20
218.6026152553
 30
0.0
 10
8.9018517149
 20
218.534855579
 30
0.0
 10
8.749441527
 20
218.4950548774
 30
0.0
  0
SPLINE
  5
312
100
AcDbEntity
  8
0
100
AcDbSpline
 62
7
  6
CONTINUOUS
 70
0
 71
3
 72
15
 73
11
 74
0
 42
0.0000001
 43
0.0000001
 44
0.0000000001
 40
0.0
 40
0.0
 40
0.0
 40
0.0
 40
0.1205728177
 40
0.2489056039
 40
0.381869958
 40
0.5161068773
 40
0.6482071997
 40
0.7748576287
 40
0.8929937519
 40
1.0
 40
1.0
 40
1.0
 40
1.0
 10
8.749441527
 20
218.4950548774
 30
0.0
 10
8.5851567477
 20
218.4521532213
 30
0.0
 10
8.2417098702
 20
218.3796381043
 30
0.0
 10
7.7080561823
 20
218.3097768311
 30
0.0
 10
7.1515804665
 20
218.2767374593
 30
0.0
 10
6.588864595
 20
218.2815599904
 30
0.0
 10
6.0366382015
 20
218.3240881369
 30
0.0
 10
5.5112631426
 20
218.4030196162
 30
0.0
 10
5.0283269292
 20
218.5158924315
 30
0.0
 10
4.7271026588
 20
218.6171579039
 30
0.0
 10
4.587588312
 20
218.6741052992
 30
0.0
  0
LINE
  5
313
100
AcDbEntity
  8
0
100
AcDbLine
 62
7
  6
CONTINUOUS
 10
3.7172129316
 20
218.6983387108
 11
3.7016508944
 21
218.2043305132
  0
SPLINE
  5
314
100
AcDbEntity
  8
0
100
AcDbSpline
 62
7
  6
CONTINUOUS
 70
0
 71
3
 72
12
 73
8
 74
0
 42
0.0000001
 43
0.0000001
 44
0.0000000001
 40
0.0
 40
0.0
 40
0.0
 40
0.0
 40
0.2905429741
 40
0.5479843343
 40
0.7802136125
 40
0.8908237745
 40
1.0
 40
1.0
 40
1.0
 40
1.0
 10
3.7172129316
 20
218.6983387108
 30
0.0
 10
3.662240256
 20
218.7438913115
 30
0.0
 10
3.564063531
 20
218.8370499163
 30
0.0
 10
3.4506134191
 20
218.9931789935
 30
0.0
 10
3.3934183911
 20
219.1311438167
 30
0.0
 10
3.3734581199
 20
219.2407439014
 30
0.0
 10
3.371554959
 20
219.2949479178
 30
0.0
 10
3.372573094
 20
219.3217558612
 30
0.0
  0
SPLINE
  5
315
100
AcDbEntity
  8
0
100
AcDbSpline
 62
7
  6
CONTINUOUS
 70
0
 71
3
 72
22
 73
18
 74
0
 42
0.0000001
 43
0.0000001
 44
0.0000000001
 40
0.0
 40
0.0
 40
0.0
 40
0.0
 40
0.0591862557
 40
0.113083191
 40
0.1624987497
 40
0.2087016298
 40
0.2533260883
 40
0.2982232729
 40
0.3452078666
 40
0.3958108696
 40
0.4511669134
 40
0.5120134843
 40
0.5787614426
 40
0.6515621118
 40
0.7303552502
 40
0.8149385146
 40
1.0
 40
1.0
 40
1.0
 40
1.0
 10
3.9682712186
 20
219.0318113505
 30
0.0
 10
3.9300791223
 20
219.0646647225
 30
0.0
 10
3.8604305775
 20
219.1315280497
 30
0.0
 10
3.7745084525
 20
219.2405784041
 30
0.0
 10
3.7131687396
 20
219.352893269
 30
0.0
 10
3.6773613944
 20
219.4676909979
 30
0.0
 10
3.6678882397
 20
219.5838260542
 30
0.0
 10
3.6850728671
 20
219.6997253447
 30
0.0
 10
3.7284006046
 20
219.8138930623
 30
0.0
 10
3.7969611613
 20
219.9253248455
 30
0.0
 10
3.8898635653
 20
220.0333399765
 30
0.0
 10
4.0062355974
 20
220.1373658972
 30
0.0
 10
4.1451846802
 20
220.236778331
 30
0.0
 10
4.3056778199
 20
220.3309080602
 30
0.0
 10
4.4865172062
 20
220.4191133324
 30
0.0
 10
4.7612486732
 20
220.5312646655
 30
0.0
 10
4.9811261301
 20
220.5990243418
 30
0.0
 10
5.133536318
 20
220.6388250434
 30
0.0
  0
SPLINE
  5
316
100
AcDbEntity
  8
0
100
AcDbSpline
 62
7
  6
CONTINUOUS
 70
0
 71
3
 72
15
 73
11
 74
0
 42
0.0000001
 43
0.0000001
 44
0.0000000001
 40
0.0
 40
0.0
 40
0.0
 40
0.0
 40
0.1205728177
 40
0.2489056039
 40
0.381869958
 40
0.5161068773
 40
0.6482071997
 40
0.7748576287
 40
0.8929937519
 40
1.0
 40
1.0
 40
1.0
 40
1.0
 10
5.133536318
 20
220.6388250434
 30
0.0
 10
5.2978210973
 20
220.6817266995
 30
0.0
 10
5.6412679748
 20
220.7542418165
 30
0.0
 10
6.1749216627
 20
220.8241030896
 30
0.0
 10
6.7313973785
 20
220.8571424614
 30
0.0
 10
7.29411325
 20
220.8523199303
 30
0.0
 10
7.8463396434
 20
220.8097917839
 30
0.0
 10
8.3717147023
 20
220.7308603046
 30
0.0
 10
8.8546509158
 20
220.6179874893
 30
0.0
 10
9.1558751862
 20
220.5167220169
 30
0.0
 10
9.295389533
 20
220.4597746216
 30
0.0
  0
SPLINE
  5
317
100
AcDbEntity
  8
0
100
AcDbSpline
 62
7
  6
CONTINUOUS
 70
0
 71
3
 72
15
 73
11
 74
0
 42
0.0000001
 43
0.0000001
 44
0.0000000001
 40
0.0
 40
0.0
 40
0.0
 40
0.0
 40
0.1718406101
 40
0.3309808051
 40
0.4761942171
 40
0.6068193646
 40
0.7228470751
 40
0.8252446944
 40
0.9163085758
 40
1.0
 40
1.0
 40
1.0
 40
1.0
 10
8.9903915132
 20
216.2786875786
 30
0.0
 10
9.1037711166
 20
216.3090796029
 30
0.0
 10
9.320472436
 20
216.374232715
 30
0.0
 10
9.624785892
 20
216.490015751
 30
0.0
 10
9.8929733593
 20
216.6189085444
 30
0.0
 10
10.1215793344
 20
216.7592706584
 30
0.0
 10
10.3077582783
 20
216.909529429
 30
0.0
 10
10.4491059441
 20
217.0684033478
 30
0.0
 10
10.5431780794
 20
217.2346591637
 30
0.0
 10
10.5728126231
 20
217.352283107
 30
0.0
 10
10.5781624855
 20
217.4092008741
 30
0.0
  0
SPLINE
  5
318
100
AcDbEntity
  8
0
100
AcDbSpline
 62
7
  6
CONTINUOUS
 70
0
 71
3
 72
9
 73
5
 74
0
 42
0.0000001
 43
0.0000001
 44
0.0000000001
 40
0.0
 40
0.0
 40
0.0
 40
0.0
 40
0.5355482671
 40
1.0
 40
1.0
 40
1.0
 40
1.0
 10
4.3099389709
 20
217.4964783349
 30
0.0
 10
4.1919748954
 20
217.5461668516
 30
0.0
 10
3.9761471862
 20
217.6501597816
 30
0.0
 10
3.7762216227
 20
217.7835042493
 30
0.0
 10
3.6906218775
 20
217.8541843863
 30
0.0
  0
SPLINE
  5
319
100
AcDbEntity
  8
0
100
AcDbSpline
 62
7
  6
CONTINUOUS
 70
0
 71
3
 72
9
 73
5
 74
0
 42
0.0000001
 43
0.0000001
 44
0.0000000001
 40
0.0
 40
0.0
 40
0.0
 40
0.0
 40
0.2590168828
 40
1.0
 40
1.0
 40
1.0
 40
1.0
 10
6.1774236449
 20
220.3576913815
 30
0.0
 10
6.1384990309
 20
220.351868493
 30
0.0
 10
5.9885231633
 20
220.3274593859
 30
0.0
 10
5.8397588558
 20
220.295244627
 30
0.0
 10
5.7310055127
 20
220.2660926971
 30
0.0
  0
SPLINE
  5
31A
100
AcDbEntity
  8
0
100
AcDbSpline
 62
7
  6
CONTINUOUS
 70
0
 71
3
 72
25
 73
21
 74
0
 42
0.0000001
 43
0.0000001
 44
0.0000000001
 40
0.0
 40
0.0
 40
0.0
 40
0.0
 40
0.0156170212
 40
0.031539555
 40
0.0656188233
 40
0.0844238161
 40
0.1046382195
 40
0.1496984334
 40
0.2012856509
 40
0.2592818811
 40
0.3231988564
 40
0.3922874953
 40
0.4656101129
 40
0.5420929704
 40
0.620568738
 40
0.6998138834
 40
0.7785836972
 40
0.8556465053
 40
0.9298184515
 40
1.0
 40
1.0
 40
1.0
 40
1.0
 10
3.3027372702
 20
217.4834974029
 30
0.0
 10
3.3014999513
 20
217.450921637
 30
0.0
 10
3.3047746995
 20
217.3847676715
 30
0.0
 10
3.3349944913
 20
217.2505885955
 30
0.0
 10
3.4011976019
 20
217.1203820518
 30
0.0
 10
3.494524303
 20
216.9994685919
 30
0.0
 10
3.6166434444
 20
216.8729183927
 30
0.0
 10
3.8109601514
 20
216.7233851614
 30
0.0
 10
4.0925783616
 20
216.56409841
 30
0.0
 10
4.4260431787
 20
216.4212514364
 30
0.0
 10
4.8054589696
 20
216.2973608652
 30
0.0
 10
5.2240918154
 20
216.1946660997
 30
0.0
 10
5.6743299639
 20
216.1150866263
 30
0.0
 10
6.1479294319
 20
216.0601180076
 30
0.0
 10
6.6361723803
 20
216.0307987837
 30
0.0
 10
7.130052769
 20
216.0276834571
 30
0.0
 10
7.6204495003
 20
216.0508305528
 30
0.0
 10
8.0983230869
 20
216.0998039221
 30
0.0
 10
8.5548361693
 20
216.1736720163
 30
0.0
 10
8.8488888324
 20
216.2407570092
 30
0.0
 10
8.9903915132
 20
216.2786875786
 30
0.0
  0
SPLINE
  5
31B
100
AcDbEntity
  8
0
100
AcDbSpline
 62
7
  6
CONTINUOUS
 70
0
 71
3
 72
12
 73
8
 74
0
 42
0.0000001
 43
0.0000001
 44
0.0000000001
 40
0.0
 40
0.0
 40
0.0
 40
0.0
 40
0.25100946
 40
0.381291321
 40
0.5119156772
 40
0.7655193973
 40
1.0
 40
1.0
 40
1.0
 40
1.0
 10
3.7172129316
 20
218.6983387108
 30
0.0
 10
3.7183796123
 20
218.7353719817
 30
0.0
 10
3.7302393963
 20
218.7916743806
 30
0.0
 10
3.7616824652
 20
218.8605590686
 30
0.0
 10
3.8030532283
 20
218.9245484881
 30
0.0
 10
3.8687995427
 20
218.9898766635
 30
0.0
 10
3.934839666
 20
219.0228498396
 30
0.0
 10
3.9682712186
 20
219.0318113505
 30
0.0
  0
SPLINE
  5
31C
100
AcDbEntity
  8
0
100
AcDbSpline
 62
7
  6
CONTINUOUS
 70
0
 71
3
 72
9
 73
5
 74
0
 42
0.0000001
 43
0.0000001
 44
0.0000000001
 40
0.0
 40
0.0
 40
0.0
 40
0.0
 40
0.5192878938
 40
1.0
 40
1.0
 40
1.0
 40
1.0
 10
5.7310055127
 20
220.2660926971
 30
0.0
 10
5.6638107658
 20
220.2480807768
 30
0.0
 10
5.5354199861
 20
220.2094684708
 30
0.0
 10
5.4100768289
 20
220.1617268067
 30
0.0
 10
5.3509714625
 20
220.1361572425
 30
0.0
  0
SPLINE
  5
31D
100
AcDbEntity
  8
0
100
AcDbSpline
 62
7
  6
CONTINUOUS
 70
0
 71
3
 72
9
 73
5
 74
0
 42
0.0000001
 43
0.0000001
 44
0.0000000001
 40
0.0
 40
0.0
 40
0.0
 40
0.0
 40
0.4999897262
 40
1.0
 40
1.0
 40
1.0
 40
1.0
 10
6.4359412792
 20
219.1383086407
 30
0.0
 10
6.3926907005
 20
219.3414918039
 30
0.0
 10
6.3063341952
 20
219.7478977314
 30
0.0
 10
6.2204819927
 20
220.1544104273
 30
0.0
 10
6.1774795199
 20
220.3576549714
 30
0.0
  0
SPLINE
  5
31E
100
AcDbEntity
  8
0
100
AcDbSpline
 62
7
  6
CONTINUOUS
 70
0
 71
3
 72
9
 73
5
 74
0
 42
0.0000001
 43
0.0000001
 44
0.0000000001
 40
0.0
 40
0.0
 40
0.0
 40
0.0
 40
0.5153768913
 40
1.0
 40
1.0
 40
1.0
 40
1.0
 10
9.295389533
 20
220.4597746216
 30
0.0
 10
9.3177401277
 20
220.465765821
 30
0.0
 10
9.3630566084
 20
220.4715859956
 30
0.0
 10
9.4080183952
 20
220.4620544468
 30
0.0
 10
9.4281241847
 20
220.4537354942
 30
0.0
  0
SPLINE
  5
31F
100
AcDbEntity
  8
0
100
AcDbSpline
 62
7
  6
CONTINUOUS
 70
0
 71
3
 72
16
 73
12
 74
0
 42
0.0000001
 43
0.0000001
 44
0.0000000001
 40
0.0
 40
0.0
 40
0.0
 40
0.0
 40
0.0416464699
 40
0.0839422325
 40
0.1734195354
 40
0.2738609049
 40
0.3884238396
 40
0.5185424308
 40
0.6644029502
 40
0.8253272274
 40
1.0
 40
1.0
 40
1.0
 40
1.0
 10
10.5104052823
 20
219.3217558643
 30
0.0
 10
10.5115020122
 20
219.2928616312
 30
0.0
 10
10.5091086172
 20
219.2343420399
 30
0.0
 10
10.4854637275
 20
219.1158524893
 30
0.0
 10
10.4180792696
 20
218.9669128287
 30
0.0
 10
10.2858916569
 20
218.8000058113
 30
0.0
 10
10.1042088942
 20
218.6421600833
 30
0.0
 10
9.8756938524
 20
218.4948980858
 30
0.0
 10
9.6034919376
 20
218.3598774335
 30
0.0
 10
9.2914557572
 20
218.2389715381
 30
0.0
 10
9.0682090564
 20
218.1714682311
 30
0.0
 10
8.9510696419
 20
218.1400683688
 30
0.0
  0
SPLINE
  5
320
100
AcDbEntity
  8
0
100
AcDbSpline
 62
7
  6
CONTINUOUS
 70
0
 71
3
 72
20
 73
16
 74
0
 42
0.0000001
 43
0.0000001
 44
0.0000000001
 40
0.0
 40
0.0
 40
0.0
 40
0.0
 40
0.1582718007
 40
0.3131725633
 40
0.459673529
 40
0.5284555344
 40
0.5936987167
 40
0.6551466268
 40
0.7127130652
 40
0.7665222553
 40
0.8169492222
 40
0.8646488358
 40
0.9105192453
 40
0.9553871242
 40
1.0
 40
1.0
 40
1.0
 40
1.0
 10
32.4960906776
 20
202.4203102594
 30
0.0
 10
32.2615226544
 20
202.4274193267
 30
0.0
 10
31.7965757147
 20
202.4225276034
 30
0.0
 10
31.1171913254
 20
202.359538901
 30
0.0
 10
30.5763219981
 20
202.2605663297
 30
0.0
 10
30.1742512737
 20
202.1532796791
 30
0.0
 10
29.8988938975
 20
202.0622107865
 30
0.0
 10
29.6455767908
 20
201.9592637153
 30
0.0
 10
29.4160778974
 20
201.8445946867
 30
0.0
 10
29.2118772333
 20
201.7178896065
 30
0.0
 10
29.0344024803
 20
201.5782283534
 30
0.0
 10
28.8855015721
 20
201.4240748882
 30
0.0
 10
28.7692114427
 20
201.2534838414
 30
0.0
 10
28.6910656038
 20
201.0669824605
 30
0.0
 10
28.6694510243
 20
200.934495448
 30
0.0
 10
28.6669398873
 20
200.8683938906
 30
0.0
  0
LINE
  5
321
100
AcDbEntity
  8
0
100
AcDbLine
 62
7
  6
CONTINUOUS
 10
29.6043078586
 20
199.043116352
 11
29.6308989127
 21
199.8872706765
  0
SPLINE
  5
322
100
AcDbEntity
  8
0
100
AcDbSpline
 62
7
  6
CONTINUOUS
 70
0
 71
3
 72
12
 73
8
 74
0
 42
0.0000001
 43
0.0000001
 44
0.0000000001
 40
0.0
 40
0.0
 40
0.0
 40
0.0
 40
0.2344666549
 40
0.4880789296
 40
0.6187053667
 40
0.7490045805
 40
1.0
 40
1.0
 40
1.0
 40
1.0
 10
29.8819571997
 20
200.2207433163
 30
0.0
 10
29.8485278182
 20
200.2117823873
 30
0.0
 10
29.7825168884
 20
200.178773583
 30
0.0
 10
29.7166926293
 20
200.1135209264
 30
0.0
 10
29.6753821043
 20
200.04948376
 30
0.0
 10
29.6439411798
 20
199.980602581
 30
0.0
 10
29.6320655218
 20
199.9243016738
 30
0.0
 10
29.6308989127
 20
199.8872706765
 30
0.0
  0
SPLINE
  5
323
100
AcDbEntity
  8
0
100
AcDbSpline
 62
7
  6
CONTINUOUS
 70
0
 71
3
 72
20
 73
16
 74
0
 42
0.0000001
 43
0.0000001
 44
0.0000000001
 40
0.0
 40
0.0
 40
0.0
 40
0.0
 40
0.0445165388
 40
0.0892360057
 40
0.1347970609
 40
0.1820896018
 40
0.2320782699
 40
0.2854924761
 40
0.3427764923
 40
0.404081922
 40
0.4693297188
 40
0.5382571873
 40
0.685368112
 40
0.8410701323
 40
1.0
 40
1.0
 40
1.0
 40
1.0
 10
28.5971061497
 20
199.0301354008
 30
0.0
 10
28.5944874594
 20
198.9612026818
 30
0.0
 10
28.6070219251
 20
198.821717191
 30
0.0
 10
28.676845044
 20
198.6229228992
 30
0.0
 10
28.7898741274
 20
198.4404882216
 30
0.0
 10
28.9392051206
 20
198.2757927489
 30
0.0
 10
29.1200699432
 20
198.1270430301
 30
0.0
 10
29.3300889713
 20
197.9924106732
 30
0.0
 10
29.5676358223
 20
197.8707733962
 30
0.0
 10
29.8311092344
 20
197.7617629895
 30
0.0
 10
30.1185497497
 20
197.665508129
 30
0.0
 10
30.5397027017
 20
197.5523395938
 30
0.0
 10
31.1074594379
 20
197.448832565
 30
0.0
 10
31.8208918046
 20
197.384728452
 30
0.0
 10
32.3091226584
 20
197.3819893466
 30
0.0
 10
32.5552350975
 20
197.3909729074
 30
0.0
  0
SPLINE
  5
324
100
AcDbEntity
  8
0
100
AcDbSpline
 62
7
  6
CONTINUOUS
 70
0
 71
3
 72
13
 73
9
 74
0
 42
0.0000001
 43
0.0000001
 44
0.0000000001
 40
0.0
 40
0.0
 40
0.0
 40
0.0
 40
0.2715355594
 40
0.5357620259
 40
0.661692275
 40
0.7817653272
 40
0.8948613701
 40
1.0
 40
1.0
 40
1.0
 40
1.0
 10
32.5305242288
 20
199.4477542696
 30
0.0
 10
32.2634236178
 20
199.4390484068
 30
0.0
 10
31.7354002644
 20
199.4451522876
 30
0.0
 10
31.0864187374
 20
199.5102247969
 30
0.0
 10
30.5916991924
 20
199.5975145528
 30
0.0
 10
30.2472637307
 20
199.6775796503
 30
0.0
 10
29.9278312612
 20
199.772234941
 30
0.0
 10
29.7263003188
 20
199.8471966921
 30
0.0
 10
29.6308989127
 20
199.8872706765
 30
0.0
  0
SPLINE
  5
325
100
AcDbEntity
  8
0
100
AcDbSpline
 62
7
  6
CONTINUOUS
 70
0
 71
3
 72
13
 73
9
 74
0
 42
0.0000001
 43
0.0000001
 44
0.0000000001
 40
0.0
 40
0.0
 40
0.0
 40
0.0
 40
0.2706039845
 40
0.5344104348
 40
0.6603834476
 40
0.7806889916
 40
0.8942271473
 40
1.0
 40
1.0
 40
1.0
 40
1.0
 10
32.5266708016
 20
199.8322069962
 30
0.0
 10
32.2841256843
 20
199.8236839028
 30
0.0
 10
31.804164563
 20
199.8278636891
 30
0.0
 10
31.2137419311
 20
199.8848217917
 30
0.0
 10
30.762667855
 20
199.9621319971
 30
0.0
 10
30.4477490321
 20
200.0333864213
 30
0.0
 10
30.1549310265
 20
200.1178882048
 30
0.0
 10
29.9697860217
 20
200.1848930775
 30
0.0
 10
29.8819571997
 20
200.2207433163
 30
0.0
  0
LINE
  5
326
100
AcDbEntity
  8
0
100
AcDbLine
 62
7
  6
CONTINUOUS
 10
29.0115818194
 20
200.2449767279
 11
28.9849907652
 21
199.4008224034
  0
SPLINE
  5
327
100
AcDbEntity
  8
0
100
AcDbSpline
 62
7
  6
CONTINUOUS
 70
0
 71
3
 72
12
 73
8
 74
0
 42
0.0000001
 43
0.0000001
 44
0.0000000001
 40
0.0
 40
0.0
 40
0.0
 40
0.0
 40
0.2905429741
 40
0.5479843343
 40
0.7802136125
 40
0.8908237745
 40
1.0
 40
1.0
 40
1.0
 40
1.0
 10
29.0115818194
 20
200.2449767279
 30
0.0
 10
28.9566091437
 20
200.2905293286
 30
0.0
 10
28.8584324187
 20
200.3836879334
 30
0.0
 10
28.7449823068
 20
200.5398170106
 30
0.0
 10
28.6877872789
 20
200.6777818338
 30
0.0
 10
28.6678270076
 20
200.7873819185
 30
0.0
 10
28.6659238467
 20
200.8415859348
 30
0.0
 10
28.6669419818
 20
200.8683938783
 30
0.0
  0
SPLINE
  5
328
100
AcDbEntity
  8
0
100
AcDbSpline
 62
7
  6
CONTINUOUS
 70
0
 71
3
 72
22
 73
18
 74
0
 42
0.0000001
 43
0.0000001
 44
0.0000000001
 40
0.0
 40
0.0
 40
0.0
 40
0.0
 40
0.0591862557
 40
0.113083191
 40
0.1624987497
 40
0.2087016298
 40
0.2533260883
 40
0.2982232729
 40
0.3452078666
 40
0.3958108696
 40
0.4511669134
 40
0.5120134843
 40
0.5787614426
 40
0.6515621118
 40
0.7303552502
 40
0.8149385146
 40
1.0
 40
1.0
 40
1.0
 40
1.0
 10
29.2626401063
 20
200.5784493676
 30
0.0
 10
29.22444801
 20
200.6113027396
 30
0.0
 10
29.1547994652
 20
200.6781660668
 30
0.0
 10
29.0688773403
 20
200.7872164212
 30
0.0
 10
29.0075376273
 20
200.8995312861
 30
0.0
 10
28.9717302821
 20
201.014329015
 30
0.0
 10
28.9622571275
 20
201.1304640712
 30
0.0
 10
28.9794417549
 20
201.2463633618
 30
0.0
 10
29.0227694923
 20
201.3605310794
 30
0.0
 10
29.091330049
 20
201.4719628626
 30
0.0
 10
29.184232453
 20
201.5799779936
 30
0.0
 10
29.3006044851
 20
201.6840039143
 30
0.0
 10
29.4395535679
 20
201.7834163481
 30
0.0
 10
29.6000467076
 20
201.8775460773
 30
0.0
 10
29.7808860939
 20
201.9657513494
 30
0.0
 10
30.0556175609
 20
202.0779026826
 30
0.0
 10
30.2754950179
 20
202.1456623589
 30
0.0
 10
30.4279052057
 20
202.1854630605
 30
0.0
  0
SPLINE
  5
329
100
AcDbEntity
  8
0
100
AcDbSpline
 62
7
  6
CONTINUOUS
 70
0
 71
3
 72
11
 73
7
 74
0
 42
0.0000001
 43
0.0000001
 44
0.0000000001
 40
0.0
 40
0.0
 40
0.0
 40
0.0
 40
0.233649131
 40
0.4819631795
 40
0.7394008137
 40
1.0
 40
1.0
 40
1.0
 40
1.0
 10
30.4279052057
 20
202.1854630605
 30
0.0
 10
30.5850711671
 20
202.2265056942
 30
0.0
 10
30.9132053332
 20
202.2964759488
 30
0.0
 10
31.4229736479
 20
202.3656955534
 30
0.0
 10
31.9549544696
 20
202.4011754063
 30
0.0
 10
32.3154015071
 20
202.4016509485
 30
0.0
 10
32.4964846004
 20
202.3959545697
 30
0.0
  0
SPLINE
  5
32A
100
AcDbEntity
  8
0
100
AcDbSpline
 62
7
  6
CONTINUOUS
 70
0
 71
3
 72
9
 73
5
 74
0
 42
0.0000001
 43
0.0000001
 44
0.0000000001
 40
0.0
 40
0.0
 40
0.0
 40
0.0
 40
0.5355482671
 40
1.0
 40
1.0
 40
1.0
 40
1.0
 10
29.6043078586
 20
199.043116352
 30
0.0
 10
29.4863437832
 20
199.0928048687
 30
0.0
 10
29.270516074
 20
199.1967977987
 30
0.0
 10
29.0705905105
 20
199.3301422664
 30
0.0
 10
28.9849907652
 20
199.4008224034
 30
0.0
  0
SPLINE
  5
32B
100
AcDbEntity
  8
0
100
AcDbSpline
 62
7
  6
CONTINUOUS
 70
0
 71
3
 72
9
 73
5
 74
0
 42
0.0000001
 43
0.0000001
 44
0.0000000001
 40
0.0
 40
0.0
 40
0.0
 40
0.0
 40
0.2590168828
 40
1.0
 40
1.0
 40
1.0
 40
1.0
 10
31.4717925327
 20
201.9043293986
 30
0.0
 10
31.4328679186
 20
201.89850651
 30
0.0
 10
31.282892051
 20
201.874097403
 30
0.0
 10
31.1341277436
 20
201.8418826441
 30
0.0
 10
31.0253744005
 20
201.8127307142
 30
0.0
  0
SPLINE
  5
32C
100
AcDbEntity
  8
0
100
AcDbSpline
 62
7
  6
CONTINUOUS
 70
0
 71
3
 72
20
 73
16
 74
0
 42
0.0000001
 43
0.0000001
 44
0.0000000001
 40
0.0
 40
0.0
 40
0.0
 40
0.0
 40
0.0333105253
 40
0.0682596755
 40
0.1064566059
 40
0.1490235721
 40
0.1966148699
 40
0.2495125094
 40
0.3077221717
 40
0.3710458529
 40
0.4391318589
 40
0.5115091658
 40
0.6667631103
 40
0.8315785987
 40
1.0
 40
1.0
 40
1.0
 40
1.0
 10
28.5971061579
 20
199.03013542
 30
0.0
 10
28.5952055736
 20
198.9800973986
 30
0.0
 10
28.6053259375
 20
198.8765432981
 30
0.0
 10
28.6618492749
 20
198.7252345404
 30
0.0
 10
28.7577075586
 20
198.5786818003
 30
0.0
 10
28.890992949
 20
198.4380513594
 30
0.0
 10
29.0600632002
 20
198.3042217571
 30
0.0
 10
29.2631650288
 20
198.1782747734
 30
0.0
 10
29.4982332329
 20
198.0613772263
 30
0.0
 10
29.7628362463
 20
197.9547174671
 30
0.0
 10
30.0541918332
 20
197.8594137729
 30
0.0
 10
30.4842988677
 20
197.7462545453
 30
0.0
 10
31.0660273058
 20
197.6420589821
 30
0.0
 10
31.7982360859
 20
197.5769041787
 30
0.0
 10
32.299837992
 20
197.5735461732
 30
0.0
 10
32.5528679586
 20
197.5822538761
 30
0.0
  0
SPLINE
  5
32D
100
AcDbEntity
  8
0
100
AcDbSpline
 62
7
  6
CONTINUOUS
 70
0
 71
3
 72
12
 73
8
 74
0
 42
0.0000001
 43
0.0000001
 44
0.0000000001
 40
0.0
 40
0.0
 40
0.0
 40
0.0
 40
0.25100946
 40
0.381291321
 40
0.5119156772
 40
0.7655193973
 40
1.0
 40
1.0
 40
1.0
 40
1.0
 10
29.0115818194
 20
200.2449767279
 30
0.0
 10
29.0127485
 20
200.2820099988
 30
0.0
 10
29.024608284
 20
200.3383123977
 30
0.0
 10
29.0560513529
 20
200.4071970857
 30
0.0
 10
29.097422116
 20
200.4711865052
 30
0.0
 10
29.1631684304
 20
200.5365146806
 30
0.0
 10
29.2292085537
 20
200.5694878566
 30
0.0
 10
29.2626401063
 20
200.5784493676
 30
0.0
  0
SPLINE
  5
32E
100
AcDbEntity
  8
0
100
AcDbSpline
 62
7
  6
CONTINUOUS
 70
0
 71
3
 72
9
 73
5
 74
0
 42
0.0000001
 43
0.0000001
 44
0.0000000001
 40
0.0
 40
0.0
 40
0.0
 40
0.0
 40
0.5192878938
 40
1.0
 40
1.0
 40
1.0
 40
1.0
 10
31.0253744005
 20
201.8127307142
 30
0.0
 10
30.9581796535
 20
201.7947187939
 30
0.0
 10
30.8297888739
 20
201.7561064879
 30
0.0
 10
30.7044457166
 20
201.7083648238
 30
0.0
 10
30.6453403502
 20
201.6827952596
 30
0.0
  0
SPLINE
  5
32F
100
AcDbEntity
  8
0
100
AcDbSpline
 62
7
  6
CONTINUOUS
 70
0
 71
3
 72
9
 73
5
 74
0
 42
0.0000001
 43
0.0000001
 44
0.0000000001
 40
0.0
 40
0.0
 40
0.0
 40
0.0
 40
0.4999897262
 40
1.0
 40
1.0
 40
1.0
 40
1.0
 10
31.730310167
 20
200.6849466578
 30
0.0
 10
31.6870595882
 20
200.888129821
 30
0.0
 10
31.600703083
 20
201.2945357485
 30
0.0
 10
31.5148508804
 20
201.7010484444
 30
0.0
 10
31.4718484077
 20
201.9042929885
 30
0.0
  0
SPLINE
  5
330
100
AcDbEntity
  8
0
100
AcDbSpline
 62
7
  6
CONTINUOUS
 70
0
 71
3
 72
20
 73
16
 74
0
 42
0.0000001
 43
0.0000001
 44
0.0000000001
 40
0.0
 40
0.0
 40
0.0
 40
0.0
 40
0.0527859979
 40
0.1117095356
 40
0.1763665245
 40
0.2459440795
 40
0.3948277645
 40
0.5471735128
 40
0.6908579799
 40
0.7562118821
 40
0.8159005576
 40
0.8694870558
 40
0.9171655745
 40
0.9599859003
 40
1.0
 40
1.0
 40
1.0
 40
1.0
 10
61.3891635649
 20
247.3565594951
 30
0.0
 10
61.3246503741
 20
247.393821116
 30
0.0
 10
61.1964417986
 20
247.4873653198
 30
0.0
 10
61.0206828533
 20
247.6646871651
 30
0.0
 10
60.8550787481
 20
247.8821038374
 30
0.0
 10
60.6491538435
 20
248.2252664985
 30
0.0
 10
60.4474127255
 20
248.7116502367
 30
0.0
 10
60.3062565176
 20
249.3261409953
 30
0.0
 10
60.2790383843
 20
249.839101988
 30
0.0
 10
60.3213760253
 20
250.2168041013
 30
0.0
 10
60.3812518577
 20
250.4625551756
 30
0.0
 10
60.4688349228
 20
250.6733655708
 30
0.0
 10
60.5827237501
 20
250.8438343941
 30
0.0
 10
60.7212059285
 20
250.9686970691
 30
0.0
 10
60.8297362762
 20
251.0181236905
 30
0.0
 10
60.8842827702
 20
251.0327557574
 30
0.0
  0
SPLINE
  5
331
100
AcDbEntity
  8
0
100
AcDbSpline
 62
7
  6
CONTINUOUS
 70
0
 71
3
 72
10
 73
6
 74
0
 42
0.0000001
 43
0.0000001
 44
0.0000000001
 40
0.0
 40
0.0
 40
0.0
 40
0.0
 40
0.2307026797
 40
0.4700767113
 40
1.0
 40
1.0
 40
1.0
 40
1.0
 10
61.8940443596
 20
247.2657682253
 30
0.0
 10
61.8550640963
 20
247.2553117912
 30
0.0
 10
61.7728187615
 20
247.2433295535
 30
0.0
 10
61.5973155459
 20
247.2574676425
 30
0.0
 10
61.4694387156
 20
247.3101940589
 30
0.0
 10
61.3891635649
 20
247.3565594951
 30
0.0
  0
SPLINE
  5
332
100
AcDbEntity
  8
0
100
AcDbSpline
 62
7
  6
CONTINUOUS
 70
0
 71
3
 72
10
 73
6
 74
0
 42
0.0000001
 43
0.0000001
 44
0.0000000001
 40
0.0
 40
0.0
 40
0.0
 40
0.0
 40
0.2321258149
 40
0.4722166886
 40
1.0
 40
1.0
 40
1.0
 40
1.0
 10
60.8842827702
 20
251.0327557574
 30
0.0
 10
60.9214596499
 20
251.0427284348
 30
0.0
 10
60.9996370994
 20
251.0545597603
 30
0.0
 10
61.1660908842
 20
251.043735069
 30
0.0
 10
61.2881648502
 20
250.9970994642
 30
0.0
 10
61.3651196433
 20
250.9554192498
 30
0.0
  0
SPLINE
  5
333
100
AcDbEntity
  8
0
100
AcDbSpline
 62
7
  6
CONTINUOUS
 70
0
 71
3
 72
20
 73
16
 74
0
 42
0.0000001
 43
0.0000001
 44
0.0000000001
 40
0.0
 40
0.0
 40
0.0
 40
0.0
 40
0.0527859979
 40
0.1117095356
 40
0.1763665245
 40
0.2459440795
 40
0.3948277645
 40
0.5471735128
 40
0.6908579799
 40
0.7562118821
 40
0.8159005576
 40
0.8694870558
 40
0.9171655745
 40
0.9599859003
 40
1.0
 40
1.0
 40
1.0
 40
1.0
 10
61.3891635649
 20
250.9419644875
 30
0.0
 10
61.4536767557
 20
250.9047028667
 30
0.0
 10
61.5818853312
 20
250.8111586629
 30
0.0
 10
61.7576442765
 20
250.6338368175
 30
0.0
 10
61.9232483817
 20
250.4164201453
 30
0.0
 10
62.1291732863
 20
250.0732574842
 30
0.0
 10
62.3309144043
 20
249.586873746
 30
0.0
 10
62.4720706122
 20
248.9723829873
 30
0.0
 10
62.4992887455
 20
248.4594219947
 30
0.0
 10
62.4569511045
 20
248.0817198813
 30
0.0
 10
62.3970752721
 20
247.8359688071
 30
0.0
 10
62.309492207
 20
247.6251584119
 30
0.0
 10
62.1956033797
 20
247.4546895885
 30
0.0
 10
62.0571212013
 20
247.3298269135
 30
0.0
 10
61.9485908537
 20
247.2804002922
 30
0.0
 10
61.8940443596
 20
247.2657682253
 30
0.0
  0
SPLINE
  5
334
100
AcDbEntity
  8
0
100
AcDbSpline
 62
7
  6
CONTINUOUS
 70
0
 71
3
 72
10
 73
6
 74
0
 42
0.0000001
 43
0.0000001
 44
0.0000000001
 40
0.0
 40
0.0
 40
0.0
 40
0.0
 40
0.289015841
 40
0.5537663735
 40
1.0
 40
1.0
 40
1.0
 40
1.0
 10
120.0738097685
 20
247.7656767752
 30
0.0
 10
119.9061824253
 20
248.1668756718
 30
0.0
 10
119.5294399073
 20
248.9147516467
 30
0.0
 10
118.6639178339
 20
250.1467935308
 30
0.0
 10
117.8527916763
 20
250.8871648041
 30
0.0
 10
117.2714559227
 20
251.2229335389
 30
0.0
  0
SPLINE
  5
335
100
AcDbEntity
  8
0
100
AcDbSpline
 62
7
  6
CONTINUOUS
 70
0
 71
3
 72
14
 73
10
 74
0
 42
0.0000001
 43
0.0000001
 44
0.0000000001
 40
0.0
 40
0.0
 40
0.0
 40
0.0
 40
0.0274910864
 40
0.0857564017
 40
0.1735313869
 40
0.2894358445
 40
0.4318573451
 40
0.5989906428
 40
1.0
 40
1.0
 40
1.0
 40
1.0
 10
56.996031387
 20
256.1087655807
 30
0.0
 10
57.0083284401
 20
256.1123087144
 30
0.0
 10
57.0425606108
 20
256.1341679052
 30
0.0
 10
57.1108595657
 20
256.1763354499
 30
0.0
 10
57.2103712817
 20
256.2473876487
 30
0.0
 10
57.3390354262
 20
256.3441735615
 30
0.0
 10
57.4935148369
 20
256.4682425145
 30
0.0
 10
57.7459568428
 20
256.681988656
 30
0.0
 10
57.9407699642
 20
256.8610935142
 30
0.0
 10
58.0755792844
 20
256.9902184834
 30
0.0
  0
SPLINE
  5
336
100
AcDbEntity
  8
0
100
AcDbSpline
 62
7
  6
CONTINUOUS
 70
0
 71
3
 72
25
 73
21
 74
0
 42
0.0000001
 43
0.0000001
 44
0.0000000001
 40
0.0
 40
0.0
 40
0.0
 40
0.0
 40
0.0157132535
 40
0.0319521791
 40
0.0676649323
 40
0.0878784914
 40
0.109886422
 40
0.159547617
 40
0.216762898
 40
0.280936762
 40
0.3510484768
 40
0.425786414
 40
0.5036415509
 40
0.5829823598
 40
0.6621213425
 40
0.7393786197
 40
0.8131454517
 40
0.8819534943
 40
0.9445482768
 40
1.0
 40
1.0
 40
1.0
 40
1.0
 10
68.2331509176
 20
255.7637117554
 30
0.0
 10
68.2331671083
 20
256.0253973543
 30
0.0
 10
68.2879978518
 20
256.55901711
 30
0.0
 10
68.6229819924
 20
257.6413509848
 30
0.0
 10
69.2905119545
 20
258.6687964492
 30
0.0
 10
70.1901060318
 20
259.605515156
 30
0.0
 10
71.3674387768
 20
260.5879477952
 30
0.0
 10
73.2040950548
 20
261.7181941477
 30
0.0
 10
75.8131397675
 20
262.8760974351
 30
0.0
 10
78.8519527742
 20
263.8599240066
 30
0.0
 10
82.2468751042
 20
264.6453494056
 30
0.0
 10
85.9152083068
 20
265.2125278211
 30
0.0
 10
89.7659807747
 20
265.546888132
 30
0.0
 10
93.7033067551
 20
265.6398210237
 30
0.0
 10
97.6288849143
 20
265.4889341473
 30
0.0
 10
101.4447759895
 20
265.0981019887
 30
0.0
 10
105.055943309
 20
264.4774470945
 30
0.0
 10
108.373419011
 20
263.6426915133
 30
0.0
 10
111.315389463
 20
262.6153942375
 30
0.0
 10
113.0946179664
 20
261.763928336
 30
0.0
 10
113.8942973679
 20
261.3020483651
 30
0.0
  0
SPLINE
  5
337
100
AcDbEntity
  8
0
100
AcDbSpline
 62
7
  6
CONTINUOUS
 70
0
 71
3
 72
12
 73
8
 74
0
 42
0.0000001
 43
0.0000001
 44
0.0000000001
 40
0.0
 40
0.0
 40
0.0
 40
0.0
 40
0.0989303439
 40
0.2071283348
 40
0.4482839485
 40
0.7159186806
 40
1.0
 40
1.0
 40
1.0
 40
1.0
 10
72.5719818966
 20
244.7093674654
 30
0.0
 10
73.1116266669
 20
244.3976786682
 30
0.0
 10
74.2763873612
 20
243.804695281
 30
0.0
 10
76.8930304527
 20
242.7366945347
 30
0.0
 10
80.639996142
 20
241.6618089677
 30
0.0
 10
85.5672279089
 20
240.8039388229
 30
0.0
 10
89.0369604664
 20
240.5246125342
 30
0.0
 10
90.8251740211
 20
240.456524225
 30
0.0
  0
SPLINE
  5
338
100
AcDbEntity
  8
0
100
AcDbSpline
 62
7
  6
CONTINUOUS
 70
0
 71
3
 72
14
 73
10
 74
0
 42
0.0000001
 43
0.0000001
 44
0.0000000001
 40
0.0
 40
0.0
 40
0.0
 40
0.0
 40
0.2995503407
 40
0.4423131107
 40
0.5770450896
 40
0.7015999165
 40
0.8142412803
 40
0.9138104549
 40
1.0
 40
1.0
 40
1.0
 40
1.0
 10
93.6275278669
 20
238.8379366881
 30
0.0
 10
96.4119395348
 20
238.8528377947
 30
0.0
 10
100.5285728677
 20
239.1035064056
 30
0.0
 10
105.831893631
 20
239.9253748757
 30
0.0
 10
109.4810441207
 20
240.7477277016
 30
0.0
 10
112.7885655832
 20
241.7673938092
 30
0.0
 10
115.6875999883
 20
242.9636869489
 30
0.0
 10
118.1194050975
 20
244.3114598594
 30
0.0
 10
119.4963710813
 20
245.3716363118
 30
0.0
 10
120.0738097685
 20
245.9270075484
 30
0.0
  0
SPLINE
  5
339
100
AcDbEntity
  8
0
100
AcDbSpline
 62
7
  6
CONTINUOUS
 70
0
 71
3
 72
12
 73
8
 74
0
 42
0.0000001
 43
0.0000001
 44
0.0000000001
 40
0.0
 40
0.0
 40
0.0
 40
0.0
 40
0.1004861911
 40
0.2039604862
 40
0.4294354494
 40
0.6924241236
 40
1.0
 40
1.0
 40
1.0
 40
1.0
 10
68.2331460751
 20
250.2477040724
 30
0.0
 10
68.233147596
 20
250.0017215034
 30
0.0
 10
68.2815097654
 20
249.5012193728
 30
0.0
 10
68.5759108464
 20
248.4866127064
 30
0.0
 10
69.3411357185
 20
247.2269593315
 30
0.0
 10
70.7513654876
 20
245.8631327488
 30
0.0
 10
71.9199972408
 20
245.0859416941
 30
0.0
 10
72.5719818966
 20
244.7093674654
 30
0.0
  0
SPLINE
  5
33A
100
AcDbEntity
  8
0
100
AcDbSpline
 62
7
  6
CONTINUOUS
 70
0
 71
3
 72
9
 73
5
 74
0
 42
0.0000001
 43
0.0000001
 44
0.0000000001
 40
0.0
 40
0.0
 40
0.0
 40
0.0
 40
0.517380317
 40
1.0
 40
1.0
 40
1.0
 40
1.0
 10
93.6565453135
 20
265.5939972759
 30
0.0
 10
92.9848296931
 20
265.8457410091
 30
0.0
 10
91.6340955753
 20
266.2091597611
 30
0.0
 10
90.2305884522
 20
266.2394005628
 30
0.0
 10
89.5658128311
 20
266.1630567939
 30
0.0
  0
SPLINE
  5
33B
100
AcDbEntity
  8
0
100
AcDbSpline
 62
7
  6
CONTINUOUS
 70
0
 71
3
 72
9
 73
5
 74
0
 42
0.0000001
 43
0.0000001
 44
0.0000000001
 40
0.0
 40
0.0
 40
0.0
 40
0.0
 40
0.4671887093
 40
1.0
 40
1.0
 40
1.0
 40
1.0
 10
68.7131727346
 20
246.1648775537
 30
0.0
 10
68.8415614294
 20
246.3574811601
 30
0.0
 10
69.0600457666
 20
246.8077225707
 30
0.0
 10
69.187163506
 20
247.289048001
 30
0.0
 10
69.2363292635
 20
247.5484156524
 30
0.0
  0
SPLINE
  5
33C
100
AcDbEntity
  8
0
100
AcDbSpline
 62
7
  6
CONTINUOUS
 70
0
 71
3
 72
11
 73
7
 74
0
 42
0.0000001
 43
0.0000001
 44
0.0000000001
 40
0.0
 40
0.0
 40
0.0
 40
0.0
 40
0.3969331882
 40
0.6810447465
 40
0.8638019643
 40
1.0
 40
1.0
 40
1.0
 40
1.0
 10
57.2010164453
 20
254.0109821434
 30
0.0
 10
57.1715600058
 20
254.0030965244
 30
0.0
 10
57.1199989296
 20
253.9913334169
 30
0.0
 10
57.0547586597
 20
253.9866558103
 30
0.0
 10
57.0056209768
 20
253.9951050611
 30
0.0
 10
56.9925295514
 20
254.0204791877
 30
0.0
 10
56.9925265447
 20
254.0309423586
 30
0.0
  0
SPLINE
  5
33D
100
AcDbEntity
  8
0
100
AcDbSpline
 62
7
  6
CONTINUOUS
 70
0
 71
3
 72
9
 73
5
 74
0
 42
0.0000001
 43
0.0000001
 44
0.0000000001
 40
0.0
 40
0.0
 40
0.0
 40
0.0
 40
0.5054966373
 40
1.0
 40
1.0
 40
1.0
 40
1.0
 10
58.3809190579
 20
257.2697072249
 30
0.0
 10
58.8819998729
 20
257.6158320872
 30
0.0
 10
59.9300482211
 20
258.2227590805
 30
0.0
 10
61.0680988684
 20
258.6392109361
 30
0.0
 10
61.6435460882
 20
258.7934468402
 30
0.0
  0
SPLINE
  5
33E
100
AcDbEntity
  8
0
100
AcDbSpline
 62
7
  6
CONTINUOUS
 70
0
 71
3
 72
9
 73
5
 74
0
 42
0.0000001
 43
0.0000001
 44
0.0000000001
 40
0.0
 40
0.0
 40
0.0
 40
0.0
 40
0.2620392993
 40
1.0
 40
1.0
 40
1.0
 40
1.0
 10
68.2325876645
 20
253.4970794489
 30
0.0
 10
67.9242521885
 20
253.6638253075
 30
0.0
 10
66.730150428
 20
254.266530529
 30
0.0
 10
65.4608550003
 20
254.7270772553
 30
0.0
 10
64.5003071185
 20
254.9548527445
 30
0.0
  0
SPLINE
  5
33F
100
AcDbEntity
  8
0
100
AcDbSpline
 62
7
  6
CONTINUOUS
 70
0
 71
3
 72
9
 73
5
 74
0
 42
0.0000001
 43
0.0000001
 44
0.0000000001
 40
0.0
 40
0.0
 40
0.0
 40
0.0
 40
0.2536249933
 40
1.0
 40
1.0
 40
1.0
 40
1.0
 10
64.5003071185
 20
254.9548527445
 30
0.0
 10
64.3855751421
 20
254.98205923
 30
0.0
 10
63.9317577525
 20
255.0830895905
 30
0.0
 10
63.4722051503
 20
255.1586485605
 30
0.0
 10
63.1275973991
 20
255.1993206545
 30
0.0
  0
SPLINE
  5
340
100
AcDbEntity
  8
0
100
AcDbSpline
 62
7
  6
CONTINUOUS
 70
0
 71
3
 72
9
 73
5
 74
0
 42
0.0000001
 43
0.0000001
 44
0.0000000001
 40
0.0
 40
0.0
 40
0.0
 40
0.0
 40
0.5067381453
 40
1.0
 40
1.0
 40
1.0
 40
1.0
 10
63.1275973991
 20
255.1993206545
 30
0.0
 10
62.4717386563
 20
255.2767279338
 30
0.0
 10
61.1607741705
 20
255.3172822593
 30
0.0
 10
59.8653082097
 20
255.1046551955
 30
0.0
 10
59.2443705123
 20
254.9382529774
 30
0.0
  0
SPLINE
  5
341
100
AcDbEntity
  8
0
100
AcDbSpline
 62
7
  6
CONTINUOUS
 70
0
 71
3
 72
12
 73
8
 74
0
 42
0.0000001
 43
0.0000001
 44
0.0000000001
 40
0.0
 40
0.0
 40
0.0
 40
0.0
 40
0.3075767546
 40
0.5705632506
 40
0.7960383134
 40
0.8995111166
 40
1.0
 40
1.0
 40
1.0
 40
1.0
 10
113.8942973679
 20
261.3020483651
 30
0.0
 10
114.5462847192
 20
260.9254725795
 30
0.0
 10
115.7149159982
 20
260.148286106
 30
0.0
 10
117.1251524472
 20
258.7844593417
 30
0.0
 10
117.8903532445
 20
257.5248098475
 30
0.0
 10
118.1848118304
 20
256.5102135398
 30
0.0
 10
118.2331435664
 20
256.0097012294
 30
0.0
 10
118.2331283469
 20
255.7637117556
 30
0.0
  0
SPLINE
  5
342
100
AcDbEntity
  8
0
100
AcDbSpline
 62
7
  6
CONTINUOUS
 70
0
 71
3
 72
25
 73
21
 74
0
 42
0.0000001
 43
0.0000001
 44
0.0000000001
 40
0.0
 40
0.0
 40
0.0
 40
0.0
 40
0.0157132535
 40
0.0319521791
 40
0.0676649323
 40
0.0878784914
 40
0.109886422
 40
0.159547617
 40
0.216762898
 40
0.280936762
 40
0.3510484768
 40
0.425786414
 40
0.5036415509
 40
0.5829823598
 40
0.6621213425
 40
0.7393786197
 40
0.8131454517
 40
0.8819534943
 40
0.9445482768
 40
1.0
 40
1.0
 40
1.0
 40
1.0
 10
118.2331283469
 20
255.7637117556
 30
0.0
 10
118.2331121562
 20
255.5020261568
 30
0.0
 10
118.1782814127
 20
254.9684064011
 30
0.0
 10
117.8432972721
 20
253.8860725262
 30
0.0
 10
117.17576731
 20
252.8586270619
 30
0.0
 10
116.2761732327
 20
251.9219083551
 30
0.0
 10
115.0988404877
 20
250.9394757158
 30
0.0
 10
113.2621842097
 20
249.8092293634
 30
0.0
 10
110.653139497
 20
248.651326076
 30
0.0
 10
107.6143264903
 20
247.6674995044
 30
0.0
 10
104.2194041603
 20
246.8820741055
 30
0.0
 10
100.5510709577
 20
246.31489569
 30
0.0
 10
96.7002984898
 20
245.9805353791
 30
0.0
 10
92.7629725095
 20
245.8876024873
 30
0.0
 10
88.8373943502
 20
246.0384893638
 30
0.0
 10
85.021503275
 20
246.4293215224
 30
0.0
 10
81.4103359556
 20
247.0499764166
 30
0.0
 10
78.0928602535
 20
247.8847319978
 30
0.0
 10
75.1508898015
 20
248.9120292736
 30
0.0
 10
73.3716612981
 20
249.7634951751
 30
0.0
 10
72.5719818966
 20
250.225375146
 30
0.0
  0
SPLINE
  5
343
100
AcDbEntity
  8
0
100
AcDbSpline
 62
7
  6
CONTINUOUS
 70
0
 71
3
 72
10
 73
6
 74
0
 42
0.0000001
 43
0.0000001
 44
0.0000000001
 40
0.0
 40
0.0
 40
0.0
 40
0.0
 40
0.2890272788
 40
0.5537770394
 40
1.0
 40
1.0
 40
1.0
 40
1.0
 10
93.6275278669
 20
240.676605915
 30
0.0
 10
93.4598939378
 20
241.0778205741
 30
0.0
 10
93.0831405558
 20
241.8257096204
 30
0.0
 10
92.2176048442
 20
243.0577407411
 30
0.0
 10
91.4064957132
 20
243.7981020655
 30
0.0
 10
90.8251740211
 20
244.1338626787
 30
0.0
  0
SPLINE
  5
344
100
AcDbEntity
  8
0
100
AcDbSpline
 62
7
  6
CONTINUOUS
 70
0
 71
3
 72
16
 73
12
 74
0
 42
0.0000001
 43
0.0000001
 44
0.0000000001
 40
0.0
 40
0.0
 40
0.0
 40
0.0
 40
0.1540023739
 40
0.3062575982
 40
0.4529500837
 40
0.5904979001
 40
0.7157844541
 40
0.8263976163
 40
0.8757666676
 40
0.9210857626
 40
1.0
 40
1.0
 40
1.0
 40
1.0
 10
90.825174021
 20
244.1338626787
 30
0.0
 10
92.2691626376
 20
244.078881134
 30
0.0
 10
95.1454420967
 20
244.0680761555
 30
0.0
 10
99.3900366747
 20
244.3409113626
 30
0.0
 10
103.4520145739
 20
244.8942024063
 30
0.0
 10
107.2116546259
 20
245.7110029365
 30
0.0
 10
110.5586677484
 20
246.7666156637
 30
0.0
 10
113.0125090486
 20
247.8570682338
 30
0.0
 10
114.6719581268
 20
248.841042439
 30
0.0
 10
115.9927669604
 20
249.79447591
 30
0.0
 10
116.83641661
 20
250.6237393376
 30
0.0
 10
117.2714559227
 20
251.2229335389
 30
0.0
  0
SPLINE
  5
345
100
AcDbEntity
  8
0
100
AcDbSpline
 62
7
  6
CONTINUOUS
 70
0
 71
3
 72
14
 73
10
 74
0
 42
0.0000001
 43
0.0000001
 44
0.0000000001
 40
0.0
 40
0.0
 40
0.0
 40
0.0
 40
0.0902027936
 40
0.1912733942
 40
0.3032324471
 40
0.4256449907
 40
0.5577061722
 40
0.6983466248
 40
1.0
 40
1.0
 40
1.0
 40
1.0
 10
120.0738097685
 20
247.7656767752
 30
0.0
 10
119.6396356544
 20
247.3480950996
 30
0.0
 10
118.6444312563
 20
246.5391274281
 30
0.0
 10
116.9237994686
 20
245.4643772832
 30
0.0
 10
114.9119906102
 20
244.4717663121
 30
0.0
 10
112.6333663707
 20
243.5731775057
 30
0.0
 10
110.1149058867
 20
242.7792489022
 30
0.0
 10
106.3912224286
 20
241.8520835952
 30
0.0
 10
103.4687942711
 20
241.3784346419
 30
0.0
 10
101.467819878
 20
241.1452490366
 30
0.0
  0
SPLINE
  5
346
100
AcDbEntity
  8
0
100
AcDbSpline
 62
7
  6
CONTINUOUS
 70
0
 71
3
 72
10
 73
6
 74
0
 42
0.0000001
 43
0.0000001
 44
0.0000000001
 40
0.0
 40
0.0
 40
0.0
 40
0.0
 40
0.2319477672
 40
0.4735294506
 40
1.0
 40
1.0
 40
1.0
 40
1.0
 10
63.1195309295
 20
259.0739859337
 30
0.0
 10
63.5737958968
 20
259.1261543625
 30
0.0
 10
64.5130736788
 20
259.1465993146
 30
0.0
 10
66.4693916463
 20
258.8512342905
 30
0.0
 10
67.89476795
 20
258.2672970841
 30
0.0
 10
68.8055901789
 20
257.7697493635
 30
0.0
  0
SPLINE
  5
347
100
AcDbEntity
  8
0
100
AcDbSpline
 62
7
  6
CONTINUOUS
 70
0
 71
3
 72
10
 73
6
 74
0
 42
0.0000001
 43
0.0000001
 44
0.0000000001
 40
0.0
 40
0.0
 40
0.0
 40
0.0
 40
0.606034135
 40
0.8318706254
 40
1.0
 40
1.0
 40
1.0
 40
1.0
 10
58.3809190579
 20
254.6024491189
 30
0.0
 10
58.1541792438
 20
254.46096017
 30
0.0
 10
57.836594113
 20
254.2754501917
 30
0.0
 10
57.4362573682
 20
254.0901706738
 30
0.0
 10
57.2726402488
 20
254.0301561521
 30
0.0
 10
57.2010164453
 20
254.0109821434
 30
0.0
  0
SPLINE
  5
348
100
AcDbEntity
  8
0
100
AcDbSpline
 62
7
  6
CONTINUOUS
 70
0
 71
3
 72
12
 73
8
 74
0
 42
0.0000001
 43
0.0000001
 44
0.0000000001
 40
0.0
 40
0.0
 40
0.0
 40
0.0
 40
0.3075767546
 40
0.5705632506
 40
0.7960383134
 40
0.8995111166
 40
1.0
 40
1.0
 40
1.0
 40
1.0
 10
72.5719818966
 20
250.225375146
 30
0.0
 10
71.9199945453
 20
250.6019509316
 30
0.0
 10
70.7513632663
 20
251.3791374051
 30
0.0
 10
69.3411268173
 20
252.7429641693
 30
0.0
 10
68.57592602
 20
254.0026136635
 30
0.0
 10
68.2814674341
 20
255.0172099712
 30
0.0
 10
68.2331356981
 20
255.5177222817
 30
0.0
 10
68.2331509176
 20
255.7637117554
 30
0.0
  0
SPLINE
  5
349
100
AcDbEntity
  8
0
100
AcDbSpline
 62
7
  6
CONTINUOUS
 70
0
 71
3
 72
9
 73
5
 74
0
 42
0.0000001
 43
0.0000001
 44
0.0000000001
 40
0.0
 40
0.0
 40
0.0
 40
0.0
 40
0.5030187451
 40
1.0
 40
1.0
 40
1.0
 40
1.0
 10
86.3217713036
 20
202.989700495
 30
0.0
 10
85.5099250462
 20
202.7720806546
 30
0.0
 10
83.8497224826
 20
202.4944724248
 30
0.0
 10
82.1668273149
 20
202.5566838766
 30
0.0
 10
81.3444406932
 20
202.6719068673
 30
0.0
  0
SPLINE
  5
34A
100
AcDbEntity
  8
0
100
AcDbSpline
 62
7
  6
CONTINUOUS
 70
0
 71
3
 72
13
 73
9
 74
0
 42
0.0000001
 43
0.0000001
 44
0.0000000001
 40
0.0
 40
0.0
 40
0.0
 40
0.0
 40
0.2680788584
 40
0.5231814067
 40
0.6459682709
 40
0.7658127161
 40
0.8834853795
 40
1.0
 40
1.0
 40
1.0
 40
1.0
 10
71.9362150096
 20
221.254328672
 30
0.0
 10
72.0234929282
 20
220.672048979
 30
0.0
 10
72.3428344725
 20
219.5512480582
 30
0.0
 10
73.1158413276
 20
218.3335219171
 30
0.0
 10
73.9103831904
 20
217.576097283
 30
0.0
 10
74.5705096587
 20
217.1322723644
 30
0.0
 10
75.2858856528
 20
216.8174685637
 30
0.0
 10
75.7898716898
 20
216.6987255634
 30
0.0
 10
76.0432981227
 20
216.6632147079
 30
0.0
  0
SPLINE
  5
34B
100
AcDbEntity
  8
0
100
AcDbSpline
 62
7
  6
CONTINUOUS
 70
0
 71
3
 72
13
 73
9
 74
0
 42
0.0000001
 43
0.0000001
 44
0.0000000001
 40
0.0
 40
0.0
 40
0.0
 40
0.0
 40
0.2680788584
 40
0.5231814067
 40
0.6459682709
 40
0.7658127161
 40
0.8834853795
 40
1.0
 40
1.0
 40
1.0
 40
1.0
 10
84.4613762391
 20
224.611766811
 30
0.0
 10
84.5486541577
 20
224.029487118
 30
0.0
 10
84.8679957019
 20
222.9086861972
 30
0.0
 10
85.6410025571
 20
221.6909600561
 30
0.0
 10
86.4355444199
 20
220.933535422
 30
0.0
 10
87.0956708881
 20
220.4897105034
 30
0.0
 10
87.8110468823
 20
220.1749067027
 30
0.0
 10
88.3150329192
 20
220.0561637024
 30
0.0
 10
88.5684593522
 20
220.0206528469
 30
0.0
  0
SPLINE
  5
34C
100
AcDbEntity
  8
0
100
AcDbSpline
 62
7
  6
CONTINUOUS
 70
0
 71
3
 72
13
 73
9
 74
0
 42
0.0000001
 43
0.0000001
 44
0.0000000001
 40
0.0
 40
0.0
 40
0.0
 40
0.0
 40
0.1126084257
 40
0.227816271
 40
0.3475015298
 40
0.4724025418
 40
0.7336674034
 40
1.0
 40
1.0
 40
1.0
 40
1.0
 10
84.5207972102
 20
215.6593797561
 30
0.0
 10
84.2536643932
 20
215.696789786
 30
0.0
 10
83.6991731486
 20
215.6940258777
 30
0.0
 10
82.891354238
 20
215.4556278163
 30
0.0
 10
82.1483447644
 20
215.0006757919
 30
0.0
 10
81.2884755983
 20
214.133073192
 30
0.0
 10
80.5888462345
 20
212.6823160092
 30
0.0
 10
80.5173902967
 20
211.3822598747
 30
0.0
 10
80.6119587376
 20
210.7513410402
 30
0.0
  0
SPLINE
  5
34D
100
AcDbEntity
  8
0
100
AcDbSpline
 62
7
  6
CONTINUOUS
 70
0
 71
3
 72
11
 73
7
 74
0
 42
0.0000001
 43
0.0000001
 44
0.0000000001
 40
0.0
 40
0.0
 40
0.0
 40
0.0
 40
0.2412226829
 40
0.4864004876
 40
0.7387081592
 40
1.0
 40
1.0
 40
1.0
 40
1.0
 10
87.1144920129
 20
229.435085768
 30
0.0
 10
86.9410702409
 20
229.4593563113
 30
0.0
 10
86.5840852281
 20
229.4662257589
 30
0.0
 10
86.0559607431
 20
229.349546155
 30
0.0
 10
85.5542052911
 20
229.1121848641
 30
0.0
 10
85.2554811521
 20
228.8841411995
 30
0.0
 10
85.1164039876
 20
228.7551592687
 30
0.0
  0
SPLINE
  5
34E
100
AcDbEntity
  8
0
100
AcDbSpline
 62
7
  6
CONTINUOUS
 70
0
 71
3
 72
15
 73
11
 74
0
 42
0.0000001
 43
0.0000001
 44
0.0000000001
 40
0.0
 40
0.0
 40
0.0
 40
0.0
 40
0.1122972696
 40
0.2271858423
 40
0.3465390819
 40
0.4710941883
 40
0.6004023262
 40
0.7330563344
 40
0.8670054514
 40
1.0
 40
1.0
 40
1.0
 40
1.0
 10
90.2250319216
 20
231.8487864274
 30
0.0
 10
89.8311441099
 20
231.9039791435
 30
0.0
 10
89.0135409718
 20
231.8998712555
 30
0.0
 10
87.8223740345
 20
231.5483079066
 30
0.0
 10
86.7269454389
 20
230.8776715662
 30
0.0
 10
85.7883401754
 20
229.9304046922
 30
0.0
 10
85.0555449129
 20
228.7618142612
 30
0.0
 10
84.5671345019
 20
227.4370208354
 30
0.0
 10
84.3485733623
 20
226.0297613862
 30
0.0
 10
84.3915517905
 20
225.0776046669
 30
0.0
 10
84.4613762391
 20
224.611766811
 30
0.0
  0
SPLINE
  5
34F
100
AcDbEntity
  8
0
100
AcDbSpline
 62
7
  6
CONTINUOUS
 70
0
 71
3
 72
11
 73
7
 74
0
 42
0.0000001
 43
0.0000001
 44
0.0000000001
 40
0.0
 40
0.0
 40
0.0
 40
0.0
 40
0.2412226829
 40
0.4864004876
 40
0.7387081592
 40
1.0
 40
1.0
 40
1.0
 40
1.0
 10
74.5893307834
 20
226.077647629
 30
0.0
 10
74.4159090114
 20
226.1019181723
 30
0.0
 10
74.0589239986
 20
226.1087876199
 30
0.0
 10
73.5307995136
 20
225.992108016
 30
0.0
 10
73.0290440616
 20
225.7547467251
 30
0.0
 10
72.7303199227
 20
225.5267030605
 30
0.0
 10
72.5912427581
 20
225.3977211297
 30
0.0
  0
SPLINE
  5
350
100
AcDbEntity
  8
0
100
AcDbSpline
 62
7
  6
CONTINUOUS
 70
0
 71
3
 72
15
 73
11
 74
0
 42
0.0000001
 43
0.0000001
 44
0.0000000001
 40
0.0
 40
0.0
 40
0.0
 40
0.0
 40
0.1122972696
 40
0.2271858423
 40
0.3465390819
 40
0.4710941883
 40
0.6004023262
 40
0.7330563344
 40
0.8670054514
 40
1.0
 40
1.0
 40
1.0
 40
1.0
 10
77.6998706921
 20
228.4913482884
 30
0.0
 10
77.3059828804
 20
228.5465410045
 30
0.0
 10
76.4883797423
 20
228.5424331165
 30
0.0
 10
75.297212805
 20
228.1908697675
 30
0.0
 10
74.2017842094
 20
227.5202334272
 30
0.0
 10
73.2631789459
 20
226.5729665532
 30
0.0
 10
72.5303836835
 20
225.4043761222
 30
0.0
 10
72.0419732724
 20
224.0795826964
 30
0.0
 10
71.8234121329
 20
222.6723232472
 30
0.0
 10
71.866390561
 20
221.7201665279
 30
0.0
 10
71.9362150096
 20
221.254328672
 30
0.0
  0
SPLINE
  5
351
100
AcDbEntity
  8
0
100
AcDbSpline
 62
7
  6
CONTINUOUS
 70
0
 71
3
 72
11
 73
7
 74
0
 42
0.0000001
 43
0.0000001
 44
0.0000000001
 40
0.0
 40
0.0
 40
0.0
 40
0.0
 40
0.2614382872
 40
0.5138046265
 40
0.7589124457
 40
1.0
 40
1.0
 40
1.0
 40
1.0
 10
71.969311597
 20
221.0608094156
 30
0.0
 10
72.0674272975
 20
220.8960438048
 30
0.0
 10
72.2923619186
 20
220.5898549388
 30
0.0
 10
72.7120461011
 20
220.217539078
 30
0.0
 10
73.1918538562
 20
219.9559753039
 30
0.0
 10
73.5403931727
 20
219.863080543
 30
0.0
 10
73.7155255301
 20
219.8385706015
 30
0.0
  0
SPLINE
  5
352
100
AcDbEntity
  8
0
100
AcDbSpline
 62
7
  6
CONTINUOUS
 70
0
 71
3
 72
11
 73
7
 74
0
 42
0.0000001
 43
0.0000001
 44
0.0000000001
 40
0.0
 40
0.0
 40
0.0
 40
0.0
 40
0.2614382872
 40
0.5138046265
 40
0.7589124457
 40
1.0
 40
1.0
 40
1.0
 40
1.0
 10
84.4944728265
 20
224.4182475546
 30
0.0
 10
84.592588527
 20
224.2534819438
 30
0.0
 10
84.817523148
 20
223.9472930778
 30
0.0
 10
85.2372073306
 20
223.574977217
 30
0.0
 10
85.7170150857
 20
223.3134134429
 30
0.0
 10
86.0655544022
 20
223.220518682
 30
0.0
 10
86.2406867595
 20
223.1960087405
 30
0.0
  0
SPLINE
  5
353
100
AcDbEntity
  8
0
100
AcDbSpline
 62
7
  6
CONTINUOUS
 70
0
 71
3
 72
11
 73
7
 74
0
 42
0.0000001
 43
0.0000001
 44
0.0000000001
 40
0.0
 40
0.0
 40
0.0
 40
0.0
 40
0.2685754896
 40
0.5241420781
 40
0.7663548172
 40
1.0
 40
1.0
 40
1.0
 40
1.0
 10
80.6119587376
 20
210.7513410402
 30
0.0
 10
80.6711501214
 20
210.3564422918
 30
0.0
 10
80.8880623813
 20
209.5960328795
 30
0.0
 10
81.507385496
 20
208.6193457074
 30
0.0
 10
82.3651981479
 20
207.9182740955
 30
0.0
 10
83.0533156019
 20
207.6859008803
 30
0.0
 10
83.3973353712
 20
207.6377233857
 30
0.0
  0
SPLINE
  5
354
100
AcDbEntity
  8
0
100
AcDbSpline
 62
7
  6
CONTINUOUS
 70
0
 71
3
 72
23
 73
19
 74
0
 42
0.0000001
 43
0.0000001
 44
0.0000000001
 40
0.0
 40
0.0
 40
0.0
 40
0.0
 40
0.0563096029
 40
0.1133378113
 40
0.1716945502
 40
0.2317916509
 40
0.2938065667
 40
0.3576785656
 40
0.4231357978
 40
0.4897392737
 40
0.5569358628
 40
0.6241154834
 40
0.6906697158
 40
0.7560505374
 40
0.8198252513
 40
0.8817345369
 40
0.9417276292
 40
1.0
 40
1.0
 40
1.0
 40
1.0
 10
86.1989318636
 20
237.333574239
 30
0.0
 10
87.0444481343
 20
237.2151105982
 30
0.0
 10
88.7262938197
 20
236.7958708252
 30
0.0
 10
91.0832444372
 20
235.6503807725
 30
0.0
 10
93.211423849
 20
234.0251900593
 30
0.0
 10
95.045123761
 20
231.973655227
 30
0.0
 10
96.5310427092
 20
229.560638869
 30
0.0
 10
97.6263115555
 20
226.8604473283
 30
0.0
 10
98.2997347901
 20
223.954941398
 30
0.0
 10
98.5322469321
 20
220.9315420493
 30
0.0
 10
98.3175281641
 20
217.8809443088
 30
0.0
 10
97.6622143983
 20
214.8945922796
 30
0.0
 10
96.5857538185
 20
212.0620554898
 30
0.0
 10
95.1197467447
 20
209.4685154407
 30
0.0
 10
93.3072671914
 20
207.1923455946
 30
0.0
 10
91.2009006669
 20
205.3031520842
 30
0.0
 10
88.8640893109
 20
203.860187454
 30
0.0
 10
87.1751774906
 20
203.2184607024
 30
0.0
 10
86.3217713036
 20
202.989700495
 30
0.0
  0
SPLINE
  5
355
100
AcDbEntity
  8
0
100
AcDbSpline
 62
7
  6
CONTINUOUS
 70
0
 71
3
 72
9
 73
5
 74
0
 42
0.0000001
 43
0.0000001
 44
0.0000000001
 40
0.0
 40
0.0
 40
0.0
 40
0.0
 40
0.5030187451
 40
1.0
 40
1.0
 40
1.0
 40
1.0
 10
81.2216012533
 20
237.0157806112
 30
0.0
 10
82.0334475107
 20
237.2334004516
 30
0.0
 10
83.6936500743
 20
237.5110086814
 30
0.0
 10
85.376545242
 20
237.4487972296
 30
0.0
 10
86.1989318636
 20
237.333574239
 30
0.0
  0
SPLINE
  5
356
100
AcDbEntity
  8
0
100
AcDbSpline
 62
7
  6
CONTINUOUS
 70
0
 71
3
 72
13
 73
9
 74
0
 42
0.0000001
 43
0.0000001
 44
0.0000000001
 40
0.0
 40
0.0
 40
0.0
 40
0.0
 40
0.2680788584
 40
0.5231814067
 40
0.6459682709
 40
0.7658127161
 40
0.8834853795
 40
1.0
 40
1.0
 40
1.0
 40
1.0
 10
94.3321150347
 20
227.2576724633
 30
0.0
 10
94.2448371161
 20
227.8399521563
 30
0.0
 10
93.9254955719
 20
228.9607530771
 30
0.0
 10
93.1524887167
 20
230.1784792181
 30
0.0
 10
92.3579468539
 20
230.9359038523
 30
0.0
 10
91.6978203857
 20
231.3797287709
 30
0.0
 10
90.9824443916
 20
231.6945325715
 30
0.0
 10
90.4784583546
 20
231.8132755719
 30
0.0
 10
90.2250319216
 20
231.8487864274
 30
0.0
  0
SPLINE
  5
357
100
AcDbEntity
  8
0
100
AcDbSpline
 62
7
  6
CONTINUOUS
 70
0
 71
3
 72
20
 73
16
 74
0
 42
0.0000001
 43
0.0000001
 44
0.0000000001
 40
0.0
 40
0.0
 40
0.0
 40
0.0
 40
0.1300027718
 40
0.1922040414
 40
0.2522675143
 40
0.3105435057
 40
0.3676944388
 40
0.4245964115
 40
0.4821749192
 40
0.5412242274
 40
0.6022679128
 40
0.6654925114
 40
0.730750213
 40
0.8649643948
 40
1.0
 40
1.0
 40
1.0
 40
1.0
 10
80.046728619
 20
210.1559430645
 30
0.0
 10
80.1586735437
 20
209.4090960106
 30
0.0
 10
80.5119729299
 20
208.3165199112
 30
0.0
 10
81.3432100806
 20
207.1006822211
 30
0.0
 10
82.1031361797
 20
206.3661439021
 30
0.0
 10
82.9794683635
 20
205.8288053967
 30
0.0
 10
83.9384567874
 20
205.5110699373
 30
0.0
 10
84.9412647694
 20
205.4270456744
 30
0.0
 10
85.9467155846
 20
205.5797994017
 30
0.0
 10
86.9144375547
 20
205.9616679037
 30
0.0
 10
87.8071169188
 20
206.5556799759
 30
0.0
 10
88.5916845971
 20
207.3376815528
 30
0.0
 10
89.4621897371
 20
208.5998106322
 30
0.0
 10
90.1308956376
 20
210.4645189811
 30
0.0
 10
90.1630076408
 20
212.060738032
 30
0.0
 10
90.046728963
 20
212.8364979836
 30
0.0
  0
SPLINE
  5
358
100
AcDbEntity
  8
0
100
AcDbSpline
 62
7
  6
CONTINUOUS
 70
0
 71
3
 72
20
 73
16
 74
0
 42
0.0000001
 43
0.0000001
 44
0.0000000001
 40
0.0
 40
0.0
 40
0.0
 40
0.0
 40
0.1300027718
 40
0.1922040414
 40
0.2522675143
 40
0.3105435057
 40
0.3676944388
 40
0.4245964115
 40
0.4821749192
 40
0.5412242274
 40
0.6022679128
 40
0.6654925114
 40
0.730750213
 40
0.8649643948
 40
1.0
 40
1.0
 40
1.0
 40
1.0
 10
90.046728963
 20
212.8364979836
 30
0.0
 10
89.9347840401
 20
213.5833450378
 30
0.0
 10
89.5814846518
 20
214.6759211369
 30
0.0
 10
88.7502475015
 20
215.891758827
 30
0.0
 10
87.9903214023
 20
216.626297146
 30
0.0
 10
87.1139892185
 20
217.1636356515
 30
0.0
 10
86.1550007946
 20
217.4813711109
 30
0.0
 10
85.1521928126
 20
217.5653953738
 30
0.0
 10
84.1467419974
 20
217.4126416464
 30
0.0
 10
83.1790200273
 20
217.0307731445
 30
0.0
 10
82.2863406632
 20
216.4367610723
 30
0.0
 10
81.5017729849
 20
215.6547594953
 30
0.0
 10
80.6312678448
 20
214.392630416
 30
0.0
 10
79.9625619453
 20
212.5279220672
 30
0.0
 10
79.9304499393
 20
210.9317030159
 30
0.0
 10
80.046728619
 20
210.1559430645
 30
0.0
  0
SPLINE
  5
359
100
AcDbEntity
  8
0
100
AcDbSpline
 62
7
  6
CONTINUOUS
 70
0
 71
3
 72
13
 73
9
 74
0
 42
0.0000001
 43
0.0000001
 44
0.0000000001
 40
0.0
 40
0.0
 40
0.0
 40
0.0
 40
0.2617707759
 40
0.521441147
 40
0.6473487425
 40
0.7690714433
 40
0.8864351554
 40
1.0
 40
1.0
 40
1.0
 40
1.0
 10
79.0877975546
 20
224.2810619414
 30
0.0
 10
79.2067630032
 20
223.4873770552
 30
0.0
 10
79.1641302536
 20
221.8537088973
 30
0.0
 10
78.4462695036
 20
219.9585708159
 30
0.0
 10
77.5213944128
 20
218.6981388471
 30
0.0
 10
76.6934712245
 20
217.93389736
 30
0.0
 10
75.7585679804
 20
217.3753474523
 30
0.0
 10
75.0783602808
 20
217.153636774
 30
0.0
 10
74.7368332328
 20
217.0859318918
 30
0.0
  0
SPLINE
  5
35A
100
AcDbEntity
  8
0
100
AcDbSpline
 62
7
  6
CONTINUOUS
 70
0
 71
3
 72
13
 73
9
 74
0
 42
0.0000001
 43
0.0000001
 44
0.0000000001
 40
0.0
 40
0.0
 40
0.0
 40
0.0
 40
0.1126067443
 40
0.2278114863
 40
0.3474939257
 40
0.4723925327
 40
0.7336572713
 40
1.0
 40
1.0
 40
1.0
 40
1.0
 10
86.2406867595
 20
223.1960087405
 30
0.0
 10
86.4484564176
 20
223.1669311776
 30
0.0
 10
86.8797146483
 20
223.1690534088
 30
0.0
 10
87.5080075962
 20
223.3544771337
 30
0.0
 10
88.0858932456
 20
223.7083126735
 30
0.0
 10
88.7546858891
 20
224.38309625
 30
0.0
 10
89.2988745338
 20
225.5114659486
 30
0.0
 10
89.3544513516
 20
226.5226439448
 30
0.0
 10
89.2808952609
 20
227.0133776671
 30
0.0
  0
SPLINE
  5
35B
100
AcDbEntity
  8
0
100
AcDbSpline
 62
7
  6
CONTINUOUS
 70
0
 71
3
 72
11
 73
7
 74
0
 42
0.0000001
 43
0.0000001
 44
0.0000000001
 40
0.0
 40
0.0
 40
0.0
 40
0.0
 40
0.2685826371
 40
0.5241452025
 40
0.7663561843
 40
1.0
 40
1.0
 40
1.0
 40
1.0
 10
76.7557340314
 20
223.6559395281
 30
0.0
 10
76.7096952084
 20
223.9630902047
 30
0.0
 10
76.5409964442
 20
224.5545281137
 30
0.0
 10
76.0592525788
 20
225.3141446437
 30
0.0
 10
75.3920925695
 20
225.8594144714
 30
0.0
 10
74.8569026806
 20
226.0402006853
 30
0.0
 10
74.5893307834
 20
226.077647629
 30
0.0
  0
SPLINE
  5
35C
100
AcDbEntity
  8
0
100
AcDbSpline
 62
7
  6
CONTINUOUS
 70
0
 71
3
 72
13
 73
9
 74
0
 42
0.0000001
 43
0.0000001
 44
0.0000000001
 40
0.0
 40
0.0
 40
0.0
 40
0.0
 40
0.2617707759
 40
0.521441147
 40
0.6473487425
 40
0.7690714433
 40
0.8864351554
 40
1.0
 40
1.0
 40
1.0
 40
1.0
 10
91.6129587841
 20
227.6385000804
 30
0.0
 10
91.7319242327
 20
226.8448151942
 30
0.0
 10
91.6892914831
 20
225.2111470363
 30
0.0
 10
90.9714307331
 20
223.3160089549
 30
0.0
 10
90.0465556423
 20
222.0555769861
 30
0.0
 10
89.218632454
 20
221.291335499
 30
0.0
 10
88.2837292099
 20
220.7327855913
 30
0.0
 10
87.6035215103
 20
220.5110749131
 30
0.0
 10
87.2619944622
 20
220.4433700308
 30
0.0
  0
SPLINE
  5
35D
100
AcDbEntity
  8
0
100
AcDbSpline
 62
7
  6
CONTINUOUS
 70
0
 71
3
 72
11
 73
7
 74
0
 42
0.0000001
 43
0.0000001
 44
0.0000000001
 40
0.0
 40
0.0
 40
0.0
 40
0.0
 40
0.2352692755
 40
0.4800177702
 40
0.7353274345
 40
1.0
 40
1.0
 40
1.0
 40
1.0
 10
88.8267728854
 20
231.8144272571
 30
0.0
 10
89.1909830707
 20
231.6306584796
 30
0.0
 10
89.8840642853
 20
231.1486288687
 30
0.0
 10
90.7171646982
 20
230.1670366739
 30
0.0
 10
91.3201720707
 20
228.9736218285
 30
0.0
 10
91.5449297065
 20
228.0923600147
 30
0.0
 10
91.6129587841
 20
227.6385000804
 30
0.0
  0
SPLINE
  5
35E
100
AcDbEntity
  8
0
100
AcDbSpline
 62
7
  6
CONTINUOUS
 70
0
 71
3
 72
15
 73
11
 74
0
 42
0.0000001
 43
0.0000001
 44
0.0000000001
 40
0.0
 40
0.0
 40
0.0
 40
0.0
 40
0.1122972696
 40
0.2271858423
 40
0.3465390819
 40
0.4710941883
 40
0.6004023262
 40
0.7330563344
 40
0.8670054514
 40
1.0
 40
1.0
 40
1.0
 40
1.0
 10
88.5684593522
 20
220.0206528469
 30
0.0
 10
88.9623471639
 20
219.9654601308
 30
0.0
 10
89.7799503021
 20
219.9695680188
 30
0.0
 10
90.9711172393
 20
220.3211313677
 30
0.0
 10
92.0665458349
 20
220.9917677081
 30
0.0
 10
93.0051510984
 20
221.9390345821
 30
0.0
 10
93.7379463609
 20
223.1076250131
 30
0.0
 10
94.2263567719
 20
224.4324184389
 30
0.0
 10
94.4449179115
 20
225.8396778881
 30
0.0
 10
94.4019394833
 20
226.7918346074
 30
0.0
 10
94.3321150347
 20
227.2576724633
 30
0.0
  0
SPLINE
  5
35F
100
AcDbEntity
  8
0
100
AcDbSpline
 62
7
  6
CONTINUOUS
 70
0
 71
3
 72
11
 73
7
 74
0
 42
0.0000001
 43
0.0000001
 44
0.0000000001
 40
0.0
 40
0.0
 40
0.0
 40
0.0
 40
0.2685826371
 40
0.5241452025
 40
0.7663561843
 40
1.0
 40
1.0
 40
1.0
 40
1.0
 10
89.2808952609
 20
227.0133776671
 30
0.0
 10
89.2348564379
 20
227.3205283437
 30
0.0
 10
89.0661576737
 20
227.9119662527
 30
0.0
 10
88.5844138083
 20
228.6715827827
 30
0.0
 10
87.917253799
 20
229.2168526104
 30
0.0
 10
87.3820639101
 20
229.3976388243
 30
0.0
 10
87.1144920129
 20
229.435085768
 30
0.0
  0
SPLINE
  5
360
100
AcDbEntity
  8
0
100
AcDbSpline
 62
7
  6
CONTINUOUS
 70
0
 71
3
 72
11
 73
7
 74
0
 42
0.0000001
 43
0.0000001
 44
0.0000000001
 40
0.0
 40
0.0
 40
0.0
 40
0.0
 40
0.2685754896
 40
0.5241420781
 40
0.7663548172
 40
1.0
 40
1.0
 40
1.0
 40
1.0
 10
87.3061738451
 20
212.5457620937
 30
0.0
 10
87.2469824617
 20
212.9406608429
 30
0.0
 10
87.0300702028
 20
213.7010702571
 30
0.0
 10
86.4107470881
 20
214.6777574317
 30
0.0
 10
85.5529344353
 20
215.3788290456
 30
0.0
 10
84.8648169801
 20
215.6112022614
 30
0.0
 10
84.5207972102
 20
215.6593797561
 30
0.0
  0
SPLINE
  5
361
100
AcDbEntity
  8
0
100
AcDbSpline
 62
7
  6
CONTINUOUS
 70
0
 71
3
 72
13
 73
9
 74
0
 42
0.0000001
 43
0.0000001
 44
0.0000000001
 40
0.0
 40
0.0
 40
0.0
 40
0.0
 40
0.1126067443
 40
0.2278114863
 40
0.3474939257
 40
0.4723925327
 40
0.7336572713
 40
1.0
 40
1.0
 40
1.0
 40
1.0
 10
73.7155255301
 20
219.8385706015
 30
0.0
 10
73.9232951881
 20
219.8094930386
 30
0.0
 10
74.3545534188
 20
219.8116152698
 30
0.0
 10
74.9828463667
 20
219.9970389947
 30
0.0
 10
75.5607320162
 20
220.3508745345
 30
0.0
 10
76.2295246596
 20
221.025658111
 30
0.0
 10
76.7737133044
 20
222.1540278096
 30
0.0
 10
76.8292901221
 20
223.1652058058
 30
0.0
 10
76.7557340314
 20
223.6559395281
 30
0.0
  0
SPLINE
  5
362
100
AcDbEntity
  8
0
100
AcDbSpline
 62
7
  6
CONTINUOUS
 70
0
 71
3
 72
23
 73
19
 74
0
 42
0.0000001
 43
0.0000001
 44
0.0000000001
 40
0.0
 40
0.0
 40
0.0
 40
0.0
 40
0.0563096029
 40
0.1133378113
 40
0.1716945502
 40
0.2317916509
 40
0.2938065667
 40
0.3576785656
 40
0.4231357978
 40
0.4897392737
 40
0.5569358628
 40
0.6241154834
 40
0.6906697158
 40
0.7560505374
 40
0.8198252513
 40
0.8817345369
 40
0.9417276292
 40
1.0
 40
1.0
 40
1.0
 40
1.0
 10
81.3444406932
 20
202.6719068673
 30
0.0
 10
80.4989244226
 20
202.7903705081
 30
0.0
 10
78.8170787372
 20
203.209610281
 30
0.0
 10
76.4601281197
 20
204.3551003337
 30
0.0
 10
74.3319487079
 20
205.9802910469
 30
0.0
 10
72.4982487959
 20
208.0318258792
 30
0.0
 10
71.0123298477
 20
210.4448422372
 30
0.0
 10
69.9170610014
 20
213.1450337779
 30
0.0
 10
69.2436377668
 20
216.0505397082
 30
0.0
 10
69.0111256248
 20
219.0739390569
 30
0.0
 10
69.2258443927
 20
222.1245367975
 30
0.0
 10
69.8811581586
 20
225.1108888266
 30
0.0
 10
70.9576187384
 20
227.9434256164
 30
0.0
 10
72.4236258122
 20
230.5369656655
 30
0.0
 10
74.2361053655
 20
232.8131355116
 30
0.0
 10
76.34247189
 20
234.702329022
 30
0.0
 10
78.679283246
 20
236.1452936522
 30
0.0
 10
80.3681950663
 20
236.7870204038
 30
0.0
 10
81.2216012533
 20
237.0157806112
 30
0.0
  0
SPLINE
  5
363
100
AcDbEntity
  8
0
100
AcDbSpline
 62
7
  6
CONTINUOUS
 70
0
 71
3
 72
13
 73
9
 74
0
 42
0.0000001
 43
0.0000001
 44
0.0000000001
 40
0.0
 40
0.0
 40
0.0
 40
0.0
 40
0.2680788584
 40
0.5231814067
 40
0.6459682709
 40
0.7658127161
 40
0.8834853795
 40
1.0
 40
1.0
 40
1.0
 40
1.0
 10
81.8069538053
 20
223.9002343243
 30
0.0
 10
81.7196758866
 20
224.4825140173
 30
0.0
 10
81.4003343424
 20
225.6033149381
 30
0.0
 10
80.6273274872
 20
226.8210410791
 30
0.0
 10
79.8327856245
 20
227.5784657133
 30
0.0
 10
79.1726591562
 20
228.0222906319
 30
0.0
 10
78.4572831621
 20
228.3370944325
 30
0.0
 10
77.9532971251
 20
228.4558374329
 30
0.0
 10
77.6998706921
 20
228.4913482884
 30
0.0
  0
SPLINE
  5
364
100
AcDbEntity
  8
0
100
AcDbSpline
 62
7
  6
CONTINUOUS
 70
0
 71
3
 72
11
 73
7
 74
0
 42
0.0000001
 43
0.0000001
 44
0.0000000001
 40
0.0
 40
0.0
 40
0.0
 40
0.0
 40
0.2352692755
 40
0.4800177702
 40
0.7353274345
 40
1.0
 40
1.0
 40
1.0
 40
1.0
 10
76.3016116559
 20
228.4569891181
 30
0.0
 10
76.6658218412
 20
228.2732203406
 30
0.0
 10
77.3589030558
 20
227.7911907296
 30
0.0
 10
78.1920034687
 20
226.8095985349
 30
0.0
 10
78.7950108412
 20
225.6161836895
 30
0.0
 10
79.019768477
 20
224.7349218757
 30
0.0
 10
79.0877975546
 20
224.2810619414
 30
0.0
  0
SPLINE
  5
365
100
AcDbEntity
  8
0
100
AcDbSpline
 62
7
  6
CONTINUOUS
 70
0
 71
3
 72
15
 73
11
 74
0
 42
0.0000001
 43
0.0000001
 44
0.0000000001
 40
0.0
 40
0.0
 40
0.0
 40
0.0
 40
0.1122972696
 40
0.2271858423
 40
0.3465390819
 40
0.4710941883
 40
0.6004023262
 40
0.7330563344
 40
0.8670054514
 40
1.0
 40
1.0
 40
1.0
 40
1.0
 10
76.0432981227
 20
216.6632147079
 30
0.0
 10
76.4371859345
 20
216.6080219918
 30
0.0
 10
77.2547890726
 20
216.6121298798
 30
0.0
 10
78.4459560098
 20
216.9636932287
 30
0.0
 10
79.5413846054
 20
217.634329569
 30
0.0
 10
80.4799898689
 20
218.5815964431
 30
0.0
 10
81.2127851314
 20
219.7501868741
 30
0.0
 10
81.7011955425
 20
221.0749802999
 30
0.0
 10
81.919756682
 20
222.4822397491
 30
0.0
 10
81.8767782538
 20
223.4343964684
 30
0.0
 10
81.8069538053
 20
223.9002343243
 30
0.0
  0
SPLINE
  5
366
100
AcDbEntity
  8
0
100
AcDbSpline
 62
7
  6
CONTINUOUS
 70
0
 71
3
 72
13
 73
9
 74
0
 42
0.0000001
 43
0.0000001
 44
0.0000000001
 40
0.0
 40
0.0
 40
0.0
 40
0.0
 40
0.1126084257
 40
0.227816271
 40
0.3475015298
 40
0.4724025418
 40
0.7336674034
 40
1.0
 40
1.0
 40
1.0
 40
1.0
 10
83.3973353712
 20
207.6377233857
 30
0.0
 10
83.664468188
 20
207.6003133559
 30
0.0
 10
84.2189594319
 20
207.6030772641
 30
0.0
 10
85.0267783418
 20
207.8414753249
 30
0.0
 10
85.7697878148
 20
208.2964273483
 30
0.0
 10
86.6296569806
 20
209.1640299464
 30
0.0
 10
87.329286345
 20
210.6147871267
 30
0.0
 10
87.400742285
 20
211.9148432597
 30
0.0
 10
87.3061738451
 20
212.5457620937
 30
0.0
  0
SPLINE
  5
367
100
AcDbEntity
  8
0
100
AcDbSpline
 62
7
  6
CONTINUOUS
 70
0
 71
3
 72
13
 73
9
 74
0
 42
0.0000001
 43
0.0000001
 44
0.0000000001
 40
0.0
 40
0.0
 40
0.0
 40
0.0
 40
0.2565464919
 40
0.5133339082
 40
0.6395848847
 40
0.7630844661
 40
0.8832892102
 40
1.0
 40
1.0
 40
1.0
 40
1.0
 10
104.5634521095
 20
225.3541449071
 30
0.0
 10
104.960645484
 20
222.7042462863
 30
0.0
 10
104.9918632136
 20
217.2627971044
 30
0.0
 10
103.1966361396
 20
210.7350797395
 30
0.0
 10
100.7398229667
 20
206.0313387059
 30
0.0
 10
98.4572000163
 20
202.8945225098
 30
0.0
 10
95.7876875372
 20
200.2191845633
 30
0.0
 10
93.7645886027
 20
198.7698460191
 30
0.0
 10
92.7146817675
 20
198.1504726674
 30
0.0
  0
SPLINE
  5
368
100
AcDbEntity
  8
0
100
AcDbSpline
 62
7
  6
CONTINUOUS
 70
0
 71
3
 72
14
 73
10
 74
0
 42
0.0000001
 43
0.0000001
 44
0.0000000001
 40
0.0
 40
0.0
 40
0.0
 40
0.0
 40
0.268932852
 40
0.4006656605
 40
0.5285474791
 40
0.6519491363
 40
0.7709653122
 40
0.886464314
 40
1.0
 40
1.0
 40
1.0
 40
1.0
 10
92.7146817675
 20
198.1504726674
 30
0.0
 10
92.6466804947
 20
197.314019507
 30
0.0
 10
92.3294225734
 20
196.0705479981
 30
0.0
 10
91.5139268698
 20
194.6294505344
 30
0.0
 10
90.7389473304
 20
193.7093212223
 30
0.0
 10
89.8281555993
 20
192.9851018943
 30
0.0
 10
88.8176159443
 20
192.4878103397
 30
0.0
 10
87.749945142
 20
192.2409750051
 30
0.0
 10
87.0268471621
 20
192.2523865807
 30
0.0
 10
86.6759783291
 20
192.3015135449
 30
0.0
  0
SPLINE
  5
369
100
AcDbEntity
  8
0
100
AcDbSpline
 62
7
  6
CONTINUOUS
 70
0
 71
3
 72
15
 73
11
 74
0
 42
0.0000001
 43
0.0000001
 44
0.0000000001
 40
0.0
 40
0.0
 40
0.0
 40
0.0
 40
0.1355562087
 40
0.2683343271
 40
0.3978328577
 40
0.5238388313
 40
0.6464589397
 40
0.7661406694
 40
0.8836511392
 40
1.0
 40
1.0
 40
1.0
 40
1.0
 10
65.8857648284
 20
214.986378774
 30
0.0
 10
66.0507940028
 20
213.8853770712
 30
0.0
 10
66.5216991625
 20
211.7244114022
 30
0.0
 10
67.6522193084
 20
208.6478929748
 30
0.0
 10
69.1760624975
 20
205.8332661772
 30
0.0
 10
71.05884877
 20
203.3477305499
 30
0.0
 10
73.2578722768
 20
201.2507182152
 30
0.0
 10
75.7227939816
 20
199.593571178
 30
0.0
 10
78.3942877226
 20
198.4182184209
 30
0.0
 10
80.2761905939
 20
197.9746465934
 30
0.0
 10
81.2225086891
 20
197.8421095628
 30
0.0
  0
SPLINE
  5
36A
100
AcDbEntity
  8
0
100
AcDbSpline
 62
7
  6
CONTINUOUS
 70
0
 71
3
 72
11
 73
7
 74
0
 42
0.0000001
 43
0.0000001
 44
0.0000000001
 40
0.0
 40
0.0
 40
0.0
 40
0.0
 40
0.2685841548
 40
0.5241473451
 40
0.7663572427
 40
1.0
 40
1.0
 40
1.0
 40
1.0
 10
84.6433485344
 20
197.6661687453
 30
0.0
 10
84.6945030821
 20
197.3248882154
 30
0.0
 10
84.8819481652
 20
196.6677325495
 30
0.0
 10
85.4172199714
 20
195.8237126097
 30
0.0
 10
86.1585079035
 20
195.2178598994
 30
0.0
 10
86.7531619554
 20
195.0169863978
 30
0.0
 10
87.0504635357
 20
194.9753842695
 30
0.0
  0
SPLINE
  5
36B
100
AcDbEntity
  8
0
100
AcDbSpline
 62
7
  6
CONTINUOUS
 70
0
 71
3
 72
16
 73
12
 74
0
 42
0.0000001
 43
0.0000001
 44
0.0000000001
 40
0.0
 40
0.0
 40
0.0
 40
0.0
 40
0.0845966678
 40
0.1344271136
 40
0.1900629507
 40
0.3176484217
 40
0.4617926671
 40
0.612614321
 40
0.7589147597
 40
0.8903588337
 40
1.0
 40
1.0
 40
1.0
 40
1.0
 10
62.0063184596
 20
247.2274950642
 30
0.0
 10
62.1156948174
 20
247.2793354245
 30
0.0
 10
62.2617569623
 20
247.4212945274
 30
0.0
 10
62.3891882819
 20
247.6616603018
 30
0.0
 10
62.4953703465
 20
247.9794838619
 30
0.0
 10
62.5477189678
 20
248.4495979114
 30
0.0
 10
62.4986585606
 20
249.0549476914
 30
0.0
 10
62.3441035316
 20
249.6699871452
 30
0.0
 10
62.0986187891
 20
250.2354128696
 30
0.0
 10
61.7868507549
 20
250.6973340733
 30
0.0
 10
61.5250059848
 20
250.9324545246
 30
0.0
 10
61.3891635649
 20
251.0109145835
 30
0.0
  0
SPLINE
  5
36C
100
AcDbEntity
  8
0
100
AcDbSpline
 62
7
  6
CONTINUOUS
 70
0
 71
3
 72
9
 73
5
 74
0
 42
0.0000001
 43
0.0000001
 44
0.0000000001
 40
0.0
 40
0.0
 40
0.0
 40
0.0
 40
0.2524087385
 40
1.0
 40
1.0
 40
1.0
 40
1.0
 10
40.9440553827
 20
217.4002581483
 30
0.0
 10
41.009489034
 20
216.963713751
 30
0.0
 10
41.3082634065
 20
215.2404164006
 30
0.0
 10
41.7658652887
 20
213.5441895939
 30
0.0
 10
42.1978245041
 20
212.3101957491
 30
0.0
  0
SPLINE
  5
36D
100
AcDbEntity
  8
0
100
AcDbSpline
 62
7
  6
CONTINUOUS
 70
0
 71
3
 72
13
 73
9
 74
0
 42
0.0000001
 43
0.0000001
 44
0.0000000001
 40
0.0
 40
0.0
 40
0.0
 40
0.0
 40
0.2651576083
 40
0.5186449286
 40
0.6415954708
 40
0.762371705
 40
0.8815834899
 40
1.0
 40
1.0
 40
1.0
 40
1.0
 10
42.1978245041
 20
212.3101957491
 30
0.0
 10
42.8669202375
 20
210.3987652547
 30
0.0
 10
44.6064509681
 20
206.7916816577
 30
0.0
 10
47.8105406384
 20
203.0034300974
 30
0.0
 10
50.8206334112
 20
200.669634468
 30
0.0
 10
53.2409411273
 20
199.2974496776
 30
0.0
 10
55.8048589664
 20
198.3111078918
 30
0.0
 10
57.5859147763
 20
197.9212533071
 30
0.0
 10
58.4815945647
 20
197.7958747045
 30
0.0
  0
SPLINE
  5
36E
100
AcDbEntity
  8
0
100
AcDbSpline
 62
7
  6
CONTINUOUS
 70
0
 71
3
 72
11
 73
7
 74
0
 42
0.0000001
 43
0.0000001
 44
0.0000000001
 40
0.0
 40
0.0
 40
0.0
 40
0.0
 40
0.2601139376
 40
0.5120683629
 40
0.7577481043
 40
1.0
 40
1.0
 40
1.0
 40
1.0
 10
61.147370018
 20
197.509371912
 30
0.0
 10
61.3417955413
 20
197.2271795721
 30
0.0
 10
61.7762289364
 20
196.7047995189
 30
0.0
 10
62.5582925543
 20
196.0735159065
 30
0.0
 10
63.4340214676
 20
195.6291981067
 30
0.0
 10
64.0628265017
 20
195.4685551153
 30
0.0
 10
64.3788926525
 20
195.42426761
 30
0.0
  0
SPLINE
  5
36F
100
AcDbEntity
  8
0
100
AcDbSpline
 62
7
  6
CONTINUOUS
 70
0
 71
3
 72
11
 73
7
 74
0
 42
0.0000001
 43
0.0000001
 44
0.0000000001
 40
0.0
 40
0.0
 40
0.0
 40
0.0
 40
0.2707141554
 40
0.5267465479
 40
0.7692633502
 40
1.0
 40
1.0
 40
1.0
 40
1.0
 10
47.9892156786
 20
238.51571361
 30
0.0
 10
48.7387060671
 20
240.0937865935
 30
0.0
 10
50.3289796568
 20
243.1045000313
 30
0.0
 10
53.0706918686
 20
247.2535204392
 30
0.0
 10
56.085105606
 20
250.8806186281
 30
0.0
 10
58.3156093392
 20
252.9813418586
 30
0.0
 10
59.4667319709
 20
253.9258558374
 30
0.0
  0
SPLINE
  5
370
100
AcDbEntity
  8
0
100
AcDbSpline
 62
7
  6
CONTINUOUS
 70
0
 71
3
 72
9
 73
5
 74
0
 42
0.0000001
 43
0.0000001
 44
0.0000000001
 40
0.0
 40
0.0
 40
0.0
 40
0.0
 40
0.2579512447
 40
1.0
 40
1.0
 40
1.0
 40
1.0
 10
59.4667319709
 20
253.9258558374
 30
0.0
 10
59.5091488526
 20
253.9606595469
 30
0.0
 10
59.6798282181
 20
254.0876913426
 30
0.0
 10
59.8774029695
 20
254.1793759401
 30
0.0
 10
60.029861988
 20
254.2202329256
 30
0.0
  0
SPLINE
  5
371
100
AcDbEntity
  8
0
100
AcDbSpline
 62
7
  6
CONTINUOUS
 70
0
 71
3
 72
9
 73
5
 74
0
 42
0.0000001
 43
0.0000001
 44
0.0000000001
 40
0.0
 40
0.0
 40
0.0
 40
0.0
 40
0.5310278794
 40
1.0
 40
1.0
 40
1.0
 40
1.0
 10
61.3891635649
 20
251.0109145835
 30
0.0
 10
61.3078616634
 20
251.0578730519
 30
0.0
 10
61.1415433183
 20
251.1278782687
 30
0.0
 10
60.9583321505
 20
251.12798554
 30
0.0
 10
60.8777404454
 20
251.1084869378
 30
0.0
  0
SPLINE
  5
372
100
AcDbEntity
  8
0
100
AcDbSpline
 62
7
  6
CONTINUOUS
 70
0
 71
3
 72
13
 73
9
 74
0
 42
0.0000001
 43
0.0000001
 44
0.0000000001
 40
0.0
 40
0.0
 40
0.0
 40
0.0
 40
0.1180759145
 40
0.2392110506
 40
0.4886815042
 40
0.6163470316
 40
0.7447675255
 40
1.0
 40
1.0
 40
1.0
 40
1.0
 10
51.207999276
 20
244.329636489
 30
0.0
 10
50.2819210719
 20
243.631907281
 30
0.0
 10
48.511434937
 20
242.0721505961
 30
0.0
 10
45.391257043
 20
238.4104354497
 30
0.0
 10
43.0124403694
 20
234.0577063418
 30
0.0
 10
41.4868986562
 20
229.3229521101
 30
0.0
 10
40.5478679773
 20
224.3808184803
 30
0.0
 10
40.5377191118
 20
220.5616748876
 30
0.0
 10
40.8510159193
 20
218.074955767
 30
0.0
  0
SPLINE
  5
373
100
AcDbEntity
  8
0
100
AcDbSpline
 62
7
  6
CONTINUOUS
 70
0
 71
3
 72
11
 73
7
 74
0
 42
0.0000001
 43
0.0000001
 44
0.0000000001
 40
0.0
 40
0.0
 40
0.0
 40
0.0
 40
0.2394725221
 40
0.4863045966
 40
0.7401592912
 40
1.0
 40
1.0
 40
1.0
 40
1.0
 10
97.8930579684
 20
239.0470416183
 30
0.0
 10
98.7734227433
 20
238.1800737798
 30
0.0
 10
100.4029529817
 20
236.2520806503
 30
0.0
 10
102.3481357274
 20
232.9465946218
 30
0.0
 10
103.7816650047
 20
229.2772544546
 30
0.0
 10
104.3647177609
 20
226.6800126334
 30
0.0
 10
104.5634521095
 20
225.3541449071
 30
0.0
  0
SPLINE
  5
374
100
AcDbEntity
  8
0
100
AcDbSpline
 62
7
  6
CONTINUOUS
 70
0
 71
3
 72
9
 73
5
 74
0
 42
0.0000001
 43
0.0000001
 44
0.0000000001
 40
0.0
 40
0.0
 40
0.0
 40
0.0
 40
0.501222442
 40
1.0
 40
1.0
 40
1.0
 40
1.0
 10
70.7082068154
 20
237.8948400667
 30
0.0
 10
70.2981770657
 20
240.2928039939
 30
0.0
 10
69.21412152
 20
245.0347633544
 30
0.0
 10
67.6295322595
 20
249.6340317287
 30
0.0
 10
66.7124087363
 20
251.8744877186
 30
0.0
  0
SPLINE
  5
375
100
AcDbEntity
  8
0
100
AcDbSpline
 62
7
  6
CONTINUOUS
 70
0
 71
3
 72
11
 73
7
 74
0
 42
0.0000001
 43
0.0000001
 44
0.0000000001
 40
0.0
 40
0.0
 40
0.0
 40
0.0
 40
0.2856077538
 40
0.5514974993
 40
0.790850402
 40
1.0
 40
1.0
 40
1.0
 40
1.0
 10
66.7124087363
 20
251.8744877186
 30
0.0
 10
66.5776256591
 20
252.2037514931
 30
0.0
 10
66.2817139107
 20
252.8258241063
 30
0.0
 10
65.7482811894
 20
253.6577517921
 30
0.0
 10
65.1595190995
 20
254.3298053891
 30
0.0
 10
64.7139473828
 20
254.6762109663
 30
0.0
 10
64.4883372253
 20
254.8065192033
 30
0.0
  0
SPLINE
  5
376
100
AcDbEntity
  8
0
100
AcDbSpline
 62
7
  6
CONTINUOUS
 70
0
 71
3
 72
9
 73
5
 74
0
 42
0.0000001
 43
0.0000001
 44
0.0000000001
 40
0.0
 40
0.0
 40
0.0
 40
0.0
 40
0.2607371511
 40
1.0
 40
1.0
 40
1.0
 40
1.0
 10
64.4883372253
 20
254.8065192033
 30
0.0
 10
64.4486417748
 20
254.8294465583
 30
0.0
 10
64.294277614
 20
254.9135817068
 30
0.0
 10
64.1309816603
 20
254.9819031518
 30
0.0
 10
64.0067707989
 20
255.0201701424
 30
0.0
  0
SPLINE
  5
377
100
AcDbEntity
  8
0
100
AcDbSpline
 62
7
  6
CONTINUOUS
 70
0
 71
3
 72
9
 73
5
 74
0
 42
0.0000001
 43
0.0000001
 44
0.0000000001
 40
0.0
 40
0.0
 40
0.0
 40
0.0
 40
0.5125203796
 40
1.0
 40
1.0
 40
1.0
 40
1.0
 10
63.9122036705
 20
255.046711543
 30
0.0
 10
63.7814140252
 20
255.0798118345
 30
0.0
 10
63.5178863859
 20
255.1169790006
 30
0.0
 10
63.2529835978
 20
255.0841998159
 30
0.0
 10
63.1290356483
 20
255.050983417
 30
0.0
  0
SPLINE
  5
378
100
AcDbEntity
  8
0
100
AcDbSpline
 62
7
  6
CONTINUOUS
 70
0
 71
3
 72
15
 73
11
 74
0
 42
0.0000001
 43
0.0000001
 44
0.0000000001
 40
0.0
 40
0.0
 40
0.0
 40
0.0
 40
0.1137395898
 40
0.2313183336
 40
0.3531283848
 40
0.478903649
 40
0.6078164485
 40
0.7386274033
 40
0.8698588013
 40
1.0
 40
1.0
 40
1.0
 40
1.0
 10
81.2514858464
 20
241.6546130902
 30
0.0
 10
80.0205058562
 20
241.3397936498
 30
0.0
 10
77.5835436938
 20
240.4080938819
 30
0.0
 10
74.2593060832
 20
238.2355436305
 30
0.0
 10
71.3326995123
 20
235.357539896
 30
0.0
 10
68.9145259598
 20
231.8888588953
 30
0.0
 10
67.0930546924
 20
227.9635391489
 30
0.0
 10
65.9358662637
 20
223.7312230137
 30
0.0
 10
65.4854508071
 20
219.354432213
 30
0.0
 10
65.6702585648
 20
216.424141303
 30
0.0
 10
65.8857648284
 20
214.986378774
 30
0.0
  0
SPLINE
  5
379
100
AcDbEntity
  8
0
100
AcDbSpline
 62
7
  6
CONTINUOUS
 70
0
 71
3
 72
9
 73
5
 74
0
 42
0.0000001
 43
0.0000001
 44
0.0000000001
 40
0.0
 40
0.0
 40
0.0
 40
0.0
 40
0.2585355685
 40
1.0
 40
1.0
 40
1.0
 40
1.0
 10
68.9707999808
 20
246.6685993983
 30
0.0
 10
69.066755743
 20
246.6705203726
 30
0.0
 10
69.4379706393
 20
246.6737739521
 30
0.0
 10
69.809396862
 20
246.6600289816
 30
0.0
 10
70.0838430793
 20
246.6390027387
 30
0.0
  0
SPLINE
  5
37A
100
AcDbEntity
  8
0
100
AcDbSpline
 62
7
  6
CONTINUOUS
 70
0
 71
3
 72
13
 73
9
 74
0
 42
0.0000001
 43
0.0000001
 44
0.0000000001
 40
0.0
 40
0.0
 40
0.0
 40
0.0
 40
0.2580779631
 40
0.5157954251
 40
0.6420087927
 40
0.7650304339
 40
0.8843776522
 40
1.0
 40
1.0
 40
1.0
 40
1.0
 10
64.0675829476
 20
214.4990051523
 30
0.0
 10
63.6431417651
 20
217.3306891037
 30
0.0
 10
63.665654033
 20
223.1504118012
 30
0.0
 10
65.7786958909
 20
230.0683422832
 30
0.0
 10
68.6132365258
 20
234.9498104217
 30
0.0
 10
71.2172989303
 20
238.127899849
 30
0.0
 10
74.2319815854
 20
240.7431037253
 30
0.0
 10
76.4927294208
 20
242.0773574887
 30
0.0
 10
77.6558841184
 20
242.6183354673
 30
0.0
  0
SPLINE
  5
37B
100
AcDbEntity
  8
0
100
AcDbSpline
 62
7
  6
CONTINUOUS
 70
0
 71
3
 72
11
 73
7
 74
0
 42
0.0000001
 43
0.0000001
 44
0.0000000001
 40
0.0
 40
0.0
 40
0.0
 40
0.0
 40
0.209149598
 40
0.4485025007
 40
0.7143922462
 40
1.0
 40
1.0
 40
1.0
 40
1.0
 10
61.3891635649
 20
253.9757687119
 30
0.0
 10
61.6147737224
 20
253.8454604748
 30
0.0
 10
62.0603454392
 20
253.4990548977
 30
0.0
 10
62.6491075291
 20
252.8270013006
 30
0.0
 10
63.1825402504
 20
251.9950736148
 30
0.0
 10
63.4784519987
 20
251.3730010016
 30
0.0
 10
63.613235076
 20
251.0437372272
 30
0.0
  0
SPLINE
  5
37C
100
AcDbEntity
  8
0
100
AcDbSpline
 62
7
  6
CONTINUOUS
 70
0
 71
3
 72
9
 73
5
 74
0
 42
0.0000001
 43
0.0000001
 44
0.0000000001
 40
0.0
 40
0.0
 40
0.0
 40
0.0
 40
0.5002799013
 40
1.0
 40
1.0
 40
1.0
 40
1.0
 10
63.613235076
 20
251.0437372272
 30
0.0
 10
64.6982654846
 20
248.3930987726
 30
0.0
 10
66.5135563093
 20
242.9448073908
 30
0.0
 10
67.6311760618
 20
237.3117469188
 30
0.0
 10
67.9979967118
 20
234.4744471943
 30
0.0
  0
SPLINE
  5
37D
100
AcDbEntity
  8
0
100
AcDbSpline
 62
7
  6
CONTINUOUS
 70
0
 71
3
 72
9
 73
5
 74
0
 42
0.0000001
 43
0.0000001
 44
0.0000000001
 40
0.0
 40
0.0
 40
0.0
 40
0.0
 40
0.5312871198
 40
1.0
 40
1.0
 40
1.0
 40
1.0
 10
61.3891635649
 20
247.2876093991
 30
0.0
 10
61.4724977043
 20
247.2394771479
 30
0.0
 10
61.6433413713
 20
247.1681112015
 30
0.0
 10
61.831457547
 20
247.1713422495
 30
0.0
 10
61.9134647253
 20
247.1933200154
 30
0.0
  0
SPLINE
  5
37E
100
AcDbEntity
  8
0
100
AcDbSpline
 62
7
  6
CONTINUOUS
 70
0
 71
3
 72
13
 73
9
 74
0
 42
0.0000001
 43
0.0000001
 44
0.0000000001
 40
0.0
 40
0.0
 40
0.0
 40
0.0
 40
0.1156512075
 40
0.2350163864
 40
0.3580516015
 40
0.4842655725
 40
0.7419604971
 40
1.0
 40
1.0
 40
1.0
 40
1.0
 10
90.4166760302
 20
199.2908417473
 30
0.0
 10
91.4729347968
 20
199.7852395954
 30
0.0
 10
93.5254179259
 20
201.0026668562
 30
0.0
 10
96.2615520608
 20
203.384970284
 30
0.0
 10
98.6244719831
 20
206.2770871532
 30
0.0
 10
101.1958013115
 20
210.7165996559
 30
0.0
 10
103.1117840173
 20
217.0047316858
 30
0.0
 10
103.1309895676
 20
222.2934223587
 30
0.0
 10
102.7452702288
 20
224.8667712854
 30
0.0
  0
SPLINE
  5
37F
100
AcDbEntity
  8
0
100
AcDbSpline
 62
7
  6
CONTINUOUS
 70
0
 71
3
 72
14
 73
10
 74
0
 42
0.0000001
 43
0.0000001
 44
0.0000000001
 40
0.0
 40
0.0
 40
0.0
 40
0.0
 40
0.1162823853
 40
0.2340355574
 40
0.3540962379
 40
0.4770750644
 40
0.603302138
 40
0.7328176875
 40
1.0
 40
1.0
 40
1.0
 40
1.0
 10
58.4988919905
 20
197.8460965007
 30
0.0
 10
57.4841848543
 20
198.0684025902
 30
0.0
 10
55.4770024661
 20
198.6962831692
 30
0.0
 10
52.6512825052
 20
200.1496572913
 30
0.0
 10
50.0566643049
 20
202.0859566384
 30
0.0
 10
47.7490396862
 20
204.4612951772
 30
0.0
 10
45.7755533766
 20
207.225085081
 30
0.0
 10
43.6236578916
 20
211.3840881183
 30
0.0
 10
42.6574375206
 20
214.8494203621
 30
0.0
 10
42.3036335081
 20
217.2098443398
 30
0.0
  0
SPLINE
  5
380
100
AcDbEntity
  8
0
100
AcDbSpline
 62
7
  6
CONTINUOUS
 70
0
 71
3
 72
11
 73
7
 74
0
 42
0.0000001
 43
0.0000001
 44
0.0000000001
 40
0.0
 40
0.0
 40
0.0
 40
0.0
 40
0.2620154911
 40
0.5166067165
 40
0.7625797358
 40
1.0
 40
1.0
 40
1.0
 40
1.0
 10
102.7452702288
 20
224.8667712854
 30
0.0
 10
102.5320094062
 20
226.2895532247
 30
0.0
 10
101.8713019809
 20
229.0657512992
 30
0.0
 10
100.1764441376
 20
232.9203961519
 30
0.0
 10
97.8521574939
 20
236.2709662466
 30
0.0
 10
95.9044460093
 20
238.1097208002
 30
0.0
 10
94.8619061913
 20
238.8923814752
 30
0.0
  0
SPLINE
  5
381
100
AcDbEntity
  8
0
100
AcDbSpline
 62
7
  6
CONTINUOUS
 70
0
 71
3
 72
16
 73
12
 74
0
 42
0.0000001
 43
0.0000001
 44
0.0000000001
 40
0.0
 40
0.0
 40
0.0
 40
0.0
 40
0.0843024072
 40
0.1338452022
 40
0.189104281
 40
0.3157859603
 40
0.459084969
 40
0.6094675164
 40
0.7560292012
 40
0.8885689063
 40
1.0
 40
1.0
 40
1.0
 40
1.0
 10
60.7720086702
 20
251.0710289184
 30
0.0
 10
60.6640047848
 20
251.0198390595
 30
0.0
 10
60.5194798329
 20
250.8805134648
 30
0.0
 10
60.3924588143
 20
250.6442520462
 30
0.0
 10
60.2859720126
 20
250.3321259896
 30
0.0
 10
60.2312979774
 20
249.8696906723
 30
0.0
 10
60.2753238788
 20
249.2726498546
 30
0.0
 10
60.4230035823
 20
248.6634070714
 30
0.0
 10
60.6607107251
 20
248.0994868851
 30
0.0
 10
60.9651009956
 20
247.6335100587
 30
0.0
 10
61.2214014942
 20
247.3919045042
 30
0.0
 10
61.3552723161
 20
247.3080164029
 30
0.0
  0
SPLINE
  5
382
100
AcDbEntity
  8
0
100
AcDbSpline
 62
7
  6
CONTINUOUS
 70
0
 71
3
 72
10
 73
6
 74
0
 42
0.0000001
 43
0.0000001
 44
0.0000000001
 40
0.0
 40
0.0
 40
0.0
 40
0.0
 40
0.2307154465
 40
0.4700689931
 40
1.0
 40
1.0
 40
1.0
 40
1.0
 10
60.029861988
 20
254.2202329256
 30
0.0
 10
60.1348214922
 20
254.2483606742
 30
0.0
 10
60.3562444313
 20
254.2806179404
 30
0.0
 10
60.8287515608
 20
254.2425323658
 30
0.0
 10
61.1730351449
 20
254.1006004734
 30
0.0
 10
61.3891635649
 20
253.9757687119
 30
0.0
  0
SPLINE
  5
383
100
AcDbEntity
  8
0
100
AcDbSpline
 62
7
  6
CONTINUOUS
 70
0
 71
3
 72
15
 73
11
 74
0
 42
0.0000001
 43
0.0000001
 44
0.0000000001
 40
0.0
 40
0.0
 40
0.0
 40
0.0
 40
0.116366606
 40
0.2338708958
 40
0.3535517095
 40
0.4761699523
 40
0.6021735018
 40
0.7316713803
 40
0.864444045
 40
1.0
 40
1.0
 40
1.0
 40
1.0
 10
80.9173776727
 20
195.6634368364
 30
0.0
 10
79.8775390404
 20
195.8090467167
 30
0.0
 10
77.8098461887
 20
196.2963291875
 30
0.0
 10
74.8747859593
 20
197.5878505447
 30
0.0
 10
72.1667547294
 20
199.4084243943
 30
0.0
 10
69.7508724208
 20
201.7123406091
 30
0.0
 10
67.6823703406
 20
204.4430494408
 30
0.0
 10
66.0082832214
 20
207.5353128677
 30
0.0
 10
64.7662246103
 20
210.9152770797
 30
0.0
 10
64.2488926479
 20
213.2893869778
 30
0.0
 10
64.0675829476
 20
214.4990051523
 30
0.0
  0
SPLINE
  5
384
100
AcDbEntity
  8
0
100
AcDbSpline
 62
7
  6
CONTINUOUS
 70
0
 71
3
 72
11
 73
7
 74
0
 42
0.0000001
 43
0.0000001
 44
0.0000000001
 40
0.0
 40
0.0
 40
0.0
 40
0.0
 40
0.2383085253
 40
0.4821593921
 40
0.7355208785
 40
1.0
 40
1.0
 40
1.0
 40
1.0
 10
86.6759783291
 20
192.3015135449
 30
0.0
 10
86.265608051
 20
192.3589716149
 30
0.0
 10
85.4476903309
 20
192.5974629653
 30
0.0
 10
84.3558671388
 20
193.2925597871
 30
0.0
 10
83.452154634
 20
194.2795912143
 30
0.0
 10
83.0169700784
 20
195.0785762683
 30
0.0
 10
82.8416616976
 20
195.5037299123
 30
0.0
  0
SPLINE
  5
385
100
AcDbEntity
  8
0
100
AcDbSpline
 62
7
  6
CONTINUOUS
 70
0
 71
3
 72
9
 73
5
 74
0
 42
0.0000001
 43
0.0000001
 44
0.0000000001
 40
0.0
 40
0.0
 40
0.0
 40
0.0
 40
0.2540287069
 40
1.0
 40
1.0
 40
1.0
 40
1.0
 10
67.9979967767
 20
234.474447254
 30
0.0
 10
68.2057626212
 20
234.7802697863
 30
0.0
 10
69.0441132175
 20
235.9700004168
 30
0.0
 10
69.9685091608
 20
237.1000977931
 30
0.0
 10
70.7082068154
 20
237.8948400667
 30
0.0
  0
SPLINE
  5
386
100
AcDbEntity
  8
0
100
AcDbSpline
 62
7
  6
CONTINUOUS
 70
0
 71
3
 72
12
 73
8
 74
0
 42
0.0000001
 43
0.0000001
 44
0.0000000001
 40
0.0
 40
0.0
 40
0.0
 40
0.0
 40
0.2506576135
 40
0.503271432
 40
0.6292867434
 40
0.7543913316
 40
1.0
 40
1.0
 40
1.0
 40
1.0
 10
42.3036335081
 20
217.2098443398
 30
0.0
 10
42.0252557786
 20
219.0670574977
 30
0.0
 10
41.8280576194
 20
222.8586245728
 30
0.0
 10
42.4636675268
 20
227.5585206898
 30
0.0
 10
43.4872523449
 20
231.1965876469
 30
0.0
 10
44.8291020148
 20
234.6717281126
 30
0.0
 10
46.2006731919
 20
237.1140662289
 30
0.0
 10
47.2615136246
 20
238.6176309132
 30
0.0
  0
SPLINE
  5
387
100
AcDbEntity
  8
0
100
AcDbSpline
 62
7
  6
CONTINUOUS
 70
0
 71
3
 72
13
 73
9
 74
0
 42
0.0000001
 43
0.0000001
 44
0.0000000001
 40
0.0
 40
0.0
 40
0.0
 40
0.0
 40
0.1126643509
 40
0.227872915
 40
0.3474813589
 40
0.4722454002
 40
0.7333169486
 40
1.0
 40
1.0
 40
1.0
 40
1.0
 10
87.0504635357
 20
194.9753842695
 30
0.0
 10
87.2786838859
 20
194.9434488446
 30
0.0
 10
87.7521076339
 20
194.9449805871
 30
0.0
 10
88.4426636491
 20
195.1451901795
 30
0.0
 10
89.0794390914
 20
195.5287170548
 30
0.0
 10
89.8198680923
 20
196.2619998777
 30
0.0
 10
90.4314878165
 20
197.4931870058
 30
0.0
 10
90.5095982917
 20
198.6017235534
 30
0.0
 10
90.4388965513
 20
199.1425962529
 30
0.0
  0
SPLINE
  5
388
100
AcDbEntity
  8
0
100
AcDbSpline
 62
7
  6
CONTINUOUS
 70
0
 71
3
 72
9
 73
5
 74
0
 42
0.0000001
 43
0.0000001
 44
0.0000000001
 40
0.0
 40
0.0
 40
0.0
 40
0.0
 40
0.4971746126
 40
1.0
 40
1.0
 40
1.0
 40
1.0
 10
47.4512041087
 20
237.3520995001
 30
0.0
 10
45.5571905424
 20
234.4875439548
 30
0.0
 10
42.8629761018
 20
227.9357231958
 30
0.0
 10
42.6152450644
 20
220.8661277014
 30
0.0
 10
43.1300798175
 20
217.4313778041
 30
0.0
  0
SPLINE
  5
389
100
AcDbEntity
  8
0
100
AcDbSpline
 62
7
  6
CONTINUOUS
 70
0
 71
3
 72
11
 73
7
 74
0
 42
0.0000001
 43
0.0000001
 44
0.0000000001
 40
0.0
 40
0.0
 40
0.0
 40
0.0
 40
0.2590118393
 40
0.5125632296
 40
0.759694916
 40
1.0
 40
1.0
 40
1.0
 40
1.0
 10
43.1300798175
 20
217.4313778041
 30
0.0
 10
43.3152299181
 20
216.196138176
 30
0.0
 10
43.8467818128
 20
213.7728067595
 30
0.0
 10
45.1300898392
 20
210.3282872677
 30
0.0
 10
46.862009813
 20
207.1878715754
 30
0.0
 10
48.3105460218
 20
205.3214450368
 30
0.0
 10
49.0950412591
 20
204.4685376571
 30
0.0
  0
SPLINE
  5
38A
100
AcDbEntity
  8
0
100
AcDbSpline
 62
7
  6
CONTINUOUS
 70
0
 71
3
 72
11
 73
7
 74
0
 42
0.0000001
 43
0.0000001
 44
0.0000000001
 40
0.0
 40
0.0
 40
0.0
 40
0.0
 40
0.2559557615
 40
0.5069673174
 40
0.7543942379
 40
1.0
 40
1.0
 40
1.0
 40
1.0
 10
50.0844565815
 20
203.4642217099
 30
0.0
 10
50.7780624575
 20
202.8073545665
 30
0.0
 10
52.2473912616
 20
201.6024703351
 30
0.0
 10
54.6775813188
 20
200.1594195669
 30
0.0
 10
57.2670551296
 20
199.1258900692
 30
0.0
 10
59.0720779229
 20
198.7229272983
 30
0.0
 10
59.979875615
 20
198.5958171383
 30
0.0
  0
SPLINE
  5
38B
100
AcDbEntity
  8
0
100
AcDbSpline
 62
7
  6
CONTINUOUS
 70
0
 71
3
 72
9
 73
5
 74
0
 42
0.0000001
 43
0.0000001
 44
0.0000000001
 40
0.0
 40
0.0
 40
0.0
 40
0.0
 40
0.2529030926
 40
1.0
 40
1.0
 40
1.0
 40
1.0
 10
61.9539939401
 20
198.3175062026
 30
0.0
 10
61.9878803309
 20
198.2398680359
 30
0.0
 10
62.1280573885
 20
197.9356284585
 30
0.0
 10
62.2932271477
 20
197.6428220226
 30
0.0
 10
62.4301582068
 20
197.4333660562
 30
0.0
  0
SPLINE
  5
38C
100
AcDbEntity
  8
0
100
AcDbSpline
 62
7
  6
CONTINUOUS
 70
0
 71
3
 72
14
 73
10
 74
0
 42
0.0000001
 43
0.0000001
 44
0.0000000001
 40
0.0
 40
0.0
 40
0.0
 40
0.0
 40
0.1119330831
 40
0.2300142546
 40
0.353753845
 40
0.4819202718
 40
0.6127605122
 40
0.7442323129
 40
1.0
 40
1.0
 40
1.0
 40
1.0
 10
20.6668363595
 20
246.2232760672
 30
0.0
 10
19.4546818428
 20
246.0567624384
 30
0.0
 10
16.9964837316
 20
245.4355992591
 30
0.0
 10
13.4824181359
 20
243.7738120275
 30
0.0
 10
10.1663462241
 20
241.4250169442
 30
0.0
 10
7.1715343719
 20
238.4800484867
 30
0.0
 10
4.606011377
 20
235.0466840573
 30
0.0
 10
1.9149343473
 20
230.0505349016
 30
0.0
 10
0.7436980787
 20
225.8884993697
 30
0.0
 10
0.4502291619
 20
223.1081535544
 30
0.0
  0
SPLINE
  5
38D
100
AcDbEntity
  8
0
100
AcDbSpline
 62
7
  6
CONTINUOUS
 70
0
 71
3
 72
13
 73
9
 74
0
 42
0.0000001
 43
0.0000001
 44
0.0000000001
 40
0.0
 40
0.0
 40
0.0
 40
0.0
 40
0.1139395493
 40
0.2312423905
 40
0.352440984
 40
0.4775280423
 40
0.7361534621
 40
1.0
 40
1.0
 40
1.0
 40
1.0
 10
56.9797512698
 20
256.1932476395
 30
0.0
 10
55.2609538177
 20
255.843066556
 30
0.0
 10
51.8397182621
 20
254.7544400829
 30
0.0
 10
47.0752700599
 20
252.0911330878
 30
0.0
 10
42.7630805156
 20
248.4719360948
 30
0.0
 10
37.7564684531
 20
242.4814258636
 30
0.0
 10
33.3773107
 20
233.3282119374
 30
0.0
 10
32.2291352392
 20
225.2236295139
 30
0.0
 10
32.2766256531
 20
221.1619719351
 30
0.0
  0
SPLINE
  5
38E
100
AcDbEntity
  8
0
100
AcDbSpline
 62
7
  6
CONTINUOUS
 70
0
 71
3
 72
9
 73
5
 74
0
 42
0.0000001
 43
0.0000001
 44
0.0000000001
 40
0.0
 40
0.0
 40
0.0
 40
0.0
 40
0.4763795102
 40
1.0
 40
1.0
 40
1.0
 40
1.0
 10
2.9911963453
 20
217.1899922405
 30
0.0
 10
2.9911995514
 20
217.2649429749
 30
0.0
 10
3.0212186795
 20
217.4232137124
 30
0.0
 10
3.1005170678
 20
217.5619169806
 30
0.0
 10
3.1493961032
 20
217.6282333165
 30
0.0
  0
SPLINE
  5
38F
100
AcDbEntity
  8
0
100
AcDbSpline
 62
7
  6
CONTINUOUS
 70
0
 71
3
 72
9
 73
5
 74
0
 42
0.0000001
 43
0.0000001
 44
0.0000000001
 40
0.0
 40
0.0
 40
0.0
 40
0.0
 40
0.2397335524
 40
1.0
 40
1.0
 40
1.0
 40
1.0
 10
3.1493961032
 20
217.6282333165
 30
0.0
 10
3.1593274519
 20
217.6417076139
 30
0.0
 10
3.2020983014
 20
217.6969191033
 30
0.0
 10
3.2498790577
 20
217.7481694629
 30
0.0
 10
3.2881041234
 20
217.785003346
 30
0.0
  0
SPLINE
  5
390
100
AcDbEntity
  8
0
100
AcDbSpline
 62
7
  6
CONTINUOUS
 70
0
 71
3
 72
11
 73
7
 74
0
 42
0.0000001
 43
0.0000001
 44
0.0000000001
 40
0.0
 40
0.0
 40
0.0
 40
0.0
 40
0.2174820339
 40
0.4497385116
 40
0.7083757058
 40
1.0
 40
1.0
 40
1.0
 40
1.0
 10
2.9911963503
 20
210.7545666002
 30
0.0
 10
2.9911937636
 20
210.6939197613
 30
0.0
 10
3.0102366889
 20
210.5678699682
 30
0.0
 10
3.0930443194
 20
210.3863025003
 30
0.0
 10
3.2269764032
 20
210.2121954479
 30
0.0
 10
3.3409764921
 20
210.1084272873
 30
0.0
 10
3.4045745465
 20
210.057746242
 30
0.0
  0
SPLINE
  5
391
100
AcDbEntity
  8
0
100
AcDbSpline
 62
7
  6
CONTINUOUS
 70
0
 71
3
 72
13
 73
9
 74
0
 42
0.0000001
 43
0.0000001
 44
0.0000000001
 40
0.0
 40
0.0
 40
0.0
 40
0.0
 40
0.2371767104
 40
0.364383289
 40
0.4946155743
 40
0.6256075242
 40
0.7550232782
 40
1.0
 40
1.0
 40
1.0
 40
1.0
 10
22.0379374876
 20
246.2524754357
 30
0.0
 10
19.5508700466
 20
245.5740407162
 30
0.0
 10
15.9158377459
 20
243.7715753875
 30
0.0
 10
11.7275288463
 20
240.3886738782
 30
0.0
 10
8.837266018
 20
237.2900000162
 30
0.0
 10
6.3863499801
 20
233.8047829139
 30
0.0
 10
3.8694084544
 20
228.9126429823
 30
0.0
 10
2.7813476032
 20
224.9005088276
 30
0.0
 10
2.5508897252
 20
222.247779408
 30
0.0
  0
SPLINE
  5
392
100
AcDbEntity
  8
0
100
AcDbSpline
 62
7
  6
CONTINUOUS
 70
0
 71
3
 72
13
 73
9
 74
0
 42
0.0000001
 43
0.0000001
 44
0.0000000001
 40
0.0
 40
0.0
 40
0.0
 40
0.0
 40
0.1144551398
 40
0.2320436826
 40
0.3533259167
 40
0.4783320175
 40
0.7365283153
 40
1.0
 40
1.0
 40
1.0
 40
1.0
 10
43.5173721622
 20
252.1134644653
 30
0.0
 10
42.0728390482
 20
251.7193256248
 30
0.0
 10
39.2220287414
 20
250.6033236313
 30
0.0
 10
35.3201253265
 20
248.0735366459
 30
0.0
 10
31.8659058047
 20
244.7575636978
 30
0.0
 10
27.9731454332
 20
239.3914124828
 30
0.0
 10
24.8229870243
 20
231.3726808416
 30
0.0
 10
24.3807638539
 20
224.4376145482
 30
0.0
 10
24.6938754161
 20
221.0050463224
 30
0.0
  0
SPLINE
  5
393
100
AcDbEntity
  8
0
100
AcDbSpline
 62
7
  6
CONTINUOUS
 70
0
 71
3
 72
9
 73
5
 74
0
 42
0.0000001
 43
0.0000001
 44
0.0000000001
 40
0.0
 40
0.0
 40
0.0
 40
0.0
 40
0.4999869449
 40
1.0
 40
1.0
 40
1.0
 40
1.0
 10
15.0068342824
 20
207.0096414746
 30
0.0
 10
15.0996333376
 20
208.0684204324
 30
0.0
 10
15.2822539097
 20
210.1862935497
 30
0.0
 10
15.466762999
 20
212.3040030948
 30
0.0
 10
15.5574554861
 20
213.3630202824
 30
0.0
  0
SPLINE
  5
394
100
AcDbEntity
  8
0
100
AcDbSpline
 62
7
  6
CONTINUOUS
 70
0
 71
3
 72
9
 73
5
 74
0
 42
0.0000001
 43
0.0000001
 44
0.0000000001
 40
0.0
 40
0.0
 40
0.0
 40
0.0
 40
0.2501395953
 40
1.0
 40
1.0
 40
1.0
 40
1.0
 10
15.5576491767
 20
213.3629914302
 30
0.0
 10
15.1414856076
 20
213.6960030285
 30
0.0
 10
13.4778340084
 20
215.0273980143
 30
0.0
 10
11.8152744273
 20
216.3601583907
 30
0.0
 10
10.5695181099
 20
217.3607018375
 30
0.0
  0
SPLINE
  5
395
100
AcDbEntity
  8
0
100
AcDbSpline
 62
7
  6
CONTINUOUS
 70
0
 71
3
 72
11
 73
7
 74
0
 42
0.0000001
 43
0.0000001
 44
0.0000000001
 40
0.0
 40
0.0
 40
0.0
 40
0.0
 40
0.2916243388
 40
0.5502614995
 40
0.7825179471
 40
1.0
 40
1.0
 40
1.0
 40
1.0
 10
3.4045745465
 20
216.4931718823
 30
0.0
 10
3.3409764818
 20
216.5438529359
 30
0.0
 10
3.2269763771
 20
216.6476210848
 30
0.0
 10
3.0930442958
 20
216.8217281404
 30
0.0
 10
3.0102366995
 20
217.0032956072
 30
0.0
 10
2.9911937511
 20
217.1293453957
 30
0.0
 10
2.9911963453
 20
217.1899922405
 30
0.0
  0
SPLINE
  5
396
100
AcDbEntity
  8
0
100
AcDbSpline
 62
7
  6
CONTINUOUS
 70
0
 71
3
 72
9
 73
5
 74
0
 42
0.0000001
 43
0.0000001
 44
0.0000000001
 40
0.0
 40
0.0
 40
0.0
 40
0.0
 40
0.2431901172
 40
1.0
 40
1.0
 40
1.0
 40
1.0
 10
0.4622670381
 20
222.3542920802
 30
0.0
 10
0.4672447428
 20
222.4153133008
 30
0.0
 10
0.4807850201
 20
222.6667950087
 30
0.0
 10
0.469192046
 20
222.9192596
 30
0.0
 10
0.4502999062
 20
223.1088500165
 30
0.0
  0
SPLINE
  5
397
100
AcDbEntity
  8
0
100
AcDbSpline
 62
7
  6
CONTINUOUS
 70
0
 71
3
 72
15
 73
11
 74
0
 42
0.0000001
 43
0.0000001
 44
0.0000000001
 40
0.0
 40
0.0
 40
0.0
 40
0.0
 40
0.1306144645
 40
0.2622267897
 40
0.3932970554
 40
0.5223292948
 40
0.6480682917
 40
0.7696700694
 40
0.886852762
 40
1.0
 40
1.0
 40
1.0
 40
1.0
 10
26.3480481767
 20
220.8331820398
 30
0.0
 10
26.2605758497
 20
222.6580465782
 30
0.0
 10
26.3883264057
 20
226.3427983392
 30
0.0
 10
27.4588875193
 20
231.7614437806
 30
0.0
 10
29.368569339
 20
236.9224767103
 30
0.0
 10
32.0500854929
 20
241.6346787838
 30
0.0
 10
35.4074288649
 20
245.7244592307
 30
0.0
 10
39.3221828202
 20
249.0385107826
 30
0.0
 10
43.6511522108
 20
251.448169248
 30
0.0
 10
46.7605119228
 20
252.4007868104
 30
0.0
 10
48.3165379793
 20
252.6897969194
 30
0.0
  0
LINE
  5
398
100
AcDbEntity
  8
0
100
AcDbLine
 62
7
  6
CONTINUOUS
 10
30.3946265034
 20
202.2072916999
 11
27.2496708349
 21
204.1055039216
  0
SPLINE
  5
399
100
AcDbEntity
  8
0
100
AcDbSpline
 62
7
  6
CONTINUOUS
 70
0
 71
3
 72
13
 73
9
 74
0
 42
0.0000001
 43
0.0000001
 44
0.0000000001
 40
0.0
 40
0.0
 40
0.0
 40
0.0
 40
0.262824271
 40
0.5210343398
 40
0.6462576022
 40
0.7678229162
 40
0.885617558
 40
1.0
 40
1.0
 40
1.0
 40
1.0
 10
33.9081194035
 20
220.9334753649
 30
0.0
 10
33.8625160942
 20
224.8337367334
 30
0.0
 10
34.9188673101
 20
232.6209905186
 30
0.0
 10
38.9627786004
 20
241.4892499615
 30
0.0
 10
43.6093959289
 20
247.4070804168
 30
0.0
 10
47.63306988
 20
251.0661548193
 30
0.0
 10
52.1048900829
 20
253.8692304252
 30
0.0
 10
55.3420345934
 20
255.1240209863
 30
0.0
 10
56.9787830302
 20
255.5741992245
 30
0.0
  0
SPLINE
  5
39A
100
AcDbEntity
  8
0
100
AcDbSpline
 62
7
  6
CONTINUOUS
 70
0
 71
3
 72
14
 73
10
 74
0
 42
0.0000001
 43
0.0000001
 44
0.0000000001
 40
0.0
 40
0.0
 40
0.0
 40
0.0
 40
0.0978260459
 40
0.2105646824
 40
0.335421908
 40
0.4687250179
 40
0.7434082711
 40
0.8761083629
 40
1.0
 40
1.0
 40
1.0
 40
1.0
 10
39.6273678216
 20
168.6752497204
 30
0.0
 10
39.9281821271
 20
168.5015049642
 30
0.0
 10
40.6117956156
 20
168.1898189301
 30
0.0
 10
41.7515799058
 20
167.8370365352
 30
0.0
 10
43.0446840726
 20
167.575996371
 30
0.0
 10
44.9262952257
 20
167.3628351533
 30
0.0
 10
46.8557174233
 20
167.3692096757
 30
0.0
 10
48.7300676989
 20
167.5957354437
 30
0.0
 10
49.6233883189
 20
167.7839374078
 30
0.0
 10
50.048331688
 20
167.8978458077
 30
0.0
  0
SPLINE
  5
39B
100
AcDbEntity
  8
0
100
AcDbSpline
 62
7
  6
CONTINUOUS
 70
0
 71
3
 72
13
 73
9
 74
0
 42
0.0000001
 43
0.0000001
 44
0.0000000001
 40
0.0
 40
0.0
 40
0.0
 40
0.0
 40
0.3343759237
 40
0.6101500871
 40
0.7252613985
 40
0.8263520447
 40
0.9163253831
 40
1.0
 40
1.0
 40
1.0
 40
1.0
 10
99.6351102536
 20
181.1898536706
 30
0.0
 10
100.1011466555
 20
181.3147772833
 30
0.0
 10
100.9391841464
 20
181.592911051
 30
0.0
 10
101.8713073353
 20
182.0902070195
 30
0.0
 10
102.4147670977
 20
182.5513655546
 30
0.0
 10
102.696669629
 20
182.895605721
 30
0.0
 10
102.8719078668
 20
183.2560615685
 30
0.0
 10
102.9124782245
 20
183.5080199111
 30
0.0
 10
102.9124823465
 20
183.6287585673
 30
0.0
  0
SPLINE
  5
39C
100
AcDbEntity
  8
0
100
AcDbSpline
 62
7
  6
CONTINUOUS
 70
0
 71
3
 72
11
 73
7
 74
0
 42
0.0000001
 43
0.0000001
 44
0.0000000001
 40
0.0
 40
0.0
 40
0.0
 40
0.0
 40
0.2032383987
 40
0.4289071888
 40
0.692421533
 40
1.0
 40
1.0
 40
1.0
 40
1.0
 10
-5.6070090999
 20
205.1108161527
 30
0.0
 10
-5.6070350578
 20
205.0561381774
 30
0.0
 10
-5.5835709704
 20
204.9399323686
 30
0.0
 10
-5.4851531303
 20
204.778631842
 30
0.0
 10
-5.3299341511
 20
204.6284969178
 30
0.0
 10
-5.2014349126
 20
204.5429861803
 30
0.0
 10
-5.1297793692
 20
204.5015992693
 30
0.0
  0
SPLINE
  5
39D
100
AcDbEntity
  8
0
100
AcDbSpline
 62
7
  6
CONTINUOUS
 70
0
 71
3
 72
11
 73
7
 74
0
 42
0.0000001
 43
0.0000001
 44
0.0000000001
 40
0.0
 40
0.0
 40
0.0
 40
0.0
 40
0.2032339246
 40
0.4288952144
 40
0.6924084714
 40
1.0
 40
1.0
 40
1.0
 40
1.0
 10
89.7699763107
 20
190.2080682783
 30
0.0
 10
89.7699550621
 20
190.1533916602
 30
0.0
 10
89.7934147558
 20
190.0371903022
 30
0.0
 10
89.89182822
 20
189.8758910291
 30
0.0
 10
90.0470440394
 20
189.7257522486
 30
0.0
 10
90.1755458915
 20
189.6402398722
 30
0.0
 10
90.247204274
 20
189.5988513213
 30
0.0
  0
SPLINE
  5
39E
100
AcDbEntity
  8
0
100
AcDbSpline
 62
7
  6
CONTINUOUS
 70
0
 71
3
 72
11
 73
7
 74
0
 42
0.0000001
 43
0.0000001
 44
0.0000000001
 40
0.0
 40
0.0
 40
0.0
 40
0.0
 40
0.2032339246
 40
0.4288952144
 40
0.6924084714
 40
1.0
 40
1.0
 40
1.0
 40
1.0
 10
42.2493135187
 20
177.4698940764
 30
0.0
 10
42.2492922701
 20
177.4152174582
 30
0.0
 10
42.2727519638
 20
177.2990161003
 30
0.0
 10
42.371165428
 20
177.1377168271
 30
0.0
 10
42.5263812473
 20
176.9875780466
 30
0.0
 10
42.6548830995
 20
176.9020656702
 30
0.0
 10
42.726541482
 20
176.8606771193
 30
0.0
  0
SPLINE
  5
39F
100
AcDbEntity
  8
0
100
AcDbSpline
 62
7
  6
CONTINUOUS
 70
0
 71
3
 72
11
 73
7
 74
0
 42
0.0000001
 43
0.0000001
 44
0.0000000001
 40
0.0
 40
0.0
 40
0.0
 40
0.0
 40
0.3077821089
 40
0.5710795319
 40
0.7967168829
 40
1.0
 40
1.0
 40
1.0
 40
1.0
 10
101.6108410286
 20
192.6449364565
 30
0.0
 10
101.8063973
 20
192.531986786
 30
0.0
 10
102.1569764357
 20
192.2989409583
 30
0.0
 10
102.580048236
 20
191.8892513235
 30
0.0
 10
102.8483997186
 20
191.4495052221
 30
0.0
 10
102.9124874197
 20
191.1325920941
 30
0.0
 10
102.9124823444
 20
190.9834354747
 30
0.0
  0
SPLINE
  5
3A0
100
AcDbEntity
  8
0
100
AcDbSpline
 62
7
  6
CONTINUOUS
 70
0
 71
3
 72
13
 73
9
 74
0
 42
0.0000001
 43
0.0000001
 44
0.0000000001
 40
0.0
 40
0.0
 40
0.0
 40
0.0
 40
0.3343397011
 40
0.6101736041
 40
0.7252438332
 40
0.8263461467
 40
0.9163248135
 40
1.0
 40
1.0
 40
1.0
 40
1.0
 10
50.2665699587
 20
177.5725296077
 30
0.0
 10
50.4374289139
 20
177.6183292874
 30
0.0
 10
50.7446938073
 20
177.7203484509
 30
0.0
 10
51.0865211429
 20
177.9026015812
 30
0.0
 10
51.2857302824
 20
178.0717788228
 30
0.0
 10
51.3891169187
 20
178.1979554389
 30
0.0
 10
51.4533840056
 20
178.3301359673
 30
0.0
 10
51.4682153349
 20
178.4225243275
 30
0.0
 10
51.4682325395
 20
178.4667948061
 30
0.0
  0
SPLINE
  5
3A1
100
AcDbEntity
  8
0
100
AcDbSpline
 62
7
  6
CONTINUOUS
 70
0
 71
3
 72
12
 73
8
 74
0
 42
0.0000001
 43
0.0000001
 44
0.0000000001
 40
0.0
 40
0.0
 40
0.0
 40
0.0
 40
0.0978508246
 40
0.2106902249
 40
0.4687113837
 40
0.7435104759
 40
1.0
 40
1.0
 40
1.0
 40
1.0
 10
42.726541482
 20
176.8606771193
 30
0.0
 10
42.836812318
 20
176.7969867323
 30
0.0
 10
43.0875061979
 20
176.6826936524
 30
0.0
 10
43.6712158639
 20
176.5022405954
 30
0.0
 10
44.5075677323
 20
176.379265443
 30
0.0
 10
45.5374752302
 20
176.3825366158
 30
0.0
 10
46.2251497961
 20
176.4892047753
 30
0.0
 10
46.5475615663
 20
176.575629018
 30
0.0
  0
SPLINE
  5
3A2
100
AcDbEntity
  8
0
100
AcDbSpline
 62
7
  6
CONTINUOUS
 70
0
 71
3
 72
13
 73
9
 74
0
 42
0.0000001
 43
0.0000001
 44
0.0000000001
 40
0.0
 40
0.0
 40
0.0
 40
0.0
 40
0.3343397011
 40
0.6101736041
 40
0.7252438332
 40
0.8263461467
 40
0.9163248135
 40
1.0
 40
1.0
 40
1.0
 40
1.0
 10
97.7872327508
 20
190.3107038097
 30
0.0
 10
97.9580917059
 20
190.3565034893
 30
0.0
 10
98.2653565993
 20
190.4585226528
 30
0.0
 10
98.607183935
 20
190.6407757832
 30
0.0
 10
98.8063930744
 20
190.8099530248
 30
0.0
 10
98.9097797107
 20
190.9361296409
 30
0.0
 10
98.9740467977
 20
191.0683101693
 30
0.0
 10
98.988878127
 20
191.1606985295
 30
0.0
 10
98.9888953315
 20
191.204969008
 30
0.0
  0
SPLINE
  5
3A3
100
AcDbEntity
  8
0
100
AcDbSpline
 62
7
  6
CONTINUOUS
 70
0
 71
3
 72
12
 73
8
 74
0
 42
0.0000001
 43
0.0000001
 44
0.0000000001
 40
0.0
 40
0.0
 40
0.0
 40
0.0
 40
0.0978508246
 40
0.2106902249
 40
0.4687113837
 40
0.7435104759
 40
1.0
 40
1.0
 40
1.0
 40
1.0
 10
90.247204274
 20
189.5988513213
 30
0.0
 10
90.35747511
 20
189.5351609343
 30
0.0
 10
90.6081689899
 20
189.4208678543
 30
0.0
 10
91.191878656
 20
189.2404147974
 30
0.0
 10
92.0282305244
 20
189.117439645
 30
0.0
 10
93.0581380223
 20
189.1207108177
 30
0.0
 10
93.7458125881
 20
189.2273789772
 30
0.0
 10
94.0682243583
 20
189.3138032199
 30
0.0
  0
SPLINE
  5
3A4
100
AcDbEntity
  8
0
100
AcDbSpline
 62
7
  6
CONTINUOUS
 70
0
 71
3
 72
17
 73
13
 74
0
 42
0.0000001
 43
0.0000001
 44
0.0000000001
 40
0.0
 40
0.0
 40
0.0
 40
0.0
 40
0.1179828774
 40
0.2605779244
 40
0.4170407478
 40
0.5743024798
 40
0.7191848507
 40
0.8405111667
 40
0.8902229497
 40
0.9324169003
 40
0.9681664809
 40
1.0
 40
1.0
 40
1.0
 40
1.0
 10
-2.5962094418
 20
203.0382563319
 30
0.0
 10
-2.4092287708
 20
202.9302597689
 30
0.0
 10
-1.9596326771
 20
202.7566567558
 30
0.0
 10
-1.2097518855
 20
202.6049126726
 30
0.0
 10
-0.3741696146
 20
202.5482314387
 30
0.0
 10
0.466233619
 20
202.5928765539
 30
0.0
 10
1.2302286731
 20
202.7342226999
 30
0.0
 10
1.7793236815
 20
202.9310784995
 30
0.0
 10
2.1131531732
 20
203.1361326908
 30
0.0
 10
2.2878192528
 20
203.293951087
 30
0.0
 10
2.3995445486
 20
203.4646071851
 30
0.0
 10
2.4264473319
 20
203.5892128727
 30
0.0
 10
2.4264749907
 20
203.6474735026
 30
0.0
  0
SPLINE
  5
3A5
100
AcDbEntity
  8
0
100
AcDbSpline
 62
7
  6
CONTINUOUS
 70
0
 71
3
 72
11
 73
7
 74
0
 42
0.0000001
 43
0.0000001
 44
0.0000000001
 40
0.0
 40
0.0
 40
0.0
 40
0.0
 40
0.2032831251
 40
0.4289204829
 40
0.6922178869
 40
1.0
 40
1.0
 40
1.0
 40
1.0
 10
-9.5305943475
 20
197.9776728522
 30
0.0
 10
-9.5305994397
 20
197.8285162268
 30
0.0
 10
-9.4665117056
 20
197.5116030875
 30
0.0
 10
-9.1981602297
 20
197.0718569937
 30
0.0
 10
-8.7750884396
 20
196.6621673517
 30
0.0
 10
-8.4245093039
 20
196.4291215426
 30
0.0
 10
-8.2289530296
 20
196.3161718704
 30
0.0
  0
SPLINE
  5
3A6
100
AcDbEntity
  8
0
100
AcDbSpline
 62
7
  6
CONTINUOUS
 70
0
 71
3
 72
13
 73
9
 74
0
 42
0.0000001
 43
0.0000001
 44
0.0000000001
 40
0.0
 40
0.0
 40
0.0
 40
0.0
 40
0.0836746234
 40
0.1736479663
 40
0.2747386182
 40
0.3898499315
 40
0.6656240955
 40
1.0
 40
1.0
 40
1.0
 40
1.0
 10
-9.5305943454
 20
205.3323497597
 30
0.0
 10
-9.5305902371
 20
205.4530884253
 30
0.0
 10
-9.4900198421
 20
205.7050467807
 30
0.0
 10
-9.3147816179
 20
206.0655026572
 30
0.0
 10
-9.0328790445
 20
206.4097428168
 30
0.0
 10
-8.489419279
 20
206.8709013611
 30
0.0
 10
-7.5572960911
 20
207.3681972894
 30
0.0
 10
-6.7192586298
 20
207.6463310508
 30
0.0
 10
-6.2532222546
 20
207.7712546563
 30
0.0
  0
SPLINE
  5
3A7
100
AcDbEntity
  8
0
100
AcDbSpline
 62
7
  6
CONTINUOUS
 70
0
 71
3
 72
12
 73
8
 74
0
 42
0.0000001
 43
0.0000001
 44
0.0000000001
 40
0.0
 40
0.0
 40
0.0
 40
0.0
 40
0.0978508246
 40
0.2106902249
 40
0.4687113837
 40
0.7435104759
 40
1.0
 40
1.0
 40
1.0
 40
1.0
 10
50.9910045762
 20
179.0760117631
 30
0.0
 10
50.8807337402
 20
179.1397021501
 30
0.0
 10
50.6300398603
 20
179.2539952301
 30
0.0
 10
50.0463301942
 20
179.434448287
 30
0.0
 10
49.2099783259
 20
179.5574234394
 30
0.0
 10
48.180070828
 20
179.5541522667
 30
0.0
 10
47.4923962621
 20
179.4474841071
 30
0.0
 10
47.1699844919
 20
179.3610598645
 30
0.0
  0
SPLINE
  5
3A8
100
AcDbEntity
  8
0
100
AcDbSpline
 62
7
  6
CONTINUOUS
 70
0
 71
3
 72
13
 73
9
 74
0
 42
0.0000001
 43
0.0000001
 44
0.0000000001
 40
0.0
 40
0.0
 40
0.0
 40
0.0
 40
0.3343397011
 40
0.6101736041
 40
0.7252438332
 40
0.8263461467
 40
0.9163248135
 40
1.0
 40
1.0
 40
1.0
 40
1.0
 10
43.4509760995
 20
178.3641592747
 30
0.0
 10
43.2801171443
 20
178.318359595
 30
0.0
 10
42.9728522509
 20
178.2163404316
 30
0.0
 10
42.6310249152
 20
178.0340873012
 30
0.0
 10
42.4318157758
 20
177.8649100596
 30
0.0
 10
42.3284291395
 20
177.7387334435
 30
0.0
 10
42.2641620525
 20
177.6065529151
 30
0.0
 10
42.2493307233
 20
177.5141645549
 30
0.0
 10
42.2493135187
 20
177.4698940764
 30
0.0
  0
SPLINE
  5
3A9
100
AcDbEntity
  8
0
100
AcDbSpline
 62
7
  6
CONTINUOUS
 70
0
 71
3
 72
12
 73
8
 74
0
 42
0.0000001
 43
0.0000001
 44
0.0000000001
 40
0.0
 40
0.0
 40
0.0
 40
0.0
 40
0.0978508246
 40
0.2106902249
 40
0.4687113837
 40
0.7435104759
 40
1.0
 40
1.0
 40
1.0
 40
1.0
 10
98.5116673683
 20
191.8141859651
 30
0.0
 10
98.4013965322
 20
191.8778763521
 30
0.0
 10
98.1507026523
 20
191.992169432
 30
0.0
 10
97.5669929863
 20
192.1726224889
 30
0.0
 10
96.7306411179
 20
192.2955976414
 30
0.0
 10
95.70073362
 20
192.2923264686
 30
0.0
 10
95.0130590541
 20
192.1856583091
 30
0.0
 10
94.6906472839
 20
192.0992340664
 30
0.0
  0
SPLINE
  5
3AA
100
AcDbEntity
  8
0
100
AcDbSpline
 62
7
  6
CONTINUOUS
 70
0
 71
3
 72
13
 73
9
 74
0
 42
0.0000001
 43
0.0000001
 44
0.0000000001
 40
0.0
 40
0.0
 40
0.0
 40
0.0
 40
0.3343397011
 40
0.6101736041
 40
0.7252438332
 40
0.8263461467
 40
0.9163248135
 40
1.0
 40
1.0
 40
1.0
 40
1.0
 10
90.9716388915
 20
191.1023334767
 30
0.0
 10
90.8007799363
 20
191.056533797
 30
0.0
 10
90.4935150429
 20
190.9545146335
 30
0.0
 10
90.1516877073
 20
190.7722615032
 30
0.0
 10
89.9524785679
 20
190.6030842615
 30
0.0
 10
89.8490919316
 20
190.4769076455
 30
0.0
 10
89.7848248446
 20
190.3447271171
 30
0.0
 10
89.7699935153
 20
190.2523387569
 30
0.0
 10
89.7699763107
 20
190.2080682783
 30
0.0
  0
SPLINE
  5
3AB
100
AcDbEntity
  8
0
100
AcDbSpline
 62
7
  6
CONTINUOUS
 70
0
 71
3
 72
17
 73
13
 74
0
 42
0.0000001
 43
0.0000001
 44
0.0000000001
 40
0.0
 40
0.0
 40
0.0
 40
0.0
 40
0.1179828774
 40
0.2605779244
 40
0.4170407478
 40
0.5743024798
 40
0.7191848507
 40
0.8405111667
 40
0.8902229497
 40
0.9324169003
 40
0.9681664809
 40
1.0
 40
1.0
 40
1.0
 40
1.0
 10
-0.5843246674
 20
205.7200333234
 30
0.0
 10
-0.7713053384
 20
205.8280298864
 30
0.0
 10
-1.2209014321
 20
206.0016328995
 30
0.0
 10
-1.9707822238
 20
206.1533769827
 30
0.0
 10
-2.8063644946
 20
206.2100582166
 30
0.0
 10
-3.6467677282
 20
206.1654131014
 30
0.0
 10
-4.4107627823
 20
206.0240669554
 30
0.0
 10
-4.9598577907
 20
205.8272111558
 30
0.0
 10
-5.2936872825
 20
205.6221569645
 30
0.0
 10
-5.4683533621
 20
205.4643385683
 30
0.0
 10
-5.5800786579
 20
205.2936824702
 30
0.0
 10
-5.6069814411
 20
205.1690767826
 30
0.0
 10
-5.6070090999
 20
205.1108161527
 30
0.0
  0
SPLINE
  5
3AC
100
AcDbEntity
  8
0
100
AcDbSpline
 62
7
  6
CONTINUOUS
 70
0
 71
3
 72
11
 73
7
 74
0
 42
0.0000001
 43
0.0000001
 44
0.0000000001
 40
0.0
 40
0.0
 40
0.0
 40
0.0
 40
0.2032383987
 40
0.4289071888
 40
0.692421533
 40
1.0
 40
1.0
 40
1.0
 40
1.0
 10
2.4264749907
 20
203.6474735026
 30
0.0
 10
2.4265009486
 20
203.7021514779
 30
0.0
 10
2.4030368612
 20
203.8183572867
 30
0.0
 10
2.3046190211
 20
203.9796578133
 30
0.0
 10
2.1494000419
 20
204.1297927375
 30
0.0
 10
2.0209008034
 20
204.215303475
 30
0.0
 10
1.94924526
 20
204.256690386
 30
0.0
  0
SPLINE
  5
3AD
100
AcDbEntity
  8
0
100
AcDbSpline
 62
7
  6
CONTINUOUS
 70
0
 71
3
 72
11
 73
7
 74
0
 42
0.0000001
 43
0.0000001
 44
0.0000000001
 40
0.0
 40
0.0
 40
0.0
 40
0.0
 40
0.2032339246
 40
0.4288952144
 40
0.6924084714
 40
1.0
 40
1.0
 40
1.0
 40
1.0
 10
98.9888953315
 20
191.204969008
 30
0.0
 10
98.9889165801
 20
191.2596456262
 30
0.0
 10
98.9654568864
 20
191.3758469841
 30
0.0
 10
98.8670434222
 20
191.5371462573
 30
0.0
 10
98.7118276029
 20
191.6872850378
 30
0.0
 10
98.5833257508
 20
191.7727974142
 30
0.0
 10
98.5116673683
 20
191.8141859651
 30
0.0
  0
SPLINE
  5
3AE
100
AcDbEntity
  8
0
100
AcDbSpline
 62
7
  6
CONTINUOUS
 70
0
 71
3
 72
11
 73
7
 74
0
 42
0.0000001
 43
0.0000001
 44
0.0000000001
 40
0.0
 40
0.0
 40
0.0
 40
0.0
 40
0.2032339246
 40
0.4288952144
 40
0.6924084714
 40
1.0
 40
1.0
 40
1.0
 40
1.0
 10
51.4682325395
 20
178.4667948061
 30
0.0
 10
51.4682537881
 20
178.5214714242
 30
0.0
 10
51.4447940944
 20
178.6376727822
 30
0.0
 10
51.3463806302
 20
178.7989720553
 30
0.0
 10
51.1911648108
 20
178.9491108358
 30
0.0
 10
51.0626629587
 20
179.0346232122
 30
0.0
 10
50.9910045762
 20
179.0760117631
 30
0.0
  0
SPLINE
  5
3AF
100
AcDbEntity
  8
0
100
AcDbSpline
 62
7
  6
CONTINUOUS
 70
0
 71
3
 72
13
 73
9
 74
0
 42
0.0000001
 43
0.0000001
 44
0.0000000001
 40
0.0
 40
0.0
 40
0.0
 40
0.0
 40
0.0836746234
 40
0.1736479663
 40
0.2747386182
 40
0.3898499315
 40
0.6656240955
 40
1.0
 40
1.0
 40
1.0
 40
1.0
 10
102.9124823444
 20
190.9834354747
 30
0.0
 10
102.9124782362
 20
190.8626968091
 30
0.0
 10
102.8719078411
 20
190.6107384537
 30
0.0
 10
102.696669617
 20
190.2502825772
 30
0.0
 10
102.4147670436
 20
189.9060424175
 30
0.0
 10
101.8713072781
 20
189.4448838733
 30
0.0
 10
100.9391840901
 20
188.947587945
 30
0.0
 10
100.1011466288
 20
188.6694541836
 30
0.0
 10
99.6351102536
 20
188.5445305781
 30
0.0
  0
SPLINE
  5
3B0
100
AcDbEntity
  8
0
100
AcDbSpline
 62
7
  6
CONTINUOUS
 70
0
 71
3
 72
14
 73
10
 74
0
 42
0.0000001
 43
0.0000001
 44
0.0000000001
 40
0.0
 40
0.0
 40
0.0
 40
0.0
 40
0.1238916505
 40
0.2565917571
 40
0.5312750189
 40
0.6645781246
 40
0.7894353425
 40
0.9021739652
 40
1.0
 40
1.0
 40
1.0
 40
1.0
 10
50.048331688
 20
175.2525227152
 30
0.0
 10
49.6233882731
 20
175.138614303
 30
0.0
 10
48.7300675523
 20
174.9504123284
 30
0.0
 10
46.8557171448
 20
174.7238865612
 30
0.0
 10
44.9262948777
 20
174.7175120781
 30
0.0
 10
43.04468374
 20
174.9306733271
 30
0.0
 10
41.75157967
 20
175.1917135076
 30
0.0
 10
40.6117954943
 20
175.544495881
 30
0.0
 10
39.928182093
 20
175.8561818913
 30
0.0
 10
39.6273678216
 20
176.0299266279
 30
0.0
  0
SPLINE
  5
3B1
100
AcDbEntity
  8
0
100
AcDbSpline
 62
7
  6
CONTINUOUS
 70
0
 71
3
 72
11
 73
7
 74
0
 42
0.0000001
 43
0.0000001
 44
0.0000000001
 40
0.0
 40
0.0
 40
0.0
 40
0.0
 40
0.3077821089
 40
0.5710795319
 40
0.7967168829
 40
1.0
 40
1.0
 40
1.0
 40
1.0
 10
-8.2289530296
 20
203.6708487779
 30
0.0
 10
-8.4245093009
 20
203.7837984484
 30
0.0
 10
-8.7750884367
 20
204.016844276
 30
0.0
 10
-9.198160237
 20
204.4265339108
 30
0.0
 10
-9.4665117196
 20
204.8662800123
 30
0.0
 10
-9.5305994207
 20
205.1831931403
 30
0.0
 10
-9.5305943454
 20
205.3323497597
 30
0.0
  0
SPLINE
  5
3B2
100
AcDbEntity
  8
0
100
AcDbSpline
 62
7
  6
CONTINUOUS
 70
0
 71
3
 72
11
 73
7
 74
0
 42
0.0000001
 43
0.0000001
 44
0.0000000001
 40
0.0
 40
0.0
 40
0.0
 40
0.0
 40
0.2916580526
 40
0.5503044048
 40
0.7825466397
 40
1.0
 40
1.0
 40
1.0
 40
1.0
 10
3.3722812893
 20
210.0486545909
 30
0.0
 10
3.3086116063
 20
210.0993575908
 30
0.0
 10
3.1944828163
 20
210.2031720713
 30
0.0
 10
3.060390947
 20
210.3773726066
 30
0.0
 10
2.9774810736
 20
210.5590474437
 30
0.0
 10
2.9584133365
 20
210.6851791953
 30
0.0
 10
2.9584159984
 20
210.7458629895
 30
0.0
  0
SPLINE
  5
3B3
100
AcDbEntity
  8
0
100
AcDbSpline
 62
7
  6
CONTINUOUS
 70
0
 71
3
 72
11
 73
7
 74
0
 42
0.0000001
 43
0.0000001
 44
0.0000000001
 40
0.0
 40
0.0
 40
0.0
 40
0.0
 40
0.2174533412
 40
0.4496956062
 40
0.708341992
 40
1.0
 40
1.0
 40
1.0
 40
1.0
 10
2.9584160033
 20
201.5525168553
 30
0.0
 10
2.958413349
 20
201.491833067
 30
0.0
 10
2.9774810629
 20
201.3657013108
 30
0.0
 10
3.0603909706
 20
201.1840264725
 30
0.0
 10
3.1944828424
 20
201.0098259405
 30
0.0
 10
3.3086116166
 20
200.9060114483
 30
0.0
 10
3.3722812893
 20
200.8553084566
 30
0.0
  0
ENDSEC
  0
SECTION
  2
OBJECTS
  0
DICTIONARY
  5
C
100
AcDbDictionary
280
0
281
1
  3
ACAD_GROUP
350
D
  3
ACAD_MLINESTYLE
350
17
  3
ACAD_LAYOUT
350
1A
  3
ACAD_PLOTSETTINGS
350
19
  3
ACAD_PLOTSTYLENAME
350
E
  0
DICTIONARY
  5
D
102
{ACAD_REACTORS
330
C
102
}
100
AcDbDictionary
280
0
281
1
  0
ACDBDICTIONARYWDFLT
  5
E
102
{ACAD_REACTORS
330
C
102
}
100
AcDbDictionary
281
1
  3
Normal
350
F
100
AcDbDictionaryWithDefault
340
F
  0
DICTIONARY
  5
17
102
{ACAD_REACTORS
330
C
102
}
100
AcDbDictionary
280
0
281
1
  3
Standard
350
18
  0
DICTIONARY
  5
19
102
{ACAD_REACTORS
330
C
102
}
100
AcDbDictionary
281
1
  0
DICTIONARY
  5
1A
102
{ACAD_REACTORS
330
C
102
}
100
AcDbDictionary
281
1
  3
Model
350
3B4
  3
Layout1
350
3B5
  0
ACDBPLACEHOLDER
  5
F
102
{ACAD_REACTORS
330
E
102
}
  0
MLINESTYLE
  5
18
102
{ACAD_REACTORS
330
17
102
}
100
AcDbMlineStyle
  2
STANDARD
 70
0
  3

 62
256
 51
90.0
 52
90.0
 71
2
 49
0.5
 62
256
  6
BYLAYER
 49
-0.5
 62
256
  6
BYLAYER
  0
LAYOUT
  5
3B4
102
{ACAD_REACTORS
330
1A
102
}
100
AcDbPlotSettings
  1

  2
none_device
  4
ANSI_C_(22.00_x_17.00_Inches)
  6

 40
0.0
 41
0.0
 42
0.0
 43
0.0
 44
558.8
 45
431.8
 46
0.0
 47
0.0
 48
0.0
 49
0.0
140
0.0
141
0.0
142
1.0
143
1.0
 70
1024
 72
1
 73
0
 74
0
  7

 75
0
147
1.0
148
0.0
149
0.0
100
AcDbLayout
  1
Model
 70
0
 71
0
 10
0.0
 20
0.0
 11
558.8
 21
431.8
 12
0.0
 22
0.0
 32
0.0
 14
0.0
 24
0.0
 34
0.0
 15
0.0
 25
0.0
 35
0.0
146
0.0
 13
0.0
 23
0.0
 33
0.0
 16
1.0
 26
0.0
 36
0.0
 17
0.0
 27
1.0
 37
0.0
 76
0
330
216
345
0
346
0
  0
LAYOUT
  5
3B5
102
{ACAD_REACTORS
330
1A
102
}
100
AcDbPlotSettings
  1

  2
none_device
  4
ANSI_C_(22.00_x_17.00_Inches)
  6

 40
0.0
 41
0.0
 42
0.0
 43
0.0
 44
558.8
 45
431.8
 46
0.0
 47
0.0
 48
0.0
 49
0.0
140
0.0
141
0.0
142
1.0
143
1.0
 70
0
 72
1
 73
0
 74
0
  7

 75
0
147
1.0
148
0.0
149
0.0
100
AcDbLayout
  1
Layout1
 70
0
 71
1
 10
0.0
 20
0.0
 11
558.8
 21
431.8
 12
0.0
 22
0.0
 32
0.0
 14
0.0
 24
0.0
 34
0.0
 15
0.0
 25
0.0
 35
0.0
146
0.0
 13
0.0
 23
0.0
 33
0.0
 16
1.0
 26
0.0
 36
0.0
 17
0.0
 27
1.0
 37
0.0
 76
0
330
217
345
0
346
0
  0
ENDSEC
  0
EOF
