999
DXF file: Y:\3D PRATIKA-KAEDRA_OLGA\TRAVAIL_PHASE_6\CAD3D\PKF16W434_3D-Simplified\pkf16w434_2d-isometric.dxf
999
Pro/ENGINEER 2018260 by Parametric Technology Corporation
  0
SECTION
  2
HEADER
  9
$ACADVER
  1
AC1027
  9
$DWGCODEPAGE
  3
ANSI_1252
  9
$EXTMAX
 10
558.8
 20
431.8
 30
0.0
  9
$EXTMIN
 10
0.0
 20
0.0
 30
0.0
  9
$LIMMIN
 10
0.0
 20
0.0
  9
$LIMMAX
 10
558.8
 20
431.8
  9
$VIEWCTR
 10
279.4
 20
215.9
  9
$VIEWSIZE
 40
431.8
  9
$CLAYER
  8
0
  9
$LTSCALE
 40
30.734
  9
$CELTYPE
  6
BYLAYER
  9
$DIMSCALE
 40
1.0
  9
$DIMASZ
 40
0.1875
  9
$DIMEXO
 40
0.0625
  9
$DIMDLI
 40
21.2344
  9
$DIMEXE
 40
0.125
  9
$DIMCEN
 40
5.0292
  9
$DIMLFAC
 40
1.0
  9
$DIMBLK
  1
_CLOSED
  9
$DIMALT
 70
0
  9
$DIMALTF
 40
0.0393700787
  9
$DIMTXT
 40
0.15625
  9
$DIMTOL
 70
0
  9
$DIMLIM
 70
0
  9
$DIMTFAC
 40
1.0
  9
$DIMGAP
 40
0.625
  9
$DIMDSEP
 70
46
  9
$AUNITS
 70
0
  9
$PDMODE
 70
3
  9
$PDSIZE
 40
0.3125
  9
$HANDSEED
  5
3CC
  9
$TILEMODE
 70
1
  9
$MEASUREMENT
 70
1
  9
$INSUNITS
 70
4
  0
ENDSEC
  0
SECTION
  2
CLASSES
  0
CLASS
  1
ACDBDICTIONARYWDFLT
  2
AcDbDictionaryWithDefault
  3
AutoCAD 2000
 90
0
 91
1
280
0
281
0
  0
CLASS
  1
ACDBPLACEHOLDER
  2
AcDbPlaceHolder
  3
AutoCAD 2000
 90
0
 91
1
280
0
281
0
  0
CLASS
  1
LAYOUT
  2
AcDbLayout
  3
AutoCAD 2000
 90
0
 91
0
280
0
281
0
  0
ENDSEC
  0
SECTION
  2
TABLES
  0
TABLE
  2
VPORT
  5
8
100
AcDbSymbolTable
 70
2
  0
VPORT
  5
1F4
100
AcDbSymbolTableRecord
100
AcDbViewportTableRecord
  2
*ACTIVE
 70
0
 10
0.0
 20
0.0
 11
1.0
 21
1.0
 12
279.4
 22
215.9
 13
0.0
 23
0.0
 14
1.0
 24
1.0
 15
0.0
 25
0.0
 16
0.0
 26
0.0
 36
1.0
 17
0.0
 27
0.0
 37
0.0
 40
431.8
 41
1.2941176471
 42
50.0
 43
0.0
 44
0.0
 50
0.0
 51
0.0
 71
0
 72
100
 73
1
 74
1
 75
0
 76
0
 77
0
 78
0
  0
ENDTAB
  0
TABLE
  2
LTYPE
  5
5
100
AcDbSymbolTable
 70
6
  0
LTYPE
  5
14
100
AcDbSymbolTableRecord
100
AcDbLinetypeTableRecord
  2
BYBLOCK
 70
0
  3

 72
65
 73
0
 40
0.0
  0
LTYPE
  5
15
100
AcDbSymbolTableRecord
100
AcDbLinetypeTableRecord
  2
BYLAYER
 70
0
  3

 72
65
 73
0
 40
0.0
  0
LTYPE
  5
16
100
AcDbSymbolTableRecord
100
AcDbLinetypeTableRecord
  2
CONTINUOUS
 70
64
  3
Solid line
 72
65
 73
0
 40
0.0
  0
LTYPE
  5
1F5
100
AcDbSymbolTableRecord
100
AcDbLinetypeTableRecord
  2
CENTER
 70
64
  3
____ _ ____ _ ____ _ ____ _ ____ _ ____ _ ____
 72
65
 73
4
 40
0.6
 49
0.375
 74
0
 49
-0.075
 74
0
 49
0.075
 74
0
 49
-0.075
 74
0
  0
LTYPE
  5
1F6
100
AcDbSymbolTableRecord
100
AcDbLinetypeTableRecord
  2
HIDDEN
 70
64
  3
- - - - - - - - - - - - - - - - - - - -
 72
65
 73
2
 40
0.2
 49
0.1
 74
0
 49
-0.1
 74
0
  0
LTYPE
  5
1F7
100
AcDbSymbolTableRecord
100
AcDbLinetypeTableRecord
  2
PHANTOM
 70
64
  3
_____ _ _ _____ _ _ _____ _ _ _____
 72
65
 73
6
 40
0.8
 49
0.45
 74
0
 49
-0.05
 74
0
 49
0.1
 74
0
 49
-0.05
 74
0
 49
0.1
 74
0
 49
-0.05
 74
0
  0
LTYPE
  5
1F8
100
AcDbSymbolTableRecord
100
AcDbLinetypeTableRecord
  2
DOT
 70
64
  3
. . . . . . . . . . . . . . . . . . . .
 72
65
 73
2
 40
0.2
 49
0.1
 74
0
 49
-0.1
 74
0
  0
LTYPE
  5
1F9
100
AcDbSymbolTableRecord
100
AcDbLinetypeTableRecord
  2
DASHED
 70
64
  3
- - - - - - - - - - - - - - - - - - - -
 72
65
 73
2
 40
0.2
 49
0.1
 74
0
 49
-0.1
 74
0
  0
ENDTAB
  0
TABLE
  2
LAYER
  5
2
100
AcDbSymbolTable
 70
36
  0
LAYER
  5
10
100
AcDbSymbolTableRecord
100
AcDbLayerTableRecord
  2
0
 70
0
 62
7
  6
CONTINUOUS
370
-3
390
F
  0
LAYER
  5
1FA
100
AcDbSymbolTableRecord
100
AcDbLayerTableRecord
  2
DEFAULT_1
 70
0
 62
7
  6
CENTER
370
-3
390
F
  0
LAYER
  5
1FB
100
AcDbSymbolTableRecord
100
AcDbLayerTableRecord
  2
DEFAULT_2
 70
0
 62
8
  6
HIDDEN
370
-3
390
F
  0
LAYER
  5
1FC
100
AcDbSymbolTableRecord
100
AcDbLayerTableRecord
  2
DEFAULT_3
 70
0
 62
7
  6
PHANTOM
370
-3
390
F
  0
LAYER
  5
1FD
100
AcDbSymbolTableRecord
100
AcDbLayerTableRecord
  2
01_ALL_DTM_PLN
 70
0
 62
7
  6
CONTINUOUS
370
-3
390
F
  0
LAYER
  5
1FE
100
AcDbSymbolTableRecord
100
AcDbLayerTableRecord
  2
01__ASM_ALL_DTM_PLN
 70
0
 62
7
  6
CONTINUOUS
370
-3
390
F
  0
LAYER
  5
1FF
100
AcDbSymbolTableRecord
100
AcDbLayerTableRecord
  2
01__ASM_DEF_DTM_PLN
 70
0
 62
7
  6
CONTINUOUS
370
-3
390
F
  0
LAYER
  5
200
100
AcDbSymbolTableRecord
100
AcDbLayerTableRecord
  2
01___PRT_ALL_DTM_PLN
 70
0
 62
7
  6
CONTINUOUS
370
-3
390
F
  0
LAYER
  5
201
100
AcDbSymbolTableRecord
100
AcDbLayerTableRecord
  2
01___PRT_DEF_DTM_PLN
 70
0
 62
7
  6
CONTINUOUS
370
-3
390
F
  0
LAYER
  5
202
100
AcDbSymbolTableRecord
100
AcDbLayerTableRecord
  2
02_ALL_AXES
 70
0
 62
7
  6
CONTINUOUS
370
-3
390
F
  0
LAYER
  5
203
100
AcDbSymbolTableRecord
100
AcDbLayerTableRecord
  2
02__ASM_ALL_AXES
 70
0
 62
7
  6
CONTINUOUS
370
-3
390
F
  0
LAYER
  5
204
100
AcDbSymbolTableRecord
100
AcDbLayerTableRecord
  2
02___PRT_ALL_AXES
 70
0
 62
7
  6
CONTINUOUS
370
-3
390
F
  0
LAYER
  5
205
100
AcDbSymbolTableRecord
100
AcDbLayerTableRecord
  2
03_ALL_CURVES
 70
0
 62
7
  6
CONTINUOUS
370
-3
390
F
  0
LAYER
  5
206
100
AcDbSymbolTableRecord
100
AcDbLayerTableRecord
  2
03__ASM_ALL_CURVES
 70
0
 62
7
  6
CONTINUOUS
370
-3
390
F
  0
LAYER
  5
207
100
AcDbSymbolTableRecord
100
AcDbLayerTableRecord
  2
03___PRT_ALL_CURVES
 70
0
 62
7
  6
CONTINUOUS
370
-3
390
F
  0
LAYER
  5
208
100
AcDbSymbolTableRecord
100
AcDbLayerTableRecord
  2
04_ALL_DTM_PNT
 70
0
 62
7
  6
CONTINUOUS
370
-3
390
F
  0
LAYER
  5
209
100
AcDbSymbolTableRecord
100
AcDbLayerTableRecord
  2
04__ASM_ALL_DTM_PNT
 70
0
 62
7
  6
CONTINUOUS
370
-3
390
F
  0
LAYER
  5
20A
100
AcDbSymbolTableRecord
100
AcDbLayerTableRecord
  2
04___PRT_ALL_DTM_PNT
 70
0
 62
7
  6
CONTINUOUS
370
-3
390
F
  0
LAYER
  5
20B
100
AcDbSymbolTableRecord
100
AcDbLayerTableRecord
  2
05_ALL_DTM_CSYS
 70
0
 62
7
  6
CONTINUOUS
370
-3
390
F
  0
LAYER
  5
20C
100
AcDbSymbolTableRecord
100
AcDbLayerTableRecord
  2
05__ASM_ALL_DTM_CSYS
 70
0
 62
7
  6
CONTINUOUS
370
-3
390
F
  0
LAYER
  5
20D
100
AcDbSymbolTableRecord
100
AcDbLayerTableRecord
  2
05__ASM_DEF_DTM_CSYS
 70
0
 62
7
  6
CONTINUOUS
370
-3
390
F
  0
LAYER
  5
20E
100
AcDbSymbolTableRecord
100
AcDbLayerTableRecord
  2
05___PRT_ALL_DTM_CSYS
 70
0
 62
7
  6
CONTINUOUS
370
-3
390
F
  0
LAYER
  5
20F
100
AcDbSymbolTableRecord
100
AcDbLayerTableRecord
  2
05___PRT_DEF_DTM_CSYS
 70
0
 62
7
  6
CONTINUOUS
370
-3
390
F
  0
LAYER
  5
210
100
AcDbSymbolTableRecord
100
AcDbLayerTableRecord
  2
06_ALL_SURFS
 70
0
 62
7
  6
CONTINUOUS
370
-3
390
F
  0
LAYER
  5
211
100
AcDbSymbolTableRecord
100
AcDbLayerTableRecord
  2
06__ASM_ALL_SURFS
 70
0
 62
7
  6
CONTINUOUS
370
-3
390
F
  0
LAYER
  5
212
100
AcDbSymbolTableRecord
100
AcDbLayerTableRecord
  2
06___PRT_ALL_SURFS
 70
0
 62
7
  6
CONTINUOUS
370
-3
390
F
  0
LAYER
  5
213
100
AcDbSymbolTableRecord
100
AcDbLayerTableRecord
  2
07__ASM_ALL_SKELETONS
 70
0
 62
7
  6
CONTINUOUS
370
-3
390
F
  0
ENDTAB
  0
TABLE
  2
STYLE
  5
3
100
AcDbSymbolTable
 70
1
  0
STYLE
  5
11
100
AcDbSymbolTableRecord
100
AcDbTextStyleTableRecord
  2
STANDARD
 70
0
 40
0.0
 41
0.8
 50
0.0
 71
0
 42
0.2
  3
txt
  4

  0
STYLE
  5
214
100
AcDbSymbolTableRecord
100
AcDbTextStyleTableRecord
  2
TEXTSTYLE_1
 70
0
 40
0.0
 41
0.8
 50
0.0
 71
0
 42
0.2
  3
gdt
  4

  0
ENDTAB
  0
TABLE
  2
VIEW
  5
6
100
AcDbSymbolTable
 70
0
  0
ENDTAB
  0
TABLE
  2
UCS
  5
7
100
AcDbSymbolTable
 70
0
  0
ENDTAB
  0
TABLE
  2
APPID
  5
9
100
AcDbSymbolTable
 70
1
  0
APPID
  5
215
100
AcDbSymbolTableRecord
100
AcDbRegAppTableRecord
  2
ACAD
 70
0
  0
ENDTAB
  0
TABLE
  2
BLOCK_RECORD
  5
1
100
AcDbSymbolTable
 70
0
  0
BLOCK_RECORD
  5
216
100
AcDbSymbolTableRecord
100
AcDbBlockTableRecord
  2
*Model_Space
  0
BLOCK_RECORD
  5
217
100
AcDbSymbolTableRecord
100
AcDbBlockTableRecord
  2
*Paper_Space
  0
BLOCK_RECORD
  5
218
100
AcDbSymbolTableRecord
100
AcDbBlockTableRecord
  2
_CLOSED
  0
ENDTAB
  0
TABLE
  2
DIMSTYLE
  5
A
100
AcDbSymbolTable
 70
1
100
AcDbDimStyleTable
 71
0
  0
DIMSTYLE
105
219
100
AcDbSymbolTableRecord
100
AcDbDimStyleTableRecord
  2
STANDARD
 70
0
  3

  4

 40
1.0
 41
0.1875
 42
0.0625
 43
0.38
 44
0.125
 45
0.0
 46
0.0
 47
0.01
 48
0.01
140
0.15625
141
0.09
142
0.0
143
25.4
144
1.0
145
0.0
146
1.0
147
0.625
 71
0.0
 72
0.0
 73
1
 74
1
 75
0
 76
0
 77
0
 78
8
 79
2
170
0
171
1
172
0
173
0
174
0
175
0
176
0
177
0
178
0
270
2
179
2
271
2
272
2
273
2
274
2
275
0
280
0
281
0
282
0
283
1
284
8
285
0
286
0
287
3
288
0
340
11
278
46
341
218
342
218
343
218
344
218
  0
ENDTAB
  0
ENDSEC
  0
SECTION
  2
BLOCKS
  0
BLOCK
  5
20
100
AcDbEntity
  8
0
100
AcDbBlockBegin
  2
*Model_Space
 70
0
 10
0.0
 20
0.0
 30
0.0
  3
*Model_Space
  1

  0
ENDBLK
  5
21
100
AcDbEntity
  8
0
100
AcDbBlockEnd
  0
BLOCK
  5
1C
100
AcDbEntity
  8
0
100
AcDbBlockBegin
  2
*Paper_Space
 70
0
 10
0.0
 20
0.0
 30
0.0
  3
*Paper_Space
  1

  0
ENDBLK
  5
1D
100
AcDbEntity
  8
0
100
AcDbBlockEnd
  0
BLOCK
  5
21A
100
AcDbEntity
  8
0
100
AcDbBlockBegin
  2
_CLOSED
 70
64
 10
0.0
 20
0.0
  3
_CLOSED
  1

  0
LINE
  5
21B
100
AcDbEntity
  8
0
  6
BYBLOCK
 62
0
100
AcDbLine
 10
0.0
 20
0.0
 11
-1.0
 21
0.1666666667
  0
LINE
  5
21C
100
AcDbEntity
  8
0
  6
BYBLOCK
 62
0
100
AcDbLine
 10
-1.0
 20
0.1666666667
 11
-1.0
 21
-0.1666666667
  0
LINE
  5
21D
100
AcDbEntity
  8
0
  6
BYBLOCK
 62
0
100
AcDbLine
 10
-1.0
 20
-0.1666666667
 11
0.0
 21
0.0
  0
LINE
  5
21E
100
AcDbEntity
  8
0
  6
BYBLOCK
 62
0
100
AcDbLine
 10
-1.0
 20
0.0
 11
0.0
 21
0.0
  0
ENDBLK
  5
21F
100
AcDbEntity
  8
0
  6
BYBLOCK
 62
0
100
AcDbBlockEnd
  0
ENDSEC
  0
SECTION
  2
ENTITIES
  0
LINE
  5
220
100
AcDbEntity
  8
0
100
AcDbLine
 62
7
  6
CONTINUOUS
 10
96.8674862794
 20
184.4079653178
 11
47.2807077138
 21
171.1159574549
  0
LINE
  5
221
100
AcDbEntity
  8
0
100
AcDbLine
 62
7
  6
CONTINUOUS
 10
96.8674862794
 20
191.7626422253
 11
47.2807077138
 21
178.4706343624
  0
LINE
  5
222
100
AcDbEntity
  8
0
100
AcDbLine
 62
7
  6
CONTINUOUS
 10
43.7799375921
 20
179.7937406652
 11
47.4989459845
 21
180.7906412549
  0
LINE
  5
223
100
AcDbEntity
  8
0
100
AcDbLine
 62
7
  6
CONTINUOUS
 10
91.3006003841
 20
192.5319148671
 11
95.0196087765
 21
193.5288154569
  0
LINE
  5
224
100
AcDbEntity
  8
0
100
AcDbLine
 62
7
  6
CONTINUOUS
 10
91.9230233097
 20
195.3173457136
 11
90.0636059637
 21
194.8189186994
  0
LINE
  5
225
100
AcDbEntity
  8
0
100
AcDbLine
 62
7
  6
CONTINUOUS
 10
44.4023605177
 20
182.5791715117
 11
40.6833521253
 21
181.5822709219
  0
LINE
  5
226
100
AcDbEntity
  8
0
100
AcDbLine
 62
7
  6
CONTINUOUS
 10
34.2096263332
 20
181.1281336862
 11
74.6177696363
 21
191.9597580435
  0
LINE
  5
227
100
AcDbEntity
  8
0
100
AcDbLine
 62
7
  6
CONTINUOUS
 10
91.1655702289
 20
196.3954867186
 11
95.3666532308
 21
197.5216100504
  0
LINE
  5
228
100
AcDbEntity
  8
0
100
AcDbLine
 62
7
  6
CONTINUOUS
 10
32.7010378313
 20
191.1927693204
 11
41.3703818819
 21
193.516683721
  0
LINE
  5
229
100
AcDbEntity
  8
0
100
AcDbLine
 62
7
  6
CONTINUOUS
 10
26.217366791
 20
202.6189340506
 11
26.8533209702
 21
202.789405055
  0
LINE
  5
22A
100
AcDbEntity
  8
0
100
AcDbLine
 62
7
  6
CONTINUOUS
 10
27.1143332255
 20
203.4388549635
 11
28.7128099662
 21
203.8673354177
  0
LINE
  5
22B
100
AcDbEntity
  8
0
100
AcDbLine
 62
7
  6
CONTINUOUS
 10
28.0934928728
 20
204.2250414691
 11
26.4950161321
 21
203.7965610148
  0
LINE
  5
22C
100
AcDbEntity
  8
0
100
AcDbLine
 62
7
  6
CONTINUOUS
 10
106.9654604995
 20
240.2614978647
 11
103.6596752618
 21
239.3753640072
  0
LINE
  5
22D
100
AcDbEntity
  8
0
100
AcDbLine
 62
7
  6
CONTINUOUS
 10
-9.0208462288
 20
210.9893663035
 11
-2.475354047
 21
212.7439213697
  0
LINE
  5
22E
100
AcDbEntity
  8
0
100
AcDbLine
 62
7
  6
CONTINUOUS
 10
28.7128099662
 20
203.8673354177
 11
29.1414306309
 21
203.9286232675
  0
LINE
  5
22F
100
AcDbEntity
  8
0
100
AcDbLine
 62
7
  6
CONTINUOUS
 10
29.745439988
 20
204.1584983981
 11
29.6478516855
 21
204.1445443877
  0
LINE
  5
230
100
AcDbEntity
  8
0
100
AcDbLine
 62
7
  6
CONTINUOUS
 10
81.420572137
 20
193.4544657535
 11
78.1187480405
 21
193.6285978772
  0
LINE
  5
231
100
AcDbEntity
  8
0
100
AcDbLine
 62
7
  6
CONTINUOUS
 10
55.8861681951
 20
258.9412500572
 11
54.7949295241
 21
258.5792608124
  0
LINE
  5
232
100
AcDbEntity
  8
0
100
AcDbLine
 62
7
  6
CONTINUOUS
 10
0.9229979033
 20
221.0722960335
 11
1.5589520825
 21
221.2427670379
  0
LINE
  5
233
100
AcDbEntity
  8
0
100
AcDbLine
 62
7
  6
CONTINUOUS
 10
5.0414193623
 20
222.1762614855
 11
5.1363102758
 21
222.2016975152
  0
LINE
  5
234
100
AcDbEntity
  8
0
100
AcDbLine
 62
7
  6
CONTINUOUS
 10
1.8199643378
 20
221.8922169464
 11
3.4184410785
 21
222.3206974007
  0
LINE
  5
235
100
AcDbEntity
  8
0
100
AcDbLine
 62
7
  6
CONTINUOUS
 10
5.5486059115
 20
222.8916997632
 11
7.1470826522
 21
223.3201802174
  0
LINE
  5
236
100
AcDbEntity
  8
0
100
AcDbLine
 62
7
  6
CONTINUOUS
 10
6.5277655588
 20
223.6778862688
 11
4.9292888181
 21
223.2494058145
  0
LINE
  5
237
100
AcDbEntity
  8
0
100
AcDbLine
 62
7
  6
CONTINUOUS
 10
2.7991239851
 20
222.678403452
 11
1.2006472444
 21
222.2499229977
  0
LINE
  5
238
100
AcDbEntity
  8
0
100
AcDbLine
 62
7
  6
CONTINUOUS
 10
3.4184410785
 20
222.3206974007
 11
3.8470617432
 21
222.3819852504
  0
LINE
  5
239
100
AcDbEntity
  8
0
100
AcDbLine
 62
7
  6
CONTINUOUS
 10
4.4977204157
 20
222.6185306992
 11
4.3534827978
 21
222.5979063706
  0
LINE
  5
23A
100
AcDbEntity
  8
0
100
AcDbLine
 62
7
  6
CONTINUOUS
 10
4.9292888181
 20
223.2494058145
 11
4.5006681534
 21
223.1881179648
  0
LINE
  5
23B
100
AcDbEntity
  8
0
100
AcDbLine
 62
7
  6
CONTINUOUS
 10
28.4306055212
 20
203.9090146499
 11
28.513239881
 21
203.9069179281
  0
LINE
  5
23C
100
AcDbEntity
  8
0
100
AcDbLine
 62
7
  6
CONTINUOUS
 10
28.470095066
 20
204.4596134306
 11
27.3840410627
 21
204.4871704072
  0
LINE
  5
23D
100
AcDbEntity
  8
0
100
AcDbLine
 62
7
  6
CONTINUOUS
 10
41.3703818819
 20
193.516683721
 11
41.1135551092
 21
193.5526532347
  0
LINE
  5
23E
100
AcDbEntity
  8
0
100
AcDbLine
 62
7
  6
CONTINUOUS
 10
62.5608129089
 20
193.6483782171
 11
84.8578941644
 21
190.5255917567
  0
LINE
  5
23F
100
AcDbEntity
  8
0
100
AcDbLine
 62
7
  6
CONTINUOUS
 10
57.0910909683
 20
195.9172602406
 11
55.731512843
 21
196.1076740492
  0
LINE
  5
240
100
AcDbEntity
  8
0
100
AcDbLine
 62
7
  6
CONTINUOUS
 10
31.4264351118
 20
199.6963552445
 11
29.7949413614
 21
199.9248518148
  0
LINE
  5
241
100
AcDbEntity
  8
0
100
AcDbLine
 62
7
  6
CONTINUOUS
 10
78.1187490361
 20
193.6286049858
 11
57.181245906
 21
196.5609776376
  0
LINE
  5
242
100
AcDbEntity
  8
0
100
AcDbLine
 62
7
  6
CONTINUOUS
 10
2.641954929
 20
202.4510294184
 11
12.2463779865
 21
201.0203514988
  0
LINE
  5
243
100
AcDbEntity
  8
0
100
AcDbLine
 62
7
  6
CONTINUOUS
 10
59.2860922868
 20
251.0322856927
 11
59.0535639415
 21
250.9699551949
  0
LINE
  5
244
100
AcDbEntity
  8
0
100
AcDbLine
 62
7
  6
CONTINUOUS
 10
60.8144067588
 20
254.6444557933
 11
63.9135804192
 21
255.4752062847
  0
LINE
  5
245
100
AcDbEntity
  8
0
100
AcDbLine
 62
7
  6
CONTINUOUS
 10
58.2909985885
 20
254.8032297834
 11
58.0437960956
 21
254.7369657998
  0
LINE
  5
246
100
AcDbEntity
  8
0
100
AcDbLine
 62
7
  6
CONTINUOUS
 10
60.2885508094
 20
258.755186803
 11
57.189377149
 21
257.9244363116
  0
LINE
  5
247
100
AcDbEntity
  8
0
100
AcDbLine
 62
7
  6
CONTINUOUS
 10
3.1362366335
 20
222.3623766329
 11
3.2188709933
 21
222.360279911
  0
LINE
  5
248
100
AcDbEntity
  8
0
100
AcDbLine
 62
7
  6
CONTINUOUS
 10
5.1720037183
 20
222.6571278017
 11
6.2580577216
 21
222.629570825
  0
LINE
  5
249
100
AcDbEntity
  8
0
100
AcDbLine
 62
7
  6
CONTINUOUS
 10
3.1757261783
 20
222.9129754135
 11
2.089672175
 21
222.9405323901
  0
LINE
  5
24A
100
AcDbEntity
  8
0
100
AcDbLine
 62
7
  6
CONTINUOUS
 10
27.3840410627
 20
204.4871704072
 11
28.395330355
 21
204.3595569305
  0
LINE
  5
24B
100
AcDbEntity
  8
0
100
AcDbLine
 62
7
  6
CONTINUOUS
 10
82.6922869198
 20
195.5317389422
 11
74.4427037465
 21
196.6871227497
  0
LINE
  5
24C
100
AcDbEntity
  8
0
100
AcDbLine
 62
7
  6
CONTINUOUS
 10
88.4499739198
 20
197.0751185101
 11
69.2251375398
 21
199.767626021
  0
LINE
  5
24D
100
AcDbEntity
  8
0
100
AcDbLine
 62
7
  6
CONTINUOUS
 10
66.257010179
 20
202.7116192946
 11
79.6820245819
 21
200.8313977208
  0
LINE
  5
24E
100
AcDbEntity
  8
0
100
AcDbLine
 62
7
  6
CONTINUOUS
 10
12.2463779865
 20
210.2136976331
 11
2.6419549291
 21
211.6443755527
  0
LINE
  5
24F
100
AcDbEntity
  8
0
100
AcDbLine
 62
7
  6
CONTINUOUS
 10
2.6739648839
 20
211.6525690061
 11
12.2392108636
 21
210.2277275766
  0
LINE
  5
250
100
AcDbEntity
  8
0
100
AcDbLine
 62
7
  6
CONTINUOUS
 10
29.4054382861
 20
203.9193765576
 11
29.7021912689
 21
203.8471234043
  0
LINE
  5
251
100
AcDbEntity
  8
0
100
AcDbLine
 62
7
  6
CONTINUOUS
 10
29.6478516855
 20
204.1445443877
 11
29.5178263543
 21
204.1762028401
  0
LINE
  5
252
100
AcDbEntity
  8
0
100
AcDbLine
 62
7
  6
CONTINUOUS
 10
29.5310293859
 20
204.7440026918
 11
29.2342764031
 21
204.816255845
  0
LINE
  5
253
100
AcDbEntity
  8
0
100
AcDbLine
 62
7
  6
CONTINUOUS
 10
36.8597438474
 20
171.8933613676
 11
-10.9965770038
 21
199.5342835176
  0
LINE
  5
254
100
AcDbEntity
  8
0
100
AcDbLine
 62
7
  6
CONTINUOUS
 10
3.1009614672
 20
222.8129189134
 11
2.7991239851
 21
222.678403452
  0
LINE
  5
255
100
AcDbEntity
  8
0
100
AcDbLine
 62
7
  6
CONTINUOUS
 10
3.2461530229
 20
222.3010805533
 11
3.1445799468
 21
222.2558139777
  0
LINE
  5
256
100
AcDbEntity
  8
0
100
AcDbLine
 62
7
  6
CONTINUOUS
 10
5.2467684293
 20
222.7571843018
 11
5.5486059115
 21
222.8916997632
  0
LINE
  5
257
100
AcDbEntity
  8
0
100
AcDbLine
 62
7
  6
CONTINUOUS
 10
5.1015768737
 20
222.1658211258
 11
5.1346538252
 21
222.1805620432
  0
LINE
  5
258
100
AcDbEntity
  8
0
100
AcDbLine
 62
7
  6
CONTINUOUS
 10
33.8911865107
 20
253.3350166374
 11
32.8839864904
 21
253.0594392095
  0
LINE
  5
259
100
AcDbEntity
  8
0
100
AcDbLine
 62
7
  6
CONTINUOUS
 10
36.634792611
 20
254.2088488362
 11
36.0496312572
 21
254.0491929673
  0
LINE
  5
25A
100
AcDbEntity
  8
0
100
AcDbLine
 62
7
  6
CONTINUOUS
 10
32.8603691061
 20
253.1790323285
 11
19.2703737189
 21
249.4711290488
  0
LINE
  5
25B
100
AcDbEntity
  8
0
100
AcDbLine
 62
7
  6
CONTINUOUS
 10
57.2767838232
 20
259.206288989
 11
54.1970348097
 21
258.3807453806
  0
LINE
  5
25C
100
AcDbEntity
  8
0
100
AcDbLine
 62
7
  6
CONTINUOUS
 10
54.7949295238
 20
258.5792608123
 11
56.8143281133
 21
259.1205716759
  0
LINE
  5
25D
100
AcDbEntity
  8
0
100
AcDbLine
 62
7
  6
CONTINUOUS
 10
59.1530395518
 20
262.557574448
 11
71.1225319633
 21
265.7660625138
  0
LINE
  5
25E
100
AcDbEntity
  8
0
100
AcDbLine
 62
7
  6
CONTINUOUS
 10
82.5504001161
 20
268.8293652275
 11
85.5993214535
 21
269.6466453083
  0
LINE
  5
25F
100
AcDbEntity
  8
0
100
AcDbLine
 62
7
  6
CONTINUOUS
 10
84.0998413329
 20
269.4684705234
 11
80.5002098618
 21
268.5035695719
  0
LINE
  5
260
100
AcDbEntity
  8
0
100
AcDbLine
 62
7
  6
CONTINUOUS
 10
72.6434901567
 20
266.3975327791
 11
57.6535594313
 21
262.3793996632
  0
LINE
  5
261
100
AcDbEntity
  8
0
100
AcDbLine
 62
7
  6
CONTINUOUS
 10
33.4995572924
 20
257.9753478169
 11
38.0450119942
 21
259.193781871
  0
LINE
  5
262
100
AcDbEntity
  8
0
100
AcDbLine
 62
7
  6
CONTINUOUS
 10
31.868063542
 20
258.2038443872
 11
36.4135182438
 21
259.4222784413
  0
LINE
  5
263
100
AcDbEntity
  8
0
100
AcDbLine
 62
7
  6
CONTINUOUS
 10
53.1529205335
 20
260.2024273135
 11
53.6792073224
 21
260.312562684
  0
LINE
  5
264
100
AcDbEntity
  8
0
100
AcDbLine
 62
7
  6
CONTINUOUS
 10
20.4377580003
 20
249.7896388972
 11
17.8991610253
 21
249.4408868276
  0
LINE
  5
265
100
AcDbEntity
  8
0
100
AcDbLine
 62
7
  6
CONTINUOUS
 10
21.9262514419
 20
224.2231579696
 11
-0.2170844005
 21
225.4658085971
  0
LINE
  5
266
100
AcDbEntity
  8
0
100
AcDbLine
 62
7
  6
CONTINUOUS
 10
23.5818751261
 20
224.0521009782
 11
21.9249605014
 21
224.2229981686
  0
LINE
  5
267
100
AcDbEntity
  8
0
100
AcDbLine
 62
7
  6
CONTINUOUS
 10
2.089672175
 20
222.9405323901
 11
3.1009614672
 21
222.8129189134
  0
LINE
  5
268
100
AcDbEntity
  8
0
100
AcDbLine
 62
7
  6
CONTINUOUS
 10
6.2580577216
 20
222.629570825
 11
5.2467684293
 21
222.7571843018
  0
LINE
  5
269
100
AcDbEntity
  8
0
100
AcDbLine
 62
7
  6
CONTINUOUS
 10
23.5804242025
 20
224.051293687
 11
29.5225742709
 21
223.2192762343
  0
LINE
  5
26A
100
AcDbEntity
  8
0
100
AcDbLine
 62
7
  6
CONTINUOUS
 10
31.1404954293
 20
224.1515870121
 11
29.5090016789
 21
224.3800835823
  0
LINE
  5
26B
100
AcDbEntity
  8
0
100
AcDbLine
 62
7
  6
CONTINUOUS
 10
12.7900252025
 20
216.5811030774
 11
2.6739648839
 21
218.0879946465
  0
LINE
  5
26C
100
AcDbEntity
  8
0
100
AcDbLine
 62
7
  6
CONTINUOUS
 10
4.1110693984
 20
222.3727385405
 11
4.4078223812
 21
222.3004853873
  0
LINE
  5
26D
100
AcDbEntity
  8
0
100
AcDbLine
 62
7
  6
CONTINUOUS
 10
4.3534827978
 20
222.5979063706
 11
4.2234574666
 21
222.629564823
  0
LINE
  5
26E
100
AcDbEntity
  8
0
100
AcDbLine
 62
7
  6
CONTINUOUS
 10
4.2366604982
 20
223.1973646747
 11
3.9399075154
 21
223.2696178279
  0
LINE
  5
26F
100
AcDbEntity
  8
0
100
AcDbLine
 62
7
  6
CONTINUOUS
 10
36.8597438474
 20
179.2480382751
 11
-10.9965770038
 21
206.8889604251
  0
LINE
  5
270
100
AcDbEntity
  8
0
100
AcDbLine
 62
7
  6
CONTINUOUS
 10
24.3236095953
 20
186.8381133537
 11
34.2096263332
 21
181.1281336862
  0
LINE
  5
271
100
AcDbEntity
  8
0
100
AcDbLine
 62
7
  6
CONTINUOUS
 10
-7.8974033435
 20
207.7197109165
 11
-5.363833416
 21
206.2563679791
  0
LINE
  5
272
100
AcDbEntity
  8
0
100
AcDbLine
 62
7
  6
CONTINUOUS
 10
-0.8183787142
 20
207.4748020332
 11
-3.3519486416
 21
208.9381449706
  0
LINE
  5
273
100
AcDbEntity
  8
0
100
AcDbLine
 62
7
  6
CONTINUOUS
 10
32.7010321599
 20
191.1927701147
 11
24.3236095953
 21
196.0314131846
  0
LINE
  5
274
100
AcDbEntity
  8
0
100
AcDbLine
 62
7
  6
CONTINUOUS
 10
45.9382359868
 20
256.0878332592
 11
44.9395267213
 21
256.027908859
  0
LINE
  5
275
100
AcDbEntity
  8
0
100
AcDbLine
 62
7
  6
CONTINUOUS
 10
-0.2167342491
 20
225.4658910552
 11
-2.3169395645
 21
226.3268676928
  0
LINE
  5
276
100
AcDbEntity
  8
0
100
AcDbLine
 62
7
  6
CONTINUOUS
 10
24.3236095953
 20
202.4668017821
 11
29.8963840967
 21
199.248070726
  0
LINE
  5
277
100
AcDbEntity
  8
0
100
AcDbLine
 62
7
  6
CONTINUOUS
 10
29.7493995111
 20
203.8198568498
 11
29.7021912689
 21
203.8471234043
  0
LINE
  5
278
100
AcDbEntity
  8
0
100
AcDbLine
 62
7
  6
CONTINUOUS
 10
28.4078300937
 20
204.5947223806
 11
27.8777044743
 21
204.9009130045
  0
LINE
  5
279
100
AcDbEntity
  8
0
100
AcDbLine
 62
7
  6
CONTINUOUS
 10
28.7042244335
 20
205.1224046357
 11
29.2342764031
 21
204.816255845
  0
LINE
  5
27A
100
AcDbEntity
  8
0
100
AcDbLine
 62
7
  6
CONTINUOUS
 10
-2.3848287996
 20
225.5777171135
 11
-2.3087438584
 21
225.5337715444
  0
LINE
  5
27B
100
AcDbEntity
  8
0
100
AcDbLine
 62
7
  6
CONTINUOUS
 10
-2.6592171443
 20
221.8878742636
 11
-0.822161536
 21
220.6270828699
  0
LINE
  5
27C
100
AcDbEntity
  8
0
100
AcDbLine
 62
7
  6
CONTINUOUS
 10
0.6046573151
 20
204.0734201038
 11
2.641954929
 21
202.4510294184
  0
LINE
  5
27D
100
AcDbEntity
  8
0
100
AcDbLine
 62
7
  6
CONTINUOUS
 10
-2.475354047
 20
212.7439213697
 11
0.1907842286
 21
210.6207569018
  0
LINE
  5
27E
100
AcDbEntity
  8
0
100
AcDbLine
 62
7
  6
CONTINUOUS
 10
12.2463779865
 20
201.0203514988
 11
24.3236095953
 21
191.402714913
  0
LINE
  5
27F
100
AcDbEntity
  8
0
100
AcDbLine
 62
7
  6
CONTINUOUS
 10
2.6419549291
 20
211.6443755527
 11
0.6046573151
 21
213.2667662381
  0
LINE
  5
280
100
AcDbEntity
  8
0
100
AcDbLine
 62
7
  6
CONTINUOUS
 10
0.6369505723
 20
213.2758578892
 11
2.6739648839
 21
211.6525690061
  0
LINE
  5
281
100
AcDbEntity
  8
0
100
AcDbLine
 62
7
  6
CONTINUOUS
 10
-12.2982296831
 20
208.5504614079
 11
-12.2982296831
 21
201.1957845005
  0
LINE
  5
282
100
AcDbEntity
  8
0
100
AcDbLine
 62
7
  6
CONTINUOUS
 10
-10.9965770038
 20
206.8889604251
 11
-10.9965770038
 21
199.5342835176
  0
LINE
  5
283
100
AcDbEntity
  8
0
100
AcDbLine
 62
7
  6
CONTINUOUS
 10
4.5690111033
 20
223.6051327833
 11
4.2366604982
 21
223.1973646747
  0
LINE
  5
284
100
AcDbEntity
  8
0
100
AcDbLine
 62
7
  6
CONTINUOUS
 10
4.2234574666
 20
222.629564823
 11
4.4995304687
 21
222.9682847296
  0
LINE
  5
285
100
AcDbEntity
  8
0
100
AcDbLine
 62
7
  6
CONTINUOUS
 10
3.7787187933
 20
221.9649704319
 11
4.1110693984
 21
222.3727385405
  0
LINE
  5
286
100
AcDbEntity
  8
0
100
AcDbLine
 62
7
  6
CONTINUOUS
 10
28.395330355
 20
204.3595569305
 11
28.0934928728
 21
204.2250414691
  0
LINE
  5
287
100
AcDbEntity
  8
0
100
AcDbLine
 62
7
  6
CONTINUOUS
 10
28.5405219106
 20
203.8477185704
 11
28.4389488345
 21
203.8024519948
  0
LINE
  5
288
100
AcDbEntity
  8
0
100
AcDbLine
 62
7
  6
CONTINUOUS
 10
65.0804483349
 20
238.7867713788
 11
44.5192664489
 21
241.6664388862
  0
LINE
  5
289
100
AcDbEntity
  8
0
100
AcDbLine
 62
7
  6
CONTINUOUS
 10
44.4031763214
 20
242.440940901
 11
44.8610284217
 21
242.3768170668
  0
LINE
  5
28A
100
AcDbEntity
  8
0
100
AcDbLine
 62
7
  6
CONTINUOUS
 10
71.8836019094
 20
242.3139899803
 11
85.2300207486
 21
240.4447759981
  0
LINE
  5
28B
100
AcDbEntity
  8
0
100
AcDbLine
 62
7
  6
CONTINUOUS
 10
4.9378743519
 20
221.9943377676
 11
4.4078223812
 21
222.3004853873
  0
LINE
  5
28C
100
AcDbEntity
  8
0
100
AcDbLine
 62
7
  6
CONTINUOUS
 10
3.113461206
 20
223.0480843635
 11
2.5833355866
 21
223.3542749874
  0
LINE
  5
28D
100
AcDbEntity
  8
0
100
AcDbLine
 62
7
  6
CONTINUOUS
 10
5.2342686906
 20
222.5220188516
 11
5.7643943095
 21
222.215828041
  0
LINE
  5
28E
100
AcDbEntity
  8
0
100
AcDbLine
 62
7
  6
CONTINUOUS
 10
3.4098555457
 20
223.5757666186
 11
3.9399075154
 21
223.2696178279
  0
LINE
  5
28F
100
AcDbEntity
  8
0
100
AcDbLine
 62
7
  6
CONTINUOUS
 10
0.2235645944
 20
219.7879985731
 11
-0.879653815
 21
220.6665404509
  0
LINE
  5
290
100
AcDbEntity
  8
0
100
AcDbLine
 62
7
  6
CONTINUOUS
 10
12.2392108636
 20
210.2277275766
 11
24.3236095953
 21
200.5960610473
  0
LINE
  5
291
100
AcDbEntity
  8
0
100
AcDbLine
 62
7
  6
CONTINUOUS
 10
2.6739648839
 20
218.0879946465
 11
0.6369505723
 21
219.7112835295
  0
LINE
  5
292
100
AcDbEntity
  8
0
100
AcDbLine
 62
7
  6
CONTINUOUS
 10
3.2482514746
 20
222.2750771442
 11
3.2461530229
 21
222.3010805533
  0
LINE
  5
293
100
AcDbEntity
  8
0
100
AcDbLine
 62
7
  6
CONTINUOUS
 10
3.1445799468
 20
222.2558139777
 11
3.1009614672
 21
222.8129189134
  0
LINE
  5
294
100
AcDbEntity
  8
0
100
AcDbLine
 62
7
  6
CONTINUOUS
 10
3.2188709933
 20
222.360279911
 11
3.1757261783
 21
222.9129754135
  0
LINE
  5
295
100
AcDbEntity
  8
0
100
AcDbLine
 62
7
  6
CONTINUOUS
 10
3.8488897807
 20
222.0510647262
 11
3.8470617432
 21
222.3819852504
  0
LINE
  5
296
100
AcDbEntity
  8
0
100
AcDbLine
 62
7
  6
CONTINUOUS
 10
-3.3519486416
 20
208.9381449706
 11
-3.3519486416
 21
205.7967404762
  0
LINE
  5
297
100
AcDbEntity
  8
0
100
AcDbLine
 62
7
  6
CONTINUOUS
 10
-2.475354047
 20
212.7439213697
 11
-2.475354047
 21
221.7616870052
  0
LINE
  5
298
100
AcDbEntity
  8
0
100
AcDbLine
 62
7
  6
CONTINUOUS
 10
-0.8183787142
 20
206.2728585204
 11
-0.8183787142
 21
207.4748020332
  0
LINE
  5
299
100
AcDbEntity
  8
0
100
AcDbLine
 62
7
  6
CONTINUOUS
 10
0.1907842286
 20
204.7706284902
 11
0.1907842286
 21
213.9639746245
  0
LINE
  5
29A
100
AcDbEntity
  8
0
100
AcDbLine
 62
7
  6
CONTINUOUS
 10
0.2235645944
 20
213.9727615813
 11
0.2235645944
 21
220.4081038753
  0
LINE
  5
29B
100
AcDbEntity
  8
0
100
AcDbLine
 62
7
  6
CONTINUOUS
 10
0.6046573151
 20
213.2667662381
 11
0.6046573151
 21
204.0734201038
  0
LINE
  5
29C
100
AcDbEntity
  8
0
100
AcDbLine
 62
7
  6
CONTINUOUS
 10
0.6369505723
 20
219.7112835295
 11
0.6369505723
 21
213.2759041927
  0
LINE
  5
29D
100
AcDbEntity
  8
0
100
AcDbLine
 62
7
  6
CONTINUOUS
 10
2.6419549291
 20
202.4510294184
 11
2.6419549291
 21
211.6443755527
  0
LINE
  5
29E
100
AcDbEntity
  8
0
100
AcDbLine
 62
7
  6
CONTINUOUS
 10
2.6739648839
 20
211.6526060489
 11
2.6739648839
 21
218.0879946465
  0
LINE
  5
29F
100
AcDbEntity
  8
0
100
AcDbLine
 62
7
  6
CONTINUOUS
 10
4.4977204157
 20
222.6185306992
 11
4.5006681534
 21
223.1881179648
  0
LINE
  5
2A0
100
AcDbEntity
  8
0
100
AcDbLine
 62
7
  6
CONTINUOUS
 10
4.3511019848
 20
222.3142956191
 11
4.3534827978
 21
222.5979063706
  0
LINE
  5
2A1
100
AcDbEntity
  8
0
100
AcDbLine
 62
7
  6
CONTINUOUS
 10
4.2234574666
 20
222.629564823
 11
4.2366604982
 21
223.1973646747
  0
LINE
  5
2A2
100
AcDbEntity
  8
0
100
AcDbLine
 62
7
  6
CONTINUOUS
 10
0.9340269757
 20
221.4224421731
 11
0.9229979033
 21
221.0722960335
  0
LINE
  5
2A3
100
AcDbEntity
  8
0
100
AcDbLine
 62
7
  6
CONTINUOUS
 10
0.6049470254
 20
222.5398675207
 11
0.5351132884
 21
220.7016090483
  0
LINE
  5
2A4
100
AcDbEntity
  8
0
100
AcDbLine
 62
7
  6
CONTINUOUS
 10
3.8776686248
 20
222.0863741093
 11
3.9399075154
 21
223.2696178279
  0
LINE
  5
2A5
100
AcDbEntity
  8
0
100
AcDbLine
 62
7
  6
CONTINUOUS
 10
5.2001436425
 20
222.0422701753
 11
5.2342686906
 21
222.5220188516
  0
LINE
  5
2A6
100
AcDbEntity
  8
0
100
AcDbLine
 62
7
  6
CONTINUOUS
 10
-2.3848287996
 20
225.5777171138
 11
-2.6592459779
 21
221.8879206405
  0
LINE
  5
2A7
100
AcDbEntity
  8
0
100
AcDbLine
 62
7
  6
CONTINUOUS
 10
5.1288589033
 20
222.106621768
 11
5.1720037183
 21
222.6571278017
  0
LINE
  5
2A8
100
AcDbEntity
  8
0
100
AcDbLine
 62
7
  6
CONTINUOUS
 10
5.2386415448
 20
222.6554369677
 11
5.2467684293
 21
222.7571843018
  0
LINE
  5
2A9
100
AcDbEntity
  8
0
100
AcDbLine
 62
7
  6
CONTINUOUS
 10
5.089572346
 20
222.0196989133
 11
5.1015768737
 21
222.1658211258
  0
LINE
  5
2AA
100
AcDbEntity
  8
0
100
AcDbLine
 62
7
  6
CONTINUOUS
 10
-2.6592172114
 20
221.8879045455
 11
-2.6526719401
 21
221.9546546488
  0
LINE
  5
2AB
100
AcDbEntity
  8
0
100
AcDbLine
 62
7
  6
CONTINUOUS
 10
-0.2171131912
 20
225.4657995942
 11
-0.8221534501
 21
220.6271119528
  0
LINE
  5
2AC
100
AcDbEntity
  8
0
100
AcDbLine
 62
7
  6
CONTINUOUS
 10
3.8470617432
 20
222.3819852504
 11
3.7787187933
 21
221.9649704319
  0
LINE
  5
2AD
100
AcDbEntity
  8
0
100
AcDbLine
 62
7
  6
CONTINUOUS
 10
4.5006681534
 20
223.1881179648
 11
4.5690111033
 21
223.6051327833
  0
LINE
  5
2AE
100
AcDbEntity
  8
0
100
AcDbLine
 62
7
  6
CONTINUOUS
 10
4.667385023
 20
222.1505670975
 11
4.9292888181
 21
223.2494058145
  0
LINE
  5
2AF
100
AcDbEntity
  8
0
100
AcDbLine
 62
7
  6
CONTINUOUS
 10
31.868063542
 20
258.2038443872
 11
33.4995572924
 21
257.9753478169
  0
LINE
  5
2B0
100
AcDbEntity
  8
0
100
AcDbLine
 62
7
  6
CONTINUOUS
 10
38.0450119942
 20
259.193781871
 11
36.4135182438
 21
259.4222784413
  0
LINE
  5
2B1
100
AcDbEntity
  8
0
100
AcDbLine
 62
7
  6
CONTINUOUS
 10
95.3093118954
 20
197.9041660929
 11
98.8432170544
 21
195.8630481037
  0
LINE
  5
2B2
100
AcDbEntity
  8
0
100
AcDbLine
 62
7
  6
CONTINUOUS
 10
3.2188709933
 20
222.360279911
 11
3.2461530229
 21
222.3010805533
  0
LINE
  5
2B3
100
AcDbEntity
  8
0
100
AcDbLine
 62
7
  6
CONTINUOUS
 10
3.113461206
 20
223.0480843635
 11
3.1757261783
 21
222.9129754135
  0
LINE
  5
2B4
100
AcDbEntity
  8
0
100
AcDbLine
 62
7
  6
CONTINUOUS
 10
5.1288589033
 20
222.106621768
 11
5.1015768737
 21
222.1658211258
  0
LINE
  5
2B5
100
AcDbEntity
  8
0
100
AcDbLine
 62
7
  6
CONTINUOUS
 10
5.2342686906
 20
222.5220188516
 11
5.1720037183
 21
222.6571278017
  0
LINE
  5
2B6
100
AcDbEntity
  8
0
100
AcDbLine
 62
7
  6
CONTINUOUS
 10
2.932469351
 20
222.1904300147
 11
2.7991239851
 21
222.678403452
  0
LINE
  5
2B7
100
AcDbEntity
  8
0
100
AcDbLine
 62
7
  6
CONTINUOUS
 10
7.7427828712
 20
222.5398675207
 11
7.8126166081
 21
220.7016090483
  0
LINE
  5
2B8
100
AcDbEntity
  8
0
100
AcDbLine
 62
7
  6
CONTINUOUS
 10
6.7870061422
 20
223.2236597348
 11
6.7788238458
 21
223.4790087297
  0
LINE
  5
2B9
100
AcDbEntity
  8
0
100
AcDbLine
 62
7
  6
CONTINUOUS
 10
12.2463779865
 20
201.0203514988
 11
12.2463779865
 21
210.2136976331
  0
LINE
  5
2BA
100
AcDbEntity
  8
0
100
AcDbLine
 62
7
  6
CONTINUOUS
 10
29.7356585211
 20
204.9950665807
 11
29.5310293859
 21
204.7440026918
  0
LINE
  5
2BB
100
AcDbEntity
  8
0
100
AcDbLine
 62
7
  6
CONTINUOUS
 10
29.5178263543
 20
204.1762028401
 11
29.7420168289
 21
204.4512669573
  0
LINE
  5
2BC
100
AcDbEntity
  8
0
100
AcDbLine
 62
7
  6
CONTINUOUS
 10
29.073087681
 20
203.511608449
 11
29.4054382861
 21
203.9193765576
  0
LINE
  5
2BD
100
AcDbEntity
  8
0
100
AcDbLine
 62
7
  6
CONTINUOUS
 10
28.513239881
 20
203.9069179281
 11
28.5405219106
 21
203.8477185704
  0
LINE
  5
2BE
100
AcDbEntity
  8
0
100
AcDbLine
 62
7
  6
CONTINUOUS
 10
28.4078300937
 20
204.5947223806
 11
28.470095066
 21
204.4596134306
  0
LINE
  5
2BF
100
AcDbEntity
  8
0
100
AcDbLine
 62
7
  6
CONTINUOUS
 10
21.9245017601
 20
224.2229329205
 11
24.1569251341
 21
200.7389762353
  0
LINE
  5
2C0
100
AcDbEntity
  8
0
100
AcDbLine
 62
7
  6
CONTINUOUS
 10
28.5426203623
 20
203.8217151613
 11
28.5405219106
 21
203.8477185704
  0
LINE
  5
2C1
100
AcDbEntity
  8
0
100
AcDbLine
 62
7
  6
CONTINUOUS
 10
28.4389488345
 20
203.8024519948
 11
28.395330355
 21
204.3595569305
  0
LINE
  5
2C2
100
AcDbEntity
  8
0
100
AcDbLine
 62
7
  6
CONTINUOUS
 10
28.513239881
 20
203.9069179281
 11
28.470095066
 21
204.4596134306
  0
LINE
  5
2C3
100
AcDbEntity
  8
0
100
AcDbLine
 62
7
  6
CONTINUOUS
 10
23.5814489804
 20
224.0520124975
 11
24.4246306018
 21
205.5635493528
  0
LINE
  5
2C4
100
AcDbEntity
  8
0
100
AcDbLine
 62
7
  6
CONTINUOUS
 10
29.5090016789
 20
224.3800835823
 11
29.7949413614
 21
199.9248518148
  0
LINE
  5
2C5
100
AcDbEntity
  8
0
100
AcDbLine
 62
7
  6
CONTINUOUS
 10
31.4264351118
 20
199.6963552445
 11
31.1404954293
 21
224.1515870121
  0
LINE
  5
2C6
100
AcDbEntity
  8
0
100
AcDbLine
 62
7
  6
CONTINUOUS
 10
29.1432586684
 20
203.5977027433
 11
29.1414306309
 21
203.9286232675
  0
LINE
  5
2C7
100
AcDbEntity
  8
0
100
AcDbLine
 62
7
  6
CONTINUOUS
 10
24.3236095953
 20
186.8381133537
 11
24.3236095953
 21
202.4668017821
  0
LINE
  5
2C8
100
AcDbEntity
  8
0
100
AcDbLine
 62
7
  6
CONTINUOUS
 10
29.6454708726
 20
203.8609336362
 11
29.6478516855
 21
204.1445443877
  0
LINE
  5
2C9
100
AcDbEntity
  8
0
100
AcDbLine
 62
7
  6
CONTINUOUS
 10
29.5178263543
 20
204.1762028401
 11
29.5310293859
 21
204.7440026918
  0
LINE
  5
2CA
100
AcDbEntity
  8
0
100
AcDbLine
 62
7
  6
CONTINUOUS
 10
24.3236095953
 20
202.4668017821
 11
24.4820468607
 21
207.3236155688
  0
LINE
  5
2CB
100
AcDbEntity
  8
0
100
AcDbLine
 62
7
  6
CONTINUOUS
 10
25.8993159131
 20
204.0865055378
 11
25.8294821762
 21
202.2482470654
  0
LINE
  5
2CC
100
AcDbEntity
  8
0
100
AcDbLine
 62
7
  6
CONTINUOUS
 10
29.1720375126
 20
203.6330121264
 11
29.2342764031
 21
204.816255845
  0
LINE
  5
2CD
100
AcDbEntity
  8
0
100
AcDbLine
 62
7
  6
CONTINUOUS
 10
29.1414306309
 20
203.9286232675
 11
29.073087681
 21
203.511608449
  0
LINE
  5
2CE
100
AcDbEntity
  8
0
100
AcDbLine
 62
7
  6
CONTINUOUS
 10
28.2268382388
 20
203.7370680318
 11
28.0934928728
 21
204.2250414691
  0
LINE
  5
2CF
100
AcDbEntity
  8
0
100
AcDbLine
 62
7
  6
CONTINUOUS
 10
29.7949413614
 20
199.9248518148
 11
29.8963840967
 21
199.248070726
  0
LINE
  5
2D0
100
AcDbEntity
  8
0
100
AcDbLine
 62
7
  6
CONTINUOUS
 10
31.4264351118
 20
199.6963552445
 11
34.2096263332
 21
181.1281336862
  0
LINE
  5
2D1
100
AcDbEntity
  8
0
100
AcDbLine
 62
7
  6
CONTINUOUS
 10
40.1071231064
 20
207.1457743167
 11
41.1211680135
 21
193.4498314554
  0
LINE
  5
2D2
100
AcDbEntity
  8
0
100
AcDbLine
 62
7
  6
CONTINUOUS
 10
41.3703818819
 20
193.516683721
 11
40.3922895986
 21
206.7270601785
  0
LINE
  5
2D3
100
AcDbEntity
  8
0
100
AcDbLine
 62
7
  6
CONTINUOUS
 10
36.8597438474
 20
171.8933613676
 11
36.8597438474
 21
179.2480382751
  0
LINE
  5
2D4
100
AcDbEntity
  8
0
100
AcDbLine
 62
7
  6
CONTINUOUS
 10
40.6833521253
 20
181.5822709219
 11
40.6833521253
 21
179.8045714947
  0
LINE
  5
2D5
100
AcDbEntity
  8
0
100
AcDbLine
 62
7
  6
CONTINUOUS
 10
91.7956739022
 20
241.9595694798
 11
94.7855339933
 21
240.2326818179
  0
LINE
  5
2D6
100
AcDbEntity
  8
0
100
AcDbLine
 62
7
  6
CONTINUOUS
 10
32.8839864904
 20
253.0594392095
 11
31.868063542
 21
258.2038443872
  0
LINE
  5
2D7
100
AcDbEntity
  8
0
100
AcDbLine
 62
7
  6
CONTINUOUS
 10
33.3258591502
 20
256.1976637576
 11
33.8911865107
 21
253.3350166374
  0
LINE
  5
2D8
100
AcDbEntity
  8
0
100
AcDbLine
 62
7
  6
CONTINUOUS
 10
44.4023605177
 20
179.9605845429
 11
44.4023605177
 21
182.5791715117
  0
LINE
  5
2D9
100
AcDbEntity
  8
0
100
AcDbLine
 62
7
  6
CONTINUOUS
 10
47.2807077138
 20
178.4706343624
 11
47.2807077138
 21
171.1159574549
  0
LINE
  5
2DA
100
AcDbEntity
  8
0
100
AcDbLine
 62
7
  6
CONTINUOUS
 10
51.7644910089
 20
260.7422565857
 11
51.7644910089
 21
258.8826578328
  0
LINE
  5
2DB
100
AcDbEntity
  8
0
100
AcDbLine
 62
7
  6
CONTINUOUS
 10
53.1529205335
 20
260.2024273135
 11
53.1529205335
 21
258.2082974482
  0
LINE
  5
2DC
100
AcDbEntity
  8
0
100
AcDbLine
 62
7
  6
CONTINUOUS
 10
103.6596752618
 20
239.3753640072
 11
102.4232073209
 21
240.0895249266
  0
LINE
  5
2DD
100
AcDbEntity
  8
0
100
AcDbLine
 62
7
  6
CONTINUOUS
 10
44.5192664489
 20
241.6664388862
 11
44.4031763214
 21
242.440940901
  0
LINE
  5
2DE
100
AcDbEntity
  8
0
100
AcDbLine
 62
7
  6
CONTINUOUS
 10
58.9399559897
 20
259.1961121543
 11
58.9399559897
 21
258.3936885677
  0
LINE
  5
2DF
100
AcDbEntity
  8
0
100
AcDbLine
 62
7
  6
CONTINUOUS
 10
64.0817027042
 20
252.9763406227
 11
64.0817027042
 21
258.4923483033
  0
LINE
  5
2E0
100
AcDbEntity
  8
0
100
AcDbLine
 62
7
  6
CONTINUOUS
 10
91.7956739022
 20
245.6369079335
 11
91.7956739022
 21
241.9595694798
  0
LINE
  5
2E1
100
AcDbEntity
  8
0
100
AcDbLine
 62
7
  6
CONTINUOUS
 10
91.9230233097
 20
192.6987587449
 11
91.9230233097
 21
195.3173457136
  0
LINE
  5
2E2
100
AcDbEntity
  8
0
100
AcDbLine
 62
7
  6
CONTINUOUS
 10
95.3666532308
 20
197.5216100504
 11
95.1061137884
 21
199.2598140424
  0
LINE
  5
2E3
100
AcDbEntity
  8
0
100
AcDbLine
 62
7
  6
CONTINUOUS
 10
94.7855339933
 20
240.2326818179
 11
94.7855339933
 21
242.0713510448
  0
LINE
  5
2E4
100
AcDbEntity
  8
0
100
AcDbLine
 62
7
  6
CONTINUOUS
 10
96.8674862794
 20
184.4079653178
 11
96.8674862794
 21
191.7626422253
  0
LINE
  5
2E5
100
AcDbEntity
  8
0
100
AcDbLine
 62
7
  6
CONTINUOUS
 10
100.1448697337
 20
194.2015471209
 11
100.1448697337
 21
186.8468702134
  0
LINE
  5
2E6
100
AcDbEntity
  8
0
100
AcDbLine
 62
7
  6
CONTINUOUS
 10
103.6596752618
 20
239.3753640072
 11
103.6596752618
 21
241.0445796719
  0
LINE
  5
2E7
100
AcDbEntity
  8
0
100
AcDbLine
 62
7
  6
CONTINUOUS
 10
102.4232073209
 20
240.0895249266
 11
102.308805395
 21
240.8527640066
  0
LINE
  5
2E8
100
AcDbEntity
  8
0
100
AcDbLine
 62
7
  6
CONTINUOUS
 10
106.9654604995
 20
240.2614978647
 11
106.9654604995
 21
241.6139530072
  0
LINE
  5
2E9
100
AcDbEntity
  8
0
100
AcDbLine
 62
7
  6
CONTINUOUS
 10
120.0817027042
 20
252.9763406227
 11
120.0817027042
 21
258.4923483033
  0
LINE
  5
2EA
100
AcDbEntity
  8
0
100
AcDbLine
 62
7
  6
CONTINUOUS
 10
121.231815895
 20
249.160421905
 11
121.231815895
 21
247.3217526782
  0
ARC
  5
2EB
100
AcDbEntity
  8
0
100
AcDbCircle
 62
7
  6
CONTINUOUS
 10
-638.4355128653
 20
284.8389065403
 40
638.8852520477
100
AcDbArc
 50
354.3513352359
 51
354.6737966594
  0
ARC
  5
2EC
100
AcDbEntity
  8
0
100
AcDbCircle
 62
7
  6
CONTINUOUS
 10
-3.852715937
 20
228.7357150365
 40
72.8510121404
100
AcDbArc
 50
10.3555523439
 51
16.1064528625
  0
ARC
  5
2ED
100
AcDbEntity
  8
0
100
AcDbCircle
 62
7
  6
CONTINUOUS
 10
-6.8862212657
 20
227.9289331695
 40
72.7811389302
100
AcDbArc
 50
8.579686341
 51
21.5348180708
  0
ARC
  5
2EE
100
AcDbEntity
  8
0
100
AcDbCircle
 62
7
  6
CONTINUOUS
 10
-0.8915994032
 20
229.8258005731
 40
69.6965088449
100
AcDbArc
 50
21.1866176019
 51
21.5932889669
  0
ARC
  5
2EF
100
AcDbEntity
  8
0
100
AcDbCircle
 62
7
  6
CONTINUOUS
 10
-52.0399002543
 20
247.3555954203
 40
62.3881070924
100
AcDbArc
 50
336.018307741
 51
336.1970823424
  0
ARC
  5
2F0
100
AcDbEntity
  8
0
100
AcDbCircle
 62
7
  6
CONTINUOUS
 10
21.7027489222
 20
223.7850659247
 40
24.1541921576
100
AcDbArc
 50
173.9608852537
 51
175.7437668439
  0
ARC
  5
2F1
100
AcDbEntity
  8
0
100
AcDbCircle
 62
7
  6
CONTINUOUS
 10
73.1047297986
 20
245.6048072395
 40
21.6274823835
100
AcDbArc
 50
94.3135555748
 51
95.8795172222
  0
ARC
  5
2F2
100
AcDbEntity
  8
0
100
AcDbCircle
 62
7
  6
CONTINUOUS
 10
58.7458707549
 20
219.6421694975
 40
21.505165391
100
AcDbArc
 50
296.6374695182
 51
304.8836219199
  0
ARC
  5
2F3
100
AcDbEntity
  8
0
100
AcDbCircle
 62
7
  6
CONTINUOUS
 10
60.0900550395
 20
228.2585883621
 40
21.2881745281
100
AcDbArc
 50
38.9971705478
 51
47.300095901
  0
ARC
  5
2F4
100
AcDbEntity
  8
0
100
AcDbCircle
 62
7
  6
CONTINUOUS
 10
41.5846611629
 20
233.8018989246
 40
20.9936279136
100
AcDbArc
 50
105.2888223843
 51
111.4978908172
  0
ARC
  5
2F5
100
AcDbEntity
  8
0
100
AcDbCircle
 62
7
  6
CONTINUOUS
 10
46.2276878183
 20
235.2762395409
 40
20.7900059547
100
AcDbArc
 50
99.2692740167
 51
105.2771932515
  0
ARC
  5
2F6
100
AcDbEntity
  8
0
100
AcDbCircle
 62
7
  6
CONTINUOUS
 10
46.1665906985
 20
235.6675442538
 40
20.3939697957
100
AcDbArc
 50
93.4484054533
 51
99.276943563
  0
ARC
  5
2F7
100
AcDbEntity
  8
0
100
AcDbCircle
 62
7
  6
CONTINUOUS
 10
59.8144364285
 20
215.4173187514
 40
19.6893148453
100
AcDbArc
 50
262.0495908565
 51
272.8113019586
  0
ARC
  5
2F8
100
AcDbEntity
  8
0
100
AcDbCircle
 62
7
  6
CONTINUOUS
 10
59.8067312077
 20
215.3033337264
 40
19.5753613619
100
AcDbArc
 50
258.0177858091
 51
262.0257808747
  0
ARC
  5
2F9
100
AcDbEntity
  8
0
100
AcDbCircle
 62
7
  6
CONTINUOUS
 10
80.8632051565
 20
213.2450331261
 40
17.8074796347
100
AcDbArc
 50
262.0366031624
 51
275.8954901379
  0
ARC
  5
2FA
100
AcDbEntity
  8
0
100
AcDbCircle
 62
7
  6
CONTINUOUS
 10
61.1179812122
 20
218.4817896025
 40
16.9991965431
100
AcDbArc
 50
288.5450497041
 51
290.3753466841
  0
ARC
  5
2FB
100
AcDbEntity
  8
0
100
AcDbCircle
 62
7
  6
CONTINUOUS
 10
62.5461553963
 20
228.5937511567
 40
16.9740615569
100
AcDbArc
 50
53.4642083966
 51
55.2685561604
  0
ARC
  5
2FC
100
AcDbEntity
  8
0
100
AcDbCircle
 62
7
  6
CONTINUOUS
 10
52.7979542483
 20
263.6046078141
 40
5.4079725062
100
AcDbArc
 50
273.7634625734
 51
284.993356713
  0
ARC
  5
2FD
100
AcDbEntity
  8
0
100
AcDbCircle
 62
7
  6
CONTINUOUS
 10
65.5178102242
 20
198.3516435548
 40
5.4041909282
100
AcDbArc
 50
204.8649871127
 51
208.7571115701
  0
ARC
  5
2FE
100
AcDbEntity
  8
0
100
AcDbCircle
 62
7
  6
CONTINUOUS
 10
52.8004740797
 20
263.586581328
 40
5.3899082799
100
AcDbArc
 50
285.0170570869
 51
291.7177842386
  0
ARC
  5
2FF
100
AcDbEntity
  8
0
100
AcDbCircle
 62
7
  6
CONTINUOUS
 10
86.7162744349
 20
195.7940584812
 40
4.0325286189
100
AcDbArc
 50
183.7297745867
 51
188.5136288261
  0
ARC
  5
300
100
AcDbEntity
  8
0
100
AcDbCircle
 62
7
  6
CONTINUOUS
 10
84.5252128397
 20
196.1508040586
 40
4.0325286189
100
AcDbArc
 50
3.7297745867
 51
8.5136288261
  0
ARC
  5
301
100
AcDbEntity
  8
0
100
AcDbCircle
 62
7
  6
CONTINUOUS
 10
84.6378374193
 20
196.1677371974
 40
3.9186382259
100
AcDbArc
 50
8.5125603086
 51
13.3886540011
  0
ARC
  5
302
100
AcDbEntity
  8
0
100
AcDbCircle
 62
7
  6
CONTINUOUS
 10
-5.5622368851
 20
225.837977114
 40
3.2676897383
100
AcDbArc
 50
354.6582605519
 51
355.3382859112
  0
ARC
  5
303
100
AcDbEntity
  8
0
100
AcDbCircle
 62
7
  6
CONTINUOUS
 10
4.4407829927
 20
219.9631040986
 40
2.2932138295
100
AcDbArc
 50
73.2594627769
 51
74.8160381667
  0
ARC
  5
304
100
AcDbEntity
  8
0
100
AcDbCircle
 62
7
  6
CONTINUOUS
 10
59.0985514463
 20
251.9433616421
 40
1.0990055056
100
AcDbArc
 50
237.9152175148
 51
239.9778035088
  0
ARC
  5
305
100
AcDbEntity
  8
0
100
AcDbCircle
 62
7
  6
CONTINUOUS
 10
58.0453625319
 20
253.7749357233
 40
1.0061637286
100
AcDbArc
 50
59.9845056358
 51
61.5535264711
  0
ARC
  5
306
100
AcDbEntity
  8
0
100
AcDbCircle
 62
7
  6
CONTINUOUS
 10
0.8179708339
 20
213.9633810861
 40
0.627191235
100
AcDbArc
 50
170.7367925895
 51
178.3382630486
  0
ARC
  5
307
100
AcDbEntity
  8
0
100
AcDbCircle
 62
7
  6
CONTINUOUS
 10
0.8086702956
 20
213.9639468637
 40
0.617878272
100
AcDbArc
 50
178.3656958893
 51
179.9974246159
  0
ARC
  5
308
100
AcDbEntity
  8
0
100
AcDbCircle
 62
7
  6
CONTINUOUS
 10
7.2478168177
 20
220.6802166532
 40
0.5652031065
100
AcDbArc
 50
354.6291391845
 51
2.1691073724
  0
ARC
  5
309
100
AcDbEntity
  8
0
100
AcDbCircle
 62
7
  6
CONTINUOUS
 10
58.9304697019
 20
251.427952227
 40
0.5492444238
100
AcDbArc
 50
285.0385109945
 51
295.3740175536
  0
ARC
  5
30A
100
AcDbEntity
  8
0
100
AcDbCircle
 62
7
  6
CONTINUOUS
 10
58.1650143326
 20
254.2846342882
 40
0.5432862825
100
AcDbArc
 50
103.6008625047
 51
115.3740175536
  0
SPLINE
  5
30B
100
AcDbEntity
  8
0
100
AcDbSpline
 62
7
  6
CONTINUOUS
 70
0
 71
3
 72
11
 73
7
 74
0
 42
0.0000001
 43
0.0000001
 44
0.0000000001
 40
0.0
 40
0.0
 40
0.0
 40
0.0
 40
0.241018736
 40
0.4842115308
 40
0.7358971751
 40
1.0
 40
1.0
 40
1.0
 40
1.0
 10
7.325318402
 20
223.2865803794
 30
0.0
 10
7.3137218123
 20
223.2962894926
 30
0.0
 10
7.2877592423
 20
223.3128464066
 30
0.0
 10
7.2432759466
 20
223.3269430414
 30
0.0
 10
7.1952991455
 20
223.3298113252
 30
0.0
 10
7.1630904988
 20
223.3244712085
 30
0.0
 10
7.1470826522
 20
223.3201802174
 30
0.0
  0
SPLINE
  5
30C
100
AcDbEntity
  8
0
100
AcDbSpline
 62
7
  6
CONTINUOUS
 70
0
 71
3
 72
12
 73
8
 74
0
 42
0.0000001
 43
0.0000001
 44
0.0000000001
 40
0.0
 40
0.0
 40
0.0
 40
0.0
 40
0.1215339832
 40
0.2426208045
 40
0.4869166062
 40
0.737434843
 40
1.0
 40
1.0
 40
1.0
 40
1.0
 10
7.7427828712
 20
222.5398675207
 30
0.0
 10
7.7414289795
 20
222.575506497
 30
0.0
 10
7.7340085606
 20
222.6465709075
 30
0.0
 10
7.700717475
 20
222.7858596087
 30
0.0
 10
7.6261997182
 20
222.9525162802
 30
0.0
 10
7.493643967
 20
223.1325045675
 30
0.0
 10
7.3844026046
 20
223.2371244747
 30
0.0
 10
7.3253176865
 20
223.2865796486
 30
0.0
  0
SPLINE
  5
30D
100
AcDbEntity
  8
0
100
AcDbSpline
 62
7
  6
CONTINUOUS
 70
0
 71
3
 72
11
 73
7
 74
0
 42
0.0000001
 43
0.0000001
 44
0.0000000001
 40
0.0
 40
0.0
 40
0.0
 40
0.0
 40
0.2341590673
 40
0.4741975827
 40
0.728138743
 40
1.0
 40
1.0
 40
1.0
 40
1.0
 10
6.6605002105
 20
223.6718471414
 30
0.0
 10
6.6777137032
 20
223.6647249027
 30
0.0
 10
6.7105387005
 20
223.6445836005
 30
0.0
 10
6.7481109686
 20
223.5993022385
 30
0.0
 10
6.7721979123
 20
223.5425194314
 30
0.0
 10
6.7781311302
 20
223.5006258265
 30
0.0
 10
6.7788238458
 20
223.4790087297
 30
0.0
  0
SPLINE
  5
30E
100
AcDbEntity
  8
0
100
AcDbSpline
 62
7
  6
CONTINUOUS
 70
0
 71
3
 72
26
 73
22
 74
0
 42
0.0000001
 43
0.0000001
 44
0.0000000001
 40
0.0
 40
0.0
 40
0.0
 40
0.0
 40
0.0610299083
 40
0.1269639244
 40
0.197034038
 40
0.2701929652
 40
0.3452279066
 40
0.4208288444
 40
0.4956587479
 40
0.568418186
 40
0.6379140002
 40
0.7031369535
 40
0.7633583246
 40
0.8182571694
 40
0.8680913768
 40
0.891414399
 40
0.9139109065
 40
0.9358181521
 40
0.9573691686
 40
0.9786602907
 40
1.0
 40
1.0
 40
1.0
 40
1.0
 10
6.6605102509
 20
223.6718685605
 30
0.0
 10
6.5341247038
 20
223.7242762959
 30
0.0
 10
6.2651988236
 20
223.8190837147
 30
0.0
 10
5.8372327582
 20
223.9300942401
 30
0.0
 10
5.3755783069
 20
224.0144436921
 30
0.0
 10
4.8891911952
 20
224.0707552661
 30
0.0
 10
4.3879174618
 20
224.0980323923
 30
0.0
 10
3.8821693082
 20
224.0957535885
 30
0.0
 10
3.3825176665
 20
224.0639646477
 30
0.0
 10
2.8993135435
 20
224.0032639485
 30
0.0
 10
2.4422921169
 20
223.9147242024
 30
0.0
 10
2.0201877963
 20
223.7997269444
 30
0.0
 10
1.6402744165
 20
223.6595536643
 30
0.0
 10
1.3082793897
 20
223.4948661375
 30
0.0
 10
1.0697986357
 20
223.3325333778
 30
0.0
 10
0.9109780147
 20
223.187953691
 30
0.0
 10
0.8099688751
 20
223.0741364043
 30
0.0
 10
0.7261827796
 20
222.9517729418
 30
0.0
 10
0.6617020208
 20
222.8211067688
 30
0.0
 10
0.618910048
 20
222.6830701913
 30
0.0
 10
0.6067631383
 20
222.5876737099
 30
0.0
 10
0.6049470254
 20
222.5398675207
 30
0.0
  0
LINE
  5
30F
100
AcDbEntity
  8
0
100
AcDbLine
 62
7
  6
CONTINUOUS
 10
1.5423149966
 20
220.7145899821
 11
1.5689060508
 21
221.5587443067
  0
SPLINE
  5
310
100
AcDbEntity
  8
0
100
AcDbSpline
 62
7
  6
CONTINUOUS
 70
0
 71
3
 72
9
 73
5
 74
0
 42
0.0000001
 43
0.0000001
 44
0.0000000001
 40
0.0
 40
0.0
 40
0.0
 40
0.0
 40
0.2590168828
 40
1.0
 40
1.0
 40
1.0
 40
1.0
 10
4.9379302259
 20
221.9943001864
 30
0.0
 10
4.9768548399
 20
222.000123075
 30
0.0
 10
5.1268307075
 20
222.0245321821
 30
0.0
 10
5.275595015
 20
222.056746941
 30
0.0
 10
5.3843483581
 20
222.0858988709
 30
0.0
  0
SPLINE
  5
311
100
AcDbEntity
  8
0
100
AcDbSpline
 62
7
  6
CONTINUOUS
 70
0
 71
3
 72
9
 73
5
 74
0
 42
0.0000001
 43
0.0000001
 44
0.0000000001
 40
0.0
 40
0.0
 40
0.0
 40
0.0
 40
0.5192878938
 40
1.0
 40
1.0
 40
1.0
 40
1.0
 10
5.3843483581
 20
222.0858988709
 30
0.0
 10
5.451543105
 20
222.1039107912
 30
0.0
 10
5.5799338846
 20
222.1425230971
 30
0.0
 10
5.7052770419
 20
222.1902647612
 30
0.0
 10
5.7643824083
 20
222.2158343254
 30
0.0
  0
SPLINE
  5
312
100
AcDbEntity
  8
0
100
AcDbSpline
 62
7
  6
CONTINUOUS
 70
0
 71
3
 72
12
 73
8
 74
0
 42
0.0000001
 43
0.0000001
 44
0.0000000001
 40
0.0
 40
0.0
 40
0.0
 40
0.0
 40
0.2344666549
 40
0.4880789296
 40
0.6187053667
 40
0.7490045805
 40
1.0
 40
1.0
 40
1.0
 40
1.0
 10
1.8199643378
 20
221.8922169464
 30
0.0
 10
1.7865349562
 20
221.8832560174
 30
0.0
 10
1.7205240264
 20
221.8502472131
 30
0.0
 10
1.6546997674
 20
221.7849945565
 30
0.0
 10
1.6133892424
 20
221.7209573901
 30
0.0
 10
1.5819483178
 20
221.6520762111
 30
0.0
 10
1.5700726598
 20
221.5957753039
 30
0.0
 10
1.5689060508
 20
221.5587443067
 30
0.0
  0
SPLINE
  5
313
100
AcDbEntity
  8
0
100
AcDbSpline
 62
7
  6
CONTINUOUS
 70
0
 71
3
 72
16
 73
12
 74
0
 42
0.0000001
 43
0.0000001
 44
0.0000000001
 40
0.0
 40
0.0
 40
0.0
 40
0.0
 40
0.157664922
 40
0.304479409
 40
0.4399942724
 40
0.564696928
 40
0.6801902891
 40
0.7891861244
 40
0.8949526548
 40
0.9473723931
 40
1.0
 40
1.0
 40
1.0
 40
1.0
 10
6.1316402194
 20
219.2949006324
 30
0.0
 10
6.2510449426
 20
219.3269077231
 30
0.0
 10
6.4797220056
 20
219.3963081318
 30
0.0
 10
6.8013649648
 20
219.5221608888
 30
0.0
 10
7.0868753477
 20
219.6660288608
 30
0.0
 10
7.3335605499
 20
219.8285358306
 30
0.0
 10
7.5384746789
 20
220.0120246428
 30
0.0
 10
7.6964176706
 20
220.2196621248
 30
0.0
 10
7.7799738906
 20
220.4148211298
 30
0.0
 10
7.8110776301
 20
220.5776829655
 30
0.0
 10
7.8141830475
 20
220.6603751075
 30
0.0
 10
7.8126166088
 20
220.7016090306
 30
0.0
  0
SPLINE
  5
314
100
AcDbEntity
  8
0
100
AcDbSpline
 62
7
  6
CONTINUOUS
 70
0
 71
3
 72
26
 73
22
 74
0
 42
0.0000001
 43
0.0000001
 44
0.0000000001
 40
0.0
 40
0.0
 40
0.0
 40
0.0
 40
0.0213314047
 40
0.0425701982
 40
0.0639892872
 40
0.085638259
 40
0.1076827683
 40
0.1303365034
 40
0.1781779442
 40
0.2303749426
 40
0.2874775858
 40
0.3494929648
 40
0.416022593
 40
0.4863760935
 40
0.5596581016
 40
0.6348355033
 40
0.7107931542
 40
0.7863837641
 40
0.860474488
 40
0.9319979845
 40
1.0
 40
1.0
 40
1.0
 40
1.0
 10
0.5351132878
 20
220.7016090309
 30
0.0
 10
0.5334106806
 20
220.656790695
 30
0.0
 10
0.5373655802
 20
220.5668861032
 30
0.0
 10
0.5653361963
 20
220.4347257659
 30
0.0
 10
0.6134291628
 20
220.307826916
 30
0.0
 10
0.6796792519
 20
220.1875476999
 30
0.0
 10
0.7622743221
 20
220.0747112995
 30
0.0
 10
0.8940922386
 20
219.9311511288
 30
0.0
 10
1.0958022266
 20
219.7680748666
 30
0.0
 10
1.3810726144
 20
219.5997712633
 30
0.0
 10
1.7107067347
 20
219.4529769773
 30
0.0
 10
2.0808229069
 20
219.3275669392
 30
0.0
 10
2.486438975
 20
219.2242898409
 30
0.0
 10
2.9213266603
 20
219.1442933892
 30
0.0
 10
3.3782850711
 20
219.0886751762
 30
0.0
 10
3.8493993394
 20
219.0582885325
 30
0.0
 10
4.3263166517
 20
219.0536231603
 30
0.0
 10
4.8005027016
 20
219.0747561678
 30
0.0
 10
5.2635217905
 20
219.1213433555
 30
0.0
 10
5.7072323036
 20
219.192649754
 30
0.0
 10
5.9935371133
 20
219.2578813376
 30
0.0
 10
6.1316402194
 20
219.2949006324
 30
0.0
  0
SPLINE
  5
315
100
AcDbEntity
  8
0
100
AcDbSpline
 62
7
  6
CONTINUOUS
 70
0
 71
3
 72
15
 73
11
 74
0
 42
0.0000001
 43
0.0000001
 44
0.0000000001
 40
0.0
 40
0.0
 40
0.0
 40
0.0
 40
0.1203286417
 40
0.2487402757
 40
0.3819880433
 40
0.5165808123
 40
0.6489687993
 40
0.775704718
 40
0.8936132624
 40
1.0
 40
1.0
 40
1.0
 40
1.0
 10
6.1834456677
 20
221.358180016
 30
0.0
 10
6.0018557482
 20
221.3095038425
 30
0.0
 10
5.6214293609
 20
221.227235197
 30
0.0
 10
5.0293831861
 20
221.14793918
 30
0.0
 10
4.4109017534
 20
221.1102927225
 30
0.0
 10
3.7851147036
 20
221.1155237659
 30
0.0
 10
3.1713288478
 20
221.1634503277
 30
0.0
 10
2.5884122357
 20
221.2525529474
 30
0.0
 10
2.0543110966
 20
221.3799472129
 30
0.0
 10
1.7221529523
 20
221.4943719436
 30
0.0
 10
1.5689060508
 20
221.5587443067
 30
0.0
  0
SPLINE
  5
316
100
AcDbEntity
  8
0
100
AcDbSpline
 62
7
  6
CONTINUOUS
 70
0
 71
3
 72
22
 73
18
 74
0
 42
0.0000001
 43
0.0000001
 44
0.0000000001
 40
0.0
 40
0.0
 40
0.0
 40
0.0
 40
0.0591862557
 40
0.113083191
 40
0.1624987497
 40
0.2087016298
 40
0.2533260883
 40
0.2982232729
 40
0.3452078666
 40
0.3958108696
 40
0.4511669134
 40
0.5120134843
 40
0.5787614426
 40
0.6515621118
 40
0.7303552502
 40
0.8149385146
 40
1.0
 40
1.0
 40
1.0
 40
1.0
 10
7.1470826522
 20
223.3201802174
 30
0.0
 10
7.1852747485
 20
223.2873268454
 30
0.0
 10
7.2549232933
 20
223.2204635183
 30
0.0
 10
7.3408454183
 20
223.1114131639
 30
0.0
 10
7.4021851312
 20
222.9990982989
 30
0.0
 10
7.4379924764
 20
222.88430057
 30
0.0
 10
7.447465631
 20
222.7681655138
 30
0.0
 10
7.4302810036
 20
222.6522662233
 30
0.0
 10
7.3869532662
 20
222.5380985057
 30
0.0
 10
7.3183927095
 20
222.4266667225
 30
0.0
 10
7.2254903055
 20
222.3186515915
 30
0.0
 10
7.1091182734
 20
222.2146256708
 30
0.0
 10
6.9701691906
 20
222.115213237
 30
0.0
 10
6.8096760509
 20
222.0210835078
 30
0.0
 10
6.6288366646
 20
221.9328782356
 30
0.0
 10
6.3541051976
 20
221.8207269025
 30
0.0
 10
6.1342277407
 20
221.7529672262
 30
0.0
 10
5.9818175528
 20
221.7131665246
 30
0.0
  0
SPLINE
  5
317
100
AcDbEntity
  8
0
100
AcDbSpline
 62
7
  6
CONTINUOUS
 70
0
 71
3
 72
15
 73
11
 74
0
 42
0.0000001
 43
0.0000001
 44
0.0000000001
 40
0.0
 40
0.0
 40
0.0
 40
0.0
 40
0.1205728177
 40
0.2489056039
 40
0.381869958
 40
0.5161068773
 40
0.6482071997
 40
0.7748576287
 40
0.8929937519
 40
1.0
 40
1.0
 40
1.0
 40
1.0
 10
5.9818175528
 20
221.7131665246
 30
0.0
 10
5.8175327735
 20
221.6702648685
 30
0.0
 10
5.474085896
 20
221.5977497515
 30
0.0
 10
4.9404322081
 20
221.5278884783
 30
0.0
 10
4.3839564923
 20
221.4948491065
 30
0.0
 10
3.8212406208
 20
221.4996716376
 30
0.0
 10
3.2690142273
 20
221.5421997841
 30
0.0
 10
2.7436391684
 20
221.6211312634
 30
0.0
 10
2.260702955
 20
221.7340040787
 30
0.0
 10
1.9594786846
 20
221.8352695511
 30
0.0
 10
1.8199643378
 20
221.8922169464
 30
0.0
  0
LINE
  5
318
100
AcDbEntity
  8
0
100
AcDbLine
 62
7
  6
CONTINUOUS
 10
0.9495889574
 20
221.916450358
 11
0.9340269202
 21
221.4224421604
  0
SPLINE
  5
319
100
AcDbEntity
  8
0
100
AcDbSpline
 62
7
  6
CONTINUOUS
 70
0
 71
3
 72
12
 73
8
 74
0
 42
0.0000001
 43
0.0000001
 44
0.0000000001
 40
0.0
 40
0.0
 40
0.0
 40
0.0
 40
0.2905429741
 40
0.5479843343
 40
0.7802136125
 40
0.8908237745
 40
1.0
 40
1.0
 40
1.0
 40
1.0
 10
0.9495889574
 20
221.916450358
 30
0.0
 10
0.8946162818
 20
221.9620029588
 30
0.0
 10
0.7964395568
 20
222.0551615635
 30
0.0
 10
0.6829894449
 20
222.2112906407
 30
0.0
 10
0.6257944169
 20
222.3492554639
 30
0.0
 10
0.6058341457
 20
222.4588555486
 30
0.0
 10
0.6039309848
 20
222.513059565
 30
0.0
 10
0.6049491198
 20
222.5398675084
 30
0.0
  0
SPLINE
  5
31A
100
AcDbEntity
  8
0
100
AcDbSpline
 62
7
  6
CONTINUOUS
 70
0
 71
3
 72
22
 73
18
 74
0
 42
0.0000001
 43
0.0000001
 44
0.0000000001
 40
0.0
 40
0.0
 40
0.0
 40
0.0
 40
0.0591862557
 40
0.113083191
 40
0.1624987497
 40
0.2087016298
 40
0.2533260883
 40
0.2982232729
 40
0.3452078666
 40
0.3958108696
 40
0.4511669134
 40
0.5120134843
 40
0.5787614426
 40
0.6515621118
 40
0.7303552502
 40
0.8149385146
 40
1.0
 40
1.0
 40
1.0
 40
1.0
 10
1.2006472444
 20
222.2499229977
 30
0.0
 10
1.1624551481
 20
222.2827763697
 30
0.0
 10
1.0928066033
 20
222.3496396969
 30
0.0
 10
1.0068844783
 20
222.4586900513
 30
0.0
 10
0.9455447654
 20
222.5710049162
 30
0.0
 10
0.9097374202
 20
222.6858026451
 30
0.0
 10
0.9002642655
 20
222.8019377014
 30
0.0
 10
0.9174488929
 20
222.9178369919
 30
0.0
 10
0.9607766304
 20
223.0320047095
 30
0.0
 10
1.0293371871
 20
223.1434364927
 30
0.0
 10
1.1222395911
 20
223.2514516237
 30
0.0
 10
1.2386116232
 20
223.3554775444
 30
0.0
 10
1.377560706
 20
223.4548899782
 30
0.0
 10
1.5380538457
 20
223.5490197074
 30
0.0
 10
1.7188932319
 20
223.6372249796
 30
0.0
 10
1.993624699
 20
223.7493763127
 30
0.0
 10
2.2135021559
 20
223.817135989
 30
0.0
 10
2.3659123438
 20
223.8569366906
 30
0.0
  0
SPLINE
  5
31B
100
AcDbEntity
  8
0
100
AcDbSpline
 62
7
  6
CONTINUOUS
 70
0
 71
3
 72
15
 73
11
 74
0
 42
0.0000001
 43
0.0000001
 44
0.0000000001
 40
0.0
 40
0.0
 40
0.0
 40
0.0
 40
0.1205728177
 40
0.2489056039
 40
0.381869958
 40
0.5161068773
 40
0.6482071997
 40
0.7748576287
 40
0.8929937519
 40
1.0
 40
1.0
 40
1.0
 40
1.0
 10
2.3659123438
 20
223.8569366906
 30
0.0
 10
2.5301971231
 20
223.8998383467
 30
0.0
 10
2.8736440006
 20
223.9723534637
 30
0.0
 10
3.4072976885
 20
224.0422147368
 30
0.0
 10
3.9637734043
 20
224.0752541086
 30
0.0
 10
4.5264892758
 20
224.0704315775
 30
0.0
 10
5.0787156692
 20
224.0279034311
 30
0.0
 10
5.6040907281
 20
223.9489719518
 30
0.0
 10
6.0870269416
 20
223.8360991365
 30
0.0
 10
6.388251212
 20
223.7348336641
 30
0.0
 10
6.5277655588
 20
223.6778862688
 30
0.0
  0
SPLINE
  5
31C
100
AcDbEntity
  8
0
100
AcDbSpline
 62
7
  6
CONTINUOUS
 70
0
 71
3
 72
15
 73
11
 74
0
 42
0.0000001
 43
0.0000001
 44
0.0000000001
 40
0.0
 40
0.0
 40
0.0
 40
0.0
 40
0.1718406101
 40
0.3309808051
 40
0.4761942171
 40
0.6068193646
 40
0.7228470751
 40
0.8252446944
 40
0.9163085758
 40
1.0
 40
1.0
 40
1.0
 40
1.0
 10
6.222767539
 20
219.4967992258
 30
0.0
 10
6.3361471423
 20
219.5271912501
 30
0.0
 10
6.5528484618
 20
219.5923443622
 30
0.0
 10
6.8571619178
 20
219.7081273982
 30
0.0
 10
7.1253493851
 20
219.8370201916
 30
0.0
 10
7.3539553602
 20
219.9773823056
 30
0.0
 10
7.5401343041
 20
220.1276410762
 30
0.0
 10
7.6814819699
 20
220.286514995
 30
0.0
 10
7.7755541052
 20
220.4527708109
 30
0.0
 10
7.8051886489
 20
220.5703947542
 30
0.0
 10
7.8105385113
 20
220.6273125213
 30
0.0
  0
SPLINE
  5
31D
100
AcDbEntity
  8
0
100
AcDbSpline
 62
7
  6
CONTINUOUS
 70
0
 71
3
 72
9
 73
5
 74
0
 42
0.0000001
 43
0.0000001
 44
0.0000000001
 40
0.0
 40
0.0
 40
0.0
 40
0.0
 40
0.5355482671
 40
1.0
 40
1.0
 40
1.0
 40
1.0
 10
1.5423149966
 20
220.7145899821
 30
0.0
 10
1.4243509212
 20
220.7642784988
 30
0.0
 10
1.208523212
 20
220.8682714288
 30
0.0
 10
1.0085976485
 20
221.0016158965
 30
0.0
 10
0.9229979033
 20
221.0722960335
 30
0.0
  0
SPLINE
  5
31E
100
AcDbEntity
  8
0
100
AcDbSpline
 62
7
  6
CONTINUOUS
 70
0
 71
3
 72
9
 73
5
 74
0
 42
0.0000001
 43
0.0000001
 44
0.0000000001
 40
0.0
 40
0.0
 40
0.0
 40
0.0
 40
0.2590168828
 40
1.0
 40
1.0
 40
1.0
 40
1.0
 10
3.4097996707
 20
223.5758030287
 30
0.0
 10
3.3708750567
 20
223.5699801402
 30
0.0
 10
3.2208991891
 20
223.5455710331
 30
0.0
 10
3.0721348816
 20
223.5133562742
 30
0.0
 10
2.9633815385
 20
223.4842043443
 30
0.0
  0
SPLINE
  5
31F
100
AcDbEntity
  8
0
100
AcDbSpline
 62
7
  6
CONTINUOUS
 70
0
 71
3
 72
25
 73
21
 74
0
 42
0.0000001
 43
0.0000001
 44
0.0000000001
 40
0.0
 40
0.0
 40
0.0
 40
0.0
 40
0.0156170212
 40
0.031539555
 40
0.0656188233
 40
0.0844238161
 40
0.1046382195
 40
0.1496984334
 40
0.2012856509
 40
0.2592818811
 40
0.3231988564
 40
0.3922874953
 40
0.4656101129
 40
0.5420929704
 40
0.620568738
 40
0.6998138834
 40
0.7785836972
 40
0.8556465053
 40
0.9298184515
 40
1.0
 40
1.0
 40
1.0
 40
1.0
 10
0.535113296
 20
220.7016090501
 30
0.0
 10
0.5338759771
 20
220.6690332842
 30
0.0
 10
0.5371507253
 20
220.6028793187
 30
0.0
 10
0.5673705171
 20
220.4687002427
 30
0.0
 10
0.6335736277
 20
220.338493699
 30
0.0
 10
0.7269003288
 20
220.2175802391
 30
0.0
 10
0.8490194702
 20
220.0910300399
 30
0.0
 10
1.0433361772
 20
219.9414968086
 30
0.0
 10
1.3249543874
 20
219.7822100573
 30
0.0
 10
1.6584192045
 20
219.6393630836
 30
0.0
 10
2.0378349954
 20
219.5154725124
 30
0.0
 10
2.4564678412
 20
219.4127777469
 30
0.0
 10
2.9067059897
 20
219.3331982735
 30
0.0
 10
3.3803054576
 20
219.2782296549
 30
0.0
 10
3.8685484061
 20
219.2489104309
 30
0.0
 10
4.3624287948
 20
219.2457951043
 30
0.0
 10
4.8528255261
 20
219.2689422
 30
0.0
 10
5.3306991127
 20
219.3179155693
 30
0.0
 10
5.7872121951
 20
219.3917836635
 30
0.0
 10
6.0812648582
 20
219.4588686564
 30
0.0
 10
6.222767539
 20
219.4967992258
 30
0.0
  0
SPLINE
  5
320
100
AcDbEntity
  8
0
100
AcDbSpline
 62
7
  6
CONTINUOUS
 70
0
 71
3
 72
12
 73
8
 74
0
 42
0.0000001
 43
0.0000001
 44
0.0000000001
 40
0.0
 40
0.0
 40
0.0
 40
0.0
 40
0.25100946
 40
0.381291321
 40
0.5119156772
 40
0.7655193973
 40
1.0
 40
1.0
 40
1.0
 40
1.0
 10
0.9495889574
 20
221.916450358
 30
0.0
 10
0.9507556381
 20
221.9534836289
 30
0.0
 10
0.9626154221
 20
222.0097860278
 30
0.0
 10
0.994058491
 20
222.0786707158
 30
0.0
 10
1.0354292541
 20
222.1426601353
 30
0.0
 10
1.1011755685
 20
222.2079883107
 30
0.0
 10
1.1672156918
 20
222.2409614868
 30
0.0
 10
1.2006472444
 20
222.2499229977
 30
0.0
  0
SPLINE
  5
321
100
AcDbEntity
  8
0
100
AcDbSpline
 62
7
  6
CONTINUOUS
 70
0
 71
3
 72
9
 73
5
 74
0
 42
0.0000001
 43
0.0000001
 44
0.0000000001
 40
0.0
 40
0.0
 40
0.0
 40
0.0
 40
0.5192878938
 40
1.0
 40
1.0
 40
1.0
 40
1.0
 10
2.9633815385
 20
223.4842043443
 30
0.0
 10
2.8961867916
 20
223.466192424
 30
0.0
 10
2.7677960119
 20
223.4275801181
 30
0.0
 10
2.6424528547
 20
223.3798384539
 30
0.0
 10
2.5833474883
 20
223.3542688897
 30
0.0
  0
SPLINE
  5
322
100
AcDbEntity
  8
0
100
AcDbSpline
 62
7
  6
CONTINUOUS
 70
0
 71
3
 72
9
 73
5
 74
0
 42
0.0000001
 43
0.0000001
 44
0.0000000001
 40
0.0
 40
0.0
 40
0.0
 40
0.0
 40
0.4999897262
 40
1.0
 40
1.0
 40
1.0
 40
1.0
 10
3.668317305
 20
222.3564202879
 30
0.0
 10
3.6250667263
 20
222.5596034511
 30
0.0
 10
3.538710221
 20
222.9660093786
 30
0.0
 10
3.4528580185
 20
223.3725220745
 30
0.0
 10
3.4098555457
 20
223.5757666186
 30
0.0
  0
SPLINE
  5
323
100
AcDbEntity
  8
0
100
AcDbSpline
 62
7
  6
CONTINUOUS
 70
0
 71
3
 72
9
 73
5
 74
0
 42
0.0000001
 43
0.0000001
 44
0.0000000001
 40
0.0
 40
0.0
 40
0.0
 40
0.0
 40
0.5153768913
 40
1.0
 40
1.0
 40
1.0
 40
1.0
 10
6.5277655588
 20
223.6778862688
 30
0.0
 10
6.5501161535
 20
223.6838774683
 30
0.0
 10
6.5954326342
 20
223.6896976429
 30
0.0
 10
6.640394421
 20
223.680166094
 30
0.0
 10
6.6605002105
 20
223.6718471414
 30
0.0
  0
SPLINE
  5
324
100
AcDbEntity
  8
0
100
AcDbSpline
 62
7
  6
CONTINUOUS
 70
0
 71
3
 72
16
 73
12
 74
0
 42
0.0000001
 43
0.0000001
 44
0.0000000001
 40
0.0
 40
0.0
 40
0.0
 40
0.0
 40
0.0416464699
 40
0.0839422325
 40
0.1734195354
 40
0.2738609049
 40
0.3884238396
 40
0.5185424308
 40
0.6644029502
 40
0.8253272274
 40
1.0
 40
1.0
 40
1.0
 40
1.0
 10
7.7427813081
 20
222.5398675115
 30
0.0
 10
7.743878038
 20
222.5109732784
 30
0.0
 10
7.741484643
 20
222.4524536871
 30
0.0
 10
7.7178397533
 20
222.3339641365
 30
0.0
 10
7.6504552954
 20
222.1850244759
 30
0.0
 10
7.5182676827
 20
222.0181174586
 30
0.0
 10
7.33658492
 20
221.8602717305
 30
0.0
 10
7.1080698782
 20
221.713009733
 30
0.0
 10
6.8358679634
 20
221.5779890807
 30
0.0
 10
6.523831783
 20
221.4570831853
 30
0.0
 10
6.3005850822
 20
221.3895798783
 30
0.0
 10
6.1834456677
 20
221.358180016
 30
0.0
  0
SPLINE
  5
325
100
AcDbEntity
  8
0
100
AcDbSpline
 62
7
  6
CONTINUOUS
 70
0
 71
3
 72
20
 73
16
 74
0
 42
0.0000001
 43
0.0000001
 44
0.0000000001
 40
0.0
 40
0.0
 40
0.0
 40
0.0
 40
0.1582718007
 40
0.3131725633
 40
0.459673529
 40
0.5284555344
 40
0.5936987167
 40
0.6551466268
 40
0.7127130652
 40
0.7665222553
 40
0.8169492222
 40
0.8646488358
 40
0.9105192453
 40
0.9553871242
 40
1.0
 40
1.0
 40
1.0
 40
1.0
 10
29.7284667034
 20
205.6384219066
 30
0.0
 10
29.4938986802
 20
205.6455309739
 30
0.0
 10
29.0289517405
 20
205.6406392506
 30
0.0
 10
28.3495673512
 20
205.5776505482
 30
0.0
 10
27.8086980239
 20
205.4786779769
 30
0.0
 10
27.4066272995
 20
205.3713913263
 30
0.0
 10
27.1312699233
 20
205.2803224337
 30
0.0
 10
26.8779528166
 20
205.1773753625
 30
0.0
 10
26.6484539232
 20
205.0627063339
 30
0.0
 10
26.4442532591
 20
204.9360012537
 30
0.0
 10
26.2667785061
 20
204.7963400006
 30
0.0
 10
26.1178775979
 20
204.6421865354
 30
0.0
 10
26.0015874684
 20
204.4715954886
 30
0.0
 10
25.9234416296
 20
204.2850941077
 30
0.0
 10
25.9018270501
 20
204.1526070952
 30
0.0
 10
25.8993159131
 20
204.0865055378
 30
0.0
  0
LINE
  5
326
100
AcDbEntity
  8
0
100
AcDbLine
 62
7
  6
CONTINUOUS
 10
26.8366838844
 20
202.2612279992
 11
26.8632749385
 21
203.1053823237
  0
SPLINE
  5
327
100
AcDbEntity
  8
0
100
AcDbSpline
 62
7
  6
CONTINUOUS
 70
0
 71
3
 72
12
 73
8
 74
0
 42
0.0000001
 43
0.0000001
 44
0.0000000001
 40
0.0
 40
0.0
 40
0.0
 40
0.0
 40
0.2344666549
 40
0.4880789296
 40
0.6187053667
 40
0.7490045805
 40
1.0
 40
1.0
 40
1.0
 40
1.0
 10
27.1143332255
 20
203.4388549635
 30
0.0
 10
27.0809038439
 20
203.4298940345
 30
0.0
 10
27.0148929142
 20
203.3968852302
 30
0.0
 10
26.9490686551
 20
203.3316325736
 30
0.0
 10
26.9077581301
 20
203.2675954072
 30
0.0
 10
26.8763172056
 20
203.1987142282
 30
0.0
 10
26.8644415476
 20
203.142413321
 30
0.0
 10
26.8632749385
 20
203.1053823237
 30
0.0
  0
SPLINE
  5
328
100
AcDbEntity
  8
0
100
AcDbSpline
 62
7
  6
CONTINUOUS
 70
0
 71
3
 72
20
 73
16
 74
0
 42
0.0000001
 43
0.0000001
 44
0.0000000001
 40
0.0
 40
0.0
 40
0.0
 40
0.0
 40
0.0445165388
 40
0.0892360057
 40
0.1347970609
 40
0.1820896018
 40
0.2320782699
 40
0.2854924761
 40
0.3427764923
 40
0.404081922
 40
0.4693297188
 40
0.5382571873
 40
0.685368112
 40
0.8410701323
 40
1.0
 40
1.0
 40
1.0
 40
1.0
 10
25.8294821755
 20
202.248247048
 30
0.0
 10
25.8268634852
 20
202.179314329
 30
0.0
 10
25.8393979509
 20
202.0398288382
 30
0.0
 10
25.9092210698
 20
201.8410345464
 30
0.0
 10
26.0222501532
 20
201.6585998688
 30
0.0
 10
26.1715811464
 20
201.4939043961
 30
0.0
 10
26.352445969
 20
201.3451546773
 30
0.0
 10
26.5624649971
 20
201.2105223204
 30
0.0
 10
26.8000118481
 20
201.0888850435
 30
0.0
 10
27.0634852602
 20
200.9798746367
 30
0.0
 10
27.3509257755
 20
200.8836197762
 30
0.0
 10
27.7720787275
 20
200.770451241
 30
0.0
 10
28.3398354637
 20
200.6669442122
 30
0.0
 10
29.0532678304
 20
200.6028400992
 30
0.0
 10
29.5414986842
 20
200.6001009938
 30
0.0
 10
29.7876111233
 20
200.6090845546
 30
0.0
  0
SPLINE
  5
329
100
AcDbEntity
  8
0
100
AcDbSpline
 62
7
  6
CONTINUOUS
 70
0
 71
3
 72
13
 73
9
 74
0
 42
0.0000001
 43
0.0000001
 44
0.0000000001
 40
0.0
 40
0.0
 40
0.0
 40
0.0
 40
0.2715355594
 40
0.5357620259
 40
0.661692275
 40
0.7817653272
 40
0.8948613701
 40
1.0
 40
1.0
 40
1.0
 40
1.0
 10
29.7629002545
 20
202.6658659168
 30
0.0
 10
29.4957996436
 20
202.657160054
 30
0.0
 10
28.9677762902
 20
202.6632639348
 30
0.0
 10
28.3187947632
 20
202.7283364441
 30
0.0
 10
27.8240752182
 20
202.8156262
 30
0.0
 10
27.4796397565
 20
202.8956912975
 30
0.0
 10
27.160207287
 20
202.9903465882
 30
0.0
 10
26.9586763446
 20
203.0653083393
 30
0.0
 10
26.8632749385
 20
203.1053823237
 30
0.0
  0
SPLINE
  5
32A
100
AcDbEntity
  8
0
100
AcDbSpline
 62
7
  6
CONTINUOUS
 70
0
 71
3
 72
13
 73
9
 74
0
 42
0.0000001
 43
0.0000001
 44
0.0000000001
 40
0.0
 40
0.0
 40
0.0
 40
0.0
 40
0.2706039845
 40
0.5344104348
 40
0.6603834476
 40
0.7806889916
 40
0.8942271473
 40
1.0
 40
1.0
 40
1.0
 40
1.0
 10
29.7590468274
 20
203.0503186434
 30
0.0
 10
29.5165017101
 20
203.04179555
 30
0.0
 10
29.0365405888
 20
203.0459753363
 30
0.0
 10
28.4461179568
 20
203.1029334389
 30
0.0
 10
27.9950438808
 20
203.1802436443
 30
0.0
 10
27.6801250579
 20
203.2514980685
 30
0.0
 10
27.3873070523
 20
203.335999852
 30
0.0
 10
27.2021620475
 20
203.4030047247
 30
0.0
 10
27.1143332255
 20
203.4388549635
 30
0.0
  0
LINE
  5
32B
100
AcDbEntity
  8
0
100
AcDbLine
 62
7
  6
CONTINUOUS
 10
26.2439578452
 20
203.4630883751
 11
26.217366791
 21
202.6189340506
  0
SPLINE
  5
32C
100
AcDbEntity
  8
0
100
AcDbSpline
 62
7
  6
CONTINUOUS
 70
0
 71
3
 72
12
 73
8
 74
0
 42
0.0000001
 43
0.0000001
 44
0.0000000001
 40
0.0
 40
0.0
 40
0.0
 40
0.0
 40
0.2905429741
 40
0.5479843343
 40
0.7802136125
 40
0.8908237745
 40
1.0
 40
1.0
 40
1.0
 40
1.0
 10
26.2439578452
 20
203.4630883751
 30
0.0
 10
26.1889851695
 20
203.5086409758
 30
0.0
 10
26.0908084445
 20
203.6017995806
 30
0.0
 10
25.9773583326
 20
203.7579286578
 30
0.0
 10
25.9201633047
 20
203.895893481
 30
0.0
 10
25.9002030334
 20
204.0054935657
 30
0.0
 10
25.8982998725
 20
204.0596975821
 30
0.0
 10
25.8993180075
 20
204.0865055255
 30
0.0
  0
SPLINE
  5
32D
100
AcDbEntity
  8
0
100
AcDbSpline
 62
7
  6
CONTINUOUS
 70
0
 71
3
 72
22
 73
18
 74
0
 42
0.0000001
 43
0.0000001
 44
0.0000000001
 40
0.0
 40
0.0
 40
0.0
 40
0.0
 40
0.0591862557
 40
0.113083191
 40
0.1624987497
 40
0.2087016298
 40
0.2533260883
 40
0.2982232729
 40
0.3452078666
 40
0.3958108696
 40
0.4511669134
 40
0.5120134843
 40
0.5787614426
 40
0.6515621118
 40
0.7303552502
 40
0.8149385146
 40
1.0
 40
1.0
 40
1.0
 40
1.0
 10
26.4950161321
 20
203.7965610148
 30
0.0
 10
26.4568240358
 20
203.8294143868
 30
0.0
 10
26.387175491
 20
203.896277714
 30
0.0
 10
26.3012533661
 20
204.0053280684
 30
0.0
 10
26.2399136531
 20
204.1176429333
 30
0.0
 10
26.2041063079
 20
204.2324406622
 30
0.0
 10
26.1946331533
 20
204.3485757185
 30
0.0
 10
26.2118177807
 20
204.464475009
 30
0.0
 10
26.2551455181
 20
204.5786427266
 30
0.0
 10
26.3237060748
 20
204.6900745098
 30
0.0
 10
26.4166084788
 20
204.7980896408
 30
0.0
 10
26.5329805109
 20
204.9021155615
 30
0.0
 10
26.6719295937
 20
205.0015279953
 30
0.0
 10
26.8324227334
 20
205.0956577245
 30
0.0
 10
27.0132621197
 20
205.1838629966
 30
0.0
 10
27.2879935867
 20
205.2960143298
 30
0.0
 10
27.5078710436
 20
205.3637740061
 30
0.0
 10
27.6602812315
 20
205.4035747077
 30
0.0
  0
SPLINE
  5
32E
100
AcDbEntity
  8
0
100
AcDbSpline
 62
7
  6
CONTINUOUS
 70
0
 71
3
 72
11
 73
7
 74
0
 42
0.0000001
 43
0.0000001
 44
0.0000000001
 40
0.0
 40
0.0
 40
0.0
 40
0.0
 40
0.233649131
 40
0.4819631795
 40
0.7394008137
 40
1.0
 40
1.0
 40
1.0
 40
1.0
 10
27.6602812315
 20
205.4035747077
 30
0.0
 10
27.8174471929
 20
205.4446173414
 30
0.0
 10
28.1455813589
 20
205.514587596
 30
0.0
 10
28.6553496737
 20
205.5838072006
 30
0.0
 10
29.1873304954
 20
205.6192870535
 30
0.0
 10
29.5477775329
 20
205.6197625957
 30
0.0
 10
29.7288606262
 20
205.6140662169
 30
0.0
  0
SPLINE
  5
32F
100
AcDbEntity
  8
0
100
AcDbSpline
 62
7
  6
CONTINUOUS
 70
0
 71
3
 72
9
 73
5
 74
0
 42
0.0000001
 43
0.0000001
 44
0.0000000001
 40
0.0
 40
0.0
 40
0.0
 40
0.0
 40
0.5355482671
 40
1.0
 40
1.0
 40
1.0
 40
1.0
 10
26.8366838844
 20
202.2612279992
 30
0.0
 10
26.718719809
 20
202.3109165159
 30
0.0
 10
26.5028920998
 20
202.4149094459
 30
0.0
 10
26.3029665362
 20
202.5482539136
 30
0.0
 10
26.217366791
 20
202.6189340506
 30
0.0
  0
SPLINE
  5
330
100
AcDbEntity
  8
0
100
AcDbSpline
 62
7
  6
CONTINUOUS
 70
0
 71
3
 72
9
 73
5
 74
0
 42
0.0000001
 43
0.0000001
 44
0.0000000001
 40
0.0
 40
0.0
 40
0.0
 40
0.0
 40
0.2590168828
 40
1.0
 40
1.0
 40
1.0
 40
1.0
 10
28.7041685584
 20
205.1224410458
 30
0.0
 10
28.6652439444
 20
205.1166181573
 30
0.0
 10
28.5152680768
 20
205.0922090502
 30
0.0
 10
28.3665037693
 20
205.0599942913
 30
0.0
 10
28.2577504262
 20
205.0308423614
 30
0.0
  0
SPLINE
  5
331
100
AcDbEntity
  8
0
100
AcDbSpline
 62
7
  6
CONTINUOUS
 70
0
 71
3
 72
20
 73
16
 74
0
 42
0.0000001
 43
0.0000001
 44
0.0000000001
 40
0.0
 40
0.0
 40
0.0
 40
0.0
 40
0.0333105253
 40
0.0682596755
 40
0.1064566059
 40
0.1490235721
 40
0.1966148699
 40
0.2495125094
 40
0.3077221717
 40
0.3710458529
 40
0.4391318589
 40
0.5115091658
 40
0.6667631103
 40
0.8315785987
 40
1.0
 40
1.0
 40
1.0
 40
1.0
 10
25.8294821837
 20
202.2482470672
 30
0.0
 10
25.8275815994
 20
202.1982090458
 30
0.0
 10
25.8377019633
 20
202.0946549453
 30
0.0
 10
25.8942253007
 20
201.9433461877
 30
0.0
 10
25.9900835844
 20
201.7967934475
 30
0.0
 10
26.1233689748
 20
201.6561630066
 30
0.0
 10
26.292439226
 20
201.5223334043
 30
0.0
 10
26.4955410546
 20
201.3963864206
 30
0.0
 10
26.7306092587
 20
201.2794888735
 30
0.0
 10
26.9952122721
 20
201.1728291143
 30
0.0
 10
27.286567859
 20
201.0775254201
 30
0.0
 10
27.7166748935
 20
200.9643661925
 30
0.0
 10
28.2984033316
 20
200.8601706293
 30
0.0
 10
29.0306121117
 20
200.7950158259
 30
0.0
 10
29.5322140178
 20
200.7916578204
 30
0.0
 10
29.7852439844
 20
200.8003655234
 30
0.0
  0
SPLINE
  5
332
100
AcDbEntity
  8
0
100
AcDbSpline
 62
7
  6
CONTINUOUS
 70
0
 71
3
 72
12
 73
8
 74
0
 42
0.0000001
 43
0.0000001
 44
0.0000000001
 40
0.0
 40
0.0
 40
0.0
 40
0.0
 40
0.25100946
 40
0.381291321
 40
0.5119156772
 40
0.7655193973
 40
1.0
 40
1.0
 40
1.0
 40
1.0
 10
26.2439578452
 20
203.4630883751
 30
0.0
 10
26.2451245258
 20
203.500121646
 30
0.0
 10
26.2569843098
 20
203.5564240449
 30
0.0
 10
26.2884273787
 20
203.6253087329
 30
0.0
 10
26.3297981418
 20
203.6892981524
 30
0.0
 10
26.3955444562
 20
203.7546263278
 30
0.0
 10
26.4615845795
 20
203.7875995038
 30
0.0
 10
26.4950161321
 20
203.7965610148
 30
0.0
  0
SPLINE
  5
333
100
AcDbEntity
  8
0
100
AcDbSpline
 62
7
  6
CONTINUOUS
 70
0
 71
3
 72
9
 73
5
 74
0
 42
0.0000001
 43
0.0000001
 44
0.0000000001
 40
0.0
 40
0.0
 40
0.0
 40
0.0
 40
0.5192878938
 40
1.0
 40
1.0
 40
1.0
 40
1.0
 10
28.2577504262
 20
205.0308423614
 30
0.0
 10
28.1905556793
 20
205.0128304411
 30
0.0
 10
28.0621648997
 20
204.9742181351
 30
0.0
 10
27.9368217424
 20
204.926476471
 30
0.0
 10
27.877716376
 20
204.9009069068
 30
0.0
  0
SPLINE
  5
334
100
AcDbEntity
  8
0
100
AcDbSpline
 62
7
  6
CONTINUOUS
 70
0
 71
3
 72
9
 73
5
 74
0
 42
0.0000001
 43
0.0000001
 44
0.0000000001
 40
0.0
 40
0.0
 40
0.0
 40
0.0
 40
0.4999897262
 40
1.0
 40
1.0
 40
1.0
 40
1.0
 10
28.9626861928
 20
203.903058305
 30
0.0
 10
28.919435614
 20
204.1062414682
 30
0.0
 10
28.8330791088
 20
204.5126473957
 30
0.0
 10
28.7472269062
 20
204.9191600916
 30
0.0
 10
28.7042244335
 20
205.1224046357
 30
0.0
  0
SPLINE
  5
335
100
AcDbEntity
  8
0
100
AcDbSpline
 62
7
  6
CONTINUOUS
 70
0
 71
3
 72
20
 73
16
 74
0
 42
0.0000001
 43
0.0000001
 44
0.0000000001
 40
0.0
 40
0.0
 40
0.0
 40
0.0
 40
0.0527859979
 40
0.1117095356
 40
0.1763665245
 40
0.2459440795
 40
0.3948277645
 40
0.5471735128
 40
0.6908579799
 40
0.7562118821
 40
0.8159005576
 40
0.8694870558
 40
0.9171655745
 40
0.9599859003
 40
1.0
 40
1.0
 40
1.0
 40
1.0
 10
58.5486800186
 20
251.0607580012
 30
0.0
 10
58.4841668278
 20
251.098019622
 30
0.0
 10
58.3559582522
 20
251.1915638258
 30
0.0
 10
58.1801993069
 20
251.3688856712
 30
0.0
 10
58.0145952017
 20
251.5863023434
 30
0.0
 10
57.8086702972
 20
251.9294650045
 30
0.0
 10
57.6069291791
 20
252.4158487427
 30
0.0
 10
57.4657729712
 20
253.0303395013
 30
0.0
 10
57.438554838
 20
253.543300494
 30
0.0
 10
57.4808924789
 20
253.9210026073
 30
0.0
 10
57.5407683113
 20
254.1667536816
 30
0.0
 10
57.6283513765
 20
254.3775640768
 30
0.0
 10
57.7422402037
 20
254.5480329001
 30
0.0
 10
57.8807223822
 20
254.6728955751
 30
0.0
 10
57.9892527298
 20
254.7223221965
 30
0.0
 10
58.0437992239
 20
254.7369542634
 30
0.0
  0
SPLINE
  5
336
100
AcDbEntity
  8
0
100
AcDbSpline
 62
7
  6
CONTINUOUS
 70
0
 71
3
 72
10
 73
6
 74
0
 42
0.0000001
 43
0.0000001
 44
0.0000000001
 40
0.0
 40
0.0
 40
0.0
 40
0.0
 40
0.2307026797
 40
0.4700767113
 40
1.0
 40
1.0
 40
1.0
 40
1.0
 10
59.0535608132
 20
250.9699667313
 30
0.0
 10
59.0145805499
 20
250.9595102972
 30
0.0
 10
58.9323352152
 20
250.9475280595
 30
0.0
 10
58.7568319995
 20
250.9616661485
 30
0.0
 10
58.6289551693
 20
251.0143925649
 30
0.0
 10
58.5486800186
 20
251.0607580012
 30
0.0
  0
SPLINE
  5
337
100
AcDbEntity
  8
0
100
AcDbSpline
 62
7
  6
CONTINUOUS
 70
0
 71
3
 72
10
 73
6
 74
0
 42
0.0000001
 43
0.0000001
 44
0.0000000001
 40
0.0
 40
0.0
 40
0.0
 40
0.0
 40
0.2321258149
 40
0.4722166886
 40
1.0
 40
1.0
 40
1.0
 40
1.0
 10
58.0437992239
 20
254.7369542634
 30
0.0
 10
58.0809761036
 20
254.7469269408
 30
0.0
 10
58.159153553
 20
254.7587582663
 30
0.0
 10
58.3256073379
 20
254.747933575
 30
0.0
 10
58.4476813038
 20
254.7012979702
 30
0.0
 10
58.5246360969
 20
254.6596177558
 30
0.0
  0
SPLINE
  5
338
100
AcDbEntity
  8
0
100
AcDbSpline
 62
7
  6
CONTINUOUS
 70
0
 71
3
 72
20
 73
16
 74
0
 42
0.0000001
 43
0.0000001
 44
0.0000000001
 40
0.0
 40
0.0
 40
0.0
 40
0.0
 40
0.0527859979
 40
0.1117095356
 40
0.1763665245
 40
0.2459440795
 40
0.3948277645
 40
0.5471735128
 40
0.6908579799
 40
0.7562118821
 40
0.8159005576
 40
0.8694870558
 40
0.9171655745
 40
0.9599859003
 40
1.0
 40
1.0
 40
1.0
 40
1.0
 10
58.5486800186
 20
254.6461629935
 30
0.0
 10
58.6131932093
 20
254.6089013727
 30
0.0
 10
58.7414017849
 20
254.5153571689
 30
0.0
 10
58.9171607302
 20
254.3380353235
 30
0.0
 10
59.0827648354
 20
254.1206186513
 30
0.0
 10
59.2886897399
 20
253.7774559902
 30
0.0
 10
59.490430858
 20
253.291072252
 30
0.0
 10
59.6315870659
 20
252.6765814934
 30
0.0
 10
59.6588051991
 20
252.1636205007
 30
0.0
 10
59.6164675582
 20
251.7859183873
 30
0.0
 10
59.5565917258
 20
251.5401673131
 30
0.0
 10
59.4690086606
 20
251.3293569179
 30
0.0
 10
59.3551198334
 20
251.1588880946
 30
0.0
 10
59.2166376549
 20
251.0340254195
 30
0.0
 10
59.1081073073
 20
250.9845987982
 30
0.0
 10
59.0535608132
 20
250.9699667313
 30
0.0
  0
SPLINE
  5
339
100
AcDbEntity
  8
0
100
AcDbSpline
 62
7
  6
CONTINUOUS
 70
0
 71
3
 72
9
 73
5
 74
0
 42
0.0000001
 43
0.0000001
 44
0.0000000001
 40
0.0
 40
0.0
 40
0.0
 40
0.0
 40
0.5438826134
 40
1.0
 40
1.0
 40
1.0
 40
1.0
 10
121.231815895
 20
249.160421905
 30
0.0
 10
120.8479293401
 20
249.9193810912
 30
0.0
 10
119.9973772315
 20
251.2487355451
 30
0.0
 10
118.838232722
 20
252.3345516003
 30
0.0
 10
118.2419558038
 20
252.7259787937
 30
0.0
  0
SPLINE
  5
33A
100
AcDbEntity
  8
0
100
AcDbSpline
 62
7
  6
CONTINUOUS
 70
0
 71
3
 72
13
 73
9
 74
0
 42
0.0000001
 43
0.0000001
 44
0.0000000001
 40
0.0
 40
0.0
 40
0.0
 40
0.0
 40
0.0980048875
 40
0.2059714994
 40
0.3230697398
 40
0.4482011057
 40
0.716963916
 40
1.0
 40
1.0
 40
1.0
 40
1.0
 10
68.9412060402
 20
246.77340362
 30
0.0
 10
69.6081930125
 20
246.3881643319
 30
0.0
 10
71.0576524315
 20
245.6600214013
 30
0.0
 10
73.4217466027
 20
244.7268644698
 30
0.0
 10
76.0527018264
 20
243.9107425989
 30
0.0
 10
79.9599536066
 20
242.9725314973
 30
0.0
 10
85.2328161305
 20
242.1873606681
 30
0.0
 10
89.5712335819
 20
241.9685110566
 30
0.0
 10
91.7956739022
 20
241.9595694798
 30
0.0
  0
SPLINE
  5
33B
100
AcDbEntity
  8
0
100
AcDbSpline
 62
7
  6
CONTINUOUS
 70
0
 71
3
 72
14
 73
10
 74
0
 42
0.0000001
 43
0.0000001
 44
0.0000000001
 40
0.0
 40
0.0
 40
0.0
 40
0.0
 40
0.2948111418
 40
0.4351406533
 40
0.56821558
 40
0.6923973084
 40
0.8063252369
 40
0.9090149548
 40
1.0
 40
1.0
 40
1.0
 40
1.0
 10
94.7855339933
 20
240.2326818179
 30
0.0
 10
97.5120364591
 20
240.3222449482
 30
0.0
 10
101.5350027148
 20
240.6525293025
 30
0.0
 10
106.7229867018
 20
241.5203279236
 30
0.0
 10
110.3106023658
 20
242.3471212944
 30
0.0
 10
113.5998710235
 20
243.3462438568
 30
0.0
 10
116.5385664954
 20
244.5016977365
 30
0.0
 10
119.0796137426
 20
245.7945184066
 30
0.0
 10
120.5737961044
 20
246.7965630351
 30
0.0
 10
121.231815895
 20
247.3217526781
 30
0.0
  0
SPLINE
  5
33C
100
AcDbEntity
  8
0
100
AcDbSpline
 62
7
  6
CONTINUOUS
 70
0
 71
3
 72
9
 73
5
 74
0
 42
0.0000001
 43
0.0000001
 44
0.0000000001
 40
0.0
 40
0.0
 40
0.0
 40
0.0
 40
0.506828545
 40
1.0
 40
1.0
 40
1.0
 40
1.0
 10
119.790180182
 20
251.3906749547
 30
0.0
 10
119.8849879936
 20
251.6471727734
 30
0.0
 10
120.0314139133
 20
252.1695909039
 30
0.0
 10
120.0816469666
 20
252.7102506131
 30
0.0
 10
120.0816605284
 20
252.9763406321
 30
0.0
  0
SPLINE
  5
33D
100
AcDbEntity
  8
0
100
AcDbSpline
 62
7
  6
CONTINUOUS
 70
0
 71
3
 72
9
 73
5
 74
0
 42
0.0000001
 43
0.0000001
 44
0.0000000001
 40
0.0
 40
0.0
 40
0.0
 40
0.0
 40
0.5141334299
 40
1.0
 40
1.0
 40
1.0
 40
1.0
 10
90.1871591964
 20
269.4785460222
 30
0.0
 10
89.4246694688
 20
269.6981882575
 30
0.0
 10
87.8875344349
 20
269.9670903198
 30
0.0
 10
86.3284621369
 20
269.8217346334
 30
0.0
 10
85.5993213726
 20
269.6466453002
 30
0.0
  0
SPLINE
  5
33E
100
AcDbEntity
  8
0
100
AcDbSpline
 62
7
  6
CONTINUOUS
 70
0
 71
3
 72
9
 73
5
 74
0
 42
0.0000001
 43
0.0000001
 44
0.0000000001
 40
0.0
 40
0.0
 40
0.0
 40
0.0
 40
0.2534668765
 40
1.0
 40
1.0
 40
1.0
 40
1.0
 10
85.5993213726
 20
269.6466453002
 30
0.0
 10
85.4715297222
 20
269.6493510095
 30
0.0
 10
84.9671655312
 20
269.6430540531
 30
0.0
 10
84.4634718908
 20
269.5659421432
 30
0.0
 10
84.0998398107
 20
269.4684762169
 30
0.0
  0
SPLINE
  5
33F
100
AcDbEntity
  8
0
100
AcDbSpline
 62
7
  6
CONTINUOUS
 70
0
 71
3
 72
25
 73
21
 74
0
 42
0.0000001
 43
0.0000001
 44
0.0000000001
 40
0.0
 40
0.0
 40
0.0
 40
0.0
 40
0.0157132535
 40
0.0319521791
 40
0.0676649323
 40
0.0878784914
 40
0.109886422
 40
0.159547617
 40
0.216762898
 40
0.280936762
 40
0.3510484768
 40
0.425786414
 40
0.5036415509
 40
0.5829823598
 40
0.6621213425
 40
0.7393786197
 40
0.8131454517
 40
0.8819534943
 40
0.9445482768
 40
1.0
 40
1.0
 40
1.0
 40
1.0
 10
64.0817153438
 20
258.4923483033
 30
0.0
 10
64.0817334773
 20
258.785436174
 30
0.0
 10
64.14314391
 20
259.3830903003
 30
0.0
 10
64.5183261476
 20
260.5953042402
 30
0.0
 10
65.2659597051
 20
261.7460431603
 30
0.0
 10
66.2735050716
 20
262.7951681119
 30
0.0
 10
67.592117746
 20
263.8954926678
 30
0.0
 10
69.6491727774
 20
265.1613685826
 30
0.0
 10
72.5713028556
 20
266.4582202645
 30
0.0
 10
75.9747734232
 20
267.5601060246
 30
0.0
 10
79.7770864328
 20
268.4397824714
 30
0.0
 10
83.8856196197
 20
269.0750222968
 30
0.0
 10
88.1984847837
 20
269.449505845
 30
0.0
 10
92.6082898817
 20
269.5535906838
 30
0.0
 10
97.0049374201
 20
269.3845973821
 30
0.0
 10
101.2787354243
 20
268.9468653645
 30
0.0
 10
105.3232428221
 20
268.251731883
 30
0.0
 10
109.0388156084
 20
267.3168056321
 30
0.0
 10
112.3338225146
 20
266.1662326831
 30
0.0
 10
114.3265584384
 20
265.2125908735
 30
0.0
 10
115.2221993681
 20
264.6952853061
 30
0.0
  0
SPLINE
  5
340
100
AcDbEntity
  8
0
100
AcDbSpline
 62
7
  6
CONTINUOUS
 70
0
 71
3
 72
9
 73
5
 74
0
 42
0.0000001
 43
0.0000001
 44
0.0000000001
 40
0.0
 40
0.0
 40
0.0
 40
0.0
 40
0.245981861
 40
1.0
 40
1.0
 40
1.0
 40
1.0
 10
75.1500137451
 20
267.2338385901
 30
0.0
 10
74.8488820581
 20
267.2400657384
 30
0.0
 10
73.6247765665
 20
267.2603824738
 30
0.0
 10
72.3984276184
 20
267.2405442561
 30
0.0
 10
71.4777877582
 20
267.1709244198
 30
0.0
  0
SPLINE
  5
341
100
AcDbEntity
  8
0
100
AcDbSpline
 62
7
  6
CONTINUOUS
 70
0
 71
3
 72
12
 73
8
 74
0
 42
0.0000001
 43
0.0000001
 44
0.0000000001
 40
0.0
 40
0.0
 40
0.0
 40
0.0
 40
0.1004901638
 40
0.2039631857
 40
0.4294384803
 40
0.6924220913
 40
1.0
 40
1.0
 40
1.0
 40
1.0
 10
64.08174488
 20
252.9763406134
 30
0.0
 10
64.0817308381
 20
252.7008292036
 30
0.0
 10
64.1358034892
 20
252.140245403
 30
0.0
 10
64.4656703629
 20
251.0039092496
 30
0.0
 10
65.3226567225
 20
249.5931051099
 30
0.0
 10
66.9021176772
 20
248.0656132058
 30
0.0
 10
68.2109782923
 20
247.1951696057
 30
0.0
 10
68.9412060402
 20
246.77340362
 30
0.0
  0
SPLINE
  5
342
100
AcDbEntity
  8
0
100
AcDbSpline
 62
7
  6
CONTINUOUS
 70
0
 71
3
 72
9
 73
5
 74
0
 42
0.0000001
 43
0.0000001
 44
0.0000000001
 40
0.0
 40
0.0
 40
0.0
 40
0.0
 40
0.2432020536
 40
1.0
 40
1.0
 40
1.0
 40
1.0
 10
53.0058058811
 20
262.2194470532
 30
0.0
 10
53.0330249958
 20
262.2363573989
 30
0.0
 10
53.1455709476
 20
262.3048786894
 30
0.0
 10
53.2604270307
 20
262.369586954
 30
0.0
 10
53.3483713583
 20
262.4165873945
 30
0.0
  0
SPLINE
  5
343
100
AcDbEntity
  8
0
100
AcDbSpline
 62
7
  6
CONTINUOUS
 70
0
 71
3
 72
11
 73
7
 74
0
 42
0.0000001
 43
0.0000001
 44
0.0000000001
 40
0.0
 40
0.0
 40
0.0
 40
0.0
 40
0.2154372718
 40
0.4570142189
 40
0.7199581852
 40
1.0
 40
1.0
 40
1.0
 40
1.0
 10
53.3483713583
 20
262.4165873945
 30
0.0
 10
54.5058253631
 20
263.0351701909
 30
0.0
 10
57.0402943565
 20
264.2045210064
 30
0.0
 10
61.2206095051
 20
265.5627476929
 30
0.0
 10
65.9073335884
 20
266.5374496167
 30
0.0
 10
69.192351374
 20
266.9434401663
 30
0.0
 10
70.8892768561
 20
267.1185182748
 30
0.0
  0
SPLINE
  5
344
100
AcDbEntity
  8
0
100
AcDbSpline
 62
7
  6
CONTINUOUS
 70
0
 71
3
 72
9
 73
5
 74
0
 42
0.0000001
 43
0.0000001
 44
0.0000000001
 40
0.0
 40
0.0
 40
0.0
 40
0.0
 40
0.5084057973
 40
1.0
 40
1.0
 40
1.0
 40
1.0
 10
55.5923265083
 20
261.3074535297
 30
0.0
 10
55.8993960879
 20
261.5574269933
 30
0.0
 10
56.5519652932
 20
261.9935091741
 30
0.0
 10
57.2837518876
 20
262.2802846159
 30
0.0
 10
57.6535579078
 20
262.3794053614
 30
0.0
  0
SPLINE
  5
345
100
AcDbEntity
  8
0
100
AcDbSpline
 62
7
  6
CONTINUOUS
 70
0
 71
3
 72
9
 73
5
 74
0
 42
0.0000001
 43
0.0000001
 44
0.0000000001
 40
0.0
 40
0.0
 40
0.0
 40
0.0
 40
0.25756451
 40
1.0
 40
1.0
 40
1.0
 40
1.0
 10
64.0788781371
 20
257.9053214931
 30
0.0
 10
63.8812758395
 20
257.9996649733
 30
0.0
 10
63.1071726715
 20
258.3511473477
 30
0.0
 10
62.304576713
 20
258.6411510546
 30
0.0
 10
61.6973662778
 20
258.813450294
 30
0.0
  0
SPLINE
  5
346
100
AcDbEntity
  8
0
100
AcDbSpline
 62
7
  6
CONTINUOUS
 70
0
 71
3
 72
9
 73
5
 74
0
 42
0.0000001
 43
0.0000001
 44
0.0000000001
 40
0.0
 40
0.0
 40
0.0
 40
0.0
 40
0.2537587755
 40
1.0
 40
1.0
 40
1.0
 40
1.0
 10
61.6973662778
 20
258.813450294
 30
0.0
 10
61.5855949847
 20
258.8451660019
 30
0.0
 10
61.1435424729
 20
258.9644506953
 30
0.0
 10
60.6951609436
 20
259.0604992791
 30
0.0
 10
60.3583199705
 20
259.1177283109
 30
0.0
  0
SPLINE
  5
347
100
AcDbEntity
  8
0
100
AcDbSpline
 62
7
  6
CONTINUOUS
 70
0
 71
3
 72
9
 73
5
 74
0
 42
0.0000001
 43
0.0000001
 44
0.0000000001
 40
0.0
 40
0.0
 40
0.0
 40
0.0
 40
0.5087173681
 40
1.0
 40
1.0
 40
1.0
 40
1.0
 10
60.3583199705
 20
259.1177283109
 30
0.0
 10
59.6056768878
 20
259.2456018132
 30
0.0
 10
58.0968423766
 20
259.3554714146
 30
0.0
 10
56.5982343632
 20
259.1323538341
 30
0.0
 10
55.8861045983
 20
258.9414873175
 30
0.0
  0
SPLINE
  5
348
100
AcDbEntity
  8
0
100
AcDbSpline
 62
7
  6
CONTINUOUS
 70
0
 71
3
 72
13
 73
9
 74
0
 42
0.0000001
 43
0.0000001
 44
0.0000000001
 40
0.0
 40
0.0
 40
0.0
 40
0.0
 40
0.3379728397
 40
0.4792248561
 40
0.6029854399
 40
0.8085572145
 40
0.9028135529
 40
1.0
 40
1.0
 40
1.0
 40
1.0
 10
53.1529205335
 20
258.2082974483
 30
0.0
 10
52.9590051327
 20
258.1953179082
 30
0.0
 10
52.6810271996
 20
258.1948908582
 30
0.0
 10
52.3390787
 20
258.2605056014
 30
0.0
 10
52.0843488163
 20
258.3519698081
 30
0.0
 10
51.8788607934
 20
258.5062077742
 30
0.0
 10
51.7791656846
 20
258.7158243618
 30
0.0
 10
51.764481674
 20
258.826793302
 30
0.0
 10
51.7644992807
 20
258.8826797963
 30
0.0
  0
SPLINE
  5
349
100
AcDbEntity
  8
0
100
AcDbSpline
 62
7
  6
CONTINUOUS
 70
0
 71
3
 72
11
 73
7
 74
0
 42
0.0000001
 43
0.0000001
 44
0.0000000001
 40
0.0
 40
0.0
 40
0.0
 40
0.0
 40
0.3310148643
 40
0.6075517381
 40
0.8285961346
 40
1.0
 40
1.0
 40
1.0
 40
1.0
 10
53.005968372
 20
262.2194101498
 30
0.0
 10
52.8192509127
 20
262.1034086992
 30
0.0
 10
52.4882143564
 20
261.8702781933
 30
0.0
 10
52.0907722776
 20
261.4853490923
 30
0.0
 10
51.8389145594
 20
261.1153122602
 30
0.0
 10
51.7645510935
 20
260.8561037548
 30
0.0
 10
51.7645045883
 20
260.7422793466
 30
0.0
  0
SPLINE
  5
34A
100
AcDbEntity
  8
0
100
AcDbSpline
 62
7
  6
CONTINUOUS
 70
0
 71
3
 72
9
 73
5
 74
0
 42
0.0000001
 43
0.0000001
 44
0.0000000001
 40
0.0
 40
0.0
 40
0.0
 40
0.0
 40
0.4915945841
 40
1.0
 40
1.0
 40
1.0
 40
1.0
 10
53.6792109203
 20
260.312549262
 30
0.0
 10
54.022441916
 20
260.4045512053
 30
0.0
 10
54.7016627805
 20
260.6706680506
 30
0.0
 10
55.3073230284
 20
261.0754434556
 30
0.0
 10
55.5923265083
 20
261.3074535297
 30
0.0
  0
SPLINE
  5
34B
100
AcDbEntity
  8
0
100
AcDbSpline
 62
7
  6
CONTINUOUS
 70
0
 71
3
 72
12
 73
8
 74
0
 42
0.0000001
 43
0.0000001
 44
0.0000000001
 40
0.0
 40
0.0
 40
0.0
 40
0.0
 40
0.3075767546
 40
0.5705632506
 40
0.7960383134
 40
0.8995111166
 40
1.0
 40
1.0
 40
1.0
 40
1.0
 10
115.2221993681
 20
264.6952853061
 30
0.0
 10
115.9524252015
 20
264.2735204262
 30
0.0
 10
117.261292234
 20
263.4030715758
 30
0.0
 10
118.8407570569
 20
261.8755855999
 30
0.0
 10
119.6977819499
 20
260.4647781664
 30
0.0
 10
120.0275755661
 20
259.3284303018
 30
0.0
 10
120.0817071104
 20
258.7678565141
 30
0.0
 10
120.0816900646
 20
258.4923483035
 30
0.0
  0
SPLINE
  5
34C
100
AcDbEntity
  8
0
100
AcDbSpline
 62
7
  6
CONTINUOUS
 70
0
 71
3
 72
14
 73
10
 74
0
 42
0.0000001
 43
0.0000001
 44
0.0000000001
 40
0.0
 40
0.0
 40
0.0
 40
0.0
 40
0.3010763509
 40
0.4446863946
 40
0.580012623
 40
0.7047163972
 40
0.8169232867
 40
0.9154229386
 40
1.0
 40
1.0
 40
1.0
 40
1.0
 10
91.7956739021
 20
245.6369079335
 30
0.0
 10
94.5992099304
 20
245.6256385672
 30
0.0
 10
98.7478355068
 20
245.8487924942
 30
0.0
 10
104.0912802796
 20
246.6547463403
 30
0.0
 10
107.762935005
 20
247.4757754023
 30
0.0
 10
111.0779093043
 20
248.5028059935
 30
0.0
 10
113.9639749676
 20
249.7134248454
 30
0.0
 10
116.3582810724
 20
251.080155361
 30
0.0
 10
117.6936821271
 20
252.1606007852
 30
0.0
 10
118.2419558038
 20
252.7259787937
 30
0.0
  0
SPLINE
  5
34D
100
AcDbEntity
  8
0
100
AcDbSpline
 62
7
  6
CONTINUOUS
 70
0
 71
3
 72
13
 73
9
 74
0
 42
0.0000001
 43
0.0000001
 44
0.0000000001
 40
0.0
 40
0.0
 40
0.0
 40
0.0
 40
0.095192643
 40
0.1866744271
 40
0.3882066254
 40
0.5120949579
 40
0.6549680531
 40
1.0
 40
1.0
 40
1.0
 40
1.0
 10
51.7645045883
 20
260.7422793466
 30
0.0
 10
51.7644827789
 20
260.688899556
 30
0.0
 10
51.7790412683
 20
260.5832097576
 30
0.0
 10
51.8809471867
 20
260.3858670732
 30
0.0
 10
52.0904511671
 20
260.2523427799
 30
0.0
 10
52.3440348153
 20
260.1849288182
 30
0.0
 10
52.6867848794
 20
260.1492638535
 30
0.0
 10
52.9616390628
 20
260.1733524354
 30
0.0
 10
53.1529205335
 20
260.2024273135
 30
0.0
  0
SPLINE
  5
34E
100
AcDbEntity
  8
0
100
AcDbSpline
 62
7
  6
CONTINUOUS
 70
0
 71
3
 72
9
 73
5
 74
0
 42
0.0000001
 43
0.0000001
 44
0.0000000001
 40
0.0
 40
0.0
 40
0.0
 40
0.0
 40
0.2480034184
 40
1.0
 40
1.0
 40
1.0
 40
1.0
 10
57.6535579078
 20
262.3794053614
 30
0.0
 10
57.7743625002
 20
262.4117851514
 30
0.0
 10
58.2660664458
 20
262.5247922792
 30
0.0
 10
58.7738905725
 20
262.5656020905
 30
0.0
 10
59.153039471
 20
262.55757444
 30
0.0
  0
SPLINE
  5
34F
100
AcDbEntity
  8
0
100
AcDbSpline
 62
7
  6
CONTINUOUS
 70
0
 71
3
 72
14
 73
10
 74
0
 42
0.0000001
 43
0.0000001
 44
0.0000000001
 40
0.0
 40
0.0
 40
0.0
 40
0.0
 40
0.0909850163
 40
0.1936746672
 40
0.3076025437
 40
0.4317842615
 40
0.564859218
 40
0.70518878
 40
1.0
 40
1.0
 40
1.0
 40
1.0
 10
121.231815895
 20
249.160421905
 30
0.0
 10
120.5737962761
 20
248.635232399
 30
0.0
 10
119.0796153538
 20
247.6331871741
 30
0.0
 10
116.5385702009
 20
246.3403649721
 30
0.0
 10
113.5998762515
 20
245.1849099332
 30
0.0
 10
110.3106078138
 20
244.1857869046
 30
0.0
 10
106.722991158
 20
243.3589939468
 30
0.0
 10
101.5350050861
 20
242.4911969285
 30
0.0
 10
97.5120373368
 20
242.1609142039
 30
0.0
 10
94.7855339933
 20
242.0713510448
 30
0.0
  0
SPLINE
  5
350
100
AcDbEntity
  8
0
100
AcDbSpline
 62
7
  6
CONTINUOUS
 70
0
 71
3
 72
9
 73
5
 74
0
 42
0.0000001
 43
0.0000001
 44
0.0000000001
 40
0.0
 40
0.0
 40
0.0
 40
0.0
 40
0.45612055
 40
1.0
 40
1.0
 40
1.0
 40
1.0
 10
91.7956739022
 20
245.6369079335
 30
0.0
 10
92.3919549576
 20
245.2454780242
 30
0.0
 10
93.5510986578
 20
244.1596605962
 30
0.0
 10
94.4016496702
 20
242.8303058186
 30
0.0
 10
94.7855339933
 20
242.0713510448
 30
0.0
  0
SPLINE
  5
351
100
AcDbEntity
  8
0
100
AcDbSpline
 62
7
  6
CONTINUOUS
 70
0
 71
3
 72
12
 73
8
 74
0
 42
0.0000001
 43
0.0000001
 44
0.0000000001
 40
0.0
 40
0.0
 40
0.0
 40
0.0
 40
0.3075767546
 40
0.5705632506
 40
0.7960383134
 40
0.8995111166
 40
1.0
 40
1.0
 40
1.0
 40
1.0
 10
68.9412060402
 20
252.2894113007
 30
0.0
 10
68.2109802068
 20
252.7111761805
 30
0.0
 10
66.9021131743
 20
253.5816250309
 30
0.0
 10
65.3226483514
 20
255.1091110068
 30
0.0
 10
64.4656234585
 20
256.5199184403
 30
0.0
 10
64.1358298423
 20
257.656266305
 30
0.0
 10
64.0816982979
 20
258.2168400927
 30
0.0
 10
64.0817153438
 20
258.4923483033
 30
0.0
  0
SPLINE
  5
352
100
AcDbEntity
  8
0
100
AcDbSpline
 62
7
  6
CONTINUOUS
 70
0
 71
3
 72
12
 73
8
 74
0
 42
0.0000001
 43
0.0000001
 44
0.0000000001
 40
0.0
 40
0.0
 40
0.0
 40
0.0
 40
0.1011808001
 40
0.2052382996
 40
0.4312737967
 40
0.6938030809
 40
1.0
 40
1.0
 40
1.0
 40
1.0
 10
120.0816900646
 20
258.4923483035
 30
0.0
 10
120.0816733952
 20
258.2229254699
 30
0.0
 10
120.0300130129
 20
257.6751262529
 30
0.0
 10
119.7151483329
 20
256.5650463217
 30
0.0
 10
118.8971064212
 20
255.1849138753
 30
0.0
 10
117.3843871046
 20
253.6845246772
 30
0.0
 10
116.1280034768
 20
252.8259095514
 30
0.0
 10
115.4270596495
 20
252.4094338122
 30
0.0
  0
SPLINE
  5
353
100
AcDbEntity
  8
0
100
AcDbSpline
 62
7
  6
CONTINUOUS
 70
0
 71
3
 72
19
 73
15
 74
0
 42
0.0000001
 43
0.0000001
 44
0.0000000001
 40
0.0
 40
0.0
 40
0.0
 40
0.0
 40
0.0485014699
 40
0.102096212
 40
0.1603778096
 40
0.2227808399
 40
0.3570753127
 40
0.4986433479
 40
0.6404043958
 40
0.7752599451
 40
0.8380663918
 40
0.8968175587
 40
0.9509408209
 40
1.0
 40
1.0
 40
1.0
 40
1.0
 10
115.4270596495
 20
252.4094338122
 30
0.0
 10
114.7604104488
 20
252.013334713
 30
0.0
 10
113.3058982477
 20
251.2646195972
 30
0.0
 10
110.9246792113
 20
250.3063141727
 30
0.0
 10
108.264736444
 20
249.4680623944
 30
0.0
 10
104.3012071817
 20
248.5043277572
 30
0.0
 10
98.9410648135
 20
247.7008323264
 30
0.0
 10
92.2626047138
 20
247.3681660052
 30
0.0
 10
85.5735843706
 20
247.6671708389
 30
0.0
 10
80.1908732131
 20
248.4432329207
 30
0.0
 10
76.1987772154
 20
249.3859165783
 30
0.0
 10
73.5111666159
 20
250.2104617688
 30
0.0
 10
71.0984127044
 20
251.1565615619
 30
0.0
 10
69.6204155967
 20
251.8971124749
 30
0.0
 10
68.9412060402
 20
252.2894113007
 30
0.0
  0
SPLINE
  5
354
100
AcDbEntity
  8
0
100
AcDbSpline
 62
7
  6
CONTINUOUS
 70
0
 71
3
 72
10
 73
6
 74
0
 42
0.0000001
 43
0.0000001
 44
0.0000000001
 40
0.0
 40
0.0
 40
0.0
 40
0.0
 40
0.2355157365
 40
0.4777267905
 40
1.0
 40
1.0
 40
1.0
 40
1.0
 10
59.153039471
 20
262.55757444
 30
0.0
 10
59.6397003698
 20
262.6744368298
 30
0.0
 10
60.6519296381
 20
262.8180009237
 30
0.0
 10
62.7841336196
 20
262.730170309
 30
0.0
 10
64.3680128784
 20
262.2393505343
 30
0.0
 10
65.3796612885
 20
261.7828291158
 30
0.0
  0
SPLINE
  5
355
100
AcDbEntity
  8
0
100
AcDbSpline
 62
7
  6
CONTINUOUS
 70
0
 71
3
 72
9
 73
5
 74
0
 42
0.0000001
 43
0.0000001
 44
0.0000000001
 40
0.0
 40
0.0
 40
0.0
 40
0.0
 40
0.5030188227
 40
1.0
 40
1.0
 40
1.0
 40
1.0
 10
85.3704055511
 20
201.1946125074
 30
0.0
 10
84.4425811128
 20
200.9459040797
 30
0.0
 10
82.5452067374
 20
200.6286376301
 30
0.0
 10
80.6218979771
 20
200.6997363513
 30
0.0
 10
79.6820276993
 20
200.8314197547
 30
0.0
  0
SPLINE
  5
356
100
AcDbEntity
  8
0
100
AcDbSpline
 62
7
  6
CONTINUOUS
 70
0
 71
3
 72
13
 73
9
 74
0
 42
0.0000001
 43
0.0000001
 44
0.0000000001
 40
0.0
 40
0.0
 40
0.0
 40
0.0
 40
0.268078205
 40
0.5231815227
 40
0.6459686487
 40
0.7658129303
 40
0.8834853755
 40
1.0
 40
1.0
 40
1.0
 40
1.0
 10
68.6363554416
 20
216.9336492914
 30
0.0
 10
68.7236331232
 20
216.3513711799
 30
0.0
 10
69.0429672511
 20
215.2305687483
 30
0.0
 10
69.8159743932
 20
214.0128402984
 30
0.0
 10
70.6105224102
 20
213.255419568
 30
0.0
 10
71.2706521853
 20
212.8116002793
 30
0.0
 10
71.9860291531
 20
212.4968022413
 30
0.0
 10
72.4900137043
 20
212.37805695
 30
0.0
 10
72.7434398925
 20
212.3425447987
 30
0.0
  0
SPLINE
  5
357
100
AcDbEntity
  8
0
100
AcDbSpline
 62
7
  6
CONTINUOUS
 70
0
 71
3
 72
13
 73
9
 74
0
 42
0.0000001
 43
0.0000001
 44
0.0000000001
 40
0.0
 40
0.0
 40
0.0
 40
0.0
 40
0.268078205
 40
0.5231815227
 40
0.6459686487
 40
0.7658129303
 40
0.8834853755
 40
1.0
 40
1.0
 40
1.0
 40
1.0
 10
86.4049510943
 20
221.6966187756
 30
0.0
 10
86.4922287758
 20
221.1143406642
 30
0.0
 10
86.8115629038
 20
219.9935382325
 30
0.0
 10
87.5845700458
 20
218.7758097826
 30
0.0
 10
88.3791180629
 20
218.0183890522
 30
0.0
 10
89.0392478379
 20
217.5745697635
 30
0.0
 10
89.7546248058
 20
217.2597717256
 30
0.0
 10
90.258609357
 20
217.1410264343
 30
0.0
 10
90.5120355452
 20
217.1055142829
 30
0.0
  0
SPLINE
  5
358
100
AcDbEntity
  8
0
100
AcDbSpline
 62
7
  6
CONTINUOUS
 70
0
 71
3
 72
13
 73
9
 74
0
 42
0.0000001
 43
0.0000001
 44
0.0000000001
 40
0.0
 40
0.0
 40
0.0
 40
0.0
 40
0.268078205
 40
0.5231815227
 40
0.6459686487
 40
0.7658129303
 40
0.8834853755
 40
1.0
 40
1.0
 40
1.0
 40
1.0
 10
75.9541724668
 20
229.7660014977
 30
0.0
 10
76.0414501483
 20
229.1837233863
 30
0.0
 10
76.3607842763
 20
228.0629209547
 30
0.0
 10
77.1337914183
 20
226.8451925047
 30
0.0
 10
77.9283394354
 20
226.0877717743
 30
0.0
 10
78.5884692104
 20
225.6439524857
 30
0.0
 10
79.3038461783
 20
225.3291544477
 30
0.0
 10
79.8078307295
 20
225.2104091564
 30
0.0
 10
80.0612569177
 20
225.1748970051
 30
0.0
  0
SPLINE
  5
359
100
AcDbEntity
  8
0
100
AcDbSpline
 62
7
  6
CONTINUOUS
 70
0
 71
3
 72
13
 73
9
 74
0
 42
0.0000001
 43
0.0000001
 44
0.0000000001
 40
0.0
 40
0.0
 40
0.0
 40
0.0
 40
0.1126084257
 40
0.227816271
 40
0.3475015298
 40
0.4724025418
 40
0.7336674034
 40
1.0
 40
1.0
 40
1.0
 40
1.0
 10
83.4965718856
 20
214.3503786272
 30
0.0
 10
83.2294390686
 20
214.3877886571
 30
0.0
 10
82.674947824
 20
214.3850247489
 30
0.0
 10
81.8671289134
 20
214.1466266874
 30
0.0
 10
81.1241194398
 20
213.691674663
 30
0.0
 10
80.2642502737
 20
212.8240720631
 30
0.0
 10
79.5646209099
 20
211.3733148804
 30
0.0
 10
79.4931649721
 20
210.0732587458
 30
0.0
 10
79.5877334129
 20
209.4423399113
 30
0.0
  0
SPLINE
  5
35A
100
AcDbEntity
  8
0
100
AcDbSpline
 62
7
  6
CONTINUOUS
 70
0
 71
3
 72
11
 73
7
 74
0
 42
0.0000001
 43
0.0000001
 44
0.0000000001
 40
0.0
 40
0.0
 40
0.0
 40
0.0
 40
0.2412232544
 40
0.4864011782
 40
0.7387086999
 40
1.0
 40
1.0
 40
1.0
 40
1.0
 10
78.6072882425
 20
234.5893204311
 30
0.0
 10
78.4338741603
 20
234.6135897612
 30
0.0
 10
78.0769057832
 20
234.6204611044
 30
0.0
 10
77.5488041198
 20
234.5037953577
 30
0.0
 10
77.0470670469
 20
234.2664576336
 30
0.0
 10
76.7483504019
 20
234.0384343446
 30
0.0
 10
76.6092754993
 20
233.9094636121
 30
0.0
  0
SPLINE
  5
35B
100
AcDbEntity
  8
0
100
AcDbSpline
 62
7
  6
CONTINUOUS
 70
0
 71
3
 72
15
 73
11
 74
0
 42
0.0000001
 43
0.0000001
 44
0.0000000001
 40
0.0
 40
0.0
 40
0.0
 40
0.0
 40
0.1122970537
 40
0.2271853598
 40
0.3465385681
 40
0.4710937258
 40
0.6004020151
 40
0.7330567326
 40
0.8670060453
 40
1.0
 40
1.0
 40
1.0
 40
1.0
 10
81.7178268105
 20
237.0030116423
 30
0.0
 10
81.3239402802
 20
237.0582062462
 30
0.0
 10
80.5063391535
 20
237.0541033451
 30
0.0
 10
79.3151738355
 20
236.7025405488
 30
0.0
 10
78.2197504491
 20
236.0318988755
 30
0.0
 10
77.2811455282
 20
235.0846333145
 30
0.0
 10
76.548340058
 20
233.9160466822
 30
0.0
 10
76.0599228481
 20
232.5912519871
 30
0.0
 10
75.8413647575
 20
231.1839911569
 30
0.0
 10
75.8843483726
 20
230.2318369897
 30
0.0
 10
75.9541724668
 20
229.7660014977
 30
0.0
  0
SPLINE
  5
35C
100
AcDbEntity
  8
0
100
AcDbSpline
 62
7
  6
CONTINUOUS
 70
0
 71
3
 72
11
 73
7
 74
0
 42
0.0000001
 43
0.0000001
 44
0.0000000001
 40
0.0
 40
0.0
 40
0.0
 40
0.0
 40
0.2412232544
 40
0.4864011782
 40
0.7387086999
 40
1.0
 40
1.0
 40
1.0
 40
1.0
 10
89.05806687
 20
226.519937709
 30
0.0
 10
88.8846527878
 20
226.5442070391
 30
0.0
 10
88.5276844107
 20
226.5510783823
 30
0.0
 10
87.9995827473
 20
226.4344126356
 30
0.0
 10
87.4978456743
 20
226.1970749115
 30
0.0
 10
87.1991290294
 20
225.9690516225
 30
0.0
 10
87.0600541268
 20
225.84008089
 30
0.0
  0
SPLINE
  5
35D
100
AcDbEntity
  8
0
100
AcDbSpline
 62
7
  6
CONTINUOUS
 70
0
 71
3
 72
15
 73
11
 74
0
 42
0.0000001
 43
0.0000001
 44
0.0000000001
 40
0.0
 40
0.0
 40
0.0
 40
0.0
 40
0.1122970537
 40
0.2271853598
 40
0.3465385681
 40
0.4710937258
 40
0.6004020151
 40
0.7330567326
 40
0.8670060453
 40
1.0
 40
1.0
 40
1.0
 40
1.0
 10
92.1686054379
 20
228.9336289202
 30
0.0
 10
91.7747189076
 20
228.9888235241
 30
0.0
 10
90.9571177809
 20
228.9847206229
 30
0.0
 10
89.765952463
 20
228.6331578266
 30
0.0
 10
88.6705290765
 20
227.9625161533
 30
0.0
 10
87.7319241556
 20
227.0152505924
 30
0.0
 10
86.9991186855
 20
225.8466639601
 30
0.0
 10
86.5107014756
 20
224.5218692649
 30
0.0
 10
86.292143385
 20
223.1146084348
 30
0.0
 10
86.335127
 20
222.1624542676
 30
0.0
 10
86.4049510943
 20
221.6966187756
 30
0.0
  0
SPLINE
  5
35E
100
AcDbEntity
  8
0
100
AcDbSpline
 62
7
  6
CONTINUOUS
 70
0
 71
3
 72
11
 73
7
 74
0
 42
0.0000001
 43
0.0000001
 44
0.0000000001
 40
0.0
 40
0.0
 40
0.0
 40
0.0
 40
0.2412232544
 40
0.4864011782
 40
0.7387086999
 40
1.0
 40
1.0
 40
1.0
 40
1.0
 10
71.2894712173
 20
221.7569682248
 30
0.0
 10
71.1160571351
 20
221.7812375549
 30
0.0
 10
70.759088758
 20
221.7881088981
 30
0.0
 10
70.2309870946
 20
221.6714431514
 30
0.0
 10
69.7292500217
 20
221.4341054273
 30
0.0
 10
69.4305333767
 20
221.2060821383
 30
0.0
 10
69.2914584741
 20
221.0771114058
 30
0.0
  0
SPLINE
  5
35F
100
AcDbEntity
  8
0
100
AcDbSpline
 62
7
  6
CONTINUOUS
 70
0
 71
3
 72
15
 73
11
 74
0
 42
0.0000001
 43
0.0000001
 44
0.0000000001
 40
0.0
 40
0.0
 40
0.0
 40
0.0
 40
0.1122970537
 40
0.2271853598
 40
0.3465385681
 40
0.4710937258
 40
0.6004020151
 40
0.7330567326
 40
0.8670060453
 40
1.0
 40
1.0
 40
1.0
 40
1.0
 10
74.4000097853
 20
224.170659436
 30
0.0
 10
74.006123255
 20
224.2258540398
 30
0.0
 10
73.1885221283
 20
224.2217511387
 30
0.0
 10
71.9973568103
 20
223.8701883424
 30
0.0
 10
70.9019334239
 20
223.1995466691
 30
0.0
 10
69.963328503
 20
222.2522811082
 30
0.0
 10
69.2305230328
 20
221.0836944759
 30
0.0
 10
68.7421058229
 20
219.7588997807
 30
0.0
 10
68.5235477323
 20
218.3516389506
 30
0.0
 10
68.5665313474
 20
217.3994847834
 30
0.0
 10
68.6363554416
 20
216.9336492914
 30
0.0
  0
SPLINE
  5
360
100
AcDbEntity
  8
0
100
AcDbSpline
 62
7
  6
CONTINUOUS
 70
0
 71
3
 72
11
 73
7
 74
0
 42
0.0000001
 43
0.0000001
 44
0.0000000001
 40
0.0
 40
0.0
 40
0.0
 40
0.0
 40
0.2614402539
 40
0.5138072043
 40
0.7589138283
 40
1.0
 40
1.0
 40
1.0
 40
1.0
 10
68.669356256
 20
216.7402907358
 30
0.0
 10
68.7674707463
 20
216.5755038573
 30
0.0
 10
68.9924086394
 20
216.2692747963
 30
0.0
 10
69.4121125481
 20
215.8969072619
 30
0.0
 10
69.8919531938
 20
215.635308837
 30
0.0
 10
70.2405197818
 20
215.5424029813
 30
0.0
 10
70.4156659591
 20
215.5178912442
 30
0.0
  0
SPLINE
  5
361
100
AcDbEntity
  8
0
100
AcDbSpline
 62
7
  6
CONTINUOUS
 70
0
 71
3
 72
11
 73
7
 74
0
 42
0.0000001
 43
0.0000001
 44
0.0000000001
 40
0.0
 40
0.0
 40
0.0
 40
0.0
 40
0.2614402539
 40
0.5138072043
 40
0.7589138283
 40
1.0
 40
1.0
 40
1.0
 40
1.0
 10
86.4379519087
 20
221.50326022
 30
0.0
 10
86.536066399
 20
221.3384733415
 30
0.0
 10
86.761004292
 20
221.0322442805
 30
0.0
 10
87.1807082008
 20
220.6598767461
 30
0.0
 10
87.6605488464
 20
220.3982783212
 30
0.0
 10
88.0091154345
 20
220.3053724655
 30
0.0
 10
88.1842616118
 20
220.2808607284
 30
0.0
  0
SPLINE
  5
362
100
AcDbEntity
  8
0
100
AcDbSpline
 62
7
  6
CONTINUOUS
 70
0
 71
3
 72
11
 73
7
 74
0
 42
0.0000001
 43
0.0000001
 44
0.0000000001
 40
0.0
 40
0.0
 40
0.0
 40
0.0
 40
0.2614402539
 40
0.5138072043
 40
0.7589138283
 40
1.0
 40
1.0
 40
1.0
 40
1.0
 10
75.9871732812
 20
229.5726429421
 30
0.0
 10
76.0852877715
 20
229.4078560636
 30
0.0
 10
76.3102256646
 20
229.1016270026
 30
0.0
 10
76.7299295733
 20
228.7292594682
 30
0.0
 10
77.2097702189
 20
228.4676610434
 30
0.0
 10
77.558336807
 20
228.3747551876
 30
0.0
 10
77.7334829843
 20
228.3502434505
 30
0.0
  0
SPLINE
  5
363
100
AcDbEntity
  8
0
100
AcDbSpline
 62
7
  6
CONTINUOUS
 70
0
 71
3
 72
11
 73
7
 74
0
 42
0.0000001
 43
0.0000001
 44
0.0000000001
 40
0.0
 40
0.0
 40
0.0
 40
0.0
 40
0.2685754896
 40
0.5241420781
 40
0.7663548172
 40
1.0
 40
1.0
 40
1.0
 40
1.0
 10
79.5877334129
 20
209.4423399113
 30
0.0
 10
79.6469247968
 20
209.047441163
 30
0.0
 10
79.8638370567
 20
208.2870317506
 30
0.0
 10
80.4831601714
 20
207.3103445786
 30
0.0
 10
81.3409728233
 20
206.6092729667
 30
0.0
 10
82.0290902773
 20
206.3768997515
 30
0.0
 10
82.3731100466
 20
206.3287222569
 30
0.0
  0
SPLINE
  5
364
100
AcDbEntity
  8
0
100
AcDbSpline
 62
7
  6
CONTINUOUS
 70
0
 71
3
 72
23
 73
19
 74
0
 42
0.0000001
 43
0.0000001
 44
0.0000000001
 40
0.0
 40
0.0
 40
0.0
 40
0.0
 40
0.0563095757
 40
0.1133378223
 40
0.1716946284
 40
0.2317917054
 40
0.2938066127
 40
0.3576786172
 40
0.4231358691
 40
0.4897393633
 40
0.5569359527
 40
0.624115549
 40
0.6906697289
 40
0.7560505737
 40
0.8198252892
 40
0.8817344937
 40
0.9417275795
 40
1.0
 40
1.0
 40
1.0
 40
1.0
 10
85.2300176312
 20
240.4447539642
 30
0.0
 10
86.1963214725
 20
240.3093670054
 30
0.0
 10
88.1184311598
 20
239.8302362147
 30
0.0
 10
90.8120897749
 20
238.5211032012
 30
0.0
 10
93.2442963534
 20
236.6637420277
 30
0.0
 10
95.3399528277
 20
234.3191294172
 30
0.0
 10
97.0381455142
 20
231.5613968029
 30
0.0
 10
98.2898809616
 20
228.4754631175
 30
0.0
 10
99.0595072749
 20
225.1548840852
 30
0.0
 10
99.3252349539
 20
221.6995698375
 30
0.0
 10
99.0798415232
 20
218.2131725403
 30
0.0
 10
98.3309109714
 20
214.8002003108
 30
0.0
 10
97.1006708052
 20
211.5630161937
 30
0.0
 10
95.4252333191
 20
208.5989714624
 30
0.0
 10
93.3538292494
 20
205.9976348759
 30
0.0
 10
90.9465540536
 20
203.8385578882
 30
0.0
 10
88.2759133456
 20
202.1894554319
 30
0.0
 10
86.3457277389
 20
201.4560529672
 30
0.0
 10
85.3704055511
 20
201.1946125074
 30
0.0
  0
SPLINE
  5
365
100
AcDbEntity
  8
0
100
AcDbSpline
 62
7
  6
CONTINUOUS
 70
0
 71
3
 72
13
 73
9
 74
0
 42
0.0000001
 43
0.0000001
 44
0.0000000001
 40
0.0
 40
0.0
 40
0.0
 40
0.0
 40
0.268078205
 40
0.5231815227
 40
0.6459686487
 40
0.7658129303
 40
0.8834853755
 40
1.0
 40
1.0
 40
1.0
 40
1.0
 10
78.5070942362
 20
219.5795549433
 30
0.0
 10
78.4198165546
 20
220.1618330548
 30
0.0
 10
78.1004824267
 20
221.2826354864
 30
0.0
 10
77.3274752846
 20
222.5003639363
 30
0.0
 10
76.5329272676
 20
223.2577846667
 30
0.0
 10
75.8727974925
 20
223.7016039554
 30
0.0
 10
75.1574205247
 20
224.0164019934
 30
0.0
 10
74.6534359735
 20
224.1351472847
 30
0.0
 10
74.4000097853
 20
224.170659436
 30
0.0
  0
SPLINE
  5
366
100
AcDbEntity
  8
0
100
AcDbSpline
 62
7
  6
CONTINUOUS
 70
0
 71
3
 72
13
 73
9
 74
0
 42
0.0000001
 43
0.0000001
 44
0.0000000001
 40
0.0
 40
0.0
 40
0.0
 40
0.0
 40
0.268078205
 40
0.5231815227
 40
0.6459686487
 40
0.7658129303
 40
0.8834853755
 40
1.0
 40
1.0
 40
1.0
 40
1.0
 10
85.8249112614
 20
232.4119071497
 30
0.0
 10
85.7376335798
 20
232.9941852611
 30
0.0
 10
85.4182994519
 20
234.1149876928
 30
0.0
 10
84.6452923098
 20
235.3327161427
 30
0.0
 10
83.8507442928
 20
236.0901368731
 30
0.0
 10
83.1906145177
 20
236.5339561617
 30
0.0
 10
82.4752375499
 20
236.8487541997
 30
0.0
 10
81.9712529987
 20
236.967499491
 30
0.0
 10
81.7178268105
 20
237.0030116423
 30
0.0
  0
SPLINE
  5
367
100
AcDbEntity
  8
0
100
AcDbSpline
 62
7
  6
CONTINUOUS
 70
0
 71
3
 72
21
 73
17
 74
0
 42
0.0000001
 43
0.0000001
 44
0.0000000001
 40
0.0
 40
0.0
 40
0.0
 40
0.0
 40
0.1299431512
 40
0.1921135236
 40
0.2521494203
 40
0.3103975802
 40
0.3675215966
 40
0.4243965263
 40
0.4819476063
 40
0.540968746
 40
0.6019833274
 40
0.6651781157
 40
0.7304047
 40
0.7972335314
 40
0.8650259295
 40
1.0
 40
1.0
 40
1.0
 40
1.0
 10
79.0225032943
 20
208.8469419357
 30
0.0
 10
79.134449214
 20
208.1000882437
 30
0.0
 10
79.4877313663
 20
207.0075038262
 30
0.0
 10
80.3190079059
 20
205.7916963852
 30
0.0
 10
81.0789115539
 20
205.0571512148
 30
0.0
 10
81.9552552725
 20
204.5198325699
 30
0.0
 10
82.9142347501
 20
204.202096902
 30
0.0
 10
83.917036586
 20
204.118078518
 30
0.0
 10
84.9224799026
 20
204.270830369
 30
0.0
 10
85.890187658
 20
204.6526874855
 30
0.0
 10
86.7828860565
 20
205.246715865
 30
0.0
 10
87.5673641454
 20
206.0286037743
 30
0.0
 10
88.2150134465
 20
206.9675349633
 30
0.0
 10
88.7022123268
 20
208.0284975561
 30
0.0
 10
89.1135060816
 20
209.5451776744
 30
0.0
 10
89.1387836888
 20
210.7517277435
 30
0.0
 10
89.0225036384
 20
211.5274968547
 30
0.0
  0
SPLINE
  5
368
100
AcDbEntity
  8
0
100
AcDbSpline
 62
7
  6
CONTINUOUS
 70
0
 71
3
 72
13
 73
9
 74
0
 42
0.0000001
 43
0.0000001
 44
0.0000000001
 40
0.0
 40
0.0
 40
0.0
 40
0.0
 40
0.1126065495
 40
0.2278110337
 40
0.3474933546
 40
0.4723917782
 40
0.7336568334
 40
1.0
 40
1.0
 40
1.0
 40
1.0
 10
77.7334829843
 20
228.3502434505
 30
0.0
 10
77.9412522995
 20
228.3211660998
 30
0.0
 10
78.3725096113
 20
228.3232879478
 30
0.0
 10
79.0008016065
 20
228.5087110682
 30
0.0
 10
79.5786867108
 20
228.8625453862
 30
0.0
 10
80.2474801651
 20
229.537328142
 30
0.0
 10
80.7916705088
 20
230.6656983287
 30
0.0
 10
80.8472476975
 20
231.6768778392
 30
0.0
 10
80.7736914881
 20
232.1676123536
 30
0.0
  0
SPLINE
  5
369
100
AcDbEntity
  8
0
100
AcDbSpline
 62
7
  6
CONTINUOUS
 70
0
 71
3
 72
21
 73
17
 74
0
 42
0.0000001
 43
0.0000001
 44
0.0000000001
 40
0.0
 40
0.0
 40
0.0
 40
0.0
 40
0.1299431512
 40
0.1921135236
 40
0.2521494203
 40
0.3103975802
 40
0.3675215966
 40
0.4243965263
 40
0.4819476063
 40
0.540968746
 40
0.6019833274
 40
0.6651781157
 40
0.7304047
 40
0.7972335314
 40
0.8650259295
 40
1.0
 40
1.0
 40
1.0
 40
1.0
 10
89.0225036384
 20
211.5274968547
 30
0.0
 10
88.9105577208
 20
212.274350547
 30
0.0
 10
88.5572755659
 20
213.3669349641
 30
0.0
 10
87.7259990269
 20
214.5827424052
 30
0.0
 10
86.9660953788
 20
215.3172875755
 30
0.0
 10
86.0897516602
 20
215.8546062205
 30
0.0
 10
85.1307721826
 20
216.1723418884
 30
0.0
 10
84.1279703468
 20
216.2563602725
 30
0.0
 10
83.1225270302
 20
216.1036084214
 30
0.0
 10
82.1548192747
 20
215.7217513049
 30
0.0
 10
81.2621208762
 20
215.1277229254
 30
0.0
 10
80.4776427873
 20
214.3458350161
 30
0.0
 10
79.8299934863
 20
213.4069038271
 30
0.0
 10
79.3427946059
 20
212.3459412343
 30
0.0
 10
78.9315008518
 20
210.8292611161
 30
0.0
 10
78.9062232418
 20
209.6227110466
 30
0.0
 10
79.0225032943
 20
208.8469419357
 30
0.0
  0
SPLINE
  5
36A
100
AcDbEntity
  8
0
100
AcDbSpline
 62
7
  6
CONTINUOUS
 70
0
 71
3
 72
11
 73
7
 74
0
 42
0.0000001
 43
0.0000001
 44
0.0000000001
 40
0.0
 40
0.0
 40
0.0
 40
0.0
 40
0.2352694114
 40
0.4800189385
 40
0.735328794
 40
1.0
 40
1.0
 40
1.0
 40
1.0
 10
80.3195973143
 20
236.9686361194
 30
0.0
 10
80.6838049148
 20
236.7848679656
 30
0.0
 10
81.3768832454
 20
236.3028413302
 30
0.0
 10
82.2099803116
 20
235.3212542119
 30
0.0
 10
82.8129769604
 20
234.1278439089
 30
0.0
 10
83.0377267535
 20
233.2465892278
 30
0.0
 10
83.1057550107
 20
232.7927347668
 30
0.0
  0
SPLINE
  5
36B
100
AcDbEntity
  8
0
100
AcDbSpline
 62
7
  6
CONTINUOUS
 70
0
 71
3
 72
15
 73
11
 74
0
 42
0.0000001
 43
0.0000001
 44
0.0000000001
 40
0.0
 40
0.0
 40
0.0
 40
0.0
 40
0.1122970537
 40
0.2271853598
 40
0.3465385681
 40
0.4710937258
 40
0.6004020151
 40
0.7330567326
 40
0.8670060453
 40
1.0
 40
1.0
 40
1.0
 40
1.0
 10
80.0612569177
 20
225.1748970051
 30
0.0
 10
80.455143448
 20
225.1197024012
 30
0.0
 10
81.2727445747
 20
225.1238053023
 30
0.0
 10
82.4639098927
 20
225.4753680986
 30
0.0
 10
83.5593332791
 20
226.1460097719
 30
0.0
 10
84.4979382
 20
227.0932753329
 30
0.0
 10
85.2307436702
 20
228.2618619652
 30
0.0
 10
85.7191608801
 20
229.5866566603
 30
0.0
 10
85.9377189707
 20
230.9939174905
 30
0.0
 10
85.8947353556
 20
231.9460716577
 30
0.0
 10
85.8249112614
 20
232.4119071497
 30
0.0
  0
SPLINE
  5
36C
100
AcDbEntity
  8
0
100
AcDbSpline
 62
7
  6
CONTINUOUS
 70
0
 71
3
 72
13
 73
9
 74
0
 42
0.0000001
 43
0.0000001
 44
0.0000000001
 40
0.0
 40
0.0
 40
0.0
 40
0.0
 40
0.2617699178
 40
0.5214409374
 40
0.6473483292
 40
0.7690712145
 40
0.8864351341
 40
1.0
 40
1.0
 40
1.0
 40
1.0
 10
75.7879379855
 20
219.9603825605
 30
0.0
 10
75.906901529
 20
219.1667103843
 30
0.0
 10
75.8642845155
 20
217.5330644822
 30
0.0
 10
75.1464385235
 20
215.6379476462
 30
0.0
 10
74.2215788438
 20
214.3775277639
 30
0.0
 10
73.3936792934
 20
213.613282384
 30
0.0
 10
72.4588010152
 20
213.0547157788
 30
0.0
 10
71.7786068413
 20
212.8329905018
 30
0.0
 10
71.4370857473
 20
212.7652780534
 30
0.0
  0
SPLINE
  5
36D
100
AcDbEntity
  8
0
100
AcDbSpline
 62
7
  6
CONTINUOUS
 70
0
 71
3
 72
11
 73
7
 74
0
 42
0.0000001
 43
0.0000001
 44
0.0000000001
 40
0.0
 40
0.0
 40
0.0
 40
0.0
 40
0.2685836104
 40
0.5241463316
 40
0.7663568814
 40
1.0
 40
1.0
 40
1.0
 40
1.0
 10
73.4558744629
 20
219.3352601473
 30
0.0
 10
73.4098354734
 20
219.6424119343
 30
0.0
 10
73.2411363872
 20
220.2338512719
 30
0.0
 10
72.7593903639
 20
220.9934674072
 30
0.0
 10
72.092231088
 20
221.5387360846
 30
0.0
 10
71.5570423427
 20
221.7195216006
 30
0.0
 10
71.2894712173
 20
221.7569682248
 30
0.0
  0
SPLINE
  5
36E
100
AcDbEntity
  8
0
100
AcDbSpline
 62
7
  6
CONTINUOUS
 70
0
 71
3
 72
13
 73
9
 74
0
 42
0.0000001
 43
0.0000001
 44
0.0000000001
 40
0.0
 40
0.0
 40
0.0
 40
0.0
 40
0.1126065495
 40
0.2278110337
 40
0.3474933546
 40
0.4723917782
 40
0.7336568334
 40
1.0
 40
1.0
 40
1.0
 40
1.0
 10
88.1842616118
 20
220.2808607284
 30
0.0
 10
88.3920309269
 20
220.2517833777
 30
0.0
 10
88.8232882388
 20
220.2539052257
 30
0.0
 10
89.451580234
 20
220.4393283461
 30
0.0
 10
90.0294653383
 20
220.7931626641
 30
0.0
 10
90.6982587926
 20
221.4679454199
 30
0.0
 10
91.2424491363
 20
222.5963156066
 30
0.0
 10
91.298026325
 20
223.6074951171
 30
0.0
 10
91.2244701156
 20
224.0982296315
 30
0.0
  0
SPLINE
  5
36F
100
AcDbEntity
  8
0
100
AcDbSpline
 62
7
  6
CONTINUOUS
 70
0
 71
3
 72
13
 73
9
 74
0
 42
0.0000001
 43
0.0000001
 44
0.0000000001
 40
0.0
 40
0.0
 40
0.0
 40
0.0
 40
0.2617699178
 40
0.5214409374
 40
0.6473483292
 40
0.7690712145
 40
0.8864351341
 40
1.0
 40
1.0
 40
1.0
 40
1.0
 10
93.5565336382
 20
224.7233520447
 30
0.0
 10
93.6754971817
 20
223.9296798685
 30
0.0
 10
93.6328801682
 20
222.2960339664
 30
0.0
 10
92.9150341762
 20
220.4009171304
 30
0.0
 10
91.9901744964
 20
219.1404972481
 30
0.0
 10
91.162274946
 20
218.3762518682
 30
0.0
 10
90.2273966679
 20
217.817685263
 30
0.0
 10
89.5472024939
 20
217.595959986
 30
0.0
 10
89.2056814
 20
217.5282475376
 30
0.0
  0
SPLINE
  5
370
100
AcDbEntity
  8
0
100
AcDbSpline
 62
7
  6
CONTINUOUS
 70
0
 71
3
 72
11
 73
7
 74
0
 42
0.0000001
 43
0.0000001
 44
0.0000000001
 40
0.0
 40
0.0
 40
0.0
 40
0.0
 40
0.2352694114
 40
0.4800189385
 40
0.735328794
 40
1.0
 40
1.0
 40
1.0
 40
1.0
 10
90.7703759418
 20
228.8992533972
 30
0.0
 10
91.1345835423
 20
228.7154852435
 30
0.0
 10
91.8276618729
 20
228.2334586081
 30
0.0
 10
92.6607589391
 20
227.2518714898
 30
0.0
 10
93.2637555879
 20
226.0584611867
 30
0.0
 10
93.488505381
 20
225.1772065056
 30
0.0
 10
93.5565336382
 20
224.7233520447
 30
0.0
  0
SPLINE
  5
371
100
AcDbEntity
  8
0
100
AcDbSpline
 62
7
  6
CONTINUOUS
 70
0
 71
3
 72
11
 73
7
 74
0
 42
0.0000001
 43
0.0000001
 44
0.0000000001
 40
0.0
 40
0.0
 40
0.0
 40
0.0
 40
0.2685836104
 40
0.5241463316
 40
0.7663568814
 40
1.0
 40
1.0
 40
1.0
 40
1.0
 10
91.2244701156
 20
224.0982296315
 30
0.0
 10
91.1784311261
 20
224.4053814185
 30
0.0
 10
91.0097320399
 20
224.9968207561
 30
0.0
 10
90.5279860165
 20
225.7564368914
 30
0.0
 10
89.8608267407
 20
226.3017055688
 30
0.0
 10
89.3256379954
 20
226.4824910848
 30
0.0
 10
89.05806687
 20
226.519937709
 30
0.0
  0
SPLINE
  5
372
100
AcDbEntity
  8
0
100
AcDbSpline
 62
7
  6
CONTINUOUS
 70
0
 71
3
 72
15
 73
11
 74
0
 42
0.0000001
 43
0.0000001
 44
0.0000000001
 40
0.0
 40
0.0
 40
0.0
 40
0.0
 40
0.1122970537
 40
0.2271853598
 40
0.3465385681
 40
0.4710937258
 40
0.6004020151
 40
0.7330567326
 40
0.8670060453
 40
1.0
 40
1.0
 40
1.0
 40
1.0
 10
90.5120355452
 20
217.1055142829
 30
0.0
 10
90.9059220755
 20
217.0503196791
 30
0.0
 10
91.7235232022
 20
217.0544225802
 30
0.0
 10
92.9146885202
 20
217.4059853765
 30
0.0
 10
94.0101119066
 20
218.0766270498
 30
0.0
 10
94.9487168275
 20
219.0238926107
 30
0.0
 10
95.6815222977
 20
220.192479243
 30
0.0
 10
96.1699395075
 20
221.5172739382
 30
0.0
 10
96.3884975982
 20
222.9245347683
 30
0.0
 10
96.3455139831
 20
223.8766889355
 30
0.0
 10
96.2756898889
 20
224.3425244276
 30
0.0
  0
SPLINE
  5
373
100
AcDbEntity
  8
0
100
AcDbSpline
 62
7
  6
CONTINUOUS
 70
0
 71
3
 72
13
 73
9
 74
0
 42
0.0000001
 43
0.0000001
 44
0.0000000001
 40
0.0
 40
0.0
 40
0.0
 40
0.0
 40
0.2617699178
 40
0.5214409374
 40
0.6473483292
 40
0.7690712145
 40
0.8864351341
 40
1.0
 40
1.0
 40
1.0
 40
1.0
 10
83.1057550107
 20
232.7927347668
 30
0.0
 10
83.2247185542
 20
231.9990625907
 30
0.0
 10
83.1821015407
 20
230.3654166885
 30
0.0
 10
82.4642555487
 20
228.4702998525
 30
0.0
 10
81.539395869
 20
227.2098799702
 30
0.0
 10
80.7114963186
 20
226.4456345904
 30
0.0
 10
79.7766180404
 20
225.8870679852
 30
0.0
 10
79.0964238665
 20
225.6653427082
 30
0.0
 10
78.7549027725
 20
225.5976302598
 30
0.0
  0
SPLINE
  5
374
100
AcDbEntity
  8
0
100
AcDbSpline
 62
7
  6
CONTINUOUS
 70
0
 71
3
 72
11
 73
7
 74
0
 42
0.0000001
 43
0.0000001
 44
0.0000000001
 40
0.0
 40
0.0
 40
0.0
 40
0.0
 40
0.2685836104
 40
0.5241463316
 40
0.7663568814
 40
1.0
 40
1.0
 40
1.0
 40
1.0
 10
80.7736914881
 20
232.1676123536
 30
0.0
 10
80.7276524986
 20
232.4747641406
 30
0.0
 10
80.5589534124
 20
233.0662034783
 30
0.0
 10
80.0772073891
 20
233.8258196136
 30
0.0
 10
79.4100481132
 20
234.3710882909
 30
0.0
 10
78.8748593679
 20
234.5518738069
 30
0.0
 10
78.6072882425
 20
234.5893204311
 30
0.0
  0
SPLINE
  5
375
100
AcDbEntity
  8
0
100
AcDbSpline
 62
7
  6
CONTINUOUS
 70
0
 71
3
 72
9
 73
5
 74
0
 42
0.0000001
 43
0.0000001
 44
0.0000000001
 40
0.0
 40
0.0
 40
0.0
 40
0.0
 40
0.5030188227
 40
1.0
 40
1.0
 40
1.0
 40
1.0
 10
79.5416397794
 20
240.0815612115
 30
0.0
 10
80.4694642177
 20
240.3302696392
 30
0.0
 10
82.3668385931
 20
240.6475360888
 30
0.0
 10
84.2901473534
 20
240.5764373676
 30
0.0
 10
85.2300176312
 20
240.4447539642
 30
0.0
  0
SPLINE
  5
376
100
AcDbEntity
  8
0
100
AcDbSpline
 62
7
  6
CONTINUOUS
 70
0
 71
3
 72
11
 73
7
 74
0
 42
0.0000001
 43
0.0000001
 44
0.0000000001
 40
0.0
 40
0.0
 40
0.0
 40
0.0
 40
0.2685754896
 40
0.5241420781
 40
0.7663548172
 40
1.0
 40
1.0
 40
1.0
 40
1.0
 10
86.2819485206
 20
211.2367609637
 30
0.0
 10
86.2227571373
 20
211.631659713
 30
0.0
 10
86.0058448786
 20
212.3920691274
 30
0.0
 10
85.3865217638
 20
213.3687563024
 30
0.0
 10
84.5287091109
 20
214.0698279166
 30
0.0
 10
83.8405916556
 20
214.3022011325
 30
0.0
 10
83.4965718856
 20
214.3503786272
 30
0.0
  0
SPLINE
  5
377
100
AcDbEntity
  8
0
100
AcDbSpline
 62
7
  6
CONTINUOUS
 70
0
 71
3
 72
13
 73
9
 74
0
 42
0.0000001
 43
0.0000001
 44
0.0000000001
 40
0.0
 40
0.0
 40
0.0
 40
0.0
 40
0.1126065495
 40
0.2278110337
 40
0.3474933546
 40
0.4723917782
 40
0.7336568334
 40
1.0
 40
1.0
 40
1.0
 40
1.0
 10
70.4156659591
 20
215.5178912442
 30
0.0
 10
70.6234352743
 20
215.4888138934
 30
0.0
 10
71.0546925861
 20
215.4909357415
 30
0.0
 10
71.6829845813
 20
215.6763588619
 30
0.0
 10
72.2608696856
 20
216.0301931799
 30
0.0
 10
72.9296631399
 20
216.7049759357
 30
0.0
 10
73.4738534836
 20
217.8333461224
 30
0.0
 10
73.5294306723
 20
218.8445256329
 30
0.0
 10
73.4558744629
 20
219.3352601473
 30
0.0
  0
SPLINE
  5
378
100
AcDbEntity
  8
0
100
AcDbSpline
 62
7
  6
CONTINUOUS
 70
0
 71
3
 72
13
 73
9
 74
0
 42
0.0000001
 43
0.0000001
 44
0.0000000001
 40
0.0
 40
0.0
 40
0.0
 40
0.0
 40
0.1126084257
 40
0.227816271
 40
0.3475015298
 40
0.4724025418
 40
0.7336674034
 40
1.0
 40
1.0
 40
1.0
 40
1.0
 10
82.3731100466
 20
206.3287222569
 30
0.0
 10
82.6402428633
 20
206.291312227
 30
0.0
 10
83.1947341072
 20
206.2940761352
 30
0.0
 10
84.0025530169
 20
206.5324741959
 30
0.0
 10
84.7455624898
 20
206.9874262192
 30
0.0
 10
85.6054316556
 20
207.855028817
 30
0.0
 10
86.3050610201
 20
209.3057859969
 30
0.0
 10
86.3765169604
 20
210.6058421297
 30
0.0
 10
86.2819485206
 20
211.2367609637
 30
0.0
  0
SPLINE
  5
379
100
AcDbEntity
  8
0
100
AcDbSpline
 62
7
  6
CONTINUOUS
 70
0
 71
3
 72
23
 73
19
 74
0
 42
0.0000001
 43
0.0000001
 44
0.0000000001
 40
0.0
 40
0.0
 40
0.0
 40
0.0
 40
0.0563095757
 40
0.1133378223
 40
0.1716946284
 40
0.2317917054
 40
0.2938066127
 40
0.3576786172
 40
0.4231358691
 40
0.4897393633
 40
0.5569359527
 40
0.624115549
 40
0.6906697289
 40
0.7560505737
 40
0.8198252892
 40
0.8817344937
 40
0.9417275795
 40
1.0
 40
1.0
 40
1.0
 40
1.0
 10
79.6820276993
 20
200.8314197547
 30
0.0
 10
78.715723858
 20
200.9668067136
 30
0.0
 10
76.7936141707
 20
201.4459375042
 30
0.0
 10
74.0999555556
 20
202.7550705177
 30
0.0
 10
71.667748977
 20
204.6124316912
 30
0.0
 10
69.5720925028
 20
206.9570443017
 30
0.0
 10
67.8738998163
 20
209.714776916
 30
0.0
 10
66.6221643688
 20
212.8007106014
 30
0.0
 10
65.8525380555
 20
216.1212896337
 30
0.0
 10
65.5868103766
 20
219.5766038814
 30
0.0
 10
65.8322038072
 20
223.0630011786
 30
0.0
 10
66.5811343591
 20
226.4759734082
 30
0.0
 10
67.8113745252
 20
229.7131575252
 30
0.0
 10
69.4868120114
 20
232.6772022565
 30
0.0
 10
71.5582160811
 20
235.278538843
 30
0.0
 10
73.9654912769
 20
237.4376158307
 30
0.0
 10
76.6361319848
 20
239.086718287
 30
0.0
 10
78.5663175916
 20
239.8201207517
 30
0.0
 10
79.5416397794
 20
240.0815612115
 30
0.0
  0
SPLINE
  5
37A
100
AcDbEntity
  8
0
100
AcDbSpline
 62
7
  6
CONTINUOUS
 70
0
 71
3
 72
11
 73
7
 74
0
 42
0.0000001
 43
0.0000001
 44
0.0000000001
 40
0.0
 40
0.0
 40
0.0
 40
0.0
 40
0.2352694114
 40
0.4800189385
 40
0.735328794
 40
1.0
 40
1.0
 40
1.0
 40
1.0
 10
73.0017802891
 20
224.136283913
 30
0.0
 10
73.3659878896
 20
223.9525157592
 30
0.0
 10
74.0590662202
 20
223.4704891239
 30
0.0
 10
74.8921632864
 20
222.4889020056
 30
0.0
 10
75.4951599352
 20
221.2954917025
 30
0.0
 10
75.7199097283
 20
220.4142370214
 30
0.0
 10
75.7879379855
 20
219.9603825605
 30
0.0
  0
SPLINE
  5
37B
100
AcDbEntity
  8
0
100
AcDbSpline
 62
7
  6
CONTINUOUS
 70
0
 71
3
 72
15
 73
11
 74
0
 42
0.0000001
 43
0.0000001
 44
0.0000000001
 40
0.0
 40
0.0
 40
0.0
 40
0.0
 40
0.1122970537
 40
0.2271853598
 40
0.3465385681
 40
0.4710937258
 40
0.6004020151
 40
0.7330567326
 40
0.8670060453
 40
1.0
 40
1.0
 40
1.0
 40
1.0
 10
72.7434398925
 20
212.3425447987
 30
0.0
 10
73.1373264228
 20
212.2873501949
 30
0.0
 10
73.9549275495
 20
212.291453096
 30
0.0
 10
75.1460928675
 20
212.6430158923
 30
0.0
 10
76.2415162539
 20
213.3136575656
 30
0.0
 10
77.1801211748
 20
214.2609231265
 30
0.0
 10
77.912926645
 20
215.4295097588
 30
0.0
 10
78.4013438549
 20
216.754304454
 30
0.0
 10
78.6199019455
 20
218.1615652841
 30
0.0
 10
78.5769183304
 20
219.1137194513
 30
0.0
 10
78.5070942362
 20
219.5795549433
 30
0.0
  0
SPLINE
  5
37C
100
AcDbEntity
  8
0
100
AcDbSpline
 62
7
  6
CONTINUOUS
 70
0
 71
3
 72
13
 73
9
 74
0
 42
0.0000001
 43
0.0000001
 44
0.0000000001
 40
0.0
 40
0.0
 40
0.0
 40
0.0
 40
0.268078205
 40
0.5231815227
 40
0.6459686487
 40
0.7658129303
 40
0.8834853755
 40
1.0
 40
1.0
 40
1.0
 40
1.0
 10
96.2756898889
 20
224.3425244276
 30
0.0
 10
96.1884122073
 20
224.924802539
 30
0.0
 10
95.8690780794
 20
226.0456049706
 30
0.0
 10
95.0960709373
 20
227.2633334205
 30
0.0
 10
94.3015229203
 20
228.0207541509
 30
0.0
 10
93.6413931452
 20
228.4645734396
 30
0.0
 10
92.9260161774
 20
228.7793714776
 30
0.0
 10
92.4220316262
 20
228.8981167689
 30
0.0
 10
92.1686054379
 20
228.9336289202
 30
0.0
  0
SPLINE
  5
37D
100
AcDbEntity
  8
0
100
AcDbSpline
 62
7
  6
CONTINUOUS
 70
0
 71
3
 72
13
 73
9
 74
0
 42
0.0000001
 43
0.0000001
 44
0.0000000001
 40
0.0
 40
0.0
 40
0.0
 40
0.0
 40
0.2573878241
 40
0.5146934072
 40
0.6409289661
 40
0.7641702664
 40
0.8838997946
 40
1.0
 40
1.0
 40
1.0
 40
1.0
 10
104.5154979779
 20
226.7731926337
 30
0.0
 10
104.9757378238
 20
223.7026758244
 30
0.0
 10
104.9783308031
 20
217.39442795
 30
0.0
 10
102.7811054842
 20
209.8643668694
 30
0.0
 10
99.8079427085
 20
204.499446006
 30
0.0
 10
97.062859346
 20
200.9675652528
 30
0.0
 10
93.8704675975
 20
198.011852284
 30
0.0
 10
91.4647885227
 20
196.459635385
 30
0.0
 10
90.222115155
 20
195.8137676155
 30
0.0
  0
SPLINE
  5
37E
100
AcDbEntity
  8
0
100
AcDbSpline
 62
7
  6
CONTINUOUS
 70
0
 71
3
 72
14
 73
10
 74
0
 42
0.0000001
 43
0.0000001
 44
0.0000000001
 40
0.0
 40
0.0
 40
0.0
 40
0.0
 40
0.2688261149
 40
0.4006428374
 40
0.5286232606
 40
0.6520919818
 40
0.7711156404
 40
0.8865593466
 40
1.0
 40
1.0
 40
1.0
 40
1.0
 10
90.222115155
 20
195.8137676155
 30
0.0
 10
90.1725268277
 20
195.0623554565
 30
0.0
 10
89.9022613631
 20
193.9419764405
 30
0.0
 10
89.1843382437
 20
192.64010913
 30
0.0
 10
88.4961105933
 20
191.8068469802
 30
0.0
 10
87.6833113729
 20
191.1497712587
 30
0.0
 10
86.7787883328
 20
190.6976109154
 30
0.0
 10
85.8214739616
 20
190.4722372932
 30
0.0
 10
85.1726052413
 20
190.481573759
 30
0.0
 10
84.857900834
 20
190.5256397511
 30
0.0
  0
SPLINE
  5
37F
100
AcDbEntity
  8
0
100
AcDbSpline
 62
7
  6
CONTINUOUS
 70
0
 71
3
 72
15
 73
11
 74
0
 42
0.0000001
 43
0.0000001
 44
0.0000000001
 40
0.0
 40
0.0
 40
0.0
 40
0.0
 40
0.135559199
 40
0.2683334977
 40
0.3978337546
 40
0.5238390963
 40
0.6464592831
 40
0.7661408694
 40
0.8836514322
 40
1.0
 40
1.0
 40
1.0
 40
1.0
 10
60.9617774711
 20
215.0983790608
 30
0.0
 10
61.1493819638
 20
213.8467648134
 30
0.0
 10
61.6846716755
 20
211.3902428725
 30
0.0
 10
62.9698696371
 20
207.8929596808
 30
0.0
 10
64.7020827792
 20
204.6933778098
 30
0.0
 10
66.8424114223
 20
201.8679021125
 30
0.0
 10
69.3421864879
 20
199.4840798318
 30
0.0
 10
72.14424196
 20
197.6002881056
 30
0.0
 10
75.1811167467
 20
196.2641857503
 30
0.0
 10
77.32040619
 20
195.7599480117
 30
0.0
 10
78.3961490195
 20
195.6092749922
 30
0.0
  0
SPLINE
  5
380
100
AcDbEntity
  8
0
100
AcDbSpline
 62
7
  6
CONTINUOUS
 70
0
 71
3
 72
11
 73
7
 74
0
 42
0.0000001
 43
0.0000001
 44
0.0000000001
 40
0.0
 40
0.0
 40
0.0
 40
0.0
 40
0.2685841875
 40
0.5241423208
 40
0.7663580625
 40
1.0
 40
1.0
 40
1.0
 40
1.0
 10
82.7281815543
 20
195.1970641445
 30
0.0
 10
82.7793359311
 20
194.855784755
 30
0.0
 10
82.9667706314
 20
194.198632034
 30
0.0
 10
83.5020549453
 20
193.3546318096
 30
0.0
 10
84.2433450792
 20
192.7487538936
 30
0.0
 10
84.8380095956
 20
192.5479698794
 30
0.0
 10
85.1352978936
 20
192.5062880128
 30
0.0
  0
SPLINE
  5
381
100
AcDbEntity
  8
0
100
AcDbSpline
 62
7
  6
CONTINUOUS
 70
0
 71
3
 72
16
 73
12
 74
0
 42
0.0000001
 43
0.0000001
 44
0.0000000001
 40
0.0
 40
0.0
 40
0.0
 40
0.0
 40
0.0845966678
 40
0.1344271136
 40
0.1900629507
 40
0.3176484217
 40
0.4617926671
 40
0.612614321
 40
0.7589147597
 40
0.8903588337
 40
1.0
 40
1.0
 40
1.0
 40
1.0
 10
59.1658349133
 20
250.9316935703
 30
0.0
 10
59.2752112711
 20
250.9835339305
 30
0.0
 10
59.421273416
 20
251.1254930334
 30
0.0
 10
59.5487047355
 20
251.3658588078
 30
0.0
 10
59.6548868002
 20
251.6836823679
 30
0.0
 10
59.7072354215
 20
252.1537964174
 30
0.0
 10
59.6581750142
 20
252.7591461974
 30
0.0
 10
59.5036199852
 20
253.3741856512
 30
0.0
 10
59.2581352427
 20
253.9396113757
 30
0.0
 10
58.9463672086
 20
254.4015325793
 30
0.0
 10
58.6845224384
 20
254.6366530306
 30
0.0
 10
58.5486800186
 20
254.7151130895
 30
0.0
  0
SPLINE
  5
382
100
AcDbEntity
  8
0
100
AcDbSpline
 62
7
  6
CONTINUOUS
 70
0
 71
3
 72
9
 73
5
 74
0
 42
0.0000001
 43
0.0000001
 44
0.0000000001
 40
0.0
 40
0.0
 40
0.0
 40
0.0
 40
0.5075893592
 40
1.0
 40
1.0
 40
1.0
 40
1.0
 10
36.4746134957
 20
217.6341018405
 30
0.0
 10
36.7542571988
 20
215.7684426661
 30
0.0
 10
37.6333435639
 20
212.1334209018
 30
0.0
 10
39.182708731
 20
208.725228884
 30
0.0
 10
40.1071207415
 20
207.1457722933
 30
0.0
  0
SPLINE
  5
383
100
AcDbEntity
  8
0
100
AcDbSpline
 62
7
  6
CONTINUOUS
 70
0
 71
3
 72
13
 73
9
 74
0
 42
0.0000001
 43
0.0000001
 44
0.0000000001
 40
0.0
 40
0.0
 40
0.0
 40
0.0
 40
0.2613874767
 40
0.5135754965
 40
0.6369414743
 40
0.7588288191
 40
0.8796794244
 40
1.0
 40
1.0
 40
1.0
 40
1.0
 10
40.1071207415
 20
207.1457722933
 30
0.0
 10
40.9775576874
 20
205.6585378617
 30
0.0
 10
42.9781913935
 20
202.8935467062
 30
0.0
 10
46.1323613707
 20
200.0666203995
 30
0.0
 10
48.9192698624
 20
198.3257939449
 30
0.0
 10
51.1070561018
 20
197.2926184243
 30
0.0
 10
53.3831534328
 20
196.5345974553
 30
0.0
 10
54.9459493895
 20
196.2176866396
 30
0.0
 10
55.7315120464
 20
196.1076683487
 30
0.0
  0
SPLINE
  5
384
100
AcDbEntity
  8
0
100
AcDbSpline
 62
7
  6
CONTINUOUS
 70
0
 71
3
 72
11
 73
7
 74
0
 42
0.0000001
 43
0.0000001
 44
0.0000000001
 40
0.0
 40
0.0
 40
0.0
 40
0.0
 40
0.2615202894
 40
0.5138487501
 40
0.7589408341
 40
1.0
 40
1.0
 40
1.0
 40
1.0
 10
59.5113141777
 20
195.7834377833
 30
0.0
 10
59.6827229548
 20
195.495570491
 30
0.0
 10
60.0753378829
 20
194.9605410236
 30
0.0
 10
60.8084172196
 20
194.3102841209
 30
0.0
 10
61.6462678504
 20
193.8533727128
 30
0.0
 10
62.2549798097
 20
193.691242024
 30
0.0
 10
62.5608149357
 20
193.6483925632
 30
0.0
  0
SPLINE
  5
385
100
AcDbEntity
  8
0
100
AcDbSpline
 62
7
  6
CONTINUOUS
 70
0
 71
3
 72
11
 73
7
 74
0
 42
0.0000001
 43
0.0000001
 44
0.0000000001
 40
0.0
 40
0.0
 40
0.0
 40
0.0
 40
0.2708481726
 40
0.5268350093
 40
0.7692534445
 40
1.0
 40
1.0
 40
1.0
 40
1.0
 10
44.8610284217
 20
242.3768170668
 30
0.0
 10
45.6329732534
 20
243.9549764138
 30
0.0
 10
47.270121954
 20
246.9613891642
 30
0.0
 10
50.0909471227
 20
251.0885404737
 30
0.0
 10
53.1893676988
 20
254.6758455726
 30
0.0
 10
55.4788292683
 20
256.7357658574
 30
0.0
 10
56.6590178907
 20
257.6562737526
 30
0.0
  0
SPLINE
  5
386
100
AcDbEntity
  8
0
100
AcDbSpline
 62
7
  6
CONTINUOUS
 70
0
 71
3
 72
9
 73
5
 74
0
 42
0.0000001
 43
0.0000001
 44
0.0000000001
 40
0.0
 40
0.0
 40
0.0
 40
0.0
 40
0.2570168761
 40
1.0
 40
1.0
 40
1.0
 40
1.0
 10
56.6590178907
 20
257.6562737526
 30
0.0
 10
56.6993158092
 20
257.6877047896
 30
0.0
 10
56.8615157143
 20
257.8028233084
 30
0.0
 10
57.0466763709
 20
257.8861899955
 30
0.0
 10
57.1893779346
 20
257.9244333363
 30
0.0
  0
SPLINE
  5
387
100
AcDbEntity
  8
0
100
AcDbSpline
 62
7
  6
CONTINUOUS
 70
0
 71
3
 72
9
 73
5
 74
0
 42
0.0000001
 43
0.0000001
 44
0.0000000001
 40
0.0
 40
0.0
 40
0.0
 40
0.0
 40
0.5310278794
 40
1.0
 40
1.0
 40
1.0
 40
1.0
 10
58.5486800186
 20
254.7151130895
 30
0.0
 10
58.467378117
 20
254.7620715579
 30
0.0
 10
58.3010597719
 20
254.8320767748
 30
0.0
 10
58.1178486041
 20
254.832184046
 30
0.0
 10
58.0372568991
 20
254.8126854438
 30
0.0
  0
SPLINE
  5
388
100
AcDbEntity
  8
0
100
AcDbSpline
 62
7
  6
CONTINUOUS
 70
0
 71
3
 72
13
 73
9
 74
0
 42
0.0000001
 43
0.0000001
 44
0.0000000001
 40
0.0
 40
0.0
 40
0.0
 40
0.0
 40
0.1183575882
 40
0.2397562887
 40
0.4895521347
 40
0.6172191962
 40
0.7455028294
 40
1.0
 40
1.0
 40
1.0
 40
1.0
 10
47.323833078
 20
246.8793719574
 30
0.0
 10
46.3143397476
 20
246.0847312056
 30
0.0
 10
44.3895170053
 20
244.3160262405
 30
0.0
 10
41.0189452611
 20
240.1908863602
 30
0.0
 10
38.4844264039
 20
235.321581948
 30
0.0
 10
36.9055471502
 20
230.0522668846
 30
0.0
 10
35.9840645132
 20
224.5781676662
 30
0.0
 10
36.0651202543
 20
220.3660597362
 30
0.0
 10
36.4746134957
 20
217.6341018405
 30
0.0
  0
SPLINE
  5
389
100
AcDbEntity
  8
0
100
AcDbSpline
 62
7
  6
CONTINUOUS
 70
0
 71
3
 72
11
 73
7
 74
0
 42
0.0000001
 43
0.0000001
 44
0.0000000001
 40
0.0
 40
0.0
 40
0.0
 40
0.0
 40
0.2410678337
 40
0.4884563632
 40
0.74173397
 40
1.0
 40
1.0
 40
1.0
 40
1.0
 10
98.5380428851
 20
240.4695255372
 30
0.0
 10
99.3204800218
 20
239.5398985266
 30
0.0
 10
100.7629988593
 20
237.531620386
 30
0.0
 10
102.4914631682
 20
234.203366308
 30
0.0
 10
103.7795265382
 20
230.5896567084
 30
0.0
 10
104.3225322341
 20
228.0605747786
 30
0.0
 10
104.5154979779
 20
226.7731926337
 30
0.0
  0
SPLINE
  5
38A
100
AcDbEntity
  8
0
100
AcDbSpline
 62
7
  6
CONTINUOUS
 70
0
 71
3
 72
11
 73
7
 74
0
 42
0.0000001
 43
0.0000001
 44
0.0000000001
 40
0.0
 40
0.0
 40
0.0
 40
0.0
 40
0.2857234763
 40
0.5519434334
 40
0.7913645467
 40
1.0
 40
1.0
 40
1.0
 40
1.0
 10
63.9135804191
 20
255.4752062849
 30
0.0
 10
63.7786922493
 20
255.8160069738
 30
0.0
 10
63.4805255343
 20
256.4603779842
 30
0.0
 10
62.9384235375
 20
257.3225471669
 30
0.0
 10
62.336920651
 20
258.0187014011
 30
0.0
 10
61.8796101644
 20
258.3768594674
 30
0.0
 10
61.6478536789
 20
258.5107177093
 30
0.0
  0
SPLINE
  5
38B
100
AcDbEntity
  8
0
100
AcDbSpline
 62
7
  6
CONTINUOUS
 70
0
 71
3
 72
10
 73
6
 74
0
 42
0.0000001
 43
0.0000001
 44
0.0000000001
 40
0.0
 40
0.0
 40
0.0
 40
0.0
 40
0.529928211
 40
0.769279712
 40
1.0
 40
1.0
 40
1.0
 40
1.0
 10
61.6478536789
 20
258.5107177093
 30
0.0
 10
61.4317263686
 20
258.6355488299
 30
0.0
 10
61.0874448392
 20
258.7774805252
 30
0.0
 10
60.614938325
 20
258.8155658929
 30
0.0
 10
60.3935130916
 20
258.7833130099
 30
0.0
 10
60.2885515949
 20
258.7551838277
 30
0.0
  0
SPLINE
  5
38C
100
AcDbEntity
  8
0
100
AcDbSpline
 62
7
  6
CONTINUOUS
 70
0
 71
3
 72
13
 73
9
 74
0
 42
0.0000001
 43
0.0000001
 44
0.0000000001
 40
0.0
 40
0.0
 40
0.0
 40
0.0
 40
0.1155201959
 40
0.2347820556
 40
0.3577536653
 40
0.4839600125
 40
0.7417674848
 40
1.0
 40
1.0
 40
1.0
 40
1.0
 10
75.2023347794
 20
244.2763060754
 30
0.0
 10
73.9875573505
 20
243.725710505
 30
0.0
 10
71.6243230345
 20
242.3591215306
 30
0.0
 10
68.4695131777
 20
239.6618751416
 30
0.0
 10
65.7416418799
 20
236.3712649332
 30
0.0
 10
62.7690684216
 20
231.3040446755
 30
0.0
 10
60.5489982364
 20
224.1070570963
 30
0.0
 10
60.5198311781
 20
218.0468493718
 30
0.0
 10
60.9617774711
 20
215.0983790608
 30
0.0
  0
SPLINE
  5
38D
100
AcDbEntity
  8
0
100
AcDbSpline
 62
7
  6
CONTINUOUS
 70
0
 71
3
 72
11
 73
7
 74
0
 42
0.0000001
 43
0.0000001
 44
0.0000000001
 40
0.0
 40
0.0
 40
0.0
 40
0.0
 40
0.2086354533
 40
0.4480565666
 40
0.7142765237
 40
1.0
 40
1.0
 40
1.0
 40
1.0
 10
58.5486800186
 20
257.6799672179
 30
0.0
 10
58.7804365041
 20
257.5461089759
 30
0.0
 10
59.2377469907
 20
257.1879509096
 30
0.0
 10
59.8392498773
 20
256.4917966753
 30
0.0
 10
60.3813518741
 20
255.6296274925
 30
0.0
 10
60.6795185891
 20
254.9852564819
 30
0.0
 10
60.8144067589
 20
254.644455793
 30
0.0
  0
SPLINE
  5
38E
100
AcDbEntity
  8
0
100
AcDbSpline
 62
7
  6
CONTINUOUS
 70
0
 71
3
 72
13
 73
9
 74
0
 42
0.0000001
 43
0.0000001
 44
0.0000000001
 40
0.0
 40
0.0
 40
0.0
 40
0.0
 40
0.2566462338
 40
0.5134956789
 40
0.6397463624
 40
0.7632148507
 40
0.8833661615
 40
1.0
 40
1.0
 40
1.0
 40
1.0
 10
59.3088848523
 20
214.655312132
 30
0.0
 10
58.8634752987
 20
217.6268877862
 30
0.0
 10
58.8323451725
 20
223.7292472989
 30
0.0
 10
60.8590542076
 20
231.0455788143
 30
0.0
 10
63.6288310967
 20
236.3106175606
 30
0.0
 10
66.2002577788
 20
239.8165813455
 30
0.0
 10
69.2055670773
 20
242.8002031723
 30
0.0
 10
71.4816108566
 20
244.4109812006
 30
0.0
 10
72.6621040889
 20
245.0973534178
 30
0.0
  0
SPLINE
  5
38F
100
AcDbEntity
  8
0
100
AcDbSpline
 62
7
  6
CONTINUOUS
 70
0
 71
3
 72
9
 73
5
 74
0
 42
0.0000001
 43
0.0000001
 44
0.0000000001
 40
0.0
 40
0.0
 40
0.0
 40
0.0
 40
0.5312871198
 40
1.0
 40
1.0
 40
1.0
 40
1.0
 10
58.5486800186
 20
250.9918079051
 30
0.0
 10
58.6320141579
 20
250.9436756539
 30
0.0
 10
58.802857825
 20
250.8723097075
 30
0.0
 10
58.9909740007
 20
250.8755407555
 30
0.0
 10
59.072981179
 20
250.8975185214
 30
0.0
  0
SPLINE
  5
390
100
AcDbEntity
  8
0
100
AcDbSpline
 62
7
  6
CONTINUOUS
 70
0
 71
3
 72
13
 73
9
 74
0
 42
0.0000001
 43
0.0000001
 44
0.0000000001
 40
0.0
 40
0.0
 40
0.0
 40
0.0
 40
0.1154282857
 40
0.2346059073
 40
0.3575310456
 40
0.483730465
 40
0.741622157
 40
1.0
 40
1.0
 40
1.0
 40
1.0
 10
88.4499739198
 20
197.0751185101
 30
0.0
 10
89.6754368774
 20
197.6168450729
 30
0.0
 10
92.0614600047
 20
198.9698370108
 30
0.0
 10
95.2499722081
 20
201.6585171208
 30
0.0
 10
98.0097089477
 20
204.9509097672
 30
0.0
 10
101.0201579506
 20
210.0333976131
 30
0.0
 10
103.272381219
 20
217.2673015629
 30
0.0
 10
103.3071862647
 20
223.3640784236
 30
0.0
 10
102.8626053591
 20
226.330125705
 30
0.0
  0
SPLINE
  5
391
100
AcDbEntity
  8
0
100
AcDbSpline
 62
7
  6
CONTINUOUS
 70
0
 71
3
 72
11
 73
7
 74
0
 42
0.0000001
 43
0.0000001
 44
0.0000000001
 40
0.0
 40
0.0
 40
0.0
 40
0.0
 40
0.2596871203
 40
0.5134861543
 40
0.760374677
 40
1.0
 40
1.0
 40
1.0
 40
1.0
 10
102.8626053591
 20
226.330125705
 30
0.0
 10
102.6595718904
 20
227.6846752601
 30
0.0
 10
102.0662640538
 20
230.3388341562
 30
0.0
 10
100.6122887644
 20
234.0928853349
 30
0.0
 10
98.6412090045
 20
237.482405588
 30
0.0
 10
96.9903708284
 20
239.4666131238
 30
0.0
 10
96.0980459092
 20
240.3616659455
 30
0.0
  0
SPLINE
  5
392
100
AcDbEntity
  8
0
100
AcDbSpline
 62
7
  6
CONTINUOUS
 70
0
 71
3
 72
15
 73
11
 74
0
 42
0.0000001
 43
0.0000001
 44
0.0000000001
 40
0.0
 40
0.0
 40
0.0
 40
0.0
 40
0.1162234651
 40
0.233891421
 40
0.3538564747
 40
0.4767414775
 40
0.602884873
 40
0.7323350545
 40
0.8648601483
 40
1.0
 40
1.0
 40
1.0
 40
1.0
 10
55.7427287381
 20
196.1544785027
 30
0.0
 10
54.622044703
 20
196.3923123207
 30
0.0
 10
52.4042685415
 20
197.0711929103
 30
0.0
 10
49.279975554
 20
198.6578184598
 30
0.0
 10
46.4100866341
 20
200.780823763
 30
0.0
 10
43.8569737728
 20
203.3919734896
 30
0.0
 10
41.6735312308
 20
206.4337378524
 30
0.0
 10
39.9048888587
 20
209.8404020907
 30
0.0
 10
38.5872469549
 20
213.5382620176
 30
0.0
 10
38.0316551822
 20
216.1262984377
 30
0.0
 10
37.834191621
 20
217.443688032
 30
0.0
  0
SPLINE
  5
393
100
AcDbEntity
  8
0
100
AcDbSpline
 62
7
  6
CONTINUOUS
 70
0
 71
3
 72
16
 73
12
 74
0
 42
0.0000001
 43
0.0000001
 44
0.0000000001
 40
0.0
 40
0.0
 40
0.0
 40
0.0
 40
0.0843024072
 40
0.1338452022
 40
0.189104281
 40
0.3157859603
 40
0.459084969
 40
0.6094675164
 40
0.7560292012
 40
0.8885689063
 40
1.0
 40
1.0
 40
1.0
 40
1.0
 10
57.9315251238
 20
254.7752274244
 30
0.0
 10
57.8235212384
 20
254.7240375655
 30
0.0
 10
57.6789962865
 20
254.5847119708
 30
0.0
 10
57.5519752679
 20
254.3484505522
 30
0.0
 10
57.4454884663
 20
254.0363244956
 30
0.0
 10
57.390814431
 20
253.5738891783
 30
0.0
 10
57.4348403324
 20
252.9768483606
 30
0.0
 10
57.582520036
 20
252.3676055775
 30
0.0
 10
57.8202271787
 20
251.8036853911
 30
0.0
 10
58.1246174492
 20
251.3377085647
 30
0.0
 10
58.3809179478
 20
251.0961030102
 30
0.0
 10
58.5147887697
 20
251.0122149089
 30
0.0
  0
SPLINE
  5
394
100
AcDbEntity
  8
0
100
AcDbSpline
 62
7
  6
CONTINUOUS
 70
0
 71
3
 72
10
 73
6
 74
0
 42
0.0000001
 43
0.0000001
 44
0.0000000001
 40
0.0
 40
0.0
 40
0.0
 40
0.0
 40
0.230720288
 40
0.470071789
 40
1.0
 40
1.0
 40
1.0
 40
1.0
 10
57.1893779346
 20
257.9244333363
 30
0.0
 10
57.2943394312
 20
257.9525625185
 30
0.0
 10
57.5157646646
 20
257.9848154015
 30
0.0
 10
57.9882711788
 20
257.9467300338
 30
0.0
 10
58.3325527082
 20
257.8047983384
 30
0.0
 10
58.5486800186
 20
257.6799672179
 30
0.0
  0
SPLINE
  5
395
100
AcDbEntity
  8
0
100
AcDbSpline
 62
7
  6
CONTINUOUS
 70
0
 71
3
 72
15
 73
11
 74
0
 42
0.0000001
 43
0.0000001
 44
0.0000000001
 40
0.0
 40
0.0
 40
0.0
 40
0.0
 40
0.1163516774
 40
0.2338617031
 40
0.3535430217
 40
0.4761629025
 40
0.6021678527
 40
0.731667812
 40
0.8644408058
 40
1.0
 40
1.0
 40
1.0
 40
1.0
 10
78.1187486882
 20
193.6286025018
 30
0.0
 10
76.958098402
 20
193.791132024
 30
0.0
 10
74.6499995473
 20
194.3351728094
 30
0.0
 10
71.3735235358
 20
195.7767281289
 30
0.0
 10
68.3504182941
 20
197.8091530837
 30
0.0
 10
65.6534408898
 20
200.3810540855
 30
0.0
 10
63.3442631897
 20
203.4294453093
 30
0.0
 10
61.4754039884
 20
206.8814467212
 30
0.0
 10
60.0888059607
 20
210.654631703
 30
0.0
 10
59.5112905276
 20
213.3049509372
 30
0.0
 10
59.3088848523
 20
214.655312132
 30
0.0
  0
SPLINE
  5
396
100
AcDbEntity
  8
0
100
AcDbSpline
 62
7
  6
CONTINUOUS
 70
0
 71
3
 72
11
 73
7
 74
0
 42
0.0000001
 43
0.0000001
 44
0.0000000001
 40
0.0
 40
0.0
 40
0.0
 40
0.0
 40
0.2379828802
 40
0.4817004539
 40
0.7351967732
 40
1.0
 40
1.0
 40
1.0
 40
1.0
 10
84.857900834
 20
190.5256397511
 30
0.0
 10
84.4869343308
 20
190.5775837551
 30
0.0
 10
83.7474188852
 20
190.7954812076
 30
0.0
 10
82.764099481
 20
191.4325147067
 30
0.0
 10
81.9566440194
 20
192.3367078737
 30
0.0
 10
81.572957677
 20
193.0665204351
 30
0.0
 10
81.420572137
 20
193.4544657535
 30
0.0
  0
SPLINE
  5
397
100
AcDbEntity
  8
0
100
AcDbSpline
 62
7
  6
CONTINUOUS
 70
0
 71
3
 72
9
 73
5
 74
0
 42
0.0000001
 43
0.0000001
 44
0.0000000001
 40
0.0
 40
0.0
 40
0.0
 40
0.0
 40
0.2535914456
 40
1.0
 40
1.0
 40
1.0
 40
1.0
 10
65.0804483349
 20
238.7867713788
 30
0.0
 10
65.2934625224
 20
239.0592732028
 30
0.0
 10
66.1505689698
 20
240.1202691479
 30
0.0
 10
67.0788236733
 20
241.1244520655
 30
0.0
 10
67.8116416571
 20
241.83112723
 30
0.0
  0
SPLINE
  5
398
100
AcDbEntity
  8
0
100
AcDbSpline
 62
7
  6
CONTINUOUS
 70
0
 71
3
 72
12
 73
8
 74
0
 42
0.0000001
 43
0.0000001
 44
0.0000000001
 40
0.0
 40
0.0
 40
0.0
 40
0.0
 40
0.2514385911
 40
0.5046854255
 40
0.6307845196
 40
0.7557225241
 40
1.0
 40
1.0
 40
1.0
 40
1.0
 10
37.834191621
 20
217.443688032
 30
0.0
 10
37.5044632541
 20
219.6434899442
 30
0.0
 10
37.3046445376
 20
224.1396598018
 30
0.0
 10
38.1789015501
 20
229.6900625017
 30
0.0
 10
39.5310350897
 20
233.9491439247
 30
0.0
 10
41.2780765281
 20
237.9730925969
 30
0.0
 10
43.0461236635
 20
240.7591455565
 30
0.0
 10
44.4031763214
 20
242.440940901
 30
0.0
  0
SPLINE
  5
399
100
AcDbEntity
  8
0
100
AcDbSpline
 62
7
  6
CONTINUOUS
 70
0
 71
3
 72
12
 73
8
 74
0
 42
0.0000001
 43
0.0000001
 44
0.0000000001
 40
0.0
 40
0.0
 40
0.0
 40
0.0
 40
0.244602192
 40
0.3695836434
 40
0.495663137
 40
0.748756442
 40
1.0
 40
1.0
 40
1.0
 40
1.0
 10
44.5192664489
 20
241.6664388862
 30
0.0
 10
43.239125591
 20
240.0287981134
 30
0.0
 10
41.5743416911
 20
237.3293947295
 30
0.0
 10
39.9330228002
 20
233.4451991252
 30
0.0
 10
38.6669106068
 20
229.3451681573
 30
0.0
 10
37.8553922802
 20
224.0136213555
 30
0.0
 10
38.0548945541
 20
219.6991472703
 30
0.0
 10
38.3713817221
 20
217.5876847838
 30
0.0
  0
SPLINE
  5
39A
100
AcDbEntity
  8
0
100
AcDbSpline
 62
7
  6
CONTINUOUS
 70
0
 71
3
 72
15
 73
11
 74
0
 42
0.0000001
 43
0.0000001
 44
0.0000000001
 40
0.0
 40
0.0
 40
0.0
 40
0.0
 40
0.1355591942
 40
0.268332188
 40
0.3978321473
 40
0.5238370975
 40
0.6464569783
 40
0.7661382969
 40
0.8836483226
 40
1.0
 40
1.0
 40
1.0
 40
1.0
 10
38.3713817221
 20
217.5876847838
 30
0.0
 10
38.5737873974
 20
216.237323589
 30
0.0
 10
39.1513028305
 20
213.5870043548
 30
0.0
 10
40.5379008582
 20
209.813819373
 30
0.0
 10
42.4067600595
 20
206.3618179611
 30
0.0
 10
44.7159377597
 20
203.3134267373
 30
0.0
 10
47.412915164
 20
200.7415257355
 30
0.0
 10
50.4360204056
 20
198.7091007807
 30
0.0
 10
53.7124964171
 20
197.2675454612
 30
0.0
 10
56.0205952718
 20
196.7235046758
 30
0.0
 10
57.181245558
 20
196.5609751536
 30
0.0
  0
SPLINE
  5
39B
100
AcDbEntity
  8
0
100
AcDbSpline
 62
7
  6
CONTINUOUS
 70
0
 71
3
 72
14
 73
10
 74
0
 42
0.0000001
 43
0.0000001
 44
0.0000000001
 40
0.0
 40
0.0
 40
0.0
 40
0.0
 40
0.1127556118
 40
0.2278700507
 40
0.3471087597
 40
0.4712770028
 40
0.600157247
 40
0.7326274336
 40
1.0
 40
1.0
 40
1.0
 40
1.0
 10
85.1352978936
 20
192.5062880128
 30
0.0
 10
85.3543639272
 20
192.4755734464
 30
0.0
 10
85.8079005348
 20
192.4745104541
 30
0.0
 10
86.4720963889
 20
192.6551346369
 30
0.0
 10
87.0897171467
 20
193.0059916886
 30
0.0
 10
87.629450503
 20
193.5067867831
 30
0.0
 10
88.0655610589
 20
194.1316769713
 30
0.0
 10
88.4819708807
 20
195.086644636
 30
0.0
 10
88.5834035279
 20
195.8896970419
 30
0.0
 10
88.5492003548
 20
196.4131235975
 30
0.0
  0
SPLINE
  5
39C
100
AcDbEntity
  8
0
100
AcDbSpline
 62
7
  6
CONTINUOUS
 70
0
 71
3
 72
14
 73
10
 74
0
 42
0.0000001
 43
0.0000001
 44
0.0000000001
 40
0.0
 40
0.0
 40
0.0
 40
0.0
 40
0.1119330831
 40
0.2300142546
 40
0.353753845
 40
0.4819202718
 40
0.6127605122
 40
0.7442323129
 40
1.0
 40
1.0
 40
1.0
 40
1.0
 10
17.8992123852
 20
249.4413877144
 30
0.0
 10
16.6870578685
 20
249.2748740856
 30
0.0
 10
14.2288597574
 20
248.6537109063
 30
0.0
 10
10.7147941616
 20
246.9919236747
 30
0.0
 10
7.3987222498
 20
244.6431285914
 30
0.0
 10
4.4039103977
 20
241.6981601339
 30
0.0
 10
1.8383874028
 20
238.2647957045
 30
0.0
 10
-0.8526896269
 20
233.2686465488
 30
0.0
 10
-2.0239258955
 20
229.1066110169
 30
0.0
 10
-2.3173948123
 20
226.3262652017
 30
0.0
  0
SPLINE
  5
39D
100
AcDbEntity
  8
0
100
AcDbSpline
 62
7
  6
CONTINUOUS
 70
0
 71
3
 72
13
 73
9
 74
0
 42
0.0000001
 43
0.0000001
 44
0.0000000001
 40
0.0
 40
0.0
 40
0.0
 40
0.0
 40
0.1146240222
 40
0.2326629172
 40
0.3543995695
 40
0.4796782014
 40
0.7376709828
 40
1.0
 40
1.0
 40
1.0
 40
1.0
 10
51.7954544005
 20
258.7914178957
 30
0.0
 10
50.2002099438
 20
258.2967760823
 30
0.0
 10
47.0544014655
 20
256.9694238497
 30
0.0
 10
42.7244633016
 20
254.1083802658
 30
0.0
 10
38.8390832609
 20
250.4376088159
 30
0.0
 10
34.3634573077
 20
244.5622607839
 30
0.0
 10
30.4774932879
 20
235.8354660819
 30
0.0
 10
29.4643122382
 20
228.2021855706
 30
0.0
 10
29.5090016789
 20
224.3800835823
 30
0.0
  0
SPLINE
  5
39E
100
AcDbEntity
  8
0
100
AcDbSpline
 62
7
  6
CONTINUOUS
 70
0
 71
3
 72
9
 73
5
 74
0
 42
0.0000001
 43
0.0000001
 44
0.0000000001
 40
0.0
 40
0.0
 40
0.0
 40
0.0
 40
0.4763795102
 40
1.0
 40
1.0
 40
1.0
 40
1.0
 10
0.2235723711
 20
220.4081038877
 30
0.0
 10
0.2235755772
 20
220.4830546221
 30
0.0
 10
0.2535947053
 20
220.6413253596
 30
0.0
 10
0.3328930936
 20
220.7800286278
 30
0.0
 10
0.3817721289
 20
220.8463449637
 30
0.0
  0
SPLINE
  5
39F
100
AcDbEntity
  8
0
100
AcDbSpline
 62
7
  6
CONTINUOUS
 70
0
 71
3
 72
9
 73
5
 74
0
 42
0.0000001
 43
0.0000001
 44
0.0000000001
 40
0.0
 40
0.0
 40
0.0
 40
0.0
 40
0.2397335524
 40
1.0
 40
1.0
 40
1.0
 40
1.0
 10
0.3817721289
 20
220.8463449637
 30
0.0
 10
0.3917034777
 20
220.8598192611
 30
0.0
 10
0.4344743272
 20
220.9150307505
 30
0.0
 10
0.4822550835
 20
220.9662811101
 30
0.0
 10
0.5204801492
 20
221.0031149932
 30
0.0
  0
SPLINE
  5
3A0
100
AcDbEntity
  8
0
100
AcDbSpline
 62
7
  6
CONTINUOUS
 70
0
 71
3
 72
11
 73
7
 74
0
 42
0.0000001
 43
0.0000001
 44
0.0000000001
 40
0.0
 40
0.0
 40
0.0
 40
0.0
 40
0.2174820339
 40
0.4497385116
 40
0.7083757058
 40
1.0
 40
1.0
 40
1.0
 40
1.0
 10
0.2235723761
 20
213.9726782474
 30
0.0
 10
0.2235697894
 20
213.9120314085
 30
0.0
 10
0.2426127147
 20
213.7859816155
 30
0.0
 10
0.3254203452
 20
213.6044141475
 30
0.0
 10
0.459352429
 20
213.4303070951
 30
0.0
 10
0.5733525178
 20
213.3265389345
 30
0.0
 10
0.6369505723
 20
213.2758578892
 30
0.0
  0
SPLINE
  5
3A1
100
AcDbEntity
  8
0
100
AcDbSpline
 62
7
  6
CONTINUOUS
 70
0
 71
3
 72
9
 73
5
 74
0
 42
0.0000001
 43
0.0000001
 44
0.0000000001
 40
0.0
 40
0.0
 40
0.0
 40
0.0
 40
0.2562153124
 40
1.0
 40
1.0
 40
1.0
 40
1.0
 10
39.3507192995
 20
258.5387337352
 30
0.0
 10
39.2426476384
 20
258.6011539196
 30
0.0
 10
38.8174491363
 20
258.8388122337
 30
0.0
 10
38.3783925475
 20
259.0519447008
 30
0.0
 10
38.0450119942
 20
259.193781871
 30
0.0
  0
SPLINE
  5
3A2
100
AcDbEntity
  8
0
100
AcDbSpline
 62
7
  6
CONTINUOUS
 70
0
 71
3
 72
9
 73
5
 74
0
 42
0.0000001
 43
0.0000001
 44
0.0000000001
 40
0.0
 40
0.0
 40
0.0
 40
0.0
 40
0.2663324914
 40
1.0
 40
1.0
 40
1.0
 40
1.0
 10
42.8775523182
 20
255.7685293046
 30
0.0
 10
42.5956227016
 20
256.0505129586
 30
0.0
 10
41.5091017449
 20
257.0799984768
 30
0.0
 10
40.3018925107
 20
257.9893537534
 30
0.0
 10
39.3507192995
 20
258.5387337352
 30
0.0
  0
SPLINE
  5
3A3
100
AcDbEntity
  8
0
100
AcDbSpline
 62
7
  6
CONTINUOUS
 70
0
 71
3
 72
9
 73
5
 74
0
 42
0.0000001
 43
0.0000001
 44
0.0000000001
 40
0.0
 40
0.0
 40
0.0
 40
0.0
 40
0.2576656782
 40
1.0
 40
1.0
 40
1.0
 40
1.0
 10
34.8052645977
 20
255.4816304542
 30
0.0
 10
34.6829599622
 20
255.5522713403
 30
0.0
 10
34.2036116727
 20
255.8181634971
 30
0.0
 10
33.704984268
 20
256.0498795504
 30
0.0
 10
33.3258591502
 20
256.1976637576
 30
0.0
  0
SPLINE
  5
3A4
100
AcDbEntity
  8
0
100
AcDbSpline
 62
7
  6
CONTINUOUS
 70
0
 71
3
 72
9
 73
5
 74
0
 42
0.0000001
 43
0.0000001
 44
0.0000000001
 40
0.0
 40
0.0
 40
0.0
 40
0.0
 40
0.2599712953
 40
1.0
 40
1.0
 40
1.0
 40
1.0
 10
36.7512500297
 20
254.1175574452
 30
0.0
 10
36.5923548533
 20
254.2487666799
 30
0.0
 10
35.971938342
 20
254.7420759322
 30
0.0
 10
35.3132116267
 20
255.1882496837
 30
0.0
 10
34.8052645977
 20
255.4816304542
 30
0.0
  0
SPLINE
  5
3A5
100
AcDbEntity
  8
0
100
AcDbSpline
 62
7
  6
CONTINUOUS
 70
0
 71
3
 72
9
 73
5
 74
0
 42
0.0000001
 43
0.0000001
 44
0.0000000001
 40
0.0
 40
0.0
 40
0.0
 40
0.0
 40
0.4999869449
 40
1.0
 40
1.0
 40
1.0
 40
1.0
 10
12.2392103082
 20
210.2277531218
 30
0.0
 10
12.3320093634
 20
211.2865320796
 30
0.0
 10
12.5146299355
 20
213.4044051969
 30
0.0
 10
12.6991390247
 20
215.522114742
 30
0.0
 10
12.7898315118
 20
216.5811319296
 30
0.0
  0
SPLINE
  5
3A6
100
AcDbEntity
  8
0
100
AcDbSpline
 62
7
  6
CONTINUOUS
 70
0
 71
3
 72
9
 73
5
 74
0
 42
0.0000001
 43
0.0000001
 44
0.0000000001
 40
0.0
 40
0.0
 40
0.0
 40
0.0
 40
0.2501395953
 40
1.0
 40
1.0
 40
1.0
 40
1.0
 10
12.7900252025
 20
216.5811030774
 30
0.0
 10
12.3738616334
 20
216.9141146757
 30
0.0
 10
10.7102100342
 20
218.2455096615
 30
0.0
 10
9.0476504531
 20
219.578270038
 30
0.0
 10
7.8018941356
 20
220.5788134847
 30
0.0
  0
SPLINE
  5
3A7
100
AcDbEntity
  8
0
100
AcDbSpline
 62
7
  6
CONTINUOUS
 70
0
 71
3
 72
11
 73
7
 74
0
 42
0.0000001
 43
0.0000001
 44
0.0000000001
 40
0.0
 40
0.0
 40
0.0
 40
0.0
 40
0.2916243388
 40
0.5502614995
 40
0.7825179471
 40
1.0
 40
1.0
 40
1.0
 40
1.0
 10
0.6369505723
 20
219.7112835295
 30
0.0
 10
0.5733525076
 20
219.7619645831
 30
0.0
 10
0.4593524029
 20
219.865732732
 30
0.0
 10
0.3254203216
 20
220.0398397876
 30
0.0
 10
0.2426127253
 20
220.2214072544
 30
0.0
 10
0.2235697769
 20
220.3474570429
 30
0.0
 10
0.2235723711
 20
220.4081038877
 30
0.0
  0
SPLINE
  5
3A8
100
AcDbEntity
  8
0
100
AcDbSpline
 62
7
  6
CONTINUOUS
 70
0
 71
3
 72
9
 73
5
 74
0
 42
0.0000001
 43
0.0000001
 44
0.0000000001
 40
0.0
 40
0.0
 40
0.0
 40
0.0
 40
0.2431901172
 40
1.0
 40
1.0
 40
1.0
 40
1.0
 10
-2.3053569361
 20
225.5724037274
 30
0.0
 10
-2.3003792314
 20
225.633424948
 30
0.0
 10
-2.2868389541
 20
225.8849066559
 30
0.0
 10
-2.2984319282
 20
226.1373712472
 30
0.0
 10
-2.317324068
 20
226.3269616637
 30
0.0
  0
SPLINE
  5
3A9
100
AcDbEntity
  8
0
100
AcDbSpline
 62
7
  6
CONTINUOUS
 70
0
 71
3
 72
15
 73
11
 74
0
 42
0.0000001
 43
0.0000001
 44
0.0000000001
 40
0.0
 40
0.0
 40
0.0
 40
0.0
 40
0.1306144645
 40
0.2622267897
 40
0.3932970554
 40
0.5223292948
 40
0.6480682917
 40
0.7696700694
 40
0.886852762
 40
1.0
 40
1.0
 40
1.0
 40
1.0
 10
23.5804242025
 20
224.051293687
 30
0.0
 10
23.4929518755
 20
225.8761582254
 30
0.0
 10
23.6207024315
 20
229.5609099864
 30
0.0
 10
24.6912635451
 20
234.9795554278
 30
0.0
 10
26.6009453647
 20
240.1405883575
 30
0.0
 10
29.2824615187
 20
244.852790431
 30
0.0
 10
32.6398048907
 20
248.9425708779
 30
0.0
 10
36.554558846
 20
252.2566224298
 30
0.0
 10
40.8835282366
 20
254.6662808952
 30
0.0
 10
43.9928879486
 20
255.6188984576
 30
0.0
 10
45.5489140051
 20
255.9079085666
 30
0.0
  0
SPLINE
  5
3AA
100
AcDbEntity
  8
0
100
AcDbSpline
 62
7
  6
CONTINUOUS
 70
0
 71
3
 72
9
 73
5
 74
0
 42
0.0000001
 43
0.0000001
 44
0.0000000001
 40
0.0
 40
0.0
 40
0.0
 40
0.0
 40
0.2436859258
 40
1.0
 40
1.0
 40
1.0
 40
1.0
 10
38.3319615644
 20
254.5502139842
 30
0.0
 10
38.4968908281
 20
254.61628708
 30
0.0
 10
39.1777967796
 20
254.8771415109
 30
0.0
 10
39.8741720049
 20
255.0971958436
 30
0.0
 10
40.4061551377
 20
255.2423482993
 30
0.0
  0
LINE
  5
3AB
100
AcDbEntity
  8
0
100
AcDbLine
 62
7
  6
CONTINUOUS
 10
36.7512500297
 20
254.1175574452
 11
38.3320915106
 21
254.5500935733
  0
LINE
  5
3AC
100
AcDbEntity
  8
0
100
AcDbLine
 62
7
  6
CONTINUOUS
 10
27.6270025292
 20
205.4254033471
 11
24.4820468607
 21
207.3236155688
  0
SPLINE
  5
3AD
100
AcDbEntity
  8
0
100
AcDbSpline
 62
7
  6
CONTINUOUS
 70
0
 71
3
 72
13
 73
9
 74
0
 42
0.0000001
 43
0.0000001
 44
0.0000000001
 40
0.0
 40
0.0
 40
0.0
 40
0.0
 40
0.1144551398
 40
0.2320436826
 40
0.3533259167
 40
0.4783320175
 40
0.7365283153
 40
1.0
 40
1.0
 40
1.0
 40
1.0
 10
40.749748188
 20
255.3315761125
 30
0.0
 10
39.305215074
 20
254.937437272
 30
0.0
 10
36.4544047672
 20
253.8214352785
 30
0.0
 10
32.5525013523
 20
251.2916482932
 30
0.0
 10
29.0982818305
 20
247.975675345
 30
0.0
 10
25.205521459
 20
242.60952413
 30
0.0
 10
22.0553630501
 20
234.5907924888
 30
0.0
 10
21.6131398797
 20
227.6557261955
 30
0.0
 10
21.9262514419
 20
224.2231579696
 30
0.0
  0
SPLINE
  5
3AE
100
AcDbEntity
  8
0
100
AcDbSpline
 62
7
  6
CONTINUOUS
 70
0
 71
3
 72
13
 73
9
 74
0
 42
0.0000001
 43
0.0000001
 44
0.0000000001
 40
0.0
 40
0.0
 40
0.0
 40
0.0
 40
0.2371767104
 40
0.364383289
 40
0.4946155743
 40
0.6256075242
 40
0.7550232782
 40
1.0
 40
1.0
 40
1.0
 40
1.0
 10
19.2703135134
 20
249.4705870829
 30
0.0
 10
16.7832460724
 20
248.7921523634
 30
0.0
 10
13.1482137717
 20
246.9896870347
 30
0.0
 10
8.9599048721
 20
243.6067855254
 30
0.0
 10
6.0696420438
 20
240.5081116634
 30
0.0
 10
3.6187260059
 20
237.0228945611
 30
0.0
 10
1.1017844802
 20
232.1307546295
 30
0.0
 10
0.013723629
 20
228.1186204748
 30
0.0
 10
-0.2167342491
 20
225.4658910552
 30
0.0
  0
SPLINE
  5
3AF
100
AcDbEntity
  8
0
100
AcDbSpline
 62
7
  6
CONTINUOUS
 70
0
 71
3
 72
13
 73
9
 74
0
 42
0.0000001
 43
0.0000001
 44
0.0000000001
 40
0.0
 40
0.0
 40
0.0
 40
0.0
 40
0.2617299572
 40
0.5194526258
 40
0.6447918405
 40
0.7667303662
 40
0.8850665795
 40
1.0
 40
1.0
 40
1.0
 40
1.0
 10
31.1404954293
 20
224.1515870121
 30
0.0
 10
31.0969003431
 20
227.8800934147
 30
0.0
 10
32.0595258061
 20
235.3288830653
 30
0.0
 10
35.7603049179
 20
243.883566265
 30
0.0
 10
40.0344411532
 20
249.7021541362
 30
0.0
 10
43.7559231422
 20
253.3805502024
 30
0.0
 10
47.9163566538
 20
256.3027401084
 30
0.0
 10
50.9514347805
 20
257.7100260383
 30
0.0
 10
52.495681979
 20
258.2544638726
 30
0.0
  0
SPLINE
  5
3B0
100
AcDbEntity
  8
0
100
AcDbSpline
 62
7
  6
CONTINUOUS
 70
0
 71
3
 72
9
 73
5
 74
0
 42
0.0000001
 43
0.0000001
 44
0.0000000001
 40
0.0
 40
0.0
 40
0.0
 40
0.0
 40
0.2342423908
 40
1.0
 40
1.0
 40
1.0
 40
1.0
 10
34.8052645977
 20
257.3202996811
 30
0.0
 10
35.1089925545
 20
257.144872054
 30
0.0
 10
36.3758703441
 20
256.344496599
 30
0.0
 10
37.5213790971
 20
255.3609613746
 30
0.0
 10
38.3320915106
 20
254.5500935733
 30
0.0
  0
SPLINE
  5
3B1
100
AcDbEntity
  8
0
100
AcDbSpline
 62
7
  6
CONTINUOUS
 70
0
 71
3
 72
9
 73
5
 74
0
 42
0.0000001
 43
0.0000001
 44
0.0000000001
 40
0.0
 40
0.0
 40
0.0
 40
0.0
 40
0.24399376
 40
1.0
 40
1.0
 40
1.0
 40
1.0
 10
33.4995572924
 20
257.9753478169
 30
0.0
 10
33.6089218614
 20
257.9288185253
 30
0.0
 10
34.0540210739
 20
257.7308100174
 30
0.0
 10
34.4863774453
 20
257.5044829781
 30
0.0
 10
34.8052645977
 20
257.3202996811
 30
0.0
  0
SPLINE
  5
3B2
100
AcDbEntity
  8
0
100
AcDbSpline
 62
7
  6
CONTINUOUS
 70
0
 71
3
 72
14
 73
10
 74
0
 42
0.0000001
 43
0.0000001
 44
0.0000000001
 40
0.0
 40
0.0
 40
0.0
 40
0.0
 40
0.0978260459
 40
0.2105646824
 40
0.335421908
 40
0.4687250179
 40
0.7434082711
 40
0.8761083629
 40
1.0
 40
1.0
 40
1.0
 40
1.0
 10
36.8597438474
 20
171.8933613676
 30
0.0
 10
37.1605581529
 20
171.7196166114
 30
0.0
 10
37.8441716414
 20
171.4079305773
 30
0.0
 10
38.9839559316
 20
171.0551481824
 30
0.0
 10
40.2770600984
 20
170.7941080182
 30
0.0
 10
42.1586712515
 20
170.5809468005
 30
0.0
 10
44.0880934491
 20
170.587321323
 30
0.0
 10
45.9624437247
 20
170.8138470909
 30
0.0
 10
46.8557643447
 20
171.002049055
 30
0.0
 10
47.2807077138
 20
171.1159574549
 30
0.0
  0
SPLINE
  5
3B3
100
AcDbEntity
  8
0
100
AcDbSpline
 62
7
  6
CONTINUOUS
 70
0
 71
3
 72
13
 73
9
 74
0
 42
0.0000001
 43
0.0000001
 44
0.0000000001
 40
0.0
 40
0.0
 40
0.0
 40
0.0
 40
0.3343759237
 40
0.6101500871
 40
0.7252613985
 40
0.8263520447
 40
0.9163253831
 40
1.0
 40
1.0
 40
1.0
 40
1.0
 10
96.8674862794
 20
184.4079653178
 30
0.0
 10
97.3335226813
 20
184.5328889305
 30
0.0
 10
98.1715601722
 20
184.8110226982
 30
0.0
 10
99.1036833611
 20
185.3083186667
 30
0.0
 10
99.6471431235
 20
185.7694772018
 30
0.0
 10
99.9290456548
 20
186.1137173682
 30
0.0
 10
100.1042838926
 20
186.4741732157
 30
0.0
 10
100.1448542502
 20
186.7261315583
 30
0.0
 10
100.1448583723
 20
186.8468702145
 30
0.0
  0
SPLINE
  5
3B4
100
AcDbEntity
  8
0
100
AcDbSpline
 62
7
  6
CONTINUOUS
 70
0
 71
3
 72
11
 73
7
 74
0
 42
0.0000001
 43
0.0000001
 44
0.0000000001
 40
0.0
 40
0.0
 40
0.0
 40
0.0
 40
0.2032383987
 40
0.4289071888
 40
0.692421533
 40
1.0
 40
1.0
 40
1.0
 40
1.0
 10
-8.3746330741
 20
208.3289277999
 30
0.0
 10
-8.374659032
 20
208.2742498246
 30
0.0
 10
-8.3511949446
 20
208.1580440158
 30
0.0
 10
-8.2527771045
 20
207.9967434892
 30
0.0
 10
-8.0975581253
 20
207.846608565
 30
0.0
 10
-7.9690588868
 20
207.7610978276
 30
0.0
 10
-7.8974033435
 20
207.7197109165
 30
0.0
  0
SPLINE
  5
3B5
100
AcDbEntity
  8
0
100
AcDbSpline
 62
7
  6
CONTINUOUS
 70
0
 71
3
 72
11
 73
7
 74
0
 42
0.0000001
 43
0.0000001
 44
0.0000000001
 40
0.0
 40
0.0
 40
0.0
 40
0.0
 40
0.2032339246
 40
0.4288952144
 40
0.6924084714
 40
1.0
 40
1.0
 40
1.0
 40
1.0
 10
39.4816895445
 20
180.6880057236
 30
0.0
 10
39.4816682959
 20
180.6333291054
 30
0.0
 10
39.5051279896
 20
180.5171277475
 30
0.0
 10
39.6035414538
 20
180.3558284743
 30
0.0
 10
39.7587572731
 20
180.2056896938
 30
0.0
 10
39.8872591252
 20
180.1201773174
 30
0.0
 10
39.9589175078
 20
180.0787887665
 30
0.0
  0
SPLINE
  5
3B6
100
AcDbEntity
  8
0
100
AcDbSpline
 62
7
  6
CONTINUOUS
 70
0
 71
3
 72
11
 73
7
 74
0
 42
0.0000001
 43
0.0000001
 44
0.0000000001
 40
0.0
 40
0.0
 40
0.0
 40
0.0
 40
0.3077821089
 40
0.5710795319
 40
0.7967168829
 40
1.0
 40
1.0
 40
1.0
 40
1.0
 10
98.8432170544
 20
195.8630481037
 30
0.0
 10
99.0387733257
 20
195.7500984332
 30
0.0
 10
99.3893524615
 20
195.5170526055
 30
0.0
 10
99.8124242618
 20
195.1073629707
 30
0.0
 10
100.0807757444
 20
194.6676168693
 30
0.0
 10
100.1448634455
 20
194.3507037413
 30
0.0
 10
100.1448583702
 20
194.2015471219
 30
0.0
  0
SPLINE
  5
3B7
100
AcDbEntity
  8
0
100
AcDbSpline
 62
7
  6
CONTINUOUS
 70
0
 71
3
 72
13
 73
9
 74
0
 42
0.0000001
 43
0.0000001
 44
0.0000000001
 40
0.0
 40
0.0
 40
0.0
 40
0.0
 40
0.3343397011
 40
0.6101736041
 40
0.7252438332
 40
0.8263461467
 40
0.9163248135
 40
1.0
 40
1.0
 40
1.0
 40
1.0
 10
47.4989459845
 20
180.7906412549
 30
0.0
 10
47.6698049397
 20
180.8364409346
 30
0.0
 10
47.9770698331
 20
180.9384600981
 30
0.0
 10
48.3188971687
 20
181.1207132284
 30
0.0
 10
48.5181063082
 20
181.28989047
 30
0.0
 10
48.6214929445
 20
181.4160670861
 30
0.0
 10
48.6857600314
 20
181.5482476145
 30
0.0
 10
48.7005913607
 20
181.6406359747
 30
0.0
 10
48.7006085653
 20
181.6849064533
 30
0.0
  0
SPLINE
  5
3B8
100
AcDbEntity
  8
0
100
AcDbSpline
 62
7
  6
CONTINUOUS
 70
0
 71
3
 72
12
 73
8
 74
0
 42
0.0000001
 43
0.0000001
 44
0.0000000001
 40
0.0
 40
0.0
 40
0.0
 40
0.0
 40
0.0978508246
 40
0.2106902249
 40
0.4687113837
 40
0.7435104759
 40
1.0
 40
1.0
 40
1.0
 40
1.0
 10
39.9589175078
 20
180.0787887665
 30
0.0
 10
40.0691883438
 20
180.0150983795
 30
0.0
 10
40.3198822237
 20
179.9008052996
 30
0.0
 10
40.9035918897
 20
179.7203522426
 30
0.0
 10
41.7399437581
 20
179.5973770902
 30
0.0
 10
42.769851256
 20
179.600648263
 30
0.0
 10
43.4575258219
 20
179.7073164225
 30
0.0
 10
43.7799375921
 20
179.7937406652
 30
0.0
  0
SPLINE
  5
3B9
100
AcDbEntity
  8
0
100
AcDbSpline
 62
7
  6
CONTINUOUS
 70
0
 71
3
 72
13
 73
9
 74
0
 42
0.0000001
 43
0.0000001
 44
0.0000000001
 40
0.0
 40
0.0
 40
0.0
 40
0.0
 40
0.3343397011
 40
0.6101736041
 40
0.7252438332
 40
0.8263461467
 40
0.9163248135
 40
1.0
 40
1.0
 40
1.0
 40
1.0
 10
95.0196087765
 20
193.5288154569
 30
0.0
 10
95.1904677317
 20
193.5746151366
 30
0.0
 10
95.4977326251
 20
193.6766343
 30
0.0
 10
95.8395599608
 20
193.8588874304
 30
0.0
 10
96.0387691002
 20
194.028064672
 30
0.0
 10
96.1421557365
 20
194.1542412881
 30
0.0
 10
96.2064228235
 20
194.2864218165
 30
0.0
 10
96.2212541527
 20
194.3788101767
 30
0.0
 10
96.2212713573
 20
194.4230806552
 30
0.0
  0
SPLINE
  5
3BA
100
AcDbEntity
  8
0
100
AcDbSpline
 62
7
  6
CONTINUOUS
 70
0
 71
3
 72
9
 73
5
 74
0
 42
0.0000001
 43
0.0000001
 44
0.0000000001
 40
0.0
 40
0.0
 40
0.0
 40
0.0
 40
0.5144065177
 40
1.0
 40
1.0
 40
1.0
 40
1.0
 10
88.9491822214
 20
192.3913140781
 30
0.0
 10
89.3518776042
 20
192.3429135145
 30
0.0
 10
90.1441044659
 20
192.3223179872
 30
0.0
 10
90.9307809423
 20
192.4327827382
 30
0.0
 10
91.3006003841
 20
192.5319148671
 30
0.0
  0
SPLINE
  5
3BB
100
AcDbEntity
  8
0
100
AcDbSpline
 62
7
  6
CONTINUOUS
 70
0
 71
3
 72
17
 73
13
 74
0
 42
0.0000001
 43
0.0000001
 44
0.0000000001
 40
0.0
 40
0.0
 40
0.0
 40
0.0
 40
0.1179828774
 40
0.2605779244
 40
0.4170407478
 40
0.5743024798
 40
0.7191848507
 40
0.8405111667
 40
0.8902229497
 40
0.9324169003
 40
0.9681664809
 40
1.0
 40
1.0
 40
1.0
 40
1.0
 10
-5.363833416
 20
206.2563679791
 30
0.0
 10
-5.176852745
 20
206.1483714161
 30
0.0
 10
-4.7272566513
 20
205.974768403
 30
0.0
 10
-3.9773758597
 20
205.8230243198
 30
0.0
 10
-3.1417935889
 20
205.7663430859
 30
0.0
 10
-2.3013903552
 20
205.8109882011
 30
0.0
 10
-1.5373953011
 20
205.9523343471
 30
0.0
 10
-0.9883002927
 20
206.1491901467
 30
0.0
 10
-0.654470801
 20
206.354244338
 30
0.0
 10
-0.4798047214
 20
206.5120627343
 30
0.0
 10
-0.3680794256
 20
206.6827188323
 30
0.0
 10
-0.3411766423
 20
206.8073245199
 30
0.0
 10
-0.3411489836
 20
206.8655851498
 30
0.0
  0
SPLINE
  5
3BC
100
AcDbEntity
  8
0
100
AcDbSpline
 62
7
  6
CONTINUOUS
 70
0
 71
3
 72
11
 73
7
 74
0
 42
0.0000001
 43
0.0000001
 44
0.0000000001
 40
0.0
 40
0.0
 40
0.0
 40
0.0
 40
0.2032831251
 40
0.4289204829
 40
0.6922178869
 40
1.0
 40
1.0
 40
1.0
 40
1.0
 10
-12.2982183217
 20
201.1957844994
 30
0.0
 10
-12.2982234139
 20
201.046627874
 30
0.0
 10
-12.2341356798
 20
200.7297147347
 30
0.0
 10
-11.9657842039
 20
200.2899686409
 30
0.0
 10
-11.5427124138
 20
199.8802789989
 30
0.0
 10
-11.1921332781
 20
199.6472331898
 30
0.0
 10
-10.9965770038
 20
199.5342835176
 30
0.0
  0
SPLINE
  5
3BD
100
AcDbEntity
  8
0
100
AcDbSpline
 62
7
  6
CONTINUOUS
 70
0
 71
3
 72
13
 73
9
 74
0
 42
0.0000001
 43
0.0000001
 44
0.0000000001
 40
0.0
 40
0.0
 40
0.0
 40
0.0
 40
0.0836746234
 40
0.1736479663
 40
0.2747386182
 40
0.3898499315
 40
0.6656240955
 40
1.0
 40
1.0
 40
1.0
 40
1.0
 10
-12.2982183196
 20
208.5504614069
 30
0.0
 10
-12.2982142114
 20
208.6712000725
 30
0.0
 10
-12.2576438163
 20
208.9231584279
 30
0.0
 10
-12.0824055922
 20
209.2836143044
 30
0.0
 10
-11.8005030187
 20
209.627854464
 30
0.0
 10
-11.2570432532
 20
210.0890130083
 30
0.0
 10
-10.3249200653
 20
210.5863089366
 30
0.0
 10
-9.486882604
 20
210.864442698
 30
0.0
 10
-9.0208462288
 20
210.9893663035
 30
0.0
  0
SPLINE
  5
3BE
100
AcDbEntity
  8
0
100
AcDbSpline
 62
7
  6
CONTINUOUS
 70
0
 71
3
 72
12
 73
8
 74
0
 42
0.0000001
 43
0.0000001
 44
0.0000000001
 40
0.0
 40
0.0
 40
0.0
 40
0.0
 40
0.0978508246
 40
0.2106902249
 40
0.4687113837
 40
0.7435104759
 40
1.0
 40
1.0
 40
1.0
 40
1.0
 10
48.223380602
 20
182.2941234103
 30
0.0
 10
48.113109766
 20
182.3578137973
 30
0.0
 10
47.8624158861
 20
182.4721068773
 30
0.0
 10
47.27870622
 20
182.6525599342
 30
0.0
 10
46.4423543517
 20
182.7755350866
 30
0.0
 10
45.4124468537
 20
182.7722639139
 30
0.0
 10
44.7247722879
 20
182.6655957543
 30
0.0
 10
44.4023605177
 20
182.5791715117
 30
0.0
  0
SPLINE
  5
3BF
100
AcDbEntity
  8
0
100
AcDbSpline
 62
7
  6
CONTINUOUS
 70
0
 71
3
 72
13
 73
9
 74
0
 42
0.0000001
 43
0.0000001
 44
0.0000000001
 40
0.0
 40
0.0
 40
0.0
 40
0.0
 40
0.3343397011
 40
0.6101736041
 40
0.7252438332
 40
0.8263461467
 40
0.9163248135
 40
1.0
 40
1.0
 40
1.0
 40
1.0
 10
40.6833521253
 20
181.5822709219
 30
0.0
 10
40.5124931701
 20
181.5364712422
 30
0.0
 10
40.2052282767
 20
181.4344520788
 30
0.0
 10
39.863400941
 20
181.2521989484
 30
0.0
 10
39.6641918016
 20
181.0830217068
 30
0.0
 10
39.5608051653
 20
180.9568450907
 30
0.0
 10
39.4965380783
 20
180.8246645623
 30
0.0
 10
39.4817067491
 20
180.7322762021
 30
0.0
 10
39.4816895445
 20
180.6880057236
 30
0.0
  0
SPLINE
  5
3C0
100
AcDbEntity
  8
0
100
AcDbSpline
 62
7
  6
CONTINUOUS
 70
0
 71
3
 72
12
 73
8
 74
0
 42
0.0000001
 43
0.0000001
 44
0.0000000001
 40
0.0
 40
0.0
 40
0.0
 40
0.0
 40
0.0978508246
 40
0.2106902249
 40
0.4687113837
 40
0.7435104759
 40
1.0
 40
1.0
 40
1.0
 40
1.0
 10
95.7440433941
 20
195.0322976123
 30
0.0
 10
95.633772558
 20
195.0959879993
 30
0.0
 10
95.3830786781
 20
195.2102810792
 30
0.0
 10
94.7993690121
 20
195.3907341362
 30
0.0
 10
93.9630171437
 20
195.5137092886
 30
0.0
 10
92.9331096458
 20
195.5104381158
 30
0.0
 10
92.2454350799
 20
195.4037699563
 30
0.0
 10
91.9230233097
 20
195.3173457136
 30
0.0
  0
SPLINE
  5
3C1
100
AcDbEntity
  8
0
100
AcDbSpline
 62
7
  6
CONTINUOUS
 70
0
 71
3
 72
17
 73
13
 74
0
 42
0.0000001
 43
0.0000001
 44
0.0000000001
 40
0.0
 40
0.0
 40
0.0
 40
0.0
 40
0.1179828774
 40
0.2605779244
 40
0.4170407478
 40
0.5743024798
 40
0.7191848507
 40
0.8405111667
 40
0.8902229497
 40
0.9324169003
 40
0.9681664809
 40
1.0
 40
1.0
 40
1.0
 40
1.0
 10
-3.3519486416
 20
208.9381449706
 30
0.0
 10
-3.5389293126
 20
209.0461415336
 30
0.0
 10
-3.9885254063
 20
209.2197445467
 30
0.0
 10
-4.738406198
 20
209.3714886299
 30
0.0
 10
-5.5739884688
 20
209.4281698638
 30
0.0
 10
-6.4143917025
 20
209.3835247486
 30
0.0
 10
-7.1783867565
 20
209.2421786026
 30
0.0
 10
-7.7274817649
 20
209.045322803
 30
0.0
 10
-8.0613112567
 20
208.8402686117
 30
0.0
 10
-8.2359773363
 20
208.6824502155
 30
0.0
 10
-8.3477026321
 20
208.5117941174
 30
0.0
 10
-8.3746054153
 20
208.3871884298
 30
0.0
 10
-8.3746330741
 20
208.3289277999
 30
0.0
  0
SPLINE
  5
3C2
100
AcDbEntity
  8
0
100
AcDbSpline
 62
7
  6
CONTINUOUS
 70
0
 71
3
 72
11
 73
7
 74
0
 42
0.0000001
 43
0.0000001
 44
0.0000000001
 40
0.0
 40
0.0
 40
0.0
 40
0.0
 40
0.2032383987
 40
0.4289071888
 40
0.692421533
 40
1.0
 40
1.0
 40
1.0
 40
1.0
 10
-0.3411489836
 20
206.8655851498
 30
0.0
 10
-0.3411230256
 20
206.9202631251
 30
0.0
 10
-0.364587113
 20
207.0364689339
 30
0.0
 10
-0.4630049531
 20
207.1977694605
 30
0.0
 10
-0.6182239323
 20
207.3479043847
 30
0.0
 10
-0.7467231708
 20
207.4334151222
 30
0.0
 10
-0.8183787142
 20
207.4748020332
 30
0.0
  0
SPLINE
  5
3C3
100
AcDbEntity
  8
0
100
AcDbSpline
 62
7
  6
CONTINUOUS
 70
0
 71
3
 72
11
 73
7
 74
0
 42
0.0000001
 43
0.0000001
 44
0.0000000001
 40
0.0
 40
0.0
 40
0.0
 40
0.0
 40
0.2032339246
 40
0.4288952144
 40
0.6924084714
 40
1.0
 40
1.0
 40
1.0
 40
1.0
 10
96.2212713573
 20
194.4230806552
 30
0.0
 10
96.2212926059
 20
194.4777572734
 30
0.0
 10
96.1978329122
 20
194.5939586313
 30
0.0
 10
96.099419448
 20
194.7552579045
 30
0.0
 10
95.9442036287
 20
194.905396685
 30
0.0
 10
95.8157017766
 20
194.9909090614
 30
0.0
 10
95.7440433941
 20
195.0322976123
 30
0.0
  0
SPLINE
  5
3C4
100
AcDbEntity
  8
0
100
AcDbSpline
 62
7
  6
CONTINUOUS
 70
0
 71
3
 72
11
 73
7
 74
0
 42
0.0000001
 43
0.0000001
 44
0.0000000001
 40
0.0
 40
0.0
 40
0.0
 40
0.0
 40
0.2032339246
 40
0.4288952144
 40
0.6924084714
 40
1.0
 40
1.0
 40
1.0
 40
1.0
 10
48.7006085653
 20
181.6849064533
 30
0.0
 10
48.7006298139
 20
181.7395830714
 30
0.0
 10
48.6771701202
 20
181.8557844294
 30
0.0
 10
48.578756656
 20
182.0170837025
 30
0.0
 10
48.4235408366
 20
182.167222483
 30
0.0
 10
48.2950389845
 20
182.2527348594
 30
0.0
 10
48.223380602
 20
182.2941234103
 30
0.0
  0
SPLINE
  5
3C5
100
AcDbEntity
  8
0
100
AcDbSpline
 62
7
  6
CONTINUOUS
 70
0
 71
3
 72
13
 73
9
 74
0
 42
0.0000001
 43
0.0000001
 44
0.0000000001
 40
0.0
 40
0.0
 40
0.0
 40
0.0
 40
0.0836746234
 40
0.1736479663
 40
0.2747386182
 40
0.3898499315
 40
0.6656240955
 40
1.0
 40
1.0
 40
1.0
 40
1.0
 10
100.1448583702
 20
194.2015471219
 30
0.0
 10
100.144854262
 20
194.0808084563
 30
0.0
 10
100.1042838669
 20
193.8288501009
 30
0.0
 10
99.9290456428
 20
193.4683942244
 30
0.0
 10
99.6471430693
 20
193.1241540647
 30
0.0
 10
99.1036833038
 20
192.6629955205
 30
0.0
 10
98.1715601159
 20
192.1656995922
 30
0.0
 10
97.3335226546
 20
191.8875658308
 30
0.0
 10
96.8674862794
 20
191.7626422253
 30
0.0
  0
SPLINE
  5
3C6
100
AcDbEntity
  8
0
100
AcDbSpline
 62
7
  6
CONTINUOUS
 70
0
 71
3
 72
14
 73
10
 74
0
 42
0.0000001
 43
0.0000001
 44
0.0000000001
 40
0.0
 40
0.0
 40
0.0
 40
0.0
 40
0.1238916505
 40
0.2565917571
 40
0.5312750189
 40
0.6645781246
 40
0.7894353425
 40
0.9021739652
 40
1.0
 40
1.0
 40
1.0
 40
1.0
 10
47.2807077138
 20
178.4706343624
 30
0.0
 10
46.8557642989
 20
178.3567259502
 30
0.0
 10
45.9624435781
 20
178.1685239756
 30
0.0
 10
44.0880931706
 20
177.9419982084
 30
0.0
 10
42.1586709035
 20
177.9356237253
 30
0.0
 10
40.2770597658
 20
178.1487849743
 30
0.0
 10
38.9839556958
 20
178.4098251548
 30
0.0
 10
37.8441715201
 20
178.7626075282
 30
0.0
 10
37.1605581188
 20
179.0742935385
 30
0.0
 10
36.8597438474
 20
179.2480382751
 30
0.0
  0
SPLINE
  5
3C7
100
AcDbEntity
  8
0
100
AcDbSpline
 62
7
  6
CONTINUOUS
 70
0
 71
3
 72
11
 73
7
 74
0
 42
0.0000001
 43
0.0000001
 44
0.0000000001
 40
0.0
 40
0.0
 40
0.0
 40
0.0
 40
0.3077821089
 40
0.5710795319
 40
0.7967168829
 40
1.0
 40
1.0
 40
1.0
 40
1.0
 10
-10.9965770038
 20
206.8889604251
 30
0.0
 10
-11.1921332751
 20
207.0019100956
 30
0.0
 10
-11.5427124109
 20
207.2349559232
 30
0.0
 10
-11.9657842112
 20
207.644645558
 30
0.0
 10
-12.2341356938
 20
208.0843916595
 30
0.0
 10
-12.2982233949
 20
208.4013047875
 30
0.0
 10
-12.2982183196
 20
208.5504614069
 30
0.0
  0
SPLINE
  5
3C8
100
AcDbEntity
  8
0
100
AcDbSpline
 62
7
  6
CONTINUOUS
 70
0
 71
3
 72
11
 73
7
 74
0
 42
0.0000001
 43
0.0000001
 44
0.0000000001
 40
0.0
 40
0.0
 40
0.0
 40
0.0
 40
0.2916580526
 40
0.5503044048
 40
0.7825466397
 40
1.0
 40
1.0
 40
1.0
 40
1.0
 10
0.6046573151
 20
213.2667662381
 30
0.0
 10
0.5409876321
 20
213.317469238
 30
0.0
 10
0.4268588421
 20
213.4212837185
 30
0.0
 10
0.2927669728
 20
213.5954842538
 30
0.0
 10
0.2098570994
 20
213.7771590909
 30
0.0
 10
0.1907893623
 20
213.9032908425
 30
0.0
 10
0.1907920242
 20
213.9639746367
 30
0.0
  0
SPLINE
  5
3C9
100
AcDbEntity
  8
0
100
AcDbSpline
 62
7
  6
CONTINUOUS
 70
0
 71
3
 72
11
 73
7
 74
0
 42
0.0000001
 43
0.0000001
 44
0.0000000001
 40
0.0
 40
0.0
 40
0.0
 40
0.0
 40
0.2174533412
 40
0.4496956062
 40
0.708341992
 40
1.0
 40
1.0
 40
1.0
 40
1.0
 10
0.1907920291
 20
204.7706285025
 30
0.0
 10
0.1907893748
 20
204.7099447142
 30
0.0
 10
0.2098570887
 20
204.583812958
 30
0.0
 10
0.2927669964
 20
204.4021381197
 30
0.0
 10
0.4268588682
 20
204.2279375877
 30
0.0
 10
0.5409876424
 20
204.1241230955
 30
0.0
 10
0.6046573151
 20
204.0734201038
 30
0.0
  0
ENDSEC
  0
SECTION
  2
OBJECTS
  0
DICTIONARY
  5
C
100
AcDbDictionary
280
0
281
1
  3
ACAD_GROUP
350
D
  3
ACAD_MLINESTYLE
350
17
  3
ACAD_LAYOUT
350
1A
  3
ACAD_PLOTSETTINGS
350
19
  3
ACAD_PLOTSTYLENAME
350
E
  0
DICTIONARY
  5
D
102
{ACAD_REACTORS
330
C
102
}
100
AcDbDictionary
280
0
281
1
  0
ACDBDICTIONARYWDFLT
  5
E
102
{ACAD_REACTORS
330
C
102
}
100
AcDbDictionary
281
1
  3
Normal
350
F
100
AcDbDictionaryWithDefault
340
F
  0
DICTIONARY
  5
17
102
{ACAD_REACTORS
330
C
102
}
100
AcDbDictionary
280
0
281
1
  3
Standard
350
18
  0
DICTIONARY
  5
19
102
{ACAD_REACTORS
330
C
102
}
100
AcDbDictionary
281
1
  0
DICTIONARY
  5
1A
102
{ACAD_REACTORS
330
C
102
}
100
AcDbDictionary
281
1
  3
Model
350
3CA
  3
Layout1
350
3CB
  0
ACDBPLACEHOLDER
  5
F
102
{ACAD_REACTORS
330
E
102
}
  0
MLINESTYLE
  5
18
102
{ACAD_REACTORS
330
17
102
}
100
AcDbMlineStyle
  2
STANDARD
 70
0
  3

 62
256
 51
90.0
 52
90.0
 71
2
 49
0.5
 62
256
  6
BYLAYER
 49
-0.5
 62
256
  6
BYLAYER
  0
LAYOUT
  5
3CA
102
{ACAD_REACTORS
330
1A
102
}
100
AcDbPlotSettings
  1

  2
none_device
  4
ANSI_C_(22.00_x_17.00_Inches)
  6

 40
0.0
 41
0.0
 42
0.0
 43
0.0
 44
558.8
 45
431.8
 46
0.0
 47
0.0
 48
0.0
 49
0.0
140
0.0
141
0.0
142
1.0
143
1.0
 70
1024
 72
1
 73
0
 74
0
  7

 75
0
147
1.0
148
0.0
149
0.0
100
AcDbLayout
  1
Model
 70
0
 71
0
 10
0.0
 20
0.0
 11
558.8
 21
431.8
 12
0.0
 22
0.0
 32
0.0
 14
0.0
 24
0.0
 34
0.0
 15
0.0
 25
0.0
 35
0.0
146
0.0
 13
0.0
 23
0.0
 33
0.0
 16
1.0
 26
0.0
 36
0.0
 17
0.0
 27
1.0
 37
0.0
 76
0
330
216
345
0
346
0
  0
LAYOUT
  5
3CB
102
{ACAD_REACTORS
330
1A
102
}
100
AcDbPlotSettings
  1

  2
none_device
  4
ANSI_C_(22.00_x_17.00_Inches)
  6

 40
0.0
 41
0.0
 42
0.0
 43
0.0
 44
558.8
 45
431.8
 46
0.0
 47
0.0
 48
0.0
 49
0.0
140
0.0
141
0.0
142
1.0
143
1.0
 70
0
 72
1
 73
0
 74
0
  7

 75
0
147
1.0
148
0.0
149
0.0
100
AcDbLayout
  1
Layout1
 70
0
 71
1
 10
0.0
 20
0.0
 11
558.8
 21
431.8
 12
0.0
 22
0.0
 32
0.0
 14
0.0
 24
0.0
 34
0.0
 15
0.0
 25
0.0
 35
0.0
146
0.0
 13
0.0
 23
0.0
 33
0.0
 16
1.0
 26
0.0
 36
0.0
 17
0.0
 27
1.0
 37
0.0
 76
0
330
217
345
0
346
0
  0
ENDSEC
  0
EOF
