999
DXF file: Y:\3D PRATIKA-KAEDRA_OLGA\TRAVAIL_PHASE_6\CAD3D\PKF16W435_3D-Simplified\PKF16W435_2D-isometric.dxf
999
Pro/ENGINEER 2018260 by Parametric Technology Corporation
  0
SECTION
  2
HEADER
  9
$ACADVER
  1
AC1027
  9
$DWGCODEPAGE
  3
ANSI_1252
  9
$EXTMAX
 10
558.8
 20
431.8
 30
0.0
  9
$EXTMIN
 10
0.0
 20
0.0
 30
0.0
  9
$LIMMIN
 10
0.0
 20
0.0
  9
$LIMMAX
 10
558.8
 20
431.8
  9
$VIEWCTR
 10
279.4
 20
215.9
  9
$VIEWSIZE
 40
431.8
  9
$CLAYER
  8
0
  9
$LTSCALE
 40
30.734
  9
$CELTYPE
  6
BYLAYER
  9
$DIMSCALE
 40
1.0
  9
$DIMASZ
 40
0.1875
  9
$DIMEXO
 40
0.0625
  9
$DIMDLI
 40
21.2344
  9
$DIMEXE
 40
0.125
  9
$DIMCEN
 40
5.0292
  9
$DIMLFAC
 40
1.0
  9
$DIMBLK
  1
_CLOSED
  9
$DIMALT
 70
0
  9
$DIMALTF
 40
0.0393700787
  9
$DIMTXT
 40
0.15625
  9
$DIMTOL
 70
0
  9
$DIMLIM
 70
0
  9
$DIMTFAC
 40
1.0
  9
$DIMGAP
 40
0.625
  9
$DIMDSEP
 70
46
  9
$AUNITS
 70
0
  9
$PDMODE
 70
3
  9
$PDSIZE
 40
0.3125
  9
$HANDSEED
  5
3A5
  9
$TILEMODE
 70
1
  9
$MEASUREMENT
 70
1
  9
$INSUNITS
 70
4
  0
ENDSEC
  0
SECTION
  2
CLASSES
  0
CLASS
  1
ACDBDICTIONARYWDFLT
  2
AcDbDictionaryWithDefault
  3
AutoCAD 2000
 90
0
 91
1
280
0
281
0
  0
CLASS
  1
ACDBPLACEHOLDER
  2
AcDbPlaceHolder
  3
AutoCAD 2000
 90
0
 91
1
280
0
281
0
  0
CLASS
  1
LAYOUT
  2
AcDbLayout
  3
AutoCAD 2000
 90
0
 91
0
280
0
281
0
  0
ENDSEC
  0
SECTION
  2
TABLES
  0
TABLE
  2
VPORT
  5
8
100
AcDbSymbolTable
 70
2
  0
VPORT
  5
1F4
100
AcDbSymbolTableRecord
100
AcDbViewportTableRecord
  2
*ACTIVE
 70
0
 10
0.0
 20
0.0
 11
1.0
 21
1.0
 12
279.4
 22
215.9
 13
0.0
 23
0.0
 14
1.0
 24
1.0
 15
0.0
 25
0.0
 16
0.0
 26
0.0
 36
1.0
 17
0.0
 27
0.0
 37
0.0
 40
431.8
 41
1.2941176471
 42
50.0
 43
0.0
 44
0.0
 50
0.0
 51
0.0
 71
0
 72
100
 73
1
 74
1
 75
0
 76
0
 77
0
 78
0
  0
ENDTAB
  0
TABLE
  2
LTYPE
  5
5
100
AcDbSymbolTable
 70
6
  0
LTYPE
  5
14
100
AcDbSymbolTableRecord
100
AcDbLinetypeTableRecord
  2
BYBLOCK
 70
0
  3

 72
65
 73
0
 40
0.0
  0
LTYPE
  5
15
100
AcDbSymbolTableRecord
100
AcDbLinetypeTableRecord
  2
BYLAYER
 70
0
  3

 72
65
 73
0
 40
0.0
  0
LTYPE
  5
16
100
AcDbSymbolTableRecord
100
AcDbLinetypeTableRecord
  2
CONTINUOUS
 70
64
  3
Solid line
 72
65
 73
0
 40
0.0
  0
LTYPE
  5
1F5
100
AcDbSymbolTableRecord
100
AcDbLinetypeTableRecord
  2
CENTER
 70
64
  3
____ _ ____ _ ____ _ ____ _ ____ _ ____ _ ____
 72
65
 73
4
 40
0.6
 49
0.375
 74
0
 49
-0.075
 74
0
 49
0.075
 74
0
 49
-0.075
 74
0
  0
LTYPE
  5
1F6
100
AcDbSymbolTableRecord
100
AcDbLinetypeTableRecord
  2
HIDDEN
 70
64
  3
- - - - - - - - - - - - - - - - - - - -
 72
65
 73
2
 40
0.2
 49
0.1
 74
0
 49
-0.1
 74
0
  0
LTYPE
  5
1F7
100
AcDbSymbolTableRecord
100
AcDbLinetypeTableRecord
  2
PHANTOM
 70
64
  3
_____ _ _ _____ _ _ _____ _ _ _____
 72
65
 73
6
 40
0.8
 49
0.45
 74
0
 49
-0.05
 74
0
 49
0.1
 74
0
 49
-0.05
 74
0
 49
0.1
 74
0
 49
-0.05
 74
0
  0
LTYPE
  5
1F8
100
AcDbSymbolTableRecord
100
AcDbLinetypeTableRecord
  2
DOT
 70
64
  3
. . . . . . . . . . . . . . . . . . . .
 72
65
 73
2
 40
0.2
 49
0.1
 74
0
 49
-0.1
 74
0
  0
LTYPE
  5
1F9
100
AcDbSymbolTableRecord
100
AcDbLinetypeTableRecord
  2
DASHED
 70
64
  3
- - - - - - - - - - - - - - - - - - - -
 72
65
 73
2
 40
0.2
 49
0.1
 74
0
 49
-0.1
 74
0
  0
ENDTAB
  0
TABLE
  2
LAYER
  5
2
100
AcDbSymbolTable
 70
36
  0
LAYER
  5
10
100
AcDbSymbolTableRecord
100
AcDbLayerTableRecord
  2
0
 70
0
 62
7
  6
CONTINUOUS
370
-3
390
F
  0
LAYER
  5
1FA
100
AcDbSymbolTableRecord
100
AcDbLayerTableRecord
  2
DEFAULT_1
 70
0
 62
7
  6
CENTER
370
-3
390
F
  0
LAYER
  5
1FB
100
AcDbSymbolTableRecord
100
AcDbLayerTableRecord
  2
DEFAULT_2
 70
0
 62
8
  6
HIDDEN
370
-3
390
F
  0
LAYER
  5
1FC
100
AcDbSymbolTableRecord
100
AcDbLayerTableRecord
  2
DEFAULT_3
 70
0
 62
7
  6
PHANTOM
370
-3
390
F
  0
LAYER
  5
1FD
100
AcDbSymbolTableRecord
100
AcDbLayerTableRecord
  2
01_ALL_DTM_PLN
 70
0
 62
7
  6
CONTINUOUS
370
-3
390
F
  0
LAYER
  5
1FE
100
AcDbSymbolTableRecord
100
AcDbLayerTableRecord
  2
01__ASM_ALL_DTM_PLN
 70
0
 62
7
  6
CONTINUOUS
370
-3
390
F
  0
LAYER
  5
1FF
100
AcDbSymbolTableRecord
100
AcDbLayerTableRecord
  2
01__ASM_DEF_DTM_PLN
 70
0
 62
7
  6
CONTINUOUS
370
-3
390
F
  0
LAYER
  5
200
100
AcDbSymbolTableRecord
100
AcDbLayerTableRecord
  2
01___PRT_ALL_DTM_PLN
 70
0
 62
7
  6
CONTINUOUS
370
-3
390
F
  0
LAYER
  5
201
100
AcDbSymbolTableRecord
100
AcDbLayerTableRecord
  2
01___PRT_DEF_DTM_PLN
 70
0
 62
7
  6
CONTINUOUS
370
-3
390
F
  0
LAYER
  5
202
100
AcDbSymbolTableRecord
100
AcDbLayerTableRecord
  2
02_ALL_AXES
 70
0
 62
7
  6
CONTINUOUS
370
-3
390
F
  0
LAYER
  5
203
100
AcDbSymbolTableRecord
100
AcDbLayerTableRecord
  2
02__ASM_ALL_AXES
 70
0
 62
7
  6
CONTINUOUS
370
-3
390
F
  0
LAYER
  5
204
100
AcDbSymbolTableRecord
100
AcDbLayerTableRecord
  2
02___PRT_ALL_AXES
 70
0
 62
7
  6
CONTINUOUS
370
-3
390
F
  0
LAYER
  5
205
100
AcDbSymbolTableRecord
100
AcDbLayerTableRecord
  2
03_ALL_CURVES
 70
0
 62
7
  6
CONTINUOUS
370
-3
390
F
  0
LAYER
  5
206
100
AcDbSymbolTableRecord
100
AcDbLayerTableRecord
  2
03__ASM_ALL_CURVES
 70
0
 62
7
  6
CONTINUOUS
370
-3
390
F
  0
LAYER
  5
207
100
AcDbSymbolTableRecord
100
AcDbLayerTableRecord
  2
03___PRT_ALL_CURVES
 70
0
 62
7
  6
CONTINUOUS
370
-3
390
F
  0
LAYER
  5
208
100
AcDbSymbolTableRecord
100
AcDbLayerTableRecord
  2
04_ALL_DTM_PNT
 70
0
 62
7
  6
CONTINUOUS
370
-3
390
F
  0
LAYER
  5
209
100
AcDbSymbolTableRecord
100
AcDbLayerTableRecord
  2
04__ASM_ALL_DTM_PNT
 70
0
 62
7
  6
CONTINUOUS
370
-3
390
F
  0
LAYER
  5
20A
100
AcDbSymbolTableRecord
100
AcDbLayerTableRecord
  2
04___PRT_ALL_DTM_PNT
 70
0
 62
7
  6
CONTINUOUS
370
-3
390
F
  0
LAYER
  5
20B
100
AcDbSymbolTableRecord
100
AcDbLayerTableRecord
  2
05_ALL_DTM_CSYS
 70
0
 62
7
  6
CONTINUOUS
370
-3
390
F
  0
LAYER
  5
20C
100
AcDbSymbolTableRecord
100
AcDbLayerTableRecord
  2
05__ASM_ALL_DTM_CSYS
 70
0
 62
7
  6
CONTINUOUS
370
-3
390
F
  0
LAYER
  5
20D
100
AcDbSymbolTableRecord
100
AcDbLayerTableRecord
  2
05__ASM_DEF_DTM_CSYS
 70
0
 62
7
  6
CONTINUOUS
370
-3
390
F
  0
LAYER
  5
20E
100
AcDbSymbolTableRecord
100
AcDbLayerTableRecord
  2
05___PRT_ALL_DTM_CSYS
 70
0
 62
7
  6
CONTINUOUS
370
-3
390
F
  0
LAYER
  5
20F
100
AcDbSymbolTableRecord
100
AcDbLayerTableRecord
  2
05___PRT_DEF_DTM_CSYS
 70
0
 62
7
  6
CONTINUOUS
370
-3
390
F
  0
LAYER
  5
210
100
AcDbSymbolTableRecord
100
AcDbLayerTableRecord
  2
06_ALL_SURFS
 70
0
 62
7
  6
CONTINUOUS
370
-3
390
F
  0
LAYER
  5
211
100
AcDbSymbolTableRecord
100
AcDbLayerTableRecord
  2
06__ASM_ALL_SURFS
 70
0
 62
7
  6
CONTINUOUS
370
-3
390
F
  0
LAYER
  5
212
100
AcDbSymbolTableRecord
100
AcDbLayerTableRecord
  2
06___PRT_ALL_SURFS
 70
0
 62
7
  6
CONTINUOUS
370
-3
390
F
  0
LAYER
  5
213
100
AcDbSymbolTableRecord
100
AcDbLayerTableRecord
  2
07__ASM_ALL_SKELETONS
 70
0
 62
7
  6
CONTINUOUS
370
-3
390
F
  0
ENDTAB
  0
TABLE
  2
STYLE
  5
3
100
AcDbSymbolTable
 70
1
  0
STYLE
  5
11
100
AcDbSymbolTableRecord
100
AcDbTextStyleTableRecord
  2
STANDARD
 70
0
 40
0.0
 41
0.8
 50
0.0
 71
0
 42
0.2
  3
txt
  4

  0
STYLE
  5
214
100
AcDbSymbolTableRecord
100
AcDbTextStyleTableRecord
  2
TEXTSTYLE_1
 70
0
 40
0.0
 41
0.8
 50
0.0
 71
0
 42
0.2
  3
gdt
  4

  0
ENDTAB
  0
TABLE
  2
VIEW
  5
6
100
AcDbSymbolTable
 70
0
  0
ENDTAB
  0
TABLE
  2
UCS
  5
7
100
AcDbSymbolTable
 70
0
  0
ENDTAB
  0
TABLE
  2
APPID
  5
9
100
AcDbSymbolTable
 70
1
  0
APPID
  5
215
100
AcDbSymbolTableRecord
100
AcDbRegAppTableRecord
  2
ACAD
 70
0
  0
ENDTAB
  0
TABLE
  2
BLOCK_RECORD
  5
1
100
AcDbSymbolTable
 70
0
  0
BLOCK_RECORD
  5
216
100
AcDbSymbolTableRecord
100
AcDbBlockTableRecord
  2
*Model_Space
  0
BLOCK_RECORD
  5
217
100
AcDbSymbolTableRecord
100
AcDbBlockTableRecord
  2
*Paper_Space
  0
BLOCK_RECORD
  5
218
100
AcDbSymbolTableRecord
100
AcDbBlockTableRecord
  2
_CLOSED
  0
ENDTAB
  0
TABLE
  2
DIMSTYLE
  5
A
100
AcDbSymbolTable
 70
1
100
AcDbDimStyleTable
 71
0
  0
DIMSTYLE
105
219
100
AcDbSymbolTableRecord
100
AcDbDimStyleTableRecord
  2
STANDARD
 70
0
  3

  4

 40
1.0
 41
0.1875
 42
0.0625
 43
0.38
 44
0.125
 45
0.0
 46
0.0
 47
0.01
 48
0.01
140
0.15625
141
0.09
142
0.0
143
25.4
144
1.0
145
0.0
146
1.0
147
0.625
 71
0.0
 72
0.0
 73
1
 74
1
 75
0
 76
0
 77
0
 78
8
 79
2
170
0
171
1
172
0
173
0
174
0
175
0
176
0
177
0
178
0
270
2
179
2
271
2
272
2
273
2
274
2
275
0
280
0
281
0
282
0
283
1
284
8
285
0
286
0
287
3
288
0
340
11
278
46
341
218
342
218
343
218
344
218
  0
ENDTAB
  0
ENDSEC
  0
SECTION
  2
BLOCKS
  0
BLOCK
  5
20
100
AcDbEntity
  8
0
100
AcDbBlockBegin
  2
*Model_Space
 70
0
 10
0.0
 20
0.0
 30
0.0
  3
*Model_Space
  1

  0
ENDBLK
  5
21
100
AcDbEntity
  8
0
100
AcDbBlockEnd
  0
BLOCK
  5
1C
100
AcDbEntity
  8
0
100
AcDbBlockBegin
  2
*Paper_Space
 70
0
 10
0.0
 20
0.0
 30
0.0
  3
*Paper_Space
  1

  0
ENDBLK
  5
1D
100
AcDbEntity
  8
0
100
AcDbBlockEnd
  0
BLOCK
  5
21A
100
AcDbEntity
  8
0
100
AcDbBlockBegin
  2
_CLOSED
 70
64
 10
0.0
 20
0.0
  3
_CLOSED
  1

  0
LINE
  5
21B
100
AcDbEntity
  8
0
  6
BYBLOCK
 62
0
100
AcDbLine
 10
0.0
 20
0.0
 11
-1.0
 21
0.1666666667
  0
LINE
  5
21C
100
AcDbEntity
  8
0
  6
BYBLOCK
 62
0
100
AcDbLine
 10
-1.0
 20
0.1666666667
 11
-1.0
 21
-0.1666666667
  0
LINE
  5
21D
100
AcDbEntity
  8
0
  6
BYBLOCK
 62
0
100
AcDbLine
 10
-1.0
 20
-0.1666666667
 11
0.0
 21
0.0
  0
LINE
  5
21E
100
AcDbEntity
  8
0
  6
BYBLOCK
 62
0
100
AcDbLine
 10
-1.0
 20
0.0
 11
0.0
 21
0.0
  0
ENDBLK
  5
21F
100
AcDbEntity
  8
0
  6
BYBLOCK
 62
0
100
AcDbBlockEnd
  0
ENDSEC
  0
SECTION
  2
ENTITIES
  0
LINE
  5
220
100
AcDbEntity
  8
0
100
AcDbLine
 62
7
  6
CONTINUOUS
 10
115.8532557151
 20
188.9656952069
 11
53.8697825081
 21
172.3506853783
  0
LINE
  5
221
100
AcDbEntity
  8
0
100
AcDbLine
 62
7
  6
CONTINUOUS
 10
115.8532557151
 20
196.3203721144
 11
53.8697825081
 21
179.7053622857
  0
LINE
  5
222
100
AcDbEntity
  8
0
100
AcDbLine
 62
7
  6
CONTINUOUS
 10
50.3690123864
 20
181.0284685885
 11
54.0880207788
 21
182.0253691782
  0
LINE
  5
223
100
AcDbEntity
  8
0
100
AcDbLine
 62
7
  6
CONTINUOUS
 10
110.2863698199
 20
197.0896447562
 11
114.0053782123
 21
198.0865453459
  0
LINE
  5
224
100
AcDbEntity
  8
0
100
AcDbLine
 62
7
  6
CONTINUOUS
 10
110.9087927454
 20
199.8750756027
 11
107.189784353
 21
198.878175013
  0
LINE
  5
225
100
AcDbEntity
  8
0
100
AcDbLine
 62
7
  6
CONTINUOUS
 10
50.991435312
 20
183.813899435
 11
47.2724269196
 21
182.8169988453
  0
LINE
  5
226
100
AcDbEntity
  8
0
100
AcDbLine
 62
7
  6
CONTINUOUS
 10
42.2195944273
 20
182.7437398488
 11
94.168381515
 21
196.6688970462
  0
LINE
  5
227
100
AcDbEntity
  8
0
100
AcDbLine
 62
7
  6
CONTINUOUS
 10
101.711091076
 20
198.6907616983
 11
112.9315293667
 21
201.6984617002
  0
LINE
  5
228
100
AcDbEntity
  8
0
100
AcDbLine
 62
7
  6
CONTINUOUS
 10
40.7427426362
 20
192.816931879
 11
50.261096092
 21
195.3683787089
  0
LINE
  5
229
100
AcDbEntity
  8
0
100
AcDbLine
 62
7
  6
CONTINUOUS
 10
35.5672882833
 20
204.3556687073
 11
36.2032424625
 21
204.5261397118
  0
LINE
  5
22A
100
AcDbEntity
  8
0
100
AcDbLine
 62
7
  6
CONTINUOUS
 10
36.4642547178
 20
205.1755896203
 11
37.7570169517
 21
205.5221216249
  0
LINE
  5
22B
100
AcDbEntity
  8
0
100
AcDbLine
 62
7
  6
CONTINUOUS
 10
37.4434143651
 20
205.9617761259
 11
35.8449376244
 21
205.5332956716
  0
LINE
  5
22C
100
AcDbEntity
  8
0
100
AcDbLine
 62
7
  6
CONTINUOUS
 10
67.8424036163
 20
271.2593702265
 11
66.0902655908
 21
270.6735816965
  0
LINE
  5
22D
100
AcDbEntity
  8
0
100
AcDbLine
 62
7
  6
CONTINUOUS
 10
68.0651329144
 20
270.330021895
 11
68.5196201408
 21
270.5423564735
  0
LINE
  5
22E
100
AcDbEntity
  8
0
100
AcDbLine
 62
7
  6
CONTINUOUS
 10
121.6737844082
 20
250.0090054171
 11
118.3679991705
 21
249.1228715595
  0
LINE
  5
22F
100
AcDbEntity
  8
0
100
AcDbLine
 62
7
  6
CONTINUOUS
 10
-13.692082223
 20
218.7278406151
 11
-7.3146357683
 21
220.4373501028
  0
LINE
  5
230
100
AcDbEntity
  8
0
100
AcDbLine
 62
7
  6
CONTINUOUS
 10
-2.7900763965
 20
229.3056642013
 11
-2.1541222173
 21
229.4761352058
  0
LINE
  5
231
100
AcDbEntity
  8
0
100
AcDbLine
 62
7
  6
CONTINUOUS
 10
1.3283450625
 20
230.4096296534
 11
1.423235976
 21
230.435065683
  0
LINE
  5
232
100
AcDbEntity
  8
0
100
AcDbLine
 62
7
  6
CONTINUOUS
 10
37.7376562961
 20
206.1984378544
 11
36.7339625551
 21
206.223905064
  0
LINE
  5
233
100
AcDbEntity
  8
0
100
AcDbLine
 62
7
  6
CONTINUOUS
 10
-0.6121128325
 20
231.0462870813
 11
-0.9139503147
 21
230.9117716199
  0
LINE
  5
234
100
AcDbEntity
  8
0
100
AcDbLine
 62
7
  6
CONTINUOUS
 10
-0.4669212769
 20
230.5344487212
 11
-0.568494353
 21
230.4891821456
  0
LINE
  5
235
100
AcDbEntity
  8
0
100
AcDbLine
 62
7
  6
CONTINUOUS
 10
1.5336941296
 20
230.9905524696
 11
1.8355316117
 21
231.125067931
  0
LINE
  5
236
100
AcDbEntity
  8
0
100
AcDbLine
 62
7
  6
CONTINUOUS
 10
1.3885025739
 20
230.3991892936
 11
1.4215795254
 21
230.413930211
  0
LINE
  5
237
100
AcDbEntity
  8
0
100
AcDbLine
 62
7
  6
CONTINUOUS
 10
-1.893109962
 20
230.1255851142
 11
-0.2946332213
 21
230.5540655685
  0
LINE
  5
238
100
AcDbEntity
  8
0
100
AcDbLine
 62
7
  6
CONTINUOUS
 10
1.8355316117
 20
231.125067931
 11
3.4340083524
 21
231.5535483853
  0
LINE
  5
239
100
AcDbEntity
  8
0
100
AcDbLine
 62
7
  6
CONTINUOUS
 10
2.814691259
 20
231.9112544367
 11
1.2162145184
 21
231.4827739824
  0
LINE
  5
23A
100
AcDbEntity
  8
0
100
AcDbLine
 62
7
  6
CONTINUOUS
 10
-0.9139503147
 20
230.9117716199
 11
-2.5124270554
 21
230.4832911656
  0
LINE
  5
23B
100
AcDbEntity
  8
0
100
AcDbLine
 62
7
  6
CONTINUOUS
 10
-0.2946332213
 20
230.5540655685
 11
0.1339874434
 21
230.6153534182
  0
LINE
  5
23C
100
AcDbEntity
  8
0
100
AcDbLine
 62
7
  6
CONTINUOUS
 10
0.7846461159
 20
230.8518988671
 11
0.640408498
 21
230.8312745385
  0
LINE
  5
23D
100
AcDbEntity
  8
0
100
AcDbLine
 62
7
  6
CONTINUOUS
 10
1.2162145184
 20
231.4827739824
 11
0.7875938536
 21
231.4214861326
  0
LINE
  5
23E
100
AcDbEntity
  8
0
100
AcDbLine
 62
7
  6
CONTINUOUS
 10
36.7339625551
 20
206.223905064
 11
37.7405634635
 21
206.0968832093
  0
LINE
  5
23F
100
AcDbEntity
  8
0
100
AcDbLine
 62
7
  6
CONTINUOUS
 10
74.9256495055
 20
199.3639109044
 11
97.222730761
 21
196.241124444
  0
LINE
  5
240
100
AcDbEntity
  8
0
100
AcDbLine
 62
7
  6
CONTINUOUS
 10
89.3798824909
 20
199.7153291475
 11
67.0828012354
 21
202.8381156078
  0
LINE
  5
241
100
AcDbEntity
  8
0
100
AcDbLine
 62
7
  6
CONTINUOUS
 10
84.6218334483
 20
203.296116134
 11
94.9526228981
 21
201.8492518988
  0
LINE
  5
242
100
AcDbEntity
  8
0
100
AcDbLine
 62
7
  6
CONTINUOUS
 10
80.8608112157
 20
205.4095951147
 11
100.8562844453
 21
202.6091571401
  0
LINE
  5
243
100
AcDbEntity
  8
0
100
AcDbLine
 62
7
  6
CONTINUOUS
 10
100.7377470641
 20
203.3999861494
 11
79.800243934
 21
206.3323588012
  0
LINE
  5
244
100
AcDbEntity
  8
0
100
AcDbLine
 62
7
  6
CONTINUOUS
 10
91.0333129744
 20
207.5618392795
 11
76.1576202462
 21
209.6452335726
  0
LINE
  5
245
100
AcDbEntity
  8
0
100
AcDbLine
 62
7
  6
CONTINUOUS
 10
-1.0352541954
 20
210.6940114431
 11
9.3379491079
 21
209.1488157731
  0
LINE
  5
246
100
AcDbEntity
  8
0
100
AcDbLine
 62
7
  6
CONTINUOUS
 10
9.3379491079
 20
218.3421619074
 11
-1.0352541954
 21
219.8873575774
  0
LINE
  5
247
100
AcDbEntity
  8
0
100
AcDbLine
 62
7
  6
CONTINUOUS
 10
-0.9721638113
 20
219.9032778378
 11
9.2862390241
 21
218.3751827948
  0
LINE
  5
248
100
AcDbEntity
  8
0
100
AcDbLine
 62
7
  6
CONTINUOUS
 10
70.6163229588
 20
263.650251775
 11
70.3837946136
 21
263.5879212772
  0
LINE
  5
249
100
AcDbEntity
  8
0
100
AcDbLine
 62
7
  6
CONTINUOUS
 10
72.0500395592
 20
267.4926075249
 11
73.6009799946
 21
267.9083456119
  0
LINE
  5
24A
100
AcDbEntity
  8
0
100
AcDbLine
 62
7
  6
CONTINUOUS
 10
69.6212292606
 20
267.4211958656
 11
69.3740267677
 21
267.354931882
  0
LINE
  5
24B
100
AcDbEntity
  8
0
100
AcDbLine
 62
7
  6
CONTINUOUS
 10
71.6187814815
 20
271.3731528853
 11
68.5196078211
 21
270.5424023939
  0
LINE
  5
24C
100
AcDbEntity
  8
0
100
AcDbLine
 62
7
  6
CONTINUOUS
 10
69.1834732259
 20
271.5026712729
 11
66.0902810212
 21
270.6735241435
  0
LINE
  5
24D
100
AcDbEntity
  8
0
100
AcDbLine
 62
7
  6
CONTINUOUS
 10
66.7104812018
 20
270.8809786515
 11
69.0004733638
 21
271.4948236058
  0
LINE
  5
24E
100
AcDbEntity
  8
0
100
AcDbLine
 62
7
  6
CONTINUOUS
 10
78.9642451598
 20
277.0040999627
 11
69.5944190766
 21
274.4924667094
  0
LINE
  5
24F
100
AcDbEntity
  8
0
100
AcDbLine
 62
7
  6
CONTINUOUS
 10
-0.5768376663
 20
230.5957448007
 11
-0.4942033064
 21
230.5936480789
  0
LINE
  5
250
100
AcDbEntity
  8
0
100
AcDbLine
 62
7
  6
CONTINUOUS
 10
1.4589294185
 20
230.8904959696
 11
2.5449834218
 21
230.8629389929
  0
LINE
  5
251
100
AcDbEntity
  8
0
100
AcDbLine
 62
7
  6
CONTINUOUS
 10
-0.5373481215
 20
231.1463435813
 11
-1.6234021248
 21
231.173900558
  0
LINE
  5
252
100
AcDbEntity
  8
0
100
AcDbLine
 62
7
  6
CONTINUOUS
 10
-1.6234021248
 20
231.173900558
 11
-0.6121128325
 21
231.0462870813
  0
LINE
  5
253
100
AcDbEntity
  8
0
100
AcDbLine
 62
7
  6
CONTINUOUS
 10
2.5449834218
 20
230.8629389929
 11
1.5336941296
 21
230.9905524696
  0
LINE
  5
254
100
AcDbEntity
  8
0
100
AcDbLine
 62
7
  6
CONTINUOUS
 10
37.0968877368
 20
228.5820897701
 11
29.6084020406
 21
229.6308796367
  0
LINE
  5
255
100
AcDbEntity
  8
0
100
AcDbLine
 62
7
  6
CONTINUOUS
 10
9.8104813505
 20
224.7324172615
 11
-0.9721638113
 21
226.338603508
  0
LINE
  5
256
100
AcDbEntity
  8
0
100
AcDbLine
 62
7
  6
CONTINUOUS
 10
37.8623160671
 20
201.8437595825
 11
39.5019893118
 21
201.3295327752
  0
LINE
  5
257
100
AcDbEntity
  8
0
100
AcDbLine
 62
7
  6
CONTINUOUS
 10
43.4488186417
 20
173.128089291
 11
-15.667812998
 21
207.2727578292
  0
LINE
  5
258
100
AcDbEntity
  8
0
100
AcDbLine
 62
7
  6
CONTINUOUS
 10
43.4488186417
 20
180.4827661984
 11
-15.667812998
 21
214.6274347366
  0
LINE
  5
259
100
AcDbEntity
  8
0
100
AcDbLine
 62
7
  6
CONTINUOUS
 10
-12.5686393376
 20
215.4581852281
 11
-10.0350694102
 21
213.9948422907
  0
LINE
  5
25A
100
AcDbEntity
  8
0
100
AcDbLine
 62
7
  6
CONTINUOUS
 10
-5.4896147084
 20
215.2132763448
 11
-8.0231846358
 21
216.6766192822
  0
LINE
  5
25B
100
AcDbEntity
  8
0
100
AcDbLine
 62
7
  6
CONTINUOUS
 10
32.8171831012
 20
188.3452992377
 11
42.2195944273
 21
182.7437398488
  0
LINE
  5
25C
100
AcDbEntity
  8
0
100
AcDbLine
 62
7
  6
CONTINUOUS
 10
-16.9694656773
 20
216.2889357195
 11
-16.9694656773
 21
208.9342588121
  0
LINE
  5
25D
100
AcDbEntity
  8
0
100
AcDbLine
 62
7
  6
CONTINUOUS
 10
-15.667812998
 20
214.6274347366
 11
-15.667812998
 21
207.2727578292
  0
LINE
  5
25E
100
AcDbEntity
  8
0
100
AcDbLine
 62
7
  6
CONTINUOUS
 10
0.8559368035
 20
231.8385009511
 11
0.5235861984
 21
231.4307328425
  0
LINE
  5
25F
100
AcDbEntity
  8
0
100
AcDbLine
 62
7
  6
CONTINUOUS
 10
0.5103831668
 20
230.8629329909
 11
0.7864561689
 21
231.2016528975
  0
LINE
  5
260
100
AcDbEntity
  8
0
100
AcDbLine
 62
7
  6
CONTINUOUS
 10
0.0656444935
 20
230.1983385998
 11
0.3979950986
 21
230.6061067084
  0
LINE
  5
261
100
AcDbEntity
  8
0
100
AcDbLine
 62
7
  6
CONTINUOUS
 10
38.6727144704
 20
230.2981816311
 11
37.04122072
 21
230.5266782013
  0
LINE
  5
262
100
AcDbEntity
  8
0
100
AcDbLine
 62
7
  6
CONTINUOUS
 10
29.6082829859
 20
229.6308548061
 11
27.8742452671
 21
229.9255092979
  0
LINE
  5
263
100
AcDbEntity
  8
0
100
AcDbLine
 62
7
  6
CONTINUOUS
 10
27.8772599648
 20
229.9260726309
 11
-4.6918579869
 21
236.5413963143
  0
LINE
  5
264
100
AcDbEntity
  8
0
100
AcDbLine
 62
7
  6
CONTINUOUS
 10
0.3979950986
 20
230.6061067084
 11
0.6947480814
 21
230.5338535551
  0
LINE
  5
265
100
AcDbEntity
  8
0
100
AcDbLine
 62
7
  6
CONTINUOUS
 10
0.640408498
 20
230.8312745385
 11
0.5103831668
 21
230.8629329909
  0
LINE
  5
266
100
AcDbEntity
  8
0
100
AcDbLine
 62
7
  6
CONTINUOUS
 10
0.5235861984
 20
231.4307328425
 11
0.2268332156
 21
231.5029859958
  0
LINE
  5
267
100
AcDbEntity
  8
0
100
AcDbLine
 62
7
  6
CONTINUOUS
 10
-4.6913485286
 20
236.5414089076
 11
-6.8083266834
 21
237.2813455084
  0
LINE
  5
268
100
AcDbEntity
  8
0
100
AcDbLine
 62
7
  6
CONTINUOUS
 10
50.261096092
 20
195.3683787089
 11
49.989435352
 21
195.5252849072
  0
LINE
  5
269
100
AcDbEntity
  8
0
100
AcDbLine
 62
7
  6
CONTINUOUS
 10
37.7334465403
 20
206.3454951764
 11
37.2276259667
 21
206.6376476613
  0
LINE
  5
26A
100
AcDbEntity
  8
0
100
AcDbLine
 62
7
  6
CONTINUOUS
 10
32.8164873692
 20
197.538475501
 11
40.7512028733
 21
192.8192186226
  0
LINE
  5
26B
100
AcDbEntity
  8
0
100
AcDbLine
 62
7
  6
CONTINUOUS
 10
38.0024013439
 20
200.8894233907
 11
32.8164873693
 21
203.9738011713
  0
LINE
  5
26C
100
AcDbEntity
  8
0
100
AcDbLine
 62
7
  6
CONTINUOUS
 10
32.8164873693
 20
202.5309926429
 11
32.1060057602
 21
202.9535794547
  0
LINE
  5
26D
100
AcDbEntity
  8
0
100
AcDbLine
 62
7
  6
CONTINUOUS
 10
30.8373230914
 20
203.7600690542
 11
32.1064370209
 21
202.9536599236
  0
LINE
  5
26E
100
AcDbEntity
  8
0
100
AcDbLine
 62
7
  6
CONTINUOUS
 10
-7.3483674294
 20
229.6216708997
 11
-5.6827943367
 21
228.5266037279
  0
LINE
  5
26F
100
AcDbEntity
  8
0
100
AcDbLine
 62
7
  6
CONTINUOUS
 10
-3.132326156
 20
221.3659282519
 11
-0.9721638113
 21
219.9032778378
  0
LINE
  5
270
100
AcDbEntity
  8
0
100
AcDbLine
 62
7
  6
CONTINUOUS
 10
-3.193493399
 20
212.1570490143
 11
-1.0352541954
 21
210.6940114431
  0
LINE
  5
271
100
AcDbEntity
  8
0
100
AcDbLine
 62
7
  6
CONTINUOUS
 10
-7.3146357683
 20
220.4373501028
 11
-3.7341184814
 21
218.0101718231
  0
LINE
  5
272
100
AcDbEntity
  8
0
100
AcDbLine
 62
7
  6
CONTINUOUS
 10
9.3379491079
 20
209.1488157731
 11
32.8171831012
 21
193.2325997058
  0
LINE
  5
273
100
AcDbEntity
  8
0
100
AcDbLine
 62
7
  6
CONTINUOUS
 10
-1.0352541954
 20
219.8873575774
 11
-3.1935709538
 21
221.3504477214
  0
LINE
  5
274
100
AcDbEntity
  8
0
100
AcDbLine
 62
7
  6
CONTINUOUS
 10
-3.6738816647
 20
227.1626843344
 11
-5.7860617509
 21
228.5944991302
  0
LINE
  5
275
100
AcDbEntity
  8
0
100
AcDbLine
 62
7
  6
CONTINUOUS
 10
9.2862390241
 20
218.3751827948
 11
32.8164873693
 21
202.4264174663
  0
LINE
  5
276
100
AcDbEntity
  8
0
100
AcDbLine
 62
7
  6
CONTINUOUS
 10
-8.0231846358
 20
216.6766192822
 11
-8.0231846358
 21
213.5300366658
  0
LINE
  5
277
100
AcDbEntity
  8
0
100
AcDbLine
 62
7
  6
CONTINUOUS
 10
-7.3146357683
 20
220.4373501028
 11
-7.3146357683
 21
229.5994932872
  0
LINE
  5
278
100
AcDbEntity
  8
0
100
AcDbLine
 62
7
  6
CONTINUOUS
 10
-5.4896147084
 20
214.0046134343
 11
-5.4896147084
 21
215.2132763448
  0
LINE
  5
279
100
AcDbEntity
  8
0
100
AcDbLine
 62
7
  6
CONTINUOUS
 10
-3.7341184814
 20
212.9472148921
 11
-3.7341184814
 21
222.1405610264
  0
LINE
  5
27A
100
AcDbEntity
  8
0
100
AcDbLine
 62
7
  6
CONTINUOUS
 10
-3.6738816647
 20
222.1567244584
 11
-3.6738816647
 21
228.5920501286
  0
LINE
  5
27B
100
AcDbEntity
  8
0
100
AcDbLine
 62
7
  6
CONTINUOUS
 10
-3.1935063244
 20
212.1570577768
 11
-3.1935580187
 21
221.3504389539
  0
LINE
  5
27C
100
AcDbEntity
  8
0
100
AcDbLine
 62
7
  6
CONTINUOUS
 10
-3.132326156
 20
227.8012539221
 11
-3.132326156
 21
221.3659190164
  0
LINE
  5
27D
100
AcDbEntity
  8
0
100
AcDbLine
 62
7
  6
CONTINUOUS
 10
-1.0352541954
 20
210.6940114431
 11
-1.0352541954
 21
219.8873575774
  0
LINE
  5
27E
100
AcDbEntity
  8
0
100
AcDbLine
 62
7
  6
CONTINUOUS
 10
-3.1081272744
 20
230.7732356886
 11
-3.1779610113
 21
228.9349772162
  0
LINE
  5
27F
100
AcDbEntity
  8
0
100
AcDbLine
 62
7
  6
CONTINUOUS
 10
-6.8085419419
 20
237.2821779654
 11
-7.3483674346
 21
229.6216634335
  0
LINE
  5
280
100
AcDbEntity
  8
0
100
AcDbLine
 62
7
  6
CONTINUOUS
 10
-4.6919226755
 20
236.5414004842
 11
-5.6827842916
 21
228.5265905777
  0
LINE
  5
281
100
AcDbEntity
  8
0
100
AcDbLine
 62
7
  6
CONTINUOUS
 10
0.1339874434
 20
230.6153534182
 11
0.0656444935
 21
230.1983385998
  0
LINE
  5
282
100
AcDbEntity
  8
0
100
AcDbLine
 62
7
  6
CONTINUOUS
 10
0.7875938536
 20
231.4214861326
 11
0.8559368035
 21
231.8385009511
  0
LINE
  5
283
100
AcDbEntity
  8
0
100
AcDbLine
 62
7
  6
CONTINUOUS
 10
0.9543107232
 20
230.3839352653
 11
1.2162145184
 21
231.4827739824
  0
LINE
  5
284
100
AcDbEntity
  8
0
100
AcDbLine
 62
7
  6
CONTINUOUS
 10
37.7406392455
 20
206.094235957
 11
37.4434143651
 21
205.9617761259
  0
LINE
  5
285
100
AcDbEntity
  8
0
100
AcDbLine
 62
7
  6
CONTINUOUS
 10
56.5592675824
 20
269.4053791112
 11
26.1515282865
 21
268.6007537375
  0
LINE
  5
286
100
AcDbEntity
  8
0
100
AcDbLine
 62
7
  6
CONTINUOUS
 10
1.2248000521
 20
230.2277059355
 11
0.6947480814
 21
230.5338535551
  0
LINE
  5
287
100
AcDbEntity
  8
0
100
AcDbLine
 62
7
  6
CONTINUOUS
 10
-0.5996130938
 20
231.2814525314
 11
-1.1297387131
 21
231.5876431553
  0
LINE
  5
288
100
AcDbEntity
  8
0
100
AcDbLine
 62
7
  6
CONTINUOUS
 10
1.5211943908
 20
230.7553870195
 11
2.0513200097
 21
230.4491962089
  0
LINE
  5
289
100
AcDbEntity
  8
0
100
AcDbLine
 62
7
  6
CONTINUOUS
 10
-0.303218754
 20
231.8091347865
 11
0.2268332156
 21
231.5029859958
  0
LINE
  5
28A
100
AcDbEntity
  8
0
100
AcDbLine
 62
7
  6
CONTINUOUS
 10
36.5103126873
 20
207.0219454389
 11
32.9843330865
 21
209.1190262625
  0
LINE
  5
28B
100
AcDbEntity
  8
0
100
AcDbLine
 62
7
  6
CONTINUOUS
 10
-0.9721638113
 20
226.338603508
 11
-3.132326156
 21
227.8012539221
  0
LINE
  5
28C
100
AcDbEntity
  8
0
100
AcDbLine
 62
7
  6
CONTINUOUS
 10
-0.4648228252
 20
230.5084453121
 11
-0.4669212769
 21
230.5344487212
  0
LINE
  5
28D
100
AcDbEntity
  8
0
100
AcDbLine
 62
7
  6
CONTINUOUS
 10
-0.568494353
 20
230.4891821456
 11
-0.6121128325
 21
231.0462870813
  0
LINE
  5
28E
100
AcDbEntity
  8
0
100
AcDbLine
 62
7
  6
CONTINUOUS
 10
-0.4942033064
 20
230.5936480789
 11
-0.5373481215
 21
231.1463435813
  0
LINE
  5
28F
100
AcDbEntity
  8
0
100
AcDbLine
 62
7
  6
CONTINUOUS
 10
4.0297085714
 20
230.7732356886
 11
4.0995423084
 21
228.9349772162
  0
LINE
  5
290
100
AcDbEntity
  8
0
100
AcDbLine
 62
7
  6
CONTINUOUS
 10
0.1358154809
 20
230.2844328941
 11
0.1339874434
 21
230.6153534182
  0
LINE
  5
291
100
AcDbEntity
  8
0
100
AcDbLine
 62
7
  6
CONTINUOUS
 10
-0.9721638113
 20
219.9032704495
 11
-0.9721638113
 21
226.3386035081
  0
LINE
  5
292
100
AcDbEntity
  8
0
100
AcDbLine
 62
7
  6
CONTINUOUS
 10
9.3379491079
 20
209.1488157731
 11
9.3379491079
 21
218.3421619074
  0
LINE
  5
293
100
AcDbEntity
  8
0
100
AcDbLine
 62
7
  6
CONTINUOUS
 10
0.7846461159
 20
230.8518988671
 11
0.7875938536
 21
231.4214861326
  0
LINE
  5
294
100
AcDbEntity
  8
0
100
AcDbLine
 62
7
  6
CONTINUOUS
 10
0.6380276851
 20
230.5476637869
 11
0.640408498
 21
230.8312745385
  0
LINE
  5
295
100
AcDbEntity
  8
0
100
AcDbLine
 62
7
  6
CONTINUOUS
 10
0.5103831668
 20
230.8629329909
 11
0.5235861984
 21
231.4307328425
  0
LINE
  5
296
100
AcDbEntity
  8
0
100
AcDbLine
 62
7
  6
CONTINUOUS
 10
0.1645943251
 20
230.3197422772
 11
0.2268332156
 21
231.5029859958
  0
LINE
  5
297
100
AcDbEntity
  8
0
100
AcDbLine
 62
7
  6
CONTINUOUS
 10
1.4870693427
 20
230.2756383431
 11
1.5211943908
 21
230.7553870195
  0
LINE
  5
298
100
AcDbEntity
  8
0
100
AcDbLine
 62
7
  6
CONTINUOUS
 10
1.4157846035
 20
230.3399899359
 11
1.4589294185
 21
230.8904959696
  0
LINE
  5
299
100
AcDbEntity
  8
0
100
AcDbLine
 62
7
  6
CONTINUOUS
 10
1.5255672451
 20
230.8888051356
 11
1.5336941296
 21
230.9905524696
  0
LINE
  5
29A
100
AcDbEntity
  8
0
100
AcDbLine
 62
7
  6
CONTINUOUS
 10
1.3764980462
 20
230.2530670811
 11
1.3885025739
 21
230.3991892936
  0
LINE
  5
29B
100
AcDbEntity
  8
0
100
AcDbLine
 62
7
  6
CONTINUOUS
 10
26.8721600955
 20
268.6197273967
 11
23.8561590805
 21
268.7541277021
  0
LINE
  5
29C
100
AcDbEntity
  8
0
100
AcDbLine
 62
7
  6
CONTINUOUS
 10
76.2190921187
 20
252.7357318106
 11
55.649824604
 21
255.6165317394
  0
LINE
  5
29D
100
AcDbEntity
  8
0
100
AcDbLine
 62
7
  6
CONTINUOUS
 10
86.5051816446
 20
254.6449747346
 11
82.6344340325
 21
255.1870868656
  0
LINE
  5
29E
100
AcDbEntity
  8
0
100
AcDbLine
 62
7
  6
CONTINUOUS
 10
-0.4942033064
 20
230.5936480789
 11
-0.4669212769
 21
230.5344487212
  0
LINE
  5
29F
100
AcDbEntity
  8
0
100
AcDbLine
 62
7
  6
CONTINUOUS
 10
-0.5996130938
 20
231.2814525314
 11
-0.5373481215
 21
231.1463435813
  0
LINE
  5
2A0
100
AcDbEntity
  8
0
100
AcDbLine
 62
7
  6
CONTINUOUS
 10
1.4157846035
 20
230.3399899359
 11
1.3885025739
 21
230.3991892936
  0
LINE
  5
2A1
100
AcDbEntity
  8
0
100
AcDbLine
 62
7
  6
CONTINUOUS
 10
1.5211943908
 20
230.7553870195
 11
1.4589294185
 21
230.8904959696
  0
LINE
  5
2A2
100
AcDbEntity
  8
0
100
AcDbLine
 62
7
  6
CONTINUOUS
 10
-0.7806049487
 20
230.4237981826
 11
-0.9139503147
 21
230.9117716199
  0
LINE
  5
2A3
100
AcDbEntity
  8
0
100
AcDbLine
 62
7
  6
CONTINUOUS
 10
112.6708998472
 20
203.3999930432
 11
117.8289864901
 21
200.4207779928
  0
LINE
  5
2A4
100
AcDbEntity
  8
0
100
AcDbLine
 62
7
  6
CONTINUOUS
 10
32.1060057602
 20
202.9535794547
 11
29.6084020406
 21
229.6308796367
  0
LINE
  5
2A5
100
AcDbEntity
  8
0
100
AcDbLine
 62
7
  6
CONTINUOUS
 10
37.04122072
 20
230.5266782014
 11
37.8623160671
 21
201.8437595825
  0
LINE
  5
2A6
100
AcDbEntity
  8
0
100
AcDbLine
 62
7
  6
CONTINUOUS
 10
39.5019893118
 20
201.3295327752
 11
38.6727144704
 21
230.2981816312
  0
LINE
  5
2A7
100
AcDbEntity
  8
0
100
AcDbLine
 62
7
  6
CONTINUOUS
 10
32.8164873693
 20
203.9738011713
 11
32.8171831012
 21
188.3452992377
  0
LINE
  5
2A8
100
AcDbEntity
  8
0
100
AcDbLine
 62
7
  6
CONTINUOUS
 10
32.8164873693
 20
203.9738011713
 11
32.9843330865
 21
209.1190262625
  0
LINE
  5
2A9
100
AcDbEntity
  8
0
100
AcDbLine
 62
7
  6
CONTINUOUS
 10
35.2492374055
 20
205.8232401946
 11
35.1794036685
 21
203.9849817222
  0
LINE
  5
2AA
100
AcDbEntity
  8
0
100
AcDbLine
 62
7
  6
CONTINUOUS
 10
37.5767597311
 20
205.4738026886
 11
37.4434143651
 21
205.9617761259
  0
LINE
  5
2AB
100
AcDbEntity
  8
0
100
AcDbLine
 62
7
  6
CONTINUOUS
 10
38.0024013439
 20
200.8894233907
 11
37.8623160671
 21
201.8437595825
  0
LINE
  5
2AC
100
AcDbEntity
  8
0
100
AcDbLine
 62
7
  6
CONTINUOUS
 10
39.5019893118
 20
201.3295327752
 11
42.2195944274
 21
182.7437398488
  0
LINE
  5
2AD
100
AcDbEntity
  8
0
100
AcDbLine
 62
7
  6
CONTINUOUS
 10
27.8743362136
 20
229.9254894708
 11
30.8373288329
 21
203.7600582233
  0
LINE
  5
2AE
100
AcDbEntity
  8
0
100
AcDbLine
 62
7
  6
CONTINUOUS
 10
47.4063856277
 20
220.3396481805
 11
50.0126985638
 21
195.3018041967
  0
LINE
  5
2AF
100
AcDbEntity
  8
0
100
AcDbLine
 62
7
  6
CONTINUOUS
 10
50.261096092
 20
195.3683787089
 11
47.7708380542
 21
219.2913254977
  0
LINE
  5
2B0
100
AcDbEntity
  8
0
100
AcDbLine
 62
7
  6
CONTINUOUS
 10
43.4488186417
 20
173.128089291
 11
43.4488186417
 21
180.4827661984
  0
LINE
  5
2B1
100
AcDbEntity
  8
0
100
AcDbLine
 62
7
  6
CONTINUOUS
 10
47.2724269196
 20
182.8169988453
 11
47.2724269196
 21
181.0392994181
  0
LINE
  5
2B2
100
AcDbEntity
  8
0
100
AcDbLine
 62
7
  6
CONTINUOUS
 10
50.991435312
 20
181.1953124663
 11
50.991435312
 21
183.813899435
  0
LINE
  5
2B3
100
AcDbEntity
  8
0
100
AcDbLine
 62
7
  6
CONTINUOUS
 10
53.8697825081
 20
179.7053622857
 11
53.8697825081
 21
172.3506853783
  0
LINE
  5
2B4
100
AcDbEntity
  8
0
100
AcDbLine
 62
7
  6
CONTINUOUS
 10
61.8395578178
 20
271.8534860175
 11
61.8242251862
 21
272.0538780376
  0
LINE
  5
2B5
100
AcDbEntity
  8
0
100
AcDbLine
 62
7
  6
CONTINUOUS
 10
61.8242251862
 20
273.8928032222
 11
61.839581309
 21
273.6919200156
  0
LINE
  5
2B6
100
AcDbEntity
  8
0
100
AcDbLine
 62
7
  6
CONTINUOUS
 10
61.8242251861
 20
273.8914054949
 11
61.8242251861
 21
272.0522903618
  0
LINE
  5
2B7
100
AcDbEntity
  8
0
100
AcDbLine
 62
7
  6
CONTINUOUS
 10
63.2126547107
 20
272.5467417644
 11
63.2126547107
 21
270.6638810013
  0
LINE
  5
2B8
100
AcDbEntity
  8
0
100
AcDbLine
 62
7
  6
CONTINUOUS
 10
107.1546616481
 20
252.2506002971
 11
110.0345446243
 21
250.5872333743
  0
LINE
  5
2B9
100
AcDbEntity
  8
0
100
AcDbLine
 62
7
  6
CONTINUOUS
 10
118.3679991705
 20
249.1228715595
 11
117.2823907887
 21
249.7498987993
  0
LINE
  5
2BA
100
AcDbEntity
  8
0
100
AcDbLine
 62
7
  6
CONTINUOUS
 10
70.2701866619
 20
271.5241833089
 11
70.2701866619
 21
271.01165465
  0
LINE
  5
2BB
100
AcDbEntity
  8
0
100
AcDbLine
 62
7
  6
CONTINUOUS
 10
73.6009799946
 20
270.1347524273
 11
73.6009799946
 21
264.6187447467
  0
LINE
  5
2BC
100
AcDbEntity
  8
0
100
AcDbLine
 62
7
  6
CONTINUOUS
 10
79.8213777128
 20
206.1913635704
 11
79.800243934
 21
206.3323588012
  0
LINE
  5
2BD
100
AcDbEntity
  8
0
100
AcDbLine
 62
7
  6
CONTINUOUS
 10
94.9526228981
 20
201.8492518988
 11
95.0711602793
 21
201.0584228894
  0
LINE
  5
2BE
100
AcDbEntity
  8
0
100
AcDbLine
 62
7
  6
CONTINUOUS
 10
107.154661648
 20
255.9279387508
 11
107.154661648
 21
252.2506002971
  0
LINE
  5
2BF
100
AcDbEntity
  8
0
100
AcDbLine
 62
7
  6
CONTINUOUS
 10
107.189784353
 20
198.878175013
 11
107.189784353
 21
197.1004755858
  0
LINE
  5
2C0
100
AcDbEntity
  8
0
100
AcDbLine
 62
7
  6
CONTINUOUS
 10
100.8562844453
 20
202.6091571401
 11
100.7377470641
 21
203.3999861494
  0
LINE
  5
2C1
100
AcDbEntity
  8
0
100
AcDbLine
 62
7
  6
CONTINUOUS
 10
110.0345446243
 20
250.5872333743
 11
110.0345446243
 21
252.4259026012
  0
LINE
  5
2C2
100
AcDbEntity
  8
0
100
AcDbLine
 62
7
  6
CONTINUOUS
 10
110.9087927454
 20
197.256488634
 11
110.9087927454
 21
199.8750756027
  0
LINE
  5
2C3
100
AcDbEntity
  8
0
100
AcDbLine
 62
7
  6
CONTINUOUS
 10
115.8532557151
 20
188.9656952069
 11
115.8532557151
 21
196.3203721144
  0
LINE
  5
2C4
100
AcDbEntity
  8
0
100
AcDbLine
 62
7
  6
CONTINUOUS
 10
118.3679991705
 20
249.1228715595
 11
118.3679991705
 21
251.4694424649
  0
LINE
  5
2C5
100
AcDbEntity
  8
0
100
AcDbLine
 62
7
  6
CONTINUOUS
 10
119.1306391694
 20
198.7592770099
 11
119.1306391694
 21
191.4046001025
  0
LINE
  5
2C6
100
AcDbEntity
  8
0
100
AcDbLine
 62
7
  6
CONTINUOUS
 10
121.6737844082
 20
250.0090054171
 11
121.6737844082
 21
252.0770289937
  0
LINE
  5
2C7
100
AcDbEntity
  8
0
100
AcDbLine
 62
7
  6
CONTINUOUS
 10
111.7683575598
 20
209.2922802782
 11
112.9315293667
 21
201.6984617002
  0
LINE
  5
2C8
100
AcDbEntity
  8
0
100
AcDbLine
 62
7
  6
CONTINUOUS
 10
117.2823907887
 20
249.7498987993
 11
117.0516621026
 21
251.2892186021
  0
LINE
  5
2C9
100
AcDbEntity
  8
0
100
AcDbLine
 62
7
  6
CONTINUOUS
 10
136.480826526
 20
259.5149734614
 11
136.480826526
 21
257.6763042346
  0
LINE
  5
2CA
100
AcDbEntity
  8
0
100
AcDbLine
 62
7
  6
CONTINUOUS
 10
136.6009799946
 20
270.1347524273
 11
136.6009799946
 21
264.6187447467
  0
ARC
  5
2CB
100
AcDbEntity
  8
0
100
AcDbCircle
 62
7
  6
CONTINUOUS
 10
1888.8893121157
 20
2968.4465063979
 40
3325.4930845148
100
AcDbArc
 50
235.473941103
 51
235.5940493519
  0
ARC
  5
2CC
100
AcDbEntity
  8
0
100
AcDbCircle
 62
7
  6
CONTINUOUS
 10
-1888.6857893159
 20
378.0894475385
 40
1904.6801486656
100
AcDbArc
 50
355.1898948932
 51
355.3817798931
  0
ARC
  5
2CD
100
AcDbEntity
  8
0
100
AcDbCircle
 62
7
  6
CONTINUOUS
 10
-55.7529745451
 20
255.5889635842
 40
62.3881070825
100
AcDbArc
 50
336.018307741
 51
336.1970823424
  0
ARC
  5
2CE
100
AcDbEntity
  8
0
100
AcDbCircle
 62
7
  6
CONTINUOUS
 10
15.5355099355
 20
243.5764807735
 40
61.3709135188
100
AcDbArc
 50
8.5831276432
 51
19.9145813437
  0
ARC
  5
2CF
100
AcDbEntity
  8
0
100
AcDbCircle
 62
7
  6
CONTINUOUS
 10
19.1827596446
 20
244.5065586022
 40
60.8147999756
100
AcDbArc
 50
10.3594479688
 51
12.8954161721
  0
ARC
  5
2D0
100
AcDbEntity
  8
0
100
AcDbCircle
 62
7
  6
CONTINUOUS
 10
18.268226355
 20
244.567313758
 40
58.4641131449
100
AcDbArc
 50
19.9138287434
 51
23.0868447998
  0
ARC
  5
2D1
100
AcDbEntity
  8
0
100
AcDbCircle
 62
7
  6
CONTINUOUS
 10
75.8934554968
 20
222.9518471239
 40
58.2922942903
100
AcDbArc
 50
79.1828161789
 51
79.5853044962
  0
ARC
  5
2D2
100
AcDbEntity
  8
0
100
AcDbCircle
 62
7
  6
CONTINUOUS
 10
33.4662020849
 20
231.4284532281
 40
38.6145439334
100
AcDbArc
 50
152.4066576205
 51
159.2538613225
  0
ARC
  5
2D3
100
AcDbEntity
  8
0
100
AcDbCircle
 62
7
  6
CONTINUOUS
 10
57.1984107226
 20
245.3999885786
 40
24.0138640826
100
AcDbArc
 50
87.4260661078
 51
91.5251516181
  0
ARC
  5
2D4
100
AcDbEntity
  8
0
100
AcDbCircle
 62
7
  6
CONTINUOUS
 10
92.3956669306
 20
221.3170303621
 40
21.8112066248
100
AcDbArc
 50
262.0523822152
 51
273.306873268
  0
ARC
  5
2D5
100
AcDbEntity
  8
0
100
AcDbCircle
 62
7
  6
CONTINUOUS
 10
26.7154303488
 20
247.3476313793
 40
21.2616071465
100
AcDbArc
 50
91.5197005301
 51
97.589980181
  0
ARC
  5
2D6
100
AcDbEntity
  8
0
100
AcDbCircle
 62
7
  6
CONTINUOUS
 10
92.4900860886
 20
222.001156389
 40
20.3018063758
100
AcDbArc
 50
262.058140609
 51
276.9669296294
  0
ARC
  5
2D7
100
AcDbEntity
  8
0
100
AcDbCircle
 62
7
  6
CONTINUOUS
 10
72.753340878
 20
239.0461862643
 40
20.2615606821
100
AcDbArc
 50
51.1300288896
 51
52.1462349816
  0
ARC
  5
2D8
100
AcDbEntity
  8
0
100
AcDbCircle
 62
7
  6
CONTINUOUS
 10
71.3233468354
 20
227.5219525885
 40
19.891656581
100
AcDbArc
 50
287.2060531914
 51
292.8313763028
  0
ARC
  5
2D9
100
AcDbEntity
  8
0
100
AcDbCircle
 62
7
  6
CONTINUOUS
 10
121.9726589786
 20
279.2183900298
 40
18.488791133
100
AcDbArc
 50
303.0201070649
 51
303.7810121598
  0
ARC
  5
2DA
100
AcDbEntity
  8
0
100
AcDbCircle
 62
7
  6
CONTINUOUS
 10
72.9472916701
 20
226.9628948003
 40
18.2457301321
100
AcDbArc
 50
281.7263320415
 51
285.2354791969
  0
ARC
  5
2DB
100
AcDbEntity
  8
0
100
AcDbCircle
 62
7
  6
CONTINUOUS
 10
74.7290930996
 20
239.492534869
 40
18.1748828526
100
AcDbArc
 50
58.5114175204
 51
62.3013948843
  0
ARC
  5
2DC
100
AcDbEntity
  8
0
100
AcDbCircle
 62
7
  6
CONTINUOUS
 10
70.0514616064
 20
258.4378272219
 40
13.1948818455
100
AcDbArc
 50
73.7768916978
 51
77.1264325059
  0
ARC
  5
2DD
100
AcDbEntity
  8
0
100
AcDbCircle
 62
7
  6
CONTINUOUS
 10
70.3981731897
 20
260.284610493
 40
11.3141420038
100
AcDbArc
 50
83.6768801725
 51
84.566903944
  0
ARC
  5
2DE
100
AcDbEntity
  8
0
100
AcDbCircle
 62
7
  6
CONTINUOUS
 10
38.5439074612
 20
203.2694136797
 40
3.6212820567
100
AcDbArc
 50
103.1507602604
 51
104.9832729487
  0
ARC
  5
2DF
100
AcDbEntity
  8
0
100
AcDbCircle
 62
7
  6
CONTINUOUS
 10
0.7277086931
 20
228.1964722669
 40
2.2932138291
100
AcDbArc
 50
73.2594627767
 51
74.8160381668
  0
ARC
  5
2E0
100
AcDbEntity
  8
0
100
AcDbCircle
 62
7
  6
CONTINUOUS
 10
71.9608686247
 20
269.6323793856
 40
1.7916145424
100
AcDbArc
 50
75.556246095
 51
80.6343519868
  0
ARC
  5
2E1
100
AcDbEntity
  8
0
100
AcDbCircle
 62
7
  6
CONTINUOUS
 10
70.4287821184
 20
264.5613277244
 40
1.0990055056
100
AcDbArc
 50
237.9152175152
 51
239.9778035087
  0
ARC
  5
2E2
100
AcDbEntity
  8
0
100
AcDbCircle
 62
7
  6
CONTINUOUS
 10
69.3755932037
 20
266.3929018051
 40
1.0061637292
100
AcDbArc
 50
59.9845056361
 51
61.553526471
  0
ARC
  5
2E3
100
AcDbEntity
  8
0
100
AcDbCircle
 62
7
  6
CONTINUOUS
 10
-3.0549050526
 20
222.1564970146
 40
0.6189502641
100
AcDbArc
 50
179.9789467981
 51
183.7932560351
  0
ARC
  5
2E4
100
AcDbEntity
  8
0
100
AcDbCircle
 62
7
  6
CONTINUOUS
 10
-3.1151909902
 20
222.1403351635
 40
0.6189014799
100
AcDbArc
 50
177.1194984141
 51
183.7489574312
  0
ARC
  5
2E5
100
AcDbEntity
  8
0
100
AcDbCircle
 62
7
  6
CONTINUOUS
 10
3.534742518
 20
228.913584821
 40
0.5652031065
100
AcDbArc
 50
354.6291391845
 51
2.1691073724
  0
ARC
  5
2E6
100
AcDbEntity
  8
0
100
AcDbCircle
 62
7
  6
CONTINUOUS
 10
70.260700374
 20
264.0459183092
 40
0.5492444238
100
AcDbArc
 50
285.0385109945
 51
295.3740175536
  0
ARC
  5
2E7
100
AcDbEntity
  8
0
100
AcDbCircle
 62
7
  6
CONTINUOUS
 10
69.4971210073
 20
266.89693485
 40
0.5492444238
100
AcDbArc
 50
105.0385109945
 51
115.3740175538
  0
SPLINE
  5
2E8
100
AcDbEntity
  8
0
100
AcDbSpline
 62
7
  6
CONTINUOUS
 70
0
 71
3
 72
11
 73
7
 74
0
 42
0.0000001
 43
0.0000001
 44
0.0000000001
 40
0.0
 40
0.0
 40
0.0
 40
0.0
 40
0.241018736
 40
0.4842115308
 40
0.7358971751
 40
1.0
 40
1.0
 40
1.0
 40
1.0
 10
3.6122441022
 20
231.5199485473
 30
0.0
 10
3.6006475125
 20
231.5296576604
 30
0.0
 10
3.5746849425
 20
231.5462145744
 30
0.0
 10
3.5302016468
 20
231.5603112093
 30
0.0
 10
3.4822248457
 20
231.5631794931
 30
0.0
 10
3.450016199
 20
231.5578393763
 30
0.0
 10
3.4340083524
 20
231.5535483853
 30
0.0
  0
SPLINE
  5
2E9
100
AcDbEntity
  8
0
100
AcDbSpline
 62
7
  6
CONTINUOUS
 70
0
 71
3
 72
26
 73
22
 74
0
 42
0.0000001
 43
0.0000001
 44
0.0000000001
 40
0.0
 40
0.0
 40
0.0
 40
0.0
 40
0.0610299083
 40
0.1269639244
 40
0.197034038
 40
0.2701929652
 40
0.3452279066
 40
0.4208288444
 40
0.4956587479
 40
0.568418186
 40
0.6379140002
 40
0.7031369535
 40
0.7633583246
 40
0.8182571694
 40
0.8680913768
 40
0.891414399
 40
0.9139109065
 40
0.9358181521
 40
0.9573691686
 40
0.9786602907
 40
1.0
 40
1.0
 40
1.0
 40
1.0
 10
2.9474359511
 20
231.9052367283
 30
0.0
 10
2.821050404
 20
231.9576444638
 30
0.0
 10
2.5521245239
 20
232.0524518825
 30
0.0
 10
2.1241584584
 20
232.163462408
 30
0.0
 10
1.6625040072
 20
232.24781186
 30
0.0
 10
1.1761168955
 20
232.304123434
 30
0.0
 10
0.6748431621
 20
232.3314005602
 30
0.0
 10
0.1690950084
 20
232.3291217563
 30
0.0
 10
-0.3305566333
 20
232.2973328156
 30
0.0
 10
-0.8137607563
 20
232.2366321163
 30
0.0
 10
-1.2707821829
 20
232.1480923703
 30
0.0
 10
-1.6928865035
 20
232.0330951122
 30
0.0
 10
-2.0727998833
 20
231.8929218322
 30
0.0
 10
-2.4047949101
 20
231.7282343053
 30
0.0
 10
-2.6432756641
 20
231.5659015456
 30
0.0
 10
-2.8020962851
 20
231.4213218589
 30
0.0
 10
-2.9031054247
 20
231.3075045721
 30
0.0
 10
-2.9868915201
 20
231.1851411097
 30
0.0
 10
-3.051372279
 20
231.0544749367
 30
0.0
 10
-3.0941642518
 20
230.9164383592
 30
0.0
 10
-3.1063111615
 20
230.8210418777
 30
0.0
 10
-3.1081272744
 20
230.7732356886
 30
0.0
  0
LINE
  5
2EA
100
AcDbEntity
  8
0
100
AcDbLine
 62
7
  6
CONTINUOUS
 10
-2.1707593031
 20
228.94795815
 11
-2.144168249
 21
229.7921124745
  0
SPLINE
  5
2EB
100
AcDbEntity
  8
0
100
AcDbSpline
 62
7
  6
CONTINUOUS
 70
0
 71
3
 72
9
 73
5
 74
0
 42
0.0000001
 43
0.0000001
 44
0.0000000001
 40
0.0
 40
0.0
 40
0.0
 40
0.0
 40
0.2590168828
 40
1.0
 40
1.0
 40
1.0
 40
1.0
 10
1.2248559261
 20
230.2276683543
 30
0.0
 10
1.2637805401
 20
230.2334912429
 30
0.0
 10
1.4137564077
 20
230.2579003499
 30
0.0
 10
1.5625207152
 20
230.2901151088
 30
0.0
 10
1.6712740583
 20
230.3192670387
 30
0.0
  0
SPLINE
  5
2EC
100
AcDbEntity
  8
0
100
AcDbSpline
 62
7
  6
CONTINUOUS
 70
0
 71
3
 72
9
 73
5
 74
0
 42
0.0000001
 43
0.0000001
 44
0.0000000001
 40
0.0
 40
0.0
 40
0.0
 40
0.0
 40
0.5192878938
 40
1.0
 40
1.0
 40
1.0
 40
1.0
 10
1.6712740583
 20
230.3192670387
 30
0.0
 10
1.7384688052
 20
230.337278959
 30
0.0
 10
1.8668595849
 20
230.375891265
 30
0.0
 10
1.9922027421
 20
230.4236329291
 30
0.0
 10
2.0513081086
 20
230.4492024933
 30
0.0
  0
SPLINE
  5
2ED
100
AcDbEntity
  8
0
100
AcDbSpline
 62
7
  6
CONTINUOUS
 70
0
 71
3
 72
12
 73
8
 74
0
 42
0.0000001
 43
0.0000001
 44
0.0000000001
 40
0.0
 40
0.0
 40
0.0
 40
0.0
 40
0.2344666549
 40
0.4880789296
 40
0.6187053667
 40
0.7490045805
 40
1.0
 40
1.0
 40
1.0
 40
1.0
 10
-1.893109962
 20
230.1255851142
 30
0.0
 10
-1.9265393435
 20
230.1166241852
 30
0.0
 10
-1.9925502733
 20
230.083615381
 30
0.0
 10
-2.0583745324
 20
230.0183627243
 30
0.0
 10
-2.0996850574
 20
229.954325558
 30
0.0
 10
-2.1311259819
 20
229.885444379
 30
0.0
 10
-2.1430016399
 20
229.8291434718
 30
0.0
 10
-2.144168249
 20
229.7921124745
 30
0.0
  0
SPLINE
  5
2EE
100
AcDbEntity
  8
0
100
AcDbSpline
 62
7
  6
CONTINUOUS
 70
0
 71
3
 72
16
 73
12
 74
0
 42
0.0000001
 43
0.0000001
 44
0.0000000001
 40
0.0
 40
0.0
 40
0.0
 40
0.0
 40
0.157664922
 40
0.304479409
 40
0.4399942724
 40
0.564696928
 40
0.6801902891
 40
0.7891861244
 40
0.8949526548
 40
0.9473723931
 40
1.0
 40
1.0
 40
1.0
 40
1.0
 10
2.4185659197
 20
227.5282688002
 30
0.0
 10
2.5379706428
 20
227.560275891
 30
0.0
 10
2.7666477059
 20
227.6296762996
 30
0.0
 10
3.0882906651
 20
227.7555290566
 30
0.0
 10
3.3738010479
 20
227.8993970287
 30
0.0
 10
3.6204862502
 20
228.0619039984
 30
0.0
 10
3.8254003792
 20
228.2453928106
 30
0.0
 10
3.9833433709
 20
228.4530302926
 30
0.0
 10
4.0668995908
 20
228.6481892977
 30
0.0
 10
4.0980033303
 20
228.8110511333
 30
0.0
 10
4.1011087477
 20
228.8937432753
 30
0.0
 10
4.099542309
 20
228.9349771985
 30
0.0
  0
SPLINE
  5
2EF
100
AcDbEntity
  8
0
100
AcDbSpline
 62
7
  6
CONTINUOUS
 70
0
 71
3
 72
26
 73
22
 74
0
 42
0.0000001
 43
0.0000001
 44
0.0000000001
 40
0.0
 40
0.0
 40
0.0
 40
0.0
 40
0.0213314047
 40
0.0425701982
 40
0.0639892872
 40
0.085638259
 40
0.1076827683
 40
0.1303365034
 40
0.1781779442
 40
0.2303749426
 40
0.2874775858
 40
0.3494929648
 40
0.416022593
 40
0.4863760935
 40
0.5596581016
 40
0.6348355033
 40
0.7107931542
 40
0.7863837641
 40
0.860474488
 40
0.9319979845
 40
1.0
 40
1.0
 40
1.0
 40
1.0
 10
-3.177961012
 20
228.9349771987
 30
0.0
 10
-3.1796636192
 20
228.8901588628
 30
0.0
 10
-3.1757087196
 20
228.8002542711
 30
0.0
 10
-3.1477381034
 20
228.6680939338
 30
0.0
 10
-3.0996451369
 20
228.5411950839
 30
0.0
 10
-3.0333950479
 20
228.4209158678
 30
0.0
 10
-2.9507999777
 20
228.3080794674
 30
0.0
 10
-2.8189820612
 20
228.1645192966
 30
0.0
 10
-2.6172720731
 20
228.0014430344
 30
0.0
 10
-2.3320016854
 20
227.8331394311
 30
0.0
 10
-2.0023675651
 20
227.6863451452
 30
0.0
 10
-1.6322513929
 20
227.5609351071
 30
0.0
 10
-1.2266353247
 20
227.4576580088
 30
0.0
 10
-0.7917476395
 20
227.3776615571
 30
0.0
 10
-0.3347892286
 20
227.322043344
 30
0.0
 10
0.1363250396
 20
227.2916567004
 30
0.0
 10
0.6132423519
 20
227.2869913282
 30
0.0
 10
1.0874284019
 20
227.3081243357
 30
0.0
 10
1.5504474907
 20
227.3547115233
 30
0.0
 10
1.9941580039
 20
227.4260179219
 30
0.0
 10
2.2804628136
 20
227.4912495055
 30
0.0
 10
2.4185659197
 20
227.5282688002
 30
0.0
  0
SPLINE
  5
2F0
100
AcDbEntity
  8
0
100
AcDbSpline
 62
7
  6
CONTINUOUS
 70
0
 71
3
 72
15
 73
11
 74
0
 42
0.0000001
 43
0.0000001
 44
0.0000000001
 40
0.0
 40
0.0
 40
0.0
 40
0.0
 40
0.1203286417
 40
0.2487402757
 40
0.3819880433
 40
0.5165808123
 40
0.6489687993
 40
0.775704718
 40
0.8936132624
 40
1.0
 40
1.0
 40
1.0
 40
1.0
 10
2.4703713679
 20
229.5915481839
 30
0.0
 10
2.2887814485
 20
229.5428720104
 30
0.0
 10
1.9083550612
 20
229.4606033648
 30
0.0
 10
1.3163088863
 20
229.3813073479
 30
0.0
 10
0.6978274537
 20
229.3436608904
 30
0.0
 10
0.0720404039
 20
229.3488919337
 30
0.0
 10
-0.5417454519
 20
229.3968184955
 30
0.0
 10
-1.1246620641
 20
229.4859211153
 30
0.0
 10
-1.6587632032
 20
229.6133153808
 30
0.0
 10
-1.9909213475
 20
229.7277401114
 30
0.0
 10
-2.144168249
 20
229.7921124745
 30
0.0
  0
SPLINE
  5
2F1
100
AcDbEntity
  8
0
100
AcDbSpline
 62
7
  6
CONTINUOUS
 70
0
 71
3
 72
22
 73
18
 74
0
 42
0.0000001
 43
0.0000001
 44
0.0000000001
 40
0.0
 40
0.0
 40
0.0
 40
0.0
 40
0.0591862557
 40
0.113083191
 40
0.1624987497
 40
0.2087016298
 40
0.2533260883
 40
0.2982232729
 40
0.3452078666
 40
0.3958108696
 40
0.4511669134
 40
0.5120134843
 40
0.5787614426
 40
0.6515621118
 40
0.7303552502
 40
0.8149385146
 40
1.0
 40
1.0
 40
1.0
 40
1.0
 10
3.4340083524
 20
231.5535483853
 30
0.0
 10
3.4722004487
 20
231.5206950133
 30
0.0
 10
3.5418489935
 20
231.4538316862
 30
0.0
 10
3.6277711185
 20
231.3447813318
 30
0.0
 10
3.6891108315
 20
231.2324664668
 30
0.0
 10
3.7249181766
 20
231.1176687379
 30
0.0
 10
3.7343913313
 20
231.0015336817
 30
0.0
 10
3.7172067039
 20
230.8856343911
 30
0.0
 10
3.6738789664
 20
230.7714666735
 30
0.0
 10
3.6053184097
 20
230.6600348904
 30
0.0
 10
3.5124160057
 20
230.5520197594
 30
0.0
 10
3.3960439737
 20
230.4479938386
 30
0.0
 10
3.2570948908
 20
230.3485814048
 30
0.0
 10
3.0966017512
 20
230.2544516756
 30
0.0
 10
2.9157623649
 20
230.1662464035
 30
0.0
 10
2.6410308978
 20
230.0540950703
 30
0.0
 10
2.4211534409
 20
229.986335394
 30
0.0
 10
2.268743253
 20
229.9465346925
 30
0.0
  0
SPLINE
  5
2F2
100
AcDbEntity
  8
0
100
AcDbSpline
 62
7
  6
CONTINUOUS
 70
0
 71
3
 72
15
 73
11
 74
0
 42
0.0000001
 43
0.0000001
 44
0.0000000001
 40
0.0
 40
0.0
 40
0.0
 40
0.0
 40
0.1205728177
 40
0.2489056039
 40
0.381869958
 40
0.5161068773
 40
0.6482071997
 40
0.7748576287
 40
0.8929937519
 40
1.0
 40
1.0
 40
1.0
 40
1.0
 10
2.268743253
 20
229.9465346925
 30
0.0
 10
2.1044584738
 20
229.9036330363
 30
0.0
 10
1.7610115962
 20
229.8311179193
 30
0.0
 10
1.2273579083
 20
229.7612566462
 30
0.0
 10
0.6708821925
 20
229.7282172744
 30
0.0
 10
0.108166321
 20
229.7330398055
 30
0.0
 10
-0.4440600724
 20
229.775567952
 30
0.0
 10
-0.9694351313
 20
229.8544994312
 30
0.0
 10
-1.4523713447
 20
229.9673722465
 30
0.0
 10
-1.7535956152
 20
230.068637719
 30
0.0
 10
-1.893109962
 20
230.1255851142
 30
0.0
  0
LINE
  5
2F3
100
AcDbEntity
  8
0
100
AcDbLine
 62
7
  6
CONTINUOUS
 10
-2.7634853423
 20
230.1498185259
 11
-2.7900763965
 21
229.3056642013
  0
SPLINE
  5
2F4
100
AcDbEntity
  8
0
100
AcDbSpline
 62
7
  6
CONTINUOUS
 70
0
 71
3
 72
12
 73
8
 74
0
 42
0.0000001
 43
0.0000001
 44
0.0000000001
 40
0.0
 40
0.0
 40
0.0
 40
0.0
 40
0.2905429741
 40
0.5479843343
 40
0.7802136125
 40
0.8908237745
 40
1.0
 40
1.0
 40
1.0
 40
1.0
 10
-2.7634853423
 20
230.1498185259
 30
0.0
 10
-2.818458018
 20
230.1953711266
 30
0.0
 10
-2.916634743
 20
230.2885297313
 30
0.0
 10
-3.0300848549
 20
230.4446588086
 30
0.0
 10
-3.0872798828
 20
230.5826236317
 30
0.0
 10
-3.1072401541
 20
230.6922237165
 30
0.0
 10
-3.109143315
 20
230.7464277328
 30
0.0
 10
-3.1081251799
 20
230.7732356763
 30
0.0
  0
SPLINE
  5
2F5
100
AcDbEntity
  8
0
100
AcDbSpline
 62
7
  6
CONTINUOUS
 70
0
 71
3
 72
22
 73
18
 74
0
 42
0.0000001
 43
0.0000001
 44
0.0000000001
 40
0.0
 40
0.0
 40
0.0
 40
0.0
 40
0.0591862557
 40
0.113083191
 40
0.1624987497
 40
0.2087016298
 40
0.2533260883
 40
0.2982232729
 40
0.3452078666
 40
0.3958108696
 40
0.4511669134
 40
0.5120134843
 40
0.5787614426
 40
0.6515621118
 40
0.7303552502
 40
0.8149385146
 40
1.0
 40
1.0
 40
1.0
 40
1.0
 10
-2.5124270554
 20
230.4832911656
 30
0.0
 10
-2.5506191517
 20
230.5161445376
 30
0.0
 10
-2.6202676965
 20
230.5830078647
 30
0.0
 10
-2.7061898214
 20
230.6920582191
 30
0.0
 10
-2.7675295344
 20
230.8043730841
 30
0.0
 10
-2.8033368796
 20
230.919170813
 30
0.0
 10
-2.8128100342
 20
231.0353058692
 30
0.0
 10
-2.7956254068
 20
231.1512051598
 30
0.0
 10
-2.7522976694
 20
231.2653728774
 30
0.0
 10
-2.6837371127
 20
231.3768046605
 30
0.0
 10
-2.5908347087
 20
231.4848197915
 30
0.0
 10
-2.4744626766
 20
231.5888457123
 30
0.0
 10
-2.3355135938
 20
231.688258146
 30
0.0
 10
-2.1750204541
 20
231.7823878753
 30
0.0
 10
-1.9941810678
 20
231.8705931474
 30
0.0
 10
-1.7194496008
 20
231.9827444806
 30
0.0
 10
-1.4995721438
 20
232.0505041569
 30
0.0
 10
-1.347161956
 20
232.0903048584
 30
0.0
  0
SPLINE
  5
2F6
100
AcDbEntity
  8
0
100
AcDbSpline
 62
7
  6
CONTINUOUS
 70
0
 71
3
 72
15
 73
11
 74
0
 42
0.0000001
 43
0.0000001
 44
0.0000000001
 40
0.0
 40
0.0
 40
0.0
 40
0.0
 40
0.1205728177
 40
0.2489056039
 40
0.381869958
 40
0.5161068773
 40
0.6482071997
 40
0.7748576287
 40
0.8929937519
 40
1.0
 40
1.0
 40
1.0
 40
1.0
 10
-1.347161956
 20
232.0903048584
 30
0.0
 10
-1.1828771767
 20
232.1332065146
 30
0.0
 10
-0.8394302991
 20
232.2057216316
 30
0.0
 10
-0.3057766113
 20
232.2755829047
 30
0.0
 10
0.2506991045
 20
232.3086222765
 30
0.0
 10
0.813414976
 20
232.3037997454
 30
0.0
 10
1.3656413695
 20
232.2612715989
 30
0.0
 10
1.8910164284
 20
232.1823401196
 30
0.0
 10
2.3739526418
 20
232.0694673044
 30
0.0
 10
2.6751769122
 20
231.9682018319
 30
0.0
 10
2.814691259
 20
231.9112544367
 30
0.0
  0
SPLINE
  5
2F7
100
AcDbEntity
  8
0
100
AcDbSpline
 62
7
  6
CONTINUOUS
 70
0
 71
3
 72
15
 73
11
 74
0
 42
0.0000001
 43
0.0000001
 44
0.0000000001
 40
0.0
 40
0.0
 40
0.0
 40
0.0
 40
0.1718406101
 40
0.3309808051
 40
0.4761942171
 40
0.6068193646
 40
0.7228470751
 40
0.8252446944
 40
0.9163085758
 40
1.0
 40
1.0
 40
1.0
 40
1.0
 10
2.5096932392
 20
227.7301673937
 30
0.0
 10
2.6230728426
 20
227.760559418
 30
0.0
 10
2.839774162
 20
227.8257125301
 30
0.0
 10
3.1440876181
 20
227.9414955661
 30
0.0
 10
3.4122750853
 20
228.0703883595
 30
0.0
 10
3.6408810605
 20
228.2107504735
 30
0.0
 10
3.8270600043
 20
228.3610092441
 30
0.0
 10
3.9684076702
 20
228.5198831629
 30
0.0
 10
4.0624798054
 20
228.6861389788
 30
0.0
 10
4.0921143491
 20
228.8037629221
 30
0.0
 10
4.0974642116
 20
228.8606806892
 30
0.0
  0
SPLINE
  5
2F8
100
AcDbEntity
  8
0
100
AcDbSpline
 62
7
  6
CONTINUOUS
 70
0
 71
3
 72
9
 73
5
 74
0
 42
0.0000001
 43
0.0000001
 44
0.0000000001
 40
0.0
 40
0.0
 40
0.0
 40
0.0
 40
0.5355482671
 40
1.0
 40
1.0
 40
1.0
 40
1.0
 10
-2.1707593031
 20
228.94795815
 30
0.0
 10
-2.2887233785
 20
228.9976466667
 30
0.0
 10
-2.5045510877
 20
229.1016395966
 30
0.0
 10
-2.7044766512
 20
229.2349840644
 30
0.0
 10
-2.7900763965
 20
229.3056642013
 30
0.0
  0
SPLINE
  5
2F9
100
AcDbEntity
  8
0
100
AcDbSpline
 62
7
  6
CONTINUOUS
 70
0
 71
3
 72
9
 73
5
 74
0
 42
0.0000001
 43
0.0000001
 44
0.0000000001
 40
0.0
 40
0.0
 40
0.0
 40
0.0
 40
0.2590168828
 40
1.0
 40
1.0
 40
1.0
 40
1.0
 10
-0.303274629
 20
231.8091711966
 30
0.0
 10
-0.3421992431
 20
231.803348308
 30
0.0
 10
-0.4921751107
 20
231.778939201
 30
0.0
 10
-0.6409394181
 20
231.7467244421
 30
0.0
 10
-0.7496927612
 20
231.7175725122
 30
0.0
  0
SPLINE
  5
2FA
100
AcDbEntity
  8
0
100
AcDbSpline
 62
7
  6
CONTINUOUS
 70
0
 71
3
 72
25
 73
21
 74
0
 42
0.0000001
 43
0.0000001
 44
0.0000000001
 40
0.0
 40
0.0
 40
0.0
 40
0.0
 40
0.0156170212
 40
0.031539555
 40
0.0656188233
 40
0.0844238161
 40
0.1046382195
 40
0.1496984334
 40
0.2012856509
 40
0.2592818811
 40
0.3231988564
 40
0.3922874953
 40
0.4656101129
 40
0.5420929704
 40
0.620568738
 40
0.6998138834
 40
0.7785836972
 40
0.8556465053
 40
0.9298184515
 40
1.0
 40
1.0
 40
1.0
 40
1.0
 10
-3.1779610038
 20
228.934977218
 30
0.0
 10
-3.1791983227
 20
228.9024014521
 30
0.0
 10
-3.1759235745
 20
228.8362474866
 30
0.0
 10
-3.1457037827
 20
228.7020684106
 30
0.0
 10
-3.0795006721
 20
228.5718618668
 30
0.0
 10
-2.986173971
 20
228.450948407
 30
0.0
 10
-2.8640548295
 20
228.3243982078
 30
0.0
 10
-2.6697381226
 20
228.1748649764
 30
0.0
 10
-2.3881199124
 20
228.0155782251
 30
0.0
 10
-2.0546550953
 20
227.8727312514
 30
0.0
 10
-1.6752393043
 20
227.7488406803
 30
0.0
 10
-1.2566064586
 20
227.6461459148
 30
0.0
 10
-0.8063683101
 20
227.5665664414
 30
0.0
 10
-0.3327688421
 20
227.5115978227
 30
0.0
 10
0.1554741064
 20
227.4822785988
 30
0.0
 10
0.649354495
 20
227.4791632722
 30
0.0
 10
1.1397512264
 20
227.5023103679
 30
0.0
 10
1.6176248129
 20
227.5512837371
 30
0.0
 10
2.0741378954
 20
227.6251518313
 30
0.0
 10
2.3681905585
 20
227.6922368243
 30
0.0
 10
2.5096932392
 20
227.7301673937
 30
0.0
  0
SPLINE
  5
2FB
100
AcDbEntity
  8
0
100
AcDbSpline
 62
7
  6
CONTINUOUS
 70
0
 71
3
 72
12
 73
8
 74
0
 42
0.0000001
 43
0.0000001
 44
0.0000000001
 40
0.0
 40
0.0
 40
0.0
 40
0.0
 40
0.25100946
 40
0.381291321
 40
0.5119156772
 40
0.7655193973
 40
1.0
 40
1.0
 40
1.0
 40
1.0
 10
-2.7634853423
 20
230.1498185259
 30
0.0
 10
-2.7623186617
 20
230.1868517967
 30
0.0
 10
-2.7504588777
 20
230.2431541956
 30
0.0
 10
-2.7190158088
 20
230.3120388837
 30
0.0
 10
-2.6776450457
 20
230.3760283031
 30
0.0
 10
-2.6118987313
 20
230.4413564785
 30
0.0
 10
-2.545858608
 20
230.4743296546
 30
0.0
 10
-2.5124270554
 20
230.4832911656
 30
0.0
  0
SPLINE
  5
2FC
100
AcDbEntity
  8
0
100
AcDbSpline
 62
7
  6
CONTINUOUS
 70
0
 71
3
 72
9
 73
5
 74
0
 42
0.0000001
 43
0.0000001
 44
0.0000000001
 40
0.0
 40
0.0
 40
0.0
 40
0.0
 40
0.5192878938
 40
1.0
 40
1.0
 40
1.0
 40
1.0
 10
-0.7496927612
 20
231.7175725122
 30
0.0
 10
-0.8168875082
 20
231.6995605919
 30
0.0
 10
-0.9452782878
 20
231.6609482859
 30
0.0
 10
-1.0706214451
 20
231.6132066218
 30
0.0
 10
-1.1297268115
 20
231.5876370576
 30
0.0
  0
SPLINE
  5
2FD
100
AcDbEntity
  8
0
100
AcDbSpline
 62
7
  6
CONTINUOUS
 70
0
 71
3
 72
9
 73
5
 74
0
 42
0.0000001
 43
0.0000001
 44
0.0000000001
 40
0.0
 40
0.0
 40
0.0
 40
0.0
 40
0.4999897262
 40
1.0
 40
1.0
 40
1.0
 40
1.0
 10
-0.0447569947
 20
230.5897884557
 30
0.0
 10
-0.0880075735
 20
230.792971619
 30
0.0
 10
-0.1743640787
 20
231.1993775465
 30
0.0
 10
-0.2602162813
 20
231.6058902424
 30
0.0
 10
-0.303218754
 20
231.8091347865
 30
0.0
  0
SPLINE
  5
2FE
100
AcDbEntity
  8
0
100
AcDbSpline
 62
7
  6
CONTINUOUS
 70
0
 71
3
 72
9
 73
5
 74
0
 42
0.0000001
 43
0.0000001
 44
0.0000000001
 40
0.0
 40
0.0
 40
0.0
 40
0.0
 40
0.5153768913
 40
1.0
 40
1.0
 40
1.0
 40
1.0
 10
2.814691259
 20
231.9112544367
 30
0.0
 10
2.8370418538
 20
231.9172456361
 30
0.0
 10
2.8823583344
 20
231.9230658107
 30
0.0
 10
2.9273201212
 20
231.9135342619
 30
0.0
 10
2.9474259107
 20
231.9052153092
 30
0.0
  0
SPLINE
  5
2FF
100
AcDbEntity
  8
0
100
AcDbSpline
 62
7
  6
CONTINUOUS
 70
0
 71
3
 72
16
 73
12
 74
0
 42
0.0000001
 43
0.0000001
 44
0.0000000001
 40
0.0
 40
0.0
 40
0.0
 40
0.0
 40
0.0416464699
 40
0.0839422325
 40
0.1734195354
 40
0.2738609049
 40
0.3884238396
 40
0.5185424308
 40
0.6644029502
 40
0.8253272274
 40
1.0
 40
1.0
 40
1.0
 40
1.0
 10
4.0297070083
 20
230.7732356794
 30
0.0
 10
4.0308037382
 20
230.7443414463
 30
0.0
 10
4.0284103432
 20
230.685821855
 30
0.0
 10
4.0047654535
 20
230.5673323044
 30
0.0
 10
3.9373809956
 20
230.4183926438
 30
0.0
 10
3.8051933829
 20
230.2514856264
 30
0.0
 10
3.6235106203
 20
230.0936398983
 30
0.0
 10
3.3949955784
 20
229.9463779009
 30
0.0
 10
3.1227936636
 20
229.8113572486
 30
0.0
 10
2.8107574832
 20
229.6904513531
 30
0.0
 10
2.5875107824
 20
229.6229480462
 30
0.0
 10
2.4703713679
 20
229.5915481839
 30
0.0
  0
SPLINE
  5
300
100
AcDbEntity
  8
0
100
AcDbSpline
 62
7
  6
CONTINUOUS
 70
0
 71
3
 72
18
 73
14
 74
0
 42
0.0000001
 43
0.0000001
 44
0.0000000001
 40
0.0
 40
0.0
 40
0.0
 40
0.0
 40
0.1615373535
 40
0.3135671398
 40
0.4540485815
 40
0.5819055959
 40
0.6974613097
 40
0.7512863128
 40
0.8030289015
 40
0.8532531348
 40
0.9025755677
 40
0.951251752
 40
1.0
 40
1.0
 40
1.0
 40
1.0
 10
37.7056724709
 20
207.3052350847
 30
0.0
 10
37.5417354024
 20
207.2828497662
 30
0.0
 10
37.2247977945
 20
207.2289223696
 30
0.0
 10
36.7729701746
 20
207.1167661252
 30
0.0
 10
36.365042469
 20
206.9768522232
 30
0.0
 10
36.0079894781
 20
206.810179556
 30
0.0
 10
35.7509368847
 20
206.6442771388
 30
0.0
 10
35.5795863522
 20
206.4956225801
 30
0.0
 10
35.4707363925
 20
206.3784379945
 30
0.0
 10
35.3802560922
 20
206.2520431216
 30
0.0
 10
35.310550881
 20
206.1164791983
 30
0.0
 10
35.2642150828
 20
205.9727457904
 30
0.0
 10
35.2511328902
 20
205.8731357175
 30
0.0
 10
35.2492374055
 20
205.8232401946
 30
0.0
  0
LINE
  5
301
100
AcDbEntity
  8
0
100
AcDbLine
 62
7
  6
CONTINUOUS
 10
36.1866053767
 20
203.997962656
 11
36.2131964308
 21
204.8421169805
  0
SPLINE
  5
302
100
AcDbEntity
  8
0
100
AcDbSpline
 62
7
  6
CONTINUOUS
 70
0
 71
3
 72
12
 73
8
 74
0
 42
0.0000001
 43
0.0000001
 44
0.0000000001
 40
0.0
 40
0.0
 40
0.0
 40
0.0
 40
0.2344666549
 40
0.4880789296
 40
0.6187053667
 40
0.7490045805
 40
1.0
 40
1.0
 40
1.0
 40
1.0
 10
36.4642547178
 20
205.1755896203
 30
0.0
 10
36.4308253363
 20
205.1666286913
 30
0.0
 10
36.3648144065
 20
205.133619887
 30
0.0
 10
36.2989901474
 20
205.0683672304
 30
0.0
 10
36.2576796225
 20
205.004330064
 30
0.0
 10
36.2262386979
 20
204.935448885
 30
0.0
 10
36.2143630399
 20
204.8791479778
 30
0.0
 10
36.2131964308
 20
204.8421169805
 30
0.0
  0
SPLINE
  5
303
100
AcDbEntity
  8
0
100
AcDbSpline
 62
7
  6
CONTINUOUS
 70
0
 71
3
 72
18
 73
14
 74
0
 42
0.0000001
 43
0.0000001
 44
0.0000000001
 40
0.0
 40
0.0
 40
0.0
 40
0.0
 40
0.0481886184
 40
0.0963148819
 40
0.1450058781
 40
0.1945574218
 40
0.2456702723
 40
0.2989765766
 40
0.41401376
 40
0.5422022874
 40
0.6837199057
 40
0.8371490891
 40
1.0
 40
1.0
 40
1.0
 40
1.0
 10
35.1794036678
 20
203.9849817048
 30
0.0
 10
35.1773583184
 20
203.9311412435
 30
0.0
 10
35.1839471805
 20
203.8228056818
 30
0.0
 10
35.2255213927
 20
203.6651529391
 30
0.0
 10
35.2949761741
 20
203.5160828338
 30
0.0
 10
35.3893067215
 20
203.3775339768
 30
0.0
 10
35.5050481913
 20
203.2494768208
 30
0.0
 10
35.6900449941
 20
203.0875953773
 30
0.0
 10
35.9710216401
 20
202.9082117819
 30
0.0
 10
36.3637273661
 20
202.7302518391
 30
0.0
 10
36.8142311432
 20
202.5831767523
 30
0.0
 10
37.3136163685
 20
202.4683946154
 30
0.0
 10
37.6636994874
 20
202.4158790288
 30
0.0
 10
37.8445827797
 20
202.3950179336
 30
0.0
  0
SPLINE
  5
304
100
AcDbEntity
  8
0
100
AcDbSpline
 62
7
  6
CONTINUOUS
 70
0
 71
3
 72
11
 73
7
 74
0
 42
0.0000001
 43
0.0000001
 44
0.0000000001
 40
0.0
 40
0.0
 40
0.0
 40
0.0
 40
0.2726947511
 40
0.5324508627
 40
0.7758524423
 40
1.0
 40
1.0
 40
1.0
 40
1.0
 10
37.786851823
 20
204.4577082242
 30
0.0
 10
37.6402043912
 20
204.4751225095
 30
0.0
 10
37.3547136341
 20
204.5169027545
 30
0.0
 10
36.9430859526
 20
204.6025245092
 30
0.0
 10
36.5633879499
 20
204.7083780907
 30
0.0
 10
36.3251108671
 20
204.7951065898
 30
0.0
 10
36.2131964308
 20
204.8421169805
 30
0.0
  0
SPLINE
  5
305
100
AcDbEntity
  8
0
100
AcDbSpline
 62
7
  6
CONTINUOUS
 70
0
 71
3
 72
11
 73
7
 74
0
 42
0.0000001
 43
0.0000001
 44
0.0000000001
 40
0.0
 40
0.0
 40
0.0
 40
0.0
 40
0.2712293123
 40
0.5301027734
 40
0.773845041
 40
1.0
 40
1.0
 40
1.0
 40
1.0
 10
37.7737135685
 20
204.8493613226
 30
0.0
 10
37.6524691484
 20
204.8654435742
 30
0.0
 10
37.4162407799
 20
204.902850909
 30
0.0
 10
37.0749416451
 20
204.976465706
 30
0.0
 10
36.758366535
 20
205.065447397
 30
0.0
 10
36.5586727807
 20
205.1370497649
 30
0.0
 10
36.4642547178
 20
205.1755896203
 30
0.0
  0
LINE
  5
306
100
AcDbEntity
  8
0
100
AcDbLine
 62
7
  6
CONTINUOUS
 10
35.5938793375
 20
205.1998230319
 11
35.5672882833
 21
204.3556687073
  0
SPLINE
  5
307
100
AcDbEntity
  8
0
100
AcDbSpline
 62
7
  6
CONTINUOUS
 70
0
 71
3
 72
12
 73
8
 74
0
 42
0.0000001
 43
0.0000001
 44
0.0000000001
 40
0.0
 40
0.0
 40
0.0
 40
0.0
 40
0.2905429741
 40
0.5479843343
 40
0.7802136125
 40
0.8908237745
 40
1.0
 40
1.0
 40
1.0
 40
1.0
 10
35.5938793375
 20
205.1998230319
 30
0.0
 10
35.5389066618
 20
205.2453756326
 30
0.0
 10
35.4407299368
 20
205.3385342374
 30
0.0
 10
35.3272798249
 20
205.4946633146
 30
0.0
 10
35.270084797
 20
205.6326281378
 30
0.0
 10
35.2501245257
 20
205.7422282225
 30
0.0
 10
35.2482213648
 20
205.7964322388
 30
0.0
 10
35.2492394999
 20
205.8232401823
 30
0.0
  0
SPLINE
  5
308
100
AcDbEntity
  8
0
100
AcDbSpline
 62
7
  6
CONTINUOUS
 70
0
 71
3
 72
22
 73
18
 74
0
 42
0.0000001
 43
0.0000001
 44
0.0000000001
 40
0.0
 40
0.0
 40
0.0
 40
0.0
 40
0.0591862557
 40
0.113083191
 40
0.1624987497
 40
0.2087016298
 40
0.2533260883
 40
0.2982232729
 40
0.3452078666
 40
0.3958108696
 40
0.4511669134
 40
0.5120134843
 40
0.5787614426
 40
0.6515621118
 40
0.7303552502
 40
0.8149385146
 40
1.0
 40
1.0
 40
1.0
 40
1.0
 10
35.8449376244
 20
205.5332956716
 30
0.0
 10
35.8067455282
 20
205.5661490436
 30
0.0
 10
35.7370969833
 20
205.6330123708
 30
0.0
 10
35.6511748584
 20
205.7420627252
 30
0.0
 10
35.5898351454
 20
205.8543775901
 30
0.0
 10
35.5540278002
 20
205.969175319
 30
0.0
 10
35.5445546456
 20
206.0853103752
 30
0.0
 10
35.561739273
 20
206.2012096658
 30
0.0
 10
35.6050670105
 20
206.3153773834
 30
0.0
 10
35.6736275671
 20
206.4268091666
 30
0.0
 10
35.7665299711
 20
206.5348242976
 30
0.0
 10
35.8829020032
 20
206.6388502183
 30
0.0
 10
36.0218510861
 20
206.7382626521
 30
0.0
 10
36.1823442257
 20
206.8323923813
 30
0.0
 10
36.363183612
 20
206.9205976534
 30
0.0
 10
36.637915079
 20
207.0327489866
 30
0.0
 10
36.857792536
 20
207.1005086629
 30
0.0
 10
37.0102027239
 20
207.1403093645
 30
0.0
  0
SPLINE
  5
309
100
AcDbEntity
  8
0
100
AcDbSpline
 62
7
  6
CONTINUOUS
 70
0
 71
3
 72
9
 73
5
 74
0
 42
0.0000001
 43
0.0000001
 44
0.0000000001
 40
0.0
 40
0.0
 40
0.0
 40
0.0
 40
0.2404738117
 40
1.0
 40
1.0
 40
1.0
 40
1.0
 10
37.0102027239
 20
207.1403093645
 30
0.0
 10
37.0651245137
 20
207.1546517506
 30
0.0
 10
37.2944688987
 20
207.2106149574
 30
0.0
 10
37.5271240459
 20
207.2526840514
 30
0.0
 10
37.7046155429
 20
207.2779827968
 30
0.0
  0
SPLINE
  5
30A
100
AcDbEntity
  8
0
100
AcDbSpline
 62
7
  6
CONTINUOUS
 70
0
 71
3
 72
9
 73
5
 74
0
 42
0.0000001
 43
0.0000001
 44
0.0000000001
 40
0.0
 40
0.0
 40
0.0
 40
0.0
 40
0.5355482671
 40
1.0
 40
1.0
 40
1.0
 40
1.0
 10
36.1866053767
 20
203.997962656
 30
0.0
 10
36.0686413013
 20
204.0476511727
 30
0.0
 10
35.8528135921
 20
204.1516441027
 30
0.0
 10
35.6528880286
 20
204.2849885704
 30
0.0
 10
35.5672882833
 20
204.3556687073
 30
0.0
  0
SPLINE
  5
30B
100
AcDbEntity
  8
0
100
AcDbSpline
 62
7
  6
CONTINUOUS
 70
0
 71
3
 72
19
 73
15
 74
0
 42
0.0000001
 43
0.0000001
 44
0.0000000001
 40
0.0
 40
0.0
 40
0.0
 40
0.0
 40
0.0366460831
 40
0.0743698577
 40
0.1143593951
 40
0.1575615343
 40
0.2046527394
 40
0.2560672954
 40
0.3120335923
 40
0.372622963
 40
0.5072828806
 40
0.6585969013
 40
0.8239484912
 40
1.0
 40
1.0
 40
1.0
 40
1.0
 10
35.179403676
 20
203.984981724
 30
0.0
 10
35.1779143198
 20
203.9457703936
 30
0.0
 10
35.1833271271
 20
203.8656320292
 30
0.0
 10
35.2166611024
 20
203.7470122347
 30
0.0
 10
35.2745943331
 20
203.6304745134
 30
0.0
 10
35.3563556785
 20
203.5168122994
 30
0.0
 10
35.4611865907
 20
203.4065659621
 30
0.0
 10
35.5883443172
 20
203.3003173786
 30
0.0
 10
35.7369775176
 20
203.1986233315
 30
0.0
 10
35.9708542063
 20
203.065243815
 30
0.0
 10
36.3120444168
 20
202.9166276171
 30
0.0
 10
36.773649366
 20
202.771352133
 30
0.0
 10
37.2893134378
 20
202.6571663964
 30
0.0
 10
37.6515089017
 20
202.6050753245
 30
0.0
 10
37.8388909002
 20
202.5844742686
 30
0.0
  0
SPLINE
  5
30C
100
AcDbEntity
  8
0
100
AcDbSpline
 62
7
  6
CONTINUOUS
 70
0
 71
3
 72
12
 73
8
 74
0
 42
0.0000001
 43
0.0000001
 44
0.0000000001
 40
0.0
 40
0.0
 40
0.0
 40
0.0
 40
0.25100946
 40
0.381291321
 40
0.5119156772
 40
0.7655193973
 40
1.0
 40
1.0
 40
1.0
 40
1.0
 10
35.5938793375
 20
205.1998230319
 30
0.0
 10
35.5950460182
 20
205.2368563028
 30
0.0
 10
35.6069058021
 20
205.2931587017
 30
0.0
 10
35.638348871
 20
205.3620433897
 30
0.0
 10
35.6797196341
 20
205.4260328092
 30
0.0
 10
35.7454659485
 20
205.4913609846
 30
0.0
 10
35.8115060718
 20
205.5243341606
 30
0.0
 10
35.8449376244
 20
205.5332956716
 30
0.0
  0
SPLINE
  5
30D
100
AcDbEntity
  8
0
100
AcDbSpline
 62
7
  6
CONTINUOUS
 70
0
 71
3
 72
9
 73
5
 74
0
 42
0.0000001
 43
0.0000001
 44
0.0000000001
 40
0.0
 40
0.0
 40
0.0
 40
0.0
 40
0.5192878938
 40
1.0
 40
1.0
 40
1.0
 40
1.0
 10
37.6076719186
 20
206.7675770182
 30
0.0
 10
37.5404771716
 20
206.7495650979
 30
0.0
 10
37.412086392
 20
206.7109527919
 30
0.0
 10
37.2867432347
 20
206.6632111278
 30
0.0
 10
37.2276378683
 20
206.6376415636
 30
0.0
  0
SPLINE
  5
30E
100
AcDbEntity
  8
0
100
AcDbSpline
 62
7
  6
CONTINUOUS
 70
0
 71
3
 72
20
 73
16
 74
0
 42
0.0000001
 43
0.0000001
 44
0.0000000001
 40
0.0
 40
0.0
 40
0.0
 40
0.0
 40
0.0527859979
 40
0.1117095356
 40
0.1763665245
 40
0.2459440795
 40
0.3948277645
 40
0.5471735128
 40
0.6908579799
 40
0.7562118821
 40
0.8159005576
 40
0.8694870558
 40
0.9171655745
 40
0.9599859003
 40
1.0
 40
1.0
 40
1.0
 40
1.0
 10
69.8789106907
 20
263.6787240834
 30
0.0
 10
69.8143974999
 20
263.7159857043
 30
0.0
 10
69.6861889243
 20
263.8095299081
 30
0.0
 10
69.510429979
 20
263.9868517534
 30
0.0
 10
69.3448258738
 20
264.2042684256
 30
0.0
 10
69.1389009693
 20
264.5474310868
 30
0.0
 10
68.9371598513
 20
265.0338148249
 30
0.0
 10
68.7960036433
 20
265.6483055836
 30
0.0
 10
68.7687855101
 20
266.1612665763
 30
0.0
 10
68.811123151
 20
266.5389686896
 30
0.0
 10
68.8709989834
 20
266.7847197639
 30
0.0
 10
68.9585820486
 20
266.9955301591
 30
0.0
 10
69.0724708758
 20
267.1659989824
 30
0.0
 10
69.2109530543
 20
267.2908616574
 30
0.0
 10
69.3194834019
 20
267.3402882787
 30
0.0
 10
69.374029896
 20
267.3549203456
 30
0.0
  0
SPLINE
  5
30F
100
AcDbEntity
  8
0
100
AcDbSpline
 62
7
  6
CONTINUOUS
 70
0
 71
3
 72
10
 73
6
 74
0
 42
0.0000001
 43
0.0000001
 44
0.0000000001
 40
0.0
 40
0.0
 40
0.0
 40
0.0
 40
0.2307026797
 40
0.4700767113
 40
1.0
 40
1.0
 40
1.0
 40
1.0
 10
70.3837914853
 20
263.5879328136
 30
0.0
 10
70.344811222
 20
263.5774763795
 30
0.0
 10
70.2625658873
 20
263.5654941418
 30
0.0
 10
70.0870626716
 20
263.5796322307
 30
0.0
 10
69.9591858414
 20
263.6323586472
 30
0.0
 10
69.8789106907
 20
263.6787240834
 30
0.0
  0
SPLINE
  5
310
100
AcDbEntity
  8
0
100
AcDbSpline
 62
7
  6
CONTINUOUS
 70
0
 71
3
 72
10
 73
6
 74
0
 42
0.0000001
 43
0.0000001
 44
0.0000000001
 40
0.0
 40
0.0
 40
0.0
 40
0.0
 40
0.2321258149
 40
0.4722166886
 40
1.0
 40
1.0
 40
1.0
 40
1.0
 10
69.374029896
 20
267.3549203456
 30
0.0
 10
69.4112067757
 20
267.3648930231
 30
0.0
 10
69.4893842251
 20
267.3767243485
 30
0.0
 10
69.65583801
 20
267.3658996572
 30
0.0
 10
69.7779119759
 20
267.3192640525
 30
0.0
 10
69.854866769
 20
267.2775838381
 30
0.0
  0
SPLINE
  5
311
100
AcDbEntity
  8
0
100
AcDbSpline
 62
7
  6
CONTINUOUS
 70
0
 71
3
 72
20
 73
16
 74
0
 42
0.0000001
 43
0.0000001
 44
0.0000000001
 40
0.0
 40
0.0
 40
0.0
 40
0.0
 40
0.0527859979
 40
0.1117095356
 40
0.1763665245
 40
0.2459440795
 40
0.3948277645
 40
0.5471735128
 40
0.6908579799
 40
0.7562118821
 40
0.8159005576
 40
0.8694870558
 40
0.9171655745
 40
0.9599859003
 40
1.0
 40
1.0
 40
1.0
 40
1.0
 10
69.8789106907
 20
267.2641290758
 30
0.0
 10
69.9434238814
 20
267.2268674549
 30
0.0
 10
70.071632457
 20
267.1333232511
 30
0.0
 10
70.2473914023
 20
266.9560014058
 30
0.0
 10
70.4129955075
 20
266.7385847336
 30
0.0
 10
70.618920412
 20
266.3954220724
 30
0.0
 10
70.8206615301
 20
265.9090383343
 30
0.0
 10
70.961817738
 20
265.2945475756
 30
0.0
 10
70.9890358712
 20
264.7815865829
 30
0.0
 10
70.9466982303
 20
264.4038844696
 30
0.0
 10
70.8868223979
 20
264.1581333953
 30
0.0
 10
70.7992393327
 20
263.9473230001
 30
0.0
 10
70.6853505055
 20
263.7768541768
 30
0.0
 10
70.546868327
 20
263.6519915018
 30
0.0
 10
70.4383379794
 20
263.6025648805
 30
0.0
 10
70.3837914853
 20
263.5879328136
 30
0.0
  0
SPLINE
  5
312
100
AcDbEntity
  8
0
100
AcDbSpline
 62
7
  6
CONTINUOUS
 70
0
 71
3
 72
9
 73
5
 74
0
 42
0.0000001
 43
0.0000001
 44
0.0000000001
 40
0.0
 40
0.0
 40
0.0
 40
0.0
 40
0.2535190736
 40
1.0
 40
1.0
 40
1.0
 40
1.0
 10
72.9912865798
 20
271.3010436176
 30
0.0
 10
72.8786786703
 20
271.326722087
 30
0.0
 10
72.4331467825
 20
271.4219500117
 30
0.0
 10
71.982275187
 20
271.4924744414
 30
0.0
 10
71.6442605459
 20
271.5299239872
 30
0.0
  0
SPLINE
  5
313
100
AcDbEntity
  8
0
100
AcDbSpline
 62
7
  6
CONTINUOUS
 70
0
 71
3
 72
9
 73
5
 74
0
 42
0.0000001
 43
0.0000001
 44
0.0000000001
 40
0.0
 40
0.0
 40
0.0
 40
0.0
 40
0.5059158784
 40
1.0
 40
1.0
 40
1.0
 40
1.0
 10
71.4694342739
 20
271.5479230152
 30
0.0
 10
70.8561313654
 20
271.6062442392
 30
0.0
 10
69.631570518
 20
271.6215633108
 30
0.0
 10
68.4235076514
 20
271.4153028856
 30
0.0
 10
67.8423606172
 20
271.2595306397
 30
0.0
  0
SPLINE
  5
314
100
AcDbEntity
  8
0
100
AcDbSpline
 62
7
  6
CONTINUOUS
 70
0
 71
3
 72
9
 73
5
 74
0
 42
0.0000001
 43
0.0000001
 44
0.0000000001
 40
0.0
 40
0.0
 40
0.0
 40
0.0
 40
0.5050067066
 40
1.0
 40
1.0
 40
1.0
 40
1.0
 10
67.4855711143
 20
273.60024387
 30
0.0
 10
67.8044490806
 20
273.8193592586
 30
0.0
 10
68.4933986007
 20
274.1719069993
 30
0.0
 10
69.2281179143
 20
274.3942776614
 30
0.0
 10
69.5944185135
 20
274.4924665584
 30
0.0
  0
SPLINE
  5
315
100
AcDbEntity
  8
0
100
AcDbSpline
 62
7
  6
CONTINUOUS
 70
0
 71
3
 72
9
 73
5
 74
0
 42
0.0000001
 43
0.0000001
 44
0.0000000001
 40
0.0
 40
0.0
 40
0.0
 40
0.0
 40
0.4916582412
 40
1.0
 40
1.0
 40
1.0
 40
1.0
 10
65.5724565007
 20
272.605305318
 30
0.0
 10
65.9157304588
 20
272.6973230115
 30
0.0
 10
66.5948779317
 20
272.963610473
 30
0.0
 10
67.2006038338
 20
273.3682629327
 30
0.0
 10
67.4855711145
 20
273.6002438694
 30
0.0
  0
SPLINE
  5
316
100
AcDbEntity
  8
0
100
AcDbSpline
 62
7
  6
CONTINUOUS
 70
0
 71
3
 72
9
 73
5
 74
0
 42
0.0000001
 43
0.0000001
 44
0.0000000001
 40
0.0
 40
0.0
 40
0.0
 40
0.0
 40
0.4882849033
 40
1.0
 40
1.0
 40
1.0
 40
1.0
 10
66.0902752758
 20
270.6735455664
 30
0.0
 10
65.6343368291
 20
270.551327306
 30
0.0
 10
64.6629775788
 20
270.4262816533
 30
0.0
 10
63.6940315125
 20
270.5499064083
 30
0.0
 10
63.2126547107
 20
270.6638810013
 30
0.0
  0
SPLINE
  5
317
100
AcDbEntity
  8
0
100
AcDbSpline
 62
7
  6
CONTINUOUS
 70
0
 71
3
 72
13
 73
9
 74
0
 42
0.0000001
 43
0.0000001
 44
0.0000000001
 40
0.0
 40
0.0
 40
0.0
 40
0.0
 40
0.0973973657
 40
0.2053607171
 40
0.3229094653
 40
0.4487123592
 40
0.7184278307
 40
1.0
 40
1.0
 40
1.0
 40
1.0
 10
79.0679212476
 20
257.6404406187
 30
0.0
 10
79.880361784
 20
257.1711900533
 30
0.0
 10
81.656313517
 20
256.2893855135
 30
0.0
 10
84.564139937
 20
255.1753123379
 30
0.0
 10
87.812947925
 20
254.2164737545
 30
0.0
 10
92.6403252347
 20
253.1425774657
 30
0.0
 10
99.1242448662
 20
252.312601916
 30
0.0
 10
104.4431999152
 20
252.1808943281
 30
0.0
 10
107.1546616481
 20
252.2506002971
 30
0.0
  0
SPLINE
  5
318
100
AcDbEntity
  8
0
100
AcDbSpline
 62
7
  6
CONTINUOUS
 70
0
 71
3
 72
13
 73
9
 74
0
 42
0.0000001
 43
0.0000001
 44
0.0000000001
 40
0.0
 40
0.0
 40
0.0
 40
0.0
 40
0.290897303
 40
0.5611839991
 40
0.6851583493
 40
0.8001190962
 40
0.9052364025
 40
1.0
 40
1.0
 40
1.0
 40
1.0
 10
110.0345446243
 20
250.5872333743
 30
0.0
 10
112.714049869
 20
250.7330976352
 30
0.0
 10
117.8738020073
 20
251.2452932438
 30
0.0
 10
124.0846021791
 20
252.4913707037
 30
0.0
 10
128.5868945185
 20
253.8421958765
 30
0.0
 10
131.558152358
 20
254.9669608803
 30
0.0
 10
134.183433939
 20
256.2173691903
 30
0.0
 10
135.7646075833
 20
257.1750911892
 30
0.0
 10
136.480826526
 20
257.6763042346
 30
0.0
  0
SPLINE
  5
319
100
AcDbEntity
  8
0
100
AcDbSpline
 62
7
  6
CONTINUOUS
 70
0
 71
3
 72
10
 73
6
 74
0
 42
0.0000001
 43
0.0000001
 44
0.0000000001
 40
0.0
 40
0.0
 40
0.0
 40
0.0
 40
0.5223562383
 40
0.7642589868
 40
1.0
 40
1.0
 40
1.0
 40
1.0
 10
135.3738947535
 20
261.1929923437
 30
0.0
 10
135.7532767746
 20
261.7120575981
 30
0.0
 10
136.2243976405
 20
262.5467695259
 30
0.0
 10
136.5477797578
 20
263.7393077502
 30
0.0
 10
136.6009594806
 20
264.3285882444
 30
0.0
 10
136.6009519165
 20
264.6187447407
 30
0.0
  0
SPLINE
  5
31A
100
AcDbEntity
  8
0
100
AcDbSpline
 62
7
  6
CONTINUOUS
 70
0
 71
3
 72
9
 73
5
 74
0
 42
0.0000001
 43
0.0000001
 44
0.0000000001
 40
0.0
 40
0.0
 40
0.0
 40
0.0
 40
0.5309399732
 40
1.0
 40
1.0
 40
1.0
 40
1.0
 10
136.480826526
 20
259.5149734614
 30
0.0
 10
136.0775283112
 20
260.2124083478
 30
0.0
 10
135.2196104951
 20
261.4727736354
 30
0.0
 10
134.1517964696
 20
262.5662900353
 30
0.0
 10
133.6009435497
 20
263.017009611
 30
0.0
  0
SPLINE
  5
31B
100
AcDbEntity
  8
0
100
AcDbSpline
 62
7
  6
CONTINUOUS
 70
0
 71
3
 72
12
 73
8
 74
0
 42
0.0000001
 43
0.0000001
 44
0.0000000001
 40
0.0
 40
0.0
 40
0.0
 40
0.0
 40
0.3075767546
 40
0.5705632506
 40
0.7960383134
 40
0.8995111166
 40
1.0
 40
1.0
 40
1.0
 40
1.0
 10
131.1340387415
 20
277.1130565554
 30
0.0
 10
131.9555428041
 20
276.6385710655
 30
0.0
 10
133.4280182157
 20
275.6593161089
 30
0.0
 10
135.2049161414
 20
273.940894386
 30
0.0
 10
136.169069146
 20
272.3537360232
 30
0.0
 10
136.5400869642
 20
271.0753446756
 30
0.0
 10
136.6009849516
 20
270.4446991644
 30
0.0
 10
136.600965775
 20
270.1347524275
 30
0.0
  0
SPLINE
  5
31C
100
AcDbEntity
  8
0
100
AcDbSpline
 62
7
  6
CONTINUOUS
 70
0
 71
3
 72
12
 73
8
 74
0
 42
0.0000001
 43
0.0000001
 44
0.0000000001
 40
0.0
 40
0.0
 40
0.0
 40
0.0
 40
0.1004885255
 40
0.203961631
 40
0.4294370509
 40
0.6924212105
 40
1.0
 40
1.0
 40
1.0
 40
1.0
 10
73.6010146434
 20
264.6187447364
 30
0.0
 10
73.6010038407
 20
264.3087994602
 30
0.0
 10
73.6618559607
 20
263.6781505157
 30
0.0
 10
74.0329332754
 20
262.3997722854
 30
0.0
 10
74.9970446575
 20
260.8126114606
 30
0.0
 10
76.7739409753
 20
259.0941809637
 30
0.0
 10
78.2464126965
 20
258.114928701
 30
0.0
 10
79.0679212476
 20
257.6404406187
 30
0.0
  0
SPLINE
  5
31D
100
AcDbEntity
  8
0
100
AcDbSpline
 62
7
  6
CONTINUOUS
 70
0
 71
3
 72
17
 73
13
 74
0
 42
0.0000001
 43
0.0000001
 44
0.0000000001
 40
0.0
 40
0.0
 40
0.0
 40
0.0
 40
0.0368308241
 40
0.0749043684
 40
0.1153195779
 40
0.1589463776
 40
0.257939237
 40
0.3746139359
 40
0.5090581889
 40
0.659840162
 40
0.824526592
 40
1.0
 40
1.0
 40
1.0
 40
1.0
 10
73.6009942141
 20
270.1347524272
 30
0.0
 10
73.6010147051
 20
270.4659431449
 30
0.0
 10
73.6706950826
 20
271.1413653273
 30
0.0
 10
73.9804573792
 20
272.1371839385
 30
0.0
 10
74.4905964682
 20
273.1154814817
 30
0.0
 10
75.4718956657
 20
274.4436260505
 30
0.0
 10
77.2231129199
 20
276.0163111177
 30
0.0
 10
79.9172839965
 20
277.6656699148
 30
0.0
 10
83.2320469759
 20
279.1273349959
 30
0.0
 10
87.0894589175
 20
280.3662868457
 30
0.0
 10
91.3971243423
 20
281.3525606868
 30
0.0
 10
94.423974576
 20
281.8133376894
 30
0.0
 10
95.9908383788
 20
281.9995893311
 30
0.0
  0
SPLINE
  5
31E
100
AcDbEntity
  8
0
100
AcDbSpline
 62
7
  6
CONTINUOUS
 70
0
 71
3
 72
14
 73
10
 74
0
 42
0.0000001
 43
0.0000001
 44
0.0000000001
 40
0.0
 40
0.0
 40
0.0
 40
0.0
 40
0.2739055995
 40
0.4117430178
 40
0.5462530837
 40
0.6746611011
 40
0.7944359323
 40
0.9034161134
 40
1.0
 40
1.0
 40
1.0
 40
1.0
 10
95.9908383788
 20
281.9995893311
 30
0.0
 10
99.2522265338
 20
282.387267505
 30
0.0
 10
104.2003783906
 20
282.6414600485
 30
0.0
 10
110.7477118396
 20
282.3805344606
 30
0.0
 10
115.5311900595
 20
281.8841576616
 30
0.0
 10
120.0564920743
 20
281.101176005
 30
0.0
 10
124.2136162573
 20
280.0510160769
 30
0.0
 10
127.9008084972
 20
278.760609645
 30
0.0
 10
130.1311790001
 20
277.6922897172
 30
0.0
 10
131.1340387415
 20
277.1130565554
 30
0.0
  0
SPLINE
  5
31F
100
AcDbEntity
  8
0
100
AcDbSpline
 62
7
  6
CONTINUOUS
 70
0
 71
3
 72
10
 73
6
 74
0
 42
0.0000001
 43
0.0000001
 44
0.0000000001
 40
0.0
 40
0.0
 40
0.0
 40
0.0
 40
0.3092225873
 40
0.5788304512
 40
1.0
 40
1.0
 40
1.0
 40
1.0
 10
63.7201150685
 20
276.260490666
 30
0.0
 10
63.4353452256
 20
276.1060227324
 30
0.0
 10
62.9225040632
 20
275.7705457893
 30
0.0
 10
62.1752764765
 20
275.0424842004
 30
0.0
 10
61.8243811042
 20
274.3326060784
 30
0.0
 10
61.8242716823
 20
273.8913551175
 30
0.0
  0
SPLINE
  5
320
100
AcDbEntity
  8
0
100
AcDbSpline
 62
7
  6
CONTINUOUS
 70
0
 71
3
 72
11
 73
7
 74
0
 42
0.0000001
 43
0.0000001
 44
0.0000000001
 40
0.0
 40
0.0
 40
0.0
 40
0.0
 40
0.295243294
 40
0.5514806497
 40
0.7804011278
 40
1.0
 40
1.0
 40
1.0
 40
1.0
 10
63.2126547107
 20
270.6638810013
 30
0.0
 10
63.0282445106
 20
270.7075434242
 30
0.0
 10
62.6889394837
 20
270.8177992005
 30
0.0
 10
62.2570585124
 20
271.0836954524
 30
0.0
 10
61.9582961689
 20
271.4350112437
 30
0.0
 10
61.8614978269
 20
271.7142494502
 30
0.0
 10
61.8395578178
 20
271.8534860175
 30
0.0
  0
SPLINE
  5
321
100
AcDbEntity
  8
0
100
AcDbSpline
 62
7
  6
CONTINUOUS
 70
0
 71
3
 72
11
 73
7
 74
0
 42
0.0000001
 43
0.0000001
 44
0.0000000001
 40
0.0
 40
0.0
 40
0.0
 40
0.0
 40
0.2255171946
 40
0.4687352628
 40
0.7275128478
 40
1.0
 40
1.0
 40
1.0
 40
1.0
 10
63.7201150685
 20
276.2604906661
 30
0.0
 10
64.8741865487
 20
276.886494582
 30
0.0
 10
67.3529296526
 20
278.0455957456
 30
0.0
 10
71.3864781612
 20
279.3692254195
 30
0.0
 10
75.8107343677
 20
280.2808741708
 30
0.0
 10
78.8881969183
 20
280.622613438
 30
0.0
 10
80.4694269395
 20
280.7502355442
 30
0.0
  0
SPLINE
  5
322
100
AcDbEntity
  8
0
100
AcDbSpline
 62
7
  6
CONTINUOUS
 70
0
 71
3
 72
9
 73
5
 74
0
 42
0.0000001
 43
0.0000001
 44
0.0000000001
 40
0.0
 40
0.0
 40
0.0
 40
0.0
 40
0.4976290844
 40
1.0
 40
1.0
 40
1.0
 40
1.0
 10
86.4310357608
 20
280.2837839114
 30
0.0
 10
85.4534348703
 20
280.4633273634
 30
0.0
 10
83.4783656995
 20
280.7688529252
 30
0.0
 10
81.4695971617
 20
280.8309599351
 30
0.0
 10
80.4694269395
 20
280.7502355442
 30
0.0
  0
SPLINE
  5
323
100
AcDbEntity
  8
0
100
AcDbSpline
 62
7
  6
CONTINUOUS
 70
0
 71
3
 72
13
 73
9
 74
0
 42
0.0000001
 43
0.0000001
 44
0.0000000001
 40
0.0
 40
0.0
 40
0.0
 40
0.0
 40
0.1214494674
 40
0.2429594816
 40
0.3644524782
 40
0.4865052936
 40
0.7370613259
 40
1.0
 40
1.0
 40
1.0
 40
1.0
 10
69.5944185135
 20
274.4924665584
 30
0.0
 10
69.8452443363
 20
274.5597018044
 30
0.0
 10
70.3501837403
 20
274.68212999
 30
0.0
 10
71.1047972613
 20
274.8762801584
 30
0.0
 10
71.8657976135
 20
275.0517433659
 30
0.0
 10
72.9146447906
 20
275.1954135371
 30
0.0
 10
74.2828989108
 20
275.1377562369
 30
0.0
 10
75.3604094419
 20
274.9091817816
 30
0.0
 10
75.9025768081
 20
274.7604031872
 30
0.0
  0
SPLINE
  5
324
100
AcDbEntity
  8
0
100
AcDbSpline
 62
7
  6
CONTINUOUS
 70
0
 71
3
 72
9
 73
5
 74
0
 42
0.0000001
 43
0.0000001
 44
0.0000000001
 40
0.0
 40
0.0
 40
0.0
 40
0.0
 40
0.509879999
 40
1.0
 40
1.0
 40
1.0
 40
1.0
 10
63.2126547107
 20
272.5467417644
 30
0.0
 10
63.6089030278
 20
272.4687006584
 30
0.0
 10
64.4045380697
 20
272.3933368087
 30
0.0
 10
65.1974856897
 20
272.5047909961
 30
0.0
 10
65.5724565007
 20
272.605305318
 30
0.0
  0
SPLINE
  5
325
100
AcDbEntity
  8
0
100
AcDbSpline
 62
7
  6
CONTINUOUS
 70
0
 71
3
 72
11
 73
7
 74
0
 42
0.0000001
 43
0.0000001
 44
0.0000000001
 40
0.0
 40
0.0
 40
0.0
 40
0.0
 40
0.2212221321
 40
0.4499090763
 40
0.7052795718
 40
1.0
 40
1.0
 40
1.0
 40
1.0
 10
61.839581309
 20
273.6919200156
 30
0.0
 10
61.8614480343
 20
273.553256505
 30
0.0
 10
61.9575811894
 20
273.2760862538
 30
0.0
 10
62.2576560559
 20
272.9314566113
 30
0.0
 10
62.6907266706
 20
272.6797404317
 30
0.0
 10
63.0291639857
 20
272.5828802627
 30
0.0
 10
63.2126547107
 20
272.5467417644
 30
0.0
  0
SPLINE
  5
326
100
AcDbEntity
  8
0
100
AcDbSpline
 62
7
  6
CONTINUOUS
 70
0
 71
3
 72
14
 73
10
 74
0
 42
0.0000001
 43
0.0000001
 44
0.0000000001
 40
0.0
 40
0.0
 40
0.0
 40
0.0
 40
0.2960764272
 40
0.4370287996
 40
0.5705211155
 40
0.6947901875
 40
0.808382005
 40
0.9102655796
 40
1.0
 40
1.0
 40
1.0
 40
1.0
 10
107.154661648
 20
255.9279387508
 30
0.0
 10
109.8964416181
 20
255.9984241379
 30
0.0
 10
113.9436846823
 20
256.3082079945
 30
0.0
 10
119.1612565347
 20
257.1642028391
 30
0.0
 10
122.7642066026
 20
257.9897610497
 30
0.0
 10
126.057700768
 20
258.9940686939
 30
0.0
 10
128.9858885119
 20
260.159952529
 30
0.0
 10
131.4987215141
 20
261.4669562064
 30
0.0
 10
132.9631479275
 20
262.4839128579
 30
0.0
 10
133.6009435497
 20
263.017009611
 30
0.0
  0
SPLINE
  5
327
100
AcDbEntity
  8
0
100
AcDbSpline
 62
7
  6
CONTINUOUS
 70
0
 71
3
 72
13
 73
9
 74
0
 42
0.0000001
 43
0.0000001
 44
0.0000000001
 40
0.0
 40
0.0
 40
0.0
 40
0.0
 40
0.0947635624
 40
0.1998807904
 40
0.3148414757
 40
0.4388158123
 40
0.7091026012
 40
1.0
 40
1.0
 40
1.0
 40
1.0
 10
136.480826526
 20
259.5149734614
 30
0.0
 10
135.7646078073
 20
259.0137605727
 30
0.0
 10
134.1834357616
 20
258.056037887
 30
0.0
 10
131.5581566082
 20
256.8056277828
 30
0.0
 10
128.5869005767
 20
255.680861412
 30
0.0
 10
124.0846080236
 20
254.3300352926
 30
0.0
 10
117.8738052295
 20
253.0839600209
 30
0.0
 10
112.7140509051
 20
252.5717669184
 30
0.0
 10
110.0345446243
 20
252.4259026012
 30
0.0
  0
SPLINE
  5
328
100
AcDbEntity
  8
0
100
AcDbSpline
 62
7
  6
CONTINUOUS
 70
0
 71
3
 72
9
 73
5
 74
0
 42
0.0000001
 43
0.0000001
 44
0.0000000001
 40
0.0
 40
0.0
 40
0.0
 40
0.0
 40
0.4690621358
 40
1.0
 40
1.0
 40
1.0
 40
1.0
 10
107.154661648
 20
255.9279387508
 30
0.0
 10
107.7055170598
 20
255.4772171362
 30
0.0
 10
108.7733317199
 20
254.383701092
 30
0.0
 10
109.6312480006
 20
253.1233347363
 30
0.0
 10
110.0345446243
 20
252.4259026012
 30
0.0
  0
SPLINE
  5
329
100
AcDbEntity
  8
0
100
AcDbSpline
 62
7
  6
CONTINUOUS
 70
0
 71
3
 72
11
 73
7
 74
0
 42
0.0000001
 43
0.0000001
 44
0.0000000001
 40
0.0
 40
0.0
 40
0.0
 40
0.0
 40
0.2099580545
 40
0.4385706224
 40
0.6994380422
 40
1.0
 40
1.0
 40
1.0
 40
1.0
 10
136.600965775
 20
270.1347524275
 30
0.0
 10
136.6009314177
 20
269.5794434319
 30
0.0
 10
136.3940356097
 20
268.4122484575
 30
0.0
 10
135.5094280035
 20
266.7613740356
 30
0.0
 10
134.0979403227
 20
265.2002699216
 30
0.0
 10
132.913514302
 20
264.2931155934
 30
0.0
 10
132.2528002561
 20
263.8510840566
 30
0.0
  0
SPLINE
  5
32A
100
AcDbEntity
  8
0
100
AcDbSpline
 62
7
  6
CONTINUOUS
 70
0
 71
3
 72
19
 73
15
 74
0
 42
0.0000001
 43
0.0000001
 44
0.0000000001
 40
0.0
 40
0.0
 40
0.0
 40
0.0
 40
0.0470821448
 40
0.0994800673
 40
0.1568284594
 40
0.2185768908
 40
0.3523664271
 40
0.4943453766
 40
0.6371335778
 40
0.7732753086
 40
0.836709531
 40
0.8960226431
 40
0.9506063169
 40
1.0
 40
1.0
 40
1.0
 40
1.0
 10
132.0478173115
 20
263.7159198355
 30
0.0
 10
131.327207507
 20
263.2475490341
 30
0.0
 10
129.7374134458
 20
262.3600967344
 30
0.0
 10
127.1068913155
 20
261.2218263019
 30
0.0
 10
124.1377784526
 20
260.2196072796
 30
0.0
 10
119.6676886657
 20
259.0552179135
 30
0.0
 10
113.5714995542
 20
258.0673751706
 30
0.0
 10
105.9325796509
 20
257.6191665342
 30
0.0
 10
98.2431162008
 20
257.909714002
 30
0.0
 10
92.0390383011
 20
258.7691683487
 30
0.0
 10
87.432169835
 20
259.8350469376
 30
0.0
 10
84.3312106335
 20
260.7737837845
 30
0.0
 10
81.5503759151
 20
261.8555284563
 30
0.0
 10
79.8486885036
 20
262.7054916324
 30
0.0
 10
79.0679212476
 20
263.1564482993
 30
0.0
  0
SPLINE
  5
32B
100
AcDbEntity
  8
0
100
AcDbSpline
 62
7
  6
CONTINUOUS
 70
0
 71
3
 72
9
 73
5
 74
0
 42
0.0000001
 43
0.0000001
 44
0.0000000001
 40
0.0
 40
0.0
 40
0.0
 40
0.0
 40
0.2561240221
 40
1.0
 40
1.0
 40
1.0
 40
1.0
 10
79.0679212476
 20
263.1564482993
 30
0.0
 10
78.9672591653
 20
263.2145888486
 30
0.0
 10
78.5760548903
 20
263.444711187
 30
0.0
 10
78.1922853218
 20
263.6875493564
 30
0.0
 10
77.9121364758
 20
263.8759752386
 30
0.0
  0
SPLINE
  5
32C
100
AcDbEntity
  8
0
100
AcDbSpline
 62
7
  6
CONTINUOUS
 70
0
 71
3
 72
11
 73
7
 74
0
 42
0.0000001
 43
0.0000001
 44
0.0000000001
 40
0.0
 40
0.0
 40
0.0
 40
0.0
 40
0.3003419012
 40
0.5610974631
 40
0.7898127631
 40
1.0
 40
1.0
 40
1.0
 40
1.0
 10
77.9121364758
 20
263.8759752386
 30
0.0
 10
77.2566857681
 20
264.3168261634
 30
0.0
 10
76.0817978195
 20
265.2212613931
 30
0.0
 10
74.6825153536
 20
266.7766663273
 30
0.0
 10
73.8059540669
 20
268.4204432173
 30
0.0
 10
73.6009600119
 20
269.5819491769
 30
0.0
 10
73.6009942141
 20
270.1347524272
 30
0.0
  0
SPLINE
  5
32D
100
AcDbEntity
  8
0
100
AcDbSpline
 62
7
  6
CONTINUOUS
 70
0
 71
3
 72
17
 73
13
 74
0
 42
0.0000001
 43
0.0000001
 44
0.0000000001
 40
0.0
 40
0.0
 40
0.0
 40
0.0
 40
0.132915564
 40
0.2667936745
 40
0.3993722158
 40
0.5286121923
 40
0.6530997609
 40
0.7723889458
 40
0.8303959663
 40
0.8874804846
 40
0.9439102472
 40
1.0
 40
1.0
 40
1.0
 40
1.0
 10
113.231675887
 20
235.4348014697
 30
0.0
 10
113.5005886617
 20
233.6407343064
 30
0.0
 10
113.6660673243
 20
229.973619576
 30
0.0
 10
112.8245748364
 20
224.5536620727
 30
0.0
 10
110.943479978
 20
219.4513195498
 30
0.0
 10
108.1208318144
 20
214.9504067632
 30
0.0
 10
104.5072106056
 20
211.3023675618
 30
0.0
 10
100.9525445602
 20
209.1275719871
 30
0.0
 10
97.9402864886
 20
208.0261854437
 30
0.0
 10
95.6455049611
 20
207.5254989246
 30
0.0
 10
93.3298755681
 20
207.3516057789
 30
0.0
 10
91.7914664622
 20
207.4557108324
 30
0.0
 10
91.0333168631
 20
207.5618672378
 30
0.0
  0
SPLINE
  5
32E
100
AcDbEntity
  8
0
100
AcDbSpline
 62
7
  6
CONTINUOUS
 70
0
 71
3
 72
13
 73
9
 74
0
 42
0.0000001
 43
0.0000001
 44
0.0000000001
 40
0.0
 40
0.0
 40
0.0
 40
0.0
 40
0.2680784006
 40
0.5231816647
 40
0.6459686618
 40
0.7658127255
 40
0.8834850884
 40
1.0
 40
1.0
 40
1.0
 40
1.0
 10
79.4702225847
 20
222.2443841162
 30
0.0
 10
79.5575003319
 20
221.6621055666
 30
0.0
 10
79.8768344375
 20
220.5413027223
 30
0.0
 10
80.6498420501
 20
219.3235744974
 30
0.0
 10
81.444389343
 20
218.5661543145
 30
0.0
 10
82.1045182518
 20
218.1223353131
 30
0.0
 10
82.8198953502
 20
217.8075377841
 30
0.0
 10
83.32388016
 20
217.6887914907
 30
0.0
 10
83.5773069972
 20
217.6532793841
 30
0.0
  0
SPLINE
  5
32F
100
AcDbEntity
  8
0
100
AcDbSpline
 62
7
  6
CONTINUOUS
 70
0
 71
3
 72
13
 73
9
 74
0
 42
0.0000001
 43
0.0000001
 44
0.0000000001
 40
0.0
 40
0.0
 40
0.0
 40
0.0
 40
0.2680784006
 40
0.5231816647
 40
0.6459686618
 40
0.7658127255
 40
0.8834850884
 40
1.0
 40
1.0
 40
1.0
 40
1.0
 10
81.2895170058
 20
237.7124341278
 30
0.0
 10
81.376794753
 20
237.1301555782
 30
0.0
 10
81.6961288586
 20
236.0093527339
 30
0.0
 10
82.4691364712
 20
234.791624509
 30
0.0
 10
83.263683764
 20
234.0342043261
 30
0.0
 10
83.9238126728
 20
233.5903853247
 30
0.0
 10
84.6391897712
 20
233.2755877957
 30
0.0
 10
85.1431745811
 20
233.1568415023
 30
0.0
 10
85.3966014183
 20
233.1213293957
 30
0.0
  0
SPLINE
  5
330
100
AcDbEntity
  8
0
100
AcDbSpline
 62
7
  6
CONTINUOUS
 70
0
 71
3
 72
13
 73
9
 74
0
 42
0.0000001
 43
0.0000001
 44
0.0000000001
 40
0.0
 40
0.0
 40
0.0
 40
0.0
 40
0.2680784006
 40
0.5231816647
 40
0.6459686618
 40
0.7658127255
 40
0.8834850884
 40
1.0
 40
1.0
 40
1.0
 40
1.0
 10
100.2991470053
 20
227.8276915054
 30
0.0
 10
100.3864247525
 20
227.2454129559
 30
0.0
 10
100.7057588581
 20
226.1246101115
 30
0.0
 10
101.4787664707
 20
224.9068818867
 30
0.0
 10
102.2733137636
 20
224.1494617038
 30
0.0
 10
102.9334426724
 20
223.7056427023
 30
0.0
 10
103.6488197708
 20
223.3908451733
 30
0.0
 10
104.1528045806
 20
223.27209888
 30
0.0
 10
104.4062314179
 20
223.2365867734
 30
0.0
  0
SPLINE
  5
331
100
AcDbEntity
  8
0
100
AcDbSpline
 62
7
  6
CONTINUOUS
 70
0
 71
3
 72
13
 73
9
 74
0
 42
0.0000001
 43
0.0000001
 44
0.0000000001
 40
0.0
 40
0.0
 40
0.0
 40
0.0
 40
0.2680784006
 40
0.5231816647
 40
0.6459686618
 40
0.7658127255
 40
0.8834850884
 40
1.0
 40
1.0
 40
1.0
 40
1.0
 10
94.1625002468
 20
241.163107864
 30
0.0
 10
94.249777994
 20
240.5808293144
 30
0.0
 10
94.5691120996
 20
239.4600264701
 30
0.0
 10
95.3421197122
 20
238.2422982452
 30
0.0
 10
96.1366670051
 20
237.4848780623
 30
0.0
 10
96.7967959139
 20
237.0410590609
 30
0.0
 10
97.5121730123
 20
236.7262615319
 30
0.0
 10
98.0161578221
 20
236.6075152385
 30
0.0
 10
98.2695846593
 20
236.5720031319
 30
0.0
  0
SPLINE
  5
332
100
AcDbEntity
  8
0
100
AcDbSpline
 62
7
  6
CONTINUOUS
 70
0
 71
3
 72
11
 73
7
 74
0
 42
0.0000001
 43
0.0000001
 44
0.0000000001
 40
0.0
 40
0.0
 40
0.0
 40
0.0
 40
0.2614425601
 40
0.5138101812
 40
0.7589154294
 40
1.0
 40
1.0
 40
1.0
 40
1.0
 10
79.5031072596
 20
222.051220589
 30
0.0
 10
79.6012202493
 20
221.8864079559
 30
0.0
 10
79.8261619263
 20
221.5801301225
 30
0.0
 10
80.2458897748
 20
221.2076999878
 30
0.0
 10
80.7257702907
 20
220.9460593282
 30
0.0
 10
81.0743700964
 20
220.853140039
 30
0.0
 10
81.2495330939
 20
220.8286260923
 30
0.0
  0
SPLINE
  5
333
100
AcDbEntity
  8
0
100
AcDbSpline
 62
7
  6
CONTINUOUS
 70
0
 71
3
 72
11
 73
7
 74
0
 42
0.0000001
 43
0.0000001
 44
0.0000000001
 40
0.0
 40
0.0
 40
0.0
 40
0.0
 40
0.2614425601
 40
0.5138101812
 40
0.7589154294
 40
1.0
 40
1.0
 40
1.0
 40
1.0
 10
81.3224016807
 20
237.5192706006
 30
0.0
 10
81.4205146703
 20
237.3544579675
 30
0.0
 10
81.6454563474
 20
237.0481801341
 30
0.0
 10
82.0651841959
 20
236.6757499995
 30
0.0
 10
82.5450647117
 20
236.4141093398
 30
0.0
 10
82.8936645175
 20
236.3211900506
 30
0.0
 10
83.068827515
 20
236.2966761039
 30
0.0
  0
SPLINE
  5
334
100
AcDbEntity
  8
0
100
AcDbSpline
 62
7
  6
CONTINUOUS
 70
0
 71
3
 72
13
 73
9
 74
0
 42
0.0000001
 43
0.0000001
 44
0.0000000001
 40
0.0
 40
0.0
 40
0.0
 40
0.0
 40
0.1126084257
 40
0.227816271
 40
0.3475015298
 40
0.4724025418
 40
0.7336674034
 40
1.0
 40
1.0
 40
1.0
 40
1.0
 10
95.6282578513
 20
221.6213892627
 30
0.0
 10
95.3611250343
 20
221.6587992926
 30
0.0
 10
94.8066337897
 20
221.6560353843
 30
0.0
 10
93.9988148791
 20
221.4176373229
 30
0.0
 10
93.2558054055
 20
220.9626852984
 30
0.0
 10
92.3959362394
 20
220.0950826986
 30
0.0
 10
91.6963068756
 20
218.6443255158
 30
0.0
 10
91.6248509378
 20
217.3442693813
 30
0.0
 10
91.7194193786
 20
216.7133505468
 30
0.0
  0
SPLINE
  5
335
100
AcDbEntity
  8
0
100
AcDbSpline
 62
7
  6
CONTINUOUS
 70
0
 71
3
 72
11
 73
7
 74
0
 42
0.0000001
 43
0.0000001
 44
0.0000000001
 40
0.0
 40
0.0
 40
0.0
 40
0.0
 40
0.2614425601
 40
0.5138101812
 40
0.7589154294
 40
1.0
 40
1.0
 40
1.0
 40
1.0
 10
100.3320316802
 20
227.6345279782
 30
0.0
 10
100.4301446699
 20
227.4697153451
 30
0.0
 10
100.655086347
 20
227.1634375117
 30
0.0
 10
101.0748141954
 20
226.7910073771
 30
0.0
 10
101.5546947113
 20
226.5293667175
 30
0.0
 10
101.9032945171
 20
226.4364474283
 30
0.0
 10
102.0784575145
 20
226.4119334815
 30
0.0
  0
SPLINE
  5
336
100
AcDbEntity
  8
0
100
AcDbSpline
 62
7
  6
CONTINUOUS
 70
0
 71
3
 72
11
 73
7
 74
0
 42
0.0000001
 43
0.0000001
 44
0.0000000001
 40
0.0
 40
0.0
 40
0.0
 40
0.0
 40
0.2614425601
 40
0.5138101812
 40
0.7589154294
 40
1.0
 40
1.0
 40
1.0
 40
1.0
 10
94.1953849217
 20
240.9699443368
 30
0.0
 10
94.2934979114
 20
240.8051317037
 30
0.0
 10
94.5184395884
 20
240.4988538703
 30
0.0
 10
94.9381674369
 20
240.1264237357
 30
0.0
 10
95.4180479528
 20
239.864783076
 30
0.0
 10
95.7666477585
 20
239.7718637868
 30
0.0
 10
95.941810756
 20
239.7473498401
 30
0.0
  0
SPLINE
  5
337
100
AcDbEntity
  8
0
100
AcDbSpline
 62
7
  6
CONTINUOUS
 70
0
 71
3
 72
11
 73
7
 74
0
 42
0.0000001
 43
0.0000001
 44
0.0000000001
 40
0.0
 40
0.0
 40
0.0
 40
0.0
 40
0.2412230496
 40
0.4864011509
 40
0.7387088598
 40
1.0
 40
1.0
 40
1.0
 40
1.0
 10
96.8156160245
 20
245.9864267724
 30
0.0
 10
96.6422015809
 20
246.0106960101
 30
0.0
 10
96.2852322324
 20
246.0175676671
 30
0.0
 10
95.7571290287
 20
245.9009009417
 30
0.0
 10
95.255390744
 20
245.6635617021
 30
0.0
 10
94.956673838
 20
245.4355369898
 30
0.0
 10
94.8175988182
 20
245.3065657679
 30
0.0
  0
SPLINE
  5
338
100
AcDbEntity
  8
0
100
AcDbSpline
 62
7
  6
CONTINUOUS
 70
0
 71
3
 72
11
 73
7
 74
0
 42
0.0000001
 43
0.0000001
 44
0.0000000001
 40
0.0
 40
0.0
 40
0.0
 40
0.0
 40
0.2685754896
 40
0.5241420781
 40
0.7663548172
 40
1.0
 40
1.0
 40
1.0
 40
1.0
 10
91.7194193786
 20
216.7133505467
 30
0.0
 10
91.7786107625
 20
216.3184517984
 30
0.0
 10
91.9955230224
 20
215.5580423861
 30
0.0
 10
92.6148461371
 20
214.581355214
 30
0.0
 10
93.472658789
 20
213.8802836021
 30
0.0
 10
94.160776243
 20
213.6479103869
 30
0.0
 10
94.5047960123
 20
213.5997328923
 30
0.0
  0
SPLINE
  5
339
100
AcDbEntity
  8
0
100
AcDbSpline
 62
7
  6
CONTINUOUS
 70
0
 71
3
 72
15
 73
11
 74
0
 42
0.0000001
 43
0.0000001
 44
0.0000000001
 40
0.0
 40
0.0
 40
0.0
 40
0.0
 40
0.1122972302
 40
0.2271857689
 40
0.3465392092
 40
0.4710943801
 40
0.6004024434
 40
0.7330571102
 40
0.8670061981
 40
1.0
 40
1.0
 40
1.0
 40
1.0
 10
99.9261546225
 20
248.4001182463
 30
0.0
 10
99.5322674434
 20
248.4553127303
 30
0.0
 10
98.7146648445
 20
248.4512096113
 30
0.0
 10
97.5234975177
 20
248.0996452248
 30
0.0
 10
96.4280734396
 20
247.4290013874
 30
0.0
 10
95.4894693651
 20
246.4817348984
 30
0.0
 10
94.756665613
 20
245.3131483148
 30
0.0
 10
94.2682500038
 20
243.9883549713
 30
0.0
 10
94.049692467
 20
242.5810956285
 30
0.0
 10
94.0926762327
 20
241.6289428215
 30
0.0
 10
94.1625002468
 20
241.163107864
 30
0.0
  0
SPLINE
  5
33A
100
AcDbEntity
  8
0
100
AcDbSpline
 62
7
  6
CONTINUOUS
 70
0
 71
3
 72
11
 73
7
 74
0
 42
0.0000001
 43
0.0000001
 44
0.0000000001
 40
0.0
 40
0.0
 40
0.0
 40
0.0
 40
0.2412230496
 40
0.4864011509
 40
0.7387088598
 40
1.0
 40
1.0
 40
1.0
 40
1.0
 10
102.952262783
 20
232.6510104138
 30
0.0
 10
102.7788483395
 20
232.6752796516
 30
0.0
 10
102.4218789909
 20
232.6821513086
 30
0.0
 10
101.8937757872
 20
232.5654845832
 30
0.0
 10
101.3920375025
 20
232.3281453436
 30
0.0
 10
101.0933205965
 20
232.1001206312
 30
0.0
 10
100.9542455767
 20
231.9711494094
 30
0.0
  0
SPLINE
  5
33B
100
AcDbEntity
  8
0
100
AcDbSpline
 62
7
  6
CONTINUOUS
 70
0
 71
3
 72
15
 73
11
 74
0
 42
0.0000001
 43
0.0000001
 44
0.0000000001
 40
0.0
 40
0.0
 40
0.0
 40
0.0
 40
0.1122972302
 40
0.2271857689
 40
0.3465392092
 40
0.4710943801
 40
0.6004024434
 40
0.7330571102
 40
0.8670061981
 40
1.0
 40
1.0
 40
1.0
 40
1.0
 10
106.062801381
 20
235.0647018878
 30
0.0
 10
105.6689142019
 20
235.1198963717
 30
0.0
 10
104.851311603
 20
235.1157932527
 30
0.0
 10
103.6601442762
 20
234.7642288663
 30
0.0
 10
102.5647201981
 20
234.0935850288
 30
0.0
 10
101.6261161236
 20
233.1463185399
 30
0.0
 10
100.8933123715
 20
231.9777319562
 30
0.0
 10
100.4048967623
 20
230.6529386128
 30
0.0
 10
100.1863392256
 20
229.2456792699
 30
0.0
 10
100.2293229912
 20
228.293526463
 30
0.0
 10
100.2991470053
 20
227.8276915054
 30
0.0
  0
SPLINE
  5
33C
100
AcDbEntity
  8
0
100
AcDbSpline
 62
7
  6
CONTINUOUS
 70
0
 71
3
 72
11
 73
7
 74
0
 42
0.0000001
 43
0.0000001
 44
0.0000000001
 40
0.0
 40
0.0
 40
0.0
 40
0.0
 40
0.2412230496
 40
0.4864011509
 40
0.7387088598
 40
1.0
 40
1.0
 40
1.0
 40
1.0
 10
83.9426327834
 20
242.5357530362
 30
0.0
 10
83.7692183399
 20
242.5600222739
 30
0.0
 10
83.4122489913
 20
242.5668939309
 30
0.0
 10
82.8841457877
 20
242.4502272055
 30
0.0
 10
82.3824075029
 20
242.2128879659
 30
0.0
 10
82.0836905969
 20
241.9848632536
 30
0.0
 10
81.9446155772
 20
241.8558920317
 30
0.0
  0
SPLINE
  5
33D
100
AcDbEntity
  8
0
100
AcDbSpline
 62
7
  6
CONTINUOUS
 70
0
 71
3
 72
15
 73
11
 74
0
 42
0.0000001
 43
0.0000001
 44
0.0000000001
 40
0.0
 40
0.0
 40
0.0
 40
0.0
 40
0.1122972302
 40
0.2271857689
 40
0.3465392092
 40
0.4710943801
 40
0.6004024434
 40
0.7330571102
 40
0.8670061981
 40
1.0
 40
1.0
 40
1.0
 40
1.0
 10
87.0531713814
 20
244.9494445101
 30
0.0
 10
86.6592842024
 20
245.0046389941
 30
0.0
 10
85.8416816035
 20
245.000535875
 30
0.0
 10
84.6505142767
 20
244.6489714886
 30
0.0
 10
83.5550901986
 20
243.9783276512
 30
0.0
 10
82.616486124
 20
243.0310611622
 30
0.0
 10
81.8836823719
 20
241.8624745786
 30
0.0
 10
81.3952667628
 20
240.5376812351
 30
0.0
 10
81.176709226
 20
239.1304218923
 30
0.0
 10
81.2196929916
 20
238.1782690853
 30
0.0
 10
81.2895170058
 20
237.7124341278
 30
0.0
  0
SPLINE
  5
33E
100
AcDbEntity
  8
0
100
AcDbSpline
 62
7
  6
CONTINUOUS
 70
0
 71
3
 72
11
 73
7
 74
0
 42
0.0000001
 43
0.0000001
 44
0.0000000001
 40
0.0
 40
0.0
 40
0.0
 40
0.0
 40
0.2412230496
 40
0.4864011509
 40
0.7387088598
 40
1.0
 40
1.0
 40
1.0
 40
1.0
 10
82.1233383623
 20
227.0677030246
 30
0.0
 10
81.9499239188
 20
227.0919722623
 30
0.0
 10
81.5929545703
 20
227.0988439193
 30
0.0
 10
81.0648513666
 20
226.9821771939
 30
0.0
 10
80.5631130818
 20
226.7448379543
 30
0.0
 10
80.2643961759
 20
226.516813242
 30
0.0
 10
80.1253211561
 20
226.3878420201
 30
0.0
  0
SPLINE
  5
33F
100
AcDbEntity
  8
0
100
AcDbSpline
 62
7
  6
CONTINUOUS
 70
0
 71
3
 72
15
 73
11
 74
0
 42
0.0000001
 43
0.0000001
 44
0.0000000001
 40
0.0
 40
0.0
 40
0.0
 40
0.0
 40
0.1122972302
 40
0.2271857689
 40
0.3465392092
 40
0.4710943801
 40
0.6004024434
 40
0.7330571102
 40
0.8670061981
 40
1.0
 40
1.0
 40
1.0
 40
1.0
 10
85.2338769604
 20
229.4813944985
 30
0.0
 10
84.8399897813
 20
229.5365889825
 30
0.0
 10
84.0223871824
 20
229.5324858634
 30
0.0
 10
82.8312198556
 20
229.180921477
 30
0.0
 10
81.7357957775
 20
228.5102776396
 30
0.0
 10
80.7971917029
 20
227.5630111506
 30
0.0
 10
80.0643879509
 20
226.394424567
 30
0.0
 10
79.5759723417
 20
225.0696312235
 30
0.0
 10
79.3574148049
 20
223.6623718806
 30
0.0
 10
79.4003985706
 20
222.7102190737
 30
0.0
 10
79.4702225847
 20
222.2443841162
 30
0.0
  0
SPLINE
  5
340
100
AcDbEntity
  8
0
100
AcDbSpline
 62
7
  6
CONTINUOUS
 70
0
 71
3
 72
13
 73
9
 74
0
 42
0.0000001
 43
0.0000001
 44
0.0000000001
 40
0.0
 40
0.0
 40
0.0
 40
0.0
 40
0.1163771199
 40
0.2345470388
 40
0.355127711
 40
0.4785325473
 40
0.7338190514
 40
1.0
 40
1.0
 40
1.0
 40
1.0
 10
100.3330495012
 20
252.4261494757
 30
0.0
 10
101.1562467492
 20
252.1486114433
 30
0.0
 10
102.7731671037
 20
251.4549314892
 30
0.0
 10
105.0262431863
 20
250.0396904951
 30
0.0
 10
107.0827178359
 20
248.2694593583
 30
0.0
 10
109.5385404354
 20
245.4515315001
 30
0.0
 10
111.9182769604
 20
241.200108388
 30
0.0
 10
112.9371393521
 20
237.3998190346
 30
0.0
 10
113.231675887
 20
235.4348014697
 30
0.0
  0
SPLINE
  5
341
100
AcDbEntity
  8
0
100
AcDbSpline
 62
7
  6
CONTINUOUS
 70
0
 71
3
 72
11
 73
7
 74
0
 42
0.0000001
 43
0.0000001
 44
0.0000000001
 40
0.0
 40
0.0
 40
0.0
 40
0.0
 40
0.2685853077
 40
0.5241481038
 40
0.7663578688
 40
1.0
 40
1.0
 40
1.0
 40
1.0
 10
105.1186660234
 20
230.2293023605
 30
0.0
 10
105.0726267435
 20
230.536456085
 30
0.0
 10
104.9039269522
 20
231.1278975931
 30
0.0
 10
104.4221778753
 20
231.887513171
 30
0.0
 10
103.7550196883
 20
232.4327796959
 30
0.0
 10
103.2198328048
 20
232.6135641646
 30
0.0
 10
102.952262783
 20
232.6510104138
 30
0.0
  0
SPLINE
  5
342
100
AcDbEntity
  8
0
100
AcDbSpline
 62
7
  6
CONTINUOUS
 70
0
 71
3
 72
13
 73
9
 74
0
 42
0.0000001
 43
0.0000001
 44
0.0000000001
 40
0.0
 40
0.0
 40
0.0
 40
0.0
 40
0.2617700361
 40
0.5214408287
 40
0.6473478895
 40
0.7690707987
 40
0.8864349026
 40
1.0
 40
1.0
 40
1.0
 40
1.0
 10
101.3140827843
 20
244.1898411314
 30
0.0
 10
101.4330474585
 20
243.396161412
 30
0.0
 10
101.3904274675
 20
241.7625004483
 30
0.0
 10
100.6725663407
 20
239.8673704005
 30
0.0
 10
99.7476901208
 20
238.6069469049
 30
0.0
 10
98.9197754617
 20
237.8427030794
 30
0.0
 10
97.9848799841
 20
237.2841428226
 30
0.0
 10
97.3046742981
 20
237.0624270086
 30
0.0
 10
96.9631481343
 20
236.9947202754
 30
0.0
  0
SPLINE
  5
343
100
AcDbEntity
  8
0
100
AcDbSpline
 62
7
  6
CONTINUOUS
 70
0
 71
3
 72
13
 73
9
 74
0
 42
0.0000001
 43
0.0000001
 44
0.0000000001
 40
0.0
 40
0.0
 40
0.0
 40
0.0
 40
0.1126084257
 40
0.227816271
 40
0.3475015298
 40
0.4724025418
 40
0.7336674034
 40
1.0
 40
1.0
 40
1.0
 40
1.0
 10
94.5047960123
 20
213.5997328923
 30
0.0
 10
94.771928829
 20
213.5623228625
 30
0.0
 10
95.3264200727
 20
213.5650867706
 30
0.0
 10
96.1342389823
 20
213.8034848312
 30
0.0
 10
96.8772484552
 20
214.2584368543
 30
0.0
 10
97.7371176209
 20
215.1260394519
 30
0.0
 10
98.4367469855
 20
216.5767966315
 30
0.0
 10
98.5082029262
 20
217.876852764
 30
0.0
 10
98.4136344865
 20
218.5077715979
 30
0.0
  0
SPLINE
  5
344
100
AcDbEntity
  8
0
100
AcDbSpline
 62
7
  6
CONTINUOUS
 70
0
 71
3
 72
11
 73
7
 74
0
 42
0.0000001
 43
0.0000001
 44
0.0000000001
 40
0.0
 40
0.0
 40
0.0
 40
0.0
 40
0.2685853077
 40
0.5241481038
 40
0.7663578688
 40
1.0
 40
1.0
 40
1.0
 40
1.0
 10
98.9820192649
 20
243.564718719
 30
0.0
 10
98.935979985
 20
243.8718724435
 30
0.0
 10
98.7672801937
 20
244.4633139516
 30
0.0
 10
98.2855311168
 20
245.2229295296
 30
0.0
 10
97.6183729298
 20
245.7681960545
 30
0.0
 10
97.0831860463
 20
245.9489805231
 30
0.0
 10
96.8156160245
 20
245.9864267724
 30
0.0
  0
SPLINE
  5
345
100
AcDbEntity
  8
0
100
AcDbSpline
 62
7
  6
CONTINUOUS
 70
0
 71
3
 72
13
 73
9
 74
0
 42
0.0000001
 43
0.0000001
 44
0.0000000001
 40
0.0
 40
0.0
 40
0.0
 40
0.0
 40
0.2680784006
 40
0.5231816647
 40
0.6459686618
 40
0.7658127255
 40
0.8834850884
 40
1.0
 40
1.0
 40
1.0
 40
1.0
 10
89.3409613729
 20
224.8902897664
 30
0.0
 10
89.2536836257
 20
225.472568316
 30
0.0
 10
88.9343495201
 20
226.5933711603
 30
0.0
 10
88.1613419075
 20
227.8110993852
 30
0.0
 10
87.3667946146
 20
228.5685195681
 30
0.0
 10
86.7066657058
 20
229.0123385695
 30
0.0
 10
85.9912886074
 20
229.3271360986
 30
0.0
 10
85.4873037976
 20
229.4458823919
 30
0.0
 10
85.2338769604
 20
229.4813944985
 30
0.0
  0
SPLINE
  5
346
100
AcDbEntity
  8
0
100
AcDbSpline
 62
7
  6
CONTINUOUS
 70
0
 71
3
 72
11
 73
7
 74
0
 42
0.0000001
 43
0.0000001
 44
0.0000000001
 40
0.0
 40
0.0
 40
0.0
 40
0.0
 40
0.2685754896
 40
0.5241420781
 40
0.7663548172
 40
1.0
 40
1.0
 40
1.0
 40
1.0
 10
98.4136344865
 20
218.5077715979
 30
0.0
 10
98.3544431032
 20
218.9026703473
 30
0.0
 10
98.1375308447
 20
219.663079762
 30
0.0
 10
97.5182077299
 20
220.6397669374
 30
0.0
 10
96.6603950769
 20
221.340838552
 30
0.0
 10
95.9722776214
 20
221.573211768
 30
0.0
 10
95.6282578513
 20
221.6213892627
 30
0.0
  0
SPLINE
  5
347
100
AcDbEntity
  8
0
100
AcDbSpline
 62
7
  6
CONTINUOUS
 70
0
 71
3
 72
13
 73
9
 74
0
 42
0.0000001
 43
0.0000001
 44
0.0000000001
 40
0.0
 40
0.0
 40
0.0
 40
0.0
 40
0.2680784006
 40
0.5231816647
 40
0.6459686618
 40
0.7658127255
 40
0.8834850884
 40
1.0
 40
1.0
 40
1.0
 40
1.0
 10
91.160255794
 20
240.358339778
 30
0.0
 10
91.0729780467
 20
240.9406183276
 30
0.0
 10
90.7536439411
 20
242.0614211719
 30
0.0
 10
89.9806363286
 20
243.2791493968
 30
0.0
 10
89.1860890357
 20
244.0365695797
 30
0.0
 10
88.5259601269
 20
244.4803885811
 30
0.0
 10
87.8105830285
 20
244.7951861102
 30
0.0
 10
87.3065982186
 20
244.9139324035
 30
0.0
 10
87.0531713814
 20
244.9494445101
 30
0.0
  0
SPLINE
  5
348
100
AcDbEntity
  8
0
100
AcDbSpline
 62
7
  6
CONTINUOUS
 70
0
 71
3
 72
13
 73
9
 74
0
 42
0.0000001
 43
0.0000001
 44
0.0000000001
 40
0.0
 40
0.0
 40
0.0
 40
0.0
 40
0.1126063929
 40
0.2278108646
 40
0.3474930754
 40
0.4723911047
 40
0.7336559431
 40
1.0
 40
1.0
 40
1.0
 40
1.0
 10
95.941810756
 20
239.7473498401
 30
0.0
 10
96.1495798
 20
239.7182726985
 30
0.0
 10
96.5808367261
 20
239.720394231
 30
0.0
 10
97.2091282862
 20
239.9058170584
 30
0.0
 10
97.7870126957
 20
240.2596505634
 30
0.0
 10
98.4558057114
 20
240.9344317537
 30
0.0
 10
98.9999977626
 20
242.0628015895
 30
0.0
 10
99.0555757182
 20
243.0739825774
 30
0.0
 10
98.9820192649
 20
243.564718719
 30
0.0
  0
SPLINE
  5
349
100
AcDbEntity
  8
0
100
AcDbSpline
 62
7
  6
CONTINUOUS
 70
0
 71
3
 72
13
 73
9
 74
0
 42
0.0000001
 43
0.0000001
 44
0.0000000001
 40
0.0
 40
0.0
 40
0.0
 40
0.0
 40
0.2680784006
 40
0.5231816647
 40
0.6459686618
 40
0.7658127255
 40
0.8834850884
 40
1.0
 40
1.0
 40
1.0
 40
1.0
 10
110.1698857935
 20
230.4735971557
 30
0.0
 10
110.0826080463
 20
231.0558757052
 30
0.0
 10
109.7632739407
 20
232.1766785496
 30
0.0
 10
108.9902663281
 20
233.3944067745
 30
0.0
 10
108.1957190353
 20
234.1518269573
 30
0.0
 10
107.5355901264
 20
234.5956459588
 30
0.0
 10
106.820213028
 20
234.9104434878
 30
0.0
 10
106.3162282182
 20
235.0291897812
 30
0.0
 10
106.062801381
 20
235.0647018878
 30
0.0
  0
SPLINE
  5
34A
100
AcDbEntity
  8
0
100
AcDbSpline
 62
7
  6
CONTINUOUS
 70
0
 71
3
 72
11
 73
7
 74
0
 42
0.0000001
 43
0.0000001
 44
0.0000000001
 40
0.0
 40
0.0
 40
0.0
 40
0.0
 40
0.2352697226
 40
0.480019792
 40
0.7353294026
 40
1.0
 40
1.0
 40
1.0
 40
1.0
 10
98.5281043116
 20
248.3656522228
 30
0.0
 10
98.8922900004
 20
248.1818740863
 30
0.0
 10
99.5853233703
 20
247.6998389211
 30
0.0
 10
100.4183635947
 20
246.7182684111
 30
0.0
 10
101.021320292
 20
245.5248970218
 30
0.0
 10
101.2460572858
 20
244.6436771877
 30
0.0
 10
101.3140827843
 20
244.1898411314
 30
0.0
  0
SPLINE
  5
34B
100
AcDbEntity
  8
0
100
AcDbSpline
 62
7
  6
CONTINUOUS
 70
0
 71
3
 72
15
 73
11
 74
0
 42
0.0000001
 43
0.0000001
 44
0.0000000001
 40
0.0
 40
0.0
 40
0.0
 40
0.0
 40
0.1122972302
 40
0.2271857689
 40
0.3465392092
 40
0.4710943801
 40
0.6004024434
 40
0.7330571102
 40
0.8670061981
 40
1.0
 40
1.0
 40
1.0
 40
1.0
 10
98.2695846593
 20
236.5720031319
 30
0.0
 10
98.6634718384
 20
236.5168086479
 30
0.0
 10
99.4810744373
 20
236.520911767
 30
0.0
 10
100.6722417641
 20
236.8724761534
 30
0.0
 10
101.7676658422
 20
237.5431199909
 30
0.0
 10
102.7062699168
 20
238.4903864798
 30
0.0
 10
103.4390736688
 20
239.6589730635
 30
0.0
 10
103.927489278
 20
240.9837664069
 30
0.0
 10
104.1460468148
 20
242.3910257498
 30
0.0
 10
104.1030630491
 20
243.3431785567
 30
0.0
 10
104.033239035
 20
243.8090135143
 30
0.0
  0
SPLINE
  5
34C
100
AcDbEntity
  8
0
100
AcDbSpline
 62
7
  6
CONTINUOUS
 70
0
 71
3
 72
13
 73
9
 74
0
 42
0.0000001
 43
0.0000001
 44
0.0000000001
 40
0.0
 40
0.0
 40
0.0
 40
0.0
 40
0.2680784006
 40
0.5231816647
 40
0.6459686618
 40
0.7658127255
 40
0.8834850884
 40
1.0
 40
1.0
 40
1.0
 40
1.0
 10
104.033239035
 20
243.8090135143
 30
0.0
 10
103.9459612878
 20
244.3912920638
 30
0.0
 10
103.6266271822
 20
245.5120949082
 30
0.0
 10
102.8536195696
 20
246.729823133
 30
0.0
 10
102.0590722767
 20
247.4872433159
 30
0.0
 10
101.3989433679
 20
247.9310623173
 30
0.0
 10
100.6835662695
 20
248.2458598464
 30
0.0
 10
100.1795814597
 20
248.3646061397
 30
0.0
 10
99.9261546225
 20
248.4001182463
 30
0.0
  0
SPLINE
  5
34D
100
AcDbEntity
  8
0
100
AcDbSpline
 62
7
  6
CONTINUOUS
 70
0
 71
3
 72
20
 73
16
 74
0
 42
0.0000001
 43
0.0000001
 44
0.0000000001
 40
0.0
 40
0.0
 40
0.0
 40
0.0
 40
0.1300136337
 40
0.192217745
 40
0.2522861615
 40
0.3105658315
 40
0.3677208992
 40
0.4246268617
 40
0.4822093585
 40
0.5412627231
 40
0.6023106215
 40
0.7302582468
 40
0.7971234084
 40
0.8649526926
 40
1.0
 40
1.0
 40
1.0
 40
1.0
 10
101.1541896041
 20
218.7985074902
 30
0.0
 10
101.0422438128
 20
219.5453603415
 30
0.0
 10
100.6889623341
 20
220.6379436558
 30
0.0
 10
99.8576875158
 20
221.8537500079
 30
0.0
 10
99.0977861196
 20
222.5882948629
 30
0.0
 10
98.2214440653
 20
223.1256133065
 30
0.0
 10
97.2624677711
 20
223.4433543755
 30
0.0
 10
96.2596548243
 20
223.5273591002
 30
0.0
 10
95.2542460824
 20
223.3746671203
 30
0.0
 10
94.286391891
 20
222.9925796848
 30
0.0
 10
93.0793179017
 20
222.190068551
 30
0.0
 10
92.1127154036
 20
221.0087427879
 30
0.0
 10
91.4748081176
 20
219.6172938337
 30
0.0
 10
91.0629895216
 20
218.1000641021
 30
0.0
 10
91.0379093164
 20
216.8937209555
 30
0.0
 10
91.1541892601
 20
216.1179525711
 30
0.0
  0
SPLINE
  5
34E
100
AcDbEntity
  8
0
100
AcDbSpline
 62
7
  6
CONTINUOUS
 70
0
 71
3
 72
13
 73
9
 74
0
 42
0.0000001
 43
0.0000001
 44
0.0000000001
 40
0.0
 40
0.0
 40
0.0
 40
0.0
 40
0.1126063929
 40
0.2278108646
 40
0.3474930754
 40
0.4723911047
 40
0.7336559431
 40
1.0
 40
1.0
 40
1.0
 40
1.0
 10
102.0784575145
 20
226.4119334815
 30
0.0
 10
102.2862265585
 20
226.38285634
 30
0.0
 10
102.7174834846
 20
226.3849778724
 30
0.0
 10
103.3457750447
 20
226.5704006998
 30
0.0
 10
103.9236594543
 20
226.9242342049
 30
0.0
 10
104.5924524699
 20
227.5990153952
 30
0.0
 10
105.1366445211
 20
228.727385231
 30
0.0
 10
105.1922224767
 20
229.7385662189
 30
0.0
 10
105.1186660234
 20
230.2293023605
 30
0.0
  0
SPLINE
  5
34F
100
AcDbEntity
  8
0
100
AcDbSpline
 62
7
  6
CONTINUOUS
 70
0
 71
3
 72
20
 73
16
 74
0
 42
0.0000001
 43
0.0000001
 44
0.0000000001
 40
0.0
 40
0.0
 40
0.0
 40
0.0
 40
0.1300136337
 40
0.192217745
 40
0.2522861615
 40
0.3105658315
 40
0.3677208992
 40
0.4246268617
 40
0.4822093585
 40
0.5412627231
 40
0.6023106215
 40
0.7302582468
 40
0.7971234084
 40
0.8649526926
 40
1.0
 40
1.0
 40
1.0
 40
1.0
 10
91.1541892601
 20
216.1179525711
 30
0.0
 10
91.2661350537
 20
215.3710997201
 30
0.0
 10
91.6194165295
 20
214.2785164054
 30
0.0
 10
92.4506913485
 20
213.0627100535
 30
0.0
 10
93.2105927446
 20
212.3281651984
 30
0.0
 10
94.0869347988
 20
211.7908467548
 30
0.0
 10
95.0459110931
 20
211.4731056858
 30
0.0
 10
96.0487240398
 20
211.3891009611
 30
0.0
 10
97.0541327818
 20
211.5417929411
 30
0.0
 10
98.0219869731
 20
211.9238803765
 30
0.0
 10
99.2290609624
 20
212.7263915104
 30
0.0
 10
100.1956634606
 20
213.9077172734
 30
0.0
 10
100.8335707464
 20
215.2991662276
 30
0.0
 10
101.2453893432
 20
216.8163959593
 30
0.0
 10
101.2704695454
 20
218.0227391054
 30
0.0
 10
101.1541896041
 20
218.7985074902
 30
0.0
  0
SPLINE
  5
350
100
AcDbEntity
  8
0
100
AcDbSpline
 62
7
  6
CONTINUOUS
 70
0
 71
3
 72
11
 73
7
 74
0
 42
0.0000001
 43
0.0000001
 44
0.0000000001
 40
0.0
 40
0.0
 40
0.0
 40
0.0
 40
0.2352697226
 40
0.480019792
 40
0.7353294026
 40
1.0
 40
1.0
 40
1.0
 40
1.0
 10
104.6647510702
 20
235.0302358643
 30
0.0
 10
105.0289367589
 20
234.8464577277
 30
0.0
 10
105.7219701288
 20
234.3644225626
 30
0.0
 10
106.5550103532
 20
233.3828520526
 30
0.0
 10
107.1579670505
 20
232.1894806633
 30
0.0
 10
107.3827040443
 20
231.3082608292
 30
0.0
 10
107.4507295429
 20
230.8544247728
 30
0.0
  0
SPLINE
  5
351
100
AcDbEntity
  8
0
100
AcDbSpline
 62
7
  6
CONTINUOUS
 70
0
 71
3
 72
15
 73
11
 74
0
 42
0.0000001
 43
0.0000001
 44
0.0000000001
 40
0.0
 40
0.0
 40
0.0
 40
0.0
 40
0.1122972302
 40
0.2271857689
 40
0.3465392092
 40
0.4710943801
 40
0.6004024434
 40
0.7330571102
 40
0.8670061981
 40
1.0
 40
1.0
 40
1.0
 40
1.0
 10
104.4062314179
 20
223.2365867734
 30
0.0
 10
104.8001185969
 20
223.1813922894
 30
0.0
 10
105.6177211958
 20
223.1854954084
 30
0.0
 10
106.8088885226
 20
223.5370597948
 30
0.0
 10
107.9043126007
 20
224.2077036323
 30
0.0
 10
108.8429166753
 20
225.1549701212
 30
0.0
 10
109.5757204273
 20
226.3235567049
 30
0.0
 10
110.0641360365
 20
227.6483500483
 30
0.0
 10
110.2826935733
 20
229.0556093912
 30
0.0
 10
110.2397098076
 20
230.0077621982
 30
0.0
 10
110.1698857935
 20
230.4735971557
 30
0.0
  0
SPLINE
  5
352
100
AcDbEntity
  8
0
100
AcDbSpline
 62
7
  6
CONTINUOUS
 70
0
 71
3
 72
13
 73
9
 74
0
 42
0.0000001
 43
0.0000001
 44
0.0000000001
 40
0.0
 40
0.0
 40
0.0
 40
0.0
 40
0.2617700361
 40
0.5214408287
 40
0.6473478895
 40
0.7690707987
 40
0.8864349026
 40
1.0
 40
1.0
 40
1.0
 40
1.0
 10
86.6218051222
 20
225.2711173836
 30
0.0
 10
86.7407697964
 20
224.4774376642
 30
0.0
 10
86.6981498054
 20
222.8437767005
 30
0.0
 10
85.9802886786
 20
220.9486466527
 30
0.0
 10
85.0554124587
 20
219.6882231571
 30
0.0
 10
84.2274977996
 20
218.9239793315
 30
0.0
 10
83.292602322
 20
218.3654190748
 30
0.0
 10
82.612396636
 20
218.1437032608
 30
0.0
 10
82.2708704722
 20
218.0759965276
 30
0.0
  0
SPLINE
  5
353
100
AcDbEntity
  8
0
100
AcDbSpline
 62
7
  6
CONTINUOUS
 70
0
 71
3
 72
13
 73
9
 74
0
 42
0.0000001
 43
0.0000001
 44
0.0000000001
 40
0.0
 40
0.0
 40
0.0
 40
0.0
 40
0.1126063929
 40
0.2278108646
 40
0.3474930754
 40
0.4723911047
 40
0.7336559431
 40
1.0
 40
1.0
 40
1.0
 40
1.0
 10
83.068827515
 20
236.2966761039
 30
0.0
 10
83.2765965589
 20
236.2675989623
 30
0.0
 10
83.707853485
 20
236.2697204948
 30
0.0
 10
84.3361450451
 20
236.4551433222
 30
0.0
 10
84.9140294547
 20
236.8089768272
 30
0.0
 10
85.5828224703
 20
237.4837580175
 30
0.0
 10
86.1270145215
 20
238.6121278533
 30
0.0
 10
86.1825924772
 20
239.6233088412
 30
0.0
 10
86.1090360239
 20
240.1140449828
 30
0.0
  0
SPLINE
  5
354
100
AcDbEntity
  8
0
100
AcDbSpline
 62
7
  6
CONTINUOUS
 70
0
 71
3
 72
11
 73
7
 74
0
 42
0.0000001
 43
0.0000001
 44
0.0000000001
 40
0.0
 40
0.0
 40
0.0
 40
0.0
 40
0.2685853077
 40
0.5241481038
 40
0.7663578688
 40
1.0
 40
1.0
 40
1.0
 40
1.0
 10
84.2897416028
 20
224.6459949712
 30
0.0
 10
84.2437023229
 20
224.9531486957
 30
0.0
 10
84.0750025316
 20
225.5445902038
 30
0.0
 10
83.5932534547
 20
226.3042057817
 30
0.0
 10
82.9260952676
 20
226.8494723067
 30
0.0
 10
82.3909083842
 20
227.0302567753
 30
0.0
 10
82.1233383623
 20
227.0677030246
 30
0.0
  0
SPLINE
  5
355
100
AcDbEntity
  8
0
100
AcDbSpline
 62
7
  6
CONTINUOUS
 70
0
 71
3
 72
11
 73
7
 74
0
 42
0.0000001
 43
0.0000001
 44
0.0000000001
 40
0.0
 40
0.0
 40
0.0
 40
0.0
 40
0.2352697226
 40
0.480019792
 40
0.7353294026
 40
1.0
 40
1.0
 40
1.0
 40
1.0
 10
85.6551210706
 20
244.9149784866
 30
0.0
 10
86.0193067593
 20
244.7312003501
 30
0.0
 10
86.7123401292
 20
244.2491651849
 30
0.0
 10
87.5453803536
 20
243.2675946749
 30
0.0
 10
88.1483370509
 20
242.0742232856
 30
0.0
 10
88.3730740448
 20
241.1930034515
 30
0.0
 10
88.4410995433
 20
240.7391673952
 30
0.0
  0
SPLINE
  5
356
100
AcDbEntity
  8
0
100
AcDbSpline
 62
7
  6
CONTINUOUS
 70
0
 71
3
 72
15
 73
11
 74
0
 42
0.0000001
 43
0.0000001
 44
0.0000000001
 40
0.0
 40
0.0
 40
0.0
 40
0.0
 40
0.1122972302
 40
0.2271857689
 40
0.3465392092
 40
0.4710943801
 40
0.6004024434
 40
0.7330571102
 40
0.8670061981
 40
1.0
 40
1.0
 40
1.0
 40
1.0
 10
85.3966014183
 20
233.1213293957
 30
0.0
 10
85.7904885974
 20
233.0661349117
 30
0.0
 10
86.6080911962
 20
233.0702380308
 30
0.0
 10
87.799258523
 20
233.4218024172
 30
0.0
 10
88.8946826012
 20
234.0924462547
 30
0.0
 10
89.8332866757
 20
235.0397127436
 30
0.0
 10
90.5660904278
 20
236.2082993273
 30
0.0
 10
91.054506037
 20
237.5330926707
 30
0.0
 10
91.2730635737
 20
238.9403520136
 30
0.0
 10
91.2300798081
 20
239.8925048205
 30
0.0
 10
91.160255794
 20
240.358339778
 30
0.0
  0
SPLINE
  5
357
100
AcDbEntity
  8
0
100
AcDbSpline
 62
7
  6
CONTINUOUS
 70
0
 71
3
 72
13
 73
9
 74
0
 42
0.0000001
 43
0.0000001
 44
0.0000000001
 40
0.0
 40
0.0
 40
0.0
 40
0.0
 40
0.1126063929
 40
0.2278108646
 40
0.3474930754
 40
0.4723911047
 40
0.7336559431
 40
1.0
 40
1.0
 40
1.0
 40
1.0
 10
81.2495330939
 20
220.8286260923
 30
0.0
 10
81.4573021379
 20
220.7995489507
 30
0.0
 10
81.888559064
 20
220.8016704832
 30
0.0
 10
82.5168506241
 20
220.9870933106
 30
0.0
 10
83.0947350336
 20
221.3409268156
 30
0.0
 10
83.7635280493
 20
222.0157080059
 30
0.0
 10
84.3077201005
 20
223.1440778417
 30
0.0
 10
84.3632980561
 20
224.1552588296
 30
0.0
 10
84.2897416028
 20
224.6459949712
 30
0.0
  0
SPLINE
  5
358
100
AcDbEntity
  8
0
100
AcDbSpline
 62
7
  6
CONTINUOUS
 70
0
 71
3
 72
11
 73
7
 74
0
 42
0.0000001
 43
0.0000001
 44
0.0000000001
 40
0.0
 40
0.0
 40
0.0
 40
0.0
 40
0.2352697226
 40
0.480019792
 40
0.7353294026
 40
1.0
 40
1.0
 40
1.0
 40
1.0
 10
83.8358266495
 20
229.446928475
 30
0.0
 10
84.2000123382
 20
229.2631503385
 30
0.0
 10
84.8930457082
 20
228.7811151733
 30
0.0
 10
85.7260859326
 20
227.7995446633
 30
0.0
 10
86.3290426299
 20
226.606173274
 30
0.0
 10
86.5537796237
 20
225.7249534399
 30
0.0
 10
86.6218051222
 20
225.2711173836
 30
0.0
  0
SPLINE
  5
359
100
AcDbEntity
  8
0
100
AcDbSpline
 62
7
  6
CONTINUOUS
 70
0
 71
3
 72
13
 73
9
 74
0
 42
0.0000001
 43
0.0000001
 44
0.0000000001
 40
0.0
 40
0.0
 40
0.0
 40
0.0
 40
0.2617700361
 40
0.5214408287
 40
0.6473478895
 40
0.7690707987
 40
0.8864349026
 40
1.0
 40
1.0
 40
1.0
 40
1.0
 10
88.4410995433
 20
240.7391673952
 30
0.0
 10
88.5600642175
 20
239.9454876758
 30
0.0
 10
88.5174442264
 20
238.3118267121
 30
0.0
 10
87.7995830996
 20
236.4166966643
 30
0.0
 10
86.8747068797
 20
235.1562731687
 30
0.0
 10
86.0467922207
 20
234.3920293432
 30
0.0
 10
85.111896743
 20
233.8334690864
 30
0.0
 10
84.431691057
 20
233.6117532724
 30
0.0
 10
84.0901648933
 20
233.5440465392
 30
0.0
  0
SPLINE
  5
35A
100
AcDbEntity
  8
0
100
AcDbSpline
 62
7
  6
CONTINUOUS
 70
0
 71
3
 72
15
 73
11
 74
0
 42
0.0000001
 43
0.0000001
 44
0.0000000001
 40
0.0
 40
0.0
 40
0.0
 40
0.0
 40
0.1122972302
 40
0.2271857689
 40
0.3465392092
 40
0.4710943801
 40
0.6004024434
 40
0.7330571102
 40
0.8670061981
 40
1.0
 40
1.0
 40
1.0
 40
1.0
 10
83.5773069972
 20
217.6532793841
 30
0.0
 10
83.9711941763
 20
217.5980849001
 30
0.0
 10
84.7887967752
 20
217.6021880192
 30
0.0
 10
85.979964102
 20
217.9537524056
 30
0.0
 10
87.0753881801
 20
218.6243962431
 30
0.0
 10
88.0139922546
 20
219.571662732
 30
0.0
 10
88.7467960067
 20
220.7402493157
 30
0.0
 10
89.2352116159
 20
222.0650426591
 30
0.0
 10
89.4537691527
 20
223.472302002
 30
0.0
 10
89.410785387
 20
224.4244548089
 30
0.0
 10
89.3409613729
 20
224.8902897664
 30
0.0
  0
SPLINE
  5
35B
100
AcDbEntity
  8
0
100
AcDbSpline
 62
7
  6
CONTINUOUS
 70
0
 71
3
 72
11
 73
7
 74
0
 42
0.0000001
 43
0.0000001
 44
0.0000000001
 40
0.0
 40
0.0
 40
0.0
 40
0.0
 40
0.2685853077
 40
0.5241481038
 40
0.7663578688
 40
1.0
 40
1.0
 40
1.0
 40
1.0
 10
86.1090360239
 20
240.1140449828
 30
0.0
 10
86.062996744
 20
240.4211987073
 30
0.0
 10
85.8942969527
 20
241.0126402154
 30
0.0
 10
85.4125478758
 20
241.7722557934
 30
0.0
 10
84.7453896887
 20
242.3175223183
 30
0.0
 10
84.2102028052
 20
242.4983067869
 30
0.0
 10
83.9426327834
 20
242.5357530362
 30
0.0
  0
SPLINE
  5
35C
100
AcDbEntity
  8
0
100
AcDbSpline
 62
7
  6
CONTINUOUS
 70
0
 71
3
 72
13
 73
9
 74
0
 42
0.0000001
 43
0.0000001
 44
0.0000000001
 40
0.0
 40
0.0
 40
0.0
 40
0.0
 40
0.2617700361
 40
0.5214408287
 40
0.6473478895
 40
0.7690707987
 40
0.8864349026
 40
1.0
 40
1.0
 40
1.0
 40
1.0
 10
107.4507295429
 20
230.8544247728
 30
0.0
 10
107.569694217
 20
230.0607450535
 30
0.0
 10
107.527074226
 20
228.4270840898
 30
0.0
 10
106.8092130992
 20
226.531954042
 30
0.0
 10
105.8843368793
 20
225.2715305464
 30
0.0
 10
105.0564222202
 20
224.5072867208
 30
0.0
 10
104.1215267426
 20
223.948726464
 30
0.0
 10
103.4413210566
 20
223.7270106501
 30
0.0
 10
103.0997948928
 20
223.6593039169
 30
0.0
  0
SPLINE
  5
35D
100
AcDbEntity
  8
0
100
AcDbSpline
 62
7
  6
CONTINUOUS
 70
0
 71
3
 72
15
 73
11
 74
0
 42
0.0000001
 43
0.0000001
 44
0.0000000001
 40
0.0
 40
0.0
 40
0.0
 40
0.0
 40
0.1312744716
 40
0.2636086894
 40
0.395218069
 40
0.524407503
 40
0.6498375579
 40
0.7707570083
 40
0.8871867697
 40
1.0
 40
1.0
 40
1.0
 40
1.0
 10
75.2151456534
 20
225.2442621081
 30
0.0
 10
74.9749974625
 20
226.8464246835
 30
0.0
 10
74.7913597526
 20
230.115583176
 30
0.0
 10
75.3893505248
 20
234.9807008067
 30
0.0
 10
76.8306333856
 20
239.6410181785
 30
0.0
 10
79.0537207924
 20
243.8884585363
 30
0.0
 10
81.9635233777
 20
247.5343874888
 30
0.0
 10
85.4374158098
 20
250.4130113812
 30
0.0
 10
89.322152082
 20
252.3877276992
 30
0.0
 10
92.1095170663
 20
253.0417825109
 30
0.0
 10
93.4943266606
 20
253.1853332402
 30
0.0
  0
SPLINE
  5
35E
100
AcDbEntity
  8
0
100
AcDbSpline
 62
7
  6
CONTINUOUS
 70
0
 71
3
 72
15
 73
11
 74
0
 42
0.0000001
 43
0.0000001
 44
0.0000000001
 40
0.0
 40
0.0
 40
0.0
 40
0.0
 40
0.1163526033
 40
0.2338612023
 40
0.3535424488
 40
0.476162166
 40
0.6021669428
 40
0.7316667174
 40
0.8644425304
 40
1.0
 40
1.0
 40
1.0
 40
1.0
 10
91.0333168631
 20
207.5618672378
 30
0.0
 10
90.0572575655
 20
207.6985354451
 30
0.0
 10
88.1162586275
 20
208.1560320435
 30
0.0
 10
85.3609114126
 20
209.3683128732
 30
0.0
 10
82.8186259458
 20
211.0774521096
 30
0.0
 10
80.5505999963
 20
213.2402911302
 30
0.0
 10
78.608701107
 20
215.8038359785
 30
0.0
 10
77.0370609258
 20
218.7068127338
 30
0.0
 10
75.8710279924
 20
221.8798948196
 30
0.0
 10
75.3853567082
 20
224.10868919
 30
0.0
 10
75.2151456534
 20
225.2442621081
 30
0.0
  0
SPLINE
  5
35F
100
AcDbEntity
  8
0
100
AcDbSpline
 62
7
  6
CONTINUOUS
 70
0
 71
3
 72
16
 73
12
 74
0
 42
0.0000001
 43
0.0000001
 44
0.0000000001
 40
0.0
 40
0.0
 40
0.0
 40
0.0
 40
0.0845966678
 40
0.1344271136
 40
0.1900629507
 40
0.3176484217
 40
0.4617926671
 40
0.612614321
 40
0.7589147597
 40
0.8903588337
 40
1.0
 40
1.0
 40
1.0
 40
1.0
 10
70.4960655854
 20
263.5496596525
 30
0.0
 10
70.6054419432
 20
263.6015000128
 30
0.0
 10
70.7515040881
 20
263.7434591157
 30
0.0
 10
70.8789354076
 20
263.9838248901
 30
0.0
 10
70.9851174723
 20
264.3016484502
 30
0.0
 10
71.0374660936
 20
264.7717624997
 30
0.0
 10
70.9884056863
 20
265.3771122797
 30
0.0
 10
70.8338506573
 20
265.9921517335
 30
0.0
 10
70.5883659148
 20
266.5575774579
 30
0.0
 10
70.2765978807
 20
267.0194986616
 30
0.0
 10
70.0147531105
 20
267.2546191129
 30
0.0
 10
69.8789106907
 20
267.3330791718
 30
0.0
  0
SPLINE
  5
360
100
AcDbEntity
  8
0
100
AcDbSpline
 62
7
  6
CONTINUOUS
 70
0
 71
3
 72
9
 73
5
 74
0
 42
0.0000001
 43
0.0000001
 44
0.0000000001
 40
0.0
 40
0.0
 40
0.0
 40
0.0
 40
0.2525278395
 40
1.0
 40
1.0
 40
1.0
 40
1.0
 10
45.7626626724
 20
226.6709463768
 30
0.0
 10
45.8445597333
 20
226.1245653879
 30
0.0
 10
46.2197427906
 20
223.968929875
 30
0.0
 10
46.7996222334
 20
221.8482931759
 30
0.0
 10
47.3487172015
 20
220.3079016084
 30
0.0
  0
SPLINE
  5
361
100
AcDbEntity
  8
0
100
AcDbSpline
 62
7
  6
CONTINUOUS
 70
0
 71
3
 72
13
 73
9
 74
0
 42
0.0000001
 43
0.0000001
 44
0.0000000001
 40
0.0
 40
0.0
 40
0.0
 40
0.0
 40
0.2650582334
 40
0.5185036241
 40
0.6414651311
 40
0.7622726702
 40
0.8815402559
 40
1.0
 40
1.0
 40
1.0
 40
1.0
 10
47.3487172015
 20
220.3079016084
 30
0.0
 10
48.1695719975
 20
218.0051345473
 30
0.0
 10
50.2923494968
 20
213.6618377383
 30
0.0
 10
54.1792612486
 20
209.1045580112
 30
0.0
 10
57.8228032305
 20
206.2974737751
 30
0.0
 10
60.7500029484
 20
204.6466037074
 30
0.0
 10
63.8489604891
 20
203.4595871529
 30
0.0
 10
66.000778409
 20
202.9896536151
 30
0.0
 10
67.0828003415
 20
202.8381091758
 30
0.0
  0
SPLINE
  5
362
100
AcDbEntity
  8
0
100
AcDbSpline
 62
7
  6
CONTINUOUS
 70
0
 71
3
 72
11
 73
7
 74
0
 42
0.0000001
 43
0.0000001
 44
0.0000000001
 40
0.0
 40
0.0
 40
0.0
 40
0.0
 40
0.2645074014
 40
0.5178345361
 40
0.7616796295
 40
1.0
 40
1.0
 40
1.0
 40
1.0
 10
71.5268297707
 20
202.1974816317
 30
0.0
 10
71.6826610626
 20
201.8211284041
 30
0.0
 10
72.0693917149
 20
201.1142550669
 30
0.0
 10
72.8704131464
 20
200.2407948794
 30
0.0
 10
73.8377876224
 20
199.625888054
 30
0.0
 10
74.5621913878
 20
199.414856784
 30
0.0
 10
74.9256518346
 20
199.3639274323
 30
0.0
  0
SPLINE
  5
363
100
AcDbEntity
  8
0
100
AcDbSpline
 62
7
  6
CONTINUOUS
 70
0
 71
3
 72
13
 73
9
 74
0
 42
0.0000001
 43
0.0000001
 44
0.0000000001
 40
0.0
 40
0.0
 40
0.0
 40
0.0
 40
0.2577339045
 40
0.5152474045
 40
0.6414725913
 40
0.7646049763
 40
0.8841406451
 40
1.0
 40
1.0
 40
1.0
 40
1.0
 10
119.2994151123
 20
237.2832347082
 30
0.0
 10
119.8288178697
 20
233.7512935259
 30
0.0
 10
119.816161866
 20
226.4937047691
 30
0.0
 10
117.2342980327
 20
217.8484635978
 30
0.0
 10
113.7560163716
 20
211.7184784327
 30
0.0
 10
110.5526425175
 20
207.7051315088
 30
0.0
 10
106.8358059495
 20
204.3741465044
 30
0.0
 10
104.0416337438
 20
202.6493232536
 30
0.0
 10
102.601122987
 20
201.9405151203
 30
0.0
  0
SPLINE
  5
364
100
AcDbEntity
  8
0
100
AcDbSpline
 62
7
  6
CONTINUOUS
 70
0
 71
3
 72
14
 73
10
 74
0
 42
0.0000001
 43
0.0000001
 44
0.0000000001
 40
0.0
 40
0.0
 40
0.0
 40
0.0
 40
0.2682406682
 40
0.4003928447
 40
0.5287927078
 40
0.6525716577
 40
0.7716655659
 40
0.8869186877
 40
1.0
 40
1.0
 40
1.0
 40
1.0
 10
102.601122987
 20
201.9405151203
 30
0.0
 10
102.5988301507
 20
201.1525910368
 30
0.0
 10
102.378571571
 20
199.9623732869
 30
0.0
 10
101.6877056302
 20
198.5639647479
 30
0.0
 10
100.998745076
 20
197.6596041282
 30
0.0
 10
100.1675351935
 20
196.94088451
 30
0.0
 10
99.2304416421
 20
196.441967706
 30
0.0
 10
98.2312571906
 20
196.1892089102
 30
0.0
 10
97.5516832864
 20
196.1950473175
 30
0.0
 10
97.22273309
 20
196.2411409719
 30
0.0
  0
SPLINE
  5
365
100
AcDbEntity
  8
0
100
AcDbSpline
 62
7
  6
CONTINUOUS
 70
0
 71
3
 72
11
 73
7
 74
0
 42
0.0000001
 43
0.0000001
 44
0.0000000001
 40
0.0
 40
0.0
 40
0.0
 40
0.0
 40
0.2685889108
 40
0.5241517509
 40
0.7663598728
 40
1.0
 40
1.0
 40
1.0
 40
1.0
 10
95.0711602793
 20
201.0584228894
 30
0.0
 10
95.1223157197
 20
200.7171364036
 30
0.0
 10
95.30976174
 20
200.0599742869
 30
0.0
 10
95.8450451621
 20
199.2159581014
 30
0.0
 10
96.5863297027
 20
198.6101116698
 30
0.0
 10
97.1809774634
 20
198.409242452
 30
0.0
 10
97.4782749766
 20
198.3676361984
 30
0.0
  0
SPLINE
  5
366
100
AcDbEntity
  8
0
100
AcDbSpline
 62
7
  6
CONTINUOUS
 70
0
 71
3
 72
15
 73
11
 74
0
 42
0.0000001
 43
0.0000001
 44
0.0000000001
 40
0.0
 40
0.0
 40
0.0
 40
0.0
 40
0.135558988
 40
0.2683335859
 40
0.3978337368
 40
0.5238390836
 40
0.646459233
 40
0.7661408126
 40
0.8836512196
 40
1.0
 40
1.0
 40
1.0
 40
1.0
 10
69.8779258086
 20
224.0355335381
 30
0.0
 10
70.0910619502
 20
222.613583415
 30
0.0
 10
70.6992034192
 20
219.8227414175
 30
0.0
 10
72.1593050399
 20
215.8494947343
 30
0.0
 10
74.1272659371
 20
212.2144656121
 30
0.0
 10
76.5588797405
 20
209.0044578578
 30
0.0
 10
79.3988606745
 20
206.2962101269
 30
0.0
 10
82.5822604731
 20
204.1560466015
 30
0.0
 10
86.0324385639
 20
202.6381101675
 30
0.0
 10
88.4628740908
 20
202.0652425226
 30
0.0
 10
89.68502286
 20
201.8940690215
 30
0.0
  0
SPLINE
  5
367
100
AcDbEntity
  8
0
100
AcDbSpline
 62
7
  6
CONTINUOUS
 70
0
 71
3
 72
13
 73
9
 74
0
 42
0.0000001
 43
0.0000001
 44
0.0000000001
 40
0.0
 40
0.0
 40
0.0
 40
0.0
 40
0.1169666234
 40
0.2373688682
 40
0.3609690104
 40
0.4872227226
 40
0.7437941355
 40
1.0
 40
1.0
 40
1.0
 40
1.0
 10
83.3491385725
 20
255.7372050541
 30
0.0
 10
82.1461486973
 20
254.9914515482
 30
0.0
 10
79.832214576
 20
253.263200401
 30
0.0
 10
76.7857626797
 20
250.1096541385
 30
0.0
 10
74.1868878792
 20
246.4389302977
 30
0.0
 10
71.3969547032
 20
240.9624549064
 30
0.0
 10
69.3683489599
 20
233.396211614
 30
0.0
 10
69.4183557135
 20
227.1015820661
 30
0.0
 10
69.8779258086
 20
224.0355335381
 30
0.0
  0
SPLINE
  5
368
100
AcDbEntity
  8
0
100
AcDbSpline
 62
7
  6
CONTINUOUS
 70
0
 71
3
 72
9
 73
5
 74
0
 42
0.0000001
 43
0.0000001
 44
0.0000000001
 40
0.0
 40
0.0
 40
0.0
 40
0.0
 40
0.2654041597
 40
1.0
 40
1.0
 40
1.0
 40
1.0
 10
73.6691458166
 20
270.5957742721
 30
0.0
 10
73.613661879
 20
270.6496082818
 30
0.0
 10
73.3994617664
 20
270.8469178948
 30
0.0
 10
73.1633751382
 20
271.021663274
 30
0.0
 10
72.978084351
 20
271.1286837915
 30
0.0
  0
SPLINE
  5
369
100
AcDbEntity
  8
0
100
AcDbSpline
 62
7
  6
CONTINUOUS
 70
0
 71
3
 72
9
 73
5
 74
0
 42
0.0000001
 43
0.0000001
 44
0.0000000001
 40
0.0
 40
0.0
 40
0.0
 40
0.0
 40
0.2626348213
 40
1.0
 40
1.0
 40
1.0
 40
1.0
 10
72.978084351
 20
271.1286837915
 30
0.0
 10
72.9311359975
 20
271.1558002886
 30
0.0
 10
72.7494494947
 20
271.2537488243
 30
0.0
 10
72.5551817853
 20
271.329498758
 30
0.0
 10
72.4077500955
 20
271.3673663076
 30
0.0
  0
SPLINE
  5
36A
100
AcDbEntity
  8
0
100
AcDbSpline
 62
7
  6
CONTINUOUS
 70
0
 71
3
 72
9
 73
5
 74
0
 42
0.0000001
 43
0.0000001
 44
0.0000000001
 40
0.0
 40
0.0
 40
0.0
 40
0.0
 40
0.2580950746
 40
1.0
 40
1.0
 40
1.0
 40
1.0
 10
72.2524259931
 20
271.4001115399
 30
0.0
 10
72.1983571018
 20
271.4089892361
 30
0.0
 10
71.9874192957
 20
271.4334883039
 30
0.0
 10
71.7709107681
 20
271.4139487527
 30
0.0
 10
71.6187939484
 20
271.373106416
 30
0.0
  0
SPLINE
  5
36B
100
AcDbEntity
  8
0
100
AcDbSpline
 62
7
  6
CONTINUOUS
 70
0
 71
3
 72
13
 73
9
 74
0
 42
0.0000001
 43
0.0000001
 44
0.0000000001
 40
0.0
 40
0.0
 40
0.0
 40
0.0
 40
0.1184814728
 40
0.2399651388
 40
0.4898063225
 40
0.6174320805
 40
0.7456485965
 40
1.0
 40
1.0
 40
1.0
 40
1.0
 10
57.5615071622
 20
258.8804550775
 30
0.0
 10
56.4596065284
 20
257.9956185644
 30
0.0
 10
54.3600794469
 20
256.0320458163
 30
0.0
 10
50.6876169135
 20
251.4703012381
 30
0.0
 10
47.9303444323
 20
246.1058578367
 30
0.0
 10
46.2160983443
 20
240.3105165815
 30
0.0
 10
45.2191675417
 20
234.2959987271
 30
0.0
 10
45.3129512393
 20
229.6712222699
 30
0.0
 10
45.7626626724
 20
226.6709463768
 30
0.0
  0
SPLINE
  5
36C
100
AcDbEntity
  8
0
100
AcDbSpline
 62
7
  6
CONTINUOUS
 70
0
 71
3
 72
9
 73
5
 74
0
 42
0.0000001
 43
0.0000001
 44
0.0000000001
 40
0.0
 40
0.0
 40
0.0
 40
0.0
 40
0.4903879666
 40
1.0
 40
1.0
 40
1.0
 40
1.0
 10
113.9537932968
 20
250.9530716228
 30
0.0
 10
115.3465428863
 20
248.9794947279
 30
0.0
 10
117.673995041
 20
244.5758913736
 30
0.0
 10
118.9273153906
 20
239.76571957
 30
0.0
 10
119.2994151123
 20
237.2832347082
 30
0.0
  0
SPLINE
  5
36D
100
AcDbEntity
  8
0
100
AcDbSpline
 62
7
  6
CONTINUOUS
 70
0
 71
3
 72
11
 73
7
 74
0
 42
0.0000001
 43
0.0000001
 44
0.0000000001
 40
0.0
 40
0.0
 40
0.0
 40
0.0
 40
0.2707559836
 40
0.5265012318
 40
0.7688305004
 40
1.0
 40
1.0
 40
1.0
 40
1.0
 10
55.649824604
 20
255.6165317394
 30
0.0
 10
56.4690867251
 20
257.1665017574
 30
0.0
 10
58.2031347809
 20
260.1094642173
 30
0.0
 10
61.1800601412
 20
264.1126032589
 30
0.0
 10
64.4381790707
 20
267.5467251713
 30
0.0
 10
66.833913852
 20
269.4787665608
 30
0.0
 10
68.0651329144
 20
270.330021895
 30
0.0
  0
SPLINE
  5
36E
100
AcDbEntity
  8
0
100
AcDbSpline
 62
7
  6
CONTINUOUS
 70
0
 71
3
 72
9
 73
5
 74
0
 42
0.0000001
 43
0.0000001
 44
0.0000000001
 40
0.0
 40
0.0
 40
0.0
 40
0.0
 40
0.268272445
 40
1.0
 40
1.0
 40
1.0
 40
1.0
 10
69.8789106907
 20
267.3330791718
 30
0.0
 10
69.8524258031
 20
267.348376351
 30
0.0
 10
69.7514318961
 20
267.4010965302
 30
0.0
 10
69.639633607
 20
267.4352612341
 30
0.0
 10
69.5565988088
 20
267.4432968829
 30
0.0
  0
SPLINE
  5
36F
100
AcDbEntity
  8
0
100
AcDbSpline
 62
7
  6
CONTINUOUS
 70
0
 71
3
 72
9
 73
5
 74
0
 42
0.0000001
 43
0.0000001
 44
0.0000000001
 40
0.0
 40
0.0
 40
0.0
 40
0.0
 40
0.2558559529
 40
1.0
 40
1.0
 40
1.0
 40
1.0
 10
69.5565988088
 20
267.4432968829
 30
0.0
 10
69.5393471071
 20
267.4449664072
 30
0.0
 10
69.4716863028
 20
267.4486928947
 30
0.0
 10
69.4033013585
 20
267.4404178718
 30
0.0
 10
69.3546095302
 20
267.4273685555
 30
0.0
  0
SPLINE
  5
370
100
AcDbEntity
  8
0
100
AcDbSpline
 62
7
  6
CONTINUOUS
 70
0
 71
3
 72
14
 73
10
 74
0
 42
0.0000001
 43
0.0000001
 44
0.0000000001
 40
0.0
 40
0.0
 40
0.0
 40
0.0
 40
0.1124459433
 40
0.2274868111
 40
0.3469985405
 40
0.4717179759
 40
0.601199436
 40
0.7340328503
 40
1.0
 40
1.0
 40
1.0
 40
1.0
 10
97.4782749766
 20
198.3676361984
 30
0.0
 10
97.7091289831
 20
198.3353285944
 30
0.0
 10
98.1882986027
 20
198.3376809122
 30
0.0
 10
98.8864220113
 20
198.5437271274
 30
0.0
 10
99.5284293919
 20
198.936792438
 30
0.0
 10
100.0785449754
 20
199.4918180698
 30
0.0
 10
100.5080225097
 20
200.1772380692
 30
0.0
 10
100.8895171643
 20
201.2091625196
 30
0.0
 10
100.9380144512
 20
202.0638906678
 30
0.0
 10
100.8562844453
 20
202.6091571401
 30
0.0
  0
SPLINE
  5
371
100
AcDbEntity
  8
0
100
AcDbSpline
 62
7
  6
CONTINUOUS
 70
0
 71
3
 72
11
 73
7
 74
0
 42
0.0000001
 43
0.0000001
 44
0.0000000001
 40
0.0
 40
0.0
 40
0.0
 40
0.0
 40
0.2366480994
 40
0.4798335027
 40
0.7338968485
 40
1.0
 40
1.0
 40
1.0
 40
1.0
 10
97.22273309
 20
196.2411409719
 30
0.0
 10
96.8232562656
 20
196.2971170647
 30
0.0
 10
96.0261867762
 20
196.5419860378
 30
0.0
 10
94.9845975519
 20
197.2665143327
 30
0.0
 10
94.1572375419
 20
198.290875338
 30
0.0
 10
93.7903946882
 20
199.109603901
 30
0.0
 10
93.6538199667
 20
199.5421414906
 30
0.0
  0
SPLINE
  5
372
100
AcDbEntity
  8
0
100
AcDbSpline
 62
7
  6
CONTINUOUS
 70
0
 71
3
 72
13
 73
9
 74
0
 42
0.0000001
 43
0.0000001
 44
0.0000000001
 40
0.0
 40
0.0
 40
0.0
 40
0.0
 40
0.2551733326
 40
0.5110736117
 40
0.6373220291
 40
0.7612219099
 40
0.8822175365
 40
1.0
 40
1.0
 40
1.0
 40
1.0
 10
68.0597439279
 20
223.5481599165
 30
0.0
 10
67.5895059408
 20
226.685379904
 30
0.0
 10
67.4943328108
 20
233.1215858415
 30
0.0
 10
69.4157075839
 20
240.9037127025
 30
0.0
 10
72.1014798752
 20
246.6108208478
 30
0.0
 10
74.6240103057
 20
250.4928543047
 30
0.0
 10
77.6022008545
 20
253.897965263
 30
0.0
 10
79.8793453623
 20
255.82411914
 30
0.0
 10
81.0696548957
 20
256.6768727607
 30
0.0
  0
SPLINE
  5
373
100
AcDbEntity
  8
0
100
AcDbSpline
 62
7
  6
CONTINUOUS
 70
0
 71
3
 72
13
 73
9
 74
0
 42
0.0000001
 43
0.0000001
 44
0.0000000001
 40
0.0
 40
0.0
 40
0.0
 40
0.0
 40
0.1152506671
 40
0.2342760494
 40
0.3571105486
 40
0.4832962807
 40
0.7413463937
 40
1.0
 40
1.0
 40
1.0
 40
1.0
 10
100.7377470641
 20
203.3999861494
 30
0.0
 10
102.1525641931
 20
203.9958674448
 30
0.0
 10
104.9118410255
 20
205.5028109667
 30
0.0
 10
108.6066049494
 20
208.5375638805
 30
0.0
 10
111.8103378431
 20
212.2809670673
 30
0.0
 10
115.3119661123
 20
218.0869136442
 30
0.0
 10
117.9401760834
 20
226.383846741
 30
0.0
 10
117.99195325
 20
233.3885628805
 30
0.0
 10
117.4812332316
 20
236.7958610865
 30
0.0
  0
SPLINE
  5
374
100
AcDbEntity
  8
0
100
AcDbSpline
 62
7
  6
CONTINUOUS
 70
0
 71
3
 72
9
 73
5
 74
0
 42
0.0000001
 43
0.0000001
 44
0.0000000001
 40
0.0
 40
0.0
 40
0.0
 40
0.0
 40
0.5110754674
 40
1.0
 40
1.0
 40
1.0
 40
1.0
 10
117.4812332316
 20
236.7958610865
 30
0.0
 10
117.0952354929
 20
239.3710673738
 30
0.0
 10
115.7354838107
 20
244.3422252008
 30
0.0
 10
113.1291843395
 20
248.8060303994
 30
0.0
 10
111.5714584569
 20
250.7500302285
 30
0.0
  0
SPLINE
  5
375
100
AcDbEntity
  8
0
100
AcDbSpline
 62
7
  6
CONTINUOUS
 70
0
 71
3
 72
9
 73
5
 74
0
 42
0.0000001
 43
0.0000001
 44
0.0000000001
 40
0.0
 40
0.0
 40
0.0
 40
0.0
 40
0.2532558347
 40
1.0
 40
1.0
 40
1.0
 40
1.0
 10
76.2190921187
 20
252.7357318106
 30
0.0
 10
76.4405559702
 20
252.977800926
 30
0.0
 10
77.328323362
 20
253.9213152081
 30
0.0
 10
78.2712958815
 20
254.8133643424
 30
0.0
 10
79.0062169485
 20
255.4424560182
 30
0.0
  0
SPLINE
  5
376
100
AcDbEntity
  8
0
100
AcDbSpline
 62
7
  6
CONTINUOUS
 70
0
 71
3
 72
16
 73
12
 74
0
 42
0.0000001
 43
0.0000001
 44
0.0000000001
 40
0.0
 40
0.0
 40
0.0
 40
0.0
 40
0.0843024072
 40
0.1338452022
 40
0.189104281
 40
0.3157859603
 40
0.459084969
 40
0.6094675164
 40
0.7560292012
 40
0.8885689063
 40
1.0
 40
1.0
 40
1.0
 40
1.0
 10
69.2617557959
 20
267.3931935067
 30
0.0
 10
69.1537519105
 20
267.3420036478
 30
0.0
 10
69.0092269586
 20
267.2026780531
 30
0.0
 10
68.88220594
 20
266.9664166344
 30
0.0
 10
68.7757191384
 20
266.6542905778
 30
0.0
 10
68.7210451031
 20
266.1918552606
 30
0.0
 10
68.7650710045
 20
265.5948144428
 30
0.0
 10
68.9127507081
 20
264.9855716597
 30
0.0
 10
69.1504578508
 20
264.4216514734
 30
0.0
 10
69.4548481213
 20
263.9556746469
 30
0.0
 10
69.7111486199
 20
263.7140690925
 30
0.0
 10
69.8450194419
 20
263.6301809911
 30
0.0
  0
SPLINE
  5
377
100
AcDbEntity
  8
0
100
AcDbSpline
 62
7
  6
CONTINUOUS
 70
0
 71
3
 72
15
 73
11
 74
0
 42
0.0000001
 43
0.0000001
 44
0.0000000001
 40
0.0
 40
0.0
 40
0.0
 40
0.0
 40
0.1163497456
 40
0.2338602094
 40
0.3535416881
 40
0.4761617707
 40
0.6021669412
 40
0.7316671394
 40
0.8644406506
 40
1.0
 40
1.0
 40
1.0
 40
1.0
 10
89.3798815969
 20
199.7153227154
 30
0.0
 10
88.0643627475
 20
199.8995699663
 30
0.0
 10
85.4482541337
 20
200.5161933304
 30
0.0
 10
81.7345205268
 20
202.1501116315
 30
0.0
 10
78.3079530978
 20
204.4537693766
 30
0.0
 10
75.2510379804
 20
207.3689007092
 30
0.0
 10
72.6336784294
 20
210.8241169522
 30
0.0
 10
70.5154008283
 20
214.7368132506
 30
0.0
 10
68.9437525256
 20
219.0135594856
 30
0.0
 10
68.2891619289
 20
222.0175844242
 30
0.0
 10
68.0597439279
 20
223.5481599165
 30
0.0
  0
SPLINE
  5
378
100
AcDbEntity
  8
0
100
AcDbSpline
 62
7
  6
CONTINUOUS
 70
0
 71
3
 72
9
 73
5
 74
0
 42
0.0000001
 43
0.0000001
 44
0.0000000001
 40
0.0
 40
0.0
 40
0.0
 40
0.0
 40
0.253132258
 40
1.0
 40
1.0
 40
1.0
 40
1.0
 10
83.8422432522
 20
208.523673207
 30
0.0
 10
83.5200231406
 20
208.3070152474
 30
0.0
 10
82.2273644464
 20
207.4809228632
 30
0.0
 10
80.8560622585
 20
206.7770398685
 30
0.0
 10
79.800243934
 20
206.3323588012
 30
0.0
  0
SPLINE
  5
379
100
AcDbEntity
  8
0
100
AcDbSpline
 62
7
  6
CONTINUOUS
 70
0
 71
3
 72
11
 73
7
 74
0
 42
0.0000001
 43
0.0000001
 44
0.0000000001
 40
0.0
 40
0.0
 40
0.0
 40
0.0
 40
0.2098217458
 40
0.4491160647
 40
0.7145927524
 40
1.0
 40
1.0
 40
1.0
 40
1.0
 10
69.8789106907
 20
270.2979333001
 30
0.0
 10
70.0969490291
 20
270.1719984052
 30
0.0
 10
70.5280119198
 20
269.8399146553
 30
0.0
 10
71.1007963549
 20
269.1972722533
 30
0.0
 10
71.6230435047
 20
268.40236157
 30
0.0
 10
71.9156933584
 20
267.8076585824
 30
0.0
 10
72.0500395483
 20
267.4926075504
 30
0.0
  0
SPLINE
  5
37A
100
AcDbEntity
  8
0
100
AcDbSpline
 62
7
  6
CONTINUOUS
 70
0
 71
3
 72
10
 73
6
 74
0
 42
0.0000001
 43
0.0000001
 44
0.0000000001
 40
0.0
 40
0.0
 40
0.0
 40
0.0
 40
0.2307648531
 40
0.4701115792
 40
1.0
 40
1.0
 40
1.0
 40
1.0
 10
68.519620288
 20
270.5423559245
 30
0.0
 10
68.6245892822
 20
270.5705393892
 30
0.0
 10
68.8460402794
 20
270.6028221383
 30
0.0
 10
69.3185425111
 20
270.5646763991
 30
0.0
 10
69.6627989804
 20
270.4227554104
 30
0.0
 10
69.8789106907
 20
270.2979333001
 30
0.0
  0
SPLINE
  5
37B
100
AcDbEntity
  8
0
100
AcDbSpline
 62
7
  6
CONTINUOUS
 70
0
 71
3
 72
9
 73
5
 74
0
 42
0.0000001
 43
0.0000001
 44
0.0000000001
 40
0.0
 40
0.0
 40
0.0
 40
0.0
 40
0.268272445
 40
1.0
 40
1.0
 40
1.0
 40
1.0
 10
69.8789106907
 20
263.6097739874
 30
0.0
 10
69.9053955782
 20
263.5944768082
 30
0.0
 10
70.0063894852
 20
263.541756629
 30
0.0
 10
70.1181877743
 20
263.5075919251
 30
0.0
 10
70.2012225725
 20
263.4995562763
 30
0.0
  0
SPLINE
  5
37C
100
AcDbEntity
  8
0
100
AcDbSpline
 62
7
  6
CONTINUOUS
 70
0
 71
3
 72
9
 73
5
 74
0
 42
0.0000001
 43
0.0000001
 44
0.0000000001
 40
0.0
 40
0.0
 40
0.0
 40
0.0
 40
0.2558559529
 40
1.0
 40
1.0
 40
1.0
 40
1.0
 10
70.2012225725
 20
263.4995562763
 30
0.0
 10
70.2184742742
 20
263.497886752
 30
0.0
 10
70.2861350785
 20
263.4941602645
 30
0.0
 10
70.3545200228
 20
263.5024352874
 30
0.0
 10
70.4032118511
 20
263.5154846037
 30
0.0
  0
SPLINE
  5
37D
100
AcDbEntity
  8
0
100
AcDbSpline
 62
7
  6
CONTINUOUS
 70
0
 71
3
 72
13
 73
9
 74
0
 42
0.0000001
 43
0.0000001
 44
0.0000000001
 40
0.0
 40
0.0
 40
0.0
 40
0.0
 40
0.1147534468
 40
0.2329708082
 40
0.3548826732
 40
0.480285529
 40
0.7382360019
 40
1.0
 40
1.0
 40
1.0
 40
1.0
 10
62.3384164132
 20
271.160718001
 30
0.0
 10
60.4884341251
 20
270.5413848852
 30
0.0
 10
56.8481599772
 20
268.9110324949
 30
0.0
 10
51.8593781431
 20
265.4652944913
 30
0.0
 10
47.4040395644
 20
261.0902186321
 30
0.0
 10
42.3056826064
 20
254.137712322
 30
0.0
 10
37.9484676417
 20
243.8893461495
 30
0.0
 10
36.9138787988
 20
234.9750507027
 30
0.0
 10
37.04122072
 20
230.5266782014
 30
0.0
  0
SPLINE
  5
37E
100
AcDbEntity
  8
0
100
AcDbSpline
 62
7
  6
CONTINUOUS
 70
0
 71
3
 72
14
 73
10
 74
0
 42
0.0000001
 43
0.0000001
 44
0.0000000001
 40
0.0
 40
0.0
 40
0.0
 40
0.0
 40
0.1090461103
 40
0.2247991457
 40
0.3473617863
 40
0.4756428846
 40
0.6076781749
 40
0.7409820679
 40
1.0
 40
1.0
 40
1.0
 40
1.0
 10
23.8562397229
 20
268.7544683816
 30
0.0
 10
22.1180336035
 20
268.8320952643
 30
0.0
 10
18.5017019571
 20
268.5074671184
 30
0.0
 10
13.2069254119
 20
266.7340778081
 30
0.0
 10
8.123480797
 20
263.7644945456
 30
0.0
 10
3.4821892539
 20
259.7441454806
 30
0.0
 10
-0.5129110764
 20
254.85569082
 30
0.0
 10
-4.6855819094
 20
247.5795458977
 30
0.0
 10
-6.4461300855
 20
241.3991449055
 30
0.0
 10
-6.8085419419
 20
237.2821779654
 30
0.0
  0
SPLINE
  5
37F
100
AcDbEntity
  8
0
100
AcDbSpline
 62
7
  6
CONTINUOUS
 70
0
 71
3
 72
11
 73
7
 74
0
 42
0.0000001
 43
0.0000001
 44
0.0000000001
 40
0.0
 40
0.0
 40
0.0
 40
0.0
 40
0.2127105858
 40
0.442600076
 40
0.7025916255
 40
1.0
 40
1.0
 40
1.0
 40
1.0
 10
-3.6738552681
 20
228.5920501165
 30
0.0
 10
-3.6738290525
 20
228.6589582101
 30
0.0
 10
-3.6503330089
 20
228.7989765309
 30
0.0
 10
-3.5493865077
 20
228.9984681997
 30
0.0
 10
-3.3873592513
 20
229.1880520536
 30
0.0
 10
-3.2507684609
 20
229.2992833337
 30
0.0
 10
-3.1745524003
 20
229.3535297509
 30
0.0
  0
SPLINE
  5
380
100
AcDbEntity
  8
0
100
AcDbSpline
 62
7
  6
CONTINUOUS
 70
0
 71
3
 72
11
 73
7
 74
0
 42
0.0000001
 43
0.0000001
 44
0.0000000001
 40
0.0
 40
0.0
 40
0.0
 40
0.0
 40
0.2105082605
 40
0.440672095
 40
0.7020045542
 40
1.0
 40
1.0
 40
1.0
 40
1.0
 10
-3.672499359
 20
222.1155494597
 30
0.0
 10
-3.6680709244
 20
222.0487513742
 30
0.0
 10
-3.6353443027
 20
221.9097949234
 30
0.0
 10
-3.5233765769
 20
221.7139941641
 30
0.0
 10
-3.3522165826
 20
221.5281674588
 30
0.0
 10
-3.2107970252
 20
221.4190610405
 30
0.0
 10
-3.132326156
 20
221.3659282519
 30
0.0
  0
SPLINE
  5
381
100
AcDbEntity
  8
0
100
AcDbSpline
 62
7
  6
CONTINUOUS
 70
0
 71
3
 72
15
 73
11
 74
0
 42
0.0000001
 43
0.0000001
 44
0.0000000001
 40
0.0
 40
0.0
 40
0.0
 40
0.0
 40
0.112580736
 40
0.2288031216
 40
0.3495468102
 40
0.4748553566
 40
0.6040118603
 40
0.7357137603
 40
0.8682997167
 40
1.0
 40
1.0
 40
1.0
 40
1.0
 10
57.9287351573
 20
269.2147633749
 30
0.0
 10
55.9152076998
 20
269.0676907214
 30
0.0
 10
51.8456722566
 20
268.2482091579
 30
0.0
 10
46.1158278332
 20
265.5816586252
 30
0.0
 10
40.922941046
 20
261.5971191623
 30
0.0
 10
36.4897303885
 20
256.478980215
 30
0.0
 10
32.9978741617
 20
250.4537711672
 30
0.0
 10
30.5927341201
 20
243.7813529426
 30
0.0
 10
29.3737742958
 20
236.7509881289
 30
0.0
 10
29.3880613134
 20
231.9822762299
 30
0.0
 10
29.6078916183
 20
229.6307700539
 30
0.0
  0
SPLINE
  5
382
100
AcDbEntity
  8
0
100
AcDbSpline
 62
7
  6
CONTINUOUS
 70
0
 71
3
 72
13
 73
9
 74
0
 42
0.0000001
 43
0.0000001
 44
0.0000000001
 40
0.0
 40
0.0
 40
0.0
 40
0.0
 40
0.2613490455
 40
0.5191057669
 40
0.6445474919
 40
0.7665983462
 40
0.885024449
 40
1.0
 40
1.0
 40
1.0
 40
1.0
 10
38.6727144704
 20
230.2981816312
 30
0.0
 10
38.5475309019
 20
234.6711574617
 30
0.0
 10
39.543542138
 20
243.4359090893
 30
0.0
 10
43.7534257687
 20
253.5430902793
 30
0.0
 10
48.6898947129
 20
260.4470331056
 30
0.0
 10
53.0129167449
 20
264.8260698902
 30
0.0
 10
57.8643779934
 20
268.3188302408
 30
0.0
 10
61.4144158084
 20
270.012272189
 30
0.0
 10
63.222741372
 20
270.6710799438
 30
0.0
  0
SPLINE
  5
383
100
AcDbEntity
  8
0
100
AcDbSpline
 62
7
  6
CONTINUOUS
 70
0
 71
3
 72
14
 73
10
 74
0
 42
0.0000001
 43
0.0000001
 44
0.0000000001
 40
0.0
 40
0.0
 40
0.0
 40
0.0
 40
0.2273794996
 40
0.3489850154
 40
0.4748991075
 40
0.6041737601
 40
0.735638092
 40
0.8680316585
 40
1.0
 40
1.0
 40
1.0
 40
1.0
 10
23.9071325221
 20
268.4229582277
 30
0.0
 10
21.4794650439
 20
268.1024771282
 30
0.0
 10
17.8180632971
 20
266.9959390029
 30
0.0
 10
13.2849762089
 20
264.6154834535
 30
0.0
 10
9.9346145161
 20
262.3071989401
 30
0.0
 10
6.7881337033
 20
259.5675888465
 30
0.0
 10
3.90875345
 20
256.4524504628
 30
0.0
 10
1.3567329823
 20
253.0287009267
 30
0.0
 10
-0.0983460493
 20
250.5742216328
 30
0.0
 10
-0.7562234956
 20
249.3144418944
 30
0.0
  0
SPLINE
  5
384
100
AcDbEntity
  8
0
100
AcDbSpline
 62
7
  6
CONTINUOUS
 70
0
 71
3
 72
15
 73
11
 74
0
 42
0.0000001
 43
0.0000001
 44
0.0000000001
 40
0.0
 40
0.0
 40
0.0
 40
0.0
 40
0.1129196226
 40
0.2288047019
 40
0.3488684536
 40
0.4734961971
 40
0.6022459913
 40
0.7340004706
 40
0.8671773129
 40
1.0
 40
1.0
 40
1.0
 40
1.0
 10
56.5592631459
 20
269.4053454507
 30
0.0
 10
54.5099488494
 20
269.3508383814
 30
0.0
 10
50.3545410236
 20
268.7013702057
 30
0.0
 10
44.4722724157
 20
266.2027830537
 30
0.0
 10
39.1449776643
 20
262.3055587241
 30
0.0
 10
34.6124984083
 20
257.1997722937
 30
0.0
 10
31.0687066391
 20
251.12245137
 30
0.0
 10
28.6671118874
 20
244.3475936185
 30
0.0
 10
27.5115606033
 20
237.1820046142
 30
0.0
 10
27.6078126843
 20
232.3223475626
 30
0.0
 10
27.8772599648
 20
229.9260726309
 30
0.0
  0
SPLINE
  5
385
100
AcDbEntity
  8
0
100
AcDbSpline
 62
7
  6
CONTINUOUS
 70
0
 71
3
 72
9
 73
5
 74
0
 42
0.0000001
 43
0.0000001
 44
0.0000000001
 40
0.0
 40
0.0
 40
0.0
 40
0.0
 40
0.2568319243
 40
1.0
 40
1.0
 40
1.0
 40
1.0
 10
-2.6445394576
 20
245.1068065074
 30
0.0
 10
-2.911393219
 20
244.4004017054
 30
0.0
 10
-3.8662615984
 20
241.61945396
 30
0.0
 10
-4.4767639073
 20
238.7158833967
 30
0.0
 10
-4.6913485286
 20
236.5414089076
 30
0.0
  0
SPLINE
  5
386
100
AcDbEntity
  8
0
100
AcDbSpline
 62
7
  6
CONTINUOUS
 70
0
 71
3
 72
30
 73
26
 74
0
 42
0.0000001
 43
0.0000001
 44
0.0000000001
 40
0.0
 40
0.0
 40
0.0
 40
0.0
 40
0.1217929516
 40
0.1817849975
 40
0.2408844836
 40
0.2986666612
 40
0.326824409
 40
0.3542526087
 40
0.3806061064
 40
0.3931935056
 40
0.4052125468
 40
0.4164450001
 40
0.4265725837
 40
0.4353680762
 40
0.4442430701
 40
0.4566000858
 40
0.4721021569
 40
0.4890037329
 40
0.5064633831
 40
0.5419397433
 40
0.5775940089
 40
0.6487650204
 40
0.7195870756
 40
0.8602759609
 40
1.0
 40
1.0
 40
1.0
 40
1.0
 10
2.8456441312
 20
231.9224901502
 30
0.0
 10
2.8817368019
 20
232.133838943
 30
0.0
 10
2.9380733785
 20
232.4488931255
 30
0.0
 10
3.0208804744
 20
232.8648073642
 30
0.0
 10
3.0871645009
 20
233.1690633711
 30
0.0
 10
3.147954726
 20
233.4171117098
 30
0.0
 10
3.2018019437
 20
233.6093117381
 30
0.0
 10
3.2450031943
 20
233.7469660025
 30
0.0
 10
3.2850240206
 20
233.8568198453
 30
0.0
 10
3.3208100301
 20
233.9391390596
 30
0.0
 10
3.349246743
 20
233.9954604215
 30
0.0
 10
3.380457364
 20
234.045585774
 30
0.0
 10
3.4147131206
 20
234.0858445815
 30
0.0
 10
3.4585932144
 20
234.1139455723
 30
0.0
 10
3.515161535
 20
234.0996859778
 30
0.0
 10
3.5552356832
 20
234.045752985
 30
0.0
 10
3.5894192004
 20
233.9752098986
 30
0.0
 10
3.6179226876
 20
233.8918356706
 30
0.0
 10
3.6503261238
 20
233.773275469
 30
0.0
 10
3.6820542955
 20
233.6204192322
 30
0.0
 10
3.7225640835
 20
233.3731936932
 30
0.0
 10
3.7606108036
 20
233.0626649197
 30
0.0
 10
3.8072752303
 20
232.5671963866
 30
0.0
 10
3.8485744875
 20
231.9501536313
 30
0.0
 10
3.8721397491
 20
231.4570575208
 30
0.0
 10
3.8822944467
 20
231.2112922492
 30
0.0
  0
SPLINE
  5
387
100
AcDbEntity
  8
0
100
AcDbSpline
 62
7
  6
CONTINUOUS
 70
0
 71
3
 72
11
 73
7
 74
0
 42
0.0000001
 43
0.0000001
 44
0.0000000001
 40
0.0
 40
0.0
 40
0.0
 40
0.0
 40
0.299701509
 40
0.5606648746
 40
0.7895471865
 40
1.0
 40
1.0
 40
1.0
 40
1.0
 10
-3.132326156
 20
227.8012539221
 30
0.0
 10
-3.2146204607
 20
227.8569755669
 30
0.0
 10
-3.3621876164
 20
227.9714911242
 30
0.0
 10
-3.5381212884
 20
228.1679310226
 30
0.0
 10
-3.6481463224
 20
228.3756792155
 30
0.0
 10
-3.6738826122
 20
228.5222616123
 30
0.0
 10
-3.6738552681
 20
228.5920501165
 30
0.0
  0
SPLINE
  5
388
100
AcDbEntity
  8
0
100
AcDbSpline
 62
7
  6
CONTINUOUS
 70
0
 71
3
 72
14
 73
10
 74
0
 42
0.0000001
 43
0.0000001
 44
0.0000000001
 40
0.0
 40
0.0
 40
0.0
 40
0.0
 40
0.097819767
 40
0.2105731542
 40
0.3354232957
 40
0.4687254316
 40
0.7433985011
 40
0.8761172534
 40
1.0
 40
1.0
 40
1.0
 40
1.0
 10
43.4488186417
 20
173.128089291
 30
0.0
 10
43.7496133885
 20
172.9543558315
 30
0.0
 10
44.4332678571
 20
172.6426916998
 30
0.0
 10
45.573038264
 20
172.2898515239
 30
0.0
 10
46.8661810427
 20
172.0288786185
 30
0.0
 10
48.7477171332
 20
171.8156816698
 30
0.0
 10
50.6771706273
 20
171.82203088
 30
0.0
 10
52.5515109399
 20
172.0486033783
 30
0.0
 10
53.4448699881
 20
172.2367852476
 30
0.0
 10
53.8697825081
 20
172.3506853783
 30
0.0
  0
SPLINE
  5
389
100
AcDbEntity
  8
0
100
AcDbSpline
 62
7
  6
CONTINUOUS
 70
0
 71
3
 72
13
 73
9
 74
0
 42
0.0000001
 43
0.0000001
 44
0.0000000001
 40
0.0
 40
0.0
 40
0.0
 40
0.0
 40
0.3343767527
 40
0.6101555838
 40
0.7252558297
 40
0.8263525407
 40
0.916327021
 40
1.0
 40
1.0
 40
1.0
 40
1.0
 10
115.8532557151
 20
188.9656952069
 30
0.0
 10
116.3192912963
 20
189.0906185995
 30
0.0
 10
117.1573153096
 20
189.368772541
 30
0.0
 10
118.0894833086
 20
189.8660005237
 30
0.0
 10
118.6328549486
 20
190.3272501769
 30
0.0
 10
118.9148073176
 20
190.6714328049
 30
0.0
 10
119.0900699901
 20
191.0318936913
 30
0.0
 10
119.1305895383
 20
191.283864273
 30
0.0
 10
119.1305614917
 20
191.4046000507
 30
0.0
  0
SPLINE
  5
38A
100
AcDbEntity
  8
0
100
AcDbSpline
 62
7
  6
CONTINUOUS
 70
0
 71
3
 72
11
 73
7
 74
0
 42
0.0000001
 43
0.0000001
 44
0.0000000001
 40
0.0
 40
0.0
 40
0.0
 40
0.0
 40
0.2032339246
 40
0.4288952144
 40
0.6924084714
 40
1.0
 40
1.0
 40
1.0
 40
1.0
 10
46.0707643388
 20
181.9227336469
 30
0.0
 10
46.0707430902
 20
181.8680570288
 30
0.0
 10
46.0942027839
 20
181.7518556708
 30
0.0
 10
46.1926162481
 20
181.5905563977
 30
0.0
 10
46.3478320675
 20
181.4404176172
 30
0.0
 10
46.4763339196
 20
181.3549052408
 30
0.0
 10
46.5479923021
 20
181.3135166899
 30
0.0
  0
SPLINE
  5
38B
100
AcDbEntity
  8
0
100
AcDbSpline
 62
7
  6
CONTINUOUS
 70
0
 71
3
 72
11
 73
7
 74
0
 42
0.0000001
 43
0.0000001
 44
0.0000000001
 40
0.0
 40
0.0
 40
0.0
 40
0.0
 40
0.2032237194
 40
0.4289289409
 40
0.6925283262
 40
1.0
 40
1.0
 40
1.0
 40
1.0
 10
-13.0458902227
 20
216.0674022535
 30
0.0
 10
-13.0459221833
 20
216.0127284461
 30
0.0
 10
-13.0224095542
 20
215.8965265174
 30
0.0
 10
-12.9240083018
 20
215.7351878367
 30
0.0
 10
-12.7687362308
 20
215.5850969713
 30
0.0
 10
-12.6402697195
 20
215.4995576063
 30
0.0
 10
-12.5686393376
 20
215.4581852281
 30
0.0
  0
SPLINE
  5
38C
100
AcDbEntity
  8
0
100
AcDbSpline
 62
7
  6
CONTINUOUS
 70
0
 71
3
 72
11
 73
7
 74
0
 42
0.0000001
 43
0.0000001
 44
0.0000000001
 40
0.0
 40
0.0
 40
0.0
 40
0.0
 40
0.2032339246
 40
0.4288952144
 40
0.6924084714
 40
1.0
 40
1.0
 40
1.0
 40
1.0
 10
105.9881217723
 20
197.9839098146
 30
0.0
 10
105.9881005236
 20
197.9292331965
 30
0.0
 10
106.0115602173
 20
197.8130318385
 30
0.0
 10
106.1099736816
 20
197.6517325653
 30
0.0
 10
106.2651895009
 20
197.5015937849
 30
0.0
 10
106.393691353
 20
197.4160814085
 30
0.0
 10
106.4653497355
 20
197.3746928575
 30
0.0
  0
SPLINE
  5
38D
100
AcDbEntity
  8
0
100
AcDbSpline
 62
7
  6
CONTINUOUS
 70
0
 71
3
 72
11
 73
7
 74
0
 42
0.0000001
 43
0.0000001
 44
0.0000000001
 40
0.0
 40
0.0
 40
0.0
 40
0.0
 40
0.307716659
 40
0.5710984383
 40
0.7967334285
 40
1.0
 40
1.0
 40
1.0
 40
1.0
 10
117.8289864901
 20
200.4207779928
 30
0.0
 10
118.0245002043
 20
200.3078529025
 30
0.0
 10
118.3750526493
 20
200.0747449921
 30
0.0
 10
118.7981743996
 20
199.6651226493
 30
0.0
 10
119.0666416842
 20
199.2253433078
 30
0.0
 10
119.130526846
 20
198.9084206919
 30
0.0
 10
119.1305614917
 20
198.7592769582
 30
0.0
  0
SPLINE
  5
38E
100
AcDbEntity
  8
0
100
AcDbSpline
 62
7
  6
CONTINUOUS
 70
0
 71
3
 72
9
 73
5
 74
0
 42
0.0000001
 43
0.0000001
 44
0.0000000001
 40
0.0
 40
0.0
 40
0.0
 40
0.0
 40
0.7447565962
 40
1.0
 40
1.0
 40
1.0
 40
1.0
 10
-3.733309423
 20
222.1714503709
 30
0.0
 10
-3.7309968894
 20
222.2174250564
 30
0.0
 10
-3.7208880755
 20
222.2790610536
 30
0.0
 10
-3.7026055979
 20
222.3381153614
 30
0.0
 10
-3.6974476656
 20
222.3530247622
 30
0.0
  0
SPLINE
  5
38F
100
AcDbEntity
  8
0
100
AcDbSpline
 62
7
  6
CONTINUOUS
 70
0
 71
3
 72
12
 73
8
 74
0
 42
0.0000001
 43
0.0000001
 44
0.0000000001
 40
0.0
 40
0.0
 40
0.0
 40
0.0
 40
0.3349279859
 40
0.6112472304
 40
0.7265199304
 40
0.8278001376
 40
1.0
 40
1.0
 40
1.0
 40
1.0
 10
114.0053782123
 20
198.0865453459
 30
0.0
 10
114.1762371674
 20
198.1323450256
 30
0.0
 10
114.4834958614
 20
198.234464493
 30
0.0
 10
114.8253427241
 20
198.4164016882
 30
0.0
 10
115.0245204792
 20
198.5860867058
 30
0.0
 10
115.1556661941
 20
198.7444834426
 30
0.0
 10
115.207005449
 20
198.8898638664
 30
0.0
 10
115.207040793
 20
198.9808105443
 30
0.0
  0
SPLINE
  5
390
100
AcDbEntity
  8
0
100
AcDbSpline
 62
7
  6
CONTINUOUS
 70
0
 71
3
 72
12
 73
8
 74
0
 42
0.0000001
 43
0.0000001
 44
0.0000000001
 40
0.0
 40
0.0
 40
0.0
 40
0.0
 40
0.0978508246
 40
0.2106902249
 40
0.4687113837
 40
0.7435104759
 40
1.0
 40
1.0
 40
1.0
 40
1.0
 10
106.4653497355
 20
197.3746928575
 30
0.0
 10
106.5756205715
 20
197.3110024706
 30
0.0
 10
106.8263144514
 20
197.1967093906
 30
0.0
 10
107.4100241175
 20
197.0162563337
 30
0.0
 10
108.2463759859
 20
196.8932811813
 30
0.0
 10
109.2762834838
 20
196.896552354
 30
0.0
 10
109.9639580496
 20
197.0032205135
 30
0.0
 10
110.2863698199
 20
197.0896447562
 30
0.0
  0
SPLINE
  5
391
100
AcDbEntity
  8
0
100
AcDbSpline
 62
7
  6
CONTINUOUS
 70
0
 71
3
 72
17
 73
13
 74
0
 42
0.0000001
 43
0.0000001
 44
0.0000000001
 40
0.0
 40
0.0
 40
0.0
 40
0.0
 40
0.1179824722
 40
0.260576598
 40
0.4170373008
 40
0.5742978923
 40
0.719183279
 40
0.8405142201
 40
0.8902234175
 40
0.9324220067
 40
0.9681667655
 40
1.0
 40
1.0
 40
1.0
 40
1.0
 10
-10.0350694102
 20
213.9948422907
 30
0.0
 10
-9.8480901216
 20
213.8868465261
 30
0.0
 10
-9.3984989867
 20
213.7132435593
 30
0.0
 10
-8.648627859
 20
213.5614966943
 30
0.0
 10
-7.8130565231
 20
213.5048213178
 30
0.0
 10
-6.9726546623
 20
213.5494794934
 30
0.0
 10
-6.2086627345
 20
213.6908355587
 30
0.0
 10
-5.6595285668
 20
213.8876533053
 30
0.0
 10
-5.3257309213
 20
214.0927506306
 30
0.0
 10
-5.1509956984
 20
214.2505109812
 30
0.0
 10
-5.039405603
 20
214.421234889
 30
0.0
 10
-5.0123978801
 20
214.5457994443
 30
0.0
 10
-5.0123638233
 20
214.6040593194
 30
0.0
  0
SPLINE
  5
392
100
AcDbEntity
  8
0
100
AcDbSpline
 62
7
  6
CONTINUOUS
 70
0
 71
3
 72
12
 73
8
 74
0
 42
0.0000001
 43
0.0000001
 44
0.0000000001
 40
0.0
 40
0.0
 40
0.0
 40
0.0
 40
0.3349279859
 40
0.6112472304
 40
0.7265199304
 40
0.8278001376
 40
1.0
 40
1.0
 40
1.0
 40
1.0
 10
54.0880207788
 20
182.0253691782
 30
0.0
 10
54.258879734
 20
182.0711688579
 30
0.0
 10
54.5661384279
 20
182.1732883253
 30
0.0
 10
54.9079852906
 20
182.3552255205
 30
0.0
 10
55.1071630458
 20
182.5249105381
 30
0.0
 10
55.2383087607
 20
182.6833072749
 30
0.0
 10
55.2896480156
 20
182.8286876987
 30
0.0
 10
55.2896833596
 20
182.9196343766
 30
0.0
  0
SPLINE
  5
393
100
AcDbEntity
  8
0
100
AcDbSpline
 62
7
  6
CONTINUOUS
 70
0
 71
3
 72
12
 73
8
 74
0
 42
0.0000001
 43
0.0000001
 44
0.0000000001
 40
0.0
 40
0.0
 40
0.0
 40
0.0
 40
0.0978508246
 40
0.2106902249
 40
0.4687113837
 40
0.7435104759
 40
1.0
 40
1.0
 40
1.0
 40
1.0
 10
46.5479923021
 20
181.3135166899
 30
0.0
 10
46.6582631381
 20
181.2498263029
 30
0.0
 10
46.908957018
 20
181.1355332229
 30
0.0
 10
47.4926666841
 20
180.955080166
 30
0.0
 10
48.3290185524
 20
180.8321050136
 30
0.0
 10
49.3589260503
 20
180.8353761863
 30
0.0
 10
50.0466006162
 20
180.9420443458
 30
0.0
 10
50.3690123864
 20
181.0284685885
 30
0.0
  0
SPLINE
  5
394
100
AcDbEntity
  8
0
100
AcDbSpline
 62
7
  6
CONTINUOUS
 70
0
 71
3
 72
11
 73
7
 74
0
 42
0.0000001
 43
0.0000001
 44
0.0000000001
 40
0.0
 40
0.0
 40
0.0
 40
0.0
 40
0.2032665715
 40
0.4289015617
 40
0.692283341
 40
1.0
 40
1.0
 40
1.0
 40
1.0
 10
-16.9693879996
 20
208.9342588638
 30
0.0
 10
-16.9693533539
 20
208.7851151301
 30
0.0
 10
-16.9054681921
 20
208.4681925142
 30
0.0
 10
-16.6370009075
 20
208.0284131727
 30
0.0
 10
-16.2138791572
 20
207.6187908299
 30
0.0
 10
-15.8633267122
 20
207.3856829195
 30
0.0
 10
-15.667812998
 20
207.2727578292
 30
0.0
  0
SPLINE
  5
395
100
AcDbEntity
  8
0
100
AcDbSpline
 62
7
  6
CONTINUOUS
 70
0
 71
3
 72
13
 73
9
 74
0
 42
0.0000001
 43
0.0000001
 44
0.0000000001
 40
0.0
 40
0.0
 40
0.0
 40
0.0
 40
0.083672979
 40
0.1736474593
 40
0.2747441703
 40
0.3898444162
 40
0.6656232473
 40
1.0
 40
1.0
 40
1.0
 40
1.0
 10
-16.9693879996
 20
216.2889357713
 30
0.0
 10
-16.9694160462
 20
216.409671549
 30
0.0
 10
-16.928896498
 20
216.6616421307
 30
0.0
 10
-16.7536338255
 20
217.022103017
 30
0.0
 10
-16.4716814565
 20
217.3662856451
 30
0.0
 10
-15.9283098164
 20
217.8275352983
 30
0.0
 10
-14.9961418174
 20
218.3247632809
 30
0.0
 10
-14.1581178041
 20
218.6029172224
 30
0.0
 10
-13.692082223
 20
218.7278406151
 30
0.0
  0
SPLINE
  5
396
100
AcDbEntity
  8
0
100
AcDbSpline
 62
7
  6
CONTINUOUS
 70
0
 71
3
 72
11
 73
7
 74
0
 42
0.0000001
 43
0.0000001
 44
0.0000000001
 40
0.0
 40
0.0
 40
0.0
 40
0.0
 40
0.2105004058
 40
0.4394049442
 40
0.7003534942
 40
1.0
 40
1.0
 40
1.0
 40
1.0
 10
-3.7340921944
 20
212.9472148805
 30
0.0
 10
-3.7341195656
 20
212.8774890899
 30
0.0
 10
-3.7084338407
 20
212.7310491284
 30
0.0
 10
-3.5986079437
 20
212.5234769981
 30
0.0
 10
-3.4229756843
 20
212.3271874897
 30
0.0
 10
-3.2756513602
 20
212.2127401717
 30
0.0
 10
-3.193493399
 20
212.1570490143
 30
0.0
  0
SPLINE
  5
397
100
AcDbEntity
  8
0
100
AcDbSpline
 62
7
  6
CONTINUOUS
 70
0
 71
3
 72
12
 73
8
 74
0
 42
0.0000001
 43
0.0000001
 44
0.0000000001
 40
0.0
 40
0.0
 40
0.0
 40
0.0
 40
0.0978508246
 40
0.2106902249
 40
0.4687113837
 40
0.7435104759
 40
1.0
 40
1.0
 40
1.0
 40
1.0
 10
114.7298128298
 20
199.5900275014
 30
0.0
 10
114.6195419937
 20
199.6537178883
 30
0.0
 10
114.3688481138
 20
199.7680109683
 30
0.0
 10
113.7851384478
 20
199.9484640252
 30
0.0
 10
112.9487865794
 20
200.0714391776
 30
0.0
 10
111.9188790815
 20
200.0681680049
 30
0.0
 10
111.2312045156
 20
199.9614998454
 30
0.0
 10
110.9087927454
 20
199.8750756027
 30
0.0
  0
SPLINE
  5
398
100
AcDbEntity
  8
0
100
AcDbSpline
 62
7
  6
CONTINUOUS
 70
0
 71
3
 72
12
 73
8
 74
0
 42
0.0000001
 43
0.0000001
 44
0.0000000001
 40
0.0
 40
0.0
 40
0.0
 40
0.0
 40
0.3349279859
 40
0.6112472304
 40
0.7265199304
 40
0.8278001376
 40
1.0
 40
1.0
 40
1.0
 40
1.0
 10
107.189784353
 20
198.878175013
 30
0.0
 10
107.0189253978
 20
198.8323753333
 30
0.0
 10
106.7116667039
 20
198.7302558659
 30
0.0
 10
106.3698198412
 20
198.5483186707
 30
0.0
 10
106.1706420861
 20
198.3786336531
 30
0.0
 10
106.0394963712
 20
198.2202369163
 30
0.0
 10
105.9881571163
 20
198.0748564926
 30
0.0
 10
105.9881217723
 20
197.9839098146
 30
0.0
  0
SPLINE
  5
399
100
AcDbEntity
  8
0
100
AcDbSpline
 62
7
  6
CONTINUOUS
 70
0
 71
3
 72
17
 73
13
 74
0
 42
0.0000001
 43
0.0000001
 44
0.0000000001
 40
0.0
 40
0.0
 40
0.0
 40
0.0
 40
0.1179824722
 40
0.260576598
 40
0.4170373008
 40
0.5742978923
 40
0.719183279
 40
0.8405142201
 40
0.8902234175
 40
0.9324220067
 40
0.9681667655
 40
1.0
 40
1.0
 40
1.0
 40
1.0
 10
-8.0231846358
 20
216.6766192822
 30
0.0
 10
-8.2101639244
 20
216.7846150468
 30
0.0
 10
-8.6597550594
 20
216.9582180136
 30
0.0
 10
-9.409626187
 20
217.1099648786
 30
0.0
 10
-10.2451975229
 20
217.1666402551
 30
0.0
 10
-11.0855993837
 20
217.1219820795
 30
0.0
 10
-11.8495913115
 20
216.9806260142
 30
0.0
 10
-12.3987254792
 20
216.7838082676
 30
0.0
 10
-12.7325231247
 20
216.5787109423
 30
0.0
 10
-12.9072583476
 20
216.4209505917
 30
0.0
 10
-13.0188484431
 20
216.2502266839
 30
0.0
 10
-13.0458561659
 20
216.1256621286
 30
0.0
 10
-13.0458902227
 20
216.0674022535
 30
0.0
  0
SPLINE
  5
39A
100
AcDbEntity
  8
0
100
AcDbSpline
 62
7
  6
CONTINUOUS
 70
0
 71
3
 72
11
 73
7
 74
0
 42
0.0000001
 43
0.0000001
 44
0.0000000001
 40
0.0
 40
0.0
 40
0.0
 40
0.0
 40
0.2032237194
 40
0.4289289409
 40
0.6925283262
 40
1.0
 40
1.0
 40
1.0
 40
1.0
 10
-5.0123638233
 20
214.6040593194
 30
0.0
 10
-5.0123318628
 20
214.6587331268
 30
0.0
 10
-5.0358444919
 20
214.7749350555
 30
0.0
 10
-5.1342457442
 20
214.9362737361
 30
0.0
 10
-5.2895178152
 20
215.0863646016
 30
0.0
 10
-5.4179843266
 20
215.1719039666
 30
0.0
 10
-5.4896147084
 20
215.2132763448
 30
0.0
  0
SPLINE
  5
39B
100
AcDbEntity
  8
0
100
AcDbSpline
 62
7
  6
CONTINUOUS
 70
0
 71
3
 72
12
 73
8
 74
0
 42
0.0000001
 43
0.0000001
 44
0.0000000001
 40
0.0
 40
0.0
 40
0.0
 40
0.0
 40
0.0978508246
 40
0.2106902249
 40
0.4687113837
 40
0.7435104759
 40
1.0
 40
1.0
 40
1.0
 40
1.0
 10
54.8124553963
 20
183.5288513337
 30
0.0
 10
54.7021845603
 20
183.5925417207
 30
0.0
 10
54.4514906804
 20
183.7068348006
 30
0.0
 10
53.8677810144
 20
183.8872878575
 30
0.0
 10
53.031429146
 20
184.01026301
 30
0.0
 10
52.0015216481
 20
184.0069918372
 30
0.0
 10
51.3138470822
 20
183.9003236777
 30
0.0
 10
50.991435312
 20
183.813899435
 30
0.0
  0
SPLINE
  5
39C
100
AcDbEntity
  8
0
100
AcDbSpline
 62
7
  6
CONTINUOUS
 70
0
 71
3
 72
12
 73
8
 74
0
 42
0.0000001
 43
0.0000001
 44
0.0000000001
 40
0.0
 40
0.0
 40
0.0
 40
0.0
 40
0.3349279859
 40
0.6112472304
 40
0.7265199304
 40
0.8278001376
 40
1.0
 40
1.0
 40
1.0
 40
1.0
 10
47.2724269196
 20
182.8169988453
 30
0.0
 10
47.1015679644
 20
182.7711991656
 30
0.0
 10
46.7943092705
 20
182.6690796982
 30
0.0
 10
46.4524624078
 20
182.487142503
 30
0.0
 10
46.2532846526
 20
182.3174574854
 30
0.0
 10
46.1221389377
 20
182.1590607486
 30
0.0
 10
46.0707996828
 20
182.0136803249
 30
0.0
 10
46.0707643388
 20
181.9227336469
 30
0.0
  0
SPLINE
  5
39D
100
AcDbEntity
  8
0
100
AcDbSpline
 62
7
  6
CONTINUOUS
 70
0
 71
3
 72
11
 73
7
 74
0
 42
0.0000001
 43
0.0000001
 44
0.0000000001
 40
0.0
 40
0.0
 40
0.0
 40
0.0
 40
0.2032339246
 40
0.4288952144
 40
0.6924084714
 40
1.0
 40
1.0
 40
1.0
 40
1.0
 10
55.2896833596
 20
182.9196343766
 30
0.0
 10
55.2897046082
 20
182.9743109948
 30
0.0
 10
55.2662449145
 20
183.0905123527
 30
0.0
 10
55.1678314503
 20
183.2518116259
 30
0.0
 10
55.012615631
 20
183.4019504064
 30
0.0
 10
54.8841137788
 20
183.4874627828
 30
0.0
 10
54.8124553963
 20
183.5288513337
 30
0.0
  0
SPLINE
  5
39E
100
AcDbEntity
  8
0
100
AcDbSpline
 62
7
  6
CONTINUOUS
 70
0
 71
3
 72
11
 73
7
 74
0
 42
0.0000001
 43
0.0000001
 44
0.0000000001
 40
0.0
 40
0.0
 40
0.0
 40
0.0
 40
0.2032339246
 40
0.4288952144
 40
0.6924084714
 40
1.0
 40
1.0
 40
1.0
 40
1.0
 10
115.207040793
 20
198.9808105443
 30
0.0
 10
115.2070620416
 20
199.0354871625
 30
0.0
 10
115.183602348
 20
199.1516885204
 30
0.0
 10
115.0851888837
 20
199.3129877936
 30
0.0
 10
114.9299730644
 20
199.4631265741
 30
0.0
 10
114.8014712123
 20
199.5486389505
 30
0.0
 10
114.7298128298
 20
199.5900275014
 30
0.0
  0
SPLINE
  5
39F
100
AcDbEntity
  8
0
100
AcDbSpline
 62
7
  6
CONTINUOUS
 70
0
 71
3
 72
13
 73
9
 74
0
 42
0.0000001
 43
0.0000001
 44
0.0000000001
 40
0.0
 40
0.0
 40
0.0
 40
0.0
 40
0.083672979
 40
0.1736474593
 40
0.2747441703
 40
0.3898444162
 40
0.6656232473
 40
1.0
 40
1.0
 40
1.0
 40
1.0
 10
119.1305614917
 20
198.7592769582
 30
0.0
 10
119.1305895383
 20
198.6385411804
 30
0.0
 10
119.0900699901
 20
198.3865705988
 30
0.0
 10
118.9148073176
 20
198.0261097124
 30
0.0
 10
118.6328549486
 20
197.6819270843
 30
0.0
 10
118.0894833086
 20
197.2206774311
 30
0.0
 10
117.1573153096
 20
196.7234494485
 30
0.0
 10
116.3192912963
 20
196.445295507
 30
0.0
 10
115.8532557151
 20
196.3203721144
 30
0.0
  0
SPLINE
  5
3A0
100
AcDbEntity
  8
0
100
AcDbSpline
 62
7
  6
CONTINUOUS
 70
0
 71
3
 72
14
 73
10
 74
0
 42
0.0000001
 43
0.0000001
 44
0.0000000001
 40
0.0
 40
0.0
 40
0.0
 40
0.0
 40
0.1238827466
 40
0.2566014989
 40
0.5312745684
 40
0.6645767043
 40
0.7894268458
 40
0.902180233
 40
1.0
 40
1.0
 40
1.0
 40
1.0
 10
53.8697825081
 20
179.7053622857
 30
0.0
 10
53.4448699881
 20
179.5914621551
 30
0.0
 10
52.5515109399
 20
179.4032802858
 30
0.0
 10
50.6771706273
 20
179.1767077874
 30
0.0
 10
48.7477171332
 20
179.1703585772
 30
0.0
 10
46.8661810427
 20
179.3835555259
 30
0.0
 10
45.573038264
 20
179.6445284314
 30
0.0
 10
44.4332678571
 20
179.9973686073
 30
0.0
 10
43.7496133885
 20
180.309032739
 30
0.0
 10
43.4488186417
 20
180.4827661984
 30
0.0
  0
SPLINE
  5
3A1
100
AcDbEntity
  8
0
100
AcDbSpline
 62
7
  6
CONTINUOUS
 70
0
 71
3
 72
11
 73
7
 74
0
 42
0.0000001
 43
0.0000001
 44
0.0000000001
 40
0.0
 40
0.0
 40
0.0
 40
0.0
 40
0.307716659
 40
0.5710984383
 40
0.7967334285
 40
1.0
 40
1.0
 40
1.0
 40
1.0
 10
-15.667812998
 20
214.6274347366
 30
0.0
 10
-15.8633267122
 20
214.7403598269
 30
0.0
 10
-16.2138791572
 20
214.9734677373
 30
0.0
 10
-16.6370009075
 20
215.3830900801
 30
0.0
 10
-16.9054681921
 20
215.8228694216
 30
0.0
 10
-16.9693533539
 20
216.1397920375
 30
0.0
 10
-16.9693879996
 20
216.2889357713
 30
0.0
  0
SPLINE
  5
3A2
100
AcDbEntity
  8
0
100
AcDbSpline
 62
7
  6
CONTINUOUS
 70
0
 71
3
 72
11
 73
7
 74
0
 42
0.0000001
 43
0.0000001
 44
0.0000000001
 40
0.0
 40
0.0
 40
0.0
 40
0.0
 40
0.2979619994
 40
0.5592724026
 40
0.7894439377
 40
1.0
 40
1.0
 40
1.0
 40
1.0
 10
-3.1935709538
 20
221.3504477214
 30
0.0
 10
-3.2719452971
 20
221.4035741358
 30
0.0
 10
-3.4131812079
 20
221.5126668312
 30
0.0
 10
-3.5840716372
 20
221.6984593538
 30
0.0
 10
-3.6958040469
 20
221.8942090983
 30
0.0
 10
-3.7283936475
 20
222.0331030221
 30
0.0
 10
-3.732768091
 20
222.0998683076
 30
0.0
  0
ENDSEC
  0
SECTION
  2
OBJECTS
  0
DICTIONARY
  5
C
100
AcDbDictionary
280
0
281
1
  3
ACAD_GROUP
350
D
  3
ACAD_MLINESTYLE
350
17
  3
ACAD_LAYOUT
350
1A
  3
ACAD_PLOTSETTINGS
350
19
  3
ACAD_PLOTSTYLENAME
350
E
  0
DICTIONARY
  5
D
102
{ACAD_REACTORS
330
C
102
}
100
AcDbDictionary
280
0
281
1
  0
ACDBDICTIONARYWDFLT
  5
E
102
{ACAD_REACTORS
330
C
102
}
100
AcDbDictionary
281
1
  3
Normal
350
F
100
AcDbDictionaryWithDefault
340
F
  0
DICTIONARY
  5
17
102
{ACAD_REACTORS
330
C
102
}
100
AcDbDictionary
280
0
281
1
  3
Standard
350
18
  0
DICTIONARY
  5
19
102
{ACAD_REACTORS
330
C
102
}
100
AcDbDictionary
281
1
  0
DICTIONARY
  5
1A
102
{ACAD_REACTORS
330
C
102
}
100
AcDbDictionary
281
1
  3
Model
350
3A3
  3
Layout1
350
3A4
  0
ACDBPLACEHOLDER
  5
F
102
{ACAD_REACTORS
330
E
102
}
  0
MLINESTYLE
  5
18
102
{ACAD_REACTORS
330
17
102
}
100
AcDbMlineStyle
  2
STANDARD
 70
0
  3

 62
256
 51
90.0
 52
90.0
 71
2
 49
0.5
 62
256
  6
BYLAYER
 49
-0.5
 62
256
  6
BYLAYER
  0
LAYOUT
  5
3A3
102
{ACAD_REACTORS
330
1A
102
}
100
AcDbPlotSettings
  1

  2
none_device
  4
ANSI_C_(22.00_x_17.00_Inches)
  6

 40
0.0
 41
0.0
 42
0.0
 43
0.0
 44
558.8
 45
431.8
 46
0.0
 47
0.0
 48
0.0
 49
0.0
140
0.0
141
0.0
142
1.0
143
1.0
 70
1024
 72
1
 73
0
 74
0
  7

 75
0
147
1.0
148
0.0
149
0.0
100
AcDbLayout
  1
Model
 70
0
 71
0
 10
0.0
 20
0.0
 11
558.8
 21
431.8
 12
0.0
 22
0.0
 32
0.0
 14
0.0
 24
0.0
 34
0.0
 15
0.0
 25
0.0
 35
0.0
146
0.0
 13
0.0
 23
0.0
 33
0.0
 16
1.0
 26
0.0
 36
0.0
 17
0.0
 27
1.0
 37
0.0
 76
0
330
216
345
0
346
0
  0
LAYOUT
  5
3A4
102
{ACAD_REACTORS
330
1A
102
}
100
AcDbPlotSettings
  1

  2
none_device
  4
ANSI_C_(22.00_x_17.00_Inches)
  6

 40
0.0
 41
0.0
 42
0.0
 43
0.0
 44
558.8
 45
431.8
 46
0.0
 47
0.0
 48
0.0
 49
0.0
140
0.0
141
0.0
142
1.0
143
1.0
 70
0
 72
1
 73
0
 74
0
  7

 75
0
147
1.0
148
0.0
149
0.0
100
AcDbLayout
  1
Layout1
 70
0
 71
1
 10
0.0
 20
0.0
 11
558.8
 21
431.8
 12
0.0
 22
0.0
 32
0.0
 14
0.0
 24
0.0
 34
0.0
 15
0.0
 25
0.0
 35
0.0
146
0.0
 13
0.0
 23
0.0
 33
0.0
 16
1.0
 26
0.0
 36
0.0
 17
0.0
 27
1.0
 37
0.0
 76
0
330
217
345
0
346
0
  0
ENDSEC
  0
EOF
