999
DXF file: Y:\3D PRATIKA-KAEDRA_OLGA\TRAVAIL_PHASE_6\CAD3D\PKF16W723_3D-Simplified\PKF16W723_2D-isometric.dxf
999
Pro/ENGINEER 2018260 by Parametric Technology Corporation
  0
SECTION
  2
HEADER
  9
$ACADVER
  1
AC1027
  9
$DWGCODEPAGE
  3
ANSI_1252
  9
$EXTMAX
 10
558.8
 20
431.8
 30
0.0
  9
$EXTMIN
 10
0.0
 20
0.0
 30
0.0
  9
$LIMMIN
 10
0.0
 20
0.0
  9
$LIMMAX
 10
558.8
 20
431.8
  9
$VIEWCTR
 10
279.4
 20
215.9
  9
$VIEWSIZE
 40
431.8
  9
$CLAYER
  8
0
  9
$LTSCALE
 40
30.734
  9
$CELTYPE
  6
BYLAYER
  9
$DIMSCALE
 40
1.0
  9
$DIMASZ
 40
0.1875
  9
$DIMEXO
 40
0.0625
  9
$DIMDLI
 40
21.2344
  9
$DIMEXE
 40
0.125
  9
$DIMCEN
 40
5.0292
  9
$DIMLFAC
 40
1.0
  9
$DIMBLK
  1
_CLOSED
  9
$DIMALT
 70
0
  9
$DIMALTF
 40
0.0393700787
  9
$DIMTXT
 40
0.15625
  9
$DIMTOL
 70
0
  9
$DIMLIM
 70
0
  9
$DIMTFAC
 40
1.0
  9
$DIMGAP
 40
0.625
  9
$DIMDSEP
 70
46
  9
$AUNITS
 70
0
  9
$PDMODE
 70
3
  9
$PDSIZE
 40
0.3125
  9
$HANDSEED
  5
50D
  9
$TILEMODE
 70
1
  9
$MEASUREMENT
 70
1
  9
$INSUNITS
 70
4
  0
ENDSEC
  0
SECTION
  2
CLASSES
  0
CLASS
  1
ACDBDICTIONARYWDFLT
  2
AcDbDictionaryWithDefault
  3
AutoCAD 2000
 90
0
 91
1
280
0
281
0
  0
CLASS
  1
ACDBPLACEHOLDER
  2
AcDbPlaceHolder
  3
AutoCAD 2000
 90
0
 91
1
280
0
281
0
  0
CLASS
  1
LAYOUT
  2
AcDbLayout
  3
AutoCAD 2000
 90
0
 91
0
280
0
281
0
  0
ENDSEC
  0
SECTION
  2
TABLES
  0
TABLE
  2
VPORT
  5
8
100
AcDbSymbolTable
 70
2
  0
VPORT
  5
1F4
100
AcDbSymbolTableRecord
100
AcDbViewportTableRecord
  2
*ACTIVE
 70
0
 10
0.0
 20
0.0
 11
1.0
 21
1.0
 12
279.4
 22
215.9
 13
0.0
 23
0.0
 14
1.0
 24
1.0
 15
0.0
 25
0.0
 16
0.0
 26
0.0
 36
1.0
 17
0.0
 27
0.0
 37
0.0
 40
431.8
 41
1.2941176471
 42
50.0
 43
0.0
 44
0.0
 50
0.0
 51
0.0
 71
0
 72
100
 73
1
 74
1
 75
0
 76
0
 77
0
 78
0
  0
ENDTAB
  0
TABLE
  2
LTYPE
  5
5
100
AcDbSymbolTable
 70
6
  0
LTYPE
  5
14
100
AcDbSymbolTableRecord
100
AcDbLinetypeTableRecord
  2
BYBLOCK
 70
0
  3

 72
65
 73
0
 40
0.0
  0
LTYPE
  5
15
100
AcDbSymbolTableRecord
100
AcDbLinetypeTableRecord
  2
BYLAYER
 70
0
  3

 72
65
 73
0
 40
0.0
  0
LTYPE
  5
16
100
AcDbSymbolTableRecord
100
AcDbLinetypeTableRecord
  2
CONTINUOUS
 70
64
  3
Solid line
 72
65
 73
0
 40
0.0
  0
LTYPE
  5
1F5
100
AcDbSymbolTableRecord
100
AcDbLinetypeTableRecord
  2
CENTER
 70
64
  3
____ _ ____ _ ____ _ ____ _ ____ _ ____ _ ____
 72
65
 73
4
 40
0.6
 49
0.375
 74
0
 49
-0.075
 74
0
 49
0.075
 74
0
 49
-0.075
 74
0
  0
LTYPE
  5
1F6
100
AcDbSymbolTableRecord
100
AcDbLinetypeTableRecord
  2
HIDDEN
 70
64
  3
- - - - - - - - - - - - - - - - - - - -
 72
65
 73
2
 40
0.2
 49
0.1
 74
0
 49
-0.1
 74
0
  0
LTYPE
  5
1F7
100
AcDbSymbolTableRecord
100
AcDbLinetypeTableRecord
  2
PHANTOM
 70
64
  3
_____ _ _ _____ _ _ _____ _ _ _____
 72
65
 73
6
 40
0.8
 49
0.45
 74
0
 49
-0.05
 74
0
 49
0.1
 74
0
 49
-0.05
 74
0
 49
0.1
 74
0
 49
-0.05
 74
0
  0
LTYPE
  5
1F8
100
AcDbSymbolTableRecord
100
AcDbLinetypeTableRecord
  2
DOT
 70
64
  3
. . . . . . . . . . . . . . . . . . . .
 72
65
 73
2
 40
0.2
 49
0.1
 74
0
 49
-0.1
 74
0
  0
LTYPE
  5
1F9
100
AcDbSymbolTableRecord
100
AcDbLinetypeTableRecord
  2
DASHED
 70
64
  3
- - - - - - - - - - - - - - - - - - - -
 72
65
 73
2
 40
0.2
 49
0.1
 74
0
 49
-0.1
 74
0
  0
ENDTAB
  0
TABLE
  2
LAYER
  5
2
100
AcDbSymbolTable
 70
36
  0
LAYER
  5
10
100
AcDbSymbolTableRecord
100
AcDbLayerTableRecord
  2
0
 70
0
 62
7
  6
CONTINUOUS
370
-3
390
F
  0
LAYER
  5
1FA
100
AcDbSymbolTableRecord
100
AcDbLayerTableRecord
  2
DEFAULT_1
 70
0
 62
7
  6
CENTER
370
-3
390
F
  0
LAYER
  5
1FB
100
AcDbSymbolTableRecord
100
AcDbLayerTableRecord
  2
DEFAULT_2
 70
0
 62
8
  6
HIDDEN
370
-3
390
F
  0
LAYER
  5
1FC
100
AcDbSymbolTableRecord
100
AcDbLayerTableRecord
  2
DEFAULT_3
 70
0
 62
7
  6
PHANTOM
370
-3
390
F
  0
LAYER
  5
1FD
100
AcDbSymbolTableRecord
100
AcDbLayerTableRecord
  2
01_ALL_DTM_PLN
 70
0
 62
7
  6
CONTINUOUS
370
-3
390
F
  0
LAYER
  5
1FE
100
AcDbSymbolTableRecord
100
AcDbLayerTableRecord
  2
01__ASM_ALL_DTM_PLN
 70
0
 62
7
  6
CONTINUOUS
370
-3
390
F
  0
LAYER
  5
1FF
100
AcDbSymbolTableRecord
100
AcDbLayerTableRecord
  2
01__ASM_DEF_DTM_PLN
 70
0
 62
7
  6
CONTINUOUS
370
-3
390
F
  0
LAYER
  5
200
100
AcDbSymbolTableRecord
100
AcDbLayerTableRecord
  2
01___PRT_ALL_DTM_PLN
 70
0
 62
7
  6
CONTINUOUS
370
-3
390
F
  0
LAYER
  5
201
100
AcDbSymbolTableRecord
100
AcDbLayerTableRecord
  2
01___PRT_DEF_DTM_PLN
 70
0
 62
7
  6
CONTINUOUS
370
-3
390
F
  0
LAYER
  5
202
100
AcDbSymbolTableRecord
100
AcDbLayerTableRecord
  2
02_ALL_AXES
 70
0
 62
7
  6
CONTINUOUS
370
-3
390
F
  0
LAYER
  5
203
100
AcDbSymbolTableRecord
100
AcDbLayerTableRecord
  2
02__ASM_ALL_AXES
 70
0
 62
7
  6
CONTINUOUS
370
-3
390
F
  0
LAYER
  5
204
100
AcDbSymbolTableRecord
100
AcDbLayerTableRecord
  2
02___PRT_ALL_AXES
 70
0
 62
7
  6
CONTINUOUS
370
-3
390
F
  0
LAYER
  5
205
100
AcDbSymbolTableRecord
100
AcDbLayerTableRecord
  2
03_ALL_CURVES
 70
0
 62
7
  6
CONTINUOUS
370
-3
390
F
  0
LAYER
  5
206
100
AcDbSymbolTableRecord
100
AcDbLayerTableRecord
  2
03__ASM_ALL_CURVES
 70
0
 62
7
  6
CONTINUOUS
370
-3
390
F
  0
LAYER
  5
207
100
AcDbSymbolTableRecord
100
AcDbLayerTableRecord
  2
03___PRT_ALL_CURVES
 70
0
 62
7
  6
CONTINUOUS
370
-3
390
F
  0
LAYER
  5
208
100
AcDbSymbolTableRecord
100
AcDbLayerTableRecord
  2
04_ALL_DTM_PNT
 70
0
 62
7
  6
CONTINUOUS
370
-3
390
F
  0
LAYER
  5
209
100
AcDbSymbolTableRecord
100
AcDbLayerTableRecord
  2
04__ASM_ALL_DTM_PNT
 70
0
 62
7
  6
CONTINUOUS
370
-3
390
F
  0
LAYER
  5
20A
100
AcDbSymbolTableRecord
100
AcDbLayerTableRecord
  2
04___PRT_ALL_DTM_PNT
 70
0
 62
7
  6
CONTINUOUS
370
-3
390
F
  0
LAYER
  5
20B
100
AcDbSymbolTableRecord
100
AcDbLayerTableRecord
  2
05_ALL_DTM_CSYS
 70
0
 62
7
  6
CONTINUOUS
370
-3
390
F
  0
LAYER
  5
20C
100
AcDbSymbolTableRecord
100
AcDbLayerTableRecord
  2
05__ASM_ALL_DTM_CSYS
 70
0
 62
7
  6
CONTINUOUS
370
-3
390
F
  0
LAYER
  5
20D
100
AcDbSymbolTableRecord
100
AcDbLayerTableRecord
  2
05__ASM_DEF_DTM_CSYS
 70
0
 62
7
  6
CONTINUOUS
370
-3
390
F
  0
LAYER
  5
20E
100
AcDbSymbolTableRecord
100
AcDbLayerTableRecord
  2
05___PRT_ALL_DTM_CSYS
 70
0
 62
7
  6
CONTINUOUS
370
-3
390
F
  0
LAYER
  5
20F
100
AcDbSymbolTableRecord
100
AcDbLayerTableRecord
  2
05___PRT_DEF_DTM_CSYS
 70
0
 62
7
  6
CONTINUOUS
370
-3
390
F
  0
LAYER
  5
210
100
AcDbSymbolTableRecord
100
AcDbLayerTableRecord
  2
06_ALL_SURFS
 70
0
 62
7
  6
CONTINUOUS
370
-3
390
F
  0
LAYER
  5
211
100
AcDbSymbolTableRecord
100
AcDbLayerTableRecord
  2
06__ASM_ALL_SURFS
 70
0
 62
7
  6
CONTINUOUS
370
-3
390
F
  0
LAYER
  5
212
100
AcDbSymbolTableRecord
100
AcDbLayerTableRecord
  2
06___PRT_ALL_SURFS
 70
0
 62
7
  6
CONTINUOUS
370
-3
390
F
  0
LAYER
  5
213
100
AcDbSymbolTableRecord
100
AcDbLayerTableRecord
  2
07__ASM_ALL_SKELETONS
 70
0
 62
7
  6
CONTINUOUS
370
-3
390
F
  0
ENDTAB
  0
TABLE
  2
STYLE
  5
3
100
AcDbSymbolTable
 70
1
  0
STYLE
  5
11
100
AcDbSymbolTableRecord
100
AcDbTextStyleTableRecord
  2
STANDARD
 70
0
 40
0.0
 41
0.8
 50
0.0
 71
0
 42
0.2
  3
txt
  4

  0
STYLE
  5
214
100
AcDbSymbolTableRecord
100
AcDbTextStyleTableRecord
  2
TEXTSTYLE_1
 70
0
 40
0.0
 41
0.8
 50
0.0
 71
0
 42
0.2
  3
gdt
  4

  0
ENDTAB
  0
TABLE
  2
VIEW
  5
6
100
AcDbSymbolTable
 70
0
  0
ENDTAB
  0
TABLE
  2
UCS
  5
7
100
AcDbSymbolTable
 70
0
  0
ENDTAB
  0
TABLE
  2
APPID
  5
9
100
AcDbSymbolTable
 70
1
  0
APPID
  5
215
100
AcDbSymbolTableRecord
100
AcDbRegAppTableRecord
  2
ACAD
 70
0
  0
ENDTAB
  0
TABLE
  2
BLOCK_RECORD
  5
1
100
AcDbSymbolTable
 70
0
  0
BLOCK_RECORD
  5
216
100
AcDbSymbolTableRecord
100
AcDbBlockTableRecord
  2
*Model_Space
  0
BLOCK_RECORD
  5
217
100
AcDbSymbolTableRecord
100
AcDbBlockTableRecord
  2
*Paper_Space
  0
BLOCK_RECORD
  5
218
100
AcDbSymbolTableRecord
100
AcDbBlockTableRecord
  2
_CLOSED
  0
ENDTAB
  0
TABLE
  2
DIMSTYLE
  5
A
100
AcDbSymbolTable
 70
1
100
AcDbDimStyleTable
 71
0
  0
DIMSTYLE
105
219
100
AcDbSymbolTableRecord
100
AcDbDimStyleTableRecord
  2
STANDARD
 70
0
  3

  4

 40
1.0
 41
0.1875
 42
0.0625
 43
0.38
 44
0.125
 45
0.0
 46
0.0
 47
0.01
 48
0.01
140
0.15625
141
0.09
142
0.0
143
25.4
144
1.0
145
0.0
146
1.0
147
0.625
 71
0.0
 72
0.0
 73
1
 74
1
 75
0
 76
0
 77
0
 78
8
 79
2
170
0
171
1
172
0
173
0
174
0
175
0
176
0
177
0
178
0
270
2
179
2
271
2
272
2
273
2
274
2
275
0
280
0
281
0
282
0
283
1
284
8
285
0
286
0
287
3
288
0
340
11
278
46
341
218
342
218
343
218
344
218
  0
ENDTAB
  0
ENDSEC
  0
SECTION
  2
BLOCKS
  0
BLOCK
  5
20
100
AcDbEntity
  8
0
100
AcDbBlockBegin
  2
*Model_Space
 70
0
 10
0.0
 20
0.0
 30
0.0
  3
*Model_Space
  1

  0
ENDBLK
  5
21
100
AcDbEntity
  8
0
100
AcDbBlockEnd
  0
BLOCK
  5
1C
100
AcDbEntity
  8
0
100
AcDbBlockBegin
  2
*Paper_Space
 70
0
 10
0.0
 20
0.0
 30
0.0
  3
*Paper_Space
  1

  0
ENDBLK
  5
1D
100
AcDbEntity
  8
0
100
AcDbBlockEnd
  0
BLOCK
  5
21A
100
AcDbEntity
  8
0
100
AcDbBlockBegin
  2
_CLOSED
 70
64
 10
0.0
 20
0.0
  3
_CLOSED
  1

  0
LINE
  5
21B
100
AcDbEntity
  8
0
  6
BYBLOCK
 62
0
100
AcDbLine
 10
0.0
 20
0.0
 11
-1.0
 21
0.1666666667
  0
LINE
  5
21C
100
AcDbEntity
  8
0
  6
BYBLOCK
 62
0
100
AcDbLine
 10
-1.0
 20
0.1666666667
 11
-1.0
 21
-0.1666666667
  0
LINE
  5
21D
100
AcDbEntity
  8
0
  6
BYBLOCK
 62
0
100
AcDbLine
 10
-1.0
 20
-0.1666666667
 11
0.0
 21
0.0
  0
LINE
  5
21E
100
AcDbEntity
  8
0
  6
BYBLOCK
 62
0
100
AcDbLine
 10
-1.0
 20
0.0
 11
0.0
 21
0.0
  0
ENDBLK
  5
21F
100
AcDbEntity
  8
0
  6
BYBLOCK
 62
0
100
AcDbBlockEnd
  0
ENDSEC
  0
SECTION
  2
ENTITIES
  0
LINE
  5
220
100
AcDbEntity
  8
0
100
AcDbLine
 62
7
  6
CONTINUOUS
 10
29.8633018866
 20
183.5213809939
 11
87.7145435465
 21
199.0287235007
  0
LINE
  5
221
100
AcDbEntity
  8
0
100
AcDbLine
 62
7
  6
CONTINUOUS
 10
44.1162766852
 20
194.0236091383
 11
71.6226780439
 21
201.3968508312
  0
LINE
  5
222
100
AcDbEntity
  8
0
100
AcDbLine
 62
7
  6
CONTINUOUS
 10
39.0051488858
 20
193.0530397579
 11
43.137380435
 21
194.1607070804
  0
LINE
  5
223
100
AcDbEntity
  8
0
100
AcDbLine
 62
7
  6
CONTINUOUS
 10
36.9606648419
 20
192.9624118768
 11
29.8633018866
 21
191.0599248241
  0
LINE
  5
224
100
AcDbEntity
  8
0
100
AcDbLine
 62
7
  6
CONTINUOUS
 10
60.2265480117
 20
204.3785070845
 11
66.1803125868
 21
205.9744463214
  0
LINE
  5
225
100
AcDbEntity
  8
0
100
AcDbLine
 62
7
  6
CONTINUOUS
 10
32.9363739654
 20
202.6559720498
 11
38.3082749767
 21
204.0959395682
  0
LWPOLYLINE
  5
226
100
AcDbEntity
  8
0
100
AcDbPolyline
 62
7
  6
CONTINUOUS
 90
6
 70
0
 10
51.9128057602
 20
270.6256553675
 10
51.0859650792
 20
270.2967656005
 10
49.9863142301
 20
269.3779175185
 10
49.1622394124
 20
267.9133772364
 10
48.6572265545
 20
265.8780256692
 10
48.4792921429
 20
263.7784537923
  0
LINE
  5
227
100
AcDbEntity
  8
0
100
AcDbLine
 62
7
  6
CONTINUOUS
 10
46.6270046207
 20
270.7494579127
 11
46.9179259377
 21
270.8611192984
  0
LINE
  5
228
100
AcDbEntity
  8
0
100
AcDbLine
 62
7
  6
CONTINUOUS
 10
18.1624220199
 20
209.6651718605
 11
18.4103559127
 21
209.7316318998
  0
LINE
  5
229
100
AcDbEntity
  8
0
100
AcDbLine
 62
7
  6
CONTINUOUS
 10
13.4994094025
 20
212.3584413482
 11
13.7473432954
 21
212.4249013875
  0
LINE
  5
22A
100
AcDbEntity
  8
0
100
AcDbLine
 62
7
  6
CONTINUOUS
 10
8.8363967852
 20
215.0517108358
 11
9.084330678
 21
215.1181708752
  0
LINE
  5
22B
100
AcDbEntity
  8
0
100
AcDbLine
 62
7
  6
CONTINUOUS
 10
39.5199087374
 20
195.6600763072
 11
39.5013327081
 21
195.6595183612
  0
LINE
  5
22C
100
AcDbEntity
  8
0
100
AcDbLine
 62
7
  6
CONTINUOUS
 10
37.7555391731
 20
199.7299212757
 11
38.550063091
 21
199.721229236
  0
LINE
  5
22D
100
AcDbEntity
  8
0
100
AcDbLine
 62
7
  6
CONTINUOUS
 10
39.4229283605
 20
199.6365544073
 11
40.4711444545
 21
199.6232314964
  0
LINE
  5
22E
100
AcDbEntity
  8
0
100
AcDbLine
 62
7
  6
CONTINUOUS
 10
-7.2130629426
 20
240.2035136822
 11
13.6404961455
 21
250.0481910902
  0
LINE
  5
22F
100
AcDbEntity
  8
0
100
AcDbLine
 62
7
  6
CONTINUOUS
 10
2.3924006957
 20
238.5070052518
 11
1.1402682774
 21
237.9805887982
  0
LINE
  5
230
100
AcDbEntity
  8
0
100
AcDbLine
 62
7
  6
CONTINUOUS
 10
1.3882021702
 20
238.0470488375
 11
2.4058966429
 21
238.4749038369
  0
LINE
  5
231
100
AcDbEntity
  8
0
100
AcDbLine
 62
7
  6
CONTINUOUS
 10
6.403288697
 20
240.1644229396
 11
5.1491998752
 21
239.6510587453
  0
LINE
  5
232
100
AcDbEntity
  8
0
100
AcDbLine
 62
7
  6
CONTINUOUS
 10
5.397133768
 20
239.7175187846
 11
6.4155710903
 21
240.134418486
  0
LINE
  5
233
100
AcDbEntity
  8
0
100
AcDbLine
 62
7
  6
CONTINUOUS
 10
10.4207619645
 20
241.7779066429
 11
9.1645717422
 21
241.2785620634
  0
LINE
  5
234
100
AcDbEntity
  8
0
100
AcDbLine
 62
7
  6
CONTINUOUS
 10
9.412505635
 20
241.3450221027
 11
10.4317792703
 21
241.7501906479
  0
LINE
  5
235
100
AcDbEntity
  8
0
100
AcDbLine
 62
7
  6
CONTINUOUS
 10
14.4451016204
 20
243.3455808373
 11
13.1867525879
 21
242.8606388858
  0
LINE
  5
236
100
AcDbEntity
  8
0
100
AcDbLine
 62
7
  6
CONTINUOUS
 10
31.2360048642
 20
250.5441597496
 11
31.3891858508
 21
250.5999328907
  0
LINE
  5
237
100
AcDbEntity
  8
0
100
AcDbLine
 62
7
  6
CONTINUOUS
 10
31.4087196957
 20
250.6070451565
 11
32.4538000763
 21
250.9875585399
  0
LINE
  5
238
100
AcDbEntity
  8
0
100
AcDbLine
 62
7
  6
CONTINUOUS
 10
4.1733841678
 20
217.7449803235
 11
4.4213180607
 21
217.8114403628
  0
LINE
  5
239
100
AcDbEntity
  8
0
100
AcDbLine
 62
7
  6
CONTINUOUS
 10
-12.1717407992
 20
218.3957068553
 11
-7.2130629426
 21
219.7249076416
  0
LINE
  5
23A
100
AcDbEntity
  8
0
100
AcDbLine
 62
7
  6
CONTINUOUS
 10
93.4885184814
 20
250.5281596059
 11
88.0410324956
 21
249.0679311206
  0
LINE
  5
23B
100
AcDbEntity
  8
0
100
AcDbLine
 62
7
  6
CONTINUOUS
 10
92.2969564415
 20
250.6948456726
 11
87.5063844425
 21
249.4107071862
  0
LINE
  5
23C
100
AcDbEntity
  8
0
100
AcDbLine
 62
7
  6
CONTINUOUS
 10
39.8645349964
 20
199.7910186147
 11
40.2156898579
 21
199.7781461789
  0
LINE
  5
23D
100
AcDbEntity
  8
0
100
AcDbLine
 62
7
  6
CONTINUOUS
 10
38.8164582955
 20
199.9039990087
 11
39.7526049722
 21
199.8588960551
  0
LINE
  5
23E
100
AcDbEntity
  8
0
100
AcDbLine
 62
7
  6
CONTINUOUS
 10
38.472726942
 20
198.7250456266
 11
37.6859183221
 21
198.7651821303
  0
LINE
  5
23F
100
AcDbEntity
  8
0
100
AcDbLine
 62
7
  6
CONTINUOUS
 10
41.1805079508
 20
198.5869168788
 11
40.3938083055
 21
198.6270478869
  0
LINE
  5
240
100
AcDbEntity
  8
0
100
AcDbLine
 62
7
  6
CONTINUOUS
 10
40.4711444545
 20
199.6232314964
 11
41.257952963
 21
199.5830950082
  0
LINE
  5
241
100
AcDbEntity
  8
0
100
AcDbLine
 62
7
  6
CONTINUOUS
 10
37.7633641402
 20
199.761360147
 11
38.550063091
 21
199.721229236
  0
LINE
  5
242
100
AcDbEntity
  8
0
100
AcDbLine
 62
7
  6
CONTINUOUS
 10
39.7324448536
 20
200.0086590571
 11
40.0911039694
 21
199.9894851691
  0
LINE
  5
243
100
AcDbEntity
  8
0
100
AcDbLine
 62
7
  6
CONTINUOUS
 10
38.709258478
 20
200.0607835164
 11
38.9837474116
 21
200.045973375
  0
LINE
  5
244
100
AcDbEntity
  8
0
100
AcDbLine
 62
7
  6
CONTINUOUS
 10
76.9561942258
 20
202.8721941836
 11
74.5470646138
 21
203.0379262098
  0
LINE
  5
245
100
AcDbEntity
  8
0
100
AcDbLine
 62
7
  6
CONTINUOUS
 10
38.4789695348
 20
195.6820885925
 11
37.882852866
 21
195.7272126044
  0
LINE
  5
246
100
AcDbEntity
  8
0
100
AcDbLine
 62
7
  6
CONTINUOUS
 10
35.4161650704
 20
193.1787246273
 11
37.1564250708
 21
192.9349949523
  0
LINE
  5
247
100
AcDbEntity
  8
0
100
AcDbLine
 62
7
  6
CONTINUOUS
 10
44.1162766852
 20
194.0236091383
 11
43.137380435
 21
194.1607070804
  0
LINE
  5
248
100
AcDbEntity
  8
0
100
AcDbLine
 62
7
  6
CONTINUOUS
 10
30.9458134362
 20
198.1759310788
 11
32.6860734366
 21
197.9322014039
  0
LINE
  5
249
100
AcDbEntity
  8
0
100
AcDbLine
 62
7
  6
CONTINUOUS
 10
57.1170773113
 20
265.4112436198
 11
56.4439112084
 21
265.0070172912
  0
LINE
  5
24A
100
AcDbEntity
  8
0
100
AcDbLine
 62
7
  6
CONTINUOUS
 10
57.1176474651
 20
265.4115859886
 11
58.0803207071
 21
265.9233463181
  0
LINE
  5
24B
100
AcDbEntity
  8
0
100
AcDbLine
 62
7
  6
CONTINUOUS
 10
31.2500648072
 20
250.4019955255
 11
30.9726675878
 21
250.2742625514
  0
LINE
  5
24C
100
AcDbEntity
  8
0
100
AcDbLine
 62
7
  6
CONTINUOUS
 10
32.0715891619
 20
249.0771738523
 11
32.1931335689
 21
249.1331413513
  0
LINE
  5
24D
100
AcDbEntity
  8
0
100
AcDbLine
 62
7
  6
CONTINUOUS
 10
32.5390155829
 20
249.0523482283
 11
32.8164128023
 21
249.1800812024
  0
LINE
  5
24E
100
AcDbEntity
  8
0
100
AcDbLine
 62
7
  6
CONTINUOUS
 10
103.8966101548
 20
265.9767909296
 11
103.9225554453
 21
265.9874413564
  0
LINE
  5
24F
100
AcDbEntity
  8
0
100
AcDbLine
 62
7
  6
CONTINUOUS
 10
103.7233513174
 20
266.2420747411
 11
103.7501568756
 21
266.2517827032
  0
LINE
  5
250
100
AcDbEntity
  8
0
100
AcDbLine
 62
7
  6
CONTINUOUS
 10
26.8161699051
 20
243.4872681891
 11
32.1880709163
 21
244.9272357076
  0
LINE
  5
251
100
AcDbEntity
  8
0
100
AcDbLine
 62
7
  6
CONTINUOUS
 10
25.8372736549
 20
243.6243661313
 11
31.2091746662
 21
245.0643336498
  0
LINE
  5
252
100
AcDbEntity
  8
0
100
AcDbLine
 62
7
  6
CONTINUOUS
 10
1.1402682774
 20
237.9805887982
 11
1.3882021702
 21
238.0470488375
  0
LINE
  5
253
100
AcDbEntity
  8
0
100
AcDbLine
 62
7
  6
CONTINUOUS
 10
5.1491998752
 20
239.6510587453
 11
5.397133768
 21
239.7175187846
  0
LINE
  5
254
100
AcDbEntity
  8
0
100
AcDbLine
 62
7
  6
CONTINUOUS
 10
9.1645717422
 20
241.2785620634
 11
9.412505635
 21
241.3450221027
  0
LINE
  5
255
100
AcDbEntity
  8
0
100
AcDbLine
 62
7
  6
CONTINUOUS
 10
13.4346864807
 20
242.9270989251
 11
13.1867525879
 21
242.8606388858
  0
LINE
  5
256
100
AcDbEntity
  8
0
100
AcDbLine
 62
7
  6
CONTINUOUS
 10
81.1926777893
 20
198.5311652465
 11
78.8496448357
 21
198.8578438325
  0
LINE
  5
257
100
AcDbEntity
  8
0
100
AcDbLine
 62
7
  6
CONTINUOUS
 10
43.1691022452
 20
200.3427383025
 11
42.1902059948
 21
200.4798362459
  0
LINE
  5
258
100
AcDbEntity
  8
0
100
AcDbLine
 62
7
  6
CONTINUOUS
 10
32.9363739654
 20
202.6559720498
 11
31.9574777151
 21
202.7930699919
  0
LINE
  5
259
100
AcDbEntity
  8
0
100
AcDbLine
 62
7
  6
CONTINUOUS
 10
59.1655806267
 20
203.1415121483
 11
80.3749993819
 21
200.1710567348
  0
LINE
  5
25A
100
AcDbEntity
  8
0
100
AcDbLine
 62
7
  6
CONTINUOUS
 10
74.5470480948
 20
203.0378081036
 11
61.8558638382
 21
204.8152541248
  0
LINE
  5
25B
100
AcDbEntity
  8
0
100
AcDbLine
 62
7
  6
CONTINUOUS
 10
58.3568620193
 20
205.3053019198
 11
53.3376293395
 21
206.0082635171
  0
LINE
  5
25C
100
AcDbEntity
  8
0
100
AcDbLine
 62
7
  6
CONTINUOUS
 10
78.2626029018
 20
205.1149027571
 11
71.7860951949
 21
206.0219609655
  0
LINE
  5
25D
100
AcDbEntity
  8
0
100
AcDbLine
 62
7
  6
CONTINUOUS
 10
84.0463542484
 20
206.665269016
 11
66.5112900482
 21
209.1211178528
  0
LINE
  5
25E
100
AcDbEntity
  8
0
100
AcDbLine
 62
7
  6
CONTINUOUS
 10
59.0356712423
 20
204.5453824062
 11
60.2265480117
 21
204.3785070845
  0
LINE
  5
25F
100
AcDbEntity
  8
0
100
AcDbLine
 62
7
  6
CONTINUOUS
 10
39.4765052711
 20
202.8046170295
 11
38.8909279811
 21
202.9249935086
  0
LINE
  5
260
100
AcDbEntity
  8
0
100
AcDbLine
 62
7
  6
CONTINUOUS
 10
39.6058223837
 20
198.3776077219
 11
39.9601239848
 21
198.302303748
  0
LINE
  5
261
100
AcDbEntity
  8
0
100
AcDbLine
 62
7
  6
CONTINUOUS
 10
38.7249835899
 20
198.7257064019
 11
39.648984665
 21
198.5241405369
  0
LINE
  5
262
100
AcDbEntity
  8
0
100
AcDbLine
 62
7
  6
CONTINUOUS
 10
39.4765030751
 20
202.8046052022
 11
39.5541598363
 21
202.7873726977
  0
LINE
  5
263
100
AcDbEntity
  8
0
100
AcDbLine
 62
7
  6
CONTINUOUS
 10
40.0468134884
 20
202.6859739037
 11
40.0497570095
 21
202.6853008266
  0
LINE
  5
264
100
AcDbEntity
  8
0
100
AcDbLine
 62
7
  6
CONTINUOUS
 10
39.7705290721
 20
198.5801080359
 11
40.116411086
 21
198.4993149129
  0
LINE
  5
265
100
AcDbEntity
  8
0
100
AcDbLine
 62
7
  6
CONTINUOUS
 10
38.6128038333
 20
198.4177543389
 11
38.8527674271
 21
198.3587919539
  0
LINE
  5
266
100
AcDbEntity
  8
0
100
AcDbLine
 62
7
  6
CONTINUOUS
 10
39.365891051
 20
198.900353419
 11
40.3938083055
 21
198.6270478869
  0
LINE
  5
267
100
AcDbEntity
  8
0
100
AcDbLine
 62
7
  6
CONTINUOUS
 10
37.6710563799
 20
198.9463258176
 11
38.472726942
 21
198.7250456266
  0
LWPOLYLINE
  5
268
100
AcDbEntity
  8
0
100
AcDbPolyline
 62
7
  6
CONTINUOUS
 90
5
 70
0
 10
56.4460211921
 20
265.0082835691
 10
55.0835478862
 20
263.9985963261
 10
53.7384368262
 20
262.4496173748
 10
52.7240397558
 20
260.5382669482
 10
52.1185898712
 20
258.5886189966
  0
LINE
  5
269
100
AcDbEntity
  8
0
100
AcDbLine
 62
7
  6
CONTINUOUS
 10
66.5278047977
 20
266.1202561888
 11
66.6037318647
 21
266.1661910813
  0
LINE
  5
26A
100
AcDbEntity
  8
0
100
AcDbLine
 62
7
  6
CONTINUOUS
 10
38.7767638513
 20
258.3225681039
 11
34.6445323042
 21
257.214900782
  0
LINE
  5
26B
100
AcDbEntity
  8
0
100
AcDbLine
 62
7
  6
CONTINUOUS
 10
33.6656360539
 20
257.3519987241
 11
29.5334045035
 21
256.2443314014
  0
LINE
  5
26C
100
AcDbEntity
  8
0
100
AcDbLine
 62
7
  6
CONTINUOUS
 10
39.1162797708
 20
259.5232895659
 11
27.7931445032
 21
256.4880610763
  0
LINE
  5
26D
100
AcDbEntity
  8
0
100
AcDbLine
 62
7
  6
CONTINUOUS
 10
39.1936264408
 20
259.7968313982
 11
27.7567147203
 21
256.7311045066
  0
LINE
  5
26E
100
AcDbEntity
  8
0
100
AcDbLine
 62
7
  6
CONTINUOUS
 10
39.8462259169
 20
261.9942333321
 11
27.4652764317
 21
258.6754519418
  0
LINE
  5
26F
100
AcDbEntity
  8
0
100
AcDbLine
 62
7
  6
CONTINUOUS
 10
22.363250578
 20
257.3731010882
 11
12.9219074393
 21
254.842297296
  0
LINE
  5
270
100
AcDbEntity
  8
0
100
AcDbLine
 62
7
  6
CONTINUOUS
 10
40.2779147208
 20
262.9977197695
 11
25.2899514311
 21
258.9801140355
  0
LINE
  5
271
100
AcDbEntity
  8
0
100
AcDbLine
 62
7
  6
CONTINUOUS
 10
48.046558422
 20
267.488490933
 11
47.8370326324
 21
267.4323263963
  0
LINE
  5
272
100
AcDbEntity
  8
0
100
AcDbLine
 62
7
  6
CONTINUOUS
 10
52.9074793973
 20
270.892283754
 11
51.9132954134
 21
270.6257872863
  0
LINE
  5
273
100
AcDbEntity
  8
0
100
AcDbLine
 62
7
  6
CONTINUOUS
 10
57.2026936605
 20
269.7241784014
 11
57.3180005638
 21
269.7548602853
  0
LINE
  5
274
100
AcDbEntity
  8
0
100
AcDbLine
 62
7
  6
CONTINUOUS
 10
91.7765169511
 20
263.9500286481
 11
91.8101068264
 21
263.9560167645
  0
LINE
  5
275
100
AcDbEntity
  8
0
100
AcDbLine
 62
7
  6
CONTINUOUS
 10
64.166476438
 20
211.5599636591
 11
74.9741161738
 21
210.0463148255
  0
LINE
  5
276
100
AcDbEntity
  8
0
100
AcDbLine
 62
7
  6
CONTINUOUS
 10
29.8633018866
 20
183.5213809939
 11
-13.4888946492
 21
208.5608045886
  0
LINE
  5
277
100
AcDbEntity
  8
0
100
AcDbLine
 62
7
  6
CONTINUOUS
 10
-13.4888946492
 20
215.6621029363
 11
27.6035460154
 21
191.9278723653
  0
LINE
  5
278
100
AcDbEntity
  8
0
100
AcDbLine
 62
7
  6
CONTINUOUS
 10
27.030132662
 20
195.7534327899
 11
21.2810166897
 21
199.0740154046
  0
LINE
  5
279
100
AcDbEntity
  8
0
100
AcDbLine
 62
7
  6
CONTINUOUS
 10
56.7946781193
 20
284.2474512279
 11
56.8079638628
 21
284.2626677642
  0
LINE
  5
27A
100
AcDbEntity
  8
0
100
AcDbLine
 62
7
  6
CONTINUOUS
 10
56.7308850134
 20
284.2567249895
 11
56.745110227
 21
284.2718433116
  0
LINE
  5
27B
100
AcDbEntity
  8
0
100
AcDbLine
 62
7
  6
CONTINUOUS
 10
33.2639797203
 20
251.1575073515
 11
32.5137084662
 21
250.5425184845
  0
LINE
  5
27C
100
AcDbEntity
  8
0
100
AcDbLine
 62
7
  6
CONTINUOUS
 10
30.5251006698
 20
248.2968364023
 11
31.2753719239
 21
248.9118252693
  0
LINE
  5
27D
100
AcDbEntity
  8
0
100
AcDbLine
 62
7
  6
CONTINUOUS
 10
49.1217641195
 20
271.452033834
 11
46.9178849777
 21
270.8612719469
  0
LWPOLYLINE
  5
27E
100
AcDbEntity
  8
0
100
AcDbPolyline
 62
7
  6
CONTINUOUS
 90
4
 70
0
 10
50.2206296207
 20
275.9849230602
 10
50.0196639375
 20
275.9407333501
 10
49.6337399954
 20
275.609102094
 10
49.4510482136
 20
275.0265407476
  0
LINE
  5
27F
100
AcDbEntity
  8
0
100
AcDbLine
 62
7
  6
CONTINUOUS
 10
91.685164603
 20
264.2360228814
 11
91.7189558973
 21
264.2408920091
  0
LINE
  5
280
100
AcDbEntity
  8
0
100
AcDbLine
 62
7
  6
CONTINUOUS
 10
118.3759762619
 20
259.9294179759
 11
118.7807192153
 21
259.9625892356
  0
LINE
  5
281
100
AcDbEntity
  8
0
100
AcDbLine
 62
7
  6
CONTINUOUS
 10
22.6127207975
 20
257.5964877123
 11
17.3566053483
 21
257.3105822868
  0
LINE
  5
282
100
AcDbEntity
  8
0
100
AcDbLine
 62
7
  6
CONTINUOUS
 10
31.9425132342
 20
246.2131096226
 11
31.9239372049
 21
246.2125516766
  0
LINE
  5
283
100
AcDbEntity
  8
0
100
AcDbLine
 62
7
  6
CONTINUOUS
 10
30.1781436699
 20
250.2829545912
 11
30.9726675878
 21
250.2742625514
  0
LINE
  5
284
100
AcDbEntity
  8
0
100
AcDbLine
 62
7
  6
CONTINUOUS
 10
31.8455328573
 20
250.1895877227
 11
32.8937489513
 21
250.1762648118
  0
LINE
  5
285
100
AcDbEntity
  8
0
100
AcDbLine
 62
7
  6
CONTINUOUS
 10
32.2871394932
 20
250.3440519301
 11
32.6382943547
 21
250.3311794943
  0
LINE
  5
286
100
AcDbEntity
  8
0
100
AcDbLine
 62
7
  6
CONTINUOUS
 10
30.9015740316
 20
246.2351219079
 11
30.3054573629
 21
246.2802459198
  0
LINE
  5
287
100
AcDbEntity
  8
0
100
AcDbLine
 62
7
  6
CONTINUOUS
 10
51.4828909654
 20
236.5377959203
 11
37.731174448
 21
238.4637733007
  0
LINE
  5
288
100
AcDbEntity
  8
0
100
AcDbLine
 62
7
  6
CONTINUOUS
 10
-7.2130629426
 20
219.7249076416
 11
20.5929206656
 21
203.6646879141
  0
LINE
  5
289
100
AcDbEntity
  8
0
100
AcDbLine
 62
7
  6
CONTINUOUS
 10
19.6196134628
 20
208.8235251456
 11
18.1624220199
 21
209.6651718605
  0
LINE
  5
28A
100
AcDbEntity
  8
0
100
AcDbLine
 62
7
  6
CONTINUOUS
 10
14.9566008455
 20
211.5167946333
 11
13.4994094025
 21
212.3584413482
  0
LINE
  5
28B
100
AcDbEntity
  8
0
100
AcDbLine
 62
7
  6
CONTINUOUS
 10
10.2935882281
 20
214.210064121
 11
8.8363967852
 21
215.0517108358
  0
LINE
  5
28C
100
AcDbEntity
  8
0
100
AcDbLine
 62
7
  6
CONTINUOUS
 10
5.6305756108
 20
216.9033336086
 11
4.1733841678
 21
217.7449803235
  0
LINE
  5
28D
100
AcDbEntity
  8
0
100
AcDbLine
 62
7
  6
CONTINUOUS
 10
19.5852086616
 20
209.0530587711
 11
18.4103559127
 21
209.7316318998
  0
LINE
  5
28E
100
AcDbEntity
  8
0
100
AcDbLine
 62
7
  6
CONTINUOUS
 10
14.9221960442
 20
211.7463282588
 11
13.7473432954
 21
212.4249013875
  0
LINE
  5
28F
100
AcDbEntity
  8
0
100
AcDbLine
 62
7
  6
CONTINUOUS
 10
10.2591834269
 20
214.4395977464
 11
9.084330678
 21
215.1181708752
  0
LINE
  5
290
100
AcDbEntity
  8
0
100
AcDbLine
 62
7
  6
CONTINUOUS
 10
5.5961708095
 20
217.1328672341
 11
4.4213180607
 21
217.8114403628
  0
LINE
  5
291
100
AcDbEntity
  8
0
100
AcDbLine
 62
7
  6
CONTINUOUS
 10
38.472726942
 20
198.7250456266
 11
38.7281815385
 21
198.570130944
  0
LINE
  5
292
100
AcDbEntity
  8
0
100
AcDbLine
 62
7
  6
CONTINUOUS
 10
39.8645349964
 20
199.7910186147
 11
39.7526049722
 21
199.8588960551
  0
LINE
  5
293
100
AcDbEntity
  8
0
100
AcDbLine
 62
7
  6
CONTINUOUS
 10
40.4711444545
 20
199.6232314964
 11
40.2156898579
 21
199.7781461789
  0
LINE
  5
294
100
AcDbEntity
  8
0
100
AcDbLine
 62
7
  6
CONTINUOUS
 10
-14.3566631021
 20
216.7697702582
 11
-14.3566631021
 21
209.6684719105
  0
LINE
  5
295
100
AcDbEntity
  8
0
100
AcDbLine
 62
7
  6
CONTINUOUS
 10
-13.4888946492
 20
208.5608045886
 11
-13.4888946492
 21
215.6621029363
  0
LINE
  5
296
100
AcDbEntity
  8
0
100
AcDbLine
 62
7
  6
CONTINUOUS
 10
-7.2130629426
 20
219.7249076416
 11
-7.2130629426
 21
240.2035136822
  0
LINE
  5
297
100
AcDbEntity
  8
0
100
AcDbLine
 62
7
  6
CONTINUOUS
 10
31.1507860353
 20
249.1231642595
 11
30.5251006698
 21
248.2968364023
  0
LINE
  5
298
100
AcDbEntity
  8
0
100
AcDbLine
 62
7
  6
CONTINUOUS
 10
32.4403840586
 20
250.5464384015
 11
32.2871394932
 21
250.3440519301
  0
LINE
  5
299
100
AcDbEntity
  8
0
100
AcDbLine
 62
7
  6
CONTINUOUS
 10
32.6382943547
 20
250.3311794943
 11
33.2639797203
 21
251.1575073515
  0
LINE
  5
29A
100
AcDbEntity
  8
0
100
AcDbLine
 62
7
  6
CONTINUOUS
 10
38.8274603104
 20
199.8489622101
 11
38.550063091
 21
199.721229236
  0
LINE
  5
29B
100
AcDbEntity
  8
0
100
AcDbLine
 62
7
  6
CONTINUOUS
 10
39.648984665
 20
198.5241405369
 11
39.7705290721
 21
198.5801080359
  0
LINE
  5
29C
100
AcDbEntity
  8
0
100
AcDbLine
 62
7
  6
CONTINUOUS
 10
40.116411086
 20
198.4993149129
 11
40.3938083055
 21
198.6270478869
  0
LINE
  5
29D
100
AcDbEntity
  8
0
100
AcDbLine
 62
7
  6
CONTINUOUS
 10
38.8134003674
 20
199.9911264342
 11
38.966581354
 21
200.0468995753
  0
LINE
  5
29E
100
AcDbEntity
  8
0
100
AcDbLine
 62
7
  6
CONTINUOUS
 10
38.9861151989
 20
200.054011841
 11
40.0311955794
 21
200.4345252245
  0
LWPOLYLINE
  5
29F
100
AcDbEntity
  8
0
100
AcDbPolyline
 62
7
  6
CONTINUOUS
 90
4
 70
0
 10
52.8270228274
 20
281.0998525849
 10
52.4714820226
 20
281.0284891862
 10
51.9686204121
 20
280.4936316449
 10
51.7737608455
 20
279.8810559709
  0
LINE
  5
2A0
100
AcDbEntity
  8
0
100
AcDbLine
 62
7
  6
CONTINUOUS
 10
52.0921161451
 20
274.4581285569
 11
52.2283506009
 21
274.4694851753
  0
LINE
  5
2A1
100
AcDbEntity
  8
0
100
AcDbLine
 62
7
  6
CONTINUOUS
 10
78.6078434714
 20
263.90255164
 11
78.64396201
 21
263.9030828616
  0
LINE
  5
2A2
100
AcDbEntity
  8
0
100
AcDbLine
 62
7
  6
CONTINUOUS
 10
78.6123051769
 20
264.1953465753
 11
78.6482308591
 21
264.1947591358
  0
LINE
  5
2A3
100
AcDbEntity
  8
0
100
AcDbLine
 62
7
  6
CONTINUOUS
 10
31.2390627924
 20
250.4570323241
 11
32.175209469
 21
250.4119293706
  0
LINE
  5
2A4
100
AcDbEntity
  8
0
100
AcDbLine
 62
7
  6
CONTINUOUS
 10
30.8953314388
 20
249.278078942
 11
30.108522819
 21
249.3182154457
  0
LINE
  5
2A5
100
AcDbEntity
  8
0
100
AcDbLine
 62
7
  6
CONTINUOUS
 10
33.6031124476
 20
249.1399501942
 11
32.8164128023
 21
249.1800812024
  0
LINE
  5
2A6
100
AcDbEntity
  8
0
100
AcDbLine
 62
7
  6
CONTINUOUS
 10
30.1859686371
 20
250.3143934625
 11
30.9726675878
 21
250.2742625514
  0
LINE
  5
2A7
100
AcDbEntity
  8
0
100
AcDbLine
 62
7
  6
CONTINUOUS
 10
32.8937489513
 20
250.1762648118
 11
33.6805574598
 21
250.1361283236
  0
LINE
  5
2A8
100
AcDbEntity
  8
0
100
AcDbLine
 62
7
  6
CONTINUOUS
 10
32.1550493504
 20
250.5616923725
 11
32.5137084662
 21
250.5425184845
  0
LINE
  5
2A9
100
AcDbEntity
  8
0
100
AcDbLine
 62
7
  6
CONTINUOUS
 10
31.1318629748
 20
250.6138168319
 11
31.4063519084
 21
250.5990066904
  0
LINE
  5
2AA
100
AcDbEntity
  8
0
100
AcDbLine
 62
7
  6
CONTINUOUS
 10
26.8161699051
 20
243.4872681891
 11
25.8372736549
 21
243.6243661313
  0
LINE
  5
2AB
100
AcDbEntity
  8
0
100
AcDbLine
 62
7
  6
CONTINUOUS
 10
32.1880709164
 20
244.9272357076
 11
31.2091746662
 21
245.0643336498
  0
LINE
  5
2AC
100
AcDbEntity
  8
0
100
AcDbLine
 62
7
  6
CONTINUOUS
 10
21.3387319455
 20
247.9320873039
 11
19.163406945
 21
248.2367493976
  0
LINE
  5
2AD
100
AcDbEntity
  8
0
100
AcDbLine
 62
7
  6
CONTINUOUS
 10
25.1086779328
 20
248.4852347232
 11
23.3684179324
 21
248.7289643981
  0
LINE
  5
2AE
100
AcDbEntity
  8
0
100
AcDbLine
 62
7
  6
CONTINUOUS
 10
34.6128104918
 20
251.0328695597
 11
35.5917067421
 21
250.8957716175
  0
LINE
  5
2AF
100
AcDbEntity
  8
0
100
AcDbLine
 62
7
  6
CONTINUOUS
 10
68.9573553333
 20
246.2305795465
 11
79.8286128196
 21
244.7080208181
  0
LINE
  5
2B0
100
AcDbEntity
  8
0
100
AcDbLine
 62
7
  6
CONTINUOUS
 10
12.9219074393
 20
254.842297296
 11
19.8879584983
 21
253.8666767796
  0
LINE
  5
2B1
100
AcDbEntity
  8
0
100
AcDbLine
 62
7
  6
CONTINUOUS
 10
-7.2631528322
 20
231.0097134075
 11
-7.2130629426
 21
230.9807824176
  0
LINE
  5
2B2
100
AcDbEntity
  8
0
100
AcDbLine
 62
7
  6
CONTINUOUS
 10
-5.6068807095
 20
242.6918427545
 11
-7.2631528322
 21
243.6484747727
  0
LINE
  5
2B3
100
AcDbEntity
  8
0
100
AcDbLine
 62
7
  6
CONTINUOUS
 10
38.7083659768
 20
198.6381681164
 11
39.831861705
 21
197.8668626094
  0
LINE
  5
2B4
100
AcDbEntity
  8
0
100
AcDbLine
 62
7
  6
CONTINUOUS
 10
112.894160516
 20
269.908098941
 11
112.9093578299
 21
269.9209523779
  0
LINE
  5
2B5
100
AcDbEntity
  8
0
100
AcDbLine
 62
7
  6
CONTINUOUS
 10
51.2811300838
 20
276.0719583511
 11
50.2119875042
 21
275.9843443963
  0
LINE
  5
2B6
100
AcDbEntity
  8
0
100
AcDbLine
 62
7
  6
CONTINUOUS
 10
50.2203773708
 20
275.9849025741
 11
50.2119875042
 21
275.9843443963
  0
LINE
  5
2B7
100
AcDbEntity
  8
0
100
AcDbLine
 62
7
  6
CONTINUOUS
 10
111.1090515221
 20
255.2562871355
 11
111.515246612
 21
255.2259884067
  0
LINE
  5
2B8
100
AcDbEntity
  8
0
100
AcDbLine
 62
7
  6
CONTINUOUS
 10
92.2964033474
 20
250.6947047703
 11
93.4885184814
 21
250.5281596059
  0
LINE
  5
2B9
100
AcDbEntity
  8
0
100
AcDbLine
 62
7
  6
CONTINUOUS
 10
27.7931445031
 20
256.4880610763
 11
29.5334045035
 21
256.2443314014
  0
LINE
  5
2BA
100
AcDbEntity
  8
0
100
AcDbLine
 62
7
  6
CONTINUOUS
 10
39.2536216648
 20
255.1411835603
 11
53.1213185432
 21
253.198962713
  0
LINE
  5
2BB
100
AcDbEntity
  8
0
100
AcDbLine
 62
7
  6
CONTINUOUS
 10
34.6445323042
 20
257.214900782
 11
33.6656360539
 21
257.3519987241
  0
LINE
  5
2BC
100
AcDbEntity
  8
0
100
AcDbLine
 62
7
  6
CONTINUOUS
 10
25.2899514312
 20
258.9801140355
 11
27.4652764317
 21
258.6754519418
  0
LINE
  5
2BD
100
AcDbEntity
  8
0
100
AcDbLine
 62
7
  6
CONTINUOUS
 10
60.6257759062
 20
254.4657663675
 11
60.1339246437
 21
254.5346519067
  0
LINE
  5
2BE
100
AcDbEntity
  8
0
100
AcDbLine
 62
7
  6
CONTINUOUS
 10
62.7309911446
 20
251.0507257036
 11
60.4516032939
 21
251.3705874744
  0
LINE
  5
2BF
100
AcDbEntity
  8
0
100
AcDbLine
 62
7
  6
CONTINUOUS
 10
31.8991097679
 20
253.3576503449
 11
31.3135324779
 21
253.478026824
  0
LINE
  5
2C0
100
AcDbEntity
  8
0
100
AcDbLine
 62
7
  6
CONTINUOUS
 10
32.0284268805
 20
248.9306410373
 11
32.3827284817
 21
248.8553370634
  0
LINE
  5
2C1
100
AcDbEntity
  8
0
100
AcDbLine
 62
7
  6
CONTINUOUS
 10
31.1475880867
 20
249.2787397173
 11
32.0715891619
 21
249.0771738523
  0
LINE
  5
2C2
100
AcDbEntity
  8
0
100
AcDbLine
 62
7
  6
CONTINUOUS
 10
31.8991075719
 20
253.3576385176
 11
31.9767643331
 21
253.3404060131
  0
LINE
  5
2C3
100
AcDbEntity
  8
0
100
AcDbLine
 62
7
  6
CONTINUOUS
 10
32.4694179852
 20
253.2390072191
 11
32.4723615063
 21
253.238334142
  0
LINE
  5
2C4
100
AcDbEntity
  8
0
100
AcDbLine
 62
7
  6
CONTINUOUS
 10
32.1931335689
 20
249.1331413513
 11
32.5390155829
 21
249.0523482283
  0
LINE
  5
2C5
100
AcDbEntity
  8
0
100
AcDbLine
 62
7
  6
CONTINUOUS
 10
31.0354083301
 20
248.9707876543
 11
31.2753719239
 21
248.9118252693
  0
LINE
  5
2C6
100
AcDbEntity
  8
0
100
AcDbLine
 62
7
  6
CONTINUOUS
 10
31.7884955478
 20
249.4533867344
 11
32.8164128023
 21
249.1800812024
  0
LINE
  5
2C7
100
AcDbEntity
  8
0
100
AcDbLine
 62
7
  6
CONTINUOUS
 10
30.0936608767
 20
249.499359133
 11
30.8953314388
 21
249.278078942
  0
LINE
  5
2C8
100
AcDbEntity
  8
0
100
AcDbLine
 62
7
  6
CONTINUOUS
 10
-5.9845911765
 20
246.4546361577
 11
-3.7723071805
 21
245.1768620075
  0
LINE
  5
2C9
100
AcDbEntity
  8
0
100
AcDbLine
 62
7
  6
CONTINUOUS
 10
39.9601239848
 20
198.302303748
 11
40.6093667765
 21
197.6159232077
  0
LINE
  5
2CA
100
AcDbEntity
  8
0
100
AcDbLine
 62
7
  6
CONTINUOUS
 10
38.9837474116
 20
200.045973375
 11
38.3345046199
 21
200.7323539153
  0
LINE
  5
2CB
100
AcDbEntity
  8
0
100
AcDbLine
 62
7
  6
CONTINUOUS
 10
1.1402682774
 20
237.9805887982
 11
4.1733841678
 21
217.7449803235
  0
LINE
  5
2CC
100
AcDbEntity
  8
0
100
AcDbLine
 62
7
  6
CONTINUOUS
 10
4.4213180607
 20
217.8114403628
 11
1.3882021702
 21
238.0470488375
  0
LINE
  5
2CD
100
AcDbEntity
  8
0
100
AcDbLine
 62
7
  6
CONTINUOUS
 10
5.6305756108
 20
216.9033336086
 11
2.3924006957
 21
238.5070052518
  0
LINE
  5
2CE
100
AcDbEntity
  8
0
100
AcDbLine
 62
7
  6
CONTINUOUS
 10
5.1491998752
 20
239.6510587453
 11
8.8363967852
 21
215.0517108358
  0
LINE
  5
2CF
100
AcDbEntity
  8
0
100
AcDbLine
 62
7
  6
CONTINUOUS
 10
9.084330678
 20
215.1181708752
 11
5.397133768
 21
239.7175187846
  0
LINE
  5
2D0
100
AcDbEntity
  8
0
100
AcDbLine
 62
7
  6
CONTINUOUS
 10
31.5346141883
 20
251.034447829
 11
31.4063519084
 21
250.5990066904
  0
LINE
  5
2D1
100
AcDbEntity
  8
0
100
AcDbLine
 62
7
  6
CONTINUOUS
 10
32.0284268805
 20
248.9306410373
 11
32.0715891619
 21
249.0771738523
  0
LINE
  5
2D2
100
AcDbEntity
  8
0
100
AcDbLine
 62
7
  6
CONTINUOUS
 10
32.2544662018
 20
248.4198959248
 11
32.3827284817
 21
248.8553370634
  0
LINE
  5
2D3
100
AcDbEntity
  8
0
100
AcDbLine
 62
7
  6
CONTINUOUS
 10
52.1066149042
 20
279.793812452
 11
52.1012351886
 21
279.7802619943
  0
LINE
  5
2D4
100
AcDbEntity
  8
0
100
AcDbLine
 62
7
  6
CONTINUOUS
 10
113.1229487564
 20
269.6742822979
 11
113.1372940113
 21
269.6880902096
  0
LINE
  5
2D5
100
AcDbEntity
  8
0
100
AcDbLine
 62
7
  6
CONTINUOUS
 10
40.8413752235
 20
200.6044740361
 11
40.0911039694
 21
199.9894851691
  0
LINE
  5
2D6
100
AcDbEntity
  8
0
100
AcDbLine
 62
7
  6
CONTINUOUS
 10
38.102496173
 20
197.7438030869
 11
38.8527674271
 21
198.3587919539
  0
LINE
  5
2D7
100
AcDbEntity
  8
0
100
AcDbLine
 62
7
  6
CONTINUOUS
 10
117.802980881
 20
274.6902332893
 11
117.6660701423
 21
274.7002561514
  0
LINE
  5
2D8
100
AcDbEntity
  8
0
100
AcDbLine
 62
7
  6
CONTINUOUS
 10
66.395400907
 20
265.8415877957
 11
66.4285371497
 21
265.8366997832
  0
LINE
  5
2D9
100
AcDbEntity
  8
0
100
AcDbLine
 62
7
  6
CONTINUOUS
 10
66.494997417
 20
266.1262384164
 11
66.527577232
 21
266.1202904362
  0
LINE
  5
2DA
100
AcDbEntity
  8
0
100
AcDbLine
 62
7
  6
CONTINUOUS
 10
99.8503433652
 20
252.0331088694
 11
100.1961510725
 21
251.9439528592
  0
LINE
  5
2DB
100
AcDbEntity
  8
0
100
AcDbLine
 62
7
  6
CONTINUOUS
 10
6.398513462
 20
253.9424702813
 11
3.8549801536
 21
255.4115678825
  0
LINE
  5
2DC
100
AcDbEntity
  8
0
100
AcDbLine
 62
7
  6
CONTINUOUS
 10
6.4121034649
 20
256.097018806
 11
8.3904028352
 21
254.9543898301
  0
LINE
  5
2DD
100
AcDbEntity
  8
0
100
AcDbLine
 62
7
  6
CONTINUOUS
 10
30.8953314388
 20
249.278078942
 11
31.1507860353
 21
249.1231642595
  0
LINE
  5
2DE
100
AcDbEntity
  8
0
100
AcDbLine
 62
7
  6
CONTINUOUS
 10
32.2871394932
 20
250.3440519301
 11
32.175209469
 21
250.4119293706
  0
LINE
  5
2DF
100
AcDbEntity
  8
0
100
AcDbLine
 62
7
  6
CONTINUOUS
 10
32.8937489513
 20
250.1762648118
 11
32.6382943547
 21
250.3311794943
  0
LINE
  5
2E0
100
AcDbEntity
  8
0
100
AcDbLine
 62
7
  6
CONTINUOUS
 10
38.7194399967
 20
198.4084022704
 11
38.7347974363
 21
198.3877788177
  0
LINE
  5
2E1
100
AcDbEntity
  8
0
100
AcDbLine
 62
7
  6
CONTINUOUS
 10
38.7194399967
 20
198.4084022704
 11
38.73469473
 21
198.3875384299
  0
LINE
  5
2E2
100
AcDbEntity
  8
0
100
AcDbLine
 62
7
  6
CONTINUOUS
 10
38.3345046199
 20
200.7323539153
 11
38.8274603104
 21
199.8489622101
  0
LINE
  5
2E3
100
AcDbEntity
  8
0
100
AcDbLine
 62
7
  6
CONTINUOUS
 10
39.7705290721
 20
198.5801080359
 11
39.9208988807
 21
198.3106407304
  0
LINE
  5
2E4
100
AcDbEntity
  8
0
100
AcDbLine
 62
7
  6
CONTINUOUS
 10
40.6093667765
 20
197.6159232077
 11
40.116411086
 21
198.4993149129
  0
LINE
  5
2E5
100
AcDbEntity
  8
0
100
AcDbLine
 62
7
  6
CONTINUOUS
 10
10.2935882281
 20
214.210064121
 11
6.403288697
 21
240.1644229396
  0
LINE
  5
2E6
100
AcDbEntity
  8
0
100
AcDbLine
 62
7
  6
CONTINUOUS
 10
9.1645717422
 20
241.2785620634
 11
13.4994094025
 21
212.3584413482
  0
LINE
  5
2E7
100
AcDbEntity
  8
0
100
AcDbLine
 62
7
  6
CONTINUOUS
 10
13.7473432954
 20
212.4249013875
 11
9.412505635
 21
241.3450221027
  0
LINE
  5
2E8
100
AcDbEntity
  8
0
100
AcDbLine
 62
7
  6
CONTINUOUS
 10
14.9566008455
 20
211.5167946333
 11
10.4207619645
 21
241.7779066429
  0
LINE
  5
2E9
100
AcDbEntity
  8
0
100
AcDbLine
 62
7
  6
CONTINUOUS
 10
13.1867525879
 20
242.8606388858
 11
18.1624220199
 21
209.6651718605
  0
LINE
  5
2EA
100
AcDbEntity
  8
0
100
AcDbLine
 62
7
  6
CONTINUOUS
 10
18.4103559127
 20
209.7316318998
 11
13.4346864807
 21
242.9270989251
  0
LINE
  5
2EB
100
AcDbEntity
  8
0
100
AcDbLine
 62
7
  6
CONTINUOUS
 10
19.6196134628
 20
208.8235251456
 11
14.4451016204
 21
243.3455808373
  0
LINE
  5
2EC
100
AcDbEntity
  8
0
100
AcDbLine
 62
7
  6
CONTINUOUS
 10
12.9219074393
 20
254.842297296
 11
21.2810166897
 21
199.0740154046
  0
LINE
  5
2ED
100
AcDbEntity
  8
0
100
AcDbLine
 62
7
  6
CONTINUOUS
 10
29.8633018866
 20
191.0599248241
 11
29.8633018866
 21
183.5213809939
  0
LINE
  5
2EE
100
AcDbEntity
  8
0
100
AcDbLine
 62
7
  6
CONTINUOUS
 10
31.6841944259
 20
252.961223121
 11
31.5346141883
 21
251.034447829
  0
LINE
  5
2EF
100
AcDbEntity
  8
0
100
AcDbLine
 62
7
  6
CONTINUOUS
 10
31.3352803138
 20
248.4667852138
 11
31.1857000762
 21
246.5400099218
  0
LINE
  5
2F0
100
AcDbEntity
  8
0
100
AcDbLine
 62
7
  6
CONTINUOUS
 10
31.9767643331
 20
253.3404060131
 11
31.8116953865
 21
251.2141173218
  0
LINE
  5
2F1
100
AcDbEntity
  8
0
100
AcDbLine
 62
7
  6
CONTINUOUS
 10
31.5913758912
 20
248.3761343992
 11
31.4263069446
 21
246.2498457078
  0
LINE
  5
2F2
100
AcDbEntity
  8
0
100
AcDbLine
 62
7
  6
CONTINUOUS
 10
32.1048859642
 20
246.4931206328
 11
32.2544662018
 21
248.4198959248
  0
LINE
  5
2F3
100
AcDbEntity
  8
0
100
AcDbLine
 62
7
  6
CONTINUOUS
 10
32.4538000763
 20
250.9875585399
 11
32.6033803139
 21
252.914333832
  0
LINE
  5
2F4
100
AcDbEntity
  8
0
100
AcDbLine
 62
7
  6
CONTINUOUS
 10
52.1657161073
 20
279.7670610735
 11
52.1611329433
 21
279.7531776431
  0
LINE
  5
2F5
100
AcDbEntity
  8
0
100
AcDbLine
 62
7
  6
CONTINUOUS
 10
61.088089332
 20
255.4379752951
 11
60.6007481386
 21
254.2889077953
  0
LINE
  5
2F6
100
AcDbEntity
  8
0
100
AcDbLine
 62
7
  6
CONTINUOUS
 10
61.1878102219
 20
255.6449649806
 11
61.0870640279
 21
255.435845086
  0
LINE
  5
2F7
100
AcDbEntity
  8
0
100
AcDbLine
 62
7
  6
CONTINUOUS
 10
38.7281815385
 20
198.570130944
 11
38.102496173
 21
197.7438030869
  0
LINE
  5
2F8
100
AcDbEntity
  8
0
100
AcDbLine
 62
7
  6
CONTINUOUS
 10
40.0177795618
 20
199.9934050861
 11
39.8645349964
 21
199.7910186147
  0
LINE
  5
2F9
100
AcDbEntity
  8
0
100
AcDbLine
 62
7
  6
CONTINUOUS
 10
40.2156898579
 20
199.7781461789
 11
40.8413752235
 21
200.6044740361
  0
LINE
  5
2FA
100
AcDbEntity
  8
0
100
AcDbLine
 62
7
  6
CONTINUOUS
 10
31.1309704737
 20
249.1912014318
 11
32.2544662018
 21
248.4198959248
  0
LINE
  5
2FB
100
AcDbEntity
  8
0
100
AcDbLine
 62
7
  6
CONTINUOUS
 10
32.3827284817
 20
248.8553370634
 11
33.0319712733
 21
248.1689565231
  0
LINE
  5
2FC
100
AcDbEntity
  8
0
100
AcDbLine
 62
7
  6
CONTINUOUS
 10
31.4063519084
 20
250.5990066904
 11
30.7571091167
 21
251.2853872307
  0
LINE
  5
2FD
100
AcDbEntity
  8
0
100
AcDbLine
 62
7
  6
CONTINUOUS
 10
31.1420444935
 20
248.9614355858
 11
31.1574019331
 21
248.9408121331
  0
LINE
  5
2FE
100
AcDbEntity
  8
0
100
AcDbLine
 62
7
  6
CONTINUOUS
 10
27.6035460154
 20
191.9278723653
 11
19.163406945
 21
248.2367493976
  0
LINE
  5
2FF
100
AcDbEntity
  8
0
100
AcDbLine
 62
7
  6
CONTINUOUS
 10
21.3387319455
 20
247.9320873039
 11
29.8633018866
 21
191.0599248241
  0
LINE
  5
300
100
AcDbEntity
  8
0
100
AcDbLine
 62
7
  6
CONTINUOUS
 10
23.1618063556
 20
248.6735810282
 11
30.7392018588
 21
198.1205477128
  0
LINE
  5
301
100
AcDbEntity
  8
0
100
AcDbLine
 62
7
  6
CONTINUOUS
 10
23.3684179324
 20
248.7289643981
 11
30.9458134362
 21
198.1759310788
  0
LINE
  5
302
100
AcDbEntity
  8
0
100
AcDbLine
 62
7
  6
CONTINUOUS
 10
25.1086779328
 20
248.4852347232
 11
25.8372736549
 21
243.6243661313
  0
LINE
  5
303
100
AcDbEntity
  8
0
100
AcDbLine
 62
7
  6
CONTINUOUS
 10
31.9574777151
 20
202.7930699919
 11
32.6860734366
 21
197.9322014039
  0
LINE
  5
304
100
AcDbEntity
  8
0
100
AcDbLine
 62
7
  6
CONTINUOUS
 10
26.8161699051
 20
243.4872681891
 11
32.9363739654
 21
202.6559720498
  0
LINE
  5
305
100
AcDbEntity
  8
0
100
AcDbLine
 62
7
  6
CONTINUOUS
 10
48.4792899811
 20
263.7784464794
 11
48.4808782536
 21
263.8167756308
  0
LINE
  5
306
100
AcDbEntity
  8
0
100
AcDbLine
 62
7
  6
CONTINUOUS
 10
39.2615899291
 20
202.4081898056
 11
39.1120096915
 21
200.4814145136
  0
LINE
  5
307
100
AcDbEntity
  8
0
100
AcDbLine
 62
7
  6
CONTINUOUS
 10
38.912675817
 20
197.9137518984
 11
38.7630955794
 21
195.9869766064
  0
LINE
  5
308
100
AcDbEntity
  8
0
100
AcDbLine
 62
7
  6
CONTINUOUS
 10
39.5541598363
 20
202.7873726977
 11
39.3890908897
 21
200.6610840063
  0
LINE
  5
309
100
AcDbEntity
  8
0
100
AcDbLine
 62
7
  6
CONTINUOUS
 10
39.1687713944
 20
197.8231010838
 11
39.0037024478
 21
195.6968123924
  0
LINE
  5
30A
100
AcDbEntity
  8
0
100
AcDbLine
 62
7
  6
CONTINUOUS
 10
39.6822814673
 20
195.9400873174
 11
39.831861705
 21
197.8668626094
  0
LINE
  5
30B
100
AcDbEntity
  8
0
100
AcDbLine
 62
7
  6
CONTINUOUS
 10
40.0311955794
 20
200.4345252245
 11
40.1807758171
 21
202.3613005165
  0
LINE
  5
30C
100
AcDbEntity
  8
0
100
AcDbLine
 62
7
  6
CONTINUOUS
 10
51.7737746565
 20
279.8811177813
 11
51.7729462269
 21
279.8730200425
  0
LINE
  5
30D
100
AcDbEntity
  8
0
100
AcDbLine
 62
7
  6
CONTINUOUS
 10
51.9763405137
 20
279.6153477745
 11
51.9747719531
 21
279.6012416023
  0
LINE
  5
30E
100
AcDbEntity
  8
0
100
AcDbLine
 62
7
  6
CONTINUOUS
 10
49.4508418825
 20
275.0247713168
 11
49.4510764762
 21
275.026661819
  0
LINE
  5
30F
100
AcDbEntity
  8
0
100
AcDbLine
 62
7
  6
CONTINUOUS
 10
51.7763343133
 20
279.8956028373
 11
51.7737746565
 21
279.8811177813
  0
LINE
  5
310
100
AcDbEntity
  8
0
100
AcDbLine
 62
7
  6
CONTINUOUS
 10
39.1120096915
 20
200.4814145136
 11
38.9837474116
 21
200.045973375
  0
LINE
  5
311
100
AcDbEntity
  8
0
100
AcDbLine
 62
7
  6
CONTINUOUS
 10
39.6058223837
 20
198.3776077219
 11
39.648984665
 21
198.5241405369
  0
LINE
  5
312
100
AcDbEntity
  8
0
100
AcDbLine
 62
7
  6
CONTINUOUS
 10
39.831861705
 20
197.8668626094
 11
39.9601239848
 21
198.302303748
  0
LINE
  5
313
100
AcDbEntity
  8
0
100
AcDbLine
 62
7
  6
CONTINUOUS
 10
78.6484758729
 20
264.1947617773
 11
78.6739452963
 21
264.2486324011
  0
LINE
  5
314
100
AcDbEntity
  8
0
100
AcDbLine
 62
7
  6
CONTINUOUS
 10
112.9094454053
 20
269.9210424661
 11
112.7927043862
 21
269.9509166251
  0
LINE
  5
315
100
AcDbEntity
  8
0
100
AcDbLine
 62
7
  6
CONTINUOUS
 10
56.9984228733
 20
269.471936595
 11
57.0235533499
 21
269.4624890295
  0
LINE
  5
316
100
AcDbEntity
  8
0
100
AcDbLine
 62
7
  6
CONTINUOUS
 10
57.177991518
 20
269.7347376292
 11
57.2028707209
 21
269.7241124748
  0
LINE
  5
317
100
AcDbEntity
  8
0
100
AcDbLine
 62
7
  6
CONTINUOUS
 10
86.5466622845
 20
250.6161427536
 11
86.3138880503
 21
250.7505828511
  0
LINE
  5
318
100
AcDbEntity
  8
0
100
AcDbLine
 62
7
  6
CONTINUOUS
 10
31.1420444935
 20
248.9614355858
 11
31.1572992268
 21
248.9405717453
  0
LINE
  5
319
100
AcDbEntity
  8
0
100
AcDbLine
 62
7
  6
CONTINUOUS
 10
30.7571091167
 20
251.2853872307
 11
31.2500648072
 21
250.4019955255
  0
LINE
  5
31A
100
AcDbEntity
  8
0
100
AcDbLine
 62
7
  6
CONTINUOUS
 10
32.1931335689
 20
249.1331413513
 11
32.3435033776
 21
248.8636740458
  0
LINE
  5
31B
100
AcDbEntity
  8
0
100
AcDbLine
 62
7
  6
CONTINUOUS
 10
33.0319712733
 20
248.1689565231
 11
32.5390155829
 21
249.0523482283
  0
LINE
  5
31C
100
AcDbEntity
  8
0
100
AcDbLine
 62
7
  6
CONTINUOUS
 10
43.137380435
 20
194.1607070804
 11
42.3457494617
 21
199.442118993
  0
LINE
  5
31D
100
AcDbEntity
  8
0
100
AcDbLine
 62
7
  6
CONTINUOUS
 10
34.6128104918
 20
251.0328695597
 11
33.6656360539
 21
257.3519987241
  0
LINE
  5
31E
100
AcDbEntity
  8
0
100
AcDbLine
 62
7
  6
CONTINUOUS
 10
34.6445323042
 20
257.214900782
 11
35.5917067421
 21
250.8957716175
  0
LINE
  5
31F
100
AcDbEntity
  8
0
100
AcDbLine
 62
7
  6
CONTINUOUS
 10
44.1162766852
 20
194.0236091383
 11
43.1691022453
 21
200.3427383021
  0
LINE
  5
320
100
AcDbEntity
  8
0
100
AcDbLine
 62
7
  6
CONTINUOUS
 10
38.7767638513
 20
258.3225681039
 11
39.2536216648
 21
255.1411835603
  0
LINE
  5
321
100
AcDbEntity
  8
0
100
AcDbLine
 62
7
  6
CONTINUOUS
 10
31.2753719239
 20
248.9118252693
 11
31.3352803138
 21
248.4667852138
  0
LINE
  5
322
100
AcDbEntity
  8
0
100
AcDbLine
 62
7
  6
CONTINUOUS
 10
38.8527674271
 20
198.3587919539
 11
38.912675817
 21
197.9137518984
  0
LINE
  5
323
100
AcDbEntity
  8
0
100
AcDbLine
 62
7
  6
CONTINUOUS
 10
32.175209469
 20
250.4119293706
 11
32.1550493504
 21
250.5616923725
  0
LINE
  5
324
100
AcDbEntity
  8
0
100
AcDbLine
 62
7
  6
CONTINUOUS
 10
32.5137084662
 20
250.5425184845
 11
32.4538000763
 21
250.9875585399
  0
LINE
  5
325
100
AcDbEntity
  8
0
100
AcDbLine
 62
7
  6
CONTINUOUS
 10
39.7526049722
 20
199.8588960551
 11
39.7324448536
 21
200.0086590571
  0
LINE
  5
326
100
AcDbEntity
  8
0
100
AcDbLine
 62
7
  6
CONTINUOUS
 10
40.0911039694
 20
199.9894851691
 11
40.0311955794
 21
200.4345252245
  0
LINE
  5
327
100
AcDbEntity
  8
0
100
AcDbLine
 62
7
  6
CONTINUOUS
 10
48.4773359086
 20
263.8147360777
 11
48.4792913777
 21
263.7784534108
  0
LINE
  5
328
100
AcDbEntity
  8
0
100
AcDbLine
 62
7
  6
CONTINUOUS
 10
58.7888800769
 20
279.1812533339
 11
58.7888800769
 21
280.6735868366
  0
LINE
  5
329
100
AcDbEntity
  8
0
100
AcDbLine
 62
7
  6
CONTINUOUS
 10
51.7268538103
 20
279.4224756213
 11
51.726300453
 21
279.4089965652
  0
LINE
  5
32A
100
AcDbEntity
  8
0
100
AcDbLine
 62
7
  6
CONTINUOUS
 10
52.3594997586
 20
258.2814808927
 11
53.1213185432
 21
253.198962713
  0
LINE
  5
32B
100
AcDbEntity
  8
0
100
AcDbLine
 62
7
  6
CONTINUOUS
 10
56.220518563
 20
254.029537346
 11
55.8943634609
 21
256.2055000152
  0
LINE
  5
32C
100
AcDbEntity
  8
0
100
AcDbLine
 62
7
  6
CONTINUOUS
 10
58.861143968
 20
279.9099021876
 11
58.8592416986
 21
279.9300053666
  0
LINE
  5
32D
100
AcDbEntity
  8
0
100
AcDbLine
 62
7
  6
CONTINUOUS
 10
103.7501602693
 20
266.2517839286
 11
103.6717675636
 21
266.2970557279
  0
LINE
  5
32E
100
AcDbEntity
  8
0
100
AcDbLine
 62
7
  6
CONTINUOUS
 10
51.8475141059
 20
274.2409101907
 11
51.8608450615
 21
274.2284277415
  0
LINE
  5
32F
100
AcDbEntity
  8
0
100
AcDbLine
 62
7
  6
CONTINUOUS
 10
52.0797171863
 20
274.4714829337
 11
52.092016191
 21
274.4582166106
  0
LINE
  5
330
100
AcDbEntity
  8
0
100
AcDbLine
 62
7
  6
CONTINUOUS
 10
58.861143968
 20
279.9099021876
 11
58.8573943956
 21
279.9299525978
  0
LINE
  5
331
100
AcDbEntity
  8
0
100
AcDbLine
 62
7
  6
CONTINUOUS
 10
72.5604881873
 20
251.6039620405
 11
72.6447911833
 21
251.4447051419
  0
LINE
  5
332
100
AcDbEntity
  8
0
100
AcDbLine
 62
7
  6
CONTINUOUS
 10
80.9471741804
 20
200.1690568033
 11
81.1926777893
 21
198.5311652465
  0
LINE
  5
333
100
AcDbEntity
  8
0
100
AcDbLine
 62
7
  6
CONTINUOUS
 10
78.8496448357
 20
198.8578438325
 11
78.65428542
 21
200.4120489167
  0
LINE
  5
334
100
AcDbEntity
  8
0
100
AcDbLine
 62
7
  6
CONTINUOUS
 10
87.7145435465
 20
199.0287235007
 11
87.7145435465
 21
201.4349878035
  0
LINE
  5
335
100
AcDbEntity
  8
0
100
AcDbLine
 62
7
  6
CONTINUOUS
 10
91.7191796765
 20
264.2409313399
 11
91.6903174659
 21
264.2945364183
  0
LINE
  5
336
100
AcDbEntity
  8
0
100
AcDbLine
 62
7
  6
CONTINUOUS
 10
111.1388800769
 20
279.9195465691
 11
111.1388657124
 21
279.9303520591
  0
LINE
  5
337
100
AcDbEntity
  8
0
100
AcDbLine
 62
7
  6
CONTINUOUS
 10
110.9888800769
 20
279.1537270954
 11
110.9888800769
 21
280.6735868366
  0
LINE
  5
338
100
AcDbEntity
  8
0
100
AcDbLine
 62
7
  6
CONTINUOUS
 10
117.8014196398
 20
274.6759765465
 11
117.8029875456
 21
274.6901374475
  0
LINE
  5
339
100
AcDbEntity
  8
0
100
AcDbLine
 62
7
  6
CONTINUOUS
 10
112.7038539219
 20
284.6028064569
 11
112.7296302785
 21
284.5799339706
  0
LINE
  5
33A
100
AcDbEntity
  8
0
100
AcDbLine
 62
7
  6
CONTINUOUS
 10
112.7058018575
 20
284.6031173248
 11
112.7296302785
 21
284.5799339706
  0
LWPOLYLINE
  5
33B
100
AcDbEntity
  8
0
100
AcDbPolyline
 62
7
  6
CONTINUOUS
 90
3
 70
0
 10
121.301318134
 20
265.7561442377
 10
121.1513181338
 20
268.5184968699
 10
120.7378864251
 20
271.8358178279
  0
LINE
  5
33C
100
AcDbEntity
  8
0
100
AcDbLine
 62
7
  6
CONTINUOUS
 10
118.0509063443
 20
274.4795932385
 11
118.051459479
 21
274.4945659483
  0
LWPOLYLINE
  5
33D
100
AcDbEntity
  8
0
100
AcDbPolyline
 62
7
  6
CONTINUOUS
 90
3
 70
0
 10
117.8664169409
 20
279.7770866281
 10
117.6424947045
 20
280.0009153132
 10
117.4696213452
 20
280.1614695715
  0
LINE
  5
33E
100
AcDbEntity
  8
0
100
AcDbLine
 62
7
  6
CONTINUOUS
 10
117.8768580999
 20
279.7656242977
 11
117.8636406362
 21
279.7793126651
  0
LINE
  5
33F
100
AcDbEntity
  8
0
100
AcDbLine
 62
7
  6
CONTINUOUS
 10
117.8799181558
 20
279.7623719915
 11
117.8768580999
 21
279.7656242977
  0
LINE
  5
340
100
AcDbEntity
  8
0
100
AcDbLine
 62
7
  6
CONTINUOUS
 10
117.6980429675
 20
279.8198413734
 11
117.6857439598
 21
279.8331672044
  0
LINE
  5
341
100
AcDbEntity
  8
0
100
AcDbLine
 62
7
  6
CONTINUOUS
 10
117.7818573832
 20
279.7265271085
 11
117.7943170785
 21
279.7122351404
  0
LINE
  5
342
100
AcDbEntity
  8
0
100
AcDbLine
 62
7
  6
CONTINUOUS
 10
117.7635078606
 20
280.1267537293
 11
116.6554238496
 21
281.5413898661
  0
LINE
  5
343
100
AcDbEntity
  8
0
100
AcDbLine
 62
7
  6
CONTINUOUS
 10
117.7738590566
 20
279.7120095685
 11
117.7852486986
 21
279.6958102938
  0
LINE
  5
344
100
AcDbEntity
  8
0
100
AcDbLine
 62
7
  6
CONTINUOUS
 10
118.1415469635
 20
279.4201864956
 11
117.7635078606
 21
280.1267537293
  0
LINE
  5
345
100
AcDbEntity
  8
0
100
AcDbLine
 62
7
  6
CONTINUOUS
 10
117.7033037826
 20
279.7121007619
 11
117.6968508872
 21
279.7287253522
  0
LINE
  5
346
100
AcDbEntity
  8
0
100
AcDbLine
 62
7
  6
CONTINUOUS
 10
117.631643031
 20
279.6793443176
 11
117.6259527194
 21
279.6962768837
  0
LWPOLYLINE
  5
347
100
AcDbEntity
  8
0
100
AcDbPolyline
 62
7
  6
CONTINUOUS
 90
3
 70
0
 10
120.7378864251
 20
271.8358178279
 10
120.034160519
 20
274.9596208348
 10
119.9467031394
 20
275.2039801594
  0
LINE
  5
348
100
AcDbEntity
  8
0
100
AcDbLine
 62
7
  6
CONTINUOUS
 10
118.1610750228
 20
278.1039333898
 11
118.2537206301
 21
277.595850439
  0
LWPOLYLINE
  5
349
100
AcDbEntity
  8
0
100
AcDbPolyline
 62
7
  6
CONTINUOUS
 90
5
 70
0
 10
120.0856622394
 20
274.4188144448
 10
119.9228173364
 20
275.3389429904
 10
119.4052693158
 20
277.1929830808
 10
118.6872423204
 20
278.7047987543
 10
117.8801572795
 20
279.7628593319
  0
LINE
  5
34A
100
AcDbEntity
  8
0
100
AcDbLine
 62
7
  6
CONTINUOUS
 10
120.0864073506
 20
274.4136777102
 11
120.0856346164
 21
274.4188217247
  0
LINE
  5
34B
100
AcDbEntity
  8
0
100
AcDbLine
 62
7
  6
CONTINUOUS
 10
118.4711735221
 20
272.3579346656
 11
118.4597854747
 21
272.4420193192
  0
ARC
  5
34C
100
AcDbEntity
  8
0
100
AcDbCircle
 62
7
  6
CONTINUOUS
 10
-76.1445922357
 20
21.5098968847
 40
248.6900194545
100
AcDbArc
 50
69.9928016549
 51
70.6118369936
  0
ARC
  5
34D
100
AcDbEntity
  8
0
100
AcDbCircle
 62
7
  6
CONTINUOUS
 10
-286.2956391041
 20
251.0169505665
 40
380.1712681129
100
AcDbArc
 50
1.5351583413
 51
2.004256974
  0
ARC
  5
34E
100
AcDbEntity
  8
0
100
AcDbCircle
 62
7
  6
CONTINUOUS
 10
-30.3540550575
 20
253.3594261481
 40
136.305657079
100
AcDbArc
 50
4.272175608
 51
5.5728450908
  0
ARC
  5
34F
100
AcDbEntity
  8
0
100
AcDbCircle
 62
7
  6
CONTINUOUS
 10
23.2357140346
 20
247.3362139552
 40
39.6695665659
100
AcDbArc
 50
355.7984846187
 51
5.3728361303
  0
ARC
  5
350
100
AcDbEntity
  8
0
100
AcDbCircle
 62
7
  6
CONTINUOUS
 10
17.4450927115
 20
248.232504916
 40
39.2063673439
100
AcDbArc
 50
358.2918455729
 51
8.5026397185
  0
ARC
  5
351
100
AcDbEntity
  8
0
100
AcDbCircle
 62
7
  6
CONTINUOUS
 10
12.9159663355
 20
236.1486861605
 40
21.5277420927
100
AcDbArc
 50
151.3975896211
 51
159.6118704669
  0
ARC
  5
352
100
AcDbEntity
  8
0
100
AcDbCircle
 62
7
  6
CONTINUOUS
 10
3.5384288671
 20
236.0117923605
 40
11.903569257
100
AcDbArc
 50
204.8482713379
 51
205.4025089085
  0
ARC
  5
353
100
AcDbEntity
  8
0
100
AcDbCircle
 62
7
  6
CONTINUOUS
 10
-0.2182092443
 20
238.5108071917
 40
9.6792144699
100
AcDbArc
 50
208.1940955739
 51
211.0725716647
  0
ARC
  5
354
100
AcDbEntity
  8
0
100
AcDbCircle
 62
7
  6
CONTINUOUS
 10
60.9229786637
 20
199.6001701775
 40
22.2354995464
100
AcDbArc
 50
182.7090677884
 51
183.0723846014
  0
ARC
  5
355
100
AcDbEntity
  8
0
100
AcDbCircle
 62
7
  6
CONTINUOUS
 10
41.0582822795
 20
179.2471593339
 40
19.7259277556
100
AcDbArc
 50
94.9217573473
 51
95.6639242283
  0
ARC
  5
356
100
AcDbEntity
  8
0
100
AcDbCircle
 62
7
  6
CONTINUOUS
 10
54.6684953268
 20
199.3055881768
 40
15.9740783272
100
AcDbArc
 50
182.3945974566
 51
182.6012802124
  0
ARC
  5
357
100
AcDbEntity
  8
0
100
AcDbCircle
 62
7
  6
CONTINUOUS
 10
54.2402570087
 20
196.886205253
 40
15.736213055
100
AcDbArc
 50
168.3848767344
 51
168.6202656821
  0
ARC
  5
358
100
AcDbEntity
  8
0
100
AcDbCircle
 62
7
  6
CONTINUOUS
 10
77.0209949366
 20
220.7222048958
 40
15.6566110761
100
AcDbArc
 50
262.0375854173
 51
274.548472955
  0
ARC
  5
359
100
AcDbEntity
  8
0
100
AcDbCircle
 62
7
  6
CONTINUOUS
 10
45.6291761502
 20
197.3696998848
 40
7.036094697
100
AcDbArc
 50
168.8883511129
 51
169.6139203622
  0
ARC
  5
35A
100
AcDbEntity
  8
0
100
AcDbCircle
 62
7
  6
CONTINUOUS
 10
45.6290848045
 20
200.1867401217
 40
6.8184909665
100
AcDbArc
 50
181.6439673753
 51
182.3765550835
  0
ARC
  5
35B
100
AcDbEntity
  8
0
100
AcDbCircle
 62
7
  6
CONTINUOUS
 10
35.2152399417
 20
197.8567154412
 40
4.8571457567
100
AcDbArc
 50
272.6642000028
 51
279.3890238679
  0
ARC
  5
35C
100
AcDbEntity
  8
0
100
AcDbCircle
 62
7
  6
CONTINUOUS
 10
35.2210162729
 20
197.7679380258
 40
4.7681960856
100
AcDbArc
 50
271.8651907141
 51
272.6444512126
  0
ARC
  5
35D
100
AcDbEntity
  8
0
100
AcDbCircle
 62
7
  6
CONTINUOUS
 10
35.2216509777
 20
197.7458199256
 40
4.7460690466
100
AcDbArc
 50
266.8082199293
 51
271.8662232638
  0
ARC
  5
35E
100
AcDbEntity
  8
0
100
AcDbCircle
 62
7
  6
CONTINUOUS
 10
36.0354419863
 20
197.6008654556
 40
4.7152875899
100
AcDbArc
 50
262.0280968255
 51
262.2873921212
  0
ARC
  5
35F
100
AcDbEntity
  8
0
100
AcDbCircle
 62
7
  6
CONTINUOUS
 10
82.219958916
 20
205.6321615271
 40
3.9910178224
100
AcDbArc
 50
187.446809443
 51
188.5240316453
  0
ARC
  5
360
100
AcDbEntity
  8
0
100
AcDbCircle
 62
7
  6
CONTINUOUS
 10
80.111218755
 20
205.9997647514
 40
3.9910178227
100
AcDbArc
 50
7.4468094431
 51
8.5240316452
  0
ARC
  5
361
100
AcDbEntity
  8
0
100
AcDbCircle
 62
7
  6
CONTINUOUS
 10
80.136478012
 20
206.0035514472
 40
3.965476305
100
AcDbArc
 50
8.5240196037
 51
9.6058624052
  0
ARC
  5
362
100
AcDbEntity
  8
0
100
AcDbCircle
 62
7
  6
CONTINUOUS
 10
38.2453508081
 20
200.7909166712
 40
3.5698282368
100
AcDbArc
 50
66.3909523126
 51
73.9721750733
  0
ARC
  5
363
100
AcDbEntity
  8
0
100
AcDbCircle
 62
7
  6
CONTINUOUS
 10
38.1126137789
 20
198.3668342795
 40
2.6538240633
100
AcDbArc
 50
243.5630417395
 51
244.19727667
  0
ARC
  5
364
100
AcDbEntity
  8
0
100
AcDbCircle
 62
7
  6
CONTINUOUS
 10
38.0983251561
 20
198.3364226738
 40
2.6202251152
100
AcDbArc
 50
244.1891125413
 51
251.5153458013
  0
ARC
  5
365
100
AcDbEntity
  8
0
100
AcDbCircle
 62
7
  6
CONTINUOUS
 10
38.0810509327
 20
198.2880415199
 40
2.5688634207
100
AcDbArc
 50
251.5386254479
 51
254.3754420311
  0
ARC
  5
366
100
AcDbEntity
  8
0
100
AcDbCircle
 62
7
  6
CONTINUOUS
 10
38.7110335345
 20
199.2806546337
 40
2.5651584616
100
AcDbArc
 50
344.3089076868
 51
355.5693788406
  0
ARC
  5
367
100
AcDbEntity
  8
0
100
AcDbCircle
 62
7
  6
CONTINUOUS
 10
40.2328378613
 20
199.0676224894
 40
2.565158461
100
AcDbArc
 50
164.3089076855
 51
175.5693788419
  0
ARC
  5
368
100
AcDbEntity
  8
0
100
AcDbCircle
 62
7
  6
CONTINUOUS
 10
38.6700014585
 20
198.2315903224
 40
2.5566492729
100
AcDbArc
 50
265.71488475
 51
277.4998032296
  0
ARC
  5
369
100
AcDbEntity
  8
0
100
AcDbCircle
 62
7
  6
CONTINUOUS
 10
38.0768960065
 20
198.2732295774
 40
2.5534797635
100
AcDbArc
 50
254.3757124306
 51
259.9753764066
  0
ARC
  5
36A
100
AcDbEntity
  8
0
100
AcDbCircle
 62
7
  6
CONTINUOUS
 10
38.0748248733
 20
198.2633988893
 40
2.5434386563
100
AcDbArc
 50
259.9827713485
 51
265.6713557145
  0
ARC
  5
36B
100
AcDbEntity
  8
0
100
AcDbCircle
 62
7
  6
CONTINUOUS
 10
40.2037823556
 20
199.0688588478
 40
2.5360944755
100
AcDbArc
 50
175.5465172137
 51
186.8772030517
  0
ARC
  5
36C
100
AcDbEntity
  8
0
100
AcDbCircle
 62
7
  6
CONTINUOUS
 10
38.7400890408
 20
199.2794182751
 40
2.5360944754
100
AcDbArc
 50
355.5465172137
 51
6.8772030518
  0
ARC
  5
36D
100
AcDbEntity
  8
0
100
AcDbCircle
 62
7
  6
CONTINUOUS
 10
38.9678145396
 20
200.3236332094
 40
2.5325954507
100
AcDbArc
 50
78.4128996418
 51
97.5518137882
  0
ARC
  5
36E
100
AcDbEntity
  8
0
100
AcDbCircle
 62
7
  6
CONTINUOUS
 10
38.6691691696
 20
198.1932088884
 40
2.5183137674
100
AcDbArc
 50
256.5757058821
 51
265.6685194954
  0
ARC
  5
36F
100
AcDbEntity
  8
0
100
AcDbCircle
 62
7
  6
CONTINUOUS
 10
38.2369559502
 20
199.1656386283
 40
0.8978851579
100
AcDbArc
 50
300.8865027494
 51
302.5038363098
  0
ARC
  5
370
100
AcDbEntity
  8
0
100
AcDbCircle
 62
7
  6
CONTINUOUS
 10
26.279191964
 20
257.5235326016
 40
88.5344743328
100
AcDbArc
 50
6.4251103089
 51
8.4033722318
  0
ARC
  5
371
100
AcDbEntity
  8
0
100
AcDbCircle
 62
7
  6
CONTINUOUS
 10
48.3596358956
 20
263.6570156381
 40
72.5288550636
100
AcDbArc
 50
359.9781929713
 51
8.5289585858
  0
ARC
  5
372
100
AcDbEntity
  8
0
100
AcDbCircle
 62
7
  6
CONTINUOUS
 10
47.7476696602
 20
262.8207621947
 40
71.3636606341
100
AcDbArc
 50
7.7482200893
 51
10.08888363
  0
ARC
  5
373
100
AcDbEntity
  8
0
100
AcDbCircle
 62
7
  6
CONTINUOUS
 10
80.4343807042
 20
243.5601993403
 40
48.0060532779
100
AcDbArc
 50
104.8309109779
 51
105.0265199161
  0
ARC
  5
374
100
AcDbEntity
  8
0
100
AcDbCircle
 62
7
  6
CONTINUOUS
 10
80.0692114187
 20
244.8459495568
 40
46.6696227324
100
AcDbArc
 50
105.0028370904
 51
105.8355108001
  0
ARC
  5
375
100
AcDbEntity
  8
0
100
AcDbCircle
 62
7
  6
CONTINUOUS
 10
80.9613664173
 20
247.1948409018
 40
43.6448554938
100
AcDbArc
 50
104.3987385582
 51
105.003979693
  0
ARC
  5
376
100
AcDbEntity
  8
0
100
AcDbCircle
 62
7
  6
CONTINUOUS
 10
46.1356774065
 20
223.1875697507
 40
24.4889816315
100
AcDbArc
 50
253.4892472288
 51
254.0910857903
  0
ARC
  5
377
100
AcDbEntity
  8
0
100
AcDbCircle
 62
7
  6
CONTINUOUS
 10
53.3455831596
 20
250.1532034928
 40
22.2354995456
100
AcDbArc
 50
182.7090677883
 51
183.0723846014
  0
ARC
  5
378
100
AcDbEntity
  8
0
100
AcDbCircle
 62
7
  6
CONTINUOUS
 10
33.4808867765
 20
229.8001926473
 40
19.7259277576
100
AcDbArc
 50
94.9217573473
 51
95.6639242283
  0
ARC
  5
379
100
AcDbEntity
  8
0
100
AcDbCircle
 62
7
  6
CONTINUOUS
 10
54.8391017366
 20
227.0250862143
 40
19.2945658142
100
AcDbArc
 50
301.4867833879
 51
305.3482339973
  0
ARC
  5
37A
100
AcDbEntity
  8
0
100
AcDbCircle
 62
7
  6
CONTINUOUS
 10
55.8719701728
 20
233.9747433926
 40
19.2034003329
100
AcDbArc
 50
38.8510455378
 51
42.359544564
  0
ARC
  5
37B
100
AcDbEntity
  8
0
100
AcDbCircle
 62
7
  6
CONTINUOUS
 10
79.1834224764
 20
233.1930686233
 40
18.5598587681
100
AcDbArc
 50
105.464169039
 51
108.0427229242
  0
ARC
  5
37C
100
AcDbEntity
  8
0
100
AcDbCircle
 62
7
  6
CONTINUOUS
 10
57.7502812212
 20
237.496623565
 40
17.203952375
100
AcDbArc
 50
82.0359324849
 51
95.3990937898
  0
ARC
  5
37D
100
AcDbEntity
  8
0
100
AcDbCircle
 62
7
  6
CONTINUOUS
 10
47.0910998248
 20
249.8586214923
 40
15.9740783285
100
AcDbArc
 50
182.3945974566
 51
182.6012802124
  0
ARC
  5
37E
100
AcDbEntity
  8
0
100
AcDbCircle
 62
7
  6
CONTINUOUS
 10
46.6628615078
 20
247.4392385679
 40
15.7362130574
100
AcDbArc
 50
168.3848767344
 51
168.6202656821
  0
ARC
  5
37F
100
AcDbEntity
  8
0
100
AcDbCircle
 62
7
  6
CONTINUOUS
 10
73.7489680678
 20
249.5918592103
 40
13.9435559567
100
AcDbArc
 50
149.0000032643
 51
154.2708329027
  0
ARC
  5
380
100
AcDbEntity
  8
0
100
AcDbCircle
 62
7
  6
CONTINUOUS
 10
65.3131852972
 20
255.2370725627
 40
13.458232892
100
AcDbArc
 50
165.7687153776
 51
166.5287596542
  0
ARC
  5
381
100
AcDbEntity
  8
0
100
AcDbCircle
 62
7
  6
CONTINUOUS
 10
73.0648853846
 20
249.2929110224
 40
12.981865016
100
AcDbArc
 50
152.7769554076
 51
159.0167228473
  0
ARC
  5
382
100
AcDbEntity
  8
0
100
AcDbCircle
 62
7
  6
CONTINUOUS
 10
61.0622744055
 20
257.3037715228
 40
8.9816069063
100
AcDbArc
 50
116.0300615351
 51
120.9284785744
  0
ARC
  5
383
100
AcDbEntity
  8
0
100
AcDbCircle
 62
7
  6
CONTINUOUS
 10
38.0517806468
 20
247.9227332003
 40
7.0360946968
100
AcDbArc
 50
168.8883511129
 51
169.6139203622
  0
ARC
  5
384
100
AcDbEntity
  8
0
100
AcDbCircle
 62
7
  6
CONTINUOUS
 10
38.0516893018
 20
250.7397734371
 40
6.8184909671
100
AcDbArc
 50
181.6439673753
 51
182.3765550834
  0
ARC
  5
385
100
AcDbEntity
  8
0
100
AcDbCircle
 62
7
  6
CONTINUOUS
 10
29.0616540482
 20
251.8630278987
 40
5.0399440979
100
AcDbArc
 50
105.0059531365
 51
105.6155874132
  0
ARC
  5
386
100
AcDbEntity
  8
0
100
AcDbCircle
 62
7
  6
CONTINUOUS
 10
30.535218276
 20
248.9198675956
 40
2.653824064
100
AcDbArc
 50
243.5630417396
 51
244.19727667
  0
ARC
  5
387
100
AcDbEntity
  8
0
100
AcDbCircle
 62
7
  6
CONTINUOUS
 10
30.520929653
 20
248.8894559893
 40
2.6202251152
100
AcDbArc
 50
244.1891125413
 51
251.5153458013
  0
ARC
  5
388
100
AcDbEntity
  8
0
100
AcDbCircle
 62
7
  6
CONTINUOUS
 10
30.5036554295
 20
248.8410748353
 40
2.5688634207
100
AcDbArc
 50
251.5386254479
 51
254.375442031
  0
ARC
  5
389
100
AcDbEntity
  8
0
100
AcDbCircle
 62
7
  6
CONTINUOUS
 10
31.1336380313
 20
249.8336879491
 40
2.5651584616
100
AcDbArc
 50
344.3089076868
 51
355.5693788406
  0
ARC
  5
38A
100
AcDbEntity
  8
0
100
AcDbCircle
 62
7
  6
CONTINUOUS
 10
32.6554423582
 20
249.6206558048
 40
2.565158461
100
AcDbArc
 50
164.3089076855
 51
175.5693788419
  0
ARC
  5
38B
100
AcDbEntity
  8
0
100
AcDbCircle
 62
7
  6
CONTINUOUS
 10
31.0926059553
 20
248.7846236378
 40
2.5566492729
100
AcDbArc
 50
265.71488475
 51
277.4998032296
  0
ARC
  5
38C
100
AcDbEntity
  8
0
100
AcDbCircle
 62
7
  6
CONTINUOUS
 10
30.4995005033
 20
248.8262628928
 40
2.5534797635
100
AcDbArc
 50
254.3757124306
 51
259.9753764066
  0
ARC
  5
38D
100
AcDbEntity
  8
0
100
AcDbCircle
 62
7
  6
CONTINUOUS
 10
30.4974293701
 20
248.8164322047
 40
2.5434386563
100
AcDbArc
 50
259.9827713485
 51
265.6713557145
  0
ARC
  5
38E
100
AcDbEntity
  8
0
100
AcDbCircle
 62
7
  6
CONTINUOUS
 10
32.6263868525
 20
249.6218921632
 40
2.5360944755
100
AcDbArc
 50
175.5465172137
 51
186.8772030517
  0
ARC
  5
38F
100
AcDbEntity
  8
0
100
AcDbCircle
 62
7
  6
CONTINUOUS
 10
31.1626935377
 20
249.8324515905
 40
2.5360944754
100
AcDbArc
 50
355.5465172137
 51
6.8772030518
  0
ARC
  5
390
100
AcDbEntity
  8
0
100
AcDbCircle
 62
7
  6
CONTINUOUS
 10
31.3904190364
 20
250.8766665248
 40
2.5325954507
100
AcDbArc
 50
78.4128996418
 51
97.5518137882
  0
ARC
  5
391
100
AcDbEntity
  8
0
100
AcDbCircle
 62
7
  6
CONTINUOUS
 10
31.0917736664
 20
248.7462422038
 40
2.5183137674
100
AcDbArc
 50
256.5757058821
 51
265.6685194954
  0
ARC
  5
392
100
AcDbEntity
  8
0
100
AcDbCircle
 62
7
  6
CONTINUOUS
 10
30.659560447
 20
249.7186719438
 40
0.897885158
100
AcDbArc
 50
300.8865027495
 51
302.5038363097
  0
ARC
  5
393
100
AcDbEntity
  8
0
100
AcDbCircle
 62
7
  6
CONTINUOUS
 10
-19.7695262538
 20
271.6686815417
 40
138.6432671943
100
AcDbArc
 50
355.142807334
 51
356.4273752647
  0
ARC
  5
394
100
AcDbEntity
  8
0
100
AcDbCircle
 62
7
  6
CONTINUOUS
 10
38.5582819034
 20
273.7406030662
 40
24.4889816316
100
AcDbArc
 50
253.4892472288
 51
254.0910857903
  0
ARC
  5
395
100
AcDbEntity
  8
0
100
AcDbCircle
 62
7
  6
CONTINUOUS
 10
90.8863202153
 20
303.8822307873
 40
35.0633552172
100
AcDbArc
 50
279.4532003833
 51
279.6986451893
  0
ARC
  5
396
100
AcDbEntity
  8
0
100
AcDbCircle
 62
7
  6
CONTINUOUS
 10
68.2464952366
 20
299.2802609866
 40
31.8599687642
100
AcDbArc
 50
249.3744723695
 51
252.1301316033
  0
ARC
  5
397
100
AcDbEntity
  8
0
100
AcDbCircle
 62
7
  6
CONTINUOUS
 10
92.9737161454
 20
295.9703594467
 40
31.6119818156
100
AcDbArc
 50
289.9312287258
 51
291.2371221013
  0
ARC
  5
398
100
AcDbEntity
  8
0
100
AcDbCircle
 62
7
  6
CONTINUOUS
 10
92.8132930541
 20
293.1286324649
 40
29.3268401994
100
AcDbArc
 50
292.2599325195
 51
295.2157538234
  0
ARC
  5
399
100
AcDbEntity
  8
0
100
AcDbCircle
 62
7
  6
CONTINUOUS
 10
68.5374674093
 20
296.3069611086
 40
28.8984323892
100
AcDbArc
 50
246.9069026897
 51
248.2843313606
  0
ARC
  5
39A
100
AcDbEntity
  8
0
100
AcDbCircle
 62
7
  6
CONTINUOUS
 10
69.3479896065
 20
290.5877993646
 40
24.0568490673
100
AcDbArc
 50
239.9956973031
 51
241.4345198783
  0
ARC
  5
39B
100
AcDbEntity
  8
0
100
AcDbCircle
 62
7
  6
CONTINUOUS
 10
101.7595900548
 20
288.3291114851
 40
21.4356632312
100
AcDbArc
 50
300.9779610621
 51
302.5307649277
  0
ARC
  5
39C
100
AcDbEntity
  8
0
100
AcDbCircle
 62
7
  6
CONTINUOUS
 10
97.6708728093
 20
269.9804982333
 40
19.1327633403
100
AcDbArc
 50
59.9911824614
 51
60.4819174239
  0
ARC
  5
39D
100
AcDbEntity
  8
0
100
AcDbCircle
 62
7
  6
CONTINUOUS
 10
102.7101520091
 20
286.344830748
 40
14.5921956956
100
AcDbArc
 50
306.4582076479
 51
306.8449451924
  0
ARC
  5
39E
100
AcDbEntity
  8
0
100
AcDbCircle
 62
7
  6
CONTINUOUS
 10
69.3033045534
 20
275.404923198
 40
12.5478740443
100
AcDbArc
 50
127.3326520489
 51
127.9428753593
  0
ARC
  5
39F
100
AcDbEntity
  8
0
100
AcDbCircle
 62
7
  6
CONTINUOUS
 10
105.8999789115
 20
278.170108356
 40
10.8247740511
100
AcDbArc
 50
310.3547076867
 51
313.0261674669
  0
ARC
  5
3A0
100
AcDbEntity
  8
0
100
AcDbCircle
 62
7
  6
CONTINUOUS
 10
59.0244278602
 20
280.9424839402
 40
9.4921013854
100
AcDbArc
 50
223.08856337
 51
225.9868326976
  0
ARC
  5
3A1
100
AcDbEntity
  8
0
100
AcDbCircle
 62
7
  6
CONTINUOUS
 10
60.5291979155
 20
276.4359279864
 40
9.0672556865
100
AcDbArc
 50
158.3561266269
 51
169.3996894893
  0
ARC
  5
3A2
100
AcDbEntity
  8
0
100
AcDbCircle
 62
7
  6
CONTINUOUS
 10
56.5815515517
 20
264.8511658798
 40
7.9569731095
100
AcDbArc
 50
162.5270235434
 51
164.5953578579
  0
ARC
  5
3A3
100
AcDbEntity
  8
0
100
AcDbCircle
 62
7
  6
CONTINUOUS
 10
58.7090336897
 20
277.903759437
 40
7.3344047476
100
AcDbArc
 50
207.9202228945
 51
211.0948790009
  0
ARC
  5
3A4
100
AcDbEntity
  8
0
100
AcDbCircle
 62
7
  6
CONTINUOUS
 10
105.4353303952
 20
281.6007233955
 40
6.7470215462
100
AcDbArc
 50
324.7955073384
 51
325.925021592
  0
ARC
  5
3A5
100
AcDbEntity
  8
0
100
AcDbCircle
 62
7
  6
CONTINUOUS
 10
63.0049570519
 20
279.0232992356
 40
4.3704807648
100
AcDbArc
 50
165.5414396172
 51
166.8657157906
  0
ARC
  5
3A6
100
AcDbEntity
  8
0
100
AcDbCircle
 62
7
  6
CONTINUOUS
 10
62.9423196107
 20
279.0378942803
 40
4.3061654171
100
AcDbArc
 50
166.8654480876
 51
168.4734805418
  0
ARC
  5
3A7
100
AcDbEntity
  8
0
100
AcDbCircle
 62
7
  6
CONTINUOUS
 10
106.8442134604
 20
279.0394579144
 40
4.2972492379
100
AcDbArc
 50
11.4693393682
 51
12.4529849416
  0
ARC
  5
3A8
100
AcDbEntity
  8
0
100
AcDbCircle
 62
7
  6
CONTINUOUS
 10
106.8587835484
 20
279.889963613
 40
4.2823420625
100
AcDbArc
 50
10.6348926082
 51
12.4228003153
  0
ARC
  5
3A9
100
AcDbEntity
  8
0
100
AcDbCircle
 62
7
  6
CONTINUOUS
 10
62.9071476726
 20
279.892494108
 40
4.2702324188
100
AcDbArc
 50
168.2227909502
 51
169.4119274542
  0
ARC
  5
3AA
100
AcDbEntity
  8
0
100
AcDbCircle
 62
7
  6
CONTINUOUS
 10
56.1763380307
 20
279.1682965452
 40
4.2235394283
100
AcDbArc
 50
174.1177825194
 51
179.1048709159
  0
ARC
  5
3AB
100
AcDbEntity
  8
0
100
AcDbCircle
 62
7
  6
CONTINUOUS
 10
62.8499563079
 20
279.0562134865
 40
4.2120043273
100
AcDbArc
 50
168.4665917133
 51
172.4811913819
  0
ARC
  5
3AC
100
AcDbEntity
  8
0
100
AcDbCircle
 62
7
  6
CONTINUOUS
 10
106.780142516
 20
280.6938063114
 40
4.2100974017
100
AcDbArc
 50
349.1645516931
 51
349.8400699558
  0
ARC
  5
3AD
100
AcDbEntity
  8
0
100
AcDbCircle
 62
7
  6
CONTINUOUS
 10
106.9410688316
 20
279.0581935858
 40
4.1986025763
100
AcDbArc
 50
6.7103169612
 51
11.4815872707
  0
ARC
  5
3AE
100
AcDbEntity
  8
0
100
AcDbCircle
 62
7
  6
CONTINUOUS
 10
62.7736940022
 20
279.9155458582
 40
4.1348157169
100
AcDbArc
 50
169.3861201651
 51
179.944562491
  0
ARC
  5
3AF
100
AcDbEntity
  8
0
100
AcDbCircle
 62
7
  6
CONTINUOUS
 10
107.0063602482
 20
279.9158701458
 40
4.1325195989
100
AcDbArc
 50
0.2007864536
 51
10.6594846511
  0
ARC
  5
3B0
100
AcDbEntity
  8
0
100
AcDbCircle
 62
7
  6
CONTINUOUS
 10
62.8962885317
 20
280.6768571525
 40
4.1073753489
100
AcDbArc
 50
180.0456192335
 51
190.4772284869
  0
ARC
  5
3B1
100
AcDbEntity
  8
0
100
AcDbCircle
 62
7
  6
CONTINUOUS
 10
106.8848596039
 20
280.6765980407
 40
4.1039871698
100
AcDbArc
 50
349.8186637496
 51
359.9579605652
  0
ARC
  5
3B2
100
AcDbEntity
  8
0
100
AcDbCircle
 62
7
  6
CONTINUOUS
 10
55.5859467294
 20
279.2588717879
 40
3.8625759199
100
AcDbArc
 50
177.7734248101
 51
188.9042360494
  0
ARC
  5
3B3
100
AcDbEntity
  8
0
100
AcDbCircle
 62
7
  6
CONTINUOUS
 10
48.8786698982
 20
264.6392529031
 40
1.0730018109
100
AcDbArc
 50
238.5826736688
 51
239.9844339198
  0
ARC
  5
3B4
100
AcDbEntity
  8
0
100
AcDbCircle
 62
7
  6
CONTINUOUS
 10
47.8350416965
 20
266.4640288482
 40
1.0133701912
100
AcDbArc
 50
59.9876102377
 51
61.0281681301
  0
ARC
  5
3B5
100
AcDbEntity
  8
0
100
AcDbCircle
 62
7
  6
CONTINUOUS
 10
48.8286315528
 20
264.5503103031
 40
0.9709570982
100
AcDbArc
 50
239.9157145566
 51
245.8821337408
  0
ARC
  5
3B6
100
AcDbEntity
  8
0
100
AcDbCircle
 62
7
  6
CONTINUOUS
 10
48.7938369174
 20
264.4755012455
 40
0.8884615452
100
AcDbArc
 50
245.9588232176
 51
246.8759902779
  0
ARC
  5
3B7
100
AcDbEntity
  8
0
100
AcDbCircle
 62
7
  6
CONTINUOUS
 10
48.7674594301
 20
264.4112895073
 40
0.8190502982
100
AcDbArc
 50
246.8088935826
 51
252.8538174974
  0
ARC
  5
3B8
100
AcDbEntity
  8
0
100
AcDbCircle
 62
7
  6
CONTINUOUS
 10
47.9635367057
 20
266.8765301397
 40
0.6227190327
100
AcDbArc
 50
82.4133570271
 51
84.466523635
  0
ARC
  5
3B9
100
AcDbEntity
  8
0
100
AcDbCircle
 62
7
  6
CONTINUOUS
 10
47.9648403249
 20
266.9567304967
 40
0.5424636285
100
AcDbArc
 50
105.0385109945
 51
115.3740175537
  0
ARC
  5
3BA
100
AcDbEntity
  8
0
100
AcDbCircle
 62
7
  6
CONTINUOUS
 10
84.8836822299
 20
348.1567840029
 40
84.1379952559
100
AcDbArc
 50
266.3865092707
 51
274.6401951089
  0
ARC
  5
3BB
100
AcDbEntity
  8
0
100
AcDbCircle
 62
7
  6
CONTINUOUS
 10
84.7434331455
 20
345.6120905788
 40
81.5895275718
100
AcDbArc
 50
265.7337958263
 51
266.3721753457
  0
ARC
  5
3BC
100
AcDbEntity
  8
0
100
AcDbCircle
 62
7
  6
CONTINUOUS
 10
85.1787905741
 20
343.7765780804
 40
79.7483224226
100
AcDbArc
 50
274.6834691472
 51
275.3316367894
  0
ARC
  5
3BD
100
AcDbEntity
  8
0
100
AcDbCircle
 62
7
  6
CONTINUOUS
 10
77.6674202245
 20
333.4179491224
 40
69.521787586
100
AcDbArc
 50
270.8048358764
 51
272.4555203991
  0
ARC
  5
3BE
100
AcDbEntity
  8
0
100
AcDbCircle
 62
7
  6
CONTINUOUS
 10
79.7461278309
 20
333.0659526038
 40
68.8798357268
100
AcDbArc
 50
269.0869187352
 51
269.8625136165
  0
ARC
  5
3BF
100
AcDbEntity
  8
0
100
AcDbCircle
 62
7
  6
CONTINUOUS
 10
75.0022726343
 20
323.730355221
 40
58.52513458
100
AcDbArc
 50
261.5760402837
 51
263.4190501322
  0
ARC
  5
3C0
100
AcDbEntity
  8
0
100
AcDbCircle
 62
7
  6
CONTINUOUS
 10
83.4409329321
 20
321.4999210723
 40
57.8542037342
100
AcDbArc
 50
278.22649043
 51
279.0977405675
  0
ARC
  5
3C1
100
AcDbEntity
  8
0
100
AcDbCircle
 62
7
  6
CONTINUOUS
 10
82.0840625985
 20
318.7562283377
 40
55.6566808041
100
AcDbArc
 50
280.0641575069
 51
281.9866424217
  0
ARC
  5
3C2
100
AcDbEntity
  8
0
100
AcDbCircle
 62
7
  6
CONTINUOUS
 10
80.4871588957
 20
320.0164565766
 40
55.6111557157
100
AcDbArc
 50
255.5430895041
 51
256.3664505337
  0
ARC
  5
3C3
100
AcDbEntity
  8
0
100
AcDbCircle
 62
7
  6
CONTINUOUS
 10
76.4309509796
 20
320.5657435897
 40
55.3387748656
100
AcDbArc
 50
259.6911388805
 51
260.5856841506
  0
ARC
  5
3C4
100
AcDbEntity
  8
0
100
AcDbCircle
 62
7
  6
CONTINUOUS
 10
90.1782259455
 20
316.6414182178
 40
52.1213056237
100
AcDbArc
 50
285.0040459031
 51
285.8629679425
  0
ARC
  5
3C5
100
AcDbEntity
  8
0
100
AcDbCircle
 62
7
  6
CONTINUOUS
 10
91.2778450139
 20
312.7927007811
 40
48.1185831887
100
AcDbArc
 50
285.856129799
 51
288.2184196802
  0
ARC
  5
3C6
100
AcDbEntity
  8
0
100
AcDbCircle
 62
7
  6
CONTINUOUS
 10
89.3534747769
 20
316.7964811601
 40
48.0328919605
100
AcDbArc
 50
284.8099061135
 51
285.0055153409
  0
ARC
  5
3C7
100
AcDbEntity
  8
0
100
AcDbCircle
 62
7
  6
CONTINUOUS
 10
88.92000879
 20
313.5289628879
 40
43.2408087173
100
AcDbArc
 50
284.7326548594
 51
285.0053334835
  0
ARC
  5
3C8
100
AcDbEntity
  8
0
100
AcDbCircle
 62
7
  6
CONTINUOUS
 10
161.134867692
 20
-138.4568433468
 40
408.985396992
100
AcDbArc
 50
111.0169344537
 51
111.1701028938
  0
ARC
  5
3C9
100
AcDbEntity
  8
0
100
AcDbCircle
 62
7
  6
CONTINUOUS
 10
501.1624128769
 20
250.5322070581
 40
420.7307378971
100
AcDbArc
 50
178.1710883463
 51
178.595021033
  0
ARC
  5
3CA
100
AcDbEntity
  8
0
100
AcDbCircle
 62
7
  6
CONTINUOUS
 10
208.0460697939
 20
252.3278957995
 40
140.3791089161
100
AcDbArc
 50
174.5786895363
 51
175.8421271853
  0
ARC
  5
3CB
100
AcDbEntity
  8
0
100
AcDbCircle
 62
7
  6
CONTINUOUS
 10
147.3753375843
 20
255.9945577337
 40
89.8452999623
100
AcDbArc
 50
171.7045616019
 51
173.6553331532
  0
ARC
  5
3CC
100
AcDbEntity
  8
0
100
AcDbCircle
 62
7
  6
CONTINUOUS
 10
123.2379383285
 20
265.9013253418
 40
74.348992487
100
AcDbArc
 50
172.9515504564
 51
179.2061415995
  0
ARC
  5
3CD
100
AcDbEntity
  8
0
100
AcDbCircle
 62
7
  6
CONTINUOUS
 10
123.0862931366
 20
264.8095440097
 40
72.6955683461
100
AcDbArc
 50
169.462584417
 51
171.0858982499
  0
ARC
  5
3CE
100
AcDbEntity
  8
0
100
AcDbCircle
 62
7
  6
CONTINUOUS
 10
122.7026838541
 20
267.1699596117
 40
72.0589903882
100
AcDbArc
 50
171.2556094721
 51
172.8936333578
  0
ARC
  5
3CF
100
AcDbEntity
  8
0
100
AcDbCircle
 62
7
  6
CONTINUOUS
 10
122.508206664
 20
267.1998052363
 40
71.8622363938
100
AcDbArc
 50
169.8242274272
 51
171.2555560537
  0
ARC
  5
3D0
100
AcDbEntity
  8
0
100
AcDbCircle
 62
7
  6
CONTINUOUS
 10
123.3977818281
 20
261.0224737806
 40
71.8308156147
100
AcDbArc
 50
169.9586260867
 51
172.2498818757
  0
ARC
  5
3D1
100
AcDbEntity
  8
0
100
AcDbCircle
 62
7
  6
CONTINUOUS
 10
112.1161211708
 20
238.0397938811
 40
29.5368924468
100
AcDbArc
 50
116.3770908853
 51
117.336529192
  0
ARC
  5
3D2
100
AcDbEntity
  8
0
100
AcDbCircle
 62
7
  6
CONTINUOUS
 10
109.2005058479
 20
245.6491937091
 40
21.375240985
100
AcDbArc
 50
104.9900339486
 51
105.479184964
  0
ARC
  5
3D3
100
AcDbEntity
  8
0
100
AcDbCircle
 62
7
  6
CONTINUOUS
 10
108.3825196292
 20
276.067729502
 40
10.0089695006
100
AcDbArc
 50
26.3153651183
 51
26.729825052
  0
ARC
  5
3D4
100
AcDbEntity
  8
0
100
AcDbCircle
 62
7
  6
CONTINUOUS
 10
108.7156158737
 20
276.2275427461
 40
9.6395467741
100
AcDbArc
 50
21.2974824956
 51
26.3416012472
  0
ARC
  5
3D5
100
AcDbEntity
  8
0
100
AcDbCircle
 62
7
  6
CONTINUOUS
 10
109.3309173204
 20
276.4596307887
 40
8.9819494543
100
AcDbArc
 50
10.5483201065
 51
21.2299462654
  0
ARC
  5
3D6
100
AcDbEntity
  8
0
100
AcDbCircle
 62
7
  6
CONTINUOUS
 10
111.8293455192
 20
277.5152459733
 40
6.4800865753
100
AcDbArc
 50
334.2524841548
 51
337.6996184684
  0
ARC
  5
3D7
100
AcDbEntity
  8
0
100
AcDbCircle
 62
7
  6
CONTINUOUS
 10
112.9578011139
 20
277.1345014849
 40
5.2928201242
100
AcDbArc
 50
4.9737342495
 51
10.5536596105
  0
ARC
  5
3D8
100
AcDbEntity
  8
0
100
AcDbCircle
 62
7
  6
CONTINUOUS
 10
114.1349156289
 20
276.5351598689
 40
4.846133409
100
AcDbArc
 50
41.1885340135
 51
42.6715198196
  0
ARC
  5
3D9
100
AcDbEntity
  8
0
100
AcDbCircle
 62
7
  6
CONTINUOUS
 10
113.3358723522
 20
274.6607974443
 40
4.7185316124
100
AcDbArc
 50
357.980378409
 51
8.0560416147
  0
ARC
  5
3DA
100
AcDbEntity
  8
0
100
AcDbCircle
 62
7
  6
CONTINUOUS
 10
113.601568798
 20
275.1228805259
 40
4.2235581583
100
AcDbArc
 50
354.1205132885
 51
359.0967156158
  0
SPLINE
  5
3DB
100
AcDbEntity
  8
0
100
AcDbSpline
 62
7
  6
CONTINUOUS
 70
0
 71
3
 72
23
 73
19
 74
0
 42
0.0000001
 43
0.0000001
 44
0.0000000001
 40
0.0
 40
0.0
 40
0.0
 40
0.0
 40
0.0583868746
 40
0.1179407339
 40
0.1789676551
 40
0.2415802983
 40
0.3056948444
 40
0.3710439078
 40
0.4372147883
 40
0.5036998445
 40
0.5699559399
 40
0.6354659497
 40
0.6997980444
 40
0.7626593745
 40
0.8239347131
 40
0.8837075617
 40
0.9422508984
 40
1.0
 40
1.0
 40
1.0
 40
1.0
 10
39.5199087855
 20
195.6600646742
 30
0.0
 10
39.7016120892
 20
195.684258376
 30
0.0
 10
40.0645411983
 20
195.7715416038
 30
0.0
 10
40.5772989993
 20
196.0092261989
 30
0.0
 10
41.0477336717
 20
196.3456297679
 30
0.0
 10
41.4618772825
 20
196.7690777631
 30
0.0
 10
41.8082420038
 20
197.2659047845
 30
0.0
 10
42.0772541139
 20
197.8207700399
 30
0.0
 10
42.261465521
 20
198.4169342128
 30
0.0
 10
42.3556905697
 20
199.0365953783
 30
0.0
 10
42.3571580858
 20
199.6613308666
 30
0.0
 10
42.2655635354
 20
200.2725801487
 30
0.0
 10
42.0830770542
 20
200.852106338
 30
0.0
 10
41.8142940204
 20
201.3823957301
 30
0.0
 10
41.466228271
 20
201.8469463683
 30
0.0
 10
41.0482882747
 20
202.2305604135
 30
0.0
 10
40.5730424547
 20
202.5197342007
 30
0.0
 10
40.2260404754
 20
202.6429362209
 30
0.0
 10
40.0497587513
 20
202.6853168399
 30
0.0
  0
LINE
  5
3DC
100
AcDbEntity
  8
0
100
AcDbLine
 62
7
  6
CONTINUOUS
 10
40.0468134884
 20
202.6859739037
 11
39.5541598363
 21
202.7873726977
  0
LINE
  5
3DD
100
AcDbEntity
  8
0
100
AcDbLine
 62
7
  6
CONTINUOUS
 10
38.6349739483
 20
202.8342619868
 11
39.1276276005
 21
202.7328631928
  0
LINE
  5
3DE
100
AcDbEntity
  8
0
100
AcDbLine
 62
7
  6
CONTINUOUS
 10
38.5821468201
 20
195.7064076502
 11
38.0845165598
 21
195.7437016814
  0
LINE
  5
3DF
100
AcDbEntity
  8
0
100
AcDbLine
 62
7
  6
CONTINUOUS
 10
39.0037024478
 20
195.6968123924
 11
39.5013327081
 21
195.6595183612
  0
SPLINE
  5
3E0
100
AcDbEntity
  8
0
100
AcDbSpline
 62
7
  6
CONTINUOUS
 70
0
 71
3
 72
14
 73
10
 74
0
 42
0.0000001
 43
0.0000001
 44
0.0000000001
 40
0.0
 40
0.0
 40
0.0
 40
0.0
 40
0.3044147114
 40
0.4489463308
 40
0.5838574547
 40
0.7064989343
 40
0.8158223307
 40
0.9125775521
 40
1.0
 40
1.0
 40
1.0
 40
1.0
 10
39.2615899291
 20
202.4081898056
 30
0.0
 10
39.2645442106
 20
202.4462445427
 30
0.0
 10
39.2633239351
 20
202.5030824557
 30
0.0
 10
39.2496286163
 20
202.5751183251
 30
0.0
 10
39.2341865104
 20
202.6232797601
 30
0.0
 10
39.2136700883
 20
202.6646780648
 30
0.0
 10
39.1888174781
 20
202.6979231946
 30
0.0
 10
39.1602252841
 20
202.7217489408
 30
0.0
 10
39.1383640532
 20
202.730653322
 30
0.0
 10
39.1276276005
 20
202.7328631928
 30
0.0
  0
SPLINE
  5
3E1
100
AcDbEntity
  8
0
100
AcDbSpline
 62
7
  6
CONTINUOUS
 70
0
 71
3
 72
18
 73
14
 74
0
 42
0.0000001
 43
0.0000001
 44
0.0000000001
 40
0.0
 40
0.0
 40
0.0
 40
0.0
 40
0.0579174412
 40
0.1159417572
 40
0.1742686152
 40
0.233092481
 40
0.2925775888
 40
0.3528598178
 40
0.4759870865
 40
0.6029503531
 40
0.7333401637
 40
0.8661557482
 40
1.0
 40
1.0
 40
1.0
 40
1.0
 10
38.890927973
 20
202.9249935102
 30
0.0
 10
38.7827479959
 20
202.9472319492
 30
0.0
 10
38.5631317099
 20
202.9781395842
 30
0.0
 10
38.2300203884
 20
202.9827334615
 30
0.0
 10
37.8971770917
 20
202.9456099008
 30
0.0
 10
37.5687164012
 20
202.867406647
 30
0.0
 10
37.2484517759
 20
202.7492393543
 30
0.0
 10
36.8346001436
 20
202.5393214178
 30
0.0
 10
36.355360784
 20
202.1833869571
 30
0.0
 10
35.8718918733
 20
201.6360939643
 30
0.0
 10
35.4938306425
 20
200.9900697489
 30
0.0
 10
35.236172818
 20
200.2739452535
 30
0.0
 10
35.1513463033
 20
199.7693443657
 30
0.0
 10
35.1315919254
 20
199.5148839644
 30
0.0
  0
SPLINE
  5
3E2
100
AcDbEntity
  8
0
100
AcDbSpline
 62
7
  6
CONTINUOUS
 70
0
 71
3
 72
14
 73
10
 74
0
 42
0.0000001
 43
0.0000001
 44
0.0000000001
 40
0.0
 40
0.0
 40
0.0
 40
0.0
 40
0.0880727346
 40
0.1829514764
 40
0.2894802393
 40
0.4097537614
 40
0.5434202002
 40
0.6884654828
 40
1.0
 40
1.0
 40
1.0
 40
1.0
 10
38.5821468201
 20
195.7064076502
 30
0.0
 10
38.592772094
 20
195.7056114315
 30
0.0
 10
38.6153174954
 20
195.7081089997
 30
0.0
 10
38.6473271845
 20
195.7235439158
 30
0.0
 10
38.6769180694
 20
195.7493724997
 30
0.0
 10
38.7033469195
 20
195.7843564782
 30
0.0
 10
38.7259044211
 20
195.8272335176
 30
0.0
 10
38.7504703863
 20
195.894434868
 30
0.0
 10
38.7601784266
 20
195.9494001328
 30
0.0
 10
38.7630955794
 20
195.9869766064
 30
0.0
  0
SPLINE
  5
3E3
100
AcDbEntity
  8
0
100
AcDbSpline
 62
7
  6
CONTINUOUS
 70
0
 71
3
 72
19
 73
15
 74
0
 42
0.0000001
 43
0.0000001
 44
0.0000000001
 40
0.0
 40
0.0
 40
0.0
 40
0.0
 40
0.1342650524
 40
0.2667674223
 40
0.3320932077
 40
0.3966295666
 40
0.4603133558
 40
0.5231120364
 40
0.6459353797
 40
0.765647162
 40
0.824689575
 40
0.883317671
 40
0.941700902
 40
1.0
 40
1.0
 40
1.0
 40
1.0
 10
35.1315919254
 20
199.5148839644
 30
0.0
 10
35.1136024775
 20
199.2831580078
 30
0.0
 10
35.1152815799
 20
198.8189846949
 30
0.0
 10
35.2129024004
 20
198.2495182058
 30
0.0
 10
35.3472490564
 20
197.8151347918
 30
0.0
 10
35.4744177876
 20
197.504666354
 30
0.0
 10
35.6274268351
 20
197.2109637332
 30
0.0
 10
35.8622910043
 20
196.8482745107
 30
0.0
 10
36.2132676081
 20
196.4480443953
 30
0.0
 10
36.6350350391
 20
196.1330177919
 30
0.0
 10
37.0011137937
 20
195.9447275379
 30
0.0
 10
37.2867068526
 20
195.836397674
 30
0.0
 10
37.5814954147
 20
195.761696967
 30
0.0
 10
37.7822205089
 20
195.7348301327
 30
0.0
 10
37.8828528577
 20
195.727212605
 30
0.0
  0
SPLINE
  5
3E4
100
AcDbEntity
  8
0
100
AcDbSpline
 62
7
  6
CONTINUOUS
 70
0
 71
3
 72
18
 73
14
 74
0
 42
0.0000001
 43
0.0000001
 44
0.0000000001
 40
0.0
 40
0.0
 40
0.0
 40
0.0
 40
0.0567838174
 40
0.1137046948
 40
0.1710292492
 40
0.2290006126
 40
0.2878254411
 40
0.3476642984
 40
0.4705829882
 40
0.5981695327
 40
0.7298280117
 40
0.8643196715
 40
1.0
 40
1.0
 40
1.0
 40
1.0
 10
38.8909274034
 20
202.92499038
 30
0.0
 10
38.7856101496
 20
202.9466413034
 30
0.0
 10
38.5717179418
 20
202.9766332363
 30
0.0
 10
38.2470756992
 20
202.9805975469
 30
0.0
 10
37.9222325411
 20
202.9435347363
 30
0.0
 10
37.6009736313
 20
202.8659025551
 30
0.0
 10
37.286895902
 20
202.7486137906
 30
0.0
 10
36.8790557233
 20
202.5395466579
 30
0.0
 10
36.4049122584
 20
202.1838894516
 30
0.0
 10
35.9250361353
 20
201.6360522685
 30
0.0
 10
35.5482677387
 20
200.9875537538
 30
0.0
 10
35.290752644
 20
200.2674494898
 30
0.0
 10
35.2057361524
 20
199.7597857813
 30
0.0
 10
35.1858514667
 20
199.5036468572
 30
0.0
  0
SPLINE
  5
3E5
100
AcDbEntity
  8
0
100
AcDbSpline
 62
7
  6
CONTINUOUS
 70
0
 71
3
 72
15
 73
11
 74
0
 42
0.0000001
 43
0.0000001
 44
0.0000000001
 40
0.0
 40
0.0
 40
0.0
 40
0.0
 40
0.1141392883
 40
0.2304606379
 40
0.3500170504
 40
0.4733816949
 40
0.600633881
 40
0.7313861462
 40
0.8648559676
 40
1.0
 40
1.0
 40
1.0
 40
1.0
 10
40.1807758171
 20
202.3613005165
 30
0.0
 10
40.3375403333
 20
202.3207708507
 30
0.0
 10
40.6462615785
 20
202.2048766744
 30
0.0
 10
41.0682371841
 20
201.937169441
 30
0.0
 10
41.4395017866
 20
201.583519925
 30
0.0
 10
41.7485646945
 20
201.155539935
 30
0.0
 10
41.9863959877
 20
200.6667960581
 30
0.0
 10
42.1460400679
 20
200.1324360071
 30
0.0
 10
42.2229298228
 20
199.5690309447
 30
0.0
 10
42.2175205647
 20
199.1863565133
 30
0.0
 10
42.2007471735
 20
198.995375147
 30
0.0
  0
SPLINE
  5
3E6
100
AcDbEntity
  8
0
100
AcDbSpline
 62
7
  6
CONTINUOUS
 70
0
 71
3
 72
13
 73
9
 74
0
 42
0.0000001
 43
0.0000001
 44
0.0000000001
 40
0.0
 40
0.0
 40
0.0
 40
0.0
 40
0.2655770187
 40
0.5236463557
 40
0.6481262938
 40
0.7688196905
 40
0.8858938766
 40
1.0
 40
1.0
 40
1.0
 40
1.0
 10
42.2007471735
 20
198.995375147
 30
0.0
 10
42.1678494469
 20
198.620802544
 30
0.0
 10
41.9958102038
 20
197.887466244
 30
0.0
 10
41.5279921858
 20
197.0800835753
 30
0.0
 10
41.0302970757
 20
196.5660499706
 30
0.0
 10
40.6134838349
 20
196.2624144484
 30
0.0
 10
40.1615624264
 20
196.0461544156
 30
0.0
 10
39.842048604
 20
195.9640622372
 30
0.0
 10
39.6822814673
 20
195.9400873174
 30
0.0
  0
SPLINE
  5
3E7
100
AcDbEntity
  8
0
100
AcDbSpline
 62
7
  6
CONTINUOUS
 70
0
 71
3
 72
14
 73
10
 74
0
 42
0.0000001
 43
0.0000001
 44
0.0000000001
 40
0.0
 40
0.0
 40
0.0
 40
0.0
 40
0.3051062556
 40
0.4485164405
 40
0.5822134738
 40
0.7040825884
 40
0.8134025263
 40
0.9110600163
 40
1.0
 40
1.0
 40
1.0
 40
1.0
 10
39.6822814673
 20
195.9400873174
 30
0.0
 10
39.6795695019
 20
195.9051539052
 30
0.0
 10
39.6708653919
 20
195.8539196708
 30
0.0
 10
39.6492098939
 20
195.7905504383
 30
0.0
 10
39.6293271008
 20
195.7491232472
 30
0.0
 10
39.6058803128
 20
195.7141834761
 30
0.0
 10
39.5794953585
 20
195.6868285238
 30
0.0
 10
39.5508859489
 20
195.6678826356
 30
0.0
 10
39.5300331293
 20
195.6614200154
 30
0.0
 10
39.519908764
 20
195.6600705581
 30
0.0
  0
SPLINE
  5
3E8
100
AcDbEntity
  8
0
100
AcDbSpline
 62
7
  6
CONTINUOUS
 70
0
 71
3
 72
13
 73
9
 74
0
 42
0.0000001
 43
0.0000001
 44
0.0000000001
 40
0.0
 40
0.0
 40
0.0
 40
0.0
 40
0.0877654774
 40
0.1850668252
 40
0.2948912048
 40
0.4178661689
 40
0.6964624901
 40
1.0
 40
1.0
 40
1.0
 40
1.0
 10
40.0497586732
 20
202.685316297
 30
0.0
 10
40.0603669428
 20
202.6827621392
 30
0.0
 10
40.0818491198
 20
202.6732582976
 30
0.0
 10
40.1098525301
 20
202.6490008228
 30
0.0
 10
40.1341589286
 20
202.6155840844
 30
0.0
 10
40.1619198977
 20
202.5581018783
 30
0.0
 10
40.1821751978
 20
202.471794736
 30
0.0
 10
40.1836966609
 20
202.3989245351
 30
0.0
 10
40.1807758171
 20
202.3613005165
 30
0.0
  0
SPLINE
  5
3E9
100
AcDbEntity
  8
0
100
AcDbSpline
 62
7
  6
CONTINUOUS
 70
0
 71
3
 72
13
 73
9
 74
0
 42
0.0000001
 43
0.0000001
 44
0.0000000001
 40
0.0
 40
0.0
 40
0.0
 40
0.0
 40
0.2655410157
 40
0.5225013099
 40
0.6466562123
 40
0.7674497402
 40
0.8850631672
 40
1.0
 40
1.0
 40
1.0
 40
1.0
 10
35.1858514667
 20
199.5036468572
 30
0.0
 10
35.1574312322
 20
199.1375596892
 30
0.0
 10
35.1926841244
 20
198.4067268702
 30
0.0
 10
35.4721722962
 20
197.5444649095
 30
0.0
 10
35.8259154694
 20
196.9446490341
 30
0.0
 10
36.1449675274
 20
196.5551253483
 30
0.0
 10
36.5131733153
 20
196.23070639
 30
0.0
 10
36.7887835215
 20
196.0612935794
 30
0.0
 10
36.9310971789
 20
195.9905344914
 30
0.0
  0
SPLINE
  5
3EA
100
AcDbEntity
  8
0
100
AcDbSpline
 62
7
  6
CONTINUOUS
 70
0
 71
3
 72
9
 73
5
 74
0
 42
0.0000001
 43
0.0000001
 44
0.0000000001
 40
0.0
 40
0.0
 40
0.0
 40
0.0
 40
0.2477978952
 40
1.0
 40
1.0
 40
1.0
 40
1.0
 10
38.9007111524
 20
197.7527714883
 30
0.0
 10
38.9234300279
 20
197.755823098
 30
0.0
 10
39.0147141092
 20
197.7709870374
 30
0.0
 10
39.1040576259
 20
197.7975276763
 30
0.0
 10
39.1687713944
 20
197.8231010838
 30
0.0
  0
SPLINE
  5
3EB
100
AcDbEntity
  8
0
100
AcDbSpline
 62
7
  6
CONTINUOUS
 70
0
 71
3
 72
15
 73
11
 74
0
 42
0.0000001
 43
0.0000001
 44
0.0000000001
 40
0.0
 40
0.0
 40
0.0
 40
0.0
 40
0.114208298
 40
0.230507713
 40
0.3499855207
 40
0.4732582426
 40
0.6004418844
 40
0.7311787738
 40
0.8647102154
 40
1.0
 40
1.0
 40
1.0
 40
1.0
 10
38.5821468201
 20
195.7064076502
 30
0.0
 10
38.4101883479
 20
195.7477466156
 30
0.0
 10
38.0710165366
 20
195.8685980348
 30
0.0
 10
37.6058128415
 20
196.1534690935
 30
0.0
 10
37.1951039346
 20
196.5333471244
 30
0.0
 10
36.8516654441
 20
196.9956748865
 30
0.0
 10
36.5855642012
 20
197.5257140655
 30
0.0
 10
36.4046198237
 20
198.1069767083
 30
0.0
 10
36.3140383017
 20
198.7213660308
 30
0.0
 10
36.315659718
 20
199.1394637295
 30
0.0
 10
36.3318751886
 20
199.3483387028
 30
0.0
  0
SPLINE
  5
3EC
100
AcDbEntity
  8
0
100
AcDbSpline
 62
7
  6
CONTINUOUS
 70
0
 71
3
 72
13
 73
9
 74
0
 42
0.0000001
 43
0.0000001
 44
0.0000000001
 40
0.0
 40
0.0
 40
0.0
 40
0.0
 40
0.2657417671
 40
0.5239694325
 40
0.6484505566
 40
0.769069655
 40
0.8860199219
 40
1.0
 40
1.0
 40
1.0
 40
1.0
 10
36.3318751886
 20
199.3483387028
 30
0.0
 10
36.3642542925
 20
199.7654209212
 30
0.0
 10
36.5497547536
 20
200.5831593198
 30
0.0
 10
37.0685784765
 20
201.4829678844
 30
0.0
 10
37.6235917246
 20
202.0532879888
 30
0.0
 10
38.0889350277
 20
202.3879568095
 30
0.0
 10
38.5934809428
 20
202.6231578631
 30
0.0
 10
38.9497633297
 20
202.7092093637
 30
0.0
 10
39.1276276005
 20
202.7328631928
 30
0.0
  0
SPLINE
  5
3ED
100
AcDbEntity
  8
0
100
AcDbSpline
 62
7
  6
CONTINUOUS
 70
0
 71
3
 72
15
 73
11
 74
0
 42
0.0000001
 43
0.0000001
 44
0.0000000001
 40
0.0
 40
0.0
 40
0.0
 40
0.0
 40
0.1141392883
 40
0.2304606379
 40
0.3500170504
 40
0.4733816949
 40
0.600633881
 40
0.7313861462
 40
0.8648559676
 40
1.0
 40
1.0
 40
1.0
 40
1.0
 10
38.7630955794
 20
195.9869766064
 30
0.0
 10
38.6063310631
 20
196.0275062723
 30
0.0
 10
38.2976098179
 20
196.1434004485
 30
0.0
 10
37.8756342124
 20
196.411107682
 30
0.0
 10
37.5043696098
 20
196.7647571979
 30
0.0
 10
37.195306702
 20
197.192737188
 30
0.0
 10
36.9574754088
 20
197.6814810648
 30
0.0
 10
36.7978313285
 20
198.2158411158
 30
0.0
 10
36.7209415736
 20
198.7792461783
 30
0.0
 10
36.7263508318
 20
199.1619206097
 30
0.0
 10
36.7431242229
 20
199.3529019759
 30
0.0
  0
SPLINE
  5
3EE
100
AcDbEntity
  8
0
100
AcDbSpline
 62
7
  6
CONTINUOUS
 70
0
 71
3
 72
13
 73
9
 74
0
 42
0.0000001
 43
0.0000001
 44
0.0000000001
 40
0.0
 40
0.0
 40
0.0
 40
0.0
 40
0.2655770187
 40
0.5236463557
 40
0.6481262938
 40
0.7688196905
 40
0.8858938766
 40
1.0
 40
1.0
 40
1.0
 40
1.0
 10
36.7431242229
 20
199.3529019759
 30
0.0
 10
36.7760219496
 20
199.7274745789
 30
0.0
 10
36.9480611926
 20
200.460810879
 30
0.0
 10
37.4158792107
 20
201.2681935476
 30
0.0
 10
37.9135743208
 20
201.7822271523
 30
0.0
 10
38.3303875616
 20
202.0858626746
 30
0.0
 10
38.78230897
 20
202.3021227074
 30
0.0
 10
39.1018227924
 20
202.3842148857
 30
0.0
 10
39.2615899291
 20
202.4081898056
 30
0.0
  0
SPLINE
  5
3EF
100
AcDbEntity
  8
0
100
AcDbSpline
 62
7
  6
CONTINUOUS
 70
0
 71
3
 72
9
 73
5
 74
0
 42
0.0000001
 43
0.0000001
 44
0.0000000001
 40
0.0
 40
0.0
 40
0.0
 40
0.0
 40
0.2511810962
 40
1.0
 40
1.0
 40
1.0
 40
1.0
 10
38.8738457912
 20
198.2014868738
 30
0.0
 10
38.8981698012
 20
198.1695208305
 30
0.0
 10
38.9954847487
 20
198.0426203209
 30
0.0
 10
39.0943025301
 20
197.9168787055
 30
0.0
 10
39.1687713944
 20
197.8231010838
 30
0.0
  0
SPLINE
  5
3F0
100
AcDbEntity
  8
0
100
AcDbSpline
 62
7
  6
CONTINUOUS
 70
0
 71
3
 72
9
 73
5
 74
0
 42
0.0000001
 43
0.0000001
 44
0.0000000001
 40
0.0
 40
0.0
 40
0.0
 40
0.0
 40
0.5019445265
 40
1.0
 40
1.0
 40
1.0
 40
1.0
 10
39.2153296259
 20
199.2889183315
 30
0.0
 10
39.2098055763
 20
199.2177618586
 30
0.0
 10
39.1867791798
 20
199.0766817483
 30
0.0
 10
39.1402736402
 20
198.9414774065
 30
0.0
 10
39.1114673007
 20
198.8767833052
 30
0.0
  0
SPLINE
  5
3F1
100
AcDbEntity
  8
0
100
AcDbSpline
 62
7
  6
CONTINUOUS
 70
0
 71
3
 72
9
 73
5
 74
0
 42
0.0000001
 43
0.0000001
 44
0.0000000001
 40
0.0
 40
0.0
 40
0.0
 40
0.0
 40
0.4959208638
 40
1.0
 40
1.0
 40
1.0
 40
1.0
 10
39.1760243509
 20
199.708356589
 30
0.0
 10
39.194669805
 20
199.6409873063
 30
0.0
 10
39.2199158475
 20
199.5014690816
 30
0.0
 10
39.2208290041
 20
199.3597570086
 30
0.0
 10
39.2153296259
 20
199.2889183315
 30
0.0
  0
SPLINE
  5
3F2
100
AcDbEntity
  8
0
100
AcDbSpline
 62
7
  6
CONTINUOUS
 70
0
 71
3
 72
9
 73
5
 74
0
 42
0.0000001
 43
0.0000001
 44
0.0000000001
 40
0.0
 40
0.0
 40
0.0
 40
0.0
 40
0.2491533009
 40
1.0
 40
1.0
 40
1.0
 40
1.0
 10
39.3890908897
 20
200.6610840063
 30
0.0
 10
39.3642612377
 20
200.6408478952
 30
0.0
 10
39.2647447614
 20
200.5594578233
 30
0.0
 10
39.1658542266
 20
200.4772972576
 30
0.0
 10
39.0921870203
 20
200.4149184192
 30
0.0
  0
SPLINE
  5
3F3
100
AcDbEntity
  8
0
100
AcDbSpline
 62
7
  6
CONTINUOUS
 70
0
 71
3
 72
9
 73
5
 74
0
 42
0.0000001
 43
0.0000001
 44
0.0000000001
 40
0.0
 40
0.0
 40
0.0
 40
0.0
 40
0.2532709335
 40
1.0
 40
1.0
 40
1.0
 40
1.0
 10
39.1760243509
 20
199.708356589
 30
0.0
 10
39.1454797104
 20
199.7245227648
 30
0.0
 10
39.0250147568
 20
199.7886055634
 30
0.0
 10
38.9051824706
 20
199.8539000458
 30
0.0
 10
38.8164582955
 20
199.9039990087
 30
0.0
  0
SPLINE
  5
3F4
100
AcDbEntity
  8
0
100
AcDbSpline
 62
7
  6
CONTINUOUS
 70
0
 71
3
 72
9
 73
5
 74
0
 42
0.0000001
 43
0.0000001
 44
0.0000000001
 40
0.0
 40
0.0
 40
0.0
 40
0.0
 40
0.2518219697
 40
1.0
 40
1.0
 40
1.0
 40
1.0
 10
39.3890908897
 20
200.6610840063
 30
0.0
 10
39.3688234623
 20
200.6718312493
 30
0.0
 10
39.2870572446
 20
200.7120391916
 30
0.0
 10
39.2002705981
 20
200.7420795927
 30
0.0
 10
39.1340220401
 20
200.758099337
 30
0.0
  0
LINE
  5
3F5
100
AcDbEntity
  8
0
100
AcDbLine
 62
7
  6
CONTINUOUS
 10
41.257952963
 20
199.5830950082
 11
39.4229283605
 21
199.6365544073
  0
SPLINE
  5
3F6
100
AcDbEntity
  8
0
100
AcDbSpline
 62
7
  6
CONTINUOUS
 70
0
 71
3
 72
9
 73
5
 74
0
 42
0.0000001
 43
0.0000001
 44
0.0000000001
 40
0.0
 40
0.0
 40
0.0
 40
0.0
 40
0.2502822993
 40
1.0
 40
1.0
 40
1.0
 40
1.0
 10
39.3659221601
 20
198.9003462058
 30
0.0
 10
39.5173196784
 20
198.8742630016
 30
0.0
 10
40.1222056256
 20
198.7699255942
 30
0.0
 10
40.7270499943
 20
198.6653473788
 30
0.0
 10
41.1805079508
 20
198.5869168788
 30
0.0
  0
SPLINE
  5
3F7
100
AcDbEntity
  8
0
100
AcDbSpline
 62
7
  6
CONTINUOUS
 70
0
 71
3
 72
9
 73
5
 74
0
 42
0.0000001
 43
0.0000001
 44
0.0000000001
 40
0.0
 40
0.0
 40
0.0
 40
0.0
 40
0.2465631896
 40
1.0
 40
1.0
 40
1.0
 40
1.0
 10
38.724984567
 20
198.7257061887
 30
0.0
 10
38.7564965989
 20
198.7387522497
 30
0.0
 10
38.8846432887
 20
198.7908399188
 30
0.0
 10
39.0138557947
 20
198.8402646555
 30
0.0
 10
39.1114673007
 20
198.8767833052
 30
0.0
  0
SPLINE
  5
3F8
100
AcDbEntity
  8
0
100
AcDbSpline
 62
7
  6
CONTINUOUS
 70
0
 71
3
 72
23
 73
19
 74
0
 42
0.0000001
 43
0.0000001
 44
0.0000000001
 40
0.0
 40
0.0
 40
0.0
 40
0.0
 40
0.0583868746
 40
0.1179407339
 40
0.1789676551
 40
0.2415802983
 40
0.3056948444
 40
0.3710439078
 40
0.4372147883
 40
0.5036998445
 40
0.5699559399
 40
0.6354659497
 40
0.6997980444
 40
0.7626593745
 40
0.8239347131
 40
0.8837075617
 40
0.9422508984
 40
1.0
 40
1.0
 40
1.0
 40
1.0
 10
31.9425132823
 20
246.2130979896
 30
0.0
 10
32.124216586
 20
246.2372916915
 30
0.0
 10
32.4871456951
 20
246.3245749192
 30
0.0
 10
32.9999034962
 20
246.5622595143
 30
0.0
 10
33.4703381685
 20
246.8986630834
 30
0.0
 10
33.8844817793
 20
247.3221110785
 30
0.0
 10
34.2308465006
 20
247.8189380999
 30
0.0
 10
34.4998586107
 20
248.3738033554
 30
0.0
 10
34.6840700178
 20
248.9699675282
 30
0.0
 10
34.7782950665
 20
249.5896286937
 30
0.0
 10
34.7797625826
 20
250.2143641821
 30
0.0
 10
34.6881680322
 20
250.8256134641
 30
0.0
 10
34.505681551
 20
251.4051396534
 30
0.0
 10
34.2368985172
 20
251.9354290455
 30
0.0
 10
33.8888327678
 20
252.3999796838
 30
0.0
 10
33.4708927715
 20
252.783593729
 30
0.0
 10
32.9956469515
 20
253.0727675161
 30
0.0
 10
32.6486449723
 20
253.1959695363
 30
0.0
 10
32.4723632481
 20
253.2383501553
 30
0.0
  0
LINE
  5
3F9
100
AcDbEntity
  8
0
100
AcDbLine
 62
7
  6
CONTINUOUS
 10
32.4694179852
 20
253.2390072191
 11
31.9767643331
 21
253.3404060131
  0
LINE
  5
3FA
100
AcDbEntity
  8
0
100
AcDbLine
 62
7
  6
CONTINUOUS
 10
31.0575784451
 20
253.3872953022
 11
31.5502320973
 21
253.2858965082
  0
LINE
  5
3FB
100
AcDbEntity
  8
0
100
AcDbLine
 62
7
  6
CONTINUOUS
 10
31.0047513169
 20
246.2594409656
 11
30.5071210566
 21
246.2967349969
  0
LINE
  5
3FC
100
AcDbEntity
  8
0
100
AcDbLine
 62
7
  6
CONTINUOUS
 10
31.4263069446
 20
246.2498457078
 11
31.9239372049
 21
246.2125516766
  0
SPLINE
  5
3FD
100
AcDbEntity
  8
0
100
AcDbSpline
 62
7
  6
CONTINUOUS
 70
0
 71
3
 72
14
 73
10
 74
0
 42
0.0000001
 43
0.0000001
 44
0.0000000001
 40
0.0
 40
0.0
 40
0.0
 40
0.0
 40
0.3044147114
 40
0.4489463308
 40
0.5838574547
 40
0.7064989343
 40
0.8158223307
 40
0.9125775521
 40
1.0
 40
1.0
 40
1.0
 40
1.0
 10
31.6841944259
 20
252.961223121
 30
0.0
 10
31.6871487074
 20
252.9992778581
 30
0.0
 10
31.6859284319
 20
253.0561157711
 30
0.0
 10
31.6722331131
 20
253.1281516405
 30
0.0
 10
31.6567910073
 20
253.1763130755
 30
0.0
 10
31.6362745851
 20
253.2177113803
 30
0.0
 10
31.611421975
 20
253.25095651
 30
0.0
 10
31.5828297809
 20
253.2747822562
 30
0.0
 10
31.56096855
 20
253.2836866374
 30
0.0
 10
31.5502320973
 20
253.2858965082
 30
0.0
  0
SPLINE
  5
3FE
100
AcDbEntity
  8
0
100
AcDbSpline
 62
7
  6
CONTINUOUS
 70
0
 71
3
 72
18
 73
14
 74
0
 42
0.0000001
 43
0.0000001
 44
0.0000000001
 40
0.0
 40
0.0
 40
0.0
 40
0.0
 40
0.0579174412
 40
0.1159417572
 40
0.1742686152
 40
0.233092481
 40
0.2925775888
 40
0.3528598178
 40
0.4759870865
 40
0.6029503531
 40
0.7333401637
 40
0.8661557482
 40
1.0
 40
1.0
 40
1.0
 40
1.0
 10
31.3135324698
 20
253.4780268256
 30
0.0
 10
31.2053524927
 20
253.5002652646
 30
0.0
 10
30.9857362067
 20
253.5311728996
 30
0.0
 10
30.6526248852
 20
253.5357667769
 30
0.0
 10
30.3197815885
 20
253.4986432162
 30
0.0
 10
29.991320898
 20
253.4204399624
 30
0.0
 10
29.6710562727
 20
253.3022726697
 30
0.0
 10
29.2572046404
 20
253.0923547333
 30
0.0
 10
28.7779652808
 20
252.7364202725
 30
0.0
 10
28.2944963701
 20
252.1891272797
 30
0.0
 10
27.9164351393
 20
251.5431030644
 30
0.0
 10
27.6587773148
 20
250.826978569
 30
0.0
 10
27.5739508001
 20
250.3223776811
 30
0.0
 10
27.5541964222
 20
250.0679172798
 30
0.0
  0
SPLINE
  5
3FF
100
AcDbEntity
  8
0
100
AcDbSpline
 62
7
  6
CONTINUOUS
 70
0
 71
3
 72
14
 73
10
 74
0
 42
0.0000001
 43
0.0000001
 44
0.0000000001
 40
0.0
 40
0.0
 40
0.0
 40
0.0
 40
0.0880727346
 40
0.1829514764
 40
0.2894802393
 40
0.4097537614
 40
0.5434202002
 40
0.6884654828
 40
1.0
 40
1.0
 40
1.0
 40
1.0
 10
31.0047513169
 20
246.2594409656
 30
0.0
 10
31.0153765909
 20
246.2586447469
 30
0.0
 10
31.0379219922
 20
246.2611423152
 30
0.0
 10
31.0699316813
 20
246.2765772312
 30
0.0
 10
31.0995225662
 20
246.3024058151
 30
0.0
 10
31.1259514163
 20
246.3373897936
 30
0.0
 10
31.148508918
 20
246.380266833
 30
0.0
 10
31.1730748831
 20
246.4474681835
 30
0.0
 10
31.1827829234
 20
246.5024334482
 30
0.0
 10
31.1857000762
 20
246.5400099218
 30
0.0
  0
SPLINE
  5
400
100
AcDbEntity
  8
0
100
AcDbSpline
 62
7
  6
CONTINUOUS
 70
0
 71
3
 72
19
 73
15
 74
0
 42
0.0000001
 43
0.0000001
 44
0.0000000001
 40
0.0
 40
0.0
 40
0.0
 40
0.0
 40
0.1342650524
 40
0.2667674223
 40
0.3320932077
 40
0.3966295666
 40
0.4603133558
 40
0.5231120364
 40
0.6459353797
 40
0.765647162
 40
0.824689575
 40
0.883317671
 40
0.941700902
 40
1.0
 40
1.0
 40
1.0
 40
1.0
 10
27.5541964222
 20
250.0679172798
 30
0.0
 10
27.5362069743
 20
249.8361913232
 30
0.0
 10
27.5378860767
 20
249.3720180103
 30
0.0
 10
27.6355068973
 20
248.8025515212
 30
0.0
 10
27.7698535532
 20
248.3681681072
 30
0.0
 10
27.8970222844
 20
248.0576996694
 30
0.0
 10
28.0500313319
 20
247.7639970486
 30
0.0
 10
28.2848955012
 20
247.4013078261
 30
0.0
 10
28.6358721049
 20
247.0010777107
 30
0.0
 10
29.0576395359
 20
246.6860511073
 30
0.0
 10
29.4237182905
 20
246.4977608533
 30
0.0
 10
29.7093113494
 20
246.3894309894
 30
0.0
 10
30.0040999115
 20
246.3147302824
 30
0.0
 10
30.2048250057
 20
246.2878634481
 30
0.0
 10
30.3054573545
 20
246.2802459204
 30
0.0
  0
SPLINE
  5
401
100
AcDbEntity
  8
0
100
AcDbSpline
 62
7
  6
CONTINUOUS
 70
0
 71
3
 72
18
 73
14
 74
0
 42
0.0000001
 43
0.0000001
 44
0.0000000001
 40
0.0
 40
0.0
 40
0.0
 40
0.0
 40
0.0567838174
 40
0.1137046948
 40
0.1710292492
 40
0.2290006126
 40
0.2878254411
 40
0.3476642984
 40
0.4705829882
 40
0.5981695327
 40
0.7298280117
 40
0.8643196715
 40
1.0
 40
1.0
 40
1.0
 40
1.0
 10
31.3135319002
 20
253.4780236954
 30
0.0
 10
31.2082146465
 20
253.4996746188
 30
0.0
 10
30.9943224386
 20
253.5296665517
 30
0.0
 10
30.669680196
 20
253.5336308623
 30
0.0
 10
30.3448370379
 20
253.4965680517
 30
0.0
 10
30.0235781281
 20
253.4189358705
 30
0.0
 10
29.7095003988
 20
253.301647106
 30
0.0
 10
29.3016602201
 20
253.0925799734
 30
0.0
 10
28.8275167552
 20
252.7369227671
 30
0.0
 10
28.3476406321
 20
252.1890855839
 30
0.0
 10
27.9708722355
 20
251.5405870692
 30
0.0
 10
27.7133571408
 20
250.8204828052
 30
0.0
 10
27.6283406493
 20
250.3128190967
 30
0.0
 10
27.6084559635
 20
250.0566801726
 30
0.0
  0
SPLINE
  5
402
100
AcDbEntity
  8
0
100
AcDbSpline
 62
7
  6
CONTINUOUS
 70
0
 71
3
 72
15
 73
11
 74
0
 42
0.0000001
 43
0.0000001
 44
0.0000000001
 40
0.0
 40
0.0
 40
0.0
 40
0.0
 40
0.1141392883
 40
0.2304606379
 40
0.3500170504
 40
0.4733816949
 40
0.600633881
 40
0.7313861462
 40
0.8648559676
 40
1.0
 40
1.0
 40
1.0
 40
1.0
 10
32.6033803139
 20
252.914333832
 30
0.0
 10
32.7601448301
 20
252.8738041661
 30
0.0
 10
33.0688660753
 20
252.7579099898
 30
0.0
 10
33.4908416809
 20
252.4902027564
 30
0.0
 10
33.8621062834
 20
252.1365532404
 30
0.0
 10
34.1711691913
 20
251.7085732504
 30
0.0
 10
34.4090004845
 20
251.2198293735
 30
0.0
 10
34.5686445647
 20
250.6854693226
 30
0.0
 10
34.6455343197
 20
250.1220642601
 30
0.0
 10
34.6401250615
 20
249.7393898287
 30
0.0
 10
34.6233516703
 20
249.5484084625
 30
0.0
  0
SPLINE
  5
403
100
AcDbEntity
  8
0
100
AcDbSpline
 62
7
  6
CONTINUOUS
 70
0
 71
3
 72
13
 73
9
 74
0
 42
0.0000001
 43
0.0000001
 44
0.0000000001
 40
0.0
 40
0.0
 40
0.0
 40
0.0
 40
0.2655770187
 40
0.5236463557
 40
0.6481262938
 40
0.7688196905
 40
0.8858938766
 40
1.0
 40
1.0
 40
1.0
 40
1.0
 10
34.6233516703
 20
249.5484084625
 30
0.0
 10
34.5904539437
 20
249.1738358595
 30
0.0
 10
34.4184147006
 20
248.4404995594
 30
0.0
 10
33.9505966826
 20
247.6331168908
 30
0.0
 10
33.4529015725
 20
247.119083286
 30
0.0
 10
33.0360883317
 20
246.8154477638
 30
0.0
 10
32.5841669232
 20
246.599187731
 30
0.0
 10
32.2646531009
 20
246.5170955526
 30
0.0
 10
32.1048859642
 20
246.4931206328
 30
0.0
  0
SPLINE
  5
404
100
AcDbEntity
  8
0
100
AcDbSpline
 62
7
  6
CONTINUOUS
 70
0
 71
3
 72
14
 73
10
 74
0
 42
0.0000001
 43
0.0000001
 44
0.0000000001
 40
0.0
 40
0.0
 40
0.0
 40
0.0
 40
0.3051062556
 40
0.4485164405
 40
0.5822134738
 40
0.7040825884
 40
0.8134025263
 40
0.9110600163
 40
1.0
 40
1.0
 40
1.0
 40
1.0
 10
32.1048859642
 20
246.4931206328
 30
0.0
 10
32.1021739987
 20
246.4581872206
 30
0.0
 10
32.0934698887
 20
246.4069529862
 30
0.0
 10
32.0718143907
 20
246.3435837537
 30
0.0
 10
32.0519315976
 20
246.3021565627
 30
0.0
 10
32.0284848096
 20
246.2672167915
 30
0.0
 10
32.0020998553
 20
246.2398618392
 30
0.0
 10
31.9734904457
 20
246.220915951
 30
0.0
 10
31.9526376262
 20
246.2144533309
 30
0.0
 10
31.9425132609
 20
246.2131038736
 30
0.0
  0
SPLINE
  5
405
100
AcDbEntity
  8
0
100
AcDbSpline
 62
7
  6
CONTINUOUS
 70
0
 71
3
 72
13
 73
9
 74
0
 42
0.0000001
 43
0.0000001
 44
0.0000000001
 40
0.0
 40
0.0
 40
0.0
 40
0.0
 40
0.0877654774
 40
0.1850668252
 40
0.2948912048
 40
0.4178661689
 40
0.6964624901
 40
1.0
 40
1.0
 40
1.0
 40
1.0
 10
32.4723631701
 20
253.2383496125
 30
0.0
 10
32.4829714396
 20
253.2357954546
 30
0.0
 10
32.5044536166
 20
253.226291613
 30
0.0
 10
32.5324570269
 20
253.2020341382
 30
0.0
 10
32.5567634254
 20
253.1686173998
 30
0.0
 10
32.5845243945
 20
253.1111351937
 30
0.0
 10
32.6047796946
 20
253.0248280515
 30
0.0
 10
32.6063011577
 20
252.9519578505
 30
0.0
 10
32.6033803139
 20
252.914333832
 30
0.0
  0
SPLINE
  5
406
100
AcDbEntity
  8
0
100
AcDbSpline
 62
7
  6
CONTINUOUS
 70
0
 71
3
 72
13
 73
9
 74
0
 42
0.0000001
 43
0.0000001
 44
0.0000000001
 40
0.0
 40
0.0
 40
0.0
 40
0.0
 40
0.2655410157
 40
0.5225013099
 40
0.6466562123
 40
0.7674497402
 40
0.8850631672
 40
1.0
 40
1.0
 40
1.0
 40
1.0
 10
27.6084559635
 20
250.0566801726
 30
0.0
 10
27.5800357291
 20
249.6905930046
 30
0.0
 10
27.6152886212
 20
248.9597601857
 30
0.0
 10
27.894776793
 20
248.0974982249
 30
0.0
 10
28.2485199662
 20
247.4976823495
 30
0.0
 10
28.5675720242
 20
247.1081586637
 30
0.0
 10
28.9357778121
 20
246.7837397055
 30
0.0
 10
29.2113880184
 20
246.6143268948
 30
0.0
 10
29.3537016758
 20
246.5435678068
 30
0.0
  0
SPLINE
  5
407
100
AcDbEntity
  8
0
100
AcDbSpline
 62
7
  6
CONTINUOUS
 70
0
 71
3
 72
9
 73
5
 74
0
 42
0.0000001
 43
0.0000001
 44
0.0000000001
 40
0.0
 40
0.0
 40
0.0
 40
0.0
 40
0.2477978952
 40
1.0
 40
1.0
 40
1.0
 40
1.0
 10
31.3233156492
 20
248.3058048038
 30
0.0
 10
31.3460345247
 20
248.3088564135
 30
0.0
 10
31.437318606
 20
248.3240203528
 30
0.0
 10
31.5266621227
 20
248.3505609917
 30
0.0
 10
31.5913758912
 20
248.3761343992
 30
0.0
  0
SPLINE
  5
408
100
AcDbEntity
  8
0
100
AcDbSpline
 62
7
  6
CONTINUOUS
 70
0
 71
3
 72
15
 73
11
 74
0
 42
0.0000001
 43
0.0000001
 44
0.0000000001
 40
0.0
 40
0.0
 40
0.0
 40
0.0
 40
0.114208298
 40
0.230507713
 40
0.3499855207
 40
0.4732582426
 40
0.6004418844
 40
0.7311787738
 40
0.8647102154
 40
1.0
 40
1.0
 40
1.0
 40
1.0
 10
31.0047513169
 20
246.2594409656
 30
0.0
 10
30.8327928447
 20
246.3007799311
 30
0.0
 10
30.4936210334
 20
246.4216313502
 30
0.0
 10
30.0284173383
 20
246.7065024089
 30
0.0
 10
29.6177084314
 20
247.0863804398
 30
0.0
 10
29.2742699409
 20
247.5487082019
 30
0.0
 10
29.008168698
 20
248.0787473809
 30
0.0
 10
28.8272243205
 20
248.6600100238
 30
0.0
 10
28.7366427985
 20
249.2743993463
 30
0.0
 10
28.7382642148
 20
249.6924970449
 30
0.0
 10
28.7544796855
 20
249.9013720182
 30
0.0
  0
SPLINE
  5
409
100
AcDbEntity
  8
0
100
AcDbSpline
 62
7
  6
CONTINUOUS
 70
0
 71
3
 72
13
 73
9
 74
0
 42
0.0000001
 43
0.0000001
 44
0.0000000001
 40
0.0
 40
0.0
 40
0.0
 40
0.0
 40
0.2657417671
 40
0.5239694325
 40
0.6484505566
 40
0.769069655
 40
0.8860199219
 40
1.0
 40
1.0
 40
1.0
 40
1.0
 10
28.7544796855
 20
249.9013720182
 30
0.0
 10
28.7868587893
 20
250.3184542366
 30
0.0
 10
28.9723592504
 20
251.1361926353
 30
0.0
 10
29.4911829733
 20
252.0360011999
 30
0.0
 10
30.0461962214
 20
252.6063213042
 30
0.0
 10
30.5115395245
 20
252.9409901249
 30
0.0
 10
31.0160854396
 20
253.1761911785
 30
0.0
 10
31.3723678266
 20
253.2622426791
 30
0.0
 10
31.5502320973
 20
253.2858965082
 30
0.0
  0
SPLINE
  5
40A
100
AcDbEntity
  8
0
100
AcDbSpline
 62
7
  6
CONTINUOUS
 70
0
 71
3
 72
15
 73
11
 74
0
 42
0.0000001
 43
0.0000001
 44
0.0000000001
 40
0.0
 40
0.0
 40
0.0
 40
0.0
 40
0.1141392883
 40
0.2304606379
 40
0.3500170504
 40
0.4733816949
 40
0.600633881
 40
0.7313861462
 40
0.8648559676
 40
1.0
 40
1.0
 40
1.0
 40
1.0
 10
31.1857000762
 20
246.5400099218
 30
0.0
 10
31.0289355599
 20
246.5805395877
 30
0.0
 10
30.7202143147
 20
246.696433764
 30
0.0
 10
30.2982387092
 20
246.9641409974
 30
0.0
 10
29.9269741067
 20
247.3177905133
 30
0.0
 10
29.6179111988
 20
247.7457705034
 30
0.0
 10
29.3800799056
 20
248.2345143802
 30
0.0
 10
29.2204358253
 20
248.7688744312
 30
0.0
 10
29.1435460704
 20
249.3322794937
 30
0.0
 10
29.1489553286
 20
249.7149539251
 30
0.0
 10
29.1657287197
 20
249.9059352913
 30
0.0
  0
SPLINE
  5
40B
100
AcDbEntity
  8
0
100
AcDbSpline
 62
7
  6
CONTINUOUS
 70
0
 71
3
 72
13
 73
9
 74
0
 42
0.0000001
 43
0.0000001
 44
0.0000000001
 40
0.0
 40
0.0
 40
0.0
 40
0.0
 40
0.2655770187
 40
0.5236463557
 40
0.6481262938
 40
0.7688196905
 40
0.8858938766
 40
1.0
 40
1.0
 40
1.0
 40
1.0
 10
29.1657287197
 20
249.9059352913
 30
0.0
 10
29.1986264464
 20
250.2805078943
 30
0.0
 10
29.3706656895
 20
251.0138441944
 30
0.0
 10
29.8384837075
 20
251.821226863
 30
0.0
 10
30.3361788176
 20
252.3352604678
 30
0.0
 10
30.7529920584
 20
252.63889599
 30
0.0
 10
31.2049134669
 20
252.8551560228
 30
0.0
 10
31.5244272892
 20
252.9372482012
 30
0.0
 10
31.6841944259
 20
252.961223121
 30
0.0
  0
SPLINE
  5
40C
100
AcDbEntity
  8
0
100
AcDbSpline
 62
7
  6
CONTINUOUS
 70
0
 71
3
 72
9
 73
5
 74
0
 42
0.0000001
 43
0.0000001
 44
0.0000000001
 40
0.0
 40
0.0
 40
0.0
 40
0.0
 40
0.2511810962
 40
1.0
 40
1.0
 40
1.0
 40
1.0
 10
31.296450288
 20
248.7545201892
 30
0.0
 10
31.320774298
 20
248.7225541459
 30
0.0
 10
31.4180892455
 20
248.5956536363
 30
0.0
 10
31.5169070269
 20
248.4699120209
 30
0.0
 10
31.5913758912
 20
248.3761343992
 30
0.0
  0
SPLINE
  5
40D
100
AcDbEntity
  8
0
100
AcDbSpline
 62
7
  6
CONTINUOUS
 70
0
 71
3
 72
9
 73
5
 74
0
 42
0.0000001
 43
0.0000001
 44
0.0000000001
 40
0.0
 40
0.0
 40
0.0
 40
0.0
 40
0.5019445265
 40
1.0
 40
1.0
 40
1.0
 40
1.0
 10
31.6379341227
 20
249.841951647
 30
0.0
 10
31.6324100732
 20
249.770795174
 30
0.0
 10
31.6093836766
 20
249.6297150637
 30
0.0
 10
31.562878137
 20
249.4945107219
 30
0.0
 10
31.5340717975
 20
249.4298166206
 30
0.0
  0
SPLINE
  5
40E
100
AcDbEntity
  8
0
100
AcDbSpline
 62
7
  6
CONTINUOUS
 70
0
 71
3
 72
9
 73
5
 74
0
 42
0.0000001
 43
0.0000001
 44
0.0000000001
 40
0.0
 40
0.0
 40
0.0
 40
0.0
 40
0.4959208638
 40
1.0
 40
1.0
 40
1.0
 40
1.0
 10
31.5986288477
 20
250.2613899044
 30
0.0
 10
31.6172743018
 20
250.1940206218
 30
0.0
 10
31.6425203443
 20
250.054502397
 30
0.0
 10
31.6434335009
 20
249.912790324
 30
0.0
 10
31.6379341227
 20
249.841951647
 30
0.0
  0
SPLINE
  5
40F
100
AcDbEntity
  8
0
100
AcDbSpline
 62
7
  6
CONTINUOUS
 70
0
 71
3
 72
9
 73
5
 74
0
 42
0.0000001
 43
0.0000001
 44
0.0000000001
 40
0.0
 40
0.0
 40
0.0
 40
0.0
 40
0.2491533009
 40
1.0
 40
1.0
 40
1.0
 40
1.0
 10
31.8116953865
 20
251.2141173218
 30
0.0
 10
31.7868657345
 20
251.1938812106
 30
0.0
 10
31.6873492582
 20
251.1124911387
 30
0.0
 10
31.5884587234
 20
251.030330573
 30
0.0
 10
31.5147915171
 20
250.9679517346
 30
0.0
  0
SPLINE
  5
410
100
AcDbEntity
  8
0
100
AcDbSpline
 62
7
  6
CONTINUOUS
 70
0
 71
3
 72
9
 73
5
 74
0
 42
0.0000001
 43
0.0000001
 44
0.0000000001
 40
0.0
 40
0.0
 40
0.0
 40
0.0
 40
0.2532709335
 40
1.0
 40
1.0
 40
1.0
 40
1.0
 10
31.5986288477
 20
250.2613899044
 30
0.0
 10
31.5680842072
 20
250.2775560802
 30
0.0
 10
31.4476192536
 20
250.3416388788
 30
0.0
 10
31.3277869675
 20
250.4069333613
 30
0.0
 10
31.2390627924
 20
250.4570323241
 30
0.0
  0
SPLINE
  5
411
100
AcDbEntity
  8
0
100
AcDbSpline
 62
7
  6
CONTINUOUS
 70
0
 71
3
 72
9
 73
5
 74
0
 42
0.0000001
 43
0.0000001
 44
0.0000000001
 40
0.0
 40
0.0
 40
0.0
 40
0.0
 40
0.2518219697
 40
1.0
 40
1.0
 40
1.0
 40
1.0
 10
31.8116953865
 20
251.2141173218
 30
0.0
 10
31.7914279592
 20
251.2248645647
 30
0.0
 10
31.7096617414
 20
251.265072507
 30
0.0
 10
31.6228750949
 20
251.2951129081
 30
0.0
 10
31.5566265369
 20
251.3111326524
 30
0.0
  0
LINE
  5
412
100
AcDbEntity
  8
0
100
AcDbLine
 62
7
  6
CONTINUOUS
 10
33.6805574598
 20
250.1361283236
 11
31.8455328573
 21
250.1895877227
  0
SPLINE
  5
413
100
AcDbEntity
  8
0
100
AcDbSpline
 62
7
  6
CONTINUOUS
 70
0
 71
3
 72
9
 73
5
 74
0
 42
0.0000001
 43
0.0000001
 44
0.0000000001
 40
0.0
 40
0.0
 40
0.0
 40
0.0
 40
0.2502822993
 40
1.0
 40
1.0
 40
1.0
 40
1.0
 10
31.7885266569
 20
249.4533795212
 30
0.0
 10
31.9399241752
 20
249.427296317
 30
0.0
 10
32.5448101224
 20
249.3229589096
 30
0.0
 10
33.1496544911
 20
249.2183806942
 30
0.0
 10
33.6031124476
 20
249.1399501942
 30
0.0
  0
SPLINE
  5
414
100
AcDbEntity
  8
0
100
AcDbSpline
 62
7
  6
CONTINUOUS
 70
0
 71
3
 72
9
 73
5
 74
0
 42
0.0000001
 43
0.0000001
 44
0.0000000001
 40
0.0
 40
0.0
 40
0.0
 40
0.0
 40
0.2465631896
 40
1.0
 40
1.0
 40
1.0
 40
1.0
 10
31.1475890638
 20
249.2787395041
 30
0.0
 10
31.1791010957
 20
249.2917855651
 30
0.0
 10
31.3072477855
 20
249.3438732343
 30
0.0
 10
31.4364602915
 20
249.3932979709
 30
0.0
 10
31.5340717975
 20
249.4298166206
 30
0.0
  0
SPLINE
  5
415
100
AcDbEntity
  8
0
100
AcDbSpline
 62
7
  6
CONTINUOUS
 70
0
 71
3
 72
20
 73
16
 74
0
 42
0.0000001
 43
0.0000001
 44
0.0000000001
 40
0.0
 40
0.0
 40
0.0
 40
0.0
 40
0.0527859979
 40
0.1117095356
 40
0.1763665245
 40
0.2459440795
 40
0.3948277645
 40
0.5471735128
 40
0.6908579799
 40
0.7562118821
 40
0.8159005576
 40
0.8694870558
 40
0.9171655745
 40
0.9599859003
 40
1.0
 40
1.0
 40
1.0
 40
1.0
 10
48.3419165553
 20
263.7561185977
 30
0.0
 10
48.2774033646
 20
263.7933802185
 30
0.0
 10
48.149194789
 20
263.8869244223
 30
0.0
 10
47.9734358437
 20
264.0642462677
 30
0.0
 10
47.8078317385
 20
264.2816629399
 30
0.0
 10
47.601906834
 20
264.624825601
 30
0.0
 10
47.4001657159
 20
265.1112093392
 30
0.0
 10
47.259009508
 20
265.7257000978
 30
0.0
 10
47.2317913748
 20
266.2386610905
 30
0.0
 10
47.2741290157
 20
266.6163632039
 30
0.0
 10
47.3340048481
 20
266.8621142781
 30
0.0
 10
47.4215879133
 20
267.0729246733
 30
0.0
 10
47.5354767405
 20
267.2433934967
 30
0.0
 10
47.673958919
 20
267.3682561717
 30
0.0
 10
47.7824892666
 20
267.417682793
 30
0.0
 10
47.8370357607
 20
267.4323148599
 30
0.0
  0
SPLINE
  5
416
100
AcDbEntity
  8
0
100
AcDbSpline
 62
7
  6
CONTINUOUS
 70
0
 71
3
 72
9
 73
5
 74
0
 42
0.0000001
 43
0.0000001
 44
0.0000000001
 40
0.0
 40
0.0
 40
0.0
 40
0.0
 40
0.2405285629
 40
1.0
 40
1.0
 40
1.0
 40
1.0
 10
48.5111340081
 20
263.6798193372
 30
0.0
 10
48.4969570557
 20
263.6843997532
 30
0.0
 10
48.4385839411
 20
263.7051872653
 30
0.0
 10
48.3826522717
 20
263.7325904044
 30
0.0
 10
48.3419165553
 20
263.7561185977
 30
0.0
  0
SPLINE
  5
417
100
AcDbEntity
  8
0
100
AcDbSpline
 62
7
  6
CONTINUOUS
 70
0
 71
3
 72
10
 73
6
 74
0
 42
0.0000001
 43
0.0000001
 44
0.0000000001
 40
0.0
 40
0.0
 40
0.0
 40
0.0
 40
0.2316527322
 40
0.4715038873
 40
1.0
 40
1.0
 40
1.0
 40
1.0
 10
47.8370357607
 20
267.4323148599
 30
0.0
 10
47.874814242
 20
267.4424489166
 30
0.0
 10
47.9543451422
 20
267.4543351617
 30
0.0
 10
48.1238095439
 20
267.4424366437
 30
0.0
 10
48.2478272555
 20
267.3938042932
 30
0.0
 10
48.3258975194
 20
267.350583813
 30
0.0
  0
SPLINE
  5
418
100
AcDbEntity
  8
0
100
AcDbSpline
 62
7
  6
CONTINUOUS
 70
0
 71
3
 72
9
 73
5
 74
0
 42
0.0000001
 43
0.0000001
 44
0.0000000001
 40
0.0
 40
0.0
 40
0.0
 40
0.0
 40
0.4608932337
 40
1.0
 40
1.0
 40
1.0
 40
1.0
 10
48.3419165553
 20
267.3415235901
 30
0.0
 10
48.4453434404
 20
267.2817861421
 30
0.0
 10
48.6478492694
 20
267.1143290123
 30
0.0
 10
48.8081993993
 20
266.9089488163
 30
0.0
 10
48.8854119667
 20
266.7925164478
 30
0.0
  0
SPLINE
  5
419
100
AcDbEntity
  8
0
100
AcDbSpline
 62
7
  6
CONTINUOUS
 70
0
 71
3
 72
19
 73
15
 74
0
 42
0.0000001
 43
0.0000001
 44
0.0000000001
 40
0.0
 40
0.0
 40
0.0
 40
0.0
 40
0.0588114534
 40
0.1187979711
 40
0.1801543013
 40
0.2429366205
 40
0.3719719593
 40
0.503787363
 40
0.634738687
 40
0.7615555152
 40
0.8230266355
 40
0.8831186204
 40
0.9420156157
 40
1.0
 40
1.0
 40
1.0
 40
1.0
 10
-8.8729788344
 20
233.8855148
 30
0.0
 10
-9.1974187884
 20
234.4236532632
 30
0.0
 10
-9.7557750297
 20
235.5719631576
 30
0.0
 10
-10.299952938
 20
237.4264185865
 30
0.0
 10
-10.55706383
 20
239.3845246022
 30
0.0
 10
-10.5210178979
 20
242.0969866078
 30
0.0
 10
-9.7706811917
 20
245.5150964443
 30
0.0
 10
-7.8955081337
 20
249.3012110258
 30
0.0
 10
-5.1963059419
 20
252.5220325688
 30
0.0
 10
-2.3847077771
 20
254.5324479812
 30
0.0
 10
0.0625493455
 20
255.5811766215
 30
0.0
 10
1.938557913
 20
256.0621132828
 30
0.0
 10
3.8313516634
 20
256.2234797727
 30
0.0
 10
5.0830578458
 20
256.1067408673
 30
0.0
 10
5.6917636707
 20
255.9913984289
 30
0.0
  0
SPLINE
  5
41A
100
AcDbEntity
  8
0
100
AcDbSpline
 62
7
  6
CONTINUOUS
 70
0
 71
3
 72
9
 73
5
 74
0
 42
0.0000001
 43
0.0000001
 44
0.0000000001
 40
0.0
 40
0.0
 40
0.0
 40
0.0
 40
0.2488776109
 40
1.0
 40
1.0
 40
1.0
 40
1.0
 10
-7.3402879312
 20
231.9306718971
 30
0.0
 10
-7.4869791447
 20
232.0758374263
 30
0.0
 10
-8.0577293997
 20
232.6777646141
 30
0.0
 10
-8.551389641
 20
233.3521048046
 30
0.0
 10
-8.8729788344
 20
233.8855148
 30
0.0
  0
SPLINE
  5
41B
100
AcDbEntity
  8
0
100
AcDbSpline
 62
7
  6
CONTINUOUS
 70
0
 71
3
 72
11
 73
7
 74
0
 42
0.0000001
 43
0.0000001
 44
0.0000000001
 40
0.0
 40
0.0
 40
0.0
 40
0.0
 40
0.2411424283
 40
0.4884495292
 40
0.7417736335
 40
1.0
 40
1.0
 40
1.0
 40
1.0
 10
-7.2631528322
 20
243.6484747727
 30
0.0
 10
-7.3443274379
 20
242.6347998207
 30
0.0
 10
-7.4729461007
 20
240.5784029546
 30
0.0
 10
-7.5390617915
 20
237.4500254554
 30
0.0
 10
-7.4698736362
 20
234.2497205636
 30
0.0
 10
-7.3427592826
 20
232.0957642995
 30
0.0
 10
-7.2631528322
 20
231.0097134075
 30
0.0
  0
SPLINE
  5
41C
100
AcDbEntity
  8
0
100
AcDbSpline
 62
7
  6
CONTINUOUS
 70
0
 71
3
 72
9
 73
5
 74
0
 42
0.0000001
 43
0.0000001
 44
0.0000000001
 40
0.0
 40
0.0
 40
0.0
 40
0.0
 40
0.2452798743
 40
1.0
 40
1.0
 40
1.0
 40
1.0
 10
6.4121034649
 20
256.097018806
 30
0.0
 10
6.1982887312
 20
256.0621040312
 30
0.0
 10
5.330326237
 20
255.8972862514
 30
0.0
 10
4.4795998698
 20
255.6444363833
 30
0.0
 10
3.8549801536
 20
255.4115678825
 30
0.0
  0
SPLINE
  5
41D
100
AcDbEntity
  8
0
100
AcDbSpline
 62
7
  6
CONTINUOUS
 70
0
 71
3
 72
11
 73
7
 74
0
 42
0.0000001
 43
0.0000001
 44
0.0000000001
 40
0.0
 40
0.0
 40
0.0
 40
0.0
 40
0.2546272404
 40
0.5066601154
 40
0.7552231618
 40
1.0
 40
1.0
 40
1.0
 40
1.0
 10
3.8549801536
 20
255.4115678825
 30
0.0
 10
2.9622832623
 20
254.717842219
 30
0.0
 10
1.2071565463
 20
253.3097700816
 30
0.0
 10
-1.3234712169
 20
251.108182212
 30
0.0
 10
-3.7215401753
 20
248.8258288086
 30
0.0
 10
-5.2434377503
 20
247.2495415267
 30
0.0
 10
-5.9845911765
 20
246.4546361577
 30
0.0
  0
SPLINE
  5
41E
100
AcDbEntity
  8
0
100
AcDbSpline
 62
7
  6
CONTINUOUS
 70
0
 71
3
 72
9
 73
5
 74
0
 42
0.0000001
 43
0.0000001
 44
0.0000000001
 40
0.0
 40
0.0
 40
0.0
 40
0.0
 40
0.2534198194
 40
1.0
 40
1.0
 40
1.0
 40
1.0
 10
-8.5085944499
 20
233.5151384779
 30
0.0
 10
-8.4241357134
 20
233.375049398
 30
0.0
 10
-8.0766653171
 20
232.830977461
 30
0.0
 10
-7.6717370534
 20
232.3232861621
 30
0.0
 10
-7.3404763099
 20
231.9732831735
 30
0.0
  0
SPLINE
  5
41F
100
AcDbEntity
  8
0
100
AcDbSpline
 62
7
  6
CONTINUOUS
 70
0
 71
3
 72
19
 73
15
 74
0
 42
0.0000001
 43
0.0000001
 44
0.0000000001
 40
0.0
 40
0.0
 40
0.0
 40
0.0
 40
0.0542671543
 40
0.1106173464
 40
0.169344838
 40
0.2305104267
 40
0.3591115351
 40
0.4935996687
 40
0.6292561215
 40
0.7610701932
 40
0.8243416848
 40
0.8853073347
 40
0.9438280986
 40
1.0
 40
1.0
 40
1.0
 40
1.0
 10
5.5504100779
 20
255.9551698048
 30
0.0
 10
4.9945062526
 20
256.0300119048
 30
0.0
 10
3.8446910415
 20
256.0755236193
 30
0.0
 10
2.1024634256
 20
255.8407963493
 30
0.0
 10
0.3515653995
 20
255.3117504575
 30
0.0
 10
-1.9790440216
 20
254.2141970904
 30
0.0
 10
-4.6882629835
 20
252.173791469
 30
0.0
 10
-7.3263383833
 20
248.961803501
 30
0.0
 10
-9.198663754
 20
245.2144891449
 30
0.0
 10
-9.9988827955
 20
241.8530291653
 30
0.0
 10
-10.1088694812
 20
239.2019650112
 30
0.0
 10
-9.9291158154
 20
237.3148695116
 30
0.0
 10
-9.4914951472
 20
235.5458339613
 30
0.0
 10
-9.0233571179
 20
234.4494652194
 30
0.0
 10
-8.7490056747
 20
233.9377660792
 30
0.0
  0
SPLINE
  5
420
100
AcDbEntity
  8
0
100
AcDbSpline
 62
7
  6
CONTINUOUS
 70
0
 71
3
 72
9
 73
5
 74
0
 42
0.0000001
 43
0.0000001
 44
0.0000000001
 40
0.0
 40
0.0
 40
0.0
 40
0.0
 40
0.5030187451
 40
1.0
 40
1.0
 40
1.0
 40
1.0
 10
79.9514495218
 20
210.3641277637
 30
0.0
 10
79.1396032644
 20
210.1465079233
 30
0.0
 10
77.4794007009
 20
209.8688996934
 30
0.0
 10
75.7965055331
 20
209.9311111453
 30
0.0
 10
74.9741189115
 20
210.0463341359
 30
0.0
  0
SPLINE
  5
421
100
AcDbEntity
  8
0
100
AcDbSpline
 62
7
  6
CONTINUOUS
 70
0
 71
3
 72
13
 73
9
 74
0
 42
0.0000001
 43
0.0000001
 44
0.0000000001
 40
0.0
 40
0.0
 40
0.0
 40
0.0
 40
0.2680788584
 40
0.5231814067
 40
0.6459682709
 40
0.7658127161
 40
0.8834853795
 40
1.0
 40
1.0
 40
1.0
 40
1.0
 10
65.5640108171
 20
228.6282513501
 30
0.0
 10
65.6512887357
 20
228.0459716571
 30
0.0
 10
65.97063028
 20
226.9251707363
 30
0.0
 10
66.7436371351
 20
225.7074445953
 30
0.0
 10
67.5381789979
 20
224.9500199611
 30
0.0
 10
68.1983054662
 20
224.5061950425
 30
0.0
 10
68.9136814603
 20
224.1913912419
 30
0.0
 10
69.4176674973
 20
224.0726482415
 30
0.0
 10
69.6710939303
 20
224.037137386
 30
0.0
  0
SPLINE
  5
422
100
AcDbEntity
  8
0
100
AcDbSpline
 62
7
  6
CONTINUOUS
 70
0
 71
3
 72
13
 73
9
 74
0
 42
0.0000001
 43
0.0000001
 44
0.0000000001
 40
0.0
 40
0.0
 40
0.0
 40
0.0
 40
0.2680788584
 40
0.5231814067
 40
0.6459682709
 40
0.7658127161
 40
0.8834853795
 40
1.0
 40
1.0
 40
1.0
 40
1.0
 10
78.0910544573
 20
231.9861940797
 30
0.0
 10
78.1783323759
 20
231.4039143866
 30
0.0
 10
78.4976739202
 20
230.2831134658
 30
0.0
 10
79.2706807753
 20
229.0653873248
 30
0.0
 10
80.0652226381
 20
228.3079626906
 30
0.0
 10
80.7253491064
 20
227.864137772
 30
0.0
 10
81.4407251005
 20
227.5493339714
 30
0.0
 10
81.9447111375
 20
227.430590971
 30
0.0
 10
82.1981375705
 20
227.3950801155
 30
0.0
  0
SPLINE
  5
423
100
AcDbEntity
  8
0
100
AcDbSpline
 62
7
  6
CONTINUOUS
 70
0
 71
3
 72
13
 73
9
 74
0
 42
0.0000001
 43
0.0000001
 44
0.0000000001
 40
0.0
 40
0.0
 40
0.0
 40
0.0
 40
0.1126084257
 40
0.227816271
 40
0.3475015298
 40
0.4724025418
 40
0.7336674034
 40
1.0
 40
1.0
 40
1.0
 40
1.0
 10
78.1504754285
 20
223.0338070248
 30
0.0
 10
77.8833426115
 20
223.0712170546
 30
0.0
 10
77.3288513669
 20
223.0684531464
 30
0.0
 10
76.5210324563
 20
222.8300550849
 30
0.0
 10
75.7780229826
 20
222.3751030605
 30
0.0
 10
74.9181538166
 20
221.5075004607
 30
0.0
 10
74.2185244528
 20
220.0567432779
 30
0.0
 10
74.147068515
 20
218.7566871434
 30
0.0
 10
74.2416369558
 20
218.1257683088
 30
0.0
  0
SPLINE
  5
424
100
AcDbEntity
  8
0
100
AcDbSpline
 62
7
  6
CONTINUOUS
 70
0
 71
3
 72
11
 73
7
 74
0
 42
0.0000001
 43
0.0000001
 44
0.0000000001
 40
0.0
 40
0.0
 40
0.0
 40
0.0
 40
0.2412226829
 40
0.4864004876
 40
0.7387081592
 40
1.0
 40
1.0
 40
1.0
 40
1.0
 10
80.7441702312
 20
236.8095130366
 30
0.0
 10
80.5707484591
 20
236.83378358
 30
0.0
 10
80.2137634463
 20
236.8406530276
 30
0.0
 10
79.6856389613
 20
236.7239734237
 30
0.0
 10
79.1838835093
 20
236.4866121328
 30
0.0
 10
78.8851593703
 20
236.2585684681
 30
0.0
 10
78.7460822058
 20
236.1295865373
 30
0.0
  0
SPLINE
  5
425
100
AcDbEntity
  8
0
100
AcDbSpline
 62
7
  6
CONTINUOUS
 70
0
 71
3
 72
15
 73
11
 74
0
 42
0.0000001
 43
0.0000001
 44
0.0000000001
 40
0.0
 40
0.0
 40
0.0
 40
0.0
 40
0.1122972696
 40
0.2271858423
 40
0.3465390819
 40
0.4710941883
 40
0.6004023262
 40
0.7330563344
 40
0.8670054514
 40
1.0
 40
1.0
 40
1.0
 40
1.0
 10
83.8547101398
 20
239.2232136961
 30
0.0
 10
83.4608223281
 20
239.2784064121
 30
0.0
 10
82.64321919
 20
239.2742985242
 30
0.0
 10
81.4520522527
 20
238.9227351752
 30
0.0
 10
80.3566236571
 20
238.2520988349
 30
0.0
 10
79.4180183937
 20
237.3048319608
 30
0.0
 10
78.6852231312
 20
236.1362415298
 30
0.0
 10
78.1968127201
 20
234.811448104
 30
0.0
 10
77.9782515806
 20
233.4041886548
 30
0.0
 10
78.0212300088
 20
232.4520319355
 30
0.0
 10
78.0910544573
 20
231.9861940797
 30
0.0
  0
SPLINE
  5
426
100
AcDbEntity
  8
0
100
AcDbSpline
 62
7
  6
CONTINUOUS
 70
0
 71
3
 72
11
 73
7
 74
0
 42
0.0000001
 43
0.0000001
 44
0.0000000001
 40
0.0
 40
0.0
 40
0.0
 40
0.0
 40
0.2411950144
 40
0.4863593797
 40
0.7386763833
 40
1.0
 40
1.0
 40
1.0
 40
1.0
 10
68.2190090017
 20
233.4520748976
 30
0.0
 10
68.0452505568
 20
233.4763925587
 30
0.0
 10
67.687544709
 20
233.4831916841
 30
0.0
 10
67.1584208821
 20
233.3659111742
 30
0.0
 10
66.6558570901
 20
233.127510087
 30
0.0
 10
66.3568063504
 20
232.8985576456
 30
0.0
 10
66.2176218927
 20
232.7690841423
 30
0.0
  0
SPLINE
  5
427
100
AcDbEntity
  8
0
100
AcDbSpline
 62
7
  6
CONTINUOUS
 70
0
 71
3
 72
15
 73
11
 74
0
 42
0.0000001
 43
0.0000001
 44
0.0000000001
 40
0.0
 40
0.0
 40
0.0
 40
0.0
 40
0.1122972696
 40
0.2271858423
 40
0.3465390819
 40
0.4710941883
 40
0.6004023262
 40
0.7330563344
 40
0.8670054514
 40
1.0
 40
1.0
 40
1.0
 40
1.0
 10
71.3276664996
 20
235.8652709665
 30
0.0
 10
70.9337786879
 20
235.9204636826
 30
0.0
 10
70.1161755498
 20
235.9163557946
 30
0.0
 10
68.9250086126
 20
235.5647924457
 30
0.0
 10
67.829580017
 20
234.8941561054
 30
0.0
 10
66.8909747535
 20
233.9468892313
 30
0.0
 10
66.158179491
 20
232.7782988003
 30
0.0
 10
65.6697690799
 20
231.4535053745
 30
0.0
 10
65.4512079404
 20
230.0462459253
 30
0.0
 10
65.4941863686
 20
229.094089206
 30
0.0
 10
65.5640108171
 20
228.6282513501
 30
0.0
  0
SPLINE
  5
428
100
AcDbEntity
  8
0
100
AcDbSpline
 62
7
  6
CONTINUOUS
 70
0
 71
3
 72
11
 73
7
 74
0
 42
0.0000001
 43
0.0000001
 44
0.0000000001
 40
0.0
 40
0.0
 40
0.0
 40
0.0
 40
0.2614954063
 40
0.5138793367
 40
0.7589628969
 40
1.0
 40
1.0
 40
1.0
 40
1.0
 10
65.5947838277
 20
228.4423220372
 30
0.0
 10
65.6928292319
 20
228.2766353866
 30
0.0
 10
65.9178656942
 20
227.9686789771
 30
0.0
 10
66.3384293292
 20
227.5941130449
 30
0.0
 10
66.8196849159
 20
227.3309778385
 30
0.0
 10
67.1694560454
 20
227.2375939298
 30
0.0
 10
67.3452037483
 20
227.2129978702
 30
0.0
  0
SPLINE
  5
429
100
AcDbEntity
  8
0
100
AcDbSpline
 62
7
  6
CONTINUOUS
 70
0
 71
3
 72
11
 73
7
 74
0
 42
0.0000001
 43
0.0000001
 44
0.0000000001
 40
0.0
 40
0.0
 40
0.0
 40
0.0
 40
0.2614382872
 40
0.5138046265
 40
0.7589124457
 40
1.0
 40
1.0
 40
1.0
 40
1.0
 10
78.1241510447
 20
231.7926748233
 30
0.0
 10
78.2222667452
 20
231.6279092125
 30
0.0
 10
78.4472013663
 20
231.3217203465
 30
0.0
 10
78.8668855488
 20
230.9494044857
 30
0.0
 10
79.3466933039
 20
230.6878407116
 30
0.0
 10
79.6952326204
 20
230.5949459506
 30
0.0
 10
79.8703649778
 20
230.5704360092
 30
0.0
  0
SPLINE
  5
42A
100
AcDbEntity
  8
0
100
AcDbSpline
 62
7
  6
CONTINUOUS
 70
0
 71
3
 72
11
 73
7
 74
0
 42
0.0000001
 43
0.0000001
 44
0.0000000001
 40
0.0
 40
0.0
 40
0.0
 40
0.0
 40
0.2685754896
 40
0.5241420781
 40
0.7663548172
 40
1.0
 40
1.0
 40
1.0
 40
1.0
 10
74.2416369558
 20
218.1257683088
 30
0.0
 10
74.3008283397
 20
217.7308695605
 30
0.0
 10
74.5177405996
 20
216.9704601481
 30
0.0
 10
75.1370637143
 20
215.9937729761
 30
0.0
 10
75.9948763662
 20
215.2927013642
 30
0.0
 10
76.6829938201
 20
215.060328149
 30
0.0
 10
77.0270135895
 20
215.0121506544
 30
0.0
  0
SPLINE
  5
42B
100
AcDbEntity
  8
0
100
AcDbSpline
 62
7
  6
CONTINUOUS
 70
0
 71
3
 72
23
 73
19
 74
0
 42
0.0000001
 43
0.0000001
 44
0.0000000001
 40
0.0
 40
0.0
 40
0.0
 40
0.0
 40
0.0563096029
 40
0.1133378113
 40
0.1716945502
 40
0.2317916509
 40
0.2938065667
 40
0.3576785656
 40
0.4231357978
 40
0.4897392737
 40
0.5569358628
 40
0.6241154834
 40
0.6906697158
 40
0.7560505374
 40
0.8198252513
 40
0.8817345369
 40
0.9417276292
 40
1.0
 40
1.0
 40
1.0
 40
1.0
 10
79.8286100819
 20
244.7080015076
 30
0.0
 10
80.6741263525
 20
244.5895378668
 30
0.0
 10
82.3559720379
 20
244.1702980939
 30
0.0
 10
84.7129226554
 20
243.0248080412
 30
0.0
 10
86.8411020672
 20
241.399617328
 30
0.0
 10
88.6748019793
 20
239.3480824957
 30
0.0
 10
90.1607209274
 20
236.9350661377
 30
0.0
 10
91.2559897737
 20
234.234874597
 30
0.0
 10
91.9294130084
 20
231.3293686667
 30
0.0
 10
92.1619251503
 20
228.3059693179
 30
0.0
 10
91.9472063824
 20
225.2553715774
 30
0.0
 10
91.2918926165
 20
222.2690195483
 30
0.0
 10
90.2154320367
 20
219.4364827584
 30
0.0
 10
88.749424963
 20
216.8429427094
 30
0.0
 10
86.9369454097
 20
214.5667728632
 30
0.0
 10
84.8305788852
 20
212.6775793528
 30
0.0
 10
82.4937675291
 20
211.2346147227
 30
0.0
 10
80.8048557088
 20
210.5928879711
 30
0.0
 10
79.9514495218
 20
210.3641277637
 30
0.0
  0
SPLINE
  5
42C
100
AcDbEntity
  8
0
100
AcDbSpline
 62
7
  6
CONTINUOUS
 70
0
 71
3
 72
9
 73
5
 74
0
 42
0.0000001
 43
0.0000001
 44
0.0000000001
 40
0.0
 40
0.0
 40
0.0
 40
0.0
 40
0.5030187451
 40
1.0
 40
1.0
 40
1.0
 40
1.0
 10
74.8512794716
 20
244.3902078798
 30
0.0
 10
75.663125729
 20
244.6078277202
 30
0.0
 10
77.3233282925
 20
244.8854359501
 30
0.0
 10
79.0062234603
 20
244.8232244983
 30
0.0
 10
79.8286100819
 20
244.7080015076
 30
0.0
  0
SPLINE
  5
42D
100
AcDbEntity
  8
0
100
AcDbSpline
 62
7
  6
CONTINUOUS
 70
0
 71
3
 72
13
 73
9
 74
0
 42
0.0000001
 43
0.0000001
 44
0.0000000001
 40
0.0
 40
0.0
 40
0.0
 40
0.0
 40
0.2680788584
 40
0.5231814067
 40
0.6459682709
 40
0.7658127161
 40
0.8834853795
 40
1.0
 40
1.0
 40
1.0
 40
1.0
 10
87.961793253
 20
234.6320997319
 30
0.0
 10
87.8745153344
 20
235.214379425
 30
0.0
 10
87.5551737901
 20
236.3351803458
 30
0.0
 10
86.782166935
 20
237.5529064868
 30
0.0
 10
85.9876250722
 20
238.310331121
 30
0.0
 10
85.3274986039
 20
238.7541560396
 30
0.0
 10
84.6121226098
 20
239.0689598402
 30
0.0
 10
84.1081365728
 20
239.1877028406
 30
0.0
 10
83.8547101398
 20
239.2232136961
 30
0.0
  0
SPLINE
  5
42E
100
AcDbEntity
  8
0
100
AcDbSpline
 62
7
  6
CONTINUOUS
 70
0
 71
3
 72
20
 73
16
 74
0
 42
0.0000001
 43
0.0000001
 44
0.0000000001
 40
0.0
 40
0.0
 40
0.0
 40
0.0
 40
0.1300027718
 40
0.1922040414
 40
0.2522675143
 40
0.3105435057
 40
0.3676944388
 40
0.4245964115
 40
0.4821749192
 40
0.5412242274
 40
0.6022679128
 40
0.6654925114
 40
0.730750213
 40
0.8649643948
 40
1.0
 40
1.0
 40
1.0
 40
1.0
 10
73.6764068372
 20
217.5303703332
 30
0.0
 10
73.7883517619
 20
216.7835232792
 30
0.0
 10
74.1416511481
 20
215.6909471799
 30
0.0
 10
74.9728882988
 20
214.4751094898
 30
0.0
 10
75.7328143979
 20
213.7405711707
 30
0.0
 10
76.6091465818
 20
213.2032326653
 30
0.0
 10
77.5681350056
 20
212.8854972059
 30
0.0
 10
78.5709429877
 20
212.801472943
 30
0.0
 10
79.5763938029
 20
212.9542266704
 30
0.0
 10
80.5441157729
 20
213.3360951723
 30
0.0
 10
81.436795137
 20
213.9301072445
 30
0.0
 10
82.2213628154
 20
214.7121088215
 30
0.0
 10
83.0918679553
 20
215.9742379008
 30
0.0
 10
83.7605738558
 20
217.8389462497
 30
0.0
 10
83.7926858591
 20
219.4351653006
 30
0.0
 10
83.6764071813
 20
220.2109252522
 30
0.0
  0
SPLINE
  5
42F
100
AcDbEntity
  8
0
100
AcDbSpline
 62
7
  6
CONTINUOUS
 70
0
 71
3
 72
20
 73
16
 74
0
 42
0.0000001
 43
0.0000001
 44
0.0000000001
 40
0.0
 40
0.0
 40
0.0
 40
0.0
 40
0.1300027718
 40
0.1922040414
 40
0.2522675143
 40
0.3105435057
 40
0.3676944388
 40
0.4245964115
 40
0.4821749192
 40
0.5412242274
 40
0.6022679128
 40
0.6654925114
 40
0.730750213
 40
0.8649643948
 40
1.0
 40
1.0
 40
1.0
 40
1.0
 10
83.6764071813
 20
220.2109252522
 30
0.0
 10
83.5644622584
 20
220.9577723065
 30
0.0
 10
83.21116287
 20
222.0503484055
 30
0.0
 10
82.3799257198
 20
223.2661860957
 30
0.0
 10
81.6199996206
 20
224.0007244147
 30
0.0
 10
80.7436674367
 20
224.5380629201
 30
0.0
 10
79.7846790129
 20
224.8557983795
 30
0.0
 10
78.7818710308
 20
224.9398226424
 30
0.0
 10
77.7764202156
 20
224.7870689151
 30
0.0
 10
76.8086982456
 20
224.4052004131
 30
0.0
 10
75.9160188815
 20
223.8111883409
 30
0.0
 10
75.1314512031
 20
223.029186764
 30
0.0
 10
74.2609460631
 20
221.7670576846
 30
0.0
 10
73.5922401635
 20
219.9023493358
 30
0.0
 10
73.5601281576
 20
218.3061302845
 30
0.0
 10
73.6764068372
 20
217.5303703332
 30
0.0
  0
SPLINE
  5
430
100
AcDbEntity
  8
0
100
AcDbSpline
 62
7
  6
CONTINUOUS
 70
0
 71
3
 72
13
 73
9
 74
0
 42
0.0000001
 43
0.0000001
 44
0.0000000001
 40
0.0
 40
0.0
 40
0.0
 40
0.0
 40
0.1126067443
 40
0.2278114863
 40
0.3474939257
 40
0.4723925327
 40
0.7336572713
 40
1.0
 40
1.0
 40
1.0
 40
1.0
 10
79.8703649778
 20
230.5704360092
 30
0.0
 10
80.0781346359
 20
230.5413584463
 30
0.0
 10
80.5093928665
 20
230.5434806774
 30
0.0
 10
81.1376858145
 20
230.7289044023
 30
0.0
 10
81.7155714639
 20
231.0827399421
 30
0.0
 10
82.3843641073
 20
231.7575235187
 30
0.0
 10
82.9285527521
 20
232.8858932173
 30
0.0
 10
82.9841295698
 20
233.8970712134
 30
0.0
 10
82.9105734792
 20
234.3878049357
 30
0.0
  0
SPLINE
  5
431
100
AcDbEntity
  8
0
100
AcDbSpline
 62
7
  6
CONTINUOUS
 70
0
 71
3
 72
13
 73
9
 74
0
 42
0.0000001
 43
0.0000001
 44
0.0000000001
 40
0.0
 40
0.0
 40
0.0
 40
0.0
 40
0.2617707759
 40
0.521441147
 40
0.6473487425
 40
0.7690714433
 40
0.8864351554
 40
1.0
 40
1.0
 40
1.0
 40
1.0
 10
72.7155933621
 20
231.6549846195
 30
0.0
 10
72.8345588108
 20
230.8612997333
 30
0.0
 10
72.7919260612
 20
229.2276315754
 30
0.0
 10
72.0740653112
 20
227.332493494
 30
0.0
 10
71.1491902204
 20
226.0720615253
 30
0.0
 10
70.321267032
 20
225.3078200381
 30
0.0
 10
69.386363788
 20
224.7492701305
 30
0.0
 10
68.7061560883
 20
224.5275594522
 30
0.0
 10
68.3646290403
 20
224.4598545699
 30
0.0
  0
SPLINE
  5
432
100
AcDbEntity
  8
0
100
AcDbSpline
 62
7
  6
CONTINUOUS
 70
0
 71
3
 72
11
 73
7
 74
0
 42
0.0000001
 43
0.0000001
 44
0.0000000001
 40
0.0
 40
0.0
 40
0.0
 40
0.0
 40
0.2352692755
 40
0.4800177702
 40
0.7353274345
 40
1.0
 40
1.0
 40
1.0
 40
1.0
 10
82.4564511037
 20
239.1888545258
 30
0.0
 10
82.8206612889
 20
239.0050857483
 30
0.0
 10
83.5137425036
 20
238.5230561373
 30
0.0
 10
84.3468429165
 20
237.5414639426
 30
0.0
 10
84.949850289
 20
236.3480490971
 30
0.0
 10
85.1746079248
 20
235.4667872833
 30
0.0
 10
85.2426370023
 20
235.012927349
 30
0.0
  0
SPLINE
  5
433
100
AcDbEntity
  8
0
100
AcDbSpline
 62
7
  6
CONTINUOUS
 70
0
 71
3
 72
11
 73
7
 74
0
 42
0.0000001
 43
0.0000001
 44
0.0000000001
 40
0.0
 40
0.0
 40
0.0
 40
0.0
 40
0.2685826371
 40
0.5241452025
 40
0.7663561843
 40
1.0
 40
1.0
 40
1.0
 40
1.0
 10
70.3854122497
 20
231.0303667967
 30
0.0
 10
70.3393734266
 20
231.3375174734
 30
0.0
 10
70.1706746625
 20
231.9289553823
 30
0.0
 10
69.6889307971
 20
232.6885719124
 30
0.0
 10
69.0217707878
 20
233.23384174
 30
0.0
 10
68.4865808988
 20
233.4146279539
 30
0.0
 10
68.2190090017
 20
233.4520748976
 30
0.0
  0
SPLINE
  5
434
100
AcDbEntity
  8
0
100
AcDbSpline
 62
7
  6
CONTINUOUS
 70
0
 71
3
 72
15
 73
11
 74
0
 42
0.0000001
 43
0.0000001
 44
0.0000000001
 40
0.0
 40
0.0
 40
0.0
 40
0.0
 40
0.1122972696
 40
0.2271858423
 40
0.3465390819
 40
0.4710941883
 40
0.6004023262
 40
0.7330563344
 40
0.8670054514
 40
1.0
 40
1.0
 40
1.0
 40
1.0
 10
82.1981375705
 20
227.3950801155
 30
0.0
 10
82.5920253822
 20
227.3398873994
 30
0.0
 10
83.4096285203
 20
227.3439952874
 30
0.0
 10
84.6007954576
 20
227.6955586364
 30
0.0
 10
85.6962240532
 20
228.3661949767
 30
0.0
 10
86.6348293167
 20
229.3134618507
 30
0.0
 10
87.3676245791
 20
230.4820522817
 30
0.0
 10
87.8560349902
 20
231.8068457076
 30
0.0
 10
88.0745961297
 20
233.2141051567
 30
0.0
 10
88.0316177016
 20
234.1662618761
 30
0.0
 10
87.961793253
 20
234.6320997319
 30
0.0
  0
SPLINE
  5
435
100
AcDbEntity
  8
0
100
AcDbSpline
 62
7
  6
CONTINUOUS
 70
0
 71
3
 72
13
 73
9
 74
0
 42
0.0000001
 43
0.0000001
 44
0.0000000001
 40
0.0
 40
0.0
 40
0.0
 40
0.0
 40
0.2617707759
 40
0.521441147
 40
0.6473487425
 40
0.7690714433
 40
0.8864351554
 40
1.0
 40
1.0
 40
1.0
 40
1.0
 10
85.2426370023
 20
235.012927349
 30
0.0
 10
85.361602451
 20
234.2192424628
 30
0.0
 10
85.3189697014
 20
232.5855743049
 30
0.0
 10
84.6011089514
 20
230.6904362235
 30
0.0
 10
83.6762338606
 20
229.4300042548
 30
0.0
 10
82.8483106722
 20
228.6657627676
 30
0.0
 10
81.9134074282
 20
228.10721286
 30
0.0
 10
81.2331997285
 20
227.8855021817
 30
0.0
 10
80.8916726805
 20
227.8177972994
 30
0.0
  0
SPLINE
  5
436
100
AcDbEntity
  8
0
100
AcDbSpline
 62
7
  6
CONTINUOUS
 70
0
 71
3
 72
11
 73
7
 74
0
 42
0.0000001
 43
0.0000001
 44
0.0000000001
 40
0.0
 40
0.0
 40
0.0
 40
0.0
 40
0.2685826371
 40
0.5241452025
 40
0.7663561843
 40
1.0
 40
1.0
 40
1.0
 40
1.0
 10
82.9105734792
 20
234.3878049357
 30
0.0
 10
82.8645346561
 20
234.6949556124
 30
0.0
 10
82.695835892
 20
235.2863935213
 30
0.0
 10
82.2140920266
 20
236.0460100514
 30
0.0
 10
81.5469320172
 20
236.591279879
 30
0.0
 10
81.0117421283
 20
236.772066093
 30
0.0
 10
80.7441702312
 20
236.8095130366
 30
0.0
  0
SPLINE
  5
437
100
AcDbEntity
  8
0
100
AcDbSpline
 62
7
  6
CONTINUOUS
 70
0
 71
3
 72
13
 73
9
 74
0
 42
0.0000001
 43
0.0000001
 44
0.0000000001
 40
0.0
 40
0.0
 40
0.0
 40
0.0
 40
0.1126067443
 40
0.2278114863
 40
0.3474939257
 40
0.4723925327
 40
0.7336572713
 40
1.0
 40
1.0
 40
1.0
 40
1.0
 10
67.3452037483
 20
227.2129978702
 30
0.0
 10
67.5529734064
 20
227.1839203072
 30
0.0
 10
67.9842316371
 20
227.1860425384
 30
0.0
 10
68.612524585
 20
227.3714662633
 30
0.0
 10
69.1904102344
 20
227.7253018031
 30
0.0
 10
69.8592028779
 20
228.4000853797
 30
0.0
 10
70.4033915226
 20
229.5284550783
 30
0.0
 10
70.4589683403
 20
230.5396330744
 30
0.0
 10
70.3854122497
 20
231.0303667967
 30
0.0
  0
SPLINE
  5
438
100
AcDbEntity
  8
0
100
AcDbSpline
 62
7
  6
CONTINUOUS
 70
0
 71
3
 72
11
 73
7
 74
0
 42
0.0000001
 43
0.0000001
 44
0.0000000001
 40
0.0
 40
0.0
 40
0.0
 40
0.0
 40
0.2685754896
 40
0.5241420781
 40
0.7663548172
 40
1.0
 40
1.0
 40
1.0
 40
1.0
 10
80.9358520634
 20
219.9201893624
 30
0.0
 10
80.8766606799
 20
220.3150881116
 30
0.0
 10
80.6597484211
 20
221.0754975257
 30
0.0
 10
80.0404253063
 20
222.0521847003
 30
0.0
 10
79.1826126535
 20
222.7532563143
 30
0.0
 10
78.4944951984
 20
222.9856295301
 30
0.0
 10
78.1504754285
 20
223.0338070248
 30
0.0
  0
SPLINE
  5
439
100
AcDbEntity
  8
0
100
AcDbSpline
 62
7
  6
CONTINUOUS
 70
0
 71
3
 72
13
 73
9
 74
0
 42
0.0000001
 43
0.0000001
 44
0.0000000001
 40
0.0
 40
0.0
 40
0.0
 40
0.0
 40
0.2680788584
 40
0.5231814067
 40
0.6459682709
 40
0.7658127161
 40
0.8834853795
 40
1.0
 40
1.0
 40
1.0
 40
1.0
 10
75.4347496128
 20
231.2741570024
 30
0.0
 10
75.3474716942
 20
231.8564366954
 30
0.0
 10
75.0281301499
 20
232.9772376163
 30
0.0
 10
74.2551232948
 20
234.1949637573
 30
0.0
 10
73.460581432
 20
234.9523883915
 30
0.0
 10
72.8004549637
 20
235.3962133101
 30
0.0
 10
72.0850789696
 20
235.7110171107
 30
0.0
 10
71.5810929326
 20
235.829760111
 30
0.0
 10
71.3276664996
 20
235.8652709665
 30
0.0
  0
SPLINE
  5
43A
100
AcDbEntity
  8
0
100
AcDbSpline
 62
7
  6
CONTINUOUS
 70
0
 71
3
 72
11
 73
7
 74
0
 42
0.0000001
 43
0.0000001
 44
0.0000000001
 40
0.0
 40
0.0
 40
0.0
 40
0.0
 40
0.2352692755
 40
0.4800177702
 40
0.7353274345
 40
1.0
 40
1.0
 40
1.0
 40
1.0
 10
69.9294074635
 20
235.8309117963
 30
0.0
 10
70.2936176487
 20
235.6471430187
 30
0.0
 10
70.9866988634
 20
235.1651134078
 30
0.0
 10
71.8197992763
 20
234.1835212131
 30
0.0
 10
72.4228066488
 20
232.9901063676
 30
0.0
 10
72.6475642846
 20
232.1088445538
 30
0.0
 10
72.7155933621
 20
231.6549846195
 30
0.0
  0
SPLINE
  5
43B
100
AcDbEntity
  8
0
100
AcDbSpline
 62
7
  6
CONTINUOUS
 70
0
 71
3
 72
23
 73
19
 74
0
 42
0.0000001
 43
0.0000001
 44
0.0000000001
 40
0.0
 40
0.0
 40
0.0
 40
0.0
 40
0.0563096029
 40
0.1133378113
 40
0.1716945502
 40
0.2317916509
 40
0.2938065667
 40
0.3576785656
 40
0.4231357978
 40
0.4897392737
 40
0.5569358628
 40
0.6241154834
 40
0.6906697158
 40
0.7560505374
 40
0.8198252513
 40
0.8817345369
 40
0.9417276292
 40
1.0
 40
1.0
 40
1.0
 40
1.0
 10
74.9741189115
 20
210.0463341359
 30
0.0
 10
74.1286026409
 20
210.1647977767
 30
0.0
 10
72.4467569555
 20
210.5840375496
 30
0.0
 10
70.0898063379
 20
211.7295276024
 30
0.0
 10
67.9616269262
 20
213.3547183156
 30
0.0
 10
66.1279270141
 20
215.4062531478
 30
0.0
 10
64.642008066
 20
217.8192695058
 30
0.0
 10
63.5467392196
 20
220.5194610466
 30
0.0
 10
62.873315985
 20
223.4249669768
 30
0.0
 10
62.6408038431
 20
226.4483663256
 30
0.0
 10
62.855522611
 20
229.4989640661
 30
0.0
 10
63.5108363769
 20
232.4853160952
 30
0.0
 10
64.5872969567
 20
235.3178528851
 30
0.0
 10
66.0533040304
 20
237.9113929342
 30
0.0
 10
67.8657835837
 20
240.1875627803
 30
0.0
 10
69.9721501082
 20
242.0767562907
 30
0.0
 10
72.3089614642
 20
243.5197209208
 30
0.0
 10
73.9978732846
 20
244.1614476725
 30
0.0
 10
74.8512794716
 20
244.3902078798
 30
0.0
  0
SPLINE
  5
43C
100
AcDbEntity
  8
0
100
AcDbSpline
 62
7
  6
CONTINUOUS
 70
0
 71
3
 72
15
 73
11
 74
0
 42
0.0000001
 43
0.0000001
 44
0.0000000001
 40
0.0
 40
0.0
 40
0.0
 40
0.0
 40
0.1122972696
 40
0.2271858423
 40
0.3465390819
 40
0.4710941883
 40
0.6004023262
 40
0.7330563344
 40
0.8670054514
 40
1.0
 40
1.0
 40
1.0
 40
1.0
 10
69.6710939303
 20
224.037137386
 30
0.0
 10
70.064981742
 20
223.9819446699
 30
0.0
 10
70.8825848801
 20
223.9860525579
 30
0.0
 10
72.0737518174
 20
224.3376159068
 30
0.0
 10
73.169180413
 20
225.0082522472
 30
0.0
 10
74.1077856765
 20
225.9555191212
 30
0.0
 10
74.840580939
 20
227.1241095522
 30
0.0
 10
75.32899135
 20
228.448902978
 30
0.0
 10
75.5475524896
 20
229.8561624272
 30
0.0
 10
75.5045740614
 20
230.8083191465
 30
0.0
 10
75.4347496128
 20
231.2741570024
 30
0.0
  0
SPLINE
  5
43D
100
AcDbEntity
  8
0
100
AcDbSpline
 62
7
  6
CONTINUOUS
 70
0
 71
3
 72
13
 73
9
 74
0
 42
0.0000001
 43
0.0000001
 44
0.0000000001
 40
0.0
 40
0.0
 40
0.0
 40
0.0
 40
0.1126084257
 40
0.227816271
 40
0.3475015298
 40
0.4724025418
 40
0.7336674034
 40
1.0
 40
1.0
 40
1.0
 40
1.0
 10
77.0270135895
 20
215.0121506544
 30
0.0
 10
77.2941464062
 20
214.9747406245
 30
0.0
 10
77.8486376502
 20
214.9775045327
 30
0.0
 10
78.65645656
 20
215.2159025935
 30
0.0
 10
79.3994660331
 20
215.6708546169
 30
0.0
 10
80.2593351989
 20
216.538457215
 30
0.0
 10
80.9589645633
 20
217.9892143954
 30
0.0
 10
81.0304205032
 20
219.2892705284
 30
0.0
 10
80.9358520634
 20
219.9201893624
 30
0.0
  0
SPLINE
  5
43E
100
AcDbEntity
  8
0
100
AcDbSpline
 62
7
  6
CONTINUOUS
 70
0
 71
3
 72
11
 73
7
 74
0
 42
0.0000001
 43
0.0000001
 44
0.0000000001
 40
0.0
 40
0.0
 40
0.0
 40
0.0
 40
0.2166111022
 40
0.4483612083
 40
0.7070429872
 40
1.0
 40
1.0
 40
1.0
 40
1.0
 10
58.7889144848
 20
280.6735868366
 30
0.0
 10
58.788914889
 20
281.077038921
 30
0.0
 10
58.9182919493
 20
281.9165210179
 30
0.0
 10
59.4799535057
 20
283.1228865522
 30
0.0
 10
60.3863956761
 20
284.2788029049
 30
0.0
 10
61.1576185253
 20
284.9649619974
 30
0.0
 10
61.5879240703
 20
285.3004801319
 30
0.0
  0
SPLINE
  5
43F
100
AcDbEntity
  8
0
100
AcDbSpline
 62
7
  6
CONTINUOUS
 70
0
 71
3
 72
11
 73
7
 74
0
 42
0.0000001
 43
0.0000001
 44
0.0000000001
 40
0.0
 40
0.0
 40
0.0
 40
0.0
 40
0.2125091533
 40
0.4509125735
 40
0.7141577146
 40
1.0
 40
1.0
 40
1.0
 40
1.0
 10
61.6937513543
 20
285.3820892856
 30
0.0
 10
62.2206076788
 20
285.7839413079
 30
0.0
 10
63.4046918962
 20
286.5508157911
 30
0.0
 10
65.4012773425
 20
287.5443385427
 30
0.0
 10
67.6929971523
 20
288.4339310485
 30
0.0
 10
69.3332911447
 20
288.9302113705
 30
0.0
 10
70.1941744979
 20
289.1609758733
 30
0.0
  0
SPLINE
  5
440
100
AcDbEntity
  8
0
100
AcDbSpline
 62
7
  6
CONTINUOUS
 70
0
 71
3
 72
15
 73
11
 74
0
 42
0.0000001
 43
0.0000001
 44
0.0000000001
 40
0.0
 40
0.0
 40
0.0
 40
0.0
 40
0.1196024968
 40
0.2471152886
 40
0.3794886242
 40
0.513432619
 40
0.6455972507
 40
0.772708291
 40
0.8917230173
 40
1.0
 40
1.0
 40
1.0
 40
1.0
 10
70.1941744979
 20
289.1609758733
 30
0.0
 10
71.4861349029
 20
289.5072929432
 30
0.0
 10
74.1904493283
 20
290.0957740923
 30
0.0
 10
78.3986467076
 20
290.6724463413
 30
0.0
 10
82.7971683914
 20
290.9605993637
 30
0.0
 10
87.256913195
 20
290.951305023
 30
0.0
 10
91.6472457956
 20
290.644928809
 30
0.0
 10
95.83999626
 20
290.0507114294
 30
0.0
 10
99.7124273347
 20
289.1868126346
 30
0.0
 10
102.1373662127
 20
288.4064282386
 30
0.0
 10
103.2654594729
 20
287.966297138
 30
0.0
  0
SPLINE
  5
441
100
AcDbEntity
  8
0
100
AcDbSpline
 62
7
  6
CONTINUOUS
 70
0
 71
3
 72
14
 73
10
 74
0
 42
0.0000001
 43
0.0000001
 44
0.0000000001
 40
0.0
 40
0.0
 40
0.0
 40
0.0
 40
0.3239938311
 40
0.4657408774
 40
0.5938862216
 40
0.7091979709
 40
0.8133203448
 40
0.9089714704
 40
1.0
 40
1.0
 40
1.0
 40
1.0
 10
103.2654594729
 20
287.966297138
 30
0.0
 10
104.3928385206
 20
287.5264446909
 30
0.0
 10
105.9823773224
 20
286.7956179442
 30
0.0
 10
107.8494147709
 20
285.591754021
 30
0.0
 10
108.9670215103
 20
284.6797652935
 30
0.0
 10
109.8544424198
 20
283.7254063237
 30
0.0
 10
110.5020124617
 20
282.7342502309
 30
0.0
 10
110.898711303
 20
281.7136588276
 30
0.0
 10
110.9888460096
 20
281.0135865946
 30
0.0
 10
110.988845669
 20
280.6735868366
 30
0.0
  0
SPLINE
  5
442
100
AcDbEntity
  8
0
100
AcDbSpline
 62
7
  6
CONTINUOUS
 70
0
 71
3
 72
18
 73
14
 74
0
 42
0.0000001
 43
0.0000001
 44
0.0000000001
 40
0.0
 40
0.0
 40
0.0
 40
0.0
 40
0.1381845452
 40
0.2871992457
 40
0.4392402404
 40
0.5862078053
 40
0.6554006489
 40
0.7205600148
 40
0.7809540155
 40
0.8360041737
 40
0.8853394435
 40
0.9288767932
 40
1.0
 40
1.0
 40
1.0
 40
1.0
 10
99.5835856559
 20
272.1861978
 30
0.0
 10
97.664397499
 20
271.6717488922
 30
0.0
 10
93.5990366006
 20
270.8811653172
 30
0.0
 10
87.2965783218
 20
270.3416827966
 30
0.0
 10
80.8450227045
 20
270.4213262184
 30
0.0
 10
75.5724917504
 20
271.0096828492
 30
0.0
 10
71.6036507404
 20
271.8025078481
 30
0.0
 10
68.8957449781
 20
272.5237144288
 30
0.0
 10
66.4382805665
 20
273.3720211911
 30
0.0
 10
64.2698605897
 20
274.3330312306
 30
0.0
 10
62.4190454186
 20
275.396960467
 30
0.0
 10
60.546589575
 20
276.8236292129
 30
0.0
 10
59.4628463678
 20
278.1625296649
 30
0.0
 10
59.0911394251
 20
279.1152604083
 30
0.0
  0
SPLINE
  5
443
100
AcDbEntity
  8
0
100
AcDbSpline
 62
7
  6
CONTINUOUS
 70
0
 71
3
 72
9
 73
5
 74
0
 42
0.0000001
 43
0.0000001
 44
0.0000000001
 40
0.0
 40
0.0
 40
0.0
 40
0.0
 40
0.2545304169
 40
1.0
 40
1.0
 40
1.0
 40
1.0
 10
59.0911394251
 20
279.1152604083
 30
0.0
 10
59.0656085165
 20
279.1806992762
 30
0.0
 10
58.9709105419
 20
279.439933851
 30
0.0
 10
58.8994502664
 20
279.7077721278
 30
0.0
 10
58.861143968
 20
279.9099021876
 30
0.0
  0
SPLINE
  5
444
100
AcDbEntity
  8
0
100
AcDbSpline
 62
7
  6
CONTINUOUS
 70
0
 71
3
 72
9
 73
5
 74
0
 42
0.0000001
 43
0.0000001
 44
0.0000000001
 40
0.0
 40
0.0
 40
0.0
 40
0.0
 40
0.2461962473
 40
1.0
 40
1.0
 40
1.0
 40
1.0
 10
110.9151786463
 20
279.9023542703
 30
0.0
 10
110.9025281982
 20
279.8362586884
 30
0.0
 10
110.8447403505
 20
279.5690410234
 30
0.0
 10
110.7615889161
 20
279.3074391657
 30
0.0
 10
110.6867079239
 20
279.1154826409
 30
0.0
  0
SPLINE
  5
445
100
AcDbEntity
  8
0
100
AcDbSpline
 62
7
  6
CONTINUOUS
 70
0
 71
3
 72
13
 73
9
 74
0
 42
0.0000001
 43
0.0000001
 44
0.0000000001
 40
0.0
 40
0.0
 40
0.0
 40
0.0
 40
0.1811293289
 40
0.2877557853
 40
0.4064318298
 40
0.5374358878
 40
0.6805209509
 40
1.0
 40
1.0
 40
1.0
 40
1.0
 10
110.6867079239
 20
279.1154826409
 30
0.0
 10
110.3910688192
 20
278.3576153435
 30
0.0
 10
109.6145999543
 20
277.2726202882
 30
0.0
 10
108.2535492654
 20
276.0571140777
 30
0.0
 10
106.9344974896
 20
275.1426735574
 30
0.0
 10
105.3887977092
 20
274.2883948729
 30
0.0
 10
102.9537270576
 20
273.1975502302
 30
0.0
 10
100.9695046385
 20
272.5577009818
 30
0.0
 10
99.5835856559
 20
272.1861978
 30
0.0
  0
SPLINE
  5
446
100
AcDbEntity
  8
0
100
AcDbSpline
 62
7
  6
CONTINUOUS
 70
0
 71
3
 72
11
 73
7
 74
0
 42
0.0000001
 43
0.0000001
 44
0.0000000001
 40
0.0
 40
0.0
 40
0.0
 40
0.0
 40
0.2109862565
 40
0.4431464098
 40
0.7046432739
 40
1.0
 40
1.0
 40
1.0
 40
1.0
 10
48.4792913777
 20
263.7784534108
 30
0.0
 10
48.5608033078
 20
263.3510347803
 30
0.0
 10
48.8661411389
 20
262.4758827751
 30
0.0
 10
49.6712185196
 20
261.2531064655
 30
0.0
 10
50.8159426058
 20
260.0856783076
 30
0.0
 10
51.7373773302
 20
259.3937438613
 30
0.0
 10
52.2441188525
 20
259.0557480446
 30
0.0
  0
SPLINE
  5
447
100
AcDbEntity
  8
0
100
AcDbSpline
 62
7
  6
CONTINUOUS
 70
0
 71
3
 72
11
 73
7
 74
0
 42
0.0000001
 43
0.0000001
 44
0.0000000001
 40
0.0
 40
0.0
 40
0.0
 40
0.0
 40
0.2132738887
 40
0.4517843946
 40
0.7146464038
 40
1.0
 40
1.0
 40
1.0
 40
1.0
 10
52.2252226522
 20
258.3722720608
 30
0.0
 10
52.7505837707
 20
257.9628881326
 30
0.0
 10
53.9290033788
 20
257.1787841584
 30
0.0
 10
55.9157650186
 20
256.1549837985
 30
0.0
 10
58.1949635047
 20
255.2301857054
 30
0.0
 10
59.827085339
 20
254.7079790963
 30
0.0
 10
60.6839742337
 20
254.4633271917
 30
0.0
  0
SPLINE
  5
448
100
AcDbEntity
  8
0
100
AcDbSpline
 62
7
  6
CONTINUOUS
 70
0
 71
3
 72
9
 73
5
 74
0
 42
0.0000001
 43
0.0000001
 44
0.0000000001
 40
0.0
 40
0.0
 40
0.0
 40
0.0
 40
0.4752720299
 40
1.0
 40
1.0
 40
1.0
 40
1.0
 10
60.9438996729
 20
253.941662827
 30
0.0
 10
62.7248975181
 20
253.338712401
 30
0.0
 10
66.5696305863
 20
252.3543201354
 30
0.0
 10
70.4936872287
 20
251.798679823
 30
0.0
 10
72.5604881873
 20
251.6039620405
 30
0.0
  0
SPLINE
  5
449
100
AcDbEntity
  8
0
100
AcDbSpline
 62
7
  6
CONTINUOUS
 70
0
 71
3
 72
10
 73
6
 74
0
 42
0.0000001
 43
0.0000001
 44
0.0000000001
 40
0.0
 40
0.0
 40
0.0
 40
0.0
 40
0.1737321716
 40
0.4030633582
 40
1.0
 40
1.0
 40
1.0
 40
1.0
 10
72.6447911833
 20
251.4447051419
 30
0.0
 10
72.6648119681
 20
251.4068799302
 30
0.0
 10
72.7392639286
 20
251.3354037654
 30
0.0
 10
72.9593320956
 20
251.2232874526
 30
0.0
 10
73.1621508404
 20
251.1800213877
 30
0.0
 10
73.3079828981
 20
251.1611458019
 30
0.0
  0
SPLINE
  5
44A
100
AcDbEntity
  8
0
100
AcDbSpline
 62
7
  6
CONTINUOUS
 70
0
 71
3
 72
9
 73
5
 74
0
 42
0.0000001
 43
0.0000001
 44
0.0000000001
 40
0.0
 40
0.0
 40
0.0
 40
0.0
 40
0.4959638439
 40
1.0
 40
1.0
 40
1.0
 40
1.0
 10
73.3079828981
 20
251.1611458019
 30
0.0
 10
75.4437905627
 20
250.8846992468
 30
0.0
 10
79.7807261346
 20
250.5490128118
 30
0.0
 10
84.1294828148
 20
250.613911929
 30
0.0
 10
86.3138880503
 20
250.7505828511
 30
0.0
  0
SPLINE
  5
44B
100
AcDbEntity
  8
0
100
AcDbSpline
 62
7
  6
CONTINUOUS
 70
0
 71
3
 72
10
 73
6
 74
0
 42
0.0000001
 43
0.0000001
 44
0.0000000001
 40
0.0
 40
0.0
 40
0.0
 40
0.0
 40
0.2057569726
 40
0.4505898085
 40
1.0
 40
1.0
 40
1.0
 40
1.0
 10
86.5466622845
 20
250.6161427536
 30
0.0
 10
86.6007955697
 20
250.5848763731
 30
0.0
 10
86.728843117
 20
250.5331197201
 30
0.0
 10
87.0250176102
 20
250.4635082872
 30
0.0
 10
87.2683012251
 20
250.4491029549
 30
0.0
 10
87.4351527379
 20
250.4540294969
 30
0.0
  0
SPLINE
  5
44C
100
AcDbEntity
  8
0
100
AcDbSpline
 62
7
  6
CONTINUOUS
 70
0
 71
3
 72
9
 73
5
 74
0
 42
0.0000001
 43
0.0000001
 44
0.0000000001
 40
0.0
 40
0.0
 40
0.0
 40
0.0
 40
0.5160132151
 40
1.0
 40
1.0
 40
1.0
 40
1.0
 10
87.4351527379
 20
250.4540294969
 30
0.0
 10
89.5896941068
 20
250.5176446359
 30
0.0
 10
93.7617529975
 20
250.8320155426
 30
0.0
 10
97.8851173524
 20
251.5586005247
 30
0.0
 10
99.8503433652
 20
252.0331088694
 30
0.0
  0
SPLINE
  5
44D
100
AcDbEntity
  8
0
100
AcDbSpline
 62
7
  6
CONTINUOUS
 70
0
 71
3
 72
9
 73
5
 74
0
 42
0.0000001
 43
0.0000001
 44
0.0000000001
 40
0.0
 40
0.0
 40
0.0
 40
0.0
 40
0.4948790155
 40
1.0
 40
1.0
 40
1.0
 40
1.0
 10
100.1961510725
 20
251.9439528592
 30
0.0
 10
100.3533365407
 20
251.9034255328
 30
0.0
 10
100.6830119158
 20
251.8697169039
 30
0.0
 10
101.0121666976
 20
251.8956777827
 30
0.0
 10
101.174675647
 20
251.9279659595
 30
0.0
  0
SPLINE
  5
44E
100
AcDbEntity
  8
0
100
AcDbSpline
 62
7
  6
CONTINUOUS
 70
0
 71
3
 72
10
 73
6
 74
0
 42
0.0000001
 43
0.0000001
 44
0.0000000001
 40
0.0
 40
0.0
 40
0.0
 40
0.0
 40
0.5382026279
 40
0.7797104766
 40
1.0
 40
1.0
 40
1.0
 40
1.0
 10
101.174675647
 20
251.9279659595
 30
0.0
 10
103.0239491834
 20
252.2953888494
 30
0.0
 10
105.6819835164
 20
252.9672949841
 30
0.0
 10
108.9660398328
 20
254.1943789748
 30
0.0
 10
110.4306609636
 20
254.8884166483
 30
0.0
 10
111.1090515221
 20
255.2562871355
 30
0.0
  0
SPLINE
  5
44F
100
AcDbEntity
  8
0
100
AcDbSpline
 62
7
  6
CONTINUOUS
 70
0
 71
3
 72
9
 73
5
 74
0
 42
0.0000001
 43
0.0000001
 44
0.0000000001
 40
0.0
 40
0.0
 40
0.0
 40
0.0
 40
0.5393712065
 40
1.0
 40
1.0
 40
1.0
 40
1.0
 10
111.515246612
 20
255.2259884067
 30
0.0
 10
111.6829594584
 20
255.2134770278
 30
0.0
 10
111.9964324173
 20
255.2249444255
 30
0.0
 10
112.3042178953
 20
255.2988283887
 30
0.0
 10
112.4348338116
 20
255.3585617245
 30
0.0
  0
SPLINE
  5
450
100
AcDbEntity
  8
0
100
AcDbSpline
 62
7
  6
CONTINUOUS
 70
0
 71
3
 72
11
 73
7
 74
0
 42
0.0000001
 43
0.0000001
 44
0.0000000001
 40
0.0
 40
0.0
 40
0.0
 40
0.0
 40
0.2956112125
 40
0.5601022086
 40
0.7939633769
 40
1.0
 40
1.0
 40
1.0
 40
1.0
 10
112.4348338116
 20
255.3585617245
 30
0.0
 10
113.1152800572
 20
255.6697430488
 30
0.0
 10
114.380627276
 20
256.3148607774
 30
0.0
 10
116.0638861111
 20
257.4220635295
 30
0.0
 10
117.4081846371
 20
258.6031160226
 30
0.0
 10
118.104882724
 20
259.4839155052
 30
0.0
 10
118.3759762619
 20
259.9294179759
 30
0.0
  0
SPLINE
  5
451
100
AcDbEntity
  8
0
100
AcDbSpline
 62
7
  6
CONTINUOUS
 70
0
 71
3
 72
10
 73
6
 74
0
 42
0.0000001
 43
0.0000001
 44
0.0000000001
 40
0.0
 40
0.0
 40
0.0
 40
0.0
 40
0.5865361031
 40
0.817872504
 40
1.0
 40
1.0
 40
1.0
 40
1.0
 10
118.7807192153
 20
259.9625892356
 30
0.0
 10
118.9327987352
 20
259.9750518277
 30
0.0
 10
119.1459544934
 20
260.0131956425
 30
0.0
 10
119.3839975747
 20
260.1202110023
 30
0.0
 10
119.4709802979
 20
260.1871883693
 30
0.0
 10
119.5013702248
 20
260.2235396852
 30
0.0
  0
SPLINE
  5
452
100
AcDbEntity
  8
0
100
AcDbSpline
 62
7
  6
CONTINUOUS
 70
0
 71
3
 72
10
 73
6
 74
0
 42
0.0000001
 43
0.0000001
 44
0.0000000001
 40
0.0
 40
0.0
 40
0.0
 40
0.0
 40
0.5277832269
 40
0.7677725187
 40
1.0
 40
1.0
 40
1.0
 40
1.0
 10
119.5013702248
 20
260.2235396852
 30
0.0
 10
119.9238274684
 20
260.7288656736
 30
0.0
 10
120.4572107069
 20
261.5503409181
 30
0.0
 10
120.8277289034
 20
262.7485675752
 30
0.0
 10
120.8884715925
 20
263.3395997117
 30
0.0
 10
120.8884795744
 20
263.6294108374
 30
0.0
  0
SPLINE
  5
453
100
AcDbEntity
  8
0
100
AcDbSpline
 62
7
  6
CONTINUOUS
 70
0
 71
3
 72
11
 73
7
 74
0
 42
0.0000001
 43
0.0000001
 44
0.0000000001
 40
0.0
 40
0.0
 40
0.0
 40
0.0
 40
0.3380402282
 40
0.6127628367
 40
0.8264197932
 40
1.0
 40
1.0
 40
1.0
 40
1.0
 10
120.8864566715
 20
265.4326481619
 30
0.0
 10
120.9472383577
 20
265.4489410259
 30
0.0
 10
121.0559047689
 20
265.4856059727
 30
0.0
 10
121.1908066261
 20
265.5616801313
 30
0.0
 10
121.279892711
 20
265.6507175007
 30
0.0
 10
121.3021863722
 20
265.7238451276
 30
0.0
 10
121.3013078219
 20
265.7561458131
 30
0.0
  0
SPLINE
  5
454
100
AcDbEntity
  8
0
100
AcDbSpline
 62
7
  6
CONTINUOUS
 70
0
 71
3
 72
12
 73
8
 74
0
 42
0.0000001
 43
0.0000001
 44
0.0000000001
 40
0.0
 40
0.0
 40
0.0
 40
0.0
 40
0.3204069394
 40
0.5963558699
 40
0.7160069459
 40
0.8229704651
 40
1.0
 40
1.0
 40
1.0
 40
1.0
 10
99.8809084818
 20
271.8318784195
 30
0.0
 10
101.1934856558
 20
272.1837219275
 30
0.0
 10
103.6079383792
 20
272.9551011028
 30
0.0
 10
106.372945737
 20
274.240412863
 30
0.0
 10
108.1679977328
 20
275.3985843437
 30
0.0
 10
109.497644368
 20
276.476026205
 30
0.0
 10
110.29711731
 20
277.4144496322
 30
0.0
 10
110.6499788576
 20
278.0771870933
 30
0.0
  0
SPLINE
  5
455
100
AcDbEntity
  8
0
100
AcDbSpline
 62
7
  6
CONTINUOUS
 70
0
 71
3
 72
9
 73
5
 74
0
 42
0.0000001
 43
0.0000001
 44
0.0000000001
 40
0.0
 40
0.0
 40
0.0
 40
0.0
 40
0.2610296588
 40
1.0
 40
1.0
 40
1.0
 40
1.0
 10
110.6499788576
 20
278.0771870933
 30
0.0
 10
110.6911721161
 20
278.1545554429
 30
0.0
 10
110.841154584
 20
278.4549964561
 30
0.0
 10
110.9580014199
 20
278.7724174985
 30
0.0
 10
111.020560706
 20
279.0125412215
 30
0.0
  0
SPLINE
  5
456
100
AcDbEntity
  8
0
100
AcDbSpline
 62
7
  6
CONTINUOUS
 70
0
 71
3
 72
9
 73
5
 74
0
 42
0.0000001
 43
0.0000001
 44
0.0000000001
 40
0.0
 40
0.0
 40
0.0
 40
0.0
 40
0.2549303441
 40
1.0
 40
1.0
 40
1.0
 40
1.0
 10
111.020560706
 20
279.0125412215
 30
0.0
 10
111.0403935824
 20
279.0886665168
 30
0.0
 10
111.108987233
 20
279.3895841781
 30
0.0
 10
111.1396308598
 20
279.6992836786
 30
0.0
 10
111.1393365825
 20
279.9291970884
 30
0.0
  0
SPLINE
  5
457
100
AcDbEntity
  8
0
100
AcDbSpline
 62
7
  6
CONTINUOUS
 70
0
 71
3
 72
9
 73
5
 74
0
 42
0.0000001
 43
0.0000001
 44
0.0000000001
 40
0.0
 40
0.0
 40
0.0
 40
0.0
 40
0.247272697
 40
1.0
 40
1.0
 40
1.0
 40
1.0
 10
58.6386624171
 20
279.9102557729
 30
0.0
 10
58.6387491222
 20
279.8370490114
 30
0.0
 10
58.6483354521
 20
279.5410522039
 30
0.0
 10
58.6962777329
 20
279.2464839016
 30
0.0
 10
58.7517164078
 20
279.0306396079
 30
0.0
  0
SPLINE
  5
458
100
AcDbEntity
  8
0
100
AcDbSpline
 62
7
  6
CONTINUOUS
 70
0
 71
3
 72
9
 73
5
 74
0
 42
0.0000001
 43
0.0000001
 44
0.0000000001
 40
0.0
 40
0.0
 40
0.0
 40
0.0
 40
0.2386149417
 40
1.0
 40
1.0
 40
1.0
 40
1.0
 10
58.7517164078
 20
279.0306396079
 30
0.0
 10
58.7743532488
 20
278.9425055938
 30
0.0
 10
58.8826213541
 20
278.5766176641
 30
0.0
 10
59.042662186
 20
278.226921912
 30
0.0
 10
59.1849410832
 20
277.9738207973
 30
0.0
  0
SPLINE
  5
459
100
AcDbEntity
  8
0
100
AcDbSpline
 62
7
  6
CONTINUOUS
 70
0
 71
3
 72
18
 73
14
 74
0
 42
0.0000001
 43
0.0000001
 44
0.0000000001
 40
0.0
 40
0.0
 40
0.0
 40
0.0
 40
0.0325228628
 40
0.0708141642
 40
0.1152252555
 40
0.1656727799
 40
0.2218111242
 40
0.2831102224
 40
0.4183730215
 40
0.5651369108
 40
0.7160583155
 40
0.8634727378
 40
1.0
 40
1.0
 40
1.0
 40
1.0
 10
59.1849410832
 20
277.9738207973
 30
0.0
 10
59.4127671079
 20
277.5685391853
 30
0.0
 10
60.0266397936
 20
276.7511893083
 30
0.0
 10
61.2546544532
 20
275.6433039737
 30
0.0
 10
62.8418040134
 20
274.5828619374
 30
0.0
 10
64.7650797447
 20
273.5948156417
 30
0.0
 10
66.9944139593
 20
272.6983025969
 30
0.0
 10
70.4427581267
 20
271.6123744576
 30
0.0
 10
75.2617925836
 20
270.6159990282
 30
0.0
 10
81.4296891402
 20
270.0025459304
 30
0.0
 10
87.8024365351
 20
269.9770059746
 30
0.0
 10
94.0022403153
 20
270.540636155
 30
0.0
 10
97.9957477295
 20
271.3265507442
 30
0.0
 10
99.8809084818
 20
271.8318784195
 30
0.0
  0
SPLINE
  5
45A
100
AcDbEntity
  8
0
100
AcDbSpline
 62
7
  6
CONTINUOUS
 70
0
 71
3
 72
11
 73
7
 74
0
 42
0.0000001
 43
0.0000001
 44
0.0000000001
 40
0.0
 40
0.0
 40
0.0
 40
0.0
 40
0.1810317526
 40
0.3902445648
 40
0.6619918758
 40
1.0
 40
1.0
 40
1.0
 40
1.0
 10
60.6007543619
 20
254.2889078791
 30
0.0
 10
60.5895131428
 20
254.2586130575
 30
0.0
 10
60.5885238987
 20
254.1825867202
 30
0.0
 10
60.6633089546
 20
254.0845409772
 30
0.0
 10
60.785436222
 20
254.0027152334
 30
0.0
 10
60.8867531355
 20
253.9610095391
 30
0.0
 10
60.9438996729
 20
253.941662827
 30
0.0
  0
SPLINE
  5
45B
100
AcDbEntity
  8
0
100
AcDbSpline
 62
7
  6
CONTINUOUS
 70
0
 71
3
 72
9
 73
5
 74
0
 42
0.0000001
 43
0.0000001
 44
0.0000000001
 40
0.0
 40
0.0
 40
0.0
 40
0.0
 40
0.4451573414
 40
1.0
 40
1.0
 40
1.0
 40
1.0
 10
52.1185944134
 20
258.588618802
 30
0.0
 10
52.1102642086
 20
258.5522040365
 30
0.0
 10
52.1257343556
 20
258.4617500438
 30
0.0
 10
52.1884967236
 20
258.4008904022
 30
0.0
 10
52.2252226522
 20
258.3722720608
 30
0.0
  0
SPLINE
  5
45C
100
AcDbEntity
  8
0
100
AcDbSpline
 62
7
  6
CONTINUOUS
 70
0
 71
3
 72
13
 73
9
 74
0
 42
0.0000001
 43
0.0000001
 44
0.0000000001
 40
0.0
 40
0.0
 40
0.0
 40
0.0
 40
0.2872820581
 40
0.546793828
 40
0.6668085024
 40
0.781355394
 40
0.8918186509
 40
1.0
 40
1.0
 40
1.0
 40
1.0
 10
67.2903501816
 20
289.9574318545
 30
0.0
 10
65.707067416
 20
289.5330242285
 30
0.0
 10
62.7291871444
 20
288.5810670718
 30
0.0
 10
59.2632186403
 20
286.9749293492
 30
0.0
 10
56.8775469194
 20
285.4659275487
 30
0.0
 10
55.324310475
 20
284.2497079415
 30
0.0
 10
53.9772341808
 20
282.9008616187
 30
0.0
 10
53.2294270141
 20
281.8945609165
 30
0.0
 10
52.9045202254
 20
281.3697285606
 30
0.0
  0
SPLINE
  5
45D
100
AcDbEntity
  8
0
100
AcDbSpline
 62
7
  6
CONTINUOUS
 70
0
 71
3
 72
9
 73
5
 74
0
 42
0.0000001
 43
0.0000001
 44
0.0000000001
 40
0.0
 40
0.0
 40
0.0
 40
0.0
 40
0.2509284242
 40
1.0
 40
1.0
 40
1.0
 40
1.0
 10
52.9045202254
 20
281.3697285606
 30
0.0
 10
52.8266963135
 20
281.2440170998
 30
0.0
 10
52.5267916603
 20
280.736805125
 30
0.0
 10
52.2697954734
 20
280.2039040816
 30
0.0
 10
52.1066149042
 20
279.793812452
 30
0.0
  0
SPLINE
  5
45E
100
AcDbEntity
  8
0
100
AcDbSpline
 62
7
  6
CONTINUOUS
 70
0
 71
3
 72
18
 73
14
 74
0
 42
0.0000001
 43
0.0000001
 44
0.0000000001
 40
0.0
 40
0.0
 40
0.0
 40
0.0
 40
0.0453450301
 40
0.09192293
 40
0.1408689132
 40
0.1931196052
 40
0.2491582326
 40
0.3090770788
 40
0.4394059644
 40
0.5800416074
 40
0.7248342428
 40
0.8669466416
 40
1.0
 40
1.0
 40
1.0
 40
1.0
 10
117.3219043893
 20
280.5696036201
 30
0.0
 10
116.9577110662
 20
281.2927897444
 30
0.0
 10
116.0393397666
 20
282.6723149238
 30
0.0
 10
114.2536402208
 20
284.4605962496
 30
0.0
 10
112.1137988142
 20
286.0192497457
 30
0.0
 10
109.6555048703
 20
287.3868292355
 30
0.0
 10
106.8952351029
 20
288.5816503879
 30
0.0
 10
102.7254640456
 20
289.991752034
 30
0.0
 10
96.9413114507
 20
291.2797831655
 30
0.0
 10
89.5496459302
 20
292.0901314301
 30
0.0
 10
81.9029564033
 20
292.1711221069
 30
0.0
 10
74.4209212096
 20
291.5195159627
 30
0.0
 10
69.5852272654
 20
290.5725862388
 30
0.0
 10
67.2903501816
 20
289.9574318545
 30
0.0
  0
SPLINE
  5
45F
100
AcDbEntity
  8
0
100
AcDbSpline
 62
7
  6
CONTINUOUS
 70
0
 71
3
 72
10
 73
6
 74
0
 42
0.0000001
 43
0.0000001
 44
0.0000000001
 40
0.0
 40
0.0
 40
0.0
 40
0.0
 40
0.4173088376
 40
0.6860083511
 40
1.0
 40
1.0
 40
1.0
 40
1.0
 10
52.9075358177
 20
270.8922635789
 30
0.0
 10
53.5309415296
 20
271.0594518888
 30
0.0
 10
54.6468728242
 20
270.9452443216
 30
0.0
 10
56.092992858
 20
270.4143085587
 30
0.0
 10
56.897342066
 20
269.9978356131
 30
0.0
 10
57.3178730201
 20
269.7549394716
 30
0.0
  0
SPLINE
  5
460
100
AcDbEntity
  8
0
100
AcDbSpline
 62
7
  6
CONTINUOUS
 70
0
 71
3
 72
12
 73
8
 74
0
 42
0.0000001
 43
0.0000001
 44
0.0000000001
 40
0.0
 40
0.0
 40
0.0
 40
0.0
 40
0.378988006
 40
0.6707190841
 40
0.8745468648
 40
0.945739592
 40
1.0
 40
1.0
 40
1.0
 40
1.0
 10
52.0797171863
 20
274.4714829337
 30
0.0
 10
51.8705223923
 20
274.6963821519
 30
0.0
 10
51.4947306715
 20
275.0899078357
 30
0.0
 10
50.9773018429
 20
275.5733690475
 30
0.0
 10
50.6094653532
 20
275.8545912739
 30
0.0
 10
50.36681726
 20
275.9677827819
 30
0.0
 10
50.264539038
 20
275.987135505
 30
0.0
 10
50.2206192145
 20
275.9849241004
 30
0.0
  0
SPLINE
  5
461
100
AcDbEntity
  8
0
100
AcDbSpline
 62
7
  6
CONTINUOUS
 70
0
 71
3
 72
16
 73
12
 74
0
 42
0.0000001
 43
0.0000001
 44
0.0000000001
 40
0.0
 40
0.0
 40
0.0
 40
0.0
 40
0.0092067147
 40
0.0243082446
 40
0.0753728098
 40
0.1556394914
 40
0.2655612588
 40
0.4052076926
 40
0.574417012
 40
0.7728650003
 40
1.0
 40
1.0
 40
1.0
 40
1.0
 10
51.2811323349
 20
276.0719563589
 30
0.0
 10
51.2868514876
 20
276.0724243943
 30
0.0
 10
51.301668469
 20
276.0655418424
 30
0.0
 10
51.3360457314
 20
276.034187722
 30
0.0
 10
51.3915842344
 20
275.960499288
 30
0.0
 10
51.4735253401
 20
275.8349318006
 30
0.0
 10
51.5791337779
 20
275.6582812515
 30
0.0
 10
51.7083581297
 20
275.4315844425
 30
0.0
 10
51.8612318192
 20
275.1547696342
 30
0.0
 10
52.0375352113
 20
274.828667413
 30
0.0
 10
52.1621698484
 20
274.5945141265
 30
0.0
 10
52.2283940924
 20
274.4693924888
 30
0.0
  0
SPLINE
  5
462
100
AcDbEntity
  8
0
100
AcDbSpline
 62
7
  6
CONTINUOUS
 70
0
 71
3
 72
9
 73
5
 74
0
 42
0.0000001
 43
0.0000001
 44
0.0000000001
 40
0.0
 40
0.0
 40
0.0
 40
0.0
 40
0.4995622418
 40
1.0
 40
1.0
 40
1.0
 40
1.0
 10
51.8475146823
 20
274.2409019012
 30
0.0
 10
51.8561024113
 20
274.297487577
 30
0.0
 10
51.913587102
 20
274.4064644178
 30
0.0
 10
52.0229793493
 20
274.4633201388
 30
0.0
 10
52.079729617
 20
274.4714802058
 30
0.0
  0
SPLINE
  5
463
100
AcDbEntity
  8
0
100
AcDbSpline
 62
7
  6
CONTINUOUS
 70
0
 71
3
 72
9
 73
5
 74
0
 42
0.0000001
 43
0.0000001
 44
0.0000000001
 40
0.0
 40
0.0
 40
0.0
 40
0.0
 40
0.4998359627
 40
1.0
 40
1.0
 40
1.0
 40
1.0
 10
52.0921264047
 20
274.4560842231
 30
0.0
 10
52.0360782007
 20
274.4475862695
 30
0.0
 10
51.9259318944
 20
274.39419184
 30
0.0
 10
51.8718142913
 20
274.284424042
 30
0.0
 10
51.862884197
 20
274.2284053862
 30
0.0
  0
SPLINE
  5
464
100
AcDbEntity
  8
0
100
AcDbSpline
 62
7
  6
CONTINUOUS
 70
0
 71
3
 72
9
 73
5
 74
0
 42
0.0000001
 43
0.0000001
 44
0.0000000001
 40
0.0
 40
0.0
 40
0.0
 40
0.0
 40
0.24242404
 40
1.0
 40
1.0
 40
1.0
 40
1.0
 10
51.8608333221
 20
274.2283683673
 30
0.0
 10
51.9230940768
 20
274.1700116571
 30
0.0
 10
52.1831840322
 20
273.9327822524
 30
0.0
 10
52.455651821
 20
273.7092409782
 30
0.0
 10
52.6672707353
 20
273.5469758657
 30
0.0
  0
SPLINE
  5
465
100
AcDbEntity
  8
0
100
AcDbSpline
 62
7
  6
CONTINUOUS
 70
0
 71
3
 72
9
 73
5
 74
0
 42
0.0000001
 43
0.0000001
 44
0.0000000001
 40
0.0
 40
0.0
 40
0.0
 40
0.0
 40
0.4254827345
 40
1.0
 40
1.0
 40
1.0
 40
1.0
 10
50.4400923981
 20
275.3691886326
 30
0.0
 10
50.6615781163
 20
275.2404881622
 30
0.0
 10
51.1460245996
 20
274.8783021384
 30
0.0
 10
51.5949624786
 20
274.4773752504
 30
0.0
 10
51.8475331975
 20
274.2410531642
 30
0.0
  0
SPLINE
  5
466
100
AcDbEntity
  8
0
100
AcDbSpline
 62
7
  6
CONTINUOUS
 70
0
 71
3
 72
12
 73
8
 74
0
 42
0.0000001
 43
0.0000001
 44
0.0000000001
 40
0.0
 40
0.0
 40
0.0
 40
0.0
 40
0.2070588622
 40
0.4284874986
 40
0.6733280089
 40
0.8144687309
 40
1.0
 40
1.0
 40
1.0
 40
1.0
 10
52.4284830722
 20
274.1158548798
 30
0.0
 10
52.4506789802
 20
274.0790048938
 30
0.0
 10
52.4957322467
 20
274.0021695612
 30
0.0
 10
52.5622578947
 20
273.8792638658
 30
0.0
 10
52.6169586357
 20
273.7647856449
 30
0.0
 10
52.6567508605
 20
273.6540672417
 30
0.0
 10
52.6739745779
 20
273.5847996103
 30
0.0
 10
52.6672632483
 20
273.5468425597
 30
0.0
  0
SPLINE
  5
467
100
AcDbEntity
  8
0
100
AcDbSpline
 62
7
  6
CONTINUOUS
 70
0
 71
3
 72
10
 73
6
 74
0
 42
0.0000001
 43
0.0000001
 44
0.0000000001
 40
0.0
 40
0.0
 40
0.0
 40
0.0
 40
0.4515807166
 40
0.7131521298
 40
1.0
 40
1.0
 40
1.0
 40
1.0
 10
52.4284830722
 20
274.1158548798
 30
0.0
 10
52.9419201448
 20
273.2642074632
 30
0.0
 10
54.0145658079
 20
272.075512581
 30
0.0
 10
55.7480326141
 20
270.7180447633
 30
0.0
 10
56.7710068584
 20
270.0707413051
 30
0.0
 10
57.3180087829
 20
269.7548167266
 30
0.0
  0
SPLINE
  5
468
100
AcDbEntity
  8
0
100
AcDbSpline
 62
7
  6
CONTINUOUS
 70
0
 71
3
 72
10
 73
6
 74
0
 42
0.0000001
 43
0.0000001
 44
0.0000000001
 40
0.0
 40
0.0
 40
0.0
 40
0.0
 40
0.3054478574
 40
0.5727598665
 40
1.0
 40
1.0
 40
1.0
 40
1.0
 10
57.177991518
 20
269.7347376292
 30
0.0
 10
56.6712978434
 20
269.9509289805
 30
0.0
 10
55.7024449279
 20
270.320003151
 30
0.0
 10
53.9612534355
 20
270.7714093338
 30
0.0
 10
52.6588303672
 20
270.8256088522
 30
0.0
 10
51.9145576973
 20
270.6261152072
 30
0.0
  0
SPLINE
  5
469
100
AcDbEntity
  8
0
100
AcDbSpline
 62
7
  6
CONTINUOUS
 70
0
 71
3
 72
9
 73
5
 74
0
 42
0.0000001
 43
0.0000001
 44
0.0000000001
 40
0.0
 40
0.0
 40
0.0
 40
0.0
 40
0.2611493483
 40
1.0
 40
1.0
 40
1.0
 40
1.0
 10
56.9984277548
 20
269.4719284694
 30
0.0
 10
57.00138595
 20
269.5001456883
 30
0.0
 10
57.0265914376
 20
269.6050374824
 30
0.0
 10
57.1025188388
 20
269.7074408734
 30
0.0
 10
57.1780056706
 20
269.734736982
 30
0.0
  0
SPLINE
  5
46A
100
AcDbEntity
  8
0
100
AcDbSpline
 62
7
  6
CONTINUOUS
 70
0
 71
3
 72
9
 73
5
 74
0
 42
0.0000001
 43
0.0000001
 44
0.0000000001
 40
0.0
 40
0.0
 40
0.0
 40
0.0
 40
0.4703180911
 40
1.0
 40
1.0
 40
1.0
 40
1.0
 10
57.2027023966
 20
269.7221359626
 30
0.0
 10
57.1547619255
 20
269.7044168133
 30
0.0
 10
57.0674150543
 20
269.6271070348
 30
0.0
 10
57.0315452933
 20
269.5199529914
 30
0.0
 10
57.0251313654
 20
269.4627500438
 30
0.0
  0
SPLINE
  5
46B
100
AcDbEntity
  8
0
100
AcDbSpline
 62
7
  6
CONTINUOUS
 70
0
 71
3
 72
9
 73
5
 74
0
 42
0.0000001
 43
0.0000001
 44
0.0000000001
 40
0.0
 40
0.0
 40
0.0
 40
0.0
 40
0.5337101017
 40
1.0
 40
1.0
 40
1.0
 40
1.0
 10
48.4808782536
 20
263.8167756308
 30
0.0
 10
48.5047566221
 20
264.382383169
 30
0.0
 10
48.5849226172
 20
265.4412084896
 30
0.0
 10
48.7789023257
 20
266.488024476
 30
0.0
 10
48.9104415688
 20
266.9648102911
 30
0.0
  0
SPLINE
  5
46C
100
AcDbEntity
  8
0
100
AcDbSpline
 62
7
  6
CONTINUOUS
 70
0
 71
3
 72
15
 73
11
 74
0
 42
0.0000001
 43
0.0000001
 44
0.0000000001
 40
0.0
 40
0.0
 40
0.0
 40
0.0
 40
0.1320366619
 40
0.2536419675
 40
0.3683393502
 40
0.4806060069
 40
0.5954567456
 40
0.7178833247
 40
0.8518057129
 40
1.0
 40
1.0
 40
1.0
 40
1.0
 10
48.9917237443
 20
267.2402943654
 30
0.0
 10
49.0776677649
 20
267.5130064449
 30
0.0
 10
49.2726568559
 20
268.0285174633
 30
0.0
 10
49.6658529981
 20
268.7267854436
 30
0.0
 10
50.1553632806
 20
269.308104056
 30
0.0
 10
50.745105086
 20
269.7650039079
 30
0.0
 10
51.4345073421
 20
270.0911344561
 30
0.0
 10
52.2201109294
 20
270.2826280992
 30
0.0
 10
53.0975306723
 20
270.3422677571
 30
0.0
 10
53.7087535111
 20
270.2978596697
 30
0.0
 10
54.0271041277
 20
270.257296752
 30
0.0
  0
SPLINE
  5
46D
100
AcDbEntity
  8
0
100
AcDbSpline
 62
7
  6
CONTINUOUS
 70
0
 71
3
 72
9
 73
5
 74
0
 42
0.0000001
 43
0.0000001
 44
0.0000000001
 40
0.0
 40
0.0
 40
0.0
 40
0.0
 40
0.4694909936
 40
1.0
 40
1.0
 40
1.0
 40
1.0
 10
54.0271002398
 20
270.2575022523
 30
0.0
 10
54.5049962803
 20
270.1965983506
 30
0.0
 10
55.512675831
 20
269.9848928784
 30
0.0
 10
56.4887570087
 20
269.6633154639
 30
0.0
 10
56.9984361686
 20
269.4720821032
 30
0.0
  0
SPLINE
  5
46E
100
AcDbEntity
  8
0
100
AcDbSpline
 62
7
  6
CONTINUOUS
 70
0
 71
3
 72
14
 73
10
 74
0
 42
0.0000001
 43
0.0000001
 44
0.0000000001
 40
0.0
 40
0.0
 40
0.0
 40
0.0
 40
0.2312165617
 40
0.4688590675
 40
0.5910251959
 40
0.7166333137
 40
0.8484944845
 40
0.9199241201
 40
1.0
 40
1.0
 40
1.0
 40
1.0
 10
57.844895248
 20
269.4593585749
 30
0.0
 10
57.900366103
 20
269.4291343928
 30
0.0
 10
58.0118844438
 20
269.3660404182
 30
0.0
 10
58.1490118213
 20
269.2806708283
 30
0.0
 10
58.2579319174
 20
269.2048249609
 30
0.0
 10
58.3398148047
 20
269.1414271614
 30
0.0
 10
58.4066319575
 20
269.0799398753
 30
0.0
 10
58.4543937936
 20
269.0205324218
 30
0.0
 10
58.473213176
 20
268.978855397
 30
0.0
 10
58.4700639424
 20
268.9572057642
 30
0.0
  0
SPLINE
  5
46F
100
AcDbEntity
  8
0
100
AcDbSpline
 62
7
  6
CONTINUOUS
 70
0
 71
3
 72
9
 73
5
 74
0
 42
0.0000001
 43
0.0000001
 44
0.0000000001
 40
0.0
 40
0.0
 40
0.0
 40
0.0
 40
0.2374310798
 40
1.0
 40
1.0
 40
1.0
 40
1.0
 10
57.844895248
 20
269.4593585749
 30
0.0
 10
58.1154367769
 20
269.3119836899
 30
0.0
 10
59.2663199988
 20
268.7123112063
 30
0.0
 10
60.4578173723
 20
268.1921671702
 30
0.0
 10
61.379408373
 20
267.8320015506
 30
0.0
  0
SPLINE
  5
470
100
AcDbEntity
  8
0
100
AcDbSpline
 62
7
  6
CONTINUOUS
 70
0
 71
3
 72
9
 73
5
 74
0
 42
0.0000001
 43
0.0000001
 44
0.0000000001
 40
0.0
 40
0.0
 40
0.0
 40
0.0
 40
0.2380760419
 40
1.0
 40
1.0
 40
1.0
 40
1.0
 10
61.379408373
 20
267.8320015506
 30
0.0
 10
61.7848566482
 20
267.6735489083
 30
0.0
 10
63.4994620005
 20
267.0377349651
 30
0.0
 10
65.2546880406
 20
266.5139948859
 30
0.0
 10
66.6037084491
 20
266.1661601105
 30
0.0
  0
SPLINE
  5
471
100
AcDbEntity
  8
0
100
AcDbSpline
 62
7
  6
CONTINUOUS
 70
0
 71
3
 72
11
 73
7
 74
0
 42
0.0000001
 43
0.0000001
 44
0.0000000001
 40
0.0
 40
0.0
 40
0.0
 40
0.0
 40
0.2824270119
 40
0.5433328283
 40
0.7816621062
 40
1.0
 40
1.0
 40
1.0
 40
1.0
 10
66.494997417
 20
266.1262384164
 30
0.0
 10
65.6104201716
 20
266.2867910668
 30
0.0
 10
63.8910069838
 20
266.5103328886
 30
0.0
 10
61.3947367889
 20
266.5171432757
 30
0.0
 10
59.1266211046
 20
266.1697652043
 30
0.0
 10
57.7452119522
 20
265.6794656297
 30
0.0
 10
57.120762147
 20
265.3743194432
 30
0.0
  0
SPLINE
  5
472
100
AcDbEntity
  8
0
100
AcDbSpline
 62
7
  6
CONTINUOUS
 70
0
 71
3
 72
11
 73
7
 74
0
 42
0.0000001
 43
0.0000001
 44
0.0000000001
 40
0.0
 40
0.0
 40
0.0
 40
0.0
 40
0.2186995415
 40
0.4561340332
 40
0.7163596925
 40
1.0
 40
1.0
 40
1.0
 40
1.0
 10
58.0803207071
 20
265.9233463181
 30
0.0
 10
58.6574361256
 20
266.1822935948
 30
0.0
 10
59.9267547137
 20
266.5830574398
 30
0.0
 10
61.9971429294
 20
266.8073669445
 30
0.0
 10
64.2616945871
 20
266.6777245029
 30
0.0
 10
65.8095252047
 20
266.3709461398
 30
0.0
 10
66.6039240418
 20
266.1661355708
 30
0.0
  0
SPLINE
  5
473
100
AcDbEntity
  8
0
100
AcDbSpline
 62
7
  6
CONTINUOUS
 70
0
 71
3
 72
10
 73
6
 74
0
 42
0.0000001
 43
0.0000001
 44
0.0000000001
 40
0.0
 40
0.0
 40
0.0
 40
0.0
 40
0.5653660172
 40
0.8150325173
 40
1.0
 40
1.0
 40
1.0
 40
1.0
 10
66.3954093844
 20
265.8415806058
 30
0.0
 10
66.3979783011
 20
265.8993875009
 30
0.0
 10
66.4127175782
 20
265.9833136962
 30
0.0
 10
66.4542127618
 20
266.0769488568
 30
0.0
 10
66.4805692623
 20
266.1140000452
 30
0.0
 10
66.4950111388
 20
266.1262399504
 30
0.0
  0
SPLINE
  5
474
100
AcDbEntity
  8
0
100
AcDbSpline
 62
7
  6
CONTINUOUS
 70
0
 71
3
 72
9
 73
5
 74
0
 42
0.0000001
 43
0.0000001
 44
0.0000000001
 40
0.0
 40
0.0
 40
0.0
 40
0.0
 40
0.4300958607
 40
1.0
 40
1.0
 40
1.0
 40
1.0
 10
66.5278107915
 20
266.118214509
 30
0.0
 10
66.4950875386
 20
266.0897709225
 30
0.0
 10
66.4493603693
 20
265.9937353305
 30
0.0
 10
66.4323318635
 20
265.8945299122
 30
0.0
 10
66.4294137227
 20
265.8371530149
 30
0.0
  0
SPLINE
  5
475
100
AcDbEntity
  8
0
100
AcDbSpline
 62
7
  6
CONTINUOUS
 70
0
 71
3
 72
11
 73
7
 74
0
 42
0.0000001
 43
0.0000001
 44
0.0000000001
 40
0.0
 40
0.0
 40
0.0
 40
0.0
 40
0.2632762862
 40
0.5113782254
 40
0.7533815405
 40
1.0
 40
1.0
 40
1.0
 40
1.0
 10
52.2679685786
 20
258.5455999297
 30
0.0
 10
52.4333484958
 20
259.1976074603
 30
0.0
 10
52.8516006862
 20
260.4433049402
 30
0.0
 10
53.8022327805
 20
262.1318784216
 30
0.0
 10
55.063273937
 20
263.5493439667
 30
0.0
 10
56.0889987063
 20
264.2810717352
 30
0.0
 10
56.6364663857
 20
264.5929993144
 30
0.0
  0
SPLINE
  5
476
100
AcDbEntity
  8
0
100
AcDbSpline
 62
7
  6
CONTINUOUS
 70
0
 71
3
 72
9
 73
5
 74
0
 42
0.0000001
 43
0.0000001
 44
0.0000000001
 40
0.0
 40
0.0
 40
0.0
 40
0.0
 40
0.4719638272
 40
1.0
 40
1.0
 40
1.0
 40
1.0
 10
56.6364663857
 20
264.5929993144
 30
0.0
 10
57.4439771948
 20
265.0530902045
 30
0.0
 10
59.306264102
 20
265.7710089153
 30
0.0
 10
61.2737686986
 20
266.029022548
 30
0.0
 10
62.3125613183
 20
266.0748375917
 30
0.0
  0
SPLINE
  5
477
100
AcDbEntity
  8
0
100
AcDbSpline
 62
7
  6
CONTINUOUS
 70
0
 71
3
 72
9
 73
5
 74
0
 42
0.0000001
 43
0.0000001
 44
0.0000000001
 40
0.0
 40
0.0
 40
0.0
 40
0.0
 40
0.2396899002
 40
1.0
 40
1.0
 40
1.0
 40
1.0
 10
62.312534296
 20
266.0750406619
 30
0.0
 10
62.6392405522
 20
266.0894439115
 30
0.0
 10
64.0039010889
 20
266.11133421
 30
0.0
 10
65.3690801551
 20
265.9924787628
 30
0.0
 10
66.3954063843
 20
265.8417348293
 30
0.0
  0
SPLINE
  5
478
100
AcDbEntity
  8
0
100
AcDbSpline
 62
7
  6
CONTINUOUS
 70
0
 71
3
 72
14
 73
10
 74
0
 42
0.0000001
 43
0.0000001
 44
0.0000000001
 40
0.0
 40
0.0
 40
0.0
 40
0.0
 40
0.2438824233
 40
0.4903274197
 40
0.6148103214
 40
0.7405047081
 40
0.8682430254
 40
0.9338251472
 40
1.0
 40
1.0
 40
1.0
 40
1.0
 10
67.3789866956
 20
265.972248956
 30
0.0
 10
67.4590528027
 20
265.9528163524
 30
0.0
 10
67.6195108998
 20
265.9115091838
 30
0.0
 10
67.8186517872
 20
265.8524475688
 30
0.0
 10
67.9773058019
 20
265.7972957825
 30
0.0
 10
68.095521426
 20
265.7502310042
 30
0.0
 10
68.193638601
 20
265.7014323163
 30
0.0
 10
68.2636701918
 20
265.6536501489
 30
0.0
 10
68.2969900179
 20
265.6129737109
 30
0.0
 10
68.2948916094
 20
265.5907166206
 30
0.0
  0
SPLINE
  5
479
100
AcDbEntity
  8
0
100
AcDbSpline
 62
7
  6
CONTINUOUS
 70
0
 71
3
 72
9
 73
5
 74
0
 42
0.0000001
 43
0.0000001
 44
0.0000000001
 40
0.0
 40
0.0
 40
0.0
 40
0.0
 40
0.4853609888
 40
1.0
 40
1.0
 40
1.0
 40
1.0
 10
67.3789866956
 20
265.972248956
 30
0.0
 10
69.1768702217
 20
265.5360387466
 30
0.0
 10
72.9253421266
 20
264.8151718911
 30
0.0
 10
76.7177157494
 20
264.3945892648
 30
0.0
 10
78.6739219738
 20
264.2486406004
 30
0.0
  0
SPLINE
  5
47A
100
AcDbEntity
  8
0
100
AcDbSpline
 62
7
  6
CONTINUOUS
 70
0
 71
3
 72
14
 73
10
 74
0
 42
0.0000001
 43
0.0000001
 44
0.0000000001
 40
0.0
 40
0.0
 40
0.0
 40
0.0
 40
0.2784416146
 40
0.4113101101
 40
0.5381921471
 40
0.6591436913
 40
0.7751464569
 40
0.8879116993
 40
1.0
 40
1.0
 40
1.0
 40
1.0
 10
78.6123051769
 20
264.1953465753
 30
0.0
 10
76.6957562785
 20
264.2248585722
 30
0.0
 10
73.8443353277
 20
263.9955167803
 30
0.0
 10
70.2535637422
 20
263.0534123426
 30
0.0
 10
67.8173584628
 20
262.0649162821
 30
0.0
 10
65.646129069
 20
260.7977868044
 30
0.0
 10
63.7744639587
 20
259.2663157218
 30
0.0
 10
62.227611869
 20
257.4868565016
 30
0.0
 10
61.4306004142
 20
256.1486291891
 30
0.0
 10
61.0956499105
 20
255.453511014
 30
0.0
  0
SPLINE
  5
47B
100
AcDbEntity
  8
0
100
AcDbSpline
 62
7
  6
CONTINUOUS
 70
0
 71
3
 72
10
 73
6
 74
0
 42
0.0000001
 43
0.0000001
 44
0.0000000001
 40
0.0
 40
0.0
 40
0.0
 40
0.0
 40
0.2415819116
 40
0.4873476697
 40
1.0
 40
1.0
 40
1.0
 40
1.0
 10
61.7970074371
 20
256.7733207467
 30
0.0
 10
62.1521988216
 20
257.3644539792
 30
0.0
 10
62.9589771672
 20
258.5054504349
 30
0.0
 10
64.9302235969
 20
260.5800791775
 30
0.0
 10
66.7423760165
 20
261.8226182606
 30
0.0
 10
68.0364127702
 20
262.5061147954
 30
0.0
  0
SPLINE
  5
47C
100
AcDbEntity
  8
0
100
AcDbSpline
 62
7
  6
CONTINUOUS
 70
0
 71
3
 72
9
 73
5
 74
0
 42
0.0000001
 43
0.0000001
 44
0.0000000001
 40
0.0
 40
0.0
 40
0.0
 40
0.0
 40
0.4791480441
 40
1.0
 40
1.0
 40
1.0
 40
1.0
 10
68.0364127702
 20
262.5061147954
 30
0.0
 10
69.6069658826
 20
263.2450219004
 30
0.0
 10
73.1367745352
 20
264.2718099276
 30
0.0
 10
76.7926447411
 20
264.388951537
 30
0.0
 10
78.6741787926
 20
264.2486111384
 30
0.0
  0
SPLINE
  5
47D
100
AcDbEntity
  8
0
100
AcDbSpline
 62
7
  6
CONTINUOUS
 70
0
 71
3
 72
9
 73
5
 74
0
 42
0.0000001
 43
0.0000001
 44
0.0000000001
 40
0.0
 40
0.0
 40
0.0
 40
0.0
 40
0.590779207
 40
1.0
 40
1.0
 40
1.0
 40
1.0
 10
78.6078542625
 20
263.9025461257
 30
0.0
 10
78.6066161721
 20
263.9602155818
 30
0.0
 10
78.6067112546
 20
264.0577889859
 30
0.0
 10
78.6081063827
 20
264.1556168064
 30
0.0
 10
78.6123163777
 20
264.1953500599
 30
0.0
  0
SPLINE
  5
47E
100
AcDbEntity
  8
0
100
AcDbSpline
 62
7
  6
CONTINUOUS
 70
0
 71
3
 72
9
 73
5
 74
0
 42
0.0000001
 43
0.0000001
 44
0.0000000001
 40
0.0
 40
0.0
 40
0.0
 40
0.0
 40
0.4057350282
 40
1.0
 40
1.0
 40
1.0
 40
1.0
 10
78.6484781508
 20
264.1927207397
 30
0.0
 10
78.6447414928
 20
264.1537848575
 30
0.0
 10
78.6429945441
 20
264.0572475729
 30
0.0
 10
78.6430195574
 20
263.9608892919
 30
0.0
 10
78.6440036842
 20
263.903607794
 30
0.0
  0
SPLINE
  5
47F
100
AcDbEntity
  8
0
100
AcDbSpline
 62
7
  6
CONTINUOUS
 70
0
 71
3
 72
11
 73
7
 74
0
 42
0.0000001
 43
0.0000001
 44
0.0000000001
 40
0.0
 40
0.0
 40
0.0
 40
0.0
 40
0.2299709258
 40
0.469041941
 40
0.725340683
 40
1.0
 40
1.0
 40
1.0
 40
1.0
 10
61.5209896893
 20
255.2315380919
 30
0.0
 10
62.0639831981
 20
256.2866740474
 30
0.0
 10
63.4807419716
 20
258.2927942476
 30
0.0
 10
66.3950255612
 20
260.6994697296
 30
0.0
 10
69.9803741892
 20
262.4787394097
 30
0.0
 10
72.6413144791
 20
263.2012972333
 30
0.0
 10
74.0350584108
 20
263.4583483965
 30
0.0
  0
SPLINE
  5
480
100
AcDbEntity
  8
0
100
AcDbSpline
 62
7
  6
CONTINUOUS
 70
0
 71
3
 72
9
 73
5
 74
0
 42
0.0000001
 43
0.0000001
 44
0.0000000001
 40
0.0
 40
0.0
 40
0.0
 40
0.0
 40
0.2473187357
 40
1.0
 40
1.0
 40
1.0
 40
1.0
 10
74.0350123622
 20
263.4585457722
 30
0.0
 10
74.4077337935
 20
263.5272817278
 30
0.0
 10
75.9209232847
 20
263.7712134694
 30
0.0
 10
77.4545200776
 20
263.8850580982
 30
0.0
 10
78.6078402917
 20
263.9026988229
 30
0.0
  0
SPLINE
  5
481
100
AcDbEntity
  8
0
100
AcDbSpline
 62
7
  6
CONTINUOUS
 70
0
 71
3
 72
14
 73
10
 74
0
 42
0.0000001
 43
0.0000001
 44
0.0000000001
 40
0.0
 40
0.0
 40
0.0
 40
0.0
 40
0.2497971657
 40
0.5001544933
 40
0.6255780508
 40
0.75118589
 40
0.8769775926
 40
0.9399379744
 40
1.0
 40
1.0
 40
1.0
 40
1.0
 10
79.5808421005
 20
264.1860621277
 30
0.0
 10
79.6732094783
 20
264.1801785746
 30
0.0
 10
79.8580361543
 20
264.1660410971
 30
0.0
 10
80.0884091682
 20
264.1406645146
 30
0.0
 10
80.2722584141
 20
264.1122452703
 30
0.0
 10
80.4086419166
 20
264.0854706212
 30
0.0
 10
80.5230293942
 20
264.0529725545
 30
0.0
 10
80.6041339784
 20
264.0186352384
 30
0.0
 10
80.6466949593
 20
263.9821180106
 30
0.0
 10
80.6460023127
 20
263.9598746766
 30
0.0
  0
SPLINE
  5
482
100
AcDbEntity
  8
0
100
AcDbSpline
 62
7
  6
CONTINUOUS
 70
0
 71
3
 72
13
 73
9
 74
0
 42
0.0000001
 43
0.0000001
 44
0.0000000001
 40
0.0
 40
0.0
 40
0.0
 40
0.0
 40
0.257094012
 40
0.516983516
 40
0.6431771049
 40
0.7655344633
 40
0.8841820846
 40
1.0
 40
1.0
 40
1.0
 40
1.0
 10
91.685164603
 20
264.2360228814
 30
0.0
 10
89.6632237885
 20
263.9426044898
 30
0.0
 10
85.6525103238
 20
262.9055651055
 30
0.0
 10
81.0362770509
 20
260.6106383433
 30
0.0
 10
77.7822334674
 20
258.1998601515
 30
0.0
 10
75.6733331882
 20
256.1699275777
 30
0.0
 10
73.9209823619
 20
253.9274754014
 30
0.0
 10
73.0193907865
 20
252.2854265616
 30
0.0
 10
72.6447905499
 20
251.4447037519
 30
0.0
  0
SPLINE
  5
483
100
AcDbEntity
  8
0
100
AcDbSpline
 62
7
  6
CONTINUOUS
 70
0
 71
3
 72
9
 73
5
 74
0
 42
0.0000001
 43
0.0000001
 44
0.0000000001
 40
0.0
 40
0.0
 40
0.0
 40
0.0
 40
0.2479626288
 40
1.0
 40
1.0
 40
1.0
 40
1.0
 10
72.5604700818
 20
251.6040101672
 30
0.0
 10
72.6509216911
 20
251.8186550449
 30
0.0
 10
73.033754666
 20
252.6766022752
 30
0.0
 10
73.4861323291
 20
253.5032536888
 30
0.0
 10
73.8598031219
 20
254.1027639716
 30
0.0
  0
SPLINE
  5
484
100
AcDbEntity
  8
0
100
AcDbSpline
 62
7
  6
CONTINUOUS
 70
0
 71
3
 72
9
 73
5
 74
0
 42
0.0000001
 43
0.0000001
 44
0.0000000001
 40
0.0
 40
0.0
 40
0.0
 40
0.0
 40
0.4893269803
 40
1.0
 40
1.0
 40
1.0
 40
1.0
 10
73.8598031219
 20
254.1027639716
 30
0.0
 10
74.6845393289
 20
255.4259549897
 30
0.0
 10
76.7119529127
 20
257.9251182908
 30
0.0
 10
79.2064797501
 20
259.9421980062
 30
0.0
 10
80.558137093
 20
260.8481623228
 30
0.0
  0
SPLINE
  5
485
100
AcDbEntity
  8
0
100
AcDbSpline
 62
7
  6
CONTINUOUS
 70
0
 71
3
 72
9
 73
5
 74
0
 42
0.0000001
 43
0.0000001
 44
0.0000000001
 40
0.0
 40
0.0
 40
0.0
 40
0.0
 40
0.2476885985
 40
1.0
 40
1.0
 40
1.0
 40
1.0
 10
80.558137093
 20
260.8481623228
 30
0.0
 10
81.3957779586
 20
261.3302702902
 30
0.0
 10
84.8884076821
 20
263.0779483664
 30
0.0
 10
88.7648681947
 20
264.0547643158
 30
0.0
 10
91.6905536329
 20
264.2945523247
 30
0.0
  0
SPLINE
  5
486
100
AcDbEntity
  8
0
100
AcDbSpline
 62
7
  6
CONTINUOUS
 70
0
 71
3
 72
10
 73
6
 74
0
 42
0.0000001
 43
0.0000001
 44
0.0000000001
 40
0.0
 40
0.0
 40
0.0
 40
0.0
 40
0.5719885789
 40
0.8214917673
 40
1.0
 40
1.0
 40
1.0
 40
1.0
 10
91.7765284026
 20
263.9500249155
 30
0.0
 10
91.7716421335
 20
264.0076941916
 30
0.0
 10
91.7563088867
 20
264.0905256473
 30
0.0
 10
91.7195611924
 20
264.1847272092
 30
0.0
 10
91.6974828079
 20
264.2228113687
 30
0.0
 10
91.6851715754
 20
264.2360277882
 30
0.0
  0
SPLINE
  5
487
100
AcDbEntity
  8
0
100
AcDbSpline
 62
7
  6
CONTINUOUS
 70
0
 71
3
 72
9
 73
5
 74
0
 42
0.0000001
 43
0.0000001
 44
0.0000000001
 40
0.0
 40
0.0
 40
0.0
 40
0.0
 40
0.4242217396
 40
1.0
 40
1.0
 40
1.0
 40
1.0
 10
91.7191778924
 20
264.238890341
 30
0.0
 10
91.7479450922
 20
264.2078332622
 30
0.0
 10
91.7864476257
 20
264.1113846754
 30
0.0
 10
91.8045468815
 20
264.0137417643
 30
0.0
 10
91.809307273
 20
263.9564823356
 30
0.0
  0
SPLINE
  5
488
100
AcDbEntity
  8
0
100
AcDbSpline
 62
7
  6
CONTINUOUS
 70
0
 71
3
 72
9
 73
5
 74
0
 42
0.0000001
 43
0.0000001
 44
0.0000000001
 40
0.0
 40
0.0
 40
0.0
 40
0.0
 40
0.5019177683
 40
1.0
 40
1.0
 40
1.0
 40
1.0
 10
93.7391644445
 20
261.2018902655
 30
0.0
 10
92.5286539882
 20
260.067567709
 30
0.0
 10
90.2688247377
 20
257.6394693134
 30
0.0
 10
88.3980188407
 20
254.8928010283
 30
0.0
 10
87.6017242967
 20
253.4519546394
 30
0.0
  0
SPLINE
  5
489
100
AcDbEntity
  8
0
100
AcDbSpline
 62
7
  6
CONTINUOUS
 70
0
 71
3
 72
9
 73
5
 74
0
 42
0.0000001
 43
0.0000001
 44
0.0000000001
 40
0.0
 40
0.0
 40
0.0
 40
0.0
 40
0.2525233498
 40
1.0
 40
1.0
 40
1.0
 40
1.0
 10
87.6017242967
 20
253.4519546394
 30
0.0
 10
87.4798347927
 20
253.2314030193
 30
0.0
 10
87.0096573594
 20
252.3511908427
 30
0.0
 10
86.591670476
 20
251.4428358664
 30
0.0
 10
86.3138952906
 20
250.7505827613
 30
0.0
  0
SPLINE
  5
48A
100
AcDbEntity
  8
0
100
AcDbSpline
 62
7
  6
CONTINUOUS
 70
0
 71
3
 72
11
 73
7
 74
0
 42
0.0000001
 43
0.0000001
 44
0.0000000001
 40
0.0
 40
0.0
 40
0.0
 40
0.0
 40
0.233892575
 40
0.4796401003
 40
0.7372949086
 40
1.0
 40
1.0
 40
1.0
 40
1.0
 10
73.3080010224
 20
251.1611432682
 30
0.0
 10
73.9080587629
 20
252.4938279788
 30
0.0
 10
75.5344396274
 20
255.0579891774
 30
0.0
 10
78.8521776634
 20
258.2990021921
 30
0.0
 10
82.8675847779
 20
260.9504747354
 30
0.0
 10
85.8587295042
 20
262.2690181719
 30
0.0
 10
87.409951441
 20
262.8061659406
 30
0.0
  0
SPLINE
  5
48B
100
AcDbEntity
  8
0
100
AcDbSpline
 62
7
  6
CONTINUOUS
 70
0
 71
3
 72
9
 73
5
 74
0
 42
0.0000001
 43
0.0000001
 44
0.0000000001
 40
0.0
 40
0.0
 40
0.0
 40
0.0
 40
0.2544541618
 40
1.0
 40
1.0
 40
1.0
 40
1.0
 10
87.4098933798
 20
262.8063551679
 30
0.0
 10
87.7718878649
 20
262.9316984907
 30
0.0
 10
89.2039544219
 20
263.3964972539
 30
0.0
 10
90.6716237501
 20
263.7525336868
 30
0.0
 10
91.7765055998
 20
263.9501746936
 30
0.0
  0
SPLINE
  5
48C
100
AcDbEntity
  8
0
100
AcDbSpline
 62
7
  6
CONTINUOUS
 70
0
 71
3
 72
14
 73
10
 74
0
 42
0.0000001
 43
0.0000001
 44
0.0000000001
 40
0.0
 40
0.0
 40
0.0
 40
0.0
 40
0.2531265449
 40
0.5052185575
 40
0.6307628007
 40
0.7558119189
 40
0.8799984252
 40
0.9414746658
 40
1.0
 40
1.0
 40
1.0
 40
1.0
 10
92.5890372512
 20
264.373288023
 30
0.0
 10
92.6798158739
 20
264.3817350507
 30
0.0
 10
92.8612507359
 20
264.3962686582
 30
0.0
 10
93.088186975
 20
264.4067375822
 30
0.0
 10
93.2694864679
 20
264.4068483326
 30
0.0
 10
93.4037892948
 20
264.4014370995
 30
0.0
 10
93.5170082896
 20
264.3864127815
 30
0.0
 10
93.5985051174
 20
264.3655569571
 30
0.0
 10
93.6422982613
 20
264.3340313784
 30
0.0
 10
93.6430521227
 20
264.3129652868
 30
0.0
  0
SPLINE
  5
48D
100
AcDbEntity
  8
0
100
AcDbSpline
 62
7
  6
CONTINUOUS
 70
0
 71
3
 72
9
 73
5
 74
0
 42
0.0000001
 43
0.0000001
 44
0.0000000001
 40
0.0
 40
0.0
 40
0.0
 40
0.0
 40
0.5161199353
 40
1.0
 40
1.0
 40
1.0
 40
1.0
 10
92.5890372512
 20
264.373288023
 30
0.0
 10
94.4863262193
 20
264.5503800241
 30
0.0
 10
98.1514325379
 20
265.025934934
 30
0.0
 10
101.7685576034
 20
265.7928630548
 30
0.0
 10
103.4957120997
 20
266.249521939
 30
0.0
  0
SPLINE
  5
48E
100
AcDbEntity
  8
0
100
AcDbSpline
 62
7
  6
CONTINUOUS
 70
0
 71
3
 72
15
 73
11
 74
0
 42
0.0000001
 43
0.0000001
 44
0.0000000001
 40
0.0
 40
0.0
 40
0.0
 40
0.0
 40
0.1091031804
 40
0.2283216765
 40
0.3546001918
 40
0.4848266894
 40
0.6162946973
 40
0.7468454692
 40
0.875017403
 40
1.0
 40
1.0
 40
1.0
 40
1.0
 10
103.7233513174
 20
266.2420747411
 30
0.0
 10
102.9107514872
 20
265.9470702492
 30
0.0
 10
101.2451849014
 20
265.2310637485
 30
0.0
 10
98.7781240719
 20
263.8789488246
 30
0.0
 10
96.3002884061
 20
262.2218367702
 30
0.0
 10
93.8974894063
 20
260.2982570941
 30
0.0
 10
91.6481250037
 20
258.1472095464
 30
0.0
 10
89.6231140051
 20
255.8043791668
 30
0.0
 10
87.8812417866
 20
253.304569971
 30
0.0
 10
86.9484929163
 20
251.5212677271
 30
0.0
 10
86.5466616048
 20
250.616141261
 30
0.0
  0
SPLINE
  5
48F
100
AcDbEntity
  8
0
100
AcDbSpline
 62
7
  6
CONTINUOUS
 70
0
 71
3
 72
9
 73
5
 74
0
 42
0.0000001
 43
0.0000001
 44
0.0000000001
 40
0.0
 40
0.0
 40
0.0
 40
0.0
 40
0.2532980192
 40
1.0
 40
1.0
 40
1.0
 40
1.0
 10
93.7391644445
 20
261.2018902655
 30
0.0
 10
94.1210961458
 20
261.4970061518
 30
0.0
 10
95.6548138985
 20
262.6280995966
 30
0.0
 10
97.2883325071
 20
263.6247769758
 30
0.0
 10
98.5523074715
 20
264.2781431689
 30
0.0
  0
SPLINE
  5
490
100
AcDbEntity
  8
0
100
AcDbSpline
 62
7
  6
CONTINUOUS
 70
0
 71
3
 72
9
 73
5
 74
0
 42
0.0000001
 43
0.0000001
 44
0.0000000001
 40
0.0
 40
0.0
 40
0.0
 40
0.0
 40
0.2593433119
 40
1.0
 40
1.0
 40
1.0
 40
1.0
 10
98.9935591247
 20
264.5015848402
 30
0.0
 10
99.3678950606
 20
264.6872082757
 30
0.0
 10
100.8262664964
 20
265.3718290027
 30
0.0
 10
102.3457917164
 20
265.9303144458
 30
0.0
 10
103.4957045411
 20
266.2491007287
 30
0.0
  0
SPLINE
  5
491
100
AcDbEntity
  8
0
100
AcDbSpline
 62
7
  6
CONTINUOUS
 70
0
 71
3
 72
9
 73
5
 74
0
 42
0.0000001
 43
0.0000001
 44
0.0000000001
 40
0.0
 40
0.0
 40
0.0
 40
0.0
 40
0.5341399989
 40
1.0
 40
1.0
 40
1.0
 40
1.0
 10
103.8966205176
 20
265.9767889482
 30
0.0
 10
103.888730053
 20
266.0342696547
 30
0.0
 10
103.8499077183
 20
266.1385121226
 30
0.0
 10
103.7698867402
 20
266.2221988389
 30
0.0
 10
103.723353002
 20
266.2420803255
 30
0.0
  0
SPLINE
  5
492
100
AcDbEntity
  8
0
100
AcDbSpline
 62
7
  6
CONTINUOUS
 70
0
 71
3
 72
9
 73
5
 74
0
 42
0.0000001
 43
0.0000001
 44
0.0000000001
 40
0.0
 40
0.0
 40
0.0
 40
0.0
 40
0.2192719985
 40
1.0
 40
1.0
 40
1.0
 40
1.0
 10
103.7501547248
 20
266.2497425659
 30
0.0
 10
103.7716364258
 20
266.2404061181
 30
0.0
 10
103.8616661528
 20
266.1798051341
 30
0.0
 10
103.9095622011
 20
266.0703306584
 30
0.0
 10
103.9210364006
 20
265.9877254111
 30
0.0
  0
SPLINE
  5
493
100
AcDbEntity
  8
0
100
AcDbSpline
 62
7
  6
CONTINUOUS
 70
0
 71
3
 72
11
 73
7
 74
0
 42
0.0000001
 43
0.0000001
 44
0.0000000001
 40
0.0
 40
0.0
 40
0.0
 40
0.0
 40
0.2458766856
 40
0.5006690904
 40
0.756392674
 40
1.0
 40
1.0
 40
1.0
 40
1.0
 10
87.4351729339
 20
250.4540299625
 30
0.0
 10
88.0689191163
 20
251.8916644675
 30
0.0
 10
89.7013881297
 20
254.6727433228
 30
0.0
 10
92.8334623108
 20
258.3752350517
 30
0.0
 10
96.4287762412
 20
261.6032244117
 30
0.0
 10
99.0611106546
 20
263.4253185072
 30
0.0
 10
100.4010342103
 20
264.2175790829
 30
0.0
  0
SPLINE
  5
494
100
AcDbEntity
  8
0
100
AcDbSpline
 62
7
  6
CONTINUOUS
 70
0
 71
3
 72
9
 73
5
 74
0
 42
0.0000001
 43
0.0000001
 44
0.0000000001
 40
0.0
 40
0.0
 40
0.0
 40
0.0
 40
0.2637020081
 40
1.0
 40
1.0
 40
1.0
 40
1.0
 10
100.4009729759
 20
264.2177589733
 30
0.0
 10
100.6972112904
 20
264.3929105264
 30
0.0
 10
101.8313034823
 20
265.03858757
 30
0.0
 10
103.007881627
 20
265.6115140797
 30
0.0
 10
103.8965923601
 20
265.976934694
 30
0.0
  0
SPLINE
  5
495
100
AcDbEntity
  8
0
100
AcDbSpline
 62
7
  6
CONTINUOUS
 70
0
 71
3
 72
12
 73
8
 74
0
 42
0.0000001
 43
0.0000001
 44
0.0000000001
 40
0.0
 40
0.0
 40
0.0
 40
0.0
 40
0.2576862654
 40
0.5120687857
 40
0.761864742
 40
0.8840862525
 40
1.0
 40
1.0
 40
1.0
 40
1.0
 10
104.4249367784
 20
266.5049915461
 30
0.0
 10
104.5002751246
 20
266.5263803999
 30
0.0
 10
104.6511408138
 20
266.5666856138
 30
0.0
 10
104.8745807728
 20
266.6185570428
 30
0.0
 10
105.0700949008
 20
266.6467968265
 30
0.0
 10
105.2046970168
 20
266.6554503601
 30
0.0
 10
105.3039142643
 20
266.6312927975
 30
0.0
 10
105.3073583625
 20
266.5962331891
 30
0.0
  0
SPLINE
  5
496
100
AcDbEntity
  8
0
100
AcDbSpline
 62
7
  6
CONTINUOUS
 70
0
 71
3
 72
9
 73
5
 74
0
 42
0.0000001
 43
0.0000001
 44
0.0000000001
 40
0.0
 40
0.0
 40
0.0
 40
0.0
 40
0.529100881
 40
1.0
 40
1.0
 40
1.0
 40
1.0
 10
106.3216534537
 20
267.0862255756
 30
0.0
 10
107.5087173542
 20
267.4778105832
 30
0.0
 10
109.7231417585
 20
268.3113336459
 30
0.0
 10
111.8389322747
 20
269.3782534579
 30
0.0
 10
112.7926860452
 20
269.950943982
 30
0.0
  0
SPLINE
  5
497
100
AcDbEntity
  8
0
100
AcDbSpline
 62
7
  6
CONTINUOUS
 70
0
 71
3
 72
15
 73
11
 74
0
 42
0.0000001
 43
0.0000001
 44
0.0000000001
 40
0.0
 40
0.0
 40
0.0
 40
0.0
 40
0.0878348154
 40
0.1933459692
 40
0.3130905012
 40
0.4432243862
 40
0.5800369876
 40
0.7201972472
 40
0.8609420785
 40
1.0
 40
1.0
 40
1.0
 40
1.0
 10
112.894160516
 20
269.908098941
 30
0.0
 10
112.3987884777
 20
269.4877819559
 30
0.0
 10
111.3467862544
 20
268.5172083969
 30
0.0
 10
109.7360082612
 20
266.8521853621
 30
0.0
 10
108.005386907
 20
264.8721914771
 30
0.0
 10
106.2298215331
 20
262.6284736235
 30
0.0
 10
104.4854102042
 20
260.1721954943
 30
0.0
 10
102.8462235514
 20
257.5510699467
 30
0.0
 10
101.3758019044
 20
254.8114382181
 30
0.0
 10
100.561091079
 20
252.9055581673
 30
0.0
 10
100.1961504498
 20
251.9439512646
 30
0.0
  0
SPLINE
  5
498
100
AcDbEntity
  8
0
100
AcDbSpline
 62
7
  6
CONTINUOUS
 70
0
 71
3
 72
9
 73
5
 74
0
 42
0.0000001
 43
0.0000001
 44
0.0000000001
 40
0.0
 40
0.0
 40
0.0
 40
0.0
 40
0.2482804865
 40
1.0
 40
1.0
 40
1.0
 40
1.0
 10
99.8502414028
 20
252.0331374271
 30
0.0
 10
99.929568182
 20
252.2756079035
 30
0.0
 10
100.2604721158
 20
253.2484549835
 30
0.0
 10
100.6317103337
 20
254.2074655369
 30
0.0
 10
100.9305496645
 20
254.9197331694
 30
0.0
  0
SPLINE
  5
499
100
AcDbEntity
  8
0
100
AcDbSpline
 62
7
  6
CONTINUOUS
 70
0
 71
3
 72
9
 73
5
 74
0
 42
0.0000001
 43
0.0000001
 44
0.0000000001
 40
0.0
 40
0.0
 40
0.0
 40
0.0
 40
0.5095686892
 40
1.0
 40
1.0
 40
1.0
 40
1.0
 10
100.9305496645
 20
254.9197331694
 30
0.0
 10
101.5730697226
 20
256.4511455149
 30
0.0
 10
103.0107487972
 20
259.3836403797
 30
0.0
 10
104.6974799313
 20
262.1761005011
 30
0.0
 10
105.5728323015
 20
263.5134639043
 30
0.0
  0
SPLINE
  5
49A
100
AcDbEntity
  8
0
100
AcDbSpline
 62
7
  6
CONTINUOUS
 70
0
 71
3
 72
11
 73
7
 74
0
 42
0.0000001
 43
0.0000001
 44
0.0000000001
 40
0.0
 40
0.0
 40
0.0
 40
0.0
 40
0.2832425958
 40
0.548162833
 40
0.7888349162
 40
1.0
 40
1.0
 40
1.0
 40
1.0
 10
105.5728323015
 20
263.5134639043
 30
0.0
 10
106.1708874106
 20
264.208036721
 30
0.0
 10
107.3698589787
 20
265.5172141055
 30
0.0
 10
109.2140782437
 20
267.2849829948
 30
0.0
 10
111.0012135529
 20
268.7666349226
 30
0.0
 10
112.2070216543
 20
269.5992102437
 30
0.0
 10
112.7928423502
 20
269.9509937099
 30
0.0
  0
SPLINE
  5
49B
100
AcDbEntity
  8
0
100
AcDbSpline
 62
7
  6
CONTINUOUS
 70
0
 71
3
 72
9
 73
5
 74
0
 42
0.0000001
 43
0.0000001
 44
0.0000000001
 40
0.0
 40
0.0
 40
0.0
 40
0.0
 40
0.5018022964
 40
1.0
 40
1.0
 40
1.0
 40
1.0
 10
113.1229564489
 20
269.6742817746
 30
0.0
 10
113.1132918313
 20
269.7306272613
 30
0.0
 10
113.0558772374
 20
269.8376240496
 30
0.0
 10
112.9499950862
 20
269.8979306611
 30
0.0
 10
112.8941566573
 20
269.9081043559
 30
0.0
  0
SPLINE
  5
49C
100
AcDbEntity
  8
0
100
AcDbSpline
 62
7
  6
CONTINUOUS
 70
0
 71
3
 72
9
 73
5
 74
0
 42
0.0000001
 43
0.0000001
 44
0.0000000001
 40
0.0
 40
0.0
 40
0.0
 40
0.0
 40
0.4975414583
 40
1.0
 40
1.0
 40
1.0
 40
1.0
 10
112.9094368892
 20
269.9189997883
 30
0.0
 10
112.9646071156
 20
269.9086754126
 30
0.0
 10
113.0714994666
 20
269.8518971136
 30
0.0
 10
113.1254711603
 20
269.7439245341
 30
0.0
 10
113.1352867454
 20
269.6880982244
 30
0.0
  0
SPLINE
  5
49D
100
AcDbEntity
  8
0
100
AcDbSpline
 62
7
  6
CONTINUOUS
 70
0
 71
3
 72
9
 73
5
 74
0
 42
0.0000001
 43
0.0000001
 44
0.0000000001
 40
0.0
 40
0.0
 40
0.0
 40
0.0
 40
0.2571094758
 40
1.0
 40
1.0
 40
1.0
 40
1.0
 10
113.1373069134
 20
269.6880299869
 30
0.0
 10
113.2028769956
 20
269.75108904
 30
0.0
 10
113.4548556764
 20
269.9994860139
 30
0.0
 10
113.6942935765
 20
270.2607244741
 30
0.0
 10
113.8631279092
 20
270.4621865049
 30
0.0
  0
SPLINE
  5
49E
100
AcDbEntity
  8
0
100
AcDbSpline
 62
7
  6
CONTINUOUS
 70
0
 71
3
 72
9
 73
5
 74
0
 42
0.0000001
 43
0.0000001
 44
0.0000000001
 40
0.0
 40
0.0
 40
0.0
 40
0.0
 40
0.4807912719
 40
1.0
 40
1.0
 40
1.0
 40
1.0
 10
114.2575453214
 20
267.4309494925
 30
0.0
 10
113.8807838154
 20
265.9611106426
 30
0.0
 10
113.0384728308
 20
262.9194828663
 30
0.0
 10
112.2140392764
 20
259.8728149787
 30
0.0
 10
111.8172518405
 20
258.2829796736
 30
0.0
  0
SPLINE
  5
49F
100
AcDbEntity
  8
0
100
AcDbSpline
 62
7
  6
CONTINUOUS
 70
0
 71
3
 72
9
 73
5
 74
0
 42
0.0000001
 43
0.0000001
 44
0.0000000001
 40
0.0
 40
0.0
 40
0.0
 40
0.0
 40
0.7505499549
 40
1.0
 40
1.0
 40
1.0
 40
1.0
 10
111.8172518405
 20
258.2829796736
 30
0.0
 10
111.6289319179
 20
257.5284253846
 30
0.0
 10
111.3874832828
 20
256.520650613
 30
0.0
 10
111.1636463291
 20
255.5089310474
 30
0.0
 10
111.1090541309
 20
255.2562886509
 30
0.0
  0
SPLINE
  5
4A0
100
AcDbEntity
  8
0
100
AcDbSpline
 62
7
  6
CONTINUOUS
 70
0
 71
3
 72
11
 73
7
 74
0
 42
0.0000001
 43
0.0000001
 44
0.0000000001
 40
0.0
 40
0.0
 40
0.0
 40
0.0
 40
0.2631890604
 40
0.5275052578
 40
0.778942443
 40
1.0
 40
1.0
 40
1.0
 40
1.0
 10
101.1746948401
 20
251.927969508
 30
0.0
 10
101.7383535436
 20
253.4497591281
 30
0.0
 10
103.1173056521
 20
256.4090637348
 30
0.0
 10
105.6144496986
 20
260.5182629879
 30
0.0
 10
108.2718391102
 20
264.2076829466
 30
0.0
 10
110.1251724109
 20
266.458790613
 30
0.0
 10
111.0305321304
 20
267.4777129661
 30
0.0
  0
SPLINE
  5
4A1
100
AcDbEntity
  8
0
100
AcDbSpline
 62
7
  6
CONTINUOUS
 70
0
 71
3
 72
9
 73
5
 74
0
 42
0.0000001
 43
0.0000001
 44
0.0000000001
 40
0.0
 40
0.0
 40
0.0
 40
0.0
 40
0.2776921224
 40
1.0
 40
1.0
 40
1.0
 40
1.0
 10
111.0304770451
 20
267.4778837525
 30
0.0
 10
111.2170238448
 20
267.6878230754
 30
0.0
 10
111.8950421689
 20
268.4381957327
 30
0.0
 10
112.596776682
 20
269.1676578302
 30
0.0
 10
113.1229272274
 20
269.6744229845
 30
0.0
  0
SPLINE
  5
4A2
100
AcDbEntity
  8
0
100
AcDbSpline
 62
7
  6
CONTINUOUS
 70
0
 71
3
 72
16
 73
12
 74
0
 42
0.0000001
 43
0.0000001
 44
0.0000000001
 40
0.0
 40
0.0
 40
0.0
 40
0.0
 40
0.2627308169
 40
0.5167869492
 40
0.63963165
 40
0.7586608435
 40
0.8163688195
 40
0.8726294828
 40
0.9280843935
 40
0.958458178
 40
1.0
 40
1.0
 40
1.0
 40
1.0
 10
113.2866686873
 20
270.2566464904
 30
0.0
 10
113.3350339026
 20
270.2874863979
 30
0.0
 10
113.4311333406
 20
270.3466357537
 30
0.0
 10
113.5534145281
 20
270.4143379103
 30
0.0
 10
113.651470848
 20
270.4603507594
 30
0.0
 10
113.7125681332
 20
270.4839947065
 30
0.0
 10
113.7617597238
 20
270.4973735438
 30
0.0
 10
113.7983140083
 20
270.5029382127
 30
0.0
 10
113.8301245184
 20
270.5011427611
 30
0.0
 10
113.8551960591
 20
270.4868737072
 30
0.0
 10
113.8618076003
 20
270.471043439
 30
0.0
 10
113.8631365688
 20
270.4620716553
 30
0.0
  0
SPLINE
  5
4A3
100
AcDbEntity
  8
0
100
AcDbSpline
 62
7
  6
CONTINUOUS
 70
0
 71
3
 72
10
 73
6
 74
0
 42
0.0000001
 43
0.0000001
 44
0.0000000001
 40
0.0
 40
0.0
 40
0.0
 40
0.0
 40
0.2873519607
 40
0.5486348585
 40
1.0
 40
1.0
 40
1.0
 40
1.0
 10
113.2866686873
 20
270.2566464904
 30
0.0
 10
113.7955123216
 20
270.5813958166
 30
0.0
 10
114.7414220355
 20
271.2455093013
 30
0.0
 10
116.3180604066
 20
272.6333356238
 30
0.0
 10
117.2544397371
 20
273.8460924447
 30
0.0
 10
117.6660611453
 20
274.7002729134
 30
0.0
  0
SPLINE
  5
4A4
100
AcDbEntity
  8
0
100
AcDbSpline
 62
7
  6
CONTINUOUS
 70
0
 71
3
 72
16
 73
12
 74
0
 42
0.0000001
 43
0.0000001
 44
0.0000000001
 40
0.0
 40
0.0
 40
0.0
 40
0.0
 40
0.0331885992
 40
0.0720537245
 40
0.1659581428
 40
0.2790652525
 40
0.4076670767
 40
0.547784363
 40
0.6955308745
 40
0.8473656606
 40
1.0
 40
1.0
 40
1.0
 40
1.0
 10
117.8014196398
 20
274.6759765465
 30
0.0
 10
117.7767619407
 20
274.4509651828
 30
0.0
 10
117.6990458394
 20
273.9651123225
 30
0.0
 10
117.4515501271
 20
272.8602061473
 30
0.0
 10
116.9757496489
 20
271.2506401432
 30
0.0
 10
116.2361685094
 20
269.0843421643
 30
0.0
 10
115.3431182018
 20
266.6379266535
 30
0.0
 10
114.3579110996
 20
263.9738314069
 30
0.0
 10
113.3449350708
 20
261.151141226
 30
0.0
 10
112.3622629078
 20
258.2269664765
 30
0.0
 10
111.7874108768
 20
256.2308017089
 30
0.0
 10
111.5152461414
 20
255.2259867266
 30
0.0
  0
SPLINE
  5
4A5
100
AcDbEntity
  8
0
100
AcDbSpline
 62
7
  6
CONTINUOUS
 70
0
 71
3
 72
9
 73
5
 74
0
 42
0.0000001
 43
0.0000001
 44
0.0000000001
 40
0.0
 40
0.0
 40
0.0
 40
0.0
 40
0.3082254555
 40
1.0
 40
1.0
 40
1.0
 40
1.0
 10
114.2575453214
 20
267.4309494925
 30
0.0
 10
114.5945254677
 20
268.183902233
 30
0.0
 10
115.7066413596
 20
270.6183604868
 30
0.0
 10
116.8624319919
 20
273.0324488232
 30
0.0
 10
117.6661226555
 20
274.7003475684
 30
0.0
  0
SPLINE
  5
4A6
100
AcDbEntity
  8
0
100
AcDbSpline
 62
7
  6
CONTINUOUS
 70
0
 71
3
 72
9
 73
5
 74
0
 42
0.0000001
 43
0.0000001
 44
0.0000000001
 40
0.0
 40
0.0
 40
0.0
 40
0.0
 40
0.4849620087
 40
1.0
 40
1.0
 40
1.0
 40
1.0
 10
118.0509101953
 20
274.4795936556
 30
0.0
 10
118.0411990515
 20
274.5331739702
 30
0.0
 10
117.9746300806
 20
274.637446866
 30
0.0
 10
117.8592336214
 20
274.6750502643
 30
0.0
 10
117.8014108236
 20
274.6759809692
 30
0.0
  0
SPLINE
  5
4A7
100
AcDbEntity
  8
0
100
AcDbSpline
 62
7
  6
CONTINUOUS
 70
0
 71
3
 72
9
 73
5
 74
0
 42
0.0000001
 43
0.0000001
 44
0.0000000001
 40
0.0
 40
0.0
 40
0.0
 40
0.0
 40
0.5145838521
 40
1.0
 40
1.0
 40
1.0
 40
1.0
 10
117.8029707202
 20
274.6881891556
 30
0.0
 10
117.8602166769
 20
274.6870028511
 30
0.0
 10
117.9763496578
 20
274.653023228
 30
0.0
 10
118.0392930506
 20
274.5473287909
 30
0.0
 10
118.0492695877
 20
274.4942454269
 30
0.0
  0
SPLINE
  5
4A8
100
AcDbEntity
  8
0
100
AcDbSpline
 62
7
  6
CONTINUOUS
 70
0
 71
3
 72
12
 73
8
 74
0
 42
0.0000001
 43
0.0000001
 44
0.0000000001
 40
0.0
 40
0.0
 40
0.0
 40
0.0
 40
0.2791866145
 40
0.5504212345
 40
0.7967439441
 40
0.9048535588
 40
1.0
 40
1.0
 40
1.0
 40
1.0
 10
112.4348490797
 20
255.3585679702
 30
0.0
 10
112.8421674475
 20
256.9391831712
 30
0.0
 10
113.7757788925
 20
260.0215158125
 30
0.0
 10
115.2945980207
 20
264.424608566
 30
0.0
 10
116.4821644203
 20
267.8850345329
 30
0.0
 10
117.249619815
 20
270.3992167484
 30
0.0
 10
117.5547615712
 20
271.5482994891
 30
0.0
 10
117.6802004964
 20
272.0902417563
 30
0.0
  0
SPLINE
  5
4A9
100
AcDbEntity
  8
0
100
AcDbSpline
 62
7
  6
CONTINUOUS
 70
0
 71
3
 72
9
 73
5
 74
0
 42
0.0000001
 43
0.0000001
 44
0.0000000001
 40
0.0
 40
0.0
 40
0.0
 40
0.0
 40
0.5505644211
 40
1.0
 40
1.0
 40
1.0
 40
1.0
 10
117.6801599503
 20
272.0904050418
 30
0.0
 10
117.780330499
 20
272.5231578052
 30
0.0
 10
117.9420298306
 20
273.3139840367
 30
0.0
 10
118.0370688628
 20
274.1173895573
 30
0.0
 10
118.0508843631
 20
274.4797304936
 30
0.0
  0
SPLINE
  5
4AA
100
AcDbEntity
  8
0
100
AcDbSpline
 62
7
  6
CONTINUOUS
 70
0
 71
3
 72
17
 73
13
 74
0
 42
0.0000001
 43
0.0000001
 44
0.0000000001
 40
0.0
 40
0.0
 40
0.0
 40
0.0
 40
0.2940963645
 40
0.4323470191
 40
0.5630719429
 40
0.6840051905
 40
0.790910657
 40
0.8366699821
 40
0.8751227673
 40
0.9085497285
 40
0.9373725996
 40
1.0
 40
1.0
 40
1.0
 40
1.0
 10
117.8247680899
 20
275.0562978663
 30
0.0
 10
117.8391767976
 20
275.0914544774
 30
0.0
 10
117.8607244211
 20
275.1429981775
 30
0.0
 10
117.8903715995
 20
275.2094203763
 30
0.0
 10
117.9119666216
 20
275.2549654135
 30
0.0
 10
117.9335225892
 20
275.2958990876
 30
0.0
 10
117.9519148641
 20
275.3263649496
 30
0.0
 10
117.9678820011
 20
275.3450607142
 30
0.0
 10
117.9792546985
 20
275.3557425627
 30
0.0
 10
117.9944768514
 20
275.3559860033
 30
0.0
 10
118.0038401852
 20
275.3412673772
 30
0.0
 10
118.006429085
 20
275.3299079325
 30
0.0
 10
118.0078472561
 20
275.3219422704
 30
0.0
  0
SPLINE
  5
4AB
100
AcDbEntity
  8
0
100
AcDbSpline
 62
7
  6
CONTINUOUS
 70
0
 71
3
 72
9
 73
5
 74
0
 42
0.0000001
 43
0.0000001
 44
0.0000000001
 40
0.0
 40
0.0
 40
0.0
 40
0.0
 40
0.5079917543
 40
1.0
 40
1.0
 40
1.0
 40
1.0
 10
117.8247680899
 20
275.0562978663
 30
0.0
 10
117.9909227424
 20
275.4618062012
 30
0.0
 10
118.2347311405
 20
276.298345021
 30
0.0
 10
118.2673650019
 20
277.1705311318
 30
0.0
 10
118.2306913763
 20
277.5933839838
 30
0.0
  0
SPLINE
  5
4AC
100
AcDbEntity
  8
0
100
AcDbSpline
 62
7
  6
CONTINUOUS
 70
0
 71
3
 72
15
 73
11
 74
0
 42
0.0000001
 43
0.0000001
 44
0.0000000001
 40
0.0
 40
0.0
 40
0.0
 40
0.0
 40
0.083229374
 40
0.1798153709
 40
0.2910426301
 40
0.4158725718
 40
0.5520717998
 40
0.6968253678
 40
0.84717273
 40
1.0
 40
1.0
 40
1.0
 40
1.0
 10
117.7943170785
 20
279.7122351404
 30
0.0
 10
118.1618312936
 20
279.2890363503
 30
0.0
 10
118.800233894
 20
278.2378347057
 30
0.0
 10
119.4033322263
 20
276.3620664546
 30
0.0
 10
119.7450695056
 20
274.1413072991
 30
0.0
 10
119.8510689747
 20
271.6333226545
 30
0.0
 10
119.7612842905
 20
268.9003971609
 30
0.0
 10
119.5204388563
 20
266.0050211964
 30
0.0
 10
119.1711418558
 20
263.0085971257
 30
0.0
 10
118.918797363
 20
260.9824892971
 30
0.0
 10
118.7807189683
 20
259.9625874993
 30
0.0
  0
SPLINE
  5
4AD
100
AcDbEntity
  8
0
100
AcDbSpline
 62
7
  6
CONTINUOUS
 70
0
 71
3
 72
10
 73
6
 74
0
 42
0.0000001
 43
0.0000001
 44
0.0000000001
 40
0.0
 40
0.0
 40
0.0
 40
0.0
 40
0.520726886
 40
0.7672054044
 40
1.0
 40
1.0
 40
1.0
 40
1.0
 10
118.6043037085
 20
263.0293112017
 30
0.0
 10
118.7036278623
 20
264.6478580072
 30
0.0
 10
118.7984630942
 20
267.03784481
 30
0.0
 10
118.7054405798
 20
270.151748501
 30
0.0
 10
118.5683081573
 20
271.6395453063
 30
0.0
 10
118.4711471448
 20
272.3579485982
 30
0.0
  0
SPLINE
  5
4AE
100
AcDbEntity
  8
0
100
AcDbSpline
 62
7
  6
CONTINUOUS
 70
0
 71
3
 72
9
 73
5
 74
0
 42
0.0000001
 43
0.0000001
 44
0.0000000001
 40
0.0
 40
0.0
 40
0.0
 40
0.0
 40
0.5408437009
 40
1.0
 40
1.0
 40
1.0
 40
1.0
 10
118.4711471448
 20
272.3579485982
 30
0.0
 10
118.5153190503
 20
273.3033982462
 30
0.0
 10
118.5441122693
 20
275.0544591127
 30
0.0
 10
118.3950177434
 20
276.8048269225
 30
0.0
 10
118.2536744086
 20
277.5958251664
 30
0.0
  0
SPLINE
  5
4AF
100
AcDbEntity
  8
0
100
AcDbSpline
 62
7
  6
CONTINUOUS
 70
0
 71
3
 72
9
 73
5
 74
0
 42
0.0000001
 43
0.0000001
 44
0.0000000001
 40
0.0
 40
0.0
 40
0.0
 40
0.0
 40
0.5153955601
 40
1.0
 40
1.0
 40
1.0
 40
1.0
 10
117.685633748
 20
279.8312095258
 30
0.0
 10
117.7180734174
 20
279.8357375955
 30
0.0
 10
117.7836874695
 20
279.834223051
 30
0.0
 10
117.8419193613
 20
279.8011486209
 30
0.0
 10
117.8635392798
 20
279.7792156397
 30
0.0
  0
SPLINE
  5
4B0
100
AcDbEntity
  8
0
100
AcDbSpline
 62
7
  6
CONTINUOUS
 70
0
 71
3
 72
11
 73
7
 74
0
 42
0.0000001
 43
0.0000001
 44
0.0000000001
 40
0.0
 40
0.0
 40
0.0
 40
0.0
 40
0.268863886
 40
0.5307635141
 40
0.777049925
 40
1.0
 40
1.0
 40
1.0
 40
1.0
 10
119.5013792437
 20
260.2235478318
 30
0.0
 10
119.6532840978
 20
261.4906163958
 30
0.0
 10
119.9508251152
 20
263.992191324
 30
0.0
 10
120.2850791354
 20
267.6665223861
 30
0.0
 10
120.3936013467
 20
271.1375100399
 30
0.0
 10
120.2437075345
 20
273.3671734571
 30
0.0
 10
120.0863043591
 20
274.4136169924
 30
0.0
  0
SPLINE
  5
4B1
100
AcDbEntity
  8
0
100
AcDbSpline
 62
7
  6
CONTINUOUS
 70
0
 71
3
 72
10
 73
6
 74
0
 42
0.0000001
 43
0.0000001
 44
0.0000000001
 40
0.0
 40
0.0
 40
0.0
 40
0.0
 40
0.2447201485
 40
0.4890842802
 40
1.0
 40
1.0
 40
1.0
 40
1.0
 10
51.6167221139
 20
278.1039133736
 30
0.0
 10
51.5607982166
 20
277.803379302
 30
0.0
 10
51.5005499664
 20
277.1915071402
 30
0.0
 10
51.6007793661
 20
275.9411667564
 30
0.0
 10
51.9298085355
 20
275.0335835157
 30
0.0
 10
52.2283467673
 20
274.4695005379
 30
0.0
  0
SPLINE
  5
4B2
100
AcDbEntity
  8
0
100
AcDbSpline
 62
7
  6
CONTINUOUS
 70
0
 71
3
 72
9
 73
5
 74
0
 42
0.0000001
 43
0.0000001
 44
0.0000000001
 40
0.0
 40
0.0
 40
0.0
 40
0.0
 40
0.4976727167
 40
1.0
 40
1.0
 40
1.0
 40
1.0
 10
120.5757555797
 20
270.2565186485
 30
0.0
 10
120.6692284765
 20
269.4598318212
 30
0.0
 10
120.8108691066
 20
267.8534834565
 30
0.0
 10
120.8766837128
 20
266.2422412119
 30
0.0
 10
120.8864566856
 20
265.4326464076
 30
0.0
  0
SPLINE
  5
4B3
100
AcDbEntity
  8
0
100
AcDbSpline
 62
7
  6
CONTINUOUS
 70
0
 71
3
 72
8
 73
4
 74
0
 42
0.0000001
 43
0.0000001
 44
0.0000000001
 40
0.0
 40
0.0
 40
0.0
 40
0.0
 40
1.0
 40
1.0
 40
1.0
 40
1.0
 10
117.8769795068
 20
279.7657524618
 30
0.0
 10
117.8581201063
 20
279.7848670283
 30
0.0
 10
117.8341264883
 20
279.7996513693
 30
0.0
 10
117.8088696113
 20
279.8087691436
 30
0.0
  0
SPLINE
  5
4B4
100
AcDbEntity
  8
0
100
AcDbSpline
 62
7
  6
CONTINUOUS
 70
0
 71
3
 72
8
 73
4
 74
0
 42
0.0000001
 43
0.0000001
 44
0.0000000001
 40
0.0
 40
0.0
 40
0.0
 40
0.0
 40
1.0
 40
1.0
 40
1.0
 40
1.0
 10
117.8088696113
 20
279.8087691436
 30
0.0
 10
117.7739453091
 20
279.8213768743
 30
0.0
 10
117.7347796099
 20
279.8251514278
 30
0.0
 10
117.6980305367
 20
279.8198441325
 30
0.0
  0
SPLINE
  5
4B5
100
AcDbEntity
  8
0
100
AcDbSpline
 62
7
  6
CONTINUOUS
 70
0
 71
3
 72
9
 73
5
 74
0
 42
0.0000001
 43
0.0000001
 44
0.0000000001
 40
0.0
 40
0.0
 40
0.0
 40
0.0
 40
0.2342840201
 40
1.0
 40
1.0
 40
1.0
 40
1.0
 10
51.7726730007
 20
279.8735270931
 30
0.0
 10
51.7666778554
 20
279.8386294536
 30
0.0
 10
51.7439328288
 20
279.6891880049
 30
0.0
 10
51.7317944821
 20
279.538238398
 30
0.0
 10
51.7268757915
 20
279.4226153785
 30
0.0
  0
SPLINE
  5
4B6
100
AcDbEntity
  8
0
100
AcDbSpline
 62
7
  6
CONTINUOUS
 70
0
 71
3
 72
10
 73
6
 74
0
 42
0.0000001
 43
0.0000001
 44
0.0000000001
 40
0.0
 40
0.0
 40
0.0
 40
0.0
 40
0.5437846952
 40
0.7835259224
 40
1.0
 40
1.0
 40
1.0
 40
1.0
 10
69.6623183232
 20
289.3517493197
 30
0.0
 10
68.0786292307
 20
288.9272327755
 30
0.0
 10
65.8231142904
 20
288.1883055683
 30
0.0
 10
63.0951546912
 20
286.8968495092
 30
0.0
 10
61.912952715
 20
286.1867864671
 30
0.0
 10
61.3763169158
 20
285.8152421435
 30
0.0
  0
SPLINE
  5
4B7
100
AcDbEntity
  8
0
100
AcDbSpline
 62
7
  6
CONTINUOUS
 70
0
 71
3
 72
15
 73
11
 74
0
 42
0.0000001
 43
0.0000001
 44
0.0000000001
 40
0.0
 40
0.0
 40
0.0
 40
0.0
 40
0.1579101163
 40
0.3001383679
 40
0.4283718649
 40
0.5455232165
 40
0.6558698994
 40
0.7647716792
 40
0.8778477256
 40
1.0
 40
1.0
 40
1.0
 40
1.0
 10
61.3763169158
 20
285.8152421435
 30
0.0
 10
60.9598685485
 20
285.5269106025
 30
0.0
 10
60.1948215378
 20
284.9382757868
 30
0.0
 10
59.2205119839
 20
283.9628272921
 30
0.0
 10
58.4904221057
 20
282.9482716291
 30
0.0
 10
58.0155283961
 20
281.9009262353
 30
0.0
 10
57.8079864019
 20
280.8308372889
 30
0.0
 10
57.8759432568
 20
279.7554272001
 30
0.0
 10
58.2162438642
 20
278.6950449272
 30
0.0
 10
58.5992561981
 20
278.0383261271
 30
0.0
 10
58.8247159668
 20
277.7178686091
 30
0.0
  0
SPLINE
  5
4B8
100
AcDbEntity
  8
0
100
AcDbSpline
 62
7
  6
CONTINUOUS
 70
0
 71
3
 72
9
 73
5
 74
0
 42
0.0000001
 43
0.0000001
 44
0.0000000001
 40
0.0
 40
0.0
 40
0.0
 40
0.0
 40
0.4558195729
 40
1.0
 40
1.0
 40
1.0
 40
1.0
 10
58.8247159668
 20
277.7178686091
 30
0.0
 10
59.26722893
 20
277.0889022675
 30
0.0
 10
60.4662402395
 20
275.8700985551
 30
0.0
 10
61.8812744338
 20
274.9368750148
 30
0.0
 10
62.6802087838
 20
274.4845065039
 30
0.0
  0
SPLINE
  5
4B9
100
AcDbEntity
  8
0
100
AcDbSpline
 62
7
  6
CONTINUOUS
 70
0
 71
3
 72
15
 73
11
 74
0
 42
0.0000001
 43
0.0000001
 44
0.0000000001
 40
0.0
 40
0.0
 40
0.0
 40
0.0
 40
0.0982760475
 40
0.211177951
 40
0.335958065
 40
0.4690195022
 40
0.6062624243
 40
0.7433496014
 40
0.8759480799
 40
1.0
 40
1.0
 40
1.0
 40
1.0
 10
62.6802087838
 20
274.4845065039
 30
0.0
 10
63.7649780913
 20
273.870293989
 30
0.0
 10
66.2198094182
 20
272.768123339
 30
0.0
 10
70.301576761
 20
271.5189687191
 30
0.0
 10
74.9196299756
 20
270.5946640051
 30
0.0
 10
79.9046742253
 20
270.0313204191
 30
0.0
 10
85.0740569142
 20
269.8503619119
 30
0.0
 10
90.2366700963
 20
270.0589835174
 30
0.0
 10
95.201105138
 20
270.6489130713
 30
0.0
 10
98.3947359857
 20
271.3096077474
 30
0.0
 10
99.9165435231
 20
271.7097835274
 30
0.0
  0
SPLINE
  5
4BA
100
AcDbEntity
  8
0
100
AcDbSpline
 62
7
  6
CONTINUOUS
 70
0
 71
3
 72
15
 73
11
 74
0
 42
0.0000001
 43
0.0000001
 44
0.0000000001
 40
0.0
 40
0.0
 40
0.0
 40
0.0
 40
0.1205108221
 40
0.2418654388
 40
0.3649474747
 40
0.4905225454
 40
0.6153372401
 40
0.7421094206
 40
0.8708215156
 40
1.0
 40
1.0
 40
1.0
 40
1.0
 10
101.6313021803
 20
270.3592798626
 30
0.0
 10
101.4390579369
 20
270.3084505853
 30
0.0
 10
101.0519980178
 20
270.2111172113
 30
0.0
 10
100.4684655026
 20
270.0624984568
 30
0.0
 10
99.8744731022
 20
269.9207383039
 30
0.0
 10
99.2691025534
 20
269.8047135529
 30
0.0
 10
98.6632379394
 20
269.662031414
 30
0.0
 10
98.0474274499
 20
269.5407819876
 30
0.0
 10
97.4221583436
 20
269.4316896354
 30
0.0
 10
97.0034145556
 20
269.3559140938
 30
0.0
 10
96.7933059281
 20
269.3200202261
 30
0.0
  0
SPLINE
  5
4BB
100
AcDbEntity
  8
0
100
AcDbSpline
 62
7
  6
CONTINUOUS
 70
0
 71
3
 72
19
 73
15
 74
0
 42
0.0000001
 43
0.0000001
 44
0.0000000001
 40
0.0
 40
0.0
 40
0.0
 40
0.0
 40
0.0320877578
 40
0.0644679169
 40
0.0972887944
 40
0.1304403079
 40
0.1974930608
 40
0.2652876864
 40
0.4015250875
 40
0.5360529418
 40
0.6658271691
 40
0.7879960214
 40
0.9000519353
 40
1.0
 40
1.0
 40
1.0
 40
1.0
 10
96.6451938924
 20
269.295032967
 30
0.0
 10
96.2628948889
 20
269.2314072642
 30
0.0
 10
95.4926016284
 20
269.1173740244
 30
0.0
 10
94.3302972485
 20
268.9443204624
 30
0.0
 10
93.1504563052
 20
268.8048804632
 30
0.0
 10
91.5522410758
 20
268.6400153961
 30
0.0
 10
89.5290244918
 20
268.4799779011
 30
0.0
 10
86.2576854801
 20
268.3324143819
 30
0.0
 10
82.1654811795
 20
268.3477237149
 30
0.0
 10
77.3355516466
 20
268.6770602186
 30
0.0
 10
72.7070022118
 20
269.31026181
 30
0.0
 10
68.4028329611
 20
270.2294643796
 30
0.0
 10
64.5375739458
 20
271.4092229262
 30
0.0
 10
62.1727639084
 20
272.4106196371
 30
0.0
 10
61.0979602154
 20
272.9602324012
 30
0.0
  0
SPLINE
  5
4BC
100
AcDbEntity
  8
0
100
AcDbSpline
 62
7
  6
CONTINUOUS
 70
0
 71
3
 72
9
 73
5
 74
0
 42
0.0000001
 43
0.0000001
 44
0.0000000001
 40
0.0
 40
0.0
 40
0.0
 40
0.0
 40
0.2657675947
 40
1.0
 40
1.0
 40
1.0
 40
1.0
 10
61.0979602154
 20
272.9602324012
 30
0.0
 10
60.8368971376
 20
273.0937298955
 30
0.0
 10
59.8639016243
 20
273.6135711555
 30
0.0
 10
58.9285120122
 20
274.2071697227
 30
0.0
 10
58.2814721854
 20
274.6945523864
 30
0.0
  0
SPLINE
  5
4BD
100
AcDbEntity
  8
0
100
AcDbSpline
 62
7
  6
CONTINUOUS
 70
0
 71
3
 72
15
 73
11
 74
0
 42
0.0000001
 43
0.0000001
 44
0.0000000001
 40
0.0
 40
0.0
 40
0.0
 40
0.0
 40
0.1543395381
 40
0.2935791376
 40
0.4197113073
 40
0.5359675559
 40
0.6468495838
 40
0.7577170274
 40
0.8739324949
 40
1.0
 40
1.0
 40
1.0
 40
1.0
 10
58.2814721854
 20
274.6945523864
 30
0.0
 10
57.8577626503
 20
275.0137115375
 30
0.0
 10
57.0828038671
 20
275.6645273967
 30
0.0
 10
56.1113660679
 20
276.7381611238
 30
0.0
 10
55.4030001877
 20
277.8510897066
 30
0.0
 10
54.9694133261
 20
278.9958530454
 30
0.0
 10
54.8223872221
 20
280.1600477556
 30
0.0
 10
54.9678785744
 20
281.3243892724
 30
0.0
 10
55.399927726
 20
282.4690014943
 30
0.0
 10
55.8493290419
 20
283.1766803687
 30
0.0
 10
56.1102046447
 20
283.5226386129
 30
0.0
  0
SPLINE
  5
4BE
100
AcDbEntity
  8
0
100
AcDbSpline
 62
7
  6
CONTINUOUS
 70
0
 71
3
 72
9
 73
5
 74
0
 42
0.0000001
 43
0.0000001
 44
0.0000000001
 40
0.0
 40
0.0
 40
0.0
 40
0.0
 40
0.2436078958
 40
1.0
 40
1.0
 40
1.0
 40
1.0
 10
56.1102046447
 20
283.5226386129
 30
0.0
 10
56.1572165199
 20
283.5849830621
 30
0.0
 10
56.3539195424
 20
283.8380880696
 30
0.0
 10
56.5649306231
 20
284.0799812817
 30
0.0
 10
56.7308850134
 20
284.2567249895
 30
0.0
  0
SPLINE
  5
4BF
100
AcDbEntity
  8
0
100
AcDbSpline
 62
7
  6
CONTINUOUS
 70
0
 71
3
 72
11
 73
7
 74
0
 42
0.0000001
 43
0.0000001
 44
0.0000000001
 40
0.0
 40
0.0
 40
0.0
 40
0.0
 40
0.201894507
 40
0.4363854966
 40
0.7032318932
 40
1.0
 40
1.0
 40
1.0
 40
1.0
 10
56.745110227
 20
284.2718433116
 30
0.0
 10
57.3010578526
 20
284.861459905
 30
0.0
 10
58.6560873814
 20
285.992139845
 30
0.0
 10
61.0926207449
 20
287.4323015019
 30
0.0
 10
64.033990987
 20
288.7176704219
 30
0.0
 10
66.1881888143
 20
289.4193083366
 30
0.0
 10
67.334165379
 20
289.7444159933
 30
0.0
  0
SPLINE
  5
4C0
100
AcDbEntity
  8
0
100
AcDbSpline
 62
7
  6
CONTINUOUS
 70
0
 71
3
 72
9
 73
5
 74
0
 42
0.0000001
 43
0.0000001
 44
0.0000000001
 40
0.0
 40
0.0
 40
0.0
 40
0.0
 40
0.2340060278
 40
1.0
 40
1.0
 40
1.0
 40
1.0
 10
107.0975512557
 20
286.6298335504
 30
0.0
 10
106.8225659372
 20
286.7855343275
 30
0.0
 10
105.6311180492
 20
287.422021694
 30
0.0
 10
104.384109473
 20
287.9512066462
 30
0.0
 10
103.4139543236
 20
288.3101023867
 30
0.0
  0
SPLINE
  5
4C1
100
AcDbEntity
  8
0
100
AcDbSpline
 62
7
  6
CONTINUOUS
 70
0
 71
3
 72
15
 73
11
 74
0
 42
0.0000001
 43
0.0000001
 44
0.0000000001
 40
0.0
 40
0.0
 40
0.0
 40
0.0
 40
0.1093823574
 40
0.2288199565
 40
0.3558054583
 40
0.4874903836
 40
0.6208250121
 40
0.7526937084
 40
0.8800327624
 40
1.0
 40
1.0
 40
1.0
 40
1.0
 10
103.4139543236
 20
288.3101023867
 30
0.0
 10
102.2597724819
 20
288.7370763065
 30
0.0
 10
99.7941950822
 20
289.4944542357
 30
0.0
 10
95.8761988638
 20
290.3338754864
 30
0.0
 10
91.6576455956
 20
290.9100624089
 30
0.0
 10
87.2540654905
 20
291.206587403
 30
0.0
 10
82.7856757141
 20
291.2151040748
 30
0.0
 10
78.3748454095
 20
290.93529643
 30
0.0
 10
74.1424658633
 20
290.3752793188
 30
0.0
 10
71.4155706815
 20
289.8044221523
 30
0.0
 10
70.1082629423
 20
289.4687519585
 30
0.0
  0
SPLINE
  5
4C2
100
AcDbEntity
  8
0
100
AcDbSpline
 62
7
  6
CONTINUOUS
 70
0
 71
3
 72
17
 73
13
 74
0
 42
0.0000001
 43
0.0000001
 44
0.0000000001
 40
0.0
 40
0.0
 40
0.0
 40
0.0
 40
0.1282455173
 40
0.2658112795
 40
0.4075427271
 40
0.5479969239
 40
0.6818179572
 40
0.8041197583
 40
0.8596907915
 40
0.9110010717
 40
0.9578008765
 40
1.0
 40
1.0
 40
1.0
 40
1.0
 10
68.1463998861
 20
289.9669518526
 30
0.0
 10
70.0123411732
 20
290.4603057609
 30
0.0
 10
73.9415615408
 20
291.2555079106
 30
0.0
 10
80.0472277212
 20
291.9092707034
 30
0.0
 10
86.3702833011
 20
292.0484839
 30
0.0
 10
92.627064715
 20
291.6666206733
 30
0.0
 10
98.5373323328
 20
290.7813998083
 30
0.0
 10
103.0953030572
 20
289.6254647359
 30
0.0
 10
106.3429435345
 20
288.4565422314
 30
0.0
 10
108.4578898017
 20
287.5140735113
 30
0.0
 10
110.3070915001
 20
286.4886872238
 30
0.0
 10
111.4063549909
 20
285.7167186432
 30
0.0
 10
111.8995015165
 20
285.3165434543
 30
0.0
  0
SPLINE
  5
4C3
100
AcDbEntity
  8
0
100
AcDbSpline
 62
7
  6
CONTINUOUS
 70
0
 71
3
 72
9
 73
5
 74
0
 42
0.0000001
 43
0.0000001
 44
0.0000000001
 40
0.0
 40
0.0
 40
0.0
 40
0.0
 40
0.2566606365
 40
1.0
 40
1.0
 40
1.0
 40
1.0
 10
111.8995015165
 20
285.3165434543
 30
0.0
 10
111.9710367103
 20
285.2584945617
 30
0.0
 10
112.2474293927
 20
285.0294891182
 30
0.0
 10
112.5142842506
 20
284.7888837577
 30
0.0
 10
112.7058018575
 20
284.6031173248
 30
0.0
  0
SPLINE
  5
4C4
100
AcDbEntity
  8
0
100
AcDbSpline
 62
7
  6
CONTINUOUS
 70
0
 71
3
 72
15
 73
11
 74
0
 42
0.0000001
 43
0.0000001
 44
0.0000000001
 40
0.0
 40
0.0
 40
0.0
 40
0.0
 40
0.1363126431
 40
0.2584982591
 40
0.3709485831
 40
0.4797333883
 40
0.5917010643
 40
0.7130281886
 40
0.8482114381
 40
1.0
 40
1.0
 40
1.0
 40
1.0
 10
112.7296302785
 20
284.5799339706
 30
0.0
 10
113.1121955321
 20
284.2065875903
 30
0.0
 10
113.7883236196
 20
283.4434233311
 30
0.0
 10
114.5285221849
 20
282.1781702671
 30
0.0
 10
114.9149159001
 20
280.8718280813
 30
0.0
 10
114.9277266066
 20
279.5478832047
 30
0.0
 10
114.5680947517
 20
278.239255865
 30
0.0
 10
113.8514059486
 20
276.9708666452
 30
0.0
 10
112.7998538021
 20
275.7528821478
 30
0.0
 10
111.9367306342
 20
275.0241989298
 30
0.0
 10
111.4603846466
 20
274.6672623363
 30
0.0
  0
SPLINE
  5
4C5
100
AcDbEntity
  8
0
100
AcDbSpline
 62
7
  6
CONTINUOUS
 70
0
 71
3
 72
23
 73
19
 74
0
 42
0.0000001
 43
0.0000001
 44
0.0000000001
 40
0.0
 40
0.0
 40
0.0
 40
0.0
 40
0.2182498352
 40
0.3354847085
 40
0.4580285514
 40
0.5213300226
 40
0.5865266219
 40
0.6519366821
 40
0.6854342777
 40
0.7192103817
 40
0.7531832604
 40
0.7875472015
 40
0.8222995695
 40
0.8569100012
 40
0.8920115845
 40
0.9281449676
 40
0.9642621827
 40
1.0
 40
1.0
 40
1.0
 40
1.0
 10
111.3813641547
 20
274.6084661003
 30
0.0
 10
110.8794594356
 20
274.2376412175
 30
0.0
 10
110.0715820236
 20
273.7161839983
 30
0.0
 10
108.9266523354
 20
273.0800019455
 30
0.0
 10
108.1507119173
 20
272.6936472652
 30
0.0
 10
107.5009339398
 20
272.3882774216
 30
0.0
 10
106.9877770737
 20
272.1780671897
 30
0.0
 10
106.5593953749
 20
271.9863524595
 30
0.0
 10
106.2063259774
 20
271.8474101674
 30
0.0
 10
105.9367038819
 20
271.742036167
 30
0.0
 10
105.6644346133
 20
271.6365981736
 30
0.0
 10
105.3883472606
 20
271.5333189032
 30
0.0
 10
105.1085394547
 20
271.4349272828
 30
0.0
 10
104.8290410579
 20
271.3296013624
 30
0.0
 10
104.5439831908
 20
271.2276944097
 30
0.0
 10
104.2501121878
 20
271.1388677381
 30
0.0
 10
103.9555878804
 20
271.0461465201
 30
0.0
 10
103.7610985066
 20
270.9798878063
 30
0.0
 10
103.6643286877
 20
270.947067497
 30
0.0
  0
SPLINE
  5
4C6
100
AcDbEntity
  8
0
100
AcDbSpline
 62
7
  6
CONTINUOUS
 70
0
 71
3
 72
8
 73
4
 74
0
 42
0.0000001
 43
0.0000001
 44
0.0000000001
 40
0.0
 40
0.0
 40
0.0
 40
0.0
 40
1.0
 40
1.0
 40
1.0
 40
1.0
 10
103.6643286877
 20
270.947067497
 30
0.0
 10
103.5573494504
 20
270.9107845763
 30
0.0
 10
103.4502661463
 20
270.8747018829
 30
0.0
 10
103.3422074305
 20
270.8417728458
 30
0.0
  0
SPLINE
  5
4C7
100
AcDbEntity
  8
0
100
AcDbSpline
 62
7
  6
CONTINUOUS
 70
0
 71
3
 72
10
 73
6
 74
0
 42
0.0000001
 43
0.0000001
 44
0.0000000001
 40
0.0
 40
0.0
 40
0.0
 40
0.0
 40
0.2483769774
 40
0.4965173783
 40
1.0
 40
1.0
 40
1.0
 40
1.0
 10
103.3422074305
 20
270.8417728458
 30
0.0
 10
103.2144073424
 20
270.8028279646
 30
0.0
 10
102.9566315947
 20
270.7327489509
 30
0.0
 10
102.4415187508
 20
270.5777860191
 30
0.0
 10
102.0513569313
 20
270.4715875417
 30
0.0
 10
101.7897680881
 20
270.4014672181
 30
0.0
  0
SPLINE
  5
4C8
100
AcDbEntity
  8
0
100
AcDbSpline
 62
7
  6
CONTINUOUS
 70
0
 71
3
 72
9
 73
5
 74
0
 42
0.0000001
 43
0.0000001
 44
0.0000000001
 40
0.0
 40
0.0
 40
0.0
 40
0.0
 40
0.2629929056
 40
1.0
 40
1.0
 40
1.0
 40
1.0
 10
100.1154418306
 20
271.7625907484
 30
0.0
 10
100.5155473837
 20
271.8698412356
 30
0.0
 10
102.0307399078
 20
272.2997068815
 30
0.0
 10
103.5215872601
 20
272.8197784193
 30
0.0
 10
104.5924249412
 20
273.2679316959
 30
0.0
  0
SPLINE
  5
4C9
100
AcDbEntity
  8
0
100
AcDbSpline
 62
7
  6
CONTINUOUS
 70
0
 71
3
 72
11
 73
7
 74
0
 42
0.0000001
 43
0.0000001
 44
0.0000000001
 40
0.0
 40
0.0
 40
0.0
 40
0.0
 40
0.2949162139
 40
0.559645364
 40
0.7940198778
 40
1.0
 40
1.0
 40
1.0
 40
1.0
 10
104.5924249412
 20
273.2679316959
 30
0.0
 10
105.3037139869
 20
273.5656112808
 30
0.0
 10
106.6316864555
 20
274.1857524028
 30
0.0
 10
108.4154581629
 20
275.256951114
 30
0.0
 10
109.8637073769
 20
276.4069962837
 30
0.0
 10
110.6378761222
 20
277.27103112
 30
0.0
 10
110.9483196547
 20
277.7110898433
 30
0.0
  0
SPLINE
  5
4CA
100
AcDbEntity
  8
0
100
AcDbSpline
 62
7
  6
CONTINUOUS
 70
0
 71
3
 72
15
 73
11
 74
0
 42
0.0000001
 43
0.0000001
 44
0.0000000001
 40
0.0
 40
0.0
 40
0.0
 40
0.0
 40
0.1163883764
 40
0.2241311842
 40
0.3291193497
 40
0.4378174726
 40
0.5559317414
 40
0.6875656176
 40
0.8352356508
 40
1.0
 40
1.0
 40
1.0
 40
1.0
 10
111.0239226967
 20
277.8205202484
 30
0.0
 10
111.2601568661
 20
278.1698059088
 30
0.0
 10
111.6532631677
 20
278.8891681346
 30
0.0
 10
111.9575849225
 20
280.0559411205
 30
0.0
 10
111.9326646308
 20
281.2354527774
 30
0.0
 10
111.5796056826
 20
282.3985202641
 30
0.0
 10
110.9145091205
 20
283.5255275225
 30
0.0
 10
109.9539669981
 20
284.607533753
 30
0.0
 10
108.7115442814
 20
285.6371678923
 30
0.0
 10
107.7567148022
 20
286.2499271508
 30
0.0
 10
107.2398043244
 20
286.5484849152
 30
0.0
  0
SPLINE
  5
4CB
100
AcDbEntity
  8
0
100
AcDbSpline
 62
7
  6
CONTINUOUS
 70
0
 71
3
 72
14
 73
10
 74
0
 42
0.0000001
 43
0.0000001
 44
0.0000000001
 40
0.0
 40
0.0
 40
0.0
 40
0.0
 40
0.1454306772
 40
0.2655231498
 40
0.3666108852
 40
0.4599970731
 40
0.6769637866
 40
0.822904567
 40
1.0
 40
1.0
 40
1.0
 40
1.0
 10
49.4510471592
 20
275.0263954919
 30
0.0
 10
49.4592218012
 20
275.0919224561
 30
0.0
 10
49.4805290767
 20
275.21106877
 30
0.0
 10
49.5387819715
 20
275.368330015
 30
0.0
 10
49.6246234519
 20
275.4859450186
 30
0.0
 10
49.7900196594
 20
275.5847204578
 30
0.0
 10
50.01210923
 20
275.5638714406
 30
0.0
 10
50.2399375692
 20
275.4780929333
 30
0.0
 10
50.3705435235
 20
275.4093814317
 30
0.0
 10
50.4400725583
 20
275.3689843807
 30
0.0
  0
SPLINE
  5
4CC
100
AcDbEntity
  8
0
100
AcDbSpline
 62
7
  6
CONTINUOUS
 70
0
 71
3
 72
11
 73
7
 74
0
 42
0.0000001
 43
0.0000001
 44
0.0000000001
 40
0.0
 40
0.0
 40
0.0
 40
0.0
 40
0.3181390566
 40
0.5824336578
 40
0.8032214537
 40
1.0
 40
1.0
 40
1.0
 40
1.0
 10
51.9763405137
 20
279.6153477745
 30
0.0
 10
51.997209533
 20
279.8042070482
 30
0.0
 10
52.0562878369
 20
280.1486025317
 30
0.0
 10
52.2235676291
 20
280.6021528788
 30
0.0
 10
52.4637737251
 20
280.9393005796
 30
0.0
 10
52.6796806962
 20
281.0790807712
 30
0.0
 10
52.7895254234
 20
281.1208722597
 30
0.0
  0
SPLINE
  5
4CD
100
AcDbEntity
  8
0
100
AcDbSpline
 62
7
  6
CONTINUOUS
 70
0
 71
3
 72
9
 73
5
 74
0
 42
0.0000001
 43
0.0000001
 44
0.0000000001
 40
0.0
 40
0.0
 40
0.0
 40
0.0
 40
0.4875189981
 40
1.0
 40
1.0
 40
1.0
 40
1.0
 10
51.7268499598
 20
279.4224675518
 30
0.0
 10
51.7364187142
 20
279.4762259532
 30
0.0
 10
51.8020753443
 20
279.581322054
 30
0.0
 10
51.9189581552
 20
279.6163011639
 30
0.0
 10
51.97634933
 20
279.6153433828
 30
0.0
  0
SPLINE
  5
4CE
100
AcDbEntity
  8
0
100
AcDbSpline
 62
7
  6
CONTINUOUS
 70
0
 71
3
 72
9
 73
5
 74
0
 42
0.0000001
 43
0.0000001
 44
0.0000000001
 40
0.0
 40
0.0
 40
0.0
 40
0.0
 40
0.512394594
 40
1.0
 40
1.0
 40
1.0
 40
1.0
 10
51.9747888181
 20
279.5990992712
 30
0.0
 10
51.9179301298
 20
279.5996351307
 30
0.0
 10
51.8005136291
 20
279.5682601826
 30
0.0
 10
51.7383412578
 20
279.4618493179
 30
0.0
 10
51.7284903479
 20
279.4086432448
 30
0.0
  0
SPLINE
  5
4CF
100
AcDbEntity
  8
0
100
AcDbSpline
 62
7
  6
CONTINUOUS
 70
0
 71
3
 72
13
 73
9
 74
0
 42
0.0000001
 43
0.0000001
 44
0.0000000001
 40
0.0
 40
0.0
 40
0.0
 40
0.0
 40
0.2569392018
 40
0.5139710167
 40
0.640216459
 40
0.7635968591
 40
0.8835790096
 40
1.0
 40
1.0
 40
1.0
 40
1.0
 10
98.1931303278
 20
232.7285721757
 30
0.0
 10
98.5974117602
 20
230.0313851656
 30
0.0
 10
98.6153301478
 20
224.4915287536
 30
0.0
 10
96.7396702612
 20
217.8610663369
 30
0.0
 10
94.186669496
 20
213.1081937782
 30
0.0
 10
91.8216712738
 20
209.957390276
 30
0.0
 10
89.0630861556
 20
207.2933125618
 30
0.0
 10
86.9779650141
 20
205.8701448214
 30
0.0
 10
85.8981877035
 20
205.2691445614
 30
0.0
  0
SPLINE
  5
4D0
100
AcDbEntity
  8
0
100
AcDbSpline
 62
7
  6
CONTINUOUS
 70
0
 71
3
 72
14
 73
10
 74
0
 42
0.0000001
 43
0.0000001
 44
0.0000000001
 40
0.0
 40
0.0
 40
0.0
 40
0.0
 40
0.2691601746
 40
0.4006513839
 40
0.5282747784
 40
0.6515091295
 40
0.7705234783
 40
0.8861900415
 40
1.0
 40
1.0
 40
1.0
 40
1.0
 10
85.8981877035
 20
205.2691445614
 30
0.0
 10
85.8070336561
 20
204.5275534032
 30
0.0
 10
85.4860453859
 20
203.4336035991
 30
0.0
 10
84.7228548214
 20
202.1748651467
 30
0.0
 10
84.013670984
 20
201.3763078466
 30
0.0
 10
83.1906678163
 20
200.7509709178
 30
0.0
 10
82.2847191132
 20
200.3240867603
 30
0.0
 10
81.3318810814
 20
200.1147056163
 30
0.0
 10
80.687878104
 20
200.1272573367
 30
0.0
 10
80.3750016277
 20
200.1710727634
 30
0.0
  0
SPLINE
  5
4D1
100
AcDbEntity
  8
0
100
AcDbSpline
 62
7
  6
CONTINUOUS
 70
0
 71
3
 72
14
 73
10
 74
0
 42
0.0000001
 43
0.0000001
 44
0.0000000001
 40
0.0
 40
0.0
 40
0.0
 40
0.0
 40
0.2678672749
 40
0.3974484697
 40
0.5235348781
 40
0.64623326
 40
0.7659913874
 40
0.8835768689
 40
1.0
 40
1.0
 40
1.0
 40
1.0
 10
59.5154430466
 20
222.3608060426
 30
0.0
 10
59.8413426511
 20
220.1865479412
 30
0.0
 10
60.7531880031
 20
216.9969086415
 30
0.0
 10
62.8055997342
 20
213.2083065338
 30
0.0
 10
64.6885632427
 20
210.7220001585
 30
0.0
 10
66.8875411396
 20
208.6251861681
 30
0.0
 10
69.3524746433
 20
206.9679878206
 30
0.0
 10
72.0239652555
 20
205.7926486698
 30
0.0
 10
73.9058688122
 20
205.3490738621
 30
0.0
 10
74.8521869074
 20
205.2165368315
 30
0.0
  0
SPLINE
  5
4D2
100
AcDbEntity
  8
0
100
AcDbSpline
 62
7
  6
CONTINUOUS
 70
0
 71
3
 72
11
 73
7
 74
0
 42
0.0000001
 43
0.0000001
 44
0.0000000001
 40
0.0
 40
0.0
 40
0.0
 40
0.0
 40
0.268586266
 40
0.5241461647
 40
0.7663586485
 40
1.0
 40
1.0
 40
1.0
 40
1.0
 10
78.2730267527
 20
205.040596014
 30
0.0
 10
78.3241816934
 20
204.6993128615
 30
0.0
 10
78.5116274281
 20
204.0421591168
 30
0.0
 10
79.0468988342
 20
203.1981369818
 30
0.0
 10
79.7881883786
 20
202.5922900996
 30
0.0
 10
80.3828422467
 20
202.3914148493
 30
0.0
 10
80.6801417449
 20
202.349811256
 30
0.0
  0
SPLINE
  5
4D3
100
AcDbEntity
  8
0
100
AcDbSpline
 62
7
  6
CONTINUOUS
 70
0
 71
3
 72
9
 73
5
 74
0
 42
0.0000001
 43
0.0000001
 44
0.0000000001
 40
0.0
 40
0.0
 40
0.0
 40
0.0
 40
0.4971284861
 40
1.0
 40
1.0
 40
1.0
 40
1.0
 10
39.7303692588
 20
204.1867366617
 30
0.0
 10
39.4953328793
 20
204.219659595
 30
0.0
 10
39.0145091215
 20
204.2373209794
 30
0.0
 10
38.5401613086
 20
204.1580979709
 30
0.0
 10
38.3082749767
 20
204.0959395683
 30
0.0
  0
SPLINE
  5
4D4
100
AcDbEntity
  8
0
100
AcDbSpline
 62
7
  6
CONTINUOUS
 70
0
 71
3
 72
9
 73
5
 74
0
 42
0.0000001
 43
0.0000001
 44
0.0000000001
 40
0.0
 40
0.0
 40
0.0
 40
0.0
 40
0.5389689411
 40
1.0
 40
1.0
 40
1.0
 40
1.0
 10
48.8952385011
 20
266.8305955939
 30
0.0
 10
48.8164682773
 20
266.9486544471
 30
0.0
 10
48.6529912637
 20
267.156909611
 30
0.0
 10
48.4470429591
 20
267.3267712623
 30
0.0
 10
48.3419165553
 20
267.3874903207
 30
0.0
  0
SPLINE
  5
4D5
100
AcDbEntity
  8
0
100
AcDbSpline
 62
7
  6
CONTINUOUS
 70
0
 71
3
 72
13
 73
9
 74
0
 42
0.0000001
 43
0.0000001
 44
0.0000000001
 40
0.0
 40
0.0
 40
0.0
 40
0.0
 40
0.1140514167
 40
0.2319544774
 40
0.4790598171
 40
0.6081950468
 40
0.7391933144
 40
1.0
 40
1.0
 40
1.0
 40
1.0
 10
27.7931445032
 20
256.4880610763
 30
0.0
 10
27.4371719886
 20
256.3926406921
 30
0.0
 10
26.7331893404
 20
256.1148562115
 30
0.0
 10
25.4368977105
 20
255.2527741588
 30
0.0
 10
24.3981667768
 20
253.9834745758
 30
0.0
 10
23.7128445462
 20
252.4885333682
 30
0.0
 10
23.2704507456
 20
250.8584522236
 30
0.0
 10
23.2434926476
 20
249.562410677
 30
0.0
 10
23.3684179324
 20
248.7289643981
 30
0.0
  0
SPLINE
  5
4D6
100
AcDbEntity
  8
0
100
AcDbSpline
 62
7
  6
CONTINUOUS
 70
0
 71
3
 72
12
 73
8
 74
0
 42
0.0000001
 43
0.0000001
 44
0.0000000001
 40
0.0
 40
0.0
 40
0.0
 40
0.0
 40
0.2683104961
 40
0.5236401366
 40
0.7656158433
 40
0.8833922802
 40
1.0
 40
1.0
 40
1.0
 40
1.0
 10
30.9458134362
 20
198.1759310788
 30
0.0
 10
31.0408103694
 20
197.5421535326
 30
0.0
 10
31.3893561237
 20
196.3216789271
 30
0.0
 10
32.3816283598
 20
194.7543689574
 30
0.0
 10
33.5452833044
 20
193.8065379351
 30
0.0
 10
34.5917595489
 20
193.3468286313
 30
0.0
 10
35.1403405077
 20
193.2173557045
 30
0.0
 10
35.4161656141
 20
193.1787289219
 30
0.0
  0
SPLINE
  5
4D7
100
AcDbEntity
  8
0
100
AcDbSpline
 62
7
  6
CONTINUOUS
 70
0
 71
3
 72
17
 73
13
 74
0
 42
0.0000001
 43
0.0000001
 44
0.0000000001
 40
0.0
 40
0.0
 40
0.0
 40
0.0
 40
0.0560900517
 40
0.1125198111
 40
0.1696042582
 40
0.2276113239
 40
0.3469003263
 40
0.4713875039
 40
0.6006277235
 40
0.7332051811
 40
0.8670824109
 40
1.0
 40
1.0
 40
1.0
 40
1.0
 10
81.0381994314
 20
249.3854311635
 30
0.0
 10
80.3031273356
 20
249.4884081323
 30
0.0
 10
78.8115214877
 20
249.5892166772
 30
0.0
 10
76.5663725309
 20
249.4206753135
 30
0.0
 10
74.3414194633
 20
248.9352681828
 30
0.0
 10
71.4208426583
 20
247.8673916447
 30
0.0
 10
67.9744229369
 20
245.7587183185
 30
0.0
 10
64.470695432
 20
242.2217997851
 30
0.0
 10
61.7340526384
 20
237.8578234361
 30
0.0
 10
59.9101453783
 20
232.9108272319
 30
0.0
 10
59.0942792288
 20
227.6558174332
 30
0.0
 10
59.2547106637
 20
224.1002972486
 30
0.0
 10
59.5154430466
 20
222.3608060426
 30
0.0
  0
SPLINE
  5
4D8
100
AcDbEntity
  8
0
100
AcDbSpline
 62
7
  6
CONTINUOUS
 70
0
 71
3
 72
13
 73
9
 74
0
 42
0.0000001
 43
0.0000001
 44
0.0000000001
 40
0.0
 40
0.0
 40
0.0
 40
0.0
 40
0.1164001293
 40
0.2346291611
 40
0.3552751873
 40
0.4787241432
 40
0.7339968869
 40
1.0
 40
1.0
 40
1.0
 40
1.0
 10
84.7080544275
 20
250.7399329065
 30
0.0
 10
85.5706078468
 20
250.4341017619
 30
0.0
 10
87.26334598
 20
249.6790144813
 30
0.0
 10
89.6189628363
 20
248.1593991772
 30
0.0
 10
91.7673685769
 20
246.2731321248
 30
0.0
 10
94.3315110572
 20
243.2851792424
 30
0.0
 10
96.815959837
 20
238.7984093186
 30
0.0
 10
97.8831159702
 20
234.7968509318
 30
0.0
 10
98.1931303278
 20
232.7285721757
 30
0.0
  0
SPLINE
  5
4D9
100
AcDbEntity
  8
0
100
AcDbSpline
 62
7
  6
CONTINUOUS
 70
0
 71
3
 72
12
 73
8
 74
0
 42
0.0000001
 43
0.0000001
 44
0.0000000001
 40
0.0
 40
0.0
 40
0.0
 40
0.0
 40
0.2934500851
 40
0.5554922658
 40
0.7884397408
 40
0.8963100521
 40
1.0
 40
1.0
 40
1.0
 40
1.0
 10
38.7767638513
 20
258.3225681039
 30
0.0
 10
39.0974244181
 20
259.7691943123
 30
0.0
 10
39.8832295582
 20
262.4749072204
 30
0.0
 10
41.6247783552
 20
266.0783299323
 30
0.0
 10
43.5222323394
 20
268.5021797402
 30
0.0
 10
45.2456755209
 20
269.9505388136
 30
0.0
 10
46.1603027606
 20
270.5121518997
 30
0.0
 10
46.6270046207
 20
270.7494579127
 30
0.0
  0
SPLINE
  5
4DA
100
AcDbEntity
  8
0
100
AcDbSpline
 62
7
  6
CONTINUOUS
 70
0
 71
3
 72
9
 73
5
 74
0
 42
0.0000001
 43
0.0000001
 44
0.0000000001
 40
0.0
 40
0.0
 40
0.0
 40
0.0
 40
0.267007117
 40
1.0
 40
1.0
 40
1.0
 40
1.0
 10
48.3419165553
 20
267.3874903207
 30
0.0
 10
48.3175818294
 20
267.4015456065
 30
0.0
 10
48.2244688292
 20
267.4504900785
 30
0.0
 10
48.1222235874
 20
267.4836204964
 30
0.0
 10
48.0457513793
 20
267.493798105
 30
0.0
  0
SPLINE
  5
4DB
100
AcDbEntity
  8
0
100
AcDbSpline
 62
7
  6
CONTINUOUS
 70
0
 71
3
 72
9
 73
5
 74
0
 42
0.0000001
 43
0.0000001
 44
0.0000000001
 40
0.0
 40
0.0
 40
0.0
 40
0.0
 40
0.2558559529
 40
1.0
 40
1.0
 40
1.0
 40
1.0
 10
48.0235838325
 20
267.4963473193
 30
0.0
 10
48.0065451148
 20
267.4979962322
 30
0.0
 10
47.9397196291
 20
267.5016767137
 30
0.0
 10
47.8721789434
 20
267.4935038516
 30
0.0
 10
47.8240882487
 20
267.480615638
 30
0.0
  0
SPLINE
  5
4DC
100
AcDbEntity
  8
0
100
AcDbSpline
 62
7
  6
CONTINUOUS
 70
0
 71
3
 72
11
 73
7
 74
0
 42
0.0000001
 43
0.0000001
 44
0.0000000001
 40
0.0
 40
0.0
 40
0.0
 40
0.0
 40
0.2586040975
 40
0.5121641087
 40
0.7594873872
 40
1.0
 40
1.0
 40
1.0
 40
1.0
 10
50.6398573009
 20
221.0872889578
 30
0.0
 10
50.9180111829
 20
219.4877611237
 30
0.0
 10
51.6958918475
 20
216.3541365392
 30
0.0
 10
53.5215101431
 20
211.9302246203
 30
0.0
 10
55.9482543831
 20
207.9365011616
 30
0.0
 10
57.9548658384
 20
205.5999762888
 30
0.0
 10
59.0354509062
 20
204.5453222951
 30
0.0
  0
SPLINE
  5
4DD
100
AcDbEntity
  8
0
100
AcDbSpline
 62
7
  6
CONTINUOUS
 70
0
 71
3
 72
11
 73
7
 74
0
 42
0.0000001
 43
0.0000001
 44
0.0000000001
 40
0.0
 40
0.0
 40
0.0
 40
0.0
 40
0.2394452214
 40
0.4889517095
 40
0.7443734723
 40
1.0
 40
1.0
 40
1.0
 40
1.0
 10
60.4515716955
 20
251.371211518
 30
0.0
 10
58.4754726964
 20
249.6166341009
 30
0.0
 10
54.9608694189
 20
245.4144520682
 30
0.0
 10
51.4725211965
 20
237.8851234652
 30
0.0
 10
49.8739599921
 20
229.5646855257
 30
0.0
 10
50.1565084964
 20
223.866793097
 30
0.0
 10
50.6398573009
 20
221.0872889578
 30
0.0
  0
SPLINE
  5
4DE
100
AcDbEntity
  8
0
100
AcDbSpline
 62
7
  6
CONTINUOUS
 70
0
 71
3
 72
9
 73
5
 74
0
 42
0.0000001
 43
0.0000001
 44
0.0000000001
 40
0.0
 40
0.0
 40
0.0
 40
0.0
 40
0.5029601385
 40
1.0
 40
1.0
 40
1.0
 40
1.0
 10
39.0051488858
 20
193.053039758
 30
0.0
 10
38.7036418543
 20
192.9722191451
 30
0.0
 10
38.0869925136
 20
192.8691400043
 30
0.0
 10
37.4619216034
 20
192.8922173319
 30
0.0
 10
37.1564256151
 20
192.9349992512
 30
0.0
  0
SPLINE
  5
4DF
100
AcDbEntity
  8
0
100
AcDbSpline
 62
7
  6
CONTINUOUS
 70
0
 71
3
 72
15
 73
11
 74
0
 42
0.0000001
 43
0.0000001
 44
0.0000000001
 40
0.0
 40
0.0
 40
0.0
 40
0.0
 40
0.1300482411
 40
0.2611913022
 40
0.3919362061
 40
0.5208213963
 40
0.6466182885
 40
0.7684962554
 40
0.8861669866
 40
1.0
 40
1.0
 40
1.0
 40
1.0
 10
101.444310952
 20
234.0439539106
 30
0.0
 10
101.7299731828
 20
232.1381417795
 30
0.0
 10
101.9770246193
 20
228.2542481091
 30
0.0
 10
101.3891781557
 20
222.4515192458
 30
0.0
 10
99.8696499022
 20
216.8363608387
 30
0.0
 10
97.4736994653
 20
211.6217706649
 30
0.0
 10
94.2893109789
 20
207.0039134698
 30
0.0
 10
90.4311164469
 20
203.1591062311
 30
0.0
 10
86.0434888032
 20
200.2383220911
 30
0.0
 10
82.8219765489
 20
198.9679077119
 30
0.0
 10
81.1926777893
 20
198.5311652465
 30
0.0
  0
SPLINE
  5
4E0
100
AcDbEntity
  8
0
100
AcDbSpline
 62
7
  6
CONTINUOUS
 70
0
 71
3
 72
11
 73
7
 74
0
 42
0.0000001
 43
0.0000001
 44
0.0000000001
 40
0.0
 40
0.0
 40
0.0
 40
0.0
 40
0.2396162856
 40
0.486491021
 40
0.7402964709
 40
1.0
 40
1.0
 40
1.0
 40
1.0
 10
93.4885184814
 20
250.5281596059
 30
0.0
 10
94.5380866326
 20
249.4774597609
 30
0.0
 10
96.4798367049
 20
247.1474630893
 30
0.0
 10
98.7981619889
 20
243.1657260485
 30
0.0
 10
100.5081747217
 20
238.7547913964
 30
0.0
 10
101.2057115332
 20
235.6357837633
 30
0.0
 10
101.444310952
 20
234.0439539106
 30
0.0
  0
SPLINE
  5
4E1
100
AcDbEntity
  8
0
100
AcDbSpline
 62
7
  6
CONTINUOUS
 70
0
 71
3
 72
9
 73
5
 74
0
 42
0.0000001
 43
0.0000001
 44
0.0000000001
 40
0.0
 40
0.0
 40
0.0
 40
0.0
 40
0.4987826322
 40
1.0
 40
1.0
 40
1.0
 40
1.0
 10
39.2536216648
 20
255.1411835603
 30
0.0
 10
39.6692746977
 20
252.3681302586
 30
0.0
 10
39.8187901859
 20
246.6878878716
 30
0.0
 10
38.6403416603
 20
241.1307995446
 30
0.0
 10
37.7311779968
 20
238.4637860354
 30
0.0
  0
SPLINE
  5
4E2
100
AcDbEntity
  8
0
100
AcDbSpline
 62
7
  6
CONTINUOUS
 70
0
 71
3
 72
9
 73
5
 74
0
 42
0.0000001
 43
0.0000001
 44
0.0000000001
 40
0.0
 40
0.0
 40
0.0
 40
0.0
 40
0.5012173664
 40
1.0
 40
1.0
 40
1.0
 40
1.0
 10
37.7311779968
 20
238.4637860354
 30
0.0
 10
36.9886929905
 20
236.2857211602
 30
0.0
 10
36.0262880432
 20
231.7474252538
 30
0.0
 10
36.1483918313
 20
227.1085520507
 30
0.0
 10
36.4878424107
 20
224.8438878345
 30
0.0
  0
SPLINE
  5
4E3
100
AcDbEntity
  8
0
100
AcDbSpline
 62
7
  6
CONTINUOUS
 70
0
 71
3
 72
11
 73
7
 74
0
 42
0.0000001
 43
0.0000001
 44
0.0000000001
 40
0.0
 40
0.0
 40
0.0
 40
0.0
 40
0.2347672889
 40
0.4791078822
 40
0.7345637042
 40
1.0
 40
1.0
 40
1.0
 40
1.0
 10
39.6750446419
 20
204.0619484934
 30
0.0
 10
40.001709618
 20
203.919269476
 30
0.0
 10
40.6277295744
 20
203.526168456
 30
0.0
 10
41.3832171119
 20
202.6890309182
 30
0.0
 10
41.9293542038
 20
201.651192315
 30
0.0
 10
42.1304628992
 20
200.8784157706
 30
0.0
 10
42.1902059947
 20
200.4798362462
 30
0.0
  0
SPLINE
  5
4E4
100
AcDbEntity
  8
0
100
AcDbSpline
 62
7
  6
CONTINUOUS
 70
0
 71
3
 72
15
 73
11
 74
0
 42
0.0000001
 43
0.0000001
 44
0.0000000001
 40
0.0
 40
0.0
 40
0.0
 40
0.0
 40
0.1163613194
 40
0.2338675057
 40
0.3535485744
 40
0.4761674059
 40
0.6021716093
 40
0.731669832
 40
0.8644438246
 40
1.0
 40
1.0
 40
1.0
 40
1.0
 10
74.5470543248
 20
203.0378527202
 30
0.0
 10
73.5072560477
 20
203.1834084465
 30
0.0
 10
71.4396062606
 20
203.6707601228
 30
0.0
 10
68.5045496995
 20
204.9622026873
 30
0.0
 10
65.7964969571
 20
206.7827984377
 30
0.0
 10
63.3805917611
 20
209.0867088726
 30
0.0
 10
61.3120785046
 20
211.8174292395
 30
0.0
 10
59.6379696878
 20
214.9097056015
 30
0.0
 10
58.3959102945
 20
218.2896891277
 30
0.0
 10
57.8785712001
 20
220.6638120183
 30
0.0
 10
57.6972611659
 20
221.873432421
 30
0.0
  0
SPLINE
  5
4E5
100
AcDbEntity
  8
0
100
AcDbSpline
 62
7
  6
CONTINUOUS
 70
0
 71
3
 72
11
 73
7
 74
0
 42
0.0000001
 43
0.0000001
 44
0.0000000001
 40
0.0
 40
0.0
 40
0.0
 40
0.0
 40
0.2392003117
 40
0.4834363204
 40
0.736468686
 40
1.0
 40
1.0
 40
1.0
 40
1.0
 10
80.3750016277
 20
200.1710727634
 30
0.0
 10
80.0171015559
 20
200.2211933238
 30
0.0
 10
79.3041528667
 20
200.4232945879
 30
0.0
 10
78.3423394811
 20
201.0065937126
 30
0.0
 10
77.53109129
 20
201.8363458866
 30
0.0
 10
77.1247638814
 20
202.5114868183
 30
0.0
 10
76.9561942258
 20
202.8721941836
 30
0.0
  0
SPLINE
  5
4E6
100
AcDbEntity
  8
0
100
AcDbSpline
 62
7
  6
CONTINUOUS
 70
0
 71
3
 72
16
 73
12
 74
0
 42
0.0000001
 43
0.0000001
 44
0.0000000001
 40
0.0
 40
0.0
 40
0.0
 40
0.0
 40
0.0843966035
 40
0.1340320359
 40
0.1894126957
 40
0.3163866839
 40
0.4599599173
 40
0.6104860795
 40
0.7569650705
 40
0.8891507298
 40
1.0
 40
1.0
 40
1.0
 40
1.0
 10
47.7323808568
 20
267.4468625033
 30
0.0
 10
47.6252691546
 20
267.3960955063
 30
0.0
 10
47.4820331521
 20
267.2576456544
 30
0.0
 10
47.3564453582
 20
267.0229830373
 30
0.0
 10
47.2513667003
 20
266.7128804859
 30
0.0
 10
47.1981084049
 20
266.2536837906
 30
0.0
 10
47.2432011236
 20
265.6613328086
 30
0.0
 10
47.3912624634
 20
265.0577254031
 30
0.0
 10
47.6285361647
 20
264.5002488174
 30
0.0
 10
47.9315502406
 20
264.0412811146
 30
0.0
 10
48.1864795197
 20
263.8047015256
 30
0.0
 10
48.3193486873
 20
263.7235604496
 30
0.0
  0
SPLINE
  5
4E7
100
AcDbEntity
  8
0
100
AcDbSpline
 62
7
  6
CONTINUOUS
 70
0
 71
3
 72
15
 73
11
 74
0
 42
0.0000001
 43
0.0000001
 44
0.0000000001
 40
0.0
 40
0.0
 40
0.0
 40
0.0
 40
0.1355561715
 40
0.2683301602
 40
0.3978283815
 40
0.5238325844
 40
0.6464514166
 40
0.7661324871
 40
0.8836386756
 40
1.0
 40
1.0
 40
1.0
 40
1.0
 10
36.4878424107
 20
224.8438878345
 30
0.0
 10
36.6691524396
 20
223.6342674669
 30
0.0
 10
37.186491509
 20
221.260144643
 30
0.0
 10
38.4285508604
 20
217.8801611911
 30
0.0
 10
40.1026596166
 20
214.7878848568
 30
0.0
 10
42.1711728395
 20
212.0571644804
 30
0.0
 10
44.5870780172
 20
209.7532540015
 30
0.0
 10
47.2951307779
 20
207.9326582042
 30
0.0
 10
50.2301873959
 20
206.6412155655
 30
0.0
 10
52.2978372482
 20
206.1538638722
 30
0.0
 10
53.3376355706
 20
206.0083081414
 30
0.0
  0
SPLINE
  5
4E8
100
AcDbEntity
  8
0
100
AcDbSpline
 62
7
  6
CONTINUOUS
 70
0
 71
3
 72
15
 73
11
 74
0
 42
0.0000001
 43
0.0000001
 44
0.0000000001
 40
0.0
 40
0.0
 40
0.0
 40
0.0
 40
0.1296270972
 40
0.2603545782
 40
0.390785165
 40
0.5195362676
 40
0.6454238168
 40
0.7676069892
 40
0.8857267606
 40
1.0
 40
1.0
 40
1.0
 40
1.0
 10
57.6972611659
 20
221.873432421
 30
0.0
 10
57.4690225392
 20
223.3961396483
 30
0.0
 10
57.2638182468
 20
226.4979162486
 30
0.0
 10
57.6997582446
 20
231.1377582442
 30
0.0
 10
58.8600972254
 20
235.641977491
 30
0.0
 10
60.7050928334
 20
239.8495358553
 30
0.0
 10
63.1707530141
 20
243.6112262101
 30
0.0
 10
66.1731524987
 20
246.7921144004
 30
0.0
 10
69.6063278129
 20
249.2750649938
 30
0.0
 10
72.1443253562
 20
250.4199419352
 30
0.0
 10
73.434950377
 20
250.8402617716
 30
0.0
  0
SPLINE
  5
4E9
100
AcDbEntity
  8
0
100
AcDbSpline
 62
7
  6
CONTINUOUS
 70
0
 71
3
 72
10
 73
6
 74
0
 42
0.0000001
 43
0.0000001
 44
0.0000000001
 40
0.0
 40
0.0
 40
0.0
 40
0.0
 40
0.23079795
 40
0.4701308341
 40
1.0
 40
1.0
 40
1.0
 40
1.0
 10
46.9178998153
 20
270.8612167493
 30
0.0
 10
47.0278948169
 20
270.8907023378
 30
0.0
 10
47.2598849205
 20
270.9245711209
 30
0.0
 10
47.7548968855
 20
270.8846043328
 30
0.0
 10
48.115522308
 20
270.7359225805
 30
0.0
 10
48.3419165553
 20
270.6051614677
 30
0.0
  0
SPLINE
  5
4EA
100
AcDbEntity
  8
0
100
AcDbSpline
 62
7
  6
CONTINUOUS
 70
0
 71
3
 72
11
 73
7
 74
0
 42
0.0000001
 43
0.0000001
 44
0.0000000001
 40
0.0
 40
0.0
 40
0.0
 40
0.0
 40
0.262789308
 40
0.5155016867
 40
0.7600639362
 40
1.0
 40
1.0
 40
1.0
 40
1.0
 10
55.8451298422
 20
205.6426329259
 30
0.0
 10
56.0184863327
 20
205.3071431661
 30
0.0
 10
56.4267995375
 20
204.6810469464
 30
0.0
 10
57.2192270735
 20
203.9153537873
 30
0.0
 10
58.1441752194
 20
203.3774053862
 30
0.0
 10
58.8241233998
 20
203.189346435
 30
0.0
 10
59.1655828735
 20
203.1415281834
 30
0.0
  0
SPLINE
  5
4EB
100
AcDbEntity
  8
0
100
AcDbSpline
 62
7
  6
CONTINUOUS
 70
0
 71
3
 72
13
 73
9
 74
0
 42
0.0000001
 43
0.0000001
 44
0.0000000001
 40
0.0
 40
0.0
 40
0.0
 40
0.0
 40
0.1156512075
 40
0.2350163864
 40
0.3580516015
 40
0.4842655725
 40
0.7419604971
 40
1.0
 40
1.0
 40
1.0
 40
1.0
 10
84.0463542484
 20
206.665269016
 30
0.0
 10
85.1026130151
 20
207.1596668641
 30
0.0
 10
87.1550961442
 20
208.3770941249
 30
0.0
 10
89.8912302791
 20
210.7593975526
 30
0.0
 10
92.2541502013
 20
213.6515144218
 30
0.0
 10
94.8254795298
 20
218.0910269246
 30
0.0
 10
96.7414622356
 20
224.3791589545
 30
0.0
 10
96.7606677859
 20
229.6678496273
 30
0.0
 10
96.374948447
 20
232.2411985541
 30
0.0
  0
SPLINE
  5
4EC
100
AcDbEntity
  8
0
100
AcDbSpline
 62
7
  6
CONTINUOUS
 70
0
 71
3
 72
14
 73
10
 74
0
 42
0.0000001
 43
0.0000001
 44
0.0000000001
 40
0.0
 40
0.0
 40
0.0
 40
0.0
 40
0.2678641431
 40
0.3974446094
 40
0.5235291407
 40
0.6462281397
 40
0.7659875087
 40
0.883572362
 40
1.0
 40
1.0
 40
1.0
 40
1.0
 10
96.374948447
 20
232.2411985541
 30
0.0
 10
96.0490526369
 20
234.4154313418
 30
0.0
 10
95.1372253094
 20
237.6050404834
 30
0.0
 10
93.0848541965
 20
241.3936115025
 30
0.0
 10
91.2019173811
 20
243.8799160203
 30
0.0
 10
89.0029549051
 20
245.976750316
 30
0.0
 10
86.538012267
 20
247.6339447222
 30
0.0
 10
83.8665044689
 20
248.8093709412
 30
0.0
 10
81.984549591
 20
249.2528560442
 30
0.0
 10
81.0381994314
 20
249.3854311635
 30
0.0
  0
SPLINE
  5
4ED
100
AcDbEntity
  8
0
100
AcDbSpline
 62
7
  6
CONTINUOUS
 70
0
 71
3
 72
9
 73
5
 74
0
 42
0.0000001
 43
0.0000001
 44
0.0000000001
 40
0.0
 40
0.0
 40
0.0
 40
0.0
 40
0.5018196829
 40
1.0
 40
1.0
 40
1.0
 40
1.0
 10
52.3536305427
 20
239.039287146
 30
0.0
 10
52.9531426281
 20
241.3466736323
 30
0.0
 10
53.6884375365
 20
246.0758809723
 30
0.0
 10
53.4721454285
 20
250.8584008128
 30
0.0
 10
53.1213185432
 20
253.198962713
 30
0.0
  0
SPLINE
  5
4EE
100
AcDbEntity
  8
0
100
AcDbSpline
 62
7
  6
CONTINUOUS
 70
0
 71
3
 72
11
 73
7
 74
0
 42
0.0000001
 43
0.0000001
 44
0.0000000001
 40
0.0
 40
0.0
 40
0.0
 40
0.0
 40
0.2629313833
 40
0.5178047116
 40
0.7633739888
 40
1.0
 40
1.0
 40
1.0
 40
1.0
 10
56.6095986656
 20
222.0257634678
 30
0.0
 10
56.8590998333
 20
220.3612019658
 30
0.0
 10
57.6496038564
 20
217.1186159233
 30
0.0
 10
59.7101937509
 20
212.6525861936
 30
0.0
 10
62.5453018269
 20
208.8374659524
 30
0.0
 10
64.9174259204
 20
206.8108809126
 30
0.0
 10
66.1803125868
 20
205.9744463214
 30
0.0
  0
SPLINE
  5
4EF
100
AcDbEntity
  8
0
100
AcDbSpline
 62
7
  6
CONTINUOUS
 70
0
 71
3
 72
11
 73
7
 74
0
 42
0.0000001
 43
0.0000001
 44
0.0000000001
 40
0.0
 40
0.0
 40
0.0
 40
0.0
 40
0.2685847685
 40
0.5241532458
 40
0.766366416
 40
1.0
 40
1.0
 40
1.0
 40
1.0
 10
43.1691022453
 20
200.3427383021
 30
0.0
 10
43.096024024
 20
200.8302838907
 30
0.0
 10
42.8282181039
 20
201.769078763
 30
0.0
 10
42.0635879772
 20
202.974871404
 30
0.0
 10
41.0045518364
 20
203.8403443177
 30
0.0
 10
40.1550615086
 20
204.1272475108
 30
0.0
 10
39.7303692588
 20
204.1867366617
 30
0.0
  0
SPLINE
  5
4F0
100
AcDbEntity
  8
0
100
AcDbSpline
 62
7
  6
CONTINUOUS
 70
0
 71
3
 72
9
 73
5
 74
0
 42
0.0000001
 43
0.0000001
 44
0.0000000001
 40
0.0
 40
0.0
 40
0.0
 40
0.0
 40
0.2360082452
 40
1.0
 40
1.0
 40
1.0
 40
1.0
 10
48.3419165553
 20
270.6051614677
 30
0.0
 10
48.3992052484
 20
270.5720725826
 30
0.0
 10
48.6371269269
 20
270.4235522568
 30
0.0
 10
48.8556821146
 20
270.2451376279
 30
0.0
 10
49.0117895468
 20
270.0985224539
 30
0.0
  0
SPLINE
  5
4F1
100
AcDbEntity
  8
0
100
AcDbSpline
 62
7
  6
CONTINUOUS
 70
0
 71
3
 72
12
 73
8
 74
0
 42
0.0000001
 43
0.0000001
 44
0.0000000001
 40
0.0
 40
0.0
 40
0.0
 40
0.0
 40
0.2436820987
 40
0.3685382103
 40
0.4946713601
 40
0.7481992446
 40
1.0
 40
1.0
 40
1.0
 40
1.0
 10
62.7986702209
 20
244.4298400414
 30
0.0
 10
61.537372777
 20
242.9530285433
 30
0.0
 10
59.888608327
 20
240.483181326
 30
0.0
 10
58.2531191381
 20
236.8906978977
 30
0.0
 10
56.9800324933
 20
233.0691139596
 30
0.0
 10
56.1448242136
 20
228.0687339609
 30
0.0
 10
56.3121182953
 20
224.0104210017
 30
0.0
 10
56.6095986656
 20
222.0257634678
 30
0.0
  0
SPLINE
  5
4F2
100
AcDbEntity
  8
0
100
AcDbSpline
 62
7
  6
CONTINUOUS
 70
0
 71
3
 72
13
 73
9
 74
0
 42
0.0000001
 43
0.0000001
 44
0.0000000001
 40
0.0
 40
0.0
 40
0.0
 40
0.0
 40
0.2537367189
 40
0.3816697182
 40
0.5091183184
 40
0.7591429382
 40
0.8809861
 40
1.0
 40
1.0
 40
1.0
 40
1.0
 10
52.2707658812
 20
220.8627024283
 30
0.0
 10
51.8542642998
 20
223.6414168707
 30
0.0
 10
51.7484644226
 20
227.9206204893
 30
0.0
 10
52.6117640464
 20
233.5016174454
 30
0.0
 10
54.1206443295
 20
238.9018133561
 30
0.0
 10
56.5692944287
 20
243.9357252418
 30
0.0
 10
59.8525935129
 20
248.2828188055
 30
0.0
 10
61.738276484
 20
250.1839028457
 30
0.0
 10
62.7309911447
 20
251.050725703
 30
0.0
  0
SPLINE
  5
4F3
100
AcDbEntity
  8
0
100
AcDbSpline
 62
7
  6
CONTINUOUS
 70
0
 71
3
 72
11
 73
7
 74
0
 42
0.0000001
 43
0.0000001
 44
0.0000000001
 40
0.0
 40
0.0
 40
0.0
 40
0.0
 40
0.2396162722
 40
0.4864910521
 40
0.7402964814
 40
1.0
 40
1.0
 40
1.0
 40
1.0
 10
60.2265480117
 20
204.3785070845
 30
0.0
 10
59.1769926113
 20
205.4292179246
 30
0.0
 10
57.2352261179
 20
207.7591954624
 30
0.0
 10
54.9169145226
 20
211.7409394145
 30
0.0
 10
53.2069002447
 20
216.1518681498
 30
0.0
 10
52.5093651058
 20
219.270873871
 30
0.0
 10
52.2707658812
 20
220.8627024283
 30
0.0
  0
SPLINE
  5
4F4
100
AcDbEntity
  8
0
100
AcDbSpline
 62
7
  6
CONTINUOUS
 70
0
 71
3
 72
9
 73
5
 74
0
 42
0.0000001
 43
0.0000001
 44
0.0000000001
 40
0.0
 40
0.0
 40
0.0
 40
0.0
 40
0.4975659169
 40
1.0
 40
1.0
 40
1.0
 40
1.0
 10
37.1564256151
 20
192.9349992512
 30
0.0
 10
36.8840513016
 20
192.9731427829
 30
0.0
 10
36.3425471807
 20
193.1001368335
 30
0.0
 10
35.8328217576
 20
193.3222883248
 30
0.0
 10
35.5888292629
 20
193.4549449104
 30
0.0
  0
SPLINE
  5
4F5
100
AcDbEntity
  8
0
100
AcDbSpline
 62
7
  6
CONTINUOUS
 70
0
 71
3
 72
11
 73
7
 74
0
 42
0.0000001
 43
0.0000001
 44
0.0000000001
 40
0.0
 40
0.0
 40
0.0
 40
0.0
 40
0.235589836
 40
0.4805599135
 40
0.7357658557
 40
1.0
 40
1.0
 40
1.0
 40
1.0
 10
35.5888292629
 20
193.4549449104
 30
0.0
 10
35.2082318511
 20
193.6618723949
 30
0.0
 10
34.486591106
 20
194.1920117082
 30
0.0
 10
33.620774479
 20
195.2476388576
 30
0.0
 10
32.9935382516
 20
196.5178938966
 30
0.0
 10
32.7580981932
 20
197.4516840654
 30
0.0
 10
32.6860734366
 20
197.9322014039
 30
0.0
  0
SPLINE
  5
4F6
100
AcDbEntity
  8
0
100
AcDbSpline
 62
7
  6
CONTINUOUS
 70
0
 71
3
 72
13
 73
9
 74
0
 42
0.0000001
 43
0.0000001
 44
0.0000000001
 40
0.0
 40
0.0
 40
0.0
 40
0.0
 40
0.2608067127
 40
0.3918049855
 40
0.5209402171
 40
0.7680455474
 40
0.885948595
 40
1.0
 40
1.0
 40
1.0
 40
1.0
 10
25.1086779328
 20
248.4852347232
 30
0.0
 10
24.9837526351
 20
249.3186810885
 30
0.0
 10
25.0107107552
 20
250.6147227488
 30
0.0
 10
25.4531046554
 20
252.2448039807
 30
0.0
 10
26.138426939
 20
253.7397451567
 30
0.0
 10
27.1771578912
 20
255.009044633
 30
0.0
 10
28.4734494467
 20
255.8711265943
 30
0.0
 10
29.1774320258
 20
256.148911027
 30
0.0
 10
29.5334045035
 20
256.2443314013
 30
0.0
  0
SPLINE
  5
4F7
100
AcDbEntity
  8
0
100
AcDbSpline
 62
7
  6
CONTINUOUS
 70
0
 71
3
 72
11
 73
7
 74
0
 42
0.0000001
 43
0.0000001
 44
0.0000000001
 40
0.0
 40
0.0
 40
0.0
 40
0.0
 40
0.2634204582
 40
0.5183455262
 40
0.7636653194
 40
1.0
 40
1.0
 40
1.0
 40
1.0
 10
34.1091173262
 20
247.6381452005
 30
0.0
 10
33.9585381688
 20
247.3216032672
 30
0.0
 10
33.6033042646
 20
246.7244983983
 30
0.0
 10
32.9165036553
 20
245.9659823744
 30
0.0
 10
32.113038365
 20
245.3911235149
 30
0.0
 10
31.5129399979
 20
245.1457596124
 30
0.0
 10
31.2091746662
 20
245.0643336498
 30
0.0
  0
SPLINE
  5
4F8
100
AcDbEntity
  8
0
100
AcDbSpline
 62
7
  6
CONTINUOUS
 70
0
 71
3
 72
14
 73
10
 74
0
 42
0.0000001
 43
0.0000001
 44
0.0000000001
 40
0.0
 40
0.0
 40
0.0
 40
0.0
 40
0.112508087
 40
0.2275582037
 40
0.3470014389
 40
0.4715921732
 40
0.6009373546
 40
0.7336918394
 40
1.0
 40
1.0
 40
1.0
 40
1.0
 10
80.6801417449
 20
202.349811256
 30
0.0
 10
80.9083643812
 20
202.3178741629
 30
0.0
 10
81.3817919286
 20
202.319403863
 30
0.0
 10
82.0723795822
 20
202.5196402859
 30
0.0
 10
82.7090807482
 20
202.9030991769
 30
0.0
 10
83.2571277721
 20
203.4458676125
 30
0.0
 10
83.6884657616
 20
204.1176967911
 30
0.0
 10
84.07836216
 20
205.1326285089
 30
0.0
 10
84.1392759467
 20
205.9761551308
 30
0.0
 10
84.0685747695
 20
206.5170235215
 30
0.0
  0
SPLINE
  5
4F9
100
AcDbEntity
  8
0
100
AcDbSpline
 62
7
  6
CONTINUOUS
 70
0
 71
3
 72
12
 73
8
 74
0
 42
0.0000001
 43
0.0000001
 44
0.0000000001
 40
0.0
 40
0.0
 40
0.0
 40
0.0
 40
0.1141465032
 40
0.2321738583
 40
0.4794960043
 40
0.7389461754
 40
1.0
 40
1.0
 40
1.0
 40
1.0
 10
32.1880709163
 20
244.9272357076
 30
0.0
 10
32.4618744567
 20
245.0006302478
 30
0.0
 10
33.0033638829
 20
245.2143144169
 30
0.0
 10
34.0007789636
 20
245.8776488966
 30
0.0
 10
35.0082535423
 20
247.1090444678
 30
0.0
 10
35.6603241873
 20
248.9344646903
 30
0.0
 10
35.6878065134
 20
250.2546364226
 30
0.0
 10
35.5917067421
 20
250.8957716176
 30
0.0
  0
SPLINE
  5
4FA
100
AcDbEntity
  8
0
100
AcDbSpline
 62
7
  6
CONTINUOUS
 70
0
 71
3
 72
17
 73
13
 74
0
 42
0.0000001
 43
0.0000001
 44
0.0000000001
 40
0.0
 40
0.0
 40
0.0
 40
0.0
 40
0.1179828774
 40
0.2605779244
 40
0.4170407478
 40
0.5743024798
 40
0.7191848507
 40
0.8405111667
 40
0.8902229497
 40
0.9324169003
 40
0.9681664809
 40
1.0
 40
1.0
 40
1.0
 40
1.0
 10
11.9501144491
 20
202.9607932139
 30
0.0
 10
12.130295823
 20
202.8567237987
 30
0.0
 10
12.5635429678
 20
202.6894336224
 30
0.0
 10
13.2861553671
 20
202.5432075059
 30
0.0
 10
14.091352828
 20
202.4885874077
 30
0.0
 10
14.9011959441
 20
202.5316090642
 30
0.0
 10
15.6374093599
 20
202.6678153503
 30
0.0
 10
16.1665372771
 20
202.8575127572
 30
0.0
 10
16.4882275145
 20
203.0551104325
 30
0.0
 10
16.6565421003
 20
203.207189978
 30
0.0
 10
16.7642046581
 20
203.3716403997
 30
0.0
 10
16.7901291583
 20
203.4917149714
 30
0.0
 10
16.7901558113
 20
203.547857033
 30
0.0
  0
SPLINE
  5
4FB
100
AcDbEntity
  8
0
100
AcDbSpline
 62
7
  6
CONTINUOUS
 70
0
 71
3
 72
17
 73
13
 74
0
 42
0.0000001
 43
0.0000001
 44
0.0000000001
 40
0.0
 40
0.0
 40
0.0
 40
0.0
 40
0.1179828774
 40
0.2605779244
 40
0.4170407478
 40
0.5743024798
 40
0.7191848507
 40
0.8405111667
 40
0.8902229497
 40
0.9324169003
 40
0.9681664809
 40
1.0
 40
1.0
 40
1.0
 40
1.0
 10
-6.6293983519
 20
213.6919747545
 30
0.0
 10
-6.4492169781
 20
213.5879053393
 30
0.0
 10
-6.0159698332
 20
213.420615163
 30
0.0
 10
-5.293357434
 20
213.2743890465
 30
0.0
 10
-4.488159973
 20
213.2197689483
 30
0.0
 10
-3.6783168569
 20
213.2627906048
 30
0.0
 10
-2.9421034412
 20
213.3989968909
 30
0.0
 10
-2.412975524
 20
213.5886942978
 30
0.0
 10
-2.0912852865
 20
213.7862919731
 30
0.0
 10
-1.9229707007
 20
213.9383715185
 30
0.0
 10
-1.8153081429
 20
214.1028219403
 30
0.0
 10
-1.7893836427
 20
214.222896512
 30
0.0
 10
-1.7893569897
 20
214.2790385736
 30
0.0
  0
SPLINE
  5
4FC
100
AcDbEntity
  8
0
100
AcDbSpline
 62
7
  6
CONTINUOUS
 70
0
 71
3
 72
11
 73
7
 74
0
 42
0.0000001
 43
0.0000001
 44
0.0000000001
 40
0.0
 40
0.0
 40
0.0
 40
0.0
 40
0.2032383987
 40
0.4289071888
 40
0.692421533
 40
1.0
 40
1.0
 40
1.0
 40
1.0
 10
11.4902385269
 20
203.5478567561
 30
0.0
 10
11.4902135129
 20
203.4951670709
 30
0.0
 10
11.5128243607
 20
203.3831869278
 30
0.0
 10
11.6076633702
 20
203.2277518749
 30
0.0
 10
11.757238023
 20
203.0830764025
 30
0.0
 10
11.8810645619
 20
203.0006751464
 30
0.0
 10
11.9501144491
 20
202.9607932139
 30
0.0
  0
SPLINE
  5
4FD
100
AcDbEntity
  8
0
100
AcDbSpline
 62
7
  6
CONTINUOUS
 70
0
 71
3
 72
11
 73
7
 74
0
 42
0.0000001
 43
0.0000001
 44
0.0000000001
 40
0.0
 40
0.0
 40
0.0
 40
0.0
 40
0.2032383987
 40
0.4289071888
 40
0.692421533
 40
1.0
 40
1.0
 40
1.0
 40
1.0
 10
-7.0892742742
 20
214.2790382967
 30
0.0
 10
-7.0892992882
 20
214.2263486114
 30
0.0
 10
-7.0666884403
 20
214.1143684684
 30
0.0
 10
-6.9718494308
 20
213.9589334155
 30
0.0
 10
-6.8222747781
 20
213.8142579431
 30
0.0
 10
-6.6984482392
 20
213.731856687
 30
0.0
 10
-6.6293983519
 20
213.6919747545
 30
0.0
  0
SPLINE
  5
4FE
100
AcDbEntity
  8
0
100
AcDbSpline
 62
7
  6
CONTINUOUS
 70
0
 71
3
 72
12
 73
8
 74
0
 42
0.0000001
 43
0.0000001
 44
0.0000000001
 40
0.0
 40
0.0
 40
0.0
 40
0.0
 40
0.1142448348
 40
0.2323359306
 40
0.4797519486
 40
0.739123642
 40
1.0
 40
1.0
 40
1.0
 40
1.0
 10
27.7049926191
 20
256.7169444901
 30
0.0
 10
27.3380516883
 20
256.6143869674
 30
0.0
 10
26.6132506626
 20
256.3203623918
 30
0.0
 10
25.2802977027
 20
255.4186545136
 30
0.0
 10
23.9362681123
 20
253.7584737385
 30
0.0
 10
23.0679816698
 20
251.305585988
 30
0.0
 10
23.0328403545
 20
249.5339851798
 30
0.0
 10
23.1618063556
 20
248.6735810282
 30
0.0
  0
SPLINE
  5
4FF
100
AcDbEntity
  8
0
100
AcDbSpline
 62
7
  6
CONTINUOUS
 70
0
 71
3
 72
11
 73
7
 74
0
 42
0.0000001
 43
0.0000001
 44
0.0000000001
 40
0.0
 40
0.0
 40
0.0
 40
0.0
 40
0.2685707995
 40
0.52414815
 40
0.7663586112
 40
1.0
 40
1.0
 40
1.0
 40
1.0
 10
30.7392018588
 20
198.1205477128
 30
0.0
 10
30.8378525202
 20
197.4623941071
 30
0.0
 10
31.1994007928
 20
196.1950462467
 30
0.0
 10
32.2315483869
 20
194.5671661522
 30
0.0
 10
33.661322772
 20
193.3988128883
 30
0.0
 10
34.8081330815
 20
193.0114389558
 30
0.0
 10
35.381490659
 20
192.931145473
 30
0.0
  0
SPLINE
  5
500
100
AcDbEntity
  8
0
100
AcDbSpline
 62
7
  6
CONTINUOUS
 70
0
 71
3
 72
11
 73
7
 74
0
 42
0.0000001
 43
0.0000001
 44
0.0000000001
 40
0.0
 40
0.0
 40
0.0
 40
0.0
 40
0.2032665715
 40
0.4289015617
 40
0.692283341
 40
1.0
 40
1.0
 40
1.0
 40
1.0
 10
-14.3566113169
 20
209.668471945
 30
0.0
 10
-14.3565882198
 20
209.5690427892
 30
0.0
 10
-14.3139981119
 20
209.3577610453
 30
0.0
 10
-14.1350199222
 20
209.0645748176
 30
0.0
 10
-13.8529387553
 20
208.7914932557
 30
0.0
 10
-13.6192371253
 20
208.6360879821
 30
0.0
 10
-13.4888946492
 20
208.5608045886
 30
0.0
  0
SPLINE
  5
501
100
AcDbEntity
  8
0
100
AcDbSpline
 62
7
  6
CONTINUOUS
 70
0
 71
3
 72
13
 73
9
 74
0
 42
0.0000001
 43
0.0000001
 44
0.0000000001
 40
0.0
 40
0.0
 40
0.0
 40
0.0
 40
0.083672979
 40
0.1736474593
 40
0.2747441703
 40
0.3898444162
 40
0.6656232473
 40
1.0
 40
1.0
 40
1.0
 40
1.0
 10
-14.3566113169
 20
216.7697702927
 30
0.0
 10
-14.3566300147
 20
216.8502608112
 30
0.0
 10
-14.3296169825
 20
217.018241199
 30
0.0
 10
-14.2127752009
 20
217.2585484566
 30
0.0
 10
-14.0248069549
 20
217.488003542
 30
0.0
 10
-13.6625591948
 20
217.7955033108
 30
0.0
 10
-13.0411138622
 20
218.1269886325
 30
0.0
 10
-12.4824311866
 20
218.3124245935
 30
0.0
 10
-12.1717407992
 20
218.3957068553
 30
0.0
  0
SPLINE
  5
502
100
AcDbEntity
  8
0
100
AcDbSpline
 62
7
  6
CONTINUOUS
 70
0
 71
3
 72
13
 73
9
 74
0
 42
0.0000001
 43
0.0000001
 44
0.0000000001
 40
0.0
 40
0.0
 40
0.0
 40
0.0
 40
0.1115123649
 40
0.2274071969
 40
0.3478144136
 40
0.4725175079
 40
0.7320964134
 40
1.0
 40
1.0
 40
1.0
 40
1.0
 10
17.3571650379
 20
257.313935377
 30
0.0
 10
16.2019223694
 20
257.2542911315
 30
0.0
 10
13.8526566959
 20
256.9387134352
 30
0.0
 10
10.377044527
 20
255.9277027033
 30
0.0
 10
6.9487588501
 20
254.3923720554
 30
0.0
 10
2.4730997775
 20
251.6529356891
 30
0.0
 10
-2.6130306736
 20
247.0974796307
 30
0.0
 10
-5.8346908741
 20
242.6167231075
 30
0.0
 10
-7.2130629426
 20
240.2035136822
 30
0.0
  0
SPLINE
  5
503
100
AcDbEntity
  8
0
100
AcDbSpline
 62
7
  6
CONTINUOUS
 70
0
 71
3
 72
13
 73
9
 74
0
 42
0.0000001
 43
0.0000001
 44
0.0000000001
 40
0.0
 40
0.0
 40
0.0
 40
0.0
 40
0.1140354166
 40
0.2319219367
 40
0.3540191309
 40
0.4800422958
 40
0.7392299027
 40
1.0
 40
1.0
 40
1.0
 40
1.0
 10
25.2899514311
 20
258.9801140355
 30
0.0
 10
24.7970664107
 20
258.8479935034
 30
0.0
 10
23.8224840409
 20
258.4636492125
 30
0.0
 10
22.4951527364
 20
257.5801188506
 30
0.0
 10
21.3278554203
 20
256.4167471003
 30
0.0
 10
20.0329677201
 20
254.5392010097
 30
0.0
 10
19.0381931744
 20
251.7652641811
 30
0.0
 10
18.9904334736
 20
249.3907519383
 30
0.0
 10
19.163406945
 20
248.2367493976
 30
0.0
  0
SPLINE
  5
504
100
AcDbEntity
  8
0
100
AcDbSpline
 62
7
  6
CONTINUOUS
 70
0
 71
3
 72
17
 73
13
 74
0
 42
0.0000001
 43
0.0000001
 44
0.0000000001
 40
0.0
 40
0.0
 40
0.0
 40
0.0
 40
0.1179828774
 40
0.2605779244
 40
0.4170407478
 40
0.5743024798
 40
0.7191848507
 40
0.8405111667
 40
0.8902229497
 40
0.9324169003
 40
0.9681664809
 40
1.0
 40
1.0
 40
1.0
 40
1.0
 10
-2.249232912
 20
214.8661021157
 30
0.0
 10
-2.4294142858
 20
214.970171531
 30
0.0
 10
-2.8626614307
 20
215.1374617073
 30
0.0
 10
-3.5852738299
 20
215.2836878238
 30
0.0
 10
-4.3904712909
 20
215.3383079219
 30
0.0
 10
-5.200314407
 20
215.2952862655
 30
0.0
 10
-5.9365278227
 20
215.1590799794
 30
0.0
 10
-6.4656557399
 20
214.9693825725
 30
0.0
 10
-6.7873459774
 20
214.7717848972
 30
0.0
 10
-6.9556605632
 20
214.6197053517
 30
0.0
 10
-7.063323121
 20
214.45525493
 30
0.0
 10
-7.0892476212
 20
214.3351803583
 30
0.0
 10
-7.0892742742
 20
214.2790382967
 30
0.0
  0
SPLINE
  5
505
100
AcDbEntity
  8
0
100
AcDbSpline
 62
7
  6
CONTINUOUS
 70
0
 71
3
 72
11
 73
7
 74
0
 42
0.0000001
 43
0.0000001
 44
0.0000000001
 40
0.0
 40
0.0
 40
0.0
 40
0.0
 40
0.2032383987
 40
0.4289071888
 40
0.692421533
 40
1.0
 40
1.0
 40
1.0
 40
1.0
 10
-1.7893569897
 20
214.2790385736
 30
0.0
 10
-1.7893319757
 20
214.3317282588
 30
0.0
 10
-1.8119428236
 20
214.4437084019
 30
0.0
 10
-1.9067818331
 20
214.5991434547
 30
0.0
 10
-2.0563564858
 20
214.7438189272
 30
0.0
 10
-2.1801830248
 20
214.8262201833
 30
0.0
 10
-2.249232912
 20
214.8661021157
 30
0.0
  0
SPLINE
  5
506
100
AcDbEntity
  8
0
100
AcDbSpline
 62
7
  6
CONTINUOUS
 70
0
 71
3
 72
9
 73
5
 74
0
 42
0.0000001
 43
0.0000001
 44
0.0000000001
 40
0.0
 40
0.0
 40
0.0
 40
0.0
 40
0.249180208
 40
1.0
 40
1.0
 40
1.0
 40
1.0
 10
35.4026303658
 20
192.9282338087
 30
0.0
 10
35.5198302755
 20
192.9123614921
 30
0.0
 10
35.9924242896
 20
192.8662564103
 30
0.0
 10
36.4717676675
 20
192.8923417655
 30
0.0
 10
36.823373752
 20
192.9503916176
 30
0.0
  0
SPLINE
  5
507
100
AcDbEntity
  8
0
100
AcDbSpline
 62
7
  6
CONTINUOUS
 70
0
 71
3
 72
11
 73
7
 74
0
 42
0.0000001
 43
0.0000001
 44
0.0000000001
 40
0.0
 40
0.0
 40
0.0
 40
0.0
 40
0.307716659
 40
0.5710984383
 40
0.7967334285
 40
1.0
 40
1.0
 40
1.0
 40
1.0
 10
-13.4888946492
 20
215.6621029363
 30
0.0
 10
-13.6192371253
 20
215.7373863299
 30
0.0
 10
-13.8529387553
 20
215.8927916034
 30
0.0
 10
-14.1350199222
 20
216.1658731653
 30
0.0
 10
-14.3139981119
 20
216.459059393
 30
0.0
 10
-14.3565882198
 20
216.6703411369
 30
0.0
 10
-14.3566113169
 20
216.7697702927
 30
0.0
  0
SPLINE
  5
508
100
AcDbEntity
  8
0
100
AcDbSpline
 62
7
  6
CONTINUOUS
 70
0
 71
3
 72
17
 73
13
 74
0
 42
0.0000001
 43
0.0000001
 44
0.0000000001
 40
0.0
 40
0.0
 40
0.0
 40
0.0
 40
0.1179828774
 40
0.2605779244
 40
0.4170407478
 40
0.5743024798
 40
0.7191848507
 40
0.8405111667
 40
0.8902229497
 40
0.9324169003
 40
0.9681664809
 40
1.0
 40
1.0
 40
1.0
 40
1.0
 10
16.3302798891
 20
204.1349205752
 30
0.0
 10
16.1500985152
 20
204.2389899904
 30
0.0
 10
15.7168513704
 20
204.4062801667
 30
0.0
 10
14.9942389711
 20
204.5525062832
 30
0.0
 10
14.1890415102
 20
204.6071263814
 30
0.0
 10
13.3791983941
 20
204.5641047249
 30
0.0
 10
12.6429849783
 20
204.4278984388
 30
0.0
 10
12.1138570611
 20
204.2382010319
 30
0.0
 10
11.7921668237
 20
204.0406033566
 30
0.0
 10
11.6238522379
 20
203.8885238111
 30
0.0
 10
11.5161896801
 20
203.7240733894
 30
0.0
 10
11.4902651799
 20
203.6039988177
 30
0.0
 10
11.4902385269
 20
203.5478567561
 30
0.0
  0
SPLINE
  5
509
100
AcDbEntity
  8
0
100
AcDbSpline
 62
7
  6
CONTINUOUS
 70
0
 71
3
 72
13
 73
9
 74
0
 42
0.0000001
 43
0.0000001
 44
0.0000000001
 40
0.0
 40
0.0
 40
0.0
 40
0.0
 40
0.2607701243
 40
0.5199577384
 40
0.6459808999
 40
0.7680780881
 40
0.8859645952
 40
1.0
 40
1.0
 40
1.0
 40
1.0
 10
21.3387319455
 20
247.9320873039
 30
0.0
 10
21.1657584562
 20
249.0860899643
 30
0.0
 10
21.2135182009
 20
251.4606023741
 30
0.0
 10
22.2082929088
 20
254.2345392942
 30
0.0
 10
23.5031806772
 20
256.1120853264
 30
0.0
 10
24.6704779826
 20
257.2754569422
 30
0.0
 10
25.9978091876
 20
258.1589871995
 30
0.0
 10
26.9723914622
 20
258.5433314234
 30
0.0
 10
27.4652764316
 20
258.6754519418
 30
0.0
  0
SPLINE
  5
50A
100
AcDbEntity
  8
0
100
AcDbSpline
 62
7
  6
CONTINUOUS
 70
0
 71
3
 72
11
 73
7
 74
0
 42
0.0000001
 43
0.0000001
 44
0.0000000001
 40
0.0
 40
0.0
 40
0.0
 40
0.0
 40
0.2032383987
 40
0.4289071888
 40
0.692421533
 40
1.0
 40
1.0
 40
1.0
 40
1.0
 10
16.7901558113
 20
203.547857033
 30
0.0
 10
16.7901808253
 20
203.6005467182
 30
0.0
 10
16.7675699775
 20
203.7125268613
 30
0.0
 10
16.672730968
 20
203.8679619142
 30
0.0
 10
16.5231563152
 20
204.0126373866
 30
0.0
 10
16.3993297763
 20
204.0950386427
 30
0.0
 10
16.3302798891
 20
204.1349205752
 30
0.0
  0
ENDSEC
  0
SECTION
  2
OBJECTS
  0
DICTIONARY
  5
C
100
AcDbDictionary
280
0
281
1
  3
ACAD_GROUP
350
D
  3
ACAD_MLINESTYLE
350
17
  3
ACAD_LAYOUT
350
1A
  3
ACAD_PLOTSETTINGS
350
19
  3
ACAD_PLOTSTYLENAME
350
E
  0
DICTIONARY
  5
D
102
{ACAD_REACTORS
330
C
102
}
100
AcDbDictionary
280
0
281
1
  0
ACDBDICTIONARYWDFLT
  5
E
102
{ACAD_REACTORS
330
C
102
}
100
AcDbDictionary
281
1
  3
Normal
350
F
100
AcDbDictionaryWithDefault
340
F
  0
DICTIONARY
  5
17
102
{ACAD_REACTORS
330
C
102
}
100
AcDbDictionary
280
0
281
1
  3
Standard
350
18
  0
DICTIONARY
  5
19
102
{ACAD_REACTORS
330
C
102
}
100
AcDbDictionary
281
1
  0
DICTIONARY
  5
1A
102
{ACAD_REACTORS
330
C
102
}
100
AcDbDictionary
281
1
  3
Model
350
50B
  3
Layout1
350
50C
  0
ACDBPLACEHOLDER
  5
F
102
{ACAD_REACTORS
330
E
102
}
  0
MLINESTYLE
  5
18
102
{ACAD_REACTORS
330
17
102
}
100
AcDbMlineStyle
  2
STANDARD
 70
0
  3

 62
256
 51
90.0
 52
90.0
 71
2
 49
0.5
 62
256
  6
BYLAYER
 49
-0.5
 62
256
  6
BYLAYER
  0
LAYOUT
  5
50B
102
{ACAD_REACTORS
330
1A
102
}
100
AcDbPlotSettings
  1

  2
none_device
  4
ANSI_C_(22.00_x_17.00_Inches)
  6

 40
0.0
 41
0.0
 42
0.0
 43
0.0
 44
558.8
 45
431.8
 46
0.0
 47
0.0
 48
0.0
 49
0.0
140
0.0
141
0.0
142
1.0
143
1.0
 70
1024
 72
1
 73
0
 74
0
  7

 75
0
147
1.0
148
0.0
149
0.0
100
AcDbLayout
  1
Model
 70
0
 71
0
 10
0.0
 20
0.0
 11
558.8
 21
431.8
 12
0.0
 22
0.0
 32
0.0
 14
0.0
 24
0.0
 34
0.0
 15
0.0
 25
0.0
 35
0.0
146
0.0
 13
0.0
 23
0.0
 33
0.0
 16
1.0
 26
0.0
 36
0.0
 17
0.0
 27
1.0
 37
0.0
 76
0
330
216
345
0
346
0
  0
LAYOUT
  5
50C
102
{ACAD_REACTORS
330
1A
102
}
100
AcDbPlotSettings
  1

  2
none_device
  4
ANSI_C_(22.00_x_17.00_Inches)
  6

 40
0.0
 41
0.0
 42
0.0
 43
0.0
 44
558.8
 45
431.8
 46
0.0
 47
0.0
 48
0.0
 49
0.0
140
0.0
141
0.0
142
1.0
143
1.0
 70
0
 72
1
 73
0
 74
0
  7

 75
0
147
1.0
148
0.0
149
0.0
100
AcDbLayout
  1
Layout1
 70
0
 71
1
 10
0.0
 20
0.0
 11
558.8
 21
431.8
 12
0.0
 22
0.0
 32
0.0
 14
0.0
 24
0.0
 34
0.0
 15
0.0
 25
0.0
 35
0.0
146
0.0
 13
0.0
 23
0.0
 33
0.0
 16
1.0
 26
0.0
 36
0.0
 17
0.0
 27
1.0
 37
0.0
 76
0
330
217
345
0
346
0
  0
ENDSEC
  0
EOF
